999
********************************
999
*   DXF File - Entities Only   *
999
*        3D Data Format        *
999
*     Output from ENVISAGE     *
999
*     28-Dec-2007 13:49:36     *
999
********************************
  0
SECTION 
  2
HEADER
  9
$ACADVER
  1
AC1009
  9
$EXTMIN
 10
-290000.000
 20
-250000.000
 30
-4000.000
  9
$EXTMAX
 10
5000000.000
 20
600000.000
 30
6000.000
  0
ENDSEC
  0
SECTION
  2
ENTITIES
  0
POLYLINE
  8
1000LEVEL
 62
5
 66
     1
 70
     9
  0
VERTEX
  8
1000LEVEL
 62
5
 10
1518.682
 20
-119.383
 30
4227.000
 70
    32
  0
VERTEX
  8
1000LEVEL
 62
5
 10
1512.532
 20
-166.271
 30
4227.000
 70
    32
  0
VERTEX
  8
1000LEVEL
 62
5
 10
1518.072
 20
-223.388
 30
4227.000
 70
    32
  0
VERTEX
  8
1000LEVEL
 62
5
 10
1535.874
 20
-265.620
 30
4227.000
 70
    32
  0
VERTEX
  8
1000LEVEL
 62
5
 10
1531.413
 20
-316.061
 30
4227.000
 70
    32
  0
VERTEX
  8
1000LEVEL
 62
5
 10
1517.215
 20
-378.271
 30
4227.000
 70
    32
  0
VERTEX
  8
1000LEVEL
 62
5
 10
1496.925
 20
-428.394
 30
4227.000
 70
    32
  0
VERTEX
  8
1000LEVEL
 62
5
 10
1482.782
 20
-494.898
 30
4227.000
 70
    32
  0
VERTEX
  8
1000LEVEL
 62
5
 10
1491.302
 20
-550.738
 30
4227.000
 70
    32
  0
VERTEX
  8
1000LEVEL
 62
5
 10
1486.966
 20
-601.956
 30
4227.000
 70
    32
  0
VERTEX
  8
1000LEVEL
 62
5
 10
1493.533
 20
-660.501
 30
4227.000
 70
    32
  0
VERTEX
  8
1000LEVEL
 62
5
 10
1502.875
 20
-717.483
 30
4227.000
 70
    32
  0
VERTEX
  8
1000LEVEL
 62
5
 10
1506.999
 20
-753.950
 30
4227.000
 70
    32
  0
VERTEX
  8
1000LEVEL
 62
5
 10
1503.851
 20
-805.614
 30
4227.000
 70
    32
  0
VERTEX
  8
1000LEVEL
 62
5
 10
1485.012
 20
-797.495
 30
4227.000
 70
    32
  0
VERTEX
  8
1000LEVEL
 62
5
 10
1479.206
 20
-746.636
 30
4227.000
 70
    32
  0
VERTEX
  8
1000LEVEL
 62
5
 10
1468.561
 20
-691.458
 30
4227.000
 70
    32
  0
VERTEX
  8
1000LEVEL
 62
5
 10
1456.799
 20
-632.316
 30
4227.000
 70
    32
  0
VERTEX
  8
1000LEVEL
 62
5
 10
1465.066
 20
-557.038
 30
4227.000
 70
    32
  0
VERTEX
  8
1000LEVEL
 62
5
 10
1465.114
 20
-495.036
 30
4227.000
 70
    32
  0
VERTEX
  8
1000LEVEL
 62
5
 10
1473.519
 20
-437.426
 30
4227.000
 70
    32
  0
VERTEX
  8
1000LEVEL
 62
5
 10
1492.236
 20
-381.500
 30
4227.000
 70
    32
  0
VERTEX
  8
1000LEVEL
 62
5
 10
1510.610
 20
-307.620
 30
4227.000
 70
    32
  0
VERTEX
  8
1000LEVEL
 62
5
 10
1499.913
 20
-262.012
 30
4227.000
 70
    32
  0
VERTEX
  8
1000LEVEL
 62
5
 10
1478.857
 20
-199.587
 30
4227.000
 70
    32
  0
VERTEX
  8
1000LEVEL
 62
5
 10
1483.674
 20
-145.423
 30
4227.000
 70
    32
  0
VERTEX
  8
1000LEVEL
 62
5
 10
1492.448
 20
-100.980
 30
4227.000
 70
    32
  0
SEQEND
  8
1000LEVEL
  0
POLYLINE
  8
1000LEVEL
 62
5
 66
     1
 70
     9
  0
VERTEX
  8
1000LEVEL
 62
5
 10
1249.684
 20
-526.886
 30
4227.000
 70
    32
  0
VERTEX
  8
1000LEVEL
 62
5
 10
1251.786
 20
-467.741
 30
4227.000
 70
    32
  0
VERTEX
  8
1000LEVEL
 62
5
 10
1252.521
 20
-403.079
 30
4227.000
 70
    32
  0
VERTEX
  8
1000LEVEL
 62
5
 10
1254.780
 20
-329.088
 30
4227.000
 70
    32
  0
VERTEX
  8
1000LEVEL
 62
5
 10
1252.229
 20
-259.856
 30
4227.000
 70
    32
  0
VERTEX
  8
1000LEVEL
 62
5
 10
1236.859
 20
-198.108
 30
4227.000
 70
    32
  0
VERTEX
  8
1000LEVEL
 62
5
 10
1217.356
 20
-135.433
 30
4227.000
 70
    32
  0
VERTEX
  8
1000LEVEL
 62
5
 10
1197.619
 20
-101.959
 30
4227.000
 70
    32
  0
VERTEX
  8
1000LEVEL
 62
5
 10
1196.845
 20
-154.515
 30
4227.000
 70
    32
  0
VERTEX
  8
1000LEVEL
 62
5
 10
1205.051
 20
-240.047
 30
4227.000
 70
    32
  0
VERTEX
  8
1000LEVEL
 62
5
 10
1222.347
 20
-290.011
 30
4227.000
 70
    32
  0
VERTEX
  8
1000LEVEL
 62
5
 10
1233.592
 20
-353.857
 30
4227.000
 70
    32
  0
VERTEX
  8
1000LEVEL
 62
5
 10
1233.062
 20
-418.805
 30
4227.000
 70
    32
  0
VERTEX
  8
1000LEVEL
 62
5
 10
1233.961
 20
-482.725
 30
4227.000
 70
    32
  0
VERTEX
  8
1000LEVEL
 62
5
 10
1235.017
 20
-531.799
 30
4227.000
 70
    32
  0
SEQEND
  8
1000LEVEL
  0
POLYLINE
  8
1000LEVEL
 62
5
 66
     1
 70
     9
  0
VERTEX
  8
1000LEVEL
 62
5
 10
2006.858
 20
-601.202
 30
4227.000
 70
    32
  0
VERTEX
  8
1000LEVEL
 62
5
 10
1960.852
 20
-628.218
 30
4227.000
 70
    32
  0
VERTEX
  8
1000LEVEL
 62
5
 10
1893.934
 20
-676.772
 30
4227.000
 70
    32
  0
VERTEX
  8
1000LEVEL
 62
5
 10
1827.779
 20
-708.310
 30
4227.000
 70
    32
  0
VERTEX
  8
1000LEVEL
 62
5
 10
1753.688
 20
-739.056
 30
4227.000
 70
    32
  0
VERTEX
  8
1000LEVEL
 62
5
 10
1676.064
 20
-777.542
 30
4227.000
 70
    32
  0
VERTEX
  8
1000LEVEL
 62
5
 10
1606.116
 20
-812.242
 30
4227.000
 70
    32
  0
VERTEX
  8
1000LEVEL
 62
5
 10
1561.702
 20
-851.113
 30
4227.000
 70
    32
  0
VERTEX
  8
1000LEVEL
 62
5
 10
1535.957
 20
-896.060
 30
4227.000
 70
    32
  0
VERTEX
  8
1000LEVEL
 62
5
 10
1479.001
 20
-939.184
 30
4227.000
 70
    32
  0
VERTEX
  8
1000LEVEL
 62
5
 10
1422.574
 20
-955.927
 30
4227.000
 70
    32
  0
VERTEX
  8
1000LEVEL
 62
5
 10
1352.681
 20
-956.354
 30
4227.000
 70
    32
  0
VERTEX
  8
1000LEVEL
 62
5
 10
1287.788
 20
-960.118
 30
4227.000
 70
    32
  0
VERTEX
  8
1000LEVEL
 62
5
 10
1230.828
 20
-950.811
 30
4227.000
 70
    32
  0
VERTEX
  8
1000LEVEL
 62
5
 10
1231.785
 20
-917.190
 30
4227.000
 70
    32
  0
VERTEX
  8
1000LEVEL
 62
5
 10
1174.074
 20
-941.790
 30
4227.000
 70
    32
  0
VERTEX
  8
1000LEVEL
 62
5
 10
1094.813
 20
-967.153
 30
4227.000
 70
    32
  0
VERTEX
  8
1000LEVEL
 62
5
 10
1044.709
 20
-991.483
 30
4227.000
 70
    32
  0
VERTEX
  8
1000LEVEL
 62
5
 10
985.519
 20
-1026.680
 30
4227.000
 70
    32
  0
VERTEX
  8
1000LEVEL
 62
5
 10
911.162
 20
-1063.684
 30
4227.000
 70
    32
  0
VERTEX
  8
1000LEVEL
 62
5
 10
838.752
 20
-1108.820
 30
4227.000
 70
    32
  0
VERTEX
  8
1000LEVEL
 62
5
 10
768.548
 20
-1152.804
 30
4227.000
 70
    32
  0
VERTEX
  8
1000LEVEL
 62
5
 10
705.873
 20
-1172.307
 30
4227.000
 70
    32
  0
VERTEX
  8
1000LEVEL
 62
5
 10
621.053
 20
-1211.634
 30
4227.000
 70
    32
  0
VERTEX
  8
1000LEVEL
 62
5
 10
578.253
 20
-1243.712
 30
4227.000
 70
    32
  0
VERTEX
  8
1000LEVEL
 62
5
 10
645.514
 20
-1251.677
 30
4227.000
 70
    32
  0
VERTEX
  8
1000LEVEL
 62
5
 10
735.604
 20
-1223.294
 30
4227.000
 70
    32
  0
VERTEX
  8
1000LEVEL
 62
5
 10
807.387
 20
-1174.274
 30
4227.000
 70
    32
  0
VERTEX
  8
1000LEVEL
 62
5
 10
877.261
 20
-1129.228
 30
4227.000
 70
    32
  0
VERTEX
  8
1000LEVEL
 62
5
 10
924.041
 20
-1088.222
 30
4227.000
 70
    32
  0
VERTEX
  8
1000LEVEL
 62
5
 10
1005.526
 20
-1067.760
 30
4227.000
 70
    32
  0
VERTEX
  8
1000LEVEL
 62
5
 10
1070.278
 20
-1032.463
 30
4227.000
 70
    32
  0
VERTEX
  8
1000LEVEL
 62
5
 10
1131.907
 20
-1005.479
 30
4227.000
 70
    32
  0
VERTEX
  8
1000LEVEL
 62
5
 10
1188.215
 20
-977.121
 30
4227.000
 70
    32
  0
VERTEX
  8
1000LEVEL
 62
5
 10
1259.700
 20
-988.550
 30
4227.000
 70
    32
  0
VERTEX
  8
1000LEVEL
 62
5
 10
1342.359
 20
-990.209
 30
4227.000
 70
    32
  0
VERTEX
  8
1000LEVEL
 62
5
 10
1415.154
 20
-988.996
 30
4227.000
 70
    32
  0
VERTEX
  8
1000LEVEL
 62
5
 10
1486.514
 20
-961.081
 30
4227.000
 70
    32
  0
VERTEX
  8
1000LEVEL
 62
5
 10
1534.705
 20
-926.860
 30
4227.000
 70
    32
  0
VERTEX
  8
1000LEVEL
 62
5
 10
1577.990
 20
-867.134
 30
4227.000
 70
    32
  0
VERTEX
  8
1000LEVEL
 62
5
 10
1648.435
 20
-821.677
 30
4227.000
 70
    32
  0
VERTEX
  8
1000LEVEL
 62
5
 10
1731.072
 20
-764.853
 30
4227.000
 70
    32
  0
VERTEX
  8
1000LEVEL
 62
5
 10
1814.749
 20
-726.347
 30
4227.000
 70
    32
  0
VERTEX
  8
1000LEVEL
 62
5
 10
1883.359
 20
-695.210
 30
4227.000
 70
    32
  0
VERTEX
  8
1000LEVEL
 62
5
 10
1958.368
 20
-657.304
 30
4227.000
 70
    32
  0
VERTEX
  8
1000LEVEL
 62
5
 10
2016.595
 20
-628.000
 30
4227.000
 70
    32
  0
SEQEND
  8
1000LEVEL
  0
POLYLINE
  8
1000LEVEL
 62
5
 66
     1
 70
     9
  0
VERTEX
  8
1000LEVEL
 62
5
 10
-199.176
 20
-1603.427
 30
4227.000
 70
    32
  0
VERTEX
  8
1000LEVEL
 62
5
 10
-156.636
 20
-1566.770
 30
4227.000
 70
    32
  0
VERTEX
  8
1000LEVEL
 62
5
 10
-106.721
 20
-1534.343
 30
4227.000
 70
    32
  0
VERTEX
  8
1000LEVEL
 62
5
 10
-68.132
 20
-1515.693
 30
4227.000
 70
    32
  0
VERTEX
  8
1000LEVEL
 62
5
 10
-12.241
 20
-1497.602
 30
4227.000
 70
    32
  0
VERTEX
  8
1000LEVEL
 62
5
 10
46.612
 20
-1472.181
 30
4227.000
 70
    32
  0
VERTEX
  8
1000LEVEL
 62
5
 10
46.978
 20
-1471.485
 30
4227.000
 70
    32
  0
VERTEX
  8
1000LEVEL
 62
5
 10
112.365
 20
-1443.098
 30
4227.000
 70
    32
  0
VERTEX
  8
1000LEVEL
 62
5
 10
161.783
 20
-1421.429
 30
4227.000
 70
    32
  0
VERTEX
  8
1000LEVEL
 62
5
 10
216.094
 20
-1408.373
 30
4227.000
 70
    32
  0
VERTEX
  8
1000LEVEL
 62
5
 10
250.736
 20
-1383.029
 30
4227.000
 70
    32
  0
VERTEX
  8
1000LEVEL
 62
5
 10
280.907
 20
-1405.100
 30
4227.000
 70
    32
  0
VERTEX
  8
1000LEVEL
 62
5
 10
308.912
 20
-1440.428
 30
4227.000
 70
    32
  0
VERTEX
  8
1000LEVEL
 62
5
 10
368.567
 20
-1448.663
 30
4227.000
 70
    32
  0
VERTEX
  8
1000LEVEL
 62
5
 10
425.870
 20
-1437.357
 30
4227.000
 70
    32
  0
VERTEX
  8
1000LEVEL
 62
5
 10
480.291
 20
-1394.323
 30
4227.000
 70
    32
  0
VERTEX
  8
1000LEVEL
 62
5
 10
531.374
 20
-1356.289
 30
4227.000
 70
    32
  0
VERTEX
  8
1000LEVEL
 62
5
 10
574.174
 20
-1324.212
 30
4227.000
 70
    32
  0
VERTEX
  8
1000LEVEL
 62
5
 10
566.228
 20
-1281.826
 30
4227.000
 70
    32
  0
VERTEX
  8
1000LEVEL
 62
5
 10
533.146
 20
-1296.082
 30
4227.000
 70
    32
  0
VERTEX
  8
1000LEVEL
 62
5
 10
488.269
 20
-1343.952
 30
4227.000
 70
    32
  0
VERTEX
  8
1000LEVEL
 62
5
 10
432.106
 20
-1379.139
 30
4227.000
 70
    32
  0
VERTEX
  8
1000LEVEL
 62
5
 10
383.754
 20
-1414.343
 30
4227.000
 70
    32
  0
VERTEX
  8
1000LEVEL
 62
5
 10
346.859
 20
-1425.707
 30
4227.000
 70
    32
  0
VERTEX
  8
1000LEVEL
 62
5
 10
300.680
 20
-1398.248
 30
4227.000
 70
    32
  0
VERTEX
  8
1000LEVEL
 62
5
 10
267.970
 20
-1362.403
 30
4227.000
 70
    32
  0
VERTEX
  8
1000LEVEL
 62
5
 10
219.532
 20
-1370.368
 30
4227.000
 70
    32
  0
VERTEX
  8
1000LEVEL
 62
5
 10
165.005
 20
-1380.112
 30
4227.000
 70
    32
  0
VERTEX
  8
1000LEVEL
 62
5
 10
96.315
 20
-1411.740
 30
4227.000
 70
    32
  0
VERTEX
  8
1000LEVEL
 62
5
 10
27.215
 20
-1442.796
 30
4227.000
 70
    32
  0
VERTEX
  8
1000LEVEL
 62
5
 10
-60.336
 20
-1484.954
 30
4227.000
 70
    32
  0
VERTEX
  8
1000LEVEL
 62
5
 10
-125.383
 20
-1517.430
 30
4227.000
 70
    32
  0
VERTEX
  8
1000LEVEL
 62
5
 10
-188.315
 20
-1546.217
 30
4227.000
 70
    32
  0
VERTEX
  8
1000LEVEL
 62
5
 10
-227.902
 20
-1572.518
 30
4227.000
 70
    32
  0
SEQEND
  8
1000LEVEL
  0
POLYLINE
  8
1000LEVEL
 62
5
 66
     1
 70
     9
  0
VERTEX
  8
1000LEVEL
 62
5
 10
1242.376
 20
-1083.774
 30
4227.000
 70
    32
  0
VERTEX
  8
1000LEVEL
 62
5
 10
1250.668
 20
-1119.411
 30
4227.000
 70
    32
  0
VERTEX
  8
1000LEVEL
 62
5
 10
1260.569
 20
-1159.091
 30
4227.000
 70
    32
  0
VERTEX
  8
1000LEVEL
 62
5
 10
1242.347
 20
-1190.395
 30
4227.000
 70
    32
  0
VERTEX
  8
1000LEVEL
 62
5
 10
1241.159
 20
-1228.516
 30
4227.000
 70
    32
  0
VERTEX
  8
1000LEVEL
 62
5
 10
1254.365
 20
-1278.819
 30
4227.000
 70
    32
  0
VERTEX
  8
1000LEVEL
 62
5
 10
1267.912
 20
-1333.211
 30
4227.000
 70
    32
  0
VERTEX
  8
1000LEVEL
 62
5
 10
1263.676
 20
-1389.991
 30
4227.000
 70
    32
  0
VERTEX
  8
1000LEVEL
 62
5
 10
1257.787
 20
-1441.459
 30
4227.000
 70
    32
  0
VERTEX
  8
1000LEVEL
 62
5
 10
1232.680
 20
-1468.613
 30
4227.000
 70
    32
  0
VERTEX
  8
1000LEVEL
 62
5
 10
1224.413
 20
-1428.192
 30
4227.000
 70
    32
  0
VERTEX
  8
1000LEVEL
 62
5
 10
1216.977
 20
-1353.372
 30
4227.000
 70
    32
  0
VERTEX
  8
1000LEVEL
 62
5
 10
1216.409
 20
-1290.514
 30
4227.000
 70
    32
  0
VERTEX
  8
1000LEVEL
 62
5
 10
1210.272
 20
-1238.593
 30
4227.000
 70
    32
  0
VERTEX
  8
1000LEVEL
 62
5
 10
1211.736
 20
-1197.241
 30
4227.000
 70
    32
  0
VERTEX
  8
1000LEVEL
 62
5
 10
1235.662
 20
-1158.802
 30
4227.000
 70
    32
  0
VERTEX
  8
1000LEVEL
 62
5
 10
1233.678
 20
-1113.862
 30
4227.000
 70
    32
  0
VERTEX
  8
1000LEVEL
 62
5
 10
1228.030
 20
-1086.724
 30
4227.000
 70
    32
  0
SEQEND
  8
1000LEVEL
  0
POLYLINE
  8
1000LEVEL
 62
5
 66
     1
 70
     9
  0
VERTEX
  8
1000LEVEL
 62
5
 10
1179.578
 20
-1309.199
 30
4227.000
 70
    32
  0
VERTEX
  8
1000LEVEL
 62
5
 10
1183.330
 20
-1280.067
 30
4227.000
 70
    32
  0
VERTEX
  8
1000LEVEL
 62
5
 10
1180.676
 20
-1229.976
 30
4227.000
 70
    32
  0
VERTEX
  8
1000LEVEL
 62
5
 10
1168.041
 20
-1179.262
 30
4227.000
 70
    32
  0
VERTEX
  8
1000LEVEL
 62
5
 10
1151.265
 20
-1138.458
 30
4227.000
 70
    32
  0
VERTEX
  8
1000LEVEL
 62
5
 10
1124.942
 20
-1117.521
 30
4227.000
 70
    32
  0
VERTEX
  8
1000LEVEL
 62
5
 10
1138.922
 20
-1153.834
 30
4227.000
 70
    32
  0
VERTEX
  8
1000LEVEL
 62
5
 10
1167.120
 20
-1211.124
 30
4227.000
 70
    32
  0
VERTEX
  8
1000LEVEL
 62
5
 10
1171.301
 20
-1265.751
 30
4227.000
 70
    32
  0
VERTEX
  8
1000LEVEL
 62
5
 10
1173.227
 20
-1292.533
 30
4227.000
 70
    32
  0
SEQEND
  8
1000LEVEL
  0
POLYLINE
  8
1000LEVEL
 62
5
 66
     1
 70
     9
  0
VERTEX
  8
1000LEVEL
 62
5
 10
1043.717
 20
-949.730
 30
4227.000
 70
    32
  0
VERTEX
  8
1000LEVEL
 62
5
 10
1047.305
 20
-984.849
 30
4227.000
 70
    32
  0
VERTEX
  8
1000LEVEL
 62
5
 10
1063.458
 20
-1035.634
 30
4227.000
 70
    32
  0
VERTEX
  8
1000LEVEL
 62
5
 10
1076.963
 20
-1102.623
 30
4227.000
 70
    32
  0
VERTEX
  8
1000LEVEL
 62
5
 10
1093.439
 20
-1165.308
 30
4227.000
 70
    32
  0
VERTEX
  8
1000LEVEL
 62
5
 10
1104.736
 20
-1219.584
 30
4227.000
 70
    32
  0
VERTEX
  8
1000LEVEL
 62
5
 10
1110.317
 20
-1264.104
 30
4227.000
 70
    32
  0
VERTEX
  8
1000LEVEL
 62
5
 10
1092.480
 20
-1262.198
 30
4227.000
 70
    32
  0
VERTEX
  8
1000LEVEL
 62
5
 10
1079.986
 20
-1204.449
 30
4227.000
 70
    32
  0
VERTEX
  8
1000LEVEL
 62
5
 10
1065.653
 20
-1147.156
 30
4227.000
 70
    32
  0
VERTEX
  8
1000LEVEL
 62
5
 10
1040.607
 20
-1090.633
 30
4227.000
 70
    32
  0
VERTEX
  8
1000LEVEL
 62
5
 10
1034.516
 20
-1039.980
 30
4227.000
 70
    32
  0
VERTEX
  8
1000LEVEL
 62
5
 10
1025.167
 20
-993.836
 30
4227.000
 70
    32
  0
VERTEX
  8
1000LEVEL
 62
5
 10
1016.463
 20
-957.628
 30
4227.000
 70
    32
  0
SEQEND
  8
1000LEVEL
  0
POLYLINE
  8
1000LEVEL
 62
5
 66
     1
 70
     9
  0
VERTEX
  8
1000LEVEL
 62
5
 10
998.514
 20
-971.836
 30
4227.000
 70
    32
  0
VERTEX
  8
1000LEVEL
 62
5
 10
1011.925
 20
-1022.424
 30
4227.000
 70
    32
  0
VERTEX
  8
1000LEVEL
 62
5
 10
1022.882
 20
-1072.612
 30
4227.000
 70
    32
  0
VERTEX
  8
1000LEVEL
 62
5
 10
1036.965
 20
-1128.352
 30
4227.000
 70
    32
  0
VERTEX
  8
1000LEVEL
 62
5
 10
1053.875
 20
-1172.959
 30
4227.000
 70
    32
  0
VERTEX
  8
1000LEVEL
 62
5
 10
1065.117
 20
-1222.941
 30
4227.000
 70
    32
  0
VERTEX
  8
1000LEVEL
 62
5
 10
1070.945
 20
-1255.150
 30
4227.000
 70
    32
  0
VERTEX
  8
1000LEVEL
 62
5
 10
1059.985
 20
-1268.231
 30
4227.000
 70
    32
  0
VERTEX
  8
1000LEVEL
 62
5
 10
1046.849
 20
-1214.411
 30
4227.000
 70
    32
  0
VERTEX
  8
1000LEVEL
 62
5
 10
1033.348
 20
-1161.286
 30
4227.000
 70
    32
  0
VERTEX
  8
1000LEVEL
 62
5
 10
1017.981
 20
-1113.403
 30
4227.000
 70
    32
  0
VERTEX
  8
1000LEVEL
 62
5
 10
1008.052
 20
-1064.643
 30
4227.000
 70
    32
  0
VERTEX
  8
1000LEVEL
 62
5
 10
997.820
 20
-1023.901
 30
4227.000
 70
    32
  0
VERTEX
  8
1000LEVEL
 62
5
 10
986.055
 20
-989.461
 30
4227.000
 70
    32
  0
SEQEND
  8
1000LEVEL
  0
POLYLINE
  8
1000LEVEL
 62
5
 66
     1
 70
     9
  0
VERTEX
  8
1000LEVEL
 62
5
 10
975.397
 20
-994.526
 30
4227.000
 70
    32
  0
VERTEX
  8
1000LEVEL
 62
5
 10
987.111
 20
-1038.535
 30
4227.000
 70
    32
  0
VERTEX
  8
1000LEVEL
 62
5
 10
1000.664
 20
-1082.089
 30
4227.000
 70
    32
  0
VERTEX
  8
1000LEVEL
 62
5
 10
1016.136
 20
-1124.697
 30
4227.000
 70
    32
  0
VERTEX
  8
1000LEVEL
 62
5
 10
1017.779
 20
-1165.548
 30
4227.000
 70
    32
  0
VERTEX
  8
1000LEVEL
 62
5
 10
992.958
 20
-1115.364
 30
4227.000
 70
    32
  0
VERTEX
  8
1000LEVEL
 62
5
 10
980.708
 20
-1070.006
 30
4227.000
 70
    32
  0
VERTEX
  8
1000LEVEL
 62
5
 10
965.746
 20
-1033.532
 30
4227.000
 70
    32
  0
VERTEX
  8
1000LEVEL
 62
5
 10
960.374
 20
-1003.162
 30
4227.000
 70
    32
  0
SEQEND
  8
1000LEVEL
  0
POLYLINE
  8
1000LEVEL
 62
5
 66
     1
 70
     8
  0
VERTEX
  8
1000LEVEL
 62
5
 10
927.629
 20
-1007.642
 30
4227.000
 70
    32
  0
VERTEX
  8
1000LEVEL
 62
5
 10
929.227
 20
-1047.226
 30
4227.000
 70
    32
  0
VERTEX
  8
1000LEVEL
 62
5
 10
957.161
 20
-1086.072
 30
4227.000
 70
    32
  0
VERTEX
  8
1000LEVEL
 62
5
 10
966.500
 20
-1129.190
 30
4227.000
 70
    32
  0
VERTEX
  8
1000LEVEL
 62
5
 10
970.512
 20
-1181.772
 30
4227.000
 70
    32
  0
VERTEX
  8
1000LEVEL
 62
5
 10
975.766
 20
-1239.094
 30
4227.000
 70
    32
  0
VERTEX
  8
1000LEVEL
 62
5
 10
995.224
 20
-1300.501
 30
4227.000
 70
    32
  0
VERTEX
  8
1000LEVEL
 62
5
 10
1025.992
 20
-1355.943
 30
4227.000
 70
    32
  0
VERTEX
  8
1000LEVEL
 62
5
 10
1046.458
 20
-1412.726
 30
4227.000
 70
    32
  0
VERTEX
  8
1000LEVEL
 62
5
 10
1060.521
 20
-1462.413
 30
4227.000
 70
    32
  0
VERTEX
  8
1000LEVEL
 62
5
 10
1096.218
 20
-1524.709
 30
4227.000
 70
    32
  0
VERTEX
  8
1000LEVEL
 62
5
 10
1120.889
 20
-1578.902
 30
4227.000
 70
    32
  0
VERTEX
  8
1000LEVEL
 62
5
 10
1132.580
 20
-1641.562
 30
4227.000
 70
    32
  0
VERTEX
  8
1000LEVEL
 62
5
 10
1153.309
 20
-1716.789
 30
4227.000
 70
    32
  0
VERTEX
  8
1000LEVEL
 62
5
 10
1164.343
 20
-1791.188
 30
4227.000
 70
    32
  0
VERTEX
  8
1000LEVEL
 62
5
 10
1184.700
 20
-1839.382
 30
4227.000
 70
    32
  0
VERTEX
  8
1000LEVEL
 62
5
 10
1206.716
 20
-1882.051
 30
4227.000
 70
    32
  0
VERTEX
  8
1000LEVEL
 62
5
 10
1221.806
 20
-1933.166
 30
4227.000
 70
    32
  0
VERTEX
  8
1000LEVEL
 62
5
 10
1234.040
 20
-1909.202
 30
4227.000
 70
    32
  0
VERTEX
  8
1000LEVEL
 62
5
 10
1218.921
 20
-1849.007
 30
4227.000
 70
    32
  0
VERTEX
  8
1000LEVEL
 62
5
 10
1207.820
 20
-1791.990
 30
4227.000
 70
    32
  0
VERTEX
  8
1000LEVEL
 62
5
 10
1211.078
 20
-1748.914
 30
4227.000
 70
    32
  0
VERTEX
  8
1000LEVEL
 62
5
 10
1206.880
 20
-1702.099
 30
4227.000
 70
    32
  0
VERTEX
  8
1000LEVEL
 62
5
 10
1191.866
 20
-1636.629
 30
4227.000
 70
    32
  0
VERTEX
  8
1000LEVEL
 62
5
 10
1188.076
 20
-1576.521
 30
4227.000
 70
    32
  0
VERTEX
  8
1000LEVEL
 62
5
 10
1183.060
 20
-1503.861
 30
4227.000
 70
    32
  0
VERTEX
  8
1000LEVEL
 62
5
 10
1195.516
 20
-1472.371
 30
4227.000
 70
    32
  0
VERTEX
  8
1000LEVEL
 62
5
 10
1217.281
 20
-1474.920
 30
4227.000
 70
    32
  0
VERTEX
  8
1000LEVEL
 62
5
 10
1222.240
 20
-1529.421
 30
4227.000
 70
    32
  0
VERTEX
  8
1000LEVEL
 62
5
 10
1218.774
 20
-1596.913
 30
4227.000
 70
    32
  0
VERTEX
  8
1000LEVEL
 62
5
 10
1225.070
 20
-1647.852
 30
4227.000
 70
    32
  0
VERTEX
  8
1000LEVEL
 62
5
 10
1235.520
 20
-1705.771
 30
4227.000
 70
    32
  0
VERTEX
  8
1000LEVEL
 62
5
 10
1252.099
 20
-1749.315
 30
4227.000
 70
    32
  0
VERTEX
  8
1000LEVEL
 62
5
 10
1242.089
 20
-1778.180
 30
4227.000
 70
    32
  0
VERTEX
  8
1000LEVEL
 62
5
 10
1245.125
 20
-1819.764
 30
4227.000
 70
    32
  0
VERTEX
  8
1000LEVEL
 62
5
 10
1263.829
 20
-1862.647
 30
4227.000
 70
    32
  0
VERTEX
  8
1000LEVEL
 62
5
 10
1271.647
 20
-1890.392
 30
4227.000
 70
    32
  0
VERTEX
  8
1000LEVEL
 62
5
 10
1252.703
 20
-1926.115
 30
4227.000
 70
    32
  0
VERTEX
  8
1000LEVEL
 62
5
 10
1264.744
 20
-1957.323
 30
4227.000
 70
    32
  0
VERTEX
  8
1000LEVEL
 62
5
 10
1264.914
 20
-1997.934
 30
4227.000
 70
    32
  0
VERTEX
  8
1000LEVEL
 62
5
 10
1270.033
 20
-2051.453
 30
4227.000
 70
    32
  0
VERTEX
  8
1000LEVEL
 62
5
 10
1264.908
 20
-2085.905
 30
4227.000
 70
    32
  0
VERTEX
  8
1000LEVEL
 62
5
 10
1243.190
 20
-2098.489
 30
4227.000
 70
    32
  0
VERTEX
  8
1000LEVEL
 62
5
 10
1238.623
 20
-2115.640
 30
4227.000
 70
    32
  0
VERTEX
  8
1000LEVEL
 62
5
 10
1256.201
 20
-2151.533
 30
4227.000
 70
    32
  0
VERTEX
  8
1000LEVEL
 62
5
 10
1260.706
 20
-2179.493
 30
4227.000
 70
    32
  0
VERTEX
  8
1000LEVEL
 62
5
 10
1267.061
 20
-2132.890
 30
4227.000
 70
    32
  0
VERTEX
  8
1000LEVEL
 62
5
 10
1281.432
 20
-2163.722
 30
4227.000
 70
    32
  0
VERTEX
  8
1000LEVEL
 62
5
 10
1282.087
 20
-2215.251
 30
4227.000
 70
    32
  0
VERTEX
  8
1000LEVEL
 62
5
 10
1302.232
 20
-2273.998
 30
4227.000
 70
    32
  0
VERTEX
  8
1000LEVEL
 62
5
 10
1335.150
 20
-2323.993
 30
4227.000
 70
    32
  0
VERTEX
  8
1000LEVEL
 62
5
 10
1370.382
 20
-2342.858
 30
4227.000
 70
    32
  0
VERTEX
  8
1000LEVEL
 62
5
 10
1372.594
 20
-2369.435
 30
4227.000
 70
    32
  0
VERTEX
  8
1000LEVEL
 62
5
 10
1340.677
 20
-2364.219
 30
4227.000
 70
    32
  0
VERTEX
  8
1000LEVEL
 62
5
 10
1309.238
 20
-2342.194
 30
4227.000
 70
    32
  0
VERTEX
  8
1000LEVEL
 62
5
 10
1334.345
 20
-2392.173
 30
4227.000
 70
    32
  0
VERTEX
  8
1000LEVEL
 62
5
 10
1369.320
 20
-2458.889
 30
4227.000
 70
    32
  0
VERTEX
  8
1000LEVEL
 62
5
 10
1391.763
 20
-2532.883
 30
4227.000
 70
    32
  0
VERTEX
  8
1000LEVEL
 62
5
 10
1408.593
 20
-2577.981
 30
4227.000
 70
    32
  0
VERTEX
  8
1000LEVEL
 62
5
 10
1413.128
 20
-2537.887
 30
4227.000
 70
    32
  0
VERTEX
  8
1000LEVEL
 62
5
 10
1403.573
 20
-2491.457
 30
4227.000
 70
    32
  0
VERTEX
  8
1000LEVEL
 62
5
 10
1401.966
 20
-2448.847
 30
4227.000
 70
    32
  0
VERTEX
  8
1000LEVEL
 62
5
 10
1377.295
 20
-2394.654
 30
4227.000
 70
    32
  0
VERTEX
  8
1000LEVEL
 62
5
 10
1391.423
 20
-2374.528
 30
4227.000
 70
    32
  0
VERTEX
  8
1000LEVEL
 62
5
 10
1423.093
 20
-2392.054
 30
4227.000
 70
    32
  0
VERTEX
  8
1000LEVEL
 62
5
 10
1425.904
 20
-2427.299
 30
4227.000
 70
    32
  0
VERTEX
  8
1000LEVEL
 62
5
 10
1449.775
 20
-2461.700
 30
4227.000
 70
    32
  0
VERTEX
  8
1000LEVEL
 62
5
 10
1455.902
 20
-2510.594
 30
4227.000
 70
    32
  0
VERTEX
  8
1000LEVEL
 62
5
 10
1472.715
 20
-2563.504
 30
4227.000
 70
    32
  0
VERTEX
  8
1000LEVEL
 62
5
 10
1466.974
 20
-2597.099
 30
4227.000
 70
    32
  0
VERTEX
  8
1000LEVEL
 62
5
 10
1435.792
 20
-2604.355
 30
4227.000
 70
    32
  0
VERTEX
  8
1000LEVEL
 62
5
 10
1434.056
 20
-2662.804
 30
4227.000
 70
    32
  0
VERTEX
  8
1000LEVEL
 62
5
 10
1449.056
 20
-2711.384
 30
4227.000
 70
    32
  0
VERTEX
  8
1000LEVEL
 62
5
 10
1480.071
 20
-2793.081
 30
4227.000
 70
    32
  0
VERTEX
  8
1000LEVEL
 62
5
 10
1505.133
 20
-2880.359
 30
4227.000
 70
    32
  0
VERTEX
  8
1000LEVEL
 62
5
 10
1538.317
 20
-3001.229
 30
4227.000
 70
    32
  0
VERTEX
  8
1000LEVEL
 62
5
 10
1577.154
 20
-3124.536
 30
4227.000
 70
    32
  0
VERTEX
  8
1000LEVEL
 62
5
 10
1621.750
 20
-3258.866
 30
4227.000
 70
    32
  0
VERTEX
  8
1000LEVEL
 62
5
 10
1638.693
 20
-3364.983
 30
4227.000
 70
    32
  0
VERTEX
  8
1000LEVEL
 62
5
 10
1674.583
 20
-3487.808
 30
4227.000
 70
    32
  0
VERTEX
  8
1000LEVEL
 62
5
 10
1699.631
 20
-3596.762
 30
4227.000
 70
    32
  0
VERTEX
  8
1000LEVEL
 62
5
 10
1790.536
 20
-3811.759
 30
4227.000
 70
    32
  0
VERTEX
  8
1000LEVEL
 62
5
 10
1839.931
 20
-3963.006
 30
4227.000
 70
    32
  0
VERTEX
  8
1000LEVEL
 62
5
 10
1894.727
 20
-4115.135
 30
4227.000
 70
    32
  0
VERTEX
  8
1000LEVEL
 62
5
 10
1941.439
 20
-4245.778
 30
4227.000
 70
    32
  0
VERTEX
  8
1000LEVEL
 62
5
 10
2000.484
 20
-4396.585
 30
4227.000
 70
    32
  0
SEQEND
  8
1000LEVEL
  0
POLYLINE
  8
1000LEVEL
 62
5
 66
     1
 70
     9
  0
VERTEX
  8
1000LEVEL
 62
5
 10
1688.904
 20
-2178.376
 30
4227.000
 70
    32
  0
VERTEX
  8
1000LEVEL
 62
5
 10
1660.873
 20
-2147.833
 30
4227.000
 70
    32
  0
VERTEX
  8
1000LEVEL
 62
5
 10
1615.108
 20
-2096.243
 30
4227.000
 70
    32
  0
VERTEX
  8
1000LEVEL
 62
5
 10
1572.664
 20
-2047.464
 30
4227.000
 70
    32
  0
VERTEX
  8
1000LEVEL
 62
5
 10
1521.723
 20
-2001.329
 30
4227.000
 70
    32
  0
VERTEX
  8
1000LEVEL
 62
5
 10
1482.800
 20
-1966.485
 30
4227.000
 70
    32
  0
VERTEX
  8
1000LEVEL
 62
5
 10
1457.167
 20
-1956.751
 30
4227.000
 70
    32
  0
VERTEX
  8
1000LEVEL
 62
5
 10
1498.009
 20
-1990.649
 30
4227.000
 70
    32
  0
VERTEX
  8
1000LEVEL
 62
5
 10
1569.426
 20
-2058.026
 30
4227.000
 70
    32
  0
VERTEX
  8
1000LEVEL
 62
5
 10
1636.980
 20
-2132.081
 30
4227.000
 70
    32
  0
VERTEX
  8
1000LEVEL
 62
5
 10
1685.781
 20
-2186.688
 30
4227.000
 70
    32
  0
SEQEND
  8
1000LEVEL
  0
POLYLINE
  8
1000LEVEL
 62
5
 66
     1
 70
     9
  0
VERTEX
  8
1000LEVEL
 62
5
 10
1504.469
 20
-2363.003
 30
4227.000
 70
    32
  0
VERTEX
  8
1000LEVEL
 62
5
 10
1475.434
 20
-2312.382
 30
4227.000
 70
    32
  0
VERTEX
  8
1000LEVEL
 62
5
 10
1456.544
 20
-2236.699
 30
4227.000
 70
    32
  0
VERTEX
  8
1000LEVEL
 62
5
 10
1449.381
 20
-2183.350
 30
4227.000
 70
    32
  0
VERTEX
  8
1000LEVEL
 62
5
 10
1459.362
 20
-2145.406
 30
4227.000
 70
    32
  0
VERTEX
  8
1000LEVEL
 62
5
 10
1442.031
 20
-2097.202
 30
4227.000
 70
    32
  0
VERTEX
  8
1000LEVEL
 62
5
 10
1419.354
 20
-2052.409
 30
4227.000
 70
    32
  0
VERTEX
  8
1000LEVEL
 62
5
 10
1413.853
 20
-2007.398
 30
4227.000
 70
    32
  0
VERTEX
  8
1000LEVEL
 62
5
 10
1384.632
 20
-1962.544
 30
4227.000
 70
    32
  0
VERTEX
  8
1000LEVEL
 62
5
 10
1349.962
 20
-1901.676
 30
4227.000
 70
    32
  0
VERTEX
  8
1000LEVEL
 62
5
 10
1321.014
 20
-1839.726
 30
4227.000
 70
    32
  0
VERTEX
  8
1000LEVEL
 62
5
 10
1297.573
 20
-1773.382
 30
4227.000
 70
    32
  0
VERTEX
  8
1000LEVEL
 62
5
 10
1281.115
 20
-1716.750
 30
4227.000
 70
    32
  0
VERTEX
  8
1000LEVEL
 62
5
 10
1286.025
 20
-1678.986
 30
4227.000
 70
    32
  0
VERTEX
  8
1000LEVEL
 62
5
 10
1300.227
 20
-1707.774
 30
4227.000
 70
    32
  0
VERTEX
  8
1000LEVEL
 62
5
 10
1316.148
 20
-1763.058
 30
4227.000
 70
    32
  0
VERTEX
  8
1000LEVEL
 62
5
 10
1338.078
 20
-1817.055
 30
4227.000
 70
    32
  0
VERTEX
  8
1000LEVEL
 62
5
 10
1353.489
 20
-1866.206
 30
4227.000
 70
    32
  0
VERTEX
  8
1000LEVEL
 62
5
 10
1385.277
 20
-1933.914
 30
4227.000
 70
    32
  0
VERTEX
  8
1000LEVEL
 62
5
 10
1423.340
 20
-1994.076
 30
4227.000
 70
    32
  0
VERTEX
  8
1000LEVEL
 62
5
 10
1442.734
 20
-2048.163
 30
4227.000
 70
    32
  0
VERTEX
  8
1000LEVEL
 62
5
 10
1470.395
 20
-2104.105
 30
4227.000
 70
    32
  0
VERTEX
  8
1000LEVEL
 62
5
 10
1475.280
 20
-2148.259
 30
4227.000
 70
    32
  0
VERTEX
  8
1000LEVEL
 62
5
 10
1468.422
 20
-2177.891
 30
4227.000
 70
    32
  0
VERTEX
  8
1000LEVEL
 62
5
 10
1477.289
 20
-2226.981
 30
4227.000
 70
    32
  0
VERTEX
  8
1000LEVEL
 62
5
 10
1490.203
 20
-2288.328
 30
4227.000
 70
    32
  0
VERTEX
  8
1000LEVEL
 62
5
 10
1502.338
 20
-2335.935
 30
4227.000
 70
    32
  0
SEQEND
  8
1000LEVEL
  0
POLYLINE
  8
1000LEVEL
 62
5
 66
     1
 70
     9
  0
VERTEX
  8
1000LEVEL
 62
5
 10
1536.276
 20
-2899.564
 30
4227.000
 70
    32
  0
VERTEX
  8
1000LEVEL
 62
5
 10
1536.892
 20
-2861.854
 30
4227.000
 70
    32
  0
VERTEX
  8
1000LEVEL
 62
5
 10
1537.043
 20
-2857.845
 30
4227.000
 70
    32
  0
VERTEX
  8
1000LEVEL
 62
5
 10
1530.901
 20
-2816.763
 30
4227.000
 70
    32
  0
VERTEX
  8
1000LEVEL
 62
5
 10
1521.748
 20
-2767.878
 30
4227.000
 70
    32
  0
VERTEX
  8
1000LEVEL
 62
5
 10
1496.811
 20
-2719.943
 30
4227.000
 70
    32
  0
VERTEX
  8
1000LEVEL
 62
5
 10
1490.749
 20
-2678.369
 30
4227.000
 70
    32
  0
VERTEX
  8
1000LEVEL
 62
5
 10
1474.879
 20
-2652.082
 30
4227.000
 70
    32
  0
VERTEX
  8
1000LEVEL
 62
5
 10
1468.935
 20
-2699.256
 30
4227.000
 70
    32
  0
VERTEX
  8
1000LEVEL
 62
5
 10
1497.469
 20
-2746.770
 30
4227.000
 70
    32
  0
VERTEX
  8
1000LEVEL
 62
5
 10
1513.968
 20
-2790.805
 30
4227.000
 70
    32
  0
VERTEX
  8
1000LEVEL
 62
5
 10
1526.382
 20
-2849.045
 30
4227.000
 70
    32
  0
VERTEX
  8
1000LEVEL
 62
5
 10
1530.005
 20
-2882.407
 30
4227.000
 70
    32
  0
SEQEND
  8
1000LEVEL
  0
POLYLINE
  8
1000LEVEL
 62
5
 66
     1
 70
     9
  0
VERTEX
  8
1000LEVEL
 62
5
 10
1083.760
 20
-1272.368
 30
4227.000
 70
    32
  0
VERTEX
  8
1000LEVEL
 62
5
 10
1075.913
 20
-1312.678
 30
4227.000
 70
    32
  0
VERTEX
  8
1000LEVEL
 62
5
 10
1090.946
 20
-1384.201
 30
4227.000
 70
    32
  0
VERTEX
  8
1000LEVEL
 62
5
 10
1116.364
 20
-1467.756
 30
4227.000
 70
    32
  0
VERTEX
  8
1000LEVEL
 62
5
 10
1130.854
 20
-1548.770
 30
4227.000
 70
    32
  0
VERTEX
  8
1000LEVEL
 62
5
 10
1148.280
 20
-1627.238
 30
4227.000
 70
    32
  0
VERTEX
  8
1000LEVEL
 62
5
 10
1165.855
 20
-1687.834
 30
4227.000
 70
    32
  0
VERTEX
  8
1000LEVEL
 62
5
 10
1193.391
 20
-1742.999
 30
4227.000
 70
    32
  0
VERTEX
  8
1000LEVEL
 62
5
 10
1201.697
 20
-1718.393
 30
4227.000
 70
    32
  0
VERTEX
  8
1000LEVEL
 62
5
 10
1178.397
 20
-1645.015
 30
4227.000
 70
    32
  0
VERTEX
  8
1000LEVEL
 62
5
 10
1159.590
 20
-1582.705
 30
4227.000
 70
    32
  0
VERTEX
  8
1000LEVEL
 62
5
 10
1137.048
 20
-1503.149
 30
4227.000
 70
    32
  0
VERTEX
  8
1000LEVEL
 62
5
 10
1121.126
 20
-1409.298
 30
4227.000
 70
    32
  0
VERTEX
  8
1000LEVEL
 62
5
 10
1093.667
 20
-1301.211
 30
4227.000
 70
    32
  0
SEQEND
  8
1000LEVEL
  0
POLYLINE
  8
1000LEVEL
 62
5
 66
     1
 70
     8
  0
VERTEX
  8
1000LEVEL
 62
5
 10
898.119
 20
-1026.263
 30
4227.000
 70
    32
  0
VERTEX
  8
1000LEVEL
 62
5
 10
907.830
 20
-1057.846
 30
4227.000
 70
    32
  0
VERTEX
  8
1000LEVEL
 62
5
 10
930.559
 20
-1093.068
 30
4227.000
 70
    32
  0
VERTEX
  8
1000LEVEL
 62
5
 10
945.360
 20
-1130.525
 30
4227.000
 70
    32
  0
VERTEX
  8
1000LEVEL
 62
5
 10
952.215
 20
-1164.162
 30
4227.000
 70
    32
  0
VERTEX
  8
1000LEVEL
 62
5
 10
944.523
 20
-1175.760
 30
4227.000
 70
    32
  0
VERTEX
  8
1000LEVEL
 62
5
 10
929.246
 20
-1130.412
 30
4227.000
 70
    32
  0
VERTEX
  8
1000LEVEL
 62
5
 10
913.829
 20
-1092.099
 30
4227.000
 70
    32
  0
VERTEX
  8
1000LEVEL
 62
5
 10
903.671
 20
-1061.704
 30
4227.000
 70
    32
  0
VERTEX
  8
1000LEVEL
 62
5
 10
895.083
 20
-1023.246
 30
4227.000
 70
    32
  0
SEQEND
  8
1000LEVEL
  0
POLYLINE
  8
1000LEVEL
 62
5
 66
     1
 70
     8
  0
VERTEX
  8
1000LEVEL
 62
5
 10
887.265
 20
-1034.068
 30
4227.000
 70
    32
  0
VERTEX
  8
1000LEVEL
 62
5
 10
893.924
 20
-1070.446
 30
4227.000
 70
    32
  0
VERTEX
  8
1000LEVEL
 62
5
 10
901.665
 20
-1112.546
 30
4227.000
 70
    32
  0
VERTEX
  8
1000LEVEL
 62
5
 10
908.674
 20
-1156.039
 30
4227.000
 70
    32
  0
VERTEX
  8
1000LEVEL
 62
5
 10
898.757
 20
-1201.304
 30
4227.000
 70
    32
  0
VERTEX
  8
1000LEVEL
 62
5
 10
892.319
 20
-1157.400
 30
4227.000
 70
    32
  0
VERTEX
  8
1000LEVEL
 62
5
 10
885.025
 20
-1114.112
 30
4227.000
 70
    32
  0
VERTEX
  8
1000LEVEL
 62
5
 10
873.875
 20
-1080.530
 30
4227.000
 70
    32
  0
VERTEX
  8
1000LEVEL
 62
5
 10
873.580
 20
-1039.142
 30
4227.000
 70
    32
  0
SEQEND
  8
1000LEVEL
  0
POLYLINE
  8
1000LEVEL
 62
5
 66
     1
 70
     8
  0
VERTEX
  8
1000LEVEL
 62
5
 10
815.433
 20
-1067.955
 30
4227.000
 70
    32
  0
VERTEX
  8
1000LEVEL
 62
5
 10
826.432
 20
-1105.546
 30
4227.000
 70
    32
  0
VERTEX
  8
1000LEVEL
 62
5
 10
851.448
 20
-1152.990
 30
4227.000
 70
    32
  0
VERTEX
  8
1000LEVEL
 62
5
 10
867.996
 20
-1212.158
 30
4227.000
 70
    32
  0
VERTEX
  8
1000LEVEL
 62
5
 10
878.625
 20
-1275.147
 30
4227.000
 70
    32
  0
VERTEX
  8
1000LEVEL
 62
5
 10
897.066
 20
-1338.153
 30
4227.000
 70
    32
  0
VERTEX
  8
1000LEVEL
 62
5
 10
929.069
 20
-1409.173
 30
4227.000
 70
    32
  0
VERTEX
  8
1000LEVEL
 62
5
 10
958.788
 20
-1481.836
 30
4227.000
 70
    32
  0
VERTEX
  8
1000LEVEL
 62
5
 10
989.219
 20
-1547.053
 30
4227.000
 70
    32
  0
VERTEX
  8
1000LEVEL
 62
5
 10
1011.800
 20
-1600.148
 30
4227.000
 70
    32
  0
VERTEX
  8
1000LEVEL
 62
5
 10
1010.478
 20
-1634.466
 30
4227.000
 70
    32
  0
VERTEX
  8
1000LEVEL
 62
5
 10
995.182
 20
-1660.198
 30
4227.000
 70
    32
  0
VERTEX
  8
1000LEVEL
 62
5
 10
994.376
 20
-1728.377
 30
4227.000
 70
    32
  0
VERTEX
  8
1000LEVEL
 62
5
 10
1007.194
 20
-1798.027
 30
4227.000
 70
    32
  0
VERTEX
  8
1000LEVEL
 62
5
 10
1030.651
 20
-1856.559
 30
4227.000
 70
    32
  0
VERTEX
  8
1000LEVEL
 62
5
 10
1048.964
 20
-1904.923
 30
4227.000
 70
    32
  0
VERTEX
  8
1000LEVEL
 62
5
 10
1049.513
 20
-1961.729
 30
4227.000
 70
    32
  0
VERTEX
  8
1000LEVEL
 62
5
 10
1050.058
 20
-2004.670
 30
4227.000
 70
    32
  0
VERTEX
  8
1000LEVEL
 62
5
 10
1045.446
 20
-2059.120
 30
4227.000
 70
    32
  0
VERTEX
  8
1000LEVEL
 62
5
 10
1046.685
 20
-2127.129
 30
4227.000
 70
    32
  0
VERTEX
  8
1000LEVEL
 62
5
 10
1068.720
 20
-2214.417
 30
4227.000
 70
    32
  0
VERTEX
  8
1000LEVEL
 62
5
 10
1083.567
 20
-2291.707
 30
4227.000
 70
    32
  0
VERTEX
  8
1000LEVEL
 62
5
 10
1091.067
 20
-2335.280
 30
4227.000
 70
    32
  0
VERTEX
  8
1000LEVEL
 62
5
 10
1104.514
 20
-2384.111
 30
4227.000
 70
    32
  0
VERTEX
  8
1000LEVEL
 62
5
 10
1085.881
 20
-2376.277
 30
4227.000
 70
    32
  0
VERTEX
  8
1000LEVEL
 62
5
 10
1059.939
 20
-2346.831
 30
4227.000
 70
    32
  0
VERTEX
  8
1000LEVEL
 62
5
 10
1067.706
 20
-2384.146
 30
4227.000
 70
    32
  0
VERTEX
  8
1000LEVEL
 62
5
 10
1102.383
 20
-2434.176
 30
4227.000
 70
    32
  0
VERTEX
  8
1000LEVEL
 62
5
 10
1137.920
 20
-2458.888
 30
4227.000
 70
    32
  0
VERTEX
  8
1000LEVEL
 62
5
 10
1167.196
 20
-2508.036
 30
4227.000
 70
    32
  0
VERTEX
  8
1000LEVEL
 62
5
 10
1203.185
 20
-2597.856
 30
4227.000
 70
    32
  0
VERTEX
  8
1000LEVEL
 62
5
 10
1235.445
 20
-2698.158
 30
4227.000
 70
    32
  0
VERTEX
  8
1000LEVEL
 62
5
 10
1275.004
 20
-2817.045
 30
4227.000
 70
    32
  0
VERTEX
  8
1000LEVEL
 62
5
 10
1311.150
 20
-2930.585
 30
4227.000
 70
    32
  0
VERTEX
  8
1000LEVEL
 62
5
 10
1353.806
 20
-3084.512
 30
4227.000
 70
    32
  0
VERTEX
  8
1000LEVEL
 62
5
 10
1396.759
 20
-3216.557
 30
4227.000
 70
    32
  0
VERTEX
  8
1000LEVEL
 62
5
 10
1434.572
 20
-3352.299
 30
4227.000
 70
    32
  0
VERTEX
  8
1000LEVEL
 62
5
 10
1482.468
 20
-3508.091
 30
4227.000
 70
    32
  0
VERTEX
  8
1000LEVEL
 62
5
 10
1525.271
 20
-3644.144
 30
4227.000
 70
    32
  0
VERTEX
  8
1000LEVEL
 62
5
 10
1580.760
 20
-3782.775
 30
4227.000
 70
    32
  0
VERTEX
  8
1000LEVEL
 62
5
 10
1629.231
 20
-3913.453
 30
4227.000
 70
    32
  0
VERTEX
  8
1000LEVEL
 62
5
 10
1678.000
 20
-4060.817
 30
4227.000
 70
    32
  0
VERTEX
  8
1000LEVEL
 62
5
 10
1739.420
 20
-4251.083
 30
4227.000
 70
    32
  0
VERTEX
  8
1000LEVEL
 62
5
 10
1789.351
 20
-4403.678
 30
4227.000
 70
    32
  0
VERTEX
  8
1000LEVEL
 62
5
 10
1817.115
 20
-4517.612
 30
4227.000
 70
    32
  0
SEQEND
  8
1000LEVEL
  0
POLYLINE
  8
1000LEVEL
 62
5
 66
     1
 70
     9
  0
VERTEX
  8
1000LEVEL
 62
5
 10
1056.942
 20
-1854.553
 30
4227.000
 70
    32
  0
VERTEX
  8
1000LEVEL
 62
5
 10
1053.717
 20
-1804.872
 30
4227.000
 70
    32
  0
VERTEX
  8
1000LEVEL
 62
5
 10
1049.863
 20
-1737.444
 30
4227.000
 70
    32
  0
VERTEX
  8
1000LEVEL
 62
5
 10
1050.537
 20
-1679.326
 30
4227.000
 70
    32
  0
VERTEX
  8
1000LEVEL
 62
5
 10
1042.135
 20
-1635.101
 30
4227.000
 70
    32
  0
VERTEX
  8
1000LEVEL
 62
5
 10
1021.986
 20
-1639.623
 30
4227.000
 70
    32
  0
VERTEX
  8
1000LEVEL
 62
5
 10
1025.478
 20
-1683.045
 30
4227.000
 70
    32
  0
VERTEX
  8
1000LEVEL
 62
5
 10
1021.643
 20
-1737.370
 30
4227.000
 70
    32
  0
VERTEX
  8
1000LEVEL
 62
5
 10
1026.396
 20
-1791.585
 30
4227.000
 70
    32
  0
VERTEX
  8
1000LEVEL
 62
5
 10
1046.425
 20
-1852.582
 30
4227.000
 70
    32
  0
SEQEND
  8
1000LEVEL
  0
POLYLINE
  8
1000LEVEL
 62
5
 66
     1
 70
     9
  0
VERTEX
  8
1000LEVEL
 62
5
 10
997.910
 20
-1373.536
 30
4227.000
 70
    32
  0
VERTEX
  8
1000LEVEL
 62
5
 10
989.075
 20
-1424.523
 30
4227.000
 70
    32
  0
VERTEX
  8
1000LEVEL
 62
5
 10
1001.690
 20
-1469.184
 30
4227.000
 70
    32
  0
VERTEX
  8
1000LEVEL
 62
5
 10
1025.725
 20
-1516.468
 30
4227.000
 70
    32
  0
VERTEX
  8
1000LEVEL
 62
5
 10
1046.718
 20
-1571.572
 30
4227.000
 70
    32
  0
VERTEX
  8
1000LEVEL
 62
5
 10
1058.075
 20
-1619.305
 30
4227.000
 70
    32
  0
VERTEX
  8
1000LEVEL
 62
5
 10
1072.302
 20
-1681.874
 30
4227.000
 70
    32
  0
VERTEX
  8
1000LEVEL
 62
5
 10
1072.504
 20
-1745.429
 30
4227.000
 70
    32
  0
VERTEX
  8
1000LEVEL
 62
5
 10
1074.581
 20
-1806.769
 30
4227.000
 70
    32
  0
VERTEX
  8
1000LEVEL
 62
5
 10
1079.770
 20
-1856.770
 30
4227.000
 70
    32
  0
VERTEX
  8
1000LEVEL
 62
5
 10
1106.876
 20
-1905.312
 30
4227.000
 70
    32
  0
VERTEX
  8
1000LEVEL
 62
5
 10
1115.991
 20
-1942.091
 30
4227.000
 70
    32
  0
VERTEX
  8
1000LEVEL
 62
5
 10
1108.459
 20
-1991.274
 30
4227.000
 70
    32
  0
VERTEX
  8
1000LEVEL
 62
5
 10
1120.712
 20
-2011.929
 30
4227.000
 70
    32
  0
VERTEX
  8
1000LEVEL
 62
5
 10
1137.988
 20
-1978.706
 30
4227.000
 70
    32
  0
VERTEX
  8
1000LEVEL
 62
5
 10
1143.225
 20
-1928.140
 30
4227.000
 70
    32
  0
VERTEX
  8
1000LEVEL
 62
5
 10
1132.673
 20
-1889.361
 30
4227.000
 70
    32
  0
VERTEX
  8
1000LEVEL
 62
5
 10
1100.891
 20
-1849.383
 30
4227.000
 70
    32
  0
VERTEX
  8
1000LEVEL
 62
5
 10
1090.239
 20
-1805.042
 30
4227.000
 70
    32
  0
VERTEX
  8
1000LEVEL
 62
5
 10
1088.095
 20
-1722.517
 30
4227.000
 70
    32
  0
VERTEX
  8
1000LEVEL
 62
5
 10
1089.116
 20
-1657.650
 30
4227.000
 70
    32
  0
VERTEX
  8
1000LEVEL
 62
5
 10
1072.023
 20
-1594.108
 30
4227.000
 70
    32
  0
VERTEX
  8
1000LEVEL
 62
5
 10
1052.324
 20
-1534.174
 30
4227.000
 70
    32
  0
VERTEX
  8
1000LEVEL
 62
5
 10
1027.083
 20
-1480.391
 30
4227.000
 70
    32
  0
VERTEX
  8
1000LEVEL
 62
5
 10
1011.813
 20
-1424.205
 30
4227.000
 70
    32
  0
VERTEX
  8
1000LEVEL
 62
5
 10
1006.922
 20
-1390.889
 30
4227.000
 70
    32
  0
SEQEND
  8
1000LEVEL
  0
POLYLINE
  8
1000LEVEL
 62
5
 66
     1
 70
     9
  0
VERTEX
  8
1000LEVEL
 62
5
 10
1205.358
 20
-2149.527
 30
4227.000
 70
    32
  0
VERTEX
  8
1000LEVEL
 62
5
 10
1181.863
 20
-2156.023
 30
4227.000
 70
    32
  0
VERTEX
  8
1000LEVEL
 62
5
 10
1169.507
 20
-2115.941
 30
4227.000
 70
    32
  0
VERTEX
  8
1000LEVEL
 62
5
 10
1166.869
 20
-2058.038
 30
4227.000
 70
    32
  0
VERTEX
  8
1000LEVEL
 62
5
 10
1166.679
 20
-2011.374
 30
4227.000
 70
    32
  0
VERTEX
  8
1000LEVEL
 62
5
 10
1172.652
 20
-1973.279
 30
4227.000
 70
    32
  0
VERTEX
  8
1000LEVEL
 62
5
 10
1169.375
 20
-1933.169
 30
4227.000
 70
    32
  0
VERTEX
  8
1000LEVEL
 62
5
 10
1147.555
 20
-1887.760
 30
4227.000
 70
    32
  0
VERTEX
  8
1000LEVEL
 62
5
 10
1171.509
 20
-1896.968
 30
4227.000
 70
    32
  0
VERTEX
  8
1000LEVEL
 62
5
 10
1197.935
 20
-1937.332
 30
4227.000
 70
    32
  0
VERTEX
  8
1000LEVEL
 62
5
 10
1194.196
 20
-1983.354
 30
4227.000
 70
    32
  0
VERTEX
  8
1000LEVEL
 62
5
 10
1186.869
 20
-2032.822
 30
4227.000
 70
    32
  0
VERTEX
  8
1000LEVEL
 62
5
 10
1187.450
 20
-2074.005
 30
4227.000
 70
    32
  0
VERTEX
  8
1000LEVEL
 62
5
 10
1203.112
 20
-2086.142
 30
4227.000
 70
    32
  0
VERTEX
  8
1000LEVEL
 62
5
 10
1214.553
 20
-2031.548
 30
4227.000
 70
    32
  0
VERTEX
  8
1000LEVEL
 62
5
 10
1227.737
 20
-2023.368
 30
4227.000
 70
    32
  0
VERTEX
  8
1000LEVEL
 62
5
 10
1233.138
 20
-2062.817
 30
4227.000
 70
    32
  0
VERTEX
  8
1000LEVEL
 62
5
 10
1221.023
 20
-2098.396
 30
4227.000
 70
    32
  0
VERTEX
  8
1000LEVEL
 62
5
 10
1200.910
 20
-2101.159
 30
4227.000
 70
    32
  0
VERTEX
  8
1000LEVEL
 62
5
 10
1204.228
 20
-2128.673
 30
4227.000
 70
    32
  0
SEQEND
  8
1000LEVEL
  0
POLYLINE
  8
1000LEVEL
 62
5
 66
     1
 70
     9
  0
VERTEX
  8
1000LEVEL
 62
5
 10
856.525
 20
-2376.106
 30
4227.000
 70
    32
  0
VERTEX
  8
1000LEVEL
 62
5
 10
879.459
 20
-2411.615
 30
4227.000
 70
    32
  0
VERTEX
  8
1000LEVEL
 62
5
 10
903.554
 20
-2452.354
 30
4227.000
 70
    32
  0
VERTEX
  8
1000LEVEL
 62
5
 10
940.776
 20
-2505.321
 30
4227.000
 70
    32
  0
VERTEX
  8
1000LEVEL
 62
5
 10
972.071
 20
-2559.084
 30
4227.000
 70
    32
  0
VERTEX
  8
1000LEVEL
 62
5
 10
998.025
 20
-2605.421
 30
4227.000
 70
    32
  0
VERTEX
  8
1000LEVEL
 62
5
 10
1023.035
 20
-2625.136
 30
4227.000
 70
    32
  0
VERTEX
  8
1000LEVEL
 62
5
 10
1001.455
 20
-2578.253
 30
4227.000
 70
    32
  0
VERTEX
  8
1000LEVEL
 62
5
 10
971.564
 20
-2528.249
 30
4227.000
 70
    32
  0
VERTEX
  8
1000LEVEL
 62
5
 10
941.290
 20
-2486.752
 30
4227.000
 70
    32
  0
VERTEX
  8
1000LEVEL
 62
5
 10
918.372
 20
-2443.432
 30
4227.000
 70
    32
  0
VERTEX
  8
1000LEVEL
 62
5
 10
904.026
 20
-2407.815
 30
4227.000
 70
    32
  0
VERTEX
  8
1000LEVEL
 62
5
 10
884.632
 20
-2392.294
 30
4227.000
 70
    32
  0
SEQEND
  8
1000LEVEL
  0
POLYLINE
  8
1000LEVEL
 62
5
 66
     1
 70
     9
  0
VERTEX
  8
1000LEVEL
 62
5
 10
1295.845
 20
-2413.358
 30
4227.000
 70
    32
  0
VERTEX
  8
1000LEVEL
 62
5
 10
1305.852
 20
-2447.762
 30
4227.000
 70
    32
  0
VERTEX
  8
1000LEVEL
 62
5
 10
1326.626
 20
-2485.690
 30
4227.000
 70
    32
  0
VERTEX
  8
1000LEVEL
 62
5
 10
1341.944
 20
-2518.441
 30
4227.000
 70
    32
  0
VERTEX
  8
1000LEVEL
 62
5
 10
1321.960
 20
-2497.279
 30
4227.000
 70
    32
  0
VERTEX
  8
1000LEVEL
 62
5
 10
1307.620
 20
-2489.390
 30
4227.000
 70
    32
  0
VERTEX
  8
1000LEVEL
 62
5
 10
1302.197
 20
-2507.157
 30
4227.000
 70
    32
  0
VERTEX
  8
1000LEVEL
 62
5
 10
1324.874
 20
-2551.950
 30
4227.000
 70
    32
  0
VERTEX
  8
1000LEVEL
 62
5
 10
1346.444
 20
-2557.239
 30
4227.000
 70
    32
  0
VERTEX
  8
1000LEVEL
 62
5
 10
1368.338
 20
-2574.428
 30
4227.000
 70
    32
  0
VERTEX
  8
1000LEVEL
 62
5
 10
1381.256
 20
-2572.506
 30
4227.000
 70
    32
  0
VERTEX
  8
1000LEVEL
 62
5
 10
1359.445
 20
-2530.123
 30
4227.000
 70
    32
  0
VERTEX
  8
1000LEVEL
 62
5
 10
1345.366
 20
-2488.248
 30
4227.000
 70
    32
  0
VERTEX
  8
1000LEVEL
 62
5
 10
1320.663
 20
-2449.678
 30
4227.000
 70
    32
  0
SEQEND
  8
1000LEVEL
  0
POLYLINE
  8
1000LEVEL
 62
5
 66
     1
 70
     8
  0
VERTEX
  8
1000LEVEL
 62
5
 10
1346.283
 20
-2635.354
 30
4227.000
 70
    32
  0
VERTEX
  8
1000LEVEL
 62
5
 10
1332.063
 20
-2600.514
 30
4227.000
 70
    32
  0
VERTEX
  8
1000LEVEL
 62
5
 10
1311.234
 20
-2558.292
 30
4227.000
 70
    32
  0
VERTEX
  8
1000LEVEL
 62
5
 10
1288.191
 20
-2514.195
 30
4227.000
 70
    32
  0
VERTEX
  8
1000LEVEL
 62
5
 10
1268.264
 20
-2472.624
 30
4227.000
 70
    32
  0
VERTEX
  8
1000LEVEL
 62
5
 10
1255.337
 20
-2432.954
 30
4227.000
 70
    32
  0
VERTEX
  8
1000LEVEL
 62
5
 10
1231.819
 20
-2380.966
 30
4227.000
 70
    32
  0
VERTEX
  8
1000LEVEL
 62
5
 10
1235.924
 20
-2411.381
 30
4227.000
 70
    32
  0
VERTEX
  8
1000LEVEL
 62
5
 10
1220.432
 20
-2401.287
 30
4227.000
 70
    32
  0
VERTEX
  8
1000LEVEL
 62
5
 10
1200.791
 20
-2359.511
 30
4227.000
 70
    32
  0
VERTEX
  8
1000LEVEL
 62
5
 10
1187.569
 20
-2317.019
 30
4227.000
 70
    32
  0
VERTEX
  8
1000LEVEL
 62
5
 10
1170.286
 20
-2283.947
 30
4227.000
 70
    32
  0
VERTEX
  8
1000LEVEL
 62
5
 10
1170.636
 20
-2329.629
 30
4227.000
 70
    32
  0
VERTEX
  8
1000LEVEL
 62
5
 10
1194.681
 20
-2379.939
 30
4227.000
 70
    32
  0
VERTEX
  8
1000LEVEL
 62
5
 10
1221.340
 20
-2429.667
 30
4227.000
 70
    32
  0
VERTEX
  8
1000LEVEL
 62
5
 10
1249.464
 20
-2476.610
 30
4227.000
 70
    32
  0
VERTEX
  8
1000LEVEL
 62
5
 10
1265.886
 20
-2535.001
 30
4227.000
 70
    32
  0
VERTEX
  8
1000LEVEL
 62
5
 10
1277.680
 20
-2578.520
 30
4227.000
 70
    32
  0
VERTEX
  8
1000LEVEL
 62
5
 10
1291.083
 20
-2626.083
 30
4227.000
 70
    32
  0
SEQEND
  8
1000LEVEL
  0
POLYLINE
  8
1000LEVEL
 62
5
 66
     1
 70
     8
  0
VERTEX
  8
1000LEVEL
 62
5
 10
1234.787
 20
-2632.764
 30
4227.000
 70
    32
  0
VERTEX
  8
1000LEVEL
 62
5
 10
1213.615
 20
-2572.589
 30
4227.000
 70
    32
  0
VERTEX
  8
1000LEVEL
 62
5
 10
1194.122
 20
-2512.940
 30
4227.000
 70
    32
  0
VERTEX
  8
1000LEVEL
 62
5
 10
1168.544
 20
-2468.934
 30
4227.000
 70
    32
  0
VERTEX
  8
1000LEVEL
 62
5
 10
1130.779
 20
-2425.457
 30
4227.000
 70
    32
  0
VERTEX
  8
1000LEVEL
 62
5
 10
1118.648
 20
-2391.714
 30
4227.000
 70
    32
  0
VERTEX
  8
1000LEVEL
 62
5
 10
1131.954
 20
-2370.445
 30
4227.000
 70
    32
  0
VERTEX
  8
1000LEVEL
 62
5
 10
1121.382
 20
-2325.614
 30
4227.000
 70
    32
  0
VERTEX
  8
1000LEVEL
 62
5
 10
1109.906
 20
-2266.267
 30
4227.000
 70
    32
  0
VERTEX
  8
1000LEVEL
 62
5
 10
1090.505
 20
-2184.451
 30
4227.000
 70
    32
  0
VERTEX
  8
1000LEVEL
 62
5
 10
1072.690
 20
-2125.328
 30
4227.000
 70
    32
  0
VERTEX
  8
1000LEVEL
 62
5
 10
1071.728
 20
-2092.654
 30
4227.000
 70
    32
  0
VERTEX
  8
1000LEVEL
 62
5
 10
1090.194
 20
-2112.308
 30
4227.000
 70
    32
  0
VERTEX
  8
1000LEVEL
 62
5
 10
1106.706
 20
-2173.234
 30
4227.000
 70
    32
  0
VERTEX
  8
1000LEVEL
 62
5
 10
1121.341
 20
-2222.511
 30
4227.000
 70
    32
  0
VERTEX
  8
1000LEVEL
 62
5
 10
1136.896
 20
-2278.491
 30
4227.000
 70
    32
  0
VERTEX
  8
1000LEVEL
 62
5
 10
1144.791
 20
-2330.447
 30
4227.000
 70
    32
  0
VERTEX
  8
1000LEVEL
 62
5
 10
1167.767
 20
-2391.925
 30
4227.000
 70
    32
  0
VERTEX
  8
1000LEVEL
 62
5
 10
1192.723
 20
-2445.913
 30
4227.000
 70
    32
  0
VERTEX
  8
1000LEVEL
 62
5
 10
1220.535
 20
-2497.847
 30
4227.000
 70
    32
  0
VERTEX
  8
1000LEVEL
 62
5
 10
1232.300
 20
-2532.286
 30
4227.000
 70
    32
  0
VERTEX
  8
1000LEVEL
 62
5
 10
1239.309
 20
-2575.779
 30
4227.000
 70
    32
  0
VERTEX
  8
1000LEVEL
 62
5
 10
1256.909
 20
-2631.590
 30
4227.000
 70
    32
  0
SEQEND
  8
1000LEVEL
  0
POLYLINE
  8
1000LEVEL
 62
13
 66
     1
 70
     8
  0
VERTEX
  8
1000LEVEL
 62
13
 10
2007.718
 20
-421.617
 30
4227.000
 70
    32
  0
VERTEX
  8
1000LEVEL
 62
13
 10
1983.767
 20
-426.273
 30
4227.000
 70
    32
  0
VERTEX
  8
1000LEVEL
 62
13
 10
1963.407
 20
-402.781
 30
4227.000
 70
    32
  0
VERTEX
  8
1000LEVEL
 62
13
 10
1934.224
 20
-408.600
 30
4227.000
 70
    32
  0
VERTEX
  8
1000LEVEL
 62
13
 10
1915.610
 20
-445.385
 30
4227.000
 70
    32
  0
VERTEX
  8
1000LEVEL
 62
13
 10
1901.848
 20
-503.381
 30
4227.000
 70
    32
  0
VERTEX
  8
1000LEVEL
 62
13
 10
1888.279
 20
-544.772
 30
4227.000
 70
    32
  0
VERTEX
  8
1000LEVEL
 62
13
 10
1861.686
 20
-554.795
 30
4227.000
 70
    32
  0
VERTEX
  8
1000LEVEL
 62
13
 10
1833.595
 20
-530.795
 30
4227.000
 70
    32
  0
VERTEX
  8
1000LEVEL
 62
13
 10
1794.778
 20
-567.809
 30
4227.000
 70
    32
  0
VERTEX
  8
1000LEVEL
 62
13
 10
1774.376
 20
-634.046
 30
4227.000
 70
    32
  0
VERTEX
  8
1000LEVEL
 62
13
 10
1752.495
 20
-672.314
 30
4227.000
 70
    32
  0
VERTEX
  8
1000LEVEL
 62
13
 10
1729.490
 20
-678.890
 30
4227.000
 70
    32
  0
VERTEX
  8
1000LEVEL
 62
13
 10
1693.452
 20
-651.072
 30
4227.000
 70
    32
  0
VERTEX
  8
1000LEVEL
 62
13
 10
1666.295
 20
-650.667
 30
4227.000
 70
    32
  0
VERTEX
  8
1000LEVEL
 62
13
 10
1640.566
 20
-687.803
 30
4227.000
 70
    32
  0
VERTEX
  8
1000LEVEL
 62
13
 10
1624.211
 20
-727.730
 30
4227.000
 70
    32
  0
VERTEX
  8
1000LEVEL
 62
13
 10
1595.760
 20
-770.722
 30
4227.000
 70
    32
  0
VERTEX
  8
1000LEVEL
 62
13
 10
1577.146
 20
-807.508
 30
4227.000
 70
    32
  0
VERTEX
  8
1000LEVEL
 62
13
 10
1581.058
 20
-854.528
 30
4227.000
 70
    32
  0
VERTEX
  8
1000LEVEL
 62
13
 10
1607.564
 20
-894.401
 30
4227.000
 70
    32
  0
VERTEX
  8
1000LEVEL
 62
13
 10
1645.514
 20
-932.111
 30
4227.000
 70
    32
  0
VERTEX
  8
1000LEVEL
 62
13
 10
1651.336
 20
-975.158
 30
4227.000
 70
    32
  0
VERTEX
  8
1000LEVEL
 62
13
 10
1634.926
 20
-1010.791
 30
4227.000
 70
    32
  0
VERTEX
  8
1000LEVEL
 62
13
 10
1592.313
 20
-998.535
 30
4227.000
 70
    32
  0
VERTEX
  8
1000LEVEL
 62
13
 10
1552.652
 20
-975.921
 30
4227.000
 70
    32
  0
VERTEX
  8
1000LEVEL
 62
13
 10
1510.587
 20
-943.337
 30
4227.000
 70
    32
  0
VERTEX
  8
1000LEVEL
 62
13
 10
1477.935
 20
-925.650
 30
4227.000
 70
    32
  0
VERTEX
  8
1000LEVEL
 62
13
 10
1461.272
 20
-945.866
 30
4227.000
 70
    32
  0
VERTEX
  8
1000LEVEL
 62
13
 10
1451.731
 20
-993.460
 30
4227.000
 70
    32
  0
VERTEX
  8
1000LEVEL
 62
13
 10
1466.641
 20
-1039.505
 30
4227.000
 70
    32
  0
VERTEX
  8
1000LEVEL
 62
13
 10
1494.319
 20
-1087.635
 30
4227.000
 70
    32
  0
VERTEX
  8
1000LEVEL
 62
13
 10
1536.550
 20
-1146.967
 30
4227.000
 70
    32
  0
VERTEX
  8
1000LEVEL
 62
13
 10
1565.020
 20
-1187.160
 30
4227.000
 70
    32
  0
VERTEX
  8
1000LEVEL
 62
13
 10
1537.497
 20
-1187.453
 30
4227.000
 70
    32
  0
VERTEX
  8
1000LEVEL
 62
13
 10
1500.054
 20
-1180.578
 30
4227.000
 70
    32
  0
VERTEX
  8
1000LEVEL
 62
13
 10
1501.745
 20
-1236.562
 30
4227.000
 70
    32
  0
VERTEX
  8
1000LEVEL
 62
13
 10
1521.161
 20
-1310.566
 30
4227.000
 70
    32
  0
VERTEX
  8
1000LEVEL
 62
13
 10
1527.802
 20
-1379.458
 30
4227.000
 70
    32
  0
VERTEX
  8
1000LEVEL
 62
13
 10
1532.214
 20
-1429.585
 30
4227.000
 70
    32
  0
VERTEX
  8
1000LEVEL
 62
13
 10
1498.850
 20
-1419.344
 30
4227.000
 70
    32
  0
VERTEX
  8
1000LEVEL
 62
13
 10
1446.496
 20
-1366.425
 30
4227.000
 70
    32
  0
VERTEX
  8
1000LEVEL
 62
13
 10
1414.711
 20
-1351.148
 30
4227.000
 70
    32
  0
VERTEX
  8
1000LEVEL
 62
13
 10
1404.601
 20
-1413.018
 30
4227.000
 70
    32
  0
VERTEX
  8
1000LEVEL
 62
13
 10
1414.024
 20
-1508.076
 30
4227.000
 70
    32
  0
VERTEX
  8
1000LEVEL
 62
13
 10
1418.559
 20
-1583.681
 30
4227.000
 70
    32
  0
VERTEX
  8
1000LEVEL
 62
13
 10
1452.266
 20
-1650.442
 30
4227.000
 70
    32
  0
VERTEX
  8
1000LEVEL
 62
13
 10
1493.285
 20
-1714.112
 30
4227.000
 70
    32
  0
VERTEX
  8
1000LEVEL
 62
13
 10
1525.876
 20
-1776.910
 30
4227.000
 70
    32
  0
VERTEX
  8
1000LEVEL
 62
13
 10
1554.057
 20
-1842.011
 30
4227.000
 70
    32
  0
VERTEX
  8
1000LEVEL
 62
13
 10
1560.761
 20
-1918.223
 30
4227.000
 70
    32
  0
VERTEX
  8
1000LEVEL
 62
13
 10
1573.133
 20
-1989.060
 30
4227.000
 70
    32
  0
VERTEX
  8
1000LEVEL
 62
13
 10
1571.342
 20
-2043.214
 30
4227.000
 70
    32
  0
VERTEX
  8
1000LEVEL
 62
13
 10
1543.533
 20
-2043.712
 30
4227.000
 70
    32
  0
VERTEX
  8
1000LEVEL
 62
13
 10
1523.501
 20
-2007.417
 30
4227.000
 70
    32
  0
VERTEX
  8
1000LEVEL
 62
13
 10
1497.489
 20
-1981.489
 30
4227.000
 70
    32
  0
VERTEX
  8
1000LEVEL
 62
13
 10
1501.815
 20
-2042.945
 30
4227.000
 70
    32
  0
VERTEX
  8
1000LEVEL
 62
13
 10
1546.335
 20
-2114.497
 30
4227.000
 70
    32
  0
VERTEX
  8
1000LEVEL
 62
13
 10
1579.773
 20
-2173.652
 30
4227.000
 70
    32
  0
VERTEX
  8
1000LEVEL
 62
13
 10
1582.835
 20
-2210.450
 30
4227.000
 70
    32
  0
VERTEX
  8
1000LEVEL
 62
13
 10
1540.218
 20
-2184.329
 30
4227.000
 70
    32
  0
VERTEX
  8
1000LEVEL
 62
13
 10
1511.099
 20
-2197.468
 30
4227.000
 70
    32
  0
VERTEX
  8
1000LEVEL
 62
13
 10
1489.648
 20
-2203.794
 30
4227.000
 70
    32
  0
VERTEX
  8
1000LEVEL
 62
13
 10
1468.707
 20
-2177.686
 30
4227.000
 70
    32
  0
VERTEX
  8
1000LEVEL
 62
13
 10
1444.031
 20
-2134.331
 30
4227.000
 70
    32
  0
VERTEX
  8
1000LEVEL
 62
13
 10
1433.665
 20
-2089.785
 30
4227.000
 70
    32
  0
VERTEX
  8
1000LEVEL
 62
13
 10
1422.512
 20
-2042.338
 30
4227.000
 70
    32
  0
VERTEX
  8
1000LEVEL
 62
13
 10
1389.443
 20
-1996.352
 30
4227.000
 70
    32
  0
VERTEX
  8
1000LEVEL
 62
13
 10
1360.719
 20
-1940.740
 30
4227.000
 70
    32
  0
VERTEX
  8
1000LEVEL
 62
13
 10
1327.195
 20
-1892.914
 30
4227.000
 70
    32
  0
VERTEX
  8
1000LEVEL
 62
13
 10
1312.175
 20
-1838.282
 30
4227.000
 70
    32
  0
VERTEX
  8
1000LEVEL
 62
13
 10
1279.218
 20
-1776.181
 30
4227.000
 70
    32
  0
VERTEX
  8
1000LEVEL
 62
13
 10
1256.249
 20
-1703.865
 30
4227.000
 70
    32
  0
VERTEX
  8
1000LEVEL
 62
13
 10
1226.117
 20
-1655.333
 30
4227.000
 70
    32
  0
VERTEX
  8
1000LEVEL
 62
13
 10
1178.625
 20
-1626.651
 30
4227.000
 70
    32
  0
VERTEX
  8
1000LEVEL
 62
13
 10
1142.289
 20
-1620.714
 30
4227.000
 70
    32
  0
VERTEX
  8
1000LEVEL
 62
13
 10
1101.883
 20
-1621.169
 30
4227.000
 70
    32
  0
VERTEX
  8
1000LEVEL
 62
13
 10
1058.467
 20
-1613.823
 30
4227.000
 70
    32
  0
VERTEX
  8
1000LEVEL
 62
13
 10
1038.883
 20
-1628.772
 30
4227.000
 70
    32
  0
VERTEX
  8
1000LEVEL
 62
13
 10
992.191
 20
-1581.316
 30
4227.000
 70
    32
  0
VERTEX
  8
1000LEVEL
 62
13
 10
980.473
 20
-1639.142
 30
4227.000
 70
    32
  0
VERTEX
  8
1000LEVEL
 62
13
 10
1013.969
 20
-1716.455
 30
4227.000
 70
    32
  0
VERTEX
  8
1000LEVEL
 62
13
 10
1042.340
 20
-1789.653
 30
4227.000
 70
    32
  0
VERTEX
  8
1000LEVEL
 62
13
 10
1058.723
 20
-1835.939
 30
4227.000
 70
    32
  0
VERTEX
  8
1000LEVEL
 62
13
 10
1085.140
 20
-1834.709
 30
4227.000
 70
    32
  0
VERTEX
  8
1000LEVEL
 62
13
 10
1100.852
 20
-1875.844
 30
4227.000
 70
    32
  0
VERTEX
  8
1000LEVEL
 62
13
 10
1136.284
 20
-1905.832
 30
4227.000
 70
    32
  0
VERTEX
  8
1000LEVEL
 62
13
 10
1170.810
 20
-1921.304
 30
4227.000
 70
    32
  0
VERTEX
  8
1000LEVEL
 62
13
 10
1181.532
 20
-1962.127
 30
4227.000
 70
    32
  0
VERTEX
  8
1000LEVEL
 62
13
 10
1174.975
 20
-2022.309
 30
4227.000
 70
    32
  0
VERTEX
  8
1000LEVEL
 62
13
 10
1176.988
 20
-2076.328
 30
4227.000
 70
    32
  0
VERTEX
  8
1000LEVEL
 62
13
 10
1213.513
 20
-2090.363
 30
4227.000
 70
    32
  0
VERTEX
  8
1000LEVEL
 62
13
 10
1246.791
 20
-2111.933
 30
4227.000
 70
    32
  0
VERTEX
  8
1000LEVEL
 62
13
 10
1251.913
 20
-2140.749
 30
4227.000
 70
    32
  0
VERTEX
  8
1000LEVEL
 62
13
 10
1250.109
 20
-2178.013
 30
4227.000
 70
    32
  0
VERTEX
  8
1000LEVEL
 62
13
 10
1199.748
 20
-2134.494
 30
4227.000
 70
    32
  0
VERTEX
  8
1000LEVEL
 62
13
 10
1162.475
 20
-2129.664
 30
4227.000
 70
    32
  0
VERTEX
  8
1000LEVEL
 62
13
 10
1098.301
 20
-2115.145
 30
4227.000
 70
    32
  0
VERTEX
  8
1000LEVEL
 62
13
 10
1061.711
 20
-2093.790
 30
4227.000
 70
    32
  0
VERTEX
  8
1000LEVEL
 62
13
 10
1027.269
 20
-2053.125
 30
4227.000
 70
    32
  0
VERTEX
  8
1000LEVEL
 62
13
 10
1029.332
 20
-1981.874
 30
4227.000
 70
    32
  0
VERTEX
  8
1000LEVEL
 62
13
 10
1025.709
 20
-1909.946
 30
4227.000
 70
    32
  0
VERTEX
  8
1000LEVEL
 62
13
 10
1002.611
 20
-1861.556
 30
4227.000
 70
    32
  0
VERTEX
  8
1000LEVEL
 62
13
 10
978.904
 20
-1801.470
 30
4227.000
 70
    32
  0
VERTEX
  8
1000LEVEL
 62
13
 10
944.740
 20
-1771.437
 30
4227.000
 70
    32
  0
VERTEX
  8
1000LEVEL
 62
13
 10
902.592
 20
-1764.046
 30
4227.000
 70
    32
  0
VERTEX
  8
1000LEVEL
 62
13
 10
896.575
 20
-1723.740
 30
4227.000
 70
    32
  0
VERTEX
  8
1000LEVEL
 62
13
 10
858.072
 20
-1692.494
 30
4227.000
 70
    32
  0
VERTEX
  8
1000LEVEL
 62
13
 10
821.470
 20
-1692.815
 30
4227.000
 70
    32
  0
VERTEX
  8
1000LEVEL
 62
13
 10
783.779
 20
-1659.684
 30
4227.000
 70
    32
  0
VERTEX
  8
1000LEVEL
 62
13
 10
761.522
 20
-1618.489
 30
4227.000
 70
    32
  0
VERTEX
  8
1000LEVEL
 62
13
 10
735.597
 20
-1658.365
 30
4227.000
 70
    32
  0
VERTEX
  8
1000LEVEL
 62
13
 10
701.068
 20
-1667.595
 30
4227.000
 70
    32
  0
VERTEX
  8
1000LEVEL
 62
13
 10
665.942
 20
-1682.021
 30
4227.000
 70
    32
  0
VERTEX
  8
1000LEVEL
 62
13
 10
668.416
 20
-1727.042
 30
4227.000
 70
    32
  0
VERTEX
  8
1000LEVEL
 62
13
 10
702.891
 20
-1790.651
 30
4227.000
 70
    32
  0
VERTEX
  8
1000LEVEL
 62
13
 10
694.835
 20
-1855.377
 30
4227.000
 70
    32
  0
VERTEX
  8
1000LEVEL
 62
13
 10
693.301
 20
-1900.247
 30
4227.000
 70
    32
  0
VERTEX
  8
1000LEVEL
 62
13
 10
655.871
 20
-1871.697
 30
4227.000
 70
    32
  0
VERTEX
  8
1000LEVEL
 62
13
 10
611.020
 20
-1837.649
 30
4227.000
 70
    32
  0
VERTEX
  8
1000LEVEL
 62
13
 10
584.110
 20
-1786.367
 30
4227.000
 70
    32
  0
VERTEX
  8
1000LEVEL
 62
13
 10
554.783
 20
-1708.222
 30
4227.000
 70
    32
  0
VERTEX
  8
1000LEVEL
 62
13
 10
541.072
 20
-1640.948
 30
4227.000
 70
    32
  0
VERTEX
  8
1000LEVEL
 62
13
 10
497.217
 20
-1585.385
 30
4227.000
 70
    32
  0
VERTEX
  8
1000LEVEL
 62
13
 10
462.620
 20
-1534.863
 30
4227.000
 70
    32
  0
VERTEX
  8
1000LEVEL
 62
13
 10
427.654
 20
-1471.174
 30
4227.000
 70
    32
  0
VERTEX
  8
1000LEVEL
 62
13
 10
396.970
 20
-1390.539
 30
4227.000
 70
    32
  0
VERTEX
  8
1000LEVEL
 62
13
 10
373.214
 20
-1315.322
 30
4227.000
 70
    32
  0
VERTEX
  8
1000LEVEL
 62
13
 10
343.242
 20
-1227.241
 30
4227.000
 70
    32
  0
VERTEX
  8
1000LEVEL
 62
13
 10
331.525
 20
-1285.067
 30
4227.000
 70
    32
  0
VERTEX
  8
1000LEVEL
 62
13
 10
340.883
 20
-1372.804
 30
4227.000
 70
    32
  0
VERTEX
  8
1000LEVEL
 62
13
 10
356.202
 20
-1482.689
 30
4227.000
 70
    32
  0
VERTEX
  8
1000LEVEL
 62
13
 10
397.544
 20
-1558.259
 30
4227.000
 70
    32
  0
VERTEX
  8
1000LEVEL
 62
13
 10
445.883
 20
-1621.865
 30
4227.000
 70
    32
  0
VERTEX
  8
1000LEVEL
 62
13
 10
487.659
 20
-1679.358
 30
4227.000
 70
    32
  0
VERTEX
  8
1000LEVEL
 62
13
 10
524.849
 20
-1747.948
 30
4227.000
 70
    32
  0
VERTEX
  8
1000LEVEL
 62
13
 10
554.006
 20
-1824.048
 30
4227.000
 70
    32
  0
VERTEX
  8
1000LEVEL
 62
13
 10
579.357
 20
-1886.418
 30
4227.000
 70
    32
  0
VERTEX
  8
1000LEVEL
 62
13
 10
582.492
 20
-1933.563
 30
4227.000
 70
    32
  0
VERTEX
  8
1000LEVEL
 62
13
 10
562.495
 20
-1934.077
 30
4227.000
 70
    32
  0
VERTEX
  8
1000LEVEL
 62
13
 10
539.493
 20
-1877.384
 30
4227.000
 70
    32
  0
VERTEX
  8
1000LEVEL
 62
13
 10
522.641
 20
-1812.369
 30
4227.000
 70
    32
  0
VERTEX
  8
1000LEVEL
 62
13
 10
485.997
 20
-1748.153
 30
4227.000
 70
    32
  0
VERTEX
  8
1000LEVEL
 62
13
 10
461.622
 20
-1696.781
 30
4227.000
 70
    32
  0
VERTEX
  8
1000LEVEL
 62
13
 10
416.466
 20
-1656.886
 30
4227.000
 70
    32
  0
VERTEX
  8
1000LEVEL
 62
13
 10
383.349
 20
-1595.767
 30
4227.000
 70
    32
  0
VERTEX
  8
1000LEVEL
 62
13
 10
337.379
 20
-1543.891
 30
4227.000
 70
    32
  0
VERTEX
  8
1000LEVEL
 62
13
 10
308.103
 20
-1494.743
 30
4227.000
 70
    32
  0
VERTEX
  8
1000LEVEL
 62
13
 10
288.744
 20
-1438.897
 30
4227.000
 70
    32
  0
VERTEX
  8
1000LEVEL
 62
13
 10
254.350
 20
-1374.797
 30
4227.000
 70
    32
  0
VERTEX
  8
1000LEVEL
 62
13
 10
228.235
 20
-1329.443
 30
4227.000
 70
    32
  0
VERTEX
  8
1000LEVEL
 62
13
 10
207.696
 20
-1262.313
 30
4227.000
 70
    32
  0
VERTEX
  8
1000LEVEL
 62
13
 10
173.930
 20
-1177.393
 30
4227.000
 70
    32
  0
VERTEX
  8
1000LEVEL
 62
13
 10
128.740
 20
-1100.690
 30
4227.000
 70
    32
  0
VERTEX
  8
1000LEVEL
 62
13
 10
87.647
 20
-1026.673
 30
4227.000
 70
    32
  0
VERTEX
  8
1000LEVEL
 62
13
 10
30.315
 20
-951.767
 30
4227.000
 70
    32
  0
VERTEX
  8
1000LEVEL
 62
13
 10
-25.790
 20
-889.412
 30
4227.000
 70
    32
  0
VERTEX
  8
1000LEVEL
 62
13
 10
-82.881
 20
-851.600
 30
4227.000
 70
    32
  0
VERTEX
  8
1000LEVEL
 62
13
 10
-47.498
 20
-943.589
 30
4227.000
 70
    32
  0
VERTEX
  8
1000LEVEL
 62
13
 10
6.210
 20
-1023.701
 30
4227.000
 70
    32
  0
VERTEX
  8
1000LEVEL
 62
13
 10
63.410
 20
-1108.668
 30
4227.000
 70
    32
  0
VERTEX
  8
1000LEVEL
 62
13
 10
105.424
 20
-1189.390
 30
4227.000
 70
    32
  0
VERTEX
  8
1000LEVEL
 62
13
 10
144.308
 20
-1289.261
 30
4227.000
 70
    32
  0
VERTEX
  8
1000LEVEL
 62
13
 10
175.548
 20
-1377.297
 30
4227.000
 70
    32
  0
VERTEX
  8
1000LEVEL
 62
13
 10
207.821
 20
-1455.923
 30
4227.000
 70
    32
  0
VERTEX
  8
1000LEVEL
 62
13
 10
254.173
 20
-1537.857
 30
4227.000
 70
    32
  0
VERTEX
  8
1000LEVEL
 62
13
 10
280.422
 20
-1587.015
 30
4227.000
 70
    32
  0
VERTEX
  8
1000LEVEL
 62
13
 10
307.124
 20
-1662.714
 30
4227.000
 70
    32
  0
VERTEX
  8
1000LEVEL
 62
13
 10
348.467
 20
-1738.284
 30
4227.000
 70
    32
  0
VERTEX
  8
1000LEVEL
 62
13
 10
396.392
 20
-1826.021
 30
4227.000
 70
    32
  0
VERTEX
  8
1000LEVEL
 62
13
 10
435.546
 20
-1894.932
 30
4227.000
 70
    32
  0
VERTEX
  8
1000LEVEL
 62
13
 10
475.210
 20
-1931.410
 30
4227.000
 70
    32
  0
VERTEX
  8
1000LEVEL
 62
13
 10
490.596
 20
-1946.779
 30
4227.000
 70
    32
  0
VERTEX
  8
1000LEVEL
 62
13
 10
514.390
 20
-1995.536
 30
4227.000
 70
    32
  0
VERTEX
  8
1000LEVEL
 62
13
 10
532.567
 20
-2078.664
 30
4227.000
 70
    32
  0
VERTEX
  8
1000LEVEL
 62
13
 10
566.599
 20
-2157.325
 30
4227.000
 70
    32
  0
VERTEX
  8
1000LEVEL
 62
13
 10
611.010
 20
-2220.289
 30
4227.000
 70
    32
  0
VERTEX
  8
1000LEVEL
 62
13
 10
674.876
 20
-2292.230
 30
4227.000
 70
    32
  0
VERTEX
  8
1000LEVEL
 62
13
 10
728.257
 20
-2346.577
 30
4227.000
 70
    32
  0
VERTEX
  8
1000LEVEL
 62
13
 10
774.324
 20
-2390.150
 30
4227.000
 70
    32
  0
VERTEX
  8
1000LEVEL
 62
13
 10
847.770
 20
-2465.169
 30
4227.000
 70
    32
  0
VERTEX
  8
1000LEVEL
 62
13
 10
922.753
 20
-2547.749
 30
4227.000
 70
    32
  0
VERTEX
  8
1000LEVEL
 62
13
 10
985.360
 20
-2622.761
 30
4227.000
 70
    32
  0
VERTEX
  8
1000LEVEL
 62
13
 10
1036.135
 20
-2680.715
 30
4227.000
 70
    32
  0
VERTEX
  8
1000LEVEL
 62
13
 10
1075.598
 20
-2730.771
 30
4227.000
 70
    32
  0
VERTEX
  8
1000LEVEL
 62
13
 10
1047.028
 20
-2723.582
 30
4227.000
 70
    32
  0
VERTEX
  8
1000LEVEL
 62
13
 10
1009.398
 20
-2683.908
 30
4227.000
 70
    32
  0
VERTEX
  8
1000LEVEL
 62
13
 10
978.107
 20
-2644.010
 30
4227.000
 70
    32
  0
VERTEX
  8
1000LEVEL
 62
13
 10
948.100
 20
-2634.821
 30
4227.000
 70
    32
  0
VERTEX
  8
1000LEVEL
 62
13
 10
1003.538
 20
-2705.889
 30
4227.000
 70
    32
  0
VERTEX
  8
1000LEVEL
 62
13
 10
1068.351
 20
-2779.749
 30
4227.000
 70
    32
  0
VERTEX
  8
1000LEVEL
 62
13
 10
1126.729
 20
-2862.136
 30
4227.000
 70
    32
  0
VERTEX
  8
1000LEVEL
 62
13
 10
1185.617
 20
-2950.656
 30
4227.000
 70
    32
  0
VERTEX
  8
1000LEVEL
 62
13
 10
1254.149
 20
-3049.575
 30
4227.000
 70
    32
  0
VERTEX
  8
1000LEVEL
 62
13
 10
1313.833
 20
-3144.023
 30
4227.000
 70
    32
  0
VERTEX
  8
1000LEVEL
 62
13
 10
1369.169
 20
-3234.231
 30
4227.000
 70
    32
  0
VERTEX
  8
1000LEVEL
 62
13
 10
1423.124
 20
-3302.031
 30
4227.000
 70
    32
  0
VERTEX
  8
1000LEVEL
 62
13
 10
1501.124
 20
-3304.442
 30
4227.000
 70
    32
  0
VERTEX
  8
1000LEVEL
 62
13
 10
1530.640
 20
-3352.117
 30
4227.000
 70
    32
  0
VERTEX
  8
1000LEVEL
 62
13
 10
1573.292
 20
-3415.045
 30
4227.000
 70
    32
  0
VERTEX
  8
1000LEVEL
 62
13
 10
1649.242
 20
-3389.897
 30
4227.000
 70
    32
  0
VERTEX
  8
1000LEVEL
 62
13
 10
1678.768
 20
-3440.598
 30
4227.000
 70
    32
  0
VERTEX
  8
1000LEVEL
 62
13
 10
1713.451
 20
-3479.791
 30
4227.000
 70
    32
  0
SEQEND
  8
1000LEVEL
  0
POLYLINE
  8
1000LEVEL
 62
13
 66
     1
 70
     8
  0
VERTEX
  8
1000LEVEL
 62
13
 10
1882.590
 20
-3745.130
 30
4227.000
 70
    32
  0
VERTEX
  8
1000LEVEL
 62
13
 10
1917.080
 20
-3800.928
 30
4227.000
 70
    32
  0
VERTEX
  8
1000LEVEL
 62
13
 10
1958.028
 20
-3868.115
 30
4227.000
 70
    32
  0
VERTEX
  8
1000LEVEL
 62
13
 10
1995.289
 20
-3933.188
 30
4227.000
 70
    32
  0
VERTEX
  8
1000LEVEL
 62
13
 10
2038.567
 20
-4000.000
 30
4227.000
 70
    32
  0
VERTEX
  8
1000LEVEL
 62
13
 10
2064.665
 20
-4053.166
 30
4227.000
 70
    32
  0
VERTEX
  8
1000LEVEL
 62
13
 10
2075.721
 20
-4108.916
 30
4227.000
 70
    32
  0
VERTEX
  8
1000LEVEL
 62
13
 10
2055.152
 20
-4109.840
 30
4227.000
 70
    32
  0
VERTEX
  8
1000LEVEL
 62
13
 10
2013.633
 20
-4081.630
 30
4227.000
 70
    32
  0
VERTEX
  8
1000LEVEL
 62
13
 10
1989.480
 20
-4061.298
 30
4227.000
 70
    32
  0
VERTEX
  8
1000LEVEL
 62
13
 10
2004.740
 20
-4114.458
 30
4227.000
 70
    32
  0
VERTEX
  8
1000LEVEL
 62
13
 10
2024.455
 20
-4166.581
 30
4227.000
 70
    32
  0
VERTEX
  8
1000LEVEL
 62
13
 10
2004.121
 20
-4176.870
 30
4227.000
 70
    32
  0
VERTEX
  8
1000LEVEL
 62
13
 10
1966.793
 20
-4129.179
 30
4227.000
 70
    32
  0
VERTEX
  8
1000LEVEL
 62
13
 10
1917.927
 20
-4067.252
 30
4227.000
 70
    32
  0
VERTEX
  8
1000LEVEL
 62
13
 10
1856.581
 20
-4003.033
 30
4227.000
 70
    32
  0
VERTEX
  8
1000LEVEL
 62
13
 10
1795.709
 20
-4023.839
 30
4227.000
 70
    32
  0
VERTEX
  8
1000LEVEL
 62
13
 10
1763.404
 20
-3999.403
 30
4227.000
 70
    32
  0
VERTEX
  8
1000LEVEL
 62
13
 10
1744.036
 20
-3979.097
 30
4227.000
 70
    32
  0
VERTEX
  8
1000LEVEL
 62
13
 10
1645.435
 20
-3954.668
 30
4227.000
 70
    32
  0
VERTEX
  8
1000LEVEL
 62
13
 10
1612.189
 20
-3917.475
 30
4227.000
 70
    32
  0
VERTEX
  8
1000LEVEL
 62
13
 10
1578.966
 20
-3861.632
 30
4227.000
 70
    32
  0
VERTEX
  8
1000LEVEL
 62
13
 10
1553.369
 20
-3811.573
 30
4227.000
 70
    32
  0
VERTEX
  8
1000LEVEL
 62
13
 10
1544.803
 20
-3831.599
 30
4227.000
 70
    32
  0
VERTEX
  8
1000LEVEL
 62
13
 10
1552.544
 20
-3873.699
 30
4227.000
 70
    32
  0
VERTEX
  8
1000LEVEL
 62
13
 10
1538.086
 20
-3892.763
 30
4227.000
 70
    32
  0
VERTEX
  8
1000LEVEL
 62
13
 10
1503.852
 20
-3827.680
 30
4227.000
 70
    32
  0
VERTEX
  8
1000LEVEL
 62
13
 10
1470.500
 20
-3757.197
 30
4227.000
 70
    32
  0
VERTEX
  8
1000LEVEL
 62
13
 10
1435.345
 20
-3685.410
 30
4227.000
 70
    32
  0
VERTEX
  8
1000LEVEL
 62
13
 10
1394.365
 20
-3595.279
 30
4227.000
 70
    32
  0
VERTEX
  8
1000LEVEL
 62
13
 10
1341.273
 20
-3516.024
 30
4227.000
 70
    32
  0
VERTEX
  8
1000LEVEL
 62
13
 10
1284.557
 20
-3441.975
 30
4227.000
 70
    32
  0
VERTEX
  8
1000LEVEL
 62
13
 10
1235.689
 20
-3366.183
 30
4227.000
 70
    32
  0
VERTEX
  8
1000LEVEL
 62
13
 10
1205.357
 20
-3306.528
 30
4227.000
 70
    32
  0
VERTEX
  8
1000LEVEL
 62
13
 10
1173.973
 20
-3250.229
 30
4227.000
 70
    32
  0
VERTEX
  8
1000LEVEL
 62
13
 10
1127.547
 20
-3196.514
 30
4227.000
 70
    32
  0
VERTEX
  8
1000LEVEL
 62
13
 10
1075.780
 20
-3096.806
 30
4227.000
 70
    32
  0
VERTEX
  8
1000LEVEL
 62
13
 10
1010.621
 20
-2991.129
 30
4227.000
 70
    32
  0
VERTEX
  8
1000LEVEL
 62
13
 10
946.691
 20
-2911.868
 30
4227.000
 70
    32
  0
VERTEX
  8
1000LEVEL
 62
13
 10
869.140
 20
-2806.434
 30
4227.000
 70
    32
  0
VERTEX
  8
1000LEVEL
 62
13
 10
789.812
 20
-2694.913
 30
4227.000
 70
    32
  0
VERTEX
  8
1000LEVEL
 62
13
 10
706.392
 20
-2569.867
 30
4227.000
 70
    32
  0
VERTEX
  8
1000LEVEL
 62
13
 10
619.864
 20
-2445.322
 30
4227.000
 70
    32
  0
VERTEX
  8
1000LEVEL
 62
13
 10
524.544
 20
-2320.601
 30
4227.000
 70
    32
  0
VERTEX
  8
1000LEVEL
 62
13
 10
454.169
 20
-2208.273
 30
4227.000
 70
    32
  0
VERTEX
  8
1000LEVEL
 62
13
 10
390.705
 20
-2095.311
 30
4227.000
 70
    32
  0
VERTEX
  8
1000LEVEL
 62
13
 10
329.429
 20
-1989.008
 30
4227.000
 70
    32
  0
VERTEX
  8
1000LEVEL
 62
13
 10
289.617
 20
-1893.270
 30
4227.000
 70
    32
  0
VERTEX
  8
1000LEVEL
 62
13
 10
247.395
 20
-1798.398
 30
4227.000
 70
    32
  0
VERTEX
  8
1000LEVEL
 62
13
 10
222.840
 20
-1703.389
 30
4227.000
 70
    32
  0
VERTEX
  8
1000LEVEL
 62
13
 10
170.374
 20
-1628.017
 30
4227.000
 70
    32
  0
VERTEX
  8
1000LEVEL
 62
13
 10
116.999
 20
-1562.832
 30
4227.000
 70
    32
  0
VERTEX
  8
1000LEVEL
 62
13
 10
75.352
 20
-1519.981
 30
4227.000
 70
    32
  0
VERTEX
  8
1000LEVEL
 62
13
 10
35.495
 20
-1500.109
 30
4227.000
 70
    32
  0
VERTEX
  8
1000LEVEL
 62
13
 10
65.194
 20
-1566.719
 30
4227.000
 70
    32
  0
VERTEX
  8
1000LEVEL
 62
13
 10
91.241
 20
-1668.022
 30
4227.000
 70
    32
  0
VERTEX
  8
1000LEVEL
 62
13
 10
124.727
 20
-1742.309
 30
4227.000
 70
    32
  0
VERTEX
  8
1000LEVEL
 62
13
 10
163.689
 20
-1827.825
 30
4227.000
 70
    32
  0
VERTEX
  8
1000LEVEL
 62
13
 10
202.554
 20
-1883.077
 30
4227.000
 70
    32
  0
VERTEX
  8
1000LEVEL
 62
13
 10
248.374
 20
-1938.961
 30
4227.000
 70
    32
  0
VERTEX
  8
1000LEVEL
 62
13
 10
274.421
 20
-2001.697
 30
4227.000
 70
    32
  0
VERTEX
  8
1000LEVEL
 62
13
 10
275.062
 20
-2036.336
 30
4227.000
 70
    32
  0
VERTEX
  8
1000LEVEL
 62
13
 10
233.649
 20
-1964.283
 30
4227.000
 70
    32
  0
VERTEX
  8
1000LEVEL
 62
13
 10
189.989
 20
-1905.979
 30
4227.000
 70
    32
  0
VERTEX
  8
1000LEVEL
 62
13
 10
143.101
 20
-1822.696
 30
4227.000
 70
    32
  0
VERTEX
  8
1000LEVEL
 62
13
 10
97.942
 20
-1730.370
 30
4227.000
 70
    32
  0
VERTEX
  8
1000LEVEL
 62
13
 10
59.501
 20
-1654.013
 30
4227.000
 70
    32
  0
VERTEX
  8
1000LEVEL
 62
13
 10
12.349
 20
-1590.853
 30
4227.000
 70
    32
  0
VERTEX
  8
1000LEVEL
 62
13
 10
-37.540
 20
-1541.362
 30
4227.000
 70
    32
  0
VERTEX
  8
1000LEVEL
 62
13
 10
-35.974
 20
-1596.569
 30
4227.000
 70
    32
  0
VERTEX
  8
1000LEVEL
 62
13
 10
-14.526
 20
-1653.512
 30
4227.000
 70
    32
  0
VERTEX
  8
1000LEVEL
 62
13
 10
-24.469
 20
-1664.995
 30
4227.000
 70
    32
  0
VERTEX
  8
1000LEVEL
 62
13
 10
-54.787
 20
-1622.231
 30
4227.000
 70
    32
  0
VERTEX
  8
1000LEVEL
 62
13
 10
-97.096
 20
-1577.255
 30
4227.000
 70
    32
  0
VERTEX
  8
1000LEVEL
 62
13
 10
-123.948
 20
-1544.131
 30
4227.000
 70
    32
  0
VERTEX
  8
1000LEVEL
 62
13
 10
-147.027
 20
-1501.794
 30
4227.000
 70
    32
  0
VERTEX
  8
1000LEVEL
 62
13
 10
-185.796
 20
-1438.239
 30
4227.000
 70
    32
  0
VERTEX
  8
1000LEVEL
 62
13
 10
-223.255
 20
-1362.043
 30
4227.000
 70
    32
  0
VERTEX
  8
1000LEVEL
 62
13
 10
-272.230
 20
-1252.960
 30
4227.000
 70
    32
  0
VERTEX
  8
1000LEVEL
 62
13
 10
-335.601
 20
-1117.831
 30
4227.000
 70
    32
  0
VERTEX
  8
1000LEVEL
 62
13
 10
-382.268
 20
-988.456
 30
4227.000
 70
    32
  0
VERTEX
  8
1000LEVEL
 62
13
 10
-440.527
 20
-840.550
 30
4227.000
 70
    32
  0
VERTEX
  8
1000LEVEL
 62
13
 10
-483.244
 20
-693.167
 30
4227.000
 70
    32
  0
VERTEX
  8
1000LEVEL
 62
13
 10
-526.509
 20
-566.112
 30
4227.000
 70
    32
  0
VERTEX
  8
1000LEVEL
 62
13
 10
-571.410
 20
-425.935
 30
4227.000
 70
    32
  0
VERTEX
  8
1000LEVEL
 62
13
 10
-616.129
 20
-304.692
 30
4227.000
 70
    32
  0
VERTEX
  8
1000LEVEL
 62
13
 10
-652.899
 20
-239.699
 30
4227.000
 70
    32
  0
VERTEX
  8
1000LEVEL
 62
13
 10
-697.643
 20
-161.809
 30
4227.000
 70
    32
  0
VERTEX
  8
1000LEVEL
 62
13
 10
-749.506
 20
-70.403
 30
4227.000
 70
    32
  0
VERTEX
  8
1000LEVEL
 62
13
 10
-807.159
 20
2.539
 30
4227.000
 70
    32
  0
VERTEX
  8
1000LEVEL
 62
13
 10
-866.519
 20
46.520
 30
4227.000
 70
    32
  0
VERTEX
  8
1000LEVEL
 62
13
 10
-869.468
 20
-16.268
 30
4227.000
 70
    32
  0
VERTEX
  8
1000LEVEL
 62
13
 10
-843.248
 20
-94.913
 30
4227.000
 70
    32
  0
VERTEX
  8
1000LEVEL
 62
13
 10
-846.307
 20
-149.112
 30
4227.000
 70
    32
  0
VERTEX
  8
1000LEVEL
 62
13
 10
-889.501
 20
-95.674
 30
4227.000
 70
    32
  0
VERTEX
  8
1000LEVEL
 62
13
 10
-919.175
 20
-24.279
 30
4227.000
 70
    32
  0
VERTEX
  8
1000LEVEL
 62
13
 10
-933.078
 20
26.391
 30
4227.000
 70
    32
  0
SEQEND
  8
1000LEVEL
  0
POLYLINE
  8
1000LEVEL
 62
13
 66
     1
 70
     9
  0
VERTEX
  8
1000LEVEL
 62
13
 10
1855.855
 20
-123.055
 30
4227.000
 70
    32
  0
VERTEX
  8
1000LEVEL
 62
13
 10
1829.173
 20
-130.542
 30
4227.000
 70
    32
  0
VERTEX
  8
1000LEVEL
 62
13
 10
1796.514
 20
-123.693
 30
4227.000
 70
    32
  0
VERTEX
  8
1000LEVEL
 62
13
 10
1763.500
 20
-120.567
 30
4227.000
 70
    32
  0
VERTEX
  8
1000LEVEL
 62
13
 10
1736.400
 20
-138.321
 30
4227.000
 70
    32
  0
VERTEX
  8
1000LEVEL
 62
13
 10
1715.469
 20
-192.373
 30
4227.000
 70
    32
  0
VERTEX
  8
1000LEVEL
 62
13
 10
1718.293
 20
-244.509
 30
4227.000
 70
    32
  0
VERTEX
  8
1000LEVEL
 62
13
 10
1705.789
 20
-299.434
 30
4227.000
 70
    32
  0
VERTEX
  8
1000LEVEL
 62
13
 10
1701.113
 20
-346.563
 30
4227.000
 70
    32
  0
VERTEX
  8
1000LEVEL
 62
13
 10
1669.347
 20
-375.906
 30
4227.000
 70
    32
  0
VERTEX
  8
1000LEVEL
 62
13
 10
1648.470
 20
-395.685
 30
4227.000
 70
    32
  0
VERTEX
  8
1000LEVEL
 62
13
 10
1602.506
 20
-410.104
 30
4227.000
 70
    32
  0
VERTEX
  8
1000LEVEL
 62
13
 10
1557.216
 20
-443.539
 30
4227.000
 70
    32
  0
VERTEX
  8
1000LEVEL
 62
13
 10
1545.649
 20
-497.357
 30
4227.000
 70
    32
  0
VERTEX
  8
1000LEVEL
 62
13
 10
1553.079
 20
-544.448
 30
4227.000
 70
    32
  0
VERTEX
  8
1000LEVEL
 62
13
 10
1558.175
 20
-578.049
 30
4227.000
 70
    32
  0
VERTEX
  8
1000LEVEL
 62
13
 10
1535.912
 20
-624.826
 30
4227.000
 70
    32
  0
VERTEX
  8
1000LEVEL
 62
13
 10
1519.772
 20
-668.065
 30
4227.000
 70
    32
  0
VERTEX
  8
1000LEVEL
 62
13
 10
1524.580
 20
-688.008
 30
4227.000
 70
    32
  0
VERTEX
  8
1000LEVEL
 62
13
 10
1506.964
 20
-717.142
 30
4227.000
 70
    32
  0
VERTEX
  8
1000LEVEL
 62
13
 10
1498.892
 20
-751.113
 30
4227.000
 70
    32
  0
VERTEX
  8
1000LEVEL
 62
13
 10
1499.544
 20
-788.778
 30
4227.000
 70
    32
  0
VERTEX
  8
1000LEVEL
 62
13
 10
1507.689
 20
-803.721
 30
4227.000
 70
    32
  0
VERTEX
  8
1000LEVEL
 62
13
 10
1515.112
 20
-784.516
 30
4227.000
 70
    32
  0
VERTEX
  8
1000LEVEL
 62
13
 10
1512.988
 20
-746.611
 30
4227.000
 70
    32
  0
VERTEX
  8
1000LEVEL
 62
13
 10
1532.728
 20
-716.815
 30
4227.000
 70
    32
  0
VERTEX
  8
1000LEVEL
 62
13
 10
1553.798
 20
-680.431
 30
4227.000
 70
    32
  0
VERTEX
  8
1000LEVEL
 62
13
 10
1562.903
 20
-637.050
 30
4227.000
 70
    32
  0
VERTEX
  8
1000LEVEL
 62
13
 10
1582.448
 20
-609.995
 30
4227.000
 70
    32
  0
VERTEX
  8
1000LEVEL
 62
13
 10
1587.762
 20
-545.073
 30
4227.000
 70
    32
  0
VERTEX
  8
1000LEVEL
 62
13
 10
1592.015
 20
-480.482
 30
4227.000
 70
    32
  0
VERTEX
  8
1000LEVEL
 62
13
 10
1623.165
 20
-450.282
 30
4227.000
 70
    32
  0
VERTEX
  8
1000LEVEL
 62
13
 10
1665.592
 20
-429.739
 30
4227.000
 70
    32
  0
VERTEX
  8
1000LEVEL
 62
13
 10
1681.693
 20
-451.528
 30
4227.000
 70
    32
  0
VERTEX
  8
1000LEVEL
 62
13
 10
1717.757
 20
-435.994
 30
4227.000
 70
    32
  0
VERTEX
  8
1000LEVEL
 62
13
 10
1734.189
 20
-381.712
 30
4227.000
 70
    32
  0
VERTEX
  8
1000LEVEL
 62
13
 10
1763.894
 20
-321.783
 30
4227.000
 70
    32
  0
VERTEX
  8
1000LEVEL
 62
13
 10
1793.167
 20
-279.934
 30
4227.000
 70
    32
  0
VERTEX
  8
1000LEVEL
 62
13
 10
1814.875
 20
-225.757
 30
4227.000
 70
    32
  0
VERTEX
  8
1000LEVEL
 62
13
 10
1824.802
 20
-183.519
 30
4227.000
 70
    32
  0
VERTEX
  8
1000LEVEL
 62
13
 10
1866.491
 20
-175.206
 30
4227.000
 70
    32
  0
SEQEND
  8
1000LEVEL
  0
POLYLINE
  8
1000LEVEL
 62
13
 66
     1
 70
     8
  0
VERTEX
  8
1000LEVEL
 62
13
 10
-300.584
 20
-1634.750
 30
4227.000
 70
    32
  0
VERTEX
  8
1000LEVEL
 62
13
 10
-253.003
 20
-1704.534
 30
4227.000
 70
    32
  0
VERTEX
  8
1000LEVEL
 62
13
 10
-160.920
 20
-1839.818
 30
4227.000
 70
    32
  0
VERTEX
  8
1000LEVEL
 62
13
 10
-82.959
 20
-1945.823
 30
4227.000
 70
    32
  0
VERTEX
  8
1000LEVEL
 62
13
 10
-13.910
 20
-2040.036
 30
4227.000
 70
    32
  0
VERTEX
  8
1000LEVEL
 62
13
 10
43.457
 20
-2151.750
 30
4227.000
 70
    32
  0
VERTEX
  8
1000LEVEL
 62
13
 10
75.017
 20
-2237.822
 30
4227.000
 70
    32
  0
VERTEX
  8
1000LEVEL
 62
13
 10
132.526
 20
-2303.934
 30
4227.000
 70
    32
  0
VERTEX
  8
1000LEVEL
 62
13
 10
181.083
 20
-2384.717
 30
4227.000
 70
    32
  0
VERTEX
  8
1000LEVEL
 62
13
 10
177.399
 20
-2435.033
 30
4227.000
 70
    32
  0
VERTEX
  8
1000LEVEL
 62
13
 10
203.889
 20
-2482.717
 30
4227.000
 70
    32
  0
VERTEX
  8
1000LEVEL
 62
13
 10
204.967
 20
-2513.142
 30
4227.000
 70
    32
  0
VERTEX
  8
1000LEVEL
 62
13
 10
164.584
 20
-2456.381
 30
4227.000
 70
    32
  0
VERTEX
  8
1000LEVEL
 62
13
 10
116.052
 20
-2409.380
 30
4227.000
 70
    32
  0
VERTEX
  8
1000LEVEL
 62
13
 10
79.899
 20
-2345.245
 30
4227.000
 70
    32
  0
VERTEX
  8
1000LEVEL
 62
13
 10
59.157
 20
-2291.694
 30
4227.000
 70
    32
  0
VERTEX
  8
1000LEVEL
 62
13
 10
32.195
 20
-2249.982
 30
4227.000
 70
    32
  0
VERTEX
  8
1000LEVEL
 62
13
 10
38.492
 20
-2300.920
 30
4227.000
 70
    32
  0
VERTEX
  8
1000LEVEL
 62
13
 10
53.117
 20
-2347.170
 30
4227.000
 70
    32
  0
VERTEX
  8
1000LEVEL
 62
13
 10
65.983
 20
-2393.385
 30
4227.000
 70
    32
  0
VERTEX
  8
1000LEVEL
 62
13
 10
38.845
 20
-2360.467
 30
4227.000
 70
    32
  0
VERTEX
  8
1000LEVEL
 62
13
 10
12.371
 20
-2304.971
 30
4227.000
 70
    32
  0
VERTEX
  8
1000LEVEL
 62
13
 10
-8.551
 20
-2246.349
 30
4227.000
 70
    32
  0
VERTEX
  8
1000LEVEL
 62
13
 10
-35.592
 20
-2166.561
 30
4227.000
 70
    32
  0
VERTEX
  8
1000LEVEL
 62
13
 10
-59.980
 20
-2098.298
 30
4227.000
 70
    32
  0
VERTEX
  8
1000LEVEL
 62
13
 10
-92.648
 20
-2049.857
 30
4227.000
 70
    32
  0
VERTEX
  8
1000LEVEL
 62
13
 10
-81.316
 20
-2102.374
 30
4227.000
 70
    32
  0
VERTEX
  8
1000LEVEL
 62
13
 10
-63.119
 20
-2152.989
 30
4227.000
 70
    32
  0
VERTEX
  8
1000LEVEL
 62
13
 10
-75.372
 20
-2170.900
 30
4227.000
 70
    32
  0
VERTEX
  8
1000LEVEL
 62
13
 10
-103.313
 20
-2104.326
 30
4227.000
 70
    32
  0
VERTEX
  8
1000LEVEL
 62
13
 10
-135.358
 20
-2045.903
 30
4227.000
 70
    32
  0
VERTEX
  8
1000LEVEL
 62
13
 10
-156.209
 20
-1983.763
 30
4227.000
 70
    32
  0
VERTEX
  8
1000LEVEL
 62
13
 10
-185.058
 20
-1927.375
 30
4227.000
 70
    32
  0
VERTEX
  8
1000LEVEL
 62
13
 10
-240.451
 20
-1857.575
 30
4227.000
 70
    32
  0
VERTEX
  8
1000LEVEL
 62
13
 10
-296.175
 20
-1786.713
 30
4227.000
 70
    32
  0
VERTEX
  8
1000LEVEL
 62
13
 10
-344.049
 20
-1727.972
 30
4227.000
 70
    32
  0
VERTEX
  8
1000LEVEL
 62
13
 10
-381.922
 20
-1675.907
 30
4227.000
 70
    32
  0
SEQEND
  8
1000LEVEL
  0
POLYLINE
  8
1000LEVEL
 62
13
 66
     1
 70
     8
  0
VERTEX
  8
1000LEVEL
 62
13
 10
-1256.132
 20
-2120.384
 30
4227.000
 70
    32
  0
VERTEX
  8
1000LEVEL
 62
13
 10
-1220.607
 20
-2166.772
 30
4227.000
 70
    32
  0
VERTEX
  8
1000LEVEL
 62
13
 10
-1191.929
 20
-2221.116
 30
4227.000
 70
    32
  0
VERTEX
  8
1000LEVEL
 62
13
 10
-1151.125
 20
-2281.474
 30
4227.000
 70
    32
  0
VERTEX
  8
1000LEVEL
 62
13
 10
-1125.662
 20
-2327.730
 30
4227.000
 70
    32
  0
VERTEX
  8
1000LEVEL
 62
13
 10
-1121.959
 20
-2360.601
 30
4227.000
 70
    32
  0
VERTEX
  8
1000LEVEL
 62
13
 10
-1157.454
 20
-2323.292
 30
4227.000
 70
    32
  0
VERTEX
  8
1000LEVEL
 62
13
 10
-1206.881
 20
-2264.802
 30
4227.000
 70
    32
  0
VERTEX
  8
1000LEVEL
 62
13
 10
-1240.438
 20
-2232.599
 30
4227.000
 70
    32
  0
SEQEND
  8
1000LEVEL
  0
POLYLINE
  8
1000LEVEL
 62
7
 66
     1
 70
     9
  0
VERTEX
  8
1000LEVEL
 62
7
 10
1816.088
 20
-144.284
 30
4227.000
 70
    32
  0
VERTEX
  8
1000LEVEL
 62
7
 10
1790.529
 20
-144.897
 30
4227.000
 70
    32
  0
VERTEX
  8
1000LEVEL
 62
7
 10
1768.115
 20
-157.115
 30
4227.000
 70
    32
  0
VERTEX
  8
1000LEVEL
 62
7
 10
1751.202
 20
-175.778
 30
4227.000
 70
    32
  0
VERTEX
  8
1000LEVEL
 62
7
 10
1749.237
 20
-214.023
 30
4227.000
 70
    32
  0
VERTEX
  8
1000LEVEL
 62
7
 10
1748.284
 20
-261.509
 30
4227.000
 70
    32
  0
VERTEX
  8
1000LEVEL
 62
7
 10
1745.759
 20
-303.192
 30
4227.000
 70
    32
  0
VERTEX
  8
1000LEVEL
 62
7
 10
1744.953
 20
-332.804
 30
4227.000
 70
    32
  0
VERTEX
  8
1000LEVEL
 62
7
 10
1759.713
 20
-305.724
 30
4227.000
 70
    32
  0
VERTEX
  8
1000LEVEL
 62
7
 10
1764.026
 20
-273.155
 30
4227.000
 70
    32
  0
VERTEX
  8
1000LEVEL
 62
7
 10
1766.972
 20
-235.070
 30
4227.000
 70
    32
  0
VERTEX
  8
1000LEVEL
 62
7
 10
1775.811
 20
-197.948
 30
4227.000
 70
    32
  0
VERTEX
  8
1000LEVEL
 62
7
 10
1806.662
 20
-151.062
 30
4227.000
 70
    32
  0
SEQEND
  8
1000LEVEL
  0
POLYLINE
  8
1000LEVEL
 62
7
 66
     1
 70
     8
  0
VERTEX
  8
1000LEVEL
 62
7
 10
2004.168
 20
-514.303
 30
4227.000
 70
    32
  0
VERTEX
  8
1000LEVEL
 62
7
 10
1980.560
 20
-498.346
 30
4227.000
 70
    32
  0
VERTEX
  8
1000LEVEL
 62
7
 10
1958.464
 20
-533.302
 30
4227.000
 70
    32
  0
VERTEX
  8
1000LEVEL
 62
7
 10
1947.154
 20
-577.835
 30
4227.000
 70
    32
  0
VERTEX
  8
1000LEVEL
 62
7
 10
1939.744
 20
-613.930
 30
4227.000
 70
    32
  0
VERTEX
  8
1000LEVEL
 62
7
 10
1923.020
 20
-640.690
 30
4227.000
 70
    32
  0
VERTEX
  8
1000LEVEL
 62
7
 10
1893.292
 20
-642.134
 30
4227.000
 70
    32
  0
VERTEX
  8
1000LEVEL
 62
7
 10
1861.747
 20
-625.384
 30
4227.000
 70
    32
  0
VERTEX
  8
1000LEVEL
 62
7
 10
1838.223
 20
-622.801
 30
4227.000
 70
    32
  0
VERTEX
  8
1000LEVEL
 62
7
 10
1823.582
 20
-661.496
 30
4227.000
 70
    32
  0
VERTEX
  8
1000LEVEL
 62
7
 10
1801.739
 20
-711.870
 30
4227.000
 70
    32
  0
VERTEX
  8
1000LEVEL
 62
7
 10
1785.660
 20
-748.565
 30
4227.000
 70
    32
  0
VERTEX
  8
1000LEVEL
 62
7
 10
1764.998
 20
-771.656
 30
4227.000
 70
    32
  0
VERTEX
  8
1000LEVEL
 62
7
 10
1731.804
 20
-763.460
 30
4227.000
 70
    32
  0
VERTEX
  8
1000LEVEL
 62
7
 10
1701.472
 20
-742.371
 30
4227.000
 70
    32
  0
VERTEX
  8
1000LEVEL
 62
7
 10
1678.882
 20
-724.816
 30
4227.000
 70
    32
  0
VERTEX
  8
1000LEVEL
 62
7
 10
1658.310
 20
-750.443
 30
4227.000
 70
    32
  0
VERTEX
  8
1000LEVEL
 62
7
 10
1647.819
 20
-782.254
 30
4227.000
 70
    32
  0
VERTEX
  8
1000LEVEL
 62
7
 10
1648.300
 20
-817.874
 30
4227.000
 70
    32
  0
VERTEX
  8
1000LEVEL
 62
7
 10
1663.698
 20
-850.134
 30
4227.000
 70
    32
  0
VERTEX
  8
1000LEVEL
 62
7
 10
1692.428
 20
-894.908
 30
4227.000
 70
    32
  0
VERTEX
  8
1000LEVEL
 62
7
 10
1702.945
 20
-935.445
 30
4227.000
 70
    32
  0
VERTEX
  8
1000LEVEL
 62
7
 10
1689.010
 20
-977.533
 30
4227.000
 70
    32
  0
VERTEX
  8
1000LEVEL
 62
7
 10
1670.207
 20
-1006.221
 30
4227.000
 70
    32
  0
VERTEX
  8
1000LEVEL
 62
7
 10
1662.216
 20
-1039.701
 30
4227.000
 70
    32
  0
VERTEX
  8
1000LEVEL
 62
7
 10
1620.157
 20
-1034.845
 30
4227.000
 70
    32
  0
VERTEX
  8
1000LEVEL
 62
7
 10
1579.970
 20
-1013.910
 30
4227.000
 70
    32
  0
VERTEX
  8
1000LEVEL
 62
7
 10
1525.924
 20
-982.141
 30
4227.000
 70
    32
  0
VERTEX
  8
1000LEVEL
 62
7
 10
1493.138
 20
-960.651
 30
4227.000
 70
    32
  0
VERTEX
  8
1000LEVEL
 62
7
 10
1478.407
 20
-958.244
 30
4227.000
 70
    32
  0
VERTEX
  8
1000LEVEL
 62
7
 10
1476.388
 20
-992.196
 30
4227.000
 70
    32
  0
VERTEX
  8
1000LEVEL
 62
7
 10
1500.737
 20
-1048.353
 30
4227.000
 70
    32
  0
VERTEX
  8
1000LEVEL
 62
7
 10
1532.718
 20
-1099.455
 30
4227.000
 70
    32
  0
VERTEX
  8
1000LEVEL
 62
7
 10
1565.296
 20
-1145.362
 30
4227.000
 70
    32
  0
VERTEX
  8
1000LEVEL
 62
7
 10
1610.336
 20
-1187.507
 30
4227.000
 70
    32
  0
VERTEX
  8
1000LEVEL
 62
7
 10
1636.967
 20
-1228.157
 30
4227.000
 70
    32
  0
VERTEX
  8
1000LEVEL
 62
7
 10
1636.438
 20
-1254.537
 30
4227.000
 70
    32
  0
VERTEX
  8
1000LEVEL
 62
7
 10
1588.763
 20
-1245.487
 30
4227.000
 70
    32
  0
VERTEX
  8
1000LEVEL
 62
7
 10
1553.406
 20
-1264.413
 30
4227.000
 70
    32
  0
VERTEX
  8
1000LEVEL
 62
7
 10
1570.659
 20
-1326.972
 30
4227.000
 70
    32
  0
VERTEX
  8
1000LEVEL
 62
7
 10
1609.701
 20
-1411.998
 30
4227.000
 70
    32
  0
VERTEX
  8
1000LEVEL
 62
7
 10
1636.608
 20
-1487.982
 30
4227.000
 70
    32
  0
VERTEX
  8
1000LEVEL
 62
7
 10
1649.294
 20
-1567.692
 30
4227.000
 70
    32
  0
VERTEX
  8
1000LEVEL
 62
7
 10
1673.871
 20
-1644.052
 30
4227.000
 70
    32
  0
VERTEX
  8
1000LEVEL
 62
7
 10
1707.123
 20
-1708.974
 30
4227.000
 70
    32
  0
VERTEX
  8
1000LEVEL
 62
7
 10
1693.307
 20
-1724.110
 30
4227.000
 70
    32
  0
VERTEX
  8
1000LEVEL
 62
7
 10
1653.113
 20
-1675.446
 30
4227.000
 70
    32
  0
VERTEX
  8
1000LEVEL
 62
7
 10
1613.866
 20
-1628.702
 30
4227.000
 70
    32
  0
VERTEX
  8
1000LEVEL
 62
7
 10
1564.699
 20
-1574.791
 30
4227.000
 70
    32
  0
VERTEX
  8
1000LEVEL
 62
7
 10
1526.312
 20
-1541.296
 30
4227.000
 70
    32
  0
VERTEX
  8
1000LEVEL
 62
7
 10
1541.075
 20
-1605.213
 30
4227.000
 70
    32
  0
VERTEX
  8
1000LEVEL
 62
7
 10
1568.830
 20
-1677.555
 30
4227.000
 70
    32
  0
VERTEX
  8
1000LEVEL
 62
7
 10
1609.280
 20
-1755.500
 30
4227.000
 70
    32
  0
VERTEX
  8
1000LEVEL
 62
7
 10
1631.896
 20
-1845.403
 30
4227.000
 70
    32
  0
VERTEX
  8
1000LEVEL
 62
7
 10
1645.529
 20
-1927.033
 30
4227.000
 70
    32
  0
VERTEX
  8
1000LEVEL
 62
7
 10
1634.874
 20
-1984.528
 30
4227.000
 70
    32
  0
VERTEX
  8
1000LEVEL
 62
7
 10
1642.060
 20
-2057.795
 30
4227.000
 70
    32
  0
VERTEX
  8
1000LEVEL
 62
7
 10
1653.781
 20
-2129.533
 30
4227.000
 70
    32
  0
VERTEX
  8
1000LEVEL
 62
7
 10
1656.717
 20
-2165.555
 30
4227.000
 70
    32
  0
VERTEX
  8
1000LEVEL
 62
7
 10
1673.627
 20
-2210.161
 30
4227.000
 70
    32
  0
VERTEX
  8
1000LEVEL
 62
7
 10
1649.297
 20
-2198.624
 30
4227.000
 70
    32
  0
VERTEX
  8
1000LEVEL
 62
7
 10
1619.521
 20
-2184.936
 30
4227.000
 70
    32
  0
VERTEX
  8
1000LEVEL
 62
7
 10
1650.090
 20
-2229.254
 30
4227.000
 70
    32
  0
VERTEX
  8
1000LEVEL
 62
7
 10
1684.269
 20
-2290.042
 30
4227.000
 70
    32
  0
VERTEX
  8
1000LEVEL
 62
7
 10
1737.718
 20
-2365.574
 30
4227.000
 70
    32
  0
VERTEX
  8
1000LEVEL
 62
7
 10
1793.075
 20
-2437.133
 30
4227.000
 70
    32
  0
VERTEX
  8
1000LEVEL
 62
7
 10
1819.116
 20
-2472.140
 30
4227.000
 70
    32
  0
VERTEX
  8
1000LEVEL
 62
7
 10
1837.088
 20
-2516.416
 30
4227.000
 70
    32
  0
VERTEX
  8
1000LEVEL
 62
7
 10
1807.989
 20
-2497.042
 30
4227.000
 70
    32
  0
VERTEX
  8
1000LEVEL
 62
7
 10
1755.831
 20
-2441.382
 30
4227.000
 70
    32
  0
VERTEX
  8
1000LEVEL
 62
7
 10
1706.564
 20
-2381.910
 30
4227.000
 70
    32
  0
VERTEX
  8
1000LEVEL
 62
7
 10
1658.761
 20
-2319.651
 30
4227.000
 70
    32
  0
VERTEX
  8
1000LEVEL
 62
7
 10
1618.186
 20
-2279.496
 30
4227.000
 70
    32
  0
VERTEX
  8
1000LEVEL
 62
7
 10
1571.846
 20
-2253.019
 30
4227.000
 70
    32
  0
VERTEX
  8
1000LEVEL
 62
7
 10
1549.791
 20
-2236.812
 30
4227.000
 70
    32
  0
VERTEX
  8
1000LEVEL
 62
7
 10
1552.558
 20
-2270.789
 30
4227.000
 70
    32
  0
VERTEX
  8
1000LEVEL
 62
7
 10
1514.248
 20
-2261.504
 30
4227.000
 70
    32
  0
VERTEX
  8
1000LEVEL
 62
7
 10
1477.665
 20
-2229.311
 30
4227.000
 70
    32
  0
VERTEX
  8
1000LEVEL
 62
7
 10
1454.448
 20
-2207.873
 30
4227.000
 70
    32
  0
VERTEX
  8
1000LEVEL
 62
7
 10
1420.307
 20
-2159.190
 30
4227.000
 70
    32
  0
VERTEX
  8
1000LEVEL
 62
7
 10
1390.682
 20
-2102.927
 30
4227.000
 70
    32
  0
VERTEX
  8
1000LEVEL
 62
7
 10
1363.309
 20
-2022.078
 30
4227.000
 70
    32
  0
VERTEX
  8
1000LEVEL
 62
7
 10
1328.164
 20
-1953.317
 30
4227.000
 70
    32
  0
VERTEX
  8
1000LEVEL
 62
7
 10
1303.673
 20
-1904.195
 30
4227.000
 70
    32
  0
VERTEX
  8
1000LEVEL
 62
7
 10
1274.497
 20
-1899.176
 30
4227.000
 70
    32
  0
VERTEX
  8
1000LEVEL
 62
7
 10
1290.464
 20
-1955.728
 30
4227.000
 70
    32
  0
VERTEX
  8
1000LEVEL
 62
7
 10
1324.001
 20
-2020.444
 30
4227.000
 70
    32
  0
VERTEX
  8
1000LEVEL
 62
7
 10
1352.988
 20
-2094.500
 30
4227.000
 70
    32
  0
VERTEX
  8
1000LEVEL
 62
7
 10
1352.308
 20
-2163.456
 30
4227.000
 70
    32
  0
VERTEX
  8
1000LEVEL
 62
7
 10
1372.000
 20
-2234.228
 30
4227.000
 70
    32
  0
VERTEX
  8
1000LEVEL
 62
7
 10
1405.252
 20
-2299.150
 30
4227.000
 70
    32
  0
VERTEX
  8
1000LEVEL
 62
7
 10
1384.632
 20
-2348.211
 30
4227.000
 70
    32
  0
VERTEX
  8
1000LEVEL
 62
7
 10
1178.223
 20
-2284.740
 30
4227.000
 70
    32
  0
VERTEX
  8
1000LEVEL
 62
7
 10
1116.902
 20
-2215.736
 30
4227.000
 70
    32
  0
VERTEX
  8
1000LEVEL
 62
7
 10
1075.113
 20
-2179.919
 30
4227.000
 70
    32
  0
VERTEX
  8
1000LEVEL
 62
7
 10
1020.577
 20
-2148.070
 30
4227.000
 70
    32
  0
VERTEX
  8
1000LEVEL
 62
7
 10
976.205
 20
-2097.211
 30
4227.000
 70
    32
  0
VERTEX
  8
1000LEVEL
 62
7
 10
966.923
 20
-2033.685
 30
4227.000
 70
    32
  0
VERTEX
  8
1000LEVEL
 62
7
 10
978.560
 20
-1976.351
 30
4227.000
 70
    32
  0
VERTEX
  8
1000LEVEL
 62
7
 10
980.406
 20
-1926.490
 30
4227.000
 70
    32
  0
VERTEX
  8
1000LEVEL
 62
7
 10
964.773
 20
-1884.865
 30
4227.000
 70
    32
  0
VERTEX
  8
1000LEVEL
 62
7
 10
938.219
 20
-1906.993
 30
4227.000
 70
    32
  0
VERTEX
  8
1000LEVEL
 62
7
 10
919.752
 20
-1848.773
 30
4227.000
 70
    32
  0
VERTEX
  8
1000LEVEL
 62
7
 10
891.815
 20
-1834.629
 30
4227.000
 70
    32
  0
VERTEX
  8
1000LEVEL
 62
7
 10
904.720
 20
-1892.949
 30
4227.000
 70
    32
  0
VERTEX
  8
1000LEVEL
 62
7
 10
869.693
 20
-1874.370
 30
4227.000
 70
    32
  0
VERTEX
  8
1000LEVEL
 62
7
 10
856.843
 20
-1897.478
 30
4227.000
 70
    32
  0
VERTEX
  8
1000LEVEL
 62
7
 10
880.300
 20
-1956.010
 30
4227.000
 70
    32
  0
VERTEX
  8
1000LEVEL
 62
7
 10
917.798
 20
-2005.745
 30
4227.000
 70
    32
  0
VERTEX
  8
1000LEVEL
 62
7
 10
933.710
 20
-2058.003
 30
4227.000
 70
    32
  0
VERTEX
  8
1000LEVEL
 62
7
 10
933.594
 20
-2098.819
 30
4227.000
 70
    32
  0
VERTEX
  8
1000LEVEL
 62
7
 10
895.961
 20
-2122.414
 30
4227.000
 70
    32
  0
VERTEX
  8
1000LEVEL
 62
7
 10
929.762
 20
-2167.008
 30
4227.000
 70
    32
  0
VERTEX
  8
1000LEVEL
 62
7
 10
962.953
 20
-2238.474
 30
4227.000
 70
    32
  0
VERTEX
  8
1000LEVEL
 62
7
 10
993.291
 20
-2287.291
 30
4227.000
 70
    32
  0
VERTEX
  8
1000LEVEL
 62
7
 10
1018.764
 20
-2336.574
 30
4227.000
 70
    32
  0
VERTEX
  8
1000LEVEL
 62
7
 10
1058.457
 20
-2382.130
 30
4227.000
 70
    32
  0
VERTEX
  8
1000LEVEL
 62
7
 10
1028.096
 20
-2390.529
 30
4227.000
 70
    32
  0
VERTEX
  8
1000LEVEL
 62
7
 10
978.538
 20
-2342.100
 30
4227.000
 70
    32
  0
VERTEX
  8
1000LEVEL
 62
7
 10
936.957
 20
-2320.434
 30
4227.000
 70
    32
  0
VERTEX
  8
1000LEVEL
 62
7
 10
885.274
 20
-2272.666
 30
4227.000
 70
    32
  0
VERTEX
  8
1000LEVEL
 62
7
 10
869.548
 20
-2291.774
 30
4227.000
 70
    32
  0
VERTEX
  8
1000LEVEL
 62
7
 10
852.362
 20
-2327.533
 30
4227.000
 70
    32
  0
VERTEX
  8
1000LEVEL
 62
7
 10
795.002
 20
-2282.114
 30
4227.000
 70
    32
  0
VERTEX
  8
1000LEVEL
 62
7
 10
750.434
 20
-2233.997
 30
4227.000
 70
    32
  0
VERTEX
  8
1000LEVEL
 62
7
 10
704.867
 20
-2193.530
 30
4227.000
 70
    32
  0
VERTEX
  8
1000LEVEL
 62
7
 10
647.314
 20
-2164.716
 30
4227.000
 70
    32
  0
VERTEX
  8
1000LEVEL
 62
7
 10
612.933
 20
-2117.507
 30
4227.000
 70
    32
  0
VERTEX
  8
1000LEVEL
 62
7
 10
578.278
 20
-2048.827
 30
4227.000
 70
    32
  0
VERTEX
  8
1000LEVEL
 62
7
 10
556.329
 20
-1988.777
 30
4227.000
 70
    32
  0
VERTEX
  8
1000LEVEL
 62
7
 10
537.340
 20
-1946.099
 30
4227.000
 70
    32
  0
VERTEX
  8
1000LEVEL
 62
7
 10
520.565
 20
-1905.295
 30
4227.000
 70
    32
  0
VERTEX
  8
1000LEVEL
 62
7
 10
518.369
 20
-1870.907
 30
4227.000
 70
    32
  0
VERTEX
  8
1000LEVEL
 62
7
 10
511.030
 20
-1826.352
 30
4227.000
 70
    32
  0
VERTEX
  8
1000LEVEL
 62
7
 10
490.532
 20
-1785.192
 30
4227.000
 70
    32
  0
VERTEX
  8
1000LEVEL
 62
7
 10
439.972
 20
-1769.116
 30
4227.000
 70
    32
  0
VERTEX
  8
1000LEVEL
 62
7
 10
403.539
 20
-1732.915
 30
4227.000
 70
    32
  0
VERTEX
  8
1000LEVEL
 62
7
 10
374.450
 20
-1716.567
 30
4227.000
 70
    32
  0
VERTEX
  8
1000LEVEL
 62
7
 10
401.447
 20
-1756.520
 30
4227.000
 70
    32
  0
VERTEX
  8
1000LEVEL
 62
7
 10
437.138
 20
-1791.088
 30
4227.000
 70
    32
  0
VERTEX
  8
1000LEVEL
 62
7
 10
468.978
 20
-1810.658
 30
4227.000
 70
    32
  0
VERTEX
  8
1000LEVEL
 62
7
 10
487.364
 20
-1869.370
 30
4227.000
 70
    32
  0
VERTEX
  8
1000LEVEL
 62
7
 10
508.343
 20
-1907.584
 30
4227.000
 70
    32
  0
VERTEX
  8
1000LEVEL
 62
7
 10
519.470
 20
-1959.816
 30
4227.000
 70
    32
  0
VERTEX
  8
1000LEVEL
 62
7
 10
536.239
 20
-2011.457
 30
4227.000
 70
    32
  0
VERTEX
  8
1000LEVEL
 62
7
 10
554.259
 20
-2070.865
 30
4227.000
 70
    32
  0
VERTEX
  8
1000LEVEL
 62
7
 10
559.404
 20
-2081.033
 30
4227.000
 70
    32
  0
VERTEX
  8
1000LEVEL
 62
7
 10
579.000
 20
-2121.541
 30
4227.000
 70
    32
  0
VERTEX
  8
1000LEVEL
 62
7
 10
613.180
 20
-2182.329
 30
4227.000
 70
    32
  0
VERTEX
  8
1000LEVEL
 62
7
 10
661.920
 20
-2243.480
 30
4227.000
 70
    32
  0
VERTEX
  8
1000LEVEL
 62
7
 10
700.005
 20
-2284.993
 30
4227.000
 70
    32
  0
VERTEX
  8
1000LEVEL
 62
7
 10
755.552
 20
-2326.082
 30
4227.000
 70
    32
  0
VERTEX
  8
1000LEVEL
 62
7
 10
825.641
 20
-2400.048
 30
4227.000
 70
    32
  0
VERTEX
  8
1000LEVEL
 62
7
 10
893.410
 20
-2477.416
 30
4227.000
 70
    32
  0
VERTEX
  8
1000LEVEL
 62
7
 10
947.821
 20
-2547.055
 30
4227.000
 70
    32
  0
VERTEX
  8
1000LEVEL
 62
7
 10
987.719
 20
-2592.898
 30
4227.000
 70
    32
  0
VERTEX
  8
1000LEVEL
 62
7
 10
1038.180
 20
-2641.978
 30
4227.000
 70
    32
  0
VERTEX
  8
1000LEVEL
 62
7
 10
1082.019
 20
-2705.353
 30
4227.000
 70
    32
  0
VERTEX
  8
1000LEVEL
 62
7
 10
1125.750
 20
-2760.140
 30
4227.000
 70
    32
  0
VERTEX
  8
1000LEVEL
 62
7
 10
1145.837
 20
-2800.728
 30
4227.000
 70
    32
  0
VERTEX
  8
1000LEVEL
 62
7
 10
1150.799
 20
-2830.527
 30
4227.000
 70
    32
  0
VERTEX
  8
1000LEVEL
 62
7
 10
1116.536
 20
-2794.932
 30
4227.000
 70
    32
  0
VERTEX
  8
1000LEVEL
 62
7
 10
1115.782
 20
-2814.975
 30
4227.000
 70
    32
  0
VERTEX
  8
1000LEVEL
 62
7
 10
1162.307
 20
-2874.251
 30
4227.000
 70
    32
  0
VERTEX
  8
1000LEVEL
 62
7
 10
1192.761
 20
-2920.819
 30
4227.000
 70
    32
  0
VERTEX
  8
1000LEVEL
 62
7
 10
1243.013
 20
-2994.316
 30
4227.000
 70
    32
  0
VERTEX
  8
1000LEVEL
 62
7
 10
1290.826
 20
-3059.601
 30
4227.000
 70
    32
  0
VERTEX
  8
1000LEVEL
 62
7
 10
1321.889
 20
-3117.863
 30
4227.000
 70
    32
  0
VERTEX
  8
1000LEVEL
 62
7
 10
1360.702
 20
-3182.686
 30
4227.000
 70
    32
  0
VERTEX
  8
1000LEVEL
 62
7
 10
1399.359
 20
-3223.788
 30
4227.000
 70
    32
  0
VERTEX
  8
1000LEVEL
 62
7
 10
1514.083
 20
-3289.923
 30
4227.000
 70
    32
  0
VERTEX
  8
1000LEVEL
 62
7
 10
1546.581
 20
-3336.320
 30
4227.000
 70
    32
  0
VERTEX
  8
1000LEVEL
 62
7
 10
1588.376
 20
-3399.865
 30
4227.000
 70
    32
  0
VERTEX
  8
1000LEVEL
 62
7
 10
1580.600
 20
-3320.957
 30
4227.000
 70
    32
  0
VERTEX
  8
1000LEVEL
 62
7
 10
1644.498
 20
-3338.708
 30
4227.000
 70
    32
  0
VERTEX
  8
1000LEVEL
 62
7
 10
1673.132
 20
-3391.784
 30
4227.000
 70
    32
  0
VERTEX
  8
1000LEVEL
 62
7
 10
1712.690
 20
-3472.104
 30
4227.000
 70
    32
  0
SEQEND
  8
1000LEVEL
  0
POLYLINE
  8
1000LEVEL
 62
7
 66
     1
 70
     8
  0
VERTEX
  8
1000LEVEL
 62
7
 10
1886.284
 20
-3736.407
 30
4227.000
 70
    32
  0
VERTEX
  8
1000LEVEL
 62
7
 10
1936.150
 20
-3804.548
 30
4227.000
 70
    32
  0
VERTEX
  8
1000LEVEL
 62
7
 10
1986.903
 20
-3881.152
 30
4227.000
 70
    32
  0
VERTEX
  8
1000LEVEL
 62
7
 10
2035.977
 20
-3957.229
 30
4227.000
 70
    32
  0
VERTEX
  8
1000LEVEL
 62
7
 10
2074.624
 20
-4033.871
 30
4227.000
 70
    32
  0
VERTEX
  8
1000LEVEL
 62
7
 10
2105.526
 20
-4093.116
 30
4227.000
 70
    32
  0
VERTEX
  8
1000LEVEL
 62
7
 10
2165.332
 20
-4174.476
 30
4227.000
 70
    32
  0
VERTEX
  8
1000LEVEL
 62
7
 10
2222.789
 20
-4250.159
 30
4227.000
 70
    32
  0
VERTEX
  8
1000LEVEL
 62
7
 10
2280.034
 20
-4336.394
 30
4227.000
 70
    32
  0
VERTEX
  8
1000LEVEL
 62
7
 10
2282.098
 20
-4380.843
 30
4227.000
 70
    32
  0
VERTEX
  8
1000LEVEL
 62
7
 10
2228.081
 20
-4358.153
 30
4227.000
 70
    32
  0
VERTEX
  8
1000LEVEL
 62
7
 10
2172.987
 20
-4305.039
 30
4227.000
 70
    32
  0
VERTEX
  8
1000LEVEL
 62
7
 10
2154.385
 20
-4320.148
 30
4227.000
 70
    32
  0
VERTEX
  8
1000LEVEL
 62
7
 10
2196.344
 20
-4396.576
 30
4227.000
 70
    32
  0
VERTEX
  8
1000LEVEL
 62
7
 10
2179.546
 20
-4412.988
 30
4227.000
 70
    32
  0
VERTEX
  8
1000LEVEL
 62
7
 10
2115.157
 20
-4356.590
 30
4227.000
 70
    32
  0
VERTEX
  8
1000LEVEL
 62
7
 10
2049.392
 20
-4291.649
 30
4227.000
 70
    32
  0
VERTEX
  8
1000LEVEL
 62
7
 10
2000.086
 20
-4220.071
 30
4227.000
 70
    32
  0
VERTEX
  8
1000LEVEL
 62
7
 10
1950.881
 20
-4154.055
 30
4227.000
 70
    32
  0
VERTEX
  8
1000LEVEL
 62
7
 10
1895.221
 20
-4090.513
 30
4227.000
 70
    32
  0
VERTEX
  8
1000LEVEL
 62
7
 10
1806.284
 20
-4082.535
 30
4227.000
 70
    32
  0
VERTEX
  8
1000LEVEL
 62
7
 10
1754.325
 20
-4037.998
 30
4227.000
 70
    32
  0
VERTEX
  8
1000LEVEL
 62
7
 10
1685.093
 20
-4040.550
 30
4227.000
 70
    32
  0
VERTEX
  8
1000LEVEL
 62
7
 10
1636.340
 20
-4001.075
 30
4227.000
 70
    32
  0
VERTEX
  8
1000LEVEL
 62
7
 10
1592.237
 20
-3957.822
 30
4227.000
 70
    32
  0
VERTEX
  8
1000LEVEL
 62
7
 10
1610.626
 20
-4030.399
 30
4227.000
 70
    32
  0
VERTEX
  8
1000LEVEL
 62
7
 10
1636.821
 20
-4113.829
 30
4227.000
 70
    32
  0
VERTEX
  8
1000LEVEL
 62
7
 10
1625.306
 20
-4158.076
 30
4227.000
 70
    32
  0
VERTEX
  8
1000LEVEL
 62
7
 10
1589.072
 20
-4094.431
 30
4227.000
 70
    32
  0
VERTEX
  8
1000LEVEL
 62
7
 10
1545.846
 20
-4018.049
 30
4227.000
 70
    32
  0
VERTEX
  8
1000LEVEL
 62
7
 10
1511.849
 20
-3937.629
 30
4227.000
 70
    32
  0
VERTEX
  8
1000LEVEL
 62
7
 10
1483.533
 20
-3868.725
 30
4227.000
 70
    32
  0
VERTEX
  8
1000LEVEL
 62
7
 10
1436.112
 20
-3797.959
 30
4227.000
 70
    32
  0
VERTEX
  8
1000LEVEL
 62
7
 10
1394.519
 20
-3720.835
 30
4227.000
 70
    32
  0
VERTEX
  8
1000LEVEL
 62
7
 10
1360.118
 20
-3629.006
 30
4227.000
 70
    32
  0
VERTEX
  8
1000LEVEL
 62
7
 10
1316.352
 20
-3537.411
 30
4227.000
 70
    32
  0
VERTEX
  8
1000LEVEL
 62
7
 10
1259.223
 20
-3448.926
 30
4227.000
 70
    32
  0
VERTEX
  8
1000LEVEL
 62
7
 10
1208.692
 20
-3364.796
 30
4227.000
 70
    32
  0
VERTEX
  8
1000LEVEL
 62
7
 10
1158.437
 20
-3277.435
 30
4227.000
 70
    32
  0
VERTEX
  8
1000LEVEL
 62
7
 10
1103.531
 20
-3193.851
 30
4227.000
 70
    32
  0
VERTEX
  8
1000LEVEL
 62
7
 10
1059.287
 20
-3119.066
 30
4227.000
 70
    32
  0
VERTEX
  8
1000LEVEL
 62
7
 10
1007.928
 20
-3044.632
 30
4227.000
 70
    32
  0
VERTEX
  8
1000LEVEL
 62
7
 10
948.639
 20
-2958.567
 30
4227.000
 70
    32
  0
VERTEX
  8
1000LEVEL
 62
7
 10
877.748
 20
-2850.945
 30
4227.000
 70
    32
  0
VERTEX
  8
1000LEVEL
 62
7
 10
808.664
 20
-2758.490
 30
4227.000
 70
    32
  0
VERTEX
  8
1000LEVEL
 62
7
 10
749.884
 20
-2678.558
 30
4227.000
 70
    32
  0
VERTEX
  8
1000LEVEL
 62
7
 10
678.968
 20
-2575.721
 30
4227.000
 70
    32
  0
VERTEX
  8
1000LEVEL
 62
7
 10
606.392
 20
-2478.410
 30
4227.000
 70
    32
  0
VERTEX
  8
1000LEVEL
 62
7
 10
543.091
 20
-2378.330
 30
4227.000
 70
    32
  0
VERTEX
  8
1000LEVEL
 62
7
 10
497.788
 20
-2317.741
 30
4227.000
 70
    32
  0
VERTEX
  8
1000LEVEL
 62
7
 10
439.378
 20
-2212.410
 30
4227.000
 70
    32
  0
VERTEX
  8
1000LEVEL
 62
7
 10
379.312
 20
-2126.470
 30
4227.000
 70
    32
  0
VERTEX
  8
1000LEVEL
 62
7
 10
339.445
 20
-2065.005
 30
4227.000
 70
    32
  0
VERTEX
  8
1000LEVEL
 62
7
 10
348.261
 20
-2123.665
 30
4227.000
 70
    32
  0
VERTEX
  8
1000LEVEL
 62
7
 10
345.013
 20
-2169.768
 30
4227.000
 70
    32
  0
VERTEX
  8
1000LEVEL
 62
7
 10
296.129
 20
-2101.787
 30
4227.000
 70
    32
  0
VERTEX
  8
1000LEVEL
 62
7
 10
247.279
 20
-2032.048
 30
4227.000
 70
    32
  0
VERTEX
  8
1000LEVEL
 62
7
 10
203.504
 20
-1975.994
 30
4227.000
 70
    32
  0
VERTEX
  8
1000LEVEL
 62
7
 10
180.791
 20
-1932.960
 30
4227.000
 70
    32
  0
VERTEX
  8
1000LEVEL
 62
7
 10
157.267
 20
-1891.809
 30
4227.000
 70
    32
  0
VERTEX
  8
1000LEVEL
 62
7
 10
125.376
 20
-1843.242
 30
4227.000
 70
    32
  0
VERTEX
  8
1000LEVEL
 62
7
 10
92.733
 20
-1790.015
 30
4227.000
 70
    32
  0
VERTEX
  8
1000LEVEL
 62
7
 10
57.960
 20
-1748.287
 30
4227.000
 70
    32
  0
VERTEX
  8
1000LEVEL
 62
7
 10
16.807
 20
-1719.381
 30
4227.000
 70
    32
  0
VERTEX
  8
1000LEVEL
 62
7
 10
37.321
 20
-1752.729
 30
4227.000
 70
    32
  0
VERTEX
  8
1000LEVEL
 62
7
 10
68.426
 20
-1798.395
 30
4227.000
 70
    32
  0
VERTEX
  8
1000LEVEL
 62
7
 10
96.861
 20
-1840.348
 30
4227.000
 70
    32
  0
VERTEX
  8
1000LEVEL
 62
7
 10
116.412
 20
-1879.588
 30
4227.000
 70
    32
  0
VERTEX
  8
1000LEVEL
 62
7
 10
99.191
 20
-1878.539
 30
4227.000
 70
    32
  0
VERTEX
  8
1000LEVEL
 62
7
 10
69.639
 20
-1832.623
 30
4227.000
 70
    32
  0
VERTEX
  8
1000LEVEL
 62
7
 10
41.971
 20
-1787.518
 30
4227.000
 70
    32
  0
VERTEX
  8
1000LEVEL
 62
7
 10
14.098
 20
-1742.129
 30
4227.000
 70
    32
  0
VERTEX
  8
1000LEVEL
 62
7
 10
-24.642
 20
-1687.653
 30
4227.000
 70
    32
  0
VERTEX
  8
1000LEVEL
 62
7
 10
-60.968
 20
-1646.176
 30
4227.000
 70
    32
  0
VERTEX
  8
1000LEVEL
 62
7
 10
-101.217
 20
-1593.218
 30
4227.000
 70
    32
  0
VERTEX
  8
1000LEVEL
 62
7
 10
-130.248
 20
-1556.462
 30
4227.000
 70
    32
  0
VERTEX
  8
1000LEVEL
 62
7
 10
-153.218
 20
-1522.712
 30
4227.000
 70
    32
  0
VERTEX
  8
1000LEVEL
 62
7
 10
-186.187
 20
-1482.287
 30
4227.000
 70
    32
  0
VERTEX
  8
1000LEVEL
 62
7
 10
-216.535
 20
-1430.443
 30
4227.000
 70
    32
  0
VERTEX
  8
1000LEVEL
 62
7
 10
-247.312
 20
-1371.976
 30
4227.000
 70
    32
  0
VERTEX
  8
1000LEVEL
 62
7
 10
-283.369
 20
-1299.537
 30
4227.000
 70
    32
  0
VERTEX
  8
1000LEVEL
 62
7
 10
-310.578
 20
-1231.570
 30
4227.000
 70
    32
  0
VERTEX
  8
1000LEVEL
 62
7
 10
-335.117
 20
-1167.316
 30
4227.000
 70
    32
  0
VERTEX
  8
1000LEVEL
 62
7
 10
-363.908
 20
-1090.519
 30
4227.000
 70
    32
  0
VERTEX
  8
1000LEVEL
 62
7
 10
-390.330
 20
-1025.453
 30
4227.000
 70
    32
  0
VERTEX
  8
1000LEVEL
 62
7
 10
-419.994
 20
-957.084
 30
4227.000
 70
    32
  0
VERTEX
  8
1000LEVEL
 62
7
 10
-440.184
 20
-897.070
 30
4227.000
 70
    32
  0
VERTEX
  8
1000LEVEL
 62
7
 10
-469.469
 20
-806.329
 30
4227.000
 70
    32
  0
VERTEX
  8
1000LEVEL
 62
7
 10
-501.502
 20
-726.230
 30
4227.000
 70
    32
  0
VERTEX
  8
1000LEVEL
 62
7
 10
-532.077
 20
-654.183
 30
4227.000
 70
    32
  0
VERTEX
  8
1000LEVEL
 62
7
 10
-582.252
 20
-566.331
 30
4227.000
 70
    32
  0
VERTEX
  8
1000LEVEL
 62
7
 10
-599.505
 20
-503.771
 30
4227.000
 70
    32
  0
VERTEX
  8
1000LEVEL
 62
7
 10
-633.874
 20
-434.885
 30
4227.000
 70
    32
  0
VERTEX
  8
1000LEVEL
 62
7
 10
-664.924
 20
-354.947
 30
4227.000
 70
    32
  0
VERTEX
  8
1000LEVEL
 62
7
 10
-700.801
 20
-287.580
 30
4227.000
 70
    32
  0
VERTEX
  8
1000LEVEL
 62
7
 10
-733.447
 20
-259.055
 30
4227.000
 70
    32
  0
VERTEX
  8
1000LEVEL
 62
7
 10
-744.436
 20
-301.624
 30
4227.000
 70
    32
  0
VERTEX
  8
1000LEVEL
 62
7
 10
-731.903
 20
-371.478
 30
4227.000
 70
    32
  0
VERTEX
  8
1000LEVEL
 62
7
 10
-710.872
 20
-438.688
 30
4227.000
 70
    32
  0
VERTEX
  8
1000LEVEL
 62
7
 10
-700.192
 20
-492.108
 30
4227.000
 70
    32
  0
VERTEX
  8
1000LEVEL
 62
7
 10
-716.957
 20
-531.464
 30
4227.000
 70
    32
  0
VERTEX
  8
1000LEVEL
 62
7
 10
-756.866
 20
-482.595
 30
4227.000
 70
    32
  0
VERTEX
  8
1000LEVEL
 62
7
 10
-793.304
 20
-418.665
 30
4227.000
 70
    32
  0
VERTEX
  8
1000LEVEL
 62
7
 10
-825.321
 20
-330.755
 30
4227.000
 70
    32
  0
VERTEX
  8
1000LEVEL
 62
7
 10
-884.097
 20
-187.554
 30
4227.000
 70
    32
  0
VERTEX
  8
1000LEVEL
 62
7
 10
-932.179
 20
-76.097
 30
4227.000
 70
    32
  0
VERTEX
  8
1000LEVEL
 62
7
 10
-967.838
 20
12.661
 30
4227.000
 70
    32
  0
SEQEND
  8
1000LEVEL
  0
POLYLINE
  8
1000LEVEL
 62
7
 66
     1
 70
     9
  0
VERTEX
  8
1000LEVEL
 62
7
 10
346.406
 20
-1669.132
 30
4227.000
 70
    32
  0
VERTEX
  8
1000LEVEL
 62
7
 10
328.826
 20
-1657.941
 30
4227.000
 70
    32
  0
VERTEX
  8
1000LEVEL
 62
7
 10
303.623
 20
-1616.265
 30
4227.000
 70
    32
  0
VERTEX
  8
1000LEVEL
 62
7
 10
291.758
 20
-1576.264
 30
4227.000
 70
    32
  0
VERTEX
  8
1000LEVEL
 62
7
 10
280.865
 20
-1533.396
 30
4227.000
 70
    32
  0
VERTEX
  8
1000LEVEL
 62
7
 10
264.633
 20
-1483.103
 30
4227.000
 70
    32
  0
VERTEX
  8
1000LEVEL
 62
7
 10
236.150
 20
-1426.018
 30
4227.000
 70
    32
  0
VERTEX
  8
1000LEVEL
 62
7
 10
205.632
 20
-1372.130
 30
4227.000
 70
    32
  0
VERTEX
  8
1000LEVEL
 62
7
 10
174.026
 20
-1323.358
 30
4227.000
 70
    32
  0
VERTEX
  8
1000LEVEL
 62
7
 10
145.402
 20
-1273.308
 30
4227.000
 70
    32
  0
VERTEX
  8
1000LEVEL
 62
7
 10
124.680
 20
-1225.810
 30
4227.000
 70
    32
  0
VERTEX
  8
1000LEVEL
 62
7
 10
112.548
 20
-1192.066
 30
4227.000
 70
    32
  0
VERTEX
  8
1000LEVEL
 62
7
 10
125.389
 20
-1204.499
 30
4227.000
 70
    32
  0
VERTEX
  8
1000LEVEL
 62
7
 10
155.720
 20
-1264.155
 30
4227.000
 70
    32
  0
VERTEX
  8
1000LEVEL
 62
7
 10
182.621
 20
-1312.411
 30
4227.000
 70
    32
  0
VERTEX
  8
1000LEVEL
 62
7
 10
205.959
 20
-1359.328
 30
4227.000
 70
    32
  0
VERTEX
  8
1000LEVEL
 62
7
 10
231.089
 20
-1390.658
 30
4227.000
 70
    32
  0
VERTEX
  8
1000LEVEL
 62
7
 10
261.545
 20
-1451.090
 30
4227.000
 70
    32
  0
VERTEX
  8
1000LEVEL
 62
7
 10
284.206
 20
-1503.694
 30
4227.000
 70
    32
  0
VERTEX
  8
1000LEVEL
 62
7
 10
306.482
 20
-1550.942
 30
4227.000
 70
    32
  0
VERTEX
  8
1000LEVEL
 62
7
 10
316.152
 20
-1595.122
 30
4227.000
 70
    32
  0
VERTEX
  8
1000LEVEL
 62
7
 10
327.953
 20
-1627.802
 30
4227.000
 70
    32
  0
VERTEX
  8
1000LEVEL
 62
7
 10
344.279
 20
-1655.929
 30
4227.000
 70
    32
  0
SEQEND
  8
1000LEVEL
  0
POLYLINE
  8
1000LEVEL
 62
7
 66
     1
 70
     9
  0
VERTEX
  8
1000LEVEL
 62
7
 10
1493.942
 20
-2589.406
 30
4227.000
 70
    32
  0
VERTEX
  8
1000LEVEL
 62
7
 10
1524.216
 20
-2630.903
 30
4227.000
 70
    32
  0
VERTEX
  8
1000LEVEL
 62
7
 10
1547.577
 20
-2659.171
 30
4227.000
 70
    32
  0
VERTEX
  8
1000LEVEL
 62
7
 10
1597.758
 20
-2697.619
 30
4227.000
 70
    32
  0
VERTEX
  8
1000LEVEL
 62
7
 10
1626.719
 20
-2737.893
 30
4227.000
 70
    32
  0
VERTEX
  8
1000LEVEL
 62
7
 10
1646.896
 20
-2781.017
 30
4227.000
 70
    32
  0
VERTEX
  8
1000LEVEL
 62
7
 10
1677.767
 20
-2778.751
 30
4227.000
 70
    32
  0
VERTEX
  8
1000LEVEL
 62
7
 10
1719.796
 20
-2774.528
 30
4227.000
 70
    32
  0
VERTEX
  8
1000LEVEL
 62
7
 10
1758.581
 20
-2791.704
 30
4227.000
 70
    32
  0
VERTEX
  8
1000LEVEL
 62
7
 10
1787.847
 20
-2837.826
 30
4227.000
 70
    32
  0
VERTEX
  8
1000LEVEL
 62
7
 10
1836.122
 20
-2894.111
 30
4227.000
 70
    32
  0
VERTEX
  8
1000LEVEL
 62
7
 10
1873.569
 20
-2953.417
 30
4227.000
 70
    32
  0
VERTEX
  8
1000LEVEL
 62
7
 10
1908.470
 20
-3009.786
 30
4227.000
 70
    32
  0
VERTEX
  8
1000LEVEL
 62
7
 10
1937.685
 20
-3065.477
 30
4227.000
 70
    32
  0
VERTEX
  8
1000LEVEL
 62
7
 10
1953.205
 20
-3123.217
 30
4227.000
 70
    32
  0
VERTEX
  8
1000LEVEL
 62
7
 10
1947.380
 20
-3143.439
 30
4227.000
 70
    32
  0
VERTEX
  8
1000LEVEL
 62
7
 10
1916.063
 20
-3108.325
 30
4227.000
 70
    32
  0
VERTEX
  8
1000LEVEL
 62
7
 10
1869.156
 20
-3057.557
 30
4227.000
 70
    32
  0
VERTEX
  8
1000LEVEL
 62
7
 10
1821.847
 20
-3009.243
 30
4227.000
 70
    32
  0
VERTEX
  8
1000LEVEL
 62
7
 10
1795.893
 20
-2962.907
 30
4227.000
 70
    32
  0
VERTEX
  8
1000LEVEL
 62
7
 10
1755.003
 20
-2913.878
 30
4227.000
 70
    32
  0
VERTEX
  8
1000LEVEL
 62
7
 10
1721.998
 20
-2875.211
 30
4227.000
 70
    32
  0
VERTEX
  8
1000LEVEL
 62
7
 10
1673.890
 20
-2845.673
 30
4227.000
 70
    32
  0
VERTEX
  8
1000LEVEL
 62
7
 10
1642.907
 20
-2825.486
 30
4227.000
 70
    32
  0
VERTEX
  8
1000LEVEL
 62
7
 10
1602.087
 20
-2811.506
 30
4227.000
 70
    32
  0
VERTEX
  8
1000LEVEL
 62
7
 10
1580.716
 20
-2778.774
 30
4227.000
 70
    32
  0
VERTEX
  8
1000LEVEL
 62
7
 10
1552.285
 20
-2750.685
 30
4227.000
 70
    32
  0
VERTEX
  8
1000LEVEL
 62
7
 10
1528.606
 20
-2699.679
 30
4227.000
 70
    32
  0
VERTEX
  8
1000LEVEL
 62
7
 10
1513.134
 20
-2657.072
 30
4227.000
 70
    32
  0
VERTEX
  8
1000LEVEL
 62
7
 10
1495.617
 20
-2614.635
 30
4227.000
 70
    32
  0
SEQEND
  8
1000LEVEL
  0
POLYLINE
  8
1000LEVEL
 62
7
 66
     1
 70
     8
  0
VERTEX
  8
1000LEVEL
 62
7
 10
-283.877
 20
-1615.802
 30
4227.000
 70
    32
  0
VERTEX
  8
1000LEVEL
 62
7
 10
-252.377
 20
-1669.851
 30
4227.000
 70
    32
  0
VERTEX
  8
1000LEVEL
 62
7
 10
-209.198
 20
-1731.101
 30
4227.000
 70
    32
  0
VERTEX
  8
1000LEVEL
 62
7
 10
-168.145
 20
-1793.013
 30
4227.000
 70
    32
  0
VERTEX
  8
1000LEVEL
 62
7
 10
-116.654
 20
-1857.386
 30
4227.000
 70
    32
  0
VERTEX
  8
1000LEVEL
 62
7
 10
-77.022
 20
-1909.486
 30
4227.000
 70
    32
  0
VERTEX
  8
1000LEVEL
 62
7
 10
-23.881
 20
-1965.306
 30
4227.000
 70
    32
  0
VERTEX
  8
1000LEVEL
 62
7
 10
13.289
 20
-2027.844
 30
4227.000
 70
    32
  0
VERTEX
  8
1000LEVEL
 62
7
 10
50.553
 20
-2106.781
 30
4227.000
 70
    32
  0
VERTEX
  8
1000LEVEL
 62
7
 10
86.690
 20
-2178.728
 30
4227.000
 70
    32
  0
VERTEX
  8
1000LEVEL
 62
7
 10
135.228
 20
-2253.458
 30
4227.000
 70
    32
  0
VERTEX
  8
1000LEVEL
 62
7
 10
175.524
 20
-2321.547
 30
4227.000
 70
    32
  0
VERTEX
  8
1000LEVEL
 62
7
 10
228.315
 20
-2408.819
 30
4227.000
 70
    32
  0
VERTEX
  8
1000LEVEL
 62
7
 10
271.214
 20
-2498.003
 30
4227.000
 70
    32
  0
VERTEX
  8
1000LEVEL
 62
7
 10
294.809
 20
-2574.203
 30
4227.000
 70
    32
  0
VERTEX
  8
1000LEVEL
 62
7
 10
350.026
 20
-2652.796
 30
4227.000
 70
    32
  0
VERTEX
  8
1000LEVEL
 62
7
 10
414.110
 20
-2741.914
 30
4227.000
 70
    32
  0
VERTEX
  8
1000LEVEL
 62
7
 10
479.898
 20
-2826.772
 30
4227.000
 70
    32
  0
VERTEX
  8
1000LEVEL
 62
7
 10
548.074
 20
-2929.413
 30
4227.000
 70
    32
  0
VERTEX
  8
1000LEVEL
 62
7
 10
608.038
 20
-3034.493
 30
4227.000
 70
    32
  0
VERTEX
  8
1000LEVEL
 62
7
 10
660.472
 20
-3125.488
 30
4227.000
 70
    32
  0
VERTEX
  8
1000LEVEL
 62
7
 10
695.726
 20
-3202.836
 30
4227.000
 70
    32
  0
VERTEX
  8
1000LEVEL
 62
7
 10
705.935
 20
-3262.229
 30
4227.000
 70
    32
  0
VERTEX
  8
1000LEVEL
 62
7
 10
670.048
 20
-3230.402
 30
4227.000
 70
    32
  0
VERTEX
  8
1000LEVEL
 62
7
 10
620.313
 20
-3152.199
 30
4227.000
 70
    32
  0
VERTEX
  8
1000LEVEL
 62
7
 10
561.765
 20
-3067.768
 30
4227.000
 70
    32
  0
VERTEX
  8
1000LEVEL
 62
7
 10
490.983
 20
-2968.734
 30
4227.000
 70
    32
  0
VERTEX
  8
1000LEVEL
 62
7
 10
417.740
 20
-2880.137
 30
4227.000
 70
    32
  0
VERTEX
  8
1000LEVEL
 62
7
 10
354.313
 20
-2779.280
 30
4227.000
 70
    32
  0
VERTEX
  8
1000LEVEL
 62
7
 10
285.560
 20
-2687.887
 30
4227.000
 70
    32
  0
VERTEX
  8
1000LEVEL
 62
7
 10
204.797
 20
-2588.231
 30
4227.000
 70
    32
  0
VERTEX
  8
1000LEVEL
 62
7
 10
147.385
 20
-2513.816
 30
4227.000
 70
    32
  0
VERTEX
  8
1000LEVEL
 62
7
 10
112.368
 20
-2459.696
 30
4227.000
 70
    32
  0
VERTEX
  8
1000LEVEL
 62
7
 10
94.960
 20
-2425.847
 30
4227.000
 70
    32
  0
VERTEX
  8
1000LEVEL
 62
7
 10
93.693
 20
-2464.459
 30
4227.000
 70
    32
  0
VERTEX
  8
1000LEVEL
 62
7
 10
89.190
 20
-2488.930
 30
4227.000
 70
    32
  0
VERTEX
  8
1000LEVEL
 62
7
 10
49.612
 20
-2441.124
 30
4227.000
 70
    32
  0
VERTEX
  8
1000LEVEL
 62
7
 10
10.734
 20
-2368.981
 30
4227.000
 70
    32
  0
VERTEX
  8
1000LEVEL
 62
7
 10
-11.474
 20
-2304.351
 30
4227.000
 70
    32
  0
VERTEX
  8
1000LEVEL
 62
7
 10
-32.483
 20
-2257.058
 30
4227.000
 70
    32
  0
VERTEX
  8
1000LEVEL
 62
7
 10
-43.452
 20
-2228.546
 30
4227.000
 70
    32
  0
VERTEX
  8
1000LEVEL
 62
7
 10
-42.878
 20
-2280.567
 30
4227.000
 70
    32
  0
VERTEX
  8
1000LEVEL
 62
7
 10
-50.818
 20
-2304.476
 30
4227.000
 70
    32
  0
VERTEX
  8
1000LEVEL
 62
7
 10
-79.586
 20
-2247.597
 30
4227.000
 70
    32
  0
VERTEX
  8
1000LEVEL
 62
7
 10
-106.638
 20
-2164.783
 30
4227.000
 70
    32
  0
VERTEX
  8
1000LEVEL
 62
7
 10
-136.151
 20
-2092.406
 30
4227.000
 70
    32
  0
VERTEX
  8
1000LEVEL
 62
7
 10
-171.255
 20
-2011.049
 30
4227.000
 70
    32
  0
VERTEX
  8
1000LEVEL
 62
7
 10
-207.632
 20
-1940.575
 30
4227.000
 70
    32
  0
VERTEX
  8
1000LEVEL
 62
7
 10
-246.388
 20
-1893.911
 30
4227.000
 70
    32
  0
VERTEX
  8
1000LEVEL
 62
7
 10
-302.218
 20
-1828.325
 30
4227.000
 70
    32
  0
VERTEX
  8
1000LEVEL
 62
7
 10
-350.843
 20
-1764.924
 30
4227.000
 70
    32
  0
VERTEX
  8
1000LEVEL
 62
7
 10
-399.997
 20
-1689.338
 30
4227.000
 70
    32
  0
SEQEND
  8
1000LEVEL
  0
POLYLINE
  8
1000LEVEL
 62
7
 66
     1
 70
     8
  0
VERTEX
  8
1000LEVEL
 62
7
 10
-1210.520
 20
-2084.985
 30
4227.000
 70
    32
  0
VERTEX
  8
1000LEVEL
 62
7
 10
-1173.449
 20
-2141.961
 30
4227.000
 70
    32
  0
VERTEX
  8
1000LEVEL
 62
7
 10
-1140.631
 20
-2186.394
 30
4227.000
 70
    32
  0
VERTEX
  8
1000LEVEL
 62
7
 10
-1095.382
 20
-2242.689
 30
4227.000
 70
    32
  0
VERTEX
  8
1000LEVEL
 62
7
 10
-1037.492
 20
-2300.294
 30
4227.000
 70
    32
  0
VERTEX
  8
1000LEVEL
 62
7
 10
-977.503
 20
-2362.022
 30
4227.000
 70
    32
  0
VERTEX
  8
1000LEVEL
 62
7
 10
-936.128
 20
-2421.970
 30
4227.000
 70
    32
  0
VERTEX
  8
1000LEVEL
 62
7
 10
-889.692
 20
-2478.711
 30
4227.000
 70
    32
  0
VERTEX
  8
1000LEVEL
 62
7
 10
-853.764
 20
-2536.508
 30
4227.000
 70
    32
  0
VERTEX
  8
1000LEVEL
 62
7
 10
-826.719
 20
-2591.593
 30
4227.000
 70
    32
  0
VERTEX
  8
1000LEVEL
 62
7
 10
-799.924
 20
-2645.125
 30
4227.000
 70
    32
  0
VERTEX
  8
1000LEVEL
 62
7
 10
-816.214
 20
-2653.806
 30
4227.000
 70
    32
  0
VERTEX
  8
1000LEVEL
 62
7
 10
-858.382
 20
-2601.796
 30
4227.000
 70
    32
  0
VERTEX
  8
1000LEVEL
 62
7
 10
-887.818
 20
-2553.630
 30
4227.000
 70
    32
  0
VERTEX
  8
1000LEVEL
 62
7
 10
-928.314
 20
-2512.984
 30
4227.000
 70
    32
  0
VERTEX
  8
1000LEVEL
 62
7
 10
-964.133
 20
-2463.775
 30
4227.000
 70
    32
  0
VERTEX
  8
1000LEVEL
 62
7
 10
-1000.675
 20
-2418.985
 30
4227.000
 70
    32
  0
VERTEX
  8
1000LEVEL
 62
7
 10
-1036.661
 20
-2381.596
 30
4227.000
 70
    32
  0
VERTEX
  8
1000LEVEL
 62
7
 10
-1071.286
 20
-2360.562
 30
4227.000
 70
    32
  0
VERTEX
  8
1000LEVEL
 62
7
 10
-1052.781
 20
-2392.322
 30
4227.000
 70
    32
  0
VERTEX
  8
1000LEVEL
 62
7
 10
-1008.951
 20
-2452.670
 30
4227.000
 70
    32
  0
VERTEX
  8
1000LEVEL
 62
7
 10
-964.236
 20
-2521.482
 30
4227.000
 70
    32
  0
VERTEX
  8
1000LEVEL
 62
7
 10
-929.450
 20
-2580.101
 30
4227.000
 70
    32
  0
VERTEX
  8
1000LEVEL
 62
7
 10
-886.361
 20
-2638.816
 30
4227.000
 70
    32
  0
VERTEX
  8
1000LEVEL
 62
7
 10
-853.241
 20
-2713.799
 30
4227.000
 70
    32
  0
VERTEX
  8
1000LEVEL
 62
7
 10
-831.055
 20
-2758.511
 30
4227.000
 70
    32
  0
VERTEX
  8
1000LEVEL
 62
7
 10
-809.048
 20
-2798.153
 30
4227.000
 70
    32
  0
VERTEX
  8
1000LEVEL
 62
7
 10
-803.862
 20
-2834.290
 30
4227.000
 70
    32
  0
VERTEX
  8
1000LEVEL
 62
7
 10
-833.811
 20
-2804.694
 30
4227.000
 70
    32
  0
VERTEX
  8
1000LEVEL
 62
7
 10
-861.158
 20
-2757.626
 30
4227.000
 70
    32
  0
VERTEX
  8
1000LEVEL
 62
7
 10
-892.667
 20
-2700.551
 30
4227.000
 70
    32
  0
VERTEX
  8
1000LEVEL
 62
7
 10
-929.613
 20
-2644.352
 30
4227.000
 70
    32
  0
VERTEX
  8
1000LEVEL
 62
7
 10
-971.977
 20
-2595.082
 30
4227.000
 70
    32
  0
VERTEX
  8
1000LEVEL
 62
7
 10
-1031.385
 20
-2535.969
 30
4227.000
 70
    32
  0
VERTEX
  8
1000LEVEL
 62
7
 10
-1078.350
 20
-2467.042
 30
4227.000
 70
    32
  0
VERTEX
  8
1000LEVEL
 62
7
 10
-1130.618
 20
-2402.794
 30
4227.000
 70
    32
  0
VERTEX
  8
1000LEVEL
 62
7
 10
-1174.855
 20
-2355.738
 30
4227.000
 70
    32
  0
VERTEX
  8
1000LEVEL
 62
7
 10
-1202.045
 20
-2332.390
 30
4227.000
 70
    32
  0
SEQEND
  8
1000LEVEL
  0
POLYLINE
  8
1000LEVEL
 62
3
 66
     1
 70
     8
  0
VERTEX
  8
1000LEVEL
 62
3
 10
1712.690
 20
-3472.104
 30
4227.000
 70
    32
  0
VERTEX
  8
1000LEVEL
 62
3
 10
1726.266
 20
-3497.009
 30
4227.000
 70
    32
  0
VERTEX
  8
1000LEVEL
 62
3
 10
1745.166
 20
-3537.151
 30
4227.000
 70
    32
  0
VERTEX
  8
1000LEVEL
 62
3
 10
1786.004
 20
-3595.751
 30
4227.000
 70
    32
  0
VERTEX
  8
1000LEVEL
 62
3
 10
1825.852
 20
-3651.163
 30
4227.000
 70
    32
  0
VERTEX
  8
1000LEVEL
 62
3
 10
1859.171
 20
-3698.703
 30
4227.000
 70
    32
  0
VERTEX
  8
1000LEVEL
 62
3
 10
1875.112
 20
-3721.474
 30
4227.000
 70
    32
  0
VERTEX
  8
1000LEVEL
 62
3
 10
1886.284
 20
-3736.407
 30
4227.000
 70
    32
  0
SEQEND
  8
1000LEVEL
  0
ENDSEC
  0
EOF
