999
********************************
999
*   DXF File - Entities Only   *
999
*        3D Data Format        *
999
*     Output from ENVISAGE     *
999
*     28-Dec-2007 14:00:16     *
999
********************************
  0
SECTION 
  2
HEADER
  9
$ACADVER
  1
AC1009
  9
$EXTMIN
 10
-290000.000
 20
-250000.000
 30
-4000.000
  9
$EXTMAX
 10
5000000.000
 20
600000.000
 30
6000.000
  0
ENDSEC
  0
SECTION
  2
ENTITIES
  0
POLYLINE
  8
0100LEVEL
 62
7
 66
     1
 70
     9
  0
VERTEX
  8
0100LEVEL
 62
7
 10
778.100
 20
-118.800
 30
5127.000
 70
    32
  0
VERTEX
  8
0100LEVEL
 62
7
 10
775.400
 20
-137.200
 30
5127.000
 70
    32
  0
VERTEX
  8
0100LEVEL
 62
7
 10
769.400
 20
-136.000
 30
5127.000
 70
    32
  0
VERTEX
  8
0100LEVEL
 62
7
 10
781.500
 20
-45.800
 30
5127.000
 70
    32
  0
VERTEX
  8
0100LEVEL
 62
7
 10
778.100
 20
3.000
 30
5127.000
 70
    32
  0
VERTEX
  8
0100LEVEL
 62
7
 10
854.500
 20
164.200
 30
5127.000
 70
    32
  0
VERTEX
  8
0100LEVEL
 62
7
 10
861.200
 20
203.000
 30
5127.000
 70
    32
  0
VERTEX
  8
0100LEVEL
 62
7
 10
834.500
 20
302.000
 30
5127.000
 70
    32
  0
VERTEX
  8
0100LEVEL
 62
7
 10
808.800
 20
364.700
 30
5127.000
 70
    32
  0
VERTEX
  8
0100LEVEL
 62
7
 10
802.100
 20
416.200
 30
5127.000
 70
    32
  0
VERTEX
  8
0100LEVEL
 62
7
 10
813.100
 20
507.800
 30
5127.000
 70
    32
  0
VERTEX
  8
0100LEVEL
 62
7
 10
790.400
 20
685.200
 30
5127.000
 70
    32
  0
VERTEX
  8
0100LEVEL
 62
7
 10
839.400
 20
677.300
 30
5127.000
 70
    32
  0
VERTEX
  8
0100LEVEL
 62
7
 10
851.900
 20
658.800
 30
5127.000
 70
    32
  0
VERTEX
  8
0100LEVEL
 62
7
 10
862.900
 20
580.200
 30
5127.000
 70
    32
  0
VERTEX
  8
0100LEVEL
 62
7
 10
900.900
 20
535.200
 30
5127.000
 70
    32
  0
VERTEX
  8
0100LEVEL
 62
7
 10
959.700
 20
493.300
 30
5127.000
 70
    32
  0
VERTEX
  8
0100LEVEL
 62
7
 10
962.400
 20
469.300
 30
5127.000
 70
    32
  0
VERTEX
  8
0100LEVEL
 62
7
 10
949.800
 20
453.400
 30
5127.000
 70
    32
  0
VERTEX
  8
0100LEVEL
 62
7
 10
900.300
 20
463.000
 30
5127.000
 70
    32
  0
VERTEX
  8
0100LEVEL
 62
7
 10
881.300
 20
458.600
 30
5127.000
 70
    32
  0
VERTEX
  8
0100LEVEL
 62
7
 10
875.300
 20
445.400
 30
5127.000
 70
    32
  0
VERTEX
  8
0100LEVEL
 62
7
 10
872.600
 20
387.300
 30
5127.000
 70
    32
  0
VERTEX
  8
0100LEVEL
 62
7
 10
860.200
 20
389.100
 30
5127.000
 70
    32
  0
VERTEX
  8
0100LEVEL
 62
7
 10
853.500
 20
374.400
 30
5127.000
 70
    32
  0
VERTEX
  8
0100LEVEL
 62
7
 10
875.500
 20
291.100
 30
5127.000
 70
    32
  0
VERTEX
  8
0100LEVEL
 62
7
 10
888.500
 20
173.300
 30
5127.000
 70
    32
  0
VERTEX
  8
0100LEVEL
 62
7
 10
816.600
 20
15.700
 30
5127.000
 70
    32
  0
VERTEX
  8
0100LEVEL
 62
7
 10
791.100
 20
-75.600
 30
5127.000
 70
    32
  0
SEQEND
  8
0100LEVEL
  0
POLYLINE
  8
0100LEVEL
 62
13
 66
     1
 70
     8
  0
VERTEX
  8
0100LEVEL
 62
13
 10
-2466.289
 20
1341.850
 30
5127.000
 70
    32
  0
VERTEX
  8
0100LEVEL
 62
13
 10
-2395.893
 20
1218.559
 30
5127.000
 70
    32
  0
VERTEX
  8
0100LEVEL
 62
13
 10
-2385.054
 20
1211.297
 30
5127.000
 70
    32
  0
VERTEX
  8
0100LEVEL
 62
13
 10
-2381.021
 20
1217.652
 30
5127.000
 70
    32
  0
VERTEX
  8
0100LEVEL
 62
13
 10
-2403.249
 20
1281.327
 30
5127.000
 70
    32
  0
VERTEX
  8
0100LEVEL
 62
13
 10
-2445.144
 20
1354.946
 30
5127.000
 70
    32
  0
SEQEND
  8
0100LEVEL
  0
POLYLINE
  8
0100LEVEL
 62
7
 66
     1
 70
     8
  0
VERTEX
  8
0100LEVEL
 62
7
 10
-1109.633
 20
-1001.519
 30
5127.000
 70
    32
  0
VERTEX
  8
0100LEVEL
 62
7
 10
-1133.518
 20
-992.895
 30
5127.000
 70
    32
  0
VERTEX
  8
0100LEVEL
 62
7
 10
-1194.066
 20
-926.268
 30
5127.000
 70
    32
  0
VERTEX
  8
0100LEVEL
 62
7
 10
-1232.835
 20
-861.165
 30
5127.000
 70
    32
  0
VERTEX
  8
0100LEVEL
 62
7
 10
-1696.321
 20
-200.621
 30
5127.000
 70
    32
  0
VERTEX
  8
0100LEVEL
 62
7
 10
-1918.461
 20
219.085
 30
5127.000
 70
    32
  0
VERTEX
  8
0100LEVEL
 62
7
 10
-2113.047
 20
609.547
 30
5127.000
 70
    32
  0
VERTEX
  8
0100LEVEL
 62
7
 10
-2439.739
 20
1195.122
 30
5127.000
 70
    32
  0
VERTEX
  8
0100LEVEL
 62
7
 10
-2519.934
 20
1302.728
 30
5127.000
 70
    32
  0
SEQEND
  8
0100LEVEL
  0
POLYLINE
  8
0100LEVEL
 62
7
 66
     1
 70
     8
  0
VERTEX
  8
0100LEVEL
 62
7
 10
-2397.856
 20
1371.818
 30
5127.000
 70
    32
  0
VERTEX
  8
0100LEVEL
 62
7
 10
-2066.682
 20
756.732
 30
5127.000
 70
    32
  0
VERTEX
  8
0100LEVEL
 62
7
 10
-2023.219
 20
651.069
 30
5127.000
 70
    32
  0
VERTEX
  8
0100LEVEL
 62
7
 10
-1865.062
 20
364.880
 30
5127.000
 70
    32
  0
VERTEX
  8
0100LEVEL
 62
7
 10
-1724.886
 20
66.584
 30
5127.000
 70
    32
  0
VERTEX
  8
0100LEVEL
 62
7
 10
-1439.335
 20
-423.717
 30
5127.000
 70
    32
  0
VERTEX
  8
0100LEVEL
 62
7
 10
-1194.265
 20
-794.571
 30
5127.000
 70
    32
  0
VERTEX
  8
0100LEVEL
 62
7
 10
-1114.584
 20
-967.175
 30
5127.000
 70
    32
  0
VERTEX
  8
0100LEVEL
 62
7
 10
-1109.633
 20
-1001.519
 30
5127.000
 70
    32
  0
SEQEND
  8
0100LEVEL
  0
POLYLINE
  8
0100LEVEL
 62
7
 66
     1
 70
     8
  0
VERTEX
  8
0100LEVEL
 62
7
 10
648.224
 20
-1495.814
 30
5127.000
 70
    32
  0
VERTEX
  8
0100LEVEL
 62
7
 10
564.550
 20
-1500.191
 30
5127.000
 70
    32
  0
VERTEX
  8
0100LEVEL
 62
7
 10
367.470
 20
-1389.425
 30
5127.000
 70
    32
  0
VERTEX
  8
0100LEVEL
 62
7
 10
307.251
 20
-1323.853
 30
5127.000
 70
    32
  0
VERTEX
  8
0100LEVEL
 62
7
 10
47.323
 20
-928.816
 30
5127.000
 70
    32
  0
VERTEX
  8
0100LEVEL
 62
7
 10
5.940
 20
-842.764
 30
5127.000
 70
    32
  0
VERTEX
  8
0100LEVEL
 62
7
 10
-6.316
 20
-836.524
 30
5127.000
 70
    32
  0
VERTEX
  8
0100LEVEL
 62
7
 10
-13.177
 20
-810.882
 30
5127.000
 70
    32
  0
VERTEX
  8
0100LEVEL
 62
7
 10
16.015
 20
-789.828
 30
5127.000
 70
    32
  0
VERTEX
  8
0100LEVEL
 62
7
 10
-85.825
 20
-568.579
 30
5127.000
 70
    32
  0
VERTEX
  8
0100LEVEL
 62
7
 10
-98.258
 20
-568.067
 30
5127.000
 70
    32
  0
VERTEX
  8
0100LEVEL
 62
7
 10
-111.393
 20
-582.711
 30
5127.000
 70
    32
  0
VERTEX
  8
0100LEVEL
 62
7
 10
-116.337
 20
-611.697
 30
5127.000
 70
    32
  0
VERTEX
  8
0100LEVEL
 62
7
 10
-132.934
 20
-624.529
 30
5127.000
 70
    32
  0
VERTEX
  8
0100LEVEL
 62
7
 10
-150.640
 20
-625.666
 30
5127.000
 70
    32
  0
VERTEX
  8
0100LEVEL
 62
7
 10
-158.474
 20
-644.673
 30
5127.000
 70
    32
  0
VERTEX
  8
0100LEVEL
 62
7
 10
-152.615
 20
-735.234
 30
5127.000
 70
    32
  0
VERTEX
  8
0100LEVEL
 62
7
 10
-158.302
 20
-744.075
 30
5127.000
 70
    32
  0
VERTEX
  8
0100LEVEL
 62
7
 10
-174.270
 20
-734.480
 30
5127.000
 70
    32
  0
VERTEX
  8
0100LEVEL
 62
7
 10
-208.123
 20
-686.945
 30
5127.000
 70
    32
  0
VERTEX
  8
0100LEVEL
 62
7
 10
-245.427
 20
-595.797
 30
5127.000
 70
    32
  0
VERTEX
  8
0100LEVEL
 62
7
 10
-265.898
 20
-516.637
 30
5127.000
 70
    32
  0
VERTEX
  8
0100LEVEL
 62
7
 10
-300.197
 20
-451.758
 30
5127.000
 70
    32
  0
VERTEX
  8
0100LEVEL
 62
7
 10
-314.522
 20
-384.106
 30
5127.000
 70
    32
  0
VERTEX
  8
0100LEVEL
 62
7
 10
-350.266
 20
-314.237
 30
5127.000
 70
    32
  0
VERTEX
  8
0100LEVEL
 62
7
 10
-417.223
 20
-81.616
 30
5127.000
 70
    32
  0
VERTEX
  8
0100LEVEL
 62
7
 10
-546.190
 20
270.434
 30
5127.000
 70
    32
  0
VERTEX
  8
0100LEVEL
 62
7
 10
-601.719
 20
385.059
 30
5127.000
 70
    32
  0
VERTEX
  8
0100LEVEL
 62
7
 10
-640.947
 20
444.228
 30
5127.000
 70
    32
  0
VERTEX
  8
0100LEVEL
 62
7
 10
-704.688
 20
515.878
 30
5127.000
 70
    32
  0
VERTEX
  8
0100LEVEL
 62
7
 10
-709.827
 20
502.693
 30
5127.000
 70
    32
  0
VERTEX
  8
0100LEVEL
 62
7
 10
-604.794
 20
205.332
 30
5127.000
 70
    32
  0
VERTEX
  8
0100LEVEL
 62
7
 10
-586.594
 20
116.778
 30
5127.000
 70
    32
  0
VERTEX
  8
0100LEVEL
 62
7
 10
-599.057
 20
70.736
 30
5127.000
 70
    32
  0
VERTEX
  8
0100LEVEL
 62
7
 10
-639.044
 20
100.491
 30
5127.000
 70
    32
  0
VERTEX
  8
0100LEVEL
 62
7
 10
-665.368
 20
109.510
 30
5127.000
 70
    32
  0
VERTEX
  8
0100LEVEL
 62
7
 10
-732.955
 20
196.051
 30
5127.000
 70
    32
  0
VERTEX
  8
0100LEVEL
 62
7
 10
-766.666
 20
221.285
 30
5127.000
 70
    32
  0
VERTEX
  8
0100LEVEL
 62
7
 10
-809.429
 20
289.537
 30
5127.000
 70
    32
  0
VERTEX
  8
0100LEVEL
 62
7
 10
-843.936
 20
373.223
 30
5127.000
 70
    32
  0
VERTEX
  8
0100LEVEL
 62
7
 10
-880.126
 20
434.153
 30
5127.000
 70
    32
  0
VERTEX
  8
0100LEVEL
 62
7
 10
-961.423
 20
516.406
 30
5127.000
 70
    32
  0
VERTEX
  8
0100LEVEL
 62
7
 10
-970.972
 20
499.179
 30
5127.000
 70
    32
  0
VERTEX
  8
0100LEVEL
 62
7
 10
-947.198
 20
390.948
 30
5127.000
 70
    32
  0
VERTEX
  8
0100LEVEL
 62
7
 10
-907.103
 20
284.580
 30
5127.000
 70
    32
  0
VERTEX
  8
0100LEVEL
 62
7
 10
-876.906
 20
228.375
 30
5127.000
 70
    32
  0
VERTEX
  8
0100LEVEL
 62
7
 10
-642.869
 20
-119.415
 30
5127.000
 70
    32
  0
VERTEX
  8
0100LEVEL
 62
7
 10
-470.821
 20
-414.112
 30
5127.000
 70
    32
  0
VERTEX
  8
0100LEVEL
 62
7
 10
-448.100
 20
-470.107
 30
5127.000
 70
    32
  0
VERTEX
  8
0100LEVEL
 62
7
 10
-456.115
 20
-476.319
 30
5127.000
 70
    32
  0
VERTEX
  8
0100LEVEL
 62
7
 10
-605.925
 20
-256.062
 30
5127.000
 70
    32
  0
VERTEX
  8
0100LEVEL
 62
7
 10
-660.630
 20
-205.900
 30
5127.000
 70
    32
  0
VERTEX
  8
0100LEVEL
 62
7
 10
-666.154
 20
-206.007
 30
5127.000
 70
    32
  0
VERTEX
  8
0100LEVEL
 62
7
 10
-661.021
 20
-226.863
 30
5127.000
 70
    32
  0
VERTEX
  8
0100LEVEL
 62
7
 10
-632.429
 20
-305.336
 30
5127.000
 70
    32
  0
VERTEX
  8
0100LEVEL
 62
7
 10
-586.614
 20
-401.117
 30
5127.000
 70
    32
  0
VERTEX
  8
0100LEVEL
 62
7
 10
-439.433
 20
-623.701
 30
5127.000
 70
    32
  0
VERTEX
  8
0100LEVEL
 62
7
 10
-325.867
 20
-868.376
 30
5127.000
 70
    32
  0
VERTEX
  8
0100LEVEL
 62
7
 10
-90.759
 20
-1263.649
 30
5127.000
 70
    32
  0
VERTEX
  8
0100LEVEL
 62
7
 10
118.412
 20
-1636.699
 30
5127.000
 70
    32
  0
VERTEX
  8
0100LEVEL
 62
7
 10
411.658
 20
-2104.216
 30
5127.000
 70
    32
  0
VERTEX
  8
0100LEVEL
 62
7
 10
476.919
 20
-2232.933
 30
5127.000
 70
    32
  0
VERTEX
  8
0100LEVEL
 62
7
 10
491.311
 20
-2270.808
 30
5127.000
 70
    32
  0
VERTEX
  8
0100LEVEL
 62
7
 10
488.829
 20
-2287.678
 30
5127.000
 70
    32
  0
VERTEX
  8
0100LEVEL
 62
7
 10
428.372
 20
-2249.851
 30
5127.000
 70
    32
  0
VERTEX
  8
0100LEVEL
 62
7
 10
432.097
 20
-2282.495
 30
5127.000
 70
    32
  0
VERTEX
  8
0100LEVEL
 62
7
 10
525.533
 20
-2478.353
 30
5127.000
 70
    32
  0
VERTEX
  8
0100LEVEL
 62
7
 10
538.623
 20
-2533.539
 30
5127.000
 70
    32
  0
VERTEX
  8
0100LEVEL
 62
7
 10
519.789
 20
-2527.735
 30
5127.000
 70
    32
  0
VERTEX
  8
0100LEVEL
 62
7
 10
463.328
 20
-2466.777
 30
5127.000
 70
    32
  0
VERTEX
  8
0100LEVEL
 62
7
 10
427.081
 20
-2446.388
 30
5127.000
 70
    32
  0
VERTEX
  8
0100LEVEL
 62
7
 10
423.893
 20
-2459.890
 30
5127.000
 70
    32
  0
VERTEX
  8
0100LEVEL
 62
7
 10
476.234
 20
-2588.016
 30
5127.000
 70
    32
  0
VERTEX
  8
0100LEVEL
 62
7
 10
500.617
 20
-2678.573
 30
5127.000
 70
    32
  0
VERTEX
  8
0100LEVEL
 62
7
 10
492.759
 20
-2710.091
 30
5127.000
 70
    32
  0
VERTEX
  8
0100LEVEL
 62
7
 10
435.945
 20
-2660.590
 30
5127.000
 70
    32
  0
VERTEX
  8
0100LEVEL
 62
7
 10
353.660
 20
-2522.608
 30
5127.000
 70
    32
  0
VERTEX
  8
0100LEVEL
 62
7
 10
13.723
 20
-1830.258
 30
5127.000
 70
    32
  0
VERTEX
  8
0100LEVEL
 62
7
 10
-256.691
 20
-1345.412
 30
5127.000
 70
    32
  0
VERTEX
  8
0100LEVEL
 62
7
 10
-349.057
 20
-1197.036
 30
5127.000
 70
    32
  0
VERTEX
  8
0100LEVEL
 62
7
 10
-362.330
 20
-1181.620
 30
5127.000
 70
    32
  0
VERTEX
  8
0100LEVEL
 62
7
 10
-361.787
 20
-1193.723
 30
5127.000
 70
    32
  0
VERTEX
  8
0100LEVEL
 62
7
 10
-245.159
 20
-1424.126
 30
5127.000
 70
    32
  0
VERTEX
  8
0100LEVEL
 62
7
 10
-234.424
 20
-1470.670
 30
5127.000
 70
    32
  0
VERTEX
  8
0100LEVEL
 62
7
 10
-248.947
 20
-1466.065
 30
5127.000
 70
    32
  0
VERTEX
  8
0100LEVEL
 62
7
 10
-565.176
 20
-982.811
 30
5127.000
 70
    32
  0
VERTEX
  8
0100LEVEL
 62
7
 10
-708.838
 20
-721.497
 30
5127.000
 70
    32
  0
VERTEX
  8
0100LEVEL
 62
7
 10
-853.130
 20
-411.521
 30
5127.000
 70
    32
  0
VERTEX
  8
0100LEVEL
 62
7
 10
-955.598
 20
-212.698
 30
5127.000
 70
    32
  0
VERTEX
  8
0100LEVEL
 62
7
 10
-962.349
 20
-211.104
 30
5127.000
 70
    32
  0
VERTEX
  8
0100LEVEL
 62
7
 10
-958.893
 20
-220.675
 30
5127.000
 70
    32
  0
VERTEX
  8
0100LEVEL
 62
7
 10
-875.491
 20
-407.399
 30
5127.000
 70
    32
  0
VERTEX
  8
0100LEVEL
 62
7
 10
-871.845
 20
-440.530
 30
5127.000
 70
    32
  0
VERTEX
  8
0100LEVEL
 62
7
 10
-879.359
 20
-449.826
 30
5127.000
 70
    32
  0
VERTEX
  8
0100LEVEL
 62
7
 10
-930.690
 20
-391.200
 30
5127.000
 70
    32
  0
VERTEX
  8
0100LEVEL
 62
7
 10
-1007.670
 20
-276.105
 30
5127.000
 70
    32
  0
VERTEX
  8
0100LEVEL
 62
7
 10
-1020.491
 20
-243.991
 30
5127.000
 70
    32
  0
VERTEX
  8
0100LEVEL
 62
7
 10
-1197.166
 20
49.954
 30
5127.000
 70
    32
  0
VERTEX
  8
0100LEVEL
 62
7
 10
-1490.391
 20
574.789
 30
5127.000
 70
    32
  0
VERTEX
  8
0100LEVEL
 62
7
 10
-1497.471
 20
577.438
 30
5127.000
 70
    32
  0
VERTEX
  8
0100LEVEL
 62
7
 10
-1477.140
 20
475.772
 30
5127.000
 70
    32
  0
VERTEX
  8
0100LEVEL
 62
7
 10
-1481.094
 20
469.904
 30
5127.000
 70
    32
  0
VERTEX
  8
0100LEVEL
 62
7
 10
-1513.091
 20
493.359
 30
5127.000
 70
    32
  0
VERTEX
  8
0100LEVEL
 62
7
 10
-1640.043
 20
698.650
 30
5127.000
 70
    32
  0
VERTEX
  8
0100LEVEL
 62
7
 10
-1681.086
 20
799.165
 30
5127.000
 70
    32
  0
VERTEX
  8
0100LEVEL
 62
7
 10
-1718.736
 20
939.180
 30
5127.000
 70
    32
  0
VERTEX
  8
0100LEVEL
 62
7
 10
-1791.224
 20
1137.653
 30
5127.000
 70
    32
  0
VERTEX
  8
0100LEVEL
 62
7
 10
-1853.492
 20
1295.672
 30
5127.000
 70
    32
  0
VERTEX
  8
0100LEVEL
 62
7
 10
-2013.397
 20
1652.983
 30
5127.000
 70
    32
  0
SEQEND
  8
0100LEVEL
  0
POLYLINE
  8
0100LEVEL
 62
7
 66
     1
 70
     8
  0
VERTEX
  8
0100LEVEL
 62
7
 10
1783.300
 20
1579.200
 30
5127.000
 70
    32
  0
VERTEX
  8
0100LEVEL
 62
7
 10
1771.200
 20
1421.000
 30
5127.000
 70
    32
  0
VERTEX
  8
0100LEVEL
 62
7
 10
1704.900
 20
1294.400
 30
5127.000
 70
    32
  0
VERTEX
  8
0100LEVEL
 62
7
 10
1589.500
 20
1134.200
 30
5127.000
 70
    32
  0
VERTEX
  8
0100LEVEL
 62
7
 10
1578.600
 20
1130.700
 30
5127.000
 70
    32
  0
VERTEX
  8
0100LEVEL
 62
7
 10
1577.700
 20
1138.100
 30
5127.000
 70
    32
  0
VERTEX
  8
0100LEVEL
 62
7
 10
1658.800
 20
1309.800
 30
5127.000
 70
    32
  0
VERTEX
  8
0100LEVEL
 62
7
 10
1679.400
 20
1358.400
 30
5127.000
 70
    32
  0
VERTEX
  8
0100LEVEL
 62
7
 10
1670.000
 20
1355.700
 30
5127.000
 70
    32
  0
VERTEX
  8
0100LEVEL
 62
7
 10
1540.900
 20
1113.100
 30
5127.000
 70
    32
  0
VERTEX
  8
0100LEVEL
 62
7
 10
1453.300
 20
892.400
 30
5127.000
 70
    32
  0
VERTEX
  8
0100LEVEL
 62
7
 10
1416.100
 20
776.400
 30
5127.000
 70
    32
  0
VERTEX
  8
0100LEVEL
 62
7
 10
1319.600
 20
395.600
 30
5127.000
 70
    32
  0
VERTEX
  8
0100LEVEL
 62
7
 10
1295.600
 20
356.400
 30
5127.000
 70
    32
  0
VERTEX
  8
0100LEVEL
 62
7
 10
1281.800
 20
353.900
 30
5127.000
 70
    32
  0
VERTEX
  8
0100LEVEL
 62
7
 10
1264.000
 20
371.100
 30
5127.000
 70
    32
  0
VERTEX
  8
0100LEVEL
 62
7
 10
1257.500
 20
364.900
 30
5127.000
 70
    32
  0
VERTEX
  8
0100LEVEL
 62
7
 10
1190.900
 20
111.900
 30
5127.000
 70
    32
  0
VERTEX
  8
0100LEVEL
 62
7
 10
1167.900
 20
113.100
 30
5127.000
 70
    32
  0
VERTEX
  8
0100LEVEL
 62
7
 10
1138.400
 20
158.300
 30
5127.000
 70
    32
  0
VERTEX
  8
0100LEVEL
 62
7
 10
1117.900
 20
172.600
 30
5127.000
 70
    32
  0
VERTEX
  8
0100LEVEL
 62
7
 10
1106.000
 20
167.700
 30
5127.000
 70
    32
  0
VERTEX
  8
0100LEVEL
 62
7
 10
1078.600
 20
119.900
 30
5127.000
 70
    32
  0
VERTEX
  8
0100LEVEL
 62
7
 10
1055.600
 20
-53.400
 30
5127.000
 70
    32
  0
VERTEX
  8
0100LEVEL
 62
7
 10
1039.500
 20
-62.300
 30
5127.000
 70
    32
  0
VERTEX
  8
0100LEVEL
 62
7
 10
1009.400
 20
-46.500
 30
5127.000
 70
    32
  0
VERTEX
  8
0100LEVEL
 62
7
 10
1010.400
 20
-151.500
 30
5127.000
 70
    32
  0
VERTEX
  8
0100LEVEL
 62
7
 10
993.200
 20
-396.900
 30
5127.000
 70
    32
  0
VERTEX
  8
0100LEVEL
 62
7
 10
985.279
 20
-447.912
 30
5127.000
 70
    32
  0
VERTEX
  8
0100LEVEL
 62
7
 10
922.427
 20
-658.275
 30
5127.000
 70
    32
  0
VERTEX
  8
0100LEVEL
 62
7
 10
930.000
 20
-750.616
 30
5127.000
 70
    32
  0
VERTEX
  8
0100LEVEL
 62
7
 10
995.940
 20
-876.689
 30
5127.000
 70
    32
  0
VERTEX
  8
0100LEVEL
 62
7
 10
1030.510
 20
-912.075
 30
5127.000
 70
    32
  0
VERTEX
  8
0100LEVEL
 62
7
 10
1108.831
 20
-1045.160
 30
5127.000
 70
    32
  0
VERTEX
  8
0100LEVEL
 62
7
 10
1214.053
 20
-1294.992
 30
5127.000
 70
    32
  0
VERTEX
  8
0100LEVEL
 62
7
 10
1244.298
 20
-1397.262
 30
5127.000
 70
    32
  0
VERTEX
  8
0100LEVEL
 62
7
 10
1125.464
 20
-1243.849
 30
5127.000
 70
    32
  0
VERTEX
  8
0100LEVEL
 62
7
 10
1086.924
 20
-1215.054
 30
5127.000
 70
    32
  0
VERTEX
  8
0100LEVEL
 62
7
 10
1066.188
 20
-1201.965
 30
5127.000
 70
    32
  0
VERTEX
  8
0100LEVEL
 62
7
 10
973.001
 20
-1109.520
 30
5127.000
 70
    32
  0
VERTEX
  8
0100LEVEL
 62
7
 10
945.657
 20
-1072.801
 30
5127.000
 70
    32
  0
VERTEX
  8
0100LEVEL
 62
7
 10
866.244
 20
-923.269
 30
5127.000
 70
    32
  0
VERTEX
  8
0100LEVEL
 62
7
 10
847.545
 20
-902.719
 30
5127.000
 70
    32
  0
VERTEX
  8
0100LEVEL
 62
7
 10
848.194
 20
-920.346
 30
5127.000
 70
    32
  0
VERTEX
  8
0100LEVEL
 62
7
 10
969.110
 20
-1164.459
 30
5127.000
 70
    32
  0
VERTEX
  8
0100LEVEL
 62
7
 10
963.172
 20
-1171.758
 30
5127.000
 70
    32
  0
VERTEX
  8
0100LEVEL
 62
7
 10
902.398
 20
-1064.794
 30
5127.000
 70
    32
  0
VERTEX
  8
0100LEVEL
 62
7
 10
941.856
 20
-1182.824
 30
5127.000
 70
    32
  0
VERTEX
  8
0100LEVEL
 62
7
 10
1066.722
 20
-1402.545
 30
5127.000
 70
    32
  0
VERTEX
  8
0100LEVEL
 62
7
 10
1101.368
 20
-1490.009
 30
5127.000
 70
    32
  0
VERTEX
  8
0100LEVEL
 62
7
 10
1114.986
 20
-1580.575
 30
5127.000
 70
    32
  0
VERTEX
  8
0100LEVEL
 62
7
 10
1097.779
 20
-1637.362
 30
5127.000
 70
    32
  0
VERTEX
  8
0100LEVEL
 62
7
 10
1093.383
 20
-1644.410
 30
5127.000
 70
    32
  0
VERTEX
  8
0100LEVEL
 62
7
 10
1080.329
 20
-1632.283
 30
5127.000
 70
    32
  0
VERTEX
  8
0100LEVEL
 62
7
 10
1043.019
 20
-1575.177
 30
5127.000
 70
    32
  0
VERTEX
  8
0100LEVEL
 62
7
 10
982.544
 20
-1515.821
 30
5127.000
 70
    32
  0
VERTEX
  8
0100LEVEL
 62
7
 10
964.778
 20
-1512.694
 30
5127.000
 70
    32
  0
VERTEX
  8
0100LEVEL
 62
7
 10
954.575
 20
-1520.053
 30
5127.000
 70
    32
  0
VERTEX
  8
0100LEVEL
 62
7
 10
975.098
 20
-1592.713
 30
5127.000
 70
    32
  0
VERTEX
  8
0100LEVEL
 62
7
 10
973.183
 20
-1609.174
 30
5127.000
 70
    32
  0
VERTEX
  8
0100LEVEL
 62
7
 10
940.982
 20
-1585.436
 30
5127.000
 70
    32
  0
VERTEX
  8
0100LEVEL
 62
7
 10
918.319
 20
-1582.181
 30
5127.000
 70
    32
  0
VERTEX
  8
0100LEVEL
 62
7
 10
899.609
 20
-1581.238
 30
5127.000
 70
    32
  0
VERTEX
  8
0100LEVEL
 62
7
 10
879.474
 20
-1566.463
 30
5127.000
 70
    32
  0
VERTEX
  8
0100LEVEL
 62
7
 10
839.739
 20
-1511.968
 30
5127.000
 70
    32
  0
VERTEX
  8
0100LEVEL
 62
7
 10
757.238
 20
-1441.785
 30
5127.000
 70
    32
  0
VERTEX
  8
0100LEVEL
 62
7
 10
724.406
 20
-1395.667
 30
5127.000
 70
    32
  0
VERTEX
  8
0100LEVEL
 62
7
 10
706.216
 20
-1378.006
 30
5127.000
 70
    32
  0
VERTEX
  8
0100LEVEL
 62
7
 10
689.788
 20
-1365.127
 30
5127.000
 70
    32
  0
VERTEX
  8
0100LEVEL
 62
7
 10
660.359
 20
-1348.101
 30
5127.000
 70
    32
  0
VERTEX
  8
0100LEVEL
 62
7
 10
668.431
 20
-1439.408
 30
5127.000
 70
    32
  0
VERTEX
  8
0100LEVEL
 62
7
 10
754.946
 20
-1632.562
 30
5127.000
 70
    32
  0
VERTEX
  8
0100LEVEL
 62
7
 10
819.713
 20
-1742.266
 30
5127.000
 70
    32
  0
VERTEX
  8
0100LEVEL
 62
7
 10
847.346
 20
-1771.022
 30
5127.000
 70
    32
  0
VERTEX
  8
0100LEVEL
 62
7
 10
874.057
 20
-1766.837
 30
5127.000
 70
    32
  0
VERTEX
  8
0100LEVEL
 62
7
 10
891.731
 20
-1741.164
 30
5127.000
 70
    32
  0
VERTEX
  8
0100LEVEL
 62
7
 10
927.840
 20
-1757.775
 30
5127.000
 70
    32
  0
VERTEX
  8
0100LEVEL
 62
7
 10
1011.085
 20
-1919.192
 30
5127.000
 70
    32
  0
VERTEX
  8
0100LEVEL
 62
7
 10
1083.328
 20
-2082.081
 30
5127.000
 70
    32
  0
VERTEX
  8
0100LEVEL
 62
7
 10
1135.731
 20
-2161.907
 30
5127.000
 70
    32
  0
VERTEX
  8
0100LEVEL
 62
7
 10
1179.506
 20
-2273.377
 30
5127.000
 70
    32
  0
VERTEX
  8
0100LEVEL
 62
7
 10
1169.414
 20
-2278.501
 30
5127.000
 70
    32
  0
VERTEX
  8
0100LEVEL
 62
7
 10
1135.825
 20
-2235.514
 30
5127.000
 70
    32
  0
VERTEX
  8
0100LEVEL
 62
7
 10
913.378
 20
-1925.896
 30
5127.000
 70
    32
  0
VERTEX
  8
0100LEVEL
 62
7
 10
858.034
 20
-1842.590
 30
5127.000
 70
    32
  0
VERTEX
  8
0100LEVEL
 62
7
 10
755.636
 20
-1636.998
 30
5127.000
 70
    32
  0
VERTEX
  8
0100LEVEL
 62
7
 10
659.943
 20
-1493.863
 30
5127.000
 70
    32
  0
VERTEX
  8
0100LEVEL
 62
7
 10
648.224
 20
-1495.814
 30
5127.000
 70
    32
  0
SEQEND
  8
0100LEVEL
  0
LINE
  8
0100LEVEL
 62
13
 10
467.459
 20
-357.809
 30
5127.000
 11
458.312
 21
-338.555
 31
5127.000
  0
POLYLINE
  8
0100LEVEL
 62
13
 66
     1
 70
     8
  0
VERTEX
  8
0100LEVEL
 62
13
 10
544.860
 20
-507.687
 30
5127.000
 70
    32
  0
VERTEX
  8
0100LEVEL
 62
13
 10
530.694
 20
-505.221
 30
5127.000
 70
    32
  0
VERTEX
  8
0100LEVEL
 62
13
 10
483.537
 20
-391.451
 30
5127.000
 70
    32
  0
VERTEX
  8
0100LEVEL
 62
13
 10
467.459
 20
-357.809
 30
5127.000
 70
    32
  0
SEQEND
  8
0100LEVEL
  0
POLYLINE
  8
0100LEVEL
 62
13
 66
     1
 70
     8
  0
VERTEX
  8
0100LEVEL
 62
13
 10
-1984.390
 20
1679.074
 30
5127.000
 70
    32
  0
VERTEX
  8
0100LEVEL
 62
13
 10
-1871.781
 20
1439.310
 30
5127.000
 70
    32
  0
VERTEX
  8
0100LEVEL
 62
13
 10
-1791.754
 20
1217.839
 30
5127.000
 70
    32
  0
VERTEX
  8
0100LEVEL
 62
13
 10
-1764.828
 20
1166.169
 30
5127.000
 70
    32
  0
VERTEX
  8
0100LEVEL
 62
13
 10
-1708.294
 20
1000.567
 30
5127.000
 70
    32
  0
VERTEX
  8
0100LEVEL
 62
13
 10
-1651.264
 20
797.839
 30
5127.000
 70
    32
  0
VERTEX
  8
0100LEVEL
 62
13
 10
-1550.779
 20
597.585
 30
5127.000
 70
    32
  0
VERTEX
  8
0100LEVEL
 62
13
 10
-1525.956
 20
579.298
 30
5127.000
 70
    32
  0
VERTEX
  8
0100LEVEL
 62
13
 10
-1545.456
 20
676.823
 30
5127.000
 70
    32
  0
VERTEX
  8
0100LEVEL
 62
13
 10
-1542.189
 20
690.813
 30
5127.000
 70
    32
  0
VERTEX
  8
0100LEVEL
 62
13
 10
-1536.776
 20
688.684
 30
5127.000
 70
    32
  0
VERTEX
  8
0100LEVEL
 62
13
 10
-1392.435
 20
456.297
 30
5127.000
 70
    32
  0
VERTEX
  8
0100LEVEL
 62
13
 10
-1189.944
 20
96.094
 30
5127.000
 70
    32
  0
VERTEX
  8
0100LEVEL
 62
13
 10
-1006.477
 20
-208.463
 30
5127.000
 70
    32
  0
VERTEX
  8
0100LEVEL
 62
13
 10
-992.758
 20
-214.940
 30
5127.000
 70
    32
  0
VERTEX
  8
0100LEVEL
 62
13
 10
-1019.159
 20
-82.754
 30
5127.000
 70
    32
  0
VERTEX
  8
0100LEVEL
 62
13
 10
-1026.212
 20
11.254
 30
5127.000
 70
    32
  0
VERTEX
  8
0100LEVEL
 62
13
 10
-1052.538
 20
91.362
 30
5127.000
 70
    32
  0
VERTEX
  8
0100LEVEL
 62
13
 10
-1095.358
 20
145.356
 30
5127.000
 70
    32
  0
VERTEX
  8
0100LEVEL
 62
13
 10
-1125.812
 20
169.061
 30
5127.000
 70
    32
  0
VERTEX
  8
0100LEVEL
 62
13
 10
-1265.432
 20
425.966
 30
5127.000
 70
    32
  0
VERTEX
  8
0100LEVEL
 62
13
 10
-1465.655
 20
690.433
 30
5127.000
 70
    32
  0
VERTEX
  8
0100LEVEL
 62
13
 10
-1525.998
 20
783.059
 30
5127.000
 70
    32
  0
VERTEX
  8
0100LEVEL
 62
13
 10
-1588.218
 20
966.102
 30
5127.000
 70
    32
  0
VERTEX
  8
0100LEVEL
 62
13
 10
-1781.008
 20
1407.838
 30
5127.000
 70
    32
  0
VERTEX
  8
0100LEVEL
 62
13
 10
-1795.232
 20
1462.207
 30
5127.000
 70
    32
  0
VERTEX
  8
0100LEVEL
 62
13
 10
-1860.025
 20
1586.092
 30
5127.000
 70
    32
  0
VERTEX
  8
0100LEVEL
 62
13
 10
-1910.918
 20
1664.422
 30
5127.000
 70
    32
  0
VERTEX
  8
0100LEVEL
 62
13
 10
-1915.749
 20
1690.235
 30
5127.000
 70
    32
  0
VERTEX
  8
0100LEVEL
 62
13
 10
-1907.331
 20
1688.121
 30
5127.000
 70
    32
  0
VERTEX
  8
0100LEVEL
 62
13
 10
-1834.020
 20
1593.645
 30
5127.000
 70
    32
  0
VERTEX
  8
0100LEVEL
 62
13
 10
-1768.192
 20
1465.337
 30
5127.000
 70
    32
  0
VERTEX
  8
0100LEVEL
 62
13
 10
-1717.770
 20
1339.273
 30
5127.000
 70
    32
  0
VERTEX
  8
0100LEVEL
 62
13
 10
-1699.024
 20
1317.464
 30
5127.000
 70
    32
  0
VERTEX
  8
0100LEVEL
 62
13
 10
-1655.946
 20
1224.880
 30
5127.000
 70
    32
  0
VERTEX
  8
0100LEVEL
 62
13
 10
-1554.354
 20
1057.739
 30
5127.000
 70
    32
  0
VERTEX
  8
0100LEVEL
 62
13
 10
-1448.305
 20
919.663
 30
5127.000
 70
    32
  0
VERTEX
  8
0100LEVEL
 62
13
 10
-1376.329
 20
806.129
 30
5127.000
 70
    32
  0
VERTEX
  8
0100LEVEL
 62
13
 10
-1355.982
 20
754.023
 30
5127.000
 70
    32
  0
VERTEX
  8
0100LEVEL
 62
13
 10
-1242.029
 20
548.834
 30
5127.000
 70
    32
  0
VERTEX
  8
0100LEVEL
 62
13
 10
-1182.302
 20
378.210
 30
5127.000
 70
    32
  0
VERTEX
  8
0100LEVEL
 62
13
 10
-1039.420
 20
127.536
 30
5127.000
 70
    32
  0
VERTEX
  8
0100LEVEL
 62
13
 10
-1008.567
 20
16.656
 30
5127.000
 70
    32
  0
VERTEX
  8
0100LEVEL
 62
13
 10
-933.154
 20
-137.484
 30
5127.000
 70
    32
  0
VERTEX
  8
0100LEVEL
 62
13
 10
-886.277
 20
-269.982
 30
5127.000
 70
    32
  0
VERTEX
  8
0100LEVEL
 62
13
 10
-577.569
 20
-920.229
 30
5127.000
 70
    32
  0
VERTEX
  8
0100LEVEL
 62
13
 10
-448.837
 20
-1123.805
 30
5127.000
 70
    32
  0
VERTEX
  8
0100LEVEL
 62
13
 10
-379.331
 20
-1212.409
 30
5127.000
 70
    32
  0
VERTEX
  8
0100LEVEL
 62
13
 10
-425.438
 20
-1106.068
 30
5127.000
 70
    32
  0
VERTEX
  8
0100LEVEL
 62
13
 10
-565.259
 20
-867.404
 30
5127.000
 70
    32
  0
VERTEX
  8
0100LEVEL
 62
13
 10
-568.073
 20
-838.412
 30
5127.000
 70
    32
  0
VERTEX
  8
0100LEVEL
 62
13
 10
-414.532
 20
-1057.271
 30
5127.000
 70
    32
  0
VERTEX
  8
0100LEVEL
 62
13
 10
-250.534
 20
-1315.120
 30
5127.000
 70
    32
  0
VERTEX
  8
0100LEVEL
 62
13
 10
23.527
 20
-1806.814
 30
5127.000
 70
    32
  0
VERTEX
  8
0100LEVEL
 62
13
 10
185.031
 20
-2149.616
 30
5127.000
 70
    32
  0
VERTEX
  8
0100LEVEL
 62
13
 10
297.911
 20
-2359.887
 30
5127.000
 70
    32
  0
VERTEX
  8
0100LEVEL
 62
13
 10
318.232
 20
-2379.699
 30
5127.000
 70
    32
  0
VERTEX
  8
0100LEVEL
 62
13
 10
324.467
 20
-2375.201
 30
5127.000
 70
    32
  0
VERTEX
  8
0100LEVEL
 62
13
 10
274.502
 20
-2198.399
 30
5127.000
 70
    32
  0
VERTEX
  8
0100LEVEL
 62
13
 10
382.866
 20
-2309.816
 30
5127.000
 70
    32
  0
VERTEX
  8
0100LEVEL
 62
13
 10
388.591
 20
-2291.469
 30
5127.000
 70
    32
  0
VERTEX
  8
0100LEVEL
 62
13
 10
345.663
 20
-2160.862
 30
5127.000
 70
    32
  0
VERTEX
  8
0100LEVEL
 62
13
 10
347.531
 20
-2143.142
 30
5127.000
 70
    32
  0
VERTEX
  8
0100LEVEL
 62
13
 10
420.945
 20
-2198.336
 30
5127.000
 70
    32
  0
VERTEX
  8
0100LEVEL
 62
13
 10
393.625
 20
-2122.822
 30
5127.000
 70
    32
  0
VERTEX
  8
0100LEVEL
 62
13
 10
46.705
 20
-1546.237
 30
5127.000
 70
    32
  0
VERTEX
  8
0100LEVEL
 62
13
 10
-94.867
 20
-1289.017
 30
5127.000
 70
    32
  0
VERTEX
  8
0100LEVEL
 62
13
 10
-385.483
 20
-819.172
 30
5127.000
 70
    32
  0
VERTEX
  8
0100LEVEL
 62
13
 10
-495.226
 20
-601.900
 30
5127.000
 70
    32
  0
VERTEX
  8
0100LEVEL
 62
13
 10
-609.626
 20
-405.650
 30
5127.000
 70
    32
  0
VERTEX
  8
0100LEVEL
 62
13
 10
-669.224
 20
-280.604
 30
5127.000
 70
    32
  0
VERTEX
  8
0100LEVEL
 62
13
 10
-705.341
 20
-155.856
 30
5127.000
 70
    32
  0
VERTEX
  8
0100LEVEL
 62
13
 10
-692.272
 20
-144.706
 30
5127.000
 70
    32
  0
VERTEX
  8
0100LEVEL
 62
13
 10
-633.609
 20
-207.523
 30
5127.000
 70
    32
  0
VERTEX
  8
0100LEVEL
 62
13
 10
-625.790
 20
-211.793
 30
5127.000
 70
    32
  0
VERTEX
  8
0100LEVEL
 62
13
 10
-622.811
 20
-205.767
 30
5127.000
 70
    32
  0
VERTEX
  8
0100LEVEL
 62
13
 10
-917.079
 20
263.167
 30
5127.000
 70
    32
  0
VERTEX
  8
0100LEVEL
 62
13
 10
-956.822
 20
354.709
 30
5127.000
 70
    32
  0
VERTEX
  8
0100LEVEL
 62
13
 10
-989.139
 20
465.826
 30
5127.000
 70
    32
  0
VERTEX
  8
0100LEVEL
 62
13
 10
-1083.287
 20
657.293
 30
5127.000
 70
    32
  0
VERTEX
  8
0100LEVEL
 62
13
 10
-1081.489
 20
663.760
 30
5127.000
 70
    32
  0
VERTEX
  8
0100LEVEL
 62
13
 10
-1067.941
 20
659.314
 30
5127.000
 70
    32
  0
VERTEX
  8
0100LEVEL
 62
13
 10
-1034.189
 20
625.061
 30
5127.000
 70
    32
  0
VERTEX
  8
0100LEVEL
 62
13
 10
-1016.019
 20
613.608
 30
5127.000
 70
    32
  0
VERTEX
  8
0100LEVEL
 62
13
 10
-1015.322
 20
621.005
 30
5127.000
 70
    32
  0
VERTEX
  8
0100LEVEL
 62
13
 10
-1081.496
 20
700.808
 30
5127.000
 70
    32
  0
VERTEX
  8
0100LEVEL
 62
13
 10
-1117.514
 20
759.708
 30
5127.000
 70
    32
  0
VERTEX
  8
0100LEVEL
 62
13
 10
-1160.012
 20
849.694
 30
5127.000
 70
    32
  0
VERTEX
  8
0100LEVEL
 62
13
 10
-1422.909
 20
1325.312
 30
5127.000
 70
    32
  0
VERTEX
  8
0100LEVEL
 62
13
 10
-1602.464
 20
1547.383
 30
5127.000
 70
    32
  0
VERTEX
  8
0100LEVEL
 62
13
 10
-1647.322
 20
1638.252
 30
5127.000
 70
    32
  0
VERTEX
  8
0100LEVEL
 62
13
 10
-1649.784
 20
1652.418
 30
5127.000
 70
    32
  0
VERTEX
  8
0100LEVEL
 62
13
 10
-1640.249
 20
1672.651
 30
5127.000
 70
    32
  0
VERTEX
  8
0100LEVEL
 62
13
 10
-1724.468
 20
1860.508
 30
5127.000
 70
    32
  0
VERTEX
  8
0100LEVEL
 62
13
 10
-1689.436
 20
1883.621
 30
5127.000
 70
    32
  0
VERTEX
  8
0100LEVEL
 62
13
 10
-1520.030
 20
1739.539
 30
5127.000
 70
    32
  0
VERTEX
  8
0100LEVEL
 62
13
 10
-1489.822
 20
1725.135
 30
5127.000
 70
    32
  0
VERTEX
  8
0100LEVEL
 62
13
 10
-1386.887
 20
1566.287
 30
5127.000
 70
    32
  0
VERTEX
  8
0100LEVEL
 62
13
 10
-1335.977
 20
1537.516
 30
5127.000
 70
    32
  0
VERTEX
  8
0100LEVEL
 62
13
 10
-1321.872
 20
1517.960
 30
5127.000
 70
    32
  0
VERTEX
  8
0100LEVEL
 62
13
 10
-1268.582
 20
1421.971
 30
5127.000
 70
    32
  0
VERTEX
  8
0100LEVEL
 62
13
 10
-1266.585
 20
1394.113
 30
5127.000
 70
    32
  0
VERTEX
  8
0100LEVEL
 62
13
 10
-1289.491
 20
1384.055
 30
5127.000
 70
    32
  0
VERTEX
  8
0100LEVEL
 62
13
 10
-1367.041
 20
1419.894
 30
5127.000
 70
    32
  0
VERTEX
  8
0100LEVEL
 62
13
 10
-1374.568
 20
1413.603
 30
5127.000
 70
    32
  0
VERTEX
  8
0100LEVEL
 62
13
 10
-1220.705
 20
1107.083
 30
5127.000
 70
    32
  0
VERTEX
  8
0100LEVEL
 62
13
 10
-1143.497
 20
1004.216
 30
5127.000
 70
    32
  0
VERTEX
  8
0100LEVEL
 62
13
 10
-1090.487
 20
889.498
 30
5127.000
 70
    32
  0
VERTEX
  8
0100LEVEL
 62
13
 10
-954.127
 20
652.646
 30
5127.000
 70
    32
  0
VERTEX
  8
0100LEVEL
 62
13
 10
-882.875
 20
564.010
 30
5127.000
 70
    32
  0
VERTEX
  8
0100LEVEL
 62
13
 10
-782.961
 20
479.243
 30
5127.000
 70
    32
  0
VERTEX
  8
0100LEVEL
 62
13
 10
-831.104
 20
675.025
 30
5127.000
 70
    32
  0
VERTEX
  8
0100LEVEL
 62
13
 10
-816.910
 20
671.475
 30
5127.000
 70
    32
  0
VERTEX
  8
0100LEVEL
 62
13
 10
-630.334
 20
477.303
 30
5127.000
 70
    32
  0
VERTEX
  8
0100LEVEL
 62
13
 10
-573.006
 20
395.428
 30
5127.000
 70
    32
  0
VERTEX
  8
0100LEVEL
 62
13
 10
-526.461
 20
308.791
 30
5127.000
 70
    32
  0
VERTEX
  8
0100LEVEL
 62
13
 10
-461.661
 20
147.858
 30
5127.000
 70
    32
  0
VERTEX
  8
0100LEVEL
 62
13
 10
-379.010
 20
-7.955
 30
5127.000
 70
    32
  0
VERTEX
  8
0100LEVEL
 62
13
 10
-355.714
 20
-74.306
 30
5127.000
 70
    32
  0
VERTEX
  8
0100LEVEL
 62
13
 10
-340.929
 20
-162.308
 30
5127.000
 70
    32
  0
VERTEX
  8
0100LEVEL
 62
13
 10
-276.579
 20
-313.655
 30
5127.000
 70
    32
  0
VERTEX
  8
0100LEVEL
 62
13
 10
-245.521
 20
-424.818
 30
5127.000
 70
    32
  0
VERTEX
  8
0100LEVEL
 62
13
 10
-232.992
 20
-446.372
 30
5127.000
 70
    32
  0
VERTEX
  8
0100LEVEL
 62
13
 10
-211.259
 20
-375.548
 30
5127.000
 70
    32
  0
VERTEX
  8
0100LEVEL
 62
13
 10
-180.502
 20
-368.014
 30
5127.000
 70
    32
  0
VERTEX
  8
0100LEVEL
 62
13
 10
-169.049
 20
-349.844
 30
5127.000
 70
    32
  0
VERTEX
  8
0100LEVEL
 62
13
 10
-148.961
 20
-194.899
 30
5127.000
 70
    32
  0
VERTEX
  8
0100LEVEL
 62
13
 10
-143.265
 20
-196.823
 30
5127.000
 70
    32
  0
VERTEX
  8
0100LEVEL
 62
13
 10
-98.565
 20
-288.668
 30
5127.000
 70
    32
  0
VERTEX
  8
0100LEVEL
 62
13
 10
-73.213
 20
-316.053
 30
5127.000
 70
    32
  0
VERTEX
  8
0100LEVEL
 62
13
 10
-62.245
 20
-342.610
 30
5127.000
 70
    32
  0
VERTEX
  8
0100LEVEL
 62
13
 10
-27.087
 20
-515.012
 30
5127.000
 70
    32
  0
VERTEX
  8
0100LEVEL
 62
13
 10
6.249
 20
-609.022
 30
5127.000
 70
    32
  0
VERTEX
  8
0100LEVEL
 62
13
 10
91.362
 20
-752.719
 30
5127.000
 70
    32
  0
VERTEX
  8
0100LEVEL
 62
13
 10
109.644
 20
-761.937
 30
5127.000
 70
    32
  0
VERTEX
  8
0100LEVEL
 62
13
 10
118.361
 20
-740.571
 30
5127.000
 70
    32
  0
VERTEX
  8
0100LEVEL
 62
13
 10
88.163
 20
-613.277
 30
5127.000
 70
    32
  0
VERTEX
  8
0100LEVEL
 62
13
 10
87.519
 20
-464.237
 30
5127.000
 70
    32
  0
VERTEX
  8
0100LEVEL
 62
13
 10
78.540
 20
-428.489
 30
5127.000
 70
    32
  0
VERTEX
  8
0100LEVEL
 62
13
 10
134.050
 20
-450.496
 30
5127.000
 70
    32
  0
VERTEX
  8
0100LEVEL
 62
13
 10
133.783
 20
-401.141
 30
5127.000
 70
    32
  0
VERTEX
  8
0100LEVEL
 62
13
 10
118.044
 20
-353.035
 30
5127.000
 70
    32
  0
VERTEX
  8
0100LEVEL
 62
13
 10
148.470
 20
-370.728
 30
5127.000
 70
    32
  0
VERTEX
  8
0100LEVEL
 62
13
 10
199.657
 20
-433.336
 30
5127.000
 70
    32
  0
VERTEX
  8
0100LEVEL
 62
13
 10
231.468
 20
-549.126
 30
5127.000
 70
    32
  0
VERTEX
  8
0100LEVEL
 62
13
 10
251.446
 20
-588.379
 30
5127.000
 70
    32
  0
VERTEX
  8
0100LEVEL
 62
13
 10
392.789
 20
-736.955
 30
5127.000
 70
    32
  0
VERTEX
  8
0100LEVEL
 62
13
 10
480.650
 20
-850.344
 30
5127.000
 70
    32
  0
VERTEX
  8
0100LEVEL
 62
13
 10
546.957
 20
-959.670
 30
5127.000
 70
    32
  0
VERTEX
  8
0100LEVEL
 62
13
 10
560.627
 20
-973.179
 30
5127.000
 70
    32
  0
VERTEX
  8
0100LEVEL
 62
13
 10
588.714
 20
-1003.228
 30
5127.000
 70
    32
  0
VERTEX
  8
0100LEVEL
 62
13
 10
662.636
 20
-1124.837
 30
5127.000
 70
    32
  0
VERTEX
  8
0100LEVEL
 62
13
 10
795.248
 20
-1315.275
 30
5127.000
 70
    32
  0
VERTEX
  8
0100LEVEL
 62
13
 10
835.541
 20
-1358.597
 30
5127.000
 70
    32
  0
VERTEX
  8
0100LEVEL
 62
13
 10
869.911
 20
-1385.941
 30
5127.000
 70
    32
  0
VERTEX
  8
0100LEVEL
 62
13
 10
877.090
 20
-1383.348
 30
5127.000
 70
    32
  0
VERTEX
  8
0100LEVEL
 62
13
 10
865.429
 20
-1356.429
 30
5127.000
 70
    32
  0
VERTEX
  8
0100LEVEL
 62
13
 10
687.429
 20
-1092.307
 30
5127.000
 70
    32
  0
VERTEX
  8
0100LEVEL
 62
13
 10
668.507
 20
-1049.943
 30
5127.000
 70
    32
  0
VERTEX
  8
0100LEVEL
 62
13
 10
634.413
 20
-887.976
 30
5127.000
 70
    32
  0
VERTEX
  8
0100LEVEL
 62
13
 10
743.748
 20
-1042.630
 30
5127.000
 70
    32
  0
VERTEX
  8
0100LEVEL
 62
13
 10
754.214
 20
-1046.255
 30
5127.000
 70
    32
  0
VERTEX
  8
0100LEVEL
 62
13
 10
854.828
 20
-1194.288
 30
5127.000
 70
    32
  0
VERTEX
  8
0100LEVEL
 62
13
 10
866.041
 20
-1192.529
 30
5127.000
 70
    32
  0
VERTEX
  8
0100LEVEL
 62
13
 10
947.105
 20
-1291.058
 30
5127.000
 70
    32
  0
VERTEX
  8
0100LEVEL
 62
13
 10
939.617
 20
-1261.560
 30
5127.000
 70
    32
  0
VERTEX
  8
0100LEVEL
 62
13
 10
876.465
 20
-1132.183
 30
5127.000
 70
    32
  0
VERTEX
  8
0100LEVEL
 62
13
 10
851.462
 20
-977.446
 30
5127.000
 70
    32
  0
VERTEX
  8
0100LEVEL
 62
13
 10
782.351
 20
-717.943
 30
5127.000
 70
    32
  0
VERTEX
  8
0100LEVEL
 62
13
 10
740.643
 20
-623.078
 30
5127.000
 70
    32
  0
VERTEX
  8
0100LEVEL
 62
13
 10
739.766
 20
-591.396
 30
5127.000
 70
    32
  0
VERTEX
  8
0100LEVEL
 62
13
 10
706.600
 20
-551.983
 30
5127.000
 70
    32
  0
VERTEX
  8
0100LEVEL
 62
13
 10
586.705
 20
-511.412
 30
5127.000
 70
    32
  0
VERTEX
  8
0100LEVEL
 62
13
 10
541.556
 20
-507.112
 30
5127.000
 70
    32
  0
VERTEX
  8
0100LEVEL
 62
13
 10
530.694
 20
-505.221
 30
5127.000
 70
    32
  0
VERTEX
  8
0100LEVEL
 62
13
 10
483.537
 20
-391.451
 30
5127.000
 70
    32
  0
VERTEX
  8
0100LEVEL
 62
13
 10
467.459
 20
-357.809
 30
5127.000
 70
    32
  0
VERTEX
  8
0100LEVEL
 62
13
 10
458.312
 20
-338.555
 30
5127.000
 70
    32
  0
VERTEX
  8
0100LEVEL
 62
13
 10
468.722
 20
-335.959
 30
5127.000
 70
    32
  0
VERTEX
  8
0100LEVEL
 62
13
 10
509.567
 20
-305.369
 30
5127.000
 70
    32
  0
VERTEX
  8
0100LEVEL
 62
13
 10
519.131
 20
-278.317
 30
5127.000
 70
    32
  0
VERTEX
  8
0100LEVEL
 62
13
 10
524.906
 20
-279.753
 30
5127.000
 70
    32
  0
VERTEX
  8
0100LEVEL
 62
13
 10
540.049
 20
-348.539
 30
5127.000
 70
    32
  0
VERTEX
  8
0100LEVEL
 62
13
 10
546.511
 20
-358.096
 30
5127.000
 70
    32
  0
VERTEX
  8
0100LEVEL
 62
13
 10
555.278
 20
-356.512
 30
5127.000
 70
    32
  0
VERTEX
  8
0100LEVEL
 62
13
 10
562.320
 20
-297.577
 30
5127.000
 70
    32
  0
VERTEX
  8
0100LEVEL
 62
13
 10
579.228
 20
-264.271
 30
5127.000
 70
    32
  0
VERTEX
  8
0100LEVEL
 62
13
 10
599.910
 20
-309.673
 30
5127.000
 70
    32
  0
VERTEX
  8
0100LEVEL
 62
13
 10
603.895
 20
-354.623
 30
5127.000
 70
    32
  0
VERTEX
  8
0100LEVEL
 62
13
 10
621.039
 20
-375.745
 30
5127.000
 70
    32
  0
VERTEX
  8
0100LEVEL
 62
13
 10
613.800
 20
-301.100
 30
5127.000
 70
    32
  0
VERTEX
  8
0100LEVEL
 62
13
 10
633.200
 20
-57.200
 30
5127.000
 70
    32
  0
VERTEX
  8
0100LEVEL
 62
13
 10
667.800
 20
-147.900
 30
5127.000
 70
    32
  0
VERTEX
  8
0100LEVEL
 62
13
 10
679.700
 20
-156.800
 30
5127.000
 70
    32
  0
VERTEX
  8
0100LEVEL
 62
13
 10
695.700
 20
-55.800
 30
5127.000
 70
    32
  0
VERTEX
  8
0100LEVEL
 62
13
 10
732.700
 20
73.200
 30
5127.000
 70
    32
  0
VERTEX
  8
0100LEVEL
 62
13
 10
746.600
 20
94.800
 30
5127.000
 70
    32
  0
VERTEX
  8
0100LEVEL
 62
13
 10
767.100
 20
188.100
 30
5127.000
 70
    32
  0
VERTEX
  8
0100LEVEL
 62
13
 10
762.100
 20
244.200
 30
5127.000
 70
    32
  0
VERTEX
  8
0100LEVEL
 62
13
 10
743.500
 20
292.600
 30
5127.000
 70
    32
  0
VERTEX
  8
0100LEVEL
 62
13
 10
736.900
 20
353.600
 30
5127.000
 70
    32
  0
VERTEX
  8
0100LEVEL
 62
13
 10
748.100
 20
732.200
 30
5127.000
 70
    32
  0
VERTEX
  8
0100LEVEL
 62
13
 10
788.800
 20
732.200
 30
5127.000
 70
    32
  0
VERTEX
  8
0100LEVEL
 62
13
 10
815.600
 20
721.200
 30
5127.000
 70
    32
  0
VERTEX
  8
0100LEVEL
 62
13
 10
836.800
 20
734.200
 30
5127.000
 70
    32
  0
VERTEX
  8
0100LEVEL
 62
13
 10
876.000
 20
726.700
 30
5127.000
 70
    32
  0
VERTEX
  8
0100LEVEL
 62
13
 10
944.400
 20
586.600
 30
5127.000
 70
    32
  0
VERTEX
  8
0100LEVEL
 62
13
 10
1010.800
 20
525.800
 30
5127.000
 70
    32
  0
VERTEX
  8
0100LEVEL
 62
13
 10
1042.200
 20
476.700
 30
5127.000
 70
    32
  0
VERTEX
  8
0100LEVEL
 62
13
 10
1065.500
 20
411.500
 30
5127.000
 70
    32
  0
VERTEX
  8
0100LEVEL
 62
13
 10
1061.000
 20
396.500
 30
5127.000
 70
    32
  0
VERTEX
  8
0100LEVEL
 62
13
 10
1042.500
 20
384.700
 30
5127.000
 70
    32
  0
VERTEX
  8
0100LEVEL
 62
13
 10
956.600
 20
382.400
 30
5127.000
 70
    32
  0
VERTEX
  8
0100LEVEL
 62
13
 10
946.200
 20
374.700
 30
5127.000
 70
    32
  0
VERTEX
  8
0100LEVEL
 62
13
 10
944.700
 20
361.900
 30
5127.000
 70
    32
  0
VERTEX
  8
0100LEVEL
 62
13
 10
952.700
 20
315.100
 30
5127.000
 70
    32
  0
VERTEX
  8
0100LEVEL
 62
13
 10
930.900
 20
309.200
 30
5127.000
 70
    32
  0
VERTEX
  8
0100LEVEL
 62
13
 10
959.900
 20
231.400
 30
5127.000
 70
    32
  0
VERTEX
  8
0100LEVEL
 62
13
 10
976.500
 20
150.500
 30
5127.000
 70
    32
  0
VERTEX
  8
0100LEVEL
 62
13
 10
990.100
 20
146.600
 30
5127.000
 70
    32
  0
VERTEX
  8
0100LEVEL
 62
13
 10
1001.500
 20
155.000
 30
5127.000
 70
    32
  0
VERTEX
  8
0100LEVEL
 62
13
 10
1020.000
 20
233.700
 30
5127.000
 70
    32
  0
VERTEX
  8
0100LEVEL
 62
13
 10
1036.800
 20
268.100
 30
5127.000
 70
    32
  0
VERTEX
  8
0100LEVEL
 62
13
 10
1056.400
 20
287.800
 30
5127.000
 70
    32
  0
VERTEX
  8
0100LEVEL
 62
13
 10
1100.000
 20
284.700
 30
5127.000
 70
    32
  0
VERTEX
  8
0100LEVEL
 62
13
 10
1130.600
 20
252.200
 30
5127.000
 70
    32
  0
VERTEX
  8
0100LEVEL
 62
13
 10
1149.600
 20
269.700
 30
5127.000
 70
    32
  0
VERTEX
  8
0100LEVEL
 62
13
 10
1160.900
 20
299.000
 30
5127.000
 70
    32
  0
VERTEX
  8
0100LEVEL
 62
13
 10
1168.000
 20
362.900
 30
5127.000
 70
    32
  0
VERTEX
  8
0100LEVEL
 62
13
 10
1210.100
 20
497.100
 30
5127.000
 70
    32
  0
VERTEX
  8
0100LEVEL
 62
13
 10
1229.200
 20
510.300
 30
5127.000
 70
    32
  0
VERTEX
  8
0100LEVEL
 62
13
 10
1240.900
 20
509.200
 30
5127.000
 70
    32
  0
VERTEX
  8
0100LEVEL
 62
13
 10
1257.700
 20
490.600
 30
5127.000
 70
    32
  0
VERTEX
  8
0100LEVEL
 62
13
 10
1341.400
 20
723.100
 30
5127.000
 70
    32
  0
VERTEX
  8
0100LEVEL
 62
13
 10
1526.300
 20
1142.400
 30
5127.000
 70
    32
  0
VERTEX
  8
0100LEVEL
 62
13
 10
1573.100
 20
1232.100
 30
5127.000
 70
    32
  0
VERTEX
  8
0100LEVEL
 62
13
 10
1783.300
 20
1579.200
 30
5127.000
 70
    32
  0
SEQEND
  8
0100LEVEL
  0
POLYLINE
  8
0100LEVEL
 62
5
 66
     1
 70
     9
  0
VERTEX
  8
0100LEVEL
 62
5
 10
1061.402
 20
-1191.906
 30
5127.000
 70
    32
  0
VERTEX
  8
0100LEVEL
 62
5
 10
1015.596
 20
-1072.706
 30
5127.000
 70
    32
  0
VERTEX
  8
0100LEVEL
 62
5
 10
1014.200
 20
-1036.982
 30
5127.000
 70
    32
  0
VERTEX
  8
0100LEVEL
 62
5
 10
991.967
 20
-966.736
 30
5127.000
 70
    32
  0
VERTEX
  8
0100LEVEL
 62
5
 10
989.691
 20
-923.873
 30
5127.000
 70
    32
  0
VERTEX
  8
0100LEVEL
 62
5
 10
992.639
 20
-917.835
 30
5127.000
 70
    32
  0
VERTEX
  8
0100LEVEL
 62
5
 10
1006.854
 20
-930.817
 30
5127.000
 70
    32
  0
VERTEX
  8
0100LEVEL
 62
5
 10
1034.745
 20
-1087.712
 30
5127.000
 70
    32
  0
VERTEX
  8
0100LEVEL
 62
5
 10
1097.450
 20
-1233.067
 30
5127.000
 70
    32
  0
VERTEX
  8
0100LEVEL
 62
5
 10
1102.679
 20
-1249.139
 30
5127.000
 70
    32
  0
VERTEX
  8
0100LEVEL
 62
5
 10
1091.487
 20
-1255.134
 30
5127.000
 70
    32
  0
SEQEND
  8
0100LEVEL
  0
POLYLINE
  8
0100LEVEL
 62
5
 66
     1
 70
     9
  0
VERTEX
  8
0100LEVEL
 62
5
 10
928.903
 20
-374.268
 30
5127.000
 70
    32
  0
VERTEX
  8
0100LEVEL
 62
5
 10
941.049
 20
-293.664
 30
5127.000
 70
    32
  0
VERTEX
  8
0100LEVEL
 62
5
 10
939.826
 20
-224.963
 30
5127.000
 70
    32
  0
VERTEX
  8
0100LEVEL
 62
5
 10
947.105
 20
-208.853
 30
5127.000
 70
    32
  0
VERTEX
  8
0100LEVEL
 62
5
 10
946.488
 20
-340.273
 30
5127.000
 70
    32
  0
VERTEX
  8
0100LEVEL
 62
5
 10
931.758
 20
-430.973
 30
5127.000
 70
    32
  0
VERTEX
  8
0100LEVEL
 62
5
 10
924.776
 20
-435.629
 30
5127.000
 70
    32
  0
VERTEX
  8
0100LEVEL
 62
5
 10
930.711
 20
-385.053
 30
5127.000
 70
    32
  0
SEQEND
  8
0100LEVEL
  0
POLYLINE
  8
0100LEVEL
 62
5
 66
     1
 70
     9
  0
VERTEX
  8
0100LEVEL
 62
5
 10
397.638
 20
-279.914
 30
5127.000
 70
    32
  0
VERTEX
  8
0100LEVEL
 62
5
 10
445.549
 20
-423.948
 30
5127.000
 70
    32
  0
VERTEX
  8
0100LEVEL
 62
5
 10
492.305
 20
-596.055
 30
5127.000
 70
    32
  0
VERTEX
  8
0100LEVEL
 62
5
 10
494.391
 20
-627.386
 30
5127.000
 70
    32
  0
VERTEX
  8
0100LEVEL
 62
5
 10
465.401
 20
-581.082
 30
5127.000
 70
    32
  0
VERTEX
  8
0100LEVEL
 62
5
 10
438.059
 20
-460.528
 30
5127.000
 70
    32
  0
VERTEX
  8
0100LEVEL
 62
5
 10
383.571
 20
-286.708
 30
5127.000
 70
    32
  0
SEQEND
  8
0100LEVEL
  0
POLYLINE
  8
0100LEVEL
 62
5
 66
     1
 70
     9
  0
VERTEX
  8
0100LEVEL
 62
5
 10
913.588
 20
-1418.496
 30
5127.000
 70
    32
  0
VERTEX
  8
0100LEVEL
 62
5
 10
751.935
 20
-1030.307
 30
5127.000
 70
    32
  0
VERTEX
  8
0100LEVEL
 62
5
 10
759.385
 20
-1021.256
 30
5127.000
 70
    32
  0
VERTEX
  8
0100LEVEL
 62
5
 10
731.000
 20
-936.043
 30
5127.000
 70
    32
  0
VERTEX
  8
0100LEVEL
 62
5
 10
720.205
 20
-928.348
 30
5127.000
 70
    32
  0
VERTEX
  8
0100LEVEL
 62
5
 10
747.777
 20
-1021.935
 30
5127.000
 70
    32
  0
VERTEX
  8
0100LEVEL
 62
5
 10
739.313
 20
-1032.859
 30
5127.000
 70
    32
  0
VERTEX
  8
0100LEVEL
 62
5
 10
901.013
 20
-1428.525
 30
5127.000
 70
    32
  0
SEQEND
  8
0100LEVEL
  0
POLYLINE
  8
0100LEVEL
 62
5
 66
     1
 70
     9
  0
VERTEX
  8
0100LEVEL
 62
5
 10
634.443
 20
-1052.660
 30
5127.000
 70
    32
  0
VERTEX
  8
0100LEVEL
 62
5
 10
601.129
 20
-970.173
 30
5127.000
 70
    32
  0
VERTEX
  8
0100LEVEL
 62
5
 10
598.848
 20
-922.560
 30
5127.000
 70
    32
  0
VERTEX
  8
0100LEVEL
 62
5
 10
566.197
 20
-756.167
 30
5127.000
 70
    32
  0
VERTEX
  8
0100LEVEL
 62
5
 10
564.495
 20
-722.395
 30
5127.000
 70
    32
  0
VERTEX
  8
0100LEVEL
 62
5
 10
578.309
 20
-718.812
 30
5127.000
 70
    32
  0
VERTEX
  8
0100LEVEL
 62
5
 10
594.240
 20
-779.819
 30
5127.000
 70
    32
  0
VERTEX
  8
0100LEVEL
 62
5
 10
596.200
 20
-840.634
 30
5127.000
 70
    32
  0
VERTEX
  8
0100LEVEL
 62
5
 10
615.380
 20
-914.402
 30
5127.000
 70
    32
  0
VERTEX
  8
0100LEVEL
 62
5
 10
614.431
 20
-968.260
 30
5127.000
 70
    32
  0
VERTEX
  8
0100LEVEL
 62
5
 10
646.367
 20
-1059.531
 30
5127.000
 70
    32
  0
SEQEND
  8
0100LEVEL
  0
POLYLINE
  8
0100LEVEL
 62
5
 66
     1
 70
     9
  0
VERTEX
  8
0100LEVEL
 62
5
 10
372.977
 20
-300.048
 30
5127.000
 70
    32
  0
VERTEX
  8
0100LEVEL
 62
5
 10
459.515
 20
-602.662
 30
5127.000
 70
    32
  0
VERTEX
  8
0100LEVEL
 62
5
 10
472.619
 20
-635.472
 30
5127.000
 70
    32
  0
VERTEX
  8
0100LEVEL
 62
5
 10
498.716
 20
-638.066
 30
5127.000
 70
    32
  0
VERTEX
  8
0100LEVEL
 62
5
 10
516.007
 20
-671.283
 30
5127.000
 70
    32
  0
VERTEX
  8
0100LEVEL
 62
5
 10
593.808
 20
-969.025
 30
5127.000
 70
    32
  0
VERTEX
  8
0100LEVEL
 62
5
 10
578.114
 20
-967.063
 30
5127.000
 70
    32
  0
VERTEX
  8
0100LEVEL
 62
5
 10
560.801
 20
-884.586
 30
5127.000
 70
    32
  0
VERTEX
  8
0100LEVEL
 62
5
 10
484.705
 20
-650.870
 30
5127.000
 70
    32
  0
VERTEX
  8
0100LEVEL
 62
5
 10
457.241
 20
-641.060
 30
5127.000
 70
    32
  0
VERTEX
  8
0100LEVEL
 62
5
 10
443.734
 20
-617.188
 30
5127.000
 70
    32
  0
VERTEX
  8
0100LEVEL
 62
5
 10
353.210
 20
-309.699
 30
5127.000
 70
    32
  0
SEQEND
  8
0100LEVEL
  0
POLYLINE
  8
0100LEVEL
 62
5
 66
     1
 70
     9
  0
VERTEX
  8
0100LEVEL
 62
5
 10
243.882
 20
-313.298
 30
5127.000
 70
    32
  0
VERTEX
  8
0100LEVEL
 62
5
 10
289.635
 20
-456.744
 30
5127.000
 70
    32
  0
VERTEX
  8
0100LEVEL
 62
5
 10
311.707
 20
-441.954
 30
5127.000
 70
    32
  0
VERTEX
  8
0100LEVEL
 62
5
 10
335.856
 20
-448.994
 30
5127.000
 70
    32
  0
VERTEX
  8
0100LEVEL
 62
5
 10
458.261
 20
-765.235
 30
5127.000
 70
    32
  0
VERTEX
  8
0100LEVEL
 62
5
 10
478.474
 20
-845.166
 30
5127.000
 70
    32
  0
VERTEX
  8
0100LEVEL
 62
5
 10
531.653
 20
-992.277
 30
5127.000
 70
    32
  0
VERTEX
  8
0100LEVEL
 62
5
 10
611.395
 20
-1199.563
 30
5127.000
 70
    32
  0
VERTEX
  8
0100LEVEL
 62
5
 10
650.767
 20
-1278.499
 30
5127.000
 70
    32
  0
VERTEX
  8
0100LEVEL
 62
5
 10
662.277
 20
-1361.315
 30
5127.000
 70
    32
  0
VERTEX
  8
0100LEVEL
 62
5
 10
680.812
 20
-1405.728
 30
5127.000
 70
    32
  0
VERTEX
  8
0100LEVEL
 62
5
 10
678.969
 20
-1412.690
 30
5127.000
 70
    32
  0
VERTEX
  8
0100LEVEL
 62
5
 10
671.160
 20
-1411.465
 30
5127.000
 70
    32
  0
VERTEX
  8
0100LEVEL
 62
5
 10
677.815
 20
-1440.762
 30
5127.000
 70
    32
  0
VERTEX
  8
0100LEVEL
 62
5
 10
663.762
 20
-1436.307
 30
5127.000
 70
    32
  0
VERTEX
  8
0100LEVEL
 62
5
 10
629.788
 20
-1361.218
 30
5127.000
 70
    32
  0
VERTEX
  8
0100LEVEL
 62
5
 10
552.077
 20
-1235.011
 30
5127.000
 70
    32
  0
VERTEX
  8
0100LEVEL
 62
5
 10
378.950
 20
-684.283
 30
5127.000
 70
    32
  0
VERTEX
  8
0100LEVEL
 62
5
 10
293.266
 20
-467.064
 30
5127.000
 70
    32
  0
VERTEX
  8
0100LEVEL
 62
5
 10
279.471
 20
-464.150
 30
5127.000
 70
    32
  0
VERTEX
  8
0100LEVEL
 62
5
 10
269.596
 20
-450.599
 30
5127.000
 70
    32
  0
VERTEX
  8
0100LEVEL
 62
5
 10
227.694
 20
-332.011
 30
5127.000
 70
    32
  0
SEQEND
  8
0100LEVEL
  0
POLYLINE
  8
0100LEVEL
 62
5
 66
     1
 70
     9
  0
VERTEX
  8
0100LEVEL
 62
5
 10
578.108
 20
-1776.663
 30
5127.000
 70
    32
  0
VERTEX
  8
0100LEVEL
 62
5
 10
427.964
 20
-1379.059
 30
5127.000
 70
    32
  0
VERTEX
  8
0100LEVEL
 62
5
 10
388.367
 20
-1148.569
 30
5127.000
 70
    32
  0
VERTEX
  8
0100LEVEL
 62
5
 10
383.237
 20
-1023.498
 30
5127.000
 70
    32
  0
VERTEX
  8
0100LEVEL
 62
5
 10
371.511
 20
-956.400
 30
5127.000
 70
    32
  0
VERTEX
  8
0100LEVEL
 62
5
 10
327.367
 20
-777.203
 30
5127.000
 70
    32
  0
VERTEX
  8
0100LEVEL
 62
5
 10
208.218
 20
-401.964
 30
5127.000
 70
    32
  0
VERTEX
  8
0100LEVEL
 62
5
 10
195.342
 20
-393.193
 30
5127.000
 70
    32
  0
VERTEX
  8
0100LEVEL
 62
5
 10
308.951
 20
-775.063
 30
5127.000
 70
    32
  0
VERTEX
  8
0100LEVEL
 62
5
 10
334.741
 20
-911.877
 30
5127.000
 70
    32
  0
VERTEX
  8
0100LEVEL
 62
5
 10
352.378
 20
-1062.412
 30
5127.000
 70
    32
  0
VERTEX
  8
0100LEVEL
 62
5
 10
394.962
 20
-1248.366
 30
5127.000
 70
    32
  0
VERTEX
  8
0100LEVEL
 62
5
 10
400.463
 20
-1305.736
 30
5127.000
 70
    32
  0
VERTEX
  8
0100LEVEL
 62
5
 10
395.663
 20
-1334.736
 30
5127.000
 70
    32
  0
VERTEX
  8
0100LEVEL
 62
5
 10
387.166
 20
-1312.401
 30
5127.000
 70
    32
  0
VERTEX
  8
0100LEVEL
 62
5
 10
383.226
 20
-1222.771
 30
5127.000
 70
    32
  0
VERTEX
  8
0100LEVEL
 62
5
 10
338.200
 20
-1087.441
 30
5127.000
 70
    32
  0
VERTEX
  8
0100LEVEL
 62
5
 10
311.430
 20
-1052.487
 30
5127.000
 70
    32
  0
VERTEX
  8
0100LEVEL
 62
5
 10
270.771
 20
-970.599
 30
5127.000
 70
    32
  0
VERTEX
  8
0100LEVEL
 62
5
 10
323.204
 20
-1090.589
 30
5127.000
 70
    32
  0
VERTEX
  8
0100LEVEL
 62
5
 10
363.812
 20
-1277.983
 30
5127.000
 70
    32
  0
VERTEX
  8
0100LEVEL
 62
5
 10
363.522
 20
-1375.449
 30
5127.000
 70
    32
  0
VERTEX
  8
0100LEVEL
 62
5
 10
388.218
 20
-1469.835
 30
5127.000
 70
    32
  0
VERTEX
  8
0100LEVEL
 62
5
 10
515.900
 20
-1798.657
 30
5127.000
 70
    32
  0
SEQEND
  8
0100LEVEL
  0
POLYLINE
  8
0100LEVEL
 62
5
 66
     1
 70
     9
  0
VERTEX
  8
0100LEVEL
 62
5
 10
941.519
 20
-1643.656
 30
5127.000
 70
    32
  0
VERTEX
  8
0100LEVEL
 62
5
 10
928.147
 20
-1599.803
 30
5127.000
 70
    32
  0
VERTEX
  8
0100LEVEL
 62
5
 10
892.847
 20
-1534.757
 30
5127.000
 70
    32
  0
VERTEX
  8
0100LEVEL
 62
5
 10
889.798
 20
-1543.030
 30
5127.000
 70
    32
  0
VERTEX
  8
0100LEVEL
 62
5
 10
928.686
 20
-1652.144
 30
5127.000
 70
    32
  0
SEQEND
  8
0100LEVEL
  0
POLYLINE
  8
0100LEVEL
 62
5
 66
     1
 70
     9
  0
VERTEX
  8
0100LEVEL
 62
5
 10
681.775
 20
-1208.354
 30
5127.000
 70
    32
  0
VERTEX
  8
0100LEVEL
 62
5
 10
682.483
 20
-1197.464
 30
5127.000
 70
    32
  0
VERTEX
  8
0100LEVEL
 62
5
 10
626.863
 20
-1100.977
 30
5127.000
 70
    32
  0
VERTEX
  8
0100LEVEL
 62
5
 10
602.419
 20
-1028.883
 30
5127.000
 70
    32
  0
VERTEX
  8
0100LEVEL
 62
5
 10
578.505
 20
-1025.131
 30
5127.000
 70
    32
  0
VERTEX
  8
0100LEVEL
 62
5
 10
569.529
 20
-1012.221
 30
5127.000
 70
    32
  0
VERTEX
  8
0100LEVEL
 62
5
 10
503.902
 20
-794.649
 30
5127.000
 70
    32
  0
VERTEX
  8
0100LEVEL
 62
5
 10
427.863
 20
-617.948
 30
5127.000
 70
    32
  0
VERTEX
  8
0100LEVEL
 62
5
 10
418.375
 20
-606.708
 30
5127.000
 70
    32
  0
VERTEX
  8
0100LEVEL
 62
5
 10
419.930
 20
-620.704
 30
5127.000
 70
    32
  0
VERTEX
  8
0100LEVEL
 62
5
 10
503.983
 20
-824.415
 30
5127.000
 70
    32
  0
VERTEX
  8
0100LEVEL
 62
5
 10
561.806
 20
-1020.011
 30
5127.000
 70
    32
  0
VERTEX
  8
0100LEVEL
 62
5
 10
578.260
 20
-1037.844
 30
5127.000
 70
    32
  0
VERTEX
  8
0100LEVEL
 62
5
 10
596.649
 20
-1036.979
 30
5127.000
 70
    32
  0
VERTEX
  8
0100LEVEL
 62
5
 10
619.374
 20
-1112.053
 30
5127.000
 70
    32
  0
VERTEX
  8
0100LEVEL
 62
5
 10
652.593
 20
-1176.023
 30
5127.000
 70
    32
  0
VERTEX
  8
0100LEVEL
 62
5
 10
681.380
 20
-1277.801
 30
5127.000
 70
    32
  0
VERTEX
  8
0100LEVEL
 62
5
 10
690.750
 20
-1379.034
 30
5127.000
 70
    32
  0
VERTEX
  8
0100LEVEL
 62
5
 10
704.884
 20
-1387.752
 30
5127.000
 70
    32
  0
VERTEX
  8
0100LEVEL
 62
5
 10
706.263
 20
-1378.967
 30
5127.000
 70
    32
  0
VERTEX
  8
0100LEVEL
 62
5
 10
701.844
 20
-1298.764
 30
5127.000
 70
    32
  0
SEQEND
  8
0100LEVEL
  0
POLYLINE
  8
0100LEVEL
 62
5
 66
     1
 70
     9
  0
VERTEX
  8
0100LEVEL
 62
5
 10
1328.139
 20
-1265.510
 30
5127.000
 70
    32
  0
VERTEX
  8
0100LEVEL
 62
5
 10
1294.495
 20
-1186.722
 30
5127.000
 70
    32
  0
VERTEX
  8
0100LEVEL
 62
5
 10
1216.741
 20
-1043.257
 30
5127.000
 70
    32
  0
VERTEX
  8
0100LEVEL
 62
5
 10
1239.191
 20
-1046.779
 30
5127.000
 70
    32
  0
VERTEX
  8
0100LEVEL
 62
5
 10
1268.386
 20
-1118.868
 30
5127.000
 70
    32
  0
VERTEX
  8
0100LEVEL
 62
5
 10
1354.187
 20
-1271.597
 30
5127.000
 70
    32
  0
SEQEND
  8
0100LEVEL
  0
POLYLINE
  8
0100LEVEL
 62
5
 66
     1
 70
     9
  0
VERTEX
  8
0100LEVEL
 62
5
 10
564.465
 20
-1533.742
 30
5127.000
 70
    32
  0
VERTEX
  8
0100LEVEL
 62
5
 10
475.471
 20
-1267.498
 30
5127.000
 70
    32
  0
VERTEX
  8
0100LEVEL
 62
5
 10
485.454
 20
-1207.056
 30
5127.000
 70
    32
  0
VERTEX
  8
0100LEVEL
 62
5
 10
447.199
 20
-1062.037
 30
5127.000
 70
    32
  0
VERTEX
  8
0100LEVEL
 62
5
 10
447.775
 20
-994.619
 30
5127.000
 70
    32
  0
VERTEX
  8
0100LEVEL
 62
5
 10
496.471
 20
-1127.275
 30
5127.000
 70
    32
  0
VERTEX
  8
0100LEVEL
 62
5
 10
515.191
 20
-1203.971
 30
5127.000
 70
    32
  0
VERTEX
  8
0100LEVEL
 62
5
 10
508.539
 20
-1255.934
 30
5127.000
 70
    32
  0
VERTEX
  8
0100LEVEL
 62
5
 10
639.349
 20
-1631.752
 30
5127.000
 70
    32
  0
VERTEX
  8
0100LEVEL
 62
5
 10
689.327
 20
-1604.839
 30
5127.000
 70
    32
  0
VERTEX
  8
0100LEVEL
 62
5
 10
600.236
 20
-1371.083
 30
5127.000
 70
    32
  0
VERTEX
  8
0100LEVEL
 62
5
 10
559.008
 20
-1284.855
 30
5127.000
 70
    32
  0
VERTEX
  8
0100LEVEL
 62
5
 10
457.409
 20
-944.374
 30
5127.000
 70
    32
  0
VERTEX
  8
0100LEVEL
 62
5
 10
376.112
 20
-723.093
 30
5127.000
 70
    32
  0
VERTEX
  8
0100LEVEL
 62
5
 10
224.928
 20
-365.581
 30
5127.000
 70
    32
  0
VERTEX
  8
0100LEVEL
 62
5
 10
214.185
 20
-384.648
 30
5127.000
 70
    32
  0
VERTEX
  8
0100LEVEL
 62
5
 10
315.202
 20
-681.033
 30
5127.000
 70
    32
  0
VERTEX
  8
0100LEVEL
 62
5
 10
353.524
 20
-841.564
 30
5127.000
 70
    32
  0
VERTEX
  8
0100LEVEL
 62
5
 10
407.057
 20
-957.727
 30
5127.000
 70
    32
  0
VERTEX
  8
0100LEVEL
 62
5
 10
431.481
 20
-1194.088
 30
5127.000
 70
    32
  0
VERTEX
  8
0100LEVEL
 62
5
 10
441.048
 20
-1392.479
 30
5127.000
 70
    32
  0
VERTEX
  8
0100LEVEL
 62
5
 10
512.100
 20
-1561.099
 30
5127.000
 70
    32
  0
VERTEX
  8
0100LEVEL
 62
5
 10
578.973
 20
-1715.784
 30
5127.000
 70
    32
  0
SEQEND
  8
0100LEVEL
  0
POLYLINE
  8
0100LEVEL
 62
5
 66
     1
 70
     9
  0
VERTEX
  8
0100LEVEL
 62
5
 10
932.311
 20
-1393.180
 30
5127.000
 70
    32
  0
VERTEX
  8
0100LEVEL
 62
5
 10
832.475
 20
-1122.735
 30
5127.000
 70
    32
  0
VERTEX
  8
0100LEVEL
 62
5
 10
794.591
 20
-1042.282
 30
5127.000
 70
    32
  0
VERTEX
  8
0100LEVEL
 62
5
 10
807.028
 20
-1021.980
 30
5127.000
 70
    32
  0
VERTEX
  8
0100LEVEL
 62
5
 10
744.427
 20
-904.645
 30
5127.000
 70
    32
  0
VERTEX
  8
0100LEVEL
 62
5
 10
654.718
 20
-695.546
 30
5127.000
 70
    32
  0
VERTEX
  8
0100LEVEL
 62
5
 10
575.510
 20
-535.850
 30
5127.000
 70
    32
  0
VERTEX
  8
0100LEVEL
 62
5
 10
635.786
 20
-690.840
 30
5127.000
 70
    32
  0
VERTEX
  8
0100LEVEL
 62
5
 10
624.976
 20
-693.880
 30
5127.000
 70
    32
  0
VERTEX
  8
0100LEVEL
 62
5
 10
562.715
 20
-556.846
 30
5127.000
 70
    32
  0
VERTEX
  8
0100LEVEL
 62
5
 10
508.895
 20
-410.634
 30
5127.000
 70
    32
  0
VERTEX
  8
0100LEVEL
 62
5
 10
441.477
 20
-277.791
 30
5127.000
 70
    32
  0
VERTEX
  8
0100LEVEL
 62
5
 10
367.577
 20
-57.171
 30
5127.000
 70
    32
  0
VERTEX
  8
0100LEVEL
 62
5
 10
393.459
 20
-49.980
 30
5127.000
 70
    32
  0
VERTEX
  8
0100LEVEL
 62
5
 10
408.916
 20
-125.164
 30
5127.000
 70
    32
  0
VERTEX
  8
0100LEVEL
 62
5
 10
494.386
 20
-338.987
 30
5127.000
 70
    32
  0
VERTEX
  8
0100LEVEL
 62
5
 10
500.619
 20
-351.829
 30
5127.000
 70
    32
  0
VERTEX
  8
0100LEVEL
 62
5
 10
473.594
 20
-238.825
 30
5127.000
 70
    32
  0
VERTEX
  8
0100LEVEL
 62
5
 10
452.489
 20
-35.489
 30
5127.000
 70
    32
  0
VERTEX
  8
0100LEVEL
 62
5
 10
482.017
 20
-27.370
 30
5127.000
 70
    32
  0
VERTEX
  8
0100LEVEL
 62
5
 10
505.067
 20
-277.267
 30
5127.000
 70
    32
  0
VERTEX
  8
0100LEVEL
 62
5
 10
527.978
 20
-384.625
 30
5127.000
 70
    32
  0
VERTEX
  8
0100LEVEL
 62
5
 10
821.904
 20
-1027.565
 30
5127.000
 70
    32
  0
VERTEX
  8
0100LEVEL
 62
5
 10
810.487
 20
-1039.775
 30
5127.000
 70
    32
  0
VERTEX
  8
0100LEVEL
 62
5
 10
942.838
 20
-1389.831
 30
5127.000
 70
    32
  0
SEQEND
  8
0100LEVEL
  0
ENDSEC
  0
EOF
