999
********************************
999
*   DXF File - Entities Only   *
999
*        3D Data Format        *
999
*     Output from ENVISAGE     *
999
*     28-Dec-2007 13:47:52     *
999
********************************
  0
SECTION 
  2
HEADER
  9
$ACADVER
  1
AC1009
  9
$EXTMIN
 10
-290000.000
 20
-250000.000
 30
-4000.000
  9
$EXTMAX
 10
5000000.000
 20
600000.000
 30
6000.000
  0
ENDSEC
  0
SECTION
  2
ENTITIES
  0
LINE
  8
1100LEVEL
 62
5
 10
3982.794
 20
-1363.809
 30
4127.000
 11
4000.151
 21
-1446.654
 31
4127.000
  0
POLYLINE
  8
1100LEVEL
 62
5
 66
     1
 70
     9
  0
VERTEX
  8
1100LEVEL
 62
5
 10
2211.908
 20
-208.351
 30
4127.000
 70
    32
  0
VERTEX
  8
1100LEVEL
 62
5
 10
2181.247
 20
-229.024
 30
4127.000
 70
    32
  0
VERTEX
  8
1100LEVEL
 62
5
 10
2136.970
 20
-257.289
 30
4127.000
 70
    32
  0
VERTEX
  8
1100LEVEL
 62
5
 10
2098.526
 20
-273.145
 30
4127.000
 70
    32
  0
VERTEX
  8
1100LEVEL
 62
5
 10
2056.219
 20
-278.776
 30
4127.000
 70
    32
  0
VERTEX
  8
1100LEVEL
 62
5
 10
2018.953
 20
-289.023
 30
4127.000
 70
    32
  0
VERTEX
  8
1100LEVEL
 62
5
 10
2055.717
 20
-298.625
 30
4127.000
 70
    32
  0
VERTEX
  8
1100LEVEL
 62
5
 10
2097.819
 20
-292.708
 30
4127.000
 70
    32
  0
VERTEX
  8
1100LEVEL
 62
5
 10
2135.772
 20
-276.771
 30
4127.000
 70
    32
  0
VERTEX
  8
1100LEVEL
 62
5
 10
2185.071
 20
-241.009
 30
4127.000
 70
    32
  0
VERTEX
  8
1100LEVEL
 62
5
 10
2223.215
 20
-216.273
 30
4127.000
 70
    32
  0
SEQEND
  8
1100LEVEL
  0
POLYLINE
  8
1100LEVEL
 62
5
 66
     1
 70
     9
  0
VERTEX
  8
1100LEVEL
 62
5
 10
2720.642
 20
-1036.113
 30
4127.000
 70
    32
  0
VERTEX
  8
1100LEVEL
 62
5
 10
2686.136
 20
-1110.648
 30
4127.000
 70
    32
  0
VERTEX
  8
1100LEVEL
 62
5
 10
2716.624
 20
-1136.875
 30
4127.000
 70
    32
  0
VERTEX
  8
1100LEVEL
 62
5
 10
2747.415
 20
-1068.034
 30
4127.000
 70
    32
  0
SEQEND
  8
1100LEVEL
  0
POLYLINE
  8
1100LEVEL
 62
5
 66
     1
 70
     9
  0
VERTEX
  8
1100LEVEL
 62
5
 10
1698.696
 20
-537.148
 30
4127.000
 70
    32
  0
VERTEX
  8
1100LEVEL
 62
5
 10
1740.121
 20
-516.991
 30
4127.000
 70
    32
  0
VERTEX
  8
1100LEVEL
 62
5
 10
1762.661
 20
-484.381
 30
4127.000
 70
    32
  0
VERTEX
  8
1100LEVEL
 62
5
 10
1760.020
 20
-443.829
 30
4127.000
 70
    32
  0
VERTEX
  8
1100LEVEL
 62
5
 10
1792.427
 20
-414.109
 30
4127.000
 70
    32
  0
VERTEX
  8
1100LEVEL
 62
5
 10
1853.849
 20
-384.385
 30
4127.000
 70
    32
  0
VERTEX
  8
1100LEVEL
 62
5
 10
1908.908
 20
-368.749
 30
4127.000
 70
    32
  0
VERTEX
  8
1100LEVEL
 62
5
 10
1942.564
 20
-352.860
 30
4127.000
 70
    32
  0
VERTEX
  8
1100LEVEL
 62
5
 10
1965.634
 20
-318.571
 30
4127.000
 70
    32
  0
VERTEX
  8
1100LEVEL
 62
5
 10
1998.146
 20
-277.515
 30
4127.000
 70
    32
  0
VERTEX
  8
1100LEVEL
 62
5
 10
1996.315
 20
-258.038
 30
4127.000
 70
    32
  0
VERTEX
  8
1100LEVEL
 62
5
 10
1967.891
 20
-269.745
 30
4127.000
 70
    32
  0
VERTEX
  8
1100LEVEL
 62
5
 10
1951.861
 20
-304.187
 30
4127.000
 70
    32
  0
VERTEX
  8
1100LEVEL
 62
5
 10
1935.817
 20
-329.544
 30
4127.000
 70
    32
  0
VERTEX
  8
1100LEVEL
 62
5
 10
1901.341
 20
-344.288
 30
4127.000
 70
    32
  0
VERTEX
  8
1100LEVEL
 62
5
 10
1862.444
 20
-358.303
 30
4127.000
 70
    32
  0
VERTEX
  8
1100LEVEL
 62
5
 10
1803.225
 20
-383.850
 30
4127.000
 70
    32
  0
VERTEX
  8
1100LEVEL
 62
5
 10
1767.819
 20
-405.758
 30
4127.000
 70
    32
  0
VERTEX
  8
1100LEVEL
 62
5
 10
1736.051
 20
-425.491
 30
4127.000
 70
    32
  0
VERTEX
  8
1100LEVEL
 62
5
 10
1739.088
 20
-457.530
 30
4127.000
 70
    32
  0
VERTEX
  8
1100LEVEL
 62
5
 10
1736.021
 20
-485.281
 30
4127.000
 70
    32
  0
VERTEX
  8
1100LEVEL
 62
5
 10
1708.764
 20
-511.310
 30
4127.000
 70
    32
  0
VERTEX
  8
1100LEVEL
 62
5
 10
1701.453
 20
-520.447
 30
4127.000
 70
    32
  0
SEQEND
  8
1100LEVEL
  0
POLYLINE
  8
1100LEVEL
 62
5
 66
     1
 70
     9
  0
VERTEX
  8
1100LEVEL
 62
5
 10
1695.028
 20
-547.140
 30
4127.000
 70
    32
  0
VERTEX
  8
1100LEVEL
 62
5
 10
1678.640
 20
-588.334
 30
4127.000
 70
    32
  0
VERTEX
  8
1100LEVEL
 62
5
 10
1644.216
 20
-610.405
 30
4127.000
 70
    32
  0
VERTEX
  8
1100LEVEL
 62
5
 10
1600.922
 20
-638.832
 30
4127.000
 70
    32
  0
VERTEX
  8
1100LEVEL
 62
5
 10
1563.727
 20
-668.518
 30
4127.000
 70
    32
  0
VERTEX
  8
1100LEVEL
 62
5
 10
1509.592
 20
-699.949
 30
4127.000
 70
    32
  0
VERTEX
  8
1100LEVEL
 62
5
 10
1466.449
 20
-747.324
 30
4127.000
 70
    32
  0
VERTEX
  8
1100LEVEL
 62
5
 10
1425.271
 20
-795.023
 30
4127.000
 70
    32
  0
VERTEX
  8
1100LEVEL
 62
5
 10
1386.383
 20
-841.082
 30
4127.000
 70
    32
  0
VERTEX
  8
1100LEVEL
 62
5
 10
1344.838
 20
-889.477
 30
4127.000
 70
    32
  0
VERTEX
  8
1100LEVEL
 62
5
 10
1319.103
 20
-920.046
 30
4127.000
 70
    32
  0
VERTEX
  8
1100LEVEL
 62
5
 10
1329.474
 20
-958.089
 30
4127.000
 70
    32
  0
VERTEX
  8
1100LEVEL
 62
5
 10
1313.474
 20
-958.728
 30
4127.000
 70
    32
  0
VERTEX
  8
1100LEVEL
 62
5
 10
1292.701
 20
-916.444
 30
4127.000
 70
    32
  0
VERTEX
  8
1100LEVEL
 62
5
 10
1294.815
 20
-880.715
 30
4127.000
 70
    32
  0
VERTEX
  8
1100LEVEL
 62
5
 10
1323.192
 20
-838.724
 30
4127.000
 70
    32
  0
VERTEX
  8
1100LEVEL
 62
5
 10
1354.884
 20
-796.523
 30
4127.000
 70
    32
  0
VERTEX
  8
1100LEVEL
 62
5
 10
1403.483
 20
-757.366
 30
4127.000
 70
    32
  0
VERTEX
  8
1100LEVEL
 62
5
 10
1447.588
 20
-724.026
 30
4127.000
 70
    32
  0
VERTEX
  8
1100LEVEL
 62
5
 10
1479.237
 20
-680.557
 30
4127.000
 70
    32
  0
VERTEX
  8
1100LEVEL
 62
5
 10
1530.348
 20
-652.159
 30
4127.000
 70
    32
  0
VERTEX
  8
1100LEVEL
 62
5
 10
1574.811
 20
-638.053
 30
4127.000
 70
    32
  0
VERTEX
  8
1100LEVEL
 62
5
 10
1618.931
 20
-613.799
 30
4127.000
 70
    32
  0
VERTEX
  8
1100LEVEL
 62
5
 10
1651.862
 20
-579.372
 30
4127.000
 70
    32
  0
VERTEX
  8
1100LEVEL
 62
5
 10
1670.324
 20
-556.181
 30
4127.000
 70
    32
  0
SEQEND
  8
1100LEVEL
  0
POLYLINE
  8
1100LEVEL
 62
5
 66
     1
 70
     9
  0
VERTEX
  8
1100LEVEL
 62
5
 10
1595.026
 20
-371.934
 30
4127.000
 70
    32
  0
VERTEX
  8
1100LEVEL
 62
5
 10
1576.635
 20
-414.565
 30
4127.000
 70
    32
  0
VERTEX
  8
1100LEVEL
 62
5
 10
1570.844
 20
-480.216
 30
4127.000
 70
    32
  0
VERTEX
  8
1100LEVEL
 62
5
 10
1572.530
 20
-538.775
 30
4127.000
 70
    32
  0
VERTEX
  8
1100LEVEL
 62
5
 10
1578.156
 20
-578.054
 30
4127.000
 70
    32
  0
VERTEX
  8
1100LEVEL
 62
5
 10
1568.368
 20
-626.646
 30
4127.000
 70
    32
  0
VERTEX
  8
1100LEVEL
 62
5
 10
1556.024
 20
-689.197
 30
4127.000
 70
    32
  0
VERTEX
  8
1100LEVEL
 62
5
 10
1552.079
 20
-731.436
 30
4127.000
 70
    32
  0
VERTEX
  8
1100LEVEL
 62
5
 10
1566.856
 20
-787.111
 30
4127.000
 70
    32
  0
VERTEX
  8
1100LEVEL
 62
5
 10
1590.413
 20
-856.850
 30
4127.000
 70
    32
  0
VERTEX
  8
1100LEVEL
 62
5
 10
1611.262
 20
-921.601
 30
4127.000
 70
    32
  0
VERTEX
  8
1100LEVEL
 62
5
 10
1633.078
 20
-977.428
 30
4127.000
 70
    32
  0
VERTEX
  8
1100LEVEL
 62
5
 10
1655.873
 20
-1030.390
 30
4127.000
 70
    32
  0
VERTEX
  8
1100LEVEL
 62
5
 10
1690.170
 20
-1085.502
 30
4127.000
 70
    32
  0
VERTEX
  8
1100LEVEL
 62
5
 10
1703.042
 20
-1099.233
 30
4127.000
 70
    32
  0
VERTEX
  8
1100LEVEL
 62
5
 10
1674.656
 20
-1109.180
 30
4127.000
 70
    32
  0
VERTEX
  8
1100LEVEL
 62
5
 10
1646.296
 20
-1056.309
 30
4127.000
 70
    32
  0
VERTEX
  8
1100LEVEL
 62
5
 10
1618.713
 20
-1003.314
 30
4127.000
 70
    32
  0
VERTEX
  8
1100LEVEL
 62
5
 10
1590.582
 20
-939.885
 30
4127.000
 70
    32
  0
VERTEX
  8
1100LEVEL
 62
5
 10
1575.462
 20
-874.061
 30
4127.000
 70
    32
  0
VERTEX
  8
1100LEVEL
 62
5
 10
1560.479
 20
-818.100
 30
4127.000
 70
    32
  0
VERTEX
  8
1100LEVEL
 62
5
 10
1543.908
 20
-767.175
 30
4127.000
 70
    32
  0
VERTEX
  8
1100LEVEL
 62
5
 10
1531.186
 20
-717.391
 30
4127.000
 70
    32
  0
VERTEX
  8
1100LEVEL
 62
5
 10
1545.037
 20
-650.295
 30
4127.000
 70
    32
  0
VERTEX
  8
1100LEVEL
 62
5
 10
1544.708
 20
-649.231
 30
4127.000
 70
    32
  0
VERTEX
  8
1100LEVEL
 62
5
 10
1555.889
 20
-601.374
 30
4127.000
 70
    32
  0
VERTEX
  8
1100LEVEL
 62
5
 10
1557.373
 20
-555.700
 30
4127.000
 70
    32
  0
VERTEX
  8
1100LEVEL
 62
5
 10
1548.328
 20
-501.981
 30
4127.000
 70
    32
  0
VERTEX
  8
1100LEVEL
 62
5
 10
1558.297
 20
-438.534
 30
4127.000
 70
    32
  0
VERTEX
  8
1100LEVEL
 62
5
 10
1578.597
 20
-359.887
 30
4127.000
 70
    32
  0
SEQEND
  8
1100LEVEL
  0
POLYLINE
  8
1100LEVEL
 62
5
 66
     1
 70
     9
  0
VERTEX
  8
1100LEVEL
 62
5
 10
2565.193
 20
-2243.693
 30
4127.000
 70
    32
  0
VERTEX
  8
1100LEVEL
 62
5
 10
2589.433
 20
-2304.714
 30
4127.000
 70
    32
  0
VERTEX
  8
1100LEVEL
 62
5
 10
2577.204
 20
-2310.012
 30
4127.000
 70
    32
  0
VERTEX
  8
1100LEVEL
 62
5
 10
2552.922
 20
-2247.723
 30
4127.000
 70
    32
  0
SEQEND
  8
1100LEVEL
  0
POLYLINE
  8
1100LEVEL
 62
5
 66
     1
 70
     9
  0
VERTEX
  8
1100LEVEL
 62
5
 10
2532.729
 20
-2263.059
 30
4127.000
 70
    32
  0
VERTEX
  8
1100LEVEL
 62
5
 10
2560.040
 20
-2325.344
 30
4127.000
 70
    32
  0
VERTEX
  8
1100LEVEL
 62
5
 10
2537.386
 20
-2337.247
 30
4127.000
 70
    32
  0
VERTEX
  8
1100LEVEL
 62
5
 10
2514.611
 20
-2270.413
 30
4127.000
 70
    32
  0
SEQEND
  8
1100LEVEL
  0
POLYLINE
  8
1100LEVEL
 62
5
 66
     1
 70
     9
  0
VERTEX
  8
1100LEVEL
 62
5
 10
1265.510
 20
-851.908
 30
4127.000
 70
    32
  0
VERTEX
  8
1100LEVEL
 62
5
 10
1261.689
 20
-894.925
 30
4127.000
 70
    32
  0
VERTEX
  8
1100LEVEL
 62
5
 10
1244.829
 20
-922.166
 30
4127.000
 70
    32
  0
VERTEX
  8
1100LEVEL
 62
5
 10
1227.709
 20
-886.793
 30
4127.000
 70
    32
  0
VERTEX
  8
1100LEVEL
 62
5
 10
1203.202
 20
-838.090
 30
4127.000
 70
    32
  0
VERTEX
  8
1100LEVEL
 62
5
 10
1199.135
 20
-801.592
 30
4127.000
 70
    32
  0
VERTEX
  8
1100LEVEL
 62
5
 10
1192.760
 20
-780.608
 30
4127.000
 70
    32
  0
VERTEX
  8
1100LEVEL
 62
5
 10
1160.821
 20
-795.267
 30
4127.000
 70
    32
  0
VERTEX
  8
1100LEVEL
 62
5
 10
1129.015
 20
-816.761
 30
4127.000
 70
    32
  0
VERTEX
  8
1100LEVEL
 62
5
 10
1055.242
 20
-825.018
 30
4127.000
 70
    32
  0
VERTEX
  8
1100LEVEL
 62
5
 10
988.655
 20
-849.348
 30
4127.000
 70
    32
  0
VERTEX
  8
1100LEVEL
 62
5
 10
924.681
 20
-896.059
 30
4127.000
 70
    32
  0
VERTEX
  8
1100LEVEL
 62
5
 10
867.966
 20
-926.308
 30
4127.000
 70
    32
  0
VERTEX
  8
1100LEVEL
 62
5
 10
796.410
 20
-939.473
 30
4127.000
 70
    32
  0
VERTEX
  8
1100LEVEL
 62
5
 10
716.722
 20
-986.617
 30
4127.000
 70
    32
  0
VERTEX
  8
1100LEVEL
 62
5
 10
640.645
 20
-1013.417
 30
4127.000
 70
    32
  0
VERTEX
  8
1100LEVEL
 62
5
 10
562.092
 20
-1053.685
 30
4127.000
 70
    32
  0
VERTEX
  8
1100LEVEL
 62
5
 10
554.690
 20
-1057.256
 30
4127.000
 70
    32
  0
VERTEX
  8
1100LEVEL
 62
5
 10
496.330
 20
-1082.187
 30
4127.000
 70
    32
  0
VERTEX
  8
1100LEVEL
 62
5
 10
437.898
 20
-1139.653
 30
4127.000
 70
    32
  0
VERTEX
  8
1100LEVEL
 62
5
 10
391.336
 20
-1172.587
 30
4127.000
 70
    32
  0
VERTEX
  8
1100LEVEL
 62
5
 10
336.067
 20
-1158.922
 30
4127.000
 70
    32
  0
VERTEX
  8
1100LEVEL
 62
5
 10
279.902
 20
-1147.631
 30
4127.000
 70
    32
  0
VERTEX
  8
1100LEVEL
 62
5
 10
223.784
 20
-1166.625
 30
4127.000
 70
    32
  0
VERTEX
  8
1100LEVEL
 62
5
 10
159.614
 20
-1219.106
 30
4127.000
 70
    32
  0
VERTEX
  8
1100LEVEL
 62
5
 10
108.098
 20
-1249.961
 30
4127.000
 70
    32
  0
VERTEX
  8
1100LEVEL
 62
5
 10
48.946
 20
-1265.931
 30
4127.000
 70
    32
  0
VERTEX
  8
1100LEVEL
 62
5
 10
-19.749
 20
-1303.032
 30
4127.000
 70
    32
  0
VERTEX
  8
1100LEVEL
 62
5
 10
-101.139
 20
-1334.505
 30
4127.000
 70
    32
  0
VERTEX
  8
1100LEVEL
 62
5
 10
-188.291
 20
-1371.839
 30
4127.000
 70
    32
  0
VERTEX
  8
1100LEVEL
 62
5
 10
-252.083
 20
-1403.695
 30
4127.000
 70
    32
  0
VERTEX
  8
1100LEVEL
 62
5
 10
-283.643
 20
-1345.754
 30
4127.000
 70
    32
  0
VERTEX
  8
1100LEVEL
 62
5
 10
-233.056
 20
-1322.063
 30
4127.000
 70
    32
  0
VERTEX
  8
1100LEVEL
 62
5
 10
-174.410
 20
-1296.927
 30
4127.000
 70
    32
  0
VERTEX
  8
1100LEVEL
 62
5
 10
-91.188
 20
-1258.944
 30
4127.000
 70
    32
  0
VERTEX
  8
1100LEVEL
 62
5
 10
-4.252
 20
-1241.254
 30
4127.000
 70
    32
  0
VERTEX
  8
1100LEVEL
 62
5
 10
62.340
 20
-1193.965
 30
4127.000
 70
    32
  0
VERTEX
  8
1100LEVEL
 62
5
 10
117.547
 20
-1194.249
 30
4127.000
 70
    32
  0
VERTEX
  8
1100LEVEL
 62
5
 10
188.236
 20
-1149.655
 30
4127.000
 70
    32
  0
VERTEX
  8
1100LEVEL
 62
5
 10
266.236
 20
-1095.924
 30
4127.000
 70
    32
  0
VERTEX
  8
1100LEVEL
 62
5
 10
332.398
 20
-1087.924
 30
4127.000
 70
    32
  0
VERTEX
  8
1100LEVEL
 62
5
 10
377.951
 20
-1117.646
 30
4127.000
 70
    32
  0
VERTEX
  8
1100LEVEL
 62
5
 10
409.451
 20
-1110.232
 30
4127.000
 70
    32
  0
VERTEX
  8
1100LEVEL
 62
5
 10
428.019
 20
-1049.717
 30
4127.000
 70
    32
  0
VERTEX
  8
1100LEVEL
 62
5
 10
460.307
 20
-1022.248
 30
4127.000
 70
    32
  0
VERTEX
  8
1100LEVEL
 62
5
 10
527.537
 20
-990.961
 30
4127.000
 70
    32
  0
VERTEX
  8
1100LEVEL
 62
5
 10
608.942
 20
-942.586
 30
4127.000
 70
    32
  0
VERTEX
  8
1100LEVEL
 62
5
 10
709.504
 20
-923.360
 30
4127.000
 70
    32
  0
VERTEX
  8
1100LEVEL
 62
5
 10
793.088
 20
-881.652
 30
4127.000
 70
    32
  0
VERTEX
  8
1100LEVEL
 62
5
 10
882.700
 20
-847.752
 30
4127.000
 70
    32
  0
VERTEX
  8
1100LEVEL
 62
5
 10
987.870
 20
-791.442
 30
4127.000
 70
    32
  0
VERTEX
  8
1100LEVEL
 62
5
 10
1085.161
 20
-747.708
 30
4127.000
 70
    32
  0
VERTEX
  8
1100LEVEL
 62
5
 10
1169.498
 20
-716.721
 30
4127.000
 70
    32
  0
SEQEND
  8
1100LEVEL
  0
POLYLINE
  8
1100LEVEL
 62
5
 66
     1
 70
     9
  0
VERTEX
  8
1100LEVEL
 62
5
 10
-592.378
 20
-2483.877
 30
4127.000
 70
    32
  0
VERTEX
  8
1100LEVEL
 62
5
 10
-555.000
 20
-2546.310
 30
4127.000
 70
    32
  0
VERTEX
  8
1100LEVEL
 62
5
 10
-567.676
 20
-2552.796
 30
4127.000
 70
    32
  0
VERTEX
  8
1100LEVEL
 62
5
 10
-604.101
 20
-2498.341
 30
4127.000
 70
    32
  0
SEQEND
  8
1100LEVEL
  0
POLYLINE
  8
1100LEVEL
 62
5
 66
     1
 70
     9
  0
VERTEX
  8
1100LEVEL
 62
5
 10
1525.470
 20
-1814.204
 30
4127.000
 70
    32
  0
VERTEX
  8
1100LEVEL
 62
5
 10
1517.454
 20
-1790.930
 30
4127.000
 70
    32
  0
VERTEX
  8
1100LEVEL
 62
5
 10
1504.860
 20
-1770.938
 30
4127.000
 70
    32
  0
VERTEX
  8
1100LEVEL
 62
5
 10
1508.250
 20
-1793.195
 30
4127.000
 70
    32
  0
VERTEX
  8
1100LEVEL
 62
5
 10
1517.640
 20
-1805.090
 30
4127.000
 70
    32
  0
SEQEND
  8
1100LEVEL
  0
POLYLINE
  8
1100LEVEL
 62
5
 66
     1
 70
     9
  0
VERTEX
  8
1100LEVEL
 62
5
 10
1279.487
 20
-1025.527
 30
4127.000
 70
    32
  0
VERTEX
  8
1100LEVEL
 62
5
 10
1290.369
 20
-1075.765
 30
4127.000
 70
    32
  0
VERTEX
  8
1100LEVEL
 62
5
 10
1306.094
 20
-1162.377
 30
4127.000
 70
    32
  0
VERTEX
  8
1100LEVEL
 62
5
 10
1327.309
 20
-1252.418
 30
4127.000
 70
    32
  0
VERTEX
  8
1100LEVEL
 62
5
 10
1340.693
 20
-1333.345
 30
4127.000
 70
    32
  0
VERTEX
  8
1100LEVEL
 62
5
 10
1362.919
 20
-1415.732
 30
4127.000
 70
    32
  0
VERTEX
  8
1100LEVEL
 62
5
 10
1369.947
 20
-1487.788
 30
4127.000
 70
    32
  0
VERTEX
  8
1100LEVEL
 62
5
 10
1377.079
 20
-1548.508
 30
4127.000
 70
    32
  0
VERTEX
  8
1100LEVEL
 62
5
 10
1410.385
 20
-1597.402
 30
4127.000
 70
    32
  0
VERTEX
  8
1100LEVEL
 62
5
 10
1423.064
 20
-1645.918
 30
4127.000
 70
    32
  0
VERTEX
  8
1100LEVEL
 62
5
 10
1424.051
 20
-1675.096
 30
4127.000
 70
    32
  0
VERTEX
  8
1100LEVEL
 62
5
 10
1456.388
 20
-1732.912
 30
4127.000
 70
    32
  0
VERTEX
  8
1100LEVEL
 62
5
 10
1473.923
 20
-1771.886
 30
4127.000
 70
    32
  0
VERTEX
  8
1100LEVEL
 62
5
 10
1462.977
 20
-1786.226
 30
4127.000
 70
    32
  0
VERTEX
  8
1100LEVEL
 62
5
 10
1429.190
 20
-1743.308
 30
4127.000
 70
    32
  0
VERTEX
  8
1100LEVEL
 62
5
 10
1403.047
 20
-1695.344
 30
4127.000
 70
    32
  0
VERTEX
  8
1100LEVEL
 62
5
 10
1398.498
 20
-1664.822
 30
4127.000
 70
    32
  0
VERTEX
  8
1100LEVEL
 62
5
 10
1403.459
 20
-1643.943
 30
4127.000
 70
    32
  0
VERTEX
  8
1100LEVEL
 62
5
 10
1377.244
 20
-1602.528
 30
4127.000
 70
    32
  0
VERTEX
  8
1100LEVEL
 62
5
 10
1348.784
 20
-1564.021
 30
4127.000
 70
    32
  0
VERTEX
  8
1100LEVEL
 62
5
 10
1339.081
 20
-1508.175
 30
4127.000
 70
    32
  0
VERTEX
  8
1100LEVEL
 62
5
 10
1326.178
 20
-1421.272
 30
4127.000
 70
    32
  0
VERTEX
  8
1100LEVEL
 62
5
 10
1314.696
 20
-1353.274
 30
4127.000
 70
    32
  0
VERTEX
  8
1100LEVEL
 62
5
 10
1302.595
 20
-1281.389
 30
4127.000
 70
    32
  0
VERTEX
  8
1100LEVEL
 62
5
 10
1290.121
 20
-1207.173
 30
4127.000
 70
    32
  0
VERTEX
  8
1100LEVEL
 62
5
 10
1275.282
 20
-1138.116
 30
4127.000
 70
    32
  0
VERTEX
  8
1100LEVEL
 62
5
 10
1263.156
 20
-1077.076
 30
4127.000
 70
    32
  0
VERTEX
  8
1100LEVEL
 62
5
 10
1260.220
 20
-1030.673
 30
4127.000
 70
    32
  0
SEQEND
  8
1100LEVEL
  0
POLYLINE
  8
1100LEVEL
 62
5
 66
     1
 70
     9
  0
VERTEX
  8
1100LEVEL
 62
5
 10
1718.516
 20
-2189.956
 30
4127.000
 70
    32
  0
VERTEX
  8
1100LEVEL
 62
5
 10
1739.307
 20
-2244.353
 30
4127.000
 70
    32
  0
VERTEX
  8
1100LEVEL
 62
5
 10
1727.847
 20
-2243.471
 30
4127.000
 70
    32
  0
VERTEX
  8
1100LEVEL
 62
5
 10
1706.941
 20
-2194.353
 30
4127.000
 70
    32
  0
SEQEND
  8
1100LEVEL
  0
POLYLINE
  8
1100LEVEL
 62
5
 66
     1
 70
     9
  0
VERTEX
  8
1100LEVEL
 62
5
 10
1673.868
 20
-2163.916
 30
4127.000
 70
    32
  0
VERTEX
  8
1100LEVEL
 62
5
 10
1623.122
 20
-2110.629
 30
4127.000
 70
    32
  0
VERTEX
  8
1100LEVEL
 62
5
 10
1572.457
 20
-2056.851
 30
4127.000
 70
    32
  0
VERTEX
  8
1100LEVEL
 62
5
 10
1545.632
 20
-2017.606
 30
4127.000
 70
    32
  0
VERTEX
  8
1100LEVEL
 62
5
 10
1541.144
 20
-2026.452
 30
4127.000
 70
    32
  0
VERTEX
  8
1100LEVEL
 62
5
 10
1512.359
 20
-1989.910
 30
4127.000
 70
    32
  0
VERTEX
  8
1100LEVEL
 62
5
 10
1471.661
 20
-1950.645
 30
4127.000
 70
    32
  0
VERTEX
  8
1100LEVEL
 62
5
 10
1439.604
 20
-1915.582
 30
4127.000
 70
    32
  0
VERTEX
  8
1100LEVEL
 62
5
 10
1409.618
 20
-1869.507
 30
4127.000
 70
    32
  0
VERTEX
  8
1100LEVEL
 62
5
 10
1412.688
 20
-1896.758
 30
4127.000
 70
    32
  0
VERTEX
  8
1100LEVEL
 62
5
 10
1444.678
 20
-1941.397
 30
4127.000
 70
    32
  0
VERTEX
  8
1100LEVEL
 62
5
 10
1485.834
 20
-1985.532
 30
4127.000
 70
    32
  0
VERTEX
  8
1100LEVEL
 62
5
 10
1525.439
 20
-2032.942
 30
4127.000
 70
    32
  0
VERTEX
  8
1100LEVEL
 62
5
 10
1560.195
 20
-2066.938
 30
4127.000
 70
    32
  0
VERTEX
  8
1100LEVEL
 62
5
 10
1605.243
 20
-2113.480
 30
4127.000
 70
    32
  0
VERTEX
  8
1100LEVEL
 62
5
 10
1632.011
 20
-2142.372
 30
4127.000
 70
    32
  0
VERTEX
  8
1100LEVEL
 62
5
 10
1662.665
 20
-2170.645
 30
4127.000
 70
    32
  0
SEQEND
  8
1100LEVEL
  0
POLYLINE
  8
1100LEVEL
 62
5
 66
     1
 70
     9
  0
VERTEX
  8
1100LEVEL
 62
5
 10
1104.241
 20
-913.338
 30
4127.000
 70
    32
  0
VERTEX
  8
1100LEVEL
 62
5
 10
1110.143
 20
-998.329
 30
4127.000
 70
    32
  0
VERTEX
  8
1100LEVEL
 62
5
 10
1126.197
 20
-1111.991
 30
4127.000
 70
    32
  0
VERTEX
  8
1100LEVEL
 62
5
 10
1116.424
 20
-1143.681
 30
4127.000
 70
    32
  0
VERTEX
  8
1100LEVEL
 62
5
 10
1095.547
 20
-1086.747
 30
4127.000
 70
    32
  0
VERTEX
  8
1100LEVEL
 62
5
 10
1081.208
 20
-1023.828
 30
4127.000
 70
    32
  0
VERTEX
  8
1100LEVEL
 62
5
 10
1065.473
 20
-931.159
 30
4127.000
 70
    32
  0
SEQEND
  8
1100LEVEL
  0
POLYLINE
  8
1100LEVEL
 62
5
 66
     1
 70
     9
  0
VERTEX
  8
1100LEVEL
 62
5
 10
1094.701
 20
-1122.434
 30
4127.000
 70
    32
  0
VERTEX
  8
1100LEVEL
 62
5
 10
1088.932
 20
-1096.251
 30
4127.000
 70
    32
  0
VERTEX
  8
1100LEVEL
 62
5
 10
1077.223
 20
-1093.814
 30
4127.000
 70
    32
  0
VERTEX
  8
1100LEVEL
 62
5
 10
1085.001
 20
-1121.589
 30
4127.000
 70
    32
  0
SEQEND
  8
1100LEVEL
  0
POLYLINE
  8
1100LEVEL
 62
5
 66
     1
 70
     8
  0
VERTEX
  8
1100LEVEL
 62
5
 10
1033.944
 20
-946.391
 30
4127.000
 70
    32
  0
VERTEX
  8
1100LEVEL
 62
5
 10
1038.663
 20
-1007.974
 30
4127.000
 70
    32
  0
VERTEX
  8
1100LEVEL
 62
5
 10
1049.149
 20
-1066.725
 30
4127.000
 70
    32
  0
VERTEX
  8
1100LEVEL
 62
5
 10
1064.552
 20
-1103.328
 30
4127.000
 70
    32
  0
VERTEX
  8
1100LEVEL
 62
5
 10
1066.945
 20
-1142.325
 30
4127.000
 70
    32
  0
VERTEX
  8
1100LEVEL
 62
5
 10
1061.582
 20
-1194.675
 30
4127.000
 70
    32
  0
VERTEX
  8
1100LEVEL
 62
5
 10
1068.462
 20
-1276.799
 30
4127.000
 70
    32
  0
VERTEX
  8
1100LEVEL
 62
5
 10
1076.299
 20
-1369.930
 30
4127.000
 70
    32
  0
VERTEX
  8
1100LEVEL
 62
5
 10
1096.346
 20
-1445.649
 30
4127.000
 70
    32
  0
VERTEX
  8
1100LEVEL
 62
5
 10
1100.674
 20
-1518.774
 30
4127.000
 70
    32
  0
VERTEX
  8
1100LEVEL
 62
5
 10
1101.959
 20
-1582.818
 30
4127.000
 70
    32
  0
VERTEX
  8
1100LEVEL
 62
5
 10
1104.957
 20
-1642.603
 30
4127.000
 70
    32
  0
VERTEX
  8
1100LEVEL
 62
5
 10
1115.705
 20
-1686.007
 30
4127.000
 70
    32
  0
VERTEX
  8
1100LEVEL
 62
5
 10
1120.866
 20
-1662.386
 30
4127.000
 70
    32
  0
VERTEX
  8
1100LEVEL
 62
5
 10
1115.512
 20
-1613.817
 30
4127.000
 70
    32
  0
VERTEX
  8
1100LEVEL
 62
5
 10
1113.220
 20
-1560.456
 30
4127.000
 70
    32
  0
VERTEX
  8
1100LEVEL
 62
5
 10
1120.761
 20
-1514.773
 30
4127.000
 70
    32
  0
VERTEX
  8
1100LEVEL
 62
5
 10
1125.019
 20
-1542.472
 30
4127.000
 70
    32
  0
VERTEX
  8
1100LEVEL
 62
5
 10
1127.349
 20
-1594.074
 30
4127.000
 70
    32
  0
VERTEX
  8
1100LEVEL
 62
5
 10
1130.973
 20
-1634.787
 30
4127.000
 70
    32
  0
VERTEX
  8
1100LEVEL
 62
5
 10
1140.076
 20
-1672.874
 30
4127.000
 70
    32
  0
VERTEX
  8
1100LEVEL
 62
5
 10
1150.113
 20
-1706.825
 30
4127.000
 70
    32
  0
VERTEX
  8
1100LEVEL
 62
5
 10
1145.060
 20
-1667.137
 30
4127.000
 70
    32
  0
VERTEX
  8
1100LEVEL
 62
5
 10
1141.375
 20
-1613.041
 30
4127.000
 70
    32
  0
VERTEX
  8
1100LEVEL
 62
5
 10
1157.953
 20
-1589.034
 30
4127.000
 70
    32
  0
VERTEX
  8
1100LEVEL
 62
5
 10
1153.084
 20
-1563.505
 30
4127.000
 70
    32
  0
VERTEX
  8
1100LEVEL
 62
5
 10
1138.731
 20
-1517.487
 30
4127.000
 70
    32
  0
VERTEX
  8
1100LEVEL
 62
5
 10
1129.485
 20
-1466.510
 30
4127.000
 70
    32
  0
VERTEX
  8
1100LEVEL
 62
5
 10
1117.565
 20
-1405.756
 30
4127.000
 70
    32
  0
VERTEX
  8
1100LEVEL
 62
5
 10
1106.245
 20
-1336.776
 30
4127.000
 70
    32
  0
VERTEX
  8
1100LEVEL
 62
5
 10
1095.779
 20
-1264.152
 30
4127.000
 70
    32
  0
VERTEX
  8
1100LEVEL
 62
5
 10
1082.466
 20
-1202.664
 30
4127.000
 70
    32
  0
VERTEX
  8
1100LEVEL
 62
5
 10
1090.999
 20
-1163.200
 30
4127.000
 70
    32
  0
VERTEX
  8
1100LEVEL
 62
5
 10
1107.643
 20
-1155.603
 30
4127.000
 70
    32
  0
VERTEX
  8
1100LEVEL
 62
5
 10
1113.331
 20
-1208.264
 30
4127.000
 70
    32
  0
VERTEX
  8
1100LEVEL
 62
5
 10
1126.597
 20
-1265.455
 30
4127.000
 70
    32
  0
VERTEX
  8
1100LEVEL
 62
5
 10
1131.393
 20
-1323.519
 30
4127.000
 70
    32
  0
VERTEX
  8
1100LEVEL
 62
5
 10
1138.616
 20
-1389.805
 30
4127.000
 70
    32
  0
VERTEX
  8
1100LEVEL
 62
5
 10
1143.168
 20
-1449.342
 30
4127.000
 70
    32
  0
VERTEX
  8
1100LEVEL
 62
5
 10
1153.678
 20
-1497.248
 30
4127.000
 70
    32
  0
VERTEX
  8
1100LEVEL
 62
5
 10
1165.256
 20
-1547.853
 30
4127.000
 70
    32
  0
VERTEX
  8
1100LEVEL
 62
5
 10
1173.448
 20
-1579.229
 30
4127.000
 70
    32
  0
VERTEX
  8
1100LEVEL
 62
5
 10
1163.684
 20
-1616.976
 30
4127.000
 70
    32
  0
VERTEX
  8
1100LEVEL
 62
5
 10
1162.657
 20
-1667.519
 30
4127.000
 70
    32
  0
VERTEX
  8
1100LEVEL
 62
5
 10
1172.224
 20
-1687.516
 30
4127.000
 70
    32
  0
VERTEX
  8
1100LEVEL
 62
5
 10
1176.833
 20
-1624.445
 30
4127.000
 70
    32
  0
VERTEX
  8
1100LEVEL
 62
5
 10
1178.613
 20
-1584.623
 30
4127.000
 70
    32
  0
VERTEX
  8
1100LEVEL
 62
5
 10
1169.454
 20
-1510.196
 30
4127.000
 70
    32
  0
VERTEX
  8
1100LEVEL
 62
5
 10
1180.794
 20
-1513.330
 30
4127.000
 70
    32
  0
VERTEX
  8
1100LEVEL
 62
5
 10
1185.576
 20
-1562.309
 30
4127.000
 70
    32
  0
VERTEX
  8
1100LEVEL
 62
5
 10
1189.610
 20
-1603.595
 30
4127.000
 70
    32
  0
VERTEX
  8
1100LEVEL
 62
5
 10
1194.514
 20
-1546.375
 30
4127.000
 70
    32
  0
VERTEX
  8
1100LEVEL
 62
5
 10
1188.431
 20
-1476.241
 30
4127.000
 70
    32
  0
VERTEX
  8
1100LEVEL
 62
5
 10
1181.690
 20
-1403.980
 30
4127.000
 70
    32
  0
VERTEX
  8
1100LEVEL
 62
5
 10
1186.580
 20
-1337.675
 30
4127.000
 70
    32
  0
VERTEX
  8
1100LEVEL
 62
5
 10
1204.386
 20
-1260.383
 30
4127.000
 70
    32
  0
VERTEX
  8
1100LEVEL
 62
5
 10
1215.171
 20
-1195.052
 30
4127.000
 70
    32
  0
VERTEX
  8
1100LEVEL
 62
5
 10
1212.101
 20
-1141.814
 30
4127.000
 70
    32
  0
VERTEX
  8
1100LEVEL
 62
5
 10
1224.412
 20
-1084.052
 30
4127.000
 70
    32
  0
VERTEX
  8
1100LEVEL
 62
5
 10
1232.127
 20
-1124.432
 30
4127.000
 70
    32
  0
VERTEX
  8
1100LEVEL
 62
5
 10
1239.260
 20
-1185.152
 30
4127.000
 70
    32
  0
VERTEX
  8
1100LEVEL
 62
5
 10
1248.596
 20
-1241.695
 30
4127.000
 70
    32
  0
VERTEX
  8
1100LEVEL
 62
5
 10
1255.380
 20
-1315.225
 30
4127.000
 70
    32
  0
VERTEX
  8
1100LEVEL
 62
5
 10
1272.327
 20
-1371.510
 30
4127.000
 70
    32
  0
VERTEX
  8
1100LEVEL
 62
5
 10
1294.068
 20
-1430.857
 30
4127.000
 70
    32
  0
VERTEX
  8
1100LEVEL
 62
5
 10
1314.515
 20
-1501.092
 30
4127.000
 70
    32
  0
VERTEX
  8
1100LEVEL
 62
5
 10
1327.233
 20
-1547.849
 30
4127.000
 70
    32
  0
VERTEX
  8
1100LEVEL
 62
5
 10
1341.553
 20
-1598.654
 30
4127.000
 70
    32
  0
VERTEX
  8
1100LEVEL
 62
5
 10
1324.612
 20
-1626.386
 30
4127.000
 70
    32
  0
VERTEX
  8
1100LEVEL
 62
5
 10
1295.277
 20
-1631.383
 30
4127.000
 70
    32
  0
VERTEX
  8
1100LEVEL
 62
5
 10
1296.144
 20
-1662.811
 30
4127.000
 70
    32
  0
VERTEX
  8
1100LEVEL
 62
5
 10
1321.329
 20
-1699.768
 30
4127.000
 70
    32
  0
VERTEX
  8
1100LEVEL
 62
5
 10
1333.893
 20
-1753.563
 30
4127.000
 70
    32
  0
VERTEX
  8
1100LEVEL
 62
5
 10
1316.334
 20
-1751.421
 30
4127.000
 70
    32
  0
VERTEX
  8
1100LEVEL
 62
5
 10
1300.206
 20
-1696.281
 30
4127.000
 70
    32
  0
VERTEX
  8
1100LEVEL
 62
5
 10
1272.504
 20
-1671.523
 30
4127.000
 70
    32
  0
VERTEX
  8
1100LEVEL
 62
5
 10
1264.879
 20
-1636.709
 30
4127.000
 70
    32
  0
VERTEX
  8
1100LEVEL
 62
5
 10
1271.394
 20
-1615.582
 30
4127.000
 70
    32
  0
VERTEX
  8
1100LEVEL
 62
5
 10
1296.141
 20
-1607.809
 30
4127.000
 70
    32
  0
VERTEX
  8
1100LEVEL
 62
5
 10
1304.055
 20
-1564.458
 30
4127.000
 70
    32
  0
VERTEX
  8
1100LEVEL
 62
5
 10
1277.145
 20
-1496.689
 30
4127.000
 70
    32
  0
VERTEX
  8
1100LEVEL
 62
5
 10
1257.036
 20
-1433.574
 30
4127.000
 70
    32
  0
VERTEX
  8
1100LEVEL
 62
5
 10
1267.810
 20
-1414.160
 30
4127.000
 70
    32
  0
VERTEX
  8
1100LEVEL
 62
5
 10
1249.517
 20
-1361.437
 30
4127.000
 70
    32
  0
VERTEX
  8
1100LEVEL
 62
5
 10
1240.477
 20
-1310.746
 30
4127.000
 70
    32
  0
VERTEX
  8
1100LEVEL
 62
5
 10
1228.160
 20
-1258.505
 30
4127.000
 70
    32
  0
VERTEX
  8
1100LEVEL
 62
5
 10
1223.149
 20
-1220.085
 30
4127.000
 70
    32
  0
VERTEX
  8
1100LEVEL
 62
5
 10
1211.347
 20
-1316.029
 30
4127.000
 70
    32
  0
VERTEX
  8
1100LEVEL
 62
5
 10
1197.538
 20
-1384.393
 30
4127.000
 70
    32
  0
VERTEX
  8
1100LEVEL
 62
5
 10
1203.964
 20
-1464.676
 30
4127.000
 70
    32
  0
VERTEX
  8
1100LEVEL
 62
5
 10
1215.584
 20
-1542.537
 30
4127.000
 70
    32
  0
VERTEX
  8
1100LEVEL
 62
5
 10
1218.262
 20
-1607.315
 30
4127.000
 70
    32
  0
VERTEX
  8
1100LEVEL
 62
5
 10
1216.915
 20
-1662.851
 30
4127.000
 70
    32
  0
VERTEX
  8
1100LEVEL
 62
5
 10
1237.598
 20
-1699.569
 30
4127.000
 70
    32
  0
VERTEX
  8
1100LEVEL
 62
5
 10
1261.170
 20
-1752.407
 30
4127.000
 70
    32
  0
VERTEX
  8
1100LEVEL
 62
5
 10
1266.977
 20
-1802.816
 30
4127.000
 70
    32
  0
VERTEX
  8
1100LEVEL
 62
5
 10
1289.877
 20
-1844.441
 30
4127.000
 70
    32
  0
VERTEX
  8
1100LEVEL
 62
5
 10
1319.868
 20
-1893.545
 30
4127.000
 70
    32
  0
VERTEX
  8
1100LEVEL
 62
5
 10
1329.500
 20
-1929.952
 30
4127.000
 70
    32
  0
VERTEX
  8
1100LEVEL
 62
5
 10
1359.634
 20
-1991.947
 30
4127.000
 70
    32
  0
VERTEX
  8
1100LEVEL
 62
5
 10
1333.056
 20
-1980.243
 30
4127.000
 70
    32
  0
VERTEX
  8
1100LEVEL
 62
5
 10
1308.926
 20
-1936.900
 30
4127.000
 70
    32
  0
VERTEX
  8
1100LEVEL
 62
5
 10
1284.252
 20
-1886.152
 30
4127.000
 70
    32
  0
VERTEX
  8
1100LEVEL
 62
5
 10
1257.457
 20
-1839.089
 30
4127.000
 70
    32
  0
VERTEX
  8
1100LEVEL
 62
5
 10
1246.747
 20
-1793.926
 30
4127.000
 70
    32
  0
VERTEX
  8
1100LEVEL
 62
5
 10
1236.122
 20
-1751.299
 30
4127.000
 70
    32
  0
VERTEX
  8
1100LEVEL
 62
5
 10
1211.481
 20
-1747.736
 30
4127.000
 70
    32
  0
VERTEX
  8
1100LEVEL
 62
5
 10
1227.489
 20
-1805.128
 30
4127.000
 70
    32
  0
VERTEX
  8
1100LEVEL
 62
5
 10
1252.276
 20
-1876.584
 30
4127.000
 70
    32
  0
VERTEX
  8
1100LEVEL
 62
5
 10
1287.361
 20
-1911.643
 30
4127.000
 70
    32
  0
VERTEX
  8
1100LEVEL
 62
5
 10
1305.535
 20
-1940.630
 30
4127.000
 70
    32
  0
VERTEX
  8
1100LEVEL
 62
5
 10
1319.993
 20
-2001.298
 30
4127.000
 70
    32
  0
VERTEX
  8
1100LEVEL
 62
5
 10
1318.651
 20
-2059.862
 30
4127.000
 70
    32
  0
VERTEX
  8
1100LEVEL
 62
5
 10
1320.065
 20
-2127.712
 30
4127.000
 70
    32
  0
VERTEX
  8
1100LEVEL
 62
5
 10
1323.707
 20
-2180.539
 30
4127.000
 70
    32
  0
VERTEX
  8
1100LEVEL
 62
5
 10
1344.074
 20
-2225.278
 30
4127.000
 70
    32
  0
VERTEX
  8
1100LEVEL
 62
5
 10
1356.573
 20
-2262.664
 30
4127.000
 70
    32
  0
VERTEX
  8
1100LEVEL
 62
5
 10
1365.814
 20
-2310.612
 30
4127.000
 70
    32
  0
VERTEX
  8
1100LEVEL
 62
5
 10
1369.404
 20
-2356.114
 30
4127.000
 70
    32
  0
VERTEX
  8
1100LEVEL
 62
5
 10
1400.917
 20
-2383.771
 30
4127.000
 70
    32
  0
VERTEX
  8
1100LEVEL
 62
5
 10
1439.363
 20
-2448.904
 30
4127.000
 70
    32
  0
VERTEX
  8
1100LEVEL
 62
5
 10
1463.626
 20
-2525.067
 30
4127.000
 70
    32
  0
VERTEX
  8
1100LEVEL
 62
5
 10
1505.434
 20
-2594.287
 30
4127.000
 70
    32
  0
VERTEX
  8
1100LEVEL
 62
5
 10
1513.599
 20
-2581.506
 30
4127.000
 70
    32
  0
VERTEX
  8
1100LEVEL
 62
5
 10
1500.758
 20
-2507.985
 30
4127.000
 70
    32
  0
VERTEX
  8
1100LEVEL
 62
5
 10
1505.887
 20
-2463.166
 30
4127.000
 70
    32
  0
VERTEX
  8
1100LEVEL
 62
5
 10
1525.414
 20
-2520.634
 30
4127.000
 70
    32
  0
VERTEX
  8
1100LEVEL
 62
5
 10
1544.460
 20
-2584.077
 30
4127.000
 70
    32
  0
VERTEX
  8
1100LEVEL
 62
5
 10
1543.619
 20
-2622.793
 30
4127.000
 70
    32
  0
VERTEX
  8
1100LEVEL
 62
5
 10
1544.805
 20
-2675.215
 30
4127.000
 70
    32
  0
VERTEX
  8
1100LEVEL
 62
5
 10
1545.600
 20
-2713.191
 30
4127.000
 70
    32
  0
VERTEX
  8
1100LEVEL
 62
5
 10
1530.793
 20
-2691.319
 30
4127.000
 70
    32
  0
VERTEX
  8
1100LEVEL
 62
5
 10
1519.133
 20
-2667.192
 30
4127.000
 70
    32
  0
VERTEX
  8
1100LEVEL
 62
5
 10
1505.479
 20
-2676.544
 30
4127.000
 70
    32
  0
VERTEX
  8
1100LEVEL
 62
5
 10
1530.524
 20
-2755.611
 30
4127.000
 70
    32
  0
VERTEX
  8
1100LEVEL
 62
5
 10
1561.858
 20
-2853.126
 30
4127.000
 70
    32
  0
VERTEX
  8
1100LEVEL
 62
5
 10
1589.711
 20
-2974.791
 30
4127.000
 70
    32
  0
VERTEX
  8
1100LEVEL
 62
5
 10
1616.080
 20
-3090.156
 30
4127.000
 70
    32
  0
VERTEX
  8
1100LEVEL
 62
5
 10
1645.811
 20
-3209.608
 30
4127.000
 70
    32
  0
VERTEX
  8
1100LEVEL
 62
5
 10
1676.081
 20
-3333.438
 30
4127.000
 70
    32
  0
VERTEX
  8
1100LEVEL
 62
5
 10
1710.048
 20
-3439.461
 30
4127.000
 70
    32
  0
VERTEX
  8
1100LEVEL
 62
5
 10
1771.507
 20
-3592.913
 30
4127.000
 70
    32
  0
VERTEX
  8
1100LEVEL
 62
5
 10
1821.669
 20
-3718.513
 30
4127.000
 70
    32
  0
VERTEX
  8
1100LEVEL
 62
5
 10
1872.145
 20
-3862.079
 30
4127.000
 70
    32
  0
VERTEX
  8
1100LEVEL
 62
5
 10
1915.173
 20
-3978.932
 30
4127.000
 70
    32
  0
VERTEX
  8
1100LEVEL
 62
5
 10
1961.438
 20
-4125.082
 30
4127.000
 70
    32
  0
VERTEX
  8
1100LEVEL
 62
5
 10
2001.580
 20
-4254.831
 30
4127.000
 70
    32
  0
VERTEX
  8
1100LEVEL
 62
5
 10
2041.440
 20
-4387.814
 30
4127.000
 70
    32
  0
VERTEX
  8
1100LEVEL
 62
5
 10
2083.147
 20
-4497.385
 30
4127.000
 70
    32
  0
VERTEX
  8
1100LEVEL
 62
5
 10
2113.538
 20
-4566.991
 30
4127.000
 70
    32
  0
SEQEND
  8
1100LEVEL
  0
POLYLINE
  8
1100LEVEL
 62
5
 66
     1
 70
     8
  0
VERTEX
  8
1100LEVEL
 62
5
 10
1878.828
 20
-4559.782
 30
4127.000
 70
    32
  0
VERTEX
  8
1100LEVEL
 62
5
 10
1848.499
 20
-4477.571
 30
4127.000
 70
    32
  0
VERTEX
  8
1100LEVEL
 62
5
 10
1818.419
 20
-4396.916
 30
4127.000
 70
    32
  0
VERTEX
  8
1100LEVEL
 62
5
 10
1783.526
 20
-4301.084
 30
4127.000
 70
    32
  0
VERTEX
  8
1100LEVEL
 62
5
 10
1754.567
 20
-4204.467
 30
4127.000
 70
    32
  0
VERTEX
  8
1100LEVEL
 62
5
 10
1738.493
 20
-4130.664
 30
4127.000
 70
    32
  0
VERTEX
  8
1100LEVEL
 62
5
 10
1697.391
 20
-4041.882
 30
4127.000
 70
    32
  0
VERTEX
  8
1100LEVEL
 62
5
 10
1667.429
 20
-3958.975
 30
4127.000
 70
    32
  0
VERTEX
  8
1100LEVEL
 62
5
 10
1632.737
 20
-3860.402
 30
4127.000
 70
    32
  0
VERTEX
  8
1100LEVEL
 62
5
 10
1596.959
 20
-3747.016
 30
4127.000
 70
    32
  0
VERTEX
  8
1100LEVEL
 62
5
 10
1545.929
 20
-3615.974
 30
4127.000
 70
    32
  0
VERTEX
  8
1100LEVEL
 62
5
 10
1508.376
 20
-3493.464
 30
4127.000
 70
    32
  0
VERTEX
  8
1100LEVEL
 62
5
 10
1455.515
 20
-3368.932
 30
4127.000
 70
    32
  0
VERTEX
  8
1100LEVEL
 62
5
 10
1435.258
 20
-3289.898
 30
4127.000
 70
    32
  0
VERTEX
  8
1100LEVEL
 62
5
 10
1413.438
 20
-3205.056
 30
4127.000
 70
    32
  0
VERTEX
  8
1100LEVEL
 62
5
 10
1379.500
 20
-3091.217
 30
4127.000
 70
    32
  0
VERTEX
  8
1100LEVEL
 62
5
 10
1345.362
 20
-2980.120
 30
4127.000
 70
    32
  0
VERTEX
  8
1100LEVEL
 62
5
 10
1327.825
 20
-2860.158
 30
4127.000
 70
    32
  0
VERTEX
  8
1100LEVEL
 62
5
 10
1286.319
 20
-2721.858
 30
4127.000
 70
    32
  0
VERTEX
  8
1100LEVEL
 62
5
 10
1262.220
 20
-2618.725
 30
4127.000
 70
    32
  0
VERTEX
  8
1100LEVEL
 62
5
 10
1222.443
 20
-2540.253
 30
4127.000
 70
    32
  0
VERTEX
  8
1100LEVEL
 62
5
 10
1220.042
 20
-2469.213
 30
4127.000
 70
    32
  0
VERTEX
  8
1100LEVEL
 62
5
 10
1211.255
 20
-2397.119
 30
4127.000
 70
    32
  0
VERTEX
  8
1100LEVEL
 62
5
 10
1198.752
 20
-2330.718
 30
4127.000
 70
    32
  0
VERTEX
  8
1100LEVEL
 62
5
 10
1190.118
 20
-2251.585
 30
4127.000
 70
    32
  0
VERTEX
  8
1100LEVEL
 62
5
 10
1165.278
 20
-2198.790
 30
4127.000
 70
    32
  0
VERTEX
  8
1100LEVEL
 62
5
 10
1180.412
 20
-2273.698
 30
4127.000
 70
    32
  0
VERTEX
  8
1100LEVEL
 62
5
 10
1183.153
 20
-2325.872
 30
4127.000
 70
    32
  0
VERTEX
  8
1100LEVEL
 62
5
 10
1196.128
 20
-2380.240
 30
4127.000
 70
    32
  0
VERTEX
  8
1100LEVEL
 62
5
 10
1195.364
 20
-2415.436
 30
4127.000
 70
    32
  0
VERTEX
  8
1100LEVEL
 62
5
 10
1183.235
 20
-2432.356
 30
4127.000
 70
    32
  0
VERTEX
  8
1100LEVEL
 62
5
 10
1193.921
 20
-2488.365
 30
4127.000
 70
    32
  0
VERTEX
  8
1100LEVEL
 62
5
 10
1200.629
 20
-2539.428
 30
4127.000
 70
    32
  0
VERTEX
  8
1100LEVEL
 62
5
 10
1206.999
 20
-2583.370
 30
4127.000
 70
    32
  0
VERTEX
  8
1100LEVEL
 62
5
 10
1203.579
 20
-2620.903
 30
4127.000
 70
    32
  0
VERTEX
  8
1100LEVEL
 62
5
 10
1188.081
 20
-2575.706
 30
4127.000
 70
    32
  0
VERTEX
  8
1100LEVEL
 62
5
 10
1177.418
 20
-2534.839
 30
4127.000
 70
    32
  0
VERTEX
  8
1100LEVEL
 62
5
 10
1169.327
 20
-2489.099
 30
4127.000
 70
    32
  0
VERTEX
  8
1100LEVEL
 62
5
 10
1161.541
 20
-2429.280
 30
4127.000
 70
    32
  0
VERTEX
  8
1100LEVEL
 62
5
 10
1175.906
 20
-2403.394
 30
4127.000
 70
    32
  0
VERTEX
  8
1100LEVEL
 62
5
 10
1161.396
 20
-2335.400
 30
4127.000
 70
    32
  0
VERTEX
  8
1100LEVEL
 62
5
 10
1149.351
 20
-2273.869
 30
4127.000
 70
    32
  0
VERTEX
  8
1100LEVEL
 62
5
 10
1135.680
 20
-2219.134
 30
4127.000
 70
    32
  0
VERTEX
  8
1100LEVEL
 62
5
 10
1113.845
 20
-2151.193
 30
4127.000
 70
    32
  0
VERTEX
  8
1100LEVEL
 62
5
 10
1093.740
 20
-2091.106
 30
4127.000
 70
    32
  0
VERTEX
  8
1100LEVEL
 62
5
 10
1105.755
 20
-2053.479
 30
4127.000
 70
    32
  0
VERTEX
  8
1100LEVEL
 62
5
 10
1114.541
 20
-1992.611
 30
4127.000
 70
    32
  0
VERTEX
  8
1100LEVEL
 62
5
 10
1094.155
 20
-1935.758
 30
4127.000
 70
    32
  0
VERTEX
  8
1100LEVEL
 62
5
 10
1067.645
 20
-1888.491
 30
4127.000
 70
    32
  0
VERTEX
  8
1100LEVEL
 62
5
 10
1046.620
 20
-1841.625
 30
4127.000
 70
    32
  0
VERTEX
  8
1100LEVEL
 62
5
 10
1047.189
 20
-1786.213
 30
4127.000
 70
    32
  0
VERTEX
  8
1100LEVEL
 62
5
 10
1069.312
 20
-1827.962
 30
4127.000
 70
    32
  0
VERTEX
  8
1100LEVEL
 62
5
 10
1097.538
 20
-1873.999
 30
4127.000
 70
    32
  0
VERTEX
  8
1100LEVEL
 62
5
 10
1098.884
 20
-1844.450
 30
4127.000
 70
    32
  0
VERTEX
  8
1100LEVEL
 62
5
 10
1075.246
 20
-1775.202
 30
4127.000
 70
    32
  0
VERTEX
  8
1100LEVEL
 62
5
 10
1066.932
 20
-1691.075
 30
4127.000
 70
    32
  0
VERTEX
  8
1100LEVEL
 62
5
 10
1050.776
 20
-1617.764
 30
4127.000
 70
    32
  0
VERTEX
  8
1100LEVEL
 62
5
 10
1055.848
 20
-1562.591
 30
4127.000
 70
    32
  0
VERTEX
  8
1100LEVEL
 62
5
 10
1059.813
 20
-1506.478
 30
4127.000
 70
    32
  0
VERTEX
  8
1100LEVEL
 62
5
 10
1048.132
 20
-1548.197
 30
4127.000
 70
    32
  0
VERTEX
  8
1100LEVEL
 62
5
 10
1027.491
 20
-1538.735
 30
4127.000
 70
    32
  0
VERTEX
  8
1100LEVEL
 62
5
 10
1010.401
 20
-1469.559
 30
4127.000
 70
    32
  0
VERTEX
  8
1100LEVEL
 62
5
 10
993.755
 20
-1396.167
 30
4127.000
 70
    32
  0
VERTEX
  8
1100LEVEL
 62
5
 10
969.650
 20
-1315.993
 30
4127.000
 70
    32
  0
VERTEX
  8
1100LEVEL
 62
5
 10
958.764
 20
-1262.726
 30
4127.000
 70
    32
  0
VERTEX
  8
1100LEVEL
 62
5
 10
949.284
 20
-1219.280
 30
4127.000
 70
    32
  0
VERTEX
  8
1100LEVEL
 62
5
 10
939.971
 20
-1177.879
 30
4127.000
 70
    32
  0
VERTEX
  8
1100LEVEL
 62
5
 10
943.889
 20
-1117.469
 30
4127.000
 70
    32
  0
VERTEX
  8
1100LEVEL
 62
5
 10
928.267
 20
-1071.495
 30
4127.000
 70
    32
  0
VERTEX
  8
1100LEVEL
 62
5
 10
913.846
 20
-1035.054
 30
4127.000
 70
    32
  0
SEQEND
  8
1100LEVEL
  0
POLYLINE
  8
1100LEVEL
 62
5
 66
     1
 70
     9
  0
VERTEX
  8
1100LEVEL
 62
5
 10
881.097
 20
-1028.638
 30
4127.000
 70
    32
  0
VERTEX
  8
1100LEVEL
 62
5
 10
894.492
 20
-1063.648
 30
4127.000
 70
    32
  0
VERTEX
  8
1100LEVEL
 62
5
 10
906.356
 20
-1114.049
 30
4127.000
 70
    32
  0
VERTEX
  8
1100LEVEL
 62
5
 10
924.310
 20
-1159.651
 30
4127.000
 70
    32
  0
VERTEX
  8
1100LEVEL
 62
5
 10
933.828
 20
-1201.338
 30
4127.000
 70
    32
  0
VERTEX
  8
1100LEVEL
 62
5
 10
940.051
 20
-1229.361
 30
4127.000
 70
    32
  0
VERTEX
  8
1100LEVEL
 62
5
 10
944.981
 20
-1268.272
 30
4127.000
 70
    32
  0
VERTEX
  8
1100LEVEL
 62
5
 10
929.253
 20
-1233.634
 30
4127.000
 70
    32
  0
VERTEX
  8
1100LEVEL
 62
5
 10
912.582
 20
-1197.074
 30
4127.000
 70
    32
  0
VERTEX
  8
1100LEVEL
 62
5
 10
902.525
 20
-1151.009
 30
4127.000
 70
    32
  0
VERTEX
  8
1100LEVEL
 62
5
 10
888.129
 20
-1103.723
 30
4127.000
 70
    32
  0
VERTEX
  8
1100LEVEL
 62
5
 10
876.041
 20
-1066.910
 30
4127.000
 70
    32
  0
VERTEX
  8
1100LEVEL
 62
5
 10
863.618
 20
-1026.005
 30
4127.000
 70
    32
  0
SEQEND
  8
1100LEVEL
  0
POLYLINE
  8
1100LEVEL
 62
5
 66
     1
 70
     9
  0
VERTEX
  8
1100LEVEL
 62
5
 10
1012.359
 20
-1252.904
 30
4127.000
 70
    32
  0
VERTEX
  8
1100LEVEL
 62
5
 10
1009.876
 20
-1208.341
 30
4127.000
 70
    32
  0
VERTEX
  8
1100LEVEL
 62
5
 10
997.726
 20
-1158.146
 30
4127.000
 70
    32
  0
VERTEX
  8
1100LEVEL
 62
5
 10
974.191
 20
-1129.536
 30
4127.000
 70
    32
  0
VERTEX
  8
1100LEVEL
 62
5
 10
987.943
 20
-1183.780
 30
4127.000
 70
    32
  0
VERTEX
  8
1100LEVEL
 62
5
 10
1000.089
 20
-1230.947
 30
4127.000
 70
    32
  0
SEQEND
  8
1100LEVEL
  0
POLYLINE
  8
1100LEVEL
 62
5
 66
     1
 70
     8
  0
VERTEX
  8
1100LEVEL
 62
5
 10
988.995
 20
-963.444
 30
4127.000
 70
    32
  0
VERTEX
  8
1100LEVEL
 62
5
 10
998.374
 20
-1021.255
 30
4127.000
 70
    32
  0
VERTEX
  8
1100LEVEL
 62
5
 10
1005.897
 20
-1096.420
 30
4127.000
 70
    32
  0
VERTEX
  8
1100LEVEL
 62
5
 10
1015.371
 20
-1162.825
 30
4127.000
 70
    32
  0
VERTEX
  8
1100LEVEL
 62
5
 10
1025.699
 20
-1225.587
 30
4127.000
 70
    32
  0
VERTEX
  8
1100LEVEL
 62
5
 10
1025.058
 20
-1287.547
 30
4127.000
 70
    32
  0
VERTEX
  8
1100LEVEL
 62
5
 10
1029.252
 20
-1353.837
 30
4127.000
 70
    32
  0
VERTEX
  8
1100LEVEL
 62
5
 10
1040.091
 20
-1402.807
 30
4127.000
 70
    32
  0
VERTEX
  8
1100LEVEL
 62
5
 10
1025.850
 20
-1403.483
 30
4127.000
 70
    32
  0
VERTEX
  8
1100LEVEL
 62
5
 10
1008.398
 20
-1338.032
 30
4127.000
 70
    32
  0
VERTEX
  8
1100LEVEL
 62
5
 10
992.033
 20
-1261.406
 30
4127.000
 70
    32
  0
VERTEX
  8
1100LEVEL
 62
5
 10
979.373
 20
-1199.017
 30
4127.000
 70
    32
  0
VERTEX
  8
1100LEVEL
 62
5
 10
965.897
 20
-1138.511
 30
4127.000
 70
    32
  0
VERTEX
  8
1100LEVEL
 62
5
 10
951.573
 20
-1084.677
 30
4127.000
 70
    32
  0
VERTEX
  8
1100LEVEL
 62
5
 10
939.447
 20
-1023.637
 30
4127.000
 70
    32
  0
SEQEND
  8
1100LEVEL
  0
POLYLINE
  8
1100LEVEL
 62
5
 66
     1
 70
     9
  0
VERTEX
  8
1100LEVEL
 62
5
 10
1540.306
 20
-2146.156
 30
4127.000
 70
    32
  0
VERTEX
  8
1100LEVEL
 62
5
 10
1520.429
 20
-2127.485
 30
4127.000
 70
    32
  0
VERTEX
  8
1100LEVEL
 62
5
 10
1505.321
 20
-2096.733
 30
4127.000
 70
    32
  0
VERTEX
  8
1100LEVEL
 62
5
 10
1506.152
 20
-2077.948
 30
4127.000
 70
    32
  0
VERTEX
  8
1100LEVEL
 62
5
 10
1524.893
 20
-2103.496
 30
4127.000
 70
    32
  0
VERTEX
  8
1100LEVEL
 62
5
 10
1533.225
 20
-2118.748
 30
4127.000
 70
    32
  0
SEQEND
  8
1100LEVEL
  0
POLYLINE
  8
1100LEVEL
 62
5
 66
     1
 70
     8
  0
VERTEX
  8
1100LEVEL
 62
5
 10
1266.161
 20
-2547.471
 30
4127.000
 70
    32
  0
VERTEX
  8
1100LEVEL
 62
5
 10
1258.561
 20
-2501.811
 30
4127.000
 70
    32
  0
VERTEX
  8
1100LEVEL
 62
5
 10
1243.010
 20
-2449.289
 30
4127.000
 70
    32
  0
VERTEX
  8
1100LEVEL
 62
5
 10
1232.926
 20
-2385.054
 30
4127.000
 70
    32
  0
VERTEX
  8
1100LEVEL
 62
5
 10
1222.527
 20
-2302.853
 30
4127.000
 70
    32
  0
VERTEX
  8
1100LEVEL
 62
5
 10
1208.494
 20
-2225.856
 30
4127.000
 70
    32
  0
VERTEX
  8
1100LEVEL
 62
5
 10
1224.274
 20
-2267.820
 30
4127.000
 70
    32
  0
VERTEX
  8
1100LEVEL
 62
5
 10
1236.514
 20
-2323.580
 30
4127.000
 70
    32
  0
VERTEX
  8
1100LEVEL
 62
5
 10
1245.216
 20
-2367.151
 30
4127.000
 70
    32
  0
VERTEX
  8
1100LEVEL
 62
5
 10
1256.266
 20
-2367.461
 30
4127.000
 70
    32
  0
VERTEX
  8
1100LEVEL
 62
5
 10
1248.547
 20
-2324.053
 30
4127.000
 70
    32
  0
VERTEX
  8
1100LEVEL
 62
5
 10
1234.347
 20
-2245.009
 30
4127.000
 70
    32
  0
VERTEX
  8
1100LEVEL
 62
5
 10
1253.464
 20
-2301.905
 30
4127.000
 70
    32
  0
VERTEX
  8
1100LEVEL
 62
5
 10
1269.873
 20
-2353.812
 30
4127.000
 70
    32
  0
VERTEX
  8
1100LEVEL
 62
5
 10
1290.841
 20
-2416.312
 30
4127.000
 70
    32
  0
VERTEX
  8
1100LEVEL
 62
5
 10
1304.746
 20
-2463.517
 30
4127.000
 70
    32
  0
VERTEX
  8
1100LEVEL
 62
5
 10
1306.395
 20
-2497.849
 30
4127.000
 70
    32
  0
VERTEX
  8
1100LEVEL
 62
5
 10
1322.569
 20
-2557.287
 30
4127.000
 70
    32
  0
VERTEX
  8
1100LEVEL
 62
5
 10
1343.681
 20
-2606.691
 30
4127.000
 70
    32
  0
VERTEX
  8
1100LEVEL
 62
5
 10
1370.215
 20
-2643.113
 30
4127.000
 70
    32
  0
VERTEX
  8
1100LEVEL
 62
5
 10
1363.859
 20
-2608.256
 30
4127.000
 70
    32
  0
VERTEX
  8
1100LEVEL
 62
5
 10
1341.569
 20
-2564.460
 30
4127.000
 70
    32
  0
VERTEX
  8
1100LEVEL
 62
5
 10
1325.060
 20
-2526.918
 30
4127.000
 70
    32
  0
VERTEX
  8
1100LEVEL
 62
5
 10
1322.047
 20
-2484.034
 30
4127.000
 70
    32
  0
VERTEX
  8
1100LEVEL
 62
5
 10
1323.990
 20
-2443.230
 30
4127.000
 70
    32
  0
VERTEX
  8
1100LEVEL
 62
5
 10
1303.575
 20
-2394.193
 30
4127.000
 70
    32
  0
VERTEX
  8
1100LEVEL
 62
5
 10
1289.751
 20
-2346.497
 30
4127.000
 70
    32
  0
VERTEX
  8
1100LEVEL
 62
5
 10
1268.163
 20
-2280.111
 30
4127.000
 70
    32
  0
VERTEX
  8
1100LEVEL
 62
5
 10
1255.074
 20
-2231.022
 30
4127.000
 70
    32
  0
VERTEX
  8
1100LEVEL
 62
5
 10
1243.307
 20
-2137.243
 30
4127.000
 70
    32
  0
VERTEX
  8
1100LEVEL
 62
5
 10
1260.126
 20
-2163.735
 30
4127.000
 70
    32
  0
VERTEX
  8
1100LEVEL
 62
5
 10
1269.834
 20
-2222.610
 30
4127.000
 70
    32
  0
VERTEX
  8
1100LEVEL
 62
5
 10
1281.693
 20
-2269.982
 30
4127.000
 70
    32
  0
VERTEX
  8
1100LEVEL
 62
5
 10
1301.259
 20
-2325.690
 30
4127.000
 70
    32
  0
VERTEX
  8
1100LEVEL
 62
5
 10
1322.332
 20
-2376.854
 30
4127.000
 70
    32
  0
VERTEX
  8
1100LEVEL
 62
5
 10
1347.768
 20
-2444.380
 30
4127.000
 70
    32
  0
VERTEX
  8
1100LEVEL
 62
5
 10
1366.179
 20
-2520.838
 30
4127.000
 70
    32
  0
VERTEX
  8
1100LEVEL
 62
5
 10
1378.686
 20
-2590.267
 30
4127.000
 70
    32
  0
VERTEX
  8
1100LEVEL
 62
5
 10
1414.280
 20
-2663.507
 30
4127.000
 70
    32
  0
SEQEND
  8
1100LEVEL
  0
POLYLINE
  8
1100LEVEL
 62
5
 66
     1
 70
     8
  0
VERTEX
  8
1100LEVEL
 62
5
 10
1441.664
 20
-2667.271
 30
4127.000
 70
    32
  0
VERTEX
  8
1100LEVEL
 62
5
 10
1418.937
 20
-2604.733
 30
4127.000
 70
    32
  0
VERTEX
  8
1100LEVEL
 62
5
 10
1405.241
 20
-2560.843
 30
4127.000
 70
    32
  0
VERTEX
  8
1100LEVEL
 62
5
 10
1391.198
 20
-2503.775
 30
4127.000
 70
    32
  0
VERTEX
  8
1100LEVEL
 62
5
 10
1416.435
 20
-2548.057
 30
4127.000
 70
    32
  0
VERTEX
  8
1100LEVEL
 62
5
 10
1431.947
 20
-2602.339
 30
4127.000
 70
    32
  0
VERTEX
  8
1100LEVEL
 62
5
 10
1452.710
 20
-2664.553
 30
4127.000
 70
    32
  0
SEQEND
  8
1100LEVEL
  0
POLYLINE
  8
1100LEVEL
 62
5
 66
     1
 70
     9
  0
VERTEX
  8
1100LEVEL
 62
5
 10
1365.029
 20
-2385.668
 30
4127.000
 70
    32
  0
VERTEX
  8
1100LEVEL
 62
5
 10
1387.714
 20
-2446.937
 30
4127.000
 70
    32
  0
VERTEX
  8
1100LEVEL
 62
5
 10
1408.014
 20
-2501.253
 30
4127.000
 70
    32
  0
VERTEX
  8
1100LEVEL
 62
5
 10
1428.262
 20
-2548.244
 30
4127.000
 70
    32
  0
VERTEX
  8
1100LEVEL
 62
5
 10
1440.470
 20
-2582.806
 30
4127.000
 70
    32
  0
VERTEX
  8
1100LEVEL
 62
5
 10
1452.063
 20
-2616.509
 30
4127.000
 70
    32
  0
VERTEX
  8
1100LEVEL
 62
5
 10
1463.509
 20
-2608.307
 30
4127.000
 70
    32
  0
VERTEX
  8
1100LEVEL
 62
5
 10
1465.598
 20
-2583.422
 30
4127.000
 70
    32
  0
VERTEX
  8
1100LEVEL
 62
5
 10
1446.838
 20
-2545.759
 30
4127.000
 70
    32
  0
VERTEX
  8
1100LEVEL
 62
5
 10
1422.307
 20
-2507.902
 30
4127.000
 70
    32
  0
VERTEX
  8
1100LEVEL
 62
5
 10
1410.414
 20
-2465.318
 30
4127.000
 70
    32
  0
VERTEX
  8
1100LEVEL
 62
5
 10
1391.940
 20
-2427.451
 30
4127.000
 70
    32
  0
VERTEX
  8
1100LEVEL
 62
5
 10
1377.448
 20
-2397.558
 30
4127.000
 70
    32
  0
SEQEND
  8
1100LEVEL
  0
POLYLINE
  8
1100LEVEL
 62
5
 66
     1
 70
     9
  0
VERTEX
  8
1100LEVEL
 62
5
 10
1305.346
 20
-2189.366
 30
4127.000
 70
    32
  0
VERTEX
  8
1100LEVEL
 62
5
 10
1301.339
 20
-2218.224
 30
4127.000
 70
    32
  0
VERTEX
  8
1100LEVEL
 62
5
 10
1322.603
 20
-2260.588
 30
4127.000
 70
    32
  0
VERTEX
  8
1100LEVEL
 62
5
 10
1331.697
 20
-2292.618
 30
4127.000
 70
    32
  0
VERTEX
  8
1100LEVEL
 62
5
 10
1349.055
 20
-2323.488
 30
4127.000
 70
    32
  0
VERTEX
  8
1100LEVEL
 62
5
 10
1349.786
 20
-2293.081
 30
4127.000
 70
    32
  0
VERTEX
  8
1100LEVEL
 62
5
 10
1339.543
 20
-2258.843
 30
4127.000
 70
    32
  0
VERTEX
  8
1100LEVEL
 62
5
 10
1324.922
 20
-2225.144
 30
4127.000
 70
    32
  0
SEQEND
  8
1100LEVEL
  0
POLYLINE
  8
1100LEVEL
 62
5
 66
     1
 70
     9
  0
VERTEX
  8
1100LEVEL
 62
5
 10
1229.800
 20
-2003.565
 30
4127.000
 70
    32
  0
VERTEX
  8
1100LEVEL
 62
5
 10
1233.059
 20
-1967.015
 30
4127.000
 70
    32
  0
VERTEX
  8
1100LEVEL
 62
5
 10
1226.278
 20
-1922.500
 30
4127.000
 70
    32
  0
VERTEX
  8
1100LEVEL
 62
5
 10
1209.548
 20
-1927.559
 30
4127.000
 70
    32
  0
VERTEX
  8
1100LEVEL
 62
5
 10
1203.104
 20
-1968.125
 30
4127.000
 70
    32
  0
VERTEX
  8
1100LEVEL
 62
5
 10
1212.675
 20
-1991.150
 30
4127.000
 70
    32
  0
SEQEND
  8
1100LEVEL
  0
POLYLINE
  8
1100LEVEL
 62
5
 66
     1
 70
     9
  0
VERTEX
  8
1100LEVEL
 62
5
 10
1182.005
 20
-1846.818
 30
4127.000
 70
    32
  0
VERTEX
  8
1100LEVEL
 62
5
 10
1194.751
 20
-1885.758
 30
4127.000
 70
    32
  0
VERTEX
  8
1100LEVEL
 62
5
 10
1194.440
 20
-1922.794
 30
4127.000
 70
    32
  0
VERTEX
  8
1100LEVEL
 62
5
 10
1202.536
 20
-1971.563
 30
4127.000
 70
    32
  0
VERTEX
  8
1100LEVEL
 62
5
 10
1205.993
 20
-2010.231
 30
4127.000
 70
    32
  0
VERTEX
  8
1100LEVEL
 62
5
 10
1212.601
 20
-2049.672
 30
4127.000
 70
    32
  0
VERTEX
  8
1100LEVEL
 62
5
 10
1214.288
 20
-2082.245
 30
4127.000
 70
    32
  0
VERTEX
  8
1100LEVEL
 62
5
 10
1222.666
 20
-2127.780
 30
4127.000
 70
    32
  0
VERTEX
  8
1100LEVEL
 62
5
 10
1216.795
 20
-2141.949
 30
4127.000
 70
    32
  0
VERTEX
  8
1100LEVEL
 62
5
 10
1199.747
 20
-2100.028
 30
4127.000
 70
    32
  0
VERTEX
  8
1100LEVEL
 62
5
 10
1182.813
 20
-2052.828
 30
4127.000
 70
    32
  0
VERTEX
  8
1100LEVEL
 62
5
 10
1178.647
 20
-2004.708
 30
4127.000
 70
    32
  0
VERTEX
  8
1100LEVEL
 62
5
 10
1174.242
 20
-1961.090
 30
4127.000
 70
    32
  0
VERTEX
  8
1100LEVEL
 62
5
 10
1152.511
 20
-1907.799
 30
4127.000
 70
    32
  0
VERTEX
  8
1100LEVEL
 62
5
 10
1172.655
 20
-1914.152
 30
4127.000
 70
    32
  0
VERTEX
  8
1100LEVEL
 62
5
 10
1178.918
 20
-1888.442
 30
4127.000
 70
    32
  0
VERTEX
  8
1100LEVEL
 62
5
 10
1171.789
 20
-1856.737
 30
4127.000
 70
    32
  0
SEQEND
  8
1100LEVEL
  0
POLYLINE
  8
1100LEVEL
 62
5
 66
     1
 70
     9
  0
VERTEX
  8
1100LEVEL
 62
5
 10
1270.486
 20
-1981.771
 30
4127.000
 70
    32
  0
VERTEX
  8
1100LEVEL
 62
5
 10
1281.077
 20
-2003.199
 30
4127.000
 70
    32
  0
VERTEX
  8
1100LEVEL
 62
5
 10
1284.725
 20
-2033.068
 30
4127.000
 70
    32
  0
VERTEX
  8
1100LEVEL
 62
5
 10
1275.753
 20
-2053.790
 30
4127.000
 70
    32
  0
VERTEX
  8
1100LEVEL
 62
5
 10
1268.549
 20
-1999.617
 30
4127.000
 70
    32
  0
SEQEND
  8
1100LEVEL
  0
POLYLINE
  8
1100LEVEL
 62
5
 66
     1
 70
     9
  0
VERTEX
  8
1100LEVEL
 62
5
 10
1141.297
 20
-2093.407
 30
4127.000
 70
    32
  0
VERTEX
  8
1100LEVEL
 62
5
 10
1154.810
 20
-2045.177
 30
4127.000
 70
    32
  0
VERTEX
  8
1100LEVEL
 62
5
 10
1147.601
 20
-1987.977
 30
4127.000
 70
    32
  0
VERTEX
  8
1100LEVEL
 62
5
 10
1138.099
 20
-2036.364
 30
4127.000
 70
    32
  0
VERTEX
  8
1100LEVEL
 62
5
 10
1129.384
 20
-2090.683
 30
4127.000
 70
    32
  0
SEQEND
  8
1100LEVEL
  0
POLYLINE
  8
1100LEVEL
 62
13
 66
     1
 70
     8
  0
VERTEX
  8
1100LEVEL
 62
13
 10
-1057.656
 20
-2395.462
 30
4127.000
 70
    32
  0
VERTEX
  8
1100LEVEL
 62
13
 10
-1030.527
 20
-2446.616
 30
4127.000
 70
    32
  0
VERTEX
  8
1100LEVEL
 62
13
 10
-1009.654
 20
-2500.522
 30
4127.000
 70
    32
  0
VERTEX
  8
1100LEVEL
 62
13
 10
-982.005
 20
-2569.927
 30
4127.000
 70
    32
  0
VERTEX
  8
1100LEVEL
 62
13
 10
-1003.732
 20
-2545.652
 30
4127.000
 70
    32
  0
VERTEX
  8
1100LEVEL
 62
13
 10
-1036.432
 20
-2491.560
 30
4127.000
 70
    32
  0
VERTEX
  8
1100LEVEL
 62
13
 10
-1066.252
 20
-2447.531
 30
4127.000
 70
    32
  0
VERTEX
  8
1100LEVEL
 62
13
 10
-1094.989
 20
-2415.286
 30
4127.000
 70
    32
  0
SEQEND
  8
1100LEVEL
  0
POLYLINE
  8
1100LEVEL
 62
13
 66
     1
 70
     8
  0
VERTEX
  8
1100LEVEL
 62
13
 10
-85.153
 20
-1775.641
 30
4127.000
 70
    32
  0
VERTEX
  8
1100LEVEL
 62
13
 10
-63.923
 20
-1822.794
 30
4127.000
 70
    32
  0
VERTEX
  8
1100LEVEL
 62
13
 10
-34.857
 20
-1882.089
 30
4127.000
 70
    32
  0
VERTEX
  8
1100LEVEL
 62
13
 10
-3.388
 20
-1934.464
 30
4127.000
 70
    32
  0
VERTEX
  8
1100LEVEL
 62
13
 10
32.665
 20
-1986.586
 30
4127.000
 70
    32
  0
VERTEX
  8
1100LEVEL
 62
13
 10
70.540
 20
-2026.142
 30
4127.000
 70
    32
  0
VERTEX
  8
1100LEVEL
 62
13
 10
103.885
 20
-2047.290
 30
4127.000
 70
    32
  0
VERTEX
  8
1100LEVEL
 62
13
 10
129.689
 20
-2088.133
 30
4127.000
 70
    32
  0
VERTEX
  8
1100LEVEL
 62
13
 10
147.796
 20
-2126.696
 30
4127.000
 70
    32
  0
VERTEX
  8
1100LEVEL
 62
13
 10
172.860
 20
-2191.890
 30
4127.000
 70
    32
  0
VERTEX
  8
1100LEVEL
 62
13
 10
204.396
 20
-2260.676
 30
4127.000
 70
    32
  0
VERTEX
  8
1100LEVEL
 62
13
 10
230.423
 20
-2339.906
 30
4127.000
 70
    32
  0
VERTEX
  8
1100LEVEL
 62
13
 10
262.354
 20
-2426.165
 30
4127.000
 70
    32
  0
VERTEX
  8
1100LEVEL
 62
13
 10
289.773
 20
-2506.129
 30
4127.000
 70
    32
  0
VERTEX
  8
1100LEVEL
 62
13
 10
321.757
 20
-2573.727
 30
4127.000
 70
    32
  0
VERTEX
  8
1100LEVEL
 62
13
 10
358.239
 20
-2638.535
 30
4127.000
 70
    32
  0
VERTEX
  8
1100LEVEL
 62
13
 10
396.075
 20
-2705.838
 30
4127.000
 70
    32
  0
VERTEX
  8
1100LEVEL
 62
13
 10
429.442
 20
-2768.114
 30
4127.000
 70
    32
  0
VERTEX
  8
1100LEVEL
 62
13
 10
449.346
 20
-2830.942
 30
4127.000
 70
    32
  0
VERTEX
  8
1100LEVEL
 62
13
 10
463.685
 20
-2893.861
 30
4127.000
 70
    32
  0
VERTEX
  8
1100LEVEL
 62
13
 10
474.118
 20
-2945.287
 30
4127.000
 70
    32
  0
VERTEX
  8
1100LEVEL
 62
13
 10
437.692
 20
-2916.819
 30
4127.000
 70
    32
  0
VERTEX
  8
1100LEVEL
 62
13
 10
399.298
 20
-2884.998
 30
4127.000
 70
    32
  0
VERTEX
  8
1100LEVEL
 62
13
 10
362.835
 20
-2832.304
 30
4127.000
 70
    32
  0
VERTEX
  8
1100LEVEL
 62
13
 10
336.888
 20
-2778.569
 30
4127.000
 70
    32
  0
VERTEX
  8
1100LEVEL
 62
13
 10
291.746
 20
-2723.433
 30
4127.000
 70
    32
  0
VERTEX
  8
1100LEVEL
 62
13
 10
234.361
 20
-2664.509
 30
4127.000
 70
    32
  0
VERTEX
  8
1100LEVEL
 62
13
 10
186.229
 20
-2607.617
 30
4127.000
 70
    32
  0
VERTEX
  8
1100LEVEL
 62
13
 10
161.560
 20
-2559.896
 30
4127.000
 70
    32
  0
VERTEX
  8
1100LEVEL
 62
13
 10
138.889
 20
-2507.712
 30
4127.000
 70
    32
  0
VERTEX
  8
1100LEVEL
 62
13
 10
114.821
 20
-2451.766
 30
4127.000
 70
    32
  0
VERTEX
  8
1100LEVEL
 62
13
 10
87.481
 20
-2423.284
 30
4127.000
 70
    32
  0
VERTEX
  8
1100LEVEL
 62
13
 10
95.029
 20
-2461.618
 30
4127.000
 70
    32
  0
VERTEX
  8
1100LEVEL
 62
13
 10
118.682
 20
-2513.964
 30
4127.000
 70
    32
  0
VERTEX
  8
1100LEVEL
 62
13
 10
143.013
 20
-2554.564
 30
4127.000
 70
    32
  0
VERTEX
  8
1100LEVEL
 62
13
 10
155.392
 20
-2594.200
 30
4127.000
 70
    32
  0
VERTEX
  8
1100LEVEL
 62
13
 10
137.237
 20
-2577.327
 30
4127.000
 70
    32
  0
VERTEX
  8
1100LEVEL
 62
13
 10
110.074
 20
-2530.961
 30
4127.000
 70
    32
  0
VERTEX
  8
1100LEVEL
 62
13
 10
86.502
 20
-2478.123
 30
4127.000
 70
    32
  0
VERTEX
  8
1100LEVEL
 62
13
 10
60.736
 20
-2409.534
 30
4127.000
 70
    32
  0
VERTEX
  8
1100LEVEL
 62
13
 10
31.285
 20
-2338.821
 30
4127.000
 70
    32
  0
VERTEX
  8
1100LEVEL
 62
13
 10
12.253
 20
-2284.463
 30
4127.000
 70
    32
  0
VERTEX
  8
1100LEVEL
 62
13
 10
-15.254
 20
-2253.935
 30
4127.000
 70
    32
  0
VERTEX
  8
1100LEVEL
 62
13
 10
-5.312
 20
-2305.279
 30
4127.000
 70
    32
  0
VERTEX
  8
1100LEVEL
 62
13
 10
11.444
 20
-2370.363
 30
4127.000
 70
    32
  0
VERTEX
  8
1100LEVEL
 62
13
 10
31.306
 20
-2431.923
 30
4127.000
 70
    32
  0
VERTEX
  8
1100LEVEL
 62
13
 10
47.252
 20
-2475.933
 30
4127.000
 70
    32
  0
VERTEX
  8
1100LEVEL
 62
13
 10
40.193
 20
-2489.653
 30
4127.000
 70
    32
  0
VERTEX
  8
1100LEVEL
 62
13
 10
11.180
 20
-2437.684
 30
4127.000
 70
    32
  0
VERTEX
  8
1100LEVEL
 62
13
 10
-21.272
 20
-2385.147
 30
4127.000
 70
    32
  0
VERTEX
  8
1100LEVEL
 62
13
 10
-49.990
 20
-2339.029
 30
4127.000
 70
    32
  0
VERTEX
  8
1100LEVEL
 62
13
 10
-68.683
 20
-2291.790
 30
4127.000
 70
    32
  0
VERTEX
  8
1100LEVEL
 62
13
 10
-81.806
 20
-2247.490
 30
4127.000
 70
    32
  0
VERTEX
  8
1100LEVEL
 62
13
 10
-104.325
 20
-2214.253
 30
4127.000
 70
    32
  0
VERTEX
  8
1100LEVEL
 62
13
 10
-113.327
 20
-2161.803
 30
4127.000
 70
    32
  0
VERTEX
  8
1100LEVEL
 62
13
 10
-134.037
 20
-2106.915
 30
4127.000
 70
    32
  0
VERTEX
  8
1100LEVEL
 62
13
 10
-169.742
 20
-2067.969
 30
4127.000
 70
    32
  0
VERTEX
  8
1100LEVEL
 62
13
 10
-206.968
 20
-2024.483
 30
4127.000
 70
    32
  0
VERTEX
  8
1100LEVEL
 62
13
 10
-234.918
 20
-1972.185
 30
4127.000
 70
    32
  0
VERTEX
  8
1100LEVEL
 62
13
 10
-270.899
 20
-1913.514
 30
4127.000
 70
    32
  0
SEQEND
  8
1100LEVEL
  0
POLYLINE
  8
1100LEVEL
 62
13
 66
     1
 70
     9
  0
VERTEX
  8
1100LEVEL
 62
13
 10
401.510
 20
-1719.234
 30
4127.000
 70
    32
  0
VERTEX
  8
1100LEVEL
 62
13
 10
388.444
 20
-1685.287
 30
4127.000
 70
    32
  0
VERTEX
  8
1100LEVEL
 62
13
 10
375.258
 20
-1653.591
 30
4127.000
 70
    32
  0
VERTEX
  8
1100LEVEL
 62
13
 10
358.024
 20
-1623.498
 30
4127.000
 70
    32
  0
VERTEX
  8
1100LEVEL
 62
13
 10
339.687
 20
-1595.493
 30
4127.000
 70
    32
  0
VERTEX
  8
1100LEVEL
 62
13
 10
330.742
 20
-1553.396
 30
4127.000
 70
    32
  0
VERTEX
  8
1100LEVEL
 62
13
 10
319.217
 20
-1510.116
 30
4127.000
 70
    32
  0
VERTEX
  8
1100LEVEL
 62
13
 10
303.127
 20
-1479.203
 30
4127.000
 70
    32
  0
VERTEX
  8
1100LEVEL
 62
13
 10
283.722
 20
-1448.499
 30
4127.000
 70
    32
  0
VERTEX
  8
1100LEVEL
 62
13
 10
258.433
 20
-1422.878
 30
4127.000
 70
    32
  0
VERTEX
  8
1100LEVEL
 62
13
 10
230.854
 20
-1398.898
 30
4127.000
 70
    32
  0
VERTEX
  8
1100LEVEL
 62
13
 10
206.981
 20
-1363.168
 30
4127.000
 70
    32
  0
VERTEX
  8
1100LEVEL
 62
13
 10
185.545
 20
-1341.716
 30
4127.000
 70
    32
  0
VERTEX
  8
1100LEVEL
 62
13
 10
195.697
 20
-1370.388
 30
4127.000
 70
    32
  0
VERTEX
  8
1100LEVEL
 62
13
 10
220.523
 20
-1414.097
 30
4127.000
 70
    32
  0
VERTEX
  8
1100LEVEL
 62
13
 10
250.716
 20
-1434.472
 30
4127.000
 70
    32
  0
VERTEX
  8
1100LEVEL
 62
13
 10
277.923
 20
-1456.119
 30
4127.000
 70
    32
  0
VERTEX
  8
1100LEVEL
 62
13
 10
296.626
 20
-1483.428
 30
4127.000
 70
    32
  0
VERTEX
  8
1100LEVEL
 62
13
 10
307.971
 20
-1515.577
 30
4127.000
 70
    32
  0
VERTEX
  8
1100LEVEL
 62
13
 10
315.028
 20
-1553.830
 30
4127.000
 70
    32
  0
VERTEX
  8
1100LEVEL
 62
13
 10
321.751
 20
-1587.991
 30
4127.000
 70
    32
  0
VERTEX
  8
1100LEVEL
 62
13
 10
324.216
 20
-1620.440
 30
4127.000
 70
    32
  0
VERTEX
  8
1100LEVEL
 62
13
 10
350.569
 20
-1645.731
 30
4127.000
 70
    32
  0
VERTEX
  8
1100LEVEL
 62
13
 10
366.721
 20
-1664.040
 30
4127.000
 70
    32
  0
VERTEX
  8
1100LEVEL
 62
13
 10
376.425
 20
-1693.900
 30
4127.000
 70
    32
  0
VERTEX
  8
1100LEVEL
 62
13
 10
382.682
 20
-1717.135
 30
4127.000
 70
    32
  0
SEQEND
  8
1100LEVEL
  0
POLYLINE
  8
1100LEVEL
 62
13
 66
     1
 70
     8
  0
VERTEX
  8
1100LEVEL
 62
13
 10
1926.212
 20
-3733.248
 30
4127.000
 70
    32
  0
VERTEX
  8
1100LEVEL
 62
13
 10
1904.432
 20
-3701.648
 30
4127.000
 70
    32
  0
VERTEX
  8
1100LEVEL
 62
13
 10
1876.954
 20
-3663.303
 30
4127.000
 70
    32
  0
VERTEX
  8
1100LEVEL
 62
13
 10
1844.836
 20
-3614.858
 30
4127.000
 70
    32
  0
VERTEX
  8
1100LEVEL
 62
13
 10
1808.411
 20
-3560.403
 30
4127.000
 70
    32
  0
VERTEX
  8
1100LEVEL
 62
13
 10
1773.508
 20
-3510.489
 30
4127.000
 70
    32
  0
VERTEX
  8
1100LEVEL
 62
13
 10
1741.075
 20
-3470.065
 30
4127.000
 70
    32
  0
VERTEX
  8
1100LEVEL
 62
13
 10
1706.219
 20
-3424.448
 30
4127.000
 70
    32
  0
VERTEX
  8
1100LEVEL
 62
13
 10
1455.911
 20
-3360.420
 30
4127.000
 70
    32
  0
VERTEX
  8
1100LEVEL
 62
13
 10
1407.959
 20
-3314.659
 30
4127.000
 70
    32
  0
VERTEX
  8
1100LEVEL
 62
13
 10
1367.252
 20
-3269.337
 30
4127.000
 70
    32
  0
VERTEX
  8
1100LEVEL
 62
13
 10
1315.390
 20
-3209.054
 30
4127.000
 70
    32
  0
VERTEX
  8
1100LEVEL
 62
13
 10
1253.408
 20
-3141.297
 30
4127.000
 70
    32
  0
VERTEX
  8
1100LEVEL
 62
13
 10
1224.404
 20
-3095.385
 30
4127.000
 70
    32
  0
VERTEX
  8
1100LEVEL
 62
13
 10
1273.315
 20
-3126.166
 30
4127.000
 70
    32
  0
VERTEX
  8
1100LEVEL
 62
13
 10
1325.230
 20
-3167.787
 30
4127.000
 70
    32
  0
VERTEX
  8
1100LEVEL
 62
13
 10
1372.963
 20
-3204.177
 30
4127.000
 70
    32
  0
VERTEX
  8
1100LEVEL
 62
13
 10
1393.026
 20
-3211.021
 30
4127.000
 70
    32
  0
VERTEX
  8
1100LEVEL
 62
13
 10
1360.926
 20
-3174.689
 30
4127.000
 70
    32
  0
VERTEX
  8
1100LEVEL
 62
13
 10
1315.135
 20
-3123.482
 30
4127.000
 70
    32
  0
VERTEX
  8
1100LEVEL
 62
13
 10
1258.314
 20
-3058.091
 30
4127.000
 70
    32
  0
VERTEX
  8
1100LEVEL
 62
13
 10
1209.480
 20
-2997.804
 30
4127.000
 70
    32
  0
VERTEX
  8
1100LEVEL
 62
13
 10
1160.934
 20
-2911.324
 30
4127.000
 70
    32
  0
VERTEX
  8
1100LEVEL
 62
13
 10
1126.927
 20
-2859.035
 30
4127.000
 70
    32
  0
VERTEX
  8
1100LEVEL
 62
13
 10
1080.392
 20
-2803.164
 30
4127.000
 70
    32
  0
VERTEX
  8
1100LEVEL
 62
13
 10
1027.653
 20
-2731.383
 30
4127.000
 70
    32
  0
VERTEX
  8
1100LEVEL
 62
13
 10
974.509
 20
-2662.057
 30
4127.000
 70
    32
  0
VERTEX
  8
1100LEVEL
 62
13
 10
926.906
 20
-2603.487
 30
4127.000
 70
    32
  0
VERTEX
  8
1100LEVEL
 62
13
 10
879.908
 20
-2539.718
 30
4127.000
 70
    32
  0
VERTEX
  8
1100LEVEL
 62
13
 10
834.623
 20
-2471.690
 30
4127.000
 70
    32
  0
VERTEX
  8
1100LEVEL
 62
13
 10
782.590
 20
-2406.333
 30
4127.000
 70
    32
  0
VERTEX
  8
1100LEVEL
 62
13
 10
736.251
 20
-2344.691
 30
4127.000
 70
    32
  0
VERTEX
  8
1100LEVEL
 62
13
 10
692.892
 20
-2278.747
 30
4127.000
 70
    32
  0
VERTEX
  8
1100LEVEL
 62
13
 10
637.931
 20
-2199.030
 30
4127.000
 70
    32
  0
VERTEX
  8
1100LEVEL
 62
13
 10
607.554
 20
-2138.510
 30
4127.000
 70
    32
  0
VERTEX
  8
1100LEVEL
 62
13
 10
581.255
 20
-2068.570
 30
4127.000
 70
    32
  0
VERTEX
  8
1100LEVEL
 62
13
 10
540.983
 20
-1961.002
 30
4127.000
 70
    32
  0
VERTEX
  8
1100LEVEL
 62
13
 10
490.643
 20
-1905.260
 30
4127.000
 70
    32
  0
VERTEX
  8
1100LEVEL
 62
13
 10
441.170
 20
-1854.958
 30
4127.000
 70
    32
  0
VERTEX
  8
1100LEVEL
 62
13
 10
387.296
 20
-1790.054
 30
4127.000
 70
    32
  0
VERTEX
  8
1100LEVEL
 62
13
 10
343.284
 20
-1725.012
 30
4127.000
 70
    32
  0
VERTEX
  8
1100LEVEL
 62
13
 10
317.028
 20
-1656.341
 30
4127.000
 70
    32
  0
VERTEX
  8
1100LEVEL
 62
13
 10
295.240
 20
-1592.697
 30
4127.000
 70
    32
  0
VERTEX
  8
1100LEVEL
 62
13
 10
285.241
 20
-1530.999
 30
4127.000
 70
    32
  0
VERTEX
  8
1100LEVEL
 62
13
 10
243.675
 20
-1486.292
 30
4127.000
 70
    32
  0
VERTEX
  8
1100LEVEL
 62
13
 10
202.009
 20
-1429.963
 30
4127.000
 70
    32
  0
VERTEX
  8
1100LEVEL
 62
13
 10
161.903
 20
-1376.415
 30
4127.000
 70
    32
  0
VERTEX
  8
1100LEVEL
 62
13
 10
146.501
 20
-1313.825
 30
4127.000
 70
    32
  0
VERTEX
  8
1100LEVEL
 62
13
 10
128.724
 20
-1250.338
 30
4127.000
 70
    32
  0
VERTEX
  8
1100LEVEL
 62
13
 10
108.505
 20
-1195.531
 30
4127.000
 70
    32
  0
VERTEX
  8
1100LEVEL
 62
13
 10
90.303
 20
-1148.374
 30
4127.000
 70
    32
  0
VERTEX
  8
1100LEVEL
 62
13
 10
86.036
 20
-1088.631
 30
4127.000
 70
    32
  0
VERTEX
  8
1100LEVEL
 62
13
 10
79.453
 20
-1012.359
 30
4127.000
 70
    32
  0
VERTEX
  8
1100LEVEL
 62
13
 10
55.381
 20
-927.397
 30
4127.000
 70
    32
  0
VERTEX
  8
1100LEVEL
 62
13
 10
23.931
 20
-861.149
 30
4127.000
 70
    32
  0
VERTEX
  8
1100LEVEL
 62
13
 10
-6.809
 20
-804.353
 30
4127.000
 70
    32
  0
VERTEX
  8
1100LEVEL
 62
13
 10
-47.516
 20
-759.031
 30
4127.000
 70
    32
  0
VERTEX
  8
1100LEVEL
 62
13
 10
-87.441
 20
-690.627
 30
4127.000
 70
    32
  0
VERTEX
  8
1100LEVEL
 62
13
 10
-103.124
 20
-631.270
 30
4127.000
 70
    32
  0
VERTEX
  8
1100LEVEL
 62
13
 10
-64.019
 20
-672.543
 30
4127.000
 70
    32
  0
VERTEX
  8
1100LEVEL
 62
13
 10
-18.157
 20
-743.189
 30
4127.000
 70
    32
  0
VERTEX
  8
1100LEVEL
 62
13
 10
23.475
 20
-804.306
 30
4127.000
 70
    32
  0
VERTEX
  8
1100LEVEL
 62
13
 10
58.368
 20
-874.151
 30
4127.000
 70
    32
  0
VERTEX
  8
1100LEVEL
 62
13
 10
85.240
 20
-943.680
 30
4127.000
 70
    32
  0
VERTEX
  8
1100LEVEL
 62
13
 10
104.214
 20
-1013.672
 30
4127.000
 70
    32
  0
VERTEX
  8
1100LEVEL
 62
13
 10
110.955
 20
-1085.933
 30
4127.000
 70
    32
  0
VERTEX
  8
1100LEVEL
 62
13
 10
118.207
 20
-1144.402
 30
4127.000
 70
    32
  0
VERTEX
  8
1100LEVEL
 62
13
 10
128.936
 20
-1175.692
 30
4127.000
 70
    32
  0
VERTEX
  8
1100LEVEL
 62
13
 10
156.328
 20
-1237.486
 30
4127.000
 70
    32
  0
VERTEX
  8
1100LEVEL
 62
13
 10
178.969
 20
-1297.487
 30
4127.000
 70
    32
  0
VERTEX
  8
1100LEVEL
 62
13
 10
214.393
 20
-1339.666
 30
4127.000
 70
    32
  0
VERTEX
  8
1100LEVEL
 62
13
 10
261.042
 20
-1390.258
 30
4127.000
 70
    32
  0
VERTEX
  8
1100LEVEL
 62
13
 10
291.415
 20
-1447.750
 30
4127.000
 70
    32
  0
VERTEX
  8
1100LEVEL
 62
13
 10
314.835
 20
-1481.640
 30
4127.000
 70
    32
  0
VERTEX
  8
1100LEVEL
 62
13
 10
308.054
 20
-1437.125
 30
4127.000
 70
    32
  0
VERTEX
  8
1100LEVEL
 62
13
 10
267.772
 20
-1375.474
 30
4127.000
 70
    32
  0
VERTEX
  8
1100LEVEL
 62
13
 10
215.314
 20
-1326.446
 30
4127.000
 70
    32
  0
VERTEX
  8
1100LEVEL
 62
13
 10
183.482
 20
-1277.796
 30
4127.000
 70
    32
  0
VERTEX
  8
1100LEVEL
 62
13
 10
224.175
 20
-1314.032
 30
4127.000
 70
    32
  0
VERTEX
  8
1100LEVEL
 62
13
 10
280.597
 20
-1358.921
 30
4127.000
 70
    32
  0
VERTEX
  8
1100LEVEL
 62
13
 10
325.667
 20
-1420.606
 30
4127.000
 70
    32
  0
VERTEX
  8
1100LEVEL
 62
13
 10
341.008
 20
-1469.814
 30
4127.000
 70
    32
  0
VERTEX
  8
1100LEVEL
 62
13
 10
350.501
 20
-1522.345
 30
4127.000
 70
    32
  0
VERTEX
  8
1100LEVEL
 62
13
 10
393.745
 20
-1593.568
 30
4127.000
 70
    32
  0
VERTEX
  8
1100LEVEL
 62
13
 10
442.040
 20
-1649.478
 30
4127.000
 70
    32
  0
VERTEX
  8
1100LEVEL
 62
13
 10
480.697
 20
-1691.938
 30
4127.000
 70
    32
  0
VERTEX
  8
1100LEVEL
 62
13
 10
506.697
 20
-1727.011
 30
4127.000
 70
    32
  0
VERTEX
  8
1100LEVEL
 62
13
 10
537.280
 20
-1761.831
 30
4127.000
 70
    32
  0
VERTEX
  8
1100LEVEL
 62
13
 10
552.683
 20
-1798.434
 30
4127.000
 70
    32
  0
VERTEX
  8
1100LEVEL
 62
13
 10
565.873
 20
-1833.158
 30
4127.000
 70
    32
  0
VERTEX
  8
1100LEVEL
 62
13
 10
579.616
 20
-1881.346
 30
4127.000
 70
    32
  0
VERTEX
  8
1100LEVEL
 62
13
 10
597.712
 20
-1939.839
 30
4127.000
 70
    32
  0
VERTEX
  8
1100LEVEL
 62
13
 10
617.264
 20
-1986.462
 30
4127.000
 70
    32
  0
VERTEX
  8
1100LEVEL
 62
13
 10
632.381
 20
-2023.270
 30
4127.000
 70
    32
  0
VERTEX
  8
1100LEVEL
 62
13
 10
651.732
 20
-2072.636
 30
4127.000
 70
    32
  0
VERTEX
  8
1100LEVEL
 62
13
 10
675.558
 20
-2104.070
 30
4127.000
 70
    32
  0
VERTEX
  8
1100LEVEL
 62
13
 10
664.214
 20
-2045.934
 30
4127.000
 70
    32
  0
VERTEX
  8
1100LEVEL
 62
13
 10
666.661
 20
-2014.296
 30
4127.000
 70
    32
  0
VERTEX
  8
1100LEVEL
 62
13
 10
639.503
 20
-1970.959
 30
4127.000
 70
    32
  0
VERTEX
  8
1100LEVEL
 62
13
 10
614.181
 20
-1924.140
 30
4127.000
 70
    32
  0
VERTEX
  8
1100LEVEL
 62
13
 10
594.529
 20
-1865.894
 30
4127.000
 70
    32
  0
VERTEX
  8
1100LEVEL
 62
13
 10
576.847
 20
-1811.001
 30
4127.000
 70
    32
  0
VERTEX
  8
1100LEVEL
 62
13
 10
555.884
 20
-1751.530
 30
4127.000
 70
    32
  0
VERTEX
  8
1100LEVEL
 62
13
 10
534.626
 20
-1686.207
 30
4127.000
 70
    32
  0
VERTEX
  8
1100LEVEL
 62
13
 10
514.979
 20
-1630.990
 30
4127.000
 70
    32
  0
VERTEX
  8
1100LEVEL
 62
13
 10
479.417
 20
-1578.949
 30
4127.000
 70
    32
  0
VERTEX
  8
1100LEVEL
 62
13
 10
462.441
 20
-1530.480
 30
4127.000
 70
    32
  0
VERTEX
  8
1100LEVEL
 62
13
 10
443.657
 20
-1477.676
 30
4127.000
 70
    32
  0
VERTEX
  8
1100LEVEL
 62
13
 10
411.162
 20
-1423.870
 30
4127.000
 70
    32
  0
VERTEX
  8
1100LEVEL
 62
13
 10
380.060
 20
-1370.799
 30
4127.000
 70
    32
  0
VERTEX
  8
1100LEVEL
 62
13
 10
351.218
 20
-1323.904
 30
4127.000
 70
    32
  0
VERTEX
  8
1100LEVEL
 62
13
 10
366.184
 20
-1315.778
 30
4127.000
 70
    32
  0
VERTEX
  8
1100LEVEL
 62
13
 10
401.646
 20
-1356.197
 30
4127.000
 70
    32
  0
VERTEX
  8
1100LEVEL
 62
13
 10
439.587
 20
-1412.163
 30
4127.000
 70
    32
  0
VERTEX
  8
1100LEVEL
 62
13
 10
472.949
 20
-1471.411
 30
4127.000
 70
    32
  0
VERTEX
  8
1100LEVEL
 62
13
 10
501.609
 20
-1533.162
 30
4127.000
 70
    32
  0
VERTEX
  8
1100LEVEL
 62
13
 10
528.348
 20
-1595.857
 30
4127.000
 70
    32
  0
VERTEX
  8
1100LEVEL
 62
13
 10
559.602
 20
-1667.876
 30
4127.000
 70
    32
  0
VERTEX
  8
1100LEVEL
 62
13
 10
583.264
 20
-1726.279
 30
4127.000
 70
    32
  0
VERTEX
  8
1100LEVEL
 62
13
 10
596.606
 20
-1779.951
 30
4127.000
 70
    32
  0
VERTEX
  8
1100LEVEL
 62
13
 10
627.165
 20
-1825.616
 30
4127.000
 70
    32
  0
VERTEX
  8
1100LEVEL
 62
13
 10
659.570
 20
-1873.856
 30
4127.000
 70
    32
  0
VERTEX
  8
1100LEVEL
 62
13
 10
688.330
 20
-1921.242
 30
4127.000
 70
    32
  0
VERTEX
  8
1100LEVEL
 62
13
 10
715.346
 20
-1951.689
 30
4127.000
 70
    32
  0
VERTEX
  8
1100LEVEL
 62
13
 10
741.915
 20
-1957.337
 30
4127.000
 70
    32
  0
VERTEX
  8
1100LEVEL
 62
13
 10
754.787
 20
-1945.080
 30
4127.000
 70
    32
  0
VERTEX
  8
1100LEVEL
 62
13
 10
772.485
 20
-1931.098
 30
4127.000
 70
    32
  0
VERTEX
  8
1100LEVEL
 62
13
 10
797.861
 20
-1959.256
 30
4127.000
 70
    32
  0
VERTEX
  8
1100LEVEL
 62
13
 10
787.365
 20
-1920.435
 30
4127.000
 70
    32
  0
VERTEX
  8
1100LEVEL
 62
13
 10
799.847
 20
-1893.733
 30
4127.000
 70
    32
  0
VERTEX
  8
1100LEVEL
 62
13
 10
811.846
 20
-1873.007
 30
4127.000
 70
    32
  0
VERTEX
  8
1100LEVEL
 62
13
 10
796.082
 20
-1814.142
 30
4127.000
 70
    32
  0
VERTEX
  8
1100LEVEL
 62
13
 10
800.929
 20
-1772.556
 30
4127.000
 70
    32
  0
VERTEX
  8
1100LEVEL
 62
13
 10
800.706
 20
-1708.182
 30
4127.000
 70
    32
  0
VERTEX
  8
1100LEVEL
 62
13
 10
818.959
 20
-1681.676
 30
4127.000
 70
    32
  0
VERTEX
  8
1100LEVEL
 62
13
 10
856.177
 20
-1667.132
 30
4127.000
 70
    32
  0
VERTEX
  8
1100LEVEL
 62
13
 10
869.629
 20
-1712.496
 30
4127.000
 70
    32
  0
VERTEX
  8
1100LEVEL
 62
13
 10
884.731
 20
-1766.206
 30
4127.000
 70
    32
  0
VERTEX
  8
1100LEVEL
 62
13
 10
892.191
 20
-1721.014
 30
4127.000
 70
    32
  0
VERTEX
  8
1100LEVEL
 62
13
 10
930.191
 20
-1735.361
 30
4127.000
 70
    32
  0
VERTEX
  8
1100LEVEL
 62
13
 10
978.386
 20
-1779.648
 30
4127.000
 70
    32
  0
VERTEX
  8
1100LEVEL
 62
13
 10
1005.244
 20
-1814.106
 30
4127.000
 70
    32
  0
VERTEX
  8
1100LEVEL
 62
13
 10
1046.195
 20
-1857.954
 30
4127.000
 70
    32
  0
VERTEX
  8
1100LEVEL
 62
13
 10
1080.046
 20
-1862.281
 30
4127.000
 70
    32
  0
VERTEX
  8
1100LEVEL
 62
13
 10
1091.483
 20
-1848.021
 30
4127.000
 70
    32
  0
VERTEX
  8
1100LEVEL
 62
13
 10
1063.227
 20
-1809.801
 30
4127.000
 70
    32
  0
VERTEX
  8
1100LEVEL
 62
13
 10
1036.946
 20
-1751.975
 30
4127.000
 70
    32
  0
VERTEX
  8
1100LEVEL
 62
13
 10
1036.590
 20
-1706.755
 30
4127.000
 70
    32
  0
VERTEX
  8
1100LEVEL
 62
13
 10
1063.708
 20
-1670.863
 30
4127.000
 70
    32
  0
VERTEX
  8
1100LEVEL
 62
13
 10
1116.140
 20
-1675.734
 30
4127.000
 70
    32
  0
VERTEX
  8
1100LEVEL
 62
13
 10
1134.886
 20
-1704.311
 30
4127.000
 70
    32
  0
VERTEX
  8
1100LEVEL
 62
13
 10
1166.731
 20
-1788.034
 30
4127.000
 70
    32
  0
VERTEX
  8
1100LEVEL
 62
13
 10
1190.708
 20
-1864.402
 30
4127.000
 70
    32
  0
VERTEX
  8
1100LEVEL
 62
13
 10
1195.952
 20
-1921.278
 30
4127.000
 70
    32
  0
VERTEX
  8
1100LEVEL
 62
13
 10
1181.642
 20
-1983.504
 30
4127.000
 70
    32
  0
VERTEX
  8
1100LEVEL
 62
13
 10
1153.366
 20
-2011.131
 30
4127.000
 70
    32
  0
VERTEX
  8
1100LEVEL
 62
13
 10
1119.733
 20
-2042.162
 30
4127.000
 70
    32
  0
VERTEX
  8
1100LEVEL
 62
13
 10
1086.243
 20
-2086.084
 30
4127.000
 70
    32
  0
VERTEX
  8
1100LEVEL
 62
13
 10
1092.327
 20
-2130.232
 30
4127.000
 70
    32
  0
VERTEX
  8
1100LEVEL
 62
13
 10
1111.945
 20
-2193.266
 30
4127.000
 70
    32
  0
VERTEX
  8
1100LEVEL
 62
13
 10
1132.461
 20
-2227.938
 30
4127.000
 70
    32
  0
VERTEX
  8
1100LEVEL
 62
13
 10
1177.657
 20
-2238.426
 30
4127.000
 70
    32
  0
VERTEX
  8
1100LEVEL
 62
13
 10
1234.423
 20
-2241.490
 30
4127.000
 70
    32
  0
VERTEX
  8
1100LEVEL
 62
13
 10
1279.729
 20
-2243.671
 30
4127.000
 70
    32
  0
VERTEX
  8
1100LEVEL
 62
13
 10
1335.627
 20
-2267.280
 30
4127.000
 70
    32
  0
VERTEX
  8
1100LEVEL
 62
13
 10
1369.235
 20
-2273.080
 30
4127.000
 70
    32
  0
VERTEX
  8
1100LEVEL
 62
13
 10
1342.128
 20
-2237.068
 30
4127.000
 70
    32
  0
VERTEX
  8
1100LEVEL
 62
13
 10
1303.290
 20
-2209.463
 30
4127.000
 70
    32
  0
VERTEX
  8
1100LEVEL
 62
13
 10
1303.716
 20
-2167.147
 30
4127.000
 70
    32
  0
VERTEX
  8
1100LEVEL
 62
13
 10
1276.803
 20
-2044.375
 30
4127.000
 70
    32
  0
VERTEX
  8
1100LEVEL
 62
13
 10
1267.181
 20
-1988.038
 30
4127.000
 70
    32
  0
VERTEX
  8
1100LEVEL
 62
13
 10
1262.920
 20
-1905.337
 30
4127.000
 70
    32
  0
VERTEX
  8
1100LEVEL
 62
13
 10
1239.778
 20
-1839.199
 30
4127.000
 70
    32
  0
VERTEX
  8
1100LEVEL
 62
13
 10
1213.049
 20
-1782.560
 30
4127.000
 70
    32
  0
VERTEX
  8
1100LEVEL
 62
13
 10
1203.183
 20
-1727.696
 30
4127.000
 70
    32
  0
VERTEX
  8
1100LEVEL
 62
13
 10
1241.637
 20
-1691.910
 30
4127.000
 70
    32
  0
VERTEX
  8
1100LEVEL
 62
13
 10
1275.664
 20
-1730.326
 30
4127.000
 70
    32
  0
VERTEX
  8
1100LEVEL
 62
13
 10
1331.855
 20
-1811.760
 30
4127.000
 70
    32
  0
VERTEX
  8
1100LEVEL
 62
13
 10
1366.892
 20
-1868.509
 30
4127.000
 70
    32
  0
VERTEX
  8
1100LEVEL
 62
13
 10
1391.088
 20
-1928.261
 30
4127.000
 70
    32
  0
VERTEX
  8
1100LEVEL
 62
13
 10
1438.295
 20
-1995.345
 30
4127.000
 70
    32
  0
VERTEX
  8
1100LEVEL
 62
13
 10
1470.929
 20
-2033.026
 30
4127.000
 70
    32
  0
VERTEX
  8
1100LEVEL
 62
13
 10
1466.619
 20
-1998.002
 30
4127.000
 70
    32
  0
VERTEX
  8
1100LEVEL
 62
13
 10
1492.814
 20
-2027.304
 30
4127.000
 70
    32
  0
VERTEX
  8
1100LEVEL
 62
13
 10
1539.154
 20
-2062.959
 30
4127.000
 70
    32
  0
VERTEX
  8
1100LEVEL
 62
13
 10
1558.392
 20
-2091.617
 30
4127.000
 70
    32
  0
VERTEX
  8
1100LEVEL
 62
13
 10
1565.911
 20
-2137.768
 30
4127.000
 70
    32
  0
VERTEX
  8
1100LEVEL
 62
13
 10
1571.227
 20
-2188.096
 30
4127.000
 70
    32
  0
VERTEX
  8
1100LEVEL
 62
13
 10
1592.129
 20
-2208.199
 30
4127.000
 70
    32
  0
VERTEX
  8
1100LEVEL
 62
13
 10
1588.750
 20
-2166.011
 30
4127.000
 70
    32
  0
VERTEX
  8
1100LEVEL
 62
13
 10
1583.668
 20
-2108.153
 30
4127.000
 70
    32
  0
VERTEX
  8
1100LEVEL
 62
13
 10
1575.461
 20
-2067.692
 30
4127.000
 70
    32
  0
VERTEX
  8
1100LEVEL
 62
13
 10
1608.745
 20
-2049.470
 30
4127.000
 70
    32
  0
VERTEX
  8
1100LEVEL
 62
13
 10
1622.371
 20
-2021.948
 30
4127.000
 70
    32
  0
VERTEX
  8
1100LEVEL
 62
13
 10
1653.475
 20
-2023.046
 30
4127.000
 70
    32
  0
VERTEX
  8
1100LEVEL
 62
13
 10
1641.540
 20
-1979.194
 30
4127.000
 70
    32
  0
VERTEX
  8
1100LEVEL
 62
13
 10
1627.535
 20
-1920.367
 30
4127.000
 70
    32
  0
VERTEX
  8
1100LEVEL
 62
13
 10
1601.721
 20
-1873.467
 30
4127.000
 70
    32
  0
VERTEX
  8
1100LEVEL
 62
13
 10
1563.904
 20
-1818.278
 30
4127.000
 70
    32
  0
VERTEX
  8
1100LEVEL
 62
13
 10
1524.604
 20
-1756.788
 30
4127.000
 70
    32
  0
VERTEX
  8
1100LEVEL
 62
13
 10
1509.822
 20
-1698.085
 30
4127.000
 70
    32
  0
VERTEX
  8
1100LEVEL
 62
13
 10
1506.366
 20
-1659.417
 30
4127.000
 70
    32
  0
VERTEX
  8
1100LEVEL
 62
13
 10
1518.590
 20
-1625.104
 30
4127.000
 70
    32
  0
VERTEX
  8
1100LEVEL
 62
13
 10
1499.853
 20
-1602.584
 30
4127.000
 70
    32
  0
VERTEX
  8
1100LEVEL
 62
13
 10
1473.897
 20
-1542.793
 30
4127.000
 70
    32
  0
VERTEX
  8
1100LEVEL
 62
13
 10
1469.878
 20
-1484.606
 30
4127.000
 70
    32
  0
VERTEX
  8
1100LEVEL
 62
13
 10
1463.084
 20
-1431.006
 30
4127.000
 70
    32
  0
VERTEX
  8
1100LEVEL
 62
13
 10
1495.508
 20
-1465.373
 30
4127.000
 70
    32
  0
VERTEX
  8
1100LEVEL
 62
13
 10
1531.018
 20
-1484.102
 30
4127.000
 70
    32
  0
VERTEX
  8
1100LEVEL
 62
13
 10
1565.234
 20
-1539.706
 30
4127.000
 70
    32
  0
VERTEX
  8
1100LEVEL
 62
13
 10
1601.326
 20
-1564.082
 30
4127.000
 70
    32
  0
VERTEX
  8
1100LEVEL
 62
13
 10
1597.455
 20
-1521.813
 30
4127.000
 70
    32
  0
VERTEX
  8
1100LEVEL
 62
13
 10
1576.253
 20
-1466.844
 30
4127.000
 70
    32
  0
VERTEX
  8
1100LEVEL
 62
13
 10
1544.006
 20
-1414.593
 30
4127.000
 70
    32
  0
VERTEX
  8
1100LEVEL
 62
13
 10
1530.550
 20
-1340.214
 30
4127.000
 70
    32
  0
VERTEX
  8
1100LEVEL
 62
13
 10
1513.704
 20
-1269.564
 30
4127.000
 70
    32
  0
VERTEX
  8
1100LEVEL
 62
13
 10
1499.003
 20
-1184.383
 30
4127.000
 70
    32
  0
VERTEX
  8
1100LEVEL
 62
13
 10
1510.164
 20
-1150.399
 30
4127.000
 70
    32
  0
VERTEX
  8
1100LEVEL
 62
13
 10
1549.919
 20
-1161.755
 30
4127.000
 70
    32
  0
VERTEX
  8
1100LEVEL
 62
13
 10
1546.848
 20
-1134.505
 30
4127.000
 70
    32
  0
VERTEX
  8
1100LEVEL
 62
13
 10
1508.049
 20
-1079.153
 30
4127.000
 70
    32
  0
VERTEX
  8
1100LEVEL
 62
13
 10
1494.258
 20
-1026.669
 30
4127.000
 70
    32
  0
VERTEX
  8
1100LEVEL
 62
13
 10
1483.577
 20
-973.689
 30
4127.000
 70
    32
  0
VERTEX
  8
1100LEVEL
 62
13
 10
1480.956
 20
-919.264
 30
4127.000
 70
    32
  0
VERTEX
  8
1100LEVEL
 62
13
 10
1477.362
 20
-870.734
 30
4127.000
 70
    32
  0
VERTEX
  8
1100LEVEL
 62
13
 10
1485.599
 20
-825.418
 30
4127.000
 70
    32
  0
VERTEX
  8
1100LEVEL
 62
13
 10
1507.899
 20
-849.284
 30
4127.000
 70
    32
  0
VERTEX
  8
1100LEVEL
 62
13
 10
1517.400
 20
-800.897
 30
4127.000
 70
    32
  0
VERTEX
  8
1100LEVEL
 62
13
 10
1550.885
 20
-779.933
 30
4127.000
 70
    32
  0
VERTEX
  8
1100LEVEL
 62
13
 10
1577.625
 20
-790.655
 30
4127.000
 70
    32
  0
VERTEX
  8
1100LEVEL
 62
13
 10
1596.883
 20
-779.453
 30
4127.000
 70
    32
  0
VERTEX
  8
1100LEVEL
 62
13
 10
1616.031
 20
-750.572
 30
4127.000
 70
    32
  0
VERTEX
  8
1100LEVEL
 62
13
 10
1621.803
 20
-724.781
 30
4127.000
 70
    32
  0
VERTEX
  8
1100LEVEL
 62
13
 10
1631.796
 20
-676.475
 30
4127.000
 70
    32
  0
VERTEX
  8
1100LEVEL
 62
13
 10
1652.800
 20
-630.239
 30
4127.000
 70
    32
  0
VERTEX
  8
1100LEVEL
 62
13
 10
1665.473
 20
-594.739
 30
4127.000
 70
    32
  0
VERTEX
  8
1100LEVEL
 62
13
 10
1681.372
 20
-608.465
 30
4127.000
 70
    32
  0
VERTEX
  8
1100LEVEL
 62
13
 10
1672.630
 20
-644.614
 30
4127.000
 70
    32
  0
VERTEX
  8
1100LEVEL
 62
13
 10
1659.700
 20
-672.503
 30
4127.000
 70
    32
  0
VERTEX
  8
1100LEVEL
 62
13
 10
1642.959
 20
-697.493
 30
4127.000
 70
    32
  0
VERTEX
  8
1100LEVEL
 62
13
 10
1635.724
 20
-729.097
 30
4127.000
 70
    32
  0
VERTEX
  8
1100LEVEL
 62
13
 10
1626.609
 20
-762.915
 30
4127.000
 70
    32
  0
VERTEX
  8
1100LEVEL
 62
13
 10
1610.460
 20
-799.607
 30
4127.000
 70
    32
  0
VERTEX
  8
1100LEVEL
 62
13
 10
1593.796
 20
-821.077
 30
4127.000
 70
    32
  0
VERTEX
  8
1100LEVEL
 62
13
 10
1569.769
 20
-818.372
 30
4127.000
 70
    32
  0
VERTEX
  8
1100LEVEL
 62
13
 10
1554.537
 20
-812.830
 30
4127.000
 70
    32
  0
VERTEX
  8
1100LEVEL
 62
13
 10
1535.140
 20
-840.156
 30
4127.000
 70
    32
  0
VERTEX
  8
1100LEVEL
 62
13
 10
1546.442
 20
-871.037
 30
4127.000
 70
    32
  0
VERTEX
  8
1100LEVEL
 62
13
 10
1559.384
 20
-904.206
 30
4127.000
 70
    32
  0
VERTEX
  8
1100LEVEL
 62
13
 10
1578.340
 20
-936.098
 30
4127.000
 70
    32
  0
VERTEX
  8
1100LEVEL
 62
13
 10
1602.156
 20
-961.475
 30
4127.000
 70
    32
  0
VERTEX
  8
1100LEVEL
 62
13
 10
1626.182
 20
-990.166
 30
4127.000
 70
    32
  0
VERTEX
  8
1100LEVEL
 62
13
 10
1654.409
 20
-1010.216
 30
4127.000
 70
    32
  0
VERTEX
  8
1100LEVEL
 62
13
 10
1684.473
 20
-1026.785
 30
4127.000
 70
    32
  0
VERTEX
  8
1100LEVEL
 62
13
 10
1712.086
 20
-1019.990
 30
4127.000
 70
    32
  0
VERTEX
  8
1100LEVEL
 62
13
 10
1692.630
 20
-981.961
 30
4127.000
 70
    32
  0
VERTEX
  8
1100LEVEL
 62
13
 10
1660.888
 20
-938.876
 30
4127.000
 70
    32
  0
VERTEX
  8
1100LEVEL
 62
13
 10
1629.852
 20
-902.215
 30
4127.000
 70
    32
  0
VERTEX
  8
1100LEVEL
 62
13
 10
1616.214
 20
-868.678
 30
4127.000
 70
    32
  0
VERTEX
  8
1100LEVEL
 62
13
 10
1641.772
 20
-830.007
 30
4127.000
 70
    32
  0
VERTEX
  8
1100LEVEL
 62
13
 10
1679.740
 20
-797.168
 30
4127.000
 70
    32
  0
VERTEX
  8
1100LEVEL
 62
13
 10
1721.275
 20
-768.703
 30
4127.000
 70
    32
  0
VERTEX
  8
1100LEVEL
 62
13
 10
1744.710
 20
-785.691
 30
4127.000
 70
    32
  0
VERTEX
  8
1100LEVEL
 62
13
 10
1764.927
 20
-759.509
 30
4127.000
 70
    32
  0
VERTEX
  8
1100LEVEL
 62
13
 10
1797.053
 20
-707.036
 30
4127.000
 70
    32
  0
VERTEX
  8
1100LEVEL
 62
13
 10
1841.411
 20
-678.280
 30
4127.000
 70
    32
  0
VERTEX
  8
1100LEVEL
 62
13
 10
1877.990
 20
-673.722
 30
4127.000
 70
    32
  0
VERTEX
  8
1100LEVEL
 62
13
 10
1908.764
 20
-699.743
 30
4127.000
 70
    32
  0
VERTEX
  8
1100LEVEL
 62
13
 10
1935.734
 20
-673.919
 30
4127.000
 70
    32
  0
VERTEX
  8
1100LEVEL
 62
13
 10
1968.495
 20
-608.431
 30
4127.000
 70
    32
  0
VERTEX
  8
1100LEVEL
 62
13
 10
2014.786
 20
-532.814
 30
4127.000
 70
    32
  0
VERTEX
  8
1100LEVEL
 62
13
 10
2049.026
 20
-470.598
 30
4127.000
 70
    32
  0
VERTEX
  8
1100LEVEL
 62
13
 10
2074.970
 20
-469.330
 30
4127.000
 70
    32
  0
VERTEX
  8
1100LEVEL
 62
13
 10
2099.643
 20
-520.078
 30
4127.000
 70
    32
  0
VERTEX
  8
1100LEVEL
 62
13
 10
2119.500
 20
-578.610
 30
4127.000
 70
    32
  0
VERTEX
  8
1100LEVEL
 62
13
 10
2139.180
 20
-629.039
 30
4127.000
 70
    32
  0
VERTEX
  8
1100LEVEL
 62
13
 10
2161.274
 20
-678.605
 30
4127.000
 70
    32
  0
VERTEX
  8
1100LEVEL
 62
13
 10
2195.107
 20
-777.793
 30
4127.000
 70
    32
  0
VERTEX
  8
1100LEVEL
 62
13
 10
2225.961
 20
-855.297
 30
4127.000
 70
    32
  0
VERTEX
  8
1100LEVEL
 62
13
 10
2239.317
 20
-918.054
 30
4127.000
 70
    32
  0
VERTEX
  8
1100LEVEL
 62
13
 10
2254.676
 20
-979.375
 30
4127.000
 70
    32
  0
VERTEX
  8
1100LEVEL
 62
13
 10
2274.600
 20
-1028.330
 30
4127.000
 70
    32
  0
VERTEX
  8
1100LEVEL
 62
13
 10
2293.037
 20
-1015.984
 30
4127.000
 70
    32
  0
VERTEX
  8
1100LEVEL
 62
13
 10
2310.802
 20
-1018.412
 30
4127.000
 70
    32
  0
VERTEX
  8
1100LEVEL
 62
13
 10
2326.093
 20
-982.334
 30
4127.000
 70
    32
  0
VERTEX
  8
1100LEVEL
 62
13
 10
2331.818
 20
-926.259
 30
4127.000
 70
    32
  0
VERTEX
  8
1100LEVEL
 62
13
 10
2328.228
 20
-880.757
 30
4127.000
 70
    32
  0
VERTEX
  8
1100LEVEL
 62
13
 10
2317.600
 20
-809.116
 30
4127.000
 70
    32
  0
VERTEX
  8
1100LEVEL
 62
13
 10
2330.970
 20
-747.996
 30
4127.000
 70
    32
  0
VERTEX
  8
1100LEVEL
 62
13
 10
2322.535
 20
-692.107
 30
4127.000
 70
    32
  0
VERTEX
  8
1100LEVEL
 62
13
 10
2332.881
 20
-634.019
 30
4127.000
 70
    32
  0
VERTEX
  8
1100LEVEL
 62
13
 10
2349.999
 20
-588.404
 30
4127.000
 70
    32
  0
VERTEX
  8
1100LEVEL
 62
13
 10
2370.621
 20
-559.766
 30
4127.000
 70
    32
  0
VERTEX
  8
1100LEVEL
 62
13
 10
2406.982
 20
-519.850
 30
4127.000
 70
    32
  0
SEQEND
  8
1100LEVEL
  0
POLYLINE
  8
1100LEVEL
 62
13
 66
     1
 70
     9
  0
VERTEX
  8
1100LEVEL
 62
13
 10
1869.166
 20
-259.503
 30
4127.000
 70
    32
  0
VERTEX
  8
1100LEVEL
 62
13
 10
1857.453
 20
-280.024
 30
4127.000
 70
    32
  0
VERTEX
  8
1100LEVEL
 62
13
 10
1838.142
 20
-309.887
 30
4127.000
 70
    32
  0
VERTEX
  8
1100LEVEL
 62
13
 10
1826.127
 20
-347.515
 30
4127.000
 70
    32
  0
VERTEX
  8
1100LEVEL
 62
13
 10
1814.552
 20
-377.898
 30
4127.000
 70
    32
  0
VERTEX
  8
1100LEVEL
 62
13
 10
1801.393
 20
-416.346
 30
4127.000
 70
    32
  0
VERTEX
  8
1100LEVEL
 62
13
 10
1784.971
 20
-462.329
 30
4127.000
 70
    32
  0
VERTEX
  8
1100LEVEL
 62
13
 10
1774.115
 20
-508.222
 30
4127.000
 70
    32
  0
VERTEX
  8
1100LEVEL
 62
13
 10
1753.360
 20
-530.025
 30
4127.000
 70
    32
  0
VERTEX
  8
1100LEVEL
 62
13
 10
1726.085
 20
-543.940
 30
4127.000
 70
    32
  0
VERTEX
  8
1100LEVEL
 62
13
 10
1697.665
 20
-558.676
 30
4127.000
 70
    32
  0
VERTEX
  8
1100LEVEL
 62
13
 10
1715.683
 20
-565.687
 30
4127.000
 70
    32
  0
VERTEX
  8
1100LEVEL
 62
13
 10
1746.401
 20
-555.368
 30
4127.000
 70
    32
  0
VERTEX
  8
1100LEVEL
 62
13
 10
1769.946
 20
-538.062
 30
4127.000
 70
    32
  0
VERTEX
  8
1100LEVEL
 62
13
 10
1786.229
 20
-508.203
 30
4127.000
 70
    32
  0
VERTEX
  8
1100LEVEL
 62
13
 10
1787.568
 20
-527.599
 30
4127.000
 70
    32
  0
VERTEX
  8
1100LEVEL
 62
13
 10
1769.731
 20
-557.705
 30
4127.000
 70
    32
  0
VERTEX
  8
1100LEVEL
 62
13
 10
1763.139
 20
-582.352
 30
4127.000
 70
    32
  0
VERTEX
  8
1100LEVEL
 62
13
 10
1787.214
 20
-563.367
 30
4127.000
 70
    32
  0
VERTEX
  8
1100LEVEL
 62
13
 10
1808.438
 20
-526.503
 30
4127.000
 70
    32
  0
VERTEX
  8
1100LEVEL
 62
13
 10
1832.704
 20
-498.719
 30
4127.000
 70
    32
  0
VERTEX
  8
1100LEVEL
 62
13
 10
1857.580
 20
-468.765
 30
4127.000
 70
    32
  0
VERTEX
  8
1100LEVEL
 62
13
 10
1878.374
 20
-445.201
 30
4127.000
 70
    32
  0
VERTEX
  8
1100LEVEL
 62
13
 10
1885.009
 20
-421.824
 30
4127.000
 70
    32
  0
VERTEX
  8
1100LEVEL
 62
13
 10
1908.961
 20
-376.075
 30
4127.000
 70
    32
  0
VERTEX
  8
1100LEVEL
 62
13
 10
1915.524
 20
-333.258
 30
4127.000
 70
    32
  0
VERTEX
  8
1100LEVEL
 62
13
 10
1939.280
 20
-319.266
 30
4127.000
 70
    32
  0
VERTEX
  8
1100LEVEL
 62
13
 10
1964.199
 20
-290.581
 30
4127.000
 70
    32
  0
VERTEX
  8
1100LEVEL
 62
13
 10
1968.812
 20
-256.525
 30
4127.000
 70
    32
  0
VERTEX
  8
1100LEVEL
 62
13
 10
1929.024
 20
-249.957
 30
4127.000
 70
    32
  0
SEQEND
  8
1100LEVEL
  0
POLYLINE
  8
1100LEVEL
 62
7
 66
     1
 70
     8
  0
VERTEX
  8
1100LEVEL
 62
7
 10
2440.341
 20
-550.082
 30
4127.000
 70
    32
  0
VERTEX
  8
1100LEVEL
 62
7
 10
2424.311
 20
-584.524
 30
4127.000
 70
    32
  0
VERTEX
  8
1100LEVEL
 62
7
 10
2399.196
 20
-618.980
 30
4127.000
 70
    32
  0
VERTEX
  8
1100LEVEL
 62
7
 10
2390.061
 20
-666.670
 30
4127.000
 70
    32
  0
VERTEX
  8
1100LEVEL
 62
7
 10
2380.316
 20
-716.531
 30
4127.000
 70
    32
  0
VERTEX
  8
1100LEVEL
 62
7
 10
2381.245
 20
-761.341
 30
4127.000
 70
    32
  0
VERTEX
  8
1100LEVEL
 62
7
 10
2381.749
 20
-822.481
 30
4127.000
 70
    32
  0
VERTEX
  8
1100LEVEL
 62
7
 10
2384.780
 20
-877.478
 30
4127.000
 70
    32
  0
VERTEX
  8
1100LEVEL
 62
7
 10
2378.082
 20
-939.447
 30
4127.000
 70
    32
  0
VERTEX
  8
1100LEVEL
 62
7
 10
2381.457
 20
-978.606
 30
4127.000
 70
    32
  0
VERTEX
  8
1100LEVEL
 62
7
 10
2393.503
 20
-1014.151
 30
4127.000
 70
    32
  0
VERTEX
  8
1100LEVEL
 62
7
 10
2377.864
 20
-1063.038
 30
4127.000
 70
    32
  0
VERTEX
  8
1100LEVEL
 62
7
 10
2366.683
 20
-1110.896
 30
4127.000
 70
    32
  0
VERTEX
  8
1100LEVEL
 62
7
 10
2370.989
 20
-1142.892
 30
4127.000
 70
    32
  0
VERTEX
  8
1100LEVEL
 62
7
 10
2347.181
 20
-1149.558
 30
4127.000
 70
    32
  0
VERTEX
  8
1100LEVEL
 62
7
 10
2321.024
 20
-1118.496
 30
4127.000
 70
    32
  0
VERTEX
  8
1100LEVEL
 62
7
 10
2291.375
 20
-1105.528
 30
4127.000
 70
    32
  0
VERTEX
  8
1100LEVEL
 62
7
 10
2262.634
 20
-1044.268
 30
4127.000
 70
    32
  0
VERTEX
  8
1100LEVEL
 62
7
 10
2238.394
 20
-983.247
 30
4127.000
 70
    32
  0
VERTEX
  8
1100LEVEL
 62
7
 10
2227.217
 20
-927.157
 30
4127.000
 70
    32
  0
VERTEX
  8
1100LEVEL
 62
7
 10
2211.510
 20
-878.646
 30
4127.000
 70
    32
  0
VERTEX
  8
1100LEVEL
 62
7
 10
2193.866
 20
-821.993
 30
4127.000
 70
    32
  0
VERTEX
  8
1100LEVEL
 62
7
 10
2171.849
 20
-768.908
 30
4127.000
 70
    32
  0
VERTEX
  8
1100LEVEL
 62
7
 10
2153.332
 20
-703.785
 30
4127.000
 70
    32
  0
VERTEX
  8
1100LEVEL
 62
7
 10
2137.667
 20
-656.542
 30
4127.000
 70
    32
  0
VERTEX
  8
1100LEVEL
 62
7
 10
2118.087
 20
-617.736
 30
4127.000
 70
    32
  0
VERTEX
  8
1100LEVEL
 62
7
 10
2090.092
 20
-616.142
 30
4127.000
 70
    32
  0
VERTEX
  8
1100LEVEL
 62
7
 10
2062.790
 20
-585.900
 30
4127.000
 70
    32
  0
VERTEX
  8
1100LEVEL
 62
7
 10
2024.007
 20
-620.623
 30
4127.000
 70
    32
  0
VERTEX
  8
1100LEVEL
 62
7
 10
1990.040
 20
-673.549
 30
4127.000
 70
    32
  0
VERTEX
  8
1100LEVEL
 62
7
 10
1960.475
 20
-715.091
 30
4127.000
 70
    32
  0
VERTEX
  8
1100LEVEL
 62
7
 10
1926.742
 20
-760.487
 30
4127.000
 70
    32
  0
VERTEX
  8
1100LEVEL
 62
7
 10
1887.511
 20
-770.410
 30
4127.000
 70
    32
  0
VERTEX
  8
1100LEVEL
 62
7
 10
1862.441
 20
-728.175
 30
4127.000
 70
    32
  0
VERTEX
  8
1100LEVEL
 62
7
 10
1825.881
 20
-744.846
 30
4127.000
 70
    32
  0
VERTEX
  8
1100LEVEL
 62
7
 10
1788.198
 20
-803.467
 30
4127.000
 70
    32
  0
VERTEX
  8
1100LEVEL
 62
7
 10
1767.456
 20
-860.342
 30
4127.000
 70
    32
  0
VERTEX
  8
1100LEVEL
 62
7
 10
1762.361
 20
-900.373
 30
4127.000
 70
    32
  0
VERTEX
  8
1100LEVEL
 62
7
 10
1738.182
 20
-904.708
 30
4127.000
 70
    32
  0
VERTEX
  8
1100LEVEL
 62
7
 10
1719.506
 20
-921.556
 30
4127.000
 70
    32
  0
VERTEX
  8
1100LEVEL
 62
7
 10
1731.422
 20
-979.282
 30
4127.000
 70
    32
  0
VERTEX
  8
1100LEVEL
 62
7
 10
1742.670
 20
-1028.823
 30
4127.000
 70
    32
  0
VERTEX
  8
1100LEVEL
 62
7
 10
1742.206
 20
-1072.899
 30
4127.000
 70
    32
  0
VERTEX
  8
1100LEVEL
 62
7
 10
1711.693
 20
-1083.505
 30
4127.000
 70
    32
  0
VERTEX
  8
1100LEVEL
 62
7
 10
1691.511
 20
-1078.911
 30
4127.000
 70
    32
  0
VERTEX
  8
1100LEVEL
 62
7
 10
1620.626
 20
-996.313
 30
4127.000
 70
    32
  0
VERTEX
  8
1100LEVEL
 62
7
 10
1590.629
 20
-970.168
 30
4127.000
 70
    32
  0
VERTEX
  8
1100LEVEL
 62
7
 10
1557.910
 20
-929.950
 30
4127.000
 70
    32
  0
VERTEX
  8
1100LEVEL
 62
7
 10
1536.083
 20
-894.052
 30
4127.000
 70
    32
  0
VERTEX
  8
1100LEVEL
 62
7
 10
1518.833
 20
-880.860
 30
4127.000
 70
    32
  0
VERTEX
  8
1100LEVEL
 62
7
 10
1506.547
 20
-901.791
 30
4127.000
 70
    32
  0
VERTEX
  8
1100LEVEL
 62
7
 10
1505.559
 20
-950.574
 30
4127.000
 70
    32
  0
VERTEX
  8
1100LEVEL
 62
7
 10
1508.843
 20
-984.168
 30
4127.000
 70
    32
  0
VERTEX
  8
1100LEVEL
 62
7
 10
1530.775
 20
-1034.716
 30
4127.000
 70
    32
  0
VERTEX
  8
1100LEVEL
 62
7
 10
1556.598
 20
-1087.673
 30
4127.000
 70
    32
  0
VERTEX
  8
1100LEVEL
 62
7
 10
1596.537
 20
-1139.175
 30
4127.000
 70
    32
  0
VERTEX
  8
1100LEVEL
 62
7
 10
1642.772
 20
-1186.167
 30
4127.000
 70
    32
  0
VERTEX
  8
1100LEVEL
 62
7
 10
1670.827
 20
-1227.129
 30
4127.000
 70
    32
  0
VERTEX
  8
1100LEVEL
 62
7
 10
1634.863
 20
-1232.546
 30
4127.000
 70
    32
  0
VERTEX
  8
1100LEVEL
 62
7
 10
1622.415
 20
-1254.459
 30
4127.000
 70
    32
  0
VERTEX
  8
1100LEVEL
 62
7
 10
1649.793
 20
-1307.168
 30
4127.000
 70
    32
  0
VERTEX
  8
1100LEVEL
 62
7
 10
1672.353
 20
-1367.660
 30
4127.000
 70
    32
  0
VERTEX
  8
1100LEVEL
 62
7
 10
1697.218
 20
-1409.609
 30
4127.000
 70
    32
  0
VERTEX
  8
1100LEVEL
 62
7
 10
1729.999
 20
-1463.210
 30
4127.000
 70
    32
  0
VERTEX
  8
1100LEVEL
 62
7
 10
1734.595
 20
-1498.030
 30
4127.000
 70
    32
  0
VERTEX
  8
1100LEVEL
 62
7
 10
1694.822
 20
-1474.560
 30
4127.000
 70
    32
  0
VERTEX
  8
1100LEVEL
 62
7
 10
1656.361
 20
-1426.329
 30
4127.000
 70
    32
  0
VERTEX
  8
1100LEVEL
 62
7
 10
1673.542
 20
-1475.083
 30
4127.000
 70
    32
  0
VERTEX
  8
1100LEVEL
 62
7
 10
1709.766
 20
-1532.280
 30
4127.000
 70
    32
  0
VERTEX
  8
1100LEVEL
 62
7
 10
1751.270
 20
-1589.592
 30
4127.000
 70
    32
  0
VERTEX
  8
1100LEVEL
 62
7
 10
1794.305
 20
-1631.513
 30
4127.000
 70
    32
  0
VERTEX
  8
1100LEVEL
 62
7
 10
1830.706
 20
-1670.826
 30
4127.000
 70
    32
  0
VERTEX
  8
1100LEVEL
 62
7
 10
1842.365
 20
-1720.940
 30
4127.000
 70
    32
  0
VERTEX
  8
1100LEVEL
 62
7
 10
1857.057
 20
-1774.078
 30
4127.000
 70
    32
  0
VERTEX
  8
1100LEVEL
 62
7
 10
1881.186
 20
-1843.407
 30
4127.000
 70
    32
  0
VERTEX
  8
1100LEVEL
 62
7
 10
1888.162
 20
-1882.151
 30
4127.000
 70
    32
  0
VERTEX
  8
1100LEVEL
 62
7
 10
1888.372
 20
-1885.465
 30
4127.000
 70
    32
  0
VERTEX
  8
1100LEVEL
 62
7
 10
1870.749
 20
-1895.928
 30
4127.000
 70
    32
  0
VERTEX
  8
1100LEVEL
 62
7
 10
1816.931
 20
-1867.364
 30
4127.000
 70
    32
  0
VERTEX
  8
1100LEVEL
 62
7
 10
1744.667
 20
-1819.104
 30
4127.000
 70
    32
  0
VERTEX
  8
1100LEVEL
 62
7
 10
1691.388
 20
-1768.931
 30
4127.000
 70
    32
  0
VERTEX
  8
1100LEVEL
 62
7
 10
1668.117
 20
-1724.974
 30
4127.000
 70
    32
  0
VERTEX
  8
1100LEVEL
 62
7
 10
1636.880
 20
-1691.055
 30
4127.000
 70
    32
  0
VERTEX
  8
1100LEVEL
 62
7
 10
1631.967
 20
-1716.231
 30
4127.000
 70
    32
  0
VERTEX
  8
1100LEVEL
 62
7
 10
1633.583
 20
-1755.352
 30
4127.000
 70
    32
  0
VERTEX
  8
1100LEVEL
 62
7
 10
1662.439
 20
-1811.332
 30
4127.000
 70
    32
  0
VERTEX
  8
1100LEVEL
 62
7
 10
1686.744
 20
-1888.764
 30
4127.000
 70
    32
  0
VERTEX
  8
1100LEVEL
 62
7
 10
1691.740
 20
-1944.085
 30
4127.000
 70
    32
  0
VERTEX
  8
1100LEVEL
 62
7
 10
1697.766
 20
-2003.866
 30
4127.000
 70
    32
  0
VERTEX
  8
1100LEVEL
 62
7
 10
1700.822
 20
-2048.018
 30
4127.000
 70
    32
  0
VERTEX
  8
1100LEVEL
 62
7
 10
1699.691
 20
-2083.910
 30
4127.000
 70
    32
  0
VERTEX
  8
1100LEVEL
 62
7
 10
1671.401
 20
-2076.465
 30
4127.000
 70
    32
  0
VERTEX
  8
1100LEVEL
 62
7
 10
1673.945
 20
-2134.409
 30
4127.000
 70
    32
  0
VERTEX
  8
1100LEVEL
 62
7
 10
1682.767
 20
-2175.729
 30
4127.000
 70
    32
  0
VERTEX
  8
1100LEVEL
 62
7
 10
1660.166
 20
-2168.971
 30
4127.000
 70
    32
  0
VERTEX
  8
1100LEVEL
 62
7
 10
1704.389
 20
-2211.341
 30
4127.000
 70
    32
  0
VERTEX
  8
1100LEVEL
 62
7
 10
1721.790
 20
-2243.480
 30
4127.000
 70
    32
  0
VERTEX
  8
1100LEVEL
 62
7
 10
1765.350
 20
-2280.695
 30
4127.000
 70
    32
  0
VERTEX
  8
1100LEVEL
 62
7
 10
1785.755
 20
-2323.674
 30
4127.000
 70
    32
  0
VERTEX
  8
1100LEVEL
 62
7
 10
1808.240
 20
-2361.699
 30
4127.000
 70
    32
  0
VERTEX
  8
1100LEVEL
 62
7
 10
1844.646
 20
-2404.040
 30
4127.000
 70
    32
  0
VERTEX
  8
1100LEVEL
 62
7
 10
1837.911
 20
-2441.782
 30
4127.000
 70
    32
  0
VERTEX
  8
1100LEVEL
 62
7
 10
1795.157
 20
-2422.614
 30
4127.000
 70
    32
  0
VERTEX
  8
1100LEVEL
 62
7
 10
1788.875
 20
-2436.210
 30
4127.000
 70
    32
  0
VERTEX
  8
1100LEVEL
 62
7
 10
1832.348
 20
-2496.875
 30
4127.000
 70
    32
  0
VERTEX
  8
1100LEVEL
 62
7
 10
1904.240
 20
-2568.790
 30
4127.000
 70
    32
  0
VERTEX
  8
1100LEVEL
 62
7
 10
1937.956
 20
-2618.256
 30
4127.000
 70
    32
  0
VERTEX
  8
1100LEVEL
 62
7
 10
1960.407
 20
-2661.069
 30
4127.000
 70
    32
  0
VERTEX
  8
1100LEVEL
 62
7
 10
1961.179
 20
-2683.903
 30
4127.000
 70
    32
  0
VERTEX
  8
1100LEVEL
 62
7
 10
1951.503
 20
-2672.214
 30
4127.000
 70
    32
  0
VERTEX
  8
1100LEVEL
 62
7
 10
1925.623
 20
-2634.890
 30
4127.000
 70
    32
  0
VERTEX
  8
1100LEVEL
 62
7
 10
1894.339
 20
-2596.674
 30
4127.000
 70
    32
  0
VERTEX
  8
1100LEVEL
 62
7
 10
1849.715
 20
-2559.789
 30
4127.000
 70
    32
  0
VERTEX
  8
1100LEVEL
 62
7
 10
1800.075
 20
-2533.428
 30
4127.000
 70
    32
  0
VERTEX
  8
1100LEVEL
 62
7
 10
1727.534
 20
-2491.430
 30
4127.000
 70
    32
  0
VERTEX
  8
1100LEVEL
 62
7
 10
1670.087
 20
-2445.110
 30
4127.000
 70
    32
  0
VERTEX
  8
1100LEVEL
 62
7
 10
1617.299
 20
-2395.019
 30
4127.000
 70
    32
  0
VERTEX
  8
1100LEVEL
 62
7
 10
1573.240
 20
-2325.680
 30
4127.000
 70
    32
  0
VERTEX
  8
1100LEVEL
 62
7
 10
1537.236
 20
-2251.868
 30
4127.000
 70
    32
  0
VERTEX
  8
1100LEVEL
 62
7
 10
1504.212
 20
-2199.740
 30
4127.000
 70
    32
  0
VERTEX
  8
1100LEVEL
 62
7
 10
1468.531
 20
-2149.950
 30
4127.000
 70
    32
  0
VERTEX
  8
1100LEVEL
 62
7
 10
1447.282
 20
-2090.684
 30
4127.000
 70
    32
  0
VERTEX
  8
1100LEVEL
 62
7
 10
1403.332
 20
-2039.024
 30
4127.000
 70
    32
  0
VERTEX
  8
1100LEVEL
 62
7
 10
1378.214
 20
-1992.491
 30
4127.000
 70
    32
  0
VERTEX
  8
1100LEVEL
 62
7
 10
1354.819
 20
-1947.756
 30
4127.000
 70
    32
  0
VERTEX
  8
1100LEVEL
 62
7
 10
1321.379
 20
-1918.015
 30
4127.000
 70
    32
  0
VERTEX
  8
1100LEVEL
 62
7
 10
1327.492
 20
-1954.346
 30
4127.000
 70
    32
  0
VERTEX
  8
1100LEVEL
 62
7
 10
1358.517
 20
-2010.937
 30
4127.000
 70
    32
  0
VERTEX
  8
1100LEVEL
 62
7
 10
1398.308
 20
-2098.494
 30
4127.000
 70
    32
  0
VERTEX
  8
1100LEVEL
 62
7
 10
1441.928
 20
-2175.077
 30
4127.000
 70
    32
  0
VERTEX
  8
1100LEVEL
 62
7
 10
1471.046
 20
-2241.698
 30
4127.000
 70
    32
  0
VERTEX
  8
1100LEVEL
 62
7
 10
1445.088
 20
-2233.880
 30
4127.000
 70
    32
  0
VERTEX
  8
1100LEVEL
 62
7
 10
1462.355
 20
-2285.172
 30
4127.000
 70
    32
  0
VERTEX
  8
1100LEVEL
 62
7
 10
1477.300
 20
-2342.893
 30
4127.000
 70
    32
  0
VERTEX
  8
1100LEVEL
 62
7
 10
1512.346
 20
-2405.698
 30
4127.000
 70
    32
  0
VERTEX
  8
1100LEVEL
 62
7
 10
1482.167
 20
-2420.396
 30
4127.000
 70
    32
  0
VERTEX
  8
1100LEVEL
 62
7
 10
1428.329
 20
-2405.705
 30
4127.000
 70
    32
  0
VERTEX
  8
1100LEVEL
 62
7
 10
1398.413
 20
-2379.069
 30
4127.000
 70
    32
  0
VERTEX
  8
1100LEVEL
 62
7
 10
1353.184
 20
-2347.382
 30
4127.000
 70
    32
  0
VERTEX
  8
1100LEVEL
 62
7
 10
1303.109
 20
-2357.281
 30
4127.000
 70
    32
  0
VERTEX
  8
1100LEVEL
 62
7
 10
1253.558
 20
-2336.486
 30
4127.000
 70
    32
  0
VERTEX
  8
1100LEVEL
 62
7
 10
1182.514
 20
-2309.872
 30
4127.000
 70
    32
  0
VERTEX
  8
1100LEVEL
 62
7
 10
1131.572
 20
-2288.343
 30
4127.000
 70
    32
  0
VERTEX
  8
1100LEVEL
 62
7
 10
1085.275
 20
-2227.969
 30
4127.000
 70
    32
  0
VERTEX
  8
1100LEVEL
 62
7
 10
1043.929
 20
-2166.647
 30
4127.000
 70
    32
  0
VERTEX
  8
1100LEVEL
 62
7
 10
1033.531
 20
-2084.447
 30
4127.000
 70
    32
  0
VERTEX
  8
1100LEVEL
 62
7
 10
1039.618
 20
-2024.648
 30
4127.000
 70
    32
  0
VERTEX
  8
1100LEVEL
 62
7
 10
1021.420
 20
-1980.519
 30
4127.000
 70
    32
  0
VERTEX
  8
1100LEVEL
 62
7
 10
1000.908
 20
-2000.849
 30
4127.000
 70
    32
  0
VERTEX
  8
1100LEVEL
 62
7
 10
951.075
 20
-2009.274
 30
4127.000
 70
    32
  0
VERTEX
  8
1100LEVEL
 62
7
 10
950.120
 20
-2053.269
 30
4127.000
 70
    32
  0
VERTEX
  8
1100LEVEL
 62
7
 10
1012.011
 20
-2115.460
 30
4127.000
 70
    32
  0
VERTEX
  8
1100LEVEL
 62
7
 10
1021.137
 20
-2194.674
 30
4127.000
 70
    32
  0
VERTEX
  8
1100LEVEL
 62
7
 10
1032.700
 20
-2262.181
 30
4127.000
 70
    32
  0
VERTEX
  8
1100LEVEL
 62
7
 10
1043.047
 20
-2311.069
 30
4127.000
 70
    32
  0
VERTEX
  8
1100LEVEL
 62
7
 10
1086.955
 20
-2335.474
 30
4127.000
 70
    32
  0
VERTEX
  8
1100LEVEL
 62
7
 10
1121.044
 20
-2361.286
 30
4127.000
 70
    32
  0
VERTEX
  8
1100LEVEL
 62
7
 10
1159.998
 20
-2357.624
 30
4127.000
 70
    32
  0
VERTEX
  8
1100LEVEL
 62
7
 10
1141.836
 20
-2389.696
 30
4127.000
 70
    32
  0
VERTEX
  8
1100LEVEL
 62
7
 10
1159.060
 20
-2439.719
 30
4127.000
 70
    32
  0
VERTEX
  8
1100LEVEL
 62
7
 10
1153.546
 20
-2473.122
 30
4127.000
 70
    32
  0
VERTEX
  8
1100LEVEL
 62
7
 10
1105.722
 20
-2457.153
 30
4127.000
 70
    32
  0
VERTEX
  8
1100LEVEL
 62
7
 10
1062.114
 20
-2441.628
 30
4127.000
 70
    32
  0
VERTEX
  8
1100LEVEL
 62
7
 10
1009.236
 20
-2411.958
 30
4127.000
 70
    32
  0
VERTEX
  8
1100LEVEL
 62
7
 10
1053.711
 20
-2458.911
 30
4127.000
 70
    32
  0
VERTEX
  8
1100LEVEL
 62
7
 10
1107.514
 20
-2504.377
 30
4127.000
 70
    32
  0
VERTEX
  8
1100LEVEL
 62
7
 10
1073.892
 20
-2515.478
 30
4127.000
 70
    32
  0
VERTEX
  8
1100LEVEL
 62
7
 10
1027.218
 20
-2475.731
 30
4127.000
 70
    32
  0
VERTEX
  8
1100LEVEL
 62
7
 10
1032.787
 20
-2504.656
 30
4127.000
 70
    32
  0
VERTEX
  8
1100LEVEL
 62
7
 10
1001.350
 20
-2499.466
 30
4127.000
 70
    32
  0
VERTEX
  8
1100LEVEL
 62
7
 10
957.194
 20
-2447.520
 30
4127.000
 70
    32
  0
VERTEX
  8
1100LEVEL
 62
7
 10
925.882
 20
-2391.134
 30
4127.000
 70
    32
  0
VERTEX
  8
1100LEVEL
 62
7
 10
899.024
 20
-2356.676
 30
4127.000
 70
    32
  0
VERTEX
  8
1100LEVEL
 62
7
 10
844.123
 20
-2342.315
 30
4127.000
 70
    32
  0
VERTEX
  8
1100LEVEL
 62
7
 10
785.317
 20
-2290.473
 30
4127.000
 70
    32
  0
VERTEX
  8
1100LEVEL
 62
7
 10
734.170
 20
-2242.671
 30
4127.000
 70
    32
  0
VERTEX
  8
1100LEVEL
 62
7
 10
689.977
 20
-2192.484
 30
4127.000
 70
    32
  0
VERTEX
  8
1100LEVEL
 62
7
 10
656.280
 20
-2129.145
 30
4127.000
 70
    32
  0
VERTEX
  8
1100LEVEL
 62
7
 10
621.640
 20
-2063.884
 30
4127.000
 70
    32
  0
VERTEX
  8
1100LEVEL
 62
7
 10
611.779
 20
-2012.048
 30
4127.000
 70
    32
  0
VERTEX
  8
1100LEVEL
 62
7
 10
587.096
 20
-1955.243
 30
4127.000
 70
    32
  0
VERTEX
  8
1100LEVEL
 62
7
 10
566.328
 20
-1915.988
 30
4127.000
 70
    32
  0
VERTEX
  8
1100LEVEL
 62
7
 10
583.614
 20
-1979.393
 30
4127.000
 70
    32
  0
VERTEX
  8
1100LEVEL
 62
7
 10
598.182
 20
-2031.754
 30
4127.000
 70
    32
  0
VERTEX
  8
1100LEVEL
 62
7
 10
601.886
 20
-2071.976
 30
4127.000
 70
    32
  0
VERTEX
  8
1100LEVEL
 62
7
 10
626.970
 20
-2123.297
 30
4127.000
 70
    32
  0
VERTEX
  8
1100LEVEL
 62
7
 10
644.227
 20
-2168.532
 30
4127.000
 70
    32
  0
VERTEX
  8
1100LEVEL
 62
7
 10
676.560
 20
-2223.321
 30
4127.000
 70
    32
  0
VERTEX
  8
1100LEVEL
 62
7
 10
720.028
 20
-2280.956
 30
4127.000
 70
    32
  0
VERTEX
  8
1100LEVEL
 62
7
 10
766.439
 20
-2336.050
 30
4127.000
 70
    32
  0
VERTEX
  8
1100LEVEL
 62
7
 10
798.972
 20
-2388.096
 30
4127.000
 70
    32
  0
VERTEX
  8
1100LEVEL
 62
7
 10
835.101
 20
-2436.699
 30
4127.000
 70
    32
  0
VERTEX
  8
1100LEVEL
 62
7
 10
881.436
 20
-2495.313
 30
4127.000
 70
    32
  0
VERTEX
  8
1100LEVEL
 62
7
 10
931.509
 20
-2563.374
 30
4127.000
 70
    32
  0
VERTEX
  8
1100LEVEL
 62
7
 10
989.122
 20
-2637.726
 30
4127.000
 70
    32
  0
VERTEX
  8
1100LEVEL
 62
7
 10
1061.605
 20
-2721.345
 30
4127.000
 70
    32
  0
VERTEX
  8
1100LEVEL
 62
7
 10
1111.811
 20
-2796.240
 30
4127.000
 70
    32
  0
VERTEX
  8
1100LEVEL
 62
7
 10
1163.324
 20
-2869.333
 30
4127.000
 70
    32
  0
VERTEX
  8
1100LEVEL
 62
7
 10
1221.943
 20
-2958.989
 30
4127.000
 70
    32
  0
VERTEX
  8
1100LEVEL
 62
7
 10
1281.830
 20
-3048.602
 30
4127.000
 70
    32
  0
VERTEX
  8
1100LEVEL
 62
7
 10
1342.567
 20
-3131.543
 30
4127.000
 70
    32
  0
VERTEX
  8
1100LEVEL
 62
7
 10
1399.722
 20
-3201.025
 30
4127.000
 70
    32
  0
VERTEX
  8
1100LEVEL
 62
7
 10
1428.536
 20
-3229.751
 30
4127.000
 70
    32
  0
VERTEX
  8
1100LEVEL
 62
7
 10
1663.789
 20
-3270.353
 30
4127.000
 70
    32
  0
VERTEX
  8
1100LEVEL
 62
7
 10
1685.664
 20
-3284.560
 30
4127.000
 70
    32
  0
VERTEX
  8
1100LEVEL
 62
7
 10
1670.546
 20
-3299.726
 30
4127.000
 70
    32
  0
VERTEX
  8
1100LEVEL
 62
7
 10
1433.046
 20
-3262.033
 30
4127.000
 70
    32
  0
VERTEX
  8
1100LEVEL
 62
7
 10
1398.881
 20
-3239.741
 30
4127.000
 70
    32
  0
VERTEX
  8
1100LEVEL
 62
7
 10
1374.832
 20
-3221.894
 30
4127.000
 70
    32
  0
VERTEX
  8
1100LEVEL
 62
7
 10
1351.363
 20
-3209.694
 30
4127.000
 70
    32
  0
VERTEX
  8
1100LEVEL
 62
7
 10
1388.184
 20
-3255.636
 30
4127.000
 70
    32
  0
VERTEX
  8
1100LEVEL
 62
7
 10
1430.989
 20
-3308.116
 30
4127.000
 70
    32
  0
VERTEX
  8
1100LEVEL
 62
7
 10
1458.292
 20
-3338.358
 30
4127.000
 70
    32
  0
VERTEX
  8
1100LEVEL
 62
7
 10
1701.461
 20
-3390.611
 30
4127.000
 70
    32
  0
VERTEX
  8
1100LEVEL
 62
7
 10
1747.957
 20
-3448.242
 30
4127.000
 70
    32
  0
VERTEX
  8
1100LEVEL
 62
7
 10
1808.103
 20
-3519.480
 30
4127.000
 70
    32
  0
VERTEX
  8
1100LEVEL
 62
7
 10
1822.695
 20
-3560.995
 30
4127.000
 70
    32
  0
VERTEX
  8
1100LEVEL
 62
7
 10
1865.519
 20
-3625.589
 30
4127.000
 70
    32
  0
VERTEX
  8
1100LEVEL
 62
7
 10
1913.055
 20
-3693.736
 30
4127.000
 70
    32
  0
VERTEX
  8
1100LEVEL
 62
7
 10
1935.087
 20
-3729.920
 30
4127.000
 70
    32
  0
SEQEND
  8
1100LEVEL
  0
POLYLINE
  8
1100LEVEL
 62
7
 66
     1
 70
     9
  0
VERTEX
  8
1100LEVEL
 62
7
 10
1579.195
 20
-2683.919
 30
4127.000
 70
    32
  0
VERTEX
  8
1100LEVEL
 62
7
 10
1611.767
 20
-2708.219
 30
4127.000
 70
    32
  0
VERTEX
  8
1100LEVEL
 62
7
 10
1629.950
 20
-2743.263
 30
4127.000
 70
    32
  0
VERTEX
  8
1100LEVEL
 62
7
 10
1654.596
 20
-2775.841
 30
4127.000
 70
    32
  0
VERTEX
  8
1100LEVEL
 62
7
 10
1691.036
 20
-2787.407
 30
4127.000
 70
    32
  0
VERTEX
  8
1100LEVEL
 62
7
 10
1739.908
 20
-2819.948
 30
4127.000
 70
    32
  0
VERTEX
  8
1100LEVEL
 62
7
 10
1772.095
 20
-2832.831
 30
4127.000
 70
    32
  0
VERTEX
  8
1100LEVEL
 62
7
 10
1803.509
 20
-2822.879
 30
4127.000
 70
    32
  0
VERTEX
  8
1100LEVEL
 62
7
 10
1839.738
 20
-2857.117
 30
4127.000
 70
    32
  0
VERTEX
  8
1100LEVEL
 62
7
 10
1888.749
 20
-2899.521
 30
4127.000
 70
    32
  0
VERTEX
  8
1100LEVEL
 62
7
 10
1916.027
 20
-2940.607
 30
4127.000
 70
    32
  0
VERTEX
  8
1100LEVEL
 62
7
 10
1945.794
 20
-2977.311
 30
4127.000
 70
    32
  0
VERTEX
  8
1100LEVEL
 62
7
 10
1956.418
 20
-3019.937
 30
4127.000
 70
    32
  0
VERTEX
  8
1100LEVEL
 62
7
 10
1975.321
 20
-3070.490
 30
4127.000
 70
    32
  0
VERTEX
  8
1100LEVEL
 62
7
 10
2003.167
 20
-3108.138
 30
4127.000
 70
    32
  0
VERTEX
  8
1100LEVEL
 62
7
 10
2030.344
 20
-3163.589
 30
4127.000
 70
    32
  0
VERTEX
  8
1100LEVEL
 62
7
 10
2045.570
 20
-3218.077
 30
4127.000
 70
    32
  0
VERTEX
  8
1100LEVEL
 62
7
 10
2062.956
 20
-3267.118
 30
4127.000
 70
    32
  0
VERTEX
  8
1100LEVEL
 62
7
 10
2057.338
 20
-3285.870
 30
4127.000
 70
    32
  0
VERTEX
  8
1100LEVEL
 62
7
 10
2025.214
 20
-3260.383
 30
4127.000
 70
    32
  0
VERTEX
  8
1100LEVEL
 62
7
 10
1995.670
 20
-3236.078
 30
4127.000
 70
    32
  0
VERTEX
  8
1100LEVEL
 62
7
 10
1961.926
 20
-3194.429
 30
4127.000
 70
    32
  0
VERTEX
  8
1100LEVEL
 62
7
 10
1927.270
 20
-3146.069
 30
4127.000
 70
    32
  0
VERTEX
  8
1100LEVEL
 62
7
 10
1918.516
 20
-3095.173
 30
4127.000
 70
    32
  0
VERTEX
  8
1100LEVEL
 62
7
 10
1897.428
 20
-3060.911
 30
4127.000
 70
    32
  0
VERTEX
  8
1100LEVEL
 62
7
 10
1848.322
 20
-3035.901
 30
4127.000
 70
    32
  0
VERTEX
  8
1100LEVEL
 62
7
 10
1811.443
 20
-3005.592
 30
4127.000
 70
    32
  0
VERTEX
  8
1100LEVEL
 62
7
 10
1797.572
 20
-2953.599
 30
4127.000
 70
    32
  0
VERTEX
  8
1100LEVEL
 62
7
 10
1761.953
 20
-2917.191
 30
4127.000
 70
    32
  0
VERTEX
  8
1100LEVEL
 62
7
 10
1718.598
 20
-2880.262
 30
4127.000
 70
    32
  0
VERTEX
  8
1100LEVEL
 62
7
 10
1680.442
 20
-2843.940
 30
4127.000
 70
    32
  0
VERTEX
  8
1100LEVEL
 62
7
 10
1635.380
 20
-2814.298
 30
4127.000
 70
    32
  0
VERTEX
  8
1100LEVEL
 62
7
 10
1601.921
 20
-2772.444
 30
4127.000
 70
    32
  0
VERTEX
  8
1100LEVEL
 62
7
 10
1579.327
 20
-2716.740
 30
4127.000
 70
    32
  0
SEQEND
  8
1100LEVEL
  0
POLYLINE
  8
1100LEVEL
 62
7
 66
     1
 70
     8
  0
VERTEX
  8
1100LEVEL
 62
7
 10
-64.002
 20
-1771.312
 30
4127.000
 70
    32
  0
VERTEX
  8
1100LEVEL
 62
7
 10
-35.757
 20
-1829.462
 30
4127.000
 70
    32
  0
VERTEX
  8
1100LEVEL
 62
7
 10
21.469
 20
-1918.383
 30
4127.000
 70
    32
  0
VERTEX
  8
1100LEVEL
 62
7
 10
61.299
 20
-1978.194
 30
4127.000
 70
    32
  0
VERTEX
  8
1100LEVEL
 62
7
 10
111.630
 20
-2027.880
 30
4127.000
 70
    32
  0
VERTEX
  8
1100LEVEL
 62
7
 10
157.506
 20
-2107.611
 30
4127.000
 70
    32
  0
VERTEX
  8
1100LEVEL
 62
7
 10
197.421
 20
-2195.945
 30
4127.000
 70
    32
  0
VERTEX
  8
1100LEVEL
 62
7
 10
251.966
 20
-2298.048
 30
4127.000
 70
    32
  0
VERTEX
  8
1100LEVEL
 62
7
 10
317.461
 20
-2414.826
 30
4127.000
 70
    32
  0
VERTEX
  8
1100LEVEL
 62
7
 10
382.817
 20
-2547.728
 30
4127.000
 70
    32
  0
VERTEX
  8
1100LEVEL
 62
7
 10
442.999
 20
-2669.180
 30
4127.000
 70
    32
  0
VERTEX
  8
1100LEVEL
 62
7
 10
485.974
 20
-2778.708
 30
4127.000
 70
    32
  0
VERTEX
  8
1100LEVEL
 62
7
 10
542.899
 20
-2884.736
 30
4127.000
 70
    32
  0
VERTEX
  8
1100LEVEL
 62
7
 10
597.574
 20
-2990.645
 30
4127.000
 70
    32
  0
VERTEX
  8
1100LEVEL
 62
7
 10
636.085
 20
-3098.175
 30
4127.000
 70
    32
  0
VERTEX
  8
1100LEVEL
 62
7
 10
689.630
 20
-3188.002
 30
4127.000
 70
    32
  0
VERTEX
  8
1100LEVEL
 62
7
 10
743.884
 20
-3287.282
 30
4127.000
 70
    32
  0
VERTEX
  8
1100LEVEL
 62
7
 10
787.346
 20
-3393.863
 30
4127.000
 70
    32
  0
VERTEX
  8
1100LEVEL
 62
7
 10
843.185
 20
-3485.078
 30
4127.000
 70
    32
  0
VERTEX
  8
1100LEVEL
 62
7
 10
845.181
 20
-3532.588
 30
4127.000
 70
    32
  0
VERTEX
  8
1100LEVEL
 62
7
 10
797.292
 20
-3474.222
 30
4127.000
 70
    32
  0
VERTEX
  8
1100LEVEL
 62
7
 10
727.709
 20
-3386.793
 30
4127.000
 70
    32
  0
VERTEX
  8
1100LEVEL
 62
7
 10
655.460
 20
-3295.644
 30
4127.000
 70
    32
  0
VERTEX
  8
1100LEVEL
 62
7
 10
594.810
 20
-3215.240
 30
4127.000
 70
    32
  0
VERTEX
  8
1100LEVEL
 62
7
 10
525.351
 20
-3128.588
 30
4127.000
 70
    32
  0
VERTEX
  8
1100LEVEL
 62
7
 10
448.939
 20
-3044.321
 30
4127.000
 70
    32
  0
VERTEX
  8
1100LEVEL
 62
7
 10
376.500
 20
-2935.984
 30
4127.000
 70
    32
  0
VERTEX
  8
1100LEVEL
 62
7
 10
299.368
 20
-2836.207
 30
4127.000
 70
    32
  0
VERTEX
  8
1100LEVEL
 62
7
 10
253.521
 20
-2748.660
 30
4127.000
 70
    32
  0
VERTEX
  8
1100LEVEL
 62
7
 10
218.375
 20
-2674.232
 30
4127.000
 70
    32
  0
VERTEX
  8
1100LEVEL
 62
7
 10
195.770
 20
-2638.459
 30
4127.000
 70
    32
  0
VERTEX
  8
1100LEVEL
 62
7
 10
205.045
 20
-2681.619
 30
4127.000
 70
    32
  0
VERTEX
  8
1100LEVEL
 62
7
 10
226.418
 20
-2741.663
 30
4127.000
 70
    32
  0
VERTEX
  8
1100LEVEL
 62
7
 10
215.086
 20
-2770.573
 30
4127.000
 70
    32
  0
VERTEX
  8
1100LEVEL
 62
7
 10
192.563
 20
-2708.321
 30
4127.000
 70
    32
  0
VERTEX
  8
1100LEVEL
 62
7
 10
152.272
 20
-2640.613
 30
4127.000
 70
    32
  0
VERTEX
  8
1100LEVEL
 62
7
 10
122.467
 20
-2579.682
 30
4127.000
 70
    32
  0
VERTEX
  8
1100LEVEL
 62
7
 10
97.507
 20
-2529.139
 30
4127.000
 70
    32
  0
VERTEX
  8
1100LEVEL
 62
7
 10
78.765
 20
-2503.590
 30
4127.000
 70
    32
  0
VERTEX
  8
1100LEVEL
 62
7
 10
96.447
 20
-2558.483
 30
4127.000
 70
    32
  0
VERTEX
  8
1100LEVEL
 62
7
 10
121.455
 20
-2613.323
 30
4127.000
 70
    32
  0
VERTEX
  8
1100LEVEL
 62
7
 10
123.218
 20
-2642.377
 30
4127.000
 70
    32
  0
VERTEX
  8
1100LEVEL
 62
7
 10
91.148
 20
-2598.228
 30
4127.000
 70
    32
  0
VERTEX
  8
1100LEVEL
 62
7
 10
55.906
 20
-2541.193
 30
4127.000
 70
    32
  0
VERTEX
  8
1100LEVEL
 62
7
 10
10.420
 20
-2475.908
 30
4127.000
 70
    32
  0
VERTEX
  8
1100LEVEL
 62
7
 10
-58.981
 20
-2373.623
 30
4127.000
 70
    32
  0
VERTEX
  8
1100LEVEL
 62
7
 10
-87.650
 20
-2305.815
 30
4127.000
 70
    32
  0
VERTEX
  8
1100LEVEL
 62
7
 10
-102.542
 20
-2255.420
 30
4127.000
 70
    32
  0
VERTEX
  8
1100LEVEL
 62
7
 10
-123.643
 20
-2186.086
 30
4127.000
 70
    32
  0
VERTEX
  8
1100LEVEL
 62
7
 10
-135.818
 20
-2146.736
 30
4127.000
 70
    32
  0
VERTEX
  8
1100LEVEL
 62
7
 10
-172.395
 20
-2099.321
 30
4127.000
 70
    32
  0
VERTEX
  8
1100LEVEL
 62
7
 10
-219.960
 20
-2038.990
 30
4127.000
 70
    32
  0
VERTEX
  8
1100LEVEL
 62
7
 10
-256.675
 20
-1981.713
 30
4127.000
 70
    32
  0
VERTEX
  8
1100LEVEL
 62
7
 10
-284.630
 20
-1926.385
 30
4127.000
 70
    32
  0
SEQEND
  8
1100LEVEL
  0
POLYLINE
  8
1100LEVEL
 62
7
 66
     1
 70
     8
  0
VERTEX
  8
1100LEVEL
 62
7
 10
-964.123
 20
-2330.167
 30
4127.000
 70
    32
  0
VERTEX
  8
1100LEVEL
 62
7
 10
-926.225
 20
-2384.865
 30
4127.000
 70
    32
  0
VERTEX
  8
1100LEVEL
 62
7
 10
-875.188
 20
-2440.975
 30
4127.000
 70
    32
  0
VERTEX
  8
1100LEVEL
 62
7
 10
-823.078
 20
-2502.812
 30
4127.000
 70
    32
  0
VERTEX
  8
1100LEVEL
 62
7
 10
-794.904
 20
-2567.510
 30
4127.000
 70
    32
  0
VERTEX
  8
1100LEVEL
 62
7
 10
-764.328
 20
-2651.276
 30
4127.000
 70
    32
  0
VERTEX
  8
1100LEVEL
 62
7
 10
-736.722
 20
-2719.412
 30
4127.000
 70
    32
  0
VERTEX
  8
1100LEVEL
 62
7
 10
-718.697
 20
-2784.454
 30
4127.000
 70
    32
  0
VERTEX
  8
1100LEVEL
 62
7
 10
-693.980
 20
-2836.471
 30
4127.000
 70
    32
  0
VERTEX
  8
1100LEVEL
 62
7
 10
-690.695
 20
-2870.065
 30
4127.000
 70
    32
  0
VERTEX
  8
1100LEVEL
 62
7
 10
-725.351
 20
-2821.705
 30
4127.000
 70
    32
  0
VERTEX
  8
1100LEVEL
 62
7
 10
-759.009
 20
-2756.606
 30
4127.000
 70
    32
  0
VERTEX
  8
1100LEVEL
 62
7
 10
-792.252
 20
-2695.107
 30
4127.000
 70
    32
  0
VERTEX
  8
1100LEVEL
 62
7
 10
-825.967
 20
-2619.655
 30
4127.000
 70
    32
  0
VERTEX
  8
1100LEVEL
 62
7
 10
-869.264
 20
-2567.093
 30
4127.000
 70
    32
  0
VERTEX
  8
1100LEVEL
 62
7
 10
-917.912
 20
-2520.965
 30
4127.000
 70
    32
  0
VERTEX
  8
1100LEVEL
 62
7
 10
-890.024
 20
-2585.868
 30
4127.000
 70
    32
  0
VERTEX
  8
1100LEVEL
 62
7
 10
-845.617
 20
-2668.384
 30
4127.000
 70
    32
  0
VERTEX
  8
1100LEVEL
 62
7
 10
-803.637
 20
-2742.679
 30
4127.000
 70
    32
  0
VERTEX
  8
1100LEVEL
 62
7
 10
-778.654
 20
-2808.364
 30
4127.000
 70
    32
  0
VERTEX
  8
1100LEVEL
 62
7
 10
-764.773
 20
-2866.414
 30
4127.000
 70
    32
  0
VERTEX
  8
1100LEVEL
 62
7
 10
-752.195
 20
-2929.295
 30
4127.000
 70
    32
  0
VERTEX
  8
1100LEVEL
 62
7
 10
-771.190
 20
-2925.150
 30
4127.000
 70
    32
  0
VERTEX
  8
1100LEVEL
 62
7
 10
-797.389
 20
-2866.832
 30
4127.000
 70
    32
  0
VERTEX
  8
1100LEVEL
 62
7
 10
-834.882
 20
-2809.679
 30
4127.000
 70
    32
  0
VERTEX
  8
1100LEVEL
 62
7
 10
-883.758
 20
-2748.122
 30
4127.000
 70
    32
  0
VERTEX
  8
1100LEVEL
 62
7
 10
-939.054
 20
-2690.300
 30
4127.000
 70
    32
  0
VERTEX
  8
1100LEVEL
 62
7
 10
-987.477
 20
-2630.585
 30
4127.000
 70
    32
  0
VERTEX
  8
1100LEVEL
 62
7
 10
-1028.327
 20
-2572.372
 30
4127.000
 70
    32
  0
VERTEX
  8
1100LEVEL
 62
7
 10
-1061.985
 20
-2507.273
 30
4127.000
 70
    32
  0
VERTEX
  8
1100LEVEL
 62
7
 10
-1085.911
 20
-2464.217
 30
4127.000
 70
    32
  0
VERTEX
  8
1100LEVEL
 62
7
 10
-1115.439
 20
-2423.011
 30
4127.000
 70
    32
  0
SEQEND
  8
1100LEVEL
  0
POLYLINE
  8
1100LEVEL
 62
7
 66
     1
 70
     9
  0
VERTEX
  8
1100LEVEL
 62
7
 10
1169.555
 20
-2796.437
 30
4127.000
 70
    32
  0
VERTEX
  8
1100LEVEL
 62
7
 10
1148.906
 20
-2754.931
 30
4127.000
 70
    32
  0
VERTEX
  8
1100LEVEL
 62
7
 10
1125.267
 20
-2711.670
 30
4127.000
 70
    32
  0
VERTEX
  8
1100LEVEL
 62
7
 10
1096.774
 20
-2651.965
 30
4127.000
 70
    32
  0
VERTEX
  8
1100LEVEL
 62
7
 10
1060.626
 20
-2591.249
 30
4127.000
 70
    32
  0
VERTEX
  8
1100LEVEL
 62
7
 10
1030.926
 20
-2544.969
 30
4127.000
 70
    32
  0
VERTEX
  8
1100LEVEL
 62
7
 10
1007.678
 20
-2516.153
 30
4127.000
 70
    32
  0
VERTEX
  8
1100LEVEL
 62
7
 10
1002.350
 20
-2537.728
 30
4127.000
 70
    32
  0
VERTEX
  8
1100LEVEL
 62
7
 10
1036.223
 20
-2583.184
 30
4127.000
 70
    32
  0
VERTEX
  8
1100LEVEL
 62
7
 10
1059.180
 20
-2635.163
 30
4127.000
 70
    32
  0
VERTEX
  8
1100LEVEL
 62
7
 10
1103.278
 20
-2702.742
 30
4127.000
 70
    32
  0
VERTEX
  8
1100LEVEL
 62
7
 10
1127.383
 20
-2756.929
 30
4127.000
 70
    32
  0
VERTEX
  8
1100LEVEL
 62
7
 10
1157.613
 20
-2801.530
 30
4127.000
 70
    32
  0
SEQEND
  8
1100LEVEL
  0
POLYLINE
  8
1100LEVEL
 62
7
 66
     1
 70
     9
  0
VERTEX
  8
1100LEVEL
 62
7
 10
1952.181
 20
-273.207
 30
4127.000
 70
    32
  0
VERTEX
  8
1100LEVEL
 62
7
 10
1930.754
 20
-283.798
 30
4127.000
 70
    32
  0
VERTEX
  8
1100LEVEL
 62
7
 10
1904.905
 20
-293.660
 30
4127.000
 70
    32
  0
VERTEX
  8
1100LEVEL
 62
7
 10
1886.100
 20
-306.703
 30
4127.000
 70
    32
  0
VERTEX
  8
1100LEVEL
 62
7
 10
1867.638
 20
-329.894
 30
4127.000
 70
    32
  0
VERTEX
  8
1100LEVEL
 62
7
 10
1873.370
 20
-357.836
 30
4127.000
 70
    32
  0
VERTEX
  8
1100LEVEL
 62
7
 10
1876.674
 20
-377.557
 30
4127.000
 70
    32
  0
VERTEX
  8
1100LEVEL
 62
7
 10
1865.762
 20
-387.109
 30
4127.000
 70
    32
  0
VERTEX
  8
1100LEVEL
 62
7
 10
1858.891
 20
-363.015
 30
4127.000
 70
    32
  0
VERTEX
  8
1100LEVEL
 62
7
 10
1851.023
 20
-329.674
 30
4127.000
 70
    32
  0
VERTEX
  8
1100LEVEL
 62
7
 10
1860.843
 20
-302.281
 30
4127.000
 70
    32
  0
VERTEX
  8
1100LEVEL
 62
7
 10
1886.592
 20
-280.797
 30
4127.000
 70
    32
  0
VERTEX
  8
1100LEVEL
 62
7
 10
1916.771
 20
-266.100
 30
4127.000
 70
    32
  0
VERTEX
  8
1100LEVEL
 62
7
 10
1935.800
 20
-265.457
 30
4127.000
 70
    32
  0
SEQEND
  8
1100LEVEL
  0
POLYLINE
  8
1100LEVEL
 62
8
 66
     1
 70
     9
  0
VERTEX
  8
1100LEVEL
 62
8
 10
3550.701
 20
-1936.348
 30
4127.000
 70
    32
  0
VERTEX
  8
1100LEVEL
 62
8
 10
3532.744
 20
-1968.706
 30
4127.000
 70
    32
  0
VERTEX
  8
1100LEVEL
 62
8
 10
3626.710
 20
-2104.060
 30
4127.000
 70
    32
  0
VERTEX
  8
1100LEVEL
 62
8
 10
3646.340
 20
-2095.190
 30
4127.000
 70
    32
  0
VERTEX
  8
1100LEVEL
 62
8
 10
3665.183
 20
-2080.388
 30
4127.000
 70
    32
  0
SEQEND
  8
1100LEVEL
  0
POLYLINE
  8
1100LEVEL
 62
8
 66
     1
 70
     9
  0
VERTEX
  8
1100LEVEL
 62
8
 10
3789.956
 20
-2262.962
 30
4127.000
 70
    32
  0
VERTEX
  8
1100LEVEL
 62
8
 10
3774.107
 20
-2282.548
 30
4127.000
 70
    32
  0
VERTEX
  8
1100LEVEL
 62
8
 10
3755.822
 20
-2287.855
 30
4127.000
 70
    32
  0
VERTEX
  8
1100LEVEL
 62
8
 10
3964.275
 20
-2570.278
 30
4127.000
 70
    32
  0
VERTEX
  8
1100LEVEL
 62
8
 10
4020.327
 20
-2534.874
 30
4127.000
 70
    32
  0
VERTEX
  8
1100LEVEL
 62
8
 10
4015.697
 20
-2504.843
 30
4127.000
 70
    32
  0
VERTEX
  8
1100LEVEL
 62
8
 10
3976.166
 20
-2505.886
 30
4127.000
 70
    32
  0
VERTEX
  8
1100LEVEL
 62
8
 10
3831.917
 20
-2325.142
 30
4127.000
 70
    32
  0
SEQEND
  8
1100LEVEL
  0
POLYLINE
  8
1100LEVEL
 62
8
 66
     1
 70
     8
  0
VERTEX
  8
1100LEVEL
 62
8
 10
2103.857
 20
-147.623
 30
4127.000
 70
    32
  0
VERTEX
  8
1100LEVEL
 62
8
 10
2115.316
 20
-174.492
 30
4127.000
 70
    32
  0
VERTEX
  8
1100LEVEL
 62
8
 10
2106.188
 20
-173.237
 30
4127.000
 70
    32
  0
VERTEX
  8
1100LEVEL
 62
8
 10
2088.033
 20
-156.364
 30
4127.000
 70
    32
  0
SEQEND
  8
1100LEVEL
  0
POLYLINE
  8
1100LEVEL
 62
8
 66
     1
 70
     9
  0
VERTEX
  8
1100LEVEL
 62
8
 10
1990.603
 20
-216.222
 30
4127.000
 70
    32
  0
VERTEX
  8
1100LEVEL
 62
8
 10
2022.793
 20
-258.120
 30
4127.000
 70
    32
  0
VERTEX
  8
1100LEVEL
 62
8
 10
1990.081
 20
-275.931
 30
4127.000
 70
    32
  0
VERTEX
  8
1100LEVEL
 62
8
 10
1961.368
 20
-232.842
 30
4127.000
 70
    32
  0
SEQEND
  8
1100LEVEL
  0
POLYLINE
  8
1100LEVEL
 62
3
 66
     1
 70
     8
  0
VERTEX
  8
1100LEVEL
 62
3
 10
1935.087
 20
-3729.920
 30
4127.000
 70
    32
  0
VERTEX
  8
1100LEVEL
 62
3
 10
1984.240
 20
-3811.201
 30
4127.000
 70
    32
  0
VERTEX
  8
1100LEVEL
 62
3
 10
2021.784
 20
-3875.680
 30
4127.000
 70
    32
  0
VERTEX
  8
1100LEVEL
 62
3
 10
2056.936
 20
-3927.149
 30
4127.000
 70
    32
  0
VERTEX
  8
1100LEVEL
 62
3
 10
2078.724
 20
-3964.807
 30
4127.000
 70
    32
  0
SEQEND
  8
1100LEVEL
  0
POLYLINE
  8
1100LEVEL
 62
7
 66
     1
 70
     8
  0
VERTEX
  8
1100LEVEL
 62
7
 10
-1881.895
 20
-709.479
 30
4127.000
 70
    32
  0
VERTEX
  8
1100LEVEL
 62
7
 10
-1955.760
 20
-631.604
 30
4127.000
 70
    32
  0
VERTEX
  8
1100LEVEL
 62
7
 10
-1959.648
 20
-569.304
 30
4127.000
 70
    32
  0
VERTEX
  8
1100LEVEL
 62
7
 10
-1975.199
 20
-499.218
 30
4127.000
 70
    32
  0
VERTEX
  8
1100LEVEL
 62
7
 10
-2021.851
 20
-429.131
 30
4127.000
 70
    32
  0
VERTEX
  8
1100LEVEL
 62
7
 10
-2052.953
 20
-382.406
 30
4127.000
 70
    32
  0
VERTEX
  8
1100LEVEL
 62
7
 10
-2103.493
 20
-308.425
 30
4127.000
 70
    32
  0
VERTEX
  8
1100LEVEL
 62
7
 10
-2165.696
 20
-218.870
 30
4127.000
 70
    32
  0
VERTEX
  8
1100LEVEL
 62
7
 10
-2192.909
 20
-156.570
 30
4127.000
 70
    32
  0
VERTEX
  8
1100LEVEL
 62
7
 10
-2235.674
 20
-70.908
 30
4127.000
 70
    32
  0
VERTEX
  8
1100LEVEL
 62
7
 10
-2259.000
 20
30.329
 30
4127.000
 70
    32
  0
VERTEX
  8
1100LEVEL
 62
7
 10
-2317.315
 20
115.990
 30
4127.000
 70
    32
  0
VERTEX
  8
1100LEVEL
 62
7
 10
-2375.630
 20
139.353
 30
4127.000
 70
    32
  0
VERTEX
  8
1100LEVEL
 62
7
 10
-2398.957
 20
174.397
 30
4127.000
 70
    32
  0
VERTEX
  8
1100LEVEL
 62
7
 10
-2449.496
 20
221.121
 30
4127.000
 70
    32
  0
VERTEX
  8
1100LEVEL
 62
7
 10
-2465.047
 20
236.696
 30
4127.000
 70
    32
  0
VERTEX
  8
1100LEVEL
 62
7
 10
-2480.598
 20
263.952
 30
4127.000
 70
    32
  0
VERTEX
  8
1100LEVEL
 62
7
 10
-2484.486
 20
275.633
 30
4127.000
 70
    32
  0
VERTEX
  8
1100LEVEL
 62
7
 10
-2472.822
 20
287.314
 30
4127.000
 70
    32
  0
VERTEX
  8
1100LEVEL
 62
7
 10
-2457.272
 20
283.421
 30
4127.000
 70
    32
  0
VERTEX
  8
1100LEVEL
 62
7
 10
-2422.283
 20
267.846
 30
4127.000
 70
    32
  0
VERTEX
  8
1100LEVEL
 62
7
 10
-2387.293
 20
252.271
 30
4127.000
 70
    32
  0
VERTEX
  8
1100LEVEL
 62
7
 10
-2367.855
 20
240.590
 30
4127.000
 70
    32
  0
VERTEX
  8
1100LEVEL
 62
7
 10
-2336.754
 20
221.121
 30
4127.000
 70
    32
  0
VERTEX
  8
1100LEVEL
 62
7
 10
-2317.315
 20
209.440
 30
4127.000
 70
    32
  0
VERTEX
  8
1100LEVEL
 62
7
 10
-2290.101
 20
186.078
 30
4127.000
 70
    32
  0
VERTEX
  8
1100LEVEL
 62
7
 10
-2262.888
 20
174.397
 30
4127.000
 70
    32
  0
VERTEX
  8
1100LEVEL
 62
7
 10
-2243.449
 20
178.290
 30
4127.000
 70
    32
  0
VERTEX
  8
1100LEVEL
 62
7
 10
-2239.562
 20
193.865
 30
4127.000
 70
    32
  0
VERTEX
  8
1100LEVEL
 62
7
 10
-2255.112
 20
221.121
 30
4127.000
 70
    32
  0
VERTEX
  8
1100LEVEL
 62
7
 10
-2286.214
 20
240.590
 30
4127.000
 70
    32
  0
VERTEX
  8
1100LEVEL
 62
7
 10
-2332.866
 20
279.527
 30
4127.000
 70
    32
  0
VERTEX
  8
1100LEVEL
 62
7
 10
-2363.967
 20
302.889
 30
4127.000
 70
    32
  0
VERTEX
  8
1100LEVEL
 62
7
 10
-2379.518
 20
334.039
 30
4127.000
 70
    32
  0
VERTEX
  8
1100LEVEL
 62
7
 10
-2402.844
 20
408.020
 30
4127.000
 70
    32
  0
VERTEX
  8
1100LEVEL
 62
7
 10
-2414.507
 20
427.488
 30
4127.000
 70
    32
  0
VERTEX
  8
1100LEVEL
 62
7
 10
-2453.384
 20
466.426
 30
4127.000
 70
    32
  0
VERTEX
  8
1100LEVEL
 62
7
 10
-2503.924
 20
513.150
 30
4127.000
 70
    32
  0
VERTEX
  8
1100LEVEL
 62
7
 10
-2535.025
 20
567.663
 30
4127.000
 70
    32
  0
VERTEX
  8
1100LEVEL
 62
7
 10
-2550.576
 20
579.344
 30
4127.000
 70
    32
  0
VERTEX
  8
1100LEVEL
 62
7
 10
-2573.902
 20
591.025
 30
4127.000
 70
    32
  0
VERTEX
  8
1100LEVEL
 62
7
 10
-2597.229
 20
594.919
 30
4127.000
 70
    32
  0
VERTEX
  8
1100LEVEL
 62
7
 10
-2620.555
 20
594.919
 30
4127.000
 70
    32
  0
VERTEX
  8
1100LEVEL
 62
7
 10
-2651.656
 20
602.706
 30
4127.000
 70
    32
  0
VERTEX
  8
1100LEVEL
 62
7
 10
-2682.757
 20
645.537
 30
4127.000
 70
    32
  0
VERTEX
  8
1100LEVEL
 62
7
 10
-2702.196
 20
684.474
 30
4127.000
 70
    32
  0
VERTEX
  8
1100LEVEL
 62
7
 10
-2721.634
 20
746.774
 30
4127.000
 70
    32
  0
VERTEX
  8
1100LEVEL
 62
7
 10
-2744.960
 20
789.605
 30
4127.000
 70
    32
  0
VERTEX
  8
1100LEVEL
 62
7
 10
-2768.286
 20
812.967
 30
4127.000
 70
    32
  0
VERTEX
  8
1100LEVEL
 62
7
 10
-2791.612
 20
840.223
 30
4127.000
 70
    32
  0
VERTEX
  8
1100LEVEL
 62
7
 10
-2861.591
 20
879.160
 30
4127.000
 70
    32
  0
VERTEX
  8
1100LEVEL
 62
7
 10
-2888.805
 20
925.885
 30
4127.000
 70
    32
  0
VERTEX
  8
1100LEVEL
 62
7
 10
-2974.334
 20
1081.634
 30
4127.000
 70
    32
  0
VERTEX
  8
1100LEVEL
 62
7
 10
-3020.986
 20
1159.508
 30
4127.000
 70
    32
  0
VERTEX
  8
1100LEVEL
 62
7
 10
-3036.537
 20
1186.764
 30
4127.000
 70
    32
  0
VERTEX
  8
1100LEVEL
 62
7
 10
-3040.424
 20
1206.233
 30
4127.000
 70
    32
  0
VERTEX
  8
1100LEVEL
 62
7
 10
-3028.761
 20
1206.233
 30
4127.000
 70
    32
  0
VERTEX
  8
1100LEVEL
 62
7
 10
-3005.435
 20
1198.445
 30
4127.000
 70
    32
  0
VERTEX
  8
1100LEVEL
 62
7
 10
-2989.884
 20
1182.871
 30
4127.000
 70
    32
  0
VERTEX
  8
1100LEVEL
 62
7
 10
-2970.446
 20
1159.508
 30
4127.000
 70
    32
  0
VERTEX
  8
1100LEVEL
 62
7
 10
-2954.895
 20
1136.146
 30
4127.000
 70
    32
  0
VERTEX
  8
1100LEVEL
 62
7
 10
-2947.120
 20
1136.146
 30
4127.000
 70
    32
  0
VERTEX
  8
1100LEVEL
 62
7
 10
-2947.120
 20
1140.040
 30
4127.000
 70
    32
  0
VERTEX
  8
1100LEVEL
 62
7
 10
-2947.120
 20
1163.402
 30
4127.000
 70
    32
  0
VERTEX
  8
1100LEVEL
 62
7
 10
-2954.895
 20
1182.871
 30
4127.000
 70
    32
  0
VERTEX
  8
1100LEVEL
 62
7
 10
-2947.120
 20
1221.808
 30
4127.000
 70
    32
  0
VERTEX
  8
1100LEVEL
 62
7
 10
-2912.131
 20
1221.808
 30
4127.000
 70
    32
  0
VERTEX
  8
1100LEVEL
 62
7
 10
-2888.805
 20
1202.339
 30
4127.000
 70
    32
  0
VERTEX
  8
1100LEVEL
 62
7
 10
-2853.815
 20
1167.296
 30
4127.000
 70
    32
  0
VERTEX
  8
1100LEVEL
 62
7
 10
-2834.377
 20
1147.827
 30
4127.000
 70
    32
  0
VERTEX
  8
1100LEVEL
 62
7
 10
-2800.943
 20
1120.781
 30
4127.000
 70
    32
  0
VERTEX
  8
1100LEVEL
 62
7
 10
-2791.612
 20
1143.933
 30
4127.000
 70
    32
  0
VERTEX
  8
1100LEVEL
 62
7
 10
-2787.725
 20
1167.296
 30
4127.000
 70
    32
  0
VERTEX
  8
1100LEVEL
 62
7
 10
-2795.500
 20
1190.658
 30
4127.000
 70
    32
  0
VERTEX
  8
1100LEVEL
 62
7
 10
-2803.276
 20
1214.020
 30
4127.000
 70
    32
  0
VERTEX
  8
1100LEVEL
 62
7
 10
-2814.938
 20
1245.170
 30
4127.000
 70
    32
  0
VERTEX
  8
1100LEVEL
 62
7
 10
-2826.602
 20
1288.001
 30
4127.000
 70
    32
  0
VERTEX
  8
1100LEVEL
 62
7
 10
-2830.489
 20
1323.045
 30
4127.000
 70
    32
  0
VERTEX
  8
1100LEVEL
 62
7
 10
-2811.051
 20
1319.151
 30
4127.000
 70
    32
  0
VERTEX
  8
1100LEVEL
 62
7
 10
-2776.062
 20
1291.895
 30
4127.000
 70
    32
  0
VERTEX
  8
1100LEVEL
 62
7
 10
-2737.185
 20
1249.064
 30
4127.000
 70
    32
  0
VERTEX
  8
1100LEVEL
 62
7
 10
-2725.522
 20
1217.914
 30
4127.000
 70
    32
  0
VERTEX
  8
1100LEVEL
 62
7
 10
-2698.308
 20
1163.402
 30
4127.000
 70
    32
  0
VERTEX
  8
1100LEVEL
 62
7
 10
-2674.982
 20
1104.996
 30
4127.000
 70
    32
  0
VERTEX
  8
1100LEVEL
 62
7
 10
-2659.431
 20
1054.378
 30
4127.000
 70
    32
  0
VERTEX
  8
1100LEVEL
 62
7
 10
-2612.779
 20
992.078
 30
4127.000
 70
    32
  0
VERTEX
  8
1100LEVEL
 62
7
 10
-2566.127
 20
933.672
 30
4127.000
 70
    32
  0
VERTEX
  8
1100LEVEL
 62
7
 10
-2535.025
 20
894.735
 30
4127.000
 70
    32
  0
VERTEX
  8
1100LEVEL
 62
7
 10
-2515.587
 20
867.479
 30
4127.000
 70
    32
  0
VERTEX
  8
1100LEVEL
 62
7
 10
-2414.507
 20
785.711
 30
4127.000
 70
    32
  0
VERTEX
  8
1100LEVEL
 62
7
 10
-2321.203
 20
641.643
 30
4127.000
 70
    32
  0
VERTEX
  8
1100LEVEL
 62
7
 10
-2235.674
 20
474.213
 30
4127.000
 70
    32
  0
VERTEX
  8
1100LEVEL
 62
7
 10
-2173.471
 20
396.339
 30
4127.000
 70
    32
  0
VERTEX
  8
1100LEVEL
 62
7
 10
-2130.706
 20
341.827
 30
4127.000
 70
    32
  0
VERTEX
  8
1100LEVEL
 62
7
 10
-2087.942
 20
341.827
 30
4127.000
 70
    32
  0
VERTEX
  8
1100LEVEL
 62
7
 10
-2052.953
 20
341.827
 30
4127.000
 70
    32
  0
VERTEX
  8
1100LEVEL
 62
7
 10
-2021.851
 20
310.677
 30
4127.000
 70
    32
  0
VERTEX
  8
1100LEVEL
 62
7
 10
-2006.301
 20
310.677
 30
4127.000
 70
    32
  0
VERTEX
  8
1100LEVEL
 62
7
 10
-2002.413
 20
326.251
 30
4127.000
 70
    32
  0
VERTEX
  8
1100LEVEL
 62
7
 10
-2002.413
 20
341.827
 30
4127.000
 70
    32
  0
VERTEX
  8
1100LEVEL
 62
7
 10
-2006.301
 20
357.402
 30
4127.000
 70
    32
  0
VERTEX
  8
1100LEVEL
 62
7
 10
-2017.964
 20
372.976
 30
4127.000
 70
    32
  0
VERTEX
  8
1100LEVEL
 62
7
 10
-2021.851
 20
392.445
 30
4127.000
 70
    32
  0
VERTEX
  8
1100LEVEL
 62
7
 10
-2021.851
 20
400.232
 30
4127.000
 70
    32
  0
VERTEX
  8
1100LEVEL
 62
7
 10
-1986.862
 20
380.764
 30
4127.000
 70
    32
  0
VERTEX
  8
1100LEVEL
 62
7
 10
-1971.311
 20
361.295
 30
4127.000
 70
    32
  0
VERTEX
  8
1100LEVEL
 62
7
 10
-1959.648
 20
334.039
 30
4127.000
 70
    32
  0
VERTEX
  8
1100LEVEL
 62
7
 10
-1955.760
 20
302.889
 30
4127.000
 70
    32
  0
VERTEX
  8
1100LEVEL
 62
7
 10
-1951.873
 20
275.633
 30
4127.000
 70
    32
  0
VERTEX
  8
1100LEVEL
 62
7
 10
-1936.322
 20
213.334
 30
4127.000
 70
    32
  0
VERTEX
  8
1100LEVEL
 62
7
 10
-1854.681
 20
119.884
 30
4127.000
 70
    32
  0
VERTEX
  8
1100LEVEL
 62
7
 10
-1757.489
 20
22.541
 30
4127.000
 70
    32
  0
VERTEX
  8
1100LEVEL
 62
7
 10
-1683.623
 20
-63.121
 30
4127.000
 70
    32
  0
VERTEX
  8
1100LEVEL
 62
7
 10
-1601.982
 20
-156.570
 30
4127.000
 70
    32
  0
VERTEX
  8
1100LEVEL
 62
7
 10
-1528.115
 20
-234.445
 30
4127.000
 70
    32
  0
VERTEX
  8
1100LEVEL
 62
7
 10
-1446.474
 20
-312.319
 30
4127.000
 70
    32
  0
VERTEX
  8
1100LEVEL
 62
7
 10
-1392.046
 20
-351.256
 30
4127.000
 70
    32
  0
VERTEX
  8
1100LEVEL
 62
7
 10
-1360.945
 20
-382.406
 30
4127.000
 70
    32
  0
VERTEX
  8
1100LEVEL
 62
7
 10
-1337.619
 20
-386.299
 30
4127.000
 70
    32
  0
VERTEX
  8
1100LEVEL
 62
7
 10
-1337.619
 20
-374.618
 30
4127.000
 70
    32
  0
VERTEX
  8
1100LEVEL
 62
7
 10
-1364.833
 20
-347.362
 30
4127.000
 70
    32
  0
VERTEX
  8
1100LEVEL
 62
7
 10
-1399.822
 20
-316.213
 30
4127.000
 70
    32
  0
VERTEX
  8
1100LEVEL
 62
7
 10
-1372.608
 20
-304.531
 30
4127.000
 70
    32
  0
VERTEX
  8
1100LEVEL
 62
7
 10
-1357.058
 20
-324.000
 30
4127.000
 70
    32
  0
VERTEX
  8
1100LEVEL
 62
7
 10
-1329.844
 20
-347.362
 30
4127.000
 70
    32
  0
VERTEX
  8
1100LEVEL
 62
7
 10
-1322.068
 20
-343.469
 30
4127.000
 70
    32
  0
VERTEX
  8
1100LEVEL
 62
7
 10
-1353.170
 20
-304.531
 30
4127.000
 70
    32
  0
VERTEX
  8
1100LEVEL
 62
7
 10
-1388.159
 20
-273.382
 30
4127.000
 70
    32
  0
VERTEX
  8
1100LEVEL
 62
7
 10
-1427.036
 20
-234.445
 30
4127.000
 70
    32
  0
VERTEX
  8
1100LEVEL
 62
7
 10
-1442.586
 20
-218.870
 30
4127.000
 70
    32
  0
VERTEX
  8
1100LEVEL
 62
7
 10
-1462.025
 20
-199.401
 30
4127.000
 70
    32
  0
VERTEX
  8
1100LEVEL
 62
7
 10
-1485.351
 20
-179.932
 30
4127.000
 70
    32
  0
VERTEX
  8
1100LEVEL
 62
7
 10
-1551.441
 20
-94.270
 30
4127.000
 70
    32
  0
VERTEX
  8
1100LEVEL
 62
7
 10
-1590.318
 20
-16.396
 30
4127.000
 70
    32
  0
VERTEX
  8
1100LEVEL
 62
7
 10
-1644.746
 20
49.797
 30
4127.000
 70
    32
  0
VERTEX
  8
1100LEVEL
 62
7
 10
-1695.286
 20
131.565
 30
4127.000
 70
    32
  0
VERTEX
  8
1100LEVEL
 62
7
 10
-1765.264
 20
193.865
 30
4127.000
 70
    32
  0
VERTEX
  8
1100LEVEL
 62
7
 10
-1800.253
 20
232.802
 30
4127.000
 70
    32
  0
VERTEX
  8
1100LEVEL
 62
7
 10
-1835.242
 20
271.739
 30
4127.000
 70
    32
  0
VERTEX
  8
1100LEVEL
 62
7
 10
-1885.782
 20
314.570
 30
4127.000
 70
    32
  0
VERTEX
  8
1100LEVEL
 62
7
 10
-1932.434
 20
369.083
 30
4127.000
 70
    32
  0
VERTEX
  8
1100LEVEL
 62
7
 10
-1959.648
 20
408.020
 30
4127.000
 70
    32
  0
VERTEX
  8
1100LEVEL
 62
7
 10
-1994.637
 20
450.851
 30
4127.000
 70
    32
  0
VERTEX
  8
1100LEVEL
 62
7
 10
-2084.054
 20
520.938
 30
4127.000
 70
    32
  0
VERTEX
  8
1100LEVEL
 62
7
 10
-2154.032
 20
583.237
 30
4127.000
 70
    32
  0
VERTEX
  8
1100LEVEL
 62
7
 10
-2222.400
 20
690.004
 30
4127.000
 70
    32
  0
VERTEX
  8
1100LEVEL
 62
7
 10
-2258.653
 20
726.280
 30
4127.000
 70
    32
  0
VERTEX
  8
1100LEVEL
 62
7
 10
-2263.185
 20
741.395
 30
4127.000
 70
    32
  0
VERTEX
  8
1100LEVEL
 62
7
 10
-2259.000
 20
750.667
 30
4127.000
 70
    32
  0
VERTEX
  8
1100LEVEL
 62
7
 10
-2220.123
 20
738.986
 30
4127.000
 70
    32
  0
VERTEX
  8
1100LEVEL
 62
7
 10
-2186.147
 20
714.188
 30
4127.000
 70
    32
  0
VERTEX
  8
1100LEVEL
 62
7
 10
-2161.808
 20
661.112
 30
4127.000
 70
    32
  0
VERTEX
  8
1100LEVEL
 62
7
 10
-2130.706
 20
622.175
 30
4127.000
 70
    32
  0
VERTEX
  8
1100LEVEL
 62
7
 10
-2095.717
 20
579.344
 30
4127.000
 70
    32
  0
VERTEX
  8
1100LEVEL
 62
7
 10
-2045.177
 20
544.300
 30
4127.000
 70
    32
  0
VERTEX
  8
1100LEVEL
 62
7
 10
-1975.199
 20
485.894
 30
4127.000
 70
    32
  0
VERTEX
  8
1100LEVEL
 62
7
 10
-1924.659
 20
450.851
 30
4127.000
 70
    32
  0
VERTEX
  8
1100LEVEL
 62
7
 10
-1862.456
 20
365.189
 30
4127.000
 70
    32
  0
VERTEX
  8
1100LEVEL
 62
7
 10
-1823.579
 20
314.570
 30
4127.000
 70
    32
  0
VERTEX
  8
1100LEVEL
 62
7
 10
-1788.590
 20
275.633
 30
4127.000
 70
    32
  0
VERTEX
  8
1100LEVEL
 62
7
 10
-1773.039
 20
267.846
 30
4127.000
 70
    32
  0
VERTEX
  8
1100LEVEL
 62
7
 10
-1773.039
 20
283.421
 30
4127.000
 70
    32
  0
VERTEX
  8
1100LEVEL
 62
7
 10
-1788.590
 20
314.570
 30
4127.000
 70
    32
  0
VERTEX
  8
1100LEVEL
 62
7
 10
-1823.579
 20
388.551
 30
4127.000
 70
    32
  0
VERTEX
  8
1100LEVEL
 62
7
 10
-1870.232
 20
454.744
 30
4127.000
 70
    32
  0
VERTEX
  8
1100LEVEL
 62
7
 10
-1893.558
 20
485.894
 30
4127.000
 70
    32
  0
VERTEX
  8
1100LEVEL
 62
7
 10
-1940.210
 20
552.088
 30
4127.000
 70
    32
  0
VERTEX
  8
1100LEVEL
 62
7
 10
-1975.199
 20
594.919
 30
4127.000
 70
    32
  0
VERTEX
  8
1100LEVEL
 62
7
 10
-1998.525
 20
622.175
 30
4127.000
 70
    32
  0
VERTEX
  8
1100LEVEL
 62
7
 10
-2056.841
 20
684.474
 30
4127.000
 70
    32
  0
VERTEX
  8
1100LEVEL
 62
7
 10
-2146.257
 20
754.561
 30
4127.000
 70
    32
  0
VERTEX
  8
1100LEVEL
 62
7
 10
-2220.123
 20
820.754
 30
4127.000
 70
    32
  0
VERTEX
  8
1100LEVEL
 62
7
 10
-2301.765
 20
875.266
 30
4127.000
 70
    32
  0
VERTEX
  8
1100LEVEL
 62
7
 10
-2367.855
 20
949.247
 30
4127.000
 70
    32
  0
VERTEX
  8
1100LEVEL
 62
7
 10
-2406.732
 20
1007.653
 30
4127.000
 70
    32
  0
VERTEX
  8
1100LEVEL
 62
7
 10
-2422.283
 20
1050.484
 30
4127.000
 70
    32
  0
VERTEX
  8
1100LEVEL
 62
7
 10
-2426.170
 20
1073.847
 30
4127.000
 70
    32
  0
VERTEX
  8
1100LEVEL
 62
7
 10
-2406.732
 20
1093.315
 30
4127.000
 70
    32
  0
VERTEX
  8
1100LEVEL
 62
7
 10
-2371.743
 20
1054.378
 30
4127.000
 70
    32
  0
VERTEX
  8
1100LEVEL
 62
7
 10
-2352.304
 20
1031.015
 30
4127.000
 70
    32
  0
VERTEX
  8
1100LEVEL
 62
7
 10
-2290.101
 20
972.610
 30
4127.000
 70
    32
  0
VERTEX
  8
1100LEVEL
 62
7
 10
-2235.674
 20
925.885
 30
4127.000
 70
    32
  0
VERTEX
  8
1100LEVEL
 62
7
 10
-2185.134
 20
867.479
 30
4127.000
 70
    32
  0
VERTEX
  8
1100LEVEL
 62
7
 10
-2094.003
 20
782.205
 30
4127.000
 70
    32
  0
VERTEX
  8
1100LEVEL
 62
7
 10
-2033.514
 20
723.411
 30
4127.000
 70
    32
  0
VERTEX
  8
1100LEVEL
 62
7
 10
-1979.087
 20
668.899
 30
4127.000
 70
    32
  0
VERTEX
  8
1100LEVEL
 62
7
 10
-1932.434
 20
602.706
 30
4127.000
 70
    32
  0
VERTEX
  8
1100LEVEL
 62
7
 10
-1862.456
 20
501.469
 30
4127.000
 70
    32
  0
VERTEX
  8
1100LEVEL
 62
7
 10
-1753.601
 20
330.145
 30
4127.000
 70
    32
  0
VERTEX
  8
1100LEVEL
 62
7
 10
-1648.634
 20
154.928
 30
4127.000
 70
    32
  0
VERTEX
  8
1100LEVEL
 62
7
 10
-1551.441
 20
-0.821
 30
4127.000
 70
    32
  0
VERTEX
  8
1100LEVEL
 62
7
 10
-1423.148
 20
-176.039
 30
4127.000
 70
    32
  0
SEQEND
  8
1100LEVEL
  0
POLYLINE
  8
1100LEVEL
 62
13
 66
     1
 70
     8
  0
VERTEX
  8
1100LEVEL
 62
13
 10
-1875.649
 20
-747.515
 30
4127.000
 70
    32
  0
VERTEX
  8
1100LEVEL
 62
13
 10
-1899.327
 20
-715.929
 30
4127.000
 70
    32
  0
VERTEX
  8
1100LEVEL
 62
13
 10
-1930.898
 20
-688.291
 30
4127.000
 70
    32
  0
VERTEX
  8
1100LEVEL
 62
13
 10
-1962.469
 20
-688.291
 30
4127.000
 70
    32
  0
VERTEX
  8
1100LEVEL
 62
13
 10
-1970.361
 20
-715.929
 30
4127.000
 70
    32
  0
VERTEX
  8
1100LEVEL
 62
13
 10
-1950.630
 20
-743.567
 30
4127.000
 70
    32
  0
VERTEX
  8
1100LEVEL
 62
13
 10
-1930.898
 20
-783.049
 30
4127.000
 70
    32
  0
VERTEX
  8
1100LEVEL
 62
13
 10
-1930.898
 20
-806.738
 30
4127.000
 70
    32
  0
VERTEX
  8
1100LEVEL
 62
13
 10
-1934.844
 20
-814.634
 30
4127.000
 70
    32
  0
VERTEX
  8
1100LEVEL
 62
13
 10
-1946.683
 20
-814.634
 30
4127.000
 70
    32
  0
VERTEX
  8
1100LEVEL
 62
13
 10
-1954.576
 20
-798.842
 30
4127.000
 70
    32
  0
VERTEX
  8
1100LEVEL
 62
13
 10
-1978.254
 20
-771.204
 30
4127.000
 70
    32
  0
VERTEX
  8
1100LEVEL
 62
13
 10
-2017.718
 20
-715.929
 30
4127.000
 70
    32
  0
VERTEX
  8
1100LEVEL
 62
13
 10
-2072.967
 20
-636.964
 30
4127.000
 70
    32
  0
VERTEX
  8
1100LEVEL
 62
13
 10
-2096.645
 20
-585.638
 30
4127.000
 70
    32
  0
VERTEX
  8
1100LEVEL
 62
13
 10
-2215.036
 20
-360.589
 30
4127.000
 70
    32
  0
VERTEX
  8
1100LEVEL
 62
13
 10
-2254.500
 20
-261.883
 30
4127.000
 70
    32
  0
VERTEX
  8
1100LEVEL
 62
13
 10
-2274.232
 20
-198.712
 30
4127.000
 70
    32
  0
VERTEX
  8
1100LEVEL
 62
13
 10
-2317.642
 20
-131.592
 30
4127.000
 70
    32
  0
VERTEX
  8
1100LEVEL
 62
13
 10
-2345.267
 20
-72.369
 30
4127.000
 70
    32
  0
VERTEX
  8
1100LEVEL
 62
13
 10
-2380.784
 20
-28.938
 30
4127.000
 70
    32
  0
VERTEX
  8
1100LEVEL
 62
13
 10
-2428.140
 20
50.026
 30
4127.000
 70
    32
  0
VERTEX
  8
1100LEVEL
 62
13
 10
-2467.604
 20
101.353
 30
4127.000
 70
    32
  0
VERTEX
  8
1100LEVEL
 62
13
 10
-2566.263
 20
176.369
 30
4127.000
 70
    32
  0
VERTEX
  8
1100LEVEL
 62
13
 10
-2574.156
 20
200.059
 30
4127.000
 70
    32
  0
VERTEX
  8
1100LEVEL
 62
13
 10
-2585.995
 20
227.696
 30
4127.000
 70
    32
  0
VERTEX
  8
1100LEVEL
 62
13
 10
-2585.995
 20
259.282
 30
4127.000
 70
    32
  0
VERTEX
  8
1100LEVEL
 62
13
 10
-2601.781
 20
314.557
 30
4127.000
 70
    32
  0
VERTEX
  8
1100LEVEL
 62
13
 10
-2625.459
 20
361.936
 30
4127.000
 70
    32
  0
VERTEX
  8
1100LEVEL
 62
13
 10
-2660.976
 20
421.159
 30
4127.000
 70
    32
  0
VERTEX
  8
1100LEVEL
 62
13
 10
-2720.171
 20
511.968
 30
4127.000
 70
    32
  0
VERTEX
  8
1100LEVEL
 62
13
 10
-2783.313
 20
626.467
 30
4127.000
 70
    32
  0
VERTEX
  8
1100LEVEL
 62
13
 10
-2838.563
 20
705.431
 30
4127.000
 70
    32
  0
VERTEX
  8
1100LEVEL
 62
13
 10
-2917.490
 20
819.929
 30
4127.000
 70
    32
  0
VERTEX
  8
1100LEVEL
 62
13
 10
-2953.007
 20
859.411
 30
4127.000
 70
    32
  0
VERTEX
  8
1100LEVEL
 62
13
 10
-3043.774
 20
946.272
 30
4127.000
 70
    32
  0
VERTEX
  8
1100LEVEL
 62
13
 10
-3091.130
 20
977.858
 30
4127.000
 70
    32
  0
VERTEX
  8
1100LEVEL
 62
13
 10
-3122.701
 20
1041.030
 30
4127.000
 70
    32
  0
VERTEX
  8
1100LEVEL
 62
13
 10
-3150.326
 20
1076.564
 30
4127.000
 70
    32
  0
VERTEX
  8
1100LEVEL
 62
13
 10
-3185.843
 20
1116.046
 30
4127.000
 70
    32
  0
VERTEX
  8
1100LEVEL
 62
13
 10
-3201.629
 20
1159.476
 30
4127.000
 70
    32
  0
VERTEX
  8
1100LEVEL
 62
13
 10
-3213.468
 20
1206.855
 30
4127.000
 70
    32
  0
VERTEX
  8
1100LEVEL
 62
13
 10
-3213.468
 20
1254.233
 30
4127.000
 70
    32
  0
VERTEX
  8
1100LEVEL
 62
13
 10
-3193.736
 20
1277.923
 30
4127.000
 70
    32
  0
VERTEX
  8
1100LEVEL
 62
13
 10
-3166.111
 20
1301.612
 30
4127.000
 70
    32
  0
VERTEX
  8
1100LEVEL
 62
13
 10
-3130.594
 20
1305.560
 30
4127.000
 70
    32
  0
VERTEX
  8
1100LEVEL
 62
13
 10
-3075.345
 20
1309.509
 30
4127.000
 70
    32
  0
VERTEX
  8
1100LEVEL
 62
13
 10
-3008.256
 20
1356.887
 30
4127.000
 70
    32
  0
VERTEX
  8
1100LEVEL
 62
13
 10
-2949.061
 20
1356.887
 30
4127.000
 70
    32
  0
VERTEX
  8
1100LEVEL
 62
13
 10
-2917.490
 20
1376.629
 30
4127.000
 70
    32
  0
VERTEX
  8
1100LEVEL
 62
13
 10
-2905.651
 20
1412.162
 30
4127.000
 70
    32
  0
VERTEX
  8
1100LEVEL
 62
13
 10
-2925.383
 20
1459.541
 30
4127.000
 70
    32
  0
VERTEX
  8
1100LEVEL
 62
13
 10
-2945.115
 20
1502.972
 30
4127.000
 70
    32
  0
VERTEX
  8
1100LEVEL
 62
13
 10
-2949.061
 20
1526.661
 30
4127.000
 70
    32
  0
VERTEX
  8
1100LEVEL
 62
13
 10
-2945.115
 20
1534.557
 30
4127.000
 70
    32
  0
VERTEX
  8
1100LEVEL
 62
13
 10
-2929.329
 20
1514.816
 30
4127.000
 70
    32
  0
VERTEX
  8
1100LEVEL
 62
13
 10
-2885.919
 20
1483.230
 30
4127.000
 70
    32
  0
VERTEX
  8
1100LEVEL
 62
13
 10
-2842.509
 20
1495.075
 30
4127.000
 70
    32
  0
VERTEX
  8
1100LEVEL
 62
13
 10
-2846.455
 20
1538.506
 30
4127.000
 70
    32
  0
VERTEX
  8
1100LEVEL
 62
13
 10
-2866.187
 20
1589.832
 30
4127.000
 70
    32
  0
VERTEX
  8
1100LEVEL
 62
13
 10
-2917.490
 20
1664.849
 30
4127.000
 70
    32
  0
VERTEX
  8
1100LEVEL
 62
13
 10
-2964.847
 20
1735.917
 30
4127.000
 70
    32
  0
VERTEX
  8
1100LEVEL
 62
13
 10
-2968.793
 20
1799.088
 30
4127.000
 70
    32
  0
VERTEX
  8
1100LEVEL
 62
13
 10
-2964.847
 20
1866.208
 30
4127.000
 70
    32
  0
VERTEX
  8
1100LEVEL
 62
13
 10
-2933.276
 20
1889.897
 30
4127.000
 70
    32
  0
VERTEX
  8
1100LEVEL
 62
13
 10
-2909.597
 20
1889.897
 30
4127.000
 70
    32
  0
VERTEX
  8
1100LEVEL
 62
13
 10
-2858.294
 20
1885.949
 30
4127.000
 70
    32
  0
VERTEX
  8
1100LEVEL
 62
13
 10
-2838.563
 20
1870.156
 30
4127.000
 70
    32
  0
VERTEX
  8
1100LEVEL
 62
13
 10
-2818.831
 20
1838.570
 30
4127.000
 70
    32
  0
VERTEX
  8
1100LEVEL
 62
13
 10
-2799.099
 20
1767.502
 30
4127.000
 70
    32
  0
VERTEX
  8
1100LEVEL
 62
13
 10
-2791.206
 20
1700.383
 30
4127.000
 70
    32
  0
VERTEX
  8
1100LEVEL
 62
13
 10
-2787.260
 20
1641.159
 30
4127.000
 70
    32
  0
VERTEX
  8
1100LEVEL
 62
13
 10
-2771.474
 20
1593.781
 30
4127.000
 70
    32
  0
VERTEX
  8
1100LEVEL
 62
13
 10
-2739.903
 20
1538.506
 30
4127.000
 70
    32
  0
VERTEX
  8
1100LEVEL
 62
13
 10
-2676.762
 20
1459.541
 30
4127.000
 70
    32
  0
VERTEX
  8
1100LEVEL
 62
13
 10
-2625.459
 20
1388.473
 30
4127.000
 70
    32
  0
VERTEX
  8
1100LEVEL
 62
13
 10
-2597.834
 20
1356.887
 30
4127.000
 70
    32
  0
VERTEX
  8
1100LEVEL
 62
13
 10
-2451.818
 20
1258.182
 30
4127.000
 70
    32
  0
VERTEX
  8
1100LEVEL
 62
13
 10
-2436.033
 20
1222.648
 30
4127.000
 70
    32
  0
VERTEX
  8
1100LEVEL
 62
13
 10
-2420.248
 20
1210.803
 30
4127.000
 70
    32
  0
VERTEX
  8
1100LEVEL
 62
13
 10
-2396.569
 20
1202.907
 30
4127.000
 70
    32
  0
VERTEX
  8
1100LEVEL
 62
13
 10
-2385.543
 20
1181.241
 30
4127.000
 70
    32
  0
VERTEX
  8
1100LEVEL
 62
13
 10
-2362.884
 20
1146.477
 30
4127.000
 70
    32
  0
VERTEX
  8
1100LEVEL
 62
13
 10
-2341.737
 20
1119.270
 30
4127.000
 70
    32
  0
VERTEX
  8
1100LEVEL
 62
13
 10
-2319.078
 20
1089.040
 30
4127.000
 70
    32
  0
VERTEX
  8
1100LEVEL
 62
13
 10
-2297.930
 20
1054.275
 30
4127.000
 70
    32
  0
VERTEX
  8
1100LEVEL
 62
13
 10
-2272.251
 20
1019.511
 30
4127.000
 70
    32
  0
VERTEX
  8
1100LEVEL
 62
13
 10
-2252.613
 20
993.816
 30
4127.000
 70
    32
  0
VERTEX
  8
1100LEVEL
 62
13
 10
-2240.529
 20
974.166
 30
4127.000
 70
    32
  0
VERTEX
  8
1100LEVEL
 62
13
 10
-2228.444
 20
959.051
 30
4127.000
 70
    32
  0
VERTEX
  8
1100LEVEL
 62
13
 10
-2216.360
 20
945.447
 30
4127.000
 70
    32
  0
VERTEX
  8
1100LEVEL
 62
13
 10
-2210.318
 20
937.890
 30
4127.000
 70
    32
  0
VERTEX
  8
1100LEVEL
 62
13
 10
-2204.276
 20
931.844
 30
4127.000
 70
    32
  0
VERTEX
  8
1100LEVEL
 62
13
 10
-2201.254
 20
928.821
 30
4127.000
 70
    32
  0
VERTEX
  8
1100LEVEL
 62
13
 10
-2198.233
 20
928.821
 30
4127.000
 70
    32
  0
VERTEX
  8
1100LEVEL
 62
13
 10
-2198.233
 20
934.867
 30
4127.000
 70
    32
  0
VERTEX
  8
1100LEVEL
 62
13
 10
-2205.786
 20
949.982
 30
4127.000
 70
    32
  0
VERTEX
  8
1100LEVEL
 62
13
 10
-2219.381
 20
974.166
 30
4127.000
 70
    32
  0
VERTEX
  8
1100LEVEL
 62
13
 10
-2237.508
 20
998.350
 30
4127.000
 70
    32
  0
VERTEX
  8
1100LEVEL
 62
13
 10
-2252.613
 20
1024.045
 30
4127.000
 70
    32
  0
VERTEX
  8
1100LEVEL
 62
13
 10
-2269.230
 20
1052.764
 30
4127.000
 70
    32
  0
VERTEX
  8
1100LEVEL
 62
13
 10
-2284.335
 20
1075.436
 30
4127.000
 70
    32
  0
VERTEX
  8
1100LEVEL
 62
13
 10
-2297.930
 20
1102.643
 30
4127.000
 70
    32
  0
VERTEX
  8
1100LEVEL
 62
13
 10
-2316.057
 20
1122.293
 30
4127.000
 70
    32
  0
VERTEX
  8
1100LEVEL
 62
13
 10
-2343.247
 20
1157.057
 30
4127.000
 70
    32
  0
VERTEX
  8
1100LEVEL
 62
13
 10
-2367.416
 20
1187.287
 30
4127.000
 70
    32
  0
VERTEX
  8
1100LEVEL
 62
13
 10
-2388.560
 20
1211.470
 30
4127.000
 70
    32
  0
VERTEX
  8
1100LEVEL
 62
13
 10
-2405.177
 20
1219.028
 30
4127.000
 70
    32
  0
VERTEX
  8
1100LEVEL
 62
13
 10
-2411.219
 20
1247.746
 30
4127.000
 70
    32
  0
VERTEX
  8
1100LEVEL
 62
13
 10
-2414.240
 20
1291.579
 30
4127.000
 70
    32
  0
VERTEX
  8
1100LEVEL
 62
13
 10
-2412.729
 20
1321.810
 30
4127.000
 70
    32
  0
VERTEX
  8
1100LEVEL
 62
13
 10
-2403.666
 20
1332.390
 30
4127.000
 70
    32
  0
VERTEX
  8
1100LEVEL
 62
13
 10
-2393.092
 20
1327.855
 30
4127.000
 70
    32
  0
VERTEX
  8
1100LEVEL
 62
13
 10
-2370.434
 20
1302.160
 30
4127.000
 70
    32
  0
VERTEX
  8
1100LEVEL
 62
13
 10
-2358.349
 20
1287.045
 30
4127.000
 70
    32
  0
VERTEX
  8
1100LEVEL
 62
13
 10
-2350.797
 20
1271.930
 30
4127.000
 70
    32
  0
VERTEX
  8
1100LEVEL
 62
13
 10
-2338.712
 20
1258.327
 30
4127.000
 70
    32
  0
VERTEX
  8
1100LEVEL
 62
13
 10
-2325.117
 20
1238.677
 30
4127.000
 70
    32
  0
VERTEX
  8
1100LEVEL
 62
13
 10
-2297.927
 20
1205.424
 30
4127.000
 70
    32
  0
VERTEX
  8
1100LEVEL
 62
13
 10
-2273.758
 20
1187.286
 30
4127.000
 70
    32
  0
VERTEX
  8
1100LEVEL
 62
13
 10
-2263.184
 20
1175.194
 30
4127.000
 70
    32
  0
VERTEX
  8
1100LEVEL
 62
13
 10
-2255.631
 20
1163.102
 30
4127.000
 70
    32
  0
VERTEX
  8
1100LEVEL
 62
13
 10
-2248.079
 20
1147.987
 30
4127.000
 70
    32
  0
VERTEX
  8
1100LEVEL
 62
13
 10
-2234.483
 20
1135.895
 30
4127.000
 70
    32
  0
VERTEX
  8
1100LEVEL
 62
13
 10
-2225.420
 20
1128.338
 30
4127.000
 70
    32
  0
VERTEX
  8
1100LEVEL
 62
13
 10
-2213.336
 20
1114.734
 30
4127.000
 70
    32
  0
VERTEX
  8
1100LEVEL
 62
13
 10
-2208.804
 20
1117.757
 30
4127.000
 70
    32
  0
VERTEX
  8
1100LEVEL
 62
13
 10
-2207.293
 20
1123.803
 30
4127.000
 70
    32
  0
VERTEX
  8
1100LEVEL
 62
13
 10
-2207.293
 20
1129.849
 30
4127.000
 70
    32
  0
VERTEX
  8
1100LEVEL
 62
13
 10
-2211.825
 20
1141.941
 30
4127.000
 70
    32
  0
VERTEX
  8
1100LEVEL
 62
13
 10
-2211.825
 20
1143.453
 30
4127.000
 70
    32
  0
VERTEX
  8
1100LEVEL
 62
13
 10
-2207.293
 20
1140.430
 30
4127.000
 70
    32
  0
VERTEX
  8
1100LEVEL
 62
13
 10
-2201.251
 20
1134.384
 30
4127.000
 70
    32
  0
VERTEX
  8
1100LEVEL
 62
13
 10
-2195.209
 20
1126.827
 30
4127.000
 70
    32
  0
VERTEX
  8
1100LEVEL
 62
13
 10
-2190.677
 20
1123.803
 30
4127.000
 70
    32
  0
VERTEX
  8
1100LEVEL
 62
13
 10
-2184.635
 20
1116.246
 30
4127.000
 70
    32
  0
VERTEX
  8
1100LEVEL
 62
13
 10
-2177.082
 20
1108.689
 30
4127.000
 70
    32
  0
VERTEX
  8
1100LEVEL
 62
13
 10
-2171.040
 20
1107.177
 30
4127.000
 70
    32
  0
VERTEX
  8
1100LEVEL
 62
13
 10
-2164.998
 20
1114.734
 30
4127.000
 70
    32
  0
VERTEX
  8
1100LEVEL
 62
13
 10
-2171.040
 20
1126.827
 30
4127.000
 70
    32
  0
VERTEX
  8
1100LEVEL
 62
13
 10
-2189.167
 20
1135.895
 30
4127.000
 70
    32
  0
VERTEX
  8
1100LEVEL
 62
13
 10
-2205.783
 20
1151.010
 30
4127.000
 70
    32
  0
VERTEX
  8
1100LEVEL
 62
13
 10
-2211.825
 20
1161.591
 30
4127.000
 70
    32
  0
VERTEX
  8
1100LEVEL
 62
13
 10
-2222.399
 20
1176.706
 30
4127.000
 70
    32
  0
VERTEX
  8
1100LEVEL
 62
13
 10
-2240.526
 20
1197.867
 30
4127.000
 70
    32
  0
VERTEX
  8
1100LEVEL
 62
13
 10
-2264.695
 20
1217.516
 30
4127.000
 70
    32
  0
VERTEX
  8
1100LEVEL
 62
13
 10
-2279.800
 20
1238.677
 30
4127.000
 70
    32
  0
VERTEX
  8
1100LEVEL
 62
13
 10
-2310.011
 20
1268.907
 30
4127.000
 70
    32
  0
VERTEX
  8
1100LEVEL
 62
13
 10
-2320.586
 20
1284.022
 30
4127.000
 70
    32
  0
VERTEX
  8
1100LEVEL
 62
13
 10
-2332.670
 20
1302.160
 30
4127.000
 70
    32
  0
VERTEX
  8
1100LEVEL
 62
13
 10
-2338.712
 20
1308.206
 30
4127.000
 70
    32
  0
VERTEX
  8
1100LEVEL
 62
13
 10
-2340.223
 20
1314.252
 30
4127.000
 70
    32
  0
VERTEX
  8
1100LEVEL
 62
13
 10
-2344.754
 20
1324.832
 30
4127.000
 70
    32
  0
VERTEX
  8
1100LEVEL
 62
13
 10
-2343.244
 20
1327.855
 30
4127.000
 70
    32
  0
VERTEX
  8
1100LEVEL
 62
13
 10
-2340.223
 20
1332.390
 30
4127.000
 70
    32
  0
VERTEX
  8
1100LEVEL
 62
13
 10
-2335.691
 20
1335.413
 30
4127.000
 70
    32
  0
VERTEX
  8
1100LEVEL
 62
13
 10
-2332.670
 20
1333.902
 30
4127.000
 70
    32
  0
VERTEX
  8
1100LEVEL
 62
13
 10
-2308.501
 20
1299.137
 30
4127.000
 70
    32
  0
VERTEX
  8
1100LEVEL
 62
13
 10
-2294.906
 20
1280.999
 30
4127.000
 70
    32
  0
VERTEX
  8
1100LEVEL
 62
13
 10
-2192.188
 20
1187.286
 30
4127.000
 70
    32
  0
VERTEX
  8
1100LEVEL
 62
13
 10
-2161.977
 20
1157.056
 30
4127.000
 70
    32
  0
VERTEX
  8
1100LEVEL
 62
13
 10
-2136.300
 20
1117.758
 30
4127.000
 70
    32
  0
VERTEX
  8
1100LEVEL
 62
13
 10
-2122.705
 20
1093.574
 30
4127.000
 70
    32
  0
VERTEX
  8
1100LEVEL
 62
13
 10
-2115.152
 20
1072.413
 30
4127.000
 70
    32
  0
VERTEX
  8
1100LEVEL
 62
13
 10
-2107.600
 20
1057.298
 30
4127.000
 70
    32
  0
VERTEX
  8
1100LEVEL
 62
13
 10
-2101.557
 20
1043.695
 30
4127.000
 70
    32
  0
VERTEX
  8
1100LEVEL
 62
13
 10
-2095.515
 20
1034.626
 30
4127.000
 70
    32
  0
VERTEX
  8
1100LEVEL
 62
13
 10
-2092.494
 20
1031.603
 30
4127.000
 70
    32
  0
VERTEX
  8
1100LEVEL
 62
13
 10
-2084.941
 20
1034.626
 30
4127.000
 70
    32
  0
VERTEX
  8
1100LEVEL
 62
13
 10
-2078.899
 20
1037.649
 30
4127.000
 70
    32
  0
VERTEX
  8
1100LEVEL
 62
13
 10
-2072.857
 20
1040.672
 30
4127.000
 70
    32
  0
VERTEX
  8
1100LEVEL
 62
13
 10
-2061.128
 20
1037.081
 30
4127.000
 70
    32
  0
VERTEX
  8
1100LEVEL
 62
13
 10
-2045.343
 20
989.703
 30
4127.000
 70
    32
  0
VERTEX
  8
1100LEVEL
 62
13
 10
-1950.630
 20
906.790
 30
4127.000
 70
    32
  0
VERTEX
  8
1100LEVEL
 62
13
 10
-1907.220
 20
827.826
 30
4127.000
 70
    32
  0
VERTEX
  8
1100LEVEL
 62
13
 10
-1773.043
 20
685.690
 30
4127.000
 70
    32
  0
VERTEX
  8
1100LEVEL
 62
13
 10
-1729.633
 20
575.140
 30
4127.000
 70
    32
  0
VERTEX
  8
1100LEVEL
 62
13
 10
-1705.955
 20
539.606
 30
4127.000
 70
    32
  0
VERTEX
  8
1100LEVEL
 62
13
 10
-1709.901
 20
511.968
 30
4127.000
 70
    32
  0
VERTEX
  8
1100LEVEL
 62
13
 10
-1733.579
 20
519.865
 30
4127.000
 70
    32
  0
VERTEX
  8
1100LEVEL
 62
13
 10
-1757.258
 20
555.398
 30
4127.000
 70
    32
  0
VERTEX
  8
1100LEVEL
 62
13
 10
-1825.123
 20
635.590
 30
4127.000
 70
    32
  0
VERTEX
  8
1100LEVEL
 62
13
 10
-1907.220
 20
713.327
 30
4127.000
 70
    32
  0
VERTEX
  8
1100LEVEL
 62
13
 10
-1932.372
 20
788.251
 30
4127.000
 70
    32
  0
VERTEX
  8
1100LEVEL
 62
13
 10
-1982.201
 20
863.360
 30
4127.000
 70
    32
  0
VERTEX
  8
1100LEVEL
 62
13
 10
-2074.365
 20
936.378
 30
4127.000
 70
    32
  0
VERTEX
  8
1100LEVEL
 62
13
 10
-2112.431
 20
946.272
 30
4127.000
 70
    32
  0
VERTEX
  8
1100LEVEL
 62
13
 10
-2130.258
 20
962.074
 30
4127.000
 70
    32
  0
VERTEX
  8
1100LEVEL
 62
13
 10
-2143.853
 20
978.701
 30
4127.000
 70
    32
  0
VERTEX
  8
1100LEVEL
 62
13
 10
-2154.427
 20
989.281
 30
4127.000
 70
    32
  0
VERTEX
  8
1100LEVEL
 62
13
 10
-2168.022
 20
996.838
 30
4127.000
 70
    32
  0
VERTEX
  8
1100LEVEL
 62
13
 10
-2187.659
 20
1013.465
 30
4127.000
 70
    32
  0
VERTEX
  8
1100LEVEL
 62
13
 10
-2198.233
 20
1027.069
 30
4127.000
 70
    32
  0
VERTEX
  8
1100LEVEL
 62
13
 10
-2213.339
 20
1042.183
 30
4127.000
 70
    32
  0
VERTEX
  8
1100LEVEL
 62
13
 10
-2217.870
 20
1048.229
 30
4127.000
 70
    32
  0
VERTEX
  8
1100LEVEL
 62
13
 10
-2226.934
 20
1055.787
 30
4127.000
 70
    32
  0
VERTEX
  8
1100LEVEL
 62
13
 10
-2239.018
 20
1049.741
 30
4127.000
 70
    32
  0
VERTEX
  8
1100LEVEL
 62
13
 10
-2229.955
 20
1036.137
 30
4127.000
 70
    32
  0
VERTEX
  8
1100LEVEL
 62
13
 10
-2217.870
 20
1016.488
 30
4127.000
 70
    32
  0
VERTEX
  8
1100LEVEL
 62
13
 10
-2196.723
 20
986.258
 30
4127.000
 70
    32
  0
VERTEX
  8
1100LEVEL
 62
13
 10
-2172.554
 20
960.563
 30
4127.000
 70
    32
  0
VERTEX
  8
1100LEVEL
 62
13
 10
-2131.769
 20
927.310
 30
4127.000
 70
    32
  0
VERTEX
  8
1100LEVEL
 62
13
 10
-2112.431
 20
914.687
 30
4127.000
 70
    32
  0
VERTEX
  8
1100LEVEL
 62
13
 10
-2096.645
 20
879.152
 30
4127.000
 70
    32
  0
VERTEX
  8
1100LEVEL
 62
13
 10
-2017.718
 20
827.826
 30
4127.000
 70
    32
  0
VERTEX
  8
1100LEVEL
 62
13
 10
-1967.115
 20
761.044
 30
4127.000
 70
    32
  0
VERTEX
  8
1100LEVEL
 62
13
 10
-1923.005
 20
681.741
 30
4127.000
 70
    32
  0
VERTEX
  8
1100LEVEL
 62
13
 10
-1874.971
 20
593.268
 30
4127.000
 70
    32
  0
VERTEX
  8
1100LEVEL
 62
13
 10
-1812.507
 20
527.761
 30
4127.000
 70
    32
  0
VERTEX
  8
1100LEVEL
 62
13
 10
-1753.311
 20
429.055
 30
4127.000
 70
    32
  0
VERTEX
  8
1100LEVEL
 62
13
 10
-1713.848
 20
338.246
 30
4127.000
 70
    32
  0
VERTEX
  8
1100LEVEL
 62
13
 10
-1607.295
 20
180.317
 30
4127.000
 70
    32
  0
VERTEX
  8
1100LEVEL
 62
13
 10
-1512.583
 20
30.285
 30
4127.000
 70
    32
  0
VERTEX
  8
1100LEVEL
 62
13
 10
-1441.548
 20
-52.628
 30
4127.000
 70
    32
  0
VERTEX
  8
1100LEVEL
 62
13
 10
-1406.031
 20
-103.954
 30
4127.000
 70
    32
  0
VERTEX
  8
1100LEVEL
 62
13
 10
-1378.406
 20
-135.540
 30
4127.000
 70
    32
  0
VERTEX
  8
1100LEVEL
 62
13
 10
-1362.621
 20
-155.281
 30
4127.000
 70
    32
  0
VERTEX
  8
1100LEVEL
 62
13
 10
-1358.674
 20
-147.385
 30
4127.000
 70
    32
  0
VERTEX
  8
1100LEVEL
 62
13
 10
-1370.513
 20
-103.954
 30
4127.000
 70
    32
  0
VERTEX
  8
1100LEVEL
 62
13
 10
-1406.031
 20
-48.680
 30
4127.000
 70
    32
  0
VERTEX
  8
1100LEVEL
 62
13
 10
-1433.655
 20
-9.197
 30
4127.000
 70
    32
  0
VERTEX
  8
1100LEVEL
 62
13
 10
-1469.173
 20
61.871
 30
4127.000
 70
    32
  0
VERTEX
  8
1100LEVEL
 62
13
 10
-1512.583
 20
121.094
 30
4127.000
 70
    32
  0
VERTEX
  8
1100LEVEL
 62
13
 10
-1591.510
 20
204.007
 30
4127.000
 70
    32
  0
VERTEX
  8
1100LEVEL
 62
13
 10
-1615.188
 20
235.592
 30
4127.000
 70
    32
  0
VERTEX
  8
1100LEVEL
 62
13
 10
-1603.349
 20
243.489
 30
4127.000
 70
    32
  0
VERTEX
  8
1100LEVEL
 62
13
 10
-1583.618
 20
223.748
 30
4127.000
 70
    32
  0
VERTEX
  8
1100LEVEL
 62
13
 10
-1540.208
 20
180.317
 30
4127.000
 70
    32
  0
VERTEX
  8
1100LEVEL
 62
13
 10
-1488.905
 20
148.732
 30
4127.000
 70
    32
  0
VERTEX
  8
1100LEVEL
 62
13
 10
-1457.334
 20
132.939
 30
4127.000
 70
    32
  0
VERTEX
  8
1100LEVEL
 62
13
 10
-1417.870
 20
109.249
 30
4127.000
 70
    32
  0
VERTEX
  8
1100LEVEL
 62
13
 10
-1382.353
 20
50.026
 30
4127.000
 70
    32
  0
VERTEX
  8
1100LEVEL
 62
13
 10
-1331.050
 20
-48.680
 30
4127.000
 70
    32
  0
VERTEX
  8
1100LEVEL
 62
13
 10
-1299.479
 20
-115.799
 30
4127.000
 70
    32
  0
VERTEX
  8
1100LEVEL
 62
13
 10
-1248.176
 20
-246.091
 30
4127.000
 70
    32
  0
VERTEX
  8
1100LEVEL
 62
13
 10
-1169.249
 20
-427.709
 30
4127.000
 70
    32
  0
VERTEX
  8
1100LEVEL
 62
13
 10
-1137.678
 20
-459.294
 30
4127.000
 70
    32
  0
VERTEX
  8
1100LEVEL
 62
13
 10
-1094.268
 20
-482.984
 30
4127.000
 70
    32
  0
VERTEX
  8
1100LEVEL
 62
13
 10
-1074.536
 20
-475.087
 30
4127.000
 70
    32
  0
VERTEX
  8
1100LEVEL
 62
13
 10
-1082.429
 20
-415.864
 30
4127.000
 70
    32
  0
VERTEX
  8
1100LEVEL
 62
13
 10
-1110.053
 20
-340.848
 30
4127.000
 70
    32
  0
VERTEX
  8
1100LEVEL
 62
13
 10
-1137.678
 20
-246.091
 30
4127.000
 70
    32
  0
VERTEX
  8
1100LEVEL
 62
13
 10
-1220.552
 20
-68.421
 30
4127.000
 70
    32
  0
VERTEX
  8
1100LEVEL
 62
13
 10
-1260.015
 20
-21.042
 30
4127.000
 70
    32
  0
VERTEX
  8
1100LEVEL
 62
13
 10
-1334.996
 20
77.663
 30
4127.000
 70
    32
  0
VERTEX
  8
1100LEVEL
 62
13
 10
-1394.192
 20
172.421
 30
4127.000
 70
    32
  0
VERTEX
  8
1100LEVEL
 62
13
 10
-1473.119
 20
298.764
 30
4127.000
 70
    32
  0
VERTEX
  8
1100LEVEL
 62
13
 10
-1516.529
 20
409.314
 30
4127.000
 70
    32
  0
VERTEX
  8
1100LEVEL
 62
13
 10
-1559.939
 20
519.865
 30
4127.000
 70
    32
  0
VERTEX
  8
1100LEVEL
 62
13
 10
-1634.920
 20
638.311
 30
4127.000
 70
    32
  0
VERTEX
  8
1100LEVEL
 62
13
 10
-1680.111
 20
764.068
 30
4127.000
 70
    32
  0
VERTEX
  8
1100LEVEL
 62
13
 10
-1749.597
 20
868.361
 30
4127.000
 70
    32
  0
VERTEX
  8
1100LEVEL
 62
13
 10
-1836.185
 20
1001.548
 30
4127.000
 70
    32
  0
VERTEX
  8
1100LEVEL
 62
13
 10
-1887.058
 20
1043.695
 30
4127.000
 70
    32
  0
VERTEX
  8
1100LEVEL
 62
13
 10
-1906.695
 20
1067.879
 30
4127.000
 70
    32
  0
VERTEX
  8
1100LEVEL
 62
13
 10
-1935.396
 20
1111.712
 30
4127.000
 70
    32
  0
VERTEX
  8
1100LEVEL
 62
13
 10
-1938.790
 20
1131.839
 30
4127.000
 70
    32
  0
VERTEX
  8
1100LEVEL
 62
13
 10
-1962.469
 20
1147.632
 30
4127.000
 70
    32
  0
VERTEX
  8
1100LEVEL
 62
13
 10
-1992.797
 20
1172.172
 30
4127.000
 70
    32
  0
VERTEX
  8
1100LEVEL
 62
13
 10
-2017.718
 20
1206.855
 30
4127.000
 70
    32
  0
VERTEX
  8
1100LEVEL
 62
13
 10
-2053.235
 20
1262.130
 30
4127.000
 70
    32
  0
VERTEX
  8
1100LEVEL
 62
13
 10
-2104.538
 20
1348.991
 30
4127.000
 70
    32
  0
VERTEX
  8
1100LEVEL
 62
13
 10
-2144.002
 20
1404.266
 30
4127.000
 70
    32
  0
VERTEX
  8
1100LEVEL
 62
13
 10
-2187.412
 20
1459.541
 30
4127.000
 70
    32
  0
VERTEX
  8
1100LEVEL
 62
13
 10
-2203.197
 20
1499.024
 30
4127.000
 70
    32
  0
VERTEX
  8
1100LEVEL
 62
13
 10
-2191.358
 20
1514.816
 30
4127.000
 70
    32
  0
VERTEX
  8
1100LEVEL
 62
13
 10
-2147.948
 20
1506.920
 30
4127.000
 70
    32
  0
VERTEX
  8
1100LEVEL
 62
13
 10
-2112.431
 20
1475.334
 30
4127.000
 70
    32
  0
VERTEX
  8
1100LEVEL
 62
13
 10
-2084.806
 20
1443.748
 30
4127.000
 70
    32
  0
VERTEX
  8
1100LEVEL
 62
13
 10
-2053.235
 20
1392.421
 30
4127.000
 70
    32
  0
VERTEX
  8
1100LEVEL
 62
13
 10
-1990.093
 20
1329.250
 30
4127.000
 70
    32
  0
VERTEX
  8
1100LEVEL
 62
13
 10
-1954.576
 20
1285.819
 30
4127.000
 70
    32
  0
VERTEX
  8
1100LEVEL
 62
13
 10
-1891.589
 20
1225.075
 30
4127.000
 70
    32
  0
VERTEX
  8
1100LEVEL
 62
13
 10
-1862.889
 20
1205.425
 30
4127.000
 70
    32
  0
VERTEX
  8
1100LEVEL
 62
13
 10
-1837.209
 20
1181.241
 30
4127.000
 70
    32
  0
VERTEX
  8
1100LEVEL
 62
13
 10
-1816.453
 20
1151.580
 30
4127.000
 70
    32
  0
VERTEX
  8
1100LEVEL
 62
13
 10
-1782.829
 20
1113.224
 30
4127.000
 70
    32
  0
VERTEX
  8
1100LEVEL
 62
13
 10
-1740.533
 20
1078.459
 30
4127.000
 70
    32
  0
VERTEX
  8
1100LEVEL
 62
13
 10
-1710.322
 20
1007.419
 30
4127.000
 70
    32
  0
VERTEX
  8
1100LEVEL
 62
13
 10
-1654.652
 20
910.738
 30
4127.000
 70
    32
  0
VERTEX
  8
1100LEVEL
 62
13
 10
-1536.261
 20
772.551
 30
4127.000
 70
    32
  0
VERTEX
  8
1100LEVEL
 62
13
 10
-1496.797
 20
689.638
 30
4127.000
 70
    32
  0
VERTEX
  8
1100LEVEL
 62
13
 10
-1465.226
 20
638.311
 30
4127.000
 70
    32
  0
VERTEX
  8
1100LEVEL
 62
13
 10
-1433.655
 20
594.881
 30
4127.000
 70
    32
  0
VERTEX
  8
1100LEVEL
 62
13
 10
-1413.924
 20
575.140
 30
4127.000
 70
    32
  0
VERTEX
  8
1100LEVEL
 62
13
 10
-1386.299
 20
575.140
 30
4127.000
 70
    32
  0
VERTEX
  8
1100LEVEL
 62
13
 10
-1386.299
 20
590.932
 30
4127.000
 70
    32
  0
VERTEX
  8
1100LEVEL
 62
13
 10
-1406.031
 20
638.311
 30
4127.000
 70
    32
  0
VERTEX
  8
1100LEVEL
 62
13
 10
-1425.763
 20
669.897
 30
4127.000
 70
    32
  0
VERTEX
  8
1100LEVEL
 62
13
 10
-1457.334
 20
733.068
 30
4127.000
 70
    32
  0
VERTEX
  8
1100LEVEL
 62
13
 10
-1512.583
 20
823.878
 30
4127.000
 70
    32
  0
VERTEX
  8
1100LEVEL
 62
13
 10
-1559.939
 20
887.049
 30
4127.000
 70
    32
  0
VERTEX
  8
1100LEVEL
 62
13
 10
-1611.242
 20
938.376
 30
4127.000
 70
    32
  0
VERTEX
  8
1100LEVEL
 62
13
 10
-1686.223
 20
1033.133
 30
4127.000
 70
    32
  0
VERTEX
  8
1100LEVEL
 62
13
 10
-1713.343
 20
1102.643
 30
4127.000
 70
    32
  0
VERTEX
  8
1100LEVEL
 62
13
 10
-1757.258
 20
1135.787
 30
4127.000
 70
    32
  0
VERTEX
  8
1100LEVEL
 62
13
 10
-1804.614
 20
1187.114
 30
4127.000
 70
    32
  0
VERTEX
  8
1100LEVEL
 62
13
 10
-1828.292
 20
1230.544
 30
4127.000
 70
    32
  0
VERTEX
  8
1100LEVEL
 62
13
 10
-1848.024
 20
1266.078
 30
4127.000
 70
    32
  0
VERTEX
  8
1100LEVEL
 62
13
 10
-1848.024
 20
1285.819
 30
4127.000
 70
    32
  0
VERTEX
  8
1100LEVEL
 62
13
 10
-1828.292
 20
1277.923
 30
4127.000
 70
    32
  0
VERTEX
  8
1100LEVEL
 62
13
 10
-1796.721
 20
1238.441
 30
4127.000
 70
    32
  0
VERTEX
  8
1100LEVEL
 62
13
 10
-1765.150
 20
1214.751
 30
4127.000
 70
    32
  0
VERTEX
  8
1100LEVEL
 62
13
 10
-1729.633
 20
1175.269
 30
4127.000
 70
    32
  0
VERTEX
  8
1100LEVEL
 62
13
 10
-1678.600
 20
1138.919
 30
4127.000
 70
    32
  0
VERTEX
  8
1100LEVEL
 62
13
 10
-1668.027
 20
1061.833
 30
4129.663
 70
    32
  0
VERTEX
  8
1100LEVEL
 62
13
 10
-1630.974
 20
1013.392
 30
4127.000
 70
    32
  0
VERTEX
  8
1100LEVEL
 62
13
 10
-1607.295
 20
981.806
 30
4127.000
 70
    32
  0
VERTEX
  8
1100LEVEL
 62
13
 10
-1579.671
 20
973.910
 30
4127.000
 70
    32
  0
VERTEX
  8
1100LEVEL
 62
13
 10
-1587.564
 20
1001.548
 30
4127.000
 70
    32
  0
VERTEX
  8
1100LEVEL
 62
13
 10
-1619.135
 20
1060.771
 30
4127.000
 70
    32
  0
VERTEX
  8
1100LEVEL
 62
13
 10
-1638.866
 20
1096.305
 30
4127.000
 70
    32
  0
VERTEX
  8
1100LEVEL
 62
13
 10
-1661.984
 20
1151.012
 30
4127.000
 70
    32
  0
VERTEX
  8
1100LEVEL
 62
13
 10
-1694.116
 20
1183.166
 30
4127.000
 70
    32
  0
VERTEX
  8
1100LEVEL
 62
13
 10
-1737.526
 20
1226.596
 30
4127.000
 70
    32
  0
VERTEX
  8
1100LEVEL
 62
13
 10
-1765.150
 20
1266.078
 30
4127.000
 70
    32
  0
VERTEX
  8
1100LEVEL
 62
13
 10
-1769.097
 20
1281.871
 30
4127.000
 70
    32
  0
VERTEX
  8
1100LEVEL
 62
13
 10
-1757.258
 20
1289.768
 30
4127.000
 70
    32
  0
VERTEX
  8
1100LEVEL
 62
13
 10
-1725.687
 20
1254.233
 30
4127.000
 70
    32
  0
VERTEX
  8
1100LEVEL
 62
13
 10
-1709.901
 20
1238.441
 30
4127.000
 70
    32
  0
VERTEX
  8
1100LEVEL
 62
13
 10
-1623.081
 20
1179.217
 30
4127.000
 70
    32
  0
VERTEX
  8
1100LEVEL
 62
13
 10
-1607.295
 20
1100.253
 30
4127.000
 70
    32
  0
VERTEX
  8
1100LEVEL
 62
13
 10
-1524.422
 20
985.755
 30
4127.000
 70
    32
  0
VERTEX
  8
1100LEVEL
 62
13
 10
-1408.210
 20
848.711
 30
4127.000
 70
    32
  0
VERTEX
  8
1100LEVEL
 62
13
 10
-1334.996
 20
764.654
 30
4127.000
 70
    32
  0
VERTEX
  8
1100LEVEL
 62
13
 10
-1315.265
 20
717.276
 30
4127.000
 70
    32
  0
VERTEX
  8
1100LEVEL
 62
13
 10
-1299.449
 20
634.078
 30
4127.000
 70
    32
  0
VERTEX
  8
1100LEVEL
 62
13
 10
-1260.174
 20
593.268
 30
4127.000
 70
    32
  0
VERTEX
  8
1100LEVEL
 62
13
 10
-1242.047
 20
578.153
 30
4127.000
 70
    32
  0
VERTEX
  8
1100LEVEL
 62
13
 10
-1229.963
 20
587.222
 30
4127.000
 70
    32
  0
VERTEX
  8
1100LEVEL
 62
13
 10
-1236.005
 20
603.848
 30
4127.000
 70
    32
  0
VERTEX
  8
1100LEVEL
 62
13
 10
-1261.684
 20
658.262
 30
4127.000
 70
    32
  0
VERTEX
  8
1100LEVEL
 62
13
 10
-1269.237
 20
665.820
 30
4127.000
 70
    32
  0
VERTEX
  8
1100LEVEL
 62
13
 10
-1273.769
 20
677.912
 30
4127.000
 70
    32
  0
VERTEX
  8
1100LEVEL
 62
13
 10
-1264.705
 20
679.423
 30
4127.000
 70
    32
  0
VERTEX
  8
1100LEVEL
 62
13
 10
-1257.153
 20
661.285
 30
4127.000
 70
    32
  0
VERTEX
  8
1100LEVEL
 62
13
 10
-1240.537
 20
649.193
 30
4127.000
 70
    32
  0
VERTEX
  8
1100LEVEL
 62
13
 10
-1236.005
 20
646.170
 30
4127.000
 70
    32
  0
VERTEX
  8
1100LEVEL
 62
13
 10
-1231.473
 20
647.682
 30
4127.000
 70
    32
  0
VERTEX
  8
1100LEVEL
 62
13
 10
-1243.558
 20
668.843
 30
4127.000
 70
    32
  0
VERTEX
  8
1100LEVEL
 62
13
 10
-1252.621
 20
700.584
 30
4127.000
 70
    32
  0
VERTEX
  8
1100LEVEL
 62
13
 10
-1267.727
 20
730.814
 30
4127.000
 70
    32
  0
VERTEX
  8
1100LEVEL
 62
13
 10
-1282.832
 20
761.044
 30
4127.000
 70
    32
  0
VERTEX
  8
1100LEVEL
 62
13
 10
-1285.853
 20
776.159
 30
4127.000
 70
    32
  0
VERTEX
  8
1100LEVEL
 62
13
 10
-1290.385
 20
797.320
 30
4127.000
 70
    32
  0
VERTEX
  8
1100LEVEL
 62
13
 10
-1293.406
 20
807.901
 30
4127.000
 70
    32
  0
VERTEX
  8
1100LEVEL
 62
13
 10
-1294.917
 20
812.435
 30
4127.000
 70
    32
  0
VERTEX
  8
1100LEVEL
 62
13
 10
-1291.896
 20
816.969
 30
4127.000
 70
    32
  0
VERTEX
  8
1100LEVEL
 62
13
 10
-1290.385
 20
816.969
 30
4127.000
 70
    32
  0
VERTEX
  8
1100LEVEL
 62
13
 10
-1285.853
 20
810.924
 30
4127.000
 70
    32
  0
VERTEX
  8
1100LEVEL
 62
13
 10
-1282.832
 20
795.808
 30
4127.000
 70
    32
  0
VERTEX
  8
1100LEVEL
 62
13
 10
-1269.237
 20
765.578
 30
4127.000
 70
    32
  0
VERTEX
  8
1100LEVEL
 62
13
 10
-1245.068
 20
726.280
 30
4127.000
 70
    32
  0
VERTEX
  8
1100LEVEL
 62
13
 10
-1231.473
 20
690.004
 30
4127.000
 70
    32
  0
VERTEX
  8
1100LEVEL
 62
13
 10
-1217.878
 20
676.400
 30
4127.000
 70
    32
  0
VERTEX
  8
1100LEVEL
 62
13
 10
-1196.731
 20
667.331
 30
4127.000
 70
    32
  0
VERTEX
  8
1100LEVEL
 62
13
 10
-1178.604
 20
655.239
 30
4127.000
 70
    32
  0
VERTEX
  8
1100LEVEL
 62
13
 10
-1165.302
 20
642.259
 30
4127.000
 70
    32
  0
VERTEX
  8
1100LEVEL
 62
13
 10
-1121.892
 20
622.518
 30
4127.000
 70
    32
  0
VERTEX
  8
1100LEVEL
 62
13
 10
-1078.482
 20
606.725
 30
4127.000
 70
    32
  0
VERTEX
  8
1100LEVEL
 62
13
 10
-1070.589
 20
586.984
 30
4127.000
 70
    32
  0
VERTEX
  8
1100LEVEL
 62
13
 10
-1054.804
 20
555.398
 30
4127.000
 70
    32
  0
VERTEX
  8
1100LEVEL
 62
13
 10
-1035.072
 20
500.124
 30
4127.000
 70
    32
  0
VERTEX
  8
1100LEVEL
 62
13
 10
-1003.501
 20
429.055
 30
4127.000
 70
    32
  0
VERTEX
  8
1100LEVEL
 62
13
 10
-960.091
 20
377.728
 30
4127.000
 70
    32
  0
VERTEX
  8
1100LEVEL
 62
13
 10
-928.520
 20
342.195
 30
4127.000
 70
    32
  0
VERTEX
  8
1100LEVEL
 62
13
 10
-818.022
 20
211.903
 30
4127.000
 70
    32
  0
VERTEX
  8
1100LEVEL
 62
13
 10
-806.183
 20
196.110
 30
4127.000
 70
    32
  0
VERTEX
  8
1100LEVEL
 62
13
 10
-766.719
 20
117.146
 30
4127.000
 70
    32
  0
VERTEX
  8
1100LEVEL
 62
13
 10
-739.095
 20
69.767
 30
4127.000
 70
    32
  0
VERTEX
  8
1100LEVEL
 62
13
 10
-726.524
 20
-18.208
 30
4127.000
 70
    32
  0
VERTEX
  8
1100LEVEL
 62
13
 10
-688.234
 20
-61.365
 30
4127.000
 70
    32
  0
VERTEX
  8
1100LEVEL
 62
13
 10
-640.331
 20
-128.815
 30
4127.000
 70
    32
  0
VERTEX
  8
1100LEVEL
 62
13
 10
-582.151
 20
-199.729
 30
4127.000
 70
    32
  0
VERTEX
  8
1100LEVEL
 62
13
 10
-518.267
 20
-280.414
 30
4127.000
 70
    32
  0
VERTEX
  8
1100LEVEL
 62
13
 10
-478.161
 20
-359.950
 30
4127.000
 70
    32
  0
VERTEX
  8
1100LEVEL
 62
13
 10
-435.309
 20
-442.714
 30
4127.000
 70
    32
  0
VERTEX
  8
1100LEVEL
 62
13
 10
-394.584
 20
-526.136
 30
4127.000
 70
    32
  0
VERTEX
  8
1100LEVEL
 62
13
 10
-362.276
 20
-617.756
 30
4127.000
 70
    32
  0
VERTEX
  8
1100LEVEL
 62
13
 10
-324.270
 20
-716.119
 30
4127.000
 70
    32
  0
VERTEX
  8
1100LEVEL
 62
13
 10
-291.585
 20
-813.100
 30
4127.000
 70
    32
  0
VERTEX
  8
1100LEVEL
 62
13
 10
-256.836
 20
-896.040
 30
4127.000
 70
    32
  0
VERTEX
  8
1100LEVEL
 62
13
 10
-211.861
 20
-975.118
 30
4127.000
 70
    32
  0
VERTEX
  8
1100LEVEL
 62
13
 10
-180.841
 20
-1054.667
 30
4127.000
 70
    32
  0
VERTEX
  8
1100LEVEL
 62
13
 10
-157.837
 20
-1136.930
 30
4127.000
 70
    32
  0
VERTEX
  8
1100LEVEL
 62
13
 10
-146.713
 20
-1211.681
 30
4127.000
 70
    32
  0
VERTEX
  8
1100LEVEL
 62
13
 10
-119.798
 20
-1256.492
 30
4127.000
 70
    32
  0
VERTEX
  8
1100LEVEL
 62
13
 10
-89.679
 20
-1335.388
 30
4127.000
 70
    32
  0
VERTEX
  8
1100LEVEL
 62
13
 10
-53.518
 20
-1431.176
 30
4127.000
 70
    32
  0
VERTEX
  8
1100LEVEL
 62
13
 10
-14.678
 20
-1539.769
 30
4127.000
 70
    32
  0
VERTEX
  8
1100LEVEL
 62
13
 10
29.906
 20
-1630.388
 30
4127.000
 70
    32
  0
VERTEX
  8
1100LEVEL
 62
13
 10
64.984
 20
-1714.392
 30
4127.000
 70
    32
  0
VERTEX
  8
1100LEVEL
 62
13
 10
97.002
 20
-1777.202
 30
4127.000
 70
    32
  0
VERTEX
  8
1100LEVEL
 62
13
 10
142.946
 20
-1821.370
 30
4127.000
 70
    32
  0
VERTEX
  8
1100LEVEL
 62
13
 10
193.606
 20
-1872.119
 30
4127.000
 70
    32
  0
VERTEX
  8
1100LEVEL
 62
13
 10
215.810
 20
-1913.377
 30
4127.000
 70
    32
  0
VERTEX
  8
1100LEVEL
 62
13
 10
239.596
 20
-1972.558
 30
4127.000
 70
    32
  0
VERTEX
  8
1100LEVEL
 62
13
 10
259.840
 20
-1990.533
 30
4127.000
 70
    32
  0
VERTEX
  8
1100LEVEL
 62
13
 10
252.993
 20
-1955.594
 30
4127.000
 70
    32
  0
VERTEX
  8
1100LEVEL
 62
13
 10
227.966
 20
-1914.627
 30
4127.000
 70
    32
  0
VERTEX
  8
1100LEVEL
 62
13
 10
213.579
 20
-1873.398
 30
4127.000
 70
    32
  0
VERTEX
  8
1100LEVEL
 62
13
 10
242.593
 20
-1899.381
 30
4127.000
 70
    32
  0
VERTEX
  8
1100LEVEL
 62
13
 10
267.239
 20
-1931.959
 30
4127.000
 70
    32
  0
VERTEX
  8
1100LEVEL
 62
13
 10
295.361
 20
-1963.346
 30
4127.000
 70
    32
  0
VERTEX
  8
1100LEVEL
 62
13
 10
334.933
 20
-2015.544
 30
4127.000
 70
    32
  0
VERTEX
  8
1100LEVEL
 62
13
 10
373.113
 20
-2067.009
 30
4127.000
 70
    32
  0
VERTEX
  8
1100LEVEL
 62
13
 10
408.736
 20
-2132.432
 30
4127.000
 70
    32
  0
VERTEX
  8
1100LEVEL
 62
13
 10
438.917
 20
-2198.724
 30
4127.000
 70
    32
  0
VERTEX
  8
1100LEVEL
 62
13
 10
479.300
 20
-2271.997
 30
4127.000
 70
    32
  0
VERTEX
  8
1100LEVEL
 62
13
 10
509.415
 20
-2321.878
 30
4127.000
 70
    32
  0
VERTEX
  8
1100LEVEL
 62
13
 10
531.657
 20
-2335.389
 30
4127.000
 70
    32
  0
VERTEX
  8
1100LEVEL
 62
13
 10
512.053
 20
-2281.441
 30
4127.000
 70
    32
  0
VERTEX
  8
1100LEVEL
 62
13
 10
478.104
 20
-2213.519
 30
4127.000
 70
    32
  0
VERTEX
  8
1100LEVEL
 62
13
 10
441.781
 20
-2144.699
 30
4127.000
 70
    32
  0
VERTEX
  8
1100LEVEL
 62
13
 10
412.324
 20
-2070.959
 30
4127.000
 70
    32
  0
VERTEX
  8
1100LEVEL
 62
13
 10
382.229
 20
-2007.205
 30
4127.000
 70
    32
  0
VERTEX
  8
1100LEVEL
 62
13
 10
345.542
 20
-1942.110
 30
4127.000
 70
    32
  0
VERTEX
  8
1100LEVEL
 62
13
 10
314.611
 20
-1894.113
 30
4127.000
 70
    32
  0
VERTEX
  8
1100LEVEL
 62
13
 10
274.772
 20
-1854.233
 30
4127.000
 70
    32
  0
VERTEX
  8
1100LEVEL
 62
13
 10
266.079
 20
-1816.719
 30
4127.000
 70
    32
  0
VERTEX
  8
1100LEVEL
 62
13
 10
303.554
 20
-1835.773
 30
4127.000
 70
    32
  0
VERTEX
  8
1100LEVEL
 62
13
 10
345.234
 20
-1901.187
 30
4127.000
 70
    32
  0
VERTEX
  8
1100LEVEL
 62
13
 10
382.783
 20
-1968.695
 30
4127.000
 70
    32
  0
VERTEX
  8
1100LEVEL
 62
13
 10
421.162
 20
-2043.403
 30
4127.000
 70
    32
  0
VERTEX
  8
1100LEVEL
 62
13
 10
452.750
 20
-2119.514
 30
4127.000
 70
    32
  0
VERTEX
  8
1100LEVEL
 62
13
 10
488.678
 20
-2196.846
 30
4127.000
 70
    32
  0
VERTEX
  8
1100LEVEL
 62
13
 10
526.638
 20
-2264.926
 30
4127.000
 70
    32
  0
VERTEX
  8
1100LEVEL
 62
13
 10
570.178
 20
-2316.014
 30
4127.000
 70
    32
  0
VERTEX
  8
1100LEVEL
 62
13
 10
621.472
 20
-2379.735
 30
4127.000
 70
    32
  0
VERTEX
  8
1100LEVEL
 62
13
 10
680.611
 20
-2461.656
 30
4127.000
 70
    32
  0
VERTEX
  8
1100LEVEL
 62
13
 10
741.309
 20
-2546.357
 30
4127.000
 70
    32
  0
VERTEX
  8
1100LEVEL
 62
13
 10
803.833
 20
-2647.506
 30
4127.000
 70
    32
  0
VERTEX
  8
1100LEVEL
 62
13
 10
855.861
 20
-2735.822
 30
4127.000
 70
    32
  0
VERTEX
  8
1100LEVEL
 62
13
 10
913.626
 20
-2829.121
 30
4127.000
 70
    32
  0
VERTEX
  8
1100LEVEL
 62
13
 10
982.502
 20
-2936.113
 30
4127.000
 70
    32
  0
VERTEX
  8
1100LEVEL
 62
13
 10
1049.509
 20
-3051.375
 30
4127.000
 70
    32
  0
VERTEX
  8
1100LEVEL
 62
13
 10
1110.951
 20
-3140.740
 30
4127.000
 70
    32
  0
VERTEX
  8
1100LEVEL
 62
13
 10
1158.587
 20
-3220.509
 30
4127.000
 70
    32
  0
VERTEX
  8
1100LEVEL
 62
13
 10
1207.448
 20
-3298.967
 30
4127.000
 70
    32
  0
VERTEX
  8
1100LEVEL
 62
13
 10
1241.292
 20
-3378.225
 30
4127.000
 70
    32
  0
VERTEX
  8
1100LEVEL
 62
13
 10
1292.171
 20
-3464.333
 30
4127.000
 70
    32
  0
VERTEX
  8
1100LEVEL
 62
13
 10
1347.389
 20
-3551.661
 30
4127.000
 70
    32
  0
VERTEX
  8
1100LEVEL
 62
13
 10
1398.353
 20
-3640.306
 30
4127.000
 70
    32
  0
VERTEX
  8
1100LEVEL
 62
13
 10
1457.873
 20
-3730.615
 30
4127.000
 70
    32
  0
VERTEX
  8
1100LEVEL
 62
13
 10
1515.257
 20
-3815.526
 30
4127.000
 70
    32
  0
VERTEX
  8
1100LEVEL
 62
13
 10
1562.053
 20
-3908.024
 30
4127.000
 70
    32
  0
VERTEX
  8
1100LEVEL
 62
13
 10
1587.327
 20
-3976.532
 30
4127.000
 70
    32
  0
VERTEX
  8
1100LEVEL
 62
13
 10
1612.673
 20
-4038.493
 30
4127.000
 70
    32
  0
VERTEX
  8
1100LEVEL
 62
13
 10
1623.175
 20
-4002.382
 30
4127.000
 70
    32
  0
VERTEX
  8
1100LEVEL
 62
13
 10
1610.935
 20
-3946.621
 30
4127.000
 70
    32
  0
VERTEX
  8
1100LEVEL
 62
13
 10
1633.154
 20
-3944.991
 30
4127.000
 70
    32
  0
VERTEX
  8
1100LEVEL
 62
13
 10
1659.378
 20
-3992.463
 30
4127.000
 70
    32
  0
VERTEX
  8
1100LEVEL
 62
13
 10
1684.815
 20
-4034.003
 30
4127.000
 70
    32
  0
VERTEX
  8
1100LEVEL
 62
13
 10
1702.961
 20
-4044.820
 30
4127.000
 70
    32
  0
VERTEX
  8
1100LEVEL
 62
13
 10
1969.020
 20
-4158.628
 30
4127.000
 70
    32
  0
VERTEX
  8
1100LEVEL
 62
13
 10
1979.451
 20
-4129.065
 30
4127.000
 70
    32
  0
VERTEX
  8
1100LEVEL
 62
13
 10
1966.604
 20
-4078.503
 30
4127.000
 70
    32
  0
VERTEX
  8
1100LEVEL
 62
13
 10
1947.110
 20
-4016.247
 30
4127.000
 70
    32
  0
VERTEX
  8
1100LEVEL
 62
13
 10
1938.728
 20
-3967.683
 30
4127.000
 70
    32
  0
VERTEX
  8
1100LEVEL
 62
13
 10
1971.386
 20
-3994.519
 30
4127.000
 70
    32
  0
VERTEX
  8
1100LEVEL
 62
13
 10
2005.030
 20
-4050.533
 30
4127.000
 70
    32
  0
VERTEX
  8
1100LEVEL
 62
13
 10
2040.701
 20
-4094.267
 30
4127.000
 70
    32
  0
VERTEX
  8
1100LEVEL
 62
13
 10
2080.688
 20
-4150.067
 30
4127.000
 70
    32
  0
VERTEX
  8
1100LEVEL
 62
13
 10
2114.299
 20
-4184.882
 30
4127.000
 70
    32
  0
VERTEX
  8
1100LEVEL
 62
13
 10
2103.847
 20
-4147.330
 30
4127.000
 70
    32
  0
VERTEX
  8
1100LEVEL
 62
13
 10
2074.304
 20
-4097.039
 30
4127.000
 70
    32
  0
VERTEX
  8
1100LEVEL
 62
13
 10
2080.204
 20
-4075.054
 30
4127.000
 70
    32
  0
VERTEX
  8
1100LEVEL
 62
13
 10
2106.925
 20
-4073.662
 30
4127.000
 70
    32
  0
VERTEX
  8
1100LEVEL
 62
13
 10
2113.012
 20
-4039.849
 30
4127.000
 70
    32
  0
VERTEX
  8
1100LEVEL
 62
13
 10
2082.253
 20
-3996.927
 30
4127.000
 70
    32
  0
VERTEX
  8
1100LEVEL
 62
13
 10
2067.884
 20
-3967.811
 30
4127.000
 70
    32
  0
SEQEND
  8
1100LEVEL
  0
POLYLINE
  8
1100LEVEL
 62
7
 66
     1
 70
     8
  0
VERTEX
  8
1100LEVEL
 62
7
 10
2078.724
 20
-3964.807
 30
4127.000
 70
    32
  0
VERTEX
  8
1100LEVEL
 62
7
 10
2111.448
 20
-4008.054
 30
4127.000
 70
    32
  0
VERTEX
  8
1100LEVEL
 62
7
 10
2132.536
 20
-4042.316
 30
4127.000
 70
    32
  0
VERTEX
  8
1100LEVEL
 62
7
 10
2149.212
 20
-4081.904
 30
4127.000
 70
    32
  0
VERTEX
  8
1100LEVEL
 62
7
 10
2128.614
 20
-4099.697
 30
4127.000
 70
    32
  0
VERTEX
  8
1100LEVEL
 62
7
 10
2120.558
 20
-4130.157
 30
4127.000
 70
    32
  0
VERTEX
  8
1100LEVEL
 62
7
 10
2149.881
 20
-4197.063
 30
4127.000
 70
    32
  0
VERTEX
  8
1100LEVEL
 62
7
 10
2184.508
 20
-4253.240
 30
4127.000
 70
    32
  0
VERTEX
  8
1100LEVEL
 62
7
 10
2207.841
 20
-4310.579
 30
4127.000
 70
    32
  0
VERTEX
  8
1100LEVEL
 62
7
 10
2220.559
 20
-4357.336
 30
4127.000
 70
    32
  0
VERTEX
  8
1100LEVEL
 62
7
 10
2215.207
 20
-4389.756
 30
4127.000
 70
    32
  0
VERTEX
  8
1100LEVEL
 62
7
 10
2193.680
 20
-4362.738
 30
4127.000
 70
    32
  0
VERTEX
  8
1100LEVEL
 62
7
 10
2164.123
 20
-4303.362
 30
4127.000
 70
    32
  0
VERTEX
  8
1100LEVEL
 62
7
 10
2134.098
 20
-4259.047
 30
4127.000
 70
    32
  0
VERTEX
  8
1100LEVEL
 62
7
 10
2100.802
 20
-4216.210
 30
4127.000
 70
    32
  0
VERTEX
  8
1100LEVEL
 62
7
 10
2061.726
 20
-4167.120
 30
4127.000
 70
    32
  0
VERTEX
  8
1100LEVEL
 62
7
 10
2030.895
 20
-4130.745
 30
4127.000
 70
    32
  0
VERTEX
  8
1100LEVEL
 62
7
 10
2049.388
 20
-4180.726
 30
4127.000
 70
    32
  0
VERTEX
  8
1100LEVEL
 62
7
 10
2075.383
 20
-4212.770
 30
4127.000
 70
    32
  0
VERTEX
  8
1100LEVEL
 62
7
 10
2116.634
 20
-4265.499
 30
4127.000
 70
    32
  0
VERTEX
  8
1100LEVEL
 62
7
 10
2143.601
 20
-4317.635
 30
4127.000
 70
    32
  0
VERTEX
  8
1100LEVEL
 62
7
 10
2155.814
 20
-4355.226
 30
4127.000
 70
    32
  0
VERTEX
  8
1100LEVEL
 62
7
 10
2145.898
 20
-4374.025
 30
4127.000
 70
    32
  0
VERTEX
  8
1100LEVEL
 62
7
 10
2125.211
 20
-4334.279
 30
4127.000
 70
    32
  0
VERTEX
  8
1100LEVEL
 62
7
 10
2104.682
 20
-4290.522
 30
4127.000
 70
    32
  0
VERTEX
  8
1100LEVEL
 62
7
 10
2078.767
 20
-4257.986
 30
4127.000
 70
    32
  0
VERTEX
  8
1100LEVEL
 62
7
 10
2047.102
 20
-4211.382
 30
4127.000
 70
    32
  0
VERTEX
  8
1100LEVEL
 62
7
 10
2032.519
 20
-4175.923
 30
4127.000
 70
    32
  0
VERTEX
  8
1100LEVEL
 62
7
 10
2012.872
 20
-4146.693
 30
4127.000
 70
    32
  0
VERTEX
  8
1100LEVEL
 62
7
 10
2009.442
 20
-4178.169
 30
4127.000
 70
    32
  0
VERTEX
  8
1100LEVEL
 62
7
 10
2033.805
 20
-4239.967
 30
4127.000
 70
    32
  0
VERTEX
  8
1100LEVEL
 62
7
 10
2060.334
 20
-4299.348
 30
4127.000
 70
    32
  0
VERTEX
  8
1100LEVEL
 62
7
 10
2098.494
 20
-4364.686
 30
4127.000
 70
    32
  0
VERTEX
  8
1100LEVEL
 62
7
 10
2129.067
 20
-4419.436
 30
4127.000
 70
    32
  0
VERTEX
  8
1100LEVEL
 62
7
 10
2154.379
 20
-4460.198
 30
4127.000
 70
    32
  0
VERTEX
  8
1100LEVEL
 62
7
 10
2167.579
 20
-4500.979
 30
4127.000
 70
    32
  0
VERTEX
  8
1100LEVEL
 62
7
 10
2168.899
 20
-4534.248
 30
4127.000
 70
    32
  0
VERTEX
  8
1100LEVEL
 62
7
 10
2162.932
 20
-4565.809
 30
4127.000
 70
    32
  0
VERTEX
  8
1100LEVEL
 62
7
 10
2146.546
 20
-4529.044
 30
4127.000
 70
    32
  0
VERTEX
  8
1100LEVEL
 62
7
 10
2107.427
 20
-4478.686
 30
4127.000
 70
    32
  0
VERTEX
  8
1100LEVEL
 62
7
 10
2071.241
 20
-4445.716
 30
4127.000
 70
    32
  0
VERTEX
  8
1100LEVEL
 62
7
 10
1745.444
 20
-4180.254
 30
4127.000
 70
    32
  0
VERTEX
  8
1100LEVEL
 62
7
 10
1708.228
 20
-4142.825
 30
4127.000
 70
    32
  0
VERTEX
  8
1100LEVEL
 62
7
 10
1677.845
 20
-4105.262
 30
4127.000
 70
    32
  0
VERTEX
  8
1100LEVEL
 62
7
 10
1668.649
 20
-4139.571
 30
4127.000
 70
    32
  0
VERTEX
  8
1100LEVEL
 62
7
 10
1689.545
 20
-4208.618
 30
4127.000
 70
    32
  0
VERTEX
  8
1100LEVEL
 62
7
 10
1714.342
 20
-4286.131
 30
4127.000
 70
    32
  0
VERTEX
  8
1100LEVEL
 62
7
 10
1706.343
 20
-4326.945
 30
4127.000
 70
    32
  0
VERTEX
  8
1100LEVEL
 62
7
 10
1646.922
 20
-4248.258
 30
4127.000
 70
    32
  0
VERTEX
  8
1100LEVEL
 62
7
 10
1615.163
 20
-4167.072
 30
4127.000
 70
    32
  0
VERTEX
  8
1100LEVEL
 62
7
 10
1594.558
 20
-4100.848
 30
4127.000
 70
    32
  0
VERTEX
  8
1100LEVEL
 62
7
 10
1554.286
 20
-4019.267
 30
4127.000
 70
    32
  0
VERTEX
  8
1100LEVEL
 62
7
 10
1507.036
 20
-3924.928
 30
4127.000
 70
    32
  0
VERTEX
  8
1100LEVEL
 62
7
 10
1481.944
 20
-3841.564
 30
4127.000
 70
    32
  0
VERTEX
  8
1100LEVEL
 62
7
 10
1457.815
 20
-3772.235
 30
4127.000
 70
    32
  0
VERTEX
  8
1100LEVEL
 62
7
 10
1394.618
 20
-3685.860
 30
4127.000
 70
    32
  0
VERTEX
  8
1100LEVEL
 62
7
 10
1361.036
 20
-3617.241
 30
4127.000
 70
    32
  0
VERTEX
  8
1100LEVEL
 62
7
 10
1307.429
 20
-3540.019
 30
4127.000
 70
    32
  0
VERTEX
  8
1100LEVEL
 62
7
 10
1267.424
 20
-3472.105
 30
4127.000
 70
    32
  0
VERTEX
  8
1100LEVEL
 62
7
 10
1219.655
 20
-3385.502
 30
4127.000
 70
    32
  0
VERTEX
  8
1100LEVEL
 62
7
 10
1173.134
 20
-3312.729
 30
4127.000
 70
    32
  0
VERTEX
  8
1100LEVEL
 62
7
 10
1136.143
 20
-3235.726
 30
4127.000
 70
    32
  0
VERTEX
  8
1100LEVEL
 62
7
 10
1099.614
 20
-3166.621
 30
4127.000
 70
    32
  0
VERTEX
  8
1100LEVEL
 62
7
 10
1049.642
 20
-3084.195
 30
4127.000
 70
    32
  0
VERTEX
  8
1100LEVEL
 62
7
 10
1011.882
 20
-3013.373
 30
4127.000
 70
    32
  0
VERTEX
  8
1100LEVEL
 62
7
 10
973.932
 20
-2951.350
 30
4127.000
 70
    32
  0
VERTEX
  8
1100LEVEL
 62
7
 10
931.360
 20
-2891.339
 30
4127.000
 70
    32
  0
VERTEX
  8
1100LEVEL
 62
7
 10
893.038
 20
-2826.984
 30
4127.000
 70
    32
  0
VERTEX
  8
1100LEVEL
 62
7
 10
846.894
 20
-2759.572
 30
4127.000
 70
    32
  0
VERTEX
  8
1100LEVEL
 62
7
 10
796.249
 20
-2691.920
 30
4127.000
 70
    32
  0
VERTEX
  8
1100LEVEL
 62
7
 10
757.374
 20
-2614.102
 30
4127.000
 70
    32
  0
VERTEX
  8
1100LEVEL
 62
7
 10
705.975
 20
-2535.730
 30
4127.000
 70
    32
  0
VERTEX
  8
1100LEVEL
 62
7
 10
662.979
 20
-2466.062
 30
4127.000
 70
    32
  0
VERTEX
  8
1100LEVEL
 62
7
 10
598.065
 20
-2380.917
 30
4127.000
 70
    32
  0
VERTEX
  8
1100LEVEL
 62
7
 10
555.332
 20
-2321.889
 30
4127.000
 70
    32
  0
VERTEX
  8
1100LEVEL
 62
7
 10
560.276
 20
-2369.885
 30
4127.000
 70
    32
  0
VERTEX
  8
1100LEVEL
 62
7
 10
562.015
 20
-2409.783
 30
4127.000
 70
    32
  0
VERTEX
  8
1100LEVEL
 62
7
 10
517.216
 20
-2364.795
 30
4127.000
 70
    32
  0
VERTEX
  8
1100LEVEL
 62
7
 10
480.090
 20
-2306.945
 30
4127.000
 70
    32
  0
VERTEX
  8
1100LEVEL
 62
7
 10
447.281
 20
-2235.174
 30
4127.000
 70
    32
  0
VERTEX
  8
1100LEVEL
 62
7
 10
411.582
 20
-2173.270
 30
4127.000
 70
    32
  0
VERTEX
  8
1100LEVEL
 62
7
 10
372.568
 20
-2111.576
 30
4127.000
 70
    32
  0
VERTEX
  8
1100LEVEL
 62
7
 10
338.142
 20
-2052.658
 30
4127.000
 70
    32
  0
VERTEX
  8
1100LEVEL
 62
7
 10
302.017
 20
-2007.083
 30
4127.000
 70
    32
  0
VERTEX
  8
1100LEVEL
 62
7
 10
275.684
 20
-1967.918
 30
4127.000
 70
    32
  0
VERTEX
  8
1100LEVEL
 62
7
 10
278.620
 20
-2014.322
 30
4127.000
 70
    32
  0
VERTEX
  8
1100LEVEL
 62
7
 10
274.594
 20
-2057.053
 30
4127.000
 70
    32
  0
VERTEX
  8
1100LEVEL
 62
7
 10
236.780
 20
-2030.879
 30
4127.000
 70
    32
  0
VERTEX
  8
1100LEVEL
 62
7
 10
183.488
 20
-1971.621
 30
4127.000
 70
    32
  0
VERTEX
  8
1100LEVEL
 62
7
 10
136.891
 20
-1902.368
 30
4127.000
 70
    32
  0
VERTEX
  8
1100LEVEL
 62
7
 10
96.242
 20
-1841.413
 30
4127.000
 70
    32
  0
VERTEX
  8
1100LEVEL
 62
7
 10
52.349
 20
-1774.120
 30
4127.000
 70
    32
  0
VERTEX
  8
1100LEVEL
 62
7
 10
19.655
 20
-1697.069
 30
4127.000
 70
    32
  0
VERTEX
  8
1100LEVEL
 62
7
 10
-11.408
 20
-1616.251
 30
4127.000
 70
    32
  0
VERTEX
  8
1100LEVEL
 62
7
 10
-61.276
 20
-1522.489
 30
4127.000
 70
    32
  0
VERTEX
  8
1100LEVEL
 62
7
 10
-101.047
 20
-1447.046
 30
4127.000
 70
    32
  0
VERTEX
  8
1100LEVEL
 62
7
 10
-134.776
 20
-1362.508
 30
4127.000
 70
    32
  0
VERTEX
  8
1100LEVEL
 62
7
 10
-163.322
 20
-1295.478
 30
4127.000
 70
    32
  0
VERTEX
  8
1100LEVEL
 62
7
 10
-187.518
 20
-1209.738
 30
4127.000
 70
    32
  0
VERTEX
  8
1100LEVEL
 62
7
 10
-211.074
 20
-1114.012
 30
4127.000
 70
    32
  0
VERTEX
  8
1100LEVEL
 62
7
 10
-251.603
 20
-1024.820
 30
4127.000
 70
    32
  0
VERTEX
  8
1100LEVEL
 62
7
 10
-292.320
 20
-973.441
 30
4127.000
 70
    32
  0
VERTEX
  8
1100LEVEL
 62
7
 10
-339.756
 20
-890.930
 30
4127.000
 70
    32
  0
VERTEX
  8
1100LEVEL
 62
7
 10
-367.676
 20
-804.828
 30
4127.000
 70
    32
  0
VERTEX
  8
1100LEVEL
 62
7
 10
-405.048
 20
-719.436
 30
4127.000
 70
    32
  0
VERTEX
  8
1100LEVEL
 62
7
 10
-458.612
 20
-643.482
 30
4127.000
 70
    32
  0
VERTEX
  8
1100LEVEL
 62
7
 10
-510.884
 20
-582.627
 30
4127.000
 70
    32
  0
VERTEX
  8
1100LEVEL
 62
7
 10
-564.367
 20
-506.181
 30
4127.000
 70
    32
  0
VERTEX
  8
1100LEVEL
 62
7
 10
-590.714
 20
-431.945
 30
4127.000
 70
    32
  0
VERTEX
  8
1100LEVEL
 62
7
 10
-619.140
 20
-362.663
 30
4127.000
 70
    32
  0
VERTEX
  8
1100LEVEL
 62
7
 10
-641.564
 20
-338.021
 30
4127.000
 70
    32
  0
VERTEX
  8
1100LEVEL
 62
7
 10
-634.836
 20
-401.197
 30
4127.000
 70
    32
  0
VERTEX
  8
1100LEVEL
 62
7
 10
-624.828
 20
-468.952
 30
4127.000
 70
    32
  0
VERTEX
  8
1100LEVEL
 62
7
 10
-614.305
 20
-525.943
 30
4127.000
 70
    32
  0
VERTEX
  8
1100LEVEL
 62
7
 10
-619.934
 20
-564.625
 30
4127.000
 70
    32
  0
VERTEX
  8
1100LEVEL
 62
7
 10
-657.160
 20
-521.139
 30
4127.000
 70
    32
  0
VERTEX
  8
1100LEVEL
 62
7
 10
-685.690
 20
-437.207
 30
4127.000
 70
    32
  0
VERTEX
  8
1100LEVEL
 62
7
 10
-706.677
 20
-362.594
 30
4127.000
 70
    32
  0
VERTEX
  8
1100LEVEL
 62
7
 10
-725.169
 20
-286.626
 30
4127.000
 70
    32
  0
VERTEX
  8
1100LEVEL
 62
7
 10
-762.385
 20
-223.211
 30
4127.000
 70
    32
  0
VERTEX
  8
1100LEVEL
 62
7
 10
-814.165
 20
-162.437
 30
4127.000
 70
    32
  0
VERTEX
  8
1100LEVEL
 62
7
 10
-874.134
 20
-73.315
 30
4127.000
 70
    32
  0
VERTEX
  8
1100LEVEL
 62
7
 10
-929.563
 20
-8.659
 30
4127.000
 70
    32
  0
VERTEX
  8
1100LEVEL
 62
7
 10
-964.038
 20
57.922
 30
4127.000
 70
    32
  0
VERTEX
  8
1100LEVEL
 62
7
 10
-1007.448
 20
121.094
 30
4127.000
 70
    32
  0
VERTEX
  8
1100LEVEL
 62
7
 10
-1046.911
 20
188.214
 30
4127.000
 70
    32
  0
VERTEX
  8
1100LEVEL
 62
7
 10
-1078.482
 20
263.230
 30
4127.000
 70
    32
  0
VERTEX
  8
1100LEVEL
 62
7
 10
-1106.107
 20
354.039
 30
4127.000
 70
    32
  0
VERTEX
  8
1100LEVEL
 62
7
 10
-1114.000
 20
409.314
 30
4127.000
 70
    32
  0
VERTEX
  8
1100LEVEL
 62
7
 10
-1106.107
 20
464.589
 30
4127.000
 70
    32
  0
VERTEX
  8
1100LEVEL
 62
7
 10
-1114.000
 20
504.071
 30
4127.000
 70
    32
  0
VERTEX
  8
1100LEVEL
 62
7
 10
-1137.678
 20
539.606
 30
4127.000
 70
    32
  0
VERTEX
  8
1100LEVEL
 62
7
 10
-1153.463
 20
523.813
 30
4127.000
 70
    32
  0
VERTEX
  8
1100LEVEL
 62
7
 10
-1149.517
 20
508.020
 30
4127.000
 70
    32
  0
VERTEX
  8
1100LEVEL
 62
7
 10
-1145.571
 20
480.382
 30
4127.000
 70
    32
  0
VERTEX
  8
1100LEVEL
 62
7
 10
-1145.571
 20
429.055
 30
4127.000
 70
    32
  0
VERTEX
  8
1100LEVEL
 62
7
 10
-1177.142
 20
421.159
 30
4127.000
 70
    32
  0
VERTEX
  8
1100LEVEL
 62
7
 10
-1236.337
 20
484.330
 30
4127.000
 70
    32
  0
VERTEX
  8
1100LEVEL
 62
7
 10
-1256.069
 20
547.502
 30
4127.000
 70
    32
  0
VERTEX
  8
1100LEVEL
 62
7
 10
-1291.586
 20
602.777
 30
4127.000
 70
    32
  0
VERTEX
  8
1100LEVEL
 62
7
 10
-1315.265
 20
650.156
 30
4127.000
 70
    32
  0
VERTEX
  8
1100LEVEL
 62
7
 10
-1327.103
 20
689.638
 30
4127.000
 70
    32
  0
VERTEX
  8
1100LEVEL
 62
7
 10
-1346.835
 20
725.172
 30
4127.000
 70
    32
  0
VERTEX
  8
1100LEVEL
 62
7
 10
-1374.460
 20
764.654
 30
4127.000
 70
    32
  0
VERTEX
  8
1100LEVEL
 62
7
 10
-1382.353
 20
780.447
 30
4127.000
 70
    32
  0
VERTEX
  8
1100LEVEL
 62
7
 10
-1413.924
 20
804.136
 30
4127.000
 70
    32
  0
VERTEX
  8
1100LEVEL
 62
7
 10
-1417.870
 20
804.136
 30
4127.000
 70
    32
  0
VERTEX
  8
1100LEVEL
 62
7
 10
-1413.924
 20
776.499
 30
4127.000
 70
    32
  0
VERTEX
  8
1100LEVEL
 62
7
 10
-1398.138
 20
744.913
 30
4127.000
 70
    32
  0
VERTEX
  8
1100LEVEL
 62
7
 10
-1366.567
 20
697.535
 30
4127.000
 70
    32
  0
VERTEX
  8
1100LEVEL
 62
7
 10
-1319.211
 20
630.415
 30
4127.000
 70
    32
  0
VERTEX
  8
1100LEVEL
 62
7
 10
-1319.211
 20
630.415
 30
4127.000
 70
    32
  0
VERTEX
  8
1100LEVEL
 62
7
 10
-1319.211
 20
630.415
 30
4127.000
 70
    32
  0
VERTEX
  8
1100LEVEL
 62
7
 10
-1303.425
 20
559.347
 30
4127.000
 70
    32
  0
VERTEX
  8
1100LEVEL
 62
7
 10
-1252.123
 20
421.159
 30
4127.000
 70
    32
  0
VERTEX
  8
1100LEVEL
 62
7
 10
-1173.195
 20
286.919
 30
4127.000
 70
    32
  0
VERTEX
  8
1100LEVEL
 62
7
 10
-1090.321
 20
184.266
 30
4127.000
 70
    32
  0
VERTEX
  8
1100LEVEL
 62
7
 10
-1058.750
 20
113.198
 30
4127.000
 70
    32
  0
VERTEX
  8
1100LEVEL
 62
7
 10
-1007.448
 20
50.026
 30
4127.000
 70
    32
  0
VERTEX
  8
1100LEVEL
 62
7
 10
-961.291
 20
-0.645
 30
4127.000
 70
    32
  0
VERTEX
  8
1100LEVEL
 62
7
 10
-933.093
 20
-54.499
 30
4127.000
 70
    32
  0
VERTEX
  8
1100LEVEL
 62
7
 10
-898.081
 20
-122.092
 30
4127.000
 70
    32
  0
VERTEX
  8
1100LEVEL
 62
7
 10
-865.567
 20
-188.012
 30
4127.000
 70
    32
  0
VERTEX
  8
1100LEVEL
 62
7
 10
-821.900
 20
-268.892
 30
4127.000
 70
    32
  0
VERTEX
  8
1100LEVEL
 62
7
 10
-783.086
 20
-333.328
 30
4127.000
 70
    32
  0
VERTEX
  8
1100LEVEL
 62
7
 10
-748.741
 20
-392.738
 30
4127.000
 70
    32
  0
VERTEX
  8
1100LEVEL
 62
7
 10
-723.076
 20
-449.705
 30
4127.000
 70
    32
  0
VERTEX
  8
1100LEVEL
 62
7
 10
-713.048
 20
-503.587
 30
4127.000
 70
    32
  0
VERTEX
  8
1100LEVEL
 62
7
 10
-723.842
 20
-562.861
 30
4127.000
 70
    32
  0
VERTEX
  8
1100LEVEL
 62
7
 10
-726.693
 20
-518.995
 30
4127.000
 70
    32
  0
VERTEX
  8
1100LEVEL
 62
7
 10
-734.512
 20
-463.965
 30
4127.000
 70
    32
  0
VERTEX
  8
1100LEVEL
 62
7
 10
-748.022
 20
-434.234
 30
4127.000
 70
    32
  0
VERTEX
  8
1100LEVEL
 62
7
 10
-742.893
 20
-496.389
 30
4127.000
 70
    32
  0
VERTEX
  8
1100LEVEL
 62
7
 10
-732.851
 20
-559.356
 30
4127.000
 70
    32
  0
VERTEX
  8
1100LEVEL
 62
7
 10
-720.349
 20
-625.756
 30
4127.000
 70
    32
  0
VERTEX
  8
1100LEVEL
 62
7
 10
-734.752
 20
-653.402
 30
4127.000
 70
    32
  0
VERTEX
  8
1100LEVEL
 62
7
 10
-743.983
 20
-585.523
 30
4127.000
 70
    32
  0
VERTEX
  8
1100LEVEL
 62
7
 10
-760.423
 20
-486.431
 30
4127.000
 70
    32
  0
VERTEX
  8
1100LEVEL
 62
7
 10
-771.338
 20
-414.994
 30
4127.000
 70
    32
  0
VERTEX
  8
1100LEVEL
 62
7
 10
-816.742
 20
-349.218
 30
4127.000
 70
    32
  0
VERTEX
  8
1100LEVEL
 62
7
 10
-866.343
 20
-269.124
 30
4127.000
 70
    32
  0
VERTEX
  8
1100LEVEL
 62
7
 10
-925.257
 20
-173.617
 30
4127.000
 70
    32
  0
VERTEX
  8
1100LEVEL
 62
7
 10
-1019.287
 20
-88.162
 30
4127.000
 70
    32
  0
VERTEX
  8
1100LEVEL
 62
7
 10
-1114.000
 20
46.078
 30
4127.000
 70
    32
  0
VERTEX
  8
1100LEVEL
 62
7
 10
-1165.302
 20
81.612
 30
4127.000
 70
    32
  0
VERTEX
  8
1100LEVEL
 62
7
 10
-1212.659
 20
125.042
 30
4127.000
 70
    32
  0
VERTEX
  8
1100LEVEL
 62
7
 10
-1240.283
 20
156.628
 30
4127.000
 70
    32
  0
VERTEX
  8
1100LEVEL
 62
7
 10
-1311.318
 20
243.489
 30
4127.000
 70
    32
  0
VERTEX
  8
1100LEVEL
 62
7
 10
-1374.460
 20
342.195
 30
4127.000
 70
    32
  0
VERTEX
  8
1100LEVEL
 62
7
 10
-1417.870
 20
425.107
 30
4127.000
 70
    32
  0
VERTEX
  8
1100LEVEL
 62
7
 10
-1473.119
 20
508.020
 30
4127.000
 70
    32
  0
VERTEX
  8
1100LEVEL
 62
7
 10
-1528.368
 20
590.932
 30
4127.000
 70
    32
  0
VERTEX
  8
1100LEVEL
 62
7
 10
-1579.671
 20
669.897
 30
4127.000
 70
    32
  0
VERTEX
  8
1100LEVEL
 62
7
 10
-1623.081
 20
737.017
 30
4127.000
 70
    32
  0
VERTEX
  8
1100LEVEL
 62
7
 10
-1658.598
 20
784.395
 30
4127.000
 70
    32
  0
VERTEX
  8
1100LEVEL
 62
7
 10
-1682.277
 20
839.670
 30
4127.000
 70
    32
  0
VERTEX
  8
1100LEVEL
 62
7
 10
-1690.169
 20
879.152
 30
4127.000
 70
    32
  0
VERTEX
  8
1100LEVEL
 62
7
 10
-1709.901
 20
914.687
 30
4127.000
 70
    32
  0
VERTEX
  8
1100LEVEL
 62
7
 10
-1737.526
 20
954.169
 30
4127.000
 70
    32
  0
VERTEX
  8
1100LEVEL
 62
7
 10
-1753.311
 20
981.806
 30
4127.000
 70
    32
  0
VERTEX
  8
1100LEVEL
 62
7
 10
-1769.234
 20
1054.275
 30
4127.000
 70
    32
  0
VERTEX
  8
1100LEVEL
 62
7
 10
-1790.382
 20
1067.879
 30
4127.000
 70
    32
  0
VERTEX
  8
1100LEVEL
 62
7
 10
-1803.977
 20
1076.948
 30
4127.000
 70
    32
  0
VERTEX
  8
1100LEVEL
 62
7
 10
-1814.551
 20
1076.948
 30
4127.000
 70
    32
  0
VERTEX
  8
1100LEVEL
 62
7
 10
-1822.104
 20
1078.459
 30
4127.000
 70
    32
  0
VERTEX
  8
1100LEVEL
 62
7
 10
-1831.167
 20
1079.971
 30
4127.000
 70
    32
  0
VERTEX
  8
1100LEVEL
 62
7
 10
-1834.188
 20
1079.971
 30
4127.000
 70
    32
  0
VERTEX
  8
1100LEVEL
 62
7
 10
-1832.678
 20
1075.436
 30
4127.000
 70
    32
  0
VERTEX
  8
1100LEVEL
 62
7
 10
-1816.061
 20
1063.345
 30
4127.000
 70
    32
  0
VERTEX
  8
1100LEVEL
 62
7
 10
-1805.488
 20
1051.252
 30
4127.000
 70
    32
  0
VERTEX
  8
1100LEVEL
 62
7
 10
-1790.382
 20
1040.672
 30
4127.000
 70
    32
  0
VERTEX
  8
1100LEVEL
 62
7
 10
-1784.882
 20
1001.548
 30
4127.000
 70
    32
  0
VERTEX
  8
1100LEVEL
 62
7
 10
-1796.721
 20
1005.496
 30
4127.000
 70
    32
  0
VERTEX
  8
1100LEVEL
 62
7
 10
-1817.572
 20
1014.976
 30
4127.000
 70
    32
  0
VERTEX
  8
1100LEVEL
 62
7
 10
-1826.636
 20
1008.931
 30
4127.000
 70
    32
  0
VERTEX
  8
1100LEVEL
 62
7
 10
-1792.775
 20
973.910
 30
4127.000
 70
    32
  0
VERTEX
  8
1100LEVEL
 62
7
 10
-1765.150
 20
934.428
 30
4127.000
 70
    32
  0
VERTEX
  8
1100LEVEL
 62
7
 10
-1745.419
 20
914.687
 30
4127.000
 70
    32
  0
VERTEX
  8
1100LEVEL
 62
7
 10
-1723.917
 20
891.034
 30
4127.000
 70
    32
  0
VERTEX
  8
1100LEVEL
 62
7
 10
-1705.791
 20
848.711
 30
4127.000
 70
    32
  0
VERTEX
  8
1100LEVEL
 62
7
 10
-1670.437
 20
776.499
 30
4127.000
 70
    32
  0
VERTEX
  8
1100LEVEL
 62
7
 10
-1595.456
 20
654.104
 30
4127.000
 70
    32
  0
VERTEX
  8
1100LEVEL
 62
7
 10
-1457.334
 20
405.366
 30
4127.000
 70
    32
  0
VERTEX
  8
1100LEVEL
 62
7
 10
-1354.728
 20
211.903
 30
4127.000
 70
    32
  0
VERTEX
  8
1100LEVEL
 62
7
 10
-1267.908
 20
109.249
 30
4127.000
 70
    32
  0
VERTEX
  8
1100LEVEL
 62
7
 10
-1185.034
 20
26.337
 30
4127.000
 70
    32
  0
VERTEX
  8
1100LEVEL
 62
7
 10
-1011.394
 20
-163.178
 30
4127.000
 70
    32
  0
VERTEX
  8
1100LEVEL
 62
7
 10
-974.837
 20
-212.612
 30
4127.000
 70
    32
  0
VERTEX
  8
1100LEVEL
 62
7
 10
-933.721
 20
-284.493
 30
4127.000
 70
    32
  0
VERTEX
  8
1100LEVEL
 62
7
 10
-887.139
 20
-370.648
 30
4127.000
 70
    32
  0
VERTEX
  8
1100LEVEL
 62
7
 10
-847.286
 20
-445.600
 30
4127.000
 70
    32
  0
VERTEX
  8
1100LEVEL
 62
7
 10
-819.328
 20
-529.942
 30
4127.000
 70
    32
  0
VERTEX
  8
1100LEVEL
 62
7
 10
-810.369
 20
-607.111
 30
4127.000
 70
    32
  0
SEQEND
  8
1100LEVEL
  0
ENDSEC
  0
EOF
