999
********************************
999
*   DXF File - Entities Only   *
999
*        3D Data Format        *
999
*     Output from ENVISAGE     *
999
*     28-Dec-2007 13:44:24     *
999
********************************
  0
SECTION 
  2
HEADER
  9
$ACADVER
  1
AC1009
  9
$EXTMIN
 10
-290000.000
 20
-250000.000
 30
-4000.000
  9
$EXTMAX
 10
5000000.000
 20
600000.000
 30
6000.000
  0
ENDSEC
  0
SECTION
  2
ENTITIES
  0
POLYLINE
  8
1250LEVEL
 62
5
 66
     1
 70
     9
  0
VERTEX
  8
1250LEVEL
 62
5
 10
1498.663
 20
-2722.006
 30
3977.000
 70
    32
  0
VERTEX
  8
1250LEVEL
 62
5
 10
1489.614
 20
-2662.596
 30
3977.000
 70
    32
  0
VERTEX
  8
1250LEVEL
 62
5
 10
1461.367
 20
-2583.204
 30
3977.000
 70
    32
  0
VERTEX
  8
1250LEVEL
 62
5
 10
1453.793
 20
-2589.539
 30
3977.000
 70
    32
  0
VERTEX
  8
1250LEVEL
 62
5
 10
1479.633
 20
-2661.992
 30
3977.000
 70
    32
  0
VERTEX
  8
1250LEVEL
 62
5
 10
1486.354
 20
-2721.782
 30
3977.000
 70
    32
  0
SEQEND
  8
1250LEVEL
  0
POLYLINE
  8
1250LEVEL
 62
5
 66
     1
 70
     9
  0
VERTEX
  8
1250LEVEL
 62
5
 10
1235.498
 20
-838.235
 30
3977.000
 70
    32
  0
VERTEX
  8
1250LEVEL
 62
5
 10
1240.172
 20
-913.820
 30
3977.000
 70
    32
  0
VERTEX
  8
1250LEVEL
 62
5
 10
1230.450
 20
-964.656
 30
3977.000
 70
    32
  0
VERTEX
  8
1250LEVEL
 62
5
 10
1223.148
 20
-959.949
 30
3977.000
 70
    32
  0
VERTEX
  8
1250LEVEL
 62
5
 10
1227.641
 20
-910.284
 30
3977.000
 70
    32
  0
VERTEX
  8
1250LEVEL
 62
5
 10
1220.998
 20
-857.813
 30
3977.000
 70
    32
  0
SEQEND
  8
1250LEVEL
  0
POLYLINE
  8
1250LEVEL
 62
5
 66
     1
 70
     9
  0
VERTEX
  8
1250LEVEL
 62
5
 10
1499.642
 20
-1892.232
 30
3977.000
 70
    32
  0
VERTEX
  8
1250LEVEL
 62
5
 10
1489.962
 20
-1894.448
 30
3977.000
 70
    32
  0
VERTEX
  8
1250LEVEL
 62
5
 10
1495.280
 20
-1919.243
 30
3977.000
 70
    32
  0
VERTEX
  8
1250LEVEL
 62
5
 10
1508.550
 20
-1947.841
 30
3977.000
 70
    32
  0
VERTEX
  8
1250LEVEL
 62
5
 10
1512.941
 20
-1934.693
 30
3977.000
 70
    32
  0
SEQEND
  8
1250LEVEL
  0
POLYLINE
  8
1250LEVEL
 62
5
 66
     1
 70
     9
  0
VERTEX
  8
1250LEVEL
 62
5
 10
1267.873
 20
-2868.659
 30
3977.000
 70
    32
  0
VERTEX
  8
1250LEVEL
 62
5
 10
1150.174
 20
-2670.764
 30
3977.000
 70
    32
  0
VERTEX
  8
1250LEVEL
 62
5
 10
1122.717
 20
-2602.082
 30
3977.000
 70
    32
  0
VERTEX
  8
1250LEVEL
 62
5
 10
1104.057
 20
-2591.257
 30
3977.000
 70
    32
  0
VERTEX
  8
1250LEVEL
 62
5
 10
1180.290
 20
-2747.938
 30
3977.000
 70
    32
  0
VERTEX
  8
1250LEVEL
 62
5
 10
1222.954
 20
-2823.863
 30
3977.000
 70
    32
  0
VERTEX
  8
1250LEVEL
 62
5
 10
1265.970
 20
-2880.445
 30
3977.000
 70
    32
  0
SEQEND
  8
1250LEVEL
  0
POLYLINE
  8
1250LEVEL
 62
5
 66
     1
 70
     9
  0
VERTEX
  8
1250LEVEL
 62
5
 10
1301.081
 20
-2706.725
 30
3977.000
 70
    32
  0
VERTEX
  8
1250LEVEL
 62
5
 10
1284.044
 20
-2660.890
 30
3977.000
 70
    32
  0
VERTEX
  8
1250LEVEL
 62
5
 10
1290.562
 20
-2704.775
 30
3977.000
 70
    32
  0
SEQEND
  8
1250LEVEL
  0
POLYLINE
  8
1250LEVEL
 62
5
 66
     1
 70
     9
  0
VERTEX
  8
1250LEVEL
 62
5
 10
1905.413
 20
-4730.756
 30
3977.000
 70
    32
  0
VERTEX
  8
1250LEVEL
 62
5
 10
1852.579
 20
-4575.839
 30
3977.000
 70
    32
  0
VERTEX
  8
1250LEVEL
 62
5
 10
1702.756
 20
-4047.989
 30
3977.000
 70
    32
  0
VERTEX
  8
1250LEVEL
 62
5
 10
1468.430
 20
-3133.853
 30
3977.000
 70
    32
  0
VERTEX
  8
1250LEVEL
 62
5
 10
1395.111
 20
-2906.089
 30
3977.000
 70
    32
  0
VERTEX
  8
1250LEVEL
 62
5
 10
1351.678
 20
-2799.049
 30
3977.000
 70
    32
  0
VERTEX
  8
1250LEVEL
 62
5
 10
1342.546
 20
-2755.750
 30
3977.000
 70
    32
  0
VERTEX
  8
1250LEVEL
 62
5
 10
1364.552
 20
-2748.974
 30
3977.000
 70
    32
  0
VERTEX
  8
1250LEVEL
 62
5
 10
1380.721
 20
-2776.781
 30
3977.000
 70
    32
  0
VERTEX
  8
1250LEVEL
 62
5
 10
1457.777
 20
-3015.731
 30
3977.000
 70
    32
  0
VERTEX
  8
1250LEVEL
 62
5
 10
1502.357
 20
-3171.834
 30
3977.000
 70
    32
  0
VERTEX
  8
1250LEVEL
 62
5
 10
1546.576
 20
-3386.333
 30
3977.000
 70
    32
  0
VERTEX
  8
1250LEVEL
 62
5
 10
1646.424
 20
-3725.966
 30
3977.000
 70
    32
  0
VERTEX
  8
1250LEVEL
 62
5
 10
1699.130
 20
-3961.235
 30
3977.000
 70
    32
  0
VERTEX
  8
1250LEVEL
 62
5
 10
1921.891
 20
-4722.331
 30
3977.000
 70
    32
  0
SEQEND
  8
1250LEVEL
  0
POLYLINE
  8
1250LEVEL
 62
5
 66
     1
 70
     9
  0
VERTEX
  8
1250LEVEL
 62
5
 10
2297.786
 20
-5011.056
 30
3977.000
 70
    32
  0
VERTEX
  8
1250LEVEL
 62
5
 10
2132.435
 20
-4647.995
 30
3977.000
 70
    32
  0
VERTEX
  8
1250LEVEL
 62
5
 10
2082.106
 20
-4560.249
 30
3977.000
 70
    32
  0
VERTEX
  8
1250LEVEL
 62
5
 10
2141.655
 20
-4725.070
 30
3977.000
 70
    32
  0
VERTEX
  8
1250LEVEL
 62
5
 10
2266.088
 20
-5001.401
 30
3977.000
 70
    32
  0
SEQEND
  8
1250LEVEL
  0
POLYLINE
  8
1250LEVEL
 62
5
 66
     1
 70
     9
  0
VERTEX
  8
1250LEVEL
 62
5
 10
2132.316
 20
-4225.955
 30
3977.000
 70
    32
  0
VERTEX
  8
1250LEVEL
 62
5
 10
2154.093
 20
-4336.048
 30
3977.000
 70
    32
  0
VERTEX
  8
1250LEVEL
 62
5
 10
2121.131
 20
-4229.691
 30
3977.000
 70
    32
  0
SEQEND
  8
1250LEVEL
  0
POLYLINE
  8
1250LEVEL
 62
5
 66
     1
 70
     9
  0
VERTEX
  8
1250LEVEL
 62
5
 10
1347.583
 20
-2529.554
 30
3977.000
 70
    32
  0
VERTEX
  8
1250LEVEL
 62
5
 10
1331.484
 20
-2466.989
 30
3977.000
 70
    32
  0
VERTEX
  8
1250LEVEL
 62
5
 10
1307.268
 20
-2432.844
 30
3977.000
 70
    32
  0
VERTEX
  8
1250LEVEL
 62
5
 10
1299.338
 20
-2400.825
 30
3977.000
 70
    32
  0
VERTEX
  8
1250LEVEL
 62
5
 10
1323.548
 20
-2385.083
 30
3977.000
 70
    32
  0
VERTEX
  8
1250LEVEL
 62
5
 10
1322.543
 20
-2339.821
 30
3977.000
 70
    32
  0
VERTEX
  8
1250LEVEL
 62
5
 10
1329.071
 20
-2336.844
 30
3977.000
 70
    32
  0
VERTEX
  8
1250LEVEL
 62
5
 10
1339.673
 20
-2396.002
 30
3977.000
 70
    32
  0
VERTEX
  8
1250LEVEL
 62
5
 10
1348.358
 20
-2382.791
 30
3977.000
 70
    32
  0
VERTEX
  8
1250LEVEL
 62
5
 10
1377.422
 20
-2413.436
 30
3977.000
 70
    32
  0
VERTEX
  8
1250LEVEL
 62
5
 10
1391.959
 20
-2441.987
 30
3977.000
 70
    32
  0
VERTEX
  8
1250LEVEL
 62
5
 10
1391.968
 20
-2476.254
 30
3977.000
 70
    32
  0
SEQEND
  8
1250LEVEL
  0
POLYLINE
  8
1250LEVEL
 62
5
 66
     1
 70
     8
  0
VERTEX
  8
1250LEVEL
 62
5
 10
1227.878
 20
-1916.621
 30
3977.000
 70
    32
  0
VERTEX
  8
1250LEVEL
 62
5
 10
1235.588
 20
-1937.519
 30
3977.000
 70
    32
  0
VERTEX
  8
1250LEVEL
 62
5
 10
1270.549
 20
-1953.495
 30
3977.000
 70
    32
  0
VERTEX
  8
1250LEVEL
 62
5
 10
1287.217
 20
-2023.458
 30
3977.000
 70
    32
  0
VERTEX
  8
1250LEVEL
 62
5
 10
1295.081
 20
-2066.805
 30
3977.000
 70
    32
  0
VERTEX
  8
1250LEVEL
 62
5
 10
1287.262
 20
-2113.665
 30
3977.000
 70
    32
  0
VERTEX
  8
1250LEVEL
 62
5
 10
1302.175
 20
-2160.165
 30
3977.000
 70
    32
  0
VERTEX
  8
1250LEVEL
 62
5
 10
1287.264
 20
-2179.173
 30
3977.000
 70
    32
  0
VERTEX
  8
1250LEVEL
 62
5
 10
1269.182
 20
-2055.567
 30
3977.000
 70
    32
  0
VERTEX
  8
1250LEVEL
 62
5
 10
1216.091
 20
-1914.718
 30
3977.000
 70
    32
  0
SEQEND
  8
1250LEVEL
  0
POLYLINE
  8
1250LEVEL
 62
5
 66
     1
 70
     8
  0
VERTEX
  8
1250LEVEL
 62
5
 10
975.604
 20
-995.052
 30
3977.000
 70
    32
  0
VERTEX
  8
1250LEVEL
 62
5
 10
992.759
 20
-1080.715
 30
3977.000
 70
    32
  0
VERTEX
  8
1250LEVEL
 62
5
 10
979.734
 20
-1092.721
 30
3977.000
 70
    32
  0
VERTEX
  8
1250LEVEL
 62
5
 10
981.676
 20
-1129.064
 30
3977.000
 70
    32
  0
VERTEX
  8
1250LEVEL
 62
5
 10
1009.187
 20
-1159.962
 30
3977.000
 70
    32
  0
VERTEX
  8
1250LEVEL
 62
5
 10
1107.234
 20
-1474.864
 30
3977.000
 70
    32
  0
VERTEX
  8
1250LEVEL
 62
5
 10
1068.084
 20
-1414.624
 30
3977.000
 70
    32
  0
VERTEX
  8
1250LEVEL
 62
5
 10
1064.762
 20
-1469.517
 30
3977.000
 70
    32
  0
VERTEX
  8
1250LEVEL
 62
5
 10
1139.800
 20
-1656.995
 30
3977.000
 70
    32
  0
VERTEX
  8
1250LEVEL
 62
5
 10
1157.237
 20
-1684.754
 30
3977.000
 70
    32
  0
VERTEX
  8
1250LEVEL
 62
5
 10
1155.361
 20
-1637.084
 30
3977.000
 70
    32
  0
VERTEX
  8
1250LEVEL
 62
5
 10
1170.165
 20
-1678.024
 30
3977.000
 70
    32
  0
VERTEX
  8
1250LEVEL
 62
5
 10
1186.472
 20
-1887.510
 30
3977.000
 70
    32
  0
VERTEX
  8
1250LEVEL
 62
5
 10
1218.456
 20
-1970.277
 30
3977.000
 70
    32
  0
VERTEX
  8
1250LEVEL
 62
5
 10
1190.153
 20
-1936.480
 30
3977.000
 70
    32
  0
VERTEX
  8
1250LEVEL
 62
5
 10
1184.162
 20
-1948.614
 30
3977.000
 70
    32
  0
VERTEX
  8
1250LEVEL
 62
5
 10
1215.146
 20
-2117.135
 30
3977.000
 70
    32
  0
VERTEX
  8
1250LEVEL
 62
5
 10
1213.468
 20
-2189.930
 30
3977.000
 70
    32
  0
VERTEX
  8
1250LEVEL
 62
5
 10
1219.576
 20
-2225.434
 30
3977.000
 70
    32
  0
VERTEX
  8
1250LEVEL
 62
5
 10
1231.047
 20
-2221.492
 30
3977.000
 70
    32
  0
VERTEX
  8
1250LEVEL
 62
5
 10
1235.716
 20
-2166.060
 30
3977.000
 70
    32
  0
VERTEX
  8
1250LEVEL
 62
5
 10
1213.755
 20
-2027.467
 30
3977.000
 70
    32
  0
VERTEX
  8
1250LEVEL
 62
5
 10
1223.607
 20
-2035.105
 30
3977.000
 70
    32
  0
VERTEX
  8
1250LEVEL
 62
5
 10
1249.921
 20
-2266.868
 30
3977.000
 70
    32
  0
VERTEX
  8
1250LEVEL
 62
5
 10
1269.183
 20
-2356.651
 30
3977.000
 70
    32
  0
VERTEX
  8
1250LEVEL
 62
5
 10
1291.490
 20
-2426.013
 30
3977.000
 70
    32
  0
VERTEX
  8
1250LEVEL
 62
5
 10
1325.237
 20
-2493.191
 30
3977.000
 70
    32
  0
VERTEX
  8
1250LEVEL
 62
5
 10
1317.375
 20
-2588.672
 30
3977.000
 70
    32
  0
VERTEX
  8
1250LEVEL
 62
5
 10
1361.663
 20
-2702.904
 30
3977.000
 70
    32
  0
VERTEX
  8
1250LEVEL
 62
5
 10
1397.279
 20
-2767.865
 30
3977.000
 70
    32
  0
VERTEX
  8
1250LEVEL
 62
5
 10
1376.986
 20
-2684.467
 30
3977.000
 70
    32
  0
VERTEX
  8
1250LEVEL
 62
5
 10
1390.613
 20
-2670.291
 30
3977.000
 70
    32
  0
VERTEX
  8
1250LEVEL
 62
5
 10
1370.297
 20
-2622.918
 30
3977.000
 70
    32
  0
VERTEX
  8
1250LEVEL
 62
5
 10
1357.639
 20
-2545.288
 30
3977.000
 70
    32
  0
VERTEX
  8
1250LEVEL
 62
5
 10
1379.199
 20
-2555.320
 30
3977.000
 70
    32
  0
VERTEX
  8
1250LEVEL
 62
5
 10
1402.005
 20
-2585.711
 30
3977.000
 70
    32
  0
VERTEX
  8
1250LEVEL
 62
5
 10
1422.510
 20
-2638.153
 30
3977.000
 70
    32
  0
VERTEX
  8
1250LEVEL
 62
5
 10
1439.686
 20
-2703.411
 30
3977.000
 70
    32
  0
VERTEX
  8
1250LEVEL
 62
5
 10
1422.260
 20
-2702.108
 30
3977.000
 70
    32
  0
VERTEX
  8
1250LEVEL
 62
5
 10
1418.614
 20
-2790.207
 30
3977.000
 70
    32
  0
VERTEX
  8
1250LEVEL
 62
5
 10
1425.164
 20
-2832.333
 30
3977.000
 70
    32
  0
VERTEX
  8
1250LEVEL
 62
5
 10
1619.799
 20
-3464.926
 30
3977.000
 70
    32
  0
VERTEX
  8
1250LEVEL
 62
5
 10
1706.453
 20
-3791.090
 30
3977.000
 70
    32
  0
VERTEX
  8
1250LEVEL
 62
5
 10
1730.206
 20
-3839.018
 30
3977.000
 70
    32
  0
VERTEX
  8
1250LEVEL
 62
5
 10
1764.952
 20
-3974.889
 30
3977.000
 70
    32
  0
VERTEX
  8
1250LEVEL
 62
5
 10
1805.900
 20
-4075.480
 30
3977.000
 70
    32
  0
VERTEX
  8
1250LEVEL
 62
5
 10
1830.895
 20
-4175.007
 30
3977.000
 70
    32
  0
VERTEX
  8
1250LEVEL
 62
5
 10
1865.367
 20
-4256.412
 30
3977.000
 70
    32
  0
VERTEX
  8
1250LEVEL
 62
5
 10
1889.303
 20
-4340.651
 30
3977.000
 70
    32
  0
VERTEX
  8
1250LEVEL
 62
5
 10
1977.525
 20
-4515.141
 30
3977.000
 70
    32
  0
VERTEX
  8
1250LEVEL
 62
5
 10
2010.643
 20
-4555.007
 30
3977.000
 70
    32
  0
VERTEX
  8
1250LEVEL
 62
5
 10
2025.551
 20
-4551.620
 30
3977.000
 70
    32
  0
VERTEX
  8
1250LEVEL
 62
5
 10
2013.044
 20
-4512.059
 30
3977.000
 70
    32
  0
VERTEX
  8
1250LEVEL
 62
5
 10
1939.643
 20
-4373.724
 30
3977.000
 70
    32
  0
VERTEX
  8
1250LEVEL
 62
5
 10
1975.468
 20
-4423.350
 30
3977.000
 70
    32
  0
VERTEX
  8
1250LEVEL
 62
5
 10
1993.890
 20
-4435.647
 30
3977.000
 70
    32
  0
VERTEX
  8
1250LEVEL
 62
5
 10
2009.448
 20
-4431.357
 30
3977.000
 70
    32
  0
VERTEX
  8
1250LEVEL
 62
5
 10
1963.887
 20
-4348.413
 30
3977.000
 70
    32
  0
VERTEX
  8
1250LEVEL
 62
5
 10
1920.743
 20
-4298.865
 30
3977.000
 70
    32
  0
VERTEX
  8
1250LEVEL
 62
5
 10
1851.681
 20
-4169.546
 30
3977.000
 70
    32
  0
VERTEX
  8
1250LEVEL
 62
5
 10
1815.667
 20
-4033.722
 30
3977.000
 70
    32
  0
VERTEX
  8
1250LEVEL
 62
5
 10
1744.813
 20
-3840.621
 30
3977.000
 70
    32
  0
VERTEX
  8
1250LEVEL
 62
5
 10
1706.817
 20
-3717.075
 30
3977.000
 70
    32
  0
VERTEX
  8
1250LEVEL
 62
5
 10
1680.607
 20
-3595.432
 30
3977.000
 70
    32
  0
VERTEX
  8
1250LEVEL
 62
5
 10
1617.277
 20
-3402.538
 30
3977.000
 70
    32
  0
VERTEX
  8
1250LEVEL
 62
5
 10
1474.917
 20
-2870.603
 30
3977.000
 70
    32
  0
VERTEX
  8
1250LEVEL
 62
5
 10
1455.216
 20
-2758.577
 30
3977.000
 70
    32
  0
VERTEX
  8
1250LEVEL
 62
5
 10
1453.560
 20
-2722.029
 30
3977.000
 70
    32
  0
VERTEX
  8
1250LEVEL
 62
5
 10
1468.927
 20
-2720.479
 30
3977.000
 70
    32
  0
VERTEX
  8
1250LEVEL
 62
5
 10
1459.466
 20
-2660.498
 30
3977.000
 70
    32
  0
VERTEX
  8
1250LEVEL
 62
5
 10
1430.145
 20
-2570.603
 30
3977.000
 70
    32
  0
VERTEX
  8
1250LEVEL
 62
5
 10
1405.216
 20
-2533.067
 30
3977.000
 70
    32
  0
VERTEX
  8
1250LEVEL
 62
5
 10
1385.733
 20
-2521.102
 30
3977.000
 70
    32
  0
VERTEX
  8
1250LEVEL
 62
5
 10
1408.868
 20
-2494.856
 30
3977.000
 70
    32
  0
VERTEX
  8
1250LEVEL
 62
5
 10
1416.163
 20
-2457.486
 30
3977.000
 70
    32
  0
VERTEX
  8
1250LEVEL
 62
5
 10
1437.702
 20
-2487.923
 30
3977.000
 70
    32
  0
VERTEX
  8
1250LEVEL
 62
5
 10
1440.437
 20
-2519.355
 30
3977.000
 70
    32
  0
VERTEX
  8
1250LEVEL
 62
5
 10
1466.519
 20
-2566.903
 30
3977.000
 70
    32
  0
VERTEX
  8
1250LEVEL
 62
5
 10
1505.675
 20
-2677.031
 30
3977.000
 70
    32
  0
VERTEX
  8
1250LEVEL
 62
5
 10
1528.325
 20
-2773.912
 30
3977.000
 70
    32
  0
VERTEX
  8
1250LEVEL
 62
5
 10
1510.992
 20
-2782.954
 30
3977.000
 70
    32
  0
VERTEX
  8
1250LEVEL
 62
5
 10
1493.412
 20
-2759.203
 30
3977.000
 70
    32
  0
VERTEX
  8
1250LEVEL
 62
5
 10
1490.902
 20
-2788.780
 30
3977.000
 70
    32
  0
VERTEX
  8
1250LEVEL
 62
5
 10
1530.211
 20
-2848.039
 30
3977.000
 70
    32
  0
VERTEX
  8
1250LEVEL
 62
5
 10
1544.760
 20
-2895.236
 30
3977.000
 70
    32
  0
VERTEX
  8
1250LEVEL
 62
5
 10
1540.683
 20
-2922.040
 30
3977.000
 70
    32
  0
VERTEX
  8
1250LEVEL
 62
5
 10
1549.657
 20
-2966.321
 30
3977.000
 70
    32
  0
VERTEX
  8
1250LEVEL
 62
5
 10
1608.386
 20
-3187.699
 30
3977.000
 70
    32
  0
VERTEX
  8
1250LEVEL
 62
5
 10
1669.405
 20
-3368.377
 30
3977.000
 70
    32
  0
VERTEX
  8
1250LEVEL
 62
5
 10
1715.282
 20
-3457.167
 30
3977.000
 70
    32
  0
VERTEX
  8
1250LEVEL
 62
5
 10
1758.077
 20
-3591.566
 30
3977.000
 70
    32
  0
VERTEX
  8
1250LEVEL
 62
5
 10
1880.698
 20
-3890.030
 30
3977.000
 70
    32
  0
VERTEX
  8
1250LEVEL
 62
5
 10
1928.068
 20
-4039.781
 30
3977.000
 70
    32
  0
VERTEX
  8
1250LEVEL
 62
5
 10
2045.650
 20
-4344.485
 30
3977.000
 70
    32
  0
VERTEX
  8
1250LEVEL
 62
5
 10
2059.871
 20
-4448.319
 30
3977.000
 70
    32
  0
VERTEX
  8
1250LEVEL
 62
5
 10
2064.319
 20
-4389.576
 30
3977.000
 70
    32
  0
VERTEX
  8
1250LEVEL
 62
5
 10
2027.583
 20
-4223.905
 30
3977.000
 70
    32
  0
VERTEX
  8
1250LEVEL
 62
5
 10
1869.851
 20
-3790.268
 30
3977.000
 70
    32
  0
VERTEX
  8
1250LEVEL
 62
5
 10
1707.481
 20
-3182.539
 30
3977.000
 70
    32
  0
VERTEX
  8
1250LEVEL
 62
5
 10
1661.931
 20
-3044.923
 30
3977.000
 70
    32
  0
VERTEX
  8
1250LEVEL
 62
5
 10
1547.400
 20
-2769.686
 30
3977.000
 70
    32
  0
VERTEX
  8
1250LEVEL
 62
5
 10
1554.596
 20
-2753.211
 30
3977.000
 70
    32
  0
VERTEX
  8
1250LEVEL
 62
5
 10
1541.218
 20
-2711.242
 30
3977.000
 70
    32
  0
VERTEX
  8
1250LEVEL
 62
5
 10
1560.831
 20
-2708.363
 30
3977.000
 70
    32
  0
VERTEX
  8
1250LEVEL
 62
5
 10
1597.185
 20
-2806.197
 30
3977.000
 70
    32
  0
VERTEX
  8
1250LEVEL
 62
5
 10
1612.362
 20
-2807.388
 30
3977.000
 70
    32
  0
VERTEX
  8
1250LEVEL
 62
5
 10
1625.426
 20
-2835.701
 30
3977.000
 70
    32
  0
VERTEX
  8
1250LEVEL
 62
5
 10
1685.312
 20
-2904.834
 30
3977.000
 70
    32
  0
VERTEX
  8
1250LEVEL
 62
5
 10
1692.934
 20
-2891.955
 30
3977.000
 70
    32
  0
VERTEX
  8
1250LEVEL
 62
5
 10
1641.191
 20
-2823.886
 30
3977.000
 70
    32
  0
VERTEX
  8
1250LEVEL
 62
5
 10
1585.836
 20
-2679.899
 30
3977.000
 70
    32
  0
VERTEX
  8
1250LEVEL
 62
5
 10
1554.017
 20
-2564.909
 30
3977.000
 70
    32
  0
VERTEX
  8
1250LEVEL
 62
5
 10
1518.846
 20
-2490.950
 30
3977.000
 70
    32
  0
VERTEX
  8
1250LEVEL
 62
5
 10
1461.895
 20
-2403.647
 30
3977.000
 70
    32
  0
VERTEX
  8
1250LEVEL
 62
5
 10
1421.074
 20
-2230.514
 30
3977.000
 70
    32
  0
VERTEX
  8
1250LEVEL
 62
5
 10
1442.418
 20
-2205.994
 30
3977.000
 70
    32
  0
VERTEX
  8
1250LEVEL
 62
5
 10
1433.588
 20
-2157.705
 30
3977.000
 70
    32
  0
VERTEX
  8
1250LEVEL
 62
5
 10
1422.841
 20
-2110.366
 30
3977.000
 70
    32
  0
VERTEX
  8
1250LEVEL
 62
5
 10
1396.232
 20
-2080.117
 30
3977.000
 70
    32
  0
VERTEX
  8
1250LEVEL
 62
5
 10
1382.538
 20
-2032.302
 30
3977.000
 70
    32
  0
VERTEX
  8
1250LEVEL
 62
5
 10
1355.481
 20
-1872.226
 30
3977.000
 70
    32
  0
VERTEX
  8
1250LEVEL
 62
5
 10
1376.576
 20
-1903.851
 30
3977.000
 70
    32
  0
VERTEX
  8
1250LEVEL
 62
5
 10
1354.498
 20
-1798.749
 30
3977.000
 70
    32
  0
VERTEX
  8
1250LEVEL
 62
5
 10
1365.130
 20
-1790.640
 30
3977.000
 70
    32
  0
VERTEX
  8
1250LEVEL
 62
5
 10
1378.854
 20
-1844.506
 30
3977.000
 70
    32
  0
VERTEX
  8
1250LEVEL
 62
5
 10
1383.938
 20
-1774.025
 30
3977.000
 70
    32
  0
VERTEX
  8
1250LEVEL
 62
5
 10
1323.554
 20
-1508.289
 30
3977.000
 70
    32
  0
VERTEX
  8
1250LEVEL
 62
5
 10
1305.785
 20
-1479.468
 30
3977.000
 70
    32
  0
VERTEX
  8
1250LEVEL
 62
5
 10
1310.653
 20
-1536.691
 30
3977.000
 70
    32
  0
VERTEX
  8
1250LEVEL
 62
5
 10
1341.134
 20
-1686.487
 30
3977.000
 70
    32
  0
VERTEX
  8
1250LEVEL
 62
5
 10
1239.555
 20
-1368.495
 30
3977.000
 70
    32
  0
VERTEX
  8
1250LEVEL
 62
5
 10
1226.237
 20
-1265.311
 30
3977.000
 70
    32
  0
VERTEX
  8
1250LEVEL
 62
5
 10
1242.549
 20
-1061.344
 30
3977.000
 70
    32
  0
VERTEX
  8
1250LEVEL
 62
5
 10
1233.960
 20
-995.961
 30
3977.000
 70
    32
  0
VERTEX
  8
1250LEVEL
 62
5
 10
1217.991
 20
-1154.127
 30
3977.000
 70
    32
  0
VERTEX
  8
1250LEVEL
 62
5
 10
1219.821
 20
-883.826
 30
3977.000
 70
    32
  0
VERTEX
  8
1250LEVEL
 62
5
 10
1205.273
 20
-902.137
 30
3977.000
 70
    32
  0
VERTEX
  8
1250LEVEL
 62
5
 10
1193.470
 20
-1059.464
 30
3977.000
 70
    32
  0
VERTEX
  8
1250LEVEL
 62
5
 10
1195.301
 20
-1244.693
 30
3977.000
 70
    32
  0
VERTEX
  8
1250LEVEL
 62
5
 10
1210.460
 20
-1331.798
 30
3977.000
 70
    32
  0
VERTEX
  8
1250LEVEL
 62
5
 10
1265.349
 20
-1512.998
 30
3977.000
 70
    32
  0
VERTEX
  8
1250LEVEL
 62
5
 10
1217.796
 20
-1408.064
 30
3977.000
 70
    32
  0
VERTEX
  8
1250LEVEL
 62
5
 10
1198.961
 20
-1321.878
 30
3977.000
 70
    32
  0
VERTEX
  8
1250LEVEL
 62
5
 10
1170.022
 20
-1145.373
 30
3977.000
 70
    32
  0
VERTEX
  8
1250LEVEL
 62
5
 10
1169.225
 20
-1011.457
 30
3977.000
 70
    32
  0
VERTEX
  8
1250LEVEL
 62
5
 10
1147.493
 20
-918.252
 30
3977.000
 70
    32
  0
VERTEX
  8
1250LEVEL
 62
5
 10
1084.814
 20
-952.221
 30
3977.000
 70
    32
  0
VERTEX
  8
1250LEVEL
 62
5
 10
1149.252
 20
-1072.731
 30
3977.000
 70
    32
  0
VERTEX
  8
1250LEVEL
 62
5
 10
1150.994
 20
-1150.866
 30
3977.000
 70
    32
  0
VERTEX
  8
1250LEVEL
 62
5
 10
1174.917
 20
-1297.587
 30
3977.000
 70
    32
  0
VERTEX
  8
1250LEVEL
 62
5
 10
1207.813
 20
-1415.270
 30
3977.000
 70
    32
  0
VERTEX
  8
1250LEVEL
 62
5
 10
1236.995
 20
-1493.553
 30
3977.000
 70
    32
  0
VERTEX
  8
1250LEVEL
 62
5
 10
1259.926
 20
-1532.530
 30
3977.000
 70
    32
  0
VERTEX
  8
1250LEVEL
 62
5
 10
1292.473
 20
-1653.937
 30
3977.000
 70
    32
  0
VERTEX
  8
1250LEVEL
 62
5
 10
1190.503
 20
-1388.287
 30
3977.000
 70
    32
  0
VERTEX
  8
1250LEVEL
 62
5
 10
1143.517
 20
-1225.244
 30
3977.000
 70
    32
  0
VERTEX
  8
1250LEVEL
 62
5
 10
1123.937
 20
-1064.108
 30
3977.000
 70
    32
  0
VERTEX
  8
1250LEVEL
 62
5
 10
1103.815
 20
-998.374
 30
3977.000
 70
    32
  0
VERTEX
  8
1250LEVEL
 62
5
 10
1084.839
 20
-981.704
 30
3977.000
 70
    32
  0
VERTEX
  8
1250LEVEL
 62
5
 10
1121.440
 20
-1112.331
 30
3977.000
 70
    32
  0
VERTEX
  8
1250LEVEL
 62
5
 10
1128.426
 20
-1192.321
 30
3977.000
 70
    32
  0
VERTEX
  8
1250LEVEL
 62
5
 10
1160.048
 20
-1341.293
 30
3977.000
 70
    32
  0
VERTEX
  8
1250LEVEL
 62
5
 10
1267.066
 20
-1634.968
 30
3977.000
 70
    32
  0
VERTEX
  8
1250LEVEL
 62
5
 10
1302.057
 20
-1811.443
 30
3977.000
 70
    32
  0
VERTEX
  8
1250LEVEL
 62
5
 10
1290.573
 20
-1804.550
 30
3977.000
 70
    32
  0
VERTEX
  8
1250LEVEL
 62
5
 10
1274.779
 20
-1721.374
 30
3977.000
 70
    32
  0
VERTEX
  8
1250LEVEL
 62
5
 10
1162.025
 20
-1433.575
 30
3977.000
 70
    32
  0
VERTEX
  8
1250LEVEL
 62
5
 10
1114.473
 20
-1247.513
 30
3977.000
 70
    32
  0
VERTEX
  8
1250LEVEL
 62
5
 10
1057.625
 20
-969.246
 30
3977.000
 70
    32
  0
VERTEX
  8
1250LEVEL
 62
5
 10
1031.087
 20
-977.558
 30
3977.000
 70
    32
  0
VERTEX
  8
1250LEVEL
 62
5
 10
1061.519
 20
-1060.578
 30
3977.000
 70
    32
  0
VERTEX
  8
1250LEVEL
 62
5
 10
1082.493
 20
-1222.443
 30
3977.000
 70
    32
  0
VERTEX
  8
1250LEVEL
 62
5
 10
1205.466
 20
-1737.139
 30
3977.000
 70
    32
  0
VERTEX
  8
1250LEVEL
 62
5
 10
1227.878
 20
-1916.621
 30
3977.000
 70
    32
  0
SEQEND
  8
1250LEVEL
  0
POLYLINE
  8
1250LEVEL
 62
5
 66
     1
 70
     8
  0
VERTEX
  8
1250LEVEL
 62
5
 10
1216.091
 20
-1914.718
 30
3977.000
 70
    32
  0
VERTEX
  8
1250LEVEL
 62
5
 10
1203.412
 20
-1865.303
 30
3977.000
 70
    32
  0
VERTEX
  8
1250LEVEL
 62
5
 10
1187.226
 20
-1687.834
 30
3977.000
 70
    32
  0
VERTEX
  8
1250LEVEL
 62
5
 10
1082.872
 20
-1305.901
 30
3977.000
 70
    32
  0
VERTEX
  8
1250LEVEL
 62
5
 10
1044.948
 20
-1058.658
 30
3977.000
 70
    32
  0
VERTEX
  8
1250LEVEL
 62
5
 10
1026.156
 20
-997.170
 30
3977.000
 70
    32
  0
VERTEX
  8
1250LEVEL
 62
5
 10
975.604
 20
-995.052
 30
3977.000
 70
    32
  0
SEQEND
  8
1250LEVEL
  0
POLYLINE
  8
1250LEVEL
 62
5
 66
     1
 70
     9
  0
VERTEX
  8
1250LEVEL
 62
5
 10
1413.996
 20
-1904.603
 30
3977.000
 70
    32
  0
VERTEX
  8
1250LEVEL
 62
5
 10
1406.080
 20
-1956.739
 30
3977.000
 70
    32
  0
VERTEX
  8
1250LEVEL
 62
5
 10
1386.782
 20
-1965.464
 30
3977.000
 70
    32
  0
VERTEX
  8
1250LEVEL
 62
5
 10
1385.159
 20
-2000.475
 30
3977.000
 70
    32
  0
VERTEX
  8
1250LEVEL
 62
5
 10
1420.360
 20
-2080.486
 30
3977.000
 70
    32
  0
VERTEX
  8
1250LEVEL
 62
5
 10
1439.906
 20
-2096.745
 30
3977.000
 70
    32
  0
VERTEX
  8
1250LEVEL
 62
5
 10
1444.155
 20
-2079.794
 30
3977.000
 70
    32
  0
VERTEX
  8
1250LEVEL
 62
5
 10
1406.291
 20
-2006.912
 30
3977.000
 70
    32
  0
VERTEX
  8
1250LEVEL
 62
5
 10
1404.018
 20
-1969.507
 30
3977.000
 70
    32
  0
VERTEX
  8
1250LEVEL
 62
5
 10
1431.698
 20
-1952.562
 30
3977.000
 70
    32
  0
VERTEX
  8
1250LEVEL
 62
5
 10
1426.111
 20
-1923.189
 30
3977.000
 70
    32
  0
SEQEND
  8
1250LEVEL
  0
POLYLINE
  8
1250LEVEL
 62
5
 66
     1
 70
     9
  0
VERTEX
  8
1250LEVEL
 62
5
 10
1302.354
 20
-984.331
 30
3977.000
 70
    32
  0
VERTEX
  8
1250LEVEL
 62
5
 10
1302.556
 20
-926.918
 30
3977.000
 70
    32
  0
VERTEX
  8
1250LEVEL
 62
5
 10
1311.849
 20
-880.296
 30
3977.000
 70
    32
  0
VERTEX
  8
1250LEVEL
 62
5
 10
1321.433
 20
-883.356
 30
3977.000
 70
    32
  0
VERTEX
  8
1250LEVEL
 62
5
 10
1362.837
 20
-1155.852
 30
3977.000
 70
    32
  0
VERTEX
  8
1250LEVEL
 62
5
 10
1374.949
 20
-1344.505
 30
3977.000
 70
    32
  0
VERTEX
  8
1250LEVEL
 62
5
 10
1393.583
 20
-1480.294
 30
3977.000
 70
    32
  0
VERTEX
  8
1250LEVEL
 62
5
 10
1401.448
 20
-1523.640
 30
3977.000
 70
    32
  0
VERTEX
  8
1250LEVEL
 62
5
 10
1415.906
 20
-1552.682
 30
3977.000
 70
    32
  0
VERTEX
  8
1250LEVEL
 62
5
 10
1415.263
 20
-1595.662
 30
3977.000
 70
    32
  0
VERTEX
  8
1250LEVEL
 62
5
 10
1424.682
 20
-1630.945
 30
3977.000
 70
    32
  0
VERTEX
  8
1250LEVEL
 62
5
 10
1458.673
 20
-1665.409
 30
3977.000
 70
    32
  0
VERTEX
  8
1250LEVEL
 62
5
 10
1474.531
 20
-1663.939
 30
3977.000
 70
    32
  0
VERTEX
  8
1250LEVEL
 62
5
 10
1467.855
 20
-1621.037
 30
3977.000
 70
    32
  0
VERTEX
  8
1250LEVEL
 62
5
 10
1484.551
 20
-1395.968
 30
3977.000
 70
    32
  0
VERTEX
  8
1250LEVEL
 62
5
 10
1503.087
 20
-1317.077
 30
3977.000
 70
    32
  0
VERTEX
  8
1250LEVEL
 62
5
 10
1512.101
 20
-1320.548
 30
3977.000
 70
    32
  0
VERTEX
  8
1250LEVEL
 62
5
 10
1516.108
 20
-1401.820
 30
3977.000
 70
    32
  0
VERTEX
  8
1250LEVEL
 62
5
 10
1494.418
 20
-1642.208
 30
3977.000
 70
    32
  0
VERTEX
  8
1250LEVEL
 62
5
 10
1498.368
 20
-1695.756
 30
3977.000
 70
    32
  0
VERTEX
  8
1250LEVEL
 62
5
 10
1529.076
 20
-1744.303
 30
3977.000
 70
    32
  0
VERTEX
  8
1250LEVEL
 62
5
 10
1560.777
 20
-1973.912
 30
3977.000
 70
    32
  0
VERTEX
  8
1250LEVEL
 62
5
 10
1547.198
 20
-1981.545
 30
3977.000
 70
    32
  0
VERTEX
  8
1250LEVEL
 62
5
 10
1513.063
 20
-1877.771
 30
3977.000
 70
    32
  0
VERTEX
  8
1250LEVEL
 62
5
 10
1489.287
 20
-1711.422
 30
3977.000
 70
    32
  0
VERTEX
  8
1250LEVEL
 62
5
 10
1403.484
 20
-1635.836
 30
3977.000
 70
    32
  0
VERTEX
  8
1250LEVEL
 62
5
 10
1385.069
 20
-1592.298
 30
3977.000
 70
    32
  0
VERTEX
  8
1250LEVEL
 62
5
 10
1391.966
 20
-1565.193
 30
3977.000
 70
    32
  0
VERTEX
  8
1250LEVEL
 62
5
 10
1374.139
 20
-1508.648
 30
3977.000
 70
    32
  0
VERTEX
  8
1250LEVEL
 62
5
 10
1379.169
 20
-1468.140
 30
3977.000
 70
    32
  0
VERTEX
  8
1250LEVEL
 62
5
 10
1375.227
 20
-1456.669
 30
3977.000
 70
    32
  0
VERTEX
  8
1250LEVEL
 62
5
 10
1356.374
 20
-1456.396
 30
3977.000
 70
    32
  0
VERTEX
  8
1250LEVEL
 62
5
 10
1373.139
 20
-1594.402
 30
3977.000
 70
    32
  0
VERTEX
  8
1250LEVEL
 62
5
 10
1451.546
 20
-1963.830
 30
3977.000
 70
    32
  0
VERTEX
  8
1250LEVEL
 62
5
 10
1426.655
 20
-1901.105
 30
3977.000
 70
    32
  0
VERTEX
  8
1250LEVEL
 62
5
 10
1357.095
 20
-1575.182
 30
3977.000
 70
    32
  0
VERTEX
  8
1250LEVEL
 62
5
 10
1319.664
 20
-1320.208
 30
3977.000
 70
    32
  0
VERTEX
  8
1250LEVEL
 62
5
 10
1313.004
 20
-1118.074
 30
3977.000
 70
    32
  0
SEQEND
  8
1250LEVEL
  0
POLYLINE
  8
1250LEVEL
 62
5
 66
     1
 70
     9
  0
VERTEX
  8
1250LEVEL
 62
5
 10
1458.823
 20
-1857.925
 30
3977.000
 70
    32
  0
VERTEX
  8
1250LEVEL
 62
5
 10
1451.074
 20
-1870.027
 30
3977.000
 70
    32
  0
VERTEX
  8
1250LEVEL
 62
5
 10
1457.482
 20
-1908.351
 30
3977.000
 70
    32
  0
VERTEX
  8
1250LEVEL
 62
5
 10
1490.467
 20
-1978.682
 30
3977.000
 70
    32
  0
VERTEX
  8
1250LEVEL
 62
5
 10
1497.344
 20
-1971.982
 30
3977.000
 70
    32
  0
VERTEX
  8
1250LEVEL
 62
5
 10
1467.417
 20
-1899.878
 30
3977.000
 70
    32
  0
SEQEND
  8
1250LEVEL
  0
POLYLINE
  8
1250LEVEL
 62
5
 66
     1
 70
     9
  0
VERTEX
  8
1250LEVEL
 62
5
 10
1665.093
 20
-2153.269
 30
3977.000
 70
    32
  0
VERTEX
  8
1250LEVEL
 62
5
 10
1657.353
 20
-2045.191
 30
3977.000
 70
    32
  0
VERTEX
  8
1250LEVEL
 62
5
 10
1625.065
 20
-1894.096
 30
3977.000
 70
    32
  0
VERTEX
  8
1250LEVEL
 62
5
 10
1623.033
 20
-1994.045
 30
3977.000
 70
    32
  0
VERTEX
  8
1250LEVEL
 62
5
 10
1641.764
 20
-2043.429
 30
3977.000
 70
    32
  0
VERTEX
  8
1250LEVEL
 62
5
 10
1652.912
 20
-2146.011
 30
3977.000
 70
    32
  0
SEQEND
  8
1250LEVEL
  0
POLYLINE
  8
1250LEVEL
 62
5
 66
     1
 70
     9
  0
VERTEX
  8
1250LEVEL
 62
5
 10
1765.624
 20
-2327.983
 30
3977.000
 70
    32
  0
VERTEX
  8
1250LEVEL
 62
5
 10
1746.754
 20
-2259.176
 30
3977.000
 70
    32
  0
VERTEX
  8
1250LEVEL
 62
5
 10
1725.564
 20
-2225.016
 30
3977.000
 70
    32
  0
VERTEX
  8
1250LEVEL
 62
5
 10
1704.892
 20
-2139.288
 30
3977.000
 70
    32
  0
VERTEX
  8
1250LEVEL
 62
5
 10
1711.797
 20
-2227.579
 30
3977.000
 70
    32
  0
VERTEX
  8
1250LEVEL
 62
5
 10
1757.796
 20
-2340.576
 30
3977.000
 70
    32
  0
SEQEND
  8
1250LEVEL
  0
POLYLINE
  8
1250LEVEL
 62
5
 66
     1
 70
     9
  0
VERTEX
  8
1250LEVEL
 62
5
 10
1779.931
 20
-2554.532
 30
3977.000
 70
    32
  0
VERTEX
  8
1250LEVEL
 62
5
 10
1785.354
 20
-2527.189
 30
3977.000
 70
    32
  0
VERTEX
  8
1250LEVEL
 62
5
 10
1807.062
 20
-2509.783
 30
3977.000
 70
    32
  0
VERTEX
  8
1250LEVEL
 62
5
 10
1808.858
 20
-2403.497
 30
3977.000
 70
    32
  0
VERTEX
  8
1250LEVEL
 62
5
 10
1804.288
 20
-2364.714
 30
3977.000
 70
    32
  0
VERTEX
  8
1250LEVEL
 62
5
 10
1793.202
 20
-2347.554
 30
3977.000
 70
    32
  0
VERTEX
  8
1250LEVEL
 62
5
 10
1787.877
 20
-2354.001
 30
3977.000
 70
    32
  0
VERTEX
  8
1250LEVEL
 62
5
 10
1798.614
 20
-2374.883
 30
3977.000
 70
    32
  0
VERTEX
  8
1250LEVEL
 62
5
 10
1794.395
 20
-2479.014
 30
3977.000
 70
    32
  0
VERTEX
  8
1250LEVEL
 62
5
 10
1800.823
 20
-2496.933
 30
3977.000
 70
    32
  0
VERTEX
  8
1250LEVEL
 62
5
 10
1771.457
 20
-2544.597
 30
3977.000
 70
    32
  0
SEQEND
  8
1250LEVEL
  0
POLYLINE
  8
1250LEVEL
 62
5
 66
     1
 70
     9
  0
VERTEX
  8
1250LEVEL
 62
5
 10
1665.213
 20
-648.627
 30
3977.000
 70
    32
  0
VERTEX
  8
1250LEVEL
 62
5
 10
1705.056
 20
-805.982
 30
3977.000
 70
    32
  0
VERTEX
  8
1250LEVEL
 62
5
 10
1719.345
 20
-963.996
 30
3977.000
 70
    32
  0
VERTEX
  8
1250LEVEL
 62
5
 10
1756.311
 20
-1086.116
 30
3977.000
 70
    32
  0
VERTEX
  8
1250LEVEL
 62
5
 10
1837.415
 20
-1284.400
 30
3977.000
 70
    32
  0
VERTEX
  8
1250LEVEL
 62
5
 10
1910.898
 20
-1406.623
 30
3977.000
 70
    32
  0
VERTEX
  8
1250LEVEL
 62
5
 10
1958.143
 20
-1466.659
 30
3977.000
 70
    32
  0
VERTEX
  8
1250LEVEL
 62
5
 10
1962.042
 20
-1461.242
 30
3977.000
 70
    32
  0
VERTEX
  8
1250LEVEL
 62
5
 10
1860.431
 20
-1299.455
 30
3977.000
 70
    32
  0
VERTEX
  8
1250LEVEL
 62
5
 10
1780.639
 20
-1118.012
 30
3977.000
 70
    32
  0
VERTEX
  8
1250LEVEL
 62
5
 10
1729.094
 20
-934.832
 30
3977.000
 70
    32
  0
VERTEX
  8
1250LEVEL
 62
5
 10
1717.368
 20
-790.585
 30
3977.000
 70
    32
  0
VERTEX
  8
1250LEVEL
 62
5
 10
1678.331
 20
-646.966
 30
3977.000
 70
    32
  0
SEQEND
  8
1250LEVEL
  0
POLYLINE
  8
1250LEVEL
 62
5
 66
     1
 70
     9
  0
VERTEX
  8
1250LEVEL
 62
5
 10
2003.165
 20
-4278.035
 30
3977.000
 70
    32
  0
VERTEX
  8
1250LEVEL
 62
5
 10
2005.412
 20
-4308.909
 30
3977.000
 70
    32
  0
VERTEX
  8
1250LEVEL
 62
5
 10
2005.412
 20
-4332.464
 30
3977.000
 70
    32
  0
VERTEX
  8
1250LEVEL
 62
5
 10
2017.175
 20
-4396.397
 30
3977.000
 70
    32
  0
VERTEX
  8
1250LEVEL
 62
5
 10
2018.856
 20
-4419.952
 30
3977.000
 70
    32
  0
VERTEX
  8
1250LEVEL
 62
5
 10
2023.897
 20
-4445.189
 30
3977.000
 70
    32
  0
VERTEX
  8
1250LEVEL
 62
5
 10
2030.619
 20
-4460.331
 30
3977.000
 70
    32
  0
VERTEX
  8
1250LEVEL
 62
5
 10
2032.299
 20
-4488.933
 30
3977.000
 70
    32
  0
VERTEX
  8
1250LEVEL
 62
5
 10
2044.063
 20
-4529.312
 30
3977.000
 70
    32
  0
VERTEX
  8
1250LEVEL
 62
5
 10
2045.743
 20
-4495.662
 30
3977.000
 70
    32
  0
VERTEX
  8
1250LEVEL
 62
5
 10
2035.660
 20
-4453.601
 30
3977.000
 70
    32
  0
VERTEX
  8
1250LEVEL
 62
5
 10
2028.939
 20
-4398.080
 30
3977.000
 70
    32
  0
VERTEX
  8
1250LEVEL
 62
5
 10
2015.495
 20
-4337.511
 30
3977.000
 70
    32
  0
VERTEX
  8
1250LEVEL
 62
5
 10
2010.454
 20
-4310.592
 30
3977.000
 70
    32
  0
SEQEND
  8
1250LEVEL
  0
POLYLINE
  8
1250LEVEL
 62
13
 66
     1
 70
     9
  0
VERTEX
  8
1250LEVEL
 62
13
 10
1305.748
 20
-1813.551
 30
3977.000
 70
    32
  0
VERTEX
  8
1250LEVEL
 62
13
 10
1318.186
 20
-1880.060
 30
3977.000
 70
    32
  0
VERTEX
  8
1250LEVEL
 62
13
 10
1306.751
 20
-1866.623
 30
3977.000
 70
    32
  0
VERTEX
  8
1250LEVEL
 62
13
 10
1304.159
 20
-1838.994
 30
3977.000
 70
    32
  0
SEQEND
  8
1250LEVEL
  0
POLYLINE
  8
1250LEVEL
 62
7
 66
     1
 70
     8
  0
VERTEX
  8
1250LEVEL
 62
7
 10
-826.344
 20
-2575.287
 30
3977.000
 70
    32
  0
VERTEX
  8
1250LEVEL
 62
7
 10
-796.380
 20
-2622.202
 30
3977.000
 70
    32
  0
VERTEX
  8
1250LEVEL
 62
7
 10
-708.714
 20
-2726.811
 30
3977.000
 70
    32
  0
VERTEX
  8
1250LEVEL
 62
7
 10
-504.433
 20
-3138.992
 30
3977.000
 70
    32
  0
VERTEX
  8
1250LEVEL
 62
7
 10
-569.469
 20
-3078.350
 30
3977.000
 70
    32
  0
VERTEX
  8
1250LEVEL
 62
7
 10
-642.360
 20
-2927.500
 30
3977.000
 70
    32
  0
VERTEX
  8
1250LEVEL
 62
7
 10
-750.215
 20
-2776.294
 30
3977.000
 70
    32
  0
VERTEX
  8
1250LEVEL
 62
7
 10
-655.648
 20
-2984.815
 30
3977.000
 70
    32
  0
VERTEX
  8
1250LEVEL
 62
7
 10
-611.175
 20
-3046.419
 30
3977.000
 70
    32
  0
VERTEX
  8
1250LEVEL
 62
7
 10
-549.495
 20
-3171.523
 30
3977.000
 70
    32
  0
VERTEX
  8
1250LEVEL
 62
7
 10
-548.884
 20
-3203.619
 30
3977.000
 70
    32
  0
VERTEX
  8
1250LEVEL
 62
7
 10
-563.585
 20
-3199.482
 30
3977.000
 70
    32
  0
VERTEX
  8
1250LEVEL
 62
7
 10
-588.546
 20
-3171.515
 30
3977.000
 70
    32
  0
VERTEX
  8
1250LEVEL
 62
7
 10
-612.298
 20
-3115.776
 30
3977.000
 70
    32
  0
VERTEX
  8
1250LEVEL
 62
7
 10
-708.758
 20
-3018.817
 30
3977.000
 70
    32
  0
VERTEX
  8
1250LEVEL
 62
7
 10
-827.511
 20
-2855.522
 30
3977.000
 70
    32
  0
VERTEX
  8
1250LEVEL
 62
7
 10
-884.436
 20
-2797.701
 30
3977.000
 70
    32
  0
VERTEX
  8
1250LEVEL
 62
7
 10
-969.213
 20
-2665.844
 30
3977.000
 70
    32
  0
SEQEND
  8
1250LEVEL
  0
POLYLINE
  8
1250LEVEL
 62
13
 66
     1
 70
     9
  0
VERTEX
  8
1250LEVEL
 62
13
 10
924.136
 20
-2745.873
 30
3977.000
 70
    32
  0
VERTEX
  8
1250LEVEL
 62
13
 10
890.807
 20
-2729.153
 30
3977.000
 70
    32
  0
VERTEX
  8
1250LEVEL
 62
13
 10
845.271
 20
-2675.691
 30
3977.000
 70
    32
  0
VERTEX
  8
1250LEVEL
 62
13
 10
803.288
 20
-2604.915
 30
3977.000
 70
    32
  0
VERTEX
  8
1250LEVEL
 62
13
 10
729.183
 20
-2424.139
 30
3977.000
 70
    32
  0
VERTEX
  8
1250LEVEL
 62
13
 10
643.999
 20
-2268.280
 30
3977.000
 70
    32
  0
VERTEX
  8
1250LEVEL
 62
13
 10
673.936
 20
-2293.523
 30
3977.000
 70
    32
  0
VERTEX
  8
1250LEVEL
 62
13
 10
723.330
 20
-2382.377
 30
3977.000
 70
    32
  0
VERTEX
  8
1250LEVEL
 62
13
 10
846.008
 20
-2635.246
 30
3977.000
 70
    32
  0
VERTEX
  8
1250LEVEL
 62
13
 10
890.147
 20
-2703.599
 30
3977.000
 70
    32
  0
VERTEX
  8
1250LEVEL
 62
13
 10
933.453
 20
-2736.544
 30
3977.000
 70
    32
  0
SEQEND
  8
1250LEVEL
  0
POLYLINE
  8
1250LEVEL
 62
13
 66
     1
 70
     9
  0
VERTEX
  8
1250LEVEL
 62
13
 10
134.398
 20
-965.016
 30
3977.000
 70
    32
  0
VERTEX
  8
1250LEVEL
 62
13
 10
99.678
 20
-931.946
 30
3977.000
 70
    32
  0
VERTEX
  8
1250LEVEL
 62
13
 10
47.793
 20
-860.074
 30
3977.000
 70
    32
  0
VERTEX
  8
1250LEVEL
 62
13
 10
52.982
 20
-899.713
 30
3977.000
 70
    32
  0
VERTEX
  8
1250LEVEL
 62
13
 10
84.355
 20
-950.383
 30
3977.000
 70
    32
  0
VERTEX
  8
1250LEVEL
 62
13
 10
122.466
 20
-974.931
 30
3977.000
 70
    32
  0
SEQEND
  8
1250LEVEL
  0
POLYLINE
  8
1250LEVEL
 62
13
 66
     1
 70
     9
  0
VERTEX
  8
1250LEVEL
 62
13
 10
788.442
 20
-2075.936
 30
3977.000
 70
    32
  0
VERTEX
  8
1250LEVEL
 62
13
 10
727.887
 20
-1946.983
 30
3977.000
 70
    32
  0
VERTEX
  8
1250LEVEL
 62
13
 10
709.963
 20
-1822.395
 30
3977.000
 70
    32
  0
VERTEX
  8
1250LEVEL
 62
13
 10
600.859
 20
-1658.642
 30
3977.000
 70
    32
  0
VERTEX
  8
1250LEVEL
 62
13
 10
593.284
 20
-1672.788
 30
3977.000
 70
    32
  0
VERTEX
  8
1250LEVEL
 62
13
 10
652.923
 20
-1782.445
 30
3977.000
 70
    32
  0
VERTEX
  8
1250LEVEL
 62
13
 10
711.531
 20
-1979.615
 30
3977.000
 70
    32
  0
VERTEX
  8
1250LEVEL
 62
13
 10
758.930
 20
-2062.100
 30
3977.000
 70
    32
  0
SEQEND
  8
1250LEVEL
  0
POLYLINE
  8
1250LEVEL
 62
13
 66
     1
 70
     9
  0
VERTEX
  8
1250LEVEL
 62
13
 10
1216.492
 20
-1969.960
 30
3977.000
 70
    32
  0
VERTEX
  8
1250LEVEL
 62
13
 10
1158.940
 20
-1877.017
 30
3977.000
 70
    32
  0
VERTEX
  8
1250LEVEL
 62
13
 10
1139.292
 20
-1816.147
 30
3977.000
 70
    32
  0
VERTEX
  8
1250LEVEL
 62
13
 10
1125.330
 20
-1763.753
 30
3977.000
 70
    32
  0
VERTEX
  8
1250LEVEL
 62
13
 10
1131.570
 20
-1695.474
 30
3977.000
 70
    32
  0
VERTEX
  8
1250LEVEL
 62
13
 10
1152.902
 20
-1733.437
 30
3977.000
 70
    32
  0
VERTEX
  8
1250LEVEL
 62
13
 10
1167.135
 20
-1855.917
 30
3977.000
 70
    32
  0
VERTEX
  8
1250LEVEL
 62
13
 10
1202.827
 20
-1936.007
 30
3977.000
 70
    32
  0
SEQEND
  8
1250LEVEL
  0
POLYLINE
  8
1250LEVEL
 62
13
 66
     1
 70
     9
  0
VERTEX
  8
1250LEVEL
 62
13
 10
1268.570
 20
-1950.152
 30
3977.000
 70
    32
  0
VERTEX
  8
1250LEVEL
 62
13
 10
1235.177
 20
-1936.948
 30
3977.000
 70
    32
  0
VERTEX
  8
1250LEVEL
 62
13
 10
1228.669
 20
-1919.520
 30
3977.000
 70
    32
  0
VERTEX
  8
1250LEVEL
 62
13
 10
1219.257
 20
-1926.315
 30
3977.000
 70
    32
  0
VERTEX
  8
1250LEVEL
 62
13
 10
1260.397
 20
-2016.355
 30
3977.000
 70
    32
  0
VERTEX
  8
1250LEVEL
 62
13
 10
1284.128
 20
-2019.180
 30
3977.000
 70
    32
  0
SEQEND
  8
1250LEVEL
  0
POLYLINE
  8
1250LEVEL
 62
13
 66
     1
 70
     9
  0
VERTEX
  8
1250LEVEL
 62
13
 10
1327.137
 20
-2033.685
 30
3977.000
 70
    32
  0
VERTEX
  8
1250LEVEL
 62
13
 10
1302.942
 20
-1898.006
 30
3977.000
 70
    32
  0
VERTEX
  8
1250LEVEL
 62
13
 10
1296.800
 20
-1953.199
 30
3977.000
 70
    32
  0
VERTEX
  8
1250LEVEL
 62
13
 10
1279.949
 20
-1928.054
 30
3977.000
 70
    32
  0
VERTEX
  8
1250LEVEL
 62
13
 10
1296.011
 20
-2015.808
 30
3977.000
 70
    32
  0
SEQEND
  8
1250LEVEL
  0
POLYLINE
  8
1250LEVEL
 62
7
 66
     1
 70
     9
  0
VERTEX
  8
1250LEVEL
 62
7
 10
2124.893
 20
-498.125
 30
3977.000
 70
    32
  0
VERTEX
  8
1250LEVEL
 62
7
 10
2093.750
 20
-485.032
 30
3977.000
 70
    32
  0
VERTEX
  8
1250LEVEL
 62
7
 10
2060.223
 20
-510.104
 30
3977.000
 70
    32
  0
VERTEX
  8
1250LEVEL
 62
7
 10
2034.092
 20
-542.417
 30
3977.000
 70
    32
  0
VERTEX
  8
1250LEVEL
 62
7
 10
2011.951
 20
-587.468
 30
3977.000
 70
    32
  0
VERTEX
  8
1250LEVEL
 62
7
 10
1994.825
 20
-588.985
 30
3977.000
 70
    32
  0
VERTEX
  8
1250LEVEL
 62
7
 10
1984.840
 20
-611.812
 30
3977.000
 70
    32
  0
VERTEX
  8
1250LEVEL
 62
7
 10
1997.058
 20
-593.881
 30
3977.000
 70
    32
  0
VERTEX
  8
1250LEVEL
 62
7
 10
2016.118
 20
-586.629
 30
3977.000
 70
    32
  0
VERTEX
  8
1250LEVEL
 62
7
 10
2031.871
 20
-556.168
 30
3977.000
 70
    32
  0
VERTEX
  8
1250LEVEL
 62
7
 10
2064.717
 20
-533.758
 30
3977.000
 70
    32
  0
VERTEX
  8
1250LEVEL
 62
7
 10
2085.223
 20
-505.071
 30
3977.000
 70
    32
  0
VERTEX
  8
1250LEVEL
 62
7
 10
2116.813
 20
-501.355
 30
3977.000
 70
    32
  0
SEQEND
  8
1250LEVEL
  0
POLYLINE
  8
1250LEVEL
 62
7
 66
     1
 70
     9
  0
VERTEX
  8
1250LEVEL
 62
7
 10
2164.541
 20
-3372.757
 30
3977.000
 70
    32
  0
VERTEX
  8
1250LEVEL
 62
7
 10
2149.992
 20
-3325.559
 30
3977.000
 70
    32
  0
VERTEX
  8
1250LEVEL
 62
7
 10
2119.491
 20
-3269.487
 30
3977.000
 70
    32
  0
VERTEX
  8
1250LEVEL
 62
7
 10
2103.920
 20
-3181.812
 30
3977.000
 70
    32
  0
VERTEX
  8
1250LEVEL
 62
7
 10
2078.946
 20
-3135.199
 30
3977.000
 70
    32
  0
VERTEX
  8
1250LEVEL
 62
7
 10
2038.636
 20
-3015.058
 30
3977.000
 70
    32
  0
VERTEX
  8
1250LEVEL
 62
7
 10
1948.611
 20
-2904.777
 30
3977.000
 70
    32
  0
VERTEX
  8
1250LEVEL
 62
7
 10
1879.568
 20
-2917.310
 30
3977.000
 70
    32
  0
VERTEX
  8
1250LEVEL
 62
7
 10
1854.765
 20
-2888.361
 30
3977.000
 70
    32
  0
VERTEX
  8
1250LEVEL
 62
7
 10
1823.842
 20
-2878.580
 30
3977.000
 70
    32
  0
VERTEX
  8
1250LEVEL
 62
7
 10
1797.416
 20
-2884.642
 30
3977.000
 70
    32
  0
VERTEX
  8
1250LEVEL
 62
7
 10
1773.519
 20
-2840.722
 30
3977.000
 70
    32
  0
VERTEX
  8
1250LEVEL
 62
7
 10
1751.116
 20
-2849.953
 30
3977.000
 70
    32
  0
VERTEX
  8
1250LEVEL
 62
7
 10
1734.932
 20
-2819.121
 30
3977.000
 70
    32
  0
VERTEX
  8
1250LEVEL
 62
7
 10
1647.185
 20
-2722.813
 30
3977.000
 70
    32
  0
VERTEX
  8
1250LEVEL
 62
7
 10
1656.999
 20
-2763.451
 30
3977.000
 70
    32
  0
VERTEX
  8
1250LEVEL
 62
7
 10
1711.720
 20
-2830.238
 30
3977.000
 70
    32
  0
VERTEX
  8
1250LEVEL
 62
7
 10
1736.186
 20
-2881.556
 30
3977.000
 70
    32
  0
VERTEX
  8
1250LEVEL
 62
7
 10
1812.546
 20
-2957.884
 30
3977.000
 70
    32
  0
VERTEX
  8
1250LEVEL
 62
7
 10
1837.125
 20
-2999.143
 30
3977.000
 70
    32
  0
VERTEX
  8
1250LEVEL
 62
7
 10
1876.076
 20
-3027.857
 30
3977.000
 70
    32
  0
VERTEX
  8
1250LEVEL
 62
7
 10
1924.720
 20
-3138.510
 30
3977.000
 70
    32
  0
VERTEX
  8
1250LEVEL
 62
7
 10
1966.523
 20
-3165.165
 30
3977.000
 70
    32
  0
VERTEX
  8
1250LEVEL
 62
7
 10
2063.464
 20
-3309.065
 30
3977.000
 70
    32
  0
VERTEX
  8
1250LEVEL
 62
7
 10
2114.829
 20
-3366.996
 30
3977.000
 70
    32
  0
VERTEX
  8
1250LEVEL
 62
7
 10
2149.582
 20
-3390.497
 30
3977.000
 70
    32
  0
SEQEND
  8
1250LEVEL
  0
POLYLINE
  8
1250LEVEL
 62
13
 66
     1
 70
     8
  0
VERTEX
  8
1250LEVEL
 62
13
 10
-2.364
 20
-2172.206
 30
3977.000
 70
    32
  0
VERTEX
  8
1250LEVEL
 62
13
 10
76.824
 20
-2363.629
 30
3977.000
 70
    32
  0
VERTEX
  8
1250LEVEL
 62
13
 10
208.749
 20
-2641.927
 30
3977.000
 70
    32
  0
VERTEX
  8
1250LEVEL
 62
13
 10
242.134
 20
-2694.182
 30
3977.000
 70
    32
  0
VERTEX
  8
1250LEVEL
 62
13
 10
236.470
 20
-2657.490
 30
3977.000
 70
    32
  0
VERTEX
  8
1250LEVEL
 62
13
 10
162.234
 20
-2499.368
 30
3977.000
 70
    32
  0
VERTEX
  8
1250LEVEL
 62
13
 10
145.644
 20
-2436.724
 30
3977.000
 70
    32
  0
VERTEX
  8
1250LEVEL
 62
13
 10
174.153
 20
-2470.807
 30
3977.000
 70
    32
  0
VERTEX
  8
1250LEVEL
 62
13
 10
146.272
 20
-2309.589
 30
3977.000
 70
    32
  0
VERTEX
  8
1250LEVEL
 62
13
 10
186.043
 20
-2428.383
 30
3977.000
 70
    32
  0
VERTEX
  8
1250LEVEL
 62
13
 10
224.766
 20
-2485.028
 30
3977.000
 70
    32
  0
VERTEX
  8
1250LEVEL
 62
13
 10
203.831
 20
-2290.163
 30
3977.000
 70
    32
  0
VERTEX
  8
1250LEVEL
 62
13
 10
225.244
 20
-2319.824
 30
3977.000
 70
    32
  0
VERTEX
  8
1250LEVEL
 62
13
 10
306.625
 20
-2475.824
 30
3977.000
 70
    32
  0
VERTEX
  8
1250LEVEL
 62
13
 10
342.061
 20
-2569.983
 30
3977.000
 70
    32
  0
VERTEX
  8
1250LEVEL
 62
13
 10
385.369
 20
-2749.564
 30
3977.000
 70
    32
  0
SEQEND
  8
1250LEVEL
  0
POLYLINE
  8
1250LEVEL
 62
7
 66
     1
 70
     8
  0
VERTEX
  8
1250LEVEL
 62
7
 10
385.369
 20
-2749.564
 30
3977.000
 70
    32
  0
VERTEX
  8
1250LEVEL
 62
7
 10
283.844
 20
-2474.917
 30
3977.000
 70
    32
  0
VERTEX
  8
1250LEVEL
 62
7
 10
238.269
 20
-2381.136
 30
3977.000
 70
    32
  0
VERTEX
  8
1250LEVEL
 62
7
 10
238.231
 20
-2414.136
 30
3977.000
 70
    32
  0
VERTEX
  8
1250LEVEL
 62
7
 10
318.521
 20
-2637.736
 30
3977.000
 70
    32
  0
VERTEX
  8
1250LEVEL
 62
7
 10
340.161
 20
-2720.595
 30
3977.000
 70
    32
  0
VERTEX
  8
1250LEVEL
 62
7
 10
319.364
 20
-2699.600
 30
3977.000
 70
    32
  0
VERTEX
  8
1250LEVEL
 62
7
 10
226.497
 20
-2544.516
 30
3977.000
 70
    32
  0
VERTEX
  8
1250LEVEL
 62
7
 10
207.550
 20
-2541.708
 30
3977.000
 70
    32
  0
VERTEX
  8
1250LEVEL
 62
7
 10
360.611
 20
-2884.140
 30
3977.000
 70
    32
  0
VERTEX
  8
1250LEVEL
 62
7
 10
352.086
 20
-2896.369
 30
3977.000
 70
    32
  0
VERTEX
  8
1250LEVEL
 62
7
 10
254.235
 20
-2783.060
 30
3977.000
 70
    32
  0
VERTEX
  8
1250LEVEL
 62
7
 10
145.163
 20
-2617.548
 30
3977.000
 70
    32
  0
VERTEX
  8
1250LEVEL
 62
7
 10
0.374
 20
-2261.335
 30
3977.000
 70
    32
  0
SEQEND
  8
1250LEVEL
  0
LINE
  8
1250LEVEL
 62
3
 10
384.271
 20
-2746.593
 30
3977.000
 11
618.183
 21
-3236.484
 31
3977.000
  0
POLYLINE
  8
1250LEVEL
 62
7
 66
     1
 70
     8
  0
VERTEX
  8
1250LEVEL
 62
7
 10
731.405
 20
-3174.812
 30
3977.000
 70
    32
  0
VERTEX
  8
1250LEVEL
 62
7
 10
777.725
 20
-3262.414
 30
3977.000
 70
    32
  0
VERTEX
  8
1250LEVEL
 62
7
 10
837.895
 20
-3339.151
 30
3977.000
 70
    32
  0
VERTEX
  8
1250LEVEL
 62
7
 10
991.077
 20
-3632.472
 30
3977.000
 70
    32
  0
VERTEX
  8
1250LEVEL
 62
7
 10
1121.591
 20
-3841.507
 30
3977.000
 70
    32
  0
VERTEX
  8
1250LEVEL
 62
7
 10
1127.778
 20
-3876.519
 30
3977.000
 70
    32
  0
VERTEX
  8
1250LEVEL
 62
7
 10
1101.453
 20
-3853.875
 30
3977.000
 70
    32
  0
VERTEX
  8
1250LEVEL
 62
7
 10
719.524
 20
-3398.139
 30
3977.000
 70
    32
  0
VERTEX
  8
1250LEVEL
 62
7
 10
674.260
 20
-3333.636
 30
3977.000
 70
    32
  0
VERTEX
  8
1250LEVEL
 62
7
 10
616.805
 20
-3235.417
 30
3977.000
 70
    32
  0
SEQEND
  8
1250LEVEL
  0
POLYLINE
  8
1250LEVEL
 62
13
 66
     1
 70
     8
  0
VERTEX
  8
1250LEVEL
 62
13
 10
616.805
 20
-3235.417
 30
3977.000
 70
    32
  0
VERTEX
  8
1250LEVEL
 62
13
 10
657.117
 20
-3266.619
 30
3977.000
 70
    32
  0
VERTEX
  8
1250LEVEL
 62
13
 10
723.262
 20
-3328.196
 30
3977.000
 70
    32
  0
VERTEX
  8
1250LEVEL
 62
13
 10
833.415
 20
-3472.970
 30
3977.000
 70
    32
  0
VERTEX
  8
1250LEVEL
 62
13
 10
796.743
 20
-3384.911
 30
3977.000
 70
    32
  0
VERTEX
  8
1250LEVEL
 62
13
 10
759.459
 20
-3264.755
 30
3977.000
 70
    32
  0
VERTEX
  8
1250LEVEL
 62
13
 10
718.179
 20
-3176.597
 30
3977.000
 70
    32
  0
SEQEND
  8
1250LEVEL
  0
LINE
  8
1250LEVEL
 62
3
 10
1949.201
 20
-3729.610
 30
3977.000
 11
2182.094
 21
-4113.750
 31
3977.000
  0
POLYLINE
  8
1250LEVEL
 62
7
 66
     1
 70
     8
  0
VERTEX
  8
1250LEVEL
 62
7
 10
1951.213
 20
-3731.098
 30
3977.000
 70
    32
  0
VERTEX
  8
1250LEVEL
 62
7
 10
1930.771
 20
-3682.949
 30
3977.000
 70
    32
  0
VERTEX
  8
1250LEVEL
 62
7
 10
1942.606
 20
-3678.310
 30
3977.000
 70
    32
  0
VERTEX
  8
1250LEVEL
 62
7
 10
1971.340
 20
-3700.083
 30
3977.000
 70
    32
  0
VERTEX
  8
1250LEVEL
 62
7
 10
1988.008
 20
-3688.917
 30
3977.000
 70
    32
  0
VERTEX
  8
1250LEVEL
 62
7
 10
1965.777
 20
-3634.685
 30
3977.000
 70
    32
  0
VERTEX
  8
1250LEVEL
 62
7
 10
1757.144
 20
-3349.289
 30
3977.000
 70
    32
  0
VERTEX
  8
1250LEVEL
 62
7
 10
1494.961
 20
-3237.911
 30
3977.000
 70
    32
  0
VERTEX
  8
1250LEVEL
 62
7
 10
1385.690
 20
-3114.192
 30
3977.000
 70
    32
  0
VERTEX
  8
1250LEVEL
 62
7
 10
1250.628
 20
-2911.477
 30
3977.000
 70
    32
  0
VERTEX
  8
1250LEVEL
 62
7
 10
1081.479
 20
-2606.255
 30
3977.000
 70
    32
  0
VERTEX
  8
1250LEVEL
 62
7
 10
1006.111
 20
-2556.543
 30
3977.000
 70
    32
  0
VERTEX
  8
1250LEVEL
 62
7
 10
986.776
 20
-2517.139
 30
3977.000
 70
    32
  0
VERTEX
  8
1250LEVEL
 62
7
 10
971.138
 20
-2448.602
 30
3977.000
 70
    32
  0
VERTEX
  8
1250LEVEL
 62
7
 10
930.243
 20
-2399.165
 30
3977.000
 70
    32
  0
VERTEX
  8
1250LEVEL
 62
7
 10
874.531
 20
-2371.271
 30
3977.000
 70
    32
  0
VERTEX
  8
1250LEVEL
 62
7
 10
771.336
 20
-2211.496
 30
3977.000
 70
    32
  0
VERTEX
  8
1250LEVEL
 62
7
 10
760.268
 20
-2181.741
 30
3977.000
 70
    32
  0
VERTEX
  8
1250LEVEL
 62
7
 10
772.452
 20
-2173.379
 30
3977.000
 70
    32
  0
SEQEND
  8
1250LEVEL
  0
POLYLINE
  8
1250LEVEL
 62
3
 66
     1
 70
     8
  0
VERTEX
  8
1250LEVEL
 62
3
 10
769.605
 20
-2175.333
 30
3977.000
 70
    32
  0
VERTEX
  8
1250LEVEL
 62
3
 10
822.954
 20
-2225.427
 30
3977.000
 70
    32
  0
VERTEX
  8
1250LEVEL
 62
3
 10
822.954
 20
-2225.427
 30
3977.000
 70
    32
  0
SEQEND
  8
1250LEVEL
  0
POLYLINE
  8
1250LEVEL
 62
13
 66
     1
 70
     8
  0
VERTEX
  8
1250LEVEL
 62
13
 10
1951.213
 20
-3731.098
 30
3977.000
 70
    32
  0
VERTEX
  8
1250LEVEL
 62
13
 10
1930.732
 20
-3715.948
 30
3977.000
 70
    32
  0
VERTEX
  8
1250LEVEL
 62
13
 10
1897.219
 20
-3670.728
 30
3977.000
 70
    32
  0
VERTEX
  8
1250LEVEL
 62
13
 10
1811.476
 20
-3541.737
 30
3977.000
 70
    32
  0
VERTEX
  8
1250LEVEL
 62
13
 10
1804.605
 20
-3517.196
 30
3977.000
 70
    32
  0
VERTEX
  8
1250LEVEL
 62
13
 10
1934.706
 20
-3652.342
 30
3977.000
 70
    32
  0
VERTEX
  8
1250LEVEL
 62
13
 10
1952.038
 20
-3651.110
 30
3977.000
 70
    32
  0
VERTEX
  8
1250LEVEL
 62
13
 10
1758.343
 20
-3376.190
 30
3977.000
 70
    32
  0
VERTEX
  8
1250LEVEL
 62
13
 10
1501.463
 20
-3278.770
 30
3977.000
 70
    32
  0
VERTEX
  8
1250LEVEL
 62
13
 10
1393.269
 20
-3157.744
 30
3977.000
 70
    32
  0
VERTEX
  8
1250LEVEL
 62
13
 10
1094.520
 20
-2670.594
 30
3977.000
 70
    32
  0
VERTEX
  8
1250LEVEL
 62
13
 10
1039.307
 20
-2603.728
 30
3977.000
 70
    32
  0
VERTEX
  8
1250LEVEL
 62
13
 10
992.010
 20
-2565.855
 30
3977.000
 70
    32
  0
VERTEX
  8
1250LEVEL
 62
13
 10
967.767
 20
-2510.037
 30
3977.000
 70
    32
  0
VERTEX
  8
1250LEVEL
 62
13
 10
939.560
 20
-2470.964
 30
3977.000
 70
    32
  0
VERTEX
  8
1250LEVEL
 62
13
 10
832.836
 20
-2365.797
 30
3977.000
 70
    32
  0
VERTEX
  8
1250LEVEL
 62
13
 10
704.462
 20
-2151.313
 30
3977.000
 70
    32
  0
VERTEX
  8
1250LEVEL
 62
13
 10
692.341
 20
-2082.840
 30
3977.000
 70
    32
  0
VERTEX
  8
1250LEVEL
 62
13
 10
570.283
 20
-1969.653
 30
3977.000
 70
    32
  0
VERTEX
  8
1250LEVEL
 62
13
 10
465.187
 20
-1806.043
 30
3977.000
 70
    32
  0
VERTEX
  8
1250LEVEL
 62
13
 10
404.748
 20
-1732.538
 30
3977.000
 70
    32
  0
VERTEX
  8
1250LEVEL
 62
13
 10
379.412
 20
-1597.683
 30
3977.000
 70
    32
  0
VERTEX
  8
1250LEVEL
 62
13
 10
309.337
 20
-1462.153
 30
3977.000
 70
    32
  0
VERTEX
  8
1250LEVEL
 62
13
 10
315.697
 20
-1352.573
 30
3977.000
 70
    32
  0
VERTEX
  8
1250LEVEL
 62
13
 10
289.616
 20
-1297.214
 30
3977.000
 70
    32
  0
VERTEX
  8
1250LEVEL
 62
13
 10
225.790
 20
-1208.801
 30
3977.000
 70
    32
  0
VERTEX
  8
1250LEVEL
 62
13
 10
197.827
 20
-1210.332
 30
3977.000
 70
    32
  0
VERTEX
  8
1250LEVEL
 62
13
 10
176.037
 20
-1170.531
 30
3977.000
 70
    32
  0
VERTEX
  8
1250LEVEL
 62
13
 10
150.447
 20
-1115.252
 30
3977.000
 70
    32
  0
VERTEX
  8
1250LEVEL
 62
13
 10
133.951
 20
-1055.143
 30
3977.000
 70
    32
  0
VERTEX
  8
1250LEVEL
 62
13
 10
125.960
 20
-1011.021
 30
3977.000
 70
    32
  0
VERTEX
  8
1250LEVEL
 62
13
 10
141.901
 20
-993.439
 30
3977.000
 70
    32
  0
VERTEX
  8
1250LEVEL
 62
13
 10
130.878
 20
-980.573
 30
3977.000
 70
    32
  0
VERTEX
  8
1250LEVEL
 62
13
 10
143.823
 20
-969.058
 30
3977.000
 70
    32
  0
VERTEX
  8
1250LEVEL
 62
13
 10
154.799
 20
-1061.785
 30
3977.000
 70
    32
  0
VERTEX
  8
1250LEVEL
 62
13
 10
183.301
 20
-1127.109
 30
3977.000
 70
    32
  0
VERTEX
  8
1250LEVEL
 62
13
 10
217.447
 20
-1176.212
 30
3977.000
 70
    32
  0
VERTEX
  8
1250LEVEL
 62
13
 10
261.086
 20
-1210.218
 30
3977.000
 70
    32
  0
VERTEX
  8
1250LEVEL
 62
13
 10
290.925
 20
-1248.547
 30
3977.000
 70
    32
  0
VERTEX
  8
1250LEVEL
 62
13
 10
333.207
 20
-1329.954
 30
3977.000
 70
    32
  0
VERTEX
  8
1250LEVEL
 62
13
 10
414.778
 20
-1491.024
 30
3977.000
 70
    32
  0
VERTEX
  8
1250LEVEL
 62
13
 10
428.732
 20
-1582.468
 30
3977.000
 70
    32
  0
VERTEX
  8
1250LEVEL
 62
13
 10
461.284
 20
-1680.444
 30
3977.000
 70
    32
  0
VERTEX
  8
1250LEVEL
 62
13
 10
563.783
 20
-1839.855
 30
3977.000
 70
    32
  0
VERTEX
  8
1250LEVEL
 62
13
 10
594.547
 20
-1923.937
 30
3977.000
 70
    32
  0
VERTEX
  8
1250LEVEL
 62
13
 10
625.556
 20
-1975.304
 30
3977.000
 70
    32
  0
VERTEX
  8
1250LEVEL
 62
13
 10
681.230
 20
-2028.387
 30
3977.000
 70
    32
  0
VERTEX
  8
1250LEVEL
 62
13
 10
718.369
 20
-2087.043
 30
3977.000
 70
    32
  0
VERTEX
  8
1250LEVEL
 62
13
 10
744.713
 20
-2170.411
 30
3977.000
 70
    32
  0
VERTEX
  8
1250LEVEL
 62
13
 10
772.452
 20
-2173.379
 30
3977.000
 70
    32
  0
SEQEND
  8
1250LEVEL
  0
POLYLINE
  8
1250LEVEL
 62
7
 66
     1
 70
     8
  0
VERTEX
  8
1250LEVEL
 62
7
 10
822.472
 20
-2224.037
 30
3977.000
 70
    32
  0
VERTEX
  8
1250LEVEL
 62
7
 10
829.692
 20
-2244.856
 30
3977.000
 70
    32
  0
VERTEX
  8
1250LEVEL
 62
7
 10
861.988
 20
-2275.771
 30
3977.000
 70
    32
  0
VERTEX
  8
1250LEVEL
 62
7
 10
866.214
 20
-2294.846
 30
3977.000
 70
    32
  0
VERTEX
  8
1250LEVEL
 62
7
 10
905.846
 20
-2320.899
 30
3977.000
 70
    32
  0
VERTEX
  8
1250LEVEL
 62
7
 10
948.010
 20
-2362.478
 30
3977.000
 70
    32
  0
VERTEX
  8
1250LEVEL
 62
7
 10
1012.739
 20
-2451.541
 30
3977.000
 70
    32
  0
VERTEX
  8
1250LEVEL
 62
7
 10
1098.909
 20
-2591.938
 30
3977.000
 70
    32
  0
VERTEX
  8
1250LEVEL
 62
7
 10
1122.307
 20
-2593.701
 30
3977.000
 70
    32
  0
VERTEX
  8
1250LEVEL
 62
7
 10
1149.342
 20
-2635.356
 30
3977.000
 70
    32
  0
VERTEX
  8
1250LEVEL
 62
7
 10
1172.109
 20
-2625.428
 30
3977.000
 70
    32
  0
VERTEX
  8
1250LEVEL
 62
7
 10
1231.596
 20
-2631.507
 30
3977.000
 70
    32
  0
VERTEX
  8
1250LEVEL
 62
7
 10
1270.314
 20
-2557.136
 30
3977.000
 70
    32
  0
VERTEX
  8
1250LEVEL
 62
7
 10
1305.261
 20
-2562.276
 30
3977.000
 70
    32
  0
VERTEX
  8
1250LEVEL
 62
7
 10
1289.252
 20
-2525.677
 30
3977.000
 70
    32
  0
VERTEX
  8
1250LEVEL
 62
7
 10
1298.319
 20
-2499.174
 30
3977.000
 70
    32
  0
VERTEX
  8
1250LEVEL
 62
7
 10
1257.977
 20
-2461.921
 30
3977.000
 70
    32
  0
VERTEX
  8
1250LEVEL
 62
7
 10
1206.970
 20
-2434.535
 30
3977.000
 70
    32
  0
VERTEX
  8
1250LEVEL
 62
7
 10
1146.009
 20
-2354.898
 30
3977.000
 70
    32
  0
VERTEX
  8
1250LEVEL
 62
7
 10
1131.416
 20
-2290.813
 30
3977.000
 70
    32
  0
VERTEX
  8
1250LEVEL
 62
7
 10
1130.747
 20
-2230.992
 30
3977.000
 70
    32
  0
VERTEX
  8
1250LEVEL
 62
7
 10
1097.428
 20
-2167.410
 30
3977.000
 70
    32
  0
VERTEX
  8
1250LEVEL
 62
7
 10
1072.846
 20
-2141.772
 30
3977.000
 70
    32
  0
VERTEX
  8
1250LEVEL
 62
7
 10
1012.823
 20
-2045.407
 30
3977.000
 70
    32
  0
VERTEX
  8
1250LEVEL
 62
7
 10
1010.426
 20
-1991.606
 30
3977.000
 70
    32
  0
VERTEX
  8
1250LEVEL
 62
7
 10
1031.642
 20
-2055.249
 30
3977.000
 70
    32
  0
VERTEX
  8
1250LEVEL
 62
7
 10
1072.820
 20
-2112.290
 30
3977.000
 70
    32
  0
VERTEX
  8
1250LEVEL
 62
7
 10
1113.752
 20
-2136.537
 30
3977.000
 70
    32
  0
VERTEX
  8
1250LEVEL
 62
7
 10
1130.271
 20
-2079.492
 30
3977.000
 70
    32
  0
VERTEX
  8
1250LEVEL
 62
7
 10
1152.648
 20
-2040.778
 30
3977.000
 70
    32
  0
VERTEX
  8
1250LEVEL
 62
7
 10
1129.840
 20
-2172.645
 30
3977.000
 70
    32
  0
VERTEX
  8
1250LEVEL
 62
7
 10
1138.571
 20
-2241.830
 30
3977.000
 70
    32
  0
VERTEX
  8
1250LEVEL
 62
7
 10
1157.542
 20
-2281.931
 30
3977.000
 70
    32
  0
VERTEX
  8
1250LEVEL
 62
7
 10
1184.537
 20
-2283.267
 30
3977.000
 70
    32
  0
VERTEX
  8
1250LEVEL
 62
7
 10
1201.350
 20
-2260.284
 30
3977.000
 70
    32
  0
VERTEX
  8
1250LEVEL
 62
7
 10
1258.221
 20
-2333.583
 30
3977.000
 70
    32
  0
VERTEX
  8
1250LEVEL
 62
7
 10
1518.944
 20
-2477.864
 30
3977.000
 70
    32
  0
VERTEX
  8
1250LEVEL
 62
7
 10
1553.665
 20
-2503.124
 30
3977.000
 70
    32
  0
VERTEX
  8
1250LEVEL
 62
7
 10
1608.558
 20
-2506.446
 30
3977.000
 70
    32
  0
VERTEX
  8
1250LEVEL
 62
7
 10
1618.685
 20
-2487.422
 30
3977.000
 70
    32
  0
VERTEX
  8
1250LEVEL
 62
7
 10
1584.274
 20
-2418.120
 30
3977.000
 70
    32
  0
VERTEX
  8
1250LEVEL
 62
7
 10
1596.207
 20
-2400.395
 30
3977.000
 70
    32
  0
VERTEX
  8
1250LEVEL
 62
7
 10
1555.868
 20
-2347.521
 30
3977.000
 70
    32
  0
VERTEX
  8
1250LEVEL
 62
7
 10
1520.538
 20
-2274.544
 30
3977.000
 70
    32
  0
VERTEX
  8
1250LEVEL
 62
7
 10
1498.408
 20
-2191.605
 30
3977.000
 70
    32
  0
VERTEX
  8
1250LEVEL
 62
7
 10
1460.054
 20
-2110.833
 30
3977.000
 70
    32
  0
VERTEX
  8
1250LEVEL
 62
7
 10
1486.420
 20
-2092.667
 30
3977.000
 70
    32
  0
VERTEX
  8
1250LEVEL
 62
7
 10
1525.067
 20
-2134.182
 30
3977.000
 70
    32
  0
VERTEX
  8
1250LEVEL
 62
7
 10
1622.273
 20
-2298.281
 30
3977.000
 70
    32
  0
VERTEX
  8
1250LEVEL
 62
7
 10
1688.689
 20
-2429.944
 30
3977.000
 70
    32
  0
VERTEX
  8
1250LEVEL
 62
7
 10
1791.011
 20
-2521.804
 30
3977.000
 70
    32
  0
VERTEX
  8
1250LEVEL
 62
7
 10
1830.043
 20
-2542.217
 30
3977.000
 70
    32
  0
VERTEX
  8
1250LEVEL
 62
7
 10
1874.891
 20
-2548.452
 30
3977.000
 70
    32
  0
VERTEX
  8
1250LEVEL
 62
7
 10
1929.332
 20
-2592.014
 30
3977.000
 70
    32
  0
VERTEX
  8
1250LEVEL
 62
7
 10
1986.653
 20
-2655.189
 30
3977.000
 70
    32
  0
VERTEX
  8
1250LEVEL
 62
7
 10
1972.053
 20
-2622.345
 30
3977.000
 70
    32
  0
VERTEX
  8
1250LEVEL
 62
7
 10
1898.057
 20
-2528.258
 30
3977.000
 70
    32
  0
VERTEX
  8
1250LEVEL
 62
7
 10
1914.045
 20
-2511.943
 30
3977.000
 70
    32
  0
VERTEX
  8
1250LEVEL
 62
7
 10
1905.753
 20
-2465.001
 30
3977.000
 70
    32
  0
VERTEX
  8
1250LEVEL
 62
7
 10
1863.724
 20
-2385.147
 30
3977.000
 70
    32
  0
VERTEX
  8
1250LEVEL
 62
7
 10
1802.255
 20
-2236.897
 30
3977.000
 70
    32
  0
VERTEX
  8
1250LEVEL
 62
7
 10
1740.852
 20
-1996.192
 30
3977.000
 70
    32
  0
VERTEX
  8
1250LEVEL
 62
7
 10
1778.391
 20
-2028.962
 30
3977.000
 70
    32
  0
VERTEX
  8
1250LEVEL
 62
7
 10
1781.851
 20
-2001.302
 30
3977.000
 70
    32
  0
VERTEX
  8
1250LEVEL
 62
7
 10
1724.970
 20
-1879.241
 30
3977.000
 70
    32
  0
VERTEX
  8
1250LEVEL
 62
7
 10
1732.329
 20
-1838.353
 30
3977.000
 70
    32
  0
VERTEX
  8
1250LEVEL
 62
7
 10
1658.961
 20
-1698.260
 30
3977.000
 70
    32
  0
VERTEX
  8
1250LEVEL
 62
7
 10
1660.138
 20
-1672.247
 30
3977.000
 70
    32
  0
VERTEX
  8
1250LEVEL
 62
7
 10
1677.783
 20
-1692.481
 30
3977.000
 70
    32
  0
VERTEX
  8
1250LEVEL
 62
7
 10
1745.815
 20
-1820.375
 30
3977.000
 70
    32
  0
VERTEX
  8
1250LEVEL
 62
7
 10
1763.530
 20
-1879.169
 30
3977.000
 70
    32
  0
VERTEX
  8
1250LEVEL
 62
7
 10
1811.729
 20
-1925.502
 30
3977.000
 70
    32
  0
VERTEX
  8
1250LEVEL
 62
7
 10
1932.085
 20
-1993.063
 30
3977.000
 70
    32
  0
VERTEX
  8
1250LEVEL
 62
7
 10
1937.026
 20
-1926.589
 30
3977.000
 70
    32
  0
VERTEX
  8
1250LEVEL
 62
7
 10
1955.870
 20
-1892.596
 30
3977.000
 70
    32
  0
VERTEX
  8
1250LEVEL
 62
7
 10
1957.376
 20
-1809.947
 30
3977.000
 70
    32
  0
VERTEX
  8
1250LEVEL
 62
7
 10
1895.956
 20
-1728.473
 30
3977.000
 70
    32
  0
VERTEX
  8
1250LEVEL
 62
7
 10
1857.413
 20
-1642.631
 30
3977.000
 70
    32
  0
VERTEX
  8
1250LEVEL
 62
7
 10
1724.326
 20
-1466.690
 30
3977.000
 70
    32
  0
VERTEX
  8
1250LEVEL
 62
7
 10
1701.275
 20
-1395.696
 30
3977.000
 70
    32
  0
VERTEX
  8
1250LEVEL
 62
7
 10
1736.389
 20
-1434.121
 30
3977.000
 70
    32
  0
VERTEX
  8
1250LEVEL
 62
7
 10
1770.477
 20
-1455.499
 30
3977.000
 70
    32
  0
VERTEX
  8
1250LEVEL
 62
7
 10
1827.194
 20
-1528.655
 30
3977.000
 70
    32
  0
VERTEX
  8
1250LEVEL
 62
7
 10
1957.080
 20
-1629.249
 30
3977.000
 70
    32
  0
VERTEX
  8
1250LEVEL
 62
7
 10
1992.360
 20
-1635.450
 30
3977.000
 70
    32
  0
VERTEX
  8
1250LEVEL
 62
7
 10
1990.910
 20
-1599.187
 30
3977.000
 70
    32
  0
VERTEX
  8
1250LEVEL
 62
7
 10
1888.720
 20
-1403.545
 30
3977.000
 70
    32
  0
VERTEX
  8
1250LEVEL
 62
7
 10
1804.149
 20
-1271.973
 30
3977.000
 70
    32
  0
VERTEX
  8
1250LEVEL
 62
7
 10
1827.181
 20
-1282.243
 30
3977.000
 70
    32
  0
VERTEX
  8
1250LEVEL
 62
7
 10
1846.408
 20
-1308.276
 30
3977.000
 70
    32
  0
VERTEX
  8
1250LEVEL
 62
7
 10
1886.991
 20
-1336.246
 30
3977.000
 70
    32
  0
VERTEX
  8
1250LEVEL
 62
7
 10
1929.045
 20
-1372.264
 30
3977.000
 70
    32
  0
VERTEX
  8
1250LEVEL
 62
7
 10
1977.414
 20
-1436.262
 30
3977.000
 70
    32
  0
VERTEX
  8
1250LEVEL
 62
7
 10
2034.692
 20
-1474.739
 30
3977.000
 70
    32
  0
VERTEX
  8
1250LEVEL
 62
7
 10
2058.963
 20
-1471.100
 30
3977.000
 70
    32
  0
VERTEX
  8
1250LEVEL
 62
7
 10
2037.255
 20
-1415.188
 30
3977.000
 70
    32
  0
VERTEX
  8
1250LEVEL
 62
7
 10
1949.486
 20
-1273.777
 30
3977.000
 70
    32
  0
VERTEX
  8
1250LEVEL
 62
7
 10
1915.063
 20
-1185.829
 30
3977.000
 70
    32
  0
VERTEX
  8
1250LEVEL
 62
7
 10
1907.630
 20
-1122.648
 30
3977.000
 70
    32
  0
VERTEX
  8
1250LEVEL
 62
7
 10
1926.094
 20
-1086.326
 30
3977.000
 70
    32
  0
VERTEX
  8
1250LEVEL
 62
7
 10
1957.603
 20
-1090.910
 30
3977.000
 70
    32
  0
VERTEX
  8
1250LEVEL
 62
7
 10
1980.121
 20
-1063.809
 30
3977.000
 70
    32
  0
VERTEX
  8
1250LEVEL
 62
7
 10
1989.512
 20
-1004.101
 30
3977.000
 70
    32
  0
VERTEX
  8
1250LEVEL
 62
7
 10
2017.519
 20
-1011.648
 30
3977.000
 70
    32
  0
VERTEX
  8
1250LEVEL
 62
7
 10
2051.472
 20
-997.983
 30
3977.000
 70
    32
  0
VERTEX
  8
1250LEVEL
 62
7
 10
2069.527
 20
-945.469
 30
3977.000
 70
    32
  0
VERTEX
  8
1250LEVEL
 62
7
 10
2095.174
 20
-955.154
 30
3977.000
 70
    32
  0
VERTEX
  8
1250LEVEL
 62
7
 10
2119.323
 20
-853.990
 30
3977.000
 70
    32
  0
VERTEX
  8
1250LEVEL
 62
7
 10
2147.268
 20
-857.243
 30
3977.000
 70
    32
  0
VERTEX
  8
1250LEVEL
 62
7
 10
2281.835
 20
-1229.946
 30
3977.000
 70
    32
  0
VERTEX
  8
1250LEVEL
 62
7
 10
2345.603
 20
-1371.764
 30
3977.000
 70
    32
  0
VERTEX
  8
1250LEVEL
 62
7
 10
2436.444
 20
-1522.237
 30
3977.000
 70
    32
  0
VERTEX
  8
1250LEVEL
 62
7
 10
2448.760
 20
-1491.221
 30
3977.000
 70
    32
  0
VERTEX
  8
1250LEVEL
 62
7
 10
2461.077
 20
-1379.075
 30
3977.000
 70
    32
  0
VERTEX
  8
1250LEVEL
 62
7
 10
2490.449
 20
-1373.489
 30
3977.000
 70
    32
  0
VERTEX
  8
1250LEVEL
 62
7
 10
2509.956
 20
-1349.429
 30
3977.000
 70
    32
  0
VERTEX
  8
1250LEVEL
 62
7
 10
2522.614
 20
-1272.612
 30
3977.000
 70
    32
  0
VERTEX
  8
1250LEVEL
 62
7
 10
2513.710
 20
-1201.383
 30
3977.000
 70
    32
  0
VERTEX
  8
1250LEVEL
 62
7
 10
2535.495
 20
-1191.296
 30
3977.000
 70
    32
  0
VERTEX
  8
1250LEVEL
 62
7
 10
2542.479
 20
-1124.648
 30
3977.000
 70
    32
  0
VERTEX
  8
1250LEVEL
 62
7
 10
2546.553
 20
-959.018
 30
3977.000
 70
    32
  0
SEQEND
  8
1250LEVEL
  0
POLYLINE
  8
1250LEVEL
 62
13
 66
     1
 70
     8
  0
VERTEX
  8
1250LEVEL
 62
13
 10
822.472
 20
-2224.037
 30
3977.000
 70
    32
  0
VERTEX
  8
1250LEVEL
 62
13
 10
878.356
 20
-2261.785
 30
3977.000
 70
    32
  0
VERTEX
  8
1250LEVEL
 62
13
 10
970.236
 20
-2366.823
 30
3977.000
 70
    32
  0
VERTEX
  8
1250LEVEL
 62
13
 10
1072.024
 20
-2515.033
 30
3977.000
 70
    32
  0
VERTEX
  8
1250LEVEL
 62
13
 10
1084.840
 20
-2518.363
 30
3977.000
 70
    32
  0
VERTEX
  8
1250LEVEL
 62
13
 10
1068.300
 20
-2441.366
 30
3977.000
 70
    32
  0
VERTEX
  8
1250LEVEL
 62
13
 10
1010.367
 20
-2353.904
 30
3977.000
 70
    32
  0
VERTEX
  8
1250LEVEL
 62
13
 10
1009.854
 20
-2382.040
 30
3977.000
 70
    32
  0
VERTEX
  8
1250LEVEL
 62
13
 10
988.027
 20
-2367.429
 30
3977.000
 70
    32
  0
VERTEX
  8
1250LEVEL
 62
13
 10
951.584
 20
-2316.948
 30
3977.000
 70
    32
  0
VERTEX
  8
1250LEVEL
 62
13
 10
852.066
 20
-2221.762
 30
3977.000
 70
    32
  0
VERTEX
  8
1250LEVEL
 62
13
 10
801.115
 20
-2156.592
 30
3977.000
 70
    32
  0
VERTEX
  8
1250LEVEL
 62
13
 10
836.899
 20
-2173.709
 30
3977.000
 70
    32
  0
VERTEX
  8
1250LEVEL
 62
13
 10
828.325
 20
-2111.352
 30
3977.000
 70
    32
  0
VERTEX
  8
1250LEVEL
 62
13
 10
861.197
 20
-2118.425
 30
3977.000
 70
    32
  0
VERTEX
  8
1250LEVEL
 62
13
 10
878.770
 20
-2173.417
 30
3977.000
 70
    32
  0
VERTEX
  8
1250LEVEL
 62
13
 10
865.506
 20
-2194.706
 30
3977.000
 70
    32
  0
VERTEX
  8
1250LEVEL
 62
13
 10
903.169
 20
-2243.873
 30
3977.000
 70
    32
  0
VERTEX
  8
1250LEVEL
 62
13
 10
931.666
 20
-2259.309
 30
3977.000
 70
    32
  0
VERTEX
  8
1250LEVEL
 62
13
 10
954.560
 20
-2250.157
 30
3977.000
 70
    32
  0
VERTEX
  8
1250LEVEL
 62
13
 10
931.868
 20
-2201.897
 30
3977.000
 70
    32
  0
VERTEX
  8
1250LEVEL
 62
13
 10
936.578
 20
-2178.974
 30
3977.000
 70
    32
  0
VERTEX
  8
1250LEVEL
 62
13
 10
948.268
 20
-2186.153
 30
3977.000
 70
    32
  0
VERTEX
  8
1250LEVEL
 62
13
 10
967.613
 20
-2178.695
 30
3977.000
 70
    32
  0
VERTEX
  8
1250LEVEL
 62
13
 10
993.905
 20
-2210.908
 30
3977.000
 70
    32
  0
VERTEX
  8
1250LEVEL
 62
13
 10
1010.496
 20
-2192.423
 30
3977.000
 70
    32
  0
VERTEX
  8
1250LEVEL
 62
13
 10
1011.580
 20
-2156.065
 30
3977.000
 70
    32
  0
VERTEX
  8
1250LEVEL
 62
13
 10
966.593
 20
-2057.089
 30
3977.000
 70
    32
  0
VERTEX
  8
1250LEVEL
 62
13
 10
956.651
 20
-1942.357
 30
3977.000
 70
    32
  0
VERTEX
  8
1250LEVEL
 62
13
 10
981.096
 20
-1867.443
 30
3977.000
 70
    32
  0
VERTEX
  8
1250LEVEL
 62
13
 10
1033.605
 20
-1827.801
 30
3977.000
 70
    32
  0
VERTEX
  8
1250LEVEL
 62
13
 10
1071.106
 20
-1893.570
 30
3977.000
 70
    32
  0
VERTEX
  8
1250LEVEL
 62
13
 10
1100.793
 20
-1901.640
 30
3977.000
 70
    32
  0
VERTEX
  8
1250LEVEL
 62
13
 10
1168.876
 20
-2015.180
 30
3977.000
 70
    32
  0
VERTEX
  8
1250LEVEL
 62
13
 10
1181.429
 20
-2063.819
 30
3977.000
 70
    32
  0
VERTEX
  8
1250LEVEL
 62
13
 10
1202.572
 20
-2096.712
 30
3977.000
 70
    32
  0
VERTEX
  8
1250LEVEL
 62
13
 10
1195.326
 20
-2127.539
 30
3977.000
 70
    32
  0
VERTEX
  8
1250LEVEL
 62
13
 10
1173.858
 20
-2135.662
 30
3977.000
 70
    32
  0
VERTEX
  8
1250LEVEL
 62
13
 10
1163.887
 20
-2161.515
 30
3977.000
 70
    32
  0
VERTEX
  8
1250LEVEL
 62
13
 10
1189.796
 20
-2207.019
 30
3977.000
 70
    32
  0
VERTEX
  8
1250LEVEL
 62
13
 10
1202.183
 20
-2214.563
 30
3977.000
 70
    32
  0
VERTEX
  8
1250LEVEL
 62
13
 10
1216.950
 20
-2207.373
 30
3977.000
 70
    32
  0
VERTEX
  8
1250LEVEL
 62
13
 10
1213.664
 20
-2237.077
 30
3977.000
 70
    32
  0
VERTEX
  8
1250LEVEL
 62
13
 10
1253.815
 20
-2284.882
 30
3977.000
 70
    32
  0
VERTEX
  8
1250LEVEL
 62
13
 10
1458.110
 20
-2399.004
 30
3977.000
 70
    32
  0
VERTEX
  8
1250LEVEL
 62
13
 10
1523.003
 20
-2463.654
 30
3977.000
 70
    32
  0
VERTEX
  8
1250LEVEL
 62
13
 10
1497.838
 20
-2419.782
 30
3977.000
 70
    32
  0
VERTEX
  8
1250LEVEL
 62
13
 10
1459.268
 20
-2312.268
 30
3977.000
 70
    32
  0
VERTEX
  8
1250LEVEL
 62
13
 10
1417.967
 20
-2238.830
 30
3977.000
 70
    32
  0
VERTEX
  8
1250LEVEL
 62
13
 10
1440.358
 20
-2210.952
 30
3977.000
 70
    32
  0
VERTEX
  8
1250LEVEL
 62
13
 10
1424.394
 20
-2110.112
 30
3977.000
 70
    32
  0
VERTEX
  8
1250LEVEL
 62
13
 10
1396.931
 20
-2072.671
 30
3977.000
 70
    32
  0
VERTEX
  8
1250LEVEL
 62
13
 10
1358.128
 20
-1943.200
 30
3977.000
 70
    32
  0
VERTEX
  8
1250LEVEL
 62
13
 10
1358.107
 20
-1890.286
 30
3977.000
 70
    32
  0
VERTEX
  8
1250LEVEL
 62
13
 10
1373.852
 20
-1898.876
 30
3977.000
 70
    32
  0
VERTEX
  8
1250LEVEL
 62
13
 10
1370.264
 20
-1860.252
 30
3977.000
 70
    32
  0
VERTEX
  8
1250LEVEL
 62
13
 10
1355.016
 20
-1820.500
 30
3977.000
 70
    32
  0
VERTEX
  8
1250LEVEL
 62
13
 10
1369.022
 20
-1816.463
 30
3977.000
 70
    32
  0
VERTEX
  8
1250LEVEL
 62
13
 10
1380.326
 20
-1852.554
 30
3977.000
 70
    32
  0
VERTEX
  8
1250LEVEL
 62
13
 10
1404.275
 20
-1874.311
 30
3977.000
 70
    32
  0
VERTEX
  8
1250LEVEL
 62
13
 10
1433.017
 20
-1930.351
 30
3977.000
 70
    32
  0
VERTEX
  8
1250LEVEL
 62
13
 10
1444.630
 20
-1930.211
 30
3977.000
 70
    32
  0
VERTEX
  8
1250LEVEL
 62
13
 10
1457.771
 20
-1965.843
 30
3977.000
 70
    32
  0
VERTEX
  8
1250LEVEL
 62
13
 10
1563.399
 20
-2088.722
 30
3977.000
 70
    32
  0
VERTEX
  8
1250LEVEL
 62
13
 10
1602.705
 20
-2155.791
 30
3977.000
 70
    32
  0
VERTEX
  8
1250LEVEL
 62
13
 10
1630.732
 20
-2224.061
 30
3977.000
 70
    32
  0
VERTEX
  8
1250LEVEL
 62
13
 10
1692.485
 20
-2306.597
 30
3977.000
 70
    32
  0
VERTEX
  8
1250LEVEL
 62
13
 10
1718.211
 20
-2315.791
 30
3977.000
 70
    32
  0
VERTEX
  8
1250LEVEL
 62
13
 10
1636.421
 20
-2216.918
 30
3977.000
 70
    32
  0
VERTEX
  8
1250LEVEL
 62
13
 10
1633.768
 20
-2177.184
 30
3977.000
 70
    32
  0
VERTEX
  8
1250LEVEL
 62
13
 10
1668.418
 20
-2163.884
 30
3977.000
 70
    32
  0
VERTEX
  8
1250LEVEL
 62
13
 10
1710.566
 20
-2202.437
 30
3977.000
 70
    32
  0
VERTEX
  8
1250LEVEL
 62
13
 10
1719.819
 20
-2196.625
 30
3977.000
 70
    32
  0
VERTEX
  8
1250LEVEL
 62
13
 10
1741.254
 20
-2198.071
 30
3977.000
 70
    32
  0
VERTEX
  8
1250LEVEL
 62
13
 10
1743.380
 20
-2181.785
 30
3977.000
 70
    32
  0
VERTEX
  8
1250LEVEL
 62
13
 10
1732.328
 20
-2155.057
 30
3977.000
 70
    32
  0
VERTEX
  8
1250LEVEL
 62
13
 10
1748.869
 20
-2143.115
 30
3977.000
 70
    32
  0
VERTEX
  8
1250LEVEL
 62
13
 10
1728.813
 20
-2066.054
 30
3977.000
 70
    32
  0
VERTEX
  8
1250LEVEL
 62
13
 10
1679.566
 20
-1957.572
 30
3977.000
 70
    32
  0
VERTEX
  8
1250LEVEL
 62
13
 10
1608.919
 20
-1830.264
 30
3977.000
 70
    32
  0
VERTEX
  8
1250LEVEL
 62
13
 10
1599.867
 20
-1786.474
 30
3977.000
 70
    32
  0
VERTEX
  8
1250LEVEL
 62
13
 10
1616.488
 20
-1774.041
 30
3977.000
 70
    32
  0
VERTEX
  8
1250LEVEL
 62
13
 10
1588.454
 20
-1663.693
 30
3977.000
 70
    32
  0
VERTEX
  8
1250LEVEL
 62
13
 10
1608.671
 20
-1650.834
 30
3977.000
 70
    32
  0
VERTEX
  8
1250LEVEL
 62
13
 10
1620.764
 20
-1624.316
 30
3977.000
 70
    32
  0
VERTEX
  8
1250LEVEL
 62
13
 10
1651.912
 20
-1613.977
 30
3977.000
 70
    32
  0
VERTEX
  8
1250LEVEL
 62
13
 10
1707.790
 20
-1682.966
 30
3977.000
 70
    32
  0
VERTEX
  8
1250LEVEL
 62
13
 10
1744.167
 20
-1744.775
 30
3977.000
 70
    32
  0
VERTEX
  8
1250LEVEL
 62
13
 10
1777.115
 20
-1840.295
 30
3977.000
 70
    32
  0
VERTEX
  8
1250LEVEL
 62
13
 10
1808.156
 20
-1889.904
 30
3977.000
 70
    32
  0
VERTEX
  8
1250LEVEL
 62
13
 10
1815.762
 20
-1881.810
 30
3977.000
 70
    32
  0
VERTEX
  8
1250LEVEL
 62
13
 10
1792.782
 20
-1849.376
 30
3977.000
 70
    32
  0
VERTEX
  8
1250LEVEL
 62
13
 10
1768.036
 20
-1693.704
 30
3977.000
 70
    32
  0
VERTEX
  8
1250LEVEL
 62
13
 10
1722.980
 20
-1621.675
 30
3977.000
 70
    32
  0
VERTEX
  8
1250LEVEL
 62
13
 10
1640.570
 20
-1456.439
 30
3977.000
 70
    32
  0
VERTEX
  8
1250LEVEL
 62
13
 10
1624.458
 20
-1383.038
 30
3977.000
 70
    32
  0
VERTEX
  8
1250LEVEL
 62
13
 10
1526.537
 20
-1150.040
 30
3977.000
 70
    32
  0
VERTEX
  8
1250LEVEL
 62
13
 10
1515.431
 20
-1072.157
 30
3977.000
 70
    32
  0
VERTEX
  8
1250LEVEL
 62
13
 10
1540.179
 20
-1065.572
 30
3977.000
 70
    32
  0
VERTEX
  8
1250LEVEL
 62
13
 10
1689.746
 20
-1298.596
 30
3977.000
 70
    32
  0
VERTEX
  8
1250LEVEL
 62
13
 10
1832.220
 20
-1430.449
 30
3977.000
 70
    32
  0
VERTEX
  8
1250LEVEL
 62
13
 10
1702.890
 20
-1090.842
 30
3977.000
 70
    32
  0
VERTEX
  8
1250LEVEL
 62
13
 10
1694.189
 20
-954.390
 30
3977.000
 70
    32
  0
VERTEX
  8
1250LEVEL
 62
13
 10
1726.219
 20
-891.788
 30
3977.000
 70
    32
  0
VERTEX
  8
1250LEVEL
 62
13
 10
1761.388
 20
-819.111
 30
3977.000
 70
    32
  0
VERTEX
  8
1250LEVEL
 62
13
 10
1850.444
 20
-712.304
 30
3977.000
 70
    32
  0
VERTEX
  8
1250LEVEL
 62
13
 10
1874.602
 20
-718.725
 30
3977.000
 70
    32
  0
VERTEX
  8
1250LEVEL
 62
13
 10
1962.135
 20
-699.352
 30
3977.000
 70
    32
  0
VERTEX
  8
1250LEVEL
 62
13
 10
1967.349
 20
-614.026
 30
3977.000
 70
    32
  0
VERTEX
  8
1250LEVEL
 62
13
 10
1984.692
 20
-558.122
 30
3977.000
 70
    32
  0
VERTEX
  8
1250LEVEL
 62
13
 10
2022.471
 20
-508.290
 30
3977.000
 70
    32
  0
VERTEX
  8
1250LEVEL
 62
13
 10
2075.503
 20
-466.968
 30
3977.000
 70
    32
  0
VERTEX
  8
1250LEVEL
 62
13
 10
2117.184
 20
-469.417
 30
3977.000
 70
    32
  0
VERTEX
  8
1250LEVEL
 62
13
 10
2153.883
 20
-505.830
 30
3977.000
 70
    32
  0
VERTEX
  8
1250LEVEL
 62
13
 10
2171.209
 20
-535.839
 30
3977.000
 70
    32
  0
VERTEX
  8
1250LEVEL
 62
13
 10
2158.769
 20
-550.459
 30
3977.000
 70
    32
  0
VERTEX
  8
1250LEVEL
 62
13
 10
2132.572
 20
-520.781
 30
3977.000
 70
    32
  0
VERTEX
  8
1250LEVEL
 62
13
 10
2093.757
 20
-527.110
 30
3977.000
 70
    32
  0
VERTEX
  8
1250LEVEL
 62
13
 10
2030.440
 20
-580.628
 30
3977.000
 70
    32
  0
VERTEX
  8
1250LEVEL
 62
13
 10
2031.683
 20
-624.416
 30
3977.000
 70
    32
  0
VERTEX
  8
1250LEVEL
 62
13
 10
1989.971
 20
-697.045
 30
3977.000
 70
    32
  0
VERTEX
  8
1250LEVEL
 62
13
 10
1934.136
 20
-726.072
 30
3977.000
 70
    32
  0
VERTEX
  8
1250LEVEL
 62
13
 10
1886.784
 20
-725.983
 30
3977.000
 70
    32
  0
VERTEX
  8
1250LEVEL
 62
13
 10
1840.218
 20
-752.225
 30
3977.000
 70
    32
  0
VERTEX
  8
1250LEVEL
 62
13
 10
1769.450
 20
-828.475
 30
3977.000
 70
    32
  0
VERTEX
  8
1250LEVEL
 62
13
 10
1748.575
 20
-881.289
 30
3977.000
 70
    32
  0
VERTEX
  8
1250LEVEL
 62
13
 10
1744.685
 20
-920.973
 30
3977.000
 70
    32
  0
VERTEX
  8
1250LEVEL
 62
13
 10
1729.397
 20
-922.032
 30
3977.000
 70
    32
  0
VERTEX
  8
1250LEVEL
 62
13
 10
1717.685
 20
-951.903
 30
3977.000
 70
    32
  0
VERTEX
  8
1250LEVEL
 62
13
 10
1721.293
 20
-1042.416
 30
3977.000
 70
    32
  0
VERTEX
  8
1250LEVEL
 62
13
 10
1784.897
 20
-1208.647
 30
3977.000
 70
    32
  0
VERTEX
  8
1250LEVEL
 62
13
 10
1802.936
 20
-1234.236
 30
3977.000
 70
    32
  0
VERTEX
  8
1250LEVEL
 62
13
 10
1817.161
 20
-1241.320
 30
3977.000
 70
    32
  0
VERTEX
  8
1250LEVEL
 62
13
 10
1859.786
 20
-1276.927
 30
3977.000
 70
    32
  0
VERTEX
  8
1250LEVEL
 62
13
 10
1865.053
 20
-1242.756
 30
3977.000
 70
    32
  0
VERTEX
  8
1250LEVEL
 62
13
 10
1850.884
 20
-1116.759
 30
3977.000
 70
    32
  0
VERTEX
  8
1250LEVEL
 62
13
 10
1851.179
 20
-988.563
 30
3977.000
 70
    32
  0
VERTEX
  8
1250LEVEL
 62
13
 10
1881.922
 20
-946.413
 30
3977.000
 70
    32
  0
VERTEX
  8
1250LEVEL
 62
13
 10
1916.036
 20
-997.274
 30
3977.000
 70
    32
  0
VERTEX
  8
1250LEVEL
 62
13
 10
1942.700
 20
-989.738
 30
3977.000
 70
    32
  0
VERTEX
  8
1250LEVEL
 62
13
 10
1969.239
 20
-900.298
 30
3977.000
 70
    32
  0
VERTEX
  8
1250LEVEL
 62
13
 10
1984.051
 20
-902.186
 30
3977.000
 70
    32
  0
VERTEX
  8
1250LEVEL
 62
13
 10
2006.161
 20
-932.212
 30
3977.000
 70
    32
  0
VERTEX
  8
1250LEVEL
 62
13
 10
2019.803
 20
-921.062
 30
3977.000
 70
    32
  0
VERTEX
  8
1250LEVEL
 62
13
 10
2020.020
 20
-866.675
 30
3977.000
 70
    32
  0
VERTEX
  8
1250LEVEL
 62
13
 10
2032.638
 20
-830.668
 30
3977.000
 70
    32
  0
VERTEX
  8
1250LEVEL
 62
13
 10
2045.451
 20
-849.618
 30
3977.000
 70
    32
  0
VERTEX
  8
1250LEVEL
 62
13
 10
2067.314
 20
-846.850
 30
3977.000
 70
    32
  0
VERTEX
  8
1250LEVEL
 62
13
 10
2076.386
 20
-796.917
 30
3977.000
 70
    32
  0
VERTEX
  8
1250LEVEL
 62
13
 10
2105.970
 20
-768.185
 30
3977.000
 70
    32
  0
VERTEX
  8
1250LEVEL
 62
13
 10
2120.333
 20
-794.692
 30
3977.000
 70
    32
  0
VERTEX
  8
1250LEVEL
 62
13
 10
2155.042
 20
-801.306
 30
3977.000
 70
    32
  0
VERTEX
  8
1250LEVEL
 62
13
 10
2169.335
 20
-862.571
 30
3977.000
 70
    32
  0
VERTEX
  8
1250LEVEL
 62
13
 10
2202.018
 20
-937.892
 30
3977.000
 70
    32
  0
VERTEX
  8
1250LEVEL
 62
13
 10
2255.136
 20
-1100.414
 30
3977.000
 70
    32
  0
VERTEX
  8
1250LEVEL
 62
13
 10
2348.922
 20
-1332.492
 30
3977.000
 70
    32
  0
VERTEX
  8
1250LEVEL
 62
13
 10
2380.566
 20
-1379.930
 30
3977.000
 70
    32
  0
VERTEX
  8
1250LEVEL
 62
13
 10
2399.075
 20
-1352.685
 30
3977.000
 70
    32
  0
VERTEX
  8
1250LEVEL
 62
13
 10
2427.419
 20
-1264.544
 30
3977.000
 70
    32
  0
VERTEX
  8
1250LEVEL
 62
13
 10
2459.091
 20
-1252.526
 30
3977.000
 70
    32
  0
VERTEX
  8
1250LEVEL
 62
13
 10
2469.175
 20
-1208.804
 30
3977.000
 70
    32
  0
VERTEX
  8
1250LEVEL
 62
13
 10
2470.774
 20
-1136.499
 30
3977.000
 70
    32
  0
VERTEX
  8
1250LEVEL
 62
13
 10
2494.811
 20
-1118.713
 30
3977.000
 70
    32
  0
VERTEX
  8
1250LEVEL
 62
13
 10
2511.655
 20
-947.335
 30
3977.000
 70
    32
  0
SEQEND
  8
1250LEVEL
  0
POLYLINE
  8
1250LEVEL
 62
7
 66
     1
 70
     8
  0
VERTEX
  8
1250LEVEL
 62
7
 10
-123.981
 20
-1301.217
 30
3977.000
 70
    32
  0
VERTEX
  8
1250LEVEL
 62
7
 10
-44.695
 20
-1479.554
 30
3977.000
 70
    32
  0
VERTEX
  8
1250LEVEL
 62
7
 10
228.234
 20
-1954.976
 30
3977.000
 70
    32
  0
VERTEX
  8
1250LEVEL
 62
7
 10
524.674
 20
-2348.782
 30
3977.000
 70
    32
  0
VERTEX
  8
1250LEVEL
 62
7
 10
599.362
 20
-2466.664
 30
3977.000
 70
    32
  0
VERTEX
  8
1250LEVEL
 62
7
 10
631.680
 20
-2469.364
 30
3977.000
 70
    32
  0
VERTEX
  8
1250LEVEL
 62
7
 10
624.941
 20
-2422.169
 30
3977.000
 70
    32
  0
VERTEX
  8
1250LEVEL
 62
7
 10
668.762
 20
-2492.486
 30
3977.000
 70
    32
  0
VERTEX
  8
1250LEVEL
 62
7
 10
808.499
 20
-2762.975
 30
3977.000
 70
    32
  0
VERTEX
  8
1250LEVEL
 62
7
 10
973.272
 20
-3011.052
 30
3977.000
 70
    32
  0
VERTEX
  8
1250LEVEL
 62
7
 10
1019.585
 20
-3056.577
 30
3977.000
 70
    32
  0
VERTEX
  8
1250LEVEL
 62
7
 10
1036.063
 20
-3048.152
 30
3977.000
 70
    32
  0
VERTEX
  8
1250LEVEL
 62
7
 10
1013.826
 20
-2944.032
 30
3977.000
 70
    32
  0
VERTEX
  8
1250LEVEL
 62
7
 10
1031.701
 20
-2920.716
 30
3977.000
 70
    32
  0
VERTEX
  8
1250LEVEL
 62
7
 10
1135.502
 20
-3062.700
 30
3977.000
 70
    32
  0
VERTEX
  8
1250LEVEL
 62
7
 10
1465.233
 20
-3660.674
 30
3977.000
 70
    32
  0
VERTEX
  8
1250LEVEL
 62
7
 10
1524.170
 20
-3793.397
 30
3977.000
 70
    32
  0
VERTEX
  8
1250LEVEL
 62
7
 10
1645.666
 20
-4022.391
 30
3977.000
 70
    32
  0
VERTEX
  8
1250LEVEL
 62
7
 10
1787.974
 20
-4348.725
 30
3977.000
 70
    32
  0
VERTEX
  8
1250LEVEL
 62
7
 10
1935.208
 20
-4369.984
 30
3977.000
 70
    32
  0
VERTEX
  8
1250LEVEL
 62
7
 10
1983.017
 20
-4460.850
 30
3977.000
 70
    32
  0
VERTEX
  8
1250LEVEL
 62
7
 10
1992.064
 20
-4454.753
 30
3977.000
 70
    32
  0
VERTEX
  8
1250LEVEL
 62
7
 10
2011.610
 20
-4471.011
 30
3977.000
 70
    32
  0
VERTEX
  8
1250LEVEL
 62
7
 10
1999.338
 20
-4445.597
 30
3977.000
 70
    32
  0
VERTEX
  8
1250LEVEL
 62
7
 10
2013.105
 20
-4443.034
 30
3977.000
 70
    32
  0
VERTEX
  8
1250LEVEL
 62
7
 10
2016.199
 20
-4423.881
 30
3977.000
 70
    32
  0
VERTEX
  8
1250LEVEL
 62
7
 10
2001.219
 20
-4388.708
 30
3977.000
 70
    32
  0
VERTEX
  8
1250LEVEL
 62
7
 10
1971.616
 20
-4356.716
 30
3977.000
 70
    32
  0
VERTEX
  8
1250LEVEL
 62
7
 10
1917.926
 20
-4283.545
 30
3977.000
 70
    32
  0
VERTEX
  8
1250LEVEL
 62
7
 10
1940.104
 20
-4286.623
 30
3977.000
 70
    32
  0
VERTEX
  8
1250LEVEL
 62
7
 10
1973.018
 20
-4318.394
 30
3977.000
 70
    32
  0
VERTEX
  8
1250LEVEL
 62
7
 10
1946.715
 20
-4267.534
 30
3977.000
 70
    32
  0
VERTEX
  8
1250LEVEL
 62
7
 10
2004.319
 20
-4338.314
 30
3977.000
 70
    32
  0
VERTEX
  8
1250LEVEL
 62
7
 10
2018.477
 20
-4341.576
 30
3977.000
 70
    32
  0
VERTEX
  8
1250LEVEL
 62
7
 10
2051.880
 20
-4477.515
 30
3977.000
 70
    32
  0
VERTEX
  8
1250LEVEL
 62
7
 10
2070.254
 20
-4496.355
 30
3977.000
 70
    32
  0
VERTEX
  8
1250LEVEL
 62
7
 10
2081.183
 20
-4506.686
 30
3977.000
 70
    32
  0
VERTEX
  8
1250LEVEL
 62
7
 10
2091.076
 20
-4546.833
 30
3977.000
 70
    32
  0
VERTEX
  8
1250LEVEL
 62
7
 10
2164.802
 20
-4644.152
 30
3977.000
 70
    32
  0
VERTEX
  8
1250LEVEL
 62
7
 10
2165.506
 20
-4686.593
 30
3977.000
 70
    32
  0
VERTEX
  8
1250LEVEL
 62
7
 10
2196.194
 20
-4755.546
 30
3977.000
 70
    32
  0
VERTEX
  8
1250LEVEL
 62
7
 10
2212.937
 20
-4767.320
 30
3977.000
 70
    32
  0
VERTEX
  8
1250LEVEL
 62
7
 10
2191.259
 20
-4717.460
 30
3977.000
 70
    32
  0
VERTEX
  8
1250LEVEL
 62
7
 10
2186.566
 20
-4662.280
 30
3977.000
 70
    32
  0
VERTEX
  8
1250LEVEL
 62
7
 10
2185.546
 20
-4613.992
 30
3977.000
 70
    32
  0
VERTEX
  8
1250LEVEL
 62
7
 10
2197.453
 20
-4566.784
 30
3977.000
 70
    32
  0
VERTEX
  8
1250LEVEL
 62
7
 10
2154.732
 20
-4463.135
 30
3977.000
 70
    32
  0
VERTEX
  8
1250LEVEL
 62
7
 10
2184.574
 20
-4485.843
 30
3977.000
 70
    32
  0
VERTEX
  8
1250LEVEL
 62
7
 10
2115.887
 20
-4382.284
 30
3977.000
 70
    32
  0
VERTEX
  8
1250LEVEL
 62
7
 10
2113.155
 20
-4343.042
 30
3977.000
 70
    32
  0
VERTEX
  8
1250LEVEL
 62
7
 10
2132.218
 20
-4320.169
 30
3977.000
 70
    32
  0
VERTEX
  8
1250LEVEL
 62
7
 10
2142.188
 20
-4367.635
 30
3977.000
 70
    32
  0
VERTEX
  8
1250LEVEL
 62
7
 10
2200.247
 20
-4463.683
 30
3977.000
 70
    32
  0
VERTEX
  8
1250LEVEL
 62
7
 10
2217.123
 20
-4518.311
 30
3977.000
 70
    32
  0
VERTEX
  8
1250LEVEL
 62
7
 10
2254.980
 20
-4549.116
 30
3977.000
 70
    32
  0
VERTEX
  8
1250LEVEL
 62
7
 10
2305.883
 20
-4620.829
 30
3977.000
 70
    32
  0
VERTEX
  8
1250LEVEL
 62
7
 10
2278.526
 20
-4531.251
 30
3977.000
 70
    32
  0
VERTEX
  8
1250LEVEL
 62
7
 10
2274.922
 20
-4489.601
 30
3977.000
 70
    32
  0
VERTEX
  8
1250LEVEL
 62
7
 10
2254.557
 20
-4448.771
 30
3977.000
 70
    32
  0
VERTEX
  8
1250LEVEL
 62
7
 10
2169.381
 20
-4334.989
 30
3977.000
 70
    32
  0
VERTEX
  8
1250LEVEL
 62
7
 10
2177.051
 20
-4323.379
 30
3977.000
 70
    32
  0
VERTEX
  8
1250LEVEL
 62
7
 10
2231.911
 20
-4409.588
 30
3977.000
 70
    32
  0
VERTEX
  8
1250LEVEL
 62
7
 10
2233.959
 20
-4385.983
 30
3977.000
 70
    32
  0
VERTEX
  8
1250LEVEL
 62
7
 10
2299.217
 20
-4449.936
 30
3977.000
 70
    32
  0
VERTEX
  8
1250LEVEL
 62
7
 10
2327.669
 20
-4529.613
 30
3977.000
 70
    32
  0
VERTEX
  8
1250LEVEL
 62
7
 10
2344.474
 20
-4545.681
 30
3977.000
 70
    32
  0
VERTEX
  8
1250LEVEL
 62
7
 10
2333.486
 20
-4515.436
 30
3977.000
 70
    32
  0
VERTEX
  8
1250LEVEL
 62
7
 10
2357.545
 20
-4542.753
 30
3977.000
 70
    32
  0
VERTEX
  8
1250LEVEL
 62
7
 10
2329.634
 20
-4448.802
 30
3977.000
 70
    32
  0
VERTEX
  8
1250LEVEL
 62
7
 10
2302.190
 20
-4398.766
 30
3977.000
 70
    32
  0
VERTEX
  8
1250LEVEL
 62
7
 10
2221.050
 20
-4298.990
 30
3977.000
 70
    32
  0
VERTEX
  8
1250LEVEL
 62
7
 10
2218.314
 20
-4275.369
 30
3977.000
 70
    32
  0
VERTEX
  8
1250LEVEL
 62
7
 10
2230.861
 20
-4274.120
 30
3977.000
 70
    32
  0
VERTEX
  8
1250LEVEL
 62
7
 10
2252.607
 20
-4304.843
 30
3977.000
 70
    32
  0
VERTEX
  8
1250LEVEL
 62
7
 10
2275.767
 20
-4308.079
 30
3977.000
 70
    32
  0
VERTEX
  8
1250LEVEL
 62
7
 10
2273.810
 20
-4276.521
 30
3977.000
 70
    32
  0
VERTEX
  8
1250LEVEL
 62
7
 10
2260.096
 20
-4249.111
 30
3977.000
 70
    32
  0
VERTEX
  8
1250LEVEL
 62
7
 10
2269.190
 20
-4244.281
 30
3977.000
 70
    32
  0
VERTEX
  8
1250LEVEL
 62
7
 10
2284.175
 20
-4256.023
 30
3977.000
 70
    32
  0
VERTEX
  8
1250LEVEL
 62
7
 10
2235.841
 20
-4174.647
 30
3977.000
 70
    32
  0
VERTEX
  8
1250LEVEL
 62
7
 10
2180.358
 20
-4111.013
 30
3977.000
 70
    32
  0
SEQEND
  8
1250LEVEL
  0
POLYLINE
  8
1250LEVEL
 62
13
 66
     1
 70
     8
  0
VERTEX
  8
1250LEVEL
 62
13
 10
-140.516
 20
-1030.043
 30
3977.000
 70
    32
  0
VERTEX
  8
1250LEVEL
 62
13
 10
-83.694
 20
-1302.936
 30
3977.000
 70
    32
  0
VERTEX
  8
1250LEVEL
 62
13
 10
88.306
 20
-1687.227
 30
3977.000
 70
    32
  0
VERTEX
  8
1250LEVEL
 62
13
 10
190.849
 20
-1863.526
 30
3977.000
 70
    32
  0
VERTEX
  8
1250LEVEL
 62
13
 10
547.026
 20
-2353.904
 30
3977.000
 70
    32
  0
VERTEX
  8
1250LEVEL
 62
13
 10
594.636
 20
-2413.243
 30
3977.000
 70
    32
  0
VERTEX
  8
1250LEVEL
 62
13
 10
583.013
 20
-2313.608
 30
3977.000
 70
    32
  0
VERTEX
  8
1250LEVEL
 62
13
 10
626.376
 20
-2374.277
 30
3977.000
 70
    32
  0
VERTEX
  8
1250LEVEL
 62
13
 10
841.413
 20
-2794.746
 30
3977.000
 70
    32
  0
VERTEX
  8
1250LEVEL
 62
13
 10
899.761
 20
-2867.157
 30
3977.000
 70
    32
  0
VERTEX
  8
1250LEVEL
 62
13
 10
960.080
 20
-2908.645
 30
3977.000
 70
    32
  0
VERTEX
  8
1250LEVEL
 62
13
 10
979.125
 20
-2898.367
 30
3977.000
 70
    32
  0
VERTEX
  8
1250LEVEL
 62
13
 10
969.584
 20
-2838.877
 30
3977.000
 70
    32
  0
VERTEX
  8
1250LEVEL
 62
13
 10
978.560
 20
-2794.219
 30
3977.000
 70
    32
  0
VERTEX
  8
1250LEVEL
 62
13
 10
1088.997
 20
-2946.598
 30
3977.000
 70
    32
  0
VERTEX
  8
1250LEVEL
 62
13
 10
1231.230
 20
-3176.674
 30
3977.000
 70
    32
  0
VERTEX
  8
1250LEVEL
 62
13
 10
1372.332
 20
-3434.030
 30
3977.000
 70
    32
  0
VERTEX
  8
1250LEVEL
 62
13
 10
1561.251
 20
-3824.329
 30
3977.000
 70
    32
  0
VERTEX
  8
1250LEVEL
 62
13
 10
1693.409
 20
-4051.266
 30
3977.000
 70
    32
  0
VERTEX
  8
1250LEVEL
 62
13
 10
1875.325
 20
-4211.913
 30
3977.000
 70
    32
  0
VERTEX
  8
1250LEVEL
 62
13
 10
1880.922
 20
-4186.614
 30
3977.000
 70
    32
  0
VERTEX
  8
1250LEVEL
 62
13
 10
1958.712
 20
-4246.292
 30
3977.000
 70
    32
  0
VERTEX
  8
1250LEVEL
 62
13
 10
2005.513
 20
-4307.517
 30
3977.000
 70
    32
  0
VERTEX
  8
1250LEVEL
 62
13
 10
2051.658
 20
-4327.567
 30
3977.000
 70
    32
  0
VERTEX
  8
1250LEVEL
 62
13
 10
2070.809
 20
-4338.470
 30
3977.000
 70
    32
  0
VERTEX
  8
1250LEVEL
 62
13
 10
2102.194
 20
-4407.787
 30
3977.000
 70
    32
  0
VERTEX
  8
1250LEVEL
 62
13
 10
2095.548
 20
-4370.936
 30
3977.000
 70
    32
  0
VERTEX
  8
1250LEVEL
 62
13
 10
2076.640
 20
-4335.129
 30
3977.000
 70
    32
  0
VERTEX
  8
1250LEVEL
 62
13
 10
2048.890
 20
-4305.704
 30
3977.000
 70
    32
  0
VERTEX
  8
1250LEVEL
 62
13
 10
2002.683
 20
-4281.360
 30
3977.000
 70
    32
  0
VERTEX
  8
1250LEVEL
 62
13
 10
1952.210
 20
-4197.623
 30
3977.000
 70
    32
  0
VERTEX
  8
1250LEVEL
 62
13
 10
1925.190
 20
-4166.804
 30
3977.000
 70
    32
  0
VERTEX
  8
1250LEVEL
 62
13
 10
1911.990
 20
-4103.448
 30
3977.000
 70
    32
  0
VERTEX
  8
1250LEVEL
 62
13
 10
1937.067
 20
-4113.545
 30
3977.000
 70
    32
  0
VERTEX
  8
1250LEVEL
 62
13
 10
1980.624
 20
-4155.853
 30
3977.000
 70
    32
  0
VERTEX
  8
1250LEVEL
 62
13
 10
2002.692
 20
-4161.180
 30
3977.000
 70
    32
  0
VERTEX
  8
1250LEVEL
 62
13
 10
2031.884
 20
-4184.792
 30
3977.000
 70
    32
  0
VERTEX
  8
1250LEVEL
 62
13
 10
2067.282
 20
-4230.821
 30
3977.000
 70
    32
  0
VERTEX
  8
1250LEVEL
 62
13
 10
2068.806
 20
-4216.706
 30
3977.000
 70
    32
  0
VERTEX
  8
1250LEVEL
 62
13
 10
2105.377
 20
-4260.153
 30
3977.000
 70
    32
  0
VERTEX
  8
1250LEVEL
 62
13
 10
2129.988
 20
-4299.653
 30
3977.000
 70
    32
  0
VERTEX
  8
1250LEVEL
 62
13
 10
2140.025
 20
-4335.791
 30
3977.000
 70
    32
  0
VERTEX
  8
1250LEVEL
 62
13
 10
2220.039
 20
-4439.417
 30
3977.000
 70
    32
  0
VERTEX
  8
1250LEVEL
 62
13
 10
2228.254
 20
-4471.230
 30
3977.000
 70
    32
  0
VERTEX
  8
1250LEVEL
 62
13
 10
2258.218
 20
-4518.145
 30
3977.000
 70
    32
  0
VERTEX
  8
1250LEVEL
 62
13
 10
2256.039
 20
-4483.276
 30
3977.000
 70
    32
  0
VERTEX
  8
1250LEVEL
 62
13
 10
2198.251
 20
-4383.996
 30
3977.000
 70
    32
  0
VERTEX
  8
1250LEVEL
 62
13
 10
2157.086
 20
-4337.791
 30
3977.000
 70
    32
  0
VERTEX
  8
1250LEVEL
 62
13
 10
2152.546
 20
-4305.060
 30
3977.000
 70
    32
  0
VERTEX
  8
1250LEVEL
 62
13
 10
2185.395
 20
-4267.029
 30
3977.000
 70
    32
  0
VERTEX
  8
1250LEVEL
 62
13
 10
2203.345
 20
-4266.653
 30
3977.000
 70
    32
  0
VERTEX
  8
1250LEVEL
 62
13
 10
2213.313
 20
-4248.610
 30
3977.000
 70
    32
  0
VERTEX
  8
1250LEVEL
 62
13
 10
2241.972
 20
-4247.444
 30
3977.000
 70
    32
  0
VERTEX
  8
1250LEVEL
 62
13
 10
2235.720
 20
-4223.758
 30
3977.000
 70
    32
  0
VERTEX
  8
1250LEVEL
 62
13
 10
2249.234
 20
-4219.642
 30
3977.000
 70
    32
  0
VERTEX
  8
1250LEVEL
 62
13
 10
2180.358
 20
-4111.013
 30
3977.000
 70
    32
  0
SEQEND
  8
1250LEVEL
  0
POLYLINE
  8
1250LEVEL
 62
7
 66
     1
 70
     8
  0
VERTEX
  8
1250LEVEL
 62
7
 10
-1963.931
 20
-609.523
 30
3977.000
 70
    32
  0
VERTEX
  8
1250LEVEL
 62
7
 10
-1953.340
 20
-583.014
 30
3977.000
 70
    32
  0
VERTEX
  8
1250LEVEL
 62
7
 10
-1942.749
 20
-535.298
 30
3977.000
 70
    32
  0
VERTEX
  8
1250LEVEL
 62
7
 10
-1929.511
 20
-503.487
 30
3977.000
 70
    32
  0
VERTEX
  8
1250LEVEL
 62
7
 10
-1918.920
 20
-463.724
 30
3977.000
 70
    32
  0
VERTEX
  8
1250LEVEL
 62
7
 10
-1937.454
 20
-413.357
 30
3977.000
 70
    32
  0
VERTEX
  8
1250LEVEL
 62
7
 10
-1979.817
 20
-362.990
 30
3977.000
 70
    32
  0
VERTEX
  8
1250LEVEL
 62
7
 10
-1998.351
 20
-323.227
 30
3977.000
 70
    32
  0
VERTEX
  8
1250LEVEL
 62
7
 10
-2019.532
 20
-286.114
 30
3977.000
 70
    32
  0
VERTEX
  8
1250LEVEL
 62
7
 10
-2048.656
 20
-241.049
 30
3977.000
 70
    32
  0
VERTEX
  8
1250LEVEL
 62
7
 10
-2093.666
 20
-188.031
 30
3977.000
 70
    32
  0
VERTEX
  8
1250LEVEL
 62
7
 10
-2125.438
 20
-156.221
 30
3977.000
 70
    32
  0
VERTEX
  8
1250LEVEL
 62
7
 10
-2130.734
 20
-116.457
 30
3977.000
 70
    32
  0
VERTEX
  8
1250LEVEL
 62
7
 10
-2141.324
 20
-68.742
 30
3977.000
 70
    32
  0
VERTEX
  8
1250LEVEL
 62
7
 10
-2165.154
 20
-2.469
 30
3977.000
 70
    32
  0
VERTEX
  8
1250LEVEL
 62
7
 10
-2188.983
 20
79.708
 30
3977.000
 70
    32
  0
VERTEX
  8
1250LEVEL
 62
7
 10
-2236.641
 20
116.821
 30
3977.000
 70
    32
  0
VERTEX
  8
1250LEVEL
 62
7
 10
-2297.537
 20
143.330
 30
3977.000
 70
    32
  0
VERTEX
  8
1250LEVEL
 62
7
 10
-2331.956
 20
167.188
 30
3977.000
 70
    32
  0
VERTEX
  8
1250LEVEL
 62
7
 10
-2374.319
 20
259.969
 30
3977.000
 70
    32
  0
VERTEX
  8
1250LEVEL
 62
7
 10
-2398.148
 20
320.939
 30
3977.000
 70
    32
  0
VERTEX
  8
1250LEVEL
 62
7
 10
-2421.977
 20
405.768
 30
3977.000
 70
    32
  0
VERTEX
  8
1250LEVEL
 62
7
 10
-2464.340
 20
466.738
 30
3977.000
 70
    32
  0
VERTEX
  8
1250LEVEL
 62
7
 10
-2488.169
 20
525.058
 30
3977.000
 70
    32
  0
VERTEX
  8
1250LEVEL
 62
7
 10
-2504.055
 20
567.472
 30
3977.000
 70
    32
  0
VERTEX
  8
1250LEVEL
 62
7
 10
-2530.532
 20
588.679
 30
3977.000
 70
    32
  0
VERTEX
  8
1250LEVEL
 62
7
 10
-2564.951
 20
604.585
 30
3977.000
 70
    32
  0
VERTEX
  8
1250LEVEL
 62
7
 10
-2596.723
 20
617.839
 30
3977.000
 70
    32
  0
VERTEX
  8
1250LEVEL
 62
7
 10
-2620.552
 20
646.999
 30
3977.000
 70
    32
  0
VERTEX
  8
1250LEVEL
 62
7
 10
-2641.733
 20
700.016
 30
3977.000
 70
    32
  0
VERTEX
  8
1250LEVEL
 62
7
 10
-2668.210
 20
745.081
 30
3977.000
 70
    32
  0
VERTEX
  8
1250LEVEL
 62
7
 10
-2694.687
 20
779.543
 30
3977.000
 70
    32
  0
VERTEX
  8
1250LEVEL
 62
7
 10
-2737.050
 20
816.656
 30
3977.000
 70
    32
  0
VERTEX
  8
1250LEVEL
 62
7
 10
-2739.697
 20
859.070
 30
3977.000
 70
    32
  0
VERTEX
  8
1250LEVEL
 62
7
 10
-2744.993
 20
901.484
 30
3977.000
 70
    32
  0
VERTEX
  8
1250LEVEL
 62
7
 10
-2752.936
 20
922.691
 30
3977.000
 70
    32
  0
VERTEX
  8
1250LEVEL
 62
7
 10
-2800.593
 20
946.549
 30
3977.000
 70
    32
  0
VERTEX
  8
1250LEVEL
 62
7
 10
-2821.775
 20
959.804
 30
3977.000
 70
    32
  0
VERTEX
  8
1250LEVEL
 62
7
 10
-2842.957
 20
970.407
 30
3977.000
 70
    32
  0
VERTEX
  8
1250LEVEL
 62
7
 10
-2853.547
 20
996.916
 30
3977.000
 70
    32
  0
VERTEX
  8
1250LEVEL
 62
7
 10
-2864.138
 20
1023.425
 30
3977.000
 70
    32
  0
VERTEX
  8
1250LEVEL
 62
7
 10
-2861.490
 20
1036.680
 30
3977.000
 70
    32
  0
VERTEX
  8
1250LEVEL
 62
7
 10
-2842.957
 20
1036.680
 30
3977.000
 70
    32
  0
VERTEX
  8
1250LEVEL
 62
7
 10
-2819.127
 20
1026.076
 30
3977.000
 70
    32
  0
VERTEX
  8
1250LEVEL
 62
7
 10
-2805.889
 20
1015.472
 30
3977.000
 70
    32
  0
VERTEX
  8
1250LEVEL
 62
7
 10
-2790.003
 20
999.567
 30
3977.000
 70
    32
  0
VERTEX
  8
1250LEVEL
 62
7
 10
-2774.117
 20
973.058
 30
3977.000
 70
    32
  0
VERTEX
  8
1250LEVEL
 62
7
 10
-2758.231
 20
957.153
 30
3977.000
 70
    32
  0
VERTEX
  8
1250LEVEL
 62
7
 10
-2747.640
 20
954.502
 30
3977.000
 70
    32
  0
VERTEX
  8
1250LEVEL
 62
7
 10
-2747.640
 20
962.454
 30
3977.000
 70
    32
  0
VERTEX
  8
1250LEVEL
 62
7
 10
-2750.288
 20
973.058
 30
3977.000
 70
    32
  0
VERTEX
  8
1250LEVEL
 62
7
 10
-2755.583
 20
988.963
 30
3977.000
 70
    32
  0
VERTEX
  8
1250LEVEL
 62
7
 10
-2755.583
 20
994.265
 30
3977.000
 70
    32
  0
VERTEX
  8
1250LEVEL
 62
7
 10
-2747.640
 20
1002.218
 30
3977.000
 70
    32
  0
VERTEX
  8
1250LEVEL
 62
7
 10
-2737.050
 20
994.265
 30
3977.000
 70
    32
  0
VERTEX
  8
1250LEVEL
 62
7
 10
-2707.925
 20
983.662
 30
3977.000
 70
    32
  0
VERTEX
  8
1250LEVEL
 62
7
 10
-2681.449
 20
965.105
 30
3977.000
 70
    32
  0
VERTEX
  8
1250LEVEL
 62
7
 10
-2641.733
 20
917.389
 30
3977.000
 70
    32
  0
VERTEX
  8
1250LEVEL
 62
7
 10
-2612.609
 20
888.230
 30
3977.000
 70
    32
  0
VERTEX
  8
1250LEVEL
 62
7
 10
-2562.303
 20
824.608
 30
3977.000
 70
    32
  0
VERTEX
  8
1250LEVEL
 62
7
 10
-2493.464
 20
742.431
 30
3977.000
 70
    32
  0
VERTEX
  8
1250LEVEL
 62
7
 10
-2472.283
 20
681.460
 30
3977.000
 70
    32
  0
VERTEX
  8
1250LEVEL
 62
7
 10
-2451.102
 20
631.093
 30
3977.000
 70
    32
  0
VERTEX
  8
1250LEVEL
 62
7
 10
-2403.444
 20
572.774
 30
3977.000
 70
    32
  0
VERTEX
  8
1250LEVEL
 62
7
 10
-2345.195
 20
461.436
 30
3977.000
 70
    32
  0
VERTEX
  8
1250LEVEL
 62
7
 10
-2292.242
 20
339.496
 30
3977.000
 70
    32
  0
VERTEX
  8
1250LEVEL
 62
7
 10
-2273.708
 20
297.081
 30
3977.000
 70
    32
  0
VERTEX
  8
1250LEVEL
 62
7
 10
-2260.470
 20
270.573
 30
3977.000
 70
    32
  0
VERTEX
  8
1250LEVEL
 62
7
 10
-2241.936
 20
241.413
 30
3977.000
 70
    32
  0
VERTEX
  8
1250LEVEL
 62
7
 10
-2223.402
 20
220.206
 30
3977.000
 70
    32
  0
VERTEX
  8
1250LEVEL
 62
7
 10
-2204.869
 20
222.857
 30
3977.000
 70
    32
  0
VERTEX
  8
1250LEVEL
 62
7
 10
-2202.221
 20
244.064
 30
3977.000
 70
    32
  0
VERTEX
  8
1250LEVEL
 62
7
 10
-2218.107
 20
281.176
 30
3977.000
 70
    32
  0
VERTEX
  8
1250LEVEL
 62
7
 10
-2228.697
 20
312.987
 30
3977.000
 70
    32
  0
VERTEX
  8
1250LEVEL
 62
7
 10
-2239.288
 20
360.703
 30
3977.000
 70
    32
  0
VERTEX
  8
1250LEVEL
 62
7
 10
-2244.584
 20
389.862
 30
3977.000
 70
    32
  0
VERTEX
  8
1250LEVEL
 62
7
 10
-2252.526
 20
424.324
 30
3977.000
 70
    32
  0
VERTEX
  8
1250LEVEL
 62
7
 10
-2281.651
 20
472.040
 30
3977.000
 70
    32
  0
VERTEX
  8
1250LEVEL
 62
7
 10
-2310.775
 20
519.756
 30
3977.000
 70
    32
  0
VERTEX
  8
1250LEVEL
 62
7
 10
-2324.014
 20
562.170
 30
3977.000
 70
    32
  0
VERTEX
  8
1250LEVEL
 62
7
 10
-2337.252
 20
604.585
 30
3977.000
 70
    32
  0
VERTEX
  8
1250LEVEL
 62
7
 10
-2363.729
 20
654.951
 30
3977.000
 70
    32
  0
VERTEX
  8
1250LEVEL
 62
7
 10
-2387.558
 20
686.762
 30
3977.000
 70
    32
  0
VERTEX
  8
1250LEVEL
 62
7
 10
-2427.273
 20
710.620
 30
3977.000
 70
    32
  0
VERTEX
  8
1250LEVEL
 62
7
 10
-2451.102
 20
737.129
 30
3977.000
 70
    32
  0
VERTEX
  8
1250LEVEL
 62
7
 10
-2461.692
 20
750.383
 30
3977.000
 70
    32
  0
VERTEX
  8
1250LEVEL
 62
7
 10
-2474.931
 20
776.892
 30
3977.000
 70
    32
  0
VERTEX
  8
1250LEVEL
 62
7
 10
-2482.873
 20
800.750
 30
3977.000
 70
    32
  0
VERTEX
  8
1250LEVEL
 62
7
 10
-2477.578
 20
803.401
 30
3977.000
 70
    32
  0
VERTEX
  8
1250LEVEL
 62
7
 10
-2461.692
 20
798.100
 30
3977.000
 70
    32
  0
VERTEX
  8
1250LEVEL
 62
7
 10
-2443.159
 20
779.543
 30
3977.000
 70
    32
  0
VERTEX
  8
1250LEVEL
 62
7
 10
-2429.920
 20
755.685
 30
3977.000
 70
    32
  0
VERTEX
  8
1250LEVEL
 62
7
 10
-2419.330
 20
745.081
 30
3977.000
 70
    32
  0
VERTEX
  8
1250LEVEL
 62
7
 10
-2411.386
 20
747.732
 30
3977.000
 70
    32
  0
VERTEX
  8
1250LEVEL
 62
7
 10
-2411.386
 20
758.336
 30
3977.000
 70
    32
  0
VERTEX
  8
1250LEVEL
 62
7
 10
-2421.977
 20
779.543
 30
3977.000
 70
    32
  0
VERTEX
  8
1250LEVEL
 62
7
 10
-2435.215
 20
803.401
 30
3977.000
 70
    32
  0
VERTEX
  8
1250LEVEL
 62
7
 10
-2443.159
 20
824.608
 30
3977.000
 70
    32
  0
VERTEX
  8
1250LEVEL
 62
7
 10
-2443.159
 20
843.165
 30
3977.000
 70
    32
  0
VERTEX
  8
1250LEVEL
 62
7
 10
-2437.863
 20
840.514
 30
3977.000
 70
    32
  0
VERTEX
  8
1250LEVEL
 62
7
 10
-2429.920
 20
827.259
 30
3977.000
 70
    32
  0
VERTEX
  8
1250LEVEL
 62
7
 10
-2408.739
 20
790.147
 30
3977.000
 70
    32
  0
VERTEX
  8
1250LEVEL
 62
7
 10
-2371.672
 20
707.969
 30
3977.000
 70
    32
  0
VERTEX
  8
1250LEVEL
 62
7
 10
-2334.604
 20
654.951
 30
3977.000
 70
    32
  0
VERTEX
  8
1250LEVEL
 62
7
 10
-2284.299
 20
612.537
 30
3977.000
 70
    32
  0
VERTEX
  8
1250LEVEL
 62
7
 10
-2220.754
 20
514.454
 30
3977.000
 70
    32
  0
VERTEX
  8
1250LEVEL
 62
7
 10
-2143.972
 20
450.833
 30
3977.000
 70
    32
  0
VERTEX
  8
1250LEVEL
 62
7
 10
-2098.962
 20
368.655
 30
3977.000
 70
    32
  0
VERTEX
  8
1250LEVEL
 62
7
 10
-2077.781
 20
328.892
 30
3977.000
 70
    32
  0
VERTEX
  8
1250LEVEL
 62
7
 10
-2059.247
 20
302.383
 30
3977.000
 70
    32
  0
VERTEX
  8
1250LEVEL
 62
7
 10
-2038.065
 20
275.874
 30
3977.000
 70
    32
  0
VERTEX
  8
1250LEVEL
 62
7
 10
-2027.475
 20
259.969
 30
3977.000
 70
    32
  0
VERTEX
  8
1250LEVEL
 62
7
 10
-2014.236
 20
249.365
 30
3977.000
 70
    32
  0
VERTEX
  8
1250LEVEL
 62
7
 10
-1995.703
 20
254.667
 30
3977.000
 70
    32
  0
VERTEX
  8
1250LEVEL
 62
7
 10
-2000.998
 20
273.223
 30
3977.000
 70
    32
  0
VERTEX
  8
1250LEVEL
 62
7
 10
-2006.294
 20
291.780
 30
3977.000
 70
    32
  0
VERTEX
  8
1250LEVEL
 62
7
 10
-2006.294
 20
307.685
 30
3977.000
 70
    32
  0
VERTEX
  8
1250LEVEL
 62
7
 10
-1995.703
 20
312.987
 30
3977.000
 70
    32
  0
VERTEX
  8
1250LEVEL
 62
7
 10
-1985.112
 20
302.383
 30
3977.000
 70
    32
  0
VERTEX
  8
1250LEVEL
 62
7
 10
-1966.578
 20
275.874
 30
3977.000
 70
    32
  0
VERTEX
  8
1250LEVEL
 62
7
 10
-1945.397
 20
249.365
 30
3977.000
 70
    32
  0
VERTEX
  8
1250LEVEL
 62
7
 10
-1858.024
 20
143.330
 30
3977.000
 70
    32
  0
VERTEX
  8
1250LEVEL
 62
7
 10
-1805.071
 20
71.756
 30
3977.000
 70
    32
  0
VERTEX
  8
1250LEVEL
 62
7
 10
-1760.060
 20
37.294
 30
3977.000
 70
    32
  0
VERTEX
  8
1250LEVEL
 62
7
 10
-1725.641
 20
-2.469
 30
3977.000
 70
    32
  0
VERTEX
  8
1250LEVEL
 62
7
 10
-1688.574
 20
-66.091
 30
3977.000
 70
    32
  0
VERTEX
  8
1250LEVEL
 62
7
 10
-1667.392
 20
-100.552
 30
3977.000
 70
    32
  0
VERTEX
  8
1250LEVEL
 62
7
 10
-1625.029
 20
-166.824
 30
3977.000
 70
    32
  0
VERTEX
  8
1250LEVEL
 62
7
 10
-1603.848
 20
-243.700
 30
3977.000
 70
    32
  0
VERTEX
  8
1250LEVEL
 62
7
 10
-1582.667
 20
-270.209
 30
3977.000
 70
    32
  0
VERTEX
  8
1250LEVEL
 62
7
 10
-1540.304
 20
-333.830
 30
3977.000
 70
    32
  0
VERTEX
  8
1250LEVEL
 62
7
 10
-1497.941
 20
-378.896
 30
3977.000
 70
    32
  0
VERTEX
  8
1250LEVEL
 62
7
 10
-1455.579
 20
-413.357
 30
3977.000
 70
    32
  0
VERTEX
  8
1250LEVEL
 62
7
 10
-1413.216
 20
-490.233
 30
3977.000
 70
    32
  0
VERTEX
  8
1250LEVEL
 62
7
 10
-1407.921
 20
-543.250
 30
3977.000
 70
    32
  0
VERTEX
  8
1250LEVEL
 62
7
 10
-1392.035
 20
-604.221
 30
3977.000
 70
    32
  0
SEQEND
  8
1250LEVEL
  0
POLYLINE
  8
1250LEVEL
 62
7
 66
     1
 70
     8
  0
VERTEX
  8
1250LEVEL
 62
7
 10
-1193.460
 20
-553.854
 30
3977.000
 70
    32
  0
VERTEX
  8
1250LEVEL
 62
7
 10
-1222.584
 20
-484.931
 30
3977.000
 70
    32
  0
VERTEX
  8
1250LEVEL
 62
7
 10
-1246.413
 20
-418.659
 30
3977.000
 70
    32
  0
VERTEX
  8
1250LEVEL
 62
7
 10
-1294.071
 20
-355.038
 30
3977.000
 70
    32
  0
VERTEX
  8
1250LEVEL
 62
7
 10
-1394.682
 20
-198.635
 30
3977.000
 70
    32
  0
VERTEX
  8
1250LEVEL
 62
7
 10
-1431.750
 20
-132.363
 30
3977.000
 70
    32
  0
VERTEX
  8
1250LEVEL
 62
7
 10
-1468.817
 20
-71.392
 30
3977.000
 70
    32
  0
VERTEX
  8
1250LEVEL
 62
7
 10
-1532.361
 20
13.436
 30
3977.000
 70
    32
  0
VERTEX
  8
1250LEVEL
 62
7
 10
-1564.133
 20
71.756
 30
3977.000
 70
    32
  0
VERTEX
  8
1250LEVEL
 62
7
 10
-1635.620
 20
172.489
 30
3977.000
 70
    32
  0
VERTEX
  8
1250LEVEL
 62
7
 10
-1688.574
 20
228.158
 30
3977.000
 70
    32
  0
VERTEX
  8
1250LEVEL
 62
7
 10
-1744.174
 20
299.732
 30
3977.000
 70
    32
  0
VERTEX
  8
1250LEVEL
 62
7
 10
-1770.651
 20
334.194
 30
3977.000
 70
    32
  0
VERTEX
  8
1250LEVEL
 62
7
 10
-1797.128
 20
379.259
 30
3977.000
 70
    32
  0
VERTEX
  8
1250LEVEL
 62
7
 10
-1823.604
 20
411.069
 30
3977.000
 70
    32
  0
VERTEX
  8
1250LEVEL
 62
7
 10
-1842.138
 20
442.880
 30
3977.000
 70
    32
  0
VERTEX
  8
1250LEVEL
 62
7
 10
-1905.682
 20
485.295
 30
3977.000
 70
    32
  0
VERTEX
  8
1250LEVEL
 62
7
 10
-1940.102
 20
535.661
 30
3977.000
 70
    32
  0
VERTEX
  8
1250LEVEL
 62
7
 10
-1990.407
 20
593.981
 30
3977.000
 70
    32
  0
VERTEX
  8
1250LEVEL
 62
7
 10
-2048.656
 20
636.395
 30
3977.000
 70
    32
  0
VERTEX
  8
1250LEVEL
 62
7
 10
-2120.143
 20
707.969
 30
3977.000
 70
    32
  0
VERTEX
  8
1250LEVEL
 62
7
 10
-2220.754
 20
806.052
 30
3977.000
 70
    32
  0
VERTEX
  8
1250LEVEL
 62
7
 10
-2252.526
 20
837.863
 30
3977.000
 70
    32
  0
VERTEX
  8
1250LEVEL
 62
7
 10
-2271.060
 20
859.070
 30
3977.000
 70
    32
  0
VERTEX
  8
1250LEVEL
 62
7
 10
-2271.060
 20
872.324
 30
3977.000
 70
    32
  0
VERTEX
  8
1250LEVEL
 62
7
 10
-2265.765
 20
877.626
 30
3977.000
 70
    32
  0
VERTEX
  8
1250LEVEL
 62
7
 10
-2252.526
 20
877.626
 30
3977.000
 70
    32
  0
VERTEX
  8
1250LEVEL
 62
7
 10
-2231.345
 20
861.721
 30
3977.000
 70
    32
  0
VERTEX
  8
1250LEVEL
 62
7
 10
-2191.630
 20
821.958
 30
3977.000
 70
    32
  0
VERTEX
  8
1250LEVEL
 62
7
 10
-2146.620
 20
779.543
 30
3977.000
 70
    32
  0
VERTEX
  8
1250LEVEL
 62
7
 10
-2083.076
 20
729.176
 30
3977.000
 70
    32
  0
VERTEX
  8
1250LEVEL
 62
7
 10
-2019.532
 20
665.555
 30
3977.000
 70
    32
  0
VERTEX
  8
1250LEVEL
 62
7
 10
-1977.169
 20
623.141
 30
3977.000
 70
    32
  0
VERTEX
  8
1250LEVEL
 62
7
 10
-1881.853
 20
535.661
 30
3977.000
 70
    32
  0
VERTEX
  8
1250LEVEL
 62
7
 10
-1807.718
 20
461.436
 30
3977.000
 70
    32
  0
VERTEX
  8
1250LEVEL
 62
7
 10
-1754.765
 20
392.513
 30
3977.000
 70
    32
  0
VERTEX
  8
1250LEVEL
 62
7
 10
-1603.848
 20
198.998
 30
3977.000
 70
    32
  0
VERTEX
  8
1250LEVEL
 62
7
 10
-1511.180
 20
61.152
 30
3977.000
 70
    32
  0
VERTEX
  8
1250LEVEL
 62
7
 10
-1394.682
 20
-89.949
 30
3977.000
 70
    32
  0
VERTEX
  8
1250LEVEL
 62
7
 10
-1333.786
 20
-193.333
 30
3977.000
 70
    32
  0
VERTEX
  8
1250LEVEL
 62
7
 10
-1257.003
 20
-320.576
 30
3977.000
 70
    32
  0
VERTEX
  8
1250LEVEL
 62
7
 10
-1201.402
 20
-431.913
 30
3977.000
 70
    32
  0
VERTEX
  8
1250LEVEL
 62
7
 10
-1159.040
 20
-559.156
 30
3977.000
 70
    32
  0
SEQEND
  8
1250LEVEL
  0
POLYLINE
  8
1250LEVEL
 62
7
 66
     1
 70
     8
  0
VERTEX
  8
1250LEVEL
 62
7
 10
-1010.771
 20
-347.085
 30
3977.000
 70
    32
  0
VERTEX
  8
1250LEVEL
 62
7
 10
-1042.542
 20
-249.002
 30
3977.000
 70
    32
  0
VERTEX
  8
1250LEVEL
 62
7
 10
-1087.553
 20
-135.014
 30
3977.000
 70
    32
  0
VERTEX
  8
1250LEVEL
 62
7
 10
-1119.325
 20
-44.883
 30
3977.000
 70
    32
  0
VERTEX
  8
1250LEVEL
 62
7
 10
-1174.926
 20
42.596
 30
3977.000
 70
    32
  0
VERTEX
  8
1250LEVEL
 62
7
 10
-1188.164
 20
77.058
 30
3977.000
 70
    32
  0
VERTEX
  8
1250LEVEL
 62
7
 10
-1211.993
 20
111.519
 30
3977.000
 70
    32
  0
VERTEX
  8
1250LEVEL
 62
7
 10
-1238.470
 20
156.584
 30
3977.000
 70
    32
  0
VERTEX
  8
1250LEVEL
 62
7
 10
-1243.765
 20
185.744
 30
3977.000
 70
    32
  0
VERTEX
  8
1250LEVEL
 62
7
 10
-1249.061
 20
206.951
 30
3977.000
 70
    32
  0
VERTEX
  8
1250LEVEL
 62
7
 10
-1257.003
 20
233.460
 30
3977.000
 70
    32
  0
VERTEX
  8
1250LEVEL
 62
7
 10
-1267.594
 20
259.969
 30
3977.000
 70
    32
  0
VERTEX
  8
1250LEVEL
 62
7
 10
-1296.719
 20
294.431
 30
3977.000
 70
    32
  0
VERTEX
  8
1250LEVEL
 62
7
 10
-1309.957
 20
315.638
 30
3977.000
 70
    32
  0
VERTEX
  8
1250LEVEL
 62
7
 10
-1317.900
 20
339.496
 30
3977.000
 70
    32
  0
VERTEX
  8
1250LEVEL
 62
7
 10
-1339.081
 20
366.004
 30
3977.000
 70
    32
  0
VERTEX
  8
1250LEVEL
 62
7
 10
-1352.320
 20
397.815
 30
3977.000
 70
    32
  0
VERTEX
  8
1250LEVEL
 62
7
 10
-1365.558
 20
419.022
 30
3977.000
 70
    32
  0
VERTEX
  8
1250LEVEL
 62
7
 10
-1365.558
 20
450.833
 30
3977.000
 70
    32
  0
VERTEX
  8
1250LEVEL
 62
7
 10
-1362.910
 20
450.833
 30
3977.000
 70
    32
  0
VERTEX
  8
1250LEVEL
 62
7
 10
-1352.320
 20
437.578
 30
3977.000
 70
    32
  0
VERTEX
  8
1250LEVEL
 62
7
 10
-1333.786
 20
413.720
 30
3977.000
 70
    32
  0
VERTEX
  8
1250LEVEL
 62
7
 10
-1320.548
 20
389.862
 30
3977.000
 70
    32
  0
VERTEX
  8
1250LEVEL
 62
7
 10
-1294.071
 20
358.052
 30
3977.000
 70
    32
  0
VERTEX
  8
1250LEVEL
 62
7
 10
-1275.537
 20
318.288
 30
3977.000
 70
    32
  0
VERTEX
  8
1250LEVEL
 62
7
 10
-1251.708
 20
278.525
 30
3977.000
 70
    32
  0
VERTEX
  8
1250LEVEL
 62
7
 10
-1225.231
 20
241.413
 30
3977.000
 70
    32
  0
VERTEX
  8
1250LEVEL
 62
7
 10
-1211.993
 20
209.602
 30
3977.000
 70
    32
  0
VERTEX
  8
1250LEVEL
 62
7
 10
-1196.107
 20
198.998
 30
3977.000
 70
    32
  0
VERTEX
  8
1250LEVEL
 62
7
 10
-1188.164
 20
198.998
 30
3977.000
 70
    32
  0
VERTEX
  8
1250LEVEL
 62
7
 10
-1161.688
 20
167.188
 30
3977.000
 70
    32
  0
VERTEX
  8
1250LEVEL
 62
7
 10
-1153.745
 20
151.282
 30
3977.000
 70
    32
  0
VERTEX
  8
1250LEVEL
 62
7
 10
-1129.916
 20
116.821
 30
3977.000
 70
    32
  0
VERTEX
  8
1250LEVEL
 62
7
 10
-1103.439
 20
92.963
 30
3977.000
 70
    32
  0
VERTEX
  8
1250LEVEL
 62
7
 10
-1095.496
 20
77.058
 30
3977.000
 70
    32
  0
VERTEX
  8
1250LEVEL
 62
7
 10
-1058.429
 20
18.738
 30
3977.000
 70
    32
  0
VERTEX
  8
1250LEVEL
 62
7
 10
-1045.190
 20
-15.723
 30
3977.000
 70
    32
  0
VERTEX
  8
1250LEVEL
 62
7
 10
-1026.657
 20
-55.487
 30
3977.000
 70
    32
  0
VERTEX
  8
1250LEVEL
 62
7
 10
-1008.123
 20
-81.996
 30
3977.000
 70
    32
  0
VERTEX
  8
1250LEVEL
 62
7
 10
-1000.180
 20
-103.203
 30
3977.000
 70
    32
  0
VERTEX
  8
1250LEVEL
 62
7
 10
-994.884
 20
-124.410
 30
3977.000
 70
    32
  0
VERTEX
  8
1250LEVEL
 62
7
 10
-1002.828
 20
-124.410
 30
3977.000
 70
    32
  0
VERTEX
  8
1250LEVEL
 62
7
 10
-1024.009
 20
-103.203
 30
3977.000
 70
    32
  0
VERTEX
  8
1250LEVEL
 62
7
 10
-1034.600
 20
-89.949
 30
3977.000
 70
    32
  0
VERTEX
  8
1250LEVEL
 62
7
 10
-1047.838
 20
-60.789
 30
3977.000
 70
    32
  0
VERTEX
  8
1250LEVEL
 62
7
 10
-1066.371
 20
-31.629
 30
3977.000
 70
    32
  0
VERTEX
  8
1250LEVEL
 62
7
 10
-1087.553
 20
13.436
 30
3977.000
 70
    32
  0
VERTEX
  8
1250LEVEL
 62
7
 10
-1106.087
 20
53.200
 30
3977.000
 70
    32
  0
VERTEX
  8
1250LEVEL
 62
7
 10
-1119.325
 20
85.010
 30
3977.000
 70
    32
  0
VERTEX
  8
1250LEVEL
 62
7
 10
-1132.563
 20
79.708
 30
3977.000
 70
    32
  0
VERTEX
  8
1250LEVEL
 62
7
 10
-1119.325
 20
31.992
 30
3977.000
 70
    32
  0
VERTEX
  8
1250LEVEL
 62
7
 10
-1098.143
 20
-15.723
 30
3977.000
 70
    32
  0
VERTEX
  8
1250LEVEL
 62
7
 10
-1076.962
 20
-52.836
 30
3977.000
 70
    32
  0
VERTEX
  8
1250LEVEL
 62
7
 10
-1050.486
 20
-100.552
 30
3977.000
 70
    32
  0
VERTEX
  8
1250LEVEL
 62
7
 10
-1002.828
 20
-158.872
 30
3977.000
 70
    32
  0
VERTEX
  8
1250LEVEL
 62
7
 10
-971.055
 20
-201.286
 30
3977.000
 70
    32
  0
VERTEX
  8
1250LEVEL
 62
7
 10
-941.931
 20
-249.002
 30
3977.000
 70
    32
  0
VERTEX
  8
1250LEVEL
 62
7
 10
-896.921
 20
-315.274
 30
3977.000
 70
    32
  0
VERTEX
  8
1250LEVEL
 62
7
 10
-867.796
 20
-352.387
 30
3977.000
 70
    32
  0
VERTEX
  8
1250LEVEL
 62
7
 10
-838.672
 20
-376.245
 30
3977.000
 70
    32
  0
VERTEX
  8
1250LEVEL
 62
7
 10
-822.786
 20
-373.594
 30
3977.000
 70
    32
  0
VERTEX
  8
1250LEVEL
 62
7
 10
-817.491
 20
-352.387
 30
3977.000
 70
    32
  0
VERTEX
  8
1250LEVEL
 62
7
 10
-830.729
 20
-317.925
 30
3977.000
 70
    32
  0
VERTEX
  8
1250LEVEL
 62
7
 10
-843.968
 20
-272.860
 30
3977.000
 70
    32
  0
VERTEX
  8
1250LEVEL
 62
7
 10
-881.035
 20
-214.540
 30
3977.000
 70
    32
  0
VERTEX
  8
1250LEVEL
 62
7
 10
-912.807
 20
-166.824
 30
3977.000
 70
    32
  0
VERTEX
  8
1250LEVEL
 62
7
 10
-918.102
 20
-132.363
 30
3977.000
 70
    32
  0
VERTEX
  8
1250LEVEL
 62
7
 10
-933.988
 20
-84.647
 30
3977.000
 70
    32
  0
VERTEX
  8
1250LEVEL
 62
7
 10
-928.693
 20
-71.392
 30
3977.000
 70
    32
  0
VERTEX
  8
1250LEVEL
 62
7
 10
-915.454
 20
-76.694
 30
3977.000
 70
    32
  0
VERTEX
  8
1250LEVEL
 62
7
 10
-894.273
 20
-108.505
 30
3977.000
 70
    32
  0
VERTEX
  8
1250LEVEL
 62
7
 10
-875.740
 20
-142.966
 30
3977.000
 70
    32
  0
VERTEX
  8
1250LEVEL
 62
7
 10
-859.853
 20
-188.031
 30
3977.000
 70
    32
  0
VERTEX
  8
1250LEVEL
 62
7
 10
-822.786
 20
-230.446
 30
3977.000
 70
    32
  0
VERTEX
  8
1250LEVEL
 62
7
 10
-801.605
 20
-270.209
 30
3977.000
 70
    32
  0
VERTEX
  8
1250LEVEL
 62
7
 10
-753.947
 20
-357.688
 30
3977.000
 70
    32
  0
SEQEND
  8
1250LEVEL
  0
POLYLINE
  8
1250LEVEL
 62
7
 66
     1
 70
     8
  0
VERTEX
  8
1250LEVEL
 62
7
 10
-986.941
 20
153.933
 30
3977.000
 70
    32
  0
VERTEX
  8
1250LEVEL
 62
7
 10
-994.884
 20
196.347
 30
3977.000
 70
    32
  0
VERTEX
  8
1250LEVEL
 62
7
 10
-1008.123
 20
225.507
 30
3977.000
 70
    32
  0
VERTEX
  8
1250LEVEL
 62
7
 10
-1021.361
 20
262.620
 30
3977.000
 70
    32
  0
VERTEX
  8
1250LEVEL
 62
7
 10
-1047.838
 20
310.336
 30
3977.000
 70
    32
  0
VERTEX
  8
1250LEVEL
 62
7
 10
-1061.076
 20
339.496
 30
3977.000
 70
    32
  0
VERTEX
  8
1250LEVEL
 62
7
 10
-1111.382
 20
387.212
 30
3977.000
 70
    32
  0
VERTEX
  8
1250LEVEL
 62
7
 10
-1132.563
 20
413.720
 30
3977.000
 70
    32
  0
VERTEX
  8
1250LEVEL
 62
7
 10
-1151.097
 20
456.135
 30
3977.000
 70
    32
  0
VERTEX
  8
1250LEVEL
 62
7
 10
-1159.040
 20
479.993
 30
3977.000
 70
    32
  0
VERTEX
  8
1250LEVEL
 62
7
 10
-1177.573
 20
506.502
 30
3977.000
 70
    32
  0
VERTEX
  8
1250LEVEL
 62
7
 10
-1204.050
 20
538.312
 30
3977.000
 70
    32
  0
VERTEX
  8
1250LEVEL
 62
7
 10
-1225.231
 20
567.472
 30
3977.000
 70
    32
  0
VERTEX
  8
1250LEVEL
 62
7
 10
-1235.822
 20
586.028
 30
3977.000
 70
    32
  0
VERTEX
  8
1250LEVEL
 62
7
 10
-1235.822
 20
593.981
 30
3977.000
 70
    32
  0
VERTEX
  8
1250LEVEL
 62
7
 10
-1227.879
 20
596.632
 30
3977.000
 70
    32
  0
VERTEX
  8
1250LEVEL
 62
7
 10
-1217.289
 20
591.330
 30
3977.000
 70
    32
  0
VERTEX
  8
1250LEVEL
 62
7
 10
-1193.460
 20
564.821
 30
3977.000
 70
    32
  0
VERTEX
  8
1250LEVEL
 62
7
 10
-1169.631
 20
540.963
 30
3977.000
 70
    32
  0
VERTEX
  8
1250LEVEL
 62
7
 10
-1145.801
 20
517.105
 30
3977.000
 70
    32
  0
VERTEX
  8
1250LEVEL
 62
7
 10
-1121.972
 20
493.247
 30
3977.000
 70
    32
  0
VERTEX
  8
1250LEVEL
 62
7
 10
-1103.439
 20
448.182
 30
3977.000
 70
    32
  0
VERTEX
  8
1250LEVEL
 62
7
 10
-1084.905
 20
413.720
 30
3977.000
 70
    32
  0
VERTEX
  8
1250LEVEL
 62
7
 10
-1063.724
 20
379.259
 30
3977.000
 70
    32
  0
VERTEX
  8
1250LEVEL
 62
7
 10
-1005.475
 20
331.543
 30
3977.000
 70
    32
  0
VERTEX
  8
1250LEVEL
 62
7
 10
-989.589
 20
278.525
 30
3977.000
 70
    32
  0
VERTEX
  8
1250LEVEL
 62
7
 10
-963.112
 20
230.809
 30
3977.000
 70
    32
  0
VERTEX
  8
1250LEVEL
 62
7
 10
-939.283
 20
183.093
 30
3977.000
 70
    32
  0
VERTEX
  8
1250LEVEL
 62
7
 10
-928.693
 20
143.330
 30
3977.000
 70
    32
  0
VERTEX
  8
1250LEVEL
 62
7
 10
-915.454
 20
111.519
 30
3977.000
 70
    32
  0
VERTEX
  8
1250LEVEL
 62
7
 10
-907.511
 20
82.359
 30
3977.000
 70
    32
  0
VERTEX
  8
1250LEVEL
 62
7
 10
-904.864
 20
55.850
 30
3977.000
 70
    32
  0
VERTEX
  8
1250LEVEL
 62
7
 10
-904.864
 20
42.596
 30
3977.000
 70
    32
  0
VERTEX
  8
1250LEVEL
 62
7
 10
-926.045
 20
34.643
 30
3977.000
 70
    32
  0
VERTEX
  8
1250LEVEL
 62
7
 10
-936.636
 20
53.200
 30
3977.000
 70
    32
  0
VERTEX
  8
1250LEVEL
 62
7
 10
-949.874
 20
79.708
 30
3977.000
 70
    32
  0
VERTEX
  8
1250LEVEL
 62
7
 10
-973.703
 20
119.472
 30
3977.000
 70
    32
  0
VERTEX
  8
1250LEVEL
 62
7
 10
-981.646
 20
135.377
 30
3977.000
 70
    32
  0
SEQEND
  8
1250LEVEL
  0
POLYLINE
  8
1250LEVEL
 62
13
 66
     1
 70
     8
  0
VERTEX
  8
1250LEVEL
 62
13
 10
-438.874
 20
-728.813
 30
3977.000
 70
    32
  0
VERTEX
  8
1250LEVEL
 62
13
 10
-513.009
 20
-596.269
 30
3977.000
 70
    32
  0
VERTEX
  8
1250LEVEL
 62
13
 10
-542.133
 20
-522.043
 30
3977.000
 70
    32
  0
VERTEX
  8
1250LEVEL
 62
13
 10
-576.553
 20
-453.120
 30
3977.000
 70
    32
  0
VERTEX
  8
1250LEVEL
 62
13
 10
-618.916
 20
-394.801
 30
3977.000
 70
    32
  0
VERTEX
  8
1250LEVEL
 62
13
 10
-629.506
 20
-373.594
 30
3977.000
 70
    32
  0
VERTEX
  8
1250LEVEL
 62
13
 10
-648.040
 20
-341.783
 30
3977.000
 70
    32
  0
VERTEX
  8
1250LEVEL
 62
13
 10
-650.688
 20
-315.274
 30
3977.000
 70
    32
  0
VERTEX
  8
1250LEVEL
 62
13
 10
-655.983
 20
-294.067
 30
3977.000
 70
    32
  0
VERTEX
  8
1250LEVEL
 62
13
 10
-658.631
 20
-280.812
 30
3977.000
 70
    32
  0
VERTEX
  8
1250LEVEL
 62
13
 10
-653.335
 20
-283.463
 30
3977.000
 70
    32
  0
VERTEX
  8
1250LEVEL
 62
13
 10
-640.097
 20
-296.718
 30
3977.000
 70
    32
  0
VERTEX
  8
1250LEVEL
 62
13
 10
-624.211
 20
-309.972
 30
3977.000
 70
    32
  0
VERTEX
  8
1250LEVEL
 62
13
 10
-600.382
 20
-333.830
 30
3977.000
 70
    32
  0
VERTEX
  8
1250LEVEL
 62
13
 10
-579.201
 20
-355.038
 30
3977.000
 70
    32
  0
VERTEX
  8
1250LEVEL
 62
13
 10
-558.020
 20
-397.452
 30
3977.000
 70
    32
  0
VERTEX
  8
1250LEVEL
 62
13
 10
-539.486
 20
-429.262
 30
3977.000
 70
    32
  0
VERTEX
  8
1250LEVEL
 62
13
 10
-489.180
 20
-490.233
 30
3977.000
 70
    32
  0
VERTEX
  8
1250LEVEL
 62
13
 10
-465.351
 20
-503.487
 30
3977.000
 70
    32
  0
VERTEX
  8
1250LEVEL
 62
13
 10
-415.045
 20
-580.363
 30
3977.000
 70
    32
  0
SEQEND
  8
1250LEVEL
  0
POLYLINE
  8
1250LEVEL
 62
13
 66
     1
 70
     8
  0
VERTEX
  8
1250LEVEL
 62
13
 10
-735.413
 20
-320.576
 30
3977.000
 70
    32
  0
VERTEX
  8
1250LEVEL
 62
13
 10
-772.481
 20
-246.351
 30
3977.000
 70
    32
  0
VERTEX
  8
1250LEVEL
 62
13
 10
-804.252
 20
-188.031
 30
3977.000
 70
    32
  0
VERTEX
  8
1250LEVEL
 62
13
 10
-851.911
 20
-108.505
 30
3977.000
 70
    32
  0
VERTEX
  8
1250LEVEL
 62
13
 10
-859.853
 20
-55.487
 30
3977.000
 70
    32
  0
VERTEX
  8
1250LEVEL
 62
13
 10
-862.501
 20
-13.073
 30
3977.000
 70
    32
  0
VERTEX
  8
1250LEVEL
 62
13
 10
-875.740
 20
37.294
 30
3977.000
 70
    32
  0
VERTEX
  8
1250LEVEL
 62
13
 10
-883.682
 20
87.661
 30
3977.000
 70
    32
  0
VERTEX
  8
1250LEVEL
 62
13
 10
-902.216
 20
135.377
 30
3977.000
 70
    32
  0
VERTEX
  8
1250LEVEL
 62
13
 10
-933.988
 20
201.649
 30
3977.000
 70
    32
  0
VERTEX
  8
1250LEVEL
 62
13
 10
-955.170
 20
241.413
 30
3977.000
 70
    32
  0
VERTEX
  8
1250LEVEL
 62
13
 10
-976.351
 20
286.478
 30
3977.000
 70
    32
  0
VERTEX
  8
1250LEVEL
 62
13
 10
-989.589
 20
318.288
 30
3977.000
 70
    32
  0
VERTEX
  8
1250LEVEL
 62
13
 10
-1002.828
 20
339.496
 30
3977.000
 70
    32
  0
VERTEX
  8
1250LEVEL
 62
13
 10
-1021.361
 20
371.306
 30
3977.000
 70
    32
  0
VERTEX
  8
1250LEVEL
 62
13
 10
-1050.486
 20
419.022
 30
3977.000
 70
    32
  0
VERTEX
  8
1250LEVEL
 62
13
 10
-1090.201
 20
458.785
 30
3977.000
 70
    32
  0
VERTEX
  8
1250LEVEL
 62
13
 10
-1103.439
 20
493.247
 30
3977.000
 70
    32
  0
VERTEX
  8
1250LEVEL
 62
13
 10
-1137.859
 20
538.312
 30
3977.000
 70
    32
  0
VERTEX
  8
1250LEVEL
 62
13
 10
-1156.392
 20
556.869
 30
3977.000
 70
    32
  0
VERTEX
  8
1250LEVEL
 62
13
 10
-1196.107
 20
609.886
 30
3977.000
 70
    32
  0
VERTEX
  8
1250LEVEL
 62
13
 10
-1214.641
 20
644.348
 30
3977.000
 70
    32
  0
VERTEX
  8
1250LEVEL
 62
13
 10
-1230.527
 20
670.857
 30
3977.000
 70
    32
  0
VERTEX
  8
1250LEVEL
 62
13
 10
-1241.118
 20
689.413
 30
3977.000
 70
    32
  0
VERTEX
  8
1250LEVEL
 62
13
 10
-1257.003
 20
715.922
 30
3977.000
 70
    32
  0
VERTEX
  8
1250LEVEL
 62
13
 10
-1267.594
 20
731.827
 30
3977.000
 70
    32
  0
VERTEX
  8
1250LEVEL
 62
13
 10
-1286.128
 20
739.780
 30
3977.000
 70
    32
  0
VERTEX
  8
1250LEVEL
 62
13
 10
-1302.014
 20
731.827
 30
3977.000
 70
    32
  0
VERTEX
  8
1250LEVEL
 62
13
 10
-1296.719
 20
700.016
 30
3977.000
 70
    32
  0
VERTEX
  8
1250LEVEL
 62
13
 10
-1267.594
 20
670.857
 30
3977.000
 70
    32
  0
VERTEX
  8
1250LEVEL
 62
13
 10
-1235.822
 20
641.697
 30
3977.000
 70
    32
  0
VERTEX
  8
1250LEVEL
 62
13
 10
-1222.584
 20
623.141
 30
3977.000
 70
    32
  0
VERTEX
  8
1250LEVEL
 62
13
 10
-1222.584
 20
612.537
 30
3977.000
 70
    32
  0
VERTEX
  8
1250LEVEL
 62
13
 10
-1233.175
 20
609.886
 30
3977.000
 70
    32
  0
VERTEX
  8
1250LEVEL
 62
13
 10
-1254.356
 20
615.188
 30
3977.000
 70
    32
  0
VERTEX
  8
1250LEVEL
 62
13
 10
-1275.537
 20
641.697
 30
3977.000
 70
    32
  0
VERTEX
  8
1250LEVEL
 62
13
 10
-1296.719
 20
662.904
 30
3977.000
 70
    32
  0
VERTEX
  8
1250LEVEL
 62
13
 10
-1325.843
 20
694.715
 30
3977.000
 70
    32
  0
VERTEX
  8
1250LEVEL
 62
13
 10
-1328.491
 20
729.176
 30
3977.000
 70
    32
  0
VERTEX
  8
1250LEVEL
 62
13
 10
-1317.900
 20
768.940
 30
3977.000
 70
    32
  0
VERTEX
  8
1250LEVEL
 62
13
 10
-1339.081
 20
790.147
 30
3977.000
 70
    32
  0
VERTEX
  8
1250LEVEL
 62
13
 10
-1365.558
 20
819.307
 30
3977.000
 70
    32
  0
VERTEX
  8
1250LEVEL
 62
13
 10
-1384.091
 20
851.117
 30
3977.000
 70
    32
  0
VERTEX
  8
1250LEVEL
 62
13
 10
-1392.035
 20
867.023
 30
3977.000
 70
    32
  0
VERTEX
  8
1250LEVEL
 62
13
 10
-1426.454
 20
925.342
 30
3977.000
 70
    32
  0
VERTEX
  8
1250LEVEL
 62
13
 10
-1458.226
 20
954.502
 30
3977.000
 70
    32
  0
VERTEX
  8
1250LEVEL
 62
13
 10
-1503.237
 20
1031.378
 30
3977.000
 70
    32
  0
VERTEX
  8
1250LEVEL
 62
13
 10
-1529.713
 20
1068.490
 30
3977.000
 70
    32
  0
VERTEX
  8
1250LEVEL
 62
13
 10
-1590.610
 20
1195.733
 30
3977.000
 70
    32
  0
VERTEX
  8
1250LEVEL
 62
13
 10
-1622.382
 20
1219.591
 30
3977.000
 70
    32
  0
VERTEX
  8
1250LEVEL
 62
13
 10
-1651.506
 20
1224.892
 30
3977.000
 70
    32
  0
VERTEX
  8
1250LEVEL
 62
13
 10
-1677.983
 20
1238.147
 30
3977.000
 70
    32
  0
VERTEX
  8
1250LEVEL
 62
13
 10
-1709.755
 20
1259.354
 30
3977.000
 70
    32
  0
VERTEX
  8
1250LEVEL
 62
13
 10
-1722.993
 20
1285.863
 30
3977.000
 70
    32
  0
VERTEX
  8
1250LEVEL
 62
13
 10
-1752.117
 20
1322.976
 30
3977.000
 70
    32
  0
VERTEX
  8
1250LEVEL
 62
13
 10
-1765.356
 20
1354.786
 30
3977.000
 70
    32
  0
VERTEX
  8
1250LEVEL
 62
13
 10
-1778.594
 20
1386.597
 30
3977.000
 70
    32
  0
VERTEX
  8
1250LEVEL
 62
13
 10
-1789.185
 20
1410.455
 30
3977.000
 70
    32
  0
VERTEX
  8
1250LEVEL
 62
13
 10
-1807.718
 20
1423.709
 30
3977.000
 70
    32
  0
VERTEX
  8
1250LEVEL
 62
13
 10
-1826.252
 20
1429.011
 30
3977.000
 70
    32
  0
VERTEX
  8
1250LEVEL
 62
13
 10
-1850.081
 20
1429.011
 30
3977.000
 70
    32
  0
VERTEX
  8
1250LEVEL
 62
13
 10
-1868.615
 20
1442.265
 30
3977.000
 70
    32
  0
VERTEX
  8
1250LEVEL
 62
13
 10
-1892.444
 20
1482.029
 30
3977.000
 70
    32
  0
VERTEX
  8
1250LEVEL
 62
13
 10
-1900.387
 20
1505.887
 30
3977.000
 70
    32
  0
VERTEX
  8
1250LEVEL
 62
13
 10
-1910.977
 20
1535.046
 30
3977.000
 70
    32
  0
VERTEX
  8
1250LEVEL
 62
13
 10
-1910.977
 20
1564.207
 30
3977.000
 70
    32
  0
VERTEX
  8
1250LEVEL
 62
13
 10
-1918.920
 20
1582.763
 30
3977.000
 70
    32
  0
VERTEX
  8
1250LEVEL
 62
13
 10
-1934.806
 20
1601.319
 30
3977.000
 70
    32
  0
VERTEX
  8
1250LEVEL
 62
13
 10
-1955.988
 20
1619.875
 30
3977.000
 70
    32
  0
VERTEX
  8
1250LEVEL
 62
13
 10
-1977.169
 20
1630.479
 30
3977.000
 70
    32
  0
VERTEX
  8
1250LEVEL
 62
13
 10
-2016.884
 20
1633.130
 30
3977.000
 70
    32
  0
VERTEX
  8
1250LEVEL
 62
13
 10
-2038.065
 20
1625.177
 30
3977.000
 70
    32
  0
VERTEX
  8
1250LEVEL
 62
13
 10
-2046.008
 20
1603.970
 30
3977.000
 70
    32
  0
VERTEX
  8
1250LEVEL
 62
13
 10
-2038.065
 20
1558.905
 30
3977.000
 70
    32
  0
VERTEX
  8
1250LEVEL
 62
13
 10
-2016.884
 20
1505.887
 30
3977.000
 70
    32
  0
VERTEX
  8
1250LEVEL
 62
13
 10
-1990.407
 20
1466.123
 30
3977.000
 70
    32
  0
VERTEX
  8
1250LEVEL
 62
13
 10
-1948.045
 20
1431.662
 30
3977.000
 70
    32
  0
VERTEX
  8
1250LEVEL
 62
13
 10
-1903.034
 20
1405.153
 30
3977.000
 70
    32
  0
VERTEX
  8
1250LEVEL
 62
13
 10
-1889.796
 20
1375.993
 30
3977.000
 70
    32
  0
VERTEX
  8
1250LEVEL
 62
13
 10
-1868.615
 20
1354.786
 30
3977.000
 70
    32
  0
VERTEX
  8
1250LEVEL
 62
13
 10
-1818.309
 20
1267.307
 30
3977.000
 70
    32
  0
VERTEX
  8
1250LEVEL
 62
13
 10
-1799.775
 20
1235.496
 30
3977.000
 70
    32
  0
VERTEX
  8
1250LEVEL
 62
13
 10
-1754.765
 20
1190.431
 30
3977.000
 70
    32
  0
VERTEX
  8
1250LEVEL
 62
13
 10
-1728.288
 20
1166.573
 30
3977.000
 70
    32
  0
VERTEX
  8
1250LEVEL
 62
13
 10
-1688.574
 20
1134.762
 30
3977.000
 70
    32
  0
VERTEX
  8
1250LEVEL
 62
13
 10
-1654.154
 20
1081.745
 30
3977.000
 70
    32
  0
VERTEX
  8
1250LEVEL
 62
13
 10
-1617.086
 20
1007.519
 30
3977.000
 70
    32
  0
VERTEX
  8
1250LEVEL
 62
13
 10
-1585.314
 20
959.804
 30
3977.000
 70
    32
  0
VERTEX
  8
1250LEVEL
 62
13
 10
-1535.009
 20
912.088
 30
3977.000
 70
    32
  0
VERTEX
  8
1250LEVEL
 62
13
 10
-1503.237
 20
872.324
 30
3977.000
 70
    32
  0
VERTEX
  8
1250LEVEL
 62
13
 10
-1463.521
 20
824.608
 30
3977.000
 70
    32
  0
VERTEX
  8
1250LEVEL
 62
13
 10
-1434.397
 20
768.940
 30
3977.000
 70
    32
  0
VERTEX
  8
1250LEVEL
 62
13
 10
-1413.216
 20
742.431
 30
3977.000
 70
    32
  0
VERTEX
  8
1250LEVEL
 62
13
 10
-1381.444
 20
700.016
 30
3977.000
 70
    32
  0
VERTEX
  8
1250LEVEL
 62
13
 10
-1354.967
 20
676.158
 30
3977.000
 70
    32
  0
VERTEX
  8
1250LEVEL
 62
13
 10
-1328.491
 20
633.744
 30
3977.000
 70
    32
  0
VERTEX
  8
1250LEVEL
 62
13
 10
-1304.661
 20
596.632
 30
3977.000
 70
    32
  0
VERTEX
  8
1250LEVEL
 62
13
 10
-1280.832
 20
575.425
 30
3977.000
 70
    32
  0
VERTEX
  8
1250LEVEL
 62
13
 10
-1275.537
 20
554.218
 30
3977.000
 70
    32
  0
VERTEX
  8
1250LEVEL
 62
13
 10
-1254.356
 20
517.105
 30
3977.000
 70
    32
  0
VERTEX
  8
1250LEVEL
 62
13
 10
-1249.061
 20
498.549
 30
3977.000
 70
    32
  0
VERTEX
  8
1250LEVEL
 62
13
 10
-1230.527
 20
448.182
 30
3977.000
 70
    32
  0
VERTEX
  8
1250LEVEL
 62
13
 10
-1227.879
 20
437.578
 30
3977.000
 70
    32
  0
VERTEX
  8
1250LEVEL
 62
13
 10
-1241.118
 20
424.324
 30
3977.000
 70
    32
  0
VERTEX
  8
1250LEVEL
 62
13
 10
-1257.003
 20
424.324
 30
3977.000
 70
    32
  0
VERTEX
  8
1250LEVEL
 62
13
 10
-1275.537
 20
442.880
 30
3977.000
 70
    32
  0
VERTEX
  8
1250LEVEL
 62
13
 10
-1288.776
 20
464.087
 30
3977.000
 70
    32
  0
VERTEX
  8
1250LEVEL
 62
13
 10
-1307.309
 20
487.946
 30
3977.000
 70
    32
  0
VERTEX
  8
1250LEVEL
 62
13
 10
-1328.491
 20
519.756
 30
3977.000
 70
    32
  0
VERTEX
  8
1250LEVEL
 62
13
 10
-1352.320
 20
567.472
 30
3977.000
 70
    32
  0
VERTEX
  8
1250LEVEL
 62
13
 10
-1360.262
 20
596.632
 30
3977.000
 70
    32
  0
VERTEX
  8
1250LEVEL
 62
13
 10
-1386.739
 20
636.395
 30
3977.000
 70
    32
  0
VERTEX
  8
1250LEVEL
 62
13
 10
-1402.625
 20
668.206
 30
3977.000
 70
    32
  0
VERTEX
  8
1250LEVEL
 62
13
 10
-1450.283
 20
715.922
 30
3977.000
 70
    32
  0
VERTEX
  8
1250LEVEL
 62
13
 10
-1476.760
 20
745.081
 30
3977.000
 70
    32
  0
VERTEX
  8
1250LEVEL
 62
13
 10
-1497.941
 20
787.496
 30
3977.000
 70
    32
  0
VERTEX
  8
1250LEVEL
 62
13
 10
-1535.009
 20
832.561
 30
3977.000
 70
    32
  0
VERTEX
  8
1250LEVEL
 62
13
 10
-1561.485
 20
867.023
 30
3977.000
 70
    32
  0
VERTEX
  8
1250LEVEL
 62
13
 10
-1587.962
 20
904.135
 30
3977.000
 70
    32
  0
VERTEX
  8
1250LEVEL
 62
13
 10
-1625.029
 20
930.644
 30
3977.000
 70
    32
  0
VERTEX
  8
1250LEVEL
 62
13
 10
-1656.801
 20
957.153
 30
3977.000
 70
    32
  0
VERTEX
  8
1250LEVEL
 62
13
 10
-1670.040
 20
986.312
 30
3977.000
 70
    32
  0
VERTEX
  8
1250LEVEL
 62
13
 10
-1730.936
 20
1055.236
 30
3977.000
 70
    32
  0
VERTEX
  8
1250LEVEL
 62
13
 10
-1741.527
 20
1079.094
 30
3977.000
 70
    32
  0
VERTEX
  8
1250LEVEL
 62
13
 10
-1794.480
 20
1129.461
 30
3977.000
 70
    32
  0
VERTEX
  8
1250LEVEL
 62
13
 10
-1858.024
 20
1169.224
 30
3977.000
 70
    32
  0
VERTEX
  8
1250LEVEL
 62
13
 10
-1879.205
 20
1195.733
 30
3977.000
 70
    32
  0
VERTEX
  8
1250LEVEL
 62
13
 10
-1903.034
 20
1222.242
 30
3977.000
 70
    32
  0
VERTEX
  8
1250LEVEL
 62
13
 10
-1929.511
 20
1235.496
 30
3977.000
 70
    32
  0
VERTEX
  8
1250LEVEL
 62
13
 10
-1948.045
 20
1248.750
 30
3977.000
 70
    32
  0
VERTEX
  8
1250LEVEL
 62
13
 10
-1971.874
 20
1248.750
 30
3977.000
 70
    32
  0
VERTEX
  8
1250LEVEL
 62
13
 10
-1977.169
 20
1230.194
 30
3977.000
 70
    32
  0
VERTEX
  8
1250LEVEL
 62
13
 10
-1953.340
 20
1198.384
 30
3977.000
 70
    32
  0
VERTEX
  8
1250LEVEL
 62
13
 10
-1921.568
 20
1158.620
 30
3977.000
 70
    32
  0
VERTEX
  8
1250LEVEL
 62
13
 10
-1889.796
 20
1113.555
 30
3977.000
 70
    32
  0
VERTEX
  8
1250LEVEL
 62
13
 10
-1871.263
 20
1081.745
 30
3977.000
 70
    32
  0
VERTEX
  8
1250LEVEL
 62
13
 10
-1844.786
 20
1036.680
 30
3977.000
 70
    32
  0
VERTEX
  8
1250LEVEL
 62
13
 10
-1805.071
 20
1004.869
 30
3977.000
 70
    32
  0
VERTEX
  8
1250LEVEL
 62
13
 10
-1773.299
 20
975.709
 30
3977.000
 70
    32
  0
VERTEX
  8
1250LEVEL
 62
13
 10
-1744.174
 20
949.200
 30
3977.000
 70
    32
  0
VERTEX
  8
1250LEVEL
 62
13
 10
-1725.641
 20
925.342
 30
3977.000
 70
    32
  0
VERTEX
  8
1250LEVEL
 62
13
 10
-1722.993
 20
909.437
 30
3977.000
 70
    32
  0
VERTEX
  8
1250LEVEL
 62
13
 10
-1709.755
 20
880.277
 30
3977.000
 70
    32
  0
VERTEX
  8
1250LEVEL
 62
13
 10
-1699.164
 20
869.673
 30
3977.000
 70
    32
  0
VERTEX
  8
1250LEVEL
 62
13
 10
-1672.687
 20
843.165
 30
3977.000
 70
    32
  0
VERTEX
  8
1250LEVEL
 62
13
 10
-1654.154
 20
814.005
 30
3977.000
 70
    32
  0
VERTEX
  8
1250LEVEL
 62
13
 10
-1635.620
 20
795.449
 30
3977.000
 70
    32
  0
VERTEX
  8
1250LEVEL
 62
13
 10
-1611.791
 20
782.194
 30
3977.000
 70
    32
  0
VERTEX
  8
1250LEVEL
 62
13
 10
-1582.667
 20
729.176
 30
3977.000
 70
    32
  0
VERTEX
  8
1250LEVEL
 62
13
 10
-1561.485
 20
686.762
 30
3977.000
 70
    32
  0
VERTEX
  8
1250LEVEL
 62
13
 10
-1540.304
 20
646.999
 30
3977.000
 70
    32
  0
VERTEX
  8
1250LEVEL
 62
13
 10
-1492.646
 20
599.283
 30
3977.000
 70
    32
  0
VERTEX
  8
1250LEVEL
 62
13
 10
-1482.055
 20
586.028
 30
3977.000
 70
    32
  0
VERTEX
  8
1250LEVEL
 62
13
 10
-1482.055
 20
578.076
 30
3977.000
 70
    32
  0
VERTEX
  8
1250LEVEL
 62
13
 10
-1487.351
 20
575.425
 30
3977.000
 70
    32
  0
VERTEX
  8
1250LEVEL
 62
13
 10
-1497.941
 20
580.727
 30
3977.000
 70
    32
  0
VERTEX
  8
1250LEVEL
 62
13
 10
-1505.884
 20
572.774
 30
3977.000
 70
    32
  0
VERTEX
  8
1250LEVEL
 62
13
 10
-1497.941
 20
548.916
 30
3977.000
 70
    32
  0
VERTEX
  8
1250LEVEL
 62
13
 10
-1487.351
 20
506.502
 30
3977.000
 70
    32
  0
VERTEX
  8
1250LEVEL
 62
13
 10
-1466.169
 20
474.691
 30
3977.000
 70
    32
  0
VERTEX
  8
1250LEVEL
 62
13
 10
-1450.283
 20
411.069
 30
3977.000
 70
    32
  0
VERTEX
  8
1250LEVEL
 62
13
 10
-1381.444
 20
310.336
 30
3977.000
 70
    32
  0
VERTEX
  8
1250LEVEL
 62
13
 10
-1315.252
 20
201.649
 30
3977.000
 70
    32
  0
VERTEX
  8
1250LEVEL
 62
13
 10
-1233.175
 20
53.200
 30
3977.000
 70
    32
  0
VERTEX
  8
1250LEVEL
 62
13
 10
-1193.460
 20
2.833
 30
3977.000
 70
    32
  0
VERTEX
  8
1250LEVEL
 62
13
 10
-1174.926
 20
-42.232
 30
3977.000
 70
    32
  0
VERTEX
  8
1250LEVEL
 62
13
 10
-1111.382
 20
-172.126
 30
3977.000
 70
    32
  0
VERTEX
  8
1250LEVEL
 62
13
 10
-1098.143
 20
-211.889
 30
3977.000
 70
    32
  0
VERTEX
  8
1250LEVEL
 62
13
 10
-1098.143
 20
-256.954
 30
3977.000
 70
    32
  0
VERTEX
  8
1250LEVEL
 62
13
 10
-1132.563
 20
-275.511
 30
3977.000
 70
    32
  0
VERTEX
  8
1250LEVEL
 62
13
 10
-1204.050
 20
-225.144
 30
3977.000
 70
    32
  0
VERTEX
  8
1250LEVEL
 62
13
 10
-1241.118
 20
-172.126
 30
3977.000
 70
    32
  0
VERTEX
  8
1250LEVEL
 62
13
 10
-1312.605
 20
-84.647
 30
3977.000
 70
    32
  0
VERTEX
  8
1250LEVEL
 62
13
 10
-1389.387
 20
-5.120
 30
3977.000
 70
    32
  0
VERTEX
  8
1250LEVEL
 62
13
 10
-1415.864
 20
58.501
 30
3977.000
 70
    32
  0
VERTEX
  8
1250LEVEL
 62
13
 10
-1466.169
 20
140.679
 30
3977.000
 70
    32
  0
VERTEX
  8
1250LEVEL
 62
13
 10
-1511.180
 20
246.715
 30
3977.000
 70
    32
  0
VERTEX
  8
1250LEVEL
 62
13
 10
-1574.724
 20
358.052
 30
3977.000
 70
    32
  0
VERTEX
  8
1250LEVEL
 62
13
 10
-1606.496
 20
442.880
 30
3977.000
 70
    32
  0
VERTEX
  8
1250LEVEL
 62
13
 10
-1643.563
 20
495.898
 30
3977.000
 70
    32
  0
VERTEX
  8
1250LEVEL
 62
13
 10
-1670.040
 20
543.614
 30
3977.000
 70
    32
  0
VERTEX
  8
1250LEVEL
 62
13
 10
-1709.755
 20
601.934
 30
3977.000
 70
    32
  0
VERTEX
  8
1250LEVEL
 62
13
 10
-1741.527
 20
633.744
 30
3977.000
 70
    32
  0
VERTEX
  8
1250LEVEL
 62
13
 10
-1754.765
 20
668.206
 30
3977.000
 70
    32
  0
VERTEX
  8
1250LEVEL
 62
13
 10
-1773.299
 20
713.271
 30
3977.000
 70
    32
  0
VERTEX
  8
1250LEVEL
 62
13
 10
-1791.833
 20
734.478
 30
3977.000
 70
    32
  0
VERTEX
  8
1250LEVEL
 62
13
 10
-1815.661
 20
760.987
 30
3977.000
 70
    32
  0
VERTEX
  8
1250LEVEL
 62
13
 10
-1884.501
 20
843.165
 30
3977.000
 70
    32
  0
VERTEX
  8
1250LEVEL
 62
13
 10
-1900.387
 20
869.673
 30
3977.000
 70
    32
  0
VERTEX
  8
1250LEVEL
 62
13
 10
-1926.864
 20
901.484
 30
3977.000
 70
    32
  0
VERTEX
  8
1250LEVEL
 62
13
 10
-1948.045
 20
954.502
 30
3977.000
 70
    32
  0
VERTEX
  8
1250LEVEL
 62
13
 10
-1961.283
 20
978.360
 30
3977.000
 70
    32
  0
VERTEX
  8
1250LEVEL
 62
13
 10
-1971.874
 20
1002.218
 30
3977.000
 70
    32
  0
VERTEX
  8
1250LEVEL
 62
13
 10
-1987.760
 20
1002.218
 30
3977.000
 70
    32
  0
VERTEX
  8
1250LEVEL
 62
13
 10
-1985.112
 20
983.662
 30
3977.000
 70
    32
  0
VERTEX
  8
1250LEVEL
 62
13
 10
-1979.817
 20
962.454
 30
3977.000
 70
    32
  0
VERTEX
  8
1250LEVEL
 62
13
 10
-1985.112
 20
957.153
 30
3977.000
 70
    32
  0
VERTEX
  8
1250LEVEL
 62
13
 10
-2000.998
 20
959.804
 30
3977.000
 70
    32
  0
VERTEX
  8
1250LEVEL
 62
13
 10
-2014.236
 20
973.058
 30
3977.000
 70
    32
  0
VERTEX
  8
1250LEVEL
 62
13
 10
-2024.827
 20
970.407
 30
3977.000
 70
    32
  0
VERTEX
  8
1250LEVEL
 62
13
 10
-2022.179
 20
954.502
 30
3977.000
 70
    32
  0
VERTEX
  8
1250LEVEL
 62
13
 10
-1990.407
 20
912.088
 30
3977.000
 70
    32
  0
VERTEX
  8
1250LEVEL
 62
13
 10
-1961.283
 20
867.023
 30
3977.000
 70
    32
  0
VERTEX
  8
1250LEVEL
 62
13
 10
-1921.568
 20
819.307
 30
3977.000
 70
    32
  0
VERTEX
  8
1250LEVEL
 62
13
 10
-1879.205
 20
771.591
 30
3977.000
 70
    32
  0
VERTEX
  8
1250LEVEL
 62
13
 10
-1836.843
 20
745.081
 30
3977.000
 70
    32
  0
VERTEX
  8
1250LEVEL
 62
13
 10
-1807.718
 20
694.715
 30
3977.000
 70
    32
  0
VERTEX
  8
1250LEVEL
 62
13
 10
-1749.470
 20
601.934
 30
3977.000
 70
    32
  0
VERTEX
  8
1250LEVEL
 62
13
 10
-1685.926
 20
498.549
 30
3977.000
 70
    32
  0
VERTEX
  8
1250LEVEL
 62
13
 10
-1651.506
 20
421.673
 30
3977.000
 70
    32
  0
VERTEX
  8
1250LEVEL
 62
13
 10
-1651.506
 20
411.069
 30
3977.000
 70
    32
  0
VERTEX
  8
1250LEVEL
 62
13
 10
-1659.449
 20
392.513
 30
3977.000
 70
    32
  0
VERTEX
  8
1250LEVEL
 62
13
 10
-1677.983
 20
392.513
 30
3977.000
 70
    32
  0
VERTEX
  8
1250LEVEL
 62
13
 10
-1699.164
 20
424.324
 30
3977.000
 70
    32
  0
VERTEX
  8
1250LEVEL
 62
13
 10
-1738.879
 20
469.389
 30
3977.000
 70
    32
  0
VERTEX
  8
1250LEVEL
 62
13
 10
-1762.708
 20
509.153
 30
3977.000
 70
    32
  0
VERTEX
  8
1250LEVEL
 62
13
 10
-1818.309
 20
580.727
 30
3977.000
 70
    32
  0
VERTEX
  8
1250LEVEL
 62
13
 10
-1842.138
 20
641.697
 30
3977.000
 70
    32
  0
VERTEX
  8
1250LEVEL
 62
13
 10
-1855.376
 20
660.253
 30
3977.000
 70
    32
  0
VERTEX
  8
1250LEVEL
 62
13
 10
-1903.034
 20
692.064
 30
3977.000
 70
    32
  0
VERTEX
  8
1250LEVEL
 62
13
 10
-1963.931
 20
721.223
 30
3977.000
 70
    32
  0
VERTEX
  8
1250LEVEL
 62
13
 10
-2027.475
 20
774.242
 30
3977.000
 70
    32
  0
VERTEX
  8
1250LEVEL
 62
13
 10
-2067.190
 20
824.608
 30
3977.000
 70
    32
  0
VERTEX
  8
1250LEVEL
 62
13
 10
-2112.200
 20
880.277
 30
3977.000
 70
    32
  0
VERTEX
  8
1250LEVEL
 62
13
 10
-2138.677
 20
896.182
 30
3977.000
 70
    32
  0
VERTEX
  8
1250LEVEL
 62
13
 10
-2149.267
 20
912.088
 30
3977.000
 70
    32
  0
VERTEX
  8
1250LEVEL
 62
13
 10
-2165.154
 20
927.993
 30
3977.000
 70
    32
  0
VERTEX
  8
1250LEVEL
 62
13
 10
-2207.516
 20
1010.170
 30
3977.000
 70
    32
  0
VERTEX
  8
1250LEVEL
 62
13
 10
-2228.697
 20
1052.585
 30
3977.000
 70
    32
  0
VERTEX
  8
1250LEVEL
 62
13
 10
-2249.879
 20
1102.952
 30
3977.000
 70
    32
  0
VERTEX
  8
1250LEVEL
 62
13
 10
-2279.003
 20
1153.319
 30
3977.000
 70
    32
  0
VERTEX
  8
1250LEVEL
 62
13
 10
-2347.843
 20
1232.845
 30
3977.000
 70
    32
  0
VERTEX
  8
1250LEVEL
 62
13
 10
-2414.034
 20
1322.976
 30
3977.000
 70
    32
  0
VERTEX
  8
1250LEVEL
 62
13
 10
-2466.988
 20
1378.644
 30
3977.000
 70
    32
  0
VERTEX
  8
1250LEVEL
 62
13
 10
-2496.112
 20
1429.011
 30
3977.000
 70
    32
  0
VERTEX
  8
1250LEVEL
 62
13
 10
-2549.065
 20
1503.236
 30
3977.000
 70
    32
  0
VERTEX
  8
1250LEVEL
 62
13
 10
-2583.485
 20
1540.348
 30
3977.000
 70
    32
  0
VERTEX
  8
1250LEVEL
 62
13
 10
-2620.552
 20
1569.508
 30
3977.000
 70
    32
  0
VERTEX
  8
1250LEVEL
 62
13
 10
-2707.925
 20
1630.479
 30
3977.000
 70
    32
  0
VERTEX
  8
1250LEVEL
 62
13
 10
-2758.231
 20
1646.384
 30
3977.000
 70
    32
  0
VERTEX
  8
1250LEVEL
 62
13
 10
-2795.298
 20
1680.846
 30
3977.000
 70
    32
  0
VERTEX
  8
1250LEVEL
 62
13
 10
-2835.013
 20
1691.449
 30
3977.000
 70
    32
  0
VERTEX
  8
1250LEVEL
 62
13
 10
-2880.024
 20
1694.100
 30
3977.000
 70
    32
  0
VERTEX
  8
1250LEVEL
 62
13
 10
-2890.614
 20
1664.941
 30
3977.000
 70
    32
  0
VERTEX
  8
1250LEVEL
 62
13
 10
-2880.024
 20
1646.384
 30
3977.000
 70
    32
  0
VERTEX
  8
1250LEVEL
 62
13
 10
-2861.490
 20
1601.319
 30
3977.000
 70
    32
  0
VERTEX
  8
1250LEVEL
 62
13
 10
-2813.832
 20
1556.254
 30
3977.000
 70
    32
  0
VERTEX
  8
1250LEVEL
 62
13
 10
-2734.402
 20
1466.124
 30
3977.000
 70
    32
  0
VERTEX
  8
1250LEVEL
 62
13
 10
-2665.562
 20
1362.739
 30
3977.000
 70
    32
  0
VERTEX
  8
1250LEVEL
 62
13
 10
-2628.495
 20
1304.420
 30
3977.000
 70
    32
  0
VERTEX
  8
1250LEVEL
 62
13
 10
-2599.371
 20
1259.354
 30
3977.000
 70
    32
  0
VERTEX
  8
1250LEVEL
 62
13
 10
-2580.837
 20
1214.289
 30
3977.000
 70
    32
  0
VERTEX
  8
1250LEVEL
 62
13
 10
-2570.246
 20
1171.875
 30
3977.000
 70
    32
  0
VERTEX
  8
1250LEVEL
 62
13
 10
-2570.246
 20
1145.366
 30
3977.000
 70
    32
  0
VERTEX
  8
1250LEVEL
 62
13
 10
-2570.246
 20
1113.556
 30
3977.000
 70
    32
  0
VERTEX
  8
1250LEVEL
 62
13
 10
-2578.189
 20
1073.792
 30
3977.000
 70
    32
  0
VERTEX
  8
1250LEVEL
 62
13
 10
-2578.189
 20
1031.378
 30
3977.000
 70
    32
  0
VERTEX
  8
1250LEVEL
 62
13
 10
-2575.542
 20
991.615
 30
3977.000
 70
    32
  0
VERTEX
  8
1250LEVEL
 62
13
 10
-2570.246
 20
959.804
 30
3977.000
 70
    32
  0
VERTEX
  8
1250LEVEL
 62
13
 10
-2557.008
 20
925.342
 30
3977.000
 70
    32
  0
VERTEX
  8
1250LEVEL
 62
13
 10
-2551.712
 20
901.484
 30
3977.000
 70
    32
  0
VERTEX
  8
1250LEVEL
 62
13
 10
-2549.065
 20
880.277
 30
3977.000
 70
    32
  0
VERTEX
  8
1250LEVEL
 62
13
 10
-2557.008
 20
872.325
 30
3977.000
 70
    32
  0
VERTEX
  8
1250LEVEL
 62
13
 10
-2570.246
 20
882.928
 30
3977.000
 70
    32
  0
VERTEX
  8
1250LEVEL
 62
13
 10
-2578.189
 20
906.786
 30
3977.000
 70
    32
  0
VERTEX
  8
1250LEVEL
 62
13
 10
-2594.075
 20
949.200
 30
3977.000
 70
    32
  0
VERTEX
  8
1250LEVEL
 62
13
 10
-2631.142
 20
996.916
 30
3977.000
 70
    32
  0
VERTEX
  8
1250LEVEL
 62
13
 10
-2662.915
 20
1049.934
 30
3977.000
 70
    32
  0
VERTEX
  8
1250LEVEL
 62
13
 10
-2692.039
 20
1100.301
 30
3977.000
 70
    32
  0
VERTEX
  8
1250LEVEL
 62
13
 10
-2742.345
 20
1169.224
 30
3977.000
 70
    32
  0
VERTEX
  8
1250LEVEL
 62
13
 10
-2766.174
 20
1208.988
 30
3977.000
 70
    32
  0
VERTEX
  8
1250LEVEL
 62
13
 10
-2829.718
 20
1251.402
 30
3977.000
 70
    32
  0
VERTEX
  8
1250LEVEL
 62
13
 10
-2898.557
 20
1283.212
 30
3977.000
 70
    32
  0
VERTEX
  8
1250LEVEL
 62
13
 10
-2972.692
 20
1299.118
 30
3977.000
 70
    32
  0
VERTEX
  8
1250LEVEL
 62
13
 10
-3025.645
 20
1309.722
 30
3977.000
 70
    32
  0
VERTEX
  8
1250LEVEL
 62
13
 10
-3115.666
 20
1341.532
 30
3977.000
 70
    32
  0
VERTEX
  8
1250LEVEL
 62
13
 10
-3155.381
 20
1378.645
 30
3977.000
 70
    32
  0
VERTEX
  8
1250LEVEL
 62
13
 10
-3176.562
 20
1383.946
 30
3977.000
 70
    32
  0
VERTEX
  8
1250LEVEL
 62
13
 10
-3184.505
 20
1373.343
 30
3977.000
 70
    32
  0
VERTEX
  8
1250LEVEL
 62
13
 10
-3181.858
 20
1349.485
 30
3977.000
 70
    32
  0
VERTEX
  8
1250LEVEL
 62
13
 10
-3163.324
 20
1307.071
 30
3977.000
 70
    32
  0
VERTEX
  8
1250LEVEL
 62
13
 10
-3134.200
 20
1193.082
 30
3977.000
 70
    32
  0
VERTEX
  8
1250LEVEL
 62
13
 10
-3065.360
 20
1012.822
 30
3977.000
 70
    32
  0
VERTEX
  8
1250LEVEL
 62
13
 10
-3004.464
 20
927.993
 30
3977.000
 70
    32
  0
VERTEX
  8
1250LEVEL
 62
13
 10
-2956.806
 20
882.928
 30
3977.000
 70
    32
  0
VERTEX
  8
1250LEVEL
 62
13
 10
-2914.443
 20
861.721
 30
3977.000
 70
    32
  0
VERTEX
  8
1250LEVEL
 62
13
 10
-2877.376
 20
811.354
 30
3977.000
 70
    32
  0
VERTEX
  8
1250LEVEL
 62
13
 10
-2832.366
 20
753.034
 30
3977.000
 70
    32
  0
VERTEX
  8
1250LEVEL
 62
13
 10
-2795.298
 20
731.827
 30
3977.000
 70
    32
  0
VERTEX
  8
1250LEVEL
 62
13
 10
-2774.117
 20
707.969
 30
3977.000
 70
    32
  0
VERTEX
  8
1250LEVEL
 62
13
 10
-2707.925
 20
644.348
 30
3977.000
 70
    32
  0
VERTEX
  8
1250LEVEL
 62
13
 10
-2681.448
 20
599.283
 30
3977.000
 70
    32
  0
VERTEX
  8
1250LEVEL
 62
13
 10
-2657.619
 20
554.218
 30
3977.000
 70
    32
  0
VERTEX
  8
1250LEVEL
 62
13
 10
-2636.438
 20
533.011
 30
3977.000
 70
    32
  0
VERTEX
  8
1250LEVEL
 62
13
 10
-2607.314
 20
530.360
 30
3977.000
 70
    32
  0
VERTEX
  8
1250LEVEL
 62
13
 10
-2591.428
 20
540.963
 30
3977.000
 70
    32
  0
VERTEX
  8
1250LEVEL
 62
13
 10
-2580.837
 20
562.170
 30
3977.000
 70
    32
  0
VERTEX
  8
1250LEVEL
 62
13
 10
-2551.712
 20
540.963
 30
3977.000
 70
    32
  0
VERTEX
  8
1250LEVEL
 62
13
 10
-2517.293
 20
493.247
 30
3977.000
 70
    32
  0
VERTEX
  8
1250LEVEL
 62
13
 10
-2501.407
 20
437.579
 30
3977.000
 70
    32
  0
VERTEX
  8
1250LEVEL
 62
13
 10
-2485.521
 20
384.561
 30
3977.000
 70
    32
  0
VERTEX
  8
1250LEVEL
 62
13
 10
-2472.282
 20
350.099
 30
3977.000
 70
    32
  0
VERTEX
  8
1250LEVEL
 62
13
 10
-2464.340
 20
270.573
 30
3977.000
 70
    32
  0
VERTEX
  8
1250LEVEL
 62
13
 10
-2375.630
 20
127.672
 30
3977.000
 70
    32
  0
VERTEX
  8
1250LEVEL
 62
13
 10
-2309.540
 20
-8.608
 30
3977.000
 70
    32
  0
VERTEX
  8
1250LEVEL
 62
13
 10
-2220.123
 20
-168.251
 30
3977.000
 70
    32
  0
VERTEX
  8
1250LEVEL
 62
13
 10
-2169.583
 20
-277.275
 30
3977.000
 70
    32
  0
VERTEX
  8
1250LEVEL
 62
13
 10
-2115.155
 20
-362.937
 30
3977.000
 70
    32
  0
VERTEX
  8
1250LEVEL
 62
13
 10
-2068.503
 20
-440.812
 30
3977.000
 70
    32
  0
VERTEX
  8
1250LEVEL
 62
13
 10
-2002.413
 20
-549.836
 30
3977.000
 70
    32
  0
VERTEX
  8
1250LEVEL
 62
13
 10
-1979.087
 20
-600.455
 30
3977.000
 70
    32
  0
VERTEX
  8
1250LEVEL
 62
13
 10
-1971.311
 20
-658.860
 30
3977.000
 70
    32
  0
VERTEX
  8
1250LEVEL
 62
13
 10
-1975.199
 20
-682.223
 30
3977.000
 70
    32
  0
VERTEX
  8
1250LEVEL
 62
13
 10
-2017.964
 20
-674.435
 30
3977.000
 70
    32
  0
VERTEX
  8
1250LEVEL
 62
13
 10
-2068.503
 20
-623.817
 30
3977.000
 70
    32
  0
VERTEX
  8
1250LEVEL
 62
13
 10
-2115.155
 20
-557.623
 30
3977.000
 70
    32
  0
VERTEX
  8
1250LEVEL
 62
13
 10
-2154.032
 20
-471.962
 30
3977.000
 70
    32
  0
VERTEX
  8
1250LEVEL
 62
13
 10
-2200.685
 20
-366.831
 30
3977.000
 70
    32
  0
VERTEX
  8
1250LEVEL
 62
13
 10
-2255.112
 20
-277.275
 30
3977.000
 70
    32
  0
VERTEX
  8
1250LEVEL
 62
13
 10
-2286.214
 20
-222.763
 30
3977.000
 70
    32
  0
VERTEX
  8
1250LEVEL
 62
13
 10
-2340.641
 20
-152.676
 30
3977.000
 70
    32
  0
VERTEX
  8
1250LEVEL
 62
13
 10
-2363.967
 20
-117.633
 30
3977.000
 70
    32
  0
VERTEX
  8
1250LEVEL
 62
13
 10
-2410.619
 20
-74.802
 30
3977.000
 70
    32
  0
VERTEX
  8
1250LEVEL
 62
13
 10
-2441.721
 20
-82.589
 30
3977.000
 70
    32
  0
VERTEX
  8
1250LEVEL
 62
13
 10
-2461.160
 20
-133.208
 30
3977.000
 70
    32
  0
VERTEX
  8
1250LEVEL
 62
13
 10
-2437.834
 20
-218.870
 30
3977.000
 70
    32
  0
VERTEX
  8
1250LEVEL
 62
13
 10
-2379.518
 20
-331.787
 30
3977.000
 70
    32
  0
VERTEX
  8
1250LEVEL
 62
13
 10
-2286.214
 20
-452.493
 30
3977.000
 70
    32
  0
VERTEX
  8
1250LEVEL
 62
13
 10
-2220.123
 20
-538.155
 30
3977.000
 70
    32
  0
VERTEX
  8
1250LEVEL
 62
13
 10
-2185.134
 20
-619.923
 30
3977.000
 70
    32
  0
VERTEX
  8
1250LEVEL
 62
13
 10
-2161.808
 20
-662.754
 30
3977.000
 70
    32
  0
VERTEX
  8
1250LEVEL
 62
13
 10
-2142.369
 20
-721.160
 30
3977.000
 70
    32
  0
VERTEX
  8
1250LEVEL
 62
13
 10
-2107.380
 20
-802.928
 30
3977.000
 70
    32
  0
SEQEND
  8
1250LEVEL
  0
POLYLINE
  8
1250LEVEL
 62
13
 66
     1
 70
     8
  0
VERTEX
  8
1250LEVEL
 62
13
 10
-2589.453
 20
-993.720
 30
3977.000
 70
    32
  0
VERTEX
  8
1250LEVEL
 62
13
 10
-2632.217
 20
-962.571
 30
3977.000
 70
    32
  0
VERTEX
  8
1250LEVEL
 62
13
 10
-2706.084
 20
-900.271
 30
3977.000
 70
    32
  0
VERTEX
  8
1250LEVEL
 62
13
 10
-2768.286
 20
-826.290
 30
3977.000
 70
    32
  0
VERTEX
  8
1250LEVEL
 62
13
 10
-2838.265
 20
-725.053
 30
3977.000
 70
    32
  0
VERTEX
  8
1250LEVEL
 62
13
 10
-2888.805
 20
-651.073
 30
3977.000
 70
    32
  0
VERTEX
  8
1250LEVEL
 62
13
 10
-2939.345
 20
-580.986
 30
3977.000
 70
    32
  0
VERTEX
  8
1250LEVEL
 62
13
 10
-2970.446
 20
-526.474
 30
3977.000
 70
    32
  0
VERTEX
  8
1250LEVEL
 62
13
 10
-2982.109
 20
-495.324
 30
3977.000
 70
    32
  0
VERTEX
  8
1250LEVEL
 62
13
 10
-3020.986
 20
-433.024
 30
3977.000
 70
    32
  0
VERTEX
  8
1250LEVEL
 62
13
 10
-3044.312
 20
-409.662
 30
3977.000
 70
    32
  0
VERTEX
  8
1250LEVEL
 62
13
 10
-3071.526
 20
-405.768
 30
3977.000
 70
    32
  0
VERTEX
  8
1250LEVEL
 62
13
 10
-3079.301
 20
-417.450
 30
3977.000
 70
    32
  0
VERTEX
  8
1250LEVEL
 62
13
 10
-3079.301
 20
-507.005
 30
3977.000
 70
    32
  0
VERTEX
  8
1250LEVEL
 62
13
 10
-3055.975
 20
-580.986
 30
3977.000
 70
    32
  0
VERTEX
  8
1250LEVEL
 62
13
 10
-3001.548
 20
-701.691
 30
3977.000
 70
    32
  0
VERTEX
  8
1250LEVEL
 62
13
 10
-2954.895
 20
-791.247
 30
3977.000
 70
    32
  0
VERTEX
  8
1250LEVEL
 62
13
 10
-2892.692
 20
-900.271
 30
3977.000
 70
    32
  0
VERTEX
  8
1250LEVEL
 62
13
 10
-2830.489
 20
-1032.658
 30
3977.000
 70
    32
  0
VERTEX
  8
1250LEVEL
 62
13
 10
-2799.388
 20
-1110.532
 30
3977.000
 70
    32
  0
VERTEX
  8
1250LEVEL
 62
13
 10
-2787.725
 20
-1196.194
 30
3977.000
 70
    32
  0
VERTEX
  8
1250LEVEL
 62
13
 10
-2768.286
 20
-1281.856
 30
3977.000
 70
    32
  0
VERTEX
  8
1250LEVEL
 62
13
 10
-2764.399
 20
-1328.581
 30
3977.000
 70
    32
  0
SEQEND
  8
1250LEVEL
  0
POLYLINE
  8
1250LEVEL
 62
13
 66
     1
 70
     8
  0
VERTEX
  8
1250LEVEL
 62
13
 10
-3378.653
 20
-1566.098
 30
3977.000
 70
    32
  0
VERTEX
  8
1250LEVEL
 62
13
 10
-3386.428
 20
-1492.117
 30
3977.000
 70
    32
  0
VERTEX
  8
1250LEVEL
 62
13
 10
-3401.979
 20
-1410.349
 30
3977.000
 70
    32
  0
VERTEX
  8
1250LEVEL
 62
13
 10
-3394.203
 20
-1351.943
 30
3977.000
 70
    32
  0
VERTEX
  8
1250LEVEL
 62
13
 10
-3378.653
 20
-1297.431
 30
3977.000
 70
    32
  0
VERTEX
  8
1250LEVEL
 62
13
 10
-3378.653
 20
-1242.919
 30
3977.000
 70
    32
  0
VERTEX
  8
1250LEVEL
 62
13
 10
-3382.541
 20
-1153.363
 30
3977.000
 70
    32
  0
VERTEX
  8
1250LEVEL
 62
13
 10
-3382.541
 20
-1102.745
 30
3977.000
 70
    32
  0
VERTEX
  8
1250LEVEL
 62
13
 10
-3417.530
 20
-1052.126
 30
3977.000
 70
    32
  0
VERTEX
  8
1250LEVEL
 62
13
 10
-3483.620
 20
-1020.977
 30
3977.000
 70
    32
  0
VERTEX
  8
1250LEVEL
 62
13
 10
-3514.722
 20
-985.933
 30
3977.000
 70
    32
  0
VERTEX
  8
1250LEVEL
 62
13
 10
-3557.486
 20
-892.484
 30
3977.000
 70
    32
  0
VERTEX
  8
1250LEVEL
 62
13
 10
-3565.262
 20
-837.972
 30
3977.000
 70
    32
  0
VERTEX
  8
1250LEVEL
 62
13
 10
-3580.812
 20
-810.716
 30
3977.000
 70
    32
  0
VERTEX
  8
1250LEVEL
 62
13
 10
-3619.689
 20
-799.034
 30
3977.000
 70
    32
  0
VERTEX
  8
1250LEVEL
 62
13
 10
-3639.128
 20
-834.078
 30
3977.000
 70
    32
  0
VERTEX
  8
1250LEVEL
 62
13
 10
-3631.352
 20
-911.952
 30
3977.000
 70
    32
  0
VERTEX
  8
1250LEVEL
 62
13
 10
-3627.464
 20
-970.358
 30
3977.000
 70
    32
  0
VERTEX
  8
1250LEVEL
 62
13
 10
-3596.363
 20
-1067.701
 30
3977.000
 70
    32
  0
VERTEX
  8
1250LEVEL
 62
13
 10
-3545.823
 20
-1176.725
 30
3977.000
 70
    32
  0
VERTEX
  8
1250LEVEL
 62
13
 10
-3503.059
 20
-1320.793
 30
3977.000
 70
    32
  0
VERTEX
  8
1250LEVEL
 62
13
 10
-3483.620
 20
-1437.605
 30
3977.000
 70
    32
  0
VERTEX
  8
1250LEVEL
 62
13
 10
-3471.957
 20
-1546.629
 30
3977.000
 70
    32
  0
VERTEX
  8
1250LEVEL
 62
13
 10
-3468.069
 20
-1671.228
 30
3977.000
 70
    32
  0
VERTEX
  8
1250LEVEL
 62
13
 10
-3452.519
 20
-1784.146
 30
3977.000
 70
    32
  0
VERTEX
  8
1250LEVEL
 62
13
 10
-3464.182
 20
-1811.402
 30
3977.000
 70
    32
  0
VERTEX
  8
1250LEVEL
 62
13
 10
-3475.845
 20
-1811.402
 30
3977.000
 70
    32
  0
SEQEND
  8
1250LEVEL
  0
ENDSEC
  0
EOF
