999
********************************
999
*   DXF File - Entities Only   *
999
*        3D Data Format        *
999
*     Output from ENVISAGE     *
999
*     28-Dec-2007 13:46:31     *
999
********************************
  0
SECTION 
  2
HEADER
  9
$ACADVER
  1
AC1009
  9
$EXTMIN
 10
-290000.000
 20
-250000.000
 30
-4000.000
  9
$EXTMAX
 10
5000000.000
 20
600000.000
 30
6000.000
  0
ENDSEC
  0
SECTION
  2
ENTITIES
  0
POLYLINE
  8
1400LEVEL
 62
13
 66
     1
 70
     9
  0
VERTEX
  8
1400LEVEL
 62
13
 10
2478.417
 20
-1181.442
 30
3827.000
 70
    32
  0
VERTEX
  8
1400LEVEL
 62
13
 10
2490.173
 20
-1272.579
 30
3827.000
 70
    32
  0
VERTEX
  8
1400LEVEL
 62
13
 10
2492.304
 20
-1331.960
 30
3827.000
 70
    32
  0
VERTEX
  8
1400LEVEL
 62
13
 10
2495.475
 20
-1409.172
 30
3827.000
 70
    32
  0
VERTEX
  8
1400LEVEL
 62
13
 10
2495.011
 20
-1514.023
 30
3827.000
 70
    32
  0
VERTEX
  8
1400LEVEL
 62
13
 10
2485.147
 20
-1583.244
 30
3827.000
 70
    32
  0
VERTEX
  8
1400LEVEL
 62
13
 10
2439.079
 20
-1662.273
 30
3827.000
 70
    32
  0
VERTEX
  8
1400LEVEL
 62
13
 10
2477.579
 20
-1553.218
 30
3827.000
 70
    32
  0
VERTEX
  8
1400LEVEL
 62
13
 10
2465.727
 20
-1454.116
 30
3827.000
 70
    32
  0
VERTEX
  8
1400LEVEL
 62
13
 10
2443.453
 20
-1381.010
 30
3827.000
 70
    32
  0
VERTEX
  8
1400LEVEL
 62
13
 10
2423.272
 20
-1271.428
 30
3827.000
 70
    32
  0
VERTEX
  8
1400LEVEL
 62
13
 10
2418.186
 20
-1220.631
 30
3827.000
 70
    32
  0
VERTEX
  8
1400LEVEL
 62
13
 10
2474.792
 20
-1182.469
 30
3827.000
 70
    32
  0
SEQEND
  8
1400LEVEL
  0
POLYLINE
  8
1400LEVEL
 62
13
 66
     1
 70
     9
  0
VERTEX
  8
1400LEVEL
 62
13
 10
2633.636
 20
-1079.255
 30
3827.000
 70
    32
  0
VERTEX
  8
1400LEVEL
 62
13
 10
2634.017
 20
-1132.541
 30
3827.000
 70
    32
  0
VERTEX
  8
1400LEVEL
 62
13
 10
2628.384
 20
-1155.557
 30
3827.000
 70
    32
  0
VERTEX
  8
1400LEVEL
 62
13
 10
2625.099
 20
-1103.045
 30
3827.000
 70
    32
  0
VERTEX
  8
1400LEVEL
 62
13
 10
2627.780
 20
-1085.586
 30
3827.000
 70
    32
  0
SEQEND
  8
1400LEVEL
  0
POLYLINE
  8
1400LEVEL
 62
13
 66
     1
 70
     9
  0
VERTEX
  8
1400LEVEL
 62
13
 10
2497.016
 20
-1105.740
 30
3827.000
 70
    32
  0
VERTEX
  8
1400LEVEL
 62
13
 10
2505.459
 20
-1059.991
 30
3827.000
 70
    32
  0
VERTEX
  8
1400LEVEL
 62
13
 10
2502.464
 20
-1035.777
 30
3827.000
 70
    32
  0
VERTEX
  8
1400LEVEL
 62
13
 10
2493.052
 20
-1072.283
 30
3827.000
 70
    32
  0
VERTEX
  8
1400LEVEL
 62
13
 10
2490.477
 20
-1102.623
 30
3827.000
 70
    32
  0
SEQEND
  8
1400LEVEL
  0
POLYLINE
  8
1400LEVEL
 62
7
 66
     1
 70
     9
  0
VERTEX
  8
1400LEVEL
 62
7
 10
2556.822
 20
-4192.296
 30
3827.000
 70
    32
  0
VERTEX
  8
1400LEVEL
 62
7
 10
2562.081
 20
-4236.059
 30
3827.000
 70
    32
  0
VERTEX
  8
1400LEVEL
 62
7
 10
2585.886
 20
-4264.021
 30
3827.000
 70
    32
  0
VERTEX
  8
1400LEVEL
 62
7
 10
2566.234
 20
-4187.319
 30
3827.000
 70
    32
  0
SEQEND
  8
1400LEVEL
  0
POLYLINE
  8
1400LEVEL
 62
7
 66
     1
 70
     9
  0
VERTEX
  8
1400LEVEL
 62
7
 10
2644.672
 20
-4561.193
 30
3827.000
 70
    32
  0
VERTEX
  8
1400LEVEL
 62
7
 10
2669.772
 20
-4599.462
 30
3827.000
 70
    32
  0
VERTEX
  8
1400LEVEL
 62
7
 10
2692.376
 20
-4607.547
 30
3827.000
 70
    32
  0
VERTEX
  8
1400LEVEL
 62
7
 10
2669.678
 20
-4577.501
 30
3827.000
 70
    32
  0
VERTEX
  8
1400LEVEL
 62
7
 10
2647.255
 20
-4556.330
 30
3827.000
 70
    32
  0
SEQEND
  8
1400LEVEL
  0
POLYLINE
  8
1400LEVEL
 62
7
 66
     1
 70
     8
  0
VERTEX
  8
1400LEVEL
 62
7
 10
2670.273
 20
-4748.112
 30
3827.000
 70
    32
  0
VERTEX
  8
1400LEVEL
 62
7
 10
2702.638
 20
-4765.657
 30
3827.000
 70
    32
  0
VERTEX
  8
1400LEVEL
 62
7
 10
2659.766
 20
-4714.565
 30
3827.000
 70
    32
  0
VERTEX
  8
1400LEVEL
 62
7
 10
2621.396
 20
-4692.228
 30
3827.000
 70
    32
  0
VERTEX
  8
1400LEVEL
 62
7
 10
2652.359
 20
-4749.643
 30
3827.000
 70
    32
  0
VERTEX
  8
1400LEVEL
 62
7
 10
2683.033
 20
-4778.758
 30
3827.000
 70
    32
  0
VERTEX
  8
1400LEVEL
 62
7
 10
2669.170
 20
-4747.170
 30
3827.000
 70
    32
  0
SEQEND
  8
1400LEVEL
  0
POLYLINE
  8
1400LEVEL
 62
7
 66
     1
 70
     9
  0
VERTEX
  8
1400LEVEL
 62
7
 10
2394.200
 20
-4119.824
 30
3827.000
 70
    32
  0
VERTEX
  8
1400LEVEL
 62
7
 10
2357.085
 20
-4074.996
 30
3827.000
 70
    32
  0
VERTEX
  8
1400LEVEL
 62
7
 10
2320.446
 20
-4042.356
 30
3827.000
 70
    32
  0
VERTEX
  8
1400LEVEL
 62
7
 10
2317.302
 20
-4070.078
 30
3827.000
 70
    32
  0
VERTEX
  8
1400LEVEL
 62
7
 10
2378.217
 20
-4114.364
 30
3827.000
 70
    32
  0
SEQEND
  8
1400LEVEL
  0
POLYLINE
  8
1400LEVEL
 62
7
 66
     1
 70
     8
  0
VERTEX
  8
1400LEVEL
 62
7
 10
869.291
 20
-3376.056
 30
3827.000
 70
    32
  0
VERTEX
  8
1400LEVEL
 62
7
 10
944.332
 20
-3501.413
 30
3827.000
 70
    32
  0
VERTEX
  8
1400LEVEL
 62
7
 10
1029.298
 20
-3635.247
 30
3827.000
 70
    32
  0
VERTEX
  8
1400LEVEL
 62
7
 10
1133.450
 20
-3796.015
 30
3827.000
 70
    32
  0
VERTEX
  8
1400LEVEL
 62
7
 10
1225.419
 20
-3954.231
 30
3827.000
 70
    32
  0
VERTEX
  8
1400LEVEL
 62
7
 10
1303.940
 20
-4106.909
 30
3827.000
 70
    32
  0
VERTEX
  8
1400LEVEL
 62
7
 10
1337.439
 20
-4195.775
 30
3827.000
 70
    32
  0
VERTEX
  8
1400LEVEL
 62
7
 10
1243.995
 20
-4071.867
 30
3827.000
 70
    32
  0
VERTEX
  8
1400LEVEL
 62
7
 10
1130.591
 20
-3949.650
 30
3827.000
 70
    32
  0
VERTEX
  8
1400LEVEL
 62
7
 10
1018.939
 20
-3801.999
 30
3827.000
 70
    32
  0
VERTEX
  8
1400LEVEL
 62
7
 10
913.951
 20
-3655.216
 30
3827.000
 70
    32
  0
VERTEX
  8
1400LEVEL
 62
7
 10
799.111
 20
-3505.517
 30
3827.000
 70
    32
  0
VERTEX
  8
1400LEVEL
 62
7
 10
738.047
 20
-3418.578
 30
3827.000
 70
    32
  0
SEQEND
  8
1400LEVEL
  0
POLYLINE
  8
1400LEVEL
 62
13
 66
     1
 70
     8
  0
VERTEX
  8
1400LEVEL
 62
13
 10
784.193
 20
-3405.143
 30
3827.000
 70
    32
  0
VERTEX
  8
1400LEVEL
 62
13
 10
857.209
 20
-3515.530
 30
3827.000
 70
    32
  0
VERTEX
  8
1400LEVEL
 62
13
 10
929.290
 20
-3589.438
 30
3827.000
 70
    32
  0
VERTEX
  8
1400LEVEL
 62
13
 10
872.964
 20
-3475.802
 30
3827.000
 70
    32
  0
VERTEX
  8
1400LEVEL
 62
13
 10
833.393
 20
-3402.059
 30
3827.000
 70
    32
  0
SEQEND
  8
1400LEVEL
  0
POLYLINE
  8
1400LEVEL
 62
7
 66
     1
 70
     8
  0
VERTEX
  8
1400LEVEL
 62
7
 10
-508.427
 20
-3060.846
 30
3827.000
 70
    32
  0
VERTEX
  8
1400LEVEL
 62
7
 10
-412.961
 20
-3202.750
 30
3827.000
 70
    32
  0
VERTEX
  8
1400LEVEL
 62
7
 10
-342.050
 20
-3358.690
 30
3827.000
 70
    32
  0
VERTEX
  8
1400LEVEL
 62
7
 10
-284.228
 20
-3454.417
 30
3827.000
 70
    32
  0
VERTEX
  8
1400LEVEL
 62
7
 10
-370.918
 20
-3387.891
 30
3827.000
 70
    32
  0
VERTEX
  8
1400LEVEL
 62
7
 10
-454.162
 20
-3249.806
 30
3827.000
 70
    32
  0
VERTEX
  8
1400LEVEL
 62
7
 10
-521.717
 20
-3154.967
 30
3827.000
 70
    32
  0
VERTEX
  8
1400LEVEL
 62
7
 10
-451.662
 20
-3308.493
 30
3827.000
 70
    32
  0
VERTEX
  8
1400LEVEL
 62
7
 10
-359.348
 20
-3452.642
 30
3827.000
 70
    32
  0
VERTEX
  8
1400LEVEL
 62
7
 10
-334.519
 20
-3510.539
 30
3827.000
 70
    32
  0
VERTEX
  8
1400LEVEL
 62
7
 10
-470.353
 20
-3373.203
 30
3827.000
 70
    32
  0
VERTEX
  8
1400LEVEL
 62
7
 10
-582.210
 20
-3225.266
 30
3827.000
 70
    32
  0
VERTEX
  8
1400LEVEL
 62
7
 10
-628.127
 20
-3157.772
 30
3827.000
 70
    32
  0
SEQEND
  8
1400LEVEL
  0
POLYLINE
  8
1400LEVEL
 62
11
 66
     1
 70
     9
  0
VERTEX
  8
1400LEVEL
 62
11
 10
938.714
 20
-2228.701
 30
3827.000
 70
    32
  0
VERTEX
  8
1400LEVEL
 62
11
 10
886.952
 20
-2126.930
 30
3827.000
 70
    32
  0
VERTEX
  8
1400LEVEL
 62
11
 10
857.848
 20
-2116.996
 30
3827.000
 70
    32
  0
VERTEX
  8
1400LEVEL
 62
11
 10
895.410
 20
-2195.193
 30
3827.000
 70
    32
  0
VERTEX
  8
1400LEVEL
 62
11
 10
928.764
 20
-2238.380
 30
3827.000
 70
    32
  0
SEQEND
  8
1400LEVEL
  0
POLYLINE
  8
1400LEVEL
 62
11
 66
     1
 70
     9
  0
VERTEX
  8
1400LEVEL
 62
11
 10
2297.395
 20
-4439.284
 30
3827.000
 70
    32
  0
VERTEX
  8
1400LEVEL
 62
11
 10
2263.327
 20
-4379.330
 30
3827.000
 70
    32
  0
VERTEX
  8
1400LEVEL
 62
11
 10
2252.023
 20
-4424.094
 30
3827.000
 70
    32
  0
VERTEX
  8
1400LEVEL
 62
11
 10
2272.691
 20
-4473.726
 30
3827.000
 70
    32
  0
VERTEX
  8
1400LEVEL
 62
11
 10
2300.162
 20
-4449.839
 30
3827.000
 70
    32
  0
SEQEND
  8
1400LEVEL
  0
POLYLINE
  8
1400LEVEL
 62
11
 66
     1
 70
     9
  0
VERTEX
  8
1400LEVEL
 62
11
 10
1233.863
 20
-2372.624
 30
3827.000
 70
    32
  0
VERTEX
  8
1400LEVEL
 62
11
 10
1233.580
 20
-2401.332
 30
3827.000
 70
    32
  0
VERTEX
  8
1400LEVEL
 62
11
 10
1205.984
 20
-2364.409
 30
3827.000
 70
    32
  0
VERTEX
  8
1400LEVEL
 62
11
 10
1213.375
 20
-2341.436
 30
3827.000
 70
    32
  0
VERTEX
  8
1400LEVEL
 62
11
 10
1226.350
 20
-2363.291
 30
3827.000
 70
    32
  0
SEQEND
  8
1400LEVEL
  0
POLYLINE
  8
1400LEVEL
 62
5
 66
     1
 70
     9
  0
VERTEX
  8
1400LEVEL
 62
5
 10
1998.920
 20
-797.567
 30
3827.000
 70
    32
  0
VERTEX
  8
1400LEVEL
 62
5
 10
2052.043
 20
-889.729
 30
3827.000
 70
    32
  0
VERTEX
  8
1400LEVEL
 62
5
 10
2111.604
 20
-1000.630
 30
3827.000
 70
    32
  0
VERTEX
  8
1400LEVEL
 62
5
 10
2149.503
 20
-1102.342
 30
3827.000
 70
    32
  0
VERTEX
  8
1400LEVEL
 62
5
 10
2132.653
 20
-1103.547
 30
3827.000
 70
    32
  0
VERTEX
  8
1400LEVEL
 62
5
 10
2076.617
 20
-986.680
 30
3827.000
 70
    32
  0
VERTEX
  8
1400LEVEL
 62
5
 10
1998.119
 20
-847.374
 30
3827.000
 70
    32
  0
VERTEX
  8
1400LEVEL
 62
5
 10
1986.803
 20
-806.629
 30
3827.000
 70
    32
  0
SEQEND
  8
1400LEVEL
  0
POLYLINE
  8
1400LEVEL
 62
5
 66
     1
 70
     9
  0
VERTEX
  8
1400LEVEL
 62
5
 10
1722.690
 20
-602.591
 30
3827.000
 70
    32
  0
VERTEX
  8
1400LEVEL
 62
5
 10
1789.374
 20
-738.651
 30
3827.000
 70
    32
  0
VERTEX
  8
1400LEVEL
 62
5
 10
1830.867
 20
-874.514
 30
3827.000
 70
    32
  0
VERTEX
  8
1400LEVEL
 62
5
 10
1928.853
 20
-1028.445
 30
3827.000
 70
    32
  0
VERTEX
  8
1400LEVEL
 62
5
 10
2000.180
 20
-1178.905
 30
3827.000
 70
    32
  0
VERTEX
  8
1400LEVEL
 62
5
 10
2069.553
 20
-1354.513
 30
3827.000
 70
    32
  0
VERTEX
  8
1400LEVEL
 62
5
 10
2055.894
 20
-1354.740
 30
3827.000
 70
    32
  0
VERTEX
  8
1400LEVEL
 62
5
 10
1985.053
 20
-1207.389
 30
3827.000
 70
    32
  0
VERTEX
  8
1400LEVEL
 62
5
 10
1866.811
 20
-969.844
 30
3827.000
 70
    32
  0
VERTEX
  8
1400LEVEL
 62
5
 10
1761.750
 20
-754.441
 30
3827.000
 70
    32
  0
VERTEX
  8
1400LEVEL
 62
5
 10
1709.219
 20
-615.210
 30
3827.000
 70
    32
  0
SEQEND
  8
1400LEVEL
  0
POLYLINE
  8
1400LEVEL
 62
5
 66
     1
 70
     9
  0
VERTEX
  8
1400LEVEL
 62
5
 10
1760.662
 20
-2182.664
 30
3827.000
 70
    32
  0
VERTEX
  8
1400LEVEL
 62
5
 10
1807.189
 20
-2222.515
 30
3827.000
 70
    32
  0
VERTEX
  8
1400LEVEL
 62
5
 10
1829.078
 20
-2276.891
 30
3827.000
 70
    32
  0
VERTEX
  8
1400LEVEL
 62
5
 10
1826.616
 20
-2345.590
 30
3827.000
 70
    32
  0
VERTEX
  8
1400LEVEL
 62
5
 10
1860.359
 20
-2404.481
 30
3827.000
 70
    32
  0
VERTEX
  8
1400LEVEL
 62
5
 10
1907.481
 20
-2457.295
 30
3827.000
 70
    32
  0
VERTEX
  8
1400LEVEL
 62
5
 10
1947.881
 20
-2523.106
 30
3827.000
 70
    32
  0
VERTEX
  8
1400LEVEL
 62
5
 10
1947.174
 20
-2594.874
 30
3827.000
 70
    32
  0
VERTEX
  8
1400LEVEL
 62
5
 10
1929.421
 20
-2598.449
 30
3827.000
 70
    32
  0
VERTEX
  8
1400LEVEL
 62
5
 10
1916.359
 20
-2517.053
 30
3827.000
 70
    32
  0
VERTEX
  8
1400LEVEL
 62
5
 10
1891.397
 20
-2467.457
 30
3827.000
 70
    32
  0
VERTEX
  8
1400LEVEL
 62
5
 10
1836.750
 20
-2414.387
 30
3827.000
 70
    32
  0
VERTEX
  8
1400LEVEL
 62
5
 10
1795.652
 20
-2351.234
 30
3827.000
 70
    32
  0
VERTEX
  8
1400LEVEL
 62
5
 10
1805.434
 20
-2282.504
 30
3827.000
 70
    32
  0
VERTEX
  8
1400LEVEL
 62
5
 10
1793.424
 20
-2241.390
 30
3827.000
 70
    32
  0
VERTEX
  8
1400LEVEL
 62
5
 10
1744.629
 20
-2185.015
 30
3827.000
 70
    32
  0
SEQEND
  8
1400LEVEL
  0
POLYLINE
  8
1400LEVEL
 62
5
 66
     1
 70
     9
  0
VERTEX
  8
1400LEVEL
 62
5
 10
1663.625
 20
-2179.225
 30
3827.000
 70
    32
  0
VERTEX
  8
1400LEVEL
 62
5
 10
1634.471
 20
-2114.043
 30
3827.000
 70
    32
  0
VERTEX
  8
1400LEVEL
 62
5
 10
1611.660
 20
-2014.109
 30
3827.000
 70
    32
  0
VERTEX
  8
1400LEVEL
 62
5
 10
1583.790
 20
-1905.253
 30
3827.000
 70
    32
  0
VERTEX
  8
1400LEVEL
 62
5
 10
1570.634
 20
-1833.426
 30
3827.000
 70
    32
  0
VERTEX
  8
1400LEVEL
 62
5
 10
1528.233
 20
-1734.489
 30
3827.000
 70
    32
  0
VERTEX
  8
1400LEVEL
 62
5
 10
1503.258
 20
-1788.559
 30
3827.000
 70
    32
  0
VERTEX
  8
1400LEVEL
 62
5
 10
1537.016
 20
-1866.874
 30
3827.000
 70
    32
  0
VERTEX
  8
1400LEVEL
 62
5
 10
1555.215
 20
-1959.728
 30
3827.000
 70
    32
  0
VERTEX
  8
1400LEVEL
 62
5
 10
1582.929
 20
-2031.983
 30
3827.000
 70
    32
  0
VERTEX
  8
1400LEVEL
 62
5
 10
1621.562
 20
-2103.802
 30
3827.000
 70
    32
  0
VERTEX
  8
1400LEVEL
 62
5
 10
1645.150
 20
-2172.085
 30
3827.000
 70
    32
  0
SEQEND
  8
1400LEVEL
  0
POLYLINE
  8
1400LEVEL
 62
5
 66
     1
 70
     9
  0
VERTEX
  8
1400LEVEL
 62
5
 10
1582.748
 20
-2108.127
 30
3827.000
 70
    32
  0
VERTEX
  8
1400LEVEL
 62
5
 10
1617.640
 20
-2163.175
 30
3827.000
 70
    32
  0
VERTEX
  8
1400LEVEL
 62
5
 10
1603.032
 20
-2170.558
 30
3827.000
 70
    32
  0
VERTEX
  8
1400LEVEL
 62
5
 10
1565.859
 20
-2108.064
 30
3827.000
 70
    32
  0
SEQEND
  8
1400LEVEL
  0
POLYLINE
  8
1400LEVEL
 62
5
 66
     1
 70
     9
  0
VERTEX
  8
1400LEVEL
 62
5
 10
1488.894
 20
-1671.379
 30
3827.000
 70
    32
  0
VERTEX
  8
1400LEVEL
 62
5
 10
1505.245
 20
-1613.085
 30
3827.000
 70
    32
  0
VERTEX
  8
1400LEVEL
 62
5
 10
1521.633
 20
-1527.556
 30
3827.000
 70
    32
  0
VERTEX
  8
1400LEVEL
 62
5
 10
1513.874
 20
-1425.107
 30
3827.000
 70
    32
  0
VERTEX
  8
1400LEVEL
 62
5
 10
1492.221
 20
-1346.807
 30
3827.000
 70
    32
  0
VERTEX
  8
1400LEVEL
 62
5
 10
1483.928
 20
-1246.034
 30
3827.000
 70
    32
  0
VERTEX
  8
1400LEVEL
 62
5
 10
1462.930
 20
-1166.835
 30
3827.000
 70
    32
  0
VERTEX
  8
1400LEVEL
 62
5
 10
1452.349
 20
-1096.197
 30
3827.000
 70
    32
  0
VERTEX
  8
1400LEVEL
 62
5
 10
1451.823
 20
-1154.880
 30
3827.000
 70
    32
  0
VERTEX
  8
1400LEVEL
 62
5
 10
1465.296
 20
-1233.823
 30
3827.000
 70
    32
  0
VERTEX
  8
1400LEVEL
 62
5
 10
1487.939
 20
-1337.764
 30
3827.000
 70
    32
  0
VERTEX
  8
1400LEVEL
 62
5
 10
1501.805
 20
-1429.385
 30
3827.000
 70
    32
  0
VERTEX
  8
1400LEVEL
 62
5
 10
1507.170
 20
-1517.559
 30
3827.000
 70
    32
  0
VERTEX
  8
1400LEVEL
 62
5
 10
1499.213
 20
-1597.947
 30
3827.000
 70
    32
  0
VERTEX
  8
1400LEVEL
 62
5
 10
1479.870
 20
-1660.530
 30
3827.000
 70
    32
  0
SEQEND
  8
1400LEVEL
  0
POLYLINE
  8
1400LEVEL
 62
5
 66
     1
 70
     9
  0
VERTEX
  8
1400LEVEL
 62
5
 10
1466.870
 20
-780.065
 30
3827.000
 70
    32
  0
VERTEX
  8
1400LEVEL
 62
5
 10
1459.349
 20
-902.900
 30
3827.000
 70
    32
  0
VERTEX
  8
1400LEVEL
 62
5
 10
1445.779
 20
-1054.232
 30
3827.000
 70
    32
  0
VERTEX
  8
1400LEVEL
 62
5
 10
1428.072
 20
-1179.140
 30
3827.000
 70
    32
  0
VERTEX
  8
1400LEVEL
 62
5
 10
1427.110
 20
-1289.961
 30
3827.000
 70
    32
  0
VERTEX
  8
1400LEVEL
 62
5
 10
1461.920
 20
-1345.500
 30
3827.000
 70
    32
  0
VERTEX
  8
1400LEVEL
 62
5
 10
1471.944
 20
-1404.441
 30
3827.000
 70
    32
  0
VERTEX
  8
1400LEVEL
 62
5
 10
1485.476
 20
-1501.051
 30
3827.000
 70
    32
  0
VERTEX
  8
1400LEVEL
 62
5
 10
1471.279
 20
-1600.568
 30
3827.000
 70
    32
  0
VERTEX
  8
1400LEVEL
 62
5
 10
1461.532
 20
-1736.651
 30
3827.000
 70
    32
  0
VERTEX
  8
1400LEVEL
 62
5
 10
1496.640
 20
-1877.495
 30
3827.000
 70
    32
  0
VERTEX
  8
1400LEVEL
 62
5
 10
1516.040
 20
-1990.224
 30
3827.000
 70
    32
  0
VERTEX
  8
1400LEVEL
 62
5
 10
1525.840
 20
-2095.539
 30
3827.000
 70
    32
  0
VERTEX
  8
1400LEVEL
 62
5
 10
1550.021
 20
-2211.342
 30
3827.000
 70
    32
  0
VERTEX
  8
1400LEVEL
 62
5
 10
1538.700
 20
-2268.211
 30
3827.000
 70
    32
  0
VERTEX
  8
1400LEVEL
 62
5
 10
1521.191
 20
-2273.341
 30
3827.000
 70
    32
  0
VERTEX
  8
1400LEVEL
 62
5
 10
1498.867
 20
-2176.515
 30
3827.000
 70
    32
  0
VERTEX
  8
1400LEVEL
 62
5
 10
1497.184
 20
-2055.916
 30
3827.000
 70
    32
  0
VERTEX
  8
1400LEVEL
 62
5
 10
1491.337
 20
-1930.078
 30
3827.000
 70
    32
  0
VERTEX
  8
1400LEVEL
 62
5
 10
1457.363
 20
-1829.025
 30
3827.000
 70
    32
  0
VERTEX
  8
1400LEVEL
 62
5
 10
1435.019
 20
-1715.801
 30
3827.000
 70
    32
  0
VERTEX
  8
1400LEVEL
 62
5
 10
1434.891
 20
-1594.959
 30
3827.000
 70
    32
  0
VERTEX
  8
1400LEVEL
 62
5
 10
1430.621
 20
-1482.250
 30
3827.000
 70
    32
  0
VERTEX
  8
1400LEVEL
 62
5
 10
1456.133
 20
-1486.536
 30
3827.000
 70
    32
  0
VERTEX
  8
1400LEVEL
 62
5
 10
1444.783
 20
-1409.968
 30
3827.000
 70
    32
  0
VERTEX
  8
1400LEVEL
 62
5
 10
1414.754
 20
-1325.973
 30
3827.000
 70
    32
  0
VERTEX
  8
1400LEVEL
 62
5
 10
1399.447
 20
-1209.896
 30
3827.000
 70
    32
  0
VERTEX
  8
1400LEVEL
 62
5
 10
1407.483
 20
-1100.515
 30
3827.000
 70
    32
  0
VERTEX
  8
1400LEVEL
 62
5
 10
1425.370
 20
-962.521
 30
3827.000
 70
    32
  0
VERTEX
  8
1400LEVEL
 62
5
 10
1430.407
 20
-831.952
 30
3827.000
 70
    32
  0
VERTEX
  8
1400LEVEL
 62
5
 10
1430.517
 20
-778.749
 30
3827.000
 70
    32
  0
SEQEND
  8
1400LEVEL
  0
POLYLINE
  8
1400LEVEL
 62
5
 66
     1
 70
     9
  0
VERTEX
  8
1400LEVEL
 62
5
 10
1356.222
 20
-1115.865
 30
3827.000
 70
    32
  0
VERTEX
  8
1400LEVEL
 62
5
 10
1358.777
 20
-1226.773
 30
3827.000
 70
    32
  0
VERTEX
  8
1400LEVEL
 62
5
 10
1372.235
 20
-1317.820
 30
3827.000
 70
    32
  0
VERTEX
  8
1400LEVEL
 62
5
 10
1359.537
 20
-1364.873
 30
3827.000
 70
    32
  0
VERTEX
  8
1400LEVEL
 62
5
 10
1352.543
 20
-1302.909
 30
3827.000
 70
    32
  0
VERTEX
  8
1400LEVEL
 62
5
 10
1343.779
 20
-1218.452
 30
3827.000
 70
    32
  0
VERTEX
  8
1400LEVEL
 62
5
 10
1345.154
 20
-1105.177
 30
3827.000
 70
    32
  0
SEQEND
  8
1400LEVEL
  0
POLYLINE
  8
1400LEVEL
 62
5
 66
     1
 70
     9
  0
VERTEX
  8
1400LEVEL
 62
5
 10
1982.395
 20
-4653.730
 30
3827.000
 70
    32
  0
VERTEX
  8
1400LEVEL
 62
5
 10
1953.967
 20
-4564.708
 30
3827.000
 70
    32
  0
VERTEX
  8
1400LEVEL
 62
5
 10
1910.177
 20
-4465.033
 30
3827.000
 70
    32
  0
VERTEX
  8
1400LEVEL
 62
5
 10
1889.897
 20
-4399.576
 30
3827.000
 70
    32
  0
VERTEX
  8
1400LEVEL
 62
5
 10
1854.859
 20
-4330.378
 30
3827.000
 70
    32
  0
VERTEX
  8
1400LEVEL
 62
5
 10
1812.741
 20
-4234.263
 30
3827.000
 70
    32
  0
VERTEX
  8
1400LEVEL
 62
5
 10
1754.472
 20
-4136.696
 30
3827.000
 70
    32
  0
VERTEX
  8
1400LEVEL
 62
5
 10
1705.364
 20
-4038.650
 30
3827.000
 70
    32
  0
VERTEX
  8
1400LEVEL
 62
5
 10
1656.502
 20
-3939.131
 30
3827.000
 70
    32
  0
VERTEX
  8
1400LEVEL
 62
5
 10
1615.436
 20
-3851.769
 30
3827.000
 70
    32
  0
VERTEX
  8
1400LEVEL
 62
5
 10
1569.923
 20
-3787.874
 30
3827.000
 70
    32
  0
VERTEX
  8
1400LEVEL
 62
5
 10
1591.545
 20
-3858.853
 30
3827.000
 70
    32
  0
VERTEX
  8
1400LEVEL
 62
5
 10
1637.878
 20
-3952.398
 30
3827.000
 70
    32
  0
VERTEX
  8
1400LEVEL
 62
5
 10
1697.804
 20
-4065.630
 30
3827.000
 70
    32
  0
VERTEX
  8
1400LEVEL
 62
5
 10
1752.674
 20
-4166.914
 30
3827.000
 70
    32
  0
VERTEX
  8
1400LEVEL
 62
5
 10
1805.503
 20
-4265.333
 30
3827.000
 70
    32
  0
VERTEX
  8
1400LEVEL
 62
5
 10
1846.735
 20
-4351.714
 30
3827.000
 70
    32
  0
VERTEX
  8
1400LEVEL
 62
5
 10
1881.454
 20
-4413.796
 30
3827.000
 70
    32
  0
VERTEX
  8
1400LEVEL
 62
5
 10
1900.898
 20
-4493.238
 30
3827.000
 70
    32
  0
VERTEX
  8
1400LEVEL
 62
5
 10
1936.697
 20
-4605.947
 30
3827.000
 70
    32
  0
VERTEX
  8
1400LEVEL
 62
5
 10
1956.082
 20
-4667.723
 30
3827.000
 70
    32
  0
SEQEND
  8
1400LEVEL
  0
POLYLINE
  8
1400LEVEL
 62
5
 66
     1
 70
     9
  0
VERTEX
  8
1400LEVEL
 62
5
 10
1590.319
 20
-3544.867
 30
3827.000
 70
    32
  0
VERTEX
  8
1400LEVEL
 62
5
 10
1610.740
 20
-3627.500
 30
3827.000
 70
    32
  0
VERTEX
  8
1400LEVEL
 62
5
 10
1640.306
 20
-3721.759
 30
3827.000
 70
    32
  0
VERTEX
  8
1400LEVEL
 62
5
 10
1672.722
 20
-3794.551
 30
3827.000
 70
    32
  0
VERTEX
  8
1400LEVEL
 62
5
 10
1687.161
 20
-3854.235
 30
3827.000
 70
    32
  0
VERTEX
  8
1400LEVEL
 62
5
 10
1652.987
 20
-3812.928
 30
3827.000
 70
    32
  0
VERTEX
  8
1400LEVEL
 62
5
 10
1618.872
 20
-3726.229
 30
3827.000
 70
    32
  0
VERTEX
  8
1400LEVEL
 62
5
 10
1593.344
 20
-3639.459
 30
3827.000
 70
    32
  0
VERTEX
  8
1400LEVEL
 62
5
 10
1571.981
 20
-3557.930
 30
3827.000
 70
    32
  0
SEQEND
  8
1400LEVEL
  0
POLYLINE
  8
1400LEVEL
 62
5
 66
     1
 70
     9
  0
VERTEX
  8
1400LEVEL
 62
5
 10
1541.529
 20
-3643.720
 30
3827.000
 70
    32
  0
VERTEX
  8
1400LEVEL
 62
5
 10
1558.859
 20
-3679.572
 30
3827.000
 70
    32
  0
VERTEX
  8
1400LEVEL
 62
5
 10
1597.928
 20
-3762.311
 30
3827.000
 70
    32
  0
VERTEX
  8
1400LEVEL
 62
5
 10
1638.354
 20
-3838.468
 30
3827.000
 70
    32
  0
VERTEX
  8
1400LEVEL
 62
5
 10
1681.030
 20
-3914.750
 30
3827.000
 70
    32
  0
VERTEX
  8
1400LEVEL
 62
5
 10
1720.514
 20
-3992.009
 30
3827.000
 70
    32
  0
VERTEX
  8
1400LEVEL
 62
5
 10
1774.058
 20
-4075.667
 30
3827.000
 70
    32
  0
VERTEX
  8
1400LEVEL
 62
5
 10
1822.872
 20
-4179.969
 30
3827.000
 70
    32
  0
VERTEX
  8
1400LEVEL
 62
5
 10
1869.261
 20
-4262.677
 30
3827.000
 70
    32
  0
VERTEX
  8
1400LEVEL
 62
5
 10
1896.256
 20
-4321.190
 30
3827.000
 70
    32
  0
VERTEX
  8
1400LEVEL
 62
5
 10
1924.567
 20
-4374.880
 30
3827.000
 70
    32
  0
VERTEX
  8
1400LEVEL
 62
5
 10
1896.896
 20
-4363.925
 30
3827.000
 70
    32
  0
VERTEX
  8
1400LEVEL
 62
5
 10
1876.675
 20
-4316.135
 30
3827.000
 70
    32
  0
VERTEX
  8
1400LEVEL
 62
5
 10
1836.040
 20
-4242.718
 30
3827.000
 70
    32
  0
VERTEX
  8
1400LEVEL
 62
5
 10
1789.765
 20
-4166.840
 30
3827.000
 70
    32
  0
VERTEX
  8
1400LEVEL
 62
5
 10
1752.557
 20
-4100.052
 30
3827.000
 70
    32
  0
VERTEX
  8
1400LEVEL
 62
5
 10
1709.410
 20
-4008.557
 30
3827.000
 70
    32
  0
VERTEX
  8
1400LEVEL
 62
5
 10
1662.998
 20
-3912.477
 30
3827.000
 70
    32
  0
VERTEX
  8
1400LEVEL
 62
5
 10
1626.642
 20
-3851.129
 30
3827.000
 70
    32
  0
VERTEX
  8
1400LEVEL
 62
5
 10
1576.945
 20
-3765.596
 30
3827.000
 70
    32
  0
VERTEX
  8
1400LEVEL
 62
5
 10
1522.871
 20
-3649.059
 30
3827.000
 70
    32
  0
VERTEX
  8
1400LEVEL
 62
5
 10
1508.008
 20
-3600.908
 30
3827.000
 70
    32
  0
SEQEND
  8
1400LEVEL
  0
POLYLINE
  8
1400LEVEL
 62
5
 66
     1
 70
     9
  0
VERTEX
  8
1400LEVEL
 62
5
 10
1862.151
 20
-4414.589
 30
3827.000
 70
    32
  0
VERTEX
  8
1400LEVEL
 62
5
 10
1824.912
 20
-4340.481
 30
3827.000
 70
    32
  0
VERTEX
  8
1400LEVEL
 62
5
 10
1803.874
 20
-4323.074
 30
3827.000
 70
    32
  0
VERTEX
  8
1400LEVEL
 62
5
 10
1826.615
 20
-4382.890
 30
3827.000
 70
    32
  0
VERTEX
  8
1400LEVEL
 62
5
 10
1848.814
 20
-4418.906
 30
3827.000
 70
    32
  0
SEQEND
  8
1400LEVEL
  0
POLYLINE
  8
1400LEVEL
 62
5
 66
     1
 70
     9
  0
VERTEX
  8
1400LEVEL
 62
5
 10
1822.988
 20
-4436.007
 30
3827.000
 70
    32
  0
VERTEX
  8
1400LEVEL
 62
5
 10
1794.615
 20
-4367.677
 30
3827.000
 70
    32
  0
VERTEX
  8
1400LEVEL
 62
5
 10
1753.187
 20
-4274.957
 30
3827.000
 70
    32
  0
VERTEX
  8
1400LEVEL
 62
5
 10
1709.817
 20
-4166.776
 30
3827.000
 70
    32
  0
VERTEX
  8
1400LEVEL
 62
5
 10
1658.338
 20
-4067.827
 30
3827.000
 70
    32
  0
VERTEX
  8
1400LEVEL
 62
5
 10
1621.711
 20
-3994.579
 30
3827.000
 70
    32
  0
VERTEX
  8
1400LEVEL
 62
5
 10
1591.783
 20
-3958.022
 30
3827.000
 70
    32
  0
VERTEX
  8
1400LEVEL
 62
5
 10
1630.601
 20
-4045.259
 30
3827.000
 70
    32
  0
VERTEX
  8
1400LEVEL
 62
5
 10
1683.638
 20
-4140.938
 30
3827.000
 70
    32
  0
VERTEX
  8
1400LEVEL
 62
5
 10
1733.237
 20
-4239.067
 30
3827.000
 70
    32
  0
VERTEX
  8
1400LEVEL
 62
5
 10
1760.621
 20
-4313.284
 30
3827.000
 70
    32
  0
VERTEX
  8
1400LEVEL
 62
5
 10
1790.705
 20
-4386.442
 30
3827.000
 70
    32
  0
VERTEX
  8
1400LEVEL
 62
5
 10
1812.795
 20
-4444.132
 30
3827.000
 70
    32
  0
SEQEND
  8
1400LEVEL
  0
POLYLINE
  8
1400LEVEL
 62
5
 66
     1
 70
     9
  0
VERTEX
  8
1400LEVEL
 62
5
 10
1753.692
 20
-4483.640
 30
3827.000
 70
    32
  0
VERTEX
  8
1400LEVEL
 62
5
 10
1703.810
 20
-4414.218
 30
3827.000
 70
    32
  0
VERTEX
  8
1400LEVEL
 62
5
 10
1633.817
 20
-4306.862
 30
3827.000
 70
    32
  0
VERTEX
  8
1400LEVEL
 62
5
 10
1581.455
 20
-4195.153
 30
3827.000
 70
    32
  0
VERTEX
  8
1400LEVEL
 62
5
 10
1514.653
 20
-4086.819
 30
3827.000
 70
    32
  0
VERTEX
  8
1400LEVEL
 62
5
 10
1478.685
 20
-4009.646
 30
3827.000
 70
    32
  0
VERTEX
  8
1400LEVEL
 62
5
 10
1449.440
 20
-3982.536
 30
3827.000
 70
    32
  0
VERTEX
  8
1400LEVEL
 62
5
 10
1472.075
 20
-4061.000
 30
3827.000
 70
    32
  0
VERTEX
  8
1400LEVEL
 62
5
 10
1523.695
 20
-4145.596
 30
3827.000
 70
    32
  0
VERTEX
  8
1400LEVEL
 62
5
 10
1574.664
 20
-4228.064
 30
3827.000
 70
    32
  0
VERTEX
  8
1400LEVEL
 62
5
 10
1623.616
 20
-4321.039
 30
3827.000
 70
    32
  0
VERTEX
  8
1400LEVEL
 62
5
 10
1673.396
 20
-4406.082
 30
3827.000
 70
    32
  0
VERTEX
  8
1400LEVEL
 62
5
 10
1738.420
 20
-4497.974
 30
3827.000
 70
    32
  0
SEQEND
  8
1400LEVEL
  0
POLYLINE
  8
1400LEVEL
 62
5
 66
     1
 70
     9
  0
VERTEX
  8
1400LEVEL
 62
5
 10
1393.235
 20
-2929.850
 30
3827.000
 70
    32
  0
VERTEX
  8
1400LEVEL
 62
5
 10
1360.572
 20
-2858.529
 30
3827.000
 70
    32
  0
VERTEX
  8
1400LEVEL
 62
5
 10
1327.615
 20
-2824.994
 30
3827.000
 70
    32
  0
VERTEX
  8
1400LEVEL
 62
5
 10
1351.592
 20
-2877.451
 30
3827.000
 70
    32
  0
VERTEX
  8
1400LEVEL
 62
5
 10
1384.644
 20
-2932.947
 30
3827.000
 70
    32
  0
SEQEND
  8
1400LEVEL
  0
POLYLINE
  8
1400LEVEL
 62
5
 66
     1
 70
     9
  0
VERTEX
  8
1400LEVEL
 62
5
 10
1405.851
 20
-2788.700
 30
3827.000
 70
    32
  0
VERTEX
  8
1400LEVEL
 62
5
 10
1429.103
 20
-2833.469
 30
3827.000
 70
    32
  0
VERTEX
  8
1400LEVEL
 62
5
 10
1415.809
 20
-2836.028
 30
3827.000
 70
    32
  0
VERTEX
  8
1400LEVEL
 62
5
 10
1401.667
 20
-2798.591
 30
3827.000
 70
    32
  0
SEQEND
  8
1400LEVEL
  0
POLYLINE
  8
1400LEVEL
 62
5
 66
     1
 70
     8
  0
VERTEX
  8
1400LEVEL
 62
5
 10
1271.397
 20
-1406.061
 30
3827.000
 70
    32
  0
VERTEX
  8
1400LEVEL
 62
5
 10
1290.166
 20
-1501.532
 30
3827.000
 70
    32
  0
VERTEX
  8
1400LEVEL
 62
5
 10
1308.726
 20
-1599.743
 30
3827.000
 70
    32
  0
VERTEX
  8
1400LEVEL
 62
5
 10
1315.806
 20
-1689.719
 30
3827.000
 70
    32
  0
VERTEX
  8
1400LEVEL
 62
5
 10
1335.104
 20
-1786.540
 30
3827.000
 70
    32
  0
VERTEX
  8
1400LEVEL
 62
5
 10
1342.938
 20
-1894.552
 30
3827.000
 70
    32
  0
VERTEX
  8
1400LEVEL
 62
5
 10
1343.165
 20
-1939.740
 30
3827.000
 70
    32
  0
VERTEX
  8
1400LEVEL
 62
5
 10
1359.567
 20
-2031.282
 30
3827.000
 70
    32
  0
VERTEX
  8
1400LEVEL
 62
5
 10
1388.395
 20
-2126.930
 30
3827.000
 70
    32
  0
VERTEX
  8
1400LEVEL
 62
5
 10
1416.705
 20
-2212.149
 30
3827.000
 70
    32
  0
VERTEX
  8
1400LEVEL
 62
5
 10
1422.082
 20
-2259.716
 30
3827.000
 70
    32
  0
VERTEX
  8
1400LEVEL
 62
5
 10
1420.327
 20
-2319.705
 30
3827.000
 70
    32
  0
VERTEX
  8
1400LEVEL
 62
5
 10
1440.320
 20
-2385.366
 30
3827.000
 70
    32
  0
VERTEX
  8
1400LEVEL
 62
5
 10
1458.504
 20
-2427.266
 30
3827.000
 70
    32
  0
VERTEX
  8
1400LEVEL
 62
5
 10
1479.486
 20
-2487.039
 30
3827.000
 70
    32
  0
VERTEX
  8
1400LEVEL
 62
5
 10
1496.210
 20
-2551.142
 30
3827.000
 70
    32
  0
VERTEX
  8
1400LEVEL
 62
5
 10
1517.440
 20
-2609.444
 30
3827.000
 70
    32
  0
VERTEX
  8
1400LEVEL
 62
5
 10
1533.948
 20
-2682.339
 30
3827.000
 70
    32
  0
VERTEX
  8
1400LEVEL
 62
5
 10
1513.793
 20
-2646.162
 30
3827.000
 70
    32
  0
VERTEX
  8
1400LEVEL
 62
5
 10
1492.089
 20
-2575.673
 30
3827.000
 70
    32
  0
VERTEX
  8
1400LEVEL
 62
5
 10
1460.160
 20
-2505.989
 30
3827.000
 70
    32
  0
VERTEX
  8
1400LEVEL
 62
5
 10
1435.158
 20
-2423.596
 30
3827.000
 70
    32
  0
VERTEX
  8
1400LEVEL
 62
5
 10
1406.632
 20
-2347.168
 30
3827.000
 70
    32
  0
VERTEX
  8
1400LEVEL
 62
5
 10
1378.475
 20
-2270.046
 30
3827.000
 70
    32
  0
VERTEX
  8
1400LEVEL
 62
5
 10
1369.079
 20
-2199.860
 30
3827.000
 70
    32
  0
VERTEX
  8
1400LEVEL
 62
5
 10
1344.467
 20
-2101.641
 30
3827.000
 70
    32
  0
VERTEX
  8
1400LEVEL
 62
5
 10
1323.661
 20
-2000.279
 30
3827.000
 70
    32
  0
VERTEX
  8
1400LEVEL
 62
5
 10
1318.763
 20
-1930.343
 30
3827.000
 70
    32
  0
VERTEX
  8
1400LEVEL
 62
5
 10
1313.041
 20
-1865.314
 30
3827.000
 70
    32
  0
VERTEX
  8
1400LEVEL
 62
5
 10
1295.505
 20
-1797.039
 30
3827.000
 70
    32
  0
VERTEX
  8
1400LEVEL
 62
5
 10
1275.481
 20
-1724.058
 30
3827.000
 70
    32
  0
VERTEX
  8
1400LEVEL
 62
5
 10
1250.314
 20
-1642.646
 30
3827.000
 70
    32
  0
VERTEX
  8
1400LEVEL
 62
5
 10
1257.030
 20
-1604.174
 30
3827.000
 70
    32
  0
VERTEX
  8
1400LEVEL
 62
5
 10
1266.097
 20
-1613.264
 30
3827.000
 70
    32
  0
VERTEX
  8
1400LEVEL
 62
5
 10
1280.195
 20
-1683.988
 30
3827.000
 70
    32
  0
VERTEX
  8
1400LEVEL
 62
5
 10
1291.027
 20
-1750.128
 30
3827.000
 70
    32
  0
VERTEX
  8
1400LEVEL
 62
5
 10
1308.328
 20
-1779.267
 30
3827.000
 70
    32
  0
VERTEX
  8
1400LEVEL
 62
5
 10
1314.907
 20
-1752.122
 30
3827.000
 70
    32
  0
VERTEX
  8
1400LEVEL
 62
5
 10
1297.214
 20
-1678.776
 30
3827.000
 70
    32
  0
VERTEX
  8
1400LEVEL
 62
5
 10
1286.943
 20
-1589.777
 30
3827.000
 70
    32
  0
VERTEX
  8
1400LEVEL
 62
5
 10
1268.861
 20
-1500.727
 30
3827.000
 70
    32
  0
VERTEX
  8
1400LEVEL
 62
5
 10
1268.571
 20
-1409.370
 30
3827.000
 70
    32
  0
SEQEND
  8
1400LEVEL
  0
POLYLINE
  8
1400LEVEL
 62
7
 66
     1
 70
     9
  0
VERTEX
  8
1400LEVEL
 62
7
 10
892.422
 20
-2360.793
 30
3827.000
 70
    32
  0
VERTEX
  8
1400LEVEL
 62
7
 10
921.759
 20
-2387.830
 30
3827.000
 70
    32
  0
VERTEX
  8
1400LEVEL
 62
7
 10
966.654
 20
-2405.560
 30
3827.000
 70
    32
  0
VERTEX
  8
1400LEVEL
 62
7
 10
997.769
 20
-2414.425
 30
3827.000
 70
    32
  0
VERTEX
  8
1400LEVEL
 62
7
 10
998.658
 20
-2394.036
 30
3827.000
 70
    32
  0
VERTEX
  8
1400LEVEL
 62
7
 10
1019.105
 20
-2395.808
 30
3827.000
 70
    32
  0
VERTEX
  8
1400LEVEL
 62
7
 10
1046.220
 20
-2439.246
 30
3827.000
 70
    32
  0
VERTEX
  8
1400LEVEL
 62
7
 10
1074.223
 20
-2493.763
 30
3827.000
 70
    32
  0
VERTEX
  8
1400LEVEL
 62
7
 10
1085.301
 20
-2492.700
 30
3827.000
 70
    32
  0
VERTEX
  8
1400LEVEL
 62
7
 10
1060.889
 20
-2429.323
 30
3827.000
 70
    32
  0
VERTEX
  8
1400LEVEL
 62
7
 10
1015.418
 20
-2363.670
 30
3827.000
 70
    32
  0
VERTEX
  8
1400LEVEL
 62
7
 10
989.757
 20
-2348.260
 30
3827.000
 70
    32
  0
VERTEX
  8
1400LEVEL
 62
7
 10
988.611
 20
-2380.606
 30
3827.000
 70
    32
  0
VERTEX
  8
1400LEVEL
 62
7
 10
951.347
 20
-2356.184
 30
3827.000
 70
    32
  0
VERTEX
  8
1400LEVEL
 62
7
 10
904.911
 20
-2309.791
 30
3827.000
 70
    32
  0
VERTEX
  8
1400LEVEL
 62
7
 10
879.976
 20
-2270.541
 30
3827.000
 70
    32
  0
VERTEX
  8
1400LEVEL
 62
7
 10
887.217
 20
-2299.503
 30
3827.000
 70
    32
  0
VERTEX
  8
1400LEVEL
 62
7
 10
928.253
 20
-2348.016
 30
3827.000
 70
    32
  0
VERTEX
  8
1400LEVEL
 62
7
 10
955.280
 20
-2382.321
 30
3827.000
 70
    32
  0
VERTEX
  8
1400LEVEL
 62
7
 10
906.363
 20
-2356.698
 30
3827.000
 70
    32
  0
VERTEX
  8
1400LEVEL
 62
7
 10
885.400
 20
-2344.852
 30
3827.000
 70
    32
  0
SEQEND
  8
1400LEVEL
  0
POLYLINE
  8
1400LEVEL
 62
3
 66
     1
 70
     8
  0
VERTEX
  8
1400LEVEL
 62
3
 10
1226.138
 20
-2838.970
 30
3827.000
 70
    32
  0
VERTEX
  8
1400LEVEL
 62
3
 10
1327.633
 20
-2999.039
 30
3827.000
 70
    32
  0
VERTEX
  8
1400LEVEL
 62
3
 10
1477.514
 20
-3183.380
 30
3827.000
 70
    32
  0
VERTEX
  8
1400LEVEL
 62
3
 10
1578.899
 20
-3333.594
 30
3827.000
 70
    32
  0
VERTEX
  8
1400LEVEL
 62
3
 10
1863.212
 20
-3599.162
 30
3827.000
 70
    32
  0
VERTEX
  8
1400LEVEL
 62
3
 10
2092.511
 20
-3762.579
 30
3827.000
 70
    32
  0
VERTEX
  8
1400LEVEL
 62
3
 10
2194.788
 20
-4025.036
 30
3827.000
 70
    32
  0
VERTEX
  8
1400LEVEL
 62
3
 10
2354.802
 20
-4261.082
 30
3827.000
 70
    32
  0
SEQEND
  8
1400LEVEL
  0
POLYLINE
  8
1400LEVEL
 62
5
 66
     1
 70
     9
  0
VERTEX
  8
1400LEVEL
 62
5
 10
1048.431
 20
-976.628
 30
3827.000
 70
    32
  0
VERTEX
  8
1400LEVEL
 62
5
 10
1066.921
 20
-1003.192
 30
3827.000
 70
    32
  0
VERTEX
  8
1400LEVEL
 62
5
 10
1065.159
 20
-974.646
 30
3827.000
 70
    32
  0
VERTEX
  8
1400LEVEL
 62
5
 10
1113.032
 20
-953.934
 30
3827.000
 70
    32
  0
VERTEX
  8
1400LEVEL
 62
5
 10
1123.296
 20
-1017.456
 30
3827.000
 70
    32
  0
VERTEX
  8
1400LEVEL
 62
5
 10
1148.513
 20
-1122.586
 30
3827.000
 70
    32
  0
VERTEX
  8
1400LEVEL
 62
5
 10
1187.047
 20
-1207.001
 30
3827.000
 70
    32
  0
VERTEX
  8
1400LEVEL
 62
5
 10
1204.207
 20
-1282.023
 30
3827.000
 70
    32
  0
VERTEX
  8
1400LEVEL
 62
5
 10
1216.413
 20
-1392.535
 30
3827.000
 70
    32
  0
VERTEX
  8
1400LEVEL
 62
5
 10
1207.531
 20
-1367.333
 30
3827.000
 70
    32
  0
VERTEX
  8
1400LEVEL
 62
5
 10
1187.349
 20
-1257.751
 30
3827.000
 70
    32
  0
VERTEX
  8
1400LEVEL
 62
5
 10
1146.809
 20
-1174.765
 30
3827.000
 70
    32
  0
VERTEX
  8
1400LEVEL
 62
5
 10
1162.257
 20
-1244.959
 30
3827.000
 70
    32
  0
VERTEX
  8
1400LEVEL
 62
5
 10
1189.444
 20
-1344.367
 30
3827.000
 70
    32
  0
VERTEX
  8
1400LEVEL
 62
5
 10
1209.237
 20
-1438.245
 30
3827.000
 70
    32
  0
VERTEX
  8
1400LEVEL
 62
5
 10
1219.543
 20
-1531.538
 30
3827.000
 70
    32
  0
VERTEX
  8
1400LEVEL
 62
5
 10
1226.024
 20
-1453.929
 30
3827.000
 70
    32
  0
VERTEX
  8
1400LEVEL
 62
5
 10
1229.161
 20
-1369.201
 30
3827.000
 70
    32
  0
VERTEX
  8
1400LEVEL
 62
5
 10
1221.857
 20
-1294.069
 30
3827.000
 70
    32
  0
VERTEX
  8
1400LEVEL
 62
5
 10
1263.159
 20
-1357.509
 30
3827.000
 70
    32
  0
VERTEX
  8
1400LEVEL
 62
5
 10
1253.182
 20
-1325.312
 30
3827.000
 70
    32
  0
VERTEX
  8
1400LEVEL
 62
5
 10
1222.525
 20
-1252.563
 30
3827.000
 70
    32
  0
VERTEX
  8
1400LEVEL
 62
5
 10
1192.904
 20
-1137.612
 30
3827.000
 70
    32
  0
VERTEX
  8
1400LEVEL
 62
5
 10
1173.017
 20
-1021.774
 30
3827.000
 70
    32
  0
VERTEX
  8
1400LEVEL
 62
5
 10
1146.093
 20
-940.319
 30
3827.000
 70
    32
  0
VERTEX
  8
1400LEVEL
 62
5
 10
1192.784
 20
-916.129
 30
3827.000
 70
    32
  0
VERTEX
  8
1400LEVEL
 62
5
 10
1210.131
 20
-1066.601
 30
3827.000
 70
    32
  0
VERTEX
  8
1400LEVEL
 62
5
 10
1262.187
 20
-1225.174
 30
3827.000
 70
    32
  0
VERTEX
  8
1400LEVEL
 62
5
 10
1296.400
 20
-1330.807
 30
3827.000
 70
    32
  0
VERTEX
  8
1400LEVEL
 62
5
 10
1321.068
 20
-1449.719
 30
3827.000
 70
    32
  0
VERTEX
  8
1400LEVEL
 62
5
 10
1330.008
 20
-1555.646
 30
3827.000
 70
    32
  0
VERTEX
  8
1400LEVEL
 62
5
 10
1346.951
 20
-1702.519
 30
3827.000
 70
    32
  0
VERTEX
  8
1400LEVEL
 62
5
 10
1357.127
 20
-1801.086
 30
3827.000
 70
    32
  0
VERTEX
  8
1400LEVEL
 62
5
 10
1375.103
 20
-1877.255
 30
3827.000
 70
    32
  0
VERTEX
  8
1400LEVEL
 62
5
 10
1384.711
 20
-1973.205
 30
3827.000
 70
    32
  0
VERTEX
  8
1400LEVEL
 62
5
 10
1398.914
 20
-2056.811
 30
3827.000
 70
    32
  0
VERTEX
  8
1400LEVEL
 62
5
 10
1427.880
 20
-2172.660
 30
3827.000
 70
    32
  0
VERTEX
  8
1400LEVEL
 62
5
 10
1438.975
 20
-2256.753
 30
3827.000
 70
    32
  0
VERTEX
  8
1400LEVEL
 62
5
 10
1458.097
 20
-2300.575
 30
3827.000
 70
    32
  0
VERTEX
  8
1400LEVEL
 62
5
 10
1467.277
 20
-2348.024
 30
3827.000
 70
    32
  0
VERTEX
  8
1400LEVEL
 62
5
 10
1482.694
 20
-2410.899
 30
3827.000
 70
    32
  0
VERTEX
  8
1400LEVEL
 62
5
 10
1501.521
 20
-2460.978
 30
3827.000
 70
    32
  0
VERTEX
  8
1400LEVEL
 62
5
 10
1528.921
 20
-2491.561
 30
3827.000
 70
    32
  0
VERTEX
  8
1400LEVEL
 62
5
 10
1520.652
 20
-2467.218
 30
3827.000
 70
    32
  0
VERTEX
  8
1400LEVEL
 62
5
 10
1502.805
 20
-2417.304
 30
3827.000
 70
    32
  0
VERTEX
  8
1400LEVEL
 62
5
 10
1494.065
 20
-2346.219
 30
3827.000
 70
    32
  0
VERTEX
  8
1400LEVEL
 62
5
 10
1492.601
 20
-2308.390
 30
3827.000
 70
    32
  0
VERTEX
  8
1400LEVEL
 62
5
 10
1467.980
 20
-2279.283
 30
3827.000
 70
    32
  0
VERTEX
  8
1400LEVEL
 62
5
 10
1453.533
 20
-2225.652
 30
3827.000
 70
    32
  0
VERTEX
  8
1400LEVEL
 62
5
 10
1441.131
 20
-2140.330
 30
3827.000
 70
    32
  0
VERTEX
  8
1400LEVEL
 62
5
 10
1422.696
 20
-2071.400
 30
3827.000
 70
    32
  0
VERTEX
  8
1400LEVEL
 62
5
 10
1417.782
 20
-1982.040
 30
3827.000
 70
    32
  0
VERTEX
  8
1400LEVEL
 62
5
 10
1405.234
 20
-1945.628
 30
3827.000
 70
    32
  0
VERTEX
  8
1400LEVEL
 62
5
 10
1392.519
 20
-1818.635
 30
3827.000
 70
    32
  0
VERTEX
  8
1400LEVEL
 62
5
 10
1377.212
 20
-1702.558
 30
3827.000
 70
    32
  0
VERTEX
  8
1400LEVEL
 62
5
 10
1358.985
 20
-1599.359
 30
3827.000
 70
    32
  0
VERTEX
  8
1400LEVEL
 62
5
 10
1350.881
 20
-1479.447
 30
3827.000
 70
    32
  0
VERTEX
  8
1400LEVEL
 62
5
 10
1328.714
 20
-1356.163
 30
3827.000
 70
    32
  0
VERTEX
  8
1400LEVEL
 62
5
 10
1312.505
 20
-1242.456
 30
3827.000
 70
    32
  0
VERTEX
  8
1400LEVEL
 62
5
 10
1299.392
 20
-1137.342
 30
3827.000
 70
    32
  0
VERTEX
  8
1400LEVEL
 62
5
 10
1293.455
 20
-1018.046
 30
3827.000
 70
    32
  0
VERTEX
  8
1400LEVEL
 62
5
 10
1299.061
 20
-858.567
 30
3827.000
 70
    32
  0
VERTEX
  8
1400LEVEL
 62
5
 10
1341.121
 20
-842.427
 30
3827.000
 70
    32
  0
VERTEX
  8
1400LEVEL
 62
5
 10
1330.385
 20
-984.398
 30
3827.000
 70
    32
  0
VERTEX
  8
1400LEVEL
 62
5
 10
1322.271
 20
-1154.302
 30
3827.000
 70
    32
  0
VERTEX
  8
1400LEVEL
 62
5
 10
1339.767
 20
-1284.368
 30
3827.000
 70
    32
  0
VERTEX
  8
1400LEVEL
 62
5
 10
1360.640
 20
-1397.344
 30
3827.000
 70
    32
  0
VERTEX
  8
1400LEVEL
 62
5
 10
1388.321
 20
-1556.867
 30
3827.000
 70
    32
  0
VERTEX
  8
1400LEVEL
 62
5
 10
1406.226
 20
-1687.506
 30
3827.000
 70
    32
  0
VERTEX
  8
1400LEVEL
 62
5
 10
1437.624
 20
-1850.428
 30
3827.000
 70
    32
  0
VERTEX
  8
1400LEVEL
 62
5
 10
1459.293
 20
-1979.681
 30
3827.000
 70
    32
  0
VERTEX
  8
1400LEVEL
 62
5
 10
1475.902
 20
-2100.013
 30
3827.000
 70
    32
  0
VERTEX
  8
1400LEVEL
 62
5
 10
1489.176
 20
-2207.173
 30
3827.000
 70
    32
  0
VERTEX
  8
1400LEVEL
 62
5
 10
1505.271
 20
-2282.521
 30
3827.000
 70
    32
  0
VERTEX
  8
1400LEVEL
 62
5
 10
1537.094
 20
-2370.853
 30
3827.000
 70
    32
  0
VERTEX
  8
1400LEVEL
 62
5
 10
1530.669
 20
-2437.624
 30
3827.000
 70
    32
  0
VERTEX
  8
1400LEVEL
 62
5
 10
1544.908
 20
-2493.995
 30
3827.000
 70
    32
  0
VERTEX
  8
1400LEVEL
 62
5
 10
1563.845
 20
-2553.929
 30
3827.000
 70
    32
  0
VERTEX
  8
1400LEVEL
 62
5
 10
1604.994
 20
-2609.272
 30
3827.000
 70
    32
  0
VERTEX
  8
1400LEVEL
 62
5
 10
1622.907
 20
-2670.800
 30
3827.000
 70
    32
  0
VERTEX
  8
1400LEVEL
 62
5
 10
1638.022
 20
-2714.453
 30
3827.000
 70
    32
  0
VERTEX
  8
1400LEVEL
 62
5
 10
1655.445
 20
-2775.899
 30
3827.000
 70
    32
  0
VERTEX
  8
1400LEVEL
 62
5
 10
1630.317
 20
-2790.343
 30
3827.000
 70
    32
  0
VERTEX
  8
1400LEVEL
 62
5
 10
1592.504
 20
-2716.643
 30
3827.000
 70
    32
  0
VERTEX
  8
1400LEVEL
 62
5
 10
1582.327
 20
-2681.134
 30
3827.000
 70
    32
  0
VERTEX
  8
1400LEVEL
 62
5
 10
1549.118
 20
-2652.097
 30
3827.000
 70
    32
  0
VERTEX
  8
1400LEVEL
 62
5
 10
1576.930
 20
-2711.757
 30
3827.000
 70
    32
  0
VERTEX
  8
1400LEVEL
 62
5
 10
1616.085
 20
-2790.979
 30
3827.000
 70
    32
  0
VERTEX
  8
1400LEVEL
 62
5
 10
1653.803
 20
-2874.247
 30
3827.000
 70
    32
  0
VERTEX
  8
1400LEVEL
 62
5
 10
1673.879
 20
-2939.418
 30
3827.000
 70
    32
  0
VERTEX
  8
1400LEVEL
 62
5
 10
1706.633
 20
-2941.137
 30
3827.000
 70
    32
  0
VERTEX
  8
1400LEVEL
 62
5
 10
1682.291
 20
-2854.819
 30
3827.000
 70
    32
  0
VERTEX
  8
1400LEVEL
 62
5
 10
1673.853
 20
-2771.425
 30
3827.000
 70
    32
  0
VERTEX
  8
1400LEVEL
 62
5
 10
1689.141
 20
-2744.986
 30
3827.000
 70
    32
  0
VERTEX
  8
1400LEVEL
 62
5
 10
1683.340
 20
-2708.951
 30
3827.000
 70
    32
  0
VERTEX
  8
1400LEVEL
 62
5
 10
1723.547
 20
-2765.396
 30
3827.000
 70
    32
  0
VERTEX
  8
1400LEVEL
 62
5
 10
1734.049
 20
-2833.499
 30
3827.000
 70
    32
  0
VERTEX
  8
1400LEVEL
 62
5
 10
1733.947
 20
-2912.179
 30
3827.000
 70
    32
  0
VERTEX
  8
1400LEVEL
 62
5
 10
1760.157
 20
-3008.396
 30
3827.000
 70
    32
  0
VERTEX
  8
1400LEVEL
 62
5
 10
1787.945
 20
-3117.742
 30
3827.000
 70
    32
  0
VERTEX
  8
1400LEVEL
 62
5
 10
1814.049
 20
-3232.606
 30
3827.000
 70
    32
  0
VERTEX
  8
1400LEVEL
 62
5
 10
1836.970
 20
-3342.396
 30
3827.000
 70
    32
  0
VERTEX
  8
1400LEVEL
 62
5
 10
1861.437
 20
-3426.465
 30
3827.000
 70
    32
  0
VERTEX
  8
1400LEVEL
 62
5
 10
1815.637
 20
-3457.362
 30
3827.000
 70
    32
  0
VERTEX
  8
1400LEVEL
 62
5
 10
1852.495
 20
-3572.772
 30
3827.000
 70
    32
  0
VERTEX
  8
1400LEVEL
 62
5
 10
1894.860
 20
-3667.415
 30
3827.000
 70
    32
  0
VERTEX
  8
1400LEVEL
 62
5
 10
1943.521
 20
-3763.621
 30
3827.000
 70
    32
  0
VERTEX
  8
1400LEVEL
 62
5
 10
1980.203
 20
-3857.561
 30
3827.000
 70
    32
  0
VERTEX
  8
1400LEVEL
 62
5
 10
2011.292
 20
-3975.786
 30
3827.000
 70
    32
  0
VERTEX
  8
1400LEVEL
 62
5
 10
2034.256
 20
-4083.817
 30
3827.000
 70
    32
  0
VERTEX
  8
1400LEVEL
 62
5
 10
2087.820
 20
-4183.873
 30
3827.000
 70
    32
  0
VERTEX
  8
1400LEVEL
 62
5
 10
2130.248
 20
-4261.627
 30
3827.000
 70
    32
  0
VERTEX
  8
1400LEVEL
 62
5
 10
2095.182
 20
-4276.671
 30
3827.000
 70
    32
  0
VERTEX
  8
1400LEVEL
 62
5
 10
2063.453
 20
-4210.299
 30
3827.000
 70
    32
  0
VERTEX
  8
1400LEVEL
 62
5
 10
2026.924
 20
-4124.456
 30
3827.000
 70
    32
  0
VERTEX
  8
1400LEVEL
 62
5
 10
1990.160
 20
-4031.006
 30
3827.000
 70
    32
  0
VERTEX
  8
1400LEVEL
 62
5
 10
1966.481
 20
-3937.737
 30
3827.000
 70
    32
  0
VERTEX
  8
1400LEVEL
 62
5
 10
1950.397
 20
-3853.310
 30
3827.000
 70
    32
  0
VERTEX
  8
1400LEVEL
 62
5
 10
1922.075
 20
-3777.170
 30
3827.000
 70
    32
  0
VERTEX
  8
1400LEVEL
 62
5
 10
1886.143
 20
-3704.291
 30
3827.000
 70
    32
  0
VERTEX
  8
1400LEVEL
 62
5
 10
1861.141
 20
-3684.956
 30
3827.000
 70
    32
  0
VERTEX
  8
1400LEVEL
 62
5
 10
1856.454
 20
-3766.901
 30
3827.000
 70
    32
  0
VERTEX
  8
1400LEVEL
 62
5
 10
1884.045
 20
-3869.909
 30
3827.000
 70
    32
  0
VERTEX
  8
1400LEVEL
 62
5
 10
1912.607
 20
-3950.630
 30
3827.000
 70
    32
  0
VERTEX
  8
1400LEVEL
 62
5
 10
1933.785
 20
-4048.272
 30
3827.000
 70
    32
  0
VERTEX
  8
1400LEVEL
 62
5
 10
1957.668
 20
-4141.827
 30
3827.000
 70
    32
  0
VERTEX
  8
1400LEVEL
 62
5
 10
2004.068
 20
-4246.986
 30
3827.000
 70
    32
  0
VERTEX
  8
1400LEVEL
 62
5
 10
2031.165
 20
-4321.407
 30
3827.000
 70
    32
  0
VERTEX
  8
1400LEVEL
 62
5
 10
2058.428
 20
-4394.848
 30
3827.000
 70
    32
  0
VERTEX
  8
1400LEVEL
 62
5
 10
2093.811
 20
-4481.507
 30
3827.000
 70
    32
  0
VERTEX
  8
1400LEVEL
 62
5
 10
2130.599
 20
-4556.801
 30
3827.000
 70
    32
  0
VERTEX
  8
1400LEVEL
 62
5
 10
2209.553
 20
-4660.366
 30
3827.000
 70
    32
  0
VERTEX
  8
1400LEVEL
 62
5
 10
2274.357
 20
-4732.546
 30
3827.000
 70
    32
  0
VERTEX
  8
1400LEVEL
 62
5
 10
2311.095
 20
-4784.121
 30
3827.000
 70
    32
  0
VERTEX
  8
1400LEVEL
 62
5
 10
2286.508
 20
-4790.836
 30
3827.000
 70
    32
  0
VERTEX
  8
1400LEVEL
 62
5
 10
2244.947
 20
-4737.947
 30
3827.000
 70
    32
  0
VERTEX
  8
1400LEVEL
 62
5
 10
2202.900
 20
-4681.949
 30
3827.000
 70
    32
  0
VERTEX
  8
1400LEVEL
 62
5
 10
2159.482
 20
-4641.612
 30
3827.000
 70
    32
  0
VERTEX
  8
1400LEVEL
 62
5
 10
2109.349
 20
-4576.688
 30
3827.000
 70
    32
  0
VERTEX
  8
1400LEVEL
 62
5
 10
2074.429
 20
-4511.294
 30
3827.000
 70
    32
  0
VERTEX
  8
1400LEVEL
 62
5
 10
2029.995
 20
-4403.439
 30
3827.000
 70
    32
  0
VERTEX
  8
1400LEVEL
 62
5
 10
1971.914
 20
-4318.263
 30
3827.000
 70
    32
  0
VERTEX
  8
1400LEVEL
 62
5
 10
1922.829
 20
-4202.060
 30
3827.000
 70
    32
  0
VERTEX
  8
1400LEVEL
 62
5
 10
1929.030
 20
-4276.250
 30
3827.000
 70
    32
  0
VERTEX
  8
1400LEVEL
 62
5
 10
1957.529
 20
-4342.331
 30
3827.000
 70
    32
  0
VERTEX
  8
1400LEVEL
 62
5
 10
1932.809
 20
-4357.347
 30
3827.000
 70
    32
  0
VERTEX
  8
1400LEVEL
 62
5
 10
1905.869
 20
-4287.997
 30
3827.000
 70
    32
  0
VERTEX
  8
1400LEVEL
 62
5
 10
1870.431
 20
-4212.174
 30
3827.000
 70
    32
  0
VERTEX
  8
1400LEVEL
 62
5
 10
1840.724
 20
-4100.740
 30
3827.000
 70
    32
  0
VERTEX
  8
1400LEVEL
 62
5
 10
1826.316
 20
-4016.847
 30
3827.000
 70
    32
  0
VERTEX
  8
1400LEVEL
 62
5
 10
1796.173
 20
-3894.494
 30
3827.000
 70
    32
  0
VERTEX
  8
1400LEVEL
 62
5
 10
1763.820
 20
-3773.283
 30
3827.000
 70
    32
  0
VERTEX
  8
1400LEVEL
 62
5
 10
1739.844
 20
-3657.767
 30
3827.000
 70
    32
  0
VERTEX
  8
1400LEVEL
 62
5
 10
1706.047
 20
-3546.654
 30
3827.000
 70
    32
  0
VERTEX
  8
1400LEVEL
 62
5
 10
1677.501
 20
-3485.358
 30
3827.000
 70
    32
  0
VERTEX
  8
1400LEVEL
 62
5
 10
1626.715
 20
-3512.895
 30
3827.000
 70
    32
  0
VERTEX
  8
1400LEVEL
 62
5
 10
1588.248
 20
-3408.565
 30
3827.000
 70
    32
  0
VERTEX
  8
1400LEVEL
 62
5
 10
1563.439
 20
-3272.478
 30
3827.000
 70
    32
  0
VERTEX
  8
1400LEVEL
 62
5
 10
1545.750
 20
-3164.576
 30
3827.000
 70
    32
  0
VERTEX
  8
1400LEVEL
 62
5
 10
1518.370
 20
-3055.803
 30
3827.000
 70
    32
  0
VERTEX
  8
1400LEVEL
 62
5
 10
1486.328
 20
-2947.760
 30
3827.000
 70
    32
  0
VERTEX
  8
1400LEVEL
 62
5
 10
1467.881
 20
-2856.379
 30
3827.000
 70
    32
  0
VERTEX
  8
1400LEVEL
 62
5
 10
1467.768
 20
-2818.020
 30
3827.000
 70
    32
  0
VERTEX
  8
1400LEVEL
 62
5
 10
1496.035
 20
-2873.469
 30
3827.000
 70
    32
  0
VERTEX
  8
1400LEVEL
 62
5
 10
1531.206
 20
-2934.365
 30
3827.000
 70
    32
  0
VERTEX
  8
1400LEVEL
 62
5
 10
1537.368
 20
-2975.758
 30
3827.000
 70
    32
  0
VERTEX
  8
1400LEVEL
 62
5
 10
1542.004
 20
-2933.152
 30
3827.000
 70
    32
  0
VERTEX
  8
1400LEVEL
 62
5
 10
1524.122
 20
-2878.944
 30
3827.000
 70
    32
  0
VERTEX
  8
1400LEVEL
 62
5
 10
1475.115
 20
-2796.806
 30
3827.000
 70
    32
  0
VERTEX
  8
1400LEVEL
 62
5
 10
1448.171
 20
-2698.952
 30
3827.000
 70
    32
  0
VERTEX
  8
1400LEVEL
 62
5
 10
1450.299
 20
-2635.242
 30
3827.000
 70
    32
  0
VERTEX
  8
1400LEVEL
 62
5
 10
1468.648
 20
-2644.631
 30
3827.000
 70
    32
  0
VERTEX
  8
1400LEVEL
 62
5
 10
1484.249
 20
-2722.922
 30
3827.000
 70
    32
  0
VERTEX
  8
1400LEVEL
 62
5
 10
1511.343
 20
-2800.370
 30
3827.000
 70
    32
  0
VERTEX
  8
1400LEVEL
 62
5
 10
1543.095
 20
-2880.114
 30
3827.000
 70
    32
  0
VERTEX
  8
1400LEVEL
 62
5
 10
1564.533
 20
-2935.676
 30
3827.000
 70
    32
  0
VERTEX
  8
1400LEVEL
 62
5
 10
1623.702
 20
-2939.311
 30
3827.000
 70
    32
  0
VERTEX
  8
1400LEVEL
 62
5
 10
1573.533
 20
-2870.094
 30
3827.000
 70
    32
  0
VERTEX
  8
1400LEVEL
 62
5
 10
1538.119
 20
-2807.643
 30
3827.000
 70
    32
  0
VERTEX
  8
1400LEVEL
 62
5
 10
1533.723
 20
-2760.241
 30
3827.000
 70
    32
  0
VERTEX
  8
1400LEVEL
 62
5
 10
1520.108
 20
-2695.652
 30
3827.000
 70
    32
  0
VERTEX
  8
1400LEVEL
 62
5
 10
1497.116
 20
-2671.862
 30
3827.000
 70
    32
  0
VERTEX
  8
1400LEVEL
 62
5
 10
1482.153
 20
-2646.740
 30
3827.000
 70
    32
  0
VERTEX
  8
1400LEVEL
 62
5
 10
1457.702
 20
-2603.191
 30
3827.000
 70
    32
  0
VERTEX
  8
1400LEVEL
 62
5
 10
1434.525
 20
-2563.984
 30
3827.000
 70
    32
  0
VERTEX
  8
1400LEVEL
 62
5
 10
1400.539
 20
-2503.539
 30
3827.000
 70
    32
  0
VERTEX
  8
1400LEVEL
 62
5
 10
1373.873
 20
-2474.592
 30
3827.000
 70
    32
  0
VERTEX
  8
1400LEVEL
 62
5
 10
1353.252
 20
-2420.176
 30
3827.000
 70
    32
  0
VERTEX
  8
1400LEVEL
 62
5
 10
1333.549
 20
-2351.285
 30
3827.000
 70
    32
  0
VERTEX
  8
1400LEVEL
 62
5
 10
1308.253
 20
-2306.677
 30
3827.000
 70
    32
  0
VERTEX
  8
1400LEVEL
 62
5
 10
1305.514
 20
-2243.411
 30
3827.000
 70
    32
  0
VERTEX
  8
1400LEVEL
 62
5
 10
1293.214
 20
-2173.998
 30
3827.000
 70
    32
  0
VERTEX
  8
1400LEVEL
 62
5
 10
1269.205
 20
-2114.220
 30
3827.000
 70
    32
  0
VERTEX
  8
1400LEVEL
 62
5
 10
1252.485
 20
-2047.091
 30
3827.000
 70
    32
  0
VERTEX
  8
1400LEVEL
 62
5
 10
1274.159
 20
-2047.201
 30
3827.000
 70
    32
  0
VERTEX
  8
1400LEVEL
 62
5
 10
1285.521
 20
-2114.691
 30
3827.000
 70
    32
  0
VERTEX
  8
1400LEVEL
 62
5
 10
1323.091
 20
-2155.307
 30
3827.000
 70
    32
  0
VERTEX
  8
1400LEVEL
 62
5
 10
1303.765
 20
-2111.198
 30
3827.000
 70
    32
  0
VERTEX
  8
1400LEVEL
 62
5
 10
1282.888
 20
-2032.777
 30
3827.000
 70
    32
  0
VERTEX
  8
1400LEVEL
 62
5
 10
1273.159
 20
-1967.579
 30
3827.000
 70
    32
  0
VERTEX
  8
1400LEVEL
 62
5
 10
1284.153
 20
-1909.647
 30
3827.000
 70
    32
  0
VERTEX
  8
1400LEVEL
 62
5
 10
1282.344
 20
-1854.356
 30
3827.000
 70
    32
  0
VERTEX
  8
1400LEVEL
 62
5
 10
1272.340
 20
-1780.283
 30
3827.000
 70
    32
  0
VERTEX
  8
1400LEVEL
 62
5
 10
1247.720
 20
-1688.117
 30
3827.000
 70
    32
  0
VERTEX
  8
1400LEVEL
 62
5
 10
1233.249
 20
-1621.114
 30
3827.000
 70
    32
  0
VERTEX
  8
1400LEVEL
 62
5
 10
1204.746
 20
-1558.059
 30
3827.000
 70
    32
  0
VERTEX
  8
1400LEVEL
 62
5
 10
1194.977
 20
-1491.593
 30
3827.000
 70
    32
  0
VERTEX
  8
1400LEVEL
 62
5
 10
1183.136
 20
-1414.942
 30
3827.000
 70
    32
  0
VERTEX
  8
1400LEVEL
 62
5
 10
1158.060
 20
-1326.987
 30
3827.000
 70
    32
  0
VERTEX
  8
1400LEVEL
 62
5
 10
1143.248
 20
-1239.496
 30
3827.000
 70
    32
  0
VERTEX
  8
1400LEVEL
 62
5
 10
1098.818
 20
-1160.144
 30
3827.000
 70
    32
  0
VERTEX
  8
1400LEVEL
 62
5
 10
1068.141
 20
-1070.996
 30
3827.000
 70
    32
  0
VERTEX
  8
1400LEVEL
 62
5
 10
1048.156
 20
-1030.812
 30
3827.000
 70
    32
  0
VERTEX
  8
1400LEVEL
 62
5
 10
1014.378
 20
-999.157
 30
3827.000
 70
    32
  0
SEQEND
  8
1400LEVEL
  0
POLYLINE
  8
1400LEVEL
 62
13
 66
     1
 70
     8
  0
VERTEX
  8
1400LEVEL
 62
13
 10
1844.460
 20
-4120.537
 30
3827.000
 70
    32
  0
VERTEX
  8
1400LEVEL
 62
13
 10
1810.513
 20
-4092.890
 30
3827.000
 70
    32
  0
VERTEX
  8
1400LEVEL
 62
13
 10
1762.876
 20
-4026.620
 30
3827.000
 70
    32
  0
VERTEX
  8
1400LEVEL
 62
13
 10
1728.153
 20
-3967.565
 30
3827.000
 70
    32
  0
VERTEX
  8
1400LEVEL
 62
13
 10
1739.421
 20
-3950.036
 30
3827.000
 70
    32
  0
VERTEX
  8
1400LEVEL
 62
13
 10
1737.432
 20
-3876.301
 30
3827.000
 70
    32
  0
VERTEX
  8
1400LEVEL
 62
13
 10
1665.029
 20
-3735.245
 30
3827.000
 70
    32
  0
VERTEX
  8
1400LEVEL
 62
13
 10
1621.067
 20
-3611.074
 30
3827.000
 70
    32
  0
VERTEX
  8
1400LEVEL
 62
13
 10
1639.871
 20
-3584.722
 30
3827.000
 70
    32
  0
VERTEX
  8
1400LEVEL
 62
13
 10
1670.992
 20
-3647.208
 30
3827.000
 70
    32
  0
VERTEX
  8
1400LEVEL
 62
13
 10
1738.375
 20
-3780.610
 30
3827.000
 70
    32
  0
VERTEX
  8
1400LEVEL
 62
13
 10
1787.146
 20
-3886.671
 30
3827.000
 70
    32
  0
VERTEX
  8
1400LEVEL
 62
13
 10
1947.844
 20
-4086.199
 30
3827.000
 70
    32
  0
VERTEX
  8
1400LEVEL
 62
13
 10
2093.836
 20
-4274.175
 30
3827.000
 70
    32
  0
VERTEX
  8
1400LEVEL
 62
13
 10
2137.503
 20
-4254.733
 30
3827.000
 70
    32
  0
VERTEX
  8
1400LEVEL
 62
13
 10
2112.803
 20
-4185.559
 30
3827.000
 70
    32
  0
VERTEX
  8
1400LEVEL
 62
13
 10
2073.284
 20
-4118.032
 30
3827.000
 70
    32
  0
VERTEX
  8
1400LEVEL
 62
13
 10
2035.411
 20
-4081.798
 30
3827.000
 70
    32
  0
VERTEX
  8
1400LEVEL
 62
13
 10
1996.110
 20
-4046.635
 30
3827.000
 70
    32
  0
VERTEX
  8
1400LEVEL
 62
13
 10
1910.566
 20
-3947.765
 30
3827.000
 70
    32
  0
VERTEX
  8
1400LEVEL
 62
13
 10
1859.222
 20
-3770.513
 30
3827.000
 70
    32
  0
VERTEX
  8
1400LEVEL
 62
13
 10
1860.410
 20
-3743.352
 30
3827.000
 70
    32
  0
VERTEX
  8
1400LEVEL
 62
13
 10
1919.100
 20
-3832.414
 30
3827.000
 70
    32
  0
VERTEX
  8
1400LEVEL
 62
13
 10
1966.152
 20
-3908.170
 30
3827.000
 70
    32
  0
VERTEX
  8
1400LEVEL
 62
13
 10
2001.189
 20
-3944.720
 30
3827.000
 70
    32
  0
VERTEX
  8
1400LEVEL
 62
13
 10
2103.454
 20
-4098.112
 30
3827.000
 70
    32
  0
VERTEX
  8
1400LEVEL
 62
13
 10
2195.273
 20
-4290.460
 30
3827.000
 70
    32
  0
VERTEX
  8
1400LEVEL
 62
13
 10
2223.155
 20
-4358.708
 30
3827.000
 70
    32
  0
VERTEX
  8
1400LEVEL
 62
13
 10
2220.277
 20
-4432.886
 30
3827.000
 70
    32
  0
VERTEX
  8
1400LEVEL
 62
13
 10
2244.470
 20
-4508.081
 30
3827.000
 70
    32
  0
VERTEX
  8
1400LEVEL
 62
13
 10
2283.425
 20
-4615.519
 30
3827.000
 70
    32
  0
VERTEX
  8
1400LEVEL
 62
13
 10
2318.192
 20
-4609.758
 30
3827.000
 70
    32
  0
VERTEX
  8
1400LEVEL
 62
13
 10
2272.004
 20
-4530.363
 30
3827.000
 70
    32
  0
VERTEX
  8
1400LEVEL
 62
13
 10
2258.895
 20
-4485.281
 30
3827.000
 70
    32
  0
VERTEX
  8
1400LEVEL
 62
13
 10
2326.890
 20
-4556.484
 30
3827.000
 70
    32
  0
VERTEX
  8
1400LEVEL
 62
13
 10
2336.872
 20
-4522.596
 30
3827.000
 70
    32
  0
VERTEX
  8
1400LEVEL
 62
13
 10
2380.906
 20
-4560.767
 30
3827.000
 70
    32
  0
VERTEX
  8
1400LEVEL
 62
13
 10
2354.244
 20
-4465.735
 30
3827.000
 70
    32
  0
VERTEX
  8
1400LEVEL
 62
13
 10
2316.428
 20
-4395.062
 30
3827.000
 70
    32
  0
VERTEX
  8
1400LEVEL
 62
13
 10
2248.939
 20
-4311.836
 30
3827.000
 70
    32
  0
VERTEX
  8
1400LEVEL
 62
13
 10
2211.782
 20
-4237.238
 30
3827.000
 70
    32
  0
VERTEX
  8
1400LEVEL
 62
13
 10
2320.832
 20
-4341.824
 30
3827.000
 70
    32
  0
VERTEX
  8
1400LEVEL
 62
13
 10
2369.003
 20
-4406.417
 30
3827.000
 70
    32
  0
VERTEX
  8
1400LEVEL
 62
13
 10
2399.473
 20
-4372.188
 30
3827.000
 70
    32
  0
VERTEX
  8
1400LEVEL
 62
13
 10
2414.309
 20
-4346.935
 30
3827.000
 70
    32
  0
VERTEX
  8
1400LEVEL
 62
13
 10
2358.101
 20
-4267.684
 30
3827.000
 70
    32
  0
SEQEND
  8
1400LEVEL
  0
POLYLINE
  8
1400LEVEL
 62
7
 66
     1
 70
     8
  0
VERTEX
  8
1400LEVEL
 62
7
 10
2106.217
 20
-4508.372
 30
3827.000
 70
    32
  0
VERTEX
  8
1400LEVEL
 62
7
 10
2177.796
 20
-4583.648
 30
3827.000
 70
    32
  0
VERTEX
  8
1400LEVEL
 62
7
 10
2216.912
 20
-4661.602
 30
3827.000
 70
    32
  0
VERTEX
  8
1400LEVEL
 62
7
 10
2237.216
 20
-4677.373
 30
3827.000
 70
    32
  0
VERTEX
  8
1400LEVEL
 62
7
 10
2239.987
 20
-4653.371
 30
3827.000
 70
    32
  0
VERTEX
  8
1400LEVEL
 62
7
 10
2290.466
 20
-4704.228
 30
3827.000
 70
    32
  0
VERTEX
  8
1400LEVEL
 62
7
 10
2378.251
 20
-4777.747
 30
3827.000
 70
    32
  0
VERTEX
  8
1400LEVEL
 62
7
 10
2346.487
 20
-4707.082
 30
3827.000
 70
    32
  0
VERTEX
  8
1400LEVEL
 62
7
 10
2341.769
 20
-4655.590
 30
3827.000
 70
    32
  0
VERTEX
  8
1400LEVEL
 62
7
 10
2315.453
 20
-4578.020
 30
3827.000
 70
    32
  0
VERTEX
  8
1400LEVEL
 62
7
 10
2347.158
 20
-4631.020
 30
3827.000
 70
    32
  0
VERTEX
  8
1400LEVEL
 62
7
 10
2385.214
 20
-4706.273
 30
3827.000
 70
    32
  0
VERTEX
  8
1400LEVEL
 62
7
 10
2447.444
 20
-4777.265
 30
3827.000
 70
    32
  0
VERTEX
  8
1400LEVEL
 62
7
 10
2443.594
 20
-4719.109
 30
3827.000
 70
    32
  0
VERTEX
  8
1400LEVEL
 62
7
 10
2398.556
 20
-4604.342
 30
3827.000
 70
    32
  0
VERTEX
  8
1400LEVEL
 62
7
 10
2457.823
 20
-4626.911
 30
3827.000
 70
    32
  0
VERTEX
  8
1400LEVEL
 62
7
 10
2485.113
 20
-4616.110
 30
3827.000
 70
    32
  0
VERTEX
  8
1400LEVEL
 62
7
 10
2549.310
 20
-4684.405
 30
3827.000
 70
    32
  0
VERTEX
  8
1400LEVEL
 62
7
 10
2549.762
 20
-4620.161
 30
3827.000
 70
    32
  0
VERTEX
  8
1400LEVEL
 62
7
 10
2494.307
 20
-4528.363
 30
3827.000
 70
    32
  0
VERTEX
  8
1400LEVEL
 62
7
 10
2434.970
 20
-4371.089
 30
3827.000
 70
    32
  0
VERTEX
  8
1400LEVEL
 62
7
 10
2371.567
 20
-4259.038
 30
3827.000
 70
    32
  0
VERTEX
  8
1400LEVEL
 62
7
 10
2358.101
 20
-4264.383
 30
3827.000
 70
    32
  0
SEQEND
  8
1400LEVEL
  0
POLYLINE
  8
1400LEVEL
 62
3
 66
     1
 70
     8
  0
VERTEX
  8
1400LEVEL
 62
3
 10
1839.149
 20
-4116.212
 30
3827.000
 70
    32
  0
VERTEX
  8
1400LEVEL
 62
3
 10
1922.941
 20
-4203.395
 30
3827.000
 70
    32
  0
VERTEX
  8
1400LEVEL
 62
3
 10
2108.431
 20
-4511.431
 30
3827.000
 70
    32
  0
SEQEND
  8
1400LEVEL
  0
POLYLINE
  8
1400LEVEL
 62
7
 66
     1
 70
     8
  0
VERTEX
  8
1400LEVEL
 62
7
 10
1225.798
 20
-2839.049
 30
3827.000
 70
    32
  0
VERTEX
  8
1400LEVEL
 62
7
 10
1211.228
 20
-2795.603
 30
3827.000
 70
    32
  0
VERTEX
  8
1400LEVEL
 62
7
 10
1160.376
 20
-2716.938
 30
3827.000
 70
    32
  0
VERTEX
  8
1400LEVEL
 62
7
 10
1171.755
 20
-2709.265
 30
3827.000
 70
    32
  0
VERTEX
  8
1400LEVEL
 62
7
 10
1146.235
 20
-2647.972
 30
3827.000
 70
    32
  0
VERTEX
  8
1400LEVEL
 62
7
 10
1163.435
 20
-2598.145
 30
3827.000
 70
    32
  0
VERTEX
  8
1400LEVEL
 62
7
 10
1127.561
 20
-2542.932
 30
3827.000
 70
    32
  0
VERTEX
  8
1400LEVEL
 62
7
 10
1152.461
 20
-2546.359
 30
3827.000
 70
    32
  0
VERTEX
  8
1400LEVEL
 62
7
 10
1178.303
 20
-2611.741
 30
3827.000
 70
    32
  0
VERTEX
  8
1400LEVEL
 62
7
 10
1197.554
 20
-2713.347
 30
3827.000
 70
    32
  0
VERTEX
  8
1400LEVEL
 62
7
 10
1214.333
 20
-2766.613
 30
3827.000
 70
    32
  0
VERTEX
  8
1400LEVEL
 62
7
 10
1249.315
 20
-2815.118
 30
3827.000
 70
    32
  0
VERTEX
  8
1400LEVEL
 62
7
 10
1285.076
 20
-2863.501
 30
3827.000
 70
    32
  0
VERTEX
  8
1400LEVEL
 62
7
 10
1318.351
 20
-2872.623
 30
3827.000
 70
    32
  0
VERTEX
  8
1400LEVEL
 62
7
 10
1331.589
 20
-2836.833
 30
3827.000
 70
    32
  0
VERTEX
  8
1400LEVEL
 62
7
 10
1360.482
 20
-2858.995
 30
3827.000
 70
    32
  0
VERTEX
  8
1400LEVEL
 62
7
 10
1408.512
 20
-2912.490
 30
3827.000
 70
    32
  0
VERTEX
  8
1400LEVEL
 62
7
 10
1431.834
 20
-2902.788
 30
3827.000
 70
    32
  0
VERTEX
  8
1400LEVEL
 62
7
 10
1416.934
 20
-2836.389
 30
3827.000
 70
    32
  0
VERTEX
  8
1400LEVEL
 62
7
 10
1408.044
 20
-2792.066
 30
3827.000
 70
    32
  0
VERTEX
  8
1400LEVEL
 62
7
 10
1410.907
 20
-2769.119
 30
3827.000
 70
    32
  0
VERTEX
  8
1400LEVEL
 62
7
 10
1433.232
 20
-2739.827
 30
3827.000
 70
    32
  0
VERTEX
  8
1400LEVEL
 62
7
 10
1444.776
 20
-2699.643
 30
3827.000
 70
    32
  0
VERTEX
  8
1400LEVEL
 62
7
 10
1428.146
 20
-2657.500
 30
3827.000
 70
    32
  0
VERTEX
  8
1400LEVEL
 62
7
 10
1410.331
 20
-2614.906
 30
3827.000
 70
    32
  0
VERTEX
  8
1400LEVEL
 62
7
 10
1438.693
 20
-2629.256
 30
3827.000
 70
    32
  0
VERTEX
  8
1400LEVEL
 62
7
 10
1450.381
 20
-2636.018
 30
3827.000
 70
    32
  0
VERTEX
  8
1400LEVEL
 62
7
 10
1468.688
 20
-2643.829
 30
3827.000
 70
    32
  0
VERTEX
  8
1400LEVEL
 62
7
 10
1486.558
 20
-2652.942
 30
3827.000
 70
    32
  0
VERTEX
  8
1400LEVEL
 62
7
 10
1573.297
 20
-2702.845
 30
3827.000
 70
    32
  0
VERTEX
  8
1400LEVEL
 62
7
 10
1592.912
 20
-2715.863
 30
3827.000
 70
    32
  0
VERTEX
  8
1400LEVEL
 62
7
 10
1653.498
 20
-2770.540
 30
3827.000
 70
    32
  0
VERTEX
  8
1400LEVEL
 62
7
 10
1674.420
 20
-2783.992
 30
3827.000
 70
    32
  0
VERTEX
  8
1400LEVEL
 62
7
 10
1730.648
 20
-2813.934
 30
3827.000
 70
    32
  0
VERTEX
  8
1400LEVEL
 62
7
 10
1770.740
 20
-2858.328
 30
3827.000
 70
    32
  0
VERTEX
  8
1400LEVEL
 62
7
 10
1811.225
 20
-2920.622
 30
3827.000
 70
    32
  0
VERTEX
  8
1400LEVEL
 62
7
 10
1853.183
 20
-2983.163
 30
3827.000
 70
    32
  0
VERTEX
  8
1400LEVEL
 62
7
 10
1897.330
 20
-3059.692
 30
3827.000
 70
    32
  0
VERTEX
  8
1400LEVEL
 62
7
 10
1927.050
 20
-3098.989
 30
3827.000
 70
    32
  0
VERTEX
  8
1400LEVEL
 62
7
 10
1978.333
 20
-3160.070
 30
3827.000
 70
    32
  0
VERTEX
  8
1400LEVEL
 62
7
 10
2026.276
 20
-3242.534
 30
3827.000
 70
    32
  0
VERTEX
  8
1400LEVEL
 62
7
 10
2105.728
 20
-3340.129
 30
3827.000
 70
    32
  0
VERTEX
  8
1400LEVEL
 62
7
 10
2156.238
 20
-3429.835
 30
3827.000
 70
    32
  0
VERTEX
  8
1400LEVEL
 62
7
 10
2204.535
 20
-3460.650
 30
3827.000
 70
    32
  0
VERTEX
  8
1400LEVEL
 62
7
 10
2206.082
 20
-3403.401
 30
3827.000
 70
    32
  0
VERTEX
  8
1400LEVEL
 62
7
 10
2182.709
 20
-3294.797
 30
3827.000
 70
    32
  0
VERTEX
  8
1400LEVEL
 62
7
 10
2124.106
 20
-3202.218
 30
3827.000
 70
    32
  0
VERTEX
  8
1400LEVEL
 62
7
 10
2058.478
 20
-3071.885
 30
3827.000
 70
    32
  0
VERTEX
  8
1400LEVEL
 62
7
 10
1936.589
 20
-2934.117
 30
3827.000
 70
    32
  0
VERTEX
  8
1400LEVEL
 62
7
 10
1877.487
 20
-2942.096
 30
3827.000
 70
    32
  0
VERTEX
  8
1400LEVEL
 62
7
 10
1838.190
 20
-2908.757
 30
3827.000
 70
    32
  0
VERTEX
  8
1400LEVEL
 62
7
 10
1799.761
 20
-2868.753
 30
3827.000
 70
    32
  0
VERTEX
  8
1400LEVEL
 62
7
 10
1759.860
 20
-2828.502
 30
3827.000
 70
    32
  0
VERTEX
  8
1400LEVEL
 62
7
 10
1735.078
 20
-2797.350
 30
3827.000
 70
    32
  0
VERTEX
  8
1400LEVEL
 62
7
 10
1729.069
 20
-2791.963
 30
3827.000
 70
    32
  0
VERTEX
  8
1400LEVEL
 62
7
 10
1673.294
 20
-2769.305
 30
3827.000
 70
    32
  0
VERTEX
  8
1400LEVEL
 62
7
 10
1648.252
 20
-2748.913
 30
3827.000
 70
    32
  0
VERTEX
  8
1400LEVEL
 62
7
 10
1645.976
 20
-2748.913
 30
3827.000
 70
    32
  0
VERTEX
  8
1400LEVEL
 62
7
 10
1584.510
 20
-2693.401
 30
3827.000
 70
    32
  0
VERTEX
  8
1400LEVEL
 62
7
 10
1561.744
 20
-2682.072
 30
3827.000
 70
    32
  0
VERTEX
  8
1400LEVEL
 62
7
 10
1526.458
 20
-2657.148
 30
3827.000
 70
    32
  0
VERTEX
  8
1400LEVEL
 62
7
 10
1513.938
 20
-2650.351
 30
3827.000
 70
    32
  0
VERTEX
  8
1400LEVEL
 62
7
 10
1476.375
 20
-2637.889
 30
3827.000
 70
    32
  0
VERTEX
  8
1400LEVEL
 62
7
 10
1460.272
 20
-2629.750
 30
3827.000
 70
    32
  0
VERTEX
  8
1400LEVEL
 62
7
 10
1434.136
 20
-2611.339
 30
3827.000
 70
    32
  0
VERTEX
  8
1400LEVEL
 62
7
 10
1407.906
 20
-2593.311
 30
3827.000
 70
    32
  0
VERTEX
  8
1400LEVEL
 62
7
 10
1359.966
 20
-2570.880
 30
3827.000
 70
    32
  0
VERTEX
  8
1400LEVEL
 62
7
 10
1328.736
 20
-2530.067
 30
3827.000
 70
    32
  0
VERTEX
  8
1400LEVEL
 62
7
 10
1315.380
 20
-2454.928
 30
3827.000
 70
    32
  0
VERTEX
  8
1400LEVEL
 62
7
 10
1317.621
 20
-2398.047
 30
3827.000
 70
    32
  0
VERTEX
  8
1400LEVEL
 62
7
 10
1344.091
 20
-2420.655
 30
3827.000
 70
    32
  0
VERTEX
  8
1400LEVEL
 62
7
 10
1371.350
 20
-2468.831
 30
3827.000
 70
    32
  0
VERTEX
  8
1400LEVEL
 62
7
 10
1414.750
 20
-2477.245
 30
3827.000
 70
    32
  0
VERTEX
  8
1400LEVEL
 62
7
 10
1448.504
 20
-2467.629
 30
3827.000
 70
    32
  0
VERTEX
  8
1400LEVEL
 62
7
 10
1468.999
 20
-2461.619
 30
3827.000
 70
    32
  0
VERTEX
  8
1400LEVEL
 62
7
 10
1593.046
 20
-2592.646
 30
3827.000
 70
    32
  0
VERTEX
  8
1400LEVEL
 62
7
 10
1614.867
 20
-2614.365
 30
3827.000
 70
    32
  0
VERTEX
  8
1400LEVEL
 62
7
 10
1615.172
 20
-2613.252
 30
3827.000
 70
    32
  0
VERTEX
  8
1400LEVEL
 62
7
 10
1645.249
 20
-2597.874
 30
3827.000
 70
    32
  0
VERTEX
  8
1400LEVEL
 62
7
 10
1701.085
 20
-2616.840
 30
3827.000
 70
    32
  0
VERTEX
  8
1400LEVEL
 62
7
 10
1704.241
 20
-2580.039
 30
3827.000
 70
    32
  0
VERTEX
  8
1400LEVEL
 62
7
 10
1683.137
 20
-2519.489
 30
3827.000
 70
    32
  0
VERTEX
  8
1400LEVEL
 62
7
 10
1709.749
 20
-2496.214
 30
3827.000
 70
    32
  0
VERTEX
  8
1400LEVEL
 62
7
 10
1713.435
 20
-2425.233
 30
3827.001
 70
    32
  0
VERTEX
  8
1400LEVEL
 62
7
 10
1680.454
 20
-2350.797
 30
3827.000
 70
    32
  0
VERTEX
  8
1400LEVEL
 62
7
 10
1702.037
 20
-2357.450
 30
3827.000
 70
    32
  0
VERTEX
  8
1400LEVEL
 62
7
 10
1733.339
 20
-2411.268
 30
3827.001
 70
    32
  0
VERTEX
  8
1400LEVEL
 62
7
 10
1782.608
 20
-2506.941
 30
3827.000
 70
    32
  0
VERTEX
  8
1400LEVEL
 62
7
 10
1835.127
 20
-2588.425
 30
3827.001
 70
    32
  0
VERTEX
  8
1400LEVEL
 62
7
 10
1871.088
 20
-2643.888
 30
3827.000
 70
    32
  0
VERTEX
  8
1400LEVEL
 62
7
 10
1928.584
 20
-2675.493
 30
3827.000
 70
    32
  0
VERTEX
  8
1400LEVEL
 62
7
 10
1962.370
 20
-2732.625
 30
3827.000
 70
    32
  0
VERTEX
  8
1400LEVEL
 62
7
 10
2025.919
 20
-2764.237
 30
3827.000
 70
    32
  0
VERTEX
  8
1400LEVEL
 62
7
 10
2085.492
 20
-2803.001
 30
3827.000
 70
    32
  0
VERTEX
  8
1400LEVEL
 62
7
 10
2076.331
 20
-2771.950
 30
3827.000
 70
    32
  0
VERTEX
  8
1400LEVEL
 62
7
 10
2047.605
 20
-2723.739
 30
3827.000
 70
    32
  0
VERTEX
  8
1400LEVEL
 62
7
 10
2015.197
 20
-2644.894
 30
3827.000
 70
    32
  0
VERTEX
  8
1400LEVEL
 62
7
 10
1989.167
 20
-2567.121
 30
3827.000
 70
    32
  0
VERTEX
  8
1400LEVEL
 62
7
 10
1977.103
 20
-2485.829
 30
3827.001
 70
    32
  0
VERTEX
  8
1400LEVEL
 62
7
 10
1923.433
 20
-2392.377
 30
3827.000
 70
    32
  0
VERTEX
  8
1400LEVEL
 62
7
 10
1879.681
 20
-2304.138
 30
3827.001
 70
    32
  0
VERTEX
  8
1400LEVEL
 62
7
 10
1854.975
 20
-2205.320
 30
3827.000
 70
    32
  0
VERTEX
  8
1400LEVEL
 62
7
 10
1915.344
 20
-2323.419
 30
3827.000
 70
    32
  0
VERTEX
  8
1400LEVEL
 62
7
 10
1908.117
 20
-2283.200
 30
3827.001
 70
    32
  0
VERTEX
  8
1400LEVEL
 62
7
 10
1893.609
 20
-2214.080
 30
3827.000
 70
    32
  0
VERTEX
  8
1400LEVEL
 62
7
 10
1879.448
 20
-2128.716
 30
3827.000
 70
    32
  0
VERTEX
  8
1400LEVEL
 62
7
 10
1916.649
 20
-2170.027
 30
3827.000
 70
    32
  0
VERTEX
  8
1400LEVEL
 62
7
 10
1970.982
 20
-2181.425
 30
3827.000
 70
    32
  0
VERTEX
  8
1400LEVEL
 62
7
 10
1976.937
 20
-2130.970
 30
3827.000
 70
    32
  0
VERTEX
  8
1400LEVEL
 62
7
 10
2027.757
 20
-2139.256
 30
3827.000
 70
    32
  0
VERTEX
  8
1400LEVEL
 62
7
 10
2073.035
 20
-2195.544
 30
3827.000
 70
    32
  0
VERTEX
  8
1400LEVEL
 62
7
 10
2127.949
 20
-2200.482
 30
3827.000
 70
    32
  0
VERTEX
  8
1400LEVEL
 62
7
 10
2118.318
 20
-2122.689
 30
3827.000
 70
    32
  0
VERTEX
  8
1400LEVEL
 62
7
 10
2109.366
 20
-2057.370
 30
3827.000
 70
    32
  0
VERTEX
  8
1400LEVEL
 62
7
 10
2073.791
 20
-1961.345
 30
3827.000
 70
    32
  0
VERTEX
  8
1400LEVEL
 62
7
 10
2038.129
 20
-1868.837
 30
3827.000
 70
    32
  0
VERTEX
  8
1400LEVEL
 62
7
 10
2000.839
 20
-1771.011
 30
3827.000
 70
    32
  0
VERTEX
  8
1400LEVEL
 62
7
 10
1979.429
 20
-1662.736
 30
3827.000
 70
    32
  0
VERTEX
  8
1400LEVEL
 62
7
 10
1946.683
 20
-1591.906
 30
3827.000
 70
    32
  0
VERTEX
  8
1400LEVEL
 62
7
 10
1922.875
 20
-1503.912
 30
3827.000
 70
    32
  0
VERTEX
  8
1400LEVEL
 62
7
 10
1898.522
 20
-1395.143
 30
3827.000
 70
    32
  0
VERTEX
  8
1400LEVEL
 62
7
 10
1937.877
 20
-1414.619
 30
3827.000
 70
    32
  0
VERTEX
  8
1400LEVEL
 62
7
 10
1987.630
 20
-1489.315
 30
3827.000
 70
    32
  0
VERTEX
  8
1400LEVEL
 62
7
 10
2046.602
 20
-1518.141
 30
3827.000
 70
    32
  0
VERTEX
  8
1400LEVEL
 62
7
 10
2078.276
 20
-1563.820
 30
3827.000
 70
    32
  0
VERTEX
  8
1400LEVEL
 62
7
 10
2113.404
 20
-1626.475
 30
3827.000
 70
    32
  0
VERTEX
  8
1400LEVEL
 62
7
 10
2152.622
 20
-1688.807
 30
3827.000
 70
    32
  0
VERTEX
  8
1400LEVEL
 62
7
 10
2202.198
 20
-1742.034
 30
3827.000
 70
    32
  0
VERTEX
  8
1400LEVEL
 62
7
 10
2212.113
 20
-1696.532
 30
3827.000
 70
    32
  0
VERTEX
  8
1400LEVEL
 62
7
 10
2207.623
 20
-1627.170
 30
3827.000
 70
    32
  0
VERTEX
  8
1400LEVEL
 62
7
 10
2213.323
 20
-1552.710
 30
3827.000
 70
    32
  0
VERTEX
  8
1400LEVEL
 62
7
 10
2210.560
 20
-1476.070
 30
3827.000
 70
    32
  0
VERTEX
  8
1400LEVEL
 62
7
 10
2243.683
 20
-1445.566
 30
3827.000
 70
    32
  0
VERTEX
  8
1400LEVEL
 62
7
 10
2254.505
 20
-1394.667
 30
3827.000
 70
    32
  0
VERTEX
  8
1400LEVEL
 62
7
 10
2280.618
 20
-1408.891
 30
3827.000
 70
    32
  0
VERTEX
  8
1400LEVEL
 62
7
 10
2302.432
 20
-1457.706
 30
3827.000
 70
    32
  0
VERTEX
  8
1400LEVEL
 62
7
 10
2317.150
 20
-1523.238
 30
3827.000
 70
    32
  0
VERTEX
  8
1400LEVEL
 62
7
 10
2344.373
 20
-1595.410
 30
3827.000
 70
    32
  0
VERTEX
  8
1400LEVEL
 62
7
 10
2364.712
 20
-1647.004
 30
3827.000
 70
    32
  0
VERTEX
  8
1400LEVEL
 62
7
 10
2388.061
 20
-1710.707
 30
3827.000
 70
    32
  0
VERTEX
  8
1400LEVEL
 62
7
 10
2413.330
 20
-1776.497
 30
3827.000
 70
    32
  0
VERTEX
  8
1400LEVEL
 62
7
 10
2444.945
 20
-1836.040
 30
3827.000
 70
    32
  0
VERTEX
  8
1400LEVEL
 62
7
 10
2477.588
 20
-1890.962
 30
3827.000
 70
    32
  0
VERTEX
  8
1400LEVEL
 62
7
 10
2483.170
 20
-1907.286
 30
3827.000
 70
    32
  0
VERTEX
  8
1400LEVEL
 62
7
 10
2516.967
 20
-1955.340
 30
3827.000
 70
    32
  0
VERTEX
  8
1400LEVEL
 62
7
 10
2550.796
 20
-1979.184
 30
3827.000
 70
    32
  0
VERTEX
  8
1400LEVEL
 62
7
 10
2579.787
 20
-1919.230
 30
3827.000
 70
    32
  0
VERTEX
  8
1400LEVEL
 62
7
 10
2590.358
 20
-1809.771
 30
3827.000
 70
    32
  0
VERTEX
  8
1400LEVEL
 62
7
 10
2615.038
 20
-1793.486
 30
3827.000
 70
    32
  0
VERTEX
  8
1400LEVEL
 62
7
 10
2646.061
 20
-1773.980
 30
3827.000
 70
    32
  0
VERTEX
  8
1400LEVEL
 62
7
 10
2645.163
 20
-1710.265
 30
3827.000
 70
    32
  0
VERTEX
  8
1400LEVEL
 62
7
 10
2667.151
 20
-1625.930
 30
3827.000
 70
    32
  0
VERTEX
  8
1400LEVEL
 62
7
 10
2726.207
 20
-1591.206
 30
3827.000
 70
    32
  0
VERTEX
  8
1400LEVEL
 62
7
 10
2716.886
 20
-1495.052
 30
3827.000
 70
    32
  0
VERTEX
  8
1400LEVEL
 62
7
 10
2740.793
 20
-1444.334
 30
3827.000
 70
    32
  0
VERTEX
  8
1400LEVEL
 62
7
 10
2771.381
 20
-1319.320
 30
3827.000
 70
    32
  0
SEQEND
  8
1400LEVEL
  0
POLYLINE
  8
1400LEVEL
 62
13
 66
     1
 70
     8
  0
VERTEX
  8
1400LEVEL
 62
13
 10
1226.138
 20
-2838.970
 30
3827.000
 70
    32
  0
VERTEX
  8
1400LEVEL
 62
13
 10
1190.147
 20
-2779.954
 30
3827.000
 70
    32
  0
VERTEX
  8
1400LEVEL
 62
13
 10
1138.251
 20
-2718.013
 30
3827.000
 70
    32
  0
VERTEX
  8
1400LEVEL
 62
13
 10
1100.058
 20
-2654.087
 30
3827.000
 70
    32
  0
VERTEX
  8
1400LEVEL
 62
13
 10
1133.130
 20
-2662.922
 30
3827.000
 70
    32
  0
VERTEX
  8
1400LEVEL
 62
13
 10
1131.532
 20
-2633.395
 30
3827.000
 70
    32
  0
VERTEX
  8
1400LEVEL
 62
13
 10
1131.584
 20
-2594.055
 30
3827.000
 70
    32
  0
VERTEX
  8
1400LEVEL
 62
13
 10
1109.702
 20
-2596.684
 30
3827.000
 70
    32
  0
VERTEX
  8
1400LEVEL
 62
13
 10
1060.177
 20
-2567.176
 30
3827.000
 70
    32
  0
VERTEX
  8
1400LEVEL
 62
13
 10
964.212
 20
-2462.771
 30
3827.000
 70
    32
  0
VERTEX
  8
1400LEVEL
 62
13
 10
897.127
 20
-2383.144
 30
3827.000
 70
    32
  0
VERTEX
  8
1400LEVEL
 62
13
 10
868.923
 20
-2310.807
 30
3827.000
 70
    32
  0
VERTEX
  8
1400LEVEL
 62
13
 10
832.366
 20
-2246.147
 30
3827.000
 70
    32
  0
VERTEX
  8
1400LEVEL
 62
13
 10
770.294
 20
-2148.697
 30
3827.000
 70
    32
  0
VERTEX
  8
1400LEVEL
 62
13
 10
710.125
 20
-2065.440
 30
3827.000
 70
    32
  0
VERTEX
  8
1400LEVEL
 62
13
 10
646.310
 20
-1943.492
 30
3827.001
 70
    32
  0
VERTEX
  8
1400LEVEL
 62
13
 10
621.261
 20
-1884.587
 30
3827.001
 70
    32
  0
VERTEX
  8
1400LEVEL
 62
13
 10
555.712
 20
-1812.039
 30
3827.001
 70
    32
  0
VERTEX
  8
1400LEVEL
 62
13
 10
466.140
 20
-1698.056
 30
3827.000
 70
    32
  0
VERTEX
  8
1400LEVEL
 62
13
 10
393.894
 20
-1562.071
 30
3827.000
 70
    32
  0
VERTEX
  8
1400LEVEL
 62
13
 10
356.031
 20
-1433.124
 30
3827.000
 70
    32
  0
VERTEX
  8
1400LEVEL
 62
13
 10
310.694
 20
-1296.110
 30
3827.000
 70
    32
  0
VERTEX
  8
1400LEVEL
 62
13
 10
347.938
 20
-1335.663
 30
3827.000
 70
    32
  0
VERTEX
  8
1400LEVEL
 62
13
 10
412.334
 20
-1438.800
 30
3827.000
 70
    32
  0
VERTEX
  8
1400LEVEL
 62
13
 10
481.900
 20
-1560.714
 30
3827.000
 70
    32
  0
VERTEX
  8
1400LEVEL
 62
13
 10
543.485
 20
-1686.584
 30
3827.000
 70
    32
  0
VERTEX
  8
1400LEVEL
 62
13
 10
594.234
 20
-1812.400
 30
3827.000
 70
    32
  0
VERTEX
  8
1400LEVEL
 62
13
 10
644.187
 20
-1867.387
 30
3827.001
 70
    32
  0
VERTEX
  8
1400LEVEL
 62
13
 10
687.118
 20
-1927.638
 30
3827.000
 70
    32
  0
VERTEX
  8
1400LEVEL
 62
13
 10
748.770
 20
-2033.593
 30
3827.000
 70
    32
  0
VERTEX
  8
1400LEVEL
 62
13
 10
798.954
 20
-2122.235
 30
3827.000
 70
    32
  0
VERTEX
  8
1400LEVEL
 62
13
 10
842.340
 20
-2218.311
 30
3827.000
 70
    32
  0
VERTEX
  8
1400LEVEL
 62
13
 10
876.942
 20
-2245.060
 30
3827.000
 70
    32
  0
VERTEX
  8
1400LEVEL
 62
13
 10
912.117
 20
-2302.930
 30
3827.000
 70
    32
  0
VERTEX
  8
1400LEVEL
 62
13
 10
942.391
 20
-2293.891
 30
3827.000
 70
    32
  0
VERTEX
  8
1400LEVEL
 62
13
 10
960.419
 20
-2267.660
 30
3827.000
 70
    32
  0
VERTEX
  8
1400LEVEL
 62
13
 10
1022.865
 20
-2298.331
 30
3827.000
 70
    32
  0
VERTEX
  8
1400LEVEL
 62
13
 10
1077.849
 20
-2374.915
 30
3827.000
 70
    32
  0
VERTEX
  8
1400LEVEL
 62
13
 10
1124.810
 20
-2457.214
 30
3827.000
 70
    32
  0
VERTEX
  8
1400LEVEL
 62
13
 10
1175.650
 20
-2544.958
 30
3827.000
 70
    32
  0
VERTEX
  8
1400LEVEL
 62
13
 10
1215.939
 20
-2632.442
 30
3827.000
 70
    32
  0
VERTEX
  8
1400LEVEL
 62
13
 10
1261.460
 20
-2721.814
 30
3827.000
 70
    32
  0
VERTEX
  8
1400LEVEL
 62
13
 10
1295.925
 20
-2759.890
 30
3827.000
 70
    32
  0
VERTEX
  8
1400LEVEL
 62
13
 10
1339.233
 20
-2790.372
 30
3827.000
 70
    32
  0
VERTEX
  8
1400LEVEL
 62
13
 10
1363.180
 20
-2740.921
 30
3827.000
 70
    32
  0
VERTEX
  8
1400LEVEL
 62
13
 10
1379.512
 20
-2697.758
 30
3827.000
 70
    32
  0
VERTEX
  8
1400LEVEL
 62
13
 10
1328.546
 20
-2738.381
 30
3827.000
 70
    32
  0
VERTEX
  8
1400LEVEL
 62
13
 10
1279.931
 20
-2700.450
 30
3827.000
 70
    32
  0
VERTEX
  8
1400LEVEL
 62
13
 10
1233.963
 20
-2609.237
 30
3827.000
 70
    32
  0
VERTEX
  8
1400LEVEL
 62
13
 10
1228.115
 20
-2514.928
 30
3827.000
 70
    32
  0
VERTEX
  8
1400LEVEL
 62
13
 10
1189.498
 20
-2494.063
 30
3827.000
 70
    32
  0
VERTEX
  8
1400LEVEL
 62
13
 10
1186.072
 20
-2424.375
 30
3827.000
 70
    32
  0
VERTEX
  8
1400LEVEL
 62
13
 10
1171.935
 20
-2352.383
 30
3827.000
 70
    32
  0
VERTEX
  8
1400LEVEL
 62
13
 10
1156.094
 20
-2269.511
 30
3827.000
 70
    32
  0
VERTEX
  8
1400LEVEL
 62
13
 10
1100.490
 20
-2198.119
 30
3827.000
 70
    32
  0
VERTEX
  8
1400LEVEL
 62
13
 10
1049.231
 20
-2055.822
 30
3827.000
 70
    32
  0
VERTEX
  8
1400LEVEL
 62
13
 10
1071.316
 20
-2053.479
 30
3827.000
 70
    32
  0
VERTEX
  8
1400LEVEL
 62
13
 10
1098.764
 20
-2047.749
 30
3827.000
 70
    32
  0
VERTEX
  8
1400LEVEL
 62
13
 10
1087.649
 20
-1947.258
 30
3827.000
 70
    32
  0
VERTEX
  8
1400LEVEL
 62
13
 10
1139.070
 20
-1997.011
 30
3827.000
 70
    32
  0
VERTEX
  8
1400LEVEL
 62
13
 10
1205.036
 20
-2056.271
 30
3827.000
 70
    32
  0
VERTEX
  8
1400LEVEL
 62
13
 10
1257.030
 20
-2137.146
 30
3827.000
 70
    32
  0
VERTEX
  8
1400LEVEL
 62
13
 10
1268.588
 20
-2210.975
 30
3827.000
 70
    32
  0
VERTEX
  8
1400LEVEL
 62
13
 10
1279.699
 20
-2282.963
 30
3827.000
 70
    32
  0
VERTEX
  8
1400LEVEL
 62
13
 10
1307.457
 20
-2305.361
 30
3827.000
 70
    32
  0
VERTEX
  8
1400LEVEL
 62
13
 10
1437.655
 20
-2432.771
 30
3827.000
 70
    32
  0
VERTEX
  8
1400LEVEL
 62
13
 10
1456.943
 20
-2427.964
 30
3827.000
 70
    32
  0
VERTEX
  8
1400LEVEL
 62
13
 10
1531.684
 20
-2430.364
 30
3827.000
 70
    32
  0
VERTEX
  8
1400LEVEL
 62
13
 10
1594.998
 20
-2529.147
 30
3827.000
 70
    32
  0
VERTEX
  8
1400LEVEL
 62
13
 10
1630.629
 20
-2582.806
 30
3827.000
 70
    32
  0
VERTEX
  8
1400LEVEL
 62
13
 10
1606.259
 20
-2517.671
 30
3827.000
 70
    32
  0
VERTEX
  8
1400LEVEL
 62
13
 10
1566.103
 20
-2453.415
 30
3827.000
 70
    32
  0
VERTEX
  8
1400LEVEL
 62
13
 10
1535.301
 20
-2407.527
 30
3827.000
 70
    32
  0
VERTEX
  8
1400LEVEL
 62
13
 10
1494.312
 20
-2355.841
 30
3827.000
 70
    32
  0
VERTEX
  8
1400LEVEL
 62
13
 10
1459.352
 20
-2301.752
 30
3827.000
 70
    32
  0
VERTEX
  8
1400LEVEL
 62
13
 10
1421.980
 20
-2257.279
 30
3827.000
 70
    32
  0
VERTEX
  8
1400LEVEL
 62
13
 10
1367.731
 20
-2198.381
 30
3827.000
 70
    32
  0
VERTEX
  8
1400LEVEL
 62
13
 10
1288.166
 20
-2060.153
 30
3827.000
 70
    32
  0
VERTEX
  8
1400LEVEL
 62
13
 10
1273.649
 20
-2030.720
 30
3827.000
 70
    32
  0
VERTEX
  8
1400LEVEL
 62
13
 10
1264.473
 20
-1980.245
 30
3827.000
 70
    32
  0
VERTEX
  8
1400LEVEL
 62
13
 10
1237.050
 20
-1904.760
 30
3827.000
 70
    32
  0
VERTEX
  8
1400LEVEL
 62
13
 10
1242.109
 20
-1850.623
 30
3827.000
 70
    32
  0
VERTEX
  8
1400LEVEL
 62
13
 10
1283.141
 20
-1887.410
 30
3827.000
 70
    32
  0
VERTEX
  8
1400LEVEL
 62
13
 10
1285.162
 20
-1888.628
 30
3827.000
 70
    32
  0
VERTEX
  8
1400LEVEL
 62
13
 10
1317.230
 20
-1915.850
 30
3827.000
 70
    32
  0
VERTEX
  8
1400LEVEL
 62
13
 10
1322.040
 20
-1921.390
 30
3827.000
 70
    32
  0
VERTEX
  8
1400LEVEL
 62
13
 10
1343.852
 20
-1946.161
 30
3827.000
 70
    32
  0
VERTEX
  8
1400LEVEL
 62
13
 10
1385.036
 20
-1973.839
 30
3827.000
 70
    32
  0
VERTEX
  8
1400LEVEL
 62
13
 10
1391.085
 20
-1977.302
 30
3827.000
 70
    32
  0
VERTEX
  8
1400LEVEL
 62
13
 10
1414.101
 20
-1982.935
 30
3827.000
 70
    32
  0
VERTEX
  8
1400LEVEL
 62
13
 10
1418.013
 20
-1984.181
 30
3827.000
 70
    32
  0
VERTEX
  8
1400LEVEL
 62
13
 10
1461.436
 20
-1998.455
 30
3827.000
 70
    32
  0
VERTEX
  8
1400LEVEL
 62
13
 10
1485.017
 20
-2009.731
 30
3827.000
 70
    32
  0
VERTEX
  8
1400LEVEL
 62
13
 10
1495.082
 20
-2011.513
 30
3827.000
 70
    32
  0
VERTEX
  8
1400LEVEL
 62
13
 10
1518.991
 20
-2016.196
 30
3827.000
 70
    32
  0
VERTEX
  8
1400LEVEL
 62
13
 10
1555.203
 20
-2063.394
 30
3827.000
 70
    32
  0
VERTEX
  8
1400LEVEL
 62
13
 10
1590.111
 20
-2106.337
 30
3827.000
 70
    32
  0
VERTEX
  8
1400LEVEL
 62
13
 10
1622.355
 20
-2123.105
 30
3827.000
 70
    32
  0
VERTEX
  8
1400LEVEL
 62
13
 10
1641.071
 20
-2173.661
 30
3827.000
 70
    32
  0
VERTEX
  8
1400LEVEL
 62
13
 10
1659.716
 20
-2197.990
 30
3827.000
 70
    32
  0
VERTEX
  8
1400LEVEL
 62
13
 10
1681.463
 20
-2266.720
 30
3827.000
 70
    32
  0
VERTEX
  8
1400LEVEL
 62
13
 10
1745.578
 20
-2303.977
 30
3827.000
 70
    32
  0
VERTEX
  8
1400LEVEL
 62
13
 10
1780.694
 20
-2344.181
 30
3827.000
 70
    32
  0
VERTEX
  8
1400LEVEL
 62
13
 10
1797.803
 20
-2367.941
 30
3827.000
 70
    32
  0
VERTEX
  8
1400LEVEL
 62
13
 10
1804.125
 20
-2364.712
 30
3827.000
 70
    32
  0
VERTEX
  8
1400LEVEL
 62
13
 10
1827.373
 20
-2324.768
 30
3827.000
 70
    32
  0
VERTEX
  8
1400LEVEL
 62
13
 10
1845.103
 20
-2312.122
 30
3827.000
 70
    32
  0
VERTEX
  8
1400LEVEL
 62
13
 10
1835.546
 20
-2239.891
 30
3827.000
 70
    32
  0
VERTEX
  8
1400LEVEL
 62
13
 10
1821.072
 20
-2144.384
 30
3827.000
 70
    32
  0
VERTEX
  8
1400LEVEL
 62
13
 10
1787.785
 20
-2018.223
 30
3827.000
 70
    32
  0
VERTEX
  8
1400LEVEL
 62
13
 10
1753.490
 20
-1881.552
 30
3827.000
 70
    32
  0
VERTEX
  8
1400LEVEL
 62
13
 10
1797.167
 20
-1911.339
 30
3827.000
 70
    32
  0
VERTEX
  8
1400LEVEL
 62
13
 10
1855.460
 20
-2022.279
 30
3827.000
 70
    32
  0
VERTEX
  8
1400LEVEL
 62
13
 10
1890.439
 20
-2042.280
 30
3827.000
 70
    32
  0
VERTEX
  8
1400LEVEL
 62
13
 10
1863.597
 20
-1960.335
 30
3827.000
 70
    32
  0
VERTEX
  8
1400LEVEL
 62
13
 10
1896.303
 20
-1966.839
 30
3827.000
 70
    32
  0
VERTEX
  8
1400LEVEL
 62
13
 10
1948.886
 20
-2003.671
 30
3827.000
 70
    32
  0
VERTEX
  8
1400LEVEL
 62
13
 10
1947.282
 20
-1885.608
 30
3827.000
 70
    32
  0
VERTEX
  8
1400LEVEL
 62
13
 10
1939.688
 20
-1750.648
 30
3827.000
 70
    32
  0
VERTEX
  8
1400LEVEL
 62
13
 10
1931.595
 20
-1653.186
 30
3827.000
 70
    32
  0
VERTEX
  8
1400LEVEL
 62
13
 10
1890.584
 20
-1554.987
 30
3827.000
 70
    32
  0
VERTEX
  8
1400LEVEL
 62
13
 10
1879.124
 20
-1468.563
 30
3827.000
 70
    32
  0
VERTEX
  8
1400LEVEL
 62
13
 10
1831.691
 20
-1371.051
 30
3827.000
 70
    32
  0
VERTEX
  8
1400LEVEL
 62
13
 10
1774.737
 20
-1268.660
 30
3827.000
 70
    32
  0
VERTEX
  8
1400LEVEL
 62
13
 10
1779.400
 20
-1204.871
 30
3827.000
 70
    32
  0
VERTEX
  8
1400LEVEL
 62
13
 10
1770.448
 20
-1108.022
 30
3827.000
 70
    32
  0
VERTEX
  8
1400LEVEL
 62
13
 10
1802.602
 20
-1099.804
 30
3827.000
 70
    32
  0
VERTEX
  8
1400LEVEL
 62
13
 10
1869.745
 20
-1228.626
 30
3827.000
 70
    32
  0
VERTEX
  8
1400LEVEL
 62
13
 10
1934.970
 20
-1323.830
 30
3827.000
 70
    32
  0
VERTEX
  8
1400LEVEL
 62
13
 10
1995.319
 20
-1394.001
 30
3827.000
 70
    32
  0
VERTEX
  8
1400LEVEL
 62
13
 10
2051.854
 20
-1441.839
 30
3827.000
 70
    32
  0
VERTEX
  8
1400LEVEL
 62
13
 10
2131.703
 20
-1549.086
 30
3827.000
 70
    32
  0
VERTEX
  8
1400LEVEL
 62
13
 10
2164.367
 20
-1525.819
 30
3827.000
 70
    32
  0
VERTEX
  8
1400LEVEL
 62
13
 10
2170.974
 20
-1382.903
 30
3827.000
 70
    32
  0
VERTEX
  8
1400LEVEL
 62
13
 10
2163.878
 20
-1305.032
 30
3827.000
 70
    32
  0
VERTEX
  8
1400LEVEL
 62
13
 10
2200.754
 20
-1250.691
 30
3827.000
 70
    32
  0
VERTEX
  8
1400LEVEL
 62
13
 10
2205.393
 20
-1268.118
 30
3827.000
 70
    32
  0
VERTEX
  8
1400LEVEL
 62
13
 10
2188.028
 20
-1318.926
 30
3827.000
 70
    32
  0
VERTEX
  8
1400LEVEL
 62
13
 10
2208.481
 20
-1345.820
 30
3827.000
 70
    32
  0
VERTEX
  8
1400LEVEL
 62
13
 10
2225.284
 20
-1286.341
 30
3827.000
 70
    32
  0
VERTEX
  8
1400LEVEL
 62
13
 10
2259.498
 20
-1328.916
 30
3827.000
 70
    32
  0
VERTEX
  8
1400LEVEL
 62
13
 10
2319.008
 20
-1447.627
 30
3827.000
 70
    32
  0
VERTEX
  8
1400LEVEL
 62
13
 10
2390.474
 20
-1656.664
 30
3827.000
 70
    32
  0
VERTEX
  8
1400LEVEL
 62
13
 10
2392.175
 20
-1660.699
 30
3827.000
 70
    32
  0
VERTEX
  8
1400LEVEL
 62
13
 10
2427.181
 20
-1754.106
 30
3827.000
 70
    32
  0
VERTEX
  8
1400LEVEL
 62
13
 10
2471.148
 20
-1812.192
 30
3827.000
 70
    32
  0
VERTEX
  8
1400LEVEL
 62
13
 10
2510.558
 20
-1883.889
 30
3827.000
 70
    32
  0
VERTEX
  8
1400LEVEL
 62
13
 10
2536.817
 20
-1849.205
 30
3827.000
 70
    32
  0
VERTEX
  8
1400LEVEL
 62
13
 10
2548.463
 20
-1730.341
 30
3827.000
 70
    32
  0
VERTEX
  8
1400LEVEL
 62
13
 10
2592.317
 20
-1687.010
 30
3827.000
 70
    32
  0
VERTEX
  8
1400LEVEL
 62
13
 10
2592.894
 20
-1683.575
 30
3827.000
 70
    32
  0
VERTEX
  8
1400LEVEL
 62
13
 10
2618.458
 20
-1585.463
 30
3827.000
 70
    32
  0
VERTEX
  8
1400LEVEL
 62
13
 10
2670.225
 20
-1526.561
 30
3827.000
 70
    32
  0
VERTEX
  8
1400LEVEL
 62
13
 10
2684.132
 20
-1430.274
 30
3827.000
 70
    32
  0
VERTEX
  8
1400LEVEL
 62
13
 10
2710.070
 20
-1296.911
 30
3827.000
 70
    32
  0
SEQEND
  8
1400LEVEL
  0
POLYLINE
  8
1400LEVEL
 62
13
 66
     1
 70
     8
  0
VERTEX
  8
1400LEVEL
 62
13
 10
1525.478
 20
-3594.510
 30
3827.000
 70
    32
  0
VERTEX
  8
1400LEVEL
 62
13
 10
1483.171
 20
-3517.533
 30
3827.000
 70
    32
  0
VERTEX
  8
1400LEVEL
 62
13
 10
1419.843
 20
-3411.044
 30
3827.000
 70
    32
  0
VERTEX
  8
1400LEVEL
 62
13
 10
1327.560
 20
-3274.215
 30
3827.000
 70
    32
  0
VERTEX
  8
1400LEVEL
 62
13
 10
1231.964
 20
-3137.586
 30
3827.000
 70
    32
  0
VERTEX
  8
1400LEVEL
 62
13
 10
1149.262
 20
-3054.831
 30
3827.000
 70
    32
  0
VERTEX
  8
1400LEVEL
 62
13
 10
1204.069
 20
-3204.534
 30
3827.000
 70
    32
  0
VERTEX
  8
1400LEVEL
 62
13
 10
1146.302
 20
-3161.029
 30
3827.000
 70
    32
  0
VERTEX
  8
1400LEVEL
 62
13
 10
1078.244
 20
-3043.656
 30
3827.000
 70
    32
  0
VERTEX
  8
1400LEVEL
 62
13
 10
1009.032
 20
-2933.152
 30
3827.000
 70
    32
  0
VERTEX
  8
1400LEVEL
 62
13
 10
939.317
 20
-2831.643
 30
3827.000
 70
    32
  0
VERTEX
  8
1400LEVEL
 62
13
 10
874.937
 20
-2716.402
 30
3827.000
 70
    32
  0
VERTEX
  8
1400LEVEL
 62
13
 10
843.580
 20
-2677.839
 30
3827.000
 70
    32
  0
VERTEX
  8
1400LEVEL
 62
13
 10
825.525
 20
-2725.252
 30
3827.000
 70
    32
  0
VERTEX
  8
1400LEVEL
 62
13
 10
769.980
 20
-2639.997
 30
3827.000
 70
    32
  0
VERTEX
  8
1400LEVEL
 62
13
 10
676.088
 20
-2514.248
 30
3827.000
 70
    32
  0
VERTEX
  8
1400LEVEL
 62
13
 10
600.297
 20
-2399.360
 30
3827.000
 70
    32
  0
VERTEX
  8
1400LEVEL
 62
13
 10
524.158
 20
-2270.035
 30
3827.000
 70
    32
  0
VERTEX
  8
1400LEVEL
 62
13
 10
455.904
 20
-2146.323
 30
3827.000
 70
    32
  0
SEQEND
  8
1400LEVEL
  0
POLYLINE
  8
1400LEVEL
 62
7
 66
     1
 70
     8
  0
VERTEX
  8
1400LEVEL
 62
7
 10
1523.383
 20
-3597.502
 30
3827.000
 70
    32
  0
VERTEX
  8
1400LEVEL
 62
7
 10
1508.098
 20
-3594.365
 30
3827.000
 70
    32
  0
VERTEX
  8
1400LEVEL
 62
7
 10
1390.935
 20
-3407.449
 30
3827.000
 70
    32
  0
VERTEX
  8
1400LEVEL
 62
7
 10
1311.153
 20
-3311.816
 30
3827.000
 70
    32
  0
VERTEX
  8
1400LEVEL
 62
7
 10
1309.453
 20
-3424.027
 30
3827.000
 70
    32
  0
VERTEX
  8
1400LEVEL
 62
7
 10
1206.612
 20
-3292.991
 30
3827.000
 70
    32
  0
VERTEX
  8
1400LEVEL
 62
7
 10
1114.050
 20
-3150.313
 30
3827.000
 70
    32
  0
VERTEX
  8
1400LEVEL
 62
7
 10
1019.499
 20
-2996.960
 30
3827.000
 70
    32
  0
VERTEX
  8
1400LEVEL
 62
7
 10
902.642
 20
-2826.238
 30
3827.000
 70
    32
  0
VERTEX
  8
1400LEVEL
 62
7
 10
850.660
 20
-2767.815
 30
3827.000
 70
    32
  0
VERTEX
  8
1400LEVEL
 62
7
 10
855.927
 20
-2837.055
 30
3827.000
 70
    32
  0
VERTEX
  8
1400LEVEL
 62
7
 10
738.949
 20
-2665.557
 30
3827.000
 70
    32
  0
VERTEX
  8
1400LEVEL
 62
7
 10
629.663
 20
-2490.306
 30
3827.000
 70
    32
  0
VERTEX
  8
1400LEVEL
 62
7
 10
516.739
 20
-2314.191
 30
3827.000
 70
    32
  0
VERTEX
  8
1400LEVEL
 62
7
 10
414.852
 20
-2141.444
 30
3827.000
 70
    32
  0
SEQEND
  8
1400LEVEL
  0
POLYLINE
  8
1400LEVEL
 62
7
 66
     1
 70
     8
  0
VERTEX
  8
1400LEVEL
 62
7
 10
-1055.314
 20
-2410.883
 30
3827.000
 70
    32
  0
VERTEX
  8
1400LEVEL
 62
7
 10
-1077.555
 20
-2366.351
 30
3827.000
 70
    32
  0
VERTEX
  8
1400LEVEL
 62
7
 10
-1110.916
 20
-2321.818
 30
3827.000
 70
    32
  0
VERTEX
  8
1400LEVEL
 62
7
 10
-1183.197
 20
-2255.019
 30
3827.000
 70
    32
  0
VERTEX
  8
1400LEVEL
 62
7
 10
-1222.118
 20
-2210.487
 30
3827.000
 70
    32
  0
VERTEX
  8
1400LEVEL
 62
7
 10
-1255.478
 20
-2149.254
 30
3827.000
 70
    32
  0
VERTEX
  8
1400LEVEL
 62
7
 10
-1299.959
 20
-2054.623
 30
3827.000
 70
    32
  0
VERTEX
  8
1400LEVEL
 62
7
 10
-1366.680
 20
-1965.558
 30
3827.000
 70
    32
  0
VERTEX
  8
1400LEVEL
 62
7
 10
-1427.842
 20
-1898.759
 30
3827.000
 70
    32
  0
VERTEX
  8
1400LEVEL
 62
7
 10
-1533.484
 20
-1776.294
 30
3827.000
 70
    32
  0
VERTEX
  8
1400LEVEL
 62
7
 10
-1611.325
 20
-1698.362
 30
3827.000
 70
    32
  0
VERTEX
  8
1400LEVEL
 62
7
 10
-1633.566
 20
-1625.997
 30
3827.000
 70
    32
  0
VERTEX
  8
1400LEVEL
 62
7
 10
-1644.686
 20
-1575.898
 30
3827.000
 70
    32
  0
VERTEX
  8
1400LEVEL
 62
7
 10
-1672.487
 20
-1514.665
 30
3827.000
 70
    32
  0
VERTEX
  8
1400LEVEL
 62
7
 10
-1689.167
 20
-1436.734
 30
3827.000
 70
    32
  0
VERTEX
  8
1400LEVEL
 62
7
 10
-1739.208
 20
-1347.668
 30
3827.000
 70
    32
  0
VERTEX
  8
1400LEVEL
 62
7
 10
-1772.568
 20
-1297.570
 30
3827.000
 70
    32
  0
VERTEX
  8
1400LEVEL
 62
7
 10
-1794.809
 20
-1241.904
 30
3827.000
 70
    32
  0
VERTEX
  8
1400LEVEL
 62
7
 10
-1800.369
 20
-1191.805
 30
3827.000
 70
    32
  0
VERTEX
  8
1400LEVEL
 62
7
 10
-1805.929
 20
-1141.705
 30
3827.000
 70
    32
  0
VERTEX
  8
1400LEVEL
 62
7
 10
-1805.929
 20
-1108.306
 30
3827.000
 70
    32
  0
VERTEX
  8
1400LEVEL
 62
7
 10
-1822.609
 20
-1119.439
 30
3827.000
 70
    32
  0
VERTEX
  8
1400LEVEL
 62
7
 10
-1839.290
 20
-1158.405
 30
3827.000
 70
    32
  0
VERTEX
  8
1400LEVEL
 62
7
 10
-1855.970
 20
-1186.238
 30
3827.000
 70
    32
  0
VERTEX
  8
1400LEVEL
 62
7
 10
-1894.891
 20
-1219.637
 30
3827.000
 70
    32
  0
VERTEX
  8
1400LEVEL
 62
7
 10
-1967.172
 20
-1163.972
 30
3827.000
 70
    32
  0
VERTEX
  8
1400LEVEL
 62
7
 10
-1983.852
 20
-1113.873
 30
3827.000
 70
    32
  0
VERTEX
  8
1400LEVEL
 62
7
 10
-1994.973
 20
-1052.640
 30
3827.000
 70
    32
  0
VERTEX
  8
1400LEVEL
 62
7
 10
-2006.093
 20
-985.841
 30
3827.000
 70
    32
  0
VERTEX
  8
1400LEVEL
 62
7
 10
-2022.773
 20
-919.043
 30
3827.000
 70
    32
  0
VERTEX
  8
1400LEVEL
 62
7
 10
-2056.134
 20
-874.510
 30
3827.000
 70
    32
  0
VERTEX
  8
1400LEVEL
 62
7
 10
-2106.175
 20
-824.411
 30
3827.000
 70
    32
  0
VERTEX
  8
1400LEVEL
 62
7
 10
-2167.336
 20
-802.145
 30
3827.000
 70
    32
  0
VERTEX
  8
1400LEVEL
 62
7
 10
-2234.058
 20
-763.179
 30
3827.000
 70
    32
  0
VERTEX
  8
1400LEVEL
 62
7
 10
-2250.738
 20
-752.046
 30
3827.000
 70
    32
  0
VERTEX
  8
1400LEVEL
 62
7
 10
-2306.339
 20
-707.513
 30
3827.000
 70
    32
  0
VERTEX
  8
1400LEVEL
 62
7
 10
-2339.700
 20
-696.380
 30
3827.000
 70
    32
  0
VERTEX
  8
1400LEVEL
 62
7
 10
-2367.500
 20
-729.779
 30
3827.000
 70
    32
  0
VERTEX
  8
1400LEVEL
 62
7
 10
-2350.820
 20
-779.878
 30
3827.000
 70
    32
  0
VERTEX
  8
1400LEVEL
 62
7
 10
-2323.019
 20
-841.111
 30
3827.000
 70
    32
  0
VERTEX
  8
1400LEVEL
 62
7
 10
-2278.538
 20
-946.875
 30
3827.000
 70
    32
  0
VERTEX
  8
1400LEVEL
 62
7
 10
-2222.937
 20
-1019.241
 30
3827.000
 70
    32
  0
VERTEX
  8
1400LEVEL
 62
7
 10
-2189.577
 20
-1102.740
 30
3827.000
 70
    32
  0
VERTEX
  8
1400LEVEL
 62
7
 10
-2117.295
 20
-1202.938
 30
3827.000
 70
    32
  0
VERTEX
  8
1400LEVEL
 62
7
 10
-2089.495
 20
-1280.870
 30
3827.000
 70
    32
  0
VERTEX
  8
1400LEVEL
 62
7
 10
-2039.454
 20
-1369.935
 30
3827.000
 70
    32
  0
VERTEX
  8
1400LEVEL
 62
7
 10
-2011.653
 20
-1431.167
 30
3827.000
 70
    32
  0
VERTEX
  8
1400LEVEL
 62
7
 10
-1983.852
 20
-1481.266
 30
3827.000
 70
    32
  0
VERTEX
  8
1400LEVEL
 62
7
 10
-1944.932
 20
-1531.365
 30
3827.000
 70
    32
  0
VERTEX
  8
1400LEVEL
 62
7
 10
-1917.131
 20
-1575.898
 30
3827.000
 70
    32
  0
VERTEX
  8
1400LEVEL
 62
7
 10
-1828.170
 20
-1720.629
 30
3827.000
 70
    32
  0
VERTEX
  8
1400LEVEL
 62
7
 10
-1789.249
 20
-1882.059
 30
3827.000
 70
    32
  0
VERTEX
  8
1400LEVEL
 62
7
 10
-1744.768
 20
-2004.524
 30
3827.000
 70
    32
  0
VERTEX
  8
1400LEVEL
 62
7
 10
-1661.366
 20
-2138.121
 30
3827.000
 70
    32
  0
VERTEX
  8
1400LEVEL
 62
7
 10
-1616.886
 20
-2260.586
 30
3827.000
 70
    32
  0
VERTEX
  8
1400LEVEL
 62
7
 10
-1561.284
 20
-2349.651
 30
3827.000
 70
    32
  0
VERTEX
  8
1400LEVEL
 62
7
 10
-1483.443
 20
-2455.416
 30
3827.000
 70
    32
  0
VERTEX
  8
1400LEVEL
 62
7
 10
-1500.123
 20
-2505.515
 30
3827.000
 70
    32
  0
VERTEX
  8
1400LEVEL
 62
7
 10
-1522.364
 20
-2494.382
 30
3827.000
 70
    32
  0
VERTEX
  8
1400LEVEL
 62
7
 10
-1561.284
 20
-2444.283
 30
3827.000
 70
    32
  0
VERTEX
  8
1400LEVEL
 62
7
 10
-1628.006
 20
-2388.617
 30
3827.000
 70
    32
  0
VERTEX
  8
1400LEVEL
 62
7
 10
-1678.047
 20
-2321.818
 30
3827.000
 70
    32
  0
VERTEX
  8
1400LEVEL
 62
7
 10
-1767.008
 20
-2177.087
 30
3827.000
 70
    32
  0
VERTEX
  8
1400LEVEL
 62
7
 10
-1817.049
 20
-2082.456
 30
3827.000
 70
    32
  0
VERTEX
  8
1400LEVEL
 62
7
 10
-1922.691
 20
-1926.592
 30
3827.000
 70
    32
  0
VERTEX
  8
1400LEVEL
 62
7
 10
-2056.134
 20
-1670.529
 30
3827.000
 70
    32
  0
VERTEX
  8
1400LEVEL
 62
7
 10
-2122.856
 20
-1525.799
 30
3827.000
 70
    32
  0
VERTEX
  8
1400LEVEL
 62
7
 10
-2145.096
 20
-1464.567
 30
3827.000
 70
    32
  0
VERTEX
  8
1400LEVEL
 62
7
 10
-2211.817
 20
-1392.201
 30
3827.000
 70
    32
  0
VERTEX
  8
1400LEVEL
 62
7
 10
-2256.298
 20
-1314.269
 30
3827.000
 70
    32
  0
VERTEX
  8
1400LEVEL
 62
7
 10
-2339.700
 20
-1202.938
 30
3827.000
 70
    32
  0
VERTEX
  8
1400LEVEL
 62
7
 10
-2395.301
 20
-1102.740
 30
3827.000
 70
    32
  0
VERTEX
  8
1400LEVEL
 62
7
 10
-2450.902
 20
-1052.640
 30
3827.000
 70
    32
  0
VERTEX
  8
1400LEVEL
 62
7
 10
-2517.623
 20
-1024.808
 30
3827.000
 70
    32
  0
VERTEX
  8
1400LEVEL
 62
7
 10
-2567.664
 20
-991.408
 30
3827.000
 70
    32
  0
VERTEX
  8
1400LEVEL
 62
7
 10
-2634.385
 20
-958.009
 30
3827.000
 70
    32
  0
VERTEX
  8
1400LEVEL
 62
7
 10
-2678.866
 20
-907.910
 30
3827.000
 70
    32
  0
VERTEX
  8
1400LEVEL
 62
7
 10
-2723.347
 20
-880.077
 30
3827.000
 70
    32
  0
VERTEX
  8
1400LEVEL
 62
7
 10
-2767.828
 20
-880.077
 30
3827.000
 70
    32
  0
VERTEX
  8
1400LEVEL
 62
7
 10
-2728.907
 20
-980.275
 30
3827.000
 70
    32
  0
VERTEX
  8
1400LEVEL
 62
7
 10
-2634.385
 20
-1147.272
 30
3827.000
 70
    32
  0
VERTEX
  8
1400LEVEL
 62
7
 10
-2523.183
 20
-1319.836
 30
3827.000
 70
    32
  0
VERTEX
  8
1400LEVEL
 62
7
 10
-2411.981
 20
-1497.966
 30
3827.000
 70
    32
  0
VERTEX
  8
1400LEVEL
 62
7
 10
-2334.140
 20
-1659.397
 30
3827.000
 70
    32
  0
VERTEX
  8
1400LEVEL
 62
7
 10
-2250.738
 20
-1798.561
 30
3827.000
 70
    32
  0
VERTEX
  8
1400LEVEL
 62
7
 10
-2211.817
 20
-1893.192
 30
3827.000
 70
    32
  0
VERTEX
  8
1400LEVEL
 62
7
 10
-2167.336
 20
-2049.056
 30
3827.000
 70
    32
  0
VERTEX
  8
1400LEVEL
 62
7
 10
-2111.735
 20
-2227.186
 30
3827.000
 70
    32
  0
VERTEX
  8
1400LEVEL
 62
7
 10
-2045.014
 20
-2405.316
 30
3827.000
 70
    32
  0
VERTEX
  8
1400LEVEL
 62
7
 10
-1967.172
 20
-2566.747
 30
3827.000
 70
    32
  0
VERTEX
  8
1400LEVEL
 62
7
 10
-1867.090
 20
-2644.679
 30
3827.000
 70
    32
  0
VERTEX
  8
1400LEVEL
 62
7
 10
-1755.888
 20
-2800.543
 30
3827.000
 70
    32
  0
SEQEND
  8
1400LEVEL
  0
POLYLINE
  8
1400LEVEL
 62
7
 66
     1
 70
     8
  0
VERTEX
  8
1400LEVEL
 62
7
 10
-921.872
 20
-2332.951
 30
3827.000
 70
    32
  0
VERTEX
  8
1400LEVEL
 62
7
 10
-1027.514
 20
-2221.620
 30
3827.000
 70
    32
  0
VERTEX
  8
1400LEVEL
 62
7
 10
-1049.754
 20
-2182.654
 30
3827.000
 70
    32
  0
VERTEX
  8
1400LEVEL
 62
7
 10
-1083.115
 20
-2121.422
 30
3827.000
 70
    32
  0
VERTEX
  8
1400LEVEL
 62
7
 10
-1155.396
 20
-2032.357
 30
3827.000
 70
    32
  0
VERTEX
  8
1400LEVEL
 62
7
 10
-1199.877
 20
-1954.424
 30
3827.000
 70
    32
  0
VERTEX
  8
1400LEVEL
 62
7
 10
-1255.478
 20
-1859.793
 30
3827.000
 70
    32
  0
VERTEX
  8
1400LEVEL
 62
7
 10
-1305.519
 20
-1748.462
 30
3827.000
 70
    32
  0
VERTEX
  8
1400LEVEL
 62
7
 10
-1366.680
 20
-1664.963
 30
3827.000
 70
    32
  0
VERTEX
  8
1400LEVEL
 62
7
 10
-1411.162
 20
-1581.464
 30
3827.000
 70
    32
  0
VERTEX
  8
1400LEVEL
 62
7
 10
-1489.003
 20
-1492.399
 30
3827.000
 70
    32
  0
VERTEX
  8
1400LEVEL
 62
7
 10
-1550.164
 20
-1431.167
 30
3827.000
 70
    32
  0
VERTEX
  8
1400LEVEL
 62
7
 10
-1589.085
 20
-1369.935
 30
3827.000
 70
    32
  0
VERTEX
  8
1400LEVEL
 62
7
 10
-1616.886
 20
-1308.702
 30
3827.000
 70
    32
  0
VERTEX
  8
1400LEVEL
 62
7
 10
-1633.566
 20
-1230.770
 30
3827.000
 70
    32
  0
VERTEX
  8
1400LEVEL
 62
7
 10
-1666.926
 20
-1158.405
 30
3827.000
 70
    32
  0
VERTEX
  8
1400LEVEL
 62
7
 10
-1678.047
 20
-1063.773
 30
3827.000
 70
    32
  0
VERTEX
  8
1400LEVEL
 62
7
 10
-1700.287
 20
-985.841
 30
3827.000
 70
    32
  0
VERTEX
  8
1400LEVEL
 62
7
 10
-1767.008
 20
-874.510
 30
3827.000
 70
    32
  0
VERTEX
  8
1400LEVEL
 62
7
 10
-1789.249
 20
-785.445
 30
3827.000
 70
    32
  0
VERTEX
  8
1400LEVEL
 62
7
 10
-1811.489
 20
-701.946
 30
3827.000
 70
    32
  0
VERTEX
  8
1400LEVEL
 62
7
 10
-1839.290
 20
-662.980
 30
3827.000
 70
    32
  0
VERTEX
  8
1400LEVEL
 62
7
 10
-1906.011
 20
-618.448
 30
3827.000
 70
    32
  0
VERTEX
  8
1400LEVEL
 62
7
 10
-1928.251
 20
-579.482
 30
3827.000
 70
    32
  0
VERTEX
  8
1400LEVEL
 62
7
 10
-1911.571
 20
-557.216
 30
3827.000
 70
    32
  0
VERTEX
  8
1400LEVEL
 62
7
 10
-1889.331
 20
-523.816
 30
3827.000
 70
    32
  0
VERTEX
  8
1400LEVEL
 62
7
 10
-1861.530
 20
-479.283
 30
3827.000
 70
    32
  0
VERTEX
  8
1400LEVEL
 62
7
 10
-1855.970
 20
-429.185
 30
3827.000
 70
    32
  0
VERTEX
  8
1400LEVEL
 62
7
 10
-1900.451
 20
-328.986
 30
3827.000
 70
    32
  0
VERTEX
  8
1400LEVEL
 62
7
 10
-1917.131
 20
-295.587
 30
3827.000
 70
    32
  0
VERTEX
  8
1400LEVEL
 62
7
 10
-1967.172
 20
-184.256
 30
3827.000
 70
    32
  0
VERTEX
  8
1400LEVEL
 62
7
 10
-2033.893
 20
-111.890
 30
3827.000
 70
    32
  0
VERTEX
  8
1400LEVEL
 62
7
 10
-2078.375
 20
-39.525
 30
3827.000
 70
    32
  0
VERTEX
  8
1400LEVEL
 62
7
 10
-2111.735
 20
10.574
 30
3827.000
 70
    32
  0
VERTEX
  8
1400LEVEL
 62
7
 10
-2139.536
 20
55.107
 30
3827.000
 70
    32
  0
VERTEX
  8
1400LEVEL
 62
7
 10
-2206.257
 20
144.172
 30
3827.000
 70
    32
  0
VERTEX
  8
1400LEVEL
 62
7
 10
-2256.298
 20
177.571
 30
3827.000
 70
    32
  0
VERTEX
  8
1400LEVEL
 62
7
 10
-2278.538
 20
227.671
 30
3827.000
 70
    32
  0
VERTEX
  8
1400LEVEL
 62
7
 10
-2323.019
 20
294.469
 30
3827.000
 70
    32
  0
VERTEX
  8
1400LEVEL
 62
7
 10
-2339.700
 20
327.869
 30
3827.000
 70
    32
  0
VERTEX
  8
1400LEVEL
 62
7
 10
-2373.060
 20
444.767
 30
3827.000
 70
    32
  0
VERTEX
  8
1400LEVEL
 62
7
 10
-2434.221
 20
544.965
 30
3827.000
 70
    32
  0
VERTEX
  8
1400LEVEL
 62
7
 10
-2462.022
 20
589.498
 30
3827.000
 70
    32
  0
VERTEX
  8
1400LEVEL
 62
7
 10
-2478.702
 20
617.331
 30
3827.000
 70
    32
  0
VERTEX
  8
1400LEVEL
 62
7
 10
-2534.303
 20
717.529
 30
3827.000
 70
    32
  0
VERTEX
  8
1400LEVEL
 62
7
 10
-2589.904
 20
767.628
 30
3827.000
 70
    32
  0
VERTEX
  8
1400LEVEL
 62
7
 10
-2651.066
 20
806.594
 30
3827.000
 70
    32
  0
VERTEX
  8
1400LEVEL
 62
7
 10
-2717.787
 20
878.959
 30
3827.000
 70
    32
  0
VERTEX
  8
1400LEVEL
 62
7
 10
-2778.948
 20
990.290
 30
3827.000
 70
    32
  0
VERTEX
  8
1400LEVEL
 62
7
 10
-2767.828
 20
1001.424
 30
3827.000
 70
    32
  0
VERTEX
  8
1400LEVEL
 62
7
 10
-2701.106
 20
979.158
 30
3827.000
 70
    32
  0
VERTEX
  8
1400LEVEL
 62
7
 10
-2645.505
 20
912.359
 30
3827.000
 70
    32
  0
VERTEX
  8
1400LEVEL
 62
7
 10
-2589.904
 20
890.093
 30
3827.000
 70
    32
  0
VERTEX
  8
1400LEVEL
 62
7
 10
-2523.183
 20
812.160
 30
3827.000
 70
    32
  0
VERTEX
  8
1400LEVEL
 62
7
 10
-2478.702
 20
723.095
 30
3827.000
 70
    32
  0
VERTEX
  8
1400LEVEL
 62
7
 10
-2434.221
 20
650.730
 30
3827.000
 70
    32
  0
VERTEX
  8
1400LEVEL
 62
7
 10
-2378.620
 20
583.931
 30
3827.000
 70
    32
  0
VERTEX
  8
1400LEVEL
 62
7
 10
-2311.899
 20
500.433
 30
3827.000
 70
    32
  0
VERTEX
  8
1400LEVEL
 62
7
 10
-2267.418
 20
439.200
 30
3827.000
 70
    32
  0
VERTEX
  8
1400LEVEL
 62
7
 10
-2250.738
 20
405.801
 30
3827.000
 70
    32
  0
VERTEX
  8
1400LEVEL
 62
7
 10
-2234.058
 20
339.002
 30
3827.000
 70
    32
  0
VERTEX
  8
1400LEVEL
 62
7
 10
-2211.817
 20
283.336
 30
3827.000
 70
    32
  0
VERTEX
  8
1400LEVEL
 62
7
 10
-2184.017
 20
244.370
 30
3827.000
 70
    32
  0
VERTEX
  8
1400LEVEL
 62
7
 10
-2145.096
 20
222.104
 30
3827.000
 70
    32
  0
VERTEX
  8
1400LEVEL
 62
7
 10
-2099.567
 20
178.613
 30
3827.000
 70
    32
  0
VERTEX
  8
1400LEVEL
 62
7
 10
-2066.811
 20
145.830
 30
3827.000
 70
    32
  0
VERTEX
  8
1400LEVEL
 62
7
 10
-2025.319
 20
108.677
 30
3827.000
 70
    32
  0
VERTEX
  8
1400LEVEL
 62
7
 10
-1986.012
 20
32.184
 30
3827.000
 70
    32
  0
VERTEX
  8
1400LEVEL
 62
7
 10
-1964.174
 20
-20.269
 30
3827.000
 70
    32
  0
VERTEX
  8
1400LEVEL
 62
7
 10
-1940.153
 20
-50.866
 30
3827.000
 70
    32
  0
VERTEX
  8
1400LEVEL
 62
7
 10
-1909.580
 20
-72.721
 30
3827.000
 70
    32
  0
VERTEX
  8
1400LEVEL
 62
7
 10
-1896.478
 20
-72.721
 30
3827.000
 70
    32
  0
VERTEX
  8
1400LEVEL
 62
7
 10
-1900.845
 20
-50.866
 30
3827.000
 70
    32
  0
VERTEX
  8
1400LEVEL
 62
7
 10
-1911.764
 20
-20.269
 30
3827.000
 70
    32
  0
VERTEX
  8
1400LEVEL
 62
7
 10
-1933.602
 20
25.627
 30
3827.000
 70
    32
  0
VERTEX
  8
1400LEVEL
 62
7
 10
-1946.704
 20
67.152
 30
3827.000
 70
    32
  0
VERTEX
  8
1400LEVEL
 62
7
 10
-1964.174
 20
106.491
 30
3827.000
 70
    32
  0
VERTEX
  8
1400LEVEL
 62
7
 10
-1986.012
 20
145.830
 30
3827.000
 70
    32
  0
VERTEX
  8
1400LEVEL
 62
7
 10
-2003.482
 20
165.500
 30
3827.000
 70
    32
  0
VERTEX
  8
1400LEVEL
 62
7
 10
-2031.870
 20
180.798
 30
3827.000
 70
    32
  0
VERTEX
  8
1400LEVEL
 62
7
 10
-2047.157
 20
193.912
 30
3827.000
 70
    32
  0
VERTEX
  8
1400LEVEL
 62
7
 10
-2088.648
 20
237.622
 30
3827.000
 70
    32
  0
VERTEX
  8
1400LEVEL
 62
7
 10
-2110.486
 20
259.477
 30
3827.000
 70
    32
  0
VERTEX
  8
1400LEVEL
 62
7
 10
-2149.793
 20
294.445
 30
3827.000
 70
    32
  0
VERTEX
  8
1400LEVEL
 62
7
 10
-2167.336
 20
327.869
 30
3827.000
 70
    32
  0
VERTEX
  8
1400LEVEL
 62
7
 10
-2172.896
 20
389.101
 30
3827.000
 70
    32
  0
VERTEX
  8
1400LEVEL
 62
7
 10
-2195.137
 20
439.200
 30
3827.000
 70
    32
  0
VERTEX
  8
1400LEVEL
 62
7
 10
-2200.697
 20
489.299
 30
3827.000
 70
    32
  0
VERTEX
  8
1400LEVEL
 62
7
 10
-2195.137
 20
511.566
 30
3827.000
 70
    32
  0
VERTEX
  8
1400LEVEL
 62
7
 10
-2145.096
 20
455.900
 30
3827.000
 70
    32
  0
VERTEX
  8
1400LEVEL
 62
7
 10
-2078.375
 20
428.067
 30
3827.000
 70
    32
  0
VERTEX
  8
1400LEVEL
 62
7
 10
-2039.454
 20
383.535
 30
3827.000
 70
    32
  0
VERTEX
  8
1400LEVEL
 62
7
 10
-2011.653
 20
372.401
 30
3827.000
 70
    32
  0
VERTEX
  8
1400LEVEL
 62
7
 10
-1990.379
 20
325.043
 30
3827.000
 70
    32
  0
VERTEX
  8
1400LEVEL
 62
7
 10
-1970.725
 20
226.694
 30
3827.000
 70
    32
  0
VERTEX
  8
1400LEVEL
 62
7
 10
-1942.337
 20
209.210
 30
3827.000
 70
    32
  0
VERTEX
  8
1400LEVEL
 62
7
 10
-1886.898
 20
188.357
 30
3827.000
 70
    32
  0
VERTEX
  8
1400LEVEL
 62
7
 10
-1797.936
 20
88.158
 30
3827.000
 70
    32
  0
VERTEX
  8
1400LEVEL
 62
7
 10
-1747.895
 20
26.926
 30
3827.000
 70
    32
  0
VERTEX
  8
1400LEVEL
 62
7
 10
-1703.415
 20
4.660
 30
3827.000
 70
    32
  0
VERTEX
  8
1400LEVEL
 62
7
 10
-1675.614
 20
-9.257
 30
3827.000
 70
    32
  0
VERTEX
  8
1400LEVEL
 62
7
 10
-1625.573
 20
-45.439
 30
3827.000
 70
    32
  0
VERTEX
  8
1400LEVEL
 62
7
 10
-1575.532
 20
-95.539
 30
3827.000
 70
    32
  0
VERTEX
  8
1400LEVEL
 62
7
 10
-1542.172
 20
-131.721
 30
3827.000
 70
    32
  0
VERTEX
  8
1400LEVEL
 62
7
 10
-1531.051
 20
-162.337
 30
3827.000
 70
    32
  0
VERTEX
  8
1400LEVEL
 62
7
 10
-1511.591
 20
-206.870
 30
3827.000
 70
    32
  0
VERTEX
  8
1400LEVEL
 62
7
 10
-1503.251
 20
-234.703
 30
3827.000
 70
    32
  0
VERTEX
  8
1400LEVEL
 62
7
 10
-1506.031
 20
-268.102
 30
3827.000
 70
    32
  0
VERTEX
  8
1400LEVEL
 62
7
 10
-1519.931
 20
-273.669
 30
3827.000
 70
    32
  0
VERTEX
  8
1400LEVEL
 62
7
 10
-1542.172
 20
-251.402
 30
3827.000
 70
    32
  0
VERTEX
  8
1400LEVEL
 62
7
 10
-1564.412
 20
-234.703
 30
3827.000
 70
    32
  0
VERTEX
  8
1400LEVEL
 62
7
 10
-1575.532
 20
-245.836
 30
3827.000
 70
    32
  0
VERTEX
  8
1400LEVEL
 62
7
 10
-1572.752
 20
-265.319
 30
3827.000
 70
    32
  0
VERTEX
  8
1400LEVEL
 62
7
 10
-1514.371
 20
-332.118
 30
3827.000
 70
    32
  0
VERTEX
  8
1400LEVEL
 62
7
 10
-1469.890
 20
-418.399
 30
3827.000
 70
    32
  0
VERTEX
  8
1400LEVEL
 62
7
 10
-1386.489
 20
-560.347
 30
3827.000
 70
    32
  0
VERTEX
  8
1400LEVEL
 62
7
 10
-1375.368
 20
-582.613
 30
3827.000
 70
    32
  0
VERTEX
  8
1400LEVEL
 62
7
 10
-1319.767
 20
-629.929
 30
3827.000
 70
    32
  0
VERTEX
  8
1400LEVEL
 62
7
 10
-1269.726
 20
-688.378
 30
3827.000
 70
    32
  0
VERTEX
  8
1400LEVEL
 62
7
 10
-1236.365
 20
-707.861
 30
3827.000
 70
    32
  0
VERTEX
  8
1400LEVEL
 62
7
 10
-1197.445
 20
-752.394
 30
3827.000
 70
    32
  0
VERTEX
  8
1400LEVEL
 62
7
 10
-1172.424
 20
-783.010
 30
3827.000
 70
    32
  0
VERTEX
  8
1400LEVEL
 62
7
 10
-1141.844
 20
-808.059
 30
3827.000
 70
    32
  0
VERTEX
  8
1400LEVEL
 62
7
 10
-1130.723
 20
-813.626
 30
3827.000
 70
    32
  0
VERTEX
  8
1400LEVEL
 62
7
 10
-1119.603
 20
-805.276
 30
3827.000
 70
    32
  0
VERTEX
  8
1400LEVEL
 62
7
 10
-1119.603
 20
-788.576
 30
3827.000
 70
    32
  0
VERTEX
  8
1400LEVEL
 62
7
 10
-1136.283
 20
-755.177
 30
3827.000
 70
    32
  0
VERTEX
  8
1400LEVEL
 62
7
 10
-1141.844
 20
-718.994
 30
3827.000
 70
    32
  0
VERTEX
  8
1400LEVEL
 62
7
 10
-1130.723
 20
-688.378
 30
3827.000
 70
    32
  0
VERTEX
  8
1400LEVEL
 62
7
 10
-1116.823
 20
-685.595
 30
3827.000
 70
    32
  0
VERTEX
  8
1400LEVEL
 62
7
 10
-1097.363
 20
-724.561
 30
3827.000
 70
    32
  0
VERTEX
  8
1400LEVEL
 62
7
 10
-1069.562
 20
-771.877
 30
3827.000
 70
    32
  0
VERTEX
  8
1400LEVEL
 62
7
 10
-1022.301
 20
-777.443
 30
3827.000
 70
    32
  0
VERTEX
  8
1400LEVEL
 62
7
 10
-988.941
 20
-810.843
 30
3827.000
 70
    32
  0
VERTEX
  8
1400LEVEL
 62
7
 10
-977.821
 20
-841.459
 30
3827.000
 70
    32
  0
VERTEX
  8
1400LEVEL
 62
7
 10
-975.040
 20
-885.991
 30
3827.000
 70
    32
  0
VERTEX
  8
1400LEVEL
 62
7
 10
-1005.621
 20
-888.775
 30
3827.000
 70
    32
  0
VERTEX
  8
1400LEVEL
 62
7
 10
-1030.641
 20
-888.775
 30
3827.000
 70
    32
  0
VERTEX
  8
1400LEVEL
 62
7
 10
-1052.882
 20
-899.908
 30
3827.000
 70
    32
  0
VERTEX
  8
1400LEVEL
 62
7
 10
-1030.641
 20
-936.091
 30
3827.000
 70
    32
  0
VERTEX
  8
1400LEVEL
 62
7
 10
-991.721
 20
-961.140
 30
3827.000
 70
    32
  0
VERTEX
  8
1400LEVEL
 62
7
 10
-972.261
 20
-1005.673
 30
3827.000
 70
    32
  0
VERTEX
  8
1400LEVEL
 62
7
 10
-919.439
 20
-1069.688
 30
3827.000
 70
    32
  0
VERTEX
  8
1400LEVEL
 62
7
 10
-880.519
 20
-1125.354
 30
3827.000
 70
    32
  0
VERTEX
  8
1400LEVEL
 62
7
 10
-858.278
 20
-1150.403
 30
3827.000
 70
    32
  0
VERTEX
  8
1400LEVEL
 62
7
 10
-819.357
 20
-1194.936
 30
3827.000
 70
    32
  0
VERTEX
  8
1400LEVEL
 62
7
 10
-791.557
 20
-1233.902
 30
3827.000
 70
    32
  0
VERTEX
  8
1400LEVEL
 62
7
 10
-758.196
 20
-1267.301
 30
3827.000
 70
    32
  0
VERTEX
  8
1400LEVEL
 62
7
 10
-691.475
 20
-1336.883
 30
3827.000
 70
    32
  0
VERTEX
  8
1400LEVEL
 62
7
 10
-644.214
 20
-1386.983
 30
3827.000
 70
    32
  0
VERTEX
  8
1400LEVEL
 62
7
 10
-602.513
 20
-1406.466
 30
3827.000
 70
    32
  0
VERTEX
  8
1400LEVEL
 62
7
 10
-574.712
 20
-1425.948
 30
3827.000
 70
    32
  0
VERTEX
  8
1400LEVEL
 62
7
 10
-569.152
 20
-1398.116
 30
3827.000
 70
    32
  0
VERTEX
  8
1400LEVEL
 62
7
 10
-574.712
 20
-1359.150
 30
3827.000
 70
    32
  0
VERTEX
  8
1400LEVEL
 62
7
 10
-608.073
 20
-1309.051
 30
3827.000
 70
    32
  0
VERTEX
  8
1400LEVEL
 62
7
 10
-677.575
 20
-1270.085
 30
3827.000
 70
    32
  0
VERTEX
  8
1400LEVEL
 62
7
 10
-719.276
 20
-1214.419
 30
3827.000
 70
    32
  0
VERTEX
  8
1400LEVEL
 62
7
 10
-744.296
 20
-1169.886
 30
3827.000
 70
    32
  0
VERTEX
  8
1400LEVEL
 62
7
 10
-788.777
 20
-1136.487
 30
3827.000
 70
    32
  0
VERTEX
  8
1400LEVEL
 62
7
 10
-808.237
 20
-1103.088
 30
3827.000
 70
    32
  0
VERTEX
  8
1400LEVEL
 62
7
 10
-830.478
 20
-1064.121
 30
3827.000
 70
    32
  0
VERTEX
  8
1400LEVEL
 62
7
 10
-836.038
 20
-1036.289
 30
3827.000
 70
    32
  0
VERTEX
  8
1400LEVEL
 62
7
 10
-833.258
 20
-1019.589
 30
3827.000
 70
    32
  0
VERTEX
  8
1400LEVEL
 62
7
 10
-813.797
 20
-1027.939
 30
3827.000
 70
    32
  0
VERTEX
  8
1400LEVEL
 62
7
 10
-797.117
 20
-1061.338
 30
3827.000
 70
    32
  0
VERTEX
  8
1400LEVEL
 62
7
 10
-774.877
 20
-1091.954
 30
3827.000
 70
    32
  0
VERTEX
  8
1400LEVEL
 62
7
 10
-752.636
 20
-1114.221
 30
3827.000
 70
    32
  0
VERTEX
  8
1400LEVEL
 62
7
 10
-741.516
 20
-1133.704
 30
3827.000
 70
    32
  0
VERTEX
  8
1400LEVEL
 62
7
 10
-730.396
 20
-1167.103
 30
3827.000
 70
    32
  0
VERTEX
  8
1400LEVEL
 62
7
 10
-710.935
 20
-1203.286
 30
3827.000
 70
    32
  0
VERTEX
  8
1400LEVEL
 62
7
 10
-652.554
 20
-1236.685
 30
3827.000
 70
    32
  0
VERTEX
  8
1400LEVEL
 62
7
 10
-630.314
 20
-1250.601
 30
3827.000
 70
    32
  0
VERTEX
  8
1400LEVEL
 62
7
 10
-613.634
 20
-1264.518
 30
3827.000
 70
    32
  0
VERTEX
  8
1400LEVEL
 62
7
 10
-596.953
 20
-1267.301
 30
3827.000
 70
    32
  0
VERTEX
  8
1400LEVEL
 62
7
 10
-585.833
 20
-1289.568
 30
3827.000
 70
    32
  0
VERTEX
  8
1400LEVEL
 62
7
 10
-552.472
 20
-1361.933
 30
3827.000
 70
    32
  0
VERTEX
  8
1400LEVEL
 62
7
 10
-527.452
 20
-1403.682
 30
3827.000
 70
    32
  0
VERTEX
  8
1400LEVEL
 62
7
 10
-499.651
 20
-1453.781
 30
3827.000
 70
    32
  0
VERTEX
  8
1400LEVEL
 62
7
 10
-474.631
 20
-1498.314
 30
3827.000
 70
    32
  0
VERTEX
  8
1400LEVEL
 62
7
 10
-441.270
 20
-1540.063
 30
3827.000
 70
    32
  0
VERTEX
  8
1400LEVEL
 62
7
 10
-413.469
 20
-1601.295
 30
3827.000
 70
    32
  0
VERTEX
  8
1400LEVEL
 62
7
 10
-405.129
 20
-1626.345
 30
3827.000
 70
    32
  0
VERTEX
  8
1400LEVEL
 62
7
 10
-377.329
 20
-1609.645
 30
3827.000
 70
    32
  0
VERTEX
  8
1400LEVEL
 62
7
 10
-385.669
 20
-1576.246
 30
3827.000
 70
    32
  0
VERTEX
  8
1400LEVEL
 62
7
 10
-416.250
 20
-1520.580
 30
3827.000
 70
    32
  0
VERTEX
  8
1400LEVEL
 62
7
 10
-441.270
 20
-1473.264
 30
3827.000
 70
    32
  0
VERTEX
  8
1400LEVEL
 62
7
 10
-480.191
 20
-1373.066
 30
3827.000
 70
    32
  0
VERTEX
  8
1400LEVEL
 62
7
 10
-549.692
 20
-1261.735
 30
3827.000
 70
    32
  0
VERTEX
  8
1400LEVEL
 62
7
 10
-574.712
 20
-1111.437
 30
3827.000
 70
    32
  0
VERTEX
  8
1400LEVEL
 62
7
 10
-602.513
 20
-1086.388
 30
3827.000
 70
    32
  0
VERTEX
  8
1400LEVEL
 62
7
 10
-674.795
 20
-1033.506
 30
3827.000
 70
    32
  0
VERTEX
  8
1400LEVEL
 62
7
 10
-733.176
 20
-961.140
 30
3827.000
 70
    32
  0
VERTEX
  8
1400LEVEL
 62
7
 10
-805.457
 20
-863.725
 30
3827.000
 70
    32
  0
VERTEX
  8
1400LEVEL
 62
7
 10
-822.137
 20
-821.976
 30
3827.000
 70
    32
  0
VERTEX
  8
1400LEVEL
 62
7
 10
-869.398
 20
-769.094
 30
3827.000
 70
    32
  0
VERTEX
  8
1400LEVEL
 62
7
 10
-894.419
 20
-716.211
 30
3827.000
 70
    32
  0
VERTEX
  8
1400LEVEL
 62
7
 10
-897.199
 20
-682.812
 30
3827.000
 70
    32
  0
VERTEX
  8
1400LEVEL
 62
7
 10
-897.199
 20
-654.979
 30
3827.000
 70
    32
  0
VERTEX
  8
1400LEVEL
 62
7
 10
-874.958
 20
-654.979
 30
3827.000
 70
    32
  0
VERTEX
  8
1400LEVEL
 62
7
 10
-849.938
 20
-666.112
 30
3827.000
 70
    32
  0
VERTEX
  8
1400LEVEL
 62
7
 10
-802.677
 20
-693.945
 30
3827.000
 70
    32
  0
VERTEX
  8
1400LEVEL
 62
7
 10
-791.557
 20
-755.177
 30
3827.000
 70
    32
  0
VERTEX
  8
1400LEVEL
 62
7
 10
-755.416
 20
-799.709
 30
3827.000
 70
    32
  0
VERTEX
  8
1400LEVEL
 62
7
 10
-722.055
 20
-844.242
 30
3827.000
 70
    32
  0
VERTEX
  8
1400LEVEL
 62
7
 10
-702.595
 20
-874.858
 30
3827.000
 70
    32
  0
VERTEX
  8
1400LEVEL
 62
7
 10
-691.475
 20
-899.908
 30
3827.000
 70
    32
  0
VERTEX
  8
1400LEVEL
 62
7
 10
-674.795
 20
-933.307
 30
3827.000
 70
    32
  0
VERTEX
  8
1400LEVEL
 62
7
 10
-649.774
 20
-1002.889
 30
3827.000
 70
    32
  0
VERTEX
  8
1400LEVEL
 62
7
 10
-638.654
 20
-1039.072
 30
3827.000
 70
    32
  0
VERTEX
  8
1400LEVEL
 62
7
 10
-608.073
 20
-1066.905
 30
3827.000
 70
    32
  0
VERTEX
  8
1400LEVEL
 62
7
 10
-596.953
 20
-1066.905
 30
3827.000
 70
    32
  0
VERTEX
  8
1400LEVEL
 62
7
 10
-596.953
 20
-1055.772
 30
3827.000
 70
    32
  0
VERTEX
  8
1400LEVEL
 62
7
 10
-591.393
 20
-1052.988
 30
3827.000
 70
    32
  0
VERTEX
  8
1400LEVEL
 62
7
 10
-583.053
 20
-1069.688
 30
3827.000
 70
    32
  0
VERTEX
  8
1400LEVEL
 62
7
 10
-566.372
 20
-1097.521
 30
3827.000
 70
    32
  0
VERTEX
  8
1400LEVEL
 62
7
 10
-530.232
 20
-1155.970
 30
3827.000
 70
    32
  0
VERTEX
  8
1400LEVEL
 62
7
 10
-494.091
 20
-1228.336
 30
3827.000
 70
    32
  0
VERTEX
  8
1400LEVEL
 62
7
 10
-449.610
 20
-1292.351
 30
3827.000
 70
    32
  0
VERTEX
  8
1400LEVEL
 62
7
 10
-427.370
 20
-1350.800
 30
3827.000
 70
    32
  0
VERTEX
  8
1400LEVEL
 62
7
 10
-402.349
 20
-1395.333
 30
3827.000
 70
    32
  0
VERTEX
  8
1400LEVEL
 62
7
 10
-391.229
 20
-1423.165
 30
3827.000
 70
    32
  0
VERTEX
  8
1400LEVEL
 62
7
 10
-382.889
 20
-1467.698
 30
3827.000
 70
    32
  0
VERTEX
  8
1400LEVEL
 62
7
 10
-374.549
 20
-1498.314
 30
3827.000
 70
    32
  0
VERTEX
  8
1400LEVEL
 62
7
 10
-363.428
 20
-1528.930
 30
3827.000
 70
    32
  0
VERTEX
  8
1400LEVEL
 62
7
 10
-352.308
 20
-1528.930
 30
3827.000
 70
    32
  0
VERTEX
  8
1400LEVEL
 62
7
 10
-352.308
 20
-1498.314
 30
3827.000
 70
    32
  0
VERTEX
  8
1400LEVEL
 62
7
 10
-371.769
 20
-1400.899
 30
3827.000
 70
    32
  0
VERTEX
  8
1400LEVEL
 62
7
 10
-391.229
 20
-1342.450
 30
3827.000
 70
    32
  0
VERTEX
  8
1400LEVEL
 62
7
 10
-457.950
 20
-1206.069
 30
3827.000
 70
    32
  0
VERTEX
  8
1400LEVEL
 62
7
 10
-530.232
 20
-1078.038
 30
3827.000
 70
    32
  0
VERTEX
  8
1400LEVEL
 62
7
 10
-563.592
 20
-1030.722
 30
3827.000
 70
    32
  0
VERTEX
  8
1400LEVEL
 62
7
 10
-619.194
 20
-961.140
 30
3827.000
 70
    32
  0
VERTEX
  8
1400LEVEL
 62
7
 10
-655.334
 20
-869.291
 30
3827.000
 70
    32
  0
VERTEX
  8
1400LEVEL
 62
7
 10
-708.155
 20
-802.493
 30
3827.000
 70
    32
  0
VERTEX
  8
1400LEVEL
 62
7
 10
-727.616
 20
-752.394
 30
3827.000
 70
    32
  0
VERTEX
  8
1400LEVEL
 62
7
 10
-760.976
 20
-693.945
 30
3827.000
 70
    32
  0
VERTEX
  8
1400LEVEL
 62
7
 10
-797.117
 20
-616.013
 30
3827.000
 70
    32
  0
VERTEX
  8
1400LEVEL
 62
7
 10
-861.058
 20
-554.780
 30
3827.000
 70
    32
  0
VERTEX
  8
1400LEVEL
 62
7
 10
-913.879
 20
-510.248
 30
3827.000
 70
    32
  0
VERTEX
  8
1400LEVEL
 62
7
 10
-941.680
 20
-465.715
 30
3827.000
 70
    32
  0
VERTEX
  8
1400LEVEL
 62
7
 10
-963.920
 20
-407.267
 30
3827.000
 70
    32
  0
VERTEX
  8
1400LEVEL
 62
7
 10
-977.821
 20
-354.384
 30
3827.000
 70
    32
  0
VERTEX
  8
1400LEVEL
 62
7
 10
-1008.401
 20
-284.802
 30
3827.000
 70
    32
  0
VERTEX
  8
1400LEVEL
 62
7
 10
-1016.741
 20
-234.703
 30
3827.000
 70
    32
  0
VERTEX
  8
1400LEVEL
 62
7
 10
-1038.982
 20
-201.303
 30
3827.000
 70
    32
  0
VERTEX
  8
1400LEVEL
 62
7
 10
-1064.002
 20
-151.204
 30
3827.000
 70
    32
  0
VERTEX
  8
1400LEVEL
 62
7
 10
-1077.903
 20
-106.672
 30
3827.000
 70
    32
  0
VERTEX
  8
1400LEVEL
 62
7
 10
-1086.243
 20
-67.706
 30
3827.000
 70
    32
  0
VERTEX
  8
1400LEVEL
 62
7
 10
-1094.583
 20
-25.956
 30
3827.000
 70
    32
  0
VERTEX
  8
1400LEVEL
 62
7
 10
-1125.163
 20
29.709
 30
3827.000
 70
    32
  0
VERTEX
  8
1400LEVEL
 62
7
 10
-1144.624
 20
71.459
 30
3827.000
 70
    32
  0
VERTEX
  8
1400LEVEL
 62
7
 10
-1158.524
 20
110.425
 30
3827.000
 70
    32
  0
VERTEX
  8
1400LEVEL
 62
7
 10
-1169.644
 20
135.474
 30
3827.000
 70
    32
  0
VERTEX
  8
1400LEVEL
 62
7
 10
-1164.084
 20
149.390
 30
3827.000
 70
    32
  0
VERTEX
  8
1400LEVEL
 62
7
 10
-1155.744
 20
143.824
 30
3827.000
 70
    32
  0
VERTEX
  8
1400LEVEL
 62
7
 10
-1147.404
 20
129.908
 30
3827.000
 70
    32
  0
VERTEX
  8
1400LEVEL
 62
7
 10
-1130.723
 20
104.858
 30
3827.000
 70
    32
  0
VERTEX
  8
1400LEVEL
 62
7
 10
-1097.363
 20
68.675
 30
3827.000
 70
    32
  0
VERTEX
  8
1400LEVEL
 62
7
 10
-1069.562
 20
43.626
 30
3827.000
 70
    32
  0
VERTEX
  8
1400LEVEL
 62
7
 10
-1030.641
 20
-14.823
 30
3827.000
 70
    32
  0
VERTEX
  8
1400LEVEL
 62
7
 10
-1019.521
 20
-59.356
 30
3827.000
 70
    32
  0
VERTEX
  8
1400LEVEL
 62
7
 10
-1008.401
 20
-103.888
 30
3827.000
 70
    32
  0
VERTEX
  8
1400LEVEL
 62
7
 10
-988.941
 20
-151.204
 30
3827.000
 70
    32
  0
VERTEX
  8
1400LEVEL
 62
7
 10
-963.920
 20
-198.520
 30
3827.000
 70
    32
  0
VERTEX
  8
1400LEVEL
 62
7
 10
-941.680
 20
-251.402
 30
3827.000
 70
    32
  0
VERTEX
  8
1400LEVEL
 62
7
 10
-919.439
 20
-295.935
 30
3827.000
 70
    32
  0
VERTEX
  8
1400LEVEL
 62
7
 10
-908.319
 20
-343.251
 30
3827.000
 70
    32
  0
VERTEX
  8
1400LEVEL
 62
7
 10
-891.639
 20
-390.567
 30
3827.000
 70
    32
  0
VERTEX
  8
1400LEVEL
 62
7
 10
-866.618
 20
-437.882
 30
3827.000
 70
    32
  0
VERTEX
  8
1400LEVEL
 62
7
 10
-861.058
 20
-462.932
 30
3827.000
 70
    32
  0
VERTEX
  8
1400LEVEL
 62
7
 10
-830.478
 20
-487.982
 30
3827.000
 70
    32
  0
VERTEX
  8
1400LEVEL
 62
7
 10
-819.357
 20
-485.198
 30
3827.000
 70
    32
  0
VERTEX
  8
1400LEVEL
 62
7
 10
-822.137
 20
-460.149
 30
3827.000
 70
    32
  0
VERTEX
  8
1400LEVEL
 62
7
 10
-830.478
 20
-432.316
 30
3827.000
 70
    32
  0
VERTEX
  8
1400LEVEL
 62
7
 10
-841.598
 20
-404.483
 30
3827.000
 70
    32
  0
VERTEX
  8
1400LEVEL
 62
7
 10
-863.838
 20
-368.300
 30
3827.000
 70
    32
  0
VERTEX
  8
1400LEVEL
 62
7
 10
-872.178
 20
-343.251
 30
3827.000
 70
    32
  0
VERTEX
  8
1400LEVEL
 62
7
 10
-855.498
 20
-332.118
 30
3827.000
 70
    32
  0
VERTEX
  8
1400LEVEL
 62
7
 10
-827.697
 20
-354.384
 30
3827.000
 70
    32
  0
VERTEX
  8
1400LEVEL
 62
7
 10
-805.457
 20
-407.267
 30
3827.000
 70
    32
  0
VERTEX
  8
1400LEVEL
 62
7
 10
-785.997
 20
-460.149
 30
3827.000
 70
    32
  0
VERTEX
  8
1400LEVEL
 62
7
 10
-763.756
 20
-518.598
 30
3827.000
 70
    32
  0
VERTEX
  8
1400LEVEL
 62
7
 10
-749.856
 20
-549.214
 30
3827.000
 70
    32
  0
VERTEX
  8
1400LEVEL
 62
7
 10
-730.396
 20
-577.047
 30
3827.000
 70
    32
  0
VERTEX
  8
1400LEVEL
 62
7
 10
-708.155
 20
-599.313
 30
3827.000
 70
    32
  0
VERTEX
  8
1400LEVEL
 62
7
 10
-699.815
 20
-599.313
 30
3827.000
 70
    32
  0
VERTEX
  8
1400LEVEL
 62
7
 10
-697.035
 20
-571.480
 30
3827.000
 70
    32
  0
VERTEX
  8
1400LEVEL
 62
7
 10
-705.375
 20
-549.214
 30
3827.000
 70
    32
  0
VERTEX
  8
1400LEVEL
 62
7
 10
-713.715
 20
-526.948
 30
3827.000
 70
    32
  0
VERTEX
  8
1400LEVEL
 62
7
 10
-719.276
 20
-507.464
 30
3827.000
 70
    32
  0
VERTEX
  8
1400LEVEL
 62
7
 10
-710.935
 20
-504.681
 30
3827.000
 70
    32
  0
VERTEX
  8
1400LEVEL
 62
7
 10
-677.575
 20
-549.214
 30
3827.000
 70
    32
  0
VERTEX
  8
1400LEVEL
 62
7
 10
-663.674
 20
-579.830
 30
3827.000
 70
    32
  0
VERTEX
  8
1400LEVEL
 62
7
 10
-638.654
 20
-627.146
 30
3827.000
 70
    32
  0
VERTEX
  8
1400LEVEL
 62
7
 10
-583.053
 20
-718.994
 30
3827.000
 70
    32
  0
VERTEX
  8
1400LEVEL
 62
7
 10
-535.792
 20
-788.576
 30
3827.000
 70
    32
  0
VERTEX
  8
1400LEVEL
 62
7
 10
-480.191
 20
-872.075
 30
3827.000
 70
    32
  0
VERTEX
  8
1400LEVEL
 62
7
 10
-457.950
 20
-969.490
 30
3827.000
 70
    32
  0
VERTEX
  8
1400LEVEL
 62
7
 10
-407.909
 20
-1044.639
 30
3827.000
 70
    32
  0
VERTEX
  8
1400LEVEL
 62
7
 10
-391.229
 20
-1086.388
 30
3827.000
 70
    32
  0
VERTEX
  8
1400LEVEL
 62
7
 10
-374.549
 20
-1139.270
 30
3827.000
 70
    32
  0
VERTEX
  8
1400LEVEL
 62
7
 10
-363.428
 20
-1181.019
 30
3827.000
 70
    32
  0
VERTEX
  8
1400LEVEL
 62
7
 10
-293.927
 20
-1253.385
 30
3827.000
 70
    32
  0
VERTEX
  8
1400LEVEL
 62
7
 10
-257.786
 20
-1303.484
 30
3827.000
 70
    32
  0
VERTEX
  8
1400LEVEL
 62
7
 10
-241.106
 20
-1342.450
 30
3827.000
 70
    32
  0
VERTEX
  8
1400LEVEL
 62
7
 10
-210.525
 20
-1395.333
 30
3827.000
 70
    32
  0
VERTEX
  8
1400LEVEL
 62
7
 10
-193.845
 20
-1412.032
 30
3827.000
 70
    32
  0
VERTEX
  8
1400LEVEL
 62
7
 10
-174.385
 20
-1412.032
 30
3827.000
 70
    32
  0
VERTEX
  8
1400LEVEL
 62
7
 10
-160.484
 20
-1406.466
 30
3827.000
 70
    32
  0
VERTEX
  8
1400LEVEL
 62
7
 10
-160.484
 20
-1378.633
 30
3827.000
 70
    32
  0
VERTEX
  8
1400LEVEL
 62
7
 10
-166.044
 20
-1353.583
 30
3827.000
 70
    32
  0
VERTEX
  8
1400LEVEL
 62
7
 10
-207.745
 20
-1278.434
 30
3827.000
 70
    32
  0
VERTEX
  8
1400LEVEL
 62
7
 10
-241.106
 20
-1217.202
 30
3827.000
 70
    32
  0
VERTEX
  8
1400LEVEL
 62
7
 10
-280.027
 20
-1133.704
 30
3827.000
 70
    32
  0
VERTEX
  8
1400LEVEL
 62
7
 10
-305.047
 20
-1105.871
 30
3827.000
 70
    32
  0
VERTEX
  8
1400LEVEL
 62
7
 10
-368.989
 20
-1025.156
 30
3827.000
 70
    32
  0
VERTEX
  8
1400LEVEL
 62
7
 10
-421.810
 20
-950.007
 30
3827.000
 70
    32
  0
VERTEX
  8
1400LEVEL
 62
7
 10
-505.211
 20
-752.394
 30
3827.000
 70
    32
  0
VERTEX
  8
1400LEVEL
 62
7
 10
-541.352
 20
-671.679
 30
3827.000
 70
    32
  0
VERTEX
  8
1400LEVEL
 62
7
 10
-596.953
 20
-585.397
 30
3827.000
 70
    32
  0
VERTEX
  8
1400LEVEL
 62
7
 10
-605.293
 20
-543.647
 30
3827.000
 70
    32
  0
VERTEX
  8
1400LEVEL
 62
7
 10
-646.994
 20
-454.582
 30
3827.000
 70
    32
  0
VERTEX
  8
1400LEVEL
 62
7
 10
-655.334
 20
-415.616
 30
3827.000
 70
    32
  0
VERTEX
  8
1400LEVEL
 62
7
 10
-694.255
 20
-376.650
 30
3827.000
 70
    32
  0
VERTEX
  8
1400LEVEL
 62
7
 10
-719.276
 20
-334.901
 30
3827.000
 70
    32
  0
VERTEX
  8
1400LEVEL
 62
7
 10
-738.736
 20
-279.235
 30
3827.000
 70
    32
  0
VERTEX
  8
1400LEVEL
 62
7
 10
-752.636
 20
-240.269
 30
3827.000
 70
    32
  0
VERTEX
  8
1400LEVEL
 62
7
 10
-769.316
 20
-192.953
 30
3827.000
 70
    32
  0
VERTEX
  8
1400LEVEL
 62
7
 10
-791.557
 20
-156.771
 30
3827.000
 70
    32
  0
VERTEX
  8
1400LEVEL
 62
7
 10
-813.797
 20
-134.505
 30
3827.000
 70
    32
  0
VERTEX
  8
1400LEVEL
 62
7
 10
-841.598
 20
-120.588
 30
3827.000
 70
    32
  0
VERTEX
  8
1400LEVEL
 62
7
 10
-861.058
 20
-64.922
 30
3827.000
 70
    32
  0
VERTEX
  8
1400LEVEL
 62
7
 10
-874.958
 20
-31.523
 30
3827.000
 70
    32
  0
VERTEX
  8
1400LEVEL
 62
7
 10
-897.199
 20
15.793
 30
3827.000
 70
    32
  0
VERTEX
  8
1400LEVEL
 62
7
 10
-897.199
 20
51.975
 30
3827.000
 70
    32
  0
VERTEX
  8
1400LEVEL
 62
7
 10
-902.759
 20
93.725
 30
3827.000
 70
    32
  0
VERTEX
  8
1400LEVEL
 62
7
 10
-941.680
 20
138.258
 30
3827.000
 70
    32
  0
VERTEX
  8
1400LEVEL
 62
7
 10
-958.360
 20
166.090
 30
3827.000
 70
    32
  0
VERTEX
  8
1400LEVEL
 62
7
 10
-969.480
 20
193.923
 30
3827.000
 70
    32
  0
VERTEX
  8
1400LEVEL
 62
7
 10
-975.040
 20
224.539
 30
3827.000
 70
    32
  0
VERTEX
  8
1400LEVEL
 62
7
 10
-975.040
 20
257.939
 30
3827.000
 70
    32
  0
VERTEX
  8
1400LEVEL
 62
7
 10
-975.040
 20
285.772
 30
3827.000
 70
    32
  0
VERTEX
  8
1400LEVEL
 62
7
 10
-969.480
 20
285.772
 30
3827.000
 70
    32
  0
VERTEX
  8
1400LEVEL
 62
7
 10
-963.920
 20
277.422
 30
3827.000
 70
    32
  0
VERTEX
  8
1400LEVEL
 62
7
 10
-961.140
 20
230.106
 30
3827.000
 70
    32
  0
VERTEX
  8
1400LEVEL
 62
7
 10
-955.580
 20
205.056
 30
3827.000
 70
    32
  0
VERTEX
  8
1400LEVEL
 62
7
 10
-950.020
 20
188.357
 30
3827.000
 70
    32
  0
VERTEX
  8
1400LEVEL
 62
7
 10
-913.879
 20
152.174
 30
3827.000
 70
    32
  0
VERTEX
  8
1400LEVEL
 62
7
 10
-891.639
 20
135.474
 30
3827.000
 70
    32
  0
VERTEX
  8
1400LEVEL
 62
7
 10
-874.958
 20
115.991
 30
3827.000
 70
    32
  0
VERTEX
  8
1400LEVEL
 62
7
 10
-852.718
 20
68.675
 30
3827.000
 70
    32
  0
VERTEX
  8
1400LEVEL
 62
7
 10
-838.818
 20
40.843
 30
3827.000
 70
    32
  0
VERTEX
  8
1400LEVEL
 62
7
 10
-822.137
 20
10.226
 30
3827.000
 70
    32
  0
VERTEX
  8
1400LEVEL
 62
7
 10
-797.117
 20
-53.789
 30
3827.000
 70
    32
  0
VERTEX
  8
1400LEVEL
 62
7
 10
-785.997
 20
-81.622
 30
3827.000
 70
    32
  0
VERTEX
  8
1400LEVEL
 62
7
 10
-774.877
 20
-126.155
 30
3827.000
 70
    32
  0
VERTEX
  8
1400LEVEL
 62
7
 10
-760.976
 20
-173.470
 30
3827.000
 70
    32
  0
VERTEX
  8
1400LEVEL
 62
7
 10
-741.516
 20
-231.919
 30
3827.000
 70
    32
  0
VERTEX
  8
1400LEVEL
 62
7
 10
-716.495
 20
-273.669
 30
3827.000
 70
    32
  0
VERTEX
  8
1400LEVEL
 62
7
 10
-694.255
 20
-320.984
 30
3827.000
 70
    32
  0
VERTEX
  8
1400LEVEL
 62
7
 10
-674.795
 20
-362.734
 30
3827.000
 70
    32
  0
VERTEX
  8
1400LEVEL
 62
7
 10
-641.434
 20
-398.917
 30
3827.000
 70
    32
  0
VERTEX
  8
1400LEVEL
 62
7
 10
-621.974
 20
-446.232
 30
3827.000
 70
    32
  0
VERTEX
  8
1400LEVEL
 62
7
 10
-602.513
 20
-485.198
 30
3827.000
 70
    32
  0
VERTEX
  8
1400LEVEL
 62
7
 10
-583.053
 20
-526.948
 30
3827.000
 70
    32
  0
VERTEX
  8
1400LEVEL
 62
7
 10
-563.592
 20
-563.130
 30
3827.000
 70
    32
  0
VERTEX
  8
1400LEVEL
 62
7
 10
-541.352
 20
-604.879
 30
3827.000
 70
    32
  0
VERTEX
  8
1400LEVEL
 62
7
 10
-516.331
 20
-649.412
 30
3827.000
 70
    32
  0
VERTEX
  8
1400LEVEL
 62
7
 10
-491.311
 20
-710.644
 30
3827.000
 70
    32
  0
VERTEX
  8
1400LEVEL
 62
7
 10
-471.851
 20
-735.694
 30
3827.000
 70
    32
  0
VERTEX
  8
1400LEVEL
 62
7
 10
-452.390
 20
-819.192
 30
3827.000
 70
    32
  0
VERTEX
  8
1400LEVEL
 62
7
 10
-424.590
 20
-885.991
 30
3827.000
 70
    32
  0
VERTEX
  8
1400LEVEL
 62
7
 10
-396.789
 20
-924.957
 30
3827.000
 70
    32
  0
VERTEX
  8
1400LEVEL
 62
7
 10
-349.528
 20
-1008.456
 30
3827.000
 70
    32
  0
VERTEX
  8
1400LEVEL
 62
7
 10
-327.288
 20
-1033.506
 30
3827.000
 70
    32
  0
VERTEX
  8
1400LEVEL
 62
7
 10
-291.147
 20
-1083.604
 30
3827.000
 70
    32
  0
VERTEX
  8
1400LEVEL
 62
7
 10
-255.006
 20
-1122.571
 30
3827.000
 70
    32
  0
VERTEX
  8
1400LEVEL
 62
7
 10
-218.866
 20
-1183.803
 30
3827.000
 70
    32
  0
VERTEX
  8
1400LEVEL
 62
7
 10
-199.405
 20
-1225.552
 30
3827.000
 70
    32
  0
VERTEX
  8
1400LEVEL
 62
7
 10
-157.705
 20
-1281.218
 30
3827.000
 70
    32
  0
VERTEX
  8
1400LEVEL
 62
7
 10
-141.024
 20
-1334.100
 30
3827.000
 70
    32
  0
VERTEX
  8
1400LEVEL
 62
7
 10
-129.904
 20
-1378.633
 30
3827.000
 70
    32
  0
VERTEX
  8
1400LEVEL
 62
7
 10
-107.664
 20
-1417.599
 30
3827.000
 70
    32
  0
VERTEX
  8
1400LEVEL
 62
7
 10
-79.863
 20
-1464.915
 30
3827.000
 70
    32
  0
VERTEX
  8
1400LEVEL
 62
7
 10
-54.842
 20
-1523.363
 30
3827.000
 70
    32
  0
VERTEX
  8
1400LEVEL
 62
7
 10
-29.822
 20
-1562.330
 30
3827.000
 70
    32
  0
VERTEX
  8
1400LEVEL
 62
7
 10
3.539
 20
-1606.862
 30
3827.000
 70
    32
  0
VERTEX
  8
1400LEVEL
 62
7
 10
22.999
 20
-1640.261
 30
3827.000
 70
    32
  0
VERTEX
  8
1400LEVEL
 62
7
 10
56.360
 20
-1673.661
 30
3827.000
 70
    32
  0
VERTEX
  8
1400LEVEL
 62
7
 10
75.820
 20
-1684.794
 30
3827.000
 70
    32
  0
VERTEX
  8
1400LEVEL
 62
7
 10
100.841
 20
-1656.961
 30
3827.000
 70
    32
  0
VERTEX
  8
1400LEVEL
 62
7
 10
100.841
 20
-1634.695
 30
3827.000
 70
    32
  0
VERTEX
  8
1400LEVEL
 62
7
 10
98.061
 20
-1590.162
 30
3827.000
 70
    32
  0
VERTEX
  8
1400LEVEL
 62
7
 10
92.501
 20
-1551.196
 30
3827.000
 70
    32
  0
VERTEX
  8
1400LEVEL
 62
7
 10
81.380
 20
-1517.797
 30
3827.000
 70
    32
  0
VERTEX
  8
1400LEVEL
 62
7
 10
75.820
 20
-1489.964
 30
3827.000
 70
    32
  0
VERTEX
  8
1400LEVEL
 62
7
 10
92.501
 20
-1487.181
 30
3827.000
 70
    32
  0
VERTEX
  8
1400LEVEL
 62
7
 10
100.841
 20
-1501.097
 30
3827.000
 70
    32
  0
VERTEX
  8
1400LEVEL
 62
7
 10
106.401
 20
-1523.363
 30
3827.000
 70
    32
  0
VERTEX
  8
1400LEVEL
 62
7
 10
123.081
 20
-1542.846
 30
3827.000
 70
    32
  0
VERTEX
  8
1400LEVEL
 62
7
 10
145.321
 20
-1567.896
 30
3827.000
 70
    32
  0
SEQEND
  8
1400LEVEL
  0
POLYLINE
  8
1400LEVEL
 62
7
 66
     1
 70
     8
  0
VERTEX
  8
1400LEVEL
 62
7
 10
-1584.211
 20
212.637
 30
3827.000
 70
    32
  0
VERTEX
  8
1400LEVEL
 62
7
 10
-1576.337
 20
200.820
 30
3827.000
 70
    32
  0
VERTEX
  8
1400LEVEL
 62
7
 10
-1572.399
 20
198.851
 30
3827.000
 70
    32
  0
VERTEX
  8
1400LEVEL
 62
7
 10
-1570.431
 20
204.759
 30
3827.000
 70
    32
  0
VERTEX
  8
1400LEVEL
 62
7
 10
-1578.306
 20
218.545
 30
3827.000
 70
    32
  0
VERTEX
  8
1400LEVEL
 62
7
 10
-1601.930
 20
252.027
 30
3827.000
 70
    32
  0
VERTEX
  8
1400LEVEL
 62
7
 10
-1639.334
 20
293.386
 30
3827.000
 70
    32
  0
VERTEX
  8
1400LEVEL
 62
7
 10
-1686.582
 20
338.684
 30
3827.000
 70
    32
  0
VERTEX
  8
1400LEVEL
 62
7
 10
-1712.175
 20
368.226
 30
3827.000
 70
    32
  0
VERTEX
  8
1400LEVEL
 62
7
 10
-1749.580
 20
409.585
 30
3827.000
 70
    32
  0
VERTEX
  8
1400LEVEL
 62
7
 10
-1800.765
 20
458.822
 30
3827.000
 70
    32
  0
VERTEX
  8
1400LEVEL
 62
7
 10
-1848.014
 20
515.938
 30
3827.000
 70
    32
  0
VERTEX
  8
1400LEVEL
 62
7
 10
-1895.262
 20
563.205
 30
3827.000
 70
    32
  0
VERTEX
  8
1400LEVEL
 62
7
 10
-1934.635
 20
606.534
 30
3827.000
 70
    32
  0
VERTEX
  8
1400LEVEL
 62
7
 10
-1960.228
 20
630.168
 30
3827.000
 70
    32
  0
VERTEX
  8
1400LEVEL
 62
7
 10
-1993.696
 20
651.832
 30
3827.000
 70
    32
  0
VERTEX
  8
1400LEVEL
 62
7
 10
-2027.163
 20
701.069
 30
3827.000
 70
    32
  0
VERTEX
  8
1400LEVEL
 62
7
 10
-2042.912
 20
714.856
 30
3827.000
 70
    32
  0
VERTEX
  8
1400LEVEL
 62
7
 10
-2070.474
 20
750.306
 30
3827.000
 70
    32
  0
VERTEX
  8
1400LEVEL
 62
7
 10
-2100.004
 20
777.879
 30
3827.000
 70
    32
  0
VERTEX
  8
1400LEVEL
 62
7
 10
-2129.534
 20
815.299
 30
3827.000
 70
    32
  0
VERTEX
  8
1400LEVEL
 62
7
 10
-2147.252
 20
833.025
 30
3827.000
 70
    32
  0
VERTEX
  8
1400LEVEL
 62
7
 10
-2163.001
 20
844.841
 30
3827.000
 70
    32
  0
VERTEX
  8
1400LEVEL
 62
7
 10
-2170.876
 20
844.841
 30
3827.000
 70
    32
  0
VERTEX
  8
1400LEVEL
 62
7
 10
-2170.876
 20
834.994
 30
3827.000
 70
    32
  0
VERTEX
  8
1400LEVEL
 62
7
 10
-2159.064
 20
815.299
 30
3827.000
 70
    32
  0
VERTEX
  8
1400LEVEL
 62
7
 10
-2153.158
 20
797.574
 30
3827.000
 70
    32
  0
VERTEX
  8
1400LEVEL
 62
7
 10
-2133.471
 20
781.818
 30
3827.000
 70
    32
  0
VERTEX
  8
1400LEVEL
 62
7
 10
-2115.753
 20
766.062
 30
3827.000
 70
    32
  0
VERTEX
  8
1400LEVEL
 62
7
 10
-2086.223
 20
728.642
 30
3827.000
 70
    32
  0
VERTEX
  8
1400LEVEL
 62
7
 10
-2064.568
 20
693.191
 30
3827.000
 70
    32
  0
VERTEX
  8
1400LEVEL
 62
7
 10
-2027.163
 20
655.771
 30
3827.000
 70
    32
  0
VERTEX
  8
1400LEVEL
 62
7
 10
-1995.664
 20
622.290
 30
3827.000
 70
    32
  0
VERTEX
  8
1400LEVEL
 62
7
 10
-1954.322
 20
588.809
 30
3827.000
 70
    32
  0
VERTEX
  8
1400LEVEL
 62
7
 10
-1936.604
 20
567.144
 30
3827.000
 70
    32
  0
VERTEX
  8
1400LEVEL
 62
7
 10
-1871.638
 20
496.243
 30
3827.000
 70
    32
  0
VERTEX
  8
1400LEVEL
 62
7
 10
-1765.329
 20
399.738
 30
3827.000
 70
    32
  0
VERTEX
  8
1400LEVEL
 62
7
 10
-1723.987
 20
354.440
 30
3827.000
 70
    32
  0
VERTEX
  8
1400LEVEL
 62
7
 10
-1674.770
 20
307.172
 30
3827.000
 70
    32
  0
VERTEX
  8
1400LEVEL
 62
7
 10
-1641.303
 20
275.660
 30
3827.000
 70
    32
  0
VERTEX
  8
1400LEVEL
 62
7
 10
-1601.930
 20
232.332
 30
3827.000
 70
    32
  0
SEQEND
  8
1400LEVEL
  0
POLYLINE
  8
1400LEVEL
 62
13
 66
     1
 70
     8
  0
VERTEX
  8
1400LEVEL
 62
13
 10
-1231.757
 20
-357.960
 30
3827.000
 70
    32
  0
VERTEX
  8
1400LEVEL
 62
13
 10
-1219.453
 20
-377.655
 30
3827.000
 70
    32
  0
VERTEX
  8
1400LEVEL
 62
13
 10
-1209.610
 20
-387.502
 30
3827.000
 70
    32
  0
VERTEX
  8
1400LEVEL
 62
13
 10
-1207.149
 20
-377.655
 30
3827.000
 70
    32
  0
VERTEX
  8
1400LEVEL
 62
13
 10
-1216.992
 20
-348.113
 30
3827.000
 70
    32
  0
VERTEX
  8
1400LEVEL
 62
13
 10
-1239.140
 20
-289.028
 30
3827.000
 70
    32
  0
VERTEX
  8
1400LEVEL
 62
13
 10
-1285.896
 20
-207.787
 30
3827.000
 70
    32
  0
VERTEX
  8
1400LEVEL
 62
13
 10
-1312.965
 20
-146.240
 30
3827.000
 70
    32
  0
VERTEX
  8
1400LEVEL
 62
13
 10
-1335.113
 20
-101.927
 30
3827.000
 70
    32
  0
VERTEX
  8
1400LEVEL
 62
13
 10
-1384.330
 20
-20.686
 30
3827.000
 70
    32
  0
VERTEX
  8
1400LEVEL
 62
13
 10
-1423.703
 20
28.551
 30
3827.000
 70
    32
  0
VERTEX
  8
1400LEVEL
 62
13
 10
-1463.077
 20
92.560
 30
3827.000
 70
    32
  0
VERTEX
  8
1400LEVEL
 62
13
 10
-1554.127
 20
237.809
 30
3827.000
 70
    32
  0
VERTEX
  8
1400LEVEL
 62
13
 10
-1625.492
 20
316.589
 30
3827.000
 70
    32
  0
VERTEX
  8
1400LEVEL
 62
13
 10
-1672.248
 20
390.444
 30
3827.000
 70
    32
  0
VERTEX
  8
1400LEVEL
 62
13
 10
-1711.621
 20
442.143
 30
3827.000
 70
    32
  0
VERTEX
  8
1400LEVEL
 62
13
 10
-1758.377
 20
508.613
 30
3827.000
 70
    32
  0
VERTEX
  8
1400LEVEL
 62
13
 10
-1807.594
 20
570.160
 30
3827.000
 70
    32
  0
VERTEX
  8
1400LEVEL
 62
13
 10
-1834.663
 20
621.859
 30
3827.000
 70
    32
  0
VERTEX
  8
1400LEVEL
 62
13
 10
-1866.654
 20
695.714
 30
3827.000
 70
    32
  0
VERTEX
  8
1400LEVEL
 62
13
 10
-1910.950
 20
799.112
 30
3827.000
 70
    32
  0
VERTEX
  8
1400LEVEL
 62
13
 10
-1940.479
 20
821.269
 30
3827.000
 70
    32
  0
VERTEX
  8
1400LEVEL
 62
13
 10
-1962.627
 20
823.731
 30
3827.000
 70
    32
  0
VERTEX
  8
1400LEVEL
 62
13
 10
-1987.236
 20
836.040
 30
3827.000
 70
    32
  0
VERTEX
  8
1400LEVEL
 62
13
 10
-2006.922
 20
843.426
 30
3827.000
 70
    32
  0
VERTEX
  8
1400LEVEL
 62
13
 10
-2048.757
 20
875.430
 30
3827.000
 70
    32
  0
VERTEX
  8
1400LEVEL
 62
13
 10
-2090.591
 20
907.434
 30
3827.000
 70
    32
  0
VERTEX
  8
1400LEVEL
 62
13
 10
-2102.895
 20
914.819
 30
3827.000
 70
    32
  0
VERTEX
  8
1400LEVEL
 62
13
 10
-2120.121
 20
934.514
 30
3827.000
 70
    32
  0
VERTEX
  8
1400LEVEL
 62
13
 10
-2149.651
 20
978.828
 30
3827.000
 70
    32
  0
VERTEX
  8
1400LEVEL
 62
13
 10
-2174.259
 20
1025.603
 30
3827.000
 70
    32
  0
VERTEX
  8
1400LEVEL
 62
13
 10
-2221.015
 20
1079.764
 30
3827.000
 70
    32
  0
VERTEX
  8
1400LEVEL
 62
13
 10
-2253.006
 20
1119.154
 30
3827.000
 70
    32
  0
VERTEX
  8
1400LEVEL
 62
13
 10
-2312.067
 20
1185.624
 30
3827.000
 70
    32
  0
VERTEX
  8
1400LEVEL
 62
13
 10
-2363.744
 20
1249.632
 30
3827.000
 70
    32
  0
VERTEX
  8
1400LEVEL
 62
13
 10
-2420.343
 20
1330.873
 30
3827.000
 70
    32
  0
VERTEX
  8
1400LEVEL
 62
13
 10
-2472.021
 20
1414.576
 30
3827.000
 70
    32
  0
VERTEX
  8
1400LEVEL
 62
13
 10
-2501.549
 20
1478.585
 30
3827.000
 70
    32
  0
VERTEX
  8
1400LEVEL
 62
13
 10
-2553.227
 20
1527.822
 30
3827.000
 70
    32
  0
VERTEX
  8
1400LEVEL
 62
13
 10
-2595.062
 20
1542.594
 30
3827.000
 70
    32
  0
VERTEX
  8
1400LEVEL
 62
13
 10
-2614.748
 20
1540.132
 30
3827.000
 70
    32
  0
VERTEX
  8
1400LEVEL
 62
13
 10
-2631.974
 20
1527.822
 30
3827.000
 70
    32
  0
VERTEX
  8
1400LEVEL
 62
13
 10
-2636.896
 20
1505.666
 30
3827.000
 70
    32
  0
VERTEX
  8
1400LEVEL
 62
13
 10
-2619.670
 20
1453.966
 30
3827.000
 70
    32
  0
VERTEX
  8
1400LEVEL
 62
13
 10
-2607.365
 20
1394.882
 30
3827.000
 70
    32
  0
VERTEX
  8
1400LEVEL
 62
13
 10
-2607.365
 20
1357.954
 30
3827.000
 70
    32
  0
VERTEX
  8
1400LEVEL
 62
13
 10
-2526.158
 20
1247.171
 30
3827.000
 70
    32
  0
VERTEX
  8
1400LEVEL
 62
13
 10
-2462.176
 20
1178.239
 30
3827.000
 70
    32
  0
VERTEX
  8
1400LEVEL
 62
13
 10
-2380.968
 20
1104.383
 30
3827.000
 70
    32
  0
VERTEX
  8
1400LEVEL
 62
13
 10
-2302.222
 20
1028.065
 30
3827.000
 70
    32
  0
VERTEX
  8
1400LEVEL
 62
13
 10
-2255.466
 20
966.519
 30
3827.000
 70
    32
  0
VERTEX
  8
1400LEVEL
 62
13
 10
-2213.631
 20
917.282
 30
3827.000
 70
    32
  0
VERTEX
  8
1400LEVEL
 62
13
 10
-2193.945
 20
875.430
 30
3827.000
 70
    32
  0
VERTEX
  8
1400LEVEL
 62
13
 10
-2193.945
 20
838.502
 30
3827.000
 70
    32
  0
VERTEX
  8
1400LEVEL
 62
13
 10
-2179.180
 20
786.803
 30
3827.000
 70
    32
  0
VERTEX
  8
1400LEVEL
 62
13
 10
-2144.728
 20
749.876
 30
3827.000
 70
    32
  0
VERTEX
  8
1400LEVEL
 62
13
 10
-2137.346
 20
735.104
 30
3827.000
 70
    32
  0
VERTEX
  8
1400LEVEL
 62
13
 10
-2129.963
 20
735.104
 30
3827.000
 70
    32
  0
VERTEX
  8
1400LEVEL
 62
13
 10
-2129.963
 20
744.952
 30
3827.000
 70
    32
  0
VERTEX
  8
1400LEVEL
 62
13
 10
-2132.424
 20
752.337
 30
3827.000
 70
    32
  0
VERTEX
  8
1400LEVEL
 62
13
 10
-2132.424
 20
759.723
 30
3827.000
 70
    32
  0
VERTEX
  8
1400LEVEL
 62
13
 10
-2120.120
 20
749.876
 30
3827.000
 70
    32
  0
VERTEX
  8
1400LEVEL
 62
13
 10
-2105.354
 20
722.795
 30
3827.000
 70
    32
  0
VERTEX
  8
1400LEVEL
 62
13
 10
-2068.442
 20
680.944
 30
3827.000
 70
    32
  0
VERTEX
  8
1400LEVEL
 62
13
 10
-2004.460
 20
612.012
 30
3827.000
 70
    32
  0
VERTEX
  8
1400LEVEL
 62
13
 10
-1977.391
 20
582.469
 30
3827.000
 70
    32
  0
VERTEX
  8
1400LEVEL
 62
13
 10
-1883.879
 20
479.071
 30
3827.000
 70
    32
  0
VERTEX
  8
1400LEVEL
 62
13
 10
-1834.662
 20
437.220
 30
3827.000
 70
    32
  0
VERTEX
  8
1400LEVEL
 62
13
 10
-1760.837
 20
380.597
 30
3827.000
 70
    32
  0
VERTEX
  8
1400LEVEL
 62
13
 10
-1711.621
 20
319.051
 30
3827.000
 70
    32
  0
VERTEX
  8
1400LEVEL
 62
13
 10
-1595.961
 20
193.496
 30
3827.000
 70
    32
  0
VERTEX
  8
1400LEVEL
 62
13
 10
-1554.127
 20
109.793
 30
3827.000
 70
    32
  0
VERTEX
  8
1400LEVEL
 62
13
 10
-1497.528
 20
43.323
 30
3827.000
 70
    32
  0
VERTEX
  8
1400LEVEL
 62
13
 10
-1475.381
 20
-10.838
 30
3827.000
 70
    32
  0
VERTEX
  8
1400LEVEL
 62
13
 10
-1428.625
 20
-72.385
 30
3827.000
 70
    32
  0
VERTEX
  8
1400LEVEL
 62
13
 10
-1379.408
 20
-119.160
 30
3827.000
 70
    32
  0
VERTEX
  8
1400LEVEL
 62
13
 10
-1340.035
 20
-175.783
 30
3827.000
 70
    32
  0
VERTEX
  8
1400LEVEL
 62
13
 10
-1300.661
 20
-232.405
 30
3827.000
 70
    32
  0
VERTEX
  8
1400LEVEL
 62
13
 10
-1273.592
 20
-271.795
 30
3827.000
 70
    32
  0
VERTEX
  8
1400LEVEL
 62
13
 10
-1239.140
 20
-338.265
 30
3827.000
 70
    32
  0
SEQEND
  8
1400LEVEL
  0
POLYLINE
  8
1400LEVEL
 62
13
 66
     1
 70
     8
  0
VERTEX
  8
1400LEVEL
 62
13
 10
-2767.828
 20
-1125.006
 30
3827.000
 70
    32
  0
VERTEX
  8
1400LEVEL
 62
13
 10
-2784.508
 20
-1047.074
 30
3827.000
 70
    32
  0
VERTEX
  8
1400LEVEL
 62
13
 10
-2828.989
 20
-974.708
 30
3827.000
 70
    32
  0
VERTEX
  8
1400LEVEL
 62
13
 10
-2840.110
 20
-885.643
 30
3827.000
 70
    32
  0
VERTEX
  8
1400LEVEL
 62
13
 10
-2879.030
 20
-807.711
 30
3827.000
 70
    32
  0
VERTEX
  8
1400LEVEL
 62
13
 10
-2923.511
 20
-696.380
 30
3827.000
 70
    32
  0
VERTEX
  8
1400LEVEL
 62
13
 10
-2990.232
 20
-596.182
 30
3827.000
 70
    32
  0
VERTEX
  8
1400LEVEL
 62
13
 10
-3012.473
 20
-529.383
 30
3827.000
 70
    32
  0
VERTEX
  8
1400LEVEL
 62
13
 10
-3029.153
 20
-434.751
 30
3827.000
 70
    32
  0
VERTEX
  8
1400LEVEL
 62
13
 10
-3029.153
 20
-384.652
 30
3827.000
 70
    32
  0
VERTEX
  8
1400LEVEL
 62
13
 10
-2934.631
 20
-501.550
 30
3827.000
 70
    32
  0
VERTEX
  8
1400LEVEL
 62
13
 10
-2851.230
 20
-624.015
 30
3827.000
 70
    32
  0
VERTEX
  8
1400LEVEL
 62
13
 10
-2767.828
 20
-768.745
 30
3827.000
 70
    32
  0
VERTEX
  8
1400LEVEL
 62
13
 10
-2684.426
 20
-857.810
 30
3827.000
 70
    32
  0
VERTEX
  8
1400LEVEL
 62
13
 10
-2617.705
 20
-930.176
 30
3827.000
 70
    32
  0
VERTEX
  8
1400LEVEL
 62
13
 10
-2545.424
 20
-969.142
 30
3827.000
 70
    32
  0
VERTEX
  8
1400LEVEL
 62
13
 10
-2489.822
 20
-996.975
 30
3827.000
 70
    32
  0
VERTEX
  8
1400LEVEL
 62
13
 10
-2423.101
 20
-1030.374
 30
3827.000
 70
    32
  0
VERTEX
  8
1400LEVEL
 62
13
 10
-2323.019
 20
-1113.873
 30
3827.000
 70
    32
  0
VERTEX
  8
1400LEVEL
 62
13
 10
-2278.538
 20
-1158.405
 30
3827.000
 70
    32
  0
VERTEX
  8
1400LEVEL
 62
13
 10
-2217.377
 20
-1253.037
 30
3827.000
 70
    32
  0
VERTEX
  8
1400LEVEL
 62
13
 10
-2167.336
 20
-1308.702
 30
3827.000
 70
    32
  0
VERTEX
  8
1400LEVEL
 62
13
 10
-2122.856
 20
-1375.501
 30
3827.000
 70
    32
  0
VERTEX
  8
1400LEVEL
 62
13
 10
-2122.856
 20
-1319.836
 30
3827.000
 70
    32
  0
VERTEX
  8
1400LEVEL
 62
13
 10
-2211.817
 20
-1191.805
 30
3827.000
 70
    32
  0
VERTEX
  8
1400LEVEL
 62
13
 10
-2234.058
 20
-1125.006
 30
3827.000
 70
    32
  0
VERTEX
  8
1400LEVEL
 62
13
 10
-2284.099
 20
-1030.374
 30
3827.000
 70
    32
  0
VERTEX
  8
1400LEVEL
 62
13
 10
-2328.579
 20
-930.176
 30
3827.000
 70
    32
  0
VERTEX
  8
1400LEVEL
 62
13
 10
-2389.741
 20
-829.978
 30
3827.000
 70
    32
  0
VERTEX
  8
1400LEVEL
 62
13
 10
-2439.782
 20
-718.646
 30
3827.000
 70
    32
  0
VERTEX
  8
1400LEVEL
 62
13
 10
-2478.702
 20
-585.048
 30
3827.000
 70
    32
  0
VERTEX
  8
1400LEVEL
 62
13
 10
-2523.183
 20
-518.250
 30
3827.000
 70
    32
  0
VERTEX
  8
1400LEVEL
 62
13
 10
-2584.344
 20
-406.918
 30
3827.000
 70
    32
  0
VERTEX
  8
1400LEVEL
 62
13
 10
-2684.426
 20
-290.020
 30
3827.000
 70
    32
  0
VERTEX
  8
1400LEVEL
 62
13
 10
-2717.787
 20
-234.355
 30
3827.000
 70
    32
  0
VERTEX
  8
1400LEVEL
 62
13
 10
-2823.429
 20
-95.191
 30
3827.000
 70
    32
  0
VERTEX
  8
1400LEVEL
 62
13
 10
-2856.790
 20
-11.692
 30
3827.000
 70
    32
  0
VERTEX
  8
1400LEVEL
 62
13
 10
-2906.831
 20
71.807
 30
3827.000
 70
    32
  0
VERTEX
  8
1400LEVEL
 62
13
 10
-2901.271
 20
99.639
 30
3827.000
 70
    32
  0
VERTEX
  8
1400LEVEL
 62
13
 10
-2862.350
 20
88.506
 30
3827.000
 70
    32
  0
VERTEX
  8
1400LEVEL
 62
13
 10
-2828.989
 20
38.407
 30
3827.000
 70
    32
  0
VERTEX
  8
1400LEVEL
 62
13
 10
-2745.588
 20
-56.224
 30
3827.000
 70
    32
  0
VERTEX
  8
1400LEVEL
 62
13
 10
-2695.546
 20
-134.156
 30
3827.000
 70
    32
  0
VERTEX
  8
1400LEVEL
 62
13
 10
-2634.385
 20
-223.221
 30
3827.000
 70
    32
  0
VERTEX
  8
1400LEVEL
 62
13
 10
-2539.863
 20
-256.621
 30
3827.000
 70
    32
  0
VERTEX
  8
1400LEVEL
 62
13
 10
-2450.902
 20
-301.153
 30
3827.000
 70
    32
  0
VERTEX
  8
1400LEVEL
 62
13
 10
-2361.940
 20
-379.086
 30
3827.000
 70
    32
  0
VERTEX
  8
1400LEVEL
 62
13
 10
-2245.178
 20
-501.550
 30
3827.000
 70
    32
  0
VERTEX
  8
1400LEVEL
 62
13
 10
-2195.137
 20
-573.915
 30
3827.000
 70
    32
  0
VERTEX
  8
1400LEVEL
 62
13
 10
-2117.295
 20
-662.980
 30
3827.000
 70
    32
  0
VERTEX
  8
1400LEVEL
 62
13
 10
-2039.454
 20
-774.312
 30
3827.000
 70
    32
  0
VERTEX
  8
1400LEVEL
 62
13
 10
-1983.852
 20
-841.111
 30
3827.000
 70
    32
  0
VERTEX
  8
1400LEVEL
 62
13
 10
-1944.932
 20
-913.476
 30
3827.000
 70
    32
  0
VERTEX
  8
1400LEVEL
 62
13
 10
-1883.771
 20
-963.575
 30
3827.000
 70
    32
  0
VERTEX
  8
1400LEVEL
 62
13
 10
-1850.410
 20
-1008.108
 30
3827.000
 70
    32
  0
VERTEX
  8
1400LEVEL
 62
13
 10
-1805.929
 20
-1008.108
 30
3827.000
 70
    32
  0
VERTEX
  8
1400LEVEL
 62
13
 10
-1811.489
 20
-985.841
 30
3827.000
 70
    32
  0
VERTEX
  8
1400LEVEL
 62
13
 10
-1844.850
 20
-913.476
 30
3827.000
 70
    32
  0
VERTEX
  8
1400LEVEL
 62
13
 10
-1855.970
 20
-863.377
 30
3827.000
 70
    32
  0
VERTEX
  8
1400LEVEL
 62
13
 10
-1878.210
 20
-796.578
 30
3827.000
 70
    32
  0
VERTEX
  8
1400LEVEL
 62
13
 10
-1900.451
 20
-735.346
 30
3827.000
 70
    32
  0
VERTEX
  8
1400LEVEL
 62
13
 10
-1956.052
 20
-651.847
 30
3827.000
 70
    32
  0
VERTEX
  8
1400LEVEL
 62
13
 10
-1989.413
 20
-590.615
 30
3827.000
 70
    32
  0
VERTEX
  8
1400LEVEL
 62
13
 10
-2017.213
 20
-495.983
 30
3827.000
 70
    32
  0
VERTEX
  8
1400LEVEL
 62
13
 10
-2083.935
 20
-412.485
 30
3827.000
 70
    32
  0
VERTEX
  8
1400LEVEL
 62
13
 10
-2128.416
 20
-317.853
 30
3827.000
 70
    32
  0
VERTEX
  8
1400LEVEL
 62
13
 10
-2167.336
 20
-223.221
 30
3827.000
 70
    32
  0
VERTEX
  8
1400LEVEL
 62
13
 10
-2228.498
 20
-128.590
 30
3827.000
 70
    32
  0
VERTEX
  8
1400LEVEL
 62
13
 10
-2272.978
 20
-50.658
 30
3827.000
 70
    32
  0
VERTEX
  8
1400LEVEL
 62
13
 10
-2317.459
 20
60.674
 30
3827.000
 70
    32
  0
VERTEX
  8
1400LEVEL
 62
13
 10
-2446.784
 20
150.201
 30
3827.000
 70
    32
  0
VERTEX
  8
1400LEVEL
 62
13
 10
-2500.943
 20
249.937
 30
3827.000
 70
    32
  0
VERTEX
  8
1400LEVEL
 62
13
 10
-2500.943
 20
266.636
 30
3827.000
 70
    32
  0
VERTEX
  8
1400LEVEL
 62
13
 10
-2478.702
 20
272.203
 30
3827.000
 70
    32
  0
VERTEX
  8
1400LEVEL
 62
13
 10
-2439.782
 20
255.503
 30
3827.000
 70
    32
  0
VERTEX
  8
1400LEVEL
 62
13
 10
-2428.661
 20
233.237
 30
3827.000
 70
    32
  0
VERTEX
  8
1400LEVEL
 62
13
 10
-2384.180
 20
210.971
 30
3827.000
 70
    32
  0
VERTEX
  8
1400LEVEL
 62
13
 10
-2389.741
 20
261.070
 30
3827.000
 70
    32
  0
VERTEX
  8
1400LEVEL
 62
13
 10
-2406.421
 20
283.336
 30
3827.000
 70
    32
  0
VERTEX
  8
1400LEVEL
 62
13
 10
-2434.221
 20
327.869
 30
3827.000
 70
    32
  0
VERTEX
  8
1400LEVEL
 62
13
 10
-2456.462
 20
428.067
 30
3827.000
 70
    32
  0
VERTEX
  8
1400LEVEL
 62
13
 10
-2489.822
 20
483.733
 30
3827.000
 70
    32
  0
VERTEX
  8
1400LEVEL
 62
13
 10
-2545.424
 20
567.231
 30
3827.000
 70
    32
  0
VERTEX
  8
1400LEVEL
 62
13
 10
-2573.224
 20
622.897
 30
3827.000
 70
    32
  0
VERTEX
  8
1400LEVEL
 62
13
 10
-2612.145
 20
661.863
 30
3827.000
 70
    32
  0
VERTEX
  8
1400LEVEL
 62
13
 10
-2650.666
 20
730.683
 30
3827.000
 70
    32
  0
VERTEX
  8
1400LEVEL
 62
13
 10
-2734.467
 20
784.328
 30
3827.000
 70
    32
  0
VERTEX
  8
1400LEVEL
 62
13
 10
-2851.230
 20
890.093
 30
3827.000
 70
    32
  0
VERTEX
  8
1400LEVEL
 62
13
 10
-2901.271
 20
890.093
 30
3827.000
 70
    32
  0
VERTEX
  8
1400LEVEL
 62
13
 10
-2951.312
 20
934.625
 30
3827.000
 70
    32
  0
VERTEX
  8
1400LEVEL
 62
13
 10
-2967.992
 20
1057.090
 30
3827.000
 70
    32
  0
VERTEX
  8
1400LEVEL
 62
13
 10
-2944.680
 20
1162.095
 30
3827.000
 70
    32
  0
VERTEX
  8
1400LEVEL
 62
13
 10
-2964.189
 20
1193.011
 30
3827.000
 70
    32
  0
VERTEX
  8
1400LEVEL
 62
13
 10
-3018.327
 20
1239.786
 30
3827.000
 70
    32
  0
VERTEX
  8
1400LEVEL
 62
13
 10
-3040.475
 20
1264.404
 30
3827.000
 70
    32
  0
VERTEX
  8
1400LEVEL
 62
13
 10
-3070.005
 20
1293.947
 30
3827.000
 70
    32
  0
VERTEX
  8
1400LEVEL
 62
13
 10
-3104.457
 20
1313.642
 30
3827.000
 70
    32
  0
VERTEX
  8
1400LEVEL
 62
13
 10
-3133.987
 20
1330.874
 30
3827.000
 70
    32
  0
VERTEX
  8
1400LEVEL
 62
13
 10
-3148.752
 20
1357.955
 30
3827.000
 70
    32
  0
VERTEX
  8
1400LEVEL
 62
13
 10
-3153.673
 20
1385.035
 30
3827.000
 70
    32
  0
VERTEX
  8
1400LEVEL
 62
13
 10
-3138.909
 20
1394.883
 30
3827.000
 70
    32
  0
VERTEX
  8
1400LEVEL
 62
13
 10
-3101.996
 20
1375.188
 30
3827.000
 70
    32
  0
VERTEX
  8
1400LEVEL
 62
13
 10
-3060.162
 20
1343.184
 30
3827.000
 70
    32
  0
VERTEX
  8
1400LEVEL
 62
13
 10
-3008.484
 20
1313.642
 30
3827.000
 70
    32
  0
VERTEX
  8
1400LEVEL
 62
13
 10
-2959.267
 20
1281.638
 30
3827.000
 70
    32
  0
VERTEX
  8
1400LEVEL
 62
13
 10
-2914.972
 20
1257.019
 30
3827.000
 70
    32
  0
VERTEX
  8
1400LEVEL
 62
13
 10
-2892.034
 20
1238.550
 30
3827.000
 70
    32
  0
VERTEX
  8
1400LEVEL
 62
13
 10
-2834.549
 20
1201.820
 30
3827.000
 70
    32
  0
VERTEX
  8
1400LEVEL
 62
13
 10
-2771.350
 20
1199.483
 30
3827.000
 70
    32
  0
VERTEX
  8
1400LEVEL
 62
13
 10
-2702.283
 20
1210.176
 30
3827.000
 70
    32
  0
VERTEX
  8
1400LEVEL
 62
13
 10
-2684.426
 20
1240.786
 30
3827.000
 70
    32
  0
VERTEX
  8
1400LEVEL
 62
13
 10
-2669.527
 20
1308.525
 30
3827.000
 70
    32
  0
VERTEX
  8
1400LEVEL
 62
13
 10
-2658.608
 20
1321.638
 30
3827.000
 70
    32
  0
VERTEX
  8
1400LEVEL
 62
13
 10
-2645.505
 20
1304.153
 30
3827.000
 70
    32
  0
VERTEX
  8
1400LEVEL
 62
13
 10
-2645.505
 20
1235.220
 30
3827.000
 70
    32
  0
VERTEX
  8
1400LEVEL
 62
13
 10
-2617.705
 20
1151.721
 30
3827.000
 70
    32
  0
VERTEX
  8
1400LEVEL
 62
13
 10
-2589.904
 20
1084.922
 30
3827.000
 70
    32
  0
VERTEX
  8
1400LEVEL
 62
13
 10
-2556.544
 20
1001.424
 30
3827.000
 70
    32
  0
VERTEX
  8
1400LEVEL
 62
13
 10
-2500.943
 20
912.359
 30
3827.000
 70
    32
  0
VERTEX
  8
1400LEVEL
 62
13
 10
-2456.462
 20
862.260
 30
3827.000
 70
    32
  0
VERTEX
  8
1400LEVEL
 62
13
 10
-2339.700
 20
812.160
 30
3827.000
 70
    32
  0
VERTEX
  8
1400LEVEL
 62
13
 10
-2289.659
 20
784.328
 30
3827.000
 70
    32
  0
VERTEX
  8
1400LEVEL
 62
13
 10
-2272.084
 20
775.259
 30
3827.000
 70
    32
  0
VERTEX
  8
1400LEVEL
 62
13
 10
-2267.716
 20
751.218
 30
3827.000
 70
    32
  0
VERTEX
  8
1400LEVEL
 62
13
 10
-2267.418
 20
723.095
 30
3827.000
 70
    32
  0
VERTEX
  8
1400LEVEL
 62
13
 10
-2211.817
 20
667.430
 30
3827.000
 70
    32
  0
VERTEX
  8
1400LEVEL
 62
13
 10
-2172.896
 20
628.463
 30
3827.000
 70
    32
  0
VERTEX
  8
1400LEVEL
 62
13
 10
-2128.416
 20
583.931
 30
3827.000
 70
    32
  0
VERTEX
  8
1400LEVEL
 62
13
 10
-2100.615
 20
539.398
 30
3827.000
 70
    32
  0
VERTEX
  8
1400LEVEL
 62
13
 10
-2067.254
 20
494.866
 30
3827.000
 70
    32
  0
VERTEX
  8
1400LEVEL
 62
13
 10
-1917.131
 20
394.668
 30
3827.000
 70
    32
  0
VERTEX
  8
1400LEVEL
 62
13
 10
-1878.210
 20
305.603
 30
3827.000
 70
    32
  0
VERTEX
  8
1400LEVEL
 62
13
 10
-1761.448
 20
183.138
 30
3827.000
 70
    32
  0
VERTEX
  8
1400LEVEL
 62
13
 10
-1689.167
 20
127.472
 30
3827.000
 70
    32
  0
VERTEX
  8
1400LEVEL
 62
13
 10
-1639.126
 20
77.373
 30
3827.000
 70
    32
  0
VERTEX
  8
1400LEVEL
 62
13
 10
-1594.645
 20
27.274
 30
3827.000
 70
    32
  0
VERTEX
  8
1400LEVEL
 62
13
 10
-1550.164
 20
-6.125
 30
3827.000
 70
    32
  0
VERTEX
  8
1400LEVEL
 62
13
 10
-1461.203
 20
-139.723
 30
3827.000
 70
    32
  0
VERTEX
  8
1400LEVEL
 62
13
 10
-1416.722
 20
-178.689
 30
3827.000
 70
    32
  0
SEQEND
  8
1400LEVEL
  0
POLYLINE
  8
1400LEVEL
 62
13
 66
     1
 70
     8
  0
VERTEX
  8
1400LEVEL
 62
13
 10
-1411.399
 20
-188.092
 30
3827.000
 70
    32
  0
VERTEX
  8
1400LEVEL
 62
13
 10
-1364.643
 20
-254.562
 30
3827.000
 70
    32
  0
VERTEX
  8
1400LEVEL
 62
13
 10
-1315.426
 20
-301.338
 30
3827.000
 70
    32
  0
VERTEX
  8
1400LEVEL
 62
13
 10
-1293.278
 20
-345.651
 30
3827.000
 70
    32
  0
VERTEX
  8
1400LEVEL
 62
13
 10
-1269.726
 20
-371.084
 30
3827.000
 70
    32
  0
VERTEX
  8
1400LEVEL
 62
13
 10
-1150.183
 20
-518.598
 30
3827.000
 70
    32
  0
VERTEX
  8
1400LEVEL
 62
13
 10
-1125.163
 20
-563.130
 30
3827.000
 70
    32
  0
VERTEX
  8
1400LEVEL
 62
13
 10
-1100.142
 20
-602.097
 30
3827.000
 70
    32
  0
VERTEX
  8
1400LEVEL
 62
13
 10
-1080.682
 20
-641.062
 30
3827.000
 70
    32
  0
VERTEX
  8
1400LEVEL
 62
13
 10
-1069.562
 20
-685.595
 30
3827.000
 70
    32
  0
VERTEX
  8
1400LEVEL
 62
13
 10
-1058.442
 20
-713.428
 30
3827.000
 70
    32
  0
VERTEX
  8
1400LEVEL
 62
13
 10
-1036.201
 20
-732.911
 30
3827.000
 70
    32
  0
VERTEX
  8
1400LEVEL
 62
13
 10
-1019.520
 20
-724.561
 30
3827.000
 70
    32
  0
VERTEX
  8
1400LEVEL
 62
13
 10
-1019.520
 20
-680.028
 30
3827.000
 70
    32
  0
VERTEX
  8
1400LEVEL
 62
13
 10
-1013.960
 20
-632.713
 30
3827.000
 70
    32
  0
VERTEX
  8
1400LEVEL
 62
13
 10
-1019.520
 20
-551.997
 30
3827.000
 70
    32
  0
VERTEX
  8
1400LEVEL
 62
13
 10
-1022.301
 20
-521.381
 30
3827.000
 70
    32
  0
VERTEX
  8
1400LEVEL
 62
13
 10
-1038.981
 20
-479.632
 30
3827.000
 70
    32
  0
VERTEX
  8
1400LEVEL
 62
13
 10
-1052.881
 20
-457.365
 30
3827.000
 70
    32
  0
VERTEX
  8
1400LEVEL
 62
13
 10
-1047.321
 20
-440.666
 30
3827.000
 70
    32
  0
VERTEX
  8
1400LEVEL
 62
13
 10
-1036.201
 20
-454.582
 30
3827.000
 70
    32
  0
VERTEX
  8
1400LEVEL
 62
13
 10
-1022.301
 20
-468.499
 30
3827.000
 70
    32
  0
VERTEX
  8
1400LEVEL
 62
13
 10
-1000.060
 20
-518.598
 30
3827.000
 70
    32
  0
VERTEX
  8
1400LEVEL
 62
13
 10
-991.720
 20
-540.864
 30
3827.000
 70
    32
  0
VERTEX
  8
1400LEVEL
 62
13
 10
-969.480
 20
-579.830
 30
3827.000
 70
    32
  0
VERTEX
  8
1400LEVEL
 62
13
 10
-961.140
 20
-568.697
 30
3827.000
 70
    32
  0
VERTEX
  8
1400LEVEL
 62
13
 10
-991.720
 20
-474.065
 30
3827.000
 70
    32
  0
VERTEX
  8
1400LEVEL
 62
13
 10
-1052.881
 20
-385.000
 30
3827.000
 70
    32
  0
VERTEX
  8
1400LEVEL
 62
13
 10
-1058.442
 20
-301.502
 30
3827.000
 70
    32
  0
VERTEX
  8
1400LEVEL
 62
13
 10
-1086.242
 20
-220.786
 30
3827.000
 70
    32
  0
VERTEX
  8
1400LEVEL
 62
13
 10
-1114.043
 20
-137.288
 30
3827.000
 70
    32
  0
VERTEX
  8
1400LEVEL
 62
13
 10
-1127.943
 20
-84.405
 30
3827.000
 70
    32
  0
VERTEX
  8
1400LEVEL
 62
13
 10
-1139.063
 20
-20.390
 30
3827.000
 70
    32
  0
VERTEX
  8
1400LEVEL
 62
13
 10
-1164.084
 20
21.359
 30
3827.000
 70
    32
  0
VERTEX
  8
1400LEVEL
 62
13
 10
-1169.644
 20
51.975
 30
3827.000
 70
    32
  0
VERTEX
  8
1400LEVEL
 62
13
 10
-1180.764
 20
82.592
 30
3827.000
 70
    32
  0
VERTEX
  8
1400LEVEL
 62
13
 10
-1203.004
 20
113.208
 30
3827.000
 70
    32
  0
VERTEX
  8
1400LEVEL
 62
13
 10
-1205.784
 20
107.641
 30
3827.000
 70
    32
  0
VERTEX
  8
1400LEVEL
 62
13
 10
-1200.224
 20
82.592
 30
3827.000
 70
    32
  0
VERTEX
  8
1400LEVEL
 62
13
 10
-1194.664
 20
68.675
 30
3827.000
 70
    32
  0
VERTEX
  8
1400LEVEL
 62
13
 10
-1205.784
 20
57.542
 30
3827.000
 70
    32
  0
VERTEX
  8
1400LEVEL
 62
13
 10
-1216.904
 20
88.158
 30
3827.000
 70
    32
  0
VERTEX
  8
1400LEVEL
 62
13
 10
-1225.245
 20
138.257
 30
3827.000
 70
    32
  0
VERTEX
  8
1400LEVEL
 62
13
 10
-1244.705
 20
202.273
 30
3827.000
 70
    32
  0
VERTEX
  8
1400LEVEL
 62
13
 10
-1280.846
 20
282.988
 30
3827.000
 70
    32
  0
VERTEX
  8
1400LEVEL
 62
13
 10
-1303.086
 20
324.737
 30
3827.000
 70
    32
  0
VERTEX
  8
1400LEVEL
 62
13
 10
-1342.007
 20
388.753
 30
3827.000
 70
    32
  0
VERTEX
  8
1400LEVEL
 62
13
 10
-1372.587
 20
430.502
 30
3827.000
 70
    32
  0
VERTEX
  8
1400LEVEL
 62
13
 10
-1400.388
 20
491.734
 30
3827.000
 70
    32
  0
VERTEX
  8
1400LEVEL
 62
13
 10
-1433.749
 20
561.316
 30
3827.000
 70
    32
  0
VERTEX
  8
1400LEVEL
 62
13
 10
-1475.450
 20
622.549
 30
3827.000
 70
    32
  0
VERTEX
  8
1400LEVEL
 62
13
 10
-1511.590
 20
669.865
 30
3827.000
 70
    32
  0
VERTEX
  8
1400LEVEL
 62
13
 10
-1553.291
 20
711.614
 30
3827.000
 70
    32
  0
VERTEX
  8
1400LEVEL
 62
13
 10
-1611.672
 20
772.846
 30
3827.000
 70
    32
  0
VERTEX
  8
1400LEVEL
 62
13
 10
-1639.472
 20
822.945
 30
3827.000
 70
    32
  0
VERTEX
  8
1400LEVEL
 62
13
 10
-1653.373
 20
861.911
 30
3827.000
 70
    32
  0
VERTEX
  8
1400LEVEL
 62
13
 10
-1667.273
 20
914.794
 30
3827.000
 70
    32
  0
VERTEX
  8
1400LEVEL
 62
13
 10
-1681.173
 20
950.976
 30
3827.000
 70
    32
  0
VERTEX
  8
1400LEVEL
 62
13
 10
-1723.961
 20
987.254
 30
3827.000
 70
    32
  0
VERTEX
  8
1400LEVEL
 62
13
 10
-1854.986
 20
1177.394
 30
3827.000
 70
    32
  0
VERTEX
  8
1400LEVEL
 62
13
 10
-1929.234
 20
1271.371
 30
3827.000
 70
    32
  0
VERTEX
  8
1400LEVEL
 62
13
 10
-1961.990
 20
1319.452
 30
3827.000
 70
    32
  0
VERTEX
  8
1400LEVEL
 62
13
 10
-1977.277
 20
1334.751
 30
3827.000
 70
    32
  0
VERTEX
  8
1400LEVEL
 62
13
 10
-1977.277
 20
1343.493
 30
3827.000
 70
    32
  0
VERTEX
  8
1400LEVEL
 62
13
 10
-1955.439
 20
1341.307
 30
3827.000
 70
    32
  0
VERTEX
  8
1400LEVEL
 62
13
 10
-1935.785
 20
1332.565
 30
3827.000
 70
    32
  0
VERTEX
  8
1400LEVEL
 62
13
 10
-1907.397
 20
1315.081
 30
3827.000
 70
    32
  0
VERTEX
  8
1400LEVEL
 62
13
 10
-1868.089
 20
1258.258
 30
3827.000
 70
    32
  0
VERTEX
  8
1400LEVEL
 62
13
 10
-1822.230
 20
1186.136
 30
3827.000
 70
    32
  0
VERTEX
  8
1400LEVEL
 62
13
 10
-1728.329
 20
1052.819
 30
3827.000
 70
    32
  0
VERTEX
  8
1400LEVEL
 62
13
 10
-1692.294
 20
998.292
 30
3827.000
 70
    32
  0
VERTEX
  8
1400LEVEL
 62
13
 10
-1664.493
 20
981.593
 30
3827.000
 70
    32
  0
VERTEX
  8
1400LEVEL
 62
13
 10
-1650.593
 20
959.326
 30
3827.000
 70
    32
  0
VERTEX
  8
1400LEVEL
 62
13
 10
-1636.693
 20
925.927
 30
3827.000
 70
    32
  0
VERTEX
  8
1400LEVEL
 62
13
 10
-1614.452
 20
856.345
 30
3827.000
 70
    32
  0
VERTEX
  8
1400LEVEL
 62
13
 10
-1583.871
 20
817.379
 30
3827.000
 70
    32
  0
VERTEX
  8
1400LEVEL
 62
13
 10
-1536.611
 20
747.796
 30
3827.000
 70
    32
  0
VERTEX
  8
1400LEVEL
 62
13
 10
-1500.470
 20
703.264
 30
3827.000
 70
    32
  0
VERTEX
  8
1400LEVEL
 62
13
 10
-1469.889
 20
664.298
 30
3827.000
 70
    32
  0
VERTEX
  8
1400LEVEL
 62
13
 10
-1430.969
 20
625.332
 30
3827.000
 70
    32
  0
VERTEX
  8
1400LEVEL
 62
13
 10
-1405.948
 20
580.799
 30
3827.000
 70
    32
  0
VERTEX
  8
1400LEVEL
 62
13
 10
-1369.808
 20
564.100
 30
3827.000
 70
    32
  0
VERTEX
  8
1400LEVEL
 62
13
 10
-1347.567
 20
539.050
 30
3827.000
 70
    32
  0
VERTEX
  8
1400LEVEL
 62
13
 10
-1336.447
 20
522.351
 30
3827.000
 70
    32
  0
VERTEX
  8
1400LEVEL
 62
13
 10
-1319.767
 20
505.651
 30
3827.000
 70
    32
  0
VERTEX
  8
1400LEVEL
 62
13
 10
-1325.327
 20
502.868
 30
3827.000
 70
    32
  0
VERTEX
  8
1400LEVEL
 62
13
 10
-1328.107
 20
505.651
 30
3827.000
 70
    32
  0
VERTEX
  8
1400LEVEL
 62
13
 10
-1347.567
 20
519.567
 30
3827.000
 70
    32
  0
VERTEX
  8
1400LEVEL
 62
13
 10
-1353.127
 20
522.351
 30
3827.000
 70
    32
  0
VERTEX
  8
1400LEVEL
 62
13
 10
-1355.907
 20
511.217
 30
3827.000
 70
    32
  0
VERTEX
  8
1400LEVEL
 62
13
 10
-1344.787
 20
497.301
 30
3827.000
 70
    32
  0
VERTEX
  8
1400LEVEL
 62
13
 10
-1314.206
 20
463.902
 30
3827.000
 70
    32
  0
VERTEX
  8
1400LEVEL
 62
13
 10
-1269.726
 20
424.936
 30
3827.000
 70
    32
  0
VERTEX
  8
1400LEVEL
 62
13
 10
-1264.166
 20
413.802
 30
3827.000
 70
    32
  0
VERTEX
  8
1400LEVEL
 62
13
 10
-1258.605
 20
413.802
 30
3827.000
 70
    32
  0
VERTEX
  8
1400LEVEL
 62
13
 10
-1261.385
 20
433.285
 30
3827.000
 70
    32
  0
VERTEX
  8
1400LEVEL
 62
13
 10
-1258.605
 20
438.852
 30
3827.000
 70
    32
  0
VERTEX
  8
1400LEVEL
 62
13
 10
-1225.245
 20
416.586
 30
3827.000
 70
    32
  0
VERTEX
  8
1400LEVEL
 62
13
 10
-1194.664
 20
385.969
 30
3827.000
 70
    32
  0
VERTEX
  8
1400LEVEL
 62
13
 10
-1186.324
 20
352.570
 30
3827.000
 70
    32
  0
VERTEX
  8
1400LEVEL
 62
13
 10
-1169.644
 20
327.521
 30
3827.000
 70
    32
  0
VERTEX
  8
1400LEVEL
 62
13
 10
-1136.283
 20
305.254
 30
3827.000
 70
    32
  0
VERTEX
  8
1400LEVEL
 62
13
 10
-1116.823
 20
277.422
 30
3827.000
 70
    32
  0
VERTEX
  8
1400LEVEL
 62
13
 10
-1102.922
 20
257.939
 30
3827.000
 70
    32
  0
VERTEX
  8
1400LEVEL
 62
13
 10
-1072.342
 20
227.322
 30
3827.000
 70
    32
  0
VERTEX
  8
1400LEVEL
 62
13
 10
-1058.442
 20
210.623
 30
3827.000
 70
    32
  0
VERTEX
  8
1400LEVEL
 62
13
 10
-1027.861
 20
193.923
 30
3827.000
 70
    32
  0
VERTEX
  8
1400LEVEL
 62
13
 10
-1008.400
 20
191.139
 30
3827.000
 70
    32
  0
VERTEX
  8
1400LEVEL
 62
13
 10
-994.500
 20
205.056
 30
3827.000
 70
    32
  0
VERTEX
  8
1400LEVEL
 62
13
 10
-1013.960
 20
244.022
 30
3827.000
 70
    32
  0
VERTEX
  8
1400LEVEL
 62
13
 10
-1058.442
 20
285.771
 30
3827.000
 70
    32
  0
VERTEX
  8
1400LEVEL
 62
13
 10
-1091.802
 20
313.604
 30
3827.000
 70
    32
  0
VERTEX
  8
1400LEVEL
 62
13
 10
-1125.163
 20
358.137
 30
3827.000
 70
    32
  0
VERTEX
  8
1400LEVEL
 62
13
 10
-1150.183
 20
411.019
 30
3827.000
 70
    32
  0
VERTEX
  8
1400LEVEL
 62
13
 10
-1175.204
 20
447.202
 30
3827.000
 70
    32
  0
VERTEX
  8
1400LEVEL
 62
13
 10
-1208.564
 20
494.518
 30
3827.000
 70
    32
  0
VERTEX
  8
1400LEVEL
 62
13
 10
-1261.385
 20
575.233
 30
3827.000
 70
    32
  0
VERTEX
  8
1400LEVEL
 62
13
 10
-1275.286
 20
608.632
 30
3827.000
 70
    32
  0
VERTEX
  8
1400LEVEL
 62
13
 10
-1302.692
 20
667.588
 30
3827.000
 70
    32
  0
VERTEX
  8
1400LEVEL
 62
13
 10
-1358.687
 20
722.747
 30
3827.000
 70
    32
  0
VERTEX
  8
1400LEVEL
 62
13
 10
-1403.168
 20
783.979
 30
3827.000
 70
    32
  0
VERTEX
  8
1400LEVEL
 62
13
 10
-1453.209
 20
831.295
 30
3827.000
 70
    32
  0
VERTEX
  8
1400LEVEL
 62
13
 10
-1503.250
 20
886.961
 30
3827.000
 70
    32
  0
VERTEX
  8
1400LEVEL
 62
13
 10
-1547.731
 20
937.060
 30
3827.000
 70
    32
  0
VERTEX
  8
1400LEVEL
 62
13
 10
-1592.936
 20
1033.150
 30
3827.000
 70
    32
  0
VERTEX
  8
1400LEVEL
 62
13
 10
-1753.519
 20
1205.258
 30
3827.000
 70
    32
  0
VERTEX
  8
1400LEVEL
 62
13
 10
-1769.820
 20
1247.330
 30
3827.000
 70
    32
  0
VERTEX
  8
1400LEVEL
 62
13
 10
-1782.922
 20
1277.927
 30
3827.000
 70
    32
  0
VERTEX
  8
1400LEVEL
 62
13
 10
-1848.015
 20
1354.939
 30
3827.000
 70
    32
  0
VERTEX
  8
1400LEVEL
 62
13
 10
-1871.576
 20
1377.650
 30
3827.000
 70
    32
  0
VERTEX
  8
1400LEVEL
 62
13
 10
-1874.037
 20
1394.883
 30
3827.000
 70
    32
  0
VERTEX
  8
1400LEVEL
 62
13
 10
-1864.193
 20
1397.345
 30
3827.000
 70
    32
  0
VERTEX
  8
1400LEVEL
 62
13
 10
-1839.585
 20
1387.497
 30
3827.000
 70
    32
  0
VERTEX
  8
1400LEVEL
 62
13
 10
-1819.898
 20
1375.188
 30
3827.000
 70
    32
  0
VERTEX
  8
1400LEVEL
 62
13
 10
-1787.907
 20
1345.646
 30
3827.000
 70
    32
  0
VERTEX
  8
1400LEVEL
 62
13
 10
-1761.085
 20
1315.081
 30
3827.000
 70
    32
  0
VERTEX
  8
1400LEVEL
 62
13
 10
-1730.512
 20
1301.968
 30
3827.000
 70
    32
  0
VERTEX
  8
1400LEVEL
 62
13
 10
-1698.396
 20
1244.648
 30
3827.000
 70
    32
  0
VERTEX
  8
1400LEVEL
 62
13
 10
-1658.448
 20
1199.249
 30
3827.000
 70
    32
  0
VERTEX
  8
1400LEVEL
 62
13
 10
-1610.406
 20
1124.941
 30
3827.000
 70
    32
  0
VERTEX
  8
1400LEVEL
 62
13
 10
-1555.812
 20
1072.489
 30
3827.000
 70
    32
  0
VERTEX
  8
1400LEVEL
 62
13
 10
-1516.504
 20
1028.778
 30
3827.000
 70
    32
  0
VERTEX
  8
1400LEVEL
 62
13
 10
-1481.564
 20
976.326
 30
3827.000
 70
    32
  0
VERTEX
  8
1400LEVEL
 62
13
 10
-1424.787
 20
897.648
 30
3827.000
 70
    32
  0
VERTEX
  8
1400LEVEL
 62
13
 10
-1386.488
 20
845.211
 30
3827.000
 70
    32
  0
VERTEX
  8
1400LEVEL
 62
13
 10
-1358.687
 20
809.029
 30
3827.000
 70
    32
  0
VERTEX
  8
1400LEVEL
 62
13
 10
-1325.327
 20
764.496
 30
3827.000
 70
    32
  0
VERTEX
  8
1400LEVEL
 62
13
 10
-1269.726
 20
697.697
 30
3827.000
 70
    32
  0
VERTEX
  8
1400LEVEL
 62
13
 10
-1241.925
 20
675.431
 30
3827.000
 70
    32
  0
VERTEX
  8
1400LEVEL
 62
13
 10
-1214.125
 20
647.599
 30
3827.000
 70
    32
  0
VERTEX
  8
1400LEVEL
 62
13
 10
-1191.884
 20
630.899
 30
3827.000
 70
    32
  0
VERTEX
  8
1400LEVEL
 62
13
 10
-1172.424
 20
614.199
 30
3827.000
 70
    32
  0
VERTEX
  8
1400LEVEL
 62
13
 10
-1147.403
 20
597.499
 30
3827.000
 70
    32
  0
VERTEX
  8
1400LEVEL
 62
13
 10
-1116.823
 20
561.316
 30
3827.000
 70
    32
  0
VERTEX
  8
1400LEVEL
 62
13
 10
-1105.702
 20
533.484
 30
3827.000
 70
    32
  0
VERTEX
  8
1400LEVEL
 62
13
 10
-1091.802
 20
505.651
 30
3827.000
 70
    32
  0
VERTEX
  8
1400LEVEL
 62
13
 10
-1061.221
 20
477.818
 30
3827.000
 70
    32
  0
VERTEX
  8
1400LEVEL
 62
13
 10
-1041.761
 20
449.985
 30
3827.000
 70
    32
  0
VERTEX
  8
1400LEVEL
 62
13
 10
-1036.201
 20
433.285
 30
3827.000
 70
    32
  0
VERTEX
  8
1400LEVEL
 62
13
 10
-1036.201
 20
408.236
 30
3827.000
 70
    32
  0
VERTEX
  8
1400LEVEL
 62
13
 10
-1019.520
 20
394.319
 30
3827.000
 70
    32
  0
VERTEX
  8
1400LEVEL
 62
13
 10
-1013.960
 20
394.319
 30
3827.000
 70
    32
  0
VERTEX
  8
1400LEVEL
 62
13
 10
-991.720
 20
394.319
 30
3827.000
 70
    32
  0
VERTEX
  8
1400LEVEL
 62
13
 10
-969.480
 20
349.787
 30
3827.000
 70
    32
  0
VERTEX
  8
1400LEVEL
 62
13
 10
-950.019
 20
321.954
 30
3827.000
 70
    32
  0
VERTEX
  8
1400LEVEL
 62
13
 10
-947.239
 20
302.471
 30
3827.000
 70
    32
  0
VERTEX
  8
1400LEVEL
 62
13
 10
-919.439
 20
263.505
 30
3827.000
 70
    32
  0
VERTEX
  8
1400LEVEL
 62
13
 10
-886.078
 20
227.322
 30
3827.000
 70
    32
  0
VERTEX
  8
1400LEVEL
 62
13
 10
-872.178
 20
182.790
 30
3827.000
 70
    32
  0
VERTEX
  8
1400LEVEL
 62
13
 10
-855.498
 20
149.390
 30
3827.000
 70
    32
  0
VERTEX
  8
1400LEVEL
 62
13
 10
-819.357
 20
121.557
 30
3827.000
 70
    32
  0
VERTEX
  8
1400LEVEL
 62
13
 10
-794.336
 20
88.158
 30
3827.000
 70
    32
  0
VERTEX
  8
1400LEVEL
 62
13
 10
-772.096
 20
-20.390
 30
3827.000
 70
    32
  0
VERTEX
  8
1400LEVEL
 62
13
 10
-733.175
 20
-167.904
 30
3827.000
 70
    32
  0
VERTEX
  8
1400LEVEL
 62
13
 10
-713.715
 20
-204.087
 30
3827.000
 70
    32
  0
VERTEX
  8
1400LEVEL
 62
13
 10
-702.594
 20
-262.536
 30
3827.000
 70
    32
  0
VERTEX
  8
1400LEVEL
 62
13
 10
-674.794
 20
-298.719
 30
3827.000
 70
    32
  0
VERTEX
  8
1400LEVEL
 62
13
 10
-646.993
 20
-337.685
 30
3827.000
 70
    32
  0
VERTEX
  8
1400LEVEL
 62
13
 10
-627.533
 20
-376.651
 30
3827.000
 70
    32
  0
VERTEX
  8
1400LEVEL
 62
13
 10
-613.632
 20
-429.533
 30
3827.000
 70
    32
  0
VERTEX
  8
1400LEVEL
 62
13
 10
-580.272
 20
-474.066
 30
3827.000
 70
    32
  0
VERTEX
  8
1400LEVEL
 62
13
 10
-558.031
 20
-499.115
 30
3827.000
 70
    32
  0
VERTEX
  8
1400LEVEL
 62
13
 10
-541.351
 20
-557.564
 30
3827.000
 70
    32
  0
VERTEX
  8
1400LEVEL
 62
13
 10
-491.310
 20
-638.279
 30
3827.000
 70
    32
  0
VERTEX
  8
1400LEVEL
 62
13
 10
-449.609
 20
-724.561
 30
3827.000
 70
    32
  0
VERTEX
  8
1400LEVEL
 62
13
 10
-430.149
 20
-824.759
 30
3827.000
 70
    32
  0
VERTEX
  8
1400LEVEL
 62
13
 10
-399.569
 20
-885.992
 30
3827.000
 70
    32
  0
VERTEX
  8
1400LEVEL
 62
13
 10
-380.108
 20
-922.174
 30
3827.000
 70
    32
  0
VERTEX
  8
1400LEVEL
 62
13
 10
-341.187
 20
-983.407
 30
3827.000
 70
    32
  0
VERTEX
  8
1400LEVEL
 62
13
 10
-305.047
 20
-1019.589
 30
3827.000
 70
    32
  0
VERTEX
  8
1400LEVEL
 62
13
 10
-268.906
 20
-1069.688
 30
3827.000
 70
    32
  0
VERTEX
  8
1400LEVEL
 62
13
 10
-191.064
 20
-1161.537
 30
3827.000
 70
    32
  0
VERTEX
  8
1400LEVEL
 62
13
 10
-152.144
 20
-1211.636
 30
3827.000
 70
    32
  0
VERTEX
  8
1400LEVEL
 62
13
 10
-121.563
 20
-1256.168
 30
3827.000
 70
    32
  0
VERTEX
  8
1400LEVEL
 62
13
 10
-102.103
 20
-1297.918
 30
3827.000
 70
    32
  0
VERTEX
  8
1400LEVEL
 62
13
 10
-57.622
 20
-1328.534
 30
3827.000
 70
    32
  0
VERTEX
  8
1400LEVEL
 62
13
 10
-49.281
 20
-1361.933
 30
3827.000
 70
    32
  0
VERTEX
  8
1400LEVEL
 62
13
 10
-49.281
 20
-1403.682
 30
3827.000
 70
    32
  0
VERTEX
  8
1400LEVEL
 62
13
 10
-43.721
 20
-1448.215
 30
3827.000
 70
    32
  0
VERTEX
  8
1400LEVEL
 62
13
 10
-40.942
 20
-1470.481
 30
3827.000
 70
    32
  0
VERTEX
  8
1400LEVEL
 62
13
 10
-2.021
 20
-1512.230
 30
3827.000
 70
    32
  0
VERTEX
  8
1400LEVEL
 62
13
 10
20.220
 20
-1523.363
 30
3827.000
 70
    32
  0
VERTEX
  8
1400LEVEL
 62
13
 10
20.220
 20
-1481.614
 30
3827.000
 70
    32
  0
VERTEX
  8
1400LEVEL
 62
13
 10
9.099
 20
-1403.682
 30
3827.000
 70
    32
  0
VERTEX
  8
1400LEVEL
 62
13
 10
0.759
 20
-1361.933
 30
3827.000
 70
    32
  0
VERTEX
  8
1400LEVEL
 62
13
 10
-7.581
 20
-1328.534
 30
3827.000
 70
    32
  0
VERTEX
  8
1400LEVEL
 62
13
 10
-13.141
 20
-1300.701
 30
3827.000
 70
    32
  0
VERTEX
  8
1400LEVEL
 62
13
 10
-32.601
 20
-1267.301
 30
3827.000
 70
    32
  0
VERTEX
  8
1400LEVEL
 62
13
 10
-54.842
 20
-1225.552
 30
3827.000
 70
    32
  0
VERTEX
  8
1400LEVEL
 62
13
 10
-102.103
 20
-1186.586
 30
3827.000
 70
    32
  0
VERTEX
  8
1400LEVEL
 62
13
 10
-157.704
 20
-1130.921
 30
3827.000
 70
    32
  0
VERTEX
  8
1400LEVEL
 62
13
 10
-202.185
 20
-1069.688
 30
3827.000
 70
    32
  0
VERTEX
  8
1400LEVEL
 62
13
 10
-235.545
 20
-1027.939
 30
3827.000
 70
    32
  0
VERTEX
  8
1400LEVEL
 62
13
 10
-277.246
 20
-994.540
 30
3827.000
 70
    32
  0
VERTEX
  8
1400LEVEL
 62
13
 10
-307.827
 20
-966.707
 30
3827.000
 70
    32
  0
VERTEX
  8
1400LEVEL
 62
13
 10
-330.067
 20
-933.307
 30
3827.000
 70
    32
  0
VERTEX
  8
1400LEVEL
 62
13
 10
-346.747
 20
-902.691
 30
3827.000
 70
    32
  0
VERTEX
  8
1400LEVEL
 62
13
 10
-363.428
 20
-863.725
 30
3827.000
 70
    32
  0
VERTEX
  8
1400LEVEL
 62
13
 10
-368.988
 20
-816.410
 30
3827.000
 70
    32
  0
VERTEX
  8
1400LEVEL
 62
13
 10
-377.328
 20
-788.577
 30
3827.000
 70
    32
  0
VERTEX
  8
1400LEVEL
 62
13
 10
-410.689
 20
-713.428
 30
3827.000
 70
    32
  0
VERTEX
  8
1400LEVEL
 62
13
 10
-424.589
 20
-685.595
 30
3827.000
 70
    32
  0
VERTEX
  8
1400LEVEL
 62
13
 10
-446.829
 20
-607.663
 30
3827.000
 70
    32
  0
VERTEX
  8
1400LEVEL
 62
13
 10
-452.389
 20
-549.214
 30
3827.000
 70
    32
  0
VERTEX
  8
1400LEVEL
 62
13
 10
-491.310
 20
-482.416
 30
3827.000
 70
    32
  0
VERTEX
  8
1400LEVEL
 62
13
 10
-494.090
 20
-437.883
 30
3827.000
 70
    32
  0
VERTEX
  8
1400LEVEL
 62
13
 10
-502.430
 20
-396.134
 30
3827.000
 70
    32
  0
VERTEX
  8
1400LEVEL
 62
13
 10
-502.430
 20
-368.301
 30
3827.000
 70
    32
  0
VERTEX
  8
1400LEVEL
 62
13
 10
-491.310
 20
-348.818
 30
3827.000
 70
    32
  0
VERTEX
  8
1400LEVEL
 62
13
 10
-469.070
 20
-359.951
 30
3827.000
 70
    32
  0
VERTEX
  8
1400LEVEL
 62
13
 10
-446.829
 20
-376.651
 30
3827.000
 70
    32
  0
VERTEX
  8
1400LEVEL
 62
13
 10
-435.709
 20
-415.616
 30
3827.000
 70
    32
  0
VERTEX
  8
1400LEVEL
 62
13
 10
-427.369
 20
-465.716
 30
3827.000
 70
    32
  0
VERTEX
  8
1400LEVEL
 62
13
 10
-402.348
 20
-510.248
 30
3827.000
 70
    32
  0
VERTEX
  8
1400LEVEL
 62
13
 10
-388.448
 20
-557.564
 30
3827.000
 70
    32
  0
VERTEX
  8
1400LEVEL
 62
13
 10
-357.868
 20
-621.580
 30
3827.000
 70
    32
  0
VERTEX
  8
1400LEVEL
 62
13
 10
-324.507
 20
-716.211
 30
3827.000
 70
    32
  0
VERTEX
  8
1400LEVEL
 62
13
 10
-257.786
 20
-827.542
 30
3827.000
 70
    32
  0
VERTEX
  8
1400LEVEL
 62
13
 10
-224.425
 20
-888.775
 30
3827.000
 70
    32
  0
VERTEX
  8
1400LEVEL
 62
13
 10
-196.624
 20
-938.874
 30
3827.000
 70
    32
  0
VERTEX
  8
1400LEVEL
 62
13
 10
-163.264
 20
-994.540
 30
3827.000
 70
    32
  0
VERTEX
  8
1400LEVEL
 62
13
 10
-99.322
 20
-1058.555
 30
3827.000
 70
    32
  0
VERTEX
  8
1400LEVEL
 62
13
 10
-52.062
 20
-1130.921
 30
3827.000
 70
    32
  0
VERTEX
  8
1400LEVEL
 62
13
 10
-24.261
 20
-1181.019
 30
3827.000
 70
    32
  0
VERTEX
  8
1400LEVEL
 62
13
 10
11.880
 20
-1242.252
 30
3827.000
 70
    32
  0
VERTEX
  8
1400LEVEL
 62
13
 10
59.140
 20
-1317.401
 30
3827.000
 70
    32
  0
VERTEX
  8
1400LEVEL
 62
13
 10
75.821
 20
-1361.933
 30
3827.000
 70
    32
  0
VERTEX
  8
1400LEVEL
 62
13
 10
98.061
 20
-1409.249
 30
3827.000
 70
    32
  0
VERTEX
  8
1400LEVEL
 62
13
 10
120.302
 20
-1450.998
 30
3827.000
 70
    32
  0
VERTEX
  8
1400LEVEL
 62
13
 10
142.542
 20
-1495.531
 30
3827.000
 70
    32
  0
VERTEX
  8
1400LEVEL
 62
13
 10
181.463
 20
-1540.063
 30
3827.000
 70
    32
  0
SEQEND
  8
1400LEVEL
  0
ENDSEC
  0
EOF
