999
********************************
999
*   DXF File - Entities Only   *
999
*        3D Data Format        *
999
*     Output from ENVISAGE     *
999
*     28-Dec-2007 13:46:10     *
999
********************************
  0
SECTION 
  2
HEADER
  9
$ACADVER
  1
AC1009
  9
$EXTMIN
 10
-290000.000
 20
-250000.000
 30
-4000.000
  9
$EXTMAX
 10
5000000.000
 20
600000.000
 30
6000.000
  0
ENDSEC
  0
SECTION
  2
ENTITIES
  0
POLYLINE
  8
1550LEVEL
 62
5
 66
     1
 70
     9
  0
VERTEX
  8
1550LEVEL
 62
5
 10
-1737.119
 20
113.709
 30
3677.000
 70
    32
  0
VERTEX
  8
1550LEVEL
 62
5
 10
-1767.819
 20
97.840
 30
3677.000
 70
    32
  0
VERTEX
  8
1550LEVEL
 62
5
 10
-1755.242
 20
84.788
 30
3677.000
 70
    32
  0
VERTEX
  8
1550LEVEL
 62
5
 10
-1730.968
 20
104.685
 30
3677.000
 70
    32
  0
SEQEND
  8
1550LEVEL
  0
POLYLINE
  8
1550LEVEL
 62
5
 66
     1
 70
     9
  0
VERTEX
  8
1550LEVEL
 62
5
 10
-1456.151
 20
-1437.047
 30
3677.000
 70
    32
  0
VERTEX
  8
1550LEVEL
 62
5
 10
-1407.594
 20
-1418.171
 30
3677.000
 70
    32
  0
VERTEX
  8
1550LEVEL
 62
5
 10
-1371.215
 20
-1377.234
 30
3677.000
 70
    32
  0
VERTEX
  8
1550LEVEL
 62
5
 10
-1343.094
 20
-1321.400
 30
3677.000
 70
    32
  0
VERTEX
  8
1550LEVEL
 62
5
 10
-1314.965
 20
-1254.228
 30
3677.000
 70
    32
  0
VERTEX
  8
1550LEVEL
 62
5
 10
-1327.068
 20
-1215.548
 30
3677.000
 70
    32
  0
VERTEX
  8
1550LEVEL
 62
5
 10
-1342.930
 20
-1265.485
 30
3677.000
 70
    32
  0
VERTEX
  8
1550LEVEL
 62
5
 10
-1375.652
 20
-1279.778
 30
3677.000
 70
    32
  0
VERTEX
  8
1550LEVEL
 62
5
 10
-1390.730
 20
-1318.245
 30
3677.000
 70
    32
  0
VERTEX
  8
1550LEVEL
 62
5
 10
-1422.535
 20
-1370.228
 30
3677.000
 70
    32
  0
VERTEX
  8
1550LEVEL
 62
5
 10
-1474.833
 20
-1411.451
 30
3677.000
 70
    32
  0
VERTEX
  8
1550LEVEL
 62
5
 10
-1490.149
 20
-1462.732
 30
3677.000
 70
    32
  0
SEQEND
  8
1550LEVEL
  0
POLYLINE
  8
1550LEVEL
 62
5
 66
     1
 70
     9
  0
VERTEX
  8
1550LEVEL
 62
5
 10
-1015.548
 20
-590.633
 30
3677.000
 70
    32
  0
VERTEX
  8
1550LEVEL
 62
5
 10
-991.062
 20
-619.403
 30
3677.000
 70
    32
  0
VERTEX
  8
1550LEVEL
 62
5
 10
-998.833
 20
-632.049
 30
3677.000
 70
    32
  0
VERTEX
  8
1550LEVEL
 62
5
 10
-1020.091
 20
-598.743
 30
3677.000
 70
    32
  0
SEQEND
  8
1550LEVEL
  0
POLYLINE
  8
1550LEVEL
 62
5
 66
     1
 70
     9
  0
VERTEX
  8
1550LEVEL
 62
5
 10
-409.213
 20
-478.937
 30
3677.000
 70
    32
  0
VERTEX
  8
1550LEVEL
 62
5
 10
-442.848
 20
-520.051
 30
3677.000
 70
    32
  0
VERTEX
  8
1550LEVEL
 62
5
 10
-485.546
 20
-559.497
 30
3677.000
 70
    32
  0
VERTEX
  8
1550LEVEL
 62
5
 10
-518.280
 20
-612.594
 30
3677.000
 70
    32
  0
VERTEX
  8
1550LEVEL
 62
5
 10
-513.535
 20
-632.234
 30
3677.000
 70
    32
  0
VERTEX
  8
1550LEVEL
 62
5
 10
-492.030
 20
-597.794
 30
3677.000
 70
    32
  0
VERTEX
  8
1550LEVEL
 62
5
 10
-453.914
 20
-558.641
 30
3677.000
 70
    32
  0
VERTEX
  8
1550LEVEL
 62
5
 10
-419.602
 20
-519.649
 30
3677.000
 70
    32
  0
VERTEX
  8
1550LEVEL
 62
5
 10
-396.522
 20
-483.187
 30
3677.000
 70
    32
  0
SEQEND
  8
1550LEVEL
  0
POLYLINE
  8
1550LEVEL
 62
5
 66
     1
 70
     9
  0
VERTEX
  8
1550LEVEL
 62
5
 10
-378.873
 20
-479.895
 30
3677.000
 70
    32
  0
VERTEX
  8
1550LEVEL
 62
5
 10
-398.926
 20
-500.199
 30
3677.000
 70
    32
  0
VERTEX
  8
1550LEVEL
 62
5
 10
-418.478
 20
-541.495
 30
3677.000
 70
    32
  0
VERTEX
  8
1550LEVEL
 62
5
 10
-408.554
 20
-547.329
 30
3677.000
 70
    32
  0
VERTEX
  8
1550LEVEL
 62
5
 10
-387.480
 20
-502.742
 30
3677.000
 70
    32
  0
VERTEX
  8
1550LEVEL
 62
5
 10
-377.750
 20
-485.614
 30
3677.000
 70
    32
  0
SEQEND
  8
1550LEVEL
  0
POLYLINE
  8
1550LEVEL
 62
5
 66
     1
 70
     9
  0
VERTEX
  8
1550LEVEL
 62
5
 10
2188.263
 20
-1200.284
 30
3677.000
 70
    32
  0
VERTEX
  8
1550LEVEL
 62
5
 10
2228.747
 20
-1244.404
 30
3677.000
 70
    32
  0
VERTEX
  8
1550LEVEL
 62
5
 10
2263.623
 20
-1324.438
 30
3677.000
 70
    32
  0
VERTEX
  8
1550LEVEL
 62
5
 10
2284.685
 20
-1394.503
 30
3677.000
 70
    32
  0
VERTEX
  8
1550LEVEL
 62
5
 10
2302.485
 20
-1449.948
 30
3677.000
 70
    32
  0
VERTEX
  8
1550LEVEL
 62
5
 10
2287.041
 20
-1440.733
 30
3677.000
 70
    32
  0
VERTEX
  8
1550LEVEL
 62
5
 10
2261.338
 20
-1381.030
 30
3677.000
 70
    32
  0
VERTEX
  8
1550LEVEL
 62
5
 10
2227.063
 20
-1319.737
 30
3677.000
 70
    32
  0
VERTEX
  8
1550LEVEL
 62
5
 10
2196.494
 20
-1260.534
 30
3677.000
 70
    32
  0
VERTEX
  8
1550LEVEL
 62
5
 10
2180.670
 20
-1210.186
 30
3677.000
 70
    32
  0
SEQEND
  8
1550LEVEL
  0
LINE
  8
1550LEVEL
 62
5
 10
3199.268
 20
-941.875
 30
3677.000
 11
3205.507
 21
-987.450
 31
3677.000
  0
POLYLINE
  8
1550LEVEL
 62
5
 66
     1
 70
     9
  0
VERTEX
  8
1550LEVEL
 62
5
 10
1502.518
 20
-1028.189
 30
3677.000
 70
    32
  0
VERTEX
  8
1550LEVEL
 62
5
 10
1508.609
 20
-1139.259
 30
3677.000
 70
    32
  0
VERTEX
  8
1550LEVEL
 62
5
 10
1540.547
 20
-1288.130
 30
3677.000
 70
    32
  0
VERTEX
  8
1550LEVEL
 62
5
 10
1571.630
 20
-1421.497
 30
3677.000
 70
    32
  0
VERTEX
  8
1550LEVEL
 62
5
 10
1619.706
 20
-1591.284
 30
3677.000
 70
    32
  0
VERTEX
  8
1550LEVEL
 62
5
 10
1654.388
 20
-1740.332
 30
3677.000
 70
    32
  0
VERTEX
  8
1550LEVEL
 62
5
 10
1661.147
 20
-1848.734
 30
3677.000
 70
    32
  0
VERTEX
  8
1550LEVEL
 62
5
 10
1675.404
 20
-1981.742
 30
3677.000
 70
    32
  0
VERTEX
  8
1550LEVEL
 62
5
 10
1687.184
 20
-2104.787
 30
3677.000
 70
    32
  0
VERTEX
  8
1550LEVEL
 62
5
 10
1711.862
 20
-2216.239
 30
3677.000
 70
    32
  0
VERTEX
  8
1550LEVEL
 62
5
 10
1686.028
 20
-2231.608
 30
3677.000
 70
    32
  0
VERTEX
  8
1550LEVEL
 62
5
 10
1653.567
 20
-2171.606
 30
3677.000
 70
    32
  0
VERTEX
  8
1550LEVEL
 62
5
 10
1651.885
 20
-2095.243
 30
3677.000
 70
    32
  0
VERTEX
  8
1550LEVEL
 62
5
 10
1644.527
 20
-2000.355
 30
3677.000
 70
    32
  0
VERTEX
  8
1550LEVEL
 62
5
 10
1643.349
 20
-1901.392
 30
3677.000
 70
    32
  0
VERTEX
  8
1550LEVEL
 62
5
 10
1613.139
 20
-1901.210
 30
3677.000
 70
    32
  0
VERTEX
  8
1550LEVEL
 62
5
 10
1628.292
 20
-1997.820
 30
3677.000
 70
    32
  0
VERTEX
  8
1550LEVEL
 62
5
 10
1627.837
 20
-2065.281
 30
3677.000
 70
    32
  0
VERTEX
  8
1550LEVEL
 62
5
 10
1650.057
 20
-2116.628
 30
3677.000
 70
    32
  0
VERTEX
  8
1550LEVEL
 62
5
 10
1621.874
 20
-2090.557
 30
3677.000
 70
    32
  0
VERTEX
  8
1550LEVEL
 62
5
 10
1603.418
 20
-2015.102
 30
3677.000
 70
    32
  0
VERTEX
  8
1550LEVEL
 62
5
 10
1591.809
 20
-1916.779
 30
3677.000
 70
    32
  0
VERTEX
  8
1550LEVEL
 62
5
 10
1595.966
 20
-1819.153
 30
3677.000
 70
    32
  0
VERTEX
  8
1550LEVEL
 62
5
 10
1586.126
 20
-1725.641
 30
3677.000
 70
    32
  0
VERTEX
  8
1550LEVEL
 62
5
 10
1594.370
 20
-1687.367
 30
3677.000
 70
    32
  0
VERTEX
  8
1550LEVEL
 62
5
 10
1615.662
 20
-1755.956
 30
3677.000
 70
    32
  0
VERTEX
  8
1550LEVEL
 62
5
 10
1627.373
 20
-1792.307
 30
3677.000
 70
    32
  0
VERTEX
  8
1550LEVEL
 62
5
 10
1624.430
 20
-1720.787
 30
3677.000
 70
    32
  0
VERTEX
  8
1550LEVEL
 62
5
 10
1596.632
 20
-1616.408
 30
3677.000
 70
    32
  0
VERTEX
  8
1550LEVEL
 62
5
 10
1564.397
 20
-1506.547
 30
3677.000
 70
    32
  0
VERTEX
  8
1550LEVEL
 62
5
 10
1540.795
 20
-1388.208
 30
3677.000
 70
    32
  0
VERTEX
  8
1550LEVEL
 62
5
 10
1500.319
 20
-1273.029
 30
3677.000
 70
    32
  0
VERTEX
  8
1550LEVEL
 62
5
 10
1479.360
 20
-1140.991
 30
3677.000
 70
    32
  0
VERTEX
  8
1550LEVEL
 62
5
 10
1475.639
 20
-1053.474
 30
3677.000
 70
    32
  0
SEQEND
  8
1550LEVEL
  0
POLYLINE
  8
1550LEVEL
 62
5
 66
     1
 70
     9
  0
VERTEX
  8
1550LEVEL
 62
5
 10
1420.696
 20
-1092.268
 30
3677.000
 70
    32
  0
VERTEX
  8
1550LEVEL
 62
5
 10
1442.757
 20
-1172.065
 30
3677.000
 70
    32
  0
VERTEX
  8
1550LEVEL
 62
5
 10
1461.265
 20
-1308.508
 30
3677.000
 70
    32
  0
VERTEX
  8
1550LEVEL
 62
5
 10
1483.753
 20
-1425.918
 30
3677.000
 70
    32
  0
VERTEX
  8
1550LEVEL
 62
5
 10
1496.770
 20
-1545.881
 30
3677.000
 70
    32
  0
VERTEX
  8
1550LEVEL
 62
5
 10
1510.540
 20
-1651.345
 30
3677.000
 70
    32
  0
VERTEX
  8
1550LEVEL
 62
5
 10
1528.944
 20
-1741.659
 30
3677.000
 70
    32
  0
VERTEX
  8
1550LEVEL
 62
5
 10
1532.982
 20
-1848.124
 30
3677.000
 70
    32
  0
VERTEX
  8
1550LEVEL
 62
5
 10
1550.363
 20
-1946.593
 30
3677.000
 70
    32
  0
VERTEX
  8
1550LEVEL
 62
5
 10
1573.185
 20
-2016.681
 30
3677.000
 70
    32
  0
VERTEX
  8
1550LEVEL
 62
5
 10
1542.463
 20
-2050.438
 30
3677.000
 70
    32
  0
VERTEX
  8
1550LEVEL
 62
5
 10
1533.901
 20
-1977.788
 30
3677.000
 70
    32
  0
VERTEX
  8
1550LEVEL
 62
5
 10
1507.990
 20
-1917.801
 30
3677.000
 70
    32
  0
VERTEX
  8
1550LEVEL
 62
5
 10
1490.132
 20
-1828.833
 30
3677.000
 70
    32
  0
VERTEX
  8
1550LEVEL
 62
5
 10
1506.104
 20
-1721.713
 30
3677.000
 70
    32
  0
VERTEX
  8
1550LEVEL
 62
5
 10
1478.823
 20
-1647.905
 30
3677.000
 70
    32
  0
VERTEX
  8
1550LEVEL
 62
5
 10
1462.941
 20
-1564.033
 30
3677.000
 70
    32
  0
VERTEX
  8
1550LEVEL
 62
5
 10
1454.899
 20
-1462.234
 30
3677.000
 70
    32
  0
VERTEX
  8
1550LEVEL
 62
5
 10
1430.849
 20
-1324.170
 30
3677.000
 70
    32
  0
VERTEX
  8
1550LEVEL
 62
5
 10
1420.991
 20
-1204.953
 30
3677.000
 70
    32
  0
VERTEX
  8
1550LEVEL
 62
5
 10
1395.269
 20
-1119.544
 30
3677.000
 70
    32
  0
SEQEND
  8
1550LEVEL
  0
POLYLINE
  8
1550LEVEL
 62
5
 66
     1
 70
     9
  0
VERTEX
  8
1550LEVEL
 62
5
 10
1809.169
 20
-2017.497
 30
3677.000
 70
    32
  0
VERTEX
  8
1550LEVEL
 62
5
 10
1833.991
 20
-2107.049
 30
3677.000
 70
    32
  0
VERTEX
  8
1550LEVEL
 62
5
 10
1865.724
 20
-2195.915
 30
3677.000
 70
    32
  0
VERTEX
  8
1550LEVEL
 62
5
 10
1894.822
 20
-2303.270
 30
3677.000
 70
    32
  0
VERTEX
  8
1550LEVEL
 62
5
 10
1914.853
 20
-2376.702
 30
3677.000
 70
    32
  0
VERTEX
  8
1550LEVEL
 62
5
 10
1952.289
 20
-2454.868
 30
3677.000
 70
    32
  0
VERTEX
  8
1550LEVEL
 62
5
 10
1968.115
 20
-2521.344
 30
3677.000
 70
    32
  0
VERTEX
  8
1550LEVEL
 62
5
 10
2014.105
 20
-2591.522
 30
3677.000
 70
    32
  0
VERTEX
  8
1550LEVEL
 62
5
 10
2026.316
 20
-2632.739
 30
3677.000
 70
    32
  0
VERTEX
  8
1550LEVEL
 62
5
 10
2021.550
 20
-2630.987
 30
3677.000
 70
    32
  0
VERTEX
  8
1550LEVEL
 62
5
 10
1968.288
 20
-2562.193
 30
3677.000
 70
    32
  0
VERTEX
  8
1550LEVEL
 62
5
 10
1927.770
 20
-2482.790
 30
3677.000
 70
    32
  0
VERTEX
  8
1550LEVEL
 62
5
 10
1927.087
 20
-2416.158
 30
3677.000
 70
    32
  0
VERTEX
  8
1550LEVEL
 62
5
 10
1884.910
 20
-2350.607
 30
3677.000
 70
    32
  0
VERTEX
  8
1550LEVEL
 62
5
 10
1869.144
 20
-2274.061
 30
3677.000
 70
    32
  0
VERTEX
  8
1550LEVEL
 62
5
 10
1847.282
 20
-2189.760
 30
3677.000
 70
    32
  0
VERTEX
  8
1550LEVEL
 62
5
 10
1806.431
 20
-2081.830
 30
3677.000
 70
    32
  0
VERTEX
  8
1550LEVEL
 62
5
 10
1796.071
 20
-2017.467
 30
3677.000
 70
    32
  0
SEQEND
  8
1550LEVEL
  0
POLYLINE
  8
1550LEVEL
 62
5
 66
     1
 70
     9
  0
VERTEX
  8
1550LEVEL
 62
5
 10
2194.245
 20
-4416.822
 30
3677.000
 70
    32
  0
VERTEX
  8
1550LEVEL
 62
5
 10
2170.820
 20
-4387.713
 30
3677.000
 70
    32
  0
VERTEX
  8
1550LEVEL
 62
5
 10
2172.886
 20
-4369.641
 30
3677.000
 70
    32
  0
VERTEX
  8
1550LEVEL
 62
5
 10
2188.962
 20
-4400.626
 30
3677.000
 70
    32
  0
SEQEND
  8
1550LEVEL
  0
POLYLINE
  8
1550LEVEL
 62
5
 66
     1
 70
     9
  0
VERTEX
  8
1550LEVEL
 62
5
 10
1720.307
 20
-3164.272
 30
3677.000
 70
    32
  0
VERTEX
  8
1550LEVEL
 62
5
 10
1704.095
 20
-3084.128
 30
3677.000
 70
    32
  0
VERTEX
  8
1550LEVEL
 62
5
 10
1681.424
 20
-2980.802
 30
3677.000
 70
    32
  0
VERTEX
  8
1550LEVEL
 62
5
 10
1674.506
 20
-2900.849
 30
3677.000
 70
    32
  0
VERTEX
  8
1550LEVEL
 62
5
 10
1638.623
 20
-2822.422
 30
3677.000
 70
    32
  0
VERTEX
  8
1550LEVEL
 62
5
 10
1609.500
 20
-2776.548
 30
3677.000
 70
    32
  0
VERTEX
  8
1550LEVEL
 62
5
 10
1617.433
 20
-2691.860
 30
3677.000
 70
    32
  0
VERTEX
  8
1550LEVEL
 62
5
 10
1640.374
 20
-2725.680
 30
3677.000
 70
    32
  0
VERTEX
  8
1550LEVEL
 62
5
 10
1665.689
 20
-2739.461
 30
3677.000
 70
    32
  0
VERTEX
  8
1550LEVEL
 62
5
 10
1691.664
 20
-2821.633
 30
3677.000
 70
    32
  0
VERTEX
  8
1550LEVEL
 62
5
 10
1720.668
 20
-2919.901
 30
3677.000
 70
    32
  0
VERTEX
  8
1550LEVEL
 62
5
 10
1727.897
 20
-3030.140
 30
3677.000
 70
    32
  0
VERTEX
  8
1550LEVEL
 62
5
 10
1756.921
 20
-3170.241
 30
3677.000
 70
    32
  0
SEQEND
  8
1550LEVEL
  0
POLYLINE
  8
1550LEVEL
 62
5
 66
     1
 70
     9
  0
VERTEX
  8
1550LEVEL
 62
5
 10
1598.803
 20
-3214.595
 30
3677.000
 70
    32
  0
VERTEX
  8
1550LEVEL
 62
5
 10
1565.117
 20
-3118.871
 30
3677.000
 70
    32
  0
VERTEX
  8
1550LEVEL
 62
5
 10
1536.751
 20
-3031.034
 30
3677.000
 70
    32
  0
VERTEX
  8
1550LEVEL
 62
5
 10
1522.262
 20
-2959.224
 30
3677.000
 70
    32
  0
VERTEX
  8
1550LEVEL
 62
5
 10
1535.178
 20
-2897.488
 30
3677.000
 70
    32
  0
VERTEX
  8
1550LEVEL
 62
5
 10
1510.431
 20
-2867.165
 30
3677.000
 70
    32
  0
VERTEX
  8
1550LEVEL
 62
5
 10
1492.920
 20
-2951.870
 30
3677.000
 70
    32
  0
VERTEX
  8
1550LEVEL
 62
5
 10
1519.234
 20
-3051.230
 30
3677.000
 70
    32
  0
VERTEX
  8
1550LEVEL
 62
5
 10
1551.913
 20
-3148.560
 30
3677.000
 70
    32
  0
VERTEX
  8
1550LEVEL
 62
5
 10
1586.588
 20
-3216.971
 30
3677.000
 70
    32
  0
SEQEND
  8
1550LEVEL
  0
POLYLINE
  8
1550LEVEL
 62
5
 66
     1
 70
     9
  0
VERTEX
  8
1550LEVEL
 62
5
 10
2662.493
 20
-2365.440
 30
3677.000
 70
    32
  0
VERTEX
  8
1550LEVEL
 62
5
 10
2626.898
 20
-2319.060
 30
3677.000
 70
    32
  0
VERTEX
  8
1550LEVEL
 62
5
 10
2590.892
 20
-2244.645
 30
3677.000
 70
    32
  0
VERTEX
  8
1550LEVEL
 62
5
 10
2553.650
 20
-2173.313
 30
3677.000
 70
    32
  0
VERTEX
  8
1550LEVEL
 62
5
 10
2517.229
 20
-2098.329
 30
3677.000
 70
    32
  0
VERTEX
  8
1550LEVEL
 62
5
 10
2492.162
 20
-2016.803
 30
3677.000
 70
    32
  0
VERTEX
  8
1550LEVEL
 62
5
 10
2475.450
 20
-1931.793
 30
3677.000
 70
    32
  0
VERTEX
  8
1550LEVEL
 62
5
 10
2449.520
 20
-1829.973
 30
3677.000
 70
    32
  0
VERTEX
  8
1550LEVEL
 62
5
 10
2402.221
 20
-1735.904
 30
3677.000
 70
    32
  0
VERTEX
  8
1550LEVEL
 62
5
 10
2366.438
 20
-1655.224
 30
3677.000
 70
    32
  0
VERTEX
  8
1550LEVEL
 62
5
 10
2338.796
 20
-1582.116
 30
3677.000
 70
    32
  0
VERTEX
  8
1550LEVEL
 62
5
 10
2304.789
 20
-1511.037
 30
3677.000
 70
    32
  0
VERTEX
  8
1550LEVEL
 62
5
 10
2278.547
 20
-1438.650
 30
3677.000
 70
    32
  0
VERTEX
  8
1550LEVEL
 62
5
 10
2252.106
 20
-1386.896
 30
3677.000
 70
    32
  0
VERTEX
  8
1550LEVEL
 62
5
 10
2221.146
 20
-1341.492
 30
3677.000
 70
    32
  0
VERTEX
  8
1550LEVEL
 62
5
 10
2188.109
 20
-1277.116
 30
3677.000
 70
    32
  0
VERTEX
  8
1550LEVEL
 62
5
 10
2169.607
 20
-1205.182
 30
3677.000
 70
    32
  0
VERTEX
  8
1550LEVEL
 62
5
 10
2137.693
 20
-1146.526
 30
3677.000
 70
    32
  0
VERTEX
  8
1550LEVEL
 62
5
 10
2113.503
 20
-1078.744
 30
3677.000
 70
    32
  0
VERTEX
  8
1550LEVEL
 62
5
 10
2104.042
 20
-1010.238
 30
3677.000
 70
    32
  0
VERTEX
  8
1550LEVEL
 62
5
 10
2086.939
 20
-939.027
 30
3677.000
 70
    32
  0
VERTEX
  8
1550LEVEL
 62
5
 10
2075.057
 20
-877.954
 30
3677.000
 70
    32
  0
VERTEX
  8
1550LEVEL
 62
5
 10
2057.157
 20
-824.762
 30
3677.000
 70
    32
  0
VERTEX
  8
1550LEVEL
 62
5
 10
2075.236
 20
-815.489
 30
3677.000
 70
    32
  0
VERTEX
  8
1550LEVEL
 62
5
 10
2089.132
 20
-873.348
 30
3677.000
 70
    32
  0
VERTEX
  8
1550LEVEL
 62
5
 10
2107.096
 20
-948.726
 30
3677.000
 70
    32
  0
VERTEX
  8
1550LEVEL
 62
5
 10
2120.563
 20
-1028.693
 30
3677.000
 70
    32
  0
VERTEX
  8
1550LEVEL
 62
5
 10
2141.172
 20
-1106.499
 30
3677.000
 70
    32
  0
VERTEX
  8
1550LEVEL
 62
5
 10
2159.832
 20
-1149.983
 30
3677.000
 70
    32
  0
VERTEX
  8
1550LEVEL
 62
5
 10
2169.930
 20
-1120.817
 30
3677.000
 70
    32
  0
VERTEX
  8
1550LEVEL
 62
5
 10
2149.961
 20
-1053.442
 30
3677.000
 70
    32
  0
VERTEX
  8
1550LEVEL
 62
5
 10
2130.290
 20
-979.310
 30
3677.000
 70
    32
  0
VERTEX
  8
1550LEVEL
 62
5
 10
2103.839
 20
-890.512
 30
3677.000
 70
    32
  0
VERTEX
  8
1550LEVEL
 62
5
 10
2082.516
 20
-818.894
 30
3677.000
 70
    32
  0
VERTEX
  8
1550LEVEL
 62
5
 10
2102.540
 20
-811.689
 30
3677.000
 70
    32
  0
VERTEX
  8
1550LEVEL
 62
5
 10
2122.416
 20
-869.978
 30
3677.000
 70
    32
  0
VERTEX
  8
1550LEVEL
 62
5
 10
2146.710
 20
-983.890
 30
3677.000
 70
    32
  0
VERTEX
  8
1550LEVEL
 62
5
 10
2197.757
 20
-1120.123
 30
3677.000
 70
    32
  0
VERTEX
  8
1550LEVEL
 62
5
 10
2244.565
 20
-1214.115
 30
3677.000
 70
    32
  0
VERTEX
  8
1550LEVEL
 62
5
 10
2291.635
 20
-1325.788
 30
3677.000
 70
    32
  0
VERTEX
  8
1550LEVEL
 62
5
 10
2326.228
 20
-1422.157
 30
3677.000
 70
    32
  0
VERTEX
  8
1550LEVEL
 62
5
 10
2365.819
 20
-1534.930
 30
3677.000
 70
    32
  0
VERTEX
  8
1550LEVEL
 62
5
 10
2425.990
 20
-1662.760
 30
3677.000
 70
    32
  0
VERTEX
  8
1550LEVEL
 62
5
 10
2480.018
 20
-1786.354
 30
3677.000
 70
    32
  0
VERTEX
  8
1550LEVEL
 62
5
 10
2508.172
 20
-1917.500
 30
3677.000
 70
    32
  0
VERTEX
  8
1550LEVEL
 62
5
 10
2547.441
 20
-2038.790
 30
3677.000
 70
    32
  0
VERTEX
  8
1550LEVEL
 62
5
 10
2582.690
 20
-2155.169
 30
3677.000
 70
    32
  0
VERTEX
  8
1550LEVEL
 62
5
 10
2633.171
 20
-2248.223
 30
3677.000
 70
    32
  0
VERTEX
  8
1550LEVEL
 62
5
 10
2690.634
 20
-2351.439
 30
3677.000
 70
    32
  0
SEQEND
  8
1550LEVEL
  0
POLYLINE
  8
1550LEVEL
 62
5
 66
     1
 70
     9
  0
VERTEX
  8
1550LEVEL
 62
5
 10
1129.355
 20
-1069.957
 30
3677.000
 70
    32
  0
VERTEX
  8
1550LEVEL
 62
5
 10
1176.953
 20
-1233.118
 30
3677.000
 70
    32
  0
VERTEX
  8
1550LEVEL
 62
5
 10
1227.263
 20
-1377.298
 30
3677.000
 70
    32
  0
VERTEX
  8
1550LEVEL
 62
5
 10
1287.329
 20
-1534.846
 30
3677.000
 70
    32
  0
VERTEX
  8
1550LEVEL
 62
5
 10
1324.808
 20
-1669.212
 30
3677.000
 70
    32
  0
VERTEX
  8
1550LEVEL
 62
5
 10
1386.619
 20
-1833.332
 30
3677.000
 70
    32
  0
VERTEX
  8
1550LEVEL
 62
5
 10
1426.576
 20
-1917.940
 30
3677.000
 70
    32
  0
VERTEX
  8
1550LEVEL
 62
5
 10
1457.497
 20
-2031.374
 30
3677.000
 70
    32
  0
VERTEX
  8
1550LEVEL
 62
5
 10
1467.056
 20
-2157.348
 30
3677.000
 70
    32
  0
VERTEX
  8
1550LEVEL
 62
5
 10
1490.858
 20
-2271.183
 30
3677.000
 70
    32
  0
VERTEX
  8
1550LEVEL
 62
5
 10
1527.332
 20
-2347.435
 30
3677.000
 70
    32
  0
VERTEX
  8
1550LEVEL
 62
5
 10
1546.971
 20
-2418.539
 30
3677.000
 70
    32
  0
VERTEX
  8
1550LEVEL
 62
5
 10
1492.544
 20
-2379.801
 30
3677.000
 70
    32
  0
VERTEX
  8
1550LEVEL
 62
5
 10
1444.924
 20
-2310.376
 30
3677.000
 70
    32
  0
VERTEX
  8
1550LEVEL
 62
5
 10
1427.089
 20
-2219.648
 30
3677.000
 70
    32
  0
VERTEX
  8
1550LEVEL
 62
5
 10
1407.494
 20
-2128.897
 30
3677.000
 70
    32
  0
VERTEX
  8
1550LEVEL
 62
5
 10
1393.777
 20
-2008.573
 30
3677.000
 70
    32
  0
VERTEX
  8
1550LEVEL
 62
5
 10
1366.085
 20
-1890.602
 30
3677.000
 70
    32
  0
VERTEX
  8
1550LEVEL
 62
5
 10
1324.857
 20
-1789.922
 30
3677.000
 70
    32
  0
VERTEX
  8
1550LEVEL
 62
5
 10
1295.437
 20
-1766.932
 30
3677.000
 70
    32
  0
VERTEX
  8
1550LEVEL
 62
5
 10
1321.872
 20
-1846.152
 30
3677.000
 70
    32
  0
VERTEX
  8
1550LEVEL
 62
5
 10
1348.687
 20
-1950.378
 30
3677.000
 70
    32
  0
VERTEX
  8
1550LEVEL
 62
5
 10
1365.371
 20
-2064.614
 30
3677.000
 70
    32
  0
VERTEX
  8
1550LEVEL
 62
5
 10
1387.826
 20
-2162.867
 30
3677.000
 70
    32
  0
VERTEX
  8
1550LEVEL
 62
5
 10
1410.905
 20
-2278.101
 30
3677.000
 70
    32
  0
VERTEX
  8
1550LEVEL
 62
5
 10
1426.896
 20
-2380.637
 30
3677.000
 70
    32
  0
VERTEX
  8
1550LEVEL
 62
5
 10
1466.046
 20
-2462.347
 30
3677.000
 70
    32
  0
VERTEX
  8
1550LEVEL
 62
5
 10
1536.224
 20
-2568.052
 30
3677.000
 70
    32
  0
VERTEX
  8
1550LEVEL
 62
5
 10
1541.610
 20
-2630.378
 30
3677.000
 70
    32
  0
VERTEX
  8
1550LEVEL
 62
5
 10
1524.077
 20
-2640.996
 30
3677.000
 70
    32
  0
VERTEX
  8
1550LEVEL
 62
5
 10
1518.010
 20
-2695.989
 30
3677.000
 70
    32
  0
VERTEX
  8
1550LEVEL
 62
5
 10
1541.006
 20
-2747.206
 30
3677.000
 70
    32
  0
VERTEX
  8
1550LEVEL
 62
5
 10
1569.472
 20
-2832.791
 30
3677.000
 70
    32
  0
VERTEX
  8
1550LEVEL
 62
5
 10
1598.218
 20
-2885.913
 30
3677.000
 70
    32
  0
VERTEX
  8
1550LEVEL
 62
5
 10
1589.013
 20
-2846.425
 30
3677.000
 70
    32
  0
VERTEX
  8
1550LEVEL
 62
5
 10
1606.231
 20
-2832.987
 30
3677.000
 70
    32
  0
VERTEX
  8
1550LEVEL
 62
5
 10
1639.943
 20
-2883.357
 30
3677.000
 70
    32
  0
VERTEX
  8
1550LEVEL
 62
5
 10
1630.809
 20
-2946.691
 30
3677.000
 70
    32
  0
VERTEX
  8
1550LEVEL
 62
5
 10
1648.935
 20
-3025.874
 30
3677.000
 70
    32
  0
VERTEX
  8
1550LEVEL
 62
5
 10
1669.691
 20
-3114.034
 30
3677.000
 70
    32
  0
VERTEX
  8
1550LEVEL
 62
5
 10
1683.233
 20
-3177.382
 30
3677.000
 70
    32
  0
VERTEX
  8
1550LEVEL
 62
5
 10
1667.837
 20
-3180.773
 30
3677.000
 70
    32
  0
VERTEX
  8
1550LEVEL
 62
5
 10
1662.713
 20
-3136.127
 30
3677.000
 70
    32
  0
VERTEX
  8
1550LEVEL
 62
5
 10
1648.408
 20
-3066.361
 30
3677.000
 70
    32
  0
VERTEX
  8
1550LEVEL
 62
5
 10
1629.892
 20
-3000.977
 30
3677.000
 70
    32
  0
VERTEX
  8
1550LEVEL
 62
5
 10
1609.914
 20
-2928.813
 30
3677.000
 70
    32
  0
VERTEX
  8
1550LEVEL
 62
5
 10
1572.545
 20
-2905.087
 30
3677.000
 70
    32
  0
VERTEX
  8
1550LEVEL
 62
5
 10
1597.023
 20
-3004.916
 30
3677.000
 70
    32
  0
VERTEX
  8
1550LEVEL
 62
5
 10
1626.475
 20
-3122.909
 30
3677.000
 70
    32
  0
VERTEX
  8
1550LEVEL
 62
5
 10
1645.517
 20
-3223.654
 30
3677.000
 70
    32
  0
VERTEX
  8
1550LEVEL
 62
5
 10
1694.781
 20
-3361.624
 30
3677.000
 70
    32
  0
VERTEX
  8
1550LEVEL
 62
5
 10
1731.429
 20
-3478.724
 30
3677.000
 70
    32
  0
VERTEX
  8
1550LEVEL
 62
5
 10
1767.376
 20
-3595.464
 30
3677.000
 70
    32
  0
VERTEX
  8
1550LEVEL
 62
5
 10
1821.283
 20
-3739.199
 30
3677.000
 70
    32
  0
VERTEX
  8
1550LEVEL
 62
5
 10
1855.819
 20
-3877.893
 30
3677.000
 70
    32
  0
VERTEX
  8
1550LEVEL
 62
5
 10
1901.838
 20
-4010.820
 30
3677.000
 70
    32
  0
VERTEX
  8
1550LEVEL
 62
5
 10
1950.540
 20
-4137.867
 30
3677.000
 70
    32
  0
VERTEX
  8
1550LEVEL
 62
5
 10
1996.028
 20
-4262.900
 30
3677.000
 70
    32
  0
VERTEX
  8
1550LEVEL
 62
5
 10
2020.783
 20
-4373.860
 30
3677.000
 70
    32
  0
VERTEX
  8
1550LEVEL
 62
5
 10
2081.830
 20
-4499.306
 30
3677.000
 70
    32
  0
VERTEX
  8
1550LEVEL
 62
5
 10
2147.433
 20
-4610.093
 30
3677.000
 70
    32
  0
VERTEX
  8
1550LEVEL
 62
5
 10
2193.885
 20
-4677.320
 30
3677.000
 70
    32
  0
VERTEX
  8
1550LEVEL
 62
5
 10
2229.419
 20
-4641.795
 30
3677.000
 70
    32
  0
VERTEX
  8
1550LEVEL
 62
5
 10
2161.394
 20
-4538.441
 30
3677.000
 70
    32
  0
VERTEX
  8
1550LEVEL
 62
5
 10
2088.087
 20
-4418.892
 30
3677.000
 70
    32
  0
VERTEX
  8
1550LEVEL
 62
5
 10
2046.237
 20
-4317.358
 30
3677.000
 70
    32
  0
VERTEX
  8
1550LEVEL
 62
5
 10
2018.185
 20
-4216.214
 30
3677.000
 70
    32
  0
VERTEX
  8
1550LEVEL
 62
5
 10
2001.575
 20
-4145.080
 30
3677.000
 70
    32
  0
VERTEX
  8
1550LEVEL
 62
5
 10
2017.570
 20
-4128.175
 30
3677.000
 70
    32
  0
VERTEX
  8
1550LEVEL
 62
5
 10
2027.734
 20
-4153.449
 30
3677.000
 70
    32
  0
VERTEX
  8
1550LEVEL
 62
5
 10
2061.327
 20
-4240.086
 30
3677.000
 70
    32
  0
VERTEX
  8
1550LEVEL
 62
5
 10
2096.865
 20
-4328.791
 30
3677.000
 70
    32
  0
VERTEX
  8
1550LEVEL
 62
5
 10
2119.157
 20
-4407.112
 30
3677.000
 70
    32
  0
VERTEX
  8
1550LEVEL
 62
5
 10
2192.317
 20
-4516.308
 30
3677.000
 70
    32
  0
VERTEX
  8
1550LEVEL
 62
5
 10
2234.742
 20
-4606.088
 30
3677.000
 70
    32
  0
VERTEX
  8
1550LEVEL
 62
5
 10
2286.560
 20
-4601.832
 30
3677.000
 70
    32
  0
VERTEX
  8
1550LEVEL
 62
5
 10
2243.625
 20
-4486.269
 30
3677.000
 70
    32
  0
VERTEX
  8
1550LEVEL
 62
5
 10
2191.412
 20
-4380.093
 30
3677.000
 70
    32
  0
VERTEX
  8
1550LEVEL
 62
5
 10
2169.307
 20
-4319.944
 30
3677.000
 70
    32
  0
VERTEX
  8
1550LEVEL
 62
5
 10
2113.696
 20
-4209.710
 30
3677.000
 70
    32
  0
VERTEX
  8
1550LEVEL
 62
5
 10
2070.540
 20
-4116.539
 30
3677.000
 70
    32
  0
VERTEX
  8
1550LEVEL
 62
5
 10
2089.987
 20
-4104.961
 30
3677.000
 70
    32
  0
VERTEX
  8
1550LEVEL
 62
5
 10
2125.271
 20
-4196.902
 30
3677.000
 70
    32
  0
VERTEX
  8
1550LEVEL
 62
5
 10
2172.277
 20
-4270.263
 30
3677.000
 70
    32
  0
VERTEX
  8
1550LEVEL
 62
5
 10
2220.104
 20
-4339.972
 30
3677.000
 70
    32
  0
VERTEX
  8
1550LEVEL
 62
5
 10
2251.567
 20
-4422.497
 30
3677.000
 70
    32
  0
VERTEX
  8
1550LEVEL
 62
5
 10
2289.750
 20
-4513.631
 30
3677.000
 70
    32
  0
VERTEX
  8
1550LEVEL
 62
5
 10
2327.094
 20
-4598.838
 30
3677.000
 70
    32
  0
VERTEX
  8
1550LEVEL
 62
5
 10
2346.349
 20
-4596.553
 30
3677.000
 70
    32
  0
VERTEX
  8
1550LEVEL
 62
5
 10
2313.933
 20
-4516.903
 30
3677.000
 70
    32
  0
VERTEX
  8
1550LEVEL
 62
5
 10
2286.060
 20
-4429.143
 30
3677.000
 70
    32
  0
VERTEX
  8
1550LEVEL
 62
5
 10
2217.234
 20
-4311.553
 30
3677.000
 70
    32
  0
VERTEX
  8
1550LEVEL
 62
5
 10
2156.390
 20
-4213.857
 30
3677.000
 70
    32
  0
VERTEX
  8
1550LEVEL
 62
5
 10
2127.217
 20
-4123.122
 30
3677.000
 70
    32
  0
VERTEX
  8
1550LEVEL
 62
5
 10
2163.636
 20
-4181.978
 30
3677.000
 70
    32
  0
VERTEX
  8
1550LEVEL
 62
5
 10
2198.734
 20
-4255.747
 30
3677.000
 70
    32
  0
VERTEX
  8
1550LEVEL
 62
5
 10
2238.841
 20
-4290.989
 30
3677.000
 70
    32
  0
VERTEX
  8
1550LEVEL
 62
5
 10
2207.786
 20
-4220.371
 30
3677.000
 70
    32
  0
VERTEX
  8
1550LEVEL
 62
5
 10
2146.733
 20
-4106.262
 30
3677.000
 70
    32
  0
VERTEX
  8
1550LEVEL
 62
5
 10
2096.259
 20
-4017.997
 30
3677.000
 70
    32
  0
VERTEX
  8
1550LEVEL
 62
5
 10
2085.371
 20
-3977.995
 30
3677.000
 70
    32
  0
VERTEX
  8
1550LEVEL
 62
5
 10
2081.491
 20
-3918.928
 30
3677.000
 70
    32
  0
VERTEX
  8
1550LEVEL
 62
5
 10
2060.008
 20
-3859.632
 30
3677.000
 70
    32
  0
VERTEX
  8
1550LEVEL
 62
5
 10
2037.833
 20
-3804.764
 30
3677.000
 70
    32
  0
VERTEX
  8
1550LEVEL
 62
5
 10
2062.475
 20
-3772.830
 30
3677.000
 70
    32
  0
VERTEX
  8
1550LEVEL
 62
5
 10
2030.376
 20
-3712.128
 30
3677.000
 70
    32
  0
VERTEX
  8
1550LEVEL
 62
5
 10
1975.306
 20
-3630.705
 30
3677.000
 70
    32
  0
VERTEX
  8
1550LEVEL
 62
5
 10
1912.095
 20
-3541.710
 30
3677.000
 70
    32
  0
VERTEX
  8
1550LEVEL
 62
5
 10
1908.416
 20
-3494.266
 30
3677.000
 70
    32
  0
VERTEX
  8
1550LEVEL
 62
5
 10
1937.946
 20
-3535.920
 30
3677.000
 70
    32
  0
VERTEX
  8
1550LEVEL
 62
5
 10
1976.949
 20
-3607.275
 30
3677.000
 70
    32
  0
VERTEX
  8
1550LEVEL
 62
5
 10
2025.030
 20
-3673.748
 30
3677.000
 70
    32
  0
VERTEX
  8
1550LEVEL
 62
5
 10
2080.234
 20
-3712.354
 30
3677.000
 70
    32
  0
VERTEX
  8
1550LEVEL
 62
5
 10
2039.131
 20
-3623.788
 30
3677.000
 70
    32
  0
VERTEX
  8
1550LEVEL
 62
5
 10
1963.024
 20
-3486.666
 30
3677.000
 70
    32
  0
VERTEX
  8
1550LEVEL
 62
5
 10
1900.685
 20
-3346.907
 30
3677.000
 70
    32
  0
VERTEX
  8
1550LEVEL
 62
5
 10
1849.414
 20
-3200.812
 30
3677.000
 70
    32
  0
VERTEX
  8
1550LEVEL
 62
5
 10
1810.982
 20
-3069.321
 30
3677.000
 70
    32
  0
VERTEX
  8
1550LEVEL
 62
5
 10
1796.227
 20
-2947.575
 30
3677.000
 70
    32
  0
VERTEX
  8
1550LEVEL
 62
5
 10
1760.374
 20
-2856.049
 30
3677.000
 70
    32
  0
VERTEX
  8
1550LEVEL
 62
5
 10
1768.057
 20
-2822.979
 30
3677.000
 70
    32
  0
VERTEX
  8
1550LEVEL
 62
5
 10
1776.923
 20
-2845.278
 30
3677.000
 70
    32
  0
VERTEX
  8
1550LEVEL
 62
5
 10
1788.526
 20
-2879.092
 30
3677.000
 70
    32
  0
VERTEX
  8
1550LEVEL
 62
5
 10
1804.162
 20
-2895.141
 30
3677.000
 70
    32
  0
VERTEX
  8
1550LEVEL
 62
5
 10
1789.688
 20
-2816.781
 30
3677.000
 70
    32
  0
VERTEX
  8
1550LEVEL
 62
5
 10
1764.563
 20
-2777.579
 30
3677.000
 70
    32
  0
VERTEX
  8
1550LEVEL
 62
5
 10
1731.172
 20
-2794.540
 30
3677.000
 70
    32
  0
VERTEX
  8
1550LEVEL
 62
5
 10
1708.344
 20
-2735.790
 30
3677.000
 70
    32
  0
VERTEX
  8
1550LEVEL
 62
5
 10
1696.808
 20
-2680.568
 30
3677.000
 70
    32
  0
VERTEX
  8
1550LEVEL
 62
5
 10
1673.009
 20
-2598.987
 30
3677.000
 70
    32
  0
VERTEX
  8
1550LEVEL
 62
5
 10
1645.753
 20
-2539.546
 30
3677.000
 70
    32
  0
VERTEX
  8
1550LEVEL
 62
5
 10
1665.521
 20
-2503.323
 30
3677.000
 70
    32
  0
VERTEX
  8
1550LEVEL
 62
5
 10
1655.992
 20
-2456.226
 30
3677.000
 70
    32
  0
VERTEX
  8
1550LEVEL
 62
5
 10
1626.214
 20
-2390.343
 30
3677.000
 70
    32
  0
VERTEX
  8
1550LEVEL
 62
5
 10
1627.961
 20
-2321.067
 30
3677.000
 70
    32
  0
VERTEX
  8
1550LEVEL
 62
5
 10
1588.568
 20
-2279.638
 30
3677.000
 70
    32
  0
VERTEX
  8
1550LEVEL
 62
5
 10
1562.123
 20
-2255.349
 30
3677.000
 70
    32
  0
VERTEX
  8
1550LEVEL
 62
5
 10
1546.891
 20
-2218.952
 30
3677.000
 70
    32
  0
VERTEX
  8
1550LEVEL
 62
5
 10
1522.360
 20
-2117.855
 30
3677.000
 70
    32
  0
VERTEX
  8
1550LEVEL
 62
5
 10
1518.724
 20
-2034.635
 30
3677.000
 70
    32
  0
VERTEX
  8
1550LEVEL
 62
5
 10
1487.181
 20
-1920.348
 30
3677.000
 70
    32
  0
VERTEX
  8
1550LEVEL
 62
5
 10
1449.209
 20
-1769.778
 30
3677.000
 70
    32
  0
VERTEX
  8
1550LEVEL
 62
5
 10
1393.000
 20
-1597.209
 30
3677.000
 70
    32
  0
VERTEX
  8
1550LEVEL
 62
5
 10
1358.356
 20
-1439.851
 30
3677.000
 70
    32
  0
VERTEX
  8
1550LEVEL
 62
5
 10
1306.300
 20
-1289.098
 30
3677.000
 70
    32
  0
VERTEX
  8
1550LEVEL
 62
5
 10
1259.282
 20
-1162.566
 30
3677.000
 70
    32
  0
SEQEND
  8
1550LEVEL
  0
POLYLINE
  8
1550LEVEL
 62
7
 66
     1
 70
     8
  0
VERTEX
  8
1550LEVEL
 62
7
 10
3131.853
 20
-862.051
 30
3677.000
 70
    32
  0
VERTEX
  8
1550LEVEL
 62
7
 10
3109.935
 20
-912.049
 30
3677.000
 70
    32
  0
VERTEX
  8
1550LEVEL
 62
7
 10
3081.433
 20
-1018.725
 30
3677.000
 70
    32
  0
VERTEX
  8
1550LEVEL
 62
7
 10
3039.802
 20
-1122.342
 30
3677.000
 70
    32
  0
VERTEX
  8
1550LEVEL
 62
7
 10
3013.062
 20
-1229.041
 30
3677.000
 70
    32
  0
VERTEX
  8
1550LEVEL
 62
7
 10
2931.560
 20
-1268.475
 30
3677.000
 70
    32
  0
VERTEX
  8
1550LEVEL
 62
7
 10
2889.569
 20
-1388.920
 30
3677.000
 70
    32
  0
VERTEX
  8
1550LEVEL
 62
7
 10
2859.445
 20
-1485.010
 30
3677.000
 70
    32
  0
VERTEX
  8
1550LEVEL
 62
7
 10
2826.098
 20
-1558.171
 30
3677.000
 70
    32
  0
VERTEX
  8
1550LEVEL
 62
7
 10
2793.849
 20
-1546.836
 30
3677.000
 70
    32
  0
VERTEX
  8
1550LEVEL
 62
7
 10
2765.580
 20
-1668.163
 30
3677.000
 70
    32
  0
VERTEX
  8
1550LEVEL
 62
7
 10
2708.320
 20
-1668.545
 30
3677.000
 70
    32
  0
VERTEX
  8
1550LEVEL
 62
7
 10
2691.279
 20
-1771.214
 30
3677.000
 70
    32
  0
VERTEX
  8
1550LEVEL
 62
7
 10
2696.576
 20
-1856.709
 30
3677.000
 70
    32
  0
VERTEX
  8
1550LEVEL
 62
7
 10
2696.306
 20
-1926.215
 30
3677.000
 70
    32
  0
VERTEX
  8
1550LEVEL
 62
7
 10
2668.787
 20
-2016.917
 30
3677.000
 70
    32
  0
VERTEX
  8
1550LEVEL
 62
7
 10
2653.093
 20
-2135.168
 30
3677.000
 70
    32
  0
VERTEX
  8
1550LEVEL
 62
7
 10
2632.591
 20
-2211.594
 30
3677.000
 70
    32
  0
VERTEX
  8
1550LEVEL
 62
7
 10
2592.152
 20
-2147.827
 30
3677.000
 70
    32
  0
SEQEND
  8
1550LEVEL
  0
POLYLINE
  8
1550LEVEL
 62
7
 66
     1
 70
     9
  0
VERTEX
  8
1550LEVEL
 62
7
 10
2576.089
 20
-1271.176
 30
3677.000
 70
    32
  0
VERTEX
  8
1550LEVEL
 62
7
 10
2586.215
 20
-1380.608
 30
3677.000
 70
    32
  0
VERTEX
  8
1550LEVEL
 62
7
 10
2586.986
 20
-1483.791
 30
3677.000
 70
    32
  0
VERTEX
  8
1550LEVEL
 62
7
 10
2589.901
 20
-1584.537
 30
3677.000
 70
    32
  0
VERTEX
  8
1550LEVEL
 62
7
 10
2593.244
 20
-1663.175
 30
3677.000
 70
    32
  0
VERTEX
  8
1550LEVEL
 62
7
 10
2604.029
 20
-1749.022
 30
3677.000
 70
    32
  0
VERTEX
  8
1550LEVEL
 62
7
 10
2629.342
 20
-1822.523
 30
3677.000
 70
    32
  0
VERTEX
  8
1550LEVEL
 62
7
 10
2598.973
 20
-1926.639
 30
3677.000
 70
    32
  0
VERTEX
  8
1550LEVEL
 62
7
 10
2603.897
 20
-1975.790
 30
3677.000
 70
    32
  0
VERTEX
  8
1550LEVEL
 62
7
 10
2634.381
 20
-2030.695
 30
3677.000
 70
    32
  0
VERTEX
  8
1550LEVEL
 62
7
 10
2593.921
 20
-2076.791
 30
3677.000
 70
    32
  0
VERTEX
  8
1550LEVEL
 62
7
 10
2585.930
 20
-2035.981
 30
3677.000
 70
    32
  0
VERTEX
  8
1550LEVEL
 62
7
 10
2591.238
 20
-1990.696
 30
3677.000
 70
    32
  0
VERTEX
  8
1550LEVEL
 62
7
 10
2562.259
 20
-1922.922
 30
3677.000
 70
    32
  0
VERTEX
  8
1550LEVEL
 62
7
 10
2603.167
 20
-1820.704
 30
3677.000
 70
    32
  0
VERTEX
  8
1550LEVEL
 62
7
 10
2584.189
 20
-1742.144
 30
3677.000
 70
    32
  0
VERTEX
  8
1550LEVEL
 62
7
 10
2577.699
 20
-1640.084
 30
3677.000
 70
    32
  0
VERTEX
  8
1550LEVEL
 62
7
 10
2561.033
 20
-1551.554
 30
3677.000
 70
    32
  0
VERTEX
  8
1550LEVEL
 62
7
 10
2571.425
 20
-1467.250
 30
3677.000
 70
    32
  0
VERTEX
  8
1550LEVEL
 62
7
 10
2556.418
 20
-1364.867
 30
3677.000
 70
    32
  0
VERTEX
  8
1550LEVEL
 62
7
 10
2566.411
 20
-1273.445
 30
3677.000
 70
    32
  0
SEQEND
  8
1550LEVEL
  0
POLYLINE
  8
1550LEVEL
 62
7
 66
     1
 70
     9
  0
VERTEX
  8
1550LEVEL
 62
7
 10
-1475.134
 20
-1402.080
 30
3677.000
 70
    32
  0
VERTEX
  8
1550LEVEL
 62
7
 10
-1498.315
 20
-1348.819
 30
3677.000
 70
    32
  0
VERTEX
  8
1550LEVEL
 62
7
 10
-1523.473
 20
-1290.461
 30
3677.000
 70
    32
  0
VERTEX
  8
1550LEVEL
 62
7
 10
-1557.124
 20
-1230.021
 30
3677.000
 70
    32
  0
VERTEX
  8
1550LEVEL
 62
7
 10
-1578.518
 20
-1223.405
 30
3677.000
 70
    32
  0
VERTEX
  8
1550LEVEL
 62
7
 10
-1554.704
 20
-1298.436
 30
3677.000
 70
    32
  0
VERTEX
  8
1550LEVEL
 62
7
 10
-1545.560
 20
-1347.993
 30
3677.000
 70
    32
  0
VERTEX
  8
1550LEVEL
 62
7
 10
-1524.706
 20
-1417.774
 30
3677.000
 70
    32
  0
VERTEX
  8
1550LEVEL
 62
7
 10
-1488.297
 20
-1455.714
 30
3677.000
 70
    32
  0
SEQEND
  8
1550LEVEL
  0
POLYLINE
  8
1550LEVEL
 62
7
 66
     1
 70
     9
  0
VERTEX
  8
1550LEVEL
 62
7
 10
-835.267
 20
91.062
 30
3677.000
 70
    32
  0
VERTEX
  8
1550LEVEL
 62
7
 10
-812.579
 20
54.005
 30
3677.000
 70
    32
  0
VERTEX
  8
1550LEVEL
 62
7
 10
-842.522
 20
80.100
 30
3677.000
 70
    32
  0
SEQEND
  8
1550LEVEL
  0
POLYLINE
  8
1550LEVEL
 62
7
 66
     1
 70
     8
  0
VERTEX
  8
1550LEVEL
 62
7
 10
1443.567
 20
-3096.867
 30
3677.000
 70
    32
  0
VERTEX
  8
1550LEVEL
 62
7
 10
1409.687
 20
-3054.031
 30
3677.000
 70
    32
  0
VERTEX
  8
1550LEVEL
 62
7
 10
1396.124
 20
-3024.698
 30
3677.000
 70
    32
  0
VERTEX
  8
1550LEVEL
 62
7
 10
1413.649
 20
-3009.292
 30
3677.000
 70
    32
  0
VERTEX
  8
1550LEVEL
 62
7
 10
1471.051
 20
-3046.730
 30
3677.000
 70
    32
  0
VERTEX
  8
1550LEVEL
 62
7
 10
1496.097
 20
-3054.169
 30
3677.000
 70
    32
  0
VERTEX
  8
1550LEVEL
 62
7
 10
1487.931
 20
-3032.230
 30
3677.000
 70
    32
  0
VERTEX
  8
1550LEVEL
 62
7
 10
1445.719
 20
-3007.244
 30
3677.000
 70
    32
  0
VERTEX
  8
1550LEVEL
 62
7
 10
1405.067
 20
-2970.657
 30
3677.000
 70
    32
  0
VERTEX
  8
1550LEVEL
 62
7
 10
1369.641
 20
-2932.871
 30
3677.000
 70
    32
  0
VERTEX
  8
1550LEVEL
 62
7
 10
1332.962
 20
-2888.590
 30
3677.000
 70
    32
  0
VERTEX
  8
1550LEVEL
 62
7
 10
1296.615
 20
-2856.707
 30
3677.000
 70
    32
  0
VERTEX
  8
1550LEVEL
 62
7
 10
1310.451
 20
-2848.788
 30
3677.000
 70
    32
  0
VERTEX
  8
1550LEVEL
 62
7
 10
1323.417
 20
-2831.914
 30
3677.000
 70
    32
  0
VERTEX
  8
1550LEVEL
 62
7
 10
1334.748
 20
-2827.132
 30
3677.000
 70
    32
  0
VERTEX
  8
1550LEVEL
 62
7
 10
1359.220
 20
-2878.579
 30
3677.000
 70
    32
  0
VERTEX
  8
1550LEVEL
 62
7
 10
1388.497
 20
-2923.468
 30
3677.000
 70
    32
  0
VERTEX
  8
1550LEVEL
 62
7
 10
1421.393
 20
-2966.151
 30
3677.000
 70
    32
  0
VERTEX
  8
1550LEVEL
 62
7
 10
1466.588
 20
-2994.628
 30
3677.000
 70
    32
  0
VERTEX
  8
1550LEVEL
 62
7
 10
1483.667
 20
-2975.624
 30
3677.000
 70
    32
  0
VERTEX
  8
1550LEVEL
 62
7
 10
1501.607
 20
-2960.786
 30
3677.000
 70
    32
  0
VERTEX
  8
1550LEVEL
 62
7
 10
1525.992
 20
-2975.681
 30
3677.000
 70
    32
  0
VERTEX
  8
1550LEVEL
 62
7
 10
1544.439
 20
-2954.371
 30
3677.000
 70
    32
  0
VERTEX
  8
1550LEVEL
 62
7
 10
1548.780
 20
-2934.638
 30
3677.000
 70
    32
  0
VERTEX
  8
1550LEVEL
 62
7
 10
1570.994
 20
-2921.476
 30
3677.000
 70
    32
  0
VERTEX
  8
1550LEVEL
 62
7
 10
1581.924
 20
-2909.575
 30
3677.000
 70
    32
  0
VERTEX
  8
1550LEVEL
 62
7
 10
1597.805
 20
-2901.472
 30
3677.000
 70
    32
  0
VERTEX
  8
1550LEVEL
 62
7
 10
1616.640
 20
-2926.084
 30
3677.000
 70
    32
  0
VERTEX
  8
1550LEVEL
 62
7
 10
1623.376
 20
-2944.271
 30
3677.000
 70
    32
  0
VERTEX
  8
1550LEVEL
 62
7
 10
1630.569
 20
-2927.251
 30
3677.000
 70
    32
  0
VERTEX
  8
1550LEVEL
 62
7
 10
1634.826
 20
-2903.221
 30
3677.000
 70
    32
  0
VERTEX
  8
1550LEVEL
 62
7
 10
1629.112
 20
-2876.878
 30
3677.000
 70
    32
  0
VERTEX
  8
1550LEVEL
 62
7
 10
1613.597
 20
-2856.816
 30
3677.000
 70
    32
  0
VERTEX
  8
1550LEVEL
 62
7
 10
1645.818
 20
-2821.530
 30
3677.000
 70
    32
  0
VERTEX
  8
1550LEVEL
 62
7
 10
1654.695
 20
-2805.025
 30
3677.000
 70
    32
  0
VERTEX
  8
1550LEVEL
 62
7
 10
1643.948
 20
-2802.843
 30
3677.000
 70
    32
  0
VERTEX
  8
1550LEVEL
 62
7
 10
1636.440
 20
-2817.041
 30
3677.000
 70
    32
  0
VERTEX
  8
1550LEVEL
 62
7
 10
1619.256
 20
-2697.940
 30
3677.000
 70
    32
  0
VERTEX
  8
1550LEVEL
 62
7
 10
1629.633
 20
-2696.033
 30
3677.000
 70
    32
  0
VERTEX
  8
1550LEVEL
 62
7
 10
1767.861
 20
-2859.738
 30
3677.000
 70
    32
  0
VERTEX
  8
1550LEVEL
 62
7
 10
1787.118
 20
-2873.581
 30
3677.000
 70
    32
  0
VERTEX
  8
1550LEVEL
 62
7
 10
1811.557
 20
-2889.744
 30
3677.000
 70
    32
  0
VERTEX
  8
1550LEVEL
 62
7
 10
1849.759
 20
-2946.863
 30
3677.000
 70
    32
  0
VERTEX
  8
1550LEVEL
 62
7
 10
1893.512
 20
-3010.392
 30
3677.000
 70
    32
  0
VERTEX
  8
1550LEVEL
 62
7
 10
1954.876
 20
-3078.939
 30
3677.000
 70
    32
  0
VERTEX
  8
1550LEVEL
 62
7
 10
2013.173
 20
-3139.700
 30
3677.000
 70
    32
  0
VERTEX
  8
1550LEVEL
 62
7
 10
2055.535
 20
-3207.296
 30
3677.000
 70
    32
  0
VERTEX
  8
1550LEVEL
 62
7
 10
2096.290
 20
-3273.885
 30
3677.000
 70
    32
  0
VERTEX
  8
1550LEVEL
 62
7
 10
2125.981
 20
-3319.343
 30
3677.000
 70
    32
  0
VERTEX
  8
1550LEVEL
 62
7
 10
2164.740
 20
-3322.875
 30
3677.000
 70
    32
  0
VERTEX
  8
1550LEVEL
 62
7
 10
2201.371
 20
-3354.550
 30
3677.000
 70
    32
  0
VERTEX
  8
1550LEVEL
 62
7
 10
2236.638
 20
-3420.786
 30
3677.000
 70
    32
  0
VERTEX
  8
1550LEVEL
 62
7
 10
2276.932
 20
-3490.327
 30
3677.000
 70
    32
  0
VERTEX
  8
1550LEVEL
 62
7
 10
2323.336
 20
-3544.947
 30
3677.000
 70
    32
  0
VERTEX
  8
1550LEVEL
 62
7
 10
2339.031
 20
-3518.671
 30
3677.000
 70
    32
  0
VERTEX
  8
1550LEVEL
 62
7
 10
2324.742
 20
-3458.483
 30
3677.000
 70
    32
  0
VERTEX
  8
1550LEVEL
 62
7
 10
2300.922
 20
-3394.790
 30
3677.000
 70
    32
  0
VERTEX
  8
1550LEVEL
 62
7
 10
2259.628
 20
-3315.518
 30
3677.000
 70
    32
  0
VERTEX
  8
1550LEVEL
 62
7
 10
2209.226
 20
-3254.226
 30
3677.000
 70
    32
  0
VERTEX
  8
1550LEVEL
 62
7
 10
2167.127
 20
-3204.310
 30
3677.000
 70
    32
  0
VERTEX
  8
1550LEVEL
 62
7
 10
2142.931
 20
-3147.867
 30
3677.000
 70
    32
  0
VERTEX
  8
1550LEVEL
 62
7
 10
2095.873
 20
-3089.365
 30
3677.000
 70
    32
  0
VERTEX
  8
1550LEVEL
 62
7
 10
2045.868
 20
-3078.785
 30
3677.000
 70
    32
  0
VERTEX
  8
1550LEVEL
 62
7
 10
2004.723
 20
-3042.122
 30
3677.000
 70
    32
  0
VERTEX
  8
1550LEVEL
 62
7
 10
1945.606
 20
-3001.140
 30
3677.000
 70
    32
  0
VERTEX
  8
1550LEVEL
 62
7
 10
1895.398
 20
-2962.809
 30
3677.000
 70
    32
  0
VERTEX
  8
1550LEVEL
 62
7
 10
1851.293
 20
-2904.769
 30
3677.000
 70
    32
  0
VERTEX
  8
1550LEVEL
 62
7
 10
1808.957
 20
-2867.667
 30
3677.000
 70
    32
  0
VERTEX
  8
1550LEVEL
 62
7
 10
1780.798
 20
-2855.963
 30
3677.000
 70
    32
  0
VERTEX
  8
1550LEVEL
 62
7
 10
1759.726
 20
-2840.829
 30
3677.000
 70
    32
  0
VERTEX
  8
1550LEVEL
 62
7
 10
1715.747
 20
-2735.182
 30
3677.000
 70
    32
  0
VERTEX
  8
1550LEVEL
 62
7
 10
1779.996
 20
-2749.751
 30
3677.000
 70
    32
  0
VERTEX
  8
1550LEVEL
 62
7
 10
1798.652
 20
-2744.853
 30
3677.000
 70
    32
  0
VERTEX
  8
1550LEVEL
 62
7
 10
1810.958
 20
-2735.435
 30
3677.000
 70
    32
  0
VERTEX
  8
1550LEVEL
 62
7
 10
1827.202
 20
-2742.759
 30
3677.000
 70
    32
  0
VERTEX
  8
1550LEVEL
 62
7
 10
1849.661
 20
-2797.419
 30
3677.000
 70
    32
  0
VERTEX
  8
1550LEVEL
 62
7
 10
1908.072
 20
-2849.378
 30
3677.000
 70
    32
  0
VERTEX
  8
1550LEVEL
 62
7
 10
1891.784
 20
-2785.854
 30
3677.000
 70
    32
  0
VERTEX
  8
1550LEVEL
 62
7
 10
1837.953
 20
-2717.475
 30
3677.000
 70
    32
  0
VERTEX
  8
1550LEVEL
 62
7
 10
1832.044
 20
-2652.044
 30
3677.000
 70
    32
  0
VERTEX
  8
1550LEVEL
 62
7
 10
1801.702
 20
-2559.111
 30
3677.000
 70
    32
  0
VERTEX
  8
1550LEVEL
 62
7
 10
1859.959
 20
-2612.053
 30
3677.000
 70
    32
  0
VERTEX
  8
1550LEVEL
 62
7
 10
1894.587
 20
-2667.858
 30
3677.000
 70
    32
  0
VERTEX
  8
1550LEVEL
 62
7
 10
1950.892
 20
-2730.072
 30
3677.000
 70
    32
  0
VERTEX
  8
1550LEVEL
 62
7
 10
2046.195
 20
-2799.131
 30
3677.000
 70
    32
  0
VERTEX
  8
1550LEVEL
 62
7
 10
2120.849
 20
-2858.414
 30
3677.000
 70
    32
  0
VERTEX
  8
1550LEVEL
 62
7
 10
2171.258
 20
-2908.367
 30
3677.000
 70
    32
  0
VERTEX
  8
1550LEVEL
 62
7
 10
2233.995
 20
-2947.142
 30
3677.000
 70
    32
  0
VERTEX
  8
1550LEVEL
 62
7
 10
2226.198
 20
-2913.166
 30
3677.000
 70
    32
  0
VERTEX
  8
1550LEVEL
 62
7
 10
2187.740
 20
-2843.156
 30
3677.000
 70
    32
  0
VERTEX
  8
1550LEVEL
 62
7
 10
2142.013
 20
-2790.658
 30
3677.000
 70
    32
  0
VERTEX
  8
1550LEVEL
 62
7
 10
2117.020
 20
-2676.385
 30
3677.000
 70
    32
  0
VERTEX
  8
1550LEVEL
 62
7
 10
2080.473
 20
-2573.159
 30
3677.000
 70
    32
  0
VERTEX
  8
1550LEVEL
 62
7
 10
2023.408
 20
-2520.655
 30
3677.000
 70
    32
  0
VERTEX
  8
1550LEVEL
 62
7
 10
1983.022
 20
-2458.155
 30
3677.000
 70
    32
  0
VERTEX
  8
1550LEVEL
 62
7
 10
2058.889
 20
-2499.989
 30
3677.000
 70
    32
  0
VERTEX
  8
1550LEVEL
 62
7
 10
2084.868
 20
-2462.719
 30
3677.000
 70
    32
  0
VERTEX
  8
1550LEVEL
 62
7
 10
2071.078
 20
-2391.270
 30
3677.000
 70
    32
  0
VERTEX
  8
1550LEVEL
 62
7
 10
2068.897
 20
-2326.168
 30
3677.000
 70
    32
  0
VERTEX
  8
1550LEVEL
 62
7
 10
2040.143
 20
-2284.384
 30
3677.000
 70
    32
  0
VERTEX
  8
1550LEVEL
 62
7
 10
2022.371
 20
-2199.713
 30
3677.000
 70
    32
  0
VERTEX
  8
1550LEVEL
 62
7
 10
2052.780
 20
-2195.391
 30
3677.000
 70
    32
  0
VERTEX
  8
1550LEVEL
 62
7
 10
2092.168
 20
-2188.438
 30
3677.000
 70
    32
  0
VERTEX
  8
1550LEVEL
 62
7
 10
2113.666
 20
-2241.184
 30
3677.000
 70
    32
  0
VERTEX
  8
1550LEVEL
 62
7
 10
2122.191
 20
-2322.143
 30
3677.000
 70
    32
  0
VERTEX
  8
1550LEVEL
 62
7
 10
2142.866
 20
-2378.541
 30
3677.000
 70
    32
  0
VERTEX
  8
1550LEVEL
 62
7
 10
2153.440
 20
-2339.874
 30
3677.000
 70
    32
  0
VERTEX
  8
1550LEVEL
 62
7
 10
2142.686
 20
-2257.055
 30
3677.000
 70
    32
  0
VERTEX
  8
1550LEVEL
 62
7
 10
2125.350
 20
-2155.065
 30
3677.000
 70
    32
  0
VERTEX
  8
1550LEVEL
 62
7
 10
2128.686
 20
-2077.218
 30
3677.000
 70
    32
  0
VERTEX
  8
1550LEVEL
 62
7
 10
2176.558
 20
-2127.280
 30
3677.000
 70
    32
  0
VERTEX
  8
1550LEVEL
 62
7
 10
2220.641
 20
-2187.081
 30
3677.000
 70
    32
  0
VERTEX
  8
1550LEVEL
 62
7
 10
2191.588
 20
-2060.078
 30
3677.000
 70
    32
  0
VERTEX
  8
1550LEVEL
 62
7
 10
2179.560
 20
-2004.779
 30
3677.000
 70
    32
  0
VERTEX
  8
1550LEVEL
 62
7
 10
2151.881
 20
-1939.980
 30
3677.000
 70
    32
  0
VERTEX
  8
1550LEVEL
 62
7
 10
2142.457
 20
-1863.164
 30
3677.000
 70
    32
  0
VERTEX
  8
1550LEVEL
 62
7
 10
2147.761
 20
-1785.624
 30
3677.000
 70
    32
  0
VERTEX
  8
1550LEVEL
 62
7
 10
2178.596
 20
-1726.939
 30
3677.000
 70
    32
  0
VERTEX
  8
1550LEVEL
 62
7
 10
2213.105
 20
-1667.315
 30
3677.000
 70
    32
  0
VERTEX
  8
1550LEVEL
 62
7
 10
2193.858
 20
-1598.541
 30
3677.000
 70
    32
  0
VERTEX
  8
1550LEVEL
 62
7
 10
2219.310
 20
-1601.759
 30
3677.000
 70
    32
  0
VERTEX
  8
1550LEVEL
 62
7
 10
2261.281
 20
-1591.178
 30
3677.000
 70
    32
  0
VERTEX
  8
1550LEVEL
 62
7
 10
2292.862
 20
-1621.308
 30
3677.000
 70
    32
  0
VERTEX
  8
1550LEVEL
 62
7
 10
2326.479
 20
-1722.313
 30
3677.000
 70
    32
  0
VERTEX
  8
1550LEVEL
 62
7
 10
2368.768
 20
-1838.783
 30
3677.000
 70
    32
  0
VERTEX
  8
1550LEVEL
 62
7
 10
2424.678
 20
-1942.260
 30
3677.000
 70
    32
  0
VERTEX
  8
1550LEVEL
 62
7
 10
2510.985
 20
-2156.067
 30
3677.000
 70
    32
  0
VERTEX
  8
1550LEVEL
 62
7
 10
2531.220
 20
-2181.402
 30
3677.000
 70
    32
  0
VERTEX
  8
1550LEVEL
 62
7
 10
2560.023
 20
-2176.072
 30
3677.000
 70
    32
  0
VERTEX
  8
1550LEVEL
 62
7
 10
2628.175
 20
-2247.947
 30
3677.000
 70
    32
  0
VERTEX
  8
1550LEVEL
 62
7
 10
2655.949
 20
-2262.111
 30
3677.000
 70
    32
  0
VERTEX
  8
1550LEVEL
 62
7
 10
2679.108
 20
-2241.285
 30
3677.000
 70
    32
  0
VERTEX
  8
1550LEVEL
 62
7
 10
2701.982
 20
-2128.691
 30
3677.000
 70
    32
  0
VERTEX
  8
1550LEVEL
 62
7
 10
2734.457
 20
-2014.320
 30
3677.000
 70
    32
  0
VERTEX
  8
1550LEVEL
 62
7
 10
2738.272
 20
-1959.227
 30
3677.000
 70
    32
  0
VERTEX
  8
1550LEVEL
 62
7
 10
2738.755
 20
-1862.539
 30
3677.000
 70
    32
  0
VERTEX
  8
1550LEVEL
 62
7
 10
2781.146
 20
-1825.061
 30
3677.000
 70
    32
  0
VERTEX
  8
1550LEVEL
 62
7
 10
2812.189
 20
-1690.812
 30
3677.000
 70
    32
  0
VERTEX
  8
1550LEVEL
 62
7
 10
2848.829
 20
-1651.428
 30
3677.000
 70
    32
  0
VERTEX
  8
1550LEVEL
 62
7
 10
2892.024
 20
-1584.593
 30
3677.000
 70
    32
  0
VERTEX
  8
1550LEVEL
 62
7
 10
2914.131
 20
-1493.046
 30
3677.000
 70
    32
  0
VERTEX
  8
1550LEVEL
 62
7
 10
2961.452
 20
-1401.404
 30
3677.000
 70
    32
  0
VERTEX
  8
1550LEVEL
 62
7
 10
3010.354
 20
-1372.251
 30
3677.000
 70
    32
  0
VERTEX
  8
1550LEVEL
 62
7
 10
3080.740
 20
-1326.545
 30
3677.000
 70
    32
  0
VERTEX
  8
1550LEVEL
 62
7
 10
3112.474
 20
-1187.868
 30
3677.000
 70
    32
  0
VERTEX
  8
1550LEVEL
 62
7
 10
3128.408
 20
-1089.057
 30
3677.000
 70
    32
  0
VERTEX
  8
1550LEVEL
 62
7
 10
3128.792
 20
-1086.597
 30
3677.000
 70
    32
  0
VERTEX
  8
1550LEVEL
 62
7
 10
3185.009
 20
-1020.284
 30
3677.000
 70
    32
  0
VERTEX
  8
1550LEVEL
 62
7
 10
3204.328
 20
-872.360
 30
3677.000
 70
    32
  0
SEQEND
  8
1550LEVEL
  0
POLYLINE
  8
1550LEVEL
 62
7
 66
     1
 70
     8
  0
VERTEX
  8
1550LEVEL
 62
7
 10
1386.459
 20
-3415.784
 30
3677.000
 70
    32
  0
VERTEX
  8
1550LEVEL
 62
7
 10
1439.148
 20
-3512.459
 30
3677.000
 70
    32
  0
VERTEX
  8
1550LEVEL
 62
7
 10
1483.217
 20
-3594.937
 30
3677.000
 70
    32
  0
VERTEX
  8
1550LEVEL
 62
7
 10
1526.073
 20
-3678.737
 30
3677.000
 70
    32
  0
VERTEX
  8
1550LEVEL
 62
7
 10
1567.835
 20
-3743.719
 30
3677.000
 70
    32
  0
VERTEX
  8
1550LEVEL
 62
7
 10
1615.041
 20
-3828.703
 30
3677.000
 70
    32
  0
VERTEX
  8
1550LEVEL
 62
7
 10
1657.372
 20
-3893.270
 30
3677.000
 70
    32
  0
VERTEX
  8
1550LEVEL
 62
7
 10
1688.771
 20
-3953.610
 30
3677.000
 70
    32
  0
VERTEX
  8
1550LEVEL
 62
7
 10
1703.796
 20
-3913.874
 30
3677.000
 70
    32
  0
VERTEX
  8
1550LEVEL
 62
7
 10
1689.240
 20
-3863.472
 30
3677.000
 70
    32
  0
VERTEX
  8
1550LEVEL
 62
7
 10
1691.371
 20
-3807.864
 30
3677.000
 70
    32
  0
VERTEX
  8
1550LEVEL
 62
7
 10
1724.005
 20
-3832.867
 30
3677.000
 70
    32
  0
VERTEX
  8
1550LEVEL
 62
7
 10
1764.783
 20
-3897.695
 30
3677.000
 70
    32
  0
VERTEX
  8
1550LEVEL
 62
7
 10
1829.147
 20
-3979.310
 30
3677.000
 70
    32
  0
VERTEX
  8
1550LEVEL
 62
7
 10
1883.702
 20
-4062.417
 30
3677.000
 70
    32
  0
VERTEX
  8
1550LEVEL
 62
7
 10
1933.773
 20
-4127.437
 30
3677.000
 70
    32
  0
VERTEX
  8
1550LEVEL
 62
7
 10
1969.192
 20
-4176.562
 30
3677.000
 70
    32
  0
VERTEX
  8
1550LEVEL
 62
7
 10
2010.204
 20
-4196.321
 30
3677.000
 70
    32
  0
VERTEX
  8
1550LEVEL
 62
7
 10
2038.627
 20
-4241.833
 30
3677.000
 70
    32
  0
VERTEX
  8
1550LEVEL
 62
7
 10
2064.422
 20
-4294.495
 30
3677.000
 70
    32
  0
VERTEX
  8
1550LEVEL
 62
7
 10
2096.097
 20
-4333.711
 30
3677.000
 70
    32
  0
VERTEX
  8
1550LEVEL
 62
7
 10
2212.610
 20
-4423.469
 30
3677.000
 70
    32
  0
VERTEX
  8
1550LEVEL
 62
7
 10
2233.704
 20
-4436.843
 30
3677.000
 70
    32
  0
VERTEX
  8
1550LEVEL
 62
7
 10
2261.103
 20
-4458.256
 30
3677.000
 70
    32
  0
VERTEX
  8
1550LEVEL
 62
7
 10
2301.870
 20
-4486.041
 30
3677.000
 70
    32
  0
VERTEX
  8
1550LEVEL
 62
7
 10
2336.381
 20
-4534.520
 30
3677.000
 70
    32
  0
VERTEX
  8
1550LEVEL
 62
7
 10
2379.227
 20
-4597.404
 30
3677.000
 70
    32
  0
VERTEX
  8
1550LEVEL
 62
7
 10
2417.715
 20
-4670.442
 30
3677.000
 70
    32
  0
VERTEX
  8
1550LEVEL
 62
7
 10
2473.684
 20
-4747.722
 30
3677.000
 70
    32
  0
VERTEX
  8
1550LEVEL
 62
7
 10
2525.964
 20
-4832.490
 30
3677.000
 70
    32
  0
VERTEX
  8
1550LEVEL
 62
7
 10
2576.236
 20
-4909.133
 30
3677.000
 70
    32
  0
VERTEX
  8
1550LEVEL
 62
7
 10
2625.515
 20
-4964.705
 30
3677.000
 70
    32
  0
VERTEX
  8
1550LEVEL
 62
7
 10
2630.563
 20
-4933.995
 30
3677.000
 70
    32
  0
VERTEX
  8
1550LEVEL
 62
7
 10
2599.793
 20
-4863.170
 30
3677.000
 70
    32
  0
VERTEX
  8
1550LEVEL
 62
7
 10
2586.958
 20
-4804.972
 30
3677.000
 70
    32
  0
VERTEX
  8
1550LEVEL
 62
7
 10
2622.605
 20
-4836.494
 30
3677.000
 70
    32
  0
VERTEX
  8
1550LEVEL
 62
7
 10
2663.014
 20
-4897.233
 30
3677.000
 70
    32
  0
VERTEX
  8
1550LEVEL
 62
7
 10
2708.488
 20
-4952.967
 30
3677.000
 70
    32
  0
VERTEX
  8
1550LEVEL
 62
7
 10
2703.457
 20
-4917.407
 30
3677.000
 70
    32
  0
VERTEX
  8
1550LEVEL
 62
7
 10
2668.621
 20
-4845.191
 30
3677.000
 70
    32
  0
VERTEX
  8
1550LEVEL
 62
7
 10
2658.630
 20
-4784.918
 30
3677.000
 70
    32
  0
VERTEX
  8
1550LEVEL
 62
7
 10
2715.280
 20
-4836.854
 30
3677.000
 70
    32
  0
VERTEX
  8
1550LEVEL
 62
7
 10
2765.958
 20
-4893.149
 30
3677.000
 70
    32
  0
VERTEX
  8
1550LEVEL
 62
7
 10
2820.956
 20
-4947.599
 30
3677.000
 70
    32
  0
VERTEX
  8
1550LEVEL
 62
7
 10
2884.841
 20
-5006.460
 30
3677.000
 70
    32
  0
VERTEX
  8
1550LEVEL
 62
7
 10
2928.406
 20
-5035.690
 30
3677.000
 70
    32
  0
VERTEX
  8
1550LEVEL
 62
7
 10
2914.242
 20
-4987.617
 30
3677.000
 70
    32
  0
VERTEX
  8
1550LEVEL
 62
7
 10
2870.413
 20
-4924.579
 30
3677.000
 70
    32
  0
VERTEX
  8
1550LEVEL
 62
7
 10
2808.047
 20
-4830.173
 30
3677.000
 70
    32
  0
VERTEX
  8
1550LEVEL
 62
7
 10
2745.243
 20
-4736.958
 30
3677.000
 70
    32
  0
VERTEX
  8
1550LEVEL
 62
7
 10
2684.591
 20
-4646.095
 30
3677.000
 70
    32
  0
VERTEX
  8
1550LEVEL
 62
7
 10
2629.098
 20
-4559.314
 30
3677.000
 70
    32
  0
VERTEX
  8
1550LEVEL
 62
7
 10
2577.126
 20
-4472.578
 30
3677.000
 70
    32
  0
VERTEX
  8
1550LEVEL
 62
7
 10
2526.014
 20
-4390.009
 30
3677.000
 70
    32
  0
VERTEX
  8
1550LEVEL
 62
7
 10
2478.949
 20
-4326.719
 30
3677.000
 70
    32
  0
VERTEX
  8
1550LEVEL
 62
7
 10
2430.608
 20
-4274.820
 30
3677.000
 70
    32
  0
VERTEX
  8
1550LEVEL
 62
7
 10
2385.657
 20
-4222.191
 30
3677.000
 70
    32
  0
VERTEX
  8
1550LEVEL
 62
7
 10
2326.053
 20
-4153.667
 30
3677.000
 70
    32
  0
VERTEX
  8
1550LEVEL
 62
7
 10
2299.537
 20
-4118.532
 30
3677.000
 70
    32
  0
VERTEX
  8
1550LEVEL
 62
7
 10
2348.930
 20
-4165.303
 30
3677.000
 70
    32
  0
VERTEX
  8
1550LEVEL
 62
7
 10
2407.018
 20
-4209.652
 30
3677.000
 70
    32
  0
VERTEX
  8
1550LEVEL
 62
7
 10
2439.812
 20
-4222.332
 30
3677.000
 70
    32
  0
VERTEX
  8
1550LEVEL
 62
7
 10
2428.094
 20
-4197.320
 30
3677.000
 70
    32
  0
VERTEX
  8
1550LEVEL
 62
7
 10
2387.870
 20
-4138.625
 30
3677.000
 70
    32
  0
VERTEX
  8
1550LEVEL
 62
7
 10
2339.252
 20
-4075.596
 30
3677.000
 70
    32
  0
VERTEX
  8
1550LEVEL
 62
7
 10
2272.621
 20
-4000.431
 30
3677.000
 70
    32
  0
SEQEND
  8
1550LEVEL
  0
POLYLINE
  8
1550LEVEL
 62
13
 66
     1
 70
     8
  0
VERTEX
  8
1550LEVEL
 62
13
 10
1391.840
 20
-3413.601
 30
3677.000
 70
    32
  0
VERTEX
  8
1550LEVEL
 62
13
 10
1458.910
 20
-3503.702
 30
3677.000
 70
    32
  0
VERTEX
  8
1550LEVEL
 62
13
 10
1522.592
 20
-3610.661
 30
3677.000
 70
    32
  0
VERTEX
  8
1550LEVEL
 62
13
 10
1573.966
 20
-3710.910
 30
3677.000
 70
    32
  0
VERTEX
  8
1550LEVEL
 62
13
 10
1638.890
 20
-3787.321
 30
3677.000
 70
    32
  0
VERTEX
  8
1550LEVEL
 62
13
 10
1619.457
 20
-3700.375
 30
3677.000
 70
    32
  0
VERTEX
  8
1550LEVEL
 62
13
 10
1563.369
 20
-3583.514
 30
3677.000
 70
    32
  0
VERTEX
  8
1550LEVEL
 62
13
 10
1512.170
 20
-3464.393
 30
3677.000
 70
    32
  0
VERTEX
  8
1550LEVEL
 62
13
 10
1576.280
 20
-3549.244
 30
3677.000
 70
    32
  0
VERTEX
  8
1550LEVEL
 62
13
 10
1653.992
 20
-3671.246
 30
3677.000
 70
    32
  0
VERTEX
  8
1550LEVEL
 62
13
 10
1735.202
 20
-3795.053
 30
3677.000
 70
    32
  0
VERTEX
  8
1550LEVEL
 62
13
 10
1817.464
 20
-3913.733
 30
3677.000
 70
    32
  0
VERTEX
  8
1550LEVEL
 62
13
 10
1880.722
 20
-4015.334
 30
3677.000
 70
    32
  0
VERTEX
  8
1550LEVEL
 62
13
 10
1953.505
 20
-4115.651
 30
3677.000
 70
    32
  0
VERTEX
  8
1550LEVEL
 62
13
 10
2013.431
 20
-4175.658
 30
3677.000
 70
    32
  0
VERTEX
  8
1550LEVEL
 62
13
 10
2090.329
 20
-4306.100
 30
3677.000
 70
    32
  0
VERTEX
  8
1550LEVEL
 62
13
 10
2180.711
 20
-4282.415
 30
3677.000
 70
    32
  0
VERTEX
  8
1550LEVEL
 62
13
 10
2196.305
 20
-4334.240
 30
3677.000
 70
    32
  0
VERTEX
  8
1550LEVEL
 62
13
 10
2213.128
 20
-4378.193
 30
3677.000
 70
    32
  0
VERTEX
  8
1550LEVEL
 62
13
 10
2250.544
 20
-4414.526
 30
3677.000
 70
    32
  0
VERTEX
  8
1550LEVEL
 62
13
 10
2286.153
 20
-4438.229
 30
3677.000
 70
    32
  0
VERTEX
  8
1550LEVEL
 62
13
 10
2322.755
 20
-4483.003
 30
3677.000
 70
    32
  0
VERTEX
  8
1550LEVEL
 62
13
 10
2374.410
 20
-4550.790
 30
3677.000
 70
    32
  0
VERTEX
  8
1550LEVEL
 62
13
 10
2427.740
 20
-4598.175
 30
3677.000
 70
    32
  0
VERTEX
  8
1550LEVEL
 62
13
 10
2400.866
 20
-4520.147
 30
3677.000
 70
    32
  0
VERTEX
  8
1550LEVEL
 62
13
 10
2350.290
 20
-4401.879
 30
3677.000
 70
    32
  0
VERTEX
  8
1550LEVEL
 62
13
 10
2404.066
 20
-4452.862
 30
3677.000
 70
    32
  0
VERTEX
  8
1550LEVEL
 62
13
 10
2456.108
 20
-4550.444
 30
3677.000
 70
    32
  0
VERTEX
  8
1550LEVEL
 62
13
 10
2517.392
 20
-4663.076
 30
3677.000
 70
    32
  0
VERTEX
  8
1550LEVEL
 62
13
 10
2573.984
 20
-4741.210
 30
3677.000
 70
    32
  0
VERTEX
  8
1550LEVEL
 62
13
 10
2600.111
 20
-4730.422
 30
3677.000
 70
    32
  0
VERTEX
  8
1550LEVEL
 62
13
 10
2561.268
 20
-4646.745
 30
3677.000
 70
    32
  0
VERTEX
  8
1550LEVEL
 62
13
 10
2534.878
 20
-4564.004
 30
3677.000
 70
    32
  0
VERTEX
  8
1550LEVEL
 62
13
 10
2569.751
 20
-4611.784
 30
3677.000
 70
    32
  0
VERTEX
  8
1550LEVEL
 62
13
 10
2627.142
 20
-4688.026
 30
3677.000
 70
    32
  0
VERTEX
  8
1550LEVEL
 62
13
 10
2695.854
 20
-4738.569
 30
3677.000
 70
    32
  0
VERTEX
  8
1550LEVEL
 62
13
 10
2664.221
 20
-4647.450
 30
3677.000
 70
    32
  0
VERTEX
  8
1550LEVEL
 62
13
 10
2611.885
 20
-4545.287
 30
3677.000
 70
    32
  0
VERTEX
  8
1550LEVEL
 62
13
 10
2541.924
 20
-4444.655
 30
3677.000
 70
    32
  0
VERTEX
  8
1550LEVEL
 62
13
 10
2470.649
 20
-4347.597
 30
3677.000
 70
    32
  0
VERTEX
  8
1550LEVEL
 62
13
 10
2405.378
 20
-4265.337
 30
3677.000
 70
    32
  0
VERTEX
  8
1550LEVEL
 62
13
 10
2318.483
 20
-4177.936
 30
3677.000
 70
    32
  0
VERTEX
  8
1550LEVEL
 62
13
 10
2218.343
 20
-4080.151
 30
3677.000
 70
    32
  0
VERTEX
  8
1550LEVEL
 62
13
 10
2130.808
 20
-3966.191
 30
3677.000
 70
    32
  0
VERTEX
  8
1550LEVEL
 62
13
 10
2055.864
 20
-3858.733
 30
3677.000
 70
    32
  0
VERTEX
  8
1550LEVEL
 62
13
 10
2055.355
 20
-3832.951
 30
3677.000
 70
    32
  0
VERTEX
  8
1550LEVEL
 62
13
 10
2123.477
 20
-3917.925
 30
3677.000
 70
    32
  0
VERTEX
  8
1550LEVEL
 62
13
 10
2183.121
 20
-3994.267
 30
3677.000
 70
    32
  0
VERTEX
  8
1550LEVEL
 62
13
 10
2258.406
 20
-4059.192
 30
3677.000
 70
    32
  0
VERTEX
  8
1550LEVEL
 62
13
 10
2324.105
 20
-4119.345
 30
3677.000
 70
    32
  0
VERTEX
  8
1550LEVEL
 62
13
 10
2377.441
 20
-4155.392
 30
3677.000
 70
    32
  0
VERTEX
  8
1550LEVEL
 62
13
 10
2322.779
 20
-4085.875
 30
3677.000
 70
    32
  0
VERTEX
  8
1550LEVEL
 62
13
 10
2268.656
 20
-4012.915
 30
3677.000
 70
    32
  0
SEQEND
  8
1550LEVEL
  0
POLYLINE
  8
1550LEVEL
 62
13
 66
     1
 70
     8
  0
VERTEX
  8
1550LEVEL
 62
13
 10
1445.144
 20
-3110.973
 30
3677.000
 70
    32
  0
VERTEX
  8
1550LEVEL
 62
13
 10
1413.225
 20
-3079.782
 30
3677.000
 70
    32
  0
VERTEX
  8
1550LEVEL
 62
13
 10
1376.791
 20
-3027.475
 30
3677.000
 70
    32
  0
VERTEX
  8
1550LEVEL
 62
13
 10
1385.307
 20
-3011.670
 30
3677.000
 70
    32
  0
VERTEX
  8
1550LEVEL
 62
13
 10
1402.556
 20
-3001.260
 30
3677.000
 70
    32
  0
VERTEX
  8
1550LEVEL
 62
13
 10
1383.245
 20
-2986.149
 30
3677.000
 70
    32
  0
VERTEX
  8
1550LEVEL
 62
13
 10
1304.259
 20
-2891.667
 30
3677.000
 70
    32
  0
VERTEX
  8
1550LEVEL
 62
13
 10
1242.187
 20
-2817.970
 30
3677.000
 70
    32
  0
VERTEX
  8
1550LEVEL
 62
13
 10
1174.803
 20
-2741.175
 30
3677.000
 70
    32
  0
VERTEX
  8
1550LEVEL
 62
13
 10
1113.952
 20
-2654.817
 30
3677.000
 70
    32
  0
VERTEX
  8
1550LEVEL
 62
13
 10
1043.438
 20
-2564.178
 30
3677.000
 70
    32
  0
VERTEX
  8
1550LEVEL
 62
13
 10
960.821
 20
-2434.859
 30
3677.000
 70
    32
  0
VERTEX
  8
1550LEVEL
 62
13
 10
897.305
 20
-2288.112
 30
3677.000
 70
    32
  0
VERTEX
  8
1550LEVEL
 62
13
 10
814.826
 20
-2148.231
 30
3677.000
 70
    32
  0
VERTEX
  8
1550LEVEL
 62
13
 10
718.831
 20
-1991.624
 30
3677.000
 70
    32
  0
VERTEX
  8
1550LEVEL
 62
13
 10
617.002
 20
-1844.942
 30
3677.000
 70
    32
  0
VERTEX
  8
1550LEVEL
 62
13
 10
537.999
 20
-1724.755
 30
3677.000
 70
    32
  0
VERTEX
  8
1550LEVEL
 62
13
 10
511.502
 20
-1639.478
 30
3677.000
 70
    32
  0
VERTEX
  8
1550LEVEL
 62
13
 10
577.645
 20
-1687.100
 30
3677.000
 70
    32
  0
VERTEX
  8
1550LEVEL
 62
13
 10
660.535
 20
-1779.168
 30
3677.000
 70
    32
  0
VERTEX
  8
1550LEVEL
 62
13
 10
730.973
 20
-1870.299
 30
3677.000
 70
    32
  0
VERTEX
  8
1550LEVEL
 62
13
 10
797.975
 20
-1981.808
 30
3677.000
 70
    32
  0
VERTEX
  8
1550LEVEL
 62
13
 10
860.537
 20
-2115.303
 30
3677.000
 70
    32
  0
VERTEX
  8
1550LEVEL
 62
13
 10
914.082
 20
-2243.610
 30
3677.000
 70
    32
  0
VERTEX
  8
1550LEVEL
 62
13
 10
951.505
 20
-2268.605
 30
3677.000
 70
    32
  0
VERTEX
  8
1550LEVEL
 62
13
 10
1006.424
 20
-2307.419
 30
3677.000
 70
    32
  0
VERTEX
  8
1550LEVEL
 62
13
 10
1080.057
 20
-2374.858
 30
3677.000
 70
    32
  0
VERTEX
  8
1550LEVEL
 62
13
 10
1128.656
 20
-2471.903
 30
3677.000
 70
    32
  0
VERTEX
  8
1550LEVEL
 62
13
 10
1181.205
 20
-2563.012
 30
3677.000
 70
    32
  0
VERTEX
  8
1550LEVEL
 62
13
 10
1207.219
 20
-2653.002
 30
3677.000
 70
    32
  0
VERTEX
  8
1550LEVEL
 62
13
 10
1263.482
 20
-2750.991
 30
3677.000
 70
    32
  0
VERTEX
  8
1550LEVEL
 62
13
 10
1311.689
 20
-2769.858
 30
3677.000
 70
    32
  0
VERTEX
  8
1550LEVEL
 62
13
 10
1342.294
 20
-2804.623
 30
3677.000
 70
    32
  0
VERTEX
  8
1550LEVEL
 62
13
 10
1374.310
 20
-2877.155
 30
3677.000
 70
    32
  0
VERTEX
  8
1550LEVEL
 62
13
 10
1414.150
 20
-2938.310
 30
3677.000
 70
    32
  0
VERTEX
  8
1550LEVEL
 62
13
 10
1459.799
 20
-2975.172
 30
3677.000
 70
    32
  0
VERTEX
  8
1550LEVEL
 62
13
 10
1448.142
 20
-2940.090
 30
3677.000
 70
    32
  0
VERTEX
  8
1550LEVEL
 62
13
 10
1479.164
 20
-2915.704
 30
3677.000
 70
    32
  0
VERTEX
  8
1550LEVEL
 62
13
 10
1469.706
 20
-2879.452
 30
3677.000
 70
    32
  0
VERTEX
  8
1550LEVEL
 62
13
 10
1408.509
 20
-2879.220
 30
3677.000
 70
    32
  0
VERTEX
  8
1550LEVEL
 62
13
 10
1381.098
 20
-2804.635
 30
3677.000
 70
    32
  0
VERTEX
  8
1550LEVEL
 62
13
 10
1331.873
 20
-2750.331
 30
3677.000
 70
    32
  0
VERTEX
  8
1550LEVEL
 62
13
 10
1324.272
 20
-2679.596
 30
3677.000
 70
    32
  0
VERTEX
  8
1550LEVEL
 62
13
 10
1307.537
 20
-2596.347
 30
3677.000
 70
    32
  0
VERTEX
  8
1550LEVEL
 62
13
 10
1289.585
 20
-2649.988
 30
3677.000
 70
    32
  0
VERTEX
  8
1550LEVEL
 62
13
 10
1259.655
 20
-2601.217
 30
3677.000
 70
    32
  0
VERTEX
  8
1550LEVEL
 62
13
 10
1231.328
 20
-2521.198
 30
3677.000
 70
    32
  0
VERTEX
  8
1550LEVEL
 62
13
 10
1224.057
 20
-2446.734
 30
3677.000
 70
    32
  0
VERTEX
  8
1550LEVEL
 62
13
 10
1272.725
 20
-2462.649
 30
3677.000
 70
    32
  0
VERTEX
  8
1550LEVEL
 62
13
 10
1264.853
 20
-2369.445
 30
3677.000
 70
    32
  0
VERTEX
  8
1550LEVEL
 62
13
 10
1218.673
 20
-2248.840
 30
3677.000
 70
    32
  0
VERTEX
  8
1550LEVEL
 62
13
 10
1203.685
 20
-2188.290
 30
3677.000
 70
    32
  0
VERTEX
  8
1550LEVEL
 62
13
 10
1202.550
 20
-2129.400
 30
3677.000
 70
    32
  0
VERTEX
  8
1550LEVEL
 62
13
 10
1217.805
 20
-2088.188
 30
3677.000
 70
    32
  0
VERTEX
  8
1550LEVEL
 62
13
 10
1252.756
 20
-2151.603
 30
3677.000
 70
    32
  0
VERTEX
  8
1550LEVEL
 62
13
 10
1298.469
 20
-2210.651
 30
3677.000
 70
    32
  0
VERTEX
  8
1550LEVEL
 62
13
 10
1344.052
 20
-2285.049
 30
3677.000
 70
    32
  0
VERTEX
  8
1550LEVEL
 62
13
 10
1371.841
 20
-2368.512
 30
3677.000
 70
    32
  0
VERTEX
  8
1550LEVEL
 62
13
 10
1407.031
 20
-2435.240
 30
3677.000
 70
    32
  0
VERTEX
  8
1550LEVEL
 62
13
 10
1473.613
 20
-2329.975
 30
3677.000
 70
    32
  0
VERTEX
  8
1550LEVEL
 62
13
 10
1444.058
 20
-2257.828
 30
3677.000
 70
    32
  0
VERTEX
  8
1550LEVEL
 62
13
 10
1436.303
 20
-2188.076
 30
3677.000
 70
    32
  0
VERTEX
  8
1550LEVEL
 62
13
 10
1440.342
 20
-2142.845
 30
3677.000
 70
    32
  0
VERTEX
  8
1550LEVEL
 62
13
 10
1463.430
 20
-2187.021
 30
3677.000
 70
    32
  0
VERTEX
  8
1550LEVEL
 62
13
 10
1567.971
 20
-2238.875
 30
3677.000
 70
    32
  0
VERTEX
  8
1550LEVEL
 62
13
 10
1555.000
 20
-2207.367
 30
3677.000
 70
    32
  0
VERTEX
  8
1550LEVEL
 62
13
 10
1531.902
 20
-2142.276
 30
3677.000
 70
    32
  0
VERTEX
  8
1550LEVEL
 62
13
 10
1530.990
 20
-2093.248
 30
3677.000
 70
    32
  0
VERTEX
  8
1550LEVEL
 62
13
 10
1544.973
 20
-2095.683
 30
3677.000
 70
    32
  0
VERTEX
  8
1550LEVEL
 62
13
 10
1566.637
 20
-2108.642
 30
3677.000
 70
    32
  0
VERTEX
  8
1550LEVEL
 62
13
 10
1607.134
 20
-2130.085
 30
3677.000
 70
    32
  0
VERTEX
  8
1550LEVEL
 62
13
 10
1658.564
 20
-2171.882
 30
3677.000
 70
    32
  0
VERTEX
  8
1550LEVEL
 62
13
 10
1705.283
 20
-2229.323
 30
3677.000
 70
    32
  0
VERTEX
  8
1550LEVEL
 62
13
 10
1738.822
 20
-2314.692
 30
3677.000
 70
    32
  0
VERTEX
  8
1550LEVEL
 62
13
 10
1787.442
 20
-2393.848
 30
3677.000
 70
    32
  0
VERTEX
  8
1550LEVEL
 62
13
 10
1866.469
 20
-2436.427
 30
3677.000
 70
    32
  0
VERTEX
  8
1550LEVEL
 62
13
 10
1902.025
 20
-2474.990
 30
3677.000
 70
    32
  0
VERTEX
  8
1550LEVEL
 62
13
 10
1926.987
 20
-2494.259
 30
3677.000
 70
    32
  0
VERTEX
  8
1550LEVEL
 62
13
 10
1963.335
 20
-2450.293
 30
3677.000
 70
    32
  0
VERTEX
  8
1550LEVEL
 62
13
 10
1950.686
 20
-2410.268
 30
3677.000
 70
    32
  0
VERTEX
  8
1550LEVEL
 62
13
 10
1996.471
 20
-2420.441
 30
3677.000
 70
    32
  0
VERTEX
  8
1550LEVEL
 62
13
 10
2002.439
 20
-2367.700
 30
3677.000
 70
    32
  0
VERTEX
  8
1550LEVEL
 62
13
 10
1975.703
 20
-2279.110
 30
3677.000
 70
    32
  0
VERTEX
  8
1550LEVEL
 62
13
 10
1983.746
 20
-2229.212
 30
3677.000
 70
    32
  0
VERTEX
  8
1550LEVEL
 62
13
 10
1974.285
 20
-2160.706
 30
3677.000
 70
    32
  0
VERTEX
  8
1550LEVEL
 62
13
 10
1968.424
 20
-2048.161
 30
3677.000
 70
    32
  0
VERTEX
  8
1550LEVEL
 62
13
 10
2011.848
 20
-2039.571
 30
3677.000
 70
    32
  0
VERTEX
  8
1550LEVEL
 62
13
 10
2037.601
 20
-2144.135
 30
3677.000
 70
    32
  0
VERTEX
  8
1550LEVEL
 62
13
 10
2082.726
 20
-2085.917
 30
3677.000
 70
    32
  0
VERTEX
  8
1550LEVEL
 62
13
 10
2069.687
 20
-1983.842
 30
3677.000
 70
    32
  0
VERTEX
  8
1550LEVEL
 62
13
 10
2054.971
 20
-1869.914
 30
3677.000
 70
    32
  0
VERTEX
  8
1550LEVEL
 62
13
 10
2058.320
 20
-1753.263
 30
3677.000
 70
    32
  0
VERTEX
  8
1550LEVEL
 62
13
 10
2060.270
 20
-1652.017
 30
3677.000
 70
    32
  0
VERTEX
  8
1550LEVEL
 62
13
 10
2045.210
 20
-1548.366
 30
3677.000
 70
    32
  0
VERTEX
  8
1550LEVEL
 62
13
 10
2049.898
 20
-1458.635
 30
3677.000
 70
    32
  0
VERTEX
  8
1550LEVEL
 62
13
 10
2104.774
 20
-1441.249
 30
3677.000
 70
    32
  0
VERTEX
  8
1550LEVEL
 62
13
 10
2161.575
 20
-1459.947
 30
3677.000
 70
    32
  0
VERTEX
  8
1550LEVEL
 62
13
 10
2215.869
 20
-1541.501
 30
3677.000
 70
    32
  0
VERTEX
  8
1550LEVEL
 62
13
 10
2243.435
 20
-1463.406
 30
3677.000
 70
    32
  0
VERTEX
  8
1550LEVEL
 62
13
 10
2265.377
 20
-1503.622
 30
3677.000
 70
    32
  0
VERTEX
  8
1550LEVEL
 62
13
 10
2287.629
 20
-1557.998
 30
3677.000
 70
    32
  0
VERTEX
  8
1550LEVEL
 62
13
 10
2314.447
 20
-1618.631
 30
3677.000
 70
    32
  0
VERTEX
  8
1550LEVEL
 62
13
 10
2334.294
 20
-1690.019
 30
3677.000
 70
    32
  0
VERTEX
  8
1550LEVEL
 62
13
 10
2361.205
 20
-1759.738
 30
3677.000
 70
    32
  0
VERTEX
  8
1550LEVEL
 62
13
 10
2387.140
 20
-1834.092
 30
3677.000
 70
    32
  0
VERTEX
  8
1550LEVEL
 62
13
 10
2416.387
 20
-1892.080
 30
3677.000
 70
    32
  0
VERTEX
  8
1550LEVEL
 62
13
 10
2445.903
 20
-1956.410
 30
3677.000
 70
    32
  0
VERTEX
  8
1550LEVEL
 62
13
 10
2471.907
 20
-2025.483
 30
3677.000
 70
    32
  0
VERTEX
  8
1550LEVEL
 62
13
 10
2493.628
 20
-2071.965
 30
3677.000
 70
    32
  0
VERTEX
  8
1550LEVEL
 62
13
 10
2521.645
 20
-2137.825
 30
3677.000
 70
    32
  0
VERTEX
  8
1550LEVEL
 62
13
 10
2536.015
 20
-2170.055
 30
3677.000
 70
    32
  0
VERTEX
  8
1550LEVEL
 62
13
 10
2554.387
 20
-2165.364
 30
3677.000
 70
    32
  0
SEQEND
  8
1550LEVEL
  0
POLYLINE
  8
1550LEVEL
 62
13
 66
     1
 70
     8
  0
VERTEX
  8
1550LEVEL
 62
13
 10
-2876.828
 20
1011.102
 30
3677.000
 70
    32
  0
VERTEX
  8
1550LEVEL
 62
13
 10
-2805.700
 20
924.398
 30
3677.000
 70
    32
  0
VERTEX
  8
1550LEVEL
 62
13
 10
-2731.964
 20
826.957
 30
3677.000
 70
    32
  0
VERTEX
  8
1550LEVEL
 62
13
 10
-2668.645
 20
735.426
 30
3677.000
 70
    32
  0
VERTEX
  8
1550LEVEL
 62
13
 10
-2567.047
 20
663.115
 30
3677.000
 70
    32
  0
VERTEX
  8
1550LEVEL
 62
13
 10
-2479.260
 20
568.519
 30
3677.000
 70
    32
  0
VERTEX
  8
1550LEVEL
 62
13
 10
-2388.382
 20
467.897
 30
3677.000
 70
    32
  0
VERTEX
  8
1550LEVEL
 62
13
 10
-2295.363
 20
326.118
 30
3677.000
 70
    32
  0
VERTEX
  8
1550LEVEL
 62
13
 10
-2205.030
 20
210.714
 30
3677.000
 70
    32
  0
VERTEX
  8
1550LEVEL
 62
13
 10
-2153.849
 20
117.298
 30
3677.000
 70
    32
  0
VERTEX
  8
1550LEVEL
 62
13
 10
-2067.778
 20
-33.475
 30
3677.000
 70
    32
  0
VERTEX
  8
1550LEVEL
 62
13
 10
-1962.329
 20
-177.951
 30
3677.000
 70
    32
  0
VERTEX
  8
1550LEVEL
 62
13
 10
-1890.894
 20
-262.686
 30
3677.000
 70
    32
  0
SEQEND
  8
1550LEVEL
  0
POLYLINE
  8
1550LEVEL
 62
13
 66
     1
 70
     8
  0
VERTEX
  8
1550LEVEL
 62
13
 10
-1726.158
 20
-532.585
 30
3677.000
 70
    32
  0
VERTEX
  8
1550LEVEL
 62
13
 10
-1672.391
 20
-654.627
 30
3677.000
 70
    32
  0
VERTEX
  8
1550LEVEL
 62
13
 10
-1768.607
 20
-520.413
 30
3677.000
 70
    32
  0
VERTEX
  8
1550LEVEL
 62
13
 10
-1856.497
 20
-395.814
 30
3677.000
 70
    32
  0
VERTEX
  8
1550LEVEL
 62
13
 10
-1945.766
 20
-236.478
 30
3677.000
 70
    32
  0
VERTEX
  8
1550LEVEL
 62
13
 10
-2049.012
 20
-139.216
 30
3677.000
 70
    32
  0
VERTEX
  8
1550LEVEL
 62
13
 10
-2134.697
 20
-2.111
 30
3677.000
 70
    32
  0
VERTEX
  8
1550LEVEL
 62
13
 10
-2242.636
 20
145.778
 30
3677.000
 70
    32
  0
VERTEX
  8
1550LEVEL
 62
13
 10
-2167.942
 20
-13.298
 30
3677.000
 70
    32
  0
VERTEX
  8
1550LEVEL
 62
13
 10
-2048.045
 20
-205.640
 30
3677.000
 70
    32
  0
VERTEX
  8
1550LEVEL
 62
13
 10
-1936.994
 20
-325.539
 30
3677.000
 70
    32
  0
VERTEX
  8
1550LEVEL
 62
13
 10
-1855.569
 20
-454.420
 30
3677.000
 70
    32
  0
VERTEX
  8
1550LEVEL
 62
13
 10
-1784.313
 20
-585.493
 30
3677.000
 70
    32
  0
VERTEX
  8
1550LEVEL
 62
13
 10
-1807.721
 20
-582.090
 30
3677.000
 70
    32
  0
VERTEX
  8
1550LEVEL
 62
13
 10
-1870.956
 20
-478.728
 30
3677.000
 70
    32
  0
VERTEX
  8
1550LEVEL
 62
13
 10
-1890.425
 20
-508.194
 30
3677.000
 70
    32
  0
VERTEX
  8
1550LEVEL
 62
13
 10
-1796.805
 20
-668.714
 30
3677.000
 70
    32
  0
VERTEX
  8
1550LEVEL
 62
13
 10
-1715.466
 20
-777.170
 30
3677.000
 70
    32
  0
VERTEX
  8
1550LEVEL
 62
13
 10
-1665.969
 20
-945.919
 30
3677.000
 70
    32
  0
VERTEX
  8
1550LEVEL
 62
13
 10
-1618.344
 20
-1063.726
 30
3677.000
 70
    32
  0
VERTEX
  8
1550LEVEL
 62
13
 10
-1625.899
 20
-1157.293
 30
3677.000
 70
    32
  0
VERTEX
  8
1550LEVEL
 62
13
 10
-1599.481
 20
-1302.783
 30
3677.000
 70
    32
  0
VERTEX
  8
1550LEVEL
 62
13
 10
-1537.640
 20
-1453.804
 30
3677.000
 70
    32
  0
VERTEX
  8
1550LEVEL
 62
13
 10
-1468.304
 20
-1521.329
 30
3677.000
 70
    32
  0
VERTEX
  8
1550LEVEL
 62
13
 10
-1390.591
 20
-1659.457
 30
3677.000
 70
    32
  0
VERTEX
  8
1550LEVEL
 62
13
 10
-1304.396
 20
-1822.345
 30
3677.000
 70
    32
  0
VERTEX
  8
1550LEVEL
 62
13
 10
-1217.589
 20
-1965.170
 30
3677.000
 70
    32
  0
VERTEX
  8
1550LEVEL
 62
13
 10
-1060.540
 20
-2160.037
 30
3677.000
 70
    32
  0
VERTEX
  8
1550LEVEL
 62
13
 10
-932.995
 20
-2343.745
 30
3677.000
 70
    32
  0
VERTEX
  8
1550LEVEL
 62
13
 10
-811.134
 20
-2488.011
 30
3677.000
 70
    32
  0
VERTEX
  8
1550LEVEL
 62
13
 10
-724.771
 20
-2643.366
 30
3677.000
 70
    32
  0
VERTEX
  8
1550LEVEL
 62
13
 10
-634.518
 20
-2802.856
 30
3677.000
 70
    32
  0
VERTEX
  8
1550LEVEL
 62
13
 10
-550.318
 20
-2934.942
 30
3677.000
 70
    32
  0
VERTEX
  8
1550LEVEL
 62
13
 10
-498.813
 20
-3035.968
 30
3677.000
 70
    32
  0
VERTEX
  8
1550LEVEL
 62
13
 10
-489.961
 20
-3080.944
 30
3677.000
 70
    32
  0
VERTEX
  8
1550LEVEL
 62
13
 10
-587.802
 20
-2995.865
 30
3677.000
 70
    32
  0
VERTEX
  8
1550LEVEL
 62
13
 10
-671.242
 20
-2854.070
 30
3677.000
 70
    32
  0
VERTEX
  8
1550LEVEL
 62
13
 10
-744.976
 20
-2696.908
 30
3677.000
 70
    32
  0
VERTEX
  8
1550LEVEL
 62
13
 10
-815.347
 20
-2568.241
 30
3677.000
 70
    32
  0
VERTEX
  8
1550LEVEL
 62
13
 10
-910.549
 20
-2421.082
 30
3677.000
 70
    32
  0
VERTEX
  8
1550LEVEL
 62
13
 10
-1004.789
 20
-2291.964
 30
3677.000
 70
    32
  0
VERTEX
  8
1550LEVEL
 62
13
 10
-1104.769
 20
-2181.857
 30
3677.000
 70
    32
  0
VERTEX
  8
1550LEVEL
 62
13
 10
-1211.791
 20
-2071.658
 30
3677.000
 70
    32
  0
VERTEX
  8
1550LEVEL
 62
13
 10
-1327.380
 20
-1916.275
 30
3677.000
 70
    32
  0
VERTEX
  8
1550LEVEL
 62
13
 10
-1452.296
 20
-1725.418
 30
3677.000
 70
    32
  0
VERTEX
  8
1550LEVEL
 62
13
 10
-1575.699
 20
-1526.481
 30
3677.000
 70
    32
  0
VERTEX
  8
1550LEVEL
 62
13
 10
-1705.523
 20
-1312.179
 30
3677.000
 70
    32
  0
VERTEX
  8
1550LEVEL
 62
13
 10
-1796.299
 20
-1149.584
 30
3677.000
 70
    32
  0
VERTEX
  8
1550LEVEL
 62
13
 10
-1950.529
 20
-922.146
 30
3677.000
 70
    32
  0
VERTEX
  8
1550LEVEL
 62
13
 10
-2070.252
 20
-710.933
 30
3677.000
 70
    32
  0
VERTEX
  8
1550LEVEL
 62
13
 10
-2177.688
 20
-524.318
 30
3677.000
 70
    32
  0
VERTEX
  8
1550LEVEL
 62
13
 10
-2293.123
 20
-367.951
 30
3677.000
 70
    32
  0
VERTEX
  8
1550LEVEL
 62
13
 10
-2390.623
 20
-224.213
 30
3677.000
 70
    32
  0
VERTEX
  8
1550LEVEL
 62
13
 10
-2481.636
 20
-166.407
 30
3677.000
 70
    32
  0
VERTEX
  8
1550LEVEL
 62
13
 10
-2396.305
 20
-292.874
 30
3677.000
 70
    32
  0
VERTEX
  8
1550LEVEL
 62
13
 10
-2308.922
 20
-423.945
 30
3677.000
 70
    32
  0
VERTEX
  8
1550LEVEL
 62
13
 10
-2250.768
 20
-522.733
 30
3677.000
 70
    32
  0
VERTEX
  8
1550LEVEL
 62
13
 10
-2306.826
 20
-484.749
 30
3677.000
 70
    32
  0
VERTEX
  8
1550LEVEL
 62
13
 10
-2455.302
 20
-307.600
 30
3677.000
 70
    32
  0
VERTEX
  8
1550LEVEL
 62
13
 10
-2574.753
 20
-118.856
 30
3677.000
 70
    32
  0
VERTEX
  8
1550LEVEL
 62
13
 10
-2701.218
 20
23.357
 30
3677.000
 70
    32
  0
VERTEX
  8
1550LEVEL
 62
13
 10
-2822.564
 20
169.307
 30
3677.000
 70
    32
  0
VERTEX
  8
1550LEVEL
 62
13
 10
-2923.002
 20
244.208
 30
3677.000
 70
    32
  0
VERTEX
  8
1550LEVEL
 62
13
 10
-2843.866
 20
107.117
 30
3677.000
 70
    32
  0
VERTEX
  8
1550LEVEL
 62
13
 10
-2727.913
 20
-79.820
 30
3677.000
 70
    32
  0
VERTEX
  8
1550LEVEL
 62
13
 10
-2615.729
 20
-242.483
 30
3677.000
 70
    32
  0
VERTEX
  8
1550LEVEL
 62
13
 10
-2482.249
 20
-430.142
 30
3677.000
 70
    32
  0
VERTEX
  8
1550LEVEL
 62
13
 10
-2364.483
 20
-602.243
 30
3677.000
 70
    32
  0
VERTEX
  8
1550LEVEL
 62
13
 10
-2315.407
 20
-705.914
 30
3677.000
 70
    32
  0
VERTEX
  8
1550LEVEL
 62
13
 10
-2224.902
 20
-846.040
 30
3677.000
 70
    32
  0
VERTEX
  8
1550LEVEL
 62
13
 10
-2132.750
 20
-1011.118
 30
3677.000
 70
    32
  0
VERTEX
  8
1550LEVEL
 62
13
 10
-2041.067
 20
-1174.359
 30
3677.000
 70
    32
  0
VERTEX
  8
1550LEVEL
 62
13
 10
-1960.351
 20
-1357.810
 30
3677.000
 70
    32
  0
VERTEX
  8
1550LEVEL
 62
13
 10
-1855.328
 20
-1556.648
 30
3677.000
 70
    32
  0
VERTEX
  8
1550LEVEL
 62
13
 10
-1763.001
 20
-1702.855
 30
3677.000
 70
    32
  0
VERTEX
  8
1550LEVEL
 62
13
 10
-1707.975
 20
-1803.926
 30
3677.000
 70
    32
  0
VERTEX
  8
1550LEVEL
 62
13
 10
-1775.527
 20
-1734.665
 30
3677.000
 70
    32
  0
VERTEX
  8
1550LEVEL
 62
13
 10
-1879.316
 20
-1668.312
 30
3677.000
 70
    32
  0
VERTEX
  8
1550LEVEL
 62
13
 10
-1990.707
 20
-1607.072
 30
3677.000
 70
    32
  0
VERTEX
  8
1550LEVEL
 62
13
 10
-2089.012
 20
-1492.691
 30
3677.000
 70
    32
  0
VERTEX
  8
1550LEVEL
 62
13
 10
-2198.573
 20
-1350.345
 30
3677.000
 70
    32
  0
VERTEX
  8
1550LEVEL
 62
13
 10
-2304.283
 20
-1204.317
 30
3677.000
 70
    32
  0
VERTEX
  8
1550LEVEL
 62
13
 10
-2435.509
 20
-1032.885
 30
3677.000
 70
    32
  0
VERTEX
  8
1550LEVEL
 62
13
 10
-2535.761
 20
-900.308
 30
3677.000
 70
    32
  0
VERTEX
  8
1550LEVEL
 62
13
 10
-2612.025
 20
-807.764
 30
3677.000
 70
    32
  0
SEQEND
  8
1550LEVEL
  0
POLYLINE
  8
1550LEVEL
 62
3
 66
     1
 70
     8
  0
VERTEX
  8
1550LEVEL
 62
3
 10
1143.639
 20
-3063.387
 30
3677.000
 70
    32
  0
VERTEX
  8
1550LEVEL
 62
3
 10
1203.761
 20
-3162.483
 30
3677.000
 70
    32
  0
VERTEX
  8
1550LEVEL
 62
3
 10
1301.083
 20
-3292.838
 30
3677.000
 70
    32
  0
VERTEX
  8
1550LEVEL
 62
3
 10
1391.840
 20
-3413.601
 30
3677.000
 70
    32
  0
SEQEND
  8
1550LEVEL
  0
POLYLINE
  8
1550LEVEL
 62
3
 66
     1
 70
     8
  0
VERTEX
  8
1550LEVEL
 62
3
 10
2268.656
 20
-4012.915
 30
3677.000
 70
    32
  0
VERTEX
  8
1550LEVEL
 62
3
 10
2203.469
 20
-3918.824
 30
3677.000
 70
    32
  0
VERTEX
  8
1550LEVEL
 62
3
 10
2107.554
 20
-3793.980
 30
3677.000
 70
    32
  0
VERTEX
  8
1550LEVEL
 62
3
 10
2026.646
 20
-3695.671
 30
3677.000
 70
    32
  0
VERTEX
  8
1550LEVEL
 62
3
 10
1748.991
 20
-3530.856
 30
3677.000
 70
    32
  0
VERTEX
  8
1550LEVEL
 62
3
 10
1713.696
 20
-3493.846
 30
3677.000
 70
    32
  0
VERTEX
  8
1550LEVEL
 62
3
 10
1704.769
 20
-3465.490
 30
3677.000
 70
    32
  0
VERTEX
  8
1550LEVEL
 62
3
 10
1541.898
 20
-3241.743
 30
3677.000
 70
    32
  0
VERTEX
  8
1550LEVEL
 62
3
 10
1472.129
 20
-3147.945
 30
3677.000
 70
    32
  0
VERTEX
  8
1550LEVEL
 62
3
 10
1445.144
 20
-3110.973
 30
3677.000
 70
    32
  0
SEQEND
  8
1550LEVEL
  0
POLYLINE
  8
1550LEVEL
 62
3
 66
     1
 70
     8
  0
VERTEX
  8
1550LEVEL
 62
3
 10
-356.305
 20
-1452.057
 30
3677.000
 70
    32
  0
VERTEX
  8
1550LEVEL
 62
3
 10
-306.796
 20
-1582.001
 30
3677.000
 70
    32
  0
VERTEX
  8
1550LEVEL
 62
3
 10
-223.537
 20
-1754.006
 30
3677.000
 70
    32
  0
VERTEX
  8
1550LEVEL
 62
3
 10
-77.995
 20
-1956.400
 30
3677.000
 70
    32
  0
VERTEX
  8
1550LEVEL
 62
3
 10
95.526
 20
-2216.836
 30
3677.000
 70
    32
  0
VERTEX
  8
1550LEVEL
 62
3
 10
258.674
 20
-2451.713
 30
3677.000
 70
    32
  0
VERTEX
  8
1550LEVEL
 62
3
 10
350.055
 20
-2589.456
 30
3677.000
 70
    32
  0
VERTEX
  8
1550LEVEL
 62
3
 10
435.176
 20
-2699.511
 30
3677.000
 70
    32
  0
VERTEX
  8
1550LEVEL
 62
3
 10
569.841
 20
-2823.098
 30
3677.000
 70
    32
  0
VERTEX
  8
1550LEVEL
 62
3
 10
688.806
 20
-2984.300
 30
3677.000
 70
    32
  0
VERTEX
  8
1550LEVEL
 62
3
 10
769.919
 20
-3142.614
 30
3677.000
 70
    32
  0
VERTEX
  8
1550LEVEL
 62
3
 10
783.831
 20
-3210.051
 30
3677.000
 70
    32
  0
VERTEX
  8
1550LEVEL
 62
3
 10
862.184
 20
-3282.763
 30
3677.000
 70
    32
  0
VERTEX
  8
1550LEVEL
 62
3
 10
926.617
 20
-3375.224
 30
3677.000
 70
    32
  0
VERTEX
  8
1550LEVEL
 62
3
 10
974.719
 20
-3499.658
 30
3677.000
 70
    32
  0
VERTEX
  8
1550LEVEL
 62
3
 10
1069.142
 20
-3614.693
 30
3677.000
 70
    32
  0
VERTEX
  8
1550LEVEL
 62
3
 10
1143.609
 20
-3731.652
 30
3677.000
 70
    32
  0
VERTEX
  8
1550LEVEL
 62
3
 10
1214.261
 20
-3811.729
 30
3677.000
 70
    32
  0
SEQEND
  8
1550LEVEL
  0
POLYLINE
  8
1550LEVEL
 62
3
 66
     1
 70
     8
  0
VERTEX
  8
1550LEVEL
 62
3
 10
-1890.894
 20
-262.686
 30
3677.000
 70
    32
  0
VERTEX
  8
1550LEVEL
 62
3
 10
-1799.366
 20
-410.783
 30
3677.000
 70
    32
  0
VERTEX
  8
1550LEVEL
 62
3
 10
-1726.158
 20
-532.585
 30
3677.000
 70
    32
  0
SEQEND
  8
1550LEVEL
  0
POLYLINE
  8
1550LEVEL
 62
7
 66
     1
 70
     8
  0
VERTEX
  8
1550LEVEL
 62
7
 10
1160.754
 20
-3095.794
 30
3677.000
 70
    32
  0
VERTEX
  8
1550LEVEL
 62
7
 10
1113.274
 20
-3048.062
 30
3677.000
 70
    32
  0
VERTEX
  8
1550LEVEL
 62
7
 10
1066.324
 20
-2992.097
 30
3677.000
 70
    32
  0
VERTEX
  8
1550LEVEL
 62
7
 10
1076.614
 20
-3045.614
 30
3677.000
 70
    32
  0
VERTEX
  8
1550LEVEL
 62
7
 10
1101.718
 20
-3102.703
 30
3677.000
 70
    32
  0
VERTEX
  8
1550LEVEL
 62
7
 10
1084.754
 20
-3112.905
 30
3677.000
 70
    32
  0
VERTEX
  8
1550LEVEL
 62
7
 10
1024.404
 20
-3047.540
 30
3677.000
 70
    32
  0
VERTEX
  8
1550LEVEL
 62
7
 10
970.581
 20
-2983.950
 30
3677.000
 70
    32
  0
VERTEX
  8
1550LEVEL
 62
7
 10
921.855
 20
-2918.385
 30
3677.000
 70
    32
  0
VERTEX
  8
1550LEVEL
 62
7
 10
866.908
 20
-2832.948
 30
3677.000
 70
    32
  0
VERTEX
  8
1550LEVEL
 62
7
 10
811.222
 20
-2739.333
 30
3677.000
 70
    32
  0
VERTEX
  8
1550LEVEL
 62
7
 10
764.338
 20
-2645.833
 30
3677.000
 70
    32
  0
VERTEX
  8
1550LEVEL
 62
7
 10
731.206
 20
-2556.243
 30
3677.000
 70
    32
  0
VERTEX
  8
1550LEVEL
 62
7
 10
719.154
 20
-2486.577
 30
3677.000
 70
    32
  0
VERTEX
  8
1550LEVEL
 62
7
 10
710.158
 20
-2387.653
 30
3677.000
 70
    32
  0
VERTEX
  8
1550LEVEL
 62
7
 10
679.910
 20
-2303.806
 30
3677.000
 70
    32
  0
VERTEX
  8
1550LEVEL
 62
7
 10
622.472
 20
-2214.957
 30
3677.000
 70
    32
  0
VERTEX
  8
1550LEVEL
 62
7
 10
578.562
 20
-2120.157
 30
3677.000
 70
    32
  0
VERTEX
  8
1550LEVEL
 62
7
 10
539.821
 20
-2050.355
 30
3677.000
 70
    32
  0
VERTEX
  8
1550LEVEL
 62
7
 10
491.192
 20
-1966.409
 30
3677.000
 70
    32
  0
VERTEX
  8
1550LEVEL
 62
7
 10
457.026
 20
-1907.653
 30
3677.000
 70
    32
  0
VERTEX
  8
1550LEVEL
 62
7
 10
428.996
 20
-1880.597
 30
3677.000
 70
    32
  0
VERTEX
  8
1550LEVEL
 62
7
 10
457.166
 20
-1929.345
 30
3677.000
 70
    32
  0
VERTEX
  8
1550LEVEL
 62
7
 10
437.173
 20
-1939.579
 30
3677.000
 70
    32
  0
VERTEX
  8
1550LEVEL
 62
7
 10
400.747
 20
-1892.061
 30
3677.000
 70
    32
  0
VERTEX
  8
1550LEVEL
 62
7
 10
415.727
 20
-1947.821
 30
3677.000
 70
    32
  0
VERTEX
  8
1550LEVEL
 62
7
 10
451.095
 20
-2027.932
 30
3677.000
 70
    32
  0
VERTEX
  8
1550LEVEL
 62
7
 10
490.575
 20
-2105.913
 30
3677.000
 70
    32
  0
VERTEX
  8
1550LEVEL
 62
7
 10
528.072
 20
-2190.137
 30
3677.000
 70
    32
  0
VERTEX
  8
1550LEVEL
 62
7
 10
579.690
 20
-2266.233
 30
3677.000
 70
    32
  0
VERTEX
  8
1550LEVEL
 62
7
 10
628.449
 20
-2350.955
 30
3677.000
 70
    32
  0
VERTEX
  8
1550LEVEL
 62
7
 10
667.099
 20
-2427.799
 30
3677.000
 70
    32
  0
VERTEX
  8
1550LEVEL
 62
7
 10
675.222
 20
-2485.512
 30
3677.000
 70
    32
  0
VERTEX
  8
1550LEVEL
 62
7
 10
679.628
 20
-2579.940
 30
3677.000
 70
    32
  0
VERTEX
  8
1550LEVEL
 62
7
 10
698.300
 20
-2660.467
 30
3677.000
 70
    32
  0
VERTEX
  8
1550LEVEL
 62
7
 10
745.782
 20
-2740.454
 30
3677.000
 70
    32
  0
VERTEX
  8
1550LEVEL
 62
7
 10
800.674
 20
-2808.494
 30
3677.000
 70
    32
  0
VERTEX
  8
1550LEVEL
 62
7
 10
840.113
 20
-2862.531
 30
3677.000
 70
    32
  0
VERTEX
  8
1550LEVEL
 62
7
 10
870.321
 20
-2922.433
 30
3677.000
 70
    32
  0
VERTEX
  8
1550LEVEL
 62
7
 10
902.183
 20
-2995.949
 30
3677.000
 70
    32
  0
VERTEX
  8
1550LEVEL
 62
7
 10
937.081
 20
-3058.095
 30
3677.000
 70
    32
  0
VERTEX
  8
1550LEVEL
 62
7
 10
982.151
 20
-3150.304
 30
3677.000
 70
    32
  0
VERTEX
  8
1550LEVEL
 62
7
 10
1017.849
 20
-3226.687
 30
3677.000
 70
    32
  0
VERTEX
  8
1550LEVEL
 62
7
 10
1040.585
 20
-3292.478
 30
3677.000
 70
    32
  0
VERTEX
  8
1550LEVEL
 62
7
 10
1053.497
 20
-3350.184
 30
3677.000
 70
    32
  0
VERTEX
  8
1550LEVEL
 62
7
 10
1026.220
 20
-3308.630
 30
3677.000
 70
    32
  0
VERTEX
  8
1550LEVEL
 62
7
 10
1007.527
 20
-3245.990
 30
3677.000
 70
    32
  0
VERTEX
  8
1550LEVEL
 62
7
 10
971.052
 20
-3169.738
 30
3677.000
 70
    32
  0
VERTEX
  8
1550LEVEL
 62
7
 10
921.211
 20
-3103.242
 30
3677.000
 70
    32
  0
VERTEX
  8
1550LEVEL
 62
7
 10
873.299
 20
-3029.236
 30
3677.000
 70
    32
  0
VERTEX
  8
1550LEVEL
 62
7
 10
835.389
 20
-2976.699
 30
3677.000
 70
    32
  0
VERTEX
  8
1550LEVEL
 62
7
 10
780.996
 20
-2897.397
 30
3677.000
 70
    32
  0
VERTEX
  8
1550LEVEL
 62
7
 10
732.699
 20
-2825.850
 30
3677.000
 70
    32
  0
VERTEX
  8
1550LEVEL
 62
7
 10
689.576
 20
-2751.836
 30
3677.000
 70
    32
  0
VERTEX
  8
1550LEVEL
 62
7
 10
653.542
 20
-2706.647
 30
3677.000
 70
    32
  0
VERTEX
  8
1550LEVEL
 62
7
 10
628.095
 20
-2675.963
 30
3677.000
 70
    32
  0
VERTEX
  8
1550LEVEL
 62
7
 10
624.808
 20
-2706.696
 30
3677.000
 70
    32
  0
VERTEX
  8
1550LEVEL
 62
7
 10
588.492
 20
-2677.842
 30
3677.000
 70
    32
  0
VERTEX
  8
1550LEVEL
 62
7
 10
537.804
 20
-2600.631
 30
3677.000
 70
    32
  0
VERTEX
  8
1550LEVEL
 62
7
 10
511.016
 20
-2526.899
 30
3677.000
 70
    32
  0
VERTEX
  8
1550LEVEL
 62
7
 10
476.462
 20
-2438.348
 30
3677.000
 70
    32
  0
VERTEX
  8
1550LEVEL
 62
7
 10
450.741
 20
-2352.940
 30
3677.000
 70
    32
  0
VERTEX
  8
1550LEVEL
 62
7
 10
425.526
 20
-2261.059
 30
3677.000
 70
    32
  0
VERTEX
  8
1550LEVEL
 62
7
 10
390.118
 20
-2157.003
 30
3677.000
 70
    32
  0
VERTEX
  8
1550LEVEL
 62
7
 10
355.764
 20
-2063.947
 30
3677.000
 70
    32
  0
VERTEX
  8
1550LEVEL
 62
7
 10
322.122
 20
-1948.576
 30
3677.000
 70
    32
  0
SEQEND
  8
1550LEVEL
  0
POLYLINE
  8
1550LEVEL
 62
5
 66
     1
 70
     9
  0
VERTEX
  8
1550LEVEL
 62
5
 10
-618.753
 20
-514.118
 30
3677.000
 70
    32
  0
VERTEX
  8
1550LEVEL
 62
5
 10
-667.002
 20
-519.318
 30
3677.000
 70
    32
  0
VERTEX
  8
1550LEVEL
 62
5
 10
-722.609
 20
-533.314
 30
3677.000
 70
    32
  0
VERTEX
  8
1550LEVEL
 62
5
 10
-764.018
 20
-538.691
 30
3677.000
 70
    32
  0
VERTEX
  8
1550LEVEL
 62
5
 10
-772.342
 20
-538.280
 30
3677.000
 70
    32
  0
VERTEX
  8
1550LEVEL
 62
5
 10
-774.537
 20
-544.870
 30
3677.000
 70
    32
  0
VERTEX
  8
1550LEVEL
 62
5
 10
-774.537
 20
-550.361
 30
3677.000
 70
    32
  0
VERTEX
  8
1550LEVEL
 62
5
 10
-774.537
 20
-555.853
 30
3677.000
 70
    32
  0
VERTEX
  8
1550LEVEL
 62
5
 10
-781.119
 20
-560.246
 30
3677.000
 70
    32
  0
VERTEX
  8
1550LEVEL
 62
5
 10
-788.798
 20
-563.541
 30
3677.000
 70
    32
  0
VERTEX
  8
1550LEVEL
 62
5
 10
-793.187
 20
-563.541
 30
3677.000
 70
    32
  0
VERTEX
  8
1550LEVEL
 62
5
 10
-804.157
 20
-556.951
 30
3677.000
 70
    32
  0
VERTEX
  8
1550LEVEL
 62
5
 10
-812.934
 20
-553.656
 30
3677.000
 70
    32
  0
VERTEX
  8
1550LEVEL
 62
5
 10
-820.613
 20
-551.460
 30
3677.000
 70
    32
  0
VERTEX
  8
1550LEVEL
 62
5
 10
-829.390
 20
-547.067
 30
3677.000
 70
    32
  0
VERTEX
  8
1550LEVEL
 62
5
 10
-837.070
 20
-541.575
 30
3677.000
 70
    32
  0
VERTEX
  8
1550LEVEL
 62
5
 10
-841.458
 20
-542.673
 30
3677.000
 70
    32
  0
VERTEX
  8
1550LEVEL
 62
5
 10
-845.846
 20
-549.263
 30
3677.000
 70
    32
  0
VERTEX
  8
1550LEVEL
 62
5
 10
-834.875
 20
-556.951
 30
3677.000
 70
    32
  0
VERTEX
  8
1550LEVEL
 62
5
 10
-816.225
 20
-569.032
 30
3677.000
 70
    32
  0
VERTEX
  8
1550LEVEL
 62
5
 10
-806.351
 20
-573.425
 30
3677.000
 70
    32
  0
VERTEX
  8
1550LEVEL
 62
5
 10
-796.478
 20
-576.720
 30
3677.000
 70
    32
  0
VERTEX
  8
1550LEVEL
 62
5
 10
-780.022
 20
-575.622
 30
3677.000
 70
    32
  0
VERTEX
  8
1550LEVEL
 62
5
 10
-773.440
 20
-575.622
 30
3677.000
 70
    32
  0
VERTEX
  8
1550LEVEL
 62
5
 10
-761.371
 20
-574.523
 30
3677.000
 70
    32
  0
VERTEX
  8
1550LEVEL
 62
5
 10
-743.818
 20
-571.228
 30
3677.000
 70
    32
  0
VERTEX
  8
1550LEVEL
 62
5
 10
-707.615
 20
-569.032
 30
3677.000
 70
    32
  0
VERTEX
  8
1550LEVEL
 62
5
 10
-615.765
 20
-554.282
 30
3677.000
 70
    32
  0
VERTEX
  8
1550LEVEL
 62
5
 10
-606.685
 20
-532.789
 30
3677.000
 70
    32
  0
VERTEX
  8
1550LEVEL
 62
5
 10
-608.879
 20
-520.708
 30
3677.000
 70
    32
  0
SEQEND
  8
1550LEVEL
  0
POLYLINE
  8
1550LEVEL
 62
13
 66
     1
 70
     8
  0
VERTEX
  8
1550LEVEL
 62
13
 10
1214.261
 20
-3811.729
 30
3677.000
 70
    32
  0
VERTEX
  8
1550LEVEL
 62
13
 10
1278.920
 20
-3930.180
 30
3677.000
 70
    32
  0
VERTEX
  8
1550LEVEL
 62
13
 10
1284.851
 20
-3977.724
 30
3677.000
 70
    32
  0
VERTEX
  8
1550LEVEL
 62
13
 10
1181.280
 20
-3856.724
 30
3677.000
 70
    32
  0
VERTEX
  8
1550LEVEL
 62
13
 10
1087.532
 20
-3727.683
 30
3677.000
 70
    32
  0
VERTEX
  8
1550LEVEL
 62
13
 10
985.166
 20
-3584.445
 30
3677.000
 70
    32
  0
VERTEX
  8
1550LEVEL
 62
13
 10
911.298
 20
-3470.099
 30
3677.000
 70
    32
  0
VERTEX
  8
1550LEVEL
 62
13
 10
829.883
 20
-3362.135
 30
3677.000
 70
    32
  0
VERTEX
  8
1550LEVEL
 62
13
 10
755.809
 20
-3263.632
 30
3677.000
 70
    32
  0
VERTEX
  8
1550LEVEL
 62
13
 10
711.559
 20
-3151.644
 30
3677.000
 70
    32
  0
VERTEX
  8
1550LEVEL
 62
13
 10
657.433
 20
-3046.429
 30
3677.000
 70
    32
  0
VERTEX
  8
1550LEVEL
 62
13
 10
568.423
 20
-2948.366
 30
3677.000
 70
    32
  0
VERTEX
  8
1550LEVEL
 62
13
 10
601.138
 20
-3021.259
 30
3677.000
 70
    32
  0
VERTEX
  8
1550LEVEL
 62
13
 10
563.954
 20
-2999.578
 30
3677.000
 70
    32
  0
VERTEX
  8
1550LEVEL
 62
13
 10
561.236
 20
-3029.896
 30
3677.000
 70
    32
  0
VERTEX
  8
1550LEVEL
 62
13
 10
511.480
 20
-2967.697
 30
3677.000
 70
    32
  0
VERTEX
  8
1550LEVEL
 62
13
 10
456.394
 20
-2876.695
 30
3677.000
 70
    32
  0
VERTEX
  8
1550LEVEL
 62
13
 10
440.152
 20
-2809.650
 30
3677.000
 70
    32
  0
VERTEX
  8
1550LEVEL
 62
13
 10
369.098
 20
-2690.201
 30
3677.000
 70
    32
  0
VERTEX
  8
1550LEVEL
 62
13
 10
277.365
 20
-2574.074
 30
3677.000
 70
    32
  0
VERTEX
  8
1550LEVEL
 62
13
 10
211.606
 20
-2448.143
 30
3677.000
 70
    32
  0
VERTEX
  8
1550LEVEL
 62
13
 10
134.066
 20
-2350.863
 30
3677.000
 70
    32
  0
VERTEX
  8
1550LEVEL
 62
13
 10
34.781
 20
-2192.735
 30
3677.000
 70
    32
  0
VERTEX
  8
1550LEVEL
 62
13
 10
-61.512
 20
-2059.013
 30
3677.000
 70
    32
  0
VERTEX
  8
1550LEVEL
 62
13
 10
-156.768
 20
-1910.585
 30
3677.000
 70
    32
  0
VERTEX
  8
1550LEVEL
 62
13
 10
-246.134
 20
-1785.756
 30
3677.000
 70
    32
  0
VERTEX
  8
1550LEVEL
 62
13
 10
-343.649
 20
-1648.567
 30
3677.000
 70
    32
  0
VERTEX
  8
1550LEVEL
 62
13
 10
-360.147
 20
-1552.504
 30
3677.000
 70
    32
  0
VERTEX
  8
1550LEVEL
 62
13
 10
-406.142
 20
-1433.943
 30
3677.000
 70
    32
  0
VERTEX
  8
1550LEVEL
 62
13
 10
-484.092
 20
-1308.629
 30
3677.000
 70
    32
  0
VERTEX
  8
1550LEVEL
 62
13
 10
-560.788
 20
-1205.937
 30
3677.000
 70
    32
  0
VERTEX
  8
1550LEVEL
 62
13
 10
-638.513
 20
-1106.613
 30
3677.000
 70
    32
  0
VERTEX
  8
1550LEVEL
 62
13
 10
-703.317
 20
-993.934
 30
3677.000
 70
    32
  0
VERTEX
  8
1550LEVEL
 62
13
 10
-715.295
 20
-960.018
 30
3677.000
 70
    32
  0
VERTEX
  8
1550LEVEL
 62
13
 10
-722.974
 20
-943.544
 30
3677.000
 70
    32
  0
VERTEX
  8
1550LEVEL
 62
13
 10
-728.460
 20
-925.971
 30
3677.000
 70
    32
  0
VERTEX
  8
1550LEVEL
 62
13
 10
-733.945
 20
-919.382
 30
3677.000
 70
    32
  0
VERTEX
  8
1550LEVEL
 62
13
 10
-738.333
 20
-910.596
 30
3677.000
 70
    32
  0
VERTEX
  8
1550LEVEL
 62
13
 10
-746.442
 20
-903.793
 30
3677.000
 70
    32
  0
VERTEX
  8
1550LEVEL
 62
13
 10
-809.245
 20
-826.705
 30
3677.000
 70
    32
  0
VERTEX
  8
1550LEVEL
 62
13
 10
-810.740
 20
-817.242
 30
3677.000
 70
    32
  0
VERTEX
  8
1550LEVEL
 62
13
 10
-808.546
 20
-809.554
 30
3677.000
 70
    32
  0
VERTEX
  8
1550LEVEL
 62
13
 10
-805.254
 20
-806.259
 30
3677.000
 70
    32
  0
VERTEX
  8
1550LEVEL
 62
13
 10
-803.060
 20
-798.572
 30
3677.000
 70
    32
  0
VERTEX
  8
1550LEVEL
 62
13
 10
-801.963
 20
-788.687
 30
3677.000
 70
    32
  0
VERTEX
  8
1550LEVEL
 62
13
 10
-799.769
 20
-777.704
 30
3677.000
 70
    32
  0
VERTEX
  8
1550LEVEL
 62
13
 10
-799.769
 20
-768.918
 30
3677.000
 70
    32
  0
VERTEX
  8
1550LEVEL
 62
13
 10
-801.963
 20
-762.328
 30
3677.000
 70
    32
  0
VERTEX
  8
1550LEVEL
 62
13
 10
-814.031
 20
-751.346
 30
3677.000
 70
    32
  0
VERTEX
  8
1550LEVEL
 62
13
 10
-854.583
 20
-744.281
 30
3677.000
 70
    32
  0
VERTEX
  8
1550LEVEL
 62
13
 10
-887.961
 20
-646.590
 30
3677.000
 70
    32
  0
VERTEX
  8
1550LEVEL
 62
13
 10
-959.436
 20
-554.037
 30
3677.000
 70
    32
  0
VERTEX
  8
1550LEVEL
 62
13
 10
-968.717
 20
-536.084
 30
3677.000
 70
    32
  0
VERTEX
  8
1550LEVEL
 62
13
 10
-976.397
 20
-526.199
 30
3677.000
 70
    32
  0
VERTEX
  8
1550LEVEL
 62
13
 10
-981.882
 20
-516.315
 30
3677.000
 70
    32
  0
VERTEX
  8
1550LEVEL
 62
13
 10
-985.174
 20
-513.020
 30
3677.000
 70
    32
  0
VERTEX
  8
1550LEVEL
 62
13
 10
-989.562
 20
-508.627
 30
3677.000
 70
    32
  0
VERTEX
  8
1550LEVEL
 62
13
 10
-993.950
 20
-508.627
 30
3677.000
 70
    32
  0
VERTEX
  8
1550LEVEL
 62
13
 10
-1000.533
 20
-513.020
 30
3677.000
 70
    32
  0
VERTEX
  8
1550LEVEL
 62
13
 10
-1000.533
 20
-519.610
 30
3677.000
 70
    32
  0
VERTEX
  8
1550LEVEL
 62
13
 10
-995.047
 20
-531.691
 30
3677.000
 70
    32
  0
VERTEX
  8
1550LEVEL
 62
13
 10
-992.853
 20
-538.280
 30
3677.000
 70
    32
  0
VERTEX
  8
1550LEVEL
 62
13
 10
-930.020
 20
-696.467
 30
3677.000
 70
    32
  0
VERTEX
  8
1550LEVEL
 62
13
 10
-917.156
 20
-718.397
 30
3677.000
 70
    32
  0
VERTEX
  8
1550LEVEL
 62
13
 10
-906.185
 20
-744.756
 30
3677.000
 70
    32
  0
VERTEX
  8
1550LEVEL
 62
13
 10
-894.117
 20
-761.230
 30
3677.000
 70
    32
  0
VERTEX
  8
1550LEVEL
 62
13
 10
-887.534
 20
-768.918
 30
3677.000
 70
    32
  0
VERTEX
  8
1550LEVEL
 62
13
 10
-866.690
 20
-778.803
 30
3677.000
 70
    32
  0
VERTEX
  8
1550LEVEL
 62
13
 10
-857.914
 20
-786.490
 30
3677.000
 70
    32
  0
VERTEX
  8
1550LEVEL
 62
13
 10
-852.428
 20
-791.982
 30
3677.000
 70
    32
  0
VERTEX
  8
1550LEVEL
 62
13
 10
-848.040
 20
-802.964
 30
3677.000
 70
    32
  0
VERTEX
  8
1550LEVEL
 62
13
 10
-849.137
 20
-818.340
 30
3677.000
 70
    32
  0
VERTEX
  8
1550LEVEL
 62
13
 10
-851.331
 20
-830.421
 30
3677.000
 70
    32
  0
VERTEX
  8
1550LEVEL
 62
13
 10
-853.526
 20
-837.011
 30
3677.000
 70
    32
  0
VERTEX
  8
1550LEVEL
 62
13
 10
-857.914
 20
-844.699
 30
3677.000
 70
    32
  0
VERTEX
  8
1550LEVEL
 62
13
 10
-862.302
 20
-849.092
 30
3677.000
 70
    32
  0
VERTEX
  8
1550LEVEL
 62
13
 10
-868.884
 20
-855.682
 30
3677.000
 70
    32
  0
VERTEX
  8
1550LEVEL
 62
13
 10
-870.845
 20
-862.948
 30
3677.000
 70
    32
  0
VERTEX
  8
1550LEVEL
 62
13
 10
-880.952
 20
-852.387
 30
3677.000
 70
    32
  0
VERTEX
  8
1550LEVEL
 62
13
 10
-888.632
 20
-843.601
 30
3677.000
 70
    32
  0
VERTEX
  8
1550LEVEL
 62
13
 10
-896.311
 20
-830.421
 30
3677.000
 70
    32
  0
VERTEX
  8
1550LEVEL
 62
13
 10
-901.796
 20
-824.930
 30
3677.000
 70
    32
  0
VERTEX
  8
1550LEVEL
 62
13
 10
-914.961
 20
-815.045
 30
3677.000
 70
    32
  0
VERTEX
  8
1550LEVEL
 62
13
 10
-924.835
 20
-808.456
 30
3677.000
 70
    32
  0
VERTEX
  8
1550LEVEL
 62
13
 10
-932.514
 20
-805.161
 30
3677.000
 70
    32
  0
VERTEX
  8
1550LEVEL
 62
13
 10
-938.000
 20
-799.670
 30
3677.000
 70
    32
  0
VERTEX
  8
1550LEVEL
 62
13
 10
-955.553
 20
-784.294
 30
3677.000
 70
    32
  0
VERTEX
  8
1550LEVEL
 62
13
 10
-972.009
 20
-768.918
 30
3677.000
 70
    32
  0
VERTEX
  8
1550LEVEL
 62
13
 10
-978.591
 20
-762.328
 30
3677.000
 70
    32
  0
VERTEX
  8
1550LEVEL
 62
13
 10
-988.465
 20
-741.461
 30
3677.000
 70
    32
  0
VERTEX
  8
1550LEVEL
 62
13
 10
-1007.115
 20
-717.299
 30
3677.000
 70
    32
  0
VERTEX
  8
1550LEVEL
 62
13
 10
-1013.697
 20
-699.727
 30
3677.000
 70
    32
  0
VERTEX
  8
1550LEVEL
 62
13
 10
-1017.314
 20
-693.924
 30
3677.000
 70
    32
  0
VERTEX
  8
1550LEVEL
 62
13
 10
-1029.056
 20
-686.547
 30
3677.000
 70
    32
  0
VERTEX
  8
1550LEVEL
 62
13
 10
-1035.639
 20
-685.449
 30
3677.000
 70
    32
  0
VERTEX
  8
1550LEVEL
 62
13
 10
-1037.833
 20
-677.761
 30
3677.000
 70
    32
  0
VERTEX
  8
1550LEVEL
 62
13
 10
-1042.221
 20
-665.680
 30
3677.000
 70
    32
  0
VERTEX
  8
1550LEVEL
 62
13
 10
-1044.415
 20
-656.894
 30
3677.000
 70
    32
  0
VERTEX
  8
1550LEVEL
 62
13
 10
-1046.609
 20
-643.715
 30
3677.000
 70
    32
  0
VERTEX
  8
1550LEVEL
 62
13
 10
-1049.901
 20
-638.223
 30
3677.000
 70
    32
  0
VERTEX
  8
1550LEVEL
 62
13
 10
-1055.940
 20
-631.447
 30
3677.000
 70
    32
  0
VERTEX
  8
1550LEVEL
 62
13
 10
-1102.515
 20
-609.125
 30
3677.000
 70
    32
  0
VERTEX
  8
1550LEVEL
 62
13
 10
-1156.136
 20
-523.237
 30
3677.000
 70
    32
  0
VERTEX
  8
1550LEVEL
 62
13
 10
-1212.140
 20
-439.734
 30
3677.000
 70
    32
  0
VERTEX
  8
1550LEVEL
 62
13
 10
-1271.720
 20
-355.038
 30
3677.000
 70
    32
  0
VERTEX
  8
1550LEVEL
 62
13
 10
-1327.724
 20
-275.114
 30
3677.000
 70
    32
  0
VERTEX
  8
1550LEVEL
 62
13
 10
-1412.327
 20
-209.504
 30
3677.000
 70
    32
  0
VERTEX
  8
1550LEVEL
 62
13
 10
-1418.285
 20
-209.504
 30
3677.000
 70
    32
  0
VERTEX
  8
1550LEVEL
 62
13
 10
-1424.243
 20
-213.083
 30
3677.000
 70
    32
  0
VERTEX
  8
1550LEVEL
 62
13
 10
-1425.435
 20
-220.240
 30
3677.000
 70
    32
  0
VERTEX
  8
1550LEVEL
 62
13
 10
-1419.476
 20
-227.398
 30
3677.000
 70
    32
  0
VERTEX
  8
1550LEVEL
 62
13
 10
-1406.369
 20
-235.748
 30
3677.000
 70
    32
  0
VERTEX
  8
1550LEVEL
 62
13
 10
-1383.729
 20
-252.449
 30
3677.000
 70
    32
  0
VERTEX
  8
1550LEVEL
 62
13
 10
-1364.663
 20
-277.499
 30
3677.000
 70
    32
  0
VERTEX
  8
1550LEVEL
 62
13
 10
-1339.640
 20
-307.322
 30
3677.000
 70
    32
  0
VERTEX
  8
1550LEVEL
 62
13
 10
-1322.958
 20
-331.180
 30
3677.000
 70
    32
  0
VERTEX
  8
1550LEVEL
 62
13
 10
-1295.551
 20
-372.931
 30
3677.000
 70
    32
  0
VERTEX
  8
1550LEVEL
 62
13
 10
-1265.762
 20
-419.454
 30
3677.000
 70
    32
  0
VERTEX
  8
1550LEVEL
 62
13
 10
-1239.547
 20
-467.170
 30
3677.000
 70
    32
  0
VERTEX
  8
1550LEVEL
 62
13
 10
-1208.566
 20
-522.044
 30
3677.000
 70
    32
  0
VERTEX
  8
1550LEVEL
 62
13
 10
-1202.608
 20
-536.358
 30
3677.000
 70
    32
  0
VERTEX
  8
1550LEVEL
 62
13
 10
-1200.224
 20
-545.902
 30
3677.000
 70
    32
  0
VERTEX
  8
1550LEVEL
 62
13
 10
-1201.416
 20
-555.445
 30
3677.000
 70
    32
  0
VERTEX
  8
1550LEVEL
 62
13
 10
-1207.374
 20
-556.638
 30
3677.000
 70
    32
  0
VERTEX
  8
1550LEVEL
 62
13
 10
-1215.715
 20
-548.287
 30
3677.000
 70
    32
  0
VERTEX
  8
1550LEVEL
 62
13
 10
-1227.631
 20
-533.973
 30
3677.000
 70
    32
  0
VERTEX
  8
1550LEVEL
 62
13
 10
-1241.930
 20
-519.658
 30
3677.000
 70
    32
  0
VERTEX
  8
1550LEVEL
 62
13
 10
-1251.463
 20
-502.957
 30
3677.000
 70
    32
  0
VERTEX
  8
1550LEVEL
 62
13
 10
-1259.804
 20
-492.221
 30
3677.000
 70
    32
  0
VERTEX
  8
1550LEVEL
 62
13
 10
-1270.528
 20
-481.485
 30
3677.000
 70
    32
  0
VERTEX
  8
1550LEVEL
 62
13
 10
-1275.294
 20
-474.328
 30
3677.000
 70
    32
  0
VERTEX
  8
1550LEVEL
 62
13
 10
-1281.253
 20
-444.505
 30
3677.000
 70
    32
  0
VERTEX
  8
1550LEVEL
 62
13
 10
-1299.126
 20
-424.226
 30
3677.000
 70
    32
  0
VERTEX
  8
1550LEVEL
 62
13
 10
-1305.084
 20
-405.140
 30
3677.000
 70
    32
  0
VERTEX
  8
1550LEVEL
 62
13
 10
-1314.617
 20
-387.246
 30
3677.000
 70
    32
  0
VERTEX
  8
1550LEVEL
 62
13
 10
-1332.491
 20
-371.738
 30
3677.000
 70
    32
  0
VERTEX
  8
1550LEVEL
 62
13
 10
-1345.598
 20
-351.459
 30
3677.000
 70
    32
  0
VERTEX
  8
1550LEVEL
 62
13
 10
-1359.897
 20
-325.215
 30
3677.000
 70
    32
  0
VERTEX
  8
1550LEVEL
 62
13
 10
-1380.154
 20
-308.515
 30
3677.000
 70
    32
  0
VERTEX
  8
1550LEVEL
 62
13
 10
-1389.687
 20
-288.235
 30
3677.000
 70
    32
  0
VERTEX
  8
1550LEVEL
 62
13
 10
-1403.986
 20
-269.149
 30
3677.000
 70
    32
  0
VERTEX
  8
1550LEVEL
 62
13
 10
-1421.859
 20
-248.870
 30
3677.000
 70
    32
  0
VERTEX
  8
1550LEVEL
 62
13
 10
-1444.500
 20
-230.976
 30
3677.000
 70
    32
  0
VERTEX
  8
1550LEVEL
 62
13
 10
-1457.607
 20
-209.504
 30
3677.000
 70
    32
  0
VERTEX
  8
1550LEVEL
 62
13
 10
-1461.182
 20
-188.032
 30
3677.000
 70
    32
  0
VERTEX
  8
1550LEVEL
 62
13
 10
-1464.757
 20
-172.524
 30
3677.000
 70
    32
  0
VERTEX
  8
1550LEVEL
 62
13
 10
-1468.331
 20
-147.474
 30
3677.000
 70
    32
  0
VERTEX
  8
1550LEVEL
 62
13
 10
-1473.098
 20
-130.773
 30
3677.000
 70
    32
  0
VERTEX
  8
1550LEVEL
 62
13
 10
-1485.014
 20
-106.915
 30
3677.000
 70
    32
  0
VERTEX
  8
1550LEVEL
 62
13
 10
-1485.033
 20
-100.282
 30
3677.000
 70
    32
  0
VERTEX
  8
1550LEVEL
 62
13
 10
-1568.824
 20
3.769
 30
3677.000
 70
    32
  0
VERTEX
  8
1550LEVEL
 62
13
 10
-1633.428
 20
104.824
 30
3677.000
 70
    32
  0
VERTEX
  8
1550LEVEL
 62
13
 10
-1682.540
 20
184.058
 30
3677.000
 70
    32
  0
VERTEX
  8
1550LEVEL
 62
13
 10
-1780.578
 20
319.342
 30
3677.000
 70
    32
  0
VERTEX
  8
1550LEVEL
 62
13
 10
-1854.948
 20
388.552
 30
3677.000
 70
    32
  0
VERTEX
  8
1550LEVEL
 62
13
 10
-1964.545
 20
432.950
 30
3677.000
 70
    32
  0
VERTEX
  8
1550LEVEL
 62
13
 10
-2053.267
 20
493.018
 30
3677.000
 70
    32
  0
VERTEX
  8
1550LEVEL
 62
13
 10
-2084.580
 20
529.581
 30
3677.000
 70
    32
  0
VERTEX
  8
1550LEVEL
 62
13
 10
-2101.542
 20
547.863
 30
3677.000
 70
    32
  0
VERTEX
  8
1550LEVEL
 62
13
 10
-2123.722
 20
567.450
 30
3677.000
 70
    32
  0
VERTEX
  8
1550LEVEL
 62
13
 10
-2131.551
 20
587.038
 30
3677.000
 70
    32
  0
VERTEX
  8
1550LEVEL
 62
13
 10
-2141.989
 20
606.625
 30
3677.000
 70
    32
  0
VERTEX
  8
1550LEVEL
 62
13
 10
-2147.208
 20
624.907
 30
3677.000
 70
    32
  0
VERTEX
  8
1550LEVEL
 62
13
 10
-2152.221
 20
637.649
 30
3677.000
 70
    32
  0
VERTEX
  8
1550LEVEL
 62
13
 10
-2166.778
 20
652.329
 30
3677.000
 70
    32
  0
VERTEX
  8
1550LEVEL
 62
13
 10
-2187.654
 20
667.999
 30
3677.000
 70
    32
  0
VERTEX
  8
1550LEVEL
 62
13
 10
-2203.311
 20
686.281
 30
3677.000
 70
    32
  0
VERTEX
  8
1550LEVEL
 62
13
 10
-2212.444
 20
695.422
 30
3677.000
 70
    32
  0
VERTEX
  8
1550LEVEL
 62
13
 10
-2220.272
 20
703.257
 30
3677.000
 70
    32
  0
VERTEX
  8
1550LEVEL
 62
13
 10
-2235.929
 20
715.009
 30
3677.000
 70
    32
  0
VERTEX
  8
1550LEVEL
 62
13
 10
-2246.367
 20
720.232
 30
3677.000
 70
    32
  0
VERTEX
  8
1550LEVEL
 62
13
 10
-2252.891
 20
720.232
 30
3677.000
 70
    32
  0
VERTEX
  8
1550LEVEL
 62
13
 10
-2255.500
 20
708.480
 30
3677.000
 70
    32
  0
VERTEX
  8
1550LEVEL
 62
13
 10
-2250.281
 20
691.504
 30
3677.000
 70
    32
  0
VERTEX
  8
1550LEVEL
 62
13
 10
-2243.758
 20
673.222
 30
3677.000
 70
    32
  0
VERTEX
  8
1550LEVEL
 62
13
 10
-2230.710
 20
648.412
 30
3677.000
 70
    32
  0
VERTEX
  8
1550LEVEL
 62
13
 10
-2218.968
 20
623.601
 30
3677.000
 70
    32
  0
VERTEX
  8
1550LEVEL
 62
13
 10
-2204.616
 20
598.790
 30
3677.000
 70
    32
  0
VERTEX
  8
1550LEVEL
 62
13
 10
-2195.483
 20
579.203
 30
3677.000
 70
    32
  0
VERTEX
  8
1550LEVEL
 62
13
 10
-2183.740
 20
549.169
 30
3677.000
 70
    32
  0
VERTEX
  8
1550LEVEL
 62
13
 10
-2166.778
 20
524.358
 30
3677.000
 70
    32
  0
VERTEX
  8
1550LEVEL
 62
13
 10
-2155.036
 20
500.853
 30
3677.000
 70
    32
  0
VERTEX
  8
1550LEVEL
 62
13
 10
-2147.208
 20
485.183
 30
3677.000
 70
    32
  0
VERTEX
  8
1550LEVEL
 62
13
 10
-2136.770
 20
448.620
 30
3677.000
 70
    32
  0
VERTEX
  8
1550LEVEL
 62
13
 10
-2135.465
 20
429.032
 30
3677.000
 70
    32
  0
VERTEX
  8
1550LEVEL
 62
13
 10
-2132.856
 20
410.750
 30
3677.000
 70
    32
  0
VERTEX
  8
1550LEVEL
 62
13
 10
-2132.856
 20
395.081
 30
3677.000
 70
    32
  0
VERTEX
  8
1550LEVEL
 62
13
 10
-2143.293
 20
396.386
 30
3677.000
 70
    32
  0
VERTEX
  8
1550LEVEL
 62
13
 10
-2155.036
 20
410.750
 30
3677.000
 70
    32
  0
VERTEX
  8
1550LEVEL
 62
13
 10
-2156.341
 20
422.503
 30
3677.000
 70
    32
  0
VERTEX
  8
1550LEVEL
 62
13
 10
-2162.865
 20
436.867
 30
3677.000
 70
    32
  0
VERTEX
  8
1550LEVEL
 62
13
 10
-2168.084
 20
459.066
 30
3677.000
 70
    32
  0
VERTEX
  8
1550LEVEL
 62
13
 10
-2171.997
 20
473.430
 30
3677.000
 70
    32
  0
VERTEX
  8
1550LEVEL
 62
13
 10
-2186.350
 20
495.630
 30
3677.000
 70
    32
  0
VERTEX
  8
1550LEVEL
 62
13
 10
-2192.873
 20
511.299
 30
3677.000
 70
    32
  0
VERTEX
  8
1550LEVEL
 62
13
 10
-2204.616
 20
532.193
 30
3677.000
 70
    32
  0
VERTEX
  8
1550LEVEL
 62
13
 10
-2220.272
 20
557.004
 30
3677.000
 70
    32
  0
VERTEX
  8
1550LEVEL
 62
13
 10
-2243.758
 20
602.708
 30
3677.000
 70
    32
  0
VERTEX
  8
1550LEVEL
 62
13
 10
-2256.805
 20
628.824
 30
3677.000
 70
    32
  0
VERTEX
  8
1550LEVEL
 62
13
 10
-2271.157
 20
645.800
 30
3677.000
 70
    32
  0
VERTEX
  8
1550LEVEL
 62
13
 10
-2292.033
 20
681.058
 30
3677.000
 70
    32
  0
VERTEX
  8
1550LEVEL
 62
13
 10
-2297.252
 20
688.893
 30
3677.000
 70
    32
  0
VERTEX
  8
1550LEVEL
 62
13
 10
-2324.651
 20
734.597
 30
3677.000
 70
    32
  0
VERTEX
  8
1550LEVEL
 62
13
 10
-2408.154
 20
906.966
 30
3677.000
 70
    32
  0
VERTEX
  8
1550LEVEL
 62
13
 10
-2477.852
 20
974.502
 30
3677.000
 70
    32
  0
VERTEX
  8
1550LEVEL
 62
13
 10
-2571.245
 20
1047.996
 30
3677.000
 70
    32
  0
VERTEX
  8
1550LEVEL
 62
13
 10
-2636.481
 20
1061.055
 30
3677.000
 70
    32
  0
VERTEX
  8
1550LEVEL
 62
13
 10
-2691.280
 20
1085.865
 30
3677.000
 70
    32
  0
SEQEND
  8
1550LEVEL
  0
POLYLINE
  8
1550LEVEL
 62
13
 66
     1
 70
     8
  0
VERTEX
  8
1550LEVEL
 62
13
 10
-1083.850
 20
-483.744
 30
3677.000
 70
    32
  0
VERTEX
  8
1550LEVEL
 62
13
 10
-1077.326
 20
-512.472
 30
3677.000
 70
    32
  0
VERTEX
  8
1550LEVEL
 62
13
 10
-1073.412
 20
-530.754
 30
3677.000
 70
    32
  0
VERTEX
  8
1550LEVEL
 62
13
 10
-1094.288
 20
-538.589
 30
3677.000
 70
    32
  0
VERTEX
  8
1550LEVEL
 62
13
 10
-1098.202
 20
-538.589
 30
3677.000
 70
    32
  0
VERTEX
  8
1550LEVEL
 62
13
 10
-1107.335
 20
-529.448
 30
3677.000
 70
    32
  0
VERTEX
  8
1550LEVEL
 62
13
 10
-1132.125
 20
-502.026
 30
3677.000
 70
    32
  0
VERTEX
  8
1550LEVEL
 62
13
 10
-1139.954
 20
-469.380
 30
3677.000
 70
    32
  0
VERTEX
  8
1550LEVEL
 62
13
 10
-1141.259
 20
-447.181
 30
3677.000
 70
    32
  0
VERTEX
  8
1550LEVEL
 62
13
 10
-1146.478
 20
-421.064
 30
3677.000
 70
    32
  0
VERTEX
  8
1550LEVEL
 62
13
 10
-1156.915
 20
-401.477
 30
3677.000
 70
    32
  0
VERTEX
  8
1550LEVEL
 62
13
 10
-1172.572
 20
-381.889
 30
3677.000
 70
    32
  0
VERTEX
  8
1550LEVEL
 62
13
 10
-1188.229
 20
-358.384
 30
3677.000
 70
    32
  0
VERTEX
  8
1550LEVEL
 62
13
 10
-1210.409
 20
-329.656
 30
3677.000
 70
    32
  0
VERTEX
  8
1550LEVEL
 62
13
 10
-1213.019
 20
-317.903
 30
3677.000
 70
    32
  0
VERTEX
  8
1550LEVEL
 62
13
 10
-1222.152
 20
-290.481
 30
3677.000
 70
    32
  0
VERTEX
  8
1550LEVEL
 62
13
 10
-1233.895
 20
-257.835
 30
3677.000
 70
    32
  0
VERTEX
  8
1550LEVEL
 62
13
 10
-1245.637
 20
-240.859
 30
3677.000
 70
    32
  0
VERTEX
  8
1550LEVEL
 62
13
 10
-1269.123
 20
-221.272
 30
3677.000
 70
    32
  0
VERTEX
  8
1550LEVEL
 62
13
 10
-1280.865
 20
-213.437
 30
3677.000
 70
    32
  0
VERTEX
  8
1550LEVEL
 62
13
 10
-1300.436
 20
-200.378
 30
3677.000
 70
    32
  0
VERTEX
  8
1550LEVEL
 62
13
 10
-1310.874
 20
-188.626
 30
3677.000
 70
    32
  0
VERTEX
  8
1550LEVEL
 62
13
 10
-1329.140
 20
-166.427
 30
3677.000
 70
    32
  0
VERTEX
  8
1550LEVEL
 62
13
 10
-1344.797
 20
-149.451
 30
3677.000
 70
    32
  0
VERTEX
  8
1550LEVEL
 62
13
 10
-1357.844
 20
-128.558
 30
3677.000
 70
    32
  0
VERTEX
  8
1550LEVEL
 62
13
 10
-1370.892
 20
-111.582
 30
3677.000
 70
    32
  0
VERTEX
  8
1550LEVEL
 62
13
 10
-1383.939
 20
-91.995
 30
3677.000
 70
    32
  0
VERTEX
  8
1550LEVEL
 62
13
 10
-1399.596
 20
-65.878
 30
3677.000
 70
    32
  0
VERTEX
  8
1550LEVEL
 62
13
 10
-1407.424
 20
-38.455
 30
3677.000
 70
    32
  0
VERTEX
  8
1550LEVEL
 62
13
 10
-1411.339
 20
-20.174
 30
3677.000
 70
    32
  0
VERTEX
  8
1550LEVEL
 62
13
 10
-1420.472
 20
5.943
 30
3677.000
 70
    32
  0
VERTEX
  8
1550LEVEL
 62
13
 10
-1432.215
 20
33.365
 30
3677.000
 70
    32
  0
VERTEX
  8
1550LEVEL
 62
13
 10
-1442.652
 20
67.317
 30
3677.000
 70
    32
  0
VERTEX
  8
1550LEVEL
 62
13
 10
-1466.138
 20
99.963
 30
3677.000
 70
    32
  0
VERTEX
  8
1550LEVEL
 62
13
 10
-1481.794
 20
116.938
 30
3677.000
 70
    32
  0
VERTEX
  8
1550LEVEL
 62
13
 10
-1514.413
 20
145.667
 30
3677.000
 70
    32
  0
VERTEX
  8
1550LEVEL
 62
13
 10
-1530.070
 20
163.948
 30
3677.000
 70
    32
  0
VERTEX
  8
1550LEVEL
 62
13
 10
-1541.812
 20
177.007
 30
3677.000
 70
    32
  0
VERTEX
  8
1550LEVEL
 62
13
 10
-1552.250
 20
195.288
 30
3677.000
 70
    32
  0
VERTEX
  8
1550LEVEL
 62
13
 10
-1566.602
 20
210.958
 30
3677.000
 70
    32
  0
VERTEX
  8
1550LEVEL
 62
13
 10
-1573.126
 20
226.628
 30
3677.000
 70
    32
  0
VERTEX
  8
1550LEVEL
 62
13
 10
-1580.954
 20
243.604
 30
3677.000
 70
    32
  0
VERTEX
  8
1550LEVEL
 62
13
 10
-1587.478
 20
261.886
 30
3677.000
 70
    32
  0
VERTEX
  8
1550LEVEL
 62
13
 10
-1586.173
 20
268.415
 30
3677.000
 70
    32
  0
VERTEX
  8
1550LEVEL
 62
13
 10
-1580.954
 20
271.027
 30
3677.000
 70
    32
  0
VERTEX
  8
1550LEVEL
 62
13
 10
-1571.821
 20
261.886
 30
3677.000
 70
    32
  0
VERTEX
  8
1550LEVEL
 62
13
 10
-1554.859
 20
239.687
 30
3677.000
 70
    32
  0
VERTEX
  8
1550LEVEL
 62
13
 10
-1540.507
 20
226.628
 30
3677.000
 70
    32
  0
VERTEX
  8
1550LEVEL
 62
13
 10
-1524.851
 20
216.182
 30
3677.000
 70
    32
  0
VERTEX
  8
1550LEVEL
 62
13
 10
-1514.413
 20
210.958
 30
3677.000
 70
    32
  0
VERTEX
  8
1550LEVEL
 62
13
 10
-1500.061
 20
207.041
 30
3677.000
 70
    32
  0
VERTEX
  8
1550LEVEL
 62
13
 10
-1483.099
 20
203.123
 30
3677.000
 70
    32
  0
VERTEX
  8
1550LEVEL
 62
13
 10
-1467.442
 20
197.900
 30
3677.000
 70
    32
  0
VERTEX
  8
1550LEVEL
 62
13
 10
-1454.395
 20
195.288
 30
3677.000
 70
    32
  0
VERTEX
  8
1550LEVEL
 62
13
 10
-1446.566
 20
188.759
 30
3677.000
 70
    32
  0
VERTEX
  8
1550LEVEL
 62
13
 10
-1438.738
 20
170.478
 30
3677.000
 70
    32
  0
VERTEX
  8
1550LEVEL
 62
13
 10
-1432.215
 20
150.890
 30
3677.000
 70
    32
  0
VERTEX
  8
1550LEVEL
 62
13
 10
-1429.605
 20
139.138
 30
3677.000
 70
    32
  0
VERTEX
  8
1550LEVEL
 62
13
 10
-1415.253
 20
107.798
 30
3677.000
 70
    32
  0
VERTEX
  8
1550LEVEL
 62
13
 10
-1407.424
 20
90.822
 30
3677.000
 70
    32
  0
VERTEX
  8
1550LEVEL
 62
13
 10
-1396.986
 20
67.317
 30
3677.000
 70
    32
  0
VERTEX
  8
1550LEVEL
 62
13
 10
-1370.892
 20
20.307
 30
3677.000
 70
    32
  0
VERTEX
  8
1550LEVEL
 62
13
 10
-1355.235
 20
-8.421
 30
3677.000
 70
    32
  0
VERTEX
  8
1550LEVEL
 62
13
 10
-1338.274
 20
-42.373
 30
3677.000
 70
    32
  0
VERTEX
  8
1550LEVEL
 62
13
 10
-1326.531
 20
-68.490
 30
3677.000
 70
    32
  0
VERTEX
  8
1550LEVEL
 62
13
 10
-1321.312
 20
-82.854
 30
3677.000
 70
    32
  0
VERTEX
  8
1550LEVEL
 62
13
 10
-1293.913
 20
-123.334
 30
3677.000
 70
    32
  0
VERTEX
  8
1550LEVEL
 62
13
 10
-1263.904
 20
-167.733
 30
3677.000
 70
    32
  0
VERTEX
  8
1550LEVEL
 62
13
 10
-1252.161
 20
-180.791
 30
3677.000
 70
    32
  0
VERTEX
  8
1550LEVEL
 62
13
 10
-1233.895
 20
-193.849
 30
3677.000
 70
    32
  0
VERTEX
  8
1550LEVEL
 62
13
 10
-1224.762
 20
-205.602
 30
3677.000
 70
    32
  0
VERTEX
  8
1550LEVEL
 62
13
 10
-1214.324
 20
-221.272
 30
3677.000
 70
    32
  0
VERTEX
  8
1550LEVEL
 62
13
 10
-1205.190
 20
-231.719
 30
3677.000
 70
    32
  0
VERTEX
  8
1550LEVEL
 62
13
 10
-1203.886
 20
-243.471
 30
3677.000
 70
    32
  0
VERTEX
  8
1550LEVEL
 62
13
 10
-1188.229
 20
-286.563
 30
3677.000
 70
    32
  0
VERTEX
  8
1550LEVEL
 62
13
 10
-1188.229
 20
-303.539
 30
3677.000
 70
    32
  0
VERTEX
  8
1550LEVEL
 62
13
 10
-1166.048
 20
-346.632
 30
3677.000
 70
    32
  0
VERTEX
  8
1550LEVEL
 62
13
 10
-1146.478
 20
-370.137
 30
3677.000
 70
    32
  0
VERTEX
  8
1550LEVEL
 62
13
 10
-1134.735
 20
-385.807
 30
3677.000
 70
    32
  0
VERTEX
  8
1550LEVEL
 62
13
 10
-1116.468
 20
-423.676
 30
3677.000
 70
    32
  0
VERTEX
  8
1550LEVEL
 62
13
 10
-1096.898
 20
-457.627
 30
3677.000
 70
    32
  0
VERTEX
  8
1550LEVEL
 62
13
 10
-1089.069
 20
-474.603
 30
3677.000
 70
    32
  0
SEQEND
  8
1550LEVEL
  0
POLYLINE
  8
1550LEVEL
 62
7
 66
     1
 70
     8
  0
VERTEX
  8
1550LEVEL
 62
7
 10
1197.707
 20
-3774.118
 30
3677.000
 70
    32
  0
VERTEX
  8
1550LEVEL
 62
7
 10
1240.497
 20
-3819.605
 30
3677.000
 70
    32
  0
VERTEX
  8
1550LEVEL
 62
7
 10
1302.331
 20
-3889.990
 30
3677.000
 70
    32
  0
VERTEX
  8
1550LEVEL
 62
7
 10
1347.999
 20
-3968.685
 30
3677.000
 70
    32
  0
VERTEX
  8
1550LEVEL
 62
7
 10
1388.303
 20
-4059.143
 30
3677.000
 70
    32
  0
VERTEX
  8
1550LEVEL
 62
7
 10
1437.292
 20
-4142.389
 30
3677.000
 70
    32
  0
VERTEX
  8
1550LEVEL
 62
7
 10
1491.308
 20
-4212.812
 30
3677.000
 70
    32
  0
VERTEX
  8
1550LEVEL
 62
7
 10
1543.501
 20
-4277.155
 30
3677.000
 70
    32
  0
VERTEX
  8
1550LEVEL
 62
7
 10
1588.838
 20
-4343.452
 30
3677.000
 70
    32
  0
VERTEX
  8
1550LEVEL
 62
7
 10
1625.082
 20
-4421.180
 30
3677.000
 70
    32
  0
VERTEX
  8
1550LEVEL
 62
7
 10
1641.469
 20
-4482.451
 30
3677.000
 70
    32
  0
VERTEX
  8
1550LEVEL
 62
7
 10
1626.834
 20
-4492.262
 30
3677.000
 70
    32
  0
VERTEX
  8
1550LEVEL
 62
7
 10
1590.338
 20
-4433.897
 30
3677.000
 70
    32
  0
VERTEX
  8
1550LEVEL
 62
7
 10
1555.895
 20
-4380.137
 30
3677.000
 70
    32
  0
VERTEX
  8
1550LEVEL
 62
7
 10
1509.190
 20
-4316.147
 30
3677.000
 70
    32
  0
VERTEX
  8
1550LEVEL
 62
7
 10
1442.775
 20
-4246.055
 30
3677.000
 70
    32
  0
VERTEX
  8
1550LEVEL
 62
7
 10
1389.206
 20
-4179.229
 30
3677.000
 70
    32
  0
VERTEX
  8
1550LEVEL
 62
7
 10
1327.348
 20
-4094.478
 30
3677.000
 70
    32
  0
VERTEX
  8
1550LEVEL
 62
7
 10
1263.800
 20
-4020.550
 30
3677.000
 70
    32
  0
VERTEX
  8
1550LEVEL
 62
7
 10
1208.101
 20
-3949.612
 30
3677.000
 70
    32
  0
VERTEX
  8
1550LEVEL
 62
7
 10
1141.408
 20
-3868.389
 30
3677.000
 70
    32
  0
VERTEX
  8
1550LEVEL
 62
7
 10
1087.692
 20
-3791.208
 30
3677.000
 70
    32
  0
VERTEX
  8
1550LEVEL
 62
7
 10
1008.352
 20
-3686.088
 30
3677.000
 70
    32
  0
VERTEX
  8
1550LEVEL
 62
7
 10
938.783
 20
-3587.785
 30
3677.000
 70
    32
  0
VERTEX
  8
1550LEVEL
 62
7
 10
887.449
 20
-3511.481
 30
3677.000
 70
    32
  0
VERTEX
  8
1550LEVEL
 62
7
 10
826.200
 20
-3434.132
 30
3677.000
 70
    32
  0
VERTEX
  8
1550LEVEL
 62
7
 10
786.742
 20
-3354.390
 30
3677.000
 70
    32
  0
VERTEX
  8
1550LEVEL
 62
7
 10
792.481
 20
-3395.100
 30
3677.000
 70
    32
  0
VERTEX
  8
1550LEVEL
 62
7
 10
756.738
 20
-3338.366
 30
3677.000
 70
    32
  0
VERTEX
  8
1550LEVEL
 62
7
 10
731.265
 20
-3277.187
 30
3677.000
 70
    32
  0
VERTEX
  8
1550LEVEL
 62
7
 10
694.513
 20
-3189.804
 30
3677.000
 70
    32
  0
VERTEX
  8
1550LEVEL
 62
7
 10
670.230
 20
-3112.936
 30
3677.000
 70
    32
  0
VERTEX
  8
1550LEVEL
 62
7
 10
628.355
 20
-3072.883
 30
3677.000
 70
    32
  0
VERTEX
  8
1550LEVEL
 62
7
 10
652.522
 20
-3142.425
 30
3677.000
 70
    32
  0
VERTEX
  8
1550LEVEL
 62
7
 10
687.666
 20
-3212.674
 30
3677.000
 70
    32
  0
VERTEX
  8
1550LEVEL
 62
7
 10
719.151
 20
-3277.311
 30
3677.000
 70
    32
  0
VERTEX
  8
1550LEVEL
 62
7
 10
726.396
 20
-3321.280
 30
3677.000
 70
    32
  0
VERTEX
  8
1550LEVEL
 62
7
 10
687.607
 20
-3314.719
 30
3677.000
 70
    32
  0
VERTEX
  8
1550LEVEL
 62
7
 10
653.447
 20
-3244.624
 30
3677.000
 70
    32
  0
VERTEX
  8
1550LEVEL
 62
7
 10
603.220
 20
-3164.461
 30
3677.000
 70
    32
  0
VERTEX
  8
1550LEVEL
 62
7
 10
625.657
 20
-3237.009
 30
3677.000
 70
    32
  0
VERTEX
  8
1550LEVEL
 62
7
 10
678.816
 20
-3351.648
 30
3677.000
 70
    32
  0
VERTEX
  8
1550LEVEL
 62
7
 10
744.681
 20
-3463.988
 30
3677.000
 70
    32
  0
VERTEX
  8
1550LEVEL
 62
7
 10
747.991
 20
-3507.343
 30
3677.000
 70
    32
  0
VERTEX
  8
1550LEVEL
 62
7
 10
681.478
 20
-3455.631
 30
3677.000
 70
    32
  0
VERTEX
  8
1550LEVEL
 62
7
 10
623.871
 20
-3374.315
 30
3677.000
 70
    32
  0
VERTEX
  8
1550LEVEL
 62
7
 10
564.472
 20
-3273.820
 30
3677.000
 70
    32
  0
VERTEX
  8
1550LEVEL
 62
7
 10
507.755
 20
-3167.445
 30
3677.000
 70
    32
  0
VERTEX
  8
1550LEVEL
 62
7
 10
458.888
 20
-3080.186
 30
3677.000
 70
    32
  0
VERTEX
  8
1550LEVEL
 62
7
 10
385.721
 20
-2982.329
 30
3677.000
 70
    32
  0
VERTEX
  8
1550LEVEL
 62
7
 10
367.667
 20
-2930.121
 30
3677.000
 70
    32
  0
VERTEX
  8
1550LEVEL
 62
7
 10
451.541
 20
-3022.342
 30
3677.000
 70
    32
  0
VERTEX
  8
1550LEVEL
 62
7
 10
513.929
 20
-3098.860
 30
3677.000
 70
    32
  0
VERTEX
  8
1550LEVEL
 62
7
 10
549.156
 20
-3157.279
 30
3677.000
 70
    32
  0
VERTEX
  8
1550LEVEL
 62
7
 10
543.187
 20
-3118.045
 30
3677.000
 70
    32
  0
VERTEX
  8
1550LEVEL
 62
7
 10
500.010
 20
-3042.762
 30
3677.000
 70
    32
  0
VERTEX
  8
1550LEVEL
 62
7
 10
477.873
 20
-2979.584
 30
3677.000
 70
    32
  0
VERTEX
  8
1550LEVEL
 62
7
 10
418.390
 20
-2890.920
 30
3677.000
 70
    32
  0
VERTEX
  8
1550LEVEL
 62
7
 10
356.776
 20
-2782.016
 30
3677.000
 70
    32
  0
VERTEX
  8
1550LEVEL
 62
7
 10
304.611
 20
-2688.446
 30
3677.000
 70
    32
  0
VERTEX
  8
1550LEVEL
 62
7
 10
226.807
 20
-2573.486
 30
3677.000
 70
    32
  0
VERTEX
  8
1550LEVEL
 62
7
 10
167.009
 20
-2482.001
 30
3677.000
 70
    32
  0
VERTEX
  8
1550LEVEL
 62
7
 10
81.849
 20
-2364.128
 30
3677.000
 70
    32
  0
VERTEX
  8
1550LEVEL
 62
7
 10
18.218
 20
-2226.183
 30
3677.000
 70
    32
  0
VERTEX
  8
1550LEVEL
 62
7
 10
-56.771
 20
-2122.246
 30
3677.000
 70
    32
  0
VERTEX
  8
1550LEVEL
 62
7
 10
-118.462
 20
-2013.834
 30
3677.000
 70
    32
  0
VERTEX
  8
1550LEVEL
 62
7
 10
-188.046
 20
-1922.080
 30
3677.000
 70
    32
  0
VERTEX
  8
1550LEVEL
 62
7
 10
-255.815
 20
-1831.618
 30
3677.000
 70
    32
  0
VERTEX
  8
1550LEVEL
 62
7
 10
-336.693
 20
-1720.209
 30
3677.000
 70
    32
  0
VERTEX
  8
1550LEVEL
 62
7
 10
-402.516
 20
-1647.942
 30
3677.000
 70
    32
  0
VERTEX
  8
1550LEVEL
 62
7
 10
-488.138
 20
-1533.021
 30
3677.000
 70
    32
  0
VERTEX
  8
1550LEVEL
 62
7
 10
-522.899
 20
-1444.185
 30
3677.000
 70
    32
  0
VERTEX
  8
1550LEVEL
 62
7
 10
-587.113
 20
-1313.204
 30
3677.000
 70
    32
  0
VERTEX
  8
1550LEVEL
 62
7
 10
-656.731
 20
-1186.167
 30
3677.000
 70
    32
  0
VERTEX
  8
1550LEVEL
 62
7
 10
-715.923
 20
-1085.957
 30
3677.000
 70
    32
  0
VERTEX
  8
1550LEVEL
 62
7
 10
-775.337
 20
-992.012
 30
3677.000
 70
    32
  0
VERTEX
  8
1550LEVEL
 62
7
 10
-836.626
 20
-906.845
 30
3677.000
 70
    32
  0
VERTEX
  8
1550LEVEL
 62
7
 10
-863.335
 20
-940.724
 30
3677.000
 70
    32
  0
VERTEX
  8
1550LEVEL
 62
7
 10
-809.761
 20
-1055.933
 30
3677.000
 70
    32
  0
VERTEX
  8
1550LEVEL
 62
7
 10
-743.836
 20
-1158.202
 30
3677.000
 70
    32
  0
VERTEX
  8
1550LEVEL
 62
7
 10
-681.736
 20
-1278.522
 30
3677.000
 70
    32
  0
VERTEX
  8
1550LEVEL
 62
7
 10
-612.697
 20
-1385.057
 30
3677.000
 70
    32
  0
VERTEX
  8
1550LEVEL
 62
7
 10
-548.253
 20
-1498.435
 30
3677.000
 70
    32
  0
VERTEX
  8
1550LEVEL
 62
7
 10
-481.621
 20
-1589.728
 30
3677.000
 70
    32
  0
VERTEX
  8
1550LEVEL
 62
7
 10
-405.665
 20
-1684.240
 30
3677.000
 70
    32
  0
VERTEX
  8
1550LEVEL
 62
7
 10
-335.597
 20
-1771.282
 30
3677.000
 70
    32
  0
VERTEX
  8
1550LEVEL
 62
7
 10
-284.687
 20
-1842.228
 30
3677.000
 70
    32
  0
VERTEX
  8
1550LEVEL
 62
7
 10
-324.553
 20
-1826.428
 30
3677.000
 70
    32
  0
VERTEX
  8
1550LEVEL
 62
7
 10
-405.168
 20
-1732.699
 30
3677.000
 70
    32
  0
VERTEX
  8
1550LEVEL
 62
7
 10
-497.144
 20
-1640.725
 30
3677.000
 70
    32
  0
VERTEX
  8
1550LEVEL
 62
7
 10
-586.216
 20
-1536.605
 30
3677.000
 70
    32
  0
VERTEX
  8
1550LEVEL
 62
7
 10
-665.018
 20
-1428.041
 30
3677.000
 70
    32
  0
VERTEX
  8
1550LEVEL
 62
7
 10
-715.018
 20
-1389.994
 30
3677.000
 70
    32
  0
VERTEX
  8
1550LEVEL
 62
7
 10
-776.276
 20
-1307.857
 30
3677.000
 70
    32
  0
VERTEX
  8
1550LEVEL
 62
7
 10
-851.527
 20
-1202.367
 30
3677.000
 70
    32
  0
VERTEX
  8
1550LEVEL
 62
7
 10
-922.242
 20
-1100.105
 30
3677.000
 70
    32
  0
VERTEX
  8
1550LEVEL
 62
7
 10
-957.550
 20
-993.797
 30
3677.000
 70
    32
  0
VERTEX
  8
1550LEVEL
 62
7
 10
-986.756
 20
-883.906
 30
3677.000
 70
    32
  0
VERTEX
  8
1550LEVEL
 62
7
 10
-1032.831
 20
-809.430
 30
3677.000
 70
    32
  0
VERTEX
  8
1550LEVEL
 62
7
 10
-1055.740
 20
-794.766
 30
3677.000
 70
    32
  0
VERTEX
  8
1550LEVEL
 62
7
 10
-1017.950
 20
-883.570
 30
3677.000
 70
    32
  0
VERTEX
  8
1550LEVEL
 62
7
 10
-981.074
 20
-983.068
 30
3677.000
 70
    32
  0
VERTEX
  8
1550LEVEL
 62
7
 10
-960.877
 20
-1092.560
 30
3677.000
 70
    32
  0
VERTEX
  8
1550LEVEL
 62
7
 10
-949.118
 20
-1157.645
 30
3677.000
 70
    32
  0
VERTEX
  8
1550LEVEL
 62
7
 10
-923.362
 20
-1202.489
 30
3677.000
 70
    32
  0
VERTEX
  8
1550LEVEL
 62
7
 10
-1045.458
 20
-1087.164
 30
3677.000
 70
    32
  0
VERTEX
  8
1550LEVEL
 62
7
 10
-1117.543
 20
-971.081
 30
3677.000
 70
    32
  0
VERTEX
  8
1550LEVEL
 62
7
 10
-1179.742
 20
-853.014
 30
3677.000
 70
    32
  0
VERTEX
  8
1550LEVEL
 62
7
 10
-1231.170
 20
-751.496
 30
3677.000
 70
    32
  0
VERTEX
  8
1550LEVEL
 62
7
 10
-1254.670
 20
-663.159
 30
3677.000
 70
    32
  0
VERTEX
  8
1550LEVEL
 62
7
 10
-1285.700
 20
-606.908
 30
3677.000
 70
    32
  0
VERTEX
  8
1550LEVEL
 62
7
 10
-1358.801
 20
-547.364
 30
3677.000
 70
    32
  0
VERTEX
  8
1550LEVEL
 62
7
 10
-1424.278
 20
-480.946
 30
3677.000
 70
    32
  0
VERTEX
  8
1550LEVEL
 62
7
 10
-1429.009
 20
-471.942
 30
3677.000
 70
    32
  0
VERTEX
  8
1550LEVEL
 62
7
 10
-1434.967
 20
-457.627
 30
3677.000
 70
    32
  0
VERTEX
  8
1550LEVEL
 62
7
 10
-1437.350
 20
-445.698
 30
3677.000
 70
    32
  0
VERTEX
  8
1550LEVEL
 62
7
 10
-1436.159
 20
-432.576
 30
3677.000
 70
    32
  0
VERTEX
  8
1550LEVEL
 62
7
 10
-1430.087
 20
-429.390
 30
3677.000
 70
    32
  0
VERTEX
  8
1550LEVEL
 62
7
 10
-1420.668
 20
-431.383
 30
3677.000
 70
    32
  0
VERTEX
  8
1550LEVEL
 62
7
 10
-1411.135
 20
-437.348
 30
3677.000
 70
    32
  0
VERTEX
  8
1550LEVEL
 62
7
 10
-1406.369
 20
-438.541
 30
3677.000
 70
    32
  0
VERTEX
  8
1550LEVEL
 62
7
 10
-1390.878
 20
-434.962
 30
3677.000
 70
    32
  0
VERTEX
  8
1550LEVEL
 62
7
 10
-1386.112
 20
-427.805
 30
3677.000
 70
    32
  0
VERTEX
  8
1550LEVEL
 62
7
 10
-1385.349
 20
-417.225
 30
3677.000
 70
    32
  0
VERTEX
  8
1550LEVEL
 62
7
 10
-1435.705
 20
-352.412
 30
3677.000
 70
    32
  0
VERTEX
  8
1550LEVEL
 62
7
 10
-1496.141
 20
-266.623
 30
3677.000
 70
    32
  0
VERTEX
  8
1550LEVEL
 62
7
 10
-1523.144
 20
-227.398
 30
3677.000
 70
    32
  0
VERTEX
  8
1550LEVEL
 62
7
 10
-1538.635
 20
-182.068
 30
3677.000
 70
    32
  0
VERTEX
  8
1550LEVEL
 62
7
 10
-1546.976
 20
-174.910
 30
3677.000
 70
    32
  0
VERTEX
  8
1550LEVEL
 62
7
 10
-1556.509
 20
-168.946
 30
3677.000
 70
    32
  0
VERTEX
  8
1550LEVEL
 62
7
 10
-1564.850
 20
-166.560
 30
3677.000
 70
    32
  0
VERTEX
  8
1550LEVEL
 62
7
 10
-1576.766
 20
-166.560
 30
3677.000
 70
    32
  0
VERTEX
  8
1550LEVEL
 62
7
 10
-1582.724
 20
-167.753
 30
3677.000
 70
    32
  0
VERTEX
  8
1550LEVEL
 62
7
 10
-1591.065
 20
-170.139
 30
3677.000
 70
    32
  0
VERTEX
  8
1550LEVEL
 62
7
 10
-1602.980
 20
-168.946
 30
3677.000
 70
    32
  0
VERTEX
  8
1550LEVEL
 62
7
 10
-1610.130
 20
-164.174
 30
3677.000
 70
    32
  0
VERTEX
  8
1550LEVEL
 62
7
 10
-1614.897
 20
-157.017
 30
3677.000
 70
    32
  0
VERTEX
  8
1550LEVEL
 62
7
 10
-1625.621
 20
-146.281
 30
3677.000
 70
    32
  0
VERTEX
  8
1550LEVEL
 62
7
 10
-1635.154
 20
-133.159
 30
3677.000
 70
    32
  0
VERTEX
  8
1550LEVEL
 62
7
 10
-1645.878
 20
-121.230
 30
3677.000
 70
    32
  0
VERTEX
  8
1550LEVEL
 62
7
 10
-1661.368
 20
-103.336
 30
3677.000
 70
    32
  0
VERTEX
  8
1550LEVEL
 62
7
 10
-1674.476
 20
-92.600
 30
3677.000
 70
    32
  0
VERTEX
  8
1550LEVEL
 62
7
 10
-1678.051
 20
-87.829
 30
3677.000
 70
    32
  0
VERTEX
  8
1550LEVEL
 62
7
 10
-1680.434
 20
-81.864
 30
3677.000
 70
    32
  0
VERTEX
  8
1550LEVEL
 62
7
 10
-1687.583
 20
-71.128
 30
3677.000
 70
    32
  0
VERTEX
  8
1550LEVEL
 62
7
 10
-1692.350
 20
-59.199
 30
3677.000
 70
    32
  0
VERTEX
  8
1550LEVEL
 62
7
 10
-1691.158
 20
-50.849
 30
3677.000
 70
    32
  0
VERTEX
  8
1550LEVEL
 62
7
 10
-1689.966
 20
-43.692
 30
3677.000
 70
    32
  0
VERTEX
  8
1550LEVEL
 62
7
 10
-1688.775
 20
-40.113
 30
3677.000
 70
    32
  0
VERTEX
  8
1550LEVEL
 62
7
 10
-1682.817
 20
-40.113
 30
3677.000
 70
    32
  0
VERTEX
  8
1550LEVEL
 62
7
 10
-1674.476
 20
-42.499
 30
3677.000
 70
    32
  0
VERTEX
  8
1550LEVEL
 62
7
 10
-1668.518
 20
-43.692
 30
3677.000
 70
    32
  0
VERTEX
  8
1550LEVEL
 62
7
 10
-1657.794
 20
-49.656
 30
3677.000
 70
    32
  0
VERTEX
  8
1550LEVEL
 62
7
 10
-1648.261
 20
-53.235
 30
3677.000
 70
    32
  0
VERTEX
  8
1550LEVEL
 62
7
 10
-1639.920
 20
-58.006
 30
3677.000
 70
    32
  0
VERTEX
  8
1550LEVEL
 62
7
 10
-1633.962
 20
-61.585
 30
3677.000
 70
    32
  0
VERTEX
  8
1550LEVEL
 62
7
 10
-1630.387
 20
-68.742
 30
3677.000
 70
    32
  0
VERTEX
  8
1550LEVEL
 62
7
 10
-1626.813
 20
-78.285
 30
3677.000
 70
    32
  0
VERTEX
  8
1550LEVEL
 62
7
 10
-1626.813
 20
-85.443
 30
3677.000
 70
    32
  0
VERTEX
  8
1550LEVEL
 62
7
 10
-1623.237
 20
-94.986
 30
3677.000
 70
    32
  0
VERTEX
  8
1550LEVEL
 62
7
 10
-1617.280
 20
-102.143
 30
3677.000
 70
    32
  0
VERTEX
  8
1550LEVEL
 62
7
 10
-1602.980
 20
-112.880
 30
3677.000
 70
    32
  0
VERTEX
  8
1550LEVEL
 62
7
 10
-1593.448
 20
-121.230
 30
3677.000
 70
    32
  0
VERTEX
  8
1550LEVEL
 62
7
 10
-1583.915
 20
-123.616
 30
3677.000
 70
    32
  0
VERTEX
  8
1550LEVEL
 62
7
 10
-1568.425
 20
-129.580
 30
3677.000
 70
    32
  0
VERTEX
  8
1550LEVEL
 62
7
 10
-1557.700
 20
-130.773
 30
3677.000
 70
    32
  0
VERTEX
  8
1550LEVEL
 62
7
 10
-1545.784
 20
-133.159
 30
3677.000
 70
    32
  0
VERTEX
  8
1550LEVEL
 62
7
 10
-1533.869
 20
-134.352
 30
3677.000
 70
    32
  0
VERTEX
  8
1550LEVEL
 62
7
 10
-1526.719
 20
-135.544
 30
3677.000
 70
    32
  0
VERTEX
  8
1550LEVEL
 62
7
 10
-1519.570
 20
-135.544
 30
3677.000
 70
    32
  0
VERTEX
  8
1550LEVEL
 62
7
 10
-1514.803
 20
-133.159
 30
3677.000
 70
    32
  0
VERTEX
  8
1550LEVEL
 62
7
 10
-1513.612
 20
-124.809
 30
3677.000
 70
    32
  0
VERTEX
  8
1550LEVEL
 62
7
 10
-1514.803
 20
-118.844
 30
3677.000
 70
    32
  0
VERTEX
  8
1550LEVEL
 62
7
 10
-1519.570
 20
-109.301
 30
3677.000
 70
    32
  0
VERTEX
  8
1550LEVEL
 62
7
 10
-1529.102
 20
-103.336
 30
3677.000
 70
    32
  0
VERTEX
  8
1550LEVEL
 62
7
 10
-1531.486
 20
-102.143
 30
3677.000
 70
    32
  0
VERTEX
  8
1550LEVEL
 62
7
 10
-1556.509
 20
-90.215
 30
3677.000
 70
    32
  0
VERTEX
  8
1550LEVEL
 62
7
 10
-1564.850
 20
-85.443
 30
3677.000
 70
    32
  0
VERTEX
  8
1550LEVEL
 62
7
 10
-1576.766
 20
-78.285
 30
3677.000
 70
    32
  0
VERTEX
  8
1550LEVEL
 62
7
 10
-1585.107
 20
-69.935
 30
3677.000
 70
    32
  0
VERTEX
  8
1550LEVEL
 62
7
 10
-1592.256
 20
-59.199
 30
3677.000
 70
    32
  0
VERTEX
  8
1550LEVEL
 62
7
 10
-1605.364
 20
-44.884
 30
3677.000
 70
    32
  0
VERTEX
  8
1550LEVEL
 62
7
 10
-1610.130
 20
-40.113
 30
3677.000
 70
    32
  0
VERTEX
  8
1550LEVEL
 62
7
 10
-1624.429
 20
-35.341
 30
3677.000
 70
    32
  0
VERTEX
  8
1550LEVEL
 62
7
 10
-1632.770
 20
-32.956
 30
3677.000
 70
    32
  0
VERTEX
  8
1550LEVEL
 62
7
 10
-1648.261
 20
-29.377
 30
3677.000
 70
    32
  0
VERTEX
  8
1550LEVEL
 62
7
 10
-1655.411
 20
-29.377
 30
3677.000
 70
    32
  0
VERTEX
  8
1550LEVEL
 62
7
 10
-1676.859
 20
-24.605
 30
3677.000
 70
    32
  0
VERTEX
  8
1550LEVEL
 62
7
 10
-1686.392
 20
-22.219
 30
3677.000
 70
    32
  0
VERTEX
  8
1550LEVEL
 62
7
 10
-1704.266
 20
-15.062
 30
3677.000
 70
    32
  0
VERTEX
  8
1550LEVEL
 62
7
 10
-1726.905
 20
-3.133
 30
3677.000
 70
    32
  0
VERTEX
  8
1550LEVEL
 62
7
 10
-1740.013
 20
11.182
 30
3677.000
 70
    32
  0
VERTEX
  8
1550LEVEL
 62
7
 10
-1757.887
 20
33.847
 30
3677.000
 70
    32
  0
VERTEX
  8
1550LEVEL
 62
7
 10
-1768.611
 20
77.984
 30
3677.000
 70
    32
  0
VERTEX
  8
1550LEVEL
 62
7
 10
-1781.882
 20
96.045
 30
3677.000
 70
    32
  0
VERTEX
  8
1550LEVEL
 62
7
 10
-1797.539
 20
109.104
 30
3677.000
 70
    32
  0
VERTEX
  8
1550LEVEL
 62
7
 10
-1810.586
 20
122.162
 30
3677.000
 70
    32
  0
VERTEX
  8
1550LEVEL
 62
7
 10
-1826.243
 20
137.832
 30
3677.000
 70
    32
  0
VERTEX
  8
1550LEVEL
 62
7
 10
-1841.900
 20
161.337
 30
3677.000
 70
    32
  0
VERTEX
  8
1550LEVEL
 62
7
 10
-1848.424
 20
178.313
 30
3677.000
 70
    32
  0
VERTEX
  8
1550LEVEL
 62
7
 10
-1862.776
 20
197.900
 30
3677.000
 70
    32
  0
VERTEX
  8
1550LEVEL
 62
7
 10
-1886.261
 20
248.828
 30
3677.000
 70
    32
  0
VERTEX
  8
1550LEVEL
 62
7
 10
-1918.206
 20
317.621
 30
3677.000
 70
    32
  0
VERTEX
  8
1550LEVEL
 62
7
 10
-1928.012
 20
327.178
 30
3677.000
 70
    32
  0
VERTEX
  8
1550LEVEL
 62
7
 10
-1943.669
 20
340.236
 30
3677.000
 70
    32
  0
VERTEX
  8
1550LEVEL
 62
7
 10
-1976.241
 20
376.829
 30
3677.000
 70
    32
  0
VERTEX
  8
1550LEVEL
 62
7
 10
-1980.201
 20
382.022
 30
3677.000
 70
    32
  0
VERTEX
  8
1550LEVEL
 62
7
 10
-1990.639
 20
387.246
 30
3677.000
 70
    32
  0
VERTEX
  8
1550LEVEL
 62
7
 10
-1991.944
 20
378.105
 30
3677.000
 70
    32
  0
VERTEX
  8
1550LEVEL
 62
7
 10
-1989.335
 20
367.658
 30
3677.000
 70
    32
  0
VERTEX
  8
1550LEVEL
 62
7
 10
-1985.420
 20
354.600
 30
3677.000
 70
    32
  0
VERTEX
  8
1550LEVEL
 62
7
 10
-1974.983
 20
342.847
 30
3677.000
 70
    32
  0
VERTEX
  8
1550LEVEL
 62
7
 10
-1968.459
 20
318.037
 30
3677.000
 70
    32
  0
VERTEX
  8
1550LEVEL
 62
7
 10
-1963.240
 20
302.367
 30
3677.000
 70
    32
  0
VERTEX
  8
1550LEVEL
 62
7
 10
-1941.060
 20
278.862
 30
3677.000
 70
    32
  0
VERTEX
  8
1550LEVEL
 62
7
 10
-1928.012
 20
252.745
 30
3677.000
 70
    32
  0
VERTEX
  8
1550LEVEL
 62
7
 10
-1913.008
 20
213.747
 30
3677.000
 70
    32
  0
VERTEX
  8
1550LEVEL
 62
7
 10
-1909.746
 20
205.735
 30
3677.000
 70
    32
  0
VERTEX
  8
1550LEVEL
 62
7
 10
-1886.261
 20
182.230
 30
3677.000
 70
    32
  0
VERTEX
  8
1550LEVEL
 62
7
 10
-1881.042
 20
169.172
 30
3677.000
 70
    32
  0
VERTEX
  8
1550LEVEL
 62
7
 10
-1879.737
 20
156.114
 30
3677.000
 70
    32
  0
VERTEX
  8
1550LEVEL
 62
7
 10
-1878.433
 20
143.055
 30
3677.000
 70
    32
  0
VERTEX
  8
1550LEVEL
 62
7
 10
-1875.823
 20
131.303
 30
3677.000
 70
    32
  0
VERTEX
  8
1550LEVEL
 62
7
 10
-1867.995
 20
118.245
 30
3677.000
 70
    32
  0
VERTEX
  8
1550LEVEL
 62
7
 10
-1852.338
 20
98.657
 30
3677.000
 70
    32
  0
VERTEX
  8
1550LEVEL
 62
7
 10
-1832.726
 20
72.697
 30
3677.000
 70
    32
  0
VERTEX
  8
1550LEVEL
 62
7
 10
-1826.999
 20
62.476
 30
3677.000
 70
    32
  0
VERTEX
  8
1550LEVEL
 62
7
 10
-1816.275
 20
49.355
 30
3677.000
 70
    32
  0
VERTEX
  8
1550LEVEL
 62
7
 10
-1811.508
 20
37.426
 30
3677.000
 70
    32
  0
VERTEX
  8
1550LEVEL
 62
7
 10
-1803.167
 20
21.918
 30
3677.000
 70
    32
  0
VERTEX
  8
1550LEVEL
 62
7
 10
-1792.443
 20
7.603
 30
3677.000
 70
    32
  0
VERTEX
  8
1550LEVEL
 62
7
 10
-1785.293
 20
-1.940
 30
3677.000
 70
    32
  0
VERTEX
  8
1550LEVEL
 62
7
 10
-1784.102
 20
-7.904
 30
3677.000
 70
    32
  0
VERTEX
  8
1550LEVEL
 62
7
 10
-1786.485
 20
-11.483
 30
3677.000
 70
    32
  0
VERTEX
  8
1550LEVEL
 62
7
 10
-1790.060
 20
-11.483
 30
3677.000
 70
    32
  0
VERTEX
  8
1550LEVEL
 62
7
 10
-1794.826
 20
-6.712
 30
3677.000
 70
    32
  0
VERTEX
  8
1550LEVEL
 62
7
 10
-1804.359
 20
0.446
 30
3677.000
 70
    32
  0
VERTEX
  8
1550LEVEL
 62
7
 10
-1809.125
 20
7.603
 30
3677.000
 70
    32
  0
VERTEX
  8
1550LEVEL
 62
7
 10
-1822.232
 20
15.954
 30
3677.000
 70
    32
  0
VERTEX
  8
1550LEVEL
 62
7
 10
-1830.574
 20
21.918
 30
3677.000
 70
    32
  0
VERTEX
  8
1550LEVEL
 62
7
 10
-1837.723
 20
23.111
 30
3677.000
 70
    32
  0
VERTEX
  8
1550LEVEL
 62
7
 10
-1842.489
 20
18.339
 30
3677.000
 70
    32
  0
VERTEX
  8
1550LEVEL
 62
7
 10
-1840.023
 20
9.832
 30
3677.000
 70
    32
  0
VERTEX
  8
1550LEVEL
 62
7
 10
-1783.451
 20
-102.317
 30
3677.000
 70
    32
  0
VERTEX
  8
1550LEVEL
 62
7
 10
-1728.671
 20
-211.414
 30
3677.000
 70
    32
  0
VERTEX
  8
1550LEVEL
 62
7
 10
-1686.646
 20
-294.076
 30
3677.000
 70
    32
  0
VERTEX
  8
1550LEVEL
 62
7
 10
-1678.051
 20
-302.550
 30
3677.000
 70
    32
  0
VERTEX
  8
1550LEVEL
 62
7
 10
-1666.135
 20
-319.251
 30
3677.000
 70
    32
  0
VERTEX
  8
1550LEVEL
 62
7
 10
-1663.752
 20
-328.794
 30
3677.000
 70
    32
  0
VERTEX
  8
1550LEVEL
 62
7
 10
-1650.644
 20
-340.723
 30
3677.000
 70
    32
  0
VERTEX
  8
1550LEVEL
 62
7
 10
-1651.836
 20
-350.266
 30
3677.000
 70
    32
  0
VERTEX
  8
1550LEVEL
 62
7
 10
-1656.602
 20
-353.845
 30
3677.000
 70
    32
  0
VERTEX
  8
1550LEVEL
 62
7
 10
-1661.368
 20
-349.073
 30
3677.000
 70
    32
  0
VERTEX
  8
1550LEVEL
 62
7
 10
-1669.092
 20
-341.419
 30
3677.000
 70
    32
  0
VERTEX
  8
1550LEVEL
 62
7
 10
-1709.516
 20
-287.229
 30
3677.000
 70
    32
  0
VERTEX
  8
1550LEVEL
 62
7
 10
-1749.686
 20
-229.803
 30
3677.000
 70
    32
  0
VERTEX
  8
1550LEVEL
 62
7
 10
-1758.397
 20
-227.801
 30
3677.000
 70
    32
  0
VERTEX
  8
1550LEVEL
 62
7
 10
-1764.921
 20
-221.272
 30
3677.000
 70
    32
  0
VERTEX
  8
1550LEVEL
 62
7
 10
-1777.968
 20
-217.354
 30
3677.000
 70
    32
  0
VERTEX
  8
1550LEVEL
 62
7
 10
-1796.235
 20
-218.660
 30
3677.000
 70
    32
  0
VERTEX
  8
1550LEVEL
 62
7
 10
-1802.758
 20
-219.966
 30
3677.000
 70
    32
  0
VERTEX
  8
1550LEVEL
 62
7
 10
-1811.891
 20
-222.578
 30
3677.000
 70
    32
  0
VERTEX
  8
1550LEVEL
 62
7
 10
-1827.548
 20
-221.272
 30
3677.000
 70
    32
  0
VERTEX
  8
1550LEVEL
 62
7
 10
-1836.589
 20
-213.461
 30
3677.000
 70
    32
  0
VERTEX
  8
1550LEVEL
 62
7
 10
-1868.999
 20
-122.472
 30
3677.000
 70
    32
  0
VERTEX
  8
1550LEVEL
 62
7
 10
-1921.489
 20
-20.174
 30
3677.000
 70
    32
  0
VERTEX
  8
1550LEVEL
 62
7
 10
-1930.622
 20
-16.256
 30
3677.000
 70
    32
  0
VERTEX
  8
1550LEVEL
 62
7
 10
-1937.145
 20
-14.950
 30
3677.000
 70
    32
  0
VERTEX
  8
1550LEVEL
 62
7
 10
-1947.583
 20
-12.339
 30
3677.000
 70
    32
  0
VERTEX
  8
1550LEVEL
 62
7
 10
-1956.716
 20
-3.198
 30
3677.000
 70
    32
  0
VERTEX
  8
1550LEVEL
 62
7
 10
-1963.240
 20
7.249
 30
3677.000
 70
    32
  0
VERTEX
  8
1550LEVEL
 62
7
 10
-1961.935
 20
9.860
 30
3677.000
 70
    32
  0
VERTEX
  8
1550LEVEL
 62
7
 10
-1960.631
 20
13.778
 30
3677.000
 70
    32
  0
VERTEX
  8
1550LEVEL
 62
7
 10
-1954.107
 20
17.696
 30
3677.000
 70
    32
  0
VERTEX
  8
1550LEVEL
 62
7
 10
-1946.279
 20
25.530
 30
3677.000
 70
    32
  0
VERTEX
  8
1550LEVEL
 62
7
 10
-1942.364
 20
29.448
 30
3677.000
 70
    32
  0
VERTEX
  8
1550LEVEL
 62
7
 10
-1942.364
 20
39.895
 30
3677.000
 70
    32
  0
VERTEX
  8
1550LEVEL
 62
7
 10
-1943.669
 20
55.565
 30
3677.000
 70
    32
  0
VERTEX
  8
1550LEVEL
 62
7
 10
-1946.279
 20
68.623
 30
3677.000
 70
    32
  0
VERTEX
  8
1550LEVEL
 62
7
 10
-1950.193
 20
79.070
 30
3677.000
 70
    32
  0
VERTEX
  8
1550LEVEL
 62
7
 10
-1984.116
 20
119.550
 30
3677.000
 70
    32
  0
VERTEX
  8
1550LEVEL
 62
7
 10
-1995.858
 20
166.560
 30
3677.000
 70
    32
  0
VERTEX
  8
1550LEVEL
 62
7
 10
-2027.172
 20
182.230
 30
3677.000
 70
    32
  0
VERTEX
  8
1550LEVEL
 62
7
 10
-2042.829
 20
195.288
 30
3677.000
 70
    32
  0
VERTEX
  8
1550LEVEL
 62
7
 10
-2038.914
 20
209.653
 30
3677.000
 70
    32
  0
VERTEX
  8
1550LEVEL
 62
7
 10
-2006.297
 20
212.264
 30
3677.000
 70
    32
  0
VERTEX
  8
1550LEVEL
 62
7
 10
-1997.164
 20
213.570
 30
3677.000
 70
    32
  0
VERTEX
  8
1550LEVEL
 62
7
 10
-1991.945
 20
229.240
 30
3677.000
 70
    32
  0
VERTEX
  8
1550LEVEL
 62
7
 10
-1994.554
 20
234.463
 30
3677.000
 70
    32
  0
VERTEX
  8
1550LEVEL
 62
7
 10
-1995.859
 20
250.133
 30
3677.000
 70
    32
  0
VERTEX
  8
1550LEVEL
 62
7
 10
-2003.687
 20
267.109
 30
3677.000
 70
    32
  0
VERTEX
  8
1550LEVEL
 62
7
 10
-2020.649
 20
286.697
 30
3677.000
 70
    32
  0
VERTEX
  8
1550LEVEL
 62
7
 10
-2025.868
 20
295.837
 30
3677.000
 70
    32
  0
VERTEX
  8
1550LEVEL
 62
7
 10
-2035.001
 20
311.507
 30
3677.000
 70
    32
  0
VERTEX
  8
1550LEVEL
 62
7
 10
-2049.353
 20
333.707
 30
3677.000
 70
    32
  0
VERTEX
  8
1550LEVEL
 62
7
 10
-2067.619
 20
348.071
 30
3677.000
 70
    32
  0
VERTEX
  8
1550LEVEL
 62
7
 10
-2078.057
 20
363.741
 30
3677.000
 70
    32
  0
VERTEX
  8
1550LEVEL
 62
7
 10
-2085.885
 20
376.799
 30
3677.000
 70
    32
  0
VERTEX
  8
1550LEVEL
 62
7
 10
-2092.409
 20
379.411
 30
3677.000
 70
    32
  0
VERTEX
  8
1550LEVEL
 62
7
 10
-2091.104
 20
376.799
 30
3677.000
 70
    32
  0
VERTEX
  8
1550LEVEL
 62
7
 10
-2088.495
 20
368.964
 30
3677.000
 70
    32
  0
VERTEX
  8
1550LEVEL
 62
7
 10
-2085.885
 20
358.517
 30
3677.000
 70
    32
  0
VERTEX
  8
1550LEVEL
 62
7
 10
-2083.276
 20
354.600
 30
3677.000
 70
    32
  0
VERTEX
  8
1550LEVEL
 62
7
 10
-2083.276
 20
342.847
 30
3677.000
 70
    32
  0
VERTEX
  8
1550LEVEL
 62
7
 10
-2078.057
 20
329.789
 30
3677.000
 70
    32
  0
VERTEX
  8
1550LEVEL
 62
7
 10
-2074.143
 20
318.037
 30
3677.000
 70
    32
  0
VERTEX
  8
1550LEVEL
 62
7
 10
-2067.619
 20
303.673
 30
3677.000
 70
    32
  0
VERTEX
  8
1550LEVEL
 62
7
 10
-2067.619
 20
286.697
 30
3677.000
 70
    32
  0
VERTEX
  8
1550LEVEL
 62
7
 10
-2065.010
 20
273.638
 30
3677.000
 70
    32
  0
VERTEX
  8
1550LEVEL
 62
7
 10
-2062.400
 20
250.133
 30
3677.000
 70
    32
  0
VERTEX
  8
1550LEVEL
 62
7
 10
-2067.619
 20
240.993
 30
3677.000
 70
    32
  0
VERTEX
  8
1550LEVEL
 62
7
 10
-2079.362
 20
240.993
 30
3677.000
 70
    32
  0
VERTEX
  8
1550LEVEL
 62
7
 10
-2095.018
 20
247.522
 30
3677.000
 70
    32
  0
VERTEX
  8
1550LEVEL
 62
7
 10
-2104.152
 20
254.051
 30
3677.000
 70
    32
  0
VERTEX
  8
1550LEVEL
 62
7
 10
-2114.589
 20
267.109
 30
3677.000
 70
    32
  0
VERTEX
  8
1550LEVEL
 62
7
 10
-2126.332
 20
278.862
 30
3677.000
 70
    32
  0
VERTEX
  8
1550LEVEL
 62
7
 10
-2187.654
 20
337.624
 30
3677.000
 70
    32
  0
VERTEX
  8
1550LEVEL
 62
7
 10
-2192.873
 20
344.153
 30
3677.000
 70
    32
  0
VERTEX
  8
1550LEVEL
 62
7
 10
-2195.483
 20
359.823
 30
3677.000
 70
    32
  0
VERTEX
  8
1550LEVEL
 62
7
 10
-2195.483
 20
368.964
 30
3677.000
 70
    32
  0
VERTEX
  8
1550LEVEL
 62
7
 10
-2188.959
 20
375.493
 30
3677.000
 70
    32
  0
VERTEX
  8
1550LEVEL
 62
7
 10
-2181.131
 20
378.105
 30
3677.000
 70
    32
  0
VERTEX
  8
1550LEVEL
 62
7
 10
-2170.693
 20
379.411
 30
3677.000
 70
    32
  0
VERTEX
  8
1550LEVEL
 62
7
 10
-2165.474
 20
384.634
 30
3677.000
 70
    32
  0
VERTEX
  8
1550LEVEL
 62
7
 10
-2161.560
 20
395.081
 30
3677.000
 70
    32
  0
VERTEX
  8
1550LEVEL
 62
7
 10
-2161.560
 20
401.610
 30
3677.000
 70
    32
  0
VERTEX
  8
1550LEVEL
 62
7
 10
-2164.169
 20
413.362
 30
3677.000
 70
    32
  0
VERTEX
  8
1550LEVEL
 62
7
 10
-2195.483
 20
457.760
 30
3677.000
 70
    32
  0
VERTEX
  8
1550LEVEL
 62
7
 10
-2245.062
 20
538.722
 30
3677.000
 70
    32
  0
VERTEX
  8
1550LEVEL
 62
7
 10
-2254.429
 20
565.665
 30
3677.000
 70
    32
  0
VERTEX
  8
1550LEVEL
 62
7
 10
-2321.707
 20
656.051
 30
3677.000
 70
    32
  0
VERTEX
  8
1550LEVEL
 62
7
 10
-2378.145
 20
755.490
 30
3677.000
 70
    32
  0
VERTEX
  8
1550LEVEL
 62
7
 10
-2445.115
 20
827.522
 30
3677.000
 70
    32
  0
VERTEX
  8
1550LEVEL
 62
7
 10
-2449.905
 20
835.146
 30
3677.000
 70
    32
  0
VERTEX
  8
1550LEVEL
 62
7
 10
-2462.952
 20
852.122
 30
3677.000
 70
    32
  0
VERTEX
  8
1550LEVEL
 62
7
 10
-2472.086
 20
863.874
 30
3677.000
 70
    32
  0
VERTEX
  8
1550LEVEL
 62
7
 10
-2480.379
 20
861.503
 30
3677.000
 70
    32
  0
VERTEX
  8
1550LEVEL
 62
7
 10
-2440.406
 20
783.445
 30
3677.000
 70
    32
  0
VERTEX
  8
1550LEVEL
 62
7
 10
-2435.553
 20
776.383
 30
3677.000
 70
    32
  0
VERTEX
  8
1550LEVEL
 62
7
 10
-2418.592
 20
755.490
 30
3677.000
 70
    32
  0
VERTEX
  8
1550LEVEL
 62
7
 10
-2406.849
 20
741.126
 30
3677.000
 70
    32
  0
VERTEX
  8
1550LEVEL
 62
7
 10
-2401.630
 20
733.291
 30
3677.000
 70
    32
  0
VERTEX
  8
1550LEVEL
 62
7
 10
-2397.716
 20
722.844
 30
3677.000
 70
    32
  0
VERTEX
  8
1550LEVEL
 62
7
 10
-2397.716
 20
718.927
 30
3677.000
 70
    32
  0
VERTEX
  8
1550LEVEL
 62
7
 10
-2402.935
 20
718.927
 30
3677.000
 70
    32
  0
VERTEX
  8
1550LEVEL
 62
7
 10
-2410.763
 20
722.844
 30
3677.000
 70
    32
  0
VERTEX
  8
1550LEVEL
 62
7
 10
-2414.677
 20
730.679
 30
3677.000
 70
    32
  0
VERTEX
  8
1550LEVEL
 62
7
 10
-2476.953
 20
810.823
 30
3677.000
 70
    32
  0
VERTEX
  8
1550LEVEL
 62
7
 10
-2521.665
 20
837.758
 30
3677.000
 70
    32
  0
VERTEX
  8
1550LEVEL
 62
7
 10
-2611.691
 20
876.932
 30
3677.000
 70
    32
  0
VERTEX
  8
1550LEVEL
 62
7
 10
-2654.748
 20
927.860
 30
3677.000
 70
    32
  0
VERTEX
  8
1550LEVEL
 62
7
 10
-2659.966
 20
933.083
 30
3677.000
 70
    32
  0
VERTEX
  8
1550LEVEL
 62
7
 10
-2666.490
 20
940.918
 30
3677.000
 70
    32
  0
VERTEX
  8
1550LEVEL
 62
7
 10
-2683.452
 20
960.506
 30
3677.000
 70
    32
  0
VERTEX
  8
1550LEVEL
 62
7
 10
-2692.585
 20
973.564
 30
3677.000
 70
    32
  0
VERTEX
  8
1550LEVEL
 62
7
 10
-2699.185
 20
975.550
 30
3677.000
 70
    32
  0
VERTEX
  8
1550LEVEL
 62
7
 10
-2701.718
 20
968.340
 30
3677.000
 70
    32
  0
VERTEX
  8
1550LEVEL
 62
7
 10
-2689.975
 20
951.365
 30
3677.000
 70
    32
  0
VERTEX
  8
1550LEVEL
 62
7
 10
-2686.061
 20
939.612
 30
3677.000
 70
    32
  0
VERTEX
  8
1550LEVEL
 62
7
 10
-2675.623
 20
926.554
 30
3677.000
 70
    32
  0
VERTEX
  8
1550LEVEL
 62
7
 10
-2669.100
 20
912.190
 30
3677.000
 70
    32
  0
VERTEX
  8
1550LEVEL
 62
7
 10
-2646.919
 20
874.321
 30
3677.000
 70
    32
  0
VERTEX
  8
1550LEVEL
 62
7
 10
-2533.408
 20
754.184
 30
3677.000
 70
    32
  0
VERTEX
  8
1550LEVEL
 62
7
 10
-2459.038
 20
700.645
 30
3677.000
 70
    32
  0
VERTEX
  8
1550LEVEL
 62
7
 10
-2336.394
 20
476.042
 30
3677.000
 70
    32
  0
VERTEX
  8
1550LEVEL
 62
7
 10
-2262.024
 20
344.153
 30
3677.000
 70
    32
  0
VERTEX
  8
1550LEVEL
 62
7
 10
-2215.053
 20
252.745
 30
3677.000
 70
    32
  0
VERTEX
  8
1550LEVEL
 62
7
 10
-2208.530
 20
240.993
 30
3677.000
 70
    32
  0
VERTEX
  8
1550LEVEL
 62
7
 10
-2196.787
 20
229.240
 30
3677.000
 70
    32
  0
VERTEX
  8
1550LEVEL
 62
7
 10
-2187.654
 20
220.099
 30
3677.000
 70
    32
  0
VERTEX
  8
1550LEVEL
 62
7
 10
-2178.521
 20
214.876
 30
3677.000
 70
    32
  0
VERTEX
  8
1550LEVEL
 62
7
 10
-2171.997
 20
212.265
 30
3677.000
 70
    32
  0
VERTEX
  8
1550LEVEL
 62
7
 10
-2156.341
 20
207.041
 30
3677.000
 70
    32
  0
VERTEX
  8
1550LEVEL
 62
7
 10
-2141.988
 20
201.818
 30
3677.000
 70
    32
  0
VERTEX
  8
1550LEVEL
 62
7
 10
-2134.160
 20
197.900
 30
3677.000
 70
    32
  0
VERTEX
  8
1550LEVEL
 62
7
 10
-2130.246
 20
191.371
 30
3677.000
 70
    32
  0
VERTEX
  8
1550LEVEL
 62
7
 10
-2118.503
 20
173.089
 30
3677.000
 70
    32
  0
VERTEX
  8
1550LEVEL
 62
7
 10
-2110.675
 20
162.643
 30
3677.000
 70
    32
  0
VERTEX
  8
1550LEVEL
 62
7
 10
-2104.151
 20
149.584
 30
3677.000
 70
    32
  0
VERTEX
  8
1550LEVEL
 62
7
 10
-2093.713
 20
139.138
 30
3677.000
 70
    32
  0
VERTEX
  8
1550LEVEL
 62
7
 10
-2075.447
 20
123.468
 30
3677.000
 70
    32
  0
VERTEX
  8
1550LEVEL
 62
7
 10
-2067.618
 20
111.715
 30
3677.000
 70
    32
  0
VERTEX
  8
1550LEVEL
 62
7
 10
-2057.181
 20
94.740
 30
3677.000
 70
    32
  0
VERTEX
  8
1550LEVEL
 62
7
 10
-2046.743
 20
80.375
 30
3677.000
 70
    32
  0
VERTEX
  8
1550LEVEL
 62
7
 10
-2031.827
 20
61.202
 30
3677.000
 70
    32
  0
VERTEX
  8
1550LEVEL
 62
7
 10
-2028.477
 20
46.424
 30
3677.000
 70
    32
  0
VERTEX
  8
1550LEVEL
 62
7
 10
-2028.477
 20
33.365
 30
3677.000
 70
    32
  0
VERTEX
  8
1550LEVEL
 62
7
 10
-2028.477
 20
16.390
 30
3677.000
 70
    32
  0
VERTEX
  8
1550LEVEL
 62
7
 10
-2024.562
 20
7.249
 30
3677.000
 70
    32
  0
VERTEX
  8
1550LEVEL
 62
7
 10
-2021.953
 20
-9.727
 30
3677.000
 70
    32
  0
VERTEX
  8
1550LEVEL
 62
7
 10
-2021.953
 20
-25.397
 30
3677.000
 70
    32
  0
VERTEX
  8
1550LEVEL
 62
7
 10
-2019.344
 20
-35.844
 30
3677.000
 70
    32
  0
VERTEX
  8
1550LEVEL
 62
7
 10
-2006.296
 20
-46.290
 30
3677.000
 70
    32
  0
VERTEX
  8
1550LEVEL
 62
7
 10
-1999.773
 20
-59.348
 30
3677.000
 70
    32
  0
VERTEX
  8
1550LEVEL
 62
7
 10
-1986.725
 20
-67.184
 30
3677.000
 70
    32
  0
VERTEX
  8
1550LEVEL
 62
7
 10
-1968.459
 20
-75.019
 30
3677.000
 70
    32
  0
VERTEX
  8
1550LEVEL
 62
7
 10
-1952.802
 20
-88.077
 30
3677.000
 70
    32
  0
VERTEX
  8
1550LEVEL
 62
7
 10
-1936.524
 20
-99.833
 30
3677.000
 70
    32
  0
VERTEX
  8
1550LEVEL
 62
7
 10
-1917.575
 20
-139.004
 30
3677.000
 70
    32
  0
VERTEX
  8
1550LEVEL
 62
7
 10
-1914.965
 20
-146.839
 30
3677.000
 70
    32
  0
VERTEX
  8
1550LEVEL
 62
7
 10
-1898.003
 20
-192.543
 30
3677.000
 70
    32
  0
VERTEX
  8
1550LEVEL
 62
7
 10
-1894.089
 20
-208.214
 30
3677.000
 70
    32
  0
VERTEX
  8
1550LEVEL
 62
7
 10
-1875.823
 20
-239.553
 30
3677.000
 70
    32
  0
VERTEX
  8
1550LEVEL
 62
7
 10
-1873.214
 20
-256.529
 30
3677.000
 70
    32
  0
VERTEX
  8
1550LEVEL
 62
7
 10
-1856.252
 20
-283.952
 30
3677.000
 70
    32
  0
VERTEX
  8
1550LEVEL
 62
7
 10
-1848.424
 20
-302.233
 30
3677.000
 70
    32
  0
VERTEX
  8
1550LEVEL
 62
7
 10
-1835.377
 20
-328.350
 30
3677.000
 70
    32
  0
VERTEX
  8
1550LEVEL
 62
7
 10
-1802.758
 20
-372.748
 30
3677.000
 70
    32
  0
VERTEX
  8
1550LEVEL
 62
7
 10
-1788.406
 20
-389.724
 30
3677.000
 70
    32
  0
VERTEX
  8
1550LEVEL
 62
7
 10
-1768.835
 20
-417.147
 30
3677.000
 70
    32
  0
VERTEX
  8
1550LEVEL
 62
7
 10
-1744.045
 20
-440.651
 30
3677.000
 70
    32
  0
VERTEX
  8
1550LEVEL
 62
7
 10
-1708.817
 20
-485.050
 30
3677.000
 70
    32
  0
VERTEX
  8
1550LEVEL
 62
7
 10
-1700.211
 20
-492.287
 30
3677.000
 70
    32
  0
VERTEX
  8
1550LEVEL
 62
7
 10
-1665.825
 20
-588.372
 30
3677.000
 70
    32
  0
VERTEX
  8
1550LEVEL
 62
7
 10
-1610.814
 20
-695.993
 30
3677.000
 70
    32
  0
VERTEX
  8
1550LEVEL
 62
7
 10
-1560.047
 20
-804.967
 30
3677.000
 70
    32
  0
VERTEX
  8
1550LEVEL
 62
7
 10
-1512.753
 20
-926.503
 30
3677.000
 70
    32
  0
VERTEX
  8
1550LEVEL
 62
7
 10
-1446.044
 20
-1017.303
 30
3677.000
 70
    32
  0
VERTEX
  8
1550LEVEL
 62
7
 10
-1493.520
 20
-1001.826
 30
3677.000
 70
    32
  0
VERTEX
  8
1550LEVEL
 62
7
 10
-1551.952
 20
-891.907
 30
3677.000
 70
    32
  0
VERTEX
  8
1550LEVEL
 62
7
 10
-1595.938
 20
-797.599
 30
3677.000
 70
    32
  0
VERTEX
  8
1550LEVEL
 62
7
 10
-1625.657
 20
-705.519
 30
3677.000
 70
    32
  0
VERTEX
  8
1550LEVEL
 62
7
 10
-1652.150
 20
-668.623
 30
3677.000
 70
    32
  0
VERTEX
  8
1550LEVEL
 62
7
 10
-1620.261
 20
-788.761
 30
3677.000
 70
    32
  0
VERTEX
  8
1550LEVEL
 62
7
 10
-1589.681
 20
-885.007
 30
3677.000
 70
    32
  0
VERTEX
  8
1550LEVEL
 62
7
 10
-1517.004
 20
-998.915
 30
3677.000
 70
    32
  0
VERTEX
  8
1550LEVEL
 62
7
 10
-1465.992
 20
-1099.864
 30
3677.000
 70
    32
  0
VERTEX
  8
1550LEVEL
 62
7
 10
-1463.410
 20
-1247.931
 30
3677.000
 70
    32
  0
VERTEX
  8
1550LEVEL
 62
7
 10
-1415.501
 20
-1365.531
 30
3677.000
 70
    32
  0
VERTEX
  8
1550LEVEL
 62
7
 10
-1355.704
 20
-1365.041
 30
3677.000
 70
    32
  0
VERTEX
  8
1550LEVEL
 62
7
 10
-1314.012
 20
-1419.177
 30
3677.000
 70
    32
  0
VERTEX
  8
1550LEVEL
 62
7
 10
-1252.807
 20
-1516.173
 30
3677.000
 70
    32
  0
VERTEX
  8
1550LEVEL
 62
7
 10
-1171.582
 20
-1633.432
 30
3677.000
 70
    32
  0
VERTEX
  8
1550LEVEL
 62
7
 10
-1110.530
 20
-1731.412
 30
3677.000
 70
    32
  0
VERTEX
  8
1550LEVEL
 62
7
 10
-1077.737
 20
-1819.941
 30
3677.000
 70
    32
  0
VERTEX
  8
1550LEVEL
 62
7
 10
-1108.439
 20
-1819.682
 30
3677.000
 70
    32
  0
VERTEX
  8
1550LEVEL
 62
7
 10
-1193.751
 20
-1718.921
 30
3677.000
 70
    32
  0
VERTEX
  8
1550LEVEL
 62
7
 10
-1244.709
 20
-1711.216
 30
3677.000
 70
    32
  0
VERTEX
  8
1550LEVEL
 62
7
 10
-1201.047
 20
-1797.914
 30
3677.000
 70
    32
  0
VERTEX
  8
1550LEVEL
 62
7
 10
-1149.381
 20
-1886.617
 30
3677.000
 70
    32
  0
VERTEX
  8
1550LEVEL
 62
7
 10
-1150.676
 20
-1932.025
 30
3677.000
 70
    32
  0
VERTEX
  8
1550LEVEL
 62
7
 10
-1173.427
 20
-1964.758
 30
3677.000
 70
    32
  0
VERTEX
  8
1550LEVEL
 62
7
 10
-1078.455
 20
-2113.393
 30
3677.000
 70
    32
  0
VERTEX
  8
1550LEVEL
 62
7
 10
-972.924
 20
-2229.911
 30
3677.000
 70
    32
  0
VERTEX
  8
1550LEVEL
 62
7
 10
-890.379
 20
-2332.256
 30
3677.000
 70
    32
  0
VERTEX
  8
1550LEVEL
 62
7
 10
-771.984
 20
-2493.873
 30
3677.000
 70
    32
  0
VERTEX
  8
1550LEVEL
 62
7
 10
-671.898
 20
-2666.237
 30
3677.000
 70
    32
  0
VERTEX
  8
1550LEVEL
 62
7
 10
-593.087
 20
-2779.591
 30
3677.000
 70
    32
  0
VERTEX
  8
1550LEVEL
 62
7
 10
-420.657
 20
-3053.464
 30
3677.000
 70
    32
  0
VERTEX
  8
1550LEVEL
 62
7
 10
-273.615
 20
-3270.455
 30
3677.000
 70
    32
  0
VERTEX
  8
1550LEVEL
 62
7
 10
-167.932
 20
-3445.709
 30
3677.000
 70
    32
  0
VERTEX
  8
1550LEVEL
 62
7
 10
-73.134
 20
-3629.344
 30
3677.000
 70
    32
  0
VERTEX
  8
1550LEVEL
 62
7
 10
-9.574
 20
-3756.443
 30
3677.000
 70
    32
  0
VERTEX
  8
1550LEVEL
 62
7
 10
-56.422
 20
-3714.353
 30
3677.000
 70
    32
  0
VERTEX
  8
1550LEVEL
 62
7
 10
-99.391
 20
-3655.482
 30
3677.000
 70
    32
  0
VERTEX
  8
1550LEVEL
 62
7
 10
-156.845
 20
-3557.055
 30
3677.000
 70
    32
  0
VERTEX
  8
1550LEVEL
 62
7
 10
-221.733
 20
-3456.207
 30
3677.000
 70
    32
  0
VERTEX
  8
1550LEVEL
 62
7
 10
-155.927
 20
-3594.744
 30
3677.000
 70
    32
  0
VERTEX
  8
1550LEVEL
 62
7
 10
-93.281
 20
-3716.409
 30
3677.000
 70
    32
  0
VERTEX
  8
1550LEVEL
 62
7
 10
-60.841
 20
-3810.426
 30
3677.000
 70
    32
  0
VERTEX
  8
1550LEVEL
 62
7
 10
-106.498
 20
-3768.774
 30
3677.000
 70
    32
  0
VERTEX
  8
1550LEVEL
 62
7
 10
-189.122
 20
-3650.793
 30
3677.000
 70
    32
  0
VERTEX
  8
1550LEVEL
 62
7
 10
-279.225
 20
-3533.913
 30
3677.000
 70
    32
  0
VERTEX
  8
1550LEVEL
 62
7
 10
-375.800
 20
-3416.526
 30
3677.000
 70
    32
  0
VERTEX
  8
1550LEVEL
 62
7
 10
-441.912
 20
-3296.084
 30
3677.000
 70
    32
  0
VERTEX
  8
1550LEVEL
 62
7
 10
-536.660
 20
-3157.311
 30
3677.000
 70
    32
  0
VERTEX
  8
1550LEVEL
 62
7
 10
-629.787
 20
-3012.996
 30
3677.000
 70
    32
  0
VERTEX
  8
1550LEVEL
 62
7
 10
-731.326
 20
-2838.640
 30
3677.000
 70
    32
  0
VERTEX
  8
1550LEVEL
 62
7
 10
-842.793
 20
-2610.069
 30
3677.000
 70
    32
  0
VERTEX
  8
1550LEVEL
 62
7
 10
-928.357
 20
-2452.823
 30
3677.000
 70
    32
  0
VERTEX
  8
1550LEVEL
 62
7
 10
-1001.533
 20
-2334.050
 30
3677.000
 70
    32
  0
VERTEX
  8
1550LEVEL
 62
7
 10
-1073.816
 20
-2238.599
 30
3677.000
 70
    32
  0
VERTEX
  8
1550LEVEL
 62
7
 10
-1118.303
 20
-2215.273
 30
3677.000
 70
    32
  0
VERTEX
  8
1550LEVEL
 62
7
 10
-1063.292
 20
-2322.894
 30
3677.000
 70
    32
  0
VERTEX
  8
1550LEVEL
 62
7
 10
-1049.020
 20
-2373.504
 30
3677.000
 70
    32
  0
VERTEX
  8
1550LEVEL
 62
7
 10
-1123.529
 20
-2308.448
 30
3677.000
 70
    32
  0
VERTEX
  8
1550LEVEL
 62
7
 10
-1236.971
 20
-2182.884
 30
3677.000
 70
    32
  0
VERTEX
  8
1550LEVEL
 62
7
 10
-1357.108
 20
-2046.950
 30
3677.000
 70
    32
  0
VERTEX
  8
1550LEVEL
 62
7
 10
-1339.979
 20
-1996.959
 30
3677.000
 70
    32
  0
VERTEX
  8
1550LEVEL
 62
7
 10
-1402.811
 20
-1932.971
 30
3677.000
 70
    32
  0
VERTEX
  8
1550LEVEL
 62
7
 10
-1447.853
 20
-1887.383
 30
3677.000
 70
    32
  0
VERTEX
  8
1550LEVEL
 62
7
 10
-1514.598
 20
-1745.172
 30
3677.000
 70
    32
  0
VERTEX
  8
1550LEVEL
 62
7
 10
-1574.038
 20
-1620.732
 30
3677.000
 70
    32
  0
VERTEX
  8
1550LEVEL
 62
7
 10
-1676.442
 20
-1485.803
 30
3677.000
 70
    32
  0
VERTEX
  8
1550LEVEL
 62
7
 10
-1783.188
 20
-1354.480
 30
3677.000
 70
    32
  0
VERTEX
  8
1550LEVEL
 62
7
 10
-1887.840
 20
-1191.986
 30
3677.000
 70
    32
  0
VERTEX
  8
1550LEVEL
 62
7
 10
-1984.155
 20
-1060.024
 30
3677.000
 70
    32
  0
VERTEX
  8
1550LEVEL
 62
7
 10
-2089.625
 20
-933.436
 30
3677.000
 70
    32
  0
VERTEX
  8
1550LEVEL
 62
7
 10
-2186.055
 20
-810.276
 30
3677.000
 70
    32
  0
VERTEX
  8
1550LEVEL
 62
7
 10
-2264.581
 20
-696.715
 30
3677.000
 70
    32
  0
VERTEX
  8
1550LEVEL
 62
7
 10
-2307.639
 20
-661.013
 30
3677.000
 70
    32
  0
VERTEX
  8
1550LEVEL
 62
7
 10
-2243.358
 20
-770.586
 30
3677.000
 70
    32
  0
VERTEX
  8
1550LEVEL
 62
7
 10
-2157.998
 20
-883.954
 30
3677.000
 70
    32
  0
VERTEX
  8
1550LEVEL
 62
7
 10
-2082.746
 20
-1005.571
 30
3677.000
 70
    32
  0
VERTEX
  8
1550LEVEL
 62
7
 10
-2020.854
 20
-1125.606
 30
3677.000
 70
    32
  0
VERTEX
  8
1550LEVEL
 62
7
 10
-1964.381
 20
-1256.134
 30
3677.000
 70
    32
  0
VERTEX
  8
1550LEVEL
 62
7
 10
-1899.166
 20
-1396.847
 30
3677.000
 70
    32
  0
VERTEX
  8
1550LEVEL
 62
7
 10
-1839.558
 20
-1513.753
 30
3677.000
 70
    32
  0
VERTEX
  8
1550LEVEL
 62
7
 10
-1796.601
 20
-1611.428
 30
3677.000
 70
    32
  0
VERTEX
  8
1550LEVEL
 62
7
 10
-1742.798
 20
-1709.033
 30
3677.000
 70
    32
  0
VERTEX
  8
1550LEVEL
 62
7
 10
-1684.483
 20
-1811.626
 30
3677.000
 70
    32
  0
VERTEX
  8
1550LEVEL
 62
7
 10
-1639.238
 20
-1960.812
 30
3677.000
 70
    32
  0
VERTEX
  8
1550LEVEL
 62
7
 10
-1574.917
 20
-2170.178
 30
3677.000
 70
    32
  0
VERTEX
  8
1550LEVEL
 62
7
 10
-1498.062
 20
-2336.395
 30
3677.000
 70
    32
  0
VERTEX
  8
1550LEVEL
 62
7
 10
-1486.628
 20
-2453.590
 30
3677.000
 70
    32
  0
VERTEX
  8
1550LEVEL
 62
7
 10
-1552.770
 20
-2422.095
 30
3677.000
 70
    32
  0
VERTEX
  8
1550LEVEL
 62
7
 10
-1641.796
 20
-2314.454
 30
3677.000
 70
    32
  0
VERTEX
  8
1550LEVEL
 62
7
 10
-1737.526
 20
-2191.655
 30
3677.000
 70
    32
  0
VERTEX
  8
1550LEVEL
 62
7
 10
-1844.845
 20
-2028.493
 30
3677.000
 70
    32
  0
VERTEX
  8
1550LEVEL
 62
7
 10
-1969.438
 20
-1845.245
 30
3677.000
 70
    32
  0
VERTEX
  8
1550LEVEL
 62
7
 10
-2035.189
 20
-1724.104
 30
3677.000
 70
    32
  0
VERTEX
  8
1550LEVEL
 62
7
 10
-2085.450
 20
-1608.657
 30
3677.000
 70
    32
  0
VERTEX
  8
1550LEVEL
 62
7
 10
-2188.051
 20
-1418.513
 30
3677.000
 70
    32
  0
VERTEX
  8
1550LEVEL
 62
7
 10
-2312.682
 20
-1243.575
 30
3677.000
 70
    32
  0
VERTEX
  8
1550LEVEL
 62
7
 10
-2430.832
 20
-1073.933
 30
3677.000
 70
    32
  0
VERTEX
  8
1550LEVEL
 62
7
 10
-2527.494
 20
-936.122
 30
3677.000
 70
    32
  0
VERTEX
  8
1550LEVEL
 62
7
 10
-2624.015
 20
-820.003
 30
3677.000
 70
    32
  0
SEQEND
  8
1550LEVEL
  0
POLYLINE
  8
1550LEVEL
 62
13
 66
     1
 70
     9
  0
VERTEX
  8
1550LEVEL
 62
13
 10
-125.072
 20
-1033.602
 30
3677.000
 70
    32
  0
VERTEX
  8
1550LEVEL
 62
13
 10
-141.528
 20
-1008.342
 30
3677.000
 70
    32
  0
VERTEX
  8
1550LEVEL
 62
13
 10
-154.693
 20
-985.278
 30
3677.000
 70
    32
  0
VERTEX
  8
1550LEVEL
 62
13
 10
-160.959
 20
-956.146
 30
3677.000
 70
    32
  0
VERTEX
  8
1550LEVEL
 62
13
 10
-158.873
 20
-941.547
 30
3677.000
 70
    32
  0
VERTEX
  8
1550LEVEL
 62
13
 10
-158.873
 20
-931.120
 30
3677.000
 70
    32
  0
VERTEX
  8
1550LEVEL
 62
13
 10
-158.873
 20
-922.777
 30
3677.000
 70
    32
  0
VERTEX
  8
1550LEVEL
 62
13
 10
-158.873
 20
-910.264
 30
3677.000
 70
    32
  0
VERTEX
  8
1550LEVEL
 62
13
 10
-163.044
 20
-893.580
 30
3677.000
 70
    32
  0
VERTEX
  8
1550LEVEL
 62
13
 10
-169.300
 20
-870.639
 30
3677.000
 70
    32
  0
VERTEX
  8
1550LEVEL
 62
13
 10
-176.634
 20
-864.468
 30
3677.000
 70
    32
  0
VERTEX
  8
1550LEVEL
 62
13
 10
-242.019
 20
-825.069
 30
3677.000
 70
    32
  0
VERTEX
  8
1550LEVEL
 62
13
 10
-303.894
 20
-716.201
 30
3677.000
 70
    32
  0
VERTEX
  8
1550LEVEL
 62
13
 10
-312.670
 20
-629.437
 30
3677.000
 70
    32
  0
VERTEX
  8
1550LEVEL
 62
13
 10
-327.785
 20
-616.204
 30
3677.000
 70
    32
  0
VERTEX
  8
1550LEVEL
 62
13
 10
-336.127
 20
-614.119
 30
3677.000
 70
    32
  0
VERTEX
  8
1550LEVEL
 62
13
 10
-346.553
 20
-620.375
 30
3677.000
 70
    32
  0
VERTEX
  8
1550LEVEL
 62
13
 10
-342.383
 20
-634.974
 30
3677.000
 70
    32
  0
VERTEX
  8
1550LEVEL
 62
13
 10
-338.212
 20
-647.487
 30
3677.000
 70
    32
  0
VERTEX
  8
1550LEVEL
 62
13
 10
-338.212
 20
-662.086
 30
3677.000
 70
    32
  0
VERTEX
  8
1550LEVEL
 62
13
 10
-336.127
 20
-666.257
 30
3677.000
 70
    32
  0
VERTEX
  8
1550LEVEL
 62
13
 10
-343.389
 20
-675.565
 30
3677.000
 70
    32
  0
VERTEX
  8
1550LEVEL
 62
13
 10
-332.418
 20
-730.478
 30
3677.000
 70
    32
  0
VERTEX
  8
1550LEVEL
 62
13
 10
-295.808
 20
-796.762
 30
3677.000
 70
    32
  0
VERTEX
  8
1550LEVEL
 62
13
 10
-219.420
 20
-899.613
 30
3677.000
 70
    32
  0
VERTEX
  8
1550LEVEL
 62
13
 10
-207.352
 20
-952.330
 30
3677.000
 70
    32
  0
VERTEX
  8
1550LEVEL
 62
13
 10
-167.857
 20
-994.064
 30
3677.000
 70
    32
  0
VERTEX
  8
1550LEVEL
 62
13
 10
-153.596
 20
-1036.897
 30
3677.000
 70
    32
  0
VERTEX
  8
1550LEVEL
 62
13
 10
-132.751
 20
-1045.683
 30
3677.000
 70
    32
  0
SEQEND
  8
1550LEVEL
  0
POLYLINE
  8
1550LEVEL
 62
7
 66
     1
 70
     8
  0
VERTEX
  8
1550LEVEL
 62
7
 10
46.680
 20
-1569.711
 30
3677.000
 70
    32
  0
VERTEX
  8
1550LEVEL
 62
7
 10
25.929
 20
-1530.596
 30
3677.000
 70
    32
  0
VERTEX
  8
1550LEVEL
 62
7
 10
1.515
 20
-1480.480
 30
3677.000
 70
    32
  0
VERTEX
  8
1550LEVEL
 62
7
 10
-16.795
 20
-1438.920
 30
3677.000
 70
    32
  0
VERTEX
  8
1550LEVEL
 62
7
 10
-22.899
 20
-1423.030
 30
3677.000
 70
    32
  0
VERTEX
  8
1550LEVEL
 62
7
 10
-37.547
 20
-1398.583
 30
3677.000
 70
    32
  0
VERTEX
  8
1550LEVEL
 62
7
 10
-49.754
 20
-1381.470
 30
3677.000
 70
    32
  0
VERTEX
  8
1550LEVEL
 62
7
 10
-63.181
 20
-1343.578
 30
3677.000
 70
    32
  0
VERTEX
  8
1550LEVEL
 62
7
 10
-65.622
 20
-1316.686
 30
3677.000
 70
    32
  0
VERTEX
  8
1550LEVEL
 62
7
 10
-77.829
 20
-1283.683
 30
3677.000
 70
    32
  0
VERTEX
  8
1550LEVEL
 62
7
 10
-91.256
 20
-1256.792
 30
3677.000
 70
    32
  0
VERTEX
  8
1550LEVEL
 62
7
 10
-97.360
 20
-1236.012
 30
3677.000
 70
    32
  0
VERTEX
  8
1550LEVEL
 62
7
 10
-98.580
 20
-1214.010
 30
3677.000
 70
    32
  0
VERTEX
  8
1550LEVEL
 62
7
 10
-102.242
 20
-1196.897
 30
3677.000
 70
    32
  0
VERTEX
  8
1550LEVEL
 62
7
 10
-107.125
 20
-1183.451
 30
3677.000
 70
    32
  0
VERTEX
  8
1550LEVEL
 62
7
 10
-125.435
 20
-1161.449
 30
3677.000
 70
    32
  0
VERTEX
  8
1550LEVEL
 62
7
 10
-137.642
 20
-1145.558
 30
3677.000
 70
    32
  0
VERTEX
  8
1550LEVEL
 62
7
 10
-155.952
 20
-1124.778
 30
3677.000
 70
    32
  0
VERTEX
  8
1550LEVEL
 62
7
 10
-168.159
 20
-1108.888
 30
3677.000
 70
    32
  0
VERTEX
  8
1550LEVEL
 62
7
 10
-180.365
 20
-1089.331
 30
3677.000
 70
    32
  0
VERTEX
  8
1550LEVEL
 62
7
 10
-197.455
 20
-1062.439
 30
3677.000
 70
    32
  0
VERTEX
  8
1550LEVEL
 62
7
 10
-199.896
 20
-1046.549
 30
3677.000
 70
    32
  0
VERTEX
  8
1550LEVEL
 62
7
 10
-199.896
 20
-1029.436
 30
3677.000
 70
    32
  0
VERTEX
  8
1550LEVEL
 62
7
 10
-202.338
 20
-1019.657
 30
3677.000
 70
    32
  0
VERTEX
  8
1550LEVEL
 62
7
 10
-209.662
 20
-1011.101
 30
3677.000
 70
    32
  0
VERTEX
  8
1550LEVEL
 62
7
 10
-216.986
 20
-1008.656
 30
3677.000
 70
    32
  0
VERTEX
  8
1550LEVEL
 62
7
 10
-234.075
 20
-1002.544
 30
3677.000
 70
    32
  0
VERTEX
  8
1550LEVEL
 62
7
 10
-243.841
 20
-998.877
 30
3677.000
 70
    32
  0
SEQEND
  8
1550LEVEL
  0
POLYLINE
  8
1550LEVEL
 62
7
 66
     1
 70
     9
  0
VERTEX
  8
1550LEVEL
 62
7
 10
-220.496
 20
-1227.829
 30
3677.000
 70
    32
  0
VERTEX
  8
1550LEVEL
 62
7
 10
-249.041
 20
-1170.886
 30
3677.000
 70
    32
  0
VERTEX
  8
1550LEVEL
 62
7
 10
-271.140
 20
-1130.969
 30
3677.000
 70
    32
  0
VERTEX
  8
1550LEVEL
 62
7
 10
-278.662
 20
-1077.533
 30
3677.000
 70
    32
  0
VERTEX
  8
1550LEVEL
 62
7
 10
-315.350
 20
-1026.799
 30
3677.000
 70
    32
  0
VERTEX
  8
1550LEVEL
 62
7
 10
-355.456
 20
-1012.735
 30
3677.000
 70
    32
  0
VERTEX
  8
1550LEVEL
 62
7
 10
-369.718
 20
-1002.850
 30
3677.000
 70
    32
  0
VERTEX
  8
1550LEVEL
 62
7
 10
-379.592
 20
-985.278
 30
3677.000
 70
    32
  0
VERTEX
  8
1550LEVEL
 62
7
 10
-392.757
 20
-971.000
 30
3677.000
 70
    32
  0
VERTEX
  8
1550LEVEL
 62
7
 10
-400.436
 20
-954.527
 30
3677.000
 70
    32
  0
VERTEX
  8
1550LEVEL
 62
7
 10
-405.919
 20
-940.336
 30
3677.000
 70
    32
  0
VERTEX
  8
1550LEVEL
 62
7
 10
-452.514
 20
-895.010
 30
3677.000
 70
    32
  0
VERTEX
  8
1550LEVEL
 62
7
 10
-464.066
 20
-879.844
 30
3677.000
 70
    32
  0
VERTEX
  8
1550LEVEL
 62
7
 10
-477.231
 20
-861.173
 30
3677.000
 70
    32
  0
VERTEX
  8
1550LEVEL
 62
7
 10
-493.687
 20
-828.225
 30
3677.000
 70
    32
  0
VERTEX
  8
1550LEVEL
 62
7
 10
-509.046
 20
-797.473
 30
3677.000
 70
    32
  0
VERTEX
  8
1550LEVEL
 62
7
 10
-514.531
 20
-778.803
 30
3677.000
 70
    32
  0
VERTEX
  8
1550LEVEL
 62
7
 10
-516.725
 20
-761.230
 30
3677.000
 70
    32
  0
VERTEX
  8
1550LEVEL
 62
7
 10
-522.211
 20
-746.953
 30
3677.000
 70
    32
  0
VERTEX
  8
1550LEVEL
 62
7
 10
-521.114
 20
-742.559
 30
3677.000
 70
    32
  0
VERTEX
  8
1550LEVEL
 62
7
 10
-517.822
 20
-740.363
 30
3677.000
 70
    32
  0
VERTEX
  8
1550LEVEL
 62
7
 10
-512.337
 20
-743.658
 30
3677.000
 70
    32
  0
VERTEX
  8
1550LEVEL
 62
7
 10
-506.852
 20
-753.542
 30
3677.000
 70
    32
  0
VERTEX
  8
1550LEVEL
 62
7
 10
-500.269
 20
-764.525
 30
3677.000
 70
    32
  0
VERTEX
  8
1550LEVEL
 62
7
 10
-491.493
 20
-782.097
 30
3677.000
 70
    32
  0
VERTEX
  8
1550LEVEL
 62
7
 10
-489.299
 20
-783.195
 30
3677.000
 70
    32
  0
VERTEX
  8
1550LEVEL
 62
7
 10
-444.493
 20
-846.873
 30
3677.000
 70
    32
  0
VERTEX
  8
1550LEVEL
 62
7
 10
-434.981
 20
-884.392
 30
3677.000
 70
    32
  0
VERTEX
  8
1550LEVEL
 62
7
 10
-426.766
 20
-888.630
 30
3677.000
 70
    32
  0
VERTEX
  8
1550LEVEL
 62
7
 10
-417.989
 20
-900.711
 30
3677.000
 70
    32
  0
VERTEX
  8
1550LEVEL
 62
7
 10
-413.601
 20
-901.809
 30
3677.000
 70
    32
  0
VERTEX
  8
1550LEVEL
 62
7
 10
-413.601
 20
-896.318
 30
3677.000
 70
    32
  0
VERTEX
  8
1550LEVEL
 62
7
 10
-414.748
 20
-893.599
 30
3677.000
 70
    32
  0
VERTEX
  8
1550LEVEL
 62
7
 10
-426.766
 20
-796.375
 30
3677.000
 70
    32
  0
VERTEX
  8
1550LEVEL
 62
7
 10
-456.386
 20
-754.641
 30
3677.000
 70
    32
  0
VERTEX
  8
1550LEVEL
 62
7
 10
-476.134
 20
-715.102
 30
3677.000
 70
    32
  0
VERTEX
  8
1550LEVEL
 62
7
 10
-504.658
 20
-672.270
 30
3677.000
 70
    32
  0
VERTEX
  8
1550LEVEL
 62
7
 10
-516.948
 20
-634.725
 30
3677.000
 70
    32
  0
VERTEX
  8
1550LEVEL
 62
7
 10
-510.907
 20
-625.085
 30
3677.000
 70
    32
  0
VERTEX
  8
1550LEVEL
 62
7
 10
-496.522
 20
-650.766
 30
3677.000
 70
    32
  0
VERTEX
  8
1550LEVEL
 62
7
 10
-453.095
 20
-697.530
 30
3677.000
 70
    32
  0
VERTEX
  8
1550LEVEL
 62
7
 10
-404.825
 20
-810.653
 30
3677.000
 70
    32
  0
VERTEX
  8
1550LEVEL
 62
7
 10
-394.951
 20
-841.404
 30
3677.000
 70
    32
  0
VERTEX
  8
1550LEVEL
 62
7
 10
-368.621
 20
-905.104
 30
3677.000
 70
    32
  0
VERTEX
  8
1550LEVEL
 62
7
 10
-359.845
 20
-914.988
 30
3677.000
 70
    32
  0
VERTEX
  8
1550LEVEL
 62
7
 10
-349.971
 20
-921.578
 30
3677.000
 70
    32
  0
VERTEX
  8
1550LEVEL
 62
7
 10
-337.903
 20
-929.266
 30
3677.000
 70
    32
  0
VERTEX
  8
1550LEVEL
 62
7
 10
-331.321
 20
-934.758
 30
3677.000
 70
    32
  0
VERTEX
  8
1550LEVEL
 62
7
 10
-319.253
 20
-951.232
 30
3677.000
 70
    32
  0
VERTEX
  8
1550LEVEL
 62
7
 10
-314.865
 20
-966.608
 30
3677.000
 70
    32
  0
VERTEX
  8
1550LEVEL
 62
7
 10
-312.670
 20
-977.590
 30
3677.000
 70
    32
  0
VERTEX
  8
1550LEVEL
 62
7
 10
-284.147
 20
-1005.047
 30
3677.000
 70
    32
  0
VERTEX
  8
1550LEVEL
 62
7
 10
-245.750
 20
-1048.978
 30
3677.000
 70
    32
  0
VERTEX
  8
1550LEVEL
 62
7
 10
-178.535
 20
-1120.483
 30
3677.000
 70
    32
  0
VERTEX
  8
1550LEVEL
 62
7
 10
-151.664
 20
-1166.257
 30
3677.000
 70
    32
  0
VERTEX
  8
1550LEVEL
 62
7
 10
-144.966
 20
-1183.451
 30
3677.000
 70
    32
  0
VERTEX
  8
1550LEVEL
 62
7
 10
-148.628
 20
-1193.229
 30
3677.000
 70
    32
  0
VERTEX
  8
1550LEVEL
 62
7
 10
-147.407
 20
-1207.898
 30
3677.000
 70
    32
  0
VERTEX
  8
1550LEVEL
 62
7
 10
-140.083
 20
-1227.455
 30
3677.000
 70
    32
  0
VERTEX
  8
1550LEVEL
 62
7
 10
-127.877
 20
-1256.792
 30
3677.000
 70
    32
  0
VERTEX
  8
1550LEVEL
 62
7
 10
-115.670
 20
-1280.016
 30
3677.000
 70
    32
  0
VERTEX
  8
1550LEVEL
 62
7
 10
-108.346
 20
-1305.685
 30
3677.000
 70
    32
  0
VERTEX
  8
1550LEVEL
 62
7
 10
-99.801
 20
-1330.132
 30
3677.000
 70
    32
  0
VERTEX
  8
1550LEVEL
 62
7
 10
-92.477
 20
-1355.801
 30
3677.000
 70
    32
  0
VERTEX
  8
1550LEVEL
 62
7
 10
-75.387
 20
-1396.138
 30
3677.000
 70
    32
  0
VERTEX
  8
1550LEVEL
 62
7
 10
-52.195
 20
-1419.363
 30
3677.000
 70
    32
  0
VERTEX
  8
1550LEVEL
 62
7
 10
-41.209
 20
-1440.143
 30
3677.000
 70
    32
  0
VERTEX
  8
1550LEVEL
 62
7
 10
-33.884
 20
-1453.589
 30
3677.000
 70
    32
  0
VERTEX
  8
1550LEVEL
 62
7
 10
-31.443
 20
-1469.479
 30
3677.000
 70
    32
  0
VERTEX
  8
1550LEVEL
 62
7
 10
-31.443
 20
-1487.814
 30
3677.000
 70
    32
  0
VERTEX
  8
1550LEVEL
 62
7
 10
-33.884
 20
-1501.260
 30
3677.000
 70
    32
  0
VERTEX
  8
1550LEVEL
 62
7
 10
-41.209
 20
-1508.594
 30
3677.000
 70
    32
  0
VERTEX
  8
1550LEVEL
 62
7
 10
-47.312
 20
-1517.150
 30
3677.000
 70
    32
  0
VERTEX
  8
1550LEVEL
 62
7
 10
-52.195
 20
-1520.817
 30
3677.000
 70
    32
  0
VERTEX
  8
1550LEVEL
 62
7
 10
-61.960
 20
-1520.817
 30
3677.000
 70
    32
  0
VERTEX
  8
1550LEVEL
 62
7
 10
-71.725
 20
-1508.594
 30
3677.000
 70
    32
  0
VERTEX
  8
1550LEVEL
 62
7
 10
-80.270
 20
-1493.926
 30
3677.000
 70
    32
  0
VERTEX
  8
1550LEVEL
 62
7
 10
-90.036
 20
-1480.480
 30
3677.000
 70
    32
  0
VERTEX
  8
1550LEVEL
 62
7
 10
-104.684
 20
-1452.366
 30
3677.000
 70
    32
  0
VERTEX
  8
1550LEVEL
 62
7
 10
-113.229
 20
-1436.476
 30
3677.000
 70
    32
  0
VERTEX
  8
1550LEVEL
 62
7
 10
-124.215
 20
-1415.696
 30
3677.000
 70
    32
  0
VERTEX
  8
1550LEVEL
 62
7
 10
-142.525
 20
-1390.027
 30
3677.000
 70
    32
  0
VERTEX
  8
1550LEVEL
 62
7
 10
-148.628
 20
-1374.137
 30
3677.000
 70
    32
  0
VERTEX
  8
1550LEVEL
 62
7
 10
-163.276
 20
-1352.134
 30
3677.000
 70
    32
  0
VERTEX
  8
1550LEVEL
 62
7
 10
-171.821
 20
-1322.798
 30
3677.000
 70
    32
  0
VERTEX
  8
1550LEVEL
 62
7
 10
-175.483
 20
-1303.240
 30
3677.000
 70
    32
  0
VERTEX
  8
1550LEVEL
 62
7
 10
-179.145
 20
-1295.907
 30
3677.000
 70
    32
  0
VERTEX
  8
1550LEVEL
 62
7
 10
-190.131
 20
-1283.683
 30
3677.000
 70
    32
  0
VERTEX
  8
1550LEVEL
 62
7
 10
-199.896
 20
-1266.570
 30
3677.000
 70
    32
  0
VERTEX
  8
1550LEVEL
 62
7
 10
-216.986
 20
-1243.346
 30
3677.000
 70
    32
  0
VERTEX
  8
1550LEVEL
 62
7
 10
-218.207
 20
-1234.789
 30
3677.000
 70
    32
  0
SEQEND
  8
1550LEVEL
  0
POLYLINE
  8
1550LEVEL
 62
7
 66
     1
 70
     8
  0
VERTEX
  8
1550LEVEL
 62
7
 10
-237.638
 20
-1586.515
 30
3677.000
 70
    32
  0
VERTEX
  8
1550LEVEL
 62
7
 10
-253.328
 20
-1581.277
 30
3677.000
 70
    32
  0
VERTEX
  8
1550LEVEL
 62
7
 10
-272.287
 20
-1574.075
 30
3677.000
 70
    32
  0
VERTEX
  8
1550LEVEL
 62
7
 10
-282.748
 20
-1566.219
 30
3677.000
 70
    32
  0
VERTEX
  8
1550LEVEL
 62
7
 10
-292.554
 20
-1557.708
 30
3677.000
 70
    32
  0
VERTEX
  8
1550LEVEL
 62
7
 10
-307.591
 20
-1543.959
 30
3677.000
 70
    32
  0
VERTEX
  8
1550LEVEL
 62
7
 10
-318.704
 20
-1523.009
 30
3677.000
 70
    32
  0
VERTEX
  8
1550LEVEL
 62
7
 10
-321.974
 20
-1506.641
 30
3677.000
 70
    32
  0
VERTEX
  8
1550LEVEL
 62
7
 10
-324.589
 20
-1490.928
 30
3677.000
 70
    32
  0
VERTEX
  8
1550LEVEL
 62
7
 10
-328.511
 20
-1472.597
 30
3677.000
 70
    32
  0
VERTEX
  8
1550LEVEL
 62
7
 10
-329.165
 20
-1468.014
 30
3677.000
 70
    32
  0
VERTEX
  8
1550LEVEL
 62
7
 10
-325.242
 20
-1454.266
 30
3677.000
 70
    32
  0
VERTEX
  8
1550LEVEL
 62
7
 10
-323.281
 20
-1432.661
 30
3677.000
 70
    32
  0
VERTEX
  8
1550LEVEL
 62
7
 10
-323.281
 20
-1426.113
 30
3677.000
 70
    32
  0
VERTEX
  8
1550LEVEL
 62
7
 10
-322.627
 20
-1418.257
 30
3677.000
 70
    32
  0
VERTEX
  8
1550LEVEL
 62
7
 10
-322.627
 20
-1409.746
 30
3677.000
 70
    32
  0
VERTEX
  8
1550LEVEL
 62
7
 10
-324.589
 20
-1403.854
 30
3677.000
 70
    32
  0
VERTEX
  8
1550LEVEL
 62
7
 10
-325.242
 20
-1401.235
 30
3677.000
 70
    32
  0
VERTEX
  8
1550LEVEL
 62
7
 10
-325.896
 20
-1398.616
 30
3677.000
 70
    32
  0
VERTEX
  8
1550LEVEL
 62
7
 10
-329.819
 20
-1392.724
 30
3677.000
 70
    32
  0
VERTEX
  8
1550LEVEL
 62
7
 10
-340.279
 20
-1382.249
 30
3677.000
 70
    32
  0
VERTEX
  8
1550LEVEL
 62
7
 10
-346.163
 20
-1371.119
 30
3677.000
 70
    32
  0
VERTEX
  8
1550LEVEL
 62
7
 10
-353.354
 20
-1361.298
 30
3677.000
 70
    32
  0
VERTEX
  8
1550LEVEL
 62
7
 10
-355.315
 20
-1354.751
 30
3677.000
 70
    32
  0
VERTEX
  8
1550LEVEL
 62
7
 10
-355.969
 20
-1342.967
 30
3677.000
 70
    32
  0
VERTEX
  8
1550LEVEL
 62
7
 10
-355.969
 20
-1331.837
 30
3677.000
 70
    32
  0
VERTEX
  8
1550LEVEL
 62
7
 10
-358.584
 20
-1320.707
 30
3677.000
 70
    32
  0
VERTEX
  8
1550LEVEL
 62
7
 10
-361.200
 20
-1314.160
 30
3677.000
 70
    32
  0
VERTEX
  8
1550LEVEL
 62
7
 10
-363.815
 20
-1312.196
 30
3677.000
 70
    32
  0
VERTEX
  8
1550LEVEL
 62
7
 10
-363.815
 20
-1312.196
 30
3677.000
 70
    32
  0
VERTEX
  8
1550LEVEL
 62
7
 10
-363.161
 20
-1314.160
 30
3677.000
 70
    32
  0
VERTEX
  8
1550LEVEL
 62
7
 10
-365.122
 20
-1312.196
 30
3677.000
 70
    32
  0
VERTEX
  8
1550LEVEL
 62
7
 10
-374.928
 20
-1306.958
 30
3677.000
 70
    32
  0
VERTEX
  8
1550LEVEL
 62
7
 10
-378.197
 20
-1304.994
 30
3677.000
 70
    32
  0
VERTEX
  8
1550LEVEL
 62
7
 10
-386.042
 20
-1300.411
 30
3677.000
 70
    32
  0
VERTEX
  8
1550LEVEL
 62
7
 10
-396.503
 20
-1295.828
 30
3677.000
 70
    32
  0
VERTEX
  8
1550LEVEL
 62
7
 10
-399.118
 20
-1292.555
 30
3677.000
 70
    32
  0
VERTEX
  8
1550LEVEL
 62
7
 10
-405.002
 20
-1284.044
 30
3677.000
 70
    32
  0
VERTEX
  8
1550LEVEL
 62
7
 10
-408.271
 20
-1277.497
 30
3677.000
 70
    32
  0
VERTEX
  8
1550LEVEL
 62
7
 10
-416.116
 20
-1221.847
 30
3677.000
 70
    32
  0
VERTEX
  8
1550LEVEL
 62
7
 10
-415.795
 20
-1173.083
 30
3677.000
 70
    32
  0
VERTEX
  8
1550LEVEL
 62
7
 10
-450.800
 20
-1142.224
 30
3677.000
 70
    32
  0
VERTEX
  8
1550LEVEL
 62
7
 10
-481.619
 20
-1103.892
 30
3677.000
 70
    32
  0
VERTEX
  8
1550LEVEL
 62
7
 10
-534.015
 20
-1026.419
 30
3677.000
 70
    32
  0
VERTEX
  8
1550LEVEL
 62
7
 10
-575.099
 20
-979.686
 30
3677.000
 70
    32
  0
VERTEX
  8
1550LEVEL
 62
7
 10
-617.656
 20
-875.451
 30
3677.000
 70
    32
  0
VERTEX
  8
1550LEVEL
 62
7
 10
-613.267
 20
-809.554
 30
3677.000
 70
    32
  0
VERTEX
  8
1550LEVEL
 62
7
 10
-661.538
 20
-779.901
 30
3677.000
 70
    32
  0
VERTEX
  8
1550LEVEL
 62
7
 10
-687.868
 20
-735.970
 30
3677.000
 70
    32
  0
VERTEX
  8
1550LEVEL
 62
7
 10
-699.936
 20
-684.351
 30
3677.000
 70
    32
  0
VERTEX
  8
1550LEVEL
 62
7
 10
-745.352
 20
-646.684
 30
3677.000
 70
    32
  0
VERTEX
  8
1550LEVEL
 62
7
 10
-786.666
 20
-601.427
 30
3677.000
 70
    32
  0
VERTEX
  8
1550LEVEL
 62
7
 10
-807.451
 20
-575.622
 30
3677.000
 70
    32
  0
VERTEX
  8
1550LEVEL
 62
7
 10
-842.557
 20
-485.564
 30
3677.000
 70
    32
  0
VERTEX
  8
1550LEVEL
 62
7
 10
-856.819
 20
-435.043
 30
3677.000
 70
    32
  0
VERTEX
  8
1550LEVEL
 62
7
 10
-860.110
 20
-427.356
 30
3677.000
 70
    32
  0
VERTEX
  8
1550LEVEL
 62
7
 10
-855.722
 20
-419.667
 30
3677.000
 70
    32
  0
VERTEX
  8
1550LEVEL
 62
7
 10
-851.334
 20
-411.980
 30
3677.000
 70
    32
  0
VERTEX
  8
1550LEVEL
 62
7
 10
-848.042
 20
-406.488
 30
3677.000
 70
    32
  0
VERTEX
  8
1550LEVEL
 62
7
 10
-846.945
 20
-399.898
 30
3677.000
 70
    32
  0
VERTEX
  8
1550LEVEL
 62
7
 10
-845.653
 20
-393.398
 30
3677.000
 70
    32
  0
VERTEX
  8
1550LEVEL
 62
7
 10
-869.390
 20
-317.876
 30
3677.000
 70
    32
  0
VERTEX
  8
1550LEVEL
 62
7
 10
-887.537
 20
-268.106
 30
3677.000
 70
    32
  0
VERTEX
  8
1550LEVEL
 62
7
 10
-899.605
 20
-216.487
 30
3677.000
 70
    32
  0
VERTEX
  8
1550LEVEL
 62
7
 10
-907.284
 20
-203.307
 30
3677.000
 70
    32
  0
VERTEX
  8
1550LEVEL
 62
7
 10
-918.255
 20
-192.325
 30
3677.000
 70
    32
  0
VERTEX
  8
1550LEVEL
 62
7
 10
-925.934
 20
-183.539
 30
3677.000
 70
    32
  0
VERTEX
  8
1550LEVEL
 62
7
 10
-932.517
 20
-173.654
 30
3677.000
 70
    32
  0
VERTEX
  8
1550LEVEL
 62
7
 10
-938.002
 20
-168.163
 30
3677.000
 70
    32
  0
VERTEX
  8
1550LEVEL
 62
7
 10
-943.488
 20
-165.966
 30
3677.000
 70
    32
  0
VERTEX
  8
1550LEVEL
 62
7
 10
-954.458
 20
-161.573
 30
3677.000
 70
    32
  0
VERTEX
  8
1550LEVEL
 62
7
 10
-961.041
 20
-157.180
 30
3677.000
 70
    32
  0
VERTEX
  8
1550LEVEL
 62
7
 10
-965.429
 20
-151.688
 30
3677.000
 70
    32
  0
VERTEX
  8
1550LEVEL
 62
7
 10
-972.011
 20
-146.197
 30
3677.000
 70
    32
  0
VERTEX
  8
1550LEVEL
 62
7
 10
-977.665
 20
-109.206
 30
3677.000
 70
    32
  0
VERTEX
  8
1550LEVEL
 62
7
 10
-977.497
 20
-85.792
 30
3677.000
 70
    32
  0
VERTEX
  8
1550LEVEL
 62
7
 10
-987.370
 20
-74.809
 30
3677.000
 70
    32
  0
VERTEX
  8
1550LEVEL
 62
7
 10
-995.050
 20
-58.335
 30
3677.000
 70
    32
  0
VERTEX
  8
1550LEVEL
 62
7
 10
-996.147
 20
-52.844
 30
3677.000
 70
    32
  0
VERTEX
  8
1550LEVEL
 62
7
 10
-999.438
 20
-42.959
 30
3677.000
 70
    32
  0
VERTEX
  8
1550LEVEL
 62
7
 10
-997.244
 20
-40.763
 30
3677.000
 70
    32
  0
VERTEX
  8
1550LEVEL
 62
7
 10
-992.856
 20
-44.057
 30
3677.000
 70
    32
  0
VERTEX
  8
1550LEVEL
 62
7
 10
-984.079
 20
-55.040
 30
3677.000
 70
    32
  0
VERTEX
  8
1550LEVEL
 62
7
 10
-974.205
 20
-66.023
 30
3677.000
 70
    32
  0
VERTEX
  8
1550LEVEL
 62
7
 10
-968.720
 20
-81.399
 30
3677.000
 70
    32
  0
VERTEX
  8
1550LEVEL
 62
7
 10
-945.682
 20
-126.428
 30
3677.000
 70
    32
  0
VERTEX
  8
1550LEVEL
 62
7
 10
-921.546
 20
-168.163
 30
3677.000
 70
    32
  0
VERTEX
  8
1550LEVEL
 62
7
 10
-878.761
 20
-203.307
 30
3677.000
 70
    32
  0
VERTEX
  8
1550LEVEL
 62
7
 10
-871.081
 20
-221.978
 30
3677.000
 70
    32
  0
VERTEX
  8
1550LEVEL
 62
7
 10
-866.693
 20
-236.256
 30
3677.000
 70
    32
  0
VERTEX
  8
1550LEVEL
 62
7
 10
-864.498
 20
-247.238
 30
3677.000
 70
    32
  0
VERTEX
  8
1550LEVEL
 62
7
 10
-860.110
 20
-254.926
 30
3677.000
 70
    32
  0
VERTEX
  8
1550LEVEL
 62
7
 10
-853.528
 20
-272.499
 30
3677.000
 70
    32
  0
VERTEX
  8
1550LEVEL
 62
7
 10
-850.237
 20
-286.776
 30
3677.000
 70
    32
  0
VERTEX
  8
1550LEVEL
 62
7
 10
-843.654
 20
-296.661
 30
3677.000
 70
    32
  0
VERTEX
  8
1550LEVEL
 62
7
 10
-839.273
 20
-308.971
 30
3677.000
 70
    32
  0
VERTEX
  8
1550LEVEL
 62
7
 10
-827.958
 20
-386.586
 30
3677.000
 70
    32
  0
VERTEX
  8
1550LEVEL
 62
7
 10
-808.548
 20
-457.009
 30
3677.000
 70
    32
  0
VERTEX
  8
1550LEVEL
 62
7
 10
-766.102
 20
-531.058
 30
3677.000
 70
    32
  0
VERTEX
  8
1550LEVEL
 62
7
 10
-729.467
 20
-594.988
 30
3677.000
 70
    32
  0
VERTEX
  8
1550LEVEL
 62
7
 10
-707.410
 20
-626.402
 30
3677.000
 70
    32
  0
VERTEX
  8
1550LEVEL
 62
7
 10
-670.315
 20
-667.877
 30
3677.000
 70
    32
  0
VERTEX
  8
1550LEVEL
 62
7
 10
-592.423
 20
-734.872
 30
3677.000
 70
    32
  0
VERTEX
  8
1550LEVEL
 62
7
 10
-548.541
 20
-798.572
 30
3677.000
 70
    32
  0
VERTEX
  8
1550LEVEL
 62
7
 10
-507.949
 20
-857.878
 30
3677.000
 70
    32
  0
VERTEX
  8
1550LEVEL
 62
7
 10
-462.164
 20
-943.900
 30
3677.000
 70
    32
  0
VERTEX
  8
1550LEVEL
 62
7
 10
-389.465
 20
-1036.897
 30
3677.000
 70
    32
  0
VERTEX
  8
1550LEVEL
 62
7
 10
-375.366
 20
-1065.808
 30
3677.000
 70
    32
  0
VERTEX
  8
1550LEVEL
 62
7
 10
-336.434
 20
-1126.317
 30
3677.000
 70
    32
  0
VERTEX
  8
1550LEVEL
 62
7
 10
-332.950
 20
-1137.002
 30
3677.000
 70
    32
  0
VERTEX
  8
1550LEVEL
 62
7
 10
-329.288
 20
-1148.003
 30
3677.000
 70
    32
  0
VERTEX
  8
1550LEVEL
 62
7
 10
-320.743
 20
-1157.782
 30
3677.000
 70
    32
  0
VERTEX
  8
1550LEVEL
 62
7
 10
-310.978
 20
-1151.670
 30
3677.000
 70
    32
  0
VERTEX
  8
1550LEVEL
 62
7
 10
-312.198
 20
-1144.336
 30
3677.000
 70
    32
  0
VERTEX
  8
1550LEVEL
 62
7
 10
-323.036
 20
-1119.590
 30
3677.000
 70
    32
  0
VERTEX
  8
1550LEVEL
 62
7
 10
-383.980
 20
-1030.307
 30
3677.000
 70
    32
  0
VERTEX
  8
1550LEVEL
 62
7
 10
-415.316
 20
-985.990
 30
3677.000
 70
    32
  0
VERTEX
  8
1550LEVEL
 62
7
 10
-453.819
 20
-919.501
 30
3677.000
 70
    32
  0
VERTEX
  8
1550LEVEL
 62
7
 10
-486.833
 20
-853.365
 30
3677.000
 70
    32
  0
VERTEX
  8
1550LEVEL
 62
7
 10
-516.287
 20
-795.092
 30
3677.000
 70
    32
  0
VERTEX
  8
1550LEVEL
 62
7
 10
-530.628
 20
-749.763
 30
3677.000
 70
    32
  0
VERTEX
  8
1550LEVEL
 62
7
 10
-535.232
 20
-675.968
 30
3677.000
 70
    32
  0
VERTEX
  8
1550LEVEL
 62
7
 10
-527.811
 20
-625.217
 30
3677.000
 70
    32
  0
VERTEX
  8
1550LEVEL
 62
7
 10
-530.987
 20
-603.079
 30
3677.000
 70
    32
  0
VERTEX
  8
1550LEVEL
 62
7
 10
-541.370
 20
-552.292
 30
3677.000
 70
    32
  0
VERTEX
  8
1550LEVEL
 62
7
 10
-553.695
 20
-519.877
 30
3677.000
 70
    32
  0
VERTEX
  8
1550LEVEL
 62
7
 10
-581.595
 20
-477.470
 30
3677.000
 70
    32
  0
VERTEX
  8
1550LEVEL
 62
7
 10
-615.237
 20
-437.946
 30
3677.000
 70
    32
  0
VERTEX
  8
1550LEVEL
 62
7
 10
-611.174
 20
-407.082
 30
3677.000
 70
    32
  0
VERTEX
  8
1550LEVEL
 62
7
 10
-613.267
 20
-374.637
 30
3677.000
 70
    32
  0
VERTEX
  8
1550LEVEL
 62
7
 10
-631.918
 20
-331.805
 30
3677.000
 70
    32
  0
VERTEX
  8
1550LEVEL
 62
7
 10
-638.500
 20
-273.596
 30
3677.000
 70
    32
  0
VERTEX
  8
1550LEVEL
 62
7
 10
-651.892
 20
-240.208
 30
3677.000
 70
    32
  0
VERTEX
  8
1550LEVEL
 62
7
 10
-689.271
 20
-195.566
 30
3677.000
 70
    32
  0
VERTEX
  8
1550LEVEL
 62
7
 10
-709.538
 20
-151.075
 30
3677.000
 70
    32
  0
VERTEX
  8
1550LEVEL
 62
7
 10
-682.492
 20
-177.977
 30
3677.000
 70
    32
  0
VERTEX
  8
1550LEVEL
 62
7
 10
-640.255
 20
-233.458
 30
3677.000
 70
    32
  0
VERTEX
  8
1550LEVEL
 62
7
 10
-608.180
 20
-279.793
 30
3677.000
 70
    32
  0
VERTEX
  8
1550LEVEL
 62
7
 10
-608.879
 20
-314.232
 30
3677.000
 70
    32
  0
VERTEX
  8
1550LEVEL
 62
7
 10
-601.200
 20
-368.048
 30
3677.000
 70
    32
  0
VERTEX
  8
1550LEVEL
 62
7
 10
-592.534
 20
-392.606
 30
3677.000
 70
    32
  0
VERTEX
  8
1550LEVEL
 62
7
 10
-592.423
 20
-421.863
 30
3677.000
 70
    32
  0
VERTEX
  8
1550LEVEL
 62
7
 10
-550.847
 20
-474.208
 30
3677.000
 70
    32
  0
VERTEX
  8
1550LEVEL
 62
7
 10
-512.337
 20
-549.263
 30
3677.000
 70
    32
  0
VERTEX
  8
1550LEVEL
 62
7
 10
-507.075
 20
-579.570
 30
3677.000
 70
    32
  0
VERTEX
  8
1550LEVEL
 62
7
 10
-503.705
 20
-612.854
 30
3677.000
 70
    32
  0
VERTEX
  8
1550LEVEL
 62
7
 10
-488.299
 20
-630.379
 30
3677.000
 70
    32
  0
VERTEX
  8
1550LEVEL
 62
7
 10
-448.707
 20
-692.039
 30
3677.000
 70
    32
  0
VERTEX
  8
1550LEVEL
 62
7
 10
-416.892
 20
-728.282
 30
3677.000
 70
    32
  0
VERTEX
  8
1550LEVEL
 62
7
 10
-407.311
 20
-760.452
 30
3677.000
 70
    32
  0
VERTEX
  8
1550LEVEL
 62
7
 10
-385.077
 20
-794.178
 30
3677.000
 70
    32
  0
VERTEX
  8
1550LEVEL
 62
7
 10
-387.651
 20
-813.667
 30
3677.000
 70
    32
  0
VERTEX
  8
1550LEVEL
 62
7
 10
-370.815
 20
-847.994
 30
3677.000
 70
    32
  0
VERTEX
  8
1550LEVEL
 62
7
 10
-332.435
 20
-889.318
 30
3677.000
 70
    32
  0
VERTEX
  8
1550LEVEL
 62
7
 10
-309.883
 20
-953.064
 30
3677.000
 70
    32
  0
VERTEX
  8
1550LEVEL
 62
7
 10
-277.972
 20
-979.466
 30
3677.000
 70
    32
  0
VERTEX
  8
1550LEVEL
 62
7
 10
-253.429
 20
-996.261
 30
3677.000
 70
    32
  0
SEQEND
  8
1550LEVEL
  0
POLYLINE
  8
1550LEVEL
 62
7
 66
     1
 70
     8
  0
VERTEX
  8
1550LEVEL
 62
7
 10
-210.180
 20
-1441.171
 30
3677.000
 70
    32
  0
VERTEX
  8
1550LEVEL
 62
7
 10
-219.986
 20
-1430.696
 30
3677.000
 70
    32
  0
VERTEX
  8
1550LEVEL
 62
7
 10
-235.023
 20
-1413.019
 30
3677.000
 70
    32
  0
VERTEX
  8
1550LEVEL
 62
7
 10
-246.137
 20
-1388.796
 30
3677.000
 70
    32
  0
VERTEX
  8
1550LEVEL
 62
7
 10
-257.904
 20
-1368.500
 30
3677.000
 70
    32
  0
VERTEX
  8
1550LEVEL
 62
7
 10
-268.365
 20
-1349.514
 30
3677.000
 70
    32
  0
VERTEX
  8
1550LEVEL
 62
7
 10
-277.518
 20
-1337.729
 30
3677.000
 70
    32
  0
VERTEX
  8
1550LEVEL
 62
7
 10
-282.748
 20
-1330.528
 30
3677.000
 70
    32
  0
VERTEX
  8
1550LEVEL
 62
7
 10
-290.593
 20
-1322.671
 30
3677.000
 70
    32
  0
VERTEX
  8
1550LEVEL
 62
7
 10
-293.208
 20
-1310.887
 30
3677.000
 70
    32
  0
VERTEX
  8
1550LEVEL
 62
7
 10
-291.900
 20
-1290.591
 30
3677.000
 70
    32
  0
VERTEX
  8
1550LEVEL
 62
7
 10
-291.247
 20
-1279.461
 30
3677.000
 70
    32
  0
VERTEX
  8
1550LEVEL
 62
7
 10
-293.862
 20
-1263.748
 30
3677.000
 70
    32
  0
VERTEX
  8
1550LEVEL
 62
7
 10
-299.745
 20
-1256.547
 30
3677.000
 70
    32
  0
VERTEX
  8
1550LEVEL
 62
7
 10
-311.513
 20
-1253.273
 30
3677.000
 70
    32
  0
VERTEX
  8
1550LEVEL
 62
7
 10
-320.666
 20
-1250.000
 30
3677.000
 70
    32
  0
VERTEX
  8
1550LEVEL
 62
7
 10
-333.088
 20
-1246.071
 30
3677.000
 70
    32
  0
VERTEX
  8
1550LEVEL
 62
7
 10
-343.548
 20
-1242.798
 30
3677.000
 70
    32
  0
VERTEX
  8
1550LEVEL
 62
7
 10
-348.778
 20
-1240.179
 30
3677.000
 70
    32
  0
VERTEX
  8
1550LEVEL
 62
7
 10
-351.393
 20
-1236.251
 30
3677.000
 70
    32
  0
VERTEX
  8
1550LEVEL
 62
7
 10
-353.354
 20
-1229.704
 30
3677.000
 70
    32
  0
VERTEX
  8
1550LEVEL
 62
7
 10
-355.969
 20
-1227.085
 30
3677.000
 70
    32
  0
VERTEX
  8
1550LEVEL
 62
7
 10
-353.354
 20
-1219.229
 30
3677.000
 70
    32
  0
VERTEX
  8
1550LEVEL
 62
7
 10
-350.085
 20
-1208.099
 30
3677.000
 70
    32
  0
VERTEX
  8
1550LEVEL
 62
7
 10
-346.163
 20
-1206.135
 30
3677.000
 70
    32
  0
VERTEX
  8
1550LEVEL
 62
7
 10
-338.971
 20
-1202.861
 30
3677.000
 70
    32
  0
VERTEX
  8
1550LEVEL
 62
7
 10
-330.472
 20
-1203.516
 30
3677.000
 70
    32
  0
VERTEX
  8
1550LEVEL
 62
7
 10
-323.281
 20
-1206.790
 30
3677.000
 70
    32
  0
VERTEX
  8
1550LEVEL
 62
7
 10
-313.474
 20
-1212.027
 30
3677.000
 70
    32
  0
VERTEX
  8
1550LEVEL
 62
7
 10
-300.399
 20
-1226.430
 30
3677.000
 70
    32
  0
VERTEX
  8
1550LEVEL
 62
7
 10
-292.554
 20
-1234.942
 30
3677.000
 70
    32
  0
VERTEX
  8
1550LEVEL
 62
7
 10
-284.055
 20
-1244.107
 30
3677.000
 70
    32
  0
VERTEX
  8
1550LEVEL
 62
7
 10
-277.518
 20
-1254.583
 30
3677.000
 70
    32
  0
VERTEX
  8
1550LEVEL
 62
7
 10
-269.672
 20
-1274.223
 30
3677.000
 70
    32
  0
VERTEX
  8
1550LEVEL
 62
7
 10
-261.173
 20
-1291.900
 30
3677.000
 70
    32
  0
VERTEX
  8
1550LEVEL
 62
7
 10
-253.982
 20
-1304.994
 30
3677.000
 70
    32
  0
VERTEX
  8
1550LEVEL
 62
7
 10
-238.945
 20
-1330.528
 30
3677.000
 70
    32
  0
VERTEX
  8
1550LEVEL
 62
7
 10
-226.524
 20
-1352.133
 30
3677.000
 70
    32
  0
VERTEX
  8
1550LEVEL
 62
7
 10
-214.102
 20
-1372.428
 30
3677.000
 70
    32
  0
VERTEX
  8
1550LEVEL
 62
7
 10
-201.027
 20
-1399.925
 30
3677.000
 70
    32
  0
VERTEX
  8
1550LEVEL
 62
7
 10
-190.567
 20
-1425.459
 30
3677.000
 70
    32
  0
VERTEX
  8
1550LEVEL
 62
7
 10
-184.683
 20
-1432.661
 30
3677.000
 70
    32
  0
VERTEX
  8
1550LEVEL
 62
7
 10
-176.184
 20
-1441.826
 30
3677.000
 70
    32
  0
VERTEX
  8
1550LEVEL
 62
7
 10
-169.646
 20
-1447.064
 30
3677.000
 70
    32
  0
VERTEX
  8
1550LEVEL
 62
7
 10
-158.532
 20
-1452.301
 30
3677.000
 70
    32
  0
VERTEX
  8
1550LEVEL
 62
7
 10
-154.609
 20
-1456.230
 30
3677.000
 70
    32
  0
VERTEX
  8
1550LEVEL
 62
7
 10
-154.609
 20
-1460.812
 30
3677.000
 70
    32
  0
VERTEX
  8
1550LEVEL
 62
7
 10
-155.917
 20
-1463.431
 30
3677.000
 70
    32
  0
VERTEX
  8
1550LEVEL
 62
7
 10
-162.455
 20
-1462.777
 30
3677.000
 70
    32
  0
VERTEX
  8
1550LEVEL
 62
7
 10
-180.760
 20
-1455.575
 30
3677.000
 70
    32
  0
VERTEX
  8
1550LEVEL
 62
7
 10
-191.874
 20
-1450.992
 30
3677.000
 70
    32
  0
VERTEX
  8
1550LEVEL
 62
7
 10
-199.719
 20
-1445.754
 30
3677.000
 70
    32
  0
VERTEX
  8
1550LEVEL
 62
7
 10
-204.296
 20
-1443.790
 30
3677.000
 70
    32
  0
VERTEX
  8
1550LEVEL
 62
7
 10
-204.950
 20
-1444.445
 30
3677.000
 70
    32
  0
VERTEX
  8
1550LEVEL
 62
7
 10
-204.296
 20
-1444.445
 30
3677.000
 70
    32
  0
VERTEX
  8
1550LEVEL
 62
7
 10
-204.296
 20
-1444.445
 30
3677.000
 70
    32
  0
SEQEND
  8
1550LEVEL
  0
POLYLINE
  8
1550LEVEL
 62
13
 66
     1
 70
     8
  0
VERTEX
  8
1550LEVEL
 62
13
 10
-356.305
 20
-1452.057
 30
3677.000
 70
    32
  0
VERTEX
  8
1550LEVEL
 62
13
 10
-398.333
 20
-1337.140
 30
3677.000
 70
    32
  0
VERTEX
  8
1550LEVEL
 62
13
 10
-441.832
 20
-1270.374
 30
3677.000
 70
    32
  0
VERTEX
  8
1550LEVEL
 62
13
 10
-476.181
 20
-1215.873
 30
3677.000
 70
    32
  0
VERTEX
  8
1550LEVEL
 62
13
 10
-490.065
 20
-1211.345
 30
3677.000
 70
    32
  0
VERTEX
  8
1550LEVEL
 62
13
 10
-502.058
 20
-1199.336
 30
3677.000
 70
    32
  0
VERTEX
  8
1550LEVEL
 62
13
 10
-513.302
 20
-1192.581
 30
3677.000
 70
    32
  0
VERTEX
  8
1550LEVEL
 62
13
 10
-522.297
 20
-1182.823
 30
3677.000
 70
    32
  0
VERTEX
  8
1550LEVEL
 62
13
 10
-526.794
 20
-1178.320
 30
3677.000
 70
    32
  0
VERTEX
  8
1550LEVEL
 62
13
 10
-538.038
 20
-1158.805
 30
3677.000
 70
    32
  0
VERTEX
  8
1550LEVEL
 62
13
 10
-544.035
 20
-1149.047
 30
3677.000
 70
    32
  0
VERTEX
  8
1550LEVEL
 62
13
 10
-555.279
 20
-1139.290
 30
3677.000
 70
    32
  0
VERTEX
  8
1550LEVEL
 62
13
 10
-562.686
 20
-1124.501
 30
3677.000
 70
    32
  0
VERTEX
  8
1550LEVEL
 62
13
 10
-574.768
 20
-1111.519
 30
3677.000
 70
    32
  0
VERTEX
  8
1550LEVEL
 62
13
 10
-579.265
 20
-1100.260
 30
3677.000
 70
    32
  0
VERTEX
  8
1550LEVEL
 62
13
 10
-584.512
 20
-1095.757
 30
3677.000
 70
    32
  0
VERTEX
  8
1550LEVEL
 62
13
 10
-595.006
 20
-1081.496
 30
3677.000
 70
    32
  0
VERTEX
  8
1550LEVEL
 62
13
 10
-601.753
 20
-1067.986
 30
3677.000
 70
    32
  0
VERTEX
  8
1550LEVEL
 62
13
 10
-606.250
 20
-1058.979
 30
3677.000
 70
    32
  0
VERTEX
  8
1550LEVEL
 62
13
 10
-609.249
 20
-1053.725
 30
3677.000
 70
    32
  0
VERTEX
  8
1550LEVEL
 62
13
 10
-609.249
 20
-1047.720
 30
3677.000
 70
    32
  0
VERTEX
  8
1550LEVEL
 62
13
 10
-609.446
 20
-1043.115
 30
3677.000
 70
    32
  0
VERTEX
  8
1550LEVEL
 62
13
 10
-596.506
 20
-1049.972
 30
3677.000
 70
    32
  0
VERTEX
  8
1550LEVEL
 62
13
 10
-577.016
 20
-1067.986
 30
3677.000
 70
    32
  0
VERTEX
  8
1550LEVEL
 62
13
 10
-560.526
 20
-1081.496
 30
3677.000
 70
    32
  0
VERTEX
  8
1550LEVEL
 62
13
 10
-538.038
 20
-1111.519
 30
3677.000
 70
    32
  0
VERTEX
  8
1550LEVEL
 62
13
 10
-528.293
 20
-1116.773
 30
3677.000
 70
    32
  0
VERTEX
  8
1550LEVEL
 62
13
 10
-514.052
 20
-1127.281
 30
3677.000
 70
    32
  0
VERTEX
  8
1550LEVEL
 62
13
 10
-503.557
 20
-1145.295
 30
3677.000
 70
    32
  0
VERTEX
  8
1550LEVEL
 62
13
 10
-495.793
 20
-1153.022
 30
3677.000
 70
    32
  0
VERTEX
  8
1550LEVEL
 62
13
 10
-490.065
 20
-1156.553
 30
3677.000
 70
    32
  0
VERTEX
  8
1550LEVEL
 62
13
 10
-469.826
 20
-1174.567
 30
3677.000
 70
    32
  0
VERTEX
  8
1550LEVEL
 62
13
 10
-460.081
 20
-1185.075
 30
3677.000
 70
    32
  0
VERTEX
  8
1550LEVEL
 62
13
 10
-453.952
 20
-1188.376
 30
3677.000
 70
    32
  0
VERTEX
  8
1550LEVEL
 62
13
 10
-447.415
 20
-1198.851
 30
3677.000
 70
    32
  0
VERTEX
  8
1550LEVEL
 62
13
 10
-437.594
 20
-1206.841
 30
3677.000
 70
    32
  0
VERTEX
  8
1550LEVEL
 62
13
 10
-432.347
 20
-1209.844
 30
3677.000
 70
    32
  0
VERTEX
  8
1550LEVEL
 62
13
 10
-426.350
 20
-1208.343
 30
3677.000
 70
    32
  0
VERTEX
  8
1550LEVEL
 62
13
 10
-424.102
 20
-1201.587
 30
3677.000
 70
    32
  0
VERTEX
  8
1550LEVEL
 62
13
 10
-424.851
 20
-1195.583
 30
3677.000
 70
    32
  0
VERTEX
  8
1550LEVEL
 62
13
 10
-426.350
 20
-1188.828
 30
3677.000
 70
    32
  0
VERTEX
  8
1550LEVEL
 62
13
 10
-427.802
 20
-1181.829
 30
3677.000
 70
    32
  0
VERTEX
  8
1550LEVEL
 62
13
 10
-487.948
 20
-1107.193
 30
3677.000
 70
    32
  0
VERTEX
  8
1550LEVEL
 62
13
 10
-584.213
 20
-1009.005
 30
3677.000
 70
    32
  0
VERTEX
  8
1550LEVEL
 62
13
 10
-643.134
 20
-931.264
 30
3677.000
 70
    32
  0
VERTEX
  8
1550LEVEL
 62
13
 10
-696.536
 20
-840.777
 30
3677.000
 70
    32
  0
VERTEX
  8
1550LEVEL
 62
13
 10
-708.274
 20
-757.805
 30
3677.000
 70
    32
  0
VERTEX
  8
1550LEVEL
 62
13
 10
-733.080
 20
-677.831
 30
3677.000
 70
    32
  0
VERTEX
  8
1550LEVEL
 62
13
 10
-793.166
 20
-630.146
 30
3677.000
 70
    32
  0
VERTEX
  8
1550LEVEL
 62
13
 10
-834.675
 20
-561.928
 30
3677.000
 70
    32
  0
VERTEX
  8
1550LEVEL
 62
13
 10
-851.487
 20
-479.171
 30
3677.000
 70
    32
  0
VERTEX
  8
1550LEVEL
 62
13
 10
-881.123
 20
-451.108
 30
3677.000
 70
    32
  0
VERTEX
  8
1550LEVEL
 62
13
 10
-884.246
 20
-441.633
 30
3677.000
 70
    32
  0
VERTEX
  8
1550LEVEL
 62
13
 10
-884.246
 20
-436.142
 30
3677.000
 70
    32
  0
VERTEX
  8
1550LEVEL
 62
13
 10
-883.149
 20
-429.552
 30
3677.000
 70
    32
  0
VERTEX
  8
1550LEVEL
 62
13
 10
-877.664
 20
-425.159
 30
3677.000
 70
    32
  0
VERTEX
  8
1550LEVEL
 62
13
 10
-874.372
 20
-418.569
 30
3677.000
 70
    32
  0
VERTEX
  8
1550LEVEL
 62
13
 10
-874.372
 20
-410.881
 30
3677.000
 70
    32
  0
VERTEX
  8
1550LEVEL
 62
13
 10
-876.567
 20
-398.800
 30
3677.000
 70
    32
  0
VERTEX
  8
1550LEVEL
 62
13
 10
-877.007
 20
-393.533
 30
3677.000
 70
    32
  0
VERTEX
  8
1550LEVEL
 62
13
 10
-926.266
 20
-315.798
 30
3677.000
 70
    32
  0
VERTEX
  8
1550LEVEL
 62
13
 10
-939.099
 20
-295.562
 30
3677.000
 70
    32
  0
VERTEX
  8
1550LEVEL
 62
13
 10
-939.099
 20
-282.383
 30
3677.000
 70
    32
  0
VERTEX
  8
1550LEVEL
 62
13
 10
-943.488
 20
-269.204
 30
3677.000
 70
    32
  0
VERTEX
  8
1550LEVEL
 62
13
 10
-947.876
 20
-251.631
 30
3677.000
 70
    32
  0
VERTEX
  8
1550LEVEL
 62
13
 10
-958.847
 20
-238.452
 30
3677.000
 70
    32
  0
VERTEX
  8
1550LEVEL
 62
13
 10
-965.455
 20
-226.270
 30
3677.000
 70
    32
  0
VERTEX
  8
1550LEVEL
 62
13
 10
-969.817
 20
-215.389
 30
3677.000
 70
    32
  0
VERTEX
  8
1550LEVEL
 62
13
 10
-974.205
 20
-198.914
 30
3677.000
 70
    32
  0
VERTEX
  8
1550LEVEL
 62
13
 10
-987.370
 20
-187.931
 30
3677.000
 70
    32
  0
VERTEX
  8
1550LEVEL
 62
13
 10
-990.661
 20
-181.342
 30
3677.000
 70
    32
  0
VERTEX
  8
1550LEVEL
 62
13
 10
-996.147
 20
-173.654
 30
3677.000
 70
    32
  0
VERTEX
  8
1550LEVEL
 62
13
 10
-1000.535
 20
-168.163
 30
3677.000
 70
    32
  0
VERTEX
  8
1550LEVEL
 62
13
 10
-1009.311
 20
-164.868
 30
3677.000
 70
    32
  0
VERTEX
  8
1550LEVEL
 62
13
 10
-1022.477
 20
-161.573
 30
3677.000
 70
    32
  0
VERTEX
  8
1550LEVEL
 62
13
 10
-1025.768
 20
-159.377
 30
3677.000
 70
    32
  0
VERTEX
  8
1550LEVEL
 62
13
 10
-1033.447
 20
-154.983
 30
3677.000
 70
    32
  0
VERTEX
  8
1550LEVEL
 62
13
 10
-1037.167
 20
-146.532
 30
3677.000
 70
    32
  0
VERTEX
  8
1550LEVEL
 62
13
 10
-1032.640
 20
-134.989
 30
3677.000
 70
    32
  0
VERTEX
  8
1550LEVEL
 62
13
 10
-1039.058
 20
-118.931
 30
3677.000
 70
    32
  0
VERTEX
  8
1550LEVEL
 62
13
 10
-1050.289
 20
-106.084
 30
3677.000
 70
    32
  0
VERTEX
  8
1550LEVEL
 62
13
 10
-1053.498
 20
-93.237
 30
3677.000
 70
    32
  0
VERTEX
  8
1550LEVEL
 62
13
 10
-1058.311
 20
-80.390
 30
3677.000
 70
    32
  0
VERTEX
  8
1550LEVEL
 62
13
 10
-1058.311
 20
-70.754
 30
3677.000
 70
    32
  0
VERTEX
  8
1550LEVEL
 62
13
 10
-1056.707
 20
-57.908
 30
3677.000
 70
    32
  0
VERTEX
  8
1550LEVEL
 62
13
 10
-1056.707
 20
-45.061
 30
3677.000
 70
    32
  0
VERTEX
  8
1550LEVEL
 62
13
 10
-1056.707
 20
-35.426
 30
3677.000
 70
    32
  0
VERTEX
  8
1550LEVEL
 62
13
 10
-1061.520
 20
-20.973
 30
3677.000
 70
    32
  0
VERTEX
  8
1550LEVEL
 62
13
 10
-1066.334
 20
-12.944
 30
3677.000
 70
    32
  0
VERTEX
  8
1550LEVEL
 62
13
 10
-1074.356
 20
-4.914
 30
3677.000
 70
    32
  0
VERTEX
  8
1550LEVEL
 62
13
 10
-1087.192
 20
6.327
 30
3677.000
 70
    32
  0
VERTEX
  8
1550LEVEL
 62
13
 10
-1093.609
 20
15.962
 30
3677.000
 70
    32
  0
VERTEX
  8
1550LEVEL
 62
13
 10
-1095.214
 20
28.809
 30
3677.000
 70
    32
  0
VERTEX
  8
1550LEVEL
 62
13
 10
-1095.214
 20
38.444
 30
3677.000
 70
    32
  0
VERTEX
  8
1550LEVEL
 62
13
 10
-1096.818
 20
54.503
 30
3677.000
 70
    32
  0
VERTEX
  8
1550LEVEL
 62
13
 10
-1101.632
 20
68.955
 30
3677.000
 70
    32
  0
VERTEX
  8
1550LEVEL
 62
13
 10
-1106.445
 20
88.226
 30
3677.000
 70
    32
  0
VERTEX
  8
1550LEVEL
 62
13
 10
-1144.952
 20
178.154
 30
3677.000
 70
    32
  0
VERTEX
  8
1550LEVEL
 62
13
 10
-1162.901
 20
194.268
 30
3677.000
 70
    32
  0
VERTEX
  8
1550LEVEL
 62
13
 10
-1177.163
 20
206.349
 30
3677.000
 70
    32
  0
VERTEX
  8
1550LEVEL
 62
13
 10
-1189.231
 20
215.135
 30
3677.000
 70
    32
  0
VERTEX
  8
1550LEVEL
 62
13
 10
-1203.493
 20
223.922
 30
3677.000
 70
    32
  0
VERTEX
  8
1550LEVEL
 62
13
 10
-1210.075
 20
230.511
 30
3677.000
 70
    32
  0
VERTEX
  8
1550LEVEL
 62
13
 10
-1214.463
 20
239.297
 30
3677.000
 70
    32
  0
VERTEX
  8
1550LEVEL
 62
13
 10
-1215.543
 20
244.183
 30
3677.000
 70
    32
  0
VERTEX
  8
1550LEVEL
 62
13
 10
-1194.690
 20
237.571
 30
3677.000
 70
    32
  0
VERTEX
  8
1550LEVEL
 62
13
 10
-1185.064
 20
232.753
 30
3677.000
 70
    32
  0
VERTEX
  8
1550LEVEL
 62
13
 10
-1178.646
 20
229.542
 30
3677.000
 70
    32
  0
VERTEX
  8
1550LEVEL
 62
13
 10
-1175.437
 20
231.148
 30
3677.000
 70
    32
  0
VERTEX
  8
1550LEVEL
 62
13
 10
-1173.832
 20
235.965
 30
3677.000
 70
    32
  0
VERTEX
  8
1550LEVEL
 62
13
 10
-1173.418
 20
239.621
 30
3677.000
 70
    32
  0
VERTEX
  8
1550LEVEL
 62
13
 10
-1183.459
 20
269.688
 30
3677.000
 70
    32
  0
VERTEX
  8
1550LEVEL
 62
13
 10
-1231.593
 20
346.770
 30
3677.000
 70
    32
  0
VERTEX
  8
1550LEVEL
 62
13
 10
-1265.286
 20
388.522
 30
3677.000
 70
    32
  0
VERTEX
  8
1550LEVEL
 62
13
 10
-1270.100
 20
401.369
 30
3677.000
 70
    32
  0
VERTEX
  8
1550LEVEL
 62
13
 10
-1270.100
 20
407.792
 30
3677.000
 70
    32
  0
VERTEX
  8
1550LEVEL
 62
13
 10
-1266.891
 20
412.610
 30
3677.000
 70
    32
  0
VERTEX
  8
1550LEVEL
 62
13
 10
-1257.264
 20
414.216
 30
3677.000
 70
    32
  0
VERTEX
  8
1550LEVEL
 62
13
 10
-1250.846
 20
409.398
 30
3677.000
 70
    32
  0
VERTEX
  8
1550LEVEL
 62
13
 10
-1236.896
 20
394.678
 30
3677.000
 70
    32
  0
VERTEX
  8
1550LEVEL
 62
13
 10
-1187.607
 20
318.189
 30
3677.000
 70
    32
  0
VERTEX
  8
1550LEVEL
 62
13
 10
-1122.659
 20
227.411
 30
3677.000
 70
    32
  0
VERTEX
  8
1550LEVEL
 62
13
 10
-1102.563
 20
210.742
 30
3677.000
 70
    32
  0
VERTEX
  8
1550LEVEL
 62
13
 10
-1088.301
 20
198.661
 30
3677.000
 70
    32
  0
VERTEX
  8
1550LEVEL
 62
13
 10
-1074.039
 20
173.401
 30
3677.000
 70
    32
  0
VERTEX
  8
1550LEVEL
 62
13
 10
-1066.334
 20
155.672
 30
3677.000
 70
    32
  0
VERTEX
  8
1550LEVEL
 62
13
 10
-1055.389
 20
150.337
 30
3677.000
 70
    32
  0
VERTEX
  8
1550LEVEL
 62
13
 10
-1044.418
 20
145.944
 30
3677.000
 70
    32
  0
VERTEX
  8
1550LEVEL
 62
13
 10
-1036.738
 20
140.452
 30
3677.000
 70
    32
  0
VERTEX
  8
1550LEVEL
 62
13
 10
-1029.059
 20
138.256
 30
3677.000
 70
    32
  0
VERTEX
  8
1550LEVEL
 62
13
 10
-1020.283
 20
131.666
 30
3677.000
 70
    32
  0
VERTEX
  8
1550LEVEL
 62
13
 10
-1013.700
 20
122.880
 30
3677.000
 70
    32
  0
VERTEX
  8
1550LEVEL
 62
13
 10
-1008.214
 20
110.799
 30
3677.000
 70
    32
  0
VERTEX
  8
1550LEVEL
 62
13
 10
-999.438
 20
93.227
 30
3677.000
 70
    32
  0
VERTEX
  8
1550LEVEL
 62
13
 10
-996.147
 20
89.932
 30
3677.000
 70
    32
  0
VERTEX
  8
1550LEVEL
 62
13
 10
-984.732
 20
73.076
 30
3677.000
 70
    32
  0
VERTEX
  8
1550LEVEL
 62
13
 10
-975.303
 20
63.573
 30
3677.000
 70
    32
  0
VERTEX
  8
1550LEVEL
 62
13
 10
-964.332
 20
63.573
 30
3677.000
 70
    32
  0
VERTEX
  8
1550LEVEL
 62
13
 10
-956.652
 20
58.082
 30
3677.000
 70
    32
  0
VERTEX
  8
1550LEVEL
 62
13
 10
-950.070
 20
50.394
 30
3677.000
 70
    32
  0
VERTEX
  8
1550LEVEL
 62
13
 10
-943.488
 20
35.018
 30
3677.000
 70
    32
  0
VERTEX
  8
1550LEVEL
 62
13
 10
-939.099
 20
20.741
 30
3677.000
 70
    32
  0
VERTEX
  8
1550LEVEL
 62
13
 10
-936.905
 20
9.758
 30
3677.000
 70
    32
  0
VERTEX
  8
1550LEVEL
 62
13
 10
-933.614
 20
-6.716
 30
3677.000
 70
    32
  0
VERTEX
  8
1550LEVEL
 62
13
 10
-929.791
 20
-23.698
 30
3677.000
 70
    32
  0
VERTEX
  8
1550LEVEL
 62
13
 10
-875.403
 20
-136.595
 30
3677.000
 70
    32
  0
VERTEX
  8
1550LEVEL
 62
13
 10
-867.790
 20
-145.099
 30
3677.000
 70
    32
  0
VERTEX
  8
1550LEVEL
 62
13
 10
-857.916
 20
-151.688
 30
3677.000
 70
    32
  0
VERTEX
  8
1550LEVEL
 62
13
 10
-845.848
 20
-156.082
 30
3677.000
 70
    32
  0
VERTEX
  8
1550LEVEL
 62
13
 10
-833.781
 20
-161.573
 30
3677.000
 70
    32
  0
VERTEX
  8
1550LEVEL
 62
13
 10
-829.392
 20
-169.261
 30
3677.000
 70
    32
  0
VERTEX
  8
1550LEVEL
 62
13
 10
-819.519
 20
-181.342
 30
3677.000
 70
    32
  0
VERTEX
  8
1550LEVEL
 62
13
 10
-808.548
 20
-191.226
 30
3677.000
 70
    32
  0
VERTEX
  8
1550LEVEL
 62
13
 10
-803.063
 20
-198.914
 30
3677.000
 70
    32
  0
VERTEX
  8
1550LEVEL
 62
13
 10
-776.733
 20
-227.470
 30
3677.000
 70
    32
  0
VERTEX
  8
1550LEVEL
 62
13
 10
-767.957
 20
-245.042
 30
3677.000
 70
    32
  0
VERTEX
  8
1550LEVEL
 62
13
 10
-763.568
 20
-251.631
 30
3677.000
 70
    32
  0
VERTEX
  8
1550LEVEL
 62
13
 10
-763.568
 20
-258.221
 30
3677.000
 70
    32
  0
VERTEX
  8
1550LEVEL
 62
13
 10
-767.957
 20
-260.418
 30
3677.000
 70
    32
  0
VERTEX
  8
1550LEVEL
 62
13
 10
-772.345
 20
-256.025
 30
3677.000
 70
    32
  0
VERTEX
  8
1550LEVEL
 62
13
 10
-774.539
 20
-250.533
 30
3677.000
 70
    32
  0
VERTEX
  8
1550LEVEL
 62
13
 10
-776.733
 20
-248.337
 30
3677.000
 70
    32
  0
VERTEX
  8
1550LEVEL
 62
13
 10
-782.218
 20
-245.042
 30
3677.000
 70
    32
  0
VERTEX
  8
1550LEVEL
 62
13
 10
-784.412
 20
-249.435
 30
3677.000
 70
    32
  0
VERTEX
  8
1550LEVEL
 62
13
 10
-783.315
 20
-254.926
 30
3677.000
 70
    32
  0
VERTEX
  8
1550LEVEL
 62
13
 10
-777.830
 20
-269.204
 30
3677.000
 70
    32
  0
VERTEX
  8
1550LEVEL
 62
13
 10
-773.442
 20
-277.990
 30
3677.000
 70
    32
  0
VERTEX
  8
1550LEVEL
 62
13
 10
-765.762
 20
-285.678
 30
3677.000
 70
    32
  0
VERTEX
  8
1550LEVEL
 62
13
 10
-756.986
 20
-292.268
 30
3677.000
 70
    32
  0
VERTEX
  8
1550LEVEL
 62
13
 10
-751.501
 20
-295.562
 30
3677.000
 70
    32
  0
VERTEX
  8
1550LEVEL
 62
13
 10
-741.627
 20
-296.661
 30
3677.000
 70
    32
  0
VERTEX
  8
1550LEVEL
 62
13
 10
-732.851
 20
-298.857
 30
3677.000
 70
    32
  0
VERTEX
  8
1550LEVEL
 62
13
 10
-724.074
 20
-302.152
 30
3677.000
 70
    32
  0
VERTEX
  8
1550LEVEL
 62
13
 10
-716.395
 20
-304.349
 30
3677.000
 70
    32
  0
VERTEX
  8
1550LEVEL
 62
13
 10
-710.909
 20
-305.447
 30
3677.000
 70
    32
  0
VERTEX
  8
1550LEVEL
 62
13
 10
-702.132
 20
-308.742
 30
3677.000
 70
    32
  0
VERTEX
  8
1550LEVEL
 62
13
 10
-695.102
 20
-313.593
 30
3677.000
 70
    32
  0
VERTEX
  8
1550LEVEL
 62
13
 10
-667.026
 20
-415.275
 30
3677.000
 70
    32
  0
VERTEX
  8
1550LEVEL
 62
13
 10
-648.376
 20
-464.697
 30
3677.000
 70
    32
  0
VERTEX
  8
1550LEVEL
 62
13
 10
-593.761
 20
-508.580
 30
3677.000
 70
    32
  0
VERTEX
  8
1550LEVEL
 62
13
 10
-574.885
 20
-557.138
 30
3677.000
 70
    32
  0
VERTEX
  8
1550LEVEL
 62
13
 10
-547.247
 20
-581.864
 30
3677.000
 70
    32
  0
VERTEX
  8
1550LEVEL
 62
13
 10
-571.682
 20
-522.108
 30
3677.000
 70
    32
  0
VERTEX
  8
1550LEVEL
 62
13
 10
-637.405
 20
-457.009
 30
3677.000
 70
    32
  0
VERTEX
  8
1550LEVEL
 62
13
 10
-647.279
 20
-398.800
 30
3677.000
 70
    32
  0
VERTEX
  8
1550LEVEL
 62
13
 10
-645.085
 20
-343.886
 30
3677.000
 70
    32
  0
VERTEX
  8
1550LEVEL
 62
13
 10
-682.377
 20
-261.151
 30
3677.000
 70
    32
  0
VERTEX
  8
1550LEVEL
 62
13
 10
-753.760
 20
-161.557
 30
3677.000
 70
    32
  0
VERTEX
  8
1550LEVEL
 62
13
 10
-795.115
 20
-92.354
 30
3677.000
 70
    32
  0
VERTEX
  8
1550LEVEL
 62
13
 10
-849.837
 20
-32.908
 30
3677.000
 70
    32
  0
VERTEX
  8
1550LEVEL
 62
13
 10
-848.127
 20
-14.549
 30
3677.000
 70
    32
  0
VERTEX
  8
1550LEVEL
 62
13
 10
-856.149
 20
3.115
 30
3677.000
 70
    32
  0
VERTEX
  8
1550LEVEL
 62
13
 10
-873.798
 20
22.386
 30
3677.000
 70
    32
  0
VERTEX
  8
1550LEVEL
 62
13
 10
-883.425
 20
40.050
 30
3677.000
 70
    32
  0
VERTEX
  8
1550LEVEL
 62
13
 10
-886.634
 20
54.503
 30
3677.000
 70
    32
  0
VERTEX
  8
1550LEVEL
 62
13
 10
-886.634
 20
73.773
 30
3677.000
 70
    32
  0
VERTEX
  8
1550LEVEL
 62
13
 10
-886.634
 20
85.014
 30
3677.000
 70
    32
  0
VERTEX
  8
1550LEVEL
 62
13
 10
-894.656
 20
97.861
 30
3677.000
 70
    32
  0
VERTEX
  8
1550LEVEL
 62
13
 10
-897.865
 20
102.678
 30
3677.000
 70
    32
  0
VERTEX
  8
1550LEVEL
 62
13
 10
-904.283
 20
104.285
 30
3677.000
 70
    32
  0
VERTEX
  8
1550LEVEL
 62
13
 10
-907.492
 20
99.467
 30
3677.000
 70
    32
  0
VERTEX
  8
1550LEVEL
 62
13
 10
-910.701
 20
86.620
 30
3677.000
 70
    32
  0
VERTEX
  8
1550LEVEL
 62
13
 10
-909.096
 20
73.773
 30
3677.000
 70
    32
  0
VERTEX
  8
1550LEVEL
 62
13
 10
-910.701
 20
64.138
 30
3677.000
 70
    32
  0
VERTEX
  8
1550LEVEL
 62
13
 10
-915.514
 20
57.714
 30
3677.000
 70
    32
  0
VERTEX
  8
1550LEVEL
 62
13
 10
-923.537
 20
64.138
 30
3677.000
 70
    32
  0
VERTEX
  8
1550LEVEL
 62
13
 10
-928.350
 20
78.591
 30
3677.000
 70
    32
  0
VERTEX
  8
1550LEVEL
 62
13
 10
-931.559
 20
94.649
 30
3677.000
 70
    32
  0
VERTEX
  8
1550LEVEL
 62
13
 10
-931.559
 20
113.920
 30
3677.000
 70
    32
  0
VERTEX
  8
1550LEVEL
 62
13
 10
-926.746
 20
134.796
 30
3677.000
 70
    32
  0
VERTEX
  8
1550LEVEL
 62
13
 10
-949.208
 20
176.548
 30
3677.000
 70
    32
  0
VERTEX
  8
1550LEVEL
 62
13
 10
-958.835
 20
179.760
 30
3677.000
 70
    32
  0
VERTEX
  8
1550LEVEL
 62
13
 10
-965.253
 20
186.183
 30
3677.000
 70
    32
  0
VERTEX
  8
1550LEVEL
 62
13
 10
-976.484
 20
192.607
 30
3677.000
 70
    32
  0
VERTEX
  8
1550LEVEL
 62
13
 10
-981.297
 20
195.818
 30
3677.000
 70
    32
  0
VERTEX
  8
1550LEVEL
 62
13
 10
-989.319
 20
205.454
 30
3677.000
 70
    32
  0
VERTEX
  8
1550LEVEL
 62
13
 10
-998.946
 20
218.301
 30
3677.000
 70
    32
  0
VERTEX
  8
1550LEVEL
 62
13
 10
-1000.551
 20
237.571
 30
3677.000
 70
    32
  0
VERTEX
  8
1550LEVEL
 62
13
 10
-994.133
 20
253.630
 30
3677.000
 70
    32
  0
VERTEX
  8
1550LEVEL
 62
13
 10
-992.536
 20
263.537
 30
3677.000
 70
    32
  0
VERTEX
  8
1550LEVEL
 62
13
 10
-1012.521
 20
324.363
 30
3677.000
 70
    32
  0
VERTEX
  8
1550LEVEL
 62
13
 10
-1062.231
 20
390.082
 30
3677.000
 70
    32
  0
VERTEX
  8
1550LEVEL
 62
13
 10
-1103.236
 20
447.939
 30
3677.000
 70
    32
  0
VERTEX
  8
1550LEVEL
 62
13
 10
-1132.913
 20
473.188
 30
3677.000
 70
    32
  0
VERTEX
  8
1550LEVEL
 62
13
 10
-1194.069
 20
525.323
 30
3677.000
 70
    32
  0
VERTEX
  8
1550LEVEL
 62
13
 10
-1212.339
 20
542.685
 30
3677.000
 70
    32
  0
VERTEX
  8
1550LEVEL
 62
13
 10
-1213.944
 20
553.926
 30
3677.000
 70
    32
  0
VERTEX
  8
1550LEVEL
 62
13
 10
-1209.130
 20
561.955
 30
3677.000
 70
    32
  0
VERTEX
  8
1550LEVEL
 62
13
 10
-1193.086
 20
557.138
 30
3677.000
 70
    32
  0
VERTEX
  8
1550LEVEL
 62
13
 10
-1177.041
 20
545.896
 30
3677.000
 70
    32
  0
VERTEX
  8
1550LEVEL
 62
13
 10
-1170.623
 20
537.867
 30
3677.000
 70
    32
  0
VERTEX
  8
1550LEVEL
 62
13
 10
-1157.788
 20
518.597
 30
3677.000
 70
    32
  0
VERTEX
  8
1550LEVEL
 62
13
 10
-1143.347
 20
502.538
 30
3677.000
 70
    32
  0
VERTEX
  8
1550LEVEL
 62
13
 10
-1138.534
 20
497.721
 30
3677.000
 70
    32
  0
VERTEX
  8
1550LEVEL
 62
13
 10
-1136.930
 20
504.144
 30
3677.000
 70
    32
  0
VERTEX
  8
1550LEVEL
 62
13
 10
-1138.534
 20
516.991
 30
3677.000
 70
    32
  0
VERTEX
  8
1550LEVEL
 62
13
 10
-1149.765
 20
529.838
 30
3677.000
 70
    32
  0
VERTEX
  8
1550LEVEL
 62
13
 10
-1157.788
 20
544.291
 30
3677.000
 70
    32
  0
VERTEX
  8
1550LEVEL
 62
13
 10
-1167.414
 20
563.561
 30
3677.000
 70
    32
  0
VERTEX
  8
1550LEVEL
 62
13
 10
-1170.623
 20
578.014
 30
3677.000
 70
    32
  0
VERTEX
  8
1550LEVEL
 62
13
 10
-1170.623
 20
587.649
 30
3677.000
 70
    32
  0
VERTEX
  8
1550LEVEL
 62
13
 10
-1162.601
 20
592.466
 30
3677.000
 70
    32
  0
VERTEX
  8
1550LEVEL
 62
13
 10
-1151.370
 20
581.226
 30
3677.000
 70
    32
  0
VERTEX
  8
1550LEVEL
 62
13
 10
-1139.617
 20
564.194
 30
3677.000
 70
    32
  0
VERTEX
  8
1550LEVEL
 62
13
 10
-1074.356
 20
462.392
 30
3677.000
 70
    32
  0
VERTEX
  8
1550LEVEL
 62
13
 10
-1011.782
 20
390.128
 30
3677.000
 70
    32
  0
VERTEX
  8
1550LEVEL
 62
13
 10
-902.137
 20
261.516
 30
3677.000
 70
    32
  0
VERTEX
  8
1550LEVEL
 62
13
 10
-816.455
 20
156.665
 30
3677.000
 70
    32
  0
VERTEX
  8
1550LEVEL
 62
13
 10
-778.004
 20
75.317
 30
3677.000
 70
    32
  0
VERTEX
  8
1550LEVEL
 62
13
 10
-755.889
 20
49.296
 30
3677.000
 70
    32
  0
VERTEX
  8
1550LEVEL
 62
13
 10
-739.433
 20
28.428
 30
3677.000
 70
    32
  0
VERTEX
  8
1550LEVEL
 62
13
 10
-715.297
 20
-3.421
 30
3677.000
 70
    32
  0
VERTEX
  8
1550LEVEL
 62
13
 10
-707.618
 20
-15.503
 30
3677.000
 70
    32
  0
VERTEX
  8
1550LEVEL
 62
13
 10
-698.841
 20
-24.289
 30
3677.000
 70
    32
  0
VERTEX
  8
1550LEVEL
 62
13
 10
-685.676
 20
-37.468
 30
3677.000
 70
    32
  0
VERTEX
  8
1550LEVEL
 62
13
 10
-681.288
 20
-45.156
 30
3677.000
 70
    32
  0
VERTEX
  8
1550LEVEL
 62
13
 10
-675.803
 20
-50.647
 30
3677.000
 70
    32
  0
VERTEX
  8
1550LEVEL
 62
13
 10
-672.512
 20
-60.532
 30
3677.000
 70
    32
  0
VERTEX
  8
1550LEVEL
 62
13
 10
-670.318
 20
-69.318
 30
3677.000
 70
    32
  0
VERTEX
  8
1550LEVEL
 62
13
 10
-668.123
 20
-82.497
 30
3677.000
 70
    32
  0
VERTEX
  8
1550LEVEL
 62
13
 10
-668.123
 20
-95.677
 30
3677.000
 70
    32
  0
VERTEX
  8
1550LEVEL
 62
13
 10
-665.929
 20
-109.954
 30
3677.000
 70
    32
  0
VERTEX
  8
1550LEVEL
 62
13
 10
-650.570
 20
-129.723
 30
3677.000
 70
    32
  0
VERTEX
  8
1550LEVEL
 62
13
 10
-639.599
 20
-137.411
 30
3677.000
 70
    32
  0
VERTEX
  8
1550LEVEL
 62
13
 10
-634.114
 20
-146.197
 30
3677.000
 70
    32
  0
VERTEX
  8
1550LEVEL
 62
13
 10
-630.823
 20
-161.573
 30
3677.000
 70
    32
  0
VERTEX
  8
1550LEVEL
 62
13
 10
-629.726
 20
-172.556
 30
3677.000
 70
    32
  0
VERTEX
  8
1550LEVEL
 62
13
 10
-628.629
 20
-181.342
 30
3677.000
 70
    32
  0
VERTEX
  8
1550LEVEL
 62
13
 10
-627.532
 20
-192.325
 30
3677.000
 70
    32
  0
VERTEX
  8
1550LEVEL
 62
13
 10
-625.338
 20
-198.914
 30
3677.000
 70
    32
  0
VERTEX
  8
1550LEVEL
 62
13
 10
-624.241
 20
-207.700
 30
3677.000
 70
    32
  0
VERTEX
  8
1550LEVEL
 62
13
 10
-611.076
 20
-230.764
 30
3677.000
 70
    32
  0
VERTEX
  8
1550LEVEL
 62
13
 10
-595.717
 20
-248.337
 30
3677.000
 70
    32
  0
VERTEX
  8
1550LEVEL
 62
13
 10
-590.725
 20
-253.540
 30
3677.000
 70
    32
  0
VERTEX
  8
1550LEVEL
 62
13
 10
-560.831
 20
-326.748
 30
3677.000
 70
    32
  0
VERTEX
  8
1550LEVEL
 62
13
 10
-564.999
 20
-346.083
 30
3677.000
 70
    32
  0
VERTEX
  8
1550LEVEL
 62
13
 10
-567.193
 20
-361.459
 30
3677.000
 70
    32
  0
VERTEX
  8
1550LEVEL
 62
13
 10
-567.193
 20
-371.344
 30
3677.000
 70
    32
  0
VERTEX
  8
1550LEVEL
 62
13
 10
-567.193
 20
-384.523
 30
3677.000
 70
    32
  0
VERTEX
  8
1550LEVEL
 62
13
 10
-569.387
 20
-395.505
 30
3677.000
 70
    32
  0
VERTEX
  8
1550LEVEL
 62
13
 10
-560.610
 20
-404.292
 30
3677.000
 70
    32
  0
VERTEX
  8
1550LEVEL
 62
13
 10
-545.252
 20
-417.471
 30
3677.000
 70
    32
  0
VERTEX
  8
1550LEVEL
 62
13
 10
-534.281
 20
-438.338
 30
3677.000
 70
    32
  0
VERTEX
  8
1550LEVEL
 62
13
 10
-532.087
 20
-453.714
 30
3677.000
 70
    32
  0
VERTEX
  8
1550LEVEL
 62
13
 10
-529.893
 20
-466.893
 30
3677.000
 70
    32
  0
VERTEX
  8
1550LEVEL
 62
13
 10
-524.407
 20
-480.073
 30
3677.000
 70
    32
  0
VERTEX
  8
1550LEVEL
 62
13
 10
-523.310
 20
-493.252
 30
3677.000
 70
    32
  0
VERTEX
  8
1550LEVEL
 62
13
 10
-525.504
 20
-499.841
 30
3677.000
 70
    32
  0
VERTEX
  8
1550LEVEL
 62
13
 10
-520.019
 20
-510.824
 30
3677.000
 70
    32
  0
VERTEX
  8
1550LEVEL
 62
13
 10
-507.951
 20
-519.610
 30
3677.000
 70
    32
  0
VERTEX
  8
1550LEVEL
 62
13
 10
-496.981
 20
-524.004
 30
3677.000
 70
    32
  0
VERTEX
  8
1550LEVEL
 62
13
 10
-489.301
 20
-530.593
 30
3677.000
 70
    32
  0
VERTEX
  8
1550LEVEL
 62
13
 10
-483.816
 20
-536.085
 30
3677.000
 70
    32
  0
VERTEX
  8
1550LEVEL
 62
13
 10
-480.124
 20
-581.258
 30
3677.000
 70
    32
  0
VERTEX
  8
1550LEVEL
 62
13
 10
-463.940
 20
-614.780
 30
3677.000
 70
    32
  0
VERTEX
  8
1550LEVEL
 62
13
 10
-394.788
 20
-739.991
 30
3677.000
 70
    32
  0
VERTEX
  8
1550LEVEL
 62
13
 10
-376.713
 20
-756.679
 30
3677.000
 70
    32
  0
VERTEX
  8
1550LEVEL
 62
13
 10
-365.590
 20
-840.123
 30
3677.000
 70
    32
  0
VERTEX
  8
1550LEVEL
 62
13
 10
-344.734
 20
-858.202
 30
3677.000
 70
    32
  0
VERTEX
  8
1550LEVEL
 62
13
 10
-314.146
 20
-898.533
 30
3677.000
 70
    32
  0
VERTEX
  8
1550LEVEL
 62
13
 10
-269.655
 20
-934.692
 30
3677.000
 70
    32
  0
VERTEX
  8
1550LEVEL
 62
13
 10
-236.286
 20
-981.977
 30
3677.000
 70
    32
  0
VERTEX
  8
1550LEVEL
 62
13
 10
-202.917
 20
-1004.228
 30
3677.000
 70
    32
  0
VERTEX
  8
1550LEVEL
 62
13
 10
-197.356
 20
-1011.182
 30
3677.000
 70
    32
  0
VERTEX
  8
1550LEVEL
 62
13
 10
-195.965
 20
-1027.871
 30
3677.000
 70
    32
  0
VERTEX
  8
1550LEVEL
 62
13
 10
-189.014
 20
-1059.857
 30
3677.000
 70
    32
  0
VERTEX
  8
1550LEVEL
 62
13
 10
-161.206
 20
-1102.970
 30
3677.000
 70
    32
  0
VERTEX
  8
1550LEVEL
 62
13
 10
-132.009
 20
-1137.738
 30
3677.000
 70
    32
  0
VERTEX
  8
1550LEVEL
 62
13
 10
-132.009
 20
-1141.910
 30
3677.000
 70
    32
  0
VERTEX
  8
1550LEVEL
 62
13
 10
-84.737
 20
-1171.115
 30
3677.000
 70
    32
  0
VERTEX
  8
1550LEVEL
 62
13
 10
-83.346
 20
-1228.135
 30
3677.000
 70
    32
  0
VERTEX
  8
1550LEVEL
 62
13
 10
-58.320
 20
-1269.857
 30
3677.000
 70
    32
  0
VERTEX
  8
1550LEVEL
 62
13
 10
-38.855
 20
-1294.890
 30
3677.000
 70
    32
  0
VERTEX
  8
1550LEVEL
 62
13
 10
-29.122
 20
-1307.406
 30
3677.000
 70
    32
  0
VERTEX
  8
1550LEVEL
 62
13
 10
-23.561
 20
-1315.751
 30
3677.000
 70
    32
  0
VERTEX
  8
1550LEVEL
 62
13
 10
-17.999
 20
-1314.360
 30
3677.000
 70
    32
  0
VERTEX
  8
1550LEVEL
 62
13
 10
-16.609
 20
-1308.797
 30
3677.000
 70
    32
  0
VERTEX
  8
1550LEVEL
 62
13
 10
-17.999
 20
-1304.625
 30
3677.000
 70
    32
  0
VERTEX
  8
1550LEVEL
 62
13
 10
-23.561
 20
-1297.671
 30
3677.000
 70
    32
  0
VERTEX
  8
1550LEVEL
 62
13
 10
-22.170
 20
-1296.281
 30
3677.000
 70
    32
  0
VERTEX
  8
1550LEVEL
 62
13
 10
-17.999
 20
-1296.281
 30
3677.000
 70
    32
  0
VERTEX
  8
1550LEVEL
 62
13
 10
-12.438
 20
-1306.016
 30
3677.000
 70
    32
  0
VERTEX
  8
1550LEVEL
 62
13
 10
-8.267
 20
-1311.579
 30
3677.000
 70
    32
  0
VERTEX
  8
1550LEVEL
 62
13
 10
-6.876
 20
-1322.704
 30
3677.000
 70
    32
  0
VERTEX
  8
1550LEVEL
 62
13
 10
-5.486
 20
-1336.612
 30
3677.000
 70
    32
  0
VERTEX
  8
1550LEVEL
 62
13
 10
-6.876
 20
-1344.956
 30
3677.000
 70
    32
  0
VERTEX
  8
1550LEVEL
 62
13
 10
-1.315
 20
-1363.035
 30
3677.000
 70
    32
  0
VERTEX
  8
1550LEVEL
 62
13
 10
-1.315
 20
-1386.678
 30
3677.000
 70
    32
  0
VERTEX
  8
1550LEVEL
 62
13
 10
2.856
 20
-1399.194
 30
3677.000
 70
    32
  0
VERTEX
  8
1550LEVEL
 62
13
 10
8.418
 20
-1418.664
 30
3677.000
 70
    32
  0
VERTEX
  8
1550LEVEL
 62
13
 10
13.979
 20
-1429.790
 30
3677.000
 70
    32
  0
VERTEX
  8
1550LEVEL
 62
13
 10
23.712
 20
-1439.525
 30
3677.000
 70
    32
  0
VERTEX
  8
1550LEVEL
 62
13
 10
26.493
 20
-1442.307
 30
3677.000
 70
    32
  0
VERTEX
  8
1550LEVEL
 62
13
 10
43.177
 20
-1490.982
 30
3677.000
 70
    32
  0
VERTEX
  8
1550LEVEL
 62
13
 10
48.738
 20
-1510.452
 30
3677.000
 70
    32
  0
VERTEX
  8
1550LEVEL
 62
13
 10
54.300
 20
-1527.141
 30
3677.000
 70
    32
  0
VERTEX
  8
1550LEVEL
 62
13
 10
61.252
 20
-1539.658
 30
3677.000
 70
    32
  0
VERTEX
  8
1550LEVEL
 62
13
 10
66.813
 20
-1550.783
 30
3677.000
 70
    32
  0
VERTEX
  8
1550LEVEL
 62
13
 10
75.155
 20
-1557.737
 30
3677.000
 70
    32
  0
VERTEX
  8
1550LEVEL
 62
13
 10
82.107
 20
-1559.128
 30
3677.000
 70
    32
  0
VERTEX
  8
1550LEVEL
 62
13
 10
90.449
 20
-1557.737
 30
3677.000
 70
    32
  0
VERTEX
  8
1550LEVEL
 62
13
 10
90.449
 20
-1543.830
 30
3677.000
 70
    32
  0
VERTEX
  8
1550LEVEL
 62
13
 10
91.840
 20
-1529.922
 30
3677.000
 70
    32
  0
VERTEX
  8
1550LEVEL
 62
13
 10
91.840
 20
-1514.624
 30
3677.000
 70
    32
  0
VERTEX
  8
1550LEVEL
 62
13
 10
91.840
 20
-1499.326
 30
3677.000
 70
    32
  0
VERTEX
  8
1550LEVEL
 62
13
 10
91.840
 20
-1488.201
 30
3677.000
 70
    32
  0
VERTEX
  8
1550LEVEL
 62
13
 10
94.620
 20
-1475.684
 30
3677.000
 70
    32
  0
VERTEX
  8
1550LEVEL
 62
13
 10
94.620
 20
-1470.121
 30
3677.000
 70
    32
  0
VERTEX
  8
1550LEVEL
 62
13
 10
91.840
 20
-1461.777
 30
3677.000
 70
    32
  0
VERTEX
  8
1550LEVEL
 62
13
 10
84.888
 20
-1440.916
 30
3677.000
 70
    32
  0
VERTEX
  8
1550LEVEL
 62
13
 10
82.107
 20
-1413.102
 30
3677.000
 70
    32
  0
VERTEX
  8
1550LEVEL
 62
13
 10
76.546
 20
-1403.366
 30
3677.000
 70
    32
  0
VERTEX
  8
1550LEVEL
 62
13
 10
75.155
 20
-1396.413
 30
3677.000
 70
    32
  0
VERTEX
  8
1550LEVEL
 62
13
 10
75.155
 20
-1392.241
 30
3677.000
 70
    32
  0
VERTEX
  8
1550LEVEL
 62
13
 10
76.546
 20
-1393.631
 30
3677.000
 70
    32
  0
VERTEX
  8
1550LEVEL
 62
13
 10
83.497
 20
-1396.413
 30
3677.000
 70
    32
  0
VERTEX
  8
1550LEVEL
 62
13
 10
87.669
 20
-1401.976
 30
3677.000
 70
    32
  0
VERTEX
  8
1550LEVEL
 62
13
 10
94.620
 20
-1410.320
 30
3677.000
 70
    32
  0
VERTEX
  8
1550LEVEL
 62
13
 10
96.011
 20
-1410.320
 30
3677.000
 70
    32
  0
VERTEX
  8
1550LEVEL
 62
13
 10
97.401
 20
-1407.539
 30
3677.000
 70
    32
  0
VERTEX
  8
1550LEVEL
 62
13
 10
96.011
 20
-1401.976
 30
3677.000
 70
    32
  0
VERTEX
  8
1550LEVEL
 62
13
 10
90.449
 20
-1395.022
 30
3677.000
 70
    32
  0
VERTEX
  8
1550LEVEL
 62
13
 10
84.888
 20
-1389.459
 30
3677.000
 70
    32
  0
VERTEX
  8
1550LEVEL
 62
13
 10
83.497
 20
-1383.896
 30
3677.000
 70
    32
  0
VERTEX
  8
1550LEVEL
 62
13
 10
86.278
 20
-1379.724
 30
3677.000
 70
    32
  0
VERTEX
  8
1550LEVEL
 62
13
 10
93.230
 20
-1379.724
 30
3677.000
 70
    32
  0
VERTEX
  8
1550LEVEL
 62
13
 10
100.182
 20
-1388.069
 30
3677.000
 70
    32
  0
VERTEX
  8
1550LEVEL
 62
13
 10
129.379
 20
-1484.029
 30
3677.000
 70
    32
  0
VERTEX
  8
1550LEVEL
 62
13
 10
172.481
 20
-1538.267
 30
3677.000
 70
    32
  0
VERTEX
  8
1550LEVEL
 62
13
 10
243.625
 20
-1729.941
 30
3677.000
 70
    32
  0
VERTEX
  8
1550LEVEL
 62
13
 10
317.396
 20
-1878.793
 30
3677.000
 70
    32
  0
VERTEX
  8
1550LEVEL
 62
13
 10
360.962
 20
-1999.998
 30
3677.000
 70
    32
  0
VERTEX
  8
1550LEVEL
 62
13
 10
421.335
 20
-2155.578
 30
3677.000
 70
    32
  0
VERTEX
  8
1550LEVEL
 62
13
 10
465.450
 20
-2310.383
 30
3677.000
 70
    32
  0
VERTEX
  8
1550LEVEL
 62
13
 10
510.210
 20
-2464.281
 30
3677.000
 70
    32
  0
VERTEX
  8
1550LEVEL
 62
13
 10
553.776
 20
-2585.486
 30
3677.000
 70
    32
  0
VERTEX
  8
1550LEVEL
 62
13
 10
599.144
 20
-2654.811
 30
3677.000
 70
    32
  0
VERTEX
  8
1550LEVEL
 62
13
 10
631.574
 20
-2635.936
 30
3677.000
 70
    32
  0
VERTEX
  8
1550LEVEL
 62
13
 10
681.691
 20
-2697.436
 30
3677.000
 70
    32
  0
VERTEX
  8
1550LEVEL
 62
13
 10
742.681
 20
-2789.359
 30
3677.000
 70
    32
  0
VERTEX
  8
1550LEVEL
 62
13
 10
805.078
 20
-2886.794
 30
3677.000
 70
    32
  0
VERTEX
  8
1550LEVEL
 62
13
 10
851.606
 20
-2953.529
 30
3677.000
 70
    32
  0
VERTEX
  8
1550LEVEL
 62
13
 10
824.880
 20
-2885.854
 30
3677.000
 70
    32
  0
VERTEX
  8
1550LEVEL
 62
13
 10
757.702
 20
-2793.217
 30
3677.000
 70
    32
  0
VERTEX
  8
1550LEVEL
 62
13
 10
697.618
 20
-2685.811
 30
3677.000
 70
    32
  0
VERTEX
  8
1550LEVEL
 62
13
 10
658.446
 20
-2621.990
 30
3677.000
 70
    32
  0
VERTEX
  8
1550LEVEL
 62
13
 10
610.563
 20
-2610.733
 30
3677.000
 70
    32
  0
VERTEX
  8
1550LEVEL
 62
13
 10
562.412
 20
-2533.413
 30
3677.000
 70
    32
  0
VERTEX
  8
1550LEVEL
 62
13
 10
545.831
 20
-2449.180
 30
3677.000
 70
    32
  0
VERTEX
  8
1550LEVEL
 62
13
 10
595.232
 20
-2500.740
 30
3677.000
 70
    32
  0
VERTEX
  8
1550LEVEL
 62
13
 10
564.869
 20
-2425.695
 30
3677.000
 70
    32
  0
VERTEX
  8
1550LEVEL
 62
13
 10
520.919
 20
-2306.949
 30
3677.000
 70
    32
  0
VERTEX
  8
1550LEVEL
 62
13
 10
471.327
 20
-2188.835
 30
3677.000
 70
    32
  0
VERTEX
  8
1550LEVEL
 62
13
 10
423.656
 20
-2074.549
 30
3677.000
 70
    32
  0
VERTEX
  8
1550LEVEL
 62
13
 10
382.650
 20
-1951.476
 30
3677.000
 70
    32
  0
VERTEX
  8
1550LEVEL
 62
13
 10
321.350
 20
-1753.417
 30
3677.000
 70
    32
  0
VERTEX
  8
1550LEVEL
 62
13
 10
362.711
 20
-1795.154
 30
3677.000
 70
    32
  0
VERTEX
  8
1550LEVEL
 62
13
 10
393.537
 20
-1807.527
 30
3677.000
 70
    32
  0
VERTEX
  8
1550LEVEL
 62
13
 10
376.009
 20
-1714.831
 30
3677.000
 70
    32
  0
VERTEX
  8
1550LEVEL
 62
13
 10
426.797
 20
-1789.790
 30
3677.000
 70
    32
  0
VERTEX
  8
1550LEVEL
 62
13
 10
489.141
 20
-1902.084
 30
3677.000
 70
    32
  0
VERTEX
  8
1550LEVEL
 62
13
 10
570.907
 20
-2048.153
 30
3677.000
 70
    32
  0
VERTEX
  8
1550LEVEL
 62
13
 10
622.926
 20
-2147.496
 30
3677.000
 70
    32
  0
VERTEX
  8
1550LEVEL
 62
13
 10
680.274
 20
-2259.513
 30
3677.000
 70
    32
  0
VERTEX
  8
1550LEVEL
 62
13
 10
735.938
 20
-2354.889
 30
3677.000
 70
    32
  0
VERTEX
  8
1550LEVEL
 62
13
 10
743.274
 20
-2467.665
 30
3677.000
 70
    32
  0
VERTEX
  8
1550LEVEL
 62
13
 10
753.668
 20
-2567.311
 30
3677.000
 70
    32
  0
VERTEX
  8
1550LEVEL
 62
13
 10
807.873
 20
-2688.161
 30
3677.000
 70
    32
  0
VERTEX
  8
1550LEVEL
 62
13
 10
870.770
 20
-2790.462
 30
3677.000
 70
    32
  0
VERTEX
  8
1550LEVEL
 62
13
 10
926.809
 20
-2878.588
 30
3677.000
 70
    32
  0
VERTEX
  8
1550LEVEL
 62
13
 10
985.292
 20
-2957.521
 30
3677.000
 70
    32
  0
VERTEX
  8
1550LEVEL
 62
13
 10
993.460
 20
-2919.739
 30
3677.000
 70
    32
  0
VERTEX
  8
1550LEVEL
 62
13
 10
969.099
 20
-2827.235
 30
3677.000
 70
    32
  0
VERTEX
  8
1550LEVEL
 62
13
 10
1013.533
 20
-2865.420
 30
3677.000
 70
    32
  0
VERTEX
  8
1550LEVEL
 62
13
 10
1085.462
 20
-2966.359
 30
3677.000
 70
    32
  0
VERTEX
  8
1550LEVEL
 62
13
 10
1143.639
 20
-3063.387
 30
3677.000
 70
    32
  0
SEQEND
  8
1550LEVEL
  0
ENDSEC
  0
EOF
