999
********************************
999
*   DXF File - Entities Only   *
999
*        3D Data Format        *
999
*     Output from ENVISAGE     *
999
*     28-Dec-2007 13:48:43     *
999
********************************
  0
SECTION 
  2
HEADER
  9
$ACADVER
  1
AC1009
  9
$EXTMIN
 10
-290000.000
 20
-250000.000
 30
-4000.000
  9
$EXTMAX
 10
5000000.000
 20
600000.000
 30
6000.000
  0
ENDSEC
  0
SECTION
  2
ENTITIES
  0
POLYLINE
  8
1850LEVEL
 62
13
 66
     1
 70
     9
  0
VERTEX
  8
1850LEVEL
 62
13
 10
267.397
 20
-1576.071
 30
3377.000
 70
    32
  0
VERTEX
  8
1850LEVEL
 62
13
 10
282.224
 20
-1614.929
 30
3377.000
 70
    32
  0
VERTEX
  8
1850LEVEL
 62
13
 10
314.302
 20
-1664.301
 30
3377.000
 70
    32
  0
VERTEX
  8
1850LEVEL
 62
13
 10
349.930
 20
-1716.749
 30
3377.000
 70
    32
  0
VERTEX
  8
1850LEVEL
 62
13
 10
389.652
 20
-1773.618
 30
3377.000
 70
    32
  0
VERTEX
  8
1850LEVEL
 62
13
 10
433.707
 20
-1838.221
 30
3377.000
 70
    32
  0
VERTEX
  8
1850LEVEL
 62
13
 10
467.705
 20
-1891.422
 30
3377.000
 70
    32
  0
VERTEX
  8
1850LEVEL
 62
13
 10
472.760
 20
-1918.671
 30
3377.000
 70
    32
  0
VERTEX
  8
1850LEVEL
 62
13
 10
433.878
 20
-1872.517
 30
3377.000
 70
    32
  0
VERTEX
  8
1850LEVEL
 62
13
 10
395.495
 20
-1810.314
 30
3377.000
 70
    32
  0
VERTEX
  8
1850LEVEL
 62
13
 10
360.371
 20
-1746.606
 30
3377.000
 70
    32
  0
VERTEX
  8
1850LEVEL
 62
13
 10
322.847
 20
-1688.570
 30
3377.000
 70
    32
  0
VERTEX
  8
1850LEVEL
 62
13
 10
274.602
 20
-1626.586
 30
3377.000
 70
    32
  0
VERTEX
  8
1850LEVEL
 62
13
 10
256.190
 20
-1576.835
 30
3377.000
 70
    32
  0
SEQEND
  8
1850LEVEL
  0
POLYLINE
  8
1850LEVEL
 62
13
 66
     1
 70
     9
  0
VERTEX
  8
1850LEVEL
 62
13
 10
327.357
 20
-2012.055
 30
3377.000
 70
    32
  0
VERTEX
  8
1850LEVEL
 62
13
 10
311.073
 20
-1966.416
 30
3377.000
 70
    32
  0
VERTEX
  8
1850LEVEL
 62
13
 10
297.372
 20
-1938.065
 30
3377.000
 70
    32
  0
VERTEX
  8
1850LEVEL
 62
13
 10
309.782
 20
-1905.488
 30
3377.000
 70
    32
  0
VERTEX
  8
1850LEVEL
 62
13
 10
292.347
 20
-1872.016
 30
3377.000
 70
    32
  0
VERTEX
  8
1850LEVEL
 62
13
 10
257.365
 20
-1839.576
 30
3377.000
 70
    32
  0
VERTEX
  8
1850LEVEL
 62
13
 10
250.172
 20
-1798.637
 30
3377.000
 70
    32
  0
VERTEX
  8
1850LEVEL
 62
13
 10
218.242
 20
-1743.492
 30
3377.000
 70
    32
  0
VERTEX
  8
1850LEVEL
 62
13
 10
194.360
 20
-1707.751
 30
3377.000
 70
    32
  0
VERTEX
  8
1850LEVEL
 62
13
 10
203.574
 20
-1750.266
 30
3377.000
 70
    32
  0
VERTEX
  8
1850LEVEL
 62
13
 10
231.403
 20
-1796.201
 30
3377.000
 70
    32
  0
VERTEX
  8
1850LEVEL
 62
13
 10
242.348
 20
-1835.711
 30
3377.000
 70
    32
  0
VERTEX
  8
1850LEVEL
 62
13
 10
260.209
 20
-1879.329
 30
3377.000
 70
    32
  0
VERTEX
  8
1850LEVEL
 62
13
 10
283.196
 20
-1924.001
 30
3377.000
 70
    32
  0
VERTEX
  8
1850LEVEL
 62
13
 10
289.063
 20
-1958.937
 30
3377.000
 70
    32
  0
VERTEX
  8
1850LEVEL
 62
13
 10
318.142
 20
-2011.367
 30
3377.000
 70
    32
  0
SEQEND
  8
1850LEVEL
  0
POLYLINE
  8
1850LEVEL
 62
13
 66
     1
 70
     8
  0
VERTEX
  8
1850LEVEL
 62
13
 10
-720.676
 20
-1193.763
 30
3377.000
 70
    32
  0
VERTEX
  8
1850LEVEL
 62
13
 10
-662.476
 20
-1290.314
 30
3377.000
 70
    32
  0
VERTEX
  8
1850LEVEL
 62
13
 10
-597.905
 20
-1410.541
 30
3377.000
 70
    32
  0
VERTEX
  8
1850LEVEL
 62
13
 10
-555.042
 20
-1495.620
 30
3377.000
 70
    32
  0
VERTEX
  8
1850LEVEL
 62
13
 10
-541.306
 20
-1531.788
 30
3377.000
 70
    32
  0
VERTEX
  8
1850LEVEL
 62
13
 10
-576.157
 20
-1500.123
 30
3377.000
 70
    32
  0
VERTEX
  8
1850LEVEL
 62
13
 10
-647.229
 20
-1397.272
 30
3377.000
 70
    32
  0
VERTEX
  8
1850LEVEL
 62
13
 10
-726.971
 20
-1274.164
 30
3377.000
 70
    32
  0
VERTEX
  8
1850LEVEL
 62
13
 10
-765.971
 20
-1215.897
 30
3377.000
 70
    32
  0
SEQEND
  8
1850LEVEL
  0
POLYLINE
  8
1850LEVEL
 62
13
 66
     1
 70
     8
  0
VERTEX
  8
1850LEVEL
 62
13
 10
-1516.031
 20
-1439.073
 30
3377.000
 70
    32
  0
VERTEX
  8
1850LEVEL
 62
13
 10
-1479.450
 20
-1488.647
 30
3377.000
 70
    32
  0
VERTEX
  8
1850LEVEL
 62
13
 10
-1452.119
 20
-1550.630
 30
3377.000
 70
    32
  0
VERTEX
  8
1850LEVEL
 62
13
 10
-1413.184
 20
-1618.966
 30
3377.000
 70
    32
  0
VERTEX
  8
1850LEVEL
 62
13
 10
-1355.351
 20
-1711.429
 30
3377.000
 70
    32
  0
VERTEX
  8
1850LEVEL
 62
13
 10
-1310.201
 20
-1804.424
 30
3377.000
 70
    32
  0
SEQEND
  8
1850LEVEL
  0
POLYLINE
  8
1850LEVEL
 62
13
 66
     1
 70
     8
  0
VERTEX
  8
1850LEVEL
 62
13
 10
-1441.845
 20
-1316.140
 30
3377.000
 70
    32
  0
VERTEX
  8
1850LEVEL
 62
13
 10
-1432.375
 20
-1376.333
 30
3377.000
 70
    32
  0
VERTEX
  8
1850LEVEL
 62
13
 10
-1391.900
 20
-1455.745
 30
3377.000
 70
    32
  0
VERTEX
  8
1850LEVEL
 62
13
 10
-1390.028
 20
-1484.008
 30
3377.000
 70
    32
  0
VERTEX
  8
1850LEVEL
 62
13
 10
-1418.764
 20
-1458.341
 30
3377.000
 70
    32
  0
VERTEX
  8
1850LEVEL
 62
13
 10
-1381.892
 20
-1512.496
 30
3377.000
 70
    32
  0
VERTEX
  8
1850LEVEL
 62
13
 10
-1385.324
 20
-1542.447
 30
3377.000
 70
    32
  0
VERTEX
  8
1850LEVEL
 62
13
 10
-1423.713
 20
-1496.369
 30
3377.000
 70
    32
  0
VERTEX
  8
1850LEVEL
 62
13
 10
-1440.934
 20
-1447.057
 30
3377.000
 70
    32
  0
VERTEX
  8
1850LEVEL
 62
13
 10
-1459.690
 20
-1433.284
 30
3377.000
 70
    32
  0
VERTEX
  8
1850LEVEL
 62
13
 10
-1441.883
 20
-1475.633
 30
3377.000
 70
    32
  0
VERTEX
  8
1850LEVEL
 62
13
 10
-1472.645
 20
-1443.601
 30
3377.000
 70
    32
  0
VERTEX
  8
1850LEVEL
 62
13
 10
-1446.683
 20
-1486.976
 30
3377.000
 70
    32
  0
VERTEX
  8
1850LEVEL
 62
13
 10
-1406.587
 20
-1531.809
 30
3377.000
 70
    32
  0
VERTEX
  8
1850LEVEL
 62
13
 10
-1373.738
 20
-1555.348
 30
3377.000
 70
    32
  0
VERTEX
  8
1850LEVEL
 62
13
 10
-1328.391
 20
-1618.138
 30
3377.000
 70
    32
  0
VERTEX
  8
1850LEVEL
 62
13
 10
-1288.621
 20
-1692.401
 30
3377.000
 70
    32
  0
VERTEX
  8
1850LEVEL
 62
13
 10
-1230.658
 20
-1785.639
 30
3377.000
 70
    32
  0
SEQEND
  8
1850LEVEL
  0
POLYLINE
  8
1850LEVEL
 62
13
 66
     1
 70
     8
  0
VERTEX
  8
1850LEVEL
 62
13
 10
-2074.103
 20
596.103
 30
3377.000
 70
    32
  0
VERTEX
  8
1850LEVEL
 62
13
 10
-2112.622
 20
663.870
 30
3377.000
 70
    32
  0
VERTEX
  8
1850LEVEL
 62
13
 10
-2172.500
 20
714.322
 30
3377.000
 70
    32
  0
VERTEX
  8
1850LEVEL
 62
13
 10
-2255.135
 20
769.094
 30
3377.000
 70
    32
  0
VERTEX
  8
1850LEVEL
 62
13
 10
-2306.094
 20
828.227
 30
3377.000
 70
    32
  0
VERTEX
  8
1850LEVEL
 62
13
 10
-2337.331
 20
866.884
 30
3377.000
 70
    32
  0
VERTEX
  8
1850LEVEL
 62
13
 10
-2345.190
 20
837.626
 30
3377.000
 70
    32
  0
VERTEX
  8
1850LEVEL
 62
13
 10
-2389.494
 20
873.291
 30
3377.000
 70
    32
  0
VERTEX
  8
1850LEVEL
 62
13
 10
-2414.484
 20
905.175
 30
3377.000
 70
    32
  0
VERTEX
  8
1850LEVEL
 62
13
 10
-2418.112
 20
865.931
 30
3377.000
 70
    32
  0
VERTEX
  8
1850LEVEL
 62
13
 10
-2463.986
 20
894.787
 30
3377.000
 70
    32
  0
VERTEX
  8
1850LEVEL
 62
13
 10
-2500.361
 20
923.163
 30
3377.000
 70
    32
  0
VERTEX
  8
1850LEVEL
 62
13
 10
-2521.661
 20
899.790
 30
3377.000
 70
    32
  0
VERTEX
  8
1850LEVEL
 62
13
 10
-2512.636
 20
864.108
 30
3377.000
 70
    32
  0
VERTEX
  8
1850LEVEL
 62
13
 10
-2544.685
 20
847.710
 30
3377.000
 70
    32
  0
VERTEX
  8
1850LEVEL
 62
13
 10
-2530.966
 20
804.993
 30
3377.000
 70
    32
  0
VERTEX
  8
1850LEVEL
 62
13
 10
-2488.536
 20
713.936
 30
3377.000
 70
    32
  0
VERTEX
  8
1850LEVEL
 62
13
 10
-2464.784
 20
678.970
 30
3377.000
 70
    32
  0
VERTEX
  8
1850LEVEL
 62
13
 10
-2434.781
 20
611.529
 30
3377.000
 70
    32
  0
VERTEX
  8
1850LEVEL
 62
13
 10
-2372.342
 20
583.858
 30
3377.000
 70
    32
  0
VERTEX
  8
1850LEVEL
 62
13
 10
-2307.782
 20
535.949
 30
3377.000
 70
    32
  0
VERTEX
  8
1850LEVEL
 62
13
 10
-2269.872
 20
501.286
 30
3377.000
 70
    32
  0
VERTEX
  8
1850LEVEL
 62
13
 10
-2291.083
 20
468.828
 30
3377.000
 70
    32
  0
VERTEX
  8
1850LEVEL
 62
13
 10
-2266.798
 20
442.095
 30
3377.000
 70
    32
  0
SEQEND
  8
1850LEVEL
  0
POLYLINE
  8
1850LEVEL
 62
13
 66
     1
 70
     8
  0
VERTEX
  8
1850LEVEL
 62
13
 10
2986.398
 20
-2210.244
 30
3377.000
 70
    32
  0
VERTEX
  8
1850LEVEL
 62
13
 10
2967.688
 20
-2273.129
 30
3377.000
 70
    32
  0
VERTEX
  8
1850LEVEL
 62
13
 10
2929.320
 20
-2324.937
 30
3377.000
 70
    32
  0
VERTEX
  8
1850LEVEL
 62
13
 10
2923.130
 20
-2396.206
 30
3377.000
 70
    32
  0
SEQEND
  8
1850LEVEL
  0
POLYLINE
  8
1850LEVEL
 62
13
 66
     1
 70
     8
  0
VERTEX
  8
1850LEVEL
 62
13
 10
2552.791
 20
-4310.718
 30
3377.000
 70
    32
  0
VERTEX
  8
1850LEVEL
 62
13
 10
2491.218
 20
-4227.763
 30
3377.000
 70
    32
  0
VERTEX
  8
1850LEVEL
 62
13
 10
2372.213
 20
-4072.662
 30
3377.000
 70
    32
  0
VERTEX
  8
1850LEVEL
 62
13
 10
2257.940
 20
-3927.188
 30
3377.000
 70
    32
  0
VERTEX
  8
1850LEVEL
 62
13
 10
2197.778
 20
-3847.506
 30
3377.000
 70
    32
  0
VERTEX
  8
1850LEVEL
 62
13
 10
2167.181
 20
-3793.932
 30
3377.000
 70
    32
  0
VERTEX
  8
1850LEVEL
 62
13
 10
2199.430
 20
-3806.832
 30
3377.000
 70
    32
  0
VERTEX
  8
1850LEVEL
 62
13
 10
2168.384
 20
-3754.447
 30
3377.000
 70
    32
  0
VERTEX
  8
1850LEVEL
 62
13
 10
2116.685
 20
-3684.755
 30
3377.000
 70
    32
  0
VERTEX
  8
1850LEVEL
 62
13
 10
1901.294
 20
-3579.226
 30
3377.000
 70
    32
  0
VERTEX
  8
1850LEVEL
 62
13
 10
1865.261
 20
-3535.624
 30
3377.000
 70
    32
  0
VERTEX
  8
1850LEVEL
 62
13
 10
1815.222
 20
-3477.327
 30
3377.000
 70
    32
  0
VERTEX
  8
1850LEVEL
 62
13
 10
1765.881
 20
-3419.397
 30
3377.000
 70
    32
  0
VERTEX
  8
1850LEVEL
 62
13
 10
1731.877
 20
-3363.492
 30
3377.000
 70
    32
  0
SEQEND
  8
1850LEVEL
  0
POLYLINE
  8
1850LEVEL
 62
13
 66
     1
 70
     8
  0
VERTEX
  8
1850LEVEL
 62
13
 10
982.547
 20
-3338.469
 30
3377.000
 70
    32
  0
VERTEX
  8
1850LEVEL
 62
13
 10
893.310
 20
-3223.457
 30
3377.000
 70
    32
  0
VERTEX
  8
1850LEVEL
 62
13
 10
820.412
 20
-3129.038
 30
3377.000
 70
    32
  0
VERTEX
  8
1850LEVEL
 62
13
 10
729.673
 20
-3030.918
 30
3377.000
 70
    32
  0
VERTEX
  8
1850LEVEL
 62
13
 10
639.357
 20
-2916.440
 30
3377.000
 70
    32
  0
VERTEX
  8
1850LEVEL
 62
13
 10
525.035
 20
-2766.661
 30
3377.000
 70
    32
  0
VERTEX
  8
1850LEVEL
 62
13
 10
420.200
 20
-2602.269
 30
3377.000
 70
    32
  0
VERTEX
  8
1850LEVEL
 62
13
 10
354.546
 20
-2476.186
 30
3377.000
 70
    32
  0
VERTEX
  8
1850LEVEL
 62
13
 10
424.557
 20
-2537.523
 30
3377.000
 70
    32
  0
VERTEX
  8
1850LEVEL
 62
13
 10
489.635
 20
-2614.982
 30
3377.000
 70
    32
  0
VERTEX
  8
1850LEVEL
 62
13
 10
585.268
 20
-2721.743
 30
3377.000
 70
    32
  0
VERTEX
  8
1850LEVEL
 62
13
 10
674.370
 20
-2797.602
 30
3377.000
 70
    32
  0
VERTEX
  8
1850LEVEL
 62
13
 10
748.954
 20
-2895.585
 30
3377.000
 70
    32
  0
VERTEX
  8
1850LEVEL
 62
13
 10
802.063
 20
-2998.116
 30
3377.000
 70
    32
  0
VERTEX
  8
1850LEVEL
 62
13
 10
833.656
 20
-3034.920
 30
3377.000
 70
    32
  0
VERTEX
  8
1850LEVEL
 62
13
 10
808.479
 20
-2962.271
 30
3377.000
 70
    32
  0
VERTEX
  8
1850LEVEL
 62
13
 10
743.241
 20
-2839.795
 30
3377.000
 70
    32
  0
VERTEX
  8
1850LEVEL
 62
13
 10
672.810
 20
-2725.814
 30
3377.000
 70
    32
  0
VERTEX
  8
1850LEVEL
 62
13
 10
600.286
 20
-2610.731
 30
3377.000
 70
    32
  0
VERTEX
  8
1850LEVEL
 62
13
 10
485.527
 20
-2468.209
 30
3377.000
 70
    32
  0
VERTEX
  8
1850LEVEL
 62
13
 10
357.723
 20
-2299.020
 30
3377.000
 70
    32
  0
VERTEX
  8
1850LEVEL
 62
13
 10
241.925
 20
-2148.997
 30
3377.000
 70
    32
  0
VERTEX
  8
1850LEVEL
 62
13
 10
170.899
 20
-2046.293
 30
3377.000
 70
    32
  0
VERTEX
  8
1850LEVEL
 62
13
 10
143.549
 20
-2003.168
 30
3377.000
 70
    32
  0
VERTEX
  8
1850LEVEL
 62
13
 10
108.135
 20
-1934.879
 30
3377.000
 70
    32
  0
VERTEX
  8
1850LEVEL
 62
13
 10
63.132
 20
-1857.025
 30
3377.000
 70
    32
  0
VERTEX
  8
1850LEVEL
 62
13
 10
36.435
 20
-1805.472
 30
3377.000
 70
    32
  0
VERTEX
  8
1850LEVEL
 62
13
 10
1.850
 20
-1738.321
 30
3377.000
 70
    32
  0
VERTEX
  8
1850LEVEL
 62
13
 10
-21.060
 20
-1693.157
 30
3377.000
 70
    32
  0
VERTEX
  8
1850LEVEL
 62
13
 10
-47.164
 20
-1639.429
 30
3377.000
 70
    32
  0
VERTEX
  8
1850LEVEL
 62
13
 10
-76.913
 20
-1589.665
 30
3377.000
 70
    32
  0
VERTEX
  8
1850LEVEL
 62
13
 10
-122.189
 20
-1542.509
 30
3377.000
 70
    32
  0
VERTEX
  8
1850LEVEL
 62
13
 10
-155.642
 20
-1490.654
 30
3377.000
 70
    32
  0
VERTEX
  8
1850LEVEL
 62
13
 10
-177.598
 20
-1442.616
 30
3377.000
 70
    32
  0
VERTEX
  8
1850LEVEL
 62
13
 10
-212.894
 20
-1407.354
 30
3377.000
 70
    32
  0
VERTEX
  8
1850LEVEL
 62
13
 10
-258.940
 20
-1365.116
 30
3377.000
 70
    32
  0
VERTEX
  8
1850LEVEL
 62
13
 10
-286.194
 20
-1302.641
 30
3377.000
 70
    32
  0
VERTEX
  8
1850LEVEL
 62
13
 10
-319.522
 20
-1246.774
 30
3377.000
 70
    32
  0
VERTEX
  8
1850LEVEL
 62
13
 10
-367.826
 20
-1178.734
 30
3377.000
 70
    32
  0
VERTEX
  8
1850LEVEL
 62
13
 10
-401.332
 20
-1104.696
 30
3377.000
 70
    32
  0
VERTEX
  8
1850LEVEL
 62
13
 10
-440.901
 20
-1046.844
 30
3377.000
 70
    32
  0
VERTEX
  8
1850LEVEL
 62
13
 10
-463.716
 20
-973.725
 30
3377.000
 70
    32
  0
VERTEX
  8
1850LEVEL
 62
13
 10
-485.938
 20
-898.432
 30
3377.000
 70
    32
  0
VERTEX
  8
1850LEVEL
 62
13
 10
-510.489
 20
-823.529
 30
3377.000
 70
    32
  0
VERTEX
  8
1850LEVEL
 62
13
 10
-536.594
 20
-811.629
 30
3377.000
 70
    32
  0
VERTEX
  8
1850LEVEL
 62
13
 10
-565.241
 20
-753.219
 30
3377.000
 70
    32
  0
VERTEX
  8
1850LEVEL
 62
13
 10
-613.254
 20
-668.846
 30
3377.000
 70
    32
  0
VERTEX
  8
1850LEVEL
 62
13
 10
-654.943
 20
-569.841
 30
3377.000
 70
    32
  0
VERTEX
  8
1850LEVEL
 62
13
 10
-666.664
 20
-509.547
 30
3377.000
 70
    32
  0
VERTEX
  8
1850LEVEL
 62
13
 10
-673.917
 20
-462.552
 30
3377.000
 70
    32
  0
VERTEX
  8
1850LEVEL
 62
13
 10
-616.036
 20
-509.667
 30
3377.000
 70
    32
  0
VERTEX
  8
1850LEVEL
 62
13
 10
-561.225
 20
-565.120
 30
3377.000
 70
    32
  0
VERTEX
  8
1850LEVEL
 62
13
 10
-504.619
 20
-628.413
 30
3377.000
 70
    32
  0
VERTEX
  8
1850LEVEL
 62
13
 10
-450.572
 20
-693.573
 30
3377.000
 70
    32
  0
VERTEX
  8
1850LEVEL
 62
13
 10
-414.542
 20
-757.927
 30
3377.000
 70
    32
  0
VERTEX
  8
1850LEVEL
 62
13
 10
-395.597
 20
-820.361
 30
3377.000
 70
    32
  0
VERTEX
  8
1850LEVEL
 62
13
 10
-376.888
 20
-879.481
 30
3377.000
 70
    32
  0
VERTEX
  8
1850LEVEL
 62
13
 10
-354.891
 20
-940.125
 30
3377.000
 70
    32
  0
VERTEX
  8
1850LEVEL
 62
13
 10
-322.665
 20
-983.725
 30
3377.000
 70
    32
  0
VERTEX
  8
1850LEVEL
 62
13
 10
-281.572
 20
-996.461
 30
3377.000
 70
    32
  0
VERTEX
  8
1850LEVEL
 62
13
 10
-263.172
 20
-1015.722
 30
3377.000
 70
    32
  0
VERTEX
  8
1850LEVEL
 62
13
 10
-232.948
 20
-1030.283
 30
3377.000
 70
    32
  0
VERTEX
  8
1850LEVEL
 62
13
 10
-198.351
 20
-1065.184
 30
3377.000
 70
    32
  0
VERTEX
  8
1850LEVEL
 62
13
 10
-164.767
 20
-1075.988
 30
3377.000
 70
    32
  0
VERTEX
  8
1850LEVEL
 62
13
 10
-195.239
 20
-1048.537
 30
3377.000
 70
    32
  0
VERTEX
  8
1850LEVEL
 62
13
 10
-230.376
 20
-1017.080
 30
3377.000
 70
    32
  0
VERTEX
  8
1850LEVEL
 62
13
 10
-254.211
 20
-998.731
 30
3377.000
 70
    32
  0
VERTEX
  8
1850LEVEL
 62
13
 10
-298.278
 20
-987.293
 30
3377.000
 70
    32
  0
VERTEX
  8
1850LEVEL
 62
13
 10
-335.299
 20
-959.824
 30
3377.000
 70
    32
  0
VERTEX
  8
1850LEVEL
 62
13
 10
-346.991
 20
-923.472
 30
3377.000
 70
    32
  0
VERTEX
  8
1850LEVEL
 62
13
 10
-333.568
 20
-894.078
 30
3377.000
 70
    32
  0
VERTEX
  8
1850LEVEL
 62
13
 10
-284.493
 20
-936.286
 30
3377.000
 70
    32
  0
VERTEX
  8
1850LEVEL
 62
13
 10
-243.555
 20
-970.920
 30
3377.000
 70
    32
  0
VERTEX
  8
1850LEVEL
 62
13
 10
-201.325
 20
-1003.740
 30
3377.000
 70
    32
  0
VERTEX
  8
1850LEVEL
 62
13
 10
-178.741
 20
-1036.507
 30
3377.000
 70
    32
  0
VERTEX
  8
1850LEVEL
 62
13
 10
-146.733
 20
-1070.245
 30
3377.000
 70
    32
  0
VERTEX
  8
1850LEVEL
 62
13
 10
-114.341
 20
-1101.525
 30
3377.000
 70
    32
  0
VERTEX
  8
1850LEVEL
 62
13
 10
-81.622
 20
-1103.374
 30
3377.000
 70
    32
  0
VERTEX
  8
1850LEVEL
 62
13
 10
-100.740
 20
-1090.301
 30
3377.000
 70
    32
  0
VERTEX
  8
1850LEVEL
 62
13
 10
-132.783
 20
-1069.659
 30
3377.000
 70
    32
  0
VERTEX
  8
1850LEVEL
 62
13
 10
-160.452
 20
-1048.443
 30
3377.000
 70
    32
  0
VERTEX
  8
1850LEVEL
 62
13
 10
-177.543
 20
-1020.820
 30
3377.000
 70
    32
  0
VERTEX
  8
1850LEVEL
 62
13
 10
-186.011
 20
-996.060
 30
3377.000
 70
    32
  0
VERTEX
  8
1850LEVEL
 62
13
 10
-215.198
 20
-982.921
 30
3377.000
 70
    32
  0
VERTEX
  8
1850LEVEL
 62
13
 10
-257.167
 20
-930.739
 30
3377.000
 70
    32
  0
VERTEX
  8
1850LEVEL
 62
13
 10
-308.701
 20
-888.147
 30
3377.000
 70
    32
  0
VERTEX
  8
1850LEVEL
 62
13
 10
-358.492
 20
-831.212
 30
3377.000
 70
    32
  0
VERTEX
  8
1850LEVEL
 62
13
 10
-364.134
 20
-790.013
 30
3377.000
 70
    32
  0
VERTEX
  8
1850LEVEL
 62
13
 10
-329.400
 20
-830.478
 30
3377.000
 70
    32
  0
VERTEX
  8
1850LEVEL
 62
13
 10
-327.094
 20
-790.019
 30
3377.000
 70
    32
  0
VERTEX
  8
1850LEVEL
 62
13
 10
-342.745
 20
-733.897
 30
3377.000
 70
    32
  0
VERTEX
  8
1850LEVEL
 62
13
 10
-371.913
 20
-672.382
 30
3377.000
 70
    32
  0
VERTEX
  8
1850LEVEL
 62
13
 10
-418.824
 20
-621.190
 30
3377.000
 70
    32
  0
VERTEX
  8
1850LEVEL
 62
13
 10
-478.103
 20
-531.525
 30
3377.000
 70
    32
  0
VERTEX
  8
1850LEVEL
 62
13
 10
-515.822
 20
-461.867
 30
3377.000
 70
    32
  0
VERTEX
  8
1850LEVEL
 62
13
 10
-499.673
 20
-460.113
 30
3377.000
 70
    32
  0
VERTEX
  8
1850LEVEL
 62
13
 10
-504.799
 20
-417.231
 30
3377.000
 70
    32
  0
VERTEX
  8
1850LEVEL
 62
13
 10
-523.134
 20
-346.074
 30
3377.000
 70
    32
  0
VERTEX
  8
1850LEVEL
 62
13
 10
-477.751
 20
-395.766
 30
3377.000
 70
    32
  0
VERTEX
  8
1850LEVEL
 62
13
 10
-434.283
 20
-467.333
 30
3377.000
 70
    32
  0
VERTEX
  8
1850LEVEL
 62
13
 10
-386.146
 20
-547.693
 30
3377.000
 70
    32
  0
VERTEX
  8
1850LEVEL
 62
13
 10
-354.334
 20
-611.638
 30
3377.000
 70
    32
  0
VERTEX
  8
1850LEVEL
 62
13
 10
-328.183
 20
-661.846
 30
3377.000
 70
    32
  0
VERTEX
  8
1850LEVEL
 62
13
 10
-267.967
 20
-713.358
 30
3377.000
 70
    32
  0
VERTEX
  8
1850LEVEL
 62
13
 10
-226.964
 20
-779.751
 30
3377.000
 70
    32
  0
VERTEX
  8
1850LEVEL
 62
13
 10
-212.902
 20
-849.230
 30
3377.000
 70
    32
  0
VERTEX
  8
1850LEVEL
 62
13
 10
-222.172
 20
-910.016
 30
3377.000
 70
    32
  0
VERTEX
  8
1850LEVEL
 62
13
 10
-189.703
 20
-961.717
 30
3377.000
 70
    32
  0
VERTEX
  8
1850LEVEL
 62
13
 10
-170.366
 20
-1005.566
 30
3377.000
 70
    32
  0
VERTEX
  8
1850LEVEL
 62
13
 10
-141.482
 20
-1046.375
 30
3377.000
 70
    32
  0
VERTEX
  8
1850LEVEL
 62
13
 10
-118.643
 20
-1054.992
 30
3377.000
 70
    32
  0
VERTEX
  8
1850LEVEL
 62
13
 10
-69.698
 20
-1096.423
 30
3377.000
 70
    32
  0
VERTEX
  8
1850LEVEL
 62
13
 10
-39.795
 20
-1145.203
 30
3377.000
 70
    32
  0
VERTEX
  8
1850LEVEL
 62
13
 10
-0.648
 20
-1218.612
 30
3377.000
 70
    32
  0
VERTEX
  8
1850LEVEL
 62
13
 10
26.583
 20
-1261.933
 30
3377.000
 70
    32
  0
VERTEX
  8
1850LEVEL
 62
13
 10
14.979
 20
-1297.408
 30
3377.000
 70
    32
  0
VERTEX
  8
1850LEVEL
 62
13
 10
4.749
 20
-1356.279
 30
3377.000
 70
    32
  0
VERTEX
  8
1850LEVEL
 62
13
 10
8.772
 20
-1407.808
 30
3377.000
 70
    32
  0
VERTEX
  8
1850LEVEL
 62
13
 10
23.884
 20
-1404.632
 30
3377.000
 70
    32
  0
VERTEX
  8
1850LEVEL
 62
13
 10
38.978
 20
-1428.918
 30
3377.000
 70
    32
  0
VERTEX
  8
1850LEVEL
 62
13
 10
83.957
 20
-1487.618
 30
3377.000
 70
    32
  0
VERTEX
  8
1850LEVEL
 62
13
 10
145.121
 20
-1552.381
 30
3377.000
 70
    32
  0
VERTEX
  8
1850LEVEL
 62
13
 10
182.627
 20
-1616.966
 30
3377.000
 70
    32
  0
VERTEX
  8
1850LEVEL
 62
13
 10
206.995
 20
-1668.910
 30
3377.000
 70
    32
  0
VERTEX
  8
1850LEVEL
 62
13
 10
235.322
 20
-1698.797
 30
3377.000
 70
    32
  0
VERTEX
  8
1850LEVEL
 62
13
 10
242.144
 20
-1668.117
 30
3377.000
 70
    32
  0
VERTEX
  8
1850LEVEL
 62
13
 10
235.092
 20
-1637.531
 30
3377.000
 70
    32
  0
VERTEX
  8
1850LEVEL
 62
13
 10
193.472
 20
-1595.987
 30
3377.000
 70
    32
  0
VERTEX
  8
1850LEVEL
 62
13
 10
158.775
 20
-1542.425
 30
3377.000
 70
    32
  0
VERTEX
  8
1850LEVEL
 62
13
 10
95.312
 20
-1460.168
 30
3377.000
 70
    32
  0
VERTEX
  8
1850LEVEL
 62
13
 10
48.348
 20
-1386.794
 30
3377.000
 70
    32
  0
VERTEX
  8
1850LEVEL
 62
13
 10
45.741
 20
-1329.440
 30
3377.000
 70
    32
  0
VERTEX
  8
1850LEVEL
 62
13
 10
36.231
 20
-1256.641
 30
3377.000
 70
    32
  0
VERTEX
  8
1850LEVEL
 62
13
 10
0.775
 20
-1175.747
 30
3377.000
 70
    32
  0
VERTEX
  8
1850LEVEL
 62
13
 10
-35.273
 20
-1097.028
 30
3377.000
 70
    32
  0
VERTEX
  8
1850LEVEL
 62
13
 10
9.766
 20
-1119.958
 30
3377.000
 70
    32
  0
VERTEX
  8
1850LEVEL
 62
13
 10
46.633
 20
-1169.324
 30
3377.000
 70
    32
  0
VERTEX
  8
1850LEVEL
 62
13
 10
91.844
 20
-1205.635
 30
3377.000
 70
    32
  0
VERTEX
  8
1850LEVEL
 62
13
 10
114.606
 20
-1235.658
 30
3377.000
 70
    32
  0
VERTEX
  8
1850LEVEL
 62
13
 10
107.691
 20
-1189.723
 30
3377.000
 70
    32
  0
VERTEX
  8
1850LEVEL
 62
13
 10
129.446
 20
-1221.352
 30
3377.000
 70
    32
  0
VERTEX
  8
1850LEVEL
 62
13
 10
148.989
 20
-1286.399
 30
3377.000
 70
    32
  0
VERTEX
  8
1850LEVEL
 62
13
 10
158.535
 20
-1346.100
 30
3377.000
 70
    32
  0
VERTEX
  8
1850LEVEL
 62
13
 10
174.867
 20
-1409.132
 30
3377.000
 70
    32
  0
VERTEX
  8
1850LEVEL
 62
13
 10
201.920
 20
-1434.284
 30
3377.000
 70
    32
  0
VERTEX
  8
1850LEVEL
 62
13
 10
209.481
 20
-1479.311
 30
3377.000
 70
    32
  0
VERTEX
  8
1850LEVEL
 62
13
 10
234.922
 20
-1540.495
 30
3377.000
 70
    32
  0
VERTEX
  8
1850LEVEL
 62
13
 10
246.246
 20
-1593.671
 30
3377.000
 70
    32
  0
VERTEX
  8
1850LEVEL
 62
13
 10
267.183
 20
-1633.739
 30
3377.000
 70
    32
  0
VERTEX
  8
1850LEVEL
 62
13
 10
290.289
 20
-1669.611
 30
3377.000
 70
    32
  0
VERTEX
  8
1850LEVEL
 62
13
 10
282.246
 20
-1696.824
 30
3377.000
 70
    32
  0
VERTEX
  8
1850LEVEL
 62
13
 10
295.094
 20
-1725.798
 30
3377.000
 70
    32
  0
VERTEX
  8
1850LEVEL
 62
13
 10
331.783
 20
-1736.081
 30
3377.000
 70
    32
  0
VERTEX
  8
1850LEVEL
 62
13
 10
358.231
 20
-1774.744
 30
3377.000
 70
    32
  0
VERTEX
  8
1850LEVEL
 62
13
 10
375.453
 20
-1803.143
 30
3377.000
 70
    32
  0
VERTEX
  8
1850LEVEL
 62
13
 10
377.189
 20
-1825.840
 30
3377.000
 70
    32
  0
VERTEX
  8
1850LEVEL
 62
13
 10
408.716
 20
-1869.079
 30
3377.000
 70
    32
  0
VERTEX
  8
1850LEVEL
 62
13
 10
434.007
 20
-1911.480
 30
3377.000
 70
    32
  0
VERTEX
  8
1850LEVEL
 62
13
 10
445.623
 20
-1942.209
 30
3377.000
 70
    32
  0
VERTEX
  8
1850LEVEL
 62
13
 10
475.716
 20
-2012.636
 30
3377.000
 70
    32
  0
VERTEX
  8
1850LEVEL
 62
13
 10
541.139
 20
-2123.263
 30
3377.000
 70
    32
  0
VERTEX
  8
1850LEVEL
 62
13
 10
604.516
 20
-2260.092
 30
3377.000
 70
    32
  0
VERTEX
  8
1850LEVEL
 62
13
 10
694.046
 20
-2417.664
 30
3377.000
 70
    32
  0
VERTEX
  8
1850LEVEL
 62
13
 10
745.353
 20
-2544.920
 30
3377.000
 70
    32
  0
VERTEX
  8
1850LEVEL
 62
13
 10
820.262
 20
-2640.935
 30
3377.000
 70
    32
  0
VERTEX
  8
1850LEVEL
 62
13
 10
948.099
 20
-2782.326
 30
3377.000
 70
    32
  0
VERTEX
  8
1850LEVEL
 62
13
 10
1041.546
 20
-2905.410
 30
3377.000
 70
    32
  0
VERTEX
  8
1850LEVEL
 62
13
 10
1116.974
 20
-3016.675
 30
3377.000
 70
    32
  0
VERTEX
  8
1850LEVEL
 62
13
 10
1208.881
 20
-3126.108
 30
3377.000
 70
    32
  0
VERTEX
  8
1850LEVEL
 62
13
 10
1275.967
 20
-3179.128
 30
3377.000
 70
    32
  0
VERTEX
  8
1850LEVEL
 62
13
 10
1350.538
 20
-3222.007
 30
3377.000
 70
    32
  0
VERTEX
  8
1850LEVEL
 62
13
 10
1426.654
 20
-3304.572
 30
3377.000
 70
    32
  0
VERTEX
  8
1850LEVEL
 62
13
 10
1501.119
 20
-3404.810
 30
3377.000
 70
    32
  0
VERTEX
  8
1850LEVEL
 62
13
 10
1554.301
 20
-3454.779
 30
3377.000
 70
    32
  0
VERTEX
  8
1850LEVEL
 62
13
 10
1551.587
 20
-3426.780
 30
3377.000
 70
    32
  0
VERTEX
  8
1850LEVEL
 62
13
 10
1507.195
 20
-3361.832
 30
3377.000
 70
    32
  0
VERTEX
  8
1850LEVEL
 62
13
 10
1456.584
 20
-3280.945
 30
3377.000
 70
    32
  0
VERTEX
  8
1850LEVEL
 62
13
 10
1478.628
 20
-3272.953
 30
3377.000
 70
    32
  0
VERTEX
  8
1850LEVEL
 62
13
 10
1538.021
 20
-3358.826
 30
3377.000
 70
    32
  0
VERTEX
  8
1850LEVEL
 62
13
 10
1592.613
 20
-3441.633
 30
3377.000
 70
    32
  0
VERTEX
  8
1850LEVEL
 62
13
 10
1650.276
 20
-3522.672
 30
3377.000
 70
    32
  0
VERTEX
  8
1850LEVEL
 62
13
 10
1662.912
 20
-3597.803
 30
3377.000
 70
    32
  0
VERTEX
  8
1850LEVEL
 62
13
 10
1685.673
 20
-3625.315
 30
3377.000
 70
    32
  0
VERTEX
  8
1850LEVEL
 62
13
 10
1691.661
 20
-3602.796
 30
3377.000
 70
    32
  0
VERTEX
  8
1850LEVEL
 62
13
 10
1727.325
 20
-3670.096
 30
3377.000
 70
    32
  0
VERTEX
  8
1850LEVEL
 62
13
 10
1769.857
 20
-3749.398
 30
3377.000
 70
    32
  0
VERTEX
  8
1850LEVEL
 62
13
 10
1816.093
 20
-3813.893
 30
3377.000
 70
    32
  0
VERTEX
  8
1850LEVEL
 62
13
 10
1874.721
 20
-3859.957
 30
3377.000
 70
    32
  0
VERTEX
  8
1850LEVEL
 62
13
 10
1841.555
 20
-3814.300
 30
3377.000
 70
    32
  0
VERTEX
  8
1850LEVEL
 62
13
 10
1794.794
 20
-3731.520
 30
3377.000
 70
    32
  0
VERTEX
  8
1850LEVEL
 62
13
 10
1750.657
 20
-3648.162
 30
3377.000
 70
    32
  0
VERTEX
  8
1850LEVEL
 62
13
 10
1709.931
 20
-3593.170
 30
3377.000
 70
    32
  0
VERTEX
  8
1850LEVEL
 62
13
 10
1671.000
 20
-3533.419
 30
3377.000
 70
    32
  0
VERTEX
  8
1850LEVEL
 62
13
 10
1623.754
 20
-3430.591
 30
3377.000
 70
    32
  0
VERTEX
  8
1850LEVEL
 62
13
 10
1616.548
 20
-3365.455
 30
3377.000
 70
    32
  0
VERTEX
  8
1850LEVEL
 62
13
 10
1649.239
 20
-3397.132
 30
3377.000
 70
    32
  0
VERTEX
  8
1850LEVEL
 62
13
 10
1689.055
 20
-3471.437
 30
3377.000
 70
    32
  0
VERTEX
  8
1850LEVEL
 62
13
 10
1734.924
 20
-3536.629
 30
3377.000
 70
    32
  0
VERTEX
  8
1850LEVEL
 62
13
 10
1749.397
 20
-3536.235
 30
3377.000
 70
    32
  0
VERTEX
  8
1850LEVEL
 62
13
 10
1820.904
 20
-3632.952
 30
3377.000
 70
    32
  0
VERTEX
  8
1850LEVEL
 62
13
 10
1885.382
 20
-3718.653
 30
3377.000
 70
    32
  0
VERTEX
  8
1850LEVEL
 62
13
 10
1907.330
 20
-3797.089
 30
3377.000
 70
    32
  0
VERTEX
  8
1850LEVEL
 62
13
 10
1932.368
 20
-3836.856
 30
3377.000
 70
    32
  0
VERTEX
  8
1850LEVEL
 62
13
 10
1970.964
 20
-3869.507
 30
3377.000
 70
    32
  0
VERTEX
  8
1850LEVEL
 62
13
 10
2010.952
 20
-3876.858
 30
3377.000
 70
    32
  0
VERTEX
  8
1850LEVEL
 62
13
 10
2034.336
 20
-3885.264
 30
3377.000
 70
    32
  0
VERTEX
  8
1850LEVEL
 62
13
 10
2026.469
 20
-3863.999
 30
3377.000
 70
    32
  0
VERTEX
  8
1850LEVEL
 62
13
 10
1997.066
 20
-3836.908
 30
3377.000
 70
    32
  0
VERTEX
  8
1850LEVEL
 62
13
 10
2013.042
 20
-3828.926
 30
3377.000
 70
    32
  0
VERTEX
  8
1850LEVEL
 62
13
 10
2205.689
 20
-3988.081
 30
3377.000
 70
    32
  0
VERTEX
  8
1850LEVEL
 62
13
 10
2274.559
 20
-4053.274
 30
3377.000
 70
    32
  0
VERTEX
  8
1850LEVEL
 62
13
 10
2340.556
 20
-4140.489
 30
3377.000
 70
    32
  0
VERTEX
  8
1850LEVEL
 62
13
 10
2446.565
 20
-4296.228
 30
3377.000
 70
    32
  0
VERTEX
  8
1850LEVEL
 62
13
 10
2545.365
 20
-4455.833
 30
3377.000
 70
    32
  0
VERTEX
  8
1850LEVEL
 62
13
 10
2614.238
 20
-4570.062
 30
3377.000
 70
    32
  0
VERTEX
  8
1850LEVEL
 62
13
 10
2684.268
 20
-4689.537
 30
3377.000
 70
    32
  0
VERTEX
  8
1850LEVEL
 62
13
 10
2764.060
 20
-4811.127
 30
3377.000
 70
    32
  0
VERTEX
  8
1850LEVEL
 62
13
 10
2846.392
 20
-4955.631
 30
3377.000
 70
    32
  0
VERTEX
  8
1850LEVEL
 62
13
 10
2924.681
 20
-5061.808
 30
3377.000
 70
    32
  0
VERTEX
  8
1850LEVEL
 62
13
 10
2989.217
 20
-5180.883
 30
3377.000
 70
    32
  0
VERTEX
  8
1850LEVEL
 62
13
 10
3066.066
 20
-5308.054
 30
3377.000
 70
    32
  0
VERTEX
  8
1850LEVEL
 62
13
 10
3111.226
 20
-5389.811
 30
3377.000
 70
    32
  0
VERTEX
  8
1850LEVEL
 62
13
 10
3126.515
 20
-5387.530
 30
3377.000
 70
    32
  0
VERTEX
  8
1850LEVEL
 62
13
 10
3107.513
 20
-5329.548
 30
3377.000
 70
    32
  0
VERTEX
  8
1850LEVEL
 62
13
 10
3147.603
 20
-5348.543
 30
3377.000
 70
    32
  0
VERTEX
  8
1850LEVEL
 62
13
 10
3118.722
 20
-5267.701
 30
3377.000
 70
    32
  0
VERTEX
  8
1850LEVEL
 62
13
 10
3165.441
 20
-5303.207
 30
3377.000
 70
    32
  0
VERTEX
  8
1850LEVEL
 62
13
 10
3215.817
 20
-5342.603
 30
3377.000
 70
    32
  0
VERTEX
  8
1850LEVEL
 62
13
 10
3156.365
 20
-5223.355
 30
3377.000
 70
    32
  0
VERTEX
  8
1850LEVEL
 62
13
 10
3075.485
 20
-5112.960
 30
3377.000
 70
    32
  0
VERTEX
  8
1850LEVEL
 62
13
 10
3007.953
 20
-5015.129
 30
3377.000
 70
    32
  0
VERTEX
  8
1850LEVEL
 62
13
 10
2990.060
 20
-4958.088
 30
3377.000
 70
    32
  0
VERTEX
  8
1850LEVEL
 62
13
 10
3066.729
 20
-5005.105
 30
3377.000
 70
    32
  0
VERTEX
  8
1850LEVEL
 62
13
 10
3014.165
 20
-4932.995
 30
3377.000
 70
    32
  0
VERTEX
  8
1850LEVEL
 62
13
 10
2945.578
 20
-4841.562
 30
3377.000
 70
    32
  0
VERTEX
  8
1850LEVEL
 62
13
 10
2875.049
 20
-4741.972
 30
3377.000
 70
    32
  0
SEQEND
  8
1850LEVEL
  0
POLYLINE
  8
1850LEVEL
 62
13
 66
     1
 70
     8
  0
VERTEX
  8
1850LEVEL
 62
13
 10
-660.536
 20
-1162.112
 30
3377.000
 70
    32
  0
VERTEX
  8
1850LEVEL
 62
13
 10
-559.170
 20
-1357.899
 30
3377.000
 70
    32
  0
VERTEX
  8
1850LEVEL
 62
13
 10
-468.549
 20
-1509.672
 30
3377.000
 70
    32
  0
VERTEX
  8
1850LEVEL
 62
13
 10
-396.547
 20
-1653.237
 30
3377.000
 70
    32
  0
VERTEX
  8
1850LEVEL
 62
13
 10
-337.548
 20
-1810.639
 30
3377.000
 70
    32
  0
VERTEX
  8
1850LEVEL
 62
13
 10
-267.828
 20
-1951.075
 30
3377.000
 70
    32
  0
VERTEX
  8
1850LEVEL
 62
13
 10
-181.135
 20
-2086.106
 30
3377.000
 70
    32
  0
VERTEX
  8
1850LEVEL
 62
13
 10
-124.932
 20
-2179.322
 30
3377.000
 70
    32
  0
VERTEX
  8
1850LEVEL
 62
13
 10
-88.631
 20
-2234.523
 30
3377.000
 70
    32
  0
VERTEX
  8
1850LEVEL
 62
13
 10
24.106
 20
-2392.381
 30
3377.000
 70
    32
  0
VERTEX
  8
1850LEVEL
 62
13
 10
149.913
 20
-2569.077
 30
3377.000
 70
    32
  0
VERTEX
  8
1850LEVEL
 62
13
 10
263.401
 20
-2734.643
 30
3377.000
 70
    32
  0
VERTEX
  8
1850LEVEL
 62
13
 10
376.300
 20
-2891.517
 30
3377.000
 70
    32
  0
VERTEX
  8
1850LEVEL
 62
13
 10
471.180
 20
-3013.573
 30
3377.000
 70
    32
  0
VERTEX
  8
1850LEVEL
 62
13
 10
587.989
 20
-3178.928
 30
3377.000
 70
    32
  0
VERTEX
  8
1850LEVEL
 62
13
 10
646.232
 20
-3239.588
 30
3377.000
 70
    32
  0
VERTEX
  8
1850LEVEL
 62
13
 10
674.575
 20
-3270.043
 30
3377.000
 70
    32
  0
VERTEX
  8
1850LEVEL
 62
13
 10
750.370
 20
-3380.611
 30
3377.000
 70
    32
  0
VERTEX
  8
1850LEVEL
 62
13
 10
828.128
 20
-3511.471
 30
3377.000
 70
    32
  0
VERTEX
  8
1850LEVEL
 62
13
 10
884.932
 20
-3593.126
 30
3377.000
 70
    32
  0
VERTEX
  8
1850LEVEL
 62
13
 10
842.368
 20
-3495.620
 30
3377.000
 70
    32
  0
VERTEX
  8
1850LEVEL
 62
13
 10
774.724
 20
-3357.076
 30
3377.000
 70
    32
  0
VERTEX
  8
1850LEVEL
 62
13
 10
817.988
 20
-3385.947
 30
3377.000
 70
    32
  0
VERTEX
  8
1850LEVEL
 62
13
 10
884.908
 20
-3508.953
 30
3377.000
 70
    32
  0
VERTEX
  8
1850LEVEL
 62
13
 10
929.582
 20
-3570.662
 30
3377.000
 70
    32
  0
VERTEX
  8
1850LEVEL
 62
13
 10
901.335
 20
-3476.781
 30
3377.000
 70
    32
  0
VERTEX
  8
1850LEVEL
 62
13
 10
846.474
 20
-3357.279
 30
3377.000
 70
    32
  0
VERTEX
  8
1850LEVEL
 62
13
 10
894.216
 20
-3391.186
 30
3377.000
 70
    32
  0
VERTEX
  8
1850LEVEL
 62
13
 10
961.029
 20
-3499.514
 30
3377.000
 70
    32
  0
VERTEX
  8
1850LEVEL
 62
13
 10
1036.026
 20
-3575.070
 30
3377.000
 70
    32
  0
VERTEX
  8
1850LEVEL
 62
13
 10
1103.159
 20
-3655.395
 30
3377.000
 70
    32
  0
VERTEX
  8
1850LEVEL
 62
13
 10
1184.178
 20
-3775.671
 30
3377.000
 70
    32
  0
VERTEX
  8
1850LEVEL
 62
13
 10
1228.533
 20
-3842.383
 30
3377.000
 70
    32
  0
VERTEX
  8
1850LEVEL
 62
13
 10
1291.515
 20
-3987.741
 30
3377.000
 70
    32
  0
VERTEX
  8
1850LEVEL
 62
13
 10
1396.437
 20
-4131.673
 30
3377.000
 70
    32
  0
VERTEX
  8
1850LEVEL
 62
13
 10
1468.568
 20
-4209.284
 30
3377.000
 70
    32
  0
VERTEX
  8
1850LEVEL
 62
13
 10
1541.752
 20
-4303.497
 30
3377.000
 70
    32
  0
VERTEX
  8
1850LEVEL
 62
13
 10
1639.446
 20
-4393.158
 30
3377.000
 70
    32
  0
VERTEX
  8
1850LEVEL
 62
13
 10
1584.812
 20
-4309.080
 30
3377.000
 70
    32
  0
VERTEX
  8
1850LEVEL
 62
13
 10
1535.391
 20
-4205.642
 30
3377.000
 70
    32
  0
VERTEX
  8
1850LEVEL
 62
13
 10
1475.950
 20
-4092.462
 30
3377.000
 70
    32
  0
VERTEX
  8
1850LEVEL
 62
13
 10
1387.295
 20
-3966.378
 30
3377.000
 70
    32
  0
VERTEX
  8
1850LEVEL
 62
13
 10
1347.306
 20
-3863.988
 30
3377.000
 70
    32
  0
VERTEX
  8
1850LEVEL
 62
13
 10
1288.356
 20
-3773.891
 30
3377.000
 70
    32
  0
VERTEX
  8
1850LEVEL
 62
13
 10
1182.907
 20
-3607.858
 30
3377.000
 70
    32
  0
SEQEND
  8
1850LEVEL
  0
POLYLINE
  8
1850LEVEL
 62
7
 66
     1
 70
     8
  0
VERTEX
  8
1850LEVEL
 62
7
 10
3031.203
 20
-2229.764
 30
3377.000
 70
    32
  0
VERTEX
  8
1850LEVEL
 62
7
 10
3018.009
 20
-2305.185
 30
3377.000
 70
    32
  0
VERTEX
  8
1850LEVEL
 62
7
 10
2967.068
 20
-2341.272
 30
3377.000
 70
    32
  0
VERTEX
  8
1850LEVEL
 62
7
 10
2931.334
 20
-2398.569
 30
3377.000
 70
    32
  0
SEQEND
  8
1850LEVEL
  0
LINE
  8
1850LEVEL
 62
7
 10
1839.555
 20
-3205.578
 30
3377.000
 11
1831.524
 21
-3208.298
 31
3377.000
  0
POLYLINE
  8
1850LEVEL
 62
7
 66
     1
 70
     8
  0
VERTEX
  8
1850LEVEL
 62
7
 10
-2167.004
 20
516.165
 30
3377.000
 70
    32
  0
VERTEX
  8
1850LEVEL
 62
7
 10
-2211.047
 20
571.191
 30
3377.000
 70
    32
  0
VERTEX
  8
1850LEVEL
 62
7
 10
-2257.324
 20
632.867
 30
3377.000
 70
    32
  0
VERTEX
  8
1850LEVEL
 62
7
 10
-2297.670
 20
648.762
 30
3377.000
 70
    32
  0
VERTEX
  8
1850LEVEL
 62
7
 10
-2265.313
 20
604.385
 30
3377.000
 70
    32
  0
VERTEX
  8
1850LEVEL
 62
7
 10
-2245.787
 20
574.617
 30
3377.000
 70
    32
  0
VERTEX
  8
1850LEVEL
 62
7
 10
-2236.329
 20
544.915
 30
3377.000
 70
    32
  0
VERTEX
  8
1850LEVEL
 62
7
 10
-2198.325
 20
496.378
 30
3377.000
 70
    32
  0
SEQEND
  8
1850LEVEL
  0
POLYLINE
  8
1850LEVEL
 62
7
 66
     1
 70
     8
  0
VERTEX
  8
1850LEVEL
 62
7
 10
-1533.556
 20
-1459.257
 30
3377.000
 70
    32
  0
VERTEX
  8
1850LEVEL
 62
7
 10
-1500.868
 20
-1520.820
 30
3377.000
 70
    32
  0
VERTEX
  8
1850LEVEL
 62
7
 10
-1453.293
 20
-1606.384
 30
3377.000
 70
    32
  0
VERTEX
  8
1850LEVEL
 62
7
 10
-1396.782
 20
-1697.632
 30
3377.000
 70
    32
  0
VERTEX
  8
1850LEVEL
 62
7
 10
-1334.025
 20
-1816.567
 30
3377.000
 70
    32
  0
SEQEND
  8
1850LEVEL
  0
POLYLINE
  8
1850LEVEL
 62
7
 66
     1
 70
     8
  0
VERTEX
  8
1850LEVEL
 62
7
 10
-1282.001
 20
-1284.988
 30
3377.000
 70
    32
  0
VERTEX
  8
1850LEVEL
 62
7
 10
-1238.900
 20
-1352.465
 30
3377.000
 70
    32
  0
VERTEX
  8
1850LEVEL
 62
7
 10
-1188.671
 20
-1429.122
 30
3377.000
 70
    32
  0
VERTEX
  8
1850LEVEL
 62
7
 10
-1138.423
 20
-1499.231
 30
3377.000
 70
    32
  0
VERTEX
  8
1850LEVEL
 62
7
 10
-1110.381
 20
-1550.239
 30
3377.000
 70
    32
  0
VERTEX
  8
1850LEVEL
 62
7
 10
-1069.005
 20
-1625.509
 30
3377.000
 70
    32
  0
VERTEX
  8
1850LEVEL
 62
7
 10
-1051.742
 20
-1666.513
 30
3377.000
 70
    32
  0
VERTEX
  8
1850LEVEL
 62
7
 10
-1080.703
 20
-1626.196
 30
3377.000
 70
    32
  0
VERTEX
  8
1850LEVEL
 62
7
 10
-1113.392
 20
-1564.633
 30
3377.000
 70
    32
  0
VERTEX
  8
1850LEVEL
 62
7
 10
-1147.265
 20
-1507.421
 30
3377.000
 70
    32
  0
VERTEX
  8
1850LEVEL
 62
7
 10
-1163.538
 20
-1492.273
 30
3377.000
 70
    32
  0
VERTEX
  8
1850LEVEL
 62
7
 10
-1114.145
 20
-1583.917
 30
3377.000
 70
    32
  0
VERTEX
  8
1850LEVEL
 62
7
 10
-1070.783
 20
-1652.947
 30
3377.000
 70
    32
  0
VERTEX
  8
1850LEVEL
 62
7
 10
-1056.709
 20
-1690.176
 30
3377.000
 70
    32
  0
SEQEND
  8
1850LEVEL
  0
POLYLINE
  8
1850LEVEL
 62
7
 66
     1
 70
     9
  0
VERTEX
  8
1850LEVEL
 62
7
 10
-1231.201
 20
-1298.489
 30
3377.000
 70
    32
  0
VERTEX
  8
1850LEVEL
 62
7
 10
-1206.964
 20
-1349.657
 30
3377.000
 70
    32
  0
VERTEX
  8
1850LEVEL
 62
7
 10
-1150.991
 20
-1423.434
 30
3377.000
 70
    32
  0
VERTEX
  8
1850LEVEL
 62
7
 10
-1102.273
 20
-1512.957
 30
3377.000
 70
    32
  0
VERTEX
  8
1850LEVEL
 62
7
 10
-1128.171
 20
-1501.341
 30
3377.000
 70
    32
  0
VERTEX
  8
1850LEVEL
 62
7
 10
-1165.120
 20
-1426.764
 30
3377.000
 70
    32
  0
VERTEX
  8
1850LEVEL
 62
7
 10
-1204.872
 20
-1366.867
 30
3377.000
 70
    32
  0
VERTEX
  8
1850LEVEL
 62
7
 10
-1167.562
 20
-1440.744
 30
3377.000
 70
    32
  0
VERTEX
  8
1850LEVEL
 62
7
 10
-1216.002
 20
-1367.139
 30
3377.000
 70
    32
  0
VERTEX
  8
1850LEVEL
 62
7
 10
-1238.342
 20
-1300.646
 30
3377.000
 70
    32
  0
SEQEND
  8
1850LEVEL
  0
POLYLINE
  8
1850LEVEL
 62
7
 66
     1
 70
     9
  0
VERTEX
  8
1850LEVEL
 62
7
 10
326.631
 20
-1841.355
 30
3377.000
 70
    32
  0
VERTEX
  8
1850LEVEL
 62
7
 10
305.778
 20
-1805.583
 30
3377.000
 70
    32
  0
VERTEX
  8
1850LEVEL
 62
7
 10
297.351
 20
-1772.515
 30
3377.000
 70
    32
  0
VERTEX
  8
1850LEVEL
 62
7
 10
266.446
 20
-1730.130
 30
3377.000
 70
    32
  0
VERTEX
  8
1850LEVEL
 62
7
 10
241.728
 20
-1730.289
 30
3377.000
 70
    32
  0
VERTEX
  8
1850LEVEL
 62
7
 10
254.967
 20
-1761.592
 30
3377.000
 70
    32
  0
VERTEX
  8
1850LEVEL
 62
7
 10
285.723
 20
-1788.835
 30
3377.000
 70
    32
  0
VERTEX
  8
1850LEVEL
 62
7
 10
292.177
 20
-1816.807
 30
3377.000
 70
    32
  0
VERTEX
  8
1850LEVEL
 62
7
 10
316.308
 20
-1844.525
 30
3377.000
 70
    32
  0
SEQEND
  8
1850LEVEL
  0
POLYLINE
  8
1850LEVEL
 62
7
 66
     1
 70
     8
  0
VERTEX
  8
1850LEVEL
 62
7
 10
1192.288
 20
-3605.384
 30
3377.000
 70
    32
  0
VERTEX
  8
1850LEVEL
 62
7
 10
1250.984
 20
-3690.890
 30
3377.000
 70
    32
  0
VERTEX
  8
1850LEVEL
 62
7
 10
1343.323
 20
-3813.032
 30
3377.000
 70
    32
  0
VERTEX
  8
1850LEVEL
 62
7
 10
1399.731
 20
-3903.216
 30
3377.000
 70
    32
  0
VERTEX
  8
1850LEVEL
 62
7
 10
1465.900
 20
-4018.516
 30
3377.000
 70
    32
  0
VERTEX
  8
1850LEVEL
 62
7
 10
1544.054
 20
-4117.846
 30
3377.000
 70
    32
  0
VERTEX
  8
1850LEVEL
 62
7
 10
1593.978
 20
-4204.433
 30
3377.000
 70
    32
  0
VERTEX
  8
1850LEVEL
 62
7
 10
1657.697
 20
-4325.395
 30
3377.000
 70
    32
  0
VERTEX
  8
1850LEVEL
 62
7
 10
1735.553
 20
-4441.863
 30
3377.000
 70
    32
  0
VERTEX
  8
1850LEVEL
 62
7
 10
1825.769
 20
-4616.735
 30
3377.000
 70
    32
  0
VERTEX
  8
1850LEVEL
 62
7
 10
1916.587
 20
-4760.364
 30
3377.000
 70
    32
  0
VERTEX
  8
1850LEVEL
 62
7
 10
1978.304
 20
-4885.798
 30
3377.000
 70
    32
  0
VERTEX
  8
1850LEVEL
 62
7
 10
2022.348
 20
-5009.583
 30
3377.000
 70
    32
  0
VERTEX
  8
1850LEVEL
 62
7
 10
2077.327
 20
-5126.829
 30
3377.000
 70
    32
  0
VERTEX
  8
1850LEVEL
 62
7
 10
2115.062
 20
-5206.098
 30
3377.000
 70
    32
  0
VERTEX
  8
1850LEVEL
 62
7
 10
2127.688
 20
-5252.160
 30
3377.000
 70
    32
  0
VERTEX
  8
1850LEVEL
 62
7
 10
2106.888
 20
-5244.939
 30
3377.000
 70
    32
  0
VERTEX
  8
1850LEVEL
 62
7
 10
2031.264
 20
-5162.455
 30
3377.000
 70
    32
  0
VERTEX
  8
1850LEVEL
 62
7
 10
1988.954
 20
-5092.542
 30
3377.000
 70
    32
  0
VERTEX
  8
1850LEVEL
 62
7
 10
1949.219
 20
-4994.744
 30
3377.000
 70
    32
  0
VERTEX
  8
1850LEVEL
 62
7
 10
1887.609
 20
-4883.988
 30
3377.000
 70
    32
  0
VERTEX
  8
1850LEVEL
 62
7
 10
1809.477
 20
-4773.793
 30
3377.000
 70
    32
  0
VERTEX
  8
1850LEVEL
 62
7
 10
1717.841
 20
-4678.053
 30
3377.000
 70
    32
  0
VERTEX
  8
1850LEVEL
 62
7
 10
1622.599
 20
-4536.728
 30
3377.000
 70
    32
  0
VERTEX
  8
1850LEVEL
 62
7
 10
1545.884
 20
-4416.404
 30
3377.000
 70
    32
  0
VERTEX
  8
1850LEVEL
 62
7
 10
1468.823
 20
-4308.913
 30
3377.000
 70
    32
  0
VERTEX
  8
1850LEVEL
 62
7
 10
1415.692
 20
-4217.247
 30
3377.000
 70
    32
  0
VERTEX
  8
1850LEVEL
 62
7
 10
1337.878
 20
-4125.051
 30
3377.000
 70
    32
  0
VERTEX
  8
1850LEVEL
 62
7
 10
1265.754
 20
-4027.473
 30
3377.000
 70
    32
  0
VERTEX
  8
1850LEVEL
 62
7
 10
1206.545
 20
-3929.750
 30
3377.000
 70
    32
  0
VERTEX
  8
1850LEVEL
 62
7
 10
1123.033
 20
-3790.865
 30
3377.000
 70
    32
  0
VERTEX
  8
1850LEVEL
 62
7
 10
1055.966
 20
-3677.945
 30
3377.000
 70
    32
  0
VERTEX
  8
1850LEVEL
 62
7
 10
1006.587
 20
-3621.779
 30
3377.000
 70
    32
  0
VERTEX
  8
1850LEVEL
 62
7
 10
949.409
 20
-3560.788
 30
3377.000
 70
    32
  0
VERTEX
  8
1850LEVEL
 62
7
 10
996.267
 20
-3652.177
 30
3377.000
 70
    32
  0
VERTEX
  8
1850LEVEL
 62
7
 10
1061.830
 20
-3772.685
 30
3377.000
 70
    32
  0
VERTEX
  8
1850LEVEL
 62
7
 10
1016.901
 20
-3729.385
 30
3377.000
 70
    32
  0
VERTEX
  8
1850LEVEL
 62
7
 10
915.016
 20
-3611.483
 30
3377.000
 70
    32
  0
VERTEX
  8
1850LEVEL
 62
7
 10
972.749
 20
-3708.962
 30
3377.000
 70
    32
  0
VERTEX
  8
1850LEVEL
 62
7
 10
1054.570
 20
-3818.249
 30
3377.000
 70
    32
  0
VERTEX
  8
1850LEVEL
 62
7
 10
1127.246
 20
-3903.279
 30
3377.000
 70
    32
  0
VERTEX
  8
1850LEVEL
 62
7
 10
1163.305
 20
-3962.051
 30
3377.000
 70
    32
  0
VERTEX
  8
1850LEVEL
 62
7
 10
1113.417
 20
-3919.703
 30
3377.000
 70
    32
  0
VERTEX
  8
1850LEVEL
 62
7
 10
1033.271
 20
-3853.914
 30
3377.000
 70
    32
  0
VERTEX
  8
1850LEVEL
 62
7
 10
946.063
 20
-3758.905
 30
3377.000
 70
    32
  0
VERTEX
  8
1850LEVEL
 62
7
 10
902.456
 20
-3673.865
 30
3377.000
 70
    32
  0
VERTEX
  8
1850LEVEL
 62
7
 10
858.610
 20
-3593.336
 30
3377.000
 70
    32
  0
VERTEX
  8
1850LEVEL
 62
7
 10
776.330
 20
-3479.171
 30
3377.000
 70
    32
  0
VERTEX
  8
1850LEVEL
 62
7
 10
642.037
 20
-3303.351
 30
3377.000
 70
    32
  0
VERTEX
  8
1850LEVEL
 62
7
 10
495.728
 20
-3125.296
 30
3377.000
 70
    32
  0
VERTEX
  8
1850LEVEL
 62
7
 10
345.721
 20
-2919.081
 30
3377.000
 70
    32
  0
VERTEX
  8
1850LEVEL
 62
7
 10
250.511
 20
-2772.959
 30
3377.000
 70
    32
  0
VERTEX
  8
1850LEVEL
 62
7
 10
152.479
 20
-2630.163
 30
3377.000
 70
    32
  0
VERTEX
  8
1850LEVEL
 62
7
 10
37.709
 20
-2458.573
 30
3377.000
 70
    32
  0
VERTEX
  8
1850LEVEL
 62
7
 10
-42.618
 20
-2335.630
 30
3377.000
 70
    32
  0
VERTEX
  8
1850LEVEL
 62
7
 10
-107.712
 20
-2249.070
 30
3377.000
 70
    32
  0
VERTEX
  8
1850LEVEL
 62
7
 10
-173.793
 20
-2142.187
 30
3377.000
 70
    32
  0
VERTEX
  8
1850LEVEL
 62
7
 10
-262.922
 20
-2005.010
 30
3377.000
 70
    32
  0
VERTEX
  8
1850LEVEL
 62
7
 10
-342.995
 20
-1864.717
 30
3377.000
 70
    32
  0
VERTEX
  8
1850LEVEL
 62
7
 10
-408.217
 20
-1740.608
 30
3377.000
 70
    32
  0
VERTEX
  8
1850LEVEL
 62
7
 10
-448.354
 20
-1641.342
 30
3377.000
 70
    32
  0
VERTEX
  8
1850LEVEL
 62
7
 10
-489.452
 20
-1581.990
 30
3377.000
 70
    32
  0
VERTEX
  8
1850LEVEL
 62
7
 10
-503.296
 20
-1626.940
 30
3377.000
 70
    32
  0
VERTEX
  8
1850LEVEL
 62
7
 10
-552.240
 20
-1585.509
 30
3377.000
 70
    32
  0
VERTEX
  8
1850LEVEL
 62
7
 10
-640.729
 20
-1463.551
 30
3377.000
 70
    32
  0
VERTEX
  8
1850LEVEL
 62
7
 10
-721.668
 20
-1335.217
 30
3377.000
 70
    32
  0
VERTEX
  8
1850LEVEL
 62
7
 10
-795.721
 20
-1228.875
 30
3377.000
 70
    32
  0
SEQEND
  8
1850LEVEL
  0
POLYLINE
  8
1850LEVEL
 62
7
 66
     1
 70
     8
  0
VERTEX
  8
1850LEVEL
 62
7
 10
2558.633
 20
-4304.848
 30
3377.000
 70
    32
  0
VERTEX
  8
1850LEVEL
 62
7
 10
2471.859
 20
-4176.546
 30
3377.000
 70
    32
  0
VERTEX
  8
1850LEVEL
 62
7
 10
2408.290
 20
-4094.534
 30
3377.000
 70
    32
  0
VERTEX
  8
1850LEVEL
 62
7
 10
2337.897
 20
-4001.792
 30
3377.000
 70
    32
  0
VERTEX
  8
1850LEVEL
 62
7
 10
2248.900
 20
-3891.574
 30
3377.000
 70
    32
  0
VERTEX
  8
1850LEVEL
 62
7
 10
2194.086
 20
-3822.380
 30
3377.000
 70
    32
  0
VERTEX
  8
1850LEVEL
 62
7
 10
2229.579
 20
-3838.595
 30
3377.000
 70
    32
  0
VERTEX
  8
1850LEVEL
 62
7
 10
2202.227
 20
-3788.336
 30
3377.000
 70
    32
  0
VERTEX
  8
1850LEVEL
 62
7
 10
2172.780
 20
-3741.533
 30
3377.000
 70
    32
  0
VERTEX
  8
1850LEVEL
 62
7
 10
2127.180
 20
-3665.859
 30
3377.000
 70
    32
  0
VERTEX
  8
1850LEVEL
 62
7
 10
2015.253
 20
-3614.026
 30
3377.000
 70
    32
  0
VERTEX
  8
1850LEVEL
 62
7
 10
1919.909
 20
-3552.865
 30
3377.000
 70
    32
  0
VERTEX
  8
1850LEVEL
 62
7
 10
1860.488
 20
-3478.724
 30
3377.000
 70
    32
  0
VERTEX
  8
1850LEVEL
 62
7
 10
1847.216
 20
-3485.635
 30
3377.000
 70
    32
  0
VERTEX
  8
1850LEVEL
 62
7
 10
1732.283
 20
-3361.031
 30
3377.000
 70
    32
  0
SEQEND
  8
1850LEVEL
  0
POLYLINE
  8
1850LEVEL
 62
7
 66
     1
 70
     8
  0
VERTEX
  8
1850LEVEL
 62
7
 10
984.897
 20
-3337.892
 30
3377.000
 70
    32
  0
VERTEX
  8
1850LEVEL
 62
7
 10
918.062
 20
-3240.429
 30
3377.000
 70
    32
  0
VERTEX
  8
1850LEVEL
 62
7
 10
876.320
 20
-3167.070
 30
3377.000
 70
    32
  0
VERTEX
  8
1850LEVEL
 62
7
 10
821.123
 20
-3089.471
 30
3377.000
 70
    32
  0
VERTEX
  8
1850LEVEL
 62
7
 10
762.204
 20
-3017.578
 30
3377.000
 70
    32
  0
VERTEX
  8
1850LEVEL
 62
7
 10
709.526
 20
-2950.758
 30
3377.000
 70
    32
  0
VERTEX
  8
1850LEVEL
 62
7
 10
669.623
 20
-2873.911
 30
3377.000
 70
    32
  0
VERTEX
  8
1850LEVEL
 62
7
 10
636.706
 20
-2829.812
 30
3377.000
 70
    32
  0
VERTEX
  8
1850LEVEL
 62
7
 10
663.427
 20
-2847.108
 30
3377.000
 70
    32
  0
VERTEX
  8
1850LEVEL
 62
7
 10
725.688
 20
-2907.926
 30
3377.000
 70
    32
  0
VERTEX
  8
1850LEVEL
 62
7
 10
781.680
 20
-2994.502
 30
3377.000
 70
    32
  0
VERTEX
  8
1850LEVEL
 62
7
 10
838.489
 20
-3079.191
 30
3377.000
 70
    32
  0
VERTEX
  8
1850LEVEL
 62
7
 10
920.601
 20
-3191.306
 30
3377.000
 70
    32
  0
VERTEX
  8
1850LEVEL
 62
7
 10
1005.531
 20
-3297.062
 30
3377.000
 70
    32
  0
VERTEX
  8
1850LEVEL
 62
7
 10
1093.145
 20
-3389.610
 30
3377.000
 70
    32
  0
VERTEX
  8
1850LEVEL
 62
7
 10
1152.859
 20
-3447.480
 30
3377.000
 70
    32
  0
VERTEX
  8
1850LEVEL
 62
7
 10
1139.211
 20
-3403.019
 30
3377.000
 70
    32
  0
VERTEX
  8
1850LEVEL
 62
7
 10
1102.611
 20
-3339.861
 30
3377.000
 70
    32
  0
VERTEX
  8
1850LEVEL
 62
7
 10
1015.360
 20
-3243.581
 30
3377.000
 70
    32
  0
VERTEX
  8
1850LEVEL
 62
7
 10
930.431
 20
-3114.825
 30
3377.000
 70
    32
  0
VERTEX
  8
1850LEVEL
 62
7
 10
874.215
 20
-2969.824
 30
3377.000
 70
    32
  0
VERTEX
  8
1850LEVEL
 62
7
 10
786.393
 20
-2827.953
 30
3377.000
 70
    32
  0
VERTEX
  8
1850LEVEL
 62
7
 10
676.863
 20
-2675.172
 30
3377.000
 70
    32
  0
VERTEX
  8
1850LEVEL
 62
7
 10
583.800
 20
-2537.492
 30
3377.000
 70
    32
  0
VERTEX
  8
1850LEVEL
 62
7
 10
464.661
 20
-2375.545
 30
3377.000
 70
    32
  0
VERTEX
  8
1850LEVEL
 62
7
 10
352.123
 20
-2237.940
 30
3377.000
 70
    32
  0
VERTEX
  8
1850LEVEL
 62
7
 10
270.562
 20
-2136.279
 30
3377.000
 70
    32
  0
VERTEX
  8
1850LEVEL
 62
7
 10
213.514
 20
-2079.101
 30
3377.000
 70
    32
  0
VERTEX
  8
1850LEVEL
 62
7
 10
177.251
 20
-2026.085
 30
3377.000
 70
    32
  0
VERTEX
  8
1850LEVEL
 62
7
 10
136.153
 20
-1966.733
 30
3377.000
 70
    32
  0
VERTEX
  8
1850LEVEL
 62
7
 10
107.288
 20
-1898.462
 30
3377.000
 70
    32
  0
VERTEX
  8
1850LEVEL
 62
7
 10
80.467
 20
-1830.008
 30
3377.000
 70
    32
  0
VERTEX
  8
1850LEVEL
 62
7
 10
39.695
 20
-1783.053
 30
3377.000
 70
    32
  0
VERTEX
  8
1850LEVEL
 62
7
 10
-4.259
 20
-1716.198
 30
3377.000
 70
    32
  0
VERTEX
  8
1850LEVEL
 62
7
 10
-18.908
 20
-1674.596
 30
3377.000
 70
    32
  0
VERTEX
  8
1850LEVEL
 62
7
 10
-45.652
 20
-1605.649
 30
3377.000
 70
    32
  0
VERTEX
  8
1850LEVEL
 62
7
 10
-78.270
 20
-1559.720
 30
3377.000
 70
    32
  0
VERTEX
  8
1850LEVEL
 62
7
 10
-130.514
 20
-1486.275
 30
3377.000
 70
    32
  0
VERTEX
  8
1850LEVEL
 62
7
 10
-179.020
 20
-1422.739
 30
3377.000
 70
    32
  0
VERTEX
  8
1850LEVEL
 62
7
 10
-239.721
 20
-1355.024
 30
3377.000
 70
    32
  0
VERTEX
  8
1850LEVEL
 62
7
 10
-271.017
 20
-1289.396
 30
3377.000
 70
    32
  0
VERTEX
  8
1850LEVEL
 62
7
 10
-278.454
 20
-1261.270
 30
3377.000
 70
    32
  0
VERTEX
  8
1850LEVEL
 62
7
 10
-325.792
 20
-1199.933
 30
3377.000
 70
    32
  0
VERTEX
  8
1850LEVEL
 62
7
 10
-382.066
 20
-1111.998
 30
3377.000
 70
    32
  0
VERTEX
  8
1850LEVEL
 62
7
 10
-417.610
 20
-1042.933
 30
3377.000
 70
    32
  0
VERTEX
  8
1850LEVEL
 62
7
 10
-442.049
 20
-975.355
 30
3377.000
 70
    32
  0
VERTEX
  8
1850LEVEL
 62
7
 10
-472.538
 20
-891.711
 30
3377.000
 70
    32
  0
VERTEX
  8
1850LEVEL
 62
7
 10
-494.262
 20
-800.370
 30
3377.000
 70
    32
  0
VERTEX
  8
1850LEVEL
 62
7
 10
-475.014
 20
-793.306
 30
3377.000
 70
    32
  0
VERTEX
  8
1850LEVEL
 62
7
 10
-447.523
 20
-859.094
 30
3377.000
 70
    32
  0
VERTEX
  8
1850LEVEL
 62
7
 10
-416.151
 20
-945.144
 30
3377.000
 70
    32
  0
VERTEX
  8
1850LEVEL
 62
7
 10
-373.424
 20
-1024.657
 30
3377.000
 70
    32
  0
VERTEX
  8
1850LEVEL
 62
7
 10
-335.117
 20
-1066.438
 30
3377.000
 70
    32
  0
VERTEX
  8
1850LEVEL
 62
7
 10
-304.379
 20
-1142.057
 30
3377.000
 70
    32
  0
VERTEX
  8
1850LEVEL
 62
7
 10
-268.023
 20
-1218.809
 30
3377.000
 70
    32
  0
VERTEX
  8
1850LEVEL
 62
7
 10
-223.855
 20
-1269.823
 30
3377.000
 70
    32
  0
VERTEX
  8
1850LEVEL
 62
7
 10
-188.927
 20
-1342.823
 30
3377.000
 70
    32
  0
VERTEX
  8
1850LEVEL
 62
7
 10
-116.000
 20
-1417.744
 30
3377.000
 70
    32
  0
VERTEX
  8
1850LEVEL
 62
7
 10
-71.939
 20
-1466.222
 30
3377.000
 70
    32
  0
VERTEX
  8
1850LEVEL
 62
7
 10
-41.164
 20
-1507.830
 30
3377.000
 70
    32
  0
VERTEX
  8
1850LEVEL
 62
7
 10
-24.412
 20
-1576.220
 30
3377.000
 70
    32
  0
VERTEX
  8
1850LEVEL
 62
7
 10
9.402
 20
-1648.289
 30
3377.000
 70
    32
  0
VERTEX
  8
1850LEVEL
 62
7
 10
58.032
 20
-1707.814
 30
3377.000
 70
    32
  0
VERTEX
  8
1850LEVEL
 62
7
 10
99.770
 20
-1761.471
 30
3377.000
 70
    32
  0
VERTEX
  8
1850LEVEL
 62
7
 10
133.863
 20
-1807.631
 30
3377.000
 70
    32
  0
VERTEX
  8
1850LEVEL
 62
7
 10
154.414
 20
-1850.158
 30
3377.000
 70
    32
  0
VERTEX
  8
1850LEVEL
 62
7
 10
180.252
 20
-1897.545
 30
3377.000
 70
    32
  0
VERTEX
  8
1850LEVEL
 62
7
 10
214.759
 20
-1965.188
 30
3377.000
 70
    32
  0
VERTEX
  8
1850LEVEL
 62
7
 10
236.023
 20
-1975.826
 30
3377.000
 70
    32
  0
VERTEX
  8
1850LEVEL
 62
7
 10
221.830
 20
-1947.397
 30
3377.000
 70
    32
  0
VERTEX
  8
1850LEVEL
 62
7
 10
195.334
 20
-1891.340
 30
3377.000
 70
    32
  0
VERTEX
  8
1850LEVEL
 62
7
 10
167.369
 20
-1839.841
 30
3377.000
 70
    32
  0
VERTEX
  8
1850LEVEL
 62
7
 10
136.779
 20
-1779.363
 30
3377.000
 70
    32
  0
VERTEX
  8
1850LEVEL
 62
7
 10
115.854
 20
-1727.958
 30
3377.000
 70
    32
  0
VERTEX
  8
1850LEVEL
 62
7
 10
110.912
 20
-1687.120
 30
3377.000
 70
    32
  0
VERTEX
  8
1850LEVEL
 62
7
 10
137.527
 20
-1713.463
 30
3377.000
 70
    32
  0
VERTEX
  8
1850LEVEL
 62
7
 10
142.285
 20
-1752.256
 30
3377.000
 70
    32
  0
VERTEX
  8
1850LEVEL
 62
7
 10
177.966
 20
-1805.972
 30
3377.000
 70
    32
  0
VERTEX
  8
1850LEVEL
 62
7
 10
220.824
 20
-1865.348
 30
3377.000
 70
    32
  0
VERTEX
  8
1850LEVEL
 62
7
 10
262.603
 20
-1931.610
 30
3377.000
 70
    32
  0
VERTEX
  8
1850LEVEL
 62
7
 10
287.314
 20
-1968.490
 30
3377.000
 70
    32
  0
VERTEX
  8
1850LEVEL
 62
7
 10
300.194
 20
-2011.752
 30
3377.000
 70
    32
  0
VERTEX
  8
1850LEVEL
 62
7
 10
344.506
 20
-2054.192
 30
3377.000
 70
    32
  0
VERTEX
  8
1850LEVEL
 62
7
 10
372.037
 20
-2112.569
 30
3377.000
 70
    32
  0
VERTEX
  8
1850LEVEL
 62
7
 10
446.967
 20
-2220.719
 30
3377.000
 70
    32
  0
VERTEX
  8
1850LEVEL
 62
7
 10
541.776
 20
-2372.336
 30
3377.000
 70
    32
  0
VERTEX
  8
1850LEVEL
 62
7
 10
628.646
 20
-2509.248
 30
3377.000
 70
    32
  0
VERTEX
  8
1850LEVEL
 62
7
 10
716.664
 20
-2622.336
 30
3377.000
 70
    32
  0
VERTEX
  8
1850LEVEL
 62
7
 10
816.882
 20
-2748.811
 30
3377.000
 70
    32
  0
VERTEX
  8
1850LEVEL
 62
7
 10
936.400
 20
-2916.129
 30
3377.000
 70
    32
  0
VERTEX
  8
1850LEVEL
 62
7
 10
1037.932
 20
-3066.832
 30
3377.000
 70
    32
  0
VERTEX
  8
1850LEVEL
 62
7
 10
1142.632
 20
-3224.377
 30
3377.000
 70
    32
  0
VERTEX
  8
1850LEVEL
 62
7
 10
1212.604
 20
-3310.478
 30
3377.000
 70
    32
  0
VERTEX
  8
1850LEVEL
 62
7
 10
1193.635
 20
-3247.699
 30
3377.000
 70
    32
  0
VERTEX
  8
1850LEVEL
 62
7
 10
1123.696
 20
-3133.800
 30
3377.000
 70
    32
  0
VERTEX
  8
1850LEVEL
 62
7
 10
1053.938
 20
-2982.017
 30
3377.000
 70
    32
  0
VERTEX
  8
1850LEVEL
 62
7
 10
1147.926
 20
-3109.486
 30
3377.000
 70
    32
  0
VERTEX
  8
1850LEVEL
 62
7
 10
1228.752
 20
-3212.543
 30
3377.000
 70
    32
  0
VERTEX
  8
1850LEVEL
 62
7
 10
1336.124
 20
-3350.813
 30
3377.000
 70
    32
  0
VERTEX
  8
1850LEVEL
 62
7
 10
1434.801
 20
-3486.638
 30
3377.000
 70
    32
  0
VERTEX
  8
1850LEVEL
 62
7
 10
1531.828
 20
-3617.136
 30
3377.000
 70
    32
  0
VERTEX
  8
1850LEVEL
 62
7
 10
1563.324
 20
-3645.330
 30
3377.000
 70
    32
  0
VERTEX
  8
1850LEVEL
 62
7
 10
1550.676
 20
-3610.133
 30
3377.000
 70
    32
  0
VERTEX
  8
1850LEVEL
 62
7
 10
1585.482
 20
-3632.049
 30
3377.000
 70
    32
  0
VERTEX
  8
1850LEVEL
 62
7
 10
1594.363
 20
-3599.644
 30
3377.000
 70
    32
  0
VERTEX
  8
1850LEVEL
 62
7
 10
1614.702
 20
-3624.987
 30
3377.000
 70
    32
  0
VERTEX
  8
1850LEVEL
 62
7
 10
1632.030
 20
-3616.470
 30
3377.000
 70
    32
  0
VERTEX
  8
1850LEVEL
 62
7
 10
1664.013
 20
-3641.711
 30
3377.000
 70
    32
  0
VERTEX
  8
1850LEVEL
 62
7
 10
1639.776
 20
-3590.955
 30
3377.000
 70
    32
  0
VERTEX
  8
1850LEVEL
 62
7
 10
1673.505
 20
-3630.133
 30
3377.000
 70
    32
  0
VERTEX
  8
1850LEVEL
 62
7
 10
1681.588
 20
-3680.754
 30
3377.000
 70
    32
  0
VERTEX
  8
1850LEVEL
 62
7
 10
1709.432
 20
-3731.094
 30
3377.000
 70
    32
  0
VERTEX
  8
1850LEVEL
 62
7
 10
1780.216
 20
-3812.274
 30
3377.000
 70
    32
  0
VERTEX
  8
1850LEVEL
 62
7
 10
1797.168
 20
-3870.424
 30
3377.000
 70
    32
  0
VERTEX
  8
1850LEVEL
 62
7
 10
1879.396
 20
-3931.248
 30
3377.000
 70
    32
  0
VERTEX
  8
1850LEVEL
 62
7
 10
1913.432
 20
-3982.356
 30
3377.000
 70
    32
  0
VERTEX
  8
1850LEVEL
 62
7
 10
1922.834
 20
-4060.240
 30
3377.000
 70
    32
  0
VERTEX
  8
1850LEVEL
 62
7
 10
1949.848
 20
-4152.401
 30
3377.000
 70
    32
  0
VERTEX
  8
1850LEVEL
 62
7
 10
1989.838
 20
-4231.790
 30
3377.000
 70
    32
  0
VERTEX
  8
1850LEVEL
 62
7
 10
1986.255
 20
-4293.378
 30
3377.000
 70
    32
  0
VERTEX
  8
1850LEVEL
 62
7
 10
2006.376
 20
-4358.369
 30
3377.000
 70
    32
  0
VERTEX
  8
1850LEVEL
 62
7
 10
2051.147
 20
-4428.688
 30
3377.000
 70
    32
  0
VERTEX
  8
1850LEVEL
 62
7
 10
2073.682
 20
-4443.777
 30
3377.000
 70
    32
  0
VERTEX
  8
1850LEVEL
 62
7
 10
2100.153
 20
-4482.517
 30
3377.000
 70
    32
  0
VERTEX
  8
1850LEVEL
 62
7
 10
2122.207
 20
-4480.593
 30
3377.000
 70
    32
  0
VERTEX
  8
1850LEVEL
 62
7
 10
2163.172
 20
-4531.075
 30
3377.000
 70
    32
  0
VERTEX
  8
1850LEVEL
 62
7
 10
2195.748
 20
-4591.042
 30
3377.000
 70
    32
  0
VERTEX
  8
1850LEVEL
 62
7
 10
2245.505
 20
-4652.578
 30
3377.000
 70
    32
  0
VERTEX
  8
1850LEVEL
 62
7
 10
2295.819
 20
-4727.603
 30
3377.000
 70
    32
  0
VERTEX
  8
1850LEVEL
 62
7
 10
2305.551
 20
-4688.513
 30
3377.000
 70
    32
  0
VERTEX
  8
1850LEVEL
 62
7
 10
2282.914
 20
-4638.779
 30
3377.000
 70
    32
  0
VERTEX
  8
1850LEVEL
 62
7
 10
2270.905
 20
-4593.577
 30
3377.000
 70
    32
  0
VERTEX
  8
1850LEVEL
 62
7
 10
2308.502
 20
-4593.962
 30
3377.000
 70
    32
  0
VERTEX
  8
1850LEVEL
 62
7
 10
2283.686
 20
-4563.584
 30
3377.000
 70
    32
  0
VERTEX
  8
1850LEVEL
 62
7
 10
2235.821
 20
-4505.898
 30
3377.000
 70
    32
  0
VERTEX
  8
1850LEVEL
 62
7
 10
2185.203
 20
-4444.978
 30
3377.000
 70
    32
  0
VERTEX
  8
1850LEVEL
 62
7
 10
2158.286
 20
-4456.464
 30
3377.000
 70
    32
  0
VERTEX
  8
1850LEVEL
 62
7
 10
2139.644
 20
-4463.753
 30
3377.000
 70
    32
  0
VERTEX
  8
1850LEVEL
 62
7
 10
2131.435
 20
-4458.355
 30
3377.000
 70
    32
  0
VERTEX
  8
1850LEVEL
 62
7
 10
2105.541
 20
-4445.239
 30
3377.000
 70
    32
  0
VERTEX
  8
1850LEVEL
 62
7
 10
2081.617
 20
-4409.447
 30
3377.000
 70
    32
  0
VERTEX
  8
1850LEVEL
 62
7
 10
2065.674
 20
-4412.632
 30
3377.000
 70
    32
  0
VERTEX
  8
1850LEVEL
 62
7
 10
2032.676
 20
-4346.023
 30
3377.000
 70
    32
  0
VERTEX
  8
1850LEVEL
 62
7
 10
2004.611
 20
-4286.294
 30
3377.000
 70
    32
  0
VERTEX
  8
1850LEVEL
 62
7
 10
2010.308
 20
-4237.945
 30
3377.000
 70
    32
  0
VERTEX
  8
1850LEVEL
 62
7
 10
1994.827
 20
-4177.005
 30
3377.000
 70
    32
  0
VERTEX
  8
1850LEVEL
 62
7
 10
1973.560
 20
-4112.836
 30
3377.000
 70
    32
  0
VERTEX
  8
1850LEVEL
 62
7
 10
1993.851
 20
-4110.874
 30
3377.000
 70
    32
  0
VERTEX
  8
1850LEVEL
 62
7
 10
2001.526
 20
-4091.919
 30
3377.000
 70
    32
  0
VERTEX
  8
1850LEVEL
 62
7
 10
1973.564
 20
-4020.833
 30
3377.000
 70
    32
  0
VERTEX
  8
1850LEVEL
 62
7
 10
1941.858
 20
-3966.317
 30
3377.000
 70
    32
  0
VERTEX
  8
1850LEVEL
 62
7
 10
1909.158
 20
-3905.571
 30
3377.000
 70
    32
  0
VERTEX
  8
1850LEVEL
 62
7
 10
1885.034
 20
-3872.526
 30
3377.000
 70
    32
  0
VERTEX
  8
1850LEVEL
 62
7
 10
1915.141
 20
-3880.018
 30
3377.000
 70
    32
  0
VERTEX
  8
1850LEVEL
 62
7
 10
1920.426
 20
-3854.097
 30
3377.000
 70
    32
  0
VERTEX
  8
1850LEVEL
 62
7
 10
1951.780
 20
-3895.411
 30
3377.000
 70
    32
  0
VERTEX
  8
1850LEVEL
 62
7
 10
1986.304
 20
-3943.567
 30
3377.000
 70
    32
  0
VERTEX
  8
1850LEVEL
 62
7
 10
2025.697
 20
-3939.194
 30
3377.000
 70
    32
  0
VERTEX
  8
1850LEVEL
 62
7
 10
2050.942
 20
-3956.247
 30
3377.000
 70
    32
  0
VERTEX
  8
1850LEVEL
 62
7
 10
2212.210
 20
-4012.916
 30
3377.000
 70
    32
  0
VERTEX
  8
1850LEVEL
 62
7
 10
2305.139
 20
-4120.748
 30
3377.000
 70
    32
  0
VERTEX
  8
1850LEVEL
 62
7
 10
2409.877
 20
-4276.530
 30
3377.000
 70
    32
  0
VERTEX
  8
1850LEVEL
 62
7
 10
2517.432
 20
-4448.952
 30
3377.000
 70
    32
  0
VERTEX
  8
1850LEVEL
 62
7
 10
2651.826
 20
-4659.417
 30
3377.000
 70
    32
  0
VERTEX
  8
1850LEVEL
 62
7
 10
2770.267
 20
-4843.998
 30
3377.000
 70
    32
  0
VERTEX
  8
1850LEVEL
 62
7
 10
2882.315
 20
-5030.558
 30
3377.000
 70
    32
  0
VERTEX
  8
1850LEVEL
 62
7
 10
2999.133
 20
-5224.981
 30
3377.000
 70
    32
  0
VERTEX
  8
1850LEVEL
 62
7
 10
3088.294
 20
-5406.251
 30
3377.000
 70
    32
  0
VERTEX
  8
1850LEVEL
 62
7
 10
3140.170
 20
-5507.062
 30
3377.000
 70
    32
  0
VERTEX
  8
1850LEVEL
 62
7
 10
3178.962
 20
-5533.931
 30
3377.000
 70
    32
  0
VERTEX
  8
1850LEVEL
 62
7
 10
3189.353
 20
-5496.972
 30
3377.000
 70
    32
  0
VERTEX
  8
1850LEVEL
 62
7
 10
3171.682
 20
-5426.319
 30
3377.000
 70
    32
  0
VERTEX
  8
1850LEVEL
 62
7
 10
3199.695
 20
-5455.708
 30
3377.000
 70
    32
  0
VERTEX
  8
1850LEVEL
 62
7
 10
3252.405
 20
-5517.732
 30
3377.000
 70
    32
  0
VERTEX
  8
1850LEVEL
 62
7
 10
3273.151
 20
-5517.614
 30
3377.000
 70
    32
  0
VERTEX
  8
1850LEVEL
 62
7
 10
3268.091
 20
-5483.921
 30
3377.000
 70
    32
  0
VERTEX
  8
1850LEVEL
 62
7
 10
3256.654
 20
-5438.308
 30
3377.000
 70
    32
  0
VERTEX
  8
1850LEVEL
 62
7
 10
3304.975
 20
-5474.837
 30
3377.000
 70
    32
  0
VERTEX
  8
1850LEVEL
 62
7
 10
3337.055
 20
-5485.687
 30
3377.000
 70
    32
  0
VERTEX
  8
1850LEVEL
 62
7
 10
3312.937
 20
-5432.675
 30
3377.000
 70
    32
  0
VERTEX
  8
1850LEVEL
 62
7
 10
3251.359
 20
-5340.122
 30
3377.000
 70
    32
  0
VERTEX
  8
1850LEVEL
 62
7
 10
3187.033
 20
-5247.369
 30
3377.000
 70
    32
  0
VERTEX
  8
1850LEVEL
 62
7
 10
3130.128
 20
-5154.070
 30
3377.000
 70
    32
  0
VERTEX
  8
1850LEVEL
 62
7
 10
3051.255
 20
-5042.237
 30
3377.000
 70
    32
  0
VERTEX
  8
1850LEVEL
 62
7
 10
3034.583
 20
-5003.849
 30
3377.000
 70
    32
  0
VERTEX
  8
1850LEVEL
 62
7
 10
3114.075
 20
-5070.540
 30
3377.000
 70
    32
  0
VERTEX
  8
1850LEVEL
 62
7
 10
3089.870
 20
-5014.987
 30
3377.000
 70
    32
  0
VERTEX
  8
1850LEVEL
 62
7
 10
3033.792
 20
-4925.868
 30
3377.000
 70
    32
  0
VERTEX
  8
1850LEVEL
 62
7
 10
2963.749
 20
-4846.327
 30
3377.000
 70
    32
  0
VERTEX
  8
1850LEVEL
 62
7
 10
2880.328
 20
-4736.018
 30
3377.000
 70
    32
  0
SEQEND
  8
1850LEVEL
  0
POLYLINE
  8
1850LEVEL
 62
3
 66
     1
 70
     8
  0
VERTEX
  8
1850LEVEL
 62
3
 10
2923.130
 20
-2396.206
 30
3377.000
 70
    32
  0
VERTEX
  8
1850LEVEL
 62
3
 10
2927.394
 20
-2443.922
 30
3377.000
 70
    32
  0
VERTEX
  8
1850LEVEL
 62
3
 10
2924.178
 20
-2527.813
 30
3377.000
 70
    32
  0
SEQEND
  8
1850LEVEL
  0
POLYLINE
  8
1850LEVEL
 62
3
 66
     1
 70
     8
  0
VERTEX
  8
1850LEVEL
 62
3
 10
2875.049
 20
-4741.972
 30
3377.000
 70
    32
  0
VERTEX
  8
1850LEVEL
 62
3
 10
2815.201
 20
-4654.255
 30
3377.000
 70
    32
  0
VERTEX
  8
1850LEVEL
 62
3
 10
2710.035
 20
-4511.799
 30
3377.000
 70
    32
  0
VERTEX
  8
1850LEVEL
 62
3
 10
2552.791
 20
-4310.718
 30
3377.000
 70
    32
  0
SEQEND
  8
1850LEVEL
  0
POLYLINE
  8
1850LEVEL
 62
3
 66
     1
 70
     8
  0
VERTEX
  8
1850LEVEL
 62
3
 10
1182.907
 20
-3607.858
 30
3377.000
 70
    32
  0
VERTEX
  8
1850LEVEL
 62
3
 10
1152.465
 20
-3551.047
 30
3377.000
 70
    32
  0
VERTEX
  8
1850LEVEL
 62
3
 10
1049.012
 20
-3427.325
 30
3377.000
 70
    32
  0
VERTEX
  8
1850LEVEL
 62
3
 10
982.547
 20
-3338.469
 30
3377.000
 70
    32
  0
SEQEND
  8
1850LEVEL
  0
POLYLINE
  8
1850LEVEL
 62
5
 66
     1
 70
     9
  0
VERTEX
  8
1850LEVEL
 62
5
 10
2270.471
 20
-1272.754
 30
3377.000
 70
    32
  0
VERTEX
  8
1850LEVEL
 62
5
 10
2280.679
 20
-1319.681
 30
3377.000
 70
    32
  0
VERTEX
  8
1850LEVEL
 62
5
 10
2298.210
 20
-1380.453
 30
3377.000
 70
    32
  0
VERTEX
  8
1850LEVEL
 62
5
 10
2314.410
 20
-1430.896
 30
3377.000
 70
    32
  0
VERTEX
  8
1850LEVEL
 62
5
 10
2304.902
 20
-1456.373
 30
3377.000
 70
    32
  0
VERTEX
  8
1850LEVEL
 62
5
 10
2281.789
 20
-1415.659
 30
3377.000
 70
    32
  0
VERTEX
  8
1850LEVEL
 62
5
 10
2267.785
 20
-1354.963
 30
3377.000
 70
    32
  0
VERTEX
  8
1850LEVEL
 62
5
 10
2252.975
 20
-1279.221
 30
3377.000
 70
    32
  0
SEQEND
  8
1850LEVEL
  0
POLYLINE
  8
1850LEVEL
 62
5
 66
     1
 70
     9
  0
VERTEX
  8
1850LEVEL
 62
5
 10
1834.182
 20
-3511.037
 30
3377.000
 70
    32
  0
VERTEX
  8
1850LEVEL
 62
5
 10
1881.218
 20
-3587.543
 30
3377.000
 70
    32
  0
VERTEX
  8
1850LEVEL
 62
5
 10
1920.083
 20
-3656.888
 30
3377.000
 70
    32
  0
VERTEX
  8
1850LEVEL
 62
5
 10
1946.699
 20
-3731.543
 30
3377.000
 70
    32
  0
VERTEX
  8
1850LEVEL
 62
5
 10
1925.278
 20
-3720.429
 30
3377.000
 70
    32
  0
VERTEX
  8
1850LEVEL
 62
5
 10
1895.758
 20
-3649.591
 30
3377.000
 70
    32
  0
VERTEX
  8
1850LEVEL
 62
5
 10
1857.547
 20
-3579.343
 30
3377.000
 70
    32
  0
VERTEX
  8
1850LEVEL
 62
5
 10
1836.170
 20
-3546.498
 30
3377.000
 70
    32
  0
VERTEX
  8
1850LEVEL
 62
5
 10
1824.025
 20
-3517.450
 30
3377.000
 70
    32
  0
SEQEND
  8
1850LEVEL
  0
POLYLINE
  8
1850LEVEL
 62
5
 66
     1
 70
     9
  0
VERTEX
  8
1850LEVEL
 62
5
 10
2855.286
 20
-2473.485
 30
3377.000
 70
    32
  0
VERTEX
  8
1850LEVEL
 62
5
 10
2863.818
 20
-2522.916
 30
3377.000
 70
    32
  0
VERTEX
  8
1850LEVEL
 62
5
 10
2873.120
 20
-2520.153
 30
3377.000
 70
    32
  0
VERTEX
  8
1850LEVEL
 62
5
 10
2865.946
 20
-2473.221
 30
3377.000
 70
    32
  0
SEQEND
  8
1850LEVEL
  0
POLYLINE
  8
1850LEVEL
 62
5
 66
     1
 70
     9
  0
VERTEX
  8
1850LEVEL
 62
5
 10
2733.246
 20
-2459.429
 30
3377.000
 70
    32
  0
VERTEX
  8
1850LEVEL
 62
5
 10
2732.926
 20
-2487.432
 30
3377.000
 70
    32
  0
VERTEX
  8
1850LEVEL
 62
5
 10
2718.361
 20
-2505.252
 30
3377.000
 70
    32
  0
VERTEX
  8
1850LEVEL
 62
5
 10
2710.231
 20
-2522.363
 30
3377.000
 70
    32
  0
VERTEX
  8
1850LEVEL
 62
5
 10
2716.716
 20
-2525.959
 30
3377.000
 70
    32
  0
VERTEX
  8
1850LEVEL
 62
5
 10
2724.434
 20
-2508.275
 30
3377.000
 70
    32
  0
VERTEX
  8
1850LEVEL
 62
5
 10
2734.834
 20
-2500.385
 30
3377.000
 70
    32
  0
VERTEX
  8
1850LEVEL
 62
5
 10
2737.532
 20
-2519.281
 30
3377.000
 70
    32
  0
VERTEX
  8
1850LEVEL
 62
5
 10
2736.942
 20
-2533.591
 30
3377.000
 70
    32
  0
VERTEX
  8
1850LEVEL
 62
5
 10
2746.346
 20
-2542.472
 30
3377.000
 70
    32
  0
VERTEX
  8
1850LEVEL
 62
5
 10
2747.905
 20
-2519.222
 30
3377.000
 70
    32
  0
VERTEX
  8
1850LEVEL
 62
5
 10
2740.886
 20
-2491.273
 30
3377.000
 70
    32
  0
VERTEX
  8
1850LEVEL
 62
5
 10
2743.132
 20
-2462.323
 30
3377.000
 70
    32
  0
SEQEND
  8
1850LEVEL
  0
POLYLINE
  8
1850LEVEL
 62
5
 66
     1
 70
     9
  0
VERTEX
  8
1850LEVEL
 62
5
 10
1642.445
 20
-1798.068
 30
3377.000
 70
    32
  0
VERTEX
  8
1850LEVEL
 62
5
 10
1674.782
 20
-1885.546
 30
3377.000
 70
    32
  0
VERTEX
  8
1850LEVEL
 62
5
 10
1667.292
 20
-1987.690
 30
3377.000
 70
    32
  0
VERTEX
  8
1850LEVEL
 62
5
 10
1690.958
 20
-1992.856
 30
3377.000
 70
    32
  0
VERTEX
  8
1850LEVEL
 62
5
 10
1692.502
 20
-1937.503
 30
3377.000
 70
    32
  0
VERTEX
  8
1850LEVEL
 62
5
 10
1690.521
 20
-1859.074
 30
3377.000
 70
    32
  0
VERTEX
  8
1850LEVEL
 62
5
 10
1669.075
 20
-1786.787
 30
3377.000
 70
    32
  0
SEQEND
  8
1850LEVEL
  0
POLYLINE
  8
1850LEVEL
 62
5
 66
     1
 70
     9
  0
VERTEX
  8
1850LEVEL
 62
5
 10
2205.507
 20
-4757.198
 30
3377.000
 70
    32
  0
VERTEX
  8
1850LEVEL
 62
5
 10
2159.211
 20
-4682.330
 30
3377.000
 70
    32
  0
VERTEX
  8
1850LEVEL
 62
5
 10
2114.922
 20
-4606.024
 30
3377.000
 70
    32
  0
VERTEX
  8
1850LEVEL
 62
5
 10
2101.631
 20
-4554.798
 30
3377.000
 70
    32
  0
VERTEX
  8
1850LEVEL
 62
5
 10
2088.703
 20
-4499.839
 30
3377.000
 70
    32
  0
VERTEX
  8
1850LEVEL
 62
5
 10
2074.602
 20
-4430.533
 30
3377.000
 70
    32
  0
VERTEX
  8
1850LEVEL
 62
5
 10
2090.868
 20
-4353.343
 30
3377.000
 70
    32
  0
VERTEX
  8
1850LEVEL
 62
5
 10
2082.601
 20
-4291.571
 30
3377.000
 70
    32
  0
VERTEX
  8
1850LEVEL
 62
5
 10
2054.423
 20
-4214.130
 30
3377.000
 70
    32
  0
VERTEX
  8
1850LEVEL
 62
5
 10
2041.713
 20
-4119.524
 30
3377.000
 70
    32
  0
VERTEX
  8
1850LEVEL
 62
5
 10
2016.066
 20
-4035.929
 30
3377.000
 70
    32
  0
VERTEX
  8
1850LEVEL
 62
5
 10
2008.114
 20
-3966.120
 30
3377.000
 70
    32
  0
VERTEX
  8
1850LEVEL
 62
5
 10
2029.539
 20
-4003.270
 30
3377.000
 70
    32
  0
VERTEX
  8
1850LEVEL
 62
5
 10
2045.680
 20
-4066.340
 30
3377.000
 70
    32
  0
VERTEX
  8
1850LEVEL
 62
5
 10
2061.149
 20
-4144.213
 30
3377.000
 70
    32
  0
VERTEX
  8
1850LEVEL
 62
5
 10
2080.669
 20
-4217.446
 30
3377.000
 70
    32
  0
VERTEX
  8
1850LEVEL
 62
5
 10
2094.650
 20
-4312.009
 30
3377.000
 70
    32
  0
VERTEX
  8
1850LEVEL
 62
5
 10
2099.400
 20
-4379.773
 30
3377.000
 70
    32
  0
VERTEX
  8
1850LEVEL
 62
5
 10
2096.948
 20
-4431.437
 30
3377.000
 70
    32
  0
VERTEX
  8
1850LEVEL
 62
5
 10
2097.860
 20
-4484.161
 30
3377.000
 70
    32
  0
VERTEX
  8
1850LEVEL
 62
5
 10
2101.048
 20
-4517.668
 30
3377.000
 70
    32
  0
VERTEX
  8
1850LEVEL
 62
5
 10
2110.457
 20
-4561.055
 30
3377.000
 70
    32
  0
VERTEX
  8
1850LEVEL
 62
5
 10
2147.111
 20
-4608.551
 30
3377.000
 70
    32
  0
VERTEX
  8
1850LEVEL
 62
5
 10
2176.005
 20
-4649.460
 30
3377.000
 70
    32
  0
VERTEX
  8
1850LEVEL
 62
5
 10
2205.158
 20
-4697.994
 30
3377.000
 70
    32
  0
VERTEX
  8
1850LEVEL
 62
5
 10
2241.001
 20
-4750.412
 30
3377.000
 70
    32
  0
VERTEX
  8
1850LEVEL
 62
5
 10
2252.029
 20
-4749.450
 30
3377.000
 70
    32
  0
VERTEX
  8
1850LEVEL
 62
5
 10
2230.057
 20
-4704.880
 30
3377.000
 70
    32
  0
VERTEX
  8
1850LEVEL
 62
5
 10
2191.489
 20
-4641.397
 30
3377.000
 70
    32
  0
VERTEX
  8
1850LEVEL
 62
5
 10
2151.547
 20
-4589.315
 30
3377.000
 70
    32
  0
VERTEX
  8
1850LEVEL
 62
5
 10
2122.941
 20
-4525.200
 30
3377.000
 70
    32
  0
VERTEX
  8
1850LEVEL
 62
5
 10
2117.410
 20
-4480.560
 30
3377.000
 70
    32
  0
VERTEX
  8
1850LEVEL
 62
5
 10
2127.043
 20
-4455.862
 30
3377.000
 70
    32
  0
VERTEX
  8
1850LEVEL
 62
5
 10
2117.171
 20
-4390.033
 30
3377.000
 70
    32
  0
VERTEX
  8
1850LEVEL
 62
5
 10
2117.142
 20
-4325.827
 30
3377.000
 70
    32
  0
VERTEX
  8
1850LEVEL
 62
5
 10
2113.938
 20
-4251.746
 30
3377.000
 70
    32
  0
VERTEX
  8
1850LEVEL
 62
5
 10
2092.465
 20
-4187.291
 30
3377.000
 70
    32
  0
VERTEX
  8
1850LEVEL
 62
5
 10
2068.673
 20
-4109.309
 30
3377.000
 70
    32
  0
VERTEX
  8
1850LEVEL
 62
5
 10
2038.960
 20
-3998.251
 30
3377.000
 70
    32
  0
VERTEX
  8
1850LEVEL
 62
5
 10
2024.550
 20
-3940.016
 30
3377.000
 70
    32
  0
VERTEX
  8
1850LEVEL
 62
5
 10
2026.141
 20
-3918.185
 30
3377.000
 70
    32
  0
VERTEX
  8
1850LEVEL
 62
5
 10
2013.488
 20
-3873.738
 30
3377.000
 70
    32
  0
VERTEX
  8
1850LEVEL
 62
5
 10
1900.449
 20
-3706.983
 30
3377.000
 70
    32
  0
VERTEX
  8
1850LEVEL
 62
5
 10
1998.037
 20
-3877.004
 30
3377.000
 70
    32
  0
VERTEX
  8
1850LEVEL
 62
5
 10
1927.958
 20
-3776.225
 30
3377.000
 70
    32
  0
VERTEX
  8
1850LEVEL
 62
5
 10
1969.731
 20
-3867.787
 30
3377.000
 70
    32
  0
VERTEX
  8
1850LEVEL
 62
5
 10
1984.827
 20
-3943.324
 30
3377.000
 70
    32
  0
VERTEX
  8
1850LEVEL
 62
5
 10
2001.319
 20
-4019.596
 30
3377.000
 70
    32
  0
VERTEX
  8
1850LEVEL
 62
5
 10
2020.167
 20
-4107.631
 30
3377.000
 70
    32
  0
VERTEX
  8
1850LEVEL
 62
5
 10
2034.398
 20
-4180.750
 30
3377.000
 70
    32
  0
VERTEX
  8
1850LEVEL
 62
5
 10
2054.761
 20
-4267.265
 30
3377.000
 70
    32
  0
VERTEX
  8
1850LEVEL
 62
5
 10
2080.604
 20
-4322.078
 30
3377.000
 70
    32
  0
VERTEX
  8
1850LEVEL
 62
5
 10
2070.266
 20
-4389.377
 30
3377.000
 70
    32
  0
VERTEX
  8
1850LEVEL
 62
5
 10
2056.868
 20
-4441.511
 30
3377.000
 70
    32
  0
VERTEX
  8
1850LEVEL
 62
5
 10
2070.456
 20
-4498.600
 30
3377.000
 70
    32
  0
VERTEX
  8
1850LEVEL
 62
5
 10
2076.029
 20
-4544.510
 30
3377.000
 70
    32
  0
VERTEX
  8
1850LEVEL
 62
5
 10
2095.865
 20
-4586.705
 30
3377.000
 70
    32
  0
VERTEX
  8
1850LEVEL
 62
5
 10
2078.618
 20
-4594.730
 30
3377.000
 70
    32
  0
VERTEX
  8
1850LEVEL
 62
5
 10
2095.500
 20
-4636.439
 30
3377.000
 70
    32
  0
VERTEX
  8
1850LEVEL
 62
5
 10
2140.217
 20
-4699.419
 30
3377.000
 70
    32
  0
VERTEX
  8
1850LEVEL
 62
5
 10
2193.349
 20
-4768.084
 30
3377.000
 70
    32
  0
SEQEND
  8
1850LEVEL
  0
POLYLINE
  8
1850LEVEL
 62
3
 66
     1
 70
     8
  0
VERTEX
  8
1850LEVEL
 62
3
 10
1731.877
 20
-3363.492
 30
3377.000
 70
    32
  0
VERTEX
  8
1850LEVEL
 62
3
 10
1694.563
 20
-3313.865
 30
3377.000
 70
    32
  0
VERTEX
  8
1850LEVEL
 62
3
 10
1647.045
 20
-3243.345
 30
3377.000
 70
    32
  0
VERTEX
  8
1850LEVEL
 62
3
 10
1627.670
 20
-3196.801
 30
3377.000
 70
    32
  0
VERTEX
  8
1850LEVEL
 62
3
 10
1626.667
 20
-3194.505
 30
3377.000
 70
    32
  0
VERTEX
  8
1850LEVEL
 62
3
 10
1625.690
 20
-3192.500
 30
3377.000
 70
    32
  0
VERTEX
  8
1850LEVEL
 62
3
 10
1624.113
 20
-3189.759
 30
3377.000
 70
    32
  0
VERTEX
  8
1850LEVEL
 62
3
 10
1621.565
 20
-3185.442
 30
3377.000
 70
    32
  0
VERTEX
  8
1850LEVEL
 62
3
 10
1618.568
 20
-3180.093
 30
3377.000
 70
    32
  0
VERTEX
  8
1850LEVEL
 62
3
 10
1614.387
 20
-3174.561
 30
3377.000
 70
    32
  0
VERTEX
  8
1850LEVEL
 62
3
 10
1608.931
 20
-3168.727
 30
3377.000
 70
    32
  0
VERTEX
  8
1850LEVEL
 62
3
 10
1603.175
 20
-3162.989
 30
3377.000
 70
    32
  0
VERTEX
  8
1850LEVEL
 62
3
 10
1597.921
 20
-3157.935
 30
3377.000
 70
    32
  0
VERTEX
  8
1850LEVEL
 62
3
 10
1590.996
 20
-3152.374
 30
3377.000
 70
    32
  0
VERTEX
  8
1850LEVEL
 62
3
 10
1585.417
 20
-3147.805
 30
3377.000
 70
    32
  0
VERTEX
  8
1850LEVEL
 62
3
 10
1579.640
 20
-3143.135
 30
3377.000
 70
    32
  0
VERTEX
  8
1850LEVEL
 62
3
 10
1573.916
 20
-3138.116
 30
3377.000
 70
    32
  0
VERTEX
  8
1850LEVEL
 62
3
 10
1570.220
 20
-3134.764
 30
3377.000
 70
    32
  0
VERTEX
  8
1850LEVEL
 62
3
 10
1568.463
 20
-3132.960
 30
3377.000
 70
    32
  0
VERTEX
  8
1850LEVEL
 62
3
 10
1560.328
 20
-3124.822
 30
3377.000
 70
    32
  0
SEQEND
  8
1850LEVEL
  0
POLYLINE
  8
1850LEVEL
 62
5
 66
     1
 70
     9
  0
VERTEX
  8
1850LEVEL
 62
5
 10
1890.564
 20
-2355.462
 30
3377.000
 70
    32
  0
VERTEX
  8
1850LEVEL
 62
5
 10
1894.979
 20
-2256.254
 30
3377.000
 70
    32
  0
VERTEX
  8
1850LEVEL
 62
5
 10
1884.883
 20
-2132.001
 30
3377.000
 70
    32
  0
VERTEX
  8
1850LEVEL
 62
5
 10
1862.110
 20
-2003.383
 30
3377.000
 70
    32
  0
VERTEX
  8
1850LEVEL
 62
5
 10
1836.936
 20
-1861.731
 30
3377.000
 70
    32
  0
VERTEX
  8
1850LEVEL
 62
5
 10
1811.220
 20
-1738.694
 30
3377.000
 70
    32
  0
VERTEX
  8
1850LEVEL
 62
5
 10
1787.223
 20
-1660.426
 30
3377.000
 70
    32
  0
VERTEX
  8
1850LEVEL
 62
5
 10
1777.434
 20
-1666.142
 30
3377.000
 70
    32
  0
VERTEX
  8
1850LEVEL
 62
5
 10
1799.170
 20
-1764.258
 30
3377.000
 70
    32
  0
VERTEX
  8
1850LEVEL
 62
5
 10
1813.612
 20
-1840.697
 30
3377.000
 70
    32
  0
VERTEX
  8
1850LEVEL
 62
5
 10
1796.641
 20
-1842.449
 30
3377.000
 70
    32
  0
VERTEX
  8
1850LEVEL
 62
5
 10
1788.212
 20
-1781.661
 30
3377.000
 70
    32
  0
VERTEX
  8
1850LEVEL
 62
5
 10
1775.863
 20
-1706.324
 30
3377.000
 70
    32
  0
VERTEX
  8
1850LEVEL
 62
5
 10
1759.028
 20
-1691.922
 30
3377.000
 70
    32
  0
VERTEX
  8
1850LEVEL
 62
5
 10
1774.254
 20
-1771.271
 30
3377.000
 70
    32
  0
VERTEX
  8
1850LEVEL
 62
5
 10
1787.841
 20
-1851.361
 30
3377.000
 70
    32
  0
VERTEX
  8
1850LEVEL
 62
5
 10
1767.187
 20
-1857.055
 30
3377.000
 70
    32
  0
VERTEX
  8
1850LEVEL
 62
5
 10
1752.875
 20
-1784.428
 30
3377.000
 70
    32
  0
VERTEX
  8
1850LEVEL
 62
5
 10
1741.943
 20
-1721.963
 30
3377.000
 70
    32
  0
VERTEX
  8
1850LEVEL
 62
5
 10
1707.692
 20
-1736.537
 30
3377.000
 70
    32
  0
VERTEX
  8
1850LEVEL
 62
5
 10
1729.063
 20
-1789.348
 30
3377.000
 70
    32
  0
VERTEX
  8
1850LEVEL
 62
5
 10
1744.985
 20
-1892.066
 30
3377.000
 70
    32
  0
VERTEX
  8
1850LEVEL
 62
5
 10
1776.207
 20
-1998.571
 30
3377.000
 70
    32
  0
VERTEX
  8
1850LEVEL
 62
5
 10
1810.673
 20
-2108.391
 30
3377.000
 70
    32
  0
VERTEX
  8
1850LEVEL
 62
5
 10
1837.244
 20
-2204.776
 30
3377.000
 70
    32
  0
VERTEX
  8
1850LEVEL
 62
5
 10
1836.381
 20
-2238.258
 30
3377.000
 70
    32
  0
VERTEX
  8
1850LEVEL
 62
5
 10
1836.769
 20
-2237.354
 30
3377.000
 70
    32
  0
VERTEX
  8
1850LEVEL
 62
5
 10
1835.992
 20
-2239.161
 30
3377.000
 70
    32
  0
VERTEX
  8
1850LEVEL
 62
5
 10
1834.697
 20
-2242.710
 30
3377.000
 70
    32
  0
VERTEX
  8
1850LEVEL
 62
5
 10
1832.309
 20
-2248.730
 30
3377.000
 70
    32
  0
VERTEX
  8
1850LEVEL
 62
5
 10
1829.237
 20
-2256.181
 30
3377.000
 70
    32
  0
VERTEX
  8
1850LEVEL
 62
5
 10
1826.750
 20
-2264.934
 30
3377.000
 70
    32
  0
VERTEX
  8
1850LEVEL
 62
5
 10
1825.150
 20
-2271.861
 30
3377.000
 70
    32
  0
VERTEX
  8
1850LEVEL
 62
5
 10
1824.425
 20
-2280.993
 30
3377.000
 70
    32
  0
VERTEX
  8
1850LEVEL
 62
5
 10
1823.714
 20
-2290.733
 30
3377.000
 70
    32
  0
VERTEX
  8
1850LEVEL
 62
5
 10
1823.370
 20
-2316.659
 30
3377.000
 70
    32
  0
VERTEX
  8
1850LEVEL
 62
5
 10
1823.924
 20
-2340.690
 30
3377.000
 70
    32
  0
VERTEX
  8
1850LEVEL
 62
5
 10
1825.426
 20
-2360.870
 30
3377.000
 70
    32
  0
VERTEX
  8
1850LEVEL
 62
5
 10
1829.204
 20
-2383.897
 30
3377.000
 70
    32
  0
VERTEX
  8
1850LEVEL
 62
5
 10
1833.469
 20
-2408.854
 30
3377.000
 70
    32
  0
VERTEX
  8
1850LEVEL
 62
5
 10
1838.361
 20
-2427.414
 30
3377.000
 70
    32
  0
VERTEX
  8
1850LEVEL
 62
5
 10
1847.312
 20
-2456.482
 30
3377.000
 70
    32
  0
VERTEX
  8
1850LEVEL
 62
5
 10
1854.122
 20
-2473.944
 30
3377.000
 70
    32
  0
VERTEX
  8
1850LEVEL
 62
5
 10
1860.513
 20
-2495.053
 30
3377.000
 70
    32
  0
VERTEX
  8
1850LEVEL
 62
5
 10
1871.775
 20
-2515.126
 30
3377.000
 70
    32
  0
VERTEX
  8
1850LEVEL
 62
5
 10
1880.823
 20
-2530.327
 30
3377.000
 70
    32
  0
VERTEX
  8
1850LEVEL
 62
5
 10
1890.643
 20
-2546.075
 30
3377.000
 70
    32
  0
VERTEX
  8
1850LEVEL
 62
5
 10
1901.537
 20
-2563.201
 30
3377.000
 70
    32
  0
VERTEX
  8
1850LEVEL
 62
5
 10
1912.776
 20
-2580.630
 30
3377.000
 70
    32
  0
VERTEX
  8
1850LEVEL
 62
5
 10
1922.234
 20
-2594.788
 30
3377.000
 70
    32
  0
VERTEX
  8
1850LEVEL
 62
5
 10
1930.180
 20
-2611.354
 30
3377.000
 70
    32
  0
VERTEX
  8
1850LEVEL
 62
5
 10
1934.621
 20
-2624.491
 30
3377.000
 70
    32
  0
VERTEX
  8
1850LEVEL
 62
5
 10
1939.885
 20
-2637.147
 30
3377.000
 70
    32
  0
VERTEX
  8
1850LEVEL
 62
5
 10
1942.839
 20
-2650.199
 30
3377.000
 70
    32
  0
VERTEX
  8
1850LEVEL
 62
5
 10
1941.051
 20
-2652.315
 30
3377.000
 70
    32
  0
VERTEX
  8
1850LEVEL
 62
5
 10
1937.399
 20
-2655.180
 30
3377.000
 70
    32
  0
VERTEX
  8
1850LEVEL
 62
5
 10
1936.316
 20
-2656.655
 30
3377.000
 70
    32
  0
VERTEX
  8
1850LEVEL
 62
5
 10
1937.478
 20
-2661.865
 30
3377.000
 70
    32
  0
VERTEX
  8
1850LEVEL
 62
5
 10
1939.509
 20
-2666.067
 30
3377.000
 70
    32
  0
VERTEX
  8
1850LEVEL
 62
5
 10
1945.983
 20
-2668.989
 30
3377.000
 70
    32
  0
VERTEX
  8
1850LEVEL
 62
5
 10
1946.262
 20
-2667.176
 30
3377.000
 70
    32
  0
VERTEX
  8
1850LEVEL
 62
5
 10
1946.977
 20
-2665.537
 30
3377.000
 70
    32
  0
VERTEX
  8
1850LEVEL
 62
5
 10
1949.153
 20
-2668.334
 30
3377.000
 70
    32
  0
VERTEX
  8
1850LEVEL
 62
5
 10
1950.921
 20
-2672.852
 30
3377.000
 70
    32
  0
VERTEX
  8
1850LEVEL
 62
5
 10
1952.265
 20
-2675.021
 30
3377.000
 70
    32
  0
VERTEX
  8
1850LEVEL
 62
5
 10
1953.316
 20
-2674.683
 30
3377.000
 70
    32
  0
VERTEX
  8
1850LEVEL
 62
5
 10
1953.712
 20
-2672.104
 30
3377.000
 70
    32
  0
VERTEX
  8
1850LEVEL
 62
5
 10
1953.422
 20
-2668.419
 30
3377.000
 70
    32
  0
VERTEX
  8
1850LEVEL
 62
5
 10
1952.552
 20
-2661.077
 30
3377.000
 70
    32
  0
VERTEX
  8
1850LEVEL
 62
5
 10
1952.840
 20
-2655.482
 30
3377.000
 70
    32
  0
VERTEX
  8
1850LEVEL
 62
5
 10
1953.687
 20
-2649.974
 30
3377.000
 70
    32
  0
VERTEX
  8
1850LEVEL
 62
5
 10
1953.777
 20
-2645.206
 30
3377.000
 70
    32
  0
VERTEX
  8
1850LEVEL
 62
5
 10
1953.041
 20
-2640.240
 30
3377.000
 70
    32
  0
VERTEX
  8
1850LEVEL
 62
5
 10
1949.516
 20
-2631.133
 30
3377.000
 70
    32
  0
VERTEX
  8
1850LEVEL
 62
5
 10
1945.773
 20
-2620.887
 30
3377.000
 70
    32
  0
VERTEX
  8
1850LEVEL
 62
5
 10
1942.328
 20
-2607.082
 30
3377.000
 70
    32
  0
VERTEX
  8
1850LEVEL
 62
5
 10
1941.719
 20
-2593.856
 30
3377.000
 70
    32
  0
VERTEX
  8
1850LEVEL
 62
5
 10
1940.022
 20
-2582.604
 30
3377.000
 70
    32
  0
VERTEX
  8
1850LEVEL
 62
5
 10
1936.277
 20
-2570.752
 30
3377.000
 70
    32
  0
VERTEX
  8
1850LEVEL
 62
5
 10
1930.363
 20
-2555.355
 30
3377.000
 70
    32
  0
VERTEX
  8
1850LEVEL
 62
5
 10
1924.133
 20
-2535.055
 30
3377.000
 70
    32
  0
VERTEX
  8
1850LEVEL
 62
5
 10
1919.169
 20
-2517.663
 30
3377.000
 70
    32
  0
VERTEX
  8
1850LEVEL
 62
5
 10
1914.025
 20
-2500.278
 30
3377.000
 70
    32
  0
VERTEX
  8
1850LEVEL
 62
5
 10
1907.011
 20
-2481.357
 30
3377.000
 70
    32
  0
VERTEX
  8
1850LEVEL
 62
5
 10
1900.633
 20
-2460.857
 30
3377.000
 70
    32
  0
VERTEX
  8
1850LEVEL
 62
5
 10
1895.181
 20
-2439.678
 30
3377.000
 70
    32
  0
VERTEX
  8
1850LEVEL
 62
5
 10
1891.578
 20
-2421.781
 30
3377.000
 70
    32
  0
VERTEX
  8
1850LEVEL
 62
5
 10
1890.260
 20
-2409.694
 30
3377.000
 70
    32
  0
VERTEX
  8
1850LEVEL
 62
5
 10
1888.533
 20
-2396.546
 30
3377.000
 70
    32
  0
VERTEX
  8
1850LEVEL
 62
5
 10
1887.814
 20
-2379.628
 30
3377.000
 70
    32
  0
VERTEX
  8
1850LEVEL
 62
5
 10
1888.083
 20
-2368.356
 30
3377.000
 70
    32
  0
SEQEND
  8
1850LEVEL
  0
POLYLINE
  8
1850LEVEL
 62
13
 66
     1
 70
     8
  0
VERTEX
  8
1850LEVEL
 62
13
 10
2924.178
 20
-2527.813
 30
3377.000
 70
    32
  0
VERTEX
  8
1850LEVEL
 62
13
 10
2898.526
 20
-2559.223
 30
3377.000
 70
    32
  0
VERTEX
  8
1850LEVEL
 62
13
 10
2879.562
 20
-2617.516
 30
3377.000
 70
    32
  0
VERTEX
  8
1850LEVEL
 62
13
 10
2849.615
 20
-2655.042
 30
3377.000
 70
    32
  0
VERTEX
  8
1850LEVEL
 62
13
 10
2837.207
 20
-2687.372
 30
3377.000
 70
    32
  0
VERTEX
  8
1850LEVEL
 62
13
 10
2813.103
 20
-2689.464
 30
3377.000
 70
    32
  0
VERTEX
  8
1850LEVEL
 62
13
 10
2779.746
 20
-2675.622
 30
3377.000
 70
    32
  0
VERTEX
  8
1850LEVEL
 62
13
 10
2752.504
 20
-2712.078
 30
3377.000
 70
    32
  0
VERTEX
  8
1850LEVEL
 62
13
 10
2716.652
 20
-2725.629
 30
3377.000
 70
    32
  0
VERTEX
  8
1850LEVEL
 62
13
 10
2659.669
 20
-2658.857
 30
3377.000
 70
    32
  0
VERTEX
  8
1850LEVEL
 62
13
 10
2621.806
 20
-2552.774
 30
3377.000
 70
    32
  0
VERTEX
  8
1850LEVEL
 62
13
 10
2593.559
 20
-2458.892
 30
3377.000
 70
    32
  0
VERTEX
  8
1850LEVEL
 62
13
 10
2551.654
 20
-2386.518
 30
3377.000
 70
    32
  0
VERTEX
  8
1850LEVEL
 62
13
 10
2506.085
 20
-2281.187
 30
3377.000
 70
    32
  0
VERTEX
  8
1850LEVEL
 62
13
 10
2465.355
 20
-2177.159
 30
3377.000
 70
    32
  0
VERTEX
  8
1850LEVEL
 62
13
 10
2414.043
 20
-2046.869
 30
3377.000
 70
    32
  0
VERTEX
  8
1850LEVEL
 62
13
 10
2369.836
 20
-1947.070
 30
3377.000
 70
    32
  0
VERTEX
  8
1850LEVEL
 62
13
 10
2316.328
 20
-1827.033
 30
3377.000
 70
    32
  0
VERTEX
  8
1850LEVEL
 62
13
 10
2279.596
 20
-1711.026
 30
3377.000
 70
    32
  0
VERTEX
  8
1850LEVEL
 62
13
 10
2225.103
 20
-1590.827
 30
3377.000
 70
    32
  0
VERTEX
  8
1850LEVEL
 62
13
 10
2185.300
 20
-1571.626
 30
3377.000
 70
    32
  0
VERTEX
  8
1850LEVEL
 62
13
 10
2192.158
 20
-1672.597
 30
3377.000
 70
    32
  0
VERTEX
  8
1850LEVEL
 62
13
 10
2222.471
 20
-1798.414
 30
3377.000
 70
    32
  0
VERTEX
  8
1850LEVEL
 62
13
 10
2255.471
 20
-1914.058
 30
3377.000
 70
    32
  0
VERTEX
  8
1850LEVEL
 62
13
 10
2276.764
 20
-2016.398
 30
3377.000
 70
    32
  0
VERTEX
  8
1850LEVEL
 62
13
 10
2260.873
 20
-2167.961
 30
3377.000
 70
    32
  0
VERTEX
  8
1850LEVEL
 62
13
 10
2253.038
 20
-2259.937
 30
3377.000
 70
    32
  0
VERTEX
  8
1850LEVEL
 62
13
 10
2254.117
 20
-2314.711
 30
3377.000
 70
    32
  0
VERTEX
  8
1850LEVEL
 62
13
 10
2206.651
 20
-2274.532
 30
3377.000
 70
    32
  0
VERTEX
  8
1850LEVEL
 62
13
 10
2169.038
 20
-2265.044
 30
3377.000
 70
    32
  0
VERTEX
  8
1850LEVEL
 62
13
 10
2162.020
 20
-2332.132
 30
3377.000
 70
    32
  0
VERTEX
  8
1850LEVEL
 62
13
 10
2166.348
 20
-2416.256
 30
3377.000
 70
    32
  0
VERTEX
  8
1850LEVEL
 62
13
 10
2157.891
 20
-2504.338
 30
3377.000
 70
    32
  0
VERTEX
  8
1850LEVEL
 62
13
 10
2177.474
 20
-2613.979
 30
3377.000
 70
    32
  0
VERTEX
  8
1850LEVEL
 62
13
 10
2214.569
 20
-2726.254
 30
3377.000
 70
    32
  0
VERTEX
  8
1850LEVEL
 62
13
 10
2274.665
 20
-2838.531
 30
3377.000
 70
    32
  0
VERTEX
  8
1850LEVEL
 62
13
 10
2331.111
 20
-2926.951
 30
3377.000
 70
    32
  0
VERTEX
  8
1850LEVEL
 62
13
 10
2268.897
 20
-2893.439
 30
3377.000
 70
    32
  0
VERTEX
  8
1850LEVEL
 62
13
 10
2282.145
 20
-2943.395
 30
3377.000
 70
    32
  0
VERTEX
  8
1850LEVEL
 62
13
 10
2223.275
 20
-2875.807
 30
3377.000
 70
    32
  0
VERTEX
  8
1850LEVEL
 62
13
 10
2137.456
 20
-2802.651
 30
3377.000
 70
    32
  0
VERTEX
  8
1850LEVEL
 62
13
 10
2120.443
 20
-2786.797
 30
3377.000
 70
    32
  0
VERTEX
  8
1850LEVEL
 62
13
 10
2100.847
 20
-2768.940
 30
3377.000
 70
    32
  0
VERTEX
  8
1850LEVEL
 62
13
 10
2080.855
 20
-2751.808
 30
3377.000
 70
    32
  0
VERTEX
  8
1850LEVEL
 62
13
 10
2067.651
 20
-2739.965
 30
3377.000
 70
    32
  0
VERTEX
  8
1850LEVEL
 62
13
 10
2055.520
 20
-2730.429
 30
3377.000
 70
    32
  0
VERTEX
  8
1850LEVEL
 62
13
 10
2049.289
 20
-2723.369
 30
3377.000
 70
    32
  0
VERTEX
  8
1850LEVEL
 62
13
 10
2042.232
 20
-2716.111
 30
3377.000
 70
    32
  0
VERTEX
  8
1850LEVEL
 62
13
 10
2033.883
 20
-2708.440
 30
3377.000
 70
    32
  0
VERTEX
  8
1850LEVEL
 62
13
 10
2028.921
 20
-2703.109
 30
3377.000
 70
    32
  0
VERTEX
  8
1850LEVEL
 62
13
 10
2023.738
 20
-2693.177
 30
3377.000
 70
    32
  0
VERTEX
  8
1850LEVEL
 62
13
 10
2019.430
 20
-2685.449
 30
3377.000
 70
    32
  0
VERTEX
  8
1850LEVEL
 62
13
 10
2015.862
 20
-2681.261
 30
3377.000
 70
    32
  0
VERTEX
  8
1850LEVEL
 62
13
 10
2011.684
 20
-2678.264
 30
3377.000
 70
    32
  0
VERTEX
  8
1850LEVEL
 62
13
 10
2008.806
 20
-2678.642
 30
3377.000
 70
    32
  0
VERTEX
  8
1850LEVEL
 62
13
 10
2008.984
 20
-2681.667
 30
3377.000
 70
    32
  0
VERTEX
  8
1850LEVEL
 62
13
 10
2010.921
 20
-2687.175
 30
3377.000
 70
    32
  0
VERTEX
  8
1850LEVEL
 62
13
 10
2014.483
 20
-2692.790
 30
3377.000
 70
    32
  0
VERTEX
  8
1850LEVEL
 62
13
 10
2016.018
 20
-2697.665
 30
3377.000
 70
    32
  0
VERTEX
  8
1850LEVEL
 62
13
 10
2016.976
 20
-2701.417
 30
3377.000
 70
    32
  0
VERTEX
  8
1850LEVEL
 62
13
 10
2018.540
 20
-2705.404
 30
3377.000
 70
    32
  0
VERTEX
  8
1850LEVEL
 62
13
 10
2015.424
 20
-2704.782
 30
3377.000
 70
    32
  0
VERTEX
  8
1850LEVEL
 62
13
 10
2010.293
 20
-2698.463
 30
3377.000
 70
    32
  0
VERTEX
  8
1850LEVEL
 62
13
 10
2004.863
 20
-2689.206
 30
3377.000
 70
    32
  0
VERTEX
  8
1850LEVEL
 62
13
 10
2002.569
 20
-2682.537
 30
3377.000
 70
    32
  0
VERTEX
  8
1850LEVEL
 62
13
 10
1999.704
 20
-2675.174
 30
3377.000
 70
    32
  0
VERTEX
  8
1850LEVEL
 62
13
 10
1995.852
 20
-2669.586
 30
3377.000
 70
    32
  0
VERTEX
  8
1850LEVEL
 62
13
 10
1987.489
 20
-2659.451
 30
3377.000
 70
    32
  0
VERTEX
  8
1850LEVEL
 62
13
 10
1978.429
 20
-2653.847
 30
3377.000
 70
    32
  0
VERTEX
  8
1850LEVEL
 62
13
 10
1972.266
 20
-2650.759
 30
3377.000
 70
    32
  0
VERTEX
  8
1850LEVEL
 62
13
 10
1965.266
 20
-2646.615
 30
3377.000
 70
    32
  0
VERTEX
  8
1850LEVEL
 62
13
 10
1959.679
 20
-2641.866
 30
3377.000
 70
    32
  0
VERTEX
  8
1850LEVEL
 62
13
 10
1956.922
 20
-2638.445
 30
3377.000
 70
    32
  0
VERTEX
  8
1850LEVEL
 62
13
 10
1955.357
 20
-2633.530
 30
3377.000
 70
    32
  0
VERTEX
  8
1850LEVEL
 62
13
 10
1951.655
 20
-2626.038
 30
3377.000
 70
    32
  0
VERTEX
  8
1850LEVEL
 62
13
 10
1947.964
 20
-2620.332
 30
3377.000
 70
    32
  0
VERTEX
  8
1850LEVEL
 62
13
 10
1944.442
 20
-2615.615
 30
3377.000
 70
    32
  0
VERTEX
  8
1850LEVEL
 62
13
 10
1940.371
 20
-2610.993
 30
3377.000
 70
    32
  0
VERTEX
  8
1850LEVEL
 62
13
 10
1935.390
 20
-2608.336
 30
3377.000
 70
    32
  0
VERTEX
  8
1850LEVEL
 62
13
 10
1930.923
 20
-2610.005
 30
3377.000
 70
    32
  0
VERTEX
  8
1850LEVEL
 62
13
 10
1927.681
 20
-2614.610
 30
3377.000
 70
    32
  0
VERTEX
  8
1850LEVEL
 62
13
 10
1926.838
 20
-2621.725
 30
3377.000
 70
    32
  0
VERTEX
  8
1850LEVEL
 62
13
 10
1928.077
 20
-2636.653
 30
3377.000
 70
    32
  0
VERTEX
  8
1850LEVEL
 62
13
 10
1929.626
 20
-2646.776
 30
3377.000
 70
    32
  0
VERTEX
  8
1850LEVEL
 62
13
 10
1930.966
 20
-2658.723
 30
3377.000
 70
    32
  0
VERTEX
  8
1850LEVEL
 62
13
 10
1933.098
 20
-2671.327
 30
3377.000
 70
    32
  0
VERTEX
  8
1850LEVEL
 62
13
 10
1935.328
 20
-2679.342
 30
3377.000
 70
    32
  0
VERTEX
  8
1850LEVEL
 62
13
 10
1937.732
 20
-2688.776
 30
3377.000
 70
    32
  0
VERTEX
  8
1850LEVEL
 62
13
 10
1940.147
 20
-2698.140
 30
3377.000
 70
    32
  0
VERTEX
  8
1850LEVEL
 62
13
 10
1941.445
 20
-2709.438
 30
3377.000
 70
    32
  0
VERTEX
  8
1850LEVEL
 62
13
 10
1942.532
 20
-2717.920
 30
3377.000
 70
    32
  0
VERTEX
  8
1850LEVEL
 62
13
 10
1944.687
 20
-2728.279
 30
3377.000
 70
    32
  0
VERTEX
  8
1850LEVEL
 62
13
 10
1947.708
 20
-2736.023
 30
3377.000
 70
    32
  0
VERTEX
  8
1850LEVEL
 62
13
 10
1949.020
 20
-2738.401
 30
3377.000
 70
    32
  0
VERTEX
  8
1850LEVEL
 62
13
 10
1951.800
 20
-2744.467
 30
3377.000
 70
    32
  0
VERTEX
  8
1850LEVEL
 62
13
 10
1951.717
 20
-2745.703
 30
3377.000
 70
    32
  0
VERTEX
  8
1850LEVEL
 62
13
 10
1948.659
 20
-2743.306
 30
3377.000
 70
    32
  0
VERTEX
  8
1850LEVEL
 62
13
 10
1944.997
 20
-2736.713
 30
3377.000
 70
    32
  0
VERTEX
  8
1850LEVEL
 62
13
 10
1942.186
 20
-2731.784
 30
3377.000
 70
    32
  0
VERTEX
  8
1850LEVEL
 62
13
 10
1937.109
 20
-2726.043
 30
3377.000
 70
    32
  0
VERTEX
  8
1850LEVEL
 62
13
 10
1935.207
 20
-2726.572
 30
3377.000
 70
    32
  0
VERTEX
  8
1850LEVEL
 62
13
 10
1936.185
 20
-2735.073
 30
3377.000
 70
    32
  0
VERTEX
  8
1850LEVEL
 62
13
 10
1939.257
 20
-2741.790
 30
3377.000
 70
    32
  0
VERTEX
  8
1850LEVEL
 62
13
 10
1941.768
 20
-2747.743
 30
3377.000
 70
    32
  0
VERTEX
  8
1850LEVEL
 62
13
 10
1943.107
 20
-2752.267
 30
3377.000
 70
    32
  0
VERTEX
  8
1850LEVEL
 62
13
 10
1941.804
 20
-2754.707
 30
3377.000
 70
    32
  0
VERTEX
  8
1850LEVEL
 62
13
 10
1938.489
 20
-2753.056
 30
3377.000
 70
    32
  0
VERTEX
  8
1850LEVEL
 62
13
 10
1936.241
 20
-2750.498
 30
3377.000
 70
    32
  0
VERTEX
  8
1850LEVEL
 62
13
 10
1932.633
 20
-2744.484
 30
3377.000
 70
    32
  0
VERTEX
  8
1850LEVEL
 62
13
 10
1929.224
 20
-2739.499
 30
3377.000
 70
    32
  0
VERTEX
  8
1850LEVEL
 62
13
 10
1927.849
 20
-2740.322
 30
3377.000
 70
    32
  0
VERTEX
  8
1850LEVEL
 62
13
 10
1930.454
 20
-2746.825
 30
3377.000
 70
    32
  0
VERTEX
  8
1850LEVEL
 62
13
 10
1935.201
 20
-2753.550
 30
3377.000
 70
    32
  0
VERTEX
  8
1850LEVEL
 62
13
 10
1941.089
 20
-2760.985
 30
3377.000
 70
    32
  0
VERTEX
  8
1850LEVEL
 62
13
 10
1946.193
 20
-2767.016
 30
3377.000
 70
    32
  0
VERTEX
  8
1850LEVEL
 62
13
 10
1950.008
 20
-2771.456
 30
3377.000
 70
    32
  0
VERTEX
  8
1850LEVEL
 62
13
 10
1953.106
 20
-2778.462
 30
3377.000
 70
    32
  0
VERTEX
  8
1850LEVEL
 62
13
 10
1955.448
 20
-2783.426
 30
3377.000
 70
    32
  0
VERTEX
  8
1850LEVEL
 62
13
 10
1961.513
 20
-2792.958
 30
3377.000
 70
    32
  0
VERTEX
  8
1850LEVEL
 62
13
 10
1970.850
 20
-2805.349
 30
3377.000
 70
    32
  0
VERTEX
  8
1850LEVEL
 62
13
 10
1977.967
 20
-2814.543
 30
3377.000
 70
    32
  0
VERTEX
  8
1850LEVEL
 62
13
 10
1987.349
 20
-2826.405
 30
3377.000
 70
    32
  0
VERTEX
  8
1850LEVEL
 62
13
 10
1994.157
 20
-2836.444
 30
3377.000
 70
    32
  0
VERTEX
  8
1850LEVEL
 62
13
 10
1998.240
 20
-2842.853
 30
3377.000
 70
    32
  0
VERTEX
  8
1850LEVEL
 62
13
 10
2001.789
 20
-2849.715
 30
3377.000
 70
    32
  0
VERTEX
  8
1850LEVEL
 62
13
 10
2002.296
 20
-2851.755
 30
3377.000
 70
    32
  0
VERTEX
  8
1850LEVEL
 62
13
 10
1999.129
 20
-2851.233
 30
3377.000
 70
    32
  0
VERTEX
  8
1850LEVEL
 62
13
 10
1993.883
 20
-2846.359
 30
3377.000
 70
    32
  0
VERTEX
  8
1850LEVEL
 62
13
 10
1988.899
 20
-2839.312
 30
3377.000
 70
    32
  0
VERTEX
  8
1850LEVEL
 62
13
 10
1983.553
 20
-2832.531
 30
3377.000
 70
    32
  0
VERTEX
  8
1850LEVEL
 62
13
 10
1977.167
 20
-2825.090
 30
3377.000
 70
    32
  0
VERTEX
  8
1850LEVEL
 62
13
 10
1972.148
 20
-2819.430
 30
3377.000
 70
    32
  0
VERTEX
  8
1850LEVEL
 62
13
 10
1969.635
 20
-2818.366
 30
3377.000
 70
    32
  0
VERTEX
  8
1850LEVEL
 62
13
 10
1970.494
 20
-2824.850
 30
3377.000
 70
    32
  0
VERTEX
  8
1850LEVEL
 62
13
 10
1974.921
 20
-2833.667
 30
3377.000
 70
    32
  0
VERTEX
  8
1850LEVEL
 62
13
 10
1978.073
 20
-2842.181
 30
3377.000
 70
    32
  0
VERTEX
  8
1850LEVEL
 62
13
 10
1980.376
 20
-2849.957
 30
3377.000
 70
    32
  0
VERTEX
  8
1850LEVEL
 62
13
 10
1983.120
 20
-2856.481
 30
3377.000
 70
    32
  0
VERTEX
  8
1850LEVEL
 62
13
 10
1985.934
 20
-2863.016
 30
3377.000
 70
    32
  0
VERTEX
  8
1850LEVEL
 62
13
 10
1988.805
 20
-2869.881
 30
3377.000
 70
    32
  0
VERTEX
  8
1850LEVEL
 62
13
 10
1990.342
 20
-2874.506
 30
3377.000
 70
    32
  0
VERTEX
  8
1850LEVEL
 62
13
 10
1994.809
 20
-2883.293
 30
3377.000
 70
    32
  0
VERTEX
  8
1850LEVEL
 62
13
 10
2000.828
 20
-2891.498
 30
3377.000
 70
    32
  0
VERTEX
  8
1850LEVEL
 62
13
 10
2004.991
 20
-2896.920
 30
3377.000
 70
    32
  0
VERTEX
  8
1850LEVEL
 62
13
 10
2008.813
 20
-2901.540
 30
3377.000
 70
    32
  0
VERTEX
  8
1850LEVEL
 62
13
 10
2010.951
 20
-2904.117
 30
3377.000
 70
    32
  0
VERTEX
  8
1850LEVEL
 62
13
 10
2013.105
 20
-2907.053
 30
3377.000
 70
    32
  0
VERTEX
  8
1850LEVEL
 62
13
 10
2015.487
 20
-2911.987
 30
3377.000
 70
    32
  0
VERTEX
  8
1850LEVEL
 62
13
 10
2018.274
 20
-2916.376
 30
3377.000
 70
    32
  0
VERTEX
  8
1850LEVEL
 62
13
 10
2019.096
 20
-2920.785
 30
3377.000
 70
    32
  0
VERTEX
  8
1850LEVEL
 62
13
 10
2019.614
 20
-2923.683
 30
3377.000
 70
    32
  0
VERTEX
  8
1850LEVEL
 62
13
 10
2018.702
 20
-2924.043
 30
3377.000
 70
    32
  0
VERTEX
  8
1850LEVEL
 62
13
 10
2016.039
 20
-2921.171
 30
3377.000
 70
    32
  0
VERTEX
  8
1850LEVEL
 62
13
 10
2009.213
 20
-2914.734
 30
3377.000
 70
    32
  0
VERTEX
  8
1850LEVEL
 62
13
 10
2003.436
 20
-2911.919
 30
3377.000
 70
    32
  0
VERTEX
  8
1850LEVEL
 62
13
 10
1997.702
 20
-2909.753
 30
3377.000
 70
    32
  0
VERTEX
  8
1850LEVEL
 62
13
 10
1992.837
 20
-2908.435
 30
3377.000
 70
    32
  0
VERTEX
  8
1850LEVEL
 62
13
 10
1991.647
 20
-2911.535
 30
3377.000
 70
    32
  0
VERTEX
  8
1850LEVEL
 62
13
 10
1995.618
 20
-2923.779
 30
3377.000
 70
    32
  0
VERTEX
  8
1850LEVEL
 62
13
 10
2000.303
 20
-2937.417
 30
3377.000
 70
    32
  0
VERTEX
  8
1850LEVEL
 62
13
 10
2005.542
 20
-2950.463
 30
3377.000
 70
    32
  0
VERTEX
  8
1850LEVEL
 62
13
 10
2007.742
 20
-2956.582
 30
3377.000
 70
    32
  0
VERTEX
  8
1850LEVEL
 62
13
 10
2010.265
 20
-2968.032
 30
3377.000
 70
    32
  0
VERTEX
  8
1850LEVEL
 62
13
 10
2013.447
 20
-2976.586
 30
3377.000
 70
    32
  0
VERTEX
  8
1850LEVEL
 62
13
 10
2015.916
 20
-2982.818
 30
3377.000
 70
    32
  0
VERTEX
  8
1850LEVEL
 62
13
 10
2018.813
 20
-2989.972
 30
3377.000
 70
    32
  0
VERTEX
  8
1850LEVEL
 62
13
 10
2023.235
 20
-3002.072
 30
3377.000
 70
    32
  0
VERTEX
  8
1850LEVEL
 62
13
 10
2026.232
 20
-3012.988
 30
3377.000
 70
    32
  0
VERTEX
  8
1850LEVEL
 62
13
 10
2028.594
 20
-3023.629
 30
3377.000
 70
    32
  0
VERTEX
  8
1850LEVEL
 62
13
 10
2031.390
 20
-3035.621
 30
3377.000
 70
    32
  0
VERTEX
  8
1850LEVEL
 62
13
 10
2033.017
 20
-3043.151
 30
3377.000
 70
    32
  0
VERTEX
  8
1850LEVEL
 62
13
 10
2035.491
 20
-3055.379
 30
3377.000
 70
    32
  0
VERTEX
  8
1850LEVEL
 62
13
 10
2036.871
 20
-3064.512
 30
3377.000
 70
    32
  0
VERTEX
  8
1850LEVEL
 62
13
 10
2037.817
 20
-3071.367
 30
3377.000
 70
    32
  0
VERTEX
  8
1850LEVEL
 62
13
 10
2038.920
 20
-3077.424
 30
3377.000
 70
    32
  0
VERTEX
  8
1850LEVEL
 62
13
 10
2041.235
 20
-3083.954
 30
3377.000
 70
    32
  0
VERTEX
  8
1850LEVEL
 62
13
 10
2043.148
 20
-3088.923
 30
3377.000
 70
    32
  0
VERTEX
  8
1850LEVEL
 62
13
 10
2045.329
 20
-3094.932
 30
3377.000
 70
    32
  0
VERTEX
  8
1850LEVEL
 62
13
 10
2046.832
 20
-3100.016
 30
3377.000
 70
    32
  0
VERTEX
  8
1850LEVEL
 62
13
 10
2047.817
 20
-3104.058
 30
3377.000
 70
    32
  0
VERTEX
  8
1850LEVEL
 62
13
 10
2047.259
 20
-3104.900
 30
3377.000
 70
    32
  0
VERTEX
  8
1850LEVEL
 62
13
 10
2044.355
 20
-3103.133
 30
3377.000
 70
    32
  0
VERTEX
  8
1850LEVEL
 62
13
 10
2041.648
 20
-3098.684
 30
3377.000
 70
    32
  0
VERTEX
  8
1850LEVEL
 62
13
 10
2039.408
 20
-3094.450
 30
3377.000
 70
    32
  0
VERTEX
  8
1850LEVEL
 62
13
 10
2037.206
 20
-3090.436
 30
3377.000
 70
    32
  0
VERTEX
  8
1850LEVEL
 62
13
 10
2034.569
 20
-3085.999
 30
3377.000
 70
    32
  0
VERTEX
  8
1850LEVEL
 62
13
 10
2030.277
 20
-3078.630
 30
3377.000
 70
    32
  0
VERTEX
  8
1850LEVEL
 62
13
 10
2026.752
 20
-3072.307
 30
3377.000
 70
    32
  0
VERTEX
  8
1850LEVEL
 62
13
 10
2024.174
 20
-3067.022
 30
3377.000
 70
    32
  0
VERTEX
  8
1850LEVEL
 62
13
 10
2020.295
 20
-3061.144
 30
3377.000
 70
    32
  0
VERTEX
  8
1850LEVEL
 62
13
 10
2016.387
 20
-3057.082
 30
3377.000
 70
    32
  0
VERTEX
  8
1850LEVEL
 62
13
 10
2010.728
 20
-3053.501
 30
3377.000
 70
    32
  0
VERTEX
  8
1850LEVEL
 62
13
 10
2009.277
 20
-3052.957
 30
3377.000
 70
    32
  0
VERTEX
  8
1850LEVEL
 62
13
 10
2002.192
 20
-3050.298
 30
3377.000
 70
    32
  0
VERTEX
  8
1850LEVEL
 62
13
 10
1996.007
 20
-3048.277
 30
3377.000
 70
    32
  0
VERTEX
  8
1850LEVEL
 62
13
 10
1990.885
 20
-3044.920
 30
3377.000
 70
    32
  0
VERTEX
  8
1850LEVEL
 62
13
 10
1987.905
 20
-3042.714
 30
3377.000
 70
    32
  0
VERTEX
  8
1850LEVEL
 62
13
 10
1983.026
 20
-3038.931
 30
3377.000
 70
    32
  0
VERTEX
  8
1850LEVEL
 62
13
 10
1977.557
 20
-3032.487
 30
3377.000
 70
    32
  0
VERTEX
  8
1850LEVEL
 62
13
 10
1973.005
 20
-3026.114
 30
3377.000
 70
    32
  0
VERTEX
  8
1850LEVEL
 62
13
 10
1968.662
 20
-3019.772
 30
3377.000
 70
    32
  0
VERTEX
  8
1850LEVEL
 62
13
 10
1966.414
 20
-3014.431
 30
3377.000
 70
    32
  0
VERTEX
  8
1850LEVEL
 62
13
 10
1964.501
 20
-3008.534
 30
3377.000
 70
    32
  0
VERTEX
  8
1850LEVEL
 62
13
 10
1960.464
 20
-3001.597
 30
3377.000
 70
    32
  0
VERTEX
  8
1850LEVEL
 62
13
 10
1955.631
 20
-2996.358
 30
3377.000
 70
    32
  0
VERTEX
  8
1850LEVEL
 62
13
 10
1950.467
 20
-2989.320
 30
3377.000
 70
    32
  0
VERTEX
  8
1850LEVEL
 62
13
 10
1945.655
 20
-2983.013
 30
3377.000
 70
    32
  0
VERTEX
  8
1850LEVEL
 62
13
 10
1939.773
 20
-2976.935
 30
3377.000
 70
    32
  0
VERTEX
  8
1850LEVEL
 62
13
 10
1933.993
 20
-2972.514
 30
3377.000
 70
    32
  0
VERTEX
  8
1850LEVEL
 62
13
 10
1926.953
 20
-2968.398
 30
3377.000
 70
    32
  0
VERTEX
  8
1850LEVEL
 62
13
 10
1923.131
 20
-2966.562
 30
3377.000
 70
    32
  0
VERTEX
  8
1850LEVEL
 62
13
 10
1920.331
 20
-2965.275
 30
3377.000
 70
    32
  0
VERTEX
  8
1850LEVEL
 62
13
 10
1917.231
 20
-2962.230
 30
3377.000
 70
    32
  0
VERTEX
  8
1850LEVEL
 62
13
 10
1911.405
 20
-2955.553
 30
3377.000
 70
    32
  0
VERTEX
  8
1850LEVEL
 62
13
 10
1906.786
 20
-2950.775
 30
3377.000
 70
    32
  0
VERTEX
  8
1850LEVEL
 62
13
 10
1902.752
 20
-2946.373
 30
3377.000
 70
    32
  0
VERTEX
  8
1850LEVEL
 62
13
 10
1896.361
 20
-2940.359
 30
3377.000
 70
    32
  0
VERTEX
  8
1850LEVEL
 62
13
 10
1887.974
 20
-2933.396
 30
3377.000
 70
    32
  0
VERTEX
  8
1850LEVEL
 62
13
 10
1877.133
 20
-2923.593
 30
3377.000
 70
    32
  0
VERTEX
  8
1850LEVEL
 62
13
 10
1869.617
 20
-2918.156
 30
3377.000
 70
    32
  0
VERTEX
  8
1850LEVEL
 62
13
 10
1862.191
 20
-2913.768
 30
3377.000
 70
    32
  0
VERTEX
  8
1850LEVEL
 62
13
 10
1854.035
 20
-2909.481
 30
3377.000
 70
    32
  0
VERTEX
  8
1850LEVEL
 62
13
 10
1848.406
 20
-2906.867
 30
3377.000
 70
    32
  0
VERTEX
  8
1850LEVEL
 62
13
 10
1842.028
 20
-2905.174
 30
3377.000
 70
    32
  0
VERTEX
  8
1850LEVEL
 62
13
 10
1838.194
 20
-2906.440
 30
3377.000
 70
    32
  0
VERTEX
  8
1850LEVEL
 62
13
 10
1836.489
 20
-2909.176
 30
3377.000
 70
    32
  0
VERTEX
  8
1850LEVEL
 62
13
 10
1831.646
 20
-2911.429
 30
3377.000
 70
    32
  0
VERTEX
  8
1850LEVEL
 62
13
 10
1825.231
 20
-2910.443
 30
3377.000
 70
    32
  0
VERTEX
  8
1850LEVEL
 62
13
 10
1819.395
 20
-2905.692
 30
3377.000
 70
    32
  0
VERTEX
  8
1850LEVEL
 62
13
 10
1815.184
 20
-2900.121
 30
3377.000
 70
    32
  0
VERTEX
  8
1850LEVEL
 62
13
 10
1811.978
 20
-2892.883
 30
3377.000
 70
    32
  0
VERTEX
  8
1850LEVEL
 62
13
 10
1805.456
 20
-2879.355
 30
3377.000
 70
    32
  0
VERTEX
  8
1850LEVEL
 62
13
 10
1799.785
 20
-2867.492
 30
3377.000
 70
    32
  0
VERTEX
  8
1850LEVEL
 62
13
 10
1794.702
 20
-2857.611
 30
3377.000
 70
    32
  0
VERTEX
  8
1850LEVEL
 62
13
 10
1791.126
 20
-2851.388
 30
3377.000
 70
    32
  0
VERTEX
  8
1850LEVEL
 62
13
 10
1790.133
 20
-2850.878
 30
3377.000
 70
    32
  0
VERTEX
  8
1850LEVEL
 62
13
 10
1789.546
 20
-2852.608
 30
3377.000
 70
    32
  0
VERTEX
  8
1850LEVEL
 62
13
 10
1788.131
 20
-2855.317
 30
3377.000
 70
    32
  0
VERTEX
  8
1850LEVEL
 62
13
 10
1783.977
 20
-2854.714
 30
3377.000
 70
    32
  0
VERTEX
  8
1850LEVEL
 62
13
 10
1780.152
 20
-2849.416
 30
3377.000
 70
    32
  0
VERTEX
  8
1850LEVEL
 62
13
 10
1774.293
 20
-2839.237
 30
3377.000
 70
    32
  0
VERTEX
  8
1850LEVEL
 62
13
 10
1772.000
 20
-2835.352
 30
3377.000
 70
    32
  0
VERTEX
  8
1850LEVEL
 62
13
 10
1767.016
 20
-2830.161
 30
3377.000
 70
    32
  0
VERTEX
  8
1850LEVEL
 62
13
 10
1759.008
 20
-2827.003
 30
3377.000
 70
    32
  0
VERTEX
  8
1850LEVEL
 62
13
 10
1752.390
 20
-2829.198
 30
3377.000
 70
    32
  0
VERTEX
  8
1850LEVEL
 62
13
 10
1744.638
 20
-2831.112
 30
3377.000
 70
    32
  0
VERTEX
  8
1850LEVEL
 62
13
 10
1738.979
 20
-2829.386
 30
3377.000
 70
    32
  0
VERTEX
  8
1850LEVEL
 62
13
 10
1732.832
 20
-2826.657
 30
3377.000
 70
    32
  0
VERTEX
  8
1850LEVEL
 62
13
 10
1723.772
 20
-2821.054
 30
3377.000
 70
    32
  0
VERTEX
  8
1850LEVEL
 62
13
 10
1716.123
 20
-2814.168
 30
3377.000
 70
    32
  0
VERTEX
  8
1850LEVEL
 62
13
 10
1709.307
 20
-2807.661
 30
3377.000
 70
    32
  0
VERTEX
  8
1850LEVEL
 62
13
 10
1703.342
 20
-2801.891
 30
3377.000
 70
    32
  0
VERTEX
  8
1850LEVEL
 62
13
 10
1697.031
 20
-2797.674
 30
3377.000
 70
    32
  0
VERTEX
  8
1850LEVEL
 62
13
 10
1691.303
 20
-2795.937
 30
3377.000
 70
    32
  0
VERTEX
  8
1850LEVEL
 62
13
 10
1684.647
 20
-2794.201
 30
3377.000
 70
    32
  0
VERTEX
  8
1850LEVEL
 62
13
 10
1680.479
 20
-2792.061
 30
3377.000
 70
    32
  0
VERTEX
  8
1850LEVEL
 62
13
 10
1673.905
 20
-2786.305
 30
3377.000
 70
    32
  0
VERTEX
  8
1850LEVEL
 62
13
 10
1666.980
 20
-2777.961
 30
3377.000
 70
    32
  0
VERTEX
  8
1850LEVEL
 62
13
 10
1661.194
 20
-2771.255
 30
3377.000
 70
    32
  0
VERTEX
  8
1850LEVEL
 62
13
 10
1657.275
 20
-2767.262
 30
3377.000
 70
    32
  0
VERTEX
  8
1850LEVEL
 62
13
 10
1652.885
 20
-2763.554
 30
3377.000
 70
    32
  0
VERTEX
  8
1850LEVEL
 62
13
 10
1650.119
 20
-2758.098
 30
3377.000
 70
    32
  0
VERTEX
  8
1850LEVEL
 62
13
 10
1645.241
 20
-2745.714
 30
3377.000
 70
    32
  0
VERTEX
  8
1850LEVEL
 62
13
 10
1642.998
 20
-2739.874
 30
3377.000
 70
    32
  0
VERTEX
  8
1850LEVEL
 62
13
 10
1639.318
 20
-2735.026
 30
3377.000
 70
    32
  0
VERTEX
  8
1850LEVEL
 62
13
 10
1634.534
 20
-2732.721
 30
3377.000
 70
    32
  0
VERTEX
  8
1850LEVEL
 62
13
 10
1633.569
 20
-2735.285
 30
3377.000
 70
    32
  0
VERTEX
  8
1850LEVEL
 62
13
 10
1632.266
 20
-2740.509
 30
3377.000
 70
    32
  0
VERTEX
  8
1850LEVEL
 62
13
 10
1629.679
 20
-2745.500
 30
3377.000
 70
    32
  0
VERTEX
  8
1850LEVEL
 62
13
 10
1626.910
 20
-2750.749
 30
3377.000
 70
    32
  0
VERTEX
  8
1850LEVEL
 62
13
 10
1625.715
 20
-2755.275
 30
3377.000
 70
    32
  0
VERTEX
  8
1850LEVEL
 62
13
 10
1625.365
 20
-2761.038
 30
3377.000
 70
    32
  0
VERTEX
  8
1850LEVEL
 62
13
 10
1624.266
 20
-2765.866
 30
3377.000
 70
    32
  0
VERTEX
  8
1850LEVEL
 62
13
 10
1622.491
 20
-2768.591
 30
3377.000
 70
    32
  0
VERTEX
  8
1850LEVEL
 62
13
 10
1620.604
 20
-2772.512
 30
3377.000
 70
    32
  0
VERTEX
  8
1850LEVEL
 62
13
 10
1617.913
 20
-2777.951
 30
3377.000
 70
    32
  0
VERTEX
  8
1850LEVEL
 62
13
 10
1616.580
 20
-2780.351
 30
3377.000
 70
    32
  0
VERTEX
  8
1850LEVEL
 62
13
 10
1614.283
 20
-2785.315
 30
3377.000
 70
    32
  0
VERTEX
  8
1850LEVEL
 62
13
 10
1612.843
 20
-2787.485
 30
3377.000
 70
    32
  0
VERTEX
  8
1850LEVEL
 62
13
 10
1611.765
 20
-2787.533
 30
3377.000
 70
    32
  0
VERTEX
  8
1850LEVEL
 62
13
 10
1609.418
 20
-2783.997
 30
3377.000
 70
    32
  0
VERTEX
  8
1850LEVEL
 62
13
 10
1608.609
 20
-2775.557
 30
3377.000
 70
    32
  0
VERTEX
  8
1850LEVEL
 62
13
 10
1608.457
 20
-2765.399
 30
3377.000
 70
    32
  0
VERTEX
  8
1850LEVEL
 62
13
 10
1610.004
 20
-2748.365
 30
3377.000
 70
    32
  0
VERTEX
  8
1850LEVEL
 62
13
 10
1612.107
 20
-2733.521
 30
3377.000
 70
    32
  0
VERTEX
  8
1850LEVEL
 62
13
 10
1614.266
 20
-2721.791
 30
3377.000
 70
    32
  0
VERTEX
  8
1850LEVEL
 62
13
 10
1616.085
 20
-2708.331
 30
3377.000
 70
    32
  0
VERTEX
  8
1850LEVEL
 62
13
 10
1617.443
 20
-2701.581
 30
3377.000
 70
    32
  0
VERTEX
  8
1850LEVEL
 62
13
 10
1619.238
 20
-2693.150
 30
3377.000
 70
    32
  0
VERTEX
  8
1850LEVEL
 62
13
 10
1620.863
 20
-2689.545
 30
3377.000
 70
    32
  0
VERTEX
  8
1850LEVEL
 62
13
 10
1627.293
 20
-2684.395
 30
3377.000
 70
    32
  0
VERTEX
  8
1850LEVEL
 62
13
 10
1630.387
 20
-2682.373
 30
3377.000
 70
    32
  0
VERTEX
  8
1850LEVEL
 62
13
 10
1633.634
 20
-2678.197
 30
3377.000
 70
    32
  0
VERTEX
  8
1850LEVEL
 62
13
 10
1634.943
 20
-2666.657
 30
3377.000
 70
    32
  0
VERTEX
  8
1850LEVEL
 62
13
 10
1632.664
 20
-2651.997
 30
3377.000
 70
    32
  0
VERTEX
  8
1850LEVEL
 62
13
 10
1631.702
 20
-2642.927
 30
3377.000
 70
    32
  0
VERTEX
  8
1850LEVEL
 62
13
 10
1633.183
 20
-2631.200
 30
3377.000
 70
    32
  0
VERTEX
  8
1850LEVEL
 62
13
 10
1635.112
 20
-2622.361
 30
3377.000
 70
    32
  0
VERTEX
  8
1850LEVEL
 62
13
 10
1636.138
 20
-2617.772
 30
3377.000
 70
    32
  0
VERTEX
  8
1850LEVEL
 62
13
 10
1637.220
 20
-2608.874
 30
3377.000
 70
    32
  0
VERTEX
  8
1850LEVEL
 62
13
 10
1637.781
 20
-2597.327
 30
3377.000
 70
    32
  0
VERTEX
  8
1850LEVEL
 62
13
 10
1637.618
 20
-2585.382
 30
3377.000
 70
    32
  0
VERTEX
  8
1850LEVEL
 62
13
 10
1636.721
 20
-2574.967
 30
3377.000
 70
    32
  0
VERTEX
  8
1850LEVEL
 62
13
 10
1633.576
 20
-2564.777
 30
3377.000
 70
    32
  0
VERTEX
  8
1850LEVEL
 62
13
 10
1628.342
 20
-2554.016
 30
3377.000
 70
    32
  0
VERTEX
  8
1850LEVEL
 62
13
 10
1622.945
 20
-2543.623
 30
3377.000
 70
    32
  0
VERTEX
  8
1850LEVEL
 62
13
 10
1618.264
 20
-2537.158
 30
3377.000
 70
    32
  0
VERTEX
  8
1850LEVEL
 62
13
 10
1613.581
 20
-2534.654
 30
3377.000
 70
    32
  0
VERTEX
  8
1850LEVEL
 62
13
 10
1606.979
 20
-2536.281
 30
3377.000
 70
    32
  0
VERTEX
  8
1850LEVEL
 62
13
 10
1599.941
 20
-2542.372
 30
3377.000
 70
    32
  0
VERTEX
  8
1850LEVEL
 62
13
 10
1595.096
 20
-2548.586
 30
3377.000
 70
    32
  0
VERTEX
  8
1850LEVEL
 62
13
 10
1589.479
 20
-2556.109
 30
3377.000
 70
    32
  0
VERTEX
  8
1850LEVEL
 62
13
 10
1586.794
 20
-2563.833
 30
3377.000
 70
    32
  0
VERTEX
  8
1850LEVEL
 62
13
 10
1582.733
 20
-2573.308
 30
3377.000
 70
    32
  0
VERTEX
  8
1850LEVEL
 62
13
 10
1579.258
 20
-2579.198
 30
3377.000
 70
    32
  0
VERTEX
  8
1850LEVEL
 62
13
 10
1575.187
 20
-2589.671
 30
3377.000
 70
    32
  0
VERTEX
  8
1850LEVEL
 62
13
 10
1572.995
 20
-2599.754
 30
3377.000
 70
    32
  0
VERTEX
  8
1850LEVEL
 62
13
 10
1570.312
 20
-2608.157
 30
3377.000
 70
    32
  0
VERTEX
  8
1850LEVEL
 62
13
 10
1567.187
 20
-2618.739
 30
3377.000
 70
    32
  0
VERTEX
  8
1850LEVEL
 62
13
 10
1565.753
 20
-2625.977
 30
3377.000
 70
    32
  0
VERTEX
  8
1850LEVEL
 62
13
 10
1567.318
 20
-2632.748
 30
3377.000
 70
    32
  0
VERTEX
  8
1850LEVEL
 62
13
 10
1570.027
 20
-2637.875
 30
3377.000
 70
    32
  0
VERTEX
  8
1850LEVEL
 62
13
 10
1573.614
 20
-2644.957
 30
3377.000
 70
    32
  0
VERTEX
  8
1850LEVEL
 62
13
 10
1577.196
 20
-2653.465
 30
3377.000
 70
    32
  0
VERTEX
  8
1850LEVEL
 62
13
 10
1579.581
 20
-2661.861
 30
3377.000
 70
    32
  0
VERTEX
  8
1850LEVEL
 62
13
 10
1580.258
 20
-2667.675
 30
3377.000
 70
    32
  0
VERTEX
  8
1850LEVEL
 62
13
 10
1580.828
 20
-2676.970
 30
3377.000
 70
    32
  0
VERTEX
  8
1850LEVEL
 62
13
 10
1582.200
 20
-2687.779
 30
3377.000
 70
    32
  0
VERTEX
  8
1850LEVEL
 62
13
 10
1584.033
 20
-2695.591
 30
3377.000
 70
    32
  0
VERTEX
  8
1850LEVEL
 62
13
 10
1587.964
 20
-2707.864
 30
3377.000
 70
    32
  0
VERTEX
  8
1850LEVEL
 62
13
 10
1590.887
 20
-2719.269
 30
3377.000
 70
    32
  0
VERTEX
  8
1850LEVEL
 62
13
 10
1593.235
 20
-2730.229
 30
3377.000
 70
    32
  0
VERTEX
  8
1850LEVEL
 62
13
 10
1594.438
 20
-2737.265
 30
3377.000
 70
    32
  0
VERTEX
  8
1850LEVEL
 62
13
 10
1595.485
 20
-2745.777
 30
3377.000
 70
    32
  0
VERTEX
  8
1850LEVEL
 62
13
 10
1594.454
 20
-2755.504
 30
3377.000
 70
    32
  0
VERTEX
  8
1850LEVEL
 62
13
 10
1591.801
 20
-2763.946
 30
3377.000
 70
    32
  0
VERTEX
  8
1850LEVEL
 62
13
 10
1589.592
 20
-2769.959
 30
3377.000
 70
    32
  0
VERTEX
  8
1850LEVEL
 62
13
 10
1585.392
 20
-2779.413
 30
3377.000
 70
    32
  0
VERTEX
  8
1850LEVEL
 62
13
 10
1582.102
 20
-2785.723
 30
3377.000
 70
    32
  0
VERTEX
  8
1850LEVEL
 62
13
 10
1580.465
 20
-2788.719
 30
3377.000
 70
    32
  0
VERTEX
  8
1850LEVEL
 62
13
 10
1577.709
 20
-2793.648
 30
3377.000
 70
    32
  0
VERTEX
  8
1850LEVEL
 62
13
 10
1575.974
 20
-2795.416
 30
3377.000
 70
    32
  0
VERTEX
  8
1850LEVEL
 62
13
 10
1575.430
 20
-2795.939
 30
3377.000
 70
    32
  0
VERTEX
  8
1850LEVEL
 62
13
 10
1574.520
 20
-2795.121
 30
3377.000
 70
    32
  0
VERTEX
  8
1850LEVEL
 62
13
 10
1573.710
 20
-2791.571
 30
3377.000
 70
    32
  0
VERTEX
  8
1850LEVEL
 62
13
 10
1573.577
 20
-2785.234
 30
3377.000
 70
    32
  0
VERTEX
  8
1850LEVEL
 62
13
 10
1572.705
 20
-2779.997
 30
3377.000
 70
    32
  0
VERTEX
  8
1850LEVEL
 62
13
 10
1569.603
 20
-2772.311
 30
3377.000
 70
    32
  0
VERTEX
  8
1850LEVEL
 62
13
 10
1570.262
 20
-2764.776
 30
3377.000
 70
    32
  0
VERTEX
  8
1850LEVEL
 62
13
 10
1574.750
 20
-2757.400
 30
3377.000
 70
    32
  0
VERTEX
  8
1850LEVEL
 62
13
 10
1578.626
 20
-2751.216
 30
3377.000
 70
    32
  0
VERTEX
  8
1850LEVEL
 62
13
 10
1582.875
 20
-2741.912
 30
3377.000
 70
    32
  0
VERTEX
  8
1850LEVEL
 62
13
 10
1581.296
 20
-2728.037
 30
3377.000
 70
    32
  0
VERTEX
  8
1850LEVEL
 62
13
 10
1577.960
 20
-2715.142
 30
3377.000
 70
    32
  0
VERTEX
  8
1850LEVEL
 62
13
 10
1575.447
 20
-2698.982
 30
3377.000
 70
    32
  0
VERTEX
  8
1850LEVEL
 62
13
 10
1574.392
 20
-2690.291
 30
3377.000
 70
    32
  0
VERTEX
  8
1850LEVEL
 62
13
 10
1572.296
 20
-2680.940
 30
3377.000
 70
    32
  0
VERTEX
  8
1850LEVEL
 62
13
 10
1570.399
 20
-2676.331
 30
3377.000
 70
    32
  0
VERTEX
  8
1850LEVEL
 62
13
 10
1567.242
 20
-2672.955
 30
3377.000
 70
    32
  0
VERTEX
  8
1850LEVEL
 62
13
 10
1565.829
 20
-2672.631
 30
3377.000
 70
    32
  0
VERTEX
  8
1850LEVEL
 62
13
 10
1563.209
 20
-2675.047
 30
3377.000
 70
    32
  0
VERTEX
  8
1850LEVEL
 62
13
 10
1560.682
 20
-2681.975
 30
3377.000
 70
    32
  0
VERTEX
  8
1850LEVEL
 62
13
 10
1558.004
 20
-2691.734
 30
3377.000
 70
    32
  0
VERTEX
  8
1850LEVEL
 62
13
 10
1555.770
 20
-2703.952
 30
3377.000
 70
    32
  0
VERTEX
  8
1850LEVEL
 62
13
 10
1555.887
 20
-2713.641
 30
3377.000
 70
    32
  0
VERTEX
  8
1850LEVEL
 62
13
 10
1556.970
 20
-2726.333
 30
3377.000
 70
    32
  0
VERTEX
  8
1850LEVEL
 62
13
 10
1557.585
 20
-2733.244
 30
3377.000
 70
    32
  0
VERTEX
  8
1850LEVEL
 62
13
 10
1557.569
 20
-2745.196
 30
3377.000
 70
    32
  0
VERTEX
  8
1850LEVEL
 62
13
 10
1556.573
 20
-2756.320
 30
3377.000
 70
    32
  0
VERTEX
  8
1850LEVEL
 62
13
 10
1556.485
 20
-2761.767
 30
3377.000
 70
    32
  0
VERTEX
  8
1850LEVEL
 62
13
 10
1558.281
 20
-2770.286
 30
3377.000
 70
    32
  0
VERTEX
  8
1850LEVEL
 62
13
 10
1560.009
 20
-2778.545
 30
3377.000
 70
    32
  0
VERTEX
  8
1850LEVEL
 62
13
 10
1561.126
 20
-2785.212
 30
3377.000
 70
    32
  0
VERTEX
  8
1850LEVEL
 62
13
 10
1561.273
 20
-2794.941
 30
3377.000
 70
    32
  0
VERTEX
  8
1850LEVEL
 62
13
 10
1563.222
 20
-2806.874
 30
3377.000
 70
    32
  0
VERTEX
  8
1850LEVEL
 62
13
 10
1564.304
 20
-2813.999
 30
3377.000
 70
    32
  0
VERTEX
  8
1850LEVEL
 62
13
 10
1565.934
 20
-2829.631
 30
3377.000
 70
    32
  0
VERTEX
  8
1850LEVEL
 62
13
 10
1567.487
 20
-2844.144
 30
3377.000
 70
    32
  0
VERTEX
  8
1850LEVEL
 62
13
 10
1568.564
 20
-2854.551
 30
3377.000
 70
    32
  0
VERTEX
  8
1850LEVEL
 62
13
 10
1568.552
 20
-2864.149
 30
3377.000
 70
    32
  0
VERTEX
  8
1850LEVEL
 62
13
 10
1568.583
 20
-2871.612
 30
3377.000
 70
    32
  0
VERTEX
  8
1850LEVEL
 62
13
 10
1568.274
 20
-2881.057
 30
3377.000
 70
    32
  0
VERTEX
  8
1850LEVEL
 62
13
 10
1568.506
 20
-2889.301
 30
3377.000
 70
    32
  0
VERTEX
  8
1850LEVEL
 62
13
 10
1568.483
 20
-2897.113
 30
3377.000
 70
    32
  0
VERTEX
  8
1850LEVEL
 62
13
 10
1568.637
 20
-2903.310
 30
3377.000
 70
    32
  0
VERTEX
  8
1850LEVEL
 62
13
 10
1568.807
 20
-2910.795
 30
3377.000
 70
    32
  0
VERTEX
  8
1850LEVEL
 62
13
 10
1567.263
 20
-2915.268
 30
3377.000
 70
    32
  0
VERTEX
  8
1850LEVEL
 62
13
 10
1566.277
 20
-2917.971
 30
3377.000
 70
    32
  0
VERTEX
  8
1850LEVEL
 62
13
 10
1564.636
 20
-2919.361
 30
3377.000
 70
    32
  0
VERTEX
  8
1850LEVEL
 62
13
 10
1564.330
 20
-2919.028
 30
3377.000
 70
    32
  0
VERTEX
  8
1850LEVEL
 62
13
 10
1561.404
 20
-2914.617
 30
3377.000
 70
    32
  0
VERTEX
  8
1850LEVEL
 62
13
 10
1556.864
 20
-2900.502
 30
3377.000
 70
    32
  0
VERTEX
  8
1850LEVEL
 62
13
 10
1555.720
 20
-2894.473
 30
3377.000
 70
    32
  0
VERTEX
  8
1850LEVEL
 62
13
 10
1554.500
 20
-2879.654
 30
3377.000
 70
    32
  0
VERTEX
  8
1850LEVEL
 62
13
 10
1554.897
 20
-2862.907
 30
3377.000
 70
    32
  0
VERTEX
  8
1850LEVEL
 62
13
 10
1555.986
 20
-2850.477
 30
3377.000
 70
    32
  0
VERTEX
  8
1850LEVEL
 62
13
 10
1556.432
 20
-2837.592
 30
3377.000
 70
    32
  0
VERTEX
  8
1850LEVEL
 62
13
 10
1555.218
 20
-2826.913
 30
3377.000
 70
    32
  0
VERTEX
  8
1850LEVEL
 62
13
 10
1554.237
 20
-2814.023
 30
3377.000
 70
    32
  0
VERTEX
  8
1850LEVEL
 62
13
 10
1552.894
 20
-2805.109
 30
3377.000
 70
    32
  0
VERTEX
  8
1850LEVEL
 62
13
 10
1550.020
 20
-2791.999
 30
3377.000
 70
    32
  0
VERTEX
  8
1850LEVEL
 62
13
 10
1548.097
 20
-2779.427
 30
3377.000
 70
    32
  0
VERTEX
  8
1850LEVEL
 62
13
 10
1545.613
 20
-2770.980
 30
3377.000
 70
    32
  0
VERTEX
  8
1850LEVEL
 62
13
 10
1543.651
 20
-2765.861
 30
3377.000
 70
    32
  0
VERTEX
  8
1850LEVEL
 62
13
 10
1539.714
 20
-2758.975
 30
3377.000
 70
    32
  0
VERTEX
  8
1850LEVEL
 62
13
 10
1538.160
 20
-2756.774
 30
3377.000
 70
    32
  0
VERTEX
  8
1850LEVEL
 62
13
 10
1537.391
 20
-2755.978
 30
3377.000
 70
    32
  0
VERTEX
  8
1850LEVEL
 62
13
 10
1536.648
 20
-2756.399
 30
3377.000
 70
    32
  0
VERTEX
  8
1850LEVEL
 62
13
 10
1534.675
 20
-2760.878
 30
3377.000
 70
    32
  0
VERTEX
  8
1850LEVEL
 62
13
 10
1532.966
 20
-2771.535
 30
3377.000
 70
    32
  0
VERTEX
  8
1850LEVEL
 62
13
 10
1532.710
 20
-2782.487
 30
3377.000
 70
    32
  0
VERTEX
  8
1850LEVEL
 62
13
 10
1533.845
 20
-2798.792
 30
3377.000
 70
    32
  0
VERTEX
  8
1850LEVEL
 62
13
 10
1534.852
 20
-2808.260
 30
3377.000
 70
    32
  0
VERTEX
  8
1850LEVEL
 62
13
 10
1536.212
 20
-2824.029
 30
3377.000
 70
    32
  0
VERTEX
  8
1850LEVEL
 62
13
 10
1538.708
 20
-2837.045
 30
3377.000
 70
    32
  0
VERTEX
  8
1850LEVEL
 62
13
 10
1541.199
 20
-2846.849
 30
3377.000
 70
    32
  0
VERTEX
  8
1850LEVEL
 62
13
 10
1543.626
 20
-2862.638
 30
3377.000
 70
    32
  0
VERTEX
  8
1850LEVEL
 62
13
 10
1544.574
 20
-2874.810
 30
3377.000
 70
    32
  0
VERTEX
  8
1850LEVEL
 62
13
 10
1545.405
 20
-2884.966
 30
3377.000
 70
    32
  0
VERTEX
  8
1850LEVEL
 62
13
 10
1546.482
 20
-2896.301
 30
3377.000
 70
    32
  0
VERTEX
  8
1850LEVEL
 62
13
 10
1549.062
 20
-2911.793
 30
3377.000
 70
    32
  0
VERTEX
  8
1850LEVEL
 62
13
 10
1550.255
 20
-2923.539
 30
3377.000
 70
    32
  0
VERTEX
  8
1850LEVEL
 62
13
 10
1551.254
 20
-2931.900
 30
3377.000
 70
    32
  0
VERTEX
  8
1850LEVEL
 62
13
 10
1552.120
 20
-2943.453
 30
3377.000
 70
    32
  0
VERTEX
  8
1850LEVEL
 62
13
 10
1551.599
 20
-2956.826
 30
3377.000
 70
    32
  0
VERTEX
  8
1850LEVEL
 62
13
 10
1551.286
 20
-2961.881
 30
3377.000
 70
    32
  0
VERTEX
  8
1850LEVEL
 62
13
 10
1549.403
 20
-2972.976
 30
3377.000
 70
    32
  0
VERTEX
  8
1850LEVEL
 62
13
 10
1548.125
 20
-2978.739
 30
3377.000
 70
    32
  0
VERTEX
  8
1850LEVEL
 62
13
 10
1547.860
 20
-2983.944
 30
3377.000
 70
    32
  0
VERTEX
  8
1850LEVEL
 62
13
 10
1549.209
 20
-2986.543
 30
3377.000
 70
    32
  0
VERTEX
  8
1850LEVEL
 62
13
 10
1552.149
 20
-2987.851
 30
3377.000
 70
    32
  0
VERTEX
  8
1850LEVEL
 62
13
 10
1556.579
 20
-2985.034
 30
3377.000
 70
    32
  0
VERTEX
  8
1850LEVEL
 62
13
 10
1558.892
 20
-2981.357
 30
3377.000
 70
    32
  0
VERTEX
  8
1850LEVEL
 62
13
 10
1560.911
 20
-2978.206
 30
3377.000
 70
    32
  0
VERTEX
  8
1850LEVEL
 62
13
 10
1562.914
 20
-2975.623
 30
3377.000
 70
    32
  0
VERTEX
  8
1850LEVEL
 62
13
 10
1565.062
 20
-2975.346
 30
3377.000
 70
    32
  0
VERTEX
  8
1850LEVEL
 62
13
 10
1567.830
 20
-2979.626
 30
3377.000
 70
    32
  0
VERTEX
  8
1850LEVEL
 62
13
 10
1571.270
 20
-2989.290
 30
3377.000
 70
    32
  0
VERTEX
  8
1850LEVEL
 62
13
 10
1577.453
 20
-3002.695
 30
3377.000
 70
    32
  0
VERTEX
  8
1850LEVEL
 62
13
 10
1584.848
 20
-3010.076
 30
3377.000
 70
    32
  0
VERTEX
  8
1850LEVEL
 62
13
 10
1594.201
 20
-3020.042
 30
3377.000
 70
    32
  0
VERTEX
  8
1850LEVEL
 62
13
 10
1600.767
 20
-3026.547
 30
3377.000
 70
    32
  0
VERTEX
  8
1850LEVEL
 62
13
 10
1605.557
 20
-3032.065
 30
3377.000
 70
    32
  0
VERTEX
  8
1850LEVEL
 62
13
 10
1608.758
 20
-3037.946
 30
3377.000
 70
    32
  0
VERTEX
  8
1850LEVEL
 62
13
 10
1611.220
 20
-3042.820
 30
3377.000
 70
    32
  0
VERTEX
  8
1850LEVEL
 62
13
 10
1613.752
 20
-3045.850
 30
3377.000
 70
    32
  0
VERTEX
  8
1850LEVEL
 62
13
 10
1616.520
 20
-3044.563
 30
3377.000
 70
    32
  0
VERTEX
  8
1850LEVEL
 62
13
 10
1617.509
 20
-3043.466
 30
3377.000
 70
    32
  0
VERTEX
  8
1850LEVEL
 62
13
 10
1620.599
 20
-3044.725
 30
3377.000
 70
    32
  0
VERTEX
  8
1850LEVEL
 62
13
 10
1622.065
 20
-3043.773
 30
3377.000
 70
    32
  0
VERTEX
  8
1850LEVEL
 62
13
 10
1622.926
 20
-3042.585
 30
3377.000
 70
    32
  0
VERTEX
  8
1850LEVEL
 62
13
 10
1625.122
 20
-3043.387
 30
3377.000
 70
    32
  0
VERTEX
  8
1850LEVEL
 62
13
 10
1628.000
 20
-3043.936
 30
3377.000
 70
    32
  0
VERTEX
  8
1850LEVEL
 62
13
 10
1629.769
 20
-3038.926
 30
3377.000
 70
    32
  0
VERTEX
  8
1850LEVEL
 62
13
 10
1631.415
 20
-3036.110
 30
3377.000
 70
    32
  0
VERTEX
  8
1850LEVEL
 62
13
 10
1634.968
 20
-3032.266
 30
3377.000
 70
    32
  0
VERTEX
  8
1850LEVEL
 62
13
 10
1636.092
 20
-3022.162
 30
3377.000
 70
    32
  0
VERTEX
  8
1850LEVEL
 62
13
 10
1635.050
 20
-3011.296
 30
3377.000
 70
    32
  0
VERTEX
  8
1850LEVEL
 62
13
 10
1634.734
 20
-3000.577
 30
3377.000
 70
    32
  0
VERTEX
  8
1850LEVEL
 62
13
 10
1635.141
 20
-2996.072
 30
3377.000
 70
    32
  0
VERTEX
  8
1850LEVEL
 62
13
 10
1637.989
 20
-2995.653
 30
3377.000
 70
    32
  0
VERTEX
  8
1850LEVEL
 62
13
 10
1643.112
 20
-3004.576
 30
3377.000
 70
    32
  0
VERTEX
  8
1850LEVEL
 62
13
 10
1647.096
 20
-3010.006
 30
3377.000
 70
    32
  0
VERTEX
  8
1850LEVEL
 62
13
 10
1654.244
 20
-3021.775
 30
3377.000
 70
    32
  0
VERTEX
  8
1850LEVEL
 62
13
 10
1662.707
 20
-3030.105
 30
3377.000
 70
    32
  0
VERTEX
  8
1850LEVEL
 62
13
 10
1673.108
 20
-3039.983
 30
3377.000
 70
    32
  0
VERTEX
  8
1850LEVEL
 62
13
 10
1679.642
 20
-3048.553
 30
3377.000
 70
    32
  0
VERTEX
  8
1850LEVEL
 62
13
 10
1683.693
 20
-3056.098
 30
3377.000
 70
    32
  0
VERTEX
  8
1850LEVEL
 62
13
 10
1686.382
 20
-3065.076
 30
3377.000
 70
    32
  0
VERTEX
  8
1850LEVEL
 62
13
 10
1688.137
 20
-3075.481
 30
3377.000
 70
    32
  0
VERTEX
  8
1850LEVEL
 62
13
 10
1688.938
 20
-3086.524
 30
3377.000
 70
    32
  0
VERTEX
  8
1850LEVEL
 62
13
 10
1687.931
 20
-3094.006
 30
3377.000
 70
    32
  0
VERTEX
  8
1850LEVEL
 62
13
 10
1687.284
 20
-3101.472
 30
3377.000
 70
    32
  0
VERTEX
  8
1850LEVEL
 62
13
 10
1686.807
 20
-3106.894
 30
3377.000
 70
    32
  0
VERTEX
  8
1850LEVEL
 62
13
 10
1681.705
 20
-3112.926
 30
3377.000
 70
    32
  0
VERTEX
  8
1850LEVEL
 62
13
 10
1677.367
 20
-3118.398
 30
3377.000
 70
    32
  0
VERTEX
  8
1850LEVEL
 62
13
 10
1676.145
 20
-3123.563
 30
3377.000
 70
    32
  0
VERTEX
  8
1850LEVEL
 62
13
 10
1676.616
 20
-3131.879
 30
3377.000
 70
    32
  0
VERTEX
  8
1850LEVEL
 62
13
 10
1677.547
 20
-3136.269
 30
3377.000
 70
    32
  0
VERTEX
  8
1850LEVEL
 62
13
 10
1681.354
 20
-3145.168
 30
3377.000
 70
    32
  0
VERTEX
  8
1850LEVEL
 62
13
 10
1685.845
 20
-3152.639
 30
3377.000
 70
    32
  0
VERTEX
  8
1850LEVEL
 62
13
 10
1693.792
 20
-3163.388
 30
3377.000
 70
    32
  0
VERTEX
  8
1850LEVEL
 62
13
 10
1698.556
 20
-3170.473
 30
3377.000
 70
    32
  0
VERTEX
  8
1850LEVEL
 62
13
 10
1700.992
 20
-3174.130
 30
3377.000
 70
    32
  0
VERTEX
  8
1850LEVEL
 62
13
 10
1703.599
 20
-3179.455
 30
3377.000
 70
    32
  0
VERTEX
  8
1850LEVEL
 62
13
 10
1704.013
 20
-3182.802
 30
3377.000
 70
    32
  0
VERTEX
  8
1850LEVEL
 62
13
 10
1703.823
 20
-3186.591
 30
3377.000
 70
    32
  0
VERTEX
  8
1850LEVEL
 62
13
 10
1701.914
 20
-3187.868
 30
3377.000
 70
    32
  0
VERTEX
  8
1850LEVEL
 62
13
 10
1698.162
 20
-3186.043
 30
3377.000
 70
    32
  0
VERTEX
  8
1850LEVEL
 62
13
 10
1693.828
 20
-3180.809
 30
3377.000
 70
    32
  0
VERTEX
  8
1850LEVEL
 62
13
 10
1686.041
 20
-3169.013
 30
3377.000
 70
    32
  0
VERTEX
  8
1850LEVEL
 62
13
 10
1683.679
 20
-3162.084
 30
3377.000
 70
    32
  0
VERTEX
  8
1850LEVEL
 62
13
 10
1680.988
 20
-3155.211
 30
3377.000
 70
    32
  0
VERTEX
  8
1850LEVEL
 62
13
 10
1677.697
 20
-3148.532
 30
3377.000
 70
    32
  0
VERTEX
  8
1850LEVEL
 62
13
 10
1673.348
 20
-3139.906
 30
3377.000
 70
    32
  0
VERTEX
  8
1850LEVEL
 62
13
 10
1668.046
 20
-3134.701
 30
3377.000
 70
    32
  0
VERTEX
  8
1850LEVEL
 62
13
 10
1662.078
 20
-3131.037
 30
3377.000
 70
    32
  0
VERTEX
  8
1850LEVEL
 62
13
 10
1657.395
 20
-3127.605
 30
3377.000
 70
    32
  0
VERTEX
  8
1850LEVEL
 62
13
 10
1652.031
 20
-3122.570
 30
3377.000
 70
    32
  0
VERTEX
  8
1850LEVEL
 62
13
 10
1647.498
 20
-3118.162
 30
3377.000
 70
    32
  0
VERTEX
  8
1850LEVEL
 62
13
 10
1645.621
 20
-3116.446
 30
3377.000
 70
    32
  0
VERTEX
  8
1850LEVEL
 62
13
 10
1641.383
 20
-3112.440
 30
3377.000
 70
    32
  0
VERTEX
  8
1850LEVEL
 62
13
 10
1633.291
 20
-3107.735
 30
3377.000
 70
    32
  0
VERTEX
  8
1850LEVEL
 62
13
 10
1630.411
 20
-3106.507
 30
3377.000
 70
    32
  0
VERTEX
  8
1850LEVEL
 62
13
 10
1626.522
 20
-3102.555
 30
3377.000
 70
    32
  0
VERTEX
  8
1850LEVEL
 62
13
 10
1622.120
 20
-3097.061
 30
3377.000
 70
    32
  0
VERTEX
  8
1850LEVEL
 62
13
 10
1619.095
 20
-3093.527
 30
3377.000
 70
    32
  0
VERTEX
  8
1850LEVEL
 62
13
 10
1616.412
 20
-3090.546
 30
3377.000
 70
    32
  0
VERTEX
  8
1850LEVEL
 62
13
 10
1613.567
 20
-3087.932
 30
3377.000
 70
    32
  0
VERTEX
  8
1850LEVEL
 62
13
 10
1611.668
 20
-3086.355
 30
3377.000
 70
    32
  0
VERTEX
  8
1850LEVEL
 62
13
 10
1608.933
 20
-3084.279
 30
3377.000
 70
    32
  0
SEQEND
  8
1850LEVEL
  0
POLYLINE
  8
1850LEVEL
 62
5
 66
     1
 70
     9
  0
VERTEX
  8
1850LEVEL
 62
5
 10
1869.542
 20
-3356.365
 30
3377.000
 70
    32
  0
VERTEX
  8
1850LEVEL
 62
5
 10
1798.634
 20
-3213.115
 30
3377.000
 70
    32
  0
VERTEX
  8
1850LEVEL
 62
5
 10
1775.913
 20
-3220.009
 30
3377.000
 70
    32
  0
VERTEX
  8
1850LEVEL
 62
5
 10
1863.447
 20
-3364.206
 30
3377.000
 70
    32
  0
VERTEX
  8
1850LEVEL
 62
5
 10
1884.930
 20
-3434.730
 30
3377.000
 70
    32
  0
VERTEX
  8
1850LEVEL
 62
5
 10
1933.482
 20
-3486.715
 30
3377.000
 70
    32
  0
VERTEX
  8
1850LEVEL
 62
5
 10
1965.767
 20
-3520.853
 30
3377.000
 70
    32
  0
VERTEX
  8
1850LEVEL
 62
5
 10
1938.128
 20
-3470.799
 30
3377.000
 70
    32
  0
VERTEX
  8
1850LEVEL
 62
5
 10
1901.307
 20
-3421.253
 30
3377.000
 70
    32
  0
SEQEND
  8
1850LEVEL
  0
POLYLINE
  8
1850LEVEL
 62
5
 66
     1
 70
     9
  0
VERTEX
  8
1850LEVEL
 62
5
 10
2083.242
 20
-2556.293
 30
3377.000
 70
    32
  0
VERTEX
  8
1850LEVEL
 62
5
 10
2083.080
 20
-2565.011
 30
3377.000
 70
    32
  0
VERTEX
  8
1850LEVEL
 62
5
 10
2082.915
 20
-2573.051
 30
3377.000
 70
    32
  0
VERTEX
  8
1850LEVEL
 62
5
 10
2082.739
 20
-2578.377
 30
3377.000
 70
    32
  0
VERTEX
  8
1850LEVEL
 62
5
 10
2082.793
 20
-2580.812
 30
3377.000
 70
    32
  0
VERTEX
  8
1850LEVEL
 62
5
 10
2077.910
 20
-2584.023
 30
3377.000
 70
    32
  0
VERTEX
  8
1850LEVEL
 62
5
 10
2077.123
 20
-2578.228
 30
3377.000
 70
    32
  0
VERTEX
  8
1850LEVEL
 62
5
 10
2076.948
 20
-2570.314
 30
3377.000
 70
    32
  0
VERTEX
  8
1850LEVEL
 62
5
 10
2076.300
 20
-2564.540
 30
3377.000
 70
    32
  0
VERTEX
  8
1850LEVEL
 62
5
 10
2076.621
 20
-2560.593
 30
3377.000
 70
    32
  0
SEQEND
  8
1850LEVEL
  0
POLYLINE
  8
1850LEVEL
 62
5
 66
     1
 70
     9
  0
VERTEX
  8
1850LEVEL
 62
5
 10
1821.665
 20
-2440.157
 30
3377.000
 70
    32
  0
VERTEX
  8
1850LEVEL
 62
5
 10
1826.424
 20
-2454.235
 30
3377.000
 70
    32
  0
VERTEX
  8
1850LEVEL
 62
5
 10
1832.176
 20
-2466.967
 30
3377.000
 70
    32
  0
VERTEX
  8
1850LEVEL
 62
5
 10
1840.136
 20
-2485.998
 30
3377.000
 70
    32
  0
VERTEX
  8
1850LEVEL
 62
5
 10
1846.296
 20
-2503.503
 30
3377.000
 70
    32
  0
VERTEX
  8
1850LEVEL
 62
5
 10
1851.894
 20
-2522.349
 30
3377.000
 70
    32
  0
VERTEX
  8
1850LEVEL
 62
5
 10
1858.354
 20
-2536.974
 30
3377.000
 70
    32
  0
VERTEX
  8
1850LEVEL
 62
5
 10
1863.505
 20
-2550.826
 30
3377.000
 70
    32
  0
VERTEX
  8
1850LEVEL
 62
5
 10
1866.669
 20
-2562.982
 30
3377.000
 70
    32
  0
VERTEX
  8
1850LEVEL
 62
5
 10
1866.614
 20
-2569.147
 30
3377.000
 70
    32
  0
VERTEX
  8
1850LEVEL
 62
5
 10
1864.319
 20
-2572.006
 30
3377.000
 70
    32
  0
VERTEX
  8
1850LEVEL
 62
5
 10
1860.114
 20
-2570.575
 30
3377.000
 70
    32
  0
VERTEX
  8
1850LEVEL
 62
5
 10
1856.710
 20
-2565.091
 30
3377.000
 70
    32
  0
VERTEX
  8
1850LEVEL
 62
5
 10
1847.408
 20
-2541.786
 30
3377.000
 70
    32
  0
VERTEX
  8
1850LEVEL
 62
5
 10
1835.501
 20
-2511.051
 30
3377.000
 70
    32
  0
VERTEX
  8
1850LEVEL
 62
5
 10
1826.482
 20
-2490.323
 30
3377.000
 70
    32
  0
VERTEX
  8
1850LEVEL
 62
5
 10
1819.620
 20
-2476.921
 30
3377.000
 70
    32
  0
VERTEX
  8
1850LEVEL
 62
5
 10
1813.395
 20
-2462.618
 30
3377.000
 70
    32
  0
VERTEX
  8
1850LEVEL
 62
5
 10
1809.488
 20
-2449.028
 30
3377.000
 70
    32
  0
VERTEX
  8
1850LEVEL
 62
5
 10
1807.283
 20
-2441.552
 30
3377.000
 70
    32
  0
SEQEND
  8
1850LEVEL
  0
POLYLINE
  8
1850LEVEL
 62
5
 66
     1
 70
     9
  0
VERTEX
  8
1850LEVEL
 62
5
 10
1802.090
 20
-2449.568
 30
3377.000
 70
    32
  0
VERTEX
  8
1850LEVEL
 62
5
 10
1810.629
 20
-2471.329
 30
3377.000
 70
    32
  0
VERTEX
  8
1850LEVEL
 62
5
 10
1818.469
 20
-2489.520
 30
3377.000
 70
    32
  0
VERTEX
  8
1850LEVEL
 62
5
 10
1825.828
 20
-2511.527
 30
3377.000
 70
    32
  0
VERTEX
  8
1850LEVEL
 62
5
 10
1833.397
 20
-2531.711
 30
3377.000
 70
    32
  0
VERTEX
  8
1850LEVEL
 62
5
 10
1842.913
 20
-2553.622
 30
3377.000
 70
    32
  0
VERTEX
  8
1850LEVEL
 62
5
 10
1848.809
 20
-2564.948
 30
3377.000
 70
    32
  0
VERTEX
  8
1850LEVEL
 62
5
 10
1856.485
 20
-2583.507
 30
3377.000
 70
    32
  0
VERTEX
  8
1850LEVEL
 62
5
 10
1863.795
 20
-2597.013
 30
3377.000
 70
    32
  0
VERTEX
  8
1850LEVEL
 62
5
 10
1871.776
 20
-2614.049
 30
3377.000
 70
    32
  0
VERTEX
  8
1850LEVEL
 62
5
 10
1879.140
 20
-2629.062
 30
3377.000
 70
    32
  0
VERTEX
  8
1850LEVEL
 62
5
 10
1885.946
 20
-2643.062
 30
3377.000
 70
    32
  0
VERTEX
  8
1850LEVEL
 62
5
 10
1891.148
 20
-2656.815
 30
3377.000
 70
    32
  0
VERTEX
  8
1850LEVEL
 62
5
 10
1895.028
 20
-2669.188
 30
3377.000
 70
    32
  0
VERTEX
  8
1850LEVEL
 62
5
 10
1897.030
 20
-2678.917
 30
3377.000
 70
    32
  0
VERTEX
  8
1850LEVEL
 62
5
 10
1898.445
 20
-2688.520
 30
3377.000
 70
    32
  0
VERTEX
  8
1850LEVEL
 62
5
 10
1900.010
 20
-2697.147
 30
3377.000
 70
    32
  0
VERTEX
  8
1850LEVEL
 62
5
 10
1901.939
 20
-2702.475
 30
3377.000
 70
    32
  0
VERTEX
  8
1850LEVEL
 62
5
 10
1903.609
 20
-2709.726
 30
3377.000
 70
    32
  0
VERTEX
  8
1850LEVEL
 62
5
 10
1903.784
 20
-2717.640
 30
3377.000
 70
    32
  0
VERTEX
  8
1850LEVEL
 62
5
 10
1904.593
 20
-2727.007
 30
3377.000
 70
    32
  0
VERTEX
  8
1850LEVEL
 62
5
 10
1905.632
 20
-2735.338
 30
3377.000
 70
    32
  0
VERTEX
  8
1850LEVEL
 62
5
 10
1906.656
 20
-2744.239
 30
3377.000
 70
    32
  0
VERTEX
  8
1850LEVEL
 62
5
 10
1908.062
 20
-2752.734
 30
3377.000
 70
    32
  0
VERTEX
  8
1850LEVEL
 62
5
 10
1910.003
 20
-2763.560
 30
3377.000
 70
    32
  0
VERTEX
  8
1850LEVEL
 62
5
 10
1913.540
 20
-2778.164
 30
3377.000
 70
    32
  0
VERTEX
  8
1850LEVEL
 62
5
 10
1915.068
 20
-2785.643
 30
3377.000
 70
    32
  0
VERTEX
  8
1850LEVEL
 62
5
 10
1916.272
 20
-2790.574
 30
3377.000
 70
    32
  0
VERTEX
  8
1850LEVEL
 62
5
 10
1916.978
 20
-2789.933
 30
3377.000
 70
    32
  0
VERTEX
  8
1850LEVEL
 62
5
 10
1918.487
 20
-2788.702
 30
3377.000
 70
    32
  0
VERTEX
  8
1850LEVEL
 62
5
 10
1922.199
 20
-2789.629
 30
3377.000
 70
    32
  0
VERTEX
  8
1850LEVEL
 62
5
 10
1925.670
 20
-2795.373
 30
3377.000
 70
    32
  0
VERTEX
  8
1850LEVEL
 62
5
 10
1929.067
 20
-2805.316
 30
3377.000
 70
    32
  0
VERTEX
  8
1850LEVEL
 62
5
 10
1929.902
 20
-2813.117
 30
3377.000
 70
    32
  0
VERTEX
  8
1850LEVEL
 62
5
 10
1931.239
 20
-2818.818
 30
3377.000
 70
    32
  0
VERTEX
  8
1850LEVEL
 62
5
 10
1932.339
 20
-2822.341
 30
3377.000
 70
    32
  0
VERTEX
  8
1850LEVEL
 62
5
 10
1936.674
 20
-2832.215
 30
3377.000
 70
    32
  0
VERTEX
  8
1850LEVEL
 62
5
 10
1942.313
 20
-2843.359
 30
3377.000
 70
    32
  0
VERTEX
  8
1850LEVEL
 62
5
 10
1948.327
 20
-2853.918
 30
3377.000
 70
    32
  0
VERTEX
  8
1850LEVEL
 62
5
 10
1954.162
 20
-2864.486
 30
3377.000
 70
    32
  0
VERTEX
  8
1850LEVEL
 62
5
 10
1958.564
 20
-2873.691
 30
3377.000
 70
    32
  0
VERTEX
  8
1850LEVEL
 62
5
 10
1961.805
 20
-2881.398
 30
3377.000
 70
    32
  0
VERTEX
  8
1850LEVEL
 62
5
 10
1964.037
 20
-2887.308
 30
3377.000
 70
    32
  0
VERTEX
  8
1850LEVEL
 62
5
 10
1965.175
 20
-2891.051
 30
3377.000
 70
    32
  0
VERTEX
  8
1850LEVEL
 62
5
 10
1964.816
 20
-2892.923
 30
3377.000
 70
    32
  0
VERTEX
  8
1850LEVEL
 62
5
 10
1964.396
 20
-2896.820
 30
3377.000
 70
    32
  0
VERTEX
  8
1850LEVEL
 62
5
 10
1966.290
 20
-2904.462
 30
3377.000
 70
    32
  0
VERTEX
  8
1850LEVEL
 62
5
 10
1969.629
 20
-2917.109
 30
3377.000
 70
    32
  0
VERTEX
  8
1850LEVEL
 62
5
 10
1975.722
 20
-2934.354
 30
3377.000
 70
    32
  0
VERTEX
  8
1850LEVEL
 62
5
 10
1981.679
 20
-2955.039
 30
3377.000
 70
    32
  0
VERTEX
  8
1850LEVEL
 62
5
 10
1985.948
 20
-2971.147
 30
3377.000
 70
    32
  0
VERTEX
  8
1850LEVEL
 62
5
 10
1991.009
 20
-2987.912
 30
3377.000
 70
    32
  0
VERTEX
  8
1850LEVEL
 62
5
 10
1996.517
 20
-3005.710
 30
3377.000
 70
    32
  0
VERTEX
  8
1850LEVEL
 62
5
 10
2001.334
 20
-3022.901
 30
3377.000
 70
    32
  0
VERTEX
  8
1850LEVEL
 62
5
 10
2006.481
 20
-3040.964
 30
3377.000
 70
    32
  0
VERTEX
  8
1850LEVEL
 62
5
 10
2012.650
 20
-3060.505
 30
3377.000
 70
    32
  0
VERTEX
  8
1850LEVEL
 62
5
 10
2017.023
 20
-3074.310
 30
3377.000
 70
    32
  0
VERTEX
  8
1850LEVEL
 62
5
 10
2019.404
 20
-3084.132
 30
3377.000
 70
    32
  0
VERTEX
  8
1850LEVEL
 62
5
 10
2020.222
 20
-3088.790
 30
3377.000
 70
    32
  0
VERTEX
  8
1850LEVEL
 62
5
 10
2020.365
 20
-3093.202
 30
3377.000
 70
    32
  0
VERTEX
  8
1850LEVEL
 62
5
 10
2022.067
 20
-3104.883
 30
3377.000
 70
    32
  0
VERTEX
  8
1850LEVEL
 62
5
 10
2023.768
 20
-3119.597
 30
3377.000
 70
    32
  0
VERTEX
  8
1850LEVEL
 62
5
 10
2026.414
 20
-3133.493
 30
3377.000
 70
    32
  0
VERTEX
  8
1850LEVEL
 62
5
 10
2028.264
 20
-3142.592
 30
3377.000
 70
    32
  0
VERTEX
  8
1850LEVEL
 62
5
 10
2030.363
 20
-3155.404
 30
3377.000
 70
    32
  0
VERTEX
  8
1850LEVEL
 62
5
 10
2032.135
 20
-3168.024
 30
3377.000
 70
    32
  0
VERTEX
  8
1850LEVEL
 62
5
 10
2035.093
 20
-3180.826
 30
3377.000
 70
    32
  0
VERTEX
  8
1850LEVEL
 62
5
 10
2038.890
 20
-3196.291
 30
3377.000
 70
    32
  0
VERTEX
  8
1850LEVEL
 62
5
 10
2044.489
 20
-3211.176
 30
3377.000
 70
    32
  0
VERTEX
  8
1850LEVEL
 62
5
 10
2052.462
 20
-3228.959
 30
3377.000
 70
    32
  0
VERTEX
  8
1850LEVEL
 62
5
 10
2057.538
 20
-3239.589
 30
3377.000
 70
    32
  0
VERTEX
  8
1850LEVEL
 62
5
 10
2059.534
 20
-3244.249
 30
3377.000
 70
    32
  0
VERTEX
  8
1850LEVEL
 62
5
 10
2060.750
 20
-3248.183
 30
3377.000
 70
    32
  0
VERTEX
  8
1850LEVEL
 62
5
 10
2061.287
 20
-3252.120
 30
3377.000
 70
    32
  0
VERTEX
  8
1850LEVEL
 62
5
 10
2061.166
 20
-3254.992
 30
3377.000
 70
    32
  0
VERTEX
  8
1850LEVEL
 62
5
 10
2059.657
 20
-3257.151
 30
3377.000
 70
    32
  0
VERTEX
  8
1850LEVEL
 62
5
 10
2056.095
 20
-3255.248
 30
3377.000
 70
    32
  0
VERTEX
  8
1850LEVEL
 62
5
 10
2050.943
 20
-3250.923
 30
3377.000
 70
    32
  0
VERTEX
  8
1850LEVEL
 62
5
 10
2047.453
 20
-3244.141
 30
3377.000
 70
    32
  0
VERTEX
  8
1850LEVEL
 62
5
 10
2041.940
 20
-3231.482
 30
3377.000
 70
    32
  0
VERTEX
  8
1850LEVEL
 62
5
 10
2036.067
 20
-3218.839
 30
3377.000
 70
    32
  0
VERTEX
  8
1850LEVEL
 62
5
 10
2027.602
 20
-3194.735
 30
3377.000
 70
    32
  0
VERTEX
  8
1850LEVEL
 62
5
 10
2024.254
 20
-3183.086
 30
3377.000
 70
    32
  0
VERTEX
  8
1850LEVEL
 62
5
 10
2022.570
 20
-3168.731
 30
3377.000
 70
    32
  0
VERTEX
  8
1850LEVEL
 62
5
 10
2022.738
 20
-3163.226
 30
3377.000
 70
    32
  0
VERTEX
  8
1850LEVEL
 62
5
 10
2022.316
 20
-3157.844
 30
3377.000
 70
    32
  0
VERTEX
  8
1850LEVEL
 62
5
 10
2020.725
 20
-3156.350
 30
3377.000
 70
    32
  0
VERTEX
  8
1850LEVEL
 62
5
 10
2019.496
 20
-3151.807
 30
3377.000
 70
    32
  0
VERTEX
  8
1850LEVEL
 62
5
 10
2017.826
 20
-3141.773
 30
3377.000
 70
    32
  0
VERTEX
  8
1850LEVEL
 62
5
 10
2016.056
 20
-3127.048
 30
3377.000
 70
    32
  0
VERTEX
  8
1850LEVEL
 62
5
 10
2014.455
 20
-3112.385
 30
3377.000
 70
    32
  0
VERTEX
  8
1850LEVEL
 62
5
 10
2011.844
 20
-3098.958
 30
3377.000
 70
    32
  0
VERTEX
  8
1850LEVEL
 62
5
 10
2009.166
 20
-3088.982
 30
3377.000
 70
    32
  0
VERTEX
  8
1850LEVEL
 62
5
 10
2006.321
 20
-3078.696
 30
3377.000
 70
    32
  0
VERTEX
  8
1850LEVEL
 62
5
 10
1999.582
 20
-3060.317
 30
3377.000
 70
    32
  0
VERTEX
  8
1850LEVEL
 62
5
 10
1995.203
 20
-3047.939
 30
3377.000
 70
    32
  0
VERTEX
  8
1850LEVEL
 62
5
 10
1991.025
 20
-3032.630
 30
3377.000
 70
    32
  0
VERTEX
  8
1850LEVEL
 62
5
 10
1983.970
 20
-3007.243
 30
3377.000
 70
    32
  0
VERTEX
  8
1850LEVEL
 62
5
 10
1978.799
 20
-2989.569
 30
3377.000
 70
    32
  0
VERTEX
  8
1850LEVEL
 62
5
 10
1973.690
 20
-2970.798
 30
3377.000
 70
    32
  0
VERTEX
  8
1850LEVEL
 62
5
 10
1969.871
 20
-2956.401
 30
3377.000
 70
    32
  0
VERTEX
  8
1850LEVEL
 62
5
 10
1964.194
 20
-2937.614
 30
3377.000
 70
    32
  0
VERTEX
  8
1850LEVEL
 62
5
 10
1960.679
 20
-2926.582
 30
3377.000
 70
    32
  0
VERTEX
  8
1850LEVEL
 62
5
 10
1957.872
 20
-2918.371
 30
3377.000
 70
    32
  0
VERTEX
  8
1850LEVEL
 62
5
 10
1957.579
 20
-2914.936
 30
3377.000
 70
    32
  0
VERTEX
  8
1850LEVEL
 62
5
 10
1957.917
 20
-2914.131
 30
3377.000
 70
    32
  0
VERTEX
  8
1850LEVEL
 62
5
 10
1958.121
 20
-2912.807
 30
3377.000
 70
    32
  0
VERTEX
  8
1850LEVEL
 62
5
 10
1957.281
 20
-2912.000
 30
3377.000
 70
    32
  0
VERTEX
  8
1850LEVEL
 62
5
 10
1955.572
 20
-2909.417
 30
3377.000
 70
    32
  0
VERTEX
  8
1850LEVEL
 62
5
 10
1953.694
 20
-2903.062
 30
3377.000
 70
    32
  0
VERTEX
  8
1850LEVEL
 62
5
 10
1952.457
 20
-2898.340
 30
3377.000
 70
    32
  0
VERTEX
  8
1850LEVEL
 62
5
 10
1952.384
 20
-2895.795
 30
3377.000
 70
    32
  0
VERTEX
  8
1850LEVEL
 62
5
 10
1954.183
 20
-2893.609
 30
3377.000
 70
    32
  0
VERTEX
  8
1850LEVEL
 62
5
 10
1950.746
 20
-2881.840
 30
3377.000
 70
    32
  0
VERTEX
  8
1850LEVEL
 62
5
 10
1944.254
 20
-2869.280
 30
3377.000
 70
    32
  0
VERTEX
  8
1850LEVEL
 62
5
 10
1939.309
 20
-2857.564
 30
3377.000
 70
    32
  0
VERTEX
  8
1850LEVEL
 62
5
 10
1932.120
 20
-2841.186
 30
3377.000
 70
    32
  0
VERTEX
  8
1850LEVEL
 62
5
 10
1926.972
 20
-2830.795
 30
3377.000
 70
    32
  0
VERTEX
  8
1850LEVEL
 62
5
 10
1926.126
 20
-2828.631
 30
3377.000
 70
    32
  0
VERTEX
  8
1850LEVEL
 62
5
 10
1925.468
 20
-2833.383
 30
3377.000
 70
    32
  0
VERTEX
  8
1850LEVEL
 62
5
 10
1923.446
 20
-2838.640
 30
3377.000
 70
    32
  0
VERTEX
  8
1850LEVEL
 62
5
 10
1918.947
 20
-2843.301
 30
3377.000
 70
    32
  0
VERTEX
  8
1850LEVEL
 62
5
 10
1913.018
 20
-2844.496
 30
3377.000
 70
    32
  0
VERTEX
  8
1850LEVEL
 62
5
 10
1907.113
 20
-2840.662
 30
3377.000
 70
    32
  0
VERTEX
  8
1850LEVEL
 62
5
 10
1900.960
 20
-2833.792
 30
3377.000
 70
    32
  0
VERTEX
  8
1850LEVEL
 62
5
 10
1895.885
 20
-2829.658
 30
3377.000
 70
    32
  0
VERTEX
  8
1850LEVEL
 62
5
 10
1890.172
 20
-2825.497
 30
3377.000
 70
    32
  0
VERTEX
  8
1850LEVEL
 62
5
 10
1883.156
 20
-2819.137
 30
3377.000
 70
    32
  0
VERTEX
  8
1850LEVEL
 62
5
 10
1878.837
 20
-2814.263
 30
3377.000
 70
    32
  0
VERTEX
  8
1850LEVEL
 62
5
 10
1877.545
 20
-2812.922
 30
3377.000
 70
    32
  0
VERTEX
  8
1850LEVEL
 62
5
 10
1877.352
 20
-2816.961
 30
3377.000
 70
    32
  0
VERTEX
  8
1850LEVEL
 62
5
 10
1879.952
 20
-2824.890
 30
3377.000
 70
    32
  0
VERTEX
  8
1850LEVEL
 62
5
 10
1881.919
 20
-2832.294
 30
3377.000
 70
    32
  0
VERTEX
  8
1850LEVEL
 62
5
 10
1884.278
 20
-2838.545
 30
3377.000
 70
    32
  0
VERTEX
  8
1850LEVEL
 62
5
 10
1883.476
 20
-2839.813
 30
3377.000
 70
    32
  0
VERTEX
  8
1850LEVEL
 62
5
 10
1879.010
 20
-2836.593
 30
3377.000
 70
    32
  0
VERTEX
  8
1850LEVEL
 62
5
 10
1874.260
 20
-2830.118
 30
3377.000
 70
    32
  0
VERTEX
  8
1850LEVEL
 62
5
 10
1865.588
 20
-2816.188
 30
3377.000
 70
    32
  0
VERTEX
  8
1850LEVEL
 62
5
 10
1860.925
 20
-2807.050
 30
3377.000
 70
    32
  0
VERTEX
  8
1850LEVEL
 62
5
 10
1859.479
 20
-2803.223
 30
3377.000
 70
    32
  0
VERTEX
  8
1850LEVEL
 62
5
 10
1860.602
 20
-2801.718
 30
3377.000
 70
    32
  0
VERTEX
  8
1850LEVEL
 62
5
 10
1864.969
 20
-2803.960
 30
3377.000
 70
    32
  0
VERTEX
  8
1850LEVEL
 62
5
 10
1868.329
 20
-2807.866
 30
3377.000
 70
    32
  0
VERTEX
  8
1850LEVEL
 62
5
 10
1869.316
 20
-2807.019
 30
3377.000
 70
    32
  0
VERTEX
  8
1850LEVEL
 62
5
 10
1868.044
 20
-2799.971
 30
3377.000
 70
    32
  0
VERTEX
  8
1850LEVEL
 62
5
 10
1866.772
 20
-2795.708
 30
3377.000
 70
    32
  0
VERTEX
  8
1850LEVEL
 62
5
 10
1866.986
 20
-2794.313
 30
3377.000
 70
    32
  0
VERTEX
  8
1850LEVEL
 62
5
 10
1868.292
 20
-2792.551
 30
3377.000
 70
    32
  0
VERTEX
  8
1850LEVEL
 62
5
 10
1867.567
 20
-2786.587
 30
3377.000
 70
    32
  0
VERTEX
  8
1850LEVEL
 62
5
 10
1862.770
 20
-2775.073
 30
3377.000
 70
    32
  0
VERTEX
  8
1850LEVEL
 62
5
 10
1858.456
 20
-2764.132
 30
3377.000
 70
    32
  0
VERTEX
  8
1850LEVEL
 62
5
 10
1854.756
 20
-2756.391
 30
3377.000
 70
    32
  0
VERTEX
  8
1850LEVEL
 62
5
 10
1853.141
 20
-2751.575
 30
3377.000
 70
    32
  0
VERTEX
  8
1850LEVEL
 62
5
 10
1854.462
 20
-2747.388
 30
3377.000
 70
    32
  0
VERTEX
  8
1850LEVEL
 62
5
 10
1854.657
 20
-2741.245
 30
3377.000
 70
    32
  0
VERTEX
  8
1850LEVEL
 62
5
 10
1852.983
 20
-2734.492
 30
3377.000
 70
    32
  0
VERTEX
  8
1850LEVEL
 62
5
 10
1851.587
 20
-2725.927
 30
3377.000
 70
    32
  0
VERTEX
  8
1850LEVEL
 62
5
 10
1850.513
 20
-2718.982
 30
3377.000
 70
    32
  0
VERTEX
  8
1850LEVEL
 62
5
 10
1850.037
 20
-2713.948
 30
3377.000
 70
    32
  0
VERTEX
  8
1850LEVEL
 62
5
 10
1850.868
 20
-2710.864
 30
3377.000
 70
    32
  0
VERTEX
  8
1850LEVEL
 62
5
 10
1852.385
 20
-2707.029
 30
3377.000
 70
    32
  0
VERTEX
  8
1850LEVEL
 62
5
 10
1851.906
 20
-2700.389
 30
3377.000
 70
    32
  0
VERTEX
  8
1850LEVEL
 62
5
 10
1847.949
 20
-2688.754
 30
3377.000
 70
    32
  0
VERTEX
  8
1850LEVEL
 62
5
 10
1843.044
 20
-2675.153
 30
3377.000
 70
    32
  0
VERTEX
  8
1850LEVEL
 62
5
 10
1836.217
 20
-2659.437
 30
3377.000
 70
    32
  0
VERTEX
  8
1850LEVEL
 62
5
 10
1828.772
 20
-2645.411
 30
3377.000
 70
    32
  0
VERTEX
  8
1850LEVEL
 62
5
 10
1818.227
 20
-2626.482
 30
3377.000
 70
    32
  0
VERTEX
  8
1850LEVEL
 62
5
 10
1808.752
 20
-2607.326
 30
3377.000
 70
    32
  0
VERTEX
  8
1850LEVEL
 62
5
 10
1801.588
 20
-2584.742
 30
3377.000
 70
    32
  0
VERTEX
  8
1850LEVEL
 62
5
 10
1795.561
 20
-2562.190
 30
3377.000
 70
    32
  0
VERTEX
  8
1850LEVEL
 62
5
 10
1791.423
 20
-2544.996
 30
3377.000
 70
    32
  0
VERTEX
  8
1850LEVEL
 62
5
 10
1787.937
 20
-2531.220
 30
3377.000
 70
    32
  0
VERTEX
  8
1850LEVEL
 62
5
 10
1782.772
 20
-2515.831
 30
3377.000
 70
    32
  0
VERTEX
  8
1850LEVEL
 62
5
 10
1776.140
 20
-2503.250
 30
3377.000
 70
    32
  0
VERTEX
  8
1850LEVEL
 62
5
 10
1769.123
 20
-2490.395
 30
3377.000
 70
    32
  0
VERTEX
  8
1850LEVEL
 62
5
 10
1764.026
 20
-2480.833
 30
3377.000
 70
    32
  0
VERTEX
  8
1850LEVEL
 62
5
 10
1760.587
 20
-2473.952
 30
3377.000
 70
    32
  0
SEQEND
  8
1850LEVEL
  0
POLYLINE
  8
1850LEVEL
 62
5
 66
     1
 70
     9
  0
VERTEX
  8
1850LEVEL
 62
5
 10
1868.042
 20
-2696.409
 30
3377.000
 70
    32
  0
VERTEX
  8
1850LEVEL
 62
5
 10
1868.192
 20
-2700.073
 30
3377.000
 70
    32
  0
VERTEX
  8
1850LEVEL
 62
5
 10
1867.780
 20
-2703.221
 30
3377.000
 70
    32
  0
VERTEX
  8
1850LEVEL
 62
5
 10
1868.035
 20
-2704.581
 30
3377.000
 70
    32
  0
VERTEX
  8
1850LEVEL
 62
5
 10
1869.398
 20
-2706.860
 30
3377.000
 70
    32
  0
VERTEX
  8
1850LEVEL
 62
5
 10
1869.930
 20
-2713.151
 30
3377.000
 70
    32
  0
VERTEX
  8
1850LEVEL
 62
5
 10
1869.848
 20
-2720.882
 30
3377.000
 70
    32
  0
VERTEX
  8
1850LEVEL
 62
5
 10
1869.235
 20
-2728.818
 30
3377.000
 70
    32
  0
VERTEX
  8
1850LEVEL
 62
5
 10
1869.717
 20
-2737.064
 30
3377.000
 70
    32
  0
VERTEX
  8
1850LEVEL
 62
5
 10
1871.823
 20
-2744.489
 30
3377.000
 70
    32
  0
VERTEX
  8
1850LEVEL
 62
5
 10
1874.842
 20
-2754.338
 30
3377.000
 70
    32
  0
VERTEX
  8
1850LEVEL
 62
5
 10
1876.111
 20
-2759.779
 30
3377.000
 70
    32
  0
VERTEX
  8
1850LEVEL
 62
5
 10
1877.451
 20
-2766.159
 30
3377.000
 70
    32
  0
VERTEX
  8
1850LEVEL
 62
5
 10
1879.463
 20
-2773.962
 30
3377.000
 70
    32
  0
VERTEX
  8
1850LEVEL
 62
5
 10
1880.824
 20
-2780.202
 30
3377.000
 70
    32
  0
VERTEX
  8
1850LEVEL
 62
5
 10
1882.367
 20
-2786.185
 30
3377.000
 70
    32
  0
VERTEX
  8
1850LEVEL
 62
5
 10
1883.269
 20
-2790.534
 30
3377.000
 70
    32
  0
VERTEX
  8
1850LEVEL
 62
5
 10
1883.524
 20
-2795.605
 30
3377.000
 70
    32
  0
VERTEX
  8
1850LEVEL
 62
5
 10
1883.544
 20
-2798.499
 30
3377.000
 70
    32
  0
VERTEX
  8
1850LEVEL
 62
5
 10
1883.048
 20
-2800.100
 30
3377.000
 70
    32
  0
VERTEX
  8
1850LEVEL
 62
5
 10
1882.541
 20
-2800.843
 30
3377.000
 70
    32
  0
VERTEX
  8
1850LEVEL
 62
5
 10
1882.273
 20
-2798.875
 30
3377.000
 70
    32
  0
VERTEX
  8
1850LEVEL
 62
5
 10
1880.778
 20
-2792.114
 30
3377.000
 70
    32
  0
VERTEX
  8
1850LEVEL
 62
5
 10
1878.767
 20
-2782.206
 30
3377.000
 70
    32
  0
VERTEX
  8
1850LEVEL
 62
5
 10
1875.762
 20
-2772.037
 30
3377.000
 70
    32
  0
VERTEX
  8
1850LEVEL
 62
5
 10
1871.670
 20
-2758.954
 30
3377.000
 70
    32
  0
VERTEX
  8
1850LEVEL
 62
5
 10
1870.011
 20
-2750.705
 30
3377.000
 70
    32
  0
VERTEX
  8
1850LEVEL
 62
5
 10
1868.208
 20
-2742.934
 30
3377.000
 70
    32
  0
VERTEX
  8
1850LEVEL
 62
5
 10
1867.000
 20
-2737.324
 30
3377.000
 70
    32
  0
VERTEX
  8
1850LEVEL
 62
5
 10
1865.882
 20
-2735.547
 30
3377.000
 70
    32
  0
VERTEX
  8
1850LEVEL
 62
5
 10
1863.827
 20
-2733.589
 30
3377.000
 70
    32
  0
VERTEX
  8
1850LEVEL
 62
5
 10
1862.869
 20
-2727.054
 30
3377.000
 70
    32
  0
VERTEX
  8
1850LEVEL
 62
5
 10
1863.218
 20
-2718.508
 30
3377.000
 70
    32
  0
VERTEX
  8
1850LEVEL
 62
5
 10
1864.088
 20
-2709.827
 30
3377.000
 70
    32
  0
VERTEX
  8
1850LEVEL
 62
5
 10
1864.254
 20
-2705.498
 30
3377.000
 70
    32
  0
VERTEX
  8
1850LEVEL
 62
5
 10
1865.184
 20
-2703.393
 30
3377.000
 70
    32
  0
VERTEX
  8
1850LEVEL
 62
5
 10
1866.342
 20
-2700.502
 30
3377.000
 70
    32
  0
VERTEX
  8
1850LEVEL
 62
5
 10
1866.561
 20
-2697.681
 30
3377.000
 70
    32
  0
SEQEND
  8
1850LEVEL
  0
POLYLINE
  8
1850LEVEL
 62
5
 66
     1
 70
     9
  0
VERTEX
  8
1850LEVEL
 62
5
 10
1707.046
 20
-2515.828
 30
3377.000
 70
    32
  0
VERTEX
  8
1850LEVEL
 62
5
 10
1711.491
 20
-2525.683
 30
3377.000
 70
    32
  0
VERTEX
  8
1850LEVEL
 62
5
 10
1716.237
 20
-2536.368
 30
3377.000
 70
    32
  0
VERTEX
  8
1850LEVEL
 62
5
 10
1722.330
 20
-2549.902
 30
3377.000
 70
    32
  0
VERTEX
  8
1850LEVEL
 62
5
 10
1728.157
 20
-2564.001
 30
3377.000
 70
    32
  0
VERTEX
  8
1850LEVEL
 62
5
 10
1733.316
 20
-2578.034
 30
3377.000
 70
    32
  0
VERTEX
  8
1850LEVEL
 62
5
 10
1737.810
 20
-2591.750
 30
3377.000
 70
    32
  0
VERTEX
  8
1850LEVEL
 62
5
 10
1739.856
 20
-2602.128
 30
3377.000
 70
    32
  0
VERTEX
  8
1850LEVEL
 62
5
 10
1742.038
 20
-2610.920
 30
3377.000
 70
    32
  0
VERTEX
  8
1850LEVEL
 62
5
 10
1745.135
 20
-2624.672
 30
3377.000
 70
    32
  0
VERTEX
  8
1850LEVEL
 62
5
 10
1750.039
 20
-2638.272
 30
3377.000
 70
    32
  0
VERTEX
  8
1850LEVEL
 62
5
 10
1754.986
 20
-2650.666
 30
3377.000
 70
    32
  0
VERTEX
  8
1850LEVEL
 62
5
 10
1759.070
 20
-2661.714
 30
3377.000
 70
    32
  0
VERTEX
  8
1850LEVEL
 62
5
 10
1763.001
 20
-2673.988
 30
3377.000
 70
    32
  0
VERTEX
  8
1850LEVEL
 62
5
 10
1766.685
 20
-2686.009
 30
3377.000
 70
    32
  0
VERTEX
  8
1850LEVEL
 62
5
 10
1769.172
 20
-2694.207
 30
3377.000
 70
    32
  0
VERTEX
  8
1850LEVEL
 62
5
 10
1769.973
 20
-2701.538
 30
3377.000
 70
    32
  0
VERTEX
  8
1850LEVEL
 62
5
 10
1769.625
 20
-2705.196
 30
3377.000
 70
    32
  0
VERTEX
  8
1850LEVEL
 62
5
 10
1767.088
 20
-2704.521
 30
3377.000
 70
    32
  0
VERTEX
  8
1850LEVEL
 62
5
 10
1762.686
 20
-2699.027
 30
3377.000
 70
    32
  0
VERTEX
  8
1850LEVEL
 62
5
 10
1758.517
 20
-2687.609
 30
3377.000
 70
    32
  0
VERTEX
  8
1850LEVEL
 62
5
 10
1751.892
 20
-2668.712
 30
3377.000
 70
    32
  0
VERTEX
  8
1850LEVEL
 62
5
 10
1743.243
 20
-2646.970
 30
3377.000
 70
    32
  0
VERTEX
  8
1850LEVEL
 62
5
 10
1735.261
 20
-2624.368
 30
3377.000
 70
    32
  0
VERTEX
  8
1850LEVEL
 62
5
 10
1725.132
 20
-2596.225
 30
3377.000
 70
    32
  0
VERTEX
  8
1850LEVEL
 62
5
 10
1718.057
 20
-2575.617
 30
3377.000
 70
    32
  0
VERTEX
  8
1850LEVEL
 62
5
 10
1707.009
 20
-2549.510
 30
3377.000
 70
    32
  0
VERTEX
  8
1850LEVEL
 62
5
 10
1701.903
 20
-2536.057
 30
3377.000
 70
    32
  0
VERTEX
  8
1850LEVEL
 62
5
 10
1697.873
 20
-2523.733
 30
3377.000
 70
    32
  0
VERTEX
  8
1850LEVEL
 62
5
 10
1696.993
 20
-2521.100
 30
3377.000
 70
    32
  0
SEQEND
  8
1850LEVEL
  0
POLYLINE
  8
1850LEVEL
 62
5
 66
     1
 70
     9
  0
VERTEX
  8
1850LEVEL
 62
5
 10
1646.121
 20
-2444.586
 30
3377.000
 70
    32
  0
VERTEX
  8
1850LEVEL
 62
5
 10
1648.161
 20
-2452.679
 30
3377.000
 70
    32
  0
VERTEX
  8
1850LEVEL
 62
5
 10
1647.899
 20
-2456.707
 30
3377.000
 70
    32
  0
VERTEX
  8
1850LEVEL
 62
5
 10
1645.255
 20
-2460.441
 30
3377.000
 70
    32
  0
VERTEX
  8
1850LEVEL
 62
5
 10
1642.815
 20
-2463.777
 30
3377.000
 70
    32
  0
VERTEX
  8
1850LEVEL
 62
5
 10
1640.655
 20
-2470.868
 30
3377.000
 70
    32
  0
VERTEX
  8
1850LEVEL
 62
5
 10
1642.357
 20
-2477.910
 30
3377.000
 70
    32
  0
VERTEX
  8
1850LEVEL
 62
5
 10
1646.751
 20
-2486.936
 30
3377.000
 70
    32
  0
VERTEX
  8
1850LEVEL
 62
5
 10
1654.986
 20
-2499.763
 30
3377.000
 70
    32
  0
VERTEX
  8
1850LEVEL
 62
5
 10
1661.744
 20
-2512.685
 30
3377.000
 70
    32
  0
VERTEX
  8
1850LEVEL
 62
5
 10
1667.584
 20
-2526.466
 30
3377.000
 70
    32
  0
VERTEX
  8
1850LEVEL
 62
5
 10
1673.636
 20
-2538.173
 30
3377.000
 70
    32
  0
VERTEX
  8
1850LEVEL
 62
5
 10
1678.545
 20
-2548.491
 30
3377.000
 70
    32
  0
VERTEX
  8
1850LEVEL
 62
5
 10
1681.923
 20
-2556.469
 30
3377.000
 70
    32
  0
VERTEX
  8
1850LEVEL
 62
5
 10
1684.139
 20
-2562.019
 30
3377.000
 70
    32
  0
VERTEX
  8
1850LEVEL
 62
5
 10
1685.553
 20
-2566.983
 30
3377.000
 70
    32
  0
VERTEX
  8
1850LEVEL
 62
5
 10
1684.977
 20
-2570.499
 30
3377.000
 70
    32
  0
VERTEX
  8
1850LEVEL
 62
5
 10
1685.686
 20
-2577.031
 30
3377.000
 70
    32
  0
VERTEX
  8
1850LEVEL
 62
5
 10
1688.056
 20
-2584.140
 30
3377.000
 70
    32
  0
VERTEX
  8
1850LEVEL
 62
5
 10
1690.977
 20
-2592.761
 30
3377.000
 70
    32
  0
VERTEX
  8
1850LEVEL
 62
5
 10
1693.554
 20
-2603.863
 30
3377.000
 70
    32
  0
VERTEX
  8
1850LEVEL
 62
5
 10
1695.937
 20
-2614.364
 30
3377.000
 70
    32
  0
VERTEX
  8
1850LEVEL
 62
5
 10
1698.977
 20
-2625.002
 30
3377.000
 70
    32
  0
VERTEX
  8
1850LEVEL
 62
5
 10
1701.170
 20
-2634.653
 30
3377.000
 70
    32
  0
VERTEX
  8
1850LEVEL
 62
5
 10
1703.285
 20
-2644.113
 30
3377.000
 70
    32
  0
VERTEX
  8
1850LEVEL
 62
5
 10
1704.504
 20
-2651.509
 30
3377.000
 70
    32
  0
VERTEX
  8
1850LEVEL
 62
5
 10
1706.323
 20
-2660.568
 30
3377.000
 70
    32
  0
VERTEX
  8
1850LEVEL
 62
5
 10
1708.923
 20
-2666.641
 30
3377.000
 70
    32
  0
VERTEX
  8
1850LEVEL
 62
5
 10
1710.587
 20
-2671.608
 30
3377.000
 70
    32
  0
VERTEX
  8
1850LEVEL
 62
5
 10
1710.815
 20
-2676.389
 30
3377.000
 70
    32
  0
VERTEX
  8
1850LEVEL
 62
5
 10
1711.377
 20
-2681.792
 30
3377.000
 70
    32
  0
VERTEX
  8
1850LEVEL
 62
5
 10
1713.712
 20
-2692.143
 30
3377.000
 70
    32
  0
VERTEX
  8
1850LEVEL
 62
5
 10
1716.561
 20
-2701.003
 30
3377.000
 70
    32
  0
VERTEX
  8
1850LEVEL
 62
5
 10
1718.810
 20
-2707.273
 30
3377.000
 70
    32
  0
VERTEX
  8
1850LEVEL
 62
5
 10
1723.147
 20
-2715.969
 30
3377.000
 70
    32
  0
VERTEX
  8
1850LEVEL
 62
5
 10
1729.280
 20
-2726.689
 30
3377.000
 70
    32
  0
VERTEX
  8
1850LEVEL
 62
5
 10
1732.338
 20
-2732.797
 30
3377.000
 70
    32
  0
VERTEX
  8
1850LEVEL
 62
5
 10
1734.701
 20
-2737.621
 30
3377.000
 70
    32
  0
VERTEX
  8
1850LEVEL
 62
5
 10
1735.911
 20
-2740.198
 30
3377.000
 70
    32
  0
VERTEX
  8
1850LEVEL
 62
5
 10
1734.383
 20
-2743.175
 30
3377.000
 70
    32
  0
VERTEX
  8
1850LEVEL
 62
5
 10
1733.813
 20
-2746.192
 30
3377.000
 70
    32
  0
VERTEX
  8
1850LEVEL
 62
5
 10
1736.469
 20
-2754.451
 30
3377.000
 70
    32
  0
VERTEX
  8
1850LEVEL
 62
5
 10
1739.750
 20
-2763.056
 30
3377.000
 70
    32
  0
VERTEX
  8
1850LEVEL
 62
5
 10
1741.794
 20
-2766.939
 30
3377.000
 70
    32
  0
VERTEX
  8
1850LEVEL
 62
5
 10
1745.586
 20
-2765.952
 30
3377.000
 70
    32
  0
VERTEX
  8
1850LEVEL
 62
5
 10
1748.962
 20
-2764.650
 30
3377.000
 70
    32
  0
VERTEX
  8
1850LEVEL
 62
5
 10
1751.352
 20
-2766.052
 30
3377.000
 70
    32
  0
VERTEX
  8
1850LEVEL
 62
5
 10
1752.747
 20
-2770.906
 30
3377.000
 70
    32
  0
VERTEX
  8
1850LEVEL
 62
5
 10
1753.949
 20
-2774.231
 30
3377.000
 70
    32
  0
VERTEX
  8
1850LEVEL
 62
5
 10
1754.367
 20
-2774.295
 30
3377.000
 70
    32
  0
VERTEX
  8
1850LEVEL
 62
5
 10
1753.004
 20
-2765.521
 30
3377.000
 70
    32
  0
VERTEX
  8
1850LEVEL
 62
5
 10
1749.604
 20
-2753.044
 30
3377.000
 70
    32
  0
VERTEX
  8
1850LEVEL
 62
5
 10
1746.467
 20
-2741.178
 30
3377.000
 70
    32
  0
VERTEX
  8
1850LEVEL
 62
5
 10
1742.635
 20
-2726.172
 30
3377.000
 70
    32
  0
VERTEX
  8
1850LEVEL
 62
5
 10
1740.058
 20
-2715.070
 30
3377.000
 70
    32
  0
VERTEX
  8
1850LEVEL
 62
5
 10
1738.611
 20
-2705.676
 30
3377.000
 70
    32
  0
VERTEX
  8
1850LEVEL
 62
5
 10
1740.897
 20
-2696.142
 30
3377.000
 70
    32
  0
VERTEX
  8
1850LEVEL
 62
5
 10
1746.521
 20
-2698.327
 30
3377.000
 70
    32
  0
VERTEX
  8
1850LEVEL
 62
5
 10
1752.336
 20
-2704.145
 30
3377.000
 70
    32
  0
VERTEX
  8
1850LEVEL
 62
5
 10
1754.897
 20
-2708.143
 30
3377.000
 70
    32
  0
VERTEX
  8
1850LEVEL
 62
5
 10
1757.095
 20
-2715.440
 30
3377.000
 70
    32
  0
VERTEX
  8
1850LEVEL
 62
5
 10
1757.156
 20
-2724.799
 30
3377.000
 70
    32
  0
VERTEX
  8
1850LEVEL
 62
5
 10
1757.537
 20
-2729.283
 30
3377.000
 70
    32
  0
VERTEX
  8
1850LEVEL
 62
5
 10
1757.562
 20
-2729.822
 30
3377.000
 70
    32
  0
VERTEX
  8
1850LEVEL
 62
5
 10
1758.599
 20
-2727.019
 30
3377.000
 70
    32
  0
VERTEX
  8
1850LEVEL
 62
5
 10
1760.444
 20
-2725.233
 30
3377.000
 70
    32
  0
VERTEX
  8
1850LEVEL
 62
5
 10
1763.037
 20
-2729.021
 30
3377.000
 70
    32
  0
VERTEX
  8
1850LEVEL
 62
5
 10
1764.755
 20
-2734.567
 30
3377.000
 70
    32
  0
VERTEX
  8
1850LEVEL
 62
5
 10
1766.732
 20
-2741.901
 30
3377.000
 70
    32
  0
VERTEX
  8
1850LEVEL
 62
5
 10
1769.527
 20
-2756.926
 30
3377.000
 70
    32
  0
VERTEX
  8
1850LEVEL
 62
5
 10
1773.525
 20
-2773.171
 30
3377.000
 70
    32
  0
VERTEX
  8
1850LEVEL
 62
5
 10
1777.869
 20
-2786.008
 30
3377.000
 70
    32
  0
VERTEX
  8
1850LEVEL
 62
5
 10
1782.701
 20
-2797.991
 30
3377.000
 70
    32
  0
VERTEX
  8
1850LEVEL
 62
5
 10
1786.854
 20
-2808.122
 30
3377.000
 70
    32
  0
VERTEX
  8
1850LEVEL
 62
5
 10
1790.852
 20
-2818.800
 30
3377.000
 70
    32
  0
VERTEX
  8
1850LEVEL
 62
5
 10
1793.481
 20
-2826.769
 30
3377.000
 70
    32
  0
VERTEX
  8
1850LEVEL
 62
5
 10
1795.078
 20
-2831.475
 30
3377.000
 70
    32
  0
VERTEX
  8
1850LEVEL
 62
5
 10
1796.419
 20
-2835.750
 30
3377.000
 70
    32
  0
VERTEX
  8
1850LEVEL
 62
5
 10
1797.201
 20
-2842.044
 30
3377.000
 70
    32
  0
VERTEX
  8
1850LEVEL
 62
5
 10
1798.092
 20
-2846.463
 30
3377.000
 70
    32
  0
VERTEX
  8
1850LEVEL
 62
5
 10
1797.711
 20
-2848.474
 30
3377.000
 70
    32
  0
VERTEX
  8
1850LEVEL
 62
5
 10
1795.406
 20
-2850.475
 30
3377.000
 70
    32
  0
VERTEX
  8
1850LEVEL
 62
5
 10
1793.689
 20
-2851.425
 30
3377.000
 70
    32
  0
VERTEX
  8
1850LEVEL
 62
5
 10
1792.502
 20
-2852.420
 30
3377.000
 70
    32
  0
VERTEX
  8
1850LEVEL
 62
5
 10
1792.023
 20
-2858.092
 30
3377.000
 70
    32
  0
VERTEX
  8
1850LEVEL
 62
5
 10
1794.462
 20
-2867.995
 30
3377.000
 70
    32
  0
VERTEX
  8
1850LEVEL
 62
5
 10
1797.403
 20
-2877.654
 30
3377.000
 70
    32
  0
VERTEX
  8
1850LEVEL
 62
5
 10
1799.507
 20
-2885.329
 30
3377.000
 70
    32
  0
VERTEX
  8
1850LEVEL
 62
5
 10
1803.155
 20
-2895.025
 30
3377.000
 70
    32
  0
VERTEX
  8
1850LEVEL
 62
5
 10
1806.761
 20
-2902.217
 30
3377.000
 70
    32
  0
VERTEX
  8
1850LEVEL
 62
5
 10
1810.275
 20
-2905.826
 30
3377.000
 70
    32
  0
VERTEX
  8
1850LEVEL
 62
5
 10
1813.128
 20
-2907.691
 30
3377.000
 70
    32
  0
VERTEX
  8
1850LEVEL
 62
5
 10
1815.534
 20
-2910.381
 30
3377.000
 70
    32
  0
VERTEX
  8
1850LEVEL
 62
5
 10
1817.806
 20
-2913.478
 30
3377.000
 70
    32
  0
VERTEX
  8
1850LEVEL
 62
5
 10
1820.070
 20
-2918.251
 30
3377.000
 70
    32
  0
VERTEX
  8
1850LEVEL
 62
5
 10
1820.355
 20
-2921.506
 30
3377.000
 70
    32
  0
VERTEX
  8
1850LEVEL
 62
5
 10
1820.125
 20
-2923.469
 30
3377.000
 70
    32
  0
VERTEX
  8
1850LEVEL
 62
5
 10
1820.383
 20
-2925.507
 30
3377.000
 70
    32
  0
VERTEX
  8
1850LEVEL
 62
5
 10
1822.016
 20
-2927.650
 30
3377.000
 70
    32
  0
VERTEX
  8
1850LEVEL
 62
5
 10
1823.296
 20
-2929.310
 30
3377.000
 70
    32
  0
VERTEX
  8
1850LEVEL
 62
5
 10
1824.109
 20
-2933.538
 30
3377.000
 70
    32
  0
VERTEX
  8
1850LEVEL
 62
5
 10
1824.480
 20
-2939.020
 30
3377.000
 70
    32
  0
VERTEX
  8
1850LEVEL
 62
5
 10
1827.452
 20
-2944.758
 30
3377.000
 70
    32
  0
VERTEX
  8
1850LEVEL
 62
5
 10
1829.488
 20
-2948.461
 30
3377.000
 70
    32
  0
VERTEX
  8
1850LEVEL
 62
5
 10
1831.927
 20
-2953.725
 30
3377.000
 70
    32
  0
VERTEX
  8
1850LEVEL
 62
5
 10
1835.677
 20
-2960.439
 30
3377.000
 70
    32
  0
VERTEX
  8
1850LEVEL
 62
5
 10
1839.430
 20
-2967.832
 30
3377.000
 70
    32
  0
VERTEX
  8
1850LEVEL
 62
5
 10
1843.229
 20
-2975.624
 30
3377.000
 70
    32
  0
VERTEX
  8
1850LEVEL
 62
5
 10
1845.496
 20
-2981.076
 30
3377.000
 70
    32
  0
VERTEX
  8
1850LEVEL
 62
5
 10
1845.162
 20
-2986.270
 30
3377.000
 70
    32
  0
VERTEX
  8
1850LEVEL
 62
5
 10
1844.106
 20
-2988.963
 30
3377.000
 70
    32
  0
VERTEX
  8
1850LEVEL
 62
5
 10
1841.909
 20
-2990.017
 30
3377.000
 70
    32
  0
VERTEX
  8
1850LEVEL
 62
5
 10
1840.008
 20
-2990.546
 30
3377.000
 70
    32
  0
VERTEX
  8
1850LEVEL
 62
5
 10
1839.515
 20
-2990.970
 30
3377.000
 70
    32
  0
VERTEX
  8
1850LEVEL
 62
5
 10
1839.408
 20
-2991.667
 30
3377.000
 70
    32
  0
VERTEX
  8
1850LEVEL
 62
5
 10
1839.279
 20
-2992.504
 30
3377.000
 70
    32
  0
VERTEX
  8
1850LEVEL
 62
5
 10
1838.359
 20
-2991.756
 30
3377.000
 70
    32
  0
VERTEX
  8
1850LEVEL
 62
5
 10
1837.707
 20
-2987.409
 30
3377.000
 70
    32
  0
VERTEX
  8
1850LEVEL
 62
5
 10
1836.400
 20
-2982.676
 30
3377.000
 70
    32
  0
VERTEX
  8
1850LEVEL
 62
5
 10
1833.623
 20
-2977.289
 30
3377.000
 70
    32
  0
VERTEX
  8
1850LEVEL
 62
5
 10
1829.892
 20
-2972.540
 30
3377.000
 70
    32
  0
VERTEX
  8
1850LEVEL
 62
5
 10
1825.231
 20
-2968.041
 30
3377.000
 70
    32
  0
VERTEX
  8
1850LEVEL
 62
5
 10
1821.870
 20
-2965.062
 30
3377.000
 70
    32
  0
VERTEX
  8
1850LEVEL
 62
5
 10
1819.499
 20
-2962.842
 30
3377.000
 70
    32
  0
VERTEX
  8
1850LEVEL
 62
5
 10
1815.599
 20
-2958.960
 30
3377.000
 70
    32
  0
VERTEX
  8
1850LEVEL
 62
5
 10
1812.493
 20
-2955.485
 30
3377.000
 70
    32
  0
VERTEX
  8
1850LEVEL
 62
5
 10
1808.864
 20
-2951.466
 30
3377.000
 70
    32
  0
VERTEX
  8
1850LEVEL
 62
5
 10
1807.941
 20
-2950.039
 30
3377.000
 70
    32
  0
VERTEX
  8
1850LEVEL
 62
5
 10
1807.072
 20
-2947.336
 30
3377.000
 70
    32
  0
VERTEX
  8
1850LEVEL
 62
5
 10
1806.436
 20
-2946.132
 30
3377.000
 70
    32
  0
VERTEX
  8
1850LEVEL
 62
5
 10
1805.468
 20
-2944.306
 30
3377.000
 70
    32
  0
VERTEX
  8
1850LEVEL
 62
5
 10
1805.164
 20
-2941.868
 30
3377.000
 70
    32
  0
VERTEX
  8
1850LEVEL
 62
5
 10
1804.233
 20
-2940.262
 30
3377.000
 70
    32
  0
VERTEX
  8
1850LEVEL
 62
5
 10
1802.683
 20
-2937.811
 30
3377.000
 70
    32
  0
VERTEX
  8
1850LEVEL
 62
5
 10
1801.545
 20
-2934.068
 30
3377.000
 70
    32
  0
VERTEX
  8
1850LEVEL
 62
5
 10
1799.882
 20
-2928.174
 30
3377.000
 70
    32
  0
VERTEX
  8
1850LEVEL
 62
5
 10
1798.210
 20
-2923.028
 30
3377.000
 70
    32
  0
VERTEX
  8
1850LEVEL
 62
5
 10
1796.868
 20
-2916.898
 30
3377.000
 70
    32
  0
VERTEX
  8
1850LEVEL
 62
5
 10
1795.593
 20
-2909.172
 30
3377.000
 70
    32
  0
VERTEX
  8
1850LEVEL
 62
5
 10
1794.742
 20
-2904.723
 30
3377.000
 70
    32
  0
VERTEX
  8
1850LEVEL
 62
5
 10
1791.780
 20
-2897.987
 30
3377.000
 70
    32
  0
VERTEX
  8
1850LEVEL
 62
5
 10
1789.658
 20
-2891.131
 30
3377.000
 70
    32
  0
VERTEX
  8
1850LEVEL
 62
5
 10
1785.526
 20
-2879.933
 30
3377.000
 70
    32
  0
VERTEX
  8
1850LEVEL
 62
5
 10
1782.202
 20
-2869.751
 30
3377.000
 70
    32
  0
VERTEX
  8
1850LEVEL
 62
5
 10
1779.381
 20
-2860.003
 30
3377.000
 70
    32
  0
VERTEX
  8
1850LEVEL
 62
5
 10
1779.297
 20
-2855.673
 30
3377.000
 70
    32
  0
VERTEX
  8
1850LEVEL
 62
5
 10
1781.810
 20
-2853.025
 30
3377.000
 70
    32
  0
VERTEX
  8
1850LEVEL
 62
5
 10
1784.614
 20
-2848.246
 30
3377.000
 70
    32
  0
VERTEX
  8
1850LEVEL
 62
5
 10
1783.806
 20
-2845.374
 30
3377.000
 70
    32
  0
VERTEX
  8
1850LEVEL
 62
5
 10
1783.273
 20
-2846.755
 30
3377.000
 70
    32
  0
VERTEX
  8
1850LEVEL
 62
5
 10
1781.854
 20
-2846.002
 30
3377.000
 70
    32
  0
VERTEX
  8
1850LEVEL
 62
5
 10
1779.266
 20
-2841.714
 30
3377.000
 70
    32
  0
VERTEX
  8
1850LEVEL
 62
5
 10
1777.261
 20
-2836.874
 30
3377.000
 70
    32
  0
VERTEX
  8
1850LEVEL
 62
5
 10
1776.835
 20
-2836.630
 30
3377.000
 70
    32
  0
VERTEX
  8
1850LEVEL
 62
5
 10
1774.344
 20
-2838.210
 30
3377.000
 70
    32
  0
VERTEX
  8
1850LEVEL
 62
5
 10
1772.845
 20
-2837.516
 30
3377.000
 70
    32
  0
VERTEX
  8
1850LEVEL
 62
5
 10
1770.973
 20
-2835.301
 30
3377.000
 70
    32
  0
VERTEX
  8
1850LEVEL
 62
5
 10
1769.779
 20
-2834.939
 30
3377.000
 70
    32
  0
VERTEX
  8
1850LEVEL
 62
5
 10
1771.623
 20
-2844.537
 30
3377.000
 70
    32
  0
VERTEX
  8
1850LEVEL
 62
5
 10
1774.323
 20
-2855.301
 30
3377.000
 70
    32
  0
VERTEX
  8
1850LEVEL
 62
5
 10
1778.720
 20
-2867.789
 30
3377.000
 70
    32
  0
VERTEX
  8
1850LEVEL
 62
5
 10
1782.520
 20
-2878.364
 30
3377.000
 70
    32
  0
VERTEX
  8
1850LEVEL
 62
5
 10
1786.192
 20
-2887.672
 30
3377.000
 70
    32
  0
VERTEX
  8
1850LEVEL
 62
5
 10
1789.020
 20
-2893.888
 30
3377.000
 70
    32
  0
VERTEX
  8
1850LEVEL
 62
5
 10
1791.056
 20
-2899.446
 30
3377.000
 70
    32
  0
VERTEX
  8
1850LEVEL
 62
5
 10
1793.281
 20
-2905.177
 30
3377.000
 70
    32
  0
VERTEX
  8
1850LEVEL
 62
5
 10
1794.628
 20
-2911.736
 30
3377.000
 70
    32
  0
VERTEX
  8
1850LEVEL
 62
5
 10
1795.876
 20
-2919.172
 30
3377.000
 70
    32
  0
VERTEX
  8
1850LEVEL
 62
5
 10
1798.302
 20
-2927.539
 30
3377.000
 70
    32
  0
VERTEX
  8
1850LEVEL
 62
5
 10
1800.170
 20
-2933.964
 30
3377.000
 70
    32
  0
VERTEX
  8
1850LEVEL
 62
5
 10
1802.222
 20
-2939.882
 30
3377.000
 70
    32
  0
VERTEX
  8
1850LEVEL
 62
5
 10
1803.998
 20
-2944.580
 30
3377.000
 70
    32
  0
VERTEX
  8
1850LEVEL
 62
5
 10
1805.415
 20
-2948.366
 30
3377.000
 70
    32
  0
VERTEX
  8
1850LEVEL
 62
5
 10
1805.868
 20
-2950.755
 30
3377.000
 70
    32
  0
VERTEX
  8
1850LEVEL
 62
5
 10
1807.384
 20
-2953.665
 30
3377.000
 70
    32
  0
VERTEX
  8
1850LEVEL
 62
5
 10
1811.909
 20
-2958.821
 30
3377.000
 70
    32
  0
VERTEX
  8
1850LEVEL
 62
5
 10
1821.568
 20
-2970.048
 30
3377.000
 70
    32
  0
VERTEX
  8
1850LEVEL
 62
5
 10
1825.361
 20
-2974.627
 30
3377.000
 70
    32
  0
VERTEX
  8
1850LEVEL
 62
5
 10
1828.290
 20
-2978.789
 30
3377.000
 70
    32
  0
VERTEX
  8
1850LEVEL
 62
5
 10
1832.206
 20
-2984.886
 30
3377.000
 70
    32
  0
VERTEX
  8
1850LEVEL
 62
5
 10
1834.363
 20
-2988.501
 30
3377.000
 70
    32
  0
VERTEX
  8
1850LEVEL
 62
5
 10
1835.610
 20
-2991.297
 30
3377.000
 70
    32
  0
VERTEX
  8
1850LEVEL
 62
5
 10
1835.351
 20
-2993.220
 30
3377.000
 70
    32
  0
VERTEX
  8
1850LEVEL
 62
5
 10
1834.176
 20
-2995.752
 30
3377.000
 70
    32
  0
VERTEX
  8
1850LEVEL
 62
5
 10
1833.791
 20
-2998.262
 30
3377.000
 70
    32
  0
VERTEX
  8
1850LEVEL
 62
5
 10
1833.764
 20
-3001.684
 30
3377.000
 70
    32
  0
VERTEX
  8
1850LEVEL
 62
5
 10
1832.628
 20
-3005.364
 30
3377.000
 70
    32
  0
VERTEX
  8
1850LEVEL
 62
5
 10
1832.103
 20
-3008.780
 30
3377.000
 70
    32
  0
VERTEX
  8
1850LEVEL
 62
5
 10
1832.568
 20
-3016.667
 30
3377.000
 70
    32
  0
VERTEX
  8
1850LEVEL
 62
5
 10
1835.048
 20
-3023.757
 30
3377.000
 70
    32
  0
VERTEX
  8
1850LEVEL
 62
5
 10
1836.872
 20
-3027.677
 30
3377.000
 70
    32
  0
VERTEX
  8
1850LEVEL
 62
5
 10
1837.500
 20
-3031.485
 30
3377.000
 70
    32
  0
VERTEX
  8
1850LEVEL
 62
5
 10
1836.017
 20
-3033.934
 30
3377.000
 70
    32
  0
VERTEX
  8
1850LEVEL
 62
5
 10
1834.765
 20
-3033.491
 30
3377.000
 70
    32
  0
VERTEX
  8
1850LEVEL
 62
5
 10
1832.292
 20
-3032.398
 30
3377.000
 70
    32
  0
VERTEX
  8
1850LEVEL
 62
5
 10
1830.729
 20
-3032.122
 30
3377.000
 70
    32
  0
VERTEX
  8
1850LEVEL
 62
5
 10
1831.674
 20
-3038.976
 30
3377.000
 70
    32
  0
VERTEX
  8
1850LEVEL
 62
5
 10
1834.795
 20
-3049.555
 30
3377.000
 70
    32
  0
VERTEX
  8
1850LEVEL
 62
5
 10
1838.892
 20
-3060.284
 30
3377.000
 70
    32
  0
VERTEX
  8
1850LEVEL
 62
5
 10
1841.867
 20
-3067.628
 30
3377.000
 70
    32
  0
VERTEX
  8
1850LEVEL
 62
5
 10
1844.706
 20
-3075.630
 30
3377.000
 70
    32
  0
VERTEX
  8
1850LEVEL
 62
5
 10
1849.055
 20
-3087.968
 30
3377.000
 70
    32
  0
VERTEX
  8
1850LEVEL
 62
5
 10
1851.834
 20
-3095.889
 30
3377.000
 70
    32
  0
VERTEX
  8
1850LEVEL
 62
5
 10
1853.938
 20
-3103.564
 30
3377.000
 70
    32
  0
VERTEX
  8
1850LEVEL
 62
5
 10
1854.172
 20
-3106.918
 30
3377.000
 70
    32
  0
VERTEX
  8
1850LEVEL
 62
5
 10
1852.272
 20
-3113.014
 30
3377.000
 70
    32
  0
VERTEX
  8
1850LEVEL
 62
5
 10
1849.060
 20
-3117.659
 30
3377.000
 70
    32
  0
VERTEX
  8
1850LEVEL
 62
5
 10
1848.323
 20
-3118.510
 30
3377.000
 70
    32
  0
VERTEX
  8
1850LEVEL
 62
5
 10
1845.850
 20
-3119.272
 30
3377.000
 70
    32
  0
VERTEX
  8
1850LEVEL
 62
5
 10
1843.812
 20
-3118.602
 30
3377.000
 70
    32
  0
VERTEX
  8
1850LEVEL
 62
5
 10
1842.583
 20
-3115.915
 30
3377.000
 70
    32
  0
VERTEX
  8
1850LEVEL
 62
5
 10
1841.180
 20
-3110.881
 30
3377.000
 70
    32
  0
VERTEX
  8
1850LEVEL
 62
5
 10
1839.326
 20
-3105.065
 30
3377.000
 70
    32
  0
VERTEX
  8
1850LEVEL
 62
5
 10
1838.349
 20
-3101.204
 30
3377.000
 70
    32
  0
VERTEX
  8
1850LEVEL
 62
5
 10
1838.105
 20
-3099.774
 30
3377.000
 70
    32
  0
VERTEX
  8
1850LEVEL
 62
5
 10
1836.845
 20
-3101.008
 30
3377.000
 70
    32
  0
VERTEX
  8
1850LEVEL
 62
5
 10
1835.472
 20
-3103.438
 30
3377.000
 70
    32
  0
VERTEX
  8
1850LEVEL
 62
5
 10
1834.443
 20
-3106.420
 30
3377.000
 70
    32
  0
VERTEX
  8
1850LEVEL
 62
5
 10
1833.880
 20
-3107.761
 30
3377.000
 70
    32
  0
VERTEX
  8
1850LEVEL
 62
5
 10
1835.060
 20
-3109.370
 30
3377.000
 70
    32
  0
VERTEX
  8
1850LEVEL
 62
5
 10
1837.077
 20
-3112.963
 30
3377.000
 70
    32
  0
VERTEX
  8
1850LEVEL
 62
5
 10
1838.851
 20
-3117.911
 30
3377.000
 70
    32
  0
VERTEX
  8
1850LEVEL
 62
5
 10
1839.892
 20
-3120.426
 30
3377.000
 70
    32
  0
VERTEX
  8
1850LEVEL
 62
5
 10
1839.479
 20
-3123.574
 30
3377.000
 70
    32
  0
VERTEX
  8
1850LEVEL
 62
5
 10
1835.718
 20
-3128.313
 30
3377.000
 70
    32
  0
VERTEX
  8
1850LEVEL
 62
5
 10
1833.042
 20
-3132.256
 30
3377.000
 70
    32
  0
VERTEX
  8
1850LEVEL
 62
5
 10
1831.268
 20
-3137.765
 30
3377.000
 70
    32
  0
VERTEX
  8
1850LEVEL
 62
5
 10
1832.685
 20
-3142.479
 30
3377.000
 70
    32
  0
VERTEX
  8
1850LEVEL
 62
5
 10
1835.402
 20
-3147.785
 30
3377.000
 70
    32
  0
VERTEX
  8
1850LEVEL
 62
5
 10
1839.892
 20
-3153.400
 30
3377.000
 70
    32
  0
VERTEX
  8
1850LEVEL
 62
5
 10
1843.004
 20
-3157.304
 30
3377.000
 70
    32
  0
VERTEX
  8
1850LEVEL
 62
5
 10
1847.365
 20
-3162.828
 30
3377.000
 70
    32
  0
VERTEX
  8
1850LEVEL
 62
5
 10
1851.303
 20
-3166.930
 30
3377.000
 70
    32
  0
VERTEX
  8
1850LEVEL
 62
5
 10
1855.417
 20
-3173.129
 30
3377.000
 70
    32
  0
VERTEX
  8
1850LEVEL
 62
5
 10
1859.918
 20
-3179.602
 30
3377.000
 70
    32
  0
VERTEX
  8
1850LEVEL
 62
5
 10
1864.020
 20
-3186.121
 30
3377.000
 70
    32
  0
VERTEX
  8
1850LEVEL
 62
5
 10
1870.321
 20
-3195.047
 30
3377.000
 70
    32
  0
VERTEX
  8
1850LEVEL
 62
5
 10
1874.707
 20
-3202.037
 30
3377.000
 70
    32
  0
VERTEX
  8
1850LEVEL
 62
5
 10
1876.998
 20
-3207.100
 30
3377.000
 70
    32
  0
VERTEX
  8
1850LEVEL
 62
5
 10
1879.857
 20
-3213.106
 30
3377.000
 70
    32
  0
VERTEX
  8
1850LEVEL
 62
5
 10
1881.582
 20
-3216.976
 30
3377.000
 70
    32
  0
VERTEX
  8
1850LEVEL
 62
5
 10
1892.322
 20
-3241.144
 30
3377.000
 70
    32
  0
VERTEX
  8
1850LEVEL
 62
5
 10
1909.007
 20
-3273.756
 30
3377.000
 70
    32
  0
VERTEX
  8
1850LEVEL
 62
5
 10
1921.911
 20
-3299.863
 30
3377.000
 70
    32
  0
VERTEX
  8
1850LEVEL
 62
5
 10
1935.895
 20
-3323.816
 30
3377.000
 70
    32
  0
VERTEX
  8
1850LEVEL
 62
5
 10
1947.601
 20
-3340.531
 30
3377.000
 70
    32
  0
VERTEX
  8
1850LEVEL
 62
5
 10
1956.475
 20
-3357.097
 30
3377.000
 70
    32
  0
VERTEX
  8
1850LEVEL
 62
5
 10
1966.415
 20
-3367.189
 30
3377.000
 70
    32
  0
VERTEX
  8
1850LEVEL
 62
5
 10
1971.686
 20
-3372.603
 30
3377.000
 70
    32
  0
VERTEX
  8
1850LEVEL
 62
5
 10
1976.838
 20
-3380.639
 30
3377.000
 70
    32
  0
VERTEX
  8
1850LEVEL
 62
5
 10
1950.904
 20
-3398.922
 30
3377.000
 70
    32
  0
VERTEX
  8
1850LEVEL
 62
5
 10
1935.953
 20
-3376.854
 30
3377.000
 70
    32
  0
VERTEX
  8
1850LEVEL
 62
5
 10
1919.699
 20
-3347.699
 30
3377.000
 70
    32
  0
VERTEX
  8
1850LEVEL
 62
5
 10
1905.094
 20
-3326.862
 30
3377.000
 70
    32
  0
VERTEX
  8
1850LEVEL
 62
5
 10
1892.695
 20
-3305.829
 30
3377.000
 70
    32
  0
VERTEX
  8
1850LEVEL
 62
5
 10
1880.315
 20
-3283.050
 30
3377.000
 70
    32
  0
VERTEX
  8
1850LEVEL
 62
5
 10
1871.221
 20
-3264.666
 30
3377.000
 70
    32
  0
VERTEX
  8
1850LEVEL
 62
5
 10
1865.378
 20
-3251.135
 30
3377.000
 70
    32
  0
VERTEX
  8
1850LEVEL
 62
5
 10
1857.182
 20
-3233.639
 30
3377.000
 70
    32
  0
VERTEX
  8
1850LEVEL
 62
5
 10
1850.555
 20
-3217.775
 30
3377.000
 70
    32
  0
VERTEX
  8
1850LEVEL
 62
5
 10
1847.652
 20
-3210.192
 30
3377.000
 70
    32
  0
VERTEX
  8
1850LEVEL
 62
5
 10
1844.835
 20
-3203.906
 30
3377.000
 70
    32
  0
VERTEX
  8
1850LEVEL
 62
5
 10
1839.001
 20
-3193.339
 30
3377.000
 70
    32
  0
VERTEX
  8
1850LEVEL
 62
5
 10
1835.251
 20
-3185.697
 30
3377.000
 70
    32
  0
VERTEX
  8
1850LEVEL
 62
5
 10
1831.350
 20
-3175.319
 30
3377.000
 70
    32
  0
VERTEX
  8
1850LEVEL
 62
5
 10
1827.395
 20
-3166.218
 30
3377.000
 70
    32
  0
VERTEX
  8
1850LEVEL
 62
5
 10
1823.961
 20
-3158.839
 30
3377.000
 70
    32
  0
VERTEX
  8
1850LEVEL
 62
5
 10
1819.288
 20
-3148.842
 30
3377.000
 70
    32
  0
VERTEX
  8
1850LEVEL
 62
5
 10
1816.297
 20
-3142.994
 30
3377.000
 70
    32
  0
VERTEX
  8
1850LEVEL
 62
5
 10
1814.682
 20
-3140.034
 30
3377.000
 70
    32
  0
VERTEX
  8
1850LEVEL
 62
5
 10
1811.409
 20
-3135.320
 30
3377.000
 70
    32
  0
VERTEX
  8
1850LEVEL
 62
5
 10
1809.016
 20
-3129.528
 30
3377.000
 70
    32
  0
VERTEX
  8
1850LEVEL
 62
5
 10
1808.213
 20
-3122.445
 30
3377.000
 70
    32
  0
VERTEX
  8
1850LEVEL
 62
5
 10
1806.487
 20
-3112.081
 30
3377.000
 70
    32
  0
VERTEX
  8
1850LEVEL
 62
5
 10
1804.570
 20
-3100.866
 30
3377.000
 70
    32
  0
VERTEX
  8
1850LEVEL
 62
5
 10
1803.392
 20
-3093.441
 30
3377.000
 70
    32
  0
VERTEX
  8
1850LEVEL
 62
5
 10
1801.944
 20
-3082.192
 30
3377.000
 70
    32
  0
VERTEX
  8
1850LEVEL
 62
5
 10
1801.018
 20
-3076.375
 30
3377.000
 70
    32
  0
VERTEX
  8
1850LEVEL
 62
5
 10
1798.938
 20
-3067.384
 30
3377.000
 70
    32
  0
VERTEX
  8
1850LEVEL
 62
5
 10
1797.814
 20
-3062.393
 30
3377.000
 70
    32
  0
VERTEX
  8
1850LEVEL
 62
5
 10
1796.297
 20
-3056.700
 30
3377.000
 70
    32
  0
VERTEX
  8
1850LEVEL
 62
5
 10
1794.975
 20
-3051.608
 30
3377.000
 70
    32
  0
VERTEX
  8
1850LEVEL
 62
5
 10
1794.394
 20
-3047.022
 30
3377.000
 70
    32
  0
VERTEX
  8
1850LEVEL
 62
5
 10
1795.826
 20
-3043.745
 30
3377.000
 70
    32
  0
VERTEX
  8
1850LEVEL
 62
5
 10
1798.802
 20
-3042.490
 30
3377.000
 70
    32
  0
VERTEX
  8
1850LEVEL
 62
5
 10
1805.547
 20
-3041.563
 30
3377.000
 70
    32
  0
VERTEX
  8
1850LEVEL
 62
5
 10
1809.837
 20
-3040.581
 30
3377.000
 70
    32
  0
VERTEX
  8
1850LEVEL
 62
5
 10
1812.025
 20
-3038.419
 30
3377.000
 70
    32
  0
VERTEX
  8
1850LEVEL
 62
5
 10
1811.496
 20
-3034.662
 30
3377.000
 70
    32
  0
VERTEX
  8
1850LEVEL
 62
5
 10
1810.713
 20
-3031.401
 30
3377.000
 70
    32
  0
VERTEX
  8
1850LEVEL
 62
5
 10
1810.052
 20
-3028.730
 30
3377.000
 70
    32
  0
VERTEX
  8
1850LEVEL
 62
5
 10
1809.639
 20
-3028.167
 30
3377.000
 70
    32
  0
VERTEX
  8
1850LEVEL
 62
5
 10
1808.596
 20
-3029.613
 30
3377.000
 70
    32
  0
VERTEX
  8
1850LEVEL
 62
5
 10
1806.497
 20
-3030.968
 30
3377.000
 70
    32
  0
VERTEX
  8
1850LEVEL
 62
5
 10
1804.695
 20
-3030.619
 30
3377.000
 70
    32
  0
VERTEX
  8
1850LEVEL
 62
5
 10
1802.769
 20
-3028.753
 30
3377.000
 70
    32
  0
VERTEX
  8
1850LEVEL
 62
5
 10
1802.344
 20
-3022.693
 30
3377.000
 70
    32
  0
VERTEX
  8
1850LEVEL
 62
5
 10
1801.735
 20
-3019.923
 30
3377.000
 70
    32
  0
VERTEX
  8
1850LEVEL
 62
5
 10
1800.750
 20
-3017.737
 30
3377.000
 70
    32
  0
VERTEX
  8
1850LEVEL
 62
5
 10
1799.350
 20
-3016.166
 30
3377.000
 70
    32
  0
VERTEX
  8
1850LEVEL
 62
5
 10
1796.231
 20
-3013.010
 30
3377.000
 70
    32
  0
VERTEX
  8
1850LEVEL
 62
5
 10
1793.870
 20
-3008.865
 30
3377.000
 70
    32
  0
VERTEX
  8
1850LEVEL
 62
5
 10
1792.891
 20
-3006.180
 30
3377.000
 70
    32
  0
VERTEX
  8
1850LEVEL
 62
5
 10
1792.912
 20
-3003.257
 30
3377.000
 70
    32
  0
VERTEX
  8
1850LEVEL
 62
5
 10
1795.011
 20
-3001.903
 30
3377.000
 70
    32
  0
VERTEX
  8
1850LEVEL
 62
5
 10
1796.234
 20
-3000.449
 30
3377.000
 70
    32
  0
VERTEX
  8
1850LEVEL
 62
5
 10
1794.307
 20
-2994.871
 30
3377.000
 70
    32
  0
VERTEX
  8
1850LEVEL
 62
5
 10
1790.361
 20
-2987.806
 30
3377.000
 70
    32
  0
VERTEX
  8
1850LEVEL
 62
5
 10
1787.933
 20
-2980.617
 30
3377.000
 70
    32
  0
VERTEX
  8
1850LEVEL
 62
5
 10
1786.074
 20
-2974.371
 30
3377.000
 70
    32
  0
VERTEX
  8
1850LEVEL
 62
5
 10
1783.485
 20
-2968.228
 30
3377.000
 70
    32
  0
VERTEX
  8
1850LEVEL
 62
5
 10
1782.320
 20
-2963.267
 30
3377.000
 70
    32
  0
VERTEX
  8
1850LEVEL
 62
5
 10
1780.874
 20
-2958.513
 30
3377.000
 70
    32
  0
VERTEX
  8
1850LEVEL
 62
5
 10
1778.923
 20
-2954.252
 30
3377.000
 70
    32
  0
VERTEX
  8
1850LEVEL
 62
5
 10
1777.370
 20
-2951.123
 30
3377.000
 70
    32
  0
VERTEX
  8
1850LEVEL
 62
5
 10
1776.528
 20
-2951.493
 30
3377.000
 70
    32
  0
VERTEX
  8
1850LEVEL
 62
5
 10
1776.754
 20
-2955.596
 30
3377.000
 70
    32
  0
VERTEX
  8
1850LEVEL
 62
5
 10
1778.750
 20
-2959.328
 30
3377.000
 70
    32
  0
VERTEX
  8
1850LEVEL
 62
5
 10
1780.325
 20
-2962.318
 30
3377.000
 70
    32
  0
VERTEX
  8
1850LEVEL
 62
5
 10
1780.682
 20
-2965.335
 30
3377.000
 70
    32
  0
VERTEX
  8
1850LEVEL
 62
5
 10
1780.047
 20
-2966.915
 30
3377.000
 70
    32
  0
VERTEX
  8
1850LEVEL
 62
5
 10
1778.599
 20
-2967.049
 30
3377.000
 70
    32
  0
VERTEX
  8
1850LEVEL
 62
5
 10
1776.335
 20
-2965.060
 30
3377.000
 70
    32
  0
VERTEX
  8
1850LEVEL
 62
5
 10
1774.318
 20
-2961.466
 30
3377.000
 70
    32
  0
VERTEX
  8
1850LEVEL
 62
5
 10
1771.559
 20
-2952.478
 30
3377.000
 70
    32
  0
VERTEX
  8
1850LEVEL
 62
5
 10
1769.251
 20
-2943.344
 30
3377.000
 70
    32
  0
VERTEX
  8
1850LEVEL
 62
5
 10
1768.424
 20
-2938.507
 30
3377.000
 70
    32
  0
VERTEX
  8
1850LEVEL
 62
5
 10
1766.136
 20
-2931.339
 30
3377.000
 70
    32
  0
VERTEX
  8
1850LEVEL
 62
5
 10
1764.486
 20
-2926.054
 30
3377.000
 70
    32
  0
VERTEX
  8
1850LEVEL
 62
5
 10
1762.653
 20
-2921.954
 30
3377.000
 70
    32
  0
VERTEX
  8
1850LEVEL
 62
5
 10
1761.682
 20
-2920.377
 30
3377.000
 70
    32
  0
VERTEX
  8
1850LEVEL
 62
5
 10
1761.431
 20
-2923.407
 30
3377.000
 70
    32
  0
VERTEX
  8
1850LEVEL
 62
5
 10
1762.775
 20
-2930.216
 30
3377.000
 70
    32
  0
VERTEX
  8
1850LEVEL
 62
5
 10
1765.381
 20
-2938.574
 30
3377.000
 70
    32
  0
VERTEX
  8
1850LEVEL
 62
5
 10
1768.110
 20
-2948.451
 30
3377.000
 70
    32
  0
VERTEX
  8
1850LEVEL
 62
5
 10
1769.452
 20
-2954.581
 30
3377.000
 70
    32
  0
VERTEX
  8
1850LEVEL
 62
5
 10
1770.657
 20
-2959.512
 30
3377.000
 70
    32
  0
VERTEX
  8
1850LEVEL
 62
5
 10
1771.317
 20
-2962.183
 30
3377.000
 70
    32
  0
VERTEX
  8
1850LEVEL
 62
5
 10
1771.875
 20
-2965.052
 30
3377.000
 70
    32
  0
VERTEX
  8
1850LEVEL
 62
5
 10
1772.034
 20
-2967.039
 30
3377.000
 70
    32
  0
VERTEX
  8
1850LEVEL
 62
5
 10
1770.406
 20
-2967.182
 30
3377.000
 70
    32
  0
VERTEX
  8
1850LEVEL
 62
5
 10
1768.403
 20
-2966.981
 30
3377.000
 70
    32
  0
VERTEX
  8
1850LEVEL
 62
5
 10
1768.038
 20
-2969.352
 30
3377.000
 70
    32
  0
VERTEX
  8
1850LEVEL
 62
5
 10
1770.129
 20
-2975.490
 30
3377.000
 70
    32
  0
VERTEX
  8
1850LEVEL
 62
5
 10
1771.773
 20
-2979.418
 30
3377.000
 70
    32
  0
VERTEX
  8
1850LEVEL
 62
5
 10
1772.602
 20
-2983.079
 30
3377.000
 70
    32
  0
VERTEX
  8
1850LEVEL
 62
5
 10
1772.946
 20
-2985.487
 30
3377.000
 70
    32
  0
VERTEX
  8
1850LEVEL
 62
5
 10
1774.169
 20
-2988.672
 30
3377.000
 70
    32
  0
VERTEX
  8
1850LEVEL
 62
5
 10
1775.642
 20
-2990.933
 30
3377.000
 70
    32
  0
VERTEX
  8
1850LEVEL
 62
5
 10
1777.072
 20
-2994.400
 30
3377.000
 70
    32
  0
VERTEX
  8
1850LEVEL
 62
5
 10
1778.293
 20
-2999.691
 30
3377.000
 70
    32
  0
VERTEX
  8
1850LEVEL
 62
5
 10
1778.106
 20
-3002.303
 30
3377.000
 70
    32
  0
VERTEX
  8
1850LEVEL
 62
5
 10
1777.956
 20
-3006.062
 30
3377.000
 70
    32
  0
VERTEX
  8
1850LEVEL
 62
5
 10
1778.250
 20
-3010.425
 30
3377.000
 70
    32
  0
VERTEX
  8
1850LEVEL
 62
5
 10
1779.063
 20
-3015.582
 30
3377.000
 70
    32
  0
VERTEX
  8
1850LEVEL
 62
5
 10
1780.113
 20
-3021.989
 30
3377.000
 70
    32
  0
VERTEX
  8
1850LEVEL
 62
5
 10
1781.870
 20
-3026.577
 30
3377.000
 70
    32
  0
VERTEX
  8
1850LEVEL
 62
5
 10
1783.571
 20
-3030.835
 30
3377.000
 70
    32
  0
VERTEX
  8
1850LEVEL
 62
5
 10
1784.636
 20
-3034.817
 30
3377.000
 70
    32
  0
VERTEX
  8
1850LEVEL
 62
5
 10
1783.918
 20
-3038.561
 30
3377.000
 70
    32
  0
VERTEX
  8
1850LEVEL
 62
5
 10
1782.524
 20
-3042.058
 30
3377.000
 70
    32
  0
VERTEX
  8
1850LEVEL
 62
5
 10
1781.605
 20
-3044.094
 30
3377.000
 70
    32
  0
VERTEX
  8
1850LEVEL
 62
5
 10
1780.517
 20
-3046.995
 30
3377.000
 70
    32
  0
VERTEX
  8
1850LEVEL
 62
5
 10
1778.334
 20
-3047.731
 30
3377.000
 70
    32
  0
VERTEX
  8
1850LEVEL
 62
5
 10
1776.720
 20
-3049.410
 30
3377.000
 70
    32
  0
VERTEX
  8
1850LEVEL
 62
5
 10
1774.768
 20
-3051.893
 30
3377.000
 70
    32
  0
VERTEX
  8
1850LEVEL
 62
5
 10
1773.205
 20
-3052.545
 30
3377.000
 70
    32
  0
VERTEX
  8
1850LEVEL
 62
5
 10
1771.888
 20
-3052.521
 30
3377.000
 70
    32
  0
VERTEX
  8
1850LEVEL
 62
5
 10
1769.670
 20
-3052.787
 30
3377.000
 70
    32
  0
VERTEX
  8
1850LEVEL
 62
5
 10
1768.193
 20
-3053.809
 30
3377.000
 70
    32
  0
VERTEX
  8
1850LEVEL
 62
5
 10
1767.346
 20
-3054.678
 30
3377.000
 70
    32
  0
VERTEX
  8
1850LEVEL
 62
5
 10
1765.841
 20
-3056.338
 30
3377.000
 70
    32
  0
VERTEX
  8
1850LEVEL
 62
5
 10
1763.753
 20
-3057.623
 30
3377.000
 70
    32
  0
VERTEX
  8
1850LEVEL
 62
5
 10
1761.763
 20
-3058.959
 30
3377.000
 70
    32
  0
VERTEX
  8
1850LEVEL
 62
5
 10
1760.664
 20
-3061.003
 30
3377.000
 70
    32
  0
VERTEX
  8
1850LEVEL
 62
5
 10
1761.899
 20
-3067.830
 30
3377.000
 70
    32
  0
VERTEX
  8
1850LEVEL
 62
5
 10
1764.952
 20
-3074.437
 30
3377.000
 70
    32
  0
VERTEX
  8
1850LEVEL
 62
5
 10
1768.653
 20
-3080.074
 30
3377.000
 70
    32
  0
VERTEX
  8
1850LEVEL
 62
5
 10
1770.920
 20
-3085.525
 30
3377.000
 70
    32
  0
VERTEX
  8
1850LEVEL
 62
5
 10
1772.292
 20
-3090.768
 30
3377.000
 70
    32
  0
VERTEX
  8
1850LEVEL
 62
5
 10
1775.183
 20
-3096.565
 30
3377.000
 70
    32
  0
VERTEX
  8
1850LEVEL
 62
5
 10
1777.075
 20
-3103.529
 30
3377.000
 70
    32
  0
VERTEX
  8
1850LEVEL
 62
5
 10
1777.213
 20
-3110.295
 30
3377.000
 70
    32
  0
VERTEX
  8
1850LEVEL
 62
5
 10
1778.810
 20
-3117.784
 30
3377.000
 70
    32
  0
VERTEX
  8
1850LEVEL
 62
5
 10
1782.053
 20
-3122.458
 30
3377.000
 70
    32
  0
VERTEX
  8
1850LEVEL
 62
5
 10
1787.402
 20
-3129.918
 30
3377.000
 70
    32
  0
VERTEX
  8
1850LEVEL
 62
5
 10
1790.613
 20
-3134.800
 30
3377.000
 70
    32
  0
VERTEX
  8
1850LEVEL
 62
5
 10
1794.945
 20
-3140.284
 30
3377.000
 70
    32
  0
VERTEX
  8
1850LEVEL
 62
5
 10
1798.389
 20
-3146.666
 30
3377.000
 70
    32
  0
VERTEX
  8
1850LEVEL
 62
5
 10
1801.761
 20
-3150.503
 30
3377.000
 70
    32
  0
VERTEX
  8
1850LEVEL
 62
5
 10
1803.922
 20
-3152.690
 30
3377.000
 70
    32
  0
VERTEX
  8
1850LEVEL
 62
5
 10
1802.427
 20
-3157.314
 30
3377.000
 70
    32
  0
VERTEX
  8
1850LEVEL
 62
5
 10
1801.843
 20
-3159.722
 30
3377.000
 70
    32
  0
VERTEX
  8
1850LEVEL
 62
5
 10
1803.888
 20
-3169.172
 30
3377.000
 70
    32
  0
VERTEX
  8
1850LEVEL
 62
5
 10
1809.806
 20
-3180.359
 30
3377.000
 70
    32
  0
VERTEX
  8
1850LEVEL
 62
5
 10
1814.336
 20
-3187.800
 30
3377.000
 70
    32
  0
VERTEX
  8
1850LEVEL
 62
5
 10
1819.750
 20
-3198.553
 30
3377.000
 70
    32
  0
VERTEX
  8
1850LEVEL
 62
5
 10
1824.351
 20
-3207.860
 30
3377.000
 70
    32
  0
VERTEX
  8
1850LEVEL
 62
5
 10
1826.827
 20
-3213.344
 30
3377.000
 70
    32
  0
VERTEX
  8
1850LEVEL
 62
5
 10
1828.200
 20
-3216.481
 30
3377.000
 70
    32
  0
VERTEX
  8
1850LEVEL
 62
5
 10
1814.041
 20
-3213.877
 30
3377.000
 70
    32
  0
VERTEX
  8
1850LEVEL
 62
5
 10
1807.114
 20
-3201.821
 30
3377.000
 70
    32
  0
VERTEX
  8
1850LEVEL
 62
5
 10
1801.374
 20
-3191.803
 30
3377.000
 70
    32
  0
VERTEX
  8
1850LEVEL
 62
5
 10
1798.184
 20
-3186.781
 30
3377.000
 70
    32
  0
VERTEX
  8
1850LEVEL
 62
5
 10
1795.241
 20
-3181.083
 30
3377.000
 70
    32
  0
VERTEX
  8
1850LEVEL
 62
5
 10
1791.371
 20
-3175.385
 30
3377.000
 70
    32
  0
VERTEX
  8
1850LEVEL
 62
5
 10
1785.918
 20
-3168.373
 30
3377.000
 70
    32
  0
VERTEX
  8
1850LEVEL
 62
5
 10
1781.363
 20
-3162.249
 30
3377.000
 70
    32
  0
VERTEX
  8
1850LEVEL
 62
5
 10
1777.690
 20
-3153.870
 30
3377.000
 70
    32
  0
VERTEX
  8
1850LEVEL
 62
5
 10
1775.839
 20
-3147.804
 30
3377.000
 70
    32
  0
VERTEX
  8
1850LEVEL
 62
5
 10
1769.674
 20
-3133.581
 30
3377.000
 70
    32
  0
VERTEX
  8
1850LEVEL
 62
5
 10
1766.210
 20
-3125.234
 30
3377.000
 70
    32
  0
VERTEX
  8
1850LEVEL
 62
5
 10
1762.282
 20
-3114.567
 30
3377.000
 70
    32
  0
VERTEX
  8
1850LEVEL
 62
5
 10
1758.668
 20
-3105.340
 30
3377.000
 70
    32
  0
VERTEX
  8
1850LEVEL
 62
5
 10
1754.263
 20
-3095.456
 30
3377.000
 70
    32
  0
VERTEX
  8
1850LEVEL
 62
5
 10
1749.587
 20
-3084.781
 30
3377.000
 70
    32
  0
VERTEX
  8
1850LEVEL
 62
5
 10
1745.142
 20
-3075.854
 30
3377.000
 70
    32
  0
VERTEX
  8
1850LEVEL
 62
5
 10
1741.462
 20
-3069.150
 30
3377.000
 70
    32
  0
VERTEX
  8
1850LEVEL
 62
5
 10
1737.113
 20
-3062.380
 30
3377.000
 70
    32
  0
VERTEX
  8
1850LEVEL
 62
5
 10
1732.352
 20
-3055.046
 30
3377.000
 70
    32
  0
VERTEX
  8
1850LEVEL
 62
5
 10
1727.577
 20
-3047.104
 30
3377.000
 70
    32
  0
VERTEX
  8
1850LEVEL
 62
5
 10
1722.540
 20
-3041.334
 30
3377.000
 70
    32
  0
VERTEX
  8
1850LEVEL
 62
5
 10
1719.080
 20
-3038.304
 30
3377.000
 70
    32
  0
VERTEX
  8
1850LEVEL
 62
5
 10
1715.830
 20
-3036.234
 30
3377.000
 70
    32
  0
VERTEX
  8
1850LEVEL
 62
5
 10
1713.713
 20
-3035.374
 30
3377.000
 70
    32
  0
VERTEX
  8
1850LEVEL
 62
5
 10
1707.205
 20
-3034.766
 30
3377.000
 70
    32
  0
VERTEX
  8
1850LEVEL
 62
5
 10
1701.836
 20
-3034.869
 30
3377.000
 70
    32
  0
VERTEX
  8
1850LEVEL
 62
5
 10
1697.607
 20
-3034.755
 30
3377.000
 70
    32
  0
VERTEX
  8
1850LEVEL
 62
5
 10
1695.008
 20
-3034.248
 30
3377.000
 70
    32
  0
VERTEX
  8
1850LEVEL
 62
5
 10
1693.756
 20
-3032.878
 30
3377.000
 70
    32
  0
VERTEX
  8
1850LEVEL
 62
5
 10
1695.003
 20
-3031.036
 30
3377.000
 70
    32
  0
VERTEX
  8
1850LEVEL
 62
5
 10
1700.116
 20
-3029.573
 30
3377.000
 70
    32
  0
VERTEX
  8
1850LEVEL
 62
5
 10
1705.351
 20
-3028.950
 30
3377.000
 70
    32
  0
VERTEX
  8
1850LEVEL
 62
5
 10
1710.368
 20
-3027.187
 30
3377.000
 70
    32
  0
VERTEX
  8
1850LEVEL
 62
5
 10
1714.133
 20
-3024.054
 30
3377.000
 70
    32
  0
VERTEX
  8
1850LEVEL
 62
5
 10
1713.807
 20
-3018.045
 30
3377.000
 70
    32
  0
VERTEX
  8
1850LEVEL
 62
5
 10
1710.397
 20
-3011.204
 30
3377.000
 70
    32
  0
VERTEX
  8
1850LEVEL
 62
5
 10
1707.041
 20
-3004.015
 30
3377.000
 70
    32
  0
VERTEX
  8
1850LEVEL
 62
5
 10
1705.748
 20
-3000.819
 30
3377.000
 70
    32
  0
VERTEX
  8
1850LEVEL
 62
5
 10
1705.964
 20
-2993.608
 30
3377.000
 70
    32
  0
VERTEX
  8
1850LEVEL
 62
5
 10
1707.066
 20
-2992.243
 30
3377.000
 70
    32
  0
VERTEX
  8
1850LEVEL
 62
5
 10
1709.306
 20
-2996.477
 30
3377.000
 70
    32
  0
VERTEX
  8
1850LEVEL
 62
5
 10
1713.585
 20
-3006.948
 30
3377.000
 70
    32
  0
VERTEX
  8
1850LEVEL
 62
5
 10
1718.629
 20
-3018.714
 30
3377.000
 70
    32
  0
VERTEX
  8
1850LEVEL
 62
5
 10
1723.637
 20
-3029.084
 30
3377.000
 70
    32
  0
VERTEX
  8
1850LEVEL
 62
5
 10
1727.055
 20
-3037.959
 30
3377.000
 70
    32
  0
VERTEX
  8
1850LEVEL
 62
5
 10
1729.416
 20
-3043.033
 30
3377.000
 70
    32
  0
VERTEX
  8
1850LEVEL
 62
5
 10
1731.291
 20
-3046.854
 30
3377.000
 70
    32
  0
VERTEX
  8
1850LEVEL
 62
5
 10
1732.756
 20
-3047.079
 30
3377.000
 70
    32
  0
VERTEX
  8
1850LEVEL
 62
5
 10
1734.784
 20
-3040.146
 30
3377.000
 70
    32
  0
VERTEX
  8
1850LEVEL
 62
5
 10
1737.132
 20
-3030.444
 30
3377.000
 70
    32
  0
VERTEX
  8
1850LEVEL
 62
5
 10
1738.676
 20
-3010.875
 30
3377.000
 70
    32
  0
VERTEX
  8
1850LEVEL
 62
5
 10
1739.001
 20
-2999.006
 30
3377.000
 70
    32
  0
VERTEX
  8
1850LEVEL
 62
5
 10
1739.286
 20
-2987.166
 30
3377.000
 70
    32
  0
VERTEX
  8
1850LEVEL
 62
5
 10
1740.252
 20
-2976.930
 30
3377.000
 70
    32
  0
VERTEX
  8
1850LEVEL
 62
5
 10
1739.676
 20
-2967.206
 30
3377.000
 70
    32
  0
VERTEX
  8
1850LEVEL
 62
5
 10
1740.885
 20
-2962.360
 30
3377.000
 70
    32
  0
VERTEX
  8
1850LEVEL
 62
5
 10
1742.363
 20
-2951.810
 30
3377.000
 70
    32
  0
VERTEX
  8
1850LEVEL
 62
5
 10
1742.306
 20
-2945.913
 30
3377.000
 70
    32
  0
VERTEX
  8
1850LEVEL
 62
5
 10
1740.754
 20
-2935.111
 30
3377.000
 70
    32
  0
VERTEX
  8
1850LEVEL
 62
5
 10
1739.426
 20
-2930.518
 30
3377.000
 70
    32
  0
VERTEX
  8
1850LEVEL
 62
5
 10
1738.633
 20
-2923.366
 30
3377.000
 70
    32
  0
VERTEX
  8
1850LEVEL
 62
5
 10
1739.556
 20
-2922.009
 30
3377.000
 70
    32
  0
VERTEX
  8
1850LEVEL
 62
5
 10
1740.760
 20
-2921.373
 30
3377.000
 70
    32
  0
VERTEX
  8
1850LEVEL
 62
5
 10
1741.806
 20
-2921.534
 30
3377.000
 70
    32
  0
VERTEX
  8
1850LEVEL
 62
5
 10
1744.185
 20
-2923.933
 30
3377.000
 70
    32
  0
VERTEX
  8
1850LEVEL
 62
5
 10
1745.335
 20
-2924.574
 30
3377.000
 70
    32
  0
VERTEX
  8
1850LEVEL
 62
5
 10
1742.781
 20
-2916.116
 30
3377.000
 70
    32
  0
VERTEX
  8
1850LEVEL
 62
5
 10
1736.329
 20
-2902.599
 30
3377.000
 70
    32
  0
VERTEX
  8
1850LEVEL
 62
5
 10
1730.603
 20
-2886.446
 30
3377.000
 70
    32
  0
VERTEX
  8
1850LEVEL
 62
5
 10
1724.969
 20
-2872.019
 30
3377.000
 70
    32
  0
VERTEX
  8
1850LEVEL
 62
5
 10
1721.803
 20
-2861.969
 30
3377.000
 70
    32
  0
VERTEX
  8
1850LEVEL
 62
5
 10
1717.912
 20
-2849.666
 30
3377.000
 70
    32
  0
VERTEX
  8
1850LEVEL
 62
5
 10
1715.028
 20
-2840.337
 30
3377.000
 70
    32
  0
VERTEX
  8
1850LEVEL
 62
5
 10
1711.543
 20
-2832.128
 30
3377.000
 70
    32
  0
VERTEX
  8
1850LEVEL
 62
5
 10
1709.214
 20
-2825.918
 30
3377.000
 70
    32
  0
VERTEX
  8
1850LEVEL
 62
5
 10
1708.508
 20
-2822.848
 30
3377.000
 70
    32
  0
VERTEX
  8
1850LEVEL
 62
5
 10
1708.116
 20
-2820.289
 30
3377.000
 70
    32
  0
VERTEX
  8
1850LEVEL
 62
5
 10
1709.320
 20
-2816.870
 30
3377.000
 70
    32
  0
VERTEX
  8
1850LEVEL
 62
5
 10
1708.152
 20
-2811.231
 30
3377.000
 70
    32
  0
VERTEX
  8
1850LEVEL
 62
5
 10
1705.522
 20
-2799.550
 30
3377.000
 70
    32
  0
VERTEX
  8
1850LEVEL
 62
5
 10
1701.610
 20
-2786.458
 30
3377.000
 70
    32
  0
VERTEX
  8
1850LEVEL
 62
5
 10
1699.044
 20
-2774.359
 30
3377.000
 70
    32
  0
VERTEX
  8
1850LEVEL
 62
5
 10
1698.329
 20
-2767.397
 30
3377.000
 70
    32
  0
VERTEX
  8
1850LEVEL
 62
5
 10
1696.590
 20
-2758.280
 30
3377.000
 70
    32
  0
VERTEX
  8
1850LEVEL
 62
5
 10
1694.194
 20
-2749.026
 30
3377.000
 70
    32
  0
VERTEX
  8
1850LEVEL
 62
5
 10
1693.257
 20
-2743.279
 30
3377.000
 70
    32
  0
VERTEX
  8
1850LEVEL
 62
5
 10
1690.836
 20
-2733.486
 30
3377.000
 70
    32
  0
VERTEX
  8
1850LEVEL
 62
5
 10
1689.570
 20
-2729.651
 30
3377.000
 70
    32
  0
VERTEX
  8
1850LEVEL
 62
5
 10
1687.445
 20
-2727.683
 30
3377.000
 70
    32
  0
VERTEX
  8
1850LEVEL
 62
5
 10
1685.600
 20
-2725.758
 30
3377.000
 70
    32
  0
VERTEX
  8
1850LEVEL
 62
5
 10
1683.242
 20
-2719.507
 30
3377.000
 70
    32
  0
VERTEX
  8
1850LEVEL
 62
5
 10
1681.277
 20
-2710.926
 30
3377.000
 70
    32
  0
VERTEX
  8
1850LEVEL
 62
5
 10
1678.785
 20
-2706.011
 30
3377.000
 70
    32
  0
VERTEX
  8
1850LEVEL
 62
5
 10
1675.851
 20
-2702.349
 30
3377.000
 70
    32
  0
VERTEX
  8
1850LEVEL
 62
5
 10
1673.149
 20
-2694.618
 30
3377.000
 70
    32
  0
VERTEX
  8
1850LEVEL
 62
5
 10
1670.119
 20
-2684.838
 30
3377.000
 70
    32
  0
VERTEX
  8
1850LEVEL
 62
5
 10
1668.563
 20
-2679.175
 30
3377.000
 70
    32
  0
VERTEX
  8
1850LEVEL
 62
5
 10
1665.934
 20
-2671.205
 30
3377.000
 70
    32
  0
VERTEX
  8
1850LEVEL
 62
5
 10
1659.104
 20
-2646.210
 30
3377.000
 70
    32
  0
VERTEX
  8
1850LEVEL
 62
5
 10
1651.728
 20
-2624.771
 30
3377.000
 70
    32
  0
VERTEX
  8
1850LEVEL
 62
5
 10
1646.188
 20
-2608.111
 30
3377.000
 70
    32
  0
VERTEX
  8
1850LEVEL
 62
5
 10
1643.896
 20
-2597.481
 30
3377.000
 70
    32
  0
VERTEX
  8
1850LEVEL
 62
5
 10
1642.019
 20
-2586.237
 30
3377.000
 70
    32
  0
VERTEX
  8
1850LEVEL
 62
5
 10
1639.933
 20
-2574.033
 30
3377.000
 70
    32
  0
VERTEX
  8
1850LEVEL
 62
5
 10
1635.102
 20
-2562.049
 30
3377.000
 70
    32
  0
VERTEX
  8
1850LEVEL
 62
5
 10
1631.123
 20
-2553.337
 30
3377.000
 70
    32
  0
VERTEX
  8
1850LEVEL
 62
5
 10
1627.297
 20
-2543.400
 30
3377.000
 70
    32
  0
VERTEX
  8
1850LEVEL
 62
5
 10
1625.807
 20
-2532.429
 30
3377.000
 70
    32
  0
VERTEX
  8
1850LEVEL
 62
5
 10
1625.159
 20
-2524.800
 30
3377.000
 70
    32
  0
VERTEX
  8
1850LEVEL
 62
5
 10
1622.559
 20
-2513.159
 30
3377.000
 70
    32
  0
VERTEX
  8
1850LEVEL
 62
5
 10
1618.335
 20
-2500.234
 30
3377.000
 70
    32
  0
VERTEX
  8
1850LEVEL
 62
5
 10
1616.116
 20
-2492.149
 30
3377.000
 70
    32
  0
VERTEX
  8
1850LEVEL
 62
5
 10
1611.413
 20
-2481.184
 30
3377.000
 70
    32
  0
VERTEX
  8
1850LEVEL
 62
5
 10
1604.543
 20
-2470.386
 30
3377.000
 70
    32
  0
VERTEX
  8
1850LEVEL
 62
5
 10
1596.354
 20
-2457.958
 30
3377.000
 70
    32
  0
VERTEX
  8
1850LEVEL
 62
5
 10
1591.888
 20
-2451.027
 30
3377.000
 70
    32
  0
VERTEX
  8
1850LEVEL
 62
5
 10
1587.481
 20
-2444.176
 30
3377.000
 70
    32
  0
VERTEX
  8
1850LEVEL
 62
5
 10
1584.602
 20
-2438.987
 30
3377.000
 70
    32
  0
SEQEND
  8
1850LEVEL
  0
POLYLINE
  8
1850LEVEL
 62
5
 66
     1
 70
     9
  0
VERTEX
  8
1850LEVEL
 62
5
 10
1754.943
 20
-3013.232
 30
3377.000
 70
    32
  0
VERTEX
  8
1850LEVEL
 62
5
 10
1756.910
 20
-3017.852
 30
3377.000
 70
    32
  0
VERTEX
  8
1850LEVEL
 62
5
 10
1760.381
 20
-3023.596
 30
3377.000
 70
    32
  0
VERTEX
  8
1850LEVEL
 62
5
 10
1765.721
 20
-3029.948
 30
3377.000
 70
    32
  0
VERTEX
  8
1850LEVEL
 62
5
 10
1770.447
 20
-3034.956
 30
3377.000
 70
    32
  0
VERTEX
  8
1850LEVEL
 62
5
 10
1772.143
 20
-3037.858
 30
3377.000
 70
    32
  0
VERTEX
  8
1850LEVEL
 62
5
 10
1772.870
 20
-3041.716
 30
3377.000
 70
    32
  0
VERTEX
  8
1850LEVEL
 62
5
 10
1772.040
 20
-3045.728
 30
3377.000
 70
    32
  0
VERTEX
  8
1850LEVEL
 62
5
 10
1770.664
 20
-3048.408
 30
3377.000
 70
    32
  0
VERTEX
  8
1850LEVEL
 62
5
 10
1766.101
 20
-3052.560
 30
3377.000
 70
    32
  0
VERTEX
  8
1850LEVEL
 62
5
 10
1763.615
 20
-3054.569
 30
3377.000
 70
    32
  0
VERTEX
  8
1850LEVEL
 62
5
 10
1759.041
 20
-3056.007
 30
3377.000
 70
    32
  0
VERTEX
  8
1850LEVEL
 62
5
 10
1757.072
 20
-3056.276
 30
3377.000
 70
    32
  0
VERTEX
  8
1850LEVEL
 62
5
 10
1755.361
 20
-3053.015
 30
3377.000
 70
    32
  0
VERTEX
  8
1850LEVEL
 62
5
 10
1754.541
 20
-3044.645
 30
3377.000
 70
    32
  0
VERTEX
  8
1850LEVEL
 62
5
 10
1755.224
 20
-3038.577
 30
3377.000
 70
    32
  0
VERTEX
  8
1850LEVEL
 62
5
 10
1755.204
 20
-3029.188
 30
3377.000
 70
    32
  0
VERTEX
  8
1850LEVEL
 62
5
 10
1754.883
 20
-3021.752
 30
3377.000
 70
    32
  0
VERTEX
  8
1850LEVEL
 62
5
 10
1754.904
 20
-3016.045
 30
3377.000
 70
    32
  0
SEQEND
  8
1850LEVEL
  0
POLYLINE
  8
1850LEVEL
 62
5
 66
     1
 70
     9
  0
VERTEX
  8
1850LEVEL
 62
5
 10
1812.484
 20
-3144.121
 30
3377.000
 70
    32
  0
VERTEX
  8
1850LEVEL
 62
5
 10
1815.352
 20
-3152.163
 30
3377.000
 70
    32
  0
VERTEX
  8
1850LEVEL
 62
5
 10
1818.389
 20
-3159.338
 30
3377.000
 70
    32
  0
VERTEX
  8
1850LEVEL
 62
5
 10
1820.690
 20
-3164.331
 30
3377.000
 70
    32
  0
VERTEX
  8
1850LEVEL
 62
5
 10
1823.261
 20
-3171.293
 30
3377.000
 70
    32
  0
VERTEX
  8
1850LEVEL
 62
5
 10
1824.884
 20
-3177.216
 30
3377.000
 70
    32
  0
VERTEX
  8
1850LEVEL
 62
5
 10
1823.359
 20
-3179.944
 30
3377.000
 70
    32
  0
VERTEX
  8
1850LEVEL
 62
5
 10
1819.886
 20
-3180.017
 30
3377.000
 70
    32
  0
VERTEX
  8
1850LEVEL
 62
5
 10
1813.460
 20
-3175.389
 30
3377.000
 70
    32
  0
VERTEX
  8
1850LEVEL
 62
5
 10
1809.731
 20
-3166.680
 30
3377.000
 70
    32
  0
VERTEX
  8
1850LEVEL
 62
5
 10
1808.262
 20
-3157.426
 30
3377.000
 70
    32
  0
VERTEX
  8
1850LEVEL
 62
5
 10
1806.199
 20
-3150.649
 30
3377.000
 70
    32
  0
VERTEX
  8
1850LEVEL
 62
5
 10
1804.911
 20
-3146.954
 30
3377.000
 70
    32
  0
VERTEX
  8
1850LEVEL
 62
5
 10
1804.358
 20
-3145.442
 30
3377.000
 70
    32
  0
VERTEX
  8
1850LEVEL
 62
5
 10
1802.754
 20
-3144.267
 30
3377.000
 70
    32
  0
VERTEX
  8
1850LEVEL
 62
5
 10
1799.638
 20
-3141.790
 30
3377.000
 70
    32
  0
VERTEX
  8
1850LEVEL
 62
5
 10
1794.404
 20
-3132.885
 30
3377.000
 70
    32
  0
VERTEX
  8
1850LEVEL
 62
5
 10
1790.871
 20
-3126.383
 30
3377.000
 70
    32
  0
VERTEX
  8
1850LEVEL
 62
5
 10
1787.751
 20
-3117.660
 30
3377.000
 70
    32
  0
VERTEX
  8
1850LEVEL
 62
5
 10
1788.691
 20
-3112.701
 30
3377.000
 70
    32
  0
VERTEX
  8
1850LEVEL
 62
5
 10
1789.581
 20
-3107.842
 30
3377.000
 70
    32
  0
VERTEX
  8
1850LEVEL
 62
5
 10
1788.488
 20
-3099.858
 30
3377.000
 70
    32
  0
VERTEX
  8
1850LEVEL
 62
5
 10
1788.876
 20
-3092.459
 30
3377.000
 70
    32
  0
VERTEX
  8
1850LEVEL
 62
5
 10
1789.186
 20
-3089.510
 30
3377.000
 70
    32
  0
VERTEX
  8
1850LEVEL
 62
5
 10
1790.701
 20
-3087.780
 30
3377.000
 70
    32
  0
VERTEX
  8
1850LEVEL
 62
5
 10
1792.106
 20
-3088.852
 30
3377.000
 70
    32
  0
VERTEX
  8
1850LEVEL
 62
5
 10
1794.346
 20
-3089.375
 30
3377.000
 70
    32
  0
VERTEX
  8
1850LEVEL
 62
5
 10
1796.893
 20
-3089.052
 30
3377.000
 70
    32
  0
VERTEX
  8
1850LEVEL
 62
5
 10
1798.744
 20
-3091.406
 30
3377.000
 70
    32
  0
VERTEX
  8
1850LEVEL
 62
5
 10
1800.784
 20
-3099.499
 30
3377.000
 70
    32
  0
VERTEX
  8
1850LEVEL
 62
5
 10
1803.126
 20
-3107.246
 30
3377.000
 70
    32
  0
VERTEX
  8
1850LEVEL
 62
5
 10
1804.916
 20
-3115.337
 30
3377.000
 70
    32
  0
VERTEX
  8
1850LEVEL
 62
5
 10
1805.950
 20
-3121.384
 30
3377.000
 70
    32
  0
VERTEX
  8
1850LEVEL
 62
5
 10
1806.294
 20
-3125.648
 30
3377.000
 70
    32
  0
VERTEX
  8
1850LEVEL
 62
5
 10
1806.788
 20
-3131.719
 30
3377.000
 70
    32
  0
VERTEX
  8
1850LEVEL
 62
5
 10
1809.109
 20
-3135.894
 30
3377.000
 70
    32
  0
SEQEND
  8
1850LEVEL
  0
POLYLINE
  8
1850LEVEL
 62
5
 66
     1
 70
     9
  0
VERTEX
  8
1850LEVEL
 62
5
 10
1971.084
 20
-3123.849
 30
3377.000
 70
    32
  0
VERTEX
  8
1850LEVEL
 62
5
 10
1972.503
 20
-3126.458
 30
3377.000
 70
    32
  0
VERTEX
  8
1850LEVEL
 62
5
 10
1974.413
 20
-3131.676
 30
3377.000
 70
    32
  0
VERTEX
  8
1850LEVEL
 62
5
 10
1976.286
 20
-3136.674
 30
3377.000
 70
    32
  0
VERTEX
  8
1850LEVEL
 62
5
 10
1977.727
 20
-3142.855
 30
3377.000
 70
    32
  0
VERTEX
  8
1850LEVEL
 62
5
 10
1978.846
 20
-3147.417
 30
3377.000
 70
    32
  0
VERTEX
  8
1850LEVEL
 62
5
 10
1979.356
 20
-3149.208
 30
3377.000
 70
    32
  0
VERTEX
  8
1850LEVEL
 62
5
 10
1977.800
 20
-3146.328
 30
3377.000
 70
    32
  0
VERTEX
  8
1850LEVEL
 62
5
 10
1975.890
 20
-3141.110
 30
3377.000
 70
    32
  0
VERTEX
  8
1850LEVEL
 62
5
 10
1973.164
 20
-3134.696
 30
3377.000
 70
    32
  0
VERTEX
  8
1850LEVEL
 62
5
 10
1971.168
 20
-3129.107
 30
3377.000
 70
    32
  0
VERTEX
  8
1850LEVEL
 62
5
 10
1969.134
 20
-3124.227
 30
3377.000
 70
    32
  0
VERTEX
  8
1850LEVEL
 62
5
 10
1968.176
 20
-3120.476
 30
3377.000
 70
    32
  0
VERTEX
  8
1850LEVEL
 62
5
 10
1968.573
 20
-3117.896
 30
3377.000
 70
    32
  0
VERTEX
  8
1850LEVEL
 62
5
 10
1967.239
 20
-3112.873
 30
3377.000
 70
    32
  0
VERTEX
  8
1850LEVEL
 62
5
 10
1965.855
 20
-3109.806
 30
3377.000
 70
    32
  0
VERTEX
  8
1850LEVEL
 62
5
 10
1963.882
 20
-3101.973
 30
3377.000
 70
    32
  0
VERTEX
  8
1850LEVEL
 62
5
 10
1962.972
 20
-3097.443
 30
3377.000
 70
    32
  0
VERTEX
  8
1850LEVEL
 62
5
 10
1962.765
 20
-3095.306
 30
3377.000
 70
    32
  0
VERTEX
  8
1850LEVEL
 62
5
 10
1964.509
 20
-3098.358
 30
3377.000
 70
    32
  0
VERTEX
  8
1850LEVEL
 62
5
 10
1966.130
 20
-3102.675
 30
3377.000
 70
    32
  0
VERTEX
  8
1850LEVEL
 62
5
 10
1966.766
 20
-3106.662
 30
3377.000
 70
    32
  0
VERTEX
  8
1850LEVEL
 62
5
 10
1968.059
 20
-3110.787
 30
3377.000
 70
    32
  0
VERTEX
  8
1850LEVEL
 62
5
 10
1969.006
 20
-3112.752
 30
3377.000
 70
    32
  0
VERTEX
  8
1850LEVEL
 62
5
 10
1969.516
 20
-3115.471
 30
3377.000
 70
    32
  0
VERTEX
  8
1850LEVEL
 62
5
 10
1969.530
 20
-3117.936
 30
3377.000
 70
    32
  0
VERTEX
  8
1850LEVEL
 62
5
 10
1969.721
 20
-3119.714
 30
3377.000
 70
    32
  0
VERTEX
  8
1850LEVEL
 62
5
 10
1970.102
 20
-3121.414
 30
3377.000
 70
    32
  0
VERTEX
  8
1850LEVEL
 62
5
 10
1970.469
 20
-3122.505
 30
3377.000
 70
    32
  0
SEQEND
  8
1850LEVEL
  0
POLYLINE
  8
1850LEVEL
 62
5
 66
     1
 70
     9
  0
VERTEX
  8
1850LEVEL
 62
5
 10
1762.735
 20
-2765.125
 30
3377.000
 70
    32
  0
VERTEX
  8
1850LEVEL
 62
5
 10
1763.865
 20
-2770.545
 30
3377.000
 70
    32
  0
VERTEX
  8
1850LEVEL
 62
5
 10
1764.381
 20
-2773.693
 30
3377.000
 70
    32
  0
VERTEX
  8
1850LEVEL
 62
5
 10
1765.105
 20
-2776.873
 30
3377.000
 70
    32
  0
VERTEX
  8
1850LEVEL
 62
5
 10
1766.527
 20
-2781.089
 30
3377.000
 70
    32
  0
VERTEX
  8
1850LEVEL
 62
5
 10
1768.041
 20
-2785.175
 30
3377.000
 70
    32
  0
VERTEX
  8
1850LEVEL
 62
5
 10
1769.339
 20
-2788.801
 30
3377.000
 70
    32
  0
VERTEX
  8
1850LEVEL
 62
5
 10
1769.782
 20
-2790.332
 30
3377.000
 70
    32
  0
VERTEX
  8
1850LEVEL
 62
5
 10
1768.229
 20
-2789.058
 30
3377.000
 70
    32
  0
VERTEX
  8
1850LEVEL
 62
5
 10
1766.279
 20
-2785.725
 30
3377.000
 70
    32
  0
VERTEX
  8
1850LEVEL
 62
5
 10
1764.554
 20
-2780.928
 30
3377.000
 70
    32
  0
VERTEX
  8
1850LEVEL
 62
5
 10
1762.785
 20
-2775.482
 30
3377.000
 70
    32
  0
VERTEX
  8
1850LEVEL
 62
5
 10
1762.088
 20
-2771.663
 30
3377.000
 70
    32
  0
VERTEX
  8
1850LEVEL
 62
5
 10
1761.430
 20
-2767.815
 30
3377.000
 70
    32
  0
VERTEX
  8
1850LEVEL
 62
5
 10
1761.725
 20
-2766.362
 30
3377.000
 70
    32
  0
VERTEX
  8
1850LEVEL
 62
5
 10
1761.920
 20
-2765.785
 30
3377.000
 70
    32
  0
SEQEND
  8
1850LEVEL
  0
POLYLINE
  8
1850LEVEL
 62
5
 66
     1
 70
     9
  0
VERTEX
  8
1850LEVEL
 62
5
 10
1661.983
 20
-2591.018
 30
3377.000
 70
    32
  0
VERTEX
  8
1850LEVEL
 62
5
 10
1663.679
 20
-2599.486
 30
3377.000
 70
    32
  0
VERTEX
  8
1850LEVEL
 62
5
 10
1667.312
 20
-2611.607
 30
3377.000
 70
    32
  0
VERTEX
  8
1850LEVEL
 62
5
 10
1671.190
 20
-2625.157
 30
3377.000
 70
    32
  0
VERTEX
  8
1850LEVEL
 62
5
 10
1674.906
 20
-2637.897
 30
3377.000
 70
    32
  0
VERTEX
  8
1850LEVEL
 62
5
 10
1680.267
 20
-2653.637
 30
3377.000
 70
    32
  0
VERTEX
  8
1850LEVEL
 62
5
 10
1683.868
 20
-2665.039
 30
3377.000
 70
    32
  0
VERTEX
  8
1850LEVEL
 62
5
 10
1688.133
 20
-2675.830
 30
3377.000
 70
    32
  0
VERTEX
  8
1850LEVEL
 62
5
 10
1690.371
 20
-2680.313
 30
3377.000
 70
    32
  0
VERTEX
  8
1850LEVEL
 62
5
 10
1692.847
 20
-2685.797
 30
3377.000
 70
    32
  0
VERTEX
  8
1850LEVEL
 62
5
 10
1692.671
 20
-2689.267
 30
3377.000
 70
    32
  0
VERTEX
  8
1850LEVEL
 62
5
 10
1693.151
 20
-2691.946
 30
3377.000
 70
    32
  0
VERTEX
  8
1850LEVEL
 62
5
 10
1695.869
 20
-2699.108
 30
3377.000
 70
    32
  0
VERTEX
  8
1850LEVEL
 62
5
 10
1700.773
 20
-2708.997
 30
3377.000
 70
    32
  0
VERTEX
  8
1850LEVEL
 62
5
 10
1704.206
 20
-2714.521
 30
3377.000
 70
    32
  0
VERTEX
  8
1850LEVEL
 62
5
 10
1707.307
 20
-2715.711
 30
3377.000
 70
    32
  0
VERTEX
  8
1850LEVEL
 62
5
 10
1710.425
 20
-2715.156
 30
3377.000
 70
    32
  0
VERTEX
  8
1850LEVEL
 62
5
 10
1712.678
 20
-2716.287
 30
3377.000
 70
    32
  0
VERTEX
  8
1850LEVEL
 62
5
 10
1714.511
 20
-2721.315
 30
3377.000
 70
    32
  0
VERTEX
  8
1850LEVEL
 62
5
 10
1715.692
 20
-2728.491
 30
3377.000
 70
    32
  0
VERTEX
  8
1850LEVEL
 62
5
 10
1719.110
 20
-2737.367
 30
3377.000
 70
    32
  0
VERTEX
  8
1850LEVEL
 62
5
 10
1722.324
 20
-2745.711
 30
3377.000
 70
    32
  0
VERTEX
  8
1850LEVEL
 62
5
 10
1722.432
 20
-2750.581
 30
3377.000
 70
    32
  0
VERTEX
  8
1850LEVEL
 62
5
 10
1721.207
 20
-2754.140
 30
3377.000
 70
    32
  0
VERTEX
  8
1850LEVEL
 62
5
 10
1719.181
 20
-2758.968
 30
3377.000
 70
    32
  0
VERTEX
  8
1850LEVEL
 62
5
 10
1720.246
 20
-2764.806
 30
3377.000
 70
    32
  0
VERTEX
  8
1850LEVEL
 62
5
 10
1722.396
 20
-2771.024
 30
3377.000
 70
    32
  0
VERTEX
  8
1850LEVEL
 62
5
 10
1726.030
 20
-2777.328
 30
3377.000
 70
    32
  0
VERTEX
  8
1850LEVEL
 62
5
 10
1726.275
 20
-2780.613
 30
3377.000
 70
    32
  0
VERTEX
  8
1850LEVEL
 62
5
 10
1725.708
 20
-2788.948
 30
3377.000
 70
    32
  0
VERTEX
  8
1850LEVEL
 62
5
 10
1726.914
 20
-2797.591
 30
3377.000
 70
    32
  0
VERTEX
  8
1850LEVEL
 62
5
 10
1727.695
 20
-2802.957
 30
3377.000
 70
    32
  0
VERTEX
  8
1850LEVEL
 62
5
 10
1728.817
 20
-2809.124
 30
3377.000
 70
    32
  0
VERTEX
  8
1850LEVEL
 62
5
 10
1730.215
 20
-2813.729
 30
3377.000
 70
    32
  0
VERTEX
  8
1850LEVEL
 62
5
 10
1727.973
 20
-2810.672
 30
3377.000
 70
    32
  0
VERTEX
  8
1850LEVEL
 62
5
 10
1725.051
 20
-2805.762
 30
3377.000
 70
    32
  0
VERTEX
  8
1850LEVEL
 62
5
 10
1722.612
 20
-2797.715
 30
3377.000
 70
    32
  0
VERTEX
  8
1850LEVEL
 62
5
 10
1720.500
 20
-2785.221
 30
3377.000
 70
    32
  0
VERTEX
  8
1850LEVEL
 62
5
 10
1717.784
 20
-2775.026
 30
3377.000
 70
    32
  0
VERTEX
  8
1850LEVEL
 62
5
 10
1714.687
 20
-2764.986
 30
3377.000
 70
    32
  0
VERTEX
  8
1850LEVEL
 62
5
 10
1714.933
 20
-2756.887
 30
3377.000
 70
    32
  0
VERTEX
  8
1850LEVEL
 62
5
 10
1717.002
 20
-2752.709
 30
3377.000
 70
    32
  0
VERTEX
  8
1850LEVEL
 62
5
 10
1717.768
 20
-2746.332
 30
3377.000
 70
    32
  0
VERTEX
  8
1850LEVEL
 62
5
 10
1715.219
 20
-2739.231
 30
3377.000
 70
    32
  0
VERTEX
  8
1850LEVEL
 62
5
 10
1711.045
 20
-2732.023
 30
3377.000
 70
    32
  0
VERTEX
  8
1850LEVEL
 62
5
 10
1708.035
 20
-2726.993
 30
3377.000
 70
    32
  0
VERTEX
  8
1850LEVEL
 62
5
 10
1705.801
 20
-2722.260
 30
3377.000
 70
    32
  0
VERTEX
  8
1850LEVEL
 62
5
 10
1703.803
 20
-2720.633
 30
3377.000
 70
    32
  0
VERTEX
  8
1850LEVEL
 62
5
 10
1700.601
 20
-2720.569
 30
3377.000
 70
    32
  0
VERTEX
  8
1850LEVEL
 62
5
 10
1697.055
 20
-2716.241
 30
3377.000
 70
    32
  0
VERTEX
  8
1850LEVEL
 62
5
 10
1692.311
 20
-2705.306
 30
3377.000
 70
    32
  0
VERTEX
  8
1850LEVEL
 62
5
 10
1691.045
 20
-2698.688
 30
3377.000
 70
    32
  0
VERTEX
  8
1850LEVEL
 62
5
 10
1690.642
 20
-2695.272
 30
3377.000
 70
    32
  0
VERTEX
  8
1850LEVEL
 62
5
 10
1689.764
 20
-2691.461
 30
3377.000
 70
    32
  0
VERTEX
  8
1850LEVEL
 62
5
 10
1686.035
 20
-2682.752
 30
3377.000
 70
    32
  0
VERTEX
  8
1850LEVEL
 62
5
 10
1681.364
 20
-2672.506
 30
3377.000
 70
    32
  0
VERTEX
  8
1850LEVEL
 62
5
 10
1674.022
 20
-2656.425
 30
3377.000
 70
    32
  0
VERTEX
  8
1850LEVEL
 62
5
 10
1668.908
 20
-2640.936
 30
3377.000
 70
    32
  0
VERTEX
  8
1850LEVEL
 62
5
 10
1664.542
 20
-2625.456
 30
3377.000
 70
    32
  0
VERTEX
  8
1850LEVEL
 62
5
 10
1660.892
 20
-2611.120
 30
3377.000
 70
    32
  0
VERTEX
  8
1850LEVEL
 62
5
 10
1658.289
 20
-2600.656
 30
3377.000
 70
    32
  0
VERTEX
  8
1850LEVEL
 62
5
 10
1658.149
 20
-2595.068
 30
3377.000
 70
    32
  0
VERTEX
  8
1850LEVEL
 62
5
 10
1658.638
 20
-2590.254
 30
3377.000
 70
    32
  0
VERTEX
  8
1850LEVEL
 62
5
 10
1660.043
 20
-2587.615
 30
3377.000
 70
    32
  0
VERTEX
  8
1850LEVEL
 62
5
 10
1661.166
 20
-2581.471
 30
3377.000
 70
    32
  0
VERTEX
  8
1850LEVEL
 62
5
 10
1661.674
 20
-2576.767
 30
3377.000
 70
    32
  0
VERTEX
  8
1850LEVEL
 62
5
 10
1662.644
 20
-2569.993
 30
3377.000
 70
    32
  0
VERTEX
  8
1850LEVEL
 62
5
 10
1662.295
 20
-2565.300
 30
3377.000
 70
    32
  0
VERTEX
  8
1850LEVEL
 62
5
 10
1661.382
 20
-2561.948
 30
3377.000
 70
    32
  0
VERTEX
  8
1850LEVEL
 62
5
 10
1661.028
 20
-2560.538
 30
3377.000
 70
    32
  0
VERTEX
  8
1850LEVEL
 62
5
 10
1663.260
 20
-2563.664
 30
3377.000
 70
    32
  0
VERTEX
  8
1850LEVEL
 62
5
 10
1665.315
 20
-2568.405
 30
3377.000
 70
    32
  0
VERTEX
  8
1850LEVEL
 62
5
 10
1665.782
 20
-2575.115
 30
3377.000
 70
    32
  0
VERTEX
  8
1850LEVEL
 62
5
 10
1664.397
 20
-2581.575
 30
3377.000
 70
    32
  0
VERTEX
  8
1850LEVEL
 62
5
 10
1663.098
 20
-2587.478
 30
3377.000
 70
    32
  0
VERTEX
  8
1850LEVEL
 62
5
 10
1662.417
 20
-2591.441
 30
3377.000
 70
    32
  0
VERTEX
  8
1850LEVEL
 62
5
 10
1662.345
 20
-2592.608
 30
3377.000
 70
    32
  0
SEQEND
  8
1850LEVEL
  0
POLYLINE
  8
1850LEVEL
 62
5
 66
     1
 70
     9
  0
VERTEX
  8
1850LEVEL
 62
5
 10
1775.913
 20
-3220.009
 30
3377.000
 70
    32
  0
VERTEX
  8
1850LEVEL
 62
5
 10
1772.106
 20
-3211.109
 30
3377.000
 70
    32
  0
VERTEX
  8
1850LEVEL
 62
5
 10
1767.835
 20
-3198.034
 30
3377.000
 70
    32
  0
VERTEX
  8
1850LEVEL
 62
5
 10
1763.180
 20
-3186.291
 30
3377.000
 70
    32
  0
VERTEX
  8
1850LEVEL
 62
5
 10
1761.365
 20
-3174.878
 30
3377.000
 70
    32
  0
VERTEX
  8
1850LEVEL
 62
5
 10
1762.069
 20
-3165.886
 30
3377.000
 70
    32
  0
VERTEX
  8
1850LEVEL
 62
5
 10
1764.187
 20
-3162.786
 30
3377.000
 70
    32
  0
VERTEX
  8
1850LEVEL
 62
5
 10
1769.231
 20
-3162.241
 30
3377.000
 70
    32
  0
VERTEX
  8
1850LEVEL
 62
5
 10
1775.526
 20
-3167.026
 30
3377.000
 70
    32
  0
VERTEX
  8
1850LEVEL
 62
5
 10
1779.203
 20
-3170.268
 30
3377.000
 70
    32
  0
VERTEX
  8
1850LEVEL
 62
5
 10
1782.956
 20
-3177.661
 30
3377.000
 70
    32
  0
VERTEX
  8
1850LEVEL
 62
5
 10
1785.086
 20
-3183.769
 30
3377.000
 70
    32
  0
VERTEX
  8
1850LEVEL
 62
5
 10
1789.448
 20
-3193.004
 30
3377.000
 70
    32
  0
VERTEX
  8
1850LEVEL
 62
5
 10
1793.215
 20
-3201.006
 30
3377.000
 70
    32
  0
VERTEX
  8
1850LEVEL
 62
5
 10
1796.493
 20
-3208.932
 30
3377.000
 70
    32
  0
VERTEX
  8
1850LEVEL
 62
5
 10
1798.634
 20
-3213.115
 30
3377.000
 70
    32
  0
SEQEND
  8
1850LEVEL
  0
POLYLINE
  8
1850LEVEL
 62
5
 66
     1
 70
     9
  0
VERTEX
  8
1850LEVEL
 62
5
 10
1803.856
 20
-3215.595
 30
3377.000
 70
    32
  0
VERTEX
  8
1850LEVEL
 62
5
 10
1798.748
 20
-3205.175
 30
3377.000
 70
    32
  0
VERTEX
  8
1850LEVEL
 62
5
 10
1794.230
 20
-3193.703
 30
3377.000
 70
    32
  0
VERTEX
  8
1850LEVEL
 62
5
 10
1791.193
 20
-3187.456
 30
3377.000
 70
    32
  0
VERTEX
  8
1850LEVEL
 62
5
 10
1788.950
 20
-3182.543
 30
3377.000
 70
    32
  0
VERTEX
  8
1850LEVEL
 62
5
 10
1787.767
 20
-3179.328
 30
3377.000
 70
    32
  0
VERTEX
  8
1850LEVEL
 62
5
 10
1788.226
 20
-3178.435
 30
3377.000
 70
    32
  0
VERTEX
  8
1850LEVEL
 62
5
 10
1791.332
 20
-3180.982
 30
3377.000
 70
    32
  0
VERTEX
  8
1850LEVEL
 62
5
 10
1794.296
 20
-3187.468
 30
3377.000
 70
    32
  0
VERTEX
  8
1850LEVEL
 62
5
 10
1798.245
 20
-3195.212
 30
3377.000
 70
    32
  0
VERTEX
  8
1850LEVEL
 62
5
 10
1801.545
 20
-3202.999
 30
3377.000
 70
    32
  0
VERTEX
  8
1850LEVEL
 62
5
 10
1803.997
 20
-3207.944
 30
3377.000
 70
    32
  0
VERTEX
  8
1850LEVEL
 62
5
 10
1805.933
 20
-3211.596
 30
3377.000
 70
    32
  0
VERTEX
  8
1850LEVEL
 62
5
 10
1807.108
 20
-3213.704
 30
3377.000
 70
    32
  0
SEQEND
  8
1850LEVEL
  0
POLYLINE
  8
1850LEVEL
 62
5
 66
     1
 70
     9
  0
VERTEX
  8
1850LEVEL
 62
5
 10
1756.424
 20
-2499.649
 30
3377.000
 70
    32
  0
VERTEX
  8
1850LEVEL
 62
5
 10
1762.943
 20
-2511.571
 30
3377.000
 70
    32
  0
VERTEX
  8
1850LEVEL
 62
5
 10
1770.085
 20
-2530.583
 30
3377.000
 70
    32
  0
VERTEX
  8
1850LEVEL
 62
5
 10
1773.209
 20
-2545.551
 30
3377.000
 70
    32
  0
VERTEX
  8
1850LEVEL
 62
5
 10
1778.297
 20
-2564.462
 30
3377.000
 70
    32
  0
VERTEX
  8
1850LEVEL
 62
5
 10
1789.225
 20
-2599.936
 30
3377.000
 70
    32
  0
VERTEX
  8
1850LEVEL
 62
5
 10
1794.098
 20
-2614.674
 30
3377.000
 70
    32
  0
VERTEX
  8
1850LEVEL
 62
5
 10
1802.704
 20
-2630.199
 30
3377.000
 70
    32
  0
VERTEX
  8
1850LEVEL
 62
5
 10
1812.706
 20
-2642.906
 30
3377.000
 70
    32
  0
VERTEX
  8
1850LEVEL
 62
5
 10
1818.463
 20
-2652.355
 30
3377.000
 70
    32
  0
VERTEX
  8
1850LEVEL
 62
5
 10
1827.911
 20
-2670.294
 30
3377.000
 70
    32
  0
VERTEX
  8
1850LEVEL
 62
5
 10
1832.681
 20
-2681.519
 30
3377.000
 70
    32
  0
VERTEX
  8
1850LEVEL
 62
5
 10
1834.518
 20
-2686.048
 30
3377.000
 70
    32
  0
VERTEX
  8
1850LEVEL
 62
5
 10
1836.781
 20
-2694.782
 30
3377.000
 70
    32
  0
VERTEX
  8
1850LEVEL
 62
5
 10
1837.696
 20
-2701.596
 30
3377.000
 70
    32
  0
VERTEX
  8
1850LEVEL
 62
5
 10
1839.041
 20
-2708.405
 30
3377.000
 70
    32
  0
VERTEX
  8
1850LEVEL
 62
5
 10
1840.941
 20
-2717.404
 30
3377.000
 70
    32
  0
VERTEX
  8
1850LEVEL
 62
5
 10
1844.059
 20
-2727.304
 30
3377.000
 70
    32
  0
VERTEX
  8
1850LEVEL
 62
5
 10
1847.003
 20
-2737.642
 30
3377.000
 70
    32
  0
VERTEX
  8
1850LEVEL
 62
5
 10
1849.259
 20
-2744.091
 30
3377.000
 70
    32
  0
VERTEX
  8
1850LEVEL
 62
5
 10
1849.651
 20
-2746.649
 30
3377.000
 70
    32
  0
VERTEX
  8
1850LEVEL
 62
5
 10
1849.102
 20
-2749.527
 30
3377.000
 70
    32
  0
VERTEX
  8
1850LEVEL
 62
5
 10
1849.374
 20
-2754.029
 30
3377.000
 70
    32
  0
VERTEX
  8
1850LEVEL
 62
5
 10
1850.482
 20
-2757.732
 30
3377.000
 70
    32
  0
VERTEX
  8
1850LEVEL
 62
5
 10
1851.974
 20
-2762.886
 30
3377.000
 70
    32
  0
VERTEX
  8
1850LEVEL
 62
5
 10
1852.151
 20
-2764.983
 30
3377.000
 70
    32
  0
VERTEX
  8
1850LEVEL
 62
5
 10
1850.264
 20
-2767.049
 30
3377.000
 70
    32
  0
VERTEX
  8
1850LEVEL
 62
5
 10
1848.867
 20
-2768.012
 30
3377.000
 70
    32
  0
VERTEX
  8
1850LEVEL
 62
5
 10
1847.706
 20
-2770.224
 30
3377.000
 70
    32
  0
VERTEX
  8
1850LEVEL
 62
5
 10
1848.329
 20
-2777.314
 30
3377.000
 70
    32
  0
VERTEX
  8
1850LEVEL
 62
5
 10
1850.396
 20
-2787.553
 30
3377.000
 70
    32
  0
VERTEX
  8
1850LEVEL
 62
5
 10
1853.267
 20
-2797.201
 30
3377.000
 70
    32
  0
VERTEX
  8
1850LEVEL
 62
5
 10
1857.233
 20
-2812.727
 30
3377.000
 70
    32
  0
VERTEX
  8
1850LEVEL
 62
5
 10
1861.701
 20
-2828.937
 30
3377.000
 70
    32
  0
VERTEX
  8
1850LEVEL
 62
5
 10
1866.507
 20
-2845.271
 30
3377.000
 70
    32
  0
VERTEX
  8
1850LEVEL
 62
5
 10
1871.619
 20
-2861.937
 30
3377.000
 70
    32
  0
VERTEX
  8
1850LEVEL
 62
5
 10
1878.042
 20
-2878.197
 30
3377.000
 70
    32
  0
VERTEX
  8
1850LEVEL
 62
5
 10
1881.146
 20
-2887.489
 30
3377.000
 70
    32
  0
VERTEX
  8
1850LEVEL
 62
5
 10
1885.106
 20
-2899.803
 30
3377.000
 70
    32
  0
VERTEX
  8
1850LEVEL
 62
5
 10
1891.105
 20
-2912.786
 30
3377.000
 70
    32
  0
VERTEX
  8
1850LEVEL
 62
5
 10
1897.122
 20
-2922.169
 30
3377.000
 70
    32
  0
VERTEX
  8
1850LEVEL
 62
5
 10
1901.218
 20
-2929.186
 30
3377.000
 70
    32
  0
VERTEX
  8
1850LEVEL
 62
5
 10
1903.072
 20
-2933.146
 30
3377.000
 70
    32
  0
VERTEX
  8
1850LEVEL
 62
5
 10
1903.402
 20
-2936.801
 30
3377.000
 70
    32
  0
VERTEX
  8
1850LEVEL
 62
5
 10
1903.078
 20
-2940.998
 30
3377.000
 70
    32
  0
VERTEX
  8
1850LEVEL
 62
5
 10
1905.512
 20
-2946.761
 30
3377.000
 70
    32
  0
VERTEX
  8
1850LEVEL
 62
5
 10
1907.921
 20
-2951.984
 30
3377.000
 70
    32
  0
VERTEX
  8
1850LEVEL
 62
5
 10
1908.308
 20
-2956.897
 30
3377.000
 70
    32
  0
VERTEX
  8
1850LEVEL
 62
5
 10
1910.159
 20
-2963.891
 30
3377.000
 70
    32
  0
VERTEX
  8
1850LEVEL
 62
5
 10
1916.085
 20
-2973.402
 30
3377.000
 70
    32
  0
VERTEX
  8
1850LEVEL
 62
5
 10
1923.051
 20
-2983.572
 30
3377.000
 70
    32
  0
VERTEX
  8
1850LEVEL
 62
5
 10
1929.864
 20
-2994.040
 30
3377.000
 70
    32
  0
VERTEX
  8
1850LEVEL
 62
5
 10
1936.327
 20
-3006.560
 30
3377.000
 70
    32
  0
VERTEX
  8
1850LEVEL
 62
5
 10
1947.215
 20
-3022.329
 30
3377.000
 70
    32
  0
VERTEX
  8
1850LEVEL
 62
5
 10
1954.538
 20
-3034.589
 30
3377.000
 70
    32
  0
VERTEX
  8
1850LEVEL
 62
5
 10
1962.387
 20
-3047.143
 30
3377.000
 70
    32
  0
VERTEX
  8
1850LEVEL
 62
5
 10
1967.679
 20
-3056.128
 30
3377.000
 70
    32
  0
VERTEX
  8
1850LEVEL
 62
5
 10
1972.441
 20
-3064.390
 30
3377.000
 70
    32
  0
VERTEX
  8
1850LEVEL
 62
5
 10
1976.585
 20
-3069.701
 30
3377.000
 70
    32
  0
VERTEX
  8
1850LEVEL
 62
5
 10
1981.518
 20
-3076.847
 30
3377.000
 70
    32
  0
VERTEX
  8
1850LEVEL
 62
5
 10
1987.054
 20
-3084.478
 30
3377.000
 70
    32
  0
VERTEX
  8
1850LEVEL
 62
5
 10
1992.306
 20
-3090.710
 30
3377.000
 70
    32
  0
VERTEX
  8
1850LEVEL
 62
5
 10
1994.728
 20
-3093.758
 30
3377.000
 70
    32
  0
VERTEX
  8
1850LEVEL
 62
5
 10
1996.738
 20
-3098.100
 30
3377.000
 70
    32
  0
VERTEX
  8
1850LEVEL
 62
5
 10
1998.608
 20
-3102.420
 30
3377.000
 70
    32
  0
VERTEX
  8
1850LEVEL
 62
5
 10
1999.684
 20
-3107.260
 30
3377.000
 70
    32
  0
VERTEX
  8
1850LEVEL
 62
5
 10
1998.697
 20
-3109.963
 30
3377.000
 70
    32
  0
VERTEX
  8
1850LEVEL
 62
5
 10
1997.094
 20
-3112.500
 30
3377.000
 70
    32
  0
VERTEX
  8
1850LEVEL
 62
5
 10
1996.405
 20
-3114.429
 30
3377.000
 70
    32
  0
VERTEX
  8
1850LEVEL
 62
5
 10
1995.950
 20
-3119.712
 30
3377.000
 70
    32
  0
VERTEX
  8
1850LEVEL
 62
5
 10
1998.760
 20
-3130.457
 30
3377.000
 70
    32
  0
VERTEX
  8
1850LEVEL
 62
5
 10
2000.102
 20
-3136.587
 30
3377.000
 70
    32
  0
VERTEX
  8
1850LEVEL
 62
5
 10
2003.319
 20
-3146.538
 30
3377.000
 70
    32
  0
VERTEX
  8
1850LEVEL
 62
5
 10
2006.627
 20
-3156.361
 30
3377.000
 70
    32
  0
VERTEX
  8
1850LEVEL
 62
5
 10
2008.994
 20
-3164.647
 30
3377.000
 70
    32
  0
VERTEX
  8
1850LEVEL
 62
5
 10
2011.646
 20
-3176.188
 30
3377.000
 70
    32
  0
VERTEX
  8
1850LEVEL
 62
5
 10
2012.573
 20
-3186.644
 30
3377.000
 70
    32
  0
VERTEX
  8
1850LEVEL
 62
5
 10
2014.717
 20
-3198.001
 30
3377.000
 70
    32
  0
VERTEX
  8
1850LEVEL
 62
5
 10
2014.880
 20
-3209.017
 30
3377.000
 70
    32
  0
VERTEX
  8
1850LEVEL
 62
5
 10
2015.421
 20
-3218.271
 30
3377.000
 70
    32
  0
VERTEX
  8
1850LEVEL
 62
5
 10
2016.640
 20
-3226.595
 30
3377.000
 70
    32
  0
VERTEX
  8
1850LEVEL
 62
5
 10
2017.621
 20
-3237.630
 30
3377.000
 70
    32
  0
VERTEX
  8
1850LEVEL
 62
5
 10
2017.593
 20
-3249.652
 30
3377.000
 70
    32
  0
VERTEX
  8
1850LEVEL
 62
5
 10
2017.807
 20
-3260.569
 30
3377.000
 70
    32
  0
VERTEX
  8
1850LEVEL
 62
5
 10
2018.101
 20
-3271.428
 30
3377.000
 70
    32
  0
VERTEX
  8
1850LEVEL
 62
5
 10
2017.341
 20
-3281.017
 30
3377.000
 70
    32
  0
VERTEX
  8
1850LEVEL
 62
5
 10
2017.656
 20
-3288.953
 30
3377.000
 70
    32
  0
VERTEX
  8
1850LEVEL
 62
5
 10
2017.953
 20
-3295.850
 30
3377.000
 70
    32
  0
VERTEX
  8
1850LEVEL
 62
5
 10
2018.198
 20
-3301.918
 30
3377.000
 70
    32
  0
VERTEX
  8
1850LEVEL
 62
5
 10
2018.295
 20
-3305.930
 30
3377.000
 70
    32
  0
VERTEX
  8
1850LEVEL
 62
5
 10
2019.855
 20
-3300.888
 30
3377.000
 70
    32
  0
VERTEX
  8
1850LEVEL
 62
5
 10
2021.899
 20
-3290.604
 30
3377.000
 70
    32
  0
VERTEX
  8
1850LEVEL
 62
5
 10
2023.191
 20
-3284.521
 30
3377.000
 70
    32
  0
VERTEX
  8
1850LEVEL
 62
5
 10
2025.622
 20
-3279.150
 30
3377.000
 70
    32
  0
VERTEX
  8
1850LEVEL
 62
5
 10
2029.317
 20
-3277.862
 30
3377.000
 70
    32
  0
VERTEX
  8
1850LEVEL
 62
5
 10
2033.356
 20
-3280.838
 30
3377.000
 70
    32
  0
VERTEX
  8
1850LEVEL
 62
5
 10
2035.669
 20
-3284.833
 30
3377.000
 70
    32
  0
VERTEX
  8
1850LEVEL
 62
5
 10
2034.552
 20
-3292.334
 30
3377.000
 70
    32
  0
VERTEX
  8
1850LEVEL
 62
5
 10
2031.823
 20
-3298.481
 30
3377.000
 70
    32
  0
VERTEX
  8
1850LEVEL
 62
5
 10
2029.877
 20
-3305.105
 30
3377.000
 70
    32
  0
VERTEX
  8
1850LEVEL
 62
5
 10
2029.508
 20
-3312.614
 30
3377.000
 70
    32
  0
VERTEX
  8
1850LEVEL
 62
5
 10
2028.971
 20
-3319.133
 30
3377.000
 70
    32
  0
VERTEX
  8
1850LEVEL
 62
5
 10
2027.418
 20
-3322.499
 30
3377.000
 70
    32
  0
VERTEX
  8
1850LEVEL
 62
5
 10
2024.431
 20
-3321.968
 30
3377.000
 70
    32
  0
VERTEX
  8
1850LEVEL
 62
5
 10
2022.245
 20
-3319.242
 30
3377.000
 70
    32
  0
VERTEX
  8
1850LEVEL
 62
5
 10
2021.837
 20
-3316.324
 30
3377.000
 70
    32
  0
VERTEX
  8
1850LEVEL
 62
5
 10
2021.233
 20
-3314.911
 30
3377.000
 70
    32
  0
VERTEX
  8
1850LEVEL
 62
5
 10
2019.413
 20
-3317.236
 30
3377.000
 70
    32
  0
VERTEX
  8
1850LEVEL
 62
5
 10
2019.630
 20
-3320.232
 30
3377.000
 70
    32
  0
VERTEX
  8
1850LEVEL
 62
5
 10
2020.108
 20
-3322.232
 30
3377.000
 70
    32
  0
VERTEX
  8
1850LEVEL
 62
5
 10
2021.181
 20
-3324.538
 30
3377.000
 70
    32
  0
VERTEX
  8
1850LEVEL
 62
5
 10
2025.556
 20
-3328.815
 30
3377.000
 70
    32
  0
VERTEX
  8
1850LEVEL
 62
5
 10
2028.195
 20
-3332.075
 30
3377.000
 70
    32
  0
VERTEX
  8
1850LEVEL
 62
5
 10
2031.653
 20
-3339.994
 30
3377.000
 70
    32
  0
VERTEX
  8
1850LEVEL
 62
5
 10
2037.408
 20
-3355.259
 30
3377.000
 70
    32
  0
VERTEX
  8
1850LEVEL
 62
5
 10
2041.849
 20
-3367.468
 30
3377.000
 70
    32
  0
VERTEX
  8
1850LEVEL
 62
5
 10
2045.967
 20
-3378.986
 30
3377.000
 70
    32
  0
VERTEX
  8
1850LEVEL
 62
5
 10
2049.313
 20
-3388.100
 30
3377.000
 70
    32
  0
VERTEX
  8
1850LEVEL
 62
5
 10
2051.231
 20
-3394.426
 30
3377.000
 70
    32
  0
VERTEX
  8
1850LEVEL
 62
5
 10
2052.650
 20
-3395.179
 30
3377.000
 70
    32
  0
VERTEX
  8
1850LEVEL
 62
5
 10
2056.069
 20
-3393.599
 30
3377.000
 70
    32
  0
VERTEX
  8
1850LEVEL
 62
5
 10
2059.799
 20
-3392.780
 30
3377.000
 70
    32
  0
VERTEX
  8
1850LEVEL
 62
5
 10
2062.475
 20
-3392.549
 30
3377.000
 70
    32
  0
VERTEX
  8
1850LEVEL
 62
5
 10
2064.817
 20
-3395.657
 30
3377.000
 70
    32
  0
VERTEX
  8
1850LEVEL
 62
5
 10
2066.426
 20
-3398.188
 30
3377.000
 70
    32
  0
VERTEX
  8
1850LEVEL
 62
5
 10
2068.969
 20
-3400.221
 30
3377.000
 70
    32
  0
VERTEX
  8
1850LEVEL
 62
5
 10
2070.458
 20
-3404.696
 30
3377.000
 70
    32
  0
VERTEX
  8
1850LEVEL
 62
5
 10
2072.797
 20
-3408.053
 30
3377.000
 70
    32
  0
VERTEX
  8
1850LEVEL
 62
5
 10
2074.769
 20
-3411.247
 30
3377.000
 70
    32
  0
VERTEX
  8
1850LEVEL
 62
5
 10
2064.747
 20
-3423.981
 30
3377.000
 70
    32
  0
VERTEX
  8
1850LEVEL
 62
5
 10
2061.230
 20
-3416.910
 30
3377.000
 70
    32
  0
VERTEX
  8
1850LEVEL
 62
5
 10
2058.711
 20
-3413.561
 30
3377.000
 70
    32
  0
VERTEX
  8
1850LEVEL
 62
5
 10
2056.836
 20
-3410.668
 30
3377.000
 70
    32
  0
VERTEX
  8
1850LEVEL
 62
5
 10
2055.766
 20
-3409.040
 30
3377.000
 70
    32
  0
VERTEX
  8
1850LEVEL
 62
5
 10
2055.363
 20
-3406.552
 30
3377.000
 70
    32
  0
VERTEX
  8
1850LEVEL
 62
5
 10
2055.492
 20
-3404.787
 30
3377.000
 70
    32
  0
VERTEX
  8
1850LEVEL
 62
5
 10
2055.032
 20
-3401.041
 30
3377.000
 70
    32
  0
VERTEX
  8
1850LEVEL
 62
5
 10
2054.474
 20
-3400.027
 30
3377.000
 70
    32
  0
VERTEX
  8
1850LEVEL
 62
5
 10
2049.033
 20
-3400.369
 30
3377.000
 70
    32
  0
VERTEX
  8
1850LEVEL
 62
5
 10
2046.239
 20
-3401.367
 30
3377.000
 70
    32
  0
VERTEX
  8
1850LEVEL
 62
5
 10
2042.880
 20
-3404.883
 30
3377.000
 70
    32
  0
VERTEX
  8
1850LEVEL
 62
5
 10
2041.764
 20
-3406.568
 30
3377.000
 70
    32
  0
VERTEX
  8
1850LEVEL
 62
5
 10
2040.187
 20
-3406.611
 30
3377.000
 70
    32
  0
VERTEX
  8
1850LEVEL
 62
5
 10
2036.786
 20
-3400.878
 30
3377.000
 70
    32
  0
VERTEX
  8
1850LEVEL
 62
5
 10
2000.161
 20
-3391.979
 30
3377.000
 70
    32
  0
VERTEX
  8
1850LEVEL
 62
5
 10
1976.703
 20
-3373.071
 30
3377.000
 70
    32
  0
VERTEX
  8
1850LEVEL
 62
5
 10
1966.109
 20
-3356.432
 30
3377.000
 70
    32
  0
VERTEX
  8
1850LEVEL
 62
5
 10
1962.326
 20
-3344.331
 30
3377.000
 70
    32
  0
VERTEX
  8
1850LEVEL
 62
5
 10
1954.759
 20
-3320.885
 30
3377.000
 70
    32
  0
VERTEX
  8
1850LEVEL
 62
5
 10
1945.678
 20
-3292.145
 30
3377.000
 70
    32
  0
VERTEX
  8
1850LEVEL
 62
5
 10
1941.895
 20
-3273.993
 30
3377.000
 70
    32
  0
VERTEX
  8
1850LEVEL
 62
5
 10
1937.354
 20
-3249.791
 30
3377.000
 70
    32
  0
VERTEX
  8
1850LEVEL
 62
5
 10
1935.255
 20
-3236.250
 30
3377.000
 70
    32
  0
VERTEX
  8
1850LEVEL
 62
5
 10
1930.846
 20
-3222.904
 30
3377.000
 70
    32
  0
VERTEX
  8
1850LEVEL
 62
5
 10
1926.466
 20
-3204.031
 30
3377.000
 70
    32
  0
VERTEX
  8
1850LEVEL
 62
5
 10
1925.814
 20
-3200.612
 30
3377.000
 70
    32
  0
VERTEX
  8
1850LEVEL
 62
5
 10
1926.368
 20
-3196.308
 30
3377.000
 70
    32
  0
VERTEX
  8
1850LEVEL
 62
5
 10
1927.733
 20
-3194.626
 30
3377.000
 70
    32
  0
VERTEX
  8
1850LEVEL
 62
5
 10
1932.278
 20
-3193.148
 30
3377.000
 70
    32
  0
VERTEX
  8
1850LEVEL
 62
5
 10
1935.566
 20
-3190.798
 30
3377.000
 70
    32
  0
VERTEX
  8
1850LEVEL
 62
5
 10
1937.008
 20
-3186.523
 30
3377.000
 70
    32
  0
VERTEX
  8
1850LEVEL
 62
5
 10
1939.545
 20
-3186.271
 30
3377.000
 70
    32
  0
VERTEX
  8
1850LEVEL
 62
5
 10
1941.429
 20
-3184.455
 30
3377.000
 70
    32
  0
VERTEX
  8
1850LEVEL
 62
5
 10
1940.313
 20
-3176.861
 30
3377.000
 70
    32
  0
VERTEX
  8
1850LEVEL
 62
5
 10
1937.039
 20
-3167.507
 30
3377.000
 70
    32
  0
VERTEX
  8
1850LEVEL
 62
5
 10
1934.281
 20
-3161.302
 30
3377.000
 70
    32
  0
VERTEX
  8
1850LEVEL
 62
5
 10
1932.781
 20
-3155.041
 30
3377.000
 70
    32
  0
VERTEX
  8
1850LEVEL
 62
5
 10
1932.161
 20
-3152.341
 30
3377.000
 70
    32
  0
VERTEX
  8
1850LEVEL
 62
5
 10
1933.231
 20
-3151.185
 30
3377.000
 70
    32
  0
VERTEX
  8
1850LEVEL
 62
5
 10
1933.893
 20
-3146.183
 30
3377.000
 70
    32
  0
VERTEX
  8
1850LEVEL
 62
5
 10
1933.280
 20
-3142.734
 30
3377.000
 70
    32
  0
VERTEX
  8
1850LEVEL
 62
5
 10
1934.141
 20
-3141.546
 30
3377.000
 70
    32
  0
VERTEX
  8
1850LEVEL
 62
5
 10
1936.854
 20
-3137.824
 30
3377.000
 70
    32
  0
VERTEX
  8
1850LEVEL
 62
5
 10
1936.049
 20
-3132.847
 30
3377.000
 70
    32
  0
VERTEX
  8
1850LEVEL
 62
5
 10
1933.504
 20
-3120.608
 30
3377.000
 70
    32
  0
VERTEX
  8
1850LEVEL
 62
5
 10
1928.873
 20
-3105.693
 30
3377.000
 70
    32
  0
VERTEX
  8
1850LEVEL
 62
5
 10
1927.024
 20
-3097.522
 30
3377.000
 70
    32
  0
VERTEX
  8
1850LEVEL
 62
5
 10
1928.678
 20
-3094.886
 30
3377.000
 70
    32
  0
VERTEX
  8
1850LEVEL
 62
5
 10
1932.339
 20
-3094.056
 30
3377.000
 70
    32
  0
VERTEX
  8
1850LEVEL
 62
5
 10
1936.297
 20
-3097.091
 30
3377.000
 70
    32
  0
VERTEX
  8
1850LEVEL
 62
5
 10
1938.711
 20
-3099.033
 30
3377.000
 70
    32
  0
VERTEX
  8
1850LEVEL
 62
5
 10
1936.120
 20
-3094.067
 30
3377.000
 70
    32
  0
VERTEX
  8
1850LEVEL
 62
5
 10
1929.304
 20
-3083.848
 30
3377.000
 70
    32
  0
VERTEX
  8
1850LEVEL
 62
5
 10
1925.098
 20
-3079.633
 30
3377.000
 70
    32
  0
VERTEX
  8
1850LEVEL
 62
5
 10
1922.333
 20
-3076.032
 30
3377.000
 70
    32
  0
VERTEX
  8
1850LEVEL
 62
5
 10
1918.564
 20
-3069.208
 30
3377.000
 70
    32
  0
VERTEX
  8
1850LEVEL
 62
5
 10
1915.495
 20
-3065.025
 30
3377.000
 70
    32
  0
VERTEX
  8
1850LEVEL
 62
5
 10
1913.625
 20
-3061.633
 30
3377.000
 70
    32
  0
VERTEX
  8
1850LEVEL
 62
5
 10
1912.640
 20
-3057.592
 30
3377.000
 70
    32
  0
VERTEX
  8
1850LEVEL
 62
5
 10
1913.335
 20
-3056.092
 30
3377.000
 70
    32
  0
VERTEX
  8
1850LEVEL
 62
5
 10
1915.676
 20
-3055.489
 30
3377.000
 70
    32
  0
VERTEX
  8
1850LEVEL
 62
5
 10
1916.220
 20
-3054.966
 30
3377.000
 70
    32
  0
VERTEX
  8
1850LEVEL
 62
5
 10
1910.493
 20
-3046.484
 30
3377.000
 70
    32
  0
VERTEX
  8
1850LEVEL
 62
5
 10
1901.529
 20
-3035.614
 30
3377.000
 70
    32
  0
VERTEX
  8
1850LEVEL
 62
5
 10
1891.108
 20
-3023.771
 30
3377.000
 70
    32
  0
VERTEX
  8
1850LEVEL
 62
5
 10
1879.441
 20
-3010.059
 30
3377.000
 70
    32
  0
VERTEX
  8
1850LEVEL
 62
5
 10
1872.676
 20
-3000.669
 30
3377.000
 70
    32
  0
VERTEX
  8
1850LEVEL
 62
5
 10
1871.327
 20
-2998.998
 30
3377.000
 70
    32
  0
VERTEX
  8
1850LEVEL
 62
5
 10
1871.601
 20
-3001.396
 30
3377.000
 70
    32
  0
VERTEX
  8
1850LEVEL
 62
5
 10
1870.847
 20
-3002.815
 30
3377.000
 70
    32
  0
VERTEX
  8
1850LEVEL
 62
5
 10
1868.152
 20
-3002.008
 30
3377.000
 70
    32
  0
VERTEX
  8
1850LEVEL
 62
5
 10
1864.421
 20
-2998.187
 30
3377.000
 70
    32
  0
VERTEX
  8
1850LEVEL
 62
5
 10
1859.781
 20
-2991.693
 30
3377.000
 70
    32
  0
VERTEX
  8
1850LEVEL
 62
5
 10
1858.737
 20
-2987.571
 30
3377.000
 70
    32
  0
VERTEX
  8
1850LEVEL
 62
5
 10
1856.218
 20
-2983.294
 30
3377.000
 70
    32
  0
VERTEX
  8
1850LEVEL
 62
5
 10
1853.957
 20
-2981.056
 30
3377.000
 70
    32
  0
VERTEX
  8
1850LEVEL
 62
5
 10
1852.463
 20
-2978.935
 30
3377.000
 70
    32
  0
VERTEX
  8
1850LEVEL
 62
5
 10
1848.761
 20
-2974.226
 30
3377.000
 70
    32
  0
VERTEX
  8
1850LEVEL
 62
5
 10
1845.378
 20
-2968.603
 30
3377.000
 70
    32
  0
VERTEX
  8
1850LEVEL
 62
5
 10
1840.792
 20
-2962.688
 30
3377.000
 70
    32
  0
VERTEX
  8
1850LEVEL
 62
5
 10
1838.804
 20
-2959.135
 30
3377.000
 70
    32
  0
VERTEX
  8
1850LEVEL
 62
5
 10
1835.936
 20
-2953.877
 30
3377.000
 70
    32
  0
VERTEX
  8
1850LEVEL
 62
5
 10
1833.704
 20
-2949.823
 30
3377.000
 70
    32
  0
VERTEX
  8
1850LEVEL
 62
5
 10
1833.932
 20
-2949.037
 30
3377.000
 70
    32
  0
VERTEX
  8
1850LEVEL
 62
5
 10
1835.128
 20
-2948.221
 30
3377.000
 70
    32
  0
VERTEX
  8
1850LEVEL
 62
5
 10
1836.563
 20
-2948.406
 30
3377.000
 70
    32
  0
VERTEX
  8
1850LEVEL
 62
5
 10
1839.059
 20
-2948.183
 30
3377.000
 70
    32
  0
VERTEX
  8
1850LEVEL
 62
5
 10
1839.373
 20
-2946.840
 30
3377.000
 70
    32
  0
VERTEX
  8
1850LEVEL
 62
5
 10
1830.724
 20
-2930.665
 30
3377.000
 70
    32
  0
VERTEX
  8
1850LEVEL
 62
5
 10
1828.750
 20
-2927.721
 30
3377.000
 70
    32
  0
VERTEX
  8
1850LEVEL
 62
5
 10
1827.451
 20
-2923.168
 30
3377.000
 70
    32
  0
VERTEX
  8
1850LEVEL
 62
5
 10
1827.129
 20
-2920.620
 30
3377.000
 70
    32
  0
VERTEX
  8
1850LEVEL
 62
5
 10
1824.686
 20
-2918.639
 30
3377.000
 70
    32
  0
VERTEX
  8
1850LEVEL
 62
5
 10
1823.087
 20
-2916.966
 30
3377.000
 70
    32
  0
VERTEX
  8
1850LEVEL
 62
5
 10
1820.555
 20
-2913.936
 30
3377.000
 70
    32
  0
VERTEX
  8
1850LEVEL
 62
5
 10
1818.141
 20
-2910.139
 30
3377.000
 70
    32
  0
VERTEX
  8
1850LEVEL
 62
5
 10
1817.317
 20
-2905.052
 30
3377.000
 70
    32
  0
VERTEX
  8
1850LEVEL
 62
5
 10
1817.128
 20
-2900.241
 30
3377.000
 70
    32
  0
VERTEX
  8
1850LEVEL
 62
5
 10
1816.145
 20
-2894.095
 30
3377.000
 70
    32
  0
VERTEX
  8
1850LEVEL
 62
5
 10
1815.168
 20
-2889.305
 30
3377.000
 70
    32
  0
VERTEX
  8
1850LEVEL
 62
5
 10
1812.553
 20
-2883.800
 30
3377.000
 70
    32
  0
VERTEX
  8
1850LEVEL
 62
5
 10
1812.217
 20
-2881.572
 30
3377.000
 70
    32
  0
VERTEX
  8
1850LEVEL
 62
5
 10
1812.726
 20
-2879.652
 30
3377.000
 70
    32
  0
VERTEX
  8
1850LEVEL
 62
5
 10
1814.271
 20
-2879.818
 30
3377.000
 70
    32
  0
VERTEX
  8
1850LEVEL
 62
5
 10
1816.242
 20
-2881.156
 30
3377.000
 70
    32
  0
VERTEX
  8
1850LEVEL
 62
5
 10
1818.128
 20
-2882.123
 30
3377.000
 70
    32
  0
VERTEX
  8
1850LEVEL
 62
5
 10
1816.877
 20
-2877.720
 30
3377.000
 70
    32
  0
VERTEX
  8
1850LEVEL
 62
5
 10
1812.955
 20
-2865.626
 30
3377.000
 70
    32
  0
VERTEX
  8
1850LEVEL
 62
5
 10
1809.117
 20
-2852.975
 30
3377.000
 70
    32
  0
VERTEX
  8
1850LEVEL
 62
5
 10
1808.781
 20
-2844.251
 30
3377.000
 70
    32
  0
VERTEX
  8
1850LEVEL
 62
5
 10
1810.091
 20
-2839.207
 30
3377.000
 70
    32
  0
VERTEX
  8
1850LEVEL
 62
5
 10
1815.606
 20
-2832.810
 30
3377.000
 70
    32
  0
VERTEX
  8
1850LEVEL
 62
5
 10
1821.820
 20
-2832.087
 30
3377.000
 70
    32
  0
VERTEX
  8
1850LEVEL
 62
5
 10
1827.157
 20
-2834.977
 30
3377.000
 70
    32
  0
VERTEX
  8
1850LEVEL
 62
5
 10
1829.984
 20
-2837.482
 30
3377.000
 70
    32
  0
VERTEX
  8
1850LEVEL
 62
5
 10
1831.614
 20
-2838.946
 30
3377.000
 70
    32
  0
VERTEX
  8
1850LEVEL
 62
5
 10
1828.840
 20
-2830.525
 30
3377.000
 70
    32
  0
VERTEX
  8
1850LEVEL
 62
5
 10
1825.513
 20
-2821.521
 30
3377.000
 70
    32
  0
VERTEX
  8
1850LEVEL
 62
5
 10
1822.229
 20
-2811.310
 30
3377.000
 70
    32
  0
VERTEX
  8
1850LEVEL
 62
5
 10
1821.788
 20
-2804.890
 30
3377.000
 70
    32
  0
VERTEX
  8
1850LEVEL
 62
5
 10
1823.828
 20
-2800.671
 30
3377.000
 70
    32
  0
VERTEX
  8
1850LEVEL
 62
5
 10
1825.989
 20
-2800.075
 30
3377.000
 70
    32
  0
VERTEX
  8
1850LEVEL
 62
5
 10
1829.017
 20
-2802.432
 30
3377.000
 70
    32
  0
VERTEX
  8
1850LEVEL
 62
5
 10
1830.694
 20
-2804.295
 30
3377.000
 70
    32
  0
VERTEX
  8
1850LEVEL
 62
5
 10
1832.150
 20
-2805.269
 30
3377.000
 70
    32
  0
VERTEX
  8
1850LEVEL
 62
5
 10
1829.674
 20
-2799.785
 30
3377.000
 70
    32
  0
VERTEX
  8
1850LEVEL
 62
5
 10
1825.355
 20
-2790.271
 30
3377.000
 70
    32
  0
VERTEX
  8
1850LEVEL
 62
5
 10
1823.624
 20
-2785.973
 30
3377.000
 70
    32
  0
VERTEX
  8
1850LEVEL
 62
5
 10
1822.527
 20
-2784.055
 30
3377.000
 70
    32
  0
VERTEX
  8
1850LEVEL
 62
5
 10
1818.408
 20
-2782.066
 30
3377.000
 70
    32
  0
VERTEX
  8
1850LEVEL
 62
5
 10
1816.484
 20
-2779.023
 30
3377.000
 70
    32
  0
VERTEX
  8
1850LEVEL
 62
5
 10
1815.406
 20
-2775.360
 30
3377.000
 70
    32
  0
VERTEX
  8
1850LEVEL
 62
5
 10
1816.290
 20
-2771.927
 30
3377.000
 70
    32
  0
VERTEX
  8
1850LEVEL
 62
5
 10
1815.198
 20
-2766.728
 30
3377.000
 70
    32
  0
VERTEX
  8
1850LEVEL
 62
5
 10
1812.338
 20
-2758.865
 30
3377.000
 70
    32
  0
VERTEX
  8
1850LEVEL
 62
5
 10
1810.633
 20
-2751.145
 30
3377.000
 70
    32
  0
VERTEX
  8
1850LEVEL
 62
5
 10
1810.061
 20
-2746.739
 30
3377.000
 70
    32
  0
VERTEX
  8
1850LEVEL
 62
5
 10
1811.276
 20
-2746.034
 30
3377.000
 70
    32
  0
VERTEX
  8
1850LEVEL
 62
5
 10
1813.620
 20
-2747.964
 30
3377.000
 70
    32
  0
VERTEX
  8
1850LEVEL
 62
5
 10
1815.136
 20
-2749.018
 30
3377.000
 70
    32
  0
VERTEX
  8
1850LEVEL
 62
5
 10
1815.709
 20
-2745.751
 30
3377.000
 70
    32
  0
VERTEX
  8
1850LEVEL
 62
5
 10
1813.353
 20
-2735.540
 30
3377.000
 70
    32
  0
VERTEX
  8
1850LEVEL
 62
5
 10
1809.824
 20
-2724.827
 30
3377.000
 70
    32
  0
VERTEX
  8
1850LEVEL
 62
5
 10
1803.656
 20
-2708.998
 30
3377.000
 70
    32
  0
VERTEX
  8
1850LEVEL
 62
5
 10
1797.563
 20
-2692.681
 30
3377.000
 70
    32
  0
VERTEX
  8
1850LEVEL
 62
5
 10
1785.014
 20
-2670.768
 30
3377.000
 70
    32
  0
VERTEX
  8
1850LEVEL
 62
5
 10
1779.815
 20
-2657.693
 30
3377.000
 70
    32
  0
VERTEX
  8
1850LEVEL
 62
5
 10
1774.174
 20
-2638.198
 30
3377.000
 70
    32
  0
VERTEX
  8
1850LEVEL
 62
5
 10
1765.230
 20
-2616.982
 30
3377.000
 70
    32
  0
VERTEX
  8
1850LEVEL
 62
5
 10
1761.367
 20
-2592.657
 30
3377.000
 70
    32
  0
VERTEX
  8
1850LEVEL
 62
5
 10
1761.355
 20
-2572.065
 30
3377.000
 70
    32
  0
VERTEX
  8
1850LEVEL
 62
5
 10
1760.528
 20
-2552.132
 30
3377.000
 70
    32
  0
VERTEX
  8
1850LEVEL
 62
5
 10
1759.555
 20
-2538.493
 30
3377.000
 70
    32
  0
VERTEX
  8
1850LEVEL
 62
5
 10
1757.148
 20
-2528.380
 30
3377.000
 70
    32
  0
VERTEX
  8
1850LEVEL
 62
5
 10
1753.531
 20
-2519.403
 30
3377.000
 70
    32
  0
VERTEX
  8
1850LEVEL
 62
5
 10
1748.930
 20
-2509.168
 30
3377.000
 70
    32
  0
VERTEX
  8
1850LEVEL
 62
5
 10
1744.952
 20
-2500.455
 30
3377.000
 70
    32
  0
SEQEND
  8
1850LEVEL
  0
POLYLINE
  8
1850LEVEL
 62
13
 66
     1
 70
     8
  0
VERTEX
  8
1850LEVEL
 62
13
 10
1548.200
 20
-3042.765
 30
3377.000
 70
    32
  0
VERTEX
  8
1850LEVEL
 62
13
 10
1541.385
 20
-3038.620
 30
3377.000
 70
    32
  0
VERTEX
  8
1850LEVEL
 62
13
 10
1535.270
 20
-3033.826
 30
3377.000
 70
    32
  0
VERTEX
  8
1850LEVEL
 62
13
 10
1531.011
 20
-3029.032
 30
3377.000
 70
    32
  0
VERTEX
  8
1850LEVEL
 62
13
 10
1525.837
 20
-3022.063
 30
3377.000
 70
    32
  0
VERTEX
  8
1850LEVEL
 62
13
 10
1520.748
 20
-3014.536
 30
3377.000
 70
    32
  0
VERTEX
  8
1850LEVEL
 62
13
 10
1513.144
 20
-3005.267
 30
3377.000
 70
    32
  0
VERTEX
  8
1850LEVEL
 62
13
 10
1507.584
 20
-2998.953
 30
3377.000
 70
    32
  0
VERTEX
  8
1850LEVEL
 62
13
 10
1500.065
 20
-2990.054
 30
3377.000
 70
    32
  0
VERTEX
  8
1850LEVEL
 62
13
 10
1492.399
 20
-2980.025
 30
3377.000
 70
    32
  0
VERTEX
  8
1850LEVEL
 62
13
 10
1485.548
 20
-2970.265
 30
3377.000
 70
    32
  0
VERTEX
  8
1850LEVEL
 62
13
 10
1476.324
 20
-2957.607
 30
3377.000
 70
    32
  0
VERTEX
  8
1850LEVEL
 62
13
 10
1470.203
 20
-2949.600
 30
3377.000
 70
    32
  0
VERTEX
  8
1850LEVEL
 62
13
 10
1460.120
 20
-2936.024
 30
3377.000
 70
    32
  0
VERTEX
  8
1850LEVEL
 62
13
 10
1455.632
 20
-2929.232
 30
3377.000
 70
    32
  0
VERTEX
  8
1850LEVEL
 62
13
 10
1453.103
 20
-2925.953
 30
3377.000
 70
    32
  0
VERTEX
  8
1850LEVEL
 62
13
 10
1451.024
 20
-2924.385
 30
3377.000
 70
    32
  0
VERTEX
  8
1850LEVEL
 62
13
 10
1450.416
 20
-2927.182
 30
3377.000
 70
    32
  0
VERTEX
  8
1850LEVEL
 62
13
 10
1451.422
 20
-2932.011
 30
3377.000
 70
    32
  0
VERTEX
  8
1850LEVEL
 62
13
 10
1452.383
 20
-2935.514
 30
3377.000
 70
    32
  0
VERTEX
  8
1850LEVEL
 62
13
 10
1452.204
 20
-2937.377
 30
3377.000
 70
    32
  0
VERTEX
  8
1850LEVEL
 62
13
 10
1451.198
 20
-2938.115
 30
3377.000
 70
    32
  0
VERTEX
  8
1850LEVEL
 62
13
 10
1451.220
 20
-2940.759
 30
3377.000
 70
    32
  0
VERTEX
  8
1850LEVEL
 62
13
 10
1451.465
 20
-2944.044
 30
3377.000
 70
    32
  0
VERTEX
  8
1850LEVEL
 62
13
 10
1450.433
 20
-2945.420
 30
3377.000
 70
    32
  0
VERTEX
  8
1850LEVEL
 62
13
 10
1451.211
 20
-2947.324
 30
3377.000
 70
    32
  0
VERTEX
  8
1850LEVEL
 62
13
 10
1453.064
 20
-2952.212
 30
3377.000
 70
    32
  0
VERTEX
  8
1850LEVEL
 62
13
 10
1454.465
 20
-2954.711
 30
3377.000
 70
    32
  0
VERTEX
  8
1850LEVEL
 62
13
 10
1455.259
 20
-2957.903
 30
3377.000
 70
    32
  0
VERTEX
  8
1850LEVEL
 62
13
 10
1451.781
 20
-2957.547
 30
3377.000
 70
    32
  0
VERTEX
  8
1850LEVEL
 62
13
 10
1448.321
 20
-2953.589
 30
3377.000
 70
    32
  0
VERTEX
  8
1850LEVEL
 62
13
 10
1444.882
 20
-2948.564
 30
3377.000
 70
    32
  0
VERTEX
  8
1850LEVEL
 62
13
 10
1443.961
 20
-2944.105
 30
3377.000
 70
    32
  0
VERTEX
  8
1850LEVEL
 62
13
 10
1444.864
 20
-2938.926
 30
3377.000
 70
    32
  0
VERTEX
  8
1850LEVEL
 62
13
 10
1444.560
 20
-2933.705
 30
3377.000
 70
    32
  0
VERTEX
  8
1850LEVEL
 62
13
 10
1441.845
 20
-2927.221
 30
3377.000
 70
    32
  0
VERTEX
  8
1850LEVEL
 62
13
 10
1438.782
 20
-2923.467
 30
3377.000
 70
    32
  0
VERTEX
  8
1850LEVEL
 62
13
 10
1434.928
 20
-2918.129
 30
3377.000
 70
    32
  0
VERTEX
  8
1850LEVEL
 62
13
 10
1430.981
 20
-2910.135
 30
3377.000
 70
    32
  0
VERTEX
  8
1850LEVEL
 62
13
 10
1427.365
 20
-2901.157
 30
3377.000
 70
    32
  0
VERTEX
  8
1850LEVEL
 62
13
 10
1424.370
 20
-2891.847
 30
3377.000
 70
    32
  0
VERTEX
  8
1850LEVEL
 62
13
 10
1423.202
 20
-2883.424
 30
3377.000
 70
    32
  0
VERTEX
  8
1850LEVEL
 62
13
 10
1419.599
 20
-2874.127
 30
3377.000
 70
    32
  0
VERTEX
  8
1850LEVEL
 62
13
 10
1416.149
 20
-2868.244
 30
3377.000
 70
    32
  0
VERTEX
  8
1850LEVEL
 62
13
 10
1412.995
 20
-2863.691
 30
3377.000
 70
    32
  0
VERTEX
  8
1850LEVEL
 62
13
 10
1411.355
 20
-2857.408
 30
3377.000
 70
    32
  0
VERTEX
  8
1850LEVEL
 62
13
 10
1409.999
 20
-2847.886
 30
3377.000
 70
    32
  0
VERTEX
  8
1850LEVEL
 62
13
 10
1406.927
 20
-2838.385
 30
3377.000
 70
    32
  0
VERTEX
  8
1850LEVEL
 62
13
 10
1404.963
 20
-2833.516
 30
3377.000
 70
    32
  0
VERTEX
  8
1850LEVEL
 62
13
 10
1402.581
 20
-2827.654
 30
3377.000
 70
    32
  0
VERTEX
  8
1850LEVEL
 62
13
 10
1401.068
 20
-2824.495
 30
3377.000
 70
    32
  0
VERTEX
  8
1850LEVEL
 62
13
 10
1400.317
 20
-2826.592
 30
3377.000
 70
    32
  0
VERTEX
  8
1850LEVEL
 62
13
 10
1399.170
 20
-2828.486
 30
3377.000
 70
    32
  0
VERTEX
  8
1850LEVEL
 62
13
 10
1395.401
 20
-2824.445
 30
3377.000
 70
    32
  0
VERTEX
  8
1850LEVEL
 62
13
 10
1391.270
 20
-2816.031
 30
3377.000
 70
    32
  0
VERTEX
  8
1850LEVEL
 62
13
 10
1386.496
 20
-2809.944
 30
3377.000
 70
    32
  0
VERTEX
  8
1850LEVEL
 62
13
 10
1380.064
 20
-2802.104
 30
3377.000
 70
    32
  0
VERTEX
  8
1850LEVEL
 62
13
 10
1376.365
 20
-2797.146
 30
3377.000
 70
    32
  0
VERTEX
  8
1850LEVEL
 62
13
 10
1367.371
 20
-2787.164
 30
3377.000
 70
    32
  0
VERTEX
  8
1850LEVEL
 62
13
 10
1357.804
 20
-2779.520
 30
3377.000
 70
    32
  0
VERTEX
  8
1850LEVEL
 62
13
 10
1351.375
 20
-2775.142
 30
3377.000
 70
    32
  0
VERTEX
  8
1850LEVEL
 62
13
 10
1342.248
 20
-2769.278
 30
3377.000
 70
    32
  0
VERTEX
  8
1850LEVEL
 62
13
 10
1334.747
 20
-2764.450
 30
3377.000
 70
    32
  0
VERTEX
  8
1850LEVEL
 62
13
 10
1328.068
 20
-2758.214
 30
3377.000
 70
    32
  0
VERTEX
  8
1850LEVEL
 62
13
 10
1321.781
 20
-2751.752
 30
3377.000
 70
    32
  0
VERTEX
  8
1850LEVEL
 62
13
 10
1314.381
 20
-2741.158
 30
3377.000
 70
    32
  0
VERTEX
  8
1850LEVEL
 62
13
 10
1307.639
 20
-2726.739
 30
3377.000
 70
    32
  0
VERTEX
  8
1850LEVEL
 62
13
 10
1302.735
 20
-2714.067
 30
3377.000
 70
    32
  0
VERTEX
  8
1850LEVEL
 62
13
 10
1299.287
 20
-2704.223
 30
3377.000
 70
    32
  0
VERTEX
  8
1850LEVEL
 62
13
 10
1295.526
 20
-2697.578
 30
3377.000
 70
    32
  0
VERTEX
  8
1850LEVEL
 62
13
 10
1287.618
 20
-2686.799
 30
3377.000
 70
    32
  0
VERTEX
  8
1850LEVEL
 62
13
 10
1279.901
 20
-2676.870
 30
3377.000
 70
    32
  0
VERTEX
  8
1850LEVEL
 62
13
 10
1266.941
 20
-2661.817
 30
3377.000
 70
    32
  0
VERTEX
  8
1850LEVEL
 62
13
 10
1255.568
 20
-2646.652
 30
3377.000
 70
    32
  0
VERTEX
  8
1850LEVEL
 62
13
 10
1245.667
 20
-2630.963
 30
3377.000
 70
    32
  0
VERTEX
  8
1850LEVEL
 62
13
 10
1240.974
 20
-2617.145
 30
3377.000
 70
    32
  0
VERTEX
  8
1850LEVEL
 62
13
 10
1238.036
 20
-2607.237
 30
3377.000
 70
    32
  0
VERTEX
  8
1850LEVEL
 62
13
 10
1235.738
 20
-2595.250
 30
3377.000
 70
    32
  0
VERTEX
  8
1850LEVEL
 62
13
 10
1230.413
 20
-2583.690
 30
3377.000
 70
    32
  0
VERTEX
  8
1850LEVEL
 62
13
 10
1220.628
 20
-2571.195
 30
3377.000
 70
    32
  0
VERTEX
  8
1850LEVEL
 62
13
 10
1213.549
 20
-2561.293
 30
3377.000
 70
    32
  0
VERTEX
  8
1850LEVEL
 62
13
 10
1205.564
 20
-2551.251
 30
3377.000
 70
    32
  0
VERTEX
  8
1850LEVEL
 62
13
 10
1200.387
 20
-2543.604
 30
3377.000
 70
    32
  0
VERTEX
  8
1850LEVEL
 62
13
 10
1192.276
 20
-2535.077
 30
3377.000
 70
    32
  0
VERTEX
  8
1850LEVEL
 62
13
 10
1182.023
 20
-2528.185
 30
3377.000
 70
    32
  0
VERTEX
  8
1850LEVEL
 62
13
 10
1171.450
 20
-2520.351
 30
3377.000
 70
    32
  0
VERTEX
  8
1850LEVEL
 62
13
 10
1162.580
 20
-2512.814
 30
3377.000
 70
    32
  0
VERTEX
  8
1850LEVEL
 62
13
 10
1157.261
 20
-2507.250
 30
3377.000
 70
    32
  0
VERTEX
  8
1850LEVEL
 62
13
 10
1150.622
 20
-2497.273
 30
3377.000
 70
    32
  0
VERTEX
  8
1850LEVEL
 62
13
 10
1143.238
 20
-2487.038
 30
3377.000
 70
    32
  0
VERTEX
  8
1850LEVEL
 62
13
 10
1138.842
 20
-2481.045
 30
3377.000
 70
    32
  0
VERTEX
  8
1850LEVEL
 62
13
 10
1135.379
 20
-2476.409
 30
3377.000
 70
    32
  0
VERTEX
  8
1850LEVEL
 62
13
 10
1133.366
 20
-2470.462
 30
3377.000
 70
    32
  0
VERTEX
  8
1850LEVEL
 62
13
 10
1130.585
 20
-2465.573
 30
3377.000
 70
    32
  0
VERTEX
  8
1850LEVEL
 62
13
 10
1126.937
 20
-2461.444
 30
3377.000
 70
    32
  0
VERTEX
  8
1850LEVEL
 62
13
 10
1123.034
 20
-2455.955
 30
3377.000
 70
    32
  0
VERTEX
  8
1850LEVEL
 62
13
 10
1121.502
 20
-2449.903
 30
3377.000
 70
    32
  0
VERTEX
  8
1850LEVEL
 62
13
 10
1117.181
 20
-2445.278
 30
3377.000
 70
    32
  0
VERTEX
  8
1850LEVEL
 62
13
 10
1111.980
 20
-2440.803
 30
3377.000
 70
    32
  0
VERTEX
  8
1850LEVEL
 62
13
 10
1109.354
 20
-2437.224
 30
3377.000
 70
    32
  0
VERTEX
  8
1850LEVEL
 62
13
 10
1106.038
 20
-2431.861
 30
3377.000
 70
    32
  0
VERTEX
  8
1850LEVEL
 62
13
 10
1102.953
 20
-2424.535
 30
3377.000
 70
    32
  0
VERTEX
  8
1850LEVEL
 62
13
 10
1098.428
 20
-2415.667
 30
3377.000
 70
    32
  0
VERTEX
  8
1850LEVEL
 62
13
 10
1093.390
 20
-2406.186
 30
3377.000
 70
    32
  0
VERTEX
  8
1850LEVEL
 62
13
 10
1090.388
 20
-2401.335
 30
3377.000
 70
    32
  0
VERTEX
  8
1850LEVEL
 62
13
 10
1086.719
 20
-2397.345
 30
3377.000
 70
    32
  0
VERTEX
  8
1850LEVEL
 62
13
 10
1086.904
 20
-2398.694
 30
3377.000
 70
    32
  0
VERTEX
  8
1850LEVEL
 62
13
 10
1087.127
 20
-2401.191
 30
3377.000
 70
    32
  0
VERTEX
  8
1850LEVEL
 62
13
 10
1085.792
 20
-2401.985
 30
3377.000
 70
    32
  0
VERTEX
  8
1850LEVEL
 62
13
 10
1082.380
 20
-2397.250
 30
3377.000
 70
    32
  0
VERTEX
  8
1850LEVEL
 62
13
 10
1076.790
 20
-2389.039
 30
3377.000
 70
    32
  0
VERTEX
  8
1850LEVEL
 62
13
 10
1070.014
 20
-2379.719
 30
3377.000
 70
    32
  0
VERTEX
  8
1850LEVEL
 62
13
 10
1066.884
 20
-2374.777
 30
3377.000
 70
    32
  0
VERTEX
  8
1850LEVEL
 62
13
 10
1061.733
 20
-2367.419
 30
3377.000
 70
    32
  0
VERTEX
  8
1850LEVEL
 62
13
 10
1061.414
 20
-2366.478
 30
3377.000
 70
    32
  0
VERTEX
  8
1850LEVEL
 62
13
 10
1060.786
 20
-2363.598
 30
3377.000
 70
    32
  0
VERTEX
  8
1850LEVEL
 62
13
 10
1057.597
 20
-2358.576
 30
3377.000
 70
    32
  0
VERTEX
  8
1850LEVEL
 62
13
 10
1055.024
 20
-2352.792
 30
3377.000
 70
    32
  0
VERTEX
  8
1850LEVEL
 62
13
 10
1053.309
 20
-2346.069
 30
3377.000
 70
    32
  0
VERTEX
  8
1850LEVEL
 62
13
 10
1050.787
 20
-2339.258
 30
3377.000
 70
    32
  0
VERTEX
  8
1850LEVEL
 62
13
 10
1046.409
 20
-2331.519
 30
3377.000
 70
    32
  0
VERTEX
  8
1850LEVEL
 62
13
 10
1043.984
 20
-2326.864
 30
3377.000
 70
    32
  0
VERTEX
  8
1850LEVEL
 62
13
 10
1045.197
 20
-2329.192
 30
3377.000
 70
    32
  0
VERTEX
  8
1850LEVEL
 62
13
 10
1006.802
 20
-2257.672
 30
3377.000
 70
    32
  0
VERTEX
  8
1850LEVEL
 62
13
 10
955.298
 20
-2182.199
 30
3377.000
 70
    32
  0
VERTEX
  8
1850LEVEL
 62
13
 10
915.907
 20
-2140.570
 30
3377.000
 70
    32
  0
VERTEX
  8
1850LEVEL
 62
13
 10
929.150
 20
-2187.492
 30
3377.000
 70
    32
  0
VERTEX
  8
1850LEVEL
 62
13
 10
994.270
 20
-2289.223
 30
3377.000
 70
    32
  0
VERTEX
  8
1850LEVEL
 62
13
 10
1028.532
 20
-2341.726
 30
3377.000
 70
    32
  0
VERTEX
  8
1850LEVEL
 62
13
 10
1033.875
 20
-2349.685
 30
3377.000
 70
    32
  0
VERTEX
  8
1850LEVEL
 62
13
 10
1038.332
 20
-2360.397
 30
3377.000
 70
    32
  0
VERTEX
  8
1850LEVEL
 62
13
 10
1040.964
 20
-2370.901
 30
3377.000
 70
    32
  0
VERTEX
  8
1850LEVEL
 62
13
 10
1043.985
 20
-2378.645
 30
3377.000
 70
    32
  0
VERTEX
  8
1850LEVEL
 62
13
 10
1049.809
 20
-2389.283
 30
3377.000
 70
    32
  0
VERTEX
  8
1850LEVEL
 62
13
 10
1055.936
 20
-2399.574
 30
3377.000
 70
    32
  0
VERTEX
  8
1850LEVEL
 62
13
 10
1060.230
 20
-2405.765
 30
3377.000
 70
    32
  0
VERTEX
  8
1850LEVEL
 62
13
 10
1067.416
 20
-2414.970
 30
3377.000
 70
    32
  0
VERTEX
  8
1850LEVEL
 62
13
 10
1073.931
 20
-2421.574
 30
3377.000
 70
    32
  0
VERTEX
  8
1850LEVEL
 62
13
 10
1081.195
 20
-2430.969
 30
3377.000
 70
    32
  0
VERTEX
  8
1850LEVEL
 62
13
 10
1085.769
 20
-2438.131
 30
3377.000
 70
    32
  0
VERTEX
  8
1850LEVEL
 62
13
 10
1093.016
 20
-2448.095
 30
3377.000
 70
    32
  0
VERTEX
  8
1850LEVEL
 62
13
 10
1101.954
 20
-2463.315
 30
3377.000
 70
    32
  0
VERTEX
  8
1850LEVEL
 62
13
 10
1106.501
 20
-2471.115
 30
3377.000
 70
    32
  0
VERTEX
  8
1850LEVEL
 62
13
 10
1110.597
 20
-2477.205
 30
3377.000
 70
    32
  0
VERTEX
  8
1850LEVEL
 62
13
 10
1115.686
 20
-2484.731
 30
3377.000
 70
    32
  0
VERTEX
  8
1850LEVEL
 62
13
 10
1119.926
 20
-2489.416
 30
3377.000
 70
    32
  0
VERTEX
  8
1850LEVEL
 62
13
 10
1122.158
 20
-2490.686
 30
3377.000
 70
    32
  0
VERTEX
  8
1850LEVEL
 62
13
 10
1123.705
 20
-2490.603
 30
3377.000
 70
    32
  0
VERTEX
  8
1850LEVEL
 62
13
 10
1125.453
 20
-2487.588
 30
3377.000
 70
    32
  0
VERTEX
  8
1850LEVEL
 62
13
 10
1125.656
 20
-2485.336
 30
3377.000
 70
    32
  0
VERTEX
  8
1850LEVEL
 62
13
 10
1127.093
 20
-2483.415
 30
3377.000
 70
    32
  0
VERTEX
  8
1850LEVEL
 62
13
 10
1130.188
 20
-2485.104
 30
3377.000
 70
    32
  0
VERTEX
  8
1850LEVEL
 62
13
 10
1135.843
 20
-2491.041
 30
3377.000
 70
    32
  0
VERTEX
  8
1850LEVEL
 62
13
 10
1140.413
 20
-2497.524
 30
3377.000
 70
    32
  0
VERTEX
  8
1850LEVEL
 62
13
 10
1146.465
 20
-2506.448
 30
3377.000
 70
    32
  0
VERTEX
  8
1850LEVEL
 62
13
 10
1146.908
 20
-2507.979
 30
3377.000
 70
    32
  0
VERTEX
  8
1850LEVEL
 62
13
 10
1146.731
 20
-2511.449
 30
3377.000
 70
    32
  0
VERTEX
  8
1850LEVEL
 62
13
 10
1147.939
 20
-2516.131
 30
3377.000
 70
    32
  0
VERTEX
  8
1850LEVEL
 62
13
 10
1154.069
 20
-2528.029
 30
3377.000
 70
    32
  0
VERTEX
  8
1850LEVEL
 62
13
 10
1158.696
 20
-2536.698
 30
3377.000
 70
    32
  0
VERTEX
  8
1850LEVEL
 62
13
 10
1161.070
 20
-2541.452
 30
3377.000
 70
    32
  0
VERTEX
  8
1850LEVEL
 62
13
 10
1163.289
 20
-2549.537
 30
3377.000
 70
    32
  0
VERTEX
  8
1850LEVEL
 62
13
 10
1165.927
 20
-2558.614
 30
3377.000
 70
    32
  0
VERTEX
  8
1850LEVEL
 62
13
 10
1168.932
 20
-2567.855
 30
3377.000
 70
    32
  0
VERTEX
  8
1850LEVEL
 62
13
 10
1173.211
 20
-2575.542
 30
3377.000
 70
    32
  0
VERTEX
  8
1850LEVEL
 62
13
 10
1176.003
 20
-2580.361
 30
3377.000
 70
    32
  0
VERTEX
  8
1850LEVEL
 62
13
 10
1176.454
 20
-2581.144
 30
3377.000
 70
    32
  0
VERTEX
  8
1850LEVEL
 62
13
 10
1175.545
 20
-2581.254
 30
3377.000
 70
    32
  0
VERTEX
  8
1850LEVEL
 62
13
 10
1175.017
 20
-2582.136
 30
3377.000
 70
    32
  0
VERTEX
  8
1850LEVEL
 62
13
 10
1176.879
 20
-2586.276
 30
3377.000
 70
    32
  0
VERTEX
  8
1850LEVEL
 62
13
 10
1182.287
 20
-2595.672
 30
3377.000
 70
    32
  0
VERTEX
  8
1850LEVEL
 62
13
 10
1190.130
 20
-2606.870
 30
3377.000
 70
    32
  0
VERTEX
  8
1850LEVEL
 62
13
 10
1197.070
 20
-2618.606
 30
3377.000
 70
    32
  0
VERTEX
  8
1850LEVEL
 62
13
 10
1199.720
 20
-2626.436
 30
3377.000
 70
    32
  0
VERTEX
  8
1850LEVEL
 62
13
 10
1204.112
 20
-2638.495
 30
3377.000
 70
    32
  0
VERTEX
  8
1850LEVEL
 62
13
 10
1210.682
 20
-2651.245
 30
3377.000
 70
    32
  0
VERTEX
  8
1850LEVEL
 62
13
 10
1215.082
 20
-2660.700
 30
3377.000
 70
    32
  0
VERTEX
  8
1850LEVEL
 62
13
 10
1219.259
 20
-2667.659
 30
3377.000
 70
    32
  0
VERTEX
  8
1850LEVEL
 62
13
 10
1234.556
 20
-2687.246
 30
3377.000
 70
    32
  0
VERTEX
  8
1850LEVEL
 62
13
 10
1241.329
 20
-2696.815
 30
3377.000
 70
    32
  0
VERTEX
  8
1850LEVEL
 62
13
 10
1244.607
 20
-2702.886
 30
3377.000
 70
    32
  0
VERTEX
  8
1850LEVEL
 62
13
 10
1250.079
 20
-2713.719
 30
3377.000
 70
    32
  0
VERTEX
  8
1850LEVEL
 62
13
 10
1254.457
 20
-2722.386
 30
3377.000
 70
    32
  0
VERTEX
  8
1850LEVEL
 62
13
 10
1259.273
 20
-2731.226
 30
3377.000
 70
    32
  0
VERTEX
  8
1850LEVEL
 62
13
 10
1266.623
 20
-2742.848
 30
3377.000
 70
    32
  0
VERTEX
  8
1850LEVEL
 62
13
 10
1270.864
 20
-2749.388
 30
3377.000
 70
    32
  0
VERTEX
  8
1850LEVEL
 62
13
 10
1277.518
 20
-2758.796
 30
3377.000
 70
    32
  0
VERTEX
  8
1850LEVEL
 62
13
 10
1287.076
 20
-2771.149
 30
3377.000
 70
    32
  0
VERTEX
  8
1850LEVEL
 62
13
 10
1297.817
 20
-2780.901
 30
3377.000
 70
    32
  0
VERTEX
  8
1850LEVEL
 62
13
 10
1308.503
 20
-2790.322
 30
3377.000
 70
    32
  0
VERTEX
  8
1850LEVEL
 62
13
 10
1321.264
 20
-2799.706
 30
3377.000
 70
    32
  0
VERTEX
  8
1850LEVEL
 62
13
 10
1329.855
 20
-2806.272
 30
3377.000
 70
    32
  0
VERTEX
  8
1850LEVEL
 62
13
 10
1334.173
 20
-2809.291
 30
3377.000
 70
    32
  0
VERTEX
  8
1850LEVEL
 62
13
 10
1340.516
 20
-2815.155
 30
3377.000
 70
    32
  0
VERTEX
  8
1850LEVEL
 62
13
 10
1349.142
 20
-2824.973
 30
3377.000
 70
    32
  0
VERTEX
  8
1850LEVEL
 62
13
 10
1355.196
 20
-2830.864
 30
3377.000
 70
    32
  0
VERTEX
  8
1850LEVEL
 62
13
 10
1365.611
 20
-2840.423
 30
3377.000
 70
    32
  0
VERTEX
  8
1850LEVEL
 62
13
 10
1373.472
 20
-2848.018
 30
3377.000
 70
    32
  0
VERTEX
  8
1850LEVEL
 62
13
 10
1378.128
 20
-2852.088
 30
3377.000
 70
    32
  0
VERTEX
  8
1850LEVEL
 62
13
 10
1388.162
 20
-2860.875
 30
3377.000
 70
    32
  0
VERTEX
  8
1850LEVEL
 62
13
 10
1395.117
 20
-2866.475
 30
3377.000
 70
    32
  0
VERTEX
  8
1850LEVEL
 62
13
 10
1402.093
 20
-2872.865
 30
3377.000
 70
    32
  0
VERTEX
  8
1850LEVEL
 62
13
 10
1405.725
 20
-2876.634
 30
3377.000
 70
    32
  0
VERTEX
  8
1850LEVEL
 62
13
 10
1408.428
 20
-2880.404
 30
3377.000
 70
    32
  0
VERTEX
  8
1850LEVEL
 62
13
 10
1410.789
 20
-2886.406
 30
3377.000
 70
    32
  0
VERTEX
  8
1850LEVEL
 62
13
 10
1411.696
 20
-2890.256
 30
3377.000
 70
    32
  0
VERTEX
  8
1850LEVEL
 62
13
 10
1413.489
 20
-2899.025
 30
3377.000
 70
    32
  0
VERTEX
  8
1850LEVEL
 62
13
 10
1413.903
 20
-2902.372
 30
3377.000
 70
    32
  0
VERTEX
  8
1850LEVEL
 62
13
 10
1413.420
 20
-2903.654
 30
3377.000
 70
    32
  0
VERTEX
  8
1850LEVEL
 62
13
 10
1411.661
 20
-2903.955
 30
3377.000
 70
    32
  0
VERTEX
  8
1850LEVEL
 62
13
 10
1409.382
 20
-2902.534
 30
3377.000
 70
    32
  0
VERTEX
  8
1850LEVEL
 62
13
 10
1404.961
 20
-2897.858
 30
3377.000
 70
    32
  0
VERTEX
  8
1850LEVEL
 62
13
 10
1397.789
 20
-2889.261
 30
3377.000
 70
    32
  0
VERTEX
  8
1850LEVEL
 62
13
 10
1386.315
 20
-2878.006
 30
3377.000
 70
    32
  0
VERTEX
  8
1850LEVEL
 62
13
 10
1373.095
 20
-2866.731
 30
3377.000
 70
    32
  0
VERTEX
  8
1850LEVEL
 62
13
 10
1362.774
 20
-2858.651
 30
3377.000
 70
    32
  0
VERTEX
  8
1850LEVEL
 62
13
 10
1349.613
 20
-2848.385
 30
3377.000
 70
    32
  0
VERTEX
  8
1850LEVEL
 62
13
 10
1340.483
 20
-2839.987
 30
3377.000
 70
    32
  0
VERTEX
  8
1850LEVEL
 62
13
 10
1330.763
 20
-2830.785
 30
3377.000
 70
    32
  0
VERTEX
  8
1850LEVEL
 62
13
 10
1319.889
 20
-2820.264
 30
3377.000
 70
    32
  0
VERTEX
  8
1850LEVEL
 62
13
 10
1310.210
 20
-2812.889
 30
3377.000
 70
    32
  0
VERTEX
  8
1850LEVEL
 62
13
 10
1303.752
 20
-2810.326
 30
3377.000
 70
    32
  0
VERTEX
  8
1850LEVEL
 62
13
 10
1299.405
 20
-2810.051
 30
3377.000
 70
    32
  0
VERTEX
  8
1850LEVEL
 62
13
 10
1296.434
 20
-2812.663
 30
3377.000
 70
    32
  0
VERTEX
  8
1850LEVEL
 62
13
 10
1296.135
 20
-2822.038
 30
3377.000
 70
    32
  0
VERTEX
  8
1850LEVEL
 62
13
 10
1298.097
 20
-2829.013
 30
3377.000
 70
    32
  0
VERTEX
  8
1850LEVEL
 62
13
 10
1301.957
 20
-2837.564
 30
3377.000
 70
    32
  0
VERTEX
  8
1850LEVEL
 62
13
 10
1307.446
 20
-2845.973
 30
3377.000
 70
    32
  0
VERTEX
  8
1850LEVEL
 62
13
 10
1316.270
 20
-2856.822
 30
3377.000
 70
    32
  0
VERTEX
  8
1850LEVEL
 62
13
 10
1327.131
 20
-2868.590
 30
3377.000
 70
    32
  0
VERTEX
  8
1850LEVEL
 62
13
 10
1336.703
 20
-2879.446
 30
3377.000
 70
    32
  0
VERTEX
  8
1850LEVEL
 62
13
 10
1342.435
 20
-2884.645
 30
3377.000
 70
    32
  0
VERTEX
  8
1850LEVEL
 62
13
 10
1353.327
 20
-2893.420
 30
3377.000
 70
    32
  0
VERTEX
  8
1850LEVEL
 62
13
 10
1361.261
 20
-2898.922
 30
3377.000
 70
    32
  0
VERTEX
  8
1850LEVEL
 62
13
 10
1367.716
 20
-2902.662
 30
3377.000
 70
    32
  0
VERTEX
  8
1850LEVEL
 62
13
 10
1374.214
 20
-2906.123
 30
3377.000
 70
    32
  0
VERTEX
  8
1850LEVEL
 62
13
 10
1378.669
 20
-2909.412
 30
3377.000
 70
    32
  0
VERTEX
  8
1850LEVEL
 62
13
 10
1381.631
 20
-2913.365
 30
3377.000
 70
    32
  0
VERTEX
  8
1850LEVEL
 62
13
 10
1384.128
 20
-2914.997
 30
3377.000
 70
    32
  0
VERTEX
  8
1850LEVEL
 62
13
 10
1387.472
 20
-2916.689
 30
3377.000
 70
    32
  0
VERTEX
  8
1850LEVEL
 62
13
 10
1395.228
 20
-2921.949
 30
3377.000
 70
    32
  0
VERTEX
  8
1850LEVEL
 62
13
 10
1402.824
 20
-2927.327
 30
3377.000
 70
    32
  0
VERTEX
  8
1850LEVEL
 62
13
 10
1412.072
 20
-2934.958
 30
3377.000
 70
    32
  0
VERTEX
  8
1850LEVEL
 62
13
 10
1420.781
 20
-2942.612
 30
3377.000
 70
    32
  0
VERTEX
  8
1850LEVEL
 62
13
 10
1427.596
 20
-2949.120
 30
3377.000
 70
    32
  0
VERTEX
  8
1850LEVEL
 62
13
 10
1436.728
 20
-2957.268
 30
3377.000
 70
    32
  0
VERTEX
  8
1850LEVEL
 62
13
 10
1445.936
 20
-2965.855
 30
3377.000
 70
    32
  0
VERTEX
  8
1850LEVEL
 62
13
 10
1453.562
 20
-2973.130
 30
3377.000
 70
    32
  0
VERTEX
  8
1850LEVEL
 62
13
 10
1460.913
 20
-2979.862
 30
3377.000
 70
    32
  0
VERTEX
  8
1850LEVEL
 62
13
 10
1466.090
 20
-2984.726
 30
3377.000
 70
    32
  0
VERTEX
  8
1850LEVEL
 62
13
 10
1470.660
 20
-2989.353
 30
3377.000
 70
    32
  0
VERTEX
  8
1850LEVEL
 62
13
 10
1477.164
 20
-2994.171
 30
3377.000
 70
    32
  0
VERTEX
  8
1850LEVEL
 62
13
 10
1484.642
 20
-3001.244
 30
3377.000
 70
    32
  0
VERTEX
  8
1850LEVEL
 62
13
 10
1494.113
 20
-3010.444
 30
3377.000
 70
    32
  0
VERTEX
  8
1850LEVEL
 62
13
 10
1506.032
 20
-3021.125
 30
3377.000
 70
    32
  0
VERTEX
  8
1850LEVEL
 62
13
 10
1512.440
 20
-3026.571
 30
3377.000
 70
    32
  0
VERTEX
  8
1850LEVEL
 62
13
 10
1518.227
 20
-3030.244
 30
3377.000
 70
    32
  0
VERTEX
  8
1850LEVEL
 62
13
 10
1521.730
 20
-3032.994
 30
3377.000
 70
    32
  0
VERTEX
  8
1850LEVEL
 62
13
 10
1526.032
 20
-3036.582
 30
3377.000
 70
    32
  0
VERTEX
  8
1850LEVEL
 62
13
 10
1528.657
 20
-3039.359
 30
3377.000
 70
    32
  0
VERTEX
  8
1850LEVEL
 62
13
 10
1531.638
 20
-3041.440
 30
3377.000
 70
    32
  0
SEQEND
  8
1850LEVEL
  0
POLYLINE
  8
1850LEVEL
 62
13
 66
     1
 70
     9
  0
VERTEX
  8
1850LEVEL
 62
13
 10
1752.258
 20
-2522.811
 30
3377.000
 70
    32
  0
VERTEX
  8
1850LEVEL
 62
13
 10
1756.867
 20
-2532.299
 30
3377.000
 70
    32
  0
VERTEX
  8
1850LEVEL
 62
13
 10
1758.217
 20
-2537.680
 30
3377.000
 70
    32
  0
VERTEX
  8
1850LEVEL
 62
13
 10
1760.903
 20
-2545.980
 30
3377.000
 70
    32
  0
VERTEX
  8
1850LEVEL
 62
13
 10
1762.520
 20
-2550.546
 30
3377.000
 70
    32
  0
VERTEX
  8
1850LEVEL
 62
13
 10
1763.849
 20
-2555.140
 30
3377.000
 70
    32
  0
VERTEX
  8
1850LEVEL
 62
13
 10
1764.243
 20
-2558.377
 30
3377.000
 70
    32
  0
VERTEX
  8
1850LEVEL
 62
13
 10
1761.706
 20
-2557.701
 30
3377.000
 70
    32
  0
VERTEX
  8
1850LEVEL
 62
13
 10
1757.197
 20
-2551.977
 30
3377.000
 70
    32
  0
VERTEX
  8
1850LEVEL
 62
13
 10
1752.455
 20
-2544.753
 30
3377.000
 70
    32
  0
VERTEX
  8
1850LEVEL
 62
13
 10
1746.497
 20
-2533.596
 30
3377.000
 70
    32
  0
VERTEX
  8
1850LEVEL
 62
13
 10
1741.985
 20
-2525.337
 30
3377.000
 70
    32
  0
VERTEX
  8
1850LEVEL
 62
13
 10
1740.024
 20
-2521.146
 30
3377.000
 70
    32
  0
VERTEX
  8
1850LEVEL
 62
13
 10
1737.762
 20
-2516.123
 30
3377.000
 70
    32
  0
VERTEX
  8
1850LEVEL
 62
13
 10
1736.493
 20
-2512.538
 30
3377.000
 70
    32
  0
VERTEX
  8
1850LEVEL
 62
13
 10
1738.075
 20
-2511.996
 30
3377.000
 70
    32
  0
VERTEX
  8
1850LEVEL
 62
13
 10
1743.048
 20
-2518.184
 30
3377.000
 70
    32
  0
VERTEX
  8
1850LEVEL
 62
13
 10
1746.128
 20
-2524.153
 30
3377.000
 70
    32
  0
VERTEX
  8
1850LEVEL
 62
13
 10
1748.741
 20
-2529.908
 30
3377.000
 70
    32
  0
VERTEX
  8
1850LEVEL
 62
13
 10
1750.884
 20
-2533.842
 30
3377.000
 70
    32
  0
VERTEX
  8
1850LEVEL
 62
13
 10
1752.754
 20
-2535.378
 30
3377.000
 70
    32
  0
VERTEX
  8
1850LEVEL
 62
13
 10
1750.379
 20
-2529.696
 30
3377.000
 70
    32
  0
VERTEX
  8
1850LEVEL
 62
13
 10
1747.485
 20
-2523.220
 30
3377.000
 70
    32
  0
VERTEX
  8
1850LEVEL
 62
13
 10
1743.487
 20
-2514.398
 30
3377.000
 70
    32
  0
VERTEX
  8
1850LEVEL
 62
13
 10
1740.496
 20
-2504.838
 30
3377.000
 70
    32
  0
VERTEX
  8
1850LEVEL
 62
13
 10
1738.539
 20
-2498.292
 30
3377.000
 70
    32
  0
VERTEX
  8
1850LEVEL
 62
13
 10
1738.378
 20
-2496.555
 30
3377.000
 70
    32
  0
VERTEX
  8
1850LEVEL
 62
13
 10
1739.228
 20
-2496.364
 30
3377.000
 70
    32
  0
VERTEX
  8
1850LEVEL
 62
13
 10
1743.160
 20
-2500.965
 30
3377.000
 70
    32
  0
VERTEX
  8
1850LEVEL
 62
13
 10
1747.150
 20
-2508.680
 30
3377.000
 70
    32
  0
VERTEX
  8
1850LEVEL
 62
13
 10
1749.704
 20
-2514.354
 30
3377.000
 70
    32
  0
VERTEX
  8
1850LEVEL
 62
13
 10
1751.131
 20
-2518.070
 30
3377.000
 70
    32
  0
SEQEND
  8
1850LEVEL
  0
POLYLINE
  8
1850LEVEL
 62
13
 66
     1
 70
     9
  0
VERTEX
  8
1850LEVEL
 62
13
 10
1843.140
 20
-2456.697
 30
3377.000
 70
    32
  0
VERTEX
  8
1850LEVEL
 62
13
 10
1845.750
 20
-2462.701
 30
3377.000
 70
    32
  0
VERTEX
  8
1850LEVEL
 62
13
 10
1847.376
 20
-2468.375
 30
3377.000
 70
    32
  0
VERTEX
  8
1850LEVEL
 62
13
 10
1849.453
 20
-2475.760
 30
3377.000
 70
    32
  0
VERTEX
  8
1850LEVEL
 62
13
 10
1851.828
 20
-2484.226
 30
3377.000
 70
    32
  0
VERTEX
  8
1850LEVEL
 62
13
 10
1855.088
 20
-2495.754
 30
3377.000
 70
    32
  0
VERTEX
  8
1850LEVEL
 62
13
 10
1858.171
 20
-2505.185
 30
3377.000
 70
    32
  0
VERTEX
  8
1850LEVEL
 62
13
 10
1860.420
 20
-2513.310
 30
3377.000
 70
    32
  0
VERTEX
  8
1850LEVEL
 62
13
 10
1861.850
 20
-2519.561
 30
3377.000
 70
    32
  0
VERTEX
  8
1850LEVEL
 62
13
 10
1863.737
 20
-2527.951
 30
3377.000
 70
    32
  0
VERTEX
  8
1850LEVEL
 62
13
 10
1863.850
 20
-2530.467
 30
3377.000
 70
    32
  0
VERTEX
  8
1850LEVEL
 62
13
 10
1862.185
 20
-2529.461
 30
3377.000
 70
    32
  0
VERTEX
  8
1850LEVEL
 62
13
 10
1858.163
 20
-2520.100
 30
3377.000
 70
    32
  0
VERTEX
  8
1850LEVEL
 62
13
 10
1853.143
 20
-2507.017
 30
3377.000
 70
    32
  0
VERTEX
  8
1850LEVEL
 62
13
 10
1848.145
 20
-2493.795
 30
3377.000
 70
    32
  0
VERTEX
  8
1850LEVEL
 62
13
 10
1842.173
 20
-2481.101
 30
3377.000
 70
    32
  0
VERTEX
  8
1850LEVEL
 62
13
 10
1836.773
 20
-2470.957
 30
3377.000
 70
    32
  0
VERTEX
  8
1850LEVEL
 62
13
 10
1832.178
 20
-2462.078
 30
3377.000
 70
    32
  0
VERTEX
  8
1850LEVEL
 62
13
 10
1828.889
 20
-2454.222
 30
3377.000
 70
    32
  0
VERTEX
  8
1850LEVEL
 62
13
 10
1824.468
 20
-2443.978
 30
3377.000
 70
    32
  0
VERTEX
  8
1850LEVEL
 62
13
 10
1823.083
 20
-2438.127
 30
3377.000
 70
    32
  0
VERTEX
  8
1850LEVEL
 62
13
 10
1823.514
 20
-2436.016
 30
3377.000
 70
    32
  0
VERTEX
  8
1850LEVEL
 62
13
 10
1827.722
 20
-2439.982
 30
3377.000
 70
    32
  0
VERTEX
  8
1850LEVEL
 62
13
 10
1833.406
 20
-2447.814
 30
3377.000
 70
    32
  0
VERTEX
  8
1850LEVEL
 62
13
 10
1837.510
 20
-2454.083
 30
3377.000
 70
    32
  0
VERTEX
  8
1850LEVEL
 62
13
 10
1840.558
 20
-2460.261
 30
3377.000
 70
    32
  0
VERTEX
  8
1850LEVEL
 62
13
 10
1843.351
 20
-2466.936
 30
3377.000
 70
    32
  0
VERTEX
  8
1850LEVEL
 62
13
 10
1845.352
 20
-2472.953
 30
3377.000
 70
    32
  0
VERTEX
  8
1850LEVEL
 62
13
 10
1847.364
 20
-2477.045
 30
3377.000
 70
    32
  0
VERTEX
  8
1850LEVEL
 62
13
 10
1848.038
 20
-2478.469
 30
3377.000
 70
    32
  0
VERTEX
  8
1850LEVEL
 62
13
 10
1847.801
 20
-2476.291
 30
3377.000
 70
    32
  0
VERTEX
  8
1850LEVEL
 62
13
 10
1845.859
 20
-2470.354
 30
3377.000
 70
    32
  0
VERTEX
  8
1850LEVEL
 62
13
 10
1843.248
 20
-2462.495
 30
3377.000
 70
    32
  0
VERTEX
  8
1850LEVEL
 62
13
 10
1841.582
 20
-2457.778
 30
3377.000
 70
    32
  0
VERTEX
  8
1850LEVEL
 62
13
 10
1839.004
 20
-2452.493
 30
3377.000
 70
    32
  0
VERTEX
  8
1850LEVEL
 62
13
 10
1837.217
 20
-2448.792
 30
3377.000
 70
    32
  0
VERTEX
  8
1850LEVEL
 62
13
 10
1836.364
 20
-2446.449
 30
3377.000
 70
    32
  0
VERTEX
  8
1850LEVEL
 62
13
 10
1836.887
 20
-2446.065
 30
3377.000
 70
    32
  0
VERTEX
  8
1850LEVEL
 62
13
 10
1839.974
 20
-2450.358
 30
3377.000
 70
    32
  0
VERTEX
  8
1850LEVEL
 62
13
 10
1841.726
 20
-2453.589
 30
3377.000
 70
    32
  0
VERTEX
  8
1850LEVEL
 62
13
 10
1842.397
 20
-2455.262
 30
3377.000
 70
    32
  0
SEQEND
  8
1850LEVEL
  0
POLYLINE
  8
1850LEVEL
 62
13
 66
     1
 70
     8
  0
VERTEX
  8
1850LEVEL
 62
13
 10
1539.613
 20
-3067.891
 30
3377.000
 70
    32
  0
VERTEX
  8
1850LEVEL
 62
13
 10
1540.053
 20
-3068.427
 30
3377.000
 70
    32
  0
VERTEX
  8
1850LEVEL
 62
13
 10
1544.384
 20
-3070.199
 30
3377.000
 70
    32
  0
VERTEX
  8
1850LEVEL
 62
13
 10
1547.809
 20
-3071.832
 30
3377.000
 70
    32
  0
VERTEX
  8
1850LEVEL
 62
13
 10
1548.868
 20
-3072.601
 30
3377.000
 70
    32
  0
VERTEX
  8
1850LEVEL
 62
13
 10
1549.925
 20
-3073.620
 30
3377.000
 70
    32
  0
VERTEX
  8
1850LEVEL
 62
13
 10
1550.308
 20
-3074.143
 30
3377.000
 70
    32
  0
VERTEX
  8
1850LEVEL
 62
13
 10
1550.628
 20
-3075.084
 30
3377.000
 70
    32
  0
VERTEX
  8
1850LEVEL
 62
13
 10
1550.392
 20
-3075.690
 30
3377.000
 70
    32
  0
VERTEX
  8
1850LEVEL
 62
13
 10
1549.040
 20
-3076.125
 30
3377.000
 70
    32
  0
VERTEX
  8
1850LEVEL
 62
13
 10
1548.086
 20
-3076.763
 30
3377.000
 70
    32
  0
VERTEX
  8
1850LEVEL
 62
13
 10
1548.285
 20
-3078.721
 30
3377.000
 70
    32
  0
VERTEX
  8
1850LEVEL
 62
13
 10
1550.500
 20
-3082.416
 30
3377.000
 70
    32
  0
VERTEX
  8
1850LEVEL
 62
13
 10
1553.169
 20
-3086.644
 30
3377.000
 70
    32
  0
VERTEX
  8
1850LEVEL
 62
13
 10
1554.320
 20
-3089.141
 30
3377.000
 70
    32
  0
VERTEX
  8
1850LEVEL
 62
13
 10
1553.419
 20
-3090.358
 30
3377.000
 70
    32
  0
VERTEX
  8
1850LEVEL
 62
13
 10
1545.674
 20
-3085.956
 30
3377.000
 70
    32
  0
VERTEX
  8
1850LEVEL
 62
13
 10
1542.815
 20
-3082.734
 30
3377.000
 70
    32
  0
VERTEX
  8
1850LEVEL
 62
13
 10
1541.235
 20
-3082.098
 30
3377.000
 70
    32
  0
VERTEX
  8
1850LEVEL
 62
13
 10
1539.983
 20
-3083.512
 30
3377.000
 70
    32
  0
VERTEX
  8
1850LEVEL
 62
13
 10
1541.091
 20
-3089.071
 30
3377.000
 70
    32
  0
VERTEX
  8
1850LEVEL
 62
13
 10
1543.785
 20
-3095.694
 30
3377.000
 70
    32
  0
VERTEX
  8
1850LEVEL
 62
13
 10
1545.754
 20
-3100.993
 30
3377.000
 70
    32
  0
VERTEX
  8
1850LEVEL
 62
13
 10
1549.140
 20
-3108.222
 30
3377.000
 70
    32
  0
VERTEX
  8
1850LEVEL
 62
13
 10
1553.131
 20
-3114.759
 30
3377.000
 70
    32
  0
VERTEX
  8
1850LEVEL
 62
13
 10
1556.517
 20
-3120.133
 30
3377.000
 70
    32
  0
VERTEX
  8
1850LEVEL
 62
13
 10
1557.979
 20
-3122.463
 30
3377.000
 70
    32
  0
VERTEX
  8
1850LEVEL
 62
13
 10
1559.159
 20
-3124.072
 30
3377.000
 70
    32
  0
VERTEX
  8
1850LEVEL
 62
13
 10
1560.328
 20
-3124.822
 30
3377.000
 70
    32
  0
SEQEND
  8
1850LEVEL
  0
POLYLINE
  8
1850LEVEL
 62
7
 66
     1
 70
     8
  0
VERTEX
  8
1850LEVEL
 62
7
 10
1608.933
 20
-3084.279
 30
3377.000
 70
    32
  0
VERTEX
  8
1850LEVEL
 62
7
 10
1611.456
 20
-3088.500
 30
3377.000
 70
    32
  0
VERTEX
  8
1850LEVEL
 62
7
 10
1614.793
 20
-3092.724
 30
3377.000
 70
    32
  0
VERTEX
  8
1850LEVEL
 62
7
 10
1619.624
 20
-3099.140
 30
3377.000
 70
    32
  0
VERTEX
  8
1850LEVEL
 62
7
 10
1621.993
 20
-3102.537
 30
3377.000
 70
    32
  0
VERTEX
  8
1850LEVEL
 62
7
 10
1625.919
 20
-3107.637
 30
3377.000
 70
    32
  0
VERTEX
  8
1850LEVEL
 62
7
 10
1631.278
 20
-3111.316
 30
3377.000
 70
    32
  0
VERTEX
  8
1850LEVEL
 62
7
 10
1636.307
 20
-3114.122
 30
3377.000
 70
    32
  0
VERTEX
  8
1850LEVEL
 62
7
 10
1643.031
 20
-3119.831
 30
3377.000
 70
    32
  0
VERTEX
  8
1850LEVEL
 62
7
 10
1647.556
 20
-3126.842
 30
3377.000
 70
    32
  0
VERTEX
  8
1850LEVEL
 62
7
 10
1649.493
 20
-3131.422
 30
3377.000
 70
    32
  0
VERTEX
  8
1850LEVEL
 62
7
 10
1653.160
 20
-3139.373
 30
3377.000
 70
    32
  0
VERTEX
  8
1850LEVEL
 62
7
 10
1657.246
 20
-3147.388
 30
3377.000
 70
    32
  0
VERTEX
  8
1850LEVEL
 62
7
 10
1661.332
 20
-3155.403
 30
3377.000
 70
    32
  0
VERTEX
  8
1850LEVEL
 62
7
 10
1665.297
 20
-3163.506
 30
3377.000
 70
    32
  0
VERTEX
  8
1850LEVEL
 62
7
 10
1668.800
 20
-3170.896
 30
3377.000
 70
    32
  0
VERTEX
  8
1850LEVEL
 62
7
 10
1672.100
 20
-3178.683
 30
3377.000
 70
    32
  0
VERTEX
  8
1850LEVEL
 62
7
 10
1676.760
 20
-3187.143
 30
3377.000
 70
    32
  0
VERTEX
  8
1850LEVEL
 62
7
 10
1681.017
 20
-3193.115
 30
3377.000
 70
    32
  0
VERTEX
  8
1850LEVEL
 62
7
 10
1684.391
 20
-3195.774
 30
3377.000
 70
    32
  0
VERTEX
  8
1850LEVEL
 62
7
 10
1690.661
 20
-3200.021
 30
3377.000
 70
    32
  0
VERTEX
  8
1850LEVEL
 62
7
 10
1703.028
 20
-3208.952
 30
3377.000
 70
    32
  0
VERTEX
  8
1850LEVEL
 62
7
 10
1715.620
 20
-3218.274
 30
3377.000
 70
    32
  0
VERTEX
  8
1850LEVEL
 62
7
 10
1727.751
 20
-3223.171
 30
3377.000
 70
    32
  0
VERTEX
  8
1850LEVEL
 62
7
 10
1734.768
 20
-3220.930
 30
3377.000
 70
    32
  0
VERTEX
  8
1850LEVEL
 62
7
 10
1737.425
 20
-3217.806
 30
3377.000
 70
    32
  0
VERTEX
  8
1850LEVEL
 62
7
 10
1737.411
 20
-3212.558
 30
3377.000
 70
    32
  0
VERTEX
  8
1850LEVEL
 62
7
 10
1735.983
 20
-3205.130
 30
3377.000
 70
    32
  0
VERTEX
  8
1850LEVEL
 62
7
 10
1730.781
 20
-3192.304
 30
3377.000
 70
    32
  0
VERTEX
  8
1850LEVEL
 62
7
 10
1724.755
 20
-3177.175
 30
3377.000
 70
    32
  0
VERTEX
  8
1850LEVEL
 62
7
 10
1719.620
 20
-3165.537
 30
3377.000
 70
    32
  0
VERTEX
  8
1850LEVEL
 62
7
 10
1714.895
 20
-3149.145
 30
3377.000
 70
    32
  0
VERTEX
  8
1850LEVEL
 62
7
 10
1713.909
 20
-3138.609
 30
3377.000
 70
    32
  0
VERTEX
  8
1850LEVEL
 62
7
 10
1716.211
 20
-3131.290
 30
3377.000
 70
    32
  0
VERTEX
  8
1850LEVEL
 62
7
 10
1720.760
 20
-3122.818
 30
3377.000
 70
    32
  0
VERTEX
  8
1850LEVEL
 62
7
 10
1726.823
 20
-3118.432
 30
3377.000
 70
    32
  0
VERTEX
  8
1850LEVEL
 62
7
 10
1732.784
 20
-3118.884
 30
3377.000
 70
    32
  0
VERTEX
  8
1850LEVEL
 62
7
 10
1737.271
 20
-3121.037
 30
3377.000
 70
    32
  0
VERTEX
  8
1850LEVEL
 62
7
 10
1745.197
 20
-3127.286
 30
3377.000
 70
    32
  0
VERTEX
  8
1850LEVEL
 62
7
 10
1753.750
 20
-3134.560
 30
3377.000
 70
    32
  0
VERTEX
  8
1850LEVEL
 62
7
 10
1761.407
 20
-3138.842
 30
3377.000
 70
    32
  0
VERTEX
  8
1850LEVEL
 62
7
 10
1769.373
 20
-3145.990
 30
3377.000
 70
    32
  0
VERTEX
  8
1850LEVEL
 62
7
 10
1773.544
 20
-3152.519
 30
3377.000
 70
    32
  0
VERTEX
  8
1850LEVEL
 62
7
 10
1775.535
 20
-3158.606
 30
3377.000
 70
    32
  0
VERTEX
  8
1850LEVEL
 62
7
 10
1779.720
 20
-3165.744
 30
3377.000
 70
    32
  0
VERTEX
  8
1850LEVEL
 62
7
 10
1783.537
 20
-3173.646
 30
3377.000
 70
    32
  0
VERTEX
  8
1850LEVEL
 62
7
 10
1787.923
 20
-3177.853
 30
3377.000
 70
    32
  0
VERTEX
  8
1850LEVEL
 62
7
 10
1792.155
 20
-3180.502
 30
3377.000
 70
    32
  0
VERTEX
  8
1850LEVEL
 62
7
 10
1797.870
 20
-3183.485
 30
3377.000
 70
    32
  0
VERTEX
  8
1850LEVEL
 62
7
 10
1805.095
 20
-3186.166
 30
3377.000
 70
    32
  0
VERTEX
  8
1850LEVEL
 62
7
 10
1814.187
 20
-3189.704
 30
3377.000
 70
    32
  0
VERTEX
  8
1850LEVEL
 62
7
 10
1821.176
 20
-3193.918
 30
3377.000
 70
    32
  0
VERTEX
  8
1850LEVEL
 62
7
 10
1830.265
 20
-3197.706
 30
3377.000
 70
    32
  0
VERTEX
  8
1850LEVEL
 62
7
 10
1836.861
 20
-3196.579
 30
3377.000
 70
    32
  0
VERTEX
  8
1850LEVEL
 62
7
 10
1842.171
 20
-3193.612
 30
3377.000
 70
    32
  0
VERTEX
  8
1850LEVEL
 62
7
 10
1847.842
 20
-3191.307
 30
3377.000
 70
    32
  0
VERTEX
  8
1850LEVEL
 62
7
 10
1854.244
 20
-3192.612
 30
3377.000
 70
    32
  0
VERTEX
  8
1850LEVEL
 62
7
 10
1862.943
 20
-3195.448
 30
3377.000
 70
    32
  0
VERTEX
  8
1850LEVEL
 62
7
 10
1871.815
 20
-3199.023
 30
3377.000
 70
    32
  0
VERTEX
  8
1850LEVEL
 62
7
 10
1878.176
 20
-3199.430
 30
3377.000
 70
    32
  0
VERTEX
  8
1850LEVEL
 62
7
 10
1884.642
 20
-3200.316
 30
3377.000
 70
    32
  0
VERTEX
  8
1850LEVEL
 62
7
 10
1888.804
 20
-3201.099
 30
3377.000
 70
    32
  0
VERTEX
  8
1850LEVEL
 62
7
 10
1893.990
 20
-3200.326
 30
3377.000
 70
    32
  0
VERTEX
  8
1850LEVEL
 62
7
 10
1899.137
 20
-3200.510
 30
3377.000
 70
    32
  0
VERTEX
  8
1850LEVEL
 62
7
 10
1905.245
 20
-3196.524
 30
3377.000
 70
    32
  0
VERTEX
  8
1850LEVEL
 62
7
 10
1909.799
 20
-3187.553
 30
3377.000
 70
    32
  0
VERTEX
  8
1850LEVEL
 62
7
 10
1911.144
 20
-3180.194
 30
3377.000
 70
    32
  0
VERTEX
  8
1850LEVEL
 62
7
 10
1913.286
 20
-3172.993
 30
3377.000
 70
    32
  0
VERTEX
  8
1850LEVEL
 62
7
 10
1916.909
 20
-3173.799
 30
3377.000
 70
    32
  0
VERTEX
  8
1850LEVEL
 62
7
 10
1921.300
 20
-3178.435
 30
3377.000
 70
    32
  0
VERTEX
  8
1850LEVEL
 62
7
 10
1925.710
 20
-3185.965
 30
3377.000
 70
    32
  0
VERTEX
  8
1850LEVEL
 62
7
 10
1929.819
 20
-3193.591
 30
3377.000
 70
    32
  0
VERTEX
  8
1850LEVEL
 62
7
 10
1933.861
 20
-3198.173
 30
3377.000
 70
    32
  0
VERTEX
  8
1850LEVEL
 62
7
 10
1941.929
 20
-3206.051
 30
3377.000
 70
    32
  0
VERTEX
  8
1850LEVEL
 62
7
 10
1951.788
 20
-3210.634
 30
3377.000
 70
    32
  0
VERTEX
  8
1850LEVEL
 62
7
 10
1961.271
 20
-3211.164
 30
3377.000
 70
    32
  0
VERTEX
  8
1850LEVEL
 62
7
 10
1971.587
 20
-3212.071
 30
3377.000
 70
    32
  0
VERTEX
  8
1850LEVEL
 62
7
 10
1977.495
 20
-3213.800
 30
3377.000
 70
    32
  0
VERTEX
  8
1850LEVEL
 62
7
 10
1986.188
 20
-3219.239
 30
3377.000
 70
    32
  0
VERTEX
  8
1850LEVEL
 62
7
 10
1993.268
 20
-3222.397
 30
3377.000
 70
    32
  0
VERTEX
  8
1850LEVEL
 62
7
 10
1998.870
 20
-3222.865
 30
3377.000
 70
    32
  0
VERTEX
  8
1850LEVEL
 62
7
 10
2003.963
 20
-3224.326
 30
3377.000
 70
    32
  0
VERTEX
  8
1850LEVEL
 62
7
 10
2009.515
 20
-3229.533
 30
3377.000
 70
    32
  0
VERTEX
  8
1850LEVEL
 62
7
 10
2014.910
 20
-3238.320
 30
3377.000
 70
    32
  0
VERTEX
  8
1850LEVEL
 62
7
 10
2018.194
 20
-3247.603
 30
3377.000
 70
    32
  0
VERTEX
  8
1850LEVEL
 62
7
 10
2021.343
 20
-3254.511
 30
3377.000
 70
    32
  0
VERTEX
  8
1850LEVEL
 62
7
 10
2026.668
 20
-3264.215
 30
3377.000
 70
    32
  0
VERTEX
  8
1850LEVEL
 62
7
 10
2034.130
 20
-3270.929
 30
3377.000
 70
    32
  0
VERTEX
  8
1850LEVEL
 62
7
 10
2044.863
 20
-3274.933
 30
3377.000
 70
    32
  0
VERTEX
  8
1850LEVEL
 62
7
 10
2052.288
 20
-3275.610
 30
3377.000
 70
    32
  0
VERTEX
  8
1850LEVEL
 62
7
 10
2059.062
 20
-3274.724
 30
3377.000
 70
    32
  0
VERTEX
  8
1850LEVEL
 62
7
 10
2062.508
 20
-3272.506
 30
3377.000
 70
    32
  0
VERTEX
  8
1850LEVEL
 62
7
 10
2061.086
 20
-3270.146
 30
3377.000
 70
    32
  0
VERTEX
  8
1850LEVEL
 62
7
 10
2057.985
 20
-3265.245
 30
3377.000
 70
    32
  0
VERTEX
  8
1850LEVEL
 62
7
 10
2053.594
 20
-3257.825
 30
3377.000
 70
    32
  0
VERTEX
  8
1850LEVEL
 62
7
 10
2047.631
 20
-3250.878
 30
3377.000
 70
    32
  0
VERTEX
  8
1850LEVEL
 62
7
 10
2043.313
 20
-3247.859
 30
3377.000
 70
    32
  0
VERTEX
  8
1850LEVEL
 62
7
 10
2036.367
 20
-3245.221
 30
3377.000
 70
    32
  0
VERTEX
  8
1850LEVEL
 62
7
 10
2030.443
 20
-3242.206
 30
3377.000
 70
    32
  0
VERTEX
  8
1850LEVEL
 62
7
 10
2025.523
 20
-3235.669
 30
3377.000
 70
    32
  0
VERTEX
  8
1850LEVEL
 62
7
 10
2021.920
 20
-3227.300
 30
3377.000
 70
    32
  0
VERTEX
  8
1850LEVEL
 62
7
 10
2020.077
 20
-3222.341
 30
3377.000
 70
    32
  0
VERTEX
  8
1850LEVEL
 62
7
 10
2016.938
 20
-3216.292
 30
3377.000
 70
    32
  0
VERTEX
  8
1850LEVEL
 62
7
 10
2012.052
 20
-3213.257
 30
3377.000
 70
    32
  0
VERTEX
  8
1850LEVEL
 62
7
 10
2004.355
 20
-3209.005
 30
3377.000
 70
    32
  0
VERTEX
  8
1850LEVEL
 62
7
 10
1998.132
 20
-3203.981
 30
3377.000
 70
    32
  0
VERTEX
  8
1850LEVEL
 62
7
 10
1988.629
 20
-3194.991
 30
3377.000
 70
    32
  0
VERTEX
  8
1850LEVEL
 62
7
 10
1984.074
 20
-3187.011
 30
3377.000
 70
    32
  0
VERTEX
  8
1850LEVEL
 62
7
 10
1974.496
 20
-3175.725
 30
3377.000
 70
    32
  0
VERTEX
  8
1850LEVEL
 62
7
 10
1970.685
 20
-3175.675
 30
3377.000
 70
    32
  0
VERTEX
  8
1850LEVEL
 62
7
 10
1967.768
 20
-3178.867
 30
3377.000
 70
    32
  0
VERTEX
  8
1850LEVEL
 62
7
 10
1966.149
 20
-3183.828
 30
3377.000
 70
    32
  0
VERTEX
  8
1850LEVEL
 62
7
 10
1965.118
 20
-3188.916
 30
3377.000
 70
    32
  0
VERTEX
  8
1850LEVEL
 62
7
 10
1963.161
 20
-3195.610
 30
3377.000
 70
    32
  0
VERTEX
  8
1850LEVEL
 62
7
 10
1959.826
 20
-3197.809
 30
3377.000
 70
    32
  0
VERTEX
  8
1850LEVEL
 62
7
 10
1955.052
 20
-3197.290
 30
3377.000
 70
    32
  0
VERTEX
  8
1850LEVEL
 62
7
 10
1948.401
 20
-3194.127
 30
3377.000
 70
    32
  0
VERTEX
  8
1850LEVEL
 62
7
 10
1945.011
 20
-3193.891
 30
3377.000
 70
    32
  0
VERTEX
  8
1850LEVEL
 62
7
 10
1940.725
 20
-3191.591
 30
3377.000
 70
    32
  0
VERTEX
  8
1850LEVEL
 62
7
 10
1936.909
 20
-3186.472
 30
3377.000
 70
    32
  0
VERTEX
  8
1850LEVEL
 62
7
 10
1933.958
 20
-3180.595
 30
3377.000
 70
    32
  0
VERTEX
  8
1850LEVEL
 62
7
 10
1931.425
 20
-3172.925
 30
3377.000
 70
    32
  0
VERTEX
  8
1850LEVEL
 62
7
 10
1930.149
 20
-3164.272
 30
3377.000
 70
    32
  0
VERTEX
  8
1850LEVEL
 62
7
 10
1930.086
 20
-3155.162
 30
3377.000
 70
    32
  0
VERTEX
  8
1850LEVEL
 62
7
 10
1929.634
 20
-3147.884
 30
3377.000
 70
    32
  0
VERTEX
  8
1850LEVEL
 62
7
 10
1928.482
 20
-3139.820
 30
3377.000
 70
    32
  0
VERTEX
  8
1850LEVEL
 62
7
 10
1926.856
 20
-3130.435
 30
3377.000
 70
    32
  0
VERTEX
  8
1850LEVEL
 62
7
 10
1924.459
 20
-3122.108
 30
3377.000
 70
    32
  0
VERTEX
  8
1850LEVEL
 62
7
 10
1922.530
 20
-3114.924
 30
3377.000
 70
    32
  0
VERTEX
  8
1850LEVEL
 62
7
 10
1920.303
 20
-3107.588
 30
3377.000
 70
    32
  0
VERTEX
  8
1850LEVEL
 62
7
 10
1916.965
 20
-3099.581
 30
3377.000
 70
    32
  0
VERTEX
  8
1850LEVEL
 62
7
 10
1913.424
 20
-3090.115
 30
3377.000
 70
    32
  0
VERTEX
  8
1850LEVEL
 62
7
 10
1911.036
 20
-3081.041
 30
3377.000
 70
    32
  0
VERTEX
  8
1850LEVEL
 62
7
 10
1910.463
 20
-3075.707
 30
3377.000
 70
    32
  0
VERTEX
  8
1850LEVEL
 62
7
 10
1908.864
 20
-3069.394
 30
3377.000
 70
    32
  0
VERTEX
  8
1850LEVEL
 62
7
 10
1905.500
 20
-3062.954
 30
3377.000
 70
    32
  0
VERTEX
  8
1850LEVEL
 62
7
 10
1902.203
 20
-3056.773
 30
3377.000
 70
    32
  0
VERTEX
  8
1850LEVEL
 62
7
 10
1902.618
 20
-3054.303
 30
3377.000
 70
    32
  0
VERTEX
  8
1850LEVEL
 62
7
 10
1906.274
 20
-3054.900
 30
3377.000
 70
    32
  0
VERTEX
  8
1850LEVEL
 62
7
 10
1909.138
 20
-3056.696
 30
3377.000
 70
    32
  0
VERTEX
  8
1850LEVEL
 62
7
 10
1913.759
 20
-3059.369
 30
3377.000
 70
    32
  0
VERTEX
  8
1850LEVEL
 62
7
 10
1917.785
 20
-3061.737
 30
3377.000
 70
    32
  0
VERTEX
  8
1850LEVEL
 62
7
 10
1922.853
 20
-3063.586
 30
3377.000
 70
    32
  0
VERTEX
  8
1850LEVEL
 62
7
 10
1929.681
 20
-3066.063
 30
3377.000
 70
    32
  0
VERTEX
  8
1850LEVEL
 62
7
 10
1937.105
 20
-3068.845
 30
3377.000
 70
    32
  0
VERTEX
  8
1850LEVEL
 62
7
 10
1944.507
 20
-3071.767
 30
3377.000
 70
    32
  0
VERTEX
  8
1850LEVEL
 62
7
 10
1952.271
 20
-3075.351
 30
3377.000
 70
    32
  0
VERTEX
  8
1850LEVEL
 62
7
 10
1957.171
 20
-3078.066
 30
3377.000
 70
    32
  0
VERTEX
  8
1850LEVEL
 62
7
 10
1964.029
 20
-3082.439
 30
3377.000
 70
    32
  0
VERTEX
  8
1850LEVEL
 62
7
 10
1973.027
 20
-3090.067
 30
3377.000
 70
    32
  0
VERTEX
  8
1850LEVEL
 62
7
 10
1982.112
 20
-3098.065
 30
3377.000
 70
    32
  0
VERTEX
  8
1850LEVEL
 62
7
 10
1990.834
 20
-3107.256
 30
3377.000
 70
    32
  0
VERTEX
  8
1850LEVEL
 62
7
 10
1995.936
 20
-3115.392
 30
3377.000
 70
    32
  0
VERTEX
  8
1850LEVEL
 62
7
 10
2000.121
 20
-3124.385
 30
3377.000
 70
    32
  0
VERTEX
  8
1850LEVEL
 62
7
 10
2004.956
 20
-3135.192
 30
3377.000
 70
    32
  0
VERTEX
  8
1850LEVEL
 62
7
 10
2008.749
 20
-3144.411
 30
3377.000
 70
    32
  0
VERTEX
  8
1850LEVEL
 62
7
 10
2012.132
 20
-3150.961
 30
3377.000
 70
    32
  0
VERTEX
  8
1850LEVEL
 62
7
 10
2019.174
 20
-3163.427
 30
3377.000
 70
    32
  0
VERTEX
  8
1850LEVEL
 62
7
 10
2022.982
 20
-3165.583
 30
3377.000
 70
    32
  0
VERTEX
  8
1850LEVEL
 62
7
 10
2025.596
 20
-3163.665
 30
3377.000
 70
    32
  0
VERTEX
  8
1850LEVEL
 62
7
 10
2027.162
 20
-3160.908
 30
3377.000
 70
    32
  0
VERTEX
  8
1850LEVEL
 62
7
 10
2028.304
 20
-3160.441
 30
3377.000
 70
    32
  0
VERTEX
  8
1850LEVEL
 62
7
 10
2031.523
 20
-3161.792
 30
3377.000
 70
    32
  0
VERTEX
  8
1850LEVEL
 62
7
 10
2033.936
 20
-3163.733
 30
3377.000
 70
    32
  0
VERTEX
  8
1850LEVEL
 62
7
 10
2035.718
 20
-3167.004
 30
3377.000
 70
    32
  0
VERTEX
  8
1850LEVEL
 62
7
 10
2038.569
 20
-3171.903
 30
3377.000
 70
    32
  0
VERTEX
  8
1850LEVEL
 62
7
 10
2042.359
 20
-3176.733
 30
3377.000
 70
    32
  0
VERTEX
  8
1850LEVEL
 62
7
 10
2046.984
 20
-3182.867
 30
3377.000
 70
    32
  0
VERTEX
  8
1850LEVEL
 62
7
 10
2052.488
 20
-3189.780
 30
3377.000
 70
    32
  0
VERTEX
  8
1850LEVEL
 62
7
 10
2060.725
 20
-3197.719
 30
3377.000
 70
    32
  0
VERTEX
  8
1850LEVEL
 62
7
 10
2069.546
 20
-3206.961
 30
3377.000
 70
    32
  0
VERTEX
  8
1850LEVEL
 62
7
 10
2077.885
 20
-3215.630
 30
3377.000
 70
    32
  0
VERTEX
  8
1850LEVEL
 62
7
 10
2083.880
 20
-3221.440
 30
3377.000
 70
    32
  0
VERTEX
  8
1850LEVEL
 62
7
 10
2089.920
 20
-3227.650
 30
3377.000
 70
    32
  0
VERTEX
  8
1850LEVEL
 62
7
 10
2095.786
 20
-3233.369
 30
3377.000
 70
    32
  0
VERTEX
  8
1850LEVEL
 62
7
 10
2099.798
 20
-3236.983
 30
3377.000
 70
    32
  0
VERTEX
  8
1850LEVEL
 62
7
 10
2106.171
 20
-3242.887
 30
3377.000
 70
    32
  0
VERTEX
  8
1850LEVEL
 62
7
 10
2112.686
 20
-3249.491
 30
3377.000
 70
    32
  0
VERTEX
  8
1850LEVEL
 62
7
 10
2118.957
 20
-3255.593
 30
3377.000
 70
    32
  0
VERTEX
  8
1850LEVEL
 62
7
 10
2122.468
 20
-3259.451
 30
3377.000
 70
    32
  0
VERTEX
  8
1850LEVEL
 62
7
 10
2130.094
 20
-3267.653
 30
3377.000
 70
    32
  0
VERTEX
  8
1850LEVEL
 62
7
 10
2133.870
 20
-3271.874
 30
3377.000
 70
    32
  0
VERTEX
  8
1850LEVEL
 62
7
 10
2142.732
 20
-3278.303
 30
3377.000
 70
    32
  0
VERTEX
  8
1850LEVEL
 62
7
 10
2151.175
 20
-3285.596
 30
3377.000
 70
    32
  0
VERTEX
  8
1850LEVEL
 62
7
 10
2158.521
 20
-3292.827
 30
3377.000
 70
    32
  0
VERTEX
  8
1850LEVEL
 62
7
 10
2164.361
 20
-3299.184
 30
3377.000
 70
    32
  0
VERTEX
  8
1850LEVEL
 62
7
 10
2170.211
 20
-3307.327
 30
3377.000
 70
    32
  0
VERTEX
  8
1850LEVEL
 62
7
 10
2174.752
 20
-3313.771
 30
3377.000
 70
    32
  0
VERTEX
  8
1850LEVEL
 62
7
 10
2180.168
 20
-3321.490
 30
3377.000
 70
    32
  0
VERTEX
  8
1850LEVEL
 62
7
 10
2185.321
 20
-3330.454
 30
3377.000
 70
    32
  0
VERTEX
  8
1850LEVEL
 62
7
 10
2190.289
 20
-3340.853
 30
3377.000
 70
    32
  0
VERTEX
  8
1850LEVEL
 62
7
 10
2194.459
 20
-3351.343
 30
3377.000
 70
    32
  0
VERTEX
  8
1850LEVEL
 62
7
 10
2198.255
 20
-3361.241
 30
3377.000
 70
    32
  0
VERTEX
  8
1850LEVEL
 62
7
 10
2202.277
 20
-3371.530
 30
3377.000
 70
    32
  0
VERTEX
  8
1850LEVEL
 62
7
 10
2207.905
 20
-3382.743
 30
3377.000
 70
    32
  0
VERTEX
  8
1850LEVEL
 62
7
 10
2213.519
 20
-3391.493
 30
3377.000
 70
    32
  0
VERTEX
  8
1850LEVEL
 62
7
 10
2220.643
 20
-3399.011
 30
3377.000
 70
    32
  0
VERTEX
  8
1850LEVEL
 62
7
 10
2224.046
 20
-3399.855
 30
3377.000
 70
    32
  0
VERTEX
  8
1850LEVEL
 62
7
 10
2226.374
 20
-3399.571
 30
3377.000
 70
    32
  0
VERTEX
  8
1850LEVEL
 62
7
 10
2231.212
 20
-3402.455
 30
3377.000
 70
    32
  0
VERTEX
  8
1850LEVEL
 62
7
 10
2234.672
 20
-3404.557
 30
3377.000
 70
    32
  0
VERTEX
  8
1850LEVEL
 62
7
 10
2236.002
 20
-3404.262
 30
3377.000
 70
    32
  0
VERTEX
  8
1850LEVEL
 62
7
 10
2237.882
 20
-3402.945
 30
3377.000
 70
    32
  0
VERTEX
  8
1850LEVEL
 62
7
 10
2241.542
 20
-3400.260
 30
3377.000
 70
    32
  0
VERTEX
  8
1850LEVEL
 62
7
 10
2245.996
 20
-3399.838
 30
3377.000
 70
    32
  0
VERTEX
  8
1850LEVEL
 62
7
 10
2248.798
 20
-3398.092
 30
3377.000
 70
    32
  0
VERTEX
  8
1850LEVEL
 62
7
 10
2254.099
 20
-3394.945
 30
3377.000
 70
    32
  0
VERTEX
  8
1850LEVEL
 62
7
 10
2257.969
 20
-3397.859
 30
3377.000
 70
    32
  0
VERTEX
  8
1850LEVEL
 62
7
 10
2260.531
 20
-3403.713
 30
3377.000
 70
    32
  0
VERTEX
  8
1850LEVEL
 62
7
 10
2263.453
 20
-3412.334
 30
3377.000
 70
    32
  0
VERTEX
  8
1850LEVEL
 62
7
 10
2271.083
 20
-3427.710
 30
3377.000
 70
    32
  0
VERTEX
  8
1850LEVEL
 62
7
 10
2277.478
 20
-3439.969
 30
3377.000
 70
    32
  0
VERTEX
  8
1850LEVEL
 62
7
 10
2287.228
 20
-3452.923
 30
3377.000
 70
    32
  0
VERTEX
  8
1850LEVEL
 62
7
 10
2296.914
 20
-3466.295
 30
3377.000
 70
    32
  0
VERTEX
  8
1850LEVEL
 62
7
 10
2308.816
 20
-3482.434
 30
3377.000
 70
    32
  0
VERTEX
  8
1850LEVEL
 62
7
 10
2324.622
 20
-3497.317
 30
3377.000
 70
    32
  0
VERTEX
  8
1850LEVEL
 62
7
 10
2335.989
 20
-3507.414
 30
3377.000
 70
    32
  0
VERTEX
  8
1850LEVEL
 62
7
 10
2345.204
 20
-3515.254
 30
3377.000
 70
    32
  0
VERTEX
  8
1850LEVEL
 62
7
 10
2343.578
 20
-3513.871
 30
3377.000
 70
    32
  0
VERTEX
  8
1850LEVEL
 62
7
 10
2371.701
 20
-3547.282
 30
3377.000
 70
    32
  0
VERTEX
  8
1850LEVEL
 62
7
 10
2366.576
 20
-3541.190
 30
3377.000
 70
    32
  0
VERTEX
  8
1850LEVEL
 62
7
 10
2416.453
 20
-3600.472
 30
3377.000
 70
    32
  0
VERTEX
  8
1850LEVEL
 62
7
 10
2468.860
 20
-3676.599
 30
3377.000
 70
    32
  0
VERTEX
  8
1850LEVEL
 62
7
 10
2533.895
 20
-3752.787
 30
3377.000
 70
    32
  0
VERTEX
  8
1850LEVEL
 62
7
 10
2569.804
 20
-3772.610
 30
3377.000
 70
    32
  0
VERTEX
  8
1850LEVEL
 62
7
 10
2556.847
 20
-3748.483
 30
3377.000
 70
    32
  0
VERTEX
  8
1850LEVEL
 62
7
 10
2497.529
 20
-3659.084
 30
3377.000
 70
    32
  0
VERTEX
  8
1850LEVEL
 62
7
 10
2457.790
 20
-3535.251
 30
3377.000
 70
    32
  0
VERTEX
  8
1850LEVEL
 62
7
 10
2427.006
 20
-3447.387
 30
3377.000
 70
    32
  0
VERTEX
  8
1850LEVEL
 62
7
 10
2430.713
 20
-3453.453
 30
3377.000
 70
    32
  0
VERTEX
  8
1850LEVEL
 62
7
 10
2427.006
 20
-3447.387
 30
3377.000
 70
    32
  0
VERTEX
  8
1850LEVEL
 62
7
 10
2423.290
 20
-3442.070
 30
3377.000
 70
    32
  0
VERTEX
  8
1850LEVEL
 62
7
 10
2421.080
 20
-3438.804
 30
3377.000
 70
    32
  0
VERTEX
  8
1850LEVEL
 62
7
 10
2414.224
 20
-3430.471
 30
3377.000
 70
    32
  0
VERTEX
  8
1850LEVEL
 62
7
 10
2406.907
 20
-3421.424
 30
3377.000
 70
    32
  0
VERTEX
  8
1850LEVEL
 62
7
 10
2396.650
 20
-3407.358
 30
3377.000
 70
    32
  0
VERTEX
  8
1850LEVEL
 62
7
 10
2388.091
 20
-3396.871
 30
3377.000
 70
    32
  0
VERTEX
  8
1850LEVEL
 62
7
 10
2382.962
 20
-3390.302
 30
3377.000
 70
    32
  0
VERTEX
  8
1850LEVEL
 62
7
 10
2375.565
 20
-3383.170
 30
3377.000
 70
    32
  0
VERTEX
  8
1850LEVEL
 62
7
 10
2368.012
 20
-3379.368
 30
3377.000
 70
    32
  0
VERTEX
  8
1850LEVEL
 62
7
 10
2357.411
 20
-3376.133
 30
3377.000
 70
    32
  0
VERTEX
  8
1850LEVEL
 62
7
 10
2345.388
 20
-3373.322
 30
3377.000
 70
    32
  0
VERTEX
  8
1850LEVEL
 62
7
 10
2331.020
 20
-3371.614
 30
3377.000
 70
    32
  0
VERTEX
  8
1850LEVEL
 62
7
 10
2313.846
 20
-3371.901
 30
3377.000
 70
    32
  0
VERTEX
  8
1850LEVEL
 62
7
 10
2298.721
 20
-3371.861
 30
3377.000
 70
    32
  0
VERTEX
  8
1850LEVEL
 62
7
 10
2286.600
 20
-3374.566
 30
3377.000
 70
    32
  0
VERTEX
  8
1850LEVEL
 62
7
 10
2280.910
 20
-3377.689
 30
3377.000
 70
    32
  0
VERTEX
  8
1850LEVEL
 62
7
 10
2274.759
 20
-3381.954
 30
3377.000
 70
    32
  0
VERTEX
  8
1850LEVEL
 62
7
 10
2269.069
 20
-3383.221
 30
3377.000
 70
    32
  0
VERTEX
  8
1850LEVEL
 62
7
 10
2264.816
 20
-3382.567
 30
3377.000
 70
    32
  0
VERTEX
  8
1850LEVEL
 62
7
 10
2262.734
 20
-3379.392
 30
3377.000
 70
    32
  0
VERTEX
  8
1850LEVEL
 62
7
 10
2261.832
 20
-3374.115
 30
3377.000
 70
    32
  0
VERTEX
  8
1850LEVEL
 62
7
 10
2261.029
 20
-3367.033
 30
3377.000
 70
    32
  0
VERTEX
  8
1850LEVEL
 62
7
 10
2260.574
 20
-3359.076
 30
3377.000
 70
    32
  0
VERTEX
  8
1850LEVEL
 62
7
 10
2259.557
 20
-3351.533
 30
3377.000
 70
    32
  0
VERTEX
  8
1850LEVEL
 62
7
 10
2257.426
 20
-3344.496
 30
3377.000
 70
    32
  0
VERTEX
  8
1850LEVEL
 62
7
 10
2255.372
 20
-3341.611
 30
3377.000
 70
    32
  0
VERTEX
  8
1850LEVEL
 62
7
 10
2254.106
 20
-3343.344
 30
3377.000
 70
    32
  0
VERTEX
  8
1850LEVEL
 62
7
 10
2254.238
 20
-3346.897
 30
3377.000
 70
    32
  0
VERTEX
  8
1850LEVEL
 62
7
 10
2254.668
 20
-3352.459
 30
3377.000
 70
    32
  0
VERTEX
  8
1850LEVEL
 62
7
 10
2255.471
 20
-3358.613
 30
3377.000
 70
    32
  0
VERTEX
  8
1850LEVEL
 62
7
 10
2255.904
 20
-3363.926
 30
3377.000
 70
    32
  0
VERTEX
  8
1850LEVEL
 62
7
 10
2255.663
 20
-3367.814
 30
3377.000
 70
    32
  0
VERTEX
  8
1850LEVEL
 62
7
 10
2253.979
 20
-3368.555
 30
3377.000
 70
    32
  0
VERTEX
  8
1850LEVEL
 62
7
 10
2252.710
 20
-3365.897
 30
3377.000
 70
    32
  0
VERTEX
  8
1850LEVEL
 62
7
 10
2252.026
 20
-3360.832
 30
3377.000
 70
    32
  0
VERTEX
  8
1850LEVEL
 62
7
 10
2250.820
 20
-3354.972
 30
3377.000
 70
    32
  0
VERTEX
  8
1850LEVEL
 62
7
 10
2249.294
 20
-3350.277
 30
3377.000
 70
    32
  0
VERTEX
  8
1850LEVEL
 62
7
 10
2245.751
 20
-3348.483
 30
3377.000
 70
    32
  0
VERTEX
  8
1850LEVEL
 62
7
 10
2243.407
 20
-3348.409
 30
3377.000
 70
    32
  0
VERTEX
  8
1850LEVEL
 62
7
 10
2241.696
 20
-3347.004
 30
3377.000
 70
    32
  0
VERTEX
  8
1850LEVEL
 62
7
 10
2241.778
 20
-3342.984
 30
3377.000
 70
    32
  0
VERTEX
  8
1850LEVEL
 62
7
 10
2241.158
 20
-3340.284
 30
3377.000
 70
    32
  0
VERTEX
  8
1850LEVEL
 62
7
 10
2240.543
 20
-3333.373
 30
3377.000
 70
    32
  0
VERTEX
  8
1850LEVEL
 62
7
 10
2240.499
 20
-3329.013
 30
3377.000
 70
    32
  0
VERTEX
  8
1850LEVEL
 62
7
 10
2239.026
 20
-3323.969
 30
3377.000
 70
    32
  0
VERTEX
  8
1850LEVEL
 62
7
 10
2236.593
 20
-3320.990
 30
3377.000
 70
    32
  0
VERTEX
  8
1850LEVEL
 62
7
 10
2232.308
 20
-3319.617
 30
3377.000
 70
    32
  0
VERTEX
  8
1850LEVEL
 62
7
 10
2226.494
 20
-3319.366
 30
3377.000
 70
    32
  0
VERTEX
  8
1850LEVEL
 62
7
 10
2224.700
 20
-3318.270
 30
3377.000
 70
    32
  0
VERTEX
  8
1850LEVEL
 62
7
 10
2222.913
 20
-3315.497
 30
3377.000
 70
    32
  0
VERTEX
  8
1850LEVEL
 62
7
 10
2220.920
 20
-3311.515
 30
3377.000
 70
    32
  0
VERTEX
  8
1850LEVEL
 62
7
 10
2215.998
 20
-3306.155
 30
3377.000
 70
    32
  0
VERTEX
  8
1850LEVEL
 62
7
 10
2210.449
 20
-3300.699
 30
3377.000
 70
    32
  0
VERTEX
  8
1850LEVEL
 62
7
 10
2203.729
 20
-3292.636
 30
3377.000
 70
    32
  0
VERTEX
  8
1850LEVEL
 62
7
 10
2193.220
 20
-3278.817
 30
3377.000
 70
    32
  0
VERTEX
  8
1850LEVEL
 62
7
 10
2184.471
 20
-3268.408
 30
3377.000
 70
    32
  0
VERTEX
  8
1850LEVEL
 62
7
 10
2176.199
 20
-3259.072
 30
3377.000
 70
    32
  0
VERTEX
  8
1850LEVEL
 62
7
 10
2166.564
 20
-3250.240
 30
3377.000
 70
    32
  0
VERTEX
  8
1850LEVEL
 62
7
 10
2159.069
 20
-3249.552
 30
3377.000
 70
    32
  0
VERTEX
  8
1850LEVEL
 62
7
 10
2154.237
 20
-3253.592
 30
3377.000
 70
    32
  0
VERTEX
  8
1850LEVEL
 62
7
 10
2149.403
 20
-3257.881
 30
3377.000
 70
    32
  0
VERTEX
  8
1850LEVEL
 62
7
 10
2143.431
 20
-3260.282
 30
3377.000
 70
    32
  0
VERTEX
  8
1850LEVEL
 62
7
 10
2140.374
 20
-3259.741
 30
3377.000
 70
    32
  0
VERTEX
  8
1850LEVEL
 62
7
 10
2134.857
 20
-3256.859
 30
3377.000
 70
    32
  0
VERTEX
  8
1850LEVEL
 62
7
 10
2131.349
 20
-3252.751
 30
3377.000
 70
    32
  0
VERTEX
  8
1850LEVEL
 62
7
 10
2125.059
 20
-3244.683
 30
3377.000
 70
    32
  0
VERTEX
  8
1850LEVEL
 62
7
 10
2118.949
 20
-3237.535
 30
3377.000
 70
    32
  0
VERTEX
  8
1850LEVEL
 62
7
 10
2109.373
 20
-3228.783
 30
3377.000
 70
    32
  0
VERTEX
  8
1850LEVEL
 62
7
 10
2104.894
 20
-3224.027
 30
3377.000
 70
    32
  0
VERTEX
  8
1850LEVEL
 62
7
 10
2098.891
 20
-3218.037
 30
3377.000
 70
    32
  0
VERTEX
  8
1850LEVEL
 62
7
 10
2091.674
 20
-3211.825
 30
3377.000
 70
    32
  0
VERTEX
  8
1850LEVEL
 62
7
 10
2085.076
 20
-3205.529
 30
3377.000
 70
    32
  0
VERTEX
  8
1850LEVEL
 62
7
 10
2075.471
 20
-3195.810
 30
3377.000
 70
    32
  0
VERTEX
  8
1850LEVEL
 62
7
 10
2068.562
 20
-3188.753
 30
3377.000
 70
    32
  0
VERTEX
  8
1850LEVEL
 62
7
 10
2059.321
 20
-3179.446
 30
3377.000
 70
    32
  0
VERTEX
  8
1850LEVEL
 62
7
 10
2051.009
 20
-3170.139
 30
3377.000
 70
    32
  0
VERTEX
  8
1850LEVEL
 62
7
 10
2042.037
 20
-3159.090
 30
3377.000
 70
    32
  0
VERTEX
  8
1850LEVEL
 62
7
 10
2035.573
 20
-3152.387
 30
3377.000
 70
    32
  0
VERTEX
  8
1850LEVEL
 62
7
 10
2030.093
 20
-3147.869
 30
3377.000
 70
    32
  0
VERTEX
  8
1850LEVEL
 62
7
 10
2024.402
 20
-3144.496
 30
3377.000
 70
    32
  0
VERTEX
  8
1850LEVEL
 62
7
 10
2019.264
 20
-3142.636
 30
3377.000
 70
    32
  0
VERTEX
  8
1850LEVEL
 62
7
 10
2015.831
 20
-3140.824
 30
3377.000
 70
    32
  0
VERTEX
  8
1850LEVEL
 62
7
 10
2012.872
 20
-3136.622
 30
3377.000
 70
    32
  0
VERTEX
  8
1850LEVEL
 62
7
 10
2008.781
 20
-3129.106
 30
3377.000
 70
    32
  0
VERTEX
  8
1850LEVEL
 62
7
 10
2005.661
 20
-3123.167
 30
3377.000
 70
    32
  0
VERTEX
  8
1850LEVEL
 62
7
 10
2001.060
 20
-3111.076
 30
3377.000
 70
    32
  0
VERTEX
  8
1850LEVEL
 62
7
 10
1997.576
 20
-3105.651
 30
3377.000
 70
    32
  0
VERTEX
  8
1850LEVEL
 62
7
 10
1994.429
 20
-3102.206
 30
3377.000
 70
    32
  0
VERTEX
  8
1850LEVEL
 62
7
 10
1989.145
 20
-3095.256
 30
3377.000
 70
    32
  0
VERTEX
  8
1850LEVEL
 62
7
 10
1979.474
 20
-3088.060
 30
3377.000
 70
    32
  0
VERTEX
  8
1850LEVEL
 62
7
 10
1965.833
 20
-3076.043
 30
3377.000
 70
    32
  0
VERTEX
  8
1850LEVEL
 62
7
 10
1952.741
 20
-3063.932
 30
3377.000
 70
    32
  0
VERTEX
  8
1850LEVEL
 62
7
 10
1941.415
 20
-3056.589
 30
3377.000
 70
    32
  0
VERTEX
  8
1850LEVEL
 62
7
 10
1926.245
 20
-3046.621
 30
3377.000
 70
    32
  0
VERTEX
  8
1850LEVEL
 62
7
 10
1913.898
 20
-3039.656
 30
3377.000
 70
    32
  0
VERTEX
  8
1850LEVEL
 62
7
 10
1907.142
 20
-3035.085
 30
3377.000
 70
    32
  0
VERTEX
  8
1850LEVEL
 62
7
 10
1901.263
 20
-3031.541
 30
3377.000
 70
    32
  0
VERTEX
  8
1850LEVEL
 62
7
 10
1894.802
 20
-3028.300
 30
3377.000
 70
    32
  0
VERTEX
  8
1850LEVEL
 62
7
 10
1889.172
 20
-3024.758
 30
3377.000
 70
    32
  0
VERTEX
  8
1850LEVEL
 62
7
 10
1884.401
 20
-3022.134
 30
3377.000
 70
    32
  0
VERTEX
  8
1850LEVEL
 62
7
 10
1880.093
 20
-3016.262
 30
3377.000
 70
    32
  0
VERTEX
  8
1850LEVEL
 62
7
 10
1875.453
 20
-3011.623
 30
3377.000
 70
    32
  0
VERTEX
  8
1850LEVEL
 62
7
 10
1870.489
 20
-3006.542
 30
3377.000
 70
    32
  0
VERTEX
  8
1850LEVEL
 62
7
 10
1862.179
 20
-2998.842
 30
3377.000
 70
    32
  0
VERTEX
  8
1850LEVEL
 62
7
 10
1853.701
 20
-2990.152
 30
3377.000
 70
    32
  0
VERTEX
  8
1850LEVEL
 62
7
 10
1848.605
 20
-2986.157
 30
3377.000
 70
    32
  0
VERTEX
  8
1850LEVEL
 62
7
 10
1845.172
 20
-2986.201
 30
3377.000
 70
    32
  0
VERTEX
  8
1850LEVEL
 62
7
 10
1844.719
 20
-2987.523
 30
3377.000
 70
    32
  0
VERTEX
  8
1850LEVEL
 62
7
 10
1843.961
 20
-2989.440
 30
3377.000
 70
    32
  0
VERTEX
  8
1850LEVEL
 62
7
 10
1841.912
 20
-2990.696
 30
3377.000
 70
    32
  0
VERTEX
  8
1850LEVEL
 62
7
 10
1838.456
 20
-2992.056
 30
3377.000
 70
    32
  0
VERTEX
  8
1850LEVEL
 62
7
 10
1833.977
 20
-2992.867
 30
3377.000
 70
    32
  0
VERTEX
  8
1850LEVEL
 62
7
 10
1828.890
 20
-2992.763
 30
3377.000
 70
    32
  0
VERTEX
  8
1850LEVEL
 62
7
 10
1823.543
 20
-2991.798
 30
3377.000
 70
    32
  0
VERTEX
  8
1850LEVEL
 62
7
 10
1817.838
 20
-2989.673
 30
3377.000
 70
    32
  0
VERTEX
  8
1850LEVEL
 62
7
 10
1810.458
 20
-2984.756
 30
3377.000
 70
    32
  0
VERTEX
  8
1850LEVEL
 62
7
 10
1805.265
 20
-2981.389
 30
3377.000
 70
    32
  0
VERTEX
  8
1850LEVEL
 62
7
 10
1795.827
 20
-2972.908
 30
3377.000
 70
    32
  0
VERTEX
  8
1850LEVEL
 62
7
 10
1791.168
 20
-2969.087
 30
3377.000
 70
    32
  0
VERTEX
  8
1850LEVEL
 62
7
 10
1786.732
 20
-2965.908
 30
3377.000
 70
    32
  0
VERTEX
  8
1850LEVEL
 62
7
 10
1783.033
 20
-2963.734
 30
3377.000
 70
    32
  0
VERTEX
  8
1850LEVEL
 62
7
 10
1779.145
 20
-2962.565
 30
3377.000
 70
    32
  0
VERTEX
  8
1850LEVEL
 62
7
 10
1776.243
 20
-2962.405
 30
3377.000
 70
    32
  0
VERTEX
  8
1850LEVEL
 62
7
 10
1774.704
 20
-2962.668
 30
3377.000
 70
    32
  0
VERTEX
  8
1850LEVEL
 62
7
 10
1773.339
 20
-2962.494
 30
3377.000
 70
    32
  0
VERTEX
  8
1850LEVEL
 62
7
 10
1771.116
 20
-2961.403
 30
3377.000
 70
    32
  0
VERTEX
  8
1850LEVEL
 62
7
 10
1767.053
 20
-2959.743
 30
3377.000
 70
    32
  0
VERTEX
  8
1850LEVEL
 62
7
 10
1763.548
 20
-2960.026
 30
3377.000
 70
    32
  0
VERTEX
  8
1850LEVEL
 62
7
 10
1762.539
 20
-2961.013
 30
3377.000
 70
    32
  0
VERTEX
  8
1850LEVEL
 62
7
 10
1760.874
 20
-2962.791
 30
3377.000
 70
    32
  0
VERTEX
  8
1850LEVEL
 62
7
 10
1759.504
 20
-2964.971
 30
3377.000
 70
    32
  0
VERTEX
  8
1850LEVEL
 62
7
 10
1757.365
 20
-2969.139
 30
3377.000
 70
    32
  0
VERTEX
  8
1850LEVEL
 62
7
 10
1754.684
 20
-2971.725
 30
3377.000
 70
    32
  0
VERTEX
  8
1850LEVEL
 62
7
 10
1749.358
 20
-2973.404
 30
3377.000
 70
    32
  0
VERTEX
  8
1850LEVEL
 62
7
 10
1745.060
 20
-2973.279
 30
3377.000
 70
    32
  0
VERTEX
  8
1850LEVEL
 62
7
 10
1740.741
 20
-2969.332
 30
3377.000
 70
    32
  0
VERTEX
  8
1850LEVEL
 62
7
 10
1738.692
 20
-2967.804
 30
3377.000
 70
    32
  0
VERTEX
  8
1850LEVEL
 62
7
 10
1735.106
 20
-2965.362
 30
3377.000
 70
    32
  0
VERTEX
  8
1850LEVEL
 62
7
 10
1730.944
 20
-2961.796
 30
3377.000
 70
    32
  0
VERTEX
  8
1850LEVEL
 62
7
 10
1722.819
 20
-2951.733
 30
3377.000
 70
    32
  0
VERTEX
  8
1850LEVEL
 62
7
 10
1715.735
 20
-2942.329
 30
3377.000
 70
    32
  0
VERTEX
  8
1850LEVEL
 62
7
 10
1707.854
 20
-2930.912
 30
3377.000
 70
    32
  0
VERTEX
  8
1850LEVEL
 62
7
 10
1700.875
 20
-2920.133
 30
3377.000
 70
    32
  0
VERTEX
  8
1850LEVEL
 62
7
 10
1693.747
 20
-2909.153
 30
3377.000
 70
    32
  0
VERTEX
  8
1850LEVEL
 62
7
 10
1690.660
 20
-2903.004
 30
3377.000
 70
    32
  0
VERTEX
  8
1850LEVEL
 62
7
 10
1691.021
 20
-2898.099
 30
3377.000
 70
    32
  0
VERTEX
  8
1850LEVEL
 62
7
 10
1694.258
 20
-2899.560
 30
3377.000
 70
    32
  0
VERTEX
  8
1850LEVEL
 62
7
 10
1699.995
 20
-2906.116
 30
3377.000
 70
    32
  0
VERTEX
  8
1850LEVEL
 62
7
 10
1705.835
 20
-2913.401
 30
3377.000
 70
    32
  0
VERTEX
  8
1850LEVEL
 62
7
 10
1713.219
 20
-2922.708
 30
3377.000
 70
    32
  0
VERTEX
  8
1850LEVEL
 62
7
 10
1718.425
 20
-2927.612
 30
3377.000
 70
    32
  0
VERTEX
  8
1850LEVEL
 62
7
 10
1721.841
 20
-2927.209
 30
3377.000
 70
    32
  0
VERTEX
  8
1850LEVEL
 62
7
 10
1722.586
 20
-2923.755
 30
3377.000
 70
    32
  0
VERTEX
  8
1850LEVEL
 62
7
 10
1721.054
 20
-2918.630
 30
3377.000
 70
    32
  0
VERTEX
  8
1850LEVEL
 62
7
 10
1717.330
 20
-2909.422
 30
3377.000
 70
    32
  0
VERTEX
  8
1850LEVEL
 62
7
 10
1712.046
 20
-2899.688
 30
3377.000
 70
    32
  0
VERTEX
  8
1850LEVEL
 62
7
 10
1705.324
 20
-2890.019
 30
3377.000
 70
    32
  0
VERTEX
  8
1850LEVEL
 62
7
 10
1699.900
 20
-2883.048
 30
3377.000
 70
    32
  0
VERTEX
  8
1850LEVEL
 62
7
 10
1693.304
 20
-2872.792
 30
3377.000
 70
    32
  0
VERTEX
  8
1850LEVEL
 62
7
 10
1689.191
 20
-2861.704
 30
3377.000
 70
    32
  0
VERTEX
  8
1850LEVEL
 62
7
 10
1686.556
 20
-2852.377
 30
3377.000
 70
    32
  0
VERTEX
  8
1850LEVEL
 62
7
 10
1684.613
 20
-2845.512
 30
3377.000
 70
    32
  0
VERTEX
  8
1850LEVEL
 62
7
 10
1681.255
 20
-2843.212
 30
3377.000
 70
    32
  0
VERTEX
  8
1850LEVEL
 62
7
 10
1676.108
 20
-2840.244
 30
3377.000
 70
    32
  0
VERTEX
  8
1850LEVEL
 62
7
 10
1669.843
 20
-2834.571
 30
3377.000
 70
    32
  0
VERTEX
  8
1850LEVEL
 62
7
 10
1666.557
 20
-2828.320
 30
3377.000
 70
    32
  0
VERTEX
  8
1850LEVEL
 62
7
 10
1662.409
 20
-2818.619
 30
3377.000
 70
    32
  0
VERTEX
  8
1850LEVEL
 62
7
 10
1661.177
 20
-2809.686
 30
3377.000
 70
    32
  0
VERTEX
  8
1850LEVEL
 62
7
 10
1663.321
 20
-2804.092
 30
3377.000
 70
    32
  0
VERTEX
  8
1850LEVEL
 62
7
 10
1666.957
 20
-2802.723
 30
3377.000
 70
    32
  0
VERTEX
  8
1850LEVEL
 62
7
 10
1669.687
 20
-2804.927
 30
3377.000
 70
    32
  0
VERTEX
  8
1850LEVEL
 62
7
 10
1674.727
 20
-2808.592
 30
3377.000
 70
    32
  0
VERTEX
  8
1850LEVEL
 62
7
 10
1682.384
 20
-2813.802
 30
3377.000
 70
    32
  0
VERTEX
  8
1850LEVEL
 62
7
 10
1684.509
 20
-2817.625
 30
3377.000
 70
    32
  0
VERTEX
  8
1850LEVEL
 62
7
 10
1686.266
 20
-2823.141
 30
3377.000
 70
    32
  0
VERTEX
  8
1850LEVEL
 62
7
 10
1690.097
 20
-2830.724
 30
3377.000
 70
    32
  0
VERTEX
  8
1850LEVEL
 62
7
 10
1695.062
 20
-2836.733
 30
3377.000
 70
    32
  0
VERTEX
  8
1850LEVEL
 62
7
 10
1704.587
 20
-2847.440
 30
3377.000
 70
    32
  0
VERTEX
  8
1850LEVEL
 62
7
 10
1712.524
 20
-2858.259
 30
3377.000
 70
    32
  0
VERTEX
  8
1850LEVEL
 62
7
 10
1718.932
 20
-2868.343
 30
3377.000
 70
    32
  0
VERTEX
  8
1850LEVEL
 62
7
 10
1725.617
 20
-2880.576
 30
3377.000
 70
    32
  0
VERTEX
  8
1850LEVEL
 62
7
 10
1731.573
 20
-2893.839
 30
3377.000
 70
    32
  0
VERTEX
  8
1850LEVEL
 62
7
 10
1737.491
 20
-2907.809
 30
3377.000
 70
    32
  0
VERTEX
  8
1850LEVEL
 62
7
 10
1740.751
 20
-2916.554
 30
3377.000
 70
    32
  0
VERTEX
  8
1850LEVEL
 62
7
 10
1744.356
 20
-2922.818
 30
3377.000
 70
    32
  0
VERTEX
  8
1850LEVEL
 62
7
 10
1747.620
 20
-2923.640
 30
3377.000
 70
    32
  0
VERTEX
  8
1850LEVEL
 62
7
 10
1751.801
 20
-2924.533
 30
3377.000
 70
    32
  0
VERTEX
  8
1850LEVEL
 62
7
 10
1755.453
 20
-2922.596
 30
3377.000
 70
    32
  0
VERTEX
  8
1850LEVEL
 62
7
 10
1756.587
 20
-2920.094
 30
3377.000
 70
    32
  0
VERTEX
  8
1850LEVEL
 62
7
 10
1756.243
 20
-2915.830
 30
3377.000
 70
    32
  0
VERTEX
  8
1850LEVEL
 62
7
 10
1755.389
 20
-2908.847
 30
3377.000
 70
    32
  0
VERTEX
  8
1850LEVEL
 62
7
 10
1753.955
 20
-2900.062
 30
3377.000
 70
    32
  0
VERTEX
  8
1850LEVEL
 62
7
 10
1754.144
 20
-2892.561
 30
3377.000
 70
    32
  0
VERTEX
  8
1850LEVEL
 62
7
 10
1757.726
 20
-2886.902
 30
3377.000
 70
    32
  0
VERTEX
  8
1850LEVEL
 62
7
 10
1758.871
 20
-2886.186
 30
3377.000
 70
    32
  0
VERTEX
  8
1850LEVEL
 62
7
 10
1763.352
 20
-2886.981
 30
3377.000
 70
    32
  0
VERTEX
  8
1850LEVEL
 62
7
 10
1769.078
 20
-2888.040
 30
3377.000
 70
    32
  0
VERTEX
  8
1850LEVEL
 62
7
 10
1773.215
 20
-2886.427
 30
3377.000
 70
    32
  0
VERTEX
  8
1850LEVEL
 62
7
 10
1777.595
 20
-2886.494
 30
3377.000
 70
    32
  0
VERTEX
  8
1850LEVEL
 62
7
 10
1785.357
 20
-2892.183
 30
3377.000
 70
    32
  0
VERTEX
  8
1850LEVEL
 62
7
 10
1792.561
 20
-2899.642
 30
3377.000
 70
    32
  0
VERTEX
  8
1850LEVEL
 62
7
 10
1795.761
 20
-2904.595
 30
3377.000
 70
    32
  0
VERTEX
  8
1850LEVEL
 62
7
 10
1797.240
 20
-2910.068
 30
3377.000
 70
    32
  0
VERTEX
  8
1850LEVEL
 62
7
 10
1799.453
 20
-2916.796
 30
3377.000
 70
    32
  0
VERTEX
  8
1850LEVEL
 62
7
 10
1804.577
 20
-2928.503
 30
3377.000
 70
    32
  0
VERTEX
  8
1850LEVEL
 62
7
 10
1807.523
 20
-2934.880
 30
3377.000
 70
    32
  0
VERTEX
  8
1850LEVEL
 62
7
 10
1814.027
 20
-2942.481
 30
3377.000
 70
    32
  0
VERTEX
  8
1850LEVEL
 62
7
 10
1821.178
 20
-2946.577
 30
3377.000
 70
    32
  0
VERTEX
  8
1850LEVEL
 62
7
 10
1828.296
 20
-2951.811
 30
3377.000
 70
    32
  0
VERTEX
  8
1850LEVEL
 62
7
 10
1836.020
 20
-2956.352
 30
3377.000
 70
    32
  0
VERTEX
  8
1850LEVEL
 62
7
 10
1840.241
 20
-2959.071
 30
3377.000
 70
    32
  0
VERTEX
  8
1850LEVEL
 62
7
 10
1848.611
 20
-2961.963
 30
3377.000
 70
    32
  0
VERTEX
  8
1850LEVEL
 62
7
 10
1854.380
 20
-2961.814
 30
3377.000
 70
    32
  0
VERTEX
  8
1850LEVEL
 62
7
 10
1860.104
 20
-2958.233
 30
3377.000
 70
    32
  0
VERTEX
  8
1850LEVEL
 62
7
 10
1862.351
 20
-2953.368
 30
3377.000
 70
    32
  0
VERTEX
  8
1850LEVEL
 62
7
 10
1864.260
 20
-2949.308
 30
3377.000
 70
    32
  0
VERTEX
  8
1850LEVEL
 62
7
 10
1868.912
 20
-2946.204
 30
3377.000
 70
    32
  0
VERTEX
  8
1850LEVEL
 62
7
 10
1870.781
 20
-2945.885
 30
3377.000
 70
    32
  0
VERTEX
  8
1850LEVEL
 62
7
 10
1877.204
 20
-2947.978
 30
3377.000
 70
    32
  0
VERTEX
  8
1850LEVEL
 62
7
 10
1885.134
 20
-2951.873
 30
3377.000
 70
    32
  0
VERTEX
  8
1850LEVEL
 62
7
 10
1894.693
 20
-2959.337
 30
3377.000
 70
    32
  0
VERTEX
  8
1850LEVEL
 62
7
 10
1901.079
 20
-2964.922
 30
3377.000
 70
    32
  0
VERTEX
  8
1850LEVEL
 62
7
 10
1909.145
 20
-2973.049
 30
3377.000
 70
    32
  0
VERTEX
  8
1850LEVEL
 62
7
 10
1920.917
 20
-2985.385
 30
3377.000
 70
    32
  0
VERTEX
  8
1850LEVEL
 62
7
 10
1929.698
 20
-2992.801
 30
3377.000
 70
    32
  0
VERTEX
  8
1850LEVEL
 62
7
 10
1932.372
 20
-2993.748
 30
3377.000
 70
    32
  0
VERTEX
  8
1850LEVEL
 62
7
 10
1937.374
 20
-2998.120
 30
3377.000
 70
    32
  0
VERTEX
  8
1850LEVEL
 62
7
 10
1942.856
 20
-3004.245
 30
3377.000
 70
    32
  0
VERTEX
  8
1850LEVEL
 62
7
 10
1950.072
 20
-3013.490
 30
3377.000
 70
    32
  0
VERTEX
  8
1850LEVEL
 62
7
 10
1953.859
 20
-3019.496
 30
3377.000
 70
    32
  0
VERTEX
  8
1850LEVEL
 62
7
 10
1957.680
 20
-3027.149
 30
3377.000
 70
    32
  0
VERTEX
  8
1850LEVEL
 62
7
 10
1961.419
 20
-3034.861
 30
3377.000
 70
    32
  0
VERTEX
  8
1850LEVEL
 62
7
 10
1965.325
 20
-3043.812
 30
3377.000
 70
    32
  0
VERTEX
  8
1850LEVEL
 62
7
 10
1969.105
 20
-3051.494
 30
3377.000
 70
    32
  0
VERTEX
  8
1850LEVEL
 62
7
 10
1973.756
 20
-3056.991
 30
3377.000
 70
    32
  0
VERTEX
  8
1850LEVEL
 62
7
 10
1978.155
 20
-3059.951
 30
3377.000
 70
    32
  0
VERTEX
  8
1850LEVEL
 62
7
 10
1985.386
 20
-3066.772
 30
3377.000
 70
    32
  0
VERTEX
  8
1850LEVEL
 62
7
 10
1988.071
 20
-3070.432
 30
3377.000
 70
    32
  0
VERTEX
  8
1850LEVEL
 62
7
 10
1994.629
 20
-3077.684
 30
3377.000
 70
    32
  0
VERTEX
  8
1850LEVEL
 62
7
 10
2000.906
 20
-3086.072
 30
3377.000
 70
    32
  0
VERTEX
  8
1850LEVEL
 62
7
 10
2004.401
 20
-3094.210
 30
3377.000
 70
    32
  0
VERTEX
  8
1850LEVEL
 62
7
 10
2006.146
 20
-3101.901
 30
3377.000
 70
    32
  0
VERTEX
  8
1850LEVEL
 62
7
 10
2007.844
 20
-3108.264
 30
3377.000
 70
    32
  0
VERTEX
  8
1850LEVEL
 62
7
 10
2009.465
 20
-3111.654
 30
3377.000
 70
    32
  0
VERTEX
  8
1850LEVEL
 62
7
 10
2012.828
 20
-3114.383
 30
3377.000
 70
    32
  0
VERTEX
  8
1850LEVEL
 62
7
 10
2017.723
 20
-3116.670
 30
3377.000
 70
    32
  0
VERTEX
  8
1850LEVEL
 62
7
 10
2023.773
 20
-3119.098
 30
3377.000
 70
    32
  0
VERTEX
  8
1850LEVEL
 62
7
 10
2025.023
 20
-3119.790
 30
3377.000
 70
    32
  0
VERTEX
  8
1850LEVEL
 62
7
 10
2029.453
 20
-3123.468
 30
3377.000
 70
    32
  0
VERTEX
  8
1850LEVEL
 62
7
 10
2035.990
 20
-3129.005
 30
3377.000
 70
    32
  0
VERTEX
  8
1850LEVEL
 62
7
 10
2046.799
 20
-3139.016
 30
3377.000
 70
    32
  0
VERTEX
  8
1850LEVEL
 62
7
 10
2054.440
 20
-3145.722
 30
3377.000
 70
    32
  0
VERTEX
  8
1850LEVEL
 62
7
 10
2058.785
 20
-3148.102
 30
3377.000
 70
    32
  0
VERTEX
  8
1850LEVEL
 62
7
 10
2062.717
 20
-3150.848
 30
3377.000
 70
    32
  0
VERTEX
  8
1850LEVEL
 62
7
 10
2068.279
 20
-3155.057
 30
3377.000
 70
    32
  0
VERTEX
  8
1850LEVEL
 62
7
 10
2075.417
 20
-3162.256
 30
3377.000
 70
    32
  0
VERTEX
  8
1850LEVEL
 62
7
 10
2083.496
 20
-3171.920
 30
3377.000
 70
    32
  0
VERTEX
  8
1850LEVEL
 62
7
 10
2089.960
 20
-3180.478
 30
3377.000
 70
    32
  0
VERTEX
  8
1850LEVEL
 62
7
 10
2095.394
 20
-3186.452
 30
3377.000
 70
    32
  0
VERTEX
  8
1850LEVEL
 62
7
 10
2099.422
 20
-3186.714
 30
3377.000
 70
    32
  0
VERTEX
  8
1850LEVEL
 62
7
 10
2100.567
 20
-3183.215
 30
3377.000
 70
    32
  0
VERTEX
  8
1850LEVEL
 62
7
 10
2100.223
 20
-3178.951
 30
3377.000
 70
    32
  0
VERTEX
  8
1850LEVEL
 62
7
 10
2100.764
 20
-3174.966
 30
3377.000
 70
    32
  0
VERTEX
  8
1850LEVEL
 62
7
 10
2102.895
 20
-3173.402
 30
3377.000
 70
    32
  0
VERTEX
  8
1850LEVEL
 62
7
 10
2105.330
 20
-3173.348
 30
3377.000
 70
    32
  0
VERTEX
  8
1850LEVEL
 62
7
 10
2108.015
 20
-3174.224
 30
3377.000
 70
    32
  0
VERTEX
  8
1850LEVEL
 62
7
 10
2112.352
 20
-3177.353
 30
3377.000
 70
    32
  0
VERTEX
  8
1850LEVEL
 62
7
 10
2118.668
 20
-3181.999
 30
3377.000
 70
    32
  0
VERTEX
  8
1850LEVEL
 62
7
 10
2129.329
 20
-3187.170
 30
3377.000
 70
    32
  0
VERTEX
  8
1850LEVEL
 62
7
 10
2133.244
 20
-3186.773
 30
3377.000
 70
    32
  0
VERTEX
  8
1850LEVEL
 62
7
 10
2136.939
 20
-3188.269
 30
3377.000
 70
    32
  0
VERTEX
  8
1850LEVEL
 62
7
 10
2140.533
 20
-3189.035
 30
3377.000
 70
    32
  0
VERTEX
  8
1850LEVEL
 62
7
 10
2143.671
 20
-3189.517
 30
3377.000
 70
    32
  0
VERTEX
  8
1850LEVEL
 62
7
 10
2146.814
 20
-3192.284
 30
3377.000
 70
    32
  0
VERTEX
  8
1850LEVEL
 62
7
 10
2151.524
 20
-3199.717
 30
3377.000
 70
    32
  0
VERTEX
  8
1850LEVEL
 62
7
 10
2155.237
 20
-3206.211
 30
3377.000
 70
    32
  0
VERTEX
  8
1850LEVEL
 62
7
 10
2161.755
 20
-3215.349
 30
3377.000
 70
    32
  0
VERTEX
  8
1850LEVEL
 62
7
 10
2167.511
 20
-3222.015
 30
3377.000
 70
    32
  0
VERTEX
  8
1850LEVEL
 62
7
 10
2173.704
 20
-3227.927
 30
3377.000
 70
    32
  0
VERTEX
  8
1850LEVEL
 62
7
 10
2175.887
 20
-3227.192
 30
3377.000
 70
    32
  0
VERTEX
  8
1850LEVEL
 62
7
 10
2175.002
 20
-3223.202
 30
3377.000
 70
    32
  0
VERTEX
  8
1850LEVEL
 62
7
 10
2173.690
 20
-3219.895
 30
3377.000
 70
    32
  0
VERTEX
  8
1850LEVEL
 62
7
 10
2171.332
 20
-3215.500
 30
3377.000
 70
    32
  0
VERTEX
  8
1850LEVEL
 62
7
 10
2168.955
 20
-3210.068
 30
3377.000
 70
    32
  0
VERTEX
  8
1850LEVEL
 62
7
 10
2166.151
 20
-3204.391
 30
3377.000
 70
    32
  0
VERTEX
  8
1850LEVEL
 62
7
 10
2162.103
 20
-3196.596
 30
3377.000
 70
    32
  0
VERTEX
  8
1850LEVEL
 62
7
 10
2159.790
 20
-3188.889
 30
3377.000
 70
    32
  0
VERTEX
  8
1850LEVEL
 62
7
 10
2160.945
 20
-3182.536
 30
3377.000
 70
    32
  0
VERTEX
  8
1850LEVEL
 62
7
 10
2162.352
 20
-3178.720
 30
3377.000
 70
    32
  0
VERTEX
  8
1850LEVEL
 62
7
 10
2163.386
 20
-3170.600
 30
3377.000
 70
    32
  0
VERTEX
  8
1850LEVEL
 62
7
 10
2161.572
 20
-3162.898
 30
3377.000
 70
    32
  0
VERTEX
  8
1850LEVEL
 62
7
 10
2158.918
 20
-3152.534
 30
3377.000
 70
    32
  0
VERTEX
  8
1850LEVEL
 62
7
 10
2156.170
 20
-3142.548
 30
3377.000
 70
    32
  0
VERTEX
  8
1850LEVEL
 62
7
 10
2154.414
 20
-3131.215
 30
3377.000
 70
    32
  0
VERTEX
  8
1850LEVEL
 62
7
 10
2151.310
 20
-3123.779
 30
3377.000
 70
    32
  0
VERTEX
  8
1850LEVEL
 62
7
 10
2146.522
 20
-3118.012
 30
3377.000
 70
    32
  0
VERTEX
  8
1850LEVEL
 62
7
 10
2136.922
 20
-3105.938
 30
3377.000
 70
    32
  0
VERTEX
  8
1850LEVEL
 62
7
 10
2125.202
 20
-3084.902
 30
3377.000
 70
    32
  0
VERTEX
  8
1850LEVEL
 62
7
 10
2097.015
 20
-3039.817
 30
3377.000
 70
    32
  0
VERTEX
  8
1850LEVEL
 62
7
 10
2084.858
 20
-3018.607
 30
3377.000
 70
    32
  0
VERTEX
  8
1850LEVEL
 62
7
 10
2078.870
 20
-3006.481
 30
3377.000
 70
    32
  0
VERTEX
  8
1850LEVEL
 62
7
 10
2072.240
 20
-2989.011
 30
3377.000
 70
    32
  0
VERTEX
  8
1850LEVEL
 62
7
 10
2067.593
 20
-2972.809
 30
3377.000
 70
    32
  0
VERTEX
  8
1850LEVEL
 62
7
 10
2064.062
 20
-2964.201
 30
3377.000
 70
    32
  0
VERTEX
  8
1850LEVEL
 62
7
 10
2059.354
 20
-2956.519
 30
3377.000
 70
    32
  0
VERTEX
  8
1850LEVEL
 62
7
 10
2053.474
 20
-2943.696
 30
3377.000
 70
    32
  0
VERTEX
  8
1850LEVEL
 62
7
 10
2052.837
 20
-2936.925
 30
3377.000
 70
    32
  0
VERTEX
  8
1850LEVEL
 62
7
 10
2054.703
 20
-2935.927
 30
3377.000
 70
    32
  0
VERTEX
  8
1850LEVEL
 62
7
 10
2056.476
 20
-2937.163
 30
3377.000
 70
    32
  0
VERTEX
  8
1850LEVEL
 62
7
 10
2062.216
 20
-2942.542
 30
3377.000
 70
    32
  0
VERTEX
  8
1850LEVEL
 62
7
 10
2069.020
 20
-2948.191
 30
3377.000
 70
    32
  0
VERTEX
  8
1850LEVEL
 62
7
 10
2076.595
 20
-2953.708
 30
3377.000
 70
    32
  0
VERTEX
  8
1850LEVEL
 62
7
 10
2086.352
 20
-2962.202
 30
3377.000
 70
    32
  0
VERTEX
  8
1850LEVEL
 62
7
 10
2090.539
 20
-2966.307
 30
3377.000
 70
    32
  0
VERTEX
  8
1850LEVEL
 62
7
 10
2095.211
 20
-2967.953
 30
3377.000
 70
    32
  0
VERTEX
  8
1850LEVEL
 62
7
 10
2096.951
 20
-2964.759
 30
3377.000
 70
    32
  0
VERTEX
  8
1850LEVEL
 62
7
 10
2096.400
 20
-2961.141
 30
3377.000
 70
    32
  0
VERTEX
  8
1850LEVEL
 62
7
 10
2093.433
 20
-2953.048
 30
3377.000
 70
    32
  0
VERTEX
  8
1850LEVEL
 62
7
 10
2092.300
 20
-2946.950
 30
3377.000
 70
    32
  0
VERTEX
  8
1850LEVEL
 62
7
 10
2092.871
 20
-2945.789
 30
3377.000
 70
    32
  0
VERTEX
  8
1850LEVEL
 62
7
 10
2095.389
 20
-2947.282
 30
3377.000
 70
    32
  0
VERTEX
  8
1850LEVEL
 62
7
 10
2098.686
 20
-2949.752
 30
3377.000
 70
    32
  0
VERTEX
  8
1850LEVEL
 62
7
 10
2101.461
 20
-2949.571
 30
3377.000
 70
    32
  0
VERTEX
  8
1850LEVEL
 62
7
 10
2101.512
 20
-2947.617
 30
3377.000
 70
    32
  0
VERTEX
  8
1850LEVEL
 62
7
 10
2098.072
 20
-2939.808
 30
3377.000
 70
    32
  0
VERTEX
  8
1850LEVEL
 62
7
 10
2091.648
 20
-2927.508
 30
3377.000
 70
    32
  0
VERTEX
  8
1850LEVEL
 62
7
 10
2084.955
 20
-2915.096
 30
3377.000
 70
    32
  0
VERTEX
  8
1850LEVEL
 62
7
 10
2079.930
 20
-2906.223
 30
3377.000
 70
    32
  0
VERTEX
  8
1850LEVEL
 62
7
 10
2074.677
 20
-2893.497
 30
3377.000
 70
    32
  0
VERTEX
  8
1850LEVEL
 62
7
 10
2072.077
 20
-2884.639
 30
3377.000
 70
    32
  0
VERTEX
  8
1850LEVEL
 62
7
 10
2069.144
 20
-2874.232
 30
3377.000
 70
    32
  0
VERTEX
  8
1850LEVEL
 62
7
 10
2067.330
 20
-2867.459
 30
3377.000
 70
    32
  0
VERTEX
  8
1850LEVEL
 62
7
 10
2068.050
 20
-2861.610
 30
3377.000
 70
    32
  0
VERTEX
  8
1850LEVEL
 62
7
 10
2070.761
 20
-2859.992
 30
3377.000
 70
    32
  0
VERTEX
  8
1850LEVEL
 62
7
 10
2075.168
 20
-2861.276
 30
3377.000
 70
    32
  0
VERTEX
  8
1850LEVEL
 62
7
 10
2079.032
 20
-2863.761
 30
3377.000
 70
    32
  0
VERTEX
  8
1850LEVEL
 62
7
 10
2087.146
 20
-2870.182
 30
3377.000
 70
    32
  0
VERTEX
  8
1850LEVEL
 62
7
 10
2096.021
 20
-2877.220
 30
3377.000
 70
    32
  0
VERTEX
  8
1850LEVEL
 62
7
 10
2104.963
 20
-2883.590
 30
3377.000
 70
    32
  0
VERTEX
  8
1850LEVEL
 62
7
 10
2114.454
 20
-2890.794
 30
3377.000
 70
    32
  0
VERTEX
  8
1850LEVEL
 62
7
 10
2121.709
 20
-2894.443
 30
3377.000
 70
    32
  0
VERTEX
  8
1850LEVEL
 62
7
 10
2165.221
 20
-2924.369
 30
3377.000
 70
    32
  0
VERTEX
  8
1850LEVEL
 62
7
 10
2227.948
 20
-2970.098
 30
3377.000
 70
    32
  0
VERTEX
  8
1850LEVEL
 62
7
 10
2294.001
 20
-3018.650
 30
3377.000
 70
    32
  0
VERTEX
  8
1850LEVEL
 62
7
 10
2371.502
 20
-3095.883
 30
3377.000
 70
    32
  0
VERTEX
  8
1850LEVEL
 62
7
 10
2385.612
 20
-3099.220
 30
3377.000
 70
    32
  0
VERTEX
  8
1850LEVEL
 62
7
 10
2359.331
 20
-3028.664
 30
3377.000
 70
    32
  0
VERTEX
  8
1850LEVEL
 62
7
 10
2388.254
 20
-3038.741
 30
3377.000
 70
    32
  0
VERTEX
  8
1850LEVEL
 62
7
 10
2436.481
 20
-3092.695
 30
3377.000
 70
    32
  0
VERTEX
  8
1850LEVEL
 62
7
 10
2466.392
 20
-3128.969
 30
3377.000
 70
    32
  0
VERTEX
  8
1850LEVEL
 62
7
 10
2453.155
 20
-3085.081
 30
3377.000
 70
    32
  0
VERTEX
  8
1850LEVEL
 62
7
 10
2413.062
 20
-3017.050
 30
3377.000
 70
    32
  0
VERTEX
  8
1850LEVEL
 62
7
 10
2391.872
 20
-2926.354
 30
3377.000
 70
    32
  0
VERTEX
  8
1850LEVEL
 62
7
 10
2366.128
 20
-2834.149
 30
3377.000
 70
    32
  0
VERTEX
  8
1850LEVEL
 62
7
 10
2316.150
 20
-2740.223
 30
3377.000
 70
    32
  0
VERTEX
  8
1850LEVEL
 62
7
 10
2290.935
 20
-2669.337
 30
3377.000
 70
    32
  0
VERTEX
  8
1850LEVEL
 62
7
 10
2319.644
 20
-2627.057
 30
3377.000
 70
    32
  0
VERTEX
  8
1850LEVEL
 62
7
 10
2338.504
 20
-2580.121
 30
3377.000
 70
    32
  0
VERTEX
  8
1850LEVEL
 62
7
 10
2321.525
 20
-2529.802
 30
3377.000
 70
    32
  0
VERTEX
  8
1850LEVEL
 62
7
 10
2290.690
 20
-2480.738
 30
3377.000
 70
    32
  0
VERTEX
  8
1850LEVEL
 62
7
 10
2302.439
 20
-2423.277
 30
3377.000
 70
    32
  0
VERTEX
  8
1850LEVEL
 62
7
 10
2332.096
 20
-2454.959
 30
3377.000
 70
    32
  0
VERTEX
  8
1850LEVEL
 62
7
 10
2381.966
 20
-2534.207
 30
3377.000
 70
    32
  0
VERTEX
  8
1850LEVEL
 62
7
 10
2422.816
 20
-2612.979
 30
3377.000
 70
    32
  0
VERTEX
  8
1850LEVEL
 62
7
 10
2459.717
 20
-2708.035
 30
3377.000
 70
    32
  0
VERTEX
  8
1850LEVEL
 62
7
 10
2498.711
 20
-2781.193
 30
3377.000
 70
    32
  0
VERTEX
  8
1850LEVEL
 62
7
 10
2545.754
 20
-2837.732
 30
3377.000
 70
    32
  0
VERTEX
  8
1850LEVEL
 62
7
 10
2571.107
 20
-2846.462
 30
3377.000
 70
    32
  0
VERTEX
  8
1850LEVEL
 62
7
 10
2565.636
 20
-2812.196
 30
3377.000
 70
    32
  0
VERTEX
  8
1850LEVEL
 62
7
 10
2537.619
 20
-2756.771
 30
3377.000
 70
    32
  0
VERTEX
  8
1850LEVEL
 62
7
 10
2498.921
 20
-2689.476
 30
3377.000
 70
    32
  0
VERTEX
  8
1850LEVEL
 62
7
 10
2449.965
 20
-2616.950
 30
3377.000
 70
    32
  0
VERTEX
  8
1850LEVEL
 62
7
 10
2404.133
 20
-2549.995
 30
3377.000
 70
    32
  0
VERTEX
  8
1850LEVEL
 62
7
 10
2370.254
 20
-2494.868
 30
3377.000
 70
    32
  0
VERTEX
  8
1850LEVEL
 62
7
 10
2345.611
 20
-2446.572
 30
3377.000
 70
    32
  0
VERTEX
  8
1850LEVEL
 62
7
 10
2326.361
 20
-2387.032
 30
3377.000
 70
    32
  0
VERTEX
  8
1850LEVEL
 62
7
 10
2322.118
 20
-2328.451
 30
3377.000
 70
    32
  0
VERTEX
  8
1850LEVEL
 62
7
 10
2338.451
 20
-2218.666
 30
3377.000
 70
    32
  0
VERTEX
  8
1850LEVEL
 62
7
 10
2354.008
 20
-2135.040
 30
3377.000
 70
    32
  0
VERTEX
  8
1850LEVEL
 62
7
 10
2363.391
 20
-2036.747
 30
3377.000
 70
    32
  0
VERTEX
  8
1850LEVEL
 62
7
 10
2376.279
 20
-2021.432
 30
3377.000
 70
    32
  0
VERTEX
  8
1850LEVEL
 62
7
 10
2393.313
 20
-2056.088
 30
3377.000
 70
    32
  0
VERTEX
  8
1850LEVEL
 62
7
 10
2420.270
 20
-2114.876
 30
3377.000
 70
    32
  0
VERTEX
  8
1850LEVEL
 62
7
 10
2471.820
 20
-2240.657
 30
3377.000
 70
    32
  0
VERTEX
  8
1850LEVEL
 62
7
 10
2520.559
 20
-2352.830
 30
3377.000
 70
    32
  0
VERTEX
  8
1850LEVEL
 62
7
 10
2561.105
 20
-2445.706
 30
3377.000
 70
    32
  0
VERTEX
  8
1850LEVEL
 62
7
 10
2564.591
 20
-2493.547
 30
3377.000
 70
    32
  0
VERTEX
  8
1850LEVEL
 62
7
 10
2598.863
 20
-2586.147
 30
3377.000
 70
    32
  0
VERTEX
  8
1850LEVEL
 62
7
 10
2646.899
 20
-2694.918
 30
3377.000
 70
    32
  0
VERTEX
  8
1850LEVEL
 62
7
 10
2695.297
 20
-2799.958
 30
3377.000
 70
    32
  0
VERTEX
  8
1850LEVEL
 62
7
 10
2733.509
 20
-2847.205
 30
3377.000
 70
    32
  0
VERTEX
  8
1850LEVEL
 62
7
 10
2762.664
 20
-2849.737
 30
3377.000
 70
    32
  0
VERTEX
  8
1850LEVEL
 62
7
 10
2778.674
 20
-2813.958
 30
3377.000
 70
    32
  0
VERTEX
  8
1850LEVEL
 62
7
 10
2778.108
 20
-2771.401
 30
3377.000
 70
    32
  0
VERTEX
  8
1850LEVEL
 62
7
 10
2793.712
 20
-2738.082
 30
3377.000
 70
    32
  0
VERTEX
  8
1850LEVEL
 62
7
 10
2833.690
 20
-2739.366
 30
3377.000
 70
    32
  0
VERTEX
  8
1850LEVEL
 62
7
 10
2868.892
 20
-2729.752
 30
3377.000
 70
    32
  0
VERTEX
  8
1850LEVEL
 62
7
 10
2877.542
 20
-2681.890
 30
3377.000
 70
    32
  0
VERTEX
  8
1850LEVEL
 62
7
 10
2896.732
 20
-2636.019
 30
3377.000
 70
    32
  0
VERTEX
  8
1850LEVEL
 62
7
 10
2933.618
 20
-2580.933
 30
3377.000
 70
    32
  0
VERTEX
  8
1850LEVEL
 62
7
 10
2930.419
 20
-2532.886
 30
3377.000
 70
    32
  0
SEQEND
  8
1850LEVEL
  0
POLYLINE
  8
1850LEVEL
 62
7
 66
     1
 70
     8
  0
VERTEX
  8
1850LEVEL
 62
7
 10
1548.200
 20
-3042.765
 30
3377.000
 70
    32
  0
VERTEX
  8
1850LEVEL
 62
7
 10
1544.085
 20
-3041.782
 30
3377.000
 70
    32
  0
VERTEX
  8
1850LEVEL
 62
7
 10
1541.949
 20
-3040.990
 30
3377.000
 70
    32
  0
VERTEX
  8
1850LEVEL
 62
7
 10
1536.827
 20
-3038.562
 30
3377.000
 70
    32
  0
VERTEX
  8
1850LEVEL
 62
7
 10
1532.460
 20
-3034.465
 30
3377.000
 70
    32
  0
VERTEX
  8
1850LEVEL
 62
7
 10
1528.182
 20
-3028.633
 30
3377.000
 70
    32
  0
VERTEX
  8
1850LEVEL
 62
7
 10
1524.314
 20
-3022.686
 30
3377.000
 70
    32
  0
VERTEX
  8
1850LEVEL
 62
7
 10
1518.933
 20
-3014.507
 30
3377.000
 70
    32
  0
VERTEX
  8
1850LEVEL
 62
7
 10
1510.065
 20
-3005.793
 30
3377.000
 70
    32
  0
VERTEX
  8
1850LEVEL
 62
7
 10
1500.083
 20
-2996.908
 30
3377.000
 70
    32
  0
VERTEX
  8
1850LEVEL
 62
7
 10
1491.865
 20
-2990.007
 30
3377.000
 70
    32
  0
VERTEX
  8
1850LEVEL
 62
7
 10
1486.428
 20
-2984.282
 30
3377.000
 70
    32
  0
VERTEX
  8
1850LEVEL
 62
7
 10
1482.334
 20
-2977.016
 30
3377.000
 70
    32
  0
VERTEX
  8
1850LEVEL
 62
7
 10
1478.863
 20
-2972.200
 30
3377.000
 70
    32
  0
VERTEX
  8
1850LEVEL
 62
7
 10
1476.943
 20
-2970.763
 30
3377.000
 70
    32
  0
VERTEX
  8
1850LEVEL
 62
7
 10
1475.889
 20
-2970.422
 30
3377.000
 70
    32
  0
VERTEX
  8
1850LEVEL
 62
7
 10
1475.543
 20
-2971.047
 30
3377.000
 70
    32
  0
VERTEX
  8
1850LEVEL
 62
7
 10
1475.798
 20
-2974.263
 30
3377.000
 70
    32
  0
VERTEX
  8
1850LEVEL
 62
7
 10
1476.644
 20
-2979.210
 30
3377.000
 70
    32
  0
VERTEX
  8
1850LEVEL
 62
7
 10
1480.681
 20
-2986.147
 30
3377.000
 70
    32
  0
VERTEX
  8
1850LEVEL
 62
7
 10
1487.145
 20
-2992.850
 30
3377.000
 70
    32
  0
VERTEX
  8
1850LEVEL
 62
7
 10
1494.814
 20
-2999.845
 30
3377.000
 70
    32
  0
VERTEX
  8
1850LEVEL
 62
7
 10
1503.131
 20
-3006.798
 30
3377.000
 70
    32
  0
VERTEX
  8
1850LEVEL
 62
7
 10
1508.173
 20
-3012.069
 30
3377.000
 70
    32
  0
VERTEX
  8
1850LEVEL
 62
7
 10
1513.253
 20
-3016.632
 30
3377.000
 70
    32
  0
VERTEX
  8
1850LEVEL
 62
7
 10
1516.349
 20
-3020.177
 30
3377.000
 70
    32
  0
VERTEX
  8
1850LEVEL
 62
7
 10
1519.015
 20
-3023.727
 30
3377.000
 70
    32
  0
VERTEX
  8
1850LEVEL
 62
7
 10
1522.851
 20
-3028.956
 30
3377.000
 70
    32
  0
VERTEX
  8
1850LEVEL
 62
7
 10
1526.370
 20
-3033.921
 30
3377.000
 70
    32
  0
VERTEX
  8
1850LEVEL
 62
7
 10
1530.045
 20
-3039.268
 30
3377.000
 70
    32
  0
VERTEX
  8
1850LEVEL
 62
7
 10
1531.638
 20
-3041.440
 30
3377.000
 70
    32
  0
SEQEND
  8
1850LEVEL
  0
POLYLINE
  8
1850LEVEL
 62
7
 66
     1
 70
     8
  0
VERTEX
  8
1850LEVEL
 62
7
 10
1539.613
 20
-3067.891
 30
3377.000
 70
    32
  0
VERTEX
  8
1850LEVEL
 62
7
 10
1544.399
 20
-3066.847
 30
3377.000
 70
    32
  0
VERTEX
  8
1850LEVEL
 62
7
 10
1548.743
 20
-3065.516
 30
3377.000
 70
    32
  0
VERTEX
  8
1850LEVEL
 62
7
 10
1552.699
 20
-3066.945
 30
3377.000
 70
    32
  0
VERTEX
  8
1850LEVEL
 62
7
 10
1554.993
 20
-3070.830
 30
3377.000
 70
    32
  0
VERTEX
  8
1850LEVEL
 62
7
 10
1557.735
 20
-3078.531
 30
3377.000
 70
    32
  0
VERTEX
  8
1850LEVEL
 62
7
 10
1560.313
 20
-3082.889
 30
3377.000
 70
    32
  0
VERTEX
  8
1850LEVEL
 62
7
 10
1564.706
 20
-3088.203
 30
3377.000
 70
    32
  0
VERTEX
  8
1850LEVEL
 62
7
 10
1572.734
 20
-3094.254
 30
3377.000
 70
    32
  0
VERTEX
  8
1850LEVEL
 62
7
 10
1580.144
 20
-3099.211
 30
3377.000
 70
    32
  0
VERTEX
  8
1850LEVEL
 62
7
 10
1587.243
 20
-3104.335
 30
3377.000
 70
    32
  0
VERTEX
  8
1850LEVEL
 62
7
 10
1590.993
 20
-3107.338
 30
3377.000
 70
    32
  0
VERTEX
  8
1850LEVEL
 62
7
 10
1591.639
 20
-3108.472
 30
3377.000
 70
    32
  0
VERTEX
  8
1850LEVEL
 62
7
 10
1590.068
 20
-3108.944
 30
3377.000
 70
    32
  0
VERTEX
  8
1850LEVEL
 62
7
 10
1589.315
 20
-3110.363
 30
3377.000
 70
    32
  0
VERTEX
  8
1850LEVEL
 62
7
 10
1589.903
 20
-3114.200
 30
3377.000
 70
    32
  0
VERTEX
  8
1850LEVEL
 62
7
 10
1590.419
 20
-3120.132
 30
3377.000
 70
    32
  0
VERTEX
  8
1850LEVEL
 62
7
 10
1591.857
 20
-3125.635
 30
3377.000
 70
    32
  0
VERTEX
  8
1850LEVEL
 62
7
 10
1591.707
 20
-3128.467
 30
3377.000
 70
    32
  0
VERTEX
  8
1850LEVEL
 62
7
 10
1590.922
 20
-3128.239
 30
3377.000
 70
    32
  0
VERTEX
  8
1850LEVEL
 62
7
 10
1585.498
 20
-3123.123
 30
3377.000
 70
    32
  0
VERTEX
  8
1850LEVEL
 62
7
 10
1584.487
 20
-3123.432
 30
3377.000
 70
    32
  0
VERTEX
  8
1850LEVEL
 62
7
 10
1585.338
 20
-3127.880
 30
3377.000
 70
    32
  0
VERTEX
  8
1850LEVEL
 62
7
 10
1586.656
 20
-3131.616
 30
3377.000
 70
    32
  0
VERTEX
  8
1850LEVEL
 62
7
 10
1587.394
 20
-3134.477
 30
3377.000
 70
    32
  0
VERTEX
  8
1850LEVEL
 62
7
 10
1586.908
 20
-3135.081
 30
3377.000
 70
    32
  0
VERTEX
  8
1850LEVEL
 62
7
 10
1581.000
 20
-3131.496
 30
3377.000
 70
    32
  0
VERTEX
  8
1850LEVEL
 62
7
 10
1578.178
 20
-3126.637
 30
3377.000
 70
    32
  0
VERTEX
  8
1850LEVEL
 62
7
 10
1577.405
 20
-3121.451
 30
3377.000
 70
    32
  0
VERTEX
  8
1850LEVEL
 62
7
 10
1577.613
 20
-3115.916
 30
3377.000
 70
    32
  0
VERTEX
  8
1850LEVEL
 62
7
 10
1576.282
 20
-3111.572
 30
3377.000
 70
    32
  0
VERTEX
  8
1850LEVEL
 62
7
 10
1575.338
 20
-3111.213
 30
3377.000
 70
    32
  0
VERTEX
  8
1850LEVEL
 62
7
 10
1574.775
 20
-3113.482
 30
3377.000
 70
    32
  0
VERTEX
  8
1850LEVEL
 62
7
 10
1574.059
 20
-3114.192
 30
3377.000
 70
    32
  0
VERTEX
  8
1850LEVEL
 62
7
 10
1567.772
 20
-3104.019
 30
3377.000
 70
    32
  0
VERTEX
  8
1850LEVEL
 62
7
 10
1561.584
 20
-3098.536
 30
3377.000
 70
    32
  0
VERTEX
  8
1850LEVEL
 62
7
 10
1555.842
 20
-3095.263
 30
3377.000
 70
    32
  0
VERTEX
  8
1850LEVEL
 62
7
 10
1554.107
 20
-3095.175
 30
3377.000
 70
    32
  0
VERTEX
  8
1850LEVEL
 62
7
 10
1551.873
 20
-3096.937
 30
3377.000
 70
    32
  0
VERTEX
  8
1850LEVEL
 62
7
 10
1552.177
 20
-3101.230
 30
3377.000
 70
    32
  0
VERTEX
  8
1850LEVEL
 62
7
 10
1554.157
 20
-3106.459
 30
3377.000
 70
    32
  0
VERTEX
  8
1850LEVEL
 62
7
 10
1556.888
 20
-3113.302
 30
3377.000
 70
    32
  0
VERTEX
  8
1850LEVEL
 62
7
 10
1559.649
 20
-3120.186
 30
3377.000
 70
    32
  0
VERTEX
  8
1850LEVEL
 62
7
 10
1560.164
 20
-3124.262
 30
3377.000
 70
    32
  0
VERTEX
  8
1850LEVEL
 62
7
 10
1560.328
 20
-3124.822
 30
3377.000
 70
    32
  0
SEQEND
  8
1850LEVEL
  0
POLYLINE
  8
1850LEVEL
 62
3
 66
     1
 70
     8
  0
VERTEX
  8
1850LEVEL
 62
3
 10
1548.200
 20
-3042.765
 30
3377.000
 70
    32
  0
VERTEX
  8
1850LEVEL
 62
3
 10
1551.110
 20
-3043.611
 30
3377.000
 70
    32
  0
VERTEX
  8
1850LEVEL
 62
3
 10
1555.975
 20
-3044.002
 30
3377.000
 70
    32
  0
VERTEX
  8
1850LEVEL
 62
3
 10
1560.137
 20
-3043.857
 30
3377.000
 70
    32
  0
VERTEX
  8
1850LEVEL
 62
3
 10
1562.875
 20
-3042.529
 30
3377.000
 70
    32
  0
VERTEX
  8
1850LEVEL
 62
3
 10
1565.376
 20
-3039.023
 30
3377.000
 70
    32
  0
VERTEX
  8
1850LEVEL
 62
3
 10
1567.617
 20
-3033.729
 30
3377.000
 70
    32
  0
VERTEX
  8
1850LEVEL
 62
3
 10
1568.947
 20
-3030.650
 30
3377.000
 70
    32
  0
VERTEX
  8
1850LEVEL
 62
3
 10
1570.791
 20
-3027.936
 30
3377.000
 70
    32
  0
VERTEX
  8
1850LEVEL
 62
3
 10
1572.660
 20
-3026.689
 30
3377.000
 70
    32
  0
VERTEX
  8
1850LEVEL
 62
3
 10
1574.762
 20
-3026.013
 30
3377.000
 70
    32
  0
VERTEX
  8
1850LEVEL
 62
3
 10
1578.034
 20
-3027.015
 30
3377.000
 70
    32
  0
VERTEX
  8
1850LEVEL
 62
3
 10
1581.304
 20
-3030.123
 30
3377.000
 70
    32
  0
VERTEX
  8
1850LEVEL
 62
3
 10
1584.230
 20
-3033.606
 30
3377.000
 70
    32
  0
VERTEX
  8
1850LEVEL
 62
3
 10
1586.076
 20
-3036.459
 30
3377.000
 70
    32
  0
VERTEX
  8
1850LEVEL
 62
3
 10
1587.741
 20
-3039.320
 30
3377.000
 70
    32
  0
VERTEX
  8
1850LEVEL
 62
3
 10
1588.426
 20
-3044.385
 30
3377.000
 70
    32
  0
VERTEX
  8
1850LEVEL
 62
3
 10
1588.226
 20
-3047.316
 30
3377.000
 70
    32
  0
VERTEX
  8
1850LEVEL
 62
3
 10
1588.151
 20
-3052.444
 30
3377.000
 70
    32
  0
VERTEX
  8
1850LEVEL
 62
3
 10
1588.587
 20
-3056.579
 30
3377.000
 70
    32
  0
VERTEX
  8
1850LEVEL
 62
3
 10
1589.786
 20
-3062.009
 30
3377.000
 70
    32
  0
VERTEX
  8
1850LEVEL
 62
3
 10
1592.099
 20
-3066.932
 30
3377.000
 70
    32
  0
VERTEX
  8
1850LEVEL
 62
3
 10
1594.971
 20
-3070.764
 30
3377.000
 70
    32
  0
VERTEX
  8
1850LEVEL
 62
3
 10
1599.512
 20
-3075.352
 30
3377.000
 70
    32
  0
VERTEX
  8
1850LEVEL
 62
3
 10
1604.029
 20
-3079.400
 30
3377.000
 70
    32
  0
VERTEX
  8
1850LEVEL
 62
3
 10
1606.827
 20
-3081.864
 30
3377.000
 70
    32
  0
VERTEX
  8
1850LEVEL
 62
3
 10
1608.933
 20
-3084.279
 30
3377.000
 70
    32
  0
SEQEND
  8
1850LEVEL
  0
POLYLINE
  8
1850LEVEL
 62
3
 66
     1
 70
     8
  0
VERTEX
  8
1850LEVEL
 62
3
 10
1531.638
 20
-3041.440
 30
3377.000
 70
    32
  0
VERTEX
  8
1850LEVEL
 62
3
 10
1533.465
 20
-3044.183
 30
3377.000
 70
    32
  0
VERTEX
  8
1850LEVEL
 62
3
 10
1534.034
 20
-3046.983
 30
3377.000
 70
    32
  0
VERTEX
  8
1850LEVEL
 62
3
 10
1534.219
 20
-3050.187
 30
3377.000
 70
    32
  0
VERTEX
  8
1850LEVEL
 62
3
 10
1533.960
 20
-3053.038
 30
3377.000
 70
    32
  0
VERTEX
  8
1850LEVEL
 62
3
 10
1533.888
 20
-3057.916
 30
3377.000
 70
    32
  0
VERTEX
  8
1850LEVEL
 62
3
 10
1534.114
 20
-3061.091
 30
3377.000
 70
    32
  0
VERTEX
  8
1850LEVEL
 62
3
 10
1535.528
 20
-3064.199
 30
3377.000
 70
    32
  0
VERTEX
  8
1850LEVEL
 62
3
 10
1537.558
 20
-3066.545
 30
3377.000
 70
    32
  0
VERTEX
  8
1850LEVEL
 62
3
 10
1538.905
 20
-3067.537
 30
3377.000
 70
    32
  0
VERTEX
  8
1850LEVEL
 62
3
 10
1539.613
 20
-3067.891
 30
3377.000
 70
    32
  0
SEQEND
  8
1850LEVEL
  0
POLYLINE
  8
1850LEVEL
 62
5
 66
     1
 70
     9
  0
VERTEX
  8
1850LEVEL
 62
5
 10
2078.233
 20
-3451.942
 30
3377.000
 70
    32
  0
VERTEX
  8
1850LEVEL
 62
5
 10
2119.272
 20
-3521.899
 30
3377.000
 70
    32
  0
VERTEX
  8
1850LEVEL
 62
5
 10
2154.330
 20
-3594.408
 30
3377.000
 70
    32
  0
VERTEX
  8
1850LEVEL
 62
5
 10
2175.594
 20
-3609.541
 30
3377.000
 70
    32
  0
VERTEX
  8
1850LEVEL
 62
5
 10
2152.742
 20
-3553.452
 30
3377.000
 70
    32
  0
VERTEX
  8
1850LEVEL
 62
5
 10
2108.648
 20
-3471.364
 30
3377.000
 70
    32
  0
VERTEX
  8
1850LEVEL
 62
5
 10
2074.769
 20
-3411.247
 30
3377.000
 70
    32
  0
VERTEX
  8
1850LEVEL
 62
5
 10
2064.747
 20
-3423.981
 30
3377.000
 70
    32
  0
SEQEND
  8
1850LEVEL
  0
POLYLINE
  8
1850LEVEL
 62
5
 66
     1
 70
     9
  0
VERTEX
  8
1850LEVEL
 62
5
 10
1930.251
 20
-3420.465
 30
3377.000
 70
    32
  0
VERTEX
  8
1850LEVEL
 62
5
 10
1971.176
 20
-3495.711
 30
3377.000
 70
    32
  0
VERTEX
  8
1850LEVEL
 62
5
 10
2020.392
 20
-3575.862
 30
3377.000
 70
    32
  0
VERTEX
  8
1850LEVEL
 62
5
 10
2047.273
 20
-3638.176
 30
3377.000
 70
    32
  0
VERTEX
  8
1850LEVEL
 62
5
 10
2031.395
 20
-3631.767
 30
3377.000
 70
    32
  0
VERTEX
  8
1850LEVEL
 62
5
 10
1997.992
 20
-3567.619
 30
3377.000
 70
    32
  0
VERTEX
  8
1850LEVEL
 62
5
 10
1983.439
 20
-3568.505
 30
3377.000
 70
    32
  0
VERTEX
  8
1850LEVEL
 62
5
 10
2033.693
 20
-3656.158
 30
3377.000
 70
    32
  0
VERTEX
  8
1850LEVEL
 62
5
 10
2013.715
 20
-3650.083
 30
3377.000
 70
    32
  0
VERTEX
  8
1850LEVEL
 62
5
 10
1966.910
 20
-3589.034
 30
3377.000
 70
    32
  0
VERTEX
  8
1850LEVEL
 62
5
 10
1915.731
 20
-3511.592
 30
3377.000
 70
    32
  0
VERTEX
  8
1850LEVEL
 62
5
 10
1878.849
 20
-3474.674
 30
3377.000
 70
    32
  0
VERTEX
  8
1850LEVEL
 62
5
 10
1923.945
 20
-3543.025
 30
3377.000
 70
    32
  0
VERTEX
  8
1850LEVEL
 62
5
 10
1964.032
 20
-3608.022
 30
3377.000
 70
    32
  0
VERTEX
  8
1850LEVEL
 62
5
 10
2009.625
 20
-3679.487
 30
3377.000
 70
    32
  0
VERTEX
  8
1850LEVEL
 62
5
 10
1987.296
 20
-3664.684
 30
3377.000
 70
    32
  0
VERTEX
  8
1850LEVEL
 62
5
 10
1950.479
 20
-3618.172
 30
3377.000
 70
    32
  0
VERTEX
  8
1850LEVEL
 62
5
 10
1901.111
 20
-3545.073
 30
3377.000
 70
    32
  0
VERTEX
  8
1850LEVEL
 62
5
 10
1852.355
 20
-3469.800
 30
3377.000
 70
    32
  0
VERTEX
  8
1850LEVEL
 62
5
 10
1816.691
 20
-3402.499
 30
3377.000
 70
    32
  0
VERTEX
  8
1850LEVEL
 62
5
 10
1769.758
 20
-3314.636
 30
3377.000
 70
    32
  0
VERTEX
  8
1850LEVEL
 62
5
 10
1715.958
 20
-3229.781
 30
3377.000
 70
    32
  0
VERTEX
  8
1850LEVEL
 62
5
 10
1769.758
 20
-3314.636
 30
3377.000
 70
    32
  0
VERTEX
  8
1850LEVEL
 62
5
 10
1715.958
 20
-3229.781
 30
3377.000
 70
    32
  0
VERTEX
  8
1850LEVEL
 62
5
 10
1713.565
 20
-3224.916
 30
3377.000
 70
    32
  0
VERTEX
  8
1850LEVEL
 62
5
 10
1709.857
 20
-3217.923
 30
3377.000
 70
    32
  0
VERTEX
  8
1850LEVEL
 62
5
 10
1705.555
 20
-3210.624
 30
3377.000
 70
    32
  0
VERTEX
  8
1850LEVEL
 62
5
 10
1697.815
 20
-3196.196
 30
3377.000
 70
    32
  0
VERTEX
  8
1850LEVEL
 62
5
 10
1689.931
 20
-3181.316
 30
3377.000
 70
    32
  0
VERTEX
  8
1850LEVEL
 62
5
 10
1681.057
 20
-3164.750
 30
3377.000
 70
    32
  0
VERTEX
  8
1850LEVEL
 62
5
 10
1673.723
 20
-3150.705
 30
3377.000
 70
    32
  0
VERTEX
  8
1850LEVEL
 62
5
 10
1667.301
 20
-3138.156
 30
3377.000
 70
    32
  0
VERTEX
  8
1850LEVEL
 62
5
 10
1663.003
 20
-3128.502
 30
3377.000
 70
    32
  0
VERTEX
  8
1850LEVEL
 62
5
 10
1659.950
 20
-3119.112
 30
3377.000
 70
    32
  0
VERTEX
  8
1850LEVEL
 62
5
 10
1657.704
 20
-3111.665
 30
3377.000
 70
    32
  0
VERTEX
  8
1850LEVEL
 62
5
 10
1653.894
 20
-3103.014
 30
3377.000
 70
    32
  0
VERTEX
  8
1850LEVEL
 62
5
 10
1650.407
 20
-3096.911
 30
3377.000
 70
    32
  0
VERTEX
  8
1850LEVEL
 62
5
 10
1648.519
 20
-3095.265
 30
3377.000
 70
    32
  0
VERTEX
  8
1850LEVEL
 62
5
 10
1645.636
 20
-3096.143
 30
3377.000
 70
    32
  0
VERTEX
  8
1850LEVEL
 62
5
 10
1643.926
 20
-3099.377
 30
3377.000
 70
    32
  0
VERTEX
  8
1850LEVEL
 62
5
 10
1644.047
 20
-3104.856
 30
3377.000
 70
    32
  0
VERTEX
  8
1850LEVEL
 62
5
 10
1647.194
 20
-3113.868
 30
3377.000
 70
    32
  0
VERTEX
  8
1850LEVEL
 62
5
 10
1650.986
 20
-3125.193
 30
3377.000
 70
    32
  0
VERTEX
  8
1850LEVEL
 62
5
 10
1655.198
 20
-3136.332
 30
3377.000
 70
    32
  0
VERTEX
  8
1850LEVEL
 62
5
 10
1660.663
 20
-3148.841
 30
3377.000
 70
    32
  0
VERTEX
  8
1850LEVEL
 62
5
 10
1665.945
 20
-3160.679
 30
3377.000
 70
    32
  0
VERTEX
  8
1850LEVEL
 62
5
 10
1671.410
 20
-3173.189
 30
3377.000
 70
    32
  0
VERTEX
  8
1850LEVEL
 62
5
 10
1677.857
 20
-3187.205
 30
3377.000
 70
    32
  0
VERTEX
  8
1850LEVEL
 62
5
 10
1687.573
 20
-3204.328
 30
3377.000
 70
    32
  0
VERTEX
  8
1850LEVEL
 62
5
 10
1694.437
 20
-3215.625
 30
3377.000
 70
    32
  0
VERTEX
  8
1850LEVEL
 62
5
 10
1703.730
 20
-3232.255
 30
3377.000
 70
    32
  0
VERTEX
  8
1850LEVEL
 62
5
 10
1737.121
 20
-3290.298
 30
3377.000
 70
    32
  0
VERTEX
  8
1850LEVEL
 62
5
 10
1703.730
 20
-3232.255
 30
3377.000
 70
    32
  0
VERTEX
  8
1850LEVEL
 62
5
 10
1737.121
 20
-3290.298
 30
3377.000
 70
    32
  0
VERTEX
  8
1850LEVEL
 62
5
 10
1786.893
 20
-3383.937
 30
3377.000
 70
    32
  0
VERTEX
  8
1850LEVEL
 62
5
 10
1831.918
 20
-3458.848
 30
3377.000
 70
    32
  0
VERTEX
  8
1850LEVEL
 62
5
 10
1887.413
 20
-3542.309
 30
3377.000
 70
    32
  0
VERTEX
  8
1850LEVEL
 62
5
 10
1914.927
 20
-3591.584
 30
3377.000
 70
    32
  0
VERTEX
  8
1850LEVEL
 62
5
 10
1940.019
 20
-3638.690
 30
3377.000
 70
    32
  0
VERTEX
  8
1850LEVEL
 62
5
 10
1910.481
 20
-3604.753
 30
3377.000
 70
    32
  0
VERTEX
  8
1850LEVEL
 62
5
 10
1941.862
 20
-3661.237
 30
3377.000
 70
    32
  0
VERTEX
  8
1850LEVEL
 62
5
 10
1976.184
 20
-3735.141
 30
3377.000
 70
    32
  0
VERTEX
  8
1850LEVEL
 62
5
 10
2004.065
 20
-3806.720
 30
3377.000
 70
    32
  0
VERTEX
  8
1850LEVEL
 62
5
 10
2039.030
 20
-3896.654
 30
3377.000
 70
    32
  0
VERTEX
  8
1850LEVEL
 62
5
 10
2052.623
 20
-3956.777
 30
3377.000
 70
    32
  0
VERTEX
  8
1850LEVEL
 62
5
 10
2067.574
 20
-4019.399
 30
3377.000
 70
    32
  0
VERTEX
  8
1850LEVEL
 62
5
 10
2083.319
 20
-4090.998
 30
3377.000
 70
    32
  0
VERTEX
  8
1850LEVEL
 62
5
 10
2102.076
 20
-4173.457
 30
3377.000
 70
    32
  0
VERTEX
  8
1850LEVEL
 62
5
 10
2132.239
 20
-4260.325
 30
3377.000
 70
    32
  0
VERTEX
  8
1850LEVEL
 62
5
 10
2143.610
 20
-4315.532
 30
3377.000
 70
    32
  0
VERTEX
  8
1850LEVEL
 62
5
 10
2146.641
 20
-4384.529
 30
3377.000
 70
    32
  0
VERTEX
  8
1850LEVEL
 62
5
 10
2134.653
 20
-4446.501
 30
3377.000
 70
    32
  0
VERTEX
  8
1850LEVEL
 62
5
 10
2148.669
 20
-4490.264
 30
3377.000
 70
    32
  0
VERTEX
  8
1850LEVEL
 62
5
 10
2159.963
 20
-4453.960
 30
3377.000
 70
    32
  0
VERTEX
  8
1850LEVEL
 62
5
 10
2164.185
 20
-4382.367
 30
3377.000
 70
    32
  0
VERTEX
  8
1850LEVEL
 62
5
 10
2149.047
 20
-4282.558
 30
3377.000
 70
    32
  0
VERTEX
  8
1850LEVEL
 62
5
 10
2116.403
 20
-4160.148
 30
3377.000
 70
    32
  0
VERTEX
  8
1850LEVEL
 62
5
 10
2094.586
 20
-4062.525
 30
3377.000
 70
    32
  0
VERTEX
  8
1850LEVEL
 62
5
 10
2120.073
 20
-4101.102
 30
3377.000
 70
    32
  0
VERTEX
  8
1850LEVEL
 62
5
 10
2162.193
 20
-4179.831
 30
3377.000
 70
    32
  0
VERTEX
  8
1850LEVEL
 62
5
 10
2222.532
 20
-4290.631
 30
3377.000
 70
    32
  0
VERTEX
  8
1850LEVEL
 62
5
 10
2267.794
 20
-4384.032
 30
3377.000
 70
    32
  0
VERTEX
  8
1850LEVEL
 62
5
 10
2306.042
 20
-4475.518
 30
3377.000
 70
    32
  0
VERTEX
  8
1850LEVEL
 62
5
 10
2340.128
 20
-4507.931
 30
3377.000
 70
    32
  0
VERTEX
  8
1850LEVEL
 62
5
 10
2356.478
 20
-4479.285
 30
3377.000
 70
    32
  0
VERTEX
  8
1850LEVEL
 62
5
 10
2376.125
 20
-4507.294
 30
3377.000
 70
    32
  0
VERTEX
  8
1850LEVEL
 62
5
 10
2417.583
 20
-4629.894
 30
3377.000
 70
    32
  0
VERTEX
  8
1850LEVEL
 62
5
 10
2456.182
 20
-4734.582
 30
3377.000
 70
    32
  0
VERTEX
  8
1850LEVEL
 62
5
 10
2492.099
 20
-4711.436
 30
3377.000
 70
    32
  0
VERTEX
  8
1850LEVEL
 62
5
 10
2448.724
 20
-4618.852
 30
3377.000
 70
    32
  0
VERTEX
  8
1850LEVEL
 62
5
 10
2385.802
 20
-4460.866
 30
3377.000
 70
    32
  0
VERTEX
  8
1850LEVEL
 62
5
 10
2327.974
 20
-4308.775
 30
3377.000
 70
    32
  0
VERTEX
  8
1850LEVEL
 62
5
 10
2256.816
 20
-4153.222
 30
3377.000
 70
    32
  0
VERTEX
  8
1850LEVEL
 62
5
 10
2212.070
 20
-4003.035
 30
3377.000
 70
    32
  0
VERTEX
  8
1850LEVEL
 62
5
 10
2149.960
 20
-3840.127
 30
3377.000
 70
    32
  0
VERTEX
  8
1850LEVEL
 62
5
 10
2118.442
 20
-3704.760
 30
3377.000
 70
    32
  0
VERTEX
  8
1850LEVEL
 62
5
 10
2098.096
 20
-3604.345
 30
3377.000
 70
    32
  0
VERTEX
  8
1850LEVEL
 62
5
 10
2069.221
 20
-3503.536
 30
3377.000
 70
    32
  0
VERTEX
  8
1850LEVEL
 62
5
 10
2019.200
 20
-3408.339
 30
3377.000
 70
    32
  0
VERTEX
  8
1850LEVEL
 62
5
 10
1989.227
 20
-3392.791
 30
3377.000
 70
    32
  0
VERTEX
  8
1850LEVEL
 62
5
 10
1976.838
 20
-3380.639
 30
3377.000
 70
    32
  0
VERTEX
  8
1850LEVEL
 62
5
 10
1950.904
 20
-3398.922
 30
3377.000
 70
    32
  0
VERTEX
  8
1850LEVEL
 62
5
 10
2006.962
 20
-3491.754
 30
3377.000
 70
    32
  0
VERTEX
  8
1850LEVEL
 62
5
 10
2046.341
 20
-3573.316
 30
3377.000
 70
    32
  0
VERTEX
  8
1850LEVEL
 62
5
 10
2066.364
 20
-3652.698
 30
3377.000
 70
    32
  0
VERTEX
  8
1850LEVEL
 62
5
 10
2036.302
 20
-3600.475
 30
3377.000
 70
    32
  0
VERTEX
  8
1850LEVEL
 62
5
 10
2001.520
 20
-3521.693
 30
3377.000
 70
    32
  0
VERTEX
  8
1850LEVEL
 62
5
 10
1930.955
 20
-3388.937
 30
3377.000
 70
    32
  0
VERTEX
  8
1850LEVEL
 62
5
 10
1885.328
 20
-3312.970
 30
3377.000
 70
    32
  0
VERTEX
  8
1850LEVEL
 62
5
 10
1849.046
 20
-3249.114
 30
3377.000
 70
    32
  0
VERTEX
  8
1850LEVEL
 62
5
 10
1828.200
 20
-3216.481
 30
3377.000
 70
    32
  0
VERTEX
  8
1850LEVEL
 62
5
 10
1814.041
 20
-3213.877
 30
3377.000
 70
    32
  0
VERTEX
  8
1850LEVEL
 62
5
 10
1839.150
 20
-3254.069
 30
3377.000
 70
    32
  0
VERTEX
  8
1850LEVEL
 62
5
 10
1870.485
 20
-3314.622
 30
3377.000
 70
    32
  0
SEQEND
  8
1850LEVEL
  0
ENDSEC
  0
EOF
