999
********************************
999
*   DXF File - Entities Only   *
999
*        3D Data Format        *
999
*     Output from ENVISAGE     *
999
*     28-Dec-2007 13:53:34     *
999
********************************
  0
SECTION 
  2
HEADER
  9
$ACADVER
  1
AC1009
  9
$EXTMIN
 10
-290000.000
 20
-250000.000
 30
-4000.000
  9
$EXTMAX
 10
5000000.000
 20
600000.000
 30
6000.000
  0
ENDSEC
  0
SECTION
  2
ENTITIES
  0
POLYLINE
  8
0200LEVEL
 62
13
 66
     1
 70
     9
  0
VERTEX
  8
0200LEVEL
 62
13
 10
-1639.200
 20
1153.500
 30
5027.000
 70
    32
  0
VERTEX
  8
0200LEVEL
 62
13
 10
-1736.000
 20
1269.500
 30
5027.000
 70
    32
  0
VERTEX
  8
0200LEVEL
 62
13
 10
-1733.200
 20
1235.200
 30
5027.000
 70
    32
  0
VERTEX
  8
0200LEVEL
 62
13
 10
-1635.100
 20
1008.400
 30
5027.000
 70
    32
  0
VERTEX
  8
0200LEVEL
 62
13
 10
-1568.400
 20
900.100
 30
5027.000
 70
    32
  0
VERTEX
  8
0200LEVEL
 62
13
 10
-1463.600
 20
776.100
 30
5027.000
 70
    32
  0
VERTEX
  8
0200LEVEL
 62
13
 10
-1446.400
 20
766.100
 30
5027.000
 70
    32
  0
VERTEX
  8
0200LEVEL
 62
13
 10
-1420.900
 20
767.800
 30
5027.000
 70
    32
  0
VERTEX
  8
0200LEVEL
 62
13
 10
-1358.100
 20
720.400
 30
5027.000
 70
    32
  0
VERTEX
  8
0200LEVEL
 62
13
 10
-1392.500
 20
783.500
 30
5027.000
 70
    32
  0
VERTEX
  8
0200LEVEL
 62
13
 10
-1501.700
 20
917.700
 30
5027.000
 70
    32
  0
VERTEX
  8
0200LEVEL
 62
13
 10
-1583.000
 20
1049.600
 30
5027.000
 70
    32
  0
VERTEX
  8
0200LEVEL
 62
13
 10
-1613.700
 20
1118.400
 30
5027.000
 70
    32
  0
SEQEND
  8
0200LEVEL
  0
POLYLINE
  8
0200LEVEL
 62
7
 66
     1
 70
     9
  0
VERTEX
  8
0200LEVEL
 62
7
 10
845.600
 20
-21.300
 30
5027.000
 70
    32
  0
VERTEX
  8
0200LEVEL
 62
7
 10
873.000
 20
-129.100
 30
5027.000
 70
    32
  0
VERTEX
  8
0200LEVEL
 62
7
 10
872.800
 20
-216.000
 30
5027.000
 70
    32
  0
VERTEX
  8
0200LEVEL
 62
7
 10
820.500
 20
-248.400
 30
5027.000
 70
    32
  0
VERTEX
  8
0200LEVEL
 62
7
 10
822.300
 20
-231.400
 30
5027.000
 70
    32
  0
VERTEX
  8
0200LEVEL
 62
7
 10
808.800
 20
-241.600
 30
5027.000
 70
    32
  0
VERTEX
  8
0200LEVEL
 62
7
 10
787.600
 20
-242.600
 30
5027.000
 70
    32
  0
VERTEX
  8
0200LEVEL
 62
7
 10
850.600
 20
-209.200
 30
5027.000
 70
    32
  0
VERTEX
  8
0200LEVEL
 62
7
 10
860.500
 20
-189.100
 30
5027.000
 70
    32
  0
VERTEX
  8
0200LEVEL
 62
7
 10
848.300
 20
-104.600
 30
5027.000
 70
    32
  0
VERTEX
  8
0200LEVEL
 62
7
 10
826.400
 20
-86.600
 30
5027.000
 70
    32
  0
VERTEX
  8
0200LEVEL
 62
7
 10
806.000
 20
-47.000
 30
5027.000
 70
    32
  0
VERTEX
  8
0200LEVEL
 62
7
 10
786.200
 20
-50.100
 30
5027.000
 70
    32
  0
VERTEX
  8
0200LEVEL
 62
7
 10
742.200
 20
-184.600
 30
5027.000
 70
    32
  0
VERTEX
  8
0200LEVEL
 62
7
 10
725.500
 20
-217.500
 30
5027.000
 70
    32
  0
VERTEX
  8
0200LEVEL
 62
7
 10
704.300
 20
-237.900
 30
5027.000
 70
    32
  0
VERTEX
  8
0200LEVEL
 62
7
 10
742.200
 20
-153.200
 30
5027.000
 70
    32
  0
VERTEX
  8
0200LEVEL
 62
7
 10
761.100
 20
-60.700
 30
5027.000
 70
    32
  0
VERTEX
  8
0200LEVEL
 62
7
 10
818.100
 20
2.400
 30
5027.000
 70
    32
  0
VERTEX
  8
0200LEVEL
 62
7
 10
857.200
 20
162.400
 30
5027.000
 70
    32
  0
VERTEX
  8
0200LEVEL
 62
7
 10
868.400
 20
300.800
 30
5027.000
 70
    32
  0
VERTEX
  8
0200LEVEL
 62
7
 10
849.100
 20
358.400
 30
5027.000
 70
    32
  0
VERTEX
  8
0200LEVEL
 62
7
 10
876.000
 20
369.700
 30
5027.000
 70
    32
  0
VERTEX
  8
0200LEVEL
 62
7
 10
878.800
 20
394.400
 30
5027.000
 70
    32
  0
VERTEX
  8
0200LEVEL
 62
7
 10
865.900
 20
487.000
 30
5027.000
 70
    32
  0
VERTEX
  8
0200LEVEL
 62
7
 10
865.400
 20
588.400
 30
5027.000
 70
    32
  0
VERTEX
  8
0200LEVEL
 62
7
 10
905.700
 20
595.700
 30
5027.000
 70
    32
  0
VERTEX
  8
0200LEVEL
 62
7
 10
920.100
 20
554.000
 30
5027.000
 70
    32
  0
VERTEX
  8
0200LEVEL
 62
7
 10
962.400
 20
492.500
 30
5027.000
 70
    32
  0
VERTEX
  8
0200LEVEL
 62
7
 10
1019.200
 20
459.200
 30
5027.000
 70
    32
  0
VERTEX
  8
0200LEVEL
 62
7
 10
1029.400
 20
434.400
 30
5027.000
 70
    32
  0
VERTEX
  8
0200LEVEL
 62
7
 10
1025.800
 20
414.600
 30
5027.000
 70
    32
  0
VERTEX
  8
0200LEVEL
 62
7
 10
1015.200
 20
404.400
 30
5027.000
 70
    32
  0
VERTEX
  8
0200LEVEL
 62
7
 10
993.000
 20
411.500
 30
5027.000
 70
    32
  0
VERTEX
  8
0200LEVEL
 62
7
 10
943.200
 20
446.200
 30
5027.000
 70
    32
  0
VERTEX
  8
0200LEVEL
 62
7
 10
931.200
 20
448.000
 30
5027.000
 70
    32
  0
VERTEX
  8
0200LEVEL
 62
7
 10
919.900
 20
436.700
 30
5027.000
 70
    32
  0
VERTEX
  8
0200LEVEL
 62
7
 10
919.000
 20
340.300
 30
5027.000
 70
    32
  0
VERTEX
  8
0200LEVEL
 62
7
 10
899.500
 20
317.700
 30
5027.000
 70
    32
  0
VERTEX
  8
0200LEVEL
 62
7
 10
895.400
 20
171.100
 30
5027.000
 70
    32
  0
VERTEX
  8
0200LEVEL
 62
7
 10
879.300
 20
83.600
 30
5027.000
 70
    32
  0
VERTEX
  8
0200LEVEL
 62
7
 10
849.900
 20
22.900
 30
5027.000
 70
    32
  0
SEQEND
  8
0200LEVEL
  0
POLYLINE
  8
0200LEVEL
 62
13
 66
     1
 70
     9
  0
VERTEX
  8
0200LEVEL
 62
13
 10
458.813
 20
-903.116
 30
5027.000
 70
    32
  0
VERTEX
  8
0200LEVEL
 62
13
 10
475.658
 20
-919.514
 30
5027.000
 70
    32
  0
VERTEX
  8
0200LEVEL
 62
13
 10
532.398
 20
-1148.408
 30
5027.000
 70
    32
  0
VERTEX
  8
0200LEVEL
 62
13
 10
572.633
 20
-1258.535
 30
5027.000
 70
    32
  0
VERTEX
  8
0200LEVEL
 62
13
 10
572.762
 20
-1359.678
 30
5027.000
 70
    32
  0
VERTEX
  8
0200LEVEL
 62
13
 10
550.854
 20
-1411.089
 30
5027.000
 70
    32
  0
VERTEX
  8
0200LEVEL
 62
13
 10
539.636
 20
-1362.472
 30
5027.000
 70
    32
  0
VERTEX
  8
0200LEVEL
 62
13
 10
521.593
 20
-1332.812
 30
5027.000
 70
    32
  0
VERTEX
  8
0200LEVEL
 62
13
 10
489.199
 20
-1208.624
 30
5027.000
 70
    32
  0
VERTEX
  8
0200LEVEL
 62
13
 10
467.498
 20
-950.952
 30
5027.000
 70
    32
  0
SEQEND
  8
0200LEVEL
  0
POLYLINE
  8
0200LEVEL
 62
13
 66
     1
 70
     9
  0
VERTEX
  8
0200LEVEL
 62
13
 10
592.500
 20
-1604.100
 30
5027.000
 70
    32
  0
VERTEX
  8
0200LEVEL
 62
13
 10
602.100
 20
-1640.000
 30
5027.000
 70
    32
  0
VERTEX
  8
0200LEVEL
 62
13
 10
637.000
 20
-1688.900
 30
5027.000
 70
    32
  0
VERTEX
  8
0200LEVEL
 62
13
 10
648.841
 20
-1695.098
 30
5027.000
 70
    32
  0
VERTEX
  8
0200LEVEL
 62
13
 10
677.580
 20
-1595.804
 30
5027.000
 70
    32
  0
VERTEX
  8
0200LEVEL
 62
13
 10
604.035
 20
-1252.238
 30
5027.000
 70
    32
  0
VERTEX
  8
0200LEVEL
 62
13
 10
590.881
 20
-1569.965
 30
5027.000
 70
    32
  0
SEQEND
  8
0200LEVEL
  0
POLYLINE
  8
0200LEVEL
 62
7
 66
     1
 70
     8
  0
VERTEX
  8
0200LEVEL
 62
7
 10
-2759.900
 20
1115.400
 30
5027.000
 70
    32
  0
VERTEX
  8
0200LEVEL
 62
7
 10
-2733.500
 20
1065.800
 30
5027.000
 70
    32
  0
VERTEX
  8
0200LEVEL
 62
7
 10
-2498.600
 20
808.600
 30
5027.000
 70
    32
  0
VERTEX
  8
0200LEVEL
 62
7
 10
-2487.900
 20
809.900
 30
5027.000
 70
    32
  0
VERTEX
  8
0200LEVEL
 62
7
 10
-2490.000
 20
824.800
 30
5027.000
 70
    32
  0
VERTEX
  8
0200LEVEL
 62
7
 10
-2588.100
 20
976.400
 30
5027.000
 70
    32
  0
VERTEX
  8
0200LEVEL
 62
7
 10
-2749.400
 20
1177.300
 30
5027.000
 70
    32
  0
SEQEND
  8
0200LEVEL
  0
POLYLINE
  8
0200LEVEL
 62
7
 66
     1
 70
     8
  0
VERTEX
  8
0200LEVEL
 62
7
 10
-2962.800
 20
-91.300
 30
5027.000
 70
    32
  0
VERTEX
  8
0200LEVEL
 62
7
 10
-2966.900
 20
-71.400
 30
5027.000
 70
    32
  0
VERTEX
  8
0200LEVEL
 62
7
 10
-2956.600
 20
-66.500
 30
5027.000
 70
    32
  0
VERTEX
  8
0200LEVEL
 62
7
 10
-2903.100
 20
-90.400
 30
5027.000
 70
    32
  0
VERTEX
  8
0200LEVEL
 62
7
 10
-2860.500
 20
-126.000
 30
5027.000
 70
    32
  0
VERTEX
  8
0200LEVEL
 62
7
 10
-2826.700
 20
-176.200
 30
5027.000
 70
    32
  0
VERTEX
  8
0200LEVEL
 62
7
 10
-2672.900
 20
-316.100
 30
5027.000
 70
    32
  0
VERTEX
  8
0200LEVEL
 62
7
 10
-2658.600
 20
-322.100
 30
5027.000
 70
    32
  0
VERTEX
  8
0200LEVEL
 62
7
 10
-2655.600
 20
-314.300
 30
5027.000
 70
    32
  0
VERTEX
  8
0200LEVEL
 62
7
 10
-2681.800
 20
-265.600
 30
5027.000
 70
    32
  0
VERTEX
  8
0200LEVEL
 62
7
 10
-2818.800
 20
-70.400
 30
5027.000
 70
    32
  0
VERTEX
  8
0200LEVEL
 62
7
 10
-2903.300
 20
97.200
 30
5027.000
 70
    32
  0
VERTEX
  8
0200LEVEL
 62
7
 10
-2899.500
 20
103.800
 30
5027.000
 70
    32
  0
VERTEX
  8
0200LEVEL
 62
7
 10
-2870.500
 20
76.900
 30
5027.000
 70
    32
  0
VERTEX
  8
0200LEVEL
 62
7
 10
-2857.400
 20
80.300
 30
5027.000
 70
    32
  0
VERTEX
  8
0200LEVEL
 62
7
 10
-2927.900
 20
267.100
 30
5027.000
 70
    32
  0
VERTEX
  8
0200LEVEL
 62
7
 10
-2913.100
 20
261.000
 30
5027.000
 70
    32
  0
VERTEX
  8
0200LEVEL
 62
7
 10
-2929.700
 20
297.700
 30
5027.000
 70
    32
  0
VERTEX
  8
0200LEVEL
 62
7
 10
-2953.300
 20
325.500
 30
5027.000
 70
    32
  0
VERTEX
  8
0200LEVEL
 62
7
 10
-2915.300
 20
309.900
 30
5027.000
 70
    32
  0
VERTEX
  8
0200LEVEL
 62
7
 10
-2915.200
 20
328.900
 30
5027.000
 70
    32
  0
VERTEX
  8
0200LEVEL
 62
7
 10
-2946.100
 20
401.900
 30
5027.000
 70
    32
  0
VERTEX
  8
0200LEVEL
 62
7
 10
-2906.400
 20
388.800
 30
5027.000
 70
    32
  0
VERTEX
  8
0200LEVEL
 62
7
 10
-2896.400
 20
394.700
 30
5027.000
 70
    32
  0
VERTEX
  8
0200LEVEL
 62
7
 10
-2903.200
 20
435.100
 30
5027.000
 70
    32
  0
VERTEX
  8
0200LEVEL
 62
7
 10
-2922.300
 20
477.000
 30
5027.000
 70
    32
  0
VERTEX
  8
0200LEVEL
 62
7
 10
-2968.100
 20
526.600
 30
5027.000
 70
    32
  0
VERTEX
  8
0200LEVEL
 62
7
 10
-3085.700
 20
602.100
 30
5027.000
 70
    32
  0
VERTEX
  8
0200LEVEL
 62
7
 10
-3067.900
 20
604.200
 30
5027.000
 70
    32
  0
VERTEX
  8
0200LEVEL
 62
7
 10
-3080.700
 20
616.000
 30
5027.000
 70
    32
  0
VERTEX
  8
0200LEVEL
 62
7
 10
-3170.000
 20
670.200
 30
5027.000
 70
    32
  0
VERTEX
  8
0200LEVEL
 62
7
 10
-3188.800
 20
698.000
 30
5027.000
 70
    32
  0
VERTEX
  8
0200LEVEL
 62
7
 10
-3112.500
 20
674.200
 30
5027.000
 70
    32
  0
VERTEX
  8
0200LEVEL
 62
7
 10
-3106.900
 20
686.800
 30
5027.000
 70
    32
  0
VERTEX
  8
0200LEVEL
 62
7
 10
-3208.200
 20
848.800
 30
5027.000
 70
    32
  0
SEQEND
  8
0200LEVEL
  0
POLYLINE
  8
0200LEVEL
 62
7
 66
     1
 70
     8
  0
VERTEX
  8
0200LEVEL
 62
7
 10
-3350.400
 20
748.900
 30
5027.000
 70
    32
  0
VERTEX
  8
0200LEVEL
 62
7
 10
-3150.800
 20
602.000
 30
5027.000
 70
    32
  0
VERTEX
  8
0200LEVEL
 62
7
 10
-3161.800
 20
600.500
 30
5027.000
 70
    32
  0
VERTEX
  8
0200LEVEL
 62
7
 10
-3156.200
 20
592.100
 30
5027.000
 70
    32
  0
VERTEX
  8
0200LEVEL
 62
7
 10
-3030.700
 20
497.400
 30
5027.000
 70
    32
  0
VERTEX
  8
0200LEVEL
 62
7
 10
-3027.300
 20
490.300
 30
5027.000
 70
    32
  0
VERTEX
  8
0200LEVEL
 62
7
 10
-3062.500
 20
503.200
 30
5027.000
 70
    32
  0
VERTEX
  8
0200LEVEL
 62
7
 10
-3067.700
 20
497.800
 30
5027.000
 70
    32
  0
VERTEX
  8
0200LEVEL
 62
7
 10
-3029.900
 20
446.200
 30
5027.000
 70
    32
  0
VERTEX
  8
0200LEVEL
 62
7
 10
-3004.200
 20
387.500
 30
5027.000
 70
    32
  0
VERTEX
  8
0200LEVEL
 62
7
 10
-3009.200
 20
383.000
 30
5027.000
 70
    32
  0
VERTEX
  8
0200LEVEL
 62
7
 10
-3044.100
 20
413.900
 30
5027.000
 70
    32
  0
VERTEX
  8
0200LEVEL
 62
7
 10
-3020.100
 20
368.200
 30
5027.000
 70
    32
  0
VERTEX
  8
0200LEVEL
 62
7
 10
-3054.000
 20
399.000
 30
5027.000
 70
    32
  0
VERTEX
  8
0200LEVEL
 62
7
 10
-3027.300
 20
359.100
 30
5027.000
 70
    32
  0
VERTEX
  8
0200LEVEL
 62
7
 10
-2973.700
 20
199.800
 30
5027.000
 70
    32
  0
VERTEX
  8
0200LEVEL
 62
7
 10
-2979.600
 20
193.000
 30
5027.000
 70
    32
  0
VERTEX
  8
0200LEVEL
 62
7
 10
-3021.200
 20
225.500
 30
5027.000
 70
    32
  0
VERTEX
  8
0200LEVEL
 62
7
 10
-3027.600
 20
223.000
 30
5027.000
 70
    32
  0
VERTEX
  8
0200LEVEL
 62
7
 10
-2966.900
 20
101.600
 30
5027.000
 70
    32
  0
VERTEX
  8
0200LEVEL
 62
7
 10
-2938.200
 20
10.600
 30
5027.000
 70
    32
  0
VERTEX
  8
0200LEVEL
 62
7
 10
-2952.100
 20
-1.200
 30
5027.000
 70
    32
  0
VERTEX
  8
0200LEVEL
 62
7
 10
-3072.900
 20
85.800
 30
5027.000
 70
    32
  0
VERTEX
  8
0200LEVEL
 62
7
 10
-3100.700
 20
96.300
 30
5027.000
 70
    32
  0
VERTEX
  8
0200LEVEL
 62
7
 10
-3106.800
 20
89.700
 30
5027.000
 70
    32
  0
VERTEX
  8
0200LEVEL
 62
7
 10
-3099.700
 20
57.300
 30
5027.000
 70
    32
  0
VERTEX
  8
0200LEVEL
 62
7
 10
-3043.300
 20
-49.900
 30
5027.000
 70
    32
  0
VERTEX
  8
0200LEVEL
 62
7
 10
-3040.200
 20
-116.200
 30
5027.000
 70
    32
  0
VERTEX
  8
0200LEVEL
 62
7
 10
-2938.400
 20
-260.500
 30
5027.000
 70
    32
  0
VERTEX
  8
0200LEVEL
 62
7
 10
-2705.300
 20
-496.600
 30
5027.000
 70
    32
  0
VERTEX
  8
0200LEVEL
 62
7
 10
-2649.400
 20
-578.700
 30
5027.000
 70
    32
  0
VERTEX
  8
0200LEVEL
 62
7
 10
-2660.200
 20
-577.500
 30
5027.000
 70
    32
  0
VERTEX
  8
0200LEVEL
 62
7
 10
-2886.800
 20
-388.900
 30
5027.000
 70
    32
  0
VERTEX
  8
0200LEVEL
 62
7
 10
-3018.100
 20
-228.400
 30
5027.000
 70
    32
  0
VERTEX
  8
0200LEVEL
 62
7
 10
-3136.100
 20
-32.500
 30
5027.000
 70
    32
  0
VERTEX
  8
0200LEVEL
 62
7
 10
-3155.400
 20
-23.200
 30
5027.000
 70
    32
  0
VERTEX
  8
0200LEVEL
 62
7
 10
-3171.600
 20
-64.600
 30
5027.000
 70
    32
  0
VERTEX
  8
0200LEVEL
 62
7
 10
-2842.700
 20
-519.700
 30
5027.000
 70
    32
  0
VERTEX
  8
0200LEVEL
 62
7
 10
-2766.700
 20
-570.400
 30
5027.000
 70
    32
  0
VERTEX
  8
0200LEVEL
 62
7
 10
-2605.700
 20
-701.100
 30
5027.000
 70
    32
  0
VERTEX
  8
0200LEVEL
 62
7
 10
-2561.300
 20
-726.000
 30
5027.000
 70
    32
  0
VERTEX
  8
0200LEVEL
 62
7
 10
-2453.600
 20
-814.600
 30
5027.000
 70
    32
  0
VERTEX
  8
0200LEVEL
 62
7
 10
-2356.600
 20
-905.800
 30
5027.000
 70
    32
  0
VERTEX
  8
0200LEVEL
 62
7
 10
-1932.900
 20
-1389.300
 30
5027.000
 70
    32
  0
VERTEX
  8
0200LEVEL
 62
7
 10
-1871.000
 20
-1429.500
 30
5027.000
 70
    32
  0
VERTEX
  8
0200LEVEL
 62
7
 10
-1908.900
 20
-1358.100
 30
5027.000
 70
    32
  0
VERTEX
  8
0200LEVEL
 62
7
 10
-2010.700
 20
-1226.400
 30
5027.000
 70
    32
  0
VERTEX
  8
0200LEVEL
 62
7
 10
-2014.000
 20
-1208.100
 30
5027.000
 70
    32
  0
VERTEX
  8
0200LEVEL
 62
7
 10
-2007.500
 20
-1208.100
 30
5027.000
 70
    32
  0
VERTEX
  8
0200LEVEL
 62
7
 10
-1944.400
 20
-1236.200
 30
5027.000
 70
    32
  0
VERTEX
  8
0200LEVEL
 62
7
 10
-1964.400
 20
-1200.200
 30
5027.000
 70
    32
  0
VERTEX
  8
0200LEVEL
 62
7
 10
-2195.700
 20
-945.600
 30
5027.000
 70
    32
  0
VERTEX
  8
0200LEVEL
 62
7
 10
-2551.500
 20
-592.900
 30
5027.000
 70
    32
  0
VERTEX
  8
0200LEVEL
 62
7
 10
-2898.200
 20
-200.300
 30
5027.000
 70
    32
  0
VERTEX
  8
0200LEVEL
 62
7
 10
-2945.800
 20
-116.100
 30
5027.000
 70
    32
  0
SEQEND
  8
0200LEVEL
  0
POLYLINE
  8
0200LEVEL
 62
13
 66
     1
 70
     8
  0
VERTEX
  8
0200LEVEL
 62
13
 10
-2438.500
 20
1401.900
 30
5027.000
 70
    32
  0
VERTEX
  8
0200LEVEL
 62
13
 10
-2319.200
 20
1192.200
 30
5027.000
 70
    32
  0
VERTEX
  8
0200LEVEL
 62
13
 10
-2289.300
 20
1114.600
 30
5027.000
 70
    32
  0
VERTEX
  8
0200LEVEL
 62
13
 10
-2469.500
 20
1369.500
 30
5027.000
 70
    32
  0
SEQEND
  8
0200LEVEL
  0
POLYLINE
  8
0200LEVEL
 62
7
 66
     1
 70
     8
  0
VERTEX
  8
0200LEVEL
 62
7
 10
-1741.200
 20
-140.200
 30
5027.000
 70
    32
  0
VERTEX
  8
0200LEVEL
 62
7
 10
-1650.000
 20
-296.000
 30
5027.000
 70
    32
  0
VERTEX
  8
0200LEVEL
 62
7
 10
-1510.600
 20
-502.900
 30
5027.000
 70
    32
  0
VERTEX
  8
0200LEVEL
 62
7
 10
-1251.600
 20
-828.100
 30
5027.000
 70
    32
  0
VERTEX
  8
0200LEVEL
 62
7
 10
-1012.500
 20
-1181.100
 30
5027.000
 70
    32
  0
VERTEX
  8
0200LEVEL
 62
7
 10
-963.500
 20
-1242.300
 30
5027.000
 70
    32
  0
VERTEX
  8
0200LEVEL
 62
7
 10
-877.000
 20
-1316.500
 30
5027.000
 70
    32
  0
VERTEX
  8
0200LEVEL
 62
7
 10
-870.800
 20
-1299.900
 30
5027.000
 70
    32
  0
VERTEX
  8
0200LEVEL
 62
7
 10
-899.300
 20
-1227.800
 30
5027.000
 70
    32
  0
VERTEX
  8
0200LEVEL
 62
7
 10
-942.400
 20
-1139.000
 30
5027.000
 70
    32
  0
VERTEX
  8
0200LEVEL
 62
7
 10
-1085.600
 20
-929.800
 30
5027.000
 70
    32
  0
VERTEX
  8
0200LEVEL
 62
7
 10
-1226.500
 20
-699.900
 30
5027.000
 70
    32
  0
VERTEX
  8
0200LEVEL
 62
7
 10
-1430.800
 20
-390.300
 30
5027.000
 70
    32
  0
VERTEX
  8
0200LEVEL
 62
7
 10
-1549.400
 20
-235.300
 30
5027.000
 70
    32
  0
VERTEX
  8
0200LEVEL
 62
7
 10
-1674.600
 20
-24.700
 30
5027.000
 70
    32
  0
VERTEX
  8
0200LEVEL
 62
7
 10
-1892.400
 20
412.300
 30
5027.000
 70
    32
  0
VERTEX
  8
0200LEVEL
 62
7
 10
-1993.600
 20
593.200
 30
5027.000
 70
    32
  0
VERTEX
  8
0200LEVEL
 62
7
 10
-2316.300
 20
1283.600
 30
5027.000
 70
    32
  0
VERTEX
  8
0200LEVEL
 62
7
 10
-2406.900
 20
1422.600
 30
5027.000
 70
    32
  0
SEQEND
  8
0200LEVEL
  0
POLYLINE
  8
0200LEVEL
 62
7
 66
     1
 70
     8
  0
VERTEX
  8
0200LEVEL
 62
7
 10
-2525.800
 20
1334.000
 30
5027.000
 70
    32
  0
VERTEX
  8
0200LEVEL
 62
7
 10
-2398.200
 20
1185.100
 30
5027.000
 70
    32
  0
VERTEX
  8
0200LEVEL
 62
7
 10
-2257.900
 20
960.800
 30
5027.000
 70
    32
  0
VERTEX
  8
0200LEVEL
 62
7
 10
-2083.200
 20
603.100
 30
5027.000
 70
    32
  0
VERTEX
  8
0200LEVEL
 62
7
 10
-1784.300
 20
-50.200
 30
5027.000
 70
    32
  0
VERTEX
  8
0200LEVEL
 62
7
 10
-1741.200
 20
-140.200
 30
5027.000
 70
    32
  0
SEQEND
  8
0200LEVEL
  0
POLYLINE
  8
0200LEVEL
 62
13
 66
     1
 70
     8
  0
VERTEX
  8
0200LEVEL
 62
13
 10
-2012.100
 20
1703.500
 30
5027.000
 70
    32
  0
VERTEX
  8
0200LEVEL
 62
13
 10
-1956.000
 20
1594.900
 30
5027.000
 70
    32
  0
VERTEX
  8
0200LEVEL
 62
13
 10
-1934.000
 20
1524.000
 30
5027.000
 70
    32
  0
VERTEX
  8
0200LEVEL
 62
13
 10
-1935.500
 20
1496.200
 30
5027.000
 70
    32
  0
VERTEX
  8
0200LEVEL
 62
13
 10
-1940.500
 20
1463.200
 30
5027.000
 70
    32
  0
VERTEX
  8
0200LEVEL
 62
13
 10
-1920.900
 20
1282.300
 30
5027.000
 70
    32
  0
VERTEX
  8
0200LEVEL
 62
13
 10
-1833.000
 20
1103.000
 30
5027.000
 70
    32
  0
VERTEX
  8
0200LEVEL
 62
13
 10
-1693.600
 20
896.600
 30
5027.000
 70
    32
  0
VERTEX
  8
0200LEVEL
 62
13
 10
-1580.600
 20
702.300
 30
5027.000
 70
    32
  0
VERTEX
  8
0200LEVEL
 62
13
 10
-1476.900
 20
557.200
 30
5027.000
 70
    32
  0
VERTEX
  8
0200LEVEL
 62
13
 10
-1380.100
 20
383.000
 30
5027.000
 70
    32
  0
VERTEX
  8
0200LEVEL
 62
13
 10
-1355.900
 20
364.300
 30
5027.000
 70
    32
  0
VERTEX
  8
0200LEVEL
 62
13
 10
-1392.400
 20
485.800
 30
5027.000
 70
    32
  0
VERTEX
  8
0200LEVEL
 62
13
 10
-1384.300
 20
497.300
 30
5027.000
 70
    32
  0
VERTEX
  8
0200LEVEL
 62
13
 10
-1367.700
 20
480.900
 30
5027.000
 70
    32
  0
VERTEX
  8
0200LEVEL
 62
13
 10
-1172.600
 20
145.700
 30
5027.000
 70
    32
  0
VERTEX
  8
0200LEVEL
 62
13
 10
-1018.000
 20
-155.000
 30
5027.000
 70
    32
  0
VERTEX
  8
0200LEVEL
 62
13
 10
-809.400
 20
-456.300
 30
5027.000
 70
    32
  0
VERTEX
  8
0200LEVEL
 62
13
 10
-778.600
 20
-482.300
 30
5027.000
 70
    32
  0
VERTEX
  8
0200LEVEL
 62
13
 10
-772.500
 20
-477.500
 30
5027.000
 70
    32
  0
VERTEX
  8
0200LEVEL
 62
13
 10
-781.000
 20
-424.100
 30
5027.000
 70
    32
  0
VERTEX
  8
0200LEVEL
 62
13
 10
-886.900
 20
-171.000
 30
5027.000
 70
    32
  0
VERTEX
  8
0200LEVEL
 62
13
 10
-913.500
 20
-115.200
 30
5027.000
 70
    32
  0
VERTEX
  8
0200LEVEL
 62
13
 10
-1013.100
 20
30.200
 30
5027.000
 70
    32
  0
VERTEX
  8
0200LEVEL
 62
13
 10
-1163.700
 20
295.000
 30
5027.000
 70
    32
  0
VERTEX
  8
0200LEVEL
 62
13
 10
-1307.700
 20
607.200
 30
5027.000
 70
    32
  0
VERTEX
  8
0200LEVEL
 62
13
 10
-1326.400
 20
674.800
 30
5027.000
 70
    32
  0
VERTEX
  8
0200LEVEL
 62
13
 10
-1295.900
 20
639.900
 30
5027.000
 70
    32
  0
VERTEX
  8
0200LEVEL
 62
13
 10
-1139.700
 20
402.500
 30
5027.000
 70
    32
  0
VERTEX
  8
0200LEVEL
 62
13
 10
-1018.100
 20
108.600
 30
5027.000
 70
    32
  0
VERTEX
  8
0200LEVEL
 62
13
 10
-947.800
 20
-7.500
 30
5027.000
 70
    32
  0
VERTEX
  8
0200LEVEL
 62
13
 10
-902.800
 20
-109.100
 30
5027.000
 70
    32
  0
VERTEX
  8
0200LEVEL
 62
13
 10
-808.100
 20
-279.300
 30
5027.000
 70
    32
  0
VERTEX
  8
0200LEVEL
 62
13
 10
-722.900
 20
-397.600
 30
5027.000
 70
    32
  0
VERTEX
  8
0200LEVEL
 62
13
 10
-621.600
 20
-568.500
 30
5027.000
 70
    32
  0
VERTEX
  8
0200LEVEL
 62
13
 10
-476.200
 20
-862.000
 30
5027.000
 70
    32
  0
VERTEX
  8
0200LEVEL
 62
13
 10
-451.600
 20
-947.800
 30
5027.000
 70
    32
  0
VERTEX
  8
0200LEVEL
 62
13
 10
-338.200
 20
-1126.000
 30
5027.000
 70
    32
  0
VERTEX
  8
0200LEVEL
 62
13
 10
-274.700
 20
-1249.500
 30
5027.000
 70
    32
  0
VERTEX
  8
0200LEVEL
 62
13
 10
-55.200
 20
-1753.100
 30
5027.000
 70
    32
  0
VERTEX
  8
0200LEVEL
 62
13
 10
-37.100
 20
-1774.600
 30
5027.000
 70
    32
  0
VERTEX
  8
0200LEVEL
 62
13
 10
-36.000
 20
-1761.200
 30
5027.000
 70
    32
  0
VERTEX
  8
0200LEVEL
 62
13
 10
-59.900
 20
-1579.200
 30
5027.000
 70
    32
  0
VERTEX
  8
0200LEVEL
 62
13
 10
-5.900
 20
-1631.100
 30
5027.000
 70
    32
  0
VERTEX
  8
0200LEVEL
 62
13
 10
142.900
 20
-1854.000
 30
5027.000
 70
    32
  0
VERTEX
  8
0200LEVEL
 62
13
 10
249.900
 20
-2032.900
 30
5027.000
 70
    32
  0
VERTEX
  8
0200LEVEL
 62
13
 10
277.000
 20
-2107.800
 30
5027.000
 70
    32
  0
VERTEX
  8
0200LEVEL
 62
13
 10
288.600
 20
-2116.200
 30
5027.000
 70
    32
  0
VERTEX
  8
0200LEVEL
 62
13
 10
495.300
 20
-2563.400
 30
5027.000
 70
    32
  0
VERTEX
  8
0200LEVEL
 62
13
 10
572.600
 20
-2675.000
 30
5027.000
 70
    32
  0
VERTEX
  8
0200LEVEL
 62
13
 10
584.900
 20
-2701.500
 30
5027.000
 70
    32
  0
VERTEX
  8
0200LEVEL
 62
13
 10
586.000
 20
-2745.900
 30
5027.000
 70
    32
  0
VERTEX
  8
0200LEVEL
 62
13
 10
632.392
 20
-2828.982
 30
5027.000
 70
    32
  0
VERTEX
  8
0200LEVEL
 62
13
 10
641.216
 20
-2847.886
 30
5027.000
 70
    32
  0
VERTEX
  8
0200LEVEL
 62
13
 10
694.600
 20
-2933.600
 30
5027.000
 70
    32
  0
VERTEX
  8
0200LEVEL
 62
13
 10
704.100
 20
-2937.100
 30
5027.000
 70
    32
  0
VERTEX
  8
0200LEVEL
 62
13
 10
688.100
 20
-2872.700
 30
5027.000
 70
    32
  0
VERTEX
  8
0200LEVEL
 62
13
 10
737.300
 20
-2901.900
 30
5027.000
 70
    32
  0
VERTEX
  8
0200LEVEL
 62
13
 10
741.900
 20
-2894.600
 30
5027.000
 70
    32
  0
VERTEX
  8
0200LEVEL
 62
13
 10
675.133
 20
-2794.844
 30
5027.000
 70
    32
  0
VERTEX
  8
0200LEVEL
 62
13
 10
663.561
 20
-2782.740
 30
5027.000
 70
    32
  0
VERTEX
  8
0200LEVEL
 62
13
 10
639.700
 20
-2743.800
 30
5027.000
 70
    32
  0
VERTEX
  8
0200LEVEL
 62
13
 10
648.800
 20
-2735.000
 30
5027.000
 70
    32
  0
VERTEX
  8
0200LEVEL
 62
13
 10
671.100
 20
-2741.300
 30
5027.000
 70
    32
  0
VERTEX
  8
0200LEVEL
 62
13
 10
673.700
 20
-2731.700
 30
5027.000
 70
    32
  0
VERTEX
  8
0200LEVEL
 62
13
 10
590.700
 20
-2664.800
 30
5027.000
 70
    32
  0
VERTEX
  8
0200LEVEL
 62
13
 10
556.900
 20
-2621.600
 30
5027.000
 70
    32
  0
VERTEX
  8
0200LEVEL
 62
13
 10
497.300
 20
-2467.100
 30
5027.000
 70
    32
  0
VERTEX
  8
0200LEVEL
 62
13
 10
359.700
 20
-2052.200
 30
5027.000
 70
    32
  0
VERTEX
  8
0200LEVEL
 62
13
 10
334.700
 20
-2013.400
 30
5027.000
 70
    32
  0
VERTEX
  8
0200LEVEL
 62
13
 10
217.000
 20
-1750.700
 30
5027.000
 70
    32
  0
VERTEX
  8
0200LEVEL
 62
13
 10
-45.800
 20
-1320.800
 30
5027.000
 70
    32
  0
VERTEX
  8
0200LEVEL
 62
13
 10
-204.200
 20
-1097.100
 30
5027.000
 70
    32
  0
VERTEX
  8
0200LEVEL
 62
13
 10
-457.600
 20
-649.200
 30
5027.000
 70
    32
  0
VERTEX
  8
0200LEVEL
 62
13
 10
-502.000
 20
-529.900
 30
5027.000
 70
    32
  0
VERTEX
  8
0200LEVEL
 62
13
 10
-619.500
 20
-268.000
 30
5027.000
 70
    32
  0
VERTEX
  8
0200LEVEL
 62
13
 10
-662.400
 20
-73.300
 30
5027.000
 70
    32
  0
VERTEX
  8
0200LEVEL
 62
13
 10
-769.000
 20
108.500
 30
5027.000
 70
    32
  0
VERTEX
  8
0200LEVEL
 62
13
 10
-1033.800
 20
721.300
 30
5027.000
 70
    32
  0
VERTEX
  8
0200LEVEL
 62
13
 10
-1103.500
 20
854.600
 30
5027.000
 70
    32
  0
VERTEX
  8
0200LEVEL
 62
13
 10
-1235.800
 20
1033.300
 30
5027.000
 70
    32
  0
VERTEX
  8
0200LEVEL
 62
13
 10
-1245.000
 20
1113.400
 30
5027.000
 70
    32
  0
VERTEX
  8
0200LEVEL
 62
13
 10
-1264.600
 20
1148.800
 30
5027.000
 70
    32
  0
VERTEX
  8
0200LEVEL
 62
13
 10
-1364.700
 20
1307.300
 30
5027.000
 70
    32
  0
VERTEX
  8
0200LEVEL
 62
13
 10
-1482.800
 20
1462.200
 30
5027.000
 70
    32
  0
VERTEX
  8
0200LEVEL
 62
13
 10
-1529.400
 20
1564.800
 30
5027.000
 70
    32
  0
VERTEX
  8
0200LEVEL
 62
13
 10
-1653.600
 20
1784.700
 30
5027.000
 70
    32
  0
VERTEX
  8
0200LEVEL
 62
13
 10
-1656.500
 20
1800.000
 30
5027.000
 70
    32
  0
VERTEX
  8
0200LEVEL
 62
13
 10
-1648.300
 20
1799.400
 30
5027.000
 70
    32
  0
VERTEX
  8
0200LEVEL
 62
13
 10
-1522.600
 20
1666.800
 30
5027.000
 70
    32
  0
VERTEX
  8
0200LEVEL
 62
13
 10
-1485.700
 20
1658.200
 30
5027.000
 70
    32
  0
VERTEX
  8
0200LEVEL
 62
13
 10
-1447.500
 20
1613.800
 30
5027.000
 70
    32
  0
VERTEX
  8
0200LEVEL
 62
13
 10
-1319.500
 20
1546.700
 30
5027.000
 70
    32
  0
VERTEX
  8
0200LEVEL
 62
13
 10
-1219.200
 20
1393.100
 30
5027.000
 70
    32
  0
VERTEX
  8
0200LEVEL
 62
13
 10
-1189.600
 20
1315.300
 30
5027.000
 70
    32
  0
VERTEX
  8
0200LEVEL
 62
13
 10
-1201.100
 20
1307.900
 30
5027.000
 70
    32
  0
VERTEX
  8
0200LEVEL
 62
13
 10
-1219.400
 20
1310.600
 30
5027.000
 70
    32
  0
VERTEX
  8
0200LEVEL
 62
13
 10
-1331.200
 20
1376.800
 30
5027.000
 70
    32
  0
VERTEX
  8
0200LEVEL
 62
13
 10
-1338.800
 20
1373.500
 30
5027.000
 70
    32
  0
VERTEX
  8
0200LEVEL
 62
13
 10
-1340.600
 20
1354.500
 30
5027.000
 70
    32
  0
VERTEX
  8
0200LEVEL
 62
13
 10
-1245.000
 20
1195.000
 30
5027.000
 70
    32
  0
VERTEX
  8
0200LEVEL
 62
13
 10
-1207.800
 20
1117.400
 30
5027.000
 70
    32
  0
VERTEX
  8
0200LEVEL
 62
13
 10
-1017.400
 20
818.500
 30
5027.000
 70
    32
  0
VERTEX
  8
0200LEVEL
 62
13
 10
-957.800
 20
701.600
 30
5027.000
 70
    32
  0
VERTEX
  8
0200LEVEL
 62
13
 10
-941.200
 20
651.800
 30
5027.000
 70
    32
  0
VERTEX
  8
0200LEVEL
 62
13
 10
-817.100
 20
449.900
 30
5027.000
 70
    32
  0
VERTEX
  8
0200LEVEL
 62
13
 10
-760.900
 20
421.200
 30
5027.000
 70
    32
  0
VERTEX
  8
0200LEVEL
 62
13
 10
-725.600
 20
383.700
 30
5027.000
 70
    32
  0
VERTEX
  8
0200LEVEL
 62
13
 10
-705.600
 20
378.700
 30
5027.000
 70
    32
  0
VERTEX
  8
0200LEVEL
 62
13
 10
-705.300
 20
410.500
 30
5027.000
 70
    32
  0
VERTEX
  8
0200LEVEL
 62
13
 10
-699.300
 20
427.300
 30
5027.000
 70
    32
  0
VERTEX
  8
0200LEVEL
 62
13
 10
-687.200
 20
434.400
 30
5027.000
 70
    32
  0
VERTEX
  8
0200LEVEL
 62
13
 10
-640.200
 20
401.100
 30
5027.000
 70
    32
  0
VERTEX
  8
0200LEVEL
 62
13
 10
-597.700
 20
319.600
 30
5027.000
 70
    32
  0
VERTEX
  8
0200LEVEL
 62
13
 10
-583.400
 20
232.500
 30
5027.000
 70
    32
  0
VERTEX
  8
0200LEVEL
 62
13
 10
-546.700
 20
164.500
 30
5027.000
 70
    32
  0
VERTEX
  8
0200LEVEL
 62
13
 10
-518.700
 20
136.000
 30
5027.000
 70
    32
  0
VERTEX
  8
0200LEVEL
 62
13
 10
-530.400
 20
219.000
 30
5027.000
 70
    32
  0
VERTEX
  8
0200LEVEL
 62
13
 10
-520.600
 20
223.900
 30
5027.000
 70
    32
  0
VERTEX
  8
0200LEVEL
 62
13
 10
-423.700
 20
63.200
 30
5027.000
 70
    32
  0
VERTEX
  8
0200LEVEL
 62
13
 10
-372.800
 20
12.400
 30
5027.000
 70
    32
  0
VERTEX
  8
0200LEVEL
 62
13
 10
-292.300
 20
-278.900
 30
5027.000
 70
    32
  0
VERTEX
  8
0200LEVEL
 62
13
 10
-226.200
 20
-434.700
 30
5027.000
 70
    32
  0
VERTEX
  8
0200LEVEL
 62
13
 10
-218.300
 20
-440.200
 30
5027.000
 70
    32
  0
VERTEX
  8
0200LEVEL
 62
13
 10
-214.500
 20
-435.300
 30
5027.000
 70
    32
  0
VERTEX
  8
0200LEVEL
 62
13
 10
-220.000
 20
-368.100
 30
5027.000
 70
    32
  0
VERTEX
  8
0200LEVEL
 62
13
 10
-188.000
 20
-372.900
 30
5027.000
 70
    32
  0
VERTEX
  8
0200LEVEL
 62
13
 10
-180.800
 20
-334.500
 30
5027.000
 70
    32
  0
VERTEX
  8
0200LEVEL
 62
13
 10
-153.900
 20
-322.800
 30
5027.000
 70
    32
  0
VERTEX
  8
0200LEVEL
 62
13
 10
-146.400
 20
-307.000
 30
5027.000
 70
    32
  0
VERTEX
  8
0200LEVEL
 62
13
 10
-136.200
 20
-304.400
 30
5027.000
 70
    32
  0
VERTEX
  8
0200LEVEL
 62
13
 10
-122.000
 20
-314.400
 30
5027.000
 70
    32
  0
VERTEX
  8
0200LEVEL
 62
13
 10
-101.400
 20
-338.800
 30
5027.000
 70
    32
  0
VERTEX
  8
0200LEVEL
 62
13
 10
-33.100
 20
-437.800
 30
5027.000
 70
    32
  0
VERTEX
  8
0200LEVEL
 62
13
 10
6.700
 20
-573.400
 30
5027.000
 70
    32
  0
VERTEX
  8
0200LEVEL
 62
13
 10
21.600
 20
-560.000
 30
5027.000
 70
    32
  0
VERTEX
  8
0200LEVEL
 62
13
 10
30.500
 20
-567.400
 30
5027.000
 70
    32
  0
VERTEX
  8
0200LEVEL
 62
13
 10
47.300
 20
-643.700
 30
5027.000
 70
    32
  0
VERTEX
  8
0200LEVEL
 62
13
 10
75.800
 20
-681.300
 30
5027.000
 70
    32
  0
VERTEX
  8
0200LEVEL
 62
13
 10
144.600
 20
-862.900
 30
5027.000
 70
    32
  0
VERTEX
  8
0200LEVEL
 62
13
 10
183.800
 20
-946.300
 30
5027.000
 70
    32
  0
VERTEX
  8
0200LEVEL
 62
13
 10
221.500
 20
-1003.100
 30
5027.000
 70
    32
  0
VERTEX
  8
0200LEVEL
 62
13
 10
232.500
 20
-1010.700
 30
5027.000
 70
    32
  0
VERTEX
  8
0200LEVEL
 62
13
 10
243.500
 20
-997.100
 30
5027.000
 70
    32
  0
VERTEX
  8
0200LEVEL
 62
13
 10
259.400
 20
-1016.700
 30
5027.000
 70
    32
  0
VERTEX
  8
0200LEVEL
 62
13
 10
295.400
 20
-1010.500
 30
5027.000
 70
    32
  0
VERTEX
  8
0200LEVEL
 62
13
 10
298.900
 20
-991.500
 30
5027.000
 70
    32
  0
VERTEX
  8
0200LEVEL
 62
13
 10
289.200
 20
-971.400
 30
5027.000
 70
    32
  0
VERTEX
  8
0200LEVEL
 62
13
 10
285.200
 20
-886.700
 30
5027.000
 70
    32
  0
VERTEX
  8
0200LEVEL
 62
13
 10
257.700
 20
-792.600
 30
5027.000
 70
    32
  0
VERTEX
  8
0200LEVEL
 62
13
 10
165.400
 20
-681.200
 30
5027.000
 70
    32
  0
VERTEX
  8
0200LEVEL
 62
13
 10
150.400
 20
-622.200
 30
5027.000
 70
    32
  0
VERTEX
  8
0200LEVEL
 62
13
 10
155.500
 20
-618.500
 30
5027.000
 70
    32
  0
VERTEX
  8
0200LEVEL
 62
13
 10
179.200
 20
-634.100
 30
5027.000
 70
    32
  0
VERTEX
  8
0200LEVEL
 62
13
 10
184.000
 20
-626.300
 30
5027.000
 70
    32
  0
VERTEX
  8
0200LEVEL
 62
13
 10
182.600
 20
-518.200
 30
5027.000
 70
    32
  0
VERTEX
  8
0200LEVEL
 62
13
 10
188.500
 20
-485.900
 30
5027.000
 70
    32
  0
VERTEX
  8
0200LEVEL
 62
13
 10
208.600
 20
-455.800
 30
5027.000
 70
    32
  0
VERTEX
  8
0200LEVEL
 62
13
 10
220.000
 20
-401.800
 30
5027.000
 70
    32
  0
VERTEX
  8
0200LEVEL
 62
13
 10
270.100
 20
-457.900
 30
5027.000
 70
    32
  0
VERTEX
  8
0200LEVEL
 62
13
 10
274.200
 20
-476.100
 30
5027.000
 70
    32
  0
VERTEX
  8
0200LEVEL
 62
13
 10
285.800
 20
-473.700
 30
5027.000
 70
    32
  0
VERTEX
  8
0200LEVEL
 62
13
 10
294.700
 20
-483.600
 30
5027.000
 70
    32
  0
VERTEX
  8
0200LEVEL
 62
13
 10
309.900
 20
-517.100
 30
5027.000
 70
    32
  0
VERTEX
  8
0200LEVEL
 62
13
 10
584.296
 20
-975.706
 30
5027.000
 70
    32
  0
VERTEX
  8
0200LEVEL
 62
13
 10
608.100
 20
-1001.300
 30
5027.000
 70
    32
  0
VERTEX
  8
0200LEVEL
 62
13
 10
665.300
 20
-1139.400
 30
5027.000
 70
    32
  0
VERTEX
  8
0200LEVEL
 62
13
 10
747.320
 20
-1263.820
 30
5027.000
 70
    32
  0
VERTEX
  8
0200LEVEL
 62
13
 10
767.005
 20
-1267.939
 30
5027.000
 70
    32
  0
VERTEX
  8
0200LEVEL
 62
13
 10
788.900
 20
-1294.600
 30
5027.000
 70
    32
  0
VERTEX
  8
0200LEVEL
 62
13
 10
815.300
 20
-1381.200
 30
5027.000
 70
    32
  0
VERTEX
  8
0200LEVEL
 62
13
 10
853.400
 20
-1438.700
 30
5027.000
 70
    32
  0
VERTEX
  8
0200LEVEL
 62
13
 10
872.100
 20
-1438.900
 30
5027.000
 70
    32
  0
VERTEX
  8
0200LEVEL
 62
13
 10
865.000
 20
-1396.200
 30
5027.000
 70
    32
  0
VERTEX
  8
0200LEVEL
 62
13
 10
874.400
 20
-1385.900
 30
5027.000
 70
    32
  0
VERTEX
  8
0200LEVEL
 62
13
 10
940.200
 20
-1453.100
 30
5027.000
 70
    32
  0
VERTEX
  8
0200LEVEL
 62
13
 10
945.200
 20
-1470.200
 30
5027.000
 70
    32
  0
VERTEX
  8
0200LEVEL
 62
13
 10
962.800
 20
-1455.700
 30
5027.000
 70
    32
  0
VERTEX
  8
0200LEVEL
 62
13
 10
975.000
 20
-1458.100
 30
5027.000
 70
    32
  0
VERTEX
  8
0200LEVEL
 62
13
 10
1018.000
 20
-1486.100
 30
5027.000
 70
    32
  0
VERTEX
  8
0200LEVEL
 62
13
 10
1029.700
 20
-1502.700
 30
5027.000
 70
    32
  0
VERTEX
  8
0200LEVEL
 62
13
 10
1035.800
 20
-1498.700
 30
5027.000
 70
    32
  0
VERTEX
  8
0200LEVEL
 62
13
 10
941.900
 20
-1356.900
 30
5027.000
 70
    32
  0
VERTEX
  8
0200LEVEL
 62
13
 10
897.100
 20
-1308.200
 30
5027.000
 70
    32
  0
VERTEX
  8
0200LEVEL
 62
13
 10
841.800
 20
-1225.200
 30
5027.000
 70
    32
  0
VERTEX
  8
0200LEVEL
 62
13
 10
814.600
 20
-1153.000
 30
5027.000
 70
    32
  0
VERTEX
  8
0200LEVEL
 62
13
 10
861.900
 20
-1231.000
 30
5027.000
 70
    32
  0
VERTEX
  8
0200LEVEL
 62
13
 10
941.100
 20
-1322.500
 30
5027.000
 70
    32
  0
VERTEX
  8
0200LEVEL
 62
13
 10
1009.400
 20
-1435.400
 30
5027.000
 70
    32
  0
VERTEX
  8
0200LEVEL
 62
13
 10
1038.500
 20
-1467.800
 30
5027.000
 70
    32
  0
VERTEX
  8
0200LEVEL
 62
13
 10
1045.500
 20
-1463.200
 30
5027.000
 70
    32
  0
VERTEX
  8
0200LEVEL
 62
13
 10
881.700
 20
-1164.000
 30
5027.000
 70
    32
  0
VERTEX
  8
0200LEVEL
 62
13
 10
874.200
 20
-1120.300
 30
5027.000
 70
    32
  0
VERTEX
  8
0200LEVEL
 62
13
 10
870.800
 20
-1036.400
 30
5027.000
 70
    32
  0
VERTEX
  8
0200LEVEL
 62
13
 10
936.500
 20
-1074.700
 30
5027.000
 70
    32
  0
VERTEX
  8
0200LEVEL
 62
13
 10
863.200
 20
-935.800
 30
5027.000
 70
    32
  0
VERTEX
  8
0200LEVEL
 62
13
 10
842.200
 20
-851.300
 30
5027.000
 70
    32
  0
VERTEX
  8
0200LEVEL
 62
13
 10
971.500
 20
-972.100
 30
5027.000
 70
    32
  0
VERTEX
  8
0200LEVEL
 62
13
 10
980.300
 20
-973.600
 30
5027.000
 70
    32
  0
VERTEX
  8
0200LEVEL
 62
13
 10
979.000
 20
-967.600
 30
5027.000
 70
    32
  0
VERTEX
  8
0200LEVEL
 62
13
 10
930.800
 20
-923.100
 30
5027.000
 70
    32
  0
VERTEX
  8
0200LEVEL
 62
13
 10
843.400
 20
-812.400
 30
5027.000
 70
    32
  0
VERTEX
  8
0200LEVEL
 62
13
 10
827.600
 20
-775.100
 30
5027.000
 70
    32
  0
VERTEX
  8
0200LEVEL
 62
13
 10
809.198
 20
-708.338
 30
5027.000
 70
    32
  0
VERTEX
  8
0200LEVEL
 62
13
 10
647.154
 20
-411.996
 30
5027.000
 70
    32
  0
VERTEX
  8
0200LEVEL
 62
13
 10
669.200
 20
-313.400
 30
5027.000
 70
    32
  0
VERTEX
  8
0200LEVEL
 62
13
 10
656.200
 20
-262.900
 30
5027.000
 70
    32
  0
VERTEX
  8
0200LEVEL
 62
13
 10
654.500
 20
-242.100
 30
5027.000
 70
    32
  0
VERTEX
  8
0200LEVEL
 62
13
 10
705.100
 20
-188.800
 30
5027.000
 70
    32
  0
VERTEX
  8
0200LEVEL
 62
13
 10
710.100
 20
-137.600
 30
5027.000
 70
    32
  0
VERTEX
  8
0200LEVEL
 62
13
 10
728.900
 20
-77.900
 30
5027.000
 70
    32
  0
VERTEX
  8
0200LEVEL
 62
13
 10
770.400
 20
-9.100
 30
5027.000
 70
    32
  0
VERTEX
  8
0200LEVEL
 62
13
 10
800.700
 20
154.700
 30
5027.000
 70
    32
  0
VERTEX
  8
0200LEVEL
 62
13
 10
822.200
 20
334.800
 30
5027.000
 70
    32
  0
VERTEX
  8
0200LEVEL
 62
13
 10
812.800
 20
394.200
 30
5027.000
 70
    32
  0
VERTEX
  8
0200LEVEL
 62
13
 10
822.200
 20
506.800
 30
5027.000
 70
    32
  0
VERTEX
  8
0200LEVEL
 62
13
 10
838.200
 20
571.500
 30
5027.000
 70
    32
  0
VERTEX
  8
0200LEVEL
 62
13
 10
855.600
 20
620.900
 30
5027.000
 70
    32
  0
VERTEX
  8
0200LEVEL
 62
13
 10
908.200
 20
616.200
 30
5027.000
 70
    32
  0
VERTEX
  8
0200LEVEL
 62
13
 10
1020.400
 20
531.900
 30
5027.000
 70
    32
  0
VERTEX
  8
0200LEVEL
 62
13
 10
1089.200
 20
507.800
 30
5027.000
 70
    32
  0
VERTEX
  8
0200LEVEL
 62
13
 10
1096.100
 20
407.500
 30
5027.000
 70
    32
  0
VERTEX
  8
0200LEVEL
 62
13
 10
1073.400
 20
337.900
 30
5027.000
 70
    32
  0
VERTEX
  8
0200LEVEL
 62
13
 10
1049.600
 20
311.800
 30
5027.000
 70
    32
  0
VERTEX
  8
0200LEVEL
 62
13
 10
998.500
 20
328.500
 30
5027.000
 70
    32
  0
VERTEX
  8
0200LEVEL
 62
13
 10
987.100
 20
321.100
 30
5027.000
 70
    32
  0
VERTEX
  8
0200LEVEL
 62
13
 10
975.400
 20
284.700
 30
5027.000
 70
    32
  0
VERTEX
  8
0200LEVEL
 62
13
 10
979.900
 20
238.100
 30
5027.000
 70
    32
  0
VERTEX
  8
0200LEVEL
 62
13
 10
1011.200
 20
130.000
 30
5027.000
 70
    32
  0
VERTEX
  8
0200LEVEL
 62
13
 10
1022.100
 20
117.200
 30
5027.000
 70
    32
  0
VERTEX
  8
0200LEVEL
 62
13
 10
1036.600
 20
124.300
 30
5027.000
 70
    32
  0
VERTEX
  8
0200LEVEL
 62
13
 10
1093.300
 20
226.600
 30
5027.000
 70
    32
  0
VERTEX
  8
0200LEVEL
 62
13
 10
1114.800
 20
228.000
 30
5027.000
 70
    32
  0
VERTEX
  8
0200LEVEL
 62
13
 10
1144.100
 20
206.400
 30
5027.000
 70
    32
  0
VERTEX
  8
0200LEVEL
 62
13
 10
1156.500
 20
218.400
 30
5027.000
 70
    32
  0
VERTEX
  8
0200LEVEL
 62
13
 10
1189.000
 20
393.900
 30
5027.000
 70
    32
  0
VERTEX
  8
0200LEVEL
 62
13
 10
1212.000
 20
410.400
 30
5027.000
 70
    32
  0
VERTEX
  8
0200LEVEL
 62
13
 10
1220.400
 20
392.400
 30
5027.000
 70
    32
  0
VERTEX
  8
0200LEVEL
 62
13
 10
1234.900
 20
388.100
 30
5027.000
 70
    32
  0
VERTEX
  8
0200LEVEL
 62
13
 10
1315.100
 20
607.400
 30
5027.000
 70
    32
  0
VERTEX
  8
0200LEVEL
 62
13
 10
1331.300
 20
607.000
 30
5027.000
 70
    32
  0
VERTEX
  8
0200LEVEL
 62
13
 10
1360.200
 20
572.700
 30
5027.000
 70
    32
  0
VERTEX
  8
0200LEVEL
 62
13
 10
1373.000
 20
581.500
 30
5027.000
 70
    32
  0
VERTEX
  8
0200LEVEL
 62
13
 10
1397.800
 20
639.000
 30
5027.000
 70
    32
  0
SEQEND
  8
0200LEVEL
  0
POLYLINE
  8
0200LEVEL
 62
13
 66
     1
 70
     9
  0
VERTEX
  8
0200LEVEL
 62
13
 10
1192.930
 20
-2315.785
 30
5027.000
 70
    32
  0
VERTEX
  8
0200LEVEL
 62
13
 10
1325.800
 20
-2475.500
 30
5027.000
 70
    32
  0
VERTEX
  8
0200LEVEL
 62
13
 10
1392.200
 20
-2598.800
 30
5027.000
 70
    32
  0
VERTEX
  8
0200LEVEL
 62
13
 10
1428.400
 20
-2639.900
 30
5027.000
 70
    32
  0
VERTEX
  8
0200LEVEL
 62
13
 10
1430.600
 20
-2660.800
 30
5027.000
 70
    32
  0
VERTEX
  8
0200LEVEL
 62
13
 10
1389.900
 20
-2635.000
 30
5027.000
 70
    32
  0
VERTEX
  8
0200LEVEL
 62
13
 10
1382.000
 20
-2637.200
 30
5027.000
 70
    32
  0
VERTEX
  8
0200LEVEL
 62
13
 10
1339.200
 20
-2598.300
 30
5027.000
 70
    32
  0
VERTEX
  8
0200LEVEL
 62
13
 10
1287.700
 20
-2540.200
 30
5027.000
 70
    32
  0
VERTEX
  8
0200LEVEL
 62
13
 10
1286.800
 20
-2522.300
 30
5027.000
 70
    32
  0
VERTEX
  8
0200LEVEL
 62
13
 10
1269.800
 20
-2500.100
 30
5027.000
 70
    32
  0
VERTEX
  8
0200LEVEL
 62
13
 10
1194.700
 20
-2436.200
 30
5027.000
 70
    32
  0
VERTEX
  8
0200LEVEL
 62
13
 10
1142.400
 20
-2412.300
 30
5027.000
 70
    32
  0
VERTEX
  8
0200LEVEL
 62
13
 10
1099.548
 20
-2382.723
 30
5027.000
 70
    32
  0
VERTEX
  8
0200LEVEL
 62
13
 10
1084.220
 20
-2372.665
 30
5027.000
 70
    32
  0
VERTEX
  8
0200LEVEL
 62
13
 10
1053.900
 20
-2353.800
 30
5027.000
 70
    32
  0
VERTEX
  8
0200LEVEL
 62
13
 10
998.700
 20
-2300.100
 30
5027.000
 70
    32
  0
VERTEX
  8
0200LEVEL
 62
13
 10
901.700
 20
-2105.300
 30
5027.000
 70
    32
  0
VERTEX
  8
0200LEVEL
 62
13
 10
900.900
 20
-2090.400
 30
5027.000
 70
    32
  0
VERTEX
  8
0200LEVEL
 62
13
 10
926.000
 20
-2115.000
 30
5027.000
 70
    32
  0
VERTEX
  8
0200LEVEL
 62
13
 10
1021.700
 20
-2298.600
 30
5027.000
 70
    32
  0
VERTEX
  8
0200LEVEL
 62
13
 10
1097.800
 20
-2355.300
 30
5027.000
 70
    32
  0
VERTEX
  8
0200LEVEL
 62
13
 10
1117.000
 20
-2349.100
 30
5027.000
 70
    32
  0
VERTEX
  8
0200LEVEL
 62
13
 10
1141.000
 20
-2299.400
 30
5027.000
 70
    32
  0
VERTEX
  8
0200LEVEL
 62
13
 10
1161.200
 20
-2298.600
 30
5027.000
 70
    32
  0
SEQEND
  8
0200LEVEL
  0
POLYLINE
  8
0200LEVEL
 62
7
 66
     1
 70
     8
  0
VERTEX
  8
0200LEVEL
 62
7
 10
-2031.400
 20
1694.300
 30
5027.000
 70
    32
  0
VERTEX
  8
0200LEVEL
 62
7
 10
-1978.100
 20
1567.600
 30
5027.000
 70
    32
  0
VERTEX
  8
0200LEVEL
 62
7
 10
-1960.700
 20
1354.500
 30
5027.000
 70
    32
  0
VERTEX
  8
0200LEVEL
 62
7
 10
-1924.900
 20
1212.600
 30
5027.000
 70
    32
  0
VERTEX
  8
0200LEVEL
 62
7
 10
-1571.500
 20
645.000
 30
5027.000
 70
    32
  0
VERTEX
  8
0200LEVEL
 62
7
 10
-1545.700
 20
615.300
 30
5027.000
 70
    32
  0
VERTEX
  8
0200LEVEL
 62
7
 10
-1412.800
 20
384.000
 30
5027.000
 70
    32
  0
VERTEX
  8
0200LEVEL
 62
7
 10
-1288.900
 20
241.400
 30
5027.000
 70
    32
  0
VERTEX
  8
0200LEVEL
 62
7
 10
-1282.800
 20
238.900
 30
5027.000
 70
    32
  0
VERTEX
  8
0200LEVEL
 62
7
 10
-1281.200
 20
247.400
 30
5027.000
 70
    32
  0
VERTEX
  8
0200LEVEL
 62
7
 10
-1305.700
 20
321.200
 30
5027.000
 70
    32
  0
VERTEX
  8
0200LEVEL
 62
7
 10
-1285.800
 20
293.800
 30
5027.000
 70
    32
  0
VERTEX
  8
0200LEVEL
 62
7
 10
-1101.000
 20
-35.500
 30
5027.000
 70
    32
  0
VERTEX
  8
0200LEVEL
 62
7
 10
-1016.200
 20
-203.400
 30
5027.000
 70
    32
  0
VERTEX
  8
0200LEVEL
 62
7
 10
-950.200
 20
-313.100
 30
5027.000
 70
    32
  0
VERTEX
  8
0200LEVEL
 62
7
 10
-867.800
 20
-422.200
 30
5027.000
 70
    32
  0
VERTEX
  8
0200LEVEL
 62
7
 10
-778.800
 20
-574.400
 30
5027.000
 70
    32
  0
VERTEX
  8
0200LEVEL
 62
7
 10
-734.000
 20
-616.600
 30
5027.000
 70
    32
  0
VERTEX
  8
0200LEVEL
 62
7
 10
-724.000
 20
-623.200
 30
5027.000
 70
    32
  0
VERTEX
  8
0200LEVEL
 62
7
 10
-717.300
 20
-617.000
 30
5027.000
 70
    32
  0
VERTEX
  8
0200LEVEL
 62
7
 10
-739.300
 20
-457.300
 30
5027.000
 70
    32
  0
VERTEX
  8
0200LEVEL
 62
7
 10
-720.300
 20
-466.900
 30
5027.000
 70
    32
  0
VERTEX
  8
0200LEVEL
 62
7
 10
-643.000
 20
-564.600
 30
5027.000
 70
    32
  0
VERTEX
  8
0200LEVEL
 62
7
 10
-586.100
 20
-677.900
 30
5027.000
 70
    32
  0
VERTEX
  8
0200LEVEL
 62
7
 10
-583.800
 20
-699.500
 30
5027.000
 70
    32
  0
VERTEX
  8
0200LEVEL
 62
7
 10
-516.900
 20
-819.400
 30
5027.000
 70
    32
  0
VERTEX
  8
0200LEVEL
 62
7
 10
-472.800
 20
-957.900
 30
5027.000
 70
    32
  0
VERTEX
  8
0200LEVEL
 62
7
 10
-445.200
 20
-1018.700
 30
5027.000
 70
    32
  0
VERTEX
  8
0200LEVEL
 62
7
 10
-351.700
 20
-1135.300
 30
5027.000
 70
    32
  0
VERTEX
  8
0200LEVEL
 62
7
 10
-305.400
 20
-1232.100
 30
5027.000
 70
    32
  0
VERTEX
  8
0200LEVEL
 62
7
 10
-71.200
 20
-1774.600
 30
5027.000
 70
    32
  0
VERTEX
  8
0200LEVEL
 62
7
 10
-15.500
 20
-1867.700
 30
5027.000
 70
    32
  0
VERTEX
  8
0200LEVEL
 62
7
 10
9.500
 20
-1896.200
 30
5027.000
 70
    32
  0
VERTEX
  8
0200LEVEL
 62
7
 10
-31.000
 20
-1647.100
 30
5027.000
 70
    32
  0
VERTEX
  8
0200LEVEL
 62
7
 10
84.300
 20
-1791.500
 30
5027.000
 70
    32
  0
VERTEX
  8
0200LEVEL
 62
7
 10
243.200
 20
-2065.400
 30
5027.000
 70
    32
  0
VERTEX
  8
0200LEVEL
 62
7
 10
484.600
 20
-2650.600
 30
5027.000
 70
    32
  0
VERTEX
  8
0200LEVEL
 62
7
 10
606.400
 20
-2864.100
 30
5027.000
 70
    32
  0
VERTEX
  8
0200LEVEL
 62
7
 10
649.600
 20
-2928.600
 30
5027.000
 70
    32
  0
VERTEX
  8
0200LEVEL
 62
7
 10
762.300
 20
-3071.900
 30
5027.000
 70
    32
  0
VERTEX
  8
0200LEVEL
 62
7
 10
783.400
 20
-3070.000
 30
5027.000
 70
    32
  0
VERTEX
  8
0200LEVEL
 62
7
 10
771.600
 20
-3004.800
 30
5027.000
 70
    32
  0
VERTEX
  8
0200LEVEL
 62
7
 10
824.000
 20
-3055.700
 30
5027.000
 70
    32
  0
VERTEX
  8
0200LEVEL
 62
7
 10
849.700
 20
-3065.600
 30
5027.000
 70
    32
  0
VERTEX
  8
0200LEVEL
 62
7
 10
858.400
 20
-3061.500
 30
5027.000
 70
    32
  0
VERTEX
  8
0200LEVEL
 62
7
 10
855.200
 20
-3028.400
 30
5027.000
 70
    32
  0
VERTEX
  8
0200LEVEL
 62
7
 10
769.700
 20
-2846.500
 30
5027.000
 70
    32
  0
VERTEX
  8
0200LEVEL
 62
7
 10
771.800
 20
-2833.300
 30
5027.000
 70
    32
  0
VERTEX
  8
0200LEVEL
 62
7
 10
813.000
 20
-2844.900
 30
5027.000
 70
    32
  0
VERTEX
  8
0200LEVEL
 62
7
 10
818.100
 20
-2837.700
 30
5027.000
 70
    32
  0
VERTEX
  8
0200LEVEL
 62
7
 10
789.700
 20
-2797.900
 30
5027.000
 70
    32
  0
VERTEX
  8
0200LEVEL
 62
7
 10
720.947
 20
-2737.307
 30
5027.000
 70
    32
  0
VERTEX
  8
0200LEVEL
 62
7
 10
703.997
 20
-2722.586
 30
5027.000
 70
    32
  0
VERTEX
  8
0200LEVEL
 62
7
 10
640.300
 20
-2663.500
 30
5027.000
 70
    32
  0
VERTEX
  8
0200LEVEL
 62
7
 10
605.800
 20
-2609.900
 30
5027.000
 70
    32
  0
VERTEX
  8
0200LEVEL
 62
7
 10
512.000
 20
-2406.400
 30
5027.000
 70
    32
  0
VERTEX
  8
0200LEVEL
 62
7
 10
425.100
 20
-2173.600
 30
5027.000
 70
    32
  0
VERTEX
  8
0200LEVEL
 62
7
 10
295.900
 20
-1875.800
 30
5027.000
 70
    32
  0
VERTEX
  8
0200LEVEL
 62
7
 10
233.800
 20
-1754.200
 30
5027.000
 70
    32
  0
VERTEX
  8
0200LEVEL
 62
7
 10
190.500
 20
-1677.600
 30
5027.000
 70
    32
  0
VERTEX
  8
0200LEVEL
 62
7
 10
151.000
 20
-1625.500
 30
5027.000
 70
    32
  0
VERTEX
  8
0200LEVEL
 62
7
 10
2.600
 20
-1366.100
 30
5027.000
 70
    32
  0
VERTEX
  8
0200LEVEL
 62
7
 10
-182.600
 20
-1098.300
 30
5027.000
 70
    32
  0
VERTEX
  8
0200LEVEL
 62
7
 10
-182.000
 20
-1088.400
 30
5027.000
 70
    32
  0
VERTEX
  8
0200LEVEL
 62
7
 10
-272.900
 20
-938.900
 30
5027.000
 70
    32
  0
VERTEX
  8
0200LEVEL
 62
7
 10
-362.500
 20
-762.000
 30
5027.000
 70
    32
  0
VERTEX
  8
0200LEVEL
 62
7
 10
-382.400
 20
-738.100
 30
5027.000
 70
    32
  0
VERTEX
  8
0200LEVEL
 62
7
 10
-482.400
 20
-505.700
 30
5027.000
 70
    32
  0
VERTEX
  8
0200LEVEL
 62
7
 10
-578.600
 20
-334.600
 30
5027.000
 70
    32
  0
VERTEX
  8
0200LEVEL
 62
7
 10
-599.400
 20
-278.400
 30
5027.000
 70
    32
  0
VERTEX
  8
0200LEVEL
 62
7
 10
-618.000
 20
-166.300
 30
5027.000
 70
    32
  0
VERTEX
  8
0200LEVEL
 62
7
 10
-642.800
 20
-92.700
 30
5027.000
 70
    32
  0
VERTEX
  8
0200LEVEL
 62
7
 10
-749.800
 20
93.900
 30
5027.000
 70
    32
  0
VERTEX
  8
0200LEVEL
 62
7
 10
-855.600
 20
361.200
 30
5027.000
 70
    32
  0
VERTEX
  8
0200LEVEL
 62
7
 10
-851.600
 20
377.100
 30
5027.000
 70
    32
  0
VERTEX
  8
0200LEVEL
 62
7
 10
-835.800
 20
369.600
 30
5027.000
 70
    32
  0
VERTEX
  8
0200LEVEL
 62
7
 10
-755.200
 20
274.300
 30
5027.000
 70
    32
  0
VERTEX
  8
0200LEVEL
 62
7
 10
-709.200
 20
154.800
 30
5027.000
 70
    32
  0
VERTEX
  8
0200LEVEL
 62
7
 10
-668.200
 20
93.800
 30
5027.000
 70
    32
  0
VERTEX
  8
0200LEVEL
 62
7
 10
-638.800
 20
18.000
 30
5027.000
 70
    32
  0
VERTEX
  8
0200LEVEL
 62
7
 10
-471.100
 20
-157.600
 30
5027.000
 70
    32
  0
VERTEX
  8
0200LEVEL
 62
7
 10
-371.100
 20
-394.100
 30
5027.000
 70
    32
  0
VERTEX
  8
0200LEVEL
 62
7
 10
-342.200
 20
-475.900
 30
5027.000
 70
    32
  0
VERTEX
  8
0200LEVEL
 62
7
 10
-311.900
 20
-601.200
 30
5027.000
 70
    32
  0
VERTEX
  8
0200LEVEL
 62
7
 10
-293.100
 20
-635.000
 30
5027.000
 70
    32
  0
VERTEX
  8
0200LEVEL
 62
7
 10
-285.900
 20
-637.100
 30
5027.000
 70
    32
  0
VERTEX
  8
0200LEVEL
 62
7
 10
-280.200
 20
-615.800
 30
5027.000
 70
    32
  0
VERTEX
  8
0200LEVEL
 62
7
 10
-300.100
 20
-497.700
 30
5027.000
 70
    32
  0
VERTEX
  8
0200LEVEL
 62
7
 10
-349.300
 20
-331.300
 30
5027.000
 70
    32
  0
VERTEX
  8
0200LEVEL
 62
7
 10
-415.700
 20
-163.200
 30
5027.000
 70
    32
  0
VERTEX
  8
0200LEVEL
 62
7
 10
-510.500
 20
9.500
 30
5027.000
 70
    32
  0
VERTEX
  8
0200LEVEL
 62
7
 10
-555.000
 20
126.500
 30
5027.000
 70
    32
  0
VERTEX
  8
0200LEVEL
 62
7
 10
-538.000
 20
115.500
 30
5027.000
 70
    32
  0
VERTEX
  8
0200LEVEL
 62
7
 10
-434.700
 20
-35.000
 30
5027.000
 70
    32
  0
VERTEX
  8
0200LEVEL
 62
7
 10
-404.900
 20
-88.100
 30
5027.000
 70
    32
  0
VERTEX
  8
0200LEVEL
 62
7
 10
-342.300
 20
-256.800
 30
5027.000
 70
    32
  0
VERTEX
  8
0200LEVEL
 62
7
 10
-325.400
 20
-363.200
 30
5027.000
 70
    32
  0
VERTEX
  8
0200LEVEL
 62
7
 10
-310.900
 20
-399.800
 30
5027.000
 70
    32
  0
VERTEX
  8
0200LEVEL
 62
7
 10
-303.100
 20
-416.600
 30
5027.000
 70
    32
  0
VERTEX
  8
0200LEVEL
 62
7
 10
-284.700
 20
-414.000
 30
5027.000
 70
    32
  0
VERTEX
  8
0200LEVEL
 62
7
 10
-277.400
 20
-426.400
 30
5027.000
 70
    32
  0
VERTEX
  8
0200LEVEL
 62
7
 10
-215.200
 20
-598.900
 30
5027.000
 70
    32
  0
VERTEX
  8
0200LEVEL
 62
7
 10
-143.900
 20
-741.500
 30
5027.000
 70
    32
  0
VERTEX
  8
0200LEVEL
 62
7
 10
-114.600
 20
-842.900
 30
5027.000
 70
    32
  0
VERTEX
  8
0200LEVEL
 62
7
 10
-106.800
 20
-927.000
 30
5027.000
 70
    32
  0
VERTEX
  8
0200LEVEL
 62
7
 10
-61.300
 20
-1020.900
 30
5027.000
 70
    32
  0
VERTEX
  8
0200LEVEL
 62
7
 10
-48.400
 20
-1025.000
 30
5027.000
 70
    32
  0
VERTEX
  8
0200LEVEL
 62
7
 10
-42.400
 20
-1009.400
 30
5027.000
 70
    32
  0
VERTEX
  8
0200LEVEL
 62
7
 10
-24.000
 20
-1007.300
 30
5027.000
 70
    32
  0
VERTEX
  8
0200LEVEL
 62
7
 10
-26.200
 20
-980.400
 30
5027.000
 70
    32
  0
VERTEX
  8
0200LEVEL
 62
7
 10
-18.400
 20
-975.200
 30
5027.000
 70
    32
  0
VERTEX
  8
0200LEVEL
 62
7
 10
-36.600
 20
-929.700
 30
5027.000
 70
    32
  0
VERTEX
  8
0200LEVEL
 62
7
 10
-37.000
 20
-885.100
 30
5027.000
 70
    32
  0
VERTEX
  8
0200LEVEL
 62
7
 10
-57.100
 20
-840.100
 30
5027.000
 70
    32
  0
VERTEX
  8
0200LEVEL
 62
7
 10
-76.500
 20
-713.000
 30
5027.000
 70
    32
  0
VERTEX
  8
0200LEVEL
 62
7
 10
-65.300
 20
-702.800
 30
5027.000
 70
    32
  0
VERTEX
  8
0200LEVEL
 62
7
 10
-45.800
 20
-701.200
 30
5027.000
 70
    32
  0
VERTEX
  8
0200LEVEL
 62
7
 10
-33.700
 20
-710.100
 30
5027.000
 70
    32
  0
VERTEX
  8
0200LEVEL
 62
7
 10
-20.200
 20
-652.400
 30
5027.000
 70
    32
  0
VERTEX
  8
0200LEVEL
 62
7
 10
-6.900
 20
-645.800
 30
5027.000
 70
    32
  0
VERTEX
  8
0200LEVEL
 62
7
 10
7.200
 20
-690.400
 30
5027.000
 70
    32
  0
VERTEX
  8
0200LEVEL
 62
7
 10
55.500
 20
-761.200
 30
5027.000
 70
    32
  0
VERTEX
  8
0200LEVEL
 62
7
 10
88.900
 20
-849.200
 30
5027.000
 70
    32
  0
VERTEX
  8
0200LEVEL
 62
7
 10
117.700
 20
-1001.000
 30
5027.000
 70
    32
  0
VERTEX
  8
0200LEVEL
 62
7
 10
134.800
 20
-1011.000
 30
5027.000
 70
    32
  0
VERTEX
  8
0200LEVEL
 62
7
 10
145.000
 20
-999.400
 30
5027.000
 70
    32
  0
VERTEX
  8
0200LEVEL
 62
7
 10
156.100
 20
-1001.700
 30
5027.000
 70
    32
  0
VERTEX
  8
0200LEVEL
 62
7
 10
176.500
 20
-1022.700
 30
5027.000
 70
    32
  0
VERTEX
  8
0200LEVEL
 62
7
 10
354.900
 20
-1463.600
 30
5027.000
 70
    32
  0
VERTEX
  8
0200LEVEL
 62
7
 10
393.178
 20
-1482.622
 30
5027.000
 70
    32
  0
VERTEX
  8
0200LEVEL
 62
7
 10
683.329
 20
-1733.750
 30
5027.000
 70
    32
  0
VERTEX
  8
0200LEVEL
 62
7
 10
765.600
 20
-1836.700
 30
5027.000
 70
    32
  0
VERTEX
  8
0200LEVEL
 62
7
 10
743.300
 20
-1761.700
 30
5027.000
 70
    32
  0
VERTEX
  8
0200LEVEL
 62
7
 10
726.100
 20
-1614.500
 30
5027.000
 70
    32
  0
VERTEX
  8
0200LEVEL
 62
7
 10
723.100
 20
-1503.600
 30
5027.000
 70
    32
  0
VERTEX
  8
0200LEVEL
 62
7
 10
730.400
 20
-1500.100
 30
5027.000
 70
    32
  0
VERTEX
  8
0200LEVEL
 62
7
 10
731.700
 20
-1445.200
 30
5027.000
 70
    32
  0
VERTEX
  8
0200LEVEL
 62
7
 10
747.531
 20
-1420.800
 30
5027.000
 70
    32
  0
VERTEX
  8
0200LEVEL
 62
7
 10
751.855
 20
-1426.120
 30
5027.000
 70
    32
  0
VERTEX
  8
0200LEVEL
 62
7
 10
763.542
 20
-1421.277
 30
5027.000
 70
    32
  0
VERTEX
  8
0200LEVEL
 62
7
 10
799.700
 20
-1448.600
 30
5027.000
 70
    32
  0
VERTEX
  8
0200LEVEL
 62
7
 10
875.400
 20
-1525.000
 30
5027.000
 70
    32
  0
VERTEX
  8
0200LEVEL
 62
7
 10
889.100
 20
-1529.800
 30
5027.000
 70
    32
  0
VERTEX
  8
0200LEVEL
 62
7
 10
901.600
 20
-1523.700
 30
5027.000
 70
    32
  0
VERTEX
  8
0200LEVEL
 62
7
 10
912.000
 20
-1502.900
 30
5027.000
 70
    32
  0
VERTEX
  8
0200LEVEL
 62
7
 10
921.500
 20
-1510.700
 30
5027.000
 70
    32
  0
VERTEX
  8
0200LEVEL
 62
7
 10
994.500
 20
-1634.300
 30
5027.000
 70
    32
  0
VERTEX
  8
0200LEVEL
 62
7
 10
1003.100
 20
-1613.900
 30
5027.000
 70
    32
  0
VERTEX
  8
0200LEVEL
 62
7
 10
990.700
 20
-1558.500
 30
5027.000
 70
    32
  0
VERTEX
  8
0200LEVEL
 62
7
 10
1024.800
 20
-1567.500
 30
5027.000
 70
    32
  0
VERTEX
  8
0200LEVEL
 62
7
 10
1052.300
 20
-1596.000
 30
5027.000
 70
    32
  0
VERTEX
  8
0200LEVEL
 62
7
 10
1135.000
 20
-1765.200
 30
5027.000
 70
    32
  0
VERTEX
  8
0200LEVEL
 62
7
 10
1151.600
 20
-1788.600
 30
5027.000
 70
    32
  0
VERTEX
  8
0200LEVEL
 62
7
 10
1163.200
 20
-1792.300
 30
5027.000
 70
    32
  0
VERTEX
  8
0200LEVEL
 62
7
 10
1166.200
 20
-1784.500
 30
5027.000
 70
    32
  0
VERTEX
  8
0200LEVEL
 62
7
 10
1143.800
 20
-1635.400
 30
5027.000
 70
    32
  0
VERTEX
  8
0200LEVEL
 62
7
 10
1107.200
 20
-1512.100
 30
5027.000
 70
    32
  0
VERTEX
  8
0200LEVEL
 62
7
 10
1072.500
 20
-1347.800
 30
5027.000
 70
    32
  0
VERTEX
  8
0200LEVEL
 62
7
 10
1022.900
 20
-1223.200
 30
5027.000
 70
    32
  0
VERTEX
  8
0200LEVEL
 62
7
 10
926.800
 20
-1098.200
 30
5027.000
 70
    32
  0
VERTEX
  8
0200LEVEL
 62
7
 10
937.200
 20
-1101.800
 30
5027.000
 70
    32
  0
VERTEX
  8
0200LEVEL
 62
7
 10
1073.100
 20
-1259.800
 30
5027.000
 70
    32
  0
VERTEX
  8
0200LEVEL
 62
7
 10
1130.500
 20
-1345.100
 30
5027.000
 70
    32
  0
VERTEX
  8
0200LEVEL
 62
7
 10
1100.400
 20
-1269.000
 30
5027.000
 70
    32
  0
VERTEX
  8
0200LEVEL
 62
7
 10
990.000
 20
-1097.300
 30
5027.000
 70
    32
  0
VERTEX
  8
0200LEVEL
 62
7
 10
990.300
 20
-1086.300
 30
5027.000
 70
    32
  0
VERTEX
  8
0200LEVEL
 62
7
 10
1068.500
 20
-1182.500
 30
5027.000
 70
    32
  0
VERTEX
  8
0200LEVEL
 62
7
 10
1088.100
 20
-1191.100
 30
5027.000
 70
    32
  0
VERTEX
  8
0200LEVEL
 62
7
 10
1165.400
 20
-1272.900
 30
5027.000
 70
    32
  0
VERTEX
  8
0200LEVEL
 62
7
 10
1234.200
 20
-1329.200
 30
5027.000
 70
    32
  0
VERTEX
  8
0200LEVEL
 62
7
 10
1249.100
 20
-1330.100
 30
5027.000
 70
    32
  0
VERTEX
  8
0200LEVEL
 62
7
 10
1243.200
 20
-1287.300
 30
5027.000
 70
    32
  0
VERTEX
  8
0200LEVEL
 62
7
 10
1208.800
 20
-1198.700
 30
5027.000
 70
    32
  0
VERTEX
  8
0200LEVEL
 62
7
 10
1074.600
 20
-963.100
 30
5027.000
 70
    32
  0
VERTEX
  8
0200LEVEL
 62
7
 10
1022.000
 20
-886.900
 30
5027.000
 70
    32
  0
VERTEX
  8
0200LEVEL
 62
7
 10
934.600
 20
-726.100
 30
5027.000
 70
    32
  0
VERTEX
  8
0200LEVEL
 62
7
 10
901.600
 20
-697.800
 30
5027.000
 70
    32
  0
VERTEX
  8
0200LEVEL
 62
7
 10
862.100
 20
-605.100
 30
5027.000
 70
    32
  0
VERTEX
  8
0200LEVEL
 62
7
 10
783.000
 20
-506.600
 30
5027.000
 70
    32
  0
VERTEX
  8
0200LEVEL
 62
7
 10
777.900
 20
-482.200
 30
5027.000
 70
    32
  0
VERTEX
  8
0200LEVEL
 62
7
 10
798.800
 20
-440.800
 30
5027.000
 70
    32
  0
VERTEX
  8
0200LEVEL
 62
7
 10
805.200
 20
-500.900
 30
5027.000
 70
    32
  0
VERTEX
  8
0200LEVEL
 62
7
 10
845.500
 20
-549.400
 30
5027.000
 70
    32
  0
VERTEX
  8
0200LEVEL
 62
7
 10
851.300
 20
-549.100
 30
5027.000
 70
    32
  0
VERTEX
  8
0200LEVEL
 62
7
 10
850.400
 20
-514.400
 30
5027.000
 70
    32
  0
VERTEX
  8
0200LEVEL
 62
7
 10
857.900
 20
-517.100
 30
5027.000
 70
    32
  0
VERTEX
  8
0200LEVEL
 62
7
 10
896.200
 20
-573.500
 30
5027.000
 70
    32
  0
VERTEX
  8
0200LEVEL
 62
7
 10
889.400
 20
-537.900
 30
5027.000
 70
    32
  0
VERTEX
  8
0200LEVEL
 62
7
 10
895.800
 20
-510.400
 30
5027.000
 70
    32
  0
VERTEX
  8
0200LEVEL
 62
7
 10
951.400
 20
-575.900
 30
5027.000
 70
    32
  0
VERTEX
  8
0200LEVEL
 62
7
 10
948.800
 20
-540.700
 30
5027.000
 70
    32
  0
VERTEX
  8
0200LEVEL
 62
7
 10
966.700
 20
-494.500
 30
5027.000
 70
    32
  0
VERTEX
  8
0200LEVEL
 62
7
 10
960.300
 20
-285.300
 30
5027.000
 70
    32
  0
VERTEX
  8
0200LEVEL
 62
7
 10
971.000
 20
-209.100
 30
5027.000
 70
    32
  0
VERTEX
  8
0200LEVEL
 62
7
 10
988.800
 20
-165.600
 30
5027.000
 70
    32
  0
VERTEX
  8
0200LEVEL
 62
7
 10
1023.800
 20
-325.000
 30
5027.000
 70
    32
  0
VERTEX
  8
0200LEVEL
 62
7
 10
1113.900
 20
-521.200
 30
5027.000
 70
    32
  0
VERTEX
  8
0200LEVEL
 62
7
 10
1122.700
 20
-537.100
 30
5027.000
 70
    32
  0
VERTEX
  8
0200LEVEL
 62
7
 10
1130.800
 20
-535.000
 30
5027.000
 70
    32
  0
VERTEX
  8
0200LEVEL
 62
7
 10
1074.400
 20
-287.000
 30
5027.000
 70
    32
  0
VERTEX
  8
0200LEVEL
 62
7
 10
1057.300
 20
-168.600
 30
5027.000
 70
    32
  0
VERTEX
  8
0200LEVEL
 62
7
 10
1065.600
 20
-76.800
 30
5027.000
 70
    32
  0
VERTEX
  8
0200LEVEL
 62
7
 10
1098.900
 20
1.600
 30
5027.000
 70
    32
  0
VERTEX
  8
0200LEVEL
 62
7
 10
1117.100
 20
102.200
 30
5027.000
 70
    32
  0
VERTEX
  8
0200LEVEL
 62
7
 10
1127.400
 20
107.500
 30
5027.000
 70
    32
  0
VERTEX
  8
0200LEVEL
 62
7
 10
1173.100
 20
35.000
 30
5027.000
 70
    32
  0
VERTEX
  8
0200LEVEL
 62
7
 10
1196.900
 20
60.400
 30
5027.000
 70
    32
  0
VERTEX
  8
0200LEVEL
 62
7
 10
1221.000
 20
141.300
 30
5027.000
 70
    32
  0
VERTEX
  8
0200LEVEL
 62
7
 10
1230.800
 20
284.300
 30
5027.000
 70
    32
  0
VERTEX
  8
0200LEVEL
 62
7
 10
1246.000
 20
286.000
 30
5027.000
 70
    32
  0
VERTEX
  8
0200LEVEL
 62
7
 10
1257.300
 20
267.300
 30
5027.000
 70
    32
  0
VERTEX
  8
0200LEVEL
 62
7
 10
1267.900
 20
277.500
 30
5027.000
 70
    32
  0
VERTEX
  8
0200LEVEL
 62
7
 10
1332.900
 20
496.100
 30
5027.000
 70
    32
  0
VERTEX
  8
0200LEVEL
 62
7
 10
1357.600
 20
499.900
 30
5027.000
 70
    32
  0
VERTEX
  8
0200LEVEL
 62
7
 10
1379.100
 20
466.300
 30
5027.000
 70
    32
  0
VERTEX
  8
0200LEVEL
 62
7
 10
1391.500
 20
466.300
 30
5027.000
 70
    32
  0
VERTEX
  8
0200LEVEL
 62
7
 10
1408.100
 20
487.400
 30
5027.000
 70
    32
  0
VERTEX
  8
0200LEVEL
 62
7
 10
1447.200
 20
578.500
 30
5027.000
 70
    32
  0
SEQEND
  8
0200LEVEL
  0
POLYLINE
  8
0200LEVEL
 62
5
 66
     1
 70
     9
  0
VERTEX
  8
0200LEVEL
 62
5
 10
976.744
 20
-1772.807
 30
5027.000
 70
    32
  0
VERTEX
  8
0200LEVEL
 62
5
 10
946.592
 20
-1658.692
 30
5027.000
 70
    32
  0
VERTEX
  8
0200LEVEL
 62
5
 10
951.588
 20
-1641.960
 30
5027.000
 70
    32
  0
VERTEX
  8
0200LEVEL
 62
5
 10
991.028
 20
-1767.449
 30
5027.000
 70
    32
  0
SEQEND
  8
0200LEVEL
  0
POLYLINE
  8
0200LEVEL
 62
5
 66
     1
 70
     9
  0
VERTEX
  8
0200LEVEL
 62
5
 10
411.801
 20
-1876.246
 30
5027.000
 70
    32
  0
VERTEX
  8
0200LEVEL
 62
5
 10
316.186
 20
-1636.712
 30
5027.000
 70
    32
  0
VERTEX
  8
0200LEVEL
 62
5
 10
316.620
 20
-1613.325
 30
5027.000
 70
    32
  0
VERTEX
  8
0200LEVEL
 62
5
 10
326.644
 20
-1621.530
 30
5027.000
 70
    32
  0
VERTEX
  8
0200LEVEL
 62
5
 10
428.166
 20
-1868.417
 30
5027.000
 70
    32
  0
SEQEND
  8
0200LEVEL
  0
POLYLINE
  8
0200LEVEL
 62
5
 66
     1
 70
     9
  0
VERTEX
  8
0200LEVEL
 62
5
 10
450.718
 20
-1791.143
 30
5027.000
 70
    32
  0
VERTEX
  8
0200LEVEL
 62
5
 10
355.665
 20
-1569.902
 30
5027.000
 70
    32
  0
VERTEX
  8
0200LEVEL
 62
5
 10
352.907
 20
-1541.058
 30
5027.000
 70
    32
  0
VERTEX
  8
0200LEVEL
 62
5
 10
359.686
 20
-1539.058
 30
5027.000
 70
    32
  0
VERTEX
  8
0200LEVEL
 62
5
 10
378.451
 20
-1562.515
 30
5027.000
 70
    32
  0
VERTEX
  8
0200LEVEL
 62
5
 10
377.430
 20
-1574.589
 30
5027.000
 70
    32
  0
VERTEX
  8
0200LEVEL
 62
5
 10
466.778
 20
-1790.503
 30
5027.000
 70
    32
  0
SEQEND
  8
0200LEVEL
  0
POLYLINE
  8
0200LEVEL
 62
5
 66
     1
 70
     9
  0
VERTEX
  8
0200LEVEL
 62
5
 10
930.618
 20
-837.580
 30
5027.000
 70
    32
  0
VERTEX
  8
0200LEVEL
 62
5
 10
866.136
 20
-751.048
 30
5027.000
 70
    32
  0
VERTEX
  8
0200LEVEL
 62
5
 10
801.948
 20
-595.647
 30
5027.000
 70
    32
  0
VERTEX
  8
0200LEVEL
 62
5
 10
712.004
 20
-470.606
 30
5027.000
 70
    32
  0
VERTEX
  8
0200LEVEL
 62
5
 10
688.628
 20
-444.894
 30
5027.000
 70
    32
  0
VERTEX
  8
0200LEVEL
 62
5
 10
683.232
 20
-447.584
 30
5027.000
 70
    32
  0
VERTEX
  8
0200LEVEL
 62
5
 10
748.577
 20
-563.458
 30
5027.000
 70
    32
  0
VERTEX
  8
0200LEVEL
 62
5
 10
785.179
 20
-607.625
 30
5027.000
 70
    32
  0
VERTEX
  8
0200LEVEL
 62
5
 10
841.616
 20
-751.382
 30
5027.000
 70
    32
  0
VERTEX
  8
0200LEVEL
 62
5
 10
880.634
 20
-811.141
 30
5027.000
 70
    32
  0
VERTEX
  8
0200LEVEL
 62
5
 10
927.471
 20
-860.332
 30
5027.000
 70
    32
  0
VERTEX
  8
0200LEVEL
 62
5
 10
937.409
 20
-857.321
 30
5027.000
 70
    32
  0
SEQEND
  8
0200LEVEL
  0
POLYLINE
  8
0200LEVEL
 62
5
 66
     1
 70
     9
  0
VERTEX
  8
0200LEVEL
 62
5
 10
455.481
 20
-421.068
 30
5027.000
 70
    32
  0
VERTEX
  8
0200LEVEL
 62
5
 10
606.254
 20
-846.077
 30
5027.000
 70
    32
  0
VERTEX
  8
0200LEVEL
 62
5
 10
668.209
 20
-1078.299
 30
5027.000
 70
    32
  0
VERTEX
  8
0200LEVEL
 62
5
 10
679.608
 20
-1087.242
 30
5027.000
 70
    32
  0
VERTEX
  8
0200LEVEL
 62
5
 10
710.663
 20
-1091.630
 30
5027.000
 70
    32
  0
VERTEX
  8
0200LEVEL
 62
5
 10
726.399
 20
-1121.694
 30
5027.000
 70
    32
  0
VERTEX
  8
0200LEVEL
 62
5
 10
747.694
 20
-1266.697
 30
5027.000
 70
    32
  0
VERTEX
  8
0200LEVEL
 62
5
 10
738.980
 20
-1363.523
 30
5027.000
 70
    32
  0
VERTEX
  8
0200LEVEL
 62
5
 10
747.004
 20
-1420.152
 30
5027.000
 70
    32
  0
VERTEX
  8
0200LEVEL
 62
5
 10
760.805
 20
-1424.709
 30
5027.000
 70
    32
  0
VERTEX
  8
0200LEVEL
 62
5
 10
765.705
 20
-1411.958
 30
5027.000
 70
    32
  0
VERTEX
  8
0200LEVEL
 62
5
 10
755.782
 20
-1346.307
 30
5027.000
 70
    32
  0
VERTEX
  8
0200LEVEL
 62
5
 10
768.540
 20
-1250.833
 30
5027.000
 70
    32
  0
VERTEX
  8
0200LEVEL
 62
5
 10
761.541
 20
-1175.631
 30
5027.000
 70
    32
  0
VERTEX
  8
0200LEVEL
 62
5
 10
739.024
 20
-1102.356
 30
5027.000
 70
    32
  0
VERTEX
  8
0200LEVEL
 62
5
 10
709.182
 20
-1049.711
 30
5027.000
 70
    32
  0
VERTEX
  8
0200LEVEL
 62
5
 10
682.213
 20
-929.329
 30
5027.000
 70
    32
  0
VERTEX
  8
0200LEVEL
 62
5
 10
588.110
 20
-721.770
 30
5027.000
 70
    32
  0
VERTEX
  8
0200LEVEL
 62
5
 10
470.661
 20
-406.356
 30
5027.000
 70
    32
  0
SEQEND
  8
0200LEVEL
  0
POLYLINE
  8
0200LEVEL
 62
5
 66
     1
 70
     9
  0
VERTEX
  8
0200LEVEL
 62
5
 10
1285.459
 20
-2206.363
 30
5027.000
 70
    32
  0
VERTEX
  8
0200LEVEL
 62
5
 10
1166.756
 20
-2345.633
 30
5027.000
 70
    32
  0
VERTEX
  8
0200LEVEL
 62
5
 10
1109.826
 20
-2373.213
 30
5027.000
 70
    32
  0
VERTEX
  8
0200LEVEL
 62
5
 10
1056.305
 20
-2423.495
 30
5027.000
 70
    32
  0
VERTEX
  8
0200LEVEL
 62
5
 10
1038.571
 20
-2423.640
 30
5027.000
 70
    32
  0
VERTEX
  8
0200LEVEL
 62
5
 10
1086.237
 20
-2370.753
 30
5027.000
 70
    32
  0
VERTEX
  8
0200LEVEL
 62
5
 10
1122.816
 20
-2352.664
 30
5027.000
 70
    32
  0
VERTEX
  8
0200LEVEL
 62
5
 10
1195.354
 20
-2295.190
 30
5027.000
 70
    32
  0
VERTEX
  8
0200LEVEL
 62
5
 10
1272.582
 20
-2195.495
 30
5027.000
 70
    32
  0
SEQEND
  8
0200LEVEL
  0
POLYLINE
  8
0200LEVEL
 62
5
 66
     1
 70
     9
  0
VERTEX
  8
0200LEVEL
 62
5
 10
579.016
 20
-2893.644
 30
5027.000
 70
    32
  0
VERTEX
  8
0200LEVEL
 62
5
 10
646.620
 20
-2810.251
 30
5027.000
 70
    32
  0
VERTEX
  8
0200LEVEL
 62
5
 10
780.310
 20
-2619.791
 30
5027.000
 70
    32
  0
VERTEX
  8
0200LEVEL
 62
5
 10
990.960
 20
-2384.231
 30
5027.000
 70
    32
  0
VERTEX
  8
0200LEVEL
 62
5
 10
1008.029
 20
-2375.007
 30
5027.000
 70
    32
  0
VERTEX
  8
0200LEVEL
 62
5
 10
1011.313
 20
-2393.451
 30
5027.000
 70
    32
  0
VERTEX
  8
0200LEVEL
 62
5
 10
835.050
 20
-2579.916
 30
5027.000
 70
    32
  0
VERTEX
  8
0200LEVEL
 62
5
 10
763.033
 20
-2686.611
 30
5027.000
 70
    32
  0
VERTEX
  8
0200LEVEL
 62
5
 10
688.922
 20
-2773.542
 30
5027.000
 70
    32
  0
VERTEX
  8
0200LEVEL
 62
5
 10
642.580
 20
-2846.330
 30
5027.000
 70
    32
  0
VERTEX
  8
0200LEVEL
 62
5
 10
589.319
 20
-2901.640
 30
5027.000
 70
    32
  0
SEQEND
  8
0200LEVEL
  0
POLYLINE
  8
0200LEVEL
 62
5
 66
     1
 70
     9
  0
VERTEX
  8
0200LEVEL
 62
5
 10
1330.106
 20
-1685.494
 30
5027.000
 70
    32
  0
VERTEX
  8
0200LEVEL
 62
5
 10
1263.340
 20
-1562.416
 30
5027.000
 70
    32
  0
VERTEX
  8
0200LEVEL
 62
5
 10
1185.418
 20
-1447.161
 30
5027.000
 70
    32
  0
VERTEX
  8
0200LEVEL
 62
5
 10
1146.858
 20
-1359.256
 30
5027.000
 70
    32
  0
VERTEX
  8
0200LEVEL
 62
5
 10
1161.384
 20
-1370.664
 30
5027.000
 70
    32
  0
VERTEX
  8
0200LEVEL
 62
5
 10
1342.745
 20
-1686.133
 30
5027.000
 70
    32
  0
SEQEND
  8
0200LEVEL
  0
POLYLINE
  8
0200LEVEL
 62
5
 66
     1
 70
     9
  0
VERTEX
  8
0200LEVEL
 62
5
 10
865.512
 20
-2186.661
 30
5027.000
 70
    32
  0
VERTEX
  8
0200LEVEL
 62
5
 10
832.902
 20
-2030.481
 30
5027.000
 70
    32
  0
VERTEX
  8
0200LEVEL
 62
5
 10
799.600
 20
-1917.393
 30
5027.000
 70
    32
  0
VERTEX
  8
0200LEVEL
 62
5
 10
746.531
 20
-1461.779
 30
5027.000
 70
    32
  0
VERTEX
  8
0200LEVEL
 62
5
 10
749.988
 20
-1445.317
 30
5027.000
 70
    32
  0
VERTEX
  8
0200LEVEL
 62
5
 10
761.802
 20
-1454.821
 30
5027.000
 70
    32
  0
VERTEX
  8
0200LEVEL
 62
5
 10
781.784
 20
-1498.254
 30
5027.000
 70
    32
  0
VERTEX
  8
0200LEVEL
 62
5
 10
818.213
 20
-1812.807
 30
5027.000
 70
    32
  0
VERTEX
  8
0200LEVEL
 62
5
 10
912.849
 20
-2234.178
 30
5027.000
 70
    32
  0
SEQEND
  8
0200LEVEL
  0
POLYLINE
  8
0200LEVEL
 62
5
 66
     1
 70
     9
  0
VERTEX
  8
0200LEVEL
 62
5
 10
1891.995
 20
-1019.329
 30
5027.000
 70
    32
  0
VERTEX
  8
0200LEVEL
 62
5
 10
1853.062
 20
-902.155
 30
5027.000
 70
    32
  0
VERTEX
  8
0200LEVEL
 62
5
 10
1904.094
 20
-906.529
 30
5027.000
 70
    32
  0
VERTEX
  8
0200LEVEL
 62
5
 10
1933.870
 20
-1024.833
 30
5027.000
 70
    32
  0
SEQEND
  8
0200LEVEL
  0
POLYLINE
  8
0200LEVEL
 62
5
 66
     1
 70
     9
  0
VERTEX
  8
0200LEVEL
 62
5
 10
1730.680
 20
-969.275
 30
5027.000
 70
    32
  0
VERTEX
  8
0200LEVEL
 62
5
 10
1712.017
 20
-871.857
 30
5027.000
 70
    32
  0
VERTEX
  8
0200LEVEL
 62
5
 10
1759.613
 20
-867.478
 30
5027.000
 70
    32
  0
VERTEX
  8
0200LEVEL
 62
5
 10
1794.117
 20
-989.234
 30
5027.000
 70
    32
  0
SEQEND
  8
0200LEVEL
  0
POLYLINE
  8
0200LEVEL
 62
5
 66
     1
 70
     9
  0
VERTEX
  8
0200LEVEL
 62
5
 10
1617.226
 20
-983.296
 30
5027.000
 70
    32
  0
VERTEX
  8
0200LEVEL
 62
5
 10
1575.851
 20
-832.299
 30
5027.000
 70
    32
  0
VERTEX
  8
0200LEVEL
 62
5
 10
1596.058
 20
-829.074
 30
5027.000
 70
    32
  0
VERTEX
  8
0200LEVEL
 62
5
 10
1640.072
 20
-982.463
 30
5027.000
 70
    32
  0
SEQEND
  8
0200LEVEL
  0
POLYLINE
  8
0200LEVEL
 62
5
 66
     1
 70
     9
  0
VERTEX
  8
0200LEVEL
 62
5
 10
1322.560
 20
-1067.139
 30
5027.000
 70
    32
  0
VERTEX
  8
0200LEVEL
 62
5
 10
1244.065
 20
-954.045
 30
5027.000
 70
    32
  0
VERTEX
  8
0200LEVEL
 62
5
 10
1260.795
 20
-937.317
 30
5027.000
 70
    32
  0
VERTEX
  8
0200LEVEL
 62
5
 10
1342.238
 20
-1059.091
 30
5027.000
 70
    32
  0
SEQEND
  8
0200LEVEL
  0
POLYLINE
  8
0200LEVEL
 62
5
 66
     1
 70
     9
  0
VERTEX
  8
0200LEVEL
 62
5
 10
488.869
 20
-189.099
 30
5027.000
 70
    32
  0
VERTEX
  8
0200LEVEL
 62
5
 10
527.270
 20
-368.366
 30
5027.000
 70
    32
  0
VERTEX
  8
0200LEVEL
 62
5
 10
583.551
 20
-514.847
 30
5027.000
 70
    32
  0
VERTEX
  8
0200LEVEL
 62
5
 10
691.311
 20
-749.664
 30
5027.000
 70
    32
  0
VERTEX
  8
0200LEVEL
 62
5
 10
536.455
 20
-462.372
 30
5027.000
 70
    32
  0
VERTEX
  8
0200LEVEL
 62
5
 10
471.326
 20
-268.128
 30
5027.000
 70
    32
  0
VERTEX
  8
0200LEVEL
 62
5
 10
457.768
 20
-280.336
 30
5027.000
 70
    32
  0
VERTEX
  8
0200LEVEL
 62
5
 10
521.650
 20
-472.896
 30
5027.000
 70
    32
  0
VERTEX
  8
0200LEVEL
 62
5
 10
681.679
 20
-770.698
 30
5027.000
 70
    32
  0
VERTEX
  8
0200LEVEL
 62
5
 10
740.771
 20
-903.366
 30
5027.000
 70
    32
  0
VERTEX
  8
0200LEVEL
 62
5
 10
762.260
 20
-973.491
 30
5027.000
 70
    32
  0
VERTEX
  8
0200LEVEL
 62
5
 10
781.048
 20
-984.786
 30
5027.000
 70
    32
  0
VERTEX
  8
0200LEVEL
 62
5
 10
788.486
 20
-968.418
 30
5027.000
 70
    32
  0
VERTEX
  8
0200LEVEL
 62
5
 10
857.167
 20
-1197.400
 30
5027.000
 70
    32
  0
VERTEX
  8
0200LEVEL
 62
5
 10
885.964
 20
-1238.653
 30
5027.000
 70
    32
  0
VERTEX
  8
0200LEVEL
 62
5
 10
887.040
 20
-1223.084
 30
5027.000
 70
    32
  0
VERTEX
  8
0200LEVEL
 62
5
 10
834.992
 20
-1069.994
 30
5027.000
 70
    32
  0
VERTEX
  8
0200LEVEL
 62
5
 10
821.509
 20
-993.074
 30
5027.000
 70
    32
  0
VERTEX
  8
0200LEVEL
 62
5
 10
770.237
 20
-905.019
 30
5027.000
 70
    32
  0
VERTEX
  8
0200LEVEL
 62
5
 10
730.452
 20
-811.938
 30
5027.000
 70
    32
  0
VERTEX
  8
0200LEVEL
 62
5
 10
745.509
 20
-794.710
 30
5027.000
 70
    32
  0
VERTEX
  8
0200LEVEL
 62
5
 10
651.277
 20
-629.829
 30
5027.000
 70
    32
  0
VERTEX
  8
0200LEVEL
 62
5
 10
618.979
 20
-556.841
 30
5027.000
 70
    32
  0
VERTEX
  8
0200LEVEL
 62
5
 10
545.291
 20
-346.338
 30
5027.000
 70
    32
  0
VERTEX
  8
0200LEVEL
 62
5
 10
502.959
 20
-169.980
 30
5027.000
 70
    32
  0
SEQEND
  8
0200LEVEL
  0
POLYLINE
  8
0200LEVEL
 62
5
 66
     1
 70
     9
  0
VERTEX
  8
0200LEVEL
 62
5
 10
572.837
 20
-1941.759
 30
5027.000
 70
    32
  0
VERTEX
  8
0200LEVEL
 62
5
 10
559.681
 20
-1873.223
 30
5027.000
 70
    32
  0
VERTEX
  8
0200LEVEL
 62
5
 10
508.916
 20
-1741.297
 30
5027.000
 70
    32
  0
VERTEX
  8
0200LEVEL
 62
5
 10
496.478
 20
-1686.586
 30
5027.000
 70
    32
  0
VERTEX
  8
0200LEVEL
 62
5
 10
463.041
 20
-1608.341
 30
5027.000
 70
    32
  0
VERTEX
  8
0200LEVEL
 62
5
 10
421.486
 20
-1554.852
 30
5027.000
 70
    32
  0
VERTEX
  8
0200LEVEL
 62
5
 10
396.596
 20
-1506.798
 30
5027.000
 70
    32
  0
VERTEX
  8
0200LEVEL
 62
5
 10
384.716
 20
-1432.960
 30
5027.000
 70
    32
  0
VERTEX
  8
0200LEVEL
 62
5
 10
360.451
 20
-1367.036
 30
5027.000
 70
    32
  0
VERTEX
  8
0200LEVEL
 62
5
 10
359.577
 20
-1357.678
 30
5027.000
 70
    32
  0
VERTEX
  8
0200LEVEL
 62
5
 10
367.959
 20
-1356.661
 30
5027.000
 70
    32
  0
VERTEX
  8
0200LEVEL
 62
5
 10
376.224
 20
-1368.350
 30
5027.000
 70
    32
  0
VERTEX
  8
0200LEVEL
 62
5
 10
423.358
 20
-1519.951
 30
5027.000
 70
    32
  0
VERTEX
  8
0200LEVEL
 62
5
 10
471.732
 20
-1579.679
 30
5027.000
 70
    32
  0
VERTEX
  8
0200LEVEL
 62
5
 10
451.504
 20
-1516.841
 30
5027.000
 70
    32
  0
VERTEX
  8
0200LEVEL
 62
5
 10
418.884
 20
-1463.663
 30
5027.000
 70
    32
  0
VERTEX
  8
0200LEVEL
 62
5
 10
384.991
 20
-1376.620
 30
5027.000
 70
    32
  0
VERTEX
  8
0200LEVEL
 62
5
 10
378.551
 20
-1323.537
 30
5027.000
 70
    32
  0
VERTEX
  8
0200LEVEL
 62
5
 10
399.782
 20
-1321.659
 30
5027.000
 70
    32
  0
VERTEX
  8
0200LEVEL
 62
5
 10
408.125
 20
-1331.115
 30
5027.000
 70
    32
  0
VERTEX
  8
0200LEVEL
 62
5
 10
450.495
 20
-1448.838
 30
5027.000
 70
    32
  0
VERTEX
  8
0200LEVEL
 62
5
 10
493.137
 20
-1491.510
 30
5027.000
 70
    32
  0
VERTEX
  8
0200LEVEL
 62
5
 10
365.362
 20
-1053.055
 30
5027.000
 70
    32
  0
VERTEX
  8
0200LEVEL
 62
5
 10
363.527
 20
-1011.832
 30
5027.000
 70
    32
  0
VERTEX
  8
0200LEVEL
 62
5
 10
381.198
 20
-1033.947
 30
5027.000
 70
    32
  0
VERTEX
  8
0200LEVEL
 62
5
 10
409.878
 20
-1137.855
 30
5027.000
 70
    32
  0
VERTEX
  8
0200LEVEL
 62
5
 10
458.761
 20
-1250.272
 30
5027.000
 70
    32
  0
VERTEX
  8
0200LEVEL
 62
5
 10
434.118
 20
-1049.089
 30
5027.000
 70
    32
  0
VERTEX
  8
0200LEVEL
 62
5
 10
408.376
 20
-955.608
 30
5027.000
 70
    32
  0
VERTEX
  8
0200LEVEL
 62
5
 10
389.619
 20
-917.351
 30
5027.000
 70
    32
  0
VERTEX
  8
0200LEVEL
 62
5
 10
348.282
 20
-749.381
 30
5027.000
 70
    32
  0
VERTEX
  8
0200LEVEL
 62
5
 10
347.685
 20
-678.131
 30
5027.000
 70
    32
  0
VERTEX
  8
0200LEVEL
 62
5
 10
326.354
 20
-571.825
 30
5027.000
 70
    32
  0
VERTEX
  8
0200LEVEL
 62
5
 10
320.741
 20
-432.161
 30
5027.000
 70
    32
  0
VERTEX
  8
0200LEVEL
 62
5
 10
403.299
 20
-432.752
 30
5027.000
 70
    32
  0
VERTEX
  8
0200LEVEL
 62
5
 10
424.809
 20
-588.024
 30
5027.000
 70
    32
  0
VERTEX
  8
0200LEVEL
 62
5
 10
452.521
 20
-668.316
 30
5027.000
 70
    32
  0
VERTEX
  8
0200LEVEL
 62
5
 10
450.534
 20
-728.444
 30
5027.000
 70
    32
  0
VERTEX
  8
0200LEVEL
 62
5
 10
516.671
 20
-840.691
 30
5027.000
 70
    32
  0
VERTEX
  8
0200LEVEL
 62
5
 10
419.459
 20
-439.909
 30
5027.000
 70
    32
  0
VERTEX
  8
0200LEVEL
 62
5
 10
434.865
 20
-433.720
 30
5027.000
 70
    32
  0
VERTEX
  8
0200LEVEL
 62
5
 10
499.774
 20
-662.888
 30
5027.000
 70
    32
  0
VERTEX
  8
0200LEVEL
 62
5
 10
580.904
 20
-900.470
 30
5027.000
 70
    32
  0
VERTEX
  8
0200LEVEL
 62
5
 10
589.963
 20
-1080.599
 30
5027.000
 70
    32
  0
VERTEX
  8
0200LEVEL
 62
5
 10
631.299
 20
-1193.388
 30
5027.000
 70
    32
  0
VERTEX
  8
0200LEVEL
 62
5
 10
662.526
 20
-1325.391
 30
5027.000
 70
    32
  0
VERTEX
  8
0200LEVEL
 62
5
 10
705.539
 20
-1570.765
 30
5027.000
 70
    32
  0
VERTEX
  8
0200LEVEL
 62
5
 10
700.263
 20
-1642.886
 30
5027.000
 70
    32
  0
VERTEX
  8
0200LEVEL
 62
5
 10
681.832
 20
-1707.799
 30
5027.000
 70
    32
  0
VERTEX
  8
0200LEVEL
 62
5
 10
684.476
 20
-1753.637
 30
5027.000
 70
    32
  0
VERTEX
  8
0200LEVEL
 62
5
 10
738.383
 20
-1966.181
 30
5027.000
 70
    32
  0
SEQEND
  8
0200LEVEL
  0
ENDSEC
  0
EOF
