999
********************************
999
*   DXF File - Entities Only   *
999
*        3D Data Format        *
999
*     Output from ENVISAGE     *
999
*     28-Dec-2007 13:53:59     *
999
********************************
  0
SECTION 
  2
HEADER
  9
$ACADVER
  1
AC1009
  9
$EXTMIN
 10
-290000.000
 20
-250000.000
 30
-4000.000
  9
$EXTMAX
 10
5000000.000
 20
600000.000
 30
6000.000
  0
ENDSEC
  0
SECTION
  2
ENTITIES
  0
POLYLINE
  8
2750LEVEL
 62
13
 66
     1
 70
     8
  0
VERTEX
  8
2750LEVEL
 62
13
 10
4113.033
 20
-2762.483
 30
2477.000
 70
    32
  0
VERTEX
  8
2750LEVEL
 62
13
 10
4082.633
 20
-2737.648
 30
2477.000
 70
    32
  0
VERTEX
  8
2750LEVEL
 62
13
 10
4049.531
 20
-2729.115
 30
2477.000
 70
    32
  0
VERTEX
  8
2750LEVEL
 62
13
 10
4027.948
 20
-2759.800
 30
2477.000
 70
    32
  0
VERTEX
  8
2750LEVEL
 62
13
 10
4031.148
 20
-2794.085
 30
2477.000
 70
    32
  0
VERTEX
  8
2750LEVEL
 62
13
 10
4001.708
 20
-2830.828
 30
2477.000
 70
    32
  0
VERTEX
  8
2750LEVEL
 62
13
 10
3970.741
 20
-2863.003
 30
2477.000
 70
    32
  0
VERTEX
  8
2750LEVEL
 62
13
 10
3950.051
 20
-2879.116
 30
2477.000
 70
    32
  0
VERTEX
  8
2750LEVEL
 62
13
 10
3934.752
 20
-2847.393
 30
2477.000
 70
    32
  0
VERTEX
  8
2750LEVEL
 62
13
 10
3924.255
 20
-2800.477
 30
2477.000
 70
    32
  0
VERTEX
  8
2750LEVEL
 62
13
 10
3913.586
 20
-2745.412
 30
2477.000
 70
    32
  0
VERTEX
  8
2750LEVEL
 62
13
 10
3904.487
 20
-2696.190
 30
2477.000
 70
    32
  0
VERTEX
  8
2750LEVEL
 62
13
 10
3880.143
 20
-2676.165
 30
2477.000
 70
    32
  0
VERTEX
  8
2750LEVEL
 62
13
 10
3886.769
 20
-2721.932
 30
2477.000
 70
    32
  0
VERTEX
  8
2750LEVEL
 62
13
 10
3894.273
 20
-2782.310
 30
2477.000
 70
    32
  0
VERTEX
  8
2750LEVEL
 62
13
 10
3899.208
 20
-2824.497
 30
2477.000
 70
    32
  0
VERTEX
  8
2750LEVEL
 62
13
 10
3910.809
 20
-2863.221
 30
2477.000
 70
    32
  0
VERTEX
  8
2750LEVEL
 62
13
 10
3914.429
 20
-2907.220
 30
2477.000
 70
    32
  0
VERTEX
  8
2750LEVEL
 62
13
 10
3902.724
 20
-2936.497
 30
2477.000
 70
    32
  0
VERTEX
  8
2750LEVEL
 62
13
 10
3912.441
 20
-2986.583
 30
2477.000
 70
    32
  0
VERTEX
  8
2750LEVEL
 62
13
 10
3924.908
 20
-3027.734
 30
2477.000
 70
    32
  0
VERTEX
  8
2750LEVEL
 62
13
 10
3892.586
 20
-3063.491
 30
2477.000
 70
    32
  0
VERTEX
  8
2750LEVEL
 62
13
 10
3896.864
 20
-3106.584
 30
2477.000
 70
    32
  0
VERTEX
  8
2750LEVEL
 62
13
 10
3893.345
 20
-3130.873
 30
2477.000
 70
    32
  0
VERTEX
  8
2750LEVEL
 62
13
 10
3856.564
 20
-3150.664
 30
2477.000
 70
    32
  0
VERTEX
  8
2750LEVEL
 62
13
 10
3848.451
 20
-3193.480
 30
2477.000
 70
    32
  0
VERTEX
  8
2750LEVEL
 62
13
 10
3840.706
 20
-3232.549
 30
2477.000
 70
    32
  0
VERTEX
  8
2750LEVEL
 62
13
 10
3800.910
 20
-3241.434
 30
2477.000
 70
    32
  0
VERTEX
  8
2750LEVEL
 62
13
 10
3762.366
 20
-3222.863
 30
2477.000
 70
    32
  0
VERTEX
  8
2750LEVEL
 62
13
 10
3732.683
 20
-3264.134
 30
2477.000
 70
    32
  0
VERTEX
  8
2750LEVEL
 62
13
 10
3718.481
 20
-3310.001
 30
2477.000
 70
    32
  0
VERTEX
  8
2750LEVEL
 62
13
 10
3688.463
 20
-3344.110
 30
2477.000
 70
    32
  0
VERTEX
  8
2750LEVEL
 62
13
 10
3660.918
 20
-3381.674
 30
2477.000
 70
    32
  0
VERTEX
  8
2750LEVEL
 62
13
 10
3654.993
 20
-3431.198
 30
2477.000
 70
    32
  0
VERTEX
  8
2750LEVEL
 62
13
 10
3626.673
 20
-3478.024
 30
2477.000
 70
    32
  0
VERTEX
  8
2750LEVEL
 62
13
 10
3576.772
 20
-3463.662
 30
2477.000
 70
    32
  0
VERTEX
  8
2750LEVEL
 62
13
 10
3523.240
 20
-3440.576
 30
2477.000
 70
    32
  0
VERTEX
  8
2750LEVEL
 62
13
 10
3493.550
 20
-3472.709
 30
2477.000
 70
    32
  0
VERTEX
  8
2750LEVEL
 62
13
 10
3486.513
 20
-3521.286
 30
2477.000
 70
    32
  0
VERTEX
  8
2750LEVEL
 62
13
 10
3458.005
 20
-3541.687
 30
2477.000
 70
    32
  0
VERTEX
  8
2750LEVEL
 62
13
 10
3423.841
 20
-3542.622
 30
2477.000
 70
    32
  0
VERTEX
  8
2750LEVEL
 62
13
 10
3432.156
 20
-3588.923
 30
2477.000
 70
    32
  0
VERTEX
  8
2750LEVEL
 62
13
 10
3411.899
 20
-3629.979
 30
2477.000
 70
    32
  0
VERTEX
  8
2750LEVEL
 62
13
 10
3376.359
 20
-3657.589
 30
2477.000
 70
    32
  0
VERTEX
  8
2750LEVEL
 62
13
 10
3375.818
 20
-3697.600
 30
2477.000
 70
    32
  0
VERTEX
  8
2750LEVEL
 62
13
 10
3346.167
 20
-3727.962
 30
2477.000
 70
    32
  0
VERTEX
  8
2750LEVEL
 62
13
 10
3337.241
 20
-3781.811
 30
2477.000
 70
    32
  0
VERTEX
  8
2750LEVEL
 62
13
 10
3313.029
 20
-3819.166
 30
2477.000
 70
    32
  0
VERTEX
  8
2750LEVEL
 62
13
 10
3312.359
 20
-3852.302
 30
2477.000
 70
    32
  0
VERTEX
  8
2750LEVEL
 62
13
 10
3313.939
 20
-3870.330
 30
2477.000
 70
    32
  0
VERTEX
  8
2750LEVEL
 62
13
 10
3293.927
 20
-3862.445
 30
2477.000
 70
    32
  0
SEQEND
  8
2750LEVEL
  0
POLYLINE
  8
2750LEVEL
 62
13
 66
     1
 70
     9
  0
VERTEX
  8
2750LEVEL
 62
13
 10
1409.585
 20
-2493.033
 30
2477.000
 70
    32
  0
VERTEX
  8
2750LEVEL
 62
13
 10
1438.722
 20
-2533.140
 30
2477.000
 70
    32
  0
VERTEX
  8
2750LEVEL
 62
13
 10
1483.607
 20
-2553.270
 30
2477.000
 70
    32
  0
VERTEX
  8
2750LEVEL
 62
13
 10
1521.332
 20
-2576.782
 30
2477.000
 70
    32
  0
VERTEX
  8
2750LEVEL
 62
13
 10
1556.960
 20
-2602.230
 30
2477.000
 70
    32
  0
VERTEX
  8
2750LEVEL
 62
13
 10
1589.349
 20
-2642.623
 30
2477.000
 70
    32
  0
VERTEX
  8
2750LEVEL
 62
13
 10
1618.301
 20
-2659.350
 30
2477.000
 70
    32
  0
VERTEX
  8
2750LEVEL
 62
13
 10
1594.067
 20
-2624.877
 30
2477.000
 70
    32
  0
VERTEX
  8
2750LEVEL
 62
13
 10
1573.294
 20
-2594.024
 30
2477.000
 70
    32
  0
VERTEX
  8
2750LEVEL
 62
13
 10
1549.449
 20
-2580.173
 30
2477.000
 70
    32
  0
VERTEX
  8
2750LEVEL
 62
13
 10
1514.735
 20
-2564.521
 30
2477.000
 70
    32
  0
VERTEX
  8
2750LEVEL
 62
13
 10
1490.343
 20
-2537.129
 30
2477.000
 70
    32
  0
VERTEX
  8
2750LEVEL
 62
13
 10
1462.506
 20
-2524.393
 30
2477.000
 70
    32
  0
VERTEX
  8
2750LEVEL
 62
13
 10
1436.925
 20
-2502.641
 30
2477.000
 70
    32
  0
VERTEX
  8
2750LEVEL
 62
13
 10
1417.983
 20
-2494.425
 30
2477.000
 70
    32
  0
SEQEND
  8
2750LEVEL
  0
POLYLINE
  8
2750LEVEL
 62
13
 66
     1
 70
     8
  0
VERTEX
  8
2750LEVEL
 62
13
 10
3443.397
 20
-5552.889
 30
2477.000
 70
    32
  0
VERTEX
  8
2750LEVEL
 62
13
 10
3414.049
 20
-5506.402
 30
2477.000
 70
    32
  0
VERTEX
  8
2750LEVEL
 62
13
 10
3373.451
 20
-5446.629
 30
2477.000
 70
    32
  0
VERTEX
  8
2750LEVEL
 62
13
 10
3315.106
 20
-5379.092
 30
2477.000
 70
    32
  0
VERTEX
  8
2750LEVEL
 62
13
 10
3263.688
 20
-5324.885
 30
2477.000
 70
    32
  0
VERTEX
  8
2750LEVEL
 62
13
 10
3221.276
 20
-5308.211
 30
2477.000
 70
    32
  0
VERTEX
  8
2750LEVEL
 62
13
 10
2876.419
 20
-5122.626
 30
2477.000
 70
    32
  0
VERTEX
  8
2750LEVEL
 62
13
 10
2831.005
 20
-5062.816
 30
2477.000
 70
    32
  0
VERTEX
  8
2750LEVEL
 62
13
 10
2774.665
 20
-4981.653
 30
2477.000
 70
    32
  0
VERTEX
  8
2750LEVEL
 62
13
 10
2723.595
 20
-4902.378
 30
2477.000
 70
    32
  0
VERTEX
  8
2750LEVEL
 62
13
 10
2688.823
 20
-4867.174
 30
2477.000
 70
    32
  0
VERTEX
  8
2750LEVEL
 62
13
 10
2689.964
 20
-4901.626
 30
2477.000
 70
    32
  0
VERTEX
  8
2750LEVEL
 62
13
 10
2688.459
 20
-4921.426
 30
2477.000
 70
    32
  0
VERTEX
  8
2750LEVEL
 62
13
 10
2653.219
 20
-4869.140
 30
2477.000
 70
    32
  0
VERTEX
  8
2750LEVEL
 62
13
 10
2601.008
 20
-4802.874
 30
2477.000
 70
    32
  0
VERTEX
  8
2750LEVEL
 62
13
 10
2553.446
 20
-4734.586
 30
2477.000
 70
    32
  0
VERTEX
  8
2750LEVEL
 62
13
 10
2510.695
 20
-4660.244
 30
2477.000
 70
    32
  0
VERTEX
  8
2750LEVEL
 62
13
 10
2476.547
 20
-4631.995
 30
2477.000
 70
    32
  0
VERTEX
  8
2750LEVEL
 62
13
 10
2500.890
 20
-4696.434
 30
2477.000
 70
    32
  0
VERTEX
  8
2750LEVEL
 62
13
 10
2532.228
 20
-4758.479
 30
2477.000
 70
    32
  0
VERTEX
  8
2750LEVEL
 62
13
 10
2533.087
 20
-4799.229
 30
2477.000
 70
    32
  0
VERTEX
  8
2750LEVEL
 62
13
 10
2505.929
 20
-4762.495
 30
2477.000
 70
    32
  0
VERTEX
  8
2750LEVEL
 62
13
 10
2468.086
 20
-4699.879
 30
2477.000
 70
    32
  0
VERTEX
  8
2750LEVEL
 62
13
 10
2431.512
 20
-4628.083
 30
2477.000
 70
    32
  0
VERTEX
  8
2750LEVEL
 62
13
 10
2384.439
 20
-4553.786
 30
2477.000
 70
    32
  0
VERTEX
  8
2750LEVEL
 62
13
 10
2326.717
 20
-4493.205
 30
2477.000
 70
    32
  0
VERTEX
  8
2750LEVEL
 62
13
 10
2261.990
 20
-4470.293
 30
2477.000
 70
    32
  0
VERTEX
  8
2750LEVEL
 62
13
 10
2220.925
 20
-4440.898
 30
2477.000
 70
    32
  0
VERTEX
  8
2750LEVEL
 62
13
 10
2195.296
 20
-4411.778
 30
2477.000
 70
    32
  0
VERTEX
  8
2750LEVEL
 62
13
 10
2164.999
 20
-4363.357
 30
2477.000
 70
    32
  0
VERTEX
  8
2750LEVEL
 62
13
 10
2125.577
 20
-4282.714
 30
2477.000
 70
    32
  0
VERTEX
  8
2750LEVEL
 62
13
 10
2109.960
 20
-4217.691
 30
2477.000
 70
    32
  0
VERTEX
  8
2750LEVEL
 62
13
 10
2096.737
 20
-4159.664
 30
2477.000
 70
    32
  0
VERTEX
  8
2750LEVEL
 62
13
 10
2084.553
 20
-4112.214
 30
2477.000
 70
    32
  0
VERTEX
  8
2750LEVEL
 62
13
 10
2069.277
 20
-4060.446
 30
2477.000
 70
    32
  0
VERTEX
  8
2750LEVEL
 62
13
 10
2039.097
 20
-4051.129
 30
2477.000
 70
    32
  0
VERTEX
  8
2750LEVEL
 62
13
 10
1986.065
 20
-4034.217
 30
2477.000
 70
    32
  0
VERTEX
  8
2750LEVEL
 62
13
 10
1956.423
 20
-3981.843
 30
2477.000
 70
    32
  0
VERTEX
  8
2750LEVEL
 62
13
 10
1917.970
 20
-3927.502
 30
2477.000
 70
    32
  0
VERTEX
  8
2750LEVEL
 62
13
 10
1887.887
 20
-3888.506
 30
2477.000
 70
    32
  0
VERTEX
  8
2750LEVEL
 62
13
 10
1857.440
 20
-3856.303
 30
2477.000
 70
    32
  0
VERTEX
  8
2750LEVEL
 62
13
 10
1834.626
 20
-3891.352
 30
2477.000
 70
    32
  0
VERTEX
  8
2750LEVEL
 62
13
 10
1799.154
 20
-3855.778
 30
2477.000
 70
    32
  0
VERTEX
  8
2750LEVEL
 62
13
 10
1816.128
 20
-3920.265
 30
2477.000
 70
    32
  0
VERTEX
  8
2750LEVEL
 62
13
 10
1827.888
 20
-3951.908
 30
2477.000
 70
    32
  0
VERTEX
  8
2750LEVEL
 62
13
 10
1790.482
 20
-3917.282
 30
2477.000
 70
    32
  0
VERTEX
  8
2750LEVEL
 62
13
 10
1771.465
 20
-3871.239
 30
2477.000
 70
    32
  0
VERTEX
  8
2750LEVEL
 62
13
 10
1755.606
 20
-3810.744
 30
2477.000
 70
    32
  0
VERTEX
  8
2750LEVEL
 62
13
 10
1717.718
 20
-3743.806
 30
2477.000
 70
    32
  0
VERTEX
  8
2750LEVEL
 62
13
 10
1681.665
 20
-3702.552
 30
2477.000
 70
    32
  0
VERTEX
  8
2750LEVEL
 62
13
 10
1640.101
 20
-3666.984
 30
2477.000
 70
    32
  0
VERTEX
  8
2750LEVEL
 62
13
 10
1589.242
 20
-3594.089
 30
2477.000
 70
    32
  0
VERTEX
  8
2750LEVEL
 62
13
 10
1541.810
 20
-3532.676
 30
2477.000
 70
    32
  0
VERTEX
  8
2750LEVEL
 62
13
 10
1496.877
 20
-3457.718
 30
2477.000
 70
    32
  0
VERTEX
  8
2750LEVEL
 62
13
 10
1471.755
 20
-3396.449
 30
2477.000
 70
    32
  0
VERTEX
  8
2750LEVEL
 62
13
 10
1430.664
 20
-3336.594
 30
2477.000
 70
    32
  0
VERTEX
  8
2750LEVEL
 62
13
 10
1365.497
 20
-3282.647
 30
2477.000
 70
    32
  0
VERTEX
  8
2750LEVEL
 62
13
 10
1311.310
 20
-3216.053
 30
2477.000
 70
    32
  0
VERTEX
  8
2750LEVEL
 62
13
 10
1274.958
 20
-3162.821
 30
2477.000
 70
    32
  0
VERTEX
  8
2750LEVEL
 62
13
 10
1260.460
 20
-3152.296
 30
2477.000
 70
    32
  0
VERTEX
  8
2750LEVEL
 62
13
 10
1175.366
 20
-2953.681
 30
2477.000
 70
    32
  0
VERTEX
  8
2750LEVEL
 62
13
 10
1155.381
 20
-2928.795
 30
2477.000
 70
    32
  0
VERTEX
  8
2750LEVEL
 62
13
 10
1146.835
 20
-2946.667
 30
2477.000
 70
    32
  0
VERTEX
  8
2750LEVEL
 62
13
 10
1122.321
 20
-2921.539
 30
2477.000
 70
    32
  0
VERTEX
  8
2750LEVEL
 62
13
 10
1115.410
 20
-2926.484
 30
2477.000
 70
    32
  0
VERTEX
  8
2750LEVEL
 62
13
 10
1073.700
 20
-2865.766
 30
2477.000
 70
    32
  0
VERTEX
  8
2750LEVEL
 62
13
 10
1003.490
 20
-2787.125
 30
2477.000
 70
    32
  0
VERTEX
  8
2750LEVEL
 62
13
 10
956.497
 20
-2709.288
 30
2477.000
 70
    32
  0
VERTEX
  8
2750LEVEL
 62
13
 10
895.568
 20
-2652.743
 30
2477.000
 70
    32
  0
VERTEX
  8
2750LEVEL
 62
13
 10
856.524
 20
-2627.998
 30
2477.000
 70
    32
  0
VERTEX
  8
2750LEVEL
 62
13
 10
908.141
 20
-2720.815
 30
2477.000
 70
    32
  0
VERTEX
  8
2750LEVEL
 62
13
 10
976.117
 20
-2832.840
 30
2477.000
 70
    32
  0
VERTEX
  8
2750LEVEL
 62
13
 10
1046.879
 20
-2931.114
 30
2477.000
 70
    32
  0
VERTEX
  8
2750LEVEL
 62
13
 10
1113.850
 20
-3024.699
 30
2477.000
 70
    32
  0
VERTEX
  8
2750LEVEL
 62
13
 10
1173.099
 20
-3089.848
 30
2477.000
 70
    32
  0
VERTEX
  8
2750LEVEL
 62
13
 10
1218.299
 20
-3140.232
 30
2477.000
 70
    32
  0
VERTEX
  8
2750LEVEL
 62
13
 10
1237.209
 20
-3159.355
 30
2477.000
 70
    32
  0
VERTEX
  8
2750LEVEL
 62
13
 10
1288.474
 20
-3226.734
 30
2477.000
 70
    32
  0
VERTEX
  8
2750LEVEL
 62
13
 10
1329.442
 20
-3285.807
 30
2477.000
 70
    32
  0
VERTEX
  8
2750LEVEL
 62
13
 10
1363.623
 20
-3350.607
 30
2477.000
 70
    32
  0
VERTEX
  8
2750LEVEL
 62
13
 10
1413.205
 20
-3423.544
 30
2477.000
 70
    32
  0
VERTEX
  8
2750LEVEL
 62
13
 10
1469.487
 20
-3485.156
 30
2477.000
 70
    32
  0
VERTEX
  8
2750LEVEL
 62
13
 10
1506.621
 20
-3538.264
 30
2477.000
 70
    32
  0
VERTEX
  8
2750LEVEL
 62
13
 10
1550.799
 20
-3596.346
 30
2477.000
 70
    32
  0
VERTEX
  8
2750LEVEL
 62
13
 10
1597.525
 20
-3651.297
 30
2477.000
 70
    32
  0
VERTEX
  8
2750LEVEL
 62
13
 10
1624.375
 20
-3711.329
 30
2477.000
 70
    32
  0
VERTEX
  8
2750LEVEL
 62
13
 10
1685.415
 20
-3800.886
 30
2477.000
 70
    32
  0
VERTEX
  8
2750LEVEL
 62
13
 10
1730.713
 20
-3869.052
 30
2477.000
 70
    32
  0
VERTEX
  8
2750LEVEL
 62
13
 10
1762.946
 20
-3919.571
 30
2477.000
 70
    32
  0
VERTEX
  8
2750LEVEL
 62
13
 10
1768.370
 20
-3955.747
 30
2477.000
 70
    32
  0
VERTEX
  8
2750LEVEL
 62
13
 10
1749.053
 20
-3942.140
 30
2477.000
 70
    32
  0
VERTEX
  8
2750LEVEL
 62
13
 10
1752.512
 20
-3990.173
 30
2477.000
 70
    32
  0
VERTEX
  8
2750LEVEL
 62
13
 10
1738.231
 20
-3992.120
 30
2477.000
 70
    32
  0
VERTEX
  8
2750LEVEL
 62
13
 10
1752.727
 20
-4047.059
 30
2477.000
 70
    32
  0
VERTEX
  8
2750LEVEL
 62
13
 10
1770.312
 20
-4103.271
 30
2477.000
 70
    32
  0
VERTEX
  8
2750LEVEL
 62
13
 10
1762.558
 20
-4133.203
 30
2477.000
 70
    32
  0
VERTEX
  8
2750LEVEL
 62
13
 10
1800.726
 20
-4190.797
 30
2477.000
 70
    32
  0
VERTEX
  8
2750LEVEL
 62
13
 10
1845.391
 20
-4242.869
 30
2477.000
 70
    32
  0
VERTEX
  8
2750LEVEL
 62
13
 10
1878.428
 20
-4317.632
 30
2477.000
 70
    32
  0
VERTEX
  8
2750LEVEL
 62
13
 10
1912.712
 20
-4358.846
 30
2477.000
 70
    32
  0
VERTEX
  8
2750LEVEL
 62
13
 10
1964.164
 20
-4405.190
 30
2477.000
 70
    32
  0
VERTEX
  8
2750LEVEL
 62
13
 10
2006.341
 20
-4435.531
 30
2477.000
 70
    32
  0
VERTEX
  8
2750LEVEL
 62
13
 10
2055.147
 20
-4467.224
 30
2477.000
 70
    32
  0
VERTEX
  8
2750LEVEL
 62
13
 10
2105.072
 20
-4509.001
 30
2477.000
 70
    32
  0
VERTEX
  8
2750LEVEL
 62
13
 10
2134.946
 20
-4544.662
 30
2477.000
 70
    32
  0
VERTEX
  8
2750LEVEL
 62
13
 10
2150.671
 20
-4592.191
 30
2477.000
 70
    32
  0
VERTEX
  8
2750LEVEL
 62
13
 10
2161.252
 20
-4641.658
 30
2477.000
 70
    32
  0
VERTEX
  8
2750LEVEL
 62
13
 10
2214.576
 20
-4708.871
 30
2477.000
 70
    32
  0
VERTEX
  8
2750LEVEL
 62
13
 10
2293.215
 20
-4777.995
 30
2477.000
 70
    32
  0
VERTEX
  8
2750LEVEL
 62
13
 10
2351.463
 20
-4827.750
 30
2477.000
 70
    32
  0
VERTEX
  8
2750LEVEL
 62
13
 10
2411.842
 20
-4867.706
 30
2477.000
 70
    32
  0
VERTEX
  8
2750LEVEL
 62
13
 10
2475.743
 20
-4933.880
 30
2477.000
 70
    32
  0
VERTEX
  8
2750LEVEL
 62
13
 10
2534.543
 20
-5003.269
 30
2477.000
 70
    32
  0
VERTEX
  8
2750LEVEL
 62
13
 10
2584.540
 20
-5079.828
 30
2477.000
 70
    32
  0
VERTEX
  8
2750LEVEL
 62
13
 10
2618.639
 20
-5145.122
 30
2477.000
 70
    32
  0
VERTEX
  8
2750LEVEL
 62
13
 10
2644.728
 20
-5182.187
 30
2477.000
 70
    32
  0
SEQEND
  8
2750LEVEL
  0
POLYLINE
  8
2750LEVEL
 62
13
 66
     1
 70
     8
  0
VERTEX
  8
2750LEVEL
 62
13
 10
2594.479
 20
-5240.352
 30
2477.000
 70
    32
  0
VERTEX
  8
2750LEVEL
 62
13
 10
2549.189
 20
-5181.324
 30
2477.000
 70
    32
  0
VERTEX
  8
2750LEVEL
 62
13
 10
2505.128
 20
-5114.886
 30
2477.000
 70
    32
  0
VERTEX
  8
2750LEVEL
 62
13
 10
2463.865
 20
-5046.881
 30
2477.000
 70
    32
  0
VERTEX
  8
2750LEVEL
 62
13
 10
2413.756
 20
-4984.770
 30
2477.000
 70
    32
  0
VERTEX
  8
2750LEVEL
 62
13
 10
2357.446
 20
-4937.113
 30
2477.000
 70
    32
  0
VERTEX
  8
2750LEVEL
 62
13
 10
2309.182
 20
-4912.870
 30
2477.000
 70
    32
  0
VERTEX
  8
2750LEVEL
 62
13
 10
2259.119
 20
-4855.081
 30
2477.000
 70
    32
  0
VERTEX
  8
2750LEVEL
 62
13
 10
2200.499
 20
-4802.980
 30
2477.000
 70
    32
  0
VERTEX
  8
2750LEVEL
 62
13
 10
2190.883
 20
-4821.182
 30
2477.000
 70
    32
  0
VERTEX
  8
2750LEVEL
 62
13
 10
2238.249
 20
-4901.366
 30
2477.000
 70
    32
  0
VERTEX
  8
2750LEVEL
 62
13
 10
2310.116
 20
-4991.448
 30
2477.000
 70
    32
  0
VERTEX
  8
2750LEVEL
 62
13
 10
2339.549
 20
-5040.487
 30
2477.000
 70
    32
  0
VERTEX
  8
2750LEVEL
 62
13
 10
2337.959
 20
-5057.736
 30
2477.000
 70
    32
  0
VERTEX
  8
2750LEVEL
 62
13
 10
2276.792
 20
-5011.811
 30
2477.000
 70
    32
  0
VERTEX
  8
2750LEVEL
 62
13
 10
2216.730
 20
-4957.695
 30
2477.000
 70
    32
  0
VERTEX
  8
2750LEVEL
 62
13
 10
2240.169
 20
-5024.522
 30
2477.000
 70
    32
  0
VERTEX
  8
2750LEVEL
 62
13
 10
2284.523
 20
-5096.846
 30
2477.000
 70
    32
  0
VERTEX
  8
2750LEVEL
 62
13
 10
2304.528
 20
-5143.053
 30
2477.000
 70
    32
  0
VERTEX
  8
2750LEVEL
 62
13
 10
2263.508
 20
-5117.981
 30
2477.000
 70
    32
  0
VERTEX
  8
2750LEVEL
 62
13
 10
2221.347
 20
-5058.456
 30
2477.000
 70
    32
  0
VERTEX
  8
2750LEVEL
 62
13
 10
2181.851
 20
-4987.445
 30
2477.000
 70
    32
  0
VERTEX
  8
2750LEVEL
 62
13
 10
2140.135
 20
-4920.634
 30
2477.000
 70
    32
  0
VERTEX
  8
2750LEVEL
 62
13
 10
2100.932
 20
-4855.509
 30
2477.000
 70
    32
  0
VERTEX
  8
2750LEVEL
 62
13
 10
2049.913
 20
-4786.648
 30
2477.000
 70
    32
  0
VERTEX
  8
2750LEVEL
 62
13
 10
2016.017
 20
-4718.596
 30
2477.000
 70
    32
  0
VERTEX
  8
2750LEVEL
 62
13
 10
1990.032
 20
-4657.945
 30
2477.000
 70
    32
  0
VERTEX
  8
2750LEVEL
 62
13
 10
1947.806
 20
-4572.777
 30
2477.000
 70
    32
  0
VERTEX
  8
2750LEVEL
 62
13
 10
1912.923
 20
-4504.560
 30
2477.000
 70
    32
  0
VERTEX
  8
2750LEVEL
 62
13
 10
1855.784
 20
-4405.245
 30
2477.000
 70
    32
  0
VERTEX
  8
2750LEVEL
 62
13
 10
1867.224
 20
-4448.002
 30
2477.000
 70
    32
  0
VERTEX
  8
2750LEVEL
 62
13
 10
1886.969
 20
-4480.462
 30
2477.000
 70
    32
  0
VERTEX
  8
2750LEVEL
 62
13
 10
1848.364
 20
-4439.293
 30
2477.000
 70
    32
  0
VERTEX
  8
2750LEVEL
 62
13
 10
1806.482
 20
-4370.424
 30
2477.000
 70
    32
  0
VERTEX
  8
2750LEVEL
 62
13
 10
1773.802
 20
-4327.191
 30
2477.000
 70
    32
  0
VERTEX
  8
2750LEVEL
 62
13
 10
1742.351
 20
-4324.008
 30
2477.000
 70
    32
  0
VERTEX
  8
2750LEVEL
 62
13
 10
1717.426
 20
-4298.304
 30
2477.000
 70
    32
  0
VERTEX
  8
2750LEVEL
 62
13
 10
1714.743
 20
-4244.054
 30
2477.000
 70
    32
  0
VERTEX
  8
2750LEVEL
 62
13
 10
1687.923
 20
-4170.068
 30
2477.000
 70
    32
  0
VERTEX
  8
2750LEVEL
 62
13
 10
1685.872
 20
-4131.913
 30
2477.000
 70
    32
  0
VERTEX
  8
2750LEVEL
 62
13
 10
1665.368
 20
-4079.531
 30
2477.000
 70
    32
  0
VERTEX
  8
2750LEVEL
 62
13
 10
1641.924
 20
-4054.072
 30
2477.000
 70
    32
  0
VERTEX
  8
2750LEVEL
 62
13
 10
1623.856
 20
-4009.962
 30
2477.000
 70
    32
  0
VERTEX
  8
2750LEVEL
 62
13
 10
1598.584
 20
-3964.912
 30
2477.000
 70
    32
  0
VERTEX
  8
2750LEVEL
 62
13
 10
1562.641
 20
-3909.210
 30
2477.000
 70
    32
  0
VERTEX
  8
2750LEVEL
 62
13
 10
1529.367
 20
-3845.067
 30
2477.000
 70
    32
  0
VERTEX
  8
2750LEVEL
 62
13
 10
1485.319
 20
-3793.859
 30
2477.000
 70
    32
  0
VERTEX
  8
2750LEVEL
 62
13
 10
1446.618
 20
-3737.954
 30
2477.000
 70
    32
  0
VERTEX
  8
2750LEVEL
 62
13
 10
1469.339
 20
-3783.089
 30
2477.000
 70
    32
  0
VERTEX
  8
2750LEVEL
 62
13
 10
1421.302
 20
-3736.041
 30
2477.000
 70
    32
  0
VERTEX
  8
2750LEVEL
 62
13
 10
1355.490
 20
-3650.770
 30
2477.000
 70
    32
  0
VERTEX
  8
2750LEVEL
 62
13
 10
1379.038
 20
-3700.103
 30
2477.000
 70
    32
  0
VERTEX
  8
2750LEVEL
 62
13
 10
1395.415
 20
-3740.633
 30
2477.000
 70
    32
  0
VERTEX
  8
2750LEVEL
 62
13
 10
1362.320
 20
-3693.779
 30
2477.000
 70
    32
  0
VERTEX
  8
2750LEVEL
 62
13
 10
1324.423
 20
-3662.117
 30
2477.000
 70
    32
  0
VERTEX
  8
2750LEVEL
 62
13
 10
1304.300
 20
-3621.219
 30
2477.000
 70
    32
  0
VERTEX
  8
2750LEVEL
 62
13
 10
1309.712
 20
-3597.752
 30
2477.000
 70
    32
  0
VERTEX
  8
2750LEVEL
 62
13
 10
1271.308
 20
-3550.779
 30
2477.000
 70
    32
  0
VERTEX
  8
2750LEVEL
 62
13
 10
1243.232
 20
-3501.203
 30
2477.000
 70
    32
  0
VERTEX
  8
2750LEVEL
 62
13
 10
1222.100
 20
-3483.234
 30
2477.000
 70
    32
  0
VERTEX
  8
2750LEVEL
 62
13
 10
1241.735
 20
-3530.141
 30
2477.000
 70
    32
  0
VERTEX
  8
2750LEVEL
 62
13
 10
1214.162
 20
-3489.786
 30
2477.000
 70
    32
  0
VERTEX
  8
2750LEVEL
 62
13
 10
1182.586
 20
-3438.361
 30
2477.000
 70
    32
  0
VERTEX
  8
2750LEVEL
 62
13
 10
1146.575
 20
-3398.383
 30
2477.000
 70
    32
  0
VERTEX
  8
2750LEVEL
 62
13
 10
1166.085
 20
-3444.508
 30
2477.000
 70
    32
  0
VERTEX
  8
2750LEVEL
 62
13
 10
1199.061
 20
-3496.673
 30
2477.000
 70
    32
  0
VERTEX
  8
2750LEVEL
 62
13
 10
1228.294
 20
-3551.516
 30
2477.000
 70
    32
  0
VERTEX
  8
2750LEVEL
 62
13
 10
1253.402
 20
-3597.555
 30
2477.000
 70
    32
  0
VERTEX
  8
2750LEVEL
 62
13
 10
1271.050
 20
-3631.951
 30
2477.000
 70
    32
  0
VERTEX
  8
2750LEVEL
 62
13
 10
1306.427
 20
-3700.249
 30
2477.000
 70
    32
  0
VERTEX
  8
2750LEVEL
 62
13
 10
1268.892
 20
-3658.750
 30
2477.000
 70
    32
  0
VERTEX
  8
2750LEVEL
 62
13
 10
1223.719
 20
-3591.366
 30
2477.000
 70
    32
  0
VERTEX
  8
2750LEVEL
 62
13
 10
1189.411
 20
-3522.737
 30
2477.000
 70
    32
  0
VERTEX
  8
2750LEVEL
 62
13
 10
1147.326
 20
-3456.627
 30
2477.000
 70
    32
  0
VERTEX
  8
2750LEVEL
 62
13
 10
1101.057
 20
-3406.573
 30
2477.000
 70
    32
  0
VERTEX
  8
2750LEVEL
 62
13
 10
1065.706
 20
-3368.735
 30
2477.000
 70
    32
  0
VERTEX
  8
2750LEVEL
 62
13
 10
1102.901
 20
-3444.441
 30
2477.000
 70
    32
  0
VERTEX
  8
2750LEVEL
 62
13
 10
1132.554
 20
-3508.998
 30
2477.000
 70
    32
  0
VERTEX
  8
2750LEVEL
 62
13
 10
1080.184
 20
-3449.812
 30
2477.000
 70
    32
  0
VERTEX
  8
2750LEVEL
 62
13
 10
1036.120
 20
-3380.327
 30
2477.000
 70
    32
  0
VERTEX
  8
2750LEVEL
 62
13
 10
1013.908
 20
-3350.504
 30
2477.000
 70
    32
  0
VERTEX
  8
2750LEVEL
 62
13
 10
1015.295
 20
-3383.474
 30
2477.000
 70
    32
  0
VERTEX
  8
2750LEVEL
 62
13
 10
982.486
 20
-3333.367
 30
2477.000
 70
    32
  0
VERTEX
  8
2750LEVEL
 62
13
 10
938.987
 20
-3251.287
 30
2477.000
 70
    32
  0
VERTEX
  8
2750LEVEL
 62
13
 10
922.031
 20
-3208.123
 30
2477.000
 70
    32
  0
VERTEX
  8
2750LEVEL
 62
13
 10
863.660
 20
-3157.586
 30
2477.000
 70
    32
  0
VERTEX
  8
2750LEVEL
 62
13
 10
827.471
 20
-3103.366
 30
2477.000
 70
    32
  0
VERTEX
  8
2750LEVEL
 62
13
 10
782.761
 20
-3046.972
 30
2477.000
 70
    32
  0
VERTEX
  8
2750LEVEL
 62
13
 10
761.261
 20
-2985.289
 30
2477.000
 70
    32
  0
VERTEX
  8
2750LEVEL
 62
13
 10
727.534
 20
-2922.340
 30
2477.000
 70
    32
  0
VERTEX
  8
2750LEVEL
 62
13
 10
684.763
 20
-2871.090
 30
2477.000
 70
    32
  0
VERTEX
  8
2750LEVEL
 62
13
 10
628.946
 20
-2823.514
 30
2477.000
 70
    32
  0
VERTEX
  8
2750LEVEL
 62
13
 10
579.289
 20
-2760.209
 30
2477.000
 70
    32
  0
VERTEX
  8
2750LEVEL
 62
13
 10
523.823
 20
-2690.611
 30
2477.000
 70
    32
  0
VERTEX
  8
2750LEVEL
 62
13
 10
465.716
 20
-2659.914
 30
2477.000
 70
    32
  0
VERTEX
  8
2750LEVEL
 62
13
 10
413.588
 20
-2640.614
 30
2477.000
 70
    32
  0
VERTEX
  8
2750LEVEL
 62
13
 10
409.346
 20
-2684.579
 30
2477.000
 70
    32
  0
VERTEX
  8
2750LEVEL
 62
13
 10
473.599
 20
-2776.191
 30
2477.000
 70
    32
  0
VERTEX
  8
2750LEVEL
 62
13
 10
507.464
 20
-2810.737
 30
2477.000
 70
    32
  0
VERTEX
  8
2750LEVEL
 62
13
 10
507.050
 20
-2854.576
 30
2477.000
 70
    32
  0
VERTEX
  8
2750LEVEL
 62
13
 10
491.234
 20
-2890.277
 30
2477.000
 70
    32
  0
VERTEX
  8
2750LEVEL
 62
13
 10
472.432
 20
-2853.659
 30
2477.000
 70
    32
  0
VERTEX
  8
2750LEVEL
 62
13
 10
443.971
 20
-2786.508
 30
2477.000
 70
    32
  0
VERTEX
  8
2750LEVEL
 62
13
 10
399.144
 20
-2738.470
 30
2477.000
 70
    32
  0
VERTEX
  8
2750LEVEL
 62
13
 10
342.302
 20
-2695.546
 30
2477.000
 70
    32
  0
VERTEX
  8
2750LEVEL
 62
13
 10
276.771
 20
-2648.391
 30
2477.000
 70
    32
  0
VERTEX
  8
2750LEVEL
 62
13
 10
209.566
 20
-2615.932
 30
2477.000
 70
    32
  0
VERTEX
  8
2750LEVEL
 62
13
 10
200.143
 20
-2666.652
 30
2477.000
 70
    32
  0
VERTEX
  8
2750LEVEL
 62
13
 10
183.823
 20
-2737.548
 30
2477.000
 70
    32
  0
VERTEX
  8
2750LEVEL
 62
13
 10
181.240
 20
-2796.001
 30
2477.000
 70
    32
  0
VERTEX
  8
2750LEVEL
 62
13
 10
165.989
 20
-2819.107
 30
2477.000
 70
    32
  0
VERTEX
  8
2750LEVEL
 62
13
 10
200.722
 20
-2856.081
 30
2477.000
 70
    32
  0
VERTEX
  8
2750LEVEL
 62
13
 10
249.474
 20
-2874.314
 30
2477.000
 70
    32
  0
VERTEX
  8
2750LEVEL
 62
13
 10
299.608
 20
-2919.425
 30
2477.000
 70
    32
  0
VERTEX
  8
2750LEVEL
 62
13
 10
290.442
 20
-2933.387
 30
2477.000
 70
    32
  0
VERTEX
  8
2750LEVEL
 62
13
 10
243.486
 20
-2898.193
 30
2477.000
 70
    32
  0
VERTEX
  8
2750LEVEL
 62
13
 10
196.527
 20
-2859.954
 30
2477.000
 70
    32
  0
VERTEX
  8
2750LEVEL
 62
13
 10
147.217
 20
-2815.995
 30
2477.000
 70
    32
  0
VERTEX
  8
2750LEVEL
 62
13
 10
104.841
 20
-2747.044
 30
2477.000
 70
    32
  0
VERTEX
  8
2750LEVEL
 62
13
 10
62.645
 20
-2695.382
 30
2477.000
 70
    32
  0
VERTEX
  8
2750LEVEL
 62
13
 10
47.649
 20
-2634.269
 30
2477.000
 70
    32
  0
VERTEX
  8
2750LEVEL
 62
13
 10
22.047
 20
-2588.149
 30
2477.000
 70
    32
  0
VERTEX
  8
2750LEVEL
 62
13
 10
11.070
 20
-2603.841
 30
2477.000
 70
    32
  0
VERTEX
  8
2750LEVEL
 62
13
 10
31.221
 20
-2675.199
 30
2477.000
 70
    32
  0
VERTEX
  8
2750LEVEL
 62
13
 10
42.288
 20
-2715.610
 30
2477.000
 70
    32
  0
VERTEX
  8
2750LEVEL
 62
13
 10
56.084
 20
-2770.179
 30
2477.000
 70
    32
  0
VERTEX
  8
2750LEVEL
 62
13
 10
90.830
 20
-2822.384
 30
2477.000
 70
    32
  0
VERTEX
  8
2750LEVEL
 62
13
 10
90.090
 20
-2823.784
 30
2477.000
 70
    32
  0
VERTEX
  8
2750LEVEL
 62
13
 10
108.603
 20
-2905.022
 30
2477.000
 70
    32
  0
VERTEX
  8
2750LEVEL
 62
13
 10
135.223
 20
-2984.812
 30
2477.000
 70
    32
  0
VERTEX
  8
2750LEVEL
 62
13
 10
151.370
 20
-3045.100
 30
2477.000
 70
    32
  0
VERTEX
  8
2750LEVEL
 62
13
 10
157.743
 20
-3083.211
 30
2477.000
 70
    32
  0
VERTEX
  8
2750LEVEL
 62
13
 10
138.590
 20
-3068.615
 30
2477.000
 70
    32
  0
VERTEX
  8
2750LEVEL
 62
13
 10
133.587
 20
-3089.613
 30
2477.000
 70
    32
  0
VERTEX
  8
2750LEVEL
 62
13
 10
101.144
 20
-3035.760
 30
2477.000
 70
    32
  0
VERTEX
  8
2750LEVEL
 62
13
 10
93.202
 20
-2991.805
 30
2477.000
 70
    32
  0
VERTEX
  8
2750LEVEL
 62
13
 10
58.092
 20
-2946.393
 30
2477.000
 70
    32
  0
VERTEX
  8
2750LEVEL
 62
13
 10
14.813
 20
-2879.831
 30
2477.000
 70
    32
  0
VERTEX
  8
2750LEVEL
 62
13
 10
-26.408
 20
-2813.102
 30
2477.000
 70
    32
  0
VERTEX
  8
2750LEVEL
 62
13
 10
-63.587
 20
-2755.672
 30
2477.000
 70
    32
  0
VERTEX
  8
2750LEVEL
 62
13
 10
-82.670
 20
-2728.399
 30
2477.000
 70
    32
  0
VERTEX
  8
2750LEVEL
 62
13
 10
-73.695
 20
-2776.839
 30
2477.000
 70
    32
  0
VERTEX
  8
2750LEVEL
 62
13
 10
-54.263
 20
-2826.504
 30
2477.000
 70
    32
  0
VERTEX
  8
2750LEVEL
 62
13
 10
-55.996
 20
-2869.109
 30
2477.000
 70
    32
  0
VERTEX
  8
2750LEVEL
 62
13
 10
-8.854
 20
-2927.682
 30
2477.000
 70
    32
  0
VERTEX
  8
2750LEVEL
 62
13
 10
31.743
 20
-2987.455
 30
2477.000
 70
    32
  0
VERTEX
  8
2750LEVEL
 62
13
 10
55.552
 20
-3053.582
 30
2477.000
 70
    32
  0
VERTEX
  8
2750LEVEL
 62
13
 10
75.832
 20
-3131.814
 30
2477.000
 70
    32
  0
VERTEX
  8
2750LEVEL
 62
13
 10
98.425
 20
-3173.121
 30
2477.000
 70
    32
  0
VERTEX
  8
2750LEVEL
 62
13
 10
142.470
 20
-3221.283
 30
2477.000
 70
    32
  0
VERTEX
  8
2750LEVEL
 62
13
 10
189.942
 20
-3280.926
 30
2477.000
 70
    32
  0
VERTEX
  8
2750LEVEL
 62
13
 10
236.687
 20
-3357.200
 30
2477.000
 70
    32
  0
VERTEX
  8
2750LEVEL
 62
13
 10
277.200
 20
-3414.421
 30
2477.000
 70
    32
  0
VERTEX
  8
2750LEVEL
 62
13
 10
311.655
 20
-3463.785
 30
2477.000
 70
    32
  0
VERTEX
  8
2750LEVEL
 62
13
 10
345.453
 20
-3514.056
 30
2477.000
 70
    32
  0
VERTEX
  8
2750LEVEL
 62
13
 10
363.769
 20
-3559.730
 30
2477.000
 70
    32
  0
VERTEX
  8
2750LEVEL
 62
13
 10
386.989
 20
-3611.039
 30
2477.000
 70
    32
  0
VERTEX
  8
2750LEVEL
 62
13
 10
420.491
 20
-3679.887
 30
2477.000
 70
    32
  0
SEQEND
  8
2750LEVEL
  0
POLYLINE
  8
2750LEVEL
 62
13
 66
     1
 70
     8
  0
VERTEX
  8
2750LEVEL
 62
13
 10
454.947
 20
-3768.919
 30
2477.000
 70
    32
  0
VERTEX
  8
2750LEVEL
 62
13
 10
484.578
 20
-3836.851
 30
2477.000
 70
    32
  0
VERTEX
  8
2750LEVEL
 62
13
 10
503.677
 20
-3882.401
 30
2477.000
 70
    32
  0
VERTEX
  8
2750LEVEL
 62
13
 10
523.340
 20
-3915.355
 30
2477.000
 70
    32
  0
SEQEND
  8
2750LEVEL
  0
POLYLINE
  8
2750LEVEL
 62
7
 66
     1
 70
     8
  0
VERTEX
  8
2750LEVEL
 62
7
 10
4112.307
 20
-2779.113
 30
2477.000
 70
    32
  0
VERTEX
  8
2750LEVEL
 62
7
 10
4087.259
 20
-2755.673
 30
2477.000
 70
    32
  0
VERTEX
  8
2750LEVEL
 62
7
 10
4067.369
 20
-2745.523
 30
2477.000
 70
    32
  0
VERTEX
  8
2750LEVEL
 62
7
 10
4055.486
 20
-2760.558
 30
2477.000
 70
    32
  0
VERTEX
  8
2750LEVEL
 62
7
 10
4058.977
 20
-2797.683
 30
2477.000
 70
    32
  0
VERTEX
  8
2750LEVEL
 62
7
 10
4046.167
 20
-2835.152
 30
2477.000
 70
    32
  0
VERTEX
  8
2750LEVEL
 62
7
 10
4014.368
 20
-2857.037
 30
2477.000
 70
    32
  0
VERTEX
  8
2750LEVEL
 62
7
 10
3986.399
 20
-2881.842
 30
2477.000
 70
    32
  0
VERTEX
  8
2750LEVEL
 62
7
 10
3969.926
 20
-2918.449
 30
2477.000
 70
    32
  0
VERTEX
  8
2750LEVEL
 62
7
 10
3951.076
 20
-2921.924
 30
2477.000
 70
    32
  0
VERTEX
  8
2750LEVEL
 62
7
 10
3933.352
 20
-2894.114
 30
2477.000
 70
    32
  0
VERTEX
  8
2750LEVEL
 62
7
 10
3936.100
 20
-2929.593
 30
2477.000
 70
    32
  0
VERTEX
  8
2750LEVEL
 62
7
 10
3928.098
 20
-2957.961
 30
2477.000
 70
    32
  0
VERTEX
  8
2750LEVEL
 62
7
 10
3945.583
 20
-2993.345
 30
2477.000
 70
    32
  0
VERTEX
  8
2750LEVEL
 62
7
 10
3959.360
 20
-3026.592
 30
2477.000
 70
    32
  0
VERTEX
  8
2750LEVEL
 62
7
 10
3944.973
 20
-3049.079
 30
2477.000
 70
    32
  0
VERTEX
  8
2750LEVEL
 62
7
 10
3921.990
 20
-3079.025
 30
2477.000
 70
    32
  0
VERTEX
  8
2750LEVEL
 62
7
 10
3932.114
 20
-3123.595
 30
2477.000
 70
    32
  0
VERTEX
  8
2750LEVEL
 62
7
 10
3935.277
 20
-3162.696
 30
2477.000
 70
    32
  0
VERTEX
  8
2750LEVEL
 62
7
 10
3895.542
 20
-3194.179
 30
2477.000
 70
    32
  0
VERTEX
  8
2750LEVEL
 62
7
 10
3875.982
 20
-3232.559
 30
2477.000
 70
    32
  0
VERTEX
  8
2750LEVEL
 62
7
 10
3863.466
 20
-3275.914
 30
2477.000
 70
    32
  0
VERTEX
  8
2750LEVEL
 62
7
 10
3821.393
 20
-3316.908
 30
2477.000
 70
    32
  0
VERTEX
  8
2750LEVEL
 62
7
 10
3791.868
 20
-3303.639
 30
2477.000
 70
    32
  0
VERTEX
  8
2750LEVEL
 62
7
 10
3773.693
 20
-3324.483
 30
2477.000
 70
    32
  0
VERTEX
  8
2750LEVEL
 62
7
 10
3765.549
 20
-3378.207
 30
2477.000
 70
    32
  0
VERTEX
  8
2750LEVEL
 62
7
 10
3714.407
 20
-3403.484
 30
2477.000
 70
    32
  0
VERTEX
  8
2750LEVEL
 62
7
 10
3706.175
 20
-3451.610
 30
2477.000
 70
    32
  0
VERTEX
  8
2750LEVEL
 62
7
 10
3704.824
 20
-3505.699
 30
2477.000
 70
    32
  0
VERTEX
  8
2750LEVEL
 62
7
 10
3662.915
 20
-3545.704
 30
2477.000
 70
    32
  0
VERTEX
  8
2750LEVEL
 62
7
 10
3615.901
 20
-3538.419
 30
2477.000
 70
    32
  0
VERTEX
  8
2750LEVEL
 62
7
 10
3567.922
 20
-3510.924
 30
2477.000
 70
    32
  0
VERTEX
  8
2750LEVEL
 62
7
 10
3542.709
 20
-3532.886
 30
2477.000
 70
    32
  0
VERTEX
  8
2750LEVEL
 62
7
 10
3561.243
 20
-3591.032
 30
2477.000
 70
    32
  0
VERTEX
  8
2750LEVEL
 62
7
 10
3522.818
 20
-3614.610
 30
2477.000
 70
    32
  0
VERTEX
  8
2750LEVEL
 62
7
 10
3476.564
 20
-3582.833
 30
2477.000
 70
    32
  0
VERTEX
  8
2750LEVEL
 62
7
 10
3467.594
 20
-3632.359
 30
2477.000
 70
    32
  0
VERTEX
  8
2750LEVEL
 62
7
 10
3442.634
 20
-3661.976
 30
2477.000
 70
    32
  0
VERTEX
  8
2750LEVEL
 62
7
 10
3428.427
 20
-3701.752
 30
2477.000
 70
    32
  0
VERTEX
  8
2750LEVEL
 62
7
 10
3392.359
 20
-3737.142
 30
2477.000
 70
    32
  0
VERTEX
  8
2750LEVEL
 62
7
 10
3366.275
 20
-3798.044
 30
2477.000
 70
    32
  0
VERTEX
  8
2750LEVEL
 62
7
 10
3347.389
 20
-3853.795
 30
2477.000
 70
    32
  0
VERTEX
  8
2750LEVEL
 62
7
 10
3342.936
 20
-3891.380
 30
2477.000
 70
    32
  0
VERTEX
  8
2750LEVEL
 62
7
 10
3354.655
 20
-3924.793
 30
2477.000
 70
    32
  0
VERTEX
  8
2750LEVEL
 62
7
 10
3388.640
 20
-3954.029
 30
2477.000
 70
    32
  0
VERTEX
  8
2750LEVEL
 62
7
 10
3419.653
 20
-4021.097
 30
2477.000
 70
    32
  0
VERTEX
  8
2750LEVEL
 62
7
 10
3442.715
 20
-4079.486
 30
2477.000
 70
    32
  0
VERTEX
  8
2750LEVEL
 62
7
 10
3417.390
 20
-4068.435
 30
2477.000
 70
    32
  0
VERTEX
  8
2750LEVEL
 62
7
 10
3396.937
 20
-4026.468
 30
2477.000
 70
    32
  0
VERTEX
  8
2750LEVEL
 62
7
 10
3370.137
 20
-3976.850
 30
2477.000
 70
    32
  0
VERTEX
  8
2750LEVEL
 62
7
 10
3347.628
 20
-3938.095
 30
2477.000
 70
    32
  0
VERTEX
  8
2750LEVEL
 62
7
 10
3322.729
 20
-3895.390
 30
2477.000
 70
    32
  0
VERTEX
  8
2750LEVEL
 62
7
 10
3288.120
 20
-3859.198
 30
2477.000
 70
    32
  0
SEQEND
  8
2750LEVEL
  0
POLYLINE
  8
2750LEVEL
 62
7
 66
     1
 70
     8
  0
VERTEX
  8
2750LEVEL
 62
7
 10
2571.234
 20
-5253.503
 30
2477.000
 70
    32
  0
VERTEX
  8
2750LEVEL
 62
7
 10
2538.142
 20
-5209.695
 30
2477.000
 70
    32
  0
VERTEX
  8
2750LEVEL
 62
7
 10
2488.657
 20
-5154.540
 30
2477.000
 70
    32
  0
VERTEX
  8
2750LEVEL
 62
7
 10
2443.579
 20
-5101.892
 30
2477.000
 70
    32
  0
VERTEX
  8
2750LEVEL
 62
7
 10
2417.483
 20
-5055.690
 30
2477.000
 70
    32
  0
VERTEX
  8
2750LEVEL
 62
7
 10
2373.596
 20
-5000.447
 30
2477.000
 70
    32
  0
VERTEX
  8
2750LEVEL
 62
7
 10
2341.096
 20
-4974.503
 30
2477.000
 70
    32
  0
VERTEX
  8
2750LEVEL
 62
7
 10
2376.053
 20
-5033.087
 30
2477.000
 70
    32
  0
VERTEX
  8
2750LEVEL
 62
7
 10
2400.995
 20
-5077.067
 30
2477.000
 70
    32
  0
VERTEX
  8
2750LEVEL
 62
7
 10
2411.196
 20
-5115.051
 30
2477.000
 70
    32
  0
VERTEX
  8
2750LEVEL
 62
7
 10
2399.353
 20
-5128.316
 30
2477.000
 70
    32
  0
VERTEX
  8
2750LEVEL
 62
7
 10
2362.042
 20
-5108.426
 30
2477.000
 70
    32
  0
VERTEX
  8
2750LEVEL
 62
7
 10
2363.752
 20
-5133.328
 30
2477.000
 70
    32
  0
VERTEX
  8
2750LEVEL
 62
7
 10
2401.211
 20
-5181.414
 30
2477.000
 70
    32
  0
VERTEX
  8
2750LEVEL
 62
7
 10
2436.488
 20
-5228.884
 30
2477.000
 70
    32
  0
VERTEX
  8
2750LEVEL
 62
7
 10
2456.035
 20
-5270.194
 30
2477.000
 70
    32
  0
VERTEX
  8
2750LEVEL
 62
7
 10
2404.186
 20
-5241.549
 30
2477.000
 70
    32
  0
VERTEX
  8
2750LEVEL
 62
7
 10
2336.891
 20
-5200.446
 30
2477.000
 70
    32
  0
VERTEX
  8
2750LEVEL
 62
7
 10
2282.892
 20
-5160.278
 30
2477.000
 70
    32
  0
VERTEX
  8
2750LEVEL
 62
7
 10
2240.905
 20
-5111.950
 30
2477.000
 70
    32
  0
VERTEX
  8
2750LEVEL
 62
7
 10
2196.149
 20
-5051.234
 30
2477.000
 70
    32
  0
VERTEX
  8
2750LEVEL
 62
7
 10
2148.836
 20
-4984.510
 30
2477.000
 70
    32
  0
VERTEX
  8
2750LEVEL
 62
7
 10
2115.479
 20
-4920.862
 30
2477.000
 70
    32
  0
VERTEX
  8
2750LEVEL
 62
7
 10
2074.913
 20
-4850.181
 30
2477.000
 70
    32
  0
VERTEX
  8
2750LEVEL
 62
7
 10
2031.674
 20
-4781.848
 30
2477.000
 70
    32
  0
VERTEX
  8
2750LEVEL
 62
7
 10
1994.119
 20
-4719.026
 30
2477.000
 70
    32
  0
VERTEX
  8
2750LEVEL
 62
7
 10
1961.952
 20
-4649.738
 30
2477.000
 70
    32
  0
VERTEX
  8
2750LEVEL
 62
7
 10
1923.697
 20
-4586.546
 30
2477.000
 70
    32
  0
VERTEX
  8
2750LEVEL
 62
7
 10
1890.803
 20
-4533.887
 30
2477.000
 70
    32
  0
VERTEX
  8
2750LEVEL
 62
7
 10
1857.434
 20
-4502.469
 30
2477.000
 70
    32
  0
VERTEX
  8
2750LEVEL
 62
7
 10
1820.422
 20
-4447.097
 30
2477.000
 70
    32
  0
VERTEX
  8
2750LEVEL
 62
7
 10
1789.139
 20
-4401.558
 30
2477.000
 70
    32
  0
VERTEX
  8
2750LEVEL
 62
7
 10
1763.186
 20
-4377.460
 30
2477.000
 70
    32
  0
VERTEX
  8
2750LEVEL
 62
7
 10
1807.041
 20
-4443.610
 30
2477.000
 70
    32
  0
VERTEX
  8
2750LEVEL
 62
7
 10
1832.128
 20
-4512.741
 30
2477.000
 70
    32
  0
VERTEX
  8
2750LEVEL
 62
7
 10
1828.367
 20
-4541.557
 30
2477.000
 70
    32
  0
VERTEX
  8
2750LEVEL
 62
7
 10
1827.559
 20
-4558.682
 30
2477.000
 70
    32
  0
VERTEX
  8
2750LEVEL
 62
7
 10
1799.387
 20
-4586.244
 30
2477.000
 70
    32
  0
VERTEX
  8
2750LEVEL
 62
7
 10
1751.715
 20
-4532.405
 30
2477.000
 70
    32
  0
VERTEX
  8
2750LEVEL
 62
7
 10
1715.555
 20
-4464.231
 30
2477.000
 70
    32
  0
VERTEX
  8
2750LEVEL
 62
7
 10
1668.041
 20
-4403.311
 30
2477.000
 70
    32
  0
VERTEX
  8
2750LEVEL
 62
7
 10
1613.555
 20
-4324.739
 30
2477.000
 70
    32
  0
VERTEX
  8
2750LEVEL
 62
7
 10
1586.671
 20
-4272.569
 30
2477.000
 70
    32
  0
VERTEX
  8
2750LEVEL
 62
7
 10
1530.265
 20
-4210.176
 30
2477.000
 70
    32
  0
VERTEX
  8
2750LEVEL
 62
7
 10
1576.474
 20
-4285.092
 30
2477.000
 70
    32
  0
VERTEX
  8
2750LEVEL
 62
7
 10
1534.091
 20
-4254.463
 30
2477.000
 70
    32
  0
VERTEX
  8
2750LEVEL
 62
7
 10
1466.526
 20
-4187.428
 30
2477.000
 70
    32
  0
VERTEX
  8
2750LEVEL
 62
7
 10
1417.974
 20
-4115.931
 30
2477.000
 70
    32
  0
VERTEX
  8
2750LEVEL
 62
7
 10
1382.398
 20
-4056.483
 30
2477.000
 70
    32
  0
VERTEX
  8
2750LEVEL
 62
7
 10
1335.632
 20
-4003.301
 30
2477.000
 70
    32
  0
VERTEX
  8
2750LEVEL
 62
7
 10
1294.448
 20
-3931.757
 30
2477.000
 70
    32
  0
VERTEX
  8
2750LEVEL
 62
7
 10
1273.608
 20
-3872.213
 30
2477.000
 70
    32
  0
VERTEX
  8
2750LEVEL
 62
7
 10
1232.057
 20
-3804.414
 30
2477.000
 70
    32
  0
VERTEX
  8
2750LEVEL
 62
7
 10
1186.582
 20
-3722.006
 30
2477.000
 70
    32
  0
VERTEX
  8
2750LEVEL
 62
7
 10
1148.122
 20
-3658.527
 30
2477.000
 70
    32
  0
VERTEX
  8
2750LEVEL
 62
7
 10
1108.235
 20
-3611.308
 30
2477.000
 70
    32
  0
VERTEX
  8
2750LEVEL
 62
7
 10
1073.439
 20
-3548.689
 30
2477.000
 70
    32
  0
VERTEX
  8
2750LEVEL
 62
7
 10
1038.682
 20
-3484.301
 30
2477.000
 70
    32
  0
VERTEX
  8
2750LEVEL
 62
7
 10
1009.907
 20
-3434.356
 30
2477.000
 70
    32
  0
VERTEX
  8
2750LEVEL
 62
7
 10
957.200
 20
-3412.421
 30
2477.000
 70
    32
  0
VERTEX
  8
2750LEVEL
 62
7
 10
917.199
 20
-3329.144
 30
2477.000
 70
    32
  0
VERTEX
  8
2750LEVEL
 62
7
 10
890.423
 20
-3259.480
 30
2477.000
 70
    32
  0
VERTEX
  8
2750LEVEL
 62
7
 10
851.384
 20
-3193.367
 30
2477.000
 70
    32
  0
VERTEX
  8
2750LEVEL
 62
7
 10
819.634
 20
-3130.746
 30
2477.000
 70
    32
  0
VERTEX
  8
2750LEVEL
 62
7
 10
776.162
 20
-3079.125
 30
2477.000
 70
    32
  0
VERTEX
  8
2750LEVEL
 62
7
 10
739.759
 20
-3015.479
 30
2477.000
 70
    32
  0
VERTEX
  8
2750LEVEL
 62
7
 10
718.894
 20
-2972.936
 30
2477.000
 70
    32
  0
VERTEX
  8
2750LEVEL
 62
7
 10
672.500
 20
-2922.100
 30
2477.000
 70
    32
  0
VERTEX
  8
2750LEVEL
 62
7
 10
620.751
 20
-2866.824
 30
2477.000
 70
    32
  0
VERTEX
  8
2750LEVEL
 62
7
 10
579.536
 20
-2806.187
 30
2477.000
 70
    32
  0
VERTEX
  8
2750LEVEL
 62
7
 10
519.106
 20
-2755.817
 30
2477.000
 70
    32
  0
VERTEX
  8
2750LEVEL
 62
7
 10
550.690
 20
-2816.380
 30
2477.000
 70
    32
  0
VERTEX
  8
2750LEVEL
 62
7
 10
625.568
 20
-2914.321
 30
2477.000
 70
    32
  0
VERTEX
  8
2750LEVEL
 62
7
 10
684.802
 20
-3008.654
 30
2477.000
 70
    32
  0
VERTEX
  8
2750LEVEL
 62
7
 10
718.900
 20
-3073.948
 30
2477.000
 70
    32
  0
VERTEX
  8
2750LEVEL
 62
7
 10
734.808
 20
-3141.811
 30
2477.000
 70
    32
  0
VERTEX
  8
2750LEVEL
 62
7
 10
725.504
 20
-3187.221
 30
2477.000
 70
    32
  0
VERTEX
  8
2750LEVEL
 62
7
 10
669.197
 20
-3190.070
 30
2477.000
 70
    32
  0
VERTEX
  8
2750LEVEL
 62
7
 10
602.599
 20
-3146.291
 30
2477.000
 70
    32
  0
VERTEX
  8
2750LEVEL
 62
7
 10
530.777
 20
-3060.531
 30
2477.000
 70
    32
  0
VERTEX
  8
2750LEVEL
 62
7
 10
472.246
 20
-2969.614
 30
2477.000
 70
    32
  0
VERTEX
  8
2750LEVEL
 62
7
 10
436.253
 20
-2903.498
 30
2477.000
 70
    32
  0
VERTEX
  8
2750LEVEL
 62
7
 10
397.915
 20
-2885.214
 30
2477.000
 70
    32
  0
VERTEX
  8
2750LEVEL
 62
7
 10
346.317
 20
-2861.180
 30
2477.000
 70
    32
  0
VERTEX
  8
2750LEVEL
 62
7
 10
354.677
 20
-2911.802
 30
2477.000
 70
    32
  0
VERTEX
  8
2750LEVEL
 62
7
 10
409.976
 20
-2979.342
 30
2477.000
 70
    32
  0
VERTEX
  8
2750LEVEL
 62
7
 10
453.385
 20
-3052.778
 30
2477.000
 70
    32
  0
VERTEX
  8
2750LEVEL
 62
7
 10
455.534
 20
-3108.716
 30
2477.000
 70
    32
  0
VERTEX
  8
2750LEVEL
 62
7
 10
431.454
 20
-3108.531
 30
2477.000
 70
    32
  0
VERTEX
  8
2750LEVEL
 62
7
 10
465.462
 20
-3165.182
 30
2477.000
 70
    32
  0
VERTEX
  8
2750LEVEL
 62
7
 10
411.997
 20
-3123.326
 30
2477.000
 70
    32
  0
VERTEX
  8
2750LEVEL
 62
7
 10
433.832
 20
-3192.171
 30
2477.000
 70
    32
  0
VERTEX
  8
2750LEVEL
 62
7
 10
400.656
 20
-3145.810
 30
2477.000
 70
    32
  0
VERTEX
  8
2750LEVEL
 62
7
 10
348.146
 20
-3067.566
 30
2477.000
 70
    32
  0
VERTEX
  8
2750LEVEL
 62
7
 10
331.487
 20
-3080.794
 30
2477.000
 70
    32
  0
VERTEX
  8
2750LEVEL
 62
7
 10
374.592
 20
-3136.160
 30
2477.000
 70
    32
  0
VERTEX
  8
2750LEVEL
 62
7
 10
424.087
 20
-3203.499
 30
2477.000
 70
    32
  0
VERTEX
  8
2750LEVEL
 62
7
 10
457.470
 20
-3250.148
 30
2477.000
 70
    32
  0
VERTEX
  8
2750LEVEL
 62
7
 10
447.235
 20
-3267.486
 30
2477.000
 70
    32
  0
VERTEX
  8
2750LEVEL
 62
7
 10
470.867
 20
-3319.371
 30
2477.000
 70
    32
  0
VERTEX
  8
2750LEVEL
 62
7
 10
421.428
 20
-3268.538
 30
2477.000
 70
    32
  0
VERTEX
  8
2750LEVEL
 62
7
 10
446.970
 20
-3339.520
 30
2477.000
 70
    32
  0
VERTEX
  8
2750LEVEL
 62
7
 10
499.868
 20
-3438.387
 30
2477.000
 70
    32
  0
VERTEX
  8
2750LEVEL
 62
7
 10
484.681
 20
-3487.136
 30
2477.000
 70
    32
  0
VERTEX
  8
2750LEVEL
 62
7
 10
484.962
 20
-3525.252
 30
2477.000
 70
    32
  0
VERTEX
  8
2750LEVEL
 62
7
 10
458.459
 20
-3484.566
 30
2477.000
 70
    32
  0
VERTEX
  8
2750LEVEL
 62
7
 10
464.528
 20
-3552.067
 30
2477.000
 70
    32
  0
VERTEX
  8
2750LEVEL
 62
7
 10
389.478
 20
-3445.976
 30
2477.000
 70
    32
  0
VERTEX
  8
2750LEVEL
 62
7
 10
344.330
 20
-3361.592
 30
2477.000
 70
    32
  0
VERTEX
  8
2750LEVEL
 62
7
 10
278.012
 20
-3308.469
 30
2477.000
 70
    32
  0
VERTEX
  8
2750LEVEL
 62
7
 10
290.149
 20
-3348.550
 30
2477.000
 70
    32
  0
VERTEX
  8
2750LEVEL
 62
7
 10
344.905
 20
-3453.054
 30
2477.000
 70
    32
  0
VERTEX
  8
2750LEVEL
 62
7
 10
370.947
 20
-3530.210
 30
2477.000
 70
    32
  0
VERTEX
  8
2750LEVEL
 62
7
 10
385.646
 20
-3582.391
 30
2477.000
 70
    32
  0
VERTEX
  8
2750LEVEL
 62
7
 10
385.359
 20
-3582.597
 30
2477.000
 70
    32
  0
VERTEX
  8
2750LEVEL
 62
7
 10
406.142
 20
-3625.634
 30
2477.000
 70
    32
  0
VERTEX
  8
2750LEVEL
 62
7
 10
427.016
 20
-3677.316
 30
2477.000
 70
    32
  0
SEQEND
  8
2750LEVEL
  0
POLYLINE
  8
2750LEVEL
 62
7
 66
     1
 70
     8
  0
VERTEX
  8
2750LEVEL
 62
7
 10
466.365
 20
-3767.591
 30
2477.000
 70
    32
  0
VERTEX
  8
2750LEVEL
 62
7
 10
485.709
 20
-3811.659
 30
2477.000
 70
    32
  0
VERTEX
  8
2750LEVEL
 62
7
 10
531.773
 20
-3908.885
 30
2477.000
 70
    32
  0
SEQEND
  8
2750LEVEL
  0
POLYLINE
  8
2750LEVEL
 62
7
 66
     1
 70
     8
  0
VERTEX
  8
2750LEVEL
 62
7
 10
3427.806
 20
-5562.741
 30
2477.000
 70
    32
  0
VERTEX
  8
2750LEVEL
 62
7
 10
3398.579
 20
-5513.989
 30
2477.000
 70
    32
  0
VERTEX
  8
2750LEVEL
 62
7
 10
3356.420
 20
-5457.511
 30
2477.000
 70
    32
  0
VERTEX
  8
2750LEVEL
 62
7
 10
3312.451
 20
-5402.762
 30
2477.000
 70
    32
  0
VERTEX
  8
2750LEVEL
 62
7
 10
3276.773
 20
-5366.900
 30
2477.000
 70
    32
  0
VERTEX
  8
2750LEVEL
 62
7
 10
3239.748
 20
-5343.759
 30
2477.000
 70
    32
  0
VERTEX
  8
2750LEVEL
 62
7
 10
2906.339
 20
-5210.070
 30
2477.000
 70
    32
  0
VERTEX
  8
2750LEVEL
 62
7
 10
2869.670
 20
-5170.998
 30
2477.000
 70
    32
  0
VERTEX
  8
2750LEVEL
 62
7
 10
2836.369
 20
-5123.855
 30
2477.000
 70
    32
  0
VERTEX
  8
2750LEVEL
 62
7
 10
2802.529
 20
-5072.309
 30
2477.000
 70
    32
  0
VERTEX
  8
2750LEVEL
 62
7
 10
2771.617
 20
-5026.070
 30
2477.000
 70
    32
  0
VERTEX
  8
2750LEVEL
 62
7
 10
2748.347
 20
-5011.807
 30
2477.000
 70
    32
  0
VERTEX
  8
2750LEVEL
 62
7
 10
2762.458
 20
-5049.170
 30
2477.000
 70
    32
  0
VERTEX
  8
2750LEVEL
 62
7
 10
2757.008
 20
-5077.453
 30
2477.000
 70
    32
  0
VERTEX
  8
2750LEVEL
 62
7
 10
2722.767
 20
-5037.515
 30
2477.000
 70
    32
  0
VERTEX
  8
2750LEVEL
 62
7
 10
2686.051
 20
-4991.075
 30
2477.000
 70
    32
  0
VERTEX
  8
2750LEVEL
 62
7
 10
2648.584
 20
-4933.851
 30
2477.000
 70
    32
  0
VERTEX
  8
2750LEVEL
 62
7
 10
2617.911
 20
-4880.038
 30
2477.000
 70
    32
  0
VERTEX
  8
2750LEVEL
 62
7
 10
2582.428
 20
-4832.280
 30
2477.000
 70
    32
  0
VERTEX
  8
2750LEVEL
 62
7
 10
2606.311
 20
-4888.775
 30
2477.000
 70
    32
  0
VERTEX
  8
2750LEVEL
 62
7
 10
2635.346
 20
-4952.468
 30
2477.000
 70
    32
  0
VERTEX
  8
2750LEVEL
 62
7
 10
2639.132
 20
-4998.525
 30
2477.000
 70
    32
  0
VERTEX
  8
2750LEVEL
 62
7
 10
2599.996
 20
-4962.090
 30
2477.000
 70
    32
  0
VERTEX
  8
2750LEVEL
 62
7
 10
2555.776
 20
-4902.732
 30
2477.000
 70
    32
  0
VERTEX
  8
2750LEVEL
 62
7
 10
2501.917
 20
-4834.162
 30
2477.000
 70
    32
  0
VERTEX
  8
2750LEVEL
 62
7
 10
2453.040
 20
-4767.687
 30
2477.000
 70
    32
  0
VERTEX
  8
2750LEVEL
 62
7
 10
2396.699
 20
-4686.523
 30
2477.000
 70
    32
  0
VERTEX
  8
2750LEVEL
 62
7
 10
2345.806
 20
-4621.491
 30
2477.000
 70
    32
  0
VERTEX
  8
2750LEVEL
 62
7
 10
2294.921
 20
-4565.596
 30
2477.000
 70
    32
  0
VERTEX
  8
2750LEVEL
 62
7
 10
2245.289
 20
-4529.705
 30
2477.000
 70
    32
  0
VERTEX
  8
2750LEVEL
 62
7
 10
2197.512
 20
-4496.406
 30
2477.000
 70
    32
  0
VERTEX
  8
2750LEVEL
 62
7
 10
2185.504
 20
-4463.199
 30
2477.000
 70
    32
  0
VERTEX
  8
2750LEVEL
 62
7
 10
2198.494
 20
-4443.018
 30
2477.000
 70
    32
  0
VERTEX
  8
2750LEVEL
 62
7
 10
2175.290
 20
-4409.985
 30
2477.000
 70
    32
  0
VERTEX
  8
2750LEVEL
 62
7
 10
2124.247
 20
-4361.170
 30
2477.000
 70
    32
  0
VERTEX
  8
2750LEVEL
 62
7
 10
2098.101
 20
-4352.014
 30
2477.000
 70
    32
  0
VERTEX
  8
2750LEVEL
 62
7
 10
2127.354
 20
-4383.765
 30
2477.000
 70
    32
  0
VERTEX
  8
2750LEVEL
 62
7
 10
2148.547
 20
-4424.333
 30
2477.000
 70
    32
  0
VERTEX
  8
2750LEVEL
 62
7
 10
2141.951
 20
-4459.532
 30
2477.000
 70
    32
  0
VERTEX
  8
2750LEVEL
 62
7
 10
2132.911
 20
-4477.322
 30
2477.000
 70
    32
  0
VERTEX
  8
2750LEVEL
 62
7
 10
2092.496
 20
-4437.884
 30
2477.000
 70
    32
  0
VERTEX
  8
2750LEVEL
 62
7
 10
2045.600
 20
-4377.828
 30
2477.000
 70
    32
  0
VERTEX
  8
2750LEVEL
 62
7
 10
2023.036
 20
-4322.567
 30
2477.000
 70
    32
  0
VERTEX
  8
2750LEVEL
 62
7
 10
2002.106
 20
-4254.379
 30
2477.000
 70
    32
  0
VERTEX
  8
2750LEVEL
 62
7
 10
1978.472
 20
-4199.449
 30
2477.000
 70
    32
  0
VERTEX
  8
2750LEVEL
 62
7
 10
1963.146
 20
-4137.266
 30
2477.000
 70
    32
  0
VERTEX
  8
2750LEVEL
 62
7
 10
1948.029
 20
-4078.417
 30
2477.000
 70
    32
  0
VERTEX
  8
2750LEVEL
 62
7
 10
1919.295
 20
-4029.748
 30
2477.000
 70
    32
  0
VERTEX
  8
2750LEVEL
 62
7
 10
1882.968
 20
-4003.930
 30
2477.000
 70
    32
  0
VERTEX
  8
2750LEVEL
 62
7
 10
1915.003
 20
-4063.299
 30
2477.000
 70
    32
  0
VERTEX
  8
2750LEVEL
 62
7
 10
1921.923
 20
-4114.951
 30
2477.000
 70
    32
  0
VERTEX
  8
2750LEVEL
 62
7
 10
1944.648
 20
-4166.178
 30
2477.000
 70
    32
  0
VERTEX
  8
2750LEVEL
 62
7
 10
1968.169
 20
-4232.511
 30
2477.000
 70
    32
  0
VERTEX
  8
2750LEVEL
 62
7
 10
1997.946
 20
-4297.851
 30
2477.000
 70
    32
  0
VERTEX
  8
2750LEVEL
 62
7
 10
2018.950
 20
-4356.406
 30
2477.000
 70
    32
  0
VERTEX
  8
2750LEVEL
 62
7
 10
2031.422
 20
-4403.649
 30
2477.000
 70
    32
  0
VERTEX
  8
2750LEVEL
 62
7
 10
2074.115
 20
-4458.440
 30
2477.000
 70
    32
  0
VERTEX
  8
2750LEVEL
 62
7
 10
2121.988
 20
-4506.475
 30
2477.000
 70
    32
  0
VERTEX
  8
2750LEVEL
 62
7
 10
2162.413
 20
-4558.098
 30
2477.000
 70
    32
  0
VERTEX
  8
2750LEVEL
 62
7
 10
2189.630
 20
-4614.384
 30
2477.000
 70
    32
  0
VERTEX
  8
2750LEVEL
 62
7
 10
2218.659
 20
-4671.986
 30
2477.000
 70
    32
  0
VERTEX
  8
2750LEVEL
 62
7
 10
2275.102
 20
-4729.563
 30
2477.000
 70
    32
  0
VERTEX
  8
2750LEVEL
 62
7
 10
2326.521
 20
-4783.770
 30
2477.000
 70
    32
  0
VERTEX
  8
2750LEVEL
 62
7
 10
2375.905
 20
-4818.096
 30
2477.000
 70
    32
  0
VERTEX
  8
2750LEVEL
 62
7
 10
2437.534
 20
-4875.011
 30
2477.000
 70
    32
  0
VERTEX
  8
2750LEVEL
 62
7
 10
2489.731
 20
-4926.047
 30
2477.000
 70
    32
  0
VERTEX
  8
2750LEVEL
 62
7
 10
2530.865
 20
-4987.178
 30
2477.000
 70
    32
  0
VERTEX
  8
2750LEVEL
 62
7
 10
2576.155
 20
-5046.206
 30
2477.000
 70
    32
  0
VERTEX
  8
2750LEVEL
 62
7
 10
2616.306
 20
-5113.265
 30
2477.000
 70
    32
  0
VERTEX
  8
2750LEVEL
 62
7
 10
2651.802
 20
-5176.253
 30
2477.000
 70
    32
  0
SEQEND
  8
2750LEVEL
  0
LINE
  8
2750LEVEL
 62
3
 10
3175.727
 20
-3649.205
 30
2477.000
 11
3288.120
 21
-3859.198
 31
2477.000
  0
POLYLINE
  8
2750LEVEL
 62
3
 66
     1
 70
     8
  0
VERTEX
  8
2750LEVEL
 62
3
 10
420.491
 20
-3679.887
 30
2477.000
 70
    32
  0
VERTEX
  8
2750LEVEL
 62
3
 10
438.295
 20
-3724.107
 30
2477.000
 70
    32
  0
VERTEX
  8
2750LEVEL
 62
3
 10
454.947
 20
-3768.919
 30
2477.000
 70
    32
  0
SEQEND
  8
2750LEVEL
  0
POLYLINE
  8
2750LEVEL
 62
5
 66
     1
 70
     9
  0
VERTEX
  8
2750LEVEL
 62
5
 10
3954.201
 20
-2544.792
 30
2477.000
 70
    32
  0
VERTEX
  8
2750LEVEL
 62
5
 10
3969.954
 20
-2530.906
 30
2477.000
 70
    32
  0
VERTEX
  8
2750LEVEL
 62
5
 10
3943.314
 20
-2521.668
 30
2477.000
 70
    32
  0
VERTEX
  8
2750LEVEL
 62
5
 10
3912.896
 20
-2522.971
 30
2477.000
 70
    32
  0
VERTEX
  8
2750LEVEL
 62
5
 10
3898.803
 20
-2551.345
 30
2477.000
 70
    32
  0
VERTEX
  8
2750LEVEL
 62
5
 10
3908.160
 20
-2566.855
 30
2477.000
 70
    32
  0
VERTEX
  8
2750LEVEL
 62
5
 10
3927.815
 20
-2543.210
 30
2477.000
 70
    32
  0
SEQEND
  8
2750LEVEL
  0
POLYLINE
  8
2750LEVEL
 62
5
 66
     1
 70
     9
  0
VERTEX
  8
2750LEVEL
 62
5
 10
3384.180
 20
-3564.473
 30
2477.000
 70
    32
  0
VERTEX
  8
2750LEVEL
 62
5
 10
3378.925
 20
-3533.401
 30
2477.000
 70
    32
  0
VERTEX
  8
2750LEVEL
 62
5
 10
3360.868
 20
-3501.475
 30
2477.000
 70
    32
  0
VERTEX
  8
2750LEVEL
 62
5
 10
3345.732
 20
-3468.764
 30
2477.000
 70
    32
  0
VERTEX
  8
2750LEVEL
 62
5
 10
3334.258
 20
-3433.868
 30
2477.000
 70
    32
  0
VERTEX
  8
2750LEVEL
 62
5
 10
3323.197
 20
-3399.549
 30
2477.000
 70
    32
  0
VERTEX
  8
2750LEVEL
 62
5
 10
3308.394
 20
-3370.954
 30
2477.000
 70
    32
  0
VERTEX
  8
2750LEVEL
 62
5
 10
3301.827
 20
-3392.200
 30
2477.000
 70
    32
  0
VERTEX
  8
2750LEVEL
 62
5
 10
3315.565
 20
-3427.217
 30
2477.000
 70
    32
  0
VERTEX
  8
2750LEVEL
 62
5
 10
3324.238
 20
-3460.633
 30
2477.000
 70
    32
  0
VERTEX
  8
2750LEVEL
 62
5
 10
3337.886
 20
-3487.006
 30
2477.000
 70
    32
  0
VERTEX
  8
2750LEVEL
 62
5
 10
3356.602
 20
-3518.026
 30
2477.000
 70
    32
  0
VERTEX
  8
2750LEVEL
 62
5
 10
3367.534
 20
-3545.471
 30
2477.000
 70
    32
  0
VERTEX
  8
2750LEVEL
 62
5
 10
3375.536
 20
-3564.563
 30
2477.000
 70
    32
  0
SEQEND
  8
2750LEVEL
  0
POLYLINE
  8
2750LEVEL
 62
5
 66
     1
 70
     9
  0
VERTEX
  8
2750LEVEL
 62
5
 10
2566.925
 20
-4382.266
 30
2477.000
 70
    32
  0
VERTEX
  8
2750LEVEL
 62
5
 10
2552.402
 20
-4344.327
 30
2477.000
 70
    32
  0
VERTEX
  8
2750LEVEL
 62
5
 10
2525.241
 20
-4304.547
 30
2477.000
 70
    32
  0
VERTEX
  8
2750LEVEL
 62
5
 10
2487.291
 20
-4259.426
 30
2477.000
 70
    32
  0
VERTEX
  8
2750LEVEL
 62
5
 10
2458.938
 20
-4222.240
 30
2477.000
 70
    32
  0
VERTEX
  8
2750LEVEL
 62
5
 10
2442.191
 20
-4182.410
 30
2477.000
 70
    32
  0
VERTEX
  8
2750LEVEL
 62
5
 10
2423.321
 20
-4161.516
 30
2477.000
 70
    32
  0
VERTEX
  8
2750LEVEL
 62
5
 10
2436.533
 20
-4207.359
 30
2477.000
 70
    32
  0
VERTEX
  8
2750LEVEL
 62
5
 10
2456.165
 20
-4251.221
 30
2477.000
 70
    32
  0
VERTEX
  8
2750LEVEL
 62
5
 10
2477.759
 20
-4280.180
 30
2477.000
 70
    32
  0
VERTEX
  8
2750LEVEL
 62
5
 10
2511.208
 20
-4308.059
 30
2477.000
 70
    32
  0
VERTEX
  8
2750LEVEL
 62
5
 10
2540.224
 20
-4350.430
 30
2477.000
 70
    32
  0
VERTEX
  8
2750LEVEL
 62
5
 10
2561.121
 20
-4382.065
 30
2477.000
 70
    32
  0
SEQEND
  8
2750LEVEL
  0
POLYLINE
  8
2750LEVEL
 62
5
 66
     1
 70
     9
  0
VERTEX
  8
2750LEVEL
 62
5
 10
1778.091
 20
-4243.134
 30
2477.000
 70
    32
  0
VERTEX
  8
2750LEVEL
 62
5
 10
1760.111
 20
-4204.622
 30
2477.000
 70
    32
  0
VERTEX
  8
2750LEVEL
 62
5
 10
1738.035
 20
-4143.351
 30
2477.000
 70
    32
  0
VERTEX
  8
2750LEVEL
 62
5
 10
1725.414
 20
-4067.911
 30
2477.000
 70
    32
  0
VERTEX
  8
2750LEVEL
 62
5
 10
1712.674
 20
-3997.782
 30
2477.000
 70
    32
  0
VERTEX
  8
2750LEVEL
 62
5
 10
1698.130
 20
-3935.475
 30
2477.000
 70
    32
  0
VERTEX
  8
2750LEVEL
 62
5
 10
1681.036
 20
-3876.299
 30
2477.000
 70
    32
  0
VERTEX
  8
2750LEVEL
 62
5
 10
1658.654
 20
-3841.372
 30
2477.000
 70
    32
  0
VERTEX
  8
2750LEVEL
 62
5
 10
1652.293
 20
-3862.905
 30
2477.000
 70
    32
  0
VERTEX
  8
2750LEVEL
 62
5
 10
1667.812
 20
-3910.146
 30
2477.000
 70
    32
  0
VERTEX
  8
2750LEVEL
 62
5
 10
1681.270
 20
-3954.507
 30
2477.000
 70
    32
  0
VERTEX
  8
2750LEVEL
 62
5
 10
1686.459
 20
-4004.350
 30
2477.000
 70
    32
  0
VERTEX
  8
2750LEVEL
 62
5
 10
1702.554
 20
-4051.179
 30
2477.000
 70
    32
  0
VERTEX
  8
2750LEVEL
 62
5
 10
1722.025
 20
-4099.074
 30
2477.000
 70
    32
  0
VERTEX
  8
2750LEVEL
 62
5
 10
1732.363
 20
-4153.070
 30
2477.000
 70
    32
  0
VERTEX
  8
2750LEVEL
 62
5
 10
1746.732
 20
-4204.181
 30
2477.000
 70
    32
  0
VERTEX
  8
2750LEVEL
 62
5
 10
1766.895
 20
-4243.309
 30
2477.000
 70
    32
  0
SEQEND
  8
2750LEVEL
  0
POLYLINE
  8
2750LEVEL
 62
5
 66
     1
 70
     9
  0
VERTEX
  8
2750LEVEL
 62
5
 10
1644.949
 20
-3842.907
 30
2477.000
 70
    32
  0
VERTEX
  8
2750LEVEL
 62
5
 10
1621.983
 20
-3799.254
 30
2477.000
 70
    32
  0
VERTEX
  8
2750LEVEL
 62
5
 10
1598.311
 20
-3749.139
 30
2477.000
 70
    32
  0
VERTEX
  8
2750LEVEL
 62
5
 10
1569.586
 20
-3709.608
 30
2477.000
 70
    32
  0
VERTEX
  8
2750LEVEL
 62
5
 10
1539.038
 20
-3656.577
 30
2477.000
 70
    32
  0
VERTEX
  8
2750LEVEL
 62
5
 10
1504.422
 20
-3611.246
 30
2477.000
 70
    32
  0
VERTEX
  8
2750LEVEL
 62
5
 10
1474.746
 20
-3566.735
 30
2477.000
 70
    32
  0
VERTEX
  8
2750LEVEL
 62
5
 10
1470.775
 20
-3592.218
 30
2477.000
 70
    32
  0
VERTEX
  8
2750LEVEL
 62
5
 10
1501.696
 20
-3647.595
 30
2477.000
 70
    32
  0
VERTEX
  8
2750LEVEL
 62
5
 10
1528.027
 20
-3680.131
 30
2477.000
 70
    32
  0
VERTEX
  8
2750LEVEL
 62
5
 10
1555.971
 20
-3719.787
 30
2477.000
 70
    32
  0
VERTEX
  8
2750LEVEL
 62
5
 10
1580.506
 20
-3769.283
 30
2477.000
 70
    32
  0
VERTEX
  8
2750LEVEL
 62
5
 10
1610.557
 20
-3819.187
 30
2477.000
 70
    32
  0
VERTEX
  8
2750LEVEL
 62
5
 10
1636.389
 20
-3845.549
 30
2477.000
 70
    32
  0
SEQEND
  8
2750LEVEL
  0
POLYLINE
  8
2750LEVEL
 62
5
 66
     1
 70
     9
  0
VERTEX
  8
2750LEVEL
 62
5
 10
1463.413
 20
-3598.357
 30
2477.000
 70
    32
  0
VERTEX
  8
2750LEVEL
 62
5
 10
1448.927
 20
-3555.603
 30
2477.000
 70
    32
  0
VERTEX
  8
2750LEVEL
 62
5
 10
1424.389
 20
-3503.060
 30
2477.000
 70
    32
  0
VERTEX
  8
2750LEVEL
 62
5
 10
1403.532
 20
-3469.655
 30
2477.000
 70
    32
  0
VERTEX
  8
2750LEVEL
 62
5
 10
1382.257
 20
-3429.581
 30
2477.000
 70
    32
  0
VERTEX
  8
2750LEVEL
 62
5
 10
1364.538
 20
-3407.863
 30
2477.000
 70
    32
  0
VERTEX
  8
2750LEVEL
 62
5
 10
1366.662
 20
-3436.387
 30
2477.000
 70
    32
  0
VERTEX
  8
2750LEVEL
 62
5
 10
1384.402
 20
-3482.473
 30
2477.000
 70
    32
  0
VERTEX
  8
2750LEVEL
 62
5
 10
1414.945
 20
-3529.412
 30
2477.000
 70
    32
  0
VERTEX
  8
2750LEVEL
 62
5
 10
1435.195
 20
-3574.138
 30
2477.000
 70
    32
  0
VERTEX
  8
2750LEVEL
 62
5
 10
1459.421
 20
-3599.472
 30
2477.000
 70
    32
  0
SEQEND
  8
2750LEVEL
  0
POLYLINE
  8
2750LEVEL
 62
5
 66
     1
 70
     9
  0
VERTEX
  8
2750LEVEL
 62
5
 10
1349.571
 20
-3380.257
 30
2477.000
 70
    32
  0
VERTEX
  8
2750LEVEL
 62
5
 10
1359.352
 20
-3408.527
 30
2477.000
 70
    32
  0
VERTEX
  8
2750LEVEL
 62
5
 10
1354.227
 20
-3431.788
 30
2477.000
 70
    32
  0
VERTEX
  8
2750LEVEL
 62
5
 10
1337.657
 20
-3406.199
 30
2477.000
 70
    32
  0
VERTEX
  8
2750LEVEL
 62
5
 10
1335.247
 20
-3380.928
 30
2477.000
 70
    32
  0
SEQEND
  8
2750LEVEL
  0
POLYLINE
  8
2750LEVEL
 62
5
 66
     1
 70
     9
  0
VERTEX
  8
2750LEVEL
 62
5
 10
1195.078
 20
-3041.463
 30
2477.000
 70
    32
  0
VERTEX
  8
2750LEVEL
 62
5
 10
1210.301
 20
-3079.771
 30
2477.000
 70
    32
  0
VERTEX
  8
2750LEVEL
 62
5
 10
1212.634
 20
-3111.629
 30
2477.000
 70
    32
  0
VERTEX
  8
2750LEVEL
 62
5
 10
1196.268
 20
-3083.283
 30
2477.000
 70
    32
  0
VERTEX
  8
2750LEVEL
 62
5
 10
1186.691
 20
-3052.255
 30
2477.000
 70
    32
  0
VERTEX
  8
2750LEVEL
 62
5
 10
1190.508
 20
-3039.944
 30
2477.000
 70
    32
  0
SEQEND
  8
2750LEVEL
  0
LINE
  8
2750LEVEL
 62
5
 10
840.654
 20
-3255.037
 30
2477.000
 11
891.574
 21
-3397.990
 31
2477.000
  0
POLYLINE
  8
2750LEVEL
 62
5
 66
     1
 70
     9
  0
VERTEX
  8
2750LEVEL
 62
5
 10
2718.127
 20
-3930.953
 30
2477.000
 70
    32
  0
VERTEX
  8
2750LEVEL
 62
5
 10
2728.441
 20
-3957.535
 30
2477.000
 70
    32
  0
VERTEX
  8
2750LEVEL
 62
5
 10
2740.858
 20
-3988.272
 30
2477.000
 70
    32
  0
VERTEX
  8
2750LEVEL
 62
5
 10
2756.488
 20
-4021.064
 30
2477.000
 70
    32
  0
VERTEX
  8
2750LEVEL
 62
5
 10
2766.611
 20
-4018.174
 30
2477.000
 70
    32
  0
VERTEX
  8
2750LEVEL
 62
5
 10
2756.545
 20
-3993.156
 30
2477.000
 70
    32
  0
VERTEX
  8
2750LEVEL
 62
5
 10
2741.814
 20
-3951.884
 30
2477.000
 70
    32
  0
VERTEX
  8
2750LEVEL
 62
5
 10
2730.055
 20
-3920.240
 30
2477.000
 70
    32
  0
SEQEND
  8
2750LEVEL
  0
POLYLINE
  8
2750LEVEL
 62
5
 66
     1
 70
     9
  0
VERTEX
  8
2750LEVEL
 62
5
 10
1332.838
 20
-3403.116
 30
2477.000
 70
    32
  0
VERTEX
  8
2750LEVEL
 62
5
 10
1319.867
 20
-3397.159
 30
2477.000
 70
    32
  0
VERTEX
  8
2750LEVEL
 62
5
 10
1303.735
 20
-3355.147
 30
2477.000
 70
    32
  0
VERTEX
  8
2750LEVEL
 62
5
 10
1289.442
 20
-3297.450
 30
2477.000
 70
    32
  0
VERTEX
  8
2750LEVEL
 62
5
 10
1271.158
 20
-3240.868
 30
2477.000
 70
    32
  0
VERTEX
  8
2750LEVEL
 62
5
 10
1253.288
 20
-3187.908
 30
2477.000
 70
    32
  0
VERTEX
  8
2750LEVEL
 62
5
 10
1234.057
 20
-3132.438
 30
2477.000
 70
    32
  0
VERTEX
  8
2750LEVEL
 62
5
 10
1219.146
 20
-3073.877
 30
2477.000
 70
    32
  0
VERTEX
  8
2750LEVEL
 62
5
 10
1214.757
 20
-3045.232
 30
2477.000
 70
    32
  0
VERTEX
  8
2750LEVEL
 62
5
 10
1189.366
 20
-3005.492
 30
2477.000
 70
    32
  0
VERTEX
  8
2750LEVEL
 62
5
 10
1179.115
 20
-2957.094
 30
2477.000
 70
    32
  0
VERTEX
  8
2750LEVEL
 62
5
 10
1164.085
 20
-2903.843
 30
2477.000
 70
    32
  0
VERTEX
  8
2750LEVEL
 62
5
 10
1142.424
 20
-2846.194
 30
2477.000
 70
    32
  0
VERTEX
  8
2750LEVEL
 62
5
 10
1125.045
 20
-2790.270
 30
2477.000
 70
    32
  0
VERTEX
  8
2750LEVEL
 62
5
 10
1106.224
 20
-2732.330
 30
2477.000
 70
    32
  0
VERTEX
  8
2750LEVEL
 62
5
 10
1118.775
 20
-2728.573
 30
2477.000
 70
    32
  0
VERTEX
  8
2750LEVEL
 62
5
 10
1136.075
 20
-2788.037
 30
2477.000
 70
    32
  0
VERTEX
  8
2750LEVEL
 62
5
 10
1155.142
 20
-2844.495
 30
2477.000
 70
    32
  0
VERTEX
  8
2750LEVEL
 62
5
 10
1177.630
 20
-2906.342
 30
2477.000
 70
    32
  0
VERTEX
  8
2750LEVEL
 62
5
 10
1198.506
 20
-2961.070
 30
2477.000
 70
    32
  0
VERTEX
  8
2750LEVEL
 62
5
 10
1201.917
 20
-3001.735
 30
2477.000
 70
    32
  0
VERTEX
  8
2750LEVEL
 62
5
 10
1219.777
 20
-3042.511
 30
2477.000
 70
    32
  0
VERTEX
  8
2750LEVEL
 62
5
 10
1242.246
 20
-3083.036
 30
2477.000
 70
    32
  0
VERTEX
  8
2750LEVEL
 62
5
 10
1243.964
 20
-3117.076
 30
2477.000
 70
    32
  0
VERTEX
  8
2750LEVEL
 62
5
 10
1257.218
 20
-3164.195
 30
2477.000
 70
    32
  0
VERTEX
  8
2750LEVEL
 62
5
 10
1275.904
 20
-3209.169
 30
2477.000
 70
    32
  0
VERTEX
  8
2750LEVEL
 62
5
 10
1289.930
 20
-3243.980
 30
2477.000
 70
    32
  0
VERTEX
  8
2750LEVEL
 62
5
 10
1303.761
 20
-3290.687
 30
2477.000
 70
    32
  0
VERTEX
  8
2750LEVEL
 62
5
 10
1321.594
 20
-3348.463
 30
2477.000
 70
    32
  0
VERTEX
  8
2750LEVEL
 62
5
 10
1333.858
 20
-3392.372
 30
2477.000
 70
    32
  0
SEQEND
  8
2750LEVEL
  0
POLYLINE
  8
2750LEVEL
 62
5
 66
     1
 70
     9
  0
VERTEX
  8
2750LEVEL
 62
5
 10
861.448
 20
-3449.593
 30
2477.000
 70
    32
  0
VERTEX
  8
2750LEVEL
 62
5
 10
844.880
 20
-3379.591
 30
2477.000
 70
    32
  0
VERTEX
  8
2750LEVEL
 62
5
 10
855.801
 20
-3394.852
 30
2477.000
 70
    32
  0
VERTEX
  8
2750LEVEL
 62
5
 10
867.873
 20
-3453.704
 30
2477.000
 70
    32
  0
SEQEND
  8
2750LEVEL
  0
POLYLINE
  8
2750LEVEL
 62
5
 66
     1
 70
     8
  0
VERTEX
  8
2750LEVEL
 62
5
 10
3096.859
 20
-5607.118
 30
2477.000
 70
    32
  0
VERTEX
  8
2750LEVEL
 62
5
 10
3073.473
 20
-5553.751
 30
2477.000
 70
    32
  0
VERTEX
  8
2750LEVEL
 62
5
 10
3046.211
 20
-5493.143
 30
2477.000
 70
    32
  0
VERTEX
  8
2750LEVEL
 62
5
 10
2999.695
 20
-5397.111
 30
2477.000
 70
    32
  0
VERTEX
  8
2750LEVEL
 62
5
 10
2954.292
 20
-5302.025
 30
2477.000
 70
    32
  0
VERTEX
  8
2750LEVEL
 62
5
 10
2919.186
 20
-5215.245
 30
2477.000
 70
    32
  0
VERTEX
  8
2750LEVEL
 62
5
 10
2882.175
 20
-5115.459
 30
2477.000
 70
    32
  0
VERTEX
  8
2750LEVEL
 62
5
 10
2832.721
 20
-5001.936
 30
2477.000
 70
    32
  0
VERTEX
  8
2750LEVEL
 62
5
 10
2779.511
 20
-4875.861
 30
2477.000
 70
    32
  0
VERTEX
  8
2750LEVEL
 62
5
 10
2728.335
 20
-4769.667
 30
2477.000
 70
    32
  0
VERTEX
  8
2750LEVEL
 62
5
 10
2681.692
 20
-4669.807
 30
2477.000
 70
    32
  0
VERTEX
  8
2750LEVEL
 62
5
 10
2663.705
 20
-4577.743
 30
2477.000
 70
    32
  0
VERTEX
  8
2750LEVEL
 62
5
 10
2623.857
 20
-4433.833
 30
2477.000
 70
    32
  0
VERTEX
  8
2750LEVEL
 62
5
 10
2583.916
 20
-4325.694
 30
2477.000
 70
    32
  0
VERTEX
  8
2750LEVEL
 62
5
 10
2534.766
 20
-4230.241
 30
2477.000
 70
    32
  0
VERTEX
  8
2750LEVEL
 62
5
 10
2496.068
 20
-4129.922
 30
2477.000
 70
    32
  0
VERTEX
  8
2750LEVEL
 62
5
 10
2452.043
 20
-4011.207
 30
2477.000
 70
    32
  0
VERTEX
  8
2750LEVEL
 62
5
 10
2419.599
 20
-3916.702
 30
2477.000
 70
    32
  0
SEQEND
  8
2750LEVEL
  0
POLYLINE
  8
2750LEVEL
 62
5
 66
     1
 70
     8
  0
VERTEX
  8
2750LEVEL
 62
5
 10
2239.911
 20
-3006.541
 30
2477.000
 70
    32
  0
VERTEX
  8
2750LEVEL
 62
5
 10
2228.783
 20
-2943.531
 30
2477.000
 70
    32
  0
VERTEX
  8
2750LEVEL
 62
5
 10
2155.778
 20
-2869.503
 30
2477.000
 70
    32
  0
VERTEX
  8
2750LEVEL
 62
5
 10
2167.524
 20
-2933.377
 30
2477.000
 70
    32
  0
VERTEX
  8
2750LEVEL
 62
5
 10
2182.872
 20
-3019.927
 30
2477.000
 70
    32
  0
VERTEX
  8
2750LEVEL
 62
5
 10
2208.879
 20
-3104.946
 30
2477.000
 70
    32
  0
VERTEX
  8
2750LEVEL
 62
5
 10
2240.752
 20
-3212.763
 30
2477.000
 70
    32
  0
VERTEX
  8
2750LEVEL
 62
5
 10
2265.256
 20
-3320.628
 30
2477.000
 70
    32
  0
VERTEX
  8
2750LEVEL
 62
5
 10
2287.821
 20
-3423.349
 30
2477.000
 70
    32
  0
VERTEX
  8
2750LEVEL
 62
5
 10
2313.517
 20
-3481.159
 30
2477.000
 70
    32
  0
VERTEX
  8
2750LEVEL
 62
5
 10
2347.503
 20
-3605.316
 30
2477.000
 70
    32
  0
VERTEX
  8
2750LEVEL
 62
5
 10
2368.103
 20
-3719.893
 30
2477.000
 70
    32
  0
VERTEX
  8
2750LEVEL
 62
5
 10
2398.316
 20
-3825.582
 30
2477.000
 70
    32
  0
SEQEND
  8
2750LEVEL
  0
POLYLINE
  8
2750LEVEL
 62
5
 66
     1
 70
     9
  0
VERTEX
  8
2750LEVEL
 62
5
 10
2278.539
 20
-2980.204
 30
2477.000
 70
    32
  0
VERTEX
  8
2750LEVEL
 62
5
 10
2286.017
 20
-3057.582
 30
2477.000
 70
    32
  0
VERTEX
  8
2750LEVEL
 62
5
 10
2256.922
 20
-3018.751
 30
2477.000
 70
    32
  0
VERTEX
  8
2750LEVEL
 62
5
 10
2253.822
 20
-2957.833
 30
2477.000
 70
    32
  0
SEQEND
  8
2750LEVEL
  0
POLYLINE
  8
2750LEVEL
 62
5
 66
     1
 70
     9
  0
VERTEX
  8
2750LEVEL
 62
5
 10
2352.828
 20
-3063.327
 30
2477.000
 70
    32
  0
VERTEX
  8
2750LEVEL
 62
5
 10
2325.426
 20
-3122.996
 30
2477.000
 70
    32
  0
VERTEX
  8
2750LEVEL
 62
5
 10
2316.644
 20
-3107.073
 30
2477.000
 70
    32
  0
VERTEX
  8
2750LEVEL
 62
5
 10
2327.942
 20
-3035.853
 30
2477.000
 70
    32
  0
SEQEND
  8
2750LEVEL
  0
POLYLINE
  8
2750LEVEL
 62
5
 66
     1
 70
     9
  0
VERTEX
  8
2750LEVEL
 62
5
 10
2372.732
 20
-3088.707
 30
2477.000
 70
    32
  0
VERTEX
  8
2750LEVEL
 62
5
 10
2364.485
 20
-3118.557
 30
2477.000
 70
    32
  0
VERTEX
  8
2750LEVEL
 62
5
 10
2356.827
 20
-3163.225
 30
2477.000
 70
    32
  0
VERTEX
  8
2750LEVEL
 62
5
 10
2345.039
 20
-3145.535
 30
2477.000
 70
    32
  0
VERTEX
  8
2750LEVEL
 62
5
 10
2360.867
 20
-3077.603
 30
2477.000
 70
    32
  0
SEQEND
  8
2750LEVEL
  0
POLYLINE
  8
2750LEVEL
 62
5
 66
     1
 70
     9
  0
VERTEX
  8
2750LEVEL
 62
5
 10
2482.515
 20
-3231.772
 30
2477.000
 70
    32
  0
VERTEX
  8
2750LEVEL
 62
5
 10
2467.187
 20
-3261.464
 30
2477.000
 70
    32
  0
VERTEX
  8
2750LEVEL
 62
5
 10
2458.486
 20
-3289.462
 30
2477.000
 70
    32
  0
VERTEX
  8
2750LEVEL
 62
5
 10
2446.209
 20
-3277.783
 30
2477.000
 70
    32
  0
VERTEX
  8
2750LEVEL
 62
5
 10
2457.961
 20
-3208.414
 30
2477.000
 70
    32
  0
SEQEND
  8
2750LEVEL
  0
POLYLINE
  8
2750LEVEL
 62
5
 66
     1
 70
     9
  0
VERTEX
  8
2750LEVEL
 62
5
 10
2498.279
 20
-3277.531
 30
2477.000
 70
    32
  0
VERTEX
  8
2750LEVEL
 62
5
 10
2516.255
 20
-3357.411
 30
2477.000
 70
    32
  0
VERTEX
  8
2750LEVEL
 62
5
 10
2467.426
 20
-3298.304
 30
2477.000
 70
    32
  0
VERTEX
  8
2750LEVEL
 62
5
 10
2474.651
 20
-3276.152
 30
2477.000
 70
    32
  0
VERTEX
  8
2750LEVEL
 62
5
 10
2494.709
 20
-3243.946
 30
2477.000
 70
    32
  0
SEQEND
  8
2750LEVEL
  0
POLYLINE
  8
2750LEVEL
 62
5
 66
     1
 70
     8
  0
VERTEX
  8
2750LEVEL
 62
5
 10
2863.122
 20
-4564.380
 30
2477.000
 70
    32
  0
VERTEX
  8
2750LEVEL
 62
5
 10
2969.651
 20
-4795.962
 30
2477.000
 70
    32
  0
VERTEX
  8
2750LEVEL
 62
5
 10
3012.032
 20
-4871.005
 30
2477.000
 70
    32
  0
VERTEX
  8
2750LEVEL
 62
5
 10
3052.686
 20
-4947.284
 30
2477.000
 70
    32
  0
VERTEX
  8
2750LEVEL
 62
5
 10
3095.482
 20
-5025.948
 30
2477.000
 70
    32
  0
VERTEX
  8
2750LEVEL
 62
5
 10
3135.527
 20
-5113.548
 30
2477.000
 70
    32
  0
VERTEX
  8
2750LEVEL
 62
5
 10
3180.855
 20
-5215.220
 30
2477.000
 70
    32
  0
VERTEX
  8
2750LEVEL
 62
5
 10
3211.424
 20
-5292.619
 30
2477.000
 70
    32
  0
VERTEX
  8
2750LEVEL
 62
5
 10
3244.340
 20
-5369.646
 30
2477.000
 70
    32
  0
VERTEX
  8
2750LEVEL
 62
5
 10
3284.953
 20
-5447.695
 30
2477.000
 70
    32
  0
VERTEX
  8
2750LEVEL
 62
5
 10
3315.998
 20
-5503.854
 30
2477.000
 70
    32
  0
SEQEND
  8
2750LEVEL
  0
POLYLINE
  8
2750LEVEL
 62
5
 66
     1
 70
     9
  0
VERTEX
  8
2750LEVEL
 62
5
 10
2876.891
 20
-4533.412
 30
2477.000
 70
    32
  0
VERTEX
  8
2750LEVEL
 62
5
 10
2871.547
 20
-4524.410
 30
2477.000
 70
    32
  0
VERTEX
  8
2750LEVEL
 62
5
 10
2866.118
 20
-4516.503
 30
2477.000
 70
    32
  0
VERTEX
  8
2750LEVEL
 62
5
 10
2860.750
 20
-4507.070
 30
2477.000
 70
    32
  0
VERTEX
  8
2750LEVEL
 62
5
 10
2856.385
 20
-4500.814
 30
2477.000
 70
    32
  0
VERTEX
  8
2750LEVEL
 62
5
 10
2848.733
 20
-4489.168
 30
2477.000
 70
    32
  0
VERTEX
  8
2750LEVEL
 62
5
 10
2841.191
 20
-4475.575
 30
2477.000
 70
    32
  0
VERTEX
  8
2750LEVEL
 62
5
 10
2834.141
 20
-4462.999
 30
2477.000
 70
    32
  0
VERTEX
  8
2750LEVEL
 62
5
 10
2828.860
 20
-4453.113
 30
2477.000
 70
    32
  0
VERTEX
  8
2750LEVEL
 62
5
 10
2823.845
 20
-4443.720
 30
2477.000
 70
    32
  0
VERTEX
  8
2750LEVEL
 62
5
 10
2819.260
 20
-4436.549
 30
2477.000
 70
    32
  0
VERTEX
  8
2750LEVEL
 62
5
 10
2813.588
 20
-4429.541
 30
2477.000
 70
    32
  0
VERTEX
  8
2750LEVEL
 62
5
 10
2811.076
 20
-4425.521
 30
2477.000
 70
    32
  0
VERTEX
  8
2750LEVEL
 62
5
 10
2807.696
 20
-4418.412
 30
2477.000
 70
    32
  0
VERTEX
  8
2750LEVEL
 62
5
 10
2805.396
 20
-4412.170
 30
2477.000
 70
    32
  0
VERTEX
  8
2750LEVEL
 62
5
 10
2804.206
 20
-4408.119
 30
2477.000
 70
    32
  0
VERTEX
  8
2750LEVEL
 62
5
 10
2804.651
 20
-4405.068
 30
2477.000
 70
    32
  0
VERTEX
  8
2750LEVEL
 62
5
 10
2806.552
 20
-4403.355
 30
2477.000
 70
    32
  0
VERTEX
  8
2750LEVEL
 62
5
 10
2809.649
 20
-4404.981
 30
2477.000
 70
    32
  0
VERTEX
  8
2750LEVEL
 62
5
 10
2814.398
 20
-4409.713
 30
2477.000
 70
    32
  0
VERTEX
  8
2750LEVEL
 62
5
 10
2820.133
 20
-4418.081
 30
2477.000
 70
    32
  0
VERTEX
  8
2750LEVEL
 62
5
 10
2825.038
 20
-4425.574
 30
2477.000
 70
    32
  0
VERTEX
  8
2750LEVEL
 62
5
 10
2832.463
 20
-4437.336
 30
2477.000
 70
    32
  0
VERTEX
  8
2750LEVEL
 62
5
 10
2838.441
 20
-4447.371
 30
2477.000
 70
    32
  0
VERTEX
  8
2750LEVEL
 62
5
 10
2846.421
 20
-4461.832
 30
2477.000
 70
    32
  0
VERTEX
  8
2750LEVEL
 62
5
 10
2855.841
 20
-4478.412
 30
2477.000
 70
    32
  0
VERTEX
  8
2750LEVEL
 62
5
 10
2869.377
 20
-4500.937
 30
2477.000
 70
    32
  0
VERTEX
  8
2750LEVEL
 62
5
 10
2874.697
 20
-4509.829
 30
2477.000
 70
    32
  0
VERTEX
  8
2750LEVEL
 62
5
 10
2878.985
 20
-4517.111
 30
2477.000
 70
    32
  0
VERTEX
  8
2750LEVEL
 62
5
 10
2881.911
 20
-4521.889
 30
2477.000
 70
    32
  0
VERTEX
  8
2750LEVEL
 62
5
 10
2885.087
 20
-4526.981
 30
2477.000
 70
    32
  0
VERTEX
  8
2750LEVEL
 62
5
 10
2887.387
 20
-4530.977
 30
2477.000
 70
    32
  0
VERTEX
  8
2750LEVEL
 62
5
 10
2887.935
 20
-4531.822
 30
2477.000
 70
    32
  0
SEQEND
  8
2750LEVEL
  0
POLYLINE
  8
2750LEVEL
 62
5
 66
     1
 70
     9
  0
VERTEX
  8
2750LEVEL
 62
5
 10
2871.410
 20
-4543.315
 30
2477.000
 70
    32
  0
VERTEX
  8
2750LEVEL
 62
5
 10
2862.709
 20
-4527.954
 30
2477.000
 70
    32
  0
VERTEX
  8
2750LEVEL
 62
5
 10
2854.667
 20
-4516.622
 30
2477.000
 70
    32
  0
VERTEX
  8
2750LEVEL
 62
5
 10
2848.791
 20
-4507.276
 30
2477.000
 70
    32
  0
VERTEX
  8
2750LEVEL
 62
5
 10
2838.409
 20
-4491.978
 30
2477.000
 70
    32
  0
VERTEX
  8
2750LEVEL
 62
5
 10
2827.088
 20
-4475.828
 30
2477.000
 70
    32
  0
VERTEX
  8
2750LEVEL
 62
5
 10
2820.070
 20
-4465.857
 30
2477.000
 70
    32
  0
VERTEX
  8
2750LEVEL
 62
5
 10
2812.051
 20
-4454.634
 30
2477.000
 70
    32
  0
VERTEX
  8
2750LEVEL
 62
5
 10
2807.192
 20
-4445.115
 30
2477.000
 70
    32
  0
VERTEX
  8
2750LEVEL
 62
5
 10
2803.132
 20
-4438.037
 30
2477.000
 70
    32
  0
VERTEX
  8
2750LEVEL
 62
5
 10
2801.332
 20
-4434.025
 30
2477.000
 70
    32
  0
VERTEX
  8
2750LEVEL
 62
5
 10
2799.712
 20
-4430.318
 30
2477.000
 70
    32
  0
VERTEX
  8
2750LEVEL
 62
5
 10
2799.313
 20
-4427.815
 30
2477.000
 70
    32
  0
VERTEX
  8
2750LEVEL
 62
5
 10
2799.680
 20
-4425.148
 30
2477.000
 70
    32
  0
VERTEX
  8
2750LEVEL
 62
5
 10
2800.853
 20
-4424.530
 30
2477.000
 70
    32
  0
VERTEX
  8
2750LEVEL
 62
5
 10
2802.003
 20
-4424.443
 30
2477.000
 70
    32
  0
VERTEX
  8
2750LEVEL
 62
5
 10
2804.256
 20
-4425.014
 30
2477.000
 70
    32
  0
VERTEX
  8
2750LEVEL
 62
5
 10
2807.596
 20
-4427.344
 30
2477.000
 70
    32
  0
VERTEX
  8
2750LEVEL
 62
5
 10
2811.492
 20
-4431.732
 30
2477.000
 70
    32
  0
VERTEX
  8
2750LEVEL
 62
5
 10
2817.954
 20
-4441.570
 30
2477.000
 70
    32
  0
VERTEX
  8
2750LEVEL
 62
5
 10
2825.966
 20
-4454.788
 30
2477.000
 70
    32
  0
VERTEX
  8
2750LEVEL
 62
5
 10
2832.045
 20
-4464.869
 30
2477.000
 70
    32
  0
VERTEX
  8
2750LEVEL
 62
5
 10
2839.251
 20
-4477.961
 30
2477.000
 70
    32
  0
VERTEX
  8
2750LEVEL
 62
5
 10
2844.509
 20
-4487.738
 30
2477.000
 70
    32
  0
VERTEX
  8
2750LEVEL
 62
5
 10
2849.368
 20
-4495.973
 30
2477.000
 70
    32
  0
VERTEX
  8
2750LEVEL
 62
5
 10
2854.915
 20
-4504.428
 30
2477.000
 70
    32
  0
VERTEX
  8
2750LEVEL
 62
5
 10
2859.116
 20
-4510.880
 30
2477.000
 70
    32
  0
VERTEX
  8
2750LEVEL
 62
5
 10
2863.435
 20
-4517.238
 30
2477.000
 70
    32
  0
VERTEX
  8
2750LEVEL
 62
5
 10
2867.229
 20
-4523.182
 30
2477.000
 70
    32
  0
VERTEX
  8
2750LEVEL
 62
5
 10
2870.062
 20
-4527.523
 30
2477.000
 70
    32
  0
VERTEX
  8
2750LEVEL
 62
5
 10
2873.121
 20
-4533.350
 30
2477.000
 70
    32
  0
VERTEX
  8
2750LEVEL
 62
5
 10
2874.936
 20
-4536.580
 30
2477.000
 70
    32
  0
VERTEX
  8
2750LEVEL
 62
5
 10
2875.898
 20
-4538.504
 30
2477.000
 70
    32
  0
SEQEND
  8
2750LEVEL
  0
POLYLINE
  8
2750LEVEL
 62
5
 66
     1
 70
     9
  0
VERTEX
  8
2750LEVEL
 62
5
 10
2502.115
 20
-4271.022
 30
2477.000
 70
    32
  0
VERTEX
  8
2750LEVEL
 62
5
 10
2504.367
 20
-4272.234
 30
2477.000
 70
    32
  0
VERTEX
  8
2750LEVEL
 62
5
 10
2505.478
 20
-4273.783
 30
2477.000
 70
    32
  0
VERTEX
  8
2750LEVEL
 62
5
 10
2506.668
 20
-4275.910
 30
2477.000
 70
    32
  0
VERTEX
  8
2750LEVEL
 62
5
 10
2509.249
 20
-4278.334
 30
2477.000
 70
    32
  0
VERTEX
  8
2750LEVEL
 62
5
 10
2511.666
 20
-4279.992
 30
2477.000
 70
    32
  0
VERTEX
  8
2750LEVEL
 62
5
 10
2513.606
 20
-4281.134
 30
2477.000
 70
    32
  0
VERTEX
  8
2750LEVEL
 62
5
 10
2514.553
 20
-4281.595
 30
2477.000
 70
    32
  0
VERTEX
  8
2750LEVEL
 62
5
 10
2509.524
 20
-4286.774
 30
2477.000
 70
    32
  0
VERTEX
  8
2750LEVEL
 62
5
 10
2507.107
 20
-4285.116
 30
2477.000
 70
    32
  0
VERTEX
  8
2750LEVEL
 62
5
 10
2504.182
 20
-4283.545
 30
2477.000
 70
    32
  0
VERTEX
  8
2750LEVEL
 62
5
 10
2500.537
 20
-4282.677
 30
2477.000
 70
    32
  0
VERTEX
  8
2750LEVEL
 62
5
 10
2497.713
 20
-4281.794
 30
2477.000
 70
    32
  0
VERTEX
  8
2750LEVEL
 62
5
 10
2495.851
 20
-4279.948
 30
2477.000
 70
    32
  0
VERTEX
  8
2750LEVEL
 62
5
 10
2494.130
 20
-4277.797
 30
2477.000
 70
    32
  0
VERTEX
  8
2750LEVEL
 62
5
 10
2493.363
 20
-4276.679
 30
2477.000
 70
    32
  0
SEQEND
  8
2750LEVEL
  0
POLYLINE
  8
2750LEVEL
 62
5
 66
     1
 70
     9
  0
VERTEX
  8
2750LEVEL
 62
5
 10
2564.931
 20
-4224.152
 30
2477.000
 70
    32
  0
VERTEX
  8
2750LEVEL
 62
5
 10
2567.904
 20
-4227.225
 30
2477.000
 70
    32
  0
VERTEX
  8
2750LEVEL
 62
5
 10
2570.627
 20
-4230.948
 30
2477.000
 70
    32
  0
VERTEX
  8
2750LEVEL
 62
5
 10
2573.357
 20
-4233.959
 30
2477.000
 70
    32
  0
VERTEX
  8
2750LEVEL
 62
5
 10
2575.078
 20
-4235.789
 30
2477.000
 70
    32
  0
VERTEX
  8
2750LEVEL
 62
5
 10
2564.755
 20
-4245.654
 30
2477.000
 70
    32
  0
VERTEX
  8
2750LEVEL
 62
5
 10
2562.908
 20
-4241.743
 30
2477.000
 70
    32
  0
VERTEX
  8
2750LEVEL
 62
5
 10
2560.287
 20
-4235.181
 30
2477.000
 70
    32
  0
VERTEX
  8
2750LEVEL
 62
5
 10
2558.511
 20
-4231.278
 30
2477.000
 70
    32
  0
VERTEX
  8
2750LEVEL
 62
5
 10
2558.135
 20
-4229.847
 30
2477.000
 70
    32
  0
VERTEX
  8
2750LEVEL
 62
5
 10
2557.791
 20
-4229.096
 30
2477.000
 70
    32
  0
SEQEND
  8
2750LEVEL
  0
POLYLINE
  8
2750LEVEL
 62
5
 66
     1
 70
     9
  0
VERTEX
  8
2750LEVEL
 62
5
 10
2585.242
 20
-4209.373
 30
2477.000
 70
    32
  0
VERTEX
  8
2750LEVEL
 62
5
 10
2586.588
 20
-4214.582
 30
2477.000
 70
    32
  0
VERTEX
  8
2750LEVEL
 62
5
 10
2587.606
 20
-4219.862
 30
2477.000
 70
    32
  0
VERTEX
  8
2750LEVEL
 62
5
 10
2589.578
 20
-4224.891
 30
2477.000
 70
    32
  0
VERTEX
  8
2750LEVEL
 62
5
 10
2590.517
 20
-4228.629
 30
2477.000
 70
    32
  0
VERTEX
  8
2750LEVEL
 62
5
 10
2590.830
 20
-4230.944
 30
2477.000
 70
    32
  0
VERTEX
  8
2750LEVEL
 62
5
 10
2591.065
 20
-4232.360
 30
2477.000
 70
    32
  0
VERTEX
  8
2750LEVEL
 62
5
 10
2578.770
 20
-4236.234
 30
2477.000
 70
    32
  0
VERTEX
  8
2750LEVEL
 62
5
 10
2576.837
 20
-4231.174
 30
2477.000
 70
    32
  0
VERTEX
  8
2750LEVEL
 62
5
 10
2575.475
 20
-4226.105
 30
2477.000
 70
    32
  0
VERTEX
  8
2750LEVEL
 62
5
 10
2573.331
 20
-4220.380
 30
2477.000
 70
    32
  0
VERTEX
  8
2750LEVEL
 62
5
 10
2572.588
 20
-4217.768
 30
2477.000
 70
    32
  0
SEQEND
  8
2750LEVEL
  0
POLYLINE
  8
2750LEVEL
 62
5
 66
     1
 70
     9
  0
VERTEX
  8
2750LEVEL
 62
5
 10
2733.778
 20
-4118.921
 30
2477.000
 70
    32
  0
VERTEX
  8
2750LEVEL
 62
5
 10
2735.335
 20
-4123.833
 30
2477.000
 70
    32
  0
VERTEX
  8
2750LEVEL
 62
5
 10
2736.603
 20
-4128.784
 30
2477.000
 70
    32
  0
VERTEX
  8
2750LEVEL
 62
5
 10
2737.590
 20
-4134.665
 30
2477.000
 70
    32
  0
VERTEX
  8
2750LEVEL
 62
5
 10
2737.778
 20
-4138.107
 30
2477.000
 70
    32
  0
VERTEX
  8
2750LEVEL
 62
5
 10
2737.082
 20
-4139.241
 30
2477.000
 70
    32
  0
VERTEX
  8
2750LEVEL
 62
5
 10
2736.057
 20
-4137.880
 30
2477.000
 70
    32
  0
VERTEX
  8
2750LEVEL
 62
5
 10
2734.108
 20
-4129.754
 30
2477.000
 70
    32
  0
VERTEX
  8
2750LEVEL
 62
5
 10
2733.028
 20
-4123.434
 30
2477.000
 70
    32
  0
VERTEX
  8
2750LEVEL
 62
5
 10
2731.274
 20
-4115.151
 30
2477.000
 70
    32
  0
VERTEX
  8
2750LEVEL
 62
5
 10
2730.397
 20
-4108.605
 30
2477.000
 70
    32
  0
VERTEX
  8
2750LEVEL
 62
5
 10
2730.014
 20
-4106.923
 30
2477.000
 70
    32
  0
VERTEX
  8
2750LEVEL
 62
5
 10
2730.553
 20
-4105.593
 30
2477.000
 70
    32
  0
VERTEX
  8
2750LEVEL
 62
5
 10
2731.187
 20
-4105.984
 30
2477.000
 70
    32
  0
VERTEX
  8
2750LEVEL
 62
5
 10
2732.157
 20
-4109.120
 30
2477.000
 70
    32
  0
VERTEX
  8
2750LEVEL
 62
5
 10
2732.924
 20
-4112.163
 30
2477.000
 70
    32
  0
VERTEX
  8
2750LEVEL
 62
5
 10
2733.308
 20
-4113.845
 30
2477.000
 70
    32
  0
SEQEND
  8
2750LEVEL
  0
POLYLINE
  8
2750LEVEL
 62
5
 66
     1
 70
     9
  0
VERTEX
  8
2750LEVEL
 62
5
 10
2566.142
 20
-3317.812
 30
2477.000
 70
    32
  0
VERTEX
  8
2750LEVEL
 62
5
 10
2568.391
 20
-3344.109
 30
2477.000
 70
    32
  0
VERTEX
  8
2750LEVEL
 62
5
 10
2570.639
 20
-3360.464
 30
2477.000
 70
    32
  0
VERTEX
  8
2750LEVEL
 62
5
 10
2573.121
 20
-3376.310
 30
2477.000
 70
    32
  0
VERTEX
  8
2750LEVEL
 62
5
 10
2573.952
 20
-3386.165
 30
2477.000
 70
    32
  0
VERTEX
  8
2750LEVEL
 62
5
 10
2573.702
 20
-3392.266
 30
2477.000
 70
    32
  0
VERTEX
  8
2750LEVEL
 62
5
 10
2573.531
 20
-3396.060
 30
2477.000
 70
    32
  0
VERTEX
  8
2750LEVEL
 62
5
 10
2574.548
 20
-3400.377
 30
2477.000
 70
    32
  0
VERTEX
  8
2750LEVEL
 62
5
 10
2576.551
 20
-3402.880
 30
2477.000
 70
    32
  0
VERTEX
  8
2750LEVEL
 62
5
 10
2578.828
 20
-3405.484
 30
2477.000
 70
    32
  0
VERTEX
  8
2750LEVEL
 62
5
 10
2580.353
 20
-3408.754
 30
2477.000
 70
    32
  0
VERTEX
  8
2750LEVEL
 62
5
 10
2582.646
 20
-3410.576
 30
2477.000
 70
    32
  0
VERTEX
  8
2750LEVEL
 62
5
 10
2583.780
 20
-3414.158
 30
2477.000
 70
    32
  0
VERTEX
  8
2750LEVEL
 62
5
 10
2584.336
 20
-3417.498
 30
2477.000
 70
    32
  0
VERTEX
  8
2750LEVEL
 62
5
 10
2585.768
 20
-3419.367
 30
2477.000
 70
    32
  0
VERTEX
  8
2750LEVEL
 62
5
 10
2587.872
 20
-3421.275
 30
2477.000
 70
    32
  0
VERTEX
  8
2750LEVEL
 62
5
 10
2587.904
 20
-3423.880
 30
2477.000
 70
    32
  0
VERTEX
  8
2750LEVEL
 62
5
 10
2588.679
 20
-3426.852
 30
2477.000
 70
    32
  0
VERTEX
  8
2750LEVEL
 62
5
 10
2588.828
 20
-3430.645
 30
2477.000
 70
    32
  0
VERTEX
  8
2750LEVEL
 62
5
 10
2587.984
 20
-3436.003
 30
2477.000
 70
    32
  0
VERTEX
  8
2750LEVEL
 62
5
 10
2588.478
 20
-3442.472
 30
2477.000
 70
    32
  0
VERTEX
  8
2750LEVEL
 62
5
 10
2589.582
 20
-3448.901
 30
2477.000
 70
    32
  0
VERTEX
  8
2750LEVEL
 62
5
 10
2592.392
 20
-3463.074
 30
2477.000
 70
    32
  0
VERTEX
  8
2750LEVEL
 62
5
 10
2596.173
 20
-3478.459
 30
2477.000
 70
    32
  0
VERTEX
  8
2750LEVEL
 62
5
 10
2600.696
 20
-3491.966
 30
2477.000
 70
    32
  0
VERTEX
  8
2750LEVEL
 62
5
 10
2608.928
 20
-3514.757
 30
2477.000
 70
    32
  0
VERTEX
  8
2750LEVEL
 62
5
 10
2613.640
 20
-3531.706
 30
2477.000
 70
    32
  0
VERTEX
  8
2750LEVEL
 62
5
 10
2618.963
 20
-3557.916
 30
2477.000
 70
    32
  0
VERTEX
  8
2750LEVEL
 62
5
 10
2625.350
 20
-3583.852
 30
2477.000
 70
    32
  0
VERTEX
  8
2750LEVEL
 62
5
 10
2629.271
 20
-3599.252
 30
2477.000
 70
    32
  0
VERTEX
  8
2750LEVEL
 62
5
 10
2634.648
 20
-3621.763
 30
2477.000
 70
    32
  0
VERTEX
  8
2750LEVEL
 62
5
 10
2638.406
 20
-3639.924
 30
2477.000
 70
    32
  0
VERTEX
  8
2750LEVEL
 62
5
 10
2642.999
 20
-3653.439
 30
2477.000
 70
    32
  0
VERTEX
  8
2750LEVEL
 62
5
 10
2646.192
 20
-3661.918
 30
2477.000
 70
    32
  0
VERTEX
  8
2750LEVEL
 62
5
 10
2648.282
 20
-3668.136
 30
2477.000
 70
    32
  0
VERTEX
  8
2750LEVEL
 62
5
 10
2647.977
 20
-3671.522
 30
2477.000
 70
    32
  0
VERTEX
  8
2750LEVEL
 62
5
 10
2647.962
 20
-3675.511
 30
2477.000
 70
    32
  0
VERTEX
  8
2750LEVEL
 62
5
 10
2650.255
 20
-3679.899
 30
2477.000
 70
    32
  0
VERTEX
  8
2750LEVEL
 62
5
 10
2651.663
 20
-3684.866
 30
2477.000
 70
    32
  0
VERTEX
  8
2750LEVEL
 62
5
 10
2654.059
 20
-3696.997
 30
2477.000
 70
    32
  0
VERTEX
  8
2750LEVEL
 62
5
 10
2657.909
 20
-3708.862
 30
2477.000
 70
    32
  0
VERTEX
  8
2750LEVEL
 62
5
 10
2662.714
 20
-3725.287
 30
2477.000
 70
    32
  0
VERTEX
  8
2750LEVEL
 62
5
 10
2666.581
 20
-3742.142
 30
2477.000
 70
    32
  0
VERTEX
  8
2750LEVEL
 62
5
 10
2668.499
 20
-3752.795
 30
2477.000
 70
    32
  0
VERTEX
  8
2750LEVEL
 62
5
 10
2672.444
 20
-3766.060
 30
2477.000
 70
    32
  0
VERTEX
  8
2750LEVEL
 62
5
 10
2674.886
 20
-3777.448
 30
2477.000
 70
    32
  0
VERTEX
  8
2750LEVEL
 62
5
 10
2677.861
 20
-3795.273
 30
2477.000
 70
    32
  0
VERTEX
  8
2750LEVEL
 62
5
 10
2680.437
 20
-3811.558
 30
2477.000
 70
    32
  0
VERTEX
  8
2750LEVEL
 62
5
 10
2683.616
 20
-3828.836
 30
2477.000
 70
    32
  0
VERTEX
  8
2750LEVEL
 62
5
 10
2687.897
 20
-3848.694
 30
2477.000
 70
    32
  0
VERTEX
  8
2750LEVEL
 62
5
 10
2695.347
 20
-3868.905
 30
2477.000
 70
    32
  0
VERTEX
  8
2750LEVEL
 62
5
 10
2699.612
 20
-3883.452
 30
2477.000
 70
    32
  0
VERTEX
  8
2750LEVEL
 62
5
 10
2703.832
 20
-3902.912
 30
2477.000
 70
    32
  0
VERTEX
  8
2750LEVEL
 62
5
 10
2707.072
 20
-3915.458
 30
2477.000
 70
    32
  0
VERTEX
  8
2750LEVEL
 62
5
 10
2711.690
 20
-3936.458
 30
2477.000
 70
    32
  0
VERTEX
  8
2750LEVEL
 62
5
 10
2716.934
 20
-3955.355
 30
2477.000
 70
    32
  0
VERTEX
  8
2750LEVEL
 62
5
 10
2720.581
 20
-3966.485
 30
2477.000
 70
    32
  0
VERTEX
  8
2750LEVEL
 62
5
 10
2725.026
 20
-3981.017
 30
2477.000
 70
    32
  0
VERTEX
  8
2750LEVEL
 62
5
 10
2727.741
 20
-3989.300
 30
2477.000
 70
    32
  0
VERTEX
  8
2750LEVEL
 62
5
 10
2731.921
 20
-4004.301
 30
2477.000
 70
    32
  0
VERTEX
  8
2750LEVEL
 62
5
 10
2735.427
 20
-4015.095
 30
2477.000
 70
    32
  0
VERTEX
  8
2750LEVEL
 62
5
 10
2738.174
 20
-4029.189
 30
2477.000
 70
    32
  0
VERTEX
  8
2750LEVEL
 62
5
 10
2739.522
 20
-4039.850
 30
2477.000
 70
    32
  0
VERTEX
  8
2750LEVEL
 62
5
 10
2741.173
 20
-4048.086
 30
2477.000
 70
    32
  0
VERTEX
  8
2750LEVEL
 62
5
 10
2744.422
 20
-4062.806
 30
2477.000
 70
    32
  0
VERTEX
  8
2750LEVEL
 62
5
 10
2746.926
 20
-4072.348
 30
2477.000
 70
    32
  0
VERTEX
  8
2750LEVEL
 62
5
 10
2749.533
 20
-4084.182
 30
2477.000
 70
    32
  0
VERTEX
  8
2750LEVEL
 62
5
 10
2751.725
 20
-4097.823
 30
2477.000
 70
    32
  0
VERTEX
  8
2750LEVEL
 62
5
 10
2752.791
 20
-4108.132
 30
2477.000
 70
    32
  0
VERTEX
  8
2750LEVEL
 62
5
 10
2753.825
 20
-4116.798
 30
2477.000
 70
    32
  0
VERTEX
  8
2750LEVEL
 62
5
 10
2754.694
 20
-4125.660
 30
2477.000
 70
    32
  0
VERTEX
  8
2750LEVEL
 62
5
 10
2755.158
 20
-4137.541
 30
2477.000
 70
    32
  0
VERTEX
  8
2750LEVEL
 62
5
 10
2755.746
 20
-4145.410
 30
2477.000
 70
    32
  0
VERTEX
  8
2750LEVEL
 62
5
 10
2756.232
 20
-4152.590
 30
2477.000
 70
    32
  0
VERTEX
  8
2750LEVEL
 62
5
 10
2756.874
 20
-4159.004
 30
2477.000
 70
    32
  0
VERTEX
  8
2750LEVEL
 62
5
 10
2757.736
 20
-4163.767
 30
2477.000
 70
    32
  0
VERTEX
  8
2750LEVEL
 62
5
 10
2757.736
 20
-4165.370
 30
2477.000
 70
    32
  0
VERTEX
  8
2750LEVEL
 62
5
 10
2756.993
 20
-4165.644
 30
2477.000
 70
    32
  0
VERTEX
  8
2750LEVEL
 62
5
 10
2755.937
 20
-4166.489
 30
2477.000
 70
    32
  0
VERTEX
  8
2750LEVEL
 62
5
 10
2755.922
 20
-4170.478
 30
2477.000
 70
    32
  0
VERTEX
  8
2750LEVEL
 62
5
 10
2756.627
 20
-4176.650
 30
2477.000
 70
    32
  0
VERTEX
  8
2750LEVEL
 62
5
 10
2757.998
 20
-4191.268
 30
2477.000
 70
    32
  0
VERTEX
  8
2750LEVEL
 62
5
 10
2758.477
 20
-4203.329
 30
2477.000
 70
    32
  0
VERTEX
  8
2750LEVEL
 62
5
 10
2758.924
 20
-4211.182
 30
2477.000
 70
    32
  0
VERTEX
  8
2750LEVEL
 62
5
 10
2760.671
 20
-4222.743
 30
2477.000
 70
    32
  0
VERTEX
  8
2750LEVEL
 62
5
 10
2761.642
 20
-4229.727
 30
2477.000
 70
    32
  0
VERTEX
  8
2750LEVEL
 62
5
 10
2762.981
 20
-4238.214
 30
2477.000
 70
    32
  0
VERTEX
  8
2750LEVEL
 62
5
 10
2764.444
 20
-4245.253
 30
2477.000
 70
    32
  0
VERTEX
  8
2750LEVEL
 62
5
 10
2766.173
 20
-4247.654
 30
2477.000
 70
    32
  0
VERTEX
  8
2750LEVEL
 62
5
 10
2767.191
 20
-4249.727
 30
2477.000
 70
    32
  0
VERTEX
  8
2750LEVEL
 62
5
 10
2767.269
 20
-4252.871
 30
2477.000
 70
    32
  0
VERTEX
  8
2750LEVEL
 62
5
 10
2766.401
 20
-4252.988
 30
2477.000
 70
    32
  0
VERTEX
  8
2750LEVEL
 62
5
 10
2765.533
 20
-4253.747
 30
2477.000
 70
    32
  0
VERTEX
  8
2750LEVEL
 62
5
 10
2766.269
 20
-4256.430
 30
2477.000
 70
    32
  0
VERTEX
  8
2750LEVEL
 62
5
 10
2767.600
 20
-4265.307
 30
2477.000
 70
    32
  0
VERTEX
  8
2750LEVEL
 62
5
 10
2769.987
 20
-4274.943
 30
2477.000
 70
    32
  0
VERTEX
  8
2750LEVEL
 62
5
 10
2771.858
 20
-4282.812
 30
2477.000
 70
    32
  0
VERTEX
  8
2750LEVEL
 62
5
 10
2772.578
 20
-4287.239
 30
2477.000
 70
    32
  0
VERTEX
  8
2750LEVEL
 62
5
 10
2771.922
 20
-4290.587
 30
2477.000
 70
    32
  0
VERTEX
  8
2750LEVEL
 62
5
 10
2771.688
 20
-4296.547
 30
2477.000
 70
    32
  0
VERTEX
  8
2750LEVEL
 62
5
 10
2773.034
 20
-4302.077
 30
2477.000
 70
    32
  0
VERTEX
  8
2750LEVEL
 62
5
 10
2774.076
 20
-4313.238
 30
2477.000
 70
    32
  0
VERTEX
  8
2750LEVEL
 62
5
 10
2774.735
 20
-4324.642
 30
2477.000
 70
    32
  0
VERTEX
  8
2750LEVEL
 62
5
 10
2775.511
 20
-4333.707
 30
2477.000
 70
    32
  0
VERTEX
  8
2750LEVEL
 62
5
 10
2777.476
 20
-4344.900
 30
2477.000
 70
    32
  0
VERTEX
  8
2750LEVEL
 62
5
 10
2777.831
 20
-4359.050
 30
2477.000
 70
    32
  0
VERTEX
  8
2750LEVEL
 62
5
 10
2777.676
 20
-4368.154
 30
2477.000
 70
    32
  0
VERTEX
  8
2750LEVEL
 62
5
 10
2777.349
 20
-4376.883
 30
2477.000
 70
    32
  0
VERTEX
  8
2750LEVEL
 62
5
 10
2775.771
 20
-4388.538
 30
2477.000
 70
    32
  0
VERTEX
  8
2750LEVEL
 62
5
 10
2774.716
 20
-4394.193
 30
2477.000
 70
    32
  0
VERTEX
  8
2750LEVEL
 62
5
 10
2773.606
 20
-4400.021
 30
2477.000
 70
    32
  0
VERTEX
  8
2750LEVEL
 62
5
 10
2771.761
 20
-4406.693
 30
2477.000
 70
    32
  0
VERTEX
  8
2750LEVEL
 62
5
 10
2768.899
 20
-4409.368
 30
2477.000
 70
    32
  0
VERTEX
  8
2750LEVEL
 62
5
 10
2766.568
 20
-4410.143
 30
2477.000
 70
    32
  0
VERTEX
  8
2750LEVEL
 62
5
 10
2763.416
 20
-4408.368
 30
2477.000
 70
    32
  0
VERTEX
  8
2750LEVEL
 62
5
 10
2760.497
 20
-4404.481
 30
2477.000
 70
    32
  0
VERTEX
  8
2750LEVEL
 62
5
 10
2759.026
 20
-4400.399
 30
2477.000
 70
    32
  0
VERTEX
  8
2750LEVEL
 62
5
 10
2757.688
 20
-4396.723
 30
2477.000
 70
    32
  0
VERTEX
  8
2750LEVEL
 62
5
 10
2756.287
 20
-4391.044
 30
2477.000
 70
    32
  0
VERTEX
  8
2750LEVEL
 62
5
 10
2756.302
 20
-4386.093
 30
2477.000
 70
    32
  0
VERTEX
  8
2750LEVEL
 62
5
 10
2756.316
 20
-4378.256
 30
2477.000
 70
    32
  0
VERTEX
  8
2750LEVEL
 62
5
 10
2753.950
 20
-4355.260
 30
2477.000
 70
    32
  0
VERTEX
  8
2750LEVEL
 62
5
 10
2751.837
 20
-4347.970
 30
2477.000
 70
    32
  0
VERTEX
  8
2750LEVEL
 62
5
 10
2749.317
 20
-4341.455
 30
2477.000
 70
    32
  0
VERTEX
  8
2750LEVEL
 62
5
 10
2745.374
 20
-4332.039
 30
2477.000
 70
    32
  0
VERTEX
  8
2750LEVEL
 62
5
 10
2743.439
 20
-4317.678
 30
2477.000
 70
    32
  0
VERTEX
  8
2750LEVEL
 62
5
 10
2743.555
 20
-4305.398
 30
2477.000
 70
    32
  0
VERTEX
  8
2750LEVEL
 62
5
 10
2743.662
 20
-4291.585
 30
2477.000
 70
    32
  0
VERTEX
  8
2750LEVEL
 62
5
 10
2743.105
 20
-4281.190
 30
2477.000
 70
    32
  0
VERTEX
  8
2750LEVEL
 62
5
 10
2742.454
 20
-4272.601
 30
2477.000
 70
    32
  0
VERTEX
  8
2750LEVEL
 62
5
 10
2742.336
 20
-4267.244
 30
2477.000
 70
    32
  0
VERTEX
  8
2750LEVEL
 62
5
 10
2741.044
 20
-4260.259
 30
2477.000
 70
    32
  0
VERTEX
  8
2750LEVEL
 62
5
 10
2738.360
 20
-4252.015
 30
2477.000
 70
    32
  0
VERTEX
  8
2750LEVEL
 62
5
 10
2736.982
 20
-4245.805
 30
2477.000
 70
    32
  0
VERTEX
  8
2750LEVEL
 62
5
 10
2735.823
 20
-4237.624
 30
2477.000
 70
    32
  0
VERTEX
  8
2750LEVEL
 62
5
 10
2733.748
 20
-4221.003
 30
2477.000
 70
    32
  0
VERTEX
  8
2750LEVEL
 62
5
 10
2731.915
 20
-4204.765
 30
2477.000
 70
    32
  0
VERTEX
  8
2750LEVEL
 62
5
 10
2731.225
 20
-4195.246
 30
2477.000
 70
    32
  0
VERTEX
  8
2750LEVEL
 62
5
 10
2729.823
 20
-4185.078
 30
2477.000
 70
    32
  0
VERTEX
  8
2750LEVEL
 62
5
 10
2728.242
 20
-4176.208
 30
2477.000
 70
    32
  0
VERTEX
  8
2750LEVEL
 62
5
 10
2726.950
 20
-4166.979
 30
2477.000
 70
    32
  0
VERTEX
  8
2750LEVEL
 62
5
 10
2726.409
 20
-4163.498
 30
2477.000
 70
    32
  0
VERTEX
  8
2750LEVEL
 62
5
 10
2726.792
 20
-4160.049
 30
2477.000
 70
    32
  0
VERTEX
  8
2750LEVEL
 62
5
 10
2726.439
 20
-4155.520
 30
2477.000
 70
    32
  0
VERTEX
  8
2750LEVEL
 62
5
 10
2725.860
 20
-4153.354
 30
2477.000
 70
    32
  0
VERTEX
  8
2750LEVEL
 62
5
 10
2725.438
 20
-4153.948
 30
2477.000
 70
    32
  0
VERTEX
  8
2750LEVEL
 62
5
 10
2723.232
 20
-4153.276
 30
2477.000
 70
    32
  0
VERTEX
  8
2750LEVEL
 62
5
 10
2720.290
 20
-4144.469
 30
2477.000
 70
    32
  0
VERTEX
  8
2750LEVEL
 62
5
 10
2718.732
 20
-4136.030
 30
2477.000
 70
    32
  0
VERTEX
  8
2750LEVEL
 62
5
 10
2718.785
 20
-4130.726
 30
2477.000
 70
    32
  0
VERTEX
  8
2750LEVEL
 62
5
 10
2720.905
 20
-4128.645
 30
2477.000
 70
    32
  0
VERTEX
  8
2750LEVEL
 62
5
 10
2722.180
 20
-4128.716
 30
2477.000
 70
    32
  0
VERTEX
  8
2750LEVEL
 62
5
 10
2723.783
 20
-4129.677
 30
2477.000
 70
    32
  0
VERTEX
  8
2750LEVEL
 62
5
 10
2724.613
 20
-4130.874
 30
2477.000
 70
    32
  0
VERTEX
  8
2750LEVEL
 62
5
 10
2725.372
 20
-4132.063
 30
2477.000
 70
    32
  0
VERTEX
  8
2750LEVEL
 62
5
 10
2725.551
 20
-4130.123
 30
2477.000
 70
    32
  0
VERTEX
  8
2750LEVEL
 62
5
 10
2724.049
 20
-4125.360
 30
2477.000
 70
    32
  0
VERTEX
  8
2750LEVEL
 62
5
 10
2722.272
 20
-4116.967
 30
2477.000
 70
    32
  0
VERTEX
  8
2750LEVEL
 62
5
 10
2721.575
 20
-4111.046
 30
2477.000
 70
    32
  0
VERTEX
  8
2750LEVEL
 62
5
 10
2720.337
 20
-4100.041
 30
2477.000
 70
    32
  0
VERTEX
  8
2750LEVEL
 62
5
 10
2719.475
 20
-4089.506
 30
2477.000
 70
    32
  0
VERTEX
  8
2750LEVEL
 62
5
 10
2717.923
 20
-4073.620
 30
2477.000
 70
    32
  0
VERTEX
  8
2750LEVEL
 62
5
 10
2715.800
 20
-4052.290
 30
2477.000
 70
    32
  0
VERTEX
  8
2750LEVEL
 62
5
 10
2713.482
 20
-4035.607
 30
2477.000
 70
    32
  0
VERTEX
  8
2750LEVEL
 62
5
 10
2712.417
 20
-4029.467
 30
2477.000
 70
    32
  0
VERTEX
  8
2750LEVEL
 62
5
 10
2708.887
 20
-4014.074
 30
2477.000
 70
    32
  0
VERTEX
  8
2750LEVEL
 62
5
 10
2704.769
 20
-3992.737
 30
2477.000
 70
    32
  0
VERTEX
  8
2750LEVEL
 62
5
 10
2701.467
 20
-3980.434
 30
2477.000
 70
    32
  0
VERTEX
  8
2750LEVEL
 62
5
 10
2696.316
 20
-3959.089
 30
2477.000
 70
    32
  0
VERTEX
  8
2750LEVEL
 62
5
 10
2692.364
 20
-3942.367
 30
2477.000
 70
    32
  0
VERTEX
  8
2750LEVEL
 62
5
 10
2687.369
 20
-3918.332
 30
2477.000
 70
    32
  0
VERTEX
  8
2750LEVEL
 62
5
 10
2683.283
 20
-3898.637
 30
2477.000
 70
    32
  0
VERTEX
  8
2750LEVEL
 62
5
 10
2676.544
 20
-3870.097
 30
2477.000
 70
    32
  0
VERTEX
  8
2750LEVEL
 62
5
 10
2670.782
 20
-3841.415
 30
2477.000
 70
    32
  0
VERTEX
  8
2750LEVEL
 62
5
 10
2665.405
 20
-3817.622
 30
2477.000
 70
    32
  0
VERTEX
  8
2750LEVEL
 62
5
 10
2662.046
 20
-3799.719
 30
2477.000
 70
    32
  0
VERTEX
  8
2750LEVEL
 62
5
 10
2654.986
 20
-3771.820
 30
2477.000
 70
    32
  0
VERTEX
  8
2750LEVEL
 62
5
 10
2650.649
 20
-3748.605
 30
2477.000
 70
    32
  0
VERTEX
  8
2750LEVEL
 62
5
 10
2645.750
 20
-3728.856
 30
2477.000
 70
    32
  0
VERTEX
  8
2750LEVEL
 62
5
 10
2642.705
 20
-3716.796
 30
2477.000
 70
    32
  0
VERTEX
  8
2750LEVEL
 62
5
 10
2636.585
 20
-3698.408
 30
2477.000
 70
    32
  0
VERTEX
  8
2750LEVEL
 62
5
 10
2630.254
 20
-3679.355
 30
2477.000
 70
    32
  0
VERTEX
  8
2750LEVEL
 62
5
 10
2624.549
 20
-3659.481
 30
2477.000
 70
    32
  0
VERTEX
  8
2750LEVEL
 62
5
 10
2621.903
 20
-3644.471
 30
2477.000
 70
    32
  0
VERTEX
  8
2750LEVEL
 62
5
 10
2615.876
 20
-3622.673
 30
2477.000
 70
    32
  0
VERTEX
  8
2750LEVEL
 62
5
 10
2609.780
 20
-3604.395
 30
2477.000
 70
    32
  0
VERTEX
  8
2750LEVEL
 62
5
 10
2602.267
 20
-3579.616
 30
2477.000
 70
    32
  0
VERTEX
  8
2750LEVEL
 62
5
 10
2595.412
 20
-3557.263
 30
2477.000
 70
    32
  0
VERTEX
  8
2750LEVEL
 62
5
 10
2591.850
 20
-3542.793
 30
2477.000
 70
    32
  0
VERTEX
  8
2750LEVEL
 62
5
 10
2585.596
 20
-3516.943
 30
2477.000
 70
    32
  0
VERTEX
  8
2750LEVEL
 62
5
 10
2579.640
 20
-3491.625
 30
2477.000
 70
    32
  0
VERTEX
  8
2750LEVEL
 62
5
 10
2576.468
 20
-3466.581
 30
2477.000
 70
    32
  0
VERTEX
  8
2750LEVEL
 62
5
 10
2574.213
 20
-3452.220
 30
2477.000
 70
    32
  0
VERTEX
  8
2750LEVEL
 62
5
 10
2570.744
 20
-3432.416
 30
2477.000
 70
    32
  0
VERTEX
  8
2750LEVEL
 62
5
 10
2568.388
 20
-3418.329
 30
2477.000
 70
    32
  0
VERTEX
  8
2750LEVEL
 62
5
 10
2565.695
 20
-3407.270
 30
2477.000
 70
    32
  0
VERTEX
  8
2750LEVEL
 62
5
 10
2559.772
 20
-3391.612
 30
2477.000
 70
    32
  0
VERTEX
  8
2750LEVEL
 62
5
 10
2554.505
 20
-3378.699
 30
2477.000
 70
    32
  0
VERTEX
  8
2750LEVEL
 62
5
 10
2548.895
 20
-3366.639
 30
2477.000
 70
    32
  0
VERTEX
  8
2750LEVEL
 62
5
 10
2544.842
 20
-3357.887
 30
2477.000
 70
    32
  0
VERTEX
  8
2750LEVEL
 62
5
 10
2543.613
 20
-3353.546
 30
2477.000
 70
    32
  0
VERTEX
  8
2750LEVEL
 62
5
 10
2543.010
 20
-3344.856
 30
2477.000
 70
    32
  0
VERTEX
  8
2750LEVEL
 62
5
 10
2541.796
 20
-3337.488
 30
2477.000
 70
    32
  0
VERTEX
  8
2750LEVEL
 62
5
 10
2541.318
 20
-3333.765
 30
2477.000
 70
    32
  0
VERTEX
  8
2750LEVEL
 62
5
 10
2541.318
 20
-3331.520
 30
2477.000
 70
    32
  0
SEQEND
  8
2750LEVEL
  0
POLYLINE
  8
2750LEVEL
 62
5
 66
     1
 70
     9
  0
VERTEX
  8
2750LEVEL
 62
5
 10
2596.827
 20
-3415.071
 30
2477.000
 70
    32
  0
VERTEX
  8
2750LEVEL
 62
5
 10
2593.699
 20
-3417.574
 30
2477.000
 70
    32
  0
VERTEX
  8
2750LEVEL
 62
5
 10
2591.040
 20
-3419.061
 30
2477.000
 70
    32
  0
VERTEX
  8
2750LEVEL
 62
5
 10
2587.911
 20
-3418.678
 30
2477.000
 70
    32
  0
VERTEX
  8
2750LEVEL
 62
5
 10
2586.964
 20
-3415.972
 30
2477.000
 70
    32
  0
VERTEX
  8
2750LEVEL
 62
5
 10
2586.799
 20
-3413.923
 30
2477.000
 70
    32
  0
VERTEX
  8
2750LEVEL
 62
5
 10
2587.245
 20
-3412.155
 30
2477.000
 70
    32
  0
VERTEX
  8
2750LEVEL
 62
5
 10
2588.011
 20
-3410.387
 30
2477.000
 70
    32
  0
VERTEX
  8
2750LEVEL
 62
5
 10
2588.895
 20
-3408.846
 30
2477.000
 70
    32
  0
SEQEND
  8
2750LEVEL
  0
POLYLINE
  8
2750LEVEL
 62
5
 66
     1
 70
     9
  0
VERTEX
  8
2750LEVEL
 62
5
 10
2582.640
 20
-3708.350
 30
2477.000
 70
    32
  0
VERTEX
  8
2750LEVEL
 62
5
 10
2583.063
 20
-3711.283
 30
2477.000
 70
    32
  0
VERTEX
  8
2750LEVEL
 62
5
 10
2582.813
 20
-3712.895
 30
2477.000
 70
    32
  0
VERTEX
  8
2750LEVEL
 62
5
 10
2581.781
 20
-3713.849
 30
2477.000
 70
    32
  0
VERTEX
  8
2750LEVEL
 62
5
 10
2580.255
 20
-3713.787
 30
2477.000
 70
    32
  0
VERTEX
  8
2750LEVEL
 62
5
 10
2578.988
 20
-3712.684
 30
2477.000
 70
    32
  0
VERTEX
  8
2750LEVEL
 62
5
 10
2578.049
 20
-3711.190
 30
2477.000
 70
    32
  0
SEQEND
  8
2750LEVEL
  0
POLYLINE
  8
2750LEVEL
 62
5
 66
     1
 70
     9
  0
VERTEX
  8
2750LEVEL
 62
5
 10
2576.149
 20
-3714.828
 30
2477.000
 70
    32
  0
VERTEX
  8
2750LEVEL
 62
5
 10
2577.253
 20
-3718.371
 30
2477.000
 70
    32
  0
VERTEX
  8
2750LEVEL
 62
5
 10
2578.967
 20
-3726.044
 30
2477.000
 70
    32
  0
VERTEX
  8
2750LEVEL
 62
5
 10
2580.571
 20
-3731.495
 30
2477.000
 70
    32
  0
VERTEX
  8
2750LEVEL
 62
5
 10
2581.323
 20
-3734.037
 30
2477.000
 70
    32
  0
VERTEX
  8
2750LEVEL
 62
5
 10
2575.778
 20
-3737.769
 30
2477.000
 70
    32
  0
VERTEX
  8
2750LEVEL
 62
5
 10
2574.619
 20
-3733.757
 30
2477.000
 70
    32
  0
VERTEX
  8
2750LEVEL
 62
5
 10
2572.897
 20
-3727.437
 30
2477.000
 70
    32
  0
VERTEX
  8
2750LEVEL
 62
5
 10
2570.542
 20
-3722.009
 30
2477.000
 70
    32
  0
VERTEX
  8
2750LEVEL
 62
5
 10
2569.908
 20
-3718.090
 30
2477.000
 70
    32
  0
SEQEND
  8
2750LEVEL
  0
POLYLINE
  8
2750LEVEL
 62
5
 66
     1
 70
     9
  0
VERTEX
  8
2750LEVEL
 62
5
 10
2487.249
 20
-3772.309
 30
2477.000
 70
    32
  0
VERTEX
  8
2750LEVEL
 62
5
 10
2488.845
 20
-3775.586
 30
2477.000
 70
    32
  0
VERTEX
  8
2750LEVEL
 62
5
 10
2490.112
 20
-3777.971
 30
2477.000
 70
    32
  0
VERTEX
  8
2750LEVEL
 62
5
 10
2491.036
 20
-3780.889
 30
2477.000
 70
    32
  0
VERTEX
  8
2750LEVEL
 62
5
 10
2489.832
 20
-3781.789
 30
2477.000
 70
    32
  0
VERTEX
  8
2750LEVEL
 62
5
 10
2488.611
 20
-3781.226
 30
2477.000
 70
    32
  0
VERTEX
  8
2750LEVEL
 62
5
 10
2486.843
 20
-3780.459
 30
2477.000
 70
    32
  0
VERTEX
  8
2750LEVEL
 62
5
 10
2485.631
 20
-3781.109
 30
2477.000
 70
    32
  0
VERTEX
  8
2750LEVEL
 62
5
 10
2484.826
 20
-3783.549
 30
2477.000
 70
    32
  0
VERTEX
  8
2750LEVEL
 62
5
 10
2486.031
 20
-3787.139
 30
2477.000
 70
    32
  0
VERTEX
  8
2750LEVEL
 62
5
 10
2487.111
 20
-3788.328
 30
2477.000
 70
    32
  0
VERTEX
  8
2750LEVEL
 62
5
 10
2489.684
 20
-3787.616
 30
2477.000
 70
    32
  0
VERTEX
  8
2750LEVEL
 62
5
 10
2491.858
 20
-3787.287
 30
2477.000
 70
    32
  0
VERTEX
  8
2750LEVEL
 62
5
 10
2494.291
 20
-3790.087
 30
2477.000
 70
    32
  0
VERTEX
  8
2750LEVEL
 62
5
 10
2495.848
 20
-3792.433
 30
2477.000
 70
    32
  0
VERTEX
  8
2750LEVEL
 62
5
 10
2496.216
 20
-3793.614
 30
2477.000
 70
    32
  0
VERTEX
  8
2750LEVEL
 62
5
 10
2489.654
 20
-3798.160
 30
2477.000
 70
    32
  0
VERTEX
  8
2750LEVEL
 62
5
 10
2487.894
 20
-3796.682
 30
2477.000
 70
    32
  0
VERTEX
  8
2750LEVEL
 62
5
 10
2486.134
 20
-3795.524
 30
2477.000
 70
    32
  0
VERTEX
  8
2750LEVEL
 62
5
 10
2485.172
 20
-3796.166
 30
2477.000
 70
    32
  0
VERTEX
  8
2750LEVEL
 62
5
 10
2485.532
 20
-3797.738
 30
2477.000
 70
    32
  0
VERTEX
  8
2750LEVEL
 62
5
 10
2486.315
 20
-3799.678
 30
2477.000
 70
    32
  0
VERTEX
  8
2750LEVEL
 62
5
 10
2486.440
 20
-3800.475
 30
2477.000
 70
    32
  0
VERTEX
  8
2750LEVEL
 62
5
 10
2476.460
 20
-3806.922
 30
2477.000
 70
    32
  0
VERTEX
  8
2750LEVEL
 62
5
 10
2475.608
 20
-3804.975
 30
2477.000
 70
    32
  0
VERTEX
  8
2750LEVEL
 62
5
 10
2475.521
 20
-3802.221
 30
2477.000
 70
    32
  0
VERTEX
  8
2750LEVEL
 62
5
 10
2474.355
 20
-3798.921
 30
2477.000
 70
    32
  0
VERTEX
  8
2750LEVEL
 62
5
 10
2472.000
 20
-3797.020
 30
2477.000
 70
    32
  0
VERTEX
  8
2750LEVEL
 62
5
 10
2471.554
 20
-3794.940
 30
2477.000
 70
    32
  0
VERTEX
  8
2750LEVEL
 62
5
 10
2470.443
 20
-3792.429
 30
2477.000
 70
    32
  0
VERTEX
  8
2750LEVEL
 62
5
 10
2469.458
 20
-3792.320
 30
2477.000
 70
    32
  0
VERTEX
  8
2750LEVEL
 62
5
 10
2467.996
 20
-3797.467
 30
2477.000
 70
    32
  0
VERTEX
  8
2750LEVEL
 62
5
 10
2468.434
 20
-3800.901
 30
2477.000
 70
    32
  0
VERTEX
  8
2750LEVEL
 62
5
 10
2470.273
 20
-3804.561
 30
2477.000
 70
    32
  0
VERTEX
  8
2750LEVEL
 62
5
 10
2471.110
 20
-3806.649
 30
2477.000
 70
    32
  0
VERTEX
  8
2750LEVEL
 62
5
 10
2471.721
 20
-3809.176
 30
2477.000
 70
    32
  0
VERTEX
  8
2750LEVEL
 62
5
 10
2471.674
 20
-3810.560
 30
2477.000
 70
    32
  0
VERTEX
  8
2750LEVEL
 62
5
 10
2460.177
 20
-3818.157
 30
2477.000
 70
    32
  0
VERTEX
  8
2750LEVEL
 62
5
 10
2458.824
 20
-3814.622
 30
2477.000
 70
    32
  0
VERTEX
  8
2750LEVEL
 62
5
 10
2457.689
 20
-3811.039
 30
2477.000
 70
    32
  0
VERTEX
  8
2750LEVEL
 62
5
 10
2456.546
 20
-3806.886
 30
2477.000
 70
    32
  0
VERTEX
  8
2750LEVEL
 62
5
 10
2456.108
 20
-3805.056
 30
2477.000
 70
    32
  0
VERTEX
  8
2750LEVEL
 62
5
 10
2458.016
 20
-3803.272
 30
2477.000
 70
    32
  0
VERTEX
  8
2750LEVEL
 62
5
 10
2459.252
 20
-3800.808
 30
2477.000
 70
    32
  0
VERTEX
  8
2750LEVEL
 62
5
 10
2457.992
 20
-3797.070
 30
2477.000
 70
    32
  0
VERTEX
  8
2750LEVEL
 62
5
 10
2457.076
 20
-3793.761
 30
2477.000
 70
    32
  0
VERTEX
  8
2750LEVEL
 62
5
 10
2456.097
 20
-3789.092
 30
2477.000
 70
    32
  0
SEQEND
  8
2750LEVEL
  0
POLYLINE
  8
2750LEVEL
 62
5
 66
     1
 70
     9
  0
VERTEX
  8
2750LEVEL
 62
5
 10
2451.688
 20
-3803.461
 30
2477.000
 70
    32
  0
VERTEX
  8
2750LEVEL
 62
5
 10
2453.387
 20
-3811.916
 30
2477.000
 70
    32
  0
VERTEX
  8
2750LEVEL
 62
5
 10
2454.311
 20
-3817.399
 30
2477.000
 70
    32
  0
VERTEX
  8
2750LEVEL
 62
5
 10
2454.569
 20
-3819.566
 30
2477.000
 70
    32
  0
VERTEX
  8
2750LEVEL
 62
5
 10
2455.070
 20
-3821.795
 30
2477.000
 70
    32
  0
VERTEX
  8
2750LEVEL
 62
5
 10
2438.537
 20
-3833.037
 30
2477.000
 70
    32
  0
VERTEX
  8
2750LEVEL
 62
5
 10
2436.166
 20
-3827.430
 30
2477.000
 70
    32
  0
VERTEX
  8
2750LEVEL
 62
5
 10
2434.507
 20
-3819.264
 30
2477.000
 70
    32
  0
VERTEX
  8
2750LEVEL
 62
5
 10
2434.170
 20
-3816.519
 30
2477.000
 70
    32
  0
VERTEX
  8
2750LEVEL
 62
5
 10
2433.911
 20
-3813.390
 30
2477.000
 70
    32
  0
SEQEND
  8
2750LEVEL
  0
POLYLINE
  8
2750LEVEL
 62
5
 66
     1
 70
     9
  0
VERTEX
  8
2750LEVEL
 62
5
 10
2405.960
 20
-3834.732
 30
2477.000
 70
    32
  0
VERTEX
  8
2750LEVEL
 62
5
 10
2409.121
 20
-3843.171
 30
2477.000
 70
    32
  0
VERTEX
  8
2750LEVEL
 62
5
 10
2411.907
 20
-3849.538
 30
2477.000
 70
    32
  0
VERTEX
  8
2750LEVEL
 62
5
 10
2412.947
 20
-3852.361
 30
2477.000
 70
    32
  0
VERTEX
  8
2750LEVEL
 62
5
 10
2414.223
 20
-3857.883
 30
2477.000
 70
    32
  0
VERTEX
  8
2750LEVEL
 62
5
 10
2415.421
 20
-3866.354
 30
2477.000
 70
    32
  0
VERTEX
  8
2750LEVEL
 62
5
 10
2416.416
 20
-3873.128
 30
2477.000
 70
    32
  0
VERTEX
  8
2750LEVEL
 62
5
 10
2418.092
 20
-3885.321
 30
2477.000
 70
    32
  0
VERTEX
  8
2750LEVEL
 62
5
 10
2418.462
 20
-3898.689
 30
2477.000
 70
    32
  0
VERTEX
  8
2750LEVEL
 62
5
 10
2419.386
 20
-3908.661
 30
2477.000
 70
    32
  0
VERTEX
  8
2750LEVEL
 62
5
 10
2419.919
 20
-3913.174
 30
2477.000
 70
    32
  0
VERTEX
  8
2750LEVEL
 62
5
 10
2419.599
 20
-3916.702
 30
2477.000
 70
    32
  0
VERTEX
  8
2750LEVEL
 62
5
 10
2417.682
 20
-3915.991
 30
2477.000
 70
    32
  0
VERTEX
  8
2750LEVEL
 62
5
 10
2415.428
 20
-3908.365
 30
2477.000
 70
    32
  0
VERTEX
  8
2750LEVEL
 62
5
 10
2412.320
 20
-3890.774
 30
2477.000
 70
    32
  0
VERTEX
  8
2750LEVEL
 62
5
 10
2408.493
 20
-3874.208
 30
2477.000
 70
    32
  0
VERTEX
  8
2750LEVEL
 62
5
 10
2407.482
 20
-3865.010
 30
2477.000
 70
    32
  0
VERTEX
  8
2750LEVEL
 62
5
 10
2404.437
 20
-3850.063
 30
2477.000
 70
    32
  0
VERTEX
  8
2750LEVEL
 62
5
 10
2403.114
 20
-3843.360
 30
2477.000
 70
    32
  0
VERTEX
  8
2750LEVEL
 62
5
 10
2401.643
 20
-3837.995
 30
2477.000
 70
    32
  0
VERTEX
  8
2750LEVEL
 62
5
 10
2401.142
 20
-3836.086
 30
2477.000
 70
    32
  0
VERTEX
  8
2750LEVEL
 62
5
 10
2399.960
 20
-3831.964
 30
2477.000
 70
    32
  0
VERTEX
  8
2750LEVEL
 62
5
 10
2398.825
 20
-3828.382
 30
2477.000
 70
    32
  0
VERTEX
  8
2750LEVEL
 62
5
 10
2398.316
 20
-3825.582
 30
2477.000
 70
    32
  0
VERTEX
  8
2750LEVEL
 62
5
 10
2399.075
 20
-3824.205
 30
2477.000
 70
    32
  0
VERTEX
  8
2750LEVEL
 62
5
 10
2400.678
 20
-3824.847
 30
2477.000
 70
    32
  0
VERTEX
  8
2750LEVEL
 62
5
 10
2402.313
 20
-3827.130
 30
2477.000
 70
    32
  0
VERTEX
  8
2750LEVEL
 62
5
 10
2403.198
 20
-3828.796
 30
2477.000
 70
    32
  0
SEQEND
  8
2750LEVEL
  0
POLYLINE
  8
2750LEVEL
 62
5
 66
     1
 70
     9
  0
VERTEX
  8
2750LEVEL
 62
5
 10
2600.640
 20
-4236.309
 30
2477.000
 70
    32
  0
VERTEX
  8
2750LEVEL
 62
5
 10
2598.519
 20
-4231.655
 30
2477.000
 70
    32
  0
VERTEX
  8
2750LEVEL
 62
5
 10
2597.400
 20
-4227.611
 30
2477.000
 70
    32
  0
VERTEX
  8
2750LEVEL
 62
5
 10
2594.864
 20
-4220.275
 30
2477.000
 70
    32
  0
VERTEX
  8
2750LEVEL
 62
5
 10
2593.729
 20
-4214.769
 30
2477.000
 70
    32
  0
VERTEX
  8
2750LEVEL
 62
5
 10
2592.766
 20
-4208.034
 30
2477.000
 70
    32
  0
VERTEX
  8
2750LEVEL
 62
5
 10
2592.382
 20
-4205.070
 30
2477.000
 70
    32
  0
VERTEX
  8
2750LEVEL
 62
5
 10
2591.897
 20
-4202.379
 30
2477.000
 70
    32
  0
VERTEX
  8
2750LEVEL
 62
5
 10
2607.750
 20
-4191.809
 30
2477.000
 70
    32
  0
VERTEX
  8
2750LEVEL
 62
5
 10
2608.016
 20
-4192.623
 30
2477.000
 70
    32
  0
VERTEX
  8
2750LEVEL
 62
5
 10
2608.579
 20
-4193.968
 30
2477.000
 70
    32
  0
VERTEX
  8
2750LEVEL
 62
5
 10
2609.268
 20
-4195.149
 30
2477.000
 70
    32
  0
VERTEX
  8
2750LEVEL
 62
5
 10
2611.005
 20
-4196.197
 30
2477.000
 70
    32
  0
VERTEX
  8
2750LEVEL
 62
5
 10
2611.348
 20
-4194.382
 30
2477.000
 70
    32
  0
VERTEX
  8
2750LEVEL
 62
5
 10
2610.910
 20
-4192.552
 30
2477.000
 70
    32
  0
VERTEX
  8
2750LEVEL
 62
5
 10
2610.049
 20
-4190.995
 30
2477.000
 70
    32
  0
VERTEX
  8
2750LEVEL
 62
5
 10
2611.528
 20
-4189.877
 30
2477.000
 70
    32
  0
VERTEX
  8
2750LEVEL
 62
5
 10
2612.122
 20
-4191.261
 30
2477.000
 70
    32
  0
VERTEX
  8
2750LEVEL
 62
5
 10
2613.171
 20
-4194.014
 30
2477.000
 70
    32
  0
VERTEX
  8
2750LEVEL
 62
5
 10
2613.875
 20
-4196.658
 30
2477.000
 70
    32
  0
VERTEX
  8
2750LEVEL
 62
5
 10
2614.525
 20
-4199.794
 30
2477.000
 70
    32
  0
VERTEX
  8
2750LEVEL
 62
5
 10
2614.924
 20
-4201.656
 30
2477.000
 70
    32
  0
VERTEX
  8
2750LEVEL
 62
5
 10
2616.020
 20
-4204.949
 30
2477.000
 70
    32
  0
VERTEX
  8
2750LEVEL
 62
5
 10
2616.333
 20
-4204.377
 30
2477.000
 70
    32
  0
VERTEX
  8
2750LEVEL
 62
5
 10
2616.019
 20
-4201.742
 30
2477.000
 70
    32
  0
VERTEX
  8
2750LEVEL
 62
5
 10
2615.612
 20
-4198.988
 30
2477.000
 70
    32
  0
VERTEX
  8
2750LEVEL
 62
5
 10
2615.619
 20
-4196.032
 30
2477.000
 70
    32
  0
VERTEX
  8
2750LEVEL
 62
5
 10
2615.267
 20
-4192.465
 30
2477.000
 70
    32
  0
VERTEX
  8
2750LEVEL
 62
5
 10
2614.132
 20
-4188.242
 30
2477.000
 70
    32
  0
VERTEX
  8
2750LEVEL
 62
5
 10
2629.758
 20
-4177.148
 30
2477.000
 70
    32
  0
VERTEX
  8
2750LEVEL
 62
5
 10
2630.893
 20
-4183.937
 30
2477.000
 70
    32
  0
VERTEX
  8
2750LEVEL
 62
5
 10
2631.856
 20
-4190.350
 30
2477.000
 70
    32
  0
VERTEX
  8
2750LEVEL
 62
5
 10
2634.126
 20
-4197.836
 30
2477.000
 70
    32
  0
VERTEX
  8
2750LEVEL
 62
5
 10
2635.637
 20
-4205.415
 30
2477.000
 70
    32
  0
VERTEX
  8
2750LEVEL
 62
5
 10
2636.475
 20
-4212.634
 30
2477.000
 70
    32
  0
VERTEX
  8
2750LEVEL
 62
5
 10
2637.853
 20
-4220.127
 30
2477.000
 70
    32
  0
VERTEX
  8
2750LEVEL
 62
5
 10
2639.387
 20
-4224.929
 30
2477.000
 70
    32
  0
VERTEX
  8
2750LEVEL
 62
5
 10
2640.482
 20
-4228.222
 30
2477.000
 70
    32
  0
VERTEX
  8
2750LEVEL
 62
5
 10
2641.562
 20
-4231.014
 30
2477.000
 70
    32
  0
VERTEX
  8
2750LEVEL
 62
5
 10
2642.783
 20
-4232.539
 30
2477.000
 70
    32
  0
VERTEX
  8
2750LEVEL
 62
5
 10
2644.277
 20
-4233.204
 30
2477.000
 70
    32
  0
VERTEX
  8
2750LEVEL
 62
5
 10
2645.270
 20
-4234.526
 30
2477.000
 70
    32
  0
VERTEX
  8
2750LEVEL
 62
5
 10
2645.513
 20
-4236.833
 30
2477.000
 70
    32
  0
VERTEX
  8
2750LEVEL
 62
5
 10
2645.466
 20
-4238.538
 30
2477.000
 70
    32
  0
VERTEX
  8
2750LEVEL
 62
5
 10
2645.467
 20
-4239.821
 30
2477.000
 70
    32
  0
VERTEX
  8
2750LEVEL
 62
5
 10
2620.757
 20
-4235.155
 30
2477.000
 70
    32
  0
VERTEX
  8
2750LEVEL
 62
5
 10
2620.530
 20
-4233.990
 30
2477.000
 70
    32
  0
VERTEX
  8
2750LEVEL
 62
5
 10
2619.943
 20
-4232.535
 30
2477.000
 70
    32
  0
VERTEX
  8
2750LEVEL
 62
5
 10
2619.074
 20
-4230.087
 30
2477.000
 70
    32
  0
VERTEX
  8
2750LEVEL
 62
5
 10
2617.713
 20
-4227.584
 30
2477.000
 70
    32
  0
VERTEX
  8
2750LEVEL
 62
5
 10
2616.532
 20
-4226.028
 30
2477.000
 70
    32
  0
VERTEX
  8
2750LEVEL
 62
5
 10
2615.405
 20
-4224.620
 30
2477.000
 70
    32
  0
VERTEX
  8
2750LEVEL
 62
5
 10
2614.036
 20
-4222.188
 30
2477.000
 70
    32
  0
VERTEX
  8
2750LEVEL
 62
5
 10
2613.113
 20
-4220.553
 30
2477.000
 70
    32
  0
VERTEX
  8
2750LEVEL
 62
5
 10
2612.581
 20
-4219.568
 30
2477.000
 70
    32
  0
VERTEX
  8
2750LEVEL
 62
5
 10
2612.088
 20
-4220.475
 30
2477.000
 70
    32
  0
VERTEX
  8
2750LEVEL
 62
5
 10
2612.088
 20
-4221.758
 30
2477.000
 70
    32
  0
VERTEX
  8
2750LEVEL
 62
5
 10
2613.019
 20
-4224.284
 30
2477.000
 70
    32
  0
VERTEX
  8
2750LEVEL
 62
5
 10
2615.280
 20
-4227.029
 30
2477.000
 70
    32
  0
VERTEX
  8
2750LEVEL
 62
5
 10
2616.759
 20
-4229.118
 30
2477.000
 70
    32
  0
VERTEX
  8
2750LEVEL
 62
5
 10
2617.143
 20
-4231.120
 30
2477.000
 70
    32
  0
VERTEX
  8
2750LEVEL
 62
5
 10
2617.581
 20
-4234.554
 30
2477.000
 70
    32
  0
SEQEND
  8
2750LEVEL
  0
POLYLINE
  8
2750LEVEL
 62
5
 66
     1
 70
     9
  0
VERTEX
  8
2750LEVEL
 62
5
 10
2756.425
 20
-4469.770
 30
2477.000
 70
    32
  0
VERTEX
  8
2750LEVEL
 62
5
 10
2753.405
 20
-4462.309
 30
2477.000
 70
    32
  0
VERTEX
  8
2750LEVEL
 62
5
 10
2751.401
 20
-4453.072
 30
2477.000
 70
    32
  0
VERTEX
  8
2750LEVEL
 62
5
 10
2752.111
 20
-4445.703
 30
2477.000
 70
    32
  0
VERTEX
  8
2750LEVEL
 62
5
 10
2754.504
 20
-4442.441
 30
2477.000
 70
    32
  0
VERTEX
  8
2750LEVEL
 62
5
 10
2761.301
 20
-4439.632
 30
2477.000
 70
    32
  0
VERTEX
  8
2750LEVEL
 62
5
 10
2765.986
 20
-4440.116
 30
2477.000
 70
    32
  0
VERTEX
  8
2750LEVEL
 62
5
 10
2772.057
 20
-4443.854
 30
2477.000
 70
    32
  0
VERTEX
  8
2750LEVEL
 62
5
 10
2775.405
 20
-4447.397
 30
2477.000
 70
    32
  0
VERTEX
  8
2750LEVEL
 62
5
 10
2780.608
 20
-4453.818
 30
2477.000
 70
    32
  0
VERTEX
  8
2750LEVEL
 62
5
 10
2783.533
 20
-4457.634
 30
2477.000
 70
    32
  0
VERTEX
  8
2750LEVEL
 62
5
 10
2787.680
 20
-4464.579
 30
2477.000
 70
    32
  0
VERTEX
  8
2750LEVEL
 62
5
 10
2790.192
 20
-4468.920
 30
2477.000
 70
    32
  0
VERTEX
  8
2750LEVEL
 62
5
 10
2793.024
 20
-4472.940
 30
2477.000
 70
    32
  0
VERTEX
  8
2750LEVEL
 62
5
 10
2794.276
 20
-4474.183
 30
2477.000
 70
    32
  0
VERTEX
  8
2750LEVEL
 62
5
 10
2794.197
 20
-4472.322
 30
2477.000
 70
    32
  0
VERTEX
  8
2750LEVEL
 62
5
 10
2790.426
 20
-4465.204
 30
2477.000
 70
    32
  0
VERTEX
  8
2750LEVEL
 62
5
 10
2786.060
 20
-4457.986
 30
2477.000
 70
    32
  0
VERTEX
  8
2750LEVEL
 62
5
 10
2783.275
 20
-4453.864
 30
2477.000
 70
    32
  0
VERTEX
  8
2750LEVEL
 62
5
 10
2781.280
 20
-4450.008
 30
2477.000
 70
    32
  0
VERTEX
  8
2750LEVEL
 62
5
 10
2780.716
 20
-4448.663
 30
2477.000
 70
    32
  0
VERTEX
  8
2750LEVEL
 62
5
 10
2780.591
 20
-4446.262
 30
2477.000
 70
    32
  0
VERTEX
  8
2750LEVEL
 62
5
 10
2781.904
 20
-4444.697
 30
2477.000
 70
    32
  0
VERTEX
  8
2750LEVEL
 62
5
 10
2784.595
 20
-4445.495
 30
2477.000
 70
    32
  0
VERTEX
  8
2750LEVEL
 62
5
 10
2790.251
 20
-4450.398
 30
2477.000
 70
    32
  0
VERTEX
  8
2750LEVEL
 62
5
 10
2796.416
 20
-4458.422
 30
2477.000
 70
    32
  0
VERTEX
  8
2750LEVEL
 62
5
 10
2805.961
 20
-4473.556
 30
2477.000
 70
    32
  0
VERTEX
  8
2750LEVEL
 62
5
 10
2814.685
 20
-4487.101
 30
2477.000
 70
    32
  0
VERTEX
  8
2750LEVEL
 62
5
 10
2825.356
 20
-4502.039
 30
2477.000
 70
    32
  0
VERTEX
  8
2750LEVEL
 62
5
 10
2831.748
 20
-4511.870
 30
2477.000
 70
    32
  0
VERTEX
  8
2750LEVEL
 62
5
 10
2841.074
 20
-4526.409
 30
2477.000
 70
    32
  0
VERTEX
  8
2750LEVEL
 62
5
 10
2847.161
 20
-4536.420
 30
2477.000
 70
    32
  0
VERTEX
  8
2750LEVEL
 62
5
 10
2852.638
 20
-4545.508
 30
2477.000
 70
    32
  0
VERTEX
  8
2750LEVEL
 62
5
 10
2857.105
 20
-4553.736
 30
2477.000
 70
    32
  0
VERTEX
  8
2750LEVEL
 62
5
 10
2860.376
 20
-4559.586
 30
2477.000
 70
    32
  0
VERTEX
  8
2750LEVEL
 62
5
 10
2863.122
 20
-4564.380
 30
2477.000
 70
    32
  0
SEQEND
  8
2750LEVEL
  0
POLYLINE
  8
2750LEVEL
 62
5
 66
     1
 70
     9
  0
VERTEX
  8
2750LEVEL
 62
5
 10
2698.220
 20
-4403.131
 30
2477.000
 70
    32
  0
VERTEX
  8
2750LEVEL
 62
5
 10
2694.167
 20
-4391.813
 30
2477.000
 70
    32
  0
VERTEX
  8
2750LEVEL
 62
5
 10
2691.068
 20
-4382.490
 30
2477.000
 70
    32
  0
VERTEX
  8
2750LEVEL
 62
5
 10
2686.091
 20
-4369.538
 30
2477.000
 70
    32
  0
VERTEX
  8
2750LEVEL
 62
5
 10
2680.628
 20
-4351.651
 30
2477.000
 70
    32
  0
VERTEX
  8
2750LEVEL
 62
5
 10
2676.199
 20
-4337.940
 30
2477.000
 70
    32
  0
VERTEX
  8
2750LEVEL
 62
5
 10
2669.343
 20
-4313.342
 30
2477.000
 70
    32
  0
VERTEX
  8
2750LEVEL
 62
5
 10
2661.266
 20
-4280.804
 30
2477.000
 70
    32
  0
VERTEX
  8
2750LEVEL
 62
5
 10
2654.738
 20
-4257.098
 30
2477.000
 70
    32
  0
VERTEX
  8
2750LEVEL
 62
5
 10
2650.817
 20
-4242.659
 30
2477.000
 70
    32
  0
VERTEX
  8
2750LEVEL
 62
5
 10
2648.422
 20
-4232.773
 30
2477.000
 70
    32
  0
VERTEX
  8
2750LEVEL
 62
5
 10
2645.879
 20
-4226.148
 30
2477.000
 70
    32
  0
VERTEX
  8
2750LEVEL
 62
5
 10
2643.891
 20
-4218.053
 30
2477.000
 70
    32
  0
VERTEX
  8
2750LEVEL
 62
5
 10
2641.683
 20
-4206.798
 30
2477.000
 70
    32
  0
VERTEX
  8
2750LEVEL
 62
5
 10
2640.634
 20
-4200.838
 30
2477.000
 70
    32
  0
VERTEX
  8
2750LEVEL
 62
5
 10
2638.974
 20
-4191.069
 30
2477.000
 70
    32
  0
VERTEX
  8
2750LEVEL
 62
5
 10
2636.869
 20
-4183.709
 30
2477.000
 70
    32
  0
VERTEX
  8
2750LEVEL
 62
5
 10
2634.858
 20
-4175.825
 30
2477.000
 70
    32
  0
VERTEX
  8
2750LEVEL
 62
5
 10
2633.597
 20
-4167.597
 30
2477.000
 70
    32
  0
VERTEX
  8
2750LEVEL
 62
5
 10
2633.252
 20
-4162.998
 30
2477.000
 70
    32
  0
VERTEX
  8
2750LEVEL
 62
5
 10
2643.677
 20
-4156.707
 30
2477.000
 70
    32
  0
VERTEX
  8
2750LEVEL
 62
5
 10
2646.870
 20
-4163.903
 30
2477.000
 70
    32
  0
VERTEX
  8
2750LEVEL
 62
5
 10
2648.819
 20
-4170.746
 30
2477.000
 70
    32
  0
VERTEX
  8
2750LEVEL
 62
5
 10
2650.885
 20
-4180.703
 30
2477.000
 70
    32
  0
VERTEX
  8
2750LEVEL
 62
5
 10
2652.740
 20
-4189.995
 30
2477.000
 70
    32
  0
VERTEX
  8
2750LEVEL
 62
5
 10
2653.884
 20
-4197.676
 30
2477.000
 70
    32
  0
VERTEX
  8
2750LEVEL
 62
5
 10
2656.240
 20
-4207.914
 30
2477.000
 70
    32
  0
VERTEX
  8
2750LEVEL
 62
5
 10
2658.604
 20
-4218.403
 30
2477.000
 70
    32
  0
VERTEX
  8
2750LEVEL
 62
5
 10
2660.740
 20
-4224.840
 30
2477.000
 70
    32
  0
VERTEX
  8
2750LEVEL
 62
5
 10
2662.759
 20
-4229.767
 30
2477.000
 70
    32
  0
VERTEX
  8
2750LEVEL
 62
5
 10
2664.402
 20
-4231.980
 30
2477.000
 70
    32
  0
VERTEX
  8
2750LEVEL
 62
5
 10
2665.325
 20
-4231.691
 30
2477.000
 70
    32
  0
VERTEX
  8
2750LEVEL
 62
5
 10
2664.127
 20
-4227.710
 30
2477.000
 70
    32
  0
VERTEX
  8
2750LEVEL
 62
5
 10
2662.062
 20
-4221.922
 30
2477.000
 70
    32
  0
VERTEX
  8
2750LEVEL
 62
5
 10
2659.463
 20
-4213.866
 30
2477.000
 70
    32
  0
VERTEX
  8
2750LEVEL
 62
5
 10
2658.250
 20
-4206.498
 30
2477.000
 70
    32
  0
VERTEX
  8
2750LEVEL
 62
5
 10
2658.100
 20
-4201.422
 30
2477.000
 70
    32
  0
VERTEX
  8
2750LEVEL
 62
5
 10
2658.350
 20
-4200.452
 30
2477.000
 70
    32
  0
VERTEX
  8
2750LEVEL
 62
5
 10
2660.455
 20
-4201.077
 30
2477.000
 70
    32
  0
VERTEX
  8
2750LEVEL
 62
5
 10
2665.415
 20
-4210.322
 30
2477.000
 70
    32
  0
VERTEX
  8
2750LEVEL
 62
5
 10
2669.054
 20
-4218.315
 30
2477.000
 70
    32
  0
VERTEX
  8
2750LEVEL
 62
5
 10
2670.611
 20
-4221.944
 30
2477.000
 70
    32
  0
VERTEX
  8
2750LEVEL
 62
5
 10
2672.497
 20
-4227.747
 30
2477.000
 70
    32
  0
VERTEX
  8
2750LEVEL
 62
5
 10
2673.546
 20
-4232.104
 30
2477.000
 70
    32
  0
VERTEX
  8
2750LEVEL
 62
5
 10
2673.640
 20
-4235.428
 30
2477.000
 70
    32
  0
VERTEX
  8
2750LEVEL
 62
5
 10
2674.078
 20
-4237.900
 30
2477.000
 70
    32
  0
VERTEX
  8
2750LEVEL
 62
5
 10
2675.597
 20
-4242.522
 30
2477.000
 70
    32
  0
VERTEX
  8
2750LEVEL
 62
5
 10
2677.795
 20
-4248.396
 30
2477.000
 70
    32
  0
VERTEX
  8
2750LEVEL
 62
5
 10
2680.151
 20
-4254.465
 30
2477.000
 70
    32
  0
VERTEX
  8
2750LEVEL
 62
5
 10
2682.906
 20
-4264.641
 30
2477.000
 70
    32
  0
VERTEX
  8
2750LEVEL
 62
5
 10
2684.456
 20
-4270.906
 30
2477.000
 70
    32
  0
VERTEX
  8
2750LEVEL
 62
5
 10
2685.810
 20
-4278.931
 30
2477.000
 70
    32
  0
VERTEX
  8
2750LEVEL
 62
5
 10
2686.711
 20
-4288.153
 30
2477.000
 70
    32
  0
VERTEX
  8
2750LEVEL
 62
5
 10
2687.894
 20
-4301.895
 30
2477.000
 70
    32
  0
VERTEX
  8
2750LEVEL
 62
5
 10
2688.373
 20
-4311.711
 30
2477.000
 70
    32
  0
VERTEX
  8
2750LEVEL
 62
5
 10
2688.875
 20
-4319.072
 30
2477.000
 70
    32
  0
VERTEX
  8
2750LEVEL
 62
5
 10
2689.909
 20
-4329.021
 30
2477.000
 70
    32
  0
VERTEX
  8
2750LEVEL
 62
5
 10
2693.627
 20
-4343.686
 30
2477.000
 70
    32
  0
VERTEX
  8
2750LEVEL
 62
5
 10
2696.483
 20
-4353.267
 30
2477.000
 70
    32
  0
VERTEX
  8
2750LEVEL
 62
5
 10
2699.621
 20
-4361.917
 30
2477.000
 70
    32
  0
VERTEX
  8
2750LEVEL
 62
5
 10
2703.432
 20
-4373.493
 30
2477.000
 70
    32
  0
VERTEX
  8
2750LEVEL
 62
5
 10
2705.459
 20
-4378.671
 30
2477.000
 70
    32
  0
VERTEX
  8
2750LEVEL
 62
5
 10
2707.830
 20
-4384.279
 30
2477.000
 70
    32
  0
VERTEX
  8
2750LEVEL
 62
5
 10
2709.340
 20
-4388.009
 30
2477.000
 70
    32
  0
VERTEX
  8
2750LEVEL
 62
5
 10
2710.686
 20
-4390.973
 30
2477.000
 70
    32
  0
VERTEX
  8
2750LEVEL
 62
5
 10
2711.453
 20
-4393.375
 30
2477.000
 70
    32
  0
VERTEX
  8
2750LEVEL
 62
5
 10
2705.501
 20
-4397.881
 30
2477.000
 70
    32
  0
VERTEX
  8
2750LEVEL
 62
5
 10
2704.038
 20
-4394.369
 30
2477.000
 70
    32
  0
VERTEX
  8
2750LEVEL
 62
5
 10
2702.434
 20
-4390.521
 30
2477.000
 70
    32
  0
VERTEX
  8
2750LEVEL
 62
5
 10
2700.767
 20
-4386.595
 30
2477.000
 70
    32
  0
VERTEX
  8
2750LEVEL
 62
5
 10
2698.811
 20
-4381.104
 30
2477.000
 70
    32
  0
VERTEX
  8
2750LEVEL
 62
5
 10
2697.027
 20
-4376.631
 30
2477.000
 70
    32
  0
VERTEX
  8
2750LEVEL
 62
5
 10
2694.343
 20
-4371.915
 30
2477.000
 70
    32
  0
VERTEX
  8
2750LEVEL
 62
5
 10
2693.397
 20
-4373.377
 30
2477.000
 70
    32
  0
VERTEX
  8
2750LEVEL
 62
5
 10
2693.789
 20
-4375.309
 30
2477.000
 70
    32
  0
VERTEX
  8
2750LEVEL
 62
5
 10
2695.854
 20
-4380.135
 30
2477.000
 70
    32
  0
VERTEX
  8
2750LEVEL
 62
5
 10
2697.638
 20
-4384.929
 30
2477.000
 70
    32
  0
VERTEX
  8
2750LEVEL
 62
5
 10
2699.650
 20
-4391.531
 30
2477.000
 70
    32
  0
VERTEX
  8
2750LEVEL
 62
5
 10
2702.303
 20
-4398.773
 30
2477.000
 70
    32
  0
SEQEND
  8
2750LEVEL
  0
POLYLINE
  8
2750LEVEL
 62
5
 66
     1
 70
     9
  0
VERTEX
  8
2750LEVEL
 62
5
 10
2504.631
 20
-3787.778
 30
2477.000
 70
    32
  0
VERTEX
  8
2750LEVEL
 62
5
 10
2502.026
 20
-3783.640
 30
2477.000
 70
    32
  0
VERTEX
  8
2750LEVEL
 62
5
 10
2499.483
 20
-3780.543
 30
2477.000
 70
    32
  0
VERTEX
  8
2750LEVEL
 62
5
 10
2498.466
 20
-3778.150
 30
2477.000
 70
    32
  0
VERTEX
  8
2750LEVEL
 62
5
 10
2497.019
 20
-3775.460
 30
2477.000
 70
    32
  0
VERTEX
  8
2750LEVEL
 62
5
 10
2495.595
 20
-3773.199
 30
2477.000
 70
    32
  0
VERTEX
  8
2750LEVEL
 62
5
 10
2494.859
 20
-3771.799
 30
2477.000
 70
    32
  0
VERTEX
  8
2750LEVEL
 62
5
 10
2539.977
 20
-3736.719
 30
2477.000
 70
    32
  0
VERTEX
  8
2750LEVEL
 62
5
 10
2539.626
 20
-3744.056
 30
2477.000
 70
    32
  0
VERTEX
  8
2750LEVEL
 62
5
 10
2537.852
 20
-3749.453
 30
2477.000
 70
    32
  0
VERTEX
  8
2750LEVEL
 62
5
 10
2535.069
 20
-3757.518
 30
2477.000
 70
    32
  0
VERTEX
  8
2750LEVEL
 62
5
 10
2532.793
 20
-3762.931
 30
2477.000
 70
    32
  0
VERTEX
  8
2750LEVEL
 62
5
 10
2531.988
 20
-3764.730
 30
2477.000
 70
    32
  0
VERTEX
  8
2750LEVEL
 62
5
 10
2531.785
 20
-3766.881
 30
2477.000
 70
    32
  0
VERTEX
  8
2750LEVEL
 62
5
 10
2531.347
 20
-3769.220
 30
2477.000
 70
    32
  0
VERTEX
  8
2750LEVEL
 62
5
 10
2529.188
 20
-3768.446
 30
2477.000
 70
    32
  0
VERTEX
  8
2750LEVEL
 62
5
 10
2527.780
 20
-3766.686
 30
2477.000
 70
    32
  0
VERTEX
  8
2750LEVEL
 62
5
 10
2524.980
 20
-3764.950
 30
2477.000
 70
    32
  0
VERTEX
  8
2750LEVEL
 62
5
 10
2522.891
 20
-3763.222
 30
2477.000
 70
    32
  0
VERTEX
  8
2750LEVEL
 62
5
 10
2522.015
 20
-3762.769
 30
2477.000
 70
    32
  0
VERTEX
  8
2750LEVEL
 62
5
 10
2522.774
 20
-3765.240
 30
2477.000
 70
    32
  0
VERTEX
  8
2750LEVEL
 62
5
 10
2525.161
 20
-3770.707
 30
2477.000
 70
    32
  0
VERTEX
  8
2750LEVEL
 62
5
 10
2526.045
 20
-3773.335
 30
2477.000
 70
    32
  0
VERTEX
  8
2750LEVEL
 62
5
 10
2527.164
 20
-3775.775
 30
2477.000
 70
    32
  0
VERTEX
  8
2750LEVEL
 62
5
 10
2514.994
 20
-3778.843
 30
2477.000
 70
    32
  0
VERTEX
  8
2750LEVEL
 62
5
 10
2513.147
 20
-3775.574
 30
2477.000
 70
    32
  0
VERTEX
  8
2750LEVEL
 62
5
 10
2511.089
 20
-3770.678
 30
2477.000
 70
    32
  0
VERTEX
  8
2750LEVEL
 62
5
 10
2510.001
 20
-3767.636
 30
2477.000
 70
    32
  0
VERTEX
  8
2750LEVEL
 62
5
 10
2509.188
 20
-3768.864
 30
2477.000
 70
    32
  0
VERTEX
  8
2750LEVEL
 62
5
 10
2508.602
 20
-3771.899
 30
2477.000
 70
    32
  0
VERTEX
  8
2750LEVEL
 62
5
 10
2509.338
 20
-3774.902
 30
2477.000
 70
    32
  0
VERTEX
  8
2750LEVEL
 62
5
 10
2511.200
 20
-3778.351
 30
2477.000
 70
    32
  0
VERTEX
  8
2750LEVEL
 62
5
 10
2512.006
 20
-3780.080
 30
2477.000
 70
    32
  0
SEQEND
  8
2750LEVEL
  0
POLYLINE
  8
2750LEVEL
 62
5
 66
     1
 70
     9
  0
VERTEX
  8
2750LEVEL
 62
5
 10
2725.813
 20
-4385.668
 30
2477.000
 70
    32
  0
VERTEX
  8
2750LEVEL
 62
5
 10
2722.354
 20
-4376.697
 30
2477.000
 70
    32
  0
VERTEX
  8
2750LEVEL
 62
5
 10
2719.184
 20
-4365.121
 30
2477.000
 70
    32
  0
VERTEX
  8
2750LEVEL
 62
5
 10
2715.435
 20
-4351.700
 30
2477.000
 70
    32
  0
VERTEX
  8
2750LEVEL
 62
5
 10
2713.518
 20
-4343.933
 30
2477.000
 70
    32
  0
VERTEX
  8
2750LEVEL
 62
5
 10
2713.079
 20
-4340.820
 30
2477.000
 70
    32
  0
VERTEX
  8
2750LEVEL
 62
5
 10
2713.431
 20
-4337.652
 30
2477.000
 70
    32
  0
VERTEX
  8
2750LEVEL
 62
5
 10
2714.361
 20
-4336.651
 30
2477.000
 70
    32
  0
VERTEX
  8
2750LEVEL
 62
5
 10
2717.318
 20
-4339.544
 30
2477.000
 70
    32
  0
VERTEX
  8
2750LEVEL
 62
5
 10
2721.825
 20
-4349.024
 30
2477.000
 70
    32
  0
VERTEX
  8
2750LEVEL
 62
5
 10
2725.088
 20
-4357.189
 30
2477.000
 70
    32
  0
VERTEX
  8
2750LEVEL
 62
5
 10
2727.639
 20
-4364.705
 30
2477.000
 70
    32
  0
VERTEX
  8
2750LEVEL
 62
5
 10
2730.057
 20
-4371.494
 30
2477.000
 70
    32
  0
VERTEX
  8
2750LEVEL
 62
5
 10
2731.247
 20
-4376.187
 30
2477.000
 70
    32
  0
SEQEND
  8
2750LEVEL
  0
POLYLINE
  8
2750LEVEL
 62
13
 66
     1
 70
     9
  0
VERTEX
  8
2750LEVEL
 62
13
 10
2372.039
 20
-3848.215
 30
2477.000
 70
    32
  0
VERTEX
  8
2750LEVEL
 62
13
 10
2372.978
 20
-3850.350
 30
2477.000
 70
    32
  0
VERTEX
  8
2750LEVEL
 62
13
 10
2372.689
 20
-3852.634
 30
2477.000
 70
    32
  0
VERTEX
  8
2750LEVEL
 62
13
 10
2370.866
 20
-3852.040
 30
2477.000
 70
    32
  0
VERTEX
  8
2750LEVEL
 62
13
 10
2364.264
 20
-3845.392
 30
2477.000
 70
    32
  0
VERTEX
  8
2750LEVEL
 62
13
 10
2359.937
 20
-3839.425
 30
2477.000
 70
    32
  0
VERTEX
  8
2750LEVEL
 62
13
 10
2353.538
 20
-3831.589
 30
2477.000
 70
    32
  0
VERTEX
  8
2750LEVEL
 62
13
 10
2351.214
 20
-3829.086
 30
2477.000
 70
    32
  0
VERTEX
  8
2750LEVEL
 62
13
 10
2350.151
 20
-3829.360
 30
2477.000
 70
    32
  0
VERTEX
  8
2750LEVEL
 62
13
 10
2348.853
 20
-3832.067
 30
2477.000
 70
    32
  0
VERTEX
  8
2750LEVEL
 62
13
 10
2347.179
 20
-3834.304
 30
2477.000
 70
    32
  0
VERTEX
  8
2750LEVEL
 62
13
 10
2347.165
 20
-3842.462
 30
2477.000
 70
    32
  0
VERTEX
  8
2750LEVEL
 62
13
 10
2349.576
 20
-3852.528
 30
2477.000
 70
    32
  0
VERTEX
  8
2750LEVEL
 62
13
 10
2351.063
 20
-3862.243
 30
2477.000
 70
    32
  0
VERTEX
  8
2750LEVEL
 62
13
 10
2351.026
 20
-3870.933
 30
2477.000
 70
    32
  0
VERTEX
  8
2750LEVEL
 62
13
 10
2349.564
 20
-3875.438
 30
2477.000
 70
    32
  0
VERTEX
  8
2750LEVEL
 62
13
 10
2346.397
 20
-3880.218
 30
2477.000
 70
    32
  0
VERTEX
  8
2750LEVEL
 62
13
 10
2344.614
 20
-3881.837
 30
2477.000
 70
    32
  0
VERTEX
  8
2750LEVEL
 62
13
 10
2343.143
 20
-3883.206
 30
2477.000
 70
    32
  0
VERTEX
  8
2750LEVEL
 62
13
 10
2341.923
 20
-3882.964
 30
2477.000
 70
    32
  0
VERTEX
  8
2750LEVEL
 62
13
 10
2341.032
 20
-3883.613
 30
2477.000
 70
    32
  0
VERTEX
  8
2750LEVEL
 62
13
 10
2340.523
 20
-3884.662
 30
2477.000
 70
    32
  0
VERTEX
  8
2750LEVEL
 62
13
 10
2342.729
 20
-3885.334
 30
2477.000
 70
    32
  0
VERTEX
  8
2750LEVEL
 62
13
 10
2345.928
 20
-3885.083
 30
2477.000
 70
    32
  0
VERTEX
  8
2750LEVEL
 62
13
 10
2349.472
 20
-3886.225
 30
2477.000
 70
    32
  0
VERTEX
  8
2750LEVEL
 62
13
 10
2351.513
 20
-3888.375
 30
2477.000
 70
    32
  0
VERTEX
  8
2750LEVEL
 62
13
 10
2349.269
 20
-3889.017
 30
2477.000
 70
    32
  0
VERTEX
  8
2750LEVEL
 62
13
 10
2346.210
 20
-3888.642
 30
2477.000
 70
    32
  0
VERTEX
  8
2750LEVEL
 62
13
 10
2341.064
 20
-3891.029
 30
2477.000
 70
    32
  0
VERTEX
  8
2750LEVEL
 62
13
 10
2337.161
 20
-3893.767
 30
2477.000
 70
    32
  0
VERTEX
  8
2750LEVEL
 62
13
 10
2332.938
 20
-3894.260
 30
2477.000
 70
    32
  0
VERTEX
  8
2750LEVEL
 62
13
 10
2331.147
 20
-3895.629
 30
2477.000
 70
    32
  0
VERTEX
  8
2750LEVEL
 62
13
 10
2325.507
 20
-3894.434
 30
2477.000
 70
    32
  0
VERTEX
  8
2750LEVEL
 62
13
 10
2320.516
 20
-3892.205
 30
2477.000
 70
    32
  0
VERTEX
  8
2750LEVEL
 62
13
 10
2312.280
 20
-3889.047
 30
2477.000
 70
    32
  0
VERTEX
  8
2750LEVEL
 62
13
 10
2304.190
 20
-3877.495
 30
2477.000
 70
    32
  0
VERTEX
  8
2750LEVEL
 62
13
 10
2297.610
 20
-3866.147
 30
2477.000
 70
    32
  0
VERTEX
  8
2750LEVEL
 62
13
 10
2291.131
 20
-3851.959
 30
2477.000
 70
    32
  0
VERTEX
  8
2750LEVEL
 62
13
 10
2285.497
 20
-3837.545
 30
2477.000
 70
    32
  0
VERTEX
  8
2750LEVEL
 62
13
 10
2283.924
 20
-3831.812
 30
2477.000
 70
    32
  0
VERTEX
  8
2750LEVEL
 62
13
 10
2285.511
 20
-3827.462
 30
2477.000
 70
    32
  0
VERTEX
  8
2750LEVEL
 62
13
 10
2285.620
 20
-3823.591
 30
2477.000
 70
    32
  0
VERTEX
  8
2750LEVEL
 62
13
 10
2285.283
 20
-3821.487
 30
2477.000
 70
    32
  0
VERTEX
  8
2750LEVEL
 62
13
 10
2286.597
 20
-3821.205
 30
2477.000
 70
    32
  0
VERTEX
  8
2750LEVEL
 62
13
 10
2289.680
 20
-3823.934
 30
2477.000
 70
    32
  0
VERTEX
  8
2750LEVEL
 62
13
 10
2292.723
 20
-3827.015
 30
2477.000
 70
    32
  0
VERTEX
  8
2750LEVEL
 62
13
 10
2293.935
 20
-3826.366
 30
2477.000
 70
    32
  0
VERTEX
  8
2750LEVEL
 62
13
 10
2292.652
 20
-3823.801
 30
2477.000
 70
    32
  0
VERTEX
  8
2750LEVEL
 62
13
 10
2291.478
 20
-3821.212
 30
2477.000
 70
    32
  0
VERTEX
  8
2750LEVEL
 62
13
 10
2291.564
 20
-3820.437
 30
2477.000
 70
    32
  0
VERTEX
  8
2750LEVEL
 62
13
 10
2293.144
 20
-3822.573
 30
2477.000
 70
    32
  0
VERTEX
  8
2750LEVEL
 62
13
 10
2294.490
 20
-3824.575
 30
2477.000
 70
    32
  0
VERTEX
  8
2750LEVEL
 62
13
 10
2294.920
 20
-3824.872
 30
2477.000
 70
    32
  0
VERTEX
  8
2750LEVEL
 62
13
 10
2295.084
 20
-3822.431
 30
2477.000
 70
    32
  0
VERTEX
  8
2750LEVEL
 62
13
 10
2295.068
 20
-3820.969
 30
2477.000
 70
    32
  0
VERTEX
  8
2750LEVEL
 62
13
 10
2294.582
 20
-3814.109
 30
2477.000
 70
    32
  0
VERTEX
  8
2750LEVEL
 62
13
 10
2291.280
 20
-3805.975
 30
2477.000
 70
    32
  0
VERTEX
  8
2750LEVEL
 62
13
 10
2288.409
 20
-3801.024
 30
2477.000
 70
    32
  0
VERTEX
  8
2750LEVEL
 62
13
 10
2284.677
 20
-3798.686
 30
2477.000
 70
    32
  0
VERTEX
  8
2750LEVEL
 62
13
 10
2281.392
 20
-3798.429
 30
2477.000
 70
    32
  0
VERTEX
  8
2750LEVEL
 62
13
 10
2279.859
 20
-3799.720
 30
2477.000
 70
    32
  0
VERTEX
  8
2750LEVEL
 62
13
 10
2278.788
 20
-3801.988
 30
2477.000
 70
    32
  0
VERTEX
  8
2750LEVEL
 62
13
 10
2277.138
 20
-3803.373
 30
2477.000
 70
    32
  0
VERTEX
  8
2750LEVEL
 62
13
 10
2277.561
 20
-3805.985
 30
2477.000
 70
    32
  0
VERTEX
  8
2750LEVEL
 62
13
 10
2278.617
 20
-3808.989
 30
2477.000
 70
    32
  0
VERTEX
  8
2750LEVEL
 62
13
 10
2278.954
 20
-3809.810
 30
2477.000
 70
    32
  0
VERTEX
  8
2750LEVEL
 62
13
 10
2278.758
 20
-3810.608
 30
2477.000
 70
    32
  0
VERTEX
  8
2750LEVEL
 62
13
 10
2276.458
 20
-3808.856
 30
2477.000
 70
    32
  0
VERTEX
  8
2750LEVEL
 62
13
 10
2272.602
 20
-3806.041
 30
2477.000
 70
    32
  0
VERTEX
  8
2750LEVEL
 62
13
 10
2267.869
 20
-3804.376
 30
2477.000
 70
    32
  0
VERTEX
  8
2750LEVEL
 62
13
 10
2263.888
 20
-3803.649
 30
2477.000
 70
    32
  0
VERTEX
  8
2750LEVEL
 62
13
 10
2260.391
 20
-3802.085
 30
2477.000
 70
    32
  0
VERTEX
  8
2750LEVEL
 62
13
 10
2257.302
 20
-3802.633
 30
2477.000
 70
    32
  0
VERTEX
  8
2750LEVEL
 62
13
 10
2255.011
 20
-3805.942
 30
2477.000
 70
    32
  0
VERTEX
  8
2750LEVEL
 62
13
 10
2253.798
 20
-3807.233
 30
2477.000
 70
    32
  0
VERTEX
  8
2750LEVEL
 62
13
 10
2251.507
 20
-3808.938
 30
2477.000
 70
    32
  0
VERTEX
  8
2750LEVEL
 62
13
 10
2248.324
 20
-3810.652
 30
2477.000
 70
    32
  0
VERTEX
  8
2750LEVEL
 62
13
 10
2244.538
 20
-3809.769
 30
2477.000
 70
    32
  0
VERTEX
  8
2750LEVEL
 62
13
 10
2241.620
 20
-3808.126
 30
2477.000
 70
    32
  0
VERTEX
  8
2750LEVEL
 62
13
 10
2239.375
 20
-3808.127
 30
2477.000
 70
    32
  0
VERTEX
  8
2750LEVEL
 62
13
 10
2238.546
 20
-3809.816
 30
2477.000
 70
    32
  0
VERTEX
  8
2750LEVEL
 62
13
 10
2236.482
 20
-3812.046
 30
2477.000
 70
    32
  0
VERTEX
  8
2750LEVEL
 62
13
 10
2235.222
 20
-3810.873
 30
2477.000
 70
    32
  0
VERTEX
  8
2750LEVEL
 62
13
 10
2234.088
 20
-3807.932
 30
2477.000
 70
    32
  0
VERTEX
  8
2750LEVEL
 62
13
 10
2233.610
 20
-3807.737
 30
2477.000
 70
    32
  0
VERTEX
  8
2750LEVEL
 62
13
 10
2232.539
 20
-3808.081
 30
2477.000
 70
    32
  0
VERTEX
  8
2750LEVEL
 62
13
 10
2231.131
 20
-3806.963
 30
2477.000
 70
    32
  0
VERTEX
  8
2750LEVEL
 62
13
 10
2230.114
 20
-3806.494
 30
2477.000
 70
    32
  0
VERTEX
  8
2750LEVEL
 62
13
 10
2230.044
 20
-3810.013
 30
2477.000
 70
    32
  0
VERTEX
  8
2750LEVEL
 62
13
 10
2232.103
 20
-3817.796
 30
2477.000
 70
    32
  0
VERTEX
  8
2750LEVEL
 62
13
 10
2232.322
 20
-3823.521
 30
2477.000
 70
    32
  0
VERTEX
  8
2750LEVEL
 62
13
 10
2231.838
 20
-3827.886
 30
2477.000
 70
    32
  0
VERTEX
  8
2750LEVEL
 62
13
 10
2228.460
 20
-3832.963
 30
2477.000
 70
    32
  0
VERTEX
  8
2750LEVEL
 62
13
 10
2223.611
 20
-3836.522
 30
2477.000
 70
    32
  0
VERTEX
  8
2750LEVEL
 62
13
 10
2215.625
 20
-3838.166
 30
2477.000
 70
    32
  0
VERTEX
  8
2750LEVEL
 62
13
 10
2209.955
 20
-3838.535
 30
2477.000
 70
    32
  0
VERTEX
  8
2750LEVEL
 62
13
 10
2200.217
 20
-3838.310
 30
2477.000
 70
    32
  0
VERTEX
  8
2750LEVEL
 62
13
 10
2195.406
 20
-3836.707
 30
2477.000
 70
    32
  0
VERTEX
  8
2750LEVEL
 62
13
 10
2188.632
 20
-3833.533
 30
2477.000
 70
    32
  0
VERTEX
  8
2750LEVEL
 62
13
 10
2182.468
 20
-3830.319
 30
2477.000
 70
    32
  0
VERTEX
  8
2750LEVEL
 62
13
 10
2176.522
 20
-3825.134
 30
2477.000
 70
    32
  0
VERTEX
  8
2750LEVEL
 62
13
 10
2173.486
 20
-3819.096
 30
2477.000
 70
    32
  0
VERTEX
  8
2750LEVEL
 62
13
 10
2165.428
 20
-3808.225
 30
2477.000
 70
    32
  0
VERTEX
  8
2750LEVEL
 62
13
 10
2154.375
 20
-3799.623
 30
2477.000
 70
    32
  0
VERTEX
  8
2750LEVEL
 62
13
 10
2147.874
 20
-3793.985
 30
2477.000
 70
    32
  0
VERTEX
  8
2750LEVEL
 62
13
 10
2142.084
 20
-3785.147
 30
2477.000
 70
    32
  0
VERTEX
  8
2750LEVEL
 62
13
 10
2140.284
 20
-3777.928
 30
2477.000
 70
    32
  0
VERTEX
  8
2750LEVEL
 62
13
 10
2140.228
 20
-3770.403
 30
2477.000
 70
    32
  0
VERTEX
  8
2750LEVEL
 62
13
 10
2141.141
 20
-3758.319
 30
2477.000
 70
    32
  0
VERTEX
  8
2750LEVEL
 62
13
 10
2141.750
 20
-3748.979
 30
2477.000
 70
    32
  0
VERTEX
  8
2750LEVEL
 62
13
 10
2142.812
 20
-3740.367
 30
2477.000
 70
    32
  0
VERTEX
  8
2750LEVEL
 62
13
 10
2142.161
 20
-3727.931
 30
2477.000
 70
    32
  0
VERTEX
  8
2750LEVEL
 62
13
 10
2141.565
 20
-3719.491
 30
2477.000
 70
    32
  0
VERTEX
  8
2750LEVEL
 62
13
 10
2140.225
 20
-3706.515
 30
2477.000
 70
    32
  0
VERTEX
  8
2750LEVEL
 62
13
 10
2139.551
 20
-3695.252
 30
2477.000
 70
    32
  0
VERTEX
  8
2750LEVEL
 62
13
 10
2139.949
 20
-3690.379
 30
2477.000
 70
    32
  0
VERTEX
  8
2750LEVEL
 62
13
 10
2140.808
 20
-3685.842
 30
2477.000
 70
    32
  0
VERTEX
  8
2750LEVEL
 62
13
 10
2142.224
 20
-3682.400
 30
2477.000
 70
    32
  0
VERTEX
  8
2750LEVEL
 62
13
 10
2143.162
 20
-3682.291
 30
2477.000
 70
    32
  0
VERTEX
  8
2750LEVEL
 62
13
 10
2146.339
 20
-3688.665
 30
2477.000
 70
    32
  0
VERTEX
  8
2750LEVEL
 62
13
 10
2151.018
 20
-3698.519
 30
2477.000
 70
    32
  0
VERTEX
  8
2750LEVEL
 62
13
 10
2155.306
 20
-3711.253
 30
2477.000
 70
    32
  0
VERTEX
  8
2750LEVEL
 62
13
 10
2159.931
 20
-3725.128
 30
2477.000
 70
    32
  0
VERTEX
  8
2750LEVEL
 62
13
 10
2163.116
 20
-3734.959
 30
2477.000
 70
    32
  0
VERTEX
  8
2750LEVEL
 62
13
 10
2168.390
 20
-3744.595
 30
2477.000
 70
    32
  0
VERTEX
  8
2750LEVEL
 62
13
 10
2173.624
 20
-3751.055
 30
2477.000
 70
    32
  0
VERTEX
  8
2750LEVEL
 62
13
 10
2179.162
 20
-3755.731
 30
2477.000
 70
    32
  0
VERTEX
  8
2750LEVEL
 62
13
 10
2186.797
 20
-3759.500
 30
2477.000
 70
    32
  0
VERTEX
  8
2750LEVEL
 62
13
 10
2194.306
 20
-3760.867
 30
2477.000
 70
    32
  0
VERTEX
  8
2750LEVEL
 62
13
 10
2199.054
 20
-3761.750
 30
2477.000
 70
    32
  0
VERTEX
  8
2750LEVEL
 62
13
 10
2202.613
 20
-3764.355
 30
2477.000
 70
    32
  0
VERTEX
  8
2750LEVEL
 62
13
 10
2205.304
 20
-3766.435
 30
2477.000
 70
    32
  0
VERTEX
  8
2750LEVEL
 62
13
 10
2208.355
 20
-3768.163
 30
2477.000
 70
    32
  0
VERTEX
  8
2750LEVEL
 62
13
 10
2209.083
 20
-3768.030
 30
2477.000
 70
    32
  0
VERTEX
  8
2750LEVEL
 62
13
 10
2209.896
 20
-3767.443
 30
2477.000
 70
    32
  0
VERTEX
  8
2750LEVEL
 62
13
 10
2212.211
 20
-3767.450
 30
2477.000
 70
    32
  0
VERTEX
  8
2750LEVEL
 62
13
 10
2218.133
 20
-3771.884
 30
2477.000
 70
    32
  0
VERTEX
  8
2750LEVEL
 62
13
 10
2224.587
 20
-3776.662
 30
2477.000
 70
    32
  0
VERTEX
  8
2750LEVEL
 62
13
 10
2233.184
 20
-3781.714
 30
2477.000
 70
    32
  0
VERTEX
  8
2750LEVEL
 62
13
 10
2238.276
 20
-3783.348
 30
2477.000
 70
    32
  0
VERTEX
  8
2750LEVEL
 62
13
 10
2239.434
 20
-3783.191
 30
2477.000
 70
    32
  0
VERTEX
  8
2750LEVEL
 62
13
 10
2238.002
 20
-3780.360
 30
2477.000
 70
    32
  0
VERTEX
  8
2750LEVEL
 62
13
 10
2235.483
 20
-3776.731
 30
2477.000
 70
    32
  0
VERTEX
  8
2750LEVEL
 62
13
 10
2230.303
 20
-3769.137
 30
2477.000
 70
    32
  0
VERTEX
  8
2750LEVEL
 62
13
 10
2228.848
 20
-3765.234
 30
2477.000
 70
    32
  0
VERTEX
  8
2750LEVEL
 62
13
 10
2228.276
 20
-3759.470
 30
2477.000
 70
    32
  0
VERTEX
  8
2750LEVEL
 62
13
 10
2230.442
 20
-3755.683
 30
2477.000
 70
    32
  0
VERTEX
  8
2750LEVEL
 62
13
 10
2233.242
 20
-3754.212
 30
2477.000
 70
    32
  0
VERTEX
  8
2750LEVEL
 62
13
 10
2238.201
 20
-3753.836
 30
2477.000
 70
    32
  0
VERTEX
  8
2750LEVEL
 62
13
 10
2241.055
 20
-3752.514
 30
2477.000
 70
    32
  0
VERTEX
  8
2750LEVEL
 62
13
 10
2244.856
 20
-3749.408
 30
2477.000
 70
    32
  0
VERTEX
  8
2750LEVEL
 62
13
 10
2244.441
 20
-3746.725
 30
2477.000
 70
    32
  0
VERTEX
  8
2750LEVEL
 62
13
 10
2241.719
 20
-3743.644
 30
2477.000
 70
    32
  0
VERTEX
  8
2750LEVEL
 62
13
 10
2240.123
 20
-3740.046
 30
2477.000
 70
    32
  0
VERTEX
  8
2750LEVEL
 62
13
 10
2240.944
 20
-3738.748
 30
2477.000
 70
    32
  0
VERTEX
  8
2750LEVEL
 62
13
 10
2242.390
 20
-3737.590
 30
2477.000
 70
    32
  0
VERTEX
  8
2750LEVEL
 62
13
 10
2242.210
 20
-3734.078
 30
2477.000
 70
    32
  0
VERTEX
  8
2750LEVEL
 62
13
 10
2241.928
 20
-3730.519
 30
2477.000
 70
    32
  0
VERTEX
  8
2750LEVEL
 62
13
 10
2243.507
 20
-3728.485
 30
2477.000
 70
    32
  0
VERTEX
  8
2750LEVEL
 62
13
 10
2247.418
 20
-3726.959
 30
2477.000
 70
    32
  0
VERTEX
  8
2750LEVEL
 62
13
 10
2255.005
 20
-3727.943
 30
2477.000
 70
    32
  0
VERTEX
  8
2750LEVEL
 62
13
 10
2260.692
 20
-3731.924
 30
2477.000
 70
    32
  0
VERTEX
  8
2750LEVEL
 62
13
 10
2266.450
 20
-3736.874
 30
2477.000
 70
    32
  0
VERTEX
  8
2750LEVEL
 62
13
 10
2274.797
 20
-3744.499
 30
2477.000
 70
    32
  0
VERTEX
  8
2750LEVEL
 62
13
 10
2276.589
 20
-3747.299
 30
2477.000
 70
    32
  0
VERTEX
  8
2750LEVEL
 62
13
 10
2279.562
 20
-3750.051
 30
2477.000
 70
    32
  0
VERTEX
  8
2750LEVEL
 62
13
 10
2280.297
 20
-3749.207
 30
2477.000
 70
    32
  0
VERTEX
  8
2750LEVEL
 62
13
 10
2279.326
 20
-3746.712
 30
2477.000
 70
    32
  0
VERTEX
  8
2750LEVEL
 62
13
 10
2279.045
 20
-3745.398
 30
2477.000
 70
    32
  0
VERTEX
  8
2750LEVEL
 62
13
 10
2280.351
 20
-3745.186
 30
2477.000
 70
    32
  0
VERTEX
  8
2750LEVEL
 62
13
 10
2282.557
 20
-3747.141
 30
2477.000
 70
    32
  0
VERTEX
  8
2750LEVEL
 62
13
 10
2285.608
 20
-3748.549
 30
2477.000
 70
    32
  0
VERTEX
  8
2750LEVEL
 62
13
 10
2290.372
 20
-3752.498
 30
2477.000
 70
    32
  0
VERTEX
  8
2750LEVEL
 62
13
 10
2294.385
 20
-3759.357
 30
2477.000
 70
    32
  0
VERTEX
  8
2750LEVEL
 62
13
 10
2296.858
 20
-3763.408
 30
2477.000
 70
    32
  0
VERTEX
  8
2750LEVEL
 62
13
 10
2297.421
 20
-3763.791
 30
2477.000
 70
    32
  0
VERTEX
  8
2750LEVEL
 62
13
 10
2297.984
 20
-3762.892
 30
2477.000
 70
    32
  0
VERTEX
  8
2750LEVEL
 62
13
 10
2298.985
 20
-3761.257
 30
2477.000
 70
    32
  0
VERTEX
  8
2750LEVEL
 62
13
 10
2300.596
 20
-3760.865
 30
2477.000
 70
    32
  0
VERTEX
  8
2750LEVEL
 62
13
 10
2304.680
 20
-3764.205
 30
2477.000
 70
    32
  0
VERTEX
  8
2750LEVEL
 62
13
 10
2309.233
 20
-3771.337
 30
2477.000
 70
    32
  0
VERTEX
  8
2750LEVEL
 62
13
 10
2312.597
 20
-3776.663
 30
2477.000
 70
    32
  0
VERTEX
  8
2750LEVEL
 62
13
 10
2313.865
 20
-3780.973
 30
2477.000
 70
    32
  0
VERTEX
  8
2750LEVEL
 62
13
 10
2317.245
 20
-3785.517
 30
2477.000
 70
    32
  0
VERTEX
  8
2750LEVEL
 62
13
 10
2319.271
 20
-3790.053
 30
2477.000
 70
    32
  0
VERTEX
  8
2750LEVEL
 62
13
 10
2320.312
 20
-3791.273
 30
2477.000
 70
    32
  0
VERTEX
  8
2750LEVEL
 62
13
 10
2320.929
 20
-3788.277
 30
2477.000
 70
    32
  0
VERTEX
  8
2750LEVEL
 62
13
 10
2320.530
 20
-3786.416
 30
2477.000
 70
    32
  0
VERTEX
  8
2750LEVEL
 62
13
 10
2321.304
 20
-3785.219
 30
2477.000
 70
    32
  0
VERTEX
  8
2750LEVEL
 62
13
 10
2322.666
 20
-3787.401
 30
2477.000
 70
    32
  0
VERTEX
  8
2750LEVEL
 62
13
 10
2323.714
 20
-3789.192
 30
2477.000
 70
    32
  0
VERTEX
  8
2750LEVEL
 62
13
 10
2324.403
 20
-3789.732
 30
2477.000
 70
    32
  0
VERTEX
  8
2750LEVEL
 62
13
 10
2324.637
 20
-3788.582
 30
2477.000
 70
    32
  0
VERTEX
  8
2750LEVEL
 62
13
 10
2324.958
 20
-3788.261
 30
2477.000
 70
    32
  0
VERTEX
  8
2750LEVEL
 62
13
 10
2327.054
 20
-3790.881
 30
2477.000
 70
    32
  0
VERTEX
  8
2750LEVEL
 62
13
 10
2329.511
 20
-3793.790
 30
2477.000
 70
    32
  0
VERTEX
  8
2750LEVEL
 62
13
 10
2330.410
 20
-3794.033
 30
2477.000
 70
    32
  0
VERTEX
  8
2750LEVEL
 62
13
 10
2330.942
 20
-3792.452
 30
2477.000
 70
    32
  0
VERTEX
  8
2750LEVEL
 62
13
 10
2332.021
 20
-3792.038
 30
2477.000
 70
    32
  0
VERTEX
  8
2750LEVEL
 62
13
 10
2334.392
 20
-3793.477
 30
2477.000
 70
    32
  0
VERTEX
  8
2750LEVEL
 62
13
 10
2338.514
 20
-3796.785
 30
2477.000
 70
    32
  0
VERTEX
  8
2750LEVEL
 62
13
 10
2343.927
 20
-3799.060
 30
2477.000
 70
    32
  0
VERTEX
  8
2750LEVEL
 62
13
 10
2347.949
 20
-3804.886
 30
2477.000
 70
    32
  0
VERTEX
  8
2750LEVEL
 62
13
 10
2350.437
 20
-3810.721
 30
2477.000
 70
    32
  0
VERTEX
  8
2750LEVEL
 62
13
 10
2352.432
 20
-3815.539
 30
2477.000
 70
    32
  0
VERTEX
  8
2750LEVEL
 62
13
 10
2353.246
 20
-3817.197
 30
2477.000
 70
    32
  0
VERTEX
  8
2750LEVEL
 62
13
 10
2355.264
 20
-3818.276
 30
2477.000
 70
    32
  0
VERTEX
  8
2750LEVEL
 62
13
 10
2357.509
 20
-3821.482
 30
2477.000
 70
    32
  0
VERTEX
  8
2750LEVEL
 62
13
 10
2360.303
 20
-3826.816
 30
2477.000
 70
    32
  0
VERTEX
  8
2750LEVEL
 62
13
 10
2363.182
 20
-3831.376
 30
2477.000
 70
    32
  0
VERTEX
  8
2750LEVEL
 62
13
 10
2365.764
 20
-3836.687
 30
2477.000
 70
    32
  0
VERTEX
  8
2750LEVEL
 62
13
 10
2367.087
 20
-3840.824
 30
2477.000
 70
    32
  0
VERTEX
  8
2750LEVEL
 62
13
 10
2369.003
 20
-3843.460
 30
2477.000
 70
    32
  0
VERTEX
  8
2750LEVEL
 62
13
 10
2370.185
 20
-3845.657
 30
2477.000
 70
    32
  0
SEQEND
  8
2750LEVEL
  0
POLYLINE
  8
2750LEVEL
 62
13
 66
     1
 70
     9
  0
VERTEX
  8
2750LEVEL
 62
13
 10
2909.892
 20
-3740.060
 30
2477.000
 70
    32
  0
VERTEX
  8
2750LEVEL
 62
13
 10
2912.670
 20
-3744.252
 30
2477.000
 70
    32
  0
VERTEX
  8
2750LEVEL
 62
13
 10
2914.462
 20
-3748.976
 30
2477.000
 70
    32
  0
VERTEX
  8
2750LEVEL
 62
13
 10
2913.970
 20
-3751.808
 30
2477.000
 70
    32
  0
VERTEX
  8
2750LEVEL
 62
13
 10
2911.115
 20
-3752.809
 30
2477.000
 70
    32
  0
VERTEX
  8
2750LEVEL
 62
13
 10
2905.522
 20
-3750.871
 30
2477.000
 70
    32
  0
VERTEX
  8
2750LEVEL
 62
13
 10
2899.928
 20
-3745.404
 30
2477.000
 70
    32
  0
VERTEX
  8
2750LEVEL
 62
13
 10
2896.181
 20
-3739.679
 30
2477.000
 70
    32
  0
VERTEX
  8
2750LEVEL
 62
13
 10
2890.618
 20
-3732.007
 30
2477.000
 70
    32
  0
VERTEX
  8
2750LEVEL
 62
13
 10
2884.618
 20
-3725.711
 30
2477.000
 70
    32
  0
VERTEX
  8
2750LEVEL
 62
13
 10
2874.784
 20
-3715.427
 30
2477.000
 70
    32
  0
VERTEX
  8
2750LEVEL
 62
13
 10
2869.691
 20
-3708.662
 30
2477.000
 70
    32
  0
VERTEX
  8
2750LEVEL
 62
13
 10
2863.197
 20
-3697.823
 30
2477.000
 70
    32
  0
VERTEX
  8
2750LEVEL
 62
13
 10
2860.936
 20
-3693.795
 30
2477.000
 70
    32
  0
VERTEX
  8
2750LEVEL
 62
13
 10
2857.580
 20
-3688.398
 30
2477.000
 70
    32
  0
VERTEX
  8
2750LEVEL
 62
13
 10
2856.359
 20
-3686.232
 30
2477.000
 70
    32
  0
VERTEX
  8
2750LEVEL
 62
13
 10
2856.249
 20
-3684.331
 30
2477.000
 70
    32
  0
VERTEX
  8
2750LEVEL
 62
13
 10
2857.618
 20
-3683.557
 30
2477.000
 70
    32
  0
VERTEX
  8
2750LEVEL
 62
13
 10
2860.536
 20
-3685.840
 30
2477.000
 70
    32
  0
VERTEX
  8
2750LEVEL
 62
13
 10
2864.956
 20
-3691.283
 30
2477.000
 70
    32
  0
VERTEX
  8
2750LEVEL
 62
13
 10
2867.029
 20
-3694.756
 30
2477.000
 70
    32
  0
VERTEX
  8
2750LEVEL
 62
13
 10
2870.660
 20
-3701.857
 30
2477.000
 70
    32
  0
VERTEX
  8
2750LEVEL
 62
13
 10
2873.985
 20
-3707.856
 30
2477.000
 70
    32
  0
VERTEX
  8
2750LEVEL
 62
13
 10
2880.932
 20
-3716.537
 30
2477.000
 70
    32
  0
VERTEX
  8
2750LEVEL
 62
13
 10
2886.166
 20
-3720.431
 30
2477.000
 70
    32
  0
VERTEX
  8
2750LEVEL
 62
13
 10
2895.326
 20
-3726.507
 30
2477.000
 70
    32
  0
VERTEX
  8
2750LEVEL
 62
13
 10
2900.121
 20
-3730.175
 30
2477.000
 70
    32
  0
VERTEX
  8
2750LEVEL
 62
13
 10
2903.078
 20
-3732.748
 30
2477.000
 70
    32
  0
VERTEX
  8
2750LEVEL
 62
13
 10
2906.489
 20
-3736.369
 30
2477.000
 70
    32
  0
SEQEND
  8
2750LEVEL
  0
POLYLINE
  8
2750LEVEL
 62
13
 66
     1
 70
     8
  0
VERTEX
  8
2750LEVEL
 62
13
 10
2972.545
 20
-3880.951
 30
2477.000
 70
    32
  0
VERTEX
  8
2750LEVEL
 62
13
 10
2974.511
 20
-3897.595
 30
2477.000
 70
    32
  0
VERTEX
  8
2750LEVEL
 62
13
 10
2975.122
 20
-3903.970
 30
2477.000
 70
    32
  0
VERTEX
  8
2750LEVEL
 62
13
 10
2976.445
 20
-3911.314
 30
2477.000
 70
    32
  0
VERTEX
  8
2750LEVEL
 62
13
 10
2976.907
 20
-3915.178
 30
2477.000
 70
    32
  0
VERTEX
  8
2750LEVEL
 62
13
 10
2975.054
 20
-3917.752
 30
2477.000
 70
    32
  0
VERTEX
  8
2750LEVEL
 62
13
 10
2972.880
 20
-3922.891
 30
2477.000
 70
    32
  0
VERTEX
  8
2750LEVEL
 62
13
 10
2972.146
 20
-3930.150
 30
2477.000
 70
    32
  0
VERTEX
  8
2750LEVEL
 62
13
 10
2973.116
 20
-3933.286
 30
2477.000
 70
    32
  0
VERTEX
  8
2750LEVEL
 62
13
 10
2976.450
 20
-3940.177
 30
2477.000
 70
    32
  0
VERTEX
  8
2750LEVEL
 62
13
 10
2978.015
 20
-3945.980
 30
2477.000
 70
    32
  0
VERTEX
  8
2750LEVEL
 62
13
 10
2977.038
 20
-3950.932
 30
2477.000
 70
    32
  0
VERTEX
  8
2750LEVEL
 62
13
 10
2975.075
 20
-3954.812
 30
2477.000
 70
    32
  0
VERTEX
  8
2750LEVEL
 62
13
 10
2970.641
 20
-3959.130
 30
2477.000
 70
    32
  0
VERTEX
  8
2750LEVEL
 62
13
 10
2967.599
 20
-3963.104
 30
2477.000
 70
    32
  0
VERTEX
  8
2750LEVEL
 62
13
 10
2967.389
 20
-3970.456
 30
2477.000
 70
    32
  0
VERTEX
  8
2750LEVEL
 62
13
 10
2970.887
 20
-3978.113
 30
2477.000
 70
    32
  0
VERTEX
  8
2750LEVEL
 62
13
 10
2975.620
 20
-3985.551
 30
2477.000
 70
    32
  0
VERTEX
  8
2750LEVEL
 62
13
 10
2977.999
 20
-3989.164
 30
2477.000
 70
    32
  0
VERTEX
  8
2750LEVEL
 62
13
 10
2982.779
 20
-3994.897
 30
2477.000
 70
    32
  0
VERTEX
  8
2750LEVEL
 62
13
 10
2985.963
 20
-3998.314
 30
2477.000
 70
    32
  0
VERTEX
  8
2750LEVEL
 62
13
 10
2988.513
 20
-4001.982
 30
2477.000
 70
    32
  0
VERTEX
  8
2750LEVEL
 62
13
 10
2988.208
 20
-4002.483
 30
2477.000
 70
    32
  0
VERTEX
  8
2750LEVEL
 62
13
 10
2983.100
 20
-3999.707
 30
2477.000
 70
    32
  0
VERTEX
  8
2750LEVEL
 62
13
 10
2978.547
 20
-3995.140
 30
2477.000
 70
    32
  0
VERTEX
  8
2750LEVEL
 62
13
 10
2972.625
 20
-3986.537
 30
2477.000
 70
    32
  0
VERTEX
  8
2750LEVEL
 62
13
 10
2967.289
 20
-3979.710
 30
2477.000
 70
    32
  0
VERTEX
  8
2750LEVEL
 62
13
 10
2961.555
 20
-3973.265
 30
2477.000
 70
    32
  0
VERTEX
  8
2750LEVEL
 62
13
 10
2958.433
 20
-3970.567
 30
2477.000
 70
    32
  0
VERTEX
  8
2750LEVEL
 62
13
 10
2957.143
 20
-3970.638
 30
2477.000
 70
    32
  0
VERTEX
  8
2750LEVEL
 62
13
 10
2956.166
 20
-3974.627
 30
2477.000
 70
    32
  0
VERTEX
  8
2750LEVEL
 62
13
 10
2959.851
 20
-3981.236
 30
2477.000
 70
    32
  0
VERTEX
  8
2750LEVEL
 62
13
 10
2966.462
 20
-3989.737
 30
2477.000
 70
    32
  0
VERTEX
  8
2750LEVEL
 62
13
 10
2973.315
 20
-3997.018
 30
2477.000
 70
    32
  0
VERTEX
  8
2750LEVEL
 62
13
 10
2976.647
 20
-4000.381
 30
2477.000
 70
    32
  0
VERTEX
  8
2750LEVEL
 62
13
 10
2979.456
 20
-4005.895
 30
2477.000
 70
    32
  0
VERTEX
  8
2750LEVEL
 62
13
 10
2981.139
 20
-4011.604
 30
2477.000
 70
    32
  0
VERTEX
  8
2750LEVEL
 62
13
 10
2981.773
 20
-4014.882
 30
2477.000
 70
    32
  0
VERTEX
  8
2750LEVEL
 62
13
 10
2983.205
 20
-4018.996
 30
2477.000
 70
    32
  0
VERTEX
  8
2750LEVEL
 62
13
 10
2986.249
 20
-4024.001
 30
2477.000
 70
    32
  0
VERTEX
  8
2750LEVEL
 62
13
 10
2990.231
 20
-4029.859
 30
2477.000
 70
    32
  0
VERTEX
  8
2750LEVEL
 62
13
 10
2992.093
 20
-4033.308
 30
2477.000
 70
    32
  0
VERTEX
  8
2750LEVEL
 62
13
 10
2992.735
 20
-4035.553
 30
2477.000
 70
    32
  0
VERTEX
  8
2750LEVEL
 62
13
 10
2992.375
 20
-4035.905
 30
2477.000
 70
    32
  0
VERTEX
  8
2750LEVEL
 62
13
 10
2990.294
 20
-4034.106
 30
2477.000
 70
    32
  0
VERTEX
  8
2750LEVEL
 62
13
 10
2985.553
 20
-4028.663
 30
2477.000
 70
    32
  0
VERTEX
  8
2750LEVEL
 62
13
 10
2981.540
 20
-4023.087
 30
2477.000
 70
    32
  0
VERTEX
  8
2750LEVEL
 62
13
 10
2976.189
 20
-4016.400
 30
2477.000
 70
    32
  0
VERTEX
  8
2750LEVEL
 62
13
 10
2969.171
 20
-4007.390
 30
2477.000
 70
    32
  0
VERTEX
  8
2750LEVEL
 62
13
 10
2965.455
 20
-4002.667
 30
2477.000
 70
    32
  0
VERTEX
  8
2750LEVEL
 62
13
 10
2959.759
 20
-3994.588
 30
2477.000
 70
    32
  0
VERTEX
  8
2750LEVEL
 62
13
 10
2954.244
 20
-3986.814
 30
2477.000
 70
    32
  0
VERTEX
  8
2750LEVEL
 62
13
 10
2949.768
 20
-3980.260
 30
2477.000
 70
    32
  0
VERTEX
  8
2750LEVEL
 62
13
 10
2946.725
 20
-3976.858
 30
2477.000
 70
    32
  0
VERTEX
  8
2750LEVEL
 62
13
 10
2945.442
 20
-3975.575
 30
2477.000
 70
    32
  0
VERTEX
  8
2750LEVEL
 62
13
 10
2944.605
 20
-3976.053
 30
2477.000
 70
    32
  0
VERTEX
  8
2750LEVEL
 62
13
 10
2944.395
 20
-3979.557
 30
2477.000
 70
    32
  0
VERTEX
  8
2750LEVEL
 62
13
 10
2943.403
 20
-3986.252
 30
2477.000
 70
    32
  0
VERTEX
  8
2750LEVEL
 62
13
 10
2945.531
 20
-3993.401
 30
2477.000
 70
    32
  0
VERTEX
  8
2750LEVEL
 62
13
 10
2949.896
 20
-3996.451
 30
2477.000
 70
    32
  0
VERTEX
  8
2750LEVEL
 62
13
 10
2954.472
 20
-3997.600
 30
2477.000
 70
    32
  0
VERTEX
  8
2750LEVEL
 62
13
 10
2957.147
 20
-3998.217
 30
2477.000
 70
    32
  0
VERTEX
  8
2750LEVEL
 62
13
 10
2960.660
 20
-4001.244
 30
2477.000
 70
    32
  0
VERTEX
  8
2750LEVEL
 62
13
 10
2963.868
 20
-4006.054
 30
2477.000
 70
    32
  0
VERTEX
  8
2750LEVEL
 62
13
 10
2966.192
 20
-4012.405
 30
2477.000
 70
    32
  0
VERTEX
  8
2750LEVEL
 62
13
 10
2967.796
 20
-4015.932
 30
2477.000
 70
    32
  0
VERTEX
  8
2750LEVEL
 62
13
 10
2969.212
 20
-4017.621
 30
2477.000
 70
    32
  0
VERTEX
  8
2750LEVEL
 62
13
 10
2975.673
 20
-4022.329
 30
2477.000
 70
    32
  0
VERTEX
  8
2750LEVEL
 62
13
 10
2980.578
 20
-4026.614
 30
2477.000
 70
    32
  0
VERTEX
  8
2750LEVEL
 62
13
 10
2983.700
 20
-4030.274
 30
2477.000
 70
    32
  0
VERTEX
  8
2750LEVEL
 62
13
 10
2987.549
 20
-4037.970
 30
2477.000
 70
    32
  0
VERTEX
  8
2750LEVEL
 62
13
 10
2991.798
 20
-4045.925
 30
2477.000
 70
    32
  0
VERTEX
  8
2750LEVEL
 62
13
 10
2994.114
 20
-4050.742
 30
2477.000
 70
    32
  0
VERTEX
  8
2750LEVEL
 62
13
 10
2995.061
 20
-4054.090
 30
2477.000
 70
    32
  0
VERTEX
  8
2750LEVEL
 62
13
 10
2994.678
 20
-4054.653
 30
2477.000
 70
    32
  0
VERTEX
  8
2750LEVEL
 62
13
 10
2991.565
 20
-4054.130
 30
2477.000
 70
    32
  0
VERTEX
  8
2750LEVEL
 62
13
 10
2988.084
 20
-4052.104
 30
2477.000
 70
    32
  0
VERTEX
  8
2750LEVEL
 62
13
 10
2985.502
 20
-4050.642
 30
2477.000
 70
    32
  0
VERTEX
  8
2750LEVEL
 62
13
 10
2985.205
 20
-4051.393
 30
2477.000
 70
    32
  0
VERTEX
  8
2750LEVEL
 62
13
 10
2984.845
 20
-4052.066
 30
2477.000
 70
    32
  0
VERTEX
  8
2750LEVEL
 62
13
 10
2976.264
 20
-4044.308
 30
2477.000
 70
    32
  0
VERTEX
  8
2750LEVEL
 62
13
 10
2970.138
 20
-4036.894
 30
2477.000
 70
    32
  0
VERTEX
  8
2750LEVEL
 62
13
 10
2966.460
 20
-4029.573
 30
2477.000
 70
    32
  0
VERTEX
  8
2750LEVEL
 62
13
 10
2962.924
 20
-4022.268
 30
2477.000
 70
    32
  0
VERTEX
  8
2750LEVEL
 62
13
 10
2961.664
 20
-4019.813
 30
2477.000
 70
    32
  0
VERTEX
  8
2750LEVEL
 62
13
 10
2958.848
 20
-4016.293
 30
2477.000
 70
    32
  0
VERTEX
  8
2750LEVEL
 62
13
 10
2958.339
 20
-4016.059
 30
2477.000
 70
    32
  0
VERTEX
  8
2750LEVEL
 62
13
 10
2957.995
 20
-4016.911
 30
2477.000
 70
    32
  0
VERTEX
  8
2750LEVEL
 62
13
 10
2957.190
 20
-4017.107
 30
2477.000
 70
    32
  0
VERTEX
  8
2750LEVEL
 62
13
 10
2956.204
 20
-4016.677
 30
2477.000
 70
    32
  0
VERTEX
  8
2750LEVEL
 62
13
 10
2953.849
 20
-4013.494
 30
2477.000
 70
    32
  0
VERTEX
  8
2750LEVEL
 62
13
 10
2950.806
 20
-4008.168
 30
2477.000
 70
    32
  0
VERTEX
  8
2750LEVEL
 62
13
 10
2948.810
 20
-4004.633
 30
2477.000
 70
    32
  0
VERTEX
  8
2750LEVEL
 62
13
 10
2943.811
 20
-3998.306
 30
2477.000
 70
    32
  0
VERTEX
  8
2750LEVEL
 62
13
 10
2938.906
 20
-3994.020
 30
2477.000
 70
    32
  0
VERTEX
  8
2750LEVEL
 62
13
 10
2936.575
 20
-3991.909
 30
2477.000
 70
    32
  0
VERTEX
  8
2750LEVEL
 62
13
 10
2934.252
 20
-3990.368
 30
2477.000
 70
    32
  0
VERTEX
  8
2750LEVEL
 62
13
 10
2932.226
 20
-3989.360
 30
2477.000
 70
    32
  0
VERTEX
  8
2750LEVEL
 62
13
 10
2930.567
 20
-3988.891
 30
2477.000
 70
    32
  0
VERTEX
  8
2750LEVEL
 62
13
 10
2928.878
 20
-3989.024
 30
2477.000
 70
    32
  0
VERTEX
  8
2750LEVEL
 62
13
 10
2925.382
 20
-3990.988
 30
2477.000
 70
    32
  0
VERTEX
  8
2750LEVEL
 62
13
 10
2924.013
 20
-3992.404
 30
2477.000
 70
    32
  0
VERTEX
  8
2750LEVEL
 62
13
 10
2922.559
 20
-3995.235
 30
2477.000
 70
    32
  0
VERTEX
  8
2750LEVEL
 62
13
 10
2920.800
 20
-3998.888
 30
2477.000
 70
    32
  0
VERTEX
  8
2750LEVEL
 62
13
 10
2918.219
 20
-4000.633
 30
2477.000
 70
    32
  0
VERTEX
  8
2750LEVEL
 62
13
 10
2916.138
 20
-4001.079
 30
2477.000
 70
    32
  0
VERTEX
  8
2750LEVEL
 62
13
 10
2912.642
 20
-4001.760
 30
2477.000
 70
    32
  0
VERTEX
  8
2750LEVEL
 62
13
 10
2909.967
 20
-4003.067
 30
2477.000
 70
    32
  0
VERTEX
  8
2750LEVEL
 62
13
 10
2908.857
 20
-4004.725
 30
2477.000
 70
    32
  0
VERTEX
  8
2750LEVEL
 62
13
 10
2908.412
 20
-4007.455
 30
2477.000
 70
    32
  0
VERTEX
  8
2750LEVEL
 62
13
 10
2905.815
 20
-4010.303
 30
2477.000
 70
    32
  0
VERTEX
  8
2750LEVEL
 62
13
 10
2902.389
 20
-4011.312
 30
2477.000
 70
    32
  0
VERTEX
  8
2750LEVEL
 62
13
 10
2898.776
 20
-4013.691
 30
2477.000
 70
    32
  0
VERTEX
  8
2750LEVEL
 62
13
 10
2897.056
 20
-4018.275
 30
2477.000
 70
    32
  0
VERTEX
  8
2750LEVEL
 62
13
 10
2892.286
 20
-4023.055
 30
2477.000
 70
    32
  0
VERTEX
  8
2750LEVEL
 62
13
 10
2889.572
 20
-4026.317
 30
2477.000
 70
    32
  0
VERTEX
  8
2750LEVEL
 62
13
 10
2888.078
 20
-4028.859
 30
2477.000
 70
    32
  0
VERTEX
  8
2750LEVEL
 62
13
 10
2887.790
 20
-4033.709
 30
2477.000
 70
    32
  0
VERTEX
  8
2750LEVEL
 62
13
 10
2888.659
 20
-4038.401
 30
2477.000
 70
    32
  0
VERTEX
  8
2750LEVEL
 62
13
 10
2889.176
 20
-4042.414
 30
2477.000
 70
    32
  0
VERTEX
  8
2750LEVEL
 62
13
 10
2888.793
 20
-4048.429
 30
2477.000
 70
    32
  0
VERTEX
  8
2750LEVEL
 62
13
 10
2885.321
 20
-4052.106
 30
2477.000
 70
    32
  0
VERTEX
  8
2750LEVEL
 62
13
 10
2883.296
 20
-4056.549
 30
2477.000
 70
    32
  0
VERTEX
  8
2750LEVEL
 62
13
 10
2881.983
 20
-4063.244
 30
2477.000
 70
    32
  0
VERTEX
  8
2750LEVEL
 62
13
 10
2882.954
 20
-4071.191
 30
2477.000
 70
    32
  0
VERTEX
  8
2750LEVEL
 62
13
 10
2883.144
 20
-4081.047
 30
2477.000
 70
    32
  0
VERTEX
  8
2750LEVEL
 62
13
 10
2884.772
 20
-4087.249
 30
2477.000
 70
    32
  0
VERTEX
  8
2750LEVEL
 62
13
 10
2886.220
 20
-4096.353
 30
2477.000
 70
    32
  0
VERTEX
  8
2750LEVEL
 62
13
 10
2885.908
 20
-4102.055
 30
2477.000
 70
    32
  0
VERTEX
  8
2750LEVEL
 62
13
 10
2883.650
 20
-4112.779
 30
2477.000
 70
    32
  0
VERTEX
  8
2750LEVEL
 62
13
 10
2883.346
 20
-4120.977
 30
2477.000
 70
    32
  0
VERTEX
  8
2750LEVEL
 62
13
 10
2883.552
 20
-4134.540
 30
2477.000
 70
    32
  0
VERTEX
  8
2750LEVEL
 62
13
 10
2884.132
 20
-4143.441
 30
2477.000
 70
    32
  0
VERTEX
  8
2750LEVEL
 62
13
 10
2883.970
 20
-4157.426
 30
2477.000
 70
    32
  0
VERTEX
  8
2750LEVEL
 62
13
 10
2883.573
 20
-4167.430
 30
2477.000
 70
    32
  0
VERTEX
  8
2750LEVEL
 62
13
 10
2883.309
 20
-4179.765
 30
2477.000
 70
    32
  0
VERTEX
  8
2750LEVEL
 62
13
 10
2883.803
 20
-4188.158
 30
2477.000
 70
    32
  0
VERTEX
  8
2750LEVEL
 62
13
 10
2884.665
 20
-4199.335
 30
2477.000
 70
    32
  0
VERTEX
  8
2750LEVEL
 62
13
 10
2885.402
 20
-4206.507
 30
2477.000
 70
    32
  0
VERTEX
  8
2750LEVEL
 62
13
 10
2885.403
 20
-4212.600
 30
2477.000
 70
    32
  0
VERTEX
  8
2750LEVEL
 62
13
 10
2885.137
 20
-4215.635
 30
2477.000
 70
    32
  0
VERTEX
  8
2750LEVEL
 62
13
 10
2884.488
 20
-4216.027
 30
2477.000
 70
    32
  0
VERTEX
  8
2750LEVEL
 62
13
 10
2883.815
 20
-4215.988
 30
2477.000
 70
    32
  0
VERTEX
  8
2750LEVEL
 62
13
 10
2883.010
 20
-4215.863
 30
2477.000
 70
    32
  0
VERTEX
  8
2750LEVEL
 62
13
 10
2882.243
 20
-4216.668
 30
2477.000
 70
    32
  0
VERTEX
  8
2750LEVEL
 62
13
 10
2881.938
 20
-4216.528
 30
2477.000
 70
    32
  0
VERTEX
  8
2750LEVEL
 62
13
 10
2881.172
 20
-4216.051
 30
2477.000
 70
    32
  0
VERTEX
  8
2750LEVEL
 62
13
 10
2880.757
 20
-4216.575
 30
2477.000
 70
    32
  0
VERTEX
  8
2750LEVEL
 62
13
 10
2880.249
 20
-4218.264
 30
2477.000
 70
    32
  0
VERTEX
  8
2750LEVEL
 62
13
 10
2879.741
 20
-4219.954
 30
2477.000
 70
    32
  0
VERTEX
  8
2750LEVEL
 62
13
 10
2880.085
 20
-4222.308
 30
2477.000
 70
    32
  0
VERTEX
  8
2750LEVEL
 62
13
 10
2880.954
 20
-4225.718
 30
2477.000
 70
    32
  0
VERTEX
  8
2750LEVEL
 62
13
 10
2880.055
 20
-4225.476
 30
2477.000
 70
    32
  0
VERTEX
  8
2750LEVEL
 62
13
 10
2877.199
 20
-4221.347
 30
2477.000
 70
    32
  0
VERTEX
  8
2750LEVEL
 62
13
 10
2874.257
 20
-4215.747
 30
2477.000
 70
    32
  0
VERTEX
  8
2750LEVEL
 62
13
 10
2873.311
 20
-4214.644
 30
2477.000
 70
    32
  0
VERTEX
  8
2750LEVEL
 62
13
 10
2873.076
 20
-4215.473
 30
2477.000
 70
    32
  0
VERTEX
  8
2750LEVEL
 62
13
 10
2872.325
 20
-4216.459
 30
2477.000
 70
    32
  0
VERTEX
  8
2750LEVEL
 62
13
 10
2871.927
 20
-4217.483
 30
2477.000
 70
    32
  0
VERTEX
  8
2750LEVEL
 62
13
 10
2871.692
 20
-4218.633
 30
2477.000
 70
    32
  0
VERTEX
  8
2750LEVEL
 62
13
 10
2871.379
 20
-4219.204
 30
2477.000
 70
    32
  0
VERTEX
  8
2750LEVEL
 62
13
 10
2869.111
 20
-4217.171
 30
2477.000
 70
    32
  0
VERTEX
  8
2750LEVEL
 62
13
 10
2864.018
 20
-4210.406
 30
2477.000
 70
    32
  0
VERTEX
  8
2750LEVEL
 62
13
 10
2861.342
 20
-4206.902
 30
2477.000
 70
    32
  0
VERTEX
  8
2750LEVEL
 62
13
 10
2859.777
 20
-4205.589
 30
2477.000
 70
    32
  0
VERTEX
  8
2750LEVEL
 62
13
 10
2859.480
 20
-4206.340
 30
2477.000
 70
    32
  0
VERTEX
  8
2750LEVEL
 62
13
 10
2857.376
 20
-4205.714
 30
2477.000
 70
    32
  0
VERTEX
  8
2750LEVEL
 62
13
 10
2852.268
 20
-4201.014
 30
2477.000
 70
    32
  0
VERTEX
  8
2750LEVEL
 62
13
 10
2849.287
 20
-4198.332
 30
2477.000
 70
    32
  0
VERTEX
  8
2750LEVEL
 62
13
 10
2846.581
 20
-4197.996
 30
2477.000
 70
    32
  0
VERTEX
  8
2750LEVEL
 62
13
 10
2845.322
 20
-4201.954
 30
2477.000
 70
    32
  0
VERTEX
  8
2750LEVEL
 62
13
 10
2847.396
 20
-4208.313
 30
2477.000
 70
    32
  0
VERTEX
  8
2750LEVEL
 62
13
 10
2854.172
 20
-4219.825
 30
2477.000
 70
    32
  0
VERTEX
  8
2750LEVEL
 62
13
 10
2861.776
 20
-4230.931
 30
2477.000
 70
    32
  0
VERTEX
  8
2750LEVEL
 62
13
 10
2869.741
 20
-4242.646
 30
2477.000
 70
    32
  0
VERTEX
  8
2750LEVEL
 62
13
 10
2877.307
 20
-4257.311
 30
2477.000
 70
    32
  0
VERTEX
  8
2750LEVEL
 62
13
 10
2884.036
 20
-4271.491
 30
2477.000
 70
    32
  0
VERTEX
  8
2750LEVEL
 62
13
 10
2891.125
 20
-4286.281
 30
2477.000
 70
    32
  0
VERTEX
  8
2750LEVEL
 62
13
 10
2896.985
 20
-4298.974
 30
2477.000
 70
    32
  0
VERTEX
  8
2750LEVEL
 62
13
 10
2902.337
 20
-4310.471
 30
2477.000
 70
    32
  0
VERTEX
  8
2750LEVEL
 62
13
 10
2908.683
 20
-4325.214
 30
2477.000
 70
    32
  0
VERTEX
  8
2750LEVEL
 62
13
 10
2913.183
 20
-4336.047
 30
2477.000
 70
    32
  0
VERTEX
  8
2750LEVEL
 62
13
 10
2919.349
 20
-4351.447
 30
2477.000
 70
    32
  0
VERTEX
  8
2750LEVEL
 62
13
 10
2924.795
 20
-4363.703
 30
2477.000
 70
    32
  0
VERTEX
  8
2750LEVEL
 62
13
 10
2930.052
 20
-4372.196
 30
2477.000
 70
    32
  0
VERTEX
  8
2750LEVEL
 62
13
 10
2935.630
 20
-4378.124
 30
2477.000
 70
    32
  0
VERTEX
  8
2750LEVEL
 62
13
 10
2942.554
 20
-4384.771
 30
2477.000
 70
    32
  0
VERTEX
  8
2750LEVEL
 62
13
 10
2947.404
 20
-4389.870
 30
2477.000
 70
    32
  0
VERTEX
  8
2750LEVEL
 62
13
 10
2952.528
 20
-4396.354
 30
2477.000
 70
    32
  0
VERTEX
  8
2750LEVEL
 62
13
 10
2957.668
 20
-4403.659
 30
2477.000
 70
    32
  0
VERTEX
  8
2750LEVEL
 62
13
 10
2962.088
 20
-4408.460
 30
2477.000
 70
    32
  0
VERTEX
  8
2750LEVEL
 62
13
 10
2967.580
 20
-4411.956
 30
2477.000
 70
    32
  0
VERTEX
  8
2750LEVEL
 62
13
 10
2973.016
 20
-4414.341
 30
2477.000
 70
    32
  0
VERTEX
  8
2750LEVEL
 62
13
 10
2977.678
 20
-4415.357
 30
2477.000
 70
    32
  0
VERTEX
  8
2750LEVEL
 62
13
 10
2979.305
 20
-4414.824
 30
2477.000
 70
    32
  0
VERTEX
  8
2750LEVEL
 62
13
 10
2982.269
 20
-4412.837
 30
2477.000
 70
    32
  0
VERTEX
  8
2750LEVEL
 62
13
 10
2984.108
 20
-4413.932
 30
2477.000
 70
    32
  0
VERTEX
  8
2750LEVEL
 62
13
 10
2985.735
 20
-4415.003
 30
2477.000
 70
    32
  0
VERTEX
  8
2750LEVEL
 62
13
 10
2985.813
 20
-4414.299
 30
2477.000
 70
    32
  0
VERTEX
  8
2750LEVEL
 62
13
 10
2986.610
 20
-4413.533
 30
2477.000
 70
    32
  0
VERTEX
  8
2750LEVEL
 62
13
 10
2988.722
 20
-4413.126
 30
2477.000
 70
    32
  0
VERTEX
  8
2750LEVEL
 62
13
 10
2987.611
 20
-4407.729
 30
2477.000
 70
    32
  0
VERTEX
  8
2750LEVEL
 62
13
 10
2985.021
 20
-4400.885
 30
2477.000
 70
    32
  0
VERTEX
  8
2750LEVEL
 62
13
 10
2981.664
 20
-4396.771
 30
2477.000
 70
    32
  0
VERTEX
  8
2750LEVEL
 62
13
 10
2978.802
 20
-4397.843
 30
2477.000
 70
    32
  0
VERTEX
  8
2750LEVEL
 62
13
 10
2977.066
 20
-4400.965
 30
2477.000
 70
    32
  0
VERTEX
  8
2750LEVEL
 62
13
 10
2975.541
 20
-4403.789
 30
2477.000
 70
    32
  0
VERTEX
  8
2750LEVEL
 62
13
 10
2971.403
 20
-4404.790
 30
2477.000
 70
    32
  0
VERTEX
  8
2750LEVEL
 62
13
 10
2968.134
 20
-4404.071
 30
2477.000
 70
    32
  0
VERTEX
  8
2750LEVEL
 62
13
 10
2964.129
 20
-4402.273
 30
2477.000
 70
    32
  0
VERTEX
  8
2750LEVEL
 62
13
 10
2962.721
 20
-4401.155
 30
2477.000
 70
    32
  0
VERTEX
  8
2750LEVEL
 62
13
 10
2965.599
 20
-4401.545
 30
2477.000
 70
    32
  0
VERTEX
  8
2750LEVEL
 62
13
 10
2970.104
 20
-4400.762
 30
2477.000
 70
    32
  0
VERTEX
  8
2750LEVEL
 62
13
 10
2973.420
 20
-4394.966
 30
2477.000
 70
    32
  0
VERTEX
  8
2750LEVEL
 62
13
 10
2973.309
 20
-4386.972
 30
2477.000
 70
    32
  0
VERTEX
  8
2750LEVEL
 62
13
 10
2970.335
 20
-4378.768
 30
2477.000
 70
    32
  0
VERTEX
  8
2750LEVEL
 62
13
 10
2965.828
 20
-4368.647
 30
2477.000
 70
    32
  0
VERTEX
  8
2750LEVEL
 62
13
 10
2964.052
 20
-4362.820
 30
2477.000
 70
    32
  0
VERTEX
  8
2750LEVEL
 62
13
 10
2961.743
 20
-4354.404
 30
2477.000
 70
    32
  0
VERTEX
  8
2750LEVEL
 62
13
 10
2961.265
 20
-4350.681
 30
2477.000
 70
    32
  0
VERTEX
  8
2750LEVEL
 62
13
 10
2961.852
 20
-4349.891
 30
2477.000
 70
    32
  0
VERTEX
  8
2750LEVEL
 62
13
 10
2963.620
 20
-4353.864
 30
2477.000
 70
    32
  0
VERTEX
  8
2750LEVEL
 62
13
 10
2967.220
 20
-4363.492
 30
2477.000
 70
    32
  0
VERTEX
  8
2750LEVEL
 62
13
 10
2970.787
 20
-4368.912
 30
2477.000
 70
    32
  0
VERTEX
  8
2750LEVEL
 62
13
 10
2972.493
 20
-4370.241
 30
2477.000
 70
    32
  0
VERTEX
  8
2750LEVEL
 62
13
 10
2974.339
 20
-4370.624
 30
2477.000
 70
    32
  0
VERTEX
  8
2750LEVEL
 62
13
 10
2977.773
 20
-4374.676
 30
2477.000
 70
    32
  0
VERTEX
  8
2750LEVEL
 62
13
 10
2980.488
 20
-4377.186
 30
2477.000
 70
    32
  0
VERTEX
  8
2750LEVEL
 62
13
 10
2984.720
 20
-4378.867
 30
2477.000
 70
    32
  0
VERTEX
  8
2750LEVEL
 62
13
 10
2988.428
 20
-4385.585
 30
2477.000
 70
    32
  0
VERTEX
  8
2750LEVEL
 62
13
 10
2991.652
 20
-4394.744
 30
2477.000
 70
    32
  0
VERTEX
  8
2750LEVEL
 62
13
 10
2994.955
 20
-4404.802
 30
2477.000
 70
    32
  0
VERTEX
  8
2750LEVEL
 62
13
 10
2998.296
 20
-4412.905
 30
2477.000
 70
    32
  0
VERTEX
  8
2750LEVEL
 62
13
 10
3004.251
 20
-4426.678
 30
2477.000
 70
    32
  0
VERTEX
  8
2750LEVEL
 62
13
 10
3007.733
 20
-4433.834
 30
2477.000
 70
    32
  0
VERTEX
  8
2750LEVEL
 62
13
 10
3009.853
 20
-4439.450
 30
2477.000
 70
    32
  0
VERTEX
  8
2750LEVEL
 62
13
 10
3009.572
 20
-4441.664
 30
2477.000
 70
    32
  0
VERTEX
  8
2750LEVEL
 62
13
 10
3007.702
 20
-4440.530
 30
2477.000
 70
    32
  0
VERTEX
  8
2750LEVEL
 62
13
 10
3005.973
 20
-4438.770
 30
2477.000
 70
    32
  0
VERTEX
  8
2750LEVEL
 62
13
 10
3005.035
 20
-4437.597
 30
2477.000
 70
    32
  0
VERTEX
  8
2750LEVEL
 62
13
 10
3003.517
 20
-4434.257
 30
2477.000
 70
    32
  0
VERTEX
  8
2750LEVEL
 62
13
 10
3002.085
 20
-4431.747
 30
2477.000
 70
    32
  0
VERTEX
  8
2750LEVEL
 62
13
 10
2999.089
 20
-4428.564
 30
2477.000
 70
    32
  0
VERTEX
  8
2750LEVEL
 62
13
 10
2997.156
 20
-4427.031
 30
2477.000
 70
    32
  0
VERTEX
  8
2750LEVEL
 62
13
 10
2995.045
 20
-4427.438
 30
2477.000
 70
    32
  0
VERTEX
  8
2750LEVEL
 62
13
 10
2992.972
 20
-4428.776
 30
2477.000
 70
    32
  0
VERTEX
  8
2750LEVEL
 62
13
 10
2991.713
 20
-4432.414
 30
2477.000
 70
    32
  0
VERTEX
  8
2750LEVEL
 62
13
 10
2992.278
 20
-4438.890
 30
2477.000
 70
    32
  0
VERTEX
  8
2750LEVEL
 62
13
 10
2995.674
 20
-4448.103
 30
2477.000
 70
    32
  0
VERTEX
  8
2750LEVEL
 62
13
 10
2998.232
 20
-4453.946
 30
2477.000
 70
    32
  0
VERTEX
  8
2750LEVEL
 62
13
 10
2999.657
 20
-4457.809
 30
2477.000
 70
    32
  0
VERTEX
  8
2750LEVEL
 62
13
 10
2999.219
 20
-4459.507
 30
2477.000
 70
    32
  0
VERTEX
  8
2750LEVEL
 62
13
 10
2995.675
 20
-4458.365
 30
2477.000
 70
    32
  0
VERTEX
  8
2750LEVEL
 62
13
 10
2987.759
 20
-4454.245
 30
2477.000
 70
    32
  0
VERTEX
  8
2750LEVEL
 62
13
 10
2979.084
 20
-4448.294
 30
2477.000
 70
    32
  0
VERTEX
  8
2750LEVEL
 62
13
 10
2974.570
 20
-4444.016
 30
2477.000
 70
    32
  0
VERTEX
  8
2750LEVEL
 62
13
 10
2968.499
 20
-4437.071
 30
2477.000
 70
    32
  0
VERTEX
  8
2750LEVEL
 62
13
 10
2959.362
 20
-4426.615
 30
2477.000
 70
    32
  0
VERTEX
  8
2750LEVEL
 62
13
 10
2950.232
 20
-4418.333
 30
2477.000
 70
    32
  0
VERTEX
  8
2750LEVEL
 62
13
 10
2938.694
 20
-4410.568
 30
2477.000
 70
    32
  0
VERTEX
  8
2750LEVEL
 62
13
 10
2933.359
 20
-4407.910
 30
2477.000
 70
    32
  0
VERTEX
  8
2750LEVEL
 62
13
 10
2925.662
 20
-4404.063
 30
2477.000
 70
    32
  0
VERTEX
  8
2750LEVEL
 62
13
 10
2921.821
 20
-4400.465
 30
2477.000
 70
    32
  0
VERTEX
  8
2750LEVEL
 62
13
 10
2917.314
 20
-4392.590
 30
2477.000
 70
    32
  0
VERTEX
  8
2750LEVEL
 62
13
 10
2913.065
 20
-4382.391
 30
2477.000
 70
    32
  0
VERTEX
  8
2750LEVEL
 62
13
 10
2909.325
 20
-4372.747
 30
2477.000
 70
    32
  0
VERTEX
  8
2750LEVEL
 62
13
 10
2903.566
 20
-4360.421
 30
2477.000
 70
    32
  0
VERTEX
  8
2750LEVEL
 62
13
 10
2900.843
 20
-4355.736
 30
2477.000
 70
    32
  0
VERTEX
  8
2750LEVEL
 62
13
 10
2898.378
 20
-4349.370
 30
2477.000
 70
    32
  0
VERTEX
  8
2750LEVEL
 62
13
 10
2891.666
 20
-4340.180
 30
2477.000
 70
    32
  0
VERTEX
  8
2750LEVEL
 62
13
 10
2885.813
 20
-4331.264
 30
2477.000
 70
    32
  0
VERTEX
  8
2750LEVEL
 62
13
 10
2878.498
 20
-4317.554
 30
2477.000
 70
    32
  0
VERTEX
  8
2750LEVEL
 62
13
 10
2872.661
 20
-4308.818
 30
2477.000
 70
    32
  0
VERTEX
  8
2750LEVEL
 62
13
 10
2862.256
 20
-4293.090
 30
2477.000
 70
    32
  0
VERTEX
  8
2750LEVEL
 62
13
 10
2853.563
 20
-4278.301
 30
2477.000
 70
    32
  0
VERTEX
  8
2750LEVEL
 62
13
 10
2845.982
 20
-4268.267
 30
2477.000
 70
    32
  0
VERTEX
  8
2750LEVEL
 62
13
 10
2838.722
 20
-4257.912
 30
2477.000
 70
    32
  0
VERTEX
  8
2750LEVEL
 62
13
 10
2831.509
 20
-4252.266
 30
2477.000
 70
    32
  0
VERTEX
  8
2750LEVEL
 62
13
 10
2821.152
 20
-4243.491
 30
2477.000
 70
    32
  0
VERTEX
  8
2750LEVEL
 62
13
 10
2816.419
 20
-4238.619
 30
2477.000
 70
    32
  0
VERTEX
  8
2750LEVEL
 62
13
 10
2809.221
 20
-4228.663
 30
2477.000
 70
    32
  0
VERTEX
  8
2750LEVEL
 62
13
 10
2804.527
 20
-4220.874
 30
2477.000
 70
    32
  0
VERTEX
  8
2750LEVEL
 62
13
 10
2797.188
 20
-4207.375
 30
2477.000
 70
    32
  0
VERTEX
  8
2750LEVEL
 62
13
 10
2791.633
 20
-4199.953
 30
2477.000
 70
    32
  0
VERTEX
  8
2750LEVEL
 62
13
 10
2782.347
 20
-4190.513
 30
2477.000
 70
    32
  0
VERTEX
  8
2750LEVEL
 62
13
 10
2772.115
 20
-4183.820
 30
2477.000
 70
    32
  0
VERTEX
  8
2750LEVEL
 62
13
 10
2768.556
 20
-4183.460
 30
2477.000
 70
    32
  0
VERTEX
  8
2750LEVEL
 62
13
 10
2767.470
 20
-4187.473
 30
2477.000
 70
    32
  0
VERTEX
  8
2750LEVEL
 62
13
 10
2766.477
 20
-4190.962
 30
2477.000
 70
    32
  0
VERTEX
  8
2750LEVEL
 62
13
 10
2761.682
 20
-4188.898
 30
2477.000
 70
    32
  0
VERTEX
  8
2750LEVEL
 62
13
 10
2756.268
 20
-4184.698
 30
2477.000
 70
    32
  0
VERTEX
  8
2750LEVEL
 62
13
 10
2743.588
 20
-4178.873
 30
2477.000
 70
    32
  0
VERTEX
  8
2750LEVEL
 62
13
 10
2735.813
 20
-4175.730
 30
2477.000
 70
    32
  0
VERTEX
  8
2750LEVEL
 62
13
 10
2731.902
 20
-4173.408
 30
2477.000
 70
    32
  0
VERTEX
  8
2750LEVEL
 62
13
 10
2728.115
 20
-4169.317
 30
2477.000
 70
    32
  0
VERTEX
  8
2750LEVEL
 62
13
 10
2725.909
 20
-4166.721
 30
2477.000
 70
    32
  0
VERTEX
  8
2750LEVEL
 62
13
 10
2723.242
 20
-4163.788
 30
2477.000
 70
    32
  0
VERTEX
  8
2750LEVEL
 62
13
 10
2721.294
 20
-4163.038
 30
2477.000
 70
    32
  0
VERTEX
  8
2750LEVEL
 62
13
 10
2720.285
 20
-4163.140
 30
2477.000
 70
    32
  0
VERTEX
  8
2750LEVEL
 62
13
 10
2718.885
 20
-4162.272
 30
2477.000
 70
    32
  0
VERTEX
  8
2750LEVEL
 62
13
 10
2717.696
 20
-4162.389
 30
2477.000
 70
    32
  0
VERTEX
  8
2750LEVEL
 62
13
 10
2718.056
 20
-4165.244
 30
2477.000
 70
    32
  0
VERTEX
  8
2750LEVEL
 62
13
 10
2718.620
 20
-4168.513
 30
2477.000
 70
    32
  0
VERTEX
  8
2750LEVEL
 62
13
 10
2719.129
 20
-4171.634
 30
2477.000
 70
    32
  0
VERTEX
  8
2750LEVEL
 62
13
 10
2717.267
 20
-4172.033
 30
2477.000
 70
    32
  0
VERTEX
  8
2750LEVEL
 62
13
 10
2714.591
 20
-4167.888
 30
2477.000
 70
    32
  0
VERTEX
  8
2750LEVEL
 62
13
 10
2708.598
 20
-4158.636
 30
2477.000
 70
    32
  0
VERTEX
  8
2750LEVEL
 62
13
 10
2701.862
 20
-4149.979
 30
2477.000
 70
    32
  0
VERTEX
  8
2750LEVEL
 62
13
 10
2694.696
 20
-4140.703
 30
2477.000
 70
    32
  0
VERTEX
  8
2750LEVEL
 62
13
 10
2691.027
 20
-4133.633
 30
2477.000
 70
    32
  0
VERTEX
  8
2750LEVEL
 62
13
 10
2685.573
 20
-4122.410
 30
2477.000
 70
    32
  0
VERTEX
  8
2750LEVEL
 62
13
 10
2680.511
 20
-4117.287
 30
2477.000
 70
    32
  0
VERTEX
  8
2750LEVEL
 62
13
 10
2677.070
 20
-4115.872
 30
2477.000
 70
    32
  0
VERTEX
  8
2750LEVEL
 62
13
 10
2676.162
 20
-4115.700
 30
2477.000
 70
    32
  0
VERTEX
  8
2750LEVEL
 62
13
 10
2669.771
 20
-4113.245
 30
2477.000
 70
    32
  0
VERTEX
  8
2750LEVEL
 62
13
 10
2663.427
 20
-4104.916
 30
2477.000
 70
    32
  0
VERTEX
  8
2750LEVEL
 62
13
 10
2660.039
 20
-4097.877
 30
2477.000
 70
    32
  0
VERTEX
  8
2750LEVEL
 62
13
 10
2657.293
 20
-4094.365
 30
2477.000
 70
    32
  0
VERTEX
  8
2750LEVEL
 62
13
 10
2654.782
 20
-4093.552
 30
2477.000
 70
    32
  0
VERTEX
  8
2750LEVEL
 62
13
 10
2654.149
 20
-4097.010
 30
2477.000
 70
    32
  0
VERTEX
  8
2750LEVEL
 62
13
 10
2652.304
 20
-4104.003
 30
2477.000
 70
    32
  0
VERTEX
  8
2750LEVEL
 62
13
 10
2650.530
 20
-4116.134
 30
2477.000
 70
    32
  0
VERTEX
  8
2750LEVEL
 62
13
 10
2652.456
 20
-4125.755
 30
2477.000
 70
    32
  0
VERTEX
  8
2750LEVEL
 62
13
 10
2654.358
 20
-4130.776
 30
2477.000
 70
    32
  0
VERTEX
  8
2750LEVEL
 62
13
 10
2652.646
 20
-4136.572
 30
2477.000
 70
    32
  0
VERTEX
  8
2750LEVEL
 62
13
 10
2650.276
 20
-4139.944
 30
2477.000
 70
    32
  0
VERTEX
  8
2750LEVEL
 62
13
 10
2649.410
 20
-4149.682
 30
2477.000
 70
    32
  0
VERTEX
  8
2750LEVEL
 62
13
 10
2651.437
 20
-4159.991
 30
2477.000
 70
    32
  0
VERTEX
  8
2750LEVEL
 62
13
 10
2654.645
 20
-4168.649
 30
2477.000
 70
    32
  0
VERTEX
  8
2750LEVEL
 62
13
 10
2658.426
 20
-4184.355
 30
2477.000
 70
    32
  0
VERTEX
  8
2750LEVEL
 62
13
 10
2661.071
 20
-4192.630
 30
2477.000
 70
    32
  0
VERTEX
  8
2750LEVEL
 62
13
 10
2667.449
 20
-4209.977
 30
2477.000
 70
    32
  0
VERTEX
  8
2750LEVEL
 62
13
 10
2671.080
 20
-4219.003
 30
2477.000
 70
    32
  0
VERTEX
  8
2750LEVEL
 62
13
 10
2674.445
 20
-4231.064
 30
2477.000
 70
    32
  0
VERTEX
  8
2750LEVEL
 62
13
 10
2676.675
 20
-4238.259
 30
2477.000
 70
    32
  0
VERTEX
  8
2750LEVEL
 62
13
 10
2680.260
 20
-4250.594
 30
2477.000
 70
    32
  0
VERTEX
  8
2750LEVEL
 62
13
 10
2682.459
 20
-4257.109
 30
2477.000
 70
    32
  0
VERTEX
  8
2750LEVEL
 62
13
 10
2685.503
 20
-4268.849
 30
2477.000
 70
    32
  0
VERTEX
  8
2750LEVEL
 62
13
 10
2690.363
 20
-4282.857
 30
2477.000
 70
    32
  0
VERTEX
  8
2750LEVEL
 62
13
 10
2695.793
 20
-4292.688
 30
2477.000
 70
    32
  0
VERTEX
  8
2750LEVEL
 62
13
 10
2704.454
 20
-4309.362
 30
2477.000
 70
    32
  0
VERTEX
  8
2750LEVEL
 62
13
 10
2711.073
 20
-4318.434
 30
2477.000
 70
    32
  0
VERTEX
  8
2750LEVEL
 62
13
 10
2719.883
 20
-4332.168
 30
2477.000
 70
    32
  0
VERTEX
  8
2750LEVEL
 62
13
 10
2724.608
 20
-4338.393
 30
2477.000
 70
    32
  0
VERTEX
  8
2750LEVEL
 62
13
 10
2728.450
 20
-4345.198
 30
2477.000
 70
    32
  0
VERTEX
  8
2750LEVEL
 62
13
 10
2730.828
 20
-4348.811
 30
2477.000
 70
    32
  0
VERTEX
  8
2750LEVEL
 62
13
 10
2733.895
 20
-4353.284
 30
2477.000
 70
    32
  0
VERTEX
  8
2750LEVEL
 62
13
 10
2740.248
 20
-4362.184
 30
2477.000
 70
    32
  0
VERTEX
  8
2750LEVEL
 62
13
 10
2744.660
 20
-4367.698
 30
2477.000
 70
    32
  0
VERTEX
  8
2750LEVEL
 62
13
 10
2751.536
 20
-4374.447
 30
2477.000
 70
    32
  0
VERTEX
  8
2750LEVEL
 62
13
 10
2761.252
 20
-4381.297
 30
2477.000
 70
    32
  0
VERTEX
  8
2750LEVEL
 62
13
 10
2768.973
 20
-4383.971
 30
2477.000
 70
    32
  0
VERTEX
  8
2750LEVEL
 62
13
 10
2776.279
 20
-4386.207
 30
2477.000
 70
    32
  0
VERTEX
  8
2750LEVEL
 62
13
 10
2783.757
 20
-4392.987
 30
2477.000
 70
    32
  0
VERTEX
  8
2750LEVEL
 62
13
 10
2795.093
 20
-4407.072
 30
2477.000
 70
    32
  0
VERTEX
  8
2750LEVEL
 62
13
 10
2804.028
 20
-4418.076
 30
2477.000
 70
    32
  0
VERTEX
  8
2750LEVEL
 62
13
 10
2816.607
 20
-4431.230
 30
2477.000
 70
    32
  0
VERTEX
  8
2750LEVEL
 62
13
 10
2826.855
 20
-4439.387
 30
2477.000
 70
    32
  0
VERTEX
  8
2750LEVEL
 62
13
 10
2836.939
 20
-4447.097
 30
2477.000
 70
    32
  0
VERTEX
  8
2750LEVEL
 62
13
 10
2847.421
 20
-4455.707
 30
2477.000
 70
    32
  0
VERTEX
  8
2750LEVEL
 62
13
 10
2861.331
 20
-4470.042
 30
2477.000
 70
    32
  0
VERTEX
  8
2750LEVEL
 62
13
 10
2870.969
 20
-4481.124
 30
2477.000
 70
    32
  0
VERTEX
  8
2750LEVEL
 62
13
 10
2884.394
 20
-4498.862
 30
2477.000
 70
    32
  0
VERTEX
  8
2750LEVEL
 62
13
 10
2892.530
 20
-4509.028
 30
2477.000
 70
    32
  0
VERTEX
  8
2750LEVEL
 62
13
 10
2902.771
 20
-4522.707
 30
2477.000
 70
    32
  0
VERTEX
  8
2750LEVEL
 62
13
 10
2908.068
 20
-4528.604
 30
2477.000
 70
    32
  0
VERTEX
  8
2750LEVEL
 62
13
 10
2913.505
 20
-4535.478
 30
2477.000
 70
    32
  0
VERTEX
  8
2750LEVEL
 62
13
 10
2915.523
 20
-4537.840
 30
2477.000
 70
    32
  0
VERTEX
  8
2750LEVEL
 62
13
 10
2949.755
 20
-4592.926
 30
2477.000
 70
    32
  0
VERTEX
  8
2750LEVEL
 62
13
 10
3021.836
 20
-4692.434
 30
2477.000
 70
    32
  0
VERTEX
  8
2750LEVEL
 62
13
 10
3104.511
 20
-4809.180
 30
2477.000
 70
    32
  0
VERTEX
  8
2750LEVEL
 62
13
 10
3189.848
 20
-4911.393
 30
2477.000
 70
    32
  0
VERTEX
  8
2750LEVEL
 62
13
 10
3284.535
 20
-5019.978
 30
2477.000
 70
    32
  0
VERTEX
  8
2750LEVEL
 62
13
 10
3392.494
 20
-5149.544
 30
2477.000
 70
    32
  0
VERTEX
  8
2750LEVEL
 62
13
 10
3505.320
 20
-5289.560
 30
2477.000
 70
    32
  0
VERTEX
  8
2750LEVEL
 62
13
 10
3574.178
 20
-5374.829
 30
2477.000
 70
    32
  0
SEQEND
  8
2750LEVEL
  0
POLYLINE
  8
2750LEVEL
 62
13
 66
     1
 70
     9
  0
VERTEX
  8
2750LEVEL
 62
13
 10
3239.074
 20
-4322.531
 30
2477.000
 70
    32
  0
VERTEX
  8
2750LEVEL
 62
13
 10
3238.495
 20
-4318.761
 30
2477.000
 70
    32
  0
VERTEX
  8
2750LEVEL
 62
13
 10
3239.988
 20
-4314.616
 30
2477.000
 70
    32
  0
VERTEX
  8
2750LEVEL
 62
13
 10
3241.598
 20
-4309.414
 30
2477.000
 70
    32
  0
VERTEX
  8
2750LEVEL
 62
13
 10
3241.738
 20
-4302.374
 30
2477.000
 70
    32
  0
VERTEX
  8
2750LEVEL
 62
13
 10
3240.619
 20
-4298.972
 30
2477.000
 70
    32
  0
VERTEX
  8
2750LEVEL
 62
13
 10
3237.380
 20
-4297.651
 30
2477.000
 70
    32
  0
VERTEX
  8
2750LEVEL
 62
13
 10
3232.977
 20
-4300.725
 30
2477.000
 70
    32
  0
VERTEX
  8
2750LEVEL
 62
13
 10
3229.920
 20
-4308.368
 30
2477.000
 70
    32
  0
VERTEX
  8
2750LEVEL
 62
13
 10
3231.205
 20
-4317.347
 30
2477.000
 70
    32
  0
VERTEX
  8
2750LEVEL
 62
13
 10
3232.676
 20
-4324.957
 30
2477.000
 70
    32
  0
VERTEX
  8
2750LEVEL
 62
13
 10
3233.319
 20
-4331.050
 30
2477.000
 70
    32
  0
VERTEX
  8
2750LEVEL
 62
13
 10
3232.756
 20
-4336.760
 30
2477.000
 70
    32
  0
VERTEX
  8
2750LEVEL
 62
13
 10
3231.278
 20
-4338.520
 30
2477.000
 70
    32
  0
VERTEX
  8
2750LEVEL
 62
13
 10
3228.282
 20
-4332.131
 30
2477.000
 70
    32
  0
VERTEX
  8
2750LEVEL
 62
13
 10
3223.540
 20
-4324.122
 30
2477.000
 70
    32
  0
VERTEX
  8
2750LEVEL
 62
13
 10
3220.318
 20
-4323.622
 30
2477.000
 70
    32
  0
VERTEX
  8
2750LEVEL
 62
13
 10
3213.294
 20
-4326.548
 30
2477.000
 70
    32
  0
VERTEX
  8
2750LEVEL
 62
13
 10
3209.250
 20
-4326.385
 30
2477.000
 70
    32
  0
VERTEX
  8
2750LEVEL
 62
13
 10
3201.663
 20
-4322.514
 30
2477.000
 70
    32
  0
VERTEX
  8
2750LEVEL
 62
13
 10
3198.987
 20
-4320.614
 30
2477.000
 70
    32
  0
VERTEX
  8
2750LEVEL
 62
13
 10
3194.693
 20
-4321.420
 30
2477.000
 70
    32
  0
VERTEX
  8
2750LEVEL
 62
13
 10
3191.143
 20
-4324.518
 30
2477.000
 70
    32
  0
VERTEX
  8
2750LEVEL
 62
13
 10
3188.234
 20
-4329.220
 30
2477.000
 70
    32
  0
VERTEX
  8
2750LEVEL
 62
13
 10
3186.662
 20
-4332.145
 30
2477.000
 70
    32
  0
VERTEX
  8
2750LEVEL
 62
13
 10
3182.580
 20
-4338.106
 30
2477.000
 70
    32
  0
VERTEX
  8
2750LEVEL
 62
13
 10
3178.271
 20
-4344.505
 30
2477.000
 70
    32
  0
VERTEX
  8
2750LEVEL
 62
13
 10
3173.658
 20
-4352.046
 30
2477.000
 70
    32
  0
VERTEX
  8
2750LEVEL
 62
13
 10
3170.334
 20
-4357.592
 30
2477.000
 70
    32
  0
VERTEX
  8
2750LEVEL
 62
13
 10
3167.973
 20
-4363.459
 30
2477.000
 70
    32
  0
VERTEX
  8
2750LEVEL
 62
13
 10
3166.660
 20
-4365.665
 30
2477.000
 70
    32
  0
VERTEX
  8
2750LEVEL
 62
13
 10
3165.917
 20
-4367.542
 30
2477.000
 70
    32
  0
VERTEX
  8
2750LEVEL
 62
13
 10
3164.595
 20
-4367.253
 30
2477.000
 70
    32
  0
VERTEX
  8
2750LEVEL
 62
13
 10
3164.375
 20
-4361.848
 30
2477.000
 70
    32
  0
VERTEX
  8
2750LEVEL
 62
13
 10
3162.747
 20
-4357.249
 30
2477.000
 70
    32
  0
VERTEX
  8
2750LEVEL
 62
13
 10
3158.656
 20
-4352.056
 30
2477.000
 70
    32
  0
VERTEX
  8
2750LEVEL
 62
13
 10
3151.889
 20
-4349.453
 30
2477.000
 70
    32
  0
VERTEX
  8
2750LEVEL
 62
13
 10
3148.714
 20
-4349.172
 30
2477.000
 70
    32
  0
VERTEX
  8
2750LEVEL
 62
13
 10
3142.222
 20
-4350.839
 30
2477.000
 70
    32
  0
VERTEX
  8
2750LEVEL
 62
13
 10
3137.420
 20
-4354.297
 30
2477.000
 70
    32
  0
VERTEX
  8
2750LEVEL
 62
13
 10
3131.406
 20
-4358.084
 30
2477.000
 70
    32
  0
VERTEX
  8
2750LEVEL
 62
13
 10
3126.854
 20
-4360.572
 30
2477.000
 70
    32
  0
VERTEX
  8
2750LEVEL
 62
13
 10
3122.849
 20
-4361.980
 30
2477.000
 70
    32
  0
VERTEX
  8
2750LEVEL
 62
13
 10
3116.169
 20
-4362.451
 30
2477.000
 70
    32
  0
VERTEX
  8
2750LEVEL
 62
13
 10
3108.903
 20
-4362.108
 30
2477.000
 70
    32
  0
VERTEX
  8
2750LEVEL
 62
13
 10
3103.874
 20
-4363.118
 30
2477.000
 70
    32
  0
VERTEX
  8
2750LEVEL
 62
13
 10
3100.558
 20
-4364.104
 30
2477.000
 70
    32
  0
VERTEX
  8
2750LEVEL
 62
13
 10
3097.163
 20
-4367.076
 30
2477.000
 70
    32
  0
VERTEX
  8
2750LEVEL
 62
13
 10
3095.521
 20
-4369.994
 30
2477.000
 70
    32
  0
VERTEX
  8
2750LEVEL
 62
13
 10
3090.649
 20
-4374.727
 30
2477.000
 70
    32
  0
VERTEX
  8
2750LEVEL
 62
13
 10
3086.027
 20
-4376.566
 30
2477.000
 70
    32
  0
VERTEX
  8
2750LEVEL
 62
13
 10
3084.032
 20
-4378.162
 30
2477.000
 70
    32
  0
VERTEX
  8
2750LEVEL
 62
13
 10
3080.584
 20
-4381.628
 30
2477.000
 70
    32
  0
VERTEX
  8
2750LEVEL
 62
13
 10
3076.947
 20
-4386.462
 30
2477.000
 70
    32
  0
VERTEX
  8
2750LEVEL
 62
13
 10
3073.780
 20
-4390.600
 30
2477.000
 70
    32
  0
VERTEX
  8
2750LEVEL
 62
13
 10
3070.112
 20
-4394.113
 30
2477.000
 70
    32
  0
VERTEX
  8
2750LEVEL
 62
13
 10
3065.357
 20
-4396.828
 30
2477.000
 70
    32
  0
VERTEX
  8
2750LEVEL
 62
13
 10
3064.239
 20
-4397.274
 30
2477.000
 70
    32
  0
VERTEX
  8
2750LEVEL
 62
13
 10
3062.878
 20
-4397.016
 30
2477.000
 70
    32
  0
VERTEX
  8
2750LEVEL
 62
13
 10
3064.778
 20
-4394.982
 30
2477.000
 70
    32
  0
VERTEX
  8
2750LEVEL
 62
13
 10
3069.971
 20
-4389.287
 30
2477.000
 70
    32
  0
VERTEX
  8
2750LEVEL
 62
13
 10
3072.121
 20
-4385.642
 30
2477.000
 70
    32
  0
VERTEX
  8
2750LEVEL
 62
13
 10
3074.427
 20
-4376.740
 30
2477.000
 70
    32
  0
VERTEX
  8
2750LEVEL
 62
13
 10
3076.116
 20
-4374.683
 30
2477.000
 70
    32
  0
VERTEX
  8
2750LEVEL
 62
13
 10
3080.527
 20
-4373.141
 30
2477.000
 70
    32
  0
VERTEX
  8
2750LEVEL
 62
13
 10
3083.382
 20
-4372.781
 30
2477.000
 70
    32
  0
VERTEX
  8
2750LEVEL
 62
13
 10
3088.474
 20
-4370.246
 30
2477.000
 70
    32
  0
VERTEX
  8
2750LEVEL
 62
13
 10
3091.352
 20
-4365.826
 30
2477.000
 70
    32
  0
VERTEX
  8
2750LEVEL
 62
13
 10
3093.228
 20
-4362.720
 30
2477.000
 70
    32
  0
VERTEX
  8
2750LEVEL
 62
13
 10
3097.326
 20
-4359.826
 30
2477.000
 70
    32
  0
VERTEX
  8
2750LEVEL
 62
13
 10
3101.871
 20
-4359.332
 30
2477.000
 70
    32
  0
VERTEX
  8
2750LEVEL
 62
13
 10
3109.677
 20
-4359.307
 30
2477.000
 70
    32
  0
VERTEX
  8
2750LEVEL
 62
13
 10
3114.613
 20
-4359.784
 30
2477.000
 70
    32
  0
VERTEX
  8
2750LEVEL
 62
13
 10
3122.246
 20
-4358.742
 30
2477.000
 70
    32
  0
VERTEX
  8
2750LEVEL
 62
13
 10
3129.512
 20
-4356.199
 30
2477.000
 70
    32
  0
VERTEX
  8
2750LEVEL
 62
13
 10
3133.212
 20
-4354.008
 30
2477.000
 70
    32
  0
VERTEX
  8
2750LEVEL
 62
13
 10
3139.961
 20
-4348.414
 30
2477.000
 70
    32
  0
VERTEX
  8
2750LEVEL
 62
13
 10
3146.750
 20
-4344.393
 30
2477.000
 70
    32
  0
VERTEX
  8
2750LEVEL
 62
13
 10
3151.888
 20
-4344.001
 30
2477.000
 70
    32
  0
VERTEX
  8
2750LEVEL
 62
13
 10
3156.660
 20
-4345.314
 30
2477.000
 70
    32
  0
VERTEX
  8
2750LEVEL
 62
13
 10
3161.072
 20
-4348.262
 30
2477.000
 70
    32
  0
VERTEX
  8
2750LEVEL
 62
13
 10
3165.492
 20
-4352.423
 30
2477.000
 70
    32
  0
VERTEX
  8
2750LEVEL
 62
13
 10
3167.549
 20
-4354.433
 30
2477.000
 70
    32
  0
VERTEX
  8
2750LEVEL
 62
13
 10
3169.293
 20
-4352.845
 30
2477.000
 70
    32
  0
VERTEX
  8
2750LEVEL
 62
13
 10
3172.015
 20
-4349.191
 30
2477.000
 70
    32
  0
VERTEX
  8
2750LEVEL
 62
13
 10
3176.440
 20
-4339.171
 30
2477.000
 70
    32
  0
VERTEX
  8
2750LEVEL
 62
13
 10
3181.217
 20
-4328.548
 30
2477.000
 70
    32
  0
VERTEX
  8
2750LEVEL
 62
13
 10
3184.173
 20
-4321.821
 30
2477.000
 70
    32
  0
VERTEX
  8
2750LEVEL
 62
13
 10
3187.621
 20
-4315.790
 30
2477.000
 70
    32
  0
VERTEX
  8
2750LEVEL
 62
13
 10
3192.080
 20
-4314.467
 30
2477.000
 70
    32
  0
VERTEX
  8
2750LEVEL
 62
13
 10
3193.777
 20
-4314.584
 30
2477.000
 70
    32
  0
VERTEX
  8
2750LEVEL
 62
13
 10
3197.070
 20
-4314.130
 30
2477.000
 70
    32
  0
VERTEX
  8
2750LEVEL
 62
13
 10
3198.978
 20
-4312.988
 30
2477.000
 70
    32
  0
VERTEX
  8
2750LEVEL
 62
13
 10
3204.248
 20
-4303.702
 30
2477.000
 70
    32
  0
VERTEX
  8
2750LEVEL
 62
13
 10
3208.713
 20
-4292.047
 30
2477.000
 70
    32
  0
VERTEX
  8
2750LEVEL
 62
13
 10
3209.596
 20
-4287.620
 30
2477.000
 70
    32
  0
VERTEX
  8
2750LEVEL
 62
13
 10
3208.156
 20
-4282.935
 30
2477.000
 70
    32
  0
VERTEX
  8
2750LEVEL
 62
13
 10
3206.841
 20
-4279.368
 30
2477.000
 70
    32
  0
VERTEX
  8
2750LEVEL
 62
13
 10
3205.761
 20
-4275.294
 30
2477.000
 70
    32
  0
VERTEX
  8
2750LEVEL
 62
13
 10
3203.961
 20
-4268.074
 30
2477.000
 70
    32
  0
VERTEX
  8
2750LEVEL
 62
13
 10
3203.248
 20
-4263.898
 30
2477.000
 70
    32
  0
VERTEX
  8
2750LEVEL
 62
13
 10
3202.708
 20
-4259.776
 30
2477.000
 70
    32
  0
VERTEX
  8
2750LEVEL
 62
13
 10
3203.177
 20
-4258.117
 30
2477.000
 70
    32
  0
VERTEX
  8
2750LEVEL
 62
13
 10
3204.890
 20
-4257.452
 30
2477.000
 70
    32
  0
VERTEX
  8
2750LEVEL
 62
13
 10
3207.713
 20
-4256.411
 30
2477.000
 70
    32
  0
VERTEX
  8
2750LEVEL
 62
13
 10
3209.387
 20
-4254.816
 30
2477.000
 70
    32
  0
VERTEX
  8
2750LEVEL
 62
13
 10
3209.723
 20
-4249.864
 30
2477.000
 70
    32
  0
VERTEX
  8
2750LEVEL
 62
13
 10
3209.276
 20
-4243.935
 30
2477.000
 70
    32
  0
VERTEX
  8
2750LEVEL
 62
13
 10
3209.948
 20
-4242.050
 30
2477.000
 70
    32
  0
VERTEX
  8
2750LEVEL
 62
13
 10
3211.489
 20
-4242.934
 30
2477.000
 70
    32
  0
VERTEX
  8
2750LEVEL
 62
13
 10
3215.088
 20
-4250.317
 30
2477.000
 70
    32
  0
VERTEX
  8
2750LEVEL
 62
13
 10
3217.608
 20
-4256.191
 30
2477.000
 70
    32
  0
VERTEX
  8
2750LEVEL
 62
13
 10
3219.831
 20
-4264.740
 30
2477.000
 70
    32
  0
VERTEX
  8
2750LEVEL
 62
13
 10
3221.975
 20
-4273.030
 30
2477.000
 70
    32
  0
VERTEX
  8
2750LEVEL
 62
13
 10
3223.064
 20
-4281.525
 30
2477.000
 70
    32
  0
VERTEX
  8
2750LEVEL
 62
13
 10
3223.988
 20
-4286.045
 30
2477.000
 70
    32
  0
VERTEX
  8
2750LEVEL
 62
13
 10
3225.177
 20
-4289.135
 30
2477.000
 70
    32
  0
VERTEX
  8
2750LEVEL
 62
13
 10
3226.053
 20
-4290.230
 30
2477.000
 70
    32
  0
VERTEX
  8
2750LEVEL
 62
13
 10
3228.861
 20
-4289.330
 30
2477.000
 70
    32
  0
VERTEX
  8
2750LEVEL
 62
13
 10
3229.690
 20
-4288.282
 30
2477.000
 70
    32
  0
VERTEX
  8
2750LEVEL
 62
13
 10
3231.434
 20
-4283.486
 30
2477.000
 70
    32
  0
VERTEX
  8
2750LEVEL
 62
13
 10
3232.848
 20
-4278.121
 30
2477.000
 70
    32
  0
VERTEX
  8
2750LEVEL
 62
13
 10
3233.912
 20
-4276.885
 30
2477.000
 70
    32
  0
VERTEX
  8
2750LEVEL
 62
13
 10
3234.780
 20
-4276.126
 30
2477.000
 70
    32
  0
VERTEX
  8
2750LEVEL
 62
13
 10
3236.837
 20
-4275.570
 30
2477.000
 70
    32
  0
VERTEX
  8
2750LEVEL
 62
13
 10
3239.958
 20
-4277.947
 30
2477.000
 70
    32
  0
VERTEX
  8
2750LEVEL
 62
13
 10
3242.759
 20
-4283.532
 30
2477.000
 70
    32
  0
VERTEX
  8
2750LEVEL
 62
13
 10
3245.100
 20
-4293.269
 30
2477.000
 70
    32
  0
VERTEX
  8
2750LEVEL
 62
13
 10
3247.410
 20
-4308.420
 30
2477.000
 70
    32
  0
VERTEX
  8
2750LEVEL
 62
13
 10
3247.630
 20
-4317.993
 30
2477.000
 70
    32
  0
VERTEX
  8
2750LEVEL
 62
13
 10
3246.749
 20
-4331.400
 30
2477.000
 70
    32
  0
VERTEX
  8
2750LEVEL
 62
13
 10
3246.219
 20
-4345.808
 30
2477.000
 70
    32
  0
VERTEX
  8
2750LEVEL
 62
13
 10
3246.588
 20
-4355.006
 30
2477.000
 70
    32
  0
VERTEX
  8
2750LEVEL
 62
13
 10
3246.668
 20
-4362.961
 30
2477.000
 70
    32
  0
VERTEX
  8
2750LEVEL
 62
13
 10
3246.559
 20
-4368.436
 30
2477.000
 70
    32
  0
VERTEX
  8
2750LEVEL
 62
13
 10
3245.136
 20
-4368.741
 30
2477.000
 70
    32
  0
VERTEX
  8
2750LEVEL
 62
13
 10
3243.516
 20
-4365.996
 30
2477.000
 70
    32
  0
VERTEX
  8
2750LEVEL
 62
13
 10
3240.511
 20
-4357.753
 30
2477.000
 70
    32
  0
VERTEX
  8
2750LEVEL
 62
13
 10
3238.837
 20
-4353.255
 30
2477.000
 70
    32
  0
VERTEX
  8
2750LEVEL
 62
13
 10
3236.840
 20
-4342.344
 30
2477.000
 70
    32
  0
VERTEX
  8
2750LEVEL
 62
13
 10
3237.708
 20
-4336.454
 30
2477.000
 70
    32
  0
VERTEX
  8
2750LEVEL
 62
13
 10
3239.897
 20
-4330.212
 30
2477.000
 70
    32
  0
VERTEX
  8
2750LEVEL
 62
13
 10
3239.888
 20
-4326.114
 30
2477.000
 70
    32
  0
VERTEX
  8
2750LEVEL
 62
13
 10
3239.622
 20
-4324.659
 30
2477.000
 70
    32
  0
SEQEND
  8
2750LEVEL
  0
POLYLINE
  8
2750LEVEL
 62
13
 66
     1
 70
     8
  0
VERTEX
  8
2750LEVEL
 62
13
 10
2946.349
 20
-3845.395
 30
2477.000
 70
    32
  0
VERTEX
  8
2750LEVEL
 62
13
 10
2946.195
 20
-3845.140
 30
2477.000
 70
    32
  0
VERTEX
  8
2750LEVEL
 62
13
 10
2944.435
 20
-3843.662
 30
2477.000
 70
    32
  0
VERTEX
  8
2750LEVEL
 62
13
 10
2941.102
 20
-3839.657
 30
2477.000
 70
    32
  0
VERTEX
  8
2750LEVEL
 62
13
 10
2936.995
 20
-3833.964
 30
2477.000
 70
    32
  0
VERTEX
  8
2750LEVEL
 62
13
 10
2936.791
 20
-3829.380
 30
2477.000
 70
    32
  0
VERTEX
  8
2750LEVEL
 62
13
 10
2936.774
 20
-3825.352
 30
2477.000
 70
    32
  0
VERTEX
  8
2750LEVEL
 62
13
 10
2935.146
 20
-3818.188
 30
2477.000
 70
    32
  0
VERTEX
  8
2750LEVEL
 62
13
 10
2932.274
 20
-3811.313
 30
2477.000
 70
    32
  0
VERTEX
  8
2750LEVEL
 62
13
 10
2926.125
 20
-3800.262
 30
2477.000
 70
    32
  0
VERTEX
  8
2750LEVEL
 62
13
 10
2923.182
 20
-3791.775
 30
2477.000
 70
    32
  0
VERTEX
  8
2750LEVEL
 62
13
 10
2916.501
 20
-3782.304
 30
2477.000
 70
    32
  0
VERTEX
  8
2750LEVEL
 62
13
 10
2910.587
 20
-3776.517
 30
2477.000
 70
    32
  0
VERTEX
  8
2750LEVEL
 62
13
 10
2904.265
 20
-3768.618
 30
2477.000
 70
    32
  0
VERTEX
  8
2750LEVEL
 62
13
 10
2904.601
 20
-3765.271
 30
2477.000
 70
    32
  0
VERTEX
  8
2750LEVEL
 62
13
 10
2906.862
 20
-3765.450
 30
2477.000
 70
    32
  0
VERTEX
  8
2750LEVEL
 62
13
 10
2911.047
 20
-3767.553
 30
2477.000
 70
    32
  0
VERTEX
  8
2750LEVEL
 62
13
 10
2916.976
 20
-3770.314
 30
2477.000
 70
    32
  0
VERTEX
  8
2750LEVEL
 62
13
 10
2919.464
 20
-3772.621
 30
2477.000
 70
    32
  0
VERTEX
  8
2750LEVEL
 62
13
 10
2923.329
 20
-3777.290
 30
2477.000
 70
    32
  0
VERTEX
  8
2750LEVEL
 62
13
 10
2926.512
 20
-3778.462
 30
2477.000
 70
    32
  0
VERTEX
  8
2750LEVEL
 62
13
 10
2929.985
 20
-3778.634
 30
2477.000
 70
    32
  0
VERTEX
  8
2750LEVEL
 62
13
 10
2936.665
 20
-3780.408
 30
2477.000
 70
    32
  0
VERTEX
  8
2750LEVEL
 62
13
 10
2943.385
 20
-3784.717
 30
2477.000
 70
    32
  0
VERTEX
  8
2750LEVEL
 62
13
 10
2949.526
 20
-3788.783
 30
2477.000
 70
    32
  0
VERTEX
  8
2750LEVEL
 62
13
 10
2956.527
 20
-3792.802
 30
2477.000
 70
    32
  0
VERTEX
  8
2750LEVEL
 62
13
 10
2967.916
 20
-3799.660
 30
2477.000
 70
    32
  0
VERTEX
  8
2750LEVEL
 62
13
 10
2980.198
 20
-3809.396
 30
2477.000
 70
    32
  0
VERTEX
  8
2750LEVEL
 62
13
 10
2989.812
 20
-3817.803
 30
2477.000
 70
    32
  0
VERTEX
  8
2750LEVEL
 62
13
 10
2997.284
 20
-3826.578
 30
2477.000
 70
    32
  0
VERTEX
  8
2750LEVEL
 62
13
 10
3000.828
 20
-3831.247
 30
2477.000
 70
    32
  0
VERTEX
  8
2750LEVEL
 62
13
 10
3003.988
 20
-3833.914
 30
2477.000
 70
    32
  0
VERTEX
  8
2750LEVEL
 62
13
 10
3004.449
 20
-3832.646
 30
2477.000
 70
    32
  0
VERTEX
  8
2750LEVEL
 62
13
 10
3002.532
 20
-3829.049
 30
2477.000
 70
    32
  0
VERTEX
  8
2750LEVEL
 62
13
 10
3001.398
 20
-3827.070
 30
2477.000
 70
    32
  0
VERTEX
  8
2750LEVEL
 62
13
 10
3001.366
 20
-3824.786
 30
2477.000
 70
    32
  0
VERTEX
  8
2750LEVEL
 62
13
 10
3002.383
 20
-3824.614
 30
2477.000
 70
    32
  0
VERTEX
  8
2750LEVEL
 62
13
 10
3003.517
 20
-3825.310
 30
2477.000
 70
    32
  0
VERTEX
  8
2750LEVEL
 62
13
 10
3004.080
 20
-3824.089
 30
2477.000
 70
    32
  0
VERTEX
  8
2750LEVEL
 62
13
 10
3003.337
 20
-3820.836
 30
2477.000
 70
    32
  0
VERTEX
  8
2750LEVEL
 62
13
 10
3004.314
 20
-3817.809
 30
2477.000
 70
    32
  0
VERTEX
  8
2750LEVEL
 62
13
 10
3005.651
 20
-3817.316
 30
2477.000
 70
    32
  0
VERTEX
  8
2750LEVEL
 62
13
 10
3008.240
 20
-3817.425
 30
2477.000
 70
    32
  0
VERTEX
  8
2750LEVEL
 62
13
 10
3013.215
 20
-3816.908
 30
2477.000
 70
    32
  0
VERTEX
  8
2750LEVEL
 62
13
 10
3017.877
 20
-3815.679
 30
2477.000
 70
    32
  0
VERTEX
  8
2750LEVEL
 62
13
 10
3024.032
 20
-3814.152
 30
2477.000
 70
    32
  0
VERTEX
  8
2750LEVEL
 62
13
 10
3029.085
 20
-3812.931
 30
2477.000
 70
    32
  0
VERTEX
  8
2750LEVEL
 62
13
 10
3034.357
 20
-3812.946
 30
2477.000
 70
    32
  0
VERTEX
  8
2750LEVEL
 62
13
 10
3044.510
 20
-3816.175
 30
2477.000
 70
    32
  0
VERTEX
  8
2750LEVEL
 62
13
 10
3051.502
 20
-3816.416
 30
2477.000
 70
    32
  0
VERTEX
  8
2750LEVEL
 62
13
 10
3054.521
 20
-3813.295
 30
2477.000
 70
    32
  0
VERTEX
  8
2750LEVEL
 62
13
 10
3051.110
 20
-3809.353
 30
2477.000
 70
    32
  0
VERTEX
  8
2750LEVEL
 62
13
 10
3045.048
 20
-3804.583
 30
2477.000
 70
    32
  0
VERTEX
  8
2750LEVEL
 62
13
 10
3035.637
 20
-3797.232
 30
2477.000
 70
    32
  0
VERTEX
  8
2750LEVEL
 62
13
 10
3012.004
 20
-3778.683
 30
2477.000
 70
    32
  0
VERTEX
  8
2750LEVEL
 62
13
 10
2996.045
 20
-3765.154
 30
2477.000
 70
    32
  0
VERTEX
  8
2750LEVEL
 62
13
 10
2980.493
 20
-3751.171
 30
2477.000
 70
    32
  0
VERTEX
  8
2750LEVEL
 62
13
 10
2965.701
 20
-3739.018
 30
2477.000
 70
    32
  0
VERTEX
  8
2750LEVEL
 62
13
 10
2950.594
 20
-3723.268
 30
2477.000
 70
    32
  0
VERTEX
  8
2750LEVEL
 62
13
 10
2942.419
 20
-3713.774
 30
2477.000
 70
    32
  0
VERTEX
  8
2750LEVEL
 62
13
 10
2931.348
 20
-3695.371
 30
2477.000
 70
    32
  0
VERTEX
  8
2750LEVEL
 62
13
 10
2925.321
 20
-3672.290
 30
2477.000
 70
    32
  0
VERTEX
  8
2750LEVEL
 62
13
 10
2925.312
 20
-3660.495
 30
2477.000
 70
    32
  0
VERTEX
  8
2750LEVEL
 62
13
 10
2926.027
 20
-3635.418
 30
2477.000
 70
    32
  0
VERTEX
  8
2750LEVEL
 62
13
 10
2926.212
 20
-3619.939
 30
2477.000
 70
    32
  0
VERTEX
  8
2750LEVEL
 62
13
 10
2925.489
 20
-3598.515
 30
2477.000
 70
    32
  0
VERTEX
  8
2750LEVEL
 62
13
 10
2924.874
 20
-3570.654
 30
2477.000
 70
    32
  0
VERTEX
  8
2750LEVEL
 62
13
 10
2924.315
 20
-3543.904
 30
2477.000
 70
    32
  0
VERTEX
  8
2750LEVEL
 62
13
 10
2922.567
 20
-3521.440
 30
2477.000
 70
    32
  0
VERTEX
  8
2750LEVEL
 62
13
 10
2922.141
 20
-3500.869
 30
2477.000
 70
    32
  0
VERTEX
  8
2750LEVEL
 62
13
 10
2910.534
 20
-3480.632
 30
2477.000
 70
    32
  0
VERTEX
  8
2750LEVEL
 62
13
 10
2905.337
 20
-3421.651
 30
2477.000
 70
    32
  0
VERTEX
  8
2750LEVEL
 62
13
 10
2898.578
 20
-3365.965
 30
2477.000
 70
    32
  0
VERTEX
  8
2750LEVEL
 62
13
 10
2941.999
 20
-3407.171
 30
2477.000
 70
    32
  0
VERTEX
  8
2750LEVEL
 62
13
 10
2979.754
 20
-3464.189
 30
2477.000
 70
    32
  0
VERTEX
  8
2750LEVEL
 62
13
 10
3021.076
 20
-3504.285
 30
2477.000
 70
    32
  0
VERTEX
  8
2750LEVEL
 62
13
 10
3051.732
 20
-3539.822
 30
2477.000
 70
    32
  0
VERTEX
  8
2750LEVEL
 62
13
 10
3075.274
 20
-3583.063
 30
2477.000
 70
    32
  0
VERTEX
  8
2750LEVEL
 62
13
 10
3116.877
 20
-3616.862
 30
2477.000
 70
    32
  0
VERTEX
  8
2750LEVEL
 62
13
 10
3107.115
 20
-3562.454
 30
2477.000
 70
    32
  0
VERTEX
  8
2750LEVEL
 62
13
 10
3116.929
 20
-3535.402
 30
2477.000
 70
    32
  0
VERTEX
  8
2750LEVEL
 62
13
 10
3149.123
 20
-3587.691
 30
2477.000
 70
    32
  0
VERTEX
  8
2750LEVEL
 62
13
 10
3172.142
 20
-3644.804
 30
2477.000
 70
    32
  0
SEQEND
  8
2750LEVEL
  0
POLYLINE
  8
2750LEVEL
 62
7
 66
     1
 70
     8
  0
VERTEX
  8
2750LEVEL
 62
7
 10
3587.144
 20
-5374.694
 30
2477.000
 70
    32
  0
VERTEX
  8
2750LEVEL
 62
7
 10
3562.125
 20
-5337.300
 30
2477.000
 70
    32
  0
VERTEX
  8
2750LEVEL
 62
7
 10
3521.002
 20
-5288.353
 30
2477.000
 70
    32
  0
VERTEX
  8
2750LEVEL
 62
7
 10
3473.694
 20
-5227.721
 30
2477.000
 70
    32
  0
VERTEX
  8
2750LEVEL
 62
7
 10
3421.161
 20
-5169.523
 30
2477.000
 70
    32
  0
VERTEX
  8
2750LEVEL
 62
7
 10
3370.186
 20
-5104.985
 30
2477.000
 70
    32
  0
VERTEX
  8
2750LEVEL
 62
7
 10
3319.211
 20
-5040.446
 30
2477.000
 70
    32
  0
VERTEX
  8
2750LEVEL
 62
7
 10
3265.930
 20
-4974.510
 30
2477.000
 70
    32
  0
VERTEX
  8
2750LEVEL
 62
7
 10
3203.921
 20
-4906.112
 30
2477.000
 70
    32
  0
VERTEX
  8
2750LEVEL
 62
7
 10
3144.542
 20
-4834.089
 30
2477.000
 70
    32
  0
VERTEX
  8
2750LEVEL
 62
7
 10
3093.901
 20
-4773.666
 30
2477.000
 70
    32
  0
VERTEX
  8
2750LEVEL
 62
7
 10
3052.397
 20
-4713.235
 30
2477.000
 70
    32
  0
VERTEX
  8
2750LEVEL
 62
7
 10
3001.945
 20
-4634.825
 30
2477.000
 70
    32
  0
VERTEX
  8
2750LEVEL
 62
7
 10
2959.662
 20
-4577.564
 30
2477.000
 70
    32
  0
VERTEX
  8
2750LEVEL
 62
7
 10
2925.167
 20
-4534.420
 30
2477.000
 70
    32
  0
VERTEX
  8
2750LEVEL
 62
7
 10
2922.898
 20
-4531.746
 30
2477.000
 70
    32
  0
VERTEX
  8
2750LEVEL
 62
7
 10
2918.846
 20
-4526.842
 30
2477.000
 70
    32
  0
VERTEX
  8
2750LEVEL
 62
7
 10
2914.926
 20
-4522.666
 30
2477.000
 70
    32
  0
VERTEX
  8
2750LEVEL
 62
7
 10
2910.107
 20
-4516.965
 30
2477.000
 70
    32
  0
VERTEX
  8
2750LEVEL
 62
7
 10
2902.135
 20
-4507.244
 30
2477.000
 70
    32
  0
VERTEX
  8
2750LEVEL
 62
7
 10
2895.509
 20
-4499.525
 30
2477.000
 70
    32
  0
VERTEX
  8
2750LEVEL
 62
7
 10
2883.680
 20
-4486.988
 30
2477.000
 70
    32
  0
VERTEX
  8
2750LEVEL
 62
7
 10
2870.983
 20
-4473.607
 30
2477.000
 70
    32
  0
VERTEX
  8
2750LEVEL
 62
7
 10
2860.845
 20
-4462.220
 30
2477.000
 70
    32
  0
VERTEX
  8
2750LEVEL
 62
7
 10
2849.477
 20
-4448.417
 30
2477.000
 70
    32
  0
VERTEX
  8
2750LEVEL
 62
7
 10
2841.232
 20
-4440.198
 30
2477.000
 70
    32
  0
VERTEX
  8
2750LEVEL
 62
7
 10
2828.550
 20
-4424.431
 30
2477.000
 70
    32
  0
VERTEX
  8
2750LEVEL
 62
7
 10
2820.868
 20
-4414.991
 30
2477.000
 70
    32
  0
VERTEX
  8
2750LEVEL
 62
7
 10
2806.527
 20
-4395.549
 30
2477.000
 70
    32
  0
VERTEX
  8
2750LEVEL
 62
7
 10
2793.517
 20
-4378.249
 30
2477.000
 70
    32
  0
VERTEX
  8
2750LEVEL
 62
7
 10
2781.155
 20
-4360.238
 30
2477.000
 70
    32
  0
VERTEX
  8
2750LEVEL
 62
7
 10
2775.374
 20
-4352.613
 30
2477.000
 70
    32
  0
VERTEX
  8
2750LEVEL
 62
7
 10
2768.464
 20
-4337.486
 30
2477.000
 70
    32
  0
VERTEX
  8
2750LEVEL
 62
7
 10
2763.425
 20
-4322.532
 30
2477.000
 70
    32
  0
VERTEX
  8
2750LEVEL
 62
7
 10
2758.001
 20
-4303.651
 30
2477.000
 70
    32
  0
VERTEX
  8
2750LEVEL
 62
7
 10
2754.079
 20
-4284.403
 30
2477.000
 70
    32
  0
VERTEX
  8
2750LEVEL
 62
7
 10
2750.111
 20
-4271.028
 30
2477.000
 70
    32
  0
VERTEX
  8
2750LEVEL
 62
7
 10
2744.297
 20
-4255.026
 30
2477.000
 70
    32
  0
VERTEX
  8
2750LEVEL
 62
7
 10
2736.841
 20
-4240.338
 30
2477.000
 70
    32
  0
VERTEX
  8
2750LEVEL
 62
7
 10
2731.418
 20
-4229.474
 30
2477.000
 70
    32
  0
VERTEX
  8
2750LEVEL
 62
7
 10
2722.177
 20
-4209.030
 30
2477.000
 70
    32
  0
VERTEX
  8
2750LEVEL
 62
7
 10
2715.277
 20
-4198.002
 30
2477.000
 70
    32
  0
VERTEX
  8
2750LEVEL
 62
7
 10
2704.966
 20
-4184.636
 30
2477.000
 70
    32
  0
VERTEX
  8
2750LEVEL
 62
7
 10
2698.432
 20
-4173.186
 30
2477.000
 70
    32
  0
VERTEX
  8
2750LEVEL
 62
7
 10
2693.934
 20
-4166.523
 30
2477.000
 70
    32
  0
VERTEX
  8
2750LEVEL
 62
7
 10
2693.253
 20
-4161.744
 30
2477.000
 70
    32
  0
VERTEX
  8
2750LEVEL
 62
7
 10
2695.615
 20
-4162.612
 30
2477.000
 70
    32
  0
VERTEX
  8
2750LEVEL
 62
7
 10
2698.744
 20
-4165.881
 30
2477.000
 70
    32
  0
VERTEX
  8
2750LEVEL
 62
7
 10
2701.521
 20
-4168.149
 30
2477.000
 70
    32
  0
VERTEX
  8
2750LEVEL
 62
7
 10
2704.275
 20
-4171.590
 30
2477.000
 70
    32
  0
VERTEX
  8
2750LEVEL
 62
7
 10
2705.496
 20
-4174.398
 30
2477.000
 70
    32
  0
VERTEX
  8
2750LEVEL
 62
7
 10
2708.406
 20
-4177.713
 30
2477.000
 70
    32
  0
VERTEX
  8
2750LEVEL
 62
7
 10
2709.751
 20
-4176.829
 30
2477.000
 70
    32
  0
VERTEX
  8
2750LEVEL
 62
7
 10
2709.696
 20
-4174.757
 30
2477.000
 70
    32
  0
VERTEX
  8
2750LEVEL
 62
7
 10
2709.367
 20
-4172.903
 30
2477.000
 70
    32
  0
VERTEX
  8
2750LEVEL
 62
7
 10
2710.306
 20
-4172.473
 30
2477.000
 70
    32
  0
VERTEX
  8
2750LEVEL
 62
7
 10
2712.293
 20
-4174.475
 30
2477.000
 70
    32
  0
VERTEX
  8
2750LEVEL
 62
7
 10
2714.163
 20
-4177.212
 30
2477.000
 70
    32
  0
VERTEX
  8
2750LEVEL
 62
7
 10
2717.378
 20
-4178.744
 30
2477.000
 70
    32
  0
VERTEX
  8
2750LEVEL
 62
7
 10
2718.582
 20
-4176.883
 30
2477.000
 70
    32
  0
VERTEX
  8
2750LEVEL
 62
7
 10
2720.122
 20
-4173.597
 30
2477.000
 70
    32
  0
VERTEX
  8
2750LEVEL
 62
7
 10
2720.231
 20
-4171.008
 30
2477.000
 70
    32
  0
VERTEX
  8
2750LEVEL
 62
7
 10
2719.918
 20
-4168.693
 30
2477.000
 70
    32
  0
VERTEX
  8
2750LEVEL
 62
7
 10
2720.755
 20
-4167.574
 30
2477.000
 70
    32
  0
VERTEX
  8
2750LEVEL
 62
7
 10
2721.498
 20
-4168.263
 30
2477.000
 70
    32
  0
VERTEX
  8
2750LEVEL
 62
7
 10
2722.006
 20
-4167.535
 30
2477.000
 70
    32
  0
VERTEX
  8
2750LEVEL
 62
7
 10
2722.859
 20
-4165.955
 30
2477.000
 70
    32
  0
VERTEX
  8
2750LEVEL
 62
7
 10
2723.860
 20
-4166.244
 30
2477.000
 70
    32
  0
VERTEX
  8
2750LEVEL
 62
7
 10
2724.955
 20
-4167.934
 30
2477.000
 70
    32
  0
VERTEX
  8
2750LEVEL
 62
7
 10
2725.785
 20
-4170.413
 30
2477.000
 70
    32
  0
VERTEX
  8
2750LEVEL
 62
7
 10
2727.639
 20
-4172.650
 30
2477.000
 70
    32
  0
VERTEX
  8
2750LEVEL
 62
7
 10
2734.015
 20
-4178.773
 30
2477.000
 70
    32
  0
VERTEX
  8
2750LEVEL
 62
7
 10
2742.173
 20
-4183.598
 30
2477.000
 70
    32
  0
VERTEX
  8
2750LEVEL
 62
7
 10
2747.618
 20
-4187.195
 30
2477.000
 70
    32
  0
VERTEX
  8
2750LEVEL
 62
7
 10
2756.912
 20
-4194.640
 30
2477.000
 70
    32
  0
VERTEX
  8
2750LEVEL
 62
7
 10
2761.957
 20
-4197.979
 30
2477.000
 70
    32
  0
VERTEX
  8
2750LEVEL
 62
7
 10
2765.704
 20
-4199.855
 30
2477.000
 70
    32
  0
VERTEX
  8
2750LEVEL
 62
7
 10
2766.994
 20
-4198.502
 30
2477.000
 70
    32
  0
VERTEX
  8
2750LEVEL
 62
7
 10
2767.604
 20
-4197.501
 30
2477.000
 70
    32
  0
VERTEX
  8
2750LEVEL
 62
7
 10
2769.983
 20
-4200.152
 30
2477.000
 70
    32
  0
VERTEX
  8
2750LEVEL
 62
7
 10
2775.326
 20
-4209.795
 30
2477.000
 70
    32
  0
VERTEX
  8
2750LEVEL
 62
7
 10
2779.207
 20
-4217.530
 30
2477.000
 70
    32
  0
VERTEX
  8
2750LEVEL
 62
7
 10
2787.743
 20
-4229.238
 30
2477.000
 70
    32
  0
VERTEX
  8
2750LEVEL
 62
7
 10
2798.312
 20
-4242.205
 30
2477.000
 70
    32
  0
VERTEX
  8
2750LEVEL
 62
7
 10
2809.875
 20
-4255.210
 30
2477.000
 70
    32
  0
VERTEX
  8
2750LEVEL
 62
7
 10
2819.357
 20
-4266.417
 30
2477.000
 70
    32
  0
VERTEX
  8
2750LEVEL
 62
7
 10
2829.332
 20
-4279.603
 30
2477.000
 70
    32
  0
VERTEX
  8
2750LEVEL
 62
7
 10
2833.924
 20
-4284.780
 30
2477.000
 70
    32
  0
VERTEX
  8
2750LEVEL
 62
7
 10
2836.967
 20
-4287.220
 30
2477.000
 70
    32
  0
VERTEX
  8
2750LEVEL
 62
7
 10
2838.320
 20
-4285.624
 30
2477.000
 70
    32
  0
VERTEX
  8
2750LEVEL
 62
7
 10
2839.282
 20
-4284.983
 30
2477.000
 70
    32
  0
VERTEX
  8
2750LEVEL
 62
7
 10
2840.150
 20
-4285.186
 30
2477.000
 70
    32
  0
VERTEX
  8
2750LEVEL
 62
7
 10
2840.948
 20
-4285.702
 30
2477.000
 70
    32
  0
VERTEX
  8
2750LEVEL
 62
7
 10
2841.855
 20
-4283.950
 30
2477.000
 70
    32
  0
VERTEX
  8
2750LEVEL
 62
7
 10
2842.465
 20
-4282.628
 30
2477.000
 70
    32
  0
VERTEX
  8
2750LEVEL
 62
7
 10
2842.575
 20
-4283.887
 30
2477.000
 70
    32
  0
VERTEX
  8
2750LEVEL
 62
7
 10
2842.708
 20
-4287.501
 30
2477.000
 70
    32
  0
VERTEX
  8
2750LEVEL
 62
7
 10
2843.624
 20
-4290.809
 30
2477.000
 70
    32
  0
VERTEX
  8
2750LEVEL
 62
7
 10
2848.568
 20
-4296.988
 30
2477.000
 70
    32
  0
VERTEX
  8
2750LEVEL
 62
7
 10
2853.254
 20
-4302.603
 30
2477.000
 70
    32
  0
VERTEX
  8
2750LEVEL
 62
7
 10
2863.886
 20
-4314.044
 30
2477.000
 70
    32
  0
VERTEX
  8
2750LEVEL
 62
7
 10
2869.417
 20
-4321.357
 30
2477.000
 70
    32
  0
VERTEX
  8
2750LEVEL
 62
7
 10
2877.734
 20
-4336.639
 30
2477.000
 70
    32
  0
VERTEX
  8
2750LEVEL
 62
7
 10
2883.360
 20
-4348.879
 30
2477.000
 70
    32
  0
VERTEX
  8
2750LEVEL
 62
7
 10
2886.240
 20
-4359.211
 30
2477.000
 70
    32
  0
VERTEX
  8
2750LEVEL
 62
7
 10
2894.682
 20
-4373.367
 30
2477.000
 70
    32
  0
VERTEX
  8
2750LEVEL
 62
7
 10
2904.673
 20
-4386.092
 30
2477.000
 70
    32
  0
VERTEX
  8
2750LEVEL
 62
7
 10
2908.162
 20
-4391.254
 30
2477.000
 70
    32
  0
VERTEX
  8
2750LEVEL
 62
7
 10
2910.103
 20
-4395.923
 30
2477.000
 70
    32
  0
VERTEX
  8
2750LEVEL
 62
7
 10
2910.831
 20
-4398.997
 30
2477.000
 70
    32
  0
VERTEX
  8
2750LEVEL
 62
7
 10
2911.316
 20
-4399.122
 30
2477.000
 70
    32
  0
VERTEX
  8
2750LEVEL
 62
7
 10
2911.527
 20
-4397.542
 30
2477.000
 70
    32
  0
VERTEX
  8
2750LEVEL
 62
7
 10
2911.261
 20
-4396.087
 30
2477.000
 70
    32
  0
VERTEX
  8
2750LEVEL
 62
7
 10
2911.518
 20
-4393.122
 30
2477.000
 70
    32
  0
VERTEX
  8
2750LEVEL
 62
7
 10
2912.989
 20
-4393.036
 30
2477.000
 70
    32
  0
VERTEX
  8
2750LEVEL
 62
7
 10
2915.790
 20
-4397.979
 30
2477.000
 70
    32
  0
VERTEX
  8
2750LEVEL
 62
7
 10
2919.475
 20
-4405.871
 30
2477.000
 70
    32
  0
VERTEX
  8
2750LEVEL
 62
7
 10
2926.634
 20
-4415.858
 30
2477.000
 70
    32
  0
VERTEX
  8
2750LEVEL
 62
7
 10
2932.345
 20
-4422.834
 30
2477.000
 70
    32
  0
VERTEX
  8
2750LEVEL
 62
7
 10
2939.792
 20
-4431.499
 30
2477.000
 70
    32
  0
VERTEX
  8
2750LEVEL
 62
7
 10
2947.498
 20
-4437.521
 30
2477.000
 70
    32
  0
VERTEX
  8
2750LEVEL
 62
7
 10
2953.615
 20
-4442.119
 30
2477.000
 70
    32
  0
VERTEX
  8
2750LEVEL
 62
7
 10
2961.602
 20
-4449.134
 30
2477.000
 70
    32
  0
VERTEX
  8
2750LEVEL
 62
7
 10
2966.664
 20
-4455.218
 30
2477.000
 70
    32
  0
VERTEX
  8
2750LEVEL
 62
7
 10
2973.494
 20
-4462.069
 30
2477.000
 70
    32
  0
VERTEX
  8
2750LEVEL
 62
7
 10
2979.893
 20
-4467.019
 30
2477.000
 70
    32
  0
VERTEX
  8
2750LEVEL
 62
7
 10
2986.777
 20
-4472.736
 30
2477.000
 70
    32
  0
VERTEX
  8
2750LEVEL
 62
7
 10
2992.386
 20
-4478.703
 30
2477.000
 70
    32
  0
VERTEX
  8
2750LEVEL
 62
7
 10
2996.015
 20
-4479.711
 30
2477.000
 70
    32
  0
VERTEX
  8
2750LEVEL
 62
7
 10
2997.478
 20
-4477.130
 30
2477.000
 70
    32
  0
VERTEX
  8
2750LEVEL
 62
7
 10
2997.665
 20
-4474.799
 30
2477.000
 70
    32
  0
VERTEX
  8
2750LEVEL
 62
7
 10
3000.785
 20
-4472.686
 30
2477.000
 70
    32
  0
VERTEX
  8
2750LEVEL
 62
7
 10
3003.875
 20
-4472.780
 30
2477.000
 70
    32
  0
VERTEX
  8
2750LEVEL
 62
7
 10
3007.184
 20
-4474.109
 30
2477.000
 70
    32
  0
VERTEX
  8
2750LEVEL
 62
7
 10
3008.193
 20
-4472.724
 30
2477.000
 70
    32
  0
VERTEX
  8
2750LEVEL
 62
7
 10
3006.604
 20
-4468.415
 30
2477.000
 70
    32
  0
VERTEX
  8
2750LEVEL
 62
7
 10
3004.499
 20
-4462.017
 30
2477.000
 70
    32
  0
VERTEX
  8
2750LEVEL
 62
7
 10
3000.876
 20
-4451.638
 30
2477.000
 70
    32
  0
VERTEX
  8
2750LEVEL
 62
7
 10
2998.293
 20
-4444.403
 30
2477.000
 70
    32
  0
VERTEX
  8
2750LEVEL
 62
7
 10
2995.078
 20
-4438.381
 30
2477.000
 70
    32
  0
VERTEX
  8
2750LEVEL
 62
7
 10
2994.428
 20
-4434.924
 30
2477.000
 70
    32
  0
VERTEX
  8
2750LEVEL
 62
7
 10
2995.092
 20
-4432.147
 30
2477.000
 70
    32
  0
VERTEX
  8
2750LEVEL
 62
7
 10
2995.953
 20
-4431.138
 30
2477.000
 70
    32
  0
VERTEX
  8
2750LEVEL
 62
7
 10
2997.767
 20
-4430.520
 30
2477.000
 70
    32
  0
VERTEX
  8
2750LEVEL
 62
7
 10
2998.995
 20
-4431.333
 30
2477.000
 70
    32
  0
VERTEX
  8
2750LEVEL
 62
7
 10
3000.443
 20
-4433.382
 30
2477.000
 70
    32
  0
VERTEX
  8
2750LEVEL
 62
7
 10
3001.687
 20
-4435.979
 30
2477.000
 70
    32
  0
VERTEX
  8
2750LEVEL
 62
7
 10
3003.940
 20
-4440.077
 30
2477.000
 70
    32
  0
VERTEX
  8
2750LEVEL
 62
7
 10
3005.920
 20
-4443.753
 30
2477.000
 70
    32
  0
VERTEX
  8
2750LEVEL
 62
7
 10
3007.868
 20
-4445.786
 30
2477.000
 70
    32
  0
VERTEX
  8
2750LEVEL
 62
7
 10
3011.403
 20
-4445.715
 30
2477.000
 70
    32
  0
VERTEX
  8
2750LEVEL
 62
7
 10
3012.232
 20
-4442.422
 30
2477.000
 70
    32
  0
VERTEX
  8
2750LEVEL
 62
7
 10
3011.910
 20
-4440.177
 30
2477.000
 70
    32
  0
VERTEX
  8
2750LEVEL
 62
7
 10
3013.607
 20
-4438.370
 30
2477.000
 70
    32
  0
VERTEX
  8
2750LEVEL
 62
7
 10
3014.561
 20
-4436.837
 30
2477.000
 70
    32
  0
VERTEX
  8
2750LEVEL
 62
7
 10
3016.243
 20
-4435.171
 30
2477.000
 70
    32
  0
VERTEX
  8
2750LEVEL
 62
7
 10
3018.543
 20
-4435.960
 30
2477.000
 70
    32
  0
VERTEX
  8
2750LEVEL
 62
7
 10
3021.124
 20
-4436.460
 30
2477.000
 70
    32
  0
VERTEX
  8
2750LEVEL
 62
7
 10
3022.422
 20
-4433.433
 30
2477.000
 70
    32
  0
VERTEX
  8
2750LEVEL
 62
7
 10
3020.841
 20
-4430.015
 30
2477.000
 70
    32
  0
VERTEX
  8
2750LEVEL
 62
7
 10
3019.057
 20
-4425.862
 30
2477.000
 70
    32
  0
VERTEX
  8
2750LEVEL
 62
7
 10
3020.739
 20
-4425.158
 30
2477.000
 70
    32
  0
VERTEX
  8
2750LEVEL
 62
7
 10
3023.242
 20
-4426.362
 30
2477.000
 70
    32
  0
VERTEX
  8
2750LEVEL
 62
7
 10
3026.379
 20
-4428.599
 30
2477.000
 70
    32
  0
VERTEX
  8
2750LEVEL
 62
7
 10
3029.492
 20
-4430.405
 30
2477.000
 70
    32
  0
VERTEX
  8
2750LEVEL
 62
7
 10
3031.401
 20
-4433.111
 30
2477.000
 70
    32
  0
VERTEX
  8
2750LEVEL
 62
7
 10
3032.481
 20
-4436.224
 30
2477.000
 70
    32
  0
VERTEX
  8
2750LEVEL
 62
7
 10
3032.794
 20
-4438.539
 30
2477.000
 70
    32
  0
VERTEX
  8
2750LEVEL
 62
7
 10
3033.397
 20
-4444.022
 30
2477.000
 70
    32
  0
VERTEX
  8
2750LEVEL
 62
7
 10
3035.237
 20
-4449.927
 30
2477.000
 70
    32
  0
VERTEX
  8
2750LEVEL
 62
7
 10
3039.015
 20
-4455.050
 30
2477.000
 70
    32
  0
VERTEX
  8
2750LEVEL
 62
7
 10
3042.496
 20
-4456.754
 30
2477.000
 70
    32
  0
VERTEX
  8
2750LEVEL
 62
7
 10
3045.148
 20
-4458.545
 30
2477.000
 70
    32
  0
VERTEX
  8
2750LEVEL
 62
7
 10
3046.056
 20
-4462.565
 30
2477.000
 70
    32
  0
VERTEX
  8
2750LEVEL
 62
7
 10
3046.535
 20
-4471.419
 30
2477.000
 70
    32
  0
VERTEX
  8
2750LEVEL
 62
7
 10
3048.664
 20
-4479.530
 30
2477.000
 70
    32
  0
VERTEX
  8
2750LEVEL
 62
7
 10
3050.518
 20
-4482.088
 30
2477.000
 70
    32
  0
VERTEX
  8
2750LEVEL
 62
7
 10
3055.258
 20
-4481.758
 30
2477.000
 70
    32
  0
VERTEX
  8
2750LEVEL
 62
7
 10
3057.846
 20
-4477.698
 30
2477.000
 70
    32
  0
VERTEX
  8
2750LEVEL
 62
7
 10
3060.215
 20
-4472.082
 30
2477.000
 70
    32
  0
VERTEX
  8
2750LEVEL
 62
7
 10
3062.037
 20
-4469.148
 30
2477.000
 70
    32
  0
VERTEX
  8
2750LEVEL
 62
7
 10
3065.525
 20
-4463.086
 30
2477.000
 70
    32
  0
VERTEX
  8
2750LEVEL
 62
7
 10
3066.197
 20
-4459.918
 30
2477.000
 70
    32
  0
VERTEX
  8
2750LEVEL
 62
7
 10
3067.041
 20
-4458.088
 30
2477.000
 70
    32
  0
VERTEX
  8
2750LEVEL
 62
7
 10
3068.426
 20
-4457.493
 30
2477.000
 70
    32
  0
VERTEX
  8
2750LEVEL
 62
7
 10
3069.090
 20
-4457.282
 30
2477.000
 70
    32
  0
VERTEX
  8
2750LEVEL
 62
7
 10
3070.670
 20
-4455.889
 30
2477.000
 70
    32
  0
VERTEX
  8
2750LEVEL
 62
7
 10
3074.213
 20
-4455.748
 30
2477.000
 70
    32
  0
VERTEX
  8
2750LEVEL
 62
7
 10
3076.794
 20
-4454.324
 30
2477.000
 70
    32
  0
VERTEX
  8
2750LEVEL
 62
7
 10
3081.080
 20
-4449.098
 30
2477.000
 70
    32
  0
VERTEX
  8
2750LEVEL
 62
7
 10
3083.097
 20
-4444.725
 30
2477.000
 70
    32
  0
VERTEX
  8
2750LEVEL
 62
7
 10
3084.410
 20
-4438.030
 30
2477.000
 70
    32
  0
VERTEX
  8
2750LEVEL
 62
7
 10
3087.099
 20
-4428.886
 30
2477.000
 70
    32
  0
VERTEX
  8
2750LEVEL
 62
7
 10
3089.476
 20
-4420.633
 30
2477.000
 70
    32
  0
VERTEX
  8
2750LEVEL
 62
7
 10
3091.453
 20
-4413.726
 30
2477.000
 70
    32
  0
VERTEX
  8
2750LEVEL
 62
7
 10
3092.093
 20
-4403.143
 30
2477.000
 70
    32
  0
VERTEX
  8
2750LEVEL
 62
7
 10
3090.981
 20
-4397.105
 30
2477.000
 70
    32
  0
VERTEX
  8
2750LEVEL
 62
7
 10
3090.675
 20
-4390.871
 30
2477.000
 70
    32
  0
VERTEX
  8
2750LEVEL
 62
7
 10
3092.200
 20
-4386.444
 30
2477.000
 70
    32
  0
VERTEX
  8
2750LEVEL
 62
7
 10
3093.818
 20
-4383.737
 30
2477.000
 70
    32
  0
VERTEX
  8
2750LEVEL
 62
7
 10
3097.549
 20
-4381.586
 30
2477.000
 70
    32
  0
VERTEX
  8
2750LEVEL
 62
7
 10
3099.348
 20
-4378.543
 30
2477.000
 70
    32
  0
VERTEX
  8
2750LEVEL
 62
7
 10
3103.242
 20
-4373.951
 30
2477.000
 70
    32
  0
VERTEX
  8
2750LEVEL
 62
7
 10
3107.465
 20
-4371.533
 30
2477.000
 70
    32
  0
VERTEX
  8
2750LEVEL
 62
7
 10
3110.117
 20
-4370.438
 30
2477.000
 70
    32
  0
VERTEX
  8
2750LEVEL
 62
7
 10
3114.161
 20
-4372.525
 30
2477.000
 70
    32
  0
VERTEX
  8
2750LEVEL
 62
7
 10
3119.629
 20
-4375.911
 30
2477.000
 70
    32
  0
VERTEX
  8
2750LEVEL
 62
7
 10
3122.812
 20
-4375.481
 30
2477.000
 70
    32
  0
VERTEX
  8
2750LEVEL
 62
7
 10
3128.334
 20
-4371.960
 30
2477.000
 70
    32
  0
VERTEX
  8
2750LEVEL
 62
7
 10
3133.058
 20
-4369.206
 30
2477.000
 70
    32
  0
VERTEX
  8
2750LEVEL
 62
7
 10
3137.775
 20
-4370.371
 30
2477.000
 70
    32
  0
VERTEX
  8
2750LEVEL
 62
7
 10
3141.318
 20
-4373.115
 30
2477.000
 70
    32
  0
VERTEX
  8
2750LEVEL
 62
7
 10
3145.253
 20
-4378.434
 30
2477.000
 70
    32
  0
VERTEX
  8
2750LEVEL
 62
7
 10
3148.782
 20
-4382.923
 30
2477.000
 70
    32
  0
VERTEX
  8
2750LEVEL
 62
7
 10
3149.885
 20
-4382.938
 30
2477.000
 70
    32
  0
VERTEX
  8
2750LEVEL
 62
7
 10
3150.307
 20
-4382.664
 30
2477.000
 70
    32
  0
VERTEX
  8
2750LEVEL
 62
7
 10
3151.254
 20
-4383.767
 30
2477.000
 70
    32
  0
VERTEX
  8
2750LEVEL
 62
7
 10
3153.719
 20
-4390.133
 30
2477.000
 70
    32
  0
VERTEX
  8
2750LEVEL
 62
7
 10
3156.247
 20
-4402.030
 30
2477.000
 70
    32
  0
VERTEX
  8
2750LEVEL
 62
7
 10
3157.618
 20
-4417.611
 30
2477.000
 70
    32
  0
VERTEX
  8
2750LEVEL
 62
7
 10
3159.584
 20
-4429.445
 30
2477.000
 70
    32
  0
VERTEX
  8
2750LEVEL
 62
7
 10
3161.172
 20
-4431.830
 30
2477.000
 70
    32
  0
VERTEX
  8
2750LEVEL
 62
7
 10
3162.517
 20
-4430.946
 30
2477.000
 70
    32
  0
VERTEX
  8
2750LEVEL
 62
7
 10
3166.051
 20
-4425.103
 30
2477.000
 70
    32
  0
VERTEX
  8
2750LEVEL
 62
7
 10
3169.359
 20
-4417.773
 30
2477.000
 70
    32
  0
VERTEX
  8
2750LEVEL
 62
7
 10
3174.074
 20
-4407.713
 30
2477.000
 70
    32
  0
VERTEX
  8
2750LEVEL
 62
7
 10
3175.989
 20
-4400.408
 30
2477.000
 70
    32
  0
VERTEX
  8
2750LEVEL
 62
7
 10
3181.602
 20
-4383.535
 30
2477.000
 70
    32
  0
VERTEX
  8
2750LEVEL
 62
7
 10
3185.934
 20
-4375.963
 30
2477.000
 70
    32
  0
VERTEX
  8
2750LEVEL
 62
7
 10
3191.056
 20
-4369.939
 30
2477.000
 70
    32
  0
VERTEX
  8
2750LEVEL
 62
7
 10
3193.903
 20
-4364.839
 30
2477.000
 70
    32
  0
VERTEX
  8
2750LEVEL
 62
7
 10
3195.551
 20
-4355.437
 30
2477.000
 70
    32
  0
VERTEX
  8
2750LEVEL
 62
7
 10
3194.166
 20
-4348.014
 30
2477.000
 70
    32
  0
VERTEX
  8
2750LEVEL
 62
7
 10
3193.374
 20
-4338.769
 30
2477.000
 70
    32
  0
VERTEX
  8
2750LEVEL
 62
7
 10
3194.640
 20
-4332.817
 30
2477.000
 70
    32
  0
VERTEX
  8
2750LEVEL
 62
7
 10
3198.128
 20
-4329.961
 30
2477.000
 70
    32
  0
VERTEX
  8
2750LEVEL
 62
7
 10
3200.522
 20
-4331.509
 30
2477.000
 70
    32
  0
VERTEX
  8
2750LEVEL
 62
7
 10
3202.337
 20
-4335.381
 30
2477.000
 70
    32
  0
VERTEX
  8
2750LEVEL
 62
7
 10
3204.278
 20
-4338.447
 30
2477.000
 70
    32
  0
VERTEX
  8
2750LEVEL
 62
7
 10
3207.211
 20
-4341.872
 30
2477.000
 70
    32
  0
VERTEX
  8
2750LEVEL
 62
7
 10
3208.980
 20
-4345.525
 30
2477.000
 70
    32
  0
VERTEX
  8
2750LEVEL
 62
7
 10
3211.930
 20
-4352.978
 30
2477.000
 70
    32
  0
VERTEX
  8
2750LEVEL
 62
7
 10
3215.998
 20
-4359.986
 30
2477.000
 70
    32
  0
VERTEX
  8
2750LEVEL
 62
7
 10
3223.321
 20
-4368.174
 30
2477.000
 70
    32
  0
VERTEX
  8
2750LEVEL
 62
7
 10
3230.298
 20
-4371.763
 30
2477.000
 70
    32
  0
VERTEX
  8
2750LEVEL
 62
7
 10
3235.164
 20
-4375.118
 30
2477.000
 70
    32
  0
VERTEX
  8
2750LEVEL
 62
7
 10
3237.840
 20
-4378.942
 30
2477.000
 70
    32
  0
VERTEX
  8
2750LEVEL
 62
7
 10
3239.671
 20
-4385.559
 30
2477.000
 70
    32
  0
VERTEX
  8
2750LEVEL
 62
7
 10
3245.000
 20
-4397.267
 30
2477.000
 70
    32
  0
VERTEX
  8
2750LEVEL
 62
7
 10
3247.778
 20
-4403.704
 30
2477.000
 70
    32
  0
VERTEX
  8
2750LEVEL
 62
7
 10
3336.542
 20
-4528.619
 30
2477.000
 70
    32
  0
VERTEX
  8
2750LEVEL
 62
7
 10
3360.047
 20
-4576.675
 30
2477.000
 70
    32
  0
VERTEX
  8
2750LEVEL
 62
7
 10
3386.851
 20
-4632.386
 30
2477.000
 70
    32
  0
VERTEX
  8
2750LEVEL
 62
7
 10
3370.150
 20
-4644.337
 30
2477.000
 70
    32
  0
VERTEX
  8
2750LEVEL
 62
7
 10
3347.788
 20
-4678.193
 30
2477.000
 70
    32
  0
VERTEX
  8
2750LEVEL
 62
7
 10
3372.444
 20
-4725.425
 30
2477.000
 70
    32
  0
VERTEX
  8
2750LEVEL
 62
7
 10
3408.384
 20
-4778.081
 30
2477.000
 70
    32
  0
VERTEX
  8
2750LEVEL
 62
7
 10
3434.021
 20
-4816.339
 30
2477.000
 70
    32
  0
VERTEX
  8
2750LEVEL
 62
7
 10
3430.985
 20
-4781.066
 30
2477.000
 70
    32
  0
VERTEX
  8
2750LEVEL
 62
7
 10
3407.443
 20
-4737.825
 30
2477.000
 70
    32
  0
VERTEX
  8
2750LEVEL
 62
7
 10
3410.256
 20
-4707.074
 30
2477.000
 70
    32
  0
VERTEX
  8
2750LEVEL
 62
7
 10
3417.716
 20
-4671.257
 30
2477.000
 70
    32
  0
VERTEX
  8
2750LEVEL
 62
7
 10
3416.727
 20
-4623.633
 30
2477.000
 70
    32
  0
VERTEX
  8
2750LEVEL
 62
7
 10
3374.716
 20
-4547.890
 30
2477.000
 70
    32
  0
VERTEX
  8
2750LEVEL
 62
7
 10
3257.605
 20
-4396.867
 30
2477.000
 70
    32
  0
VERTEX
  8
2750LEVEL
 62
7
 10
3257.843
 20
-4397.445
 30
2477.000
 70
    32
  0
VERTEX
  8
2750LEVEL
 62
7
 10
3257.366
 20
-4396.288
 30
2477.000
 70
    32
  0
VERTEX
  8
2750LEVEL
 62
7
 10
3255.918
 20
-4390.390
 30
2477.000
 70
    32
  0
VERTEX
  8
2750LEVEL
 62
7
 10
3254.133
 20
-4381.748
 30
2477.000
 70
    32
  0
VERTEX
  8
2750LEVEL
 62
7
 10
3252.473
 20
-4372.941
 30
2477.000
 70
    32
  0
VERTEX
  8
2750LEVEL
 62
7
 10
3250.461
 20
-4359.605
 30
2477.000
 70
    32
  0
VERTEX
  8
2750LEVEL
 62
7
 10
3250.131
 20
-4351.337
 30
2477.000
 70
    32
  0
VERTEX
  8
2750LEVEL
 62
7
 10
3250.614
 20
-4338.955
 30
2477.000
 70
    32
  0
VERTEX
  8
2750LEVEL
 62
7
 10
3251.198
 20
-4325.337
 30
2477.000
 70
    32
  0
VERTEX
  8
2750LEVEL
 62
7
 10
3252.073
 20
-4315.529
 30
2477.000
 70
    32
  0
VERTEX
  8
2750LEVEL
 62
7
 10
3252.477
 20
-4302.568
 30
2477.000
 70
    32
  0
VERTEX
  8
2750LEVEL
 62
7
 10
3251.201
 20
-4292.236
 30
2477.000
 70
    32
  0
VERTEX
  8
2750LEVEL
 62
7
 10
3248.039
 20
-4282.835
 30
2477.000
 70
    32
  0
VERTEX
  8
2750LEVEL
 62
7
 10
3245.269
 20
-4274.403
 30
2477.000
 70
    32
  0
VERTEX
  8
2750LEVEL
 62
7
 10
3242.341
 20
-4261.928
 30
2477.000
 70
    32
  0
VERTEX
  8
2750LEVEL
 62
7
 10
3240.079
 20
-4253.090
 30
2477.000
 70
    32
  0
VERTEX
  8
2750LEVEL
 62
7
 10
3237.818
 20
-4246.176
 30
2477.000
 70
    32
  0
VERTEX
  8
2750LEVEL
 62
7
 10
3236.933
 20
-4239.379
 30
2477.000
 70
    32
  0
VERTEX
  8
2750LEVEL
 62
7
 10
3235.688
 20
-4233.575
 30
2477.000
 70
    32
  0
VERTEX
  8
2750LEVEL
 62
7
 10
3234.014
 20
-4232.285
 30
2477.000
 70
    32
  0
VERTEX
  8
2750LEVEL
 62
7
 10
3232.497
 20
-4234.076
 30
2477.000
 70
    32
  0
VERTEX
  8
2750LEVEL
 62
7
 10
3231.879
 20
-4236.751
 30
2477.000
 70
    32
  0
VERTEX
  8
2750LEVEL
 62
7
 10
3232.006
 20
-4244.604
 30
2477.000
 70
    32
  0
VERTEX
  8
2750LEVEL
 62
7
 10
3233.141
 20
-4252.356
 30
2477.000
 70
    32
  0
VERTEX
  8
2750LEVEL
 62
7
 10
3235.864
 20
-4258.323
 30
2477.000
 70
    32
  0
VERTEX
  8
2750LEVEL
 62
7
 10
3236.889
 20
-4260.967
 30
2477.000
 70
    32
  0
VERTEX
  8
2750LEVEL
 62
7
 10
3235.575
 20
-4259.966
 30
2477.000
 70
    32
  0
VERTEX
  8
2750LEVEL
 62
7
 10
3234.409
 20
-4258.269
 30
2477.000
 70
    32
  0
VERTEX
  8
2750LEVEL
 62
7
 10
3231.750
 20
-4254.945
 30
2477.000
 70
    32
  0
VERTEX
  8
2750LEVEL
 62
7
 10
3229.708
 20
-4252.473
 30
2477.000
 70
    32
  0
VERTEX
  8
2750LEVEL
 62
7
 10
3226.790
 20
-4248.907
 30
2477.000
 70
    32
  0
VERTEX
  8
2750LEVEL
 62
7
 10
3219.076
 20
-4239.429
 30
2477.000
 70
    32
  0
VERTEX
  8
2750LEVEL
 62
7
 10
3211.495
 20
-4230.998
 30
2477.000
 70
    32
  0
VERTEX
  8
2750LEVEL
 62
7
 10
3203.453
 20
-4221.590
 30
2477.000
 70
    32
  0
VERTEX
  8
2750LEVEL
 62
7
 10
3199.987
 20
-4218.462
 30
2477.000
 70
    32
  0
VERTEX
  8
2750LEVEL
 62
7
 10
3199.205
 20
-4221.012
 30
2477.000
 70
    32
  0
VERTEX
  8
2750LEVEL
 62
7
 10
3199.558
 20
-4223.616
 30
2477.000
 70
    32
  0
VERTEX
  8
2750LEVEL
 62
7
 10
3202.039
 20
-4232.728
 30
2477.000
 70
    32
  0
VERTEX
  8
2750LEVEL
 62
7
 10
3203.456
 20
-4241.152
 30
2477.000
 70
    32
  0
VERTEX
  8
2750LEVEL
 62
7
 10
3203.457
 20
-4246.924
 30
2477.000
 70
    32
  0
VERTEX
  8
2750LEVEL
 62
7
 10
3202.198
 20
-4249.279
 30
2477.000
 70
    32
  0
VERTEX
  8
2750LEVEL
 62
7
 10
3199.875
 20
-4249.021
 30
2477.000
 70
    32
  0
VERTEX
  8
2750LEVEL
 62
7
 10
3195.784
 20
-4250.883
 30
2477.000
 70
    32
  0
VERTEX
  8
2750LEVEL
 62
7
 10
3193.313
 20
-4253.246
 30
2477.000
 70
    32
  0
VERTEX
  8
2750LEVEL
 62
7
 10
3191.804
 20
-4254.967
 30
2477.000
 70
    32
  0
VERTEX
  8
2750LEVEL
 62
7
 10
3190.357
 20
-4254.201
 30
2477.000
 70
    32
  0
VERTEX
  8
2750LEVEL
 62
7
 10
3186.335
 20
-4249.016
 30
2477.000
 70
    32
  0
VERTEX
  8
2750LEVEL
 62
7
 10
3182.627
 20
-4244.222
 30
2477.000
 70
    32
  0
VERTEX
  8
2750LEVEL
 62
7
 10
3175.648
 20
-4233.898
 30
2477.000
 70
    32
  0
VERTEX
  8
2750LEVEL
 62
7
 10
3170.798
 20
-4227.516
 30
2477.000
 70
    32
  0
VERTEX
  8
2750LEVEL
 62
7
 10
3162.020
 20
-4216.387
 30
2477.000
 70
    32
  0
VERTEX
  8
2750LEVEL
 62
7
 10
3155.972
 20
-4207.949
 30
2477.000
 70
    32
  0
VERTEX
  8
2750LEVEL
 62
7
 10
3148.508
 20
-4196.859
 30
2477.000
 70
    32
  0
VERTEX
  8
2750LEVEL
 62
7
 10
3144.010
 20
-4190.516
 30
2477.000
 70
    32
  0
VERTEX
  8
2750LEVEL
 62
7
 10
3137.431
 20
-4184.299
 30
2477.000
 70
    32
  0
VERTEX
  8
2750LEVEL
 62
7
 10
3132.682
 20
-4178.926
 30
2477.000
 70
    32
  0
VERTEX
  8
2750LEVEL
 62
7
 10
3128.520
 20
-4173.725
 30
2477.000
 70
    32
  0
VERTEX
  8
2750LEVEL
 62
7
 10
3124.100
 20
-4167.320
 30
2477.000
 70
    32
  0
VERTEX
  8
2750LEVEL
 62
7
 10
3121.424
 20
-4161.571
 30
2477.000
 70
    32
  0
VERTEX
  8
2750LEVEL
 62
7
 10
3118.176
 20
-4152.624
 30
2477.000
 70
    32
  0
VERTEX
  8
2750LEVEL
 62
7
 10
3115.140
 20
-4146.265
 30
2477.000
 70
    32
  0
VERTEX
  8
2750LEVEL
 62
7
 10
3109.273
 20
-4140.697
 30
2477.000
 70
    32
  0
VERTEX
  8
2750LEVEL
 62
7
 10
3103.969
 20
-4135.191
 30
2477.000
 70
    32
  0
VERTEX
  8
2750LEVEL
 62
7
 10
3099.204
 20
-4128.356
 30
2477.000
 70
    32
  0
VERTEX
  8
2750LEVEL
 62
7
 10
3096.294
 20
-4122.474
 30
2477.000
 70
    32
  0
VERTEX
  8
2750LEVEL
 62
7
 10
3091.795
 20
-4112.283
 30
2477.000
 70
    32
  0
VERTEX
  8
2750LEVEL
 62
7
 10
3088.359
 20
-4104.063
 30
2477.000
 70
    32
  0
VERTEX
  8
2750LEVEL
 62
7
 10
3082.045
 20
-4093.528
 30
2477.000
 70
    32
  0
VERTEX
  8
2750LEVEL
 62
7
 10
3075.654
 20
-4086.584
 30
2477.000
 70
    32
  0
VERTEX
  8
2750LEVEL
 62
7
 10
3067.714
 20
-4080.429
 30
2477.000
 70
    32
  0
VERTEX
  8
2750LEVEL
 62
7
 10
3059.460
 20
-4070.998
 30
2477.000
 70
    32
  0
VERTEX
  8
2750LEVEL
 62
7
 10
3052.818
 20
-4062.778
 30
2477.000
 70
    32
  0
VERTEX
  8
2750LEVEL
 62
7
 10
3044.150
 20
-4050.022
 30
2477.000
 70
    32
  0
VERTEX
  8
2750LEVEL
 62
7
 10
3039.440
 20
-4043.977
 30
2477.000
 70
    32
  0
VERTEX
  8
2750LEVEL
 62
7
 10
3031.351
 20
-4034.670
 30
2477.000
 70
    32
  0
VERTEX
  8
2750LEVEL
 62
7
 10
3025.186
 20
-4026.646
 30
2477.000
 70
    32
  0
VERTEX
  8
2750LEVEL
 62
7
 10
3019.780
 20
-4017.887
 30
2477.000
 70
    32
  0
VERTEX
  8
2750LEVEL
 62
7
 10
3016.188
 20
-4010.754
 30
2477.000
 70
    32
  0
VERTEX
  8
2750LEVEL
 62
7
 10
3013.137
 20
-4004.215
 30
2477.000
 70
    32
  0
VERTEX
  8
2750LEVEL
 62
7
 10
3009.381
 20
-3997.919
 30
2477.000
 70
    32
  0
VERTEX
  8
2750LEVEL
 62
7
 10
3005.766
 20
-3990.677
 30
2477.000
 70
    32
  0
VERTEX
  8
2750LEVEL
 62
7
 10
3002.245
 20
-3981.949
 30
2477.000
 70
    32
  0
VERTEX
  8
2750LEVEL
 62
7
 10
3003.089
 20
-3978.835
 30
2477.000
 70
    32
  0
VERTEX
  8
2750LEVEL
 62
7
 10
3002.924
 20
-3975.824
 30
2477.000
 70
    32
  0
VERTEX
  8
2750LEVEL
 62
7
 10
3003.636
 20
-3975.190
 30
2477.000
 70
    32
  0
VERTEX
  8
2750LEVEL
 62
7
 10
3005.318
 20
-3976.731
 30
2477.000
 70
    32
  0
VERTEX
  8
2750LEVEL
 62
7
 10
3007.023
 20
-3977.419
 30
2477.000
 70
    32
  0
VERTEX
  8
2750LEVEL
 62
7
 10
3008.517
 20
-3975.518
 30
2477.000
 70
    32
  0
VERTEX
  8
2750LEVEL
 62
7
 10
3009.440
 20
-3974.908
 30
2477.000
 70
    32
  0
VERTEX
  8
2750LEVEL
 62
7
 10
3010.691
 20
-3973.586
 30
2477.000
 70
    32
  0
VERTEX
  8
2750LEVEL
 62
7
 10
3010.706
 20
-3971.200
 30
2477.000
 70
    32
  0
VERTEX
  8
2750LEVEL
 62
7
 10
3008.210
 20
-3963.832
 30
2477.000
 70
    32
  0
VERTEX
  8
2750LEVEL
 62
7
 10
3007.919
 20
-3957.137
 30
2477.000
 70
    32
  0
VERTEX
  8
2750LEVEL
 62
7
 10
3009.210
 20
-3955.142
 30
2477.000
 70
    32
  0
VERTEX
  8
2750LEVEL
 62
7
 10
3010.915
 20
-3954.227
 30
2477.000
 70
    32
  0
VERTEX
  8
2750LEVEL
 62
7
 10
3010.570
 20
-3952.835
 30
2477.000
 70
    32
  0
VERTEX
  8
2750LEVEL
 62
7
 10
3007.840
 20
-3947.258
 30
2477.000
 70
    32
  0
VERTEX
  8
2750LEVEL
 62
7
 10
3002.636
 20
-3935.386
 30
2477.000
 70
    32
  0
VERTEX
  8
2750LEVEL
 62
7
 10
2997.816
 20
-3923.591
 30
2477.000
 70
    32
  0
VERTEX
  8
2750LEVEL
 62
7
 10
2994.264
 20
-3916.106
 30
2477.000
 70
    32
  0
VERTEX
  8
2750LEVEL
 62
7
 10
2989.749
 20
-3906.697
 30
2477.000
 70
    32
  0
VERTEX
  8
2750LEVEL
 62
7
 10
2983.474
 20
-3897.735
 30
2477.000
 70
    32
  0
VERTEX
  8
2750LEVEL
 62
7
 10
2978.139
 20
-3890.266
 30
2477.000
 70
    32
  0
VERTEX
  8
2750LEVEL
 62
7
 10
2973.468
 20
-3881.944
 30
2477.000
 70
    32
  0
VERTEX
  8
2750LEVEL
 62
7
 10
2972.545
 20
-3880.951
 30
2477.000
 70
    32
  0
SEQEND
  8
2750LEVEL
  0
POLYLINE
  8
2750LEVEL
 62
7
 66
     1
 70
     9
  0
VERTEX
  8
2750LEVEL
 62
7
 10
2995.541
 20
-4307.664
 30
2477.000
 70
    32
  0
VERTEX
  8
2750LEVEL
 62
7
 10
2999.735
 20
-4315.148
 30
2477.000
 70
    32
  0
VERTEX
  8
2750LEVEL
 62
7
 10
3004.069
 20
-4322.328
 30
2477.000
 70
    32
  0
VERTEX
  8
2750LEVEL
 62
7
 10
3010.610
 20
-4332.425
 30
2477.000
 70
    32
  0
VERTEX
  8
2750LEVEL
 62
7
 10
3015.327
 20
-4339.362
 30
2477.000
 70
    32
  0
VERTEX
  8
2750LEVEL
 62
7
 10
3018.919
 20
-4349.060
 30
2477.000
 70
    32
  0
VERTEX
  8
2750LEVEL
 62
7
 10
3019.257
 20
-4355.654
 30
2477.000
 70
    32
  0
VERTEX
  8
2750LEVEL
 62
7
 10
3019.141
 20
-4363.444
 30
2477.000
 70
    32
  0
VERTEX
  8
2750LEVEL
 62
7
 10
3020.291
 20
-4369.131
 30
2477.000
 70
    32
  0
VERTEX
  8
2750LEVEL
 62
7
 10
3022.850
 20
-4375.615
 30
2477.000
 70
    32
  0
VERTEX
  8
2750LEVEL
 62
7
 10
3023.915
 20
-4379.830
 30
2477.000
 70
    32
  0
VERTEX
  8
2750LEVEL
 62
7
 10
3023.140
 20
-4376.537
 30
2477.000
 70
    32
  0
VERTEX
  8
2750LEVEL
 62
7
 10
3019.212
 20
-4370.508
 30
2477.000
 70
    32
  0
VERTEX
  8
2750LEVEL
 62
7
 10
3014.221
 20
-4361.865
 30
2477.000
 70
    32
  0
VERTEX
  8
2750LEVEL
 62
7
 10
3010.683
 20
-4351.033
 30
2477.000
 70
    32
  0
VERTEX
  8
2750LEVEL
 62
7
 10
3006.825
 20
-4340.521
 30
2477.000
 70
    32
  0
VERTEX
  8
2750LEVEL
 62
7
 10
3002.295
 20
-4329.329
 30
2477.000
 70
    32
  0
VERTEX
  8
2750LEVEL
 62
7
 10
2998.398
 20
-4322.376
 30
2477.000
 70
    32
  0
VERTEX
  8
2750LEVEL
 62
7
 10
2992.953
 20
-4313.327
 30
2477.000
 70
    32
  0
VERTEX
  8
2750LEVEL
 62
7
 10
2986.631
 20
-4301.580
 30
2477.000
 70
    32
  0
VERTEX
  8
2750LEVEL
 62
7
 10
2980.825
 20
-4289.676
 30
2477.000
 70
    32
  0
VERTEX
  8
2750LEVEL
 62
7
 10
2976.983
 20
-4280.947
 30
2477.000
 70
    32
  0
VERTEX
  8
2750LEVEL
 62
7
 10
2973.884
 20
-4268.738
 30
2477.000
 70
    32
  0
VERTEX
  8
2750LEVEL
 62
7
 10
2972.600
 20
-4259.759
 30
2477.000
 70
    32
  0
VERTEX
  8
2750LEVEL
 62
7
 10
2971.934
 20
-4256.122
 30
2477.000
 70
    32
  0
VERTEX
  8
2750LEVEL
 62
7
 10
2968.281
 20
-4251.797
 30
2477.000
 70
    32
  0
VERTEX
  8
2750LEVEL
 62
7
 10
2966.231
 20
-4250.038
 30
2477.000
 70
    32
  0
VERTEX
  8
2750LEVEL
 62
7
 10
2964.267
 20
-4247.824
 30
2477.000
 70
    32
  0
VERTEX
  8
2750LEVEL
 62
7
 10
2963.078
 20
-4246.338
 30
2477.000
 70
    32
  0
VERTEX
  8
2750LEVEL
 62
7
 10
2963.861
 20
-4246.675
 30
2477.000
 70
    32
  0
VERTEX
  8
2750LEVEL
 62
7
 10
2965.425
 20
-4247.347
 30
2477.000
 70
    32
  0
VERTEX
  8
2750LEVEL
 62
7
 10
2968.984
 20
-4248.348
 30
2477.000
 70
    32
  0
VERTEX
  8
2750LEVEL
 62
7
 10
2970.282
 20
-4247.245
 30
2477.000
 70
    32
  0
VERTEX
  8
2750LEVEL
 62
7
 10
2970.376
 20
-4244.476
 30
2477.000
 70
    32
  0
VERTEX
  8
2750LEVEL
 62
7
 10
2969.875
 20
-4242.247
 30
2477.000
 70
    32
  0
VERTEX
  8
2750LEVEL
 62
7
 10
2970.047
 20
-4240.698
 30
2477.000
 70
    32
  0
VERTEX
  8
2750LEVEL
 62
7
 10
2970.547
 20
-4240.041
 30
2477.000
 70
    32
  0
VERTEX
  8
2750LEVEL
 62
7
 10
2971.290
 20
-4240.408
 30
2477.000
 70
    32
  0
VERTEX
  8
2750LEVEL
 62
7
 10
2972.307
 20
-4241.839
 30
2477.000
 70
    32
  0
VERTEX
  8
2750LEVEL
 62
7
 10
2973.027
 20
-4242.739
 30
2477.000
 70
    32
  0
VERTEX
  8
2750LEVEL
 62
7
 10
2974.161
 20
-4241.831
 30
2477.000
 70
    32
  0
VERTEX
  8
2750LEVEL
 62
7
 10
2975.819
 20
-4239.414
 30
2477.000
 70
    32
  0
VERTEX
  8
2750LEVEL
 62
7
 10
2976.710
 20
-4237.482
 30
2477.000
 70
    32
  0
VERTEX
  8
2750LEVEL
 62
7
 10
2977.664
 20
-4236.911
 30
2477.000
 70
    32
  0
VERTEX
  8
2750LEVEL
 62
7
 10
2977.071
 20
-4243.544
 30
2477.000
 70
    32
  0
VERTEX
  8
2750LEVEL
 62
7
 10
2977.236
 20
-4249.441
 30
2477.000
 70
    32
  0
VERTEX
  8
2750LEVEL
 62
7
 10
2977.652
 20
-4258.859
 30
2477.000
 70
    32
  0
VERTEX
  8
2750LEVEL
 62
7
 10
2978.945
 20
-4269.692
 30
2477.000
 70
    32
  0
VERTEX
  8
2750LEVEL
 62
7
 10
2981.269
 20
-4279.570
 30
2477.000
 70
    32
  0
VERTEX
  8
2750LEVEL
 62
7
 10
2982.608
 20
-4283.567
 30
2477.000
 70
    32
  0
VERTEX
  8
2750LEVEL
 62
7
 10
2985.526
 20
-4290.661
 30
2477.000
 70
    32
  0
VERTEX
  8
2750LEVEL
 62
7
 10
2988.500
 20
-4296.300
 30
2477.000
 70
    32
  0
VERTEX
  8
2750LEVEL
 62
7
 10
2989.642
 20
-4298.529
 30
2477.000
 70
    32
  0
SEQEND
  8
2750LEVEL
  0
POLYLINE
  8
2750LEVEL
 62
7
 66
     1
 70
     8
  0
VERTEX
  8
2750LEVEL
 62
7
 10
2946.349
 20
-3845.395
 30
2477.000
 70
    32
  0
VERTEX
  8
2750LEVEL
 62
7
 10
2947.251
 20
-3843.653
 30
2477.000
 70
    32
  0
VERTEX
  8
2750LEVEL
 62
7
 10
2947.641
 20
-3841.737
 30
2477.000
 70
    32
  0
VERTEX
  8
2750LEVEL
 62
7
 10
2947.969
 20
-3836.215
 30
2477.000
 70
    32
  0
VERTEX
  8
2750LEVEL
 62
7
 10
2946.865
 20
-3827.540
 30
2477.000
 70
    32
  0
VERTEX
  8
2750LEVEL
 62
7
 10
2945.823
 20
-3820.869
 30
2477.000
 70
    32
  0
VERTEX
  8
2750LEVEL
 62
7
 10
2945.713
 20
-3814.478
 30
2477.000
 70
    32
  0
VERTEX
  8
2750LEVEL
 62
7
 10
2946.573
 20
-3811.866
 30
2477.000
 70
    32
  0
VERTEX
  8
2750LEVEL
 62
7
 10
2947.417
 20
-3811.639
 30
2477.000
 70
    32
  0
VERTEX
  8
2750LEVEL
 62
7
 10
2949.295
 20
-3811.099
 30
2477.000
 70
    32
  0
VERTEX
  8
2750LEVEL
 62
7
 10
2949.810
 20
-3809.018
 30
2477.000
 70
    32
  0
VERTEX
  8
2750LEVEL
 62
7
 10
2950.107
 20
-3807.626
 30
2477.000
 70
    32
  0
VERTEX
  8
2750LEVEL
 62
7
 10
2951.077
 20
-3807.555
 30
2477.000
 70
    32
  0
VERTEX
  8
2750LEVEL
 62
7
 10
2952.313
 20
-3807.657
 30
2477.000
 70
    32
  0
VERTEX
  8
2750LEVEL
 62
7
 10
2952.759
 20
-3807.492
 30
2477.000
 70
    32
  0
VERTEX
  8
2750LEVEL
 62
7
 10
2952.430
 20
-3805.959
 30
2477.000
 70
    32
  0
VERTEX
  8
2750LEVEL
 62
7
 10
2951.906
 20
-3804.262
 30
2477.000
 70
    32
  0
VERTEX
  8
2750LEVEL
 62
7
 10
2952.891
 20
-3804.051
 30
2477.000
 70
    32
  0
VERTEX
  8
2750LEVEL
 62
7
 10
2956.748
 20
-3805.583
 30
2477.000
 70
    32
  0
VERTEX
  8
2750LEVEL
 62
7
 10
2960.807
 20
-3805.927
 30
2477.000
 70
    32
  0
VERTEX
  8
2750LEVEL
 62
7
 10
2961.417
 20
-3804.284
 30
2477.000
 70
    32
  0
VERTEX
  8
2750LEVEL
 62
7
 10
2961.613
 20
-3803.165
 30
2477.000
 70
    32
  0
VERTEX
  8
2750LEVEL
 62
7
 10
2961.300
 20
-3802.133
 30
2477.000
 70
    32
  0
VERTEX
  8
2750LEVEL
 62
7
 10
2964.241
 20
-3805.167
 30
2477.000
 70
    32
  0
VERTEX
  8
2750LEVEL
 62
7
 10
2967.261
 20
-3810.705
 30
2477.000
 70
    32
  0
VERTEX
  8
2750LEVEL
 62
7
 10
2968.929
 20
-3821.365
 30
2477.000
 70
    32
  0
VERTEX
  8
2750LEVEL
 62
7
 10
2970.213
 20
-3831.307
 30
2477.000
 70
    32
  0
VERTEX
  8
2750LEVEL
 62
7
 10
2976.504
 20
-3845.260
 30
2477.000
 70
    32
  0
VERTEX
  8
2750LEVEL
 62
7
 10
2983.186
 20
-3854.089
 30
2477.000
 70
    32
  0
VERTEX
  8
2750LEVEL
 62
7
 10
2995.593
 20
-3865.906
 30
2477.000
 70
    32
  0
VERTEX
  8
2750LEVEL
 62
7
 10
3004.433
 20
-3873.906
 30
2477.000
 70
    32
  0
VERTEX
  8
2750LEVEL
 62
7
 10
3016.832
 20
-3886.755
 30
2477.000
 70
    32
  0
VERTEX
  8
2750LEVEL
 62
7
 10
3024.695
 20
-3895.217
 30
2477.000
 70
    32
  0
VERTEX
  8
2750LEVEL
 62
7
 10
3033.911
 20
-3906.893
 30
2477.000
 70
    32
  0
VERTEX
  8
2750LEVEL
 62
7
 10
3042.524
 20
-3917.897
 30
2477.000
 70
    32
  0
VERTEX
  8
2750LEVEL
 62
7
 10
3049.159
 20
-3927.470
 30
2477.000
 70
    32
  0
VERTEX
  8
2750LEVEL
 62
7
 10
3057.820
 20
-3942.862
 30
2477.000
 70
    32
  0
VERTEX
  8
2750LEVEL
 62
7
 10
3066.364
 20
-3957.385
 30
2477.000
 70
    32
  0
VERTEX
  8
2750LEVEL
 62
7
 10
3072.834
 20
-3967.474
 30
2477.000
 70
    32
  0
VERTEX
  8
2750LEVEL
 62
7
 10
3084.107
 20
-3979.878
 30
2477.000
 70
    32
  0
VERTEX
  8
2750LEVEL
 62
7
 10
3096.757
 20
-3990.474
 30
2477.000
 70
    32
  0
VERTEX
  8
2750LEVEL
 62
7
 10
3107.576
 20
-3998.623
 30
2477.000
 70
    32
  0
VERTEX
  8
2750LEVEL
 62
7
 10
3114.569
 20
-4003.674
 30
2477.000
 70
    32
  0
VERTEX
  8
2750LEVEL
 62
7
 10
3127.319
 20
-4008.225
 30
2477.000
 70
    32
  0
VERTEX
  8
2750LEVEL
 62
7
 10
3137.089
 20
-4009.451
 30
2477.000
 70
    32
  0
VERTEX
  8
2750LEVEL
 62
7
 10
3152.576
 20
-4011.811
 30
2477.000
 70
    32
  0
VERTEX
  8
2750LEVEL
 62
7
 10
3170.778
 20
-4012.191
 30
2477.000
 70
    32
  0
VERTEX
  8
2750LEVEL
 62
7
 10
3180.000
 20
-4012.252
 30
2477.000
 70
    32
  0
VERTEX
  8
2750LEVEL
 62
7
 10
3195.776
 20
-4012.969
 30
2477.000
 70
    32
  0
VERTEX
  8
2750LEVEL
 62
7
 10
3209.159
 20
-4014.382
 30
2477.000
 70
    32
  0
VERTEX
  8
2750LEVEL
 62
7
 10
3214.729
 20
-4015.250
 30
2477.000
 70
    32
  0
VERTEX
  8
2750LEVEL
 62
7
 10
3223.889
 20
-4018.760
 30
2477.000
 70
    32
  0
VERTEX
  8
2750LEVEL
 62
7
 10
3231.328
 20
-4023.968
 30
2477.000
 70
    32
  0
VERTEX
  8
2750LEVEL
 62
7
 10
3236.616
 20
-4027.690
 30
2477.000
 70
    32
  0
VERTEX
  8
2750LEVEL
 62
7
 10
3248.499
 20
-4037.489
 30
2477.000
 70
    32
  0
VERTEX
  8
2750LEVEL
 62
7
 10
3259.482
 20
-4046.083
 30
2477.000
 70
    32
  0
VERTEX
  8
2750LEVEL
 62
7
 10
3262.032
 20
-4046.224
 30
2477.000
 70
    32
  0
VERTEX
  8
2750LEVEL
 62
7
 10
3261.563
 20
-4045.317
 30
2477.000
 70
    32
  0
VERTEX
  8
2750LEVEL
 62
7
 10
3259.020
 20
-4042.220
 30
2477.000
 70
    32
  0
VERTEX
  8
2750LEVEL
 62
7
 10
3251.596
 20
-4033.985
 30
2477.000
 70
    32
  0
VERTEX
  8
2750LEVEL
 62
7
 10
3246.041
 20
-4028.166
 30
2477.000
 70
    32
  0
VERTEX
  8
2750LEVEL
 62
7
 10
3239.384
 20
-4022.653
 30
2477.000
 70
    32
  0
VERTEX
  8
2750LEVEL
 62
7
 10
3234.448
 20
-4020.894
 30
2477.000
 70
    32
  0
VERTEX
  8
2750LEVEL
 62
7
 10
3227.768
 20
-4018.799
 30
2477.000
 70
    32
  0
VERTEX
  8
2750LEVEL
 62
7
 10
3224.608
 20
-4016.773
 30
2477.000
 70
    32
  0
VERTEX
  8
2750LEVEL
 62
7
 10
3220.258
 20
-4012.621
 30
2477.000
 70
    32
  0
VERTEX
  8
2750LEVEL
 62
7
 10
3212.724
 20
-4004.088
 30
2477.000
 70
    32
  0
VERTEX
  8
2750LEVEL
 62
7
 10
3207.702
 20
-3997.973
 30
2477.000
 70
    32
  0
VERTEX
  8
2750LEVEL
 62
7
 10
3195.857
 20
-3984.294
 30
2477.000
 70
    32
  0
VERTEX
  8
2750LEVEL
 62
7
 10
3186.258
 20
-3971.898
 30
2477.000
 70
    32
  0
VERTEX
  8
2750LEVEL
 62
7
 10
3173.764
 20
-3952.197
 30
2477.000
 70
    32
  0
VERTEX
  8
2750LEVEL
 62
7
 10
3165.110
 20
-3938.980
 30
2477.000
 70
    32
  0
VERTEX
  8
2750LEVEL
 62
7
 10
3156.903
 20
-3925.598
 30
2477.000
 70
    32
  0
VERTEX
  8
2750LEVEL
 62
7
 10
3145.809
 20
-3908.369
 30
2477.000
 70
    32
  0
VERTEX
  8
2750LEVEL
 62
7
 10
3138.572
 20
-3896.199
 30
2477.000
 70
    32
  0
VERTEX
  8
2750LEVEL
 62
7
 10
3133.954
 20
-3879.047
 30
2477.000
 70
    32
  0
VERTEX
  8
2750LEVEL
 62
7
 10
3132.122
 20
-3866.016
 30
2477.000
 70
    32
  0
VERTEX
  8
2750LEVEL
 62
7
 10
3129.851
 20
-3851.476
 30
2477.000
 70
    32
  0
VERTEX
  8
2750LEVEL
 62
7
 10
3126.156
 20
-3833.713
 30
2477.000
 70
    32
  0
VERTEX
  8
2750LEVEL
 62
7
 10
3120.538
 20
-3817.875
 30
2477.000
 70
    32
  0
VERTEX
  8
2750LEVEL
 62
7
 10
3114.683
 20
-3794.528
 30
2477.000
 70
    32
  0
VERTEX
  8
2750LEVEL
 62
7
 10
3111.692
 20
-3778.127
 30
2477.000
 70
    32
  0
VERTEX
  8
2750LEVEL
 62
7
 10
3107.160
 20
-3757.314
 30
2477.000
 70
    32
  0
VERTEX
  8
2750LEVEL
 62
7
 10
3103.545
 20
-3747.506
 30
2477.000
 70
    32
  0
VERTEX
  8
2750LEVEL
 62
7
 10
3096.910
 20
-3736.009
 30
2477.000
 70
    32
  0
VERTEX
  8
2750LEVEL
 62
7
 10
3090.049
 20
-3727.836
 30
2477.000
 70
    32
  0
VERTEX
  8
2750LEVEL
 62
7
 10
3078.964
 20
-3715.988
 30
2477.000
 70
    32
  0
VERTEX
  8
2750LEVEL
 62
7
 10
3066.776
 20
-3704.766
 30
2477.000
 70
    32
  0
VERTEX
  8
2750LEVEL
 62
7
 10
3055.033
 20
-3693.700
 30
2477.000
 70
    32
  0
VERTEX
  8
2750LEVEL
 62
7
 10
3041.265
 20
-3680.663
 30
2477.000
 70
    32
  0
VERTEX
  8
2750LEVEL
 62
7
 10
3032.002
 20
-3670.371
 30
2477.000
 70
    32
  0
VERTEX
  8
2750LEVEL
 62
7
 10
3022.458
 20
-3659.086
 30
2477.000
 70
    32
  0
VERTEX
  8
2750LEVEL
 62
7
 10
3012.741
 20
-3644.219
 30
2477.000
 70
    32
  0
VERTEX
  8
2750LEVEL
 62
7
 10
3007.701
 20
-3628.623
 30
2477.000
 70
    32
  0
VERTEX
  8
2750LEVEL
 62
7
 10
3005.414
 20
-3613.582
 30
2477.000
 70
    32
  0
VERTEX
  8
2750LEVEL
 62
7
 10
3008.423
 20
-3599.307
 30
2477.000
 70
    32
  0
VERTEX
  8
2750LEVEL
 62
7
 10
3011.473
 20
-3596.866
 30
2477.000
 70
    32
  0
VERTEX
  8
2750LEVEL
 62
7
 10
3008.423
 20
-3599.307
 30
2477.000
 70
    32
  0
VERTEX
  8
2750LEVEL
 62
7
 10
3043.926
 20
-3603.754
 30
2477.000
 70
    32
  0
VERTEX
  8
2750LEVEL
 62
7
 10
3083.644
 20
-3645.870
 30
2477.000
 70
    32
  0
VERTEX
  8
2750LEVEL
 62
7
 10
3115.457
 20
-3686.674
 30
2477.000
 70
    32
  0
VERTEX
  8
2750LEVEL
 62
7
 10
3148.927
 20
-3738.921
 30
2477.000
 70
    32
  0
VERTEX
  8
2750LEVEL
 62
7
 10
3184.494
 20
-3789.231
 30
2477.000
 70
    32
  0
VERTEX
  8
2750LEVEL
 62
7
 10
3195.370
 20
-3752.711
 30
2477.000
 70
    32
  0
VERTEX
  8
2750LEVEL
 62
7
 10
3174.610
 20
-3689.627
 30
2477.000
 70
    32
  0
VERTEX
  8
2750LEVEL
 62
7
 10
3151.805
 20
-3641.940
 30
2477.000
 70
    32
  0
VERTEX
  8
2750LEVEL
 62
7
 10
3175.727
 20
-3649.205
 30
2477.000
 70
    32
  0
SEQEND
  8
2750LEVEL
  0
POLYLINE
  8
2750LEVEL
 62
3
 66
     1
 70
     8
  0
VERTEX
  8
2750LEVEL
 62
3
 10
2972.545
 20
-3880.951
 30
2477.000
 70
    32
  0
VERTEX
  8
2750LEVEL
 62
3
 10
2972.122
 20
-3880.263
 30
2477.000
 70
    32
  0
VERTEX
  8
2750LEVEL
 62
3
 10
2968.962
 20
-3876.313
 30
2477.000
 70
    32
  0
VERTEX
  8
2750LEVEL
 62
3
 10
2964.635
 20
-3870.025
 30
2477.000
 70
    32
  0
VERTEX
  8
2750LEVEL
 62
3
 10
2960.089
 20
-3863.464
 30
2477.000
 70
    32
  0
VERTEX
  8
2750LEVEL
 62
3
 10
2955.122
 20
-3856.534
 30
2477.000
 70
    32
  0
VERTEX
  8
2750LEVEL
 62
3
 10
2950.490
 20
-3850.747
 30
2477.000
 70
    32
  0
VERTEX
  8
2750LEVEL
 62
3
 10
2947.854
 20
-3847.533
 30
2477.000
 70
    32
  0
VERTEX
  8
2750LEVEL
 62
3
 10
2946.349
 20
-3845.395
 30
2477.000
 70
    32
  0
SEQEND
  8
2750LEVEL
  0
ENDSEC
  0
EOF
