999
********************************
999
*   DXF File - Entities Only   *
999
*        3D Data Format        *
999
*     Output from ENVISAGE     *
999
*     28-Dec-2007 13:56:06     *
999
********************************
  0
SECTION 
  2
HEADER
  9
$ACADVER
  1
AC1009
  9
$EXTMIN
 10
-290000.000
 20
-250000.000
 30
-4000.000
  9
$EXTMAX
 10
5000000.000
 20
600000.000
 30
6000.000
  0
ENDSEC
  0
SECTION
  2
ENTITIES
  0
POLYLINE
  8
2900LEVEL
 62
5
 66
     1
 70
     9
  0
VERTEX
  8
2900LEVEL
 62
5
 10
2879.104
 20
-3696.123
 30
2327.000
 70
    32
  0
VERTEX
  8
2900LEVEL
 62
5
 10
2885.020
 20
-3730.089
 30
2327.000
 70
    32
  0
VERTEX
  8
2900LEVEL
 62
5
 10
2888.118
 20
-3776.963
 30
2327.000
 70
    32
  0
VERTEX
  8
2900LEVEL
 62
5
 10
2886.239
 20
-3813.968
 30
2327.000
 70
    32
  0
VERTEX
  8
2900LEVEL
 62
5
 10
2873.595
 20
-3807.914
 30
2327.000
 70
    32
  0
VERTEX
  8
2900LEVEL
 62
5
 10
2877.745
 20
-3774.045
 30
2327.000
 70
    32
  0
VERTEX
  8
2900LEVEL
 62
5
 10
2870.314
 20
-3733.788
 30
2327.000
 70
    32
  0
VERTEX
  8
2900LEVEL
 62
5
 10
2874.080
 20
-3697.589
 30
2327.000
 70
    32
  0
SEQEND
  8
2900LEVEL
  0
POLYLINE
  8
2900LEVEL
 62
5
 66
     1
 70
     9
  0
VERTEX
  8
2900LEVEL
 62
5
 10
2900.425
 20
-3854.547
 30
2327.000
 70
    32
  0
VERTEX
  8
2900LEVEL
 62
5
 10
2905.565
 20
-3888.640
 30
2327.000
 70
    32
  0
VERTEX
  8
2900LEVEL
 62
5
 10
2905.818
 20
-3920.188
 30
2327.000
 70
    32
  0
VERTEX
  8
2900LEVEL
 62
5
 10
2896.300
 20
-3916.651
 30
2327.000
 70
    32
  0
VERTEX
  8
2900LEVEL
 62
5
 10
2889.567
 20
-3876.758
 30
2327.000
 70
    32
  0
VERTEX
  8
2900LEVEL
 62
5
 10
2896.539
 20
-3842.584
 30
2327.000
 70
    32
  0
SEQEND
  8
2900LEVEL
  0
POLYLINE
  8
2900LEVEL
 62
5
 66
     1
 70
     9
  0
VERTEX
  8
2900LEVEL
 62
5
 10
3478.917
 20
-5417.996
 30
2327.000
 70
    32
  0
VERTEX
  8
2900LEVEL
 62
5
 10
3472.538
 20
-5382.193
 30
2327.000
 70
    32
  0
VERTEX
  8
2900LEVEL
 62
5
 10
3453.829
 20
-5338.370
 30
2327.000
 70
    32
  0
VERTEX
  8
2900LEVEL
 62
5
 10
3431.205
 20
-5284.343
 30
2327.000
 70
    32
  0
VERTEX
  8
2900LEVEL
 62
5
 10
3410.306
 20
-5249.497
 30
2327.000
 70
    32
  0
VERTEX
  8
2900LEVEL
 62
5
 10
3402.769
 20
-5266.693
 30
2327.000
 70
    32
  0
VERTEX
  8
2900LEVEL
 62
5
 10
3418.331
 20
-5304.972
 30
2327.000
 70
    32
  0
VERTEX
  8
2900LEVEL
 62
5
 10
3438.337
 20
-5346.985
 30
2327.000
 70
    32
  0
VERTEX
  8
2900LEVEL
 62
5
 10
3455.109
 20
-5388.734
 30
2327.000
 70
    32
  0
VERTEX
  8
2900LEVEL
 62
5
 10
3470.854
 20
-5411.667
 30
2327.000
 70
    32
  0
SEQEND
  8
2900LEVEL
  0
POLYLINE
  8
2900LEVEL
 62
5
 66
     1
 70
     9
  0
VERTEX
  8
2900LEVEL
 62
5
 10
3298.951
 20
-5387.984
 30
2327.000
 70
    32
  0
VERTEX
  8
2900LEVEL
 62
5
 10
3278.107
 20
-5337.015
 30
2327.000
 70
    32
  0
VERTEX
  8
2900LEVEL
 62
5
 10
3256.359
 20
-5285.396
 30
2327.000
 70
    32
  0
VERTEX
  8
2900LEVEL
 62
5
 10
3232.458
 20
-5236.207
 30
2327.000
 70
    32
  0
VERTEX
  8
2900LEVEL
 62
5
 10
3223.711
 20
-5249.933
 30
2327.000
 70
    32
  0
VERTEX
  8
2900LEVEL
 62
5
 10
3252.185
 20
-5303.634
 30
2327.000
 70
    32
  0
VERTEX
  8
2900LEVEL
 62
5
 10
3276.755
 20
-5354.947
 30
2327.000
 70
    32
  0
VERTEX
  8
2900LEVEL
 62
5
 10
3294.667
 20
-5395.870
 30
2327.000
 70
    32
  0
SEQEND
  8
2900LEVEL
  0
POLYLINE
  8
2900LEVEL
 62
5
 66
     1
 70
     9
  0
VERTEX
  8
2900LEVEL
 62
5
 10
2430.185
 20
-3188.086
 30
2327.000
 70
    32
  0
VERTEX
  8
2900LEVEL
 62
5
 10
2438.867
 20
-3237.868
 30
2327.000
 70
    32
  0
VERTEX
  8
2900LEVEL
 62
5
 10
2454.388
 20
-3227.493
 30
2327.000
 70
    32
  0
VERTEX
  8
2900LEVEL
 62
5
 10
2449.475
 20
-3196.713
 30
2327.000
 70
    32
  0
SEQEND
  8
2900LEVEL
  0
POLYLINE
  8
2900LEVEL
 62
5
 66
     1
 70
     9
  0
VERTEX
  8
2900LEVEL
 62
5
 10
2447.538
 20
-3279.835
 30
2327.000
 70
    32
  0
VERTEX
  8
2900LEVEL
 62
5
 10
2448.475
 20
-3248.730
 30
2327.000
 70
    32
  0
VERTEX
  8
2900LEVEL
 62
5
 10
2459.967
 20
-3247.793
 30
2327.000
 70
    32
  0
VERTEX
  8
2900LEVEL
 62
5
 10
2462.009
 20
-3277.610
 30
2327.000
 70
    32
  0
SEQEND
  8
2900LEVEL
  0
POLYLINE
  8
2900LEVEL
 62
5
 66
     1
 70
     9
  0
VERTEX
  8
2900LEVEL
 62
5
 10
2470.578
 20
-3304.437
 30
2327.000
 70
    32
  0
VERTEX
  8
2900LEVEL
 62
5
 10
2466.649
 20
-3273.814
 30
2327.000
 70
    32
  0
VERTEX
  8
2900LEVEL
 62
5
 10
2475.974
 20
-3273.713
 30
2327.000
 70
    32
  0
VERTEX
  8
2900LEVEL
 62
5
 10
2474.892
 20
-3294.792
 30
2327.000
 70
    32
  0
VERTEX
  8
2900LEVEL
 62
5
 10
2477.914
 20
-3312.163
 30
2327.000
 70
    32
  0
SEQEND
  8
2900LEVEL
  0
POLYLINE
  8
2900LEVEL
 62
5
 66
     1
 70
     9
  0
VERTEX
  8
2900LEVEL
 62
5
 10
2479.639
 20
-3246.147
 30
2327.000
 70
    32
  0
VERTEX
  8
2900LEVEL
 62
5
 10
2478.916
 20
-3274.596
 30
2327.000
 70
    32
  0
VERTEX
  8
2900LEVEL
 62
5
 10
2490.846
 20
-3288.015
 30
2327.000
 70
    32
  0
VERTEX
  8
2900LEVEL
 62
5
 10
2495.087
 20
-3261.470
 30
2327.000
 70
    32
  0
SEQEND
  8
2900LEVEL
  0
POLYLINE
  8
2900LEVEL
 62
5
 66
     1
 70
     9
  0
VERTEX
  8
2900LEVEL
 62
5
 10
2500.905
 20
-3335.497
 30
2327.000
 70
    32
  0
VERTEX
  8
2900LEVEL
 62
5
 10
2498.549
 20
-3307.646
 30
2327.000
 70
    32
  0
VERTEX
  8
2900LEVEL
 62
5
 10
2517.092
 20
-3314.641
 30
2327.000
 70
    32
  0
VERTEX
  8
2900LEVEL
 62
5
 10
2521.228
 20
-3345.549
 30
2327.000
 70
    32
  0
VERTEX
  8
2900LEVEL
 62
5
 10
2523.634
 20
-3374.669
 30
2327.000
 70
    32
  0
SEQEND
  8
2900LEVEL
  0
POLYLINE
  8
2900LEVEL
 62
5
 66
     1
 70
     9
  0
VERTEX
  8
2900LEVEL
 62
5
 10
2533.043
 20
-3380.457
 30
2327.000
 70
    32
  0
VERTEX
  8
2900LEVEL
 62
5
 10
2529.291
 20
-3351.879
 30
2327.000
 70
    32
  0
VERTEX
  8
2900LEVEL
 62
5
 10
2541.604
 20
-3369.474
 30
2327.000
 70
    32
  0
VERTEX
  8
2900LEVEL
 62
5
 10
2556.208
 20
-3393.232
 30
2327.000
 70
    32
  0
VERTEX
  8
2900LEVEL
 62
5
 10
2555.830
 20
-3416.109
 30
2327.000
 70
    32
  0
SEQEND
  8
2900LEVEL
  0
POLYLINE
  8
2900LEVEL
 62
5
 66
     1
 70
     8
  0
VERTEX
  8
2900LEVEL
 62
5
 10
2591.823
 20
-3462.189
 30
2327.000
 70
    32
  0
VERTEX
  8
2900LEVEL
 62
5
 10
2579.621
 20
-3412.348
 30
2327.000
 70
    32
  0
VERTEX
  8
2900LEVEL
 62
5
 10
2561.270
 20
-3385.219
 30
2327.000
 70
    32
  0
VERTEX
  8
2900LEVEL
 62
5
 10
2563.495
 20
-3357.091
 30
2327.000
 70
    32
  0
SEQEND
  8
2900LEVEL
  0
POLYLINE
  8
2900LEVEL
 62
5
 66
     1
 70
     9
  0
VERTEX
  8
2900LEVEL
 62
5
 10
2314.499
 20
-3345.794
 30
2327.000
 70
    32
  0
VERTEX
  8
2900LEVEL
 62
5
 10
2311.532
 20
-3312.300
 30
2327.000
 70
    32
  0
VERTEX
  8
2900LEVEL
 62
5
 10
2293.361
 20
-3257.220
 30
2327.000
 70
    32
  0
VERTEX
  8
2900LEVEL
 62
5
 10
2277.584
 20
-3180.846
 30
2327.000
 70
    32
  0
VERTEX
  8
2900LEVEL
 62
5
 10
2258.651
 20
-3103.715
 30
2327.000
 70
    32
  0
VERTEX
  8
2900LEVEL
 62
5
 10
2237.513
 20
-3015.142
 30
2327.000
 70
    32
  0
VERTEX
  8
2900LEVEL
 62
5
 10
2233.194
 20
-2956.982
 30
2327.000
 70
    32
  0
VERTEX
  8
2900LEVEL
 62
5
 10
2232.254
 20
-2890.287
 30
2327.000
 70
    32
  0
VERTEX
  8
2900LEVEL
 62
5
 10
2218.257
 20
-2816.970
 30
2327.000
 70
    32
  0
VERTEX
  8
2900LEVEL
 62
5
 10
2200.750
 20
-2738.807
 30
2327.000
 70
    32
  0
VERTEX
  8
2900LEVEL
 62
5
 10
2197.902
 20
-2668.279
 30
2327.000
 70
    32
  0
VERTEX
  8
2900LEVEL
 62
5
 10
2188.853
 20
-2606.590
 30
2327.000
 70
    32
  0
VERTEX
  8
2900LEVEL
 62
5
 10
2162.526
 20
-2567.852
 30
2327.000
 70
    32
  0
VERTEX
  8
2900LEVEL
 62
5
 10
2156.333
 20
-2614.502
 30
2327.000
 70
    32
  0
VERTEX
  8
2900LEVEL
 62
5
 10
2174.428
 20
-2682.677
 30
2327.000
 70
    32
  0
VERTEX
  8
2900LEVEL
 62
5
 10
2181.948
 20
-2760.253
 30
2327.000
 70
    32
  0
VERTEX
  8
2900LEVEL
 62
5
 10
2202.230
 20
-2849.446
 30
2327.000
 70
    32
  0
VERTEX
  8
2900LEVEL
 62
5
 10
2214.360
 20
-2924.986
 30
2327.000
 70
    32
  0
VERTEX
  8
2900LEVEL
 62
5
 10
2210.442
 20
-2987.375
 30
2327.000
 70
    32
  0
VERTEX
  8
2900LEVEL
 62
5
 10
2223.700
 20
-3054.273
 30
2327.000
 70
    32
  0
VERTEX
  8
2900LEVEL
 62
5
 10
2246.830
 20
-3128.797
 30
2327.000
 70
    32
  0
VERTEX
  8
2900LEVEL
 62
5
 10
2266.755
 20
-3201.297
 30
2327.000
 70
    32
  0
VERTEX
  8
2900LEVEL
 62
5
 10
2278.745
 20
-3268.244
 30
2327.000
 70
    32
  0
VERTEX
  8
2900LEVEL
 62
5
 10
2296.572
 20
-3327.050
 30
2327.000
 70
    32
  0
SEQEND
  8
2900LEVEL
  0
POLYLINE
  8
2900LEVEL
 62
5
 66
     1
 70
     9
  0
VERTEX
  8
2900LEVEL
 62
5
 10
2290.780
 20
-4844.792
 30
2327.000
 70
    32
  0
VERTEX
  8
2900LEVEL
 62
5
 10
2278.357
 20
-4816.845
 30
2327.000
 70
    32
  0
VERTEX
  8
2900LEVEL
 62
5
 10
2246.026
 20
-4749.421
 30
2327.000
 70
    32
  0
VERTEX
  8
2900LEVEL
 62
5
 10
2218.553
 20
-4686.301
 30
2327.000
 70
    32
  0
VERTEX
  8
2900LEVEL
 62
5
 10
2187.948
 20
-4638.057
 30
2327.000
 70
    32
  0
VERTEX
  8
2900LEVEL
 62
5
 10
2140.442
 20
-4589.886
 30
2327.000
 70
    32
  0
VERTEX
  8
2900LEVEL
 62
5
 10
2096.721
 20
-4538.538
 30
2327.000
 70
    32
  0
VERTEX
  8
2900LEVEL
 62
5
 10
2056.226
 20
-4492.243
 30
2327.000
 70
    32
  0
VERTEX
  8
2900LEVEL
 62
5
 10
2016.120
 20
-4430.886
 30
2327.000
 70
    32
  0
VERTEX
  8
2900LEVEL
 62
5
 10
1963.172
 20
-4358.404
 30
2327.000
 70
    32
  0
VERTEX
  8
2900LEVEL
 62
5
 10
1922.034
 20
-4295.622
 30
2327.000
 70
    32
  0
VERTEX
  8
2900LEVEL
 62
5
 10
1879.066
 20
-4228.515
 30
2327.000
 70
    32
  0
VERTEX
  8
2900LEVEL
 62
5
 10
1851.640
 20
-4154.060
 30
2327.000
 70
    32
  0
VERTEX
  8
2900LEVEL
 62
5
 10
1843.053
 20
-4094.210
 30
2327.000
 70
    32
  0
VERTEX
  8
2900LEVEL
 62
5
 10
1824.429
 20
-4032.504
 30
2327.000
 70
    32
  0
VERTEX
  8
2900LEVEL
 62
5
 10
1816.054
 20
-3998.146
 30
2327.000
 70
    32
  0
VERTEX
  8
2900LEVEL
 62
5
 10
1809.210
 20
-4033.098
 30
2327.000
 70
    32
  0
VERTEX
  8
2900LEVEL
 62
5
 10
1818.710
 20
-4088.809
 30
2327.000
 70
    32
  0
VERTEX
  8
2900LEVEL
 62
5
 10
1841.035
 20
-4165.221
 30
2327.000
 70
    32
  0
VERTEX
  8
2900LEVEL
 62
5
 10
1872.138
 20
-4238.750
 30
2327.000
 70
    32
  0
VERTEX
  8
2900LEVEL
 62
5
 10
1900.955
 20
-4288.725
 30
2327.000
 70
    32
  0
VERTEX
  8
2900LEVEL
 62
5
 10
1947.020
 20
-4360.108
 30
2327.000
 70
    32
  0
VERTEX
  8
2900LEVEL
 62
5
 10
1995.032
 20
-4428.777
 30
2327.000
 70
    32
  0
VERTEX
  8
2900LEVEL
 62
5
 10
2036.897
 20
-4490.163
 30
2327.000
 70
    32
  0
VERTEX
  8
2900LEVEL
 62
5
 10
2088.082
 20
-4550.013
 30
2327.000
 70
    32
  0
VERTEX
  8
2900LEVEL
 62
5
 10
2138.217
 20
-4618.013
 30
2327.000
 70
    32
  0
VERTEX
  8
2900LEVEL
 62
5
 10
2174.169
 20
-4658.037
 30
2327.000
 70
    32
  0
VERTEX
  8
2900LEVEL
 62
5
 10
2214.513
 20
-4730.523
 30
2327.000
 70
    32
  0
VERTEX
  8
2900LEVEL
 62
5
 10
2252.213
 20
-4805.358
 30
2327.000
 70
    32
  0
VERTEX
  8
2900LEVEL
 62
5
 10
2274.942
 20
-4844.530
 30
2327.000
 70
    32
  0
SEQEND
  8
2900LEVEL
  0
POLYLINE
  8
2900LEVEL
 62
5
 66
     1
 70
     9
  0
VERTEX
  8
2900LEVEL
 62
5
 10
1793.837
 20
-3962.081
 30
2327.000
 70
    32
  0
VERTEX
  8
2900LEVEL
 62
5
 10
1772.671
 20
-3917.866
 30
2327.000
 70
    32
  0
VERTEX
  8
2900LEVEL
 62
5
 10
1739.546
 20
-3860.145
 30
2327.000
 70
    32
  0
VERTEX
  8
2900LEVEL
 62
5
 10
1707.463
 20
-3799.062
 30
2327.000
 70
    32
  0
VERTEX
  8
2900LEVEL
 62
5
 10
1671.819
 20
-3731.864
 30
2327.000
 70
    32
  0
VERTEX
  8
2900LEVEL
 62
5
 10
1630.919
 20
-3680.211
 30
2327.000
 70
    32
  0
VERTEX
  8
2900LEVEL
 62
5
 10
1618.226
 20
-3672.890
 30
2327.000
 70
    32
  0
VERTEX
  8
2900LEVEL
 62
5
 10
1635.105
 20
-3712.387
 30
2327.000
 70
    32
  0
VERTEX
  8
2900LEVEL
 62
5
 10
1672.005
 20
-3771.720
 30
2327.000
 70
    32
  0
VERTEX
  8
2900LEVEL
 62
5
 10
1700.912
 20
-3829.019
 30
2327.000
 70
    32
  0
VERTEX
  8
2900LEVEL
 62
5
 10
1730.616
 20
-3889.218
 30
2327.000
 70
    32
  0
VERTEX
  8
2900LEVEL
 62
5
 10
1757.475
 20
-3934.090
 30
2327.000
 70
    32
  0
VERTEX
  8
2900LEVEL
 62
5
 10
1788.206
 20
-3970.508
 30
2327.000
 70
    32
  0
SEQEND
  8
2900LEVEL
  0
POLYLINE
  8
2900LEVEL
 62
5
 66
     1
 70
     9
  0
VERTEX
  8
2900LEVEL
 62
5
 10
1551.933
 20
-3623.985
 30
2327.000
 70
    32
  0
VERTEX
  8
2900LEVEL
 62
5
 10
1583.618
 20
-3662.320
 30
2327.000
 70
    32
  0
VERTEX
  8
2900LEVEL
 62
5
 10
1621.990
 20
-3709.284
 30
2327.000
 70
    32
  0
VERTEX
  8
2900LEVEL
 62
5
 10
1631.955
 20
-3736.838
 30
2327.000
 70
    32
  0
VERTEX
  8
2900LEVEL
 62
5
 10
1619.497
 20
-3728.042
 30
2327.000
 70
    32
  0
VERTEX
  8
2900LEVEL
 62
5
 10
1595.511
 20
-3696.736
 30
2327.000
 70
    32
  0
VERTEX
  8
2900LEVEL
 62
5
 10
1559.135
 20
-3648.326
 30
2327.000
 70
    32
  0
VERTEX
  8
2900LEVEL
 62
5
 10
1541.424
 20
-3625.079
 30
2327.000
 70
    32
  0
SEQEND
  8
2900LEVEL
  0
POLYLINE
  8
2900LEVEL
 62
5
 66
     1
 70
     9
  0
VERTEX
  8
2900LEVEL
 62
5
 10
954.116
 20
-3263.813
 30
2327.000
 70
    32
  0
VERTEX
  8
2900LEVEL
 62
5
 10
968.369
 20
-3296.085
 30
2327.000
 70
    32
  0
VERTEX
  8
2900LEVEL
 62
5
 10
982.220
 20
-3335.603
 30
2327.000
 70
    32
  0
VERTEX
  8
2900LEVEL
 62
5
 10
997.805
 20
-3389.514
 30
2327.000
 70
    32
  0
VERTEX
  8
2900LEVEL
 62
5
 10
988.681
 20
-3426.117
 30
2327.000
 70
    32
  0
VERTEX
  8
2900LEVEL
 62
5
 10
981.013
 20
-3387.335
 30
2327.000
 70
    32
  0
VERTEX
  8
2900LEVEL
 62
5
 10
967.750
 20
-3337.828
 30
2327.000
 70
    32
  0
VERTEX
  8
2900LEVEL
 62
5
 10
949.256
 20
-3289.503
 30
2327.000
 70
    32
  0
VERTEX
  8
2900LEVEL
 62
5
 10
944.855
 20
-3261.829
 30
2327.000
 70
    32
  0
SEQEND
  8
2900LEVEL
  0
POLYLINE
  8
2900LEVEL
 62
5
 66
     1
 70
     9
  0
VERTEX
  8
2900LEVEL
 62
5
 10
987.866
 20
-3432.793
 30
2327.000
 70
    32
  0
VERTEX
  8
2900LEVEL
 62
5
 10
1003.184
 20
-3477.334
 30
2327.000
 70
    32
  0
VERTEX
  8
2900LEVEL
 62
5
 10
1024.735
 20
-3523.879
 30
2327.000
 70
    32
  0
VERTEX
  8
2900LEVEL
 62
5
 10
1029.461
 20
-3557.402
 30
2327.000
 70
    32
  0
VERTEX
  8
2900LEVEL
 62
5
 10
1009.208
 20
-3509.048
 30
2327.000
 70
    32
  0
VERTEX
  8
2900LEVEL
 62
5
 10
985.327
 20
-3462.886
 30
2327.000
 70
    32
  0
VERTEX
  8
2900LEVEL
 62
5
 10
982.666
 20
-3432.214
 30
2327.000
 70
    32
  0
SEQEND
  8
2900LEVEL
  0
POLYLINE
  8
2900LEVEL
 62
5
 66
     1
 70
     9
  0
VERTEX
  8
2900LEVEL
 62
5
 10
1001.476
 20
-3533.775
 30
2327.000
 70
    32
  0
VERTEX
  8
2900LEVEL
 62
5
 10
1014.572
 20
-3576.449
 30
2327.000
 70
    32
  0
VERTEX
  8
2900LEVEL
 62
5
 10
1033.103
 20
-3618.227
 30
2327.000
 70
    32
  0
VERTEX
  8
2900LEVEL
 62
5
 10
1036.623
 20
-3660.883
 30
2327.000
 70
    32
  0
VERTEX
  8
2900LEVEL
 62
5
 10
1022.920
 20
-3625.170
 30
2327.000
 70
    32
  0
VERTEX
  8
2900LEVEL
 62
5
 10
1000.869
 20
-3583.334
 30
2327.000
 70
    32
  0
VERTEX
  8
2900LEVEL
 62
5
 10
994.789
 20
-3525.145
 30
2327.000
 70
    32
  0
SEQEND
  8
2900LEVEL
  0
POLYLINE
  8
2900LEVEL
 62
5
 66
     1
 70
     9
  0
VERTEX
  8
2900LEVEL
 62
5
 10
3968.313
 20
-2513.040
 30
2327.000
 70
    32
  0
VERTEX
  8
2900LEVEL
 62
5
 10
3967.653
 20
-2537.134
 30
2327.000
 70
    32
  0
VERTEX
  8
2900LEVEL
 62
5
 10
3930.316
 20
-2546.797
 30
2327.000
 70
    32
  0
VERTEX
  8
2900LEVEL
 62
5
 10
3903.739
 20
-2574.310
 30
2327.000
 70
    32
  0
VERTEX
  8
2900LEVEL
 62
5
 10
3894.277
 20
-2554.650
 30
2327.000
 70
    32
  0
VERTEX
  8
2900LEVEL
 62
5
 10
3929.261
 20
-2529.740
 30
2327.000
 70
    32
  0
VERTEX
  8
2900LEVEL
 62
5
 10
3957.522
 20
-2515.350
 30
2327.000
 70
    32
  0
SEQEND
  8
2900LEVEL
  0
POLYLINE
  8
2900LEVEL
 62
5
 66
     1
 70
     9
  0
VERTEX
  8
2900LEVEL
 62
5
 10
3900.043
 20
-2870.396
 30
2327.000
 70
    32
  0
VERTEX
  8
2900LEVEL
 62
5
 10
3896.957
 20
-2831.337
 30
2327.000
 70
    32
  0
VERTEX
  8
2900LEVEL
 62
5
 10
3891.701
 20
-2804.283
 30
2327.000
 70
    32
  0
VERTEX
  8
2900LEVEL
 62
5
 10
3893.580
 20
-2767.278
 30
2327.000
 70
    32
  0
VERTEX
  8
2900LEVEL
 62
5
 10
3889.167
 20
-2731.789
 30
2327.000
 70
    32
  0
VERTEX
  8
2900LEVEL
 62
5
 10
3880.417
 20
-2732.912
 30
2327.000
 70
    32
  0
VERTEX
  8
2900LEVEL
 62
5
 10
3878.536
 20
-2757.313
 30
2327.000
 70
    32
  0
VERTEX
  8
2900LEVEL
 62
5
 10
3875.132
 20
-2792.814
 30
2327.000
 70
    32
  0
VERTEX
  8
2900LEVEL
 62
5
 10
3884.560
 20
-2831.625
 30
2327.000
 70
    32
  0
VERTEX
  8
2900LEVEL
 62
5
 10
3890.616
 20
-2874.183
 30
2327.000
 70
    32
  0
SEQEND
  8
2900LEVEL
  0
POLYLINE
  8
2900LEVEL
 62
5
 66
     1
 70
     9
  0
VERTEX
  8
2900LEVEL
 62
5
 10
3439.548
 20
-3446.135
 30
2327.000
 70
    32
  0
VERTEX
  8
2900LEVEL
 62
5
 10
3435.717
 20
-3418.048
 30
2327.000
 70
    32
  0
VERTEX
  8
2900LEVEL
 62
5
 10
3428.483
 20
-3382.864
 30
2327.000
 70
    32
  0
VERTEX
  8
2900LEVEL
 62
5
 10
3412.730
 20
-3364.720
 30
2327.000
 70
    32
  0
VERTEX
  8
2900LEVEL
 62
5
 10
3401.741
 20
-3330.952
 30
2327.000
 70
    32
  0
VERTEX
  8
2900LEVEL
 62
5
 10
3397.878
 20
-3292.022
 30
2327.000
 70
    32
  0
VERTEX
  8
2900LEVEL
 62
5
 10
3385.972
 20
-3292.389
 30
2327.000
 70
    32
  0
VERTEX
  8
2900LEVEL
 62
5
 10
3385.900
 20
-3318.087
 30
2327.000
 70
    32
  0
VERTEX
  8
2900LEVEL
 62
5
 10
3393.361
 20
-3356.584
 30
2327.000
 70
    32
  0
VERTEX
  8
2900LEVEL
 62
5
 10
3414.347
 20
-3386.151
 30
2327.000
 70
    32
  0
VERTEX
  8
2900LEVEL
 62
5
 10
3421.854
 20
-3413.313
 30
2327.000
 70
    32
  0
VERTEX
  8
2900LEVEL
 62
5
 10
3426.631
 20
-3448.104
 30
2327.000
 70
    32
  0
SEQEND
  8
2900LEVEL
  0
POLYLINE
  8
2900LEVEL
 62
5
 66
     1
 70
     9
  0
VERTEX
  8
2900LEVEL
 62
5
 10
2725.950
 20
-3637.123
 30
2327.000
 70
    32
  0
VERTEX
  8
2900LEVEL
 62
5
 10
2715.779
 20
-3609.283
 30
2327.000
 70
    32
  0
VERTEX
  8
2900LEVEL
 62
5
 10
2707.660
 20
-3576.479
 30
2327.000
 70
    32
  0
VERTEX
  8
2900LEVEL
 62
5
 10
2706.156
 20
-3535.405
 30
2327.000
 70
    32
  0
VERTEX
  8
2900LEVEL
 62
5
 10
2689.068
 20
-3525.617
 30
2327.000
 70
    32
  0
VERTEX
  8
2900LEVEL
 62
5
 10
2693.178
 20
-3570.888
 30
2327.000
 70
    32
  0
VERTEX
  8
2900LEVEL
 62
5
 10
2704.277
 20
-3615.008
 30
2327.000
 70
    32
  0
VERTEX
  8
2900LEVEL
 62
5
 10
2716.730
 20
-3641.195
 30
2327.000
 70
    32
  0
SEQEND
  8
2900LEVEL
  0
POLYLINE
  8
2900LEVEL
 62
5
 66
     1
 70
     9
  0
VERTEX
  8
2900LEVEL
 62
5
 10
2621.501
 20
-3494.153
 30
2327.000
 70
    32
  0
VERTEX
  8
2900LEVEL
 62
5
 10
2628.121
 20
-3425.894
 30
2327.000
 70
    32
  0
VERTEX
  8
2900LEVEL
 62
5
 10
2661.001
 20
-3489.877
 30
2327.000
 70
    32
  0
VERTEX
  8
2900LEVEL
 62
5
 10
2673.474
 20
-3561.691
 30
2327.000
 70
    32
  0
VERTEX
  8
2900LEVEL
 62
5
 10
2689.257
 20
-3620.674
 30
2327.000
 70
    32
  0
VERTEX
  8
2900LEVEL
 62
5
 10
2692.829
 20
-3677.202
 30
2327.000
 70
    32
  0
SEQEND
  8
2900LEVEL
  0
POLYLINE
  8
2900LEVEL
 62
13
 66
     1
 70
     9
  0
VERTEX
  8
2900LEVEL
 62
13
 10
284.893
 20
-3061.870
 30
2327.000
 70
    32
  0
VERTEX
  8
2900LEVEL
 62
13
 10
270.696
 20
-3013.474
 30
2327.000
 70
    32
  0
VERTEX
  8
2900LEVEL
 62
13
 10
249.410
 20
-2963.694
 30
2327.000
 70
    32
  0
VERTEX
  8
2900LEVEL
 62
13
 10
223.717
 20
-2903.632
 30
2327.000
 70
    32
  0
VERTEX
  8
2900LEVEL
 62
13
 10
218.955
 20
-2846.662
 30
2327.000
 70
    32
  0
VERTEX
  8
2900LEVEL
 62
13
 10
181.788
 20
-2777.960
 30
2327.000
 70
    32
  0
VERTEX
  8
2900LEVEL
 62
13
 10
147.025
 20
-2738.378
 30
2327.000
 70
    32
  0
VERTEX
  8
2900LEVEL
 62
13
 10
147.921
 20
-2786.413
 30
2327.000
 70
    32
  0
VERTEX
  8
2900LEVEL
 62
13
 10
169.306
 20
-2838.730
 30
2327.000
 70
    32
  0
VERTEX
  8
2900LEVEL
 62
13
 10
202.736
 20
-2899.272
 30
2327.000
 70
    32
  0
VERTEX
  8
2900LEVEL
 62
13
 10
234.159
 20
-2953.444
 30
2327.000
 70
    32
  0
VERTEX
  8
2900LEVEL
 62
13
 10
247.412
 20
-2995.135
 30
2327.000
 70
    32
  0
VERTEX
  8
2900LEVEL
 62
13
 10
265.894
 20
-3035.644
 30
2327.000
 70
    32
  0
VERTEX
  8
2900LEVEL
 62
13
 10
283.134
 20
-3061.840
 30
2327.000
 70
    32
  0
SEQEND
  8
2900LEVEL
  0
POLYLINE
  8
2900LEVEL
 62
13
 66
     1
 70
     9
  0
VERTEX
  8
2900LEVEL
 62
13
 10
1768.723
 20
-3769.023
 30
2327.000
 70
    32
  0
VERTEX
  8
2900LEVEL
 62
13
 10
1757.664
 20
-3730.960
 30
2327.000
 70
    32
  0
VERTEX
  8
2900LEVEL
 62
13
 10
1739.683
 20
-3685.740
 30
2327.000
 70
    32
  0
VERTEX
  8
2900LEVEL
 62
13
 10
1721.014
 20
-3647.974
 30
2327.000
 70
    32
  0
VERTEX
  8
2900LEVEL
 62
13
 10
1700.074
 20
-3607.071
 30
2327.000
 70
    32
  0
VERTEX
  8
2900LEVEL
 62
13
 10
1711.794
 20
-3652.046
 30
2327.000
 70
    32
  0
VERTEX
  8
2900LEVEL
 62
13
 10
1721.683
 20
-3692.695
 30
2327.000
 70
    32
  0
VERTEX
  8
2900LEVEL
 62
13
 10
1742.457
 20
-3739.369
 30
2327.000
 70
    32
  0
VERTEX
  8
2900LEVEL
 62
13
 10
1764.241
 20
-3771.836
 30
2327.000
 70
    32
  0
SEQEND
  8
2900LEVEL
  0
POLYLINE
  8
2900LEVEL
 62
7
 66
     1
 70
     9
  0
VERTEX
  8
2900LEVEL
 62
7
 10
3547.071
 20
-5226.480
 30
2327.000
 70
    32
  0
VERTEX
  8
2900LEVEL
 62
7
 10
3594.644
 20
-5266.344
 30
2327.000
 70
    32
  0
VERTEX
  8
2900LEVEL
 62
7
 10
3614.051
 20
-5310.530
 30
2327.000
 70
    32
  0
VERTEX
  8
2900LEVEL
 62
7
 10
3648.350
 20
-5348.274
 30
2327.000
 70
    32
  0
VERTEX
  8
2900LEVEL
 62
7
 10
3666.251
 20
-5381.381
 30
2327.000
 70
    32
  0
VERTEX
  8
2900LEVEL
 62
7
 10
3685.626
 20
-5372.125
 30
2327.000
 70
    32
  0
VERTEX
  8
2900LEVEL
 62
7
 10
3714.539
 20
-5412.033
 30
2327.000
 70
    32
  0
VERTEX
  8
2900LEVEL
 62
7
 10
3750.110
 20
-5462.331
 30
2327.000
 70
    32
  0
VERTEX
  8
2900LEVEL
 62
7
 10
3776.230
 20
-5500.784
 30
2327.000
 70
    32
  0
VERTEX
  8
2900LEVEL
 62
7
 10
3784.345
 20
-5520.985
 30
2327.000
 70
    32
  0
VERTEX
  8
2900LEVEL
 62
7
 10
3747.678
 20
-5490.173
 30
2327.000
 70
    32
  0
VERTEX
  8
2900LEVEL
 62
7
 10
3717.634
 20
-5446.304
 30
2327.000
 70
    32
  0
VERTEX
  8
2900LEVEL
 62
7
 10
3691.621
 20
-5405.599
 30
2327.000
 70
    32
  0
VERTEX
  8
2900LEVEL
 62
7
 10
3690.841
 20
-5435.722
 30
2327.000
 70
    32
  0
VERTEX
  8
2900LEVEL
 62
7
 10
3666.236
 20
-5446.158
 30
2327.000
 70
    32
  0
VERTEX
  8
2900LEVEL
 62
7
 10
3647.411
 20
-5409.375
 30
2327.000
 70
    32
  0
VERTEX
  8
2900LEVEL
 62
7
 10
3630.313
 20
-5361.776
 30
2327.000
 70
    32
  0
VERTEX
  8
2900LEVEL
 62
7
 10
3606.238
 20
-5323.145
 30
2327.000
 70
    32
  0
VERTEX
  8
2900LEVEL
 62
7
 10
3575.132
 20
-5279.610
 30
2327.000
 70
    32
  0
VERTEX
  8
2900LEVEL
 62
7
 10
3559.355
 20
-5245.834
 30
2327.000
 70
    32
  0
SEQEND
  8
2900LEVEL
  0
POLYLINE
  8
2900LEVEL
 62
7
 66
     1
 70
     8
  0
VERTEX
  8
2900LEVEL
 62
7
 10
2125.919
 20
-4663.436
 30
2327.000
 70
    32
  0
VERTEX
  8
2900LEVEL
 62
7
 10
2088.332
 20
-4654.154
 30
2327.000
 70
    32
  0
VERTEX
  8
2900LEVEL
 62
7
 10
2079.725
 20
-4676.473
 30
2327.000
 70
    32
  0
VERTEX
  8
2900LEVEL
 62
7
 10
2066.014
 20
-4688.146
 30
2327.000
 70
    32
  0
VERTEX
  8
2900LEVEL
 62
7
 10
2098.525
 20
-4727.620
 30
2327.000
 70
    32
  0
VERTEX
  8
2900LEVEL
 62
7
 10
2093.242
 20
-4757.528
 30
2327.000
 70
    32
  0
VERTEX
  8
2900LEVEL
 62
7
 10
2125.070
 20
-4817.058
 30
2327.000
 70
    32
  0
VERTEX
  8
2900LEVEL
 62
7
 10
2159.550
 20
-4869.449
 30
2327.000
 70
    32
  0
VERTEX
  8
2900LEVEL
 62
7
 10
2187.471
 20
-4913.988
 30
2327.000
 70
    32
  0
VERTEX
  8
2900LEVEL
 62
7
 10
2210.104
 20
-4963.227
 30
2327.000
 70
    32
  0
VERTEX
  8
2900LEVEL
 62
7
 10
2181.848
 20
-4960.225
 30
2327.000
 70
    32
  0
VERTEX
  8
2900LEVEL
 62
7
 10
2135.608
 20
-4899.401
 30
2327.000
 70
    32
  0
VERTEX
  8
2900LEVEL
 62
7
 10
2099.278
 20
-4839.655
 30
2327.000
 70
    32
  0
VERTEX
  8
2900LEVEL
 62
7
 10
2062.486
 20
-4778.072
 30
2327.000
 70
    32
  0
VERTEX
  8
2900LEVEL
 62
7
 10
2031.755
 20
-4741.655
 30
2327.000
 70
    32
  0
VERTEX
  8
2900LEVEL
 62
7
 10
2006.396
 20
-4725.252
 30
2327.000
 70
    32
  0
VERTEX
  8
2900LEVEL
 62
7
 10
2037.988
 20
-4786.257
 30
2327.000
 70
    32
  0
VERTEX
  8
2900LEVEL
 62
7
 10
2075.054
 20
-4839.818
 30
2327.000
 70
    32
  0
VERTEX
  8
2900LEVEL
 62
7
 10
2109.307
 20
-4888.897
 30
2327.000
 70
    32
  0
VERTEX
  8
2900LEVEL
 62
7
 10
2150.286
 20
-4940.059
 30
2327.000
 70
    32
  0
VERTEX
  8
2900LEVEL
 62
7
 10
2185.676
 20
-4975.708
 30
2327.000
 70
    32
  0
VERTEX
  8
2900LEVEL
 62
7
 10
2218.071
 20
-5022.222
 30
2327.000
 70
    32
  0
VERTEX
  8
2900LEVEL
 62
7
 10
2242.807
 20
-5067.763
 30
2327.000
 70
    32
  0
VERTEX
  8
2900LEVEL
 62
7
 10
2275.015
 20
-5117.020
 30
2327.000
 70
    32
  0
VERTEX
  8
2900LEVEL
 62
7
 10
2303.919
 20
-5161.715
 30
2327.000
 70
    32
  0
VERTEX
  8
2900LEVEL
 62
7
 10
2303.218
 20
-5191.347
 30
2327.000
 70
    32
  0
VERTEX
  8
2900LEVEL
 62
7
 10
2256.454
 20
-5162.198
 30
2327.000
 70
    32
  0
VERTEX
  8
2900LEVEL
 62
7
 10
2190.758
 20
-5098.518
 30
2327.000
 70
    32
  0
VERTEX
  8
2900LEVEL
 62
7
 10
2163.169
 20
-5042.437
 30
2327.000
 70
    32
  0
VERTEX
  8
2900LEVEL
 62
7
 10
2104.232
 20
-4961.688
 30
2327.000
 70
    32
  0
VERTEX
  8
2900LEVEL
 62
7
 10
2049.789
 20
-4885.942
 30
2327.000
 70
    32
  0
VERTEX
  8
2900LEVEL
 62
7
 10
2002.298
 20
-4815.592
 30
2327.000
 70
    32
  0
VERTEX
  8
2900LEVEL
 62
7
 10
1954.269
 20
-4756.498
 30
2327.000
 70
    32
  0
VERTEX
  8
2900LEVEL
 62
7
 10
1919.289
 20
-4708.815
 30
2327.000
 70
    32
  0
VERTEX
  8
2900LEVEL
 62
7
 10
1872.970
 20
-4648.483
 30
2327.000
 70
    32
  0
VERTEX
  8
2900LEVEL
 62
7
 10
1835.078
 20
-4593.781
 30
2327.000
 70
    32
  0
VERTEX
  8
2900LEVEL
 62
7
 10
1811.913
 20
-4538.408
 30
2327.000
 70
    32
  0
VERTEX
  8
2900LEVEL
 62
7
 10
1755.065
 20
-4476.141
 30
2327.000
 70
    32
  0
VERTEX
  8
2900LEVEL
 62
7
 10
1724.340
 20
-4422.332
 30
2327.000
 70
    32
  0
VERTEX
  8
2900LEVEL
 62
7
 10
1718.095
 20
-4369.914
 30
2327.000
 70
    32
  0
VERTEX
  8
2900LEVEL
 62
7
 10
1674.283
 20
-4311.242
 30
2327.000
 70
    32
  0
VERTEX
  8
2900LEVEL
 62
7
 10
1665.641
 20
-4267.515
 30
2327.000
 70
    32
  0
VERTEX
  8
2900LEVEL
 62
7
 10
1631.766
 20
-4238.157
 30
2327.000
 70
    32
  0
VERTEX
  8
2900LEVEL
 62
7
 10
1607.188
 20
-4234.231
 30
2327.000
 70
    32
  0
VERTEX
  8
2900LEVEL
 62
7
 10
1553.446
 20
-4171.452
 30
2327.000
 70
    32
  0
VERTEX
  8
2900LEVEL
 62
7
 10
1519.248
 20
-4106.250
 30
2327.000
 70
    32
  0
VERTEX
  8
2900LEVEL
 62
7
 10
1478.031
 20
-4043.959
 30
2327.000
 70
    32
  0
VERTEX
  8
2900LEVEL
 62
7
 10
1445.299
 20
-3983.781
 30
2327.000
 70
    32
  0
VERTEX
  8
2900LEVEL
 62
7
 10
1418.164
 20
-3934.326
 30
2327.000
 70
    32
  0
VERTEX
  8
2900LEVEL
 62
7
 10
1381.517
 20
-3906.542
 30
2327.000
 70
    32
  0
VERTEX
  8
2900LEVEL
 62
7
 10
1368.430
 20
-3859.081
 30
2327.000
 70
    32
  0
VERTEX
  8
2900LEVEL
 62
7
 10
1320.776
 20
-3807.105
 30
2327.000
 70
    32
  0
VERTEX
  8
2900LEVEL
 62
7
 10
1280.534
 20
-3792.357
 30
2327.000
 70
    32
  0
VERTEX
  8
2900LEVEL
 62
7
 10
1239.690
 20
-3724.581
 30
2327.000
 70
    32
  0
VERTEX
  8
2900LEVEL
 62
7
 10
1196.047
 20
-3672.742
 30
2327.000
 70
    32
  0
VERTEX
  8
2900LEVEL
 62
7
 10
1152.812
 20
-3596.266
 30
2327.000
 70
    32
  0
VERTEX
  8
2900LEVEL
 62
7
 10
1121.171
 20
-3533.993
 30
2327.000
 70
    32
  0
VERTEX
  8
2900LEVEL
 62
7
 10
1074.907
 20
-3457.537
 30
2327.000
 70
    32
  0
VERTEX
  8
2900LEVEL
 62
7
 10
1045.840
 20
-3388.618
 30
2327.000
 70
    32
  0
VERTEX
  8
2900LEVEL
 62
7
 10
1011.151
 20
-3323.337
 30
2327.000
 70
    32
  0
VERTEX
  8
2900LEVEL
 62
7
 10
969.809
 20
-3272.874
 30
2327.000
 70
    32
  0
VERTEX
  8
2900LEVEL
 62
7
 10
929.860
 20
-3210.534
 30
2327.000
 70
    32
  0
VERTEX
  8
2900LEVEL
 62
7
 10
883.021
 20
-3151.882
 30
2327.000
 70
    32
  0
VERTEX
  8
2900LEVEL
 62
7
 10
827.365
 20
-3102.661
 30
2327.000
 70
    32
  0
VERTEX
  8
2900LEVEL
 62
7
 10
778.385
 20
-3054.254
 30
2327.000
 70
    32
  0
VERTEX
  8
2900LEVEL
 62
7
 10
748.277
 20
-3031.295
 30
2327.000
 70
    32
  0
VERTEX
  8
2900LEVEL
 62
7
 10
799.805
 20
-3087.419
 30
2327.000
 70
    32
  0
VERTEX
  8
2900LEVEL
 62
7
 10
845.210
 20
-3151.891
 30
2327.000
 70
    32
  0
VERTEX
  8
2900LEVEL
 62
7
 10
902.297
 20
-3225.287
 30
2327.000
 70
    32
  0
VERTEX
  8
2900LEVEL
 62
7
 10
940.183
 20
-3297.380
 30
2327.000
 70
    32
  0
VERTEX
  8
2900LEVEL
 62
7
 10
964.239
 20
-3332.983
 30
2327.000
 70
    32
  0
VERTEX
  8
2900LEVEL
 62
7
 10
974.789
 20
-3380.543
 30
2327.000
 70
    32
  0
VERTEX
  8
2900LEVEL
 62
7
 10
985.263
 20
-3441.199
 30
2327.000
 70
    32
  0
VERTEX
  8
2900LEVEL
 62
7
 10
990.708
 20
-3478.113
 30
2327.000
 70
    32
  0
VERTEX
  8
2900LEVEL
 62
7
 10
947.153
 20
-3463.593
 30
2327.000
 70
    32
  0
VERTEX
  8
2900LEVEL
 62
7
 10
910.360
 20
-3444.608
 30
2327.000
 70
    32
  0
VERTEX
  8
2900LEVEL
 62
7
 10
845.182
 20
-3409.241
 30
2327.000
 70
    32
  0
VERTEX
  8
2900LEVEL
 62
7
 10
786.623
 20
-3348.213
 30
2327.000
 70
    32
  0
VERTEX
  8
2900LEVEL
 62
7
 10
719.106
 20
-3275.419
 30
2327.000
 70
    32
  0
VERTEX
  8
2900LEVEL
 62
7
 10
664.625
 20
-3206.220
 30
2327.000
 70
    32
  0
VERTEX
  8
2900LEVEL
 62
7
 10
630.581
 20
-3127.432
 30
2327.000
 70
    32
  0
VERTEX
  8
2900LEVEL
 62
7
 10
592.070
 20
-3071.875
 30
2327.000
 70
    32
  0
VERTEX
  8
2900LEVEL
 62
7
 10
519.642
 20
-3023.503
 30
2327.000
 70
    32
  0
VERTEX
  8
2900LEVEL
 62
7
 10
476.174
 20
-3003.703
 30
2327.000
 70
    32
  0
VERTEX
  8
2900LEVEL
 62
7
 10
534.840
 20
-3105.078
 30
2327.000
 70
    32
  0
VERTEX
  8
2900LEVEL
 62
7
 10
605.648
 20
-3204.612
 30
2327.000
 70
    32
  0
VERTEX
  8
2900LEVEL
 62
7
 10
660.547
 20
-3299.588
 30
2327.000
 70
    32
  0
VERTEX
  8
2900LEVEL
 62
7
 10
658.229
 20
-3350.386
 30
2327.000
 70
    32
  0
VERTEX
  8
2900LEVEL
 62
7
 10
593.926
 20
-3317.427
 30
2327.000
 70
    32
  0
VERTEX
  8
2900LEVEL
 62
7
 10
635.166
 20
-3395.349
 30
2327.000
 70
    32
  0
VERTEX
  8
2900LEVEL
 62
7
 10
683.648
 20
-3503.667
 30
2327.000
 70
    32
  0
VERTEX
  8
2900LEVEL
 62
7
 10
659.145
 20
-3529.243
 30
2327.000
 70
    32
  0
VERTEX
  8
2900LEVEL
 62
7
 10
687.287
 20
-3594.486
 30
2327.000
 70
    32
  0
VERTEX
  8
2900LEVEL
 62
7
 10
736.212
 20
-3659.016
 30
2327.000
 70
    32
  0
VERTEX
  8
2900LEVEL
 62
7
 10
785.937
 20
-3739.050
 30
2327.000
 70
    32
  0
VERTEX
  8
2900LEVEL
 62
7
 10
811.947
 20
-3809.749
 30
2327.000
 70
    32
  0
VERTEX
  8
2900LEVEL
 62
7
 10
815.339
 20
-3851.629
 30
2327.000
 70
    32
  0
VERTEX
  8
2900LEVEL
 62
7
 10
773.939
 20
-3804.685
 30
2327.000
 70
    32
  0
VERTEX
  8
2900LEVEL
 62
7
 10
740.831
 20
-3737.389
 30
2327.000
 70
    32
  0
VERTEX
  8
2900LEVEL
 62
7
 10
728.106
 20
-3761.822
 30
2327.000
 70
    32
  0
VERTEX
  8
2900LEVEL
 62
7
 10
694.408
 20
-3691.911
 30
2327.000
 70
    32
  0
VERTEX
  8
2900LEVEL
 62
7
 10
659.934
 20
-3622.128
 30
2327.000
 70
    32
  0
VERTEX
  8
2900LEVEL
 62
7
 10
628.275
 20
-3612.029
 30
2327.000
 70
    32
  0
VERTEX
  8
2900LEVEL
 62
7
 10
663.026
 20
-3686.393
 30
2327.000
 70
    32
  0
VERTEX
  8
2900LEVEL
 62
7
 10
681.761
 20
-3758.451
 30
2327.000
 70
    32
  0
VERTEX
  8
2900LEVEL
 62
7
 10
642.703
 20
-3718.939
 30
2327.000
 70
    32
  0
VERTEX
  8
2900LEVEL
 62
7
 10
604.226
 20
-3644.231
 30
2327.000
 70
    32
  0
VERTEX
  8
2900LEVEL
 62
7
 10
558.783
 20
-3586.307
 30
2327.000
 70
    32
  0
VERTEX
  8
2900LEVEL
 62
7
 10
517.918
 20
-3558.101
 30
2327.000
 70
    32
  0
VERTEX
  8
2900LEVEL
 62
7
 10
472.574
 20
-3502.713
 30
2327.000
 70
    32
  0
VERTEX
  8
2900LEVEL
 62
7
 10
436.331
 20
-3437.689
 30
2327.000
 70
    32
  0
VERTEX
  8
2900LEVEL
 62
7
 10
382.935
 20
-3383.787
 30
2327.000
 70
    32
  0
VERTEX
  8
2900LEVEL
 62
7
 10
396.324
 20
-3421.467
 30
2327.000
 70
    32
  0
VERTEX
  8
2900LEVEL
 62
7
 10
442.596
 20
-3493.135
 30
2327.000
 70
    32
  0
VERTEX
  8
2900LEVEL
 62
7
 10
493.421
 20
-3566.286
 30
2327.000
 70
    32
  0
VERTEX
  8
2900LEVEL
 62
7
 10
539.003
 20
-3632.803
 30
2327.000
 70
    32
  0
VERTEX
  8
2900LEVEL
 62
7
 10
564.874
 20
-3694.910
 30
2327.000
 70
    32
  0
VERTEX
  8
2900LEVEL
 62
7
 10
582.317
 20
-3751.386
 30
2327.000
 70
    32
  0
VERTEX
  8
2900LEVEL
 62
7
 10
600.480
 20
-3811.253
 30
2327.000
 70
    32
  0
VERTEX
  8
2900LEVEL
 62
7
 10
624.322
 20
-3863.962
 30
2327.000
 70
    32
  0
VERTEX
  8
2900LEVEL
 62
7
 10
648.805
 20
-3920.554
 30
2327.000
 70
    32
  0
VERTEX
  8
2900LEVEL
 62
7
 10
678.882
 20
-3975.268
 30
2327.000
 70
    32
  0
VERTEX
  8
2900LEVEL
 62
7
 10
700.758
 20
-4027.663
 30
2327.000
 70
    32
  0
VERTEX
  8
2900LEVEL
 62
7
 10
731.189
 20
-4086.465
 30
2327.000
 70
    32
  0
VERTEX
  8
2900LEVEL
 62
7
 10
771.426
 20
-4161.202
 30
2327.000
 70
    32
  0
SEQEND
  8
2900LEVEL
  0
POLYLINE
  8
2900LEVEL
 62
7
 66
     1
 70
     8
  0
VERTEX
  8
2900LEVEL
 62
7
 10
2139.552
 20
-4694.853
 30
2327.000
 70
    32
  0
VERTEX
  8
2900LEVEL
 62
7
 10
2145.320
 20
-4725.014
 30
2327.000
 70
    32
  0
VERTEX
  8
2900LEVEL
 62
7
 10
2127.778
 20
-4751.198
 30
2327.000
 70
    32
  0
VERTEX
  8
2900LEVEL
 62
7
 10
2144.235
 20
-4794.913
 30
2327.000
 70
    32
  0
VERTEX
  8
2900LEVEL
 62
7
 10
2185.787
 20
-4858.265
 30
2327.000
 70
    32
  0
VERTEX
  8
2900LEVEL
 62
7
 10
2207.585
 20
-4911.152
 30
2327.000
 70
    32
  0
VERTEX
  8
2900LEVEL
 62
7
 10
2229.444
 20
-4973.122
 30
2327.000
 70
    32
  0
VERTEX
  8
2900LEVEL
 62
7
 10
2253.799
 20
-5028.938
 30
2327.000
 70
    32
  0
VERTEX
  8
2900LEVEL
 62
7
 10
2291.958
 20
-5093.008
 30
2327.000
 70
    32
  0
VERTEX
  8
2900LEVEL
 62
7
 10
2337.335
 20
-5159.240
 30
2327.000
 70
    32
  0
VERTEX
  8
2900LEVEL
 62
7
 10
2384.107
 20
-5226.199
 30
2327.000
 70
    32
  0
VERTEX
  8
2900LEVEL
 62
7
 10
2461.063
 20
-5303.021
 30
2327.000
 70
    32
  0
VERTEX
  8
2900LEVEL
 62
7
 10
2530.093
 20
-5369.503
 30
2327.000
 70
    32
  0
VERTEX
  8
2900LEVEL
 62
7
 10
2612.492
 20
-5428.038
 30
2327.000
 70
    32
  0
VERTEX
  8
2900LEVEL
 62
7
 10
2661.542
 20
-5438.143
 30
2327.000
 70
    32
  0
VERTEX
  8
2900LEVEL
 62
7
 10
2665.227
 20
-5389.832
 30
2327.000
 70
    32
  0
VERTEX
  8
2900LEVEL
 62
7
 10
2697.098
 20
-5382.825
 30
2327.000
 70
    32
  0
VERTEX
  8
2900LEVEL
 62
7
 10
2719.585
 20
-5355.666
 30
2327.000
 70
    32
  0
VERTEX
  8
2900LEVEL
 62
7
 10
2687.167
 20
-5293.521
 30
2327.000
 70
    32
  0
VERTEX
  8
2900LEVEL
 62
7
 10
2666.172
 20
-5226.143
 30
2327.000
 70
    32
  0
VERTEX
  8
2900LEVEL
 62
7
 10
2666.623
 20
-5177.567
 30
2327.000
 70
    32
  0
VERTEX
  8
2900LEVEL
 62
7
 10
2632.876
 20
-5106.388
 30
2327.000
 70
    32
  0
VERTEX
  8
2900LEVEL
 62
7
 10
2589.160
 20
-5037.649
 30
2327.000
 70
    32
  0
VERTEX
  8
2900LEVEL
 62
7
 10
2549.081
 20
-4961.929
 30
2327.000
 70
    32
  0
VERTEX
  8
2900LEVEL
 62
7
 10
2507.163
 20
-4929.270
 30
2327.000
 70
    32
  0
VERTEX
  8
2900LEVEL
 62
7
 10
2458.518
 20
-4881.925
 30
2327.000
 70
    32
  0
VERTEX
  8
2900LEVEL
 62
7
 10
2394.997
 20
-4831.447
 30
2327.000
 70
    32
  0
VERTEX
  8
2900LEVEL
 62
7
 10
2352.427
 20
-4787.089
 30
2327.000
 70
    32
  0
VERTEX
  8
2900LEVEL
 62
7
 10
2321.772
 20
-4737.576
 30
2327.000
 70
    32
  0
VERTEX
  8
2900LEVEL
 62
7
 10
2294.715
 20
-4687.631
 30
2327.000
 70
    32
  0
VERTEX
  8
2900LEVEL
 62
7
 10
2280.291
 20
-4635.922
 30
2327.000
 70
    32
  0
VERTEX
  8
2900LEVEL
 62
7
 10
2276.524
 20
-4586.925
 30
2327.000
 70
    32
  0
VERTEX
  8
2900LEVEL
 62
7
 10
2257.501
 20
-4545.068
 30
2327.000
 70
    32
  0
VERTEX
  8
2900LEVEL
 62
7
 10
2230.330
 20
-4514.765
 30
2327.000
 70
    32
  0
VERTEX
  8
2900LEVEL
 62
7
 10
2241.610
 20
-4488.336
 30
2327.000
 70
    32
  0
VERTEX
  8
2900LEVEL
 62
7
 10
2230.444
 20
-4452.524
 30
2327.000
 70
    32
  0
VERTEX
  8
2900LEVEL
 62
7
 10
2205.080
 20
-4410.915
 30
2327.000
 70
    32
  0
VERTEX
  8
2900LEVEL
 62
7
 10
2175.123
 20
-4404.364
 30
2327.000
 70
    32
  0
VERTEX
  8
2900LEVEL
 62
7
 10
2141.829
 20
-4382.409
 30
2327.000
 70
    32
  0
VERTEX
  8
2900LEVEL
 62
7
 10
2112.108
 20
-4331.786
 30
2327.000
 70
    32
  0
VERTEX
  8
2900LEVEL
 62
7
 10
2077.061
 20
-4292.410
 30
2327.000
 70
    32
  0
VERTEX
  8
2900LEVEL
 62
7
 10
2051.417
 20
-4233.616
 30
2327.000
 70
    32
  0
VERTEX
  8
2900LEVEL
 62
7
 10
2039.625
 20
-4171.742
 30
2327.000
 70
    32
  0
VERTEX
  8
2900LEVEL
 62
7
 10
2075.179
 20
-4231.615
 30
2327.000
 70
    32
  0
VERTEX
  8
2900LEVEL
 62
7
 10
2105.040
 20
-4290.831
 30
2327.000
 70
    32
  0
VERTEX
  8
2900LEVEL
 62
7
 10
2128.123
 20
-4334.092
 30
2327.000
 70
    32
  0
VERTEX
  8
2900LEVEL
 62
7
 10
2157.283
 20
-4380.341
 30
2327.000
 70
    32
  0
VERTEX
  8
2900LEVEL
 62
7
 10
2212.418
 20
-4388.646
 30
2327.000
 70
    32
  0
VERTEX
  8
2900LEVEL
 62
7
 10
2254.362
 20
-4449.540
 30
2327.000
 70
    32
  0
VERTEX
  8
2900LEVEL
 62
7
 10
2290.573
 20
-4503.720
 30
2327.000
 70
    32
  0
VERTEX
  8
2900LEVEL
 62
7
 10
2311.074
 20
-4558.416
 30
2327.000
 70
    32
  0
VERTEX
  8
2900LEVEL
 62
7
 10
2307.703
 20
-4604.761
 30
2327.000
 70
    32
  0
VERTEX
  8
2900LEVEL
 62
7
 10
2310.862
 20
-4660.719
 30
2327.000
 70
    32
  0
VERTEX
  8
2900LEVEL
 62
7
 10
2346.665
 20
-4696.938
 30
2327.000
 70
    32
  0
VERTEX
  8
2900LEVEL
 62
7
 10
2376.422
 20
-4728.411
 30
2327.000
 70
    32
  0
VERTEX
  8
2900LEVEL
 62
7
 10
2420.544
 20
-4772.513
 30
2327.000
 70
    32
  0
VERTEX
  8
2900LEVEL
 62
7
 10
2463.808
 20
-4804.631
 30
2327.000
 70
    32
  0
VERTEX
  8
2900LEVEL
 62
7
 10
2470.548
 20
-4784.535
 30
2327.000
 70
    32
  0
VERTEX
  8
2900LEVEL
 62
7
 10
2421.196
 20
-4741.614
 30
2327.000
 70
    32
  0
VERTEX
  8
2900LEVEL
 62
7
 10
2373.926
 20
-4691.967
 30
2327.000
 70
    32
  0
VERTEX
  8
2900LEVEL
 62
7
 10
2347.805
 20
-4653.514
 30
2327.000
 70
    32
  0
VERTEX
  8
2900LEVEL
 62
7
 10
2397.737
 20
-4691.234
 30
2327.000
 70
    32
  0
VERTEX
  8
2900LEVEL
 62
7
 10
2440.472
 20
-4729.822
 30
2327.000
 70
    32
  0
VERTEX
  8
2900LEVEL
 62
7
 10
2481.543
 20
-4758.312
 30
2327.000
 70
    32
  0
VERTEX
  8
2900LEVEL
 62
7
 10
2490.144
 20
-4795.983
 30
2327.000
 70
    32
  0
VERTEX
  8
2900LEVEL
 62
7
 10
2498.931
 20
-4830.911
 30
2327.000
 70
    32
  0
VERTEX
  8
2900LEVEL
 62
7
 10
2528.664
 20
-4889.351
 30
2327.000
 70
    32
  0
VERTEX
  8
2900LEVEL
 62
7
 10
2568.485
 20
-4950.914
 30
2327.000
 70
    32
  0
VERTEX
  8
2900LEVEL
 62
7
 10
2619.571
 20
-5008.227
 30
2327.000
 70
    32
  0
VERTEX
  8
2900LEVEL
 62
7
 10
2668.848
 20
-5021.645
 30
2327.000
 70
    32
  0
VERTEX
  8
2900LEVEL
 62
7
 10
2686.742
 20
-4986.947
 30
2327.000
 70
    32
  0
VERTEX
  8
2900LEVEL
 62
7
 10
2678.894
 20
-4933.517
 30
2327.000
 70
    32
  0
VERTEX
  8
2900LEVEL
 62
7
 10
2648.257
 20
-4874.429
 30
2327.000
 70
    32
  0
VERTEX
  8
2900LEVEL
 62
7
 10
2599.236
 20
-4819.966
 30
2327.000
 70
    32
  0
VERTEX
  8
2900LEVEL
 62
7
 10
2571.402
 20
-4770.148
 30
2327.000
 70
    32
  0
VERTEX
  8
2900LEVEL
 62
7
 10
2601.545
 20
-4773.955
 30
2327.000
 70
    32
  0
VERTEX
  8
2900LEVEL
 62
7
 10
2629.690
 20
-4809.203
 30
2327.000
 70
    32
  0
VERTEX
  8
2900LEVEL
 62
7
 10
2672.085
 20
-4864.120
 30
2327.000
 70
    32
  0
VERTEX
  8
2900LEVEL
 62
7
 10
2702.987
 20
-4919.973
 30
2327.000
 70
    32
  0
VERTEX
  8
2900LEVEL
 62
7
 10
2748.951
 20
-4976.217
 30
2327.000
 70
    32
  0
VERTEX
  8
2900LEVEL
 62
7
 10
2792.387
 20
-5027.771
 30
2327.000
 70
    32
  0
VERTEX
  8
2900LEVEL
 62
7
 10
2823.220
 20
-5079.328
 30
2327.000
 70
    32
  0
VERTEX
  8
2900LEVEL
 62
7
 10
2842.915
 20
-5135.911
 30
2327.000
 70
    32
  0
VERTEX
  8
2900LEVEL
 62
7
 10
2887.625
 20
-5212.623
 30
2327.000
 70
    32
  0
VERTEX
  8
2900LEVEL
 62
7
 10
2947.877
 20
-5281.988
 30
2327.000
 70
    32
  0
VERTEX
  8
2900LEVEL
 62
7
 10
3004.658
 20
-5352.562
 30
2327.000
 70
    32
  0
VERTEX
  8
2900LEVEL
 62
7
 10
3057.582
 20
-5409.413
 30
2327.000
 70
    32
  0
VERTEX
  8
2900LEVEL
 62
7
 10
3099.110
 20
-5457.134
 30
2327.000
 70
    32
  0
VERTEX
  8
2900LEVEL
 62
7
 10
3128.896
 20
-5486.846
 30
2327.000
 70
    32
  0
VERTEX
  8
2900LEVEL
 62
7
 10
3203.647
 20
-5552.226
 30
2327.000
 70
    32
  0
VERTEX
  8
2900LEVEL
 62
7
 10
3275.856
 20
-5592.497
 30
2327.000
 70
    32
  0
VERTEX
  8
2900LEVEL
 62
7
 10
3340.270
 20
-5635.808
 30
2327.000
 70
    32
  0
VERTEX
  8
2900LEVEL
 62
7
 10
3393.828
 20
-5671.335
 30
2327.000
 70
    32
  0
VERTEX
  8
2900LEVEL
 62
7
 10
3383.968
 20
-5628.926
 30
2327.000
 70
    32
  0
VERTEX
  8
2900LEVEL
 62
7
 10
3371.452
 20
-5581.051
 30
2327.000
 70
    32
  0
VERTEX
  8
2900LEVEL
 62
7
 10
3342.998
 20
-5530.378
 30
2327.000
 70
    32
  0
VERTEX
  8
2900LEVEL
 62
7
 10
3294.969
 20
-5471.284
 30
2327.000
 70
    32
  0
VERTEX
  8
2900LEVEL
 62
7
 10
3276.054
 20
-5427.176
 30
2327.000
 70
    32
  0
VERTEX
  8
2900LEVEL
 62
7
 10
3243.895
 20
-5379.188
 30
2327.000
 70
    32
  0
VERTEX
  8
2900LEVEL
 62
7
 10
3211.038
 20
-5330.836
 30
2327.000
 70
    32
  0
VERTEX
  8
2900LEVEL
 62
7
 10
3182.340
 20
-5286.426
 30
2327.000
 70
    32
  0
VERTEX
  8
2900LEVEL
 62
7
 10
3190.124
 20
-5275.571
 30
2327.000
 70
    32
  0
VERTEX
  8
2900LEVEL
 62
7
 10
3220.005
 20
-5295.216
 30
2327.000
 70
    32
  0
SEQEND
  8
2900LEVEL
  0
POLYLINE
  8
2900LEVEL
 62
3
 66
     1
 70
     8
  0
VERTEX
  8
2900LEVEL
 62
3
 10
3384.438
 20
-5072.198
 30
2327.000
 70
    32
  0
VERTEX
  8
2900LEVEL
 62
3
 10
3440.842
 20
-5123.051
 30
2327.000
 70
    32
  0
VERTEX
  8
2900LEVEL
 62
3
 10
3494.796
 20
-5168.724
 30
2327.000
 70
    32
  0
VERTEX
  8
2900LEVEL
 62
3
 10
3521.943
 20
-5225.994
 30
2327.000
 70
    32
  0
VERTEX
  8
2900LEVEL
 62
3
 10
3549.939
 20
-5300.036
 30
2327.000
 70
    32
  0
VERTEX
  8
2900LEVEL
 62
3
 10
3582.930
 20
-5374.371
 30
2327.000
 70
    32
  0
VERTEX
  8
2900LEVEL
 62
3
 10
3615.846
 20
-5461.801
 30
2327.000
 70
    32
  0
VERTEX
  8
2900LEVEL
 62
3
 10
3655.192
 20
-5556.309
 30
2327.000
 70
    32
  0
VERTEX
  8
2900LEVEL
 62
3
 10
3694.038
 20
-5612.927
 30
2327.000
 70
    32
  0
SEQEND
  8
2900LEVEL
  0
POLYLINE
  8
2900LEVEL
 62
3
 66
     1
 70
     8
  0
VERTEX
  8
2900LEVEL
 62
3
 10
3232.129
 20
-5302.950
 30
2327.000
 70
    32
  0
VERTEX
  8
2900LEVEL
 62
3
 10
3263.186
 20
-5345.217
 30
2327.000
 70
    32
  0
VERTEX
  8
2900LEVEL
 62
3
 10
3304.312
 20
-5400.183
 30
2327.000
 70
    32
  0
VERTEX
  8
2900LEVEL
 62
3
 10
3330.453
 20
-5441.665
 30
2327.000
 70
    32
  0
VERTEX
  8
2900LEVEL
 62
3
 10
3351.939
 20
-5463.468
 30
2327.000
 70
    32
  0
SEQEND
  8
2900LEVEL
  0
LINE
  8
2900LEVEL
 62
3
 10
2128.207
 20
-4663.317
 30
2327.000
 11
2139.718
 21
-4693.823
 31
2327.000
  0
POLYLINE
  8
2900LEVEL
 62
13
 66
     1
 70
     8
  0
VERTEX
  8
2900LEVEL
 62
13
 10
768.538
 20
-4169.815
 30
2327.000
 70
    32
  0
VERTEX
  8
2900LEVEL
 62
13
 10
726.070
 20
-4097.998
 30
2327.000
 70
    32
  0
VERTEX
  8
2900LEVEL
 62
13
 10
682.826
 20
-4026.310
 30
2327.000
 70
    32
  0
VERTEX
  8
2900LEVEL
 62
13
 10
641.970
 20
-3950.718
 30
2327.000
 70
    32
  0
VERTEX
  8
2900LEVEL
 62
13
 10
604.150
 20
-3870.318
 30
2327.000
 70
    32
  0
VERTEX
  8
2900LEVEL
 62
13
 10
562.477
 20
-3788.798
 30
2327.000
 70
    32
  0
VERTEX
  8
2900LEVEL
 62
13
 10
519.061
 20
-3697.673
 30
2327.000
 70
    32
  0
VERTEX
  8
2900LEVEL
 62
13
 10
463.839
 20
-3609.452
 30
2327.000
 70
    32
  0
VERTEX
  8
2900LEVEL
 62
13
 10
410.595
 20
-3529.360
 30
2327.000
 70
    32
  0
VERTEX
  8
2900LEVEL
 62
13
 10
369.800
 20
-3462.852
 30
2327.000
 70
    32
  0
VERTEX
  8
2900LEVEL
 62
13
 10
314.700
 20
-3392.798
 30
2327.000
 70
    32
  0
VERTEX
  8
2900LEVEL
 62
13
 10
279.457
 20
-3318.355
 30
2327.000
 70
    32
  0
VERTEX
  8
2900LEVEL
 62
13
 10
229.840
 20
-3236.070
 30
2327.000
 70
    32
  0
VERTEX
  8
2900LEVEL
 62
13
 10
213.063
 20
-3169.114
 30
2327.000
 70
    32
  0
VERTEX
  8
2900LEVEL
 62
13
 10
157.523
 20
-3070.256
 30
2327.000
 70
    32
  0
VERTEX
  8
2900LEVEL
 62
13
 10
100.041
 20
-2944.116
 30
2327.000
 70
    32
  0
VERTEX
  8
2900LEVEL
 62
13
 10
50.034
 20
-2834.294
 30
2327.000
 70
    32
  0
VERTEX
  8
2900LEVEL
 62
13
 10
101.876
 20
-2888.451
 30
2327.000
 70
    32
  0
VERTEX
  8
2900LEVEL
 62
13
 10
153.814
 20
-2975.140
 30
2327.000
 70
    32
  0
VERTEX
  8
2900LEVEL
 62
13
 10
189.255
 20
-3054.656
 30
2327.000
 70
    32
  0
VERTEX
  8
2900LEVEL
 62
13
 10
244.573
 20
-3132.811
 30
2327.000
 70
    32
  0
VERTEX
  8
2900LEVEL
 62
13
 10
309.036
 20
-3219.988
 30
2327.000
 70
    32
  0
VERTEX
  8
2900LEVEL
 62
13
 10
373.683
 20
-3291.819
 30
2327.000
 70
    32
  0
VERTEX
  8
2900LEVEL
 62
13
 10
424.763
 20
-3323.925
 30
2327.000
 70
    32
  0
VERTEX
  8
2900LEVEL
 62
13
 10
370.506
 20
-3245.436
 30
2327.000
 70
    32
  0
VERTEX
  8
2900LEVEL
 62
13
 10
347.303
 20
-3196.610
 30
2327.000
 70
    32
  0
VERTEX
  8
2900LEVEL
 62
13
 10
318.757
 20
-3126.010
 30
2327.000
 70
    32
  0
VERTEX
  8
2900LEVEL
 62
13
 10
359.197
 20
-3188.428
 30
2327.000
 70
    32
  0
VERTEX
  8
2900LEVEL
 62
13
 10
380.230
 20
-3164.062
 30
2327.000
 70
    32
  0
VERTEX
  8
2900LEVEL
 62
13
 10
338.513
 20
-3106.481
 30
2327.000
 70
    32
  0
VERTEX
  8
2900LEVEL
 62
13
 10
304.673
 20
-3057.972
 30
2327.000
 70
    32
  0
VERTEX
  8
2900LEVEL
 62
13
 10
328.283
 20
-3039.562
 30
2327.000
 70
    32
  0
VERTEX
  8
2900LEVEL
 62
13
 10
287.299
 20
-3005.792
 30
2327.000
 70
    32
  0
VERTEX
  8
2900LEVEL
 62
13
 10
253.645
 20
-2954.540
 30
2327.000
 70
    32
  0
VERTEX
  8
2900LEVEL
 62
13
 10
231.698
 20
-2894.413
 30
2327.000
 70
    32
  0
VERTEX
  8
2900LEVEL
 62
13
 10
235.980
 20
-2877.360
 30
2327.000
 70
    32
  0
VERTEX
  8
2900LEVEL
 62
13
 10
268.517
 20
-2945.070
 30
2327.000
 70
    32
  0
VERTEX
  8
2900LEVEL
 62
13
 10
306.107
 20
-2966.955
 30
2327.000
 70
    32
  0
VERTEX
  8
2900LEVEL
 62
13
 10
368.159
 20
-2999.806
 30
2327.000
 70
    32
  0
VERTEX
  8
2900LEVEL
 62
13
 10
430.365
 20
-3061.669
 30
2327.000
 70
    32
  0
VERTEX
  8
2900LEVEL
 62
13
 10
479.345
 20
-3110.076
 30
2327.000
 70
    32
  0
VERTEX
  8
2900LEVEL
 62
13
 10
448.867
 20
-3062.608
 30
2327.000
 70
    32
  0
VERTEX
  8
2900LEVEL
 62
13
 10
406.894
 20
-3003.474
 30
2327.000
 70
    32
  0
VERTEX
  8
2900LEVEL
 62
13
 10
363.563
 20
-2937.065
 30
2327.000
 70
    32
  0
VERTEX
  8
2900LEVEL
 62
13
 10
314.920
 20
-2859.725
 30
2327.000
 70
    32
  0
VERTEX
  8
2900LEVEL
 62
13
 10
356.300
 20
-2818.444
 30
2327.000
 70
    32
  0
VERTEX
  8
2900LEVEL
 62
13
 10
414.992
 20
-2820.259
 30
2327.000
 70
    32
  0
VERTEX
  8
2900LEVEL
 62
13
 10
463.117
 20
-2869.285
 30
2327.000
 70
    32
  0
VERTEX
  8
2900LEVEL
 62
13
 10
528.214
 20
-2935.139
 30
2327.000
 70
    32
  0
VERTEX
  8
2900LEVEL
 62
13
 10
593.573
 20
-2985.154
 30
2327.000
 70
    32
  0
VERTEX
  8
2900LEVEL
 62
13
 10
629.656
 20
-3038.559
 30
2327.000
 70
    32
  0
VERTEX
  8
2900LEVEL
 62
13
 10
668.837
 20
-3096.239
 30
2327.000
 70
    32
  0
VERTEX
  8
2900LEVEL
 62
13
 10
713.832
 20
-3130.146
 30
2327.000
 70
    32
  0
VERTEX
  8
2900LEVEL
 62
13
 10
721.505
 20
-3108.938
 30
2327.000
 70
    32
  0
VERTEX
  8
2900LEVEL
 62
13
 10
683.721
 20
-3051.985
 30
2327.000
 70
    32
  0
VERTEX
  8
2900LEVEL
 62
13
 10
643.266
 20
-2969.148
 30
2327.000
 70
    32
  0
VERTEX
  8
2900LEVEL
 62
13
 10
597.861
 20
-2904.676
 30
2327.000
 70
    32
  0
VERTEX
  8
2900LEVEL
 62
13
 10
656.399
 20
-2920.077
 30
2327.000
 70
    32
  0
VERTEX
  8
2900LEVEL
 62
13
 10
723.995
 20
-2949.781
 30
2327.000
 70
    32
  0
VERTEX
  8
2900LEVEL
 62
13
 10
771.349
 20
-2981.544
 30
2327.000
 70
    32
  0
VERTEX
  8
2900LEVEL
 62
13
 10
819.936
 20
-3032.409
 30
2327.000
 70
    32
  0
VERTEX
  8
2900LEVEL
 62
13
 10
865.967
 20
-3080.345
 30
2327.000
 70
    32
  0
VERTEX
  8
2900LEVEL
 62
13
 10
914.505
 20
-3129.942
 30
2327.000
 70
    32
  0
VERTEX
  8
2900LEVEL
 62
13
 10
947.825
 20
-3180.132
 30
2327.000
 70
    32
  0
VERTEX
  8
2900LEVEL
 62
13
 10
979.091
 20
-3235.287
 30
2327.000
 70
    32
  0
VERTEX
  8
2900LEVEL
 62
13
 10
1016.223
 20
-3280.541
 30
2327.000
 70
    32
  0
VERTEX
  8
2900LEVEL
 62
13
 10
1050.910
 20
-3333.218
 30
2327.000
 70
    32
  0
VERTEX
  8
2900LEVEL
 62
13
 10
1086.760
 20
-3400.700
 30
2327.000
 70
    32
  0
VERTEX
  8
2900LEVEL
 62
13
 10
1127.977
 20
-3462.991
 30
2327.000
 70
    32
  0
VERTEX
  8
2900LEVEL
 62
13
 10
1160.994
 20
-3522.963
 30
2327.000
 70
    32
  0
VERTEX
  8
2900LEVEL
 62
13
 10
1200.442
 20
-3547.414
 30
2327.000
 70
    32
  0
VERTEX
  8
2900LEVEL
 62
13
 10
1229.431
 20
-3616.825
 30
2327.000
 70
    32
  0
VERTEX
  8
2900LEVEL
 62
13
 10
1252.334
 20
-3645.438
 30
2327.000
 70
    32
  0
VERTEX
  8
2900LEVEL
 62
13
 10
1288.338
 20
-3656.735
 30
2327.000
 70
    32
  0
VERTEX
  8
2900LEVEL
 62
13
 10
1322.679
 20
-3700.535
 30
2327.000
 70
    32
  0
VERTEX
  8
2900LEVEL
 62
13
 10
1371.958
 20
-3769.154
 30
2327.000
 70
    32
  0
VERTEX
  8
2900LEVEL
 62
13
 10
1396.950
 20
-3816.250
 30
2327.000
 70
    32
  0
VERTEX
  8
2900LEVEL
 62
13
 10
1404.315
 20
-3864.814
 30
2327.000
 70
    32
  0
VERTEX
  8
2900LEVEL
 62
13
 10
1431.029
 20
-3918.486
 30
2327.000
 70
    32
  0
VERTEX
  8
2900LEVEL
 62
13
 10
1474.578
 20
-3950.397
 30
2327.000
 70
    32
  0
VERTEX
  8
2900LEVEL
 62
13
 10
1440.936
 20
-3906.961
 30
2327.000
 70
    32
  0
VERTEX
  8
2900LEVEL
 62
13
 10
1422.460
 20
-3849.060
 30
2327.000
 70
    32
  0
VERTEX
  8
2900LEVEL
 62
13
 10
1422.186
 20
-3814.484
 30
2327.000
 70
    32
  0
VERTEX
  8
2900LEVEL
 62
13
 10
1464.503
 20
-3869.892
 30
2327.000
 70
    32
  0
VERTEX
  8
2900LEVEL
 62
13
 10
1521.933
 20
-3939.562
 30
2327.000
 70
    32
  0
VERTEX
  8
2900LEVEL
 62
13
 10
1553.710
 20
-3955.226
 30
2327.000
 70
    32
  0
VERTEX
  8
2900LEVEL
 62
13
 10
1537.035
 20
-3903.409
 30
2327.000
 70
    32
  0
VERTEX
  8
2900LEVEL
 62
13
 10
1485.440
 20
-3855.593
 30
2327.000
 70
    32
  0
VERTEX
  8
2900LEVEL
 62
13
 10
1456.693
 20
-3809.914
 30
2327.000
 70
    32
  0
VERTEX
  8
2900LEVEL
 62
13
 10
1487.784
 20
-3833.030
 30
2327.000
 70
    32
  0
VERTEX
  8
2900LEVEL
 62
13
 10
1535.505
 20
-3876.699
 30
2327.000
 70
    32
  0
VERTEX
  8
2900LEVEL
 62
13
 10
1556.456
 20
-3925.417
 30
2327.000
 70
    32
  0
VERTEX
  8
2900LEVEL
 62
13
 10
1577.006
 20
-3981.381
 30
2327.000
 70
    32
  0
VERTEX
  8
2900LEVEL
 62
13
 10
1616.190
 20
-4051.664
 30
2327.000
 70
    32
  0
VERTEX
  8
2900LEVEL
 62
13
 10
1635.210
 20
-4123.516
 30
2327.000
 70
    32
  0
VERTEX
  8
2900LEVEL
 62
13
 10
1635.746
 20
-4184.852
 30
2327.000
 70
    32
  0
VERTEX
  8
2900LEVEL
 62
13
 10
1653.919
 20
-4209.937
 30
2327.000
 70
    32
  0
VERTEX
  8
2900LEVEL
 62
13
 10
1654.411
 20
-4167.417
 30
2327.000
 70
    32
  0
VERTEX
  8
2900LEVEL
 62
13
 10
1685.496
 20
-4207.924
 30
2327.000
 70
    32
  0
VERTEX
  8
2900LEVEL
 62
13
 10
1681.223
 20
-4181.027
 30
2327.000
 70
    32
  0
VERTEX
  8
2900LEVEL
 62
13
 10
1674.173
 20
-4130.497
 30
2327.000
 70
    32
  0
VERTEX
  8
2900LEVEL
 62
13
 10
1672.392
 20
-4084.841
 30
2327.000
 70
    32
  0
VERTEX
  8
2900LEVEL
 62
13
 10
1669.385
 20
-4045.291
 30
2327.000
 70
    32
  0
VERTEX
  8
2900LEVEL
 62
13
 10
1695.918
 20
-4084.315
 30
2327.000
 70
    32
  0
VERTEX
  8
2900LEVEL
 62
13
 10
1715.799
 20
-4138.155
 30
2327.000
 70
    32
  0
VERTEX
  8
2900LEVEL
 62
13
 10
1746.711
 20
-4189.221
 30
2327.000
 70
    32
  0
VERTEX
  8
2900LEVEL
 62
13
 10
1772.322
 20
-4237.171
 30
2327.000
 70
    32
  0
VERTEX
  8
2900LEVEL
 62
13
 10
1781.240
 20
-4285.479
 30
2327.000
 70
    32
  0
VERTEX
  8
2900LEVEL
 62
13
 10
1789.324
 20
-4337.435
 30
2327.000
 70
    32
  0
VERTEX
  8
2900LEVEL
 62
13
 10
1823.196
 20
-4396.787
 30
2327.000
 70
    32
  0
VERTEX
  8
2900LEVEL
 62
13
 10
1862.819
 20
-4453.278
 30
2327.000
 70
    32
  0
VERTEX
  8
2900LEVEL
 62
13
 10
1900.984
 20
-4499.957
 30
2327.000
 70
    32
  0
VERTEX
  8
2900LEVEL
 62
13
 10
1906.112
 20
-4483.636
 30
2327.000
 70
    32
  0
VERTEX
  8
2900LEVEL
 62
13
 10
1874.861
 20
-4448.900
 30
2327.000
 70
    32
  0
VERTEX
  8
2900LEVEL
 62
13
 10
1874.896
 20
-4429.749
 30
2327.000
 70
    32
  0
VERTEX
  8
2900LEVEL
 62
13
 10
1842.196
 20
-4380.414
 30
2327.000
 70
    32
  0
VERTEX
  8
2900LEVEL
 62
13
 10
1808.495
 20
-4340.498
 30
2327.000
 70
    32
  0
VERTEX
  8
2900LEVEL
 62
13
 10
1798.064
 20
-4298.502
 30
2327.000
 70
    32
  0
VERTEX
  8
2900LEVEL
 62
13
 10
1819.237
 20
-4325.326
 30
2327.000
 70
    32
  0
VERTEX
  8
2900LEVEL
 62
13
 10
1858.130
 20
-4370.609
 30
2327.000
 70
    32
  0
VERTEX
  8
2900LEVEL
 62
13
 10
1895.824
 20
-4420.238
 30
2327.000
 70
    32
  0
VERTEX
  8
2900LEVEL
 62
13
 10
1928.652
 20
-4470.349
 30
2327.000
 70
    32
  0
VERTEX
  8
2900LEVEL
 62
13
 10
1979.013
 20
-4499.064
 30
2327.000
 70
    32
  0
VERTEX
  8
2900LEVEL
 62
13
 10
2030.076
 20
-4540.746
 30
2327.000
 70
    32
  0
VERTEX
  8
2900LEVEL
 62
13
 10
2070.976
 20
-4592.399
 30
2327.000
 70
    32
  0
VERTEX
  8
2900LEVEL
 62
13
 10
2097.419
 20
-4624.098
 30
2327.000
 70
    32
  0
VERTEX
  8
2900LEVEL
 62
13
 10
2121.835
 20
-4646.400
 30
2327.000
 70
    32
  0
VERTEX
  8
2900LEVEL
 62
13
 10
2128.207
 20
-4663.317
 30
2327.000
 70
    32
  0
SEQEND
  8
2900LEVEL
  0
POLYLINE
  8
2900LEVEL
 62
13
 66
     1
 70
     8
  0
VERTEX
  8
2900LEVEL
 62
13
 10
2139.718
 20
-4693.823
 30
2327.000
 70
    32
  0
VERTEX
  8
2900LEVEL
 62
13
 10
2142.955
 20
-4701.950
 30
2327.000
 70
    32
  0
VERTEX
  8
2900LEVEL
 62
13
 10
2155.835
 20
-4749.127
 30
2327.000
 70
    32
  0
VERTEX
  8
2900LEVEL
 62
13
 10
2191.406
 20
-4799.425
 30
2327.000
 70
    32
  0
VERTEX
  8
2900LEVEL
 62
13
 10
2222.038
 20
-4875.904
 30
2327.000
 70
    32
  0
VERTEX
  8
2900LEVEL
 62
13
 10
2250.142
 20
-4947.694
 30
2327.000
 70
    32
  0
VERTEX
  8
2900LEVEL
 62
13
 10
2290.408
 20
-5020.671
 30
2327.000
 70
    32
  0
VERTEX
  8
2900LEVEL
 62
13
 10
2347.122
 20
-5099.553
 30
2327.000
 70
    32
  0
VERTEX
  8
2900LEVEL
 62
13
 10
2403.648
 20
-5168.574
 30
2327.000
 70
    32
  0
VERTEX
  8
2900LEVEL
 62
13
 10
2467.035
 20
-5235.667
 30
2327.000
 70
    32
  0
VERTEX
  8
2900LEVEL
 62
13
 10
2523.240
 20
-5281.447
 30
2327.000
 70
    32
  0
VERTEX
  8
2900LEVEL
 62
13
 10
2540.594
 20
-5245.402
 30
2327.000
 70
    32
  0
VERTEX
  8
2900LEVEL
 62
13
 10
2523.162
 20
-5196.742
 30
2327.000
 70
    32
  0
VERTEX
  8
2900LEVEL
 62
13
 10
2558.453
 20
-5187.257
 30
2327.000
 70
    32
  0
VERTEX
  8
2900LEVEL
 62
13
 10
2579.684
 20
-5167.963
 30
2327.000
 70
    32
  0
VERTEX
  8
2900LEVEL
 62
13
 10
2564.020
 20
-5114.544
 30
2327.000
 70
    32
  0
VERTEX
  8
2900LEVEL
 62
13
 10
2522.812
 20
-5047.466
 30
2327.000
 70
    32
  0
VERTEX
  8
2900LEVEL
 62
13
 10
2456.133
 20
-4983.628
 30
2327.000
 70
    32
  0
VERTEX
  8
2900LEVEL
 62
13
 10
2396.725
 20
-4905.829
 30
2327.000
 70
    32
  0
VERTEX
  8
2900LEVEL
 62
13
 10
2343.678
 20
-4830.810
 30
2327.000
 70
    32
  0
VERTEX
  8
2900LEVEL
 62
13
 10
2308.221
 20
-4760.869
 30
2327.000
 70
    32
  0
VERTEX
  8
2900LEVEL
 62
13
 10
2267.388
 20
-4700.909
 30
2327.000
 70
    32
  0
VERTEX
  8
2900LEVEL
 62
13
 10
2241.026
 20
-4638.723
 30
2327.000
 70
    32
  0
VERTEX
  8
2900LEVEL
 62
13
 10
2199.606
 20
-4588.751
 30
2327.000
 70
    32
  0
VERTEX
  8
2900LEVEL
 62
13
 10
2190.347
 20
-4556.773
 30
2327.000
 70
    32
  0
VERTEX
  8
2900LEVEL
 62
13
 10
2214.987
 20
-4569.784
 30
2327.000
 70
    32
  0
VERTEX
  8
2900LEVEL
 62
13
 10
2253.624
 20
-4613.513
 30
2327.000
 70
    32
  0
VERTEX
  8
2900LEVEL
 62
13
 10
2262.111
 20
-4585.630
 30
2327.000
 70
    32
  0
VERTEX
  8
2900LEVEL
 62
13
 10
2244.368
 20
-4551.540
 30
2327.000
 70
    32
  0
VERTEX
  8
2900LEVEL
 62
13
 10
2211.450
 20
-4536.703
 30
2327.000
 70
    32
  0
VERTEX
  8
2900LEVEL
 62
13
 10
2173.843
 20
-4524.393
 30
2327.000
 70
    32
  0
VERTEX
  8
2900LEVEL
 62
13
 10
2182.747
 20
-4509.684
 30
2327.000
 70
    32
  0
VERTEX
  8
2900LEVEL
 62
13
 10
2174.262
 20
-4464.973
 30
2327.000
 70
    32
  0
VERTEX
  8
2900LEVEL
 62
13
 10
2143.525
 20
-4403.349
 30
2327.000
 70
    32
  0
VERTEX
  8
2900LEVEL
 62
13
 10
2104.906
 20
-4350.044
 30
2327.000
 70
    32
  0
VERTEX
  8
2900LEVEL
 62
13
 10
2115.854
 20
-4377.755
 30
2327.000
 70
    32
  0
VERTEX
  8
2900LEVEL
 62
13
 10
2133.513
 20
-4429.728
 30
2327.000
 70
    32
  0
VERTEX
  8
2900LEVEL
 62
13
 10
2097.643
 20
-4401.816
 30
2327.000
 70
    32
  0
VERTEX
  8
2900LEVEL
 62
13
 10
2122.940
 20
-4451.733
 30
2327.000
 70
    32
  0
VERTEX
  8
2900LEVEL
 62
13
 10
2093.894
 20
-4428.440
 30
2327.000
 70
    32
  0
VERTEX
  8
2900LEVEL
 62
13
 10
2061.755
 20
-4383.480
 30
2327.000
 70
    32
  0
VERTEX
  8
2900LEVEL
 62
13
 10
2012.702
 20
-4318.173
 30
2327.000
 70
    32
  0
VERTEX
  8
2900LEVEL
 62
13
 10
1985.290
 20
-4264.138
 30
2327.000
 70
    32
  0
VERTEX
  8
2900LEVEL
 62
13
 10
1955.802
 20
-4242.034
 30
2327.000
 70
    32
  0
VERTEX
  8
2900LEVEL
 62
13
 10
1934.163
 20
-4200.768
 30
2327.000
 70
    32
  0
VERTEX
  8
2900LEVEL
 62
13
 10
1908.090
 20
-4193.578
 30
2327.000
 70
    32
  0
VERTEX
  8
2900LEVEL
 62
13
 10
1879.366
 20
-4206.129
 30
2327.000
 70
    32
  0
VERTEX
  8
2900LEVEL
 62
13
 10
1863.598
 20
-4167.565
 30
2327.000
 70
    32
  0
VERTEX
  8
2900LEVEL
 62
13
 10
1865.811
 20
-4131.622
 30
2327.000
 70
    32
  0
VERTEX
  8
2900LEVEL
 62
13
 10
1890.175
 20
-4140.051
 30
2327.000
 70
    32
  0
VERTEX
  8
2900LEVEL
 62
13
 10
1870.139
 20
-4099.798
 30
2327.000
 70
    32
  0
VERTEX
  8
2900LEVEL
 62
13
 10
1862.818
 20
-4069.893
 30
2327.000
 70
    32
  0
VERTEX
  8
2900LEVEL
 62
13
 10
1900.608
 20
-4109.455
 30
2327.000
 70
    32
  0
VERTEX
  8
2900LEVEL
 62
13
 10
1926.822
 20
-4125.237
 30
2327.000
 70
    32
  0
VERTEX
  8
2900LEVEL
 62
13
 10
1911.496
 20
-4085.484
 30
2327.000
 70
    32
  0
VERTEX
  8
2900LEVEL
 62
13
 10
1884.212
 20
-4032.225
 30
2327.000
 70
    32
  0
VERTEX
  8
2900LEVEL
 62
13
 10
1842.189
 20
-3971.822
 30
2327.000
 70
    32
  0
VERTEX
  8
2900LEVEL
 62
13
 10
1790.658
 20
-3903.095
 30
2327.000
 70
    32
  0
VERTEX
  8
2900LEVEL
 62
13
 10
1739.441
 20
-3832.401
 30
2327.000
 70
    32
  0
VERTEX
  8
2900LEVEL
 62
13
 10
1714.103
 20
-3776.429
 30
2327.000
 70
    32
  0
VERTEX
  8
2900LEVEL
 62
13
 10
1683.471
 20
-3699.950
 30
2327.000
 70
    32
  0
VERTEX
  8
2900LEVEL
 62
13
 10
1676.874
 20
-3656.045
 30
2327.000
 70
    32
  0
VERTEX
  8
2900LEVEL
 62
13
 10
1661.516
 20
-3605.448
 30
2327.000
 70
    32
  0
VERTEX
  8
2900LEVEL
 62
13
 10
1690.173
 20
-3643.802
 30
2327.000
 70
    32
  0
VERTEX
  8
2900LEVEL
 62
13
 10
1705.266
 20
-3697.634
 30
2327.000
 70
    32
  0
VERTEX
  8
2900LEVEL
 62
13
 10
1725.738
 20
-3754.090
 30
2327.000
 70
    32
  0
VERTEX
  8
2900LEVEL
 62
13
 10
1761.405
 20
-3794.320
 30
2327.000
 70
    32
  0
VERTEX
  8
2900LEVEL
 62
13
 10
1801.499
 20
-3847.861
 30
2327.000
 70
    32
  0
VERTEX
  8
2900LEVEL
 62
13
 10
1836.110
 20
-3913.633
 30
2327.000
 70
    32
  0
VERTEX
  8
2900LEVEL
 62
13
 10
1876.777
 20
-3979.365
 30
2327.000
 70
    32
  0
VERTEX
  8
2900LEVEL
 62
13
 10
1918.439
 20
-4010.471
 30
2327.000
 70
    32
  0
VERTEX
  8
2900LEVEL
 62
13
 10
1941.735
 20
-3994.028
 30
2327.000
 70
    32
  0
VERTEX
  8
2900LEVEL
 62
13
 10
1918.168
 20
-3945.900
 30
2327.000
 70
    32
  0
VERTEX
  8
2900LEVEL
 62
13
 10
1898.613
 20
-3897.909
 30
2327.000
 70
    32
  0
VERTEX
  8
2900LEVEL
 62
13
 10
1954.798
 20
-3940.661
 30
2327.000
 70
    32
  0
VERTEX
  8
2900LEVEL
 62
13
 10
2003.984
 20
-3989.353
 30
2327.000
 70
    32
  0
VERTEX
  8
2900LEVEL
 62
13
 10
2051.170
 20
-4056.882
 30
2327.000
 70
    32
  0
VERTEX
  8
2900LEVEL
 62
13
 10
2088.634
 20
-4133.192
 30
2327.000
 70
    32
  0
VERTEX
  8
2900LEVEL
 62
13
 10
2126.206
 20
-4207.252
 30
2327.000
 70
    32
  0
VERTEX
  8
2900LEVEL
 62
13
 10
2178.866
 20
-4267.337
 30
2327.000
 70
    32
  0
VERTEX
  8
2900LEVEL
 62
13
 10
2216.403
 20
-4317.949
 30
2327.000
 70
    32
  0
VERTEX
  8
2900LEVEL
 62
13
 10
2252.553
 20
-4363.046
 30
2327.000
 70
    32
  0
VERTEX
  8
2900LEVEL
 62
13
 10
2286.905
 20
-4414.661
 30
2327.000
 70
    32
  0
VERTEX
  8
2900LEVEL
 62
13
 10
2325.838
 20
-4466.000
 30
2327.000
 70
    32
  0
VERTEX
  8
2900LEVEL
 62
13
 10
2366.395
 20
-4521.379
 30
2327.000
 70
    32
  0
VERTEX
  8
2900LEVEL
 62
13
 10
2398.915
 20
-4556.066
 30
2327.000
 70
    32
  0
VERTEX
  8
2900LEVEL
 62
13
 10
2425.192
 20
-4593.536
 30
2327.000
 70
    32
  0
VERTEX
  8
2900LEVEL
 62
13
 10
2398.074
 20
-4577.105
 30
2327.000
 70
    32
  0
VERTEX
  8
2900LEVEL
 62
13
 10
2351.208
 20
-4532.816
 30
2327.000
 70
    32
  0
VERTEX
  8
2900LEVEL
 62
13
 10
2366.831
 20
-4580.179
 30
2327.000
 70
    32
  0
VERTEX
  8
2900LEVEL
 62
13
 10
2396.823
 20
-4652.775
 30
2327.000
 70
    32
  0
VERTEX
  8
2900LEVEL
 62
13
 10
2438.342
 20
-4705.283
 30
2327.000
 70
    32
  0
VERTEX
  8
2900LEVEL
 62
13
 10
2482.413
 20
-4735.514
 30
2327.000
 70
    32
  0
VERTEX
  8
2900LEVEL
 62
13
 10
2503.894
 20
-4777.763
 30
2327.000
 70
    32
  0
VERTEX
  8
2900LEVEL
 62
13
 10
2514.444
 20
-4825.324
 30
2327.000
 70
    32
  0
VERTEX
  8
2900LEVEL
 62
13
 10
2539.403
 20
-4861.575
 30
2327.000
 70
    32
  0
VERTEX
  8
2900LEVEL
 62
13
 10
2528.039
 20
-4820.690
 30
2327.000
 70
    32
  0
VERTEX
  8
2900LEVEL
 62
13
 10
2520.302
 20
-4777.612
 30
2327.000
 70
    32
  0
VERTEX
  8
2900LEVEL
 62
13
 10
2554.284
 20
-4719.522
 30
2327.000
 70
    32
  0
VERTEX
  8
2900LEVEL
 62
13
 10
2599.931
 20
-4722.529
 30
2327.000
 70
    32
  0
VERTEX
  8
2900LEVEL
 62
13
 10
2643.132
 20
-4775.558
 30
2327.000
 70
    32
  0
VERTEX
  8
2900LEVEL
 62
13
 10
2692.030
 20
-4854.451
 30
2327.000
 70
    32
  0
VERTEX
  8
2900LEVEL
 62
13
 10
2738.215
 20
-4931.399
 30
2327.000
 70
    32
  0
VERTEX
  8
2900LEVEL
 62
13
 10
2783.423
 20
-4990.798
 30
2327.000
 70
    32
  0
VERTEX
  8
2900LEVEL
 62
13
 10
2835.021
 20
-5051.218
 30
2327.000
 70
    32
  0
VERTEX
  8
2900LEVEL
 62
13
 10
2873.614
 20
-5118.887
 30
2327.000
 70
    32
  0
VERTEX
  8
2900LEVEL
 62
13
 10
2922.914
 20
-5190.534
 30
2327.000
 70
    32
  0
VERTEX
  8
2900LEVEL
 62
13
 10
2955.241
 20
-5245.355
 30
2327.000
 70
    32
  0
VERTEX
  8
2900LEVEL
 62
13
 10
3013.381
 20
-5323.204
 30
2327.000
 70
    32
  0
VERTEX
  8
2900LEVEL
 62
13
 10
3061.666
 20
-5383.851
 30
2327.000
 70
    32
  0
VERTEX
  8
2900LEVEL
 62
13
 10
3096.577
 20
-5427.238
 30
2327.000
 70
    32
  0
VERTEX
  8
2900LEVEL
 62
13
 10
3199.502
 20
-5526.105
 30
2327.000
 70
    32
  0
VERTEX
  8
2900LEVEL
 62
13
 10
3244.416
 20
-5547.900
 30
2327.000
 70
    32
  0
VERTEX
  8
2900LEVEL
 62
13
 10
3299.685
 20
-5582.188
 30
2327.000
 70
    32
  0
VERTEX
  8
2900LEVEL
 62
13
 10
3348.641
 20
-5614.964
 30
2327.000
 70
    32
  0
VERTEX
  8
2900LEVEL
 62
13
 10
3350.878
 20
-5594.652
 30
2327.000
 70
    32
  0
VERTEX
  8
2900LEVEL
 62
13
 10
3320.587
 20
-5544.442
 30
2327.000
 70
    32
  0
VERTEX
  8
2900LEVEL
 62
13
 10
3284.926
 20
-5486.820
 30
2327.000
 70
    32
  0
VERTEX
  8
2900LEVEL
 62
13
 10
3259.087
 20
-5435.556
 30
2327.000
 70
    32
  0
VERTEX
  8
2900LEVEL
 62
13
 10
3233.959
 20
-5392.472
 30
2327.000
 70
    32
  0
VERTEX
  8
2900LEVEL
 62
13
 10
3199.615
 20
-5336.069
 30
2327.000
 70
    32
  0
VERTEX
  8
2900LEVEL
 62
13
 10
3162.794
 20
-5276.246
 30
2327.000
 70
    32
  0
VERTEX
  8
2900LEVEL
 62
13
 10
3131.342
 20
-5223.833
 30
2327.000
 70
    32
  0
VERTEX
  8
2900LEVEL
 62
13
 10
3161.269
 20
-5232.143
 30
2327.000
 70
    32
  0
VERTEX
  8
2900LEVEL
 62
13
 10
3199.580
 20
-5270.024
 30
2327.000
 70
    32
  0
VERTEX
  8
2900LEVEL
 62
13
 10
3232.129
 20
-5302.950
 30
2327.000
 70
    32
  0
SEQEND
  8
2900LEVEL
  0
POLYLINE
  8
2900LEVEL
 62
13
 66
     1
 70
     8
  0
VERTEX
  8
2900LEVEL
 62
13
 10
3351.939
 20
-5463.468
 30
2327.000
 70
    32
  0
VERTEX
  8
2900LEVEL
 62
13
 10
3394.247
 20
-5526.719
 30
2327.000
 70
    32
  0
VERTEX
  8
2900LEVEL
 62
13
 10
3426.397
 20
-5579.495
 30
2327.000
 70
    32
  0
VERTEX
  8
2900LEVEL
 62
13
 10
3455.281
 20
-5621.162
 30
2327.000
 70
    32
  0
VERTEX
  8
2900LEVEL
 62
13
 10
3450.711
 20
-5586.656
 30
2327.000
 70
    32
  0
VERTEX
  8
2900LEVEL
 62
13
 10
3433.035
 20
-5544.258
 30
2327.000
 70
    32
  0
VERTEX
  8
2900LEVEL
 62
13
 10
3475.337
 20
-5579.247
 30
2327.000
 70
    32
  0
VERTEX
  8
2900LEVEL
 62
13
 10
3516.036
 20
-5613.224
 30
2327.000
 70
    32
  0
VERTEX
  8
2900LEVEL
 62
13
 10
3505.468
 20
-5575.239
 30
2327.000
 70
    32
  0
VERTEX
  8
2900LEVEL
 62
13
 10
3517.083
 20
-5549.872
 30
2327.000
 70
    32
  0
VERTEX
  8
2900LEVEL
 62
13
 10
3557.438
 20
-5587.575
 30
2327.000
 70
    32
  0
VERTEX
  8
2900LEVEL
 62
13
 10
3592.035
 20
-5632.928
 30
2327.000
 70
    32
  0
VERTEX
  8
2900LEVEL
 62
13
 10
3595.490
 20
-5611.298
 30
2327.000
 70
    32
  0
VERTEX
  8
2900LEVEL
 62
13
 10
3627.216
 20
-5655.688
 30
2327.000
 70
    32
  0
VERTEX
  8
2900LEVEL
 62
13
 10
3652.263
 20
-5729.259
 30
2327.000
 70
    32
  0
VERTEX
  8
2900LEVEL
 62
13
 10
3683.171
 20
-5810.319
 30
2327.000
 70
    32
  0
VERTEX
  8
2900LEVEL
 62
13
 10
3698.311
 20
-5852.816
 30
2327.000
 70
    32
  0
VERTEX
  8
2900LEVEL
 62
13
 10
3718.943
 20
-5920.892
 30
2327.000
 70
    32
  0
VERTEX
  8
2900LEVEL
 62
13
 10
3745.098
 20
-5982.792
 30
2327.000
 70
    32
  0
VERTEX
  8
2900LEVEL
 62
13
 10
3760.075
 20
-6043.663
 30
2327.000
 70
    32
  0
VERTEX
  8
2900LEVEL
 62
13
 10
3797.028
 20
-6116.867
 30
2327.000
 70
    32
  0
VERTEX
  8
2900LEVEL
 62
13
 10
3826.624
 20
-6179.317
 30
2327.000
 70
    32
  0
VERTEX
  8
2900LEVEL
 62
13
 10
3856.282
 20
-6250.852
 30
2327.000
 70
    32
  0
VERTEX
  8
2900LEVEL
 62
13
 10
3885.311
 20
-6326.319
 30
2327.000
 70
    32
  0
VERTEX
  8
2900LEVEL
 62
13
 10
3930.236
 20
-6398.528
 30
2327.000
 70
    32
  0
VERTEX
  8
2900LEVEL
 62
13
 10
3968.920
 20
-6430.922
 30
2327.000
 70
    32
  0
VERTEX
  8
2900LEVEL
 62
13
 10
3929.591
 20
-6369.437
 30
2327.000
 70
    32
  0
VERTEX
  8
2900LEVEL
 62
13
 10
3902.266
 20
-6310.123
 30
2327.000
 70
    32
  0
VERTEX
  8
2900LEVEL
 62
13
 10
3884.723
 20
-6251.110
 30
2327.000
 70
    32
  0
VERTEX
  8
2900LEVEL
 62
13
 10
3863.286
 20
-6184.922
 30
2327.000
 70
    32
  0
VERTEX
  8
2900LEVEL
 62
13
 10
3833.489
 20
-6104.796
 30
2327.000
 70
    32
  0
VERTEX
  8
2900LEVEL
 62
13
 10
3793.767
 20
-6045.769
 30
2327.000
 70
    32
  0
VERTEX
  8
2900LEVEL
 62
13
 10
3766.678
 20
-5984.980
 30
2327.000
 70
    32
  0
VERTEX
  8
2900LEVEL
 62
13
 10
3796.749
 20
-6014.486
 30
2327.000
 70
    32
  0
VERTEX
  8
2900LEVEL
 62
13
 10
3775.657
 20
-5957.175
 30
2327.000
 70
    32
  0
VERTEX
  8
2900LEVEL
 62
13
 10
3744.883
 20
-5902.098
 30
2327.000
 70
    32
  0
VERTEX
  8
2900LEVEL
 62
13
 10
3716.997
 20
-5838.409
 30
2327.000
 70
    32
  0
VERTEX
  8
2900LEVEL
 62
13
 10
3694.862
 20
-5771.857
 30
2327.000
 70
    32
  0
VERTEX
  8
2900LEVEL
 62
13
 10
3698.518
 20
-5725.306
 30
2327.000
 70
    32
  0
VERTEX
  8
2900LEVEL
 62
13
 10
3744.799
 20
-5749.588
 30
2327.000
 70
    32
  0
VERTEX
  8
2900LEVEL
 62
13
 10
3804.433
 20
-5788.102
 30
2327.000
 70
    32
  0
VERTEX
  8
2900LEVEL
 62
13
 10
3843.570
 20
-5827.123
 30
2327.000
 70
    32
  0
VERTEX
  8
2900LEVEL
 62
13
 10
3855.819
 20
-5823.030
 30
2327.000
 70
    32
  0
VERTEX
  8
2900LEVEL
 62
13
 10
3812.592
 20
-5784.365
 30
2327.000
 70
    32
  0
VERTEX
  8
2900LEVEL
 62
13
 10
3768.487
 20
-5730.687
 30
2327.000
 70
    32
  0
VERTEX
  8
2900LEVEL
 62
13
 10
3721.086
 20
-5667.661
 30
2327.000
 70
    32
  0
VERTEX
  8
2900LEVEL
 62
13
 10
3694.038
 20
-5612.927
 30
2327.000
 70
    32
  0
SEQEND
  8
2900LEVEL
  0
POLYLINE
  8
2900LEVEL
 62
5
 66
     1
 70
     8
  0
VERTEX
  8
2900LEVEL
 62
5
 10
2561.010
 20
-4150.003
 30
2327.000
 70
    32
  0
VERTEX
  8
2900LEVEL
 62
5
 10
2548.865
 20
-3944.072
 30
2327.000
 70
    32
  0
VERTEX
  8
2900LEVEL
 62
5
 10
2515.516
 20
-3853.044
 30
2327.000
 70
    32
  0
VERTEX
  8
2900LEVEL
 62
5
 10
2507.304
 20
-3757.713
 30
2327.000
 70
    32
  0
VERTEX
  8
2900LEVEL
 62
5
 10
2484.805
 20
-3649.261
 30
2327.000
 70
    32
  0
VERTEX
  8
2900LEVEL
 62
5
 10
2467.530
 20
-3557.020
 30
2327.000
 70
    32
  0
VERTEX
  8
2900LEVEL
 62
5
 10
2460.584
 20
-3449.036
 30
2327.000
 70
    32
  0
VERTEX
  8
2900LEVEL
 62
5
 10
2443.143
 20
-3362.566
 30
2327.000
 70
    32
  0
VERTEX
  8
2900LEVEL
 62
5
 10
2427.107
 20
-3272.034
 30
2327.000
 70
    32
  0
VERTEX
  8
2900LEVEL
 62
5
 10
2414.830
 20
-3192.690
 30
2327.000
 70
    32
  0
VERTEX
  8
2900LEVEL
 62
5
 10
2393.852
 20
-3115.737
 30
2327.000
 70
    32
  0
VERTEX
  8
2900LEVEL
 62
5
 10
2368.784
 20
-3039.138
 30
2327.000
 70
    32
  0
SEQEND
  8
2900LEVEL
  0
POLYLINE
  8
2900LEVEL
 62
5
 66
     1
 70
     8
  0
VERTEX
  8
2900LEVEL
 62
5
 10
2580.919
 20
-4272.128
 30
2327.000
 70
    32
  0
VERTEX
  8
2900LEVEL
 62
5
 10
2582.022
 20
-4310.825
 30
2327.000
 70
    32
  0
VERTEX
  8
2900LEVEL
 62
5
 10
2592.865
 20
-4353.391
 30
2327.000
 70
    32
  0
VERTEX
  8
2900LEVEL
 62
5
 10
2620.757
 20
-4442.288
 30
2327.000
 70
    32
  0
VERTEX
  8
2900LEVEL
 62
5
 10
2651.238
 20
-4544.957
 30
2327.000
 70
    32
  0
VERTEX
  8
2900LEVEL
 62
5
 10
2693.900
 20
-4651.841
 30
2327.000
 70
    32
  0
VERTEX
  8
2900LEVEL
 62
5
 10
2740.408
 20
-4764.633
 30
2327.000
 70
    32
  0
VERTEX
  8
2900LEVEL
 62
5
 10
2813.976
 20
-4897.375
 30
2327.000
 70
    32
  0
VERTEX
  8
2900LEVEL
 62
5
 10
2881.336
 20
-5013.751
 30
2327.000
 70
    32
  0
VERTEX
  8
2900LEVEL
 62
5
 10
2948.510
 20
-5132.869
 30
2327.000
 70
    32
  0
VERTEX
  8
2900LEVEL
 62
5
 10
3001.214
 20
-5254.212
 30
2327.000
 70
    32
  0
VERTEX
  8
2900LEVEL
 62
5
 10
3063.874
 20
-5365.299
 30
2327.000
 70
    32
  0
VERTEX
  8
2900LEVEL
 62
5
 10
3116.723
 20
-5477.844
 30
2327.000
 70
    32
  0
VERTEX
  8
2900LEVEL
 62
5
 10
3193.877
 20
-5602.337
 30
2327.000
 70
    32
  0
VERTEX
  8
2900LEVEL
 62
5
 10
3261.252
 20
-5696.533
 30
2327.000
 70
    32
  0
VERTEX
  8
2900LEVEL
 62
5
 10
3303.329
 20
-5783.411
 30
2327.000
 70
    32
  0
VERTEX
  8
2900LEVEL
 62
5
 10
3348.074
 20
-5883.570
 30
2327.000
 70
    32
  0
VERTEX
  8
2900LEVEL
 62
5
 10
3379.146
 20
-5946.256
 30
2327.000
 70
    32
  0
SEQEND
  8
2900LEVEL
  0
POLYLINE
  8
2900LEVEL
 62
5
 66
     1
 70
     8
  0
VERTEX
  8
2900LEVEL
 62
5
 10
2806.795
 20
-4025.455
 30
2327.000
 70
    32
  0
VERTEX
  8
2900LEVEL
 62
5
 10
2797.362
 20
-3937.641
 30
2327.000
 70
    32
  0
VERTEX
  8
2900LEVEL
 62
5
 10
2797.916
 20
-3939.246
 30
2327.000
 70
    32
  0
VERTEX
  8
2900LEVEL
 62
5
 10
2766.740
 20
-3848.817
 30
2327.000
 70
    32
  0
VERTEX
  8
2900LEVEL
 62
5
 10
2754.910
 20
-3750.892
 30
2327.000
 70
    32
  0
VERTEX
  8
2900LEVEL
 62
5
 10
2744.113
 20
-3654.392
 30
2327.000
 70
    32
  0
VERTEX
  8
2900LEVEL
 62
5
 10
2729.679
 20
-3564.873
 30
2327.000
 70
    32
  0
VERTEX
  8
2900LEVEL
 62
5
 10
2700.557
 20
-3469.478
 30
2327.000
 70
    32
  0
VERTEX
  8
2900LEVEL
 62
5
 10
2687.907
 20
-3395.620
 30
2327.000
 70
    32
  0
SEQEND
  8
2900LEVEL
  0
POLYLINE
  8
2900LEVEL
 62
5
 66
     1
 70
     9
  0
VERTEX
  8
2900LEVEL
 62
5
 10
3385.818
 20
-5423.287
 30
2327.000
 70
    32
  0
VERTEX
  8
2900LEVEL
 62
5
 10
3365.308
 20
-5373.379
 30
2327.000
 70
    32
  0
VERTEX
  8
2900LEVEL
 62
5
 10
3339.537
 20
-5313.809
 30
2327.000
 70
    32
  0
VERTEX
  8
2900LEVEL
 62
5
 10
3322.675
 20
-5264.735
 30
2327.000
 70
    32
  0
VERTEX
  8
2900LEVEL
 62
5
 10
3286.159
 20
-5207.733
 30
2327.000
 70
    32
  0
VERTEX
  8
2900LEVEL
 62
5
 10
3257.909
 20
-5144.742
 30
2327.000
 70
    32
  0
VERTEX
  8
2900LEVEL
 62
5
 10
3218.176
 20
-5077.899
 30
2327.000
 70
    32
  0
VERTEX
  8
2900LEVEL
 62
5
 10
3174.059
 20
-5016.406
 30
2327.000
 70
    32
  0
VERTEX
  8
2900LEVEL
 62
5
 10
3144.189
 20
-4961.978
 30
2327.000
 70
    32
  0
VERTEX
  8
2900LEVEL
 62
5
 10
3100.622
 20
-4897.044
 30
2327.000
 70
    32
  0
VERTEX
  8
2900LEVEL
 62
5
 10
3065.627
 20
-4828.942
 30
2327.000
 70
    32
  0
VERTEX
  8
2900LEVEL
 62
5
 10
3034.271
 20
-4766.462
 30
2327.000
 70
    32
  0
VERTEX
  8
2900LEVEL
 62
5
 10
3010.062
 20
-4701.848
 30
2327.000
 70
    32
  0
VERTEX
  8
2900LEVEL
 62
5
 10
3005.558
 20
-4681.545
 30
2327.000
 70
    32
  0
VERTEX
  8
2900LEVEL
 62
5
 10
3002.875
 20
-4678.159
 30
2327.000
 70
    32
  0
VERTEX
  8
2900LEVEL
 62
5
 10
2997.184
 20
-4672.053
 30
2327.000
 70
    32
  0
VERTEX
  8
2900LEVEL
 62
5
 10
2990.819
 20
-4666.117
 30
2327.000
 70
    32
  0
VERTEX
  8
2900LEVEL
 62
5
 10
2979.147
 20
-4654.538
 30
2327.000
 70
    32
  0
VERTEX
  8
2900LEVEL
 62
5
 10
2967.420
 20
-4641.475
 30
2327.000
 70
    32
  0
VERTEX
  8
2900LEVEL
 62
5
 10
2959.705
 20
-4633.086
 30
2327.000
 70
    32
  0
VERTEX
  8
2900LEVEL
 62
5
 10
2946.941
 20
-4617.962
 30
2327.000
 70
    32
  0
VERTEX
  8
2900LEVEL
 62
5
 10
2939.494
 20
-4607.702
 30
2327.000
 70
    32
  0
VERTEX
  8
2900LEVEL
 62
5
 10
2928.986
 20
-4589.953
 30
2327.000
 70
    32
  0
VERTEX
  8
2900LEVEL
 62
5
 10
2918.052
 20
-4572.341
 30
2327.000
 70
    32
  0
VERTEX
  8
2900LEVEL
 62
5
 10
2906.320
 20
-4556.557
 30
2327.000
 70
    32
  0
VERTEX
  8
2900LEVEL
 62
5
 10
2893.360
 20
-4536.873
 30
2327.000
 70
    32
  0
VERTEX
  8
2900LEVEL
 62
5
 10
2881.492
 20
-4517.519
 30
2327.000
 70
    32
  0
VERTEX
  8
2900LEVEL
 62
5
 10
2875.617
 20
-4508.796
 30
2327.000
 70
    32
  0
VERTEX
  8
2900LEVEL
 62
5
 10
2871.268
 20
-4505.921
 30
2327.000
 70
    32
  0
VERTEX
  8
2900LEVEL
 62
5
 10
2867.706
 20
-4505.351
 30
2327.000
 70
    32
  0
VERTEX
  8
2900LEVEL
 62
5
 10
2864.673
 20
-4507.968
 30
2327.000
 70
    32
  0
VERTEX
  8
2900LEVEL
 62
5
 10
2863.572
 20
-4511.630
 30
2327.000
 70
    32
  0
VERTEX
  8
2900LEVEL
 62
5
 10
2866.200
 20
-4523.108
 30
2327.000
 70
    32
  0
VERTEX
  8
2900LEVEL
 62
5
 10
2872.215
 20
-4535.047
 30
2327.000
 70
    32
  0
VERTEX
  8
2900LEVEL
 62
5
 10
2883.916
 20
-4556.731
 30
2327.000
 70
    32
  0
VERTEX
  8
2900LEVEL
 62
5
 10
2897.089
 20
-4579.563
 30
2327.000
 70
    32
  0
VERTEX
  8
2900LEVEL
 62
5
 10
2908.095
 20
-4593.890
 30
2327.000
 70
    32
  0
VERTEX
  8
2900LEVEL
 62
5
 10
2925.971
 20
-4613.170
 30
2327.000
 70
    32
  0
VERTEX
  8
2900LEVEL
 62
5
 10
2936.781
 20
-4626.010
 30
2327.000
 70
    32
  0
VERTEX
  8
2900LEVEL
 62
5
 10
2950.955
 20
-4641.433
 30
2327.000
 70
    32
  0
VERTEX
  8
2900LEVEL
 62
5
 10
2958.913
 20
-4650.214
 30
2327.000
 70
    32
  0
VERTEX
  8
2900LEVEL
 62
5
 10
2967.355
 20
-4659.990
 30
2327.000
 70
    32
  0
VERTEX
  8
2900LEVEL
 62
5
 10
2974.737
 20
-4669.753
 30
2327.000
 70
    32
  0
VERTEX
  8
2900LEVEL
 62
5
 10
2983.141
 20
-4679.776
 30
2327.000
 70
    32
  0
VERTEX
  8
2900LEVEL
 62
5
 10
2989.321
 20
-4686.382
 30
2327.000
 70
    32
  0
VERTEX
  8
2900LEVEL
 62
5
 10
3014.931
 20
-4756.567
 30
2327.000
 70
    32
  0
VERTEX
  8
2900LEVEL
 62
5
 10
3038.489
 20
-4809.482
 30
2327.000
 70
    32
  0
VERTEX
  8
2900LEVEL
 62
5
 10
3073.757
 20
-4869.562
 30
2327.000
 70
    32
  0
VERTEX
  8
2900LEVEL
 62
5
 10
3102.833
 20
-4933.693
 30
2327.000
 70
    32
  0
VERTEX
  8
2900LEVEL
 62
5
 10
3142.604
 20
-4993.988
 30
2327.000
 70
    32
  0
VERTEX
  8
2900LEVEL
 62
5
 10
3185.167
 20
-5055.738
 30
2327.000
 70
    32
  0
VERTEX
  8
2900LEVEL
 62
5
 10
3221.044
 20
-5108.857
 30
2327.000
 70
    32
  0
VERTEX
  8
2900LEVEL
 62
5
 10
3260.492
 20
-5175.906
 30
2327.000
 70
    32
  0
VERTEX
  8
2900LEVEL
 62
5
 10
3286.263
 20
-5235.477
 30
2327.000
 70
    32
  0
VERTEX
  8
2900LEVEL
 62
5
 10
3312.724
 20
-5300.199
 30
2327.000
 70
    32
  0
VERTEX
  8
2900LEVEL
 62
5
 10
3334.807
 20
-5352.879
 30
2327.000
 70
    32
  0
VERTEX
  8
2900LEVEL
 62
5
 10
3365.808
 20
-5411.268
 30
2327.000
 70
    32
  0
SEQEND
  8
2900LEVEL
  0
POLYLINE
  8
2900LEVEL
 62
7
 66
     1
 70
     8
  0
VERTEX
  8
2900LEVEL
 62
7
 10
3397.496
 20
-5078.821
 30
2327.000
 70
    32
  0
VERTEX
  8
2900LEVEL
 62
7
 10
3342.710
 20
-5006.801
 30
2327.000
 70
    32
  0
VERTEX
  8
2900LEVEL
 62
7
 10
3276.138
 20
-4940.712
 30
2327.000
 70
    32
  0
VERTEX
  8
2900LEVEL
 62
7
 10
3188.815
 20
-4843.581
 30
2327.000
 70
    32
  0
VERTEX
  8
2900LEVEL
 62
7
 10
3123.409
 20
-4762.303
 30
2327.000
 70
    32
  0
VERTEX
  8
2900LEVEL
 62
7
 10
3041.564
 20
-4662.478
 30
2327.000
 70
    32
  0
VERTEX
  8
2900LEVEL
 62
7
 10
3038.503
 20
-4658.133
 30
2327.000
 70
    32
  0
VERTEX
  8
2900LEVEL
 62
7
 10
3033.131
 20
-4651.925
 30
2327.000
 70
    32
  0
VERTEX
  8
2900LEVEL
 62
7
 10
3026.317
 20
-4645.100
 30
2327.000
 70
    32
  0
VERTEX
  8
2900LEVEL
 62
7
 10
3020.979
 20
-4638.998
 30
2327.000
 70
    32
  0
VERTEX
  8
2900LEVEL
 62
7
 10
3011.382
 20
-4625.111
 30
2327.000
 70
    32
  0
VERTEX
  8
2900LEVEL
 62
7
 10
3003.697
 20
-4617.110
 30
2327.000
 70
    32
  0
VERTEX
  8
2900LEVEL
 62
7
 10
2999.535
 20
-4616.499
 30
2327.000
 70
    32
  0
VERTEX
  8
2900LEVEL
 62
7
 10
2994.119
 20
-4617.322
 30
2327.000
 70
    32
  0
VERTEX
  8
2900LEVEL
 62
7
 10
2992.173
 20
-4617.618
 30
2327.000
 70
    32
  0
VERTEX
  8
2900LEVEL
 62
7
 10
2991.059
 20
-4616.122
 30
2327.000
 70
    32
  0
VERTEX
  8
2900LEVEL
 62
7
 10
2990.904
 20
-4614.176
 30
2327.000
 70
    32
  0
VERTEX
  8
2900LEVEL
 62
7
 10
2991.854
 20
-4608.216
 30
2327.000
 70
    32
  0
VERTEX
  8
2900LEVEL
 62
7
 10
2992.592
 20
-4605.397
 30
2327.000
 70
    32
  0
VERTEX
  8
2900LEVEL
 62
7
 10
2991.440
 20
-4597.787
 30
2327.000
 70
    32
  0
VERTEX
  8
2900LEVEL
 62
7
 10
2988.977
 20
-4590.552
 30
2327.000
 70
    32
  0
VERTEX
  8
2900LEVEL
 62
7
 10
2982.508
 20
-4584.437
 30
2327.000
 70
    32
  0
VERTEX
  8
2900LEVEL
 62
7
 10
2971.971
 20
-4575.592
 30
2327.000
 70
    32
  0
VERTEX
  8
2900LEVEL
 62
7
 10
2960.605
 20
-4568.187
 30
2327.000
 70
    32
  0
VERTEX
  8
2900LEVEL
 62
7
 10
2949.796
 20
-4561.565
 30
2327.000
 70
    32
  0
VERTEX
  8
2900LEVEL
 62
7
 10
2942.384
 20
-4554.486
 30
2327.000
 70
    32
  0
VERTEX
  8
2900LEVEL
 62
7
 10
2926.497
 20
-4537.454
 30
2327.000
 70
    32
  0
VERTEX
  8
2900LEVEL
 62
7
 10
2914.572
 20
-4520.043
 30
2327.000
 70
    32
  0
VERTEX
  8
2900LEVEL
 62
7
 10
2906.557
 20
-4506.774
 30
2327.000
 70
    32
  0
VERTEX
  8
2900LEVEL
 62
7
 10
2896.781
 20
-4489.916
 30
2327.000
 70
    32
  0
VERTEX
  8
2900LEVEL
 62
7
 10
2889.906
 20
-4479.098
 30
2327.000
 70
    32
  0
VERTEX
  8
2900LEVEL
 62
7
 10
2881.159
 20
-4464.938
 30
2327.000
 70
    32
  0
VERTEX
  8
2900LEVEL
 62
7
 10
2873.741
 20
-4452.135
 30
2327.000
 70
    32
  0
VERTEX
  8
2900LEVEL
 62
7
 10
2868.907
 20
-4438.830
 30
2327.000
 70
    32
  0
VERTEX
  8
2900LEVEL
 62
7
 10
2866.675
 20
-4429.831
 30
2327.000
 70
    32
  0
VERTEX
  8
2900LEVEL
 62
7
 10
2865.570
 20
-4418.052
 30
2327.000
 70
    32
  0
VERTEX
  8
2900LEVEL
 62
7
 10
2868.050
 20
-4411.084
 30
2327.000
 70
    32
  0
VERTEX
  8
2900LEVEL
 62
7
 10
2871.766
 20
-4407.380
 30
2327.000
 70
    32
  0
VERTEX
  8
2900LEVEL
 62
7
 10
2873.671
 20
-4404.539
 30
2327.000
 70
    32
  0
VERTEX
  8
2900LEVEL
 62
7
 10
2874.807
 20
-4400.841
 30
2327.000
 70
    32
  0
VERTEX
  8
2900LEVEL
 62
7
 10
2878.018
 20
-4398.050
 30
2327.000
 70
    32
  0
VERTEX
  8
2900LEVEL
 62
7
 10
2880.357
 20
-4397.511
 30
2327.000
 70
    32
  0
VERTEX
  8
2900LEVEL
 62
7
 10
2885.672
 20
-4399.302
 30
2327.000
 70
    32
  0
VERTEX
  8
2900LEVEL
 62
7
 10
2890.932
 20
-4402.894
 30
2327.000
 70
    32
  0
VERTEX
  8
2900LEVEL
 62
7
 10
2892.813
 20
-4405.318
 30
2327.000
 70
    32
  0
VERTEX
  8
2900LEVEL
 62
7
 10
2894.840
 20
-4407.319
 30
2327.000
 70
    32
  0
SEQEND
  8
2900LEVEL
  0
POLYLINE
  8
2900LEVEL
 62
13
 66
     1
 70
     8
  0
VERTEX
  8
2900LEVEL
 62
13
 10
3384.438
 20
-5072.198
 30
2327.000
 70
    32
  0
VERTEX
  8
2900LEVEL
 62
13
 10
3331.831
 20
-5025.984
 30
2327.000
 70
    32
  0
VERTEX
  8
2900LEVEL
 62
13
 10
3285.367
 20
-4974.450
 30
2327.000
 70
    32
  0
VERTEX
  8
2900LEVEL
 62
13
 10
3229.295
 20
-4912.055
 30
2327.000
 70
    32
  0
VERTEX
  8
2900LEVEL
 62
13
 10
3173.628
 20
-4855.018
 30
2327.000
 70
    32
  0
VERTEX
  8
2900LEVEL
 62
13
 10
3111.774
 20
-4784.642
 30
2327.000
 70
    32
  0
VERTEX
  8
2900LEVEL
 62
13
 10
3054.519
 20
-4704.413
 30
2327.000
 70
    32
  0
VERTEX
  8
2900LEVEL
 62
13
 10
3032.535
 20
-4667.324
 30
2327.000
 70
    32
  0
VERTEX
  8
2900LEVEL
 62
13
 10
3028.103
 20
-4662.434
 30
2327.000
 70
    32
  0
VERTEX
  8
2900LEVEL
 62
13
 10
3025.104
 20
-4658.796
 30
2327.000
 70
    32
  0
VERTEX
  8
2900LEVEL
 62
13
 10
3021.445
 20
-4654.268
 30
2327.000
 70
    32
  0
VERTEX
  8
2900LEVEL
 62
13
 10
3015.799
 20
-4647.209
 30
2327.000
 70
    32
  0
VERTEX
  8
2900LEVEL
 62
13
 10
3010.280
 20
-4641.564
 30
2327.000
 70
    32
  0
VERTEX
  8
2900LEVEL
 62
13
 10
3004.804
 20
-4638.253
 30
2327.000
 70
    32
  0
VERTEX
  8
2900LEVEL
 62
13
 10
3000.419
 20
-4638.557
 30
2327.000
 70
    32
  0
VERTEX
  8
2900LEVEL
 62
13
 10
2995.362
 20
-4642.175
 30
2327.000
 70
    32
  0
VERTEX
  8
2900LEVEL
 62
13
 10
2995.029
 20
-4646.695
 30
2327.000
 70
    32
  0
VERTEX
  8
2900LEVEL
 62
13
 10
2996.525
 20
-4651.941
 30
2327.000
 70
    32
  0
VERTEX
  8
2900LEVEL
 62
13
 10
2996.807
 20
-4655.159
 30
2327.000
 70
    32
  0
VERTEX
  8
2900LEVEL
 62
13
 10
2995.816
 20
-4655.290
 30
2327.000
 70
    32
  0
VERTEX
  8
2900LEVEL
 62
13
 10
2994.412
 20
-4654.426
 30
2327.000
 70
    32
  0
VERTEX
  8
2900LEVEL
 62
13
 10
2993.844
 20
-4654.702
 30
2327.000
 70
    32
  0
VERTEX
  8
2900LEVEL
 62
13
 10
2994.209
 20
-4656.862
 30
2327.000
 70
    32
  0
VERTEX
  8
2900LEVEL
 62
13
 10
2995.324
 20
-4661.432
 30
2327.000
 70
    32
  0
VERTEX
  8
2900LEVEL
 62
13
 10
2995.091
 20
-4663.267
 30
2327.000
 70
    32
  0
VERTEX
  8
2900LEVEL
 62
13
 10
2993.739
 20
-4664.100
 30
2327.000
 70
    32
  0
VERTEX
  8
2900LEVEL
 62
13
 10
2992.012
 20
-4663.692
 30
2327.000
 70
    32
  0
VERTEX
  8
2900LEVEL
 62
13
 10
2988.944
 20
-4659.983
 30
2327.000
 70
    32
  0
VERTEX
  8
2900LEVEL
 62
13
 10
2984.831
 20
-4651.775
 30
2327.000
 70
    32
  0
VERTEX
  8
2900LEVEL
 62
13
 10
2983.048
 20
-4640.589
 30
2327.000
 70
    32
  0
VERTEX
  8
2900LEVEL
 62
13
 10
2982.658
 20
-4634.331
 30
2327.000
 70
    32
  0
VERTEX
  8
2900LEVEL
 62
13
 10
2982.660
 20
-4624.685
 30
2327.000
 70
    32
  0
VERTEX
  8
2900LEVEL
 62
13
 10
2982.150
 20
-4619.662
 30
2327.000
 70
    32
  0
VERTEX
  8
2900LEVEL
 62
13
 10
2982.921
 20
-4613.946
 30
2327.000
 70
    32
  0
VERTEX
  8
2900LEVEL
 62
13
 10
2984.064
 20
-4609.613
 30
2327.000
 70
    32
  0
VERTEX
  8
2900LEVEL
 62
13
 10
2984.520
 20
-4603.646
 30
2327.000
 70
    32
  0
VERTEX
  8
2900LEVEL
 62
13
 10
2984.248
 20
-4596.364
 30
2327.000
 70
    32
  0
VERTEX
  8
2900LEVEL
 62
13
 10
2981.046
 20
-4588.803
 30
2327.000
 70
    32
  0
VERTEX
  8
2900LEVEL
 62
13
 10
2975.625
 20
-4583.760
 30
2327.000
 70
    32
  0
VERTEX
  8
2900LEVEL
 62
13
 10
2968.358
 20
-4579.545
 30
2327.000
 70
    32
  0
VERTEX
  8
2900LEVEL
 62
13
 10
2955.152
 20
-4575.617
 30
2327.000
 70
    32
  0
VERTEX
  8
2900LEVEL
 62
13
 10
2943.885
 20
-4571.958
 30
2327.000
 70
    32
  0
VERTEX
  8
2900LEVEL
 62
13
 10
2929.949
 20
-4563.781
 30
2327.000
 70
    32
  0
VERTEX
  8
2900LEVEL
 62
13
 10
2921.702
 20
-4555.492
 30
2327.000
 70
    32
  0
VERTEX
  8
2900LEVEL
 62
13
 10
2909.176
 20
-4541.254
 30
2327.000
 70
    32
  0
VERTEX
  8
2900LEVEL
 62
13
 10
2898.287
 20
-4529.190
 30
2327.000
 70
    32
  0
VERTEX
  8
2900LEVEL
 62
13
 10
2887.764
 20
-4515.928
 30
2327.000
 70
    32
  0
VERTEX
  8
2900LEVEL
 62
13
 10
2880.811
 20
-4508.890
 30
2327.000
 70
    32
  0
VERTEX
  8
2900LEVEL
 62
13
 10
2866.229
 20
-4495.194
 30
2327.000
 70
    32
  0
VERTEX
  8
2900LEVEL
 62
13
 10
2859.084
 20
-4486.316
 30
2327.000
 70
    32
  0
VERTEX
  8
2900LEVEL
 62
13
 10
2851.579
 20
-4478.141
 30
2327.000
 70
    32
  0
VERTEX
  8
2900LEVEL
 62
13
 10
2847.820
 20
-4479.371
 30
2327.000
 70
    32
  0
VERTEX
  8
2900LEVEL
 62
13
 10
2846.561
 20
-4484.516
 30
2327.000
 70
    32
  0
VERTEX
  8
2900LEVEL
 62
13
 10
2845.312
 20
-4488.742
 30
2327.000
 70
    32
  0
VERTEX
  8
2900LEVEL
 62
13
 10
2843.985
 20
-4490.529
 30
2327.000
 70
    32
  0
VERTEX
  8
2900LEVEL
 62
13
 10
2837.534
 20
-4482.860
 30
2327.000
 70
    32
  0
VERTEX
  8
2900LEVEL
 62
13
 10
2832.840
 20
-4475.988
 30
2327.000
 70
    32
  0
VERTEX
  8
2900LEVEL
 62
13
 10
2829.829
 20
-4473.552
 30
2327.000
 70
    32
  0
VERTEX
  8
2900LEVEL
 62
13
 10
2828.382
 20
-4476.575
 30
2327.000
 70
    32
  0
VERTEX
  8
2900LEVEL
 62
13
 10
2832.202
 20
-4488.843
 30
2327.000
 70
    32
  0
VERTEX
  8
2900LEVEL
 62
13
 10
2837.524
 20
-4502.718
 30
2327.000
 70
    32
  0
VERTEX
  8
2900LEVEL
 62
13
 10
2836.641
 20
-4505.888
 30
2327.000
 70
    32
  0
VERTEX
  8
2900LEVEL
 62
13
 10
2830.282
 20
-4499.457
 30
2327.000
 70
    32
  0
VERTEX
  8
2900LEVEL
 62
13
 10
2824.896
 20
-4491.306
 30
2327.000
 70
    32
  0
VERTEX
  8
2900LEVEL
 62
13
 10
2818.501
 20
-4478.549
 30
2327.000
 70
    32
  0
VERTEX
  8
2900LEVEL
 62
13
 10
2812.103
 20
-4466.146
 30
2327.000
 70
    32
  0
VERTEX
  8
2900LEVEL
 62
13
 10
2802.724
 20
-4451.696
 30
2327.000
 70
    32
  0
VERTEX
  8
2900LEVEL
 62
13
 10
2792.715
 20
-4433.529
 30
2327.000
 70
    32
  0
VERTEX
  8
2900LEVEL
 62
13
 10
2784.982
 20
-4420.404
 30
2327.000
 70
    32
  0
VERTEX
  8
2900LEVEL
 62
13
 10
2776.472
 20
-4400.840
 30
2327.000
 70
    32
  0
VERTEX
  8
2900LEVEL
 62
13
 10
2771.735
 20
-4388.350
 30
2327.000
 70
    32
  0
VERTEX
  8
2900LEVEL
 62
13
 10
2763.125
 20
-4368.325
 30
2327.000
 70
    32
  0
VERTEX
  8
2900LEVEL
 62
13
 10
2754.902
 20
-4348.411
 30
2327.000
 70
    32
  0
VERTEX
  8
2900LEVEL
 62
13
 10
2751.022
 20
-4338.368
 30
2327.000
 70
    32
  0
VERTEX
  8
2900LEVEL
 62
13
 10
2743.638
 20
-4322.385
 30
2327.000
 70
    32
  0
VERTEX
  8
2900LEVEL
 62
13
 10
2743.055
 20
-4311.284
 30
2327.000
 70
    32
  0
VERTEX
  8
2900LEVEL
 62
13
 10
2745.515
 20
-4303.008
 30
2327.000
 70
    32
  0
VERTEX
  8
2900LEVEL
 62
13
 10
2746.750
 20
-4293.623
 30
2327.000
 70
    32
  0
VERTEX
  8
2900LEVEL
 62
13
 10
2747.200
 20
-4285.006
 30
2327.000
 70
    32
  0
VERTEX
  8
2900LEVEL
 62
13
 10
2750.490
 20
-4281.439
 30
2327.000
 70
    32
  0
VERTEX
  8
2900LEVEL
 62
13
 10
2755.396
 20
-4285.098
 30
2327.000
 70
    32
  0
VERTEX
  8
2900LEVEL
 62
13
 10
2760.214
 20
-4290.381
 30
2327.000
 70
    32
  0
VERTEX
  8
2900LEVEL
 62
13
 10
2768.961
 20
-4301.255
 30
2327.000
 70
    32
  0
VERTEX
  8
2900LEVEL
 62
13
 10
2775.727
 20
-4315.606
 30
2327.000
 70
    32
  0
VERTEX
  8
2900LEVEL
 62
13
 10
2780.535
 20
-4328.026
 30
2327.000
 70
    32
  0
VERTEX
  8
2900LEVEL
 62
13
 10
2790.377
 20
-4348.524
 30
2327.000
 70
    32
  0
VERTEX
  8
2900LEVEL
 62
13
 10
2795.941
 20
-4356.501
 30
2327.000
 70
    32
  0
VERTEX
  8
2900LEVEL
 62
13
 10
2799.398
 20
-4357.034
 30
2327.000
 70
    32
  0
VERTEX
  8
2900LEVEL
 62
13
 10
2798.622
 20
-4353.739
 30
2327.000
 70
    32
  0
VERTEX
  8
2900LEVEL
 62
13
 10
2795.860
 20
-4341.553
 30
2327.000
 70
    32
  0
VERTEX
  8
2900LEVEL
 62
13
 10
2792.726
 20
-4331.130
 30
2327.000
 70
    32
  0
VERTEX
  8
2900LEVEL
 62
13
 10
2787.765
 20
-4316.553
 30
2327.000
 70
    32
  0
VERTEX
  8
2900LEVEL
 62
13
 10
2784.994
 20
-4302.070
 30
2327.000
 70
    32
  0
VERTEX
  8
2900LEVEL
 62
13
 10
2784.170
 20
-4293.581
 30
2327.000
 70
    32
  0
VERTEX
  8
2900LEVEL
 62
13
 10
2788.019
 20
-4290.585
 30
2327.000
 70
    32
  0
VERTEX
  8
2900LEVEL
 62
13
 10
2795.681
 20
-4297.419
 30
2327.000
 70
    32
  0
VERTEX
  8
2900LEVEL
 62
13
 10
2804.582
 20
-4310.380
 30
2327.000
 70
    32
  0
VERTEX
  8
2900LEVEL
 62
13
 10
2812.284
 20
-4323.186
 30
2327.000
 70
    32
  0
VERTEX
  8
2900LEVEL
 62
13
 10
2823.692
 20
-4342.571
 30
2327.000
 70
    32
  0
VERTEX
  8
2900LEVEL
 62
13
 10
2834.476
 20
-4361.029
 30
2327.000
 70
    32
  0
VERTEX
  8
2900LEVEL
 62
13
 10
2841.028
 20
-4369.158
 30
2327.000
 70
    32
  0
VERTEX
  8
2900LEVEL
 62
13
 10
2844.528
 20
-4372.095
 30
2327.000
 70
    32
  0
VERTEX
  8
2900LEVEL
 62
13
 10
2847.071
 20
-4372.265
 30
2327.000
 70
    32
  0
VERTEX
  8
2900LEVEL
 62
13
 10
2851.289
 20
-4371.004
 30
2327.000
 70
    32
  0
VERTEX
  8
2900LEVEL
 62
13
 10
2853.165
 20
-4370.707
 30
2327.000
 70
    32
  0
VERTEX
  8
2900LEVEL
 62
13
 10
2864.107
 20
-4374.963
 30
2327.000
 70
    32
  0
VERTEX
  8
2900LEVEL
 62
13
 10
2872.920
 20
-4376.828
 30
2327.000
 70
    32
  0
VERTEX
  8
2900LEVEL
 62
13
 10
2884.997
 20
-4380.602
 30
2327.000
 70
    32
  0
VERTEX
  8
2900LEVEL
 62
13
 10
2891.532
 20
-4383.926
 30
2327.000
 70
    32
  0
VERTEX
  8
2900LEVEL
 62
13
 10
2893.374
 20
-4389.883
 30
2327.000
 70
    32
  0
VERTEX
  8
2900LEVEL
 62
13
 10
2892.821
 20
-4395.106
 30
2327.000
 70
    32
  0
VERTEX
  8
2900LEVEL
 62
13
 10
2892.895
 20
-4401.114
 30
2327.000
 70
    32
  0
VERTEX
  8
2900LEVEL
 62
13
 10
2894.738
 20
-4406.929
 30
2327.000
 70
    32
  0
VERTEX
  8
2900LEVEL
 62
13
 10
2894.840
 20
-4407.319
 30
2327.000
 70
    32
  0
SEQEND
  8
2900LEVEL
  0
POLYLINE
  8
2900LEVEL
 62
13
 66
     1
 70
     9
  0
VERTEX
  8
2900LEVEL
 62
13
 10
2446.904
 20
-3976.794
 30
2327.000
 70
    32
  0
VERTEX
  8
2900LEVEL
 62
13
 10
2450.278
 20
-3981.602
 30
2327.000
 70
    32
  0
VERTEX
  8
2900LEVEL
 62
13
 10
2455.623
 20
-3990.212
 30
2327.000
 70
    32
  0
VERTEX
  8
2900LEVEL
 62
13
 10
2460.888
 20
-3999.741
 30
2327.000
 70
    32
  0
VERTEX
  8
2900LEVEL
 62
13
 10
2464.129
 20
-4006.914
 30
2327.000
 70
    32
  0
VERTEX
  8
2900LEVEL
 62
13
 10
2466.404
 20
-4015.243
 30
2327.000
 70
    32
  0
VERTEX
  8
2900LEVEL
 62
13
 10
2466.673
 20
-4019.592
 30
2327.000
 70
    32
  0
VERTEX
  8
2900LEVEL
 62
13
 10
2464.937
 20
-4020.032
 30
2327.000
 70
    32
  0
VERTEX
  8
2900LEVEL
 62
13
 10
2461.883
 20
-4015.051
 30
2327.000
 70
    32
  0
VERTEX
  8
2900LEVEL
 62
13
 10
2453.974
 20
-3998.745
 30
2327.000
 70
    32
  0
VERTEX
  8
2900LEVEL
 62
13
 10
2445.111
 20
-3985.466
 30
2327.000
 70
    32
  0
VERTEX
  8
2900LEVEL
 62
13
 10
2442.409
 20
-3980.631
 30
2327.000
 70
    32
  0
VERTEX
  8
2900LEVEL
 62
13
 10
2441.364
 20
-3979.347
 30
2327.000
 70
    32
  0
VERTEX
  8
2900LEVEL
 62
13
 10
2440.359
 20
-3980.678
 30
2327.000
 70
    32
  0
VERTEX
  8
2900LEVEL
 62
13
 10
2437.929
 20
-3979.980
 30
2327.000
 70
    32
  0
VERTEX
  8
2900LEVEL
 62
13
 10
2433.606
 20
-3977.918
 30
2327.000
 70
    32
  0
VERTEX
  8
2900LEVEL
 62
13
 10
2431.549
 20
-3978.602
 30
2327.000
 70
    32
  0
VERTEX
  8
2900LEVEL
 62
13
 10
2427.478
 20
-3976.083
 30
2327.000
 70
    32
  0
VERTEX
  8
2900LEVEL
 62
13
 10
2424.780
 20
-3974.039
 30
2327.000
 70
    32
  0
VERTEX
  8
2900LEVEL
 62
13
 10
2421.635
 20
-3967.749
 30
2327.000
 70
    32
  0
VERTEX
  8
2900LEVEL
 62
13
 10
2420.280
 20
-3962.505
 30
2327.000
 70
    32
  0
VERTEX
  8
2900LEVEL
 62
13
 10
2418.135
 20
-3958.382
 30
2327.000
 70
    32
  0
VERTEX
  8
2900LEVEL
 62
13
 10
2411.614
 20
-3953.857
 30
2327.000
 70
    32
  0
VERTEX
  8
2900LEVEL
 62
13
 10
2407.194
 20
-3950.911
 30
2327.000
 70
    32
  0
VERTEX
  8
2900LEVEL
 62
13
 10
2402.373
 20
-3949.196
 30
2327.000
 70
    32
  0
VERTEX
  8
2900LEVEL
 62
13
 10
2398.765
 20
-3949.509
 30
2327.000
 70
    32
  0
VERTEX
  8
2900LEVEL
 62
13
 10
2393.753
 20
-3949.029
 30
2327.000
 70
    32
  0
VERTEX
  8
2900LEVEL
 62
13
 10
2389.231
 20
-3945.763
 30
2327.000
 70
    32
  0
VERTEX
  8
2900LEVEL
 62
13
 10
2386.281
 20
-3944.176
 30
2327.000
 70
    32
  0
VERTEX
  8
2900LEVEL
 62
13
 10
2382.522
 20
-3942.191
 30
2327.000
 70
    32
  0
VERTEX
  8
2900LEVEL
 62
13
 10
2380.659
 20
-3938.212
 30
2327.000
 70
    32
  0
VERTEX
  8
2900LEVEL
 62
13
 10
2378.974
 20
-3934.059
 30
2327.000
 70
    32
  0
VERTEX
  8
2900LEVEL
 62
13
 10
2377.547
 20
-3932.100
 30
2327.000
 70
    32
  0
VERTEX
  8
2900LEVEL
 62
13
 10
2376.930
 20
-3936.757
 30
2327.000
 70
    32
  0
VERTEX
  8
2900LEVEL
 62
13
 10
2377.307
 20
-3940.931
 30
2327.000
 70
    32
  0
VERTEX
  8
2900LEVEL
 62
13
 10
2378.627
 20
-3949.285
 30
2327.000
 70
    32
  0
VERTEX
  8
2900LEVEL
 62
13
 10
2378.125
 20
-3953.130
 30
2327.000
 70
    32
  0
VERTEX
  8
2900LEVEL
 62
13
 10
2373.780
 20
-3956.191
 30
2327.000
 70
    32
  0
VERTEX
  8
2900LEVEL
 62
13
 10
2369.771
 20
-3954.521
 30
2327.000
 70
    32
  0
VERTEX
  8
2900LEVEL
 62
13
 10
2361.244
 20
-3946.017
 30
2327.000
 70
    32
  0
VERTEX
  8
2900LEVEL
 62
13
 10
2354.307
 20
-3937.565
 30
2327.000
 70
    32
  0
VERTEX
  8
2900LEVEL
 62
13
 10
2346.705
 20
-3922.145
 30
2327.000
 70
    32
  0
VERTEX
  8
2900LEVEL
 62
13
 10
2345.026
 20
-3907.922
 30
2327.000
 70
    32
  0
VERTEX
  8
2900LEVEL
 62
13
 10
2344.880
 20
-3898.910
 30
2327.000
 70
    32
  0
VERTEX
  8
2900LEVEL
 62
13
 10
2342.199
 20
-3892.096
 30
2327.000
 70
    32
  0
VERTEX
  8
2900LEVEL
 62
13
 10
2339.863
 20
-3889.350
 30
2327.000
 70
    32
  0
VERTEX
  8
2900LEVEL
 62
13
 10
2338.190
 20
-3890.426
 30
2327.000
 70
    32
  0
VERTEX
  8
2900LEVEL
 62
13
 10
2337.973
 20
-3894.063
 30
2327.000
 70
    32
  0
VERTEX
  8
2900LEVEL
 62
13
 10
2338.615
 20
-3899.865
 30
2327.000
 70
    32
  0
VERTEX
  8
2900LEVEL
 62
13
 10
2339.352
 20
-3909.838
 30
2327.000
 70
    32
  0
VERTEX
  8
2900LEVEL
 62
13
 10
2339.698
 20
-3919.982
 30
2327.000
 70
    32
  0
VERTEX
  8
2900LEVEL
 62
13
 10
2340.276
 20
-3928.292
 30
2327.000
 70
    32
  0
VERTEX
  8
2900LEVEL
 62
13
 10
2342.139
 20
-3938.702
 30
2327.000
 70
    32
  0
VERTEX
  8
2900LEVEL
 62
13
 10
2342.710
 20
-3944.573
 30
2327.000
 70
    32
  0
VERTEX
  8
2900LEVEL
 62
13
 10
2341.840
 20
-3946.542
 30
2327.000
 70
    32
  0
VERTEX
  8
2900LEVEL
 62
13
 10
2340.122
 20
-3945.287
 30
2327.000
 70
    32
  0
VERTEX
  8
2900LEVEL
 62
13
 10
2334.065
 20
-3937.163
 30
2327.000
 70
    32
  0
VERTEX
  8
2900LEVEL
 62
13
 10
2329.709
 20
-3931.708
 30
2327.000
 70
    32
  0
VERTEX
  8
2900LEVEL
 62
13
 10
2325.509
 20
-3918.623
 30
2327.000
 70
    32
  0
VERTEX
  8
2900LEVEL
 62
13
 10
2324.902
 20
-3906.497
 30
2327.000
 70
    32
  0
VERTEX
  8
2900LEVEL
 62
13
 10
2324.470
 20
-3894.478
 30
2327.000
 70
    32
  0
VERTEX
  8
2900LEVEL
 62
13
 10
2322.834
 20
-3885.944
 30
2327.000
 70
    32
  0
VERTEX
  8
2900LEVEL
 62
13
 10
2321.069
 20
-3876.349
 30
2327.000
 70
    32
  0
VERTEX
  8
2900LEVEL
 62
13
 10
2321.666
 20
-3873.458
 30
2327.000
 70
    32
  0
VERTEX
  8
2900LEVEL
 62
13
 10
2323.956
 20
-3870.940
 30
2327.000
 70
    32
  0
VERTEX
  8
2900LEVEL
 62
13
 10
2329.615
 20
-3870.438
 30
2327.000
 70
    32
  0
VERTEX
  8
2900LEVEL
 62
13
 10
2333.320
 20
-3870.868
 30
2327.000
 70
    32
  0
VERTEX
  8
2900LEVEL
 62
13
 10
2339.691
 20
-3873.023
 30
2327.000
 70
    32
  0
VERTEX
  8
2900LEVEL
 62
13
 10
2344.376
 20
-3874.312
 30
2327.000
 70
    32
  0
VERTEX
  8
2900LEVEL
 62
13
 10
2345.882
 20
-3872.350
 30
2327.000
 70
    32
  0
VERTEX
  8
2900LEVEL
 62
13
 10
2340.398
 20
-3866.671
 30
2327.000
 70
    32
  0
VERTEX
  8
2900LEVEL
 62
13
 10
2333.685
 20
-3863.451
 30
2327.000
 70
    32
  0
VERTEX
  8
2900LEVEL
 62
13
 10
2327.053
 20
-3859.314
 30
2327.000
 70
    32
  0
VERTEX
  8
2900LEVEL
 62
13
 10
2321.192
 20
-3855.751
 30
2327.000
 70
    32
  0
VERTEX
  8
2900LEVEL
 62
13
 10
2318.787
 20
-3852.791
 30
2327.000
 70
    32
  0
VERTEX
  8
2900LEVEL
 62
13
 10
2312.350
 20
-3847.066
 30
2327.000
 70
    32
  0
VERTEX
  8
2900LEVEL
 62
13
 10
2309.002
 20
-3843.071
 30
2327.000
 70
    32
  0
VERTEX
  8
2900LEVEL
 62
13
 10
2309.322
 20
-3839.753
 30
2327.000
 70
    32
  0
VERTEX
  8
2900LEVEL
 62
13
 10
2313.500
 20
-3838.952
 30
2327.000
 70
    32
  0
VERTEX
  8
2900LEVEL
 62
13
 10
2322.922
 20
-3843.226
 30
2327.000
 70
    32
  0
VERTEX
  8
2900LEVEL
 62
13
 10
2328.330
 20
-3846.255
 30
2327.000
 70
    32
  0
VERTEX
  8
2900LEVEL
 62
13
 10
2334.906
 20
-3849.049
 30
2327.000
 70
    32
  0
VERTEX
  8
2900LEVEL
 62
13
 10
2338.095
 20
-3851.452
 30
2327.000
 70
    32
  0
VERTEX
  8
2900LEVEL
 62
13
 10
2341.985
 20
-3857.431
 30
2327.000
 70
    32
  0
VERTEX
  8
2900LEVEL
 62
13
 10
2346.103
 20
-3862.071
 30
2327.000
 70
    32
  0
VERTEX
  8
2900LEVEL
 62
13
 10
2353.725
 20
-3869.293
 30
2327.000
 70
    32
  0
VERTEX
  8
2900LEVEL
 62
13
 10
2357.845
 20
-3873.720
 30
2327.000
 70
    32
  0
VERTEX
  8
2900LEVEL
 62
13
 10
2358.965
 20
-3877.867
 30
2327.000
 70
    32
  0
VERTEX
  8
2900LEVEL
 62
13
 10
2354.945
 20
-3880.331
 30
2327.000
 70
    32
  0
VERTEX
  8
2900LEVEL
 62
13
 10
2352.422
 20
-3881.610
 30
2327.000
 70
    32
  0
VERTEX
  8
2900LEVEL
 62
13
 10
2349.626
 20
-3885.183
 30
2327.000
 70
    32
  0
VERTEX
  8
2900LEVEL
 62
13
 10
2351.366
 20
-3887.605
 30
2327.000
 70
    32
  0
VERTEX
  8
2900LEVEL
 62
13
 10
2358.497
 20
-3891.324
 30
2327.000
 70
    32
  0
VERTEX
  8
2900LEVEL
 62
13
 10
2364.969
 20
-3897.156
 30
2327.000
 70
    32
  0
VERTEX
  8
2900LEVEL
 62
13
 10
2366.817
 20
-3899.402
 30
2327.000
 70
    32
  0
VERTEX
  8
2900LEVEL
 62
13
 10
2368.247
 20
-3901.079
 30
2327.000
 70
    32
  0
VERTEX
  8
2900LEVEL
 62
13
 10
2369.426
 20
-3899.856
 30
2327.000
 70
    32
  0
VERTEX
  8
2900LEVEL
 62
13
 10
2370.287
 20
-3898.734
 30
2327.000
 70
    32
  0
VERTEX
  8
2900LEVEL
 62
13
 10
2372.755
 20
-3899.186
 30
2327.000
 70
    32
  0
VERTEX
  8
2900LEVEL
 62
13
 10
2375.849
 20
-3900.563
 30
2327.000
 70
    32
  0
VERTEX
  8
2900LEVEL
 62
13
 10
2379.347
 20
-3900.567
 30
2327.000
 70
    32
  0
VERTEX
  8
2900LEVEL
 62
13
 10
2381.153
 20
-3900.269
 30
2327.000
 70
    32
  0
VERTEX
  8
2900LEVEL
 62
13
 10
2382.987
 20
-3900.501
 30
2327.000
 70
    32
  0
VERTEX
  8
2900LEVEL
 62
13
 10
2385.383
 20
-3901.093
 30
2327.000
 70
    32
  0
VERTEX
  8
2900LEVEL
 62
13
 10
2387.527
 20
-3898.997
 30
2327.000
 70
    32
  0
VERTEX
  8
2900LEVEL
 62
13
 10
2390.716
 20
-3901.400
 30
2327.000
 70
    32
  0
VERTEX
  8
2900LEVEL
 62
13
 10
2395.449
 20
-3907.884
 30
2327.000
 70
    32
  0
VERTEX
  8
2900LEVEL
 62
13
 10
2400.768
 20
-3912.466
 30
2327.000
 70
    32
  0
VERTEX
  8
2900LEVEL
 62
13
 10
2404.840
 20
-3914.914
 30
2327.000
 70
    32
  0
VERTEX
  8
2900LEVEL
 62
13
 10
2408.202
 20
-3917.566
 30
2327.000
 70
    32
  0
VERTEX
  8
2900LEVEL
 62
13
 10
2411.151
 20
-3922.440
 30
2327.000
 70
    32
  0
VERTEX
  8
2900LEVEL
 62
13
 10
2413.785
 20
-3927.063
 30
2327.000
 70
    32
  0
VERTEX
  8
2900LEVEL
 62
13
 10
2417.499
 20
-3929.860
 30
2327.000
 70
    32
  0
VERTEX
  8
2900LEVEL
 62
13
 10
2423.190
 20
-3932.892
 30
2327.000
 70
    32
  0
VERTEX
  8
2900LEVEL
 62
13
 10
2426.164
 20
-3935.504
 30
2327.000
 70
    32
  0
VERTEX
  8
2900LEVEL
 62
13
 10
2428.215
 20
-3941.675
 30
2327.000
 70
    32
  0
VERTEX
  8
2900LEVEL
 62
13
 10
2428.968
 20
-3947.090
 30
2327.000
 70
    32
  0
VERTEX
  8
2900LEVEL
 62
13
 10
2429.197
 20
-3951.827
 30
2327.000
 70
    32
  0
VERTEX
  8
2900LEVEL
 62
13
 10
2429.516
 20
-3954.940
 30
2327.000
 70
    32
  0
VERTEX
  8
2900LEVEL
 62
13
 10
2429.984
 20
-3960.493
 30
2327.000
 70
    32
  0
VERTEX
  8
2900LEVEL
 62
13
 10
2431.022
 20
-3962.483
 30
2327.000
 70
    32
  0
VERTEX
  8
2900LEVEL
 62
13
 10
2433.510
 20
-3964.384
 30
2327.000
 70
    32
  0
VERTEX
  8
2900LEVEL
 62
13
 10
2436.289
 20
-3965.439
 30
2327.000
 70
    32
  0
VERTEX
  8
2900LEVEL
 62
13
 10
2439.737
 20
-3966.750
 30
2327.000
 70
    32
  0
VERTEX
  8
2900LEVEL
 62
13
 10
2440.896
 20
-3967.434
 30
2327.000
 70
    32
  0
VERTEX
  8
2900LEVEL
 62
13
 10
2442.293
 20
-3968.863
 30
2327.000
 70
    32
  0
VERTEX
  8
2900LEVEL
 62
13
 10
2443.545
 20
-3970.714
 30
2327.000
 70
    32
  0
VERTEX
  8
2900LEVEL
 62
13
 10
2443.918
 20
-3972.097
 30
2327.000
 70
    32
  0
SEQEND
  8
2900LEVEL
  0
POLYLINE
  8
2900LEVEL
 62
13
 66
     1
 70
     8
  0
VERTEX
  8
2900LEVEL
 62
13
 10
3048.850
 20
-3959.290
 30
2327.000
 70
    32
  0
VERTEX
  8
2900LEVEL
 62
13
 10
3045.667
 20
-3958.667
 30
2327.000
 70
    32
  0
VERTEX
  8
2900LEVEL
 62
13
 10
3044.718
 20
-3961.412
 30
2327.000
 70
    32
  0
VERTEX
  8
2900LEVEL
 62
13
 10
3044.326
 20
-3968.086
 30
2327.000
 70
    32
  0
VERTEX
  8
2900LEVEL
 62
13
 10
3044.510
 20
-3980.066
 30
2327.000
 70
    32
  0
VERTEX
  8
2900LEVEL
 62
13
 10
3046.142
 20
-3998.529
 30
2327.000
 70
    32
  0
VERTEX
  8
2900LEVEL
 62
13
 10
3047.115
 20
-4012.673
 30
2327.000
 70
    32
  0
VERTEX
  8
2900LEVEL
 62
13
 10
3046.895
 20
-4016.522
 30
2327.000
 70
    32
  0
VERTEX
  8
2900LEVEL
 62
13
 10
3045.870
 20
-4019.691
 30
2327.000
 70
    32
  0
VERTEX
  8
2900LEVEL
 62
13
 10
3045.163
 20
-4019.754
 30
2327.000
 70
    32
  0
VERTEX
  8
2900LEVEL
 62
13
 10
3044.510
 20
-4021.301
 30
2327.000
 70
    32
  0
VERTEX
  8
2900LEVEL
 62
13
 10
3043.728
 20
-4021.716
 30
2327.000
 70
    32
  0
VERTEX
  8
2900LEVEL
 62
13
 10
3042.977
 20
-4022.521
 30
2327.000
 70
    32
  0
VERTEX
  8
2900LEVEL
 62
13
 10
3043.106
 20
-4023.582
 30
2327.000
 70
    32
  0
VERTEX
  8
2900LEVEL
 62
13
 10
3043.047
 20
-4025.737
 30
2327.000
 70
    32
  0
VERTEX
  8
2900LEVEL
 62
13
 10
3041.448
 20
-4026.532
 30
2327.000
 70
    32
  0
VERTEX
  8
2900LEVEL
 62
13
 10
3040.016
 20
-4025.067
 30
2327.000
 70
    32
  0
VERTEX
  8
2900LEVEL
 62
13
 10
3038.215
 20
-4021.726
 30
2327.000
 70
    32
  0
VERTEX
  8
2900LEVEL
 62
13
 10
3036.194
 20
-4019.230
 30
2327.000
 70
    32
  0
VERTEX
  8
2900LEVEL
 62
13
 10
3033.298
 20
-4019.056
 30
2327.000
 70
    32
  0
VERTEX
  8
2900LEVEL
 62
13
 10
3032.353
 20
-4021.448
 30
2327.000
 70
    32
  0
VERTEX
  8
2900LEVEL
 62
13
 10
3031.720
 20
-4030.663
 30
2327.000
 70
    32
  0
VERTEX
  8
2900LEVEL
 62
13
 10
3032.259
 20
-4039.362
 30
2327.000
 70
    32
  0
VERTEX
  8
2900LEVEL
 62
13
 10
3032.905
 20
-4051.170
 30
2327.000
 70
    32
  0
VERTEX
  8
2900LEVEL
 62
13
 10
3033.816
 20
-4058.177
 30
2327.000
 70
    32
  0
VERTEX
  8
2900LEVEL
 62
13
 10
3034.755
 20
-4065.855
 30
2327.000
 70
    32
  0
VERTEX
  8
2900LEVEL
 62
13
 10
3034.414
 20
-4074.296
 30
2327.000
 70
    32
  0
VERTEX
  8
2900LEVEL
 62
13
 10
3035.324
 20
-4081.373
 30
2327.000
 70
    32
  0
VERTEX
  8
2900LEVEL
 62
13
 10
3037.172
 20
-4089.980
 30
2327.000
 70
    32
  0
VERTEX
  8
2900LEVEL
 62
13
 10
3039.931
 20
-4096.017
 30
2327.000
 70
    32
  0
VERTEX
  8
2900LEVEL
 62
13
 10
3045.019
 20
-4105.508
 30
2327.000
 70
    32
  0
VERTEX
  8
2900LEVEL
 62
13
 10
3048.346
 20
-4111.411
 30
2327.000
 70
    32
  0
VERTEX
  8
2900LEVEL
 62
13
 10
3053.403
 20
-4120.513
 30
2327.000
 70
    32
  0
VERTEX
  8
2900LEVEL
 62
13
 10
3055.271
 20
-4124.138
 30
2327.000
 70
    32
  0
VERTEX
  8
2900LEVEL
 62
13
 10
3055.609
 20
-4125.484
 30
2327.000
 70
    32
  0
VERTEX
  8
2900LEVEL
 62
13
 10
3055.247
 20
-4126.257
 30
2327.000
 70
    32
  0
VERTEX
  8
2900LEVEL
 62
13
 10
3053.002
 20
-4124.819
 30
2327.000
 70
    32
  0
VERTEX
  8
2900LEVEL
 62
13
 10
3051.047
 20
-4122.606
 30
2327.000
 70
    32
  0
VERTEX
  8
2900LEVEL
 62
13
 10
3046.003
 20
-4115.519
 30
2327.000
 70
    32
  0
VERTEX
  8
2900LEVEL
 62
13
 10
3043.796
 20
-4110.618
 30
2327.000
 70
    32
  0
VERTEX
  8
2900LEVEL
 62
13
 10
3040.184
 20
-4101.850
 30
2327.000
 70
    32
  0
VERTEX
  8
2900LEVEL
 62
13
 10
3035.327
 20
-4093.810
 30
2327.000
 70
    32
  0
VERTEX
  8
2900LEVEL
 62
13
 10
3031.539
 20
-4088.079
 30
2327.000
 70
    32
  0
VERTEX
  8
2900LEVEL
 62
13
 10
3029.551
 20
-4082.616
 30
2327.000
 70
    32
  0
VERTEX
  8
2900LEVEL
 62
13
 10
3028.779
 20
-4075.752
 30
2327.000
 70
    32
  0
VERTEX
  8
2900LEVEL
 62
13
 10
3028.547
 20
-4071.227
 30
2327.000
 70
    32
  0
VERTEX
  8
2900LEVEL
 62
13
 10
3028.541
 20
-4065.432
 30
2327.000
 70
    32
  0
VERTEX
  8
2900LEVEL
 62
13
 10
3028.078
 20
-4062.600
 30
2327.000
 70
    32
  0
VERTEX
  8
2900LEVEL
 62
13
 10
3027.557
 20
-4061.782
 30
2327.000
 70
    32
  0
VERTEX
  8
2900LEVEL
 62
13
 10
3027.066
 20
-4061.494
 30
2327.000
 70
    32
  0
VERTEX
  8
2900LEVEL
 62
13
 10
3026.387
 20
-4062.157
 30
2327.000
 70
    32
  0
VERTEX
  8
2900LEVEL
 62
13
 10
3025.644
 20
-4065.400
 30
2327.000
 70
    32
  0
VERTEX
  8
2900LEVEL
 62
13
 10
3024.779
 20
-4066.945
 30
2327.000
 70
    32
  0
VERTEX
  8
2900LEVEL
 62
13
 10
3024.172
 20
-4077.044
 30
2327.000
 70
    32
  0
VERTEX
  8
2900LEVEL
 62
13
 10
3027.845
 20
-4089.805
 30
2327.000
 70
    32
  0
VERTEX
  8
2900LEVEL
 62
13
 10
3032.074
 20
-4097.131
 30
2327.000
 70
    32
  0
VERTEX
  8
2900LEVEL
 62
13
 10
3036.415
 20
-4103.928
 30
2327.000
 70
    32
  0
VERTEX
  8
2900LEVEL
 62
13
 10
3040.161
 20
-4110.259
 30
2327.000
 70
    32
  0
VERTEX
  8
2900LEVEL
 62
13
 10
3042.469
 20
-4115.550
 30
2327.000
 70
    32
  0
VERTEX
  8
2900LEVEL
 62
13
 10
3045.974
 20
-4121.278
 30
2327.000
 70
    32
  0
VERTEX
  8
2900LEVEL
 62
13
 10
3049.521
 20
-4126.406
 30
2327.000
 70
    32
  0
VERTEX
  8
2900LEVEL
 62
13
 10
3054.168
 20
-4131.086
 30
2327.000
 70
    32
  0
VERTEX
  8
2900LEVEL
 62
13
 10
3058.863
 20
-4137.817
 30
2327.000
 70
    32
  0
VERTEX
  8
2900LEVEL
 62
13
 10
3061.078
 20
-4142.011
 30
2327.000
 70
    32
  0
VERTEX
  8
2900LEVEL
 62
13
 10
3062.222
 20
-4147.182
 30
2327.000
 70
    32
  0
VERTEX
  8
2900LEVEL
 62
13
 10
3061.075
 20
-4148.583
 30
2327.000
 70
    32
  0
VERTEX
  8
2900LEVEL
 62
13
 10
3058.216
 20
-4148.304
 30
2327.000
 70
    32
  0
VERTEX
  8
2900LEVEL
 62
13
 10
3052.478
 20
-4146.438
 30
2327.000
 70
    32
  0
VERTEX
  8
2900LEVEL
 62
13
 10
3048.079
 20
-4144.799
 30
2327.000
 70
    32
  0
VERTEX
  8
2900LEVEL
 62
13
 10
3044.703
 20
-4143.418
 30
2327.000
 70
    32
  0
VERTEX
  8
2900LEVEL
 62
13
 10
3041.872
 20
-4143.740
 30
2327.000
 70
    32
  0
VERTEX
  8
2900LEVEL
 62
13
 10
3039.857
 20
-4143.894
 30
2327.000
 70
    32
  0
VERTEX
  8
2900LEVEL
 62
13
 10
3035.520
 20
-4143.033
 30
2327.000
 70
    32
  0
VERTEX
  8
2900LEVEL
 62
13
 10
3034.199
 20
-4141.110
 30
2327.000
 70
    32
  0
VERTEX
  8
2900LEVEL
 62
13
 10
3033.475
 20
-4139.442
 30
2327.000
 70
    32
  0
VERTEX
  8
2900LEVEL
 62
13
 10
3031.762
 20
-4137.832
 30
2327.000
 70
    32
  0
VERTEX
  8
2900LEVEL
 62
13
 10
3029.344
 20
-4136.003
 30
2327.000
 70
    32
  0
VERTEX
  8
2900LEVEL
 62
13
 10
3028.696
 20
-4133.912
 30
2327.000
 70
    32
  0
VERTEX
  8
2900LEVEL
 62
13
 10
3027.953
 20
-4130.864
 30
2327.000
 70
    32
  0
VERTEX
  8
2900LEVEL
 62
13
 10
3025.494
 20
-4126.350
 30
2327.000
 70
    32
  0
VERTEX
  8
2900LEVEL
 62
13
 10
3023.682
 20
-4124.139
 30
2327.000
 70
    32
  0
VERTEX
  8
2900LEVEL
 62
13
 10
3021.737
 20
-4124.294
 30
2327.000
 70
    32
  0
VERTEX
  8
2900LEVEL
 62
13
 10
3019.685
 20
-4127.698
 30
2327.000
 70
    32
  0
VERTEX
  8
2900LEVEL
 62
13
 10
3019.257
 20
-4131.192
 30
2327.000
 70
    32
  0
VERTEX
  8
2900LEVEL
 62
13
 10
3020.038
 20
-4134.062
 30
2327.000
 70
    32
  0
VERTEX
  8
2900LEVEL
 62
13
 10
3020.047
 20
-4136.430
 30
2327.000
 70
    32
  0
VERTEX
  8
2900LEVEL
 62
13
 10
3019.184
 20
-4140.908
 30
2327.000
 70
    32
  0
VERTEX
  8
2900LEVEL
 62
13
 10
3019.357
 20
-4144.443
 30
2327.000
 70
    32
  0
VERTEX
  8
2900LEVEL
 62
13
 10
3020.557
 20
-4147.672
 30
2327.000
 70
    32
  0
VERTEX
  8
2900LEVEL
 62
13
 10
3021.012
 20
-4148.066
 30
2327.000
 70
    32
  0
VERTEX
  8
2900LEVEL
 62
13
 10
3021.562
 20
-4146.270
 30
2327.000
 70
    32
  0
VERTEX
  8
2900LEVEL
 62
13
 10
3022.212
 20
-4145.005
 30
2327.000
 70
    32
  0
VERTEX
  8
2900LEVEL
 62
13
 10
3023.217
 20
-4143.603
 30
2327.000
 70
    32
  0
VERTEX
  8
2900LEVEL
 62
13
 10
3024.680
 20
-4145.527
 30
2327.000
 70
    32
  0
VERTEX
  8
2900LEVEL
 62
13
 10
3025.147
 20
-4151.150
 30
2327.000
 70
    32
  0
VERTEX
  8
2900LEVEL
 62
13
 10
3024.966
 20
-4154.752
 30
2327.000
 70
    32
  0
VERTEX
  8
2900LEVEL
 62
13
 10
3023.658
 20
-4157.989
 30
2327.000
 70
    32
  0
VERTEX
  8
2900LEVEL
 62
13
 10
3021.908
 20
-4159.630
 30
2327.000
 70
    32
  0
VERTEX
  8
2900LEVEL
 62
13
 10
3020.253
 20
-4159.081
 30
2327.000
 70
    32
  0
VERTEX
  8
2900LEVEL
 62
13
 10
3019.508
 20
-4159.391
 30
2327.000
 70
    32
  0
VERTEX
  8
2900LEVEL
 62
13
 10
3018.111
 20
-4161.107
 30
2327.000
 70
    32
  0
VERTEX
  8
2900LEVEL
 62
13
 10
3017.054
 20
-4163.957
 30
2327.000
 70
    32
  0
VERTEX
  8
2900LEVEL
 62
13
 10
3014.982
 20
-4165.983
 30
2327.000
 70
    32
  0
VERTEX
  8
2900LEVEL
 62
13
 10
3013.098
 20
-4167.058
 30
2327.000
 70
    32
  0
VERTEX
  8
2900LEVEL
 62
13
 10
3011.589
 20
-4166.087
 30
2327.000
 70
    32
  0
VERTEX
  8
2900LEVEL
 62
13
 10
3008.639
 20
-4158.139
 30
2327.000
 70
    32
  0
VERTEX
  8
2900LEVEL
 62
13
 10
3006.365
 20
-4143.450
 30
2327.000
 70
    32
  0
VERTEX
  8
2900LEVEL
 62
13
 10
3005.737
 20
-4133.161
 30
2327.000
 70
    32
  0
VERTEX
  8
2900LEVEL
 62
13
 10
3005.073
 20
-4119.832
 30
2327.000
 70
    32
  0
VERTEX
  8
2900LEVEL
 62
13
 10
3001.343
 20
-4109.014
 30
2327.000
 70
    32
  0
VERTEX
  8
2900LEVEL
 62
13
 10
3000.055
 20
-4100.908
 30
2327.000
 70
    32
  0
VERTEX
  8
2900LEVEL
 62
13
 10
2998.356
 20
-4088.451
 30
2327.000
 70
    32
  0
VERTEX
  8
2900LEVEL
 62
13
 10
2997.491
 20
-4083.636
 30
2327.000
 70
    32
  0
VERTEX
  8
2900LEVEL
 62
13
 10
2996.647
 20
-4080.129
 30
2327.000
 70
    32
  0
VERTEX
  8
2900LEVEL
 62
13
 10
2995.119
 20
-4077.780
 30
2327.000
 70
    32
  0
VERTEX
  8
2900LEVEL
 62
13
 10
2993.959
 20
-4077.166
 30
2327.000
 70
    32
  0
VERTEX
  8
2900LEVEL
 62
13
 10
2992.631
 20
-4082.239
 30
2327.000
 70
    32
  0
VERTEX
  8
2900LEVEL
 62
13
 10
2991.864
 20
-4087.602
 30
2327.000
 70
    32
  0
VERTEX
  8
2900LEVEL
 62
13
 10
2989.086
 20
-4092.765
 30
2327.000
 70
    32
  0
VERTEX
  8
2900LEVEL
 62
13
 10
2987.066
 20
-4093.272
 30
2327.000
 70
    32
  0
VERTEX
  8
2900LEVEL
 62
13
 10
2985.036
 20
-4094.769
 30
2327.000
 70
    32
  0
VERTEX
  8
2900LEVEL
 62
13
 10
2983.990
 20
-4096.630
 30
2327.000
 70
    32
  0
VERTEX
  8
2900LEVEL
 62
13
 10
2982.364
 20
-4096.683
 30
2327.000
 70
    32
  0
VERTEX
  8
2900LEVEL
 62
13
 10
2979.927
 20
-4096.620
 30
2327.000
 70
    32
  0
VERTEX
  8
2900LEVEL
 62
13
 10
2978.530
 20
-4098.336
 30
2327.000
 70
    32
  0
VERTEX
  8
2900LEVEL
 62
13
 10
2976.219
 20
-4099.547
 30
2327.000
 70
    32
  0
VERTEX
  8
2900LEVEL
 62
13
 10
2971.407
 20
-4100.200
 30
2327.000
 70
    32
  0
VERTEX
  8
2900LEVEL
 62
13
 10
2969.732
 20
-4101.418
 30
2327.000
 70
    32
  0
VERTEX
  8
2900LEVEL
 62
13
 10
2967.688
 20
-4104.116
 30
2327.000
 70
    32
  0
VERTEX
  8
2900LEVEL
 62
13
 10
2963.820
 20
-4105.592
 30
2327.000
 70
    32
  0
VERTEX
  8
2900LEVEL
 62
13
 10
2961.836
 20
-4106.065
 30
2327.000
 70
    32
  0
VERTEX
  8
2900LEVEL
 62
13
 10
2959.284
 20
-4109.958
 30
2327.000
 70
    32
  0
VERTEX
  8
2900LEVEL
 62
13
 10
2957.501
 20
-4114.638
 30
2327.000
 70
    32
  0
VERTEX
  8
2900LEVEL
 62
13
 10
2953.382
 20
-4119.574
 30
2327.000
 70
    32
  0
VERTEX
  8
2900LEVEL
 62
13
 10
2951.522
 20
-4121.603
 30
2327.000
 70
    32
  0
VERTEX
  8
2900LEVEL
 62
13
 10
2949.489
 20
-4126.527
 30
2327.000
 70
    32
  0
VERTEX
  8
2900LEVEL
 62
13
 10
2948.771
 20
-4130.653
 30
2327.000
 70
    32
  0
VERTEX
  8
2900LEVEL
 62
13
 10
2947.233
 20
-4138.657
 30
2327.000
 70
    32
  0
VERTEX
  8
2900LEVEL
 62
13
 10
2946.054
 20
-4149.314
 30
2327.000
 70
    32
  0
VERTEX
  8
2900LEVEL
 62
13
 10
2945.733
 20
-4155.918
 30
2327.000
 70
    32
  0
VERTEX
  8
2900LEVEL
 62
13
 10
2944.663
 20
-4166.330
 30
2327.000
 70
    32
  0
VERTEX
  8
2900LEVEL
 62
13
 10
2945.399
 20
-4176.373
 30
2327.000
 70
    32
  0
VERTEX
  8
2900LEVEL
 62
13
 10
2946.598
 20
-4189.248
 30
2327.000
 70
    32
  0
VERTEX
  8
2900LEVEL
 62
13
 10
2946.723
 20
-4197.094
 30
2327.000
 70
    32
  0
VERTEX
  8
2900LEVEL
 62
13
 10
2947.533
 20
-4213.144
 30
2327.000
 70
    32
  0
VERTEX
  8
2900LEVEL
 62
13
 10
2948.082
 20
-4220.995
 30
2327.000
 70
    32
  0
VERTEX
  8
2900LEVEL
 62
13
 10
2949.221
 20
-4232.880
 30
2327.000
 70
    32
  0
VERTEX
  8
2900LEVEL
 62
13
 10
2951.638
 20
-4244.284
 30
2327.000
 70
    32
  0
VERTEX
  8
2900LEVEL
 62
13
 10
2954.064
 20
-4251.767
 30
2327.000
 70
    32
  0
VERTEX
  8
2900LEVEL
 62
13
 10
2957.789
 20
-4266.225
 30
2327.000
 70
    32
  0
VERTEX
  8
2900LEVEL
 62
13
 10
2960.369
 20
-4278.868
 30
2327.000
 70
    32
  0
VERTEX
  8
2900LEVEL
 62
13
 10
2961.866
 20
-4287.188
 30
2327.000
 70
    32
  0
VERTEX
  8
2900LEVEL
 62
13
 10
2962.294
 20
-4299.489
 30
2327.000
 70
    32
  0
VERTEX
  8
2900LEVEL
 62
13
 10
2962.856
 20
-4309.354
 30
2327.000
 70
    32
  0
VERTEX
  8
2900LEVEL
 62
13
 10
2961.985
 20
-4320.898
 30
2327.000
 70
    32
  0
VERTEX
  8
2900LEVEL
 62
13
 10
2962.575
 20
-4328.219
 30
2327.000
 70
    32
  0
VERTEX
  8
2900LEVEL
 62
13
 10
2963.948
 20
-4341.343
 30
2327.000
 70
    32
  0
VERTEX
  8
2900LEVEL
 62
13
 10
2965.384
 20
-4351.959
 30
2327.000
 70
    32
  0
VERTEX
  8
2900LEVEL
 62
13
 10
2966.930
 20
-4359.044
 30
2327.000
 70
    32
  0
VERTEX
  8
2900LEVEL
 62
13
 10
2969.989
 20
-4369.961
 30
2327.000
 70
    32
  0
VERTEX
  8
2900LEVEL
 62
13
 10
2972.548
 20
-4378.081
 30
2327.000
 70
    32
  0
VERTEX
  8
2900LEVEL
 62
13
 10
2976.309
 20
-4392.504
 30
2327.000
 70
    32
  0
VERTEX
  8
2900LEVEL
 62
13
 10
2980.030
 20
-4401.096
 30
2327.000
 70
    32
  0
VERTEX
  8
2900LEVEL
 62
13
 10
2985.090
 20
-4413.060
 30
2327.000
 70
    32
  0
VERTEX
  8
2900LEVEL
 62
13
 10
2988.124
 20
-4419.878
 30
2327.000
 70
    32
  0
VERTEX
  8
2900LEVEL
 62
13
 10
2992.097
 20
-4431.159
 30
2327.000
 70
    32
  0
VERTEX
  8
2900LEVEL
 62
13
 10
2994.887
 20
-4440.730
 30
2327.000
 70
    32
  0
VERTEX
  8
2900LEVEL
 62
13
 10
2998.258
 20
-4448.965
 30
2327.000
 70
    32
  0
VERTEX
  8
2900LEVEL
 62
13
 10
3002.777
 20
-4458.874
 30
2327.000
 70
    32
  0
VERTEX
  8
2900LEVEL
 62
13
 10
3006.178
 20
-4464.353
 30
2327.000
 70
    32
  0
VERTEX
  8
2900LEVEL
 62
13
 10
3008.601
 20
-4468.903
 30
2327.000
 70
    32
  0
VERTEX
  8
2900LEVEL
 62
13
 10
3015.182
 20
-4480.778
 30
2327.000
 70
    32
  0
VERTEX
  8
2900LEVEL
 62
13
 10
3019.155
 20
-4488.843
 30
2327.000
 70
    32
  0
VERTEX
  8
2900LEVEL
 62
13
 10
3024.647
 20
-4497.031
 30
2327.000
 70
    32
  0
VERTEX
  8
2900LEVEL
 62
13
 10
3027.806
 20
-4502.119
 30
2327.000
 70
    32
  0
VERTEX
  8
2900LEVEL
 62
13
 10
3031.219
 20
-4509.754
 30
2327.000
 70
    32
  0
VERTEX
  8
2900LEVEL
 62
13
 10
3035.226
 20
-4521.070
 30
2327.000
 70
    32
  0
VERTEX
  8
2900LEVEL
 62
13
 10
3040.581
 20
-4528.904
 30
2327.000
 70
    32
  0
VERTEX
  8
2900LEVEL
 62
13
 10
3044.297
 20
-4531.489
 30
2327.000
 70
    32
  0
VERTEX
  8
2900LEVEL
 62
13
 10
3046.021
 20
-4532.180
 30
2327.000
 70
    32
  0
VERTEX
  8
2900LEVEL
 62
13
 10
3046.604
 20
-4530.561
 30
2327.000
 70
    32
  0
VERTEX
  8
2900LEVEL
 62
13
 10
3045.617
 20
-4527.193
 30
2327.000
 70
    32
  0
VERTEX
  8
2900LEVEL
 62
13
 10
3044.421
 20
-4523.540
 30
2327.000
 70
    32
  0
VERTEX
  8
2900LEVEL
 62
13
 10
3043.083
 20
-4519.957
 30
2327.000
 70
    32
  0
VERTEX
  8
2900LEVEL
 62
13
 10
3040.521
 20
-4515.193
 30
2327.000
 70
    32
  0
VERTEX
  8
2900LEVEL
 62
13
 10
3039.094
 20
-4513.305
 30
2327.000
 70
    32
  0
VERTEX
  8
2900LEVEL
 62
13
 10
3038.092
 20
-4511.279
 30
2327.000
 70
    32
  0
VERTEX
  8
2900LEVEL
 62
13
 10
3036.499
 20
-4508.364
 30
2327.000
 70
    32
  0
VERTEX
  8
2900LEVEL
 62
13
 10
3034.108
 20
-4504.133
 30
2327.000
 70
    32
  0
VERTEX
  8
2900LEVEL
 62
13
 10
3032.324
 20
-4499.378
 30
2327.000
 70
    32
  0
VERTEX
  8
2900LEVEL
 62
13
 10
3032.276
 20
-4497.328
 30
2327.000
 70
    32
  0
VERTEX
  8
2900LEVEL
 62
13
 10
3032.640
 20
-4496.343
 30
2327.000
 70
    32
  0
VERTEX
  8
2900LEVEL
 62
13
 10
3033.562
 20
-4496.071
 30
2327.000
 70
    32
  0
VERTEX
  8
2900LEVEL
 62
13
 10
3034.139
 20
-4495.017
 30
2327.000
 70
    32
  0
VERTEX
  8
2900LEVEL
 62
13
 10
3038.220
 20
-4496.617
 30
2327.000
 70
    32
  0
VERTEX
  8
2900LEVEL
 62
13
 10
3041.766
 20
-4498.600
 30
2327.000
 70
    32
  0
VERTEX
  8
2900LEVEL
 62
13
 10
3043.913
 20
-4499.437
 30
2327.000
 70
    32
  0
VERTEX
  8
2900LEVEL
 62
13
 10
3046.224
 20
-4498.084
 30
2327.000
 70
    32
  0
VERTEX
  8
2900LEVEL
 62
13
 10
3046.456
 20
-4496.320
 30
2327.000
 70
    32
  0
VERTEX
  8
2900LEVEL
 62
13
 10
3047.115
 20
-4494.278
 30
2327.000
 70
    32
  0
VERTEX
  8
2900LEVEL
 62
13
 10
3048.249
 20
-4494.008
 30
2327.000
 70
    32
  0
VERTEX
  8
2900LEVEL
 62
13
 10
3048.503
 20
-4493.410
 30
2327.000
 70
    32
  0
VERTEX
  8
2900LEVEL
 62
13
 10
3049.020
 20
-4491.367
 30
2327.000
 70
    32
  0
VERTEX
  8
2900LEVEL
 62
13
 10
3050.129
 20
-4490.142
 30
2327.000
 70
    32
  0
VERTEX
  8
2900LEVEL
 62
13
 10
3052.653
 20
-4495.082
 30
2327.000
 70
    32
  0
VERTEX
  8
2900LEVEL
 62
13
 10
3055.487
 20
-4503.983
 30
2327.000
 70
    32
  0
VERTEX
  8
2900LEVEL
 62
13
 10
3056.555
 20
-4509.577
 30
2327.000
 70
    32
  0
VERTEX
  8
2900LEVEL
 62
13
 10
3059.184
 20
-4517.839
 30
2327.000
 70
    32
  0
VERTEX
  8
2900LEVEL
 62
13
 10
3061.100
 20
-4520.228
 30
2327.000
 70
    32
  0
VERTEX
  8
2900LEVEL
 62
13
 10
3062.517
 20
-4519.961
 30
2327.000
 70
    32
  0
VERTEX
  8
2900LEVEL
 62
13
 10
3064.218
 20
-4519.486
 30
2327.000
 70
    32
  0
VERTEX
  8
2900LEVEL
 62
13
 10
3066.646
 20
-4520.396
 30
2327.000
 70
    32
  0
VERTEX
  8
2900LEVEL
 62
13
 10
3068.348
 20
-4519.850
 30
2327.000
 70
    32
  0
VERTEX
  8
2900LEVEL
 62
13
 10
3068.616
 20
-4517.980
 30
2327.000
 70
    32
  0
VERTEX
  8
2900LEVEL
 62
13
 10
3067.271
 20
-4515.032
 30
2327.000
 70
    32
  0
VERTEX
  8
2900LEVEL
 62
13
 10
3069.215
 20
-4515.019
 30
2327.000
 70
    32
  0
VERTEX
  8
2900LEVEL
 62
13
 10
3071.329
 20
-4515.537
 30
2327.000
 70
    32
  0
VERTEX
  8
2900LEVEL
 62
13
 10
3072.168
 20
-4513.179
 30
2327.000
 70
    32
  0
VERTEX
  8
2900LEVEL
 62
13
 10
3071.597
 20
-4507.307
 30
2327.000
 70
    32
  0
VERTEX
  8
2900LEVEL
 62
13
 10
3070.190
 20
-4503.652
 30
2327.000
 70
    32
  0
VERTEX
  8
2900LEVEL
 62
13
 10
3069.753
 20
-4501.633
 30
2327.000
 70
    32
  0
VERTEX
  8
2900LEVEL
 62
13
 10
3071.587
 20
-4501.936
 30
2327.000
 70
    32
  0
VERTEX
  8
2900LEVEL
 62
13
 10
3074.218
 20
-4506.771
 30
2327.000
 70
    32
  0
VERTEX
  8
2900LEVEL
 62
13
 10
3076.296
 20
-4513.684
 30
2327.000
 70
    32
  0
VERTEX
  8
2900LEVEL
 62
13
 10
3078.776
 20
-4519.436
 30
2327.000
 70
    32
  0
VERTEX
  8
2900LEVEL
 62
13
 10
3082.836
 20
-4526.089
 30
2327.000
 70
    32
  0
VERTEX
  8
2900LEVEL
 62
13
 10
3084.116
 20
-4528.541
 30
2327.000
 70
    32
  0
VERTEX
  8
2900LEVEL
 62
13
 10
3083.857
 20
-4529.634
 30
2327.000
 70
    32
  0
VERTEX
  8
2900LEVEL
 62
13
 10
3082.243
 20
-4528.556
 30
2327.000
 70
    32
  0
VERTEX
  8
2900LEVEL
 62
13
 10
3080.982
 20
-4527.623
 30
2327.000
 70
    32
  0
VERTEX
  8
2900LEVEL
 62
13
 10
3078.834
 20
-4526.927
 30
2327.000
 70
    32
  0
VERTEX
  8
2900LEVEL
 62
13
 10
3079.103
 20
-4528.132
 30
2327.000
 70
    32
  0
VERTEX
  8
2900LEVEL
 62
13
 10
3083.063
 20
-4534.253
 30
2327.000
 70
    32
  0
VERTEX
  8
2900LEVEL
 62
13
 10
3084.536
 20
-4538.404
 30
2327.000
 70
    32
  0
VERTEX
  8
2900LEVEL
 62
13
 10
3086.693
 20
-4547.756
 30
2327.000
 70
    32
  0
VERTEX
  8
2900LEVEL
 62
13
 10
3089.313
 20
-4553.651
 30
2327.000
 70
    32
  0
VERTEX
  8
2900LEVEL
 62
13
 10
3094.651
 20
-4562.897
 30
2327.000
 70
    32
  0
VERTEX
  8
2900LEVEL
 62
13
 10
3099.552
 20
-4570.196
 30
2327.000
 70
    32
  0
VERTEX
  8
2900LEVEL
 62
13
 10
3102.820
 20
-4574.967
 30
2327.000
 70
    32
  0
VERTEX
  8
2900LEVEL
 62
13
 10
3104.360
 20
-4579.471
 30
2327.000
 70
    32
  0
VERTEX
  8
2900LEVEL
 62
13
 10
3105.716
 20
-4584.645
 30
2327.000
 70
    32
  0
VERTEX
  8
2900LEVEL
 62
13
 10
3105.707
 20
-4588.638
 30
2327.000
 70
    32
  0
VERTEX
  8
2900LEVEL
 62
13
 10
3105.204
 20
-4589.339
 30
2327.000
 70
    32
  0
VERTEX
  8
2900LEVEL
 62
13
 10
3102.641
 20
-4591.077
 30
2327.000
 70
    32
  0
VERTEX
  8
2900LEVEL
 62
13
 10
3101.987
 20
-4592.695
 30
2327.000
 70
    32
  0
VERTEX
  8
2900LEVEL
 62
13
 10
3101.937
 20
-4594.002
 30
2327.000
 70
    32
  0
VERTEX
  8
2900LEVEL
 62
13
 10
3100.158
 20
-4595.113
 30
2327.000
 70
    32
  0
VERTEX
  8
2900LEVEL
 62
13
 10
3099.037
 20
-4594.182
 30
2327.000
 70
    32
  0
VERTEX
  8
2900LEVEL
 62
13
 10
3096.956
 20
-4593.841
 30
2327.000
 70
    32
  0
VERTEX
  8
2900LEVEL
 62
13
 10
3095.435
 20
-4594.000
 30
2327.000
 70
    32
  0
VERTEX
  8
2900LEVEL
 62
13
 10
3092.667
 20
-4591.955
 30
2327.000
 70
    32
  0
VERTEX
  8
2900LEVEL
 62
13
 10
3090.880
 20
-4590.557
 30
2327.000
 70
    32
  0
VERTEX
  8
2900LEVEL
 62
13
 10
3089.816
 20
-4590.969
 30
2327.000
 70
    32
  0
VERTEX
  8
2900LEVEL
 62
13
 10
3090.030
 20
-4593.905
 30
2327.000
 70
    32
  0
VERTEX
  8
2900LEVEL
 62
13
 10
3087.086
 20
-4594.896
 30
2327.000
 70
    32
  0
VERTEX
  8
2900LEVEL
 62
13
 10
3083.252
 20
-4593.334
 30
2327.000
 70
    32
  0
VERTEX
  8
2900LEVEL
 62
13
 10
3078.395
 20
-4588.510
 30
2327.000
 70
    32
  0
VERTEX
  8
2900LEVEL
 62
13
 10
3075.167
 20
-4583.280
 30
2327.000
 70
    32
  0
VERTEX
  8
2900LEVEL
 62
13
 10
3072.023
 20
-4580.065
 30
2327.000
 70
    32
  0
VERTEX
  8
2900LEVEL
 62
13
 10
3070.510
 20
-4579.518
 30
2327.000
 70
    32
  0
VERTEX
  8
2900LEVEL
 62
13
 10
3069.182
 20
-4581.305
 30
2327.000
 70
    32
  0
VERTEX
  8
2900LEVEL
 62
13
 10
3066.676
 20
-4581.101
 30
2327.000
 70
    32
  0
VERTEX
  8
2900LEVEL
 62
13
 10
3062.541
 20
-4574.800
 30
2327.000
 70
    32
  0
VERTEX
  8
2900LEVEL
 62
13
 10
3059.483
 20
-4570.243
 30
2327.000
 70
    32
  0
VERTEX
  8
2900LEVEL
 62
13
 10
3051.720
 20
-4562.949
 30
2327.000
 70
    32
  0
VERTEX
  8
2900LEVEL
 62
13
 10
3048.437
 20
-4559.520
 30
2327.000
 70
    32
  0
VERTEX
  8
2900LEVEL
 62
13
 10
3046.164
 20
-4557.339
 30
2327.000
 70
    32
  0
VERTEX
  8
2900LEVEL
 62
13
 10
3045.382
 20
-4557.755
 30
2327.000
 70
    32
  0
VERTEX
  8
2900LEVEL
 62
13
 10
3043.614
 20
-4557.876
 30
2327.000
 70
    32
  0
VERTEX
  8
2900LEVEL
 62
13
 10
3041.304
 20
-4555.872
 30
2327.000
 70
    32
  0
VERTEX
  8
2900LEVEL
 62
13
 10
3038.910
 20
-4551.994
 30
2327.000
 70
    32
  0
VERTEX
  8
2900LEVEL
 62
13
 10
3036.273
 20
-4550.798
 30
2327.000
 70
    32
  0
VERTEX
  8
2900LEVEL
 62
13
 10
3032.130
 20
-4551.635
 30
2327.000
 70
    32
  0
VERTEX
  8
2900LEVEL
 62
13
 10
3029.265
 20
-4551.851
 30
2327.000
 70
    32
  0
VERTEX
  8
2900LEVEL
 62
13
 10
3025.654
 20
-4549.302
 30
2327.000
 70
    32
  0
VERTEX
  8
2900LEVEL
 62
13
 10
3020.803
 20
-4543.912
 30
2327.000
 70
    32
  0
VERTEX
  8
2900LEVEL
 62
13
 10
3012.614
 20
-4536.754
 30
2327.000
 70
    32
  0
VERTEX
  8
2900LEVEL
 62
13
 10
3007.127
 20
-4531.357
 30
2327.000
 70
    32
  0
VERTEX
  8
2900LEVEL
 62
13
 10
3001.984
 20
-4523.597
 30
2327.000
 70
    32
  0
VERTEX
  8
2900LEVEL
 62
13
 10
2997.159
 20
-4515.876
 30
2327.000
 70
    32
  0
VERTEX
  8
2900LEVEL
 62
13
 10
2990.102
 20
-4505.444
 30
2327.000
 70
    32
  0
VERTEX
  8
2900LEVEL
 62
13
 10
2983.270
 20
-4497.100
 30
2327.000
 70
    32
  0
VERTEX
  8
2900LEVEL
 62
13
 10
2979.905
 20
-4491.515
 30
2327.000
 70
    32
  0
VERTEX
  8
2900LEVEL
 62
13
 10
2974.623
 20
-4483.541
 30
2327.000
 70
    32
  0
VERTEX
  8
2900LEVEL
 62
13
 10
2968.455
 20
-4475.805
 30
2327.000
 70
    32
  0
VERTEX
  8
2900LEVEL
 62
13
 10
2964.726
 20
-4471.134
 30
2327.000
 70
    32
  0
VERTEX
  8
2900LEVEL
 62
13
 10
2960.733
 20
-4467.980
 30
2327.000
 70
    32
  0
VERTEX
  8
2900LEVEL
 62
13
 10
2956.839
 20
-4462.354
 30
2327.000
 70
    32
  0
VERTEX
  8
2900LEVEL
 62
13
 10
2953.050
 20
-4456.694
 30
2327.000
 70
    32
  0
VERTEX
  8
2900LEVEL
 62
13
 10
2946.168
 20
-4446.511
 30
2327.000
 70
    32
  0
VERTEX
  8
2900LEVEL
 62
13
 10
2938.300
 20
-4435.965
 30
2327.000
 70
    32
  0
VERTEX
  8
2900LEVEL
 62
13
 10
2930.255
 20
-4425.452
 30
2327.000
 70
    32
  0
VERTEX
  8
2900LEVEL
 62
13
 10
2926.647
 20
-4419.404
 30
2327.000
 70
    32
  0
VERTEX
  8
2900LEVEL
 62
13
 10
2921.105
 20
-4412.665
 30
2327.000
 70
    32
  0
VERTEX
  8
2900LEVEL
 62
13
 10
2917.363
 20
-4409.125
 30
2327.000
 70
    32
  0
VERTEX
  8
2900LEVEL
 62
13
 10
2915.292
 20
-4407.936
 30
2327.000
 70
    32
  0
VERTEX
  8
2900LEVEL
 62
13
 10
2914.611
 20
-4408.811
 30
2327.000
 70
    32
  0
VERTEX
  8
2900LEVEL
 62
13
 10
2914.777
 20
-4409.767
 30
2327.000
 70
    32
  0
VERTEX
  8
2900LEVEL
 62
13
 10
2914.804
 20
-4411.681
 30
2327.000
 70
    32
  0
SEQEND
  8
2900LEVEL
  0
POLYLINE
  8
2900LEVEL
 62
13
 66
     1
 70
     9
  0
VERTEX
  8
2900LEVEL
 62
13
 10
3051.668
 20
-4447.193
 30
2327.000
 70
    32
  0
VERTEX
  8
2900LEVEL
 62
13
 10
3053.203
 20
-4452.122
 30
2327.000
 70
    32
  0
VERTEX
  8
2900LEVEL
 62
13
 10
3055.060
 20
-4456.665
 30
2327.000
 70
    32
  0
VERTEX
  8
2900LEVEL
 62
13
 10
3056.992
 20
-4460.927
 30
2327.000
 70
    32
  0
VERTEX
  8
2900LEVEL
 62
13
 10
3057.074
 20
-4463.083
 30
2327.000
 70
    32
  0
VERTEX
  8
2900LEVEL
 62
13
 10
3054.966
 20
-4462.000
 30
2327.000
 70
    32
  0
VERTEX
  8
2900LEVEL
 62
13
 10
3053.227
 20
-4459.507
 30
2327.000
 70
    32
  0
VERTEX
  8
2900LEVEL
 62
13
 10
3051.766
 20
-4457.441
 30
2327.000
 70
    32
  0
VERTEX
  8
2900LEVEL
 62
13
 10
3050.920
 20
-4457.220
 30
2327.000
 70
    32
  0
VERTEX
  8
2900LEVEL
 62
13
 10
3050.962
 20
-4459.764
 30
2327.000
 70
    32
  0
VERTEX
  8
2900LEVEL
 62
13
 10
3053.069
 20
-4464.134
 30
2327.000
 70
    32
  0
VERTEX
  8
2900LEVEL
 62
13
 10
3056.311
 20
-4471.237
 30
2327.000
 70
    32
  0
VERTEX
  8
2900LEVEL
 62
13
 10
3059.523
 20
-4477.951
 30
2327.000
 70
    32
  0
VERTEX
  8
2900LEVEL
 62
13
 10
3060.342
 20
-4480.504
 30
2327.000
 70
    32
  0
VERTEX
  8
2900LEVEL
 62
13
 10
3060.917
 20
-4482.807
 30
2327.000
 70
    32
  0
VERTEX
  8
2900LEVEL
 62
13
 10
3060.804
 20
-4483.477
 30
2327.000
 70
    32
  0
VERTEX
  8
2900LEVEL
 62
13
 10
3058.534
 20
-4481.085
 30
2327.000
 70
    32
  0
VERTEX
  8
2900LEVEL
 62
13
 10
3056.681
 20
-4476.117
 30
2327.000
 70
    32
  0
VERTEX
  8
2900LEVEL
 62
13
 10
3053.087
 20
-4468.869
 30
2327.000
 70
    32
  0
VERTEX
  8
2900LEVEL
 62
13
 10
3050.380
 20
-4464.457
 30
2327.000
 70
    32
  0
VERTEX
  8
2900LEVEL
 62
13
 10
3048.994
 20
-4461.968
 30
2327.000
 70
    32
  0
VERTEX
  8
2900LEVEL
 62
13
 10
3048.367
 20
-4461.184
 30
2327.000
 70
    32
  0
VERTEX
  8
2900LEVEL
 62
13
 10
3048.511
 20
-4464.118
 30
2327.000
 70
    32
  0
VERTEX
  8
2900LEVEL
 62
13
 10
3050.080
 20
-4469.153
 30
2327.000
 70
    32
  0
VERTEX
  8
2900LEVEL
 62
13
 10
3050.588
 20
-4471.173
 30
2327.000
 70
    32
  0
VERTEX
  8
2900LEVEL
 62
13
 10
3050.510
 20
-4471.808
 30
2327.000
 70
    32
  0
VERTEX
  8
2900LEVEL
 62
13
 10
3048.311
 20
-4469.416
 30
2327.000
 70
    32
  0
VERTEX
  8
2900LEVEL
 62
13
 10
3046.077
 20
-4463.773
 30
2327.000
 70
    32
  0
VERTEX
  8
2900LEVEL
 62
13
 10
3042.345
 20
-4456.241
 30
2327.000
 70
    32
  0
VERTEX
  8
2900LEVEL
 62
13
 10
3038.947
 20
-4450.408
 30
2327.000
 70
    32
  0
VERTEX
  8
2900LEVEL
 62
13
 10
3037.060
 20
-4448.550
 30
2327.000
 70
    32
  0
VERTEX
  8
2900LEVEL
 62
13
 10
3036.915
 20
-4448.901
 30
2327.000
 70
    32
  0
VERTEX
  8
2900LEVEL
 62
13
 10
3037.460
 20
-4453.890
 30
2327.000
 70
    32
  0
VERTEX
  8
2900LEVEL
 62
13
 10
3039.619
 20
-4459.885
 30
2327.000
 70
    32
  0
VERTEX
  8
2900LEVEL
 62
13
 10
3040.162
 20
-4461.870
 30
2327.000
 70
    32
  0
VERTEX
  8
2900LEVEL
 62
13
 10
3040.101
 20
-4464.166
 30
2327.000
 70
    32
  0
VERTEX
  8
2900LEVEL
 62
13
 10
3038.442
 20
-4464.042
 30
2327.000
 70
    32
  0
VERTEX
  8
2900LEVEL
 62
13
 10
3035.813
 20
-4458.995
 30
2327.000
 70
    32
  0
VERTEX
  8
2900LEVEL
 62
13
 10
3032.142
 20
-4445.951
 30
2327.000
 70
    32
  0
VERTEX
  8
2900LEVEL
 62
13
 10
3029.615
 20
-4438.078
 30
2327.000
 70
    32
  0
VERTEX
  8
2900LEVEL
 62
13
 10
3028.933
 20
-4429.520
 30
2327.000
 70
    32
  0
VERTEX
  8
2900LEVEL
 62
13
 10
3029.949
 20
-4423.984
 30
2327.000
 70
    32
  0
VERTEX
  8
2900LEVEL
 62
13
 10
3031.427
 20
-4418.206
 30
2327.000
 70
    32
  0
VERTEX
  8
2900LEVEL
 62
13
 10
3032.418
 20
-4414.860
 30
2327.000
 70
    32
  0
VERTEX
  8
2900LEVEL
 62
13
 10
3032.662
 20
-4412.036
 30
2327.000
 70
    32
  0
VERTEX
  8
2900LEVEL
 62
13
 10
3033.102
 20
-4410.557
 30
2327.000
 70
    32
  0
VERTEX
  8
2900LEVEL
 62
13
 10
3035.076
 20
-4411.003
 30
2327.000
 70
    32
  0
VERTEX
  8
2900LEVEL
 62
13
 10
3040.077
 20
-4415.617
 30
2327.000
 70
    32
  0
VERTEX
  8
2900LEVEL
 62
13
 10
3045.014
 20
-4422.809
 30
2327.000
 70
    32
  0
VERTEX
  8
2900LEVEL
 62
13
 10
3046.344
 20
-4427.170
 30
2327.000
 70
    32
  0
VERTEX
  8
2900LEVEL
 62
13
 10
3047.798
 20
-4433.016
 30
2327.000
 70
    32
  0
VERTEX
  8
2900LEVEL
 62
13
 10
3049.075
 20
-4438.896
 30
2327.000
 70
    32
  0
VERTEX
  8
2900LEVEL
 62
13
 10
3049.944
 20
-4443.358
 30
2327.000
 70
    32
  0
VERTEX
  8
2900LEVEL
 62
13
 10
3050.736
 20
-4445.240
 30
2327.000
 70
    32
  0
SEQEND
  8
2900LEVEL
  0
POLYLINE
  8
2900LEVEL
 62
13
 66
     1
 70
     8
  0
VERTEX
  8
2900LEVEL
 62
13
 10
3316.573
 20
-4362.404
 30
2327.000
 70
    32
  0
VERTEX
  8
2900LEVEL
 62
13
 10
3316.505
 20
-4367.186
 30
2327.000
 70
    32
  0
VERTEX
  8
2900LEVEL
 62
13
 10
3317.469
 20
-4372.740
 30
2327.000
 70
    32
  0
VERTEX
  8
2900LEVEL
 62
13
 10
3318.736
 20
-4382.754
 30
2327.000
 70
    32
  0
VERTEX
  8
2900LEVEL
 62
13
 10
3320.108
 20
-4395.949
 30
2327.000
 70
    32
  0
VERTEX
  8
2900LEVEL
 62
13
 10
3321.983
 20
-4411.587
 30
2327.000
 70
    32
  0
VERTEX
  8
2900LEVEL
 62
13
 10
3323.738
 20
-4428.461
 30
2327.000
 70
    32
  0
VERTEX
  8
2900LEVEL
 62
13
 10
3323.900
 20
-4439.275
 30
2327.000
 70
    32
  0
VERTEX
  8
2900LEVEL
 62
13
 10
3323.730
 20
-4445.033
 30
2327.000
 70
    32
  0
VERTEX
  8
2900LEVEL
 62
13
 10
3324.439
 20
-4457.479
 30
2327.000
 70
    32
  0
VERTEX
  8
2900LEVEL
 62
13
 10
3327.343
 20
-4466.380
 30
2327.000
 70
    32
  0
VERTEX
  8
2900LEVEL
 62
13
 10
3330.281
 20
-4472.243
 30
2327.000
 70
    32
  0
VERTEX
  8
2900LEVEL
 62
13
 10
3333.344
 20
-4479.591
 30
2327.000
 70
    32
  0
VERTEX
  8
2900LEVEL
 62
13
 10
3333.602
 20
-4481.855
 30
2327.000
 70
    32
  0
VERTEX
  8
2900LEVEL
 62
13
 10
3332.061
 20
-4480.566
 30
2327.000
 70
    32
  0
VERTEX
  8
2900LEVEL
 62
13
 10
3326.103
 20
-4473.044
 30
2327.000
 70
    32
  0
VERTEX
  8
2900LEVEL
 62
13
 10
3321.090
 20
-4466.345
 30
2327.000
 70
    32
  0
VERTEX
  8
2900LEVEL
 62
13
 10
3317.366
 20
-4461.251
 30
2327.000
 70
    32
  0
VERTEX
  8
2900LEVEL
 62
13
 10
3315.075
 20
-4454.406
 30
2327.000
 70
    32
  0
VERTEX
  8
2900LEVEL
 62
13
 10
3313.810
 20
-4447.396
 30
2327.000
 70
    32
  0
VERTEX
  8
2900LEVEL
 62
13
 10
3309.453
 20
-4435.722
 30
2327.000
 70
    32
  0
VERTEX
  8
2900LEVEL
 62
13
 10
3306.500
 20
-4428.057
 30
2327.000
 70
    32
  0
VERTEX
  8
2900LEVEL
 62
13
 10
3302.733
 20
-4410.913
 30
2327.000
 70
    32
  0
VERTEX
  8
2900LEVEL
 62
13
 10
3300.250
 20
-4399.084
 30
2327.000
 70
    32
  0
VERTEX
  8
2900LEVEL
 62
13
 10
3298.173
 20
-4392.100
 30
2327.000
 70
    32
  0
VERTEX
  8
2900LEVEL
 62
13
 10
3295.517
 20
-4386.311
 30
2327.000
 70
    32
  0
VERTEX
  8
2900LEVEL
 62
13
 10
3294.497
 20
-4385.911
 30
2327.000
 70
    32
  0
VERTEX
  8
2900LEVEL
 62
13
 10
3292.966
 20
-4390.063
 30
2327.000
 70
    32
  0
VERTEX
  8
2900LEVEL
 62
13
 10
3290.610
 20
-4395.373
 30
2327.000
 70
    32
  0
VERTEX
  8
2900LEVEL
 62
13
 10
3288.317
 20
-4398.244
 30
2327.000
 70
    32
  0
VERTEX
  8
2900LEVEL
 62
13
 10
3286.133
 20
-4397.655
 30
2327.000
 70
    32
  0
VERTEX
  8
2900LEVEL
 62
13
 10
3284.391
 20
-4395.444
 30
2327.000
 70
    32
  0
VERTEX
  8
2900LEVEL
 62
13
 10
3283.060
 20
-4391.225
 30
2327.000
 70
    32
  0
VERTEX
  8
2900LEVEL
 62
13
 10
3280.658
 20
-4387.983
 30
2327.000
 70
    32
  0
VERTEX
  8
2900LEVEL
 62
13
 10
3279.438
 20
-4389.665
 30
2327.000
 70
    32
  0
VERTEX
  8
2900LEVEL
 62
13
 10
3277.966
 20
-4391.733
 30
2327.000
 70
    32
  0
VERTEX
  8
2900LEVEL
 62
13
 10
3275.916
 20
-4391.781
 30
2327.000
 70
    32
  0
VERTEX
  8
2900LEVEL
 62
13
 10
3274.061
 20
-4390.171
 30
2327.000
 70
    32
  0
VERTEX
  8
2900LEVEL
 62
13
 10
3272.260
 20
-4396.475
 30
2327.000
 70
    32
  0
VERTEX
  8
2900LEVEL
 62
13
 10
3271.626
 20
-4405.761
 30
2327.000
 70
    32
  0
VERTEX
  8
2900LEVEL
 62
13
 10
3271.272
 20
-4412.117
 30
2327.000
 70
    32
  0
VERTEX
  8
2900LEVEL
 62
13
 10
3270.044
 20
-4414.506
 30
2327.000
 70
    32
  0
VERTEX
  8
2900LEVEL
 62
13
 10
3267.278
 20
-4415.394
 30
2327.000
 70
    32
  0
VERTEX
  8
2900LEVEL
 62
13
 10
3264.494
 20
-4414.762
 30
2327.000
 70
    32
  0
VERTEX
  8
2900LEVEL
 62
13
 10
3260.461
 20
-4415.212
 30
2327.000
 70
    32
  0
VERTEX
  8
2900LEVEL
 62
13
 10
3257.915
 20
-4415.396
 30
2327.000
 70
    32
  0
VERTEX
  8
2900LEVEL
 62
13
 10
3257.600
 20
-4415.074
 30
2327.000
 70
    32
  0
VERTEX
  8
2900LEVEL
 62
13
 10
3259.856
 20
-4412.449
 30
2327.000
 70
    32
  0
VERTEX
  8
2900LEVEL
 62
13
 10
3263.820
 20
-4405.497
 30
2327.000
 70
    32
  0
VERTEX
  8
2900LEVEL
 62
13
 10
3265.611
 20
-4396.966
 30
2327.000
 70
    32
  0
VERTEX
  8
2900LEVEL
 62
13
 10
3267.706
 20
-4386.602
 30
2327.000
 70
    32
  0
VERTEX
  8
2900LEVEL
 62
13
 10
3268.820
 20
-4378.522
 30
2327.000
 70
    32
  0
VERTEX
  8
2900LEVEL
 62
13
 10
3269.905
 20
-4376.273
 30
2327.000
 70
    32
  0
VERTEX
  8
2900LEVEL
 62
13
 10
3272.582
 20
-4377.080
 30
2327.000
 70
    32
  0
VERTEX
  8
2900LEVEL
 62
13
 10
3275.529
 20
-4378.951
 30
2327.000
 70
    32
  0
VERTEX
  8
2900LEVEL
 62
13
 10
3277.271
 20
-4378.016
 30
2327.000
 70
    32
  0
VERTEX
  8
2900LEVEL
 62
13
 10
3278.401
 20
-4371.739
 30
2327.000
 70
    32
  0
VERTEX
  8
2900LEVEL
 62
13
 10
3279.586
 20
-4370.021
 30
2327.000
 70
    32
  0
VERTEX
  8
2900LEVEL
 62
13
 10
3282.119
 20
-4371.039
 30
2327.000
 70
    32
  0
VERTEX
  8
2900LEVEL
 62
13
 10
3285.619
 20
-4370.830
 30
2327.000
 70
    32
  0
VERTEX
  8
2900LEVEL
 62
13
 10
3289.883
 20
-4362.327
 30
2327.000
 70
    32
  0
VERTEX
  8
2900LEVEL
 62
13
 10
3291.733
 20
-4351.712
 30
2327.000
 70
    32
  0
VERTEX
  8
2900LEVEL
 62
13
 10
3290.675
 20
-4342.054
 30
2327.000
 70
    32
  0
VERTEX
  8
2900LEVEL
 62
13
 10
3290.889
 20
-4335.555
 30
2327.000
 70
    32
  0
VERTEX
  8
2900LEVEL
 62
13
 10
3292.546
 20
-4329.531
 30
2327.000
 70
    32
  0
VERTEX
  8
2900LEVEL
 62
13
 10
3293.680
 20
-4326.046
 30
2327.000
 70
    32
  0
VERTEX
  8
2900LEVEL
 62
13
 10
3294.407
 20
-4321.072
 30
2327.000
 70
    32
  0
VERTEX
  8
2900LEVEL
 62
13
 10
3294.516
 20
-4317.610
 30
2327.000
 70
    32
  0
VERTEX
  8
2900LEVEL
 62
13
 10
3294.337
 20
-4314.711
 30
2327.000
 70
    32
  0
VERTEX
  8
2900LEVEL
 62
13
 10
3294.359
 20
-4312.732
 30
2327.000
 70
    32
  0
VERTEX
  8
2900LEVEL
 62
13
 10
3294.539
 20
-4311.773
 30
2327.000
 70
    32
  0
SEQEND
  8
2900LEVEL
  0
POLYLINE
  8
2900LEVEL
 62
13
 66
     1
 70
     8
  0
VERTEX
  8
2900LEVEL
 62
13
 10
3033.328
 20
-3940.833
 30
2327.000
 70
    32
  0
VERTEX
  8
2900LEVEL
 62
13
 10
3032.974
 20
-3940.399
 30
2327.000
 70
    32
  0
VERTEX
  8
2900LEVEL
 62
13
 10
3028.534
 20
-3936.144
 30
2327.000
 70
    32
  0
VERTEX
  8
2900LEVEL
 62
13
 10
3019.616
 20
-3927.883
 30
2327.000
 70
    32
  0
VERTEX
  8
2900LEVEL
 62
13
 10
3013.270
 20
-3923.466
 30
2327.000
 70
    32
  0
VERTEX
  8
2900LEVEL
 62
13
 10
3006.784
 20
-3915.761
 30
2327.000
 70
    32
  0
VERTEX
  8
2900LEVEL
 62
13
 10
3003.702
 20
-3906.964
 30
2327.000
 70
    32
  0
VERTEX
  8
2900LEVEL
 62
13
 10
3004.769
 20
-3906.340
 30
2327.000
 70
    32
  0
VERTEX
  8
2900LEVEL
 62
13
 10
3006.937
 20
-3908.343
 30
2327.000
 70
    32
  0
VERTEX
  8
2900LEVEL
 62
13
 10
3010.319
 20
-3912.444
 30
2327.000
 70
    32
  0
VERTEX
  8
2900LEVEL
 62
13
 10
3015.126
 20
-3918.646
 30
2327.000
 70
    32
  0
VERTEX
  8
2900LEVEL
 62
13
 10
3019.588
 20
-3924.066
 30
2327.000
 70
    32
  0
VERTEX
  8
2900LEVEL
 62
13
 10
3021.759
 20
-3925.857
 30
2327.000
 70
    32
  0
VERTEX
  8
2900LEVEL
 62
13
 10
3024.195
 20
-3926.061
 30
2327.000
 70
    32
  0
VERTEX
  8
2900LEVEL
 62
13
 10
3025.317
 20
-3923.635
 30
2327.000
 70
    32
  0
VERTEX
  8
2900LEVEL
 62
13
 10
3024.199
 20
-3919.347
 30
2327.000
 70
    32
  0
VERTEX
  8
2900LEVEL
 62
13
 10
3021.234
 20
-3912.742
 30
2327.000
 70
    32
  0
VERTEX
  8
2900LEVEL
 62
13
 10
3017.022
 20
-3903.862
 30
2327.000
 70
    32
  0
VERTEX
  8
2900LEVEL
 62
13
 10
3014.583
 20
-3897.580
 30
2327.000
 70
    32
  0
VERTEX
  8
2900LEVEL
 62
13
 10
3010.142
 20
-3887.107
 30
2327.000
 70
    32
  0
VERTEX
  8
2900LEVEL
 62
13
 10
3005.573
 20
-3878.576
 30
2327.000
 70
    32
  0
VERTEX
  8
2900LEVEL
 62
13
 10
2998.791
 20
-3862.494
 30
2327.000
 70
    32
  0
VERTEX
  8
2900LEVEL
 62
13
 10
2996.997
 20
-3855.443
 30
2327.000
 70
    32
  0
VERTEX
  8
2900LEVEL
 62
13
 10
2997.387
 20
-3848.981
 30
2327.000
 70
    32
  0
VERTEX
  8
2900LEVEL
 62
13
 10
2998.479
 20
-3846.166
 30
2327.000
 70
    32
  0
VERTEX
  8
2900LEVEL
 62
13
 10
2999.431
 20
-3843.209
 30
2327.000
 70
    32
  0
VERTEX
  8
2900LEVEL
 62
13
 10
3000.341
 20
-3843.926
 30
2327.000
 70
    32
  0
VERTEX
  8
2900LEVEL
 62
13
 10
3002.747
 20
-3846.815
 30
2327.000
 70
    32
  0
VERTEX
  8
2900LEVEL
 62
13
 10
3008.287
 20
-3853.837
 30
2327.000
 70
    32
  0
VERTEX
  8
2900LEVEL
 62
13
 10
3015.997
 20
-3862.651
 30
2327.000
 70
    32
  0
VERTEX
  8
2900LEVEL
 62
13
 10
3018.395
 20
-3863.101
 30
2327.000
 70
    32
  0
VERTEX
  8
2900LEVEL
 62
13
 10
3020.266
 20
-3863.228
 30
2327.000
 70
    32
  0
VERTEX
  8
2900LEVEL
 62
13
 10
3027.155
 20
-3866.556
 30
2327.000
 70
    32
  0
VERTEX
  8
2900LEVEL
 62
13
 10
3035.773
 20
-3873.224
 30
2327.000
 70
    32
  0
VERTEX
  8
2900LEVEL
 62
13
 10
3043.474
 20
-3879.741
 30
2327.000
 70
    32
  0
VERTEX
  8
2900LEVEL
 62
13
 10
3050.324
 20
-3886.460
 30
2327.000
 70
    32
  0
VERTEX
  8
2900LEVEL
 62
13
 10
3056.947
 20
-3894.590
 30
2327.000
 70
    32
  0
VERTEX
  8
2900LEVEL
 62
13
 10
3064.654
 20
-3903.757
 30
2327.000
 70
    32
  0
VERTEX
  8
2900LEVEL
 62
13
 10
3073.078
 20
-3915.087
 30
2327.000
 70
    32
  0
VERTEX
  8
2900LEVEL
 62
13
 10
3080.473
 20
-3923.720
 30
2327.000
 70
    32
  0
VERTEX
  8
2900LEVEL
 62
13
 10
3090.254
 20
-3933.794
 30
2327.000
 70
    32
  0
VERTEX
  8
2900LEVEL
 62
13
 10
3099.293
 20
-3940.749
 30
2327.000
 70
    32
  0
VERTEX
  8
2900LEVEL
 62
13
 10
3110.687
 20
-3945.541
 30
2327.000
 70
    32
  0
VERTEX
  8
2900LEVEL
 62
13
 10
3116.296
 20
-3946.416
 30
2327.000
 70
    32
  0
VERTEX
  8
2900LEVEL
 62
13
 10
3118.232
 20
-3943.893
 30
2327.000
 70
    32
  0
VERTEX
  8
2900LEVEL
 62
13
 10
3116.756
 20
-3940.025
 30
2327.000
 70
    32
  0
VERTEX
  8
2900LEVEL
 62
13
 10
3112.662
 20
-3933.196
 30
2327.000
 70
    32
  0
VERTEX
  8
2900LEVEL
 62
13
 10
3106.410
 20
-3923.515
 30
2327.000
 70
    32
  0
VERTEX
  8
2900LEVEL
 62
13
 10
3098.666
 20
-3914.524
 30
2327.000
 70
    32
  0
VERTEX
  8
2900LEVEL
 62
13
 10
3092.507
 20
-3909.226
 30
2327.000
 70
    32
  0
VERTEX
  8
2900LEVEL
 62
13
 10
3083.132
 20
-3903.857
 30
2327.000
 70
    32
  0
VERTEX
  8
2900LEVEL
 62
13
 10
3071.529
 20
-3898.781
 30
2327.000
 70
    32
  0
VERTEX
  8
2900LEVEL
 62
13
 10
3060.560
 20
-3890.638
 30
2327.000
 70
    32
  0
VERTEX
  8
2900LEVEL
 62
13
 10
3054.707
 20
-3883.152
 30
2327.000
 70
    32
  0
VERTEX
  8
2900LEVEL
 62
13
 10
3052.402
 20
-3877.579
 30
2327.000
 70
    32
  0
VERTEX
  8
2900LEVEL
 62
13
 10
3052.637
 20
-3875.462
 30
2327.000
 70
    32
  0
VERTEX
  8
2900LEVEL
 62
13
 10
3054.957
 20
-3876.547
 30
2327.000
 70
    32
  0
VERTEX
  8
2900LEVEL
 62
13
 10
3059.332
 20
-3880.306
 30
2327.000
 70
    32
  0
VERTEX
  8
2900LEVEL
 62
13
 10
3063.132
 20
-3884.907
 30
2327.000
 70
    32
  0
VERTEX
  8
2900LEVEL
 62
13
 10
3071.912
 20
-3892.884
 30
2327.000
 70
    32
  0
VERTEX
  8
2900LEVEL
 62
13
 10
3077.071
 20
-3896.087
 30
2327.000
 70
    32
  0
VERTEX
  8
2900LEVEL
 62
13
 10
3081.344
 20
-3896.311
 30
2327.000
 70
    32
  0
VERTEX
  8
2900LEVEL
 62
13
 10
3080.098
 20
-3893.965
 30
2327.000
 70
    32
  0
VERTEX
  8
2900LEVEL
 62
13
 10
3073.258
 20
-3886.256
 30
2327.000
 70
    32
  0
VERTEX
  8
2900LEVEL
 62
13
 10
3066.562
 20
-3878.408
 30
2327.000
 70
    32
  0
VERTEX
  8
2900LEVEL
 62
13
 10
3063.971
 20
-3873.044
 30
2327.000
 70
    32
  0
VERTEX
  8
2900LEVEL
 62
13
 10
3063.450
 20
-3869.081
 30
2327.000
 70
    32
  0
VERTEX
  8
2900LEVEL
 62
13
 10
3064.084
 20
-3866.155
 30
2327.000
 70
    32
  0
VERTEX
  8
2900LEVEL
 62
13
 10
3065.529
 20
-3866.418
 30
2327.000
 70
    32
  0
VERTEX
  8
2900LEVEL
 62
13
 10
3067.869
 20
-3868.883
 30
2327.000
 70
    32
  0
VERTEX
  8
2900LEVEL
 62
13
 10
3070.938
 20
-3872.521
 30
2327.000
 70
    32
  0
VERTEX
  8
2900LEVEL
 62
13
 10
3078.797
 20
-3880.700
 30
2327.000
 70
    32
  0
VERTEX
  8
2900LEVEL
 62
13
 10
3082.158
 20
-3883.494
 30
2327.000
 70
    32
  0
VERTEX
  8
2900LEVEL
 62
13
 10
3081.365
 20
-3881.753
 30
2327.000
 70
    32
  0
VERTEX
  8
2900LEVEL
 62
13
 10
3077.850
 20
-3876.944
 30
2327.000
 70
    32
  0
VERTEX
  8
2900LEVEL
 62
13
 10
3072.976
 20
-3870.388
 30
2327.000
 70
    32
  0
VERTEX
  8
2900LEVEL
 62
13
 10
3069.961
 20
-3865.090
 30
2327.000
 70
    32
  0
VERTEX
  8
2900LEVEL
 62
13
 10
3069.382
 20
-3863.140
 30
2327.000
 70
    32
  0
VERTEX
  8
2900LEVEL
 62
13
 10
3070.603
 20
-3864.532
 30
2327.000
 70
    32
  0
VERTEX
  8
2900LEVEL
 62
13
 10
3075.313
 20
-3869.920
 30
2327.000
 70
    32
  0
VERTEX
  8
2900LEVEL
 62
13
 10
3077.578
 20
-3872.807
 30
2327.000
 70
    32
  0
VERTEX
  8
2900LEVEL
 62
13
 10
3083.260
 20
-3879.690
 30
2327.000
 70
    32
  0
VERTEX
  8
2900LEVEL
 62
13
 10
3089.444
 20
-3886.013
 30
2327.000
 70
    32
  0
VERTEX
  8
2900LEVEL
 62
13
 10
3100.625
 20
-3894.158
 30
2327.000
 70
    32
  0
VERTEX
  8
2900LEVEL
 62
13
 10
3109.295
 20
-3899.308
 30
2327.000
 70
    32
  0
VERTEX
  8
2900LEVEL
 62
13
 10
3120.263
 20
-3904.377
 30
2327.000
 70
    32
  0
VERTEX
  8
2900LEVEL
 62
13
 10
3134.956
 20
-3911.184
 30
2327.000
 70
    32
  0
VERTEX
  8
2900LEVEL
 62
13
 10
3149.988
 20
-3919.408
 30
2327.000
 70
    32
  0
VERTEX
  8
2900LEVEL
 62
13
 10
3158.303
 20
-3924.694
 30
2327.000
 70
    32
  0
VERTEX
  8
2900LEVEL
 62
13
 10
3171.777
 20
-3939.473
 30
2327.000
 70
    32
  0
VERTEX
  8
2900LEVEL
 62
13
 10
3184.002
 20
-3952.188
 30
2327.000
 70
    32
  0
VERTEX
  8
2900LEVEL
 62
13
 10
3191.527
 20
-3958.668
 30
2327.000
 70
    32
  0
VERTEX
  8
2900LEVEL
 62
13
 10
3193.076
 20
-3959.180
 30
2327.000
 70
    32
  0
VERTEX
  8
2900LEVEL
 62
13
 10
3192.514
 20
-3955.675
 30
2327.000
 70
    32
  0
VERTEX
  8
2900LEVEL
 62
13
 10
3188.097
 20
-3946.227
 30
2327.000
 70
    32
  0
VERTEX
  8
2900LEVEL
 62
13
 10
3184.268
 20
-3937.881
 30
2327.000
 70
    32
  0
VERTEX
  8
2900LEVEL
 62
13
 10
3176.295
 20
-3927.227
 30
2327.000
 70
    32
  0
VERTEX
  8
2900LEVEL
 62
13
 10
3163.517
 20
-3913.446
 30
2327.000
 70
    32
  0
VERTEX
  8
2900LEVEL
 62
13
 10
3156.631
 20
-3906.691
 30
2327.000
 70
    32
  0
VERTEX
  8
2900LEVEL
 62
13
 10
3143.834
 20
-3894.534
 30
2327.000
 70
    32
  0
VERTEX
  8
2900LEVEL
 62
13
 10
3133.544
 20
-3885.727
 30
2327.000
 70
    32
  0
VERTEX
  8
2900LEVEL
 62
13
 10
3126.355
 20
-3880.877
 30
2327.000
 70
    32
  0
VERTEX
  8
2900LEVEL
 62
13
 10
3116.067
 20
-3875.003
 30
2327.000
 70
    32
  0
VERTEX
  8
2900LEVEL
 62
13
 10
3103.132
 20
-3868.993
 30
2327.000
 70
    32
  0
VERTEX
  8
2900LEVEL
 62
13
 10
3093.559
 20
-3862.420
 30
2327.000
 70
    32
  0
VERTEX
  8
2900LEVEL
 62
13
 10
3088.301
 20
-3855.471
 30
2327.000
 70
    32
  0
VERTEX
  8
2900LEVEL
 62
13
 10
3083.595
 20
-3843.370
 30
2327.000
 70
    32
  0
VERTEX
  8
2900LEVEL
 62
13
 10
3082.830
 20
-3835.871
 30
2327.000
 70
    32
  0
VERTEX
  8
2900LEVEL
 62
13
 10
3083.733
 20
-3834.149
 30
2327.000
 70
    32
  0
VERTEX
  8
2900LEVEL
 62
13
 10
3086.890
 20
-3836.234
 30
2327.000
 70
    32
  0
VERTEX
  8
2900LEVEL
 62
13
 10
3094.550
 20
-3843.209
 30
2327.000
 70
    32
  0
VERTEX
  8
2900LEVEL
 62
13
 10
3102.169
 20
-3850.715
 30
2327.000
 70
    32
  0
VERTEX
  8
2900LEVEL
 62
13
 10
3108.035
 20
-3856.999
 30
2327.000
 70
    32
  0
VERTEX
  8
2900LEVEL
 62
13
 10
3115.719
 20
-3865.070
 30
2327.000
 70
    32
  0
VERTEX
  8
2900LEVEL
 62
13
 10
3126.421
 20
-3874.942
 30
2327.000
 70
    32
  0
VERTEX
  8
2900LEVEL
 62
13
 10
3134.741
 20
-3882.949
 30
2327.000
 70
    32
  0
VERTEX
  8
2900LEVEL
 62
13
 10
3142.619
 20
-3889.433
 30
2327.000
 70
    32
  0
VERTEX
  8
2900LEVEL
 62
13
 10
3147.774
 20
-3892.918
 30
2327.000
 70
    32
  0
VERTEX
  8
2900LEVEL
 62
13
 10
3149.605
 20
-3893.574
 30
2327.000
 70
    32
  0
VERTEX
  8
2900LEVEL
 62
13
 10
3148.328
 20
-3890.768
 30
2327.000
 70
    32
  0
VERTEX
  8
2900LEVEL
 62
13
 10
3146.929
 20
-3889.481
 30
2327.000
 70
    32
  0
VERTEX
  8
2900LEVEL
 62
13
 10
3141.094
 20
-3883.656
 30
2327.000
 70
    32
  0
VERTEX
  8
2900LEVEL
 62
13
 10
3134.734
 20
-3877.296
 30
2327.000
 70
    32
  0
VERTEX
  8
2900LEVEL
 62
13
 10
3127.742
 20
-3870.575
 30
2327.000
 70
    32
  0
VERTEX
  8
2900LEVEL
 62
13
 10
3122.021
 20
-3863.939
 30
2327.000
 70
    32
  0
VERTEX
  8
2900LEVEL
 62
13
 10
3113.517
 20
-3856.601
 30
2327.000
 70
    32
  0
VERTEX
  8
2900LEVEL
 62
13
 10
3101.781
 20
-3844.385
 30
2327.000
 70
    32
  0
VERTEX
  8
2900LEVEL
 62
13
 10
3096.414
 20
-3834.467
 30
2327.000
 70
    32
  0
VERTEX
  8
2900LEVEL
 62
13
 10
3091.632
 20
-3822.860
 30
2327.000
 70
    32
  0
VERTEX
  8
2900LEVEL
 62
13
 10
3087.995
 20
-3813.138
 30
2327.000
 70
    32
  0
VERTEX
  8
2900LEVEL
 62
13
 10
3084.102
 20
-3797.865
 30
2327.000
 70
    32
  0
VERTEX
  8
2900LEVEL
 62
13
 10
3081.454
 20
-3788.154
 30
2327.000
 70
    32
  0
VERTEX
  8
2900LEVEL
 62
13
 10
3081.348
 20
-3772.323
 30
2327.000
 70
    32
  0
VERTEX
  8
2900LEVEL
 62
13
 10
3082.295
 20
-3763.500
 30
2327.000
 70
    32
  0
VERTEX
  8
2900LEVEL
 62
13
 10
3083.993
 20
-3753.802
 30
2327.000
 70
    32
  0
VERTEX
  8
2900LEVEL
 62
13
 10
3086.223
 20
-3743.934
 30
2327.000
 70
    32
  0
VERTEX
  8
2900LEVEL
 62
13
 10
3086.587
 20
-3742.948
 30
2327.000
 70
    32
  0
VERTEX
  8
2900LEVEL
 62
13
 10
3088.483
 20
-3744.100
 30
2327.000
 70
    32
  0
VERTEX
  8
2900LEVEL
 62
13
 10
3089.799
 20
-3746.447
 30
2327.000
 70
    32
  0
VERTEX
  8
2900LEVEL
 62
13
 10
3091.339
 20
-3747.807
 30
2327.000
 70
    32
  0
VERTEX
  8
2900LEVEL
 62
13
 10
3092.472
 20
-3747.607
 30
2327.000
 70
    32
  0
VERTEX
  8
2900LEVEL
 62
13
 10
3095.005
 20
-3745.410
 30
2327.000
 70
    32
  0
VERTEX
  8
2900LEVEL
 62
13
 10
3097.272
 20
-3741.725
 30
2327.000
 70
    32
  0
VERTEX
  8
2900LEVEL
 62
13
 10
3099.472
 20
-3737.686
 30
2327.000
 70
    32
  0
VERTEX
  8
2900LEVEL
 62
13
 10
3101.687
 20
-3735.520
 30
2327.000
 70
    32
  0
VERTEX
  8
2900LEVEL
 62
13
 10
3107.702
 20
-3731.594
 30
2327.000
 70
    32
  0
VERTEX
  8
2900LEVEL
 62
13
 10
3114.991
 20
-3727.541
 30
2327.000
 70
    32
  0
VERTEX
  8
2900LEVEL
 62
13
 10
3121.533
 20
-3723.939
 30
2327.000
 70
    32
  0
VERTEX
  8
2900LEVEL
 62
13
 10
3131.657
 20
-3719.070
 30
2327.000
 70
    32
  0
VERTEX
  8
2900LEVEL
 62
13
 10
3139.169
 20
-3717.246
 30
2327.000
 70
    32
  0
VERTEX
  8
2900LEVEL
 62
13
 10
3152.490
 20
-3714.073
 30
2327.000
 70
    32
  0
VERTEX
  8
2900LEVEL
 62
13
 10
3159.852
 20
-3712.883
 30
2327.000
 70
    32
  0
VERTEX
  8
2900LEVEL
 62
13
 10
3168.187
 20
-3713.259
 30
2327.000
 70
    32
  0
VERTEX
  8
2900LEVEL
 62
13
 10
3209.995
 20
-3724.689
 30
2327.000
 70
    32
  0
VERTEX
  8
2900LEVEL
 62
13
 10
3251.274
 20
-3744.451
 30
2327.000
 70
    32
  0
VERTEX
  8
2900LEVEL
 62
13
 10
3267.791
 20
-3754.440
 30
2327.000
 70
    32
  0
VERTEX
  8
2900LEVEL
 62
13
 10
3300.445
 20
-3815.110
 30
2327.000
 70
    32
  0
VERTEX
  8
2900LEVEL
 62
13
 10
3333.741
 20
-3892.267
 30
2327.000
 70
    32
  0
VERTEX
  8
2900LEVEL
 62
13
 10
3386.502
 20
-3967.492
 30
2327.000
 70
    32
  0
VERTEX
  8
2900LEVEL
 62
13
 10
3389.642
 20
-3974.625
 30
2327.000
 70
    32
  0
VERTEX
  8
2900LEVEL
 62
13
 10
3403.014
 20
-3983.925
 30
2327.000
 70
    32
  0
VERTEX
  8
2900LEVEL
 62
13
 10
3414.642
 20
-3989.737
 30
2327.000
 70
    32
  0
VERTEX
  8
2900LEVEL
 62
13
 10
3422.781
 20
-3990.319
 30
2327.000
 70
    32
  0
VERTEX
  8
2900LEVEL
 62
13
 10
3429.176
 20
-3990.319
 30
2327.000
 70
    32
  0
VERTEX
  8
2900LEVEL
 62
13
 10
3434.990
 20
-3992.644
 30
2327.000
 70
    32
  0
VERTEX
  8
2900LEVEL
 62
13
 10
3445.455
 20
-3996.712
 30
2327.000
 70
    32
  0
VERTEX
  8
2900LEVEL
 62
13
 10
3446.618
 20
-3992.062
 30
2327.000
 70
    32
  0
VERTEX
  8
2900LEVEL
 62
13
 10
3442.548
 20
-3982.763
 30
2327.000
 70
    32
  0
VERTEX
  8
2900LEVEL
 62
13
 10
3436.153
 20
-3972.300
 30
2327.000
 70
    32
  0
VERTEX
  8
2900LEVEL
 62
13
 10
3396.500
 20
-3920.694
 30
2327.000
 70
    32
  0
VERTEX
  8
2900LEVEL
 62
13
 10
3353.890
 20
-3870.280
 30
2327.000
 70
    32
  0
VERTEX
  8
2900LEVEL
 62
13
 10
3321.303
 20
-3801.302
 30
2327.000
 70
    32
  0
VERTEX
  8
2900LEVEL
 62
13
 10
3313.220
 20
-3749.347
 30
2327.000
 70
    32
  0
VERTEX
  8
2900LEVEL
 62
13
 10
3306.643
 20
-3708.470
 30
2327.000
 70
    32
  0
VERTEX
  8
2900LEVEL
 62
13
 10
3342.516
 20
-3748.986
 30
2327.000
 70
    32
  0
VERTEX
  8
2900LEVEL
 62
13
 10
3376.490
 20
-3780.880
 30
2327.000
 70
    32
  0
VERTEX
  8
2900LEVEL
 62
13
 10
3427.664
 20
-3832.914
 30
2327.000
 70
    32
  0
VERTEX
  8
2900LEVEL
 62
13
 10
3453.135
 20
-3872.272
 30
2327.000
 70
    32
  0
VERTEX
  8
2900LEVEL
 62
13
 10
3481.304
 20
-3837.955
 30
2327.000
 70
    32
  0
VERTEX
  8
2900LEVEL
 62
13
 10
3495.076
 20
-3792.768
 30
2327.000
 70
    32
  0
VERTEX
  8
2900LEVEL
 62
13
 10
3510.580
 20
-3749.370
 30
2327.000
 70
    32
  0
VERTEX
  8
2900LEVEL
 62
13
 10
3553.888
 20
-3714.951
 30
2327.000
 70
    32
  0
VERTEX
  8
2900LEVEL
 62
13
 10
3590.541
 20
-3682.745
 30
2327.000
 70
    32
  0
VERTEX
  8
2900LEVEL
 62
13
 10
3609.985
 20
-3635.188
 30
2327.000
 70
    32
  0
VERTEX
  8
2900LEVEL
 62
13
 10
3630.259
 20
-3601.374
 30
2327.000
 70
    32
  0
VERTEX
  8
2900LEVEL
 62
13
 10
3641.589
 20
-3576.213
 30
2327.000
 70
    32
  0
SEQEND
  8
2900LEVEL
  0
POLYLINE
  8
2900LEVEL
 62
13
 66
     1
 70
     8
  0
VERTEX
  8
2900LEVEL
 62
13
 10
2908.577
 20
-4417.578
 30
2327.000
 70
    32
  0
VERTEX
  8
2900LEVEL
 62
13
 10
2908.480
 20
-4416.764
 30
2327.000
 70
    32
  0
VERTEX
  8
2900LEVEL
 62
13
 10
2907.118
 20
-4415.300
 30
2327.000
 70
    32
  0
VERTEX
  8
2900LEVEL
 62
13
 10
2905.265
 20
-4413.548
 30
2327.000
 70
    32
  0
VERTEX
  8
2900LEVEL
 62
13
 10
2903.933
 20
-4412.614
 30
2327.000
 70
    32
  0
VERTEX
  8
2900LEVEL
 62
13
 10
2903.187
 20
-4412.924
 30
2327.000
 70
    32
  0
VERTEX
  8
2900LEVEL
 62
13
 10
2902.399
 20
-4413.905
 30
2327.000
 70
    32
  0
VERTEX
  8
2900LEVEL
 62
13
 10
2901.611
 20
-4414.885
 30
2327.000
 70
    32
  0
VERTEX
  8
2900LEVEL
 62
13
 10
2900.340
 20
-4414.800
 30
2327.000
 70
    32
  0
VERTEX
  8
2900LEVEL
 62
13
 10
2899.494
 20
-4414.579
 30
2327.000
 70
    32
  0
VERTEX
  8
2900LEVEL
 62
13
 10
2898.469
 20
-4414.603
 30
2327.000
 70
    32
  0
SEQEND
  8
2900LEVEL
  0
POLYLINE
  8
2900LEVEL
 62
5
 66
     1
 70
     9
  0
VERTEX
  8
2900LEVEL
 62
5
 10
2978.261
 20
-4692.795
 30
2327.000
 70
    32
  0
VERTEX
  8
2900LEVEL
 62
5
 10
2971.953
 20
-4688.061
 30
2327.000
 70
    32
  0
VERTEX
  8
2900LEVEL
 62
5
 10
2965.376
 20
-4679.048
 30
2327.000
 70
    32
  0
VERTEX
  8
2900LEVEL
 62
5
 10
2959.556
 20
-4671.740
 30
2327.000
 70
    32
  0
VERTEX
  8
2900LEVEL
 62
5
 10
2949.018
 20
-4659.891
 30
2327.000
 70
    32
  0
VERTEX
  8
2900LEVEL
 62
5
 10
2941.179
 20
-4649.875
 30
2327.000
 70
    32
  0
VERTEX
  8
2900LEVEL
 62
5
 10
2934.574
 20
-4640.190
 30
2327.000
 70
    32
  0
VERTEX
  8
2900LEVEL
 62
5
 10
2932.865
 20
-4635.012
 30
2327.000
 70
    32
  0
VERTEX
  8
2900LEVEL
 62
5
 10
2935.536
 20
-4633.099
 30
2327.000
 70
    32
  0
VERTEX
  8
2900LEVEL
 62
5
 10
2941.799
 20
-4635.501
 30
2327.000
 70
    32
  0
VERTEX
  8
2900LEVEL
 62
5
 10
2948.555
 20
-4641.194
 30
2327.000
 70
    32
  0
VERTEX
  8
2900LEVEL
 62
5
 10
2954.985
 20
-4647.626
 30
2327.000
 70
    32
  0
VERTEX
  8
2900LEVEL
 62
5
 10
2960.653
 20
-4655.781
 30
2327.000
 70
    32
  0
VERTEX
  8
2900LEVEL
 62
5
 10
2966.877
 20
-4664.860
 30
2327.000
 70
    32
  0
VERTEX
  8
2900LEVEL
 62
5
 10
2976.796
 20
-4678.363
 30
2327.000
 70
    32
  0
VERTEX
  8
2900LEVEL
 62
5
 10
2982.918
 20
-4687.052
 30
2327.000
 70
    32
  0
VERTEX
  8
2900LEVEL
 62
5
 10
2985.978
 20
-4691.468
 30
2327.000
 70
    32
  0
VERTEX
  8
2900LEVEL
 62
5
 10
2987.547
 20
-4693.429
 30
2327.000
 70
    32
  0
SEQEND
  8
2900LEVEL
  0
POLYLINE
  8
2900LEVEL
 62
5
 66
     1
 70
     9
  0
VERTEX
  8
2900LEVEL
 62
5
 10
2580.919
 20
-4272.128
 30
2327.000
 70
    32
  0
VERTEX
  8
2900LEVEL
 62
5
 10
2578.851
 20
-4264.366
 30
2327.000
 70
    32
  0
VERTEX
  8
2900LEVEL
 62
5
 10
2574.360
 20
-4248.769
 30
2327.000
 70
    32
  0
VERTEX
  8
2900LEVEL
 62
5
 10
2571.245
 20
-4236.650
 30
2327.000
 70
    32
  0
VERTEX
  8
2900LEVEL
 62
5
 10
2566.512
 20
-4217.446
 30
2327.000
 70
    32
  0
VERTEX
  8
2900LEVEL
 62
5
 10
2562.798
 20
-4198.784
 30
2327.000
 70
    32
  0
VERTEX
  8
2900LEVEL
 62
5
 10
2560.095
 20
-4178.154
 30
2327.000
 70
    32
  0
VERTEX
  8
2900LEVEL
 62
5
 10
2559.093
 20
-4166.624
 30
2327.000
 70
    32
  0
VERTEX
  8
2900LEVEL
 62
5
 10
2558.375
 20
-4155.026
 30
2327.000
 70
    32
  0
VERTEX
  8
2900LEVEL
 62
5
 10
2559.196
 20
-4151.078
 30
2327.000
 70
    32
  0
VERTEX
  8
2900LEVEL
 62
5
 10
2561.010
 20
-4150.003
 30
2327.000
 70
    32
  0
VERTEX
  8
2900LEVEL
 62
5
 10
2563.428
 20
-4154.976
 30
2327.000
 70
    32
  0
VERTEX
  8
2900LEVEL
 62
5
 10
2564.597
 20
-4164.247
 30
2327.000
 70
    32
  0
VERTEX
  8
2900LEVEL
 62
5
 10
2566.088
 20
-4179.422
 30
2327.000
 70
    32
  0
VERTEX
  8
2900LEVEL
 62
5
 10
2568.237
 20
-4199.056
 30
2327.000
 70
    32
  0
VERTEX
  8
2900LEVEL
 62
5
 10
2569.968
 20
-4208.545
 30
2327.000
 70
    32
  0
VERTEX
  8
2900LEVEL
 62
5
 10
2574.316
 20
-4224.211
 30
2327.000
 70
    32
  0
VERTEX
  8
2900LEVEL
 62
5
 10
2577.769
 20
-4237.818
 30
2327.000
 70
    32
  0
VERTEX
  8
2900LEVEL
 62
5
 10
2580.814
 20
-4249.937
 30
2327.000
 70
    32
  0
VERTEX
  8
2900LEVEL
 62
5
 10
2584.969
 20
-4263.905
 30
2327.000
 70
    32
  0
VERTEX
  8
2900LEVEL
 62
5
 10
2587.463
 20
-4271.529
 30
2327.000
 70
    32
  0
VERTEX
  8
2900LEVEL
 62
5
 10
2589.073
 20
-4276.105
 30
2327.000
 70
    32
  0
SEQEND
  8
2900LEVEL
  0
POLYLINE
  8
2900LEVEL
 62
5
 66
     1
 70
     9
  0
VERTEX
  8
2900LEVEL
 62
5
 10
2480.109
 20
-3942.784
 30
2327.000
 70
    32
  0
VERTEX
  8
2900LEVEL
 62
5
 10
2480.020
 20
-3953.913
 30
2327.000
 70
    32
  0
VERTEX
  8
2900LEVEL
 62
5
 10
2481.335
 20
-3969.051
 30
2327.000
 70
    32
  0
VERTEX
  8
2900LEVEL
 62
5
 10
2482.493
 20
-3985.600
 30
2327.000
 70
    32
  0
VERTEX
  8
2900LEVEL
 62
5
 10
2482.756
 20
-3996.875
 30
2327.000
 70
    32
  0
VERTEX
  8
2900LEVEL
 62
5
 10
2482.538
 20
-4010.158
 30
2327.000
 70
    32
  0
VERTEX
  8
2900LEVEL
 62
5
 10
2479.703
 20
-4023.554
 30
2327.000
 70
    32
  0
VERTEX
  8
2900LEVEL
 62
5
 10
2478.018
 20
-4032.050
 30
2327.000
 70
    32
  0
VERTEX
  8
2900LEVEL
 62
5
 10
2476.190
 20
-4043.902
 30
2327.000
 70
    32
  0
VERTEX
  8
2900LEVEL
 62
5
 10
2474.363
 20
-4058.828
 30
2327.000
 70
    32
  0
VERTEX
  8
2900LEVEL
 62
5
 10
2474.578
 20
-4071.198
 30
2327.000
 70
    32
  0
VERTEX
  8
2900LEVEL
 62
5
 10
2477.065
 20
-4082.674
 30
2327.000
 70
    32
  0
VERTEX
  8
2900LEVEL
 62
5
 10
2479.407
 20
-4097.646
 30
2327.000
 70
    32
  0
VERTEX
  8
2900LEVEL
 62
5
 10
2483.225
 20
-4110.126
 30
2327.000
 70
    32
  0
VERTEX
  8
2900LEVEL
 62
5
 10
2484.658
 20
-4117.880
 30
2327.000
 70
    32
  0
VERTEX
  8
2900LEVEL
 62
5
 10
2488.402
 20
-4133.858
 30
2327.000
 70
    32
  0
VERTEX
  8
2900LEVEL
 62
5
 10
2491.327
 20
-4144.067
 30
2327.000
 70
    32
  0
VERTEX
  8
2900LEVEL
 62
5
 10
2494.446
 20
-4158.977
 30
2327.000
 70
    32
  0
VERTEX
  8
2900LEVEL
 62
5
 10
2497.677
 20
-4167.140
 30
2327.000
 70
    32
  0
VERTEX
  8
2900LEVEL
 62
5
 10
2503.362
 20
-4180.101
 30
2327.000
 70
    32
  0
VERTEX
  8
2900LEVEL
 62
5
 10
2506.629
 20
-4188.158
 30
2327.000
 70
    32
  0
VERTEX
  8
2900LEVEL
 62
5
 10
2510.752
 20
-4201.878
 30
2327.000
 70
    32
  0
VERTEX
  8
2900LEVEL
 62
5
 10
2513.615
 20
-4211.309
 30
2327.000
 70
    32
  0
VERTEX
  8
2900LEVEL
 62
5
 10
2518.324
 20
-4226.272
 30
2327.000
 70
    32
  0
VERTEX
  8
2900LEVEL
 62
5
 10
2524.419
 20
-4240.580
 30
2327.000
 70
    32
  0
VERTEX
  8
2900LEVEL
 62
5
 10
2529.363
 20
-4253.497
 30
2327.000
 70
    32
  0
VERTEX
  8
2900LEVEL
 62
5
 10
2533.072
 20
-4259.863
 30
2327.000
 70
    32
  0
VERTEX
  8
2900LEVEL
 62
5
 10
2534.586
 20
-4263.555
 30
2327.000
 70
    32
  0
VERTEX
  8
2900LEVEL
 62
5
 10
2537.675
 20
-4268.501
 30
2327.000
 70
    32
  0
VERTEX
  8
2900LEVEL
 62
5
 10
2541.141
 20
-4274.546
 30
2327.000
 70
    32
  0
VERTEX
  8
2900LEVEL
 62
5
 10
2541.334
 20
-4276.315
 30
2327.000
 70
    32
  0
VERTEX
  8
2900LEVEL
 62
5
 10
2540.723
 20
-4277.262
 30
2327.000
 70
    32
  0
VERTEX
  8
2900LEVEL
 62
5
 10
2538.589
 20
-4275.295
 30
2327.000
 70
    32
  0
VERTEX
  8
2900LEVEL
 62
5
 10
2535.822
 20
-4269.964
 30
2327.000
 70
    32
  0
VERTEX
  8
2900LEVEL
 62
5
 10
2532.530
 20
-4264.168
 30
2327.000
 70
    32
  0
VERTEX
  8
2900LEVEL
 62
5
 10
2529.420
 20
-4260.988
 30
2327.000
 70
    32
  0
VERTEX
  8
2900LEVEL
 62
5
 10
2526.706
 20
-4257.283
 30
2327.000
 70
    32
  0
VERTEX
  8
2900LEVEL
 62
5
 10
2521.774
 20
-4243.236
 30
2327.000
 70
    32
  0
VERTEX
  8
2900LEVEL
 62
5
 10
2513.301
 20
-4223.637
 30
2327.000
 70
    32
  0
VERTEX
  8
2900LEVEL
 62
5
 10
2506.948
 20
-4207.136
 30
2327.000
 70
    32
  0
VERTEX
  8
2900LEVEL
 62
5
 10
2498.588
 20
-4186.796
 30
2327.000
 70
    32
  0
VERTEX
  8
2900LEVEL
 62
5
 10
2491.996
 20
-4163.261
 30
2327.000
 70
    32
  0
VERTEX
  8
2900LEVEL
 62
5
 10
2486.708
 20
-4146.347
 30
2327.000
 70
    32
  0
VERTEX
  8
2900LEVEL
 62
5
 10
2483.459
 20
-4133.449
 30
2327.000
 70
    32
  0
VERTEX
  8
2900LEVEL
 62
5
 10
2476.921
 20
-4114.543
 30
2327.000
 70
    32
  0
VERTEX
  8
2900LEVEL
 62
5
 10
2473.574
 20
-4101.044
 30
2327.000
 70
    32
  0
VERTEX
  8
2900LEVEL
 62
5
 10
2470.445
 20
-4086.981
 30
2327.000
 70
    32
  0
VERTEX
  8
2900LEVEL
 62
5
 10
2467.959
 20
-4075.364
 30
2327.000
 70
    32
  0
VERTEX
  8
2900LEVEL
 62
5
 10
2467.283
 20
-4069.456
 30
2327.000
 70
    32
  0
VERTEX
  8
2900LEVEL
 62
5
 10
2467.656
 20
-4055.043
 30
2327.000
 70
    32
  0
VERTEX
  8
2900LEVEL
 62
5
 10
2468.456
 20
-4046.713
 30
2327.000
 70
    32
  0
VERTEX
  8
2900LEVEL
 62
5
 10
2470.536
 20
-4034.405
 30
2327.000
 70
    32
  0
VERTEX
  8
2900LEVEL
 62
5
 10
2471.648
 20
-4026.608
 30
2327.000
 70
    32
  0
VERTEX
  8
2900LEVEL
 62
5
 10
2472.348
 20
-4014.532
 30
2327.000
 70
    32
  0
VERTEX
  8
2900LEVEL
 62
5
 10
2473.263
 20
-4005.320
 30
2327.000
 70
    32
  0
VERTEX
  8
2900LEVEL
 62
5
 10
2474.320
 20
-3989.820
 30
2327.000
 70
    32
  0
VERTEX
  8
2900LEVEL
 62
5
 10
2475.185
 20
-3975.555
 30
2327.000
 70
    32
  0
VERTEX
  8
2900LEVEL
 62
5
 10
2474.805
 20
-3965.304
 30
2327.000
 70
    32
  0
VERTEX
  8
2900LEVEL
 62
5
 10
2474.667
 20
-3952.299
 30
2327.000
 70
    32
  0
VERTEX
  8
2900LEVEL
 62
5
 10
2474.038
 20
-3945.366
 30
2327.000
 70
    32
  0
VERTEX
  8
2900LEVEL
 62
5
 10
2473.640
 20
-3939.885
 30
2327.000
 70
    32
  0
SEQEND
  8
2900LEVEL
  0
POLYLINE
  8
2900LEVEL
 62
5
 66
     1
 70
     9
  0
VERTEX
  8
2900LEVEL
 62
5
 10
2706.591
 20
-4124.277
 30
2327.000
 70
    32
  0
VERTEX
  8
2900LEVEL
 62
5
 10
2708.067
 20
-4128.145
 30
2327.000
 70
    32
  0
VERTEX
  8
2900LEVEL
 62
5
 10
2710.087
 20
-4130.783
 30
2327.000
 70
    32
  0
VERTEX
  8
2900LEVEL
 62
5
 10
2711.912
 20
-4135.078
 30
2327.000
 70
    32
  0
VERTEX
  8
2900LEVEL
 62
5
 10
2711.904
 20
-4139.000
 30
2327.000
 70
    32
  0
VERTEX
  8
2900LEVEL
 62
5
 10
2712.334
 20
-4141.585
 30
2327.000
 70
    32
  0
VERTEX
  8
2900LEVEL
 62
5
 10
2696.379
 20
-4152.855
 30
2327.000
 70
    32
  0
VERTEX
  8
2900LEVEL
 62
5
 10
2696.599
 20
-4149.006
 30
2327.000
 70
    32
  0
VERTEX
  8
2900LEVEL
 62
5
 10
2694.421
 20
-4141.491
 30
2327.000
 70
    32
  0
VERTEX
  8
2900LEVEL
 62
5
 10
2693.390
 20
-4135.720
 30
2327.000
 70
    32
  0
VERTEX
  8
2900LEVEL
 62
5
 10
2693.265
 20
-4134.234
 30
2327.000
 70
    32
  0
SEQEND
  8
2900LEVEL
  0
POLYLINE
  8
2900LEVEL
 62
5
 66
     1
 70
     9
  0
VERTEX
  8
2900LEVEL
 62
5
 10
2686.145
 20
-4139.031
 30
2327.000
 70
    32
  0
VERTEX
  8
2900LEVEL
 62
5
 10
2687.287
 20
-4147.489
 30
2327.000
 70
    32
  0
VERTEX
  8
2900LEVEL
 62
5
 10
2688.649
 20
-4155.242
 30
2327.000
 70
    32
  0
VERTEX
  8
2900LEVEL
 62
5
 10
2689.361
 20
-4157.971
 30
2327.000
 70
    32
  0
VERTEX
  8
2900LEVEL
 62
5
 10
2661.504
 20
-4178.225
 30
2327.000
 70
    32
  0
VERTEX
  8
2900LEVEL
 62
5
 10
2659.051
 20
-4173.215
 30
2327.000
 70
    32
  0
VERTEX
  8
2900LEVEL
 62
5
 10
2657.575
 20
-4166.132
 30
2327.000
 70
    32
  0
VERTEX
  8
2900LEVEL
 62
5
 10
2656.935
 20
-4163.333
 30
2327.000
 70
    32
  0
VERTEX
  8
2900LEVEL
 62
5
 10
2656.405
 20
-4160.147
 30
2327.000
 70
    32
  0
SEQEND
  8
2900LEVEL
  0
POLYLINE
  8
2900LEVEL
 62
5
 66
     1
 70
     9
  0
VERTEX
  8
2900LEVEL
 62
5
 10
2654.838
 20
-4161.261
 30
2327.000
 70
    32
  0
VERTEX
  8
2900LEVEL
 62
5
 10
2656.096
 20
-4165.691
 30
2327.000
 70
    32
  0
VERTEX
  8
2900LEVEL
 62
5
 10
2657.176
 20
-4173.442
 30
2327.000
 70
    32
  0
VERTEX
  8
2900LEVEL
 62
5
 10
2658.755
 20
-4180.703
 30
2327.000
 70
    32
  0
VERTEX
  8
2900LEVEL
 62
5
 10
2643.476
 20
-4191.592
 30
2327.000
 70
    32
  0
VERTEX
  8
2900LEVEL
 62
5
 10
2641.511
 20
-4184.008
 30
2327.000
 70
    32
  0
VERTEX
  8
2900LEVEL
 62
5
 10
2640.766
 20
-4177.887
 30
2327.000
 70
    32
  0
VERTEX
  8
2900LEVEL
 62
5
 10
2640.027
 20
-4174.487
 30
2327.000
 70
    32
  0
VERTEX
  8
2900LEVEL
 62
5
 10
2639.248
 20
-4171.475
 30
2327.000
 70
    32
  0
SEQEND
  8
2900LEVEL
  0
POLYLINE
  8
2900LEVEL
 62
5
 66
     1
 70
     9
  0
VERTEX
  8
2900LEVEL
 62
5
 10
2634.952
 20
-4173.300
 30
2327.000
 70
    32
  0
VERTEX
  8
2900LEVEL
 62
5
 10
2637.343
 20
-4180.676
 30
2327.000
 70
    32
  0
VERTEX
  8
2900LEVEL
 62
5
 10
2638.454
 20
-4185.670
 30
2327.000
 70
    32
  0
VERTEX
  8
2900LEVEL
 62
5
 10
2639.448
 20
-4188.402
 30
2327.000
 70
    32
  0
VERTEX
  8
2900LEVEL
 62
5
 10
2640.186
 20
-4191.873
 30
2327.000
 70
    32
  0
VERTEX
  8
2900LEVEL
 62
5
 10
2624.300
 20
-4203.286
 30
2327.000
 70
    32
  0
VERTEX
  8
2900LEVEL
 62
5
 10
2622.268
 20
-4195.419
 30
2327.000
 70
    32
  0
VERTEX
  8
2900LEVEL
 62
5
 10
2620.737
 20
-4190.137
 30
2327.000
 70
    32
  0
VERTEX
  8
2900LEVEL
 62
5
 10
2619.483
 20
-4185.353
 30
2327.000
 70
    32
  0
SEQEND
  8
2900LEVEL
  0
POLYLINE
  8
2900LEVEL
 62
5
 66
     1
 70
     9
  0
VERTEX
  8
2900LEVEL
 62
5
 10
2619.108
 20
-4212.627
 30
2327.000
 70
    32
  0
VERTEX
  8
2900LEVEL
 62
5
 10
2618.700
 20
-4207.993
 30
2327.000
 70
    32
  0
VERTEX
  8
2900LEVEL
 62
5
 10
2618.385
 20
-4204.527
 30
2327.000
 70
    32
  0
VERTEX
  8
2900LEVEL
 62
5
 10
2616.638
 20
-4202.812
 30
2327.000
 70
    32
  0
VERTEX
  8
2900LEVEL
 62
5
 10
2610.420
 20
-4202.742
 30
2327.000
 70
    32
  0
VERTEX
  8
2900LEVEL
 62
5
 10
2604.846
 20
-4201.903
 30
2327.000
 70
    32
  0
VERTEX
  8
2900LEVEL
 62
5
 10
2602.557
 20
-4201.277
 30
2327.000
 70
    32
  0
VERTEX
  8
2900LEVEL
 62
5
 10
2600.158
 20
-4200.896
 30
2327.000
 70
    32
  0
VERTEX
  8
2900LEVEL
 62
5
 10
2599.379
 20
-4201.029
 30
2327.000
 70
    32
  0
VERTEX
  8
2900LEVEL
 62
5
 10
2599.283
 20
-4203.360
 30
2327.000
 70
    32
  0
VERTEX
  8
2900LEVEL
 62
5
 10
2600.144
 20
-4208.528
 30
2327.000
 70
    32
  0
VERTEX
  8
2900LEVEL
 62
5
 10
2600.947
 20
-4215.710
 30
2327.000
 70
    32
  0
VERTEX
  8
2900LEVEL
 62
5
 10
2601.359
 20
-4219.920
 30
2327.000
 70
    32
  0
VERTEX
  8
2900LEVEL
 62
5
 10
2602.036
 20
-4222.613
 30
2327.000
 70
    32
  0
SEQEND
  8
2900LEVEL
  0
POLYLINE
  8
2900LEVEL
 62
5
 66
     1
 70
     9
  0
VERTEX
  8
2900LEVEL
 62
5
 10
2810.019
 20
-4025.647
 30
2327.000
 70
    32
  0
VERTEX
  8
2900LEVEL
 62
5
 10
2809.696
 20
-4038.752
 30
2327.000
 70
    32
  0
VERTEX
  8
2900LEVEL
 62
5
 10
2810.814
 20
-4046.256
 30
2327.000
 70
    32
  0
VERTEX
  8
2900LEVEL
 62
5
 10
2811.461
 20
-4054.778
 30
2327.000
 70
    32
  0
VERTEX
  8
2900LEVEL
 62
5
 10
2811.495
 20
-4061.245
 30
2327.000
 70
    32
  0
VERTEX
  8
2900LEVEL
 62
5
 10
2809.239
 20
-4063.870
 30
2327.000
 70
    32
  0
VERTEX
  8
2900LEVEL
 62
5
 10
2808.340
 20
-4068.453
 30
2327.000
 70
    32
  0
VERTEX
  8
2900LEVEL
 62
5
 10
2808.734
 20
-4080.648
 30
2327.000
 70
    32
  0
VERTEX
  8
2900LEVEL
 62
5
 10
2810.290
 20
-4093.244
 30
2327.000
 70
    32
  0
VERTEX
  8
2900LEVEL
 62
5
 10
2813.480
 20
-4108.156
 30
2327.000
 70
    32
  0
VERTEX
  8
2900LEVEL
 62
5
 10
2815.838
 20
-4121.715
 30
2327.000
 70
    32
  0
VERTEX
  8
2900LEVEL
 62
5
 10
2819.180
 20
-4141.999
 30
2327.000
 70
    32
  0
VERTEX
  8
2900LEVEL
 62
5
 10
2822.449
 20
-4156.275
 30
2327.000
 70
    32
  0
VERTEX
  8
2900LEVEL
 62
5
 10
2826.871
 20
-4171.589
 30
2327.000
 70
    32
  0
VERTEX
  8
2900LEVEL
 62
5
 10
2831.858
 20
-4190.195
 30
2327.000
 70
    32
  0
VERTEX
  8
2900LEVEL
 62
5
 10
2836.718
 20
-4201.096
 30
2327.000
 70
    32
  0
VERTEX
  8
2900LEVEL
 62
5
 10
2841.149
 20
-4212.559
 30
2327.000
 70
    32
  0
VERTEX
  8
2900LEVEL
 62
5
 10
2845.620
 20
-4223.492
 30
2327.000
 70
    32
  0
VERTEX
  8
2900LEVEL
 62
5
 10
2850.967
 20
-4235.105
 30
2327.000
 70
    32
  0
VERTEX
  8
2900LEVEL
 62
5
 10
2854.373
 20
-4243.376
 30
2327.000
 70
    32
  0
VERTEX
  8
2900LEVEL
 62
5
 10
2857.814
 20
-4254.828
 30
2327.000
 70
    32
  0
VERTEX
  8
2900LEVEL
 62
5
 10
2859.258
 20
-4261.593
 30
2327.000
 70
    32
  0
VERTEX
  8
2900LEVEL
 62
5
 10
2859.310
 20
-4269.649
 30
2327.000
 70
    32
  0
VERTEX
  8
2900LEVEL
 62
5
 10
2859.418
 20
-4275.763
 30
2327.000
 70
    32
  0
VERTEX
  8
2900LEVEL
 62
5
 10
2859.642
 20
-4287.355
 30
2327.000
 70
    32
  0
VERTEX
  8
2900LEVEL
 62
5
 10
2861.671
 20
-4301.865
 30
2327.000
 70
    32
  0
VERTEX
  8
2900LEVEL
 62
5
 10
2863.485
 20
-4313.510
 30
2327.000
 70
    32
  0
VERTEX
  8
2900LEVEL
 62
5
 10
2866.012
 20
-4324.527
 30
2327.000
 70
    32
  0
VERTEX
  8
2900LEVEL
 62
5
 10
2869.667
 20
-4342.129
 30
2327.000
 70
    32
  0
VERTEX
  8
2900LEVEL
 62
5
 10
2872.457
 20
-4354.987
 30
2327.000
 70
    32
  0
VERTEX
  8
2900LEVEL
 62
5
 10
2875.192
 20
-4372.649
 30
2327.000
 70
    32
  0
VERTEX
  8
2900LEVEL
 62
5
 10
2877.454
 20
-4382.108
 30
2327.000
 70
    32
  0
VERTEX
  8
2900LEVEL
 62
5
 10
2881.016
 20
-4398.614
 30
2327.000
 70
    32
  0
VERTEX
  8
2900LEVEL
 62
5
 10
2883.423
 20
-4410.866
 30
2327.000
 70
    32
  0
VERTEX
  8
2900LEVEL
 62
5
 10
2885.106
 20
-4418.376
 30
2327.000
 70
    32
  0
VERTEX
  8
2900LEVEL
 62
5
 10
2887.256
 20
-4428.364
 30
2327.000
 70
    32
  0
VERTEX
  8
2900LEVEL
 62
5
 10
2888.083
 20
-4436.571
 30
2327.000
 70
    32
  0
VERTEX
  8
2900LEVEL
 62
5
 10
2887.472
 20
-4440.663
 30
2327.000
 70
    32
  0
VERTEX
  8
2900LEVEL
 62
5
 10
2884.550
 20
-4446.036
 30
2327.000
 70
    32
  0
VERTEX
  8
2900LEVEL
 62
5
 10
2877.130
 20
-4449.169
 30
2327.000
 70
    32
  0
VERTEX
  8
2900LEVEL
 62
5
 10
2869.135
 20
-4450.069
 30
2327.000
 70
    32
  0
VERTEX
  8
2900LEVEL
 62
5
 10
2862.199
 20
-4441.476
 30
2327.000
 70
    32
  0
VERTEX
  8
2900LEVEL
 62
5
 10
2857.800
 20
-4430.403
 30
2327.000
 70
    32
  0
VERTEX
  8
2900LEVEL
 62
5
 10
2851.764
 20
-4407.651
 30
2327.000
 70
    32
  0
VERTEX
  8
2900LEVEL
 62
5
 10
2848.500
 20
-4383.517
 30
2327.000
 70
    32
  0
VERTEX
  8
2900LEVEL
 62
5
 10
2842.955
 20
-4357.908
 30
2327.000
 70
    32
  0
VERTEX
  8
2900LEVEL
 62
5
 10
2838.481
 20
-4337.753
 30
2327.000
 70
    32
  0
VERTEX
  8
2900LEVEL
 62
5
 10
2834.672
 20
-4318.065
 30
2327.000
 70
    32
  0
VERTEX
  8
2900LEVEL
 62
5
 10
2832.582
 20
-4302.707
 30
2327.000
 70
    32
  0
VERTEX
  8
2900LEVEL
 62
5
 10
2829.626
 20
-4279.389
 30
2327.000
 70
    32
  0
VERTEX
  8
2900LEVEL
 62
5
 10
2825.879
 20
-4263.694
 30
2327.000
 70
    32
  0
VERTEX
  8
2900LEVEL
 62
5
 10
2818.226
 20
-4240.217
 30
2327.000
 70
    32
  0
VERTEX
  8
2900LEVEL
 62
5
 10
2811.355
 20
-4219.541
 30
2327.000
 70
    32
  0
VERTEX
  8
2900LEVEL
 62
5
 10
2803.511
 20
-4191.009
 30
2327.000
 70
    32
  0
VERTEX
  8
2900LEVEL
 62
5
 10
2799.005
 20
-4170.465
 30
2327.000
 70
    32
  0
VERTEX
  8
2900LEVEL
 62
5
 10
2793.934
 20
-4140.410
 30
2327.000
 70
    32
  0
VERTEX
  8
2900LEVEL
 62
5
 10
2790.963
 20
-4121.650
 30
2327.000
 70
    32
  0
VERTEX
  8
2900LEVEL
 62
5
 10
2786.463
 20
-4094.251
 30
2327.000
 70
    32
  0
VERTEX
  8
2900LEVEL
 62
5
 10
2785.400
 20
-4078.727
 30
2327.000
 70
    32
  0
VERTEX
  8
2900LEVEL
 62
5
 10
2784.676
 20
-4054.904
 30
2327.000
 70
    32
  0
VERTEX
  8
2900LEVEL
 62
5
 10
2783.516
 20
-4041.711
 30
2327.000
 70
    32
  0
VERTEX
  8
2900LEVEL
 62
5
 10
2781.570
 20
-4029.217
 30
2327.000
 70
    32
  0
VERTEX
  8
2900LEVEL
 62
5
 10
2780.852
 20
-4023.908
 30
2327.000
 70
    32
  0
SEQEND
  8
2900LEVEL
  0
POLYLINE
  8
2900LEVEL
 62
5
 66
     1
 70
     9
  0
VERTEX
  8
2900LEVEL
 62
5
 10
2818.660
 20
-4546.675
 30
2327.000
 70
    32
  0
VERTEX
  8
2900LEVEL
 62
5
 10
2808.764
 20
-4527.909
 30
2327.000
 70
    32
  0
VERTEX
  8
2900LEVEL
 62
5
 10
2801.137
 20
-4511.605
 30
2327.000
 70
    32
  0
VERTEX
  8
2900LEVEL
 62
5
 10
2794.410
 20
-4497.008
 30
2327.000
 70
    32
  0
VERTEX
  8
2900LEVEL
 62
5
 10
2788.476
 20
-4484.080
 30
2327.000
 70
    32
  0
VERTEX
  8
2900LEVEL
 62
5
 10
2778.887
 20
-4459.981
 30
2327.000
 70
    32
  0
VERTEX
  8
2900LEVEL
 62
5
 10
2775.858
 20
-4436.874
 30
2327.000
 70
    32
  0
VERTEX
  8
2900LEVEL
 62
5
 10
2774.113
 20
-4419.152
 30
2327.000
 70
    32
  0
VERTEX
  8
2900LEVEL
 62
5
 10
2771.595
 20
-4394.638
 30
2327.000
 70
    32
  0
VERTEX
  8
2900LEVEL
 62
5
 10
2771.050
 20
-4376.929
 30
2327.000
 70
    32
  0
VERTEX
  8
2900LEVEL
 62
5
 10
2771.054
 20
-4363.926
 30
2327.000
 70
    32
  0
VERTEX
  8
2900LEVEL
 62
5
 10
2769.053
 20
-4346.873
 30
2327.000
 70
    32
  0
VERTEX
  8
2900LEVEL
 62
5
 10
2768.700
 20
-4331.004
 30
2327.000
 70
    32
  0
VERTEX
  8
2900LEVEL
 62
5
 10
2768.497
 20
-4317.574
 30
2327.000
 70
    32
  0
VERTEX
  8
2900LEVEL
 62
5
 10
2768.158
 20
-4303.578
 30
2327.000
 70
    32
  0
VERTEX
  8
2900LEVEL
 62
5
 10
2765.263
 20
-4281.179
 30
2327.000
 70
    32
  0
VERTEX
  8
2900LEVEL
 62
5
 10
2762.900
 20
-4268.115
 30
2327.000
 70
    32
  0
VERTEX
  8
2900LEVEL
 62
5
 10
2759.811
 20
-4244.088
 30
2327.000
 70
    32
  0
VERTEX
  8
2900LEVEL
 62
5
 10
2757.759
 20
-4228.483
 30
2327.000
 70
    32
  0
VERTEX
  8
2900LEVEL
 62
5
 10
2755.898
 20
-4211.573
 30
2327.000
 70
    32
  0
VERTEX
  8
2900LEVEL
 62
5
 10
2752.774
 20
-4187.581
 30
2327.000
 70
    32
  0
VERTEX
  8
2900LEVEL
 62
5
 10
2749.955
 20
-4171.049
 30
2327.000
 70
    32
  0
VERTEX
  8
2900LEVEL
 62
5
 10
2747.659
 20
-4148.763
 30
2327.000
 70
    32
  0
VERTEX
  8
2900LEVEL
 62
5
 10
2746.526
 20
-4136.312
 30
2327.000
 70
    32
  0
VERTEX
  8
2900LEVEL
 62
5
 10
2743.686
 20
-4121.617
 30
2327.000
 70
    32
  0
VERTEX
  8
2900LEVEL
 62
5
 10
2741.243
 20
-4112.615
 30
2327.000
 70
    32
  0
VERTEX
  8
2900LEVEL
 62
5
 10
2741.237
 20
-4109.965
 30
2327.000
 70
    32
  0
VERTEX
  8
2900LEVEL
 62
5
 10
2742.854
 20
-4110.689
 30
2327.000
 70
    32
  0
VERTEX
  8
2900LEVEL
 62
5
 10
2745.091
 20
-4112.905
 30
2327.000
 70
    32
  0
VERTEX
  8
2900LEVEL
 62
5
 10
2746.496
 20
-4113.627
 30
2327.000
 70
    32
  0
VERTEX
  8
2900LEVEL
 62
5
 10
2747.579
 20
-4111.590
 30
2327.000
 70
    32
  0
VERTEX
  8
2900LEVEL
 62
5
 10
2748.339
 20
-4106.793
 30
2327.000
 70
    32
  0
VERTEX
  8
2900LEVEL
 62
5
 10
2747.021
 20
-4098.298
 30
2327.000
 70
    32
  0
VERTEX
  8
2900LEVEL
 62
5
 10
2745.164
 20
-4080.964
 30
2327.000
 70
    32
  0
VERTEX
  8
2900LEVEL
 62
5
 10
2744.611
 20
-4070.393
 30
2327.000
 70
    32
  0
VERTEX
  8
2900LEVEL
 62
5
 10
2743.576
 20
-4061.830
 30
2327.000
 70
    32
  0
VERTEX
  8
2900LEVEL
 62
5
 10
2743.826
 20
-4058.441
 30
2327.000
 70
    32
  0
VERTEX
  8
2900LEVEL
 62
5
 10
2754.879
 20
-4059.024
 30
2327.000
 70
    32
  0
VERTEX
  8
2900LEVEL
 62
5
 10
2754.451
 20
-4065.662
 30
2327.000
 70
    32
  0
VERTEX
  8
2900LEVEL
 62
5
 10
2755.852
 20
-4079.458
 30
2327.000
 70
    32
  0
VERTEX
  8
2900LEVEL
 62
5
 10
2756.698
 20
-4089.184
 30
2327.000
 70
    32
  0
VERTEX
  8
2900LEVEL
 62
5
 10
2757.845
 20
-4094.002
 30
2327.000
 70
    32
  0
VERTEX
  8
2900LEVEL
 62
5
 10
2757.950
 20
-4097.254
 30
2327.000
 70
    32
  0
VERTEX
  8
2900LEVEL
 62
5
 10
2758.127
 20
-4100.436
 30
2327.000
 70
    32
  0
VERTEX
  8
2900LEVEL
 62
5
 10
2758.144
 20
-4102.097
 30
2327.000
 70
    32
  0
VERTEX
  8
2900LEVEL
 62
5
 10
2757.472
 20
-4102.125
 30
2327.000
 70
    32
  0
VERTEX
  8
2900LEVEL
 62
5
 10
2756.709
 20
-4100.844
 30
2327.000
 70
    32
  0
VERTEX
  8
2900LEVEL
 62
5
 10
2755.718
 20
-4100.975
 30
2327.000
 70
    32
  0
VERTEX
  8
2900LEVEL
 62
5
 10
2755.180
 20
-4101.711
 30
2327.000
 70
    32
  0
VERTEX
  8
2900LEVEL
 62
5
 10
2754.189
 20
-4101.841
 30
2327.000
 70
    32
  0
VERTEX
  8
2900LEVEL
 62
5
 10
2753.788
 20
-4102.932
 30
2327.000
 70
    32
  0
VERTEX
  8
2900LEVEL
 62
5
 10
2755.628
 20
-4109.030
 30
2327.000
 70
    32
  0
VERTEX
  8
2900LEVEL
 62
5
 10
2757.096
 20
-4116.820
 30
2327.000
 70
    32
  0
VERTEX
  8
2900LEVEL
 62
5
 10
2760.202
 20
-4126.642
 30
2327.000
 70
    32
  0
VERTEX
  8
2900LEVEL
 62
5
 10
2761.958
 20
-4133.940
 30
2327.000
 70
    32
  0
VERTEX
  8
2900LEVEL
 62
5
 10
2762.009
 20
-4148.428
 30
2327.000
 70
    32
  0
VERTEX
  8
2900LEVEL
 62
5
 10
2762.469
 20
-4164.192
 30
2327.000
 70
    32
  0
VERTEX
  8
2900LEVEL
 62
5
 10
2762.742
 20
-4187.198
 30
2327.000
 70
    32
  0
VERTEX
  8
2900LEVEL
 62
5
 10
2764.057
 20
-4202.406
 30
2327.000
 70
    32
  0
VERTEX
  8
2900LEVEL
 62
5
 10
2766.654
 20
-4229.289
 30
2327.000
 70
    32
  0
VERTEX
  8
2900LEVEL
 62
5
 10
2769.127
 20
-4245.182
 30
2327.000
 70
    32
  0
VERTEX
  8
2900LEVEL
 62
5
 10
2770.888
 20
-4261.561
 30
2327.000
 70
    32
  0
VERTEX
  8
2900LEVEL
 62
5
 10
2773.455
 20
-4272.190
 30
2327.000
 70
    32
  0
VERTEX
  8
2900LEVEL
 62
5
 10
2777.183
 20
-4289.581
 30
2327.000
 70
    32
  0
VERTEX
  8
2900LEVEL
 62
5
 10
2779.613
 20
-4299.784
 30
2327.000
 70
    32
  0
VERTEX
  8
2900LEVEL
 62
5
 10
2783.423
 20
-4316.186
 30
2327.000
 70
    32
  0
VERTEX
  8
2900LEVEL
 62
5
 10
2787.704
 20
-4331.498
 30
2327.000
 70
    32
  0
VERTEX
  8
2900LEVEL
 62
5
 10
2790.051
 20
-4342.831
 30
2327.000
 70
    32
  0
VERTEX
  8
2900LEVEL
 62
5
 10
2792.057
 20
-4359.390
 30
2327.000
 70
    32
  0
VERTEX
  8
2900LEVEL
 62
5
 10
2793.309
 20
-4373.891
 30
2327.000
 70
    32
  0
VERTEX
  8
2900LEVEL
 62
5
 10
2794.592
 20
-4385.636
 30
2327.000
 70
    32
  0
VERTEX
  8
2900LEVEL
 62
5
 10
2795.152
 20
-4401.932
 30
2327.000
 70
    32
  0
VERTEX
  8
2900LEVEL
 62
5
 10
2795.854
 20
-4411.798
 30
2327.000
 70
    32
  0
VERTEX
  8
2900LEVEL
 62
5
 10
2796.559
 20
-4424.667
 30
2327.000
 70
    32
  0
VERTEX
  8
2900LEVEL
 62
5
 10
2797.545
 20
-4437.681
 30
2327.000
 70
    32
  0
VERTEX
  8
2900LEVEL
 62
5
 10
2797.898
 20
-4447.190
 30
2327.000
 70
    32
  0
VERTEX
  8
2900LEVEL
 62
5
 10
2798.552
 20
-4461.366
 30
2327.000
 70
    32
  0
VERTEX
  8
2900LEVEL
 62
5
 10
2800.223
 20
-4473.151
 30
2327.000
 70
    32
  0
VERTEX
  8
2900LEVEL
 62
5
 10
2805.427
 20
-4491.265
 30
2327.000
 70
    32
  0
VERTEX
  8
2900LEVEL
 62
5
 10
2814.900
 20
-4509.957
 30
2327.000
 70
    32
  0
VERTEX
  8
2900LEVEL
 62
5
 10
2823.192
 20
-4523.723
 30
2327.000
 70
    32
  0
VERTEX
  8
2900LEVEL
 62
5
 10
2829.120
 20
-4533.930
 30
2327.000
 70
    32
  0
VERTEX
  8
2900LEVEL
 62
5
 10
2832.308
 20
-4539.549
 30
2327.000
 70
    32
  0
VERTEX
  8
2900LEVEL
 62
5
 10
2834.314
 20
-4543.458
 30
2327.000
 70
    32
  0
SEQEND
  8
2900LEVEL
  0
POLYLINE
  8
2900LEVEL
 62
7
 66
     1
 70
     8
  0
VERTEX
  8
2900LEVEL
 62
7
 10
2914.804
 20
-4411.681
 30
2327.000
 70
    32
  0
VERTEX
  8
2900LEVEL
 62
7
 10
2915.274
 20
-4412.705
 30
2327.000
 70
    32
  0
VERTEX
  8
2900LEVEL
 62
7
 10
2916.806
 20
-4414.701
 30
2327.000
 70
    32
  0
VERTEX
  8
2900LEVEL
 62
7
 10
2919.631
 20
-4418.019
 30
2327.000
 70
    32
  0
VERTEX
  8
2900LEVEL
 62
7
 10
2923.870
 20
-4424.497
 30
2327.000
 70
    32
  0
VERTEX
  8
2900LEVEL
 62
7
 10
2930.725
 20
-4434.008
 30
2327.000
 70
    32
  0
VERTEX
  8
2900LEVEL
 62
7
 10
2937.267
 20
-4442.985
 30
2327.000
 70
    32
  0
VERTEX
  8
2900LEVEL
 62
7
 10
2944.673
 20
-4453.774
 30
2327.000
 70
    32
  0
VERTEX
  8
2900LEVEL
 62
7
 10
2950.570
 20
-4463.662
 30
2327.000
 70
    32
  0
VERTEX
  8
2900LEVEL
 62
7
 10
2959.969
 20
-4473.131
 30
2327.000
 70
    32
  0
VERTEX
  8
2900LEVEL
 62
7
 10
2965.009
 20
-4477.427
 30
2327.000
 70
    32
  0
VERTEX
  8
2900LEVEL
 62
7
 10
2972.680
 20
-4486.699
 30
2327.000
 70
    32
  0
VERTEX
  8
2900LEVEL
 62
7
 10
2981.343
 20
-4498.774
 30
2327.000
 70
    32
  0
VERTEX
  8
2900LEVEL
 62
7
 10
2984.928
 20
-4506.870
 30
2327.000
 70
    32
  0
VERTEX
  8
2900LEVEL
 62
7
 10
2992.949
 20
-4519.504
 30
2327.000
 70
    32
  0
VERTEX
  8
2900LEVEL
 62
7
 10
3005.167
 20
-4536.000
 30
2327.000
 70
    32
  0
VERTEX
  8
2900LEVEL
 62
7
 10
3013.849
 20
-4546.449
 30
2327.000
 70
    32
  0
VERTEX
  8
2900LEVEL
 62
7
 10
3025.660
 20
-4558.241
 30
2327.000
 70
    32
  0
VERTEX
  8
2900LEVEL
 62
7
 10
3032.693
 20
-4564.503
 30
2327.000
 70
    32
  0
VERTEX
  8
2900LEVEL
 62
7
 10
3036.686
 20
-4564.442
 30
2327.000
 70
    32
  0
VERTEX
  8
2900LEVEL
 62
7
 10
3038.348
 20
-4561.210
 30
2327.000
 70
    32
  0
VERTEX
  8
2900LEVEL
 62
7
 10
3038.345
 20
-4558.277
 30
2327.000
 70
    32
  0
VERTEX
  8
2900LEVEL
 62
7
 10
3038.739
 20
-4557.751
 30
2327.000
 70
    32
  0
VERTEX
  8
2900LEVEL
 62
7
 10
3039.401
 20
-4558.642
 30
2327.000
 70
    32
  0
VERTEX
  8
2900LEVEL
 62
7
 10
3041.838
 20
-4561.920
 30
2327.000
 70
    32
  0
VERTEX
  8
2900LEVEL
 62
7
 10
3046.441
 20
-4567.413
 30
2327.000
 70
    32
  0
VERTEX
  8
2900LEVEL
 62
7
 10
3049.238
 20
-4573.203
 30
2327.000
 70
    32
  0
VERTEX
  8
2900LEVEL
 62
7
 10
3052.048
 20
-4577.863
 30
2327.000
 70
    32
  0
VERTEX
  8
2900LEVEL
 62
7
 10
3053.431
 20
-4580.564
 30
2327.000
 70
    32
  0
VERTEX
  8
2900LEVEL
 62
7
 10
3053.952
 20
-4581.383
 30
2327.000
 70
    32
  0
VERTEX
  8
2900LEVEL
 62
7
 10
3054.708
 20
-4580.154
 30
2327.000
 70
    32
  0
VERTEX
  8
2900LEVEL
 62
7
 10
3055.004
 20
-4578.956
 30
2327.000
 70
    32
  0
VERTEX
  8
2900LEVEL
 62
7
 10
3055.434
 20
-4578.396
 30
2327.000
 70
    32
  0
VERTEX
  8
2900LEVEL
 62
7
 10
3057.881
 20
-4580.826
 30
2327.000
 70
    32
  0
VERTEX
  8
2900LEVEL
 62
7
 10
3059.739
 20
-4582.083
 30
2327.000
 70
    32
  0
VERTEX
  8
2900LEVEL
 62
7
 10
3061.223
 20
-4582.100
 30
2327.000
 70
    32
  0
VERTEX
  8
2900LEVEL
 62
7
 10
3062.011
 20
-4581.190
 30
2327.000
 70
    32
  0
VERTEX
  8
2900LEVEL
 62
7
 10
3063.208
 20
-4581.557
 30
2327.000
 70
    32
  0
VERTEX
  8
2900LEVEL
 62
7
 10
3065.765
 20
-4583.528
 30
2327.000
 70
    32
  0
VERTEX
  8
2900LEVEL
 62
7
 10
3069.388
 20
-4588.162
 30
2327.000
 70
    32
  0
VERTEX
  8
2900LEVEL
 62
7
 10
3071.049
 20
-4591.361
 30
2327.000
 70
    32
  0
VERTEX
  8
2900LEVEL
 62
7
 10
3073.627
 20
-4594.640
 30
2327.000
 70
    32
  0
VERTEX
  8
2900LEVEL
 62
7
 10
3076.209
 20
-4597.567
 30
2327.000
 70
    32
  0
VERTEX
  8
2900LEVEL
 62
7
 10
3080.627
 20
-4603.799
 30
2327.000
 70
    32
  0
VERTEX
  8
2900LEVEL
 62
7
 10
3083.324
 20
-4609.130
 30
2327.000
 70
    32
  0
VERTEX
  8
2900LEVEL
 62
7
 10
3087.035
 20
-4612.210
 30
2327.000
 70
    32
  0
VERTEX
  8
2900LEVEL
 62
7
 10
3088.931
 20
-4613.291
 30
2327.000
 70
    32
  0
VERTEX
  8
2900LEVEL
 62
7
 10
3090.531
 20
-4615.499
 30
2327.000
 70
    32
  0
VERTEX
  8
2900LEVEL
 62
7
 10
3092.806
 20
-4620.684
 30
2327.000
 70
    32
  0
VERTEX
  8
2900LEVEL
 62
7
 10
3097.793
 20
-4626.569
 30
2327.000
 70
    32
  0
VERTEX
  8
2900LEVEL
 62
7
 10
3100.712
 20
-4627.768
 30
2327.000
 70
    32
  0
VERTEX
  8
2900LEVEL
 62
7
 10
3101.603
 20
-4627.106
 30
2327.000
 70
    32
  0
VERTEX
  8
2900LEVEL
 62
7
 10
3101.756
 20
-4622.903
 30
2327.000
 70
    32
  0
VERTEX
  8
2900LEVEL
 62
7
 10
3101.470
 20
-4620.038
 30
2327.000
 70
    32
  0
VERTEX
  8
2900LEVEL
 62
7
 10
3100.863
 20
-4614.272
 30
2327.000
 70
    32
  0
VERTEX
  8
2900LEVEL
 62
7
 10
3100.511
 20
-4607.767
 30
2327.000
 70
    32
  0
VERTEX
  8
2900LEVEL
 62
7
 10
3101.168
 20
-4605.936
 30
2327.000
 70
    32
  0
VERTEX
  8
2900LEVEL
 62
7
 10
3103.396
 20
-4605.714
 30
2327.000
 70
    32
  0
VERTEX
  8
2900LEVEL
 62
7
 10
3104.694
 20
-4606.541
 30
2327.000
 70
    32
  0
VERTEX
  8
2900LEVEL
 62
7
 10
3108.489
 20
-4611.636
 30
2327.000
 70
    32
  0
VERTEX
  8
2900LEVEL
 62
7
 10
3113.027
 20
-4616.563
 30
2327.000
 70
    32
  0
VERTEX
  8
2900LEVEL
 62
7
 10
3117.893
 20
-4620.681
 30
2327.000
 70
    32
  0
VERTEX
  8
2900LEVEL
 62
7
 10
3119.863
 20
-4618.335
 30
2327.000
 70
    32
  0
VERTEX
  8
2900LEVEL
 62
7
 10
3119.550
 20
-4614.657
 30
2327.000
 70
    32
  0
VERTEX
  8
2900LEVEL
 62
7
 10
3119.653
 20
-4611.761
 30
2327.000
 70
    32
  0
VERTEX
  8
2900LEVEL
 62
7
 10
3120.812
 20
-4609.230
 30
2327.000
 70
    32
  0
VERTEX
  8
2900LEVEL
 62
7
 10
3119.698
 20
-4604.588
 30
2327.000
 70
    32
  0
VERTEX
  8
2900LEVEL
 62
7
 10
3113.880
 20
-4597.139
 30
2327.000
 70
    32
  0
VERTEX
  8
2900LEVEL
 62
7
 10
3113.465
 20
-4593.141
 30
2327.000
 70
    32
  0
VERTEX
  8
2900LEVEL
 62
7
 10
3114.602
 20
-4592.589
 30
2327.000
 70
    32
  0
VERTEX
  8
2900LEVEL
 62
7
 10
3115.772
 20
-4592.213
 30
2327.000
 70
    32
  0
VERTEX
  8
2900LEVEL
 62
7
 10
3115.576
 20
-4590.797
 30
2327.000
 70
    32
  0
VERTEX
  8
2900LEVEL
 62
7
 10
3112.927
 20
-4587.588
 30
2327.000
 70
    32
  0
VERTEX
  8
2900LEVEL
 62
7
 10
3110.248
 20
-4583.848
 30
2327.000
 70
    32
  0
VERTEX
  8
2900LEVEL
 62
7
 10
3107.849
 20
-4577.108
 30
2327.000
 70
    32
  0
VERTEX
  8
2900LEVEL
 62
7
 10
3106.577
 20
-4573.949
 30
2327.000
 70
    32
  0
VERTEX
  8
2900LEVEL
 62
7
 10
3104.193
 20
-4569.152
 30
2327.000
 70
    32
  0
VERTEX
  8
2900LEVEL
 62
7
 10
3101.560
 20
-4564.388
 30
2327.000
 70
    32
  0
VERTEX
  8
2900LEVEL
 62
7
 10
3099.524
 20
-4560.019
 30
2327.000
 70
    32
  0
VERTEX
  8
2900LEVEL
 62
7
 10
3099.714
 20
-4558.855
 30
2327.000
 70
    32
  0
VERTEX
  8
2900LEVEL
 62
7
 10
3100.865
 20
-4560.175
 30
2327.000
 70
    32
  0
VERTEX
  8
2900LEVEL
 62
7
 10
3102.606
 20
-4562.527
 30
2327.000
 70
    32
  0
VERTEX
  8
2900LEVEL
 62
7
 10
3105.694
 20
-4567.614
 30
2327.000
 70
    32
  0
VERTEX
  8
2900LEVEL
 62
7
 10
3109.747
 20
-4574.832
 30
2327.000
 70
    32
  0
VERTEX
  8
2900LEVEL
 62
7
 10
3113.423
 20
-4581.092
 30
2327.000
 70
    32
  0
VERTEX
  8
2900LEVEL
 62
7
 10
3117.834
 20
-4587.961
 30
2327.000
 70
    32
  0
VERTEX
  8
2900LEVEL
 62
7
 10
3119.824
 20
-4590.067
 30
2327.000
 70
    32
  0
VERTEX
  8
2900LEVEL
 62
7
 10
3120.891
 20
-4589.514
 30
2327.000
 70
    32
  0
VERTEX
  8
2900LEVEL
 62
7
 10
3121.527
 20
-4589.450
 30
2327.000
 70
    32
  0
VERTEX
  8
2900LEVEL
 62
7
 10
3123.654
 20
-4592.054
 30
2327.000
 70
    32
  0
VERTEX
  8
2900LEVEL
 62
7
 10
3124.599
 20
-4592.806
 30
2327.000
 70
    32
  0
VERTEX
  8
2900LEVEL
 62
7
 10
3124.713
 20
-4592.136
 30
2327.000
 70
    32
  0
VERTEX
  8
2900LEVEL
 62
7
 10
3123.061
 20
-4588.160
 30
2327.000
 70
    32
  0
VERTEX
  8
2900LEVEL
 62
7
 10
3119.430
 20
-4581.088
 30
2327.000
 70
    32
  0
VERTEX
  8
2900LEVEL
 62
7
 10
3114.579
 20
-4572.483
 30
2327.000
 70
    32
  0
VERTEX
  8
2900LEVEL
 62
7
 10
3108.522
 20
-4561.144
 30
2327.000
 70
    32
  0
VERTEX
  8
2900LEVEL
 62
7
 10
3105.711
 20
-4553.410
 30
2327.000
 70
    32
  0
VERTEX
  8
2900LEVEL
 62
7
 10
3103.993
 20
-4542.720
 30
2327.000
 70
    32
  0
VERTEX
  8
2900LEVEL
 62
7
 10
3101.912
 20
-4532.874
 30
2327.000
 70
    32
  0
VERTEX
  8
2900LEVEL
 62
7
 10
3102.054
 20
-4529.589
 30
2327.000
 70
    32
  0
VERTEX
  8
2900LEVEL
 62
7
 10
3103.879
 20
-4530.740
 30
2327.000
 70
    32
  0
VERTEX
  8
2900LEVEL
 62
7
 10
3106.146
 20
-4533.416
 30
2327.000
 70
    32
  0
VERTEX
  8
2900LEVEL
 62
7
 10
3107.539
 20
-4535.268
 30
2327.000
 70
    32
  0
VERTEX
  8
2900LEVEL
 62
7
 10
3107.412
 20
-4533.924
 30
2327.000
 70
    32
  0
VERTEX
  8
2900LEVEL
 62
7
 10
3106.214
 20
-4530.484
 30
2327.000
 70
    32
  0
VERTEX
  8
2900LEVEL
 62
7
 10
3104.105
 20
-4523.111
 30
2327.000
 70
    32
  0
VERTEX
  8
2900LEVEL
 62
7
 10
3104.343
 20
-4520.852
 30
2327.000
 70
    32
  0
VERTEX
  8
2900LEVEL
 62
7
 10
3105.991
 20
-4521.966
 30
2327.000
 70
    32
  0
VERTEX
  8
2900LEVEL
 62
7
 10
3109.678
 20
-4527.165
 30
2327.000
 70
    32
  0
VERTEX
  8
2900LEVEL
 62
7
 10
3114.493
 20
-4532.661
 30
2327.000
 70
    32
  0
VERTEX
  8
2900LEVEL
 62
7
 10
3118.272
 20
-4535.953
 30
2327.000
 70
    32
  0
VERTEX
  8
2900LEVEL
 62
7
 10
3123.488
 20
-4543.502
 30
2327.000
 70
    32
  0
VERTEX
  8
2900LEVEL
 62
7
 10
3126.328
 20
-4551.838
 30
2327.000
 70
    32
  0
VERTEX
  8
2900LEVEL
 62
7
 10
3130.474
 20
-4560.293
 30
2327.000
 70
    32
  0
VERTEX
  8
2900LEVEL
 62
7
 10
3132.007
 20
-4562.219
 30
2327.000
 70
    32
  0
VERTEX
  8
2900LEVEL
 62
7
 10
3133.605
 20
-4558.350
 30
2327.000
 70
    32
  0
VERTEX
  8
2900LEVEL
 62
7
 10
3135.261
 20
-4552.467
 30
2327.000
 70
    32
  0
VERTEX
  8
2900LEVEL
 62
7
 10
3137.349
 20
-4548.957
 30
2327.000
 70
    32
  0
VERTEX
  8
2900LEVEL
 62
7
 10
3142.494
 20
-4547.071
 30
2327.000
 70
    32
  0
VERTEX
  8
2900LEVEL
 62
7
 10
3147.079
 20
-4544.614
 30
2327.000
 70
    32
  0
VERTEX
  8
2900LEVEL
 62
7
 10
3149.359
 20
-4539.798
 30
2327.000
 70
    32
  0
VERTEX
  8
2900LEVEL
 62
7
 10
3150.554
 20
-4530.872
 30
2327.000
 70
    32
  0
VERTEX
  8
2900LEVEL
 62
7
 10
3154.348
 20
-4523.317
 30
2327.000
 70
    32
  0
VERTEX
  8
2900LEVEL
 62
7
 10
3158.085
 20
-4520.921
 30
2327.000
 70
    32
  0
VERTEX
  8
2900LEVEL
 62
7
 10
3161.834
 20
-4520.610
 30
2327.000
 70
    32
  0
VERTEX
  8
2900LEVEL
 62
7
 10
3166.205
 20
-4521.506
 30
2327.000
 70
    32
  0
VERTEX
  8
2900LEVEL
 62
7
 10
3168.491
 20
-4519.341
 30
2327.000
 70
    32
  0
VERTEX
  8
2900LEVEL
 62
7
 10
3171.194
 20
-4514.601
 30
2327.000
 70
    32
  0
VERTEX
  8
2900LEVEL
 62
7
 10
3172.725
 20
-4510.378
 30
2327.000
 70
    32
  0
VERTEX
  8
2900LEVEL
 62
7
 10
3175.167
 20
-4503.727
 30
2327.000
 70
    32
  0
VERTEX
  8
2900LEVEL
 62
7
 10
3177.336
 20
-4502.444
 30
2327.000
 70
    32
  0
VERTEX
  8
2900LEVEL
 62
7
 10
3178.194
 20
-4501.535
 30
2327.000
 70
    32
  0
VERTEX
  8
2900LEVEL
 62
7
 10
3183.385
 20
-4498.695
 30
2327.000
 70
    32
  0
VERTEX
  8
2900LEVEL
 62
7
 10
3186.784
 20
-4498.097
 30
2327.000
 70
    32
  0
VERTEX
  8
2900LEVEL
 62
7
 10
3189.627
 20
-4496.574
 30
2327.000
 70
    32
  0
VERTEX
  8
2900LEVEL
 62
7
 10
3192.441
 20
-4491.447
 30
2327.000
 70
    32
  0
VERTEX
  8
2900LEVEL
 62
7
 10
3193.206
 20
-4486.155
 30
2327.000
 70
    32
  0
VERTEX
  8
2900LEVEL
 62
7
 10
3194.287
 20
-4481.114
 30
2327.000
 70
    32
  0
VERTEX
  8
2900LEVEL
 62
7
 10
3195.145
 20
-4480.276
 30
2327.000
 70
    32
  0
VERTEX
  8
2900LEVEL
 62
7
 10
3197.358
 20
-4478.251
 30
2327.000
 70
    32
  0
VERTEX
  8
2900LEVEL
 62
7
 10
3199.466
 20
-4476.190
 30
2327.000
 70
    32
  0
VERTEX
  8
2900LEVEL
 62
7
 10
3200.850
 20
-4469.245
 30
2327.000
 70
    32
  0
VERTEX
  8
2900LEVEL
 62
7
 10
3199.179
 20
-4463.891
 30
2327.000
 70
    32
  0
VERTEX
  8
2900LEVEL
 62
7
 10
3197.336
 20
-4458.005
 30
2327.000
 70
    32
  0
VERTEX
  8
2900LEVEL
 62
7
 10
3197.407
 20
-4451.645
 30
2327.000
 70
    32
  0
VERTEX
  8
2900LEVEL
 62
7
 10
3199.455
 20
-4445.449
 30
2327.000
 70
    32
  0
VERTEX
  8
2900LEVEL
 62
7
 10
3201.998
 20
-4442.404
 30
2327.000
 70
    32
  0
VERTEX
  8
2900LEVEL
 62
7
 10
3204.841
 20
-4440.951
 30
2327.000
 70
    32
  0
VERTEX
  8
2900LEVEL
 62
7
 10
3207.739
 20
-4440.842
 30
2327.000
 70
    32
  0
VERTEX
  8
2900LEVEL
 62
7
 10
3213.500
 20
-4440.730
 30
2327.000
 70
    32
  0
VERTEX
  8
2900LEVEL
 62
7
 10
3218.072
 20
-4439.473
 30
2327.000
 70
    32
  0
VERTEX
  8
2900LEVEL
 62
7
 10
3219.929
 20
-4434.583
 30
2327.000
 70
    32
  0
VERTEX
  8
2900LEVEL
 62
7
 10
3221.469
 20
-4432.727
 30
2327.000
 70
    32
  0
VERTEX
  8
2900LEVEL
 62
7
 10
3224.051
 20
-4432.509
 30
2327.000
 70
    32
  0
VERTEX
  8
2900LEVEL
 62
7
 10
3232.559
 20
-4436.278
 30
2327.000
 70
    32
  0
VERTEX
  8
2900LEVEL
 62
7
 10
3239.894
 20
-4440.777
 30
2327.000
 70
    32
  0
VERTEX
  8
2900LEVEL
 62
7
 10
3243.831
 20
-4442.658
 30
2327.000
 70
    32
  0
VERTEX
  8
2900LEVEL
 62
7
 10
3247.061
 20
-4438.101
 30
2327.000
 70
    32
  0
VERTEX
  8
2900LEVEL
 62
7
 10
3246.979
 20
-4432.800
 30
2327.000
 70
    32
  0
VERTEX
  8
2900LEVEL
 62
7
 10
3246.883
 20
-4425.555
 30
2327.000
 70
    32
  0
VERTEX
  8
2900LEVEL
 62
7
 10
3250.537
 20
-4421.073
 30
2327.000
 70
    32
  0
VERTEX
  8
2900LEVEL
 62
7
 10
3255.187
 20
-4419.181
 30
2327.000
 70
    32
  0
VERTEX
  8
2900LEVEL
 62
7
 10
3261.131
 20
-4418.470
 30
2327.000
 70
    32
  0
VERTEX
  8
2900LEVEL
 62
7
 10
3263.924
 20
-4418.395
 30
2327.000
 70
    32
  0
VERTEX
  8
2900LEVEL
 62
7
 10
3269.095
 20
-4420.467
 30
2327.000
 70
    32
  0
VERTEX
  8
2900LEVEL
 62
7
 10
3271.838
 20
-4421.628
 30
2327.000
 70
    32
  0
VERTEX
  8
2900LEVEL
 62
7
 10
3274.000
 20
-4420.981
 30
2327.000
 70
    32
  0
VERTEX
  8
2900LEVEL
 62
7
 10
3273.894
 20
-4417.800
 30
2327.000
 70
    32
  0
VERTEX
  8
2900LEVEL
 62
7
 10
3273.524
 20
-4412.990
 30
2327.000
 70
    32
  0
VERTEX
  8
2900LEVEL
 62
7
 10
3273.802
 20
-4410.273
 30
2327.000
 70
    32
  0
VERTEX
  8
2900LEVEL
 62
7
 10
3275.417
 20
-4407.994
 30
2327.000
 70
    32
  0
VERTEX
  8
2900LEVEL
 62
7
 10
3276.451
 20
-4407.193
 30
2327.000
 70
    32
  0
VERTEX
  8
2900LEVEL
 62
7
 10
3277.296
 20
-4407.485
 30
2327.000
 70
    32
  0
VERTEX
  8
2900LEVEL
 62
7
 10
3278.554
 20
-4408.700
 30
2327.000
 70
    32
  0
VERTEX
  8
2900LEVEL
 62
7
 10
3280.202
 20
-4409.814
 30
2327.000
 70
    32
  0
VERTEX
  8
2900LEVEL
 62
7
 10
3280.823
 20
-4408.019
 30
2327.000
 70
    32
  0
VERTEX
  8
2900LEVEL
 62
7
 10
3281.171
 20
-4405.373
 30
2327.000
 70
    32
  0
VERTEX
  8
2900LEVEL
 62
7
 10
3282.367
 20
-4402.665
 30
2327.000
 70
    32
  0
VERTEX
  8
2900LEVEL
 62
7
 10
3283.506
 20
-4401.901
 30
2327.000
 70
    32
  0
VERTEX
  8
2900LEVEL
 62
7
 10
3284.480
 20
-4403.254
 30
2327.000
 70
    32
  0
VERTEX
  8
2900LEVEL
 62
7
 10
3285.509
 20
-4406.093
 30
2327.000
 70
    32
  0
VERTEX
  8
2900LEVEL
 62
7
 10
3286.929
 20
-4411.833
 30
2327.000
 70
    32
  0
VERTEX
  8
2900LEVEL
 62
7
 10
3288.199
 20
-4418.348
 30
2327.000
 70
    32
  0
VERTEX
  8
2900LEVEL
 62
7
 10
3291.436
 20
-4425.875
 30
2327.000
 70
    32
  0
VERTEX
  8
2900LEVEL
 62
7
 10
3292.729
 20
-4427.197
 30
2327.000
 70
    32
  0
VERTEX
  8
2900LEVEL
 62
7
 10
3292.754
 20
-4424.936
 30
2327.000
 70
    32
  0
VERTEX
  8
2900LEVEL
 62
7
 10
3292.337
 20
-4421.150
 30
2327.000
 70
    32
  0
VERTEX
  8
2900LEVEL
 62
7
 10
3291.934
 20
-4416.093
 30
2327.000
 70
    32
  0
VERTEX
  8
2900LEVEL
 62
7
 10
3292.274
 20
-4410.938
 30
2327.000
 70
    32
  0
VERTEX
  8
2900LEVEL
 62
7
 10
3293.389
 20
-4409.219
 30
2327.000
 70
    32
  0
VERTEX
  8
2900LEVEL
 62
7
 10
3294.363
 20
-4410.573
 30
2327.000
 70
    32
  0
VERTEX
  8
2900LEVEL
 62
7
 10
3296.466
 20
-4415.225
 30
2327.000
 70
    32
  0
VERTEX
  8
2900LEVEL
 62
7
 10
3299.548
 20
-4424.022
 30
2327.000
 70
    32
  0
VERTEX
  8
2900LEVEL
 62
7
 10
3303.707
 20
-4437.708
 30
2327.000
 70
    32
  0
VERTEX
  8
2900LEVEL
 62
7
 10
3305.638
 20
-4445.114
 30
2327.000
 70
    32
  0
VERTEX
  8
2900LEVEL
 62
7
 10
3308.071
 20
-4451.890
 30
2327.000
 70
    32
  0
VERTEX
  8
2900LEVEL
 62
7
 10
3309.913
 20
-4454.702
 30
2327.000
 70
    32
  0
VERTEX
  8
2900LEVEL
 62
7
 10
3315.582
 20
-4462.786
 30
2327.000
 70
    32
  0
VERTEX
  8
2900LEVEL
 62
7
 10
3320.264
 20
-4470.718
 30
2327.000
 70
    32
  0
VERTEX
  8
2900LEVEL
 62
7
 10
3327.424
 20
-4484.472
 30
2327.000
 70
    32
  0
VERTEX
  8
2900LEVEL
 62
7
 10
3335.087
 20
-4503.885
 30
2327.000
 70
    32
  0
VERTEX
  8
2900LEVEL
 62
7
 10
3339.517
 20
-4518.563
 30
2327.000
 70
    32
  0
VERTEX
  8
2900LEVEL
 62
7
 10
3348.244
 20
-4547.140
 30
2327.000
 70
    32
  0
VERTEX
  8
2900LEVEL
 62
7
 10
3357.791
 20
-4571.839
 30
2327.000
 70
    32
  0
VERTEX
  8
2900LEVEL
 62
7
 10
3367.371
 20
-4593.641
 30
2327.000
 70
    32
  0
VERTEX
  8
2900LEVEL
 62
7
 10
3371.791
 20
-4606.022
 30
2327.000
 70
    32
  0
VERTEX
  8
2900LEVEL
 62
7
 10
3380.528
 20
-4627.390
 30
2327.000
 70
    32
  0
VERTEX
  8
2900LEVEL
 62
7
 10
3387.260
 20
-4647.924
 30
2327.000
 70
    32
  0
VERTEX
  8
2900LEVEL
 62
7
 10
3393.959
 20
-4668.210
 30
2327.000
 70
    32
  0
VERTEX
  8
2900LEVEL
 62
7
 10
3401.585
 20
-4687.799
 30
2327.000
 70
    32
  0
VERTEX
  8
2900LEVEL
 62
7
 10
3415.672
 20
-4733.125
 30
2327.000
 70
    32
  0
VERTEX
  8
2900LEVEL
 62
7
 10
3443.328
 20
-4780.898
 30
2327.000
 70
    32
  0
VERTEX
  8
2900LEVEL
 62
7
 10
3475.801
 20
-4826.920
 30
2327.000
 70
    32
  0
VERTEX
  8
2900LEVEL
 62
7
 10
3467.587
 20
-4846.780
 30
2327.000
 70
    32
  0
VERTEX
  8
2900LEVEL
 62
7
 10
3485.903
 20
-4893.061
 30
2327.000
 70
    32
  0
VERTEX
  8
2900LEVEL
 62
7
 10
3537.914
 20
-4954.051
 30
2327.000
 70
    32
  0
VERTEX
  8
2900LEVEL
 62
7
 10
3584.329
 20
-5004.317
 30
2327.000
 70
    32
  0
VERTEX
  8
2900LEVEL
 62
7
 10
3620.316
 20
-5025.190
 30
2327.000
 70
    32
  0
VERTEX
  8
2900LEVEL
 62
7
 10
3620.016
 20
-5004.977
 30
2327.000
 70
    32
  0
VERTEX
  8
2900LEVEL
 62
7
 10
3605.103
 20
-4965.794
 30
2327.000
 70
    32
  0
VERTEX
  8
2900LEVEL
 62
7
 10
3641.218
 20
-4987.443
 30
2327.000
 70
    32
  0
VERTEX
  8
2900LEVEL
 62
7
 10
3686.745
 20
-5027.485
 30
2327.000
 70
    32
  0
VERTEX
  8
2900LEVEL
 62
7
 10
3730.650
 20
-5063.486
 30
2327.000
 70
    32
  0
VERTEX
  8
2900LEVEL
 62
7
 10
3717.892
 20
-5034.477
 30
2327.000
 70
    32
  0
VERTEX
  8
2900LEVEL
 62
7
 10
3682.324
 20
-4996.783
 30
2327.000
 70
    32
  0
VERTEX
  8
2900LEVEL
 62
7
 10
3642.666
 20
-4959.444
 30
2327.000
 70
    32
  0
VERTEX
  8
2900LEVEL
 62
7
 10
3583.558
 20
-4901.857
 30
2327.000
 70
    32
  0
VERTEX
  8
2900LEVEL
 62
7
 10
3530.832
 20
-4850.079
 30
2327.000
 70
    32
  0
VERTEX
  8
2900LEVEL
 62
7
 10
3479.687
 20
-4796.285
 30
2327.000
 70
    32
  0
VERTEX
  8
2900LEVEL
 62
7
 10
3459.582
 20
-4751.735
 30
2327.000
 70
    32
  0
VERTEX
  8
2900LEVEL
 62
7
 10
3442.656
 20
-4680.974
 30
2327.000
 70
    32
  0
VERTEX
  8
2900LEVEL
 62
7
 10
3435.107
 20
-4656.973
 30
2327.000
 70
    32
  0
VERTEX
  8
2900LEVEL
 62
7
 10
3429.201
 20
-4647.932
 30
2327.000
 70
    32
  0
VERTEX
  8
2900LEVEL
 62
7
 10
3422.481
 20
-4635.914
 30
2327.000
 70
    32
  0
VERTEX
  8
2900LEVEL
 62
7
 10
3412.959
 20
-4615.244
 30
2327.000
 70
    32
  0
VERTEX
  8
2900LEVEL
 62
7
 10
3401.190
 20
-4590.131
 30
2327.000
 70
    32
  0
VERTEX
  8
2900LEVEL
 62
7
 10
3391.299
 20
-4570.870
 30
2327.000
 70
    32
  0
VERTEX
  8
2900LEVEL
 62
7
 10
3378.531
 20
-4546.665
 30
2327.000
 70
    32
  0
VERTEX
  8
2900LEVEL
 62
7
 10
3367.190
 20
-4530.708
 30
2327.000
 70
    32
  0
VERTEX
  8
2900LEVEL
 62
7
 10
3356.663
 20
-4514.585
 30
2327.000
 70
    32
  0
VERTEX
  8
2900LEVEL
 62
7
 10
3346.579
 20
-4493.696
 30
2327.000
 70
    32
  0
VERTEX
  8
2900LEVEL
 62
7
 10
3339.933
 20
-4478.110
 30
2327.000
 70
    32
  0
VERTEX
  8
2900LEVEL
 62
7
 10
3333.442
 20
-4458.180
 30
2327.000
 70
    32
  0
VERTEX
  8
2900LEVEL
 62
7
 10
3329.136
 20
-4441.913
 30
2327.000
 70
    32
  0
VERTEX
  8
2900LEVEL
 62
7
 10
3327.603
 20
-4424.052
 30
2327.000
 70
    32
  0
VERTEX
  8
2900LEVEL
 62
7
 10
3325.556
 20
-4411.239
 30
2327.000
 70
    32
  0
VERTEX
  8
2900LEVEL
 62
7
 10
3324.260
 20
-4394.334
 30
2327.000
 70
    32
  0
VERTEX
  8
2900LEVEL
 62
7
 10
3322.914
 20
-4381.952
 30
2327.000
 70
    32
  0
VERTEX
  8
2900LEVEL
 62
7
 10
3320.485
 20
-4371.608
 30
2327.000
 70
    32
  0
VERTEX
  8
2900LEVEL
 62
7
 10
3317.201
 20
-4365.105
 30
2327.000
 70
    32
  0
VERTEX
  8
2900LEVEL
 62
7
 10
3316.573
 20
-4362.404
 30
2327.000
 70
    32
  0
SEQEND
  8
2900LEVEL
  0
POLYLINE
  8
2900LEVEL
 62
7
 66
     1
 70
     8
  0
VERTEX
  8
2900LEVEL
 62
7
 10
3033.328
 20
-3940.833
 30
2327.000
 70
    32
  0
VERTEX
  8
2900LEVEL
 62
7
 10
3033.978
 20
-3939.138
 30
2327.000
 70
    32
  0
VERTEX
  8
2900LEVEL
 62
7
 10
3035.151
 20
-3935.335
 30
2327.000
 70
    32
  0
VERTEX
  8
2900LEVEL
 62
7
 10
3036.489
 20
-3929.413
 30
2327.000
 70
    32
  0
VERTEX
  8
2900LEVEL
 62
7
 10
3036.691
 20
-3923.974
 30
2327.000
 70
    32
  0
VERTEX
  8
2900LEVEL
 62
7
 10
3036.309
 20
-3917.009
 30
2327.000
 70
    32
  0
VERTEX
  8
2900LEVEL
 62
7
 10
3034.555
 20
-3912.714
 30
2327.000
 70
    32
  0
VERTEX
  8
2900LEVEL
 62
7
 10
3029.558
 20
-3904.532
 30
2327.000
 70
    32
  0
VERTEX
  8
2900LEVEL
 62
7
 10
3025.762
 20
-3899.578
 30
2327.000
 70
    32
  0
VERTEX
  8
2900LEVEL
 62
7
 10
3024.460
 20
-3895.889
 30
2327.000
 70
    32
  0
VERTEX
  8
2900LEVEL
 62
7
 10
3025.234
 20
-3896.250
 30
2327.000
 70
    32
  0
VERTEX
  8
2900LEVEL
 62
7
 10
3027.119
 20
-3898.250
 30
2327.000
 70
    32
  0
VERTEX
  8
2900LEVEL
 62
7
 10
3031.893
 20
-3904.275
 30
2327.000
 70
    32
  0
VERTEX
  8
2900LEVEL
 62
7
 10
3034.707
 20
-3908.582
 30
2327.000
 70
    32
  0
VERTEX
  8
2900LEVEL
 62
7
 10
3037.562
 20
-3912.430
 30
2327.000
 70
    32
  0
VERTEX
  8
2900LEVEL
 62
7
 10
3040.275
 20
-3913.061
 30
2327.000
 70
    32
  0
VERTEX
  8
2900LEVEL
 62
7
 10
3040.116
 20
-3911.539
 30
2327.000
 70
    32
  0
VERTEX
  8
2900LEVEL
 62
7
 10
3038.875
 20
-3908.699
 30
2327.000
 70
    32
  0
VERTEX
  8
2900LEVEL
 62
7
 10
3036.754
 20
-3905.672
 30
2327.000
 70
    32
  0
VERTEX
  8
2900LEVEL
 62
7
 10
3033.728
 20
-3901.363
 30
2327.000
 70
    32
  0
VERTEX
  8
2900LEVEL
 62
7
 10
3031.407
 20
-3897.132
 30
2327.000
 70
    32
  0
VERTEX
  8
2900LEVEL
 62
7
 10
3031.380
 20
-3896.390
 30
2327.000
 70
    32
  0
VERTEX
  8
2900LEVEL
 62
7
 10
3033.098
 20
-3897.575
 30
2327.000
 70
    32
  0
VERTEX
  8
2900LEVEL
 62
7
 10
3035.611
 20
-3900.359
 30
2327.000
 70
    32
  0
VERTEX
  8
2900LEVEL
 62
7
 10
3039.487
 20
-3904.536
 30
2327.000
 70
    32
  0
VERTEX
  8
2900LEVEL
 62
7
 10
3044.360
 20
-3911.163
 30
2327.000
 70
    32
  0
VERTEX
  8
2900LEVEL
 62
7
 10
3051.821
 20
-3920.150
 30
2327.000
 70
    32
  0
VERTEX
  8
2900LEVEL
 62
7
 10
3062.608
 20
-3931.895
 30
2327.000
 70
    32
  0
VERTEX
  8
2900LEVEL
 62
7
 10
3069.102
 20
-3938.964
 30
2327.000
 70
    32
  0
VERTEX
  8
2900LEVEL
 62
7
 10
3081.268
 20
-3953.763
 30
2327.000
 70
    32
  0
VERTEX
  8
2900LEVEL
 62
7
 10
3089.238
 20
-3964.700
 30
2327.000
 70
    32
  0
VERTEX
  8
2900LEVEL
 62
7
 10
3102.940
 20
-3981.212
 30
2327.000
 70
    32
  0
VERTEX
  8
2900LEVEL
 62
7
 10
3113.877
 20
-3992.253
 30
2327.000
 70
    32
  0
VERTEX
  8
2900LEVEL
 62
7
 10
3132.985
 20
-4008.719
 30
2327.000
 70
    32
  0
VERTEX
  8
2900LEVEL
 62
7
 10
3145.715
 20
-4020.592
 30
2327.000
 70
    32
  0
VERTEX
  8
2900LEVEL
 62
7
 10
3162.813
 20
-4036.719
 30
2327.000
 70
    32
  0
VERTEX
  8
2900LEVEL
 62
7
 10
3175.412
 20
-4047.601
 30
2327.000
 70
    32
  0
VERTEX
  8
2900LEVEL
 62
7
 10
3193.174
 20
-4061.332
 30
2327.000
 70
    32
  0
VERTEX
  8
2900LEVEL
 62
7
 10
3211.502
 20
-4074.928
 30
2327.000
 70
    32
  0
VERTEX
  8
2900LEVEL
 62
7
 10
3224.227
 20
-4084.009
 30
2327.000
 70
    32
  0
VERTEX
  8
2900LEVEL
 62
7
 10
3244.803
 20
-4095.616
 30
2327.000
 70
    32
  0
VERTEX
  8
2900LEVEL
 62
7
 10
3271.719
 20
-4109.061
 30
2327.000
 70
    32
  0
VERTEX
  8
2900LEVEL
 62
7
 10
3290.167
 20
-4118.277
 30
2327.000
 70
    32
  0
VERTEX
  8
2900LEVEL
 62
7
 10
3321.007
 20
-4131.588
 30
2327.000
 70
    32
  0
VERTEX
  8
2900LEVEL
 62
7
 10
3342.777
 20
-4143.845
 30
2327.000
 70
    32
  0
VERTEX
  8
2900LEVEL
 62
7
 10
3355.830
 20
-4152.047
 30
2327.000
 70
    32
  0
VERTEX
  8
2900LEVEL
 62
7
 10
3363.557
 20
-4159.376
 30
2327.000
 70
    32
  0
VERTEX
  8
2900LEVEL
 62
7
 10
3365.353
 20
-4163.071
 30
2327.000
 70
    32
  0
VERTEX
  8
2900LEVEL
 62
7
 10
3367.274
 20
-4168.251
 30
2327.000
 70
    32
  0
VERTEX
  8
2900LEVEL
 62
7
 10
3372.309
 20
-4179.332
 30
2327.000
 70
    32
  0
VERTEX
  8
2900LEVEL
 62
7
 10
3375.748
 20
-4184.635
 30
2327.000
 70
    32
  0
VERTEX
  8
2900LEVEL
 62
7
 10
3381.787
 20
-4191.310
 30
2327.000
 70
    32
  0
VERTEX
  8
2900LEVEL
 62
7
 10
3383.158
 20
-4191.926
 30
2327.000
 70
    32
  0
VERTEX
  8
2900LEVEL
 62
7
 10
3382.418
 20
-4188.596
 30
2327.000
 70
    32
  0
VERTEX
  8
2900LEVEL
 62
7
 10
3379.915
 20
-4181.678
 30
2327.000
 70
    32
  0
VERTEX
  8
2900LEVEL
 62
7
 10
3375.193
 20
-4171.060
 30
2327.000
 70
    32
  0
VERTEX
  8
2900LEVEL
 62
7
 10
3369.828
 20
-4161.072
 30
2327.000
 70
    32
  0
VERTEX
  8
2900LEVEL
 62
7
 10
3365.768
 20
-4154.419
 30
2327.000
 70
    32
  0
VERTEX
  8
2900LEVEL
 62
7
 10
3355.684
 20
-4139.819
 30
2327.000
 70
    32
  0
VERTEX
  8
2900LEVEL
 62
7
 10
3349.136
 20
-4131.266
 30
2327.000
 70
    32
  0
VERTEX
  8
2900LEVEL
 62
7
 10
3335.791
 20
-4114.404
 30
2327.000
 70
    32
  0
VERTEX
  8
2900LEVEL
 62
7
 10
3323.136
 20
-4099.034
 30
2327.000
 70
    32
  0
VERTEX
  8
2900LEVEL
 62
7
 10
3314.493
 20
-4088.337
 30
2327.000
 70
    32
  0
VERTEX
  8
2900LEVEL
 62
7
 10
3305.634
 20
-4074.706
 30
2327.000
 70
    32
  0
VERTEX
  8
2900LEVEL
 62
7
 10
3295.281
 20
-4058.902
 30
2327.000
 70
    32
  0
VERTEX
  8
2900LEVEL
 62
7
 10
3283.117
 20
-4043.890
 30
2327.000
 70
    32
  0
VERTEX
  8
2900LEVEL
 62
7
 10
3278.304
 20
-4035.039
 30
2327.000
 70
    32
  0
VERTEX
  8
2900LEVEL
 62
7
 10
3274.945
 20
-4019.454
 30
2327.000
 70
    32
  0
VERTEX
  8
2900LEVEL
 62
7
 10
3272.803
 20
-4008.689
 30
2327.000
 70
    32
  0
VERTEX
  8
2900LEVEL
 62
7
 10
3269.322
 20
-3991.336
 30
2327.000
 70
    32
  0
VERTEX
  8
2900LEVEL
 62
7
 10
3266.026
 20
-3982.678
 30
2327.000
 70
    32
  0
VERTEX
  8
2900LEVEL
 62
7
 10
3258.574
 20
-3969.768
 30
2327.000
 70
    32
  0
VERTEX
  8
2900LEVEL
 62
7
 10
3245.066
 20
-3951.668
 30
2327.000
 70
    32
  0
VERTEX
  8
2900LEVEL
 62
7
 10
3234.979
 20
-3937.280
 30
2327.000
 70
    32
  0
VERTEX
  8
2900LEVEL
 62
7
 10
3233.924
 20
-3930.555
 30
2327.000
 70
    32
  0
VERTEX
  8
2900LEVEL
 62
7
 10
3235.322
 20
-3925.553
 30
2327.000
 70
    32
  0
VERTEX
  8
2900LEVEL
 62
7
 10
3237.907
 20
-3921.907
 30
2327.000
 70
    32
  0
VERTEX
  8
2900LEVEL
 62
7
 10
3243.122
 20
-3923.167
 30
2327.000
 70
    32
  0
VERTEX
  8
2900LEVEL
 62
7
 10
3249.772
 20
-3925.679
 30
2327.000
 70
    32
  0
VERTEX
  8
2900LEVEL
 62
7
 10
3251.299
 20
-3925.025
 30
2327.000
 70
    32
  0
VERTEX
  8
2900LEVEL
 62
7
 10
3251.194
 20
-3921.773
 30
2327.000
 70
    32
  0
VERTEX
  8
2900LEVEL
 62
7
 10
3249.997
 20
-3918.191
 30
2327.000
 70
    32
  0
VERTEX
  8
2900LEVEL
 62
7
 10
3247.304
 20
-3909.362
 30
2327.000
 70
    32
  0
VERTEX
  8
2900LEVEL
 62
7
 10
3243.429
 20
-3895.610
 30
2327.000
 70
    32
  0
VERTEX
  8
2900LEVEL
 62
7
 10
3239.817
 20
-3886.842
 30
2327.000
 70
    32
  0
VERTEX
  8
2900LEVEL
 62
7
 10
3233.414
 20
-3874.863
 30
2327.000
 70
    32
  0
VERTEX
  8
2900LEVEL
 62
7
 10
3226.579
 20
-3863.586
 30
2327.000
 70
    32
  0
VERTEX
  8
2900LEVEL
 62
7
 10
3216.539
 20
-3848.174
 30
2327.000
 70
    32
  0
VERTEX
  8
2900LEVEL
 62
7
 10
3209.708
 20
-3839.688
 30
2327.000
 70
    32
  0
VERTEX
  8
2900LEVEL
 62
7
 10
3200.095
 20
-3827.214
 30
2327.000
 70
    32
  0
VERTEX
  8
2900LEVEL
 62
7
 10
3192.138
 20
-3818.362
 30
2327.000
 70
    32
  0
VERTEX
  8
2900LEVEL
 62
7
 10
3179.156
 20
-3803.731
 30
2327.000
 70
    32
  0
VERTEX
  8
2900LEVEL
 62
7
 10
3171.659
 20
-3794.778
 30
2327.000
 70
    32
  0
VERTEX
  8
2900LEVEL
 62
7
 10
3165.821
 20
-3786.021
 30
2327.000
 70
    32
  0
VERTEX
  8
2900LEVEL
 62
7
 10
3159.212
 20
-3773.474
 30
2327.000
 70
    32
  0
VERTEX
  8
2900LEVEL
 62
7
 10
3154.709
 20
-3765.368
 30
2327.000
 70
    32
  0
VERTEX
  8
2900LEVEL
 62
7
 10
3147.991
 20
-3753.138
 30
2327.000
 70
    32
  0
VERTEX
  8
2900LEVEL
 62
7
 10
3147.751
 20
-3742.959
 30
2327.000
 70
    32
  0
VERTEX
  8
2900LEVEL
 62
7
 10
3149.294
 20
-3737.605
 30
2327.000
 70
    32
  0
VERTEX
  8
2900LEVEL
 62
7
 10
3152.479
 20
-3734.001
 30
2327.000
 70
    32
  0
VERTEX
  8
2900LEVEL
 62
7
 10
3155.958
 20
-3732.556
 30
2327.000
 70
    32
  0
VERTEX
  8
2900LEVEL
 62
7
 10
3162.087
 20
-3734.321
 30
2327.000
 70
    32
  0
VERTEX
  8
2900LEVEL
 62
7
 10
3169.142
 20
-3744.823
 30
2327.000
 70
    32
  0
VERTEX
  8
2900LEVEL
 62
7
 10
3173.259
 20
-3752.748
 30
2327.000
 70
    32
  0
VERTEX
  8
2900LEVEL
 62
7
 10
3181.642
 20
-3767.753
 30
2327.000
 70
    32
  0
VERTEX
  8
2900LEVEL
 62
7
 10
3193.941
 20
-3783.402
 30
2327.000
 70
    32
  0
VERTEX
  8
2900LEVEL
 62
7
 10
3199.853
 20
-3791.877
 30
2327.000
 70
    32
  0
VERTEX
  8
2900LEVEL
 62
7
 10
3205.648
 20
-3798.231
 30
2327.000
 70
    32
  0
VERTEX
  8
2900LEVEL
 62
7
 10
3213.977
 20
-3805.391
 30
2327.000
 70
    32
  0
VERTEX
  8
2900LEVEL
 62
7
 10
3226.795
 20
-3815.640
 30
2327.000
 70
    32
  0
VERTEX
  8
2900LEVEL
 62
7
 10
3234.470
 20
-3821.343
 30
2327.000
 70
    32
  0
VERTEX
  8
2900LEVEL
 62
7
 10
3248.898
 20
-3829.808
 30
2327.000
 70
    32
  0
VERTEX
  8
2900LEVEL
 62
7
 10
3257.244
 20
-3835.484
 30
2327.000
 70
    32
  0
VERTEX
  8
2900LEVEL
 62
7
 10
3271.583
 20
-3845.572
 30
2327.000
 70
    32
  0
VERTEX
  8
2900LEVEL
 62
7
 10
3281.963
 20
-3855.829
 30
2327.000
 70
    32
  0
VERTEX
  8
2900LEVEL
 62
7
 10
3297.975
 20
-3874.346
 30
2327.000
 70
    32
  0
VERTEX
  8
2900LEVEL
 62
7
 10
3315.306
 20
-3894.998
 30
2327.000
 70
    32
  0
VERTEX
  8
2900LEVEL
 62
7
 10
3325.866
 20
-3908.083
 30
2327.000
 70
    32
  0
VERTEX
  8
2900LEVEL
 62
7
 10
3336.799
 20
-3922.621
 30
2327.000
 70
    32
  0
VERTEX
  8
2900LEVEL
 62
7
 10
3345.911
 20
-3932.511
 30
2327.000
 70
    32
  0
VERTEX
  8
2900LEVEL
 62
7
 10
3350.262
 20
-3938.460
 30
2327.000
 70
    32
  0
VERTEX
  8
2900LEVEL
 62
7
 10
3358.806
 20
-3954.844
 30
2327.000
 70
    32
  0
VERTEX
  8
2900LEVEL
 62
7
 10
3366.066
 20
-3975.560
 30
2327.000
 70
    32
  0
VERTEX
  8
2900LEVEL
 62
7
 10
3371.916
 20
-3992.833
 30
2327.000
 70
    32
  0
VERTEX
  8
2900LEVEL
 62
7
 10
3379.915
 20
-4016.950
 30
2327.000
 70
    32
  0
VERTEX
  8
2900LEVEL
 62
7
 10
3385.081
 20
-4032.166
 30
2327.000
 70
    32
  0
VERTEX
  8
2900LEVEL
 62
7
 10
3393.312
 20
-4057.663
 30
2327.000
 70
    32
  0
VERTEX
  8
2900LEVEL
 62
7
 10
3399.449
 20
-4077.660
 30
2327.000
 70
    32
  0
VERTEX
  8
2900LEVEL
 62
7
 10
3406.110
 20
-4091.903
 30
2327.000
 70
    32
  0
VERTEX
  8
2900LEVEL
 62
7
 10
3416.785
 20
-4107.393
 30
2327.000
 70
    32
  0
VERTEX
  8
2900LEVEL
 62
7
 10
3430.881
 20
-4120.235
 30
2327.000
 70
    32
  0
VERTEX
  8
2900LEVEL
 62
7
 10
3439.296
 20
-4126.053
 30
2327.000
 70
    32
  0
VERTEX
  8
2900LEVEL
 62
7
 10
3455.138
 20
-4137.678
 30
2327.000
 70
    32
  0
VERTEX
  8
2900LEVEL
 62
7
 10
3472.361
 20
-4152.145
 30
2327.000
 70
    32
  0
VERTEX
  8
2900LEVEL
 62
7
 10
3486.511
 20
-4163.327
 30
2327.000
 70
    32
  0
VERTEX
  8
2900LEVEL
 62
7
 10
3492.619
 20
-4166.999
 30
2327.000
 70
    32
  0
VERTEX
  8
2900LEVEL
 62
7
 10
3494.641
 20
-4166.209
 30
2327.000
 70
    32
  0
VERTEX
  8
2900LEVEL
 62
7
 10
3493.438
 20
-4160.047
 30
2327.000
 70
    32
  0
VERTEX
  8
2900LEVEL
 62
7
 10
3490.886
 20
-4148.076
 30
2327.000
 70
    32
  0
VERTEX
  8
2900LEVEL
 62
7
 10
3488.135
 20
-4138.116
 30
2327.000
 70
    32
  0
VERTEX
  8
2900LEVEL
 62
7
 10
3482.705
 20
-4121.272
 30
2327.000
 70
    32
  0
VERTEX
  8
2900LEVEL
 62
7
 10
3476.690
 20
-4106.117
 30
2327.000
 70
    32
  0
VERTEX
  8
2900LEVEL
 62
7
 10
3473.025
 20
-4098.939
 30
2327.000
 70
    32
  0
VERTEX
  8
2900LEVEL
 62
7
 10
3467.110
 20
-4087.531
 30
2327.000
 70
    32
  0
VERTEX
  8
2900LEVEL
 62
7
 10
3455.672
 20
-4067.616
 30
2327.000
 70
    32
  0
VERTEX
  8
2900LEVEL
 62
7
 10
3445.164
 20
-4046.652
 30
2327.000
 70
    32
  0
VERTEX
  8
2900LEVEL
 62
7
 10
3436.560
 20
-4029.206
 30
2327.000
 70
    32
  0
VERTEX
  8
2900LEVEL
 62
7
 10
3435.782
 20
-4019.834
 30
2327.000
 70
    32
  0
VERTEX
  8
2900LEVEL
 62
7
 10
3437.565
 20
-4018.299
 30
2327.000
 70
    32
  0
VERTEX
  8
2900LEVEL
 62
7
 10
3443.376
 20
-4020.025
 30
2327.000
 70
    32
  0
VERTEX
  8
2900LEVEL
 62
7
 10
3453.772
 20
-4025.653
 30
2327.000
 70
    32
  0
VERTEX
  8
2900LEVEL
 62
7
 10
3467.164
 20
-4031.986
 30
2327.000
 70
    32
  0
VERTEX
  8
2900LEVEL
 62
7
 10
3478.013
 20
-4039.143
 30
2327.000
 70
    32
  0
VERTEX
  8
2900LEVEL
 62
7
 10
3504.175
 20
-4051.350
 30
2327.000
 70
    32
  0
VERTEX
  8
2900LEVEL
 62
7
 10
3518.128
 20
-4060.650
 30
2327.000
 70
    32
  0
VERTEX
  8
2900LEVEL
 62
7
 10
3522.197
 20
-4058.325
 30
2327.000
 70
    32
  0
VERTEX
  8
2900LEVEL
 62
7
 10
3519.872
 20
-4050.768
 30
2327.000
 70
    32
  0
VERTEX
  8
2900LEVEL
 62
7
 10
3514.640
 20
-4037.400
 30
2327.000
 70
    32
  0
VERTEX
  8
2900LEVEL
 62
7
 10
3498.616
 20
-4008.846
 30
2327.000
 70
    32
  0
VERTEX
  8
2900LEVEL
 62
7
 10
3462.827
 20
-3950.447
 30
2327.000
 70
    32
  0
VERTEX
  8
2900LEVEL
 62
7
 10
3501.385
 20
-3952.070
 30
2327.000
 70
    32
  0
VERTEX
  8
2900LEVEL
 62
7
 10
3515.836
 20
-3904.219
 30
2327.000
 70
    32
  0
VERTEX
  8
2900LEVEL
 62
7
 10
3524.638
 20
-3831.771
 30
2327.000
 70
    32
  0
VERTEX
  8
2900LEVEL
 62
7
 10
3547.692
 20
-3791.596
 30
2327.000
 70
    32
  0
VERTEX
  8
2900LEVEL
 62
7
 10
3574.758
 20
-3751.557
 30
2327.000
 70
    32
  0
VERTEX
  8
2900LEVEL
 62
7
 10
3594.491
 20
-3716.396
 30
2327.000
 70
    32
  0
VERTEX
  8
2900LEVEL
 62
7
 10
3604.767
 20
-3686.783
 30
2327.000
 70
    32
  0
VERTEX
  8
2900LEVEL
 62
7
 10
3632.159
 20
-3652.593
 30
2327.000
 70
    32
  0
VERTEX
  8
2900LEVEL
 62
7
 10
3642.796
 20
-3609.678
 30
2327.000
 70
    32
  0
VERTEX
  8
2900LEVEL
 62
7
 10
3664.230
 20
-3578.066
 30
2327.000
 70
    32
  0
SEQEND
  8
2900LEVEL
  0
POLYLINE
  8
2900LEVEL
 62
7
 66
     1
 70
     8
  0
VERTEX
  8
2900LEVEL
 62
7
 10
3048.850
 20
-3959.290
 30
2327.000
 70
    32
  0
VERTEX
  8
2900LEVEL
 62
7
 10
3050.160
 20
-3961.402
 30
2327.000
 70
    32
  0
VERTEX
  8
2900LEVEL
 62
7
 10
3064.018
 20
-3979.789
 30
2327.000
 70
    32
  0
VERTEX
  8
2900LEVEL
 62
7
 10
3073.600
 20
-3991.874
 30
2327.000
 70
    32
  0
VERTEX
  8
2900LEVEL
 62
7
 10
3081.751
 20
-4002.353
 30
2327.000
 70
    32
  0
VERTEX
  8
2900LEVEL
 62
7
 10
3088.557
 20
-4009.955
 30
2327.000
 70
    32
  0
VERTEX
  8
2900LEVEL
 62
7
 10
3093.730
 20
-4018.175
 30
2327.000
 70
    32
  0
VERTEX
  8
2900LEVEL
 62
7
 10
3096.099
 20
-4027.530
 30
2327.000
 70
    32
  0
VERTEX
  8
2900LEVEL
 62
7
 10
3098.667
 20
-4034.873
 30
2327.000
 70
    32
  0
VERTEX
  8
2900LEVEL
 62
7
 10
3102.804
 20
-4047.321
 30
2327.000
 70
    32
  0
VERTEX
  8
2900LEVEL
 62
7
 10
3104.173
 20
-4054.439
 30
2327.000
 70
    32
  0
VERTEX
  8
2900LEVEL
 62
7
 10
3103.426
 20
-4061.179
 30
2327.000
 70
    32
  0
VERTEX
  8
2900LEVEL
 62
7
 10
3100.417
 20
-4064.891
 30
2327.000
 70
    32
  0
VERTEX
  8
2900LEVEL
 62
7
 10
3094.230
 20
-4065.211
 30
2327.000
 70
    32
  0
VERTEX
  8
2900LEVEL
 62
7
 10
3088.409
 20
-4064.404
 30
2327.000
 70
    32
  0
VERTEX
  8
2900LEVEL
 62
7
 10
3084.870
 20
-4064.859
 30
2327.000
 70
    32
  0
VERTEX
  8
2900LEVEL
 62
7
 10
3081.482
 20
-4067.683
 30
2327.000
 70
    32
  0
VERTEX
  8
2900LEVEL
 62
7
 10
3081.509
 20
-4071.570
 30
2327.000
 70
    32
  0
VERTEX
  8
2900LEVEL
 62
7
 10
3084.285
 20
-4076.195
 30
2327.000
 70
    32
  0
VERTEX
  8
2900LEVEL
 62
7
 10
3092.303
 20
-4082.750
 30
2327.000
 70
    32
  0
VERTEX
  8
2900LEVEL
 62
7
 10
3098.996
 20
-4087.736
 30
2327.000
 70
    32
  0
VERTEX
  8
2900LEVEL
 62
7
 10
3103.304
 20
-4091.141
 30
2327.000
 70
    32
  0
VERTEX
  8
2900LEVEL
 62
7
 10
3107.114
 20
-4094.894
 30
2327.000
 70
    32
  0
VERTEX
  8
2900LEVEL
 62
7
 10
3107.907
 20
-4096.634
 30
2327.000
 70
    32
  0
VERTEX
  8
2900LEVEL
 62
7
 10
3108.099
 20
-4098.473
 30
2327.000
 70
    32
  0
VERTEX
  8
2900LEVEL
 62
7
 10
3106.508
 20
-4098.491
 30
2327.000
 70
    32
  0
VERTEX
  8
2900LEVEL
 62
7
 10
3105.828
 20
-4099.296
 30
2327.000
 70
    32
  0
VERTEX
  8
2900LEVEL
 62
7
 10
3108.070
 20
-4104.233
 30
2327.000
 70
    32
  0
VERTEX
  8
2900LEVEL
 62
7
 10
3112.923
 20
-4109.410
 30
2327.000
 70
    32
  0
VERTEX
  8
2900LEVEL
 62
7
 10
3119.703
 20
-4116.199
 30
2327.000
 70
    32
  0
VERTEX
  8
2900LEVEL
 62
7
 10
3125.038
 20
-4122.513
 30
2327.000
 70
    32
  0
VERTEX
  8
2900LEVEL
 62
7
 10
3127.440
 20
-4125.755
 30
2327.000
 70
    32
  0
VERTEX
  8
2900LEVEL
 62
7
 10
3131.849
 20
-4132.836
 30
2327.000
 70
    32
  0
VERTEX
  8
2900LEVEL
 62
7
 10
3135.998
 20
-4137.793
 30
2327.000
 70
    32
  0
VERTEX
  8
2900LEVEL
 62
7
 10
3144.917
 20
-4145.984
 30
2327.000
 70
    32
  0
VERTEX
  8
2900LEVEL
 62
7
 10
3150.623
 20
-4150.818
 30
2327.000
 70
    32
  0
VERTEX
  8
2900LEVEL
 62
7
 10
3158.008
 20
-4157.155
 30
2327.000
 70
    32
  0
VERTEX
  8
2900LEVEL
 62
7
 10
3167.639
 20
-4164.788
 30
2327.000
 70
    32
  0
VERTEX
  8
2900LEVEL
 62
7
 10
3172.582
 20
-4168.342
 30
2327.000
 70
    32
  0
VERTEX
  8
2900LEVEL
 62
7
 10
3182.138
 20
-4176.398
 30
2327.000
 70
    32
  0
VERTEX
  8
2900LEVEL
 62
7
 10
3188.503
 20
-4182.335
 30
2327.000
 70
    32
  0
VERTEX
  8
2900LEVEL
 62
7
 10
3198.139
 20
-4192.760
 30
2327.000
 70
    32
  0
VERTEX
  8
2900LEVEL
 62
7
 10
3204.602
 20
-4199.369
 30
2327.000
 70
    32
  0
VERTEX
  8
2900LEVEL
 62
7
 10
3212.239
 20
-4208.393
 30
2327.000
 70
    32
  0
VERTEX
  8
2900LEVEL
 62
7
 10
3217.369
 20
-4214.210
 30
2327.000
 70
    32
  0
VERTEX
  8
2900LEVEL
 62
7
 10
3225.392
 20
-4223.486
 30
2327.000
 70
    32
  0
VERTEX
  8
2900LEVEL
 62
7
 10
3231.707
 20
-4230.730
 30
2327.000
 70
    32
  0
VERTEX
  8
2900LEVEL
 62
7
 10
3236.146
 20
-4238.270
 30
2327.000
 70
    32
  0
VERTEX
  8
2900LEVEL
 62
7
 10
3237.584
 20
-4242.385
 30
2327.000
 70
    32
  0
VERTEX
  8
2900LEVEL
 62
7
 10
3238.176
 20
-4246.278
 30
2327.000
 70
    32
  0
VERTEX
  8
2900LEVEL
 62
7
 10
3238.026
 20
-4247.054
 30
2327.000
 70
    32
  0
VERTEX
  8
2900LEVEL
 62
7
 10
3237.032
 20
-4247.537
 30
2327.000
 70
    32
  0
VERTEX
  8
2900LEVEL
 62
7
 10
3236.939
 20
-4249.515
 30
2327.000
 70
    32
  0
VERTEX
  8
2900LEVEL
 62
7
 10
3237.561
 20
-4250.794
 30
2327.000
 70
    32
  0
VERTEX
  8
2900LEVEL
 62
7
 10
3239.708
 20
-4254.705
 30
2327.000
 70
    32
  0
VERTEX
  8
2900LEVEL
 62
7
 10
3240.391
 20
-4256.762
 30
2327.000
 70
    32
  0
VERTEX
  8
2900LEVEL
 62
7
 10
3239.783
 20
-4257.497
 30
2327.000
 70
    32
  0
VERTEX
  8
2900LEVEL
 62
7
 10
3236.802
 20
-4255.450
 30
2327.000
 70
    32
  0
VERTEX
  8
2900LEVEL
 62
7
 10
3235.227
 20
-4254.125
 30
2327.000
 70
    32
  0
VERTEX
  8
2900LEVEL
 62
7
 10
3232.706
 20
-4252.047
 30
2327.000
 70
    32
  0
VERTEX
  8
2900LEVEL
 62
7
 10
3229.774
 20
-4248.764
 30
2327.000
 70
    32
  0
VERTEX
  8
2900LEVEL
 62
7
 10
3225.238
 20
-4243.625
 30
2327.000
 70
    32
  0
VERTEX
  8
2900LEVEL
 62
7
 10
3224.287
 20
-4243.367
 30
2327.000
 70
    32
  0
VERTEX
  8
2900LEVEL
 62
7
 10
3224.910
 20
-4247.720
 30
2327.000
 70
    32
  0
VERTEX
  8
2900LEVEL
 62
7
 10
3227.922
 20
-4253.301
 30
2327.000
 70
    32
  0
VERTEX
  8
2900LEVEL
 62
7
 10
3230.191
 20
-4255.765
 30
2327.000
 70
    32
  0
VERTEX
  8
2900LEVEL
 62
7
 10
3231.663
 20
-4259.986
 30
2327.000
 70
    32
  0
VERTEX
  8
2900LEVEL
 62
7
 10
3234.821
 20
-4265.145
 30
2327.000
 70
    32
  0
VERTEX
  8
2900LEVEL
 62
7
 10
3240.217
 20
-4272.378
 30
2327.000
 70
    32
  0
VERTEX
  8
2900LEVEL
 62
7
 10
3243.970
 20
-4278.073
 30
2327.000
 70
    32
  0
VERTEX
  8
2900LEVEL
 62
7
 10
3246.571
 20
-4285.593
 30
2327.000
 70
    32
  0
VERTEX
  8
2900LEVEL
 62
7
 10
3247.217
 20
-4287.897
 30
2327.000
 70
    32
  0
VERTEX
  8
2900LEVEL
 62
7
 10
3248.118
 20
-4289.461
 30
2327.000
 70
    32
  0
VERTEX
  8
2900LEVEL
 62
7
 10
3248.658
 20
-4288.584
 30
2327.000
 70
    32
  0
VERTEX
  8
2900LEVEL
 62
7
 10
3249.312
 20
-4286.966
 30
2327.000
 70
    32
  0
VERTEX
  8
2900LEVEL
 62
7
 10
3250.674
 20
-4285.215
 30
2327.000
 70
    32
  0
VERTEX
  8
2900LEVEL
 62
7
 10
3253.370
 20
-4287.471
 30
2327.000
 70
    32
  0
VERTEX
  8
2900LEVEL
 62
7
 10
3253.881
 20
-4289.208
 30
2327.000
 70
    32
  0
VERTEX
  8
2900LEVEL
 62
7
 10
3252.916
 20
-4293.366
 30
2327.000
 70
    32
  0
VERTEX
  8
2900LEVEL
 62
7
 10
3251.927
 20
-4296.429
 30
2327.000
 70
    32
  0
VERTEX
  8
2900LEVEL
 62
7
 10
3250.804
 20
-4302.070
 30
2327.000
 70
    32
  0
VERTEX
  8
2900LEVEL
 62
7
 10
3250.685
 20
-4303.306
 30
2327.000
 70
    32
  0
VERTEX
  8
2900LEVEL
 62
7
 10
3251.195
 20
-4305.113
 30
2327.000
 70
    32
  0
VERTEX
  8
2900LEVEL
 62
7
 10
3251.548
 20
-4305.117
 30
2327.000
 70
    32
  0
VERTEX
  8
2900LEVEL
 62
7
 10
3252.739
 20
-4302.905
 30
2327.000
 70
    32
  0
VERTEX
  8
2900LEVEL
 62
7
 10
3254.113
 20
-4300.023
 30
2327.000
 70
    32
  0
VERTEX
  8
2900LEVEL
 62
7
 10
3254.665
 20
-4298.085
 30
2327.000
 70
    32
  0
VERTEX
  8
2900LEVEL
 62
7
 10
3255.205
 20
-4297.208
 30
2327.000
 70
    32
  0
VERTEX
  8
2900LEVEL
 62
7
 10
3256.462
 20
-4301.709
 30
2327.000
 70
    32
  0
VERTEX
  8
2900LEVEL
 62
7
 10
3256.785
 20
-4307.614
 30
2327.000
 70
    32
  0
VERTEX
  8
2900LEVEL
 62
7
 10
3257.652
 20
-4315.432
 30
2327.000
 70
    32
  0
VERTEX
  8
2900LEVEL
 62
7
 10
3260.255
 20
-4325.956
 30
2327.000
 70
    32
  0
VERTEX
  8
2900LEVEL
 62
7
 10
3262.901
 20
-4332.663
 30
2327.000
 70
    32
  0
VERTEX
  8
2900LEVEL
 62
7
 10
3267.163
 20
-4340.166
 30
2327.000
 70
    32
  0
VERTEX
  8
2900LEVEL
 62
7
 10
3269.163
 20
-4341.496
 30
2327.000
 70
    32
  0
VERTEX
  8
2900LEVEL
 62
7
 10
3270.553
 20
-4340.346
 30
2327.000
 70
    32
  0
VERTEX
  8
2900LEVEL
 62
7
 10
3271.952
 20
-4335.344
 30
2327.000
 70
    32
  0
VERTEX
  8
2900LEVEL
 62
7
 10
3272.952
 20
-4328.076
 30
2327.000
 70
    32
  0
VERTEX
  8
2900LEVEL
 62
7
 10
3273.231
 20
-4312.567
 30
2327.000
 70
    32
  0
VERTEX
  8
2900LEVEL
 62
7
 10
3272.829
 20
-4301.079
 30
2327.000
 70
    32
  0
VERTEX
  8
2900LEVEL
 62
7
 10
3271.510
 20
-4295.729
 30
2327.000
 70
    32
  0
VERTEX
  8
2900LEVEL
 62
7
 10
3267.954
 20
-4291.449
 30
2327.000
 70
    32
  0
VERTEX
  8
2900LEVEL
 62
7
 10
3265.256
 20
-4289.405
 30
2327.000
 70
    32
  0
VERTEX
  8
2900LEVEL
 62
7
 10
3261.756
 20
-4283.253
 30
2327.000
 70
    32
  0
VERTEX
  8
2900LEVEL
 62
7
 10
3259.121
 20
-4278.701
 30
2327.000
 70
    32
  0
VERTEX
  8
2900LEVEL
 62
7
 10
3253.815
 20
-4272.918
 30
2327.000
 70
    32
  0
VERTEX
  8
2900LEVEL
 62
7
 10
3252.740
 20
-4271.104
 30
2327.000
 70
    32
  0
VERTEX
  8
2900LEVEL
 62
7
 10
3253.747
 20
-4269.490
 30
2327.000
 70
    32
  0
VERTEX
  8
2900LEVEL
 62
7
 10
3258.549
 20
-4269.826
 30
2327.000
 70
    32
  0
VERTEX
  8
2900LEVEL
 62
7
 10
3263.467
 20
-4272.425
 30
2327.000
 70
    32
  0
VERTEX
  8
2900LEVEL
 62
7
 10
3270.030
 20
-4276.349
 30
2327.000
 70
    32
  0
VERTEX
  8
2900LEVEL
 62
7
 10
3273.456
 20
-4279.709
 30
2327.000
 70
    32
  0
VERTEX
  8
2900LEVEL
 62
7
 10
3277.459
 20
-4285.089
 30
2327.000
 70
    32
  0
VERTEX
  8
2900LEVEL
 62
7
 10
3280.353
 20
-4291.764
 30
2327.000
 70
    32
  0
VERTEX
  8
2900LEVEL
 62
7
 10
3281.743
 20
-4297.045
 30
2327.000
 70
    32
  0
VERTEX
  8
2900LEVEL
 62
7
 10
3283.872
 20
-4305.725
 30
2327.000
 70
    32
  0
VERTEX
  8
2900LEVEL
 62
7
 10
3285.750
 20
-4311.576
 30
2327.000
 70
    32
  0
VERTEX
  8
2900LEVEL
 62
7
 10
3287.273
 20
-4320.780
 30
2327.000
 70
    32
  0
VERTEX
  8
2900LEVEL
 62
7
 10
3288.265
 20
-4323.724
 30
2327.000
 70
    32
  0
VERTEX
  8
2900LEVEL
 62
7
 10
3289.651
 20
-4322.927
 30
2327.000
 70
    32
  0
VERTEX
  8
2900LEVEL
 62
7
 10
3290.728
 20
-4318.239
 30
2327.000
 70
    32
  0
VERTEX
  8
2900LEVEL
 62
7
 10
3291.277
 20
-4313.369
 30
2327.000
 70
    32
  0
VERTEX
  8
2900LEVEL
 62
7
 10
3291.484
 20
-4310.651
 30
2327.000
 70
    32
  0
VERTEX
  8
2900LEVEL
 62
7
 10
3291.892
 20
-4308.995
 30
2327.000
 70
    32
  0
VERTEX
  8
2900LEVEL
 62
7
 10
3293.402
 20
-4309.824
 30
2327.000
 70
    32
  0
VERTEX
  8
2900LEVEL
 62
7
 10
3294.539
 20
-4311.773
 30
2327.000
 70
    32
  0
SEQEND
  8
2900LEVEL
  0
POLYLINE
  8
2900LEVEL
 62
7
 66
     1
 70
     8
  0
VERTEX
  8
2900LEVEL
 62
7
 10
2908.577
 20
-4417.578
 30
2327.000
 70
    32
  0
VERTEX
  8
2900LEVEL
 62
7
 10
2907.725
 20
-4417.921
 30
2327.000
 70
    32
  0
VERTEX
  8
2900LEVEL
 62
7
 10
2906.427
 20
-4417.094
 30
2327.000
 70
    32
  0
VERTEX
  8
2900LEVEL
 62
7
 10
2904.715
 20
-4415.344
 30
2327.000
 70
    32
  0
VERTEX
  8
2900LEVEL
 62
7
 10
2903.978
 20
-4414.876
 30
2327.000
 70
    32
  0
VERTEX
  8
2900LEVEL
 62
7
 10
2903.433
 20
-4416.248
 30
2327.000
 70
    32
  0
VERTEX
  8
2900LEVEL
 62
7
 10
2902.855
 20
-4417.372
 30
2327.000
 70
    32
  0
VERTEX
  8
2900LEVEL
 62
7
 10
2901.050
 20
-4417.670
 30
2327.000
 70
    32
  0
VERTEX
  8
2900LEVEL
 62
7
 10
2899.963
 20
-4416.846
 30
2327.000
 70
    32
  0
VERTEX
  8
2900LEVEL
 62
7
 10
2898.918
 20
-4415.562
 30
2327.000
 70
    32
  0
VERTEX
  8
2900LEVEL
 62
7
 10
2898.469
 20
-4414.603
 30
2327.000
 70
    32
  0
SEQEND
  8
2900LEVEL
  0
POLYLINE
  8
2900LEVEL
 62
3
 66
     1
 70
     8
  0
VERTEX
  8
2900LEVEL
 62
3
 10
3048.850
 20
-3959.290
 30
2327.000
 70
    32
  0
VERTEX
  8
2900LEVEL
 62
3
 10
3047.069
 20
-3956.597
 30
2327.000
 70
    32
  0
VERTEX
  8
2900LEVEL
 62
3
 10
3044.668
 20
-3953.214
 30
2327.000
 70
    32
  0
VERTEX
  8
2900LEVEL
 62
3
 10
3040.100
 20
-3947.757
 30
2327.000
 70
    32
  0
VERTEX
  8
2900LEVEL
 62
3
 10
3036.749
 20
-3944.721
 30
2327.000
 70
    32
  0
VERTEX
  8
2900LEVEL
 62
3
 10
3033.328
 20
-3940.833
 30
2327.000
 70
    32
  0
SEQEND
  8
2900LEVEL
  0
POLYLINE
  8
2900LEVEL
 62
3
 66
     1
 70
     8
  0
VERTEX
  8
2900LEVEL
 62
3
 10
3316.573
 20
-4362.404
 30
2327.000
 70
    32
  0
VERTEX
  8
2900LEVEL
 62
3
 10
3316.212
 20
-4358.734
 30
2327.000
 70
    32
  0
VERTEX
  8
2900LEVEL
 62
3
 10
3314.917
 20
-4351.264
 30
2327.000
 70
    32
  0
VERTEX
  8
2900LEVEL
 62
3
 10
3312.656
 20
-4341.734
 30
2327.000
 70
    32
  0
VERTEX
  8
2900LEVEL
 62
3
 10
3311.023
 20
-4336.133
 30
2327.000
 70
    32
  0
VERTEX
  8
2900LEVEL
 62
3
 10
3306.489
 20
-4327.567
 30
2327.000
 70
    32
  0
VERTEX
  8
2900LEVEL
 62
3
 10
3304.130
 20
-4323.654
 30
2327.000
 70
    32
  0
VERTEX
  8
2900LEVEL
 62
3
 10
3301.073
 20
-4318.955
 30
2327.000
 70
    32
  0
VERTEX
  8
2900LEVEL
 62
3
 10
3297.480
 20
-4314.781
 30
2327.000
 70
    32
  0
VERTEX
  8
2900LEVEL
 62
3
 10
3295.769
 20
-4313.031
 30
2327.000
 70
    32
  0
VERTEX
  8
2900LEVEL
 62
3
 10
3294.539
 20
-4311.773
 30
2327.000
 70
    32
  0
SEQEND
  8
2900LEVEL
  0
POLYLINE
  8
2900LEVEL
 62
3
 66
     1
 70
     8
  0
VERTEX
  8
2900LEVEL
 62
3
 10
2914.804
 20
-4411.681
 30
2327.000
 70
    32
  0
VERTEX
  8
2900LEVEL
 62
3
 10
2914.369
 20
-4411.494
 30
2327.000
 70
    32
  0
VERTEX
  8
2900LEVEL
 62
3
 10
2912.157
 20
-4410.233
 30
2327.000
 70
    32
  0
VERTEX
  8
2900LEVEL
 62
3
 10
2910.678
 20
-4409.792
 30
2327.000
 70
    32
  0
VERTEX
  8
2900LEVEL
 62
3
 10
2910.428
 20
-4409.966
 30
2327.000
 70
    32
  0
VERTEX
  8
2900LEVEL
 62
3
 10
2910.383
 20
-4410.849
 30
2327.000
 70
    32
  0
VERTEX
  8
2900LEVEL
 62
3
 10
2910.690
 20
-4411.877
 30
2327.000
 70
    32
  0
VERTEX
  8
2900LEVEL
 62
3
 10
2910.397
 20
-4412.792
 30
2327.000
 70
    32
  0
VERTEX
  8
2900LEVEL
 62
3
 10
2909.927
 20
-4413.741
 30
2327.000
 70
    32
  0
VERTEX
  8
2900LEVEL
 62
3
 10
2910.230
 20
-4415.052
 30
2327.000
 70
    32
  0
VERTEX
  8
2900LEVEL
 62
3
 10
2910.739
 20
-4417.001
 30
2327.000
 70
    32
  0
VERTEX
  8
2900LEVEL
 62
3
 10
2911.145
 20
-4418.560
 30
2327.000
 70
    32
  0
VERTEX
  8
2900LEVEL
 62
3
 10
2910.820
 20
-4419.228
 30
2327.000
 70
    32
  0
VERTEX
  8
2900LEVEL
 62
3
 10
2909.944
 20
-4418.547
 30
2327.000
 70
    32
  0
VERTEX
  8
2900LEVEL
 62
3
 10
2909.102
 20
-4417.972
 30
2327.000
 70
    32
  0
VERTEX
  8
2900LEVEL
 62
3
 10
2908.577
 20
-4417.578
 30
2327.000
 70
    32
  0
SEQEND
  8
2900LEVEL
  0
POLYLINE
  8
2900LEVEL
 62
3
 66
     1
 70
     8
  0
VERTEX
  8
2900LEVEL
 62
3
 10
2898.469
 20
-4414.603
 30
2327.000
 70
    32
  0
VERTEX
  8
2900LEVEL
 62
3
 10
2897.523
 20
-4413.850
 30
2327.000
 70
    32
  0
VERTEX
  8
2900LEVEL
 62
3
 10
2896.736
 20
-4411.615
 30
2327.000
 70
    32
  0
VERTEX
  8
2900LEVEL
 62
3
 10
2895.707
 20
-4408.777
 30
2327.000
 70
    32
  0
VERTEX
  8
2900LEVEL
 62
3
 10
2894.840
 20
-4407.319
 30
2327.000
 70
    32
  0
SEQEND
  8
2900LEVEL
  0
ENDSEC
  0
EOF
