999
********************************
999
*   DXF File - Entities Only   *
999
*        3D Data Format        *
999
*     Output from ENVISAGE     *
999
*     28-Dec-2007 13:51:02     *
999
********************************
  0
SECTION 
  2
HEADER
  9
$ACADVER
  1
AC1009
  9
$EXTMIN
 10
-290000.000
 20
-250000.000
 30
-4000.000
  9
$EXTMAX
 10
5000000.000
 20
600000.000
 30
6000.000
  0
ENDSEC
  0
SECTION
  2
ENTITIES
  0
POLYLINE
  8
0300LEVEL
 62
7
 66
     1
 70
     9
  0
VERTEX
  8
0300LEVEL
 62
7
 10
961.500
 20
323.000
 30
4927.000
 70
    32
  0
VERTEX
  8
0300LEVEL
 62
7
 10
943.300
 20
325.400
 30
4927.000
 70
    32
  0
VERTEX
  8
0300LEVEL
 62
7
 10
923.200
 20
303.200
 30
4927.000
 70
    32
  0
VERTEX
  8
0300LEVEL
 62
7
 10
923.400
 20
159.900
 30
4927.000
 70
    32
  0
VERTEX
  8
0300LEVEL
 62
7
 10
909.800
 20
101.400
 30
4927.000
 70
    32
  0
VERTEX
  8
0300LEVEL
 62
7
 10
900.900
 20
98.400
 30
4927.000
 70
    32
  0
VERTEX
  8
0300LEVEL
 62
7
 10
896.300
 20
183.600
 30
4927.000
 70
    32
  0
VERTEX
  8
0300LEVEL
 62
7
 10
883.300
 20
165.500
 30
4927.000
 70
    32
  0
VERTEX
  8
0300LEVEL
 62
7
 10
888.000
 20
126.700
 30
4927.000
 70
    32
  0
VERTEX
  8
0300LEVEL
 62
7
 10
882.200
 20
118.000
 30
4927.000
 70
    32
  0
VERTEX
  8
0300LEVEL
 62
7
 10
875.200
 20
118.100
 30
4927.000
 70
    32
  0
VERTEX
  8
0300LEVEL
 62
7
 10
868.000
 20
155.200
 30
4927.000
 70
    32
  0
VERTEX
  8
0300LEVEL
 62
7
 10
906.200
 20
230.600
 30
4927.000
 70
    32
  0
VERTEX
  8
0300LEVEL
 62
7
 10
898.800
 20
251.500
 30
4927.000
 70
    32
  0
VERTEX
  8
0300LEVEL
 62
7
 10
903.700
 20
315.100
 30
4927.000
 70
    32
  0
VERTEX
  8
0300LEVEL
 62
7
 10
978.700
 20
405.400
 30
4927.000
 70
    32
  0
VERTEX
  8
0300LEVEL
 62
7
 10
980.100
 20
452.500
 30
4927.000
 70
    32
  0
VERTEX
  8
0300LEVEL
 62
7
 10
990.600
 20
467.200
 30
4927.000
 70
    32
  0
VERTEX
  8
0300LEVEL
 62
7
 10
992.000
 20
486.500
 30
4927.000
 70
    32
  0
VERTEX
  8
0300LEVEL
 62
7
 10
1012.300
 20
504.800
 30
4927.000
 70
    32
  0
VERTEX
  8
0300LEVEL
 62
7
 10
1030.900
 20
543.900
 30
4927.000
 70
    32
  0
VERTEX
  8
0300LEVEL
 62
7
 10
1078.000
 20
544.600
 30
4927.000
 70
    32
  0
VERTEX
  8
0300LEVEL
 62
7
 10
1106.400
 20
532.500
 30
4927.000
 70
    32
  0
VERTEX
  8
0300LEVEL
 62
7
 10
1094.000
 20
422.600
 30
4927.000
 70
    32
  0
VERTEX
  8
0300LEVEL
 62
7
 10
1101.400
 20
398.900
 30
4927.000
 70
    32
  0
VERTEX
  8
0300LEVEL
 62
7
 10
1159.500
 20
313.100
 30
4927.000
 70
    32
  0
VERTEX
  8
0300LEVEL
 62
7
 10
1166.200
 20
267.300
 30
4927.000
 70
    32
  0
VERTEX
  8
0300LEVEL
 62
7
 10
1161.800
 20
260.300
 30
4927.000
 70
    32
  0
VERTEX
  8
0300LEVEL
 62
7
 10
1156.300
 20
266.700
 30
4927.000
 70
    32
  0
VERTEX
  8
0300LEVEL
 62
7
 10
1145.100
 20
315.100
 30
4927.000
 70
    32
  0
VERTEX
  8
0300LEVEL
 62
7
 10
1139.300
 20
301.800
 30
4927.000
 70
    32
  0
VERTEX
  8
0300LEVEL
 62
7
 10
1143.000
 20
272.900
 30
4927.000
 70
    32
  0
VERTEX
  8
0300LEVEL
 62
7
 10
1126.000
 20
285.200
 30
4927.000
 70
    32
  0
VERTEX
  8
0300LEVEL
 62
7
 10
1105.000
 20
338.300
 30
4927.000
 70
    32
  0
VERTEX
  8
0300LEVEL
 62
7
 10
1094.800
 20
335.300
 30
4927.000
 70
    32
  0
VERTEX
  8
0300LEVEL
 62
7
 10
1082.700
 20
305.200
 30
4927.000
 70
    32
  0
VERTEX
  8
0300LEVEL
 62
7
 10
1078.200
 20
309.900
 30
4927.000
 70
    32
  0
VERTEX
  8
0300LEVEL
 62
7
 10
1087.700
 20
358.300
 30
4927.000
 70
    32
  0
VERTEX
  8
0300LEVEL
 62
7
 10
1044.900
 20
450.100
 30
4927.000
 70
    32
  0
VERTEX
  8
0300LEVEL
 62
7
 10
1029.700
 20
448.900
 30
4927.000
 70
    32
  0
VERTEX
  8
0300LEVEL
 62
7
 10
971.700
 20
321.400
 30
4927.000
 70
    32
  0
SEQEND
  8
0300LEVEL
  0
LINE
  8
0300LEVEL
 62
3
 10
-706.269
 20
-25.851
 30
4927.000
 11
-488.322
 21
-467.961
 31
4927.000
  0
POLYLINE
  8
0300LEVEL
 62
7
 66
     1
 70
     9
  0
VERTEX
  8
0300LEVEL
 62
7
 10
1027.594
 20
-2255.692
 30
4927.000
 70
    32
  0
VERTEX
  8
0300LEVEL
 62
7
 10
1002.218
 20
-2185.899
 30
4927.000
 70
    32
  0
VERTEX
  8
0300LEVEL
 62
7
 10
1039.393
 20
-2244.227
 30
4927.000
 70
    32
  0
VERTEX
  8
0300LEVEL
 62
7
 10
1055.502
 20
-2269.226
 30
4927.000
 70
    32
  0
VERTEX
  8
0300LEVEL
 62
7
 10
1102.895
 20
-2346.344
 30
4927.000
 70
    32
  0
VERTEX
  8
0300LEVEL
 62
7
 10
1146.371
 20
-2392.876
 30
4927.000
 70
    32
  0
VERTEX
  8
0300LEVEL
 62
7
 10
1205.525
 20
-2372.617
 30
4927.000
 70
    32
  0
VERTEX
  8
0300LEVEL
 62
7
 10
1319.584
 20
-2460.165
 30
4927.000
 70
    32
  0
VERTEX
  8
0300LEVEL
 62
7
 10
1368.959
 20
-2547.361
 30
4927.000
 70
    32
  0
VERTEX
  8
0300LEVEL
 62
7
 10
1447.188
 20
-2645.062
 30
4927.000
 70
    32
  0
VERTEX
  8
0300LEVEL
 62
7
 10
1464.357
 20
-2683.986
 30
4927.000
 70
    32
  0
VERTEX
  8
0300LEVEL
 62
7
 10
1458.906
 20
-2694.883
 30
4927.000
 70
    32
  0
VERTEX
  8
0300LEVEL
 62
7
 10
1403.297
 20
-2641.208
 30
4927.000
 70
    32
  0
VERTEX
  8
0300LEVEL
 62
7
 10
1345.969
 20
-2617.759
 30
4927.000
 70
    32
  0
VERTEX
  8
0300LEVEL
 62
7
 10
1252.387
 20
-2491.916
 30
4927.000
 70
    32
  0
VERTEX
  8
0300LEVEL
 62
7
 10
1226.444
 20
-2472.368
 30
4927.000
 70
    32
  0
VERTEX
  8
0300LEVEL
 62
7
 10
1174.424
 20
-2459.746
 30
4927.000
 70
    32
  0
VERTEX
  8
0300LEVEL
 62
7
 10
1132.657
 20
-2421.480
 30
4927.000
 70
    32
  0
VERTEX
  8
0300LEVEL
 62
7
 10
1111.641
 20
-2415.199
 30
4927.000
 70
    32
  0
VERTEX
  8
0300LEVEL
 62
7
 10
1082.186
 20
-2354.109
 30
4927.000
 70
    32
  0
VERTEX
  8
0300LEVEL
 62
7
 10
1038.975
 20
-2283.592
 30
4927.000
 70
    32
  0
SEQEND
  8
0300LEVEL
  0
POLYLINE
  8
0300LEVEL
 62
13
 66
     1
 70
     9
  0
VERTEX
  8
0300LEVEL
 62
13
 10
755.059
 20
-525.111
 30
4927.000
 70
    32
  0
VERTEX
  8
0300LEVEL
 62
13
 10
686.718
 20
-501.543
 30
4927.000
 70
    32
  0
VERTEX
  8
0300LEVEL
 62
13
 10
687.838
 20
-491.443
 30
4927.000
 70
    32
  0
VERTEX
  8
0300LEVEL
 62
13
 10
693.440
 20
-433.085
 30
4927.000
 70
    32
  0
SEQEND
  8
0300LEVEL
  0
POLYLINE
  8
0300LEVEL
 62
7
 66
     1
 70
     8
  0
VERTEX
  8
0300LEVEL
 62
7
 10
866.976
 20
-1517.986
 30
4927.000
 70
    32
  0
VERTEX
  8
0300LEVEL
 62
7
 10
906.430
 20
-1536.298
 30
4927.000
 70
    32
  0
VERTEX
  8
0300LEVEL
 62
7
 10
916.722
 20
-1518.408
 30
4927.000
 70
    32
  0
VERTEX
  8
0300LEVEL
 62
7
 10
924.745
 20
-1524.660
 30
4927.000
 70
    32
  0
VERTEX
  8
0300LEVEL
 62
7
 10
986.985
 20
-1702.350
 30
4927.000
 70
    32
  0
VERTEX
  8
0300LEVEL
 62
7
 10
1080.948
 20
-1900.991
 30
4927.000
 70
    32
  0
VERTEX
  8
0300LEVEL
 62
7
 10
1217.675
 20
-1969.832
 30
4927.000
 70
    32
  0
VERTEX
  8
0300LEVEL
 62
7
 10
1224.956
 20
-1963.220
 30
4927.000
 70
    32
  0
VERTEX
  8
0300LEVEL
 62
7
 10
1222.255
 20
-1945.301
 30
4927.000
 70
    32
  0
VERTEX
  8
0300LEVEL
 62
7
 10
1229.673
 20
-1928.212
 30
4927.000
 70
    32
  0
VERTEX
  8
0300LEVEL
 62
7
 10
1217.220
 20
-1779.043
 30
4927.000
 70
    32
  0
VERTEX
  8
0300LEVEL
 62
7
 10
1223.854
 20
-1709.340
 30
4927.000
 70
    32
  0
VERTEX
  8
0300LEVEL
 62
7
 10
1217.991
 20
-1644.436
 30
4927.000
 70
    32
  0
VERTEX
  8
0300LEVEL
 62
7
 10
1100.459
 20
-1313.386
 30
4927.000
 70
    32
  0
VERTEX
  8
0300LEVEL
 62
7
 10
1036.156
 20
-1235.357
 30
4927.000
 70
    32
  0
VERTEX
  8
0300LEVEL
 62
7
 10
1007.435
 20
-1123.141
 30
4927.000
 70
    32
  0
VERTEX
  8
0300LEVEL
 62
7
 10
1034.309
 20
-1146.333
 30
4927.000
 70
    32
  0
VERTEX
  8
0300LEVEL
 62
7
 10
1123.377
 20
-1275.471
 30
4927.000
 70
    32
  0
VERTEX
  8
0300LEVEL
 62
7
 10
1170.700
 20
-1289.359
 30
4927.000
 70
    32
  0
VERTEX
  8
0300LEVEL
 62
7
 10
1243.996
 20
-1385.040
 30
4927.000
 70
    32
  0
VERTEX
  8
0300LEVEL
 62
7
 10
1329.527
 20
-1458.385
 30
4927.000
 70
    32
  0
VERTEX
  8
0300LEVEL
 62
7
 10
1338.548
 20
-1463.043
 30
4927.000
 70
    32
  0
VERTEX
  8
0300LEVEL
 62
7
 10
1350.733
 20
-1455.447
 30
4927.000
 70
    32
  0
VERTEX
  8
0300LEVEL
 62
7
 10
1340.593
 20
-1397.123
 30
4927.000
 70
    32
  0
VERTEX
  8
0300LEVEL
 62
7
 10
1312.738
 20
-1325.785
 30
4927.000
 70
    32
  0
VERTEX
  8
0300LEVEL
 62
7
 10
1243.907
 20
-1198.307
 30
4927.000
 70
    32
  0
VERTEX
  8
0300LEVEL
 62
7
 10
1180.670
 20
-1113.446
 30
4927.000
 70
    32
  0
VERTEX
  8
0300LEVEL
 62
7
 10
1188.819
 20
-1088.472
 30
4927.000
 70
    32
  0
VERTEX
  8
0300LEVEL
 62
7
 10
1141.732
 20
-1002.633
 30
4927.000
 70
    32
  0
VERTEX
  8
0300LEVEL
 62
7
 10
1070.859
 20
-957.073
 30
4927.000
 70
    32
  0
VERTEX
  8
0300LEVEL
 62
7
 10
993.473
 20
-850.276
 30
4927.000
 70
    32
  0
VERTEX
  8
0300LEVEL
 62
7
 10
973.450
 20
-802.368
 30
4927.000
 70
    32
  0
VERTEX
  8
0300LEVEL
 62
7
 10
975.457
 20
-788.453
 30
4927.000
 70
    32
  0
VERTEX
  8
0300LEVEL
 62
7
 10
918.182
 20
-691.024
 30
4927.000
 70
    32
  0
VERTEX
  8
0300LEVEL
 62
7
 10
885.200
 20
-528.900
 30
4927.000
 70
    32
  0
VERTEX
  8
0300LEVEL
 62
7
 10
902.900
 20
-568.200
 30
4927.000
 70
    32
  0
VERTEX
  8
0300LEVEL
 62
7
 10
947.900
 20
-618.900
 30
4927.000
 70
    32
  0
VERTEX
  8
0300LEVEL
 62
7
 10
998.000
 20
-633.100
 30
4927.000
 70
    32
  0
VERTEX
  8
0300LEVEL
 62
7
 10
1014.700
 20
-620.000
 30
4927.000
 70
    32
  0
VERTEX
  8
0300LEVEL
 62
7
 10
1042.400
 20
-560.200
 30
4927.000
 70
    32
  0
VERTEX
  8
0300LEVEL
 62
7
 10
1069.400
 20
-434.300
 30
4927.000
 70
    32
  0
VERTEX
  8
0300LEVEL
 62
7
 10
1078.400
 20
-315.500
 30
4927.000
 70
    32
  0
VERTEX
  8
0300LEVEL
 62
7
 10
1100.800
 20
-279.300
 30
4927.000
 70
    32
  0
VERTEX
  8
0300LEVEL
 62
7
 10
1116.800
 20
-222.900
 30
4927.000
 70
    32
  0
VERTEX
  8
0300LEVEL
 62
7
 10
1148.700
 20
-210.000
 30
4927.000
 70
    32
  0
VERTEX
  8
0300LEVEL
 62
7
 10
1179.600
 20
-127.500
 30
4927.000
 70
    32
  0
VERTEX
  8
0300LEVEL
 62
7
 10
1192.400
 20
-49.500
 30
4927.000
 70
    32
  0
VERTEX
  8
0300LEVEL
 62
7
 10
1200.400
 20
-35.200
 30
4927.000
 70
    32
  0
VERTEX
  8
0300LEVEL
 62
7
 10
1209.800
 20
-86.800
 30
4927.000
 70
    32
  0
VERTEX
  8
0300LEVEL
 62
7
 10
1223.900
 20
-106.300
 30
4927.000
 70
    32
  0
VERTEX
  8
0300LEVEL
 62
7
 10
1242.800
 20
-109.800
 30
4927.000
 70
    32
  0
VERTEX
  8
0300LEVEL
 62
7
 10
1263.100
 20
-95.400
 30
4927.000
 70
    32
  0
VERTEX
  8
0300LEVEL
 62
7
 10
1274.800
 20
-70.900
 30
4927.000
 70
    32
  0
VERTEX
  8
0300LEVEL
 62
7
 10
1301.100
 20
121.500
 30
4927.000
 70
    32
  0
VERTEX
  8
0300LEVEL
 62
7
 10
1308.600
 20
129.500
 30
4927.000
 70
    32
  0
VERTEX
  8
0300LEVEL
 62
7
 10
1334.400
 20
116.800
 30
4927.000
 70
    32
  0
VERTEX
  8
0300LEVEL
 62
7
 10
1344.900
 20
154.600
 30
4927.000
 70
    32
  0
VERTEX
  8
0300LEVEL
 62
7
 10
1394.400
 20
627.500
 30
4927.000
 70
    32
  0
VERTEX
  8
0300LEVEL
 62
7
 10
1428.800
 20
734.300
 30
4927.000
 70
    32
  0
SEQEND
  8
0300LEVEL
  0
POLYLINE
  8
0300LEVEL
 62
13
 66
     1
 70
     8
  0
VERTEX
  8
0300LEVEL
 62
13
 10
1372.500
 20
735.500
 30
4927.000
 70
    32
  0
VERTEX
  8
0300LEVEL
 62
13
 10
1331.800
 20
542.600
 30
4927.000
 70
    32
  0
VERTEX
  8
0300LEVEL
 62
13
 10
1313.400
 20
365.200
 30
4927.000
 70
    32
  0
VERTEX
  8
0300LEVEL
 62
13
 10
1259.600
 20
211.200
 30
4927.000
 70
    32
  0
VERTEX
  8
0300LEVEL
 62
13
 10
1245.300
 20
111.900
 30
4927.000
 70
    32
  0
VERTEX
  8
0300LEVEL
 62
13
 10
1224.300
 20
72.400
 30
4927.000
 70
    32
  0
VERTEX
  8
0300LEVEL
 62
13
 10
1215.100
 20
71.200
 30
4927.000
 70
    32
  0
VERTEX
  8
0300LEVEL
 62
13
 10
1200.600
 20
108.700
 30
4927.000
 70
    32
  0
VERTEX
  8
0300LEVEL
 62
13
 10
1163.300
 20
155.400
 30
4927.000
 70
    32
  0
VERTEX
  8
0300LEVEL
 62
13
 10
1181.200
 20
172.400
 30
4927.000
 70
    32
  0
VERTEX
  8
0300LEVEL
 62
13
 10
1179.800
 20
197.700
 30
4927.000
 70
    32
  0
VERTEX
  8
0300LEVEL
 62
13
 10
1197.700
 20
149.900
 30
4927.000
 70
    32
  0
VERTEX
  8
0300LEVEL
 62
13
 10
1208.900
 20
142.000
 30
4927.000
 70
    32
  0
VERTEX
  8
0300LEVEL
 62
13
 10
1210.600
 20
165.900
 30
4927.000
 70
    32
  0
VERTEX
  8
0300LEVEL
 62
13
 10
1182.200
 20
259.600
 30
4927.000
 70
    32
  0
VERTEX
  8
0300LEVEL
 62
13
 10
1178.300
 20
364.900
 30
4927.000
 70
    32
  0
VERTEX
  8
0300LEVEL
 62
13
 10
1114.100
 20
577.400
 30
4927.000
 70
    32
  0
VERTEX
  8
0300LEVEL
 62
13
 10
1033.900
 20
577.300
 30
4927.000
 70
    32
  0
VERTEX
  8
0300LEVEL
 62
13
 10
999.800
 20
560.300
 30
4927.000
 70
    32
  0
VERTEX
  8
0300LEVEL
 62
13
 10
974.200
 20
544.500
 30
4927.000
 70
    32
  0
VERTEX
  8
0300LEVEL
 62
13
 10
900.600
 20
449.600
 30
4927.000
 70
    32
  0
VERTEX
  8
0300LEVEL
 62
13
 10
882.000
 20
367.500
 30
4927.000
 70
    32
  0
VERTEX
  8
0300LEVEL
 62
13
 10
884.100
 20
232.700
 30
4927.000
 70
    32
  0
VERTEX
  8
0300LEVEL
 62
13
 10
857.900
 20
201.800
 30
4927.000
 70
    32
  0
VERTEX
  8
0300LEVEL
 62
13
 10
846.200
 20
130.600
 30
4927.000
 70
    32
  0
VERTEX
  8
0300LEVEL
 62
13
 10
822.000
 20
71.100
 30
4927.000
 70
    32
  0
VERTEX
  8
0300LEVEL
 62
13
 10
819.900
 20
28.600
 30
4927.000
 70
    32
  0
VERTEX
  8
0300LEVEL
 62
13
 10
733.400
 20
-165.700
 30
4927.000
 70
    32
  0
VERTEX
  8
0300LEVEL
 62
13
 10
709.200
 20
-312.100
 30
4927.000
 70
    32
  0
VERTEX
  8
0300LEVEL
 62
13
 10
738.500
 20
-421.600
 30
4927.000
 70
    32
  0
VERTEX
  8
0300LEVEL
 62
13
 10
850.600
 20
-646.200
 30
4927.000
 70
    32
  0
VERTEX
  8
0300LEVEL
 62
13
 10
816.484
 20
-654.180
 30
4927.000
 70
    32
  0
VERTEX
  8
0300LEVEL
 62
13
 10
793.484
 20
-658.806
 30
4927.000
 70
    32
  0
VERTEX
  8
0300LEVEL
 62
13
 10
793.653
 20
-667.331
 30
4927.000
 70
    32
  0
VERTEX
  8
0300LEVEL
 62
13
 10
883.805
 20
-739.898
 30
4927.000
 70
    32
  0
VERTEX
  8
0300LEVEL
 62
13
 10
957.513
 20
-836.142
 30
4927.000
 70
    32
  0
VERTEX
  8
0300LEVEL
 62
13
 10
1013.903
 20
-926.433
 30
4927.000
 70
    32
  0
VERTEX
  8
0300LEVEL
 62
13
 10
1062.710
 20
-982.046
 30
4927.000
 70
    32
  0
VERTEX
  8
0300LEVEL
 62
13
 10
1059.745
 20
-989.832
 30
4927.000
 70
    32
  0
VERTEX
  8
0300LEVEL
 62
13
 10
1025.987
 20
-980.312
 30
4927.000
 70
    32
  0
VERTEX
  8
0300LEVEL
 62
13
 10
1018.500
 20
-986.641
 30
4927.000
 70
    32
  0
VERTEX
  8
0300LEVEL
 62
13
 10
1190.146
 20
-1233.655
 30
4927.000
 70
    32
  0
VERTEX
  8
0300LEVEL
 62
13
 10
1186.563
 20
-1240.595
 30
4927.000
 70
    32
  0
VERTEX
  8
0300LEVEL
 62
13
 10
1171.022
 20
-1237.668
 30
4927.000
 70
    32
  0
VERTEX
  8
0300LEVEL
 62
13
 10
1130.015
 20
-1178.524
 30
4927.000
 70
    32
  0
VERTEX
  8
0300LEVEL
 62
13
 10
1116.750
 20
-1199.449
 30
4927.000
 70
    32
  0
VERTEX
  8
0300LEVEL
 62
13
 10
1088.273
 20
-1154.510
 30
4927.000
 70
    32
  0
VERTEX
  8
0300LEVEL
 62
13
 10
965.160
 20
-1043.302
 30
4927.000
 70
    32
  0
VERTEX
  8
0300LEVEL
 62
13
 10
855.235
 20
-895.660
 30
4927.000
 70
    32
  0
VERTEX
  8
0300LEVEL
 62
13
 10
823.443
 20
-863.950
 30
4927.000
 70
    32
  0
VERTEX
  8
0300LEVEL
 62
13
 10
877.497
 20
-999.619
 30
4927.000
 70
    32
  0
VERTEX
  8
0300LEVEL
 62
13
 10
961.808
 20
-1140.012
 30
4927.000
 70
    32
  0
VERTEX
  8
0300LEVEL
 62
13
 10
1024.607
 20
-1269.298
 30
4927.000
 70
    32
  0
VERTEX
  8
0300LEVEL
 62
13
 10
1062.215
 20
-1412.647
 30
4927.000
 70
    32
  0
VERTEX
  8
0300LEVEL
 62
13
 10
1064.302
 20
-1536.952
 30
4927.000
 70
    32
  0
VERTEX
  8
0300LEVEL
 62
13
 10
1071.014
 20
-1557.997
 30
4927.000
 70
    32
  0
VERTEX
  8
0300LEVEL
 62
13
 10
1113.866
 20
-1614.930
 30
4927.000
 70
    32
  0
VERTEX
  8
0300LEVEL
 62
13
 10
1160.084
 20
-1627.895
 30
4927.000
 70
    32
  0
VERTEX
  8
0300LEVEL
 62
13
 10
1171.691
 20
-1643.205
 30
4927.000
 70
    32
  0
VERTEX
  8
0300LEVEL
 62
13
 10
1178.684
 20
-1723.284
 30
4927.000
 70
    32
  0
VERTEX
  8
0300LEVEL
 62
13
 10
1169.008
 20
-1726.022
 30
4927.000
 70
    32
  0
VERTEX
  8
0300LEVEL
 62
13
 10
1152.055
 20
-1708.128
 30
4927.000
 70
    32
  0
VERTEX
  8
0300LEVEL
 62
13
 10
1113.579
 20
-1642.380
 30
4927.000
 70
    32
  0
VERTEX
  8
0300LEVEL
 62
13
 10
979.299
 20
-1487.436
 30
4927.000
 70
    32
  0
VERTEX
  8
0300LEVEL
 62
13
 10
953.508
 20
-1466.912
 30
4927.000
 70
    32
  0
VERTEX
  8
0300LEVEL
 62
13
 10
921.720
 20
-1407.957
 30
4927.000
 70
    32
  0
VERTEX
  8
0300LEVEL
 62
13
 10
914.933
 20
-1403.398
 30
4927.000
 70
    32
  0
VERTEX
  8
0300LEVEL
 62
13
 10
889.527
 20
-1412.429
 30
4927.000
 70
    32
  0
VERTEX
  8
0300LEVEL
 62
13
 10
778.009
 20
-1263.597
 30
4927.000
 70
    32
  0
VERTEX
  8
0300LEVEL
 62
13
 10
734.213
 20
-1225.705
 30
4927.000
 70
    32
  0
VERTEX
  8
0300LEVEL
 62
13
 10
485.783
 20
-999.248
 30
4927.000
 70
    32
  0
VERTEX
  8
0300LEVEL
 62
13
 10
437.054
 20
-950.095
 30
4927.000
 70
    32
  0
VERTEX
  8
0300LEVEL
 62
13
 10
427.191
 20
-918.810
 30
4927.000
 70
    32
  0
VERTEX
  8
0300LEVEL
 62
13
 10
405.480
 20
-896.173
 30
4927.000
 70
    32
  0
VERTEX
  8
0300LEVEL
 62
13
 10
394.355
 20
-892.186
 30
4927.000
 70
    32
  0
VERTEX
  8
0300LEVEL
 62
13
 10
389.727
 20
-904.212
 30
4927.000
 70
    32
  0
VERTEX
  8
0300LEVEL
 62
13
 10
393.124
 20
-938.486
 30
4927.000
 70
    32
  0
VERTEX
  8
0300LEVEL
 62
13
 10
443.136
 20
-1068.025
 30
4927.000
 70
    32
  0
VERTEX
  8
0300LEVEL
 62
13
 10
461.026
 20
-1123.362
 30
4927.000
 70
    32
  0
VERTEX
  8
0300LEVEL
 62
13
 10
503.021
 20
-1325.683
 30
4927.000
 70
    32
  0
VERTEX
  8
0300LEVEL
 62
13
 10
489.180
 20
-1309.425
 30
4927.000
 70
    32
  0
VERTEX
  8
0300LEVEL
 62
13
 10
462.279
 20
-1315.223
 30
4927.000
 70
    32
  0
VERTEX
  8
0300LEVEL
 62
13
 10
426.590
 20
-1287.655
 30
4927.000
 70
    32
  0
VERTEX
  8
0300LEVEL
 62
13
 10
291.113
 20
-1063.535
 30
4927.000
 70
    32
  0
VERTEX
  8
0300LEVEL
 62
13
 10
156.781
 20
-788.853
 30
4927.000
 70
    32
  0
VERTEX
  8
0300LEVEL
 62
13
 10
56.213
 20
-646.921
 30
4927.000
 70
    32
  0
VERTEX
  8
0300LEVEL
 62
13
 10
-30.449
 20
-483.164
 30
4927.000
 70
    32
  0
VERTEX
  8
0300LEVEL
 62
13
 10
-42.267
 20
-494.817
 30
4927.000
 70
    32
  0
VERTEX
  8
0300LEVEL
 62
13
 10
-51.481
 20
-542.620
 30
4927.000
 70
    32
  0
VERTEX
  8
0300LEVEL
 62
13
 10
-51.723
 20
-625.818
 30
4927.000
 70
    32
  0
VERTEX
  8
0300LEVEL
 62
13
 10
-38.457
 20
-680.131
 30
4927.000
 70
    32
  0
VERTEX
  8
0300LEVEL
 62
13
 10
-56.392
 20
-673.331
 30
4927.000
 70
    32
  0
VERTEX
  8
0300LEVEL
 62
13
 10
-138.851
 20
-535.477
 30
4927.000
 70
    32
  0
VERTEX
  8
0300LEVEL
 62
13
 10
-162.906
 20
-478.230
 30
4927.000
 70
    32
  0
VERTEX
  8
0300LEVEL
 62
13
 10
-211.246
 20
-440.437
 30
4927.000
 70
    32
  0
VERTEX
  8
0300LEVEL
 62
13
 10
-224.532
 20
-419.866
 30
4927.000
 70
    32
  0
VERTEX
  8
0300LEVEL
 62
13
 10
-304.117
 20
-189.975
 30
4927.000
 70
    32
  0
VERTEX
  8
0300LEVEL
 62
13
 10
-382.465
 20
-53.013
 30
4927.000
 70
    32
  0
VERTEX
  8
0300LEVEL
 62
13
 10
-424.346
 20
-23.477
 30
4927.000
 70
    32
  0
VERTEX
  8
0300LEVEL
 62
13
 10
-461.327
 20
39.037
 30
4927.000
 70
    32
  0
VERTEX
  8
0300LEVEL
 62
13
 10
-541.414
 20
112.032
 30
4927.000
 70
    32
  0
VERTEX
  8
0300LEVEL
 62
13
 10
-550.862
 20
110.758
 30
4927.000
 70
    32
  0
VERTEX
  8
0300LEVEL
 62
13
 10
-550.411
 20
102.439
 30
4927.000
 70
    32
  0
VERTEX
  8
0300LEVEL
 62
13
 10
-495.470
 20
-56.365
 30
4927.000
 70
    32
  0
VERTEX
  8
0300LEVEL
 62
13
 10
-513.770
 20
-61.506
 30
4927.000
 70
    32
  0
VERTEX
  8
0300LEVEL
 62
13
 10
-582.216
 20
36.417
 30
4927.000
 70
    32
  0
VERTEX
  8
0300LEVEL
 62
13
 10
-639.395
 20
92.837
 30
4927.000
 70
    32
  0
VERTEX
  8
0300LEVEL
 62
13
 10
-662.618
 20
128.207
 30
4927.000
 70
    32
  0
VERTEX
  8
0300LEVEL
 62
13
 10
-662.879
 20
145.745
 30
4927.000
 70
    32
  0
VERTEX
  8
0300LEVEL
 62
13
 10
-694.615
 20
219.439
 30
4927.000
 70
    32
  0
VERTEX
  8
0300LEVEL
 62
13
 10
-818.395
 20
435.233
 30
4927.000
 70
    32
  0
VERTEX
  8
0300LEVEL
 62
13
 10
-849.906
 20
542.387
 30
4927.000
 70
    32
  0
VERTEX
  8
0300LEVEL
 62
13
 10
-915.615
 20
646.631
 30
4927.000
 70
    32
  0
VERTEX
  8
0300LEVEL
 62
13
 10
-1027.606
 20
861.084
 30
4927.000
 70
    32
  0
VERTEX
  8
0300LEVEL
 62
13
 10
-1200.866
 20
1150.593
 30
4927.000
 70
    32
  0
VERTEX
  8
0300LEVEL
 62
13
 10
-1269.403
 20
1241.531
 30
4927.000
 70
    32
  0
VERTEX
  8
0300LEVEL
 62
13
 10
-1298.203
 20
1310.018
 30
4927.000
 70
    32
  0
VERTEX
  8
0300LEVEL
 62
13
 10
-1340.054
 20
1352.546
 30
4927.000
 70
    32
  0
VERTEX
  8
0300LEVEL
 62
13
 10
-1344.568
 20
1349.252
 30
4927.000
 70
    32
  0
VERTEX
  8
0300LEVEL
 62
13
 10
-1327.968
 20
1282.671
 30
4927.000
 70
    32
  0
VERTEX
  8
0300LEVEL
 62
13
 10
-1298.060
 20
1256.504
 30
4927.000
 70
    32
  0
VERTEX
  8
0300LEVEL
 62
13
 10
-1167.143
 20
1041.595
 30
4927.000
 70
    32
  0
VERTEX
  8
0300LEVEL
 62
13
 10
-990.265
 20
708.028
 30
4927.000
 70
    32
  0
VERTEX
  8
0300LEVEL
 62
13
 10
-950.778
 20
607.129
 30
4927.000
 70
    32
  0
VERTEX
  8
0300LEVEL
 62
13
 10
-923.734
 20
408.938
 30
4927.000
 70
    32
  0
VERTEX
  8
0300LEVEL
 62
13
 10
-790.574
 20
113.942
 30
4927.000
 70
    32
  0
VERTEX
  8
0300LEVEL
 62
13
 10
-740.574
 20
21.149
 30
4927.000
 70
    32
  0
VERTEX
  8
0300LEVEL
 62
13
 10
-702.686
 20
-30.759
 30
4927.000
 70
    32
  0
SEQEND
  8
0300LEVEL
  0
POLYLINE
  8
0300LEVEL
 62
7
 66
     1
 70
     8
  0
VERTEX
  8
0300LEVEL
 62
7
 10
947.863
 20
-2084.177
 30
4927.000
 70
    32
  0
VERTEX
  8
0300LEVEL
 62
7
 10
981.900
 20
-2136.734
 30
4927.000
 70
    32
  0
VERTEX
  8
0300LEVEL
 62
7
 10
984.082
 20
-2151.572
 30
4927.000
 70
    32
  0
VERTEX
  8
0300LEVEL
 62
7
 10
968.183
 20
-2149.340
 30
4927.000
 70
    32
  0
VERTEX
  8
0300LEVEL
 62
7
 10
956.231
 20
-2187.467
 30
4927.000
 70
    32
  0
VERTEX
  8
0300LEVEL
 62
7
 10
926.109
 20
-2175.870
 30
4927.000
 70
    32
  0
SEQEND
  8
0300LEVEL
  0
POLYLINE
  8
0300LEVEL
 62
7
 66
     1
 70
     8
  0
VERTEX
  8
0300LEVEL
 62
7
 10
580.475
 20
-1597.465
 30
4927.000
 70
    32
  0
VERTEX
  8
0300LEVEL
 62
7
 10
488.655
 20
-1468.067
 30
4927.000
 70
    32
  0
VERTEX
  8
0300LEVEL
 62
7
 10
461.477
 20
-1446.826
 30
4927.000
 70
    32
  0
VERTEX
  8
0300LEVEL
 62
7
 10
369.085
 20
-1326.168
 30
4927.000
 70
    32
  0
VERTEX
  8
0300LEVEL
 62
7
 10
306.307
 20
-1179.138
 30
4927.000
 70
    32
  0
VERTEX
  8
0300LEVEL
 62
7
 10
236.732
 20
-1082.039
 30
4927.000
 70
    32
  0
VERTEX
  8
0300LEVEL
 62
7
 10
203.230
 20
-966.827
 30
4927.000
 70
    32
  0
VERTEX
  8
0300LEVEL
 62
7
 10
172.921
 20
-901.604
 30
4927.000
 70
    32
  0
VERTEX
  8
0300LEVEL
 62
7
 10
124.439
 20
-826.296
 30
4927.000
 70
    32
  0
VERTEX
  8
0300LEVEL
 62
7
 10
114.352
 20
-828.470
 30
4927.000
 70
    32
  0
VERTEX
  8
0300LEVEL
 62
7
 10
97.266
 20
-853.048
 30
4927.000
 70
    32
  0
VERTEX
  8
0300LEVEL
 62
7
 10
90.022
 20
-851.417
 30
4927.000
 70
    32
  0
VERTEX
  8
0300LEVEL
 62
7
 10
52.529
 20
-774.574
 30
4927.000
 70
    32
  0
VERTEX
  8
0300LEVEL
 62
7
 10
16.146
 20
-746.647
 30
4927.000
 70
    32
  0
VERTEX
  8
0300LEVEL
 62
7
 10
15.610
 20
-793.305
 30
4927.000
 70
    32
  0
VERTEX
  8
0300LEVEL
 62
7
 10
120.013
 20
-1075.563
 30
4927.000
 70
    32
  0
VERTEX
  8
0300LEVEL
 62
7
 10
148.830
 20
-1228.787
 30
4927.000
 70
    32
  0
VERTEX
  8
0300LEVEL
 62
7
 10
153.274
 20
-1289.971
 30
4927.000
 70
    32
  0
VERTEX
  8
0300LEVEL
 62
7
 10
112.215
 20
-1245.567
 30
4927.000
 70
    32
  0
VERTEX
  8
0300LEVEL
 62
7
 10
78.411
 20
-1223.541
 30
4927.000
 70
    32
  0
VERTEX
  8
0300LEVEL
 62
7
 10
58.341
 20
-1155.168
 30
4927.000
 70
    32
  0
VERTEX
  8
0300LEVEL
 62
7
 10
-3.881
 20
-1002.977
 30
4927.000
 70
    32
  0
VERTEX
  8
0300LEVEL
 62
7
 10
-21.909
 20
-911.927
 30
4927.000
 70
    32
  0
VERTEX
  8
0300LEVEL
 62
7
 10
-53.013
 20
-832.582
 30
4927.000
 70
    32
  0
VERTEX
  8
0300LEVEL
 62
7
 10
-109.456
 20
-741.033
 30
4927.000
 70
    32
  0
VERTEX
  8
0300LEVEL
 62
7
 10
-154.253
 20
-613.309
 30
4927.000
 70
    32
  0
VERTEX
  8
0300LEVEL
 62
7
 10
-186.953
 20
-576.208
 30
4927.000
 70
    32
  0
VERTEX
  8
0300LEVEL
 62
7
 10
-274.362
 20
-351.595
 30
4927.000
 70
    32
  0
VERTEX
  8
0300LEVEL
 62
7
 10
-293.091
 20
-330.674
 30
4927.000
 70
    32
  0
VERTEX
  8
0300LEVEL
 62
7
 10
-294.570
 20
-336.942
 30
4927.000
 70
    32
  0
VERTEX
  8
0300LEVEL
 62
7
 10
-278.293
 20
-379.977
 30
4927.000
 70
    32
  0
VERTEX
  8
0300LEVEL
 62
7
 10
-265.538
 20
-511.197
 30
4927.000
 70
    32
  0
VERTEX
  8
0300LEVEL
 62
7
 10
-189.905
 20
-711.975
 30
4927.000
 70
    32
  0
VERTEX
  8
0300LEVEL
 62
7
 10
-151.686
 20
-867.417
 30
4927.000
 70
    32
  0
VERTEX
  8
0300LEVEL
 62
7
 10
-142.170
 20
-936.142
 30
4927.000
 70
    32
  0
VERTEX
  8
0300LEVEL
 62
7
 10
-144.388
 20
-945.544
 30
4927.000
 70
    32
  0
VERTEX
  8
0300LEVEL
 62
7
 10
-154.476
 20
-947.718
 30
4927.000
 70
    32
  0
VERTEX
  8
0300LEVEL
 62
7
 10
-165.740
 20
-938.211
 30
4927.000
 70
    32
  0
VERTEX
  8
0300LEVEL
 62
7
 10
-188.286
 20
-877.700
 30
4927.000
 70
    32
  0
VERTEX
  8
0300LEVEL
 62
7
 10
-251.870
 20
-755.040
 30
4927.000
 70
    32
  0
VERTEX
  8
0300LEVEL
 62
7
 10
-253.039
 20
-732.112
 30
4927.000
 70
    32
  0
VERTEX
  8
0300LEVEL
 62
7
 10
-286.493
 20
-645.402
 30
4927.000
 70
    32
  0
VERTEX
  8
0300LEVEL
 62
7
 10
-451.365
 20
-350.203
 30
4927.000
 70
    32
  0
VERTEX
  8
0300LEVEL
 62
7
 10
-494.559
 20
-228.228
 30
4927.000
 70
    32
  0
VERTEX
  8
0300LEVEL
 62
7
 10
-549.571
 20
-117.906
 30
4927.000
 70
    32
  0
VERTEX
  8
0300LEVEL
 62
7
 10
-765.454
 20
230.000
 30
4927.000
 70
    32
  0
VERTEX
  8
0300LEVEL
 62
7
 10
-877.304
 20
482.175
 30
4927.000
 70
    32
  0
VERTEX
  8
0300LEVEL
 62
7
 10
-904.627
 20
497.690
 30
4927.000
 70
    32
  0
VERTEX
  8
0300LEVEL
 62
7
 10
-910.834
 20
433.920
 30
4927.000
 70
    32
  0
VERTEX
  8
0300LEVEL
 62
7
 10
-902.693
 20
388.406
 30
4927.000
 70
    32
  0
VERTEX
  8
0300LEVEL
 62
7
 10
-702.686
 20
-30.759
 30
4927.000
 70
    32
  0
SEQEND
  8
0300LEVEL
  0
POLYLINE
  8
0300LEVEL
 62
5
 66
     1
 70
     9
  0
VERTEX
  8
0300LEVEL
 62
5
 10
1256.761
 20
-1918.262
 30
4927.000
 70
    32
  0
VERTEX
  8
0300LEVEL
 62
5
 10
1244.117
 20
-1858.545
 30
4927.000
 70
    32
  0
VERTEX
  8
0300LEVEL
 62
5
 10
1245.859
 20
-1852.057
 30
4927.000
 70
    32
  0
VERTEX
  8
0300LEVEL
 62
5
 10
1255.885
 20
-1856.840
 30
4927.000
 70
    32
  0
VERTEX
  8
0300LEVEL
 62
5
 10
1270.084
 20
-1929.302
 30
4927.000
 70
    32
  0
VERTEX
  8
0300LEVEL
 62
5
 10
1263.087
 20
-1943.994
 30
4927.000
 70
    32
  0
SEQEND
  8
0300LEVEL
  0
POLYLINE
  8
0300LEVEL
 62
5
 66
     1
 70
     8
  0
VERTEX
  8
0300LEVEL
 62
5
 10
807.258
 20
-1637.981
 30
4927.000
 70
    32
  0
VERTEX
  8
0300LEVEL
 62
5
 10
781.349
 20
-1625.000
 30
4927.000
 70
    32
  0
VERTEX
  8
0300LEVEL
 62
5
 10
763.249
 20
-1716.908
 30
4927.000
 70
    32
  0
VERTEX
  8
0300LEVEL
 62
5
 10
734.313
 20
-1658.899
 30
4927.000
 70
    32
  0
VERTEX
  8
0300LEVEL
 62
5
 10
744.785
 20
-1611.042
 30
4927.000
 70
    32
  0
VERTEX
  8
0300LEVEL
 62
5
 10
743.546
 20
-1577.354
 30
4927.000
 70
    32
  0
VERTEX
  8
0300LEVEL
 62
5
 10
690.732
 20
-1491.371
 30
4927.000
 70
    32
  0
VERTEX
  8
0300LEVEL
 62
5
 10
660.960
 20
-1477.924
 30
4927.000
 70
    32
  0
SEQEND
  8
0300LEVEL
  0
POLYLINE
  8
0300LEVEL
 62
5
 66
     1
 70
     8
  0
VERTEX
  8
0300LEVEL
 62
5
 10
819.507
 20
-2057.363
 30
4927.000
 70
    32
  0
VERTEX
  8
0300LEVEL
 62
5
 10
832.438
 20
-2076.130
 30
4927.000
 70
    32
  0
VERTEX
  8
0300LEVEL
 62
5
 10
859.562
 20
-2073.389
 30
4927.000
 70
    32
  0
VERTEX
  8
0300LEVEL
 62
5
 10
893.410
 20
-2135.165
 30
4927.000
 70
    32
  0
VERTEX
  8
0300LEVEL
 62
5
 10
926.109
 20
-2175.870
 30
4927.000
 70
    32
  0
SEQEND
  8
0300LEVEL
  0
POLYLINE
  8
0300LEVEL
 62
5
 66
     1
 70
     9
  0
VERTEX
  8
0300LEVEL
 62
5
 10
513.793
 20
-373.651
 30
4927.000
 70
    32
  0
VERTEX
  8
0300LEVEL
 62
5
 10
648.048
 20
-798.407
 30
4927.000
 70
    32
  0
VERTEX
  8
0300LEVEL
 62
5
 10
659.093
 20
-806.348
 30
4927.000
 70
    32
  0
VERTEX
  8
0300LEVEL
 62
5
 10
673.525
 20
-782.286
 30
4927.000
 70
    32
  0
VERTEX
  8
0300LEVEL
 62
5
 10
667.506
 20
-746.345
 30
4927.000
 70
    32
  0
VERTEX
  8
0300LEVEL
 62
5
 10
612.475
 20
-592.349
 30
4927.000
 70
    32
  0
VERTEX
  8
0300LEVEL
 62
5
 10
596.202
 20
-527.204
 30
4927.000
 70
    32
  0
VERTEX
  8
0300LEVEL
 62
5
 10
594.079
 20
-498.233
 30
4927.000
 70
    32
  0
VERTEX
  8
0300LEVEL
 62
5
 10
699.134
 20
-716.153
 30
4927.000
 70
    32
  0
VERTEX
  8
0300LEVEL
 62
5
 10
705.154
 20
-788.117
 30
4927.000
 70
    32
  0
VERTEX
  8
0300LEVEL
 62
5
 10
675.899
 20
-804.412
 30
4927.000
 70
    32
  0
VERTEX
  8
0300LEVEL
 62
5
 10
666.333
 20
-824.464
 30
4927.000
 70
    32
  0
VERTEX
  8
0300LEVEL
 62
5
 10
777.878
 20
-1130.930
 30
4927.000
 70
    32
  0
VERTEX
  8
0300LEVEL
 62
5
 10
855.842
 20
-1264.163
 30
4927.000
 70
    32
  0
VERTEX
  8
0300LEVEL
 62
5
 10
991.868
 20
-1469.302
 30
4927.000
 70
    32
  0
VERTEX
  8
0300LEVEL
 62
5
 10
824.261
 20
-1166.282
 30
4927.000
 70
    32
  0
VERTEX
  8
0300LEVEL
 62
5
 10
698.762
 20
-856.184
 30
4927.000
 70
    32
  0
VERTEX
  8
0300LEVEL
 62
5
 10
687.009
 20
-820.117
 30
4927.000
 70
    32
  0
VERTEX
  8
0300LEVEL
 62
5
 10
690.533
 20
-810.149
 30
4927.000
 70
    32
  0
VERTEX
  8
0300LEVEL
 62
5
 10
715.551
 20
-805.214
 30
4927.000
 70
    32
  0
VERTEX
  8
0300LEVEL
 62
5
 10
739.181
 20
-784.808
 30
4927.000
 70
    32
  0
VERTEX
  8
0300LEVEL
 62
5
 10
758.253
 20
-808.984
 30
4927.000
 70
    32
  0
VERTEX
  8
0300LEVEL
 62
5
 10
799.094
 20
-882.263
 30
4927.000
 70
    32
  0
VERTEX
  8
0300LEVEL
 62
5
 10
826.694
 20
-950.518
 30
4927.000
 70
    32
  0
VERTEX
  8
0300LEVEL
 62
5
 10
842.170
 20
-1021.174
 30
4927.000
 70
    32
  0
VERTEX
  8
0300LEVEL
 62
5
 10
896.146
 20
-1139.486
 30
4927.000
 70
    32
  0
VERTEX
  8
0300LEVEL
 62
5
 10
933.235
 20
-1202.937
 30
4927.000
 70
    32
  0
VERTEX
  8
0300LEVEL
 62
5
 10
945.159
 20
-1206.759
 30
4927.000
 70
    32
  0
VERTEX
  8
0300LEVEL
 62
5
 10
944.490
 20
-1196.400
 30
4927.000
 70
    32
  0
VERTEX
  8
0300LEVEL
 62
5
 10
904.499
 20
-1092.982
 30
4927.000
 70
    32
  0
VERTEX
  8
0300LEVEL
 62
5
 10
865.464
 20
-1020.980
 30
4927.000
 70
    32
  0
VERTEX
  8
0300LEVEL
 62
5
 10
822.769
 20
-886.129
 30
4927.000
 70
    32
  0
VERTEX
  8
0300LEVEL
 62
5
 10
783.592
 20
-821.609
 30
4927.000
 70
    32
  0
VERTEX
  8
0300LEVEL
 62
5
 10
748.596
 20
-729.711
 30
4927.000
 70
    32
  0
VERTEX
  8
0300LEVEL
 62
5
 10
770.645
 20
-742.584
 30
4927.000
 70
    32
  0
VERTEX
  8
0300LEVEL
 62
5
 10
826.698
 20
-834.196
 30
4927.000
 70
    32
  0
VERTEX
  8
0300LEVEL
 62
5
 10
835.257
 20
-838.755
 30
4927.000
 70
    32
  0
VERTEX
  8
0300LEVEL
 62
5
 10
835.864
 20
-826.590
 30
4927.000
 70
    32
  0
VERTEX
  8
0300LEVEL
 62
5
 10
759.448
 20
-699.598
 30
4927.000
 70
    32
  0
VERTEX
  8
0300LEVEL
 62
5
 10
671.394
 20
-503.036
 30
4927.000
 70
    32
  0
VERTEX
  8
0300LEVEL
 62
5
 10
671.529
 20
-489.048
 30
4927.000
 70
    32
  0
VERTEX
  8
0300LEVEL
 62
5
 10
683.544
 20
-490.633
 30
4927.000
 70
    32
  0
VERTEX
  8
0300LEVEL
 62
5
 10
685.792
 20
-431.689
 30
4927.000
 70
    32
  0
VERTEX
  8
0300LEVEL
 62
5
 10
681.643
 20
-419.548
 30
4927.000
 70
    32
  0
VERTEX
  8
0300LEVEL
 62
5
 10
699.291
 20
-431.749
 30
4927.000
 70
    32
  0
VERTEX
  8
0300LEVEL
 62
5
 10
757.401
 20
-513.169
 30
4927.000
 70
    32
  0
VERTEX
  8
0300LEVEL
 62
5
 10
764.674
 20
-527.788
 30
4927.000
 70
    32
  0
VERTEX
  8
0300LEVEL
 62
5
 10
760.975
 20
-548.737
 30
4927.000
 70
    32
  0
VERTEX
  8
0300LEVEL
 62
5
 10
797.572
 20
-626.871
 30
4927.000
 70
    32
  0
VERTEX
  8
0300LEVEL
 62
5
 10
825.103
 20
-666.098
 30
4927.000
 70
    32
  0
VERTEX
  8
0300LEVEL
 62
5
 10
1018.796
 20
-875.291
 30
4927.000
 70
    32
  0
VERTEX
  8
0300LEVEL
 62
5
 10
1081.749
 20
-933.185
 30
4927.000
 70
    32
  0
VERTEX
  8
0300LEVEL
 62
5
 10
1089.836
 20
-935.921
 30
4927.000
 70
    32
  0
VERTEX
  8
0300LEVEL
 62
5
 10
1094.711
 20
-923.658
 30
4927.000
 70
    32
  0
VERTEX
  8
0300LEVEL
 62
5
 10
892.615
 20
-715.433
 30
4927.000
 70
    32
  0
VERTEX
  8
0300LEVEL
 62
5
 10
798.666
 20
-578.758
 30
4927.000
 70
    32
  0
VERTEX
  8
0300LEVEL
 62
5
 10
751.474
 20
-474.991
 30
4927.000
 70
    32
  0
VERTEX
  8
0300LEVEL
 62
5
 10
700.652
 20
-421.200
 30
4927.000
 70
    32
  0
VERTEX
  8
0300LEVEL
 62
5
 10
690.356
 20
-393.612
 30
4927.000
 70
    32
  0
VERTEX
  8
0300LEVEL
 62
5
 10
662.867
 20
-357.393
 30
4927.000
 70
    32
  0
VERTEX
  8
0300LEVEL
 62
5
 10
648.210
 20
-296.118
 30
4927.000
 70
    32
  0
VERTEX
  8
0300LEVEL
 62
5
 10
605.374
 20
-306.337
 30
4927.000
 70
    32
  0
VERTEX
  8
0300LEVEL
 62
5
 10
630.433
 20
-355.192
 30
4927.000
 70
    32
  0
VERTEX
  8
0300LEVEL
 62
5
 10
652.463
 20
-522.159
 30
4927.000
 70
    32
  0
VERTEX
  8
0300LEVEL
 62
5
 10
683.897
 20
-606.259
 30
4927.000
 70
    32
  0
VERTEX
  8
0300LEVEL
 62
5
 10
682.904
 20
-603.376
 30
4927.000
 70
    32
  0
VERTEX
  8
0300LEVEL
 62
5
 10
616.381
 20
-484.878
 30
4927.000
 70
    32
  0
VERTEX
  8
0300LEVEL
 62
5
 10
564.630
 20
-338.888
 30
4927.000
 70
    32
  0
SEQEND
  8
0300LEVEL
  0
POLYLINE
  8
0300LEVEL
 62
5
 66
     1
 70
     9
  0
VERTEX
  8
0300LEVEL
 62
5
 10
481.566
 20
-2748.467
 30
4927.000
 70
    32
  0
VERTEX
  8
0300LEVEL
 62
5
 10
651.414
 20
-2645.325
 30
4927.000
 70
    32
  0
VERTEX
  8
0300LEVEL
 62
5
 10
782.224
 20
-2535.722
 30
4927.000
 70
    32
  0
VERTEX
  8
0300LEVEL
 62
5
 10
840.475
 20
-2472.073
 30
4927.000
 70
    32
  0
VERTEX
  8
0300LEVEL
 62
5
 10
1077.144
 20
-2250.806
 30
4927.000
 70
    32
  0
VERTEX
  8
0300LEVEL
 62
5
 10
1391.230
 20
-1922.288
 30
4927.000
 70
    32
  0
VERTEX
  8
0300LEVEL
 62
5
 10
1368.264
 20
-1895.766
 30
4927.000
 70
    32
  0
VERTEX
  8
0300LEVEL
 62
5
 10
1211.816
 20
-2045.482
 30
4927.000
 70
    32
  0
VERTEX
  8
0300LEVEL
 62
5
 10
1042.896
 20
-2240.823
 30
4927.000
 70
    32
  0
VERTEX
  8
0300LEVEL
 62
5
 10
876.660
 20
-2397.299
 30
4927.000
 70
    32
  0
VERTEX
  8
0300LEVEL
 62
5
 10
690.013
 20
-2559.663
 30
4927.000
 70
    32
  0
VERTEX
  8
0300LEVEL
 62
5
 10
479.934
 20
-2700.188
 30
4927.000
 70
    32
  0
SEQEND
  8
0300LEVEL
  0
POLYLINE
  8
0300LEVEL
 62
7
 66
     1
 70
     8
  0
VERTEX
  8
0300LEVEL
 62
7
 10
807.258
 20
-1637.981
 30
4927.000
 70
    32
  0
VERTEX
  8
0300LEVEL
 62
7
 10
802.465
 20
-1656.261
 30
4927.000
 70
    32
  0
VERTEX
  8
0300LEVEL
 62
7
 10
803.177
 20
-1705.651
 30
4927.000
 70
    32
  0
VERTEX
  8
0300LEVEL
 62
7
 10
826.312
 20
-1765.469
 30
4927.000
 70
    32
  0
VERTEX
  8
0300LEVEL
 62
7
 10
844.446
 20
-1894.067
 30
4927.000
 70
    32
  0
VERTEX
  8
0300LEVEL
 62
7
 10
831.099
 20
-2015.856
 30
4927.000
 70
    32
  0
VERTEX
  8
0300LEVEL
 62
7
 10
839.176
 20
-2026.756
 30
4927.000
 70
    32
  0
SEQEND
  8
0300LEVEL
  0
POLYLINE
  8
0300LEVEL
 62
5
 66
     1
 70
     9
  0
VERTEX
  8
0300LEVEL
 62
5
 10
857.229
 20
-2715.615
 30
4927.000
 70
    32
  0
VERTEX
  8
0300LEVEL
 62
5
 10
841.673
 20
-2661.078
 30
4927.000
 70
    32
  0
VERTEX
  8
0300LEVEL
 62
5
 10
806.673
 20
-2559.792
 30
4927.000
 70
    32
  0
VERTEX
  8
0300LEVEL
 62
5
 10
795.007
 20
-2503.306
 30
4927.000
 70
    32
  0
VERTEX
  8
0300LEVEL
 62
5
 10
756.118
 20
-2378.647
 30
4927.000
 70
    32
  0
VERTEX
  8
0300LEVEL
 62
5
 10
718.398
 20
-2229.144
 30
4927.000
 70
    32
  0
VERTEX
  8
0300LEVEL
 62
5
 10
656.334
 20
-2041.449
 30
4927.000
 70
    32
  0
VERTEX
  8
0300LEVEL
 62
5
 10
631.840
 20
-1890.616
 30
4927.000
 70
    32
  0
VERTEX
  8
0300LEVEL
 62
5
 10
569.127
 20
-1641.139
 30
4927.000
 70
    32
  0
VERTEX
  8
0300LEVEL
 62
5
 10
544.427
 20
-1576.829
 30
4927.000
 70
    32
  0
VERTEX
  8
0300LEVEL
 62
5
 10
531.496
 20
-1597.618
 30
4927.000
 70
    32
  0
VERTEX
  8
0300LEVEL
 62
5
 10
514.411
 20
-1534.221
 30
4927.000
 70
    32
  0
VERTEX
  8
0300LEVEL
 62
5
 10
489.275
 20
-1500.613
 30
4927.000
 70
    32
  0
VERTEX
  8
0300LEVEL
 62
5
 10
482.346
 20
-1508.311
 30
4927.000
 70
    32
  0
VERTEX
  8
0300LEVEL
 62
5
 10
484.171
 20
-1543.861
 30
4927.000
 70
    32
  0
VERTEX
  8
0300LEVEL
 62
5
 10
547.806
 20
-1777.470
 30
4927.000
 70
    32
  0
VERTEX
  8
0300LEVEL
 62
5
 10
578.628
 20
-1852.471
 30
4927.000
 70
    32
  0
VERTEX
  8
0300LEVEL
 62
5
 10
636.406
 20
-2076.930
 30
4927.000
 70
    32
  0
VERTEX
  8
0300LEVEL
 62
5
 10
767.399
 20
-2491.932
 30
4927.000
 70
    32
  0
VERTEX
  8
0300LEVEL
 62
5
 10
781.799
 20
-2536.046
 30
4927.000
 70
    32
  0
VERTEX
  8
0300LEVEL
 62
5
 10
827.518
 20
-2691.232
 30
4927.000
 70
    32
  0
VERTEX
  8
0300LEVEL
 62
5
 10
829.350
 20
-2733.288
 30
4927.000
 70
    32
  0
SEQEND
  8
0300LEVEL
  0
POLYLINE
  8
0300LEVEL
 62
5
 66
     1
 70
     9
  0
VERTEX
  8
0300LEVEL
 62
5
 10
1055.560
 20
-3342.808
 30
4927.000
 70
    32
  0
VERTEX
  8
0300LEVEL
 62
5
 10
1036.116
 20
-3298.008
 30
4927.000
 70
    32
  0
VERTEX
  8
0300LEVEL
 62
5
 10
1010.838
 20
-3222.044
 30
4927.000
 70
    32
  0
VERTEX
  8
0300LEVEL
 62
5
 10
991.394
 20
-3140.237
 30
4927.000
 70
    32
  0
VERTEX
  8
0300LEVEL
 62
5
 10
966.116
 20
-3074.012
 30
4927.000
 70
    32
  0
VERTEX
  8
0300LEVEL
 62
5
 10
938.894
 20
-2984.413
 30
4927.000
 70
    32
  0
VERTEX
  8
0300LEVEL
 62
5
 10
888.339
 20
-2883.128
 30
4927.000
 70
    32
  0
VERTEX
  8
0300LEVEL
 62
5
 10
859.172
 20
-2824.694
 30
4927.000
 70
    32
  0
VERTEX
  8
0300LEVEL
 62
5
 10
804.939
 20
-2726.058
 30
4927.000
 70
    32
  0
VERTEX
  8
0300LEVEL
 62
5
 10
785.385
 20
-2708.312
 30
4927.000
 70
    32
  0
VERTEX
  8
0300LEVEL
 62
5
 10
709.288
 20
-2597.573
 30
4927.000
 70
    32
  0
VERTEX
  8
0300LEVEL
 62
5
 10
688.040
 20
-2561.113
 30
4927.000
 70
    32
  0
VERTEX
  8
0300LEVEL
 62
5
 10
630.463
 20
-2468.017
 30
4927.000
 70
    32
  0
VERTEX
  8
0300LEVEL
 62
5
 10
495.681
 20
-2264.781
 30
4927.000
 70
    32
  0
VERTEX
  8
0300LEVEL
 62
5
 10
495.681
 20
-2282.465
 30
4927.000
 70
    32
  0
VERTEX
  8
0300LEVEL
 62
5
 10
672.516
 20
-2572.365
 30
4927.000
 70
    32
  0
VERTEX
  8
0300LEVEL
 62
5
 10
694.567
 20
-2607.744
 30
4927.000
 70
    32
  0
VERTEX
  8
0300LEVEL
 62
5
 10
815.393
 20
-2795.196
 30
4927.000
 70
    32
  0
VERTEX
  8
0300LEVEL
 62
5
 10
949.799
 20
-3066.630
 30
4927.000
 70
    32
  0
VERTEX
  8
0300LEVEL
 62
5
 10
1004.343
 20
-3256.573
 30
4927.000
 70
    32
  0
VERTEX
  8
0300LEVEL
 62
5
 10
1051.063
 20
-3358.518
 30
4927.000
 70
    32
  0
SEQEND
  8
0300LEVEL
  0
POLYLINE
  8
0300LEVEL
 62
5
 66
     1
 70
     9
  0
VERTEX
  8
0300LEVEL
 62
5
 10
1267.503
 20
-3543.431
 30
1000.000
 70
    32
  0
VERTEX
  8
0300LEVEL
 62
5
 10
1228.615
 20
-3488.892
 30
1000.000
 70
    32
  0
VERTEX
  8
0300LEVEL
 62
5
 10
1203.337
 20
-3383.711
 30
1000.000
 70
    32
  0
VERTEX
  8
0300LEVEL
 62
5
 10
1174.171
 20
-3331.121
 30
1000.000
 70
    32
  0
VERTEX
  8
0300LEVEL
 62
5
 10
1246.770
 20
-3330.120
 30
4927.000
 70
    32
  0
VERTEX
  8
0300LEVEL
 62
5
 10
1296.016
 20
-3438.453
 30
4927.000
 70
    32
  0
VERTEX
  8
0300LEVEL
 62
5
 10
1333.614
 20
-3506.423
 30
4927.000
 70
    32
  0
SEQEND
  8
0300LEVEL
  0
POLYLINE
  8
0300LEVEL
 62
5
 66
     1
 70
     9
  0
VERTEX
  8
0300LEVEL
 62
5
 10
1131.393
 20
-3574.595
 30
4927.000
 70
    32
  0
VERTEX
  8
0300LEVEL
 62
5
 10
1123.615
 20
-3553.170
 30
4927.000
 70
    32
  0
VERTEX
  8
0300LEVEL
 62
5
 10
1111.949
 20
-3541.483
 30
4927.000
 70
    32
  0
VERTEX
  8
0300LEVEL
 62
5
 10
1086.671
 20
-3531.744
 30
4927.000
 70
    32
  0
VERTEX
  8
0300LEVEL
 62
5
 10
1075.005
 20
-3500.579
 30
4927.000
 70
    32
  0
VERTEX
  8
0300LEVEL
 62
5
 10
1069.171
 20
-3465.519
 30
4927.000
 70
    32
  0
VERTEX
  8
0300LEVEL
 62
5
 10
1035.362
 20
-3390.891
 30
4927.000
 70
    32
  0
VERTEX
  8
0300LEVEL
 62
5
 10
1021.155
 20
-3362.706
 30
4927.000
 70
    32
  0
VERTEX
  8
0300LEVEL
 62
5
 10
1001.042
 20
-3366.638
 30
4927.000
 70
    32
  0
VERTEX
  8
0300LEVEL
 62
5
 10
1074.765
 20
-3540.749
 30
4927.000
 70
    32
  0
VERTEX
  8
0300LEVEL
 62
5
 10
1074.208
 20
-3547.668
 30
4927.000
 70
    32
  0
VERTEX
  8
0300LEVEL
 62
5
 10
1061.083
 20
-3545.163
 30
4927.000
 70
    32
  0
VERTEX
  8
0300LEVEL
 62
5
 10
1040.315
 20
-3500.966
 30
4927.000
 70
    32
  0
VERTEX
  8
0300LEVEL
 62
5
 10
1013.910
 20
-3475.670
 30
4927.000
 70
    32
  0
VERTEX
  8
0300LEVEL
 62
5
 10
987.441
 20
-3478.632
 30
4927.000
 70
    32
  0
VERTEX
  8
0300LEVEL
 62
5
 10
987.089
 20
-3500.592
 30
4927.000
 70
    32
  0
VERTEX
  8
0300LEVEL
 62
5
 10
1040.841
 20
-3620.371
 30
4927.000
 70
    32
  0
SEQEND
  8
0300LEVEL
  0
POLYLINE
  8
0300LEVEL
 62
5
 66
     1
 70
     9
  0
VERTEX
  8
0300LEVEL
 62
5
 10
596.129
 20
-1524.937
 30
4927.000
 70
    32
  0
VERTEX
  8
0300LEVEL
 62
5
 10
577.905
 20
-1434.599
 30
4927.000
 70
    32
  0
VERTEX
  8
0300LEVEL
 62
5
 10
492.082
 20
-1130.060
 30
4927.000
 70
    32
  0
VERTEX
  8
0300LEVEL
 62
5
 10
476.447
 20
-1119.417
 30
4927.000
 70
    32
  0
VERTEX
  8
0300LEVEL
 62
5
 10
470.910
 20
-1127.827
 30
4927.000
 70
    32
  0
VERTEX
  8
0300LEVEL
 62
5
 10
506.290
 20
-1295.832
 30
4927.000
 70
    32
  0
VERTEX
  8
0300LEVEL
 62
5
 10
534.766
 20
-1374.728
 30
4927.000
 70
    32
  0
VERTEX
  8
0300LEVEL
 62
5
 10
583.691
 20
-1617.847
 30
4927.000
 70
    32
  0
VERTEX
  8
0300LEVEL
 62
5
 10
597.226
 20
-1650.433
 30
4927.000
 70
    32
  0
VERTEX
  8
0300LEVEL
 62
5
 10
581.992
 20
-1663.366
 30
4927.000
 70
    32
  0
VERTEX
  8
0300LEVEL
 62
5
 10
620.104
 20
-1802.020
 30
4927.000
 70
    32
  0
VERTEX
  8
0300LEVEL
 62
5
 10
635.217
 20
-1816.085
 30
4927.000
 70
    32
  0
VERTEX
  8
0300LEVEL
 62
5
 10
636.549
 20
-1779.516
 30
4927.000
 70
    32
  0
VERTEX
  8
0300LEVEL
 62
5
 10
612.312
 20
-1674.501
 30
4927.000
 70
    32
  0
VERTEX
  8
0300LEVEL
 62
5
 10
642.155
 20
-1662.548
 30
4927.000
 70
    32
  0
VERTEX
  8
0300LEVEL
 62
5
 10
646.534
 20
-1643.705
 30
4927.000
 70
    32
  0
VERTEX
  8
0300LEVEL
 62
5
 10
601.890
 20
-1565.842
 30
4927.000
 70
    32
  0
SEQEND
  8
0300LEVEL
  0
POLYLINE
  8
0300LEVEL
 62
5
 66
     1
 70
     8
  0
VERTEX
  8
0300LEVEL
 62
5
 10
819.507
 20
-2057.363
 30
4927.000
 70
    32
  0
VERTEX
  8
0300LEVEL
 62
5
 10
788.480
 20
-1967.321
 30
4927.000
 70
    32
  0
VERTEX
  8
0300LEVEL
 62
5
 10
782.605
 20
-1873.116
 30
4927.000
 70
    32
  0
VERTEX
  8
0300LEVEL
 62
5
 10
759.184
 20
-1741.459
 30
4927.000
 70
    32
  0
VERTEX
  8
0300LEVEL
 62
5
 10
750.037
 20
-1732.557
 30
4927.000
 70
    32
  0
VERTEX
  8
0300LEVEL
 62
5
 10
742.313
 20
-1735.630
 30
4927.000
 70
    32
  0
VERTEX
  8
0300LEVEL
 62
5
 10
741.891
 20
-1779.343
 30
4927.000
 70
    32
  0
VERTEX
  8
0300LEVEL
 62
5
 10
722.082
 20
-1802.584
 30
4927.000
 70
    32
  0
VERTEX
  8
0300LEVEL
 62
5
 10
726.635
 20
-1874.324
 30
4927.000
 70
    32
  0
VERTEX
  8
0300LEVEL
 62
5
 10
714.557
 20
-1850.216
 30
4927.000
 70
    32
  0
VERTEX
  8
0300LEVEL
 62
5
 10
709.211
 20
-1809.875
 30
4927.000
 70
    32
  0
VERTEX
  8
0300LEVEL
 62
5
 10
721.832
 20
-1763.272
 30
4927.000
 70
    32
  0
VERTEX
  8
0300LEVEL
 62
5
 10
680.114
 20
-1679.352
 30
4927.000
 70
    32
  0
VERTEX
  8
0300LEVEL
 62
5
 10
686.006
 20
-1583.441
 30
4927.000
 70
    32
  0
VERTEX
  8
0300LEVEL
 62
5
 10
663.409
 20
-1482.429
 30
4927.000
 70
    32
  0
VERTEX
  8
0300LEVEL
 62
5
 10
624.538
 20
-1422.459
 30
4927.000
 70
    32
  0
VERTEX
  8
0300LEVEL
 62
5
 10
639.998
 20
-1393.300
 30
4927.000
 70
    32
  0
VERTEX
  8
0300LEVEL
 62
5
 10
653.400
 20
-1425.116
 30
4927.000
 70
    32
  0
VERTEX
  8
0300LEVEL
 62
5
 10
722.410
 20
-1485.937
 30
4927.000
 70
    32
  0
VERTEX
  8
0300LEVEL
 62
5
 10
632.915
 20
-1329.930
 30
4927.000
 70
    32
  0
VERTEX
  8
0300LEVEL
 62
5
 10
521.939
 20
-1131.118
 30
4927.000
 70
    32
  0
VERTEX
  8
0300LEVEL
 62
5
 10
504.691
 20
-1055.688
 30
4927.000
 70
    32
  0
VERTEX
  8
0300LEVEL
 62
5
 10
469.630
 20
-956.025
 30
4927.000
 70
    32
  0
VERTEX
  8
0300LEVEL
 62
5
 10
472.738
 20
-858.688
 30
4927.000
 70
    32
  0
VERTEX
  8
0300LEVEL
 62
5
 10
419.655
 20
-749.268
 30
4927.000
 70
    32
  0
VERTEX
  8
0300LEVEL
 62
5
 10
413.168
 20
-645.964
 30
4927.000
 70
    32
  0
VERTEX
  8
0300LEVEL
 62
5
 10
364.977
 20
-471.750
 30
4927.000
 70
    32
  0
VERTEX
  8
0300LEVEL
 62
5
 10
432.594
 20
-445.053
 30
4927.000
 70
    32
  0
VERTEX
  8
0300LEVEL
 62
5
 10
487.152
 20
-648.007
 30
4927.000
 70
    32
  0
VERTEX
  8
0300LEVEL
 62
5
 10
504.738
 20
-688.466
 30
4927.000
 70
    32
  0
VERTEX
  8
0300LEVEL
 62
5
 10
502.550
 20
-647.106
 30
4927.000
 70
    32
  0
VERTEX
  8
0300LEVEL
 62
5
 10
448.143
 20
-428.416
 30
4927.000
 70
    32
  0
VERTEX
  8
0300LEVEL
 62
5
 10
457.459
 20
-419.832
 30
4927.000
 70
    32
  0
VERTEX
  8
0300LEVEL
 62
5
 10
468.188
 20
-482.259
 30
4927.000
 70
    32
  0
VERTEX
  8
0300LEVEL
 62
5
 10
578.485
 20
-867.333
 30
4927.000
 70
    32
  0
VERTEX
  8
0300LEVEL
 62
5
 10
742.742
 20
-1270.905
 30
4927.000
 70
    32
  0
VERTEX
  8
0300LEVEL
 62
5
 10
758.723
 20
-1390.669
 30
4927.000
 70
    32
  0
VERTEX
  8
0300LEVEL
 62
5
 10
780.471
 20
-1471.039
 30
4927.000
 70
    32
  0
VERTEX
  8
0300LEVEL
 62
5
 10
774.223
 20
-1516.864
 30
4927.000
 70
    32
  0
VERTEX
  8
0300LEVEL
 62
5
 10
784.530
 20
-1572.222
 30
4927.000
 70
    32
  0
VERTEX
  8
0300LEVEL
 62
5
 10
803.296
 20
-1591.848
 30
4927.000
 70
    32
  0
VERTEX
  8
0300LEVEL
 62
5
 10
817.535
 20
-1580.514
 30
4927.000
 70
    32
  0
VERTEX
  8
0300LEVEL
 62
5
 10
814.850
 20
-1532.574
 30
4927.000
 70
    32
  0
VERTEX
  8
0300LEVEL
 62
5
 10
796.262
 20
-1487.209
 30
4927.000
 70
    32
  0
VERTEX
  8
0300LEVEL
 62
5
 10
782.775
 20
-1275.768
 30
4927.000
 70
    32
  0
VERTEX
  8
0300LEVEL
 62
5
 10
704.723
 20
-1079.233
 30
4927.000
 70
    32
  0
VERTEX
  8
0300LEVEL
 62
5
 10
652.877
 20
-1001.021
 30
4927.000
 70
    32
  0
VERTEX
  8
0300LEVEL
 62
5
 10
603.291
 20
-891.635
 30
4927.000
 70
    32
  0
VERTEX
  8
0300LEVEL
 62
5
 10
534.779
 20
-634.267
 30
4927.000
 70
    32
  0
VERTEX
  8
0300LEVEL
 62
5
 10
481.755
 20
-475.325
 30
4927.000
 70
    32
  0
VERTEX
  8
0300LEVEL
 62
5
 10
470.961
 20
-405.134
 30
4927.000
 70
    32
  0
VERTEX
  8
0300LEVEL
 62
5
 10
482.663
 20
-395.664
 30
4927.000
 70
    32
  0
VERTEX
  8
0300LEVEL
 62
5
 10
527.162
 20
-546.550
 30
4927.000
 70
    32
  0
VERTEX
  8
0300LEVEL
 62
5
 10
490.835
 20
-389.657
 30
4927.000
 70
    32
  0
VERTEX
  8
0300LEVEL
 62
5
 10
495.135
 20
-378.011
 30
4927.000
 70
    32
  0
VERTEX
  8
0300LEVEL
 62
5
 10
510.919
 20
-448.214
 30
4927.000
 70
    32
  0
VERTEX
  8
0300LEVEL
 62
5
 10
591.814
 20
-663.311
 30
4927.000
 70
    32
  0
VERTEX
  8
0300LEVEL
 62
5
 10
636.071
 20
-805.699
 30
4927.000
 70
    32
  0
VERTEX
  8
0300LEVEL
 62
5
 10
665.182
 20
-936.223
 30
4927.000
 70
    32
  0
VERTEX
  8
0300LEVEL
 62
5
 10
754.330
 20
-1096.868
 30
4927.000
 70
    32
  0
VERTEX
  8
0300LEVEL
 62
5
 10
820.188
 20
-1302.619
 30
4927.000
 70
    32
  0
VERTEX
  8
0300LEVEL
 62
5
 10
865.737
 20
-1555.190
 30
4927.000
 70
    32
  0
VERTEX
  8
0300LEVEL
 62
5
 10
862.804
 20
-1581.978
 30
4927.000
 70
    32
  0
VERTEX
  8
0300LEVEL
 62
5
 10
843.804
 20
-1598.008
 30
4927.000
 70
    32
  0
VERTEX
  8
0300LEVEL
 62
5
 10
875.415
 20
-1643.687
 30
4927.000
 70
    32
  0
VERTEX
  8
0300LEVEL
 62
5
 10
880.824
 20
-1668.277
 30
4927.000
 70
    32
  0
VERTEX
  8
0300LEVEL
 62
5
 10
897.289
 20
-1761.333
 30
4927.000
 70
    32
  0
VERTEX
  8
0300LEVEL
 62
5
 10
907.774
 20
-1975.935
 30
4927.000
 70
    32
  0
VERTEX
  8
0300LEVEL
 62
5
 10
918.989
 20
-2032.177
 30
4927.000
 70
    32
  0
VERTEX
  8
0300LEVEL
 62
5
 10
947.863
 20
-2084.177
 30
4927.000
 70
    32
  0
VERTEX
  8
0300LEVEL
 62
5
 10
922.885
 20
-2071.306
 30
4927.000
 70
    32
  0
VERTEX
  8
0300LEVEL
 62
5
 10
901.085
 20
-2059.950
 30
4927.000
 70
    32
  0
VERTEX
  8
0300LEVEL
 62
5
 10
869.694
 20
-2039.859
 30
4927.000
 70
    32
  0
VERTEX
  8
0300LEVEL
 62
5
 10
839.683
 20
-2025.172
 30
4927.000
 70
    32
  0
VERTEX
  8
0300LEVEL
 62
5
 10
869.808
 20
-1962.231
 30
4927.000
 70
    32
  0
VERTEX
  8
0300LEVEL
 62
5
 10
876.912
 20
-1856.749
 30
4927.000
 70
    32
  0
VERTEX
  8
0300LEVEL
 62
5
 10
869.728
 20
-1803.870
 30
4927.000
 70
    32
  0
VERTEX
  8
0300LEVEL
 62
5
 10
811.699
 20
-1641.662
 30
4927.000
 70
    32
  0
VERTEX
  8
0300LEVEL
 62
5
 10
807.258
 20
-1637.981
 30
4927.000
 70
    32
  0
SEQEND
  8
0300LEVEL
  0
POLYLINE
  8
0300LEVEL
 62
5
 66
     1
 70
     8
  0
VERTEX
  8
0300LEVEL
 62
5
 10
680.014
 20
-1680.520
 30
4927.000
 70
    32
  0
VERTEX
  8
0300LEVEL
 62
5
 10
669.825
 20
-1709.050
 30
4927.000
 70
    32
  0
VERTEX
  8
0300LEVEL
 62
5
 10
667.798
 20
-1832.068
 30
4927.000
 70
    32
  0
VERTEX
  8
0300LEVEL
 62
5
 10
731.309
 20
-2020.629
 30
4927.000
 70
    32
  0
VERTEX
  8
0300LEVEL
 62
5
 10
747.953
 20
-2042.683
 30
4927.000
 70
    32
  0
VERTEX
  8
0300LEVEL
 62
5
 10
784.738
 20
-2150.704
 30
4927.000
 70
    32
  0
VERTEX
  8
0300LEVEL
 62
5
 10
863.143
 20
-2340.355
 30
4927.000
 70
    32
  0
VERTEX
  8
0300LEVEL
 62
5
 10
895.599
 20
-2411.384
 30
4927.000
 70
    32
  0
VERTEX
  8
0300LEVEL
 62
5
 10
917.913
 20
-2470.236
 30
4927.000
 70
    32
  0
VERTEX
  8
0300LEVEL
 62
5
 10
968.626
 20
-2592.000
 30
4927.000
 70
    32
  0
VERTEX
  8
0300LEVEL
 62
5
 10
986.882
 20
-2667.088
 30
4927.000
 70
    32
  0
VERTEX
  8
0300LEVEL
 62
5
 10
1015.282
 20
-2729.999
 30
4927.000
 70
    32
  0
VERTEX
  8
0300LEVEL
 62
5
 10
1045.709
 20
-2823.352
 30
4927.000
 70
    32
  0
VERTEX
  8
0300LEVEL
 62
5
 10
1072.080
 20
-2910.616
 30
4927.000
 70
    32
  0
VERTEX
  8
0300LEVEL
 62
5
 10
1106.565
 20
-2995.851
 30
4927.000
 70
    32
  0
VERTEX
  8
0300LEVEL
 62
5
 10
1149.163
 20
-3068.909
 30
4927.000
 70
    32
  0
VERTEX
  8
0300LEVEL
 62
5
 10
1180.738
 20
-3105.651
 30
4927.000
 70
    32
  0
VERTEX
  8
0300LEVEL
 62
5
 10
1250.128
 20
-3221.314
 30
4927.000
 70
    32
  0
VERTEX
  8
0300LEVEL
 62
5
 10
1366.388
 20
-3387.162
 30
4927.000
 70
    32
  0
VERTEX
  8
0300LEVEL
 62
5
 10
1376.550
 20
-3377.957
 30
4927.000
 70
    32
  0
VERTEX
  8
0300LEVEL
 62
5
 10
1285.450
 20
-3250.473
 30
4927.000
 70
    32
  0
VERTEX
  8
0300LEVEL
 62
5
 10
1231.468
 20
-3161.679
 30
4927.000
 70
    32
  0
VERTEX
  8
0300LEVEL
 62
5
 10
1189.678
 20
-3063.489
 30
4927.000
 70
    32
  0
VERTEX
  8
0300LEVEL
 62
5
 10
1096.195
 20
-2922.133
 30
4927.000
 70
    32
  0
VERTEX
  8
0300LEVEL
 62
5
 10
1088.849
 20
-2893.244
 30
4927.000
 70
    32
  0
VERTEX
  8
0300LEVEL
 62
5
 10
1112.432
 20
-2899.347
 30
4927.000
 70
    32
  0
VERTEX
  8
0300LEVEL
 62
5
 10
1111.043
 20
-2883.875
 30
4927.000
 70
    32
  0
VERTEX
  8
0300LEVEL
 62
5
 10
1064.650
 20
-2805.996
 30
4927.000
 70
    32
  0
VERTEX
  8
0300LEVEL
 62
5
 10
1030.847
 20
-2721.034
 30
4927.000
 70
    32
  0
VERTEX
  8
0300LEVEL
 62
5
 10
1016.926
 20
-2663.123
 30
4927.000
 70
    32
  0
VERTEX
  8
0300LEVEL
 62
5
 10
995.295
 20
-2585.273
 30
4927.000
 70
    32
  0
VERTEX
  8
0300LEVEL
 62
5
 10
918.622
 20
-2402.085
 30
4927.000
 70
    32
  0
VERTEX
  8
0300LEVEL
 62
5
 10
909.734
 20
-2363.441
 30
4927.000
 70
    32
  0
VERTEX
  8
0300LEVEL
 62
5
 10
817.343
 20
-2158.346
 30
4927.000
 70
    32
  0
VERTEX
  8
0300LEVEL
 62
5
 10
762.166
 20
-1990.570
 30
4927.000
 70
    32
  0
VERTEX
  8
0300LEVEL
 62
5
 10
924.683
 20
-2348.994
 30
4927.000
 70
    32
  0
VERTEX
  8
0300LEVEL
 62
5
 10
937.406
 20
-2383.412
 30
4927.000
 70
    32
  0
VERTEX
  8
0300LEVEL
 62
5
 10
1018.014
 20
-2557.723
 30
4927.000
 70
    32
  0
VERTEX
  8
0300LEVEL
 62
5
 10
1076.491
 20
-2716.998
 30
4927.000
 70
    32
  0
VERTEX
  8
0300LEVEL
 62
5
 10
1179.199
 20
-2902.789
 30
4927.000
 70
    32
  0
VERTEX
  8
0300LEVEL
 62
5
 10
1187.212
 20
-2906.014
 30
4927.000
 70
    32
  0
VERTEX
  8
0300LEVEL
 62
5
 10
1188.450
 20
-2886.441
 30
4927.000
 70
    32
  0
VERTEX
  8
0300LEVEL
 62
5
 10
1160.501
 20
-2825.387
 30
4927.000
 70
    32
  0
VERTEX
  8
0300LEVEL
 62
5
 10
1079.324
 20
-2677.155
 30
4927.000
 70
    32
  0
VERTEX
  8
0300LEVEL
 62
5
 10
1047.271
 20
-2577.451
 30
4927.000
 70
    32
  0
VERTEX
  8
0300LEVEL
 62
5
 10
1024.395
 20
-2461.887
 30
4927.000
 70
    32
  0
VERTEX
  8
0300LEVEL
 62
5
 10
980.896
 20
-2340.876
 30
4927.000
 70
    32
  0
VERTEX
  8
0300LEVEL
 62
5
 10
967.648
 20
-2312.299
 30
4927.000
 70
    32
  0
VERTEX
  8
0300LEVEL
 62
5
 10
926.109
 20
-2175.870
 30
4927.000
 70
    32
  0
SEQEND
  8
0300LEVEL
  0
POLYLINE
  8
0300LEVEL
 62
7
 66
     1
 70
     8
  0
VERTEX
  8
0300LEVEL
 62
7
 10
-489.326
 20
-465.256
 30
4927.000
 70
    32
  0
VERTEX
  8
0300LEVEL
 62
7
 10
-422.640
 20
-644.890
 30
4927.000
 70
    32
  0
VERTEX
  8
0300LEVEL
 62
7
 10
-319.808
 20
-849.165
 30
4927.000
 70
    32
  0
VERTEX
  8
0300LEVEL
 62
7
 10
-72.126
 20
-1217.533
 30
4927.000
 70
    32
  0
VERTEX
  8
0300LEVEL
 62
7
 10
260.733
 20
-1767.173
 30
4927.000
 70
    32
  0
VERTEX
  8
0300LEVEL
 62
7
 10
391.830
 20
-2027.353
 30
4927.000
 70
    32
  0
VERTEX
  8
0300LEVEL
 62
7
 10
483.815
 20
-2270.677
 30
4927.000
 70
    32
  0
VERTEX
  8
0300LEVEL
 62
7
 10
639.640
 20
-2596.179
 30
4927.000
 70
    32
  0
VERTEX
  8
0300LEVEL
 62
7
 10
658.378
 20
-2637.654
 30
4927.000
 70
    32
  0
VERTEX
  8
0300LEVEL
 62
7
 10
674.960
 20
-2672.961
 30
4927.000
 70
    32
  0
VERTEX
  8
0300LEVEL
 62
7
 10
822.865
 20
-2881.524
 30
4927.000
 70
    32
  0
VERTEX
  8
0300LEVEL
 62
7
 10
934.931
 20
-3154.729
 30
4927.000
 70
    32
  0
VERTEX
  8
0300LEVEL
 62
7
 10
1022.917
 20
-3297.196
 30
4927.000
 70
    32
  0
VERTEX
  8
0300LEVEL
 62
7
 10
1040.483
 20
-3343.182
 30
4927.000
 70
    32
  0
VERTEX
  8
0300LEVEL
 62
7
 10
1033.972
 20
-3349.664
 30
4927.000
 70
    32
  0
VERTEX
  8
0300LEVEL
 62
7
 10
1023.427
 20
-3354.766
 30
4927.000
 70
    32
  0
VERTEX
  8
0300LEVEL
 62
7
 10
996.905
 20
-3342.126
 30
4927.000
 70
    32
  0
VERTEX
  8
0300LEVEL
 62
7
 10
955.694
 20
-3298.698
 30
4927.000
 70
    32
  0
VERTEX
  8
0300LEVEL
 62
7
 10
946.133
 20
-3308.703
 30
4927.000
 70
    32
  0
VERTEX
  8
0300LEVEL
 62
7
 10
957.421
 20
-3332.462
 30
4927.000
 70
    32
  0
VERTEX
  8
0300LEVEL
 62
7
 10
961.641
 20
-3367.865
 30
4927.000
 70
    32
  0
VERTEX
  8
0300LEVEL
 62
7
 10
954.086
 20
-3379.433
 30
4927.000
 70
    32
  0
VERTEX
  8
0300LEVEL
 62
7
 10
942.366
 20
-3372.854
 30
4927.000
 70
    32
  0
VERTEX
  8
0300LEVEL
 62
7
 10
884.962
 20
-3290.653
 30
4927.000
 70
    32
  0
VERTEX
  8
0300LEVEL
 62
7
 10
829.593
 20
-3121.784
 30
4927.000
 70
    32
  0
VERTEX
  8
0300LEVEL
 62
7
 10
819.771
 20
-3114.252
 30
4927.000
 70
    32
  0
VERTEX
  8
0300LEVEL
 62
7
 10
810.425
 20
-3070.050
 30
4927.000
 70
    32
  0
VERTEX
  8
0300LEVEL
 62
7
 10
760.916
 20
-3009.328
 30
4927.000
 70
    32
  0
VERTEX
  8
0300LEVEL
 62
7
 10
724.871
 20
-2998.451
 30
4927.000
 70
    32
  0
VERTEX
  8
0300LEVEL
 62
7
 10
679.940
 20
-2897.201
 30
4927.000
 70
    32
  0
VERTEX
  8
0300LEVEL
 62
7
 10
597.677
 20
-2798.121
 30
4927.000
 70
    32
  0
VERTEX
  8
0300LEVEL
 62
7
 10
539.563
 20
-2713.033
 30
4927.000
 70
    32
  0
VERTEX
  8
0300LEVEL
 62
7
 10
515.579
 20
-2675.570
 30
0.000
 70
    32
  0
VERTEX
  8
0300LEVEL
 62
7
 10
504.353
 20
-2657.820
 30
0.000
 70
    32
  0
VERTEX
  8
0300LEVEL
 62
7
 10
461.298
 20
-2557.363
 30
0.000
 70
    32
  0
VERTEX
  8
0300LEVEL
 62
7
 10
431.710
 20
-2463.508
 30
0.000
 70
    32
  0
VERTEX
  8
0300LEVEL
 62
7
 10
408.565
 20
-2368.410
 30
0.000
 70
    32
  0
VERTEX
  8
0300LEVEL
 62
7
 10
400.585
 20
-2326.670
 30
0.000
 70
    32
  0
VERTEX
  8
0300LEVEL
 62
7
 10
391.325
 20
-2302.728
 30
0.000
 70
    32
  0
VERTEX
  8
0300LEVEL
 62
7
 10
330.848
 20
-2209.799
 30
0.000
 70
    32
  0
VERTEX
  8
0300LEVEL
 62
7
 10
285.530
 20
-2122.237
 30
0.000
 70
    32
  0
VERTEX
  8
0300LEVEL
 62
7
 10
184.929
 20
-1961.303
 30
0.000
 70
    32
  0
VERTEX
  8
0300LEVEL
 62
7
 10
154.325
 20
-1918.781
 30
0.000
 70
    32
  0
VERTEX
  8
0300LEVEL
 62
7
 10
150.229
 20
-1911.392
 30
0.000
 70
    32
  0
VERTEX
  8
0300LEVEL
 62
7
 10
147.439
 20
-1916.456
 30
0.000
 70
    32
  0
VERTEX
  8
0300LEVEL
 62
7
 10
160.888
 20
-1972.797
 30
0.000
 70
    32
  0
VERTEX
  8
0300LEVEL
 62
7
 10
175.414
 20
-2043.053
 30
0.000
 70
    32
  0
VERTEX
  8
0300LEVEL
 62
7
 10
199.189
 20
-2116.504
 30
0.000
 70
    32
  0
VERTEX
  8
0300LEVEL
 62
7
 10
231.996
 20
-2215.361
 30
0.000
 70
    32
  0
VERTEX
  8
0300LEVEL
 62
7
 10
246.345
 20
-2272.342
 30
0.000
 70
    32
  0
VERTEX
  8
0300LEVEL
 62
7
 10
255.316
 20
-2307.737
 30
0.000
 70
    32
  0
VERTEX
  8
0300LEVEL
 62
7
 10
253.304
 20
-2317.421
 30
0.000
 70
    32
  0
VERTEX
  8
0300LEVEL
 62
7
 10
245.473
 20
-2317.948
 30
0.000
 70
    32
  0
VERTEX
  8
0300LEVEL
 62
7
 10
231.922
 20
-2307.084
 30
0.000
 70
    32
  0
VERTEX
  8
0300LEVEL
 62
7
 10
223.059
 20
-2290.203
 30
0.000
 70
    32
  0
VERTEX
  8
0300LEVEL
 62
7
 10
153.254
 20
-2178.570
 30
0.000
 70
    32
  0
VERTEX
  8
0300LEVEL
 62
7
 10
105.329
 20
-2098.099
 30
0.000
 70
    32
  0
VERTEX
  8
0300LEVEL
 62
7
 10
58.576
 20
-1997.315
 30
0.000
 70
    32
  0
VERTEX
  8
0300LEVEL
 62
7
 10
-24.884
 20
-1829.059
 30
0.000
 70
    32
  0
VERTEX
  8
0300LEVEL
 62
7
 10
-67.434
 20
-1738.179
 30
0.000
 70
    32
  0
VERTEX
  8
0300LEVEL
 62
7
 10
-164.628
 20
-1497.791
 30
0.000
 70
    32
  0
VERTEX
  8
0300LEVEL
 62
7
 10
-196.349
 20
-1417.601
 30
0.000
 70
    32
  0
VERTEX
  8
0300LEVEL
 62
7
 10
-230.174
 20
-1354.079
 30
0.000
 70
    32
  0
VERTEX
  8
0300LEVEL
 62
7
 10
-244.878
 20
-1329.787
 30
0.000
 70
    32
  0
VERTEX
  8
0300LEVEL
 62
7
 10
-266.683
 20
-1282.139
 30
0.000
 70
    32
  0
VERTEX
  8
0300LEVEL
 62
7
 10
-326.254
 20
-1178.604
 30
0.000
 70
    32
  0
VERTEX
  8
0300LEVEL
 62
7
 10
-365.515
 20
-1119.482
 30
0.000
 70
    32
  0
VERTEX
  8
0300LEVEL
 62
7
 10
-466.338
 20
-948.765
 30
0.000
 70
    32
  0
VERTEX
  8
0300LEVEL
 62
7
 10
-534.541
 20
-842.882
 30
0.000
 70
    32
  0
VERTEX
  8
0300LEVEL
 62
7
 10
-586.438
 20
-767.040
 30
0.000
 70
    32
  0
VERTEX
  8
0300LEVEL
 62
7
 10
-610.225
 20
-732.081
 30
0.000
 70
    32
  0
VERTEX
  8
0300LEVEL
 62
7
 10
-627.666
 20
-714.111
 30
0.000
 70
    32
  0
VERTEX
  8
0300LEVEL
 62
7
 10
-634.376
 20
-709.063
 30
0.000
 70
    32
  0
VERTEX
  8
0300LEVEL
 62
7
 10
-632.797
 20
-716.559
 30
0.000
 70
    32
  0
VERTEX
  8
0300LEVEL
 62
7
 10
-610.601
 20
-782.514
 30
0.000
 70
    32
  0
VERTEX
  8
0300LEVEL
 62
7
 10
-608.410
 20
-802.103
 30
0.000
 70
    32
  0
VERTEX
  8
0300LEVEL
 62
7
 10
-608.874
 20
-816.278
 30
0.000
 70
    32
  0
VERTEX
  8
0300LEVEL
 62
7
 10
-616.903
 20
-821.273
 30
0.000
 70
    32
  0
VERTEX
  8
0300LEVEL
 62
7
 10
-624.894
 20
-818.026
 30
0.000
 70
    32
  0
VERTEX
  8
0300LEVEL
 62
7
 10
-641.168
 20
-806.987
 30
0.000
 70
    32
  0
VERTEX
  8
0300LEVEL
 62
7
 10
-663.756
 20
-781.963
 30
0.000
 70
    32
  0
VERTEX
  8
0300LEVEL
 62
7
 10
-726.254
 20
-693.968
 30
0.000
 70
    32
  0
VERTEX
  8
0300LEVEL
 62
7
 10
-801.696
 20
-559.209
 30
0.000
 70
    32
  0
VERTEX
  8
0300LEVEL
 62
7
 10
-864.564
 20
-435.161
 30
0.000
 70
    32
  0
VERTEX
  8
0300LEVEL
 62
7
 10
-922.627
 20
-312.364
 30
0.000
 70
    32
  0
VERTEX
  8
0300LEVEL
 62
7
 10
-972.949
 20
-212.023
 30
0.000
 70
    32
  0
VERTEX
  8
0300LEVEL
 62
7
 10
-1029.063
 20
-132.773
 30
0.000
 70
    32
  0
VERTEX
  8
0300LEVEL
 62
7
 10
-1080.380
 20
-66.020
 30
0.000
 70
    32
  0
VERTEX
  8
0300LEVEL
 62
7
 10
-1110.931
 20
-24.756
 30
0.000
 70
    32
  0
VERTEX
  8
0300LEVEL
 62
7
 10
-1117.131
 20
-18.038
 30
0.000
 70
    32
  0
VERTEX
  8
0300LEVEL
 62
7
 10
-1119.388
 20
-19.686
 30
0.000
 70
    32
  0
VERTEX
  8
0300LEVEL
 62
7
 10
-1117.854
 20
-30.673
 30
0.000
 70
    32
  0
VERTEX
  8
0300LEVEL
 62
7
 10
-1113.611
 20
-64.330
 30
0.000
 70
    32
  0
VERTEX
  8
0300LEVEL
 62
7
 10
-1107.542
 20
-129.517
 30
0.000
 70
    32
  0
VERTEX
  8
0300LEVEL
 62
7
 10
-1111.733
 20
-156.358
 30
0.000
 70
    32
  0
VERTEX
  8
0300LEVEL
 62
7
 10
-1116.879
 20
-165.303
 30
0.000
 70
    32
  0
VERTEX
  8
0300LEVEL
 62
7
 10
-1123.299
 20
-164.801
 30
0.000
 70
    32
  0
VERTEX
  8
0300LEVEL
 62
7
 10
-1128.873
 20
-163.680
 30
0.000
 70
    32
  0
VERTEX
  8
0300LEVEL
 62
7
 10
-1168.027
 20
-107.075
 30
0.000
 70
    32
  0
VERTEX
  8
0300LEVEL
 62
7
 10
-1184.561
 20
-78.498
 30
0.000
 70
    32
  0
VERTEX
  8
0300LEVEL
 62
7
 10
-1221.521
 20
1.761
 30
0.000
 70
    32
  0
VERTEX
  8
0300LEVEL
 62
7
 10
-1261.076
 20
97.422
 30
0.000
 70
    32
  0
VERTEX
  8
0300LEVEL
 62
7
 10
-1300.392
 20
173.799
 30
0.000
 70
    32
  0
VERTEX
  8
0300LEVEL
 62
7
 10
-1363.982
 20
285.211
 30
0.000
 70
    32
  0
VERTEX
  8
0300LEVEL
 62
7
 10
-1424.781
 20
385.689
 30
0.000
 70
    32
  0
VERTEX
  8
0300LEVEL
 62
7
 10
-1553.593
 20
601.269
 30
0.000
 70
    32
  0
VERTEX
  8
0300LEVEL
 62
7
 10
-1632.998
 20
710.651
 30
0.000
 70
    32
  0
VERTEX
  8
0300LEVEL
 62
7
 10
-1727.658
 20
866.408
 30
0.000
 70
    32
  0
VERTEX
  8
0300LEVEL
 62
7
 10
-1742.261
 20
876.937
 30
0.000
 70
    32
  0
VERTEX
  8
0300LEVEL
 62
7
 10
-1771.684
 20
919.025
 30
0.000
 70
    32
  0
VERTEX
  8
0300LEVEL
 62
7
 10
-1813.269
 20
971.260
 30
0.000
 70
    32
  0
VERTEX
  8
0300LEVEL
 62
7
 10
-1834.736
 20
985.860
 30
0.000
 70
    32
  0
VERTEX
  8
0300LEVEL
 62
7
 10
-1889.096
 20
1060.337
 30
0.000
 70
    32
  0
VERTEX
  8
0300LEVEL
 62
7
 10
-1916.710
 20
1096.394
 30
0.000
 70
    32
  0
VERTEX
  8
0300LEVEL
 62
7
 10
-1945.171
 20
1131.832
 30
0.000
 70
    32
  0
VERTEX
  8
0300LEVEL
 62
7
 10
-1963.345
 20
1157.916
 30
0.000
 70
    32
  0
VERTEX
  8
0300LEVEL
 62
7
 10
-1977.729
 20
1190.657
 30
0.000
 70
    32
  0
VERTEX
  8
0300LEVEL
 62
7
 10
-1984.923
 20
1223.025
 30
0.000
 70
    32
  0
VERTEX
  8
0300LEVEL
 62
7
 10
-1989.099
 20
1261.921
 30
0.000
 70
    32
  0
VERTEX
  8
0300LEVEL
 62
7
 10
-1991.305
 20
1291.010
 30
0.000
 70
    32
  0
VERTEX
  8
0300LEVEL
 62
7
 10
-1991.158
 20
1339.979
 30
0.000
 70
    32
  0
VERTEX
  8
0300LEVEL
 62
7
 10
-1993.240
 20
1416.292
 30
0.000
 70
    32
  0
VERTEX
  8
0300LEVEL
 62
7
 10
-1997.996
 20
1464.276
 30
0.000
 70
    32
  0
VERTEX
  8
0300LEVEL
 62
7
 10
-2006.174
 20
1501.547
 30
0.000
 70
    32
  0
VERTEX
  8
0300LEVEL
 62
7
 10
-2011.599
 20
1535.639
 30
0.000
 70
    32
  0
VERTEX
  8
0300LEVEL
 62
7
 10
-2022.889
 20
1575.395
 30
0.000
 70
    32
  0
VERTEX
  8
0300LEVEL
 62
7
 10
-2033.956
 20
1605.369
 30
0.000
 70
    32
  0
VERTEX
  8
0300LEVEL
 62
7
 10
-2043.995
 20
1649.929
 30
0.000
 70
    32
  0
VERTEX
  8
0300LEVEL
 62
7
 10
-2058.513
 20
1715.435
 30
0.000
 70
    32
  0
VERTEX
  8
0300LEVEL
 62
7
 10
-2103.966
 20
1776.523
 30
0.000
 70
    32
  0
VERTEX
  8
0300LEVEL
 62
7
 10
-2143.142
 20
1831.382
 30
0.000
 70
    32
  0
VERTEX
  8
0300LEVEL
 62
7
 10
-2186.171
 20
1901.590
 30
0.000
 70
    32
  0
VERTEX
  8
0300LEVEL
 62
7
 10
-2214.335
 20
1943.731
 30
0.000
 70
    32
  0
VERTEX
  8
0300LEVEL
 62
7
 10
-2242.559
 20
1975.884
 30
0.000
 70
    32
  0
VERTEX
  8
0300LEVEL
 62
7
 10
-2276.808
 20
2017.475
 30
0.000
 70
    32
  0
VERTEX
  8
0300LEVEL
 62
7
 10
-2301.153
 20
2063.269
 30
0.000
 70
    32
  0
VERTEX
  8
0300LEVEL
 62
7
 10
-2306.545
 20
2078.359
 30
0.000
 70
    32
  0
VERTEX
  8
0300LEVEL
 62
7
 10
-2293.239
 20
2075.532
 30
0.000
 70
    32
  0
VERTEX
  8
0300LEVEL
 62
7
 10
-2246.898
 20
2050.549
 30
0.000
 70
    32
  0
VERTEX
  8
0300LEVEL
 62
7
 10
-2229.115
 20
2042.773
 30
0.000
 70
    32
  0
VERTEX
  8
0300LEVEL
 62
7
 10
-2223.877
 20
2042.705
 30
0.000
 70
    32
  0
VERTEX
  8
0300LEVEL
 62
7
 10
-2224.655
 20
2047.326
 30
0.000
 70
    32
  0
VERTEX
  8
0300LEVEL
 62
7
 10
-2228.538
 20
2065.679
 30
0.000
 70
    32
  0
VERTEX
  8
0300LEVEL
 62
7
 10
-2217.969
 20
2056.530
 30
0.000
 70
    32
  0
VERTEX
  8
0300LEVEL
 62
7
 10
-2145.397
 20
2023.452
 30
0.000
 70
    32
  0
VERTEX
  8
0300LEVEL
 62
7
 10
-2149.974
 20
2042.164
 30
0.000
 70
    32
  0
VERTEX
  8
0300LEVEL
 62
7
 10
-2139.108
 20
2039.717
 30
0.000
 70
    32
  0
VERTEX
  8
0300LEVEL
 62
7
 10
-2103.862
 20
2015.717
 30
0.000
 70
    32
  0
VERTEX
  8
0300LEVEL
 62
7
 10
-2078.765
 20
1995.551
 30
0.000
 70
    32
  0
VERTEX
  8
0300LEVEL
 62
7
 10
-2065.374
 20
1988.461
 30
0.000
 70
    32
  0
VERTEX
  8
0300LEVEL
 62
7
 10
-2061.882
 20
1988.416
 30
0.000
 70
    32
  0
VERTEX
  8
0300LEVEL
 62
7
 10
-2061.845
 20
1996.659
 30
0.000
 70
    32
  0
VERTEX
  8
0300LEVEL
 62
7
 10
-2066.140
 20
2015.576
 30
0.000
 70
    32
  0
VERTEX
  8
0300LEVEL
 62
7
 10
-2054.755
 20
2010.049
 30
0.000
 70
    32
  0
VERTEX
  8
0300LEVEL
 62
7
 10
-2045.147
 20
2007.549
 30
0.000
 70
    32
  0
VERTEX
  8
0300LEVEL
 62
7
 10
-2045.445
 20
2016.844
 30
0.000
 70
    32
  0
VERTEX
  8
0300LEVEL
 62
7
 10
-2050.533
 20
2033.886
 30
0.000
 70
    32
  0
VERTEX
  8
0300LEVEL
 62
7
 10
-2111.351
 20
2175.860
 30
0.000
 70
    32
  0
VERTEX
  8
0300LEVEL
 62
7
 10
-2121.824
 20
2203.241
 30
0.000
 70
    32
  0
VERTEX
  8
0300LEVEL
 62
7
 10
-2126.057
 20
2216.150
 30
0.000
 70
    32
  0
VERTEX
  8
0300LEVEL
 62
7
 10
-2087.823
 20
2201.681
 30
0.000
 70
    32
  0
VERTEX
  8
0300LEVEL
 62
7
 10
-2086.466
 20
2203.969
 30
0.000
 70
    32
  0
VERTEX
  8
0300LEVEL
 62
7
 10
-2103.675
 20
2266.646
 30
0.000
 70
    32
  0
VERTEX
  8
0300LEVEL
 62
7
 10
-2107.420
 20
2279.479
 30
0.000
 70
    32
  0
VERTEX
  8
0300LEVEL
 62
7
 10
-2100.954
 20
2282.469
 30
0.000
 70
    32
  0
VERTEX
  8
0300LEVEL
 62
7
 10
-2096.249
 20
2278.984
 30
0.000
 70
    32
  0
VERTEX
  8
0300LEVEL
 62
7
 10
-2091.453
 20
2282.485
 30
0.000
 70
    32
  0
VERTEX
  8
0300LEVEL
 62
7
 10
-2134.369
 20
2361.424
 30
0.000
 70
    32
  0
VERTEX
  8
0300LEVEL
 62
7
 10
-2139.292
 20
2376.216
 30
0.000
 70
    32
  0
VERTEX
  8
0300LEVEL
 62
7
 10
-2150.747
 20
2414.230
 30
0.000
 70
    32
  0
VERTEX
  8
0300LEVEL
 62
7
 10
-2169.216
 20
2441.424
 30
0.000
 70
    32
  0
VERTEX
  8
0300LEVEL
 62
7
 10
-2263.939
 20
2554.121
 30
0.000
 70
    32
  0
VERTEX
  8
0300LEVEL
 62
7
 10
-2325.709
 20
2651.048
 30
0.000
 70
    32
  0
VERTEX
  8
0300LEVEL
 62
7
 10
-2373.416
 20
2734.701
 30
0.000
 70
    32
  0
VERTEX
  8
0300LEVEL
 62
7
 10
-2424.290
 20
2815.383
 30
0.000
 70
    32
  0
VERTEX
  8
0300LEVEL
 62
7
 10
-2464.068
 20
2884.799
 30
0.000
 70
    32
  0
VERTEX
  8
0300LEVEL
 62
7
 10
-2505.378
 20
2952.814
 30
0.000
 70
    32
  0
VERTEX
  8
0300LEVEL
 62
7
 10
-2560.207
 20
3034.241
 30
0.000
 70
    32
  0
VERTEX
  8
0300LEVEL
 62
7
 10
-2605.273
 20
3106.819
 30
0.000
 70
    32
  0
VERTEX
  8
0300LEVEL
 62
7
 10
-2614.749
 20
3130.087
 30
0.000
 70
    32
  0
VERTEX
  8
0300LEVEL
 62
7
 10
-2666.077
 20
3218.916
 30
0.000
 70
    32
  0
VERTEX
  8
0300LEVEL
 62
7
 10
-2711.110
 20
3268.314
 30
0.000
 70
    32
  0
VERTEX
  8
0300LEVEL
 62
7
 10
-2729.935
 20
3297.637
 30
0.000
 70
    32
  0
SEQEND
  8
0300LEVEL
  0
POLYLINE
  8
0300LEVEL
 62
13
 66
     1
 70
     8
  0
VERTEX
  8
0300LEVEL
 62
13
 10
-489.326
 20
-465.256
 30
4927.000
 70
    32
  0
VERTEX
  8
0300LEVEL
 62
13
 10
-489.415
 20
-488.238
 30
4927.000
 70
    32
  0
VERTEX
  8
0300LEVEL
 62
13
 10
-461.252
 20
-589.620
 30
4927.000
 70
    32
  0
VERTEX
  8
0300LEVEL
 62
13
 10
-370.804
 20
-789.961
 30
4927.000
 70
    32
  0
VERTEX
  8
0300LEVEL
 62
13
 10
-372.328
 20
-799.722
 30
4927.000
 70
    32
  0
VERTEX
  8
0300LEVEL
 62
13
 10
-243.958
 20
-1011.733
 30
4927.000
 70
    32
  0
VERTEX
  8
0300LEVEL
 62
13
 10
-170.671
 20
-1102.663
 30
4927.000
 70
    32
  0
VERTEX
  8
0300LEVEL
 62
13
 10
-64.916
 20
-1259.402
 30
4927.000
 70
    32
  0
VERTEX
  8
0300LEVEL
 62
13
 10
2.412
 20
-1378.897
 30
4927.000
 70
    32
  0
VERTEX
  8
0300LEVEL
 62
13
 10
291.155
 20
-1882.905
 30
4927.000
 70
    32
  0
VERTEX
  8
0300LEVEL
 62
13
 10
353.736
 20
-1975.163
 30
4927.000
 70
    32
  0
VERTEX
  8
0300LEVEL
 62
13
 10
407.079
 20
-2084.975
 30
4927.000
 70
    32
  0
VERTEX
  8
0300LEVEL
 62
13
 10
489.691
 20
-2313.088
 30
4927.000
 70
    32
  0
VERTEX
  8
0300LEVEL
 62
13
 10
624.209
 20
-2607.068
 30
4927.000
 70
    32
  0
VERTEX
  8
0300LEVEL
 62
13
 10
645.897
 20
-2649.150
 30
4927.000
 70
    32
  0
VERTEX
  8
0300LEVEL
 62
13
 10
702.079
 20
-2779.428
 30
4927.000
 70
    32
  0
VERTEX
  8
0300LEVEL
 62
13
 10
907.159
 20
-3146.894
 30
4927.000
 70
    32
  0
VERTEX
  8
0300LEVEL
 62
13
 10
922.116
 20
-3183.973
 30
4927.000
 70
    32
  0
VERTEX
  8
0300LEVEL
 62
13
 10
901.733
 20
-3172.042
 30
4927.000
 70
    32
  0
VERTEX
  8
0300LEVEL
 62
13
 10
891.518
 20
-3205.441
 30
4927.000
 70
    32
  0
VERTEX
  8
0300LEVEL
 62
13
 10
873.855
 20
-3177.687
 30
4927.000
 70
    32
  0
VERTEX
  8
0300LEVEL
 62
13
 10
841.453
 20
-3074.644
 30
4927.000
 70
    32
  0
VERTEX
  8
0300LEVEL
 62
13
 10
804.021
 20
-3003.811
 30
4927.000
 70
    32
  0
VERTEX
  8
0300LEVEL
 62
13
 10
755.160
 20
-2946.940
 30
4927.000
 70
    32
  0
VERTEX
  8
0300LEVEL
 62
13
 10
665.549
 20
-2800.470
 30
4927.000
 70
    32
  0
VERTEX
  8
0300LEVEL
 62
13
 10
583.449
 20
-2688.772
 30
4927.000
 70
    32
  0
VERTEX
  8
0300LEVEL
 62
13
 10
559.697
 20
-2649.698
 30
0.000
 70
    32
  0
VERTEX
  8
0300LEVEL
 62
13
 10
522.027
 20
-2571.845
 30
0.000
 70
    32
  0
VERTEX
  8
0300LEVEL
 62
13
 10
510.990
 20
-2544.875
 30
0.000
 70
    32
  0
VERTEX
  8
0300LEVEL
 62
13
 10
494.172
 20
-2500.506
 30
0.000
 70
    32
  0
VERTEX
  8
0300LEVEL
 62
13
 10
486.154
 20
-2467.010
 30
0.000
 70
    32
  0
VERTEX
  8
0300LEVEL
 62
13
 10
454.698
 20
-2377.113
 30
0.000
 70
    32
  0
VERTEX
  8
0300LEVEL
 62
13
 10
443.257
 20
-2338.332
 30
0.000
 70
    32
  0
VERTEX
  8
0300LEVEL
 62
13
 10
412.597
 20
-2278.554
 30
0.000
 70
    32
  0
VERTEX
  8
0300LEVEL
 62
13
 10
402.034
 20
-2258.158
 30
0.000
 70
    32
  0
VERTEX
  8
0300LEVEL
 62
13
 10
355.711
 20
-2183.436
 30
0.000
 70
    32
  0
VERTEX
  8
0300LEVEL
 62
13
 10
313.895
 20
-2116.667
 30
0.000
 70
    32
  0
VERTEX
  8
0300LEVEL
 62
13
 10
259.160
 20
-2033.383
 30
0.000
 70
    32
  0
VERTEX
  8
0300LEVEL
 62
13
 10
217.908
 20
-1966.202
 30
0.000
 70
    32
  0
VERTEX
  8
0300LEVEL
 62
13
 10
191.070
 20
-1918.769
 30
0.000
 70
    32
  0
VERTEX
  8
0300LEVEL
 62
13
 10
150.873
 20
-1867.250
 30
0.000
 70
    32
  0
VERTEX
  8
0300LEVEL
 62
13
 10
133.111
 20
-1841.731
 30
0.000
 70
    32
  0
VERTEX
  8
0300LEVEL
 62
13
 10
122.229
 20
-1829.783
 30
0.000
 70
    32
  0
VERTEX
  8
0300LEVEL
 62
13
 10
113.444
 20
-1828.411
 30
0.000
 70
    32
  0
VERTEX
  8
0300LEVEL
 62
13
 10
95.005
 20
-1812.035
 30
0.000
 70
    32
  0
VERTEX
  8
0300LEVEL
 62
13
 10
91.521
 20
-1816.740
 30
0.000
 70
    32
  0
VERTEX
  8
0300LEVEL
 62
13
 10
97.181
 20
-1838.120
 30
0.000
 70
    32
  0
VERTEX
  8
0300LEVEL
 62
13
 10
111.629
 20
-1892.867
 30
0.000
 70
    32
  0
VERTEX
  8
0300LEVEL
 62
13
 10
119.838
 20
-1933.142
 30
0.000
 70
    32
  0
VERTEX
  8
0300LEVEL
 62
13
 10
160.439
 20
-2055.713
 30
0.000
 70
    32
  0
VERTEX
  8
0300LEVEL
 62
13
 10
170.570
 20
-2093.288
 30
0.000
 70
    32
  0
VERTEX
  8
0300LEVEL
 62
13
 10
187.359
 20
-2150.651
 30
0.000
 70
    32
  0
VERTEX
  8
0300LEVEL
 62
13
 10
200.578
 20
-2192.458
 30
0.000
 70
    32
  0
VERTEX
  8
0300LEVEL
 62
13
 10
192.098
 20
-2189.134
 30
0.000
 70
    32
  0
VERTEX
  8
0300LEVEL
 62
13
 10
136.562
 20
-2102.976
 30
0.000
 70
    32
  0
VERTEX
  8
0300LEVEL
 62
13
 10
97.201
 20
-2030.091
 30
0.000
 70
    32
  0
VERTEX
  8
0300LEVEL
 62
13
 10
36.041
 20
-1898.312
 30
0.000
 70
    32
  0
VERTEX
  8
0300LEVEL
 62
13
 10
24.632
 20
-1878.534
 30
0.000
 70
    32
  0
VERTEX
  8
0300LEVEL
 62
13
 10
-27.162
 20
-1773.213
 30
0.000
 70
    32
  0
VERTEX
  8
0300LEVEL
 62
13
 10
-62.979
 20
-1685.634
 30
0.000
 70
    32
  0
VERTEX
  8
0300LEVEL
 62
13
 10
-172.031
 20
-1433.146
 30
0.000
 70
    32
  0
VERTEX
  8
0300LEVEL
 62
13
 10
-184.332
 20
-1417.477
 30
0.000
 70
    32
  0
VERTEX
  8
0300LEVEL
 62
13
 10
-215.823
 20
-1351.820
 30
0.000
 70
    32
  0
VERTEX
  8
0300LEVEL
 62
13
 10
-252.470
 20
-1274.360
 30
0.000
 70
    32
  0
VERTEX
  8
0300LEVEL
 62
13
 10
-301.777
 20
-1181.925
 30
0.000
 70
    32
  0
VERTEX
  8
0300LEVEL
 62
13
 10
-323.642
 20
-1144.267
 30
0.000
 70
    32
  0
VERTEX
  8
0300LEVEL
 62
13
 10
-350.549
 20
-1102.072
 30
0.000
 70
    32
  0
VERTEX
  8
0300LEVEL
 62
13
 10
-394.973
 20
-1026.397
 30
0.000
 70
    32
  0
VERTEX
  8
0300LEVEL
 62
13
 10
-479.985
 20
-896.893
 30
0.000
 70
    32
  0
VERTEX
  8
0300LEVEL
 62
13
 10
-553.161
 20
-781.235
 30
0.000
 70
    32
  0
VERTEX
  8
0300LEVEL
 62
13
 10
-603.510
 20
-709.884
 30
0.000
 70
    32
  0
VERTEX
  8
0300LEVEL
 62
13
 10
-641.567
 20
-633.453
 30
0.000
 70
    32
  0
VERTEX
  8
0300LEVEL
 62
13
 10
-683.263
 20
-546.706
 30
0.000
 70
    32
  0
VERTEX
  8
0300LEVEL
 62
13
 10
-703.436
 20
-507.812
 30
0.000
 70
    32
  0
VERTEX
  8
0300LEVEL
 62
13
 10
-728.126
 20
-440.218
 30
0.000
 70
    32
  0
VERTEX
  8
0300LEVEL
 62
13
 10
-775.091
 20
-350.398
 30
0.000
 70
    32
  0
VERTEX
  8
0300LEVEL
 62
13
 10
-794.549
 20
-294.119
 30
0.000
 70
    32
  0
VERTEX
  8
0300LEVEL
 62
13
 10
-816.873
 20
-243.391
 30
0.000
 70
    32
  0
VERTEX
  8
0300LEVEL
 62
13
 10
-879.838
 20
-137.576
 30
0.000
 70
    32
  0
VERTEX
  8
0300LEVEL
 62
13
 10
-893.428
 20
-118.956
 30
0.000
 70
    32
  0
VERTEX
  8
0300LEVEL
 62
13
 10
-912.073
 20
-102.297
 30
0.000
 70
    32
  0
VERTEX
  8
0300LEVEL
 62
13
 10
-915.695
 20
-101.482
 30
0.000
 70
    32
  0
VERTEX
  8
0300LEVEL
 62
13
 10
-914.421
 20
-110.929
 30
0.000
 70
    32
  0
VERTEX
  8
0300LEVEL
 62
13
 10
-897.885
 20
-155.504
 30
0.000
 70
    32
  0
VERTEX
  8
0300LEVEL
 62
13
 10
-866.822
 20
-211.096
 30
0.000
 70
    32
  0
VERTEX
  8
0300LEVEL
 62
13
 10
-829.954
 20
-282.342
 30
0.000
 70
    32
  0
VERTEX
  8
0300LEVEL
 62
13
 10
-804.854
 20
-334.503
 30
0.000
 70
    32
  0
VERTEX
  8
0300LEVEL
 62
13
 10
-777.961
 20
-399.192
 30
0.000
 70
    32
  0
VERTEX
  8
0300LEVEL
 62
13
 10
-747.859
 20
-448.135
 30
0.000
 70
    32
  0
VERTEX
  8
0300LEVEL
 62
13
 10
-713.065
 20
-523.056
 30
0.000
 70
    32
  0
VERTEX
  8
0300LEVEL
 62
13
 10
-701.938
 20
-543.040
 30
0.000
 70
    32
  0
VERTEX
  8
0300LEVEL
 62
13
 10
-670.445
 20
-624.695
 30
0.000
 70
    32
  0
VERTEX
  8
0300LEVEL
 62
13
 10
-651.671
 20
-701.364
 30
0.000
 70
    32
  0
VERTEX
  8
0300LEVEL
 62
13
 10
-635.613
 20
-766.611
 30
0.000
 70
    32
  0
VERTEX
  8
0300LEVEL
 62
13
 10
-645.137
 20
-768.373
 30
0.000
 70
    32
  0
VERTEX
  8
0300LEVEL
 62
13
 10
-674.368
 20
-733.064
 30
0.000
 70
    32
  0
VERTEX
  8
0300LEVEL
 62
13
 10
-704.958
 20
-684.045
 30
0.000
 70
    32
  0
VERTEX
  8
0300LEVEL
 62
13
 10
-724.183
 20
-658.297
 30
0.000
 70
    32
  0
VERTEX
  8
0300LEVEL
 62
13
 10
-749.916
 20
-611.786
 30
0.000
 70
    32
  0
VERTEX
  8
0300LEVEL
 62
13
 10
-793.595
 20
-521.730
 30
0.000
 70
    32
  0
VERTEX
  8
0300LEVEL
 62
13
 10
-819.320
 20
-463.972
 30
0.000
 70
    32
  0
VERTEX
  8
0300LEVEL
 62
13
 10
-828.008
 20
-444.369
 30
0.000
 70
    32
  0
VERTEX
  8
0300LEVEL
 62
13
 10
-867.332
 20
-363.241
 30
0.000
 70
    32
  0
VERTEX
  8
0300LEVEL
 62
13
 10
-905.420
 20
-283.806
 30
0.000
 70
    32
  0
VERTEX
  8
0300LEVEL
 62
13
 10
-964.275
 20
-178.883
 30
0.000
 70
    32
  0
VERTEX
  8
0300LEVEL
 62
13
 10
-1021.968
 20
-92.137
 30
0.000
 70
    32
  0
VERTEX
  8
0300LEVEL
 62
13
 10
-1080.173
 20
-7.062
 30
0.000
 70
    32
  0
VERTEX
  8
0300LEVEL
 62
13
 10
-1099.848
 20
11.008
 30
0.000
 70
    32
  0
VERTEX
  8
0300LEVEL
 62
13
 10
-1202.872
 20
162.821
 30
0.000
 70
    32
  0
VERTEX
  8
0300LEVEL
 62
13
 10
-1205.236
 20
163.690
 30
0.000
 70
    32
  0
VERTEX
  8
0300LEVEL
 62
13
 10
-1204.656
 20
154.601
 30
0.000
 70
    32
  0
VERTEX
  8
0300LEVEL
 62
13
 10
-1184.527
 20
96.218
 30
0.000
 70
    32
  0
VERTEX
  8
0300LEVEL
 62
13
 10
-1169.288
 20
59.344
 30
0.000
 70
    32
  0
VERTEX
  8
0300LEVEL
 62
13
 10
-1156.793
 20
20.899
 30
0.000
 70
    32
  0
VERTEX
  8
0300LEVEL
 62
13
 10
-1147.754
 20
-9.257
 30
0.000
 70
    32
  0
VERTEX
  8
0300LEVEL
 62
13
 10
-1141.619
 20
-53.208
 30
0.000
 70
    32
  0
VERTEX
  8
0300LEVEL
 62
13
 10
-1136.095
 20
-85.066
 30
0.000
 70
    32
  0
VERTEX
  8
0300LEVEL
 62
13
 10
-1137.123
 20
-99.653
 30
0.000
 70
    32
  0
VERTEX
  8
0300LEVEL
 62
13
 10
-1138.251
 20
-100.476
 30
0.000
 70
    32
  0
VERTEX
  8
0300LEVEL
 62
13
 10
-1161.954
 20
-69.780
 30
0.000
 70
    32
  0
VERTEX
  8
0300LEVEL
 62
13
 10
-1185.260
 20
-30.147
 30
0.000
 70
    32
  0
VERTEX
  8
0300LEVEL
 62
13
 10
-1216.348
 20
39.696
 30
0.000
 70
    32
  0
VERTEX
  8
0300LEVEL
 62
13
 10
-1250.876
 20
124.324
 30
0.000
 70
    32
  0
VERTEX
  8
0300LEVEL
 62
13
 10
-1281.612
 20
183.614
 30
0.000
 70
    32
  0
VERTEX
  8
0300LEVEL
 62
13
 10
-1371.606
 20
343.642
 30
0.000
 70
    32
  0
VERTEX
  8
0300LEVEL
 62
13
 10
-1402.898
 20
397.770
 30
0.000
 70
    32
  0
VERTEX
  8
0300LEVEL
 62
13
 10
-1429.180
 20
450.365
 30
0.000
 70
    32
  0
VERTEX
  8
0300LEVEL
 62
13
 10
-1499.466
 20
573.321
 30
0.000
 70
    32
  0
VERTEX
  8
0300LEVEL
 62
13
 10
-1563.749
 20
669.094
 30
0.000
 70
    32
  0
VERTEX
  8
0300LEVEL
 62
13
 10
-1625.911
 20
756.037
 30
0.000
 70
    32
  0
VERTEX
  8
0300LEVEL
 62
13
 10
-1720.897
 20
892.098
 30
0.000
 70
    32
  0
VERTEX
  8
0300LEVEL
 62
13
 10
-1785.057
 20
975.854
 30
0.000
 70
    32
  0
VERTEX
  8
0300LEVEL
 62
13
 10
-1809.369
 20
1002.646
 30
0.000
 70
    32
  0
VERTEX
  8
0300LEVEL
 62
13
 10
-1880.200
 20
1083.694
 30
0.000
 70
    32
  0
VERTEX
  8
0300LEVEL
 62
13
 10
-1915.814
 20
1127.748
 30
0.000
 70
    32
  0
VERTEX
  8
0300LEVEL
 62
13
 10
-1935.863
 20
1154.625
 30
0.000
 70
    32
  0
VERTEX
  8
0300LEVEL
 62
13
 10
-1950.057
 20
1180.587
 30
0.000
 70
    32
  0
VERTEX
  8
0300LEVEL
 62
13
 10
-1962.543
 20
1214.281
 30
0.000
 70
    32
  0
VERTEX
  8
0300LEVEL
 62
13
 10
-1967.572
 20
1257.310
 30
0.000
 70
    32
  0
VERTEX
  8
0300LEVEL
 62
13
 10
-1967.320
 20
1319.760
 30
0.000
 70
    32
  0
VERTEX
  8
0300LEVEL
 62
13
 10
-1967.417
 20
1376.766
 30
0.000
 70
    32
  0
VERTEX
  8
0300LEVEL
 62
13
 10
-1970.274
 20
1425.704
 30
0.000
 70
    32
  0
VERTEX
  8
0300LEVEL
 62
13
 10
-1972.728
 20
1478.828
 30
0.000
 70
    32
  0
VERTEX
  8
0300LEVEL
 62
13
 10
-1983.751
 20
1528.291
 30
0.000
 70
    32
  0
VERTEX
  8
0300LEVEL
 62
13
 10
-2000.685
 20
1579.927
 30
0.000
 70
    32
  0
VERTEX
  8
0300LEVEL
 62
13
 10
-2016.345
 20
1638.113
 30
0.000
 70
    32
  0
VERTEX
  8
0300LEVEL
 62
13
 10
-2029.854
 20
1684.465
 30
0.000
 70
    32
  0
VERTEX
  8
0300LEVEL
 62
13
 10
-2061.527
 20
1736.152
 30
0.000
 70
    32
  0
VERTEX
  8
0300LEVEL
 62
13
 10
-2115.035
 20
1822.494
 30
0.000
 70
    32
  0
VERTEX
  8
0300LEVEL
 62
13
 10
-2150.056
 20
1879.954
 30
0.000
 70
    32
  0
VERTEX
  8
0300LEVEL
 62
13
 10
-2226.242
 20
1984.334
 30
0.000
 70
    32
  0
VERTEX
  8
0300LEVEL
 62
13
 10
-2247.885
 20
2012.209
 30
0.000
 70
    32
  0
VERTEX
  8
0300LEVEL
 62
13
 10
-2252.316
 20
2020.650
 30
0.000
 70
    32
  0
VERTEX
  8
0300LEVEL
 62
13
 10
-2248.519
 20
2022.557
 30
0.000
 70
    32
  0
VERTEX
  8
0300LEVEL
 62
13
 10
-2221.151
 20
2010.535
 30
0.000
 70
    32
  0
VERTEX
  8
0300LEVEL
 62
13
 10
-2216.843
 20
2014.111
 30
0.000
 70
    32
  0
VERTEX
  8
0300LEVEL
 62
13
 10
-2219.689
 20
2026.304
 30
0.000
 70
    32
  0
VERTEX
  8
0300LEVEL
 62
13
 10
-2199.001
 20
2016.325
 30
0.000
 70
    32
  0
VERTEX
  8
0300LEVEL
 62
13
 10
-2174.378
 20
2002.732
 30
0.000
 70
    32
  0
VERTEX
  8
0300LEVEL
 62
13
 10
-2144.166
 20
1994.515
 30
0.000
 70
    32
  0
VERTEX
  8
0300LEVEL
 62
13
 10
-2123.280
 20
1989.004
 30
0.000
 70
    32
  0
VERTEX
  8
0300LEVEL
 62
13
 10
-2118.972
 20
1992.581
 30
0.000
 70
    32
  0
VERTEX
  8
0300LEVEL
 62
13
 10
-2122.145
 20
2001.075
 30
0.000
 70
    32
  0
VERTEX
  8
0300LEVEL
 62
13
 10
-2118.836
 20
2003.058
 30
0.000
 70
    32
  0
VERTEX
  8
0300LEVEL
 62
13
 10
-2100.946
 20
1992.766
 30
0.000
 70
    32
  0
VERTEX
  8
0300LEVEL
 62
13
 10
-2080.975
 20
1981.399
 30
0.000
 70
    32
  0
VERTEX
  8
0300LEVEL
 62
13
 10
-2062.101
 20
1966.204
 30
0.000
 70
    32
  0
VERTEX
  8
0300LEVEL
 62
13
 10
-2056.275
 20
1968.294
 30
0.000
 70
    32
  0
VERTEX
  8
0300LEVEL
 62
13
 10
-2058.907
 20
1975.453
 30
0.000
 70
    32
  0
VERTEX
  8
0300LEVEL
 62
13
 10
-2046.416
 20
1969.004
 30
0.000
 70
    32
  0
VERTEX
  8
0300LEVEL
 62
13
 10
-2023.097
 20
1951.865
 30
0.000
 70
    32
  0
VERTEX
  8
0300LEVEL
 62
13
 10
-2001.599
 20
1934.261
 30
0.000
 70
    32
  0
VERTEX
  8
0300LEVEL
 62
13
 10
-1992.547
 20
1926.598
 30
0.000
 70
    32
  0
VERTEX
  8
0300LEVEL
 62
13
 10
-1986.112
 20
1932.592
 30
0.000
 70
    32
  0
VERTEX
  8
0300LEVEL
 62
13
 10
-2015.699
 20
2010.450
 30
0.000
 70
    32
  0
VERTEX
  8
0300LEVEL
 62
13
 10
-2052.064
 20
2088.116
 30
0.000
 70
    32
  0
VERTEX
  8
0300LEVEL
 62
13
 10
-2078.836
 20
2156.785
 30
0.000
 70
    32
  0
VERTEX
  8
0300LEVEL
 62
13
 10
-2086.989
 20
2179.805
 30
0.000
 70
    32
  0
VERTEX
  8
0300LEVEL
 62
13
 10
-2078.396
 20
2185.212
 30
0.000
 70
    32
  0
VERTEX
  8
0300LEVEL
 62
13
 10
-2067.400
 20
2181.995
 30
0.000
 70
    32
  0
VERTEX
  8
0300LEVEL
 62
13
 10
-2060.439
 20
2180.158
 30
0.000
 70
    32
  0
VERTEX
  8
0300LEVEL
 62
13
 10
-2063.506
 20
2202.134
 30
0.000
 70
    32
  0
VERTEX
  8
0300LEVEL
 62
13
 10
-2074.703
 20
2232.877
 30
0.000
 70
    32
  0
VERTEX
  8
0300LEVEL
 62
13
 10
-2078.351
 20
2263.942
 30
0.000
 70
    32
  0
VERTEX
  8
0300LEVEL
 62
13
 10
-2064.695
 20
2266.559
 30
0.000
 70
    32
  0
VERTEX
  8
0300LEVEL
 62
13
 10
-2071.753
 20
2309.404
 30
0.000
 70
    32
  0
VERTEX
  8
0300LEVEL
 62
13
 10
-2099.896
 20
2359.281
 30
0.000
 70
    32
  0
VERTEX
  8
0300LEVEL
 62
13
 10
-2124.090
 20
2405.267
 30
0.000
 70
    32
  0
VERTEX
  8
0300LEVEL
 62
13
 10
-2148.179
 20
2437.875
 30
0.000
 70
    32
  0
VERTEX
  8
0300LEVEL
 62
13
 10
-2188.064
 20
2486.973
 30
0.000
 70
    32
  0
VERTEX
  8
0300LEVEL
 62
13
 10
-2235.004
 20
2558.355
 30
0.000
 70
    32
  0
VERTEX
  8
0300LEVEL
 62
13
 10
-2278.488
 20
2621.186
 30
0.000
 70
    32
  0
VERTEX
  8
0300LEVEL
 62
13
 10
-2301.987
 20
2677.160
 30
0.000
 70
    32
  0
VERTEX
  8
0300LEVEL
 62
13
 10
-2341.710
 20
2731.951
 30
0.000
 70
    32
  0
VERTEX
  8
0300LEVEL
 62
13
 10
-2362.216
 20
2768.533
 30
0.000
 70
    32
  0
VERTEX
  8
0300LEVEL
 62
13
 10
-2383.579
 20
2809.101
 30
0.000
 70
    32
  0
VERTEX
  8
0300LEVEL
 62
13
 10
-2413.704
 20
2850.510
 30
0.000
 70
    32
  0
VERTEX
  8
0300LEVEL
 62
13
 10
-2438.611
 20
2913.810
 30
0.000
 70
    32
  0
VERTEX
  8
0300LEVEL
 62
13
 10
-2456.488
 20
2947.430
 30
0.000
 70
    32
  0
VERTEX
  8
0300LEVEL
 62
13
 10
-2490.817
 20
2996.911
 30
0.000
 70
    32
  0
VERTEX
  8
0300LEVEL
 62
13
 10
-2516.153
 20
3049.814
 30
0.000
 70
    32
  0
VERTEX
  8
0300LEVEL
 62
13
 10
-2544.027
 20
3090.339
 30
0.000
 70
    32
  0
VERTEX
  8
0300LEVEL
 62
13
 10
-2573.461
 20
3149.168
 30
0.000
 70
    32
  0
VERTEX
  8
0300LEVEL
 62
13
 10
-2603.646
 20
3208.677
 30
0.000
 70
    32
  0
SEQEND
  8
0300LEVEL
  0
POLYLINE
  8
0300LEVEL
 62
5
 66
     1
 70
     9
  0
VERTEX
  8
0300LEVEL
 62
5
 10
-1506.891
 20
2188.448
 30
0.000
 70
    32
  0
VERTEX
  8
0300LEVEL
 62
5
 10
-1560.294
 20
2178.929
 30
0.000
 70
    32
  0
VERTEX
  8
0300LEVEL
 62
5
 10
-1592.333
 20
2176.088
 30
0.000
 70
    32
  0
VERTEX
  8
0300LEVEL
 62
5
 10
-1614.793
 20
2172.613
 30
0.000
 70
    32
  0
VERTEX
  8
0300LEVEL
 62
5
 10
-1623.239
 20
2167.010
 30
0.000
 70
    32
  0
VERTEX
  8
0300LEVEL
 62
5
 10
-1609.936
 20
2161.370
 30
0.000
 70
    32
  0
VERTEX
  8
0300LEVEL
 62
5
 10
-1547.490
 20
2164.323
 30
0.000
 70
    32
  0
VERTEX
  8
0300LEVEL
 62
5
 10
-1510.038
 20
2171.570
 30
0.000
 70
    32
  0
VERTEX
  8
0300LEVEL
 62
5
 10
-1475.042
 20
2180.517
 30
0.000
 70
    32
  0
VERTEX
  8
0300LEVEL
 62
5
 10
-1449.483
 20
2186.076
 30
0.000
 70
    32
  0
VERTEX
  8
0300LEVEL
 62
5
 10
-1424.813
 20
2192.860
 30
0.000
 70
    32
  0
VERTEX
  8
0300LEVEL
 62
5
 10
-1412.960
 20
2199.900
 30
0.000
 70
    32
  0
VERTEX
  8
0300LEVEL
 62
5
 10
-1411.534
 20
2203.447
 30
0.000
 70
    32
  0
VERTEX
  8
0300LEVEL
 62
5
 10
-1422.990
 20
2205.203
 30
0.000
 70
    32
  0
VERTEX
  8
0300LEVEL
 62
5
 10
-1443.404
 20
2201.663
 30
0.000
 70
    32
  0
VERTEX
  8
0300LEVEL
 62
5
 10
-1463.032
 20
2196.726
 30
0.000
 70
    32
  0
VERTEX
  8
0300LEVEL
 62
5
 10
-1486.133
 20
2189.466
 30
0.000
 70
    32
  0
VERTEX
  8
0300LEVEL
 62
5
 10
-1495.539
 20
2187.680
 30
0.000
 70
    32
  0
VERTEX
  8
0300LEVEL
 62
5
 10
-1495.539
 20
2187.680
 30
0.000
 70
    32
  0
SEQEND
  8
0300LEVEL
  0
POLYLINE
  8
0300LEVEL
 62
5
 66
     1
 70
     9
  0
VERTEX
  8
0300LEVEL
 62
5
 10
-2789.792
 20
1582.292
 30
0.000
 70
    32
  0
VERTEX
  8
0300LEVEL
 62
5
 10
-2755.919
 20
1565.740
 30
0.000
 70
    32
  0
VERTEX
  8
0300LEVEL
 62
5
 10
-2736.850
 20
1556.188
 30
0.000
 70
    32
  0
VERTEX
  8
0300LEVEL
 62
5
 10
-2724.566
 20
1547.683
 30
0.000
 70
    32
  0
VERTEX
  8
0300LEVEL
 62
5
 10
-2713.951
 20
1538.324
 30
0.000
 70
    32
  0
VERTEX
  8
0300LEVEL
 62
5
 10
-2713.401
 20
1534.984
 30
0.000
 70
    32
  0
VERTEX
  8
0300LEVEL
 62
5
 10
-2730.654
 20
1537.891
 30
0.000
 70
    32
  0
VERTEX
  8
0300LEVEL
 62
5
 10
-2759.067
 20
1550.020
 30
0.000
 70
    32
  0
VERTEX
  8
0300LEVEL
 62
5
 10
-2788.986
 20
1566.988
 30
0.000
 70
    32
  0
VERTEX
  8
0300LEVEL
 62
5
 10
-2812.899
 20
1578.509
 30
0.000
 70
    32
  0
VERTEX
  8
0300LEVEL
 62
5
 10
-2839.879
 20
1589.549
 30
0.000
 70
    32
  0
VERTEX
  8
0300LEVEL
 62
5
 10
-2863.684
 20
1597.765
 30
0.000
 70
    32
  0
VERTEX
  8
0300LEVEL
 62
5
 10
-2893.159
 20
1613.539
 30
0.000
 70
    32
  0
VERTEX
  8
0300LEVEL
 62
5
 10
-2909.132
 20
1627.493
 30
0.000
 70
    32
  0
VERTEX
  8
0300LEVEL
 62
5
 10
-2917.530
 20
1635.526
 30
0.000
 70
    32
  0
VERTEX
  8
0300LEVEL
 62
5
 10
-2918.180
 20
1637.536
 30
0.000
 70
    32
  0
VERTEX
  8
0300LEVEL
 62
5
 10
-2915.628
 20
1640.642
 30
0.000
 70
    32
  0
VERTEX
  8
0300LEVEL
 62
5
 10
-2897.482
 20
1633.032
 30
0.000
 70
    32
  0
VERTEX
  8
0300LEVEL
 62
5
 10
-2879.298
 20
1622.388
 30
0.000
 70
    32
  0
VERTEX
  8
0300LEVEL
 62
5
 10
-2859.991
 20
1613.621
 30
0.000
 70
    32
  0
VERTEX
  8
0300LEVEL
 62
5
 10
-2843.621
 20
1608.463
 30
0.000
 70
    32
  0
VERTEX
  8
0300LEVEL
 62
5
 10
-2832.913
 20
1605.070
 30
0.000
 70
    32
  0
VERTEX
  8
0300LEVEL
 62
5
 10
-2821.863
 20
1601.472
 30
0.000
 70
    32
  0
VERTEX
  8
0300LEVEL
 62
5
 10
-2818.588
 20
1599.977
 30
0.000
 70
    32
  0
SEQEND
  8
0300LEVEL
  0
POLYLINE
  8
0300LEVEL
 62
7
 66
     1
 70
     8
  0
VERTEX
  8
0300LEVEL
 62
7
 10
-3311.435
 20
3454.566
 30
0.000
 70
    32
  0
VERTEX
  8
0300LEVEL
 62
7
 10
-3262.993
 20
3358.199
 30
0.000
 70
    32
  0
VERTEX
  8
0300LEVEL
 62
7
 10
-3225.676
 20
3269.180
 30
0.000
 70
    32
  0
VERTEX
  8
0300LEVEL
 62
7
 10
-3207.115
 20
3233.993
 30
0.000
 70
    32
  0
VERTEX
  8
0300LEVEL
 62
7
 10
-3175.146
 20
3166.237
 30
0.000
 70
    32
  0
VERTEX
  8
0300LEVEL
 62
7
 10
-3160.168
 20
3109.569
 30
0.000
 70
    32
  0
VERTEX
  8
0300LEVEL
 62
7
 10
-3123.581
 20
3030.946
 30
0.000
 70
    32
  0
VERTEX
  8
0300LEVEL
 62
7
 10
-3091.422
 20
2950.339
 30
0.000
 70
    32
  0
VERTEX
  8
0300LEVEL
 62
7
 10
-3062.418
 20
2882.272
 30
0.000
 70
    32
  0
VERTEX
  8
0300LEVEL
 62
7
 10
-3031.321
 20
2805.310
 30
0.000
 70
    32
  0
VERTEX
  8
0300LEVEL
 62
7
 10
-3015.414
 20
2742.065
 30
0.000
 70
    32
  0
VERTEX
  8
0300LEVEL
 62
7
 10
-2994.684
 20
2691.917
 30
0.000
 70
    32
  0
VERTEX
  8
0300LEVEL
 62
7
 10
-2962.648
 20
2625.047
 30
0.000
 70
    32
  0
VERTEX
  8
0300LEVEL
 62
7
 10
-2927.241
 20
2585.112
 30
0.000
 70
    32
  0
VERTEX
  8
0300LEVEL
 62
7
 10
-2876.540
 20
2529.314
 30
0.000
 70
    32
  0
VERTEX
  8
0300LEVEL
 62
7
 10
-2836.192
 20
2491.056
 30
0.000
 70
    32
  0
VERTEX
  8
0300LEVEL
 62
7
 10
-2783.332
 20
2450.874
 30
0.000
 70
    32
  0
VERTEX
  8
0300LEVEL
 62
7
 10
-2730.492
 20
2400.976
 30
0.000
 70
    32
  0
VERTEX
  8
0300LEVEL
 62
7
 10
-2686.520
 20
2355.224
 30
0.000
 70
    32
  0
VERTEX
  8
0300LEVEL
 62
7
 10
-2644.456
 20
2307.833
 30
0.000
 70
    32
  0
VERTEX
  8
0300LEVEL
 62
7
 10
-2617.893
 20
2278.282
 30
0.000
 70
    32
  0
VERTEX
  8
0300LEVEL
 62
7
 10
-2586.137
 20
2240.762
 30
0.000
 70
    32
  0
VERTEX
  8
0300LEVEL
 62
7
 10
-2540.819
 20
2183.320
 30
0.000
 70
    32
  0
VERTEX
  8
0300LEVEL
 62
7
 10
-2524.045
 20
2157.683
 30
0.000
 70
    32
  0
VERTEX
  8
0300LEVEL
 62
7
 10
-2518.524
 20
2140.703
 30
0.000
 70
    32
  0
VERTEX
  8
0300LEVEL
 62
7
 10
-2480.826
 20
2079.576
 30
0.000
 70
    32
  0
VERTEX
  8
0300LEVEL
 62
7
 10
-2442.845
 20
2002.657
 30
0.000
 70
    32
  0
VERTEX
  8
0300LEVEL
 62
7
 10
-2392.953
 20
1928.378
 30
0.000
 70
    32
  0
VERTEX
  8
0300LEVEL
 62
7
 10
-2330.647
 20
1847.161
 30
0.000
 70
    32
  0
VERTEX
  8
0300LEVEL
 62
7
 10
-2278.811
 20
1777.328
 30
0.000
 70
    32
  0
VERTEX
  8
0300LEVEL
 62
7
 10
-2233.974
 20
1701.089
 30
0.000
 70
    32
  0
VERTEX
  8
0300LEVEL
 62
7
 10
-2201.843
 20
1636.332
 30
0.000
 70
    32
  0
VERTEX
  8
0300LEVEL
 62
7
 10
-2175.264
 20
1590.439
 30
0.000
 70
    32
  0
VERTEX
  8
0300LEVEL
 62
7
 10
-2158.656
 20
1519.107
 30
0.000
 70
    32
  0
VERTEX
  8
0300LEVEL
 62
7
 10
-2139.660
 20
1432.655
 30
0.000
 70
    32
  0
VERTEX
  8
0300LEVEL
 62
7
 10
-2137.914
 20
1357.395
 30
0.000
 70
    32
  0
VERTEX
  8
0300LEVEL
 62
7
 10
-2140.331
 20
1284.284
 30
0.000
 70
    32
  0
VERTEX
  8
0300LEVEL
 62
7
 10
-2127.021
 20
1174.224
 30
0.000
 70
    32
  0
VERTEX
  8
0300LEVEL
 62
7
 10
-2104.356
 20
1074.451
 30
0.000
 70
    32
  0
VERTEX
  8
0300LEVEL
 62
7
 10
-2079.749
 20
995.122
 30
0.000
 70
    32
  0
VERTEX
  8
0300LEVEL
 62
7
 10
-2084.361
 20
989.593
 30
0.000
 70
    32
  0
VERTEX
  8
0300LEVEL
 62
7
 10
-2093.199
 20
992.223
 30
0.000
 70
    32
  0
VERTEX
  8
0300LEVEL
 62
7
 10
-2106.888
 20
1008.608
 30
0.000
 70
    32
  0
VERTEX
  8
0300LEVEL
 62
7
 10
-2162.388
 20
1119.006
 30
0.000
 70
    32
  0
VERTEX
  8
0300LEVEL
 62
7
 10
-2221.395
 20
1222.954
 30
0.000
 70
    32
  0
VERTEX
  8
0300LEVEL
 62
7
 10
-2302.368
 20
1378.323
 30
0.000
 70
    32
  0
VERTEX
  8
0300LEVEL
 62
7
 10
-2333.263
 20
1425.390
 30
0.000
 70
    32
  0
VERTEX
  8
0300LEVEL
 62
7
 10
-2402.338
 20
1560.905
 30
0.000
 70
    32
  0
VERTEX
  8
0300LEVEL
 62
7
 10
-2485.167
 20
1675.571
 30
0.000
 70
    32
  0
VERTEX
  8
0300LEVEL
 62
7
 10
-2528.616
 20
1751.094
 30
0.000
 70
    32
  0
VERTEX
  8
0300LEVEL
 62
7
 10
-2602.719
 20
1838.402
 30
0.000
 70
    32
  0
VERTEX
  8
0300LEVEL
 62
7
 10
-2668.539
 20
1901.920
 30
0.000
 70
    32
  0
VERTEX
  8
0300LEVEL
 62
7
 10
-2701.937
 20
1932.554
 30
0.000
 70
    32
  0
VERTEX
  8
0300LEVEL
 62
7
 10
-2755.637
 20
1996.651
 30
0.000
 70
    32
  0
VERTEX
  8
0300LEVEL
 62
7
 10
-2773.416
 20
2024.817
 30
0.000
 70
    32
  0
VERTEX
  8
0300LEVEL
 62
7
 10
-2792.037
 20
2054.481
 30
0.000
 70
    32
  0
VERTEX
  8
0300LEVEL
 62
7
 10
-2805.760
 20
2068.711
 30
0.000
 70
    32
  0
VERTEX
  8
0300LEVEL
 62
7
 10
-2831.971
 20
2089.944
 30
0.000
 70
    32
  0
VERTEX
  8
0300LEVEL
 62
7
 10
-2873.196
 20
2122.474
 30
0.000
 70
    32
  0
VERTEX
  8
0300LEVEL
 62
7
 10
-2904.536
 20
2154.881
 30
0.000
 70
    32
  0
VERTEX
  8
0300LEVEL
 62
7
 10
-2925.197
 20
2181.133
 30
0.000
 70
    32
  0
VERTEX
  8
0300LEVEL
 62
7
 10
-2927.714
 20
2177.312
 30
0.000
 70
    32
  0
VERTEX
  8
0300LEVEL
 62
7
 10
-2924.458
 20
2164.943
 30
0.000
 70
    32
  0
VERTEX
  8
0300LEVEL
 62
7
 10
-2897.778
 20
2125.131
 30
0.000
 70
    32
  0
VERTEX
  8
0300LEVEL
 62
7
 10
-2853.298
 20
2057.768
 30
0.000
 70
    32
  0
VERTEX
  8
0300LEVEL
 62
7
 10
-2816.339
 20
2005.325
 30
0.000
 70
    32
  0
VERTEX
  8
0300LEVEL
 62
7
 10
-2793.750
 20
1942.021
 30
0.000
 70
    32
  0
VERTEX
  8
0300LEVEL
 62
7
 10
-2775.935
 20
1879.256
 30
0.000
 70
    32
  0
VERTEX
  8
0300LEVEL
 62
7
 10
-2756.666
 20
1801.494
 30
0.000
 70
    32
  0
VERTEX
  8
0300LEVEL
 62
7
 10
-2726.266
 20
1735.372
 30
0.000
 70
    32
  0
VERTEX
  8
0300LEVEL
 62
7
 10
-2710.969
 20
1700.055
 30
0.000
 70
    32
  0
VERTEX
  8
0300LEVEL
 62
7
 10
-2680.795
 20
1657.828
 30
0.000
 70
    32
  0
VERTEX
  8
0300LEVEL
 62
7
 10
-2634.530
 20
1617.612
 30
0.000
 70
    32
  0
VERTEX
  8
0300LEVEL
 62
7
 10
-2616.425
 20
1575.385
 30
0.000
 70
    32
  0
VERTEX
  8
0300LEVEL
 62
7
 10
-2595.485
 20
1517.927
 30
0.000
 70
    32
  0
VERTEX
  8
0300LEVEL
 62
7
 10
-2586.258
 20
1492.389
 30
0.000
 70
    32
  0
VERTEX
  8
0300LEVEL
 62
7
 10
-2592.320
 20
1493.585
 30
0.000
 70
    32
  0
VERTEX
  8
0300LEVEL
 62
7
 10
-2604.528
 20
1500.240
 30
0.000
 70
    32
  0
VERTEX
  8
0300LEVEL
 62
7
 10
-2616.836
 20
1504.662
 30
0.000
 70
    32
  0
VERTEX
  8
0300LEVEL
 62
7
 10
-2624.811
 20
1498.408
 30
0.000
 70
    32
  0
VERTEX
  8
0300LEVEL
 62
7
 10
-2621.432
 20
1489.632
 30
0.000
 70
    32
  0
VERTEX
  8
0300LEVEL
 62
7
 10
-2576.362
 20
1442.102
 30
0.000
 70
    32
  0
VERTEX
  8
0300LEVEL
 62
7
 10
-2508.437
 20
1363.257
 30
0.000
 70
    32
  0
VERTEX
  8
0300LEVEL
 62
7
 10
-2499.208
 20
1342.319
 30
0.000
 70
    32
  0
VERTEX
  8
0300LEVEL
 62
7
 10
-2473.039
 20
1280.993
 30
0.000
 70
    32
  0
VERTEX
  8
0300LEVEL
 62
7
 10
-2434.654
 20
1208.260
 30
0.000
 70
    32
  0
VERTEX
  8
0300LEVEL
 62
7
 10
-2397.879
 20
1146.028
 30
0.000
 70
    32
  0
VERTEX
  8
0300LEVEL
 62
7
 10
-2351.893
 20
1088.356
 30
0.000
 70
    32
  0
VERTEX
  8
0300LEVEL
 62
7
 10
-2287.437
 20
1011.303
 30
0.000
 70
    32
  0
VERTEX
  8
0300LEVEL
 62
7
 10
-2216.238
 20
910.201
 30
0.000
 70
    32
  0
VERTEX
  8
0300LEVEL
 62
7
 10
-2106.394
 20
734.826
 30
0.000
 70
    32
  0
VERTEX
  8
0300LEVEL
 62
7
 10
-2041.652
 20
625.984
 30
0.000
 70
    32
  0
VERTEX
  8
0300LEVEL
 62
7
 10
-2027.961
 20
593.601
 30
0.000
 70
    32
  0
VERTEX
  8
0300LEVEL
 62
7
 10
-1931.745
 20
428.603
 30
0.000
 70
    32
  0
VERTEX
  8
0300LEVEL
 62
7
 10
-1868.720
 20
332.776
 30
0.000
 70
    32
  0
VERTEX
  8
0300LEVEL
 62
7
 10
-1777.742
 20
167.846
 30
0.000
 70
    32
  0
VERTEX
  8
0300LEVEL
 62
7
 10
-1767.834
 20
140.053
 30
0.000
 70
    32
  0
VERTEX
  8
0300LEVEL
 62
7
 10
-1721.700
 20
56.113
 30
0.000
 70
    32
  0
VERTEX
  8
0300LEVEL
 62
7
 10
-1704.151
 20
19.628
 30
0.000
 70
    32
  0
VERTEX
  8
0300LEVEL
 62
7
 10
-1644.763
 20
-81.879
 30
0.000
 70
    32
  0
VERTEX
  8
0300LEVEL
 62
7
 10
-1627.695
 20
-107.040
 30
0.000
 70
    32
  0
VERTEX
  8
0300LEVEL
 62
7
 10
-1585.848
 20
-176.814
 30
0.000
 70
    32
  0
VERTEX
  8
0300LEVEL
 62
7
 10
-1550.996
 20
-225.749
 30
0.000
 70
    32
  0
VERTEX
  8
0300LEVEL
 62
7
 10
-1470.957
 20
-345.478
 30
0.000
 70
    32
  0
VERTEX
  8
0300LEVEL
 62
7
 10
-1379.149
 20
-500.290
 30
0.000
 70
    32
  0
VERTEX
  8
0300LEVEL
 62
7
 10
-1315.622
 20
-589.695
 30
0.000
 70
    32
  0
VERTEX
  8
0300LEVEL
 62
7
 10
-1258.479
 20
-654.358
 30
0.000
 70
    32
  0
VERTEX
  8
0300LEVEL
 62
7
 10
-1194.684
 20
-750.055
 30
0.000
 70
    32
  0
VERTEX
  8
0300LEVEL
 62
7
 10
-1105.691
 20
-895.679
 30
0.000
 70
    32
  0
VERTEX
  8
0300LEVEL
 62
7
 10
-1050.003
 20
-980.861
 30
0.000
 70
    32
  0
VERTEX
  8
0300LEVEL
 62
7
 10
-981.244
 20
-1081.582
 30
0.000
 70
    32
  0
VERTEX
  8
0300LEVEL
 62
7
 10
-909.991
 20
-1183.942
 30
0.000
 70
    32
  0
VERTEX
  8
0300LEVEL
 62
7
 10
-880.033
 20
-1238.612
 30
0.000
 70
    32
  0
VERTEX
  8
0300LEVEL
 62
7
 10
-809.565
 20
-1347.598
 30
0.000
 70
    32
  0
VERTEX
  8
0300LEVEL
 62
7
 10
-800.892
 20
-1373.698
 30
0.000
 70
    32
  0
VERTEX
  8
0300LEVEL
 62
7
 10
-711.540
 20
-1518.628
 30
0.000
 70
    32
  0
VERTEX
  8
0300LEVEL
 62
7
 10
-693.450
 20
-1556.447
 30
0.000
 70
    32
  0
VERTEX
  8
0300LEVEL
 62
7
 10
-676.151
 20
-1596.142
 30
0.000
 70
    32
  0
VERTEX
  8
0300LEVEL
 62
7
 10
-670.362
 20
-1618.292
 30
0.000
 70
    32
  0
VERTEX
  8
0300LEVEL
 62
7
 10
-675.516
 20
-1622.487
 30
0.000
 70
    32
  0
VERTEX
  8
0300LEVEL
 62
7
 10
-685.917
 20
-1621.862
 30
0.000
 70
    32
  0
VERTEX
  8
0300LEVEL
 62
7
 10
-716.124
 20
-1586.401
 30
0.000
 70
    32
  0
VERTEX
  8
0300LEVEL
 62
7
 10
-757.785
 20
-1534.653
 30
0.000
 70
    32
  0
VERTEX
  8
0300LEVEL
 62
7
 10
-809.271
 20
-1459.376
 30
0.000
 70
    32
  0
VERTEX
  8
0300LEVEL
 62
7
 10
-866.897
 20
-1367.392
 30
0.000
 70
    32
  0
VERTEX
  8
0300LEVEL
 62
7
 10
-912.145
 20
-1290.588
 30
0.000
 70
    32
  0
VERTEX
  8
0300LEVEL
 62
7
 10
-997.873
 20
-1162.472
 30
0.000
 70
    32
  0
VERTEX
  8
0300LEVEL
 62
7
 10
-1018.647
 20
-1132.233
 30
0.000
 70
    32
  0
VERTEX
  8
0300LEVEL
 62
7
 10
-1090.814
 20
-1035.729
 30
0.000
 70
    32
  0
VERTEX
  8
0300LEVEL
 62
7
 10
-1165.263
 20
-926.620
 30
0.000
 70
    32
  0
VERTEX
  8
0300LEVEL
 62
7
 10
-1247.178
 20
-806.098
 30
0.000
 70
    32
  0
VERTEX
  8
0300LEVEL
 62
7
 10
-1375.147
 20
-633.142
 30
0.000
 70
    32
  0
VERTEX
  8
0300LEVEL
 62
7
 10
-1460.035
 20
-515.655
 30
0.000
 70
    32
  0
VERTEX
  8
0300LEVEL
 62
7
 10
-1515.725
 20
-414.475
 30
0.000
 70
    32
  0
VERTEX
  8
0300LEVEL
 62
7
 10
-1566.036
 20
-334.882
 30
0.000
 70
    32
  0
VERTEX
  8
0300LEVEL
 62
7
 10
-1654.448
 20
-214.345
 30
0.000
 70
    32
  0
VERTEX
  8
0300LEVEL
 62
7
 10
-1746.429
 20
-78.253
 30
0.000
 70
    32
  0
VERTEX
  8
0300LEVEL
 62
7
 10
-1830.275
 20
60.318
 30
0.000
 70
    32
  0
VERTEX
  8
0300LEVEL
 62
7
 10
-1912.315
 20
208.855
 30
0.000
 70
    32
  0
VERTEX
  8
0300LEVEL
 62
7
 10
-1976.303
 20
327.328
 30
0.000
 70
    32
  0
VERTEX
  8
0300LEVEL
 62
7
 10
-2035.456
 20
441.547
 30
0.000
 70
    32
  0
VERTEX
  8
0300LEVEL
 62
7
 10
-2096.331
 20
541.537
 30
0.000
 70
    32
  0
VERTEX
  8
0300LEVEL
 62
7
 10
-2144.958
 20
627.116
 30
0.000
 70
    32
  0
VERTEX
  8
0300LEVEL
 62
7
 10
-2200.745
 20
710.065
 30
0.000
 70
    32
  0
VERTEX
  8
0300LEVEL
 62
7
 10
-2267.200
 20
799.928
 30
0.000
 70
    32
  0
VERTEX
  8
0300LEVEL
 62
7
 10
-2326.457
 20
884.668
 30
0.000
 70
    32
  0
VERTEX
  8
0300LEVEL
 62
7
 10
-2397.350
 20
971.724
 30
0.000
 70
    32
  0
VERTEX
  8
0300LEVEL
 62
7
 10
-2438.721
 20
1018.927
 30
0.000
 70
    32
  0
VERTEX
  8
0300LEVEL
 62
7
 10
-2505.968
 20
1090.917
 30
0.000
 70
    32
  0
VERTEX
  8
0300LEVEL
 62
7
 10
-2529.983
 20
1124.412
 30
0.000
 70
    32
  0
VERTEX
  8
0300LEVEL
 62
7
 10
-2582.092
 20
1189.289
 30
0.000
 70
    32
  0
VERTEX
  8
0300LEVEL
 62
7
 10
-2620.074
 20
1246.539
 30
0.000
 70
    32
  0
VERTEX
  8
0300LEVEL
 62
7
 10
-2622.346
 20
1269.771
 30
0.000
 70
    32
  0
VERTEX
  8
0300LEVEL
 62
7
 10
-2642.900
 20
1292.717
 30
0.000
 70
    32
  0
VERTEX
  8
0300LEVEL
 62
7
 10
-2664.419
 20
1322.957
 30
0.000
 70
    32
  0
VERTEX
  8
0300LEVEL
 62
7
 10
-2695.031
 20
1370.909
 30
0.000
 70
    32
  0
VERTEX
  8
0300LEVEL
 62
7
 10
-2699.401
 20
1375.607
 30
0.000
 70
    32
  0
VERTEX
  8
0300LEVEL
 62
7
 10
-2722.873
 20
1413.037
 30
0.000
 70
    32
  0
VERTEX
  8
0300LEVEL
 62
7
 10
-2742.818
 20
1439.324
 30
0.000
 70
    32
  0
VERTEX
  8
0300LEVEL
 62
7
 10
-2771.348
 20
1485.337
 30
0.000
 70
    32
  0
VERTEX
  8
0300LEVEL
 62
7
 10
-2776.061
 20
1491.398
 30
0.000
 70
    32
  0
VERTEX
  8
0300LEVEL
 62
7
 10
-2794.464
 20
1512.131
 30
0.000
 70
    32
  0
VERTEX
  8
0300LEVEL
 62
7
 10
-2815.146
 20
1528.669
 30
0.000
 70
    32
  0
VERTEX
  8
0300LEVEL
 62
7
 10
-2826.250
 20
1546.890
 30
0.000
 70
    32
  0
VERTEX
  8
0300LEVEL
 62
7
 10
-2830.212
 20
1552.270
 30
0.000
 70
    32
  0
VERTEX
  8
0300LEVEL
 62
7
 10
-2837.765
 20
1565.588
 30
0.000
 70
    32
  0
VERTEX
  8
0300LEVEL
 62
7
 10
-2840.442
 20
1578.538
 30
0.000
 70
    32
  0
VERTEX
  8
0300LEVEL
 62
7
 10
-2843.862
 20
1586.373
 30
0.000
 70
    32
  0
VERTEX
  8
0300LEVEL
 62
7
 10
-2847.588
 20
1592.210
 30
0.000
 70
    32
  0
VERTEX
  8
0300LEVEL
 62
7
 10
-2862.241
 20
1614.643
 30
0.000
 70
    32
  0
VERTEX
  8
0300LEVEL
 62
7
 10
-2865.761
 20
1619.851
 30
0.000
 70
    32
  0
VERTEX
  8
0300LEVEL
 62
7
 10
-2877.336
 20
1633.027
 30
0.000
 70
    32
  0
VERTEX
  8
0300LEVEL
 62
7
 10
-2895.809
 20
1655.192
 30
0.000
 70
    32
  0
VERTEX
  8
0300LEVEL
 62
7
 10
-2913.939
 20
1674.835
 30
0.000
 70
    32
  0
VERTEX
  8
0300LEVEL
 62
7
 10
-2921.311
 20
1681.096
 30
0.000
 70
    32
  0
VERTEX
  8
0300LEVEL
 62
7
 10
-2929.691
 20
1677.539
 30
0.000
 70
    32
  0
VERTEX
  8
0300LEVEL
 62
7
 10
-2932.647
 20
1670.274
 30
0.000
 70
    32
  0
VERTEX
  8
0300LEVEL
 62
7
 10
-2932.944
 20
1663.967
 30
0.000
 70
    32
  0
VERTEX
  8
0300LEVEL
 62
7
 10
-2931.329
 20
1654.664
 30
0.000
 70
    32
  0
VERTEX
  8
0300LEVEL
 62
7
 10
-2920.177
 20
1627.613
 30
0.000
 70
    32
  0
VERTEX
  8
0300LEVEL
 62
7
 10
-2909.437
 20
1602.199
 30
0.000
 70
    32
  0
VERTEX
  8
0300LEVEL
 62
7
 10
-2901.575
 20
1587.075
 30
0.000
 70
    32
  0
VERTEX
  8
0300LEVEL
 62
7
 10
-2883.852
 20
1565.590
 30
0.000
 70
    32
  0
VERTEX
  8
0300LEVEL
 62
7
 10
-2859.445
 20
1541.729
 30
0.000
 70
    32
  0
VERTEX
  8
0300LEVEL
 62
7
 10
-2846.094
 20
1526.102
 30
0.000
 70
    32
  0
VERTEX
  8
0300LEVEL
 62
7
 10
-2839.998
 20
1506.476
 30
0.000
 70
    32
  0
VERTEX
  8
0300LEVEL
 62
7
 10
-2840.701
 20
1497.169
 30
0.000
 70
    32
  0
VERTEX
  8
0300LEVEL
 62
7
 10
-2853.249
 20
1499.810
 30
0.000
 70
    32
  0
VERTEX
  8
0300LEVEL
 62
7
 10
-2867.819
 20
1509.913
 30
0.000
 70
    32
  0
VERTEX
  8
0300LEVEL
 62
7
 10
-2880.177
 20
1522.167
 30
0.000
 70
    32
  0
VERTEX
  8
0300LEVEL
 62
7
 10
-2908.750
 20
1551.067
 30
0.000
 70
    32
  0
VERTEX
  8
0300LEVEL
 62
7
 10
-2920.559
 20
1561.140
 30
0.000
 70
    32
  0
VERTEX
  8
0300LEVEL
 62
7
 10
-2947.798
 20
1586.463
 30
0.000
 70
    32
  0
VERTEX
  8
0300LEVEL
 62
7
 10
-2961.835
 20
1604.817
 30
0.000
 70
    32
  0
VERTEX
  8
0300LEVEL
 62
7
 10
-2989.361
 20
1640.502
 30
0.000
 70
    32
  0
VERTEX
  8
0300LEVEL
 62
7
 10
-3010.066
 20
1673.265
 30
0.000
 70
    32
  0
VERTEX
  8
0300LEVEL
 62
7
 10
-3028.798
 20
1709.713
 30
0.000
 70
    32
  0
VERTEX
  8
0300LEVEL
 62
7
 10
-3044.724
 20
1738.461
 30
0.000
 70
    32
  0
VERTEX
  8
0300LEVEL
 62
7
 10
-3071.946
 20
1775.817
 30
0.000
 70
    32
  0
VERTEX
  8
0300LEVEL
 62
7
 10
-3099.754
 20
1817.229
 30
0.000
 70
    32
  0
VERTEX
  8
0300LEVEL
 62
7
 10
-3121.928
 20
1852.956
 30
0.000
 70
    32
  0
VERTEX
  8
0300LEVEL
 62
7
 10
-3147.111
 20
1894.882
 30
0.000
 70
    32
  0
VERTEX
  8
0300LEVEL
 62
7
 10
-3178.240
 20
1946.618
 30
0.000
 70
    32
  0
VERTEX
  8
0300LEVEL
 62
7
 10
-3211.409
 20
1994.942
 30
0.000
 70
    32
  0
VERTEX
  8
0300LEVEL
 62
7
 10
-3240.688
 20
2040.476
 30
0.000
 70
    32
  0
VERTEX
  8
0300LEVEL
 62
7
 10
-3256.373
 20
2067.690
 30
0.000
 70
    32
  0
VERTEX
  8
0300LEVEL
 62
7
 10
-3257.403
 20
2096.562
 30
0.000
 70
    32
  0
VERTEX
  8
0300LEVEL
 62
7
 10
-3247.322
 20
2102.576
 30
0.000
 70
    32
  0
VERTEX
  8
0300LEVEL
 62
7
 10
-3236.275
 20
2101.296
 30
0.000
 70
    32
  0
VERTEX
  8
0300LEVEL
 62
7
 10
-3230.249
 20
2106.725
 30
0.000
 70
    32
  0
VERTEX
  8
0300LEVEL
 62
7
 10
-3229.910
 20
2107.680
 30
0.000
 70
    32
  0
VERTEX
  8
0300LEVEL
 62
7
 10
-3254.934
 20
2157.618
 30
0.000
 70
    32
  0
VERTEX
  8
0300LEVEL
 62
7
 10
-3278.323
 20
2207.967
 30
0.000
 70
    32
  0
VERTEX
  8
0300LEVEL
 62
7
 10
-3289.282
 20
2243.471
 30
0.000
 70
    32
  0
VERTEX
  8
0300LEVEL
 62
7
 10
-3286.775
 20
2254.247
 30
0.000
 70
    32
  0
VERTEX
  8
0300LEVEL
 62
7
 10
-3281.766
 20
2255.652
 30
0.000
 70
    32
  0
VERTEX
  8
0300LEVEL
 62
7
 10
-3273.477
 20
2252.084
 30
0.000
 70
    32
  0
VERTEX
  8
0300LEVEL
 62
7
 10
-3257.885
 20
2242.528
 30
0.000
 70
    32
  0
VERTEX
  8
0300LEVEL
 62
7
 10
-3248.570
 20
2236.030
 30
0.000
 70
    32
  0
VERTEX
  8
0300LEVEL
 62
7
 10
-3219.096
 20
2221.414
 30
0.000
 70
    32
  0
VERTEX
  8
0300LEVEL
 62
7
 10
-3188.024
 20
2209.085
 30
0.000
 70
    32
  0
VERTEX
  8
0300LEVEL
 62
7
 10
-3183.122
 20
2213.796
 30
0.000
 70
    32
  0
VERTEX
  8
0300LEVEL
 62
7
 10
-3183.473
 20
2220.954
 30
0.000
 70
    32
  0
VERTEX
  8
0300LEVEL
 62
7
 10
-3189.589
 20
2230.865
 30
0.000
 70
    32
  0
VERTEX
  8
0300LEVEL
 62
7
 10
-3210.252
 20
2258.276
 30
0.000
 70
    32
  0
VERTEX
  8
0300LEVEL
 62
7
 10
-3232.447
 20
2284.288
 30
0.000
 70
    32
  0
VERTEX
  8
0300LEVEL
 62
7
 10
-3271.332
 20
2325.377
 30
0.000
 70
    32
  0
VERTEX
  8
0300LEVEL
 62
7
 10
-3309.604
 20
2366.331
 30
0.000
 70
    32
  0
VERTEX
  8
0300LEVEL
 62
7
 10
-3346.994
 20
2410.694
 30
0.000
 70
    32
  0
VERTEX
  8
0300LEVEL
 62
7
 10
-3400.963
 20
2463.352
 30
0.000
 70
    32
  0
VERTEX
  8
0300LEVEL
 62
7
 10
-3432.172
 20
2499.850
 30
0.000
 70
    32
  0
VERTEX
  8
0300LEVEL
 62
7
 10
-3443.630
 20
2502.765
 30
0.000
 70
    32
  0
VERTEX
  8
0300LEVEL
 62
7
 10
-3449.757
 20
2496.007
 30
0.000
 70
    32
  0
VERTEX
  8
0300LEVEL
 62
7
 10
-3461.241
 20
2493.843
 30
0.000
 70
    32
  0
VERTEX
  8
0300LEVEL
 62
7
 10
-3471.065
 20
2498.328
 30
0.000
 70
    32
  0
VERTEX
  8
0300LEVEL
 62
7
 10
-3499.020
 20
2523.616
 30
0.000
 70
    32
  0
VERTEX
  8
0300LEVEL
 62
7
 10
-3519.015
 20
2537.427
 30
0.000
 70
    32
  0
VERTEX
  8
0300LEVEL
 62
7
 10
-3522.991
 20
2528.456
 30
0.000
 70
    32
  0
VERTEX
  8
0300LEVEL
 62
7
 10
-3523.135
 20
2510.014
 30
0.000
 70
    32
  0
VERTEX
  8
0300LEVEL
 62
7
 10
-3510.936
 20
2466.126
 30
0.000
 70
    32
  0
VERTEX
  8
0300LEVEL
 62
7
 10
-3501.700
 20
2419.609
 30
0.000
 70
    32
  0
VERTEX
  8
0300LEVEL
 62
7
 10
-3487.990
 20
2367.405
 30
0.000
 70
    32
  0
VERTEX
  8
0300LEVEL
 62
7
 10
-3477.401
 20
2304.561
 30
0.000
 70
    32
  0
VERTEX
  8
0300LEVEL
 62
7
 10
-3450.248
 20
2243.854
 30
0.000
 70
    32
  0
VERTEX
  8
0300LEVEL
 62
7
 10
-3446.107
 20
2185.331
 30
0.000
 70
    32
  0
VERTEX
  8
0300LEVEL
 62
7
 10
-3456.972
 20
2178.395
 30
0.000
 70
    32
  0
VERTEX
  8
0300LEVEL
 62
7
 10
-3468.532
 20
2181.140
 30
0.000
 70
    32
  0
VERTEX
  8
0300LEVEL
 62
7
 10
-3495.757
 20
2197.190
 30
0.000
 70
    32
  0
VERTEX
  8
0300LEVEL
 62
7
 10
-3505.541
 20
2197.483
 30
0.000
 70
    32
  0
VERTEX
  8
0300LEVEL
 62
7
 10
-3449.166
 20
2083.402
 30
0.000
 70
    32
  0
VERTEX
  8
0300LEVEL
 62
7
 10
-3430.558
 20
2063.010
 30
0.000
 70
    32
  0
VERTEX
  8
0300LEVEL
 62
7
 10
-3412.819
 20
2053.558
 30
0.000
 70
    32
  0
VERTEX
  8
0300LEVEL
 62
7
 10
-3399.762
 20
2052.929
 30
0.000
 70
    32
  0
VERTEX
  8
0300LEVEL
 62
7
 10
-3396.009
 20
2050.685
 30
0.000
 70
    32
  0
VERTEX
  8
0300LEVEL
 62
7
 10
-3391.571
 20
2045.714
 30
0.000
 70
    32
  0
VERTEX
  8
0300LEVEL
 62
7
 10
-3378.272
 20
2018.769
 30
0.000
 70
    32
  0
VERTEX
  8
0300LEVEL
 62
7
 10
-3372.243
 20
1998.257
 30
0.000
 70
    32
  0
VERTEX
  8
0300LEVEL
 62
7
 10
-3359.683
 20
1963.880
 30
0.000
 70
    32
  0
VERTEX
  8
0300LEVEL
 62
7
 10
-3332.525
 20
1923.319
 30
0.000
 70
    32
  0
VERTEX
  8
0300LEVEL
 62
7
 10
-3282.180
 20
1854.533
 30
0.000
 70
    32
  0
VERTEX
  8
0300LEVEL
 62
7
 10
-3231.437
 20
1793.383
 30
0.000
 70
    32
  0
VERTEX
  8
0300LEVEL
 62
7
 10
-3168.563
 20
1711.081
 30
0.000
 70
    32
  0
VERTEX
  8
0300LEVEL
 62
7
 10
-3124.208
 20
1636.150
 30
0.000
 70
    32
  0
VERTEX
  8
0300LEVEL
 62
7
 10
-3101.124
 20
1584.130
 30
0.000
 70
    32
  0
VERTEX
  8
0300LEVEL
 62
7
 10
-3077.731
 20
1530.304
 30
0.000
 70
    32
  0
VERTEX
  8
0300LEVEL
 62
7
 10
-3058.075
 20
1491.915
 30
0.000
 70
    32
  0
VERTEX
  8
0300LEVEL
 62
7
 10
-3028.104
 20
1462.641
 30
0.000
 70
    32
  0
VERTEX
  8
0300LEVEL
 62
7
 10
-2995.465
 20
1427.373
 30
0.000
 70
    32
  0
VERTEX
  8
0300LEVEL
 62
7
 10
-2967.298
 20
1396.631
 30
0.000
 70
    32
  0
VERTEX
  8
0300LEVEL
 62
7
 10
-2907.433
 20
1345.312
 30
0.000
 70
    32
  0
VERTEX
  8
0300LEVEL
 62
7
 10
-2844.321
 20
1287.418
 30
0.000
 70
    32
  0
VERTEX
  8
0300LEVEL
 62
7
 10
-2786.209
 20
1222.324
 30
0.000
 70
    32
  0
VERTEX
  8
0300LEVEL
 62
7
 10
-2775.066
 20
1209.659
 30
0.000
 70
    32
  0
VERTEX
  8
0300LEVEL
 62
7
 10
-2746.863
 20
1169.773
 30
0.000
 70
    32
  0
VERTEX
  8
0300LEVEL
 62
7
 10
-2711.887
 20
1108.822
 30
0.000
 70
    32
  0
VERTEX
  8
0300LEVEL
 62
7
 10
-2677.035
 20
1059.887
 30
0.000
 70
    32
  0
VERTEX
  8
0300LEVEL
 62
7
 10
-2644.433
 20
1020.552
 30
0.000
 70
    32
  0
VERTEX
  8
0300LEVEL
 62
7
 10
-2558.974
 20
914.724
 30
0.000
 70
    32
  0
VERTEX
  8
0300LEVEL
 62
7
 10
-2510.136
 20
856.107
 30
0.000
 70
    32
  0
VERTEX
  8
0300LEVEL
 62
7
 10
-2479.227
 20
815.537
 30
0.000
 70
    32
  0
VERTEX
  8
0300LEVEL
 62
7
 10
-2438.945
 20
759.755
 30
0.000
 70
    32
  0
VERTEX
  8
0300LEVEL
 62
7
 10
-2394.650
 20
684.850
 30
0.000
 70
    32
  0
VERTEX
  8
0300LEVEL
 62
7
 10
-2353.954
 20
612.507
 30
0.000
 70
    32
  0
VERTEX
  8
0300LEVEL
 62
7
 10
-2337.161
 20
582.390
 30
0.000
 70
    32
  0
VERTEX
  8
0300LEVEL
 62
7
 10
-2329.625
 20
560.216
 30
0.000
 70
    32
  0
VERTEX
  8
0300LEVEL
 62
7
 10
-2330.348
 20
547.581
 30
0.000
 70
    32
  0
VERTEX
  8
0300LEVEL
 62
7
 10
-2339.262
 20
549.723
 30
0.000
 70
    32
  0
VERTEX
  8
0300LEVEL
 62
7
 10
-2354.765
 20
560.892
 30
0.000
 70
    32
  0
VERTEX
  8
0300LEVEL
 62
7
 10
-2373.610
 20
589.081
 30
0.000
 70
    32
  0
VERTEX
  8
0300LEVEL
 62
7
 10
-2412.817
 20
646.944
 30
0.000
 70
    32
  0
VERTEX
  8
0300LEVEL
 62
7
 10
-2480.736
 20
737.035
 30
0.000
 70
    32
  0
VERTEX
  8
0300LEVEL
 62
7
 10
-2522.451
 20
790.041
 30
0.000
 70
    32
  0
VERTEX
  8
0300LEVEL
 62
7
 10
-2561.581
 20
832.395
 30
0.000
 70
    32
  0
VERTEX
  8
0300LEVEL
 62
7
 10
-2646.336
 20
917.117
 30
0.000
 70
    32
  0
VERTEX
  8
0300LEVEL
 62
7
 10
-2706.604
 20
977.768
 30
0.000
 70
    32
  0
VERTEX
  8
0300LEVEL
 62
7
 10
-2791.816
 20
1059.562
 30
0.000
 70
    32
  0
VERTEX
  8
0300LEVEL
 62
7
 10
-2804.840
 20
1078.548
 30
0.000
 70
    32
  0
VERTEX
  8
0300LEVEL
 62
7
 10
-2856.309
 20
1138.346
 30
0.000
 70
    32
  0
VERTEX
  8
0300LEVEL
 62
7
 10
-2871.496
 20
1149.423
 30
0.000
 70
    32
  0
VERTEX
  8
0300LEVEL
 62
7
 10
-2876.647
 20
1152.040
 30
0.000
 70
    32
  0
VERTEX
  8
0300LEVEL
 62
7
 10
-2917.326
 20
1183.548
 30
0.000
 70
    32
  0
VERTEX
  8
0300LEVEL
 62
7
 10
-2948.938
 20
1215.887
 30
0.000
 70
    32
  0
VERTEX
  8
0300LEVEL
 62
7
 10
-2987.328
 20
1244.636
 30
0.000
 70
    32
  0
VERTEX
  8
0300LEVEL
 62
7
 10
-3018.603
 20
1279.089
 30
0.000
 70
    32
  0
VERTEX
  8
0300LEVEL
 62
7
 10
-3048.210
 20
1315.555
 30
0.000
 70
    32
  0
VERTEX
  8
0300LEVEL
 62
7
 10
-3087.082
 20
1347.372
 30
0.000
 70
    32
  0
VERTEX
  8
0300LEVEL
 62
7
 10
-3125.569
 20
1396.098
 30
0.000
 70
    32
  0
VERTEX
  8
0300LEVEL
 62
7
 10
-3157.347
 20
1425.061
 30
0.000
 70
    32
  0
VERTEX
  8
0300LEVEL
 62
7
 10
-3176.331
 20
1446.374
 30
0.000
 70
    32
  0
VERTEX
  8
0300LEVEL
 62
7
 10
-3194.726
 20
1461.312
 30
0.000
 70
    32
  0
VERTEX
  8
0300LEVEL
 62
7
 10
-3204.451
 20
1468.286
 30
0.000
 70
    32
  0
VERTEX
  8
0300LEVEL
 62
7
 10
-3211.880
 20
1466.708
 30
0.000
 70
    32
  0
VERTEX
  8
0300LEVEL
 62
7
 10
-3218.842
 20
1472.493
 30
0.000
 70
    32
  0
VERTEX
  8
0300LEVEL
 62
7
 10
-3250.398
 20
1489.049
 30
0.000
 70
    32
  0
VERTEX
  8
0300LEVEL
 62
7
 10
-3263.058
 20
1498.473
 30
0.000
 70
    32
  0
VERTEX
  8
0300LEVEL
 62
7
 10
-3322.872
 20
1538.646
 30
0.000
 70
    32
  0
VERTEX
  8
0300LEVEL
 62
7
 10
-3321.775
 20
1534.284
 30
0.000
 70
    32
  0
VERTEX
  8
0300LEVEL
 62
7
 10
-3317.529
 20
1520.859
 30
0.000
 70
    32
  0
VERTEX
  8
0300LEVEL
 62
7
 10
-3308.302
 20
1504.919
 30
0.000
 70
    32
  0
VERTEX
  8
0300LEVEL
 62
7
 10
-3296.955
 20
1484.005
 30
0.000
 70
    32
  0
VERTEX
  8
0300LEVEL
 62
7
 10
-3271.479
 20
1451.862
 30
0.000
 70
    32
  0
VERTEX
  8
0300LEVEL
 62
7
 10
-3241.902
 20
1412.635
 30
0.000
 70
    32
  0
VERTEX
  8
0300LEVEL
 62
7
 10
-3218.425
 20
1371.728
 30
0.000
 70
    32
  0
VERTEX
  8
0300LEVEL
 62
7
 10
-3216.400
 20
1361.948
 30
0.000
 70
    32
  0
VERTEX
  8
0300LEVEL
 62
7
 10
-3218.343
 20
1362.183
 30
0.000
 70
    32
  0
VERTEX
  8
0300LEVEL
 62
7
 10
-3222.065
 20
1366.030
 30
0.000
 70
    32
  0
VERTEX
  8
0300LEVEL
 62
7
 10
-3236.268
 20
1382.168
 30
0.000
 70
    32
  0
VERTEX
  8
0300LEVEL
 62
7
 10
-3255.692
 20
1401.195
 30
0.000
 70
    32
  0
VERTEX
  8
0300LEVEL
 62
7
 10
-3284.290
 20
1423.857
 30
0.000
 70
    32
  0
VERTEX
  8
0300LEVEL
 62
7
 10
-3301.286
 20
1437.264
 30
0.000
 70
    32
  0
VERTEX
  8
0300LEVEL
 62
7
 10
-3299.779
 20
1432.425
 30
0.000
 70
    32
  0
VERTEX
  8
0300LEVEL
 62
7
 10
-3289.192
 20
1419.146
 30
0.000
 70
    32
  0
VERTEX
  8
0300LEVEL
 62
7
 10
-3265.158
 20
1393.887
 30
0.000
 70
    32
  0
VERTEX
  8
0300LEVEL
 62
7
 10
-3232.962
 20
1358.651
 30
0.000
 70
    32
  0
VERTEX
  8
0300LEVEL
 62
7
 10
-3207.379
 20
1323.202
 30
0.000
 70
    32
  0
VERTEX
  8
0300LEVEL
 62
7
 10
-3207.737
 20
1311.373
 30
0.000
 70
    32
  0
VERTEX
  8
0300LEVEL
 62
7
 10
-3216.941
 20
1311.087
 30
0.000
 70
    32
  0
VERTEX
  8
0300LEVEL
 62
7
 10
-3234.446
 20
1323.640
 30
0.000
 70
    32
  0
VERTEX
  8
0300LEVEL
 62
7
 10
-3261.948
 20
1341.941
 30
0.000
 70
    32
  0
VERTEX
  8
0300LEVEL
 62
7
 10
-3286.559
 20
1365.460
 30
0.000
 70
    32
  0
VERTEX
  8
0300LEVEL
 62
7
 10
-3309.739
 20
1389.051
 30
0.000
 70
    32
  0
VERTEX
  8
0300LEVEL
 62
7
 10
-3332.542
 20
1411.721
 30
0.000
 70
    32
  0
VERTEX
  8
0300LEVEL
 62
7
 10
-3352.105
 20
1432.453
 30
0.000
 70
    32
  0
VERTEX
  8
0300LEVEL
 62
7
 10
-3367.690
 20
1437.373
 30
0.000
 70
    32
  0
VERTEX
  8
0300LEVEL
 62
7
 10
-3385.483
 20
1436.666
 30
0.000
 70
    32
  0
VERTEX
  8
0300LEVEL
 62
7
 10
-3413.786
 20
1443.170
 30
0.000
 70
    32
  0
VERTEX
  8
0300LEVEL
 62
7
 10
-3416.846
 20
1438.053
 30
0.000
 70
    32
  0
VERTEX
  8
0300LEVEL
 62
7
 10
-3412.120
 20
1422.720
 30
0.000
 70
    32
  0
VERTEX
  8
0300LEVEL
 62
7
 10
-3402.071
 20
1403.508
 30
0.000
 70
    32
  0
VERTEX
  8
0300LEVEL
 62
7
 10
-3389.760
 20
1376.460
 30
0.000
 70
    32
  0
VERTEX
  8
0300LEVEL
 62
7
 10
-3376.968
 20
1346.344
 30
0.000
 70
    32
  0
VERTEX
  8
0300LEVEL
 62
7
 10
-3372.265
 20
1323.614
 30
0.000
 70
    32
  0
VERTEX
  8
0300LEVEL
 62
7
 10
-3378.716
 20
1329.093
 30
0.000
 70
    32
  0
VERTEX
  8
0300LEVEL
 62
7
 10
-3390.662
 20
1339.711
 30
0.000
 70
    32
  0
VERTEX
  8
0300LEVEL
 62
7
 10
-3406.124
 20
1353.358
 30
0.000
 70
    32
  0
VERTEX
  8
0300LEVEL
 62
7
 10
-3420.515
 20
1357.565
 30
0.000
 70
    32
  0
VERTEX
  8
0300LEVEL
 62
7
 10
-3441.036
 20
1357.331
 30
0.000
 70
    32
  0
VERTEX
  8
0300LEVEL
 62
7
 10
-3460.602
 20
1356.757
 30
0.000
 70
    32
  0
VERTEX
  8
0300LEVEL
 62
7
 10
-3490.303
 20
1363.635
 30
0.000
 70
    32
  0
VERTEX
  8
0300LEVEL
 62
7
 10
-3516.546
 20
1384.425
 30
0.000
 70
    32
  0
VERTEX
  8
0300LEVEL
 62
7
 10
-3522.306
 20
1383.701
 30
0.000
 70
    32
  0
VERTEX
  8
0300LEVEL
 62
7
 10
-3521.440
 20
1373.919
 30
0.000
 70
    32
  0
VERTEX
  8
0300LEVEL
 62
7
 10
-3513.968
 20
1345.364
 30
0.000
 70
    32
  0
VERTEX
  8
0300LEVEL
 62
7
 10
-3501.808
 20
1328.132
 30
0.000
 70
    32
  0
VERTEX
  8
0300LEVEL
 62
7
 10
-3501.050
 20
1322.816
 30
0.000
 70
    32
  0
VERTEX
  8
0300LEVEL
 62
7
 10
-3503.818
 20
1303.858
 30
0.000
 70
    32
  0
VERTEX
  8
0300LEVEL
 62
7
 10
-3504.334
 20
1282.859
 30
0.000
 70
    32
  0
VERTEX
  8
0300LEVEL
 62
7
 10
-3496.462
 20
1260.781
 30
0.000
 70
    32
  0
VERTEX
  8
0300LEVEL
 62
7
 10
-3505.960
 20
1251.871
 30
0.000
 70
    32
  0
VERTEX
  8
0300LEVEL
 62
7
 10
-3524.004
 20
1259.651
 30
0.000
 70
    32
  0
VERTEX
  8
0300LEVEL
 62
7
 10
-3530.650
 20
1258.994
 30
0.000
 70
    32
  0
VERTEX
  8
0300LEVEL
 62
7
 10
-3532.207
 20
1251.356
 30
0.000
 70
    32
  0
VERTEX
  8
0300LEVEL
 62
7
 10
-3527.180
 20
1240.012
 30
0.000
 70
    32
  0
VERTEX
  8
0300LEVEL
 62
7
 10
-3508.695
 20
1209.733
 30
0.000
 70
    32
  0
VERTEX
  8
0300LEVEL
 62
7
 10
-3480.006
 20
1171.732
 30
0.000
 70
    32
  0
VERTEX
  8
0300LEVEL
 62
7
 10
-3448.136
 20
1149.893
 30
0.000
 70
    32
  0
VERTEX
  8
0300LEVEL
 62
7
 10
-3425.777
 20
1128.415
 30
0.000
 70
    32
  0
VERTEX
  8
0300LEVEL
 62
7
 10
-3430.577
 20
1123.874
 30
0.000
 70
    32
  0
VERTEX
  8
0300LEVEL
 62
7
 10
-3453.791
 20
1123.398
 30
0.000
 70
    32
  0
VERTEX
  8
0300LEVEL
 62
7
 10
-3475.307
 20
1127.696
 30
0.000
 70
    32
  0
VERTEX
  8
0300LEVEL
 62
7
 10
-3508.973
 20
1142.272
 30
0.000
 70
    32
  0
VERTEX
  8
0300LEVEL
 62
7
 10
-3529.944
 20
1146.708
 30
0.000
 70
    32
  0
VERTEX
  8
0300LEVEL
 62
7
 10
-3535.595
 20
1141.518
 30
0.000
 70
    32
  0
VERTEX
  8
0300LEVEL
 62
7
 10
-3539.878
 20
1133.194
 30
0.000
 70
    32
  0
VERTEX
  8
0300LEVEL
 62
7
 10
-3546.004
 20
1126.436
 30
0.000
 70
    32
  0
VERTEX
  8
0300LEVEL
 62
7
 10
-3553.323
 20
1119.233
 30
0.000
 70
    32
  0
VERTEX
  8
0300LEVEL
 62
7
 10
-3551.937
 20
1103.350
 30
0.000
 70
    32
  0
VERTEX
  8
0300LEVEL
 62
7
 10
-3538.715
 20
1082.473
 30
0.000
 70
    32
  0
VERTEX
  8
0300LEVEL
 62
7
 10
-3514.110
 20
1063.589
 30
0.000
 70
    32
  0
VERTEX
  8
0300LEVEL
 62
7
 10
-3475.942
 20
1047.247
 30
0.000
 70
    32
  0
VERTEX
  8
0300LEVEL
 62
7
 10
-3435.566
 20
1036.533
 30
0.000
 70
    32
  0
VERTEX
  8
0300LEVEL
 62
7
 10
-3384.739
 20
1011.926
 30
0.000
 70
    32
  0
VERTEX
  8
0300LEVEL
 62
7
 10
-3336.141
 20
973.134
 30
0.000
 70
    32
  0
VERTEX
  8
0300LEVEL
 62
7
 10
-3294.018
 20
932.425
 30
0.000
 70
    32
  0
VERTEX
  8
0300LEVEL
 62
7
 10
-3264.511
 20
894.629
 30
0.000
 70
    32
  0
VERTEX
  8
0300LEVEL
 62
7
 10
-3272.507
 20
884.357
 30
0.000
 70
    32
  0
VERTEX
  8
0300LEVEL
 62
7
 10
-3297.362
 20
886.946
 30
0.000
 70
    32
  0
VERTEX
  8
0300LEVEL
 62
7
 10
-3324.644
 20
895.157
 30
0.000
 70
    32
  0
VERTEX
  8
0300LEVEL
 62
7
 10
-3329.780
 20
887.343
 30
0.000
 70
    32
  0
VERTEX
  8
0300LEVEL
 62
7
 10
-3323.556
 20
872.967
 30
0.000
 70
    32
  0
VERTEX
  8
0300LEVEL
 62
7
 10
-3307.679
 20
855.366
 30
0.000
 70
    32
  0
VERTEX
  8
0300LEVEL
 62
7
 10
-3261.420
 20
830.479
 30
0.000
 70
    32
  0
VERTEX
  8
0300LEVEL
 62
7
 10
-3202.709
 20
797.273
 30
0.000
 70
    32
  0
VERTEX
  8
0300LEVEL
 62
7
 10
-3161.872
 20
762.652
 30
0.000
 70
    32
  0
VERTEX
  8
0300LEVEL
 62
7
 10
-3108.490
 20
704.325
 30
0.000
 70
    32
  0
VERTEX
  8
0300LEVEL
 62
7
 10
-3088.898
 20
674.520
 30
0.000
 70
    32
  0
VERTEX
  8
0300LEVEL
 62
7
 10
-3091.519
 20
660.932
 30
0.000
 70
    32
  0
VERTEX
  8
0300LEVEL
 62
7
 10
-3100.707
 20
658.117
 30
0.000
 70
    32
  0
VERTEX
  8
0300LEVEL
 62
7
 10
-3117.353
 20
661.966
 30
0.000
 70
    32
  0
VERTEX
  8
0300LEVEL
 62
7
 10
-3121.295
 20
654.333
 30
0.000
 70
    32
  0
VERTEX
  8
0300LEVEL
 62
7
 10
-3116.246
 20
645.046
 30
0.000
 70
    32
  0
VERTEX
  8
0300LEVEL
 62
7
 10
-3096.777
 20
627.259
 30
0.000
 70
    32
  0
VERTEX
  8
0300LEVEL
 62
7
 10
-3045.021
 20
588.933
 30
0.000
 70
    32
  0
VERTEX
  8
0300LEVEL
 62
7
 10
-2989.733
 20
542.806
 30
0.000
 70
    32
  0
VERTEX
  8
0300LEVEL
 62
7
 10
-2939.304
 20
499.188
 30
0.000
 70
    32
  0
VERTEX
  8
0300LEVEL
 62
7
 10
-2892.953
 20
453.457
 30
0.000
 70
    32
  0
VERTEX
  8
0300LEVEL
 62
7
 10
-2859.604
 20
412.506
 30
0.000
 70
    32
  0
VERTEX
  8
0300LEVEL
 62
7
 10
-2821.220
 20
355.771
 30
0.000
 70
    32
  0
VERTEX
  8
0300LEVEL
 62
7
 10
-2786.893
 20
298.670
 30
0.000
 70
    32
  0
VERTEX
  8
0300LEVEL
 62
7
 10
-2767.001
 20
243.573
 30
0.000
 70
    32
  0
VERTEX
  8
0300LEVEL
 62
7
 10
-2755.392
 20
212.265
 30
0.000
 70
    32
  0
VERTEX
  8
0300LEVEL
 62
7
 10
-2754.902
 20
196.191
 30
0.000
 70
    32
  0
VERTEX
  8
0300LEVEL
 62
7
 10
-2758.722
 20
192.538
 30
0.000
 70
    32
  0
VERTEX
  8
0300LEVEL
 62
7
 10
-2768.787
 20
192.110
 30
0.000
 70
    32
  0
VERTEX
  8
0300LEVEL
 62
7
 10
-2792.869
 20
204.369
 30
0.000
 70
    32
  0
VERTEX
  8
0300LEVEL
 62
7
 10
-2799.510
 20
198.657
 30
0.000
 70
    32
  0
VERTEX
  8
0300LEVEL
 62
7
 10
-2805.875
 20
181.904
 30
0.000
 70
    32
  0
VERTEX
  8
0300LEVEL
 62
7
 10
-2802.251
 20
165.091
 30
0.000
 70
    32
  0
VERTEX
  8
0300LEVEL
 62
7
 10
-2766.685
 20
74.302
 30
0.000
 70
    32
  0
VERTEX
  8
0300LEVEL
 62
7
 10
-2752.293
 20
36.810
 30
0.000
 70
    32
  0
VERTEX
  8
0300LEVEL
 62
7
 10
-2749.400
 20
12.113
 30
0.000
 70
    32
  0
VERTEX
  8
0300LEVEL
 62
7
 10
-2748.888
 20
-2.215
 30
0.000
 70
    32
  0
VERTEX
  8
0300LEVEL
 62
7
 10
-2757.588
 20
-5.106
 30
0.000
 70
    32
  0
VERTEX
  8
0300LEVEL
 62
7
 10
-2768.965
 20
-4.329
 30
0.000
 70
    32
  0
VERTEX
  8
0300LEVEL
 62
7
 10
-2779.578
 20
-14.670
 30
0.000
 70
    32
  0
VERTEX
  8
0300LEVEL
 62
7
 10
-2783.190
 20
-34.603
 30
0.000
 70
    32
  0
VERTEX
  8
0300LEVEL
 62
7
 10
-2772.594
 20
-74.001
 30
0.000
 70
    32
  0
VERTEX
  8
0300LEVEL
 62
7
 10
-2753.313
 20
-117.005
 30
0.000
 70
    32
  0
VERTEX
  8
0300LEVEL
 62
7
 10
-2724.157
 20
-168.799
 30
0.000
 70
    32
  0
VERTEX
  8
0300LEVEL
 62
7
 10
-2683.486
 20
-226.891
 30
0.000
 70
    32
  0
VERTEX
  8
0300LEVEL
 62
7
 10
-2640.154
 20
-279.149
 30
0.000
 70
    32
  0
VERTEX
  8
0300LEVEL
 62
7
 10
-2587.062
 20
-332.932
 30
0.000
 70
    32
  0
VERTEX
  8
0300LEVEL
 62
7
 10
-2520.621
 20
-429.291
 30
0.000
 70
    32
  0
VERTEX
  8
0300LEVEL
 62
7
 10
-2497.802
 20
-468.848
 30
0.000
 70
    32
  0
VERTEX
  8
0300LEVEL
 62
7
 10
-2501.721
 20
-474.735
 30
0.000
 70
    32
  0
VERTEX
  8
0300LEVEL
 62
7
 10
-2506.624
 20
-475.720
 30
0.000
 70
    32
  0
VERTEX
  8
0300LEVEL
 62
7
 10
-2517.902
 20
-472.709
 30
0.000
 70
    32
  0
VERTEX
  8
0300LEVEL
 62
7
 10
-2557.717
 20
-434.747
 30
0.000
 70
    32
  0
VERTEX
  8
0300LEVEL
 62
7
 10
-2647.459
 20
-346.747
 30
0.000
 70
    32
  0
VERTEX
  8
0300LEVEL
 62
7
 10
-2735.874
 20
-269.453
 30
0.000
 70
    32
  0
VERTEX
  8
0300LEVEL
 62
7
 10
-2785.511
 20
-223.959
 30
0.000
 70
    32
  0
VERTEX
  8
0300LEVEL
 62
7
 10
-2822.068
 20
-198.754
 30
0.000
 70
    32
  0
VERTEX
  8
0300LEVEL
 62
7
 10
-2834.734
 20
-195.027
 30
0.000
 70
    32
  0
VERTEX
  8
0300LEVEL
 62
7
 10
-2836.060
 20
-200.319
 30
0.000
 70
    32
  0
VERTEX
  8
0300LEVEL
 62
7
 10
-2826.039
 20
-219.380
 30
0.000
 70
    32
  0
VERTEX
  8
0300LEVEL
 62
7
 10
-2792.994
 20
-262.284
 30
0.000
 70
    32
  0
VERTEX
  8
0300LEVEL
 62
7
 10
-2712.218
 20
-362.881
 30
0.000
 70
    32
  0
VERTEX
  8
0300LEVEL
 62
7
 10
-2634.791
 20
-441.710
 30
0.000
 70
    32
  0
VERTEX
  8
0300LEVEL
 62
7
 10
-2548.227
 20
-548.461
 30
0.000
 70
    32
  0
VERTEX
  8
0300LEVEL
 62
7
 10
-2491.961
 20
-610.737
 30
0.000
 70
    32
  0
VERTEX
  8
0300LEVEL
 62
7
 10
-2384.809
 20
-713.703
 30
0.000
 70
    32
  0
VERTEX
  8
0300LEVEL
 62
7
 10
-2304.834
 20
-811.427
 30
0.000
 70
    32
  0
VERTEX
  8
0300LEVEL
 62
7
 10
-2128.176
 20
-1000.733
 30
0.000
 70
    32
  0
VERTEX
  8
0300LEVEL
 62
7
 10
-2039.462
 20
-1103.320
 30
0.000
 70
    32
  0
VERTEX
  8
0300LEVEL
 62
7
 10
-1950.671
 20
-1205.419
 30
0.000
 70
    32
  0
VERTEX
  8
0300LEVEL
 62
7
 10
-1894.406
 20
-1267.696
 30
0.000
 70
    32
  0
VERTEX
  8
0300LEVEL
 62
7
 10
-1836.768
 20
-1337.185
 30
0.000
 70
    32
  0
VERTEX
  8
0300LEVEL
 62
7
 10
-1794.610
 20
-1393.759
 30
0.000
 70
    32
  0
VERTEX
  8
0300LEVEL
 62
7
 10
-1786.655
 20
-1405.250
 30
0.000
 70
    32
  0
VERTEX
  8
0300LEVEL
 62
7
 10
-1789.880
 20
-1411.495
 30
0.000
 70
    32
  0
VERTEX
  8
0300LEVEL
 62
7
 10
-1797.666
 20
-1408.530
 30
0.000
 70
    32
  0
VERTEX
  8
0300LEVEL
 62
7
 10
-1812.399
 20
-1397.231
 30
0.000
 70
    32
  0
VERTEX
  8
0300LEVEL
 62
7
 10
-1843.016
 20
-1377.203
 30
0.000
 70
    32
  0
VERTEX
  8
0300LEVEL
 62
7
 10
-1856.071
 20
-1371.165
 30
0.000
 70
    32
  0
VERTEX
  8
0300LEVEL
 62
7
 10
-1887.215
 20
-1343.306
 30
0.000
 70
    32
  0
VERTEX
  8
0300LEVEL
 62
7
 10
-1887.306
 20
-1350.291
 30
0.000
 70
    32
  0
VERTEX
  8
0300LEVEL
 62
7
 10
-1876.903
 20
-1366.912
 30
0.000
 70
    32
  0
VERTEX
  8
0300LEVEL
 62
7
 10
-1857.204
 20
-1399.233
 30
0.000
 70
    32
  0
VERTEX
  8
0300LEVEL
 62
7
 10
-1809.569
 20
-1475.160
 30
0.000
 70
    32
  0
VERTEX
  8
0300LEVEL
 62
7
 10
-1773.404
 20
-1541.297
 30
0.000
 70
    32
  0
VERTEX
  8
0300LEVEL
 62
7
 10
-1764.838
 20
-1564.880
 30
0.000
 70
    32
  0
VERTEX
  8
0300LEVEL
 62
7
 10
-1769.024
 20
-1564.477
 30
0.000
 70
    32
  0
VERTEX
  8
0300LEVEL
 62
7
 10
-1782.042
 20
-1550.196
 30
0.000
 70
    32
  0
VERTEX
  8
0300LEVEL
 62
7
 10
-1821.842
 20
-1505.738
 30
0.000
 70
    32
  0
VERTEX
  8
0300LEVEL
 62
7
 10
-1865.205
 20
-1450.475
 30
0.000
 70
    32
  0
VERTEX
  8
0300LEVEL
 62
7
 10
-1917.461
 20
-1375.327
 30
0.000
 70
    32
  0
VERTEX
  8
0300LEVEL
 62
7
 10
-1982.390
 20
-1291.701
 30
0.000
 70
    32
  0
VERTEX
  8
0300LEVEL
 62
7
 10
-2072.462
 20
-1191.402
 30
0.000
 70
    32
  0
VERTEX
  8
0300LEVEL
 62
7
 10
-2170.371
 20
-1102.877
 30
0.000
 70
    32
  0
VERTEX
  8
0300LEVEL
 62
7
 10
-2236.092
 20
-1037.124
 30
0.000
 70
    32
  0
VERTEX
  8
0300LEVEL
 62
7
 10
-2329.365
 20
-941.324
 30
0.000
 70
    32
  0
VERTEX
  8
0300LEVEL
 62
7
 10
-2422.532
 20
-848.040
 30
0.000
 70
    32
  0
VERTEX
  8
0300LEVEL
 62
7
 10
-2510.543
 20
-766.559
 30
0.000
 70
    32
  0
VERTEX
  8
0300LEVEL
 62
7
 10
-2605.736
 20
-689.456
 30
0.000
 70
    32
  0
SEQEND
  8
0300LEVEL
  0
POLYLINE
  8
0300LEVEL
 62
13
 66
     1
 70
     8
  0
VERTEX
  8
0300LEVEL
 62
13
 10
-3380.992
 20
3395.187
 30
0.000
 70
    32
  0
VERTEX
  8
0300LEVEL
 62
13
 10
-3373.545
 20
3384.016
 30
0.000
 70
    32
  0
VERTEX
  8
0300LEVEL
 62
13
 10
-3363.956
 20
3352.805
 30
0.000
 70
    32
  0
VERTEX
  8
0300LEVEL
 62
13
 10
-3328.532
 20
3277.657
 30
0.000
 70
    32
  0
VERTEX
  8
0300LEVEL
 62
13
 10
-3287.537
 20
3167.678
 30
0.000
 70
    32
  0
VERTEX
  8
0300LEVEL
 62
13
 10
-3234.442
 20
3034.946
 30
0.000
 70
    32
  0
VERTEX
  8
0300LEVEL
 62
13
 10
-3206.278
 20
2982.899
 30
0.000
 70
    32
  0
VERTEX
  8
0300LEVEL
 62
13
 10
-3163.032
 20
2895.661
 30
0.000
 70
    32
  0
VERTEX
  8
0300LEVEL
 62
13
 10
-3094.287
 20
2761.212
 30
0.000
 70
    32
  0
VERTEX
  8
0300LEVEL
 62
13
 10
-2992.106
 20
2629.232
 30
0.000
 70
    32
  0
VERTEX
  8
0300LEVEL
 62
13
 10
-2890.176
 20
2482.116
 30
0.000
 70
    32
  0
VERTEX
  8
0300LEVEL
 62
13
 10
-2791.259
 20
2368.300
 30
0.000
 70
    32
  0
VERTEX
  8
0300LEVEL
 62
13
 10
-2735.604
 20
2304.907
 30
0.000
 70
    32
  0
VERTEX
  8
0300LEVEL
 62
13
 10
-2679.018
 20
2233.778
 30
0.000
 70
    32
  0
VERTEX
  8
0300LEVEL
 62
13
 10
-2623.667
 20
2145.091
 30
0.000
 70
    32
  0
VERTEX
  8
0300LEVEL
 62
13
 10
-2619.977
 20
2139.357
 30
0.000
 70
    32
  0
VERTEX
  8
0300LEVEL
 62
13
 10
-2528.816
 20
1991.711
 30
0.000
 70
    32
  0
VERTEX
  8
0300LEVEL
 62
13
 10
-2499.532
 20
1951.768
 30
0.000
 70
    32
  0
VERTEX
  8
0300LEVEL
 62
13
 10
-2419.861
 20
1852.093
 30
0.000
 70
    32
  0
VERTEX
  8
0300LEVEL
 62
13
 10
-2350.843
 20
1749.832
 30
0.000
 70
    32
  0
VERTEX
  8
0300LEVEL
 62
13
 10
-2294.737
 20
1675.332
 30
0.000
 70
    32
  0
VERTEX
  8
0300LEVEL
 62
13
 10
-2253.118
 20
1604.095
 30
0.000
 70
    32
  0
VERTEX
  8
0300LEVEL
 62
13
 10
-2222.739
 20
1528.113
 30
0.000
 70
    32
  0
VERTEX
  8
0300LEVEL
 62
13
 10
-2203.105
 20
1458.558
 30
0.000
 70
    32
  0
VERTEX
  8
0300LEVEL
 62
13
 10
-2185.808
 20
1359.624
 30
0.000
 70
    32
  0
VERTEX
  8
0300LEVEL
 62
13
 10
-2172.402
 20
1283.793
 30
0.000
 70
    32
  0
VERTEX
  8
0300LEVEL
 62
13
 10
-2169.662
 20
1258.119
 30
0.000
 70
    32
  0
VERTEX
  8
0300LEVEL
 62
13
 10
-2153.160
 20
1173.306
 30
0.000
 70
    32
  0
VERTEX
  8
0300LEVEL
 62
13
 10
-2149.703
 20
1149.020
 30
0.000
 70
    32
  0
VERTEX
  8
0300LEVEL
 62
13
 10
-2167.038
 20
1180.472
 30
0.000
 70
    32
  0
VERTEX
  8
0300LEVEL
 62
13
 10
-2213.615
 20
1267.981
 30
0.000
 70
    32
  0
VERTEX
  8
0300LEVEL
 62
13
 10
-2244.564
 20
1332.304
 30
0.000
 70
    32
  0
VERTEX
  8
0300LEVEL
 62
13
 10
-2280.975
 20
1406.478
 30
0.000
 70
    32
  0
VERTEX
  8
0300LEVEL
 62
13
 10
-2318.491
 20
1481.574
 30
0.000
 70
    32
  0
VERTEX
  8
0300LEVEL
 62
13
 10
-2373.540
 20
1583.654
 30
0.000
 70
    32
  0
VERTEX
  8
0300LEVEL
 62
13
 10
-2435.262
 20
1683.026
 30
0.000
 70
    32
  0
VERTEX
  8
0300LEVEL
 62
13
 10
-2569.105
 20
1882.395
 30
0.000
 70
    32
  0
VERTEX
  8
0300LEVEL
 62
13
 10
-2619.635
 20
1939.776
 30
0.000
 70
    32
  0
VERTEX
  8
0300LEVEL
 62
13
 10
-2621.717
 20
1940.851
 30
0.000
 70
    32
  0
VERTEX
  8
0300LEVEL
 62
13
 10
-2689.231
 20
2019.132
 30
0.000
 70
    32
  0
VERTEX
  8
0300LEVEL
 62
13
 10
-2706.998
 20
2039.885
 30
0.000
 70
    32
  0
VERTEX
  8
0300LEVEL
 62
13
 10
-2719.769
 20
2054.107
 30
0.000
 70
    32
  0
VERTEX
  8
0300LEVEL
 62
13
 10
-2756.881
 20
2095.063
 30
0.000
 70
    32
  0
VERTEX
  8
0300LEVEL
 62
13
 10
-2798.774
 20
2141.192
 30
0.000
 70
    32
  0
VERTEX
  8
0300LEVEL
 62
13
 10
-2854.225
 20
2204.927
 30
0.000
 70
    32
  0
VERTEX
  8
0300LEVEL
 62
13
 10
-2915.094
 20
2267.732
 30
0.000
 70
    32
  0
VERTEX
  8
0300LEVEL
 62
13
 10
-2965.263
 20
2332.940
 30
0.000
 70
    32
  0
VERTEX
  8
0300LEVEL
 62
13
 10
-3001.786
 20
2389.986
 30
0.000
 70
    32
  0
VERTEX
  8
0300LEVEL
 62
13
 10
-3046.018
 20
2451.179
 30
0.000
 70
    32
  0
VERTEX
  8
0300LEVEL
 62
13
 10
-3079.028
 20
2507.514
 30
0.000
 70
    32
  0
VERTEX
  8
0300LEVEL
 62
13
 10
-3110.324
 20
2557.034
 30
0.000
 70
    32
  0
VERTEX
  8
0300LEVEL
 62
13
 10
-3141.387
 20
2610.815
 30
0.000
 70
    32
  0
VERTEX
  8
0300LEVEL
 62
13
 10
-3183.630
 20
2664.103
 30
0.000
 70
    32
  0
VERTEX
  8
0300LEVEL
 62
13
 10
-3227.911
 20
2711.661
 30
0.000
 70
    32
  0
VERTEX
  8
0300LEVEL
 62
13
 10
-3268.542
 20
2781.586
 30
0.000
 70
    32
  0
VERTEX
  8
0300LEVEL
 62
13
 10
-3299.325
 20
2829.641
 30
0.000
 70
    32
  0
VERTEX
  8
0300LEVEL
 62
13
 10
-3322.601
 20
2873.207
 30
0.000
 70
    32
  0
VERTEX
  8
0300LEVEL
 62
13
 10
-3346.485
 20
2912.272
 30
0.000
 70
    32
  0
VERTEX
  8
0300LEVEL
 62
13
 10
-3377.753
 20
2965.712
 30
0.000
 70
    32
  0
VERTEX
  8
0300LEVEL
 62
13
 10
-3404.157
 20
3003.273
 30
0.000
 70
    32
  0
VERTEX
  8
0300LEVEL
 62
13
 10
-3433.183
 20
3039.161
 30
0.000
 70
    32
  0
VERTEX
  8
0300LEVEL
 62
13
 10
-3449.255
 20
3050.626
 30
0.000
 70
    32
  0
VERTEX
  8
0300LEVEL
 62
13
 10
-3450.274
 20
3047.761
 30
0.000
 70
    32
  0
VERTEX
  8
0300LEVEL
 62
13
 10
-3449.036
 20
3040.536
 30
0.000
 70
    32
  0
VERTEX
  8
0300LEVEL
 62
13
 10
-3444.265
 20
3017.533
 30
0.000
 70
    32
  0
VERTEX
  8
0300LEVEL
 62
13
 10
-3418.547
 20
2959.074
 30
0.000
 70
    32
  0
VERTEX
  8
0300LEVEL
 62
13
 10
-3398.813
 20
2913.458
 30
0.000
 70
    32
  0
VERTEX
  8
0300LEVEL
 62
13
 10
-3387.741
 20
2894.794
 30
0.000
 70
    32
  0
VERTEX
  8
0300LEVEL
 62
13
 10
-3361.802
 20
2848.709
 30
0.000
 70
    32
  0
VERTEX
  8
0300LEVEL
 62
13
 10
-3314.464
 20
2784.963
 30
0.000
 70
    32
  0
VERTEX
  8
0300LEVEL
 62
13
 10
-3285.762
 20
2737.690
 30
0.000
 70
    32
  0
VERTEX
  8
0300LEVEL
 62
13
 10
-3265.005
 20
2691.462
 30
0.000
 70
    32
  0
VERTEX
  8
0300LEVEL
 62
13
 10
-3244.125
 20
2631.496
 30
0.000
 70
    32
  0
VERTEX
  8
0300LEVEL
 62
13
 10
-3223.680
 20
2565.769
 30
0.000
 70
    32
  0
VERTEX
  8
0300LEVEL
 62
13
 10
-3187.912
 20
2488.098
 30
0.000
 70
    32
  0
VERTEX
  8
0300LEVEL
 62
13
 10
-3149.293
 20
2418.681
 30
0.000
 70
    32
  0
VERTEX
  8
0300LEVEL
 62
13
 10
-3102.486
 20
2344.368
 30
0.000
 70
    32
  0
VERTEX
  8
0300LEVEL
 62
13
 10
-3058.300
 20
2268.380
 30
0.000
 70
    32
  0
VERTEX
  8
0300LEVEL
 62
13
 10
-3012.416
 20
2196.008
 30
0.000
 70
    32
  0
VERTEX
  8
0300LEVEL
 62
13
 10
-2956.996
 20
2105.889
 30
0.000
 70
    32
  0
VERTEX
  8
0300LEVEL
 62
13
 10
-2917.659
 20
2035.348
 30
0.000
 70
    32
  0
VERTEX
  8
0300LEVEL
 62
13
 10
-2881.306
 20
1977.245
 30
0.000
 70
    32
  0
VERTEX
  8
0300LEVEL
 62
13
 10
-2834.809
 20
1905.897
 30
0.000
 70
    32
  0
VERTEX
  8
0300LEVEL
 62
13
 10
-2793.054
 20
1836.689
 30
0.000
 70
    32
  0
VERTEX
  8
0300LEVEL
 62
13
 10
-2764.571
 20
1775.882
 30
0.000
 70
    32
  0
VERTEX
  8
0300LEVEL
 62
13
 10
-2736.059
 20
1717.836
 30
0.000
 70
    32
  0
VERTEX
  8
0300LEVEL
 62
13
 10
-2702.361
 20
1657.616
 30
0.000
 70
    32
  0
VERTEX
  8
0300LEVEL
 62
13
 10
-2668.873
 20
1624.155
 30
0.000
 70
    32
  0
VERTEX
  8
0300LEVEL
 62
13
 10
-2650.974
 20
1599.092
 30
0.000
 70
    32
  0
VERTEX
  8
0300LEVEL
 62
13
 10
-2641.288
 20
1571.528
 30
0.000
 70
    32
  0
VERTEX
  8
0300LEVEL
 62
13
 10
-2640.917
 20
1550.462
 30
0.000
 70
    32
  0
VERTEX
  8
0300LEVEL
 62
13
 10
-2650.321
 20
1547.517
 30
0.000
 70
    32
  0
VERTEX
  8
0300LEVEL
 62
13
 10
-2660.252
 20
1555.309
 30
0.000
 70
    32
  0
VERTEX
  8
0300LEVEL
 62
13
 10
-2674.800
 20
1573.969
 30
0.000
 70
    32
  0
VERTEX
  8
0300LEVEL
 62
13
 10
-2685.213
 20
1584.828
 30
0.000
 70
    32
  0
VERTEX
  8
0300LEVEL
 62
13
 10
-2703.063
 20
1599.904
 30
0.000
 70
    32
  0
VERTEX
  8
0300LEVEL
 62
13
 10
-2720.861
 20
1626.297
 30
0.000
 70
    32
  0
VERTEX
  8
0300LEVEL
 62
13
 10
-2747.514
 20
1647.564
 30
0.000
 70
    32
  0
VERTEX
  8
0300LEVEL
 62
13
 10
-2772.077
 20
1661.096
 30
0.000
 70
    32
  0
VERTEX
  8
0300LEVEL
 62
13
 10
-2776.093
 20
1656.318
 30
0.000
 70
    32
  0
VERTEX
  8
0300LEVEL
 62
13
 10
-2775.163
 20
1649.740
 30
0.000
 70
    32
  0
VERTEX
  8
0300LEVEL
 62
13
 10
-2761.800
 20
1625.999
 30
0.000
 70
    32
  0
VERTEX
  8
0300LEVEL
 62
13
 10
-2741.618
 20
1600.496
 30
0.000
 70
    32
  0
VERTEX
  8
0300LEVEL
 62
13
 10
-2707.746
 20
1561.479
 30
0.000
 70
    32
  0
VERTEX
  8
0300LEVEL
 62
13
 10
-2653.220
 20
1500.846
 30
0.000
 70
    32
  0
VERTEX
  8
0300LEVEL
 62
13
 10
-2628.078
 20
1463.051
 30
0.000
 70
    32
  0
VERTEX
  8
0300LEVEL
 62
13
 10
-2587.401
 20
1388.856
 30
0.000
 70
    32
  0
VERTEX
  8
0300LEVEL
 62
13
 10
-2546.717
 20
1314.993
 30
0.000
 70
    32
  0
VERTEX
  8
0300LEVEL
 62
13
 10
-2484.751
 20
1207.584
 30
0.000
 70
    32
  0
VERTEX
  8
0300LEVEL
 62
13
 10
-2452.148
 20
1152.252
 30
0.000
 70
    32
  0
VERTEX
  8
0300LEVEL
 62
13
 10
-2392.366
 20
1075.679
 30
0.000
 70
    32
  0
VERTEX
  8
0300LEVEL
 62
13
 10
-2352.480
 20
1010.960
 30
0.000
 70
    32
  0
VERTEX
  8
0300LEVEL
 62
13
 10
-2340.735
 20
990.130
 30
0.000
 70
    32
  0
VERTEX
  8
0300LEVEL
 62
13
 10
-2301.589
 20
938.275
 30
0.000
 70
    32
  0
VERTEX
  8
0300LEVEL
 62
13
 10
-2302.275
 20
933.883
 30
0.000
 70
    32
  0
VERTEX
  8
0300LEVEL
 62
13
 10
-2306.743
 20
934.081
 30
0.000
 70
    32
  0
VERTEX
  8
0300LEVEL
 62
13
 10
-2318.777
 20
943.458
 30
0.000
 70
    32
  0
VERTEX
  8
0300LEVEL
 62
13
 10
-2328.416
 20
948.963
 30
0.000
 70
    32
  0
VERTEX
  8
0300LEVEL
 62
13
 10
-2364.357
 20
989.319
 30
0.000
 70
    32
  0
VERTEX
  8
0300LEVEL
 62
13
 10
-2429.697
 20
1057.511
 30
0.000
 70
    32
  0
VERTEX
  8
0300LEVEL
 62
13
 10
-2497.858
 20
1123.645
 30
0.000
 70
    32
  0
VERTEX
  8
0300LEVEL
 62
13
 10
-2529.469
 20
1169.324
 30
0.000
 70
    32
  0
VERTEX
  8
0300LEVEL
 62
13
 10
-2571.466
 20
1222.124
 30
0.000
 70
    32
  0
VERTEX
  8
0300LEVEL
 62
13
 10
-2599.652
 20
1261.307
 30
0.000
 70
    32
  0
VERTEX
  8
0300LEVEL
 62
13
 10
-2608.834
 20
1284.619
 30
0.000
 70
    32
  0
VERTEX
  8
0300LEVEL
 62
13
 10
-2617.337
 20
1294.799
 30
0.000
 70
    32
  0
VERTEX
  8
0300LEVEL
 62
13
 10
-2626.901
 20
1308.625
 30
0.000
 70
    32
  0
VERTEX
  8
0300LEVEL
 62
13
 10
-2640.538
 20
1333.456
 30
0.000
 70
    32
  0
VERTEX
  8
0300LEVEL
 62
13
 10
-2670.590
 20
1371.115
 30
0.000
 70
    32
  0
VERTEX
  8
0300LEVEL
 62
13
 10
-2712.348
 20
1442.641
 30
0.000
 70
    32
  0
VERTEX
  8
0300LEVEL
 62
13
 10
-2759.171
 20
1503.762
 30
0.000
 70
    32
  0
VERTEX
  8
0300LEVEL
 62
13
 10
-2774.469
 20
1521.943
 30
0.000
 70
    32
  0
VERTEX
  8
0300LEVEL
 62
13
 10
-2798.682
 20
1553.100
 30
0.000
 70
    32
  0
VERTEX
  8
0300LEVEL
 62
13
 10
-2814.158
 20
1579.025
 30
0.000
 70
    32
  0
VERTEX
  8
0300LEVEL
 62
13
 10
-2825.584
 20
1602.684
 30
0.000
 70
    32
  0
VERTEX
  8
0300LEVEL
 62
13
 10
-2828.830
 20
1610.734
 30
0.000
 70
    32
  0
VERTEX
  8
0300LEVEL
 62
13
 10
-2844.981
 20
1629.425
 30
0.000
 70
    32
  0
VERTEX
  8
0300LEVEL
 62
13
 10
-2886.880
 20
1680.191
 30
0.000
 70
    32
  0
VERTEX
  8
0300LEVEL
 62
13
 10
-2914.191
 20
1708.105
 30
0.000
 70
    32
  0
VERTEX
  8
0300LEVEL
 62
13
 10
-2938.966
 20
1727.091
 30
0.000
 70
    32
  0
VERTEX
  8
0300LEVEL
 62
13
 10
-2952.255
 20
1723.458
 30
0.000
 70
    32
  0
VERTEX
  8
0300LEVEL
 62
13
 10
-2956.534
 20
1711.657
 30
0.000
 70
    32
  0
VERTEX
  8
0300LEVEL
 62
13
 10
-2952.554
 20
1669.905
 30
0.000
 70
    32
  0
VERTEX
  8
0300LEVEL
 62
13
 10
-2957.449
 20
1636.934
 30
0.000
 70
    32
  0
VERTEX
  8
0300LEVEL
 62
13
 10
-2971.859
 20
1653.890
 30
0.000
 70
    32
  0
VERTEX
  8
0300LEVEL
 62
13
 10
-2990.769
 20
1695.076
 30
0.000
 70
    32
  0
VERTEX
  8
0300LEVEL
 62
13
 10
-3012.719
 20
1740.859
 30
0.000
 70
    32
  0
VERTEX
  8
0300LEVEL
 62
13
 10
-3023.148
 20
1763.308
 30
0.000
 70
    32
  0
VERTEX
  8
0300LEVEL
 62
13
 10
-3045.635
 20
1803.159
 30
0.000
 70
    32
  0
VERTEX
  8
0300LEVEL
 62
13
 10
-3071.094
 20
1847.336
 30
0.000
 70
    32
  0
VERTEX
  8
0300LEVEL
 62
13
 10
-3100.962
 20
1899.244
 30
0.000
 70
    32
  0
VERTEX
  8
0300LEVEL
 62
13
 10
-3141.930
 20
1942.273
 30
0.000
 70
    32
  0
VERTEX
  8
0300LEVEL
 62
13
 10
-3168.304
 20
1982.596
 30
0.000
 70
    32
  0
VERTEX
  8
0300LEVEL
 62
13
 10
-3178.729
 20
2026.350
 30
0.000
 70
    32
  0
VERTEX
  8
0300LEVEL
 62
13
 10
-3168.378
 20
2058.374
 30
0.000
 70
    32
  0
VERTEX
  8
0300LEVEL
 62
13
 10
-3160.624
 20
2094.962
 30
0.000
 70
    32
  0
VERTEX
  8
0300LEVEL
 62
13
 10
-3156.737
 20
2118.113
 30
0.000
 70
    32
  0
VERTEX
  8
0300LEVEL
 62
13
 10
-3145.007
 20
2115.267
 30
0.000
 70
    32
  0
VERTEX
  8
0300LEVEL
 62
13
 10
-3129.140
 20
2104.620
 30
0.000
 70
    32
  0
VERTEX
  8
0300LEVEL
 62
13
 10
-3102.933
 20
2085.704
 30
0.000
 70
    32
  0
VERTEX
  8
0300LEVEL
 62
13
 10
-3088.609
 20
2080.611
 30
0.000
 70
    32
  0
VERTEX
  8
0300LEVEL
 62
13
 10
-3078.556
 20
2082.705
 30
0.000
 70
    32
  0
VERTEX
  8
0300LEVEL
 62
13
 10
-3068.141
 20
2094.310
 30
0.000
 70
    32
  0
VERTEX
  8
0300LEVEL
 62
13
 10
-3070.548
 20
2108.488
 30
0.000
 70
    32
  0
VERTEX
  8
0300LEVEL
 62
13
 10
-3084.690
 20
2152.612
 30
0.000
 70
    32
  0
VERTEX
  8
0300LEVEL
 62
13
 10
-3101.312
 20
2191.040
 30
0.000
 70
    32
  0
VERTEX
  8
0300LEVEL
 62
13
 10
-3125.520
 20
2242.342
 30
0.000
 70
    32
  0
VERTEX
  8
0300LEVEL
 62
13
 10
-3153.138
 20
2270.903
 30
0.000
 70
    32
  0
VERTEX
  8
0300LEVEL
 62
13
 10
-3182.399
 20
2303.688
 30
0.000
 70
    32
  0
VERTEX
  8
0300LEVEL
 62
13
 10
-3220.846
 20
2348.221
 30
0.000
 70
    32
  0
VERTEX
  8
0300LEVEL
 62
13
 10
-3279.632
 20
2407.927
 30
0.000
 70
    32
  0
VERTEX
  8
0300LEVEL
 62
13
 10
-3309.525
 20
2429.974
 30
0.000
 70
    32
  0
VERTEX
  8
0300LEVEL
 62
13
 10
-3324.406
 20
2443.043
 30
0.000
 70
    32
  0
VERTEX
  8
0300LEVEL
 62
13
 10
-3354.305
 20
2469.725
 30
0.000
 70
    32
  0
VERTEX
  8
0300LEVEL
 62
13
 10
-3396.325
 20
2509.446
 30
0.000
 70
    32
  0
VERTEX
  8
0300LEVEL
 62
13
 10
-3440.576
 20
2559.765
 30
0.000
 70
    32
  0
VERTEX
  8
0300LEVEL
 62
13
 10
-3472.024
 20
2596.638
 30
0.000
 70
    32
  0
VERTEX
  8
0300LEVEL
 62
13
 10
-3516.576
 20
2642.969
 30
0.000
 70
    32
  0
VERTEX
  8
0300LEVEL
 62
13
 10
-3546.325
 20
2683.457
 30
0.000
 70
    32
  0
VERTEX
  8
0300LEVEL
 62
13
 10
-3571.595
 20
2714.782
 30
0.000
 70
    32
  0
VERTEX
  8
0300LEVEL
 62
13
 10
-3582.046
 20
2728.675
 30
0.000
 70
    32
  0
VERTEX
  8
0300LEVEL
 62
13
 10
-3607.682
 20
2753.966
 30
0.000
 70
    32
  0
VERTEX
  8
0300LEVEL
 62
13
 10
-3630.309
 20
2771.898
 30
0.000
 70
    32
  0
VERTEX
  8
0300LEVEL
 62
13
 10
-3661.021
 20
2794.898
 30
0.000
 70
    32
  0
VERTEX
  8
0300LEVEL
 62
13
 10
-3688.899
 20
2814.118
 30
0.000
 70
    32
  0
VERTEX
  8
0300LEVEL
 62
13
 10
-3707.849
 20
2812.250
 30
0.000
 70
    32
  0
VERTEX
  8
0300LEVEL
 62
13
 10
-3714.884
 20
2797.003
 30
0.000
 70
    32
  0
VERTEX
  8
0300LEVEL
 62
13
 10
-3714.849
 20
2772.664
 30
0.000
 70
    32
  0
VERTEX
  8
0300LEVEL
 62
13
 10
-3711.145
 20
2733.161
 30
0.000
 70
    32
  0
VERTEX
  8
0300LEVEL
 62
13
 10
-3709.186
 20
2674.088
 30
0.000
 70
    32
  0
VERTEX
  8
0300LEVEL
 62
13
 10
-3711.150
 20
2617.362
 30
0.000
 70
    32
  0
VERTEX
  8
0300LEVEL
 62
13
 10
-3697.329
 20
2559.534
 30
0.000
 70
    32
  0
VERTEX
  8
0300LEVEL
 62
13
 10
-3659.703
 20
2493.491
 30
0.000
 70
    32
  0
VERTEX
  8
0300LEVEL
 62
13
 10
-3653.059
 20
2471.684
 30
0.000
 70
    32
  0
VERTEX
  8
0300LEVEL
 62
13
 10
-3630.957
 20
2414.924
 30
0.000
 70
    32
  0
VERTEX
  8
0300LEVEL
 62
13
 10
-3617.218
 20
2366.640
 30
0.000
 70
    32
  0
VERTEX
  8
0300LEVEL
 62
13
 10
-3596.857
 20
2311.617
 30
0.000
 70
    32
  0
VERTEX
  8
0300LEVEL
 62
13
 10
-3568.774
 20
2244.332
 30
0.000
 70
    32
  0
VERTEX
  8
0300LEVEL
 62
13
 10
-3551.080
 20
2195.304
 30
0.000
 70
    32
  0
VERTEX
  8
0300LEVEL
 62
13
 10
-3528.131
 20
2142.671
 30
0.000
 70
    32
  0
VERTEX
  8
0300LEVEL
 62
13
 10
-3503.696
 20
2075.483
 30
0.000
 70
    32
  0
VERTEX
  8
0300LEVEL
 62
13
 10
-3481.359
 20
2021.826
 30
0.000
 70
    32
  0
VERTEX
  8
0300LEVEL
 62
13
 10
-3468.070
 20
2001.835
 30
0.000
 70
    32
  0
VERTEX
  8
0300LEVEL
 62
13
 10
-3446.929
 20
1997.298
 30
0.000
 70
    32
  0
VERTEX
  8
0300LEVEL
 62
13
 10
-3420.836
 20
1986.325
 30
0.000
 70
    32
  0
VERTEX
  8
0300LEVEL
 62
13
 10
-3410.428
 20
1955.319
 30
0.000
 70
    32
  0
VERTEX
  8
0300LEVEL
 62
13
 10
-3393.574
 20
1921.153
 30
0.000
 70
    32
  0
VERTEX
  8
0300LEVEL
 62
13
 10
-3375.351
 20
1883.852
 30
0.000
 70
    32
  0
VERTEX
  8
0300LEVEL
 62
13
 10
-3353.506
 20
1840.216
 30
0.000
 70
    32
  0
VERTEX
  8
0300LEVEL
 62
13
 10
-3311.618
 20
1772.781
 30
0.000
 70
    32
  0
VERTEX
  8
0300LEVEL
 62
13
 10
-3259.793
 20
1694.077
 30
0.000
 70
    32
  0
VERTEX
  8
0300LEVEL
 62
13
 10
-3204.919
 20
1628.603
 30
0.000
 70
    32
  0
VERTEX
  8
0300LEVEL
 62
13
 10
-3158.050
 20
1558.653
 30
0.000
 70
    32
  0
VERTEX
  8
0300LEVEL
 62
13
 10
-3118.251
 20
1498.953
 30
0.000
 70
    32
  0
VERTEX
  8
0300LEVEL
 62
13
 10
-3109.526
 20
1476.365
 30
0.000
 70
    32
  0
VERTEX
  8
0300LEVEL
 62
13
 10
-3106.606
 20
1460.722
 30
0.000
 70
    32
  0
VERTEX
  8
0300LEVEL
 62
13
 10
-3084.619
 20
1436.687
 30
0.000
 70
    32
  0
VERTEX
  8
0300LEVEL
 62
13
 10
-3054.102
 20
1407.552
 30
0.000
 70
    32
  0
VERTEX
  8
0300LEVEL
 62
13
 10
-3013.136
 20
1365.681
 30
0.000
 70
    32
  0
VERTEX
  8
0300LEVEL
 62
13
 10
-2973.443
 20
1331.752
 30
0.000
 70
    32
  0
VERTEX
  8
0300LEVEL
 62
13
 10
-2930.497
 20
1287.771
 30
0.000
 70
    32
  0
VERTEX
  8
0300LEVEL
 62
13
 10
-2891.128
 20
1242.456
 30
0.000
 70
    32
  0
VERTEX
  8
0300LEVEL
 62
13
 10
-2857.283
 20
1198.360
 30
0.000
 70
    32
  0
VERTEX
  8
0300LEVEL
 62
13
 10
-2843.215
 20
1181.609
 30
0.000
 70
    32
  0
VERTEX
  8
0300LEVEL
 62
13
 10
-2836.241
 20
1167.711
 30
0.000
 70
    32
  0
VERTEX
  8
0300LEVEL
 62
13
 10
-2846.575
 20
1171.343
 30
0.000
 70
    32
  0
VERTEX
  8
0300LEVEL
 62
13
 10
-2857.086
 20
1179.714
 30
0.000
 70
    32
  0
VERTEX
  8
0300LEVEL
 62
13
 10
-2865.085
 20
1189.922
 30
0.000
 70
    32
  0
VERTEX
  8
0300LEVEL
 62
13
 10
-2898.984
 20
1233.137
 30
0.000
 70
    32
  0
VERTEX
  8
0300LEVEL
 62
13
 10
-2933.915
 20
1270.825
 30
0.000
 70
    32
  0
VERTEX
  8
0300LEVEL
 62
13
 10
-2959.144
 20
1296.798
 30
0.000
 70
    32
  0
VERTEX
  8
0300LEVEL
 62
13
 10
-2980.380
 20
1320.152
 30
0.000
 70
    32
  0
VERTEX
  8
0300LEVEL
 62
13
 10
-3006.015
 20
1344.284
 30
0.000
 70
    32
  0
VERTEX
  8
0300LEVEL
 62
13
 10
-3033.426
 20
1370.868
 30
0.000
 70
    32
  0
VERTEX
  8
0300LEVEL
 62
13
 10
-3057.213
 20
1389.957
 30
0.000
 70
    32
  0
VERTEX
  8
0300LEVEL
 62
13
 10
-3095.059
 20
1418.844
 30
0.000
 70
    32
  0
VERTEX
  8
0300LEVEL
 62
13
 10
-3120.378
 20
1436.534
 30
0.000
 70
    32
  0
VERTEX
  8
0300LEVEL
 62
13
 10
-3144.723
 20
1464.758
 30
0.000
 70
    32
  0
VERTEX
  8
0300LEVEL
 62
13
 10
-3151.292
 20
1481.657
 30
0.000
 70
    32
  0
VERTEX
  8
0300LEVEL
 62
13
 10
-3154.418
 20
1498.117
 30
0.000
 70
    32
  0
VERTEX
  8
0300LEVEL
 62
13
 10
-3179.375
 20
1525.318
 30
0.000
 70
    32
  0
VERTEX
  8
0300LEVEL
 62
13
 10
-3209.275
 20
1552.000
 30
0.000
 70
    32
  0
VERTEX
  8
0300LEVEL
 62
13
 10
-3248.157
 20
1590.772
 30
0.000
 70
    32
  0
VERTEX
  8
0300LEVEL
 62
13
 10
-3281.974
 20
1615.164
 30
0.000
 70
    32
  0
VERTEX
  8
0300LEVEL
 62
13
 10
-3335.376
 20
1652.892
 30
0.000
 70
    32
  0
VERTEX
  8
0300LEVEL
 62
13
 10
-3352.137
 20
1669.401
 30
0.000
 70
    32
  0
VERTEX
  8
0300LEVEL
 62
13
 10
-3374.287
 20
1687.743
 30
0.000
 70
    32
  0
VERTEX
  8
0300LEVEL
 62
13
 10
-3405.526
 20
1721.480
 30
0.000
 70
    32
  0
VERTEX
  8
0300LEVEL
 62
13
 10
-3437.633
 20
1742.534
 30
0.000
 70
    32
  0
VERTEX
  8
0300LEVEL
 62
13
 10
-3458.396
 20
1744.993
 30
0.000
 70
    32
  0
VERTEX
  8
0300LEVEL
 62
13
 10
-3460.947
 20
1740.728
 30
0.000
 70
    32
  0
VERTEX
  8
0300LEVEL
 62
13
 10
-3458.644
 20
1727.540
 30
0.000
 70
    32
  0
VERTEX
  8
0300LEVEL
 62
13
 10
-3448.690
 20
1703.522
 30
0.000
 70
    32
  0
VERTEX
  8
0300LEVEL
 62
13
 10
-3441.429
 20
1679.261
 30
0.000
 70
    32
  0
VERTEX
  8
0300LEVEL
 62
13
 10
-3430.438
 20
1645.359
 30
0.000
 70
    32
  0
VERTEX
  8
0300LEVEL
 62
13
 10
-3400.116
 20
1538.058
 30
0.000
 70
    32
  0
VERTEX
  8
0300LEVEL
 62
13
 10
-3418.158
 20
1544.679
 30
0.000
 70
    32
  0
VERTEX
  8
0300LEVEL
 62
13
 10
-3466.848
 20
1552.723
 30
0.000
 70
    32
  0
VERTEX
  8
0300LEVEL
 62
13
 10
-3511.688
 20
1562.169
 30
0.000
 70
    32
  0
VERTEX
  8
0300LEVEL
 62
13
 10
-3546.536
 20
1569.346
 30
0.000
 70
    32
  0
VERTEX
  8
0300LEVEL
 62
13
 10
-3551.876
 20
1561.191
 30
0.000
 70
    32
  0
VERTEX
  8
0300LEVEL
 62
13
 10
-3549.681
 20
1551.309
 30
0.000
 70
    32
  0
VERTEX
  8
0300LEVEL
 62
13
 10
-3526.039
 20
1514.936
 30
0.000
 70
    32
  0
VERTEX
  8
0300LEVEL
 62
13
 10
-3497.411
 20
1471.412
 30
0.000
 70
    32
  0
VERTEX
  8
0300LEVEL
 62
13
 10
-3490.633
 20
1451.378
 30
0.000
 70
    32
  0
VERTEX
  8
0300LEVEL
 62
13
 10
-3496.866
 20
1447.926
 30
0.000
 70
    32
  0
VERTEX
  8
0300LEVEL
 62
13
 10
-3511.470
 20
1457.586
 30
0.000
 70
    32
  0
VERTEX
  8
0300LEVEL
 62
13
 10
-3544.368
 20
1483.514
 30
0.000
 70
    32
  0
VERTEX
  8
0300LEVEL
 62
13
 10
-3579.078
 20
1512.610
 30
0.000
 70
    32
  0
VERTEX
  8
0300LEVEL
 62
13
 10
-3628.657
 20
1546.662
 30
0.000
 70
    32
  0
VERTEX
  8
0300LEVEL
 62
13
 10
-3667.211
 20
1570.878
 30
0.000
 70
    32
  0
VERTEX
  8
0300LEVEL
 62
13
 10
-3695.051
 20
1587.064
 30
0.000
 70
    32
  0
VERTEX
  8
0300LEVEL
 62
13
 10
-3694.360
 20
1580.861
 30
0.000
 70
    32
  0
VERTEX
  8
0300LEVEL
 62
13
 10
-3688.478
 20
1567.847
 30
0.000
 70
    32
  0
VERTEX
  8
0300LEVEL
 62
13
 10
-3680.407
 20
1549.587
 30
0.000
 70
    32
  0
VERTEX
  8
0300LEVEL
 62
13
 10
-3671.308
 20
1527.239
 30
0.000
 70
    32
  0
VERTEX
  8
0300LEVEL
 62
13
 10
-3643.662
 20
1503.757
 30
0.000
 70
    32
  0
VERTEX
  8
0300LEVEL
 62
13
 10
-3612.370
 20
1480.179
 30
0.000
 70
    32
  0
VERTEX
  8
0300LEVEL
 62
13
 10
-3582.360
 20
1447.872
 30
0.000
 70
    32
  0
VERTEX
  8
0300LEVEL
 62
13
 10
-3567.179
 20
1416.328
 30
0.000
 70
    32
  0
VERTEX
  8
0300LEVEL
 62
13
 10
-3562.932
 20
1378.121
 30
0.000
 70
    32
  0
VERTEX
  8
0300LEVEL
 62
13
 10
-3560.649
 20
1355.216
 30
0.000
 70
    32
  0
VERTEX
  8
0300LEVEL
 62
13
 10
-3563.678
 20
1351.701
 30
0.000
 70
    32
  0
VERTEX
  8
0300LEVEL
 62
13
 10
-3566.275
 20
1356.265
 30
0.000
 70
    32
  0
VERTEX
  8
0300LEVEL
 62
13
 10
-3572.257
 20
1367.949
 30
0.000
 70
    32
  0
VERTEX
  8
0300LEVEL
 62
13
 10
-3575.547
 20
1379.875
 30
0.000
 70
    32
  0
VERTEX
  8
0300LEVEL
 62
13
 10
-3582.051
 20
1398.819
 30
0.000
 70
    32
  0
VERTEX
  8
0300LEVEL
 62
13
 10
-3585.692
 20
1394.280
 30
0.000
 70
    32
  0
VERTEX
  8
0300LEVEL
 62
13
 10
-3587.894
 20
1385.175
 30
0.000
 70
    32
  0
VERTEX
  8
0300LEVEL
 62
13
 10
-3592.487
 20
1355.035
 30
0.000
 70
    32
  0
VERTEX
  8
0300LEVEL
 62
13
 10
-3596.530
 20
1345.177
 30
0.000
 70
    32
  0
VERTEX
  8
0300LEVEL
 62
13
 10
-3595.379
 20
1327.351
 30
0.000
 70
    32
  0
VERTEX
  8
0300LEVEL
 62
13
 10
-3592.533
 20
1315.458
 30
0.000
 70
    32
  0
VERTEX
  8
0300LEVEL
 62
13
 10
-3580.983
 20
1296.044
 30
0.000
 70
    32
  0
VERTEX
  8
0300LEVEL
 62
13
 10
-3572.668
 20
1273.933
 30
0.000
 70
    32
  0
VERTEX
  8
0300LEVEL
 62
13
 10
-3576.884
 20
1266.495
 30
0.000
 70
    32
  0
VERTEX
  8
0300LEVEL
 62
13
 10
-3584.096
 20
1255.986
 30
0.000
 70
    32
  0
VERTEX
  8
0300LEVEL
 62
13
 10
-3583.976
 20
1243.407
 30
0.000
 70
    32
  0
VERTEX
  8
0300LEVEL
 62
13
 10
-3582.516
 20
1223.774
 30
0.000
 70
    32
  0
VERTEX
  8
0300LEVEL
 62
13
 10
-3585.968
 20
1206.384
 30
0.000
 70
    32
  0
VERTEX
  8
0300LEVEL
 62
13
 10
-3601.019
 20
1194.773
 30
0.000
 70
    32
  0
VERTEX
  8
0300LEVEL
 62
13
 10
-3610.496
 20
1195.577
 30
0.000
 70
    32
  0
VERTEX
  8
0300LEVEL
 62
13
 10
-3613.860
 20
1187.630
 30
0.000
 70
    32
  0
VERTEX
  8
0300LEVEL
 62
13
 10
-3614.624
 20
1173.959
 30
0.000
 70
    32
  0
VERTEX
  8
0300LEVEL
 62
13
 10
-3620.712
 20
1164.167
 30
0.000
 70
    32
  0
VERTEX
  8
0300LEVEL
 62
13
 10
-3624.345
 20
1153.833
 30
0.000
 70
    32
  0
VERTEX
  8
0300LEVEL
 62
13
 10
-3614.840
 20
1134.485
 30
0.000
 70
    32
  0
VERTEX
  8
0300LEVEL
 62
13
 10
-3607.269
 20
1108.418
 30
0.000
 70
    32
  0
VERTEX
  8
0300LEVEL
 62
13
 10
-3613.009
 20
1093.786
 30
0.000
 70
    32
  0
VERTEX
  8
0300LEVEL
 62
13
 10
-3613.153
 20
1075.344
 30
0.000
 70
    32
  0
VERTEX
  8
0300LEVEL
 62
13
 10
-3605.623
 20
1053.470
 30
0.000
 70
    32
  0
VERTEX
  8
0300LEVEL
 62
13
 10
-3591.268
 20
1027.515
 30
0.000
 70
    32
  0
VERTEX
  8
0300LEVEL
 62
13
 10
-3546.262
 20
996.661
 30
0.000
 70
    32
  0
VERTEX
  8
0300LEVEL
 62
13
 10
-3491.857
 20
973.389
 30
0.000
 70
    32
  0
VERTEX
  8
0300LEVEL
 62
13
 10
-3453.786
 20
953.399
 30
0.000
 70
    32
  0
VERTEX
  8
0300LEVEL
 62
13
 10
-3452.276
 20
946.243
 30
0.000
 70
    32
  0
VERTEX
  8
0300LEVEL
 62
13
 10
-3472.799
 20
947.168
 30
0.000
 70
    32
  0
VERTEX
  8
0300LEVEL
 62
13
 10
-3501.029
 20
951.082
 30
0.000
 70
    32
  0
VERTEX
  8
0300LEVEL
 62
13
 10
-3509.445
 20
948.240
 30
0.000
 70
    32
  0
VERTEX
  8
0300LEVEL
 62
13
 10
-3502.433
 20
931.308
 30
0.000
 70
    32
  0
VERTEX
  8
0300LEVEL
 62
13
 10
-3472.286
 20
898.456
 30
0.000
 70
    32
  0
VERTEX
  8
0300LEVEL
 62
13
 10
-3412.053
 20
852.012
 30
0.000
 70
    32
  0
VERTEX
  8
0300LEVEL
 62
13
 10
-3352.374
 20
811.225
 30
0.000
 70
    32
  0
VERTEX
  8
0300LEVEL
 62
13
 10
-3312.860
 20
776.979
 30
0.000
 70
    32
  0
VERTEX
  8
0300LEVEL
 62
13
 10
-3255.247
 20
737.738
 30
0.000
 70
    32
  0
VERTEX
  8
0300LEVEL
 62
13
 10
-3225.843
 20
721.149
 30
0.000
 70
    32
  0
VERTEX
  8
0300LEVEL
 62
13
 10
-3220.535
 20
710.322
 30
0.000
 70
    32
  0
VERTEX
  8
0300LEVEL
 62
13
 10
-3221.418
 20
701.461
 30
0.000
 70
    32
  0
VERTEX
  8
0300LEVEL
 62
13
 10
-3234.251
 20
697.716
 30
0.000
 70
    32
  0
VERTEX
  8
0300LEVEL
 62
13
 10
-3254.678
 20
690.157
 30
0.000
 70
    32
  0
VERTEX
  8
0300LEVEL
 62
13
 10
-3253.449
 20
677.217
 30
0.000
 70
    32
  0
VERTEX
  8
0300LEVEL
 62
13
 10
-3249.955
 20
661.174
 30
0.000
 70
    32
  0
VERTEX
  8
0300LEVEL
 62
13
 10
-3184.739
 20
604.999
 30
0.000
 70
    32
  0
VERTEX
  8
0300LEVEL
 62
13
 10
-3106.414
 20
541.528
 30
0.000
 70
    32
  0
VERTEX
  8
0300LEVEL
 62
13
 10
-3064.051
 20
500.669
 30
0.000
 70
    32
  0
VERTEX
  8
0300LEVEL
 62
13
 10
-3055.045
 20
489.515
 30
0.000
 70
    32
  0
VERTEX
  8
0300LEVEL
 62
13
 10
-3048.120
 20
479.435
 30
0.000
 70
    32
  0
VERTEX
  8
0300LEVEL
 62
13
 10
-3056.781
 20
468.789
 30
0.000
 70
    32
  0
VERTEX
  8
0300LEVEL
 62
13
 10
-3057.383
 20
460.135
 30
0.000
 70
    32
  0
VERTEX
  8
0300LEVEL
 62
13
 10
-3052.639
 20
448.896
 30
0.000
 70
    32
  0
VERTEX
  8
0300LEVEL
 62
13
 10
-3040.276
 20
427.219
 30
0.000
 70
    32
  0
VERTEX
  8
0300LEVEL
 62
13
 10
-2994.055
 20
382.258
 30
0.000
 70
    32
  0
VERTEX
  8
0300LEVEL
 62
13
 10
-2968.637
 20
354.543
 30
0.000
 70
    32
  0
VERTEX
  8
0300LEVEL
 62
13
 10
-2951.257
 20
326.583
 30
0.000
 70
    32
  0
VERTEX
  8
0300LEVEL
 62
13
 10
-2946.589
 20
314.856
 30
0.000
 70
    32
  0
VERTEX
  8
0300LEVEL
 62
13
 10
-2952.276
 20
307.246
 30
0.000
 70
    32
  0
VERTEX
  8
0300LEVEL
 62
13
 10
-2967.930
 20
301.442
 30
0.000
 70
    32
  0
VERTEX
  8
0300LEVEL
 62
13
 10
-2978.780
 20
294.387
 30
0.000
 70
    32
  0
VERTEX
  8
0300LEVEL
 62
13
 10
-2983.362
 20
285.854
 30
0.000
 70
    32
  0
VERTEX
  8
0300LEVEL
 62
13
 10
-2966.827
 20
257.277
 30
0.000
 70
    32
  0
VERTEX
  8
0300LEVEL
 62
13
 10
-2952.741
 20
233.831
 30
0.000
 70
    32
  0
VERTEX
  8
0300LEVEL
 62
13
 10
-2946.708
 20
219.641
 30
0.000
 70
    32
  0
VERTEX
  8
0300LEVEL
 62
13
 10
-2953.242
 20
211.413
 30
0.000
 70
    32
  0
VERTEX
  8
0300LEVEL
 62
13
 10
-2963.071
 20
207.698
 30
0.000
 70
    32
  0
VERTEX
  8
0300LEVEL
 62
13
 10
-2990.301
 20
214.200
 30
0.000
 70
    32
  0
VERTEX
  8
0300LEVEL
 62
13
 10
-3003.241
 20
212.971
 30
0.000
 70
    32
  0
VERTEX
  8
0300LEVEL
 62
13
 10
-3005.001
 20
206.497
 30
0.000
 70
    32
  0
VERTEX
  8
0300LEVEL
 62
13
 10
-3002.949
 20
192.428
 30
0.000
 70
    32
  0
VERTEX
  8
0300LEVEL
 62
13
 10
-2957.303
 20
108.564
 30
0.000
 70
    32
  0
VERTEX
  8
0300LEVEL
 62
13
 10
-2915.648
 20
45.569
 30
0.000
 70
    32
  0
VERTEX
  8
0300LEVEL
 62
13
 10
-2894.499
 20
6.523
 30
0.000
 70
    32
  0
VERTEX
  8
0300LEVEL
 62
13
 10
-2876.476
 20
-36.534
 30
0.000
 70
    32
  0
VERTEX
  8
0300LEVEL
 62
13
 10
-2855.152
 20
-72.858
 30
0.000
 70
    32
  0
VERTEX
  8
0300LEVEL
 62
13
 10
-2842.561
 20
-93.071
 30
0.000
 70
    32
  0
VERTEX
  8
0300LEVEL
 62
13
 10
-2847.662
 20
-98.524
 30
0.000
 70
    32
  0
VERTEX
  8
0300LEVEL
 62
13
 10
-2929.912
 20
-52.187
 30
0.000
 70
    32
  0
VERTEX
  8
0300LEVEL
 62
13
 10
-2981.987
 20
-22.309
 30
0.000
 70
    32
  0
VERTEX
  8
0300LEVEL
 62
13
 10
-3015.174
 20
-1.130
 30
0.000
 70
    32
  0
VERTEX
  8
0300LEVEL
 62
13
 10
-3031.981
 20
6.493
 30
0.000
 70
    32
  0
VERTEX
  8
0300LEVEL
 62
13
 10
-3036.814
 20
-5.250
 30
0.000
 70
    32
  0
VERTEX
  8
0300LEVEL
 62
13
 10
-3026.350
 20
-27.880
 30
0.000
 70
    32
  0
VERTEX
  8
0300LEVEL
 62
13
 10
-2998.748
 20
-86.431
 30
0.000
 70
    32
  0
VERTEX
  8
0300LEVEL
 62
13
 10
-2898.186
 20
-239.610
 30
0.000
 70
    32
  0
VERTEX
  8
0300LEVEL
 62
13
 10
-2785.664
 20
-359.412
 30
0.000
 70
    32
  0
VERTEX
  8
0300LEVEL
 62
13
 10
-2712.140
 20
-453.629
 30
0.000
 70
    32
  0
VERTEX
  8
0300LEVEL
 62
13
 10
-2589.367
 20
-591.029
 30
0.000
 70
    32
  0
VERTEX
  8
0300LEVEL
 62
13
 10
-2489.947
 20
-692.288
 30
0.000
 70
    32
  0
VERTEX
  8
0300LEVEL
 62
13
 10
-2448.232
 20
-745.294
 30
0.000
 70
    32
  0
VERTEX
  8
0300LEVEL
 62
13
 10
-2448.918
 20
-749.686
 30
0.000
 70
    32
  0
VERTEX
  8
0300LEVEL
 62
13
 10
-2456.055
 20
-750.571
 30
0.000
 70
    32
  0
VERTEX
  8
0300LEVEL
 62
13
 10
-2516.064
 20
-691.459
 30
0.000
 70
    32
  0
VERTEX
  8
0300LEVEL
 62
13
 10
-2582.952
 20
-618.776
 30
0.000
 70
    32
  0
VERTEX
  8
0300LEVEL
 62
13
 10
-2674.020
 20
-536.068
 30
0.000
 70
    32
  0
VERTEX
  8
0300LEVEL
 62
13
 10
-2734.266
 20
-473.670
 30
0.000
 70
    32
  0
SEQEND
  8
0300LEVEL
  0
ENDSEC
  0
EOF
