999
********************************
999
*   DXF File - Entities Only   *
999
*        3D Data Format        *
999
*     Output from ENVISAGE     *
999
*     28-Dec-2007 13:57:14     *
999
********************************
  0
SECTION 
  2
HEADER
  9
$ACADVER
  1
AC1009
  9
$EXTMIN
 10
-290000.000
 20
-250000.000
 30
-4000.000
  9
$EXTMAX
 10
5000000.000
 20
600000.000
 30
6000.000
  0
ENDSEC
  0
SECTION
  2
ENTITIES
  0
POLYLINE
  8
3050LEVEL
 62
13
 66
     1
 70
     8
  0
VERTEX
  8
3050LEVEL
 62
13
 10
2888.505
 20
-4941.104
 30
2177.000
 70
    32
  0
VERTEX
  8
3050LEVEL
 62
13
 10
2861.444
 20
-4912.014
 30
2177.000
 70
    32
  0
VERTEX
  8
3050LEVEL
 62
13
 10
2838.080
 20
-4877.218
 30
2177.000
 70
    32
  0
VERTEX
  8
3050LEVEL
 62
13
 10
2815.638
 20
-4838.285
 30
2177.000
 70
    32
  0
VERTEX
  8
3050LEVEL
 62
13
 10
2789.246
 20
-4803.504
 30
2177.000
 70
    32
  0
VERTEX
  8
3050LEVEL
 62
13
 10
2752.357
 20
-4772.822
 30
2177.000
 70
    32
  0
VERTEX
  8
3050LEVEL
 62
13
 10
2718.271
 20
-4746.629
 30
2177.000
 70
    32
  0
VERTEX
  8
3050LEVEL
 62
13
 10
2693.958
 20
-4736.390
 30
2177.000
 70
    32
  0
VERTEX
  8
3050LEVEL
 62
13
 10
2683.382
 20
-4767.456
 30
2177.000
 70
    32
  0
VERTEX
  8
3050LEVEL
 62
13
 10
2682.606
 20
-4794.058
 30
2177.000
 70
    32
  0
VERTEX
  8
3050LEVEL
 62
13
 10
2659.786
 20
-4805.745
 30
2177.000
 70
    32
  0
VERTEX
  8
3050LEVEL
 62
13
 10
2630.672
 20
-4818.934
 30
2177.000
 70
    32
  0
VERTEX
  8
3050LEVEL
 62
13
 10
2651.831
 20
-4854.885
 30
2177.000
 70
    32
  0
VERTEX
  8
3050LEVEL
 62
13
 10
2690.457
 20
-4898.203
 30
2177.000
 70
    32
  0
VERTEX
  8
3050LEVEL
 62
13
 10
2715.310
 20
-4936.265
 30
2177.000
 70
    32
  0
VERTEX
  8
3050LEVEL
 62
13
 10
2757.759
 20
-4974.655
 30
2177.000
 70
    32
  0
VERTEX
  8
3050LEVEL
 62
13
 10
2778.432
 20
-5002.711
 30
2177.000
 70
    32
  0
VERTEX
  8
3050LEVEL
 62
13
 10
2805.820
 20
-5040.680
 30
2177.000
 70
    32
  0
VERTEX
  8
3050LEVEL
 62
13
 10
2826.161
 20
-5067.674
 30
2177.000
 70
    32
  0
VERTEX
  8
3050LEVEL
 62
13
 10
2838.494
 20
-5097.406
 30
2177.000
 70
    32
  0
VERTEX
  8
3050LEVEL
 62
13
 10
2819.829
 20
-5078.752
 30
2177.000
 70
    32
  0
VERTEX
  8
3050LEVEL
 62
13
 10
2783.786
 20
-5036.609
 30
2177.000
 70
    32
  0
VERTEX
  8
3050LEVEL
 62
13
 10
2735.679
 20
-4995.791
 30
2177.000
 70
    32
  0
VERTEX
  8
3050LEVEL
 62
13
 10
2695.509
 20
-4963.570
 30
2177.000
 70
    32
  0
VERTEX
  8
3050LEVEL
 62
13
 10
2665.518
 20
-4929.214
 30
2177.000
 70
    32
  0
VERTEX
  8
3050LEVEL
 62
13
 10
2627.323
 20
-4881.680
 30
2177.000
 70
    32
  0
VERTEX
  8
3050LEVEL
 62
13
 10
2598.572
 20
-4841.221
 30
2177.000
 70
    32
  0
VERTEX
  8
3050LEVEL
 62
13
 10
2573.313
 20
-4821.247
 30
2177.000
 70
    32
  0
VERTEX
  8
3050LEVEL
 62
13
 10
2546.894
 20
-4806.885
 30
2177.000
 70
    32
  0
VERTEX
  8
3050LEVEL
 62
13
 10
2514.432
 20
-4769.104
 30
2177.000
 70
    32
  0
VERTEX
  8
3050LEVEL
 62
13
 10
2493.276
 20
-4725.336
 30
2177.000
 70
    32
  0
VERTEX
  8
3050LEVEL
 62
13
 10
2460.735
 20
-4688.046
 30
2177.000
 70
    32
  0
VERTEX
  8
3050LEVEL
 62
13
 10
2427.468
 20
-4644.335
 30
2177.000
 70
    32
  0
VERTEX
  8
3050LEVEL
 62
13
 10
2402.503
 20
-4608.524
 30
2177.000
 70
    32
  0
VERTEX
  8
3050LEVEL
 62
13
 10
2371.441
 20
-4590.132
 30
2177.000
 70
    32
  0
VERTEX
  8
3050LEVEL
 62
13
 10
2341.099
 20
-4559.502
 30
2177.000
 70
    32
  0
VERTEX
  8
3050LEVEL
 62
13
 10
2305.600
 20
-4537.366
 30
2177.000
 70
    32
  0
VERTEX
  8
3050LEVEL
 62
13
 10
2316.141
 20
-4568.826
 30
2177.000
 70
    32
  0
VERTEX
  8
3050LEVEL
 62
13
 10
2351.135
 20
-4614.329
 30
2177.000
 70
    32
  0
VERTEX
  8
3050LEVEL
 62
13
 10
2394.619
 20
-4672.805
 30
2177.000
 70
    32
  0
VERTEX
  8
3050LEVEL
 62
13
 10
2437.836
 20
-4726.700
 30
2177.000
 70
    32
  0
VERTEX
  8
3050LEVEL
 62
13
 10
2476.003
 20
-4768.178
 30
2177.000
 70
    32
  0
VERTEX
  8
3050LEVEL
 62
13
 10
2512.462
 20
-4803.076
 30
2177.000
 70
    32
  0
VERTEX
  8
3050LEVEL
 62
13
 10
2520.990
 20
-4832.949
 30
2177.000
 70
    32
  0
VERTEX
  8
3050LEVEL
 62
13
 10
2497.698
 20
-4839.768
 30
2177.000
 70
    32
  0
VERTEX
  8
3050LEVEL
 62
13
 10
2514.135
 20
-4872.182
 30
2177.000
 70
    32
  0
VERTEX
  8
3050LEVEL
 62
13
 10
2497.802
 20
-4879.624
 30
2177.000
 70
    32
  0
VERTEX
  8
3050LEVEL
 62
13
 10
2479.979
 20
-4857.324
 30
2177.000
 70
    32
  0
VERTEX
  8
3050LEVEL
 62
13
 10
2471.504
 20
-4873.854
 30
2177.000
 70
    32
  0
VERTEX
  8
3050LEVEL
 62
13
 10
2489.944
 20
-4897.011
 30
2177.000
 70
    32
  0
VERTEX
  8
3050LEVEL
 62
13
 10
2490.067
 20
-4932.078
 30
2177.000
 70
    32
  0
VERTEX
  8
3050LEVEL
 62
13
 10
2490.555
 20
-4966.449
 30
2177.000
 70
    32
  0
VERTEX
  8
3050LEVEL
 62
13
 10
2505.916
 20
-4996.167
 30
2177.000
 70
    32
  0
VERTEX
  8
3050LEVEL
 62
13
 10
2530.276
 20
-5034.150
 30
2177.000
 70
    32
  0
VERTEX
  8
3050LEVEL
 62
13
 10
2560.801
 20
-5077.669
 30
2177.000
 70
    32
  0
VERTEX
  8
3050LEVEL
 62
13
 10
2590.090
 20
-5119.475
 30
2177.000
 70
    32
  0
VERTEX
  8
3050LEVEL
 62
13
 10
2616.477
 20
-5162.072
 30
2177.000
 70
    32
  0
VERTEX
  8
3050LEVEL
 62
13
 10
2637.474
 20
-5206.822
 30
2177.000
 70
    32
  0
VERTEX
  8
3050LEVEL
 62
13
 10
2659.574
 20
-5233.849
 30
2177.000
 70
    32
  0
VERTEX
  8
3050LEVEL
 62
13
 10
2705.972
 20
-5241.612
 30
2177.000
 70
    32
  0
VERTEX
  8
3050LEVEL
 62
13
 10
2742.903
 20
-5254.903
 30
2177.000
 70
    32
  0
VERTEX
  8
3050LEVEL
 62
13
 10
2771.733
 20
-5294.870
 30
2177.000
 70
    32
  0
VERTEX
  8
3050LEVEL
 62
13
 10
2799.407
 20
-5306.157
 30
2177.000
 70
    32
  0
VERTEX
  8
3050LEVEL
 62
13
 10
2829.178
 20
-5337.199
 30
2177.000
 70
    32
  0
VERTEX
  8
3050LEVEL
 62
13
 10
2862.547
 20
-5367.815
 30
2177.000
 70
    32
  0
VERTEX
  8
3050LEVEL
 62
13
 10
2894.995
 20
-5402.569
 30
2177.000
 70
    32
  0
VERTEX
  8
3050LEVEL
 62
13
 10
2928.234
 20
-5440.223
 30
2177.000
 70
    32
  0
VERTEX
  8
3050LEVEL
 62
13
 10
2965.648
 20
-5495.700
 30
2177.000
 70
    32
  0
VERTEX
  8
3050LEVEL
 62
13
 10
2985.965
 20
-5535.297
 30
2177.000
 70
    32
  0
VERTEX
  8
3050LEVEL
 62
13
 10
2991.994
 20
-5555.688
 30
2177.000
 70
    32
  0
VERTEX
  8
3050LEVEL
 62
13
 10
2985.948
 20
-5566.560
 30
2177.000
 70
    32
  0
VERTEX
  8
3050LEVEL
 62
13
 10
3006.569
 20
-5601.164
 30
2177.000
 70
    32
  0
SEQEND
  8
3050LEVEL
  0
POLYLINE
  8
3050LEVEL
 62
13
 66
     1
 70
     8
  0
VERTEX
  8
3050LEVEL
 62
13
 10
2982.485
 20
-5605.082
 30
2177.000
 70
    32
  0
VERTEX
  8
3050LEVEL
 62
13
 10
2958.157
 20
-5565.340
 30
2177.000
 70
    32
  0
VERTEX
  8
3050LEVEL
 62
13
 10
2926.903
 20
-5549.690
 30
2177.000
 70
    32
  0
VERTEX
  8
3050LEVEL
 62
13
 10
2905.829
 20
-5558.382
 30
2177.000
 70
    32
  0
VERTEX
  8
3050LEVEL
 62
13
 10
2873.939
 20
-5546.664
 30
2177.000
 70
    32
  0
VERTEX
  8
3050LEVEL
 62
13
 10
2846.125
 20
-5531.571
 30
2177.000
 70
    32
  0
VERTEX
  8
3050LEVEL
 62
13
 10
2814.122
 20
-5522.105
 30
2177.000
 70
    32
  0
VERTEX
  8
3050LEVEL
 62
13
 10
2775.563
 20
-5501.743
 30
2177.000
 70
    32
  0
VERTEX
  8
3050LEVEL
 62
13
 10
2750.500
 20
-5471.211
 30
2177.000
 70
    32
  0
VERTEX
  8
3050LEVEL
 62
13
 10
2721.810
 20
-5435.048
 30
2177.000
 70
    32
  0
VERTEX
  8
3050LEVEL
 62
13
 10
2691.636
 20
-5387.804
 30
2177.000
 70
    32
  0
VERTEX
  8
3050LEVEL
 62
13
 10
2659.038
 20
-5338.402
 30
2177.000
 70
    32
  0
VERTEX
  8
3050LEVEL
 62
13
 10
2634.500
 20
-5306.190
 30
2177.000
 70
    32
  0
VERTEX
  8
3050LEVEL
 62
13
 10
2614.942
 20
-5297.729
 30
2177.000
 70
    32
  0
VERTEX
  8
3050LEVEL
 62
13
 10
2631.754
 20
-5340.289
 30
2177.000
 70
    32
  0
VERTEX
  8
3050LEVEL
 62
13
 10
2661.768
 20
-5388.516
 30
2177.000
 70
    32
  0
VERTEX
  8
3050LEVEL
 62
13
 10
2678.121
 20
-5429.237
 30
2177.000
 70
    32
  0
VERTEX
  8
3050LEVEL
 62
13
 10
2715.807
 20
-5481.480
 30
2177.000
 70
    32
  0
VERTEX
  8
3050LEVEL
 62
13
 10
2748.297
 20
-5525.317
 30
2177.000
 70
    32
  0
VERTEX
  8
3050LEVEL
 62
13
 10
2786.796
 20
-5541.382
 30
2177.000
 70
    32
  0
VERTEX
  8
3050LEVEL
 62
13
 10
2823.923
 20
-5544.115
 30
2177.000
 70
    32
  0
VERTEX
  8
3050LEVEL
 62
13
 10
2855.495
 20
-5557.798
 30
2177.000
 70
    32
  0
VERTEX
  8
3050LEVEL
 62
13
 10
2866.050
 20
-5592.285
 30
2177.000
 70
    32
  0
VERTEX
  8
3050LEVEL
 62
13
 10
2842.256
 20
-5588.182
 30
2177.000
 70
    32
  0
VERTEX
  8
3050LEVEL
 62
13
 10
2857.215
 20
-5628.172
 30
2177.000
 70
    32
  0
VERTEX
  8
3050LEVEL
 62
13
 10
2887.388
 20
-5675.417
 30
2177.000
 70
    32
  0
SEQEND
  8
3050LEVEL
  0
POLYLINE
  8
3050LEVEL
 62
13
 66
     1
 70
     8
  0
VERTEX
  8
3050LEVEL
 62
13
 10
2848.334
 20
-5689.266
 30
2177.000
 70
    32
  0
VERTEX
  8
3050LEVEL
 62
13
 10
2820.959
 20
-5654.326
 30
2177.000
 70
    32
  0
VERTEX
  8
3050LEVEL
 62
13
 10
2784.757
 20
-5613.165
 30
2177.000
 70
    32
  0
VERTEX
  8
3050LEVEL
 62
13
 10
2746.890
 20
-5574.509
 30
2177.000
 70
    32
  0
VERTEX
  8
3050LEVEL
 62
13
 10
2712.570
 20
-5541.974
 30
2177.000
 70
    32
  0
VERTEX
  8
3050LEVEL
 62
13
 10
2686.590
 20
-5507.764
 30
2177.000
 70
    32
  0
VERTEX
  8
3050LEVEL
 62
13
 10
2669.249
 20
-5474.699
 30
2177.000
 70
    32
  0
VERTEX
  8
3050LEVEL
 62
13
 10
2637.387
 20
-5442.562
 30
2177.000
 70
    32
  0
VERTEX
  8
3050LEVEL
 62
13
 10
2609.900
 20
-5409.873
 30
2177.000
 70
    32
  0
VERTEX
  8
3050LEVEL
 62
13
 10
2574.980
 20
-5371.694
 30
2177.000
 70
    32
  0
VERTEX
  8
3050LEVEL
 62
13
 10
2544.582
 20
-5328.952
 30
2177.000
 70
    32
  0
VERTEX
  8
3050LEVEL
 62
13
 10
2524.003
 20
-5303.432
 30
2177.000
 70
    32
  0
VERTEX
  8
3050LEVEL
 62
13
 10
2508.123
 20
-5267.578
 30
2177.000
 70
    32
  0
VERTEX
  8
3050LEVEL
 62
13
 10
2503.437
 20
-5227.990
 30
2177.000
 70
    32
  0
VERTEX
  8
3050LEVEL
 62
13
 10
2486.522
 20
-5198.524
 30
2177.000
 70
    32
  0
VERTEX
  8
3050LEVEL
 62
13
 10
2468.503
 20
-5160.307
 30
2177.000
 70
    32
  0
VERTEX
  8
3050LEVEL
 62
13
 10
2470.936
 20
-5146.833
 30
2177.000
 70
    32
  0
VERTEX
  8
3050LEVEL
 62
13
 10
2494.112
 20
-5150.081
 30
2177.000
 70
    32
  0
VERTEX
  8
3050LEVEL
 62
13
 10
2492.810
 20
-5125.412
 30
2177.000
 70
    32
  0
VERTEX
  8
3050LEVEL
 62
13
 10
2462.033
 20
-5080.339
 30
2177.000
 70
    32
  0
VERTEX
  8
3050LEVEL
 62
13
 10
2434.663
 20
-5037.583
 30
2177.000
 70
    32
  0
VERTEX
  8
3050LEVEL
 62
13
 10
2402.500
 20
-5002.624
 30
2177.000
 70
    32
  0
VERTEX
  8
3050LEVEL
 62
13
 10
2363.383
 20
-4959.226
 30
2177.000
 70
    32
  0
VERTEX
  8
3050LEVEL
 62
13
 10
2327.406
 20
-4913.564
 30
2177.000
 70
    32
  0
VERTEX
  8
3050LEVEL
 62
13
 10
2286.852
 20
-4860.353
 30
2177.000
 70
    32
  0
VERTEX
  8
3050LEVEL
 62
13
 10
2249.882
 20
-4803.687
 30
2177.000
 70
    32
  0
VERTEX
  8
3050LEVEL
 62
13
 10
2210.123
 20
-4745.562
 30
2177.000
 70
    32
  0
VERTEX
  8
3050LEVEL
 62
13
 10
2190.827
 20
-4723.023
 30
2177.000
 70
    32
  0
VERTEX
  8
3050LEVEL
 62
13
 10
2193.982
 20
-4750.261
 30
2177.000
 70
    32
  0
VERTEX
  8
3050LEVEL
 62
13
 10
2173.796
 20
-4730.100
 30
2177.000
 70
    32
  0
VERTEX
  8
3050LEVEL
 62
13
 10
2189.031
 20
-4785.516
 30
2177.000
 70
    32
  0
VERTEX
  8
3050LEVEL
 62
13
 10
2232.520
 20
-4836.177
 30
2177.000
 70
    32
  0
VERTEX
  8
3050LEVEL
 62
13
 10
2268.656
 20
-4880.857
 30
2177.000
 70
    32
  0
VERTEX
  8
3050LEVEL
 62
13
 10
2274.694
 20
-4912.091
 30
2177.000
 70
    32
  0
VERTEX
  8
3050LEVEL
 62
13
 10
2242.022
 20
-4881.840
 30
2177.000
 70
    32
  0
VERTEX
  8
3050LEVEL
 62
13
 10
2204.318
 20
-4834.385
 30
2177.000
 70
    32
  0
VERTEX
  8
3050LEVEL
 62
13
 10
2193.975
 20
-4845.318
 30
2177.000
 70
    32
  0
VERTEX
  8
3050LEVEL
 62
13
 10
2174.407
 20
-4799.538
 30
2177.000
 70
    32
  0
VERTEX
  8
3050LEVEL
 62
13
 10
2166.580
 20
-4762.215
 30
2177.000
 70
    32
  0
VERTEX
  8
3050LEVEL
 62
13
 10
2140.076
 20
-4729.685
 30
2177.000
 70
    32
  0
VERTEX
  8
3050LEVEL
 62
13
 10
2104.052
 20
-4682.754
 30
2177.000
 70
    32
  0
VERTEX
  8
3050LEVEL
 62
13
 10
2080.057
 20
-4644.074
 30
2177.000
 70
    32
  0
VERTEX
  8
3050LEVEL
 62
13
 10
2076.990
 20
-4600.713
 30
2177.000
 70
    32
  0
VERTEX
  8
3050LEVEL
 62
13
 10
2052.231
 20
-4565.187
 30
2177.000
 70
    32
  0
VERTEX
  8
3050LEVEL
 62
13
 10
2043.251
 20
-4578.610
 30
2177.000
 70
    32
  0
VERTEX
  8
3050LEVEL
 62
13
 10
2055.977
 20
-4613.701
 30
2177.000
 70
    32
  0
VERTEX
  8
3050LEVEL
 62
13
 10
2056.123
 20
-4636.165
 30
2177.000
 70
    32
  0
VERTEX
  8
3050LEVEL
 62
13
 10
2036.320
 20
-4610.519
 30
2177.000
 70
    32
  0
VERTEX
  8
3050LEVEL
 62
13
 10
2008.286
 20
-4565.638
 30
2177.000
 70
    32
  0
VERTEX
  8
3050LEVEL
 62
13
 10
1976.684
 20
-4519.423
 30
2177.000
 70
    32
  0
VERTEX
  8
3050LEVEL
 62
13
 10
1946.141
 20
-4480.692
 30
2177.000
 70
    32
  0
VERTEX
  8
3050LEVEL
 62
13
 10
1924.018
 20
-4466.268
 30
2177.000
 70
    32
  0
VERTEX
  8
3050LEVEL
 62
13
 10
1949.390
 20
-4510.466
 30
2177.000
 70
    32
  0
VERTEX
  8
3050LEVEL
 62
13
 10
1982.849
 20
-4551.434
 30
2177.000
 70
    32
  0
VERTEX
  8
3050LEVEL
 62
13
 10
2008.890
 20
-4589.941
 30
2177.000
 70
    32
  0
VERTEX
  8
3050LEVEL
 62
13
 10
2035.516
 20
-4631.064
 30
2177.000
 70
    32
  0
VERTEX
  8
3050LEVEL
 62
13
 10
2061.767
 20
-4662.041
 30
2177.000
 70
    32
  0
VERTEX
  8
3050LEVEL
 62
13
 10
2095.451
 20
-4698.507
 30
2177.000
 70
    32
  0
VERTEX
  8
3050LEVEL
 62
13
 10
2098.948
 20
-4737.651
 30
2177.000
 70
    32
  0
VERTEX
  8
3050LEVEL
 62
13
 10
2118.011
 20
-4780.324
 30
2177.000
 70
    32
  0
VERTEX
  8
3050LEVEL
 62
13
 10
2103.382
 20
-4802.161
 30
2177.000
 70
    32
  0
VERTEX
  8
3050LEVEL
 62
13
 10
2084.357
 20
-4776.389
 30
2177.000
 70
    32
  0
VERTEX
  8
3050LEVEL
 62
13
 10
2072.936
 20
-4731.675
 30
2177.000
 70
    32
  0
VERTEX
  8
3050LEVEL
 62
13
 10
2054.795
 20
-4684.866
 30
2177.000
 70
    32
  0
VERTEX
  8
3050LEVEL
 62
13
 10
2038.484
 20
-4653.229
 30
2177.000
 70
    32
  0
VERTEX
  8
3050LEVEL
 62
13
 10
2008.854
 20
-4625.992
 30
2177.000
 70
    32
  0
VERTEX
  8
3050LEVEL
 62
13
 10
1986.108
 20
-4618.528
 30
2177.000
 70
    32
  0
VERTEX
  8
3050LEVEL
 62
13
 10
1963.741
 20
-4586.919
 30
2177.000
 70
    32
  0
VERTEX
  8
3050LEVEL
 62
13
 10
1949.962
 20
-4563.005
 30
2177.000
 70
    32
  0
VERTEX
  8
3050LEVEL
 62
13
 10
1982.541
 20
-4590.719
 30
2177.000
 70
    32
  0
VERTEX
  8
3050LEVEL
 62
13
 10
1967.480
 20
-4563.823
 30
2177.000
 70
    32
  0
VERTEX
  8
3050LEVEL
 62
13
 10
1936.778
 20
-4526.074
 30
2177.000
 70
    32
  0
VERTEX
  8
3050LEVEL
 62
13
 10
1918.683
 20
-4480.533
 30
2177.000
 70
    32
  0
VERTEX
  8
3050LEVEL
 62
13
 10
1893.835
 20
-4434.655
 30
2177.000
 70
    32
  0
VERTEX
  8
3050LEVEL
 62
13
 10
1854.592
 20
-4390.481
 30
2177.000
 70
    32
  0
VERTEX
  8
3050LEVEL
 62
13
 10
1813.733
 20
-4342.263
 30
2177.000
 70
    32
  0
VERTEX
  8
3050LEVEL
 62
13
 10
1775.145
 20
-4289.370
 30
2177.000
 70
    32
  0
VERTEX
  8
3050LEVEL
 62
13
 10
1751.266
 20
-4240.623
 30
2177.000
 70
    32
  0
VERTEX
  8
3050LEVEL
 62
13
 10
1726.867
 20
-4185.741
 30
2177.000
 70
    32
  0
VERTEX
  8
3050LEVEL
 62
13
 10
1699.066
 20
-4147.201
 30
2177.000
 70
    32
  0
VERTEX
  8
3050LEVEL
 62
13
 10
1669.637
 20
-4128.065
 30
2177.000
 70
    32
  0
VERTEX
  8
3050LEVEL
 62
13
 10
1680.918
 20
-4168.974
 30
2177.000
 70
    32
  0
VERTEX
  8
3050LEVEL
 62
13
 10
1643.668
 20
-4131.174
 30
2177.000
 70
    32
  0
VERTEX
  8
3050LEVEL
 62
13
 10
1590.753
 20
-4068.649
 30
2177.000
 70
    32
  0
VERTEX
  8
3050LEVEL
 62
13
 10
1548.902
 20
-4009.429
 30
2177.000
 70
    32
  0
VERTEX
  8
3050LEVEL
 62
13
 10
1511.797
 20
-3941.143
 30
2177.000
 70
    32
  0
VERTEX
  8
3050LEVEL
 62
13
 10
1468.284
 20
-3876.611
 30
2177.000
 70
    32
  0
VERTEX
  8
3050LEVEL
 62
13
 10
1428.381
 20
-3822.496
 30
2177.000
 70
    32
  0
VERTEX
  8
3050LEVEL
 62
13
 10
1385.893
 20
-3767.207
 30
2177.000
 70
    32
  0
VERTEX
  8
3050LEVEL
 62
13
 10
1347.969
 20
-3716.439
 30
2177.000
 70
    32
  0
VERTEX
  8
3050LEVEL
 62
13
 10
1313.214
 20
-3669.461
 30
2177.000
 70
    32
  0
VERTEX
  8
3050LEVEL
 62
13
 10
1290.116
 20
-3612.772
 30
2177.000
 70
    32
  0
VERTEX
  8
3050LEVEL
 62
13
 10
1261.230
 20
-3587.168
 30
2177.000
 70
    32
  0
VERTEX
  8
3050LEVEL
 62
13
 10
1230.724
 20
-3538.862
 30
2177.000
 70
    32
  0
VERTEX
  8
3050LEVEL
 62
13
 10
1193.408
 20
-3478.106
 30
2177.000
 70
    32
  0
VERTEX
  8
3050LEVEL
 62
13
 10
1161.324
 20
-3416.180
 30
2177.000
 70
    32
  0
VERTEX
  8
3050LEVEL
 62
13
 10
1113.062
 20
-3368.529
 30
2177.000
 70
    32
  0
VERTEX
  8
3050LEVEL
 62
13
 10
1076.439
 20
-3315.954
 30
2177.000
 70
    32
  0
VERTEX
  8
3050LEVEL
 62
13
 10
1030.465
 20
-3258.840
 30
2177.000
 70
    32
  0
VERTEX
  8
3050LEVEL
 62
13
 10
982.198
 20
-3219.004
 30
2177.000
 70
    32
  0
VERTEX
  8
3050LEVEL
 62
13
 10
943.334
 20
-3177.161
 30
2177.000
 70
    32
  0
VERTEX
  8
3050LEVEL
 62
13
 10
916.947
 20
-3161.039
 30
2177.000
 70
    32
  0
VERTEX
  8
3050LEVEL
 62
13
 10
897.849
 20
-3180.892
 30
2177.000
 70
    32
  0
VERTEX
  8
3050LEVEL
 62
13
 10
898.674
 20
-3234.984
 30
2177.000
 70
    32
  0
VERTEX
  8
3050LEVEL
 62
13
 10
901.960
 20
-3281.659
 30
2177.000
 70
    32
  0
VERTEX
  8
3050LEVEL
 62
13
 10
919.905
 20
-3312.551
 30
2177.000
 70
    32
  0
VERTEX
  8
3050LEVEL
 62
13
 10
930.417
 20
-3337.955
 30
2177.000
 70
    32
  0
VERTEX
  8
3050LEVEL
 62
13
 10
894.997
 20
-3315.327
 30
2177.000
 70
    32
  0
VERTEX
  8
3050LEVEL
 62
13
 10
850.236
 20
-3272.529
 30
2177.000
 70
    32
  0
VERTEX
  8
3050LEVEL
 62
13
 10
813.215
 20
-3222.412
 30
2177.000
 70
    32
  0
VERTEX
  8
3050LEVEL
 62
13
 10
769.779
 20
-3191.679
 30
2177.000
 70
    32
  0
VERTEX
  8
3050LEVEL
 62
13
 10
752.546
 20
-3164.179
 30
2177.000
 70
    32
  0
VERTEX
  8
3050LEVEL
 62
13
 10
729.346
 20
-3120.585
 30
2177.000
 70
    32
  0
VERTEX
  8
3050LEVEL
 62
13
 10
698.419
 20
-3087.339
 30
2177.000
 70
    32
  0
VERTEX
  8
3050LEVEL
 62
13
 10
650.134
 20
-3078.766
 30
2177.000
 70
    32
  0
VERTEX
  8
3050LEVEL
 62
13
 10
625.095
 20
-3062.106
 30
2177.000
 70
    32
  0
VERTEX
  8
3050LEVEL
 62
13
 10
614.008
 20
-3044.930
 30
2177.000
 70
    32
  0
VERTEX
  8
3050LEVEL
 62
13
 10
598.443
 20
-3067.877
 30
2177.000
 70
    32
  0
VERTEX
  8
3050LEVEL
 62
13
 10
589.355
 20
-3102.210
 30
2177.000
 70
    32
  0
VERTEX
  8
3050LEVEL
 62
13
 10
584.746
 20
-3149.371
 30
2177.000
 70
    32
  0
VERTEX
  8
3050LEVEL
 62
13
 10
607.006
 20
-3201.891
 30
2177.000
 70
    32
  0
VERTEX
  8
3050LEVEL
 62
13
 10
631.110
 20
-3246.135
 30
2177.000
 70
    32
  0
VERTEX
  8
3050LEVEL
 62
13
 10
658.953
 20
-3293.759
 30
2177.000
 70
    32
  0
VERTEX
  8
3050LEVEL
 62
13
 10
692.210
 20
-3326.626
 30
2177.000
 70
    32
  0
VERTEX
  8
3050LEVEL
 62
13
 10
730.719
 20
-3353.535
 30
2177.000
 70
    32
  0
VERTEX
  8
3050LEVEL
 62
13
 10
740.066
 20
-3392.366
 30
2177.000
 70
    32
  0
VERTEX
  8
3050LEVEL
 62
13
 10
722.361
 20
-3386.474
 30
2177.000
 70
    32
  0
VERTEX
  8
3050LEVEL
 62
13
 10
691.027
 20
-3344.841
 30
2177.000
 70
    32
  0
VERTEX
  8
3050LEVEL
 62
13
 10
651.400
 20
-3306.152
 30
2177.000
 70
    32
  0
VERTEX
  8
3050LEVEL
 62
13
 10
615.133
 20
-3268.511
 30
2177.000
 70
    32
  0
VERTEX
  8
3050LEVEL
 62
13
 10
586.977
 20
-3241.513
 30
2177.000
 70
    32
  0
VERTEX
  8
3050LEVEL
 62
13
 10
599.647
 20
-3290.967
 30
2177.000
 70
    32
  0
VERTEX
  8
3050LEVEL
 62
13
 10
588.907
 20
-3330.832
 30
2177.000
 70
    32
  0
VERTEX
  8
3050LEVEL
 62
13
 10
620.827
 20
-3375.081
 30
2177.000
 70
    32
  0
VERTEX
  8
3050LEVEL
 62
13
 10
652.689
 20
-3407.218
 30
2177.000
 70
    32
  0
VERTEX
  8
3050LEVEL
 62
13
 10
651.693
 20
-3430.506
 30
2177.000
 70
    32
  0
VERTEX
  8
3050LEVEL
 62
13
 10
635.617
 20
-3431.686
 30
2177.000
 70
    32
  0
VERTEX
  8
3050LEVEL
 62
13
 10
582.712
 20
-3380.005
 30
2177.000
 70
    32
  0
VERTEX
  8
3050LEVEL
 62
13
 10
554.668
 20
-3350.756
 30
2177.000
 70
    32
  0
VERTEX
  8
3050LEVEL
 62
13
 10
555.484
 20
-3394.004
 30
2177.000
 70
    32
  0
VERTEX
  8
3050LEVEL
 62
13
 10
578.656
 20
-3431.542
 30
2177.000
 70
    32
  0
VERTEX
  8
3050LEVEL
 62
13
 10
606.218
 20
-3471.556
 30
2177.000
 70
    32
  0
VERTEX
  8
3050LEVEL
 62
13
 10
596.030
 20
-3489.322
 30
2177.000
 70
    32
  0
VERTEX
  8
3050LEVEL
 62
13
 10
566.802
 20
-3451.812
 30
2177.000
 70
    32
  0
VERTEX
  8
3050LEVEL
 62
13
 10
532.177
 20
-3397.796
 30
2177.000
 70
    32
  0
VERTEX
  8
3050LEVEL
 62
13
 10
524.086
 20
-3408.841
 30
2177.000
 70
    32
  0
VERTEX
  8
3050LEVEL
 62
13
 10
494.174
 20
-3373.994
 30
2177.000
 70
    32
  0
VERTEX
  8
3050LEVEL
 62
13
 10
486.119
 20
-3322.513
 30
2177.000
 70
    32
  0
VERTEX
  8
3050LEVEL
 62
13
 10
466.783
 20
-3256.600
 30
2177.000
 70
    32
  0
VERTEX
  8
3050LEVEL
 62
13
 10
436.661
 20
-3202.808
 30
2177.000
 70
    32
  0
VERTEX
  8
3050LEVEL
 62
13
 10
407.690
 20
-3159.036
 30
2177.000
 70
    32
  0
VERTEX
  8
3050LEVEL
 62
13
 10
415.736
 20
-3199.673
 30
2177.000
 70
    32
  0
VERTEX
  8
3050LEVEL
 62
13
 10
415.344
 20
-3247.265
 30
2177.000
 70
    32
  0
VERTEX
  8
3050LEVEL
 62
13
 10
407.357
 20
-3298.165
 30
2177.000
 70
    32
  0
VERTEX
  8
3050LEVEL
 62
13
 10
427.969
 20
-3348.401
 30
2177.000
 70
    32
  0
VERTEX
  8
3050LEVEL
 62
13
 10
441.659
 20
-3361.963
 30
2177.000
 70
    32
  0
VERTEX
  8
3050LEVEL
 62
13
 10
440.513
 20
-3397.078
 30
2177.000
 70
    32
  0
VERTEX
  8
3050LEVEL
 62
13
 10
464.144
 20
-3436.455
 30
2177.000
 70
    32
  0
VERTEX
  8
3050LEVEL
 62
13
 10
474.250
 20
-3479.947
 30
2177.000
 70
    32
  0
VERTEX
  8
3050LEVEL
 62
13
 10
499.622
 20
-3524.144
 30
2177.000
 70
    32
  0
VERTEX
  8
3050LEVEL
 62
13
 10
533.666
 20
-3567.729
 30
2177.000
 70
    32
  0
VERTEX
  8
3050LEVEL
 62
13
 10
569.063
 20
-3629.435
 30
2177.000
 70
    32
  0
VERTEX
  8
3050LEVEL
 62
13
 10
598.353
 20
-3697.716
 30
2177.000
 70
    32
  0
VERTEX
  8
3050LEVEL
 62
13
 10
624.656
 20
-3748.621
 30
2177.000
 70
    32
  0
VERTEX
  8
3050LEVEL
 62
13
 10
660.956
 20
-3810.977
 30
2177.000
 70
    32
  0
VERTEX
  8
3050LEVEL
 62
13
 10
691.608
 20
-3881.748
 30
2177.000
 70
    32
  0
VERTEX
  8
3050LEVEL
 62
13
 10
725.845
 20
-3949.065
 30
2177.000
 70
    32
  0
VERTEX
  8
3050LEVEL
 62
13
 10
766.456
 20
-4014.388
 30
2177.000
 70
    32
  0
VERTEX
  8
3050LEVEL
 62
13
 10
811.489
 20
-4080.428
 30
2177.000
 70
    32
  0
VERTEX
  8
3050LEVEL
 62
13
 10
851.664
 20
-4131.308
 30
2177.000
 70
    32
  0
VERTEX
  8
3050LEVEL
 62
13
 10
888.736
 20
-4174.879
 30
2177.000
 70
    32
  0
VERTEX
  8
3050LEVEL
 62
13
 10
918.325
 20
-4219.507
 30
2177.000
 70
    32
  0
SEQEND
  8
3050LEVEL
  0
LINE
  8
3050LEVEL
 62
5
 10
2295.357
 20
-3069.495
 30
2177.000
 11
2299.472
 21
-3135.971
 31
2177.000
  0
POLYLINE
  8
3050LEVEL
 62
5
 66
     1
 70
     9
  0
VERTEX
  8
3050LEVEL
 62
5
 10
2988.919
 20
-4721.101
 30
2177.000
 70
    32
  0
VERTEX
  8
3050LEVEL
 62
5
 10
2975.271
 20
-4690.147
 30
2177.000
 70
    32
  0
VERTEX
  8
3050LEVEL
 62
5
 10
2956.957
 20
-4667.768
 30
2177.000
 70
    32
  0
VERTEX
  8
3050LEVEL
 62
5
 10
2951.229
 20
-4676.674
 30
2177.000
 70
    32
  0
VERTEX
  8
3050LEVEL
 62
5
 10
2964.166
 20
-4704.235
 30
2177.000
 70
    32
  0
VERTEX
  8
3050LEVEL
 62
5
 10
2975.539
 20
-4721.204
 30
2177.000
 70
    32
  0
SEQEND
  8
3050LEVEL
  0
POLYLINE
  8
3050LEVEL
 62
5
 66
     1
 70
     9
  0
VERTEX
  8
3050LEVEL
 62
5
 10
2849.678
 20
-5249.494
 30
2177.000
 70
    32
  0
VERTEX
  8
3050LEVEL
 62
5
 10
2837.070
 20
-5230.812
 30
2177.000
 70
    32
  0
VERTEX
  8
3050LEVEL
 62
5
 10
2822.608
 20
-5209.560
 30
2177.000
 70
    32
  0
VERTEX
  8
3050LEVEL
 62
5
 10
2798.987
 20
-5181.026
 30
2177.000
 70
    32
  0
VERTEX
  8
3050LEVEL
 62
5
 10
2771.547
 20
-5149.605
 30
2177.000
 70
    32
  0
VERTEX
  8
3050LEVEL
 62
5
 10
2754.660
 20
-5126.196
 30
2177.000
 70
    32
  0
VERTEX
  8
3050LEVEL
 62
5
 10
2733.094
 20
-5108.332
 30
2177.000
 70
    32
  0
VERTEX
  8
3050LEVEL
 62
5
 10
2736.193
 20
-5123.458
 30
2177.000
 70
    32
  0
VERTEX
  8
3050LEVEL
 62
5
 10
2753.982
 20
-5147.518
 30
2177.000
 70
    32
  0
VERTEX
  8
3050LEVEL
 62
5
 10
2778.207
 20
-5173.880
 30
2177.000
 70
    32
  0
VERTEX
  8
3050LEVEL
 62
5
 10
2803.953
 20
-5201.749
 30
2177.000
 70
    32
  0
VERTEX
  8
3050LEVEL
 62
5
 10
2822.978
 20
-5227.522
 30
2177.000
 70
    32
  0
VERTEX
  8
3050LEVEL
 62
5
 10
2844.858
 20
-5251.235
 30
2177.000
 70
    32
  0
SEQEND
  8
3050LEVEL
  0
POLYLINE
  8
3050LEVEL
 62
5
 66
     1
 70
     9
  0
VERTEX
  8
3050LEVEL
 62
5
 10
2780.121
 20
-5320.937
 30
2177.000
 70
    32
  0
VERTEX
  8
3050LEVEL
 62
5
 10
2797.896
 20
-5341.969
 30
2177.000
 70
    32
  0
VERTEX
  8
3050LEVEL
 62
5
 10
2806.967
 20
-5365.374
 30
2177.000
 70
    32
  0
VERTEX
  8
3050LEVEL
 62
5
 10
2813.782
 20
-5396.482
 30
2177.000
 70
    32
  0
VERTEX
  8
3050LEVEL
 62
5
 10
2817.204
 20
-5428.302
 30
2177.000
 70
    32
  0
VERTEX
  8
3050LEVEL
 62
5
 10
2823.083
 20
-5460.519
 30
2177.000
 70
    32
  0
VERTEX
  8
3050LEVEL
 62
5
 10
2823.084
 20
-5486.994
 30
2177.000
 70
    32
  0
VERTEX
  8
3050LEVEL
 62
5
 10
2814.748
 20
-5480.854
 30
2177.000
 70
    32
  0
VERTEX
  8
3050LEVEL
 62
5
 10
2807.723
 20
-5457.276
 30
2177.000
 70
    32
  0
VERTEX
  8
3050LEVEL
 62
5
 10
2799.101
 20
-5424.867
 30
2177.000
 70
    32
  0
VERTEX
  8
3050LEVEL
 62
5
 10
2793.269
 20
-5393.918
 30
2177.000
 70
    32
  0
VERTEX
  8
3050LEVEL
 62
5
 10
2789.356
 20
-5362.019
 30
2177.000
 70
    32
  0
VERTEX
  8
3050LEVEL
 62
5
 10
2784.563
 20
-5343.341
 30
2177.000
 70
    32
  0
VERTEX
  8
3050LEVEL
 62
5
 10
2776.138
 20
-5326.848
 30
2177.000
 70
    32
  0
SEQEND
  8
3050LEVEL
  0
POLYLINE
  8
3050LEVEL
 62
5
 66
     1
 70
     9
  0
VERTEX
  8
3050LEVEL
 62
5
 10
2570.553
 20
-5212.127
 30
2177.000
 70
    32
  0
VERTEX
  8
3050LEVEL
 62
5
 10
2585.572
 20
-5229.939
 30
2177.000
 70
    32
  0
VERTEX
  8
3050LEVEL
 62
5
 10
2595.106
 20
-5247.367
 30
2177.000
 70
    32
  0
VERTEX
  8
3050LEVEL
 62
5
 10
2605.052
 20
-5265.366
 30
2177.000
 70
    32
  0
VERTEX
  8
3050LEVEL
 62
5
 10
2605.618
 20
-5272.770
 30
2177.000
 70
    32
  0
VERTEX
  8
3050LEVEL
 62
5
 10
2597.901
 20
-5267.487
 30
2177.000
 70
    32
  0
VERTEX
  8
3050LEVEL
 62
5
 10
2587.496
 20
-5247.648
 30
2177.000
 70
    32
  0
VERTEX
  8
3050LEVEL
 62
5
 10
2576.076
 20
-5229.410
 30
2177.000
 70
    32
  0
VERTEX
  8
3050LEVEL
 62
5
 10
2569.664
 20
-5214.504
 30
2177.000
 70
    32
  0
SEQEND
  8
3050LEVEL
  0
POLYLINE
  8
3050LEVEL
 62
5
 66
     1
 70
     9
  0
VERTEX
  8
3050LEVEL
 62
5
 10
2536.448
 20
-5137.771
 30
2177.000
 70
    32
  0
VERTEX
  8
3050LEVEL
 62
5
 10
2521.845
 20
-5112.714
 30
2177.000
 70
    32
  0
VERTEX
  8
3050LEVEL
 62
5
 10
2510.149
 20
-5079.051
 30
2177.000
 70
    32
  0
VERTEX
  8
3050LEVEL
 62
5
 10
2498.387
 20
-5048.907
 30
2177.000
 70
    32
  0
VERTEX
  8
3050LEVEL
 62
5
 10
2480.587
 20
-5014.003
 30
2177.000
 70
    32
  0
VERTEX
  8
3050LEVEL
 62
5
 10
2469.303
 20
-4980.911
 30
2177.000
 70
    32
  0
VERTEX
  8
3050LEVEL
 62
5
 10
2456.432
 20
-4949.831
 30
2177.000
 70
    32
  0
VERTEX
  8
3050LEVEL
 62
5
 10
2442.292
 20
-4918.798
 30
2177.000
 70
    32
  0
VERTEX
  8
3050LEVEL
 62
5
 10
2434.223
 20
-4890.764
 30
2177.000
 70
    32
  0
VERTEX
  8
3050LEVEL
 62
5
 10
2417.557
 20
-4870.669
 30
2177.000
 70
    32
  0
VERTEX
  8
3050LEVEL
 62
5
 10
2418.245
 20
-4886.665
 30
2177.000
 70
    32
  0
VERTEX
  8
3050LEVEL
 62
5
 10
2426.441
 20
-4915.475
 30
2177.000
 70
    32
  0
VERTEX
  8
3050LEVEL
 62
5
 10
2437.028
 20
-4948.203
 30
2177.000
 70
    32
  0
VERTEX
  8
3050LEVEL
 62
5
 10
2455.300
 20
-4987.973
 30
2177.000
 70
    32
  0
VERTEX
  8
3050LEVEL
 62
5
 10
2469.613
 20
-5021.052
 30
2177.000
 70
    32
  0
VERTEX
  8
3050LEVEL
 62
5
 10
2482.545
 20
-5056.428
 30
2177.000
 70
    32
  0
VERTEX
  8
3050LEVEL
 62
5
 10
2494.910
 20
-5084.401
 30
2177.000
 70
    32
  0
VERTEX
  8
3050LEVEL
 62
5
 10
2507.309
 20
-5110.613
 30
2177.000
 70
    32
  0
VERTEX
  8
3050LEVEL
 62
5
 10
2523.956
 20
-5135.497
 30
2177.000
 70
    32
  0
SEQEND
  8
3050LEVEL
  0
POLYLINE
  8
3050LEVEL
 62
5
 66
     1
 70
     9
  0
VERTEX
  8
3050LEVEL
 62
5
 10
2392.501
 20
-4911.746
 30
2177.000
 70
    32
  0
VERTEX
  8
3050LEVEL
 62
5
 10
2375.998
 20
-4882.852
 30
2177.000
 70
    32
  0
VERTEX
  8
3050LEVEL
 62
5
 10
2352.990
 20
-4836.515
 30
2177.000
 70
    32
  0
VERTEX
  8
3050LEVEL
 62
5
 10
2320.953
 20
-4775.858
 30
2177.000
 70
    32
  0
VERTEX
  8
3050LEVEL
 62
5
 10
2295.806
 20
-4727.158
 30
2177.000
 70
    32
  0
VERTEX
  8
3050LEVEL
 62
5
 10
2270.087
 20
-4678.869
 30
2177.000
 70
    32
  0
VERTEX
  8
3050LEVEL
 62
5
 10
2241.196
 20
-4634.606
 30
2177.000
 70
    32
  0
VERTEX
  8
3050LEVEL
 62
5
 10
2205.017
 20
-4580.842
 30
2177.000
 70
    32
  0
VERTEX
  8
3050LEVEL
 62
5
 10
2171.900
 20
-4525.305
 30
2177.000
 70
    32
  0
VERTEX
  8
3050LEVEL
 62
5
 10
2138.370
 20
-4469.197
 30
2177.000
 70
    32
  0
VERTEX
  8
3050LEVEL
 62
5
 10
2107.724
 20
-4417.085
 30
2177.000
 70
    32
  0
VERTEX
  8
3050LEVEL
 62
5
 10
2061.112
 20
-4337.427
 30
2177.000
 70
    32
  0
VERTEX
  8
3050LEVEL
 62
5
 10
2016.149
 20
-4260.052
 30
2177.000
 70
    32
  0
VERTEX
  8
3050LEVEL
 62
5
 10
1979.371
 20
-4200.645
 30
2177.000
 70
    32
  0
VERTEX
  8
3050LEVEL
 62
5
 10
1947.550
 20
-4151.116
 30
2177.000
 70
    32
  0
VERTEX
  8
3050LEVEL
 62
5
 10
1930.060
 20
-4129.879
 30
2177.000
 70
    32
  0
VERTEX
  8
3050LEVEL
 62
5
 10
1945.814
 20
-4164.955
 30
2177.000
 70
    32
  0
VERTEX
  8
3050LEVEL
 62
5
 10
1976.905
 20
-4215.878
 30
2177.000
 70
    32
  0
VERTEX
  8
3050LEVEL
 62
5
 10
2011.670
 20
-4273.700
 30
2177.000
 70
    32
  0
VERTEX
  8
3050LEVEL
 62
5
 10
2047.592
 20
-4333.725
 30
2177.000
 70
    32
  0
VERTEX
  8
3050LEVEL
 62
5
 10
2093.234
 20
-4416.252
 30
2177.000
 70
    32
  0
VERTEX
  8
3050LEVEL
 62
5
 10
2148.256
 20
-4509.375
 30
2177.000
 70
    32
  0
VERTEX
  8
3050LEVEL
 62
5
 10
2203.282
 20
-4594.681
 30
2177.000
 70
    32
  0
VERTEX
  8
3050LEVEL
 62
5
 10
2252.396
 20
-4676.006
 30
2177.000
 70
    32
  0
VERTEX
  8
3050LEVEL
 62
5
 10
2290.185
 20
-4741.629
 30
2177.000
 70
    32
  0
VERTEX
  8
3050LEVEL
 62
5
 10
2332.533
 20
-4819.588
 30
2177.000
 70
    32
  0
VERTEX
  8
3050LEVEL
 62
5
 10
2365.173
 20
-4878.074
 30
2177.000
 70
    32
  0
VERTEX
  8
3050LEVEL
 62
5
 10
2387.868
 20
-4918.561
 30
2177.000
 70
    32
  0
SEQEND
  8
3050LEVEL
  0
POLYLINE
  8
3050LEVEL
 62
5
 66
     1
 70
     9
  0
VERTEX
  8
3050LEVEL
 62
5
 10
1421.515
 20
-3991.077
 30
2177.000
 70
    32
  0
VERTEX
  8
3050LEVEL
 62
5
 10
1413.478
 20
-3961.284
 30
2177.000
 70
    32
  0
VERTEX
  8
3050LEVEL
 62
5
 10
1405.016
 20
-3927.892
 30
2177.000
 70
    32
  0
VERTEX
  8
3050LEVEL
 62
5
 10
1390.984
 20
-3902.424
 30
2177.000
 70
    32
  0
VERTEX
  8
3050LEVEL
 62
5
 10
1372.975
 20
-3875.050
 30
2177.000
 70
    32
  0
VERTEX
  8
3050LEVEL
 62
5
 10
1355.218
 20
-3849.231
 30
2177.000
 70
    32
  0
VERTEX
  8
3050LEVEL
 62
5
 10
1338.537
 20
-3826.107
 30
2177.000
 70
    32
  0
VERTEX
  8
3050LEVEL
 62
5
 10
1324.614
 20
-3806.203
 30
2177.000
 70
    32
  0
VERTEX
  8
3050LEVEL
 62
5
 10
1305.682
 20
-3782.967
 30
2177.000
 70
    32
  0
VERTEX
  8
3050LEVEL
 62
5
 10
1284.771
 20
-3756.385
 30
2177.000
 70
    32
  0
VERTEX
  8
3050LEVEL
 62
5
 10
1268.820
 20
-3731.867
 30
2177.000
 70
    32
  0
VERTEX
  8
3050LEVEL
 62
5
 10
1249.070
 20
-3699.673
 30
2177.000
 70
    32
  0
VERTEX
  8
3050LEVEL
 62
5
 10
1228.224
 20
-3669.571
 30
2177.000
 70
    32
  0
VERTEX
  8
3050LEVEL
 62
5
 10
1205.370
 20
-3630.067
 30
2177.000
 70
    32
  0
VERTEX
  8
3050LEVEL
 62
5
 10
1184.416
 20
-3594.401
 30
2177.000
 70
    32
  0
VERTEX
  8
3050LEVEL
 62
5
 10
1170.085
 20
-3566.111
 30
2177.000
 70
    32
  0
VERTEX
  8
3050LEVEL
 62
5
 10
1152.955
 20
-3525.516
 30
2177.000
 70
    32
  0
VERTEX
  8
3050LEVEL
 62
5
 10
1132.211
 20
-3482.320
 30
2177.000
 70
    32
  0
VERTEX
  8
3050LEVEL
 62
5
 10
1115.442
 20
-3448.844
 30
2177.000
 70
    32
  0
VERTEX
  8
3050LEVEL
 62
5
 10
1094.090
 20
-3415.634
 30
2177.000
 70
    32
  0
VERTEX
  8
3050LEVEL
 62
5
 10
1073.783
 20
-3386.881
 30
2177.000
 70
    32
  0
VERTEX
  8
3050LEVEL
 62
5
 10
1047.171
 20
-3348.786
 30
2177.000
 70
    32
  0
VERTEX
  8
3050LEVEL
 62
5
 10
1038.401
 20
-3354.678
 30
2177.000
 70
    32
  0
VERTEX
  8
3050LEVEL
 62
5
 10
1046.442
 20
-3376.655
 30
2177.000
 70
    32
  0
VERTEX
  8
3050LEVEL
 62
5
 10
1069.730
 20
-3404.127
 30
2177.000
 70
    32
  0
VERTEX
  8
3050LEVEL
 62
5
 10
1084.983
 20
-3428.280
 30
2177.000
 70
    32
  0
VERTEX
  8
3050LEVEL
 62
5
 10
1107.734
 20
-3454.404
 30
2177.000
 70
    32
  0
VERTEX
  8
3050LEVEL
 62
5
 10
1119.468
 20
-3478.492
 30
2177.000
 70
    32
  0
VERTEX
  8
3050LEVEL
 62
5
 10
1132.039
 20
-3506.750
 30
2177.000
 70
    32
  0
VERTEX
  8
3050LEVEL
 62
5
 10
1143.071
 20
-3538.288
 30
2177.000
 70
    32
  0
VERTEX
  8
3050LEVEL
 62
5
 10
1157.973
 20
-3566.167
 30
2177.000
 70
    32
  0
VERTEX
  8
3050LEVEL
 62
5
 10
1175.913
 20
-3604.875
 30
2177.000
 70
    32
  0
VERTEX
  8
3050LEVEL
 62
5
 10
1193.192
 20
-3633.643
 30
2177.000
 70
    32
  0
VERTEX
  8
3050LEVEL
 62
5
 10
1210.247
 20
-3666.913
 30
2177.000
 70
    32
  0
VERTEX
  8
3050LEVEL
 62
5
 10
1228.369
 20
-3692.036
 30
2177.000
 70
    32
  0
VERTEX
  8
3050LEVEL
 62
5
 10
1246.412
 20
-3717.649
 30
2177.000
 70
    32
  0
VERTEX
  8
3050LEVEL
 62
5
 10
1268.053
 20
-3742.837
 30
2177.000
 70
    32
  0
VERTEX
  8
3050LEVEL
 62
5
 10
1289.690
 20
-3775.840
 30
2177.000
 70
    32
  0
VERTEX
  8
3050LEVEL
 62
5
 10
1311.425
 20
-3803.564
 30
2177.000
 70
    32
  0
VERTEX
  8
3050LEVEL
 62
5
 10
1333.240
 20
-3830.797
 30
2177.000
 70
    32
  0
VERTEX
  8
3050LEVEL
 62
5
 10
1356.922
 20
-3863.627
 30
2177.000
 70
    32
  0
VERTEX
  8
3050LEVEL
 62
5
 10
1378.765
 20
-3896.915
 30
2177.000
 70
    32
  0
VERTEX
  8
3050LEVEL
 62
5
 10
1395.132
 20
-3940.664
 30
2177.000
 70
    32
  0
VERTEX
  8
3050LEVEL
 62
5
 10
1409.346
 20
-3979.022
 30
2177.000
 70
    32
  0
VERTEX
  8
3050LEVEL
 62
5
 10
1413.620
 20
-3991.564
 30
2177.000
 70
    32
  0
SEQEND
  8
3050LEVEL
  0
POLYLINE
  8
3050LEVEL
 62
5
 66
     1
 70
     9
  0
VERTEX
  8
3050LEVEL
 62
5
 10
3624.104
 20
-3270.720
 30
2177.000
 70
    32
  0
VERTEX
  8
3050LEVEL
 62
5
 10
3612.001
 20
-3228.670
 30
2177.000
 70
    32
  0
VERTEX
  8
3050LEVEL
 62
5
 10
3602.115
 20
-3188.492
 30
2177.000
 70
    32
  0
VERTEX
  8
3050LEVEL
 62
5
 10
3592.515
 20
-3148.108
 30
2177.000
 70
    32
  0
VERTEX
  8
3050LEVEL
 62
5
 10
3583.224
 20
-3094.914
 30
2177.000
 70
    32
  0
VERTEX
  8
3050LEVEL
 62
5
 10
3579.750
 20
-3043.167
 30
2177.000
 70
    32
  0
VERTEX
  8
3050LEVEL
 62
5
 10
3574.821
 20
-3012.868
 30
2177.000
 70
    32
  0
VERTEX
  8
3050LEVEL
 62
5
 10
3583.207
 20
-3012.461
 30
2177.000
 70
    32
  0
VERTEX
  8
3050LEVEL
 62
5
 10
3587.392
 20
-3041.126
 30
2177.000
 70
    32
  0
VERTEX
  8
3050LEVEL
 62
5
 10
3590.355
 20
-3071.106
 30
2177.000
 70
    32
  0
VERTEX
  8
3050LEVEL
 62
5
 10
3595.411
 20
-3102.182
 30
2177.000
 70
    32
  0
VERTEX
  8
3050LEVEL
 62
5
 10
3602.062
 20
-3142.089
 30
2177.000
 70
    32
  0
VERTEX
  8
3050LEVEL
 62
5
 10
3610.230
 20
-3191.318
 30
2177.000
 70
    32
  0
VERTEX
  8
3050LEVEL
 62
5
 10
3621.366
 20
-3236.237
 30
2177.000
 70
    32
  0
VERTEX
  8
3050LEVEL
 62
5
 10
3631.747
 20
-3268.679
 30
2177.000
 70
    32
  0
SEQEND
  8
3050LEVEL
  0
POLYLINE
  8
3050LEVEL
 62
5
 66
     1
 70
     9
  0
VERTEX
  8
3050LEVEL
 62
5
 10
3320.392
 20
-3620.447
 30
2177.000
 70
    32
  0
VERTEX
  8
3050LEVEL
 62
5
 10
3304.693
 20
-3571.007
 30
2177.000
 70
    32
  0
VERTEX
  8
3050LEVEL
 62
5
 10
3288.377
 20
-3520.711
 30
2177.000
 70
    32
  0
VERTEX
  8
3050LEVEL
 62
5
 10
3271.378
 20
-3473.077
 30
2177.000
 70
    32
  0
VERTEX
  8
3050LEVEL
 62
5
 10
3254.884
 20
-3428.552
 30
2177.000
 70
    32
  0
VERTEX
  8
3050LEVEL
 62
5
 10
3239.387
 20
-3387.213
 30
2177.000
 70
    32
  0
VERTEX
  8
3050LEVEL
 62
5
 10
3231.842
 20
-3357.499
 30
2177.000
 70
    32
  0
VERTEX
  8
3050LEVEL
 62
5
 10
3221.573
 20
-3322.806
 30
2177.000
 70
    32
  0
VERTEX
  8
3050LEVEL
 62
5
 10
3227.947
 20
-3320.812
 30
2177.000
 70
    32
  0
VERTEX
  8
3050LEVEL
 62
5
 10
3234.083
 20
-3346.768
 30
2177.000
 70
    32
  0
VERTEX
  8
3050LEVEL
 62
5
 10
3246.159
 20
-3382.762
 30
2177.000
 70
    32
  0
VERTEX
  8
3050LEVEL
 62
5
 10
3260.991
 20
-3421.976
 30
2177.000
 70
    32
  0
VERTEX
  8
3050LEVEL
 62
5
 10
3275.664
 20
-3462.173
 30
2177.000
 70
    32
  0
VERTEX
  8
3050LEVEL
 62
5
 10
3290.417
 20
-3501.878
 30
2177.000
 70
    32
  0
VERTEX
  8
3050LEVEL
 62
5
 10
3307.857
 20
-3556.138
 30
2177.000
 70
    32
  0
VERTEX
  8
3050LEVEL
 62
5
 10
3325.292
 20
-3618.214
 30
2177.000
 70
    32
  0
SEQEND
  8
3050LEVEL
  0
POLYLINE
  8
3050LEVEL
 62
5
 66
     1
 70
     9
  0
VERTEX
  8
3050LEVEL
 62
5
 10
2999.604
 20
-3915.216
 30
2177.000
 70
    32
  0
VERTEX
  8
3050LEVEL
 62
5
 10
2980.457
 20
-3880.851
 30
2177.000
 70
    32
  0
VERTEX
  8
3050LEVEL
 62
5
 10
2957.467
 20
-3829.726
 30
2177.000
 70
    32
  0
VERTEX
  8
3050LEVEL
 62
5
 10
2924.326
 20
-3760.317
 30
2177.000
 70
    32
  0
VERTEX
  8
3050LEVEL
 62
5
 10
2927.485
 20
-3753.264
 30
2177.000
 70
    32
  0
VERTEX
  8
3050LEVEL
 62
5
 10
2944.254
 20
-3786.740
 30
2177.000
 70
    32
  0
VERTEX
  8
3050LEVEL
 62
5
 10
2961.909
 20
-3825.654
 30
2177.000
 70
    32
  0
VERTEX
  8
3050LEVEL
 62
5
 10
2984.758
 20
-3872.974
 30
2177.000
 70
    32
  0
VERTEX
  8
3050LEVEL
 62
5
 10
3004.490
 20
-3909.955
 30
2177.000
 70
    32
  0
SEQEND
  8
3050LEVEL
  0
POLYLINE
  8
3050LEVEL
 62
5
 66
     1
 70
     9
  0
VERTEX
  8
3050LEVEL
 62
5
 10
2419.351
 20
-3255.225
 30
2177.000
 70
    32
  0
VERTEX
  8
3050LEVEL
 62
5
 10
2384.575
 20
-3160.085
 30
2177.000
 70
    32
  0
VERTEX
  8
3050LEVEL
 62
5
 10
2367.713
 20
-3150.548
 30
2177.000
 70
    32
  0
VERTEX
  8
3050LEVEL
 62
5
 10
2382.667
 20
-3198.354
 30
2177.000
 70
    32
  0
VERTEX
  8
3050LEVEL
 62
5
 10
2396.708
 20
-3234.666
 30
2177.000
 70
    32
  0
SEQEND
  8
3050LEVEL
  0
POLYLINE
  8
3050LEVEL
 62
5
 66
     1
 70
     9
  0
VERTEX
  8
3050LEVEL
 62
5
 10
2467.697
 20
-3294.569
 30
2177.000
 70
    32
  0
VERTEX
  8
3050LEVEL
 62
5
 10
2441.950
 20
-3240.225
 30
2177.000
 70
    32
  0
VERTEX
  8
3050LEVEL
 62
5
 10
2412.366
 20
-3187.781
 30
2177.000
 70
    32
  0
VERTEX
  8
3050LEVEL
 62
5
 10
2400.544
 20
-3179.816
 30
2177.000
 70
    32
  0
VERTEX
  8
3050LEVEL
 62
5
 10
2427.320
 20
-3235.587
 30
2177.000
 70
    32
  0
VERTEX
  8
3050LEVEL
 62
5
 10
2454.920
 20
-3292.501
 30
2177.000
 70
    32
  0
SEQEND
  8
3050LEVEL
  0
POLYLINE
  8
3050LEVEL
 62
5
 66
     1
 70
     9
  0
VERTEX
  8
3050LEVEL
 62
5
 10
2790.584
 20
-3625.455
 30
2177.000
 70
    32
  0
VERTEX
  8
3050LEVEL
 62
5
 10
2784.829
 20
-3681.256
 30
2177.000
 70
    32
  0
VERTEX
  8
3050LEVEL
 62
5
 10
2797.938
 20
-3684.386
 30
2177.000
 70
    32
  0
VERTEX
  8
3050LEVEL
 62
5
 10
2799.723
 20
-3724.766
 30
2177.000
 70
    32
  0
VERTEX
  8
3050LEVEL
 62
5
 10
2811.821
 20
-3748.157
 30
2177.000
 70
    32
  0
VERTEX
  8
3050LEVEL
 62
5
 10
2811.932
 20
-3692.955
 30
2177.000
 70
    32
  0
SEQEND
  8
3050LEVEL
  0
POLYLINE
  8
3050LEVEL
 62
5
 66
     1
 70
     9
  0
VERTEX
  8
3050LEVEL
 62
5
 10
2722.871
 20
-3548.432
 30
2177.000
 70
    32
  0
VERTEX
  8
3050LEVEL
 62
5
 10
2715.095
 20
-3618.278
 30
2177.000
 70
    32
  0
VERTEX
  8
3050LEVEL
 62
5
 10
2741.252
 20
-3646.718
 30
2177.000
 70
    32
  0
VERTEX
  8
3050LEVEL
 62
5
 10
2744.532
 20
-3595.307
 30
2177.000
 70
    32
  0
SEQEND
  8
3050LEVEL
  0
POLYLINE
  8
3050LEVEL
 62
5
 66
     1
 70
     9
  0
VERTEX
  8
3050LEVEL
 62
5
 10
2638.978
 20
-3459.209
 30
2177.000
 70
    32
  0
VERTEX
  8
3050LEVEL
 62
5
 10
2645.700
 20
-3487.781
 30
2177.000
 70
    32
  0
VERTEX
  8
3050LEVEL
 62
5
 10
2666.442
 20
-3504.502
 30
2177.000
 70
    32
  0
VERTEX
  8
3050LEVEL
 62
5
 10
2662.970
 20
-3532.180
 30
2177.000
 70
    32
  0
VERTEX
  8
3050LEVEL
 62
5
 10
2703.885
 20
-3592.510
 30
2177.000
 70
    32
  0
VERTEX
  8
3050LEVEL
 62
5
 10
2694.693
 20
-3560.513
 30
2177.000
 70
    32
  0
VERTEX
  8
3050LEVEL
 62
5
 10
2695.932
 20
-3527.935
 30
2177.000
 70
    32
  0
SEQEND
  8
3050LEVEL
  0
POLYLINE
  8
3050LEVEL
 62
5
 66
     1
 70
     9
  0
VERTEX
  8
3050LEVEL
 62
5
 10
2592.667
 20
-3382.373
 30
2177.000
 70
    32
  0
VERTEX
  8
3050LEVEL
 62
5
 10
2592.616
 20
-3415.396
 30
2177.000
 70
    32
  0
VERTEX
  8
3050LEVEL
 62
5
 10
2600.755
 20
-3432.094
 30
2177.000
 70
    32
  0
VERTEX
  8
3050LEVEL
 62
5
 10
2605.174
 20
-3467.101
 30
2177.000
 70
    32
  0
VERTEX
  8
3050LEVEL
 62
5
 10
2612.733
 20
-3473.367
 30
2177.000
 70
    32
  0
VERTEX
  8
3050LEVEL
 62
5
 10
2614.846
 20
-3408.909
 30
2177.000
 70
    32
  0
SEQEND
  8
3050LEVEL
  0
POLYLINE
  8
3050LEVEL
 62
7
 66
     1
 70
     8
  0
VERTEX
  8
3050LEVEL
 62
7
 10
2883.007
 20
-4964.168
 30
2177.000
 70
    32
  0
VERTEX
  8
3050LEVEL
 62
7
 10
2857.565
 20
-4931.305
 30
2177.000
 70
    32
  0
VERTEX
  8
3050LEVEL
 62
7
 10
2833.139
 20
-4896.842
 30
2177.000
 70
    32
  0
VERTEX
  8
3050LEVEL
 62
7
 10
2794.162
 20
-4857.250
 30
2177.000
 70
    32
  0
VERTEX
  8
3050LEVEL
 62
7
 10
2761.461
 20
-4820.943
 30
2177.000
 70
    32
  0
VERTEX
  8
3050LEVEL
 62
7
 10
2733.605
 20
-4796.766
 30
2177.000
 70
    32
  0
VERTEX
  8
3050LEVEL
 62
7
 10
2711.618
 20
-4793.963
 30
2177.000
 70
    32
  0
VERTEX
  8
3050LEVEL
 62
7
 10
2731.785
 20
-4818.912
 30
2177.000
 70
    32
  0
VERTEX
  8
3050LEVEL
 62
7
 10
2770.462
 20
-4855.682
 30
2177.000
 70
    32
  0
VERTEX
  8
3050LEVEL
 62
7
 10
2805.400
 20
-4889.074
 30
2177.000
 70
    32
  0
VERTEX
  8
3050LEVEL
 62
7
 10
2819.871
 20
-4921.169
 30
2177.000
 70
    32
  0
VERTEX
  8
3050LEVEL
 62
7
 10
2798.011
 20
-4919.143
 30
2177.000
 70
    32
  0
VERTEX
  8
3050LEVEL
 62
7
 10
2791.117
 20
-4941.477
 30
2177.000
 70
    32
  0
VERTEX
  8
3050LEVEL
 62
7
 10
2811.589
 20
-4987.907
 30
2177.000
 70
    32
  0
VERTEX
  8
3050LEVEL
 62
7
 10
2845.423
 20
-5039.022
 30
2177.000
 70
    32
  0
VERTEX
  8
3050LEVEL
 62
7
 10
2871.235
 20
-5089.847
 30
2177.000
 70
    32
  0
VERTEX
  8
3050LEVEL
 62
7
 10
2904.334
 20
-5150.172
 30
2177.000
 70
    32
  0
VERTEX
  8
3050LEVEL
 62
7
 10
2925.705
 20
-5205.069
 30
2177.000
 70
    32
  0
VERTEX
  8
3050LEVEL
 62
7
 10
2948.424
 20
-5259.427
 30
2177.000
 70
    32
  0
VERTEX
  8
3050LEVEL
 62
7
 10
2966.073
 20
-5306.157
 30
2177.000
 70
    32
  0
VERTEX
  8
3050LEVEL
 62
7
 10
2970.066
 20
-5337.565
 30
2177.000
 70
    32
  0
VERTEX
  8
3050LEVEL
 62
7
 10
2994.591
 20
-5366.749
 30
2177.000
 70
    32
  0
VERTEX
  8
3050LEVEL
 62
7
 10
3031.588
 20
-5402.995
 30
2177.000
 70
    32
  0
VERTEX
  8
3050LEVEL
 62
7
 10
3063.703
 20
-5436.686
 30
2177.000
 70
    32
  0
VERTEX
  8
3050LEVEL
 62
7
 10
3037.013
 20
-5425.558
 30
2177.000
 70
    32
  0
VERTEX
  8
3050LEVEL
 62
7
 10
2999.445
 20
-5389.724
 30
2177.000
 70
    32
  0
VERTEX
  8
3050LEVEL
 62
7
 10
2970.231
 20
-5355.242
 30
2177.000
 70
    32
  0
VERTEX
  8
3050LEVEL
 62
7
 10
2946.408
 20
-5318.607
 30
2177.000
 70
    32
  0
VERTEX
  8
3050LEVEL
 62
7
 10
2914.156
 20
-5273.295
 30
2177.000
 70
    32
  0
VERTEX
  8
3050LEVEL
 62
7
 10
2884.694
 20
-5229.444
 30
2177.000
 70
    32
  0
VERTEX
  8
3050LEVEL
 62
7
 10
2852.728
 20
-5183.926
 30
2177.000
 70
    32
  0
VERTEX
  8
3050LEVEL
 62
7
 10
2818.043
 20
-5152.089
 30
2177.000
 70
    32
  0
VERTEX
  8
3050LEVEL
 62
7
 10
2782.441
 20
-5116.573
 30
2177.000
 70
    32
  0
VERTEX
  8
3050LEVEL
 62
7
 10
2758.665
 20
-5081.206
 30
2177.000
 70
    32
  0
VERTEX
  8
3050LEVEL
 62
7
 10
2731.342
 20
-5039.718
 30
2177.000
 70
    32
  0
VERTEX
  8
3050LEVEL
 62
7
 10
2691.111
 20
-5003.200
 30
2177.000
 70
    32
  0
VERTEX
  8
3050LEVEL
 62
7
 10
2669.077
 20
-4999.129
 30
2177.000
 70
    32
  0
VERTEX
  8
3050LEVEL
 62
7
 10
2701.618
 20
-5036.419
 30
2177.000
 70
    32
  0
VERTEX
  8
3050LEVEL
 62
7
 10
2724.762
 20
-5067.902
 30
2177.000
 70
    32
  0
VERTEX
  8
3050LEVEL
 62
7
 10
2712.534
 20
-5078.025
 30
2177.000
 70
    32
  0
VERTEX
  8
3050LEVEL
 62
7
 10
2683.339
 20
-5065.230
 30
2177.000
 70
    32
  0
VERTEX
  8
3050LEVEL
 62
7
 10
2649.506
 20
-5040.591
 30
2177.000
 70
    32
  0
VERTEX
  8
3050LEVEL
 62
7
 10
2618.613
 20
-5032.060
 30
2177.000
 70
    32
  0
VERTEX
  8
3050LEVEL
 62
7
 10
2586.751
 20
-5026.398
 30
2177.000
 70
    32
  0
VERTEX
  8
3050LEVEL
 62
7
 10
2562.929
 20
-5016.238
 30
2177.000
 70
    32
  0
VERTEX
  8
3050LEVEL
 62
7
 10
2546.581
 20
-4994.177
 30
2177.000
 70
    32
  0
VERTEX
  8
3050LEVEL
 62
7
 10
2523.868
 20
-4984.953
 30
2177.000
 70
    32
  0
VERTEX
  8
3050LEVEL
 62
7
 10
2539.893
 20
-5016.796
 30
2177.000
 70
    32
  0
VERTEX
  8
3050LEVEL
 62
7
 10
2565.986
 20
-5048.755
 30
2177.000
 70
    32
  0
VERTEX
  8
3050LEVEL
 62
7
 10
2597.100
 20
-5087.075
 30
2177.000
 70
    32
  0
VERTEX
  8
3050LEVEL
 62
7
 10
2622.209
 20
-5092.400
 30
2177.000
 70
    32
  0
VERTEX
  8
3050LEVEL
 62
7
 10
2643.994
 20
-5087.101
 30
2177.000
 70
    32
  0
VERTEX
  8
3050LEVEL
 62
7
 10
2684.403
 20
-5117.848
 30
2177.000
 70
    32
  0
VERTEX
  8
3050LEVEL
 62
7
 10
2729.819
 20
-5151.927
 30
2177.000
 70
    32
  0
VERTEX
  8
3050LEVEL
 62
7
 10
2765.768
 20
-5191.534
 30
2177.000
 70
    32
  0
VERTEX
  8
3050LEVEL
 62
7
 10
2799.938
 20
-5235.895
 30
2177.000
 70
    32
  0
VERTEX
  8
3050LEVEL
 62
7
 10
2822.095
 20
-5275.034
 30
2177.000
 70
    32
  0
VERTEX
  8
3050LEVEL
 62
7
 10
2834.503
 20
-5312.090
 30
2177.000
 70
    32
  0
VERTEX
  8
3050LEVEL
 62
7
 10
2866.202
 20
-5353.026
 30
2177.000
 70
    32
  0
VERTEX
  8
3050LEVEL
 62
7
 10
2903.419
 20
-5392.586
 30
2177.000
 70
    32
  0
VERTEX
  8
3050LEVEL
 62
7
 10
2941.895
 20
-5421.255
 30
2177.000
 70
    32
  0
VERTEX
  8
3050LEVEL
 62
7
 10
2987.240
 20
-5440.194
 30
2177.000
 70
    32
  0
VERTEX
  8
3050LEVEL
 62
7
 10
3035.138
 20
-5488.542
 30
2177.000
 70
    32
  0
VERTEX
  8
3050LEVEL
 62
7
 10
3076.314
 20
-5534.794
 30
2177.000
 70
    32
  0
VERTEX
  8
3050LEVEL
 62
7
 10
3084.355
 20
-5556.772
 30
2177.000
 70
    32
  0
VERTEX
  8
3050LEVEL
 62
7
 10
3048.542
 20
-5528.786
 30
2177.000
 70
    32
  0
VERTEX
  8
3050LEVEL
 62
7
 10
3003.000
 20
-5493.930
 30
2177.000
 70
    32
  0
VERTEX
  8
3050LEVEL
 62
7
 10
2983.390
 20
-5492.016
 30
2177.000
 70
    32
  0
VERTEX
  8
3050LEVEL
 62
7
 10
3001.283
 20
-5529.456
 30
2177.000
 70
    32
  0
VERTEX
  8
3050LEVEL
 62
7
 10
3018.385
 20
-5563.995
 30
2177.000
 70
    32
  0
VERTEX
  8
3050LEVEL
 62
7
 10
3031.654
 20
-5592.618
 30
2177.000
 70
    32
  0
SEQEND
  8
3050LEVEL
  0
POLYLINE
  8
3050LEVEL
 62
7
 66
     1
 70
     9
  0
VERTEX
  8
3050LEVEL
 62
7
 10
1862.523
 20
-4494.135
 30
2177.000
 70
    32
  0
VERTEX
  8
3050LEVEL
 62
7
 10
1877.017
 20
-4513.627
 30
2177.000
 70
    32
  0
VERTEX
  8
3050LEVEL
 62
7
 10
1881.174
 20
-4536.236
 30
2177.000
 70
    32
  0
VERTEX
  8
3050LEVEL
 62
7
 10
1857.301
 20
-4532.624
 30
2177.000
 70
    32
  0
VERTEX
  8
3050LEVEL
 62
7
 10
1839.258
 20
-4507.011
 30
2177.000
 70
    32
  0
VERTEX
  8
3050LEVEL
 62
7
 10
1832.294
 20
-4487.729
 30
2177.000
 70
    32
  0
VERTEX
  8
3050LEVEL
 62
7
 10
1854.866
 20
-4493.148
 30
2177.000
 70
    32
  0
SEQEND
  8
3050LEVEL
  0
POLYLINE
  8
3050LEVEL
 62
7
 66
     1
 70
     9
  0
VERTEX
  8
3050LEVEL
 62
7
 10
1050.611
 20
-4016.009
 30
2177.000
 70
    32
  0
VERTEX
  8
3050LEVEL
 62
7
 10
1059.190
 20
-4039.334
 30
2177.000
 70
    32
  0
VERTEX
  8
3050LEVEL
 62
7
 10
1057.070
 20
-4058.658
 30
2177.000
 70
    32
  0
VERTEX
  8
3050LEVEL
 62
7
 10
1070.307
 20
-4089.041
 30
2177.000
 70
    32
  0
VERTEX
  8
3050LEVEL
 62
7
 10
1050.800
 20
-4074.033
 30
2177.000
 70
    32
  0
VERTEX
  8
3050LEVEL
 62
7
 10
1035.561
 20
-4052.907
 30
2177.000
 70
    32
  0
VERTEX
  8
3050LEVEL
 62
7
 10
1036.856
 20
-4032.441
 30
2177.000
 70
    32
  0
VERTEX
  8
3050LEVEL
 62
7
 10
1044.807
 20
-4017.591
 30
2177.000
 70
    32
  0
SEQEND
  8
3050LEVEL
  0
POLYLINE
  8
3050LEVEL
 62
7
 66
     1
 70
     8
  0
VERTEX
  8
3050LEVEL
 62
7
 10
930.563
 20
-4220.227
 30
2177.000
 70
    32
  0
VERTEX
  8
3050LEVEL
 62
7
 10
896.716
 20
-4166.085
 30
2177.000
 70
    32
  0
VERTEX
  8
3050LEVEL
 62
7
 10
870.759
 20
-4119.271
 30
2177.000
 70
    32
  0
VERTEX
  8
3050LEVEL
 62
7
 10
839.377
 20
-4076.369
 30
2177.000
 70
    32
  0
VERTEX
  8
3050LEVEL
 62
7
 10
817.146
 20
-4029.906
 30
2177.000
 70
    32
  0
VERTEX
  8
3050LEVEL
 62
7
 10
794.539
 20
-3973.297
 30
2177.000
 70
    32
  0
VERTEX
  8
3050LEVEL
 62
7
 10
757.022
 20
-3904.440
 30
2177.000
 70
    32
  0
VERTEX
  8
3050LEVEL
 62
7
 10
714.759
 20
-3818.173
 30
2177.000
 70
    32
  0
VERTEX
  8
3050LEVEL
 62
7
 10
670.961
 20
-3753.847
 30
2177.000
 70
    32
  0
VERTEX
  8
3050LEVEL
 62
7
 10
646.038
 20
-3700.645
 30
2177.000
 70
    32
  0
VERTEX
  8
3050LEVEL
 62
7
 10
610.459
 20
-3652.525
 30
2177.000
 70
    32
  0
VERTEX
  8
3050LEVEL
 62
7
 10
607.346
 20
-3634.371
 30
2177.000
 70
    32
  0
VERTEX
  8
3050LEVEL
 62
7
 10
630.625
 20
-3650.999
 30
2177.000
 70
    32
  0
VERTEX
  8
3050LEVEL
 62
7
 10
664.702
 20
-3692.824
 30
2177.000
 70
    32
  0
VERTEX
  8
3050LEVEL
 62
7
 10
705.584
 20
-3754.913
 30
2177.000
 70
    32
  0
VERTEX
  8
3050LEVEL
 62
7
 10
737.213
 20
-3807.184
 30
2177.000
 70
    32
  0
VERTEX
  8
3050LEVEL
 62
7
 10
773.822
 20
-3856.731
 30
2177.000
 70
    32
  0
VERTEX
  8
3050LEVEL
 62
7
 10
813.577
 20
-3922.672
 30
2177.000
 70
    32
  0
VERTEX
  8
3050LEVEL
 62
7
 10
853.827
 20
-3980.877
 30
2177.000
 70
    32
  0
VERTEX
  8
3050LEVEL
 62
7
 10
881.304
 20
-4002.722
 30
2177.000
 70
    32
  0
VERTEX
  8
3050LEVEL
 62
7
 10
871.423
 20
-3954.729
 30
2177.000
 70
    32
  0
VERTEX
  8
3050LEVEL
 62
7
 10
841.025
 20
-3911.986
 30
2177.000
 70
    32
  0
VERTEX
  8
3050LEVEL
 62
7
 10
823.548
 20
-3867.302
 30
2177.000
 70
    32
  0
VERTEX
  8
3050LEVEL
 62
7
 10
813.864
 20
-3808.749
 30
2177.000
 70
    32
  0
VERTEX
  8
3050LEVEL
 62
7
 10
835.173
 20
-3832.875
 30
2177.000
 70
    32
  0
VERTEX
  8
3050LEVEL
 62
7
 10
848.330
 20
-3890.224
 30
2177.000
 70
    32
  0
VERTEX
  8
3050LEVEL
 62
7
 10
871.947
 20
-3926.573
 30
2177.000
 70
    32
  0
VERTEX
  8
3050LEVEL
 62
7
 10
891.801
 20
-3972.147
 30
2177.000
 70
    32
  0
VERTEX
  8
3050LEVEL
 62
7
 10
891.598
 20
-3937.571
 30
2177.000
 70
    32
  0
VERTEX
  8
3050LEVEL
 62
7
 10
881.039
 20
-3884.424
 30
2177.000
 70
    32
  0
VERTEX
  8
3050LEVEL
 62
7
 10
900.485
 20
-3921.612
 30
2177.000
 70
    32
  0
VERTEX
  8
3050LEVEL
 62
7
 10
916.445
 20
-3956.974
 30
2177.000
 70
    32
  0
VERTEX
  8
3050LEVEL
 62
7
 10
947.213
 20
-3991.203
 30
2177.000
 70
    32
  0
VERTEX
  8
3050LEVEL
 62
7
 10
969.936
 20
-4011.270
 30
2177.000
 70
    32
  0
VERTEX
  8
3050LEVEL
 62
7
 10
970.702
 20
-3973.825
 30
2177.000
 70
    32
  0
VERTEX
  8
3050LEVEL
 62
7
 10
978.527
 20
-3958.198
 30
2177.000
 70
    32
  0
VERTEX
  8
3050LEVEL
 62
7
 10
987.771
 20
-4010.123
 30
2177.000
 70
    32
  0
VERTEX
  8
3050LEVEL
 62
7
 10
1003.062
 20
-4051.176
 30
2177.000
 70
    32
  0
VERTEX
  8
3050LEVEL
 62
7
 10
1036.105
 20
-4099.390
 30
2177.000
 70
    32
  0
VERTEX
  8
3050LEVEL
 62
7
 10
1057.624
 20
-4115.985
 30
2177.000
 70
    32
  0
VERTEX
  8
3050LEVEL
 62
7
 10
1046.878
 20
-4084.240
 30
2177.000
 70
    32
  0
VERTEX
  8
3050LEVEL
 62
7
 10
1025.414
 20
-4053.282
 30
2177.000
 70
    32
  0
VERTEX
  8
3050LEVEL
 62
7
 10
1001.086
 20
-4013.539
 30
2177.000
 70
    32
  0
VERTEX
  8
3050LEVEL
 62
7
 10
992.820
 20
-3969.589
 30
2177.000
 70
    32
  0
VERTEX
  8
3050LEVEL
 62
7
 10
969.493
 20
-3925.218
 30
2177.000
 70
    32
  0
VERTEX
  8
3050LEVEL
 62
7
 10
932.172
 20
-3845.803
 30
2177.000
 70
    32
  0
VERTEX
  8
3050LEVEL
 62
7
 10
906.289
 20
-3779.838
 30
2177.000
 70
    32
  0
VERTEX
  8
3050LEVEL
 62
7
 10
888.878
 20
-3731.634
 30
2177.000
 70
    32
  0
VERTEX
  8
3050LEVEL
 62
7
 10
873.765
 20
-3684.810
 30
2177.000
 70
    32
  0
VERTEX
  8
3050LEVEL
 62
7
 10
842.327
 20
-3629.797
 30
2177.000
 70
    32
  0
VERTEX
  8
3050LEVEL
 62
7
 10
809.987
 20
-3574.133
 30
2177.000
 70
    32
  0
VERTEX
  8
3050LEVEL
 62
7
 10
770.771
 20
-3536.015
 30
2177.000
 70
    32
  0
VERTEX
  8
3050LEVEL
 62
7
 10
732.712
 20
-3500.101
 30
2177.000
 70
    32
  0
VERTEX
  8
3050LEVEL
 62
7
 10
731.747
 20
-3468.679
 30
2177.000
 70
    32
  0
VERTEX
  8
3050LEVEL
 62
7
 10
771.729
 20
-3495.827
 30
2177.000
 70
    32
  0
VERTEX
  8
3050LEVEL
 62
7
 10
811.797
 20
-3541.143
 30
2177.000
 70
    32
  0
VERTEX
  8
3050LEVEL
 62
7
 10
845.663
 20
-3590.498
 30
2177.000
 70
    32
  0
VERTEX
  8
3050LEVEL
 62
7
 10
868.287
 20
-3589.370
 30
2177.000
 70
    32
  0
VERTEX
  8
3050LEVEL
 62
7
 10
892.320
 20
-3618.474
 30
2177.000
 70
    32
  0
VERTEX
  8
3050LEVEL
 62
7
 10
917.069
 20
-3669.631
 30
2177.000
 70
    32
  0
VERTEX
  8
3050LEVEL
 62
7
 10
935.400
 20
-3634.273
 30
2177.000
 70
    32
  0
VERTEX
  8
3050LEVEL
 62
7
 10
920.507
 20
-3590.763
 30
2177.000
 70
    32
  0
VERTEX
  8
3050LEVEL
 62
7
 10
886.790
 20
-3529.581
 30
2177.000
 70
    32
  0
VERTEX
  8
3050LEVEL
 62
7
 10
858.277
 20
-3461.173
 30
2177.000
 70
    32
  0
VERTEX
  8
3050LEVEL
 62
7
 10
811.297
 20
-3416.503
 30
2177.000
 70
    32
  0
VERTEX
  8
3050LEVEL
 62
7
 10
782.995
 20
-3367.041
 30
2177.000
 70
    32
  0
VERTEX
  8
3050LEVEL
 62
7
 10
744.996
 20
-3308.948
 30
2177.000
 70
    32
  0
VERTEX
  8
3050LEVEL
 62
7
 10
725.718
 20
-3255.146
 30
2177.000
 70
    32
  0
VERTEX
  8
3050LEVEL
 62
7
 10
722.108
 20
-3218.254
 30
2177.000
 70
    32
  0
VERTEX
  8
3050LEVEL
 62
7
 10
736.266
 20
-3244.499
 30
2177.000
 70
    32
  0
VERTEX
  8
3050LEVEL
 62
7
 10
765.733
 20
-3280.535
 30
2177.000
 70
    32
  0
VERTEX
  8
3050LEVEL
 62
7
 10
810.939
 20
-3322.144
 30
2177.000
 70
    32
  0
VERTEX
  8
3050LEVEL
 62
7
 10
849.897
 20
-3366.524
 30
2177.000
 70
    32
  0
VERTEX
  8
3050LEVEL
 62
7
 10
877.469
 20
-3417.381
 30
2177.000
 70
    32
  0
VERTEX
  8
3050LEVEL
 62
7
 10
924.093
 20
-3473.592
 30
2177.000
 70
    32
  0
VERTEX
  8
3050LEVEL
 62
7
 10
975.365
 20
-3526.017
 30
2177.000
 70
    32
  0
VERTEX
  8
3050LEVEL
 62
7
 10
1029.613
 20
-3584.975
 30
2177.000
 70
    32
  0
VERTEX
  8
3050LEVEL
 62
7
 10
1081.329
 20
-3636.211
 30
2177.000
 70
    32
  0
VERTEX
  8
3050LEVEL
 62
7
 10
1136.144
 20
-3676.098
 30
2177.000
 70
    32
  0
VERTEX
  8
3050LEVEL
 62
7
 10
1179.637
 20
-3718.943
 30
2177.000
 70
    32
  0
VERTEX
  8
3050LEVEL
 62
7
 10
1225.418
 20
-3752.324
 30
2177.000
 70
    32
  0
VERTEX
  8
3050LEVEL
 62
7
 10
1244.064
 20
-3775.766
 30
2177.000
 70
    32
  0
VERTEX
  8
3050LEVEL
 62
7
 10
1222.975
 20
-3754.955
 30
2177.000
 70
    32
  0
VERTEX
  8
3050LEVEL
 62
7
 10
1194.890
 20
-3743.096
 30
2177.000
 70
    32
  0
VERTEX
  8
3050LEVEL
 62
7
 10
1197.820
 20
-3774.836
 30
2177.000
 70
    32
  0
VERTEX
  8
3050LEVEL
 62
7
 10
1247.552
 20
-3830.542
 30
2177.000
 70
    32
  0
VERTEX
  8
3050LEVEL
 62
7
 10
1272.882
 20
-3865.656
 30
2177.000
 70
    32
  0
VERTEX
  8
3050LEVEL
 62
7
 10
1301.337
 20
-3869.001
 30
2177.000
 70
    32
  0
VERTEX
  8
3050LEVEL
 62
7
 10
1315.896
 20
-3858.499
 30
2177.000
 70
    32
  0
VERTEX
  8
3050LEVEL
 62
7
 10
1337.346
 20
-3886.429
 30
2177.000
 70
    32
  0
VERTEX
  8
3050LEVEL
 62
7
 10
1367.365
 20
-3926.840
 30
2177.000
 70
    32
  0
VERTEX
  8
3050LEVEL
 62
7
 10
1397.360
 20
-3953.380
 30
2177.000
 70
    32
  0
VERTEX
  8
3050LEVEL
 62
7
 10
1414.124
 20
-3968.197
 30
2177.000
 70
    32
  0
VERTEX
  8
3050LEVEL
 62
7
 10
1430.383
 20
-3979.906
 30
2177.000
 70
    32
  0
VERTEX
  8
3050LEVEL
 62
7
 10
1434.904
 20
-3975.343
 30
2177.000
 70
    32
  0
VERTEX
  8
3050LEVEL
 62
7
 10
1413.090
 20
-3948.110
 30
2177.000
 70
    32
  0
VERTEX
  8
3050LEVEL
 62
7
 10
1028.137
 20
-3338.644
 30
2177.000
 70
    32
  0
VERTEX
  8
3050LEVEL
 62
7
 10
1020.615
 20
-3322.803
 30
2177.000
 70
    32
  0
VERTEX
  8
3050LEVEL
 62
7
 10
1007.365
 20
-3289.392
 30
2177.000
 70
    32
  0
VERTEX
  8
3050LEVEL
 62
7
 10
1039.434
 20
-3321.815
 30
2177.000
 70
    32
  0
VERTEX
  8
3050LEVEL
 62
7
 10
1080.484
 20
-3367.290
 30
2177.000
 70
    32
  0
VERTEX
  8
3050LEVEL
 62
7
 10
1115.188
 20
-3420.815
 30
2177.000
 70
    32
  0
VERTEX
  8
3050LEVEL
 62
7
 10
1152.237
 20
-3476.988
 30
2177.000
 70
    32
  0
VERTEX
  8
3050LEVEL
 62
7
 10
1192.834
 20
-3539.284
 30
2177.000
 70
    32
  0
VERTEX
  8
3050LEVEL
 62
7
 10
1223.523
 20
-3600.480
 30
2177.000
 70
    32
  0
VERTEX
  8
3050LEVEL
 62
7
 10
1266.403
 20
-3661.127
 30
2177.000
 70
    32
  0
VERTEX
  8
3050LEVEL
 62
7
 10
1308.422
 20
-3703.734
 30
2177.000
 70
    32
  0
VERTEX
  8
3050LEVEL
 62
7
 10
1340.154
 20
-3742.910
 30
2177.000
 70
    32
  0
VERTEX
  8
3050LEVEL
 62
7
 10
1365.957
 20
-3782.891
 30
2177.000
 70
    32
  0
VERTEX
  8
3050LEVEL
 62
7
 10
1394.099
 20
-3833.336
 30
2177.000
 70
    32
  0
VERTEX
  8
3050LEVEL
 62
7
 10
1431.944
 20
-3884.596
 30
2177.000
 70
    32
  0
VERTEX
  8
3050LEVEL
 62
7
 10
1463.887
 20
-3942.717
 30
2177.000
 70
    32
  0
VERTEX
  8
3050LEVEL
 62
7
 10
1501.231
 20
-4009.529
 30
2177.000
 70
    32
  0
VERTEX
  8
3050LEVEL
 62
7
 10
1528.630
 20
-4058.341
 30
2177.000
 70
    32
  0
VERTEX
  8
3050LEVEL
 62
7
 10
1556.183
 20
-4113.986
 30
2177.000
 70
    32
  0
VERTEX
  8
3050LEVEL
 62
7
 10
1586.511
 20
-4168.064
 30
2177.000
 70
    32
  0
VERTEX
  8
3050LEVEL
 62
7
 10
1619.460
 20
-4213.740
 30
2177.000
 70
    32
  0
VERTEX
  8
3050LEVEL
 62
7
 10
1659.523
 20
-4266.872
 30
2177.000
 70
    32
  0
VERTEX
  8
3050LEVEL
 62
7
 10
1710.650
 20
-4323.307
 30
2177.000
 70
    32
  0
VERTEX
  8
3050LEVEL
 62
7
 10
1751.732
 20
-4340.548
 30
2177.000
 70
    32
  0
VERTEX
  8
3050LEVEL
 62
7
 10
1737.990
 20
-4307.057
 30
2177.000
 70
    32
  0
VERTEX
  8
3050LEVEL
 62
7
 10
1764.897
 20
-4329.315
 30
2177.000
 70
    32
  0
VERTEX
  8
3050LEVEL
 62
7
 10
1827.653
 20
-4396.458
 30
2177.000
 70
    32
  0
VERTEX
  8
3050LEVEL
 62
7
 10
1877.241
 20
-4456.175
 30
2177.000
 70
    32
  0
VERTEX
  8
3050LEVEL
 62
7
 10
1906.179
 20
-4501.706
 30
2177.000
 70
    32
  0
VERTEX
  8
3050LEVEL
 62
7
 10
1916.294
 20
-4556.042
 30
2177.000
 70
    32
  0
VERTEX
  8
3050LEVEL
 62
7
 10
1933.981
 20
-4593.196
 30
2177.000
 70
    32
  0
VERTEX
  8
3050LEVEL
 62
7
 10
1969.429
 20
-4648.354
 30
2177.000
 70
    32
  0
VERTEX
  8
3050LEVEL
 62
7
 10
2011.818
 20
-4708.923
 30
2177.000
 70
    32
  0
VERTEX
  8
3050LEVEL
 62
7
 10
2038.061
 20
-4755.531
 30
2177.000
 70
    32
  0
VERTEX
  8
3050LEVEL
 62
7
 10
2050.342
 20
-4791.810
 30
2177.000
 70
    32
  0
VERTEX
  8
3050LEVEL
 62
7
 10
2020.352
 20
-4783.930
 30
2177.000
 70
    32
  0
VERTEX
  8
3050LEVEL
 62
7
 10
2029.793
 20
-4825.297
 30
2177.000
 70
    32
  0
VERTEX
  8
3050LEVEL
 62
7
 10
2055.952
 20
-4880.212
 30
2177.000
 70
    32
  0
VERTEX
  8
3050LEVEL
 62
7
 10
2103.428
 20
-4943.621
 30
2177.000
 70
    32
  0
VERTEX
  8
3050LEVEL
 62
7
 10
2144.684
 20
-4989.382
 30
2177.000
 70
    32
  0
VERTEX
  8
3050LEVEL
 62
7
 10
2195.591
 20
-5042.504
 30
2177.000
 70
    32
  0
VERTEX
  8
3050LEVEL
 62
7
 10
2230.487
 20
-5093.286
 30
2177.000
 70
    32
  0
VERTEX
  8
3050LEVEL
 62
7
 10
2269.993
 20
-5149.858
 30
2177.000
 70
    32
  0
VERTEX
  8
3050LEVEL
 62
7
 10
2296.568
 20
-5197.528
 30
2177.000
 70
    32
  0
VERTEX
  8
3050LEVEL
 62
7
 10
2331.318
 20
-5225.846
 30
2177.000
 70
    32
  0
VERTEX
  8
3050LEVEL
 62
7
 10
2367.678
 20
-5266.024
 30
2177.000
 70
    32
  0
VERTEX
  8
3050LEVEL
 62
7
 10
2397.253
 20
-5307.624
 30
2177.000
 70
    32
  0
VERTEX
  8
3050LEVEL
 62
7
 10
2427.333
 20
-5352.332
 30
2177.000
 70
    32
  0
VERTEX
  8
3050LEVEL
 62
7
 10
2458.284
 20
-5399.450
 30
2177.000
 70
    32
  0
VERTEX
  8
3050LEVEL
 62
7
 10
2508.587
 20
-5454.743
 30
2177.000
 70
    32
  0
VERTEX
  8
3050LEVEL
 62
7
 10
2543.197
 20
-5505.732
 30
2177.000
 70
    32
  0
VERTEX
  8
3050LEVEL
 62
7
 10
2566.406
 20
-5533.695
 30
2177.000
 70
    32
  0
VERTEX
  8
3050LEVEL
 62
7
 10
2563.897
 20
-5513.369
 30
2177.000
 70
    32
  0
VERTEX
  8
3050LEVEL
 62
7
 10
2542.377
 20
-5470.299
 30
2177.000
 70
    32
  0
VERTEX
  8
3050LEVEL
 62
7
 10
2518.311
 20
-5416.479
 30
2177.000
 70
    32
  0
VERTEX
  8
3050LEVEL
 62
7
 10
2488.694
 20
-5365.795
 30
2177.000
 70
    32
  0
VERTEX
  8
3050LEVEL
 62
7
 10
2456.597
 20
-5327.316
 30
2177.000
 70
    32
  0
VERTEX
  8
3050LEVEL
 62
7
 10
2433.649
 20
-5285.276
 30
2177.000
 70
    32
  0
VERTEX
  8
3050LEVEL
 62
7
 10
2402.039
 20
-5254.692
 30
2177.000
 70
    32
  0
VERTEX
  8
3050LEVEL
 62
7
 10
2371.758
 20
-5228.358
 30
2177.000
 70
    32
  0
VERTEX
  8
3050LEVEL
 62
7
 10
2347.819
 20
-5201.790
 30
2177.000
 70
    32
  0
VERTEX
  8
3050LEVEL
 62
7
 10
2338.051
 20
-5178.020
 30
2177.000
 70
    32
  0
VERTEX
  8
3050LEVEL
 62
7
 10
2359.365
 20
-5194.330
 30
2177.000
 70
    32
  0
VERTEX
  8
3050LEVEL
 62
7
 10
2380.117
 20
-5221.895
 30
2177.000
 70
    32
  0
VERTEX
  8
3050LEVEL
 62
7
 10
2404.281
 20
-5243.961
 30
2177.000
 70
    32
  0
VERTEX
  8
3050LEVEL
 62
7
 10
2434.570
 20
-5254.663
 30
2177.000
 70
    32
  0
VERTEX
  8
3050LEVEL
 62
7
 10
2462.295
 20
-5259.403
 30
2177.000
 70
    32
  0
VERTEX
  8
3050LEVEL
 62
7
 10
2471.280
 20
-5238.165
 30
2177.000
 70
    32
  0
VERTEX
  8
3050LEVEL
 62
7
 10
2463.309
 20
-5204.852
 30
2177.000
 70
    32
  0
VERTEX
  8
3050LEVEL
 62
7
 10
2482.329
 20
-5211.966
 30
2177.000
 70
    32
  0
VERTEX
  8
3050LEVEL
 62
7
 10
2486.809
 20
-5251.269
 30
2177.000
 70
    32
  0
VERTEX
  8
3050LEVEL
 62
7
 10
2496.077
 20
-5290.590
 30
2177.000
 70
    32
  0
VERTEX
  8
3050LEVEL
 62
7
 10
2510.703
 20
-5329.519
 30
2177.000
 70
    32
  0
VERTEX
  8
3050LEVEL
 62
7
 10
2530.305
 20
-5373.539
 30
2177.000
 70
    32
  0
VERTEX
  8
3050LEVEL
 62
7
 10
2562.303
 20
-5417.297
 30
2177.000
 70
    32
  0
VERTEX
  8
3050LEVEL
 62
7
 10
2606.475
 20
-5465.294
 30
2177.000
 70
    32
  0
VERTEX
  8
3050LEVEL
 62
7
 10
2661.982
 20
-5513.362
 30
2177.000
 70
    32
  0
VERTEX
  8
3050LEVEL
 62
7
 10
2705.733
 20
-5549.945
 30
2177.000
 70
    32
  0
VERTEX
  8
3050LEVEL
 62
7
 10
2748.973
 20
-5591.236
 30
2177.000
 70
    32
  0
VERTEX
  8
3050LEVEL
 62
7
 10
2784.669
 20
-5629.288
 30
2177.000
 70
    32
  0
VERTEX
  8
3050LEVEL
 62
7
 10
2817.636
 20
-5670.177
 30
2177.000
 70
    32
  0
VERTEX
  8
3050LEVEL
 62
7
 10
2839.306
 20
-5701.421
 30
2177.000
 70
    32
  0
SEQEND
  8
3050LEVEL
  0
POLYLINE
  8
3050LEVEL
 62
5
 66
     1
 70
     9
  0
VERTEX
  8
3050LEVEL
 62
5
 10
2852.966
 20
-3853.767
 30
2177.000
 70
    32
  0
VERTEX
  8
3050LEVEL
 62
5
 10
2869.896
 20
-3911.710
 30
2177.000
 70
    32
  0
VERTEX
  8
3050LEVEL
 62
5
 10
2879.698
 20
-3963.413
 30
2177.000
 70
    32
  0
VERTEX
  8
3050LEVEL
 62
5
 10
2884.153
 20
-4007.093
 30
2177.000
 70
    32
  0
VERTEX
  8
3050LEVEL
 62
5
 10
2912.668
 20
-4109.608
 30
2177.000
 70
    32
  0
VERTEX
  8
3050LEVEL
 62
5
 10
2917.123
 20
-4155.071
 30
2177.000
 70
    32
  0
VERTEX
  8
3050LEVEL
 62
5
 10
2915.341
 20
-4172.009
 30
2177.000
 70
    32
  0
VERTEX
  8
3050LEVEL
 62
5
 10
2916.232
 20
-4206.775
 30
2177.000
 70
    32
  0
VERTEX
  8
3050LEVEL
 62
5
 10
2913.559
 20
-4276.306
 30
2177.000
 70
    32
  0
VERTEX
  8
3050LEVEL
 62
5
 10
2920.688
 20
-4330.684
 30
2177.000
 70
    32
  0
VERTEX
  8
3050LEVEL
 62
5
 10
2923.568
 20
-4395.373
 30
2177.000
 70
    32
  0
VERTEX
  8
3050LEVEL
 62
5
 10
2925.091
 20
-4401.305
 30
2177.000
 70
    32
  0
VERTEX
  8
3050LEVEL
 62
5
 10
2927.376
 20
-4411.900
 30
2177.000
 70
    32
  0
VERTEX
  8
3050LEVEL
 62
5
 10
2928.932
 20
-4423.030
 30
2177.000
 70
    32
  0
VERTEX
  8
3050LEVEL
 62
5
 10
2931.644
 20
-4441.245
 30
2177.000
 70
    32
  0
VERTEX
  8
3050LEVEL
 62
5
 10
2933.478
 20
-4453.341
 30
2177.000
 70
    32
  0
VERTEX
  8
3050LEVEL
 62
5
 10
2939.088
 20
-4475.882
 30
2177.000
 70
    32
  0
VERTEX
  8
3050LEVEL
 62
5
 10
2942.913
 20
-4483.430
 30
2177.000
 70
    32
  0
VERTEX
  8
3050LEVEL
 62
5
 10
2949.817
 20
-4496.902
 30
2177.000
 70
    32
  0
VERTEX
  8
3050LEVEL
 62
5
 10
2954.720
 20
-4506.580
 30
2177.000
 70
    32
  0
VERTEX
  8
3050LEVEL
 62
5
 10
2955.625
 20
-4512.062
 30
2177.000
 70
    32
  0
VERTEX
  8
3050LEVEL
 62
5
 10
2955.305
 20
-4515.549
 30
2177.000
 70
    32
  0
VERTEX
  8
3050LEVEL
 62
5
 10
2953.535
 20
-4523.290
 30
2177.000
 70
    32
  0
VERTEX
  8
3050LEVEL
 62
5
 10
2950.956
 20
-4530.962
 30
2177.000
 70
    32
  0
VERTEX
  8
3050LEVEL
 62
5
 10
2950.159
 20
-4535.702
 30
2177.000
 70
    32
  0
VERTEX
  8
3050LEVEL
 62
5
 10
2952.014
 20
-4544.723
 30
2177.000
 70
    32
  0
VERTEX
  8
3050LEVEL
 62
5
 10
2953.177
 20
-4549.085
 30
2177.000
 70
    32
  0
VERTEX
  8
3050LEVEL
 62
5
 10
2953.692
 20
-4552.889
 30
2177.000
 70
    32
  0
VERTEX
  8
3050LEVEL
 62
5
 10
2953.454
 20
-4557.794
 30
2177.000
 70
    32
  0
VERTEX
  8
3050LEVEL
 62
5
 10
2953.315
 20
-4562.879
 30
2177.000
 70
    32
  0
VERTEX
  8
3050LEVEL
 62
5
 10
2953.479
 20
-4564.901
 30
2177.000
 70
    32
  0
VERTEX
  8
3050LEVEL
 62
5
 10
2956.240
 20
-4574.243
 30
2177.000
 70
    32
  0
VERTEX
  8
3050LEVEL
 62
5
 10
2958.449
 20
-4579.814
 30
2177.000
 70
    32
  0
VERTEX
  8
3050LEVEL
 62
5
 10
2960.552
 20
-4584.533
 30
2177.000
 70
    32
  0
VERTEX
  8
3050LEVEL
 62
5
 10
2962.182
 20
-4588.737
 30
2177.000
 70
    32
  0
VERTEX
  8
3050LEVEL
 62
5
 10
2963.744
 20
-4592.867
 30
2177.000
 70
    32
  0
VERTEX
  8
3050LEVEL
 62
5
 10
2964.705
 20
-4594.427
 30
2177.000
 70
    32
  0
VERTEX
  8
3050LEVEL
 62
5
 10
2965.945
 20
-4596.069
 30
2177.000
 70
    32
  0
VERTEX
  8
3050LEVEL
 62
5
 10
2966.586
 20
-4595.954
 30
2177.000
 70
    32
  0
VERTEX
  8
3050LEVEL
 62
5
 10
2966.492
 20
-4594.819
 30
2177.000
 70
    32
  0
VERTEX
  8
3050LEVEL
 62
5
 10
2965.712
 20
-4593.160
 30
2177.000
 70
    32
  0
VERTEX
  8
3050LEVEL
 62
5
 10
2963.853
 20
-4589.371
 30
2177.000
 70
    32
  0
VERTEX
  8
3050LEVEL
 62
5
 10
2962.056
 20
-4585.797
 30
2177.000
 70
    32
  0
VERTEX
  8
3050LEVEL
 62
5
 10
2961.156
 20
-4582.755
 30
2177.000
 70
    32
  0
VERTEX
  8
3050LEVEL
 62
5
 10
2960.426
 20
-4579.896
 30
2177.000
 70
    32
  0
VERTEX
  8
3050LEVEL
 62
5
 10
2961.213
 20
-4580.530
 30
2177.000
 70
    32
  0
VERTEX
  8
3050LEVEL
 62
5
 10
2962.146
 20
-4581.912
 30
2177.000
 70
    32
  0
VERTEX
  8
3050LEVEL
 62
5
 10
2964.320
 20
-4586.633
 30
2177.000
 70
    32
  0
VERTEX
  8
3050LEVEL
 62
5
 10
2965.969
 20
-4590.343
 30
2177.000
 70
    32
  0
VERTEX
  8
3050LEVEL
 62
5
 10
2967.157
 20
-4593.256
 30
2177.000
 70
    32
  0
VERTEX
  8
3050LEVEL
 62
5
 10
2968.199
 20
-4593.723
 30
2177.000
 70
    32
  0
VERTEX
  8
3050LEVEL
 62
5
 10
2967.895
 20
-4592.508
 30
2177.000
 70
    32
  0
VERTEX
  8
3050LEVEL
 62
5
 10
2967.627
 20
-4590.446
 30
2177.000
 70
    32
  0
VERTEX
  8
3050LEVEL
 62
5
 10
2967.858
 20
-4588.264
 30
2177.000
 70
    32
  0
VERTEX
  8
3050LEVEL
 62
5
 10
2968.386
 20
-4586.624
 30
2177.000
 70
    32
  0
VERTEX
  8
3050LEVEL
 62
5
 10
2969.049
 20
-4586.828
 30
2177.000
 70
    32
  0
VERTEX
  8
3050LEVEL
 62
5
 10
2972.655
 20
-4589.417
 30
2177.000
 70
    32
  0
VERTEX
  8
3050LEVEL
 62
5
 10
2976.300
 20
-4593.598
 30
2177.000
 70
    32
  0
VERTEX
  8
3050LEVEL
 62
5
 10
2981.050
 20
-4600.158
 30
2177.000
 70
    32
  0
VERTEX
  8
3050LEVEL
 62
5
 10
2984.838
 20
-4607.739
 30
2177.000
 70
    32
  0
VERTEX
  8
3050LEVEL
 62
5
 10
2988.490
 20
-4617.754
 30
2177.000
 70
    32
  0
VERTEX
  8
3050LEVEL
 62
5
 10
2992.462
 20
-4627.747
 30
2177.000
 70
    32
  0
VERTEX
  8
3050LEVEL
 62
5
 10
2995.927
 20
-4636.305
 30
2177.000
 70
    32
  0
VERTEX
  8
3050LEVEL
 62
5
 10
3001.094
 20
-4651.580
 30
2177.000
 70
    32
  0
VERTEX
  8
3050LEVEL
 62
5
 10
3007.974
 20
-4666.501
 30
2177.000
 70
    32
  0
VERTEX
  8
3050LEVEL
 62
5
 10
3013.939
 20
-4678.733
 30
2177.000
 70
    32
  0
VERTEX
  8
3050LEVEL
 62
5
 10
3017.198
 20
-4687.141
 30
2177.000
 70
    32
  0
VERTEX
  8
3050LEVEL
 62
5
 10
3034.405
 20
-4685.695
 30
2177.000
 70
    32
  0
VERTEX
  8
3050LEVEL
 62
5
 10
3028.435
 20
-4675.301
 30
2177.000
 70
    32
  0
VERTEX
  8
3050LEVEL
 62
5
 10
3020.488
 20
-4657.967
 30
2177.000
 70
    32
  0
VERTEX
  8
3050LEVEL
 62
5
 10
3010.081
 20
-4635.157
 30
2177.000
 70
    32
  0
VERTEX
  8
3050LEVEL
 62
5
 10
3003.864
 20
-4623.904
 30
2177.000
 70
    32
  0
VERTEX
  8
3050LEVEL
 62
5
 10
2997.045
 20
-4614.360
 30
2177.000
 70
    32
  0
VERTEX
  8
3050LEVEL
 62
5
 10
2988.468
 20
-4600.323
 30
2177.000
 70
    32
  0
VERTEX
  8
3050LEVEL
 62
5
 10
2979.660
 20
-4585.004
 30
2177.000
 70
    32
  0
VERTEX
  8
3050LEVEL
 62
5
 10
2975.168
 20
-4573.929
 30
2177.000
 70
    32
  0
VERTEX
  8
3050LEVEL
 62
5
 10
2973.173
 20
-4566.598
 30
2177.000
 70
    32
  0
VERTEX
  8
3050LEVEL
 62
5
 10
2970.521
 20
-4555.458
 30
2177.000
 70
    32
  0
VERTEX
  8
3050LEVEL
 62
5
 10
2967.790
 20
-4547.107
 30
2177.000
 70
    32
  0
VERTEX
  8
3050LEVEL
 62
5
 10
2966.447
 20
-4537.682
 30
2177.000
 70
    32
  0
VERTEX
  8
3050LEVEL
 62
5
 10
2966.805
 20
-4527.303
 30
2177.000
 70
    32
  0
VERTEX
  8
3050LEVEL
 62
5
 10
2967.978
 20
-4513.456
 30
2177.000
 70
    32
  0
VERTEX
  8
3050LEVEL
 62
5
 10
2967.589
 20
-4501.455
 30
2177.000
 70
    32
  0
VERTEX
  8
3050LEVEL
 62
5
 10
2965.603
 20
-4487.054
 30
2177.000
 70
    32
  0
VERTEX
  8
3050LEVEL
 62
5
 10
2964.204
 20
-4477.273
 30
2177.000
 70
    32
  0
VERTEX
  8
3050LEVEL
 62
5
 10
2959.514
 20
-4457.280
 30
2177.000
 70
    32
  0
VERTEX
  8
3050LEVEL
 62
5
 10
2956.576
 20
-4441.107
 30
2177.000
 70
    32
  0
VERTEX
  8
3050LEVEL
 62
5
 10
2952.774
 20
-4420.161
 30
2177.000
 70
    32
  0
VERTEX
  8
3050LEVEL
 62
5
 10
2949.892
 20
-4394.904
 30
2177.000
 70
    32
  0
VERTEX
  8
3050LEVEL
 62
5
 10
2949.196
 20
-4374.086
 30
2177.000
 70
    32
  0
VERTEX
  8
3050LEVEL
 62
5
 10
2948.470
 20
-4346.302
 30
2177.000
 70
    32
  0
VERTEX
  8
3050LEVEL
 62
5
 10
2947.730
 20
-4319.684
 30
2177.000
 70
    32
  0
VERTEX
  8
3050LEVEL
 62
5
 10
2946.744
 20
-4303.345
 30
2177.000
 70
    32
  0
VERTEX
  8
3050LEVEL
 62
5
 10
2944.989
 20
-4279.902
 30
2177.000
 70
    32
  0
VERTEX
  8
3050LEVEL
 62
5
 10
2943.526
 20
-4264.815
 30
2177.000
 70
    32
  0
VERTEX
  8
3050LEVEL
 62
5
 10
2941.808
 20
-4242.223
 30
2177.000
 70
    32
  0
VERTEX
  8
3050LEVEL
 62
5
 10
2940.312
 20
-4223.635
 30
2177.000
 70
    32
  0
VERTEX
  8
3050LEVEL
 62
5
 10
2938.934
 20
-4203.920
 30
2177.000
 70
    32
  0
VERTEX
  8
3050LEVEL
 62
5
 10
2938.699
 20
-4191.642
 30
2177.000
 70
    32
  0
VERTEX
  8
3050LEVEL
 62
5
 10
2939.198
 20
-4176.990
 30
2177.000
 70
    32
  0
VERTEX
  8
3050LEVEL
 62
5
 10
2939.923
 20
-4166.272
 30
2177.000
 70
    32
  0
VERTEX
  8
3050LEVEL
 62
5
 10
2940.581
 20
-4158.061
 30
2177.000
 70
    32
  0
VERTEX
  8
3050LEVEL
 62
5
 10
2941.812
 20
-4151.359
 30
2177.000
 70
    32
  0
VERTEX
  8
3050LEVEL
 62
5
 10
2944.827
 20
-4139.144
 30
2177.000
 70
    32
  0
VERTEX
  8
3050LEVEL
 62
5
 10
2946.654
 20
-4132.573
 30
2177.000
 70
    32
  0
VERTEX
  8
3050LEVEL
 62
5
 10
2948.548
 20
-4126.075
 30
2177.000
 70
    32
  0
VERTEX
  8
3050LEVEL
 62
5
 10
2948.753
 20
-4121.134
 30
2177.000
 70
    32
  0
VERTEX
  8
3050LEVEL
 62
5
 10
2947.596
 20
-4118.328
 30
2177.000
 70
    32
  0
VERTEX
  8
3050LEVEL
 62
5
 10
2946.573
 20
-4118.251
 30
2177.000
 70
    32
  0
VERTEX
  8
3050LEVEL
 62
5
 10
2944.465
 20
-4119.648
 30
2177.000
 70
    32
  0
VERTEX
  8
3050LEVEL
 62
5
 10
2941.699
 20
-4120.701
 30
2177.000
 70
    32
  0
VERTEX
  8
3050LEVEL
 62
5
 10
2939.793
 20
-4123.203
 30
2177.000
 70
    32
  0
VERTEX
  8
3050LEVEL
 62
5
 10
2938.707
 20
-4126.376
 30
2177.000
 70
    32
  0
VERTEX
  8
3050LEVEL
 62
5
 10
2937.705
 20
-4128.385
 30
2177.000
 70
    32
  0
VERTEX
  8
3050LEVEL
 62
5
 10
2936.257
 20
-4130.058
 30
2177.000
 70
    32
  0
VERTEX
  8
3050LEVEL
 62
5
 10
2934.874
 20
-4129.293
 30
2177.000
 70
    32
  0
VERTEX
  8
3050LEVEL
 62
5
 10
2934.476
 20
-4126.943
 30
2177.000
 70
    32
  0
VERTEX
  8
3050LEVEL
 62
5
 10
2935.225
 20
-4122.520
 30
2177.000
 70
    32
  0
VERTEX
  8
3050LEVEL
 62
5
 10
2936.070
 20
-4117.463
 30
2177.000
 70
    32
  0
VERTEX
  8
3050LEVEL
 62
5
 10
2934.574
 20
-4105.734
 30
2177.000
 70
    32
  0
VERTEX
  8
3050LEVEL
 62
5
 10
2930.074
 20
-4098.265
 30
2177.000
 70
    32
  0
VERTEX
  8
3050LEVEL
 62
5
 10
2928.699
 20
-4093.895
 30
2177.000
 70
    32
  0
VERTEX
  8
3050LEVEL
 62
5
 10
2928.030
 20
-4085.276
 30
2177.000
 70
    32
  0
VERTEX
  8
3050LEVEL
 62
5
 10
2927.955
 20
-4077.671
 30
2177.000
 70
    32
  0
VERTEX
  8
3050LEVEL
 62
5
 10
2926.314
 20
-4071.169
 30
2177.000
 70
    32
  0
VERTEX
  8
3050LEVEL
 62
5
 10
2925.032
 20
-4067.121
 30
2177.000
 70
    32
  0
VERTEX
  8
3050LEVEL
 62
5
 10
2923.885
 20
-4060.638
 30
2177.000
 70
    32
  0
VERTEX
  8
3050LEVEL
 62
5
 10
2923.032
 20
-4056.467
 30
2177.000
 70
    32
  0
VERTEX
  8
3050LEVEL
 62
5
 10
2919.548
 20
-4050.100
 30
2177.000
 70
    32
  0
VERTEX
  8
3050LEVEL
 62
5
 10
2918.132
 20
-4044.137
 30
2177.000
 70
    32
  0
VERTEX
  8
3050LEVEL
 62
5
 10
2918.148
 20
-4038.622
 30
2177.000
 70
    32
  0
VERTEX
  8
3050LEVEL
 62
5
 10
2915.664
 20
-4028.550
 30
2177.000
 70
    32
  0
VERTEX
  8
3050LEVEL
 62
5
 10
2914.756
 20
-4021.441
 30
2177.000
 70
    32
  0
VERTEX
  8
3050LEVEL
 62
5
 10
2914.824
 20
-4017.236
 30
2177.000
 70
    32
  0
VERTEX
  8
3050LEVEL
 62
5
 10
2916.907
 20
-4013.009
 30
2177.000
 70
    32
  0
VERTEX
  8
3050LEVEL
 62
5
 10
2918.481
 20
-4009.998
 30
2177.000
 70
    32
  0
VERTEX
  8
3050LEVEL
 62
5
 10
2918.954
 20
-4004.537
 30
2177.000
 70
    32
  0
VERTEX
  8
3050LEVEL
 62
5
 10
2916.927
 20
-3999.681
 30
2177.000
 70
    32
  0
VERTEX
  8
3050LEVEL
 62
5
 10
2914.049
 20
-3994.046
 30
2177.000
 70
    32
  0
VERTEX
  8
3050LEVEL
 62
5
 10
2911.468
 20
-3989.768
 30
2177.000
 70
    32
  0
VERTEX
  8
3050LEVEL
 62
5
 10
2910.248
 20
-3987.631
 30
2177.000
 70
    32
  0
VERTEX
  8
3050LEVEL
 62
5
 10
2908.488
 20
-3981.442
 30
2177.000
 70
    32
  0
VERTEX
  8
3050LEVEL
 62
5
 10
2907.351
 20
-3978.143
 30
2177.000
 70
    32
  0
VERTEX
  8
3050LEVEL
 62
5
 10
2905.788
 20
-3973.199
 30
2177.000
 70
    32
  0
VERTEX
  8
3050LEVEL
 62
5
 10
2907.087
 20
-3966.570
 30
2177.000
 70
    32
  0
VERTEX
  8
3050LEVEL
 62
5
 10
2906.330
 20
-3962.650
 30
2177.000
 70
    32
  0
VERTEX
  8
3050LEVEL
 62
5
 10
2903.468
 20
-3956.592
 30
2177.000
 70
    32
  0
VERTEX
  8
3050LEVEL
 62
5
 10
2902.331
 20
-3951.595
 30
2177.000
 70
    32
  0
VERTEX
  8
3050LEVEL
 62
5
 10
2901.304
 20
-3944.800
 30
2177.000
 70
    32
  0
VERTEX
  8
3050LEVEL
 62
5
 10
2901.899
 20
-3940.653
 30
2177.000
 70
    32
  0
VERTEX
  8
3050LEVEL
 62
5
 10
2901.894
 20
-3933.935
 30
2177.000
 70
    32
  0
VERTEX
  8
3050LEVEL
 62
5
 10
2900.187
 20
-3928.172
 30
2177.000
 70
    32
  0
VERTEX
  8
3050LEVEL
 62
5
 10
2897.461
 20
-3922.261
 30
2177.000
 70
    32
  0
VERTEX
  8
3050LEVEL
 62
5
 10
2896.297
 20
-3914.506
 30
2177.000
 70
    32
  0
VERTEX
  8
3050LEVEL
 62
5
 10
2896.605
 20
-3909.604
 30
2177.000
 70
    32
  0
VERTEX
  8
3050LEVEL
 62
5
 10
2897.102
 20
-3905.276
 30
2177.000
 70
    32
  0
VERTEX
  8
3050LEVEL
 62
5
 10
2896.404
 20
-3899.060
 30
2177.000
 70
    32
  0
VERTEX
  8
3050LEVEL
 62
5
 10
2892.848
 20
-3890.993
 30
2177.000
 70
    32
  0
VERTEX
  8
3050LEVEL
 62
5
 10
2890.810
 20
-3886.419
 30
2177.000
 70
    32
  0
VERTEX
  8
3050LEVEL
 62
5
 10
2890.352
 20
-3882.086
 30
2177.000
 70
    32
  0
VERTEX
  8
3050LEVEL
 62
5
 10
2890.304
 20
-3879.822
 30
2177.000
 70
    32
  0
VERTEX
  8
3050LEVEL
 62
5
 10
2889.582
 20
-3875.054
 30
2177.000
 70
    32
  0
VERTEX
  8
3050LEVEL
 62
5
 10
2888.091
 20
-3872.624
 30
2177.000
 70
    32
  0
VERTEX
  8
3050LEVEL
 62
5
 10
2886.555
 20
-3868.742
 30
2177.000
 70
    32
  0
VERTEX
  8
3050LEVEL
 62
5
 10
2886.564
 20
-3865.949
 30
2177.000
 70
    32
  0
VERTEX
  8
3050LEVEL
 62
5
 10
2886.378
 20
-3861.027
 30
2177.000
 70
    32
  0
VERTEX
  8
3050LEVEL
 62
5
 10
2884.445
 20
-3858.189
 30
2177.000
 70
    32
  0
VERTEX
  8
3050LEVEL
 62
5
 10
2883.092
 20
-3851.557
 30
2177.000
 70
    32
  0
VERTEX
  8
3050LEVEL
 62
5
 10
2882.442
 20
-3847.606
 30
2177.000
 70
    32
  0
VERTEX
  8
3050LEVEL
 62
5
 10
2881.644
 20
-3840.396
 30
2177.000
 70
    32
  0
VERTEX
  8
3050LEVEL
 62
5
 10
2880.197
 20
-3836.907
 30
2177.000
 70
    32
  0
VERTEX
  8
3050LEVEL
 62
5
 10
2879.034
 20
-3834.242
 30
2177.000
 70
    32
  0
VERTEX
  8
3050LEVEL
 62
5
 10
2877.984
 20
-3832.290
 30
2177.000
 70
    32
  0
VERTEX
  8
3050LEVEL
 62
5
 10
2877.657
 20
-3833.337
 30
2177.000
 70
    32
  0
VERTEX
  8
3050LEVEL
 62
5
 10
2877.751
 20
-3835.356
 30
2177.000
 70
    32
  0
VERTEX
  8
3050LEVEL
 62
5
 10
2877.982
 20
-3837.452
 30
2177.000
 70
    32
  0
VERTEX
  8
3050LEVEL
 62
5
 10
2877.817
 20
-3838.894
 30
2177.000
 70
    32
  0
VERTEX
  8
3050LEVEL
 62
5
 10
2876.831
 20
-3838.783
 30
2177.000
 70
    32
  0
VERTEX
  8
3050LEVEL
 62
5
 10
2876.013
 20
-3836.345
 30
2177.000
 70
    32
  0
VERTEX
  8
3050LEVEL
 62
5
 10
2873.136
 20
-3827.246
 30
2177.000
 70
    32
  0
VERTEX
  8
3050LEVEL
 62
5
 10
2870.224
 20
-3818.994
 30
2177.000
 70
    32
  0
VERTEX
  8
3050LEVEL
 62
5
 10
2869.283
 20
-3815.243
 30
2177.000
 70
    32
  0
VERTEX
  8
3050LEVEL
 62
5
 10
2868.902
 20
-3812.469
 30
2177.000
 70
    32
  0
VERTEX
  8
3050LEVEL
 62
5
 10
2860.021
 20
-3738.561
 30
2177.000
 70
    32
  0
VERTEX
  8
3050LEVEL
 62
5
 10
2846.175
 20
-3665.215
 30
2177.000
 70
    32
  0
VERTEX
  8
3050LEVEL
 62
5
 10
2823.193
 20
-3712.176
 30
2177.000
 70
    32
  0
VERTEX
  8
3050LEVEL
 62
5
 10
2819.281
 20
-3733.227
 30
2177.000
 70
    32
  0
VERTEX
  8
3050LEVEL
 62
5
 10
2827.818
 20
-3747.468
 30
2177.000
 70
    32
  0
VERTEX
  8
3050LEVEL
 62
5
 10
2831.923
 20
-3776.625
 30
2177.000
 70
    32
  0
VERTEX
  8
3050LEVEL
 62
5
 10
2842.273
 20
-3802.955
 30
2177.000
 70
    32
  0
SEQEND
  8
3050LEVEL
  0
POLYLINE
  8
3050LEVEL
 62
13
 66
     1
 70
     9
  0
VERTEX
  8
3050LEVEL
 62
13
 10
3412.394
 20
-4565.785
 30
2177.000
 70
    32
  0
VERTEX
  8
3050LEVEL
 62
13
 10
3420.808
 20
-4588.337
 30
2177.000
 70
    32
  0
VERTEX
  8
3050LEVEL
 62
13
 10
3428.985
 20
-4606.845
 30
2177.000
 70
    32
  0
VERTEX
  8
3050LEVEL
 62
13
 10
3432.184
 20
-4609.336
 30
2177.000
 70
    32
  0
VERTEX
  8
3050LEVEL
 62
13
 10
3432.895
 20
-4606.133
 30
2177.000
 70
    32
  0
VERTEX
  8
3050LEVEL
 62
13
 10
3430.407
 20
-4599.727
 30
2177.000
 70
    32
  0
VERTEX
  8
3050LEVEL
 62
13
 10
3416.220
 20
-4566.474
 30
2177.000
 70
    32
  0
VERTEX
  8
3050LEVEL
 62
13
 10
3414.069
 20
-4561.188
 30
2177.000
 70
    32
  0
VERTEX
  8
3050LEVEL
 62
13
 10
3410.867
 20
-4550.555
 30
2177.000
 70
    32
  0
VERTEX
  8
3050LEVEL
 62
13
 10
3409.429
 20
-4544.273
 30
2177.000
 70
    32
  0
VERTEX
  8
3050LEVEL
 62
13
 10
3407.335
 20
-4536.762
 30
2177.000
 70
    32
  0
VERTEX
  8
3050LEVEL
 62
13
 10
3403.551
 20
-4528.226
 30
2177.000
 70
    32
  0
VERTEX
  8
3050LEVEL
 62
13
 10
3401.215
 20
-4522.296
 30
2177.000
 70
    32
  0
VERTEX
  8
3050LEVEL
 62
13
 10
3395.938
 20
-4510.517
 30
2177.000
 70
    32
  0
VERTEX
  8
3050LEVEL
 62
13
 10
3391.582
 20
-4494.427
 30
2177.000
 70
    32
  0
VERTEX
  8
3050LEVEL
 62
13
 10
3386.578
 20
-4479.477
 30
2177.000
 70
    32
  0
VERTEX
  8
3050LEVEL
 62
13
 10
3381.517
 20
-4465.055
 30
2177.000
 70
    32
  0
VERTEX
  8
3050LEVEL
 62
13
 10
3377.018
 20
-4454.121
 30
2177.000
 70
    32
  0
VERTEX
  8
3050LEVEL
 62
13
 10
3374.176
 20
-4446.756
 30
2177.000
 70
    32
  0
VERTEX
  8
3050LEVEL
 62
13
 10
3371.886
 20
-4437.999
 30
2177.000
 70
    32
  0
VERTEX
  8
3050LEVEL
 62
13
 10
3369.564
 20
-4434.297
 30
2177.000
 70
    32
  0
VERTEX
  8
3050LEVEL
 62
13
 10
3367.510
 20
-4435.237
 30
2177.000
 70
    32
  0
VERTEX
  8
3050LEVEL
 62
13
 10
3366.954
 20
-4436.699
 30
2177.000
 70
    32
  0
VERTEX
  8
3050LEVEL
 62
13
 10
3367.387
 20
-4440.783
 30
2177.000
 70
    32
  0
VERTEX
  8
3050LEVEL
 62
13
 10
3366.480
 20
-4443.044
 30
2177.000
 70
    32
  0
VERTEX
  8
3050LEVEL
 62
13
 10
3363.489
 20
-4443.557
 30
2177.000
 70
    32
  0
VERTEX
  8
3050LEVEL
 62
13
 10
3362.179
 20
-4443.609
 30
2177.000
 70
    32
  0
VERTEX
  8
3050LEVEL
 62
13
 10
3361.734
 20
-4444.969
 30
2177.000
 70
    32
  0
VERTEX
  8
3050LEVEL
 62
13
 10
3360.770
 20
-4447.758
 30
2177.000
 70
    32
  0
VERTEX
  8
3050LEVEL
 62
13
 10
3359.578
 20
-4448.380
 30
2177.000
 70
    32
  0
VERTEX
  8
3050LEVEL
 62
13
 10
3357.405
 20
-4447.053
 30
2177.000
 70
    32
  0
VERTEX
  8
3050LEVEL
 62
13
 10
3356.016
 20
-4446.430
 30
2177.000
 70
    32
  0
VERTEX
  8
3050LEVEL
 62
13
 10
3355.040
 20
-4447.804
 30
2177.000
 70
    32
  0
VERTEX
  8
3050LEVEL
 62
13
 10
3353.758
 20
-4450.615
 30
2177.000
 70
    32
  0
VERTEX
  8
3050LEVEL
 62
13
 10
3354.665
 20
-4451.748
 30
2177.000
 70
    32
  0
VERTEX
  8
3050LEVEL
 62
13
 10
3356.431
 20
-4453.518
 30
2177.000
 70
    32
  0
VERTEX
  8
3050LEVEL
 62
13
 10
3359.788
 20
-4456.132
 30
2177.000
 70
    32
  0
VERTEX
  8
3050LEVEL
 62
13
 10
3361.656
 20
-4457.128
 30
2177.000
 70
    32
  0
VERTEX
  8
3050LEVEL
 62
13
 10
3361.581
 20
-4456.383
 30
2177.000
 70
    32
  0
VERTEX
  8
3050LEVEL
 62
13
 10
3361.557
 20
-4455.250
 30
2177.000
 70
    32
  0
VERTEX
  8
3050LEVEL
 62
13
 10
3361.967
 20
-4454.737
 30
2177.000
 70
    32
  0
VERTEX
  8
3050LEVEL
 62
13
 10
3364.113
 20
-4456.699
 30
2177.000
 70
    32
  0
VERTEX
  8
3050LEVEL
 62
13
 10
3365.356
 20
-4458.271
 30
2177.000
 70
    32
  0
VERTEX
  8
3050LEVEL
 62
13
 10
3366.302
 20
-4458.487
 30
2177.000
 70
    32
  0
VERTEX
  8
3050LEVEL
 62
13
 10
3367.013
 20
-4456.678
 30
2177.000
 70
    32
  0
VERTEX
  8
3050LEVEL
 62
13
 10
3368.525
 20
-4456.033
 30
2177.000
 70
    32
  0
VERTEX
  8
3050LEVEL
 62
13
 10
3369.486
 20
-4457.593
 30
2177.000
 70
    32
  0
VERTEX
  8
3050LEVEL
 62
13
 10
3369.826
 20
-4460.471
 30
2177.000
 70
    32
  0
VERTEX
  8
3050LEVEL
 62
13
 10
3369.306
 20
-4463.667
 30
2177.000
 70
    32
  0
VERTEX
  8
3050LEVEL
 62
13
 10
3370.066
 20
-4464.936
 30
2177.000
 70
    32
  0
VERTEX
  8
3050LEVEL
 62
13
 10
3372.255
 20
-4466.723
 30
2177.000
 70
    32
  0
VERTEX
  8
3050LEVEL
 62
13
 10
3376.334
 20
-4469.826
 30
2177.000
 70
    32
  0
VERTEX
  8
3050LEVEL
 62
13
 10
3376.937
 20
-4471.513
 30
2177.000
 70
    32
  0
VERTEX
  8
3050LEVEL
 62
13
 10
3378.679
 20
-4475.544
 30
2177.000
 70
    32
  0
VERTEX
  8
3050LEVEL
 62
13
 10
3381.410
 20
-4483.895
 30
2177.000
 70
    32
  0
VERTEX
  8
3050LEVEL
 62
13
 10
3386.779
 20
-4498.577
 30
2177.000
 70
    32
  0
VERTEX
  8
3050LEVEL
 62
13
 10
3393.726
 20
-4517.850
 30
2177.000
 70
    32
  0
VERTEX
  8
3050LEVEL
 62
13
 10
3403.435
 20
-4541.303
 30
2177.000
 70
    32
  0
VERTEX
  8
3050LEVEL
 62
13
 10
3406.777
 20
-4551.128
 30
2177.000
 70
    32
  0
SEQEND
  8
3050LEVEL
  0
POLYLINE
  8
3050LEVEL
 62
5
 66
     1
 70
     9
  0
VERTEX
  8
3050LEVEL
 62
5
 10
3095.612
 20
-4763.459
 30
2177.000
 70
    32
  0
VERTEX
  8
3050LEVEL
 62
5
 10
3089.277
 20
-4740.499
 30
2177.000
 70
    32
  0
VERTEX
  8
3050LEVEL
 62
5
 10
3080.369
 20
-4721.605
 30
2177.000
 70
    32
  0
VERTEX
  8
3050LEVEL
 62
5
 10
3074.865
 20
-4711.054
 30
2177.000
 70
    32
  0
VERTEX
  8
3050LEVEL
 62
5
 10
3066.114
 20
-4693.509
 30
2177.000
 70
    32
  0
VERTEX
  8
3050LEVEL
 62
5
 10
3059.448
 20
-4681.991
 30
2177.000
 70
    32
  0
VERTEX
  8
3050LEVEL
 62
5
 10
3051.459
 20
-4669.110
 30
2177.000
 70
    32
  0
VERTEX
  8
3050LEVEL
 62
5
 10
3042.974
 20
-4657.976
 30
2177.000
 70
    32
  0
VERTEX
  8
3050LEVEL
 62
5
 10
3036.400
 20
-4647.664
 30
2177.000
 70
    32
  0
VERTEX
  8
3050LEVEL
 62
5
 10
3031.476
 20
-4640.177
 30
2177.000
 70
    32
  0
VERTEX
  8
3050LEVEL
 62
5
 10
3023.397
 20
-4625.206
 30
2177.000
 70
    32
  0
VERTEX
  8
3050LEVEL
 62
5
 10
3017.264
 20
-4616.185
 30
2177.000
 70
    32
  0
VERTEX
  8
3050LEVEL
 62
5
 10
3009.946
 20
-4604.180
 30
2177.000
 70
    32
  0
VERTEX
  8
3050LEVEL
 62
5
 10
3003.558
 20
-4593.627
 30
2177.000
 70
    32
  0
VERTEX
  8
3050LEVEL
 62
5
 10
2999.575
 20
-4586.498
 30
2177.000
 70
    32
  0
VERTEX
  8
3050LEVEL
 62
5
 10
2994.994
 20
-4580.121
 30
2177.000
 70
    32
  0
VERTEX
  8
3050LEVEL
 62
5
 10
2992.987
 20
-4577.351
 30
2177.000
 70
    32
  0
VERTEX
  8
3050LEVEL
 62
5
 10
2991.686
 20
-4577.192
 30
2177.000
 70
    32
  0
VERTEX
  8
3050LEVEL
 62
5
 10
2991.146
 20
-4577.417
 30
2177.000
 70
    32
  0
VERTEX
  8
3050LEVEL
 62
5
 10
2989.074
 20
-4577.084
 30
2177.000
 70
    32
  0
VERTEX
  8
3050LEVEL
 62
5
 10
2987.939
 20
-4577.178
 30
2177.000
 70
    32
  0
VERTEX
  8
3050LEVEL
 62
5
 10
2986.627
 20
-4578.114
 30
2177.000
 70
    32
  0
VERTEX
  8
3050LEVEL
 62
5
 10
2985.352
 20
-4577.319
 30
2177.000
 70
    32
  0
VERTEX
  8
3050LEVEL
 62
5
 10
2982.710
 20
-4574.523
 30
2177.000
 70
    32
  0
VERTEX
  8
3050LEVEL
 62
5
 10
2980.138
 20
-4571.730
 30
2177.000
 70
    32
  0
VERTEX
  8
3050LEVEL
 62
5
 10
2978.512
 20
-4569.152
 30
2177.000
 70
    32
  0
VERTEX
  8
3050LEVEL
 62
5
 10
2978.810
 20
-4567.927
 30
2177.000
 70
    32
  0
VERTEX
  8
3050LEVEL
 62
5
 10
2979.648
 20
-4568.174
 30
2177.000
 70
    32
  0
VERTEX
  8
3050LEVEL
 62
5
 10
2980.010
 20
-4567.977
 30
2177.000
 70
    32
  0
VERTEX
  8
3050LEVEL
 62
5
 10
2980.175
 20
-4567.418
 30
2177.000
 70
    32
  0
VERTEX
  8
3050LEVEL
 62
5
 10
2980.551
 20
-4566.868
 30
2177.000
 70
    32
  0
VERTEX
  8
3050LEVEL
 62
5
 10
2981.445
 20
-4567.470
 30
2177.000
 70
    32
  0
VERTEX
  8
3050LEVEL
 62
5
 10
2981.700
 20
-4567.304
 30
2177.000
 70
    32
  0
VERTEX
  8
3050LEVEL
 62
5
 10
2981.629
 20
-4563.023
 30
2177.000
 70
    32
  0
VERTEX
  8
3050LEVEL
 62
5
 10
2981.455
 20
-4559.516
 30
2177.000
 70
    32
  0
VERTEX
  8
3050LEVEL
 62
5
 10
2982.812
 20
-4554.056
 30
2177.000
 70
    32
  0
VERTEX
  8
3050LEVEL
 62
5
 10
2983.680
 20
-4551.016
 30
2177.000
 70
    32
  0
VERTEX
  8
3050LEVEL
 62
5
 10
2984.656
 20
-4549.642
 30
2177.000
 70
    32
  0
VERTEX
  8
3050LEVEL
 62
5
 10
2986.415
 20
-4549.856
 30
2177.000
 70
    32
  0
VERTEX
  8
3050LEVEL
 62
5
 10
2989.943
 20
-4553.467
 30
2177.000
 70
    32
  0
VERTEX
  8
3050LEVEL
 62
5
 10
2991.806
 20
-4556.301
 30
2177.000
 70
    32
  0
VERTEX
  8
3050LEVEL
 62
5
 10
2995.296
 20
-4560.830
 30
2177.000
 70
    32
  0
VERTEX
  8
3050LEVEL
 62
5
 10
2997.893
 20
-4563.871
 30
2177.000
 70
    32
  0
VERTEX
  8
3050LEVEL
 62
5
 10
2999.586
 20
-4564.825
 30
2177.000
 70
    32
  0
VERTEX
  8
3050LEVEL
 62
5
 10
3000.781
 20
-4564.132
 30
2177.000
 70
    32
  0
VERTEX
  8
3050LEVEL
 62
5
 10
3002.285
 20
-4565.396
 30
2177.000
 70
    32
  0
VERTEX
  8
3050LEVEL
 62
5
 10
3003.338
 20
-4567.278
 30
2177.000
 70
    32
  0
VERTEX
  8
3050LEVEL
 62
5
 10
3004.493
 20
-4571.851
 30
2177.000
 70
    32
  0
VERTEX
  8
3050LEVEL
 62
5
 10
3005.393
 20
-4574.894
 30
2177.000
 70
    32
  0
VERTEX
  8
3050LEVEL
 62
5
 10
3006.726
 20
-4576.858
 30
2177.000
 70
    32
  0
VERTEX
  8
3050LEVEL
 62
5
 10
3008.381
 20
-4578.730
 30
2177.000
 70
    32
  0
VERTEX
  8
3050LEVEL
 62
5
 10
3008.996
 20
-4580.947
 30
2177.000
 70
    32
  0
VERTEX
  8
3050LEVEL
 62
5
 10
3009.946
 20
-4584.487
 30
2177.000
 70
    32
  0
VERTEX
  8
3050LEVEL
 62
5
 10
3011.449
 20
-4588.332
 30
2177.000
 70
    32
  0
VERTEX
  8
3050LEVEL
 62
5
 10
3013.102
 20
-4591.971
 30
2177.000
 70
    32
  0
VERTEX
  8
3050LEVEL
 62
5
 10
3014.629
 20
-4594.367
 30
2177.000
 70
    32
  0
VERTEX
  8
3050LEVEL
 62
5
 10
3015.943
 20
-4594.245
 30
2177.000
 70
    32
  0
VERTEX
  8
3050LEVEL
 62
5
 10
3014.307
 20
-4590.182
 30
2177.000
 70
    32
  0
VERTEX
  8
3050LEVEL
 62
5
 10
3013.420
 20
-4585.974
 30
2177.000
 70
    32
  0
VERTEX
  8
3050LEVEL
 62
5
 10
3011.568
 20
-4579.462
 30
2177.000
 70
    32
  0
VERTEX
  8
3050LEVEL
 62
5
 10
3008.050
 20
-4572.175
 30
2177.000
 70
    32
  0
VERTEX
  8
3050LEVEL
 62
5
 10
3005.739
 20
-4566.494
 30
2177.000
 70
    32
  0
VERTEX
  8
3050LEVEL
 62
5
 10
3004.842
 20
-4564.264
 30
2177.000
 70
    32
  0
VERTEX
  8
3050LEVEL
 62
5
 10
3004.938
 20
-4563.632
 30
2177.000
 70
    32
  0
VERTEX
  8
3050LEVEL
 62
5
 10
3006.965
 20
-4564.211
 30
2177.000
 70
    32
  0
VERTEX
  8
3050LEVEL
 62
5
 10
3009.306
 20
-4566.605
 30
2177.000
 70
    32
  0
VERTEX
  8
3050LEVEL
 62
5
 10
3011.527
 20
-4569.314
 30
2177.000
 70
    32
  0
VERTEX
  8
3050LEVEL
 62
5
 10
3012.278
 20
-4569.981
 30
2177.000
 70
    32
  0
VERTEX
  8
3050LEVEL
 62
5
 10
3013.386
 20
-4571.406
 30
2177.000
 70
    32
  0
VERTEX
  8
3050LEVEL
 62
5
 10
3014.839
 20
-4572.173
 30
2177.000
 70
    32
  0
VERTEX
  8
3050LEVEL
 62
5
 10
3015.975
 20
-4573.775
 30
2177.000
 70
    32
  0
VERTEX
  8
3050LEVEL
 62
5
 10
3016.911
 20
-4575.087
 30
2177.000
 70
    32
  0
VERTEX
  8
3050LEVEL
 62
5
 10
3017.460
 20
-4573.766
 30
2177.000
 70
    32
  0
VERTEX
  8
3050LEVEL
 62
5
 10
3017.174
 20
-4572.128
 30
2177.000
 70
    32
  0
VERTEX
  8
3050LEVEL
 62
5
 10
3017.309
 20
-4570.578
 30
2177.000
 70
    32
  0
VERTEX
  8
3050LEVEL
 62
5
 10
3017.581
 20
-4569.988
 30
2177.000
 70
    32
  0
VERTEX
  8
3050LEVEL
 62
5
 10
3018.112
 20
-4569.974
 30
2177.000
 70
    32
  0
VERTEX
  8
3050LEVEL
 62
5
 10
3018.675
 20
-4569.184
 30
2177.000
 70
    32
  0
VERTEX
  8
3050LEVEL
 62
5
 10
3018.636
 20
-4568.405
 30
2177.000
 70
    32
  0
VERTEX
  8
3050LEVEL
 62
5
 10
3019.382
 20
-4568.330
 30
2177.000
 70
    32
  0
VERTEX
  8
3050LEVEL
 62
5
 10
3021.057
 20
-4569.707
 30
2177.000
 70
    32
  0
VERTEX
  8
3050LEVEL
 62
5
 10
3022.583
 20
-4572.987
 30
2177.000
 70
    32
  0
VERTEX
  8
3050LEVEL
 62
5
 10
3025.027
 20
-4576.306
 30
2177.000
 70
    32
  0
VERTEX
  8
3050LEVEL
 62
5
 10
3028.556
 20
-4581.613
 30
2177.000
 70
    32
  0
VERTEX
  8
3050LEVEL
 62
5
 10
3030.443
 20
-4585.580
 30
2177.000
 70
    32
  0
VERTEX
  8
3050LEVEL
 62
5
 10
3033.485
 20
-4593.237
 30
2177.000
 70
    32
  0
VERTEX
  8
3050LEVEL
 62
5
 10
3036.834
 20
-4600.340
 30
2177.000
 70
    32
  0
VERTEX
  8
3050LEVEL
 62
5
 10
3042.222
 20
-4612.831
 30
2177.000
 70
    32
  0
VERTEX
  8
3050LEVEL
 62
5
 10
3044.293
 20
-4616.629
 30
2177.000
 70
    32
  0
VERTEX
  8
3050LEVEL
 62
5
 10
3045.555
 20
-4618.590
 30
2177.000
 70
    32
  0
VERTEX
  8
3050LEVEL
 62
5
 10
3046.520
 20
-4619.196
 30
2177.000
 70
    32
  0
VERTEX
  8
3050LEVEL
 62
5
 10
3047.233
 20
-4618.200
 30
2177.000
 70
    32
  0
VERTEX
  8
3050LEVEL
 62
5
 10
3047.371
 20
-4616.579
 30
2177.000
 70
    32
  0
VERTEX
  8
3050LEVEL
 62
5
 10
3048.110
 20
-4614.948
 30
2177.000
 70
    32
  0
VERTEX
  8
3050LEVEL
 62
5
 10
3049.082
 20
-4614.529
 30
2177.000
 70
    32
  0
VERTEX
  8
3050LEVEL
 62
5
 10
3050.201
 20
-4615.671
 30
2177.000
 70
    32
  0
VERTEX
  8
3050LEVEL
 62
5
 10
3051.092
 20
-4618.925
 30
2177.000
 70
    32
  0
VERTEX
  8
3050LEVEL
 62
5
 10
3052.297
 20
-4622.298
 30
2177.000
 70
    32
  0
VERTEX
  8
3050LEVEL
 62
5
 10
3052.677
 20
-4625.072
 30
2177.000
 70
    32
  0
VERTEX
  8
3050LEVEL
 62
5
 10
3053.728
 20
-4627.024
 30
2177.000
 70
    32
  0
VERTEX
  8
3050LEVEL
 62
5
 10
3055.303
 20
-4627.408
 30
2177.000
 70
    32
  0
VERTEX
  8
3050LEVEL
 62
5
 10
3057.352
 20
-4628.305
 30
2177.000
 70
    32
  0
VERTEX
  8
3050LEVEL
 62
5
 10
3059.284
 20
-4630.330
 30
2177.000
 70
    32
  0
VERTEX
  8
3050LEVEL
 62
5
 10
3060.291
 20
-4633.341
 30
2177.000
 70
    32
  0
VERTEX
  8
3050LEVEL
 62
5
 10
3060.845
 20
-4637.041
 30
2177.000
 70
    32
  0
VERTEX
  8
3050LEVEL
 62
5
 10
3061.332
 20
-4640.667
 30
2177.000
 70
    32
  0
VERTEX
  8
3050LEVEL
 62
5
 10
3061.809
 20
-4644.505
 30
2177.000
 70
    32
  0
VERTEX
  8
3050LEVEL
 62
5
 10
3062.607
 20
-4645.741
 30
2177.000
 70
    32
  0
VERTEX
  8
3050LEVEL
 62
5
 10
3063.600
 20
-4646.524
 30
2177.000
 70
    32
  0
VERTEX
  8
3050LEVEL
 62
5
 10
3065.173
 20
-4646.094
 30
2177.000
 70
    32
  0
VERTEX
  8
3050LEVEL
 62
5
 10
3065.856
 20
-4644.107
 30
2177.000
 70
    32
  0
VERTEX
  8
3050LEVEL
 62
5
 10
3066.521
 20
-4640.846
 30
2177.000
 70
    32
  0
VERTEX
  8
3050LEVEL
 62
5
 10
3066.518
 20
-4636.639
 30
2177.000
 70
    32
  0
VERTEX
  8
3050LEVEL
 62
5
 10
3066.057
 20
-4633.261
 30
2177.000
 70
    32
  0
VERTEX
  8
3050LEVEL
 62
5
 10
3065.419
 20
-4630.724
 30
2177.000
 70
    32
  0
VERTEX
  8
3050LEVEL
 62
5
 10
3065.067
 20
-4629.826
 30
2177.000
 70
    32
  0
VERTEX
  8
3050LEVEL
 62
5
 10
3063.945
 20
-4626.173
 30
2177.000
 70
    32
  0
VERTEX
  8
3050LEVEL
 62
5
 10
3062.039
 20
-4621.817
 30
2177.000
 70
    32
  0
VERTEX
  8
3050LEVEL
 62
5
 10
3061.691
 20
-4619.964
 30
2177.000
 70
    32
  0
VERTEX
  8
3050LEVEL
 62
5
 10
3062.888
 20
-4618.387
 30
2177.000
 70
    32
  0
VERTEX
  8
3050LEVEL
 62
5
 10
3065.873
 20
-4620.596
 30
2177.000
 70
    32
  0
VERTEX
  8
3050LEVEL
 62
5
 10
3070.104
 20
-4624.306
 30
2177.000
 70
    32
  0
VERTEX
  8
3050LEVEL
 62
5
 10
3075.438
 20
-4628.699
 30
2177.000
 70
    32
  0
VERTEX
  8
3050LEVEL
 62
5
 10
3077.869
 20
-4630.602
 30
2177.000
 70
    32
  0
VERTEX
  8
3050LEVEL
 62
5
 10
3081.174
 20
-4634.486
 30
2177.000
 70
    32
  0
VERTEX
  8
3050LEVEL
 62
5
 10
3083.970
 20
-4640.400
 30
2177.000
 70
    32
  0
VERTEX
  8
3050LEVEL
 62
5
 10
3086.177
 20
-4647.739
 30
2177.000
 70
    32
  0
VERTEX
  8
3050LEVEL
 62
5
 10
3088.523
 20
-4652.574
 30
2177.000
 70
    32
  0
VERTEX
  8
3050LEVEL
 62
5
 10
3092.607
 20
-4659.000
 30
2177.000
 70
    32
  0
VERTEX
  8
3050LEVEL
 62
5
 10
3094.973
 20
-4663.341
 30
2177.000
 70
    32
  0
VERTEX
  8
3050LEVEL
 62
5
 10
3097.533
 20
-4670.694
 30
2177.000
 70
    32
  0
VERTEX
  8
3050LEVEL
 62
5
 10
3097.885
 20
-4675.871
 30
2177.000
 70
    32
  0
VERTEX
  8
3050LEVEL
 62
5
 10
3098.335
 20
-4686.390
 30
2177.000
 70
    32
  0
VERTEX
  8
3050LEVEL
 62
5
 10
3100.361
 20
-4693.828
 30
2177.000
 70
    32
  0
VERTEX
  8
3050LEVEL
 62
5
 10
3104.717
 20
-4705.640
 30
2177.000
 70
    32
  0
VERTEX
  8
3050LEVEL
 62
5
 10
3109.314
 20
-4716.754
 30
2177.000
 70
    32
  0
VERTEX
  8
3050LEVEL
 62
5
 10
3111.214
 20
-4723.833
 30
2177.000
 70
    32
  0
VERTEX
  8
3050LEVEL
 62
5
 10
3115.454
 20
-4737.585
 30
2177.000
 70
    32
  0
VERTEX
  8
3050LEVEL
 62
5
 10
3117.372
 20
-4743.356
 30
2177.000
 70
    32
  0
VERTEX
  8
3050LEVEL
 62
5
 10
3121.004
 20
-4753.866
 30
2177.000
 70
    32
  0
VERTEX
  8
3050LEVEL
 62
5
 10
3123.573
 20
-4761.007
 30
2177.000
 70
    32
  0
VERTEX
  8
3050LEVEL
 62
5
 10
3127.547
 20
-4773.511
 30
2177.000
 70
    32
  0
VERTEX
  8
3050LEVEL
 62
5
 10
3131.248
 20
-4783.209
 30
2177.000
 70
    32
  0
VERTEX
  8
3050LEVEL
 62
5
 10
3134.732
 20
-4794.738
 30
2177.000
 70
    32
  0
SEQEND
  8
3050LEVEL
  0
POLYLINE
  8
3050LEVEL
 62
5
 66
     1
 70
     9
  0
VERTEX
  8
3050LEVEL
 62
5
 10
2743.192
 20
-4629.757
 30
2177.000
 70
    32
  0
VERTEX
  8
3050LEVEL
 62
5
 10
2740.878
 20
-4626.727
 30
2177.000
 70
    32
  0
VERTEX
  8
3050LEVEL
 62
5
 10
2738.859
 20
-4624.239
 30
2177.000
 70
    32
  0
VERTEX
  8
3050LEVEL
 62
5
 10
2736.732
 20
-4622.667
 30
2177.000
 70
    32
  0
VERTEX
  8
3050LEVEL
 62
5
 10
2735.429
 20
-4621.694
 30
2177.000
 70
    32
  0
VERTEX
  8
3050LEVEL
 62
5
 10
2734.989
 20
-4621.216
 30
2177.000
 70
    32
  0
VERTEX
  8
3050LEVEL
 62
5
 10
2736.157
 20
-4623.739
 30
2177.000
 70
    32
  0
VERTEX
  8
3050LEVEL
 62
5
 10
2738.531
 20
-4627.054
 30
2177.000
 70
    32
  0
VERTEX
  8
3050LEVEL
 62
5
 10
2740.605
 20
-4629.898
 30
2177.000
 70
    32
  0
VERTEX
  8
3050LEVEL
 62
5
 10
2741.335
 20
-4631.059
 30
2177.000
 70
    32
  0
SEQEND
  8
3050LEVEL
  0
POLYLINE
  8
3050LEVEL
 62
5
 66
     1
 70
     9
  0
VERTEX
  8
3050LEVEL
 62
5
 10
2906.852
 20
-4458.570
 30
2177.000
 70
    32
  0
VERTEX
  8
3050LEVEL
 62
5
 10
2908.501
 20
-4464.861
 30
2177.000
 70
    32
  0
VERTEX
  8
3050LEVEL
 62
5
 10
2908.944
 20
-4469.546
 30
2177.000
 70
    32
  0
VERTEX
  8
3050LEVEL
 62
5
 10
2909.768
 20
-4474.424
 30
2177.000
 70
    32
  0
VERTEX
  8
3050LEVEL
 62
5
 10
2910.567
 20
-4476.472
 30
2177.000
 70
    32
  0
VERTEX
  8
3050LEVEL
 62
5
 10
2912.295
 20
-4480.857
 30
2177.000
 70
    32
  0
VERTEX
  8
3050LEVEL
 62
5
 10
2913.781
 20
-4485.126
 30
2177.000
 70
    32
  0
VERTEX
  8
3050LEVEL
 62
5
 10
2914.623
 20
-4488.696
 30
2177.000
 70
    32
  0
VERTEX
  8
3050LEVEL
 62
5
 10
2914.227
 20
-4491.437
 30
2177.000
 70
    32
  0
VERTEX
  8
3050LEVEL
 62
5
 10
2912.298
 20
-4491.923
 30
2177.000
 70
    32
  0
VERTEX
  8
3050LEVEL
 62
5
 10
2909.876
 20
-4488.924
 30
2177.000
 70
    32
  0
VERTEX
  8
3050LEVEL
 62
5
 10
2905.473
 20
-4480.823
 30
2177.000
 70
    32
  0
VERTEX
  8
3050LEVEL
 62
5
 10
2902.638
 20
-4474.130
 30
2177.000
 70
    32
  0
VERTEX
  8
3050LEVEL
 62
5
 10
2898.612
 20
-4464.594
 30
2177.000
 70
    32
  0
VERTEX
  8
3050LEVEL
 62
5
 10
2896.475
 20
-4459.839
 30
2177.000
 70
    32
  0
VERTEX
  8
3050LEVEL
 62
5
 10
2895.495
 20
-4457.889
 30
2177.000
 70
    32
  0
VERTEX
  8
3050LEVEL
 62
5
 10
2894.524
 20
-4455.728
 30
2177.000
 70
    32
  0
VERTEX
  8
3050LEVEL
 62
5
 10
2893.932
 20
-4454.643
 30
2177.000
 70
    32
  0
VERTEX
  8
3050LEVEL
 62
5
 10
2876.950
 20
-4441.213
 30
2177.000
 70
    32
  0
VERTEX
  8
3050LEVEL
 62
5
 10
2877.938
 20
-4443.835
 30
2177.000
 70
    32
  0
VERTEX
  8
3050LEVEL
 62
5
 10
2879.973
 20
-4449.364
 30
2177.000
 70
    32
  0
VERTEX
  8
3050LEVEL
 62
5
 10
2883.236
 20
-4458.514
 30
2177.000
 70
    32
  0
VERTEX
  8
3050LEVEL
 62
5
 10
2887.696
 20
-4468.669
 30
2177.000
 70
    32
  0
VERTEX
  8
3050LEVEL
 62
5
 10
2890.388
 20
-4474.543
 30
2177.000
 70
    32
  0
VERTEX
  8
3050LEVEL
 62
5
 10
2894.388
 20
-4482.133
 30
2177.000
 70
    32
  0
VERTEX
  8
3050LEVEL
 62
5
 10
2897.016
 20
-4485.282
 30
2177.000
 70
    32
  0
VERTEX
  8
3050LEVEL
 62
5
 10
2899.868
 20
-4487.274
 30
2177.000
 70
    32
  0
VERTEX
  8
3050LEVEL
 62
5
 10
2900.393
 20
-4487.401
 30
2177.000
 70
    32
  0
VERTEX
  8
3050LEVEL
 62
5
 10
2900.989
 20
-4487.532
 30
2177.000
 70
    32
  0
VERTEX
  8
3050LEVEL
 62
5
 10
2901.753
 20
-4490.427
 30
2177.000
 70
    32
  0
VERTEX
  8
3050LEVEL
 62
5
 10
2902.163
 20
-4492.495
 30
2177.000
 70
    32
  0
VERTEX
  8
3050LEVEL
 62
5
 10
2902.531
 20
-4493.854
 30
2177.000
 70
    32
  0
VERTEX
  8
3050LEVEL
 62
5
 10
2903.456
 20
-4498.842
 30
2177.000
 70
    32
  0
VERTEX
  8
3050LEVEL
 62
5
 10
2905.243
 20
-4506.093
 30
2177.000
 70
    32
  0
VERTEX
  8
3050LEVEL
 62
5
 10
2906.527
 20
-4510.954
 30
2177.000
 70
    32
  0
VERTEX
  8
3050LEVEL
 62
5
 10
2907.538
 20
-4513.011
 30
2177.000
 70
    32
  0
VERTEX
  8
3050LEVEL
 62
5
 10
2908.016
 20
-4512.571
 30
2177.000
 70
    32
  0
VERTEX
  8
3050LEVEL
 62
5
 10
2908.384
 20
-4511.349
 30
2177.000
 70
    32
  0
VERTEX
  8
3050LEVEL
 62
5
 10
2908.671
 20
-4510.406
 30
2177.000
 70
    32
  0
VERTEX
  8
3050LEVEL
 62
5
 10
2908.461
 20
-4508.630
 30
2177.000
 70
    32
  0
VERTEX
  8
3050LEVEL
 62
5
 10
2908.099
 20
-4507.130
 30
2177.000
 70
    32
  0
VERTEX
  8
3050LEVEL
 62
5
 10
2908.670
 20
-4507.012
 30
2177.000
 70
    32
  0
VERTEX
  8
3050LEVEL
 62
5
 10
2909.569
 20
-4508.357
 30
2177.000
 70
    32
  0
VERTEX
  8
3050LEVEL
 62
5
 10
2910.933
 20
-4510.429
 30
2177.000
 70
    32
  0
VERTEX
  8
3050LEVEL
 62
5
 10
2912.862
 20
-4514.221
 30
2177.000
 70
    32
  0
VERTEX
  8
3050LEVEL
 62
5
 10
2914.430
 20
-4518.210
 30
2177.000
 70
    32
  0
VERTEX
  8
3050LEVEL
 62
5
 10
2915.940
 20
-4521.030
 30
2177.000
 70
    32
  0
VERTEX
  8
3050LEVEL
 62
5
 10
2918.238
 20
-4525.297
 30
2177.000
 70
    32
  0
VERTEX
  8
3050LEVEL
 62
5
 10
2922.120
 20
-4532.316
 30
2177.000
 70
    32
  0
VERTEX
  8
3050LEVEL
 62
5
 10
2925.363
 20
-4538.567
 30
2177.000
 70
    32
  0
VERTEX
  8
3050LEVEL
 62
5
 10
2928.298
 20
-4546.254
 30
2177.000
 70
    32
  0
VERTEX
  8
3050LEVEL
 62
5
 10
2930.086
 20
-4554.318
 30
2177.000
 70
    32
  0
VERTEX
  8
3050LEVEL
 62
5
 10
2933.311
 20
-4565.270
 30
2177.000
 70
    32
  0
VERTEX
  8
3050LEVEL
 62
5
 10
2937.760
 20
-4577.404
 30
2177.000
 70
    32
  0
VERTEX
  8
3050LEVEL
 62
5
 10
2943.608
 20
-4588.182
 30
2177.000
 70
    32
  0
VERTEX
  8
3050LEVEL
 62
5
 10
2947.624
 20
-4594.535
 30
2177.000
 70
    32
  0
VERTEX
  8
3050LEVEL
 62
5
 10
2955.703
 20
-4609.506
 30
2177.000
 70
    32
  0
VERTEX
  8
3050LEVEL
 62
5
 10
2963.870
 20
-4628.334
 30
2177.000
 70
    32
  0
VERTEX
  8
3050LEVEL
 62
5
 10
2967.520
 20
-4640.117
 30
2177.000
 70
    32
  0
VERTEX
  8
3050LEVEL
 62
5
 10
2973.479
 20
-4655.071
 30
2177.000
 70
    32
  0
VERTEX
  8
3050LEVEL
 62
5
 10
2982.575
 20
-4671.958
 30
2177.000
 70
    32
  0
VERTEX
  8
3050LEVEL
 62
5
 10
2990.386
 20
-4691.726
 30
2177.000
 70
    32
  0
VERTEX
  8
3050LEVEL
 62
5
 10
2998.427
 20
-4705.033
 30
2177.000
 70
    32
  0
VERTEX
  8
3050LEVEL
 62
5
 10
3004.519
 20
-4685.097
 30
2177.000
 70
    32
  0
VERTEX
  8
3050LEVEL
 62
5
 10
2993.882
 20
-4669.561
 30
2177.000
 70
    32
  0
VERTEX
  8
3050LEVEL
 62
5
 10
2988.552
 20
-4655.658
 30
2177.000
 70
    32
  0
VERTEX
  8
3050LEVEL
 62
5
 10
2983.178
 20
-4642.814
 30
2177.000
 70
    32
  0
VERTEX
  8
3050LEVEL
 62
5
 10
2974.572
 20
-4621.740
 30
2177.000
 70
    32
  0
VERTEX
  8
3050LEVEL
 62
5
 10
2967.246
 20
-4607.366
 30
2177.000
 70
    32
  0
VERTEX
  8
3050LEVEL
 62
5
 10
2962.273
 20
-4595.104
 30
2177.000
 70
    32
  0
VERTEX
  8
3050LEVEL
 62
5
 10
2958.847
 20
-4589.023
 30
2177.000
 70
    32
  0
VERTEX
  8
3050LEVEL
 62
5
 10
2953.959
 20
-4579.806
 30
2177.000
 70
    32
  0
VERTEX
  8
3050LEVEL
 62
5
 10
2951.818
 20
-4576.005
 30
2177.000
 70
    32
  0
VERTEX
  8
3050LEVEL
 62
5
 10
2946.488
 20
-4570.658
 30
2177.000
 70
    32
  0
VERTEX
  8
3050LEVEL
 62
5
 10
2942.107
 20
-4567.154
 30
2177.000
 70
    32
  0
VERTEX
  8
3050LEVEL
 62
5
 10
2940.851
 20
-4565.051
 30
2177.000
 70
    32
  0
VERTEX
  8
3050LEVEL
 62
5
 10
2940.149
 20
-4557.209
 30
2177.000
 70
    32
  0
VERTEX
  8
3050LEVEL
 62
5
 10
2940.671
 20
-4551.432
 30
2177.000
 70
    32
  0
VERTEX
  8
3050LEVEL
 62
5
 10
2940.735
 20
-4545.601
 30
2177.000
 70
    32
  0
VERTEX
  8
3050LEVEL
 62
5
 10
2938.562
 20
-4535.718
 30
2177.000
 70
    32
  0
VERTEX
  8
3050LEVEL
 62
5
 10
2935.582
 20
-4527.392
 30
2177.000
 70
    32
  0
VERTEX
  8
3050LEVEL
 62
5
 10
2933.675
 20
-4523.919
 30
2177.000
 70
    32
  0
VERTEX
  8
3050LEVEL
 62
5
 10
2931.700
 20
-4520.373
 30
2177.000
 70
    32
  0
VERTEX
  8
3050LEVEL
 62
5
 10
2928.548
 20
-4516.212
 30
2177.000
 70
    32
  0
VERTEX
  8
3050LEVEL
 62
5
 10
2926.383
 20
-4509.582
 30
2177.000
 70
    32
  0
VERTEX
  8
3050LEVEL
 62
5
 10
2924.884
 20
-4506.479
 30
2177.000
 70
    32
  0
VERTEX
  8
3050LEVEL
 62
5
 10
2924.231
 20
-4505.180
 30
2177.000
 70
    32
  0
VERTEX
  8
3050LEVEL
 62
5
 10
2923.096
 20
-4502.693
 30
2177.000
 70
    32
  0
VERTEX
  8
3050LEVEL
 62
5
 10
2922.696
 20
-4502.111
 30
2177.000
 70
    32
  0
VERTEX
  8
3050LEVEL
 62
5
 10
2921.165
 20
-4500.669
 30
2177.000
 70
    32
  0
VERTEX
  8
3050LEVEL
 62
5
 10
2920.607
 20
-4499.621
 30
2177.000
 70
    32
  0
VERTEX
  8
3050LEVEL
 62
5
 10
2920.286
 20
-4496.249
 30
2177.000
 70
    32
  0
VERTEX
  8
3050LEVEL
 62
5
 10
2923.068
 20
-4489.681
 30
2177.000
 70
    32
  0
VERTEX
  8
3050LEVEL
 62
5
 10
2923.595
 20
-4486.344
 30
2177.000
 70
    32
  0
VERTEX
  8
3050LEVEL
 62
5
 10
2923.079
 20
-4476.565
 30
2177.000
 70
    32
  0
VERTEX
  8
3050LEVEL
 62
5
 10
2922.340
 20
-4469.640
 30
2177.000
 70
    32
  0
VERTEX
  8
3050LEVEL
 62
5
 10
2919.518
 20
-4459.199
 30
2177.000
 70
    32
  0
VERTEX
  8
3050LEVEL
 62
5
 10
2918.371
 20
-4455.298
 30
2177.000
 70
    32
  0
VERTEX
  8
3050LEVEL
 62
5
 10
2917.725
 20
-4452.974
 30
2177.000
 70
    32
  0
SEQEND
  8
3050LEVEL
  0
POLYLINE
  8
3050LEVEL
 62
13
 66
     1
 70
     9
  0
VERTEX
  8
3050LEVEL
 62
13
 10
3327.858
 20
-4485.325
 30
2177.000
 70
    32
  0
VERTEX
  8
3050LEVEL
 62
13
 10
3325.249
 20
-4480.869
 30
2177.000
 70
    32
  0
VERTEX
  8
3050LEVEL
 62
13
 10
3323.582
 20
-4479.280
 30
2177.000
 70
    32
  0
VERTEX
  8
3050LEVEL
 62
13
 10
3322.333
 20
-4480.430
 30
2177.000
 70
    32
  0
VERTEX
  8
3050LEVEL
 62
13
 10
3320.472
 20
-4484.384
 30
2177.000
 70
    32
  0
VERTEX
  8
3050LEVEL
 62
13
 10
3318.723
 20
-4485.655
 30
2177.000
 70
    32
  0
VERTEX
  8
3050LEVEL
 62
13
 10
3314.593
 20
-4482.055
 30
2177.000
 70
    32
  0
VERTEX
  8
3050LEVEL
 62
13
 10
3312.578
 20
-4479.497
 30
2177.000
 70
    32
  0
VERTEX
  8
3050LEVEL
 62
13
 10
3310.417
 20
-4479.584
 30
2177.000
 70
    32
  0
VERTEX
  8
3050LEVEL
 62
13
 10
3306.328
 20
-4484.436
 30
2177.000
 70
    32
  0
VERTEX
  8
3050LEVEL
 62
13
 10
3303.457
 20
-4488.030
 30
2177.000
 70
    32
  0
VERTEX
  8
3050LEVEL
 62
13
 10
3298.831
 20
-4488.758
 30
2177.000
 70
    32
  0
VERTEX
  8
3050LEVEL
 62
13
 10
3294.582
 20
-4488.052
 30
2177.000
 70
    32
  0
VERTEX
  8
3050LEVEL
 62
13
 10
3292.918
 20
-4488.974
 30
2177.000
 70
    32
  0
VERTEX
  8
3050LEVEL
 62
13
 10
3287.267
 20
-4493.089
 30
2177.000
 70
    32
  0
VERTEX
  8
3050LEVEL
 62
13
 10
3284.647
 20
-4494.890
 30
2177.000
 70
    32
  0
VERTEX
  8
3050LEVEL
 62
13
 10
3281.829
 20
-4499.794
 30
2177.000
 70
    32
  0
VERTEX
  8
3050LEVEL
 62
13
 10
3278.442
 20
-4504.745
 30
2177.000
 70
    32
  0
VERTEX
  8
3050LEVEL
 62
13
 10
3274.271
 20
-4507.296
 30
2177.000
 70
    32
  0
VERTEX
  8
3050LEVEL
 62
13
 10
3270.750
 20
-4509.519
 30
2177.000
 70
    32
  0
VERTEX
  8
3050LEVEL
 62
13
 10
3267.210
 20
-4514.747
 30
2177.000
 70
    32
  0
VERTEX
  8
3050LEVEL
 62
13
 10
3265.204
 20
-4520.533
 30
2177.000
 70
    32
  0
VERTEX
  8
3050LEVEL
 62
13
 10
3263.802
 20
-4529.632
 30
2177.000
 70
    32
  0
VERTEX
  8
3050LEVEL
 62
13
 10
3263.852
 20
-4541.266
 30
2177.000
 70
    32
  0
VERTEX
  8
3050LEVEL
 62
13
 10
3263.804
 20
-4548.442
 30
2177.000
 70
    32
  0
VERTEX
  8
3050LEVEL
 62
13
 10
3263.883
 20
-4555.092
 30
2177.000
 70
    32
  0
VERTEX
  8
3050LEVEL
 62
13
 10
3263.279
 20
-4558.567
 30
2177.000
 70
    32
  0
VERTEX
  8
3050LEVEL
 62
13
 10
3262.620
 20
-4559.989
 30
2177.000
 70
    32
  0
VERTEX
  8
3050LEVEL
 62
13
 10
3261.611
 20
-4560.443
 30
2177.000
 70
    32
  0
VERTEX
  8
3050LEVEL
 62
13
 10
3260.651
 20
-4556.302
 30
2177.000
 70
    32
  0
VERTEX
  8
3050LEVEL
 62
13
 10
3261.024
 20
-4551.544
 30
2177.000
 70
    32
  0
VERTEX
  8
3050LEVEL
 62
13
 10
3260.821
 20
-4548.743
 30
2177.000
 70
    32
  0
VERTEX
  8
3050LEVEL
 62
13
 10
3260.715
 20
-4547.890
 30
2177.000
 70
    32
  0
VERTEX
  8
3050LEVEL
 62
13
 10
3257.720
 20
-4553.635
 30
2177.000
 70
    32
  0
VERTEX
  8
3050LEVEL
 62
13
 10
3256.773
 20
-4556.884
 30
2177.000
 70
    32
  0
VERTEX
  8
3050LEVEL
 62
13
 10
3256.091
 20
-4557.987
 30
2177.000
 70
    32
  0
VERTEX
  8
3050LEVEL
 62
13
 10
3255.527
 20
-4557.080
 30
2177.000
 70
    32
  0
VERTEX
  8
3050LEVEL
 62
13
 10
3255.112
 20
-4556.851
 30
2177.000
 70
    32
  0
VERTEX
  8
3050LEVEL
 62
13
 10
3253.910
 20
-4558.569
 30
2177.000
 70
    32
  0
VERTEX
  8
3050LEVEL
 62
13
 10
3253.775
 20
-4560.119
 30
2177.000
 70
    32
  0
VERTEX
  8
3050LEVEL
 62
13
 10
3253.473
 20
-4560.602
 30
2177.000
 70
    32
  0
VERTEX
  8
3050LEVEL
 62
13
 10
3252.912
 20
-4559.624
 30
2177.000
 70
    32
  0
VERTEX
  8
3050LEVEL
 62
13
 10
3252.487
 20
-4558.793
 30
2177.000
 70
    32
  0
VERTEX
  8
3050LEVEL
 62
13
 10
3251.709
 20
-4559.645
 30
2177.000
 70
    32
  0
VERTEX
  8
3050LEVEL
 62
13
 10
3251.619
 20
-4561.833
 30
2177.000
 70
    32
  0
VERTEX
  8
3050LEVEL
 62
13
 10
3251.543
 20
-4563.669
 30
2177.000
 70
    32
  0
VERTEX
  8
3050LEVEL
 62
13
 10
3251.449
 20
-4564.230
 30
2177.000
 70
    32
  0
VERTEX
  8
3050LEVEL
 62
13
 10
3250.868
 20
-4559.469
 30
2177.000
 70
    32
  0
VERTEX
  8
3050LEVEL
 62
13
 10
3248.475
 20
-4548.905
 30
2177.000
 70
    32
  0
VERTEX
  8
3050LEVEL
 62
13
 10
3246.717
 20
-4541.832
 30
2177.000
 70
    32
  0
VERTEX
  8
3050LEVEL
 62
13
 10
3244.214
 20
-4531.369
 30
2177.000
 70
    32
  0
VERTEX
  8
3050LEVEL
 62
13
 10
3241.901
 20
-4523.177
 30
2177.000
 70
    32
  0
VERTEX
  8
3050LEVEL
 62
13
 10
3240.951
 20
-4519.638
 30
2177.000
 70
    32
  0
VERTEX
  8
3050LEVEL
 62
13
 10
3242.400
 20
-4519.662
 30
2177.000
 70
    32
  0
VERTEX
  8
3050LEVEL
 62
13
 10
3245.586
 20
-4521.279
 30
2177.000
 70
    32
  0
VERTEX
  8
3050LEVEL
 62
13
 10
3252.654
 20
-4525.636
 30
2177.000
 70
    32
  0
VERTEX
  8
3050LEVEL
 62
13
 10
3255.473
 20
-4526.707
 30
2177.000
 70
    32
  0
VERTEX
  8
3050LEVEL
 62
13
 10
3257.743
 20
-4524.821
 30
2177.000
 70
    32
  0
VERTEX
  8
3050LEVEL
 62
13
 10
3259.985
 20
-4521.060
 30
2177.000
 70
    32
  0
VERTEX
  8
3050LEVEL
 62
13
 10
3260.816
 20
-4513.776
 30
2177.000
 70
    32
  0
VERTEX
  8
3050LEVEL
 62
13
 10
3262.964
 20
-4509.692
 30
2177.000
 70
    32
  0
VERTEX
  8
3050LEVEL
 62
13
 10
3266.590
 20
-4507.509
 30
2177.000
 70
    32
  0
VERTEX
  8
3050LEVEL
 62
13
 10
3276.023
 20
-4497.398
 30
2177.000
 70
    32
  0
VERTEX
  8
3050LEVEL
 62
13
 10
3278.861
 20
-4492.883
 30
2177.000
 70
    32
  0
VERTEX
  8
3050LEVEL
 62
13
 10
3283.008
 20
-4487.504
 30
2177.000
 70
    32
  0
VERTEX
  8
3050LEVEL
 62
13
 10
3284.800
 20
-4486.057
 30
2177.000
 70
    32
  0
VERTEX
  8
3050LEVEL
 62
13
 10
3287.075
 20
-4484.914
 30
2177.000
 70
    32
  0
VERTEX
  8
3050LEVEL
 62
13
 10
3291.295
 20
-4483.745
 30
2177.000
 70
    32
  0
VERTEX
  8
3050LEVEL
 62
13
 10
3294.682
 20
-4483.071
 30
2177.000
 70
    32
  0
VERTEX
  8
3050LEVEL
 62
13
 10
3297.645
 20
-4482.380
 30
2177.000
 70
    32
  0
VERTEX
  8
3050LEVEL
 62
13
 10
3299.908
 20
-4481.519
 30
2177.000
 70
    32
  0
VERTEX
  8
3050LEVEL
 62
13
 10
3302.969
 20
-4479.312
 30
2177.000
 70
    32
  0
VERTEX
  8
3050LEVEL
 62
13
 10
3305.481
 20
-4475.845
 30
2177.000
 70
    32
  0
VERTEX
  8
3050LEVEL
 62
13
 10
3307.459
 20
-4469.881
 30
2177.000
 70
    32
  0
VERTEX
  8
3050LEVEL
 62
13
 10
3307.949
 20
-4466.578
 30
2177.000
 70
    32
  0
VERTEX
  8
3050LEVEL
 62
13
 10
3308.893
 20
-4464.283
 30
2177.000
 70
    32
  0
VERTEX
  8
3050LEVEL
 62
13
 10
3310.741
 20
-4463.193
 30
2177.000
 70
    32
  0
VERTEX
  8
3050LEVEL
 62
13
 10
3312.090
 20
-4465.617
 30
2177.000
 70
    32
  0
VERTEX
  8
3050LEVEL
 62
13
 10
3313.429
 20
-4467.440
 30
2177.000
 70
    32
  0
VERTEX
  8
3050LEVEL
 62
13
 10
3316.095
 20
-4467.091
 30
2177.000
 70
    32
  0
VERTEX
  8
3050LEVEL
 62
13
 10
3318.554
 20
-4465.778
 30
2177.000
 70
    32
  0
VERTEX
  8
3050LEVEL
 62
13
 10
3319.050
 20
-4464.031
 30
2177.000
 70
    32
  0
VERTEX
  8
3050LEVEL
 62
13
 10
3319.908
 20
-4462.086
 30
2177.000
 70
    32
  0
VERTEX
  8
3050LEVEL
 62
13
 10
3321.256
 20
-4461.117
 30
2177.000
 70
    32
  0
VERTEX
  8
3050LEVEL
 62
13
 10
3323.782
 20
-4462.459
 30
2177.000
 70
    32
  0
VERTEX
  8
3050LEVEL
 62
13
 10
3325.719
 20
-4464.342
 30
2177.000
 70
    32
  0
VERTEX
  8
3050LEVEL
 62
13
 10
3326.741
 20
-4467.000
 30
2177.000
 70
    32
  0
VERTEX
  8
3050LEVEL
 62
13
 10
3327.246
 20
-4473.597
 30
2177.000
 70
    32
  0
VERTEX
  8
3050LEVEL
 62
13
 10
3327.753
 20
-4479.310
 30
2177.000
 70
    32
  0
VERTEX
  8
3050LEVEL
 62
13
 10
3327.592
 20
-4481.496
 30
2177.000
 70
    32
  0
VERTEX
  8
3050LEVEL
 62
13
 10
3327.535
 20
-4483.721
 30
2177.000
 70
    32
  0
SEQEND
  8
3050LEVEL
  0
POLYLINE
  8
3050LEVEL
 62
13
 66
     1
 70
     9
  0
VERTEX
  8
3050LEVEL
 62
13
 10
3342.316
 20
-4439.147
 30
2177.000
 70
    32
  0
VERTEX
  8
3050LEVEL
 62
13
 10
3341.030
 20
-4431.775
 30
2177.000
 70
    32
  0
VERTEX
  8
3050LEVEL
 62
13
 10
3338.905
 20
-4425.854
 30
2177.000
 70
    32
  0
VERTEX
  8
3050LEVEL
 62
13
 10
3337.554
 20
-4420.919
 30
2177.000
 70
    32
  0
VERTEX
  8
3050LEVEL
 62
13
 10
3337.582
 20
-4418.516
 30
2177.000
 70
    32
  0
VERTEX
  8
3050LEVEL
 62
13
 10
3338.682
 20
-4417.571
 30
2177.000
 70
    32
  0
VERTEX
  8
3050LEVEL
 62
13
 10
3340.739
 20
-4420.838
 30
2177.000
 70
    32
  0
VERTEX
  8
3050LEVEL
 62
13
 10
3342.160
 20
-4424.963
 30
2177.000
 70
    32
  0
VERTEX
  8
3050LEVEL
 62
13
 10
3344.033
 20
-4432.677
 30
2177.000
 70
    32
  0
VERTEX
  8
3050LEVEL
 62
13
 10
3345.004
 20
-4437.419
 30
2177.000
 70
    32
  0
VERTEX
  8
3050LEVEL
 62
13
 10
3345.503
 20
-4439.879
 30
2177.000
 70
    32
  0
VERTEX
  8
3050LEVEL
 62
13
 10
3345.407
 20
-4442.209
 30
2177.000
 70
    32
  0
SEQEND
  8
3050LEVEL
  0
POLYLINE
  8
3050LEVEL
 62
13
 66
     1
 70
     8
  0
VERTEX
  8
3050LEVEL
 62
13
 10
3329.201
 20
-4493.053
 30
2177.000
 70
    32
  0
VERTEX
  8
3050LEVEL
 62
13
 10
3328.993
 20
-4492.090
 30
2177.000
 70
    32
  0
VERTEX
  8
3050LEVEL
 62
13
 10
3328.530
 20
-4489.596
 30
2177.000
 70
    32
  0
VERTEX
  8
3050LEVEL
 62
13
 10
3328.022
 20
-4487.347
 30
2177.000
 70
    32
  0
VERTEX
  8
3050LEVEL
 62
13
 10
3327.858
 20
-4485.325
 30
2177.000
 70
    32
  0
VERTEX
  8
3050LEVEL
 62
13
 10
3328.814
 20
-4486.143
 30
2177.000
 70
    32
  0
VERTEX
  8
3050LEVEL
 62
13
 10
3330.088
 20
-4486.124
 30
2177.000
 70
    32
  0
VERTEX
  8
3050LEVEL
 62
13
 10
3331.955
 20
-4485.424
 30
2177.000
 70
    32
  0
VERTEX
  8
3050LEVEL
 62
13
 10
3333.259
 20
-4483.816
 30
2177.000
 70
    32
  0
VERTEX
  8
3050LEVEL
 62
13
 10
3335.155
 20
-4480.712
 30
2177.000
 70
    32
  0
VERTEX
  8
3050LEVEL
 62
13
 10
3337.445
 20
-4478.332
 30
2177.000
 70
    32
  0
VERTEX
  8
3050LEVEL
 62
13
 10
3338.791
 20
-4477.433
 30
2177.000
 70
    32
  0
VERTEX
  8
3050LEVEL
 62
13
 10
3339.815
 20
-4474.046
 30
2177.000
 70
    32
  0
VERTEX
  8
3050LEVEL
 62
13
 10
3340.377
 20
-4471.558
 30
2177.000
 70
    32
  0
VERTEX
  8
3050LEVEL
 62
13
 10
3342.999
 20
-4470.571
 30
2177.000
 70
    32
  0
VERTEX
  8
3050LEVEL
 62
13
 10
3345.269
 20
-4470.382
 30
2177.000
 70
    32
  0
VERTEX
  8
3050LEVEL
 62
13
 10
3347.135
 20
-4464.590
 30
2177.000
 70
    32
  0
VERTEX
  8
3050LEVEL
 62
13
 10
3347.212
 20
-4455.011
 30
2177.000
 70
    32
  0
VERTEX
  8
3050LEVEL
 62
13
 10
3346.743
 20
-4448.381
 30
2177.000
 70
    32
  0
VERTEX
  8
3050LEVEL
 62
13
 10
3345.997
 20
-4445.062
 30
2177.000
 70
    32
  0
VERTEX
  8
3050LEVEL
 62
13
 10
3346.078
 20
-4443.085
 30
2177.000
 70
    32
  0
VERTEX
  8
3050LEVEL
 62
13
 10
3348.573
 20
-4444.320
 30
2177.000
 70
    32
  0
VERTEX
  8
3050LEVEL
 62
13
 10
3349.257
 20
-4448.308
 30
2177.000
 70
    32
  0
VERTEX
  8
3050LEVEL
 62
13
 10
3350.483
 20
-4454.581
 30
2177.000
 70
    32
  0
VERTEX
  8
3050LEVEL
 62
13
 10
3351.909
 20
-4458.564
 30
2177.000
 70
    32
  0
VERTEX
  8
3050LEVEL
 62
13
 10
3353.803
 20
-4461.506
 30
2177.000
 70
    32
  0
VERTEX
  8
3050LEVEL
 62
13
 10
3356.389
 20
-4462.249
 30
2177.000
 70
    32
  0
VERTEX
  8
3050LEVEL
 62
13
 10
3357.027
 20
-4459.624
 30
2177.000
 70
    32
  0
VERTEX
  8
3050LEVEL
 62
13
 10
3357.637
 20
-4457.705
 30
2177.000
 70
    32
  0
VERTEX
  8
3050LEVEL
 62
13
 10
3358.308
 20
-4456.000
 30
2177.000
 70
    32
  0
VERTEX
  8
3050LEVEL
 62
13
 10
3359.810
 20
-4456.451
 30
2177.000
 70
    32
  0
VERTEX
  8
3050LEVEL
 62
13
 10
3361.390
 20
-4457.577
 30
2177.000
 70
    32
  0
VERTEX
  8
3050LEVEL
 62
13
 10
3362.817
 20
-4458.979
 30
2177.000
 70
    32
  0
VERTEX
  8
3050LEVEL
 62
13
 10
3362.304
 20
-4462.847
 30
2177.000
 70
    32
  0
VERTEX
  8
3050LEVEL
 62
13
 10
3361.630
 20
-4466.320
 30
2177.000
 70
    32
  0
VERTEX
  8
3050LEVEL
 62
13
 10
3360.769
 20
-4468.335
 30
2177.000
 70
    32
  0
VERTEX
  8
3050LEVEL
 62
13
 10
3361.187
 20
-4472.771
 30
2177.000
 70
    32
  0
VERTEX
  8
3050LEVEL
 62
13
 10
3362.335
 20
-4477.486
 30
2177.000
 70
    32
  0
VERTEX
  8
3050LEVEL
 62
13
 10
3362.445
 20
-4479.965
 30
2177.000
 70
    32
  0
VERTEX
  8
3050LEVEL
 62
13
 10
3360.660
 20
-4480.386
 30
2177.000
 70
    32
  0
VERTEX
  8
3050LEVEL
 62
13
 10
3358.571
 20
-4477.896
 30
2177.000
 70
    32
  0
VERTEX
  8
3050LEVEL
 62
13
 10
3357.777
 20
-4475.707
 30
2177.000
 70
    32
  0
VERTEX
  8
3050LEVEL
 62
13
 10
3356.484
 20
-4473.638
 30
2177.000
 70
    32
  0
VERTEX
  8
3050LEVEL
 62
13
 10
3354.972
 20
-4474.283
 30
2177.000
 70
    32
  0
VERTEX
  8
3050LEVEL
 62
13
 10
3355.502
 20
-4477.734
 30
2177.000
 70
    32
  0
VERTEX
  8
3050LEVEL
 62
13
 10
3358.672
 20
-4484.865
 30
2177.000
 70
    32
  0
VERTEX
  8
3050LEVEL
 62
13
 10
3360.502
 20
-4491.057
 30
2177.000
 70
    32
  0
VERTEX
  8
3050LEVEL
 62
13
 10
3360.848
 20
-4496.375
 30
2177.000
 70
    32
  0
VERTEX
  8
3050LEVEL
 62
13
 10
3360.102
 20
-4499.031
 30
2177.000
 70
    32
  0
VERTEX
  8
3050LEVEL
 62
13
 10
3358.608
 20
-4499.252
 30
2177.000
 70
    32
  0
VERTEX
  8
3050LEVEL
 62
13
 10
3356.647
 20
-4497.934
 30
2177.000
 70
    32
  0
VERTEX
  8
3050LEVEL
 62
13
 10
3354.074
 20
-4498.606
 30
2177.000
 70
    32
  0
VERTEX
  8
3050LEVEL
 62
13
 10
3353.643
 20
-4499.613
 30
2177.000
 70
    32
  0
VERTEX
  8
3050LEVEL
 62
13
 10
3352.663
 20
-4501.941
 30
2177.000
 70
    32
  0
VERTEX
  8
3050LEVEL
 62
13
 10
3349.734
 20
-4502.669
 30
2177.000
 70
    32
  0
VERTEX
  8
3050LEVEL
 62
13
 10
3346.526
 20
-4503.314
 30
2177.000
 70
    32
  0
VERTEX
  8
3050LEVEL
 62
13
 10
3343.479
 20
-4505.168
 30
2177.000
 70
    32
  0
VERTEX
  8
3050LEVEL
 62
13
 10
3341.695
 20
-4507.287
 30
2177.000
 70
    32
  0
VERTEX
  8
3050LEVEL
 62
13
 10
3340.054
 20
-4509.340
 30
2177.000
 70
    32
  0
VERTEX
  8
3050LEVEL
 62
13
 10
3338.063
 20
-4509.612
 30
2177.000
 70
    32
  0
VERTEX
  8
3050LEVEL
 62
13
 10
3336.344
 20
-4509.293
 30
2177.000
 70
    32
  0
VERTEX
  8
3050LEVEL
 62
13
 10
3334.732
 20
-4508.944
 30
2177.000
 70
    32
  0
VERTEX
  8
3050LEVEL
 62
13
 10
3332.793
 20
-4507.945
 30
2177.000
 70
    32
  0
SEQEND
  8
3050LEVEL
  0
POLYLINE
  8
3050LEVEL
 62
13
 66
     1
 70
     8
  0
VERTEX
  8
3050LEVEL
 62
13
 10
3063.958
 20
-4675.530
 30
2177.000
 70
    32
  0
VERTEX
  8
3050LEVEL
 62
13
 10
3062.322
 20
-4674.049
 30
2177.000
 70
    32
  0
VERTEX
  8
3050LEVEL
 62
13
 10
3060.543
 20
-4671.748
 30
2177.000
 70
    32
  0
VERTEX
  8
3050LEVEL
 62
13
 10
3057.870
 20
-4668.844
 30
2177.000
 70
    32
  0
VERTEX
  8
3050LEVEL
 62
13
 10
3052.917
 20
-4664.645
 30
2177.000
 70
    32
  0
VERTEX
  8
3050LEVEL
 62
13
 10
3047.109
 20
-4659.738
 30
2177.000
 70
    32
  0
VERTEX
  8
3050LEVEL
 62
13
 10
3042.229
 20
-4655.470
 30
2177.000
 70
    32
  0
VERTEX
  8
3050LEVEL
 62
13
 10
3035.841
 20
-4649.196
 30
2177.000
 70
    32
  0
VERTEX
  8
3050LEVEL
 62
13
 10
3030.518
 20
-4645.405
 30
2177.000
 70
    32
  0
VERTEX
  8
3050LEVEL
 62
13
 10
3029.704
 20
-4643.710
 30
2177.000
 70
    32
  0
VERTEX
  8
3050LEVEL
 62
13
 10
3031.916
 20
-4644.933
 30
2177.000
 70
    32
  0
VERTEX
  8
3050LEVEL
 62
13
 10
3034.126
 20
-4646.226
 30
2177.000
 70
    32
  0
VERTEX
  8
3050LEVEL
 62
13
 10
3038.101
 20
-4648.406
 30
2177.000
 70
    32
  0
VERTEX
  8
3050LEVEL
 62
13
 10
3040.341
 20
-4650.690
 30
2177.000
 70
    32
  0
VERTEX
  8
3050LEVEL
 62
13
 10
3043.847
 20
-4653.098
 30
2177.000
 70
    32
  0
VERTEX
  8
3050LEVEL
 62
13
 10
3046.829
 20
-4655.377
 30
2177.000
 70
    32
  0
VERTEX
  8
3050LEVEL
 62
13
 10
3054.267
 20
-4657.629
 30
2177.000
 70
    32
  0
VERTEX
  8
3050LEVEL
 62
13
 10
3059.208
 20
-4660.414
 30
2177.000
 70
    32
  0
VERTEX
  8
3050LEVEL
 62
13
 10
3063.745
 20
-4660.990
 30
2177.000
 70
    32
  0
VERTEX
  8
3050LEVEL
 62
13
 10
3063.447
 20
-4657.938
 30
2177.000
 70
    32
  0
VERTEX
  8
3050LEVEL
 62
13
 10
3062.936
 20
-4655.760
 30
2177.000
 70
    32
  0
VERTEX
  8
3050LEVEL
 62
13
 10
3063.785
 20
-4654.027
 30
2177.000
 70
    32
  0
VERTEX
  8
3050LEVEL
 62
13
 10
3064.669
 20
-4654.028
 30
2177.000
 70
    32
  0
VERTEX
  8
3050LEVEL
 62
13
 10
3068.137
 20
-4655.656
 30
2177.000
 70
    32
  0
VERTEX
  8
3050LEVEL
 62
13
 10
3073.409
 20
-4658.137
 30
2177.000
 70
    32
  0
VERTEX
  8
3050LEVEL
 62
13
 10
3076.691
 20
-4660.005
 30
2177.000
 70
    32
  0
VERTEX
  8
3050LEVEL
 62
13
 10
3077.328
 20
-4658.263
 30
2177.000
 70
    32
  0
VERTEX
  8
3050LEVEL
 62
13
 10
3077.399
 20
-4653.988
 30
2177.000
 70
    32
  0
VERTEX
  8
3050LEVEL
 62
13
 10
3077.722
 20
-4650.431
 30
2177.000
 70
    32
  0
VERTEX
  8
3050LEVEL
 62
13
 10
3081.095
 20
-4647.529
 30
2177.000
 70
    32
  0
VERTEX
  8
3050LEVEL
 62
13
 10
3084.030
 20
-4648.358
 30
2177.000
 70
    32
  0
VERTEX
  8
3050LEVEL
 62
13
 10
3087.265
 20
-4649.658
 30
2177.000
 70
    32
  0
VERTEX
  8
3050LEVEL
 62
13
 10
3091.209
 20
-4650.033
 30
2177.000
 70
    32
  0
VERTEX
  8
3050LEVEL
 62
13
 10
3093.491
 20
-4649.562
 30
2177.000
 70
    32
  0
VERTEX
  8
3050LEVEL
 62
13
 10
3097.842
 20
-4650.378
 30
2177.000
 70
    32
  0
VERTEX
  8
3050LEVEL
 62
13
 10
3101.949
 20
-4653.658
 30
2177.000
 70
    32
  0
VERTEX
  8
3050LEVEL
 62
13
 10
3104.905
 20
-4656.574
 30
2177.000
 70
    32
  0
VERTEX
  8
3050LEVEL
 62
13
 10
3108.010
 20
-4659.283
 30
2177.000
 70
    32
  0
VERTEX
  8
3050LEVEL
 62
13
 10
3110.316
 20
-4659.944
 30
2177.000
 70
    32
  0
VERTEX
  8
3050LEVEL
 62
13
 10
3111.437
 20
-4660.202
 30
2177.000
 70
    32
  0
VERTEX
  8
3050LEVEL
 62
13
 10
3112.105
 20
-4661.149
 30
2177.000
 70
    32
  0
VERTEX
  8
3050LEVEL
 62
13
 10
3112.819
 20
-4661.850
 30
2177.000
 70
    32
  0
VERTEX
  8
3050LEVEL
 62
13
 10
3115.740
 20
-4664.729
 30
2177.000
 70
    32
  0
VERTEX
  8
3050LEVEL
 62
13
 10
3119.594
 20
-4667.292
 30
2177.000
 70
    32
  0
VERTEX
  8
3050LEVEL
 62
13
 10
3121.676
 20
-4666.529
 30
2177.000
 70
    32
  0
VERTEX
  8
3050LEVEL
 62
13
 10
3121.691
 20
-4663.596
 30
2177.000
 70
    32
  0
VERTEX
  8
3050LEVEL
 62
13
 10
3122.494
 20
-4661.295
 30
2177.000
 70
    32
  0
VERTEX
  8
3050LEVEL
 62
13
 10
3123.645
 20
-4661.661
 30
2177.000
 70
    32
  0
VERTEX
  8
3050LEVEL
 62
13
 10
3125.499
 20
-4663.010
 30
2177.000
 70
    32
  0
VERTEX
  8
3050LEVEL
 62
13
 10
3130.219
 20
-4665.998
 30
2177.000
 70
    32
  0
VERTEX
  8
3050LEVEL
 62
13
 10
3132.116
 20
-4666.289
 30
2177.000
 70
    32
  0
VERTEX
  8
3050LEVEL
 62
13
 10
3133.220
 20
-4664.390
 30
2177.000
 70
    32
  0
VERTEX
  8
3050LEVEL
 62
13
 10
3134.844
 20
-4666.154
 30
2177.000
 70
    32
  0
VERTEX
  8
3050LEVEL
 62
13
 10
3142.203
 20
-4674.590
 30
2177.000
 70
    32
  0
VERTEX
  8
3050LEVEL
 62
13
 10
3152.494
 20
-4684.808
 30
2177.000
 70
    32
  0
VERTEX
  8
3050LEVEL
 62
13
 10
3160.691
 20
-4691.793
 30
2177.000
 70
    32
  0
VERTEX
  8
3050LEVEL
 62
13
 10
3161.038
 20
-4690.252
 30
2177.000
 70
    32
  0
VERTEX
  8
3050LEVEL
 62
13
 10
3161.243
 20
-4688.705
 30
2177.000
 70
    32
  0
VERTEX
  8
3050LEVEL
 62
13
 10
3162.967
 20
-4689.766
 30
2177.000
 70
    32
  0
VERTEX
  8
3050LEVEL
 62
13
 10
3165.212
 20
-4691.909
 30
2177.000
 70
    32
  0
VERTEX
  8
3050LEVEL
 62
13
 10
3174.146
 20
-4699.031
 30
2177.000
 70
    32
  0
VERTEX
  8
3050LEVEL
 62
13
 10
3177.134
 20
-4702.867
 30
2177.000
 70
    32
  0
VERTEX
  8
3050LEVEL
 62
13
 10
3177.243
 20
-4701.068
 30
2177.000
 70
    32
  0
VERTEX
  8
3050LEVEL
 62
13
 10
3176.626
 20
-4698.038
 30
2177.000
 70
    32
  0
VERTEX
  8
3050LEVEL
 62
13
 10
3176.703
 20
-4695.319
 30
2177.000
 70
    32
  0
VERTEX
  8
3050LEVEL
 62
13
 10
3178.348
 20
-4696.589
 30
2177.000
 70
    32
  0
VERTEX
  8
3050LEVEL
 62
13
 10
3179.283
 20
-4697.900
 30
2177.000
 70
    32
  0
VERTEX
  8
3050LEVEL
 62
13
 10
3179.177
 20
-4697.047
 30
2177.000
 70
    32
  0
VERTEX
  8
3050LEVEL
 62
13
 10
3179.328
 20
-4694.260
 30
2177.000
 70
    32
  0
VERTEX
  8
3050LEVEL
 62
13
 10
3180.247
 20
-4693.414
 30
2177.000
 70
    32
  0
VERTEX
  8
3050LEVEL
 62
13
 10
3183.024
 20
-4694.660
 30
2177.000
 70
    32
  0
VERTEX
  8
3050LEVEL
 62
13
 10
3184.944
 20
-4696.967
 30
2177.000
 70
    32
  0
VERTEX
  8
3050LEVEL
 62
13
 10
3187.374
 20
-4699.754
 30
2177.000
 70
    32
  0
VERTEX
  8
3050LEVEL
 62
13
 10
3188.412
 20
-4698.595
 30
2177.000
 70
    32
  0
VERTEX
  8
3050LEVEL
 62
13
 10
3188.214
 20
-4696.536
 30
2177.000
 70
    32
  0
VERTEX
  8
3050LEVEL
 62
13
 10
3189.442
 20
-4696.764
 30
2177.000
 70
    32
  0
VERTEX
  8
3050LEVEL
 62
13
 10
3191.509
 20
-4698.935
 30
2177.000
 70
    32
  0
VERTEX
  8
3050LEVEL
 62
13
 10
3192.901
 20
-4699.488
 30
2177.000
 70
    32
  0
VERTEX
  8
3050LEVEL
 62
13
 10
3194.307
 20
-4699.687
 30
2177.000
 70
    32
  0
VERTEX
  8
3050LEVEL
 62
13
 10
3195.122
 20
-4700.499
 30
2177.000
 70
    32
  0
VERTEX
  8
3050LEVEL
 62
13
 10
3196.291
 20
-4700.441
 30
2177.000
 70
    32
  0
VERTEX
  8
3050LEVEL
 62
13
 10
3198.768
 20
-4703.796
 30
2177.000
 70
    32
  0
VERTEX
  8
3050LEVEL
 62
13
 10
3202.340
 20
-4708.928
 30
2177.000
 70
    32
  0
VERTEX
  8
3050LEVEL
 62
13
 10
3205.185
 20
-4713.642
 30
2177.000
 70
    32
  0
VERTEX
  8
3050LEVEL
 62
13
 10
3207.420
 20
-4715.184
 30
2177.000
 70
    32
  0
VERTEX
  8
3050LEVEL
 62
13
 10
3206.507
 20
-4713.308
 30
2177.000
 70
    32
  0
VERTEX
  8
3050LEVEL
 62
13
 10
3204.061
 20
-4707.479
 30
2177.000
 70
    32
  0
VERTEX
  8
3050LEVEL
 62
13
 10
3203.845
 20
-4702.450
 30
2177.000
 70
    32
  0
VERTEX
  8
3050LEVEL
 62
13
 10
3204.605
 20
-4703.719
 30
2177.000
 70
    32
  0
VERTEX
  8
3050LEVEL
 62
13
 10
3206.909
 20
-4708.728
 30
2177.000
 70
    32
  0
VERTEX
  8
3050LEVEL
 62
13
 10
3207.735
 20
-4711.838
 30
2177.000
 70
    32
  0
VERTEX
  8
3050LEVEL
 62
13
 10
3208.240
 20
-4714.157
 30
2177.000
 70
    32
  0
VERTEX
  8
3050LEVEL
 62
13
 10
3211.263
 20
-4719.727
 30
2177.000
 70
    32
  0
VERTEX
  8
3050LEVEL
 62
13
 10
3213.314
 20
-4723.135
 30
2177.000
 70
    32
  0
VERTEX
  8
3050LEVEL
 62
13
 10
3213.736
 20
-4722.339
 30
2177.000
 70
    32
  0
VERTEX
  8
3050LEVEL
 62
13
 10
3213.297
 20
-4720.978
 30
2177.000
 70
    32
  0
VERTEX
  8
3050LEVEL
 62
13
 10
3212.430
 20
-4718.856
 30
2177.000
 70
    32
  0
VERTEX
  8
3050LEVEL
 62
13
 10
3210.603
 20
-4714.290
 30
2177.000
 70
    32
  0
VERTEX
  8
3050LEVEL
 62
13
 10
3207.574
 20
-4707.165
 30
2177.000
 70
    32
  0
VERTEX
  8
3050LEVEL
 62
13
 10
3205.429
 20
-4700.040
 30
2177.000
 70
    32
  0
VERTEX
  8
3050LEVEL
 62
13
 10
3206.180
 20
-4698.127
 30
2177.000
 70
    32
  0
VERTEX
  8
3050LEVEL
 62
13
 10
3207.663
 20
-4699.885
 30
2177.000
 70
    32
  0
VERTEX
  8
3050LEVEL
 62
13
 10
3209.433
 20
-4702.398
 30
2177.000
 70
    32
  0
VERTEX
  8
3050LEVEL
 62
13
 10
3213.050
 20
-4708.982
 30
2177.000
 70
    32
  0
VERTEX
  8
3050LEVEL
 62
13
 10
3215.327
 20
-4714.627
 30
2177.000
 70
    32
  0
VERTEX
  8
3050LEVEL
 62
13
 10
3218.030
 20
-4721.102
 30
2177.000
 70
    32
  0
VERTEX
  8
3050LEVEL
 62
13
 10
3220.949
 20
-4725.748
 30
2177.000
 70
    32
  0
VERTEX
  8
3050LEVEL
 62
13
 10
3222.681
 20
-4727.482
 30
2177.000
 70
    32
  0
VERTEX
  8
3050LEVEL
 62
13
 10
3223.033
 20
-4725.799
 30
2177.000
 70
    32
  0
VERTEX
  8
3050LEVEL
 62
13
 10
3221.285
 20
-4721.909
 30
2177.000
 70
    32
  0
VERTEX
  8
3050LEVEL
 62
13
 10
3218.569
 20
-4712.321
 30
2177.000
 70
    32
  0
VERTEX
  8
3050LEVEL
 62
13
 10
3214.936
 20
-4705.277
 30
2177.000
 70
    32
  0
VERTEX
  8
3050LEVEL
 62
13
 10
3214.895
 20
-4699.406
 30
2177.000
 70
    32
  0
VERTEX
  8
3050LEVEL
 62
13
 10
3216.265
 20
-4694.477
 30
2177.000
 70
    32
  0
VERTEX
  8
3050LEVEL
 62
13
 10
3216.921
 20
-4694.009
 30
2177.000
 70
    32
  0
VERTEX
  8
3050LEVEL
 62
13
 10
3218.327
 20
-4694.209
 30
2177.000
 70
    32
  0
VERTEX
  8
3050LEVEL
 62
13
 10
3220.769
 20
-4696.714
 30
2177.000
 70
    32
  0
VERTEX
  8
3050LEVEL
 62
13
 10
3222.160
 20
-4698.150
 30
2177.000
 70
    32
  0
VERTEX
  8
3050LEVEL
 62
13
 10
3222.674
 20
-4697.677
 30
2177.000
 70
    32
  0
VERTEX
  8
3050LEVEL
 62
13
 10
3221.979
 20
-4695.668
 30
2177.000
 70
    32
  0
VERTEX
  8
3050LEVEL
 62
13
 10
3219.378
 20
-4691.884
 30
2177.000
 70
    32
  0
VERTEX
  8
3050LEVEL
 62
13
 10
3215.671
 20
-4684.907
 30
2177.000
 70
    32
  0
VERTEX
  8
3050LEVEL
 62
13
 10
3212.616
 20
-4677.533
 30
2177.000
 70
    32
  0
VERTEX
  8
3050LEVEL
 62
13
 10
3214.462
 20
-4673.932
 30
2177.000
 70
    32
  0
VERTEX
  8
3050LEVEL
 62
13
 10
3217.275
 20
-4673.447
 30
2177.000
 70
    32
  0
VERTEX
  8
3050LEVEL
 62
13
 10
3220.076
 20
-4674.128
 30
2177.000
 70
    32
  0
VERTEX
  8
3050LEVEL
 62
13
 10
3224.682
 20
-4675.591
 30
2177.000
 70
    32
  0
VERTEX
  8
3050LEVEL
 62
13
 10
3226.790
 20
-4676.775
 30
2177.000
 70
    32
  0
VERTEX
  8
3050LEVEL
 62
13
 10
3227.215
 20
-4675.908
 30
2177.000
 70
    32
  0
VERTEX
  8
3050LEVEL
 62
13
 10
3226.574
 20
-4673.442
 30
2177.000
 70
    32
  0
VERTEX
  8
3050LEVEL
 62
13
 10
3225.538
 20
-4671.137
 30
2177.000
 70
    32
  0
VERTEX
  8
3050LEVEL
 62
13
 10
3223.917
 20
-4666.721
 30
2177.000
 70
    32
  0
VERTEX
  8
3050LEVEL
 62
13
 10
3223.954
 20
-4659.828
 30
2177.000
 70
    32
  0
VERTEX
  8
3050LEVEL
 62
13
 10
3223.283
 20
-4650.396
 30
2177.000
 70
    32
  0
VERTEX
  8
3050LEVEL
 62
13
 10
3223.112
 20
-4638.262
 30
2177.000
 70
    32
  0
VERTEX
  8
3050LEVEL
 62
13
 10
3223.758
 20
-4630.333
 30
2177.000
 70
    32
  0
VERTEX
  8
3050LEVEL
 62
13
 10
3223.180
 20
-4622.920
 30
2177.000
 70
    32
  0
VERTEX
  8
3050LEVEL
 62
13
 10
3221.160
 20
-4619.619
 30
2177.000
 70
    32
  0
VERTEX
  8
3050LEVEL
 62
13
 10
3218.112
 20
-4618.079
 30
2177.000
 70
    32
  0
VERTEX
  8
3050LEVEL
 62
13
 10
3216.759
 20
-4618.306
 30
2177.000
 70
    32
  0
VERTEX
  8
3050LEVEL
 62
13
 10
3215.216
 20
-4619.727
 30
2177.000
 70
    32
  0
VERTEX
  8
3050LEVEL
 62
13
 10
3214.728
 20
-4621.263
 30
2177.000
 70
    32
  0
VERTEX
  8
3050LEVEL
 62
13
 10
3213.777
 20
-4622.885
 30
2177.000
 70
    32
  0
VERTEX
  8
3050LEVEL
 62
13
 10
3211.868
 20
-4622.877
 30
2177.000
 70
    32
  0
VERTEX
  8
3050LEVEL
 62
13
 10
3211.160
 20
-4622.035
 30
2177.000
 70
    32
  0
VERTEX
  8
3050LEVEL
 62
13
 10
3208.400
 20
-4618.668
 30
2177.000
 70
    32
  0
VERTEX
  8
3050LEVEL
 62
13
 10
3206.300
 20
-4613.879
 30
2177.000
 70
    32
  0
VERTEX
  8
3050LEVEL
 62
13
 10
3204.280
 20
-4612.275
 30
2177.000
 70
    32
  0
VERTEX
  8
3050LEVEL
 62
13
 10
3202.434
 20
-4611.598
 30
2177.000
 70
    32
  0
VERTEX
  8
3050LEVEL
 62
13
 10
3200.932
 20
-4612.031
 30
2177.000
 70
    32
  0
VERTEX
  8
3050LEVEL
 62
13
 10
3197.445
 20
-4611.710
 30
2177.000
 70
    32
  0
VERTEX
  8
3050LEVEL
 62
13
 10
3192.168
 20
-4608.487
 30
2177.000
 70
    32
  0
VERTEX
  8
3050LEVEL
 62
13
 10
3190.167
 20
-4605.576
 30
2177.000
 70
    32
  0
VERTEX
  8
3050LEVEL
 62
13
 10
3188.073
 20
-4602.343
 30
2177.000
 70
    32
  0
VERTEX
  8
3050LEVEL
 62
13
 10
3185.815
 20
-4601.366
 30
2177.000
 70
    32
  0
VERTEX
  8
3050LEVEL
 62
13
 10
3185.556
 20
-4600.789
 30
2177.000
 70
    32
  0
VERTEX
  8
3050LEVEL
 62
13
 10
3185.716
 20
-4599.488
 30
2177.000
 70
    32
  0
VERTEX
  8
3050LEVEL
 62
13
 10
3183.852
 20
-4595.840
 30
2177.000
 70
    32
  0
VERTEX
  8
3050LEVEL
 62
13
 10
3183.064
 20
-4593.509
 30
2177.000
 70
    32
  0
VERTEX
  8
3050LEVEL
 62
13
 10
3183.166
 20
-4591.039
 30
2177.000
 70
    32
  0
VERTEX
  8
3050LEVEL
 62
13
 10
3183.253
 20
-4587.224
 30
2177.000
 70
    32
  0
VERTEX
  8
3050LEVEL
 62
13
 10
3181.850
 20
-4582.676
 30
2177.000
 70
    32
  0
VERTEX
  8
3050LEVEL
 62
13
 10
3180.454
 20
-4578.800
 30
2177.000
 70
    32
  0
VERTEX
  8
3050LEVEL
 62
13
 10
3174.544
 20
-4572.086
 30
2177.000
 70
    32
  0
VERTEX
  8
3050LEVEL
 62
13
 10
3166.405
 20
-4563.688
 30
2177.000
 70
    32
  0
VERTEX
  8
3050LEVEL
 62
13
 10
3159.883
 20
-4558.964
 30
2177.000
 70
    32
  0
VERTEX
  8
3050LEVEL
 62
13
 10
3154.429
 20
-4555.769
 30
2177.000
 70
    32
  0
VERTEX
  8
3050LEVEL
 62
13
 10
3150.377
 20
-4555.425
 30
2177.000
 70
    32
  0
VERTEX
  8
3050LEVEL
 62
13
 10
3149.610
 20
-4556.878
 30
2177.000
 70
    32
  0
VERTEX
  8
3050LEVEL
 62
13
 10
3150.765
 20
-4563.149
 30
2177.000
 70
    32
  0
VERTEX
  8
3050LEVEL
 62
13
 10
3151.957
 20
-4567.688
 30
2177.000
 70
    32
  0
VERTEX
  8
3050LEVEL
 62
13
 10
3153.117
 20
-4572.120
 30
2177.000
 70
    32
  0
VERTEX
  8
3050LEVEL
 62
13
 10
3152.900
 20
-4573.949
 30
2177.000
 70
    32
  0
VERTEX
  8
3050LEVEL
 62
13
 10
3150.467
 20
-4572.930
 30
2177.000
 70
    32
  0
VERTEX
  8
3050LEVEL
 62
13
 10
3146.164
 20
-4568.403
 30
2177.000
 70
    32
  0
VERTEX
  8
3050LEVEL
 62
13
 10
3143.491
 20
-4565.500
 30
2177.000
 70
    32
  0
VERTEX
  8
3050LEVEL
 62
13
 10
3142.287
 20
-4566.405
 30
2177.000
 70
    32
  0
VERTEX
  8
3050LEVEL
 62
13
 10
3141.501
 20
-4569.165
 30
2177.000
 70
    32
  0
VERTEX
  8
3050LEVEL
 62
13
 10
3140.945
 20
-4571.511
 30
2177.000
 70
    32
  0
VERTEX
  8
3050LEVEL
 62
13
 10
3138.700
 20
-4571.065
 30
2177.000
 70
    32
  0
VERTEX
  8
3050LEVEL
 62
13
 10
3136.120
 20
-4570.181
 30
2177.000
 70
    32
  0
VERTEX
  8
3050LEVEL
 62
13
 10
3135.419
 20
-4570.894
 30
2177.000
 70
    32
  0
VERTEX
  8
3050LEVEL
 62
13
 10
3134.571
 20
-4571.743
 30
2177.000
 70
    32
  0
VERTEX
  8
3050LEVEL
 62
13
 10
3133.324
 20
-4571.126
 30
2177.000
 70
    32
  0
VERTEX
  8
3050LEVEL
 62
13
 10
3130.884
 20
-4568.550
 30
2177.000
 70
    32
  0
VERTEX
  8
3050LEVEL
 62
13
 10
3128.403
 20
-4566.150
 30
2177.000
 70
    32
  0
VERTEX
  8
3050LEVEL
 62
13
 10
3126.256
 20
-4566.768
 30
2177.000
 70
    32
  0
VERTEX
  8
3050LEVEL
 62
13
 10
3124.379
 20
-4570.261
 30
2177.000
 70
    32
  0
VERTEX
  8
3050LEVEL
 62
13
 10
3124.353
 20
-4576.872
 30
2177.000
 70
    32
  0
VERTEX
  8
3050LEVEL
 62
13
 10
3125.033
 20
-4581.814
 30
2177.000
 70
    32
  0
VERTEX
  8
3050LEVEL
 62
13
 10
3125.729
 20
-4587.217
 30
2177.000
 70
    32
  0
VERTEX
  8
3050LEVEL
 62
13
 10
3126.134
 20
-4591.123
 30
2177.000
 70
    32
  0
VERTEX
  8
3050LEVEL
 62
13
 10
3125.730
 20
-4593.192
 30
2177.000
 70
    32
  0
VERTEX
  8
3050LEVEL
 62
13
 10
3125.391
 20
-4593.709
 30
2177.000
 70
    32
  0
VERTEX
  8
3050LEVEL
 62
13
 10
3124.901
 20
-4592.734
 30
2177.000
 70
    32
  0
VERTEX
  8
3050LEVEL
 62
13
 10
3123.945
 20
-4589.336
 30
2177.000
 70
    32
  0
VERTEX
  8
3050LEVEL
 62
13
 10
3123.414
 20
-4585.071
 30
2177.000
 70
    32
  0
VERTEX
  8
3050LEVEL
 62
13
 10
3121.912
 20
-4580.342
 30
2177.000
 70
    32
  0
VERTEX
  8
3050LEVEL
 62
13
 10
3121.390
 20
-4575.866
 30
2177.000
 70
    32
  0
VERTEX
  8
3050LEVEL
 62
13
 10
3119.398
 20
-4570.162
 30
2177.000
 70
    32
  0
VERTEX
  8
3050LEVEL
 62
13
 10
3114.547
 20
-4560.910
 30
2177.000
 70
    32
  0
VERTEX
  8
3050LEVEL
 62
13
 10
3108.965
 20
-4552.265
 30
2177.000
 70
    32
  0
VERTEX
  8
3050LEVEL
 62
13
 10
3101.005
 20
-4538.678
 30
2177.000
 70
    32
  0
VERTEX
  8
3050LEVEL
 62
13
 10
3094.513
 20
-4525.505
 30
2177.000
 70
    32
  0
VERTEX
  8
3050LEVEL
 62
13
 10
3089.073
 20
-4517.679
 30
2177.000
 70
    32
  0
VERTEX
  8
3050LEVEL
 62
13
 10
3083.096
 20
-4508.311
 30
2177.000
 70
    32
  0
VERTEX
  8
3050LEVEL
 62
13
 10
3078.951
 20
-4501.669
 30
2177.000
 70
    32
  0
VERTEX
  8
3050LEVEL
 62
13
 10
3077.646
 20
-4495.605
 30
2177.000
 70
    32
  0
VERTEX
  8
3050LEVEL
 62
13
 10
3078.118
 20
-4492.725
 30
2177.000
 70
    32
  0
VERTEX
  8
3050LEVEL
 62
13
 10
3079.324
 20
-4490.937
 30
2177.000
 70
    32
  0
VERTEX
  8
3050LEVEL
 62
13
 10
3081.339
 20
-4491.798
 30
2177.000
 70
    32
  0
VERTEX
  8
3050LEVEL
 62
13
 10
3084.687
 20
-4494.623
 30
2177.000
 70
    32
  0
VERTEX
  8
3050LEVEL
 62
13
 10
3087.771
 20
-4496.129
 30
2177.000
 70
    32
  0
VERTEX
  8
3050LEVEL
 62
13
 10
3088.845
 20
-4495.820
 30
2177.000
 70
    32
  0
VERTEX
  8
3050LEVEL
 62
13
 10
3089.123
 20
-4494.205
 30
2177.000
 70
    32
  0
VERTEX
  8
3050LEVEL
 62
13
 10
3088.304
 20
-4490.070
 30
2177.000
 70
    32
  0
VERTEX
  8
3050LEVEL
 62
13
 10
3086.822
 20
-4485.731
 30
2177.000
 70
    32
  0
VERTEX
  8
3050LEVEL
 62
13
 10
3084.438
 20
-4479.233
 30
2177.000
 70
    32
  0
VERTEX
  8
3050LEVEL
 62
13
 10
3082.631
 20
-4475.057
 30
2177.000
 70
    32
  0
VERTEX
  8
3050LEVEL
 62
13
 10
3078.831
 20
-4467.758
 30
2177.000
 70
    32
  0
VERTEX
  8
3050LEVEL
 62
13
 10
3075.320
 20
-4462.027
 30
2177.000
 70
    32
  0
VERTEX
  8
3050LEVEL
 62
13
 10
3072.192
 20
-4454.721
 30
2177.000
 70
    32
  0
VERTEX
  8
3050LEVEL
 62
13
 10
3070.434
 20
-4449.345
 30
2177.000
 70
    32
  0
VERTEX
  8
3050LEVEL
 62
13
 10
3069.475
 20
-4440.042
 30
2177.000
 70
    32
  0
VERTEX
  8
3050LEVEL
 62
13
 10
3069.191
 20
-4434.939
 30
2177.000
 70
    32
  0
VERTEX
  8
3050LEVEL
 62
13
 10
3067.369
 20
-4428.535
 30
2177.000
 70
    32
  0
VERTEX
  8
3050LEVEL
 62
13
 10
3065.614
 20
-4423.089
 30
2177.000
 70
    32
  0
VERTEX
  8
3050LEVEL
 62
13
 10
3064.076
 20
-4415.813
 30
2177.000
 70
    32
  0
VERTEX
  8
3050LEVEL
 62
13
 10
3063.200
 20
-4409.624
 30
2177.000
 70
    32
  0
VERTEX
  8
3050LEVEL
 62
13
 10
3062.847
 20
-4401.054
 30
2177.000
 70
    32
  0
VERTEX
  8
3050LEVEL
 62
13
 10
3061.536
 20
-4395.131
 30
2177.000
 70
    32
  0
VERTEX
  8
3050LEVEL
 62
13
 10
3059.817
 20
-4386.256
 30
2177.000
 70
    32
  0
VERTEX
  8
3050LEVEL
 62
13
 10
3057.693
 20
-4379.451
 30
2177.000
 70
    32
  0
VERTEX
  8
3050LEVEL
 62
13
 10
3056.203
 20
-4370.161
 30
2177.000
 70
    32
  0
VERTEX
  8
3050LEVEL
 62
13
 10
3055.235
 20
-4363.651
 30
2177.000
 70
    32
  0
VERTEX
  8
3050LEVEL
 62
13
 10
3053.309
 20
-4354.627
 30
2177.000
 70
    32
  0
VERTEX
  8
3050LEVEL
 62
13
 10
3051.481
 20
-4349.248
 30
2177.000
 70
    32
  0
VERTEX
  8
3050LEVEL
 62
13
 10
3049.043
 20
-4343.208
 30
2177.000
 70
    32
  0
VERTEX
  8
3050LEVEL
 62
13
 10
3043.894
 20
-4333.484
 30
2177.000
 70
    32
  0
VERTEX
  8
3050LEVEL
 62
13
 10
3039.627
 20
-4324.646
 30
2177.000
 70
    32
  0
VERTEX
  8
3050LEVEL
 62
13
 10
3035.218
 20
-4312.408
 30
2177.000
 70
    32
  0
VERTEX
  8
3050LEVEL
 62
13
 10
3034.744
 20
-4303.337
 30
2177.000
 70
    32
  0
VERTEX
  8
3050LEVEL
 62
13
 10
3035.781
 20
-4294.505
 30
2177.000
 70
    32
  0
VERTEX
  8
3050LEVEL
 62
13
 10
3037.691
 20
-4286.771
 30
2177.000
 70
    32
  0
VERTEX
  8
3050LEVEL
 62
13
 10
3038.905
 20
-4282.189
 30
2177.000
 70
    32
  0
VERTEX
  8
3050LEVEL
 62
13
 10
3041.265
 20
-4274.721
 30
2177.000
 70
    32
  0
VERTEX
  8
3050LEVEL
 62
13
 10
3042.833
 20
-4269.270
 30
2177.000
 70
    32
  0
VERTEX
  8
3050LEVEL
 62
13
 10
3043.960
 20
-4266.806
 30
2177.000
 70
    32
  0
VERTEX
  8
3050LEVEL
 62
13
 10
3046.003
 20
-4261.870
 30
2177.000
 70
    32
  0
VERTEX
  8
3050LEVEL
 62
13
 10
3047.586
 20
-4257.763
 30
2177.000
 70
    32
  0
VERTEX
  8
3050LEVEL
 62
13
 10
3051.106
 20
-4250.449
 30
2177.000
 70
    32
  0
VERTEX
  8
3050LEVEL
 62
13
 10
3052.993
 20
-4247.557
 30
2177.000
 70
    32
  0
VERTEX
  8
3050LEVEL
 62
13
 10
3055.437
 20
-4246.597
 30
2177.000
 70
    32
  0
VERTEX
  8
3050LEVEL
 62
13
 10
3057.979
 20
-4245.818
 30
2177.000
 70
    32
  0
VERTEX
  8
3050LEVEL
 62
13
 10
3060.060
 20
-4244.242
 30
2177.000
 70
    32
  0
VERTEX
  8
3050LEVEL
 62
13
 10
3061.347
 20
-4242.174
 30
2177.000
 70
    32
  0
VERTEX
  8
3050LEVEL
 62
13
 10
3062.798
 20
-4240.431
 30
2177.000
 70
    32
  0
VERTEX
  8
3050LEVEL
 62
13
 10
3067.604
 20
-4236.210
 30
2177.000
 70
    32
  0
VERTEX
  8
3050LEVEL
 62
13
 10
3070.455
 20
-4232.226
 30
2177.000
 70
    32
  0
VERTEX
  8
3050LEVEL
 62
13
 10
3072.160
 20
-4228.620
 30
2177.000
 70
    32
  0
VERTEX
  8
3050LEVEL
 62
13
 10
3075.780
 20
-4223.996
 30
2177.000
 70
    32
  0
VERTEX
  8
3050LEVEL
 62
13
 10
3080.114
 20
-4226.933
 30
2177.000
 70
    32
  0
VERTEX
  8
3050LEVEL
 62
13
 10
3081.484
 20
-4228.863
 30
2177.000
 70
    32
  0
VERTEX
  8
3050LEVEL
 62
13
 10
3084.663
 20
-4231.505
 30
2177.000
 70
    32
  0
VERTEX
  8
3050LEVEL
 62
13
 10
3089.329
 20
-4239.228
 30
2177.000
 70
    32
  0
VERTEX
  8
3050LEVEL
 62
13
 10
3091.796
 20
-4246.260
 30
2177.000
 70
    32
  0
VERTEX
  8
3050LEVEL
 62
13
 10
3091.889
 20
-4246.582
 30
2177.000
 70
    32
  0
VERTEX
  8
3050LEVEL
 62
13
 10
3097.223
 20
-4250.974
 30
2177.000
 70
    32
  0
VERTEX
  8
3050LEVEL
 62
13
 10
3100.865
 20
-4253.529
 30
2177.000
 70
    32
  0
VERTEX
  8
3050LEVEL
 62
13
 10
3106.930
 20
-4256.502
 30
2177.000
 70
    32
  0
VERTEX
  8
3050LEVEL
 62
13
 10
3111.641
 20
-4258.004
 30
2177.000
 70
    32
  0
VERTEX
  8
3050LEVEL
 62
13
 10
3114.462
 20
-4258.192
 30
2177.000
 70
    32
  0
VERTEX
  8
3050LEVEL
 62
13
 10
3115.082
 20
-4256.874
 30
2177.000
 70
    32
  0
VERTEX
  8
3050LEVEL
 62
13
 10
3115.100
 20
-4255.566
 30
2177.000
 70
    32
  0
VERTEX
  8
3050LEVEL
 62
13
 10
3114.950
 20
-4254.075
 30
2177.000
 70
    32
  0
VERTEX
  8
3050LEVEL
 62
13
 10
3115.272
 20
-4253.982
 30
2177.000
 70
    32
  0
VERTEX
  8
3050LEVEL
 62
13
 10
3115.726
 20
-4254.107
 30
2177.000
 70
    32
  0
VERTEX
  8
3050LEVEL
 62
13
 10
3116.206
 20
-4254.481
 30
2177.000
 70
    32
  0
VERTEX
  8
3050LEVEL
 62
13
 10
3113.634
 20
-4251.687
 30
2177.000
 70
    32
  0
VERTEX
  8
3050LEVEL
 62
13
 10
3112.309
 20
-4250.395
 30
2177.000
 70
    32
  0
VERTEX
  8
3050LEVEL
 62
13
 10
3110.544
 20
-4246.044
 30
2177.000
 70
    32
  0
VERTEX
  8
3050LEVEL
 62
13
 10
3110.594
 20
-4243.960
 30
2177.000
 70
    32
  0
VERTEX
  8
3050LEVEL
 62
13
 10
3112.759
 20
-4240.337
 30
2177.000
 70
    32
  0
VERTEX
  8
3050LEVEL
 62
13
 10
3115.569
 20
-4238.226
 30
2177.000
 70
    32
  0
VERTEX
  8
3050LEVEL
 62
13
 10
3120.343
 20
-4236.479
 30
2177.000
 70
    32
  0
VERTEX
  8
3050LEVEL
 62
13
 10
3123.999
 20
-4235.286
 30
2177.000
 70
    32
  0
VERTEX
  8
3050LEVEL
 62
13
 10
3124.730
 20
-4235.564
 30
2177.000
 70
    32
  0
VERTEX
  8
3050LEVEL
 62
13
 10
3124.556
 20
-4237.218
 30
2177.000
 70
    32
  0
VERTEX
  8
3050LEVEL
 62
13
 10
3124.865
 20
-4238.292
 30
2177.000
 70
    32
  0
VERTEX
  8
3050LEVEL
 62
13
 10
3126.352
 20
-4239.096
 30
2177.000
 70
    32
  0
VERTEX
  8
3050LEVEL
 62
13
 10
3127.410
 20
-4240.023
 30
2177.000
 70
    32
  0
VERTEX
  8
3050LEVEL
 62
13
 10
3132.666
 20
-4245.437
 30
2177.000
 70
    32
  0
VERTEX
  8
3050LEVEL
 62
13
 10
3137.729
 20
-4252.117
 30
2177.000
 70
    32
  0
VERTEX
  8
3050LEVEL
 62
13
 10
3139.896
 20
-4257.863
 30
2177.000
 70
    32
  0
VERTEX
  8
3050LEVEL
 62
13
 10
3143.135
 20
-4264.184
 30
2177.000
 70
    32
  0
VERTEX
  8
3050LEVEL
 62
13
 10
3147.408
 20
-4270.300
 30
2177.000
 70
    32
  0
VERTEX
  8
3050LEVEL
 62
13
 10
3152.420
 20
-4274.785
 30
2177.000
 70
    32
  0
VERTEX
  8
3050LEVEL
 62
13
 10
3153.700
 20
-4276.323
 30
2177.000
 70
    32
  0
VERTEX
  8
3050LEVEL
 62
13
 10
3153.998
 20
-4275.098
 30
2177.000
 70
    32
  0
VERTEX
  8
3050LEVEL
 62
13
 10
3154.610
 20
-4271.411
 30
2177.000
 70
    32
  0
VERTEX
  8
3050LEVEL
 62
13
 10
3154.794
 20
-4268.661
 30
2177.000
 70
    32
  0
VERTEX
  8
3050LEVEL
 62
13
 10
3154.733
 20
-4265.865
 30
2177.000
 70
    32
  0
VERTEX
  8
3050LEVEL
 62
13
 10
3153.302
 20
-4262.836
 30
2177.000
 70
    32
  0
VERTEX
  8
3050LEVEL
 62
13
 10
3150.945
 20
-4258.284
 30
2177.000
 70
    32
  0
VERTEX
  8
3050LEVEL
 62
13
 10
3148.235
 20
-4252.833
 30
2177.000
 70
    32
  0
VERTEX
  8
3050LEVEL
 62
13
 10
3146.828
 20
-4249.240
 30
2177.000
 70
    32
  0
VERTEX
  8
3050LEVEL
 62
13
 10
3147.120
 20
-4246.459
 30
2177.000
 70
    32
  0
VERTEX
  8
3050LEVEL
 62
13
 10
3148.677
 20
-4247.265
 30
2177.000
 70
    32
  0
VERTEX
  8
3050LEVEL
 62
13
 10
3153.103
 20
-4251.408
 30
2177.000
 70
    32
  0
VERTEX
  8
3050LEVEL
 62
13
 10
3157.034
 20
-4257.227
 30
2177.000
 70
    32
  0
VERTEX
  8
3050LEVEL
 62
13
 10
3160.134
 20
-4260.078
 30
2177.000
 70
    32
  0
VERTEX
  8
3050LEVEL
 62
13
 10
3162.209
 20
-4260.340
 30
2177.000
 70
    32
  0
VERTEX
  8
3050LEVEL
 62
13
 10
3162.738
 20
-4259.513
 30
2177.000
 70
    32
  0
VERTEX
  8
3050LEVEL
 62
13
 10
3163.131
 20
-4256.843
 30
2177.000
 70
    32
  0
VERTEX
  8
3050LEVEL
 62
13
 10
3162.433
 20
-4253.208
 30
2177.000
 70
    32
  0
VERTEX
  8
3050LEVEL
 62
13
 10
3158.930
 20
-4248.148
 30
2177.000
 70
    32
  0
VERTEX
  8
3050LEVEL
 62
13
 10
3154.428
 20
-4244.144
 30
2177.000
 70
    32
  0
VERTEX
  8
3050LEVEL
 62
13
 10
3149.568
 20
-4240.266
 30
2177.000
 70
    32
  0
VERTEX
  8
3050LEVEL
 62
13
 10
3146.195
 20
-4236.309
 30
2177.000
 70
    32
  0
VERTEX
  8
3050LEVEL
 62
13
 10
3144.419
 20
-4232.240
 30
2177.000
 70
    32
  0
VERTEX
  8
3050LEVEL
 62
13
 10
3142.165
 20
-4226.031
 30
2177.000
 70
    32
  0
VERTEX
  8
3050LEVEL
 62
13
 10
3141.066
 20
-4220.116
 30
2177.000
 70
    32
  0
VERTEX
  8
3050LEVEL
 62
13
 10
3141.486
 20
-4211.648
 30
2177.000
 70
    32
  0
VERTEX
  8
3050LEVEL
 62
13
 10
3141.879
 20
-4207.280
 30
2177.000
 70
    32
  0
VERTEX
  8
3050LEVEL
 62
13
 10
3142.884
 20
-4200.922
 30
2177.000
 70
    32
  0
VERTEX
  8
3050LEVEL
 62
13
 10
3143.214
 20
-4198.921
 30
2177.000
 70
    32
  0
VERTEX
  8
3050LEVEL
 62
13
 10
3143.716
 20
-4199.613
 30
2177.000
 70
    32
  0
VERTEX
  8
3050LEVEL
 62
13
 10
3144.639
 20
-4202.091
 30
2177.000
 70
    32
  0
VERTEX
  8
3050LEVEL
 62
13
 10
3145.616
 20
-4205.808
 30
2177.000
 70
    32
  0
VERTEX
  8
3050LEVEL
 62
13
 10
3146.792
 20
-4214.165
 30
2177.000
 70
    32
  0
VERTEX
  8
3050LEVEL
 62
13
 10
3148.136
 20
-4218.428
 30
2177.000
 70
    32
  0
VERTEX
  8
3050LEVEL
 62
13
 10
3150.760
 20
-4222.532
 30
2177.000
 70
    32
  0
VERTEX
  8
3050LEVEL
 62
13
 10
3152.201
 20
-4223.581
 30
2177.000
 70
    32
  0
VERTEX
  8
3050LEVEL
 62
13
 10
3152.388
 20
-4223.341
 30
2177.000
 70
    32
  0
VERTEX
  8
3050LEVEL
 62
13
 10
3152.019
 20
-4220.286
 30
2177.000
 70
    32
  0
VERTEX
  8
3050LEVEL
 62
13
 10
3151.235
 20
-4215.303
 30
2177.000
 70
    32
  0
VERTEX
  8
3050LEVEL
 62
13
 10
3151.672
 20
-4211.574
 30
2177.000
 70
    32
  0
VERTEX
  8
3050LEVEL
 62
13
 10
3153.001
 20
-4207.633
 30
2177.000
 70
    32
  0
VERTEX
  8
3050LEVEL
 62
13
 10
3154.534
 20
-4203.914
 30
2177.000
 70
    32
  0
VERTEX
  8
3050LEVEL
 62
13
 10
3154.994
 20
-4201.316
 30
2177.000
 70
    32
  0
VERTEX
  8
3050LEVEL
 62
13
 10
3154.075
 20
-4196.187
 30
2177.000
 70
    32
  0
VERTEX
  8
3050LEVEL
 62
13
 10
3152.790
 20
-4193.907
 30
2177.000
 70
    32
  0
VERTEX
  8
3050LEVEL
 62
13
 10
3148.213
 20
-4189.157
 30
2177.000
 70
    32
  0
VERTEX
  8
3050LEVEL
 62
13
 10
3143.963
 20
-4185.057
 30
2177.000
 70
    32
  0
VERTEX
  8
3050LEVEL
 62
13
 10
3139.621
 20
-4179.751
 30
2177.000
 70
    32
  0
VERTEX
  8
3050LEVEL
 62
13
 10
3137.274
 20
-4174.103
 30
2177.000
 70
    32
  0
VERTEX
  8
3050LEVEL
 62
13
 10
3135.026
 20
-4169.450
 30
2177.000
 70
    32
  0
VERTEX
  8
3050LEVEL
 62
13
 10
3131.218
 20
-4164.060
 30
2177.000
 70
    32
  0
VERTEX
  8
3050LEVEL
 62
13
 10
3127.663
 20
-4161.968
 30
2177.000
 70
    32
  0
VERTEX
  8
3050LEVEL
 62
13
 10
3120.059
 20
-4159.462
 30
2177.000
 70
    32
  0
VERTEX
  8
3050LEVEL
 62
13
 10
3116.122
 20
-4155.481
 30
2177.000
 70
    32
  0
VERTEX
  8
3050LEVEL
 62
13
 10
3113.904
 20
-4150.122
 30
2177.000
 70
    32
  0
VERTEX
  8
3050LEVEL
 62
13
 10
3112.109
 20
-4143.082
 30
2177.000
 70
    32
  0
VERTEX
  8
3050LEVEL
 62
13
 10
3110.034
 20
-4133.380
 30
2177.000
 70
    32
  0
VERTEX
  8
3050LEVEL
 62
13
 10
3109.254
 20
-4125.746
 30
2177.000
 70
    32
  0
VERTEX
  8
3050LEVEL
 62
13
 10
3109.298
 20
-4117.828
 30
2177.000
 70
    32
  0
VERTEX
  8
3050LEVEL
 62
13
 10
3109.860
 20
-4115.341
 30
2177.000
 70
    32
  0
VERTEX
  8
3050LEVEL
 62
13
 10
3112.288
 20
-4115.618
 30
2177.000
 70
    32
  0
VERTEX
  8
3050LEVEL
 62
13
 10
3116.684
 20
-4118.770
 30
2177.000
 70
    32
  0
VERTEX
  8
3050LEVEL
 62
13
 10
3118.762
 20
-4120.659
 30
2177.000
 70
    32
  0
VERTEX
  8
3050LEVEL
 62
13
 10
3123.081
 20
-4122.251
 30
2177.000
 70
    32
  0
VERTEX
  8
3050LEVEL
 62
13
 10
3128.381
 20
-4124.026
 30
2177.000
 70
    32
  0
VERTEX
  8
3050LEVEL
 62
13
 10
3132.712
 20
-4127.033
 30
2177.000
 70
    32
  0
VERTEX
  8
3050LEVEL
 62
13
 10
3136.019
 20
-4130.847
 30
2177.000
 70
    32
  0
VERTEX
  8
3050LEVEL
 62
13
 10
3136.813
 20
-4134.733
 30
2177.000
 70
    32
  0
VERTEX
  8
3050LEVEL
 62
13
 10
3136.561
 20
-4137.410
 30
2177.000
 70
    32
  0
VERTEX
  8
3050LEVEL
 62
13
 10
3138.143
 20
-4141.930
 30
2177.000
 70
    32
  0
VERTEX
  8
3050LEVEL
 62
13
 10
3139.836
 20
-4147.162
 30
2177.000
 70
    32
  0
VERTEX
  8
3050LEVEL
 62
13
 10
3143.962
 20
-4153.413
 30
2177.000
 70
    32
  0
VERTEX
  8
3050LEVEL
 62
13
 10
3152.249
 20
-4162.489
 30
2177.000
 70
    32
  0
VERTEX
  8
3050LEVEL
 62
13
 10
3158.130
 20
-4167.328
 30
2177.000
 70
    32
  0
VERTEX
  8
3050LEVEL
 62
13
 10
3164.413
 20
-4174.446
 30
2177.000
 70
    32
  0
VERTEX
  8
3050LEVEL
 62
13
 10
3167.591
 20
-4179.669
 30
2177.000
 70
    32
  0
VERTEX
  8
3050LEVEL
 62
13
 10
3171.689
 20
-4185.742
 30
2177.000
 70
    32
  0
VERTEX
  8
3050LEVEL
 62
13
 10
3174.484
 20
-4188.262
 30
2177.000
 70
    32
  0
VERTEX
  8
3050LEVEL
 62
13
 10
3174.908
 20
-4188.279
 30
2177.000
 70
    32
  0
VERTEX
  8
3050LEVEL
 62
13
 10
3176.704
 20
-4185.879
 30
2177.000
 70
    32
  0
VERTEX
  8
3050LEVEL
 62
13
 10
3176.844
 20
-4184.187
 30
2177.000
 70
    32
  0
VERTEX
  8
3050LEVEL
 62
13
 10
3175.959
 20
-4180.792
 30
2177.000
 70
    32
  0
VERTEX
  8
3050LEVEL
 62
13
 10
3174.514
 20
-4176.419
 30
2177.000
 70
    32
  0
VERTEX
  8
3050LEVEL
 62
13
 10
3172.639
 20
-4169.589
 30
2177.000
 70
    32
  0
VERTEX
  8
3050LEVEL
 62
13
 10
3171.081
 20
-4164.504
 30
2177.000
 70
    32
  0
VERTEX
  8
3050LEVEL
 62
13
 10
3168.923
 20
-4158.546
 30
2177.000
 70
    32
  0
VERTEX
  8
3050LEVEL
 62
13
 10
3166.416
 20
-4151.618
 30
2177.000
 70
    32
  0
VERTEX
  8
3050LEVEL
 62
13
 10
3163.739
 20
-4147.088
 30
2177.000
 70
    32
  0
VERTEX
  8
3050LEVEL
 62
13
 10
3161.141
 20
-4143.233
 30
2177.000
 70
    32
  0
VERTEX
  8
3050LEVEL
 62
13
 10
3159.100
 20
-4137.846
 30
2177.000
 70
    32
  0
VERTEX
  8
3050LEVEL
 62
13
 10
3158.842
 20
-4134.688
 30
2177.000
 70
    32
  0
VERTEX
  8
3050LEVEL
 62
13
 10
3159.627
 20
-4130.231
 30
2177.000
 70
    32
  0
VERTEX
  8
3050LEVEL
 62
13
 10
3161.927
 20
-4125.058
 30
2177.000
 70
    32
  0
VERTEX
  8
3050LEVEL
 62
13
 10
3162.431
 20
-4121.401
 30
2177.000
 70
    32
  0
VERTEX
  8
3050LEVEL
 62
13
 10
3162.280
 20
-4118.213
 30
2177.000
 70
    32
  0
VERTEX
  8
3050LEVEL
 62
13
 10
3159.883
 20
-4113.765
 30
2177.000
 70
    32
  0
VERTEX
  8
3050LEVEL
 62
13
 10
3159.244
 20
-4109.532
 30
2177.000
 70
    32
  0
VERTEX
  8
3050LEVEL
 62
13
 10
3159.409
 20
-4106.392
 30
2177.000
 70
    32
  0
VERTEX
  8
3050LEVEL
 62
13
 10
3158.342
 20
-4103.979
 30
2177.000
 70
    32
  0
VERTEX
  8
3050LEVEL
 62
13
 10
3157.872
 20
-4100.813
 30
2177.000
 70
    32
  0
VERTEX
  8
3050LEVEL
 62
13
 10
3156.981
 20
-4097.559
 30
2177.000
 70
    32
  0
VERTEX
  8
3050LEVEL
 62
13
 10
3156.281
 20
-4094.808
 30
2177.000
 70
    32
  0
VERTEX
  8
3050LEVEL
 62
13
 10
3154.913
 20
-4089.412
 30
2177.000
 70
    32
  0
VERTEX
  8
3050LEVEL
 62
13
 10
3153.698
 20
-4083.741
 30
2177.000
 70
    32
  0
VERTEX
  8
3050LEVEL
 62
13
 10
3151.836
 20
-4078.325
 30
2177.000
 70
    32
  0
VERTEX
  8
3050LEVEL
 62
13
 10
3150.248
 20
-4072.249
 30
2177.000
 70
    32
  0
VERTEX
  8
3050LEVEL
 62
13
 10
3147.483
 20
-4063.862
 30
2177.000
 70
    32
  0
VERTEX
  8
3050LEVEL
 62
13
 10
3145.008
 20
-4058.739
 30
2177.000
 70
    32
  0
VERTEX
  8
3050LEVEL
 62
13
 10
3144.500
 20
-4053.909
 30
2177.000
 70
    32
  0
VERTEX
  8
3050LEVEL
 62
13
 10
3144.247
 20
-4048.914
 30
2177.000
 70
    32
  0
VERTEX
  8
3050LEVEL
 62
13
 10
3143.737
 20
-4045.852
 30
2177.000
 70
    32
  0
VERTEX
  8
3050LEVEL
 62
13
 10
3142.040
 20
-4043.272
 30
2177.000
 70
    32
  0
VERTEX
  8
3050LEVEL
 62
13
 10
3136.552
 20
-4035.762
 30
2177.000
 70
    32
  0
VERTEX
  8
3050LEVEL
 62
13
 10
3132.226
 20
-4029.219
 30
2177.000
 70
    32
  0
VERTEX
  8
3050LEVEL
 62
13
 10
3130.089
 20
-4024.464
 30
2177.000
 70
    32
  0
VERTEX
  8
3050LEVEL
 62
13
 10
3127.330
 20
-4020.214
 30
2177.000
 70
    32
  0
VERTEX
  8
3050LEVEL
 62
13
 10
3123.231
 20
-4016.721
 30
2177.000
 70
    32
  0
VERTEX
  8
3050LEVEL
 62
13
 10
3117.639
 20
-4013.449
 30
2177.000
 70
    32
  0
VERTEX
  8
3050LEVEL
 62
13
 10
3113.661
 20
-4010.457
 30
2177.000
 70
    32
  0
VERTEX
  8
3050LEVEL
 62
13
 10
3108.421
 20
-4005.503
 30
2177.000
 70
    32
  0
VERTEX
  8
3050LEVEL
 62
13
 10
3106.420
 20
-4004.289
 30
2177.000
 70
    32
  0
VERTEX
  8
3050LEVEL
 62
13
 10
3106.507
 20
-4004.752
 30
2177.000
 70
    32
  0
VERTEX
  8
3050LEVEL
 62
13
 10
3107.586
 20
-4006.882
 30
2177.000
 70
    32
  0
VERTEX
  8
3050LEVEL
 62
13
 10
3109.759
 20
-4009.907
 30
2177.000
 70
    32
  0
VERTEX
  8
3050LEVEL
 62
13
 10
3110.426
 20
-4011.737
 30
2177.000
 70
    32
  0
VERTEX
  8
3050LEVEL
 62
13
 10
3109.826
 20
-4012.561
 30
2177.000
 70
    32
  0
VERTEX
  8
3050LEVEL
 62
13
 10
3108.833
 20
-4011.778
 30
2177.000
 70
    32
  0
VERTEX
  8
3050LEVEL
 62
13
 10
3107.920
 20
-4010.785
 30
2177.000
 70
    32
  0
VERTEX
  8
3050LEVEL
 62
13
 10
3105.389
 20
-4007.004
 30
2177.000
 70
    32
  0
VERTEX
  8
3050LEVEL
 62
13
 10
3103.807
 20
-4003.367
 30
2177.000
 70
    32
  0
VERTEX
  8
3050LEVEL
 62
13
 10
3103.298
 20
-3999.422
 30
2177.000
 70
    32
  0
VERTEX
  8
3050LEVEL
 62
13
 10
3103.195
 20
-3991.640
 30
2177.000
 70
    32
  0
VERTEX
  8
3050LEVEL
 62
13
 10
3103.986
 20
-3982.763
 30
2177.000
 70
    32
  0
VERTEX
  8
3050LEVEL
 62
13
 10
3104.960
 20
-3977.994
 30
2177.000
 70
    32
  0
VERTEX
  8
3050LEVEL
 62
13
 10
3106.746
 20
-3973.295
 30
2177.000
 70
    32
  0
VERTEX
  8
3050LEVEL
 62
13
 10
3108.132
 20
-3971.408
 30
2177.000
 70
    32
  0
VERTEX
  8
3050LEVEL
 62
13
 10
3110.661
 20
-3970.098
 30
2177.000
 70
    32
  0
VERTEX
  8
3050LEVEL
 62
13
 10
3113.924
 20
-3968.995
 30
2177.000
 70
    32
  0
VERTEX
  8
3050LEVEL
 62
13
 10
3115.929
 20
-3968.371
 30
2177.000
 70
    32
  0
VERTEX
  8
3050LEVEL
 62
13
 10
3116.521
 20
-3969.456
 30
2177.000
 70
    32
  0
VERTEX
  8
3050LEVEL
 62
13
 10
3115.377
 20
-3971.460
 30
2177.000
 70
    32
  0
VERTEX
  8
3050LEVEL
 62
13
 10
3112.941
 20
-3973.091
 30
2177.000
 70
    32
  0
VERTEX
  8
3050LEVEL
 62
13
 10
3111.268
 20
-3974.224
 30
2177.000
 70
    32
  0
VERTEX
  8
3050LEVEL
 62
13
 10
3109.492
 20
-3976.131
 30
2177.000
 70
    32
  0
VERTEX
  8
3050LEVEL
 62
13
 10
3107.970
 20
-3978.755
 30
2177.000
 70
    32
  0
VERTEX
  8
3050LEVEL
 62
13
 10
3107.854
 20
-3980.695
 30
2177.000
 70
    32
  0
VERTEX
  8
3050LEVEL
 62
13
 10
3110.117
 20
-3984.112
 30
2177.000
 70
    32
  0
VERTEX
  8
3050LEVEL
 62
13
 10
3112.784
 20
-3985.459
 30
2177.000
 70
    32
  0
VERTEX
  8
3050LEVEL
 62
13
 10
3114.887
 20
-3985.900
 30
2177.000
 70
    32
  0
VERTEX
  8
3050LEVEL
 62
13
 10
3119.753
 20
-3983.661
 30
2177.000
 70
    32
  0
VERTEX
  8
3050LEVEL
 62
13
 10
3121.906
 20
-3982.018
 30
2177.000
 70
    32
  0
VERTEX
  8
3050LEVEL
 62
13
 10
3124.749
 20
-3980.827
 30
2177.000
 70
    32
  0
VERTEX
  8
3050LEVEL
 62
13
 10
3128.068
 20
-3980.080
 30
2177.000
 70
    32
  0
VERTEX
  8
3050LEVEL
 62
13
 10
3131.367
 20
-3981.524
 30
2177.000
 70
    32
  0
VERTEX
  8
3050LEVEL
 62
13
 10
3133.193
 20
-3984.393
 30
2177.000
 70
    32
  0
VERTEX
  8
3050LEVEL
 62
13
 10
3135.160
 20
-3987.267
 30
2177.000
 70
    32
  0
VERTEX
  8
3050LEVEL
 62
13
 10
3140.881
 20
-3995.989
 30
2177.000
 70
    32
  0
VERTEX
  8
3050LEVEL
 62
13
 10
3145.225
 20
-4002.108
 30
2177.000
 70
    32
  0
VERTEX
  8
3050LEVEL
 62
13
 10
3151.305
 20
-4008.122
 30
2177.000
 70
    32
  0
VERTEX
  8
3050LEVEL
 62
13
 10
3161.724
 20
-4015.235
 30
2177.000
 70
    32
  0
VERTEX
  8
3050LEVEL
 62
13
 10
3168.493
 20
-4021.701
 30
2177.000
 70
    32
  0
VERTEX
  8
3050LEVEL
 62
13
 10
3174.853
 20
-4027.798
 30
2177.000
 70
    32
  0
VERTEX
  8
3050LEVEL
 62
13
 10
3178.876
 20
-4030.545
 30
2177.000
 70
    32
  0
VERTEX
  8
3050LEVEL
 62
13
 10
3179.946
 20
-4030.306
 30
2177.000
 70
    32
  0
VERTEX
  8
3050LEVEL
 62
13
 10
3179.344
 20
-4028.620
 30
2177.000
 70
    32
  0
VERTEX
  8
3050LEVEL
 62
13
 10
3176.101
 20
-4023.253
 30
2177.000
 70
    32
  0
VERTEX
  8
3050LEVEL
 62
13
 10
3172.428
 20
-4018.010
 30
2177.000
 70
    32
  0
VERTEX
  8
3050LEVEL
 62
13
 10
3167.233
 20
-4006.835
 30
2177.000
 70
    32
  0
VERTEX
  8
3050LEVEL
 62
13
 10
3164.900
 20
-4000.834
 30
2177.000
 70
    32
  0
VERTEX
  8
3050LEVEL
 62
13
 10
3159.886
 20
-3992.955
 30
2177.000
 70
    32
  0
VERTEX
  8
3050LEVEL
 62
13
 10
3155.880
 20
-3988.088
 30
2177.000
 70
    32
  0
VERTEX
  8
3050LEVEL
 62
13
 10
3151.041
 20
-3982.832
 30
2177.000
 70
    32
  0
VERTEX
  8
3050LEVEL
 62
13
 10
3149.107
 20
-3978.297
 30
2177.000
 70
    32
  0
VERTEX
  8
3050LEVEL
 62
13
 10
3149.313
 20
-3976.750
 30
2177.000
 70
    32
  0
VERTEX
  8
3050LEVEL
 62
13
 10
3150.133
 20
-3977.420
 30
2177.000
 70
    32
  0
VERTEX
  8
3050LEVEL
 62
13
 10
3151.321
 20
-3978.636
 30
2177.000
 70
    32
  0
VERTEX
  8
3050LEVEL
 62
13
 10
3153.785
 20
-3981.460
 30
2177.000
 70
    32
  0
VERTEX
  8
3050LEVEL
 62
13
 10
3157.192
 20
-3984.571
 30
2177.000
 70
    32
  0
VERTEX
  8
3050LEVEL
 62
13
 10
3158.388
 20
-3985.575
 30
2177.000
 70
    32
  0
VERTEX
  8
3050LEVEL
 62
13
 10
3158.719
 20
-3985.270
 30
2177.000
 70
    32
  0
VERTEX
  8
3050LEVEL
 62
13
 10
3157.673
 20
-3984.060
 30
2177.000
 70
    32
  0
VERTEX
  8
3050LEVEL
 62
13
 10
3155.891
 20
-3981.830
 30
2177.000
 70
    32
  0
VERTEX
  8
3050LEVEL
 62
13
 10
3154.087
 20
-3979.281
 30
2177.000
 70
    32
  0
VERTEX
  8
3050LEVEL
 62
13
 10
3153.102
 20
-3976.588
 30
2177.000
 70
    32
  0
VERTEX
  8
3050LEVEL
 62
13
 10
3153.239
 20
-3975.851
 30
2177.000
 70
    32
  0
VERTEX
  8
3050LEVEL
 62
13
 10
3154.610
 20
-3976.898
 30
2177.000
 70
    32
  0
VERTEX
  8
3050LEVEL
 62
13
 10
3156.169
 20
-3978.518
 30
2177.000
 70
    32
  0
VERTEX
  8
3050LEVEL
 62
13
 10
3158.380
 20
-3980.625
 30
2177.000
 70
    32
  0
VERTEX
  8
3050LEVEL
 62
13
 10
3159.859
 20
-3981.640
 30
2177.000
 70
    32
  0
VERTEX
  8
3050LEVEL
 62
13
 10
3159.849
 20
-3980.155
 30
2177.000
 70
    32
  0
VERTEX
  8
3050LEVEL
 62
13
 10
3159.297
 20
-3978.965
 30
2177.000
 70
    32
  0
VERTEX
  8
3050LEVEL
 62
13
 10
3157.608
 20
-3975.360
 30
2177.000
 70
    32
  0
VERTEX
  8
3050LEVEL
 62
13
 10
3155.861
 20
-3972.283
 30
2177.000
 70
    32
  0
VERTEX
  8
3050LEVEL
 62
13
 10
3155.082
 20
-3969.740
 30
2177.000
 70
    32
  0
VERTEX
  8
3050LEVEL
 62
13
 10
3156.254
 20
-3969.612
 30
2177.000
 70
    32
  0
VERTEX
  8
3050LEVEL
 62
13
 10
3158.164
 20
-3971.317
 30
2177.000
 70
    32
  0
VERTEX
  8
3050LEVEL
 62
13
 10
3159.479
 20
-3973.705
 30
2177.000
 70
    32
  0
VERTEX
  8
3050LEVEL
 62
13
 10
3162.989
 20
-3978.623
 30
2177.000
 70
    32
  0
VERTEX
  8
3050LEVEL
 62
13
 10
3168.539
 20
-3988.045
 30
2177.000
 70
    32
  0
VERTEX
  8
3050LEVEL
 62
13
 10
3175.679
 20
-4000.078
 30
2177.000
 70
    32
  0
VERTEX
  8
3050LEVEL
 62
13
 10
3180.684
 20
-4008.169
 30
2177.000
 70
    32
  0
VERTEX
  8
3050LEVEL
 62
13
 10
3188.480
 20
-4017.153
 30
2177.000
 70
    32
  0
VERTEX
  8
3050LEVEL
 62
13
 10
3200.554
 20
-4028.718
 30
2177.000
 70
    32
  0
VERTEX
  8
3050LEVEL
 62
13
 10
3207.696
 20
-4036.402
 30
2177.000
 70
    32
  0
VERTEX
  8
3050LEVEL
 62
13
 10
3220.513
 20
-4049.659
 30
2177.000
 70
    32
  0
VERTEX
  8
3050LEVEL
 62
13
 10
3229.144
 20
-4061.542
 30
2177.000
 70
    32
  0
VERTEX
  8
3050LEVEL
 62
13
 10
3239.741
 20
-4072.904
 30
2177.000
 70
    32
  0
VERTEX
  8
3050LEVEL
 62
13
 10
3254.401
 20
-4086.909
 30
2177.000
 70
    32
  0
VERTEX
  8
3050LEVEL
 62
13
 10
3266.362
 20
-4098.646
 30
2177.000
 70
    32
  0
VERTEX
  8
3050LEVEL
 62
13
 10
3276.386
 20
-4107.616
 30
2177.000
 70
    32
  0
VERTEX
  8
3050LEVEL
 62
13
 10
3282.228
 20
-4109.979
 30
2177.000
 70
    32
  0
VERTEX
  8
3050LEVEL
 62
13
 10
3285.264
 20
-4110.104
 30
2177.000
 70
    32
  0
VERTEX
  8
3050LEVEL
 62
13
 10
3285.701
 20
-4108.072
 30
2177.000
 70
    32
  0
VERTEX
  8
3050LEVEL
 62
13
 10
3283.785
 20
-4104.811
 30
2177.000
 70
    32
  0
VERTEX
  8
3050LEVEL
 62
13
 10
3276.943
 20
-4094.133
 30
2177.000
 70
    32
  0
VERTEX
  8
3050LEVEL
 62
13
 10
3268.670
 20
-4084.705
 30
2177.000
 70
    32
  0
VERTEX
  8
3050LEVEL
 62
13
 10
3262.553
 20
-4078.725
 30
2177.000
 70
    32
  0
VERTEX
  8
3050LEVEL
 62
13
 10
3251.945
 20
-4069.342
 30
2177.000
 70
    32
  0
VERTEX
  8
3050LEVEL
 62
13
 10
3242.850
 20
-4062.709
 30
2177.000
 70
    32
  0
VERTEX
  8
3050LEVEL
 62
13
 10
3235.259
 20
-4052.177
 30
2177.000
 70
    32
  0
VERTEX
  8
3050LEVEL
 62
13
 10
3232.214
 20
-4043.708
 30
2177.000
 70
    32
  0
VERTEX
  8
3050LEVEL
 62
13
 10
3232.204
 20
-4040.525
 30
2177.000
 70
    32
  0
VERTEX
  8
3050LEVEL
 62
13
 10
3234.865
 20
-4042.014
 30
2177.000
 70
    32
  0
VERTEX
  8
3050LEVEL
 62
13
 10
3238.777
 20
-4045.746
 30
2177.000
 70
    32
  0
VERTEX
  8
3050LEVEL
 62
13
 10
3245.013
 20
-4053.994
 30
2177.000
 70
    32
  0
VERTEX
  8
3050LEVEL
 62
13
 10
3251.061
 20
-4060.785
 30
2177.000
 70
    32
  0
VERTEX
  8
3050LEVEL
 62
13
 10
3260.029
 20
-4069.641
 30
2177.000
 70
    32
  0
VERTEX
  8
3050LEVEL
 62
13
 10
3266.863
 20
-4073.670
 30
2177.000
 70
    32
  0
VERTEX
  8
3050LEVEL
 62
13
 10
3268.313
 20
-4072.811
 30
2177.000
 70
    32
  0
VERTEX
  8
3050LEVEL
 62
13
 10
3265.667
 20
-4068.388
 30
2177.000
 70
    32
  0
VERTEX
  8
3050LEVEL
 62
13
 10
3259.838
 20
-4062.279
 30
2177.000
 70
    32
  0
VERTEX
  8
3050LEVEL
 62
13
 10
3253.354
 20
-4054.056
 30
2177.000
 70
    32
  0
VERTEX
  8
3050LEVEL
 62
13
 10
3248.424
 20
-4045.013
 30
2177.000
 70
    32
  0
VERTEX
  8
3050LEVEL
 62
13
 10
3247.157
 20
-4039.728
 30
2177.000
 70
    32
  0
VERTEX
  8
3050LEVEL
 62
13
 10
3248.421
 20
-4038.225
 30
2177.000
 70
    32
  0
VERTEX
  8
3050LEVEL
 62
13
 10
3250.969
 20
-4039.886
 30
2177.000
 70
    32
  0
VERTEX
  8
3050LEVEL
 62
13
 10
3256.114
 20
-4044.588
 30
2177.000
 70
    32
  0
VERTEX
  8
3050LEVEL
 62
13
 10
3260.370
 20
-4048.547
 30
2177.000
 70
    32
  0
VERTEX
  8
3050LEVEL
 62
13
 10
3266.876
 20
-4054.508
 30
2177.000
 70
    32
  0
VERTEX
  8
3050LEVEL
 62
13
 10
3273.673
 20
-4059.456
 30
2177.000
 70
    32
  0
VERTEX
  8
3050LEVEL
 62
13
 10
3283.097
 20
-4064.972
 30
2177.000
 70
    32
  0
VERTEX
  8
3050LEVEL
 62
13
 10
3288.615
 20
-4066.614
 30
2177.000
 70
    32
  0
VERTEX
  8
3050LEVEL
 62
13
 10
3296.609
 20
-4073.379
 30
2177.000
 70
    32
  0
VERTEX
  8
3050LEVEL
 62
13
 10
3305.218
 20
-4078.083
 30
2177.000
 70
    32
  0
VERTEX
  8
3050LEVEL
 62
13
 10
3310.824
 20
-4077.607
 30
2177.000
 70
    32
  0
VERTEX
  8
3050LEVEL
 62
13
 10
3311.065
 20
-4075.213
 30
2177.000
 70
    32
  0
VERTEX
  8
3050LEVEL
 62
13
 10
3307.236
 20
-4068.620
 30
2177.000
 70
    32
  0
VERTEX
  8
3050LEVEL
 62
13
 10
3303.044
 20
-4060.527
 30
2177.000
 70
    32
  0
VERTEX
  8
3050LEVEL
 62
13
 10
3300.587
 20
-4048.122
 30
2177.000
 70
    32
  0
VERTEX
  8
3050LEVEL
 62
13
 10
3301.403
 20
-4041.191
 30
2177.000
 70
    32
  0
VERTEX
  8
3050LEVEL
 62
13
 10
3305.141
 20
-4032.860
 30
2177.000
 70
    32
  0
VERTEX
  8
3050LEVEL
 62
13
 10
3307.075
 20
-4031.419
 30
2177.000
 70
    32
  0
VERTEX
  8
3050LEVEL
 62
13
 10
3312.247
 20
-4032.022
 30
2177.000
 70
    32
  0
VERTEX
  8
3050LEVEL
 62
13
 10
3317.270
 20
-4034.527
 30
2177.000
 70
    32
  0
VERTEX
  8
3050LEVEL
 62
13
 10
3331.739
 20
-4041.171
 30
2177.000
 70
    32
  0
VERTEX
  8
3050LEVEL
 62
13
 10
3344.422
 20
-4049.119
 30
2177.000
 70
    32
  0
VERTEX
  8
3050LEVEL
 62
13
 10
3353.045
 20
-4054.354
 30
2177.000
 70
    32
  0
VERTEX
  8
3050LEVEL
 62
13
 10
3370.485
 20
-4066.954
 30
2177.000
 70
    32
  0
VERTEX
  8
3050LEVEL
 62
13
 10
3379.985
 20
-4074.912
 30
2177.000
 70
    32
  0
VERTEX
  8
3050LEVEL
 62
13
 10
3395.402
 20
-4088.560
 30
2177.000
 70
    32
  0
VERTEX
  8
3050LEVEL
 62
13
 10
3408.868
 20
-4102.374
 30
2177.000
 70
    32
  0
VERTEX
  8
3050LEVEL
 62
13
 10
3418.777
 20
-4113.284
 30
2177.000
 70
    32
  0
VERTEX
  8
3050LEVEL
 62
13
 10
3432.604
 20
-4129.482
 30
2177.000
 70
    32
  0
VERTEX
  8
3050LEVEL
 62
13
 10
3451.510
 20
-4148.542
 30
2177.000
 70
    32
  0
VERTEX
  8
3050LEVEL
 62
13
 10
3462.713
 20
-4160.637
 30
2177.000
 70
    32
  0
VERTEX
  8
3050LEVEL
 62
13
 10
3478.497
 20
-4174.830
 30
2177.000
 70
    32
  0
VERTEX
  8
3050LEVEL
 62
13
 10
3489.479
 20
-4187.127
 30
2177.000
 70
    32
  0
VERTEX
  8
3050LEVEL
 62
13
 10
3498.939
 20
-4197.771
 30
2177.000
 70
    32
  0
VERTEX
  8
3050LEVEL
 62
13
 10
3505.881
 20
-4203.467
 30
2177.000
 70
    32
  0
VERTEX
  8
3050LEVEL
 62
13
 10
3507.488
 20
-4203.958
 30
2177.000
 70
    32
  0
VERTEX
  8
3050LEVEL
 62
13
 10
3508.674
 20
-4201.779
 30
2177.000
 70
    32
  0
VERTEX
  8
3050LEVEL
 62
13
 10
3507.791
 20
-4194.036
 30
2177.000
 70
    32
  0
VERTEX
  8
3050LEVEL
 62
13
 10
3507.805
 20
-4187.707
 30
2177.000
 70
    32
  0
VERTEX
  8
3050LEVEL
 62
13
 10
3509.247
 20
-4177.620
 30
2177.000
 70
    32
  0
VERTEX
  8
3050LEVEL
 62
13
 10
3509.211
 20
-4172.492
 30
2177.000
 70
    32
  0
VERTEX
  8
3050LEVEL
 62
13
 10
3509.780
 20
-4158.727
 30
2177.000
 70
    32
  0
VERTEX
  8
3050LEVEL
 62
13
 10
3511.022
 20
-4150.045
 30
2177.000
 70
    32
  0
VERTEX
  8
3050LEVEL
 62
13
 10
3515.669
 20
-4140.267
 30
2177.000
 70
    32
  0
VERTEX
  8
3050LEVEL
 62
13
 10
3519.326
 20
-4137.306
 30
2177.000
 70
    32
  0
VERTEX
  8
3050LEVEL
 62
13
 10
3524.374
 20
-4135.782
 30
2177.000
 70
    32
  0
VERTEX
  8
3050LEVEL
 62
13
 10
3530.326
 20
-4134.649
 30
2177.000
 70
    32
  0
VERTEX
  8
3050LEVEL
 62
13
 10
3532.984
 20
-4133.628
 30
2177.000
 70
    32
  0
VERTEX
  8
3050LEVEL
 62
13
 10
3535.190
 20
-4130.714
 30
2177.000
 70
    32
  0
VERTEX
  8
3050LEVEL
 62
13
 10
3537.314
 20
-4122.104
 30
2177.000
 70
    32
  0
VERTEX
  8
3050LEVEL
 62
13
 10
3538.079
 20
-4115.559
 30
2177.000
 70
    32
  0
SEQEND
  8
3050LEVEL
  0
POLYLINE
  8
3050LEVEL
 62
7
 66
     1
 70
     8
  0
VERTEX
  8
3050LEVEL
 62
7
 10
3332.793
 20
-4507.945
 30
2177.000
 70
    32
  0
VERTEX
  8
3050LEVEL
 62
7
 10
3333.720
 20
-4509.468
 30
2177.000
 70
    32
  0
VERTEX
  8
3050LEVEL
 62
7
 10
3336.439
 20
-4516.404
 30
2177.000
 70
    32
  0
VERTEX
  8
3050LEVEL
 62
7
 10
3337.579
 20
-4517.052
 30
2177.000
 70
    32
  0
VERTEX
  8
3050LEVEL
 62
7
 10
3340.445
 20
-4516.993
 30
2177.000
 70
    32
  0
VERTEX
  8
3050LEVEL
 62
7
 10
3344.076
 20
-4515.552
 30
2177.000
 70
    32
  0
VERTEX
  8
3050LEVEL
 62
7
 10
3346.065
 20
-4511.887
 30
2177.000
 70
    32
  0
VERTEX
  8
3050LEVEL
 62
7
 10
3347.562
 20
-4509.898
 30
2177.000
 70
    32
  0
VERTEX
  8
3050LEVEL
 62
7
 10
3350.836
 20
-4511.094
 30
2177.000
 70
    32
  0
VERTEX
  8
3050LEVEL
 62
7
 10
3353.950
 20
-4511.894
 30
2177.000
 70
    32
  0
VERTEX
  8
3050LEVEL
 62
7
 10
3355.994
 20
-4509.468
 30
2177.000
 70
    32
  0
VERTEX
  8
3050LEVEL
 62
7
 10
3356.920
 20
-4507.597
 30
2177.000
 70
    32
  0
VERTEX
  8
3050LEVEL
 62
7
 10
3358.675
 20
-4508.766
 30
2177.000
 70
    32
  0
VERTEX
  8
3050LEVEL
 62
7
 10
3363.686
 20
-4514.135
 30
2177.000
 70
    32
  0
VERTEX
  8
3050LEVEL
 62
7
 10
3366.815
 20
-4516.279
 30
2177.000
 70
    32
  0
VERTEX
  8
3050LEVEL
 62
7
 10
3368.498
 20
-4515.748
 30
2177.000
 70
    32
  0
VERTEX
  8
3050LEVEL
 62
7
 10
3369.049
 20
-4513.543
 30
2177.000
 70
    32
  0
VERTEX
  8
3050LEVEL
 62
7
 10
3366.876
 20
-4507.938
 30
2177.000
 70
    32
  0
VERTEX
  8
3050LEVEL
 62
7
 10
3365.676
 20
-4503.610
 30
2177.000
 70
    32
  0
VERTEX
  8
3050LEVEL
 62
7
 10
3365.683
 20
-4498.307
 30
2177.000
 70
    32
  0
VERTEX
  8
3050LEVEL
 62
7
 10
3367.304
 20
-4495.864
 30
2177.000
 70
    32
  0
VERTEX
  8
3050LEVEL
 62
7
 10
3369.153
 20
-4496.470
 30
2177.000
 70
    32
  0
VERTEX
  8
3050LEVEL
 62
7
 10
3371.829
 20
-4499.303
 30
2177.000
 70
    32
  0
VERTEX
  8
3050LEVEL
 62
7
 10
3374.485
 20
-4500.049
 30
2177.000
 70
    32
  0
VERTEX
  8
3050LEVEL
 62
7
 10
3375.370
 20
-4497.470
 30
2177.000
 70
    32
  0
VERTEX
  8
3050LEVEL
 62
7
 10
3376.134
 20
-4493.506
 30
2177.000
 70
    32
  0
VERTEX
  8
3050LEVEL
 62
7
 10
3377.358
 20
-4492.991
 30
2177.000
 70
    32
  0
VERTEX
  8
3050LEVEL
 62
7
 10
3378.946
 20
-4493.905
 30
2177.000
 70
    32
  0
VERTEX
  8
3050LEVEL
 62
7
 10
3381.152
 20
-4497.850
 30
2177.000
 70
    32
  0
VERTEX
  8
3050LEVEL
 62
7
 10
3383.323
 20
-4505.223
 30
2177.000
 70
    32
  0
VERTEX
  8
3050LEVEL
 62
7
 10
3384.498
 20
-4513.580
 30
2177.000
 70
    32
  0
VERTEX
  8
3050LEVEL
 62
7
 10
3389.314
 20
-4529.653
 30
2177.000
 70
    32
  0
VERTEX
  8
3050LEVEL
 62
7
 10
3395.302
 20
-4546.483
 30
2177.000
 70
    32
  0
VERTEX
  8
3050LEVEL
 62
7
 10
3397.973
 20
-4555.432
 30
2177.000
 70
    32
  0
VERTEX
  8
3050LEVEL
 62
7
 10
3405.838
 20
-4572.162
 30
2177.000
 70
    32
  0
VERTEX
  8
3050LEVEL
 62
7
 10
3410.853
 20
-4587.981
 30
2177.000
 70
    32
  0
VERTEX
  8
3050LEVEL
 62
7
 10
3446.050
 20
-4668.063
 30
2177.000
 70
    32
  0
VERTEX
  8
3050LEVEL
 62
7
 10
3472.003
 20
-4710.417
 30
2177.000
 70
    32
  0
VERTEX
  8
3050LEVEL
 62
7
 10
3480.891
 20
-4711.485
 30
2177.000
 70
    32
  0
VERTEX
  8
3050LEVEL
 62
7
 10
3482.669
 20
-4707.214
 30
2177.000
 70
    32
  0
VERTEX
  8
3050LEVEL
 62
7
 10
3481.247
 20
-4694.045
 30
2177.000
 70
    32
  0
VERTEX
  8
3050LEVEL
 62
7
 10
3473.070
 20
-4671.266
 30
2177.000
 70
    32
  0
VERTEX
  8
3050LEVEL
 62
7
 10
3451.738
 20
-4624.285
 30
2177.000
 70
    32
  0
VERTEX
  8
3050LEVEL
 62
7
 10
3422.268
 20
-4564.708
 30
2177.000
 70
    32
  0
VERTEX
  8
3050LEVEL
 62
7
 10
3420.728
 20
-4560.897
 30
2177.000
 70
    32
  0
VERTEX
  8
3050LEVEL
 62
7
 10
3417.657
 20
-4553.063
 30
2177.000
 70
    32
  0
VERTEX
  8
3050LEVEL
 62
7
 10
3413.348
 20
-4542.702
 30
2177.000
 70
    32
  0
VERTEX
  8
3050LEVEL
 62
7
 10
3408.761
 20
-4530.492
 30
2177.000
 70
    32
  0
VERTEX
  8
3050LEVEL
 62
7
 10
3404.407
 20
-4516.912
 30
2177.000
 70
    32
  0
VERTEX
  8
3050LEVEL
 62
7
 10
3400.508
 20
-4505.155
 30
2177.000
 70
    32
  0
VERTEX
  8
3050LEVEL
 62
7
 10
3397.423
 20
-4497.673
 30
2177.000
 70
    32
  0
VERTEX
  8
3050LEVEL
 62
7
 10
3394.208
 20
-4488.207
 30
2177.000
 70
    32
  0
VERTEX
  8
3050LEVEL
 62
7
 10
3393.697
 20
-4483.448
 30
2177.000
 70
    32
  0
VERTEX
  8
3050LEVEL
 62
7
 10
3389.242
 20
-4480.895
 30
2177.000
 70
    32
  0
VERTEX
  8
3050LEVEL
 62
7
 10
3388.077
 20
-4477.417
 30
2177.000
 70
    32
  0
VERTEX
  8
3050LEVEL
 62
7
 10
3387.211
 20
-4472.715
 30
2177.000
 70
    32
  0
VERTEX
  8
3050LEVEL
 62
7
 10
3385.234
 20
-4464.077
 30
2177.000
 70
    32
  0
VERTEX
  8
3050LEVEL
 62
7
 10
3383.091
 20
-4459.463
 30
2177.000
 70
    32
  0
VERTEX
  8
3050LEVEL
 62
7
 10
3383.611
 20
-4458.848
 30
2177.000
 70
    32
  0
VERTEX
  8
3050LEVEL
 62
7
 10
3384.370
 20
-4457.607
 30
2177.000
 70
    32
  0
VERTEX
  8
3050LEVEL
 62
7
 10
3384.472
 20
-4456.833
 30
2177.000
 70
    32
  0
VERTEX
  8
3050LEVEL
 62
7
 10
3383.993
 20
-4452.182
 30
2177.000
 70
    32
  0
VERTEX
  8
3050LEVEL
 62
7
 10
3384.386
 20
-4445.233
 30
2177.000
 70
    32
  0
VERTEX
  8
3050LEVEL
 62
7
 10
3385.809
 20
-4436.453
 30
2177.000
 70
    32
  0
VERTEX
  8
3050LEVEL
 62
7
 10
3385.725
 20
-4431.641
 30
2177.000
 70
    32
  0
VERTEX
  8
3050LEVEL
 62
7
 10
3385.588
 20
-4423.821
 30
2177.000
 70
    32
  0
VERTEX
  8
3050LEVEL
 62
7
 10
3384.322
 20
-4415.956
 30
2177.000
 70
    32
  0
VERTEX
  8
3050LEVEL
 62
7
 10
3381.628
 20
-4407.571
 30
2177.000
 70
    32
  0
VERTEX
  8
3050LEVEL
 62
7
 10
3378.041
 20
-4399.397
 30
2177.000
 70
    32
  0
VERTEX
  8
3050LEVEL
 62
7
 10
3375.854
 20
-4395.842
 30
2177.000
 70
    32
  0
VERTEX
  8
3050LEVEL
 62
7
 10
3376.058
 20
-4393.482
 30
2177.000
 70
    32
  0
VERTEX
  8
3050LEVEL
 62
7
 10
3376.762
 20
-4394.395
 30
2177.000
 70
    32
  0
VERTEX
  8
3050LEVEL
 62
7
 10
3378.908
 20
-4397.241
 30
2177.000
 70
    32
  0
VERTEX
  8
3050LEVEL
 62
7
 10
3381.242
 20
-4399.777
 30
2177.000
 70
    32
  0
VERTEX
  8
3050LEVEL
 62
7
 10
3381.416
 20
-4399.006
 30
2177.000
 70
    32
  0
VERTEX
  8
3050LEVEL
 62
7
 10
3380.888
 20
-4396.368
 30
2177.000
 70
    32
  0
VERTEX
  8
3050LEVEL
 62
7
 10
3380.194
 20
-4393.476
 30
2177.000
 70
    32
  0
VERTEX
  8
3050LEVEL
 62
7
 10
3376.476
 20
-4388.478
 30
2177.000
 70
    32
  0
VERTEX
  8
3050LEVEL
 62
7
 10
3365.237
 20
-4378.115
 30
2177.000
 70
    32
  0
VERTEX
  8
3050LEVEL
 62
7
 10
3357.901
 20
-4371.695
 30
2177.000
 70
    32
  0
VERTEX
  8
3050LEVEL
 62
7
 10
3350.690
 20
-4366.518
 30
2177.000
 70
    32
  0
VERTEX
  8
3050LEVEL
 62
7
 10
3343.583
 20
-4361.381
 30
2177.000
 70
    32
  0
VERTEX
  8
3050LEVEL
 62
7
 10
3339.875
 20
-4359.566
 30
2177.000
 70
    32
  0
VERTEX
  8
3050LEVEL
 62
7
 10
3339.899
 20
-4360.699
 30
2177.000
 70
    32
  0
VERTEX
  8
3050LEVEL
 62
7
 10
3341.119
 20
-4362.835
 30
2177.000
 70
    32
  0
VERTEX
  8
3050LEVEL
 62
7
 10
3345.590
 20
-4371.010
 30
2177.000
 70
    32
  0
VERTEX
  8
3050LEVEL
 62
7
 10
3348.527
 20
-4376.930
 30
2177.000
 70
    32
  0
VERTEX
  8
3050LEVEL
 62
7
 10
3347.603
 20
-4379.614
 30
2177.000
 70
    32
  0
VERTEX
  8
3050LEVEL
 62
7
 10
3345.602
 20
-4379.284
 30
2177.000
 70
    32
  0
VERTEX
  8
3050LEVEL
 62
7
 10
3344.295
 20
-4376.684
 30
2177.000
 70
    32
  0
VERTEX
  8
3050LEVEL
 62
7
 10
3342.380
 20
-4372.539
 30
2177.000
 70
    32
  0
VERTEX
  8
3050LEVEL
 62
7
 10
3340.286
 20
-4369.306
 30
2177.000
 70
    32
  0
VERTEX
  8
3050LEVEL
 62
7
 10
3337.226
 20
-4366.351
 30
2177.000
 70
    32
  0
VERTEX
  8
3050LEVEL
 62
7
 10
3337.103
 20
-4367.619
 30
2177.000
 70
    32
  0
VERTEX
  8
3050LEVEL
 62
7
 10
3337.686
 20
-4368.916
 30
2177.000
 70
    32
  0
VERTEX
  8
3050LEVEL
 62
7
 10
3338.332
 20
-4371.241
 30
2177.000
 70
    32
  0
VERTEX
  8
3050LEVEL
 62
7
 10
3338.013
 20
-4371.263
 30
2177.000
 70
    32
  0
VERTEX
  8
3050LEVEL
 62
7
 10
3335.462
 20
-4367.976
 30
2177.000
 70
    32
  0
VERTEX
  8
3050LEVEL
 62
7
 10
3331.569
 20
-4362.936
 30
2177.000
 70
    32
  0
VERTEX
  8
3050LEVEL
 62
7
 10
3327.870
 20
-4358.328
 30
2177.000
 70
    32
  0
VERTEX
  8
3050LEVEL
 62
7
 10
3323.071
 20
-4354.665
 30
2177.000
 70
    32
  0
VERTEX
  8
3050LEVEL
 62
7
 10
3321.606
 20
-4356.761
 30
2177.000
 70
    32
  0
VERTEX
  8
3050LEVEL
 62
7
 10
3320.648
 20
-4359.409
 30
2177.000
 70
    32
  0
VERTEX
  8
3050LEVEL
 62
7
 10
3319.917
 20
-4361.712
 30
2177.000
 70
    32
  0
VERTEX
  8
3050LEVEL
 62
7
 10
3316.933
 20
-4365.478
 30
2177.000
 70
    32
  0
VERTEX
  8
3050LEVEL
 62
7
 10
3315.020
 20
-4368.121
 30
2177.000
 70
    32
  0
VERTEX
  8
3050LEVEL
 62
7
 10
3313.655
 20
-4375.490
 30
2177.000
 70
    32
  0
VERTEX
  8
3050LEVEL
 62
7
 10
3313.778
 20
-4381.081
 30
2177.000
 70
    32
  0
VERTEX
  8
3050LEVEL
 62
7
 10
3318.139
 20
-4393.635
 30
2177.000
 70
    32
  0
VERTEX
  8
3050LEVEL
 62
7
 10
3322.534
 20
-4405.343
 30
2177.000
 70
    32
  0
VERTEX
  8
3050LEVEL
 62
7
 10
3325.938
 20
-4415.383
 30
2177.000
 70
    32
  0
VERTEX
  8
3050LEVEL
 62
7
 10
3327.515
 20
-4423.439
 30
2177.000
 70
    32
  0
VERTEX
  8
3050LEVEL
 62
7
 10
3326.973
 20
-4425.431
 30
2177.000
 70
    32
  0
VERTEX
  8
3050LEVEL
 62
7
 10
3325.314
 20
-4424.514
 30
2177.000
 70
    32
  0
VERTEX
  8
3050LEVEL
 62
7
 10
3321.331
 20
-4419.082
 30
2177.000
 70
    32
  0
VERTEX
  8
3050LEVEL
 62
7
 10
3318.929
 20
-4413.892
 30
2177.000
 70
    32
  0
VERTEX
  8
3050LEVEL
 62
7
 10
3318.198
 20
-4406.755
 30
2177.000
 70
    32
  0
VERTEX
  8
3050LEVEL
 62
7
 10
3317.249
 20
-4402.332
 30
2177.000
 70
    32
  0
VERTEX
  8
3050LEVEL
 62
7
 10
3314.768
 20
-4397.350
 30
2177.000
 70
    32
  0
VERTEX
  8
3050LEVEL
 62
7
 10
3310.888
 20
-4391.144
 30
2177.000
 70
    32
  0
VERTEX
  8
3050LEVEL
 62
7
 10
3305.474
 20
-4382.683
 30
2177.000
 70
    32
  0
VERTEX
  8
3050LEVEL
 62
7
 10
3302.305
 20
-4376.364
 30
2177.000
 70
    32
  0
VERTEX
  8
3050LEVEL
 62
7
 10
3295.546
 20
-4360.246
 30
2177.000
 70
    32
  0
VERTEX
  8
3050LEVEL
 62
7
 10
3293.727
 20
-4352.074
 30
2177.000
 70
    32
  0
VERTEX
  8
3050LEVEL
 62
7
 10
3293.431
 20
-4345.557
 30
2177.000
 70
    32
  0
VERTEX
  8
3050LEVEL
 62
7
 10
3292.601
 20
-4336.542
 30
2177.000
 70
    32
  0
VERTEX
  8
3050LEVEL
 62
7
 10
3289.446
 20
-4328.174
 30
2177.000
 70
    32
  0
VERTEX
  8
3050LEVEL
 62
7
 10
3284.035
 20
-4317.945
 30
2177.000
 70
    32
  0
VERTEX
  8
3050LEVEL
 62
7
 10
3279.829
 20
-4310.205
 30
2177.000
 70
    32
  0
VERTEX
  8
3050LEVEL
 62
7
 10
3274.611
 20
-4301.292
 30
2177.000
 70
    32
  0
VERTEX
  8
3050LEVEL
 62
7
 10
3272.694
 20
-4298.915
 30
2177.000
 70
    32
  0
VERTEX
  8
3050LEVEL
 62
7
 10
3271.767
 20
-4299.089
 30
2177.000
 70
    32
  0
VERTEX
  8
3050LEVEL
 62
7
 10
3268.117
 20
-4295.862
 30
2177.000
 70
    32
  0
VERTEX
  8
3050LEVEL
 62
7
 10
3263.069
 20
-4288.830
 30
2177.000
 70
    32
  0
VERTEX
  8
3050LEVEL
 62
7
 10
3257.716
 20
-4279.770
 30
2177.000
 70
    32
  0
VERTEX
  8
3050LEVEL
 62
7
 10
3251.454
 20
-4267.879
 30
2177.000
 70
    32
  0
VERTEX
  8
3050LEVEL
 62
7
 10
3249.002
 20
-4262.192
 30
2177.000
 70
    32
  0
VERTEX
  8
3050LEVEL
 62
7
 10
3247.171
 20
-4254.303
 30
2177.000
 70
    32
  0
VERTEX
  8
3050LEVEL
 62
7
 10
3246.479
 20
-4249.642
 30
2177.000
 70
    32
  0
VERTEX
  8
3050LEVEL
 62
7
 10
3245.865
 20
-4242.263
 30
2177.000
 70
    32
  0
VERTEX
  8
3050LEVEL
 62
7
 10
3244.377
 20
-4237.181
 30
2177.000
 70
    32
  0
VERTEX
  8
3050LEVEL
 62
7
 10
3240.695
 20
-4228.756
 30
2177.000
 70
    32
  0
VERTEX
  8
3050LEVEL
 62
7
 10
3234.673
 20
-4218.749
 30
2177.000
 70
    32
  0
VERTEX
  8
3050LEVEL
 62
7
 10
3232.417
 20
-4216.888
 30
2177.000
 70
    32
  0
VERTEX
  8
3050LEVEL
 62
7
 10
3231.119
 20
-4218.355
 30
2177.000
 70
    32
  0
VERTEX
  8
3050LEVEL
 62
7
 10
3230.665
 20
-4219.927
 30
2177.000
 70
    32
  0
VERTEX
  8
3050LEVEL
 62
7
 10
3229.335
 20
-4219.589
 30
2177.000
 70
    32
  0
VERTEX
  8
3050LEVEL
 62
7
 10
3226.411
 20
-4216.781
 30
2177.000
 70
    32
  0
VERTEX
  8
3050LEVEL
 62
7
 10
3224.299
 20
-4213.972
 30
2177.000
 70
    32
  0
VERTEX
  8
3050LEVEL
 62
7
 10
3220.254
 20
-4210.906
 30
2177.000
 70
    32
  0
VERTEX
  8
3050LEVEL
 62
7
 10
3218.173
 20
-4208.203
 30
2177.000
 70
    32
  0
VERTEX
  8
3050LEVEL
 62
7
 10
3217.952
 20
-4206.709
 30
2177.000
 70
    32
  0
VERTEX
  8
3050LEVEL
 62
7
 10
3218.850
 20
-4204.660
 30
2177.000
 70
    32
  0
VERTEX
  8
3050LEVEL
 62
7
 10
3217.408
 20
-4201.914
 30
2177.000
 70
    32
  0
VERTEX
  8
3050LEVEL
 62
7
 10
3215.155
 20
-4201.679
 30
2177.000
 70
    32
  0
VERTEX
  8
3050LEVEL
 62
7
 10
3213.780
 20
-4201.587
 30
2177.000
 70
    32
  0
VERTEX
  8
3050LEVEL
 62
7
 10
3213.207
 20
-4199.195
 30
2177.000
 70
    32
  0
VERTEX
  8
3050LEVEL
 62
7
 10
3213.621
 20
-4195.146
 30
2177.000
 70
    32
  0
VERTEX
  8
3050LEVEL
 62
7
 10
3211.466
 20
-4193.395
 30
2177.000
 70
    32
  0
VERTEX
  8
3050LEVEL
 62
7
 10
3208.853
 20
-4192.474
 30
2177.000
 70
    32
  0
VERTEX
  8
3050LEVEL
 62
7
 10
3207.364
 20
-4190.857
 30
2177.000
 70
    32
  0
VERTEX
  8
3050LEVEL
 62
7
 10
3205.983
 20
-4188.325
 30
2177.000
 70
    32
  0
VERTEX
  8
3050LEVEL
 62
7
 10
3203.471
 20
-4185.817
 30
2177.000
 70
    32
  0
VERTEX
  8
3050LEVEL
 62
7
 10
3200.601
 20
-4184.249
 30
2177.000
 70
    32
  0
VERTEX
  8
3050LEVEL
 62
7
 10
3199.999
 20
-4182.563
 30
2177.000
 70
    32
  0
VERTEX
  8
3050LEVEL
 62
7
 10
3198.537
 20
-4179.426
 30
2177.000
 70
    32
  0
VERTEX
  8
3050LEVEL
 62
7
 10
3190.243
 20
-4171.376
 30
2177.000
 70
    32
  0
VERTEX
  8
3050LEVEL
 62
7
 10
3190.069
 20
-4170.450
 30
2177.000
 70
    32
  0
VERTEX
  8
3050LEVEL
 62
7
 10
3191.357
 20
-4170.079
 30
2177.000
 70
    32
  0
VERTEX
  8
3050LEVEL
 62
7
 10
3192.891
 20
-4169.753
 30
2177.000
 70
    32
  0
VERTEX
  8
3050LEVEL
 62
7
 10
3193.698
 20
-4168.195
 30
2177.000
 70
    32
  0
VERTEX
  8
3050LEVEL
 62
7
 10
3194.089
 20
-4167.292
 30
2177.000
 70
    32
  0
VERTEX
  8
3050LEVEL
 62
7
 10
3196.644
 20
-4167.044
 30
2177.000
 70
    32
  0
VERTEX
  8
3050LEVEL
 62
7
 10
3199.683
 20
-4168.796
 30
2177.000
 70
    32
  0
VERTEX
  8
3050LEVEL
 62
7
 10
3201.307
 20
-4168.863
 30
2177.000
 70
    32
  0
VERTEX
  8
3050LEVEL
 62
7
 10
3202.919
 20
-4164.935
 30
2177.000
 70
    32
  0
VERTEX
  8
3050LEVEL
 62
7
 10
3200.366
 20
-4162.531
 30
2177.000
 70
    32
  0
VERTEX
  8
3050LEVEL
 62
7
 10
3198.167
 20
-4160.142
 30
2177.000
 70
    32
  0
VERTEX
  8
3050LEVEL
 62
7
 10
3194.555
 20
-4155.998
 30
2177.000
 70
    32
  0
VERTEX
  8
3050LEVEL
 62
7
 10
3193.363
 20
-4154.039
 30
2177.000
 70
    32
  0
VERTEX
  8
3050LEVEL
 62
7
 10
3191.845
 20
-4148.850
 30
2177.000
 70
    32
  0
VERTEX
  8
3050LEVEL
 62
7
 10
3191.690
 20
-4144.035
 30
2177.000
 70
    32
  0
VERTEX
  8
3050LEVEL
 62
7
 10
3191.087
 20
-4138.955
 30
2177.000
 70
    32
  0
VERTEX
  8
3050LEVEL
 62
7
 10
3190.192
 20
-4134.074
 30
2177.000
 70
    32
  0
VERTEX
  8
3050LEVEL
 62
7
 10
3190.828
 20
-4134.100
 30
2177.000
 70
    32
  0
VERTEX
  8
3050LEVEL
 62
7
 10
3192.445
 20
-4134.308
 30
2177.000
 70
    32
  0
VERTEX
  8
3050LEVEL
 62
7
 10
3194.347
 20
-4135.341
 30
2177.000
 70
    32
  0
VERTEX
  8
3050LEVEL
 62
7
 10
3198.306
 20
-4139.642
 30
2177.000
 70
    32
  0
VERTEX
  8
3050LEVEL
 62
7
 10
3201.087
 20
-4142.514
 30
2177.000
 70
    32
  0
VERTEX
  8
3050LEVEL
 62
7
 10
3201.975
 20
-4141.561
 30
2177.000
 70
    32
  0
VERTEX
  8
3050LEVEL
 62
7
 10
3200.623
 20
-4136.626
 30
2177.000
 70
    32
  0
VERTEX
  8
3050LEVEL
 62
7
 10
3198.918
 20
-4131.676
 30
2177.000
 70
    32
  0
VERTEX
  8
3050LEVEL
 62
7
 10
3196.698
 20
-4123.806
 30
2177.000
 70
    32
  0
VERTEX
  8
3050LEVEL
 62
7
 10
3195.953
 20
-4118.720
 30
2177.000
 70
    32
  0
VERTEX
  8
3050LEVEL
 62
7
 10
3195.295
 20
-4114.096
 30
2177.000
 70
    32
  0
VERTEX
  8
3050LEVEL
 62
7
 10
3192.014
 20
-4109.648
 30
2177.000
 70
    32
  0
VERTEX
  8
3050LEVEL
 62
7
 10
3189.181
 20
-4106.349
 30
2177.000
 70
    32
  0
VERTEX
  8
3050LEVEL
 62
7
 10
3185.401
 20
-4101.137
 30
2177.000
 70
    32
  0
VERTEX
  8
3050LEVEL
 62
7
 10
3177.011
 20
-4090.254
 30
2177.000
 70
    32
  0
VERTEX
  8
3050LEVEL
 62
7
 10
3172.785
 20
-4084.706
 30
2177.000
 70
    32
  0
VERTEX
  8
3050LEVEL
 62
7
 10
3167.683
 20
-4075.550
 30
2177.000
 70
    32
  0
VERTEX
  8
3050LEVEL
 62
7
 10
3163.965
 20
-4068.856
 30
2177.000
 70
    32
  0
VERTEX
  8
3050LEVEL
 62
7
 10
3155.964
 20
-4054.560
 30
2177.000
 70
    32
  0
VERTEX
  8
3050LEVEL
 62
7
 10
3150.781
 20
-4042.219
 30
2177.000
 70
    32
  0
VERTEX
  8
3050LEVEL
 62
7
 10
3147.854
 20
-4032.622
 30
2177.000
 70
    32
  0
VERTEX
  8
3050LEVEL
 62
7
 10
3147.365
 20
-4026.486
 30
2177.000
 70
    32
  0
VERTEX
  8
3050LEVEL
 62
7
 10
3150.268
 20
-4023.813
 30
2177.000
 70
    32
  0
VERTEX
  8
3050LEVEL
 62
7
 10
3152.760
 20
-4025.118
 30
2177.000
 70
    32
  0
VERTEX
  8
3050LEVEL
 62
7
 10
3157.875
 20
-4028.829
 30
2177.000
 70
    32
  0
VERTEX
  8
3050LEVEL
 62
7
 10
3163.472
 20
-4032.843
 30
2177.000
 70
    32
  0
VERTEX
  8
3050LEVEL
 62
7
 10
3169.864
 20
-4038.163
 30
2177.000
 70
    32
  0
VERTEX
  8
3050LEVEL
 62
7
 10
3176.302
 20
-4044.934
 30
2177.000
 70
    32
  0
VERTEX
  8
3050LEVEL
 62
7
 10
3181.346
 20
-4050.340
 30
2177.000
 70
    32
  0
VERTEX
  8
3050LEVEL
 62
7
 10
3184.699
 20
-4053.908
 30
2177.000
 70
    32
  0
VERTEX
  8
3050LEVEL
 62
7
 10
3193.291
 20
-4063.314
 30
2177.000
 70
    32
  0
VERTEX
  8
3050LEVEL
 62
7
 10
3199.342
 20
-4068.337
 30
2177.000
 70
    32
  0
VERTEX
  8
3050LEVEL
 62
7
 10
3203.234
 20
-4069.982
 30
2177.000
 70
    32
  0
VERTEX
  8
3050LEVEL
 62
7
 10
3205.693
 20
-4067.786
 30
2177.000
 70
    32
  0
VERTEX
  8
3050LEVEL
 62
7
 10
3203.113
 20
-4062.623
 30
2177.000
 70
    32
  0
VERTEX
  8
3050LEVEL
 62
7
 10
3199.610
 20
-4054.983
 30
2177.000
 70
    32
  0
VERTEX
  8
3050LEVEL
 62
7
 10
3197.137
 20
-4046.396
 30
2177.000
 70
    32
  0
VERTEX
  8
3050LEVEL
 62
7
 10
3197.433
 20
-4044.357
 30
2177.000
 70
    32
  0
VERTEX
  8
3050LEVEL
 62
7
 10
3199.951
 20
-4045.027
 30
2177.000
 70
    32
  0
VERTEX
  8
3050LEVEL
 62
7
 10
3203.940
 20
-4050.318
 30
2177.000
 70
    32
  0
VERTEX
  8
3050LEVEL
 62
7
 10
3207.076
 20
-4055.716
 30
2177.000
 70
    32
  0
VERTEX
  8
3050LEVEL
 62
7
 10
3212.445
 20
-4065.236
 30
2177.000
 70
    32
  0
VERTEX
  8
3050LEVEL
 62
7
 10
3218.770
 20
-4076.457
 30
2177.000
 70
    32
  0
VERTEX
  8
3050LEVEL
 62
7
 10
3227.210
 20
-4087.837
 30
2177.000
 70
    32
  0
VERTEX
  8
3050LEVEL
 62
7
 10
3231.790
 20
-4094.213
 30
2177.000
 70
    32
  0
VERTEX
  8
3050LEVEL
 62
7
 10
3239.083
 20
-4104.273
 30
2177.000
 70
    32
  0
VERTEX
  8
3050LEVEL
 62
7
 10
3246.249
 20
-4111.392
 30
2177.000
 70
    32
  0
VERTEX
  8
3050LEVEL
 62
7
 10
3253.356
 20
-4118.227
 30
2177.000
 70
    32
  0
VERTEX
  8
3050LEVEL
 62
7
 10
3261.457
 20
-4124.960
 30
2177.000
 70
    32
  0
VERTEX
  8
3050LEVEL
 62
7
 10
3271.968
 20
-4134.976
 30
2177.000
 70
    32
  0
VERTEX
  8
3050LEVEL
 62
7
 10
3278.888
 20
-4144.631
 30
2177.000
 70
    32
  0
VERTEX
  8
3050LEVEL
 62
7
 10
3283.310
 20
-4151.425
 30
2177.000
 70
    32
  0
VERTEX
  8
3050LEVEL
 62
7
 10
3295.384
 20
-4164.687
 30
2177.000
 70
    32
  0
VERTEX
  8
3050LEVEL
 62
7
 10
3307.668
 20
-4177.145
 30
2177.000
 70
    32
  0
VERTEX
  8
3050LEVEL
 62
7
 10
3322.029
 20
-4193.259
 30
2177.000
 70
    32
  0
VERTEX
  8
3050LEVEL
 62
7
 10
3337.388
 20
-4212.596
 30
2177.000
 70
    32
  0
VERTEX
  8
3050LEVEL
 62
7
 10
3351.930
 20
-4230.309
 30
2177.000
 70
    32
  0
VERTEX
  8
3050LEVEL
 62
7
 10
3371.815
 20
-4247.924
 30
2177.000
 70
    32
  0
VERTEX
  8
3050LEVEL
 62
7
 10
3386.478
 20
-4260.161
 30
2177.000
 70
    32
  0
VERTEX
  8
3050LEVEL
 62
7
 10
3398.168
 20
-4269.023
 30
2177.000
 70
    32
  0
VERTEX
  8
3050LEVEL
 62
7
 10
3413.784
 20
-4279.568
 30
2177.000
 70
    32
  0
VERTEX
  8
3050LEVEL
 62
7
 10
3420.400
 20
-4283.730
 30
2177.000
 70
    32
  0
VERTEX
  8
3050LEVEL
 62
7
 10
3423.094
 20
-4283.559
 30
2177.000
 70
    32
  0
VERTEX
  8
3050LEVEL
 62
7
 10
3421.572
 20
-4279.324
 30
2177.000
 70
    32
  0
VERTEX
  8
3050LEVEL
 62
7
 10
3417.568
 20
-4272.688
 30
2177.000
 70
    32
  0
VERTEX
  8
3050LEVEL
 62
7
 10
3411.829
 20
-4262.693
 30
2177.000
 70
    32
  0
VERTEX
  8
3050LEVEL
 62
7
 10
3406.217
 20
-4254.754
 30
2177.000
 70
    32
  0
VERTEX
  8
3050LEVEL
 62
7
 10
3397.567
 20
-4242.482
 30
2177.000
 70
    32
  0
VERTEX
  8
3050LEVEL
 62
7
 10
3387.612
 20
-4230.121
 30
2177.000
 70
    32
  0
VERTEX
  8
3050LEVEL
 62
7
 10
3378.758
 20
-4220.209
 30
2177.000
 70
    32
  0
VERTEX
  8
3050LEVEL
 62
7
 10
3368.882
 20
-4208.523
 30
2177.000
 70
    32
  0
VERTEX
  8
3050LEVEL
 62
7
 10
3367.461
 20
-4201.817
 30
2177.000
 70
    32
  0
VERTEX
  8
3050LEVEL
 62
7
 10
3368.354
 20
-4201.606
 30
2177.000
 70
    32
  0
VERTEX
  8
3050LEVEL
 62
7
 10
3374.110
 20
-4205.203
 30
2177.000
 70
    32
  0
VERTEX
  8
3050LEVEL
 62
7
 10
3385.175
 20
-4212.943
 30
2177.000
 70
    32
  0
VERTEX
  8
3050LEVEL
 62
7
 10
3394.904
 20
-4220.487
 30
2177.000
 70
    32
  0
VERTEX
  8
3050LEVEL
 62
7
 10
3407.015
 20
-4229.437
 30
2177.000
 70
    32
  0
VERTEX
  8
3050LEVEL
 62
7
 10
3412.239
 20
-4233.931
 30
2177.000
 70
    32
  0
VERTEX
  8
3050LEVEL
 62
7
 10
3414.123
 20
-4233.690
 30
2177.000
 70
    32
  0
VERTEX
  8
3050LEVEL
 62
7
 10
3411.929
 20
-4229.463
 30
2177.000
 70
    32
  0
VERTEX
  8
3050LEVEL
 62
7
 10
3408.584
 20
-4223.986
 30
2177.000
 70
    32
  0
VERTEX
  8
3050LEVEL
 62
7
 10
3395.963
 20
-4207.696
 30
2177.000
 70
    32
  0
VERTEX
  8
3050LEVEL
 62
7
 10
3391.974
 20
-4199.824
 30
2177.000
 70
    32
  0
VERTEX
  8
3050LEVEL
 62
7
 10
3381.825
 20
-4187.031
 30
2177.000
 70
    32
  0
VERTEX
  8
3050LEVEL
 62
7
 10
3375.328
 20
-4178.277
 30
2177.000
 70
    32
  0
VERTEX
  8
3050LEVEL
 62
7
 10
3375.462
 20
-4170.752
 30
2177.000
 70
    32
  0
VERTEX
  8
3050LEVEL
 62
7
 10
3377.249
 20
-4171.144
 30
2177.000
 70
    32
  0
VERTEX
  8
3050LEVEL
 62
7
 10
3381.841
 20
-4174.657
 30
2177.000
 70
    32
  0
VERTEX
  8
3050LEVEL
 62
7
 10
3394.033
 20
-4184.211
 30
2177.000
 70
    32
  0
VERTEX
  8
3050LEVEL
 62
7
 10
3405.655
 20
-4193.884
 30
2177.000
 70
    32
  0
VERTEX
  8
3050LEVEL
 62
7
 10
3410.411
 20
-4197.722
 30
2177.000
 70
    32
  0
VERTEX
  8
3050LEVEL
 62
7
 10
3412.830
 20
-4198.210
 30
2177.000
 70
    32
  0
VERTEX
  8
3050LEVEL
 62
7
 10
3413.142
 20
-4194.935
 30
2177.000
 70
    32
  0
VERTEX
  8
3050LEVEL
 62
7
 10
3409.736
 20
-4189.244
 30
2177.000
 70
    32
  0
VERTEX
  8
3050LEVEL
 62
7
 10
3404.519
 20
-4179.447
 30
2177.000
 70
    32
  0
VERTEX
  8
3050LEVEL
 62
7
 10
3399.982
 20
-4172.012
 30
2177.000
 70
    32
  0
VERTEX
  8
3050LEVEL
 62
7
 10
3396.416
 20
-4165.041
 30
2177.000
 70
    32
  0
VERTEX
  8
3050LEVEL
 62
7
 10
3396.941
 20
-4163.471
 30
2177.000
 70
    32
  0
VERTEX
  8
3050LEVEL
 62
7
 10
3399.258
 20
-4163.850
 30
2177.000
 70
    32
  0
VERTEX
  8
3050LEVEL
 62
7
 10
3406.168
 20
-4168.626
 30
2177.000
 70
    32
  0
VERTEX
  8
3050LEVEL
 62
7
 10
3414.586
 20
-4174.524
 30
2177.000
 70
    32
  0
VERTEX
  8
3050LEVEL
 62
7
 10
3419.070
 20
-4177.255
 30
2177.000
 70
    32
  0
VERTEX
  8
3050LEVEL
 62
7
 10
3420.057
 20
-4175.598
 30
2177.000
 70
    32
  0
VERTEX
  8
3050LEVEL
 62
7
 10
3418.996
 20
-4168.766
 30
2177.000
 70
    32
  0
VERTEX
  8
3050LEVEL
 62
7
 10
3414.761
 20
-4157.454
 30
2177.000
 70
    32
  0
VERTEX
  8
3050LEVEL
 62
7
 10
3411.632
 20
-4151.032
 30
2177.000
 70
    32
  0
VERTEX
  8
3050LEVEL
 62
7
 10
3404.333
 20
-4141.998
 30
2177.000
 70
    32
  0
VERTEX
  8
3050LEVEL
 62
7
 10
3395.862
 20
-4133.092
 30
2177.000
 70
    32
  0
VERTEX
  8
3050LEVEL
 62
7
 10
3382.313
 20
-4117.860
 30
2177.000
 70
    32
  0
VERTEX
  8
3050LEVEL
 62
7
 10
3368.941
 20
-4106.064
 30
2177.000
 70
    32
  0
VERTEX
  8
3050LEVEL
 62
7
 10
3356.262
 20
-4097.161
 30
2177.000
 70
    32
  0
VERTEX
  8
3050LEVEL
 62
7
 10
3345.756
 20
-4089.586
 30
2177.000
 70
    32
  0
VERTEX
  8
3050LEVEL
 62
7
 10
3335.882
 20
-4080.410
 30
2177.000
 70
    32
  0
VERTEX
  8
3050LEVEL
 62
7
 10
3329.311
 20
-4073.421
 30
2177.000
 70
    32
  0
VERTEX
  8
3050LEVEL
 62
7
 10
3323.176
 20
-4064.470
 30
2177.000
 70
    32
  0
VERTEX
  8
3050LEVEL
 62
7
 10
3321.326
 20
-4060.469
 30
2177.000
 70
    32
  0
VERTEX
  8
3050LEVEL
 62
7
 10
3321.129
 20
-4057.526
 30
2177.000
 70
    32
  0
VERTEX
  8
3050LEVEL
 62
7
 10
3322.965
 20
-4056.718
 30
2177.000
 70
    32
  0
VERTEX
  8
3050LEVEL
 62
7
 10
3327.036
 20
-4057.452
 30
2177.000
 70
    32
  0
VERTEX
  8
3050LEVEL
 62
7
 10
3333.951
 20
-4060.389
 30
2177.000
 70
    32
  0
VERTEX
  8
3050LEVEL
 62
7
 10
3345.692
 20
-4067.168
 30
2177.000
 70
    32
  0
VERTEX
  8
3050LEVEL
 62
7
 10
3363.466
 20
-4079.392
 30
2177.000
 70
    32
  0
VERTEX
  8
3050LEVEL
 62
7
 10
3378.492
 20
-4092.246
 30
2177.000
 70
    32
  0
VERTEX
  8
3050LEVEL
 62
7
 10
3398.651
 20
-4107.503
 30
2177.000
 70
    32
  0
VERTEX
  8
3050LEVEL
 62
7
 10
3415.039
 20
-4127.590
 30
2177.000
 70
    32
  0
VERTEX
  8
3050LEVEL
 62
7
 10
3428.932
 20
-4138.771
 30
2177.000
 70
    32
  0
VERTEX
  8
3050LEVEL
 62
7
 10
3439.088
 20
-4148.842
 30
2177.000
 70
    32
  0
VERTEX
  8
3050LEVEL
 62
7
 10
3446.153
 20
-4157.549
 30
2177.000
 70
    32
  0
VERTEX
  8
3050LEVEL
 62
7
 10
3456.454
 20
-4168.369
 30
2177.000
 70
    32
  0
VERTEX
  8
3050LEVEL
 62
7
 10
3468.440
 20
-4180.354
 30
2177.000
 70
    32
  0
VERTEX
  8
3050LEVEL
 62
7
 10
3480.242
 20
-4194.206
 30
2177.000
 70
    32
  0
VERTEX
  8
3050LEVEL
 62
7
 10
3489.144
 20
-4206.382
 30
2177.000
 70
    32
  0
VERTEX
  8
3050LEVEL
 62
7
 10
3496.270
 20
-4220.465
 30
2177.000
 70
    32
  0
VERTEX
  8
3050LEVEL
 62
7
 10
3505.102
 20
-4236.033
 30
2177.000
 70
    32
  0
VERTEX
  8
3050LEVEL
 62
7
 10
3514.497
 20
-4249.114
 30
2177.000
 70
    32
  0
VERTEX
  8
3050LEVEL
 62
7
 10
3526.784
 20
-4265.779
 30
2177.000
 70
    32
  0
VERTEX
  8
3050LEVEL
 62
7
 10
3535.016
 20
-4274.498
 30
2177.000
 70
    32
  0
VERTEX
  8
3050LEVEL
 62
7
 10
3543.211
 20
-4280.670
 30
2177.000
 70
    32
  0
VERTEX
  8
3050LEVEL
 62
7
 10
3548.038
 20
-4281.930
 30
2177.000
 70
    32
  0
VERTEX
  8
3050LEVEL
 62
7
 10
3552.138
 20
-4281.958
 30
2177.000
 70
    32
  0
VERTEX
  8
3050LEVEL
 62
7
 10
3554.410
 20
-4280.885
 30
2177.000
 70
    32
  0
VERTEX
  8
3050LEVEL
 62
7
 10
3557.522
 20
-4278.291
 30
2177.000
 70
    32
  0
VERTEX
  8
3050LEVEL
 62
7
 10
3560.052
 20
-4276.097
 30
2177.000
 70
    32
  0
VERTEX
  8
3050LEVEL
 62
7
 10
3562.997
 20
-4274.133
 30
2177.000
 70
    32
  0
VERTEX
  8
3050LEVEL
 62
7
 10
3565.006
 20
-4273.438
 30
2177.000
 70
    32
  0
VERTEX
  8
3050LEVEL
 62
7
 10
3566.729
 20
-4271.105
 30
2177.000
 70
    32
  0
VERTEX
  8
3050LEVEL
 62
7
 10
3567.758
 20
-4270.158
 30
2177.000
 70
    32
  0
VERTEX
  8
3050LEVEL
 62
7
 10
3570.618
 20
-4270.240
 30
2177.000
 70
    32
  0
VERTEX
  8
3050LEVEL
 62
7
 10
3573.193
 20
-4270.382
 30
2177.000
 70
    32
  0
VERTEX
  8
3050LEVEL
 62
7
 10
3574.960
 20
-4268.687
 30
2177.000
 70
    32
  0
VERTEX
  8
3050LEVEL
 62
7
 10
3576.235
 20
-4265.204
 30
2177.000
 70
    32
  0
VERTEX
  8
3050LEVEL
 62
7
 10
3576.820
 20
-4263.037
 30
2177.000
 70
    32
  0
VERTEX
  8
3050LEVEL
 62
7
 10
3578.985
 20
-4261.111
 30
2177.000
 70
    32
  0
VERTEX
  8
3050LEVEL
 62
7
 10
3581.132
 20
-4260.492
 30
2177.000
 70
    32
  0
VERTEX
  8
3050LEVEL
 62
7
 10
3583.988
 20
-4259.832
 30
2177.000
 70
    32
  0
VERTEX
  8
3050LEVEL
 62
7
 10
3585.494
 20
-4259.329
 30
2177.000
 70
    32
  0
VERTEX
  8
3050LEVEL
 62
7
 10
3586.511
 20
-4258.664
 30
2177.000
 70
    32
  0
VERTEX
  8
3050LEVEL
 62
7
 10
3586.602
 20
-4258.173
 30
2177.000
 70
    32
  0
VERTEX
  8
3050LEVEL
 62
7
 10
3587.725
 20
-4256.663
 30
2177.000
 70
    32
  0
VERTEX
  8
3050LEVEL
 62
7
 10
3589.038
 20
-4254.844
 30
2177.000
 70
    32
  0
VERTEX
  8
3050LEVEL
 62
7
 10
3589.402
 20
-4254.576
 30
2177.000
 70
    32
  0
VERTEX
  8
3050LEVEL
 62
7
 10
3590.486
 20
-4254.868
 30
2177.000
 70
    32
  0
VERTEX
  8
3050LEVEL
 62
7
 10
3591.263
 20
-4256.597
 30
2177.000
 70
    32
  0
VERTEX
  8
3050LEVEL
 62
7
 10
3591.561
 20
-4257.953
 30
2177.000
 70
    32
  0
VERTEX
  8
3050LEVEL
 62
7
 10
3591.739
 20
-4262.203
 30
2177.000
 70
    32
  0
VERTEX
  8
3050LEVEL
 62
7
 10
3592.013
 20
-4270.983
 30
2177.000
 70
    32
  0
VERTEX
  8
3050LEVEL
 62
7
 10
3592.220
 20
-4277.108
 30
2177.000
 70
    32
  0
VERTEX
  8
3050LEVEL
 62
7
 10
3593.932
 20
-4289.588
 30
2177.000
 70
    32
  0
VERTEX
  8
3050LEVEL
 62
7
 10
3596.011
 20
-4304.311
 30
2177.000
 70
    32
  0
VERTEX
  8
3050LEVEL
 62
7
 10
3598.891
 20
-4319.315
 30
2177.000
 70
    32
  0
VERTEX
  8
3050LEVEL
 62
7
 10
3601.512
 20
-4330.348
 30
2177.000
 70
    32
  0
VERTEX
  8
3050LEVEL
 62
7
 10
3604.845
 20
-4337.804
 30
2177.000
 70
    32
  0
VERTEX
  8
3050LEVEL
 62
7
 10
3606.208
 20
-4339.063
 30
2177.000
 70
    32
  0
VERTEX
  8
3050LEVEL
 62
7
 10
3606.706
 20
-4338.129
 30
2177.000
 70
    32
  0
VERTEX
  8
3050LEVEL
 62
7
 10
3607.256
 20
-4334.227
 30
2177.000
 70
    32
  0
VERTEX
  8
3050LEVEL
 62
7
 10
3607.277
 20
-4326.874
 30
2177.000
 70
    32
  0
VERTEX
  8
3050LEVEL
 62
7
 10
3607.407
 20
-4320.303
 30
2177.000
 70
    32
  0
VERTEX
  8
3050LEVEL
 62
7
 10
3606.797
 20
-4309.388
 30
2177.000
 70
    32
  0
VERTEX
  8
3050LEVEL
 62
7
 10
3606.962
 20
-4303.668
 30
2177.000
 70
    32
  0
VERTEX
  8
3050LEVEL
 62
7
 10
3607.414
 20
-4290.145
 30
2177.000
 70
    32
  0
VERTEX
  8
3050LEVEL
 62
7
 10
3607.546
 20
-4280.109
 30
2177.000
 70
    32
  0
VERTEX
  8
3050LEVEL
 62
7
 10
3607.438
 20
-4267.306
 30
2177.000
 70
    32
  0
VERTEX
  8
3050LEVEL
 62
7
 10
3606.197
 20
-4257.992
 30
2177.000
 70
    32
  0
VERTEX
  8
3050LEVEL
 62
7
 10
3605.449
 20
-4251.279
 30
2177.000
 70
    32
  0
VERTEX
  8
3050LEVEL
 62
7
 10
3605.129
 20
-4245.326
 30
2177.000
 70
    32
  0
VERTEX
  8
3050LEVEL
 62
7
 10
3604.420
 20
-4241.089
 30
2177.000
 70
    32
  0
VERTEX
  8
3050LEVEL
 62
7
 10
3604.704
 20
-4237.636
 30
2177.000
 70
    32
  0
VERTEX
  8
3050LEVEL
 62
7
 10
3604.945
 20
-4232.661
 30
2177.000
 70
    32
  0
VERTEX
  8
3050LEVEL
 62
7
 10
3604.815
 20
-4228.094
 30
2177.000
 70
    32
  0
VERTEX
  8
3050LEVEL
 62
7
 10
3605.715
 20
-4224.278
 30
2177.000
 70
    32
  0
VERTEX
  8
3050LEVEL
 62
7
 10
3606.110
 20
-4222.420
 30
2177.000
 70
    32
  0
VERTEX
  8
3050LEVEL
 62
7
 10
3605.459
 20
-4216.772
 30
2177.000
 70
    32
  0
VERTEX
  8
3050LEVEL
 62
7
 10
3605.270
 20
-4212.804
 30
2177.000
 70
    32
  0
VERTEX
  8
3050LEVEL
 62
7
 10
3603.989
 20
-4205.291
 30
2177.000
 70
    32
  0
VERTEX
  8
3050LEVEL
 62
7
 10
3600.148
 20
-4186.147
 30
2177.000
 70
    32
  0
VERTEX
  8
3050LEVEL
 62
7
 10
3596.132
 20
-4166.959
 30
2177.000
 70
    32
  0
VERTEX
  8
3050LEVEL
 62
7
 10
3609.227
 20
-4116.521
 30
2177.000
 70
    32
  0
VERTEX
  8
3050LEVEL
 62
7
 10
3603.202
 20
-4061.840
 30
2177.000
 70
    32
  0
VERTEX
  8
3050LEVEL
 62
7
 10
3584.204
 20
-4015.648
 30
2177.000
 70
    32
  0
VERTEX
  8
3050LEVEL
 62
7
 10
3563.873
 20
-3973.022
 30
2177.000
 70
    32
  0
VERTEX
  8
3050LEVEL
 62
7
 10
3570.831
 20
-3947.169
 30
2177.000
 70
    32
  0
VERTEX
  8
3050LEVEL
 62
7
 10
3598.659
 20
-3938.815
 30
2177.000
 70
    32
  0
VERTEX
  8
3050LEVEL
 62
7
 10
3595.438
 20
-3915.096
 30
2177.000
 70
    32
  0
VERTEX
  8
3050LEVEL
 62
7
 10
3603.108
 20
-3892.636
 30
2177.000
 70
    32
  0
VERTEX
  8
3050LEVEL
 62
7
 10
3612.098
 20
-3863.582
 30
2177.000
 70
    32
  0
SEQEND
  8
3050LEVEL
  0
POLYLINE
  8
3050LEVEL
 62
7
 66
     1
 70
     8
  0
VERTEX
  8
3050LEVEL
 62
7
 10
3329.201
 20
-4493.053
 30
2177.000
 70
    32
  0
VERTEX
  8
3050LEVEL
 62
7
 10
3328.549
 20
-4492.566
 30
2177.000
 70
    32
  0
VERTEX
  8
3050LEVEL
 62
7
 10
3326.234
 20
-4490.420
 30
2177.000
 70
    32
  0
VERTEX
  8
3050LEVEL
 62
7
 10
3324.213
 20
-4489.700
 30
2177.000
 70
    32
  0
VERTEX
  8
3050LEVEL
 62
7
 10
3323.319
 20
-4490.795
 30
2177.000
 70
    32
  0
VERTEX
  8
3050LEVEL
 62
7
 10
3322.913
 20
-4492.051
 30
2177.000
 70
    32
  0
VERTEX
  8
3050LEVEL
 62
7
 10
3322.787
 20
-4493.389
 30
2177.000
 70
    32
  0
VERTEX
  8
3050LEVEL
 62
7
 10
3319.906
 20
-4494.684
 30
2177.000
 70
    32
  0
VERTEX
  8
3050LEVEL
 62
7
 10
3316.102
 20
-4492.618
 30
2177.000
 70
    32
  0
VERTEX
  8
3050LEVEL
 62
7
 10
3313.005
 20
-4489.697
 30
2177.000
 70
    32
  0
VERTEX
  8
3050LEVEL
 62
7
 10
3311.487
 20
-4488.786
 30
2177.000
 70
    32
  0
VERTEX
  8
3050LEVEL
 62
7
 10
3310.328
 20
-4492.026
 30
2177.000
 70
    32
  0
VERTEX
  8
3050LEVEL
 62
7
 10
3309.061
 20
-4495.297
 30
2177.000
 70
    32
  0
VERTEX
  8
3050LEVEL
 62
7
 10
3305.191
 20
-4499.132
 30
2177.000
 70
    32
  0
VERTEX
  8
3050LEVEL
 62
7
 10
3301.577
 20
-4498.453
 30
2177.000
 70
    32
  0
VERTEX
  8
3050LEVEL
 62
7
 10
3299.527
 20
-4498.439
 30
2177.000
 70
    32
  0
VERTEX
  8
3050LEVEL
 62
7
 10
3295.408
 20
-4502.299
 30
2177.000
 70
    32
  0
VERTEX
  8
3050LEVEL
 62
7
 10
3293.843
 20
-4505.099
 30
2177.000
 70
    32
  0
VERTEX
  8
3050LEVEL
 62
7
 10
3290.482
 20
-4509.415
 30
2177.000
 70
    32
  0
VERTEX
  8
3050LEVEL
 62
7
 10
3287.784
 20
-4513.122
 30
2177.000
 70
    32
  0
VERTEX
  8
3050LEVEL
 62
7
 10
3284.476
 20
-4520.445
 30
2177.000
 70
    32
  0
VERTEX
  8
3050LEVEL
 62
7
 10
3283.349
 20
-4527.187
 30
2177.000
 70
    32
  0
VERTEX
  8
3050LEVEL
 62
7
 10
3282.279
 20
-4533.401
 30
2177.000
 70
    32
  0
VERTEX
  8
3050LEVEL
 62
7
 10
3281.439
 20
-4540.897
 30
2177.000
 70
    32
  0
VERTEX
  8
3050LEVEL
 62
7
 10
3281.028
 20
-4546.572
 30
2177.000
 70
    32
  0
VERTEX
  8
3050LEVEL
 62
7
 10
3278.938
 20
-4551.824
 30
2177.000
 70
    32
  0
VERTEX
  8
3050LEVEL
 62
7
 10
3275.560
 20
-4558.261
 30
2177.000
 70
    32
  0
VERTEX
  8
3050LEVEL
 62
7
 10
3273.216
 20
-4562.796
 30
2177.000
 70
    32
  0
VERTEX
  8
3050LEVEL
 62
7
 10
3272.281
 20
-4570.040
 30
2177.000
 70
    32
  0
VERTEX
  8
3050LEVEL
 62
7
 10
3272.824
 20
-4575.720
 30
2177.000
 70
    32
  0
VERTEX
  8
3050LEVEL
 62
7
 10
3272.424
 20
-4579.416
 30
2177.000
 70
    32
  0
VERTEX
  8
3050LEVEL
 62
7
 10
3270.994
 20
-4582.362
 30
2177.000
 70
    32
  0
VERTEX
  8
3050LEVEL
 62
7
 10
3267.945
 20
-4580.008
 30
2177.000
 70
    32
  0
VERTEX
  8
3050LEVEL
 62
7
 10
3265.543
 20
-4574.818
 30
2177.000
 70
    32
  0
VERTEX
  8
3050LEVEL
 62
7
 10
3263.762
 20
-4570.007
 30
2177.000
 70
    32
  0
VERTEX
  8
3050LEVEL
 62
7
 10
3262.539
 20
-4567.941
 30
2177.000
 70
    32
  0
VERTEX
  8
3050LEVEL
 62
7
 10
3261.424
 20
-4569.239
 30
2177.000
 70
    32
  0
VERTEX
  8
3050LEVEL
 62
7
 10
3260.617
 20
-4571.680
 30
2177.000
 70
    32
  0
VERTEX
  8
3050LEVEL
 62
7
 10
3258.244
 20
-4571.759
 30
2177.000
 70
    32
  0
VERTEX
  8
3050LEVEL
 62
7
 10
3256.865
 20
-4572.621
 30
2177.000
 70
    32
  0
VERTEX
  8
3050LEVEL
 62
7
 10
3255.760
 20
-4575.404
 30
2177.000
 70
    32
  0
VERTEX
  8
3050LEVEL
 62
7
 10
3254.644
 20
-4575.888
 30
2177.000
 70
    32
  0
VERTEX
  8
3050LEVEL
 62
7
 10
3253.306
 20
-4575.762
 30
2177.000
 70
    32
  0
VERTEX
  8
3050LEVEL
 62
7
 10
3251.963
 20
-4577.475
 30
2177.000
 70
    32
  0
VERTEX
  8
3050LEVEL
 62
7
 10
3251.263
 20
-4579.001
 30
2177.000
 70
    32
  0
VERTEX
  8
3050LEVEL
 62
7
 10
3249.945
 20
-4578.381
 30
2177.000
 70
    32
  0
VERTEX
  8
3050LEVEL
 62
7
 10
3248.787
 20
-4576.460
 30
2177.000
 70
    32
  0
VERTEX
  8
3050LEVEL
 62
7
 10
3247.817
 20
-4575.111
 30
2177.000
 70
    32
  0
VERTEX
  8
3050LEVEL
 62
7
 10
3246.951
 20
-4577.268
 30
2177.000
 70
    32
  0
VERTEX
  8
3050LEVEL
 62
7
 10
3247.260
 20
-4580.038
 30
2177.000
 70
    32
  0
VERTEX
  8
3050LEVEL
 62
7
 10
3248.325
 20
-4584.219
 30
2177.000
 70
    32
  0
VERTEX
  8
3050LEVEL
 62
7
 10
3249.556
 20
-4588.654
 30
2177.000
 70
    32
  0
VERTEX
  8
3050LEVEL
 62
7
 10
3251.304
 20
-4595.125
 30
2177.000
 70
    32
  0
VERTEX
  8
3050LEVEL
 62
7
 10
3253.047
 20
-4601.738
 30
2177.000
 70
    32
  0
VERTEX
  8
3050LEVEL
 62
7
 10
3254.829
 20
-4609.943
 30
2177.000
 70
    32
  0
VERTEX
  8
3050LEVEL
 62
7
 10
3255.984
 20
-4616.214
 30
2177.000
 70
    32
  0
VERTEX
  8
3050LEVEL
 62
7
 10
3254.789
 20
-4619.488
 30
2177.000
 70
    32
  0
VERTEX
  8
3050LEVEL
 62
7
 10
3251.576
 20
-4616.810
 30
2177.000
 70
    32
  0
VERTEX
  8
3050LEVEL
 62
7
 10
3245.534
 20
-4607.297
 30
2177.000
 70
    32
  0
VERTEX
  8
3050LEVEL
 62
7
 10
3242.550
 20
-4599.926
 30
2177.000
 70
    32
  0
VERTEX
  8
3050LEVEL
 62
7
 10
3239.159
 20
-4592.997
 30
2177.000
 70
    32
  0
VERTEX
  8
3050LEVEL
 62
7
 10
3233.221
 20
-4588.686
 30
2177.000
 70
    32
  0
VERTEX
  8
3050LEVEL
 62
7
 10
3229.020
 20
-4585.967
 30
2177.000
 70
    32
  0
VERTEX
  8
3050LEVEL
 62
7
 10
3226.298
 20
-4583.380
 30
2177.000
 70
    32
  0
VERTEX
  8
3050LEVEL
 62
7
 10
3224.863
 20
-4581.305
 30
2177.000
 70
    32
  0
VERTEX
  8
3050LEVEL
 62
7
 10
3224.168
 20
-4579.297
 30
2177.000
 70
    32
  0
VERTEX
  8
3050LEVEL
 62
7
 10
3222.544
 20
-4577.533
 30
2177.000
 70
    32
  0
VERTEX
  8
3050LEVEL
 62
7
 10
3222.277
 20
-4581.446
 30
2177.000
 70
    32
  0
VERTEX
  8
3050LEVEL
 62
7
 10
3225.230
 20
-4590.407
 30
2177.000
 70
    32
  0
VERTEX
  8
3050LEVEL
 62
7
 10
3228.239
 20
-4598.027
 30
2177.000
 70
    32
  0
VERTEX
  8
3050LEVEL
 62
7
 10
3230.598
 20
-4603.392
 30
2177.000
 70
    32
  0
VERTEX
  8
3050LEVEL
 62
7
 10
3232.469
 20
-4606.899
 30
2177.000
 70
    32
  0
VERTEX
  8
3050LEVEL
 62
7
 10
3235.408
 20
-4613.632
 30
2177.000
 70
    32
  0
VERTEX
  8
3050LEVEL
 62
7
 10
3236.848
 20
-4622.424
 30
2177.000
 70
    32
  0
VERTEX
  8
3050LEVEL
 62
7
 10
3236.996
 20
-4632.542
 30
2177.000
 70
    32
  0
VERTEX
  8
3050LEVEL
 62
7
 10
3236.293
 20
-4640.998
 30
2177.000
 70
    32
  0
VERTEX
  8
3050LEVEL
 62
7
 10
3236.197
 20
-4656.162
 30
2177.000
 70
    32
  0
VERTEX
  8
3050LEVEL
 62
7
 10
3237.825
 20
-4663.830
 30
2177.000
 70
    32
  0
VERTEX
  8
3050LEVEL
 62
7
 10
3241.870
 20
-4673.756
 30
2177.000
 70
    32
  0
VERTEX
  8
3050LEVEL
 62
7
 10
3248.222
 20
-4683.458
 30
2177.000
 70
    32
  0
VERTEX
  8
3050LEVEL
 62
7
 10
3252.607
 20
-4690.286
 30
2177.000
 70
    32
  0
VERTEX
  8
3050LEVEL
 62
7
 10
3254.357
 20
-4697.571
 30
2177.000
 70
    32
  0
VERTEX
  8
3050LEVEL
 62
7
 10
3254.082
 20
-4700.812
 30
2177.000
 70
    32
  0
VERTEX
  8
3050LEVEL
 62
7
 10
3253.341
 20
-4701.630
 30
2177.000
 70
    32
  0
VERTEX
  8
3050LEVEL
 62
7
 10
3247.866
 20
-4697.232
 30
2177.000
 70
    32
  0
VERTEX
  8
3050LEVEL
 62
7
 10
3240.298
 20
-4690.414
 30
2177.000
 70
    32
  0
VERTEX
  8
3050LEVEL
 62
7
 10
3236.409
 20
-4687.001
 30
2177.000
 70
    32
  0
VERTEX
  8
3050LEVEL
 62
7
 10
3234.871
 20
-4685.700
 30
2177.000
 70
    32
  0
VERTEX
  8
3050LEVEL
 62
7
 10
3229.756
 20
-4682.872
 30
2177.000
 70
    32
  0
VERTEX
  8
3050LEVEL
 62
7
 10
3225.441
 20
-4680.325
 30
2177.000
 70
    32
  0
VERTEX
  8
3050LEVEL
 62
7
 10
3223.438
 20
-4679.182
 30
2177.000
 70
    32
  0
VERTEX
  8
3050LEVEL
 62
7
 10
3221.851
 20
-4679.081
 30
2177.000
 70
    32
  0
VERTEX
  8
3050LEVEL
 62
7
 10
3222.941
 20
-4680.929
 30
2177.000
 70
    32
  0
VERTEX
  8
3050LEVEL
 62
7
 10
3226.800
 20
-4684.235
 30
2177.000
 70
    32
  0
VERTEX
  8
3050LEVEL
 62
7
 10
3230.142
 20
-4687.201
 30
2177.000
 70
    32
  0
VERTEX
  8
3050LEVEL
 62
7
 10
3231.991
 20
-4692.086
 30
2177.000
 70
    32
  0
VERTEX
  8
3050LEVEL
 62
7
 10
3232.930
 20
-4695.908
 30
2177.000
 70
    32
  0
VERTEX
  8
3050LEVEL
 62
7
 10
3232.088
 20
-4695.732
 30
2177.000
 70
    32
  0
VERTEX
  8
3050LEVEL
 62
7
 10
3230.914
 20
-4695.047
 30
2177.000
 70
    32
  0
VERTEX
  8
3050LEVEL
 62
7
 10
3231.786
 20
-4702.189
 30
2177.000
 70
    32
  0
VERTEX
  8
3050LEVEL
 62
7
 10
3233.417
 20
-4709.788
 30
2177.000
 70
    32
  0
VERTEX
  8
3050LEVEL
 62
7
 10
3233.902
 20
-4712.601
 30
2177.000
 70
    32
  0
VERTEX
  8
3050LEVEL
 62
7
 10
3233.557
 20
-4714.955
 30
2177.000
 70
    32
  0
VERTEX
  8
3050LEVEL
 62
7
 10
3231.607
 20
-4714.238
 30
2177.000
 70
    32
  0
VERTEX
  8
3050LEVEL
 62
7
 10
3230.466
 20
-4716.171
 30
2177.000
 70
    32
  0
VERTEX
  8
3050LEVEL
 62
7
 10
3232.382
 20
-4722.013
 30
2177.000
 70
    32
  0
VERTEX
  8
3050LEVEL
 62
7
 10
3236.402
 20
-4731.690
 30
2177.000
 70
    32
  0
VERTEX
  8
3050LEVEL
 62
7
 10
3239.131
 20
-4741.808
 30
2177.000
 70
    32
  0
VERTEX
  8
3050LEVEL
 62
7
 10
3240.410
 20
-4748.508
 30
2177.000
 70
    32
  0
VERTEX
  8
3050LEVEL
 62
7
 10
3240.571
 20
-4752.298
 30
2177.000
 70
    32
  0
VERTEX
  8
3050LEVEL
 62
7
 10
3239.775
 20
-4754.457
 30
2177.000
 70
    32
  0
VERTEX
  8
3050LEVEL
 62
7
 10
3235.797
 20
-4751.464
 30
2177.000
 70
    32
  0
VERTEX
  8
3050LEVEL
 62
7
 10
3229.475
 20
-4747.031
 30
2177.000
 70
    32
  0
VERTEX
  8
3050LEVEL
 62
7
 10
3222.695
 20
-4742.544
 30
2177.000
 70
    32
  0
VERTEX
  8
3050LEVEL
 62
7
 10
3219.603
 20
-4740.365
 30
2177.000
 70
    32
  0
VERTEX
  8
3050LEVEL
 62
7
 10
3217.215
 20
-4739.984
 30
2177.000
 70
    32
  0
VERTEX
  8
3050LEVEL
 62
7
 10
3215.106
 20
-4739.685
 30
2177.000
 70
    32
  0
VERTEX
  8
3050LEVEL
 62
7
 10
3210.175
 20
-4735.804
 30
2177.000
 70
    32
  0
VERTEX
  8
3050LEVEL
 62
7
 10
3205.657
 20
-4731.340
 30
2177.000
 70
    32
  0
VERTEX
  8
3050LEVEL
 62
7
 10
3203.523
 20
-4728.211
 30
2177.000
 70
    32
  0
VERTEX
  8
3050LEVEL
 62
7
 10
3203.190
 20
-4726.005
 30
2177.000
 70
    32
  0
VERTEX
  8
3050LEVEL
 62
7
 10
3202.739
 20
-4723.229
 30
2177.000
 70
    32
  0
VERTEX
  8
3050LEVEL
 62
7
 10
3200.536
 20
-4719.213
 30
2177.000
 70
    32
  0
VERTEX
  8
3050LEVEL
 62
7
 10
3198.134
 20
-4714.023
 30
2177.000
 70
    32
  0
VERTEX
  8
3050LEVEL
 62
7
 10
3196.409
 20
-4711.265
 30
2177.000
 70
    32
  0
VERTEX
  8
3050LEVEL
 62
7
 10
3196.376
 20
-4712.925
 30
2177.000
 70
    32
  0
VERTEX
  8
3050LEVEL
 62
7
 10
3196.183
 20
-4714.190
 30
2177.000
 70
    32
  0
VERTEX
  8
3050LEVEL
 62
7
 10
3194.066
 20
-4710.637
 30
2177.000
 70
    32
  0
VERTEX
  8
3050LEVEL
 62
7
 10
3191.950
 20
-4707.085
 30
2177.000
 70
    32
  0
VERTEX
  8
3050LEVEL
 62
7
 10
3190.523
 20
-4705.683
 30
2177.000
 70
    32
  0
VERTEX
  8
3050LEVEL
 62
7
 10
3190.578
 20
-4706.922
 30
2177.000
 70
    32
  0
VERTEX
  8
3050LEVEL
 62
7
 10
3190.180
 20
-4707.154
 30
2177.000
 70
    32
  0
VERTEX
  8
3050LEVEL
 62
7
 10
3189.157
 20
-4707.960
 30
2177.000
 70
    32
  0
VERTEX
  8
3050LEVEL
 62
7
 10
3189.269
 20
-4708.672
 30
2177.000
 70
    32
  0
VERTEX
  8
3050LEVEL
 62
7
 10
3189.151
 20
-4709.798
 30
2177.000
 70
    32
  0
VERTEX
  8
3050LEVEL
 62
7
 10
3188.493
 20
-4710.337
 30
2177.000
 70
    32
  0
VERTEX
  8
3050LEVEL
 62
7
 10
3187.525
 20
-4709.802
 30
2177.000
 70
    32
  0
VERTEX
  8
3050LEVEL
 62
7
 10
3185.367
 20
-4708.121
 30
2177.000
 70
    32
  0
VERTEX
  8
3050LEVEL
 62
7
 10
3183.827
 20
-4706.891
 30
2177.000
 70
    32
  0
VERTEX
  8
3050LEVEL
 62
7
 10
3183.129
 20
-4706.650
 30
2177.000
 70
    32
  0
VERTEX
  8
3050LEVEL
 62
7
 10
3183.336
 20
-4708.497
 30
2177.000
 70
    32
  0
VERTEX
  8
3050LEVEL
 62
7
 10
3183.433
 20
-4709.562
 30
2177.000
 70
    32
  0
VERTEX
  8
3050LEVEL
 62
7
 10
3182.204
 20
-4708.521
 30
2177.000
 70
    32
  0
VERTEX
  8
3050LEVEL
 62
7
 10
3180.929
 20
-4706.842
 30
2177.000
 70
    32
  0
VERTEX
  8
3050LEVEL
 62
7
 10
3180.568
 20
-4708.737
 30
2177.000
 70
    32
  0
VERTEX
  8
3050LEVEL
 62
7
 10
3181.924
 20
-4712.717
 30
2177.000
 70
    32
  0
VERTEX
  8
3050LEVEL
 62
7
 10
3184.670
 20
-4718.134
 30
2177.000
 70
    32
  0
VERTEX
  8
3050LEVEL
 62
7
 10
3185.766
 20
-4720.725
 30
2177.000
 70
    32
  0
VERTEX
  8
3050LEVEL
 62
7
 10
3182.245
 20
-4717.786
 30
2177.000
 70
    32
  0
VERTEX
  8
3050LEVEL
 62
7
 10
3173.366
 20
-4710.207
 30
2177.000
 70
    32
  0
VERTEX
  8
3050LEVEL
 62
7
 10
3165.326
 20
-4703.688
 30
2177.000
 70
    32
  0
VERTEX
  8
3050LEVEL
 62
7
 10
3154.747
 20
-4696.180
 30
2177.000
 70
    32
  0
VERTEX
  8
3050LEVEL
 62
7
 10
3149.059
 20
-4690.076
 30
2177.000
 70
    32
  0
VERTEX
  8
3050LEVEL
 62
7
 10
3142.658
 20
-4683.271
 30
2177.000
 70
    32
  0
VERTEX
  8
3050LEVEL
 62
7
 10
3138.630
 20
-4678.084
 30
2177.000
 70
    32
  0
VERTEX
  8
3050LEVEL
 62
7
 10
3133.375
 20
-4673.483
 30
2177.000
 70
    32
  0
VERTEX
  8
3050LEVEL
 62
7
 10
3128.726
 20
-4669.614
 30
2177.000
 70
    32
  0
VERTEX
  8
3050LEVEL
 62
7
 10
3126.745
 20
-4668.789
 30
2177.000
 70
    32
  0
VERTEX
  8
3050LEVEL
 62
7
 10
3126.937
 20
-4670.989
 30
2177.000
 70
    32
  0
VERTEX
  8
3050LEVEL
 62
7
 10
3126.029
 20
-4672.437
 30
2177.000
 70
    32
  0
VERTEX
  8
3050LEVEL
 62
7
 10
3120.018
 20
-4671.588
 30
2177.000
 70
    32
  0
VERTEX
  8
3050LEVEL
 62
7
 10
3114.513
 20
-4667.895
 30
2177.000
 70
    32
  0
VERTEX
  8
3050LEVEL
 62
7
 10
3110.718
 20
-4663.920
 30
2177.000
 70
    32
  0
VERTEX
  8
3050LEVEL
 62
7
 10
3106.774
 20
-4660.964
 30
2177.000
 70
    32
  0
VERTEX
  8
3050LEVEL
 62
7
 10
3105.041
 20
-4660.115
 30
2177.000
 70
    32
  0
VERTEX
  8
3050LEVEL
 62
7
 10
3104.722
 20
-4660.137
 30
2177.000
 70
    32
  0
VERTEX
  8
3050LEVEL
 62
7
 10
3104.374
 20
-4660.865
 30
2177.000
 70
    32
  0
VERTEX
  8
3050LEVEL
 62
7
 10
3103.908
 20
-4661.023
 30
2177.000
 70
    32
  0
VERTEX
  8
3050LEVEL
 62
7
 10
3104.404
 20
-4661.856
 30
2177.000
 70
    32
  0
VERTEX
  8
3050LEVEL
 62
7
 10
3104.753
 20
-4662.825
 30
2177.000
 70
    32
  0
VERTEX
  8
3050LEVEL
 62
7
 10
3103.784
 20
-4663.174
 30
2177.000
 70
    32
  0
VERTEX
  8
3050LEVEL
 62
7
 10
3102.985
 20
-4662.823
 30
2177.000
 70
    32
  0
VERTEX
  8
3050LEVEL
 62
7
 10
3101.264
 20
-4661.691
 30
2177.000
 70
    32
  0
VERTEX
  8
3050LEVEL
 62
7
 10
3100.684
 20
-4662.021
 30
2177.000
 70
    32
  0
VERTEX
  8
3050LEVEL
 62
7
 10
3101.138
 20
-4664.727
 30
2177.000
 70
    32
  0
VERTEX
  8
3050LEVEL
 62
7
 10
3099.596
 20
-4665.264
 30
2177.000
 70
    32
  0
VERTEX
  8
3050LEVEL
 62
7
 10
3098.668
 20
-4664.625
 30
2177.000
 70
    32
  0
VERTEX
  8
3050LEVEL
 62
7
 10
3096.045
 20
-4663.915
 30
2177.000
 70
    32
  0
VERTEX
  8
3050LEVEL
 62
7
 10
3093.986
 20
-4662.416
 30
2177.000
 70
    32
  0
VERTEX
  8
3050LEVEL
 62
7
 10
3091.370
 20
-4658.985
 30
2177.000
 70
    32
  0
VERTEX
  8
3050LEVEL
 62
7
 10
3087.430
 20
-4657.655
 30
2177.000
 70
    32
  0
VERTEX
  8
3050LEVEL
 62
7
 10
3084.189
 20
-4656.496
 30
2177.000
 70
    32
  0
VERTEX
  8
3050LEVEL
 62
7
 10
3083.104
 20
-4657.088
 30
2177.000
 70
    32
  0
VERTEX
  8
3050LEVEL
 62
7
 10
3083.567
 20
-4659.582
 30
2177.000
 70
    32
  0
VERTEX
  8
3050LEVEL
 62
7
 10
3083.036
 20
-4662.176
 30
2177.000
 70
    32
  0
VERTEX
  8
3050LEVEL
 62
7
 10
3079.739
 20
-4663.242
 30
2177.000
 70
    32
  0
VERTEX
  8
3050LEVEL
 62
7
 10
3076.343
 20
-4662.430
 30
2177.000
 70
    32
  0
VERTEX
  8
3050LEVEL
 62
7
 10
3071.732
 20
-4660.224
 30
2177.000
 70
    32
  0
VERTEX
  8
3050LEVEL
 62
7
 10
3069.587
 20
-4659.075
 30
2177.000
 70
    32
  0
VERTEX
  8
3050LEVEL
 62
7
 10
3067.521
 20
-4658.601
 30
2177.000
 70
    32
  0
VERTEX
  8
3050LEVEL
 62
7
 10
3067.734
 20
-4659.423
 30
2177.000
 70
    32
  0
VERTEX
  8
3050LEVEL
 62
7
 10
3068.640
 20
-4662.324
 30
2177.000
 70
    32
  0
VERTEX
  8
3050LEVEL
 62
7
 10
3067.628
 20
-4665.429
 30
2177.000
 70
    32
  0
VERTEX
  8
3050LEVEL
 62
7
 10
3063.742
 20
-4665.339
 30
2177.000
 70
    32
  0
VERTEX
  8
3050LEVEL
 62
7
 10
3059.746
 20
-4663.654
 30
2177.000
 70
    32
  0
VERTEX
  8
3050LEVEL
 62
7
 10
3057.387
 20
-4662.566
 30
2177.000
 70
    32
  0
VERTEX
  8
3050LEVEL
 62
7
 10
3057.408
 20
-4663.769
 30
2177.000
 70
    32
  0
VERTEX
  8
3050LEVEL
 62
7
 10
3059.332
 20
-4666.819
 30
2177.000
 70
    32
  0
VERTEX
  8
3050LEVEL
 62
7
 10
3060.986
 20
-4669.574
 30
2177.000
 70
    32
  0
VERTEX
  8
3050LEVEL
 62
7
 10
3062.423
 20
-4672.462
 30
2177.000
 70
    32
  0
VERTEX
  8
3050LEVEL
 62
7
 10
3063.958
 20
-4675.530
 30
2177.000
 70
    32
  0
SEQEND
  8
3050LEVEL
  0
POLYLINE
  8
3050LEVEL
 62
3
 66
     1
 70
     8
  0
VERTEX
  8
3050LEVEL
 62
3
 10
3063.958
 20
-4675.530
 30
2177.000
 70
    32
  0
VERTEX
  8
3050LEVEL
 62
3
 10
3066.779
 20
-4684.274
 30
2177.000
 70
    32
  0
VERTEX
  8
3050LEVEL
 62
3
 10
3072.773
 20
-4693.219
 30
2177.000
 70
    32
  0
VERTEX
  8
3050LEVEL
 62
3
 10
3077.916
 20
-4701.386
 30
2177.000
 70
    32
  0
VERTEX
  8
3050LEVEL
 62
3
 10
3082.737
 20
-4709.646
 30
2177.000
 70
    32
  0
VERTEX
  8
3050LEVEL
 62
3
 10
3089.954
 20
-4718.960
 30
2177.000
 70
    32
  0
VERTEX
  8
3050LEVEL
 62
3
 10
3101.751
 20
-4734.650
 30
2177.000
 70
    32
  0
VERTEX
  8
3050LEVEL
 62
3
 10
3109.885
 20
-4744.886
 30
2177.000
 70
    32
  0
VERTEX
  8
3050LEVEL
 62
3
 10
3118.855
 20
-4758.833
 30
2177.000
 70
    32
  0
VERTEX
  8
3050LEVEL
 62
3
 10
3125.630
 20
-4768.552
 30
2177.000
 70
    32
  0
VERTEX
  8
3050LEVEL
 62
3
 10
3133.457
 20
-4780.225
 30
2177.000
 70
    32
  0
VERTEX
  8
3050LEVEL
 62
3
 10
3138.042
 20
-4787.344
 30
2177.000
 70
    32
  0
VERTEX
  8
3050LEVEL
 62
3
 10
3143.622
 20
-4796.060
 30
2177.000
 70
    32
  0
VERTEX
  8
3050LEVEL
 62
3
 10
3147.024
 20
-4801.008
 30
2177.000
 70
    32
  0
VERTEX
  8
3050LEVEL
 62
3
 10
3149.935
 20
-4805.866
 30
2177.000
 70
    32
  0
SEQEND
  8
3050LEVEL
  0
POLYLINE
  8
3050LEVEL
 62
3
 66
     1
 70
     8
  0
VERTEX
  8
3050LEVEL
 62
3
 10
3332.793
 20
-4507.945
 30
2177.000
 70
    32
  0
VERTEX
  8
3050LEVEL
 62
3
 10
3330.478
 20
-4503.217
 30
2177.000
 70
    32
  0
VERTEX
  8
3050LEVEL
 62
3
 10
3330.322
 20
-4499.286
 30
2177.000
 70
    32
  0
VERTEX
  8
3050LEVEL
 62
3
 10
3330.004
 20
-4496.728
 30
2177.000
 70
    32
  0
VERTEX
  8
3050LEVEL
 62
3
 10
3329.547
 20
-4494.092
 30
2177.000
 70
    32
  0
VERTEX
  8
3050LEVEL
 62
3
 10
3329.201
 20
-4493.053
 30
2177.000
 70
    32
  0
SEQEND
  8
3050LEVEL
  0
POLYLINE
  8
3050LEVEL
 62
3
 66
     1
 70
     8
  0
VERTEX
  8
3050LEVEL
 62
3
 10
3029.704
 20
-4643.710
 30
2177.000
 70
    32
  0
VERTEX
  8
3050LEVEL
 62
3
 10
3024.065
 20
-4638.987
 30
2177.000
 70
    32
  0
VERTEX
  8
3050LEVEL
 62
3
 10
3018.410
 20
-4632.107
 30
2177.000
 70
    32
  0
VERTEX
  8
3050LEVEL
 62
3
 10
3013.191
 20
-4625.775
 30
2177.000
 70
    32
  0
VERTEX
  8
3050LEVEL
 62
3
 10
3008.215
 20
-4619.559
 30
2177.000
 70
    32
  0
VERTEX
  8
3050LEVEL
 62
3
 10
3002.316
 20
-4610.865
 30
2177.000
 70
    32
  0
VERTEX
  8
3050LEVEL
 62
3
 10
2998.232
 20
-4601.044
 30
2177.000
 70
    32
  0
VERTEX
  8
3050LEVEL
 62
3
 10
2995.786
 20
-4594.332
 30
2177.000
 70
    32
  0
VERTEX
  8
3050LEVEL
 62
3
 10
2991.460
 20
-4586.092
 30
2177.000
 70
    32
  0
VERTEX
  8
3050LEVEL
 62
3
 10
2986.519
 20
-4580.726
 30
2177.000
 70
    32
  0
VERTEX
  8
3050LEVEL
 62
3
 10
2982.323
 20
-4576.169
 30
2177.000
 70
    32
  0
VERTEX
  8
3050LEVEL
 62
3
 10
2978.616
 20
-4571.773
 30
2177.000
 70
    32
  0
VERTEX
  8
3050LEVEL
 62
3
 10
2974.822
 20
-4566.030
 30
2177.000
 70
    32
  0
VERTEX
  8
3050LEVEL
 62
3
 10
2972.949
 20
-4562.594
 30
2177.000
 70
    32
  0
VERTEX
  8
3050LEVEL
 62
3
 10
2972.439
 20
-4559.532
 30
2177.000
 70
    32
  0
VERTEX
  8
3050LEVEL
 62
3
 10
2972.531
 20
-4558.157
 30
2177.000
 70
    32
  0
VERTEX
  8
3050LEVEL
 62
3
 10
2973.262
 20
-4558.435
 30
2177.000
 70
    32
  0
VERTEX
  8
3050LEVEL
 62
3
 10
2974.032
 20
-4559.492
 30
2177.000
 70
    32
  0
VERTEX
  8
3050LEVEL
 62
3
 10
2974.629
 20
-4560.436
 30
2177.000
 70
    32
  0
VERTEX
  8
3050LEVEL
 62
3
 10
2975.709
 20
-4561.683
 30
2177.000
 70
    32
  0
VERTEX
  8
3050LEVEL
 62
3
 10
2976.905
 20
-4562.687
 30
2177.000
 70
    32
  0
VERTEX
  8
3050LEVEL
 62
3
 10
2977.764
 20
-4562.439
 30
2177.000
 70
    32
  0
VERTEX
  8
3050LEVEL
 62
3
 10
2976.917
 20
-4559.823
 30
2177.000
 70
    32
  0
VERTEX
  8
3050LEVEL
 62
3
 10
2975.268
 20
-4553.532
 30
2177.000
 70
    32
  0
VERTEX
  8
3050LEVEL
 62
3
 10
2974.463
 20
-4549.044
 30
2177.000
 70
    32
  0
VERTEX
  8
3050LEVEL
 62
3
 10
2975.658
 20
-4546.654
 30
2177.000
 70
    32
  0
VERTEX
  8
3050LEVEL
 62
3
 10
2977.729
 20
-4543.593
 30
2177.000
 70
    32
  0
VERTEX
  8
3050LEVEL
 62
3
 10
2978.196
 20
-4538.274
 30
2177.000
 70
    32
  0
VERTEX
  8
3050LEVEL
 62
3
 10
2977.818
 20
-4533.733
 30
2177.000
 70
    32
  0
VERTEX
  8
3050LEVEL
 62
3
 10
2979.142
 20
-4527.352
 30
2177.000
 70
    32
  0
VERTEX
  8
3050LEVEL
 62
3
 10
2980.240
 20
-4523.014
 30
2177.000
 70
    32
  0
VERTEX
  8
3050LEVEL
 62
3
 10
2980.034
 20
-4516.889
 30
2177.000
 70
    32
  0
VERTEX
  8
3050LEVEL
 62
3
 10
2980.631
 20
-4513.555
 30
2177.000
 70
    32
  0
VERTEX
  8
3050LEVEL
 62
3
 10
2980.576
 20
-4510.189
 30
2177.000
 70
    32
  0
SEQEND
  8
3050LEVEL
  0
POLYLINE
  8
3050LEVEL
 62
5
 66
     1
 70
     8
  0
VERTEX
  8
3050LEVEL
 62
5
 10
2839.353
 20
-4617.076
 30
2177.000
 70
    32
  0
VERTEX
  8
3050LEVEL
 62
5
 10
2838.963
 20
-4615.398
 30
2177.000
 70
    32
  0
VERTEX
  8
3050LEVEL
 62
5
 10
2838.385
 20
-4613.960
 30
2177.000
 70
    32
  0
VERTEX
  8
3050LEVEL
 62
5
 10
2837.282
 20
-4611.581
 30
2177.000
 70
    32
  0
VERTEX
  8
3050LEVEL
 62
5
 10
2835.675
 20
-4609.393
 30
2177.000
 70
    32
  0
VERTEX
  8
3050LEVEL
 62
5
 10
2833.974
 20
-4606.070
 30
2177.000
 70
    32
  0
VERTEX
  8
3050LEVEL
 62
5
 10
2832.971
 20
-4603.801
 30
2177.000
 70
    32
  0
VERTEX
  8
3050LEVEL
 62
5
 10
2831.170
 20
-4601.181
 30
2177.000
 70
    32
  0
VERTEX
  8
3050LEVEL
 62
5
 10
2830.175
 20
-4597.887
 30
2177.000
 70
    32
  0
VERTEX
  8
3050LEVEL
 62
5
 10
2826.487
 20
-4591.300
 30
2177.000
 70
    32
  0
VERTEX
  8
3050LEVEL
 62
5
 10
2823.051
 20
-4584.618
 30
2177.000
 70
    32
  0
VERTEX
  8
3050LEVEL
 62
5
 10
2817.713
 20
-4574.321
 30
2177.000
 70
    32
  0
VERTEX
  8
3050LEVEL
 62
5
 10
2812.763
 20
-4567.470
 30
2177.000
 70
    32
  0
VERTEX
  8
3050LEVEL
 62
5
 10
2804.888
 20
-4556.113
 30
2177.000
 70
    32
  0
VERTEX
  8
3050LEVEL
 62
5
 10
2800.947
 20
-4543.413
 30
2177.000
 70
    32
  0
VERTEX
  8
3050LEVEL
 62
5
 10
2796.660
 20
-4532.503
 30
2177.000
 70
    32
  0
VERTEX
  8
3050LEVEL
 62
5
 10
2793.990
 20
-4521.823
 30
2177.000
 70
    32
  0
VERTEX
  8
3050LEVEL
 62
5
 10
2793.371
 20
-4512.566
 30
2177.000
 70
    32
  0
VERTEX
  8
3050LEVEL
 62
5
 10
2793.877
 20
-4506.763
 30
2177.000
 70
    32
  0
VERTEX
  8
3050LEVEL
 62
5
 10
2796.076
 20
-4504.086
 30
2177.000
 70
    32
  0
VERTEX
  8
3050LEVEL
 62
5
 10
2799.138
 20
-4503.664
 30
2177.000
 70
    32
  0
VERTEX
  8
3050LEVEL
 62
5
 10
2802.263
 20
-4508.004
 30
2177.000
 70
    32
  0
VERTEX
  8
3050LEVEL
 62
5
 10
2805.282
 20
-4514.036
 30
2177.000
 70
    32
  0
VERTEX
  8
3050LEVEL
 62
5
 10
2809.347
 20
-4521.918
 30
2177.000
 70
    32
  0
VERTEX
  8
3050LEVEL
 62
5
 10
2811.875
 20
-4528.218
 30
2177.000
 70
    32
  0
VERTEX
  8
3050LEVEL
 62
5
 10
2817.007
 20
-4538.768
 30
2177.000
 70
    32
  0
VERTEX
  8
3050LEVEL
 62
5
 10
2820.224
 20
-4544.521
 30
2177.000
 70
    32
  0
VERTEX
  8
3050LEVEL
 62
5
 10
2820.541
 20
-4549.512
 30
2177.000
 70
    32
  0
VERTEX
  8
3050LEVEL
 62
5
 10
2822.282
 20
-4552.730
 30
2177.000
 70
    32
  0
VERTEX
  8
3050LEVEL
 62
5
 10
2826.288
 20
-4557.598
 30
2177.000
 70
    32
  0
VERTEX
  8
3050LEVEL
 62
5
 10
2829.294
 20
-4562.707
 30
2177.000
 70
    32
  0
VERTEX
  8
3050LEVEL
 62
5
 10
2834.378
 20
-4568.892
 30
2177.000
 70
    32
  0
VERTEX
  8
3050LEVEL
 62
5
 10
2840.220
 20
-4575.533
 30
2177.000
 70
    32
  0
VERTEX
  8
3050LEVEL
 62
5
 10
2842.814
 20
-4578.645
 30
2177.000
 70
    32
  0
VERTEX
  8
3050LEVEL
 62
5
 10
2845.744
 20
-4583.893
 30
2177.000
 70
    32
  0
VERTEX
  8
3050LEVEL
 62
5
 10
2846.112
 20
-4582.671
 30
2177.000
 70
    32
  0
VERTEX
  8
3050LEVEL
 62
5
 10
2846.029
 20
-4579.556
 30
2177.000
 70
    32
  0
VERTEX
  8
3050LEVEL
 62
5
 10
2845.365
 20
-4573.377
 30
2177.000
 70
    32
  0
VERTEX
  8
3050LEVEL
 62
5
 10
2844.586
 20
-4566.556
 30
2177.000
 70
    32
  0
VERTEX
  8
3050LEVEL
 62
5
 10
2842.321
 20
-4555.467
 30
2177.000
 70
    32
  0
VERTEX
  8
3050LEVEL
 62
5
 10
2839.868
 20
-4546.385
 30
2177.000
 70
    32
  0
VERTEX
  8
3050LEVEL
 62
5
 10
2836.412
 20
-4535.035
 30
2177.000
 70
    32
  0
VERTEX
  8
3050LEVEL
 62
5
 10
2832.139
 20
-4524.641
 30
2177.000
 70
    32
  0
VERTEX
  8
3050LEVEL
 62
5
 10
2826.264
 20
-4512.801
 30
2177.000
 70
    32
  0
VERTEX
  8
3050LEVEL
 62
5
 10
2820.790
 20
-4500.661
 30
2177.000
 70
    32
  0
VERTEX
  8
3050LEVEL
 62
5
 10
2814.029
 20
-4488.007
 30
2177.000
 70
    32
  0
VERTEX
  8
3050LEVEL
 62
5
 10
2808.481
 20
-4476.817
 30
2177.000
 70
    32
  0
VERTEX
  8
3050LEVEL
 62
5
 10
2802.304
 20
-4464.577
 30
2177.000
 70
    32
  0
VERTEX
  8
3050LEVEL
 62
5
 10
2795.055
 20
-4450.064
 30
2177.000
 70
    32
  0
VERTEX
  8
3050LEVEL
 62
5
 10
2792.404
 20
-4444.899
 30
2177.000
 70
    32
  0
VERTEX
  8
3050LEVEL
 62
5
 10
2787.866
 20
-4432.373
 30
2177.000
 70
    32
  0
VERTEX
  8
3050LEVEL
 62
5
 10
2784.763
 20
-4422.734
 30
2177.000
 70
    32
  0
VERTEX
  8
3050LEVEL
 62
5
 10
2782.174
 20
-4411.808
 30
2177.000
 70
    32
  0
VERTEX
  8
3050LEVEL
 62
5
 10
2781.606
 20
-4407.577
 30
2177.000
 70
    32
  0
VERTEX
  8
3050LEVEL
 62
5
 10
2836.144
 20
-4407.956
 30
2177.000
 70
    32
  0
VERTEX
  8
3050LEVEL
 62
5
 10
2837.461
 20
-4413.738
 30
2177.000
 70
    32
  0
VERTEX
  8
3050LEVEL
 62
5
 10
2839.209
 20
-4422.790
 30
2177.000
 70
    32
  0
VERTEX
  8
3050LEVEL
 62
5
 10
2841.838
 20
-4431.031
 30
2177.000
 70
    32
  0
VERTEX
  8
3050LEVEL
 62
5
 10
2844.793
 20
-4436.527
 30
2177.000
 70
    32
  0
VERTEX
  8
3050LEVEL
 62
5
 10
2848.008
 20
-4440.018
 30
2177.000
 70
    32
  0
VERTEX
  8
3050LEVEL
 62
5
 10
2852.145
 20
-4444.290
 30
2177.000
 70
    32
  0
VERTEX
  8
3050LEVEL
 62
5
 10
2854.091
 20
-4448.543
 30
2177.000
 70
    32
  0
VERTEX
  8
3050LEVEL
 62
5
 10
2854.378
 20
-4453.575
 30
2177.000
 70
    32
  0
VERTEX
  8
3050LEVEL
 62
5
 10
2854.454
 20
-4456.018
 30
2177.000
 70
    32
  0
VERTEX
  8
3050LEVEL
 62
5
 10
2855.914
 20
-4460.038
 30
2177.000
 70
    32
  0
VERTEX
  8
3050LEVEL
 62
5
 10
2860.394
 20
-4465.420
 30
2177.000
 70
    32
  0
VERTEX
  8
3050LEVEL
 62
5
 10
2864.439
 20
-4471.067
 30
2177.000
 70
    32
  0
VERTEX
  8
3050LEVEL
 62
5
 10
2865.996
 20
-4474.455
 30
2177.000
 70
    32
  0
VERTEX
  8
3050LEVEL
 62
5
 10
2866.265
 20
-4476.517
 30
2177.000
 70
    32
  0
VERTEX
  8
3050LEVEL
 62
5
 10
2866.780
 20
-4479.437
 30
2177.000
 70
    32
  0
VERTEX
  8
3050LEVEL
 62
5
 10
2867.901
 20
-4482.276
 30
2177.000
 70
    32
  0
VERTEX
  8
3050LEVEL
 62
5
 10
2868.716
 20
-4487.366
 30
2177.000
 70
    32
  0
VERTEX
  8
3050LEVEL
 62
5
 10
2869.658
 20
-4492.814
 30
2177.000
 70
    32
  0
VERTEX
  8
3050LEVEL
 62
5
 10
2872.030
 20
-4497.014
 30
2177.000
 70
    32
  0
VERTEX
  8
3050LEVEL
 62
5
 10
2873.330
 20
-4500.638
 30
2177.000
 70
    32
  0
VERTEX
  8
3050LEVEL
 62
5
 10
2875.868
 20
-4505.092
 30
2177.000
 70
    32
  0
VERTEX
  8
3050LEVEL
 62
5
 10
2878.398
 20
-4507.176
 30
2177.000
 70
    32
  0
VERTEX
  8
3050LEVEL
 62
5
 10
2881.117
 20
-4509.834
 30
2177.000
 70
    32
  0
VERTEX
  8
3050LEVEL
 62
5
 10
2882.330
 20
-4512.995
 30
2177.000
 70
    32
  0
VERTEX
  8
3050LEVEL
 62
5
 10
2883.989
 20
-4516.493
 30
2177.000
 70
    32
  0
VERTEX
  8
3050LEVEL
 62
5
 10
2884.950
 20
-4519.750
 30
2177.000
 70
    32
  0
VERTEX
  8
3050LEVEL
 62
5
 10
2886.307
 20
-4525.428
 30
2177.000
 70
    32
  0
VERTEX
  8
3050LEVEL
 62
5
 10
2888.310
 20
-4529.152
 30
2177.000
 70
    32
  0
VERTEX
  8
3050LEVEL
 62
5
 10
2891.016
 20
-4532.976
 30
2177.000
 70
    32
  0
VERTEX
  8
3050LEVEL
 62
5
 10
2892.817
 20
-4535.596
 30
2177.000
 70
    32
  0
VERTEX
  8
3050LEVEL
 62
5
 10
2893.185
 20
-4536.955
 30
2177.000
 70
    32
  0
VERTEX
  8
3050LEVEL
 62
5
 10
2893.140
 20
-4538.898
 30
2177.000
 70
    32
  0
VERTEX
  8
3050LEVEL
 62
5
 10
2892.635
 20
-4540.857
 30
2177.000
 70
    32
  0
VERTEX
  8
3050LEVEL
 62
5
 10
2893.609
 20
-4542.948
 30
2177.000
 70
    32
  0
VERTEX
  8
3050LEVEL
 62
5
 10
2894.242
 20
-4544.742
 30
2177.000
 70
    32
  0
VERTEX
  8
3050LEVEL
 62
5
 10
2893.995
 20
-4545.580
 30
2177.000
 70
    32
  0
VERTEX
  8
3050LEVEL
 62
5
 10
2893.817
 20
-4545.608
 30
2177.000
 70
    32
  0
VERTEX
  8
3050LEVEL
 62
5
 10
2892.382
 20
-4544.417
 30
2177.000
 70
    32
  0
VERTEX
  8
3050LEVEL
 62
5
 10
2891.468
 20
-4543.425
 30
2177.000
 70
    32
  0
VERTEX
  8
3050LEVEL
 62
5
 10
2890.718
 20
-4542.758
 30
2177.000
 70
    32
  0
VERTEX
  8
3050LEVEL
 62
5
 10
2890.442
 20
-4541.721
 30
2177.000
 70
    32
  0
VERTEX
  8
3050LEVEL
 62
5
 10
2890.595
 20
-4539.747
 30
2177.000
 70
    32
  0
VERTEX
  8
3050LEVEL
 62
5
 10
2888.719
 20
-4535.498
 30
2177.000
 70
    32
  0
VERTEX
  8
3050LEVEL
 62
5
 10
2886.915
 20
-4532.949
 30
2177.000
 70
    32
  0
VERTEX
  8
3050LEVEL
 62
5
 10
2883.433
 20
-4529.092
 30
2177.000
 70
    32
  0
VERTEX
  8
3050LEVEL
 62
5
 10
2880.957
 20
-4526.551
 30
2177.000
 70
    32
  0
VERTEX
  8
3050LEVEL
 62
5
 10
2877.181
 20
-4522.965
 30
2177.000
 70
    32
  0
VERTEX
  8
3050LEVEL
 62
5
 10
2876.311
 20
-4522.611
 30
2177.000
 70
    32
  0
VERTEX
  8
3050LEVEL
 62
5
 10
2874.610
 20
-4526.147
 30
2177.000
 70
    32
  0
VERTEX
  8
3050LEVEL
 62
5
 10
2873.162
 20
-4532.098
 30
2177.000
 70
    32
  0
VERTEX
  8
3050LEVEL
 62
5
 10
2872.905
 20
-4536.613
 30
2177.000
 70
    32
  0
VERTEX
  8
3050LEVEL
 62
5
 10
2872.363
 20
-4538.606
 30
2177.000
 70
    32
  0
VERTEX
  8
3050LEVEL
 62
5
 10
2871.334
 20
-4539.553
 30
2177.000
 70
    32
  0
VERTEX
  8
3050LEVEL
 62
5
 10
2869.395
 20
-4538.554
 30
2177.000
 70
    32
  0
VERTEX
  8
3050LEVEL
 62
5
 10
2867.834
 20
-4536.120
 30
2177.000
 70
    32
  0
VERTEX
  8
3050LEVEL
 62
5
 10
2863.266
 20
-4528.578
 30
2177.000
 70
    32
  0
VERTEX
  8
3050LEVEL
 62
5
 10
2858.311
 20
-4521.868
 30
2177.000
 70
    32
  0
VERTEX
  8
3050LEVEL
 62
5
 10
2852.029
 20
-4512.168
 30
2177.000
 70
    32
  0
VERTEX
  8
3050LEVEL
 62
5
 10
2848.986
 20
-4507.093
 30
2177.000
 70
    32
  0
VERTEX
  8
3050LEVEL
 62
5
 10
2842.480
 20
-4495.970
 30
2177.000
 70
    32
  0
VERTEX
  8
3050LEVEL
 62
5
 10
2839.434
 20
-4490.965
 30
2177.000
 70
    32
  0
VERTEX
  8
3050LEVEL
 62
5
 10
2837.162
 20
-4487.760
 30
2177.000
 70
    32
  0
VERTEX
  8
3050LEVEL
 62
5
 10
2835.654
 20
-4485.753
 30
2177.000
 70
    32
  0
VERTEX
  8
3050LEVEL
 62
5
 10
2834.502
 20
-4483.690
 30
2177.000
 70
    32
  0
VERTEX
  8
3050LEVEL
 62
5
 10
2835.823
 20
-4488.518
 30
2177.000
 70
    32
  0
VERTEX
  8
3050LEVEL
 62
5
 10
2839.754
 20
-4505.474
 30
2177.000
 70
    32
  0
VERTEX
  8
3050LEVEL
 62
5
 10
2846.303
 20
-4518.119
 30
2177.000
 70
    32
  0
VERTEX
  8
3050LEVEL
 62
5
 10
2853.133
 20
-4531.660
 30
2177.000
 70
    32
  0
VERTEX
  8
3050LEVEL
 62
5
 10
2856.576
 20
-4542.479
 30
2177.000
 70
    32
  0
VERTEX
  8
3050LEVEL
 62
5
 10
2859.440
 20
-4552.745
 30
2177.000
 70
    32
  0
VERTEX
  8
3050LEVEL
 62
5
 10
2863.458
 20
-4570.164
 30
2177.000
 70
    32
  0
VERTEX
  8
3050LEVEL
 62
5
 10
2866.474
 20
-4585.315
 30
2177.000
 70
    32
  0
VERTEX
  8
3050LEVEL
 62
5
 10
2869.339
 20
-4594.696
 30
2177.000
 70
    32
  0
VERTEX
  8
3050LEVEL
 62
5
 10
2871.651
 20
-4602.075
 30
2177.000
 70
    32
  0
VERTEX
  8
3050LEVEL
 62
5
 10
2874.251
 20
-4611.021
 30
2177.000
 70
    32
  0
VERTEX
  8
3050LEVEL
 62
5
 10
2876.784
 20
-4619.894
 30
2177.000
 70
    32
  0
VERTEX
  8
3050LEVEL
 62
5
 10
2856.511
 20
-4616.829
 30
2177.000
 70
    32
  0
VERTEX
  8
3050LEVEL
 62
5
 10
2854.340
 20
-4612.037
 30
2177.000
 70
    32
  0
VERTEX
  8
3050LEVEL
 62
5
 10
2852.716
 20
-4609.390
 30
2177.000
 70
    32
  0
VERTEX
  8
3050LEVEL
 62
5
 10
2849.550
 20
-4605.582
 30
2177.000
 70
    32
  0
VERTEX
  8
3050LEVEL
 62
5
 10
2848.738
 20
-4603.003
 30
2177.000
 70
    32
  0
VERTEX
  8
3050LEVEL
 62
5
 10
2849.549
 20
-4609.047
 30
2177.000
 70
    32
  0
VERTEX
  8
3050LEVEL
 62
5
 10
2850.556
 20
-4613.755
 30
2177.000
 70
    32
  0
VERTEX
  8
3050LEVEL
 62
5
 10
2851.293
 20
-4616.473
 30
2177.000
 70
    32
  0
VERTEX
  8
3050LEVEL
 62
5
 10
2851.451
 20
-4618.636
 30
2177.000
 70
    32
  0
SEQEND
  8
3050LEVEL
  0
POLYLINE
  8
3050LEVEL
 62
5
 66
     1
 70
     8
  0
VERTEX
  8
3050LEVEL
 62
5
 10
2741.335
 20
-4631.059
 30
2177.000
 70
    32
  0
VERTEX
  8
3050LEVEL
 62
5
 10
2780.669
 20
-4692.937
 30
2177.000
 70
    32
  0
VERTEX
  8
3050LEVEL
 62
5
 10
2830.707
 20
-4796.600
 30
2177.000
 70
    32
  0
VERTEX
  8
3050LEVEL
 62
5
 10
2869.353
 20
-4888.080
 30
2177.000
 70
    32
  0
VERTEX
  8
3050LEVEL
 62
5
 10
2900.608
 20
-4956.679
 30
2177.000
 70
    32
  0
SEQEND
  8
3050LEVEL
  0
POLYLINE
  8
3050LEVEL
 62
5
 66
     1
 70
     8
  0
VERTEX
  8
3050LEVEL
 62
5
 10
2205.185
 20
-2897.562
 30
2177.000
 70
    32
  0
VERTEX
  8
3050LEVEL
 62
5
 10
2225.503
 20
-2963.634
 30
2177.000
 70
    32
  0
VERTEX
  8
3050LEVEL
 62
5
 10
2241.100
 20
-3052.644
 30
2177.000
 70
    32
  0
VERTEX
  8
3050LEVEL
 62
5
 10
2250.217
 20
-3050.842
 30
2177.000
 70
    32
  0
VERTEX
  8
3050LEVEL
 62
5
 10
2265.873
 20
-3091.198
 30
2177.000
 70
    32
  0
VERTEX
  8
3050LEVEL
 62
5
 10
2271.358
 20
-3091.581
 30
2177.000
 70
    32
  0
VERTEX
  8
3050LEVEL
 62
5
 10
2262.249
 20
-3051.277
 30
2177.000
 70
    32
  0
VERTEX
  8
3050LEVEL
 62
5
 10
2284.466
 20
-3068.237
 30
2177.000
 70
    32
  0
VERTEX
  8
3050LEVEL
 62
5
 10
2287.368
 20
-3093.921
 30
2177.000
 70
    32
  0
VERTEX
  8
3050LEVEL
 62
5
 10
2278.584
 20
-3096.785
 30
2177.000
 70
    32
  0
VERTEX
  8
3050LEVEL
 62
5
 10
2284.595
 20
-3148.439
 30
2177.000
 70
    32
  0
VERTEX
  8
3050LEVEL
 62
5
 10
2297.635
 20
-3215.855
 30
2177.000
 70
    32
  0
VERTEX
  8
3050LEVEL
 62
5
 10
2320.594
 20
-3321.690
 30
2177.000
 70
    32
  0
VERTEX
  8
3050LEVEL
 62
5
 10
2373.499
 20
-3540.037
 30
2177.000
 70
    32
  0
VERTEX
  8
3050LEVEL
 62
5
 10
2418.132
 20
-3695.774
 30
2177.000
 70
    32
  0
VERTEX
  8
3050LEVEL
 62
5
 10
2484.407
 20
-3876.699
 30
2177.000
 70
    32
  0
VERTEX
  8
3050LEVEL
 62
5
 10
2503.851
 20
-3975.636
 30
2177.000
 70
    32
  0
SEQEND
  8
3050LEVEL
  0
POLYLINE
  8
3050LEVEL
 62
5
 66
     1
 70
     9
  0
VERTEX
  8
3050LEVEL
 62
5
 10
2516.463
 20
-3964.085
 30
2177.000
 70
    32
  0
VERTEX
  8
3050LEVEL
 62
5
 10
2517.494
 20
-3968.772
 30
2177.000
 70
    32
  0
VERTEX
  8
3050LEVEL
 62
5
 10
2518.430
 20
-3973.343
 30
2177.000
 70
    32
  0
VERTEX
  8
3050LEVEL
 62
5
 10
2518.770
 20
-3975.508
 30
2177.000
 70
    32
  0
VERTEX
  8
3050LEVEL
 62
5
 10
2520.261
 20
-3980.208
 30
2177.000
 70
    32
  0
VERTEX
  8
3050LEVEL
 62
5
 10
2522.128
 20
-3986.722
 30
2177.000
 70
    32
  0
VERTEX
  8
3050LEVEL
 62
5
 10
2523.318
 20
-3994.939
 30
2177.000
 70
    32
  0
VERTEX
  8
3050LEVEL
 62
5
 10
2525.258
 20
-4010.511
 30
2177.000
 70
    32
  0
VERTEX
  8
3050LEVEL
 62
5
 10
2526.405
 20
-4022.166
 30
2177.000
 70
    32
  0
VERTEX
  8
3050LEVEL
 62
5
 10
2528.554
 20
-4036.091
 30
2177.000
 70
    32
  0
VERTEX
  8
3050LEVEL
 62
5
 10
2528.662
 20
-4050.192
 30
2177.000
 70
    32
  0
VERTEX
  8
3050LEVEL
 62
5
 10
2529.878
 20
-4063.202
 30
2177.000
 70
    32
  0
VERTEX
  8
3050LEVEL
 62
5
 10
2531.104
 20
-4076.463
 30
2177.000
 70
    32
  0
VERTEX
  8
3050LEVEL
 62
5
 10
2532.723
 20
-4086.003
 30
2177.000
 70
    32
  0
VERTEX
  8
3050LEVEL
 62
5
 10
2533.909
 20
-4096.278
 30
2177.000
 70
    32
  0
VERTEX
  8
3050LEVEL
 62
5
 10
2534.203
 20
-4105.926
 30
2177.000
 70
    32
  0
VERTEX
  8
3050LEVEL
 62
5
 10
2533.344
 20
-4115.737
 30
2177.000
 70
    32
  0
VERTEX
  8
3050LEVEL
 62
5
 10
2533.154
 20
-4125.263
 30
2177.000
 70
    32
  0
VERTEX
  8
3050LEVEL
 62
5
 10
2533.275
 20
-4133.190
 30
2177.000
 70
    32
  0
VERTEX
  8
3050LEVEL
 62
5
 10
2532.975
 20
-4142.421
 30
2177.000
 70
    32
  0
VERTEX
  8
3050LEVEL
 62
5
 10
2532.657
 20
-4148.456
 30
2177.000
 70
    32
  0
VERTEX
  8
3050LEVEL
 62
5
 10
2532.845
 20
-4160.116
 30
2177.000
 70
    32
  0
VERTEX
  8
3050LEVEL
 62
5
 10
2534.924
 20
-4178.399
 30
2177.000
 70
    32
  0
VERTEX
  8
3050LEVEL
 62
5
 10
2537.521
 20
-4195.815
 30
2177.000
 70
    32
  0
VERTEX
  8
3050LEVEL
 62
5
 10
2539.096
 20
-4208.792
 30
2177.000
 70
    32
  0
VERTEX
  8
3050LEVEL
 62
5
 10
2539.431
 20
-4217.380
 30
2177.000
 70
    32
  0
VERTEX
  8
3050LEVEL
 62
5
 10
2527.102
 20
-4216.504
 30
2177.000
 70
    32
  0
VERTEX
  8
3050LEVEL
 62
5
 10
2525.099
 20
-4196.490
 30
2177.000
 70
    32
  0
VERTEX
  8
3050LEVEL
 62
5
 10
2525.211
 20
-4173.931
 30
2177.000
 70
    32
  0
VERTEX
  8
3050LEVEL
 62
5
 10
2522.436
 20
-4158.200
 30
2177.000
 70
    32
  0
VERTEX
  8
3050LEVEL
 62
5
 10
2521.089
 20
-4147.092
 30
2177.000
 70
    32
  0
VERTEX
  8
3050LEVEL
 62
5
 10
2520.749
 20
-4131.832
 30
2177.000
 70
    32
  0
VERTEX
  8
3050LEVEL
 62
5
 10
2521.334
 20
-4118.904
 30
2177.000
 70
    32
  0
VERTEX
  8
3050LEVEL
 62
5
 10
2520.031
 20
-4104.358
 30
2177.000
 70
    32
  0
VERTEX
  8
3050LEVEL
 62
5
 10
2519.262
 20
-4093.489
 30
2177.000
 70
    32
  0
VERTEX
  8
3050LEVEL
 62
5
 10
2518.608
 20
-4083.554
 30
2177.000
 70
    32
  0
VERTEX
  8
3050LEVEL
 62
5
 10
2517.098
 20
-4069.625
 30
2177.000
 70
    32
  0
VERTEX
  8
3050LEVEL
 62
5
 10
2516.217
 20
-4059.488
 30
2177.000
 70
    32
  0
VERTEX
  8
3050LEVEL
 62
5
 10
2514.906
 20
-4046.361
 30
2177.000
 70
    32
  0
VERTEX
  8
3050LEVEL
 62
5
 10
2514.133
 20
-4033.184
 30
2177.000
 70
    32
  0
VERTEX
  8
3050LEVEL
 62
5
 10
2512.631
 20
-4022.201
 30
2177.000
 70
    32
  0
VERTEX
  8
3050LEVEL
 62
5
 10
2510.870
 20
-4013.676
 30
2177.000
 70
    32
  0
VERTEX
  8
3050LEVEL
 62
5
 10
2509.078
 20
-4005.111
 30
2177.000
 70
    32
  0
VERTEX
  8
3050LEVEL
 62
5
 10
2507.907
 20
-3999.061
 30
2177.000
 70
    32
  0
VERTEX
  8
3050LEVEL
 62
5
 10
2507.544
 20
-3995.438
 30
2177.000
 70
    32
  0
VERTEX
  8
3050LEVEL
 62
5
 10
2507.639
 20
-3992.857
 30
2177.000
 70
    32
  0
VERTEX
  8
3050LEVEL
 62
5
 10
2506.023
 20
-3991.019
 30
2177.000
 70
    32
  0
VERTEX
  8
3050LEVEL
 62
5
 10
2504.803
 20
-3988.796
 30
2177.000
 70
    32
  0
VERTEX
  8
3050LEVEL
 62
5
 10
2504.065
 20
-3986.376
 30
2177.000
 70
    32
  0
VERTEX
  8
3050LEVEL
 62
5
 10
2505.203
 20
-3985.006
 30
2177.000
 70
    32
  0
VERTEX
  8
3050LEVEL
 62
5
 10
2505.449
 20
-3984.357
 30
2177.000
 70
    32
  0
VERTEX
  8
3050LEVEL
 62
5
 10
2504.156
 20
-3978.791
 30
2177.000
 70
    32
  0
VERTEX
  8
3050LEVEL
 62
5
 10
2503.851
 20
-3975.636
 30
2177.000
 70
    32
  0
VERTEX
  8
3050LEVEL
 62
5
 10
2507.832
 20
-3975.240
 30
2177.000
 70
    32
  0
VERTEX
  8
3050LEVEL
 62
5
 10
2508.313
 20
-3979.088
 30
2177.000
 70
    32
  0
VERTEX
  8
3050LEVEL
 62
5
 10
2509.559
 20
-3984.756
 30
2177.000
 70
    32
  0
VERTEX
  8
3050LEVEL
 62
5
 10
2510.168
 20
-3987.730
 30
2177.000
 70
    32
  0
VERTEX
  8
3050LEVEL
 62
5
 10
2509.658
 20
-3988.528
 30
2177.000
 70
    32
  0
VERTEX
  8
3050LEVEL
 62
5
 10
2509.087
 20
-3988.219
 30
2177.000
 70
    32
  0
VERTEX
  8
3050LEVEL
 62
5
 10
2508.929
 20
-3992.071
 30
2177.000
 70
    32
  0
VERTEX
  8
3050LEVEL
 62
5
 10
2510.711
 20
-4000.067
 30
2177.000
 70
    32
  0
VERTEX
  8
3050LEVEL
 62
5
 10
2512.623
 20
-4010.525
 30
2177.000
 70
    32
  0
VERTEX
  8
3050LEVEL
 62
5
 10
2514.656
 20
-4021.847
 30
2177.000
 70
    32
  0
VERTEX
  8
3050LEVEL
 62
5
 10
2517.203
 20
-4033.011
 30
2177.000
 70
    32
  0
VERTEX
  8
3050LEVEL
 62
5
 10
2519.928
 20
-4045.188
 30
2177.000
 70
    32
  0
VERTEX
  8
3050LEVEL
 62
5
 10
2520.639
 20
-4051.225
 30
2177.000
 70
    32
  0
VERTEX
  8
3050LEVEL
 62
5
 10
2520.995
 20
-4060.951
 30
2177.000
 70
    32
  0
VERTEX
  8
3050LEVEL
 62
5
 10
2521.611
 20
-4070.918
 30
2177.000
 70
    32
  0
VERTEX
  8
3050LEVEL
 62
5
 10
2522.694
 20
-4080.827
 30
2177.000
 70
    32
  0
VERTEX
  8
3050LEVEL
 62
5
 10
2523.578
 20
-4087.237
 30
2177.000
 70
    32
  0
VERTEX
  8
3050LEVEL
 62
5
 10
2525.465
 20
-4095.918
 30
2177.000
 70
    32
  0
VERTEX
  8
3050LEVEL
 62
5
 10
2526.871
 20
-4105.116
 30
2177.000
 70
    32
  0
VERTEX
  8
3050LEVEL
 62
5
 10
2527.176
 20
-4110.969
 30
2177.000
 70
    32
  0
VERTEX
  8
3050LEVEL
 62
5
 10
2527.435
 20
-4114.226
 30
2177.000
 70
    32
  0
VERTEX
  8
3050LEVEL
 62
5
 10
2528.443
 20
-4121.820
 30
2177.000
 70
    32
  0
VERTEX
  8
3050LEVEL
 62
5
 10
2529.018
 20
-4125.785
 30
2177.000
 70
    32
  0
VERTEX
  8
3050LEVEL
 62
5
 10
2529.256
 20
-4130.920
 30
2177.000
 70
    32
  0
VERTEX
  8
3050LEVEL
 62
5
 10
2529.395
 20
-4136.329
 30
2177.000
 70
    32
  0
VERTEX
  8
3050LEVEL
 62
5
 10
2529.348
 20
-4139.128
 30
2177.000
 70
    32
  0
VERTEX
  8
3050LEVEL
 62
5
 10
2530.223
 20
-4139.575
 30
2177.000
 70
    32
  0
VERTEX
  8
3050LEVEL
 62
5
 10
2530.880
 20
-4135.705
 30
2177.000
 70
    32
  0
VERTEX
  8
3050LEVEL
 62
5
 10
2530.771
 20
-4130.015
 30
2177.000
 70
    32
  0
VERTEX
  8
3050LEVEL
 62
5
 10
2529.890
 20
-4124.244
 30
2177.000
 70
    32
  0
VERTEX
  8
3050LEVEL
 62
5
 10
2529.676
 20
-4119.218
 30
2177.000
 70
    32
  0
VERTEX
  8
3050LEVEL
 62
5
 10
2529.402
 20
-4110.388
 30
2177.000
 70
    32
  0
VERTEX
  8
3050LEVEL
 62
5
 10
2527.887
 20
-4099.865
 30
2177.000
 70
    32
  0
VERTEX
  8
3050LEVEL
 62
5
 10
2526.917
 20
-4090.571
 30
2177.000
 70
    32
  0
VERTEX
  8
3050LEVEL
 62
5
 10
2526.682
 20
-4081.709
 30
2177.000
 70
    32
  0
VERTEX
  8
3050LEVEL
 62
5
 10
2526.050
 20
-4070.215
 30
2177.000
 70
    32
  0
VERTEX
  8
3050LEVEL
 62
5
 10
2524.176
 20
-4056.709
 30
2177.000
 70
    32
  0
VERTEX
  8
3050LEVEL
 62
5
 10
2523.910
 20
-4046.460
 30
2177.000
 70
    32
  0
VERTEX
  8
3050LEVEL
 62
5
 10
2523.959
 20
-4033.902
 30
2177.000
 70
    32
  0
VERTEX
  8
3050LEVEL
 62
5
 10
2522.236
 20
-4020.980
 30
2177.000
 70
    32
  0
VERTEX
  8
3050LEVEL
 62
5
 10
2521.444
 20
-4013.018
 30
2177.000
 70
    32
  0
VERTEX
  8
3050LEVEL
 62
5
 10
2520.218
 20
-4002.455
 30
2177.000
 70
    32
  0
VERTEX
  8
3050LEVEL
 62
5
 10
2519.522
 20
-3994.929
 30
2177.000
 70
    32
  0
VERTEX
  8
3050LEVEL
 62
5
 10
2518.833
 20
-3988.681
 30
2177.000
 70
    32
  0
VERTEX
  8
3050LEVEL
 62
5
 10
2518.041
 20
-3983.416
 30
2177.000
 70
    32
  0
VERTEX
  8
3050LEVEL
 62
5
 10
2517.505
 20
-3979.420
 30
2177.000
 70
    32
  0
VERTEX
  8
3050LEVEL
 62
5
 10
2516.913
 20
-3976.625
 30
2177.000
 70
    32
  0
VERTEX
  8
3050LEVEL
 62
5
 10
2514.939
 20
-3972.122
 30
2177.000
 70
    32
  0
VERTEX
  8
3050LEVEL
 62
5
 10
2513.784
 20
-3968.948
 30
2177.000
 70
    32
  0
VERTEX
  8
3050LEVEL
 62
5
 10
2512.734
 20
-3966.460
 30
2177.000
 70
    32
  0
SEQEND
  8
3050LEVEL
  0
POLYLINE
  8
3050LEVEL
 62
5
 66
     1
 70
     8
  0
VERTEX
  8
3050LEVEL
 62
5
 10
2538.649
 20
-3940.167
 30
2177.000
 70
    32
  0
VERTEX
  8
3050LEVEL
 62
5
 10
2540.319
 20
-3957.626
 30
2177.000
 70
    32
  0
VERTEX
  8
3050LEVEL
 62
5
 10
2540.145
 20
-3970.029
 30
2177.000
 70
    32
  0
VERTEX
  8
3050LEVEL
 62
5
 10
2539.942
 20
-3984.380
 30
2177.000
 70
    32
  0
VERTEX
  8
3050LEVEL
 62
5
 10
2540.729
 20
-4001.462
 30
2177.000
 70
    32
  0
VERTEX
  8
3050LEVEL
 62
5
 10
2542.337
 20
-4024.877
 30
2177.000
 70
    32
  0
VERTEX
  8
3050LEVEL
 62
5
 10
2543.669
 20
-4033.429
 30
2177.000
 70
    32
  0
VERTEX
  8
3050LEVEL
 62
5
 10
2543.779
 20
-4047.849
 30
2177.000
 70
    32
  0
VERTEX
  8
3050LEVEL
 62
5
 10
2544.448
 20
-4062.009
 30
2177.000
 70
    32
  0
VERTEX
  8
3050LEVEL
 62
5
 10
2545.331
 20
-4073.813
 30
2177.000
 70
    32
  0
VERTEX
  8
3050LEVEL
 62
5
 10
2545.301
 20
-4079.808
 30
2177.000
 70
    32
  0
VERTEX
  8
3050LEVEL
 62
5
 10
2543.636
 20
-4081.796
 30
2177.000
 70
    32
  0
VERTEX
  8
3050LEVEL
 62
5
 10
2540.458
 20
-4079.296
 30
2177.000
 70
    32
  0
VERTEX
  8
3050LEVEL
 62
5
 10
2538.703
 20
-4073.397
 30
2177.000
 70
    32
  0
VERTEX
  8
3050LEVEL
 62
5
 10
2536.515
 20
-4049.424
 30
2177.000
 70
    32
  0
VERTEX
  8
3050LEVEL
 62
5
 10
2535.538
 20
-4027.424
 30
2177.000
 70
    32
  0
VERTEX
  8
3050LEVEL
 62
5
 10
2534.090
 20
-4006.191
 30
2177.000
 70
    32
  0
VERTEX
  8
3050LEVEL
 62
5
 10
2534.078
 20
-3991.178
 30
2177.000
 70
    32
  0
VERTEX
  8
3050LEVEL
 62
5
 10
2534.779
 20
-3968.078
 30
2177.000
 70
    32
  0
VERTEX
  8
3050LEVEL
 62
5
 10
2534.045
 20
-3954.870
 30
2177.000
 70
    32
  0
VERTEX
  8
3050LEVEL
 62
5
 10
2533.204
 20
-3945.021
 30
2177.000
 70
    32
  0
VERTEX
  8
3050LEVEL
 62
5
 10
2532.798
 20
-3939.123
 30
2177.000
 70
    32
  0
SEQEND
  8
3050LEVEL
  0
POLYLINE
  8
3050LEVEL
 62
5
 66
     1
 70
     9
  0
VERTEX
  8
3050LEVEL
 62
5
 10
2729.387
 20
-4605.617
 30
2177.000
 70
    32
  0
VERTEX
  8
3050LEVEL
 62
5
 10
2714.859
 20
-4576.848
 30
2177.000
 70
    32
  0
VERTEX
  8
3050LEVEL
 62
5
 10
2697.308
 20
-4540.073
 30
2177.000
 70
    32
  0
VERTEX
  8
3050LEVEL
 62
5
 10
2682.696
 20
-4506.377
 30
2177.000
 70
    32
  0
VERTEX
  8
3050LEVEL
 62
5
 10
2675.263
 20
-4480.999
 30
2177.000
 70
    32
  0
VERTEX
  8
3050LEVEL
 62
5
 10
2670.633
 20
-4460.991
 30
2177.000
 70
    32
  0
VERTEX
  8
3050LEVEL
 62
5
 10
2661.496
 20
-4430.570
 30
2177.000
 70
    32
  0
VERTEX
  8
3050LEVEL
 62
5
 10
2654.409
 20
-4411.652
 30
2177.000
 70
    32
  0
VERTEX
  8
3050LEVEL
 62
5
 10
2646.445
 20
-4389.269
 30
2177.000
 70
    32
  0
VERTEX
  8
3050LEVEL
 62
5
 10
2636.832
 20
-4363.021
 30
2177.000
 70
    32
  0
VERTEX
  8
3050LEVEL
 62
5
 10
2628.025
 20
-4334.516
 30
2177.000
 70
    32
  0
VERTEX
  8
3050LEVEL
 62
5
 10
2621.234
 20
-4308.425
 30
2177.000
 70
    32
  0
VERTEX
  8
3050LEVEL
 62
5
 10
2616.104
 20
-4282.402
 30
2177.000
 70
    32
  0
VERTEX
  8
3050LEVEL
 62
5
 10
2612.690
 20
-4262.310
 30
2177.000
 70
    32
  0
VERTEX
  8
3050LEVEL
 62
5
 10
2607.642
 20
-4244.245
 30
2177.000
 70
    32
  0
VERTEX
  8
3050LEVEL
 62
5
 10
2605.183
 20
-4232.239
 30
2177.000
 70
    32
  0
VERTEX
  8
3050LEVEL
 62
5
 10
2604.916
 20
-4226.036
 30
2177.000
 70
    32
  0
VERTEX
  8
3050LEVEL
 62
5
 10
2602.458
 20
-4198.237
 30
2177.000
 70
    32
  0
VERTEX
  8
3050LEVEL
 62
5
 10
2633.497
 20
-4211.132
 30
2177.000
 70
    32
  0
VERTEX
  8
3050LEVEL
 62
5
 10
2633.515
 20
-4243.216
 30
2177.000
 70
    32
  0
VERTEX
  8
3050LEVEL
 62
5
 10
2638.994
 20
-4268.956
 30
2177.000
 70
    32
  0
VERTEX
  8
3050LEVEL
 62
5
 10
2646.499
 20
-4297.359
 30
2177.000
 70
    32
  0
VERTEX
  8
3050LEVEL
 62
5
 10
2652.156
 20
-4318.398
 30
2177.000
 70
    32
  0
VERTEX
  8
3050LEVEL
 62
5
 10
2657.623
 20
-4337.536
 30
2177.000
 70
    32
  0
VERTEX
  8
3050LEVEL
 62
5
 10
2659.778
 20
-4348.375
 30
2177.000
 70
    32
  0
VERTEX
  8
3050LEVEL
 62
5
 10
2661.340
 20
-4368.875
 30
2177.000
 70
    32
  0
VERTEX
  8
3050LEVEL
 62
5
 10
2664.183
 20
-4384.293
 30
2177.000
 70
    32
  0
VERTEX
  8
3050LEVEL
 62
5
 10
2669.768
 20
-4397.943
 30
2177.000
 70
    32
  0
VERTEX
  8
3050LEVEL
 62
5
 10
2672.673
 20
-4406.057
 30
2177.000
 70
    32
  0
VERTEX
  8
3050LEVEL
 62
5
 10
2676.064
 20
-4421.995
 30
2177.000
 70
    32
  0
VERTEX
  8
3050LEVEL
 62
5
 10
2678.827
 20
-4436.837
 30
2177.000
 70
    32
  0
VERTEX
  8
3050LEVEL
 62
5
 10
2682.287
 20
-4455.479
 30
2177.000
 70
    32
  0
VERTEX
  8
3050LEVEL
 62
5
 10
2687.434
 20
-4475.967
 30
2177.000
 70
    32
  0
VERTEX
  8
3050LEVEL
 62
5
 10
2693.150
 20
-4492.079
 30
2177.000
 70
    32
  0
VERTEX
  8
3050LEVEL
 62
5
 10
2698.162
 20
-4506.449
 30
2177.000
 70
    32
  0
VERTEX
  8
3050LEVEL
 62
5
 10
2705.375
 20
-4525.523
 30
2177.000
 70
    32
  0
VERTEX
  8
3050LEVEL
 62
5
 10
2712.268
 20
-4541.902
 30
2177.000
 70
    32
  0
VERTEX
  8
3050LEVEL
 62
5
 10
2720.565
 20
-4558.109
 30
2177.000
 70
    32
  0
VERTEX
  8
3050LEVEL
 62
5
 10
2725.336
 20
-4568.373
 30
2177.000
 70
    32
  0
VERTEX
  8
3050LEVEL
 62
5
 10
2732.668
 20
-4584.975
 30
2177.000
 70
    32
  0
VERTEX
  8
3050LEVEL
 62
5
 10
2737.229
 20
-4595.216
 30
2177.000
 70
    32
  0
VERTEX
  8
3050LEVEL
 62
5
 10
2740.942
 20
-4607.106
 30
2177.000
 70
    32
  0
VERTEX
  8
3050LEVEL
 62
5
 10
2743.069
 20
-4611.332
 30
2177.000
 70
    32
  0
VERTEX
  8
3050LEVEL
 62
5
 10
2747.491
 20
-4618.126
 30
2177.000
 70
    32
  0
VERTEX
  8
3050LEVEL
 62
5
 10
2751.874
 20
-4624.140
 30
2177.000
 70
    32
  0
VERTEX
  8
3050LEVEL
 62
5
 10
2754.640
 20
-4627.366
 30
2177.000
 70
    32
  0
VERTEX
  8
3050LEVEL
 62
5
 10
2755.783
 20
-4629.641
 30
2177.000
 70
    32
  0
VERTEX
  8
3050LEVEL
 62
5
 10
2748.392
 20
-4633.118
 30
2177.000
 70
    32
  0
VERTEX
  8
3050LEVEL
 62
5
 10
2746.114
 20
-4630.055
 30
2177.000
 70
    32
  0
VERTEX
  8
3050LEVEL
 62
5
 10
2745.642
 20
-4628.656
 30
2177.000
 70
    32
  0
VERTEX
  8
3050LEVEL
 62
5
 10
2743.142
 20
-4624.982
 30
2177.000
 70
    32
  0
VERTEX
  8
3050LEVEL
 62
5
 10
2740.772
 20
-4623.293
 30
2177.000
 70
    32
  0
VERTEX
  8
3050LEVEL
 62
5
 10
2737.808
 20
-4620.590
 30
2177.000
 70
    32
  0
VERTEX
  8
3050LEVEL
 62
5
 10
2737.061
 20
-4618.968
 30
2177.000
 70
    32
  0
VERTEX
  8
3050LEVEL
 62
5
 10
2735.145
 20
-4615.707
 30
2177.000
 70
    32
  0
VERTEX
  8
3050LEVEL
 62
5
 10
2733.591
 20
-4612.248
 30
2177.000
 70
    32
  0
SEQEND
  8
3050LEVEL
  0
POLYLINE
  8
3050LEVEL
 62
5
 66
     1
 70
     9
  0
VERTEX
  8
3050LEVEL
 62
5
 10
2752.284
 20
-4599.084
 30
2177.000
 70
    32
  0
VERTEX
  8
3050LEVEL
 62
5
 10
2747.356
 20
-4585.355
 30
2177.000
 70
    32
  0
VERTEX
  8
3050LEVEL
 62
5
 10
2742.623
 20
-4569.346
 30
2177.000
 70
    32
  0
VERTEX
  8
3050LEVEL
 62
5
 10
2734.110
 20
-4544.776
 30
2177.000
 70
    32
  0
VERTEX
  8
3050LEVEL
 62
5
 10
2726.588
 20
-4521.908
 30
2177.000
 70
    32
  0
VERTEX
  8
3050LEVEL
 62
5
 10
2721.259
 20
-4503.814
 30
2177.000
 70
    32
  0
VERTEX
  8
3050LEVEL
 62
5
 10
2717.275
 20
-4487.778
 30
2177.000
 70
    32
  0
VERTEX
  8
3050LEVEL
 62
5
 10
2712.722
 20
-4470.405
 30
2177.000
 70
    32
  0
VERTEX
  8
3050LEVEL
 62
5
 10
2706.072
 20
-4454.407
 30
2177.000
 70
    32
  0
VERTEX
  8
3050LEVEL
 62
5
 10
2693.949
 20
-4425.374
 30
2177.000
 70
    32
  0
VERTEX
  8
3050LEVEL
 62
5
 10
2690.656
 20
-4411.860
 30
2177.000
 70
    32
  0
VERTEX
  8
3050LEVEL
 62
5
 10
2685.282
 20
-4392.519
 30
2177.000
 70
    32
  0
VERTEX
  8
3050LEVEL
 62
5
 10
2678.408
 20
-4371.245
 30
2177.000
 70
    32
  0
VERTEX
  8
3050LEVEL
 62
5
 10
2674.499
 20
-4354.827
 30
2177.000
 70
    32
  0
VERTEX
  8
3050LEVEL
 62
5
 10
2670.948
 20
-4335.359
 30
2177.000
 70
    32
  0
VERTEX
  8
3050LEVEL
 62
5
 10
2667.880
 20
-4317.361
 30
2177.000
 70
    32
  0
VERTEX
  8
3050LEVEL
 62
5
 10
2663.713
 20
-4302.052
 30
2177.000
 70
    32
  0
VERTEX
  8
3050LEVEL
 62
5
 10
2661.506
 20
-4294.721
 30
2177.000
 70
    32
  0
VERTEX
  8
3050LEVEL
 62
5
 10
2683.328
 20
-4295.428
 30
2177.000
 70
    32
  0
VERTEX
  8
3050LEVEL
 62
5
 10
2690.407
 20
-4331.558
 30
2177.000
 70
    32
  0
VERTEX
  8
3050LEVEL
 62
5
 10
2695.836
 20
-4356.761
 30
2177.000
 70
    32
  0
VERTEX
  8
3050LEVEL
 62
5
 10
2697.591
 20
-4372.739
 30
2177.000
 70
    32
  0
VERTEX
  8
3050LEVEL
 62
5
 10
2701.816
 20
-4389.865
 30
2177.000
 70
    32
  0
VERTEX
  8
3050LEVEL
 62
5
 10
2704.499
 20
-4397.388
 30
2177.000
 70
    32
  0
VERTEX
  8
3050LEVEL
 62
5
 10
2707.906
 20
-4406.123
 30
2177.000
 70
    32
  0
VERTEX
  8
3050LEVEL
 62
5
 10
2709.636
 20
-4410.245
 30
2177.000
 70
    32
  0
VERTEX
  8
3050LEVEL
 62
5
 10
2714.020
 20
-4419.473
 30
2177.000
 70
    32
  0
VERTEX
  8
3050LEVEL
 62
5
 10
2718.044
 20
-4428.416
 30
2177.000
 70
    32
  0
VERTEX
  8
3050LEVEL
 62
5
 10
2722.018
 20
-4436.820
 30
2177.000
 70
    32
  0
VERTEX
  8
3050LEVEL
 62
5
 10
2726.287
 20
-4446.463
 30
2177.000
 70
    32
  0
VERTEX
  8
3050LEVEL
 62
5
 10
2727.252
 20
-4450.433
 30
2177.000
 70
    32
  0
VERTEX
  8
3050LEVEL
 62
5
 10
2727.872
 20
-4453.976
 30
2177.000
 70
    32
  0
VERTEX
  8
3050LEVEL
 62
5
 10
2726.986
 20
-4455.977
 30
2177.000
 70
    32
  0
VERTEX
  8
3050LEVEL
 62
5
 10
2724.574
 20
-4453.948
 30
2177.000
 70
    32
  0
VERTEX
  8
3050LEVEL
 62
5
 10
2719.517
 20
-4442.696
 30
2177.000
 70
    32
  0
VERTEX
  8
3050LEVEL
 62
5
 10
2712.279
 20
-4430.575
 30
2177.000
 70
    32
  0
VERTEX
  8
3050LEVEL
 62
5
 10
2707.040
 20
-4417.352
 30
2177.000
 70
    32
  0
VERTEX
  8
3050LEVEL
 62
5
 10
2704.750
 20
-4409.125
 30
2177.000
 70
    32
  0
VERTEX
  8
3050LEVEL
 62
5
 10
2702.819
 20
-4400.866
 30
2177.000
 70
    32
  0
VERTEX
  8
3050LEVEL
 62
5
 10
2699.672
 20
-4391.342
 30
2177.000
 70
    32
  0
VERTEX
  8
3050LEVEL
 62
5
 10
2698.235
 20
-4386.470
 30
2177.000
 70
    32
  0
VERTEX
  8
3050LEVEL
 62
5
 10
2696.847
 20
-4383.484
 30
2177.000
 70
    32
  0
VERTEX
  8
3050LEVEL
 62
5
 10
2695.024
 20
-4382.262
 30
2177.000
 70
    32
  0
VERTEX
  8
3050LEVEL
 62
5
 10
2694.892
 20
-4390.908
 30
2177.000
 70
    32
  0
VERTEX
  8
3050LEVEL
 62
5
 10
2696.918
 20
-4402.301
 30
2177.000
 70
    32
  0
VERTEX
  8
3050LEVEL
 62
5
 10
2700.949
 20
-4416.886
 30
2177.000
 70
    32
  0
VERTEX
  8
3050LEVEL
 62
5
 10
2708.632
 20
-4433.526
 30
2177.000
 70
    32
  0
VERTEX
  8
3050LEVEL
 62
5
 10
2713.073
 20
-4448.936
 30
2177.000
 70
    32
  0
VERTEX
  8
3050LEVEL
 62
5
 10
2718.365
 20
-4467.381
 30
2177.000
 70
    32
  0
VERTEX
  8
3050LEVEL
 62
5
 10
2720.894
 20
-4476.697
 30
2177.000
 70
    32
  0
VERTEX
  8
3050LEVEL
 62
5
 10
2725.962
 20
-4491.215
 30
2177.000
 70
    32
  0
VERTEX
  8
3050LEVEL
 62
5
 10
2730.868
 20
-4507.597
 30
2177.000
 70
    32
  0
VERTEX
  8
3050LEVEL
 62
5
 10
2736.031
 20
-4523.899
 30
2177.000
 70
    32
  0
VERTEX
  8
3050LEVEL
 62
5
 10
2741.562
 20
-4543.434
 30
2177.000
 70
    32
  0
VERTEX
  8
3050LEVEL
 62
5
 10
2747.184
 20
-4556.733
 30
2177.000
 70
    32
  0
VERTEX
  8
3050LEVEL
 62
5
 10
2752.420
 20
-4570.665
 30
2177.000
 70
    32
  0
VERTEX
  8
3050LEVEL
 62
5
 10
2756.560
 20
-4580.862
 30
2177.000
 70
    32
  0
VERTEX
  8
3050LEVEL
 62
5
 10
2762.228
 20
-4595.407
 30
2177.000
 70
    32
  0
VERTEX
  8
3050LEVEL
 62
5
 10
2763.911
 20
-4599.196
 30
2177.000
 70
    32
  0
VERTEX
  8
3050LEVEL
 62
5
 10
2767.696
 20
-4606.586
 30
2177.000
 70
    32
  0
VERTEX
  8
3050LEVEL
 62
5
 10
2771.250
 20
-4613.839
 30
2177.000
 70
    32
  0
VERTEX
  8
3050LEVEL
 62
5
 10
2773.112
 20
-4617.557
 30
2177.000
 70
    32
  0
VERTEX
  8
3050LEVEL
 62
5
 10
2775.746
 20
-4622.262
 30
2177.000
 70
    32
  0
VERTEX
  8
3050LEVEL
 62
5
 10
2777.021
 20
-4625.639
 30
2177.000
 70
    32
  0
VERTEX
  8
3050LEVEL
 62
5
 10
2764.955
 20
-4627.580
 30
2177.000
 70
    32
  0
VERTEX
  8
3050LEVEL
 62
5
 10
2762.597
 20
-4623.028
 30
2177.000
 70
    32
  0
VERTEX
  8
3050LEVEL
 62
5
 10
2759.615
 20
-4616.470
 30
2177.000
 70
    32
  0
VERTEX
  8
3050LEVEL
 62
5
 10
2756.083
 20
-4612.117
 30
2177.000
 70
    32
  0
VERTEX
  8
3050LEVEL
 62
5
 10
2755.085
 20
-4610.590
 30
2177.000
 70
    32
  0
VERTEX
  8
3050LEVEL
 62
5
 10
2754.705
 20
-4609.514
 30
2177.000
 70
    32
  0
SEQEND
  8
3050LEVEL
  0
POLYLINE
  8
3050LEVEL
 62
5
 66
     1
 70
     9
  0
VERTEX
  8
3050LEVEL
 62
5
 10
2814.375
 20
-4598.649
 30
2177.000
 70
    32
  0
VERTEX
  8
3050LEVEL
 62
5
 10
2816.675
 20
-4603.729
 30
2177.000
 70
    32
  0
VERTEX
  8
3050LEVEL
 62
5
 10
2820.410
 20
-4610.884
 30
2177.000
 70
    32
  0
VERTEX
  8
3050LEVEL
 62
5
 10
2822.825
 20
-4614.908
 30
2177.000
 70
    32
  0
VERTEX
  8
3050LEVEL
 62
5
 10
2824.820
 20
-4617.960
 30
2177.000
 70
    32
  0
VERTEX
  8
3050LEVEL
 62
5
 10
2825.871
 20
-4619.913
 30
2177.000
 70
    32
  0
VERTEX
  8
3050LEVEL
 62
5
 10
2837.574
 20
-4619.053
 30
2177.000
 70
    32
  0
VERTEX
  8
3050LEVEL
 62
5
 10
2834.534
 20
-4613.907
 30
2177.000
 70
    32
  0
VERTEX
  8
3050LEVEL
 62
5
 10
2831.759
 20
-4609.196
 30
2177.000
 70
    32
  0
VERTEX
  8
3050LEVEL
 62
5
 10
2829.449
 20
-4604.327
 30
2177.000
 70
    32
  0
VERTEX
  8
3050LEVEL
 62
5
 10
2827.523
 20
-4600.465
 30
2177.000
 70
    32
  0
VERTEX
  8
3050LEVEL
 62
5
 10
2826.152
 20
-4596.837
 30
2177.000
 70
    32
  0
VERTEX
  8
3050LEVEL
 62
5
 10
2824.484
 20
-4594.991
 30
2177.000
 70
    32
  0
VERTEX
  8
3050LEVEL
 62
5
 10
2816.772
 20
-4581.649
 30
2177.000
 70
    32
  0
VERTEX
  8
3050LEVEL
 62
5
 10
2803.505
 20
-4561.439
 30
2177.000
 70
    32
  0
VERTEX
  8
3050LEVEL
 62
5
 10
2795.389
 20
-4546.883
 30
2177.000
 70
    32
  0
VERTEX
  8
3050LEVEL
 62
5
 10
2787.390
 20
-4532.233
 30
2177.000
 70
    32
  0
VERTEX
  8
3050LEVEL
 62
5
 10
2781.546
 20
-4519.692
 30
2177.000
 70
    32
  0
VERTEX
  8
3050LEVEL
 62
5
 10
2777.374
 20
-4510.805
 30
2177.000
 70
    32
  0
VERTEX
  8
3050LEVEL
 62
5
 10
2771.859
 20
-4502.876
 30
2177.000
 70
    32
  0
VERTEX
  8
3050LEVEL
 62
5
 10
2768.021
 20
-4500.910
 30
2177.000
 70
    32
  0
VERTEX
  8
3050LEVEL
 62
5
 10
2766.331
 20
-4505.487
 30
2177.000
 70
    32
  0
VERTEX
  8
3050LEVEL
 62
5
 10
2770.224
 20
-4514.663
 30
2177.000
 70
    32
  0
VERTEX
  8
3050LEVEL
 62
5
 10
2778.275
 20
-4534.536
 30
2177.000
 70
    32
  0
VERTEX
  8
3050LEVEL
 62
5
 10
2784.010
 20
-4545.753
 30
2177.000
 70
    32
  0
VERTEX
  8
3050LEVEL
 62
5
 10
2792.286
 20
-4562.490
 30
2177.000
 70
    32
  0
VERTEX
  8
3050LEVEL
 62
5
 10
2800.653
 20
-4576.008
 30
2177.000
 70
    32
  0
VERTEX
  8
3050LEVEL
 62
5
 10
2805.929
 20
-4585.863
 30
2177.000
 70
    32
  0
VERTEX
  8
3050LEVEL
 62
5
 10
2810.525
 20
-4592.417
 30
2177.000
 70
    32
  0
VERTEX
  8
3050LEVEL
 62
5
 10
2813.466
 20
-4597.164
 30
2177.000
 70
    32
  0
SEQEND
  8
3050LEVEL
  0
POLYLINE
  8
3050LEVEL
 62
5
 66
     1
 70
     9
  0
VERTEX
  8
3050LEVEL
 62
5
 10
2782.502
 20
-4603.343
 30
2177.000
 70
    32
  0
VERTEX
  8
3050LEVEL
 62
5
 10
2783.254
 20
-4604.824
 30
2177.000
 70
    32
  0
VERTEX
  8
3050LEVEL
 62
5
 10
2784.863
 20
-4607.825
 30
2177.000
 70
    32
  0
VERTEX
  8
3050LEVEL
 62
5
 10
2788.069
 20
-4613.225
 30
2177.000
 70
    32
  0
VERTEX
  8
3050LEVEL
 62
5
 10
2790.882
 20
-4619.599
 30
2177.000
 70
    32
  0
VERTEX
  8
3050LEVEL
 62
5
 10
2793.682
 20
-4624.559
 30
2177.000
 70
    32
  0
VERTEX
  8
3050LEVEL
 62
5
 10
2806.314
 20
-4621.757
 30
2177.000
 70
    32
  0
VERTEX
  8
3050LEVEL
 62
5
 10
2804.705
 20
-4617.059
 30
2177.000
 70
    32
  0
VERTEX
  8
3050LEVEL
 62
5
 10
2803.764
 20
-4615.005
 30
2177.000
 70
    32
  0
VERTEX
  8
3050LEVEL
 62
5
 10
2801.349
 20
-4611.864
 30
2177.000
 70
    32
  0
VERTEX
  8
3050LEVEL
 62
5
 10
2798.966
 20
-4608.761
 30
2177.000
 70
    32
  0
VERTEX
  8
3050LEVEL
 62
5
 10
2797.302
 20
-4605.404
 30
2177.000
 70
    32
  0
VERTEX
  8
3050LEVEL
 62
5
 10
2795.142
 20
-4601.214
 30
2177.000
 70
    32
  0
VERTEX
  8
3050LEVEL
 62
5
 10
2787.726
 20
-4585.502
 30
2177.000
 70
    32
  0
VERTEX
  8
3050LEVEL
 62
5
 10
2779.263
 20
-4570.200
 30
2177.000
 70
    32
  0
VERTEX
  8
3050LEVEL
 62
5
 10
2772.434
 20
-4555.567
 30
2177.000
 70
    32
  0
VERTEX
  8
3050LEVEL
 62
5
 10
2764.957
 20
-4542.356
 30
2177.000
 70
    32
  0
VERTEX
  8
3050LEVEL
 62
5
 10
2760.465
 20
-4534.819
 30
2177.000
 70
    32
  0
VERTEX
  8
3050LEVEL
 62
5
 10
2755.504
 20
-4525.672
 30
2177.000
 70
    32
  0
VERTEX
  8
3050LEVEL
 62
5
 10
2752.357
 20
-4520.194
 30
2177.000
 70
    32
  0
VERTEX
  8
3050LEVEL
 62
5
 10
2749.596
 20
-4517.098
 30
2177.000
 70
    32
  0
VERTEX
  8
3050LEVEL
 62
5
 10
2745.734
 20
-4519.388
 30
2177.000
 70
    32
  0
VERTEX
  8
3050LEVEL
 62
5
 10
2745.133
 20
-4526.422
 30
2177.000
 70
    32
  0
VERTEX
  8
3050LEVEL
 62
5
 10
2748.899
 20
-4540.838
 30
2177.000
 70
    32
  0
VERTEX
  8
3050LEVEL
 62
5
 10
2754.882
 20
-4556.091
 30
2177.000
 70
    32
  0
VERTEX
  8
3050LEVEL
 62
5
 10
2763.021
 20
-4572.104
 30
2177.000
 70
    32
  0
VERTEX
  8
3050LEVEL
 62
5
 10
2769.383
 20
-4585.126
 30
2177.000
 70
    32
  0
VERTEX
  8
3050LEVEL
 62
5
 10
2774.054
 20
-4591.298
 30
2177.000
 70
    32
  0
VERTEX
  8
3050LEVEL
 62
5
 10
2777.920
 20
-4597.029
 30
2177.000
 70
    32
  0
VERTEX
  8
3050LEVEL
 62
5
 10
2779.270
 20
-4598.831
 30
2177.000
 70
    32
  0
SEQEND
  8
3050LEVEL
  0
POLYLINE
  8
3050LEVEL
 62
13
 66
     1
 70
     9
  0
VERTEX
  8
3050LEVEL
 62
13
 10
2513.502
 20
-4094.939
 30
2177.000
 70
    32
  0
VERTEX
  8
3050LEVEL
 62
13
 10
2517.185
 20
-4102.745
 30
2177.000
 70
    32
  0
VERTEX
  8
3050LEVEL
 62
13
 10
2520.590
 20
-4115.525
 30
2177.000
 70
    32
  0
VERTEX
  8
3050LEVEL
 62
13
 10
2524.073
 20
-4125.227
 30
2177.000
 70
    32
  0
VERTEX
  8
3050LEVEL
 62
13
 10
2528.974
 20
-4136.285
 30
2177.000
 70
    32
  0
VERTEX
  8
3050LEVEL
 62
13
 10
2532.498
 20
-4143.577
 30
2177.000
 70
    32
  0
VERTEX
  8
3050LEVEL
 62
13
 10
2539.820
 20
-4155.565
 30
2177.000
 70
    32
  0
VERTEX
  8
3050LEVEL
 62
13
 10
2546.863
 20
-4166.494
 30
2177.000
 70
    32
  0
VERTEX
  8
3050LEVEL
 62
13
 10
2556.191
 20
-4178.977
 30
2177.000
 70
    32
  0
VERTEX
  8
3050LEVEL
 62
13
 10
2566.268
 20
-4191.433
 30
2177.000
 70
    32
  0
VERTEX
  8
3050LEVEL
 62
13
 10
2571.257
 20
-4197.284
 30
2177.000
 70
    32
  0
VERTEX
  8
3050LEVEL
 62
13
 10
2577.192
 20
-4204.937
 30
2177.000
 70
    32
  0
VERTEX
  8
3050LEVEL
 62
13
 10
2581.699
 20
-4210.985
 30
2177.000
 70
    32
  0
VERTEX
  8
3050LEVEL
 62
13
 10
2585.170
 20
-4215.752
 30
2177.000
 70
    32
  0
VERTEX
  8
3050LEVEL
 62
13
 10
2586.765
 20
-4218.121
 30
2177.000
 70
    32
  0
VERTEX
  8
3050LEVEL
 62
13
 10
2586.675
 20
-4218.644
 30
2177.000
 70
    32
  0
VERTEX
  8
3050LEVEL
 62
13
 10
2583.396
 20
-4216.417
 30
2177.000
 70
    32
  0
VERTEX
  8
3050LEVEL
 62
13
 10
2561.991
 20
-4196.305
 30
2177.000
 70
    32
  0
VERTEX
  8
3050LEVEL
 62
13
 10
2556.114
 20
-4189.119
 30
2177.000
 70
    32
  0
VERTEX
  8
3050LEVEL
 62
13
 10
2543.479
 20
-4170.644
 30
2177.000
 70
    32
  0
VERTEX
  8
3050LEVEL
 62
13
 10
2534.494
 20
-4155.251
 30
2177.000
 70
    32
  0
VERTEX
  8
3050LEVEL
 62
13
 10
2526.943
 20
-4144.090
 30
2177.000
 70
    32
  0
VERTEX
  8
3050LEVEL
 62
13
 10
2519.020
 20
-4130.726
 30
2177.000
 70
    32
  0
VERTEX
  8
3050LEVEL
 62
13
 10
2512.775
 20
-4118.959
 30
2177.000
 70
    32
  0
VERTEX
  8
3050LEVEL
 62
13
 10
2508.392
 20
-4112.747
 30
2177.000
 70
    32
  0
VERTEX
  8
3050LEVEL
 62
13
 10
2500.321
 20
-4103.483
 30
2177.000
 70
    32
  0
VERTEX
  8
3050LEVEL
 62
13
 10
2495.884
 20
-4096.095
 30
2177.000
 70
    32
  0
VERTEX
  8
3050LEVEL
 62
13
 10
2492.451
 20
-4088.279
 30
2177.000
 70
    32
  0
VERTEX
  8
3050LEVEL
 62
13
 10
2490.270
 20
-4080.029
 30
2177.000
 70
    32
  0
VERTEX
  8
3050LEVEL
 62
13
 10
2490.639
 20
-4076.199
 30
2177.000
 70
    32
  0
VERTEX
  8
3050LEVEL
 62
13
 10
2493.110
 20
-4074.650
 30
2177.000
 70
    32
  0
VERTEX
  8
3050LEVEL
 62
13
 10
2495.958
 20
-4075.235
 30
2177.000
 70
    32
  0
VERTEX
  8
3050LEVEL
 62
13
 10
2498.226
 20
-4075.262
 30
2177.000
 70
    32
  0
VERTEX
  8
3050LEVEL
 62
13
 10
2500.128
 20
-4073.723
 30
2177.000
 70
    32
  0
VERTEX
  8
3050LEVEL
 62
13
 10
2501.830
 20
-4071.384
 30
2177.000
 70
    32
  0
VERTEX
  8
3050LEVEL
 62
13
 10
2504.182
 20
-4070.958
 30
2177.000
 70
    32
  0
VERTEX
  8
3050LEVEL
 62
13
 10
2507.642
 20
-4076.504
 30
2177.000
 70
    32
  0
VERTEX
  8
3050LEVEL
 62
13
 10
2510.207
 20
-4082.454
 30
2177.000
 70
    32
  0
VERTEX
  8
3050LEVEL
 62
13
 10
2511.611
 20
-4086.967
 30
2177.000
 70
    32
  0
SEQEND
  8
3050LEVEL
  0
POLYLINE
  8
3050LEVEL
 62
13
 66
     1
 70
     9
  0
VERTEX
  8
3050LEVEL
 62
13
 10
2706.988
 20
-4380.251
 30
2177.000
 70
    32
  0
VERTEX
  8
3050LEVEL
 62
13
 10
2723.738
 20
-4407.408
 30
2177.000
 70
    32
  0
VERTEX
  8
3050LEVEL
 62
13
 10
2725.890
 20
-4410.049
 30
2177.000
 70
    32
  0
VERTEX
  8
3050LEVEL
 62
13
 10
2736.949
 20
-4422.209
 30
2177.000
 70
    32
  0
VERTEX
  8
3050LEVEL
 62
13
 10
2743.234
 20
-4429.257
 30
2177.000
 70
    32
  0
VERTEX
  8
3050LEVEL
 62
13
 10
2747.677
 20
-4434.673
 30
2177.000
 70
    32
  0
VERTEX
  8
3050LEVEL
 62
13
 10
2749.632
 20
-4436.132
 30
2177.000
 70
    32
  0
VERTEX
  8
3050LEVEL
 62
13
 10
2750.718
 20
-4434.657
 30
2177.000
 70
    32
  0
VERTEX
  8
3050LEVEL
 62
13
 10
2749.605
 20
-4430.793
 30
2177.000
 70
    32
  0
VERTEX
  8
3050LEVEL
 62
13
 10
2743.508
 20
-4420.040
 30
2177.000
 70
    32
  0
VERTEX
  8
3050LEVEL
 62
13
 10
2734.968
 20
-4405.970
 30
2177.000
 70
    32
  0
VERTEX
  8
3050LEVEL
 62
13
 10
2727.856
 20
-4394.115
 30
2177.000
 70
    32
  0
VERTEX
  8
3050LEVEL
 62
13
 10
2726.045
 20
-4390.009
 30
2177.000
 70
    32
  0
VERTEX
  8
3050LEVEL
 62
13
 10
2726.443
 20
-4388.081
 30
2177.000
 70
    32
  0
VERTEX
  8
3050LEVEL
 62
13
 10
2729.879
 20
-4388.789
 30
2177.000
 70
    32
  0
VERTEX
  8
3050LEVEL
 62
13
 10
2736.006
 20
-4395.370
 30
2177.000
 70
    32
  0
VERTEX
  8
3050LEVEL
 62
13
 10
2743.008
 20
-4405.630
 30
2177.000
 70
    32
  0
VERTEX
  8
3050LEVEL
 62
13
 10
2750.682
 20
-4416.695
 30
2177.000
 70
    32
  0
VERTEX
  8
3050LEVEL
 62
13
 10
2756.150
 20
-4427.280
 30
2177.000
 70
    32
  0
VERTEX
  8
3050LEVEL
 62
13
 10
2760.165
 20
-4437.911
 30
2177.000
 70
    32
  0
VERTEX
  8
3050LEVEL
 62
13
 10
2761.577
 20
-4444.828
 30
2177.000
 70
    32
  0
VERTEX
  8
3050LEVEL
 62
13
 10
2764.887
 20
-4457.127
 30
2177.000
 70
    32
  0
VERTEX
  8
3050LEVEL
 62
13
 10
2768.995
 20
-4464.686
 30
2177.000
 70
    32
  0
VERTEX
  8
3050LEVEL
 62
13
 10
2772.963
 20
-4470.472
 30
2177.000
 70
    32
  0
VERTEX
  8
3050LEVEL
 62
13
 10
2778.668
 20
-4474.455
 30
2177.000
 70
    32
  0
VERTEX
  8
3050LEVEL
 62
13
 10
2782.851
 20
-4475.900
 30
2177.000
 70
    32
  0
VERTEX
  8
3050LEVEL
 62
13
 10
2783.425
 20
-4474.828
 30
2177.000
 70
    32
  0
VERTEX
  8
3050LEVEL
 62
13
 10
2783.857
 20
-4472.937
 30
2177.000
 70
    32
  0
VERTEX
  8
3050LEVEL
 62
13
 10
2784.395
 20
-4471.898
 30
2177.000
 70
    32
  0
VERTEX
  8
3050LEVEL
 62
13
 10
2785.796
 20
-4471.355
 30
2177.000
 70
    32
  0
VERTEX
  8
3050LEVEL
 62
13
 10
2790.188
 20
-4472.880
 30
2177.000
 70
    32
  0
VERTEX
  8
3050LEVEL
 62
13
 10
2791.817
 20
-4472.806
 30
2177.000
 70
    32
  0
VERTEX
  8
3050LEVEL
 62
13
 10
2793.203
 20
-4470.919
 30
2177.000
 70
    32
  0
VERTEX
  8
3050LEVEL
 62
13
 10
2793.651
 20
-4467.790
 30
2177.000
 70
    32
  0
VERTEX
  8
3050LEVEL
 62
13
 10
2794.507
 20
-4465.033
 30
2177.000
 70
    32
  0
VERTEX
  8
3050LEVEL
 62
13
 10
2797.731
 20
-4465.732
 30
2177.000
 70
    32
  0
VERTEX
  8
3050LEVEL
 62
13
 10
2806.661
 20
-4473.808
 30
2177.000
 70
    32
  0
VERTEX
  8
3050LEVEL
 62
13
 10
2818.665
 20
-4484.486
 30
2177.000
 70
    32
  0
VERTEX
  8
3050LEVEL
 62
13
 10
2823.845
 20
-4490.039
 30
2177.000
 70
    32
  0
VERTEX
  8
3050LEVEL
 62
13
 10
2832.917
 20
-4499.818
 30
2177.000
 70
    32
  0
VERTEX
  8
3050LEVEL
 62
13
 10
2840.607
 20
-4505.368
 30
2177.000
 70
    32
  0
VERTEX
  8
3050LEVEL
 62
13
 10
2847.805
 20
-4510.014
 30
2177.000
 70
    32
  0
VERTEX
  8
3050LEVEL
 62
13
 10
2855.880
 20
-4517.383
 30
2177.000
 70
    32
  0
VERTEX
  8
3050LEVEL
 62
13
 10
2860.938
 20
-4525.017
 30
2177.000
 70
    32
  0
VERTEX
  8
3050LEVEL
 62
13
 10
2865.977
 20
-4534.842
 30
2177.000
 70
    32
  0
VERTEX
  8
3050LEVEL
 62
13
 10
2869.745
 20
-4542.917
 30
2177.000
 70
    32
  0
VERTEX
  8
3050LEVEL
 62
13
 10
2875.972
 20
-4555.655
 30
2177.000
 70
    32
  0
VERTEX
  8
3050LEVEL
 62
13
 10
2881.619
 20
-4567.025
 30
2177.000
 70
    32
  0
VERTEX
  8
3050LEVEL
 62
13
 10
2886.841
 20
-4577.564
 30
2177.000
 70
    32
  0
VERTEX
  8
3050LEVEL
 62
13
 10
2890.239
 20
-4585.165
 30
2177.000
 70
    32
  0
VERTEX
  8
3050LEVEL
 62
13
 10
2895.197
 20
-4596.966
 30
2177.000
 70
    32
  0
VERTEX
  8
3050LEVEL
 62
13
 10
2900.450
 20
-4609.310
 30
2177.000
 70
    32
  0
VERTEX
  8
3050LEVEL
 62
13
 10
2904.132
 20
-4616.038
 30
2177.000
 70
    32
  0
VERTEX
  8
3050LEVEL
 62
13
 10
2908.833
 20
-4622.915
 30
2177.000
 70
    32
  0
VERTEX
  8
3050LEVEL
 62
13
 10
2910.429
 20
-4624.501
 30
2177.000
 70
    32
  0
VERTEX
  8
3050LEVEL
 62
13
 10
2913.286
 20
-4627.235
 30
2177.000
 70
    32
  0
VERTEX
  8
3050LEVEL
 62
13
 10
2915.445
 20
-4628.031
 30
2177.000
 70
    32
  0
VERTEX
  8
3050LEVEL
 62
13
 10
2916.814
 20
-4626.568
 30
2177.000
 70
    32
  0
VERTEX
  8
3050LEVEL
 62
13
 10
2913.360
 20
-4620.308
 30
2177.000
 70
    32
  0
VERTEX
  8
3050LEVEL
 62
13
 10
2910.556
 20
-4613.723
 30
2177.000
 70
    32
  0
VERTEX
  8
3050LEVEL
 62
13
 10
2910.183
 20
-4611.621
 30
2177.000
 70
    32
  0
VERTEX
  8
3050LEVEL
 62
13
 10
2912.051
 20
-4610.920
 30
2177.000
 70
    32
  0
VERTEX
  8
3050LEVEL
 62
13
 10
2915.023
 20
-4611.715
 30
2177.000
 70
    32
  0
VERTEX
  8
3050LEVEL
 62
13
 10
2916.737
 20
-4609.594
 30
2177.000
 70
    32
  0
VERTEX
  8
3050LEVEL
 62
13
 10
2910.179
 20
-4599.742
 30
2177.000
 70
    32
  0
VERTEX
  8
3050LEVEL
 62
13
 10
2903.459
 20
-4590.378
 30
2177.000
 70
    32
  0
VERTEX
  8
3050LEVEL
 62
13
 10
2898.578
 20
-4574.160
 30
2177.000
 70
    32
  0
VERTEX
  8
3050LEVEL
 62
13
 10
2895.598
 20
-4555.581
 30
2177.000
 70
    32
  0
VERTEX
  8
3050LEVEL
 62
13
 10
2895.033
 20
-4544.421
 30
2177.000
 70
    32
  0
VERTEX
  8
3050LEVEL
 62
13
 10
2894.769
 20
-4530.268
 30
2177.000
 70
    32
  0
VERTEX
  8
3050LEVEL
 62
13
 10
2892.879
 20
-4520.396
 30
2177.000
 70
    32
  0
VERTEX
  8
3050LEVEL
 62
13
 10
2888.620
 20
-4513.927
 30
2177.000
 70
    32
  0
VERTEX
  8
3050LEVEL
 62
13
 10
2883.019
 20
-4506.589
 30
2177.000
 70
    32
  0
VERTEX
  8
3050LEVEL
 62
13
 10
2879.924
 20
-4500.203
 30
2177.000
 70
    32
  0
VERTEX
  8
3050LEVEL
 62
13
 10
2880.828
 20
-4497.129
 30
2177.000
 70
    32
  0
VERTEX
  8
3050LEVEL
 62
13
 10
2882.215
 20
-4492.661
 30
2177.000
 70
    32
  0
VERTEX
  8
3050LEVEL
 62
13
 10
2883.124
 20
-4486.052
 30
2177.000
 70
    32
  0
VERTEX
  8
3050LEVEL
 62
13
 10
2885.511
 20
-4485.620
 30
2177.000
 70
    32
  0
VERTEX
  8
3050LEVEL
 62
13
 10
2885.562
 20
-4485.233
 30
2177.000
 70
    32
  0
VERTEX
  8
3050LEVEL
 62
13
 10
2885.203
 20
-4483.663
 30
2177.000
 70
    32
  0
VERTEX
  8
3050LEVEL
 62
13
 10
2885.213
 20
-4482.567
 30
2177.000
 70
    32
  0
VERTEX
  8
3050LEVEL
 62
13
 10
2887.682
 20
-4481.856
 30
2177.000
 70
    32
  0
VERTEX
  8
3050LEVEL
 62
13
 10
2889.925
 20
-4483.186
 30
2177.000
 70
    32
  0
VERTEX
  8
3050LEVEL
 62
13
 10
2890.997
 20
-4483.761
 30
2177.000
 70
    32
  0
VERTEX
  8
3050LEVEL
 62
13
 10
2891.406
 20
-4482.434
 30
2177.000
 70
    32
  0
VERTEX
  8
3050LEVEL
 62
13
 10
2893.186
 20
-4481.270
 30
2177.000
 70
    32
  0
VERTEX
  8
3050LEVEL
 62
13
 10
2894.980
 20
-4483.218
 30
2177.000
 70
    32
  0
VERTEX
  8
3050LEVEL
 62
13
 10
2897.066
 20
-4485.779
 30
2177.000
 70
    32
  0
VERTEX
  8
3050LEVEL
 62
13
 10
2898.121
 20
-4486.777
 30
2177.000
 70
    32
  0
VERTEX
  8
3050LEVEL
 62
13
 10
2899.451
 20
-4486.231
 30
2177.000
 70
    32
  0
VERTEX
  8
3050LEVEL
 62
13
 10
2900.874
 20
-4486.891
 30
2177.000
 70
    32
  0
VERTEX
  8
3050LEVEL
 62
13
 10
2901.020
 20
-4487.639
 30
2177.000
 70
    32
  0
VERTEX
  8
3050LEVEL
 62
13
 10
2901.903
 20
-4490.221
 30
2177.000
 70
    32
  0
VERTEX
  8
3050LEVEL
 62
13
 10
2904.738
 20
-4494.334
 30
2177.000
 70
    32
  0
VERTEX
  8
3050LEVEL
 62
13
 10
2907.355
 20
-4496.881
 30
2177.000
 70
    32
  0
VERTEX
  8
3050LEVEL
 62
13
 10
2910.665
 20
-4497.230
 30
2177.000
 70
    32
  0
VERTEX
  8
3050LEVEL
 62
13
 10
2909.227
 20
-4490.948
 30
2177.000
 70
    32
  0
VERTEX
  8
3050LEVEL
 62
13
 10
2906.210
 20
-4485.237
 30
2177.000
 70
    32
  0
VERTEX
  8
3050LEVEL
 62
13
 10
2902.522
 20
-4478.650
 30
2177.000
 70
    32
  0
VERTEX
  8
3050LEVEL
 62
13
 10
2901.114
 20
-4475.940
 30
2177.000
 70
    32
  0
VERTEX
  8
3050LEVEL
 62
13
 10
2901.125
 20
-4473.961
 30
2177.000
 70
    32
  0
VERTEX
  8
3050LEVEL
 62
13
 10
2906.271
 20
-4475.199
 30
2177.000
 70
    32
  0
VERTEX
  8
3050LEVEL
 62
13
 10
2913.099
 20
-4477.673
 30
2177.000
 70
    32
  0
VERTEX
  8
3050LEVEL
 62
13
 10
2918.860
 20
-4481.128
 30
2177.000
 70
    32
  0
VERTEX
  8
3050LEVEL
 62
13
 10
2922.417
 20
-4484.033
 30
2177.000
 70
    32
  0
VERTEX
  8
3050LEVEL
 62
13
 10
2925.292
 20
-4486.344
 30
2177.000
 70
    32
  0
VERTEX
  8
3050LEVEL
 62
13
 10
2926.992
 20
-4486.272
 30
2177.000
 70
    32
  0
VERTEX
  8
3050LEVEL
 62
13
 10
2927.439
 20
-4485.725
 30
2177.000
 70
    32
  0
VERTEX
  8
3050LEVEL
 62
13
 10
2928.813
 20
-4486.701
 30
2177.000
 70
    32
  0
VERTEX
  8
3050LEVEL
 62
13
 10
2929.910
 20
-4487.524
 30
2177.000
 70
    32
  0
VERTEX
  8
3050LEVEL
 62
13
 10
2930.665
 20
-4486.353
 30
2177.000
 70
    32
  0
VERTEX
  8
3050LEVEL
 62
13
 10
2933.204
 20
-4486.529
 30
2177.000
 70
    32
  0
VERTEX
  8
3050LEVEL
 62
13
 10
2939.851
 20
-4490.799
 30
2177.000
 70
    32
  0
VERTEX
  8
3050LEVEL
 62
13
 10
2944.665
 20
-4493.225
 30
2177.000
 70
    32
  0
VERTEX
  8
3050LEVEL
 62
13
 10
2949.659
 20
-4496.436
 30
2177.000
 70
    32
  0
VERTEX
  8
3050LEVEL
 62
13
 10
2952.386
 20
-4497.185
 30
2177.000
 70
    32
  0
VERTEX
  8
3050LEVEL
 62
13
 10
2952.812
 20
-4495.435
 30
2177.000
 70
    32
  0
VERTEX
  8
3050LEVEL
 62
13
 10
2953.357
 20
-4490.791
 30
2177.000
 70
    32
  0
VERTEX
  8
3050LEVEL
 62
13
 10
2954.010
 20
-4486.115
 30
2177.000
 70
    32
  0
VERTEX
  8
3050LEVEL
 62
13
 10
2955.370
 20
-4482.282
 30
2177.000
 70
    32
  0
VERTEX
  8
3050LEVEL
 62
13
 10
2957.463
 20
-4479.540
 30
2177.000
 70
    32
  0
VERTEX
  8
3050LEVEL
 62
13
 10
2957.663
 20
-4475.553
 30
2177.000
 70
    32
  0
VERTEX
  8
3050LEVEL
 62
13
 10
2959.052
 20
-4471.898
 30
2177.000
 70
    32
  0
VERTEX
  8
3050LEVEL
 62
13
 10
2961.454
 20
-4470.230
 30
2177.000
 70
    32
  0
VERTEX
  8
3050LEVEL
 62
13
 10
2964.767
 20
-4473.902
 30
2177.000
 70
    32
  0
VERTEX
  8
3050LEVEL
 62
13
 10
2970.684
 20
-4479.591
 30
2177.000
 70
    32
  0
VERTEX
  8
3050LEVEL
 62
13
 10
2975.673
 20
-4484.641
 30
2177.000
 70
    32
  0
VERTEX
  8
3050LEVEL
 62
13
 10
2978.202
 20
-4490.190
 30
2177.000
 70
    32
  0
VERTEX
  8
3050LEVEL
 62
13
 10
2979.844
 20
-4495.809
 30
2177.000
 70
    32
  0
VERTEX
  8
3050LEVEL
 62
13
 10
2980.194
 20
-4500.172
 30
2177.000
 70
    32
  0
VERTEX
  8
3050LEVEL
 62
13
 10
2980.092
 20
-4502.643
 30
2177.000
 70
    32
  0
VERTEX
  8
3050LEVEL
 62
13
 10
2981.047
 20
-4506.041
 30
2177.000
 70
    32
  0
VERTEX
  8
3050LEVEL
 62
13
 10
2980.548
 20
-4510.440
 30
2177.000
 70
    32
  0
VERTEX
  8
3050LEVEL
 62
13
 10
2979.212
 20
-4505.965
 30
2177.000
 70
    32
  0
VERTEX
  8
3050LEVEL
 62
13
 10
2976.095
 20
-4500.957
 30
2177.000
 70
    32
  0
VERTEX
  8
3050LEVEL
 62
13
 10
2972.132
 20
-4495.915
 30
2177.000
 70
    32
  0
VERTEX
  8
3050LEVEL
 62
13
 10
2965.611
 20
-4489.423
 30
2177.000
 70
    32
  0
VERTEX
  8
3050LEVEL
 62
13
 10
2961.396
 20
-4487.057
 30
2177.000
 70
    32
  0
VERTEX
  8
3050LEVEL
 62
13
 10
2959.708
 20
-4488.543
 30
2177.000
 70
    32
  0
VERTEX
  8
3050LEVEL
 62
13
 10
2960.245
 20
-4496.944
 30
2177.000
 70
    32
  0
VERTEX
  8
3050LEVEL
 62
13
 10
2960.921
 20
-4504.538
 30
2177.000
 70
    32
  0
VERTEX
  8
3050LEVEL
 62
13
 10
2960.319
 20
-4513.989
 30
2177.000
 70
    32
  0
VERTEX
  8
3050LEVEL
 62
13
 10
2956.327
 20
-4528.461
 30
2177.000
 70
    32
  0
VERTEX
  8
3050LEVEL
 62
13
 10
2954.815
 20
-4535.965
 30
2177.000
 70
    32
  0
VERTEX
  8
3050LEVEL
 62
13
 10
2953.517
 20
-4545.987
 30
2177.000
 70
    32
  0
VERTEX
  8
3050LEVEL
 62
13
 10
2953.018
 20
-4556.361
 30
2177.000
 70
    32
  0
VERTEX
  8
3050LEVEL
 62
13
 10
2953.006
 20
-4563.503
 30
2177.000
 70
    32
  0
VERTEX
  8
3050LEVEL
 62
13
 10
2952.484
 20
-4567.582
 30
2177.000
 70
    32
  0
VERTEX
  8
3050LEVEL
 62
13
 10
2950.022
 20
-4567.269
 30
2177.000
 70
    32
  0
VERTEX
  8
3050LEVEL
 62
13
 10
2947.316
 20
-4561.747
 30
2177.000
 70
    32
  0
VERTEX
  8
3050LEVEL
 62
13
 10
2939.002
 20
-4549.030
 30
2177.000
 70
    32
  0
VERTEX
  8
3050LEVEL
 62
13
 10
2935.709
 20
-4543.166
 30
2177.000
 70
    32
  0
VERTEX
  8
3050LEVEL
 62
13
 10
2927.788
 20
-4534.636
 30
2177.000
 70
    32
  0
VERTEX
  8
3050LEVEL
 62
13
 10
2925.399
 20
-4534.255
 30
2177.000
 70
    32
  0
VERTEX
  8
3050LEVEL
 62
13
 10
2924.605
 20
-4538.924
 30
2177.000
 70
    32
  0
VERTEX
  8
3050LEVEL
 62
13
 10
2926.775
 20
-4544.600
 30
2177.000
 70
    32
  0
VERTEX
  8
3050LEVEL
 62
13
 10
2925.904
 20
-4547.711
 30
2177.000
 70
    32
  0
VERTEX
  8
3050LEVEL
 62
13
 10
2924.591
 20
-4547.833
 30
2177.000
 70
    32
  0
VERTEX
  8
3050LEVEL
 62
13
 10
2921.655
 20
-4549.586
 30
2177.000
 70
    32
  0
VERTEX
  8
3050LEVEL
 62
13
 10
2921.372
 20
-4552.155
 30
2177.000
 70
    32
  0
VERTEX
  8
3050LEVEL
 62
13
 10
2920.639
 20
-4555.342
 30
2177.000
 70
    32
  0
VERTEX
  8
3050LEVEL
 62
13
 10
2918.688
 20
-4557.206
 30
2177.000
 70
    32
  0
VERTEX
  8
3050LEVEL
 62
13
 10
2917.093
 20
-4554.736
 30
2177.000
 70
    32
  0
VERTEX
  8
3050LEVEL
 62
13
 10
2915.190
 20
-4550.309
 30
2177.000
 70
    32
  0
VERTEX
  8
3050LEVEL
 62
13
 10
2913.204
 20
-4547.045
 30
2177.000
 70
    32
  0
VERTEX
  8
3050LEVEL
 62
13
 10
2911.349
 20
-4546.580
 30
2177.000
 70
    32
  0
VERTEX
  8
3050LEVEL
 62
13
 10
2911.655
 20
-4550.305
 30
2177.000
 70
    32
  0
VERTEX
  8
3050LEVEL
 62
13
 10
2914.169
 20
-4556.207
 30
2177.000
 70
    32
  0
VERTEX
  8
3050LEVEL
 62
13
 10
2917.099
 20
-4561.454
 30
2177.000
 70
    32
  0
VERTEX
  8
3050LEVEL
 62
13
 10
2917.540
 20
-4562.745
 30
2177.000
 70
    32
  0
VERTEX
  8
3050LEVEL
 62
13
 10
2918.792
 20
-4562.408
 30
2177.000
 70
    32
  0
VERTEX
  8
3050LEVEL
 62
13
 10
2919.200
 20
-4561.081
 30
2177.000
 70
    32
  0
VERTEX
  8
3050LEVEL
 62
13
 10
2922.408
 20
-4561.320
 30
2177.000
 70
    32
  0
VERTEX
  8
3050LEVEL
 62
13
 10
2927.077
 20
-4570.670
 30
2177.000
 70
    32
  0
VERTEX
  8
3050LEVEL
 62
13
 10
2931.877
 20
-4580.308
 30
2177.000
 70
    32
  0
VERTEX
  8
3050LEVEL
 62
13
 10
2935.275
 20
-4586.211
 30
2177.000
 70
    32
  0
VERTEX
  8
3050LEVEL
 62
13
 10
2939.797
 20
-4595.697
 30
2177.000
 70
    32
  0
VERTEX
  8
3050LEVEL
 62
13
 10
2945.463
 20
-4605.759
 30
2177.000
 70
    32
  0
VERTEX
  8
3050LEVEL
 62
13
 10
2948.737
 20
-4611.233
 30
2177.000
 70
    32
  0
VERTEX
  8
3050LEVEL
 62
13
 10
2953.154
 20
-4617.285
 30
2177.000
 70
    32
  0
VERTEX
  8
3050LEVEL
 62
13
 10
2958.575
 20
-4624.721
 30
2177.000
 70
    32
  0
VERTEX
  8
3050LEVEL
 62
13
 10
2961.282
 20
-4631.940
 30
2177.000
 70
    32
  0
VERTEX
  8
3050LEVEL
 62
13
 10
2964.543
 20
-4642.858
 30
2177.000
 70
    32
  0
VERTEX
  8
3050LEVEL
 62
13
 10
2966.212
 20
-4649.538
 30
2177.000
 70
    32
  0
VERTEX
  8
3050LEVEL
 62
13
 10
2966.205
 20
-4654.841
 30
2177.000
 70
    32
  0
VERTEX
  8
3050LEVEL
 62
13
 10
2958.907
 20
-4651.782
 30
2177.000
 70
    32
  0
VERTEX
  8
3050LEVEL
 62
13
 10
2954.188
 20
-4649.607
 30
2177.000
 70
    32
  0
VERTEX
  8
3050LEVEL
 62
13
 10
2953.233
 20
-4650.487
 30
2177.000
 70
    32
  0
VERTEX
  8
3050LEVEL
 62
13
 10
2956.456
 20
-4658.045
 30
2177.000
 70
    32
  0
VERTEX
  8
3050LEVEL
 62
13
 10
2958.388
 20
-4668.625
 30
2177.000
 70
    32
  0
VERTEX
  8
3050LEVEL
 62
13
 10
2962.639
 20
-4674.422
 30
2177.000
 70
    32
  0
VERTEX
  8
3050LEVEL
 62
13
 10
2963.919
 20
-4677.657
 30
2177.000
 70
    32
  0
VERTEX
  8
3050LEVEL
 62
13
 10
2963.997
 20
-4680.913
 30
2177.000
 70
    32
  0
VERTEX
  8
3050LEVEL
 62
13
 10
2956.874
 20
-4679.594
 30
2177.000
 70
    32
  0
VERTEX
  8
3050LEVEL
 62
13
 10
2945.040
 20
-4670.796
 30
2177.000
 70
    32
  0
VERTEX
  8
3050LEVEL
 62
13
 10
2932.214
 20
-4660.332
 30
2177.000
 70
    32
  0
VERTEX
  8
3050LEVEL
 62
13
 10
2921.440
 20
-4649.811
 30
2177.000
 70
    32
  0
VERTEX
  8
3050LEVEL
 62
13
 10
2912.412
 20
-4639.856
 30
2177.000
 70
    32
  0
VERTEX
  8
3050LEVEL
 62
13
 10
2905.346
 20
-4631.150
 30
2177.000
 70
    32
  0
VERTEX
  8
3050LEVEL
 62
13
 10
2897.702
 20
-4618.495
 30
2177.000
 70
    32
  0
VERTEX
  8
3050LEVEL
 62
13
 10
2893.921
 20
-4607.308
 30
2177.000
 70
    32
  0
VERTEX
  8
3050LEVEL
 62
13
 10
2889.967
 20
-4596.892
 30
2177.000
 70
    32
  0
VERTEX
  8
3050LEVEL
 62
13
 10
2888.222
 20
-4590.349
 30
2177.000
 70
    32
  0
VERTEX
  8
3050LEVEL
 62
13
 10
2883.138
 20
-4578.189
 30
2177.000
 70
    32
  0
VERTEX
  8
3050LEVEL
 62
13
 10
2876.927
 20
-4564.215
 30
2177.000
 70
    32
  0
VERTEX
  8
3050LEVEL
 62
13
 10
2869.073
 20
-4549.784
 30
2177.000
 70
    32
  0
VERTEX
  8
3050LEVEL
 62
13
 10
2863.261
 20
-4538.972
 30
2177.000
 70
    32
  0
VERTEX
  8
3050LEVEL
 62
13
 10
2855.663
 20
-4527.769
 30
2177.000
 70
    32
  0
VERTEX
  8
3050LEVEL
 62
13
 10
2848.771
 20
-4518.292
 30
2177.000
 70
    32
  0
VERTEX
  8
3050LEVEL
 62
13
 10
2840.972
 20
-4513.656
 30
2177.000
 70
    32
  0
VERTEX
  8
3050LEVEL
 62
13
 10
2827.558
 20
-4505.430
 30
2177.000
 70
    32
  0
VERTEX
  8
3050LEVEL
 62
13
 10
2818.569
 20
-4497.952
 30
2177.000
 70
    32
  0
VERTEX
  8
3050LEVEL
 62
13
 10
2810.393
 20
-4489.589
 30
2177.000
 70
    32
  0
VERTEX
  8
3050LEVEL
 62
13
 10
2803.777
 20
-4482.846
 30
2177.000
 70
    32
  0
VERTEX
  8
3050LEVEL
 62
13
 10
2800.158
 20
-4479.727
 30
2177.000
 70
    32
  0
VERTEX
  8
3050LEVEL
 62
13
 10
2798.586
 20
-4481.854
 30
2177.000
 70
    32
  0
VERTEX
  8
3050LEVEL
 62
13
 10
2798.526
 20
-4484.149
 30
2177.000
 70
    32
  0
VERTEX
  8
3050LEVEL
 62
13
 10
2796.711
 20
-4487.857
 30
2177.000
 70
    32
  0
VERTEX
  8
3050LEVEL
 62
13
 10
2790.378
 20
-4489.682
 30
2177.000
 70
    32
  0
VERTEX
  8
3050LEVEL
 62
13
 10
2782.814
 20
-4487.071
 30
2177.000
 70
    32
  0
VERTEX
  8
3050LEVEL
 62
13
 10
2769.787
 20
-4478.897
 30
2177.000
 70
    32
  0
VERTEX
  8
3050LEVEL
 62
13
 10
2762.866
 20
-4471.823
 30
2177.000
 70
    32
  0
VERTEX
  8
3050LEVEL
 62
13
 10
2749.798
 20
-4454.383
 30
2177.000
 70
    32
  0
VERTEX
  8
3050LEVEL
 62
13
 10
2740.683
 20
-4443.082
 30
2177.000
 70
    32
  0
VERTEX
  8
3050LEVEL
 62
13
 10
2726.496
 20
-4426.197
 30
2177.000
 70
    32
  0
VERTEX
  8
3050LEVEL
 62
13
 10
2714.586
 20
-4413.126
 30
2177.000
 70
    32
  0
VERTEX
  8
3050LEVEL
 62
13
 10
2711.716
 20
-4408.690
 30
2177.000
 70
    32
  0
VERTEX
  8
3050LEVEL
 62
13
 10
2707.843
 20
-4401.680
 30
2177.000
 70
    32
  0
VERTEX
  8
3050LEVEL
 62
13
 10
2701.936
 20
-4390.410
 30
2177.000
 70
    32
  0
VERTEX
  8
3050LEVEL
 62
13
 10
2696.955
 20
-4381.792
 30
2177.000
 70
    32
  0
VERTEX
  8
3050LEVEL
 62
13
 10
2688.430
 20
-4368.080
 30
2177.000
 70
    32
  0
VERTEX
  8
3050LEVEL
 62
13
 10
2679.849
 20
-4355.250
 30
2177.000
 70
    32
  0
VERTEX
  8
3050LEVEL
 62
13
 10
2668.489
 20
-4337.477
 30
2177.000
 70
    32
  0
VERTEX
  8
3050LEVEL
 62
13
 10
2659.824
 20
-4323.750
 30
2177.000
 70
    32
  0
VERTEX
  8
3050LEVEL
 62
13
 10
2650.049
 20
-4310.794
 30
2177.000
 70
    32
  0
VERTEX
  8
3050LEVEL
 62
13
 10
2641.404
 20
-4297.886
 30
2177.000
 70
    32
  0
VERTEX
  8
3050LEVEL
 62
13
 10
2640.049
 20
-4292.242
 30
2177.000
 70
    32
  0
VERTEX
  8
3050LEVEL
 62
13
 10
2642.503
 20
-4293.530
 30
2177.000
 70
    32
  0
VERTEX
  8
3050LEVEL
 62
13
 10
2645.818
 20
-4296.755
 30
2177.000
 70
    32
  0
VERTEX
  8
3050LEVEL
 62
13
 10
2652.190
 20
-4304.632
 30
2177.000
 70
    32
  0
VERTEX
  8
3050LEVEL
 62
13
 10
2660.203
 20
-4316.125
 30
2177.000
 70
    32
  0
VERTEX
  8
3050LEVEL
 62
13
 10
2668.802
 20
-4329.135
 30
2177.000
 70
    32
  0
VERTEX
  8
3050LEVEL
 62
13
 10
2675.777
 20
-4339.027
 30
2177.000
 70
    32
  0
VERTEX
  8
3050LEVEL
 62
13
 10
2683.737
 20
-4352.041
 30
2177.000
 70
    32
  0
VERTEX
  8
3050LEVEL
 62
13
 10
2694.446
 20
-4366.231
 30
2177.000
 70
    32
  0
VERTEX
  8
3050LEVEL
 62
13
 10
2701.856
 20
-4374.360
 30
2177.000
 70
    32
  0
SEQEND
  8
3050LEVEL
  0
ENDSEC
  0
EOF
