999
********************************
999
*   DXF File - Entities Only   *
999
*        3D Data Format        *
999
*     Output from ENVISAGE     *
999
*     28-Dec-2007 13:59:08     *
999
********************************
  0
SECTION 
  2
HEADER
  9
$ACADVER
  1
AC1009
  9
$EXTMIN
 10
-290000.000
 20
-250000.000
 30
-4000.000
  9
$EXTMAX
 10
5000000.000
 20
600000.000
 30
6000.000
  0
ENDSEC
  0
SECTION
  2
ENTITIES
  0
POLYLINE
  8
3200LEVEL
 62
7
 66
     1
 70
     8
  0
VERTEX
  8
3200LEVEL
 62
7
 10
4419.580
 20
-6276.599
 30
2027.000
 70
    32
  0
VERTEX
  8
3200LEVEL
 62
7
 10
4458.843
 20
-6320.749
 30
2027.000
 70
    32
  0
VERTEX
  8
3200LEVEL
 62
7
 10
4524.609
 20
-6399.666
 30
2027.000
 70
    32
  0
VERTEX
  8
3200LEVEL
 62
7
 10
4582.481
 20
-6466.878
 30
2027.000
 70
    32
  0
VERTEX
  8
3200LEVEL
 62
7
 10
4631.189
 20
-6524.215
 30
2027.000
 70
    32
  0
VERTEX
  8
3200LEVEL
 62
7
 10
4676.369
 20
-6590.365
 30
2027.000
 70
    32
  0
VERTEX
  8
3200LEVEL
 62
7
 10
4720.495
 20
-6646.291
 30
2027.000
 70
    32
  0
VERTEX
  8
3200LEVEL
 62
7
 10
4752.141
 20
-6697.913
 30
2027.000
 70
    32
  0
VERTEX
  8
3200LEVEL
 62
7
 10
4794.362
 20
-6756.588
 30
2027.000
 70
    32
  0
VERTEX
  8
3200LEVEL
 62
7
 10
4792.382
 20
-6779.221
 30
2027.000
 70
    32
  0
VERTEX
  8
3200LEVEL
 62
7
 10
4749.945
 20
-6736.129
 30
2027.000
 70
    32
  0
VERTEX
  8
3200LEVEL
 62
7
 10
4706.097
 20
-6701.145
 30
2027.000
 70
    32
  0
VERTEX
  8
3200LEVEL
 62
7
 10
4696.999
 20
-6710.168
 30
2027.000
 70
    32
  0
VERTEX
  8
3200LEVEL
 62
7
 10
4746.412
 20
-6766.095
 30
2027.000
 70
    32
  0
VERTEX
  8
3200LEVEL
 62
7
 10
4802.804
 20
-6833.094
 30
2027.000
 70
    32
  0
VERTEX
  8
3200LEVEL
 62
7
 10
4840.231
 20
-6884.788
 30
2027.000
 70
    32
  0
VERTEX
  8
3200LEVEL
 62
7
 10
4860.319
 20
-6916.875
 30
2027.000
 70
    32
  0
SEQEND
  8
3200LEVEL
  0
POLYLINE
  8
3200LEVEL
 62
7
 66
     1
 70
     9
  0
VERTEX
  8
3200LEVEL
 62
7
 10
2648.409
 20
-6206.008
 30
2027.000
 70
    32
  0
VERTEX
  8
3200LEVEL
 62
7
 10
2658.040
 20
-6190.200
 30
2027.000
 70
    32
  0
VERTEX
  8
3200LEVEL
 62
7
 10
2708.421
 20
-6238.154
 30
2027.001
 70
    32
  0
VERTEX
  8
3200LEVEL
 62
7
 10
2751.472
 20
-6265.356
 30
2027.001
 70
    32
  0
VERTEX
  8
3200LEVEL
 62
7
 10
2794.221
 20
-6296.054
 30
2027.001
 70
    32
  0
VERTEX
  8
3200LEVEL
 62
7
 10
2805.590
 20
-6298.333
 30
2027.001
 70
    32
  0
VERTEX
  8
3200LEVEL
 62
7
 10
2800.739
 20
-6290.735
 30
2027.001
 70
    32
  0
VERTEX
  8
3200LEVEL
 62
7
 10
2755.717
 20
-6261.861
 30
2027.001
 70
    32
  0
VERTEX
  8
3200LEVEL
 62
7
 10
2746.621
 20
-6212.320
 30
2027.001
 70
    32
  0
VERTEX
  8
3200LEVEL
 62
7
 10
2723.692
 20
-6160.813
 30
2027.000
 70
    32
  0
VERTEX
  8
3200LEVEL
 62
7
 10
2700.154
 20
-6112.367
 30
2027.000
 70
    32
  0
VERTEX
  8
3200LEVEL
 62
7
 10
2645.715
 20
-6053.009
 30
2027.001
 70
    32
  0
VERTEX
  8
3200LEVEL
 62
7
 10
2628.485
 20
-6033.155
 30
2027.001
 70
    32
  0
VERTEX
  8
3200LEVEL
 62
7
 10
2618.146
 20
-6040.061
 30
2027.001
 70
    32
  0
VERTEX
  8
3200LEVEL
 62
7
 10
2636.238
 20
-6058.188
 30
2027.001
 70
    32
  0
VERTEX
  8
3200LEVEL
 62
7
 10
2673.850
 20
-6127.238
 30
2027.000
 70
    32
  0
VERTEX
  8
3200LEVEL
 62
7
 10
2699.998
 20
-6171.525
 30
2027.000
 70
    32
  0
VERTEX
  8
3200LEVEL
 62
7
 10
2678.564
 20
-6168.206
 30
2027.000
 70
    32
  0
VERTEX
  8
3200LEVEL
 62
7
 10
2640.987
 20
-6145.703
 30
2027.000
 70
    32
  0
VERTEX
  8
3200LEVEL
 62
7
 10
2628.125
 20
-6158.031
 30
2027.000
 70
    32
  0
SEQEND
  8
3200LEVEL
  0
POLYLINE
  8
3200LEVEL
 62
5
 66
     1
 70
     8
  0
VERTEX
  8
3200LEVEL
 62
5
 10
3542.410
 20
-5242.200
 30
2027.000
 70
    32
  0
VERTEX
  8
3200LEVEL
 62
5
 10
3563.545
 20
-5314.479
 30
2027.000
 70
    32
  0
VERTEX
  8
3200LEVEL
 62
5
 10
3581.363
 20
-5397.615
 30
2027.000
 70
    32
  0
VERTEX
  8
3200LEVEL
 62
5
 10
3595.656
 20
-5480.750
 30
2027.000
 70
    32
  0
VERTEX
  8
3200LEVEL
 62
5
 10
3619.257
 20
-5558.670
 30
2027.000
 70
    32
  0
VERTEX
  8
3200LEVEL
 62
5
 10
3644.623
 20
-5627.777
 30
2027.000
 70
    32
  0
VERTEX
  8
3200LEVEL
 62
5
 10
3668.574
 20
-5717.331
 30
2027.000
 70
    32
  0
VERTEX
  8
3200LEVEL
 62
5
 10
3700.212
 20
-5802.445
 30
2027.000
 70
    32
  0
VERTEX
  8
3200LEVEL
 62
5
 10
3738.261
 20
-5906.105
 30
2027.000
 70
    32
  0
VERTEX
  8
3200LEVEL
 62
5
 10
3772.716
 20
-6001.444
 30
2027.000
 70
    32
  0
VERTEX
  8
3200LEVEL
 62
5
 10
3809.145
 20
-6102.354
 30
2027.000
 70
    32
  0
VERTEX
  8
3200LEVEL
 62
5
 10
3848.181
 20
-6207.918
 30
2027.000
 70
    32
  0
VERTEX
  8
3200LEVEL
 62
5
 10
3886.163
 20
-6297.969
 30
2027.000
 70
    32
  0
VERTEX
  8
3200LEVEL
 62
5
 10
3912.723
 20
-6385.127
 30
2027.000
 70
    32
  0
VERTEX
  8
3200LEVEL
 62
5
 10
3940.558
 20
-6451.061
 30
2027.000
 70
    32
  0
VERTEX
  8
3200LEVEL
 62
5
 10
3965.575
 20
-6508.534
 30
2027.000
 70
    32
  0
SEQEND
  8
3200LEVEL
  0
POLYLINE
  8
3200LEVEL
 62
5
 66
     1
 70
     8
  0
VERTEX
  8
3200LEVEL
 62
5
 10
3201.121
 20
-5318.265
 30
2027.000
 70
    32
  0
VERTEX
  8
3200LEVEL
 62
5
 10
3220.284
 20
-5377.921
 30
2027.000
 70
    32
  0
VERTEX
  8
3200LEVEL
 62
5
 10
3253.968
 20
-5459.299
 30
2027.000
 70
    32
  0
VERTEX
  8
3200LEVEL
 62
5
 10
3308.941
 20
-5555.560
 30
2027.000
 70
    32
  0
VERTEX
  8
3200LEVEL
 62
5
 10
3346.783
 20
-5644.835
 30
2027.000
 70
    32
  0
VERTEX
  8
3200LEVEL
 62
5
 10
3391.460
 20
-5747.933
 30
2027.000
 70
    32
  0
VERTEX
  8
3200LEVEL
 62
5
 10
3424.368
 20
-5829.451
 30
2027.000
 70
    32
  0
VERTEX
  8
3200LEVEL
 62
5
 10
3480.322
 20
-5954.057
 30
2027.000
 70
    32
  0
VERTEX
  8
3200LEVEL
 62
5
 10
3524.786
 20
-6062.161
 30
2027.000
 70
    32
  0
VERTEX
  8
3200LEVEL
 62
5
 10
3569.108
 20
-6176.540
 30
2027.000
 70
    32
  0
VERTEX
  8
3200LEVEL
 62
5
 10
3608.429
 20
-6271.316
 30
2027.000
 70
    32
  0
VERTEX
  8
3200LEVEL
 62
5
 10
3654.585
 20
-6383.440
 30
2027.000
 70
    32
  0
SEQEND
  8
3200LEVEL
  0
LINE
  8
3200LEVEL
 62
5
 10
2727.661
 20
-3583.376
 30
2027.000
 11
2722.644
 21
-3623.707
 31
2027.000
  0
POLYLINE
  8
3200LEVEL
 62
5
 66
     1
 70
     9
  0
VERTEX
  8
3200LEVEL
 62
5
 10
2801.814
 20
-3674.072
 30
2027.000
 70
    32
  0
VERTEX
  8
3200LEVEL
 62
5
 10
2805.190
 20
-3708.552
 30
2027.000
 70
    32
  0
VERTEX
  8
3200LEVEL
 62
5
 10
2817.038
 20
-3701.434
 30
2027.000
 70
    32
  0
VERTEX
  8
3200LEVEL
 62
5
 10
2815.846
 20
-3672.806
 30
2027.000
 70
    32
  0
SEQEND
  8
3200LEVEL
  0
LINE
  8
3200LEVEL
 62
5
 10
2310.009
 20
-3098.511
 30
2027.000
 11
2354.972
 21
-3189.058
 31
2027.000
  0
POLYLINE
  8
3200LEVEL
 62
5
 66
     1
 70
     9
  0
VERTEX
  8
3200LEVEL
 62
5
 10
2145.487
 20
-2907.245
 30
2027.000
 70
    32
  0
VERTEX
  8
3200LEVEL
 62
5
 10
2172.126
 20
-2960.417
 30
2027.000
 70
    32
  0
VERTEX
  8
3200LEVEL
 62
5
 10
2202.787
 20
-3003.083
 30
2027.000
 70
    32
  0
VERTEX
  8
3200LEVEL
 62
5
 10
2241.269
 20
-3068.527
 30
2027.000
 70
    32
  0
VERTEX
  8
3200LEVEL
 62
5
 10
2263.118
 20
-3107.666
 30
2027.000
 70
    32
  0
VERTEX
  8
3200LEVEL
 62
5
 10
2277.843
 20
-3150.822
 30
2027.000
 70
    32
  0
VERTEX
  8
3200LEVEL
 62
5
 10
2255.494
 20
-3139.817
 30
2027.000
 70
    32
  0
VERTEX
  8
3200LEVEL
 62
5
 10
2235.762
 20
-3098.210
 30
2027.000
 70
    32
  0
VERTEX
  8
3200LEVEL
 62
5
 10
2210.813
 20
-3052.584
 30
2027.000
 70
    32
  0
VERTEX
  8
3200LEVEL
 62
5
 10
2184.736
 20
-3006.040
 30
2027.000
 70
    32
  0
VERTEX
  8
3200LEVEL
 62
5
 10
2158.658
 20
-2961.260
 30
2027.000
 70
    32
  0
VERTEX
  8
3200LEVEL
 62
5
 10
2135.259
 20
-2920.640
 30
2027.000
 70
    32
  0
SEQEND
  8
3200LEVEL
  0
POLYLINE
  8
3200LEVEL
 62
5
 66
     1
 70
     9
  0
VERTEX
  8
3200LEVEL
 62
5
 10
3200.354
 20
-5559.410
 30
2027.000
 70
    32
  0
VERTEX
  8
3200LEVEL
 62
5
 10
3179.565
 20
-5516.393
 30
2027.000
 70
    32
  0
VERTEX
  8
3200LEVEL
 62
5
 10
3148.979
 20
-5455.606
 30
2027.000
 70
    32
  0
VERTEX
  8
3200LEVEL
 62
5
 10
3114.586
 20
-5389.740
 30
2027.000
 70
    32
  0
VERTEX
  8
3200LEVEL
 62
5
 10
3080.617
 20
-5324.439
 30
2027.000
 70
    32
  0
VERTEX
  8
3200LEVEL
 62
5
 10
3044.180
 20
-5255.259
 30
2027.000
 70
    32
  0
VERTEX
  8
3200LEVEL
 62
5
 10
3006.472
 20
-5196.726
 30
2027.000
 70
    32
  0
VERTEX
  8
3200LEVEL
 62
5
 10
3021.407
 20
-5248.978
 30
2027.000
 70
    32
  0
VERTEX
  8
3200LEVEL
 62
5
 10
3053.402
 20
-5315.759
 30
2027.000
 70
    32
  0
VERTEX
  8
3200LEVEL
 62
5
 10
3088.075
 20
-5388.464
 30
2027.000
 70
    32
  0
VERTEX
  8
3200LEVEL
 62
5
 10
3124.092
 20
-5441.215
 30
2027.000
 70
    32
  0
VERTEX
  8
3200LEVEL
 62
5
 10
3148.265
 20
-5488.745
 30
2027.000
 70
    32
  0
VERTEX
  8
3200LEVEL
 62
5
 10
3183.080
 20
-5558.701
 30
2027.000
 70
    32
  0
SEQEND
  8
3200LEVEL
  0
POLYLINE
  8
3200LEVEL
 62
5
 66
     1
 70
     8
  0
VERTEX
  8
3200LEVEL
 62
5
 10
3176.234
 20
-5581.897
 30
2027.000
 70
    32
  0
VERTEX
  8
3200LEVEL
 62
5
 10
3154.108
 20
-5525.342
 30
2027.000
 70
    32
  0
VERTEX
  8
3200LEVEL
 62
5
 10
3129.163
 20
-5463.850
 30
2027.000
 70
    32
  0
VERTEX
  8
3200LEVEL
 62
5
 10
3097.940
 20
-5411.030
 30
2027.000
 70
    32
  0
VERTEX
  8
3200LEVEL
 62
5
 10
3062.914
 20
-5344.318
 30
2027.000
 70
    32
  0
VERTEX
  8
3200LEVEL
 62
5
 10
3040.292
 20
-5296.507
 30
2027.000
 70
    32
  0
VERTEX
  8
3200LEVEL
 62
5
 10
3013.290
 20
-5281.058
 30
2027.000
 70
    32
  0
VERTEX
  8
3200LEVEL
 62
5
 10
3051.630
 20
-5351.014
 30
2027.000
 70
    32
  0
VERTEX
  8
3200LEVEL
 62
5
 10
3091.379
 20
-5425.201
 30
2027.000
 70
    32
  0
VERTEX
  8
3200LEVEL
 62
5
 10
3125.843
 20
-5488.810
 30
2027.000
 70
    32
  0
VERTEX
  8
3200LEVEL
 62
5
 10
3151.355
 20
-5537.539
 30
2027.000
 70
    32
  0
VERTEX
  8
3200LEVEL
 62
5
 10
3173.274
 20
-5576.185
 30
2027.000
 70
    32
  0
SEQEND
  8
3200LEVEL
  0
POLYLINE
  8
3200LEVEL
 62
5
 66
     1
 70
     8
  0
VERTEX
  8
3200LEVEL
 62
5
 10
3442.194
 20
-6157.118
 30
2027.000
 70
    32
  0
VERTEX
  8
3200LEVEL
 62
5
 10
3396.646
 20
-6093.820
 30
2027.001
 70
    32
  0
VERTEX
  8
3200LEVEL
 62
5
 10
3373.259
 20
-6065.155
 30
2027.000
 70
    32
  0
VERTEX
  8
3200LEVEL
 62
5
 10
3345.773
 20
-6010.855
 30
2027.000
 70
    32
  0
VERTEX
  8
3200LEVEL
 62
5
 10
3314.543
 20
-5958.878
 30
2027.001
 70
    32
  0
VERTEX
  8
3200LEVEL
 62
5
 10
3290.134
 20
-5935.555
 30
2027.001
 70
    32
  0
VERTEX
  8
3200LEVEL
 62
5
 10
3233.842
 20
-5855.069
 30
2027.000
 70
    32
  0
VERTEX
  8
3200LEVEL
 62
5
 10
3264.924
 20
-5908.876
 30
2027.000
 70
    32
  0
VERTEX
  8
3200LEVEL
 62
5
 10
3284.031
 20
-5938.887
 30
2027.001
 70
    32
  0
VERTEX
  8
3200LEVEL
 62
5
 10
3326.875
 20
-6016.209
 30
2027.000
 70
    32
  0
VERTEX
  8
3200LEVEL
 62
5
 10
3348.582
 20
-6058.097
 30
2027.000
 70
    32
  0
VERTEX
  8
3200LEVEL
 62
5
 10
3387.770
 20
-6100.484
 30
2027.001
 70
    32
  0
VERTEX
  8
3200LEVEL
 62
5
 10
3431.689
 20
-6156.622
 30
2027.000
 70
    32
  0
SEQEND
  8
3200LEVEL
  0
POLYLINE
  8
3200LEVEL
 62
13
 66
     1
 70
     9
  0
VERTEX
  8
3200LEVEL
 62
13
 10
2723.307
 20
-5457.895
 30
2027.000
 70
    32
  0
VERTEX
  8
3200LEVEL
 62
13
 10
2699.876
 20
-5424.663
 30
2027.001
 70
    32
  0
VERTEX
  8
3200LEVEL
 62
13
 10
2671.008
 20
-5378.134
 30
2027.000
 70
    32
  0
VERTEX
  8
3200LEVEL
 62
13
 10
2646.620
 20
-5345.808
 30
2027.001
 70
    32
  0
VERTEX
  8
3200LEVEL
 62
13
 10
2610.034
 20
-5309.724
 30
2027.000
 70
    32
  0
VERTEX
  8
3200LEVEL
 62
13
 10
2637.189
 20
-5353.027
 30
2027.001
 70
    32
  0
VERTEX
  8
3200LEVEL
 62
13
 10
2664.234
 20
-5397.312
 30
2027.000
 70
    32
  0
VERTEX
  8
3200LEVEL
 62
13
 10
2695.993
 20
-5427.440
 30
2027.001
 70
    32
  0
VERTEX
  8
3200LEVEL
 62
13
 10
2719.292
 20
-5457.427
 30
2027.001
 70
    32
  0
SEQEND
  8
3200LEVEL
  0
POLYLINE
  8
3200LEVEL
 62
5
 66
     1
 70
     9
  0
VERTEX
  8
3200LEVEL
 62
5
 10
2718.675
 20
-5370.602
 30
2027.000
 70
    32
  0
VERTEX
  8
3200LEVEL
 62
5
 10
2698.660
 20
-5330.970
 30
2027.000
 70
    32
  0
VERTEX
  8
3200LEVEL
 62
5
 10
2689.335
 20
-5313.596
 30
2027.001
 70
    32
  0
VERTEX
  8
3200LEVEL
 62
5
 10
2648.838
 20
-5226.410
 30
2027.001
 70
    32
  0
VERTEX
  8
3200LEVEL
 62
5
 10
2602.794
 20
-5142.552
 30
2027.001
 70
    32
  0
VERTEX
  8
3200LEVEL
 62
5
 10
2577.445
 20
-5083.448
 30
2027.000
 70
    32
  0
VERTEX
  8
3200LEVEL
 62
5
 10
2558.968
 20
-5057.588
 30
2027.001
 70
    32
  0
VERTEX
  8
3200LEVEL
 62
5
 10
2516.252
 20
-4970.402
 30
2027.001
 70
    32
  0
VERTEX
  8
3200LEVEL
 62
5
 10
2460.102
 20
-4861.663
 30
2027.000
 70
    32
  0
VERTEX
  8
3200LEVEL
 62
5
 10
2419.714
 20
-4804.257
 30
2027.000
 70
    32
  0
VERTEX
  8
3200LEVEL
 62
5
 10
2395.402
 20
-4745.374
 30
2027.000
 70
    32
  0
VERTEX
  8
3200LEVEL
 62
5
 10
2373.126
 20
-4689.410
 30
2027.001
 70
    32
  0
VERTEX
  8
3200LEVEL
 62
5
 10
2345.388
 20
-4630.546
 30
2027.001
 70
    32
  0
VERTEX
  8
3200LEVEL
 62
5
 10
2312.881
 20
-4563.578
 30
2027.000
 70
    32
  0
VERTEX
  8
3200LEVEL
 62
5
 10
2272.709
 20
-4488.826
 30
2027.000
 70
    32
  0
VERTEX
  8
3200LEVEL
 62
5
 10
2258.497
 20
-4469.043
 30
2022.000
 70
    32
  0
VERTEX
  8
3200LEVEL
 62
5
 10
2215.479
 20
-4392.495
 30
2027.000
 70
    32
  0
VERTEX
  8
3200LEVEL
 62
5
 10
2244.423
 20
-4478.387
 30
2027.001
 70
    32
  0
VERTEX
  8
3200LEVEL
 62
5
 10
2278.055
 20
-4539.454
 30
2027.000
 70
    32
  0
VERTEX
  8
3200LEVEL
 62
5
 10
2310.190
 20
-4610.537
 30
2027.000
 70
    32
  0
VERTEX
  8
3200LEVEL
 62
5
 10
2344.797
 20
-4662.582
 30
2027.000
 70
    32
  0
VERTEX
  8
3200LEVEL
 62
5
 10
2365.443
 20
-4717.163
 30
2027.000
 70
    32
  0
VERTEX
  8
3200LEVEL
 62
5
 10
2406.965
 20
-4807.137
 30
2027.001
 70
    32
  0
VERTEX
  8
3200LEVEL
 62
5
 10
2446.907
 20
-4866.557
 30
2027.001
 70
    32
  0
VERTEX
  8
3200LEVEL
 62
5
 10
2480.193
 20
-4927.643
 30
2027.001
 70
    32
  0
VERTEX
  8
3200LEVEL
 62
5
 10
2510.150
 20
-4977.066
 30
2027.001
 70
    32
  0
VERTEX
  8
3200LEVEL
 62
5
 10
2553.421
 20
-5062.030
 30
2027.001
 70
    32
  0
VERTEX
  8
3200LEVEL
 62
5
 10
2577.830
 20
-5110.343
 30
2027.001
 70
    32
  0
VERTEX
  8
3200LEVEL
 62
5
 10
2594.472
 20
-5148.661
 30
2027.001
 70
    32
  0
VERTEX
  8
3200LEVEL
 62
5
 10
2639.962
 20
-5231.408
 30
2027.001
 70
    32
  0
VERTEX
  8
3200LEVEL
 62
5
 10
2683.233
 20
-5320.260
 30
2027.001
 70
    32
  0
VERTEX
  8
3200LEVEL
 62
5
 10
2706.532
 20
-5360.799
 30
2027.001
 70
    32
  0
SEQEND
  8
3200LEVEL
  0
POLYLINE
  8
3200LEVEL
 62
5
 66
     1
 70
     9
  0
VERTEX
  8
3200LEVEL
 62
5
 10
1342.352
 20
-3268.266
 30
2027.000
 70
    32
  0
VERTEX
  8
3200LEVEL
 62
5
 10
1318.812
 20
-3225.108
 30
2027.000
 70
    32
  0
VERTEX
  8
3200LEVEL
 62
5
 10
1296.176
 20
-3233.704
 30
2027.000
 70
    32
  0
VERTEX
  8
3200LEVEL
 62
5
 10
1328.458
 20
-3279.121
 30
2027.000
 70
    32
  0
SEQEND
  8
3200LEVEL
  0
POLYLINE
  8
3200LEVEL
 62
5
 66
     1
 70
     9
  0
VERTEX
  8
3200LEVEL
 62
5
 10
2525.565
 20
-3355.506
 30
2027.000
 70
    32
  0
VERTEX
  8
3200LEVEL
 62
5
 10
2530.302
 20
-3303.047
 30
2027.000
 70
    32
  0
VERTEX
  8
3200LEVEL
 62
5
 10
2510.210
 20
-3292.113
 30
2027.000
 70
    32
  0
VERTEX
  8
3200LEVEL
 62
5
 10
2514.426
 20
-3350.638
 30
2027.000
 70
    32
  0
SEQEND
  8
3200LEVEL
  0
POLYLINE
  8
3200LEVEL
 62
5
 66
     1
 70
     9
  0
VERTEX
  8
3200LEVEL
 62
5
 10
2752.798
 20
-3719.186
 30
2027.000
 70
    32
  0
VERTEX
  8
3200LEVEL
 62
5
 10
2749.797
 20
-3599.388
 30
2027.000
 70
    32
  0
VERTEX
  8
3200LEVEL
 62
5
 10
2770.167
 20
-3627.738
 30
2027.000
 70
    32
  0
VERTEX
  8
3200LEVEL
 62
5
 10
2778.045
 20
-3702.904
 30
2027.000
 70
    32
  0
SEQEND
  8
3200LEVEL
  0
POLYLINE
  8
3200LEVEL
 62
5
 66
     1
 70
     9
  0
VERTEX
  8
3200LEVEL
 62
5
 10
3370.357
 20
-3606.103
 30
2027.000
 70
    32
  0
VERTEX
  8
3200LEVEL
 62
5
 10
3320.756
 20
-3456.467
 30
2027.000
 70
    32
  0
VERTEX
  8
3200LEVEL
 62
5
 10
3282.011
 20
-3315.437
 30
2027.000
 70
    32
  0
VERTEX
  8
3200LEVEL
 62
5
 10
3294.633
 20
-3313.465
 30
2027.000
 70
    32
  0
VERTEX
  8
3200LEVEL
 62
5
 10
3343.380
 20
-3495.465
 30
2027.000
 70
    32
  0
VERTEX
  8
3200LEVEL
 62
5
 10
3380.582
 20
-3605.048
 30
2027.000
 70
    32
  0
SEQEND
  8
3200LEVEL
  0
POLYLINE
  8
3200LEVEL
 62
13
 66
     1
 70
     8
  0
VERTEX
  8
3200LEVEL
 62
13
 10
2231.426
 20
-4346.173
 30
2027.000
 70
    32
  0
VERTEX
  8
3200LEVEL
 62
13
 10
2219.167
 20
-4308.659
 30
2027.000
 70
    32
  0
VERTEX
  8
3200LEVEL
 62
13
 10
2211.493
 20
-4263.742
 30
2027.000
 70
    32
  0
VERTEX
  8
3200LEVEL
 62
13
 10
2184.780
 20
-4219.877
 30
2027.000
 70
    32
  0
VERTEX
  8
3200LEVEL
 62
13
 10
2154.051
 20
-4167.128
 30
2027.000
 70
    32
  0
VERTEX
  8
3200LEVEL
 62
13
 10
2121.136
 20
-4115.576
 30
2027.000
 70
    32
  0
VERTEX
  8
3200LEVEL
 62
13
 10
2083.910
 20
-4099.420
 30
2027.000
 70
    32
  0
VERTEX
  8
3200LEVEL
 62
13
 10
2064.447
 20
-4110.485
 30
2027.000
 70
    32
  0
VERTEX
  8
3200LEVEL
 62
13
 10
2062.817
 20
-4141.227
 30
2027.000
 70
    32
  0
VERTEX
  8
3200LEVEL
 62
13
 10
2028.555
 20
-4116.681
 30
2027.000
 70
    32
  0
VERTEX
  8
3200LEVEL
 62
13
 10
1999.587
 20
-4072.746
 30
2027.000
 70
    32
  0
VERTEX
  8
3200LEVEL
 62
13
 10
1967.096
 20
-4014.707
 30
2027.000
 70
    32
  0
VERTEX
  8
3200LEVEL
 62
13
 10
1924.947
 20
-3952.013
 30
2027.000
 70
    32
  0
VERTEX
  8
3200LEVEL
 62
13
 10
1881.313
 20
-3904.971
 30
2027.000
 70
    32
  0
VERTEX
  8
3200LEVEL
 62
13
 10
1834.219
 20
-3878.588
 30
2027.000
 70
    32
  0
VERTEX
  8
3200LEVEL
 62
13
 10
1862.483
 20
-3918.645
 30
2027.000
 70
    32
  0
VERTEX
  8
3200LEVEL
 62
13
 10
1900.477
 20
-3962.865
 30
2027.000
 70
    32
  0
VERTEX
  8
3200LEVEL
 62
13
 10
1931.701
 20
-4008.634
 30
2027.000
 70
    32
  0
VERTEX
  8
3200LEVEL
 62
13
 10
1954.110
 20
-4061.452
 30
2027.000
 70
    32
  0
VERTEX
  8
3200LEVEL
 62
13
 10
2000.982
 20
-4129.859
 30
2027.000
 70
    32
  0
VERTEX
  8
3200LEVEL
 62
13
 10
2046.797
 20
-4198.619
 30
2027.000
 70
    32
  0
VERTEX
  8
3200LEVEL
 62
13
 10
2079.078
 20
-4249.324
 30
2027.000
 70
    32
  0
VERTEX
  8
3200LEVEL
 62
13
 10
2098.257
 20
-4245.521
 30
2027.000
 70
    32
  0
VERTEX
  8
3200LEVEL
 62
13
 10
2110.745
 20
-4216.333
 30
2027.000
 70
    32
  0
VERTEX
  8
3200LEVEL
 62
13
 10
2148.039
 20
-4239.047
 30
2027.000
 70
    32
  0
VERTEX
  8
3200LEVEL
 62
13
 10
2178.983
 20
-4281.502
 30
2027.000
 70
    32
  0
VERTEX
  8
3200LEVEL
 62
13
 10
2205.203
 20
-4318.244
 30
2027.000
 70
    32
  0
VERTEX
  8
3200LEVEL
 62
13
 10
2228.395
 20
-4344.480
 30
2027.000
 70
    32
  0
SEQEND
  8
3200LEVEL
  0
POLYLINE
  8
3200LEVEL
 62
3
 66
     1
 70
     8
  0
VERTEX
  8
3200LEVEL
 62
3
 10
3752.686
 20
-5467.464
 30
2027.000
 70
    32
  0
VERTEX
  8
3200LEVEL
 62
3
 10
3780.246
 20
-5503.642
 30
2027.000
 70
    32
  0
VERTEX
  8
3200LEVEL
 62
3
 10
3820.070
 20
-5563.234
 30
2027.000
 70
    32
  0
VERTEX
  8
3200LEVEL
 62
3
 10
3874.911
 20
-5625.226
 30
2027.000
 70
    32
  0
VERTEX
  8
3200LEVEL
 62
3
 10
3931.091
 20
-5691.944
 30
2027.000
 70
    32
  0
VERTEX
  8
3200LEVEL
 62
3
 10
3975.782
 20
-5742.158
 30
2027.000
 70
    32
  0
VERTEX
  8
3200LEVEL
 62
3
 10
4029.494
 20
-5808.522
 30
2027.000
 70
    32
  0
VERTEX
  8
3200LEVEL
 62
3
 10
4087.295
 20
-5876.227
 30
2027.000
 70
    32
  0
VERTEX
  8
3200LEVEL
 62
3
 10
4149.958
 20
-5957.471
 30
2027.000
 70
    32
  0
VERTEX
  8
3200LEVEL
 62
3
 10
4206.139
 20
-6020.663
 30
2027.000
 70
    32
  0
VERTEX
  8
3200LEVEL
 62
3
 10
4279.167
 20
-6101.627
 30
2027.000
 70
    32
  0
VERTEX
  8
3200LEVEL
 62
3
 10
4357.691
 20
-6198.740
 30
2027.000
 70
    32
  0
VERTEX
  8
3200LEVEL
 62
3
 10
4428.532
 20
-6287.953
 30
2027.000
 70
    32
  0
SEQEND
  8
3200LEVEL
  0
POLYLINE
  8
3200LEVEL
 62
13
 66
     1
 70
     8
  0
VERTEX
  8
3200LEVEL
 62
13
 10
4428.532
 20
-6287.953
 30
2027.000
 70
    32
  0
VERTEX
  8
3200LEVEL
 62
13
 10
4471.101
 20
-6361.789
 30
2027.000
 70
    32
  0
VERTEX
  8
3200LEVEL
 62
13
 10
4528.690
 20
-6434.500
 30
2027.000
 70
    32
  0
VERTEX
  8
3200LEVEL
 62
13
 10
4590.789
 20
-6514.404
 30
2027.000
 70
    32
  0
VERTEX
  8
3200LEVEL
 62
13
 10
4633.503
 20
-6573.150
 30
2027.000
 70
    32
  0
VERTEX
  8
3200LEVEL
 62
13
 10
4683.692
 20
-6630.699
 30
2027.000
 70
    32
  0
VERTEX
  8
3200LEVEL
 62
13
 10
4696.445
 20
-6670.047
 30
2027.000
 70
    32
  0
VERTEX
  8
3200LEVEL
 62
13
 10
4652.383
 20
-6641.832
 30
2027.000
 70
    32
  0
VERTEX
  8
3200LEVEL
 62
13
 10
4599.088
 20
-6597.185
 30
2027.000
 70
    32
  0
VERTEX
  8
3200LEVEL
 62
13
 10
4557.211
 20
-6573.060
 30
2027.000
 70
    32
  0
VERTEX
  8
3200LEVEL
 62
13
 10
4598.587
 20
-6627.081
 30
2027.000
 70
    32
  0
VERTEX
  8
3200LEVEL
 62
13
 10
4640.458
 20
-6677.648
 30
2027.000
 70
    32
  0
VERTEX
  8
3200LEVEL
 62
13
 10
4682.609
 20
-6733.291
 30
2027.000
 70
    32
  0
VERTEX
  8
3200LEVEL
 62
13
 10
4746.827
 20
-6800.151
 30
2027.000
 70
    32
  0
VERTEX
  8
3200LEVEL
 62
13
 10
4795.887
 20
-6858.547
 30
2027.000
 70
    32
  0
VERTEX
  8
3200LEVEL
 62
13
 10
4822.601
 20
-6895.360
 30
2027.000
 70
    32
  0
VERTEX
  8
3200LEVEL
 62
13
 10
4841.350
 20
-6920.960
 30
2027.000
 70
    32
  0
SEQEND
  8
3200LEVEL
  0
POLYLINE
  8
3200LEVEL
 62
5
 66
     1
 70
     9
  0
VERTEX
  8
3200LEVEL
 62
5
 10
2882.821
 20
-5379.739
 30
2027.000
 70
    32
  0
VERTEX
  8
3200LEVEL
 62
5
 10
2871.552
 20
-5331.789
 30
2027.000
 70
    32
  0
VERTEX
  8
3200LEVEL
 62
5
 10
2855.488
 20
-5280.383
 30
2027.000
 70
    32
  0
VERTEX
  8
3200LEVEL
 62
5
 10
2823.031
 20
-5216.414
 30
2027.001
 70
    32
  0
VERTEX
  8
3200LEVEL
 62
5
 10
2806.388
 20
-5110.347
 30
2027.001
 70
    32
  0
VERTEX
  8
3200LEVEL
 62
5
 10
2789.746
 20
-5057.036
 30
2027.001
 70
    32
  0
VERTEX
  8
3200LEVEL
 62
5
 10
2781.979
 20
-5056.481
 30
2027.001
 70
    32
  0
VERTEX
  8
3200LEVEL
 62
5
 10
2798.067
 20
-5115.901
 30
2027.001
 70
    32
  0
VERTEX
  8
3200LEVEL
 62
5
 10
2814.710
 20
-5221.412
 30
2027.001
 70
    32
  0
VERTEX
  8
3200LEVEL
 62
5
 10
2853.542
 20
-5311.930
 30
2027.001
 70
    32
  0
VERTEX
  8
3200LEVEL
 62
5
 10
2862.418
 20
-5335.809
 30
2027.001
 70
    32
  0
VERTEX
  8
3200LEVEL
 62
5
 10
2876.194
 20
-5376.776
 30
2027.000
 70
    32
  0
SEQEND
  8
3200LEVEL
  0
POLYLINE
  8
3200LEVEL
 62
5
 66
     1
 70
     9
  0
VERTEX
  8
3200LEVEL
 62
5
 10
3198.600
 20
-5882.802
 30
2027.001
 70
    32
  0
VERTEX
  8
3200LEVEL
 62
5
 10
3168.835
 20
-5842.995
 30
2027.000
 70
    32
  0
VERTEX
  8
3200LEVEL
 62
5
 10
3140.350
 20
-5810.056
 30
2027.001
 70
    32
  0
VERTEX
  8
3200LEVEL
 62
5
 10
3116.496
 20
-5776.181
 30
2027.001
 70
    32
  0
VERTEX
  8
3200LEVEL
 62
5
 10
3080.437
 20
-5725.092
 30
2027.001
 70
    32
  0
VERTEX
  8
3200LEVEL
 62
5
 10
3049.371
 20
-5637.351
 30
2027.001
 70
    32
  0
VERTEX
  8
3200LEVEL
 62
5
 10
2981.136
 20
-5572.934
 30
2027.001
 70
    32
  0
VERTEX
  8
3200LEVEL
 62
5
 10
2874.623
 20
-5532.396
 30
2027.001
 70
    32
  0
VERTEX
  8
3200LEVEL
 62
5
 10
2823.031
 20
-5452.431
 30
2027.001
 70
    32
  0
VERTEX
  8
3200LEVEL
 62
5
 10
2801.950
 20
-5419.112
 30
2027.001
 70
    32
  0
VERTEX
  8
3200LEVEL
 62
5
 10
2820.257
 20
-5454.097
 30
2027.001
 70
    32
  0
VERTEX
  8
3200LEVEL
 62
5
 10
2871.849
 20
-5532.951
 30
2027.001
 70
    32
  0
VERTEX
  8
3200LEVEL
 62
5
 10
2976.698
 20
-5575.155
 30
2027.001
 70
    32
  0
VERTEX
  8
3200LEVEL
 62
5
 10
3045.488
 20
-5641.794
 30
2027.001
 70
    32
  0
VERTEX
  8
3200LEVEL
 62
5
 10
3046.185
 20
-5693.482
 30
2027.000
 70
    32
  0
VERTEX
  8
3200LEVEL
 62
5
 10
3077.108
 20
-5737.309
 30
2027.001
 70
    32
  0
VERTEX
  8
3200LEVEL
 62
5
 10
3135.358
 20
-5812.832
 30
2027.001
 70
    32
  0
VERTEX
  8
3200LEVEL
 62
5
 10
3195.826
 20
-5886.684
 30
2027.001
 70
    32
  0
VERTEX
  8
3200LEVEL
 62
5
 10
3214.930
 20
-5915.068
 30
2027.000
 70
    32
  0
SEQEND
  8
3200LEVEL
  0
POLYLINE
  8
3200LEVEL
 62
13
 66
     1
 70
     8
  0
VERTEX
  8
3200LEVEL
 62
13
 10
394.175
 20
-3593.611
 30
2022.000
 70
    32
  0
VERTEX
  8
3200LEVEL
 62
13
 10
441.012
 20
-3668.155
 30
2022.000
 70
    32
  0
VERTEX
  8
3200LEVEL
 62
13
 10
591.103
 20
-3889.656
 30
2022.000
 70
    32
  0
VERTEX
  8
3200LEVEL
 62
13
 10
775.274
 20
-4156.263
 30
2027.001
 70
    32
  0
VERTEX
  8
3200LEVEL
 62
13
 10
822.740
 20
-4233.835
 30
2027.001
 70
    32
  0
VERTEX
  8
3200LEVEL
 62
13
 10
845.894
 20
-4273.200
 30
2027.001
 70
    32
  0
VERTEX
  8
3200LEVEL
 62
13
 10
879.468
 20
-4365.824
 30
2027.001
 70
    32
  0
VERTEX
  8
3200LEVEL
 62
13
 10
935.038
 20
-4445.711
 30
2027.001
 70
    32
  0
VERTEX
  8
3200LEVEL
 62
13
 10
990.608
 20
-4522.126
 30
2027.001
 70
    32
  0
VERTEX
  8
3200LEVEL
 62
13
 10
1053.124
 20
-4597.382
 30
2027.001
 70
    32
  0
VERTEX
  8
3200LEVEL
 62
13
 10
1112.168
 20
-4670.324
 30
2027.001
 70
    32
  0
VERTEX
  8
3200LEVEL
 62
13
 10
1067.017
 20
-4589.278
 30
2027.001
 70
    32
  0
VERTEX
  8
3200LEVEL
 62
13
 10
1004.500
 20
-4514.021
 30
2027.001
 70
    32
  0
VERTEX
  8
3200LEVEL
 62
13
 10
951.246
 20
-4431.818
 30
2027.001
 70
    32
  0
VERTEX
  8
3200LEVEL
 62
13
 10
894.518
 20
-4353.088
 30
2027.001
 70
    32
  0
VERTEX
  8
3200LEVEL
 62
13
 10
863.260
 20
-4260.464
 30
2027.001
 70
    32
  0
VERTEX
  8
3200LEVEL
 62
13
 10
855.155
 20
-4228.046
 30
2027.001
 70
    32
  0
VERTEX
  8
3200LEVEL
 62
13
 10
873.679
 20
-4216.468
 30
2027.001
 70
    32
  0
VERTEX
  8
3200LEVEL
 62
13
 10
901.464
 20
-4234.993
 30
2027.001
 70
    32
  0
VERTEX
  8
3200LEVEL
 62
13
 10
955.877
 20
-4316.039
 30
2027.001
 70
    32
  0
VERTEX
  8
3200LEVEL
 62
13
 10
1013.761
 20
-4386.663
 30
2027.001
 70
    32
  0
VERTEX
  8
3200LEVEL
 62
13
 10
1058.912
 20
-4474.656
 30
2027.001
 70
    32
  0
VERTEX
  8
3200LEVEL
 62
13
 10
1101.747
 20
-4559.175
 30
2027.001
 70
    32
  0
VERTEX
  8
3200LEVEL
 62
13
 10
1179.314
 20
-4739.790
 30
2027.001
 70
    32
  0
VERTEX
  8
3200LEVEL
 62
13
 10
1437.484
 20
-5061.657
 30
2027.001
 70
    32
  0
VERTEX
  8
3200LEVEL
 62
13
 10
1506.947
 20
-5111.442
 30
2027.001
 70
    32
  0
VERTEX
  8
3200LEVEL
 62
13
 10
1571.778
 20
-5074.392
 30
2027.001
 70
    32
  0
VERTEX
  8
3200LEVEL
 62
13
 10
1569.463
 20
-5024.607
 30
2027.001
 70
    32
  0
VERTEX
  8
3200LEVEL
 62
13
 10
1510.419
 20
-4941.246
 30
2027.001
 70
    32
  0
VERTEX
  8
3200LEVEL
 62
13
 10
1451.878
 20
-4853.645
 30
2027.001
 70
    32
  0
VERTEX
  8
3200LEVEL
 62
13
 10
1414.544
 20
-4803.501
 30
2027.001
 70
    32
  0
VERTEX
  8
3200LEVEL
 62
13
 10
1354.038
 20
-4730.212
 30
2027.001
 70
    32
  0
VERTEX
  8
3200LEVEL
 62
13
 10
1292.244
 20
-4659.495
 30
2027.001
 70
    32
  0
VERTEX
  8
3200LEVEL
 62
13
 10
1248.473
 20
-4574.635
 30
2027.001
 70
    32
  0
VERTEX
  8
3200LEVEL
 62
13
 10
1181.530
 20
-4505.204
 30
2027.001
 70
    32
  0
VERTEX
  8
3200LEVEL
 62
13
 10
1126.172
 20
-4425.487
 30
2027.001
 70
    32
  0
VERTEX
  8
3200LEVEL
 62
13
 10
1069.436
 20
-4260.208
 30
2027.000
 70
    32
  0
VERTEX
  8
3200LEVEL
 62
13
 10
1044.136
 20
-4208.236
 30
2027.000
 70
    32
  0
VERTEX
  8
3200LEVEL
 62
13
 10
1000.430
 20
-4166.976
 30
2027.000
 70
    32
  0
VERTEX
  8
3200LEVEL
 62
13
 10
949.321
 20
-4124.657
 30
2027.000
 70
    32
  0
VERTEX
  8
3200LEVEL
 62
13
 10
901.459
 20
-4066.685
 30
2027.000
 70
    32
  0
VERTEX
  8
3200LEVEL
 62
13
 10
849.771
 20
-3931.186
 30
2022.000
 70
    32
  0
VERTEX
  8
3200LEVEL
 62
13
 10
803.998
 20
-3871.551
 30
2022.000
 70
    32
  0
VERTEX
  8
3200LEVEL
 62
13
 10
725.227
 20
-3743.762
 30
2022.000
 70
    32
  0
VERTEX
  8
3200LEVEL
 62
13
 10
675.197
 20
-3669.218
 30
2022.000
 70
    32
  0
VERTEX
  8
3200LEVEL
 62
13
 10
651.115
 20
-3637.495
 30
2027.000
 70
    32
  0
VERTEX
  8
3200LEVEL
 62
13
 10
622.762
 20
-3574.091
 30
2027.001
 70
    32
  0
VERTEX
  8
3200LEVEL
 62
13
 10
586.161
 20
-3467.974
 30
2027.001
 70
    32
  0
VERTEX
  8
3200LEVEL
 62
13
 10
586.161
 20
-3353.274
 30
2027.001
 70
    32
  0
VERTEX
  8
3200LEVEL
 62
13
 10
580.683
 20
-3327.231
 30
2027.000
 70
    32
  0
VERTEX
  8
3200LEVEL
 62
13
 10
598.621
 20
-3345.472
 30
2027.001
 70
    32
  0
VERTEX
  8
3200LEVEL
 62
13
 10
635.590
 20
-3408.121
 30
2027.000
 70
    32
  0
VERTEX
  8
3200LEVEL
 62
13
 10
673.151
 20
-3490.557
 30
2027.000
 70
    32
  0
VERTEX
  8
3200LEVEL
 62
13
 10
681.169
 20
-3530.395
 30
2027.001
 70
    32
  0
VERTEX
  8
3200LEVEL
 62
13
 10
746.662
 20
-3613.898
 30
2027.000
 70
    32
  0
VERTEX
  8
3200LEVEL
 62
13
 10
791.287
 20
-3648.742
 30
2027.000
 70
    32
  0
VERTEX
  8
3200LEVEL
 62
13
 10
785.587
 20
-3604.107
 30
2027.000
 70
    32
  0
VERTEX
  8
3200LEVEL
 62
13
 10
759.861
 20
-3562.147
 30
2027.000
 70
    32
  0
VERTEX
  8
3200LEVEL
 62
13
 10
804.200
 20
-3607.778
 30
2027.000
 70
    32
  0
VERTEX
  8
3200LEVEL
 62
13
 10
835.363
 20
-3663.821
 30
2027.001
 70
    32
  0
VERTEX
  8
3200LEVEL
 62
13
 10
889.772
 20
-3717.232
 30
2027.000
 70
    32
  0
VERTEX
  8
3200LEVEL
 62
13
 10
891.328
 20
-3699.323
 30
2027.000
 70
    32
  0
VERTEX
  8
3200LEVEL
 62
13
 10
861.841
 20
-3641.193
 30
2027.001
 70
    32
  0
VERTEX
  8
3200LEVEL
 62
13
 10
817.452
 20
-3566.287
 30
2027.001
 70
    32
  0
VERTEX
  8
3200LEVEL
 62
13
 10
772.497
 20
-3505.530
 30
2027.000
 70
    32
  0
VERTEX
  8
3200LEVEL
 62
13
 10
764.496
 20
-3471.875
 30
2027.001
 70
    32
  0
VERTEX
  8
3200LEVEL
 62
13
 10
773.019
 20
-3391.021
 30
2027.000
 70
    32
  0
VERTEX
  8
3200LEVEL
 62
13
 10
797.983
 20
-3447.686
 30
2027.001
 70
    32
  0
VERTEX
  8
3200LEVEL
 62
13
 10
842.728
 20
-3495.183
 30
2027.000
 70
    32
  0
VERTEX
  8
3200LEVEL
 62
13
 10
812.514
 20
-3434.943
 30
2022.000
 70
    32
  0
VERTEX
  8
3200LEVEL
 62
13
 10
800.805
 20
-3417.904
 30
2022.000
 70
    32
  0
VERTEX
  8
3200LEVEL
 62
13
 10
796.547
 20
-3397.671
 30
2022.000
 70
    32
  0
VERTEX
  8
3200LEVEL
 62
13
 10
815.708
 20
-3381.697
 30
2022.000
 70
    32
  0
VERTEX
  8
3200LEVEL
 62
13
 10
828.481
 20
-3399.801
 30
2022.000
 70
    32
  0
VERTEX
  8
3200LEVEL
 62
13
 10
868.850
 20
-3395.408
 30
2027.001
 70
    32
  0
VERTEX
  8
3200LEVEL
 62
13
 10
917.914
 20
-3409.743
 30
2027.000
 70
    32
  0
VERTEX
  8
3200LEVEL
 62
13
 10
905.863
 20
-3381.325
 30
2027.000
 70
    32
  0
VERTEX
  8
3200LEVEL
 62
13
 10
928.150
 20
-3359.331
 30
2027.000
 70
    32
  0
VERTEX
  8
3200LEVEL
 62
13
 10
974.471
 20
-3378.804
 30
2027.000
 70
    32
  0
VERTEX
  8
3200LEVEL
 62
13
 10
1020.708
 20
-3435.982
 30
2027.001
 70
    32
  0
VERTEX
  8
3200LEVEL
 62
13
 10
1082.461
 20
-3502.295
 30
2027.000
 70
    32
  0
VERTEX
  8
3200LEVEL
 62
13
 10
1128.352
 20
-3549.408
 30
2027.000
 70
    32
  0
VERTEX
  8
3200LEVEL
 62
13
 10
1127.794
 20
-3525.152
 30
2027.000
 70
    32
  0
VERTEX
  8
3200LEVEL
 62
13
 10
1095.939
 20
-3460.909
 30
2027.000
 70
    32
  0
VERTEX
  8
3200LEVEL
 62
13
 10
1074.172
 20
-3380.733
 30
2027.000
 70
    32
  0
VERTEX
  8
3200LEVEL
 62
13
 10
1120.495
 20
-3389.629
 30
2027.000
 70
    32
  0
VERTEX
  8
3200LEVEL
 62
13
 10
1158.981
 20
-3439.207
 30
2027.000
 70
    32
  0
VERTEX
  8
3200LEVEL
 62
13
 10
1209.169
 20
-3500.282
 30
2027.000
 70
    32
  0
VERTEX
  8
3200LEVEL
 62
13
 10
1248.366
 20
-3525.535
 30
2027.000
 70
    32
  0
VERTEX
  8
3200LEVEL
 62
13
 10
1272.752
 20
-3569.822
 30
2027.000
 70
    32
  0
VERTEX
  8
3200LEVEL
 62
13
 10
1334.292
 20
-3632.521
 30
2027.000
 70
    32
  0
VERTEX
  8
3200LEVEL
 62
13
 10
1381.803
 20
-3682.384
 30
2027.000
 70
    32
  0
VERTEX
  8
3200LEVEL
 62
13
 10
1425.365
 20
-3735.207
 30
2027.000
 70
    32
  0
VERTEX
  8
3200LEVEL
 62
13
 10
1468.787
 20
-3781.967
 30
2027.000
 70
    32
  0
VERTEX
  8
3200LEVEL
 62
13
 10
1497.307
 20
-3827.676
 30
2027.001
 70
    32
  0
VERTEX
  8
3200LEVEL
 62
13
 10
1540.918
 20
-3911.945
 30
2027.001
 70
    32
  0
VERTEX
  8
3200LEVEL
 62
13
 10
1584.243
 20
-3941.279
 30
2027.000
 70
    32
  0
VERTEX
  8
3200LEVEL
 62
13
 10
1617.300
 20
-3990.081
 30
2027.000
 70
    32
  0
VERTEX
  8
3200LEVEL
 62
13
 10
1645.633
 20
-4038.458
 30
2027.000
 70
    32
  0
VERTEX
  8
3200LEVEL
 62
13
 10
1674.954
 20
-4081.688
 30
2027.000
 70
    32
  0
VERTEX
  8
3200LEVEL
 62
13
 10
1703.709
 20
-4135.918
 30
2027.000
 70
    32
  0
VERTEX
  8
3200LEVEL
 62
13
 10
1729.220
 20
-4188.173
 30
2027.000
 70
    32
  0
VERTEX
  8
3200LEVEL
 62
13
 10
1766.654
 20
-4216.951
 30
2027.000
 70
    32
  0
VERTEX
  8
3200LEVEL
 62
13
 10
1800.064
 20
-4265.047
 30
2027.000
 70
    32
  0
VERTEX
  8
3200LEVEL
 62
13
 10
1827.553
 20
-4303.482
 30
2027.000
 70
    32
  0
VERTEX
  8
3200LEVEL
 62
13
 10
1848.484
 20
-4347.275
 30
2027.000
 70
    32
  0
VERTEX
  8
3200LEVEL
 62
13
 10
1867.514
 20
-4377.952
 30
2027.000
 70
    32
  0
VERTEX
  8
3200LEVEL
 62
13
 10
1918.340
 20
-4425.771
 30
2027.000
 70
    32
  0
VERTEX
  8
3200LEVEL
 62
13
 10
1944.487
 20
-4471.821
 30
2027.000
 70
    32
  0
VERTEX
  8
3200LEVEL
 62
13
 10
1970.852
 20
-4495.237
 30
2027.000
 70
    32
  0
VERTEX
  8
3200LEVEL
 62
13
 10
2000.329
 20
-4513.962
 30
2027.001
 70
    32
  0
VERTEX
  8
3200LEVEL
 62
13
 10
2013.644
 20
-4531.732
 30
2027.001
 70
    32
  0
VERTEX
  8
3200LEVEL
 62
13
 10
2076.885
 20
-4597.813
 30
2027.001
 70
    32
  0
VERTEX
  8
3200LEVEL
 62
13
 10
2125.149
 20
-4686.662
 30
2027.001
 70
    32
  0
VERTEX
  8
3200LEVEL
 62
13
 10
2150.113
 20
-4733.308
 30
2027.001
 70
    32
  0
VERTEX
  8
3200LEVEL
 62
13
 10
2184.494
 20
-4791.999
 30
2027.000
 70
    32
  0
VERTEX
  8
3200LEVEL
 62
13
 10
2204.157
 20
-4827.047
 30
2027.000
 70
    32
  0
VERTEX
  8
3200LEVEL
 62
13
 10
2245.886
 20
-4880.364
 30
2027.000
 70
    32
  0
VERTEX
  8
3200LEVEL
 62
13
 10
2262.173
 20
-4920.446
 30
2027.001
 70
    32
  0
VERTEX
  8
3200LEVEL
 62
13
 10
2316.934
 20
-4983.962
 30
2027.000
 70
    32
  0
VERTEX
  8
3200LEVEL
 62
13
 10
2353.654
 20
-5047.642
 30
2027.000
 70
    32
  0
VERTEX
  8
3200LEVEL
 62
13
 10
2373.173
 20
-5096.017
 30
2027.000
 70
    32
  0
VERTEX
  8
3200LEVEL
 62
13
 10
2413.621
 20
-5159.783
 30
2027.001
 70
    32
  0
VERTEX
  8
3200LEVEL
 62
13
 10
2444.079
 20
-5205.890
 30
2027.000
 70
    32
  0
VERTEX
  8
3200LEVEL
 62
13
 10
2472.425
 20
-5237.526
 30
2027.001
 70
    32
  0
VERTEX
  8
3200LEVEL
 62
13
 10
2523.463
 20
-5315.824
 30
2027.001
 70
    32
  0
VERTEX
  8
3200LEVEL
 62
13
 10
2535.112
 20
-5354.696
 30
2027.001
 70
    32
  0
VERTEX
  8
3200LEVEL
 62
13
 10
2550.091
 20
-5369.690
 30
2027.001
 70
    32
  0
VERTEX
  8
3200LEVEL
 62
13
 10
2571.171
 20
-5380.796
 30
2027.001
 70
    32
  0
VERTEX
  8
3200LEVEL
 62
13
 10
2555.638
 20
-5348.588
 30
2027.001
 70
    32
  0
VERTEX
  8
3200LEVEL
 62
13
 10
2540.105
 20
-5304.718
 30
2027.001
 70
    32
  0
VERTEX
  8
3200LEVEL
 62
13
 10
2489.068
 20
-5224.199
 30
2027.001
 70
    32
  0
VERTEX
  8
3200LEVEL
 62
13
 10
2471.316
 20
-5194.767
 30
2027.001
 70
    32
  0
VERTEX
  8
3200LEVEL
 62
13
 10
2443.023
 20
-5139.792
 30
2027.001
 70
    32
  0
VERTEX
  8
3200LEVEL
 62
13
 10
2388.657
 20
-5060.383
 30
2027.001
 70
    32
  0
VERTEX
  8
3200LEVEL
 62
13
 10
2385.807
 20
-5046.451
 30
2027.000
 70
    32
  0
VERTEX
  8
3200LEVEL
 62
13
 10
2367.700
 20
-4991.731
 30
2027.000
 70
    32
  0
VERTEX
  8
3200LEVEL
 62
13
 10
2352.598
 20
-4970.979
 30
2027.001
 70
    32
  0
VERTEX
  8
3200LEVEL
 62
13
 10
2306.554
 20
-4888.238
 30
2027.001
 70
    32
  0
VERTEX
  8
3200LEVEL
 62
13
 10
2275.228
 20
-4844.270
 30
2027.000
 70
    32
  0
VERTEX
  8
3200LEVEL
 62
13
 10
2248.513
 20
-4809.220
 30
2027.000
 70
    32
  0
VERTEX
  8
3200LEVEL
 62
13
 10
2222.361
 20
-4780.797
 30
2027.000
 70
    32
  0
VERTEX
  8
3200LEVEL
 62
13
 10
2212.992
 20
-4744.200
 30
2027.000
 70
    32
  0
VERTEX
  8
3200LEVEL
 62
13
 10
2235.687
 20
-4782.704
 30
2027.000
 70
    32
  0
VERTEX
  8
3200LEVEL
 62
13
 10
2266.703
 20
-4817.615
 30
2027.000
 70
    32
  0
VERTEX
  8
3200LEVEL
 62
13
 10
2299.198
 20
-4856.263
 30
2027.000
 70
    32
  0
VERTEX
  8
3200LEVEL
 62
13
 10
2317.094
 20
-4879.353
 30
2027.001
 70
    32
  0
VERTEX
  8
3200LEVEL
 62
13
 10
2380.336
 20
-4950.433
 30
2027.001
 70
    32
  0
VERTEX
  8
3200LEVEL
 62
13
 10
2395.837
 20
-4979.892
 30
2027.000
 70
    32
  0
VERTEX
  8
3200LEVEL
 62
13
 10
2404.356
 20
-5029.463
 30
2027.000
 70
    32
  0
VERTEX
  8
3200LEVEL
 62
13
 10
2403.081
 20
-5052.053
 30
2027.001
 70
    32
  0
VERTEX
  8
3200LEVEL
 62
13
 10
2417.313
 20
-5093.772
 30
2027.000
 70
    32
  0
VERTEX
  8
3200LEVEL
 62
13
 10
2448.016
 20
-5136.460
 30
2027.001
 70
    32
  0
VERTEX
  8
3200LEVEL
 62
13
 10
2469.651
 20
-5173.110
 30
2027.001
 70
    32
  0
VERTEX
  8
3200LEVEL
 62
13
 10
2497.944
 20
-5218.090
 30
2027.001
 70
    32
  0
VERTEX
  8
3200LEVEL
 62
13
 10
2514.512
 20
-5231.080
 30
2027.000
 70
    32
  0
VERTEX
  8
3200LEVEL
 62
13
 10
2546.519
 20
-5252.030
 30
2027.000
 70
    32
  0
VERTEX
  8
3200LEVEL
 62
13
 10
2547.298
 20
-5239.550
 30
2027.000
 70
    32
  0
VERTEX
  8
3200LEVEL
 62
13
 10
2536.164
 20
-5210.003
 30
2027.000
 70
    32
  0
VERTEX
  8
3200LEVEL
 62
13
 10
2519.814
 20
-5178.199
 30
2027.000
 70
    32
  0
VERTEX
  8
3200LEVEL
 62
13
 10
2502.545
 20
-5152.811
 30
2027.000
 70
    32
  0
VERTEX
  8
3200LEVEL
 62
13
 10
2481.047
 20
-5125.306
 30
2027.000
 70
    32
  0
VERTEX
  8
3200LEVEL
 62
13
 10
2471.956
 20
-5106.125
 30
2027.000
 70
    32
  0
VERTEX
  8
3200LEVEL
 62
13
 10
2507.132
 20
-5138.357
 30
2027.000
 70
    32
  0
VERTEX
  8
3200LEVEL
 62
13
 10
2535.667
 20
-5191.436
 30
2027.001
 70
    32
  0
VERTEX
  8
3200LEVEL
 62
13
 10
2564.364
 20
-5229.401
 30
2027.000
 70
    32
  0
VERTEX
  8
3200LEVEL
 62
13
 10
2579.228
 20
-5280.384
 30
2027.000
 70
    32
  0
VERTEX
  8
3200LEVEL
 62
13
 10
2595.007
 20
-5340.815
 30
2027.000
 70
    32
  0
VERTEX
  8
3200LEVEL
 62
13
 10
2615.553
 20
-5366.910
 30
2027.001
 70
    32
  0
VERTEX
  8
3200LEVEL
 62
13
 10
2662.706
 20
-5452.430
 30
2027.001
 70
    32
  0
VERTEX
  8
3200LEVEL
 62
13
 10
2697.916
 20
-5485.740
 30
2027.000
 70
    32
  0
VERTEX
  8
3200LEVEL
 62
13
 10
2728.168
 20
-5520.734
 30
2027.001
 70
    32
  0
VERTEX
  8
3200LEVEL
 62
13
 10
2793.074
 20
-5591.815
 30
2027.001
 70
    32
  0
VERTEX
  8
3200LEVEL
 62
13
 10
2807.880
 20
-5611.277
 30
2027.000
 70
    32
  0
VERTEX
  8
3200LEVEL
 62
13
 10
2839.674
 20
-5675.113
 30
2027.001
 70
    32
  0
VERTEX
  8
3200LEVEL
 62
13
 10
2850.172
 20
-5691.276
 30
2027.001
 70
    32
  0
VERTEX
  8
3200LEVEL
 62
13
 10
2866.502
 20
-5687.834
 30
2027.001
 70
    32
  0
VERTEX
  8
3200LEVEL
 62
13
 10
2860.754
 20
-5661.230
 30
2027.001
 70
    32
  0
VERTEX
  8
3200LEVEL
 62
13
 10
2840.383
 20
-5621.720
 30
2027.000
 70
    32
  0
VERTEX
  8
3200LEVEL
 62
13
 10
2860.198
 20
-5615.238
 30
2027.000
 70
    32
  0
VERTEX
  8
3200LEVEL
 62
13
 10
2880.725
 20
-5646.792
 30
2027.001
 70
    32
  0
VERTEX
  8
3200LEVEL
 62
13
 10
2891.697
 20
-5689.000
 30
2027.000
 70
    32
  0
VERTEX
  8
3200LEVEL
 62
13
 10
2926.770
 20
-5726.202
 30
2027.001
 70
    32
  0
VERTEX
  8
3200LEVEL
 62
13
 10
2947.098
 20
-5769.960
 30
2027.000
 70
    32
  0
VERTEX
  8
3200LEVEL
 62
13
 10
2988.126
 20
-5805.297
 30
2027.000
 70
    32
  0
VERTEX
  8
3200LEVEL
 62
13
 10
3024.572
 20
-5837.459
 30
2027.000
 70
    32
  0
VERTEX
  8
3200LEVEL
 62
13
 10
3018.304
 20
-5808.945
 30
2027.001
 70
    32
  0
VERTEX
  8
3200LEVEL
 62
13
 10
3013.312
 20
-5783.955
 30
2027.001
 70
    32
  0
VERTEX
  8
3200LEVEL
 62
13
 10
3001.250
 20
-5768.141
 30
2027.000
 70
    32
  0
VERTEX
  8
3200LEVEL
 62
13
 10
2985.818
 20
-5731.683
 30
2027.000
 70
    32
  0
VERTEX
  8
3200LEVEL
 62
13
 10
3012.254
 20
-5752.843
 30
2027.000
 70
    32
  0
VERTEX
  8
3200LEVEL
 62
13
 10
3034.810
 20
-5781.758
 30
2027.000
 70
    32
  0
VERTEX
  8
3200LEVEL
 62
13
 10
3020.859
 20
-5741.986
 30
2027.000
 70
    32
  0
VERTEX
  8
3200LEVEL
 62
13
 10
3006.413
 20
-5707.433
 30
2027.000
 70
    32
  0
VERTEX
  8
3200LEVEL
 62
13
 10
3024.604
 20
-5710.540
 30
2027.000
 70
    32
  0
VERTEX
  8
3200LEVEL
 62
13
 10
3052.342
 20
-5702.669
 30
2027.000
 70
    32
  0
SEQEND
  8
3200LEVEL
  0
POLYLINE
  8
3200LEVEL
 62
13
 66
     1
 70
     8
  0
VERTEX
  8
3200LEVEL
 62
13
 10
3073.405
 20
-5704.799
 30
2027.000
 70
    32
  0
VERTEX
  8
3200LEVEL
 62
13
 10
3105.053
 20
-5725.579
 30
2027.000
 70
    32
  0
VERTEX
  8
3200LEVEL
 62
13
 10
3125.140
 20
-5759.429
 30
2027.000
 70
    32
  0
VERTEX
  8
3200LEVEL
 62
13
 10
3127.315
 20
-5791.172
 30
2027.000
 70
    32
  0
SEQEND
  8
3200LEVEL
  0
POLYLINE
  8
3200LEVEL
 62
13
 66
     1
 70
     8
  0
VERTEX
  8
3200LEVEL
 62
13
 10
3130.083
 20
-5806.138
 30
2027.001
 70
    32
  0
VERTEX
  8
3200LEVEL
 62
13
 10
3185.840
 20
-5891.681
 30
2027.001
 70
    32
  0
VERTEX
  8
3200LEVEL
 62
13
 10
3241.316
 20
-5970.534
 30
2027.001
 70
    32
  0
VERTEX
  8
3200LEVEL
 62
13
 10
3278.484
 20
-6014.958
 30
2027.001
 70
    32
  0
VERTEX
  8
3200LEVEL
 62
13
 10
3288.470
 20
-6010.515
 30
2027.001
 70
    32
  0
VERTEX
  8
3200LEVEL
 62
13
 10
3257.958
 20
-5956.096
 30
2027.001
 70
    32
  0
VERTEX
  8
3200LEVEL
 62
13
 10
3200.832
 20
-5882.082
 30
2027.001
 70
    32
  0
VERTEX
  8
3200LEVEL
 62
13
 10
3181.525
 20
-5851.107
 30
2027.000
 70
    32
  0
VERTEX
  8
3200LEVEL
 62
13
 10
3196.618
 20
-5835.387
 30
2027.000
 70
    32
  0
VERTEX
  8
3200LEVEL
 62
13
 10
3192.604
 20
-5814.162
 30
2027.000
 70
    32
  0
VERTEX
  8
3200LEVEL
 62
13
 10
3177.032
 20
-5783.449
 30
2027.001
 70
    32
  0
VERTEX
  8
3200LEVEL
 62
13
 10
3154.051
 20
-5749.212
 30
2027.000
 70
    32
  0
VERTEX
  8
3200LEVEL
 62
13
 10
3149.334
 20
-5722.347
 30
2027.000
 70
    32
  0
VERTEX
  8
3200LEVEL
 62
13
 10
3168.089
 20
-5726.794
 30
2027.000
 70
    32
  0
VERTEX
  8
3200LEVEL
 62
13
 10
3154.772
 20
-5687.868
 30
2027.000
 70
    32
  0
VERTEX
  8
3200LEVEL
 62
13
 10
3133.699
 20
-5652.114
 30
2027.000
 70
    32
  0
VERTEX
  8
3200LEVEL
 62
13
 10
3103.182
 20
-5597.924
 30
2027.001
 70
    32
  0
VERTEX
  8
3200LEVEL
 62
13
 10
3082.385
 20
-5581.309
 30
2027.000
 70
    32
  0
VERTEX
  8
3200LEVEL
 62
13
 10
3048.470
 20
-5577.211
 30
2027.000
 70
    32
  0
VERTEX
  8
3200LEVEL
 62
13
 10
3012.757
 20
-5549.611
 30
2027.001
 70
    32
  0
VERTEX
  8
3200LEVEL
 62
13
 10
2976.140
 20
-5524.803
 30
2027.000
 70
    32
  0
VERTEX
  8
3200LEVEL
 62
13
 10
2909.573
 20
-5506.851
 30
2027.001
 70
    32
  0
VERTEX
  8
3200LEVEL
 62
13
 10
2896.541
 20
-5495.027
 30
2027.000
 70
    32
  0
VERTEX
  8
3200LEVEL
 62
13
 10
2853.541
 20
-5452.358
 30
2027.000
 70
    32
  0
VERTEX
  8
3200LEVEL
 62
13
 10
2833.571
 20
-5445.766
 30
2027.001
 70
    32
  0
VERTEX
  8
3200LEVEL
 62
13
 10
2775.322
 20
-5369.686
 30
2027.001
 70
    32
  0
VERTEX
  8
3200LEVEL
 62
13
 10
2731.308
 20
-5326.325
 30
2027.000
 70
    32
  0
VERTEX
  8
3200LEVEL
 62
13
 10
2714.854
 20
-5296.939
 30
2027.001
 70
    32
  0
VERTEX
  8
3200LEVEL
 62
13
 10
2698.211
 20
-5243.072
 30
2027.001
 70
    32
  0
VERTEX
  8
3200LEVEL
 62
13
 10
2686.007
 20
-5198.090
 30
2027.001
 70
    32
  0
VERTEX
  8
3200LEVEL
 62
13
 10
2664.372
 20
-5184.762
 30
2027.001
 70
    32
  0
VERTEX
  8
3200LEVEL
 62
13
 10
2660.488
 20
-5169.213
 30
2027.001
 70
    32
  0
VERTEX
  8
3200LEVEL
 62
13
 10
2656.540
 20
-5153.696
 30
2027.000
 70
    32
  0
VERTEX
  8
3200LEVEL
 62
13
 10
2636.079
 20
-5119.234
 30
2027.001
 70
    32
  0
VERTEX
  8
3200LEVEL
 62
13
 10
2619.891
 20
-5087.760
 30
2027.000
 70
    32
  0
VERTEX
  8
3200LEVEL
 62
13
 10
2581.713
 20
-5040.378
 30
2027.001
 70
    32
  0
VERTEX
  8
3200LEVEL
 62
13
 10
2578.385
 20
-5029.827
 30
2027.001
 70
    32
  0
VERTEX
  8
3200LEVEL
 62
13
 10
2586.706
 20
-5037.046
 30
2027.001
 70
    32
  0
VERTEX
  8
3200LEVEL
 62
13
 10
2632.196
 20
-5065.368
 30
2027.001
 70
    32
  0
VERTEX
  8
3200LEVEL
 62
13
 10
2654.733
 20
-5051.949
 30
2027.000
 70
    32
  0
VERTEX
  8
3200LEVEL
 62
13
 10
2639.408
 20
-4999.284
 30
2027.001
 70
    32
  0
VERTEX
  8
3200LEVEL
 62
13
 10
2622.597
 20
-4984.392
 30
2027.000
 70
    32
  0
VERTEX
  8
3200LEVEL
 62
13
 10
2589.608
 20
-4945.673
 30
2027.000
 70
    32
  0
VERTEX
  8
3200LEVEL
 62
13
 10
2612.525
 20
-4942.154
 30
2027.000
 70
    32
  0
VERTEX
  8
3200LEVEL
 62
13
 10
2646.294
 20
-4963.104
 30
2027.000
 70
    32
  0
VERTEX
  8
3200LEVEL
 62
13
 10
2661.598
 20
-4983.180
 30
2027.001
 70
    32
  0
VERTEX
  8
3200LEVEL
 62
13
 10
2710.444
 20
-5019.881
 30
2027.000
 70
    32
  0
VERTEX
  8
3200LEVEL
 62
13
 10
2673.931
 20
-4974.110
 30
2027.000
 70
    32
  0
VERTEX
  8
3200LEVEL
 62
13
 10
2635.936
 20
-4933.416
 30
2027.000
 70
    32
  0
VERTEX
  8
3200LEVEL
 62
13
 10
2640.524
 20
-4915.437
 30
2027.000
 70
    32
  0
VERTEX
  8
3200LEVEL
 62
13
 10
2658.362
 20
-4921.012
 30
2027.000
 70
    32
  0
VERTEX
  8
3200LEVEL
 62
13
 10
2700.985
 20
-4953.747
 30
2027.001
 70
    32
  0
VERTEX
  8
3200LEVEL
 62
13
 10
2714.688
 20
-4965.589
 30
2027.000
 70
    32
  0
VERTEX
  8
3200LEVEL
 62
13
 10
2706.533
 20
-4950.971
 30
2027.001
 70
    32
  0
VERTEX
  8
3200LEVEL
 62
13
 10
2678.110
 20
-4900.922
 30
2027.000
 70
    32
  0
VERTEX
  8
3200LEVEL
 62
13
 10
2662.677
 20
-4864.464
 30
2027.000
 70
    32
  0
VERTEX
  8
3200LEVEL
 62
13
 10
2694.892
 20
-4898.035
 30
2027.000
 70
    32
  0
VERTEX
  8
3200LEVEL
 62
13
 10
2720.956
 20
-4940.975
 30
2027.001
 70
    32
  0
VERTEX
  8
3200LEVEL
 62
13
 10
2744.722
 20
-4980.968
 30
2027.000
 70
    32
  0
VERTEX
  8
3200LEVEL
 62
13
 10
2775.383
 20
-5021.872
 30
2027.000
 70
    32
  0
VERTEX
  8
3200LEVEL
 62
13
 10
2817.611
 20
-5052.343
 30
2027.000
 70
    32
  0
VERTEX
  8
3200LEVEL
 62
13
 10
2847.995
 20
-5080.361
 30
2027.001
 70
    32
  0
VERTEX
  8
3200LEVEL
 62
13
 10
2902.279
 20
-5115.330
 30
2027.000
 70
    32
  0
VERTEX
  8
3200LEVEL
 62
13
 10
2932.099
 20
-5137.478
 30
2027.000
 70
    32
  0
SEQEND
  8
3200LEVEL
  0
POLYLINE
  8
3200LEVEL
 62
13
 66
     1
 70
     8
  0
VERTEX
  8
3200LEVEL
 62
13
 10
2932.099
 20
-5137.478
 30
2027.000
 70
    32
  0
VERTEX
  8
3200LEVEL
 62
13
 10
2953.595
 20
-5175.559
 30
2027.000
 70
    32
  0
VERTEX
  8
3200LEVEL
 62
13
 10
2970.649
 20
-5213.005
 30
2027.000
 70
    32
  0
VERTEX
  8
3200LEVEL
 62
13
 10
3017.461
 20
-5239.599
 30
2027.000
 70
    32
  0
SEQEND
  8
3200LEVEL
  0
POLYLINE
  8
3200LEVEL
 62
13
 66
     1
 70
     8
  0
VERTEX
  8
3200LEVEL
 62
13
 10
3031.424
 20
-5233.539
 30
2027.000
 70
    32
  0
VERTEX
  8
3200LEVEL
 62
13
 10
3064.496
 20
-5220.643
 30
2027.000
 70
    32
  0
VERTEX
  8
3200LEVEL
 62
13
 10
3090.517
 20
-5213.035
 30
2027.000
 70
    32
  0
VERTEX
  8
3200LEVEL
 62
13
 10
3091.163
 20
-5211.730
 30
2027.001
 70
    32
  0
VERTEX
  8
3200LEVEL
 62
13
 10
3130.468
 20
-5198.940
 30
2027.001
 70
    32
  0
VERTEX
  8
3200LEVEL
 62
13
 10
3205.147
 20
-5225.502
 30
2027.001
 70
    32
  0
VERTEX
  8
3200LEVEL
 62
13
 10
3275.896
 20
-5357.328
 30
2027.001
 70
    32
  0
VERTEX
  8
3200LEVEL
 62
13
 10
3314.218
 20
-5452.755
 30
2027.001
 70
    32
  0
VERTEX
  8
3200LEVEL
 62
13
 10
3345.662
 20
-5559.986
 30
2027.001
 70
    32
  0
VERTEX
  8
3200LEVEL
 62
13
 10
3382.019
 20
-5680.990
 30
2027.001
 70
    32
  0
VERTEX
  8
3200LEVEL
 62
13
 10
3420.342
 20
-5787.238
 30
2027.001
 70
    32
  0
VERTEX
  8
3200LEVEL
 62
13
 10
3477.334
 20
-5892.502
 30
2027.001
 70
    32
  0
VERTEX
  8
3200LEVEL
 62
13
 10
3526.465
 20
-5961.367
 30
2027.001
 70
    32
  0
VERTEX
  8
3200LEVEL
 62
13
 10
3597.278
 20
-6034.258
 30
2027.000
 70
    32
  0
VERTEX
  8
3200LEVEL
 62
13
 10
3664.321
 20
-6083.138
 30
2027.000
 70
    32
  0
VERTEX
  8
3200LEVEL
 62
13
 10
3707.316
 20
-6148.724
 30
2027.000
 70
    32
  0
VERTEX
  8
3200LEVEL
 62
13
 10
3751.226
 20
-6218.470
 30
2027.000
 70
    32
  0
VERTEX
  8
3200LEVEL
 62
13
 10
3796.899
 20
-6288.216
 30
2027.000
 70
    32
  0
VERTEX
  8
3200LEVEL
 62
13
 10
3842.858
 20
-6343.649
 30
2027.000
 70
    32
  0
VERTEX
  8
3200LEVEL
 62
13
 10
3892.012
 20
-6311.650
 30
2027.000
 70
    32
  0
SEQEND
  8
3200LEVEL
  0
POLYLINE
  8
3200LEVEL
 62
13
 66
     1
 70
     8
  0
VERTEX
  8
3200LEVEL
 62
13
 10
3896.883
 20
-6310.771
 30
2027.000
 70
    32
  0
VERTEX
  8
3200LEVEL
 62
13
 10
4009.590
 20
-6442.053
 30
2027.000
 70
    32
  0
VERTEX
  8
3200LEVEL
 62
13
 10
4052.870
 20
-6493.326
 30
2027.000
 70
    32
  0
VERTEX
  8
3200LEVEL
 62
13
 10
4033.991
 20
-6424.644
 30
2027.000
 70
    32
  0
VERTEX
  8
3200LEVEL
 62
13
 10
3991.001
 20
-6339.668
 30
2027.000
 70
    32
  0
VERTEX
  8
3200LEVEL
 62
13
 10
3944.063
 20
-6255.889
 30
2027.000
 70
    32
  0
VERTEX
  8
3200LEVEL
 62
13
 10
3897.827
 20
-6179.515
 30
2027.000
 70
    32
  0
VERTEX
  8
3200LEVEL
 62
13
 10
3855.682
 20
-6100.955
 30
2027.000
 70
    32
  0
VERTEX
  8
3200LEVEL
 62
13
 10
3821.503
 20
-6026.558
 30
2027.000
 70
    32
  0
VERTEX
  8
3200LEVEL
 62
13
 10
3791.907
 20
-5953.572
 30
2027.000
 70
    32
  0
VERTEX
  8
3200LEVEL
 62
13
 10
3761.819
 20
-5875.228
 30
2027.000
 70
    32
  0
VERTEX
  8
3200LEVEL
 62
13
 10
3747.713
 20
-5851.328
 30
2027.000
 70
    32
  0
SEQEND
  8
3200LEVEL
  0
POLYLINE
  8
3200LEVEL
 62
13
 66
     1
 70
     8
  0
VERTEX
  8
3200LEVEL
 62
13
 10
3705.495
 20
-5729.090
 30
2027.000
 70
    32
  0
VERTEX
  8
3200LEVEL
 62
13
 10
3787.214
 20
-5833.280
 30
2027.000
 70
    32
  0
VERTEX
  8
3200LEVEL
 62
13
 10
3845.713
 20
-5927.779
 30
2027.000
 70
    32
  0
VERTEX
  8
3200LEVEL
 62
13
 10
3906.962
 20
-6024.183
 30
2027.000
 70
    32
  0
VERTEX
  8
3200LEVEL
 62
13
 10
3984.430
 20
-6116.359
 30
2027.000
 70
    32
  0
VERTEX
  8
3200LEVEL
 62
13
 10
4056.748
 20
-6216.362
 30
2027.000
 70
    32
  0
VERTEX
  8
3200LEVEL
 62
13
 10
4117.713
 20
-6320.027
 30
2027.000
 70
    32
  0
VERTEX
  8
3200LEVEL
 62
13
 10
4196.520
 20
-6413.403
 30
2027.000
 70
    32
  0
VERTEX
  8
3200LEVEL
 62
13
 10
4250.091
 20
-6480.754
 30
2027.000
 70
    32
  0
VERTEX
  8
3200LEVEL
 62
13
 10
4296.119
 20
-6542.745
 30
2027.000
 70
    32
  0
VERTEX
  8
3200LEVEL
 62
13
 10
4349.763
 20
-6600.788
 30
2027.000
 70
    32
  0
VERTEX
  8
3200LEVEL
 62
13
 10
4413.059
 20
-6686.404
 30
2027.000
 70
    32
  0
VERTEX
  8
3200LEVEL
 62
13
 10
4477.275
 20
-6762.078
 30
2027.000
 70
    32
  0
VERTEX
  8
3200LEVEL
 62
13
 10
4531.127
 20
-6830.980
 30
2027.000
 70
    32
  0
VERTEX
  8
3200LEVEL
 62
13
 10
4579.904
 20
-6898.401
 30
2027.000
 70
    32
  0
VERTEX
  8
3200LEVEL
 62
13
 10
4623.675
 20
-6958.557
 30
2027.000
 70
    32
  0
VERTEX
  8
3200LEVEL
 62
13
 10
4677.316
 20
-7028.940
 30
2027.000
 70
    32
  0
SEQEND
  8
3200LEVEL
  0
POLYLINE
  8
3200LEVEL
 62
7
 66
     1
 70
     8
  0
VERTEX
  8
3200LEVEL
 62
7
 10
3023.342
 20
-5406.146
 30
2027.000
 70
    32
  0
VERTEX
  8
3200LEVEL
 62
7
 10
3006.920
 20
-5376.598
 30
2027.000
 70
    32
  0
VERTEX
  8
3200LEVEL
 62
7
 10
2985.574
 20
-5334.701
 30
2027.001
 70
    32
  0
VERTEX
  8
3200LEVEL
 62
7
 10
2958.214
 20
-5312.210
 30
2027.000
 70
    32
  0
VERTEX
  8
3200LEVEL
 62
7
 10
2932.975
 20
-5298.524
 30
2027.000
 70
    32
  0
VERTEX
  8
3200LEVEL
 62
7
 10
2967.267
 20
-5348.584
 30
2027.001
 70
    32
  0
VERTEX
  8
3200LEVEL
 62
7
 10
2980.761
 20
-5376.380
 30
2027.000
 70
    32
  0
VERTEX
  8
3200LEVEL
 62
7
 10
2962.274
 20
-5352.472
 30
2027.001
 70
    32
  0
VERTEX
  8
3200LEVEL
 62
7
 10
2933.317
 20
-5336.600
 30
2027.000
 70
    32
  0
VERTEX
  8
3200LEVEL
 62
7
 10
2892.636
 20
-5323.475
 30
2027.000
 70
    32
  0
VERTEX
  8
3200LEVEL
 62
7
 10
2863.168
 20
-5304.147
 30
2027.000
 70
    32
  0
SEQEND
  8
3200LEVEL
  0
POLYLINE
  8
3200LEVEL
 62
7
 66
     1
 70
     8
  0
VERTEX
  8
3200LEVEL
 62
7
 10
2824.444
 20
-5244.919
 30
2027.000
 70
    32
  0
VERTEX
  8
3200LEVEL
 62
7
 10
2793.881
 20
-5205.838
 30
2027.000
 70
    32
  0
VERTEX
  8
3200LEVEL
 62
7
 10
2782.527
 20
-5213.027
 30
2027.000
 70
    32
  0
VERTEX
  8
3200LEVEL
 62
7
 10
2753.621
 20
-5200.328
 30
2027.000
 70
    32
  0
VERTEX
  8
3200LEVEL
 62
7
 10
2717.073
 20
-5175.323
 30
2027.001
 70
    32
  0
VERTEX
  8
3200LEVEL
 62
7
 10
2683.335
 20
-5151.235
 30
2027.000
 70
    32
  0
VERTEX
  8
3200LEVEL
 62
7
 10
2683.048
 20
-5169.074
 30
2027.000
 70
    32
  0
VERTEX
  8
3200LEVEL
 62
7
 10
2708.752
 20
-5182.542
 30
2027.001
 70
    32
  0
VERTEX
  8
3200LEVEL
 62
7
 10
2767.294
 20
-5224.446
 30
2027.000
 70
    32
  0
VERTEX
  8
3200LEVEL
 62
7
 10
2791.410
 20
-5238.075
 30
2027.001
 70
    32
  0
VERTEX
  8
3200LEVEL
 62
7
 10
2822.274
 20
-5294.265
 30
2027.000
 70
    32
  0
VERTEX
  8
3200LEVEL
 62
7
 10
2840.228
 20
-5321.373
 30
2027.001
 70
    32
  0
VERTEX
  8
3200LEVEL
 62
7
 10
2868.460
 20
-5354.733
 30
2027.000
 70
    32
  0
SEQEND
  8
3200LEVEL
  0
POLYLINE
  8
3200LEVEL
 62
7
 66
     1
 70
     8
  0
VERTEX
  8
3200LEVEL
 62
7
 10
2877.927
 20
-5358.993
 30
2027.000
 70
    32
  0
VERTEX
  8
3200LEVEL
 62
7
 10
2928.542
 20
-5375.579
 30
2027.001
 70
    32
  0
VERTEX
  8
3200LEVEL
 62
7
 10
2957.624
 20
-5414.873
 30
2027.000
 70
    32
  0
VERTEX
  8
3200LEVEL
 62
7
 10
2995.126
 20
-5451.971
 30
2027.000
 70
    32
  0
VERTEX
  8
3200LEVEL
 62
7
 10
3035.946
 20
-5474.685
 30
2027.000
 70
    32
  0
VERTEX
  8
3200LEVEL
 62
7
 10
3069.363
 20
-5492.815
 30
2027.000
 70
    32
  0
VERTEX
  8
3200LEVEL
 62
7
 10
3088.393
 20
-5525.255
 30
2027.000
 70
    32
  0
VERTEX
  8
3200LEVEL
 62
7
 10
3091.626
 20
-5564.248
 30
2027.000
 70
    32
  0
VERTEX
  8
3200LEVEL
 62
7
 10
3108.892
 20
-5598.450
 30
2027.000
 70
    32
  0
VERTEX
  8
3200LEVEL
 62
7
 10
3145.054
 20
-5637.874
 30
2027.000
 70
    32
  0
VERTEX
  8
3200LEVEL
 62
7
 10
3167.674
 20
-5692.737
 30
2027.000
 70
    32
  0
VERTEX
  8
3200LEVEL
 62
7
 10
3180.777
 20
-5740.194
 30
2027.000
 70
    32
  0
VERTEX
  8
3200LEVEL
 62
7
 10
3168.579
 20
-5739.204
 30
2027.000
 70
    32
  0
VERTEX
  8
3200LEVEL
 62
7
 10
3179.856
 20
-5780.215
 30
2027.001
 70
    32
  0
VERTEX
  8
3200LEVEL
 62
7
 10
3191.410
 20
-5796.111
 30
2027.000
 70
    32
  0
VERTEX
  8
3200LEVEL
 62
7
 10
3203.744
 20
-5819.030
 30
2027.000
 70
    32
  0
VERTEX
  8
3200LEVEL
 62
7
 10
3203.656
 20
-5842.871
 30
2027.001
 70
    32
  0
VERTEX
  8
3200LEVEL
 62
7
 10
3195.767
 20
-5853.649
 30
2027.000
 70
    32
  0
VERTEX
  8
3200LEVEL
 62
7
 10
3204.866
 20
-5879.252
 30
2027.001
 70
    32
  0
VERTEX
  8
3200LEVEL
 62
7
 10
3228.541
 20
-5904.425
 30
2027.000
 70
    32
  0
VERTEX
  8
3200LEVEL
 62
7
 10
3257.653
 20
-5940.322
 30
2027.000
 70
    32
  0
VERTEX
  8
3200LEVEL
 62
7
 10
3280.136
 20
-5980.307
 30
2027.000
 70
    32
  0
VERTEX
  8
3200LEVEL
 62
7
 10
3305.579
 20
-6026.004
 30
2027.000
 70
    32
  0
VERTEX
  8
3200LEVEL
 62
7
 10
3329.401
 20
-6067.188
 30
2027.000
 70
    32
  0
VERTEX
  8
3200LEVEL
 62
7
 10
3364.362
 20
-6113.241
 30
2027.000
 70
    32
  0
VERTEX
  8
3200LEVEL
 62
7
 10
3403.656
 20
-6182.174
 30
2027.001
 70
    32
  0
VERTEX
  8
3200LEVEL
 62
7
 10
3369.276
 20
-6198.559
 30
2027.000
 70
    32
  0
VERTEX
  8
3200LEVEL
 62
7
 10
3349.543
 20
-6160.479
 30
2027.000
 70
    32
  0
VERTEX
  8
3200LEVEL
 62
7
 10
3319.306
 20
-6114.851
 30
2027.000
 70
    32
  0
VERTEX
  8
3200LEVEL
 62
7
 10
3280.325
 20
-6059.556
 30
2027.001
 70
    32
  0
VERTEX
  8
3200LEVEL
 62
7
 10
3250.301
 20
-6016.330
 30
2027.000
 70
    32
  0
VERTEX
  8
3200LEVEL
 62
7
 10
3217.586
 20
-5988.138
 30
2027.001
 70
    32
  0
VERTEX
  8
3200LEVEL
 62
7
 10
3204.694
 20
-5985.127
 30
2027.001
 70
    32
  0
VERTEX
  8
3200LEVEL
 62
7
 10
3193.477
 20
-5987.548
 30
2027.000
 70
    32
  0
VERTEX
  8
3200LEVEL
 62
7
 10
3147.541
 20
-5921.021
 30
2027.001
 70
    32
  0
VERTEX
  8
3200LEVEL
 62
7
 10
3127.010
 20
-5888.887
 30
2027.000
 70
    32
  0
VERTEX
  8
3200LEVEL
 62
7
 10
3101.560
 20
-5838.846
 30
2027.001
 70
    32
  0
VERTEX
  8
3200LEVEL
 62
7
 10
3070.628
 20
-5788.395
 30
2027.000
 70
    32
  0
VERTEX
  8
3200LEVEL
 62
7
 10
3058.640
 20
-5791.212
 30
2027.000
 70
    32
  0
VERTEX
  8
3200LEVEL
 62
7
 10
3080.839
 20
-5838.460
 30
2027.000
 70
    32
  0
VERTEX
  8
3200LEVEL
 62
7
 10
3079.214
 20
-5853.904
 30
2027.001
 70
    32
  0
VERTEX
  8
3200LEVEL
 62
7
 10
3100.779
 20
-5894.450
 30
2027.000
 70
    32
  0
VERTEX
  8
3200LEVEL
 62
7
 10
3129.062
 20
-5933.068
 30
2027.001
 70
    32
  0
VERTEX
  8
3200LEVEL
 62
7
 10
3187.935
 20
-6009.650
 30
2027.001
 70
    32
  0
VERTEX
  8
3200LEVEL
 62
7
 10
3216.802
 20
-6042.763
 30
2027.000
 70
    32
  0
VERTEX
  8
3200LEVEL
 62
7
 10
3252.393
 20
-6081.930
 30
2027.001
 70
    32
  0
VERTEX
  8
3200LEVEL
 62
7
 10
3297.944
 20
-6164.965
 30
2027.001
 70
    32
  0
VERTEX
  8
3200LEVEL
 62
7
 10
3310.836
 20
-6188.198
 30
2027.001
 70
    32
  0
VERTEX
  8
3200LEVEL
 62
7
 10
3314.137
 20
-6196.712
 30
2027.000
 70
    32
  0
VERTEX
  8
3200LEVEL
 62
7
 10
3289.044
 20
-6166.175
 30
2027.000
 70
    32
  0
VERTEX
  8
3200LEVEL
 62
7
 10
3263.811
 20
-6126.048
 30
2027.000
 70
    32
  0
VERTEX
  8
3200LEVEL
 62
7
 10
3241.962
 20
-6088.672
 30
2027.000
 70
    32
  0
VERTEX
  8
3200LEVEL
 62
7
 10
3211.370
 20
-6052.563
 30
2027.000
 70
    32
  0
VERTEX
  8
3200LEVEL
 62
7
 10
3168.167
 20
-6015.673
 30
2027.001
 70
    32
  0
VERTEX
  8
3200LEVEL
 62
7
 10
3175.472
 20
-6028.581
 30
2027.001
 70
    32
  0
VERTEX
  8
3200LEVEL
 62
7
 10
3186.973
 20
-6054.108
 30
2027.000
 70
    32
  0
VERTEX
  8
3200LEVEL
 62
7
 10
3229.188
 20
-6097.418
 30
2027.001
 70
    32
  0
VERTEX
  8
3200LEVEL
 62
7
 10
3242.799
 20
-6126.818
 30
2027.000
 70
    32
  0
VERTEX
  8
3200LEVEL
 62
7
 10
3267.433
 20
-6186.907
 30
2027.001
 70
    32
  0
VERTEX
  8
3200LEVEL
 62
7
 10
3242.080
 20
-6147.325
 30
2027.001
 70
    32
  0
VERTEX
  8
3200LEVEL
 62
7
 10
3218.015
 20
-6105.163
 30
2027.001
 70
    32
  0
VERTEX
  8
3200LEVEL
 62
7
 10
3187.886
 20
-6068.845
 30
2027.000
 70
    32
  0
VERTEX
  8
3200LEVEL
 62
7
 10
3157.424
 20
-6030.302
 30
2027.001
 70
    32
  0
VERTEX
  8
3200LEVEL
 62
7
 10
3116.761
 20
-5988.656
 30
2027.000
 70
    32
  0
VERTEX
  8
3200LEVEL
 62
7
 10
3095.429
 20
-5959.782
 30
2027.001
 70
    32
  0
VERTEX
  8
3200LEVEL
 62
7
 10
3031.677
 20
-5888.998
 30
2027.001
 70
    32
  0
VERTEX
  8
3200LEVEL
 62
7
 10
2971.370
 20
-5814.761
 30
2027.001
 70
    32
  0
VERTEX
  8
3200LEVEL
 62
7
 10
2947.727
 20
-5790.197
 30
2027.000
 70
    32
  0
VERTEX
  8
3200LEVEL
 62
7
 10
2918.928
 20
-5733.440
 30
2027.001
 70
    32
  0
VERTEX
  8
3200LEVEL
 62
7
 10
2893.947
 20
-5717.276
 30
2027.000
 70
    32
  0
VERTEX
  8
3200LEVEL
 62
7
 10
2869.697
 20
-5694.918
 30
2027.000
 70
    32
  0
VERTEX
  8
3200LEVEL
 62
7
 10
2900.020
 20
-5745.916
 30
2027.001
 70
    32
  0
VERTEX
  8
3200LEVEL
 62
7
 10
2911.193
 20
-5774.312
 30
2027.001
 70
    32
  0
VERTEX
  8
3200LEVEL
 62
7
 10
2887.988
 20
-5754.091
 30
2027.001
 70
    32
  0
VERTEX
  8
3200LEVEL
 62
7
 10
2826.537
 20
-5685.253
 30
2027.001
 70
    32
  0
VERTEX
  8
3200LEVEL
 62
7
 10
2808.429
 20
-5670.788
 30
2027.000
 70
    32
  0
VERTEX
  8
3200LEVEL
 62
7
 10
2815.365
 20
-5692.997
 30
2027.001
 70
    32
  0
VERTEX
  8
3200LEVEL
 62
7
 10
2861.775
 20
-5778.184
 30
2027.001
 70
    32
  0
VERTEX
  8
3200LEVEL
 62
7
 10
2886.869
 20
-5821.277
 30
2027.000
 70
    32
  0
VERTEX
  8
3200LEVEL
 62
7
 10
2920.541
 20
-5851.016
 30
2027.001
 70
    32
  0
VERTEX
  8
3200LEVEL
 62
7
 10
3032.538
 20
-6004.669
 30
2027.001
 70
    32
  0
VERTEX
  8
3200LEVEL
 62
7
 10
3066.544
 20
-6043.924
 30
2027.000
 70
    32
  0
VERTEX
  8
3200LEVEL
 62
7
 10
3098.751
 20
-6107.462
 30
2027.000
 70
    32
  0
VERTEX
  8
3200LEVEL
 62
7
 10
3103.113
 20
-6143.846
 30
2027.000
 70
    32
  0
VERTEX
  8
3200LEVEL
 62
7
 10
3066.137
 20
-6098.760
 30
2027.001
 70
    32
  0
VERTEX
  8
3200LEVEL
 62
7
 10
3046.323
 20
-6078.043
 30
2027.001
 70
    32
  0
VERTEX
  8
3200LEVEL
 62
7
 10
3060.969
 20
-6102.213
 30
2027.001
 70
    32
  0
VERTEX
  8
3200LEVEL
 62
7
 10
3091.405
 20
-6158.792
 30
2027.000
 70
    32
  0
VERTEX
  8
3200LEVEL
 62
7
 10
3044.600
 20
-6115.161
 30
2027.001
 70
    32
  0
VERTEX
  8
3200LEVEL
 62
7
 10
2986.016
 20
-6040.061
 30
2027.001
 70
    32
  0
VERTEX
  8
3200LEVEL
 62
7
 10
2923.125
 20
-5969.277
 30
2027.001
 70
    32
  0
VERTEX
  8
3200LEVEL
 62
7
 10
2869.711
 20
-5887.271
 30
2027.001
 70
    32
  0
VERTEX
  8
3200LEVEL
 62
7
 10
2847.995
 20
-5848.925
 30
2027.001
 70
    32
  0
VERTEX
  8
3200LEVEL
 62
7
 10
2830.243
 20
-5803.389
 30
2027.001
 70
    32
  0
VERTEX
  8
3200LEVEL
 62
7
 10
2783.875
 20
-5736.779
 30
2027.000
 70
    32
  0
VERTEX
  8
3200LEVEL
 62
7
 10
2778.096
 20
-5719.536
 30
2027.001
 70
    32
  0
VERTEX
  8
3200LEVEL
 62
7
 10
2712.635
 20
-5650.677
 30
2027.001
 70
    32
  0
VERTEX
  8
3200LEVEL
 62
7
 10
2676.805
 20
-5596.295
 30
2027.000
 70
    32
  0
VERTEX
  8
3200LEVEL
 62
7
 10
2633.594
 20
-5549.818
 30
2027.000
 70
    32
  0
VERTEX
  8
3200LEVEL
 62
7
 10
2593.917
 20
-5500.742
 30
2027.001
 70
    32
  0
VERTEX
  8
3200LEVEL
 62
7
 10
2537.887
 20
-5424.109
 30
2027.001
 70
    32
  0
VERTEX
  8
3200LEVEL
 62
7
 10
2495.084
 20
-5380.910
 30
2027.000
 70
    32
  0
VERTEX
  8
3200LEVEL
 62
7
 10
2475.200
 20
-5350.807
 30
2027.001
 70
    32
  0
VERTEX
  8
3200LEVEL
 62
7
 10
2426.936
 20
-5269.732
 30
2027.001
 70
    32
  0
VERTEX
  8
3200LEVEL
 62
7
 10
2420.279
 20
-5264.178
 30
2027.001
 70
    32
  0
VERTEX
  8
3200LEVEL
 62
7
 10
2464.105
 20
-5358.027
 30
2027.001
 70
    32
  0
VERTEX
  8
3200LEVEL
 62
7
 10
2507.375
 20
-5447.988
 30
2027.001
 70
    32
  0
VERTEX
  8
3200LEVEL
 62
7
 10
2541.660
 20
-5504.174
 30
2027.000
 70
    32
  0
VERTEX
  8
3200LEVEL
 62
7
 10
2562.295
 20
-5524.065
 30
2027.001
 70
    32
  0
VERTEX
  8
3200LEVEL
 62
7
 10
2576.164
 20
-5556.273
 30
2027.001
 70
    32
  0
VERTEX
  8
3200LEVEL
 62
7
 10
2618.326
 20
-5601.808
 30
2027.001
 70
    32
  0
VERTEX
  8
3200LEVEL
 62
7
 10
2668.254
 20
-5682.328
 30
2027.001
 70
    32
  0
VERTEX
  8
3200LEVEL
 62
7
 10
2677.977
 20
-5702.484
 30
2027.000
 70
    32
  0
VERTEX
  8
3200LEVEL
 62
7
 10
2677.970
 20
-5730.688
 30
2027.000
 70
    32
  0
VERTEX
  8
3200LEVEL
 62
7
 10
2659.377
 20
-5689.547
 30
2027.001
 70
    32
  0
VERTEX
  8
3200LEVEL
 62
7
 10
2610.004
 20
-5607.917
 30
2027.001
 70
    32
  0
VERTEX
  8
3200LEVEL
 62
7
 10
2578.383
 20
-5574.598
 30
2027.001
 70
    32
  0
VERTEX
  8
3200LEVEL
 62
7
 10
2554.529
 20
-5530.729
 30
2027.001
 70
    32
  0
VERTEX
  8
3200LEVEL
 62
7
 10
2502.382
 20
-5451.875
 30
2027.001
 70
    32
  0
VERTEX
  8
3200LEVEL
 62
7
 10
2455.782
 20
-5364.692
 30
2027.001
 70
    32
  0
VERTEX
  8
3200LEVEL
 62
7
 10
2430.646
 20
-5345.498
 30
2027.000
 70
    32
  0
VERTEX
  8
3200LEVEL
 62
7
 10
2412.513
 20
-5280.838
 30
2027.001
 70
    32
  0
VERTEX
  8
3200LEVEL
 62
7
 10
2384.135
 20
-5246.419
 30
2027.000
 70
    32
  0
VERTEX
  8
3200LEVEL
 62
7
 10
2352.063
 20
-5204.809
 30
2027.000
 70
    32
  0
VERTEX
  8
3200LEVEL
 62
7
 10
2312.900
 20
-5122.094
 30
2022.000
 70
    32
  0
VERTEX
  8
3200LEVEL
 62
7
 10
2266.851
 20
-5068.209
 30
2027.000
 70
    32
  0
VERTEX
  8
3200LEVEL
 62
7
 10
2240.630
 20
-5031.466
 30
2027.000
 70
    32
  0
VERTEX
  8
3200LEVEL
 62
7
 10
2227.393
 20
-4955.030
 30
2027.000
 70
    32
  0
VERTEX
  8
3200LEVEL
 62
7
 10
2210.485
 20
-4898.970
 30
2027.000
 70
    32
  0
VERTEX
  8
3200LEVEL
 62
7
 10
2192.448
 20
-4847.281
 30
2027.000
 70
    32
  0
VERTEX
  8
3200LEVEL
 62
7
 10
2161.927
 20
-4807.153
 30
2027.000
 70
    32
  0
VERTEX
  8
3200LEVEL
 62
7
 10
2177.142
 20
-4864.482
 30
2027.000
 70
    32
  0
VERTEX
  8
3200LEVEL
 62
7
 10
2197.220
 20
-4935.350
 30
2027.000
 70
    32
  0
VERTEX
  8
3200LEVEL
 62
7
 10
2212.854
 20
-5010.870
 30
2027.000
 70
    32
  0
VERTEX
  8
3200LEVEL
 62
7
 10
2187.008
 20
-4975.651
 30
2022.000
 70
    32
  0
VERTEX
  8
3200LEVEL
 62
7
 10
2156.386
 20
-4879.157
 30
2022.000
 70
    32
  0
VERTEX
  8
3200LEVEL
 62
7
 10
2135.264
 20
-4847.407
 30
2027.000
 70
    32
  0
VERTEX
  8
3200LEVEL
 62
7
 10
2108.838
 20
-4785.704
 30
2027.000
 70
    32
  0
VERTEX
  8
3200LEVEL
 62
7
 10
2076.995
 20
-4725.903
 30
2022.000
 70
    32
  0
VERTEX
  8
3200LEVEL
 62
7
 10
2007.811
 20
-4641.897
 30
2022.000
 70
    32
  0
VERTEX
  8
3200LEVEL
 62
7
 10
2002.060
 20
-4606.228
 30
2027.000
 70
    32
  0
VERTEX
  8
3200LEVEL
 62
7
 10
1992.598
 20
-4560.349
 30
2027.001
 70
    32
  0
VERTEX
  8
3200LEVEL
 62
7
 10
1939.642
 20
-4487.004
 30
2027.001
 70
    32
  0
VERTEX
  8
3200LEVEL
 62
7
 10
1926.011
 20
-4483.027
 30
2027.000
 70
    32
  0
VERTEX
  8
3200LEVEL
 62
7
 10
1896.032
 20
-4455.013
 30
2027.001
 70
    32
  0
VERTEX
  8
3200LEVEL
 62
7
 10
1877.341
 20
-4405.855
 30
2027.001
 70
    32
  0
VERTEX
  8
3200LEVEL
 62
7
 10
1816.598
 20
-4318.466
 30
2027.001
 70
    32
  0
VERTEX
  8
3200LEVEL
 62
7
 10
1744.174
 20
-4231.075
 30
2027.001
 70
    32
  0
VERTEX
  8
3200LEVEL
 62
7
 10
1688.103
 20
-4140.564
 30
2027.001
 70
    32
  0
VERTEX
  8
3200LEVEL
 62
7
 10
1648.387
 20
-4084.385
 30
2027.001
 70
    32
  0
VERTEX
  8
3200LEVEL
 62
7
 10
1610.227
 20
-4028.205
 30
2027.001
 70
    32
  0
VERTEX
  8
3200LEVEL
 62
7
 10
1569.732
 20
-3969.685
 30
2027.001
 70
    32
  0
VERTEX
  8
3200LEVEL
 62
7
 10
1533.909
 20
-3915.847
 30
2027.001
 70
    32
  0
VERTEX
  8
3200LEVEL
 62
7
 10
1484.069
 20
-3874.492
 30
2027.001
 70
    32
  0
VERTEX
  8
3200LEVEL
 62
7
 10
1463.821
 20
-3854.986
 30
2027.001
 70
    32
  0
VERTEX
  8
3200LEVEL
 62
7
 10
1442.794
 20
-3824.555
 30
2027.001
 70
    32
  0
VERTEX
  8
3200LEVEL
 62
7
 10
1433.449
 20
-3833.918
 30
2027.001
 70
    32
  0
VERTEX
  8
3200LEVEL
 62
7
 10
1452.918
 20
-3860.447
 30
2027.001
 70
    32
  0
VERTEX
  8
3200LEVEL
 62
7
 10
1470.829
 20
-3882.295
 30
2027.001
 70
    32
  0
VERTEX
  8
3200LEVEL
 62
7
 10
1519.112
 20
-3928.331
 30
2027.001
 70
    32
  0
VERTEX
  8
3200LEVEL
 62
7
 10
1557.272
 20
-3975.927
 30
2027.001
 70
    32
  0
VERTEX
  8
3200LEVEL
 62
7
 10
1599.325
 20
-4032.107
 30
2027.001
 70
    32
  0
VERTEX
  8
3200LEVEL
 62
7
 10
1638.263
 20
-4092.187
 30
2027.001
 70
    32
  0
VERTEX
  8
3200LEVEL
 62
7
 10
1677.979
 20
-4148.367
 30
2027.001
 70
    32
  0
VERTEX
  8
3200LEVEL
 62
7
 10
1725.484
 20
-4214.690
 30
2027.001
 70
    32
  0
VERTEX
  8
3200LEVEL
 62
7
 10
1740.280
 20
-4234.977
 30
2027.001
 70
    32
  0
VERTEX
  8
3200LEVEL
 62
7
 10
1803.359
 20
-4329.389
 30
2027.001
 70
    32
  0
VERTEX
  8
3200LEVEL
 62
7
 10
1869.554
 20
-4412.098
 30
2027.001
 70
    32
  0
VERTEX
  8
3200LEVEL
 62
7
 10
1882.014
 20
-4462.815
 30
2027.001
 70
    32
  0
VERTEX
  8
3200LEVEL
 62
7
 10
1922.509
 20
-4497.927
 30
2027.001
 70
    32
  0
VERTEX
  8
3200LEVEL
 62
7
 10
1983.252
 20
-4572.053
 30
2027.001
 70
    32
  0
VERTEX
  8
3200LEVEL
 62
7
 10
1992.186
 20
-4617.155
 30
2027.000
 70
    32
  0
VERTEX
  8
3200LEVEL
 62
7
 10
1962.848
 20
-4639.146
 30
2027.000
 70
    32
  0
VERTEX
  8
3200LEVEL
 62
7
 10
1946.651
 20
-4613.407
 30
2027.001
 70
    32
  0
VERTEX
  8
3200LEVEL
 62
7
 10
1878.899
 20
-4533.040
 30
2027.001
 70
    32
  0
VERTEX
  8
3200LEVEL
 62
7
 10
1838.404
 20
-4497.927
 30
2027.001
 70
    32
  0
VERTEX
  8
3200LEVEL
 62
7
 10
1835.288
 20
-4452.672
 30
2027.001
 70
    32
  0
VERTEX
  8
3200LEVEL
 62
7
 10
1829.058
 20
-4441.748
 30
2027.001
 70
    32
  0
VERTEX
  8
3200LEVEL
 62
7
 10
1796.351
 20
-4409.757
 30
2027.001
 70
    32
  0
VERTEX
  8
3200LEVEL
 62
7
 10
1730.015
 20
-4392.019
 30
2027.000
 70
    32
  0
VERTEX
  8
3200LEVEL
 62
7
 10
1666.925
 20
-4324.313
 30
2027.000
 70
    32
  0
VERTEX
  8
3200LEVEL
 62
7
 10
1612.154
 20
-4263.589
 30
2027.000
 70
    32
  0
VERTEX
  8
3200LEVEL
 62
7
 10
1529.236
 20
-4173.335
 30
2027.001
 70
    32
  0
VERTEX
  8
3200LEVEL
 62
7
 10
1480.953
 20
-4121.057
 30
2027.001
 70
    32
  0
VERTEX
  8
3200LEVEL
 62
7
 10
1420.487
 20
-4063.150
 30
2027.000
 70
    32
  0
VERTEX
  8
3200LEVEL
 62
7
 10
1392.175
 20
-4022.743
 30
2027.001
 70
    32
  0
VERTEX
  8
3200LEVEL
 62
7
 10
1321.308
 20
-3955.640
 30
2027.001
 70
    32
  0
VERTEX
  8
3200LEVEL
 62
7
 10
1262.528
 20
-3847.137
 30
2027.000
 70
    32
  0
VERTEX
  8
3200LEVEL
 62
7
 10
1232.084
 20
-3783.599
 30
2027.000
 70
    32
  0
VERTEX
  8
3200LEVEL
 62
7
 10
1176.821
 20
-3715.754
 30
2027.000
 70
    32
  0
VERTEX
  8
3200LEVEL
 62
7
 10
1125.152
 20
-3656.230
 30
2027.000
 70
    32
  0
VERTEX
  8
3200LEVEL
 62
7
 10
1077.292
 20
-3591.207
 30
2027.000
 70
    32
  0
VERTEX
  8
3200LEVEL
 62
7
 10
1048.826
 20
-3555.277
 30
2022.000
 70
    32
  0
VERTEX
  8
3200LEVEL
 62
7
 10
1005.183
 20
-3563.797
 30
2022.000
 70
    32
  0
VERTEX
  8
3200LEVEL
 62
7
 10
1031.881
 20
-3597.048
 30
2027.000
 70
    32
  0
VERTEX
  8
3200LEVEL
 62
7
 10
1064.081
 20
-3690.553
 30
2027.000
 70
    32
  0
VERTEX
  8
3200LEVEL
 62
7
 10
1113.846
 20
-3751.064
 30
2027.000
 70
    32
  0
VERTEX
  8
3200LEVEL
 62
7
 10
1164.242
 20
-3824.760
 30
2027.000
 70
    32
  0
VERTEX
  8
3200LEVEL
 62
7
 10
1209.139
 20
-3896.410
 30
2027.000
 70
    32
  0
VERTEX
  8
3200LEVEL
 62
7
 10
1232.675
 20
-3955.433
 30
2027.000
 70
    32
  0
VERTEX
  8
3200LEVEL
 62
7
 10
1267.704
 20
-4013.331
 30
2027.000
 70
    32
  0
VERTEX
  8
3200LEVEL
 62
7
 10
1281.161
 20
-4053.032
 30
2027.000
 70
    32
  0
VERTEX
  8
3200LEVEL
 62
7
 10
1248.944
 20
-4028.274
 30
2027.000
 70
    32
  0
VERTEX
  8
3200LEVEL
 62
7
 10
1224.275
 20
-3991.250
 30
2027.000
 70
    32
  0
VERTEX
  8
3200LEVEL
 62
7
 10
1199.174
 20
-3987.154
 30
2027.000
 70
    32
  0
VERTEX
  8
3200LEVEL
 62
7
 10
1156.317
 20
-3932.921
 30
2027.000
 70
    32
  0
VERTEX
  8
3200LEVEL
 62
7
 10
1121.216
 20
-3884.330
 30
2027.000
 70
    32
  0
VERTEX
  8
3200LEVEL
 62
7
 10
1078.926
 20
-3817.335
 30
2027.000
 70
    32
  0
VERTEX
  8
3200LEVEL
 62
7
 10
1038.182
 20
-3792.752
 30
2022.000
 70
    32
  0
VERTEX
  8
3200LEVEL
 62
7
 10
1004.119
 20
-3739.506
 30
2022.000
 70
    32
  0
VERTEX
  8
3200LEVEL
 62
7
 10
943.444
 20
-3697.975
 30
2022.000
 70
    32
  0
VERTEX
  8
3200LEVEL
 62
7
 10
953.024
 20
-3719.273
 30
2022.000
 70
    32
  0
VERTEX
  8
3200LEVEL
 62
7
 10
1021.150
 20
-3802.336
 30
2022.000
 70
    32
  0
VERTEX
  8
3200LEVEL
 62
7
 10
1086.872
 20
-3904.346
 30
2027.000
 70
    32
  0
VERTEX
  8
3200LEVEL
 62
7
 10
1128.733
 20
-3991.931
 30
2027.000
 70
    32
  0
VERTEX
  8
3200LEVEL
 62
7
 10
1167.491
 20
-4080.079
 30
2027.000
 70
    32
  0
VERTEX
  8
3200LEVEL
 62
7
 10
1192.862
 20
-4131.558
 30
2027.000
 70
    32
  0
VERTEX
  8
3200LEVEL
 62
7
 10
1244.882
 20
-4195.665
 30
2027.000
 70
    32
  0
VERTEX
  8
3200LEVEL
 62
7
 10
1284.490
 20
-4272.602
 30
2027.000
 70
    32
  0
VERTEX
  8
3200LEVEL
 62
7
 10
1339.218
 20
-4330.166
 30
2027.001
 70
    32
  0
VERTEX
  8
3200LEVEL
 62
7
 10
1439.678
 20
-4430.821
 30
2027.001
 70
    32
  0
VERTEX
  8
3200LEVEL
 62
7
 10
1478.616
 20
-4525.233
 30
2027.001
 70
    32
  0
VERTEX
  8
3200LEVEL
 62
7
 10
1544.810
 20
-4593.117
 30
2027.001
 70
    32
  0
VERTEX
  8
3200LEVEL
 62
7
 10
1591.536
 20
-4675.827
 30
2027.001
 70
    32
  0
VERTEX
  8
3200LEVEL
 62
7
 10
1627.358
 20
-4743.710
 30
2027.001
 70
    32
  0
VERTEX
  8
3200LEVEL
 62
7
 10
1620.350
 20
-4746.831
 30
2027.001
 70
    32
  0
VERTEX
  8
3200LEVEL
 62
7
 10
1579.854
 20
-4685.970
 30
2027.001
 70
    32
  0
VERTEX
  8
3200LEVEL
 62
7
 10
1520.669
 20
-4611.843
 30
2027.001
 70
    32
  0
VERTEX
  8
3200LEVEL
 62
7
 10
1445.908
 20
-4547.861
 30
2027.001
 70
    32
  0
VERTEX
  8
3200LEVEL
 62
7
 10
1392.173
 20
-4470.615
 30
2027.001
 70
    32
  0
VERTEX
  8
3200LEVEL
 62
7
 10
1307.289
 20
-4352.014
 30
2027.001
 70
    32
  0
VERTEX
  8
3200LEVEL
 62
7
 10
1267.572
 20
-4322.363
 30
2027.001
 70
    32
  0
VERTEX
  8
3200LEVEL
 62
7
 10
1182.546
 20
-4217.719
 30
2027.000
 70
    32
  0
VERTEX
  8
3200LEVEL
 62
7
 10
1153.500
 20
-4197.193
 30
2027.000
 70
    32
  0
VERTEX
  8
3200LEVEL
 62
7
 10
1099.362
 20
-4135.882
 30
2027.001
 70
    32
  0
VERTEX
  8
3200LEVEL
 62
7
 10
1059.645
 20
-4043.030
 30
2027.001
 70
    32
  0
VERTEX
  8
3200LEVEL
 62
7
 10
1040.955
 20
-4014.940
 30
2027.001
 70
    32
  0
VERTEX
  8
3200LEVEL
 62
7
 10
1049.521
 20
-4053.174
 30
2027.001
 70
    32
  0
VERTEX
  8
3200LEVEL
 62
7
 10
1077.290
 20
-4154.303
 30
2027.000
 70
    32
  0
VERTEX
  8
3200LEVEL
 62
7
 10
1097.793
 20
-4197.418
 30
2022.000
 70
    32
  0
VERTEX
  8
3200LEVEL
 62
7
 10
1135.016
 20
-4240.129
 30
2027.000
 70
    32
  0
VERTEX
  8
3200LEVEL
 62
7
 10
1168.919
 20
-4288.297
 30
2027.000
 70
    32
  0
VERTEX
  8
3200LEVEL
 62
7
 10
1186.746
 20
-4337.940
 30
2027.000
 70
    32
  0
VERTEX
  8
3200LEVEL
 62
7
 10
1166.300
 20
-4327.711
 30
2027.000
 70
    32
  0
VERTEX
  8
3200LEVEL
 62
7
 10
1127.956
 20
-4273.620
 30
2027.000
 70
    32
  0
VERTEX
  8
3200LEVEL
 62
7
 10
1078.190
 20
-4220.160
 30
2027.000
 70
    32
  0
VERTEX
  8
3200LEVEL
 62
7
 10
1053.415
 20
-4171.774
 30
2027.001
 70
    32
  0
VERTEX
  8
3200LEVEL
 62
7
 10
993.451
 20
-4096.868
 30
2027.001
 70
    32
  0
VERTEX
  8
3200LEVEL
 62
7
 10
959.701
 20
-4062.681
 30
2027.000
 70
    32
  0
VERTEX
  8
3200LEVEL
 62
7
 10
923.363
 20
-4015.720
 30
2027.001
 70
    32
  0
VERTEX
  8
3200LEVEL
 62
7
 10
885.204
 20
-3977.487
 30
2027.001
 70
    32
  0
VERTEX
  8
3200LEVEL
 62
7
 10
915.575
 20
-4021.963
 30
2027.001
 70
    32
  0
VERTEX
  8
3200LEVEL
 62
7
 10
974.761
 20
-4112.474
 30
2027.001
 70
    32
  0
VERTEX
  8
3200LEVEL
 62
7
 10
1017.286
 20
-4149.494
 30
2027.000
 70
    32
  0
VERTEX
  8
3200LEVEL
 62
7
 10
1038.619
 20
-4183.478
 30
2027.001
 70
    32
  0
VERTEX
  8
3200LEVEL
 62
7
 10
1042.657
 20
-4202.735
 30
2027.000
 70
    32
  0
VERTEX
  8
3200LEVEL
 62
7
 10
1074.023
 20
-4245.755
 30
2027.000
 70
    32
  0
VERTEX
  8
3200LEVEL
 62
7
 10
1098.200
 20
-4275.657
 30
2027.000
 70
    32
  0
VERTEX
  8
3200LEVEL
 62
7
 10
1115.873
 20
-4304.626
 30
2027.001
 70
    32
  0
VERTEX
  8
3200LEVEL
 62
7
 10
1148.058
 20
-4411.344
 30
2027.001
 70
    32
  0
VERTEX
  8
3200LEVEL
 62
7
 10
1184.104
 20
-4500.061
 30
2027.001
 70
    32
  0
VERTEX
  8
3200LEVEL
 62
7
 10
1257.484
 20
-4564.349
 30
2027.001
 70
    32
  0
VERTEX
  8
3200LEVEL
 62
7
 10
1307.692
 20
-4646.638
 30
2027.001
 70
    32
  0
VERTEX
  8
3200LEVEL
 62
7
 10
1363.049
 20
-4725.069
 30
2027.001
 70
    32
  0
VERTEX
  8
3200LEVEL
 62
7
 10
1428.705
 20
-4795.786
 30
2027.001
 70
    32
  0
VERTEX
  8
3200LEVEL
 62
7
 10
1467.327
 20
-4839.502
 30
2027.001
 70
    32
  0
VERTEX
  8
3200LEVEL
 62
7
 10
1537.048
 20
-4942.407
 30
2027.001
 70
    32
  0
VERTEX
  8
3200LEVEL
 62
7
 10
1604.195
 20
-5043.135
 30
2027.001
 70
    32
  0
VERTEX
  8
3200LEVEL
 62
7
 10
1613.457
 20
-5120.707
 30
2027.001
 70
    32
  0
VERTEX
  8
3200LEVEL
 62
7
 10
1550.940
 20
-5186.701
 30
2027.001
 70
    32
  0
VERTEX
  8
3200LEVEL
 62
7
 10
1453.692
 20
-5201.753
 30
2027.001
 70
    32
  0
VERTEX
  8
3200LEVEL
 62
7
 10
1373.811
 20
-5111.445
 30
2027.001
 70
    32
  0
VERTEX
  8
3200LEVEL
 62
7
 10
947.772
 20
-4554.546
 30
2027.001
 70
    32
  0
VERTEX
  8
3200LEVEL
 62
7
 10
888.729
 20
-4476.974
 30
2027.001
 70
    32
  0
VERTEX
  8
3200LEVEL
 62
7
 10
834.317
 20
-4401.718
 30
2027.001
 70
    32
  0
VERTEX
  8
3200LEVEL
 62
7
 10
792.639
 20
-4314.883
 30
2027.001
 70
    32
  0
VERTEX
  8
3200LEVEL
 62
7
 10
766.012
 20
-4273.203
 30
2027.001
 70
    32
  0
VERTEX
  8
3200LEVEL
 62
7
 10
717.388
 20
-4180.580
 30
2027.001
 70
    32
  0
SEQEND
  8
3200LEVEL
  0
POLYLINE
  8
3200LEVEL
 62
7
 66
     1
 70
     8
  0
VERTEX
  8
3200LEVEL
 62
7
 10
3023.342
 20
-5406.146
 30
2027.000
 70
    32
  0
VERTEX
  8
3200LEVEL
 62
7
 10
3059.788
 20
-5436.545
 30
2027.000
 70
    32
  0
VERTEX
  8
3200LEVEL
 62
7
 10
3073.741
 20
-5467.503
 30
2027.000
 70
    32
  0
VERTEX
  8
3200LEVEL
 62
7
 10
3098.834
 20
-5503.329
 30
2027.000
 70
    32
  0
VERTEX
  8
3200LEVEL
 62
7
 10
3127.240
 20
-5538.873
 30
2027.000
 70
    32
  0
VERTEX
  8
3200LEVEL
 62
7
 10
3130.418
 20
-5521.951
 30
2027.000
 70
    32
  0
VERTEX
  8
3200LEVEL
 62
7
 10
3110.826
 20
-5482.884
 30
2027.000
 70
    32
  0
VERTEX
  8
3200LEVEL
 62
7
 10
3086.439
 20
-5442.122
 30
2027.000
 70
    32
  0
VERTEX
  8
3200LEVEL
 62
7
 10
3057.401
 20
-5395.155
 30
2027.000
 70
    32
  0
VERTEX
  8
3200LEVEL
 62
7
 10
3050.287
 20
-5365.680
 30
2027.000
 70
    32
  0
VERTEX
  8
3200LEVEL
 62
7
 10
3055.053
 20
-5357.833
 30
2027.000
 70
    32
  0
SEQEND
  8
3200LEVEL
  0
LINE
  8
3200LEVEL
 62
7
 10
3062.802
 20
-5346.183
 30
2027.000
 11
3065.901
 21
-5341.911
 31
2027.000
  0
POLYLINE
  8
3200LEVEL
 62
7
 66
     1
 70
     8
  0
VERTEX
  8
3200LEVEL
 62
7
 10
3078.686
 20
-5320.941
 30
2027.000
 70
    32
  0
VERTEX
  8
3200LEVEL
 62
7
 10
3081.253
 20
-5318.234
 30
2027.000
 70
    32
  0
VERTEX
  8
3200LEVEL
 62
7
 10
3102.485
 20
-5286.016
 30
2027.000
 70
    32
  0
VERTEX
  8
3200LEVEL
 62
7
 10
3127.171
 20
-5256.056
 30
2027.000
 70
    32
  0
VERTEX
  8
3200LEVEL
 62
7
 10
3138.174
 20
-5242.520
 30
2027.000
 70
    32
  0
VERTEX
  8
3200LEVEL
 62
7
 10
3166.371
 20
-5270.732
 30
2027.000
 70
    32
  0
VERTEX
  8
3200LEVEL
 62
7
 10
3198.373
 20
-5311.072
 30
2027.000
 70
    32
  0
VERTEX
  8
3200LEVEL
 62
7
 10
3205.147
 20
-5311.091
 30
2027.001
 70
    32
  0
VERTEX
  8
3200LEVEL
 62
7
 10
3274.913
 20
-5448.819
 30
2027.001
 70
    32
  0
VERTEX
  8
3200LEVEL
 62
7
 10
3315.201
 20
-5549.164
 30
2027.001
 70
    32
  0
VERTEX
  8
3200LEVEL
 62
7
 10
3356.471
 20
-5656.395
 30
2027.001
 70
    32
  0
VERTEX
  8
3200LEVEL
 62
7
 10
3406.585
 20
-5772.481
 30
2027.001
 70
    32
  0
VERTEX
  8
3200LEVEL
 62
7
 10
3441.960
 20
-5859.053
 30
2027.001
 70
    32
  0
VERTEX
  8
3200LEVEL
 62
7
 10
3500.917
 20
-5964.317
 30
2027.001
 70
    32
  0
VERTEX
  8
3200LEVEL
 62
7
 10
3587.388
 20
-6080.403
 30
2027.001
 70
    32
  0
VERTEX
  8
3200LEVEL
 62
7
 10
3639.630
 20
-6132.489
 30
2027.000
 70
    32
  0
VERTEX
  8
3200LEVEL
 62
7
 10
3693.272
 20
-6195.821
 30
2027.000
 70
    32
  0
VERTEX
  8
3200LEVEL
 62
7
 10
3756.712
 20
-6273.399
 30
2027.000
 70
    32
  0
VERTEX
  8
3200LEVEL
 62
7
 10
3799.569
 20
-6325.869
 30
2027.000
 70
    32
  0
VERTEX
  8
3200LEVEL
 62
7
 10
3847.008
 20
-6381.514
 30
2027.000
 70
    32
  0
VERTEX
  8
3200LEVEL
 62
7
 10
3906.735
 20
-6382.427
 30
2027.000
 70
    32
  0
SEQEND
  8
3200LEVEL
  0
POLYLINE
  8
3200LEVEL
 62
7
 66
     1
 70
     8
  0
VERTEX
  8
3200LEVEL
 62
7
 10
3923.622
 20
-6383.832
 30
2027.000
 70
    32
  0
VERTEX
  8
3200LEVEL
 62
7
 10
3993.648
 20
-6467.222
 30
2027.000
 70
    32
  0
VERTEX
  8
3200LEVEL
 62
7
 10
4062.796
 20
-6555.941
 30
2027.000
 70
    32
  0
VERTEX
  8
3200LEVEL
 62
7
 10
4129.268
 20
-6633.449
 30
2027.000
 70
    32
  0
VERTEX
  8
3200LEVEL
 62
7
 10
4175.159
 20
-6677.036
 30
2027.000
 70
    32
  0
VERTEX
  8
3200LEVEL
 62
7
 10
4182.432
 20
-6636.777
 30
2027.000
 70
    32
  0
VERTEX
  8
3200LEVEL
 62
7
 10
4129.009
 20
-6543.760
 30
2027.000
 70
    32
  0
VERTEX
  8
3200LEVEL
 62
7
 10
4080.735
 20
-6442.918
 30
2027.000
 70
    32
  0
VERTEX
  8
3200LEVEL
 62
7
 10
4019.065
 20
-6337.136
 30
2027.000
 70
    32
  0
VERTEX
  8
3200LEVEL
 62
7
 10
3973.752
 20
-6238.481
 30
2027.000
 70
    32
  0
VERTEX
  8
3200LEVEL
 62
7
 10
3926.743
 20
-6151.670
 30
2027.000
 70
    32
  0
VERTEX
  8
3200LEVEL
 62
7
 10
3883.118
 20
-6071.137
 30
2027.000
 70
    32
  0
VERTEX
  8
3200LEVEL
 62
7
 10
3844.490
 20
-6024.308
 30
2027.000
 70
    32
  0
VERTEX
  8
3200LEVEL
 62
7
 10
3839.356
 20
-5973.962
 30
2027.000
 70
    32
  0
VERTEX
  8
3200LEVEL
 62
7
 10
3873.473
 20
-6013.598
 30
2027.000
 70
    32
  0
VERTEX
  8
3200LEVEL
 62
7
 10
3909.489
 20
-6071.637
 30
2027.000
 70
    32
  0
VERTEX
  8
3200LEVEL
 62
7
 10
3946.774
 20
-6129.606
 30
2027.000
 70
    32
  0
VERTEX
  8
3200LEVEL
 62
7
 10
3999.570
 20
-6195.335
 30
2027.000
 70
    32
  0
VERTEX
  8
3200LEVEL
 62
7
 10
4052.292
 20
-6270.371
 30
2027.000
 70
    32
  0
VERTEX
  8
3200LEVEL
 62
7
 10
4106.072
 20
-6348.581
 30
2027.000
 70
    32
  0
VERTEX
  8
3200LEVEL
 62
7
 10
4164.717
 20
-6426.228
 30
2027.000
 70
    32
  0
VERTEX
  8
3200LEVEL
 62
7
 10
4225.338
 20
-6495.344
 30
2027.000
 70
    32
  0
VERTEX
  8
3200LEVEL
 62
7
 10
4285.465
 20
-6569.677
 30
2027.000
 70
    32
  0
VERTEX
  8
3200LEVEL
 62
7
 10
4347.356
 20
-6638.722
 30
2027.000
 70
    32
  0
VERTEX
  8
3200LEVEL
 62
7
 10
4381.684
 20
-6676.877
 30
2027.000
 70
    32
  0
VERTEX
  8
3200LEVEL
 62
7
 10
4430.460
 20
-6746.060
 30
2027.000
 70
    32
  0
VERTEX
  8
3200LEVEL
 62
7
 10
4497.848
 20
-6824.203
 30
2027.000
 70
    32
  0
VERTEX
  8
3200LEVEL
 62
7
 10
4572.000
 20
-6921.949
 30
2027.000
 70
    32
  0
VERTEX
  8
3200LEVEL
 62
7
 10
4624.584
 20
-6990.922
 30
2027.000
 70
    32
  0
VERTEX
  8
3200LEVEL
 62
7
 10
4671.601
 20
-7044.239
 30
2027.000
 70
    32
  0
SEQEND
  8
3200LEVEL
  0
POLYLINE
  8
3200LEVEL
 62
7
 66
     1
 70
     9
  0
VERTEX
  8
3200LEVEL
 62
7
 10
2722.415
 20
-6344.519
 30
2027.001
 70
    32
  0
VERTEX
  8
3200LEVEL
 62
7
 10
2732.331
 20
-6370.096
 30
2027.001
 70
    32
  0
VERTEX
  8
3200LEVEL
 62
7
 10
2735.382
 20
-6366.660
 30
2027.001
 70
    32
  0
VERTEX
  8
3200LEVEL
 62
7
 10
2728.136
 20
-6341.084
 30
2027.001
 70
    32
  0
VERTEX
  8
3200LEVEL
 62
7
 10
2701.438
 20
-6301.383
 30
2027.001
 70
    32
  0
VERTEX
  8
3200LEVEL
 62
7
 10
2673.215
 20
-6263.591
 30
2027.001
 70
    32
  0
VERTEX
  8
3200LEVEL
 62
7
 10
2649.991
 20
-6230.600
 30
2027.000
 70
    32
  0
VERTEX
  8
3200LEVEL
 62
7
 10
2644.663
 20
-6238.386
 30
2027.000
 70
    32
  0
VERTEX
  8
3200LEVEL
 62
7
 10
2666.999
 20
-6268.311
 30
2026.442
 70
    32
  0
VERTEX
  8
3200LEVEL
 62
7
 10
2684.433
 20
-6313.637
 30
2027.000
 70
    32
  0
SEQEND
  8
3200LEVEL
  0
POLYLINE
  8
3200LEVEL
 62
5
 66
     1
 70
     9
  0
VERTEX
  8
3200LEVEL
 62
5
 10
2756.170
 20
-6433.086
 30
2027.001
 70
    32
  0
VERTEX
  8
3200LEVEL
 62
5
 10
2732.331
 20
-6370.096
 30
2027.001
 70
    32
  0
VERTEX
  8
3200LEVEL
 62
5
 10
2722.415
 20
-6344.519
 30
2027.001
 70
    32
  0
VERTEX
  8
3200LEVEL
 62
5
 10
2690.760
 20
-6331.922
 30
2027.001
 70
    32
  0
VERTEX
  8
3200LEVEL
 62
5
 10
2674.741
 20
-6320.088
 30
2027.001
 70
    32
  0
VERTEX
  8
3200LEVEL
 62
5
 10
2654.909
 20
-6277.715
 30
2027.001
 70
    32
  0
VERTEX
  8
3200LEVEL
 62
5
 10
2638.846
 20
-6246.885
 30
2027.000
 70
    32
  0
VERTEX
  8
3200LEVEL
 62
5
 10
2649.991
 20
-6230.600
 30
2027.000
 70
    32
  0
VERTEX
  8
3200LEVEL
 62
5
 10
2673.215
 20
-6263.591
 30
2027.001
 70
    32
  0
VERTEX
  8
3200LEVEL
 62
5
 10
2701.438
 20
-6301.383
 30
2027.001
 70
    32
  0
VERTEX
  8
3200LEVEL
 62
5
 10
2728.136
 20
-6341.084
 30
2027.001
 70
    32
  0
VERTEX
  8
3200LEVEL
 62
5
 10
2735.382
 20
-6366.660
 30
2027.001
 70
    32
  0
VERTEX
  8
3200LEVEL
 62
5
 10
2762.006
 20
-6430.161
 30
2027.001
 70
    32
  0
VERTEX
  8
3200LEVEL
 62
5
 10
2776.296
 20
-6428.484
 30
2027.000
 70
    32
  0
VERTEX
  8
3200LEVEL
 62
5
 10
2754.026
 20
-6381.730
 30
2027.000
 70
    32
  0
VERTEX
  8
3200LEVEL
 62
5
 10
2738.815
 20
-6331.922
 30
2027.001
 70
    32
  0
VERTEX
  8
3200LEVEL
 62
5
 10
2688.978
 20
-6253.808
 30
2027.000
 70
    32
  0
VERTEX
  8
3200LEVEL
 62
5
 10
2648.164
 20
-6206.415
 30
2027.000
 70
    32
  0
VERTEX
  8
3200LEVEL
 62
5
 10
2622.796
 20
-6146.122
 30
2027.000
 70
    32
  0
VERTEX
  8
3200LEVEL
 62
5
 10
2596.652
 20
-6084.207
 30
2027.000
 70
    32
  0
VERTEX
  8
3200LEVEL
 62
5
 10
2571.779
 20
-6016.934
 30
2027.000
 70
    32
  0
VERTEX
  8
3200LEVEL
 62
5
 10
2530.054
 20
-5949.515
 30
2027.000
 70
    32
  0
VERTEX
  8
3200LEVEL
 62
5
 10
2489.105
 20
-5878.430
 30
2027.000
 70
    32
  0
VERTEX
  8
3200LEVEL
 62
5
 10
2457.887
 20
-5809.745
 30
2027.000
 70
    32
  0
VERTEX
  8
3200LEVEL
 62
5
 10
2421.802
 20
-5745.148
 30
2027.000
 70
    32
  0
VERTEX
  8
3200LEVEL
 62
5
 10
2388.250
 20
-5699.802
 30
2027.000
 70
    32
  0
VERTEX
  8
3200LEVEL
 62
5
 10
2376.059
 20
-5707.721
 30
2027.001
 70
    32
  0
VERTEX
  8
3200LEVEL
 62
5
 10
2408.796
 20
-5752.609
 30
2027.001
 70
    32
  0
VERTEX
  8
3200LEVEL
 62
5
 10
2444.625
 20
-5833.786
 30
2027.000
 70
    32
  0
VERTEX
  8
3200LEVEL
 62
5
 10
2487.971
 20
-5903.955
 30
2027.000
 70
    32
  0
VERTEX
  8
3200LEVEL
 62
5
 10
2533.639
 20
-5993.091
 30
2027.000
 70
    32
  0
VERTEX
  8
3200LEVEL
 62
5
 10
2564.434
 20
-6062.975
 30
2027.000
 70
    32
  0
VERTEX
  8
3200LEVEL
 62
5
 10
2589.449
 20
-6125.736
 30
2027.000
 70
    32
  0
VERTEX
  8
3200LEVEL
 62
5
 10
2614.886
 20
-6194.349
 30
2027.000
 70
    32
  0
VERTEX
  8
3200LEVEL
 62
5
 10
2644.230
 20
-6284.587
 30
2027.001
 70
    32
  0
VERTEX
  8
3200LEVEL
 62
5
 10
2662.918
 20
-6329.250
 30
2027.001
 70
    32
  0
VERTEX
  8
3200LEVEL
 62
5
 10
2698.769
 20
-6361.316
 30
2027.001
 70
    32
  0
VERTEX
  8
3200LEVEL
 62
5
 10
2746.326
 20
-6439.053
 30
2027.000
 70
    32
  0
SEQEND
  8
3200LEVEL
  0
POLYLINE
  8
3200LEVEL
 62
7
 66
     1
 70
     8
  0
VERTEX
  8
3200LEVEL
 62
7
 10
3704.824
 20
-5409.492
 30
2027.000
 70
    32
  0
VERTEX
  8
3200LEVEL
 62
7
 10
3661.759
 20
-5344.400
 30
2027.000
 70
    32
  0
VERTEX
  8
3200LEVEL
 62
7
 10
3613.263
 20
-5283.819
 30
2027.000
 70
    32
  0
VERTEX
  8
3200LEVEL
 62
7
 10
3578.939
 20
-5224.511
 30
2027.000
 70
    32
  0
VERTEX
  8
3200LEVEL
 62
7
 10
3535.551
 20
-5161.056
 30
0.000
 70
    32
  0
VERTEX
  8
3200LEVEL
 62
7
 10
3530.000
 20
-5155.781
 30
0.000
 70
    32
  0
VERTEX
  8
3200LEVEL
 62
7
 10
3523.452
 20
-5149.117
 30
0.000
 70
    32
  0
VERTEX
  8
3200LEVEL
 62
7
 10
3516.251
 20
-5142.847
 30
0.000
 70
    32
  0
VERTEX
  8
3200LEVEL
 62
7
 10
3509.008
 20
-5138.236
 30
0.000
 70
    32
  0
VERTEX
  8
3200LEVEL
 62
7
 10
3500.095
 20
-5133.053
 30
0.000
 70
    32
  0
VERTEX
  8
3200LEVEL
 62
7
 10
3493.550
 20
-5127.873
 30
0.000
 70
    32
  0
VERTEX
  8
3200LEVEL
 62
7
 10
3489.122
 20
-5123.533
 30
0.000
 70
    32
  0
VERTEX
  8
3200LEVEL
 62
7
 10
3484.994
 20
-5120.339
 30
0.000
 70
    32
  0
VERTEX
  8
3200LEVEL
 62
7
 10
3483.492
 20
-5119.951
 30
0.000
 70
    32
  0
VERTEX
  8
3200LEVEL
 62
7
 10
3483.071
 20
-5121.416
 30
0.000
 70
    32
  0
VERTEX
  8
3200LEVEL
 62
7
 10
3483.309
 20
-5123.900
 30
0.000
 70
    32
  0
VERTEX
  8
3200LEVEL
 62
7
 10
3481.875
 20
-5125.884
 30
0.000
 70
    32
  0
VERTEX
  8
3200LEVEL
 62
7
 10
3474.264
 20
-5122.351
 30
0.000
 70
    32
  0
VERTEX
  8
3200LEVEL
 62
7
 10
3465.347
 20
-5116.496
 30
0.000
 70
    32
  0
VERTEX
  8
3200LEVEL
 62
7
 10
3455.434
 20
-5109.252
 30
0.000
 70
    32
  0
VERTEX
  8
3200LEVEL
 62
7
 10
3445.983
 20
-5102.736
 30
0.000
 70
    32
  0
VERTEX
  8
3200LEVEL
 62
7
 10
3434.498
 20
-5095.102
 30
0.000
 70
    32
  0
VERTEX
  8
3200LEVEL
 62
7
 10
3428.407
 20
-5090.791
 30
0.000
 70
    32
  0
VERTEX
  8
3200LEVEL
 62
7
 10
3423.255
 20
-5087.584
 30
0.000
 70
    32
  0
VERTEX
  8
3200LEVEL
 62
7
 10
3419.474
 20
-5085.289
 30
0.000
 70
    32
  0
VERTEX
  8
3200LEVEL
 62
7
 10
3415.884
 20
-5082.685
 30
0.000
 70
    32
  0
VERTEX
  8
3200LEVEL
 62
7
 10
3414.378
 20
-5081.625
 30
0.000
 70
    32
  0
SEQEND
  8
3200LEVEL
  0
POLYLINE
  8
3200LEVEL
 62
13
 66
     1
 70
     8
  0
VERTEX
  8
3200LEVEL
 62
13
 10
3752.686
 20
-5467.464
 30
2027.000
 70
    32
  0
VERTEX
  8
3200LEVEL
 62
13
 10
3699.393
 20
-5417.529
 30
2027.000
 70
    32
  0
VERTEX
  8
3200LEVEL
 62
13
 10
3643.145
 20
-5338.966
 30
2027.000
 70
    32
  0
VERTEX
  8
3200LEVEL
 62
13
 10
3598.034
 20
-5277.610
 30
2027.000
 70
    32
  0
VERTEX
  8
3200LEVEL
 62
13
 10
3566.669
 20
-5231.065
 30
2027.000
 70
    32
  0
VERTEX
  8
3200LEVEL
 62
13
 10
3512.972
 20
-5180.083
 30
0.000
 70
    32
  0
VERTEX
  8
3200LEVEL
 62
13
 10
3508.707
 20
-5174.514
 30
0.000
 70
    32
  0
VERTEX
  8
3200LEVEL
 62
13
 10
3502.743
 20
-5166.711
 30
0.000
 70
    32
  0
VERTEX
  8
3200LEVEL
 62
13
 10
3496.529
 20
-5158.190
 30
0.000
 70
    32
  0
VERTEX
  8
3200LEVEL
 62
13
 10
3491.803
 20
-5152.635
 30
0.000
 70
    32
  0
VERTEX
  8
3200LEVEL
 62
13
 10
3489.010
 20
-5150.385
 30
0.000
 70
    32
  0
VERTEX
  8
3200LEVEL
 62
13
 10
3486.517
 20
-5150.023
 30
0.000
 70
    32
  0
VERTEX
  8
3200LEVEL
 62
13
 10
3484.423
 20
-5153.283
 30
0.000
 70
    32
  0
VERTEX
  8
3200LEVEL
 62
13
 10
3480.887
 20
-5155.628
 30
0.000
 70
    32
  0
VERTEX
  8
3200LEVEL
 62
13
 10
3476.220
 20
-5154.140
 30
0.000
 70
    32
  0
VERTEX
  8
3200LEVEL
 62
13
 10
3466.410
 20
-5148.491
 30
0.000
 70
    32
  0
VERTEX
  8
3200LEVEL
 62
13
 10
3457.936
 20
-5142.233
 30
0.000
 70
    32
  0
VERTEX
  8
3200LEVEL
 62
13
 10
3450.749
 20
-5136.422
 30
0.000
 70
    32
  0
VERTEX
  8
3200LEVEL
 62
13
 10
3443.234
 20
-5129.290
 30
0.000
 70
    32
  0
VERTEX
  8
3200LEVEL
 62
13
 10
3437.874
 20
-5123.705
 30
0.000
 70
    32
  0
VERTEX
  8
3200LEVEL
 62
13
 10
3432.548
 20
-5116.603
 30
0.000
 70
    32
  0
VERTEX
  8
3200LEVEL
 62
13
 10
3428.792
 20
-5107.665
 30
0.000
 70
    32
  0
VERTEX
  8
3200LEVEL
 62
13
 10
3425.739
 20
-5099.573
 30
0.000
 70
    32
  0
VERTEX
  8
3200LEVEL
 62
13
 10
3423.060
 20
-5094.855
 30
0.000
 70
    32
  0
VERTEX
  8
3200LEVEL
 62
13
 10
3418.961
 20
-5088.729
 30
0.000
 70
    32
  0
VERTEX
  8
3200LEVEL
 62
13
 10
3416.158
 20
-5084.393
 30
0.000
 70
    32
  0
VERTEX
  8
3200LEVEL
 62
13
 10
3415.612
 20
-5083.624
 30
0.000
 70
    32
  0
VERTEX
  8
3200LEVEL
 62
13
 10
3414.378
 20
-5081.625
 30
0.000
 70
    32
  0
SEQEND
  8
3200LEVEL
  0
POLYLINE
  8
3200LEVEL
 62
5
 66
     1
 70
     9
  0
VERTEX
  8
3200LEVEL
 62
5
 10
3227.099
 20
-4922.073
 30
2027.000
 70
    32
  0
VERTEX
  8
3200LEVEL
 62
5
 10
3191.988
 20
-4883.507
 30
2027.000
 70
    32
  0
VERTEX
  8
3200LEVEL
 62
5
 10
3160.691
 20
-4840.289
 30
2027.000
 70
    32
  0
VERTEX
  8
3200LEVEL
 62
5
 10
3159.762
 20
-4836.677
 30
2027.000
 70
    32
  0
VERTEX
  8
3200LEVEL
 62
5
 10
3158.506
 20
-4831.000
 30
2027.000
 70
    32
  0
VERTEX
  8
3200LEVEL
 62
5
 10
3157.274
 20
-4826.314
 30
2027.000
 70
    32
  0
VERTEX
  8
3200LEVEL
 62
5
 10
3155.958
 20
-4819.609
 30
2027.000
 70
    32
  0
VERTEX
  8
3200LEVEL
 62
5
 10
3153.304
 20
-4808.249
 30
2027.000
 70
    32
  0
VERTEX
  8
3200LEVEL
 62
5
 10
3150.330
 20
-4796.909
 30
2027.000
 70
    32
  0
VERTEX
  8
3200LEVEL
 62
5
 10
3148.151
 20
-4789.034
 30
2027.000
 70
    32
  0
VERTEX
  8
3200LEVEL
 62
5
 10
3144.437
 20
-4773.843
 30
2027.000
 70
    32
  0
VERTEX
  8
3200LEVEL
 62
5
 10
3141.869
 20
-4762.133
 30
2027.000
 70
    32
  0
VERTEX
  8
3200LEVEL
 62
5
 10
3138.796
 20
-4752.167
 30
2027.000
 70
    32
  0
VERTEX
  8
3200LEVEL
 62
5
 10
3135.285
 20
-4740.237
 30
2027.000
 70
    32
  0
VERTEX
  8
3200LEVEL
 62
5
 10
3131.517
 20
-4727.729
 30
2027.000
 70
    32
  0
VERTEX
  8
3200LEVEL
 62
5
 10
3127.132
 20
-4715.582
 30
2027.000
 70
    32
  0
VERTEX
  8
3200LEVEL
 62
5
 10
3123.469
 20
-4706.154
 30
2027.000
 70
    32
  0
VERTEX
  8
3200LEVEL
 62
5
 10
3118.204
 20
-4693.188
 30
2027.000
 70
    32
  0
VERTEX
  8
3200LEVEL
 62
5
 10
3115.189
 20
-4686.547
 30
2027.000
 70
    32
  0
VERTEX
  8
3200LEVEL
 62
5
 10
3111.679
 20
-4678.398
 30
2027.000
 70
    32
  0
VERTEX
  8
3200LEVEL
 62
5
 10
3108.130
 20
-4671.095
 30
2027.000
 70
    32
  0
VERTEX
  8
3200LEVEL
 62
5
 10
3105.195
 20
-4665.800
 30
2027.000
 70
    32
  0
VERTEX
  8
3200LEVEL
 62
5
 10
3103.250
 20
-4662.777
 30
2027.000
 70
    32
  0
VERTEX
  8
3200LEVEL
 62
5
 10
3099.071
 20
-4656.859
 30
2027.000
 70
    32
  0
VERTEX
  8
3200LEVEL
 62
5
 10
3094.260
 20
-4650.098
 30
2027.000
 70
    32
  0
VERTEX
  8
3200LEVEL
 62
5
 10
3090.996
 20
-4645.035
 30
2027.000
 70
    32
  0
VERTEX
  8
3200LEVEL
 62
5
 10
3087.697
 20
-4641.490
 30
2027.000
 70
    32
  0
VERTEX
  8
3200LEVEL
 62
5
 10
3084.847
 20
-4639.697
 30
2027.000
 70
    32
  0
VERTEX
  8
3200LEVEL
 62
5
 10
3081.516
 20
-4639.896
 30
2027.000
 70
    32
  0
VERTEX
  8
3200LEVEL
 62
5
 10
3079.704
 20
-4640.873
 30
2027.000
 70
    32
  0
VERTEX
  8
3200LEVEL
 62
5
 10
3078.710
 20
-4643.265
 30
2027.000
 70
    32
  0
VERTEX
  8
3200LEVEL
 62
5
 10
3078.851
 20
-4646.311
 30
2027.000
 70
    32
  0
VERTEX
  8
3200LEVEL
 62
5
 10
3079.799
 20
-4649.499
 30
2027.000
 70
    32
  0
VERTEX
  8
3200LEVEL
 62
5
 10
3081.407
 20
-4653.708
 30
2027.000
 70
    32
  0
VERTEX
  8
3200LEVEL
 62
5
 10
3083.614
 20
-4657.168
 30
2027.000
 70
    32
  0
VERTEX
  8
3200LEVEL
 62
5
 10
3088.041
 20
-4663.062
 30
2027.000
 70
    32
  0
VERTEX
  8
3200LEVEL
 62
5
 10
3092.114
 20
-4670.495
 30
2027.000
 70
    32
  0
VERTEX
  8
3200LEVEL
 62
5
 10
3096.204
 20
-4677.575
 30
2027.000
 70
    32
  0
VERTEX
  8
3200LEVEL
 62
5
 10
3100.827
 20
-4686.871
 30
2027.000
 70
    32
  0
VERTEX
  8
3200LEVEL
 62
5
 10
3103.996
 20
-4693.980
 30
2027.000
 70
    32
  0
VERTEX
  8
3200LEVEL
 62
5
 10
3108.761
 20
-4706.321
 30
2027.000
 70
    32
  0
VERTEX
  8
3200LEVEL
 62
5
 10
3113.837
 20
-4718.041
 30
2027.000
 70
    32
  0
VERTEX
  8
3200LEVEL
 62
5
 10
3116.708
 20
-4725.489
 30
2027.000
 70
    32
  0
VERTEX
  8
3200LEVEL
 62
5
 10
3119.496
 20
-4736.255
 30
2027.000
 70
    32
  0
VERTEX
  8
3200LEVEL
 62
5
 10
3120.545
 20
-4747.188
 30
2027.000
 70
    32
  0
VERTEX
  8
3200LEVEL
 62
5
 10
3120.826
 20
-4756.389
 30
2027.000
 70
    32
  0
VERTEX
  8
3200LEVEL
 62
5
 10
3121.417
 20
-4768.820
 30
2027.000
 70
    32
  0
VERTEX
  8
3200LEVEL
 62
5
 10
3122.207
 20
-4774.652
 30
2027.000
 70
    32
  0
VERTEX
  8
3200LEVEL
 62
5
 10
3126.018
 20
-4784.687
 30
2027.000
 70
    32
  0
VERTEX
  8
3200LEVEL
 62
5
 10
3130.995
 20
-4794.742
 30
2027.000
 70
    32
  0
VERTEX
  8
3200LEVEL
 62
5
 10
3135.412
 20
-4803.145
 30
2027.000
 70
    32
  0
VERTEX
  8
3200LEVEL
 62
5
 10
3140.075
 20
-4814.633
 30
2027.000
 70
    32
  0
VERTEX
  8
3200LEVEL
 62
5
 10
3143.541
 20
-4822.957
 30
2027.000
 70
    32
  0
VERTEX
  8
3200LEVEL
 62
5
 10
3145.399
 20
-4828.626
 30
2027.000
 70
    32
  0
VERTEX
  8
3200LEVEL
 62
5
 10
3149.024
 20
-4837.346
 30
2027.000
 70
    32
  0
VERTEX
  8
3200LEVEL
 62
5
 10
3152.658
 20
-4845.112
 30
2027.000
 70
    32
  0
VERTEX
  8
3200LEVEL
 62
5
 10
3183.929
 20
-4889.411
 30
2022.000
 70
    32
  0
VERTEX
  8
3200LEVEL
 62
5
 10
3219.964
 20
-4931.724
 30
2022.000
 70
    32
  0
VERTEX
  8
3200LEVEL
 62
5
 10
3313.389
 20
-5017.662
 30
2022.000
 70
    32
  0
VERTEX
  8
3200LEVEL
 62
5
 10
3341.416
 20
-5033.248
 30
2022.000
 70
    32
  0
VERTEX
  8
3200LEVEL
 62
5
 10
3360.991
 20
-5071.100
 30
2022.000
 70
    32
  0
VERTEX
  8
3200LEVEL
 62
5
 10
3381.455
 20
-5088.912
 30
2022.000
 70
    32
  0
VERTEX
  8
3200LEVEL
 62
5
 10
3351.204
 20
-5023.006
 30
2022.000
 70
    32
  0
VERTEX
  8
3200LEVEL
 62
5
 10
3313.834
 20
-4998.068
 30
2022.000
 70
    32
  0
SEQEND
  8
3200LEVEL
  0
POLYLINE
  8
3200LEVEL
 62
5
 66
     1
 70
     9
  0
VERTEX
  8
3200LEVEL
 62
5
 10
3190.928
 20
-4916.141
 30
2027.000
 70
    32
  0
VERTEX
  8
3200LEVEL
 62
5
 10
3151.369
 20
-4848.516
 30
2027.000
 70
    32
  0
VERTEX
  8
3200LEVEL
 62
5
 10
3149.887
 20
-4845.408
 30
2027.000
 70
    32
  0
VERTEX
  8
3200LEVEL
 62
5
 10
3146.551
 20
-4838.857
 30
2027.000
 70
    32
  0
VERTEX
  8
3200LEVEL
 62
5
 10
3143.782
 20
-4832.262
 30
2027.000
 70
    32
  0
VERTEX
  8
3200LEVEL
 62
5
 10
3140.184
 20
-4823.720
 30
2027.000
 70
    32
  0
VERTEX
  8
3200LEVEL
 62
5
 10
3135.862
 20
-4813.272
 30
2027.000
 70
    32
  0
VERTEX
  8
3200LEVEL
 62
5
 10
3132.502
 20
-4804.176
 30
2027.000
 70
    32
  0
VERTEX
  8
3200LEVEL
 62
5
 10
3129.322
 20
-4797.279
 30
2027.000
 70
    32
  0
VERTEX
  8
3200LEVEL
 62
5
 10
3128.003
 20
-4797.536
 30
2027.000
 70
    32
  0
VERTEX
  8
3200LEVEL
 62
5
 10
3127.423
 20
-4798.605
 30
2027.000
 70
    32
  0
VERTEX
  8
3200LEVEL
 62
5
 10
3127.474
 20
-4803.625
 30
2027.000
 70
    32
  0
VERTEX
  8
3200LEVEL
 62
5
 10
3127.770
 20
-4806.395
 30
2027.000
 70
    32
  0
VERTEX
  8
3200LEVEL
 62
5
 10
3127.043
 20
-4805.302
 30
2027.000
 70
    32
  0
VERTEX
  8
3200LEVEL
 62
5
 10
3125.356
 20
-4802.043
 30
2027.000
 70
    32
  0
VERTEX
  8
3200LEVEL
 62
5
 10
3123.380
 20
-4798.170
 30
2027.000
 70
    32
  0
VERTEX
  8
3200LEVEL
 62
5
 10
3120.774
 20
-4791.088
 30
2027.000
 70
    32
  0
VERTEX
  8
3200LEVEL
 62
5
 10
3118.633
 20
-4784.664
 30
2027.000
 70
    32
  0
VERTEX
  8
3200LEVEL
 62
5
 10
3115.361
 20
-4775.960
 30
2027.000
 70
    32
  0
VERTEX
  8
3200LEVEL
 62
5
 10
3112.213
 20
-4766.874
 30
2027.000
 70
    32
  0
VERTEX
  8
3200LEVEL
 62
5
 10
3108.976
 20
-4757.395
 30
2027.000
 70
    32
  0
VERTEX
  8
3200LEVEL
 62
5
 10
3106.117
 20
-4748.923
 30
2027.000
 70
    32
  0
VERTEX
  8
3200LEVEL
 62
5
 10
3103.511
 20
-4738.059
 30
2027.000
 70
    32
  0
VERTEX
  8
3200LEVEL
 62
5
 10
3101.566
 20
-4730.442
 30
2027.000
 70
    32
  0
VERTEX
  8
3200LEVEL
 62
5
 10
3099.325
 20
-4719.313
 30
2027.000
 70
    32
  0
VERTEX
  8
3200LEVEL
 62
5
 10
3096.451
 20
-4709.639
 30
2027.000
 70
    32
  0
VERTEX
  8
3200LEVEL
 62
5
 10
3094.687
 20
-4701.182
 30
2027.000
 70
    32
  0
VERTEX
  8
3200LEVEL
 62
5
 10
3093.752
 20
-4694.672
 30
2027.000
 70
    32
  0
VERTEX
  8
3200LEVEL
 62
5
 10
3092.185
 20
-4688.061
 30
2027.000
 70
    32
  0
VERTEX
  8
3200LEVEL
 62
5
 10
3090.792
 20
-4681.495
 30
2027.000
 70
    32
  0
VERTEX
  8
3200LEVEL
 62
5
 10
3088.266
 20
-4675.759
 30
2027.000
 70
    32
  0
VERTEX
  8
3200LEVEL
 62
5
 10
3085.792
 20
-4671.192
 30
2027.000
 70
    32
  0
VERTEX
  8
3200LEVEL
 62
5
 10
3083.866
 20
-4667.746
 30
2027.000
 70
    32
  0
VERTEX
  8
3200LEVEL
 62
5
 10
3080.542
 20
-4660.171
 30
2027.000
 70
    32
  0
VERTEX
  8
3200LEVEL
 62
5
 10
3077.505
 20
-4654.023
 30
2027.000
 70
    32
  0
VERTEX
  8
3200LEVEL
 62
5
 10
3076.014
 20
-4648.830
 30
2027.000
 70
    32
  0
VERTEX
  8
3200LEVEL
 62
5
 10
3075.617
 20
-4645.949
 30
2027.000
 70
    32
  0
VERTEX
  8
3200LEVEL
 62
5
 10
3076.223
 20
-4642.019
 30
2027.000
 70
    32
  0
VERTEX
  8
3200LEVEL
 62
5
 10
3078.067
 20
-4637.298
 30
2027.000
 70
    32
  0
VERTEX
  8
3200LEVEL
 62
5
 10
3079.846
 20
-4633.988
 30
2027.000
 70
    32
  0
VERTEX
  8
3200LEVEL
 62
5
 10
3080.906
 20
-4630.928
 30
2027.000
 70
    32
  0
VERTEX
  8
3200LEVEL
 62
5
 10
3081.680
 20
-4627.182
 30
2027.000
 70
    32
  0
VERTEX
  8
3200LEVEL
 62
5
 10
3081.305
 20
-4622.323
 30
2027.000
 70
    32
  0
VERTEX
  8
3200LEVEL
 62
5
 10
3080.035
 20
-4616.929
 30
2027.000
 70
    32
  0
VERTEX
  8
3200LEVEL
 62
5
 10
3077.913
 20
-4610.081
 30
2027.000
 70
    32
  0
VERTEX
  8
3200LEVEL
 62
5
 10
3076.079
 20
-4601.621
 30
2027.000
 70
    32
  0
VERTEX
  8
3200LEVEL
 62
5
 10
3072.854
 20
-4591.117
 30
2027.000
 70
    32
  0
VERTEX
  8
3200LEVEL
 62
5
 10
3068.313
 20
-4580.058
 30
2027.000
 70
    32
  0
VERTEX
  8
3200LEVEL
 62
5
 10
3064.406
 20
-4569.029
 30
2027.000
 70
    32
  0
VERTEX
  8
3200LEVEL
 62
5
 10
3061.575
 20
-4558.437
 30
2027.000
 70
    32
  0
VERTEX
  8
3200LEVEL
 62
5
 10
3057.780
 20
-4545.752
 30
2027.000
 70
    32
  0
VERTEX
  8
3200LEVEL
 62
5
 10
3055.064
 20
-4538.771
 30
2027.000
 70
    32
  0
VERTEX
  8
3200LEVEL
 62
5
 10
3050.081
 20
-4525.818
 30
2027.000
 70
    32
  0
VERTEX
  8
3200LEVEL
 62
5
 10
3047.657
 20
-4514.044
 30
2027.000
 70
    32
  0
VERTEX
  8
3200LEVEL
 62
5
 10
3047.438
 20
-4505.801
 30
2027.000
 70
    32
  0
VERTEX
  8
3200LEVEL
 62
5
 10
3048.196
 20
-4492.478
 30
2027.000
 70
    32
  0
VERTEX
  8
3200LEVEL
 62
5
 10
3048.427
 20
-4486.728
 30
2027.000
 70
    32
  0
VERTEX
  8
3200LEVEL
 62
5
 10
3048.297
 20
-4477.322
 30
2027.000
 70
    32
  0
VERTEX
  8
3200LEVEL
 62
5
 10
3047.967
 20
-4463.843
 30
2027.000
 70
    32
  0
VERTEX
  8
3200LEVEL
 62
5
 10
3047.120
 20
-4453.132
 30
2027.000
 70
    32
  0
VERTEX
  8
3200LEVEL
 62
5
 10
3045.368
 20
-4441.354
 30
2027.000
 70
    32
  0
VERTEX
  8
3200LEVEL
 62
5
 10
3044.594
 20
-4432.130
 30
2027.000
 70
    32
  0
VERTEX
  8
3200LEVEL
 62
5
 10
3044.835
 20
-4419.278
 30
2027.000
 70
    32
  0
VERTEX
  8
3200LEVEL
 62
5
 10
3045.721
 20
-4410.838
 30
2027.000
 70
    32
  0
VERTEX
  8
3200LEVEL
 62
5
 10
3045.801
 20
-4405.294
 30
2027.000
 70
    32
  0
VERTEX
  8
3200LEVEL
 62
5
 10
3044.942
 20
-4388.716
 30
2027.000
 70
    32
  0
VERTEX
  8
3200LEVEL
 62
5
 10
3044.346
 20
-4381.762
 30
2027.000
 70
    32
  0
VERTEX
  8
3200LEVEL
 62
5
 10
3043.013
 20
-4376.965
 30
2027.000
 70
    32
  0
VERTEX
  8
3200LEVEL
 62
5
 10
2983.037
 20
-4234.467
 30
2022.000
 70
    32
  0
VERTEX
  8
3200LEVEL
 62
5
 10
2959.767
 20
-4137.850
 30
2022.000
 70
    32
  0
VERTEX
  8
3200LEVEL
 62
5
 10
2945.448
 20
-4047.495
 30
2022.000
 70
    32
  0
VERTEX
  8
3200LEVEL
 62
5
 10
2939.182
 20
-3961.613
 30
2022.000
 70
    32
  0
VERTEX
  8
3200LEVEL
 62
5
 10
2924.165
 20
-3894.307
 30
2027.000
 70
    32
  0
VERTEX
  8
3200LEVEL
 62
5
 10
2900.211
 20
-3817.092
 30
2027.000
 70
    32
  0
VERTEX
  8
3200LEVEL
 62
5
 10
2878.585
 20
-3734.166
 30
2027.000
 70
    32
  0
VERTEX
  8
3200LEVEL
 62
5
 10
2850.873
 20
-3739.518
 30
2027.000
 70
    32
  0
VERTEX
  8
3200LEVEL
 62
5
 10
2866.448
 20
-3769.700
 30
2027.000
 70
    32
  0
VERTEX
  8
3200LEVEL
 62
5
 10
2867.357
 20
-3800.302
 30
2027.000
 70
    32
  0
VERTEX
  8
3200LEVEL
 62
5
 10
2890.331
 20
-3849.172
 30
2027.000
 70
    32
  0
VERTEX
  8
3200LEVEL
 62
5
 10
2924.197
 20
-4045.411
 30
2027.000
 70
    32
  0
VERTEX
  8
3200LEVEL
 62
5
 10
2935.384
 20
-4137.923
 30
2027.000
 70
    32
  0
VERTEX
  8
3200LEVEL
 62
5
 10
2952.140
 20
-4240.802
 30
2027.000
 70
    32
  0
VERTEX
  8
3200LEVEL
 62
5
 10
3007.824
 20
-4398.164
 30
2027.000
 70
    32
  0
VERTEX
  8
3200LEVEL
 62
5
 10
3008.300
 20
-4402.391
 30
2027.000
 70
    32
  0
VERTEX
  8
3200LEVEL
 62
5
 10
3008.776
 20
-4407.361
 30
2027.000
 70
    32
  0
VERTEX
  8
3200LEVEL
 62
5
 10
3008.574
 20
-4414.030
 30
2027.000
 70
    32
  0
VERTEX
  8
3200LEVEL
 62
5
 10
3007.048
 20
-4417.988
 30
2027.000
 70
    32
  0
VERTEX
  8
3200LEVEL
 62
5
 10
3003.531
 20
-4422.207
 30
2027.000
 70
    32
  0
VERTEX
  8
3200LEVEL
 62
5
 10
3002.841
 20
-4426.416
 30
2027.000
 70
    32
  0
VERTEX
  8
3200LEVEL
 62
5
 10
3005.105
 20
-4431.716
 30
2027.000
 70
    32
  0
VERTEX
  8
3200LEVEL
 62
5
 10
3007.725
 20
-4434.664
 30
2027.000
 70
    32
  0
VERTEX
  8
3200LEVEL
 62
5
 10
3010.363
 20
-4438.744
 30
2027.000
 70
    32
  0
VERTEX
  8
3200LEVEL
 62
5
 10
3011.044
 20
-4450.755
 30
2027.000
 70
    32
  0
VERTEX
  8
3200LEVEL
 62
5
 10
3011.585
 20
-4458.908
 30
2027.000
 70
    32
  0
VERTEX
  8
3200LEVEL
 62
5
 10
3014.363
 20
-4472.182
 30
2027.000
 70
    32
  0
VERTEX
  8
3200LEVEL
 62
5
 10
3019.310
 20
-4488.208
 30
2027.000
 70
    32
  0
VERTEX
  8
3200LEVEL
 62
5
 10
3021.974
 20
-4501.653
 30
2027.000
 70
    32
  0
VERTEX
  8
3200LEVEL
 62
5
 10
3025.459
 20
-4518.742
 30
2027.000
 70
    32
  0
VERTEX
  8
3200LEVEL
 62
5
 10
3029.150
 20
-4536.723
 30
2027.000
 70
    32
  0
VERTEX
  8
3200LEVEL
 62
5
 10
3033.318
 20
-4552.041
 30
2027.000
 70
    32
  0
VERTEX
  8
3200LEVEL
 62
5
 10
3039.482
 20
-4571.550
 30
2027.000
 70
    32
  0
VERTEX
  8
3200LEVEL
 62
5
 10
3043.550
 20
-4585.202
 30
2027.000
 70
    32
  0
VERTEX
  8
3200LEVEL
 62
5
 10
3049.640
 20
-4601.740
 30
2027.000
 70
    32
  0
VERTEX
  8
3200LEVEL
 62
5
 10
3055.558
 20
-4617.421
 30
2027.000
 70
    32
  0
VERTEX
  8
3200LEVEL
 62
5
 10
3059.902
 20
-4628.930
 30
2027.000
 70
    32
  0
VERTEX
  8
3200LEVEL
 62
5
 10
3061.697
 20
-4635.198
 30
2027.000
 70
    32
  0
VERTEX
  8
3200LEVEL
 62
5
 10
3063.915
 20
-4641.484
 30
2027.000
 70
    32
  0
VERTEX
  8
3200LEVEL
 62
5
 10
3064.708
 20
-4641.910
 30
2027.000
 70
    32
  0
VERTEX
  8
3200LEVEL
 62
5
 10
3065.310
 20
-4640.348
 30
2027.000
 70
    32
  0
VERTEX
  8
3200LEVEL
 62
5
 10
3065.698
 20
-4636.549
 30
2027.000
 70
    32
  0
VERTEX
  8
3200LEVEL
 62
5
 10
3066.046
 20
-4632.855
 30
2027.000
 70
    32
  0
VERTEX
  8
3200LEVEL
 62
5
 10
3066.825
 20
-4630.523
 30
2027.000
 70
    32
  0
VERTEX
  8
3200LEVEL
 62
5
 10
3068.142
 20
-4628.782
 30
2027.000
 70
    32
  0
VERTEX
  8
3200LEVEL
 62
5
 10
3069.879
 20
-4626.388
 30
2027.000
 70
    32
  0
VERTEX
  8
3200LEVEL
 62
5
 10
3070.689
 20
-4624.164
 30
2027.000
 70
    32
  0
VERTEX
  8
3200LEVEL
 62
5
 10
3071.032
 20
-4625.134
 30
2027.000
 70
    32
  0
VERTEX
  8
3200LEVEL
 62
5
 10
3071.145
 20
-4626.518
 30
2027.000
 70
    32
  0
VERTEX
  8
3200LEVEL
 62
5
 10
3070.451
 20
-4630.055
 30
2027.000
 70
    32
  0
VERTEX
  8
3200LEVEL
 62
5
 10
3069.860
 20
-4632.148
 30
2027.000
 70
    32
  0
VERTEX
  8
3200LEVEL
 62
5
 10
3069.058
 20
-4635.715
 30
2027.000
 70
    32
  0
VERTEX
  8
3200LEVEL
 62
5
 10
3068.410
 20
-4640.562
 30
2027.000
 70
    32
  0
VERTEX
  8
3200LEVEL
 62
5
 10
3068.182
 20
-4643.202
 30
2027.000
 70
    32
  0
VERTEX
  8
3200LEVEL
 62
5
 10
3068.514
 20
-4648.235
 30
2027.000
 70
    32
  0
VERTEX
  8
3200LEVEL
 62
5
 10
3069.266
 20
-4653.359
 30
2027.000
 70
    32
  0
VERTEX
  8
3200LEVEL
 62
5
 10
3071.686
 20
-4659.867
 30
2027.000
 70
    32
  0
VERTEX
  8
3200LEVEL
 62
5
 10
3074.739
 20
-4667.959
 30
2027.000
 70
    32
  0
VERTEX
  8
3200LEVEL
 62
5
 10
3077.914
 20
-4676.481
 30
2027.000
 70
    32
  0
VERTEX
  8
3200LEVEL
 62
5
 10
3079.312
 20
-4682.165
 30
2027.000
 70
    32
  0
VERTEX
  8
3200LEVEL
 62
5
 10
3080.645
 20
-4686.962
 30
2027.000
 70
    32
  0
VERTEX
  8
3200LEVEL
 62
5
 10
3082.927
 20
-4693.393
 30
2027.000
 70
    32
  0
VERTEX
  8
3200LEVEL
 62
5
 10
3084.177
 20
-4699.211
 30
2027.000
 70
    32
  0
VERTEX
  8
3200LEVEL
 62
5
 10
3085.516
 20
-4703.867
 30
2027.000
 70
    32
  0
VERTEX
  8
3200LEVEL
 62
5
 10
3086.849
 20
-4708.664
 30
2027.000
 70
    32
  0
VERTEX
  8
3200LEVEL
 62
5
 10
3087.471
 20
-4712.015
 30
2027.000
 70
    32
  0
VERTEX
  8
3200LEVEL
 62
5
 10
3087.778
 20
-4717.612
 30
2027.000
 70
    32
  0
VERTEX
  8
3200LEVEL
 62
5
 10
3088.646
 20
-4721.752
 30
2027.000
 70
    32
  0
VERTEX
  8
3200LEVEL
 62
5
 10
3090.332
 20
-4729.604
 30
2027.000
 70
    32
  0
VERTEX
  8
3200LEVEL
 62
5
 10
3090.631
 20
-4734.601
 30
2027.000
 70
    32
  0
VERTEX
  8
3200LEVEL
 62
5
 10
3091.088
 20
-4739.993
 30
2027.000
 70
    32
  0
VERTEX
  8
3200LEVEL
 62
5
 10
3091.100
 20
-4744.305
 30
2027.000
 70
    32
  0
VERTEX
  8
3200LEVEL
 62
5
 10
3091.257
 20
-4750.850
 30
2027.000
 70
    32
  0
VERTEX
  8
3200LEVEL
 62
5
 10
3091.578
 20
-4757.650
 30
2027.000
 70
    32
  0
VERTEX
  8
3200LEVEL
 62
5
 10
3090.671
 20
-4762.732
 30
2027.000
 70
    32
  0
VERTEX
  8
3200LEVEL
 62
5
 10
3089.922
 20
-4769.765
 30
2027.000
 70
    32
  0
VERTEX
  8
3200LEVEL
 62
5
 10
3091.721
 20
-4774.406
 30
2027.000
 70
    32
  0
VERTEX
  8
3200LEVEL
 62
5
 10
3095.963
 20
-4777.430
 30
2027.000
 70
    32
  0
VERTEX
  8
3200LEVEL
 62
5
 10
3099.729
 20
-4778.523
 30
2027.000
 70
    32
  0
VERTEX
  8
3200LEVEL
 62
5
 10
3105.866
 20
-4779.549
 30
2027.000
 70
    32
  0
VERTEX
  8
3200LEVEL
 62
5
 10
3111.043
 20
-4781.450
 30
2027.000
 70
    32
  0
VERTEX
  8
3200LEVEL
 62
5
 10
3113.263
 20
-4783.885
 30
2027.000
 70
    32
  0
VERTEX
  8
3200LEVEL
 62
5
 10
3115.309
 20
-4790.058
 30
2027.000
 70
    32
  0
VERTEX
  8
3200LEVEL
 62
5
 10
3118.402
 20
-4800.343
 30
2027.000
 70
    32
  0
VERTEX
  8
3200LEVEL
 62
5
 10
3124.188
 20
-4815.064
 30
2027.000
 70
    32
  0
VERTEX
  8
3200LEVEL
 62
5
 10
3128.303
 20
-4829.213
 30
2027.000
 70
    32
  0
VERTEX
  8
3200LEVEL
 62
5
 10
3132.795
 20
-4838.291
 30
2027.000
 70
    32
  0
VERTEX
  8
3200LEVEL
 62
5
 10
3135.035
 20
-4848.678
 30
2027.000
 70
    32
  0
VERTEX
  8
3200LEVEL
 62
5
 10
3138.859
 20
-4857.690
 30
2027.000
 70
    32
  0
VERTEX
  8
3200LEVEL
 62
5
 10
3142.117
 20
-4862.368
 30
2027.000
 70
    32
  0
VERTEX
  8
3200LEVEL
 62
5
 10
3149.016
 20
-4875.407
 30
2027.000
 70
    32
  0
VERTEX
  8
3200LEVEL
 62
5
 10
3155.127
 20
-4883.112
 30
2027.000
 70
    32
  0
VERTEX
  8
3200LEVEL
 62
5
 10
3157.098
 20
-4885.680
 30
2027.000
 70
    32
  0
VERTEX
  8
3200LEVEL
 62
5
 10
3156.310
 20
-4886.470
 30
2027.000
 70
    32
  0
VERTEX
  8
3200LEVEL
 62
5
 10
3154.141
 20
-4884.890
 30
2027.000
 70
    32
  0
VERTEX
  8
3200LEVEL
 62
5
 10
3149.214
 20
-4878.371
 30
2027.000
 70
    32
  0
VERTEX
  8
3200LEVEL
 62
5
 10
3133.577
 20
-4855.749
 30
2027.000
 70
    32
  0
VERTEX
  8
3200LEVEL
 62
5
 10
3132.848
 20
-4853.171
 30
2027.000
 70
    32
  0
VERTEX
  8
3200LEVEL
 62
5
 10
3131.363
 20
-4849.392
 30
2027.000
 70
    32
  0
VERTEX
  8
3200LEVEL
 62
5
 10
3129.590
 20
-4844.928
 30
2027.000
 70
    32
  0
VERTEX
  8
3200LEVEL
 62
5
 10
3126.416
 20
-4836.406
 30
2027.000
 70
    32
  0
VERTEX
  8
3200LEVEL
 62
5
 10
3121.592
 20
-4825.333
 30
2027.000
 70
    32
  0
VERTEX
  8
3200LEVEL
 62
5
 10
3119.505
 20
-4819.265
 30
2027.000
 70
    32
  0
VERTEX
  8
3200LEVEL
 62
5
 10
3117.613
 20
-4812.816
 30
2027.000
 70
    32
  0
VERTEX
  8
3200LEVEL
 62
5
 10
3115.726
 20
-4807.781
 30
2027.000
 70
    32
  0
VERTEX
  8
3200LEVEL
 62
5
 10
3114.025
 20
-4806.360
 30
2027.000
 70
    32
  0
VERTEX
  8
3200LEVEL
 62
5
 10
3113.132
 20
-4806.566
 30
2027.000
 70
    32
  0
VERTEX
  8
3200LEVEL
 62
5
 10
3112.275
 20
-4805.996
 30
2027.000
 70
    32
  0
VERTEX
  8
3200LEVEL
 62
5
 10
3110.920
 20
-4802.435
 30
2027.000
 70
    32
  0
VERTEX
  8
3200LEVEL
 62
5
 10
3109.275
 20
-4797.517
 30
2027.000
 70
    32
  0
VERTEX
  8
3200LEVEL
 62
5
 10
3107.867
 20
-4792.046
 30
2027.000
 70
    32
  0
VERTEX
  8
3200LEVEL
 62
5
 10
3105.317
 20
-4786.061
 30
2027.000
 70
    32
  0
VERTEX
  8
3200LEVEL
 62
5
 10
3102.717
 20
-4782.690
 30
2027.000
 70
    32
  0
VERTEX
  8
3200LEVEL
 62
5
 10
3100.519
 20
-4781.316
 30
2027.000
 70
    32
  0
VERTEX
  8
3200LEVEL
 62
5
 10
3097.735
 20
-4781.152
 30
2027.000
 70
    32
  0
VERTEX
  8
3200LEVEL
 62
5
 10
3098.173
 20
-4782.374
 30
2027.000
 70
    32
  0
VERTEX
  8
3200LEVEL
 62
5
 10
3099.750
 20
-4784.178
 30
2027.000
 70
    32
  0
VERTEX
  8
3200LEVEL
 62
5
 10
3102.536
 20
-4788.124
 30
2027.000
 70
    32
  0
VERTEX
  8
3200LEVEL
 62
5
 10
3104.158
 20
-4793.535
 30
2027.000
 70
    32
  0
VERTEX
  8
3200LEVEL
 62
5
 10
3107.172
 20
-4802.474
 30
2027.000
 70
    32
  0
VERTEX
  8
3200LEVEL
 62
5
 10
3109.798
 20
-4815.211
 30
2027.000
 70
    32
  0
VERTEX
  8
3200LEVEL
 62
5
 10
3113.198
 20
-4831.094
 30
2027.000
 70
    32
  0
VERTEX
  8
3200LEVEL
 62
5
 10
3115.913
 20
-4842.669
 30
2027.000
 70
    32
  0
VERTEX
  8
3200LEVEL
 62
5
 10
3118.173
 20
-4850.336
 30
2027.000
 70
    32
  0
VERTEX
  8
3200LEVEL
 62
5
 10
3122.134
 20
-4861.722
 30
2027.000
 70
    32
  0
VERTEX
  8
3200LEVEL
 62
5
 10
3170.584
 20
-4912.571
 30
2022.000
 70
    32
  0
VERTEX
  8
3200LEVEL
 62
5
 10
3238.204
 20
-4990.951
 30
2022.000
 70
    32
  0
VERTEX
  8
3200LEVEL
 62
5
 10
3309.829
 20
-5050.623
 30
2022.000
 70
    32
  0
VERTEX
  8
3200LEVEL
 62
5
 10
3346.754
 20
-5075.115
 30
2022.000
 70
    32
  0
VERTEX
  8
3200LEVEL
 62
5
 10
3348.088
 20
-5067.545
 30
2022.000
 70
    32
  0
VERTEX
  8
3200LEVEL
 62
5
 10
3312.943
 20
-5039.045
 30
2022.000
 70
    32
  0
VERTEX
  8
3200LEVEL
 62
5
 10
3245.322
 20
-4979.372
 30
2022.000
 70
    32
  0
SEQEND
  8
3200LEVEL
  0
POLYLINE
  8
3200LEVEL
 62
13
 66
     1
 70
     9
  0
VERTEX
  8
3200LEVEL
 62
13
 10
3285.584
 20
-4404.238
 30
2027.000
 70
    32
  0
VERTEX
  8
3200LEVEL
 62
13
 10
3286.010
 20
-4406.484
 30
2027.000
 70
    32
  0
VERTEX
  8
3200LEVEL
 62
13
 10
3287.632
 20
-4408.856
 30
2027.000
 70
    32
  0
VERTEX
  8
3200LEVEL
 62
13
 10
3288.164
 20
-4410.329
 30
2027.000
 70
    32
  0
VERTEX
  8
3200LEVEL
 62
13
 10
3287.456
 20
-4410.367
 30
2027.000
 70
    32
  0
VERTEX
  8
3200LEVEL
 62
13
 10
3287.127
 20
-4410.599
 30
2027.000
 70
    32
  0
VERTEX
  8
3200LEVEL
 62
13
 10
3286.349
 20
-4411.376
 30
2027.000
 70
    32
  0
VERTEX
  8
3200LEVEL
 62
13
 10
3285.644
 20
-4411.343
 30
2027.000
 70
    32
  0
VERTEX
  8
3200LEVEL
 62
13
 10
3285.667
 20
-4411.592
 30
2027.000
 70
    32
  0
VERTEX
  8
3200LEVEL
 62
13
 10
3285.225
 20
-4411.995
 30
2027.000
 70
    32
  0
VERTEX
  8
3200LEVEL
 62
13
 10
3283.941
 20
-4411.477
 30
2027.000
 70
    32
  0
VERTEX
  8
3200LEVEL
 62
13
 10
3283.414
 20
-4411.417
 30
2027.000
 70
    32
  0
VERTEX
  8
3200LEVEL
 62
13
 10
3283.022
 20
-4412.247
 30
2027.000
 70
    32
  0
VERTEX
  8
3200LEVEL
 62
13
 10
3283.090
 20
-4413.063
 30
2027.000
 70
    32
  0
VERTEX
  8
3200LEVEL
 62
13
 10
3281.636
 20
-4413.172
 30
2027.000
 70
    32
  0
VERTEX
  8
3200LEVEL
 62
13
 10
3280.013
 20
-4412.355
 30
2027.000
 70
    32
  0
VERTEX
  8
3200LEVEL
 62
13
 10
3278.011
 20
-4412.085
 30
2027.000
 70
    32
  0
VERTEX
  8
3200LEVEL
 62
13
 10
3276.111
 20
-4411.927
 30
2027.000
 70
    32
  0
VERTEX
  8
3200LEVEL
 62
13
 10
3275.109
 20
-4411.421
 30
2027.000
 70
    32
  0
VERTEX
  8
3200LEVEL
 62
13
 10
3275.105
 20
-4410.749
 30
2027.000
 70
    32
  0
VERTEX
  8
3200LEVEL
 62
13
 10
3275.917
 20
-4410.010
 30
2027.000
 70
    32
  0
VERTEX
  8
3200LEVEL
 62
13
 10
3277.725
 20
-4409.104
 30
2027.000
 70
    32
  0
VERTEX
  8
3200LEVEL
 62
13
 10
3277.721
 20
-4408.432
 30
2027.000
 70
    32
  0
VERTEX
  8
3200LEVEL
 62
13
 10
3278.613
 20
-4407.484
 30
2027.000
 70
    32
  0
VERTEX
  8
3200LEVEL
 62
13
 10
3280.348
 20
-4406.646
 30
2027.000
 70
    32
  0
VERTEX
  8
3200LEVEL
 62
13
 10
3281.130
 20
-4405.798
 30
2027.000
 70
    32
  0
VERTEX
  8
3200LEVEL
 62
13
 10
3281.568
 20
-4404.723
 30
2027.000
 70
    32
  0
VERTEX
  8
3200LEVEL
 62
13
 10
3281.795
 20
-4403.638
 30
2027.000
 70
    32
  0
VERTEX
  8
3200LEVEL
 62
13
 10
3282.223
 20
-4402.032
 30
2027.000
 70
    32
  0
VERTEX
  8
3200LEVEL
 62
13
 10
3283.216
 20
-4401.195
 30
2027.000
 70
    32
  0
VERTEX
  8
3200LEVEL
 62
13
 10
3283.965
 20
-4401.795
 30
2027.000
 70
    32
  0
VERTEX
  8
3200LEVEL
 62
13
 10
3284.494
 20
-4402.597
 30
2027.000
 70
    32
  0
VERTEX
  8
3200LEVEL
 62
13
 10
3284.924
 20
-4403.218
 30
2027.000
 70
    32
  0
SEQEND
  8
3200LEVEL
  0
POLYLINE
  8
3200LEVEL
 62
13
 66
     1
 70
     9
  0
VERTEX
  8
3200LEVEL
 62
13
 10
3267.086
 20
-4416.032
 30
2027.000
 70
    32
  0
VERTEX
  8
3200LEVEL
 62
13
 10
3267.551
 20
-4417.432
 30
2027.000
 70
    32
  0
VERTEX
  8
3200LEVEL
 62
13
 10
3267.520
 20
-4418.879
 30
2027.000
 70
    32
  0
VERTEX
  8
3200LEVEL
 62
13
 10
3266.493
 20
-4419.680
 30
2027.000
 70
    32
  0
VERTEX
  8
3200LEVEL
 62
13
 10
3265.519
 20
-4419.352
 30
2027.000
 70
    32
  0
VERTEX
  8
3200LEVEL
 62
13
 10
3264.626
 20
-4419.558
 30
2027.000
 70
    32
  0
VERTEX
  8
3200LEVEL
 62
13
 10
3264.423
 20
-4420.892
 30
2027.000
 70
    32
  0
VERTEX
  8
3200LEVEL
 62
13
 10
3266.366
 20
-4425.470
 30
2027.000
 70
    32
  0
VERTEX
  8
3200LEVEL
 62
13
 10
3269.039
 20
-4430.329
 30
2027.000
 70
    32
  0
VERTEX
  8
3200LEVEL
 62
13
 10
3272.180
 20
-4436.517
 30
2027.000
 70
    32
  0
VERTEX
  8
3200LEVEL
 62
13
 10
3273.709
 20
-4439.379
 30
2027.000
 70
    32
  0
VERTEX
  8
3200LEVEL
 62
13
 10
3273.819
 20
-4441.575
 30
2027.000
 70
    32
  0
VERTEX
  8
3200LEVEL
 62
13
 10
3271.689
 20
-4441.017
 30
2027.000
 70
    32
  0
VERTEX
  8
3200LEVEL
 62
13
 10
3267.496
 20
-4436.936
 30
2027.000
 70
    32
  0
VERTEX
  8
3200LEVEL
 62
13
 10
3263.921
 20
-4432.495
 30
2027.000
 70
    32
  0
VERTEX
  8
3200LEVEL
 62
13
 10
3261.641
 20
-4429.845
 30
2027.000
 70
    32
  0
VERTEX
  8
3200LEVEL
 62
13
 10
3260.117
 20
-4428.396
 30
2027.000
 70
    32
  0
VERTEX
  8
3200LEVEL
 62
13
 10
3259.538
 20
-4429.465
 30
2027.000
 70
    32
  0
VERTEX
  8
3200LEVEL
 62
13
 10
3260.250
 20
-4432.395
 30
2027.000
 70
    32
  0
VERTEX
  8
3200LEVEL
 62
13
 10
3262.271
 20
-4434.539
 30
2027.000
 70
    32
  0
VERTEX
  8
3200LEVEL
 62
13
 10
3264.011
 20
-4437.411
 30
2027.000
 70
    32
  0
VERTEX
  8
3200LEVEL
 62
13
 10
3262.606
 20
-4438.759
 30
2027.000
 70
    32
  0
VERTEX
  8
3200LEVEL
 62
13
 10
3261.733
 20
-4438.542
 30
2027.000
 70
    32
  0
VERTEX
  8
3200LEVEL
 62
13
 10
3260.383
 20
-4438.692
 30
2027.000
 70
    32
  0
VERTEX
  8
3200LEVEL
 62
13
 10
3258.560
 20
-4436.841
 30
2027.000
 70
    32
  0
VERTEX
  8
3200LEVEL
 62
13
 10
3255.352
 20
-4433.618
 30
2027.000
 70
    32
  0
VERTEX
  8
3200LEVEL
 62
13
 10
3252.643
 20
-4431.831
 30
2027.000
 70
    32
  0
VERTEX
  8
3200LEVEL
 62
13
 10
3249.676
 20
-4430.280
 30
2027.000
 70
    32
  0
VERTEX
  8
3200LEVEL
 62
13
 10
3246.370
 20
-4426.134
 30
2027.000
 70
    32
  0
VERTEX
  8
3200LEVEL
 62
13
 10
3242.572
 20
-4418.855
 30
2027.000
 70
    32
  0
VERTEX
  8
3200LEVEL
 62
13
 10
3237.843
 20
-4411.074
 30
2027.000
 70
    32
  0
VERTEX
  8
3200LEVEL
 62
13
 10
3230.311
 20
-4400.513
 30
2027.000
 70
    32
  0
VERTEX
  8
3200LEVEL
 62
13
 10
3225.565
 20
-4392.342
 30
2027.000
 70
    32
  0
VERTEX
  8
3200LEVEL
 62
13
 10
3221.735
 20
-4383.471
 30
2027.000
 70
    32
  0
VERTEX
  8
3200LEVEL
 62
13
 10
3219.079
 20
-4375.963
 30
2027.000
 70
    32
  0
VERTEX
  8
3200LEVEL
 62
13
 10
3218.225
 20
-4369.986
 30
2027.000
 70
    32
  0
VERTEX
  8
3200LEVEL
 62
13
 10
3218.119
 20
-4366.165
 30
2027.000
 70
    32
  0
VERTEX
  8
3200LEVEL
 62
13
 10
3220.923
 20
-4363.609
 30
2027.000
 70
    32
  0
VERTEX
  8
3200LEVEL
 62
13
 10
3223.938
 20
-4363.360
 30
2027.000
 70
    32
  0
VERTEX
  8
3200LEVEL
 62
13
 10
3227.157
 20
-4364.816
 30
2027.000
 70
    32
  0
VERTEX
  8
3200LEVEL
 62
13
 10
3229.941
 20
-4369.575
 30
2027.000
 70
    32
  0
VERTEX
  8
3200LEVEL
 62
13
 10
3232.590
 20
-4374.927
 30
2027.000
 70
    32
  0
VERTEX
  8
3200LEVEL
 62
13
 10
3234.391
 20
-4378.014
 30
2027.000
 70
    32
  0
VERTEX
  8
3200LEVEL
 62
13
 10
3237.192
 20
-4383.162
 30
2027.000
 70
    32
  0
VERTEX
  8
3200LEVEL
 62
13
 10
3241.639
 20
-4388.633
 30
2027.000
 70
    32
  0
VERTEX
  8
3200LEVEL
 62
13
 10
3247.488
 20
-4393.569
 30
2027.000
 70
    32
  0
VERTEX
  8
3200LEVEL
 62
13
 10
3252.537
 20
-4397.478
 30
2027.000
 70
    32
  0
VERTEX
  8
3200LEVEL
 62
13
 10
3256.777
 20
-4401.314
 30
2027.000
 70
    32
  0
VERTEX
  8
3200LEVEL
 62
13
 10
3259.407
 20
-4404.051
 30
2027.000
 70
    32
  0
VERTEX
  8
3200LEVEL
 62
13
 10
3262.255
 20
-4406.656
 30
2027.000
 70
    32
  0
VERTEX
  8
3200LEVEL
 62
13
 10
3263.107
 20
-4408.851
 30
2027.000
 70
    32
  0
VERTEX
  8
3200LEVEL
 62
13
 10
3264.578
 20
-4411.428
 30
2027.000
 70
    32
  0
SEQEND
  8
3200LEVEL
  0
POLYLINE
  8
3200LEVEL
 62
13
 66
     1
 70
     9
  0
VERTEX
  8
3200LEVEL
 62
13
 10
3154.623
 20
-4718.692
 30
2027.000
 70
    32
  0
VERTEX
  8
3200LEVEL
 62
13
 10
3156.726
 20
-4724.408
 30
2027.000
 70
    32
  0
VERTEX
  8
3200LEVEL
 62
13
 10
3158.236
 20
-4729.178
 30
2027.000
 70
    32
  0
VERTEX
  8
3200LEVEL
 62
13
 10
3160.322
 20
-4734.505
 30
2027.000
 70
    32
  0
VERTEX
  8
3200LEVEL
 62
13
 10
3160.677
 20
-4736.006
 30
2027.000
 70
    32
  0
VERTEX
  8
3200LEVEL
 62
13
 10
3159.297
 20
-4733.751
 30
2027.000
 70
    32
  0
VERTEX
  8
3200LEVEL
 62
13
 10
3156.310
 20
-4727.287
 30
2027.000
 70
    32
  0
VERTEX
  8
3200LEVEL
 62
13
 10
3150.838
 20
-4718.765
 30
2027.000
 70
    32
  0
VERTEX
  8
3200LEVEL
 62
13
 10
3148.241
 20
-4713.026
 30
2027.000
 70
    32
  0
VERTEX
  8
3200LEVEL
 62
13
 10
3144.111
 20
-4708.346
 30
2027.000
 70
    32
  0
VERTEX
  8
3200LEVEL
 62
13
 10
3140.884
 20
-4705.547
 30
2027.000
 70
    32
  0
VERTEX
  8
3200LEVEL
 62
13
 10
3139.861
 20
-4703.980
 30
2027.000
 70
    32
  0
VERTEX
  8
3200LEVEL
 62
13
 10
3137.224
 20
-4700.642
 30
2027.000
 70
    32
  0
VERTEX
  8
3200LEVEL
 62
13
 10
3135.680
 20
-4698.874
 30
2027.000
 70
    32
  0
VERTEX
  8
3200LEVEL
 62
13
 10
3135.772
 20
-4699.939
 30
2027.000
 70
    32
  0
VERTEX
  8
3200LEVEL
 62
13
 10
3135.064
 20
-4699.976
 30
2027.000
 70
    32
  0
VERTEX
  8
3200LEVEL
 62
13
 10
3130.885
 20
-4696.355
 30
2027.000
 70
    32
  0
VERTEX
  8
3200LEVEL
 62
13
 10
3124.373
 20
-4688.915
 30
2027.000
 70
    32
  0
VERTEX
  8
3200LEVEL
 62
13
 10
3120.479
 20
-4684.495
 30
2027.000
 70
    32
  0
VERTEX
  8
3200LEVEL
 62
13
 10
3115.358
 20
-4679.840
 30
2027.000
 70
    32
  0
VERTEX
  8
3200LEVEL
 62
13
 10
3111.325
 20
-4676.897
 30
2027.000
 70
    32
  0
VERTEX
  8
3200LEVEL
 62
13
 10
3107.662
 20
-4672.805
 30
2027.000
 70
    32
  0
VERTEX
  8
3200LEVEL
 62
13
 10
3104.764
 20
-4670.515
 30
2027.000
 70
    32
  0
VERTEX
  8
3200LEVEL
 62
13
 10
3102.802
 20
-4669.400
 30
2027.000
 70
    32
  0
VERTEX
  8
3200LEVEL
 62
13
 10
3101.941
 20
-4671.197
 30
2027.000
 70
    32
  0
VERTEX
  8
3200LEVEL
 62
13
 10
3100.662
 20
-4676.686
 30
2027.000
 70
    32
  0
VERTEX
  8
3200LEVEL
 62
13
 10
3098.643
 20
-4683.660
 30
2027.000
 70
    32
  0
VERTEX
  8
3200LEVEL
 62
13
 10
3096.692
 20
-4688.411
 30
2027.000
 70
    32
  0
VERTEX
  8
3200LEVEL
 62
13
 10
3093.642
 20
-4695.515
 30
2027.000
 70
    32
  0
VERTEX
  8
3200LEVEL
 62
13
 10
3091.856
 20
-4698.966
 30
2027.000
 70
    32
  0
VERTEX
  8
3200LEVEL
 62
13
 10
3090.992
 20
-4697.795
 30
2027.000
 70
    32
  0
VERTEX
  8
3200LEVEL
 62
13
 10
3088.339
 20
-4692.513
 30
2027.000
 70
    32
  0
VERTEX
  8
3200LEVEL
 62
13
 10
3086.533
 20
-4691.051
 30
2027.000
 70
    32
  0
VERTEX
  8
3200LEVEL
 62
13
 10
3084.645
 20
-4692.907
 30
2027.000
 70
    32
  0
VERTEX
  8
3200LEVEL
 62
13
 10
3082.447
 20
-4699.166
 30
2027.000
 70
    32
  0
VERTEX
  8
3200LEVEL
 62
13
 10
3082.138
 20
-4706.608
 30
2027.000
 70
    32
  0
VERTEX
  8
3200LEVEL
 62
13
 10
3083.284
 20
-4710.089
 30
2027.000
 70
    32
  0
VERTEX
  8
3200LEVEL
 62
13
 10
3083.141
 20
-4713.192
 30
2027.000
 70
    32
  0
VERTEX
  8
3200LEVEL
 62
13
 10
3081.511
 20
-4712.516
 30
2027.000
 70
    32
  0
VERTEX
  8
3200LEVEL
 62
13
 10
3080.449
 20
-4711.795
 30
2027.000
 70
    32
  0
VERTEX
  8
3200LEVEL
 62
13
 10
3080.474
 20
-4715.083
 30
2027.000
 70
    32
  0
VERTEX
  8
3200LEVEL
 62
13
 10
3082.437
 20
-4721.535
 30
2027.000
 70
    32
  0
VERTEX
  8
3200LEVEL
 62
13
 10
3083.651
 20
-4730.426
 30
2027.000
 70
    32
  0
VERTEX
  8
3200LEVEL
 62
13
 10
3083.291
 20
-4738.183
 30
2027.000
 70
    32
  0
VERTEX
  8
3200LEVEL
 62
13
 10
3083.331
 20
-4742.673
 30
2027.000
 70
    32
  0
VERTEX
  8
3200LEVEL
 62
13
 10
3084.362
 20
-4745.583
 30
2027.000
 70
    32
  0
VERTEX
  8
3200LEVEL
 62
13
 10
3086.537
 20
-4749.748
 30
2027.000
 70
    32
  0
VERTEX
  8
3200LEVEL
 62
13
 10
3086.635
 20
-4752.226
 30
2027.000
 70
    32
  0
VERTEX
  8
3200LEVEL
 62
13
 10
3085.273
 20
-4753.400
 30
2027.000
 70
    32
  0
VERTEX
  8
3200LEVEL
 62
13
 10
3084.397
 20
-4753.995
 30
2027.000
 70
    32
  0
VERTEX
  8
3200LEVEL
 62
13
 10
3084.093
 20
-4755.218
 30
2027.000
 70
    32
  0
VERTEX
  8
3200LEVEL
 62
13
 10
3083.048
 20
-4757.184
 30
2027.000
 70
    32
  0
VERTEX
  8
3200LEVEL
 62
13
 10
3081.845
 20
-4756.457
 30
2027.000
 70
    32
  0
VERTEX
  8
3200LEVEL
 62
13
 10
3081.298
 20
-4752.226
 30
2027.000
 70
    32
  0
VERTEX
  8
3200LEVEL
 62
13
 10
3081.027
 20
-4747.408
 30
2027.000
 70
    32
  0
VERTEX
  8
3200LEVEL
 62
13
 10
3080.452
 20
-4742.257
 30
2027.000
 70
    32
  0
VERTEX
  8
3200LEVEL
 62
13
 10
3078.605
 20
-4737.118
 30
2027.000
 70
    32
  0
VERTEX
  8
3200LEVEL
 62
13
 10
3077.258
 20
-4734.158
 30
2027.000
 70
    32
  0
VERTEX
  8
3200LEVEL
 62
13
 10
3076.674
 20
-4734.555
 30
2027.000
 70
    32
  0
VERTEX
  8
3200LEVEL
 62
13
 10
3077.348
 20
-4741.371
 30
2027.000
 70
    32
  0
VERTEX
  8
3200LEVEL
 62
13
 10
3077.775
 20
-4744.360
 30
2027.000
 70
    32
  0
VERTEX
  8
3200LEVEL
 62
13
 10
3077.315
 20
-4748.967
 30
2027.000
 70
    32
  0
VERTEX
  8
3200LEVEL
 62
13
 10
3077.877
 20
-4752.845
 30
2027.000
 70
    32
  0
VERTEX
  8
3200LEVEL
 62
13
 10
3078.899
 20
-4758.264
 30
2027.000
 70
    32
  0
VERTEX
  8
3200LEVEL
 62
13
 10
3080.946
 20
-4765.179
 30
2027.000
 70
    32
  0
VERTEX
  8
3200LEVEL
 62
13
 10
3083.499
 20
-4775.687
 30
2027.000
 70
    32
  0
VERTEX
  8
3200LEVEL
 62
13
 10
3085.888
 20
-4782.088
 30
2027.000
 70
    32
  0
VERTEX
  8
3200LEVEL
 62
13
 10
3088.257
 20
-4788.169
 30
2027.000
 70
    32
  0
VERTEX
  8
3200LEVEL
 62
13
 10
3088.951
 20
-4792.265
 30
2027.000
 70
    32
  0
VERTEX
  8
3200LEVEL
 62
13
 10
3087.702
 20
-4792.526
 30
2027.000
 70
    32
  0
VERTEX
  8
3200LEVEL
 62
13
 10
3083.297
 20
-4788.435
 30
2027.000
 70
    32
  0
VERTEX
  8
3200LEVEL
 62
13
 10
3079.879
 20
-4783.647
 30
2027.000
 70
    32
  0
VERTEX
  8
3200LEVEL
 62
13
 10
3075.213
 20
-4777.565
 30
2027.000
 70
    32
  0
VERTEX
  8
3200LEVEL
 62
13
 10
3072.986
 20
-4774.529
 30
2027.000
 70
    32
  0
VERTEX
  8
3200LEVEL
 62
13
 10
3071.875
 20
-4777.163
 30
2027.000
 70
    32
  0
VERTEX
  8
3200LEVEL
 62
13
 10
3073.340
 20
-4782.920
 30
2027.000
 70
    32
  0
VERTEX
  8
3200LEVEL
 62
13
 10
3074.481
 20
-4790.323
 30
2027.000
 70
    32
  0
VERTEX
  8
3200LEVEL
 62
13
 10
3074.250
 20
-4798.370
 30
2027.000
 70
    32
  0
VERTEX
  8
3200LEVEL
 62
13
 10
3074.689
 20
-4804.928
 30
2027.000
 70
    32
  0
VERTEX
  8
3200LEVEL
 62
13
 10
3074.959
 20
-4808.262
 30
2027.000
 70
    32
  0
VERTEX
  8
3200LEVEL
 62
13
 10
3074.550
 20
-4811.741
 30
2027.000
 70
    32
  0
VERTEX
  8
3200LEVEL
 62
13
 10
3073.039
 20
-4811.566
 30
2027.000
 70
    32
  0
VERTEX
  8
3200LEVEL
 62
13
 10
3069.703
 20
-4805.757
 30
2027.000
 70
    32
  0
VERTEX
  8
3200LEVEL
 62
13
 10
3064.824
 20
-4795.884
 30
2027.000
 70
    32
  0
VERTEX
  8
3200LEVEL
 62
13
 10
3058.561
 20
-4785.381
 30
2027.000
 70
    32
  0
VERTEX
  8
3200LEVEL
 62
13
 10
3050.511
 20
-4772.251
 30
2027.000
 70
    32
  0
VERTEX
  8
3200LEVEL
 62
13
 10
3043.804
 20
-4761.410
 30
2027.000
 70
    32
  0
VERTEX
  8
3200LEVEL
 62
13
 10
3041.903
 20
-4751.321
 30
2027.000
 70
    32
  0
VERTEX
  8
3200LEVEL
 62
13
 10
3041.929
 20
-4743.124
 30
2027.000
 70
    32
  0
VERTEX
  8
3200LEVEL
 62
13
 10
3043.593
 20
-4733.907
 30
2027.000
 70
    32
  0
VERTEX
  8
3200LEVEL
 62
13
 10
3044.234
 20
-4726.162
 30
2027.000
 70
    32
  0
VERTEX
  8
3200LEVEL
 62
13
 10
3043.244
 20
-4719.296
 30
2027.000
 70
    32
  0
VERTEX
  8
3200LEVEL
 62
13
 10
3040.260
 20
-4712.762
 30
2027.000
 70
    32
  0
VERTEX
  8
3200LEVEL
 62
13
 10
3038.289
 20
-4710.303
 30
2027.000
 70
    32
  0
VERTEX
  8
3200LEVEL
 62
13
 10
3034.885
 20
-4705.976
 30
2027.000
 70
    32
  0
VERTEX
  8
3200LEVEL
 62
13
 10
3031.097
 20
-4700.782
 30
2027.000
 70
    32
  0
VERTEX
  8
3200LEVEL
 62
13
 10
3022.033
 20
-4688.171
 30
2027.000
 70
    32
  0
VERTEX
  8
3200LEVEL
 62
13
 10
3018.409
 20
-4682.490
 30
2027.000
 70
    32
  0
VERTEX
  8
3200LEVEL
 62
13
 10
3011.606
 20
-4675.249
 30
2027.000
 70
    32
  0
VERTEX
  8
3200LEVEL
 62
13
 10
3004.948
 20
-4666.389
 30
2027.000
 70
    32
  0
VERTEX
  8
3200LEVEL
 62
13
 10
3002.256
 20
-4659.656
 30
2027.000
 70
    32
  0
VERTEX
  8
3200LEVEL
 62
13
 10
3000.086
 20
-4653.866
 30
2027.000
 70
    32
  0
VERTEX
  8
3200LEVEL
 62
13
 10
2999.560
 20
-4652.252
 30
2027.000
 70
    32
  0
VERTEX
  8
3200LEVEL
 62
13
 10
2999.567
 20
-4649.814
 30
2027.000
 70
    32
  0
VERTEX
  8
3200LEVEL
 62
13
 10
3001.641
 20
-4651.571
 30
2027.000
 70
    32
  0
VERTEX
  8
3200LEVEL
 62
13
 10
3005.380
 20
-4657.822
 30
2027.000
 70
    32
  0
VERTEX
  8
3200LEVEL
 62
13
 10
3008.801
 20
-4664.836
 30
2027.000
 70
    32
  0
VERTEX
  8
3200LEVEL
 62
13
 10
3011.864
 20
-4669.678
 30
2027.000
 70
    32
  0
VERTEX
  8
3200LEVEL
 62
13
 10
3015.792
 20
-4676.433
 30
2027.000
 70
    32
  0
VERTEX
  8
3200LEVEL
 62
13
 10
3020.154
 20
-4681.440
 30
2027.000
 70
    32
  0
VERTEX
  8
3200LEVEL
 62
13
 10
3022.533
 20
-4682.717
 30
2027.000
 70
    32
  0
VERTEX
  8
3200LEVEL
 62
13
 10
3022.369
 20
-4680.165
 30
2027.000
 70
    32
  0
VERTEX
  8
3200LEVEL
 62
13
 10
3019.297
 20
-4670.941
 30
2027.000
 70
    32
  0
VERTEX
  8
3200LEVEL
 62
13
 10
3018.677
 20
-4661.441
 30
2027.000
 70
    32
  0
VERTEX
  8
3200LEVEL
 62
13
 10
3016.984
 20
-4656.027
 30
2027.000
 70
    32
  0
VERTEX
  8
3200LEVEL
 62
13
 10
3013.968
 20
-4645.604
 30
2027.000
 70
    32
  0
VERTEX
  8
3200LEVEL
 62
13
 10
3012.707
 20
-4639.255
 30
2027.000
 70
    32
  0
VERTEX
  8
3200LEVEL
 62
13
 10
3011.474
 20
-4631.530
 30
2027.000
 70
    32
  0
VERTEX
  8
3200LEVEL
 62
13
 10
3011.425
 20
-4629.549
 30
2027.000
 70
    32
  0
VERTEX
  8
3200LEVEL
 62
13
 10
3012.519
 20
-4626.525
 30
2027.000
 70
    32
  0
VERTEX
  8
3200LEVEL
 62
13
 10
3015.951
 20
-4631.772
 30
2027.000
 70
    32
  0
VERTEX
  8
3200LEVEL
 62
13
 10
3020.785
 20
-4638.039
 30
2027.000
 70
    32
  0
VERTEX
  8
3200LEVEL
 62
13
 10
3024.283
 20
-4644.915
 30
2027.000
 70
    32
  0
VERTEX
  8
3200LEVEL
 62
13
 10
3027.579
 20
-4653.867
 30
2027.000
 70
    32
  0
VERTEX
  8
3200LEVEL
 62
13
 10
3027.175
 20
-4660.315
 30
2027.000
 70
    32
  0
VERTEX
  8
3200LEVEL
 62
13
 10
3025.543
 20
-4665.788
 30
2027.000
 70
    32
  0
VERTEX
  8
3200LEVEL
 62
13
 10
3024.226
 20
-4672.865
 30
2027.000
 70
    32
  0
VERTEX
  8
3200LEVEL
 62
13
 10
3024.733
 20
-4680.239
 30
2027.000
 70
    32
  0
VERTEX
  8
3200LEVEL
 62
13
 10
3026.879
 20
-4688.077
 30
2027.000
 70
    32
  0
VERTEX
  8
3200LEVEL
 62
13
 10
3030.911
 20
-4697.169
 30
2027.000
 70
    32
  0
VERTEX
  8
3200LEVEL
 62
13
 10
3034.699
 20
-4702.363
 30
2027.000
 70
    32
  0
VERTEX
  8
3200LEVEL
 62
13
 10
3039.698
 20
-4708.884
 30
2027.000
 70
    32
  0
VERTEX
  8
3200LEVEL
 62
13
 10
3042.843
 20
-4713.447
 30
2027.000
 70
    32
  0
VERTEX
  8
3200LEVEL
 62
13
 10
3046.187
 20
-4719.857
 30
2027.000
 70
    32
  0
VERTEX
  8
3200LEVEL
 62
13
 10
3049.638
 20
-4724.681
 30
2027.000
 70
    32
  0
VERTEX
  8
3200LEVEL
 62
13
 10
3054.814
 20
-4730.433
 30
2027.000
 70
    32
  0
VERTEX
  8
3200LEVEL
 62
13
 10
3059.982
 20
-4735.585
 30
2027.000
 70
    32
  0
VERTEX
  8
3200LEVEL
 62
13
 10
3064.623
 20
-4740.676
 30
2027.000
 70
    32
  0
VERTEX
  8
3200LEVEL
 62
13
 10
3068.109
 20
-4747.835
 30
2027.000
 70
    32
  0
VERTEX
  8
3200LEVEL
 62
13
 10
3070.751
 20
-4752.586
 30
2027.000
 70
    32
  0
VERTEX
  8
3200LEVEL
 62
13
 10
3075.916
 20
-4760.105
 30
2027.000
 70
    32
  0
VERTEX
  8
3200LEVEL
 62
13
 10
3076.346
 20
-4760.726
 30
2027.000
 70
    32
  0
VERTEX
  8
3200LEVEL
 62
13
 10
3077.521
 20
-4760.533
 30
2027.000
 70
    32
  0
VERTEX
  8
3200LEVEL
 62
13
 10
3074.930
 20
-4756.207
 30
2027.000
 70
    32
  0
VERTEX
  8
3200LEVEL
 62
13
 10
3071.684
 20
-4749.979
 30
2027.000
 70
    32
  0
VERTEX
  8
3200LEVEL
 62
13
 10
3069.292
 20
-4741.352
 30
2027.000
 70
    32
  0
VERTEX
  8
3200LEVEL
 62
13
 10
3069.398
 20
-4729.907
 30
2027.000
 70
    32
  0
VERTEX
  8
3200LEVEL
 62
13
 10
3069.917
 20
-4720.991
 30
2027.000
 70
    32
  0
VERTEX
  8
3200LEVEL
 62
13
 10
3069.754
 20
-4706.954
 30
2027.000
 70
    32
  0
VERTEX
  8
3200LEVEL
 62
13
 10
3067.642
 20
-4694.558
 30
2027.000
 70
    32
  0
VERTEX
  8
3200LEVEL
 62
13
 10
3066.545
 20
-4690.762
 30
2027.000
 70
    32
  0
VERTEX
  8
3200LEVEL
 62
13
 10
3062.648
 20
-4684.114
 30
2027.000
 70
    32
  0
VERTEX
  8
3200LEVEL
 62
13
 10
3058.099
 20
-4674.751
 30
2027.000
 70
    32
  0
VERTEX
  8
3200LEVEL
 62
13
 10
3053.251
 20
-4668.025
 30
2027.000
 70
    32
  0
VERTEX
  8
3200LEVEL
 62
13
 10
3046.053
 20
-4657.090
 30
2027.000
 70
    32
  0
VERTEX
  8
3200LEVEL
 62
13
 10
3040.484
 20
-4648.386
 30
2027.000
 70
    32
  0
VERTEX
  8
3200LEVEL
 62
13
 10
3037.702
 20
-4639.776
 30
2027.000
 70
    32
  0
VERTEX
  8
3200LEVEL
 62
13
 10
3035.308
 20
-4632.704
 30
2027.000
 70
    32
  0
VERTEX
  8
3200LEVEL
 62
13
 10
3033.608
 20
-4624.391
 30
2027.000
 70
    32
  0
VERTEX
  8
3200LEVEL
 62
13
 10
3032.057
 20
-4619.726
 30
2027.000
 70
    32
  0
VERTEX
  8
3200LEVEL
 62
13
 10
3029.999
 20
-4612.280
 30
2027.000
 70
    32
  0
VERTEX
  8
3200LEVEL
 62
13
 10
3029.451
 20
-4609.604
 30
2027.000
 70
    32
  0
VERTEX
  8
3200LEVEL
 62
13
 10
3029.324
 20
-4607.019
 30
2027.000
 70
    32
  0
VERTEX
  8
3200LEVEL
 62
13
 10
3029.957
 20
-4605.564
 30
2027.000
 70
    32
  0
VERTEX
  8
3200LEVEL
 62
13
 10
3031.404
 20
-4605.595
 30
2027.000
 70
    32
  0
VERTEX
  8
3200LEVEL
 62
13
 10
3034.889
 20
-4610.457
 30
2027.000
 70
    32
  0
VERTEX
  8
3200LEVEL
 62
13
 10
3037.798
 20
-4615.574
 30
2027.000
 70
    32
  0
VERTEX
  8
3200LEVEL
 62
13
 10
3040.297
 20
-4624.171
 30
2027.000
 70
    32
  0
VERTEX
  8
3200LEVEL
 62
13
 10
3045.257
 20
-4636.875
 30
2027.000
 70
    32
  0
VERTEX
  8
3200LEVEL
 62
13
 10
3051.042
 20
-4646.260
 30
2027.000
 70
    32
  0
VERTEX
  8
3200LEVEL
 62
13
 10
3058.175
 20
-4658.605
 30
2027.000
 70
    32
  0
VERTEX
  8
3200LEVEL
 62
13
 10
3063.076
 20
-4667.243
 30
2027.000
 70
    32
  0
VERTEX
  8
3200LEVEL
 62
13
 10
3067.018
 20
-4675.199
 30
2027.000
 70
    32
  0
VERTEX
  8
3200LEVEL
 62
13
 10
3069.241
 20
-4679.861
 30
2027.000
 70
    32
  0
VERTEX
  8
3200LEVEL
 62
13
 10
3070.416
 20
-4681.965
 30
2027.000
 70
    32
  0
VERTEX
  8
3200LEVEL
 62
13
 10
3070.877
 20
-4682.693
 30
2027.000
 70
    32
  0
VERTEX
  8
3200LEVEL
 62
13
 10
3071.860
 20
-4682.067
 30
2027.000
 70
    32
  0
VERTEX
  8
3200LEVEL
 62
13
 10
3073.016
 20
-4677.703
 30
2027.000
 70
    32
  0
VERTEX
  8
3200LEVEL
 62
13
 10
3071.991
 20
-4669.316
 30
2027.000
 70
    32
  0
VERTEX
  8
3200LEVEL
 62
13
 10
3071.015
 20
-4659.871
 30
2027.000
 70
    32
  0
VERTEX
  8
3200LEVEL
 62
13
 10
3071.933
 20
-4656.062
 30
2027.000
 70
    32
  0
VERTEX
  8
3200LEVEL
 62
13
 10
3073.136
 20
-4654.492
 30
2027.000
 70
    32
  0
VERTEX
  8
3200LEVEL
 62
13
 10
3073.938
 20
-4656.260
 30
2027.000
 70
    32
  0
VERTEX
  8
3200LEVEL
 62
13
 10
3075.658
 20
-4659.556
 30
2027.000
 70
    32
  0
VERTEX
  8
3200LEVEL
 62
13
 10
3076.684
 20
-4660.310
 30
2027.000
 70
    32
  0
VERTEX
  8
3200LEVEL
 62
13
 10
3078.067
 20
-4657.900
 30
2027.000
 70
    32
  0
VERTEX
  8
3200LEVEL
 62
13
 10
3079.303
 20
-4652.586
 30
2027.000
 70
    32
  0
VERTEX
  8
3200LEVEL
 62
13
 10
3081.273
 20
-4648.967
 30
2027.000
 70
    32
  0
VERTEX
  8
3200LEVEL
 62
13
 10
3082.791
 20
-4649.002
 30
2027.000
 70
    32
  0
VERTEX
  8
3200LEVEL
 62
13
 10
3086.182
 20
-4651.315
 30
2027.000
 70
    32
  0
VERTEX
  8
3200LEVEL
 62
13
 10
3089.674
 20
-4653.738
 30
2027.000
 70
    32
  0
VERTEX
  8
3200LEVEL
 62
13
 10
3094.529
 20
-4658.026
 30
2027.000
 70
    32
  0
VERTEX
  8
3200LEVEL
 62
13
 10
3098.477
 20
-4659.764
 30
2027.000
 70
    32
  0
VERTEX
  8
3200LEVEL
 62
13
 10
3099.741
 20
-4658.409
 30
2027.000
 70
    32
  0
VERTEX
  8
3200LEVEL
 62
13
 10
3098.349
 20
-4654.139
 30
2027.000
 70
    32
  0
VERTEX
  8
3200LEVEL
 62
13
 10
3094.229
 20
-4646.952
 30
2027.000
 70
    32
  0
VERTEX
  8
3200LEVEL
 62
13
 10
3090.874
 20
-4641.566
 30
2027.000
 70
    32
  0
VERTEX
  8
3200LEVEL
 62
13
 10
3088.383
 20
-4637.352
 30
2027.000
 70
    32
  0
VERTEX
  8
3200LEVEL
 62
13
 10
3087.864
 20
-4635.596
 30
2027.000
 70
    32
  0
VERTEX
  8
3200LEVEL
 62
13
 10
3088.786
 20
-4634.755
 30
2027.000
 70
    32
  0
VERTEX
  8
3200LEVEL
 62
13
 10
3091.733
 20
-4638.284
 30
2027.000
 70
    32
  0
VERTEX
  8
3200LEVEL
 62
13
 10
3095.231
 20
-4642.864
 30
2027.000
 70
    32
  0
VERTEX
  8
3200LEVEL
 62
13
 10
3099.576
 20
-4649.779
 30
2027.000
 70
    32
  0
VERTEX
  8
3200LEVEL
 62
13
 10
3103.639
 20
-4655.126
 30
2027.000
 70
    32
  0
VERTEX
  8
3200LEVEL
 62
13
 10
3109.108
 20
-4661.422
 30
2027.000
 70
    32
  0
VERTEX
  8
3200LEVEL
 62
13
 10
3113.195
 20
-4666.276
 30
2027.000
 70
    32
  0
VERTEX
  8
3200LEVEL
 62
13
 10
3115.445
 20
-4669.561
 30
2027.000
 70
    32
  0
VERTEX
  8
3200LEVEL
 62
13
 10
3117.564
 20
-4674.182
 30
2027.000
 70
    32
  0
VERTEX
  8
3200LEVEL
 62
13
 10
3119.376
 20
-4678.542
 30
2027.000
 70
    32
  0
VERTEX
  8
3200LEVEL
 62
13
 10
3122.262
 20
-4681.856
 30
2027.000
 70
    32
  0
VERTEX
  8
3200LEVEL
 62
13
 10
3124.938
 20
-4684.348
 30
2027.000
 70
    32
  0
VERTEX
  8
3200LEVEL
 62
13
 10
3127.297
 20
-4685.305
 30
2027.000
 70
    32
  0
VERTEX
  8
3200LEVEL
 62
13
 10
3127.301
 20
-4682.937
 30
2027.000
 70
    32
  0
VERTEX
  8
3200LEVEL
 62
13
 10
3126.519
 20
-4680.746
 30
2027.000
 70
    32
  0
VERTEX
  8
3200LEVEL
 62
13
 10
3124.481
 20
-4675.916
 30
2027.000
 70
    32
  0
VERTEX
  8
3200LEVEL
 62
13
 10
3123.333
 20
-4671.693
 30
2027.000
 70
    32
  0
VERTEX
  8
3200LEVEL
 62
13
 10
3124.899
 20
-4669.928
 30
2027.000
 70
    32
  0
VERTEX
  8
3200LEVEL
 62
13
 10
3124.264
 20
-4666.859
 30
2027.000
 70
    32
  0
VERTEX
  8
3200LEVEL
 62
13
 10
3118.830
 20
-4656.748
 30
2027.000
 70
    32
  0
VERTEX
  8
3200LEVEL
 62
13
 10
3111.506
 20
-4646.267
 30
2027.000
 70
    32
  0
VERTEX
  8
3200LEVEL
 62
13
 10
3108.869
 20
-4640.632
 30
2027.000
 70
    32
  0
VERTEX
  8
3200LEVEL
 62
13
 10
3105.737
 20
-4634.233
 30
2027.000
 70
    32
  0
VERTEX
  8
3200LEVEL
 62
13
 10
3105.457
 20
-4632.665
 30
2027.000
 70
    32
  0
VERTEX
  8
3200LEVEL
 62
13
 10
3106.171
 20
-4631.744
 30
2027.000
 70
    32
  0
VERTEX
  8
3200LEVEL
 62
13
 10
3109.556
 20
-4634.940
 30
2027.000
 70
    32
  0
VERTEX
  8
3200LEVEL
 62
13
 10
3112.403
 20
-4639.100
 30
2027.000
 70
    32
  0
VERTEX
  8
3200LEVEL
 62
13
 10
3115.249
 20
-4643.260
 30
2027.000
 70
    32
  0
VERTEX
  8
3200LEVEL
 62
13
 10
3119.083
 20
-4649.763
 30
2027.000
 70
    32
  0
VERTEX
  8
3200LEVEL
 62
13
 10
3122.135
 20
-4654.817
 30
2027.000
 70
    32
  0
VERTEX
  8
3200LEVEL
 62
13
 10
3124.792
 20
-4662.325
 30
2027.000
 70
    32
  0
VERTEX
  8
3200LEVEL
 62
13
 10
3127.014
 20
-4666.987
 30
2027.000
 70
    32
  0
VERTEX
  8
3200LEVEL
 62
13
 10
3127.973
 20
-4670.706
 30
2027.000
 70
    32
  0
VERTEX
  8
3200LEVEL
 62
13
 10
3127.876
 20
-4671.267
 30
2027.000
 70
    32
  0
VERTEX
  8
3200LEVEL
 62
13
 10
3127.068
 20
-4671.936
 30
2027.000
 70
    32
  0
VERTEX
  8
3200LEVEL
 62
13
 10
3126.400
 20
-4672.612
 30
2027.000
 70
    32
  0
VERTEX
  8
3200LEVEL
 62
13
 10
3126.457
 20
-4674.453
 30
2027.000
 70
    32
  0
VERTEX
  8
3200LEVEL
 62
13
 10
3127.277
 20
-4678.095
 30
2027.000
 70
    32
  0
VERTEX
  8
3200LEVEL
 62
13
 10
3129.879
 20
-4682.209
 30
2027.000
 70
    32
  0
VERTEX
  8
3200LEVEL
 62
13
 10
3132.047
 20
-4684.217
 30
2027.000
 70
    32
  0
VERTEX
  8
3200LEVEL
 62
13
 10
3136.321
 20
-4688.090
 30
2027.000
 70
    32
  0
VERTEX
  8
3200LEVEL
 62
13
 10
3139.373
 20
-4693.144
 30
2027.000
 70
    32
  0
VERTEX
  8
3200LEVEL
 62
13
 10
3141.124
 20
-4696.546
 30
2027.000
 70
    32
  0
VERTEX
  8
3200LEVEL
 62
13
 10
3143.261
 20
-4700.003
 30
2027.000
 70
    32
  0
VERTEX
  8
3200LEVEL
 62
13
 10
3146.615
 20
-4704.646
 30
2027.000
 70
    32
  0
VERTEX
  8
3200LEVEL
 62
13
 10
3149.357
 20
-4708.766
 30
2027.000
 70
    32
  0
VERTEX
  8
3200LEVEL
 62
13
 10
3150.391
 20
-4710.863
 30
2027.000
 70
    32
  0
VERTEX
  8
3200LEVEL
 62
13
 10
3152.199
 20
-4714.552
 30
2027.000
 70
    32
  0
SEQEND
  8
3200LEVEL
  0
POLYLINE
  8
3200LEVEL
 62
13
 66
     1
 70
     8
  0
VERTEX
  8
3200LEVEL
 62
13
 10
3400.775
 20
-5064.775
 30
2027.000
 70
    32
  0
VERTEX
  8
3200LEVEL
 62
13
 10
3399.080
 20
-5063.441
 30
2027.000
 70
    32
  0
VERTEX
  8
3200LEVEL
 62
13
 10
3396.704
 20
-5061.124
 30
2027.000
 70
    32
  0
VERTEX
  8
3200LEVEL
 62
13
 10
3393.274
 20
-5057.361
 30
2027.000
 70
    32
  0
VERTEX
  8
3200LEVEL
 62
13
 10
3388.330
 20
-5051.937
 30
2027.000
 70
    32
  0
VERTEX
  8
3200LEVEL
 62
13
 10
3386.451
 20
-5048.246
 30
2027.000
 70
    32
  0
VERTEX
  8
3200LEVEL
 62
13
 10
3386.680
 20
-5046.348
 30
2027.000
 70
    32
  0
VERTEX
  8
3200LEVEL
 62
13
 10
3388.607
 20
-5045.200
 30
2027.000
 70
    32
  0
VERTEX
  8
3200LEVEL
 62
13
 10
3393.242
 20
-5045.839
 30
2027.000
 70
    32
  0
VERTEX
  8
3200LEVEL
 62
13
 10
3396.716
 20
-5047.130
 30
2027.000
 70
    32
  0
VERTEX
  8
3200LEVEL
 62
13
 10
3398.772
 20
-5047.756
 30
2027.000
 70
    32
  0
VERTEX
  8
3200LEVEL
 62
13
 10
3399.043
 20
-5047.238
 30
2027.000
 70
    32
  0
VERTEX
  8
3200LEVEL
 62
13
 10
3396.205
 20
-5042.124
 30
2027.000
 70
    32
  0
VERTEX
  8
3200LEVEL
 62
13
 10
3392.373
 20
-5036.363
 30
2027.000
 70
    32
  0
VERTEX
  8
3200LEVEL
 62
13
 10
3390.145
 20
-5032.585
 30
2027.000
 70
    32
  0
VERTEX
  8
3200LEVEL
 62
13
 10
3388.160
 20
-5029.666
 30
2027.000
 70
    32
  0
VERTEX
  8
3200LEVEL
 62
13
 10
3387.751
 20
-5027.810
 30
2027.000
 70
    32
  0
SEQEND
  8
3200LEVEL
  0
POLYLINE
  8
3200LEVEL
 62
13
 66
     1
 70
     8
  0
VERTEX
  8
3200LEVEL
 62
13
 10
3381.872
 20
-5021.212
 30
2027.000
 70
    32
  0
VERTEX
  8
3200LEVEL
 62
13
 10
3381.445
 20
-5020.521
 30
2027.000
 70
    32
  0
VERTEX
  8
3200LEVEL
 62
13
 10
3376.726
 20
-5017.864
 30
2027.000
 70
    32
  0
VERTEX
  8
3200LEVEL
 62
13
 10
3371.781
 20
-5016.292
 30
2027.000
 70
    32
  0
VERTEX
  8
3200LEVEL
 62
13
 10
3368.617
 20
-5013.637
 30
2027.000
 70
    32
  0
VERTEX
  8
3200LEVEL
 62
13
 10
3365.284
 20
-5009.312
 30
2027.000
 70
    32
  0
VERTEX
  8
3200LEVEL
 62
13
 10
3363.376
 20
-5006.256
 30
2027.000
 70
    32
  0
VERTEX
  8
3200LEVEL
 62
13
 10
3363.402
 20
-5005.691
 30
2027.000
 70
    32
  0
VERTEX
  8
3200LEVEL
 62
13
 10
3364.577
 20
-5005.498
 30
2027.000
 70
    32
  0
VERTEX
  8
3200LEVEL
 62
13
 10
3365.661
 20
-5004.983
 30
2027.000
 70
    32
  0
VERTEX
  8
3200LEVEL
 62
13
 10
3366.526
 20
-5003.857
 30
2027.000
 70
    32
  0
VERTEX
  8
3200LEVEL
 62
13
 10
3364.904
 20
-5001.485
 30
2027.000
 70
    32
  0
VERTEX
  8
3200LEVEL
 62
13
 10
3359.017
 20
-4996.583
 30
2027.000
 70
    32
  0
VERTEX
  8
3200LEVEL
 62
13
 10
3353.821
 20
-4992.809
 30
2027.000
 70
    32
  0
VERTEX
  8
3200LEVEL
 62
13
 10
3348.188
 20
-4987.000
 30
2027.000
 70
    32
  0
VERTEX
  8
3200LEVEL
 62
13
 10
3342.623
 20
-4981.265
 30
2027.000
 70
    32
  0
VERTEX
  8
3200LEVEL
 62
13
 10
3337.024
 20
-4975.493
 30
2027.000
 70
    32
  0
VERTEX
  8
3200LEVEL
 62
13
 10
3331.641
 20
-4970.402
 30
2027.000
 70
    32
  0
VERTEX
  8
3200LEVEL
 62
13
 10
3325.842
 20
-4965.893
 30
2027.000
 70
    32
  0
VERTEX
  8
3200LEVEL
 62
13
 10
3319.155
 20
-4962.262
 30
2027.000
 70
    32
  0
VERTEX
  8
3200LEVEL
 62
13
 10
3314.845
 20
-4959.165
 30
2027.000
 70
    32
  0
VERTEX
  8
3200LEVEL
 62
13
 10
3308.445
 20
-4953.921
 30
2027.000
 70
    32
  0
VERTEX
  8
3200LEVEL
 62
13
 10
3304.201
 20
-4949.413
 30
2027.000
 70
    32
  0
VERTEX
  8
3200LEVEL
 62
13
 10
3300.511
 20
-4945.143
 30
2027.000
 70
    32
  0
VERTEX
  8
3200LEVEL
 62
13
 10
3295.803
 20
-4939.978
 30
2027.000
 70
    32
  0
VERTEX
  8
3200LEVEL
 62
13
 10
3292.406
 20
-4936.252
 30
2027.000
 70
    32
  0
VERTEX
  8
3200LEVEL
 62
13
 10
3287.432
 20
-4930.721
 30
2027.000
 70
    32
  0
VERTEX
  8
3200LEVEL
 62
13
 10
3283.742
 20
-4925.709
 30
2027.000
 70
    32
  0
VERTEX
  8
3200LEVEL
 62
13
 10
3278.805
 20
-4920.144
 30
2027.000
 70
    32
  0
VERTEX
  8
3200LEVEL
 62
13
 10
3273.997
 20
-4913.313
 30
2027.000
 70
    32
  0
VERTEX
  8
3200LEVEL
 62
13
 10
3271.241
 20
-4909.475
 30
2027.000
 70
    32
  0
VERTEX
  8
3200LEVEL
 62
13
 10
3267.612
 20
-4904.678
 30
2027.000
 70
    32
  0
VERTEX
  8
3200LEVEL
 62
13
 10
3263.337
 20
-4900.063
 30
2027.000
 70
    32
  0
VERTEX
  8
3200LEVEL
 62
13
 10
3261.057
 20
-4897.413
 30
2027.000
 70
    32
  0
VERTEX
  8
3200LEVEL
 62
13
 10
3259.313
 20
-4893.869
 30
2027.000
 70
    32
  0
VERTEX
  8
3200LEVEL
 62
13
 10
3256.502
 20
-4891.230
 30
2027.000
 70
    32
  0
VERTEX
  8
3200LEVEL
 62
13
 10
3252.720
 20
-4888.192
 30
2027.000
 70
    32
  0
VERTEX
  8
3200LEVEL
 62
13
 10
3250.803
 20
-4886.089
 30
2027.000
 70
    32
  0
VERTEX
  8
3200LEVEL
 62
13
 10
3246.296
 20
-4883.442
 30
2027.000
 70
    32
  0
VERTEX
  8
3200LEVEL
 62
13
 10
3246.081
 20
-4883.503
 30
2027.000
 70
    32
  0
VERTEX
  8
3200LEVEL
 62
13
 10
3244.382
 20
-4883.566
 30
2027.000
 70
    32
  0
VERTEX
  8
3200LEVEL
 62
13
 10
3243.011
 20
-4882.654
 30
2027.000
 70
    32
  0
VERTEX
  8
3200LEVEL
 62
13
 10
3238.092
 20
-4878.221
 30
2027.000
 70
    32
  0
VERTEX
  8
3200LEVEL
 62
13
 10
3234.886
 20
-4874.185
 30
2027.000
 70
    32
  0
VERTEX
  8
3200LEVEL
 62
13
 10
3230.026
 20
-4865.444
 30
2027.000
 70
    32
  0
VERTEX
  8
3200LEVEL
 62
13
 10
3226.054
 20
-4855.825
 30
2027.000
 70
    32
  0
VERTEX
  8
3200LEVEL
 62
13
 10
3223.080
 20
-4849.079
 30
2027.000
 70
    32
  0
VERTEX
  8
3200LEVEL
 62
13
 10
3219.567
 20
-4841.743
 30
2027.000
 70
    32
  0
VERTEX
  8
3200LEVEL
 62
13
 10
3215.082
 20
-4837.860
 30
2027.000
 70
    32
  0
VERTEX
  8
3200LEVEL
 62
13
 10
3210.854
 20
-4834.554
 30
2027.000
 70
    32
  0
VERTEX
  8
3200LEVEL
 62
13
 10
3203.596
 20
-4828.741
 30
2027.000
 70
    32
  0
VERTEX
  8
3200LEVEL
 62
13
 10
3197.046
 20
-4822.890
 30
2027.000
 70
    32
  0
VERTEX
  8
3200LEVEL
 62
13
 10
3188.891
 20
-4814.314
 30
2027.000
 70
    32
  0
VERTEX
  8
3200LEVEL
 62
13
 10
3183.479
 20
-4807.561
 30
2027.000
 70
    32
  0
VERTEX
  8
3200LEVEL
 62
13
 10
3182.377
 20
-4804.647
 30
2027.000
 70
    32
  0
VERTEX
  8
3200LEVEL
 62
13
 10
3182.215
 20
-4803.580
 30
2027.000
 70
    32
  0
VERTEX
  8
3200LEVEL
 62
13
 10
3183.021
 20
-4803.723
 30
2027.000
 70
    32
  0
VERTEX
  8
3200LEVEL
 62
13
 10
3185.778
 20
-4806.749
 30
2027.000
 70
    32
  0
VERTEX
  8
3200LEVEL
 62
13
 10
3189.096
 20
-4811.425
 30
2027.000
 70
    32
  0
VERTEX
  8
3200LEVEL
 62
13
 10
3192.255
 20
-4815.706
 30
2027.000
 70
    32
  0
VERTEX
  8
3200LEVEL
 62
13
 10
3197.047
 20
-4820.593
 30
2027.000
 70
    32
  0
VERTEX
  8
3200LEVEL
 62
13
 10
3200.899
 20
-4823.633
 30
2027.000
 70
    32
  0
VERTEX
  8
3200LEVEL
 62
13
 10
3205.541
 20
-4827.170
 30
2027.000
 70
    32
  0
VERTEX
  8
3200LEVEL
 62
13
 10
3208.336
 20
-4827.865
 30
2027.000
 70
    32
  0
VERTEX
  8
3200LEVEL
 62
13
 10
3212.045
 20
-4828.673
 30
2027.000
 70
    32
  0
VERTEX
  8
3200LEVEL
 62
13
 10
3213.932
 20
-4828.371
 30
2027.000
 70
    32
  0
VERTEX
  8
3200LEVEL
 62
13
 10
3214.548
 20
-4827.269
 30
2027.000
 70
    32
  0
VERTEX
  8
3200LEVEL
 62
13
 10
3214.200
 20
-4825.627
 30
2027.000
 70
    32
  0
VERTEX
  8
3200LEVEL
 62
13
 10
3213.755
 20
-4824.547
 30
2027.000
 70
    32
  0
VERTEX
  8
3200LEVEL
 62
13
 10
3213.104
 20
-4824.870
 30
2027.000
 70
    32
  0
VERTEX
  8
3200LEVEL
 62
13
 10
3212.342
 20
-4825.294
 30
2027.000
 70
    32
  0
VERTEX
  8
3200LEVEL
 62
13
 10
3211.097
 20
-4825.484
 30
2027.000
 70
    32
  0
VERTEX
  8
3200LEVEL
 62
13
 10
3209.465
 20
-4823.323
 30
2027.000
 70
    32
  0
VERTEX
  8
3200LEVEL
 62
13
 10
3209.085
 20
-4820.090
 30
2027.000
 70
    32
  0
VERTEX
  8
3200LEVEL
 62
13
 10
3207.104
 20
-4815.545
 30
2027.000
 70
    32
  0
VERTEX
  8
3200LEVEL
 62
13
 10
3205.515
 20
-4812.468
 30
2027.000
 70
    32
  0
VERTEX
  8
3200LEVEL
 62
13
 10
3205.023
 20
-4810.891
 30
2027.000
 70
    32
  0
VERTEX
  8
3200LEVEL
 62
13
 10
3205.663
 20
-4810.037
 30
2027.000
 70
    32
  0
VERTEX
  8
3200LEVEL
 62
13
 10
3206.522
 20
-4809.794
 30
2027.000
 70
    32
  0
VERTEX
  8
3200LEVEL
 62
13
 10
3206.696
 20
-4809.095
 30
2027.000
 70
    32
  0
VERTEX
  8
3200LEVEL
 62
13
 10
3206.473
 20
-4807.813
 30
2027.000
 70
    32
  0
VERTEX
  8
3200LEVEL
 62
13
 10
3207.026
 20
-4807.308
 30
2027.000
 70
    32
  0
VERTEX
  8
3200LEVEL
 62
13
 10
3207.991
 20
-4807.847
 30
2027.000
 70
    32
  0
VERTEX
  8
3200LEVEL
 62
13
 10
3208.932
 20
-4808.881
 30
2027.000
 70
    32
  0
VERTEX
  8
3200LEVEL
 62
13
 10
3210.129
 20
-4809.749
 30
2027.000
 70
    32
  0
VERTEX
  8
3200LEVEL
 62
13
 10
3211.275
 20
-4810.190
 30
2027.000
 70
    32
  0
VERTEX
  8
3200LEVEL
 62
13
 10
3213.308
 20
-4811.309
 30
2027.000
 70
    32
  0
VERTEX
  8
3200LEVEL
 62
13
 10
3214.738
 20
-4813.249
 30
2027.000
 70
    32
  0
VERTEX
  8
3200LEVEL
 62
13
 10
3215.985
 20
-4814.543
 30
2027.000
 70
    32
  0
VERTEX
  8
3200LEVEL
 62
13
 10
3218.221
 20
-4816.626
 30
2027.000
 70
    32
  0
VERTEX
  8
3200LEVEL
 62
13
 10
3221.442
 20
-4819.566
 30
2027.000
 70
    32
  0
VERTEX
  8
3200LEVEL
 62
13
 10
3222.942
 20
-4821.509
 30
2027.000
 70
    32
  0
VERTEX
  8
3200LEVEL
 62
13
 10
3224.155
 20
-4824.321
 30
2027.000
 70
    32
  0
VERTEX
  8
3200LEVEL
 62
13
 10
3224.735
 20
-4826.292
 30
2027.000
 70
    32
  0
VERTEX
  8
3200LEVEL
 62
13
 10
3225.416
 20
-4828.373
 30
2027.000
 70
    32
  0
VERTEX
  8
3200LEVEL
 62
13
 10
3226.503
 20
-4830.084
 30
2027.000
 70
    32
  0
VERTEX
  8
3200LEVEL
 62
13
 10
3229.613
 20
-4832.384
 30
2027.000
 70
    32
  0
VERTEX
  8
3200LEVEL
 62
13
 10
3233.649
 20
-4834.514
 30
2027.000
 70
    32
  0
VERTEX
  8
3200LEVEL
 62
13
 10
3236.788
 20
-4836.921
 30
2027.000
 70
    32
  0
VERTEX
  8
3200LEVEL
 62
13
 10
3239.989
 20
-4839.543
 30
2027.000
 70
    32
  0
VERTEX
  8
3200LEVEL
 62
13
 10
3242.625
 20
-4842.139
 30
2027.000
 70
    32
  0
VERTEX
  8
3200LEVEL
 62
13
 10
3245.225
 20
-4845.510
 30
2027.000
 70
    32
  0
VERTEX
  8
3200LEVEL
 62
13
 10
3246.724
 20
-4849.007
 30
2027.000
 70
    32
  0
VERTEX
  8
3200LEVEL
 62
13
 10
3247.594
 20
-4851.592
 30
2027.000
 70
    32
  0
VERTEX
  8
3200LEVEL
 62
13
 10
3248.309
 20
-4853.710
 30
2027.000
 70
    32
  0
VERTEX
  8
3200LEVEL
 62
13
 10
3248.952
 20
-4855.083
 30
2027.000
 70
    32
  0
SEQEND
  8
3200LEVEL
  0
POLYLINE
  8
3200LEVEL
 62
13
 66
     1
 70
     8
  0
VERTEX
  8
3200LEVEL
 62
13
 10
3279.803
 20
-4910.790
 30
2027.000
 70
    32
  0
VERTEX
  8
3200LEVEL
 62
13
 10
3280.852
 20
-4911.793
 30
2027.000
 70
    32
  0
VERTEX
  8
3200LEVEL
 62
13
 10
3281.690
 20
-4912.786
 30
2027.000
 70
    32
  0
VERTEX
  8
3200LEVEL
 62
13
 10
3282.497
 20
-4913.671
 30
2027.000
 70
    32
  0
VERTEX
  8
3200LEVEL
 62
13
 10
3283.277
 20
-4914.379
 30
2027.000
 70
    32
  0
VERTEX
  8
3200LEVEL
 62
13
 10
3284.977
 20
-4915.058
 30
2027.000
 70
    32
  0
VERTEX
  8
3200LEVEL
 62
13
 10
3286.126
 20
-4915.430
 30
2027.000
 70
    32
  0
VERTEX
  8
3200LEVEL
 62
13
 10
3288.729
 20
-4915.691
 30
2027.000
 70
    32
  0
VERTEX
  8
3200LEVEL
 62
13
 10
3290.254
 20
-4916.327
 30
2027.000
 70
    32
  0
VERTEX
  8
3200LEVEL
 62
13
 10
3291.678
 20
-4916.111
 30
2027.000
 70
    32
  0
VERTEX
  8
3200LEVEL
 62
13
 10
3291.543
 20
-4913.666
 30
2027.000
 70
    32
  0
VERTEX
  8
3200LEVEL
 62
13
 10
3290.556
 20
-4911.323
 30
2027.000
 70
    32
  0
VERTEX
  8
3200LEVEL
 62
13
 10
3289.929
 20
-4910.508
 30
2027.000
 70
    32
  0
SEQEND
  8
3200LEVEL
  0
POLYLINE
  8
3200LEVEL
 62
13
 66
     1
 70
     8
  0
VERTEX
  8
3200LEVEL
 62
13
 10
3255.834
 20
-4815.575
 30
2027.000
 70
    32
  0
VERTEX
  8
3200LEVEL
 62
13
 10
3254.737
 20
-4813.424
 30
2027.000
 70
    32
  0
VERTEX
  8
3200LEVEL
 62
13
 10
3254.171
 20
-4812.565
 30
2027.000
 70
    32
  0
VERTEX
  8
3200LEVEL
 62
13
 10
3250.806
 20
-4807.391
 30
2027.000
 70
    32
  0
VERTEX
  8
3200LEVEL
 62
13
 10
3249.072
 20
-4803.636
 30
2027.000
 70
    32
  0
VERTEX
  8
3200LEVEL
 62
13
 10
3249.117
 20
-4801.906
 30
2027.000
 70
    32
  0
VERTEX
  8
3200LEVEL
 62
13
 10
3250.317
 20
-4800.407
 30
2027.000
 70
    32
  0
VERTEX
  8
3200LEVEL
 62
13
 10
3252.426
 20
-4800.646
 30
2027.000
 70
    32
  0
VERTEX
  8
3200LEVEL
 62
13
 10
3254.450
 20
-4802.719
 30
2027.000
 70
    32
  0
VERTEX
  8
3200LEVEL
 62
13
 10
3255.008
 20
-4802.886
 30
2027.000
 70
    32
  0
VERTEX
  8
3200LEVEL
 62
13
 10
3255.440
 20
-4801.952
 30
2027.000
 70
    32
  0
VERTEX
  8
3200LEVEL
 62
13
 10
3256.030
 20
-4801.414
 30
2027.000
 70
    32
  0
VERTEX
  8
3200LEVEL
 62
13
 10
3257.273
 20
-4801.294
 30
2027.000
 70
    32
  0
VERTEX
  8
3200LEVEL
 62
13
 10
3258.019
 20
-4801.965
 30
2027.000
 70
    32
  0
VERTEX
  8
3200LEVEL
 62
13
 10
3258.448
 20
-4801.101
 30
2027.000
 70
    32
  0
VERTEX
  8
3200LEVEL
 62
13
 10
3259.464
 20
-4799.770
 30
2027.000
 70
    32
  0
VERTEX
  8
3200LEVEL
 62
13
 10
3260.840
 20
-4799.799
 30
2027.000
 70
    32
  0
VERTEX
  8
3200LEVEL
 62
13
 10
3262.218
 20
-4802.866
 30
2027.000
 70
    32
  0
VERTEX
  8
3200LEVEL
 62
13
 10
3262.683
 20
-4804.266
 30
2027.000
 70
    32
  0
VERTEX
  8
3200LEVEL
 62
13
 10
3263.938
 20
-4806.162
 30
2027.000
 70
    32
  0
VERTEX
  8
3200LEVEL
 62
13
 10
3264.774
 20
-4805.670
 30
2027.000
 70
    32
  0
VERTEX
  8
3200LEVEL
 62
13
 10
3266.211
 20
-4805.171
 30
2027.000
 70
    32
  0
VERTEX
  8
3200LEVEL
 62
13
 10
3266.601
 20
-4803.599
 30
2027.000
 70
    32
  0
VERTEX
  8
3200LEVEL
 62
13
 10
3267.335
 20
-4802.255
 30
2027.000
 70
    32
  0
VERTEX
  8
3200LEVEL
 62
13
 10
3268.577
 20
-4802.136
 30
2027.000
 70
    32
  0
VERTEX
  8
3200LEVEL
 62
13
 10
3270.638
 20
-4801.136
 30
2027.000
 70
    32
  0
VERTEX
  8
3200LEVEL
 62
13
 10
3271.464
 20
-4798.559
 30
2027.000
 70
    32
  0
VERTEX
  8
3200LEVEL
 62
13
 10
3272.303
 20
-4793.403
 30
2027.000
 70
    32
  0
VERTEX
  8
3200LEVEL
 62
13
 10
3273.009
 20
-4791.139
 30
2027.000
 70
    32
  0
VERTEX
  8
3200LEVEL
 62
13
 10
3274.081
 20
-4791.648
 30
2027.000
 70
    32
  0
VERTEX
  8
3200LEVEL
 62
13
 10
3275.156
 20
-4794.383
 30
2027.000
 70
    32
  0
VERTEX
  8
3200LEVEL
 62
13
 10
3276.558
 20
-4796.144
 30
2027.000
 70
    32
  0
VERTEX
  8
3200LEVEL
 62
13
 10
3277.612
 20
-4795.522
 30
2027.000
 70
    32
  0
VERTEX
  8
3200LEVEL
 62
13
 10
3277.649
 20
-4793.191
 30
2027.000
 70
    32
  0
VERTEX
  8
3200LEVEL
 62
13
 10
3278.085
 20
-4792.186
 30
2027.000
 70
    32
  0
VERTEX
  8
3200LEVEL
 62
13
 10
3279.395
 20
-4792.883
 30
2027.000
 70
    32
  0
VERTEX
  8
3200LEVEL
 62
13
 10
3280.868
 20
-4794.648
 30
2027.000
 70
    32
  0
VERTEX
  8
3200LEVEL
 62
13
 10
3281.699
 20
-4795.782
 30
2027.000
 70
    32
  0
VERTEX
  8
3200LEVEL
 62
13
 10
3282.540
 20
-4794.407
 30
2027.000
 70
    32
  0
VERTEX
  8
3200LEVEL
 62
13
 10
3281.678
 20
-4792.423
 30
2027.000
 70
    32
  0
VERTEX
  8
3200LEVEL
 62
13
 10
3279.841
 20
-4790.112
 30
2027.000
 70
    32
  0
VERTEX
  8
3200LEVEL
 62
13
 10
3279.088
 20
-4788.840
 30
2027.000
 70
    32
  0
VERTEX
  8
3200LEVEL
 62
13
 10
3280.221
 20
-4788.009
 30
2027.000
 70
    32
  0
VERTEX
  8
3200LEVEL
 62
13
 10
3282.022
 20
-4788.800
 30
2027.000
 70
    32
  0
VERTEX
  8
3200LEVEL
 62
13
 10
3284.565
 20
-4791.886
 30
2027.000
 70
    32
  0
VERTEX
  8
3200LEVEL
 62
13
 10
3286.587
 20
-4794.771
 30
2027.000
 70
    32
  0
VERTEX
  8
3200LEVEL
 62
13
 10
3287.824
 20
-4795.535
 30
2027.000
 70
    32
  0
VERTEX
  8
3200LEVEL
 62
13
 10
3288.871
 20
-4795.053
 30
2027.000
 70
    32
  0
VERTEX
  8
3200LEVEL
 62
13
 10
3291.005
 20
-4796.283
 30
2027.000
 70
    32
  0
VERTEX
  8
3200LEVEL
 62
13
 10
3292.900
 20
-4799.622
 30
2027.000
 70
    32
  0
VERTEX
  8
3200LEVEL
 62
13
 10
3294.745
 20
-4803.276
 30
2027.000
 70
    32
  0
VERTEX
  8
3200LEVEL
 62
13
 10
3296.263
 20
-4805.608
 30
2027.000
 70
    32
  0
VERTEX
  8
3200LEVEL
 62
13
 10
3297.396
 20
-4806.332
 30
2027.000
 70
    32
  0
VERTEX
  8
3200LEVEL
 62
13
 10
3298.040
 20
-4803.111
 30
2027.000
 70
    32
  0
VERTEX
  8
3200LEVEL
 62
13
 10
3297.644
 20
-4798.675
 30
2027.000
 70
    32
  0
VERTEX
  8
3200LEVEL
 62
13
 10
3295.953
 20
-4791.706
 30
2027.000
 70
    32
  0
VERTEX
  8
3200LEVEL
 62
13
 10
3293.821
 20
-4785.070
 30
2027.000
 70
    32
  0
VERTEX
  8
3200LEVEL
 62
13
 10
3293.093
 20
-4780.195
 30
2027.000
 70
    32
  0
VERTEX
  8
3200LEVEL
 62
13
 10
3292.346
 20
-4776.485
 30
2027.000
 70
    32
  0
VERTEX
  8
3200LEVEL
 62
13
 10
3290.954
 20
-4769.918
 30
2027.000
 70
    32
  0
VERTEX
  8
3200LEVEL
 62
13
 10
3288.993
 20
-4764.951
 30
2027.000
 70
    32
  0
VERTEX
  8
3200LEVEL
 62
13
 10
3286.079
 20
-4758.420
 30
2027.000
 70
    32
  0
VERTEX
  8
3200LEVEL
 62
13
 10
3286.472
 20
-4756.035
 30
2027.000
 70
    32
  0
VERTEX
  8
3200LEVEL
 62
13
 10
3286.072
 20
-4753.225
 30
2027.000
 70
    32
  0
VERTEX
  8
3200LEVEL
 62
13
 10
3284.606
 20
-4751.319
 30
2027.000
 70
    32
  0
VERTEX
  8
3200LEVEL
 62
13
 10
3280.148
 20
-4747.614
 30
2027.000
 70
    32
  0
VERTEX
  8
3200LEVEL
 62
13
 10
3275.856
 20
-4742.610
 30
2027.000
 70
    32
  0
VERTEX
  8
3200LEVEL
 62
13
 10
3274.105
 20
-4738.465
 30
2027.000
 70
    32
  0
VERTEX
  8
3200LEVEL
 62
13
 10
3271.259
 20
-4729.711
 30
2027.000
 70
    32
  0
VERTEX
  8
3200LEVEL
 62
13
 10
3270.521
 20
-4722.750
 30
2027.000
 70
    32
  0
VERTEX
  8
3200LEVEL
 62
13
 10
3270.414
 20
-4720.483
 30
2027.000
 70
    32
  0
VERTEX
  8
3200LEVEL
 62
13
 10
3271.340
 20
-4720.314
 30
2027.000
 70
    32
  0
VERTEX
  8
3200LEVEL
 62
13
 10
3272.528
 20
-4722.136
 30
2027.000
 70
    32
  0
VERTEX
  8
3200LEVEL
 62
13
 10
3274.432
 20
-4726.818
 30
2027.000
 70
    32
  0
VERTEX
  8
3200LEVEL
 62
13
 10
3275.296
 20
-4727.989
 30
2027.000
 70
    32
  0
VERTEX
  8
3200LEVEL
 62
13
 10
3276.411
 20
-4727.581
 30
2027.000
 70
    32
  0
VERTEX
  8
3200LEVEL
 62
13
 10
3278.125
 20
-4728.721
 30
2027.000
 70
    32
  0
VERTEX
  8
3200LEVEL
 62
13
 10
3278.854
 20
-4729.002
 30
2027.000
 70
    32
  0
VERTEX
  8
3200LEVEL
 62
13
 10
3280.518
 20
-4730.457
 30
2027.000
 70
    32
  0
VERTEX
  8
3200LEVEL
 62
13
 10
3282.765
 20
-4733.070
 30
2027.000
 70
    32
  0
VERTEX
  8
3200LEVEL
 62
13
 10
3283.433
 20
-4733.137
 30
2027.000
 70
    32
  0
VERTEX
  8
3200LEVEL
 62
13
 10
3284.198
 20
-4730.345
 30
2027.000
 70
    32
  0
VERTEX
  8
3200LEVEL
 62
13
 10
3283.790
 20
-4723.894
 30
2027.000
 70
    32
  0
VERTEX
  8
3200LEVEL
 62
13
 10
3281.877
 20
-4711.791
 30
2027.000
 70
    32
  0
VERTEX
  8
3200LEVEL
 62
13
 10
3278.644
 20
-4697.647
 30
2027.000
 70
    32
  0
VERTEX
  8
3200LEVEL
 62
13
 10
3276.966
 20
-4685.060
 30
2027.000
 70
    32
  0
VERTEX
  8
3200LEVEL
 62
13
 10
3275.186
 20
-4677.698
 30
2027.000
 70
    32
  0
VERTEX
  8
3200LEVEL
 62
13
 10
3273.328
 20
-4668.989
 30
2027.000
 70
    32
  0
VERTEX
  8
3200LEVEL
 62
13
 10
3274.546
 20
-4663.286
 30
2027.000
 70
    32
  0
VERTEX
  8
3200LEVEL
 62
13
 10
3276.257
 20
-4656.863
 30
2027.000
 70
    32
  0
VERTEX
  8
3200LEVEL
 62
13
 10
3275.940
 20
-4650.734
 30
2027.000
 70
    32
  0
VERTEX
  8
3200LEVEL
 62
13
 10
3276.328
 20
-4647.678
 30
2027.000
 70
    32
  0
VERTEX
  8
3200LEVEL
 62
13
 10
3277.976
 20
-4644.150
 30
2027.000
 70
    32
  0
VERTEX
  8
3200LEVEL
 62
13
 10
3280.108
 20
-4641.598
 30
2027.000
 70
    32
  0
VERTEX
  8
3200LEVEL
 62
13
 10
3282.716
 20
-4635.641
 30
2027.000
 70
    32
  0
VERTEX
  8
3200LEVEL
 62
13
 10
3282.470
 20
-4629.516
 30
2027.000
 70
    32
  0
VERTEX
  8
3200LEVEL
 62
13
 10
3280.827
 20
-4626.083
 30
2027.000
 70
    32
  0
VERTEX
  8
3200LEVEL
 62
13
 10
3279.591
 20
-4618.428
 30
2027.000
 70
    32
  0
VERTEX
  8
3200LEVEL
 62
13
 10
3279.882
 20
-4612.893
 30
2027.000
 70
    32
  0
VERTEX
  8
3200LEVEL
 62
13
 10
3279.537
 20
-4608.142
 30
2027.000
 70
    32
  0
VERTEX
  8
3200LEVEL
 62
13
 10
3278.551
 20
-4606.541
 30
2027.000
 70
    32
  0
VERTEX
  8
3200LEVEL
 62
13
 10
3276.713
 20
-4605.785
 30
2027.000
 70
    32
  0
VERTEX
  8
3200LEVEL
 62
13
 10
3275.268
 20
-4607.979
 30
2027.000
 70
    32
  0
VERTEX
  8
3200LEVEL
 62
13
 10
3274.580
 20
-4612.930
 30
2027.000
 70
    32
  0
VERTEX
  8
3200LEVEL
 62
13
 10
3273.642
 20
-4617.163
 30
2027.000
 70
    32
  0
VERTEX
  8
3200LEVEL
 62
13
 10
3270.985
 20
-4621.881
 30
2027.000
 70
    32
  0
VERTEX
  8
3200LEVEL
 62
13
 10
3269.024
 20
-4624.547
 30
2027.000
 70
    32
  0
VERTEX
  8
3200LEVEL
 62
13
 10
3266.614
 20
-4625.460
 30
2027.000
 70
    32
  0
VERTEX
  8
3200LEVEL
 62
13
 10
3265.602
 20
-4624.424
 30
2027.000
 70
    32
  0
VERTEX
  8
3200LEVEL
 62
13
 10
3264.771
 20
-4620.993
 30
2027.000
 70
    32
  0
VERTEX
  8
3200LEVEL
 62
13
 10
3263.329
 20
-4617.039
 30
2027.000
 70
    32
  0
VERTEX
  8
3200LEVEL
 62
13
 10
3258.839
 20
-4609.445
 30
2027.000
 70
    32
  0
VERTEX
  8
3200LEVEL
 62
13
 10
3255.831
 20
-4604.959
 30
2027.000
 70
    32
  0
VERTEX
  8
3200LEVEL
 62
13
 10
3253.706
 20
-4600.479
 30
2027.000
 70
    32
  0
VERTEX
  8
3200LEVEL
 62
13
 10
3252.471
 20
-4598.902
 30
2027.000
 70
    32
  0
VERTEX
  8
3200LEVEL
 62
13
 10
3251.489
 20
-4600.270
 30
2027.000
 70
    32
  0
VERTEX
  8
3200LEVEL
 62
13
 10
3251.831
 20
-4604.350
 30
2027.000
 70
    32
  0
VERTEX
  8
3200LEVEL
 62
13
 10
3251.856
 20
-4610.677
 30
2027.000
 70
    32
  0
VERTEX
  8
3200LEVEL
 62
13
 10
3254.258
 20
-4616.795
 30
2027.000
 70
    32
  0
VERTEX
  8
3200LEVEL
 62
13
 10
3256.613
 20
-4620.120
 30
2027.000
 70
    32
  0
VERTEX
  8
3200LEVEL
 62
13
 10
3259.106
 20
-4623.522
 30
2027.000
 70
    32
  0
VERTEX
  8
3200LEVEL
 62
13
 10
3261.385
 20
-4627.727
 30
2027.000
 70
    32
  0
VERTEX
  8
3200LEVEL
 62
13
 10
3263.177
 20
-4634.065
 30
2027.000
 70
    32
  0
VERTEX
  8
3200LEVEL
 62
13
 10
3263.572
 20
-4638.500
 30
2027.000
 70
    32
  0
VERTEX
  8
3200LEVEL
 62
13
 10
3263.390
 20
-4643.192
 30
2027.000
 70
    32
  0
VERTEX
  8
3200LEVEL
 62
13
 10
3262.265
 20
-4645.366
 30
2027.000
 70
    32
  0
VERTEX
  8
3200LEVEL
 62
13
 10
3260.592
 20
-4647.161
 30
2027.000
 70
    32
  0
VERTEX
  8
3200LEVEL
 62
13
 10
3260.347
 20
-4650.154
 30
2027.000
 70
    32
  0
VERTEX
  8
3200LEVEL
 62
13
 10
3259.916
 20
-4651.830
 30
2027.000
 70
    32
  0
VERTEX
  8
3200LEVEL
 62
13
 10
3258.282
 20
-4650.482
 30
2027.000
 70
    32
  0
VERTEX
  8
3200LEVEL
 62
13
 10
3257.043
 20
-4650.531
 30
2027.000
 70
    32
  0
VERTEX
  8
3200LEVEL
 62
13
 10
3257.016
 20
-4652.650
 30
2027.000
 70
    32
  0
VERTEX
  8
3200LEVEL
 62
13
 10
3255.875
 20
-4653.622
 30
2027.000
 70
    32
  0
VERTEX
  8
3200LEVEL
 62
13
 10
3254.630
 20
-4653.812
 30
2027.000
 70
    32
  0
VERTEX
  8
3200LEVEL
 62
13
 10
3254.325
 20
-4654.292
 30
2027.000
 70
    32
  0
VERTEX
  8
3200LEVEL
 62
13
 10
3254.065
 20
-4656.083
 30
2027.000
 70
    32
  0
VERTEX
  8
3200LEVEL
 62
13
 10
3253.372
 20
-4657.323
 30
2027.000
 70
    32
  0
VERTEX
  8
3200LEVEL
 62
13
 10
3252.058
 20
-4656.696
 30
2027.000
 70
    32
  0
VERTEX
  8
3200LEVEL
 62
13
 10
3251.528
 20
-4655.152
 30
2027.000
 70
    32
  0
VERTEX
  8
3200LEVEL
 62
13
 10
3250.095
 20
-4655.581
 30
2027.000
 70
    32
  0
VERTEX
  8
3200LEVEL
 62
13
 10
3249.479
 20
-4659.722
 30
2027.000
 70
    32
  0
VERTEX
  8
3200LEVEL
 62
13
 10
3249.185
 20
-4663.030
 30
2027.000
 70
    32
  0
VERTEX
  8
3200LEVEL
 62
13
 10
3248.044
 20
-4668.596
 30
2027.000
 70
    32
  0
VERTEX
  8
3200LEVEL
 62
13
 10
3247.322
 20
-4671.213
 30
2027.000
 70
    32
  0
VERTEX
  8
3200LEVEL
 62
13
 10
3245.430
 20
-4670.101
 30
2027.000
 70
    32
  0
VERTEX
  8
3200LEVEL
 62
13
 10
3241.997
 20
-4661.814
 30
2027.000
 70
    32
  0
VERTEX
  8
3200LEVEL
 62
13
 10
3235.254
 20
-4647.155
 30
2027.000
 70
    32
  0
VERTEX
  8
3200LEVEL
 62
13
 10
3226.722
 20
-4632.236
 30
2027.000
 70
    32
  0
VERTEX
  8
3200LEVEL
 62
13
 10
3220.540
 20
-4619.970
 30
2027.000
 70
    32
  0
VERTEX
  8
3200LEVEL
 62
13
 10
3210.003
 20
-4600.258
 30
2027.000
 70
    32
  0
VERTEX
  8
3200LEVEL
 62
13
 10
3200.353
 20
-4581.224
 30
2027.000
 70
    32
  0
VERTEX
  8
3200LEVEL
 62
13
 10
3190.996
 20
-4561.990
 30
2027.000
 70
    32
  0
VERTEX
  8
3200LEVEL
 62
13
 10
3185.880
 20
-4551.117
 30
2027.000
 70
    32
  0
VERTEX
  8
3200LEVEL
 62
13
 10
3179.545
 20
-4534.533
 30
2027.000
 70
    32
  0
VERTEX
  8
3200LEVEL
 62
13
 10
3176.889
 20
-4522.430
 30
2027.000
 70
    32
  0
VERTEX
  8
3200LEVEL
 62
13
 10
3171.773
 20
-4503.181
 30
2027.000
 70
    32
  0
VERTEX
  8
3200LEVEL
 62
13
 10
3170.138
 20
-4493.458
 30
2027.000
 70
    32
  0
VERTEX
  8
3200LEVEL
 62
13
 10
3168.069
 20
-4480.146
 30
2027.000
 70
    32
  0
VERTEX
  8
3200LEVEL
 62
13
 10
3169.045
 20
-4468.989
 30
2027.000
 70
    32
  0
VERTEX
  8
3200LEVEL
 62
13
 10
3171.008
 20
-4463.214
 30
2027.000
 70
    32
  0
VERTEX
  8
3200LEVEL
 62
13
 10
3173.780
 20
-4459.066
 30
2027.000
 70
    32
  0
VERTEX
  8
3200LEVEL
 62
13
 10
3175.038
 20
-4457.852
 30
2027.000
 70
    32
  0
VERTEX
  8
3200LEVEL
 62
13
 10
3177.112
 20
-4457.312
 30
2027.000
 70
    32
  0
VERTEX
  8
3200LEVEL
 62
13
 10
3178.379
 20
-4455.144
 30
2027.000
 70
    32
  0
VERTEX
  8
3200LEVEL
 62
13
 10
3178.804
 20
-4454.351
 30
2027.000
 70
    32
  0
VERTEX
  8
3200LEVEL
 62
13
 10
3180.492
 20
-4453.016
 30
2027.000
 70
    32
  0
VERTEX
  8
3200LEVEL
 62
13
 10
3182.106
 20
-4454.787
 30
2027.000
 70
    32
  0
VERTEX
  8
3200LEVEL
 62
13
 10
3184.160
 20
-4459.264
 30
2027.000
 70
    32
  0
VERTEX
  8
3200LEVEL
 62
13
 10
3185.365
 20
-4461.475
 30
2027.000
 70
    32
  0
VERTEX
  8
3200LEVEL
 62
13
 10
3186.299
 20
-4458.868
 30
2027.000
 70
    32
  0
VERTEX
  8
3200LEVEL
 62
13
 10
3188.654
 20
-4454.560
 30
2027.000
 70
    32
  0
VERTEX
  8
3200LEVEL
 62
13
 10
3193.541
 20
-4450.510
 30
2027.000
 70
    32
  0
VERTEX
  8
3200LEVEL
 62
13
 10
3197.284
 20
-4446.761
 30
2027.000
 70
    32
  0
VERTEX
  8
3200LEVEL
 62
13
 10
3200.689
 20
-4438.861
 30
2027.000
 70
    32
  0
VERTEX
  8
3200LEVEL
 62
13
 10
3200.634
 20
-4433.170
 30
2027.000
 70
    32
  0
VERTEX
  8
3200LEVEL
 62
13
 10
3199.309
 20
-4431.271
 30
2027.000
 70
    32
  0
VERTEX
  8
3200LEVEL
 62
13
 10
3197.015
 20
-4431.200
 30
2027.000
 70
    32
  0
VERTEX
  8
3200LEVEL
 62
13
 10
3194.263
 20
-4432.627
 30
2027.000
 70
    32
  0
VERTEX
  8
3200LEVEL
 62
13
 10
3191.425
 20
-4434.404
 30
2027.000
 70
    32
  0
VERTEX
  8
3200LEVEL
 62
13
 10
3188.322
 20
-4435.003
 30
2027.000
 70
    32
  0
VERTEX
  8
3200LEVEL
 62
13
 10
3185.009
 20
-4433.294
 30
2027.000
 70
    32
  0
VERTEX
  8
3200LEVEL
 62
13
 10
3181.937
 20
-4430.961
 30
2027.000
 70
    32
  0
VERTEX
  8
3200LEVEL
 62
13
 10
3179.911
 20
-4428.146
 30
2027.000
 70
    32
  0
VERTEX
  8
3200LEVEL
 62
13
 10
3178.058
 20
-4423.148
 30
2027.000
 70
    32
  0
VERTEX
  8
3200LEVEL
 62
13
 10
3178.347
 20
-4416.130
 30
2027.000
 70
    32
  0
VERTEX
  8
3200LEVEL
 62
13
 10
3178.650
 20
-4411.126
 30
2027.000
 70
    32
  0
VERTEX
  8
3200LEVEL
 62
13
 10
3178.635
 20
-4405.329
 30
2027.000
 70
    32
  0
VERTEX
  8
3200LEVEL
 62
13
 10
3178.929
 20
-4404.318
 30
2027.000
 70
    32
  0
VERTEX
  8
3200LEVEL
 62
13
 10
3180.134
 20
-4405.788
 30
2027.000
 70
    32
  0
VERTEX
  8
3200LEVEL
 62
13
 10
3181.200
 20
-4407.180
 30
2027.000
 70
    32
  0
VERTEX
  8
3200LEVEL
 62
13
 10
3182.202
 20
-4408.428
 30
2027.000
 70
    32
  0
VERTEX
  8
3200LEVEL
 62
13
 10
3182.872
 20
-4406.939
 30
2027.000
 70
    32
  0
VERTEX
  8
3200LEVEL
 62
13
 10
3182.842
 20
-4404.535
 30
2027.000
 70
    32
  0
VERTEX
  8
3200LEVEL
 62
13
 10
3183.262
 20
-4402.328
 30
2027.000
 70
    32
  0
VERTEX
  8
3200LEVEL
 62
13
 10
3183.681
 20
-4401.676
 30
2027.000
 70
    32
  0
VERTEX
  8
3200LEVEL
 62
13
 10
3185.151
 20
-4403.511
 30
2027.000
 70
    32
  0
VERTEX
  8
3200LEVEL
 62
13
 10
3186.561
 20
-4405.873
 30
2027.000
 70
    32
  0
VERTEX
  8
3200LEVEL
 62
13
 10
3188.146
 20
-4405.982
 30
2027.000
 70
    32
  0
VERTEX
  8
3200LEVEL
 62
13
 10
3189.107
 20
-4403.553
 30
2027.000
 70
    32
  0
VERTEX
  8
3200LEVEL
 62
13
 10
3189.890
 20
-4398.853
 30
2027.000
 70
    32
  0
VERTEX
  8
3200LEVEL
 62
13
 10
3190.441
 20
-4396.865
 30
2027.000
 70
    32
  0
VERTEX
  8
3200LEVEL
 62
13
 10
3191.782
 20
-4397.669
 30
2027.000
 70
    32
  0
VERTEX
  8
3200LEVEL
 62
13
 10
3193.086
 20
-4398.507
 30
2027.000
 70
    32
  0
VERTEX
  8
3200LEVEL
 62
13
 10
3193.772
 20
-4396.666
 30
2027.000
 70
    32
  0
VERTEX
  8
3200LEVEL
 62
13
 10
3193.023
 20
-4391.471
 30
2027.000
 70
    32
  0
VERTEX
  8
3200LEVEL
 62
13
 10
3191.227
 20
-4384.462
 30
2027.000
 70
    32
  0
VERTEX
  8
3200LEVEL
 62
13
 10
3190.972
 20
-4379.291
 30
2027.000
 70
    32
  0
VERTEX
  8
3200LEVEL
 62
13
 10
3191.340
 20
-4378.212
 30
2027.000
 70
    32
  0
VERTEX
  8
3200LEVEL
 62
13
 10
3192.845
 20
-4378.529
 30
2027.000
 70
    32
  0
VERTEX
  8
3200LEVEL
 62
13
 10
3194.622
 20
-4376.774
 30
2027.000
 70
    32
  0
VERTEX
  8
3200LEVEL
 62
13
 10
3194.645
 20
-4373.241
 30
2027.000
 70
    32
  0
VERTEX
  8
3200LEVEL
 62
13
 10
3194.668
 20
-4368.154
 30
2027.000
 70
    32
  0
VERTEX
  8
3200LEVEL
 62
13
 10
3194.931
 20
-4366.293
 30
2027.000
 70
    32
  0
VERTEX
  8
3200LEVEL
 62
13
 10
3196.558
 20
-4367.782
 30
2027.000
 70
    32
  0
VERTEX
  8
3200LEVEL
 62
13
 10
3199.555
 20
-4370.995
 30
2027.000
 70
    32
  0
VERTEX
  8
3200LEVEL
 62
13
 10
3201.675
 20
-4371.765
 30
2027.000
 70
    32
  0
VERTEX
  8
3200LEVEL
 62
13
 10
3202.958
 20
-4369.986
 30
2027.000
 70
    32
  0
VERTEX
  8
3200LEVEL
 62
13
 10
3203.049
 20
-4367.270
 30
2027.000
 70
    32
  0
VERTEX
  8
3200LEVEL
 62
13
 10
3203.520
 20
-4365.489
 30
2027.000
 70
    32
  0
VERTEX
  8
3200LEVEL
 62
13
 10
3204.588
 20
-4363.030
 30
2027.000
 70
    32
  0
VERTEX
  8
3200LEVEL
 62
13
 10
3206.389
 20
-4363.820
 30
2027.000
 70
    32
  0
VERTEX
  8
3200LEVEL
 62
13
 10
3209.624
 20
-4369.518
 30
2027.000
 70
    32
  0
VERTEX
  8
3200LEVEL
 62
13
 10
3212.093
 20
-4375.710
 30
2027.000
 70
    32
  0
VERTEX
  8
3200LEVEL
 62
13
 10
3213.152
 20
-4381.095
 30
2027.000
 70
    32
  0
VERTEX
  8
3200LEVEL
 62
13
 10
3215.148
 20
-4389.881
 30
2027.000
 70
    32
  0
VERTEX
  8
3200LEVEL
 62
13
 10
3219.029
 20
-4399.178
 30
2027.000
 70
    32
  0
VERTEX
  8
3200LEVEL
 62
13
 10
3224.945
 20
-4406.484
 30
2027.000
 70
    32
  0
VERTEX
  8
3200LEVEL
 62
13
 10
3230.983
 20
-4411.181
 30
2027.000
 70
    32
  0
VERTEX
  8
3200LEVEL
 62
13
 10
3235.411
 20
-4415.520
 30
2027.000
 70
    32
  0
VERTEX
  8
3200LEVEL
 62
13
 10
3239.024
 20
-4419.928
 30
2027.000
 70
    32
  0
VERTEX
  8
3200LEVEL
 62
13
 10
3242.890
 20
-4425.726
 30
2027.000
 70
    32
  0
VERTEX
  8
3200LEVEL
 62
13
 10
3246.007
 20
-4431.665
 30
2027.000
 70
    32
  0
VERTEX
  8
3200LEVEL
 62
13
 10
3248.358
 20
-4434.319
 30
2027.000
 70
    32
  0
VERTEX
  8
3200LEVEL
 62
13
 10
3250.371
 20
-4437.416
 30
2027.000
 70
    32
  0
VERTEX
  8
3200LEVEL
 62
13
 10
3252.332
 20
-4440.086
 30
2027.000
 70
    32
  0
VERTEX
  8
3200LEVEL
 62
13
 10
3253.291
 20
-4441.509
 30
2027.000
 70
    32
  0
VERTEX
  8
3200LEVEL
 62
13
 10
3252.650
 20
-4441.620
 30
2027.000
 70
    32
  0
VERTEX
  8
3200LEVEL
 62
13
 10
3250.022
 20
-4440.368
 30
2027.000
 70
    32
  0
VERTEX
  8
3200LEVEL
 62
13
 10
3248.462
 20
-4438.953
 30
2027.000
 70
    32
  0
VERTEX
  8
3200LEVEL
 62
13
 10
3247.483
 20
-4437.953
 30
2027.000
 70
    32
  0
VERTEX
  8
3200LEVEL
 62
13
 10
3246.829
 20
-4438.347
 30
2027.000
 70
    32
  0
VERTEX
  8
3200LEVEL
 62
13
 10
3245.602
 20
-4437.371
 30
2027.000
 70
    32
  0
VERTEX
  8
3200LEVEL
 62
13
 10
3244.040
 20
-4436.769
 30
2027.000
 70
    32
  0
VERTEX
  8
3200LEVEL
 62
13
 10
3245.456
 20
-4438.990
 30
2027.000
 70
    32
  0
VERTEX
  8
3200LEVEL
 62
13
 10
3248.644
 20
-4441.894
 30
2027.000
 70
    32
  0
VERTEX
  8
3200LEVEL
 62
13
 10
3254.825
 20
-4446.527
 30
2027.000
 70
    32
  0
VERTEX
  8
3200LEVEL
 62
13
 10
3260.414
 20
-4449.471
 30
2027.000
 70
    32
  0
VERTEX
  8
3200LEVEL
 62
13
 10
3266.440
 20
-4452.895
 30
2027.000
 70
    32
  0
VERTEX
  8
3200LEVEL
 62
13
 10
3271.154
 20
-4457.920
 30
2027.000
 70
    32
  0
VERTEX
  8
3200LEVEL
 62
13
 10
3275.040
 20
-4463.294
 30
2027.000
 70
    32
  0
VERTEX
  8
3200LEVEL
 62
13
 10
3278.795
 20
-4468.451
 30
2027.000
 70
    32
  0
VERTEX
  8
3200LEVEL
 62
13
 10
3281.123
 20
-4471.598
 30
2027.000
 70
    32
  0
VERTEX
  8
3200LEVEL
 62
13
 10
3283.427
 20
-4474.496
 30
2027.000
 70
    32
  0
VERTEX
  8
3200LEVEL
 62
13
 10
3283.637
 20
-4473.764
 30
2027.000
 70
    32
  0
VERTEX
  8
3200LEVEL
 62
13
 10
3284.393
 20
-4471.184
 30
2027.000
 70
    32
  0
VERTEX
  8
3200LEVEL
 62
13
 10
3283.791
 20
-4465.855
 30
2027.000
 70
    32
  0
VERTEX
  8
3200LEVEL
 62
13
 10
3283.271
 20
-4463.357
 30
2027.000
 70
    32
  0
VERTEX
  8
3200LEVEL
 62
13
 10
3282.650
 20
-4460.749
 30
2027.000
 70
    32
  0
VERTEX
  8
3200LEVEL
 62
13
 10
3282.883
 20
-4459.523
 30
2027.000
 70
    32
  0
VERTEX
  8
3200LEVEL
 62
13
 10
3284.360
 20
-4458.920
 30
2027.000
 70
    32
  0
VERTEX
  8
3200LEVEL
 62
13
 10
3287.134
 20
-4463.889
 30
2027.000
 70
    32
  0
VERTEX
  8
3200LEVEL
 62
13
 10
3290.093
 20
-4469.433
 30
2027.000
 70
    32
  0
VERTEX
  8
3200LEVEL
 62
13
 10
3291.506
 20
-4471.725
 30
2027.000
 70
    32
  0
VERTEX
  8
3200LEVEL
 62
13
 10
3293.296
 20
-4474.281
 30
2027.000
 70
    32
  0
VERTEX
  8
3200LEVEL
 62
13
 10
3297.840
 20
-4479.934
 30
2027.000
 70
    32
  0
VERTEX
  8
3200LEVEL
 62
13
 10
3304.464
 20
-4485.718
 30
2027.000
 70
    32
  0
VERTEX
  8
3200LEVEL
 62
13
 10
3310.383
 20
-4492.954
 30
2027.000
 70
    32
  0
VERTEX
  8
3200LEVEL
 62
13
 10
3314.731
 20
-4499.798
 30
2027.000
 70
    32
  0
VERTEX
  8
3200LEVEL
 62
13
 10
3318.469
 20
-4505.308
 30
2027.000
 70
    32
  0
VERTEX
  8
3200LEVEL
 62
13
 10
3319.493
 20
-4507.617
 30
2027.000
 70
    32
  0
VERTEX
  8
3200LEVEL
 62
13
 10
3320.460
 20
-4509.640
 30
2027.000
 70
    32
  0
VERTEX
  8
3200LEVEL
 62
13
 10
3321.412
 20
-4511.204
 30
2027.000
 70
    32
  0
VERTEX
  8
3200LEVEL
 62
13
 10
3321.767
 20
-4508.111
 30
2027.000
 70
    32
  0
VERTEX
  8
3200LEVEL
 62
13
 10
3319.222
 20
-4500.501
 30
2027.000
 70
    32
  0
VERTEX
  8
3200LEVEL
 62
13
 10
3317.068
 20
-4494.359
 30
2027.000
 70
    32
  0
VERTEX
  8
3200LEVEL
 62
13
 10
3313.700
 20
-4489.255
 30
2027.000
 70
    32
  0
VERTEX
  8
3200LEVEL
 62
13
 10
3310.467
 20
-4485.042
 30
2027.000
 70
    32
  0
VERTEX
  8
3200LEVEL
 62
13
 10
3305.458
 20
-4478.732
 30
2027.000
 70
    32
  0
VERTEX
  8
3200LEVEL
 62
13
 10
3304.046
 20
-4474.885
 30
2027.000
 70
    32
  0
VERTEX
  8
3200LEVEL
 62
13
 10
3305.694
 20
-4469.060
 30
2027.000
 70
    32
  0
VERTEX
  8
3200LEVEL
 62
13
 10
3306.866
 20
-4463.601
 30
2027.000
 70
    32
  0
VERTEX
  8
3200LEVEL
 62
13
 10
3305.320
 20
-4455.013
 30
2027.000
 70
    32
  0
VERTEX
  8
3200LEVEL
 62
13
 10
3306.421
 20
-4450.294
 30
2027.000
 70
    32
  0
VERTEX
  8
3200LEVEL
 62
13
 10
3306.172
 20
-4444.239
 30
2027.000
 70
    32
  0
VERTEX
  8
3200LEVEL
 62
13
 10
3303.715
 20
-4437.765
 30
2027.000
 70
    32
  0
VERTEX
  8
3200LEVEL
 62
13
 10
3297.427
 20
-4431.608
 30
2027.000
 70
    32
  0
VERTEX
  8
3200LEVEL
 62
13
 10
3294.725
 20
-4429.680
 30
2027.000
 70
    32
  0
VERTEX
  8
3200LEVEL
 62
13
 10
3293.411
 20
-4426.757
 30
2027.000
 70
    32
  0
VERTEX
  8
3200LEVEL
 62
13
 10
3290.826
 20
-4424.588
 30
2027.000
 70
    32
  0
VERTEX
  8
3200LEVEL
 62
13
 10
3288.307
 20
-4424.047
 30
2027.000
 70
    32
  0
VERTEX
  8
3200LEVEL
 62
13
 10
3285.117
 20
-4424.253
 30
2027.000
 70
    32
  0
VERTEX
  8
3200LEVEL
 62
13
 10
3283.090
 20
-4425.290
 30
2027.000
 70
    32
  0
VERTEX
  8
3200LEVEL
 62
13
 10
3281.973
 20
-4426.510
 30
2027.000
 70
    32
  0
VERTEX
  8
3200LEVEL
 62
13
 10
3279.729
 20
-4426.124
 30
2027.000
 70
    32
  0
VERTEX
  8
3200LEVEL
 62
13
 10
3278.650
 20
-4425.013
 30
2027.000
 70
    32
  0
VERTEX
  8
3200LEVEL
 62
13
 10
3277.482
 20
-4422.768
 30
2027.000
 70
    32
  0
VERTEX
  8
3200LEVEL
 62
13
 10
3277.442
 20
-4420.576
 30
2027.000
 70
    32
  0
VERTEX
  8
3200LEVEL
 62
13
 10
3278.344
 20
-4419.416
 30
2027.000
 70
    32
  0
VERTEX
  8
3200LEVEL
 62
13
 10
3280.693
 20
-4418.288
 30
2027.000
 70
    32
  0
VERTEX
  8
3200LEVEL
 62
13
 10
3282.362
 20
-4418.860
 30
2027.000
 70
    32
  0
VERTEX
  8
3200LEVEL
 62
13
 10
3285.982
 20
-4418.533
 30
2027.000
 70
    32
  0
VERTEX
  8
3200LEVEL
 62
13
 10
3288.527
 20
-4417.767
 30
2027.000
 70
    32
  0
VERTEX
  8
3200LEVEL
 62
13
 10
3292.055
 20
-4417.118
 30
2027.000
 70
    32
  0
VERTEX
  8
3200LEVEL
 62
13
 10
3295.512
 20
-4418.020
 30
2027.000
 70
    32
  0
VERTEX
  8
3200LEVEL
 62
13
 10
3300.535
 20
-4422.493
 30
2027.000
 70
    32
  0
VERTEX
  8
3200LEVEL
 62
13
 10
3303.668
 20
-4427.338
 30
2027.000
 70
    32
  0
VERTEX
  8
3200LEVEL
 62
13
 10
3304.004
 20
-4427.707
 30
2027.000
 70
    32
  0
VERTEX
  8
3200LEVEL
 62
13
 10
3307.480
 20
-4430.483
 30
2027.000
 70
    32
  0
VERTEX
  8
3200LEVEL
 62
13
 10
3309.160
 20
-4431.585
 30
2027.000
 70
    32
  0
VERTEX
  8
3200LEVEL
 62
13
 10
3313.300
 20
-4436.053
 30
2027.000
 70
    32
  0
VERTEX
  8
3200LEVEL
 62
13
 10
3317.941
 20
-4441.144
 30
2027.000
 70
    32
  0
VERTEX
  8
3200LEVEL
 62
13
 10
3321.523
 20
-4445.445
 30
2027.000
 70
    32
  0
VERTEX
  8
3200LEVEL
 62
13
 10
3323.917
 20
-4450.220
 30
2027.000
 70
    32
  0
VERTEX
  8
3200LEVEL
 62
13
 10
3326.921
 20
-4456.331
 30
2027.000
 70
    32
  0
VERTEX
  8
3200LEVEL
 62
13
 10
3329.524
 20
-4459.632
 30
2027.000
 70
    32
  0
VERTEX
  8
3200LEVEL
 62
13
 10
3331.121
 20
-4461.014
 30
2027.000
 70
    32
  0
VERTEX
  8
3200LEVEL
 62
13
 10
3331.159
 20
-4458.683
 30
2027.000
 70
    32
  0
VERTEX
  8
3200LEVEL
 62
13
 10
3331.187
 20
-4455.009
 30
2027.000
 70
    32
  0
VERTEX
  8
3200LEVEL
 62
13
 10
3331.726
 20
-4453.303
 30
2027.000
 70
    32
  0
VERTEX
  8
3200LEVEL
 62
13
 10
3333.951
 20
-4452.558
 30
2027.000
 70
    32
  0
VERTEX
  8
3200LEVEL
 62
13
 10
3335.333
 20
-4450.961
 30
2027.000
 70
    32
  0
VERTEX
  8
3200LEVEL
 62
13
 10
3331.278
 20
-4444.659
 30
2027.000
 70
    32
  0
VERTEX
  8
3200LEVEL
 62
13
 10
3326.165
 20
-4436.012
 30
2027.000
 70
    32
  0
VERTEX
  8
3200LEVEL
 62
13
 10
3321.296
 20
-4428.225
 30
2027.000
 70
    32
  0
VERTEX
  8
3200LEVEL
 62
13
 10
3317.603
 20
-4421.728
 30
2027.000
 70
    32
  0
VERTEX
  8
3200LEVEL
 62
13
 10
3311.753
 20
-4408.417
 30
2027.000
 70
    32
  0
VERTEX
  8
3200LEVEL
 62
13
 10
3308.992
 20
-4400.869
 30
2027.000
 70
    32
  0
VERTEX
  8
3200LEVEL
 62
13
 10
3307.230
 20
-4393.896
 30
2027.000
 70
    32
  0
VERTEX
  8
3200LEVEL
 62
13
 10
3306.128
 20
-4388.686
 30
2027.000
 70
    32
  0
VERTEX
  8
3200LEVEL
 62
13
 10
3305.427
 20
-4383.989
 30
2027.000
 70
    32
  0
VERTEX
  8
3200LEVEL
 62
13
 10
3303.364
 20
-4380.465
 30
2027.000
 70
    32
  0
VERTEX
  8
3200LEVEL
 62
13
 10
3300.884
 20
-4376.781
 30
2027.000
 70
    32
  0
VERTEX
  8
3200LEVEL
 62
13
 10
3300.265
 20
-4373.360
 30
2027.000
 70
    32
  0
VERTEX
  8
3200LEVEL
 62
13
 10
3296.800
 20
-4366.521
 30
2027.000
 70
    32
  0
VERTEX
  8
3200LEVEL
 62
13
 10
3290.881
 20
-4356.988
 30
2027.000
 70
    32
  0
VERTEX
  8
3200LEVEL
 62
13
 10
3287.784
 20
-4351.367
 30
2027.000
 70
    32
  0
VERTEX
  8
3200LEVEL
 62
13
 10
3281.753
 20
-4344.233
 30
2027.000
 70
    32
  0
VERTEX
  8
3200LEVEL
 62
13
 10
3276.188
 20
-4336.201
 30
2027.000
 70
    32
  0
VERTEX
  8
3200LEVEL
 62
13
 10
3273.230
 20
-4329.102
 30
2027.000
 70
    32
  0
VERTEX
  8
3200LEVEL
 62
13
 10
3271.901
 20
-4318.899
 30
2027.000
 70
    32
  0
VERTEX
  8
3200LEVEL
 62
13
 10
3272.053
 20
-4312.545
 30
2027.000
 70
    32
  0
VERTEX
  8
3200LEVEL
 62
13
 10
3273.297
 20
-4305.535
 30
2027.000
 70
    32
  0
VERTEX
  8
3200LEVEL
 62
13
 10
3274.684
 20
-4300.758
 30
2027.000
 70
    32
  0
VERTEX
  8
3200LEVEL
 62
13
 10
3275.221
 20
-4298.309
 30
2027.000
 70
    32
  0
VERTEX
  8
3200LEVEL
 62
13
 10
3275.151
 20
-4296.008
 30
2027.000
 70
    32
  0
VERTEX
  8
3200LEVEL
 62
13
 10
3271.880
 20
-4293.383
 30
2027.000
 70
    32
  0
VERTEX
  8
3200LEVEL
 62
13
 10
3270.978
 20
-4289.207
 30
2027.000
 70
    32
  0
VERTEX
  8
3200LEVEL
 62
13
 10
3268.135
 20
-4284.976
 30
2027.000
 70
    32
  0
VERTEX
  8
3200LEVEL
 62
13
 10
3264.184
 20
-4281.012
 30
2027.000
 70
    32
  0
VERTEX
  8
3200LEVEL
 62
13
 10
3256.928
 20
-4274.386
 30
2027.000
 70
    32
  0
VERTEX
  8
3200LEVEL
 62
13
 10
3253.248
 20
-4269.904
 30
2027.000
 70
    32
  0
VERTEX
  8
3200LEVEL
 62
13
 10
3249.773
 20
-4264.832
 30
2027.000
 70
    32
  0
VERTEX
  8
3200LEVEL
 62
13
 10
3249.196
 20
-4262.791
 30
2027.000
 70
    32
  0
VERTEX
  8
3200LEVEL
 62
13
 10
3249.558
 20
-4262.595
 30
2027.000
 70
    32
  0
VERTEX
  8
3200LEVEL
 62
13
 10
3251.507
 20
-4263.251
 30
2027.000
 70
    32
  0
VERTEX
  8
3200LEVEL
 62
13
 10
3253.459
 20
-4261.539
 30
2027.000
 70
    32
  0
VERTEX
  8
3200LEVEL
 62
13
 10
3253.962
 20
-4256.014
 30
2027.000
 70
    32
  0
VERTEX
  8
3200LEVEL
 62
13
 10
3255.388
 20
-4247.352
 30
2027.000
 70
    32
  0
VERTEX
  8
3200LEVEL
 62
13
 10
3256.152
 20
-4243.818
 30
2027.000
 70
    32
  0
VERTEX
  8
3200LEVEL
 62
13
 10
3256.547
 20
-4242.917
 30
2027.000
 70
    32
  0
VERTEX
  8
3200LEVEL
 62
13
 10
3257.532
 20
-4243.776
 30
2027.000
 70
    32
  0
VERTEX
  8
3200LEVEL
 62
13
 10
3258.520
 20
-4243.822
 30
2027.000
 70
    32
  0
VERTEX
  8
3200LEVEL
 62
13
 10
3261.707
 20
-4241.389
 30
2027.000
 70
    32
  0
VERTEX
  8
3200LEVEL
 62
13
 10
3263.088
 20
-4236.753
 30
2027.000
 70
    32
  0
VERTEX
  8
3200LEVEL
 62
13
 10
3265.456
 20
-4232.163
 30
2027.000
 70
    32
  0
VERTEX
  8
3200LEVEL
 62
13
 10
3266.681
 20
-4231.654
 30
2027.000
 70
    32
  0
VERTEX
  8
3200LEVEL
 62
13
 10
3269.974
 20
-4233.044
 30
2027.000
 70
    32
  0
VERTEX
  8
3200LEVEL
 62
13
 10
3274.756
 20
-4235.845
 30
2027.000
 70
    32
  0
VERTEX
  8
3200LEVEL
 62
13
 10
3276.852
 20
-4236.366
 30
2027.000
 70
    32
  0
VERTEX
  8
3200LEVEL
 62
13
 10
3277.018
 20
-4235.066
 30
2027.000
 70
    32
  0
VERTEX
  8
3200LEVEL
 62
13
 10
3277.181
 20
-4233.837
 30
2027.000
 70
    32
  0
VERTEX
  8
3200LEVEL
 62
13
 10
3278.974
 20
-4233.283
 30
2027.000
 70
    32
  0
VERTEX
  8
3200LEVEL
 62
13
 10
3278.769
 20
-4230.836
 30
2027.000
 70
    32
  0
VERTEX
  8
3200LEVEL
 62
13
 10
3277.679
 20
-4226.898
 30
2027.000
 70
    32
  0
VERTEX
  8
3200LEVEL
 62
13
 10
3277.361
 20
-4222.325
 30
2027.000
 70
    32
  0
VERTEX
  8
3200LEVEL
 62
13
 10
3278.916
 20
-4220.029
 30
2027.000
 70
    32
  0
VERTEX
  8
3200LEVEL
 62
13
 10
3280.017
 20
-4219.903
 30
2027.000
 70
    32
  0
VERTEX
  8
3200LEVEL
 62
13
 10
3282.343
 20
-4221.566
 30
2027.000
 70
    32
  0
VERTEX
  8
3200LEVEL
 62
13
 10
3285.427
 20
-4225.172
 30
2027.000
 70
    32
  0
VERTEX
  8
3200LEVEL
 62
13
 10
3287.423
 20
-4228.621
 30
2027.000
 70
    32
  0
VERTEX
  8
3200LEVEL
 62
13
 10
3290.656
 20
-4232.835
 30
2027.000
 70
    32
  0
VERTEX
  8
3200LEVEL
 62
13
 10
3292.142
 20
-4234.317
 30
2027.000
 70
    32
  0
VERTEX
  8
3200LEVEL
 62
13
 10
3293.302
 20
-4235.219
 30
2027.000
 70
    32
  0
VERTEX
  8
3200LEVEL
 62
13
 10
3295.008
 20
-4235.015
 30
2027.000
 70
    32
  0
VERTEX
  8
3200LEVEL
 62
13
 10
3294.441
 20
-4232.763
 30
2027.000
 70
    32
  0
VERTEX
  8
3200LEVEL
 62
13
 10
3292.532
 20
-4228.964
 30
2027.000
 70
    32
  0
VERTEX
  8
3200LEVEL
 62
13
 10
3292.222
 20
-4225.734
 30
2027.000
 70
    32
  0
VERTEX
  8
3200LEVEL
 62
13
 10
3293.125
 20
-4223.019
 30
2027.000
 70
    32
  0
VERTEX
  8
3200LEVEL
 62
13
 10
3292.580
 20
-4220.273
 30
2027.000
 70
    32
  0
VERTEX
  8
3200LEVEL
 62
13
 10
3292.418
 20
-4219.205
 30
2027.000
 70
    32
  0
VERTEX
  8
3200LEVEL
 62
13
 10
3293.810
 20
-4215.842
 30
2027.000
 70
    32
  0
VERTEX
  8
3200LEVEL
 62
13
 10
3295.118
 20
-4214.312
 30
2027.000
 70
    32
  0
VERTEX
  8
3200LEVEL
 62
13
 10
3296.509
 20
-4212.504
 30
2027.000
 70
    32
  0
VERTEX
  8
3200LEVEL
 62
13
 10
3296.946
 20
-4212.241
 30
2027.000
 70
    32
  0
VERTEX
  8
3200LEVEL
 62
13
 10
3299.643
 20
-4215.794
 30
2027.000
 70
    32
  0
VERTEX
  8
3200LEVEL
 62
13
 10
3302.996
 20
-4221.992
 30
2027.000
 70
    32
  0
VERTEX
  8
3200LEVEL
 62
13
 10
3306.307
 20
-4226.810
 30
2027.000
 70
    32
  0
VERTEX
  8
3200LEVEL
 62
13
 10
3309.039
 20
-4230.399
 30
2027.000
 70
    32
  0
VERTEX
  8
3200LEVEL
 62
13
 10
3311.953
 20
-4235.376
 30
2027.000
 70
    32
  0
VERTEX
  8
3200LEVEL
 62
13
 10
3313.767
 20
-4238.181
 30
2027.000
 70
    32
  0
VERTEX
  8
3200LEVEL
 62
13
 10
3314.981
 20
-4239.438
 30
2027.000
 70
    32
  0
VERTEX
  8
3200LEVEL
 62
13
 10
3317.333
 20
-4240.537
 30
2027.000
 70
    32
  0
VERTEX
  8
3200LEVEL
 62
13
 10
3318.424
 20
-4239.880
 30
2027.000
 70
    32
  0
VERTEX
  8
3200LEVEL
 62
13
 10
3319.810
 20
-4236.658
 30
2027.000
 70
    32
  0
VERTEX
  8
3200LEVEL
 62
13
 10
3321.566
 20
-4233.842
 30
2027.000
 70
    32
  0
VERTEX
  8
3200LEVEL
 62
13
 10
3324.196
 20
-4231.984
 30
2027.000
 70
    32
  0
VERTEX
  8
3200LEVEL
 62
13
 10
3327.639
 20
-4232.427
 30
2027.000
 70
    32
  0
VERTEX
  8
3200LEVEL
 62
13
 10
3329.524
 20
-4233.680
 30
2027.000
 70
    32
  0
VERTEX
  8
3200LEVEL
 62
13
 10
3332.070
 20
-4236.696
 30
2027.000
 70
    32
  0
VERTEX
  8
3200LEVEL
 62
13
 10
3334.059
 20
-4239.544
 30
2027.000
 70
    32
  0
VERTEX
  8
3200LEVEL
 62
13
 10
3338.361
 20
-4242.040
 30
2027.000
 70
    32
  0
VERTEX
  8
3200LEVEL
 62
13
 10
3341.075
 20
-4242.943
 30
2027.000
 70
    32
  0
VERTEX
  8
3200LEVEL
 62
13
 10
3343.899
 20
-4243.003
 30
2027.000
 70
    32
  0
VERTEX
  8
3200LEVEL
 62
13
 10
3346.358
 20
-4243.329
 30
2027.000
 70
    32
  0
VERTEX
  8
3200LEVEL
 62
13
 10
3349.165
 20
-4245.297
 30
2027.000
 70
    32
  0
VERTEX
  8
3200LEVEL
 62
13
 10
3351.630
 20
-4248.521
 30
2027.000
 70
    32
  0
VERTEX
  8
3200LEVEL
 62
13
 10
3353.683
 20
-4251.513
 30
2027.000
 70
    32
  0
VERTEX
  8
3200LEVEL
 62
13
 10
3355.964
 20
-4254.905
 30
2027.000
 70
    32
  0
VERTEX
  8
3200LEVEL
 62
13
 10
3361.597
 20
-4260.714
 30
2027.000
 70
    32
  0
VERTEX
  8
3200LEVEL
 62
13
 10
3367.124
 20
-4265.741
 30
2027.000
 70
    32
  0
VERTEX
  8
3200LEVEL
 62
13
 10
3371.515
 20
-4269.372
 30
2027.000
 70
    32
  0
VERTEX
  8
3200LEVEL
 62
13
 10
3375.455
 20
-4272.805
 30
2027.000
 70
    32
  0
VERTEX
  8
3200LEVEL
 62
13
 10
3381.387
 20
-4281.314
 30
2027.000
 70
    32
  0
VERTEX
  8
3200LEVEL
 62
13
 10
3385.117
 20
-4286.222
 30
2027.000
 70
    32
  0
VERTEX
  8
3200LEVEL
 62
13
 10
3390.341
 20
-4292.471
 30
2027.000
 70
    32
  0
VERTEX
  8
3200LEVEL
 62
13
 10
3392.554
 20
-4297.344
 30
2027.000
 70
    32
  0
VERTEX
  8
3200LEVEL
 62
13
 10
3395.131
 20
-4303.506
 30
2027.000
 70
    32
  0
VERTEX
  8
3200LEVEL
 62
13
 10
3397.724
 20
-4307.019
 30
2027.000
 70
    32
  0
VERTEX
  8
3200LEVEL
 62
13
 10
3402.796
 20
-4310.434
 30
2027.000
 70
    32
  0
VERTEX
  8
3200LEVEL
 62
13
 10
3409.634
 20
-4316.157
 30
2027.000
 70
    32
  0
VERTEX
  8
3200LEVEL
 62
13
 10
3415.937
 20
-4323.517
 30
2027.000
 70
    32
  0
VERTEX
  8
3200LEVEL
 62
13
 10
3421.427
 20
-4330.132
 30
2027.000
 70
    32
  0
VERTEX
  8
3200LEVEL
 62
13
 10
3427.562
 20
-4338.049
 30
2027.000
 70
    32
  0
VERTEX
  8
3200LEVEL
 62
13
 10
3432.768
 20
-4343.909
 30
2027.000
 70
    32
  0
VERTEX
  8
3200LEVEL
 62
13
 10
3437.826
 20
-4349.161
 30
2027.000
 70
    32
  0
VERTEX
  8
3200LEVEL
 62
13
 10
3440.829
 20
-4354.530
 30
2027.000
 70
    32
  0
VERTEX
  8
3200LEVEL
 62
13
 10
3444.372
 20
-4360.419
 30
2027.000
 70
    32
  0
VERTEX
  8
3200LEVEL
 62
13
 10
3447.168
 20
-4364.153
 30
2027.000
 70
    32
  0
VERTEX
  8
3200LEVEL
 62
13
 10
3448.260
 20
-4364.981
 30
2027.000
 70
    32
  0
VERTEX
  8
3200LEVEL
 62
13
 10
3448.562
 20
-4364.571
 30
2027.000
 70
    32
  0
VERTEX
  8
3200LEVEL
 62
13
 10
3447.494
 20
-4359.397
 30
2027.000
 70
    32
  0
VERTEX
  8
3200LEVEL
 62
13
 10
3444.257
 20
-4351.473
 30
2027.000
 70
    32
  0
VERTEX
  8
3200LEVEL
 62
13
 10
3441.317
 20
-4340.170
 30
2027.000
 70
    32
  0
VERTEX
  8
3200LEVEL
 62
13
 10
3437.063
 20
-4328.241
 30
2027.000
 70
    32
  0
VERTEX
  8
3200LEVEL
 62
13
 10
3433.679
 20
-4316.599
 30
2027.000
 70
    32
  0
VERTEX
  8
3200LEVEL
 62
13
 10
3433.778
 20
-4312.928
 30
2027.000
 70
    32
  0
VERTEX
  8
3200LEVEL
 62
13
 10
3435.015
 20
-4310.653
 30
2027.000
 70
    32
  0
VERTEX
  8
3200LEVEL
 62
13
 10
3437.508
 20
-4309.461
 30
2027.000
 70
    32
  0
VERTEX
  8
3200LEVEL
 62
13
 10
3441.380
 20
-4312.079
 30
2027.000
 70
    32
  0
VERTEX
  8
3200LEVEL
 62
13
 10
3451.185
 20
-4326.244
 30
2027.000
 70
    32
  0
VERTEX
  8
3200LEVEL
 62
13
 10
3456.323
 20
-4334.327
 30
2027.000
 70
    32
  0
VERTEX
  8
3200LEVEL
 62
13
 10
3459.924
 20
-4339.759
 30
2027.000
 70
    32
  0
VERTEX
  8
3200LEVEL
 62
13
 10
3466.847
 20
-4352.024
 30
2027.000
 70
    32
  0
VERTEX
  8
3200LEVEL
 62
13
 10
3474.760
 20
-4362.780
 30
2027.000
 70
    32
  0
VERTEX
  8
3200LEVEL
 62
13
 10
3480.387
 20
-4369.472
 30
2027.000
 70
    32
  0
VERTEX
  8
3200LEVEL
 62
13
 10
3484.492
 20
-4375.457
 30
2027.000
 70
    32
  0
VERTEX
  8
3200LEVEL
 62
13
 10
3484.985
 20
-4377.777
 30
2027.000
 70
    32
  0
VERTEX
  8
3200LEVEL
 62
13
 10
3483.170
 20
-4378.824
 30
2027.000
 70
    32
  0
VERTEX
  8
3200LEVEL
 62
13
 10
3479.027
 20
-4377.466
 30
2027.000
 70
    32
  0
VERTEX
  8
3200LEVEL
 62
13
 10
3471.810
 20
-4374.587
 30
2027.000
 70
    32
  0
VERTEX
  8
3200LEVEL
 62
13
 10
3467.332
 20
-4372.860
 30
2027.000
 70
    32
  0
VERTEX
  8
3200LEVEL
 62
13
 10
3463.267
 20
-4372.107
 30
2027.000
 70
    32
  0
VERTEX
  8
3200LEVEL
 62
13
 10
3460.273
 20
-4372.675
 30
2027.000
 70
    32
  0
VERTEX
  8
3200LEVEL
 62
13
 10
3457.752
 20
-4373.689
 30
2027.000
 70
    32
  0
VERTEX
  8
3200LEVEL
 62
13
 10
3457.716
 20
-4374.465
 30
2027.000
 70
    32
  0
VERTEX
  8
3200LEVEL
 62
13
 10
3459.144
 20
-4377.217
 30
2027.000
 70
    32
  0
VERTEX
  8
3200LEVEL
 62
13
 10
3463.377
 20
-4381.194
 30
2027.000
 70
    32
  0
VERTEX
  8
3200LEVEL
 62
13
 10
3467.911
 20
-4387.058
 30
2027.000
 70
    32
  0
VERTEX
  8
3200LEVEL
 62
13
 10
3470.967
 20
-4392.041
 30
2027.000
 70
    32
  0
VERTEX
  8
3200LEVEL
 62
13
 10
3474.173
 20
-4396.076
 30
2027.000
 70
    32
  0
VERTEX
  8
3200LEVEL
 62
13
 10
3478.342
 20
-4399.909
 30
2027.000
 70
    32
  0
VERTEX
  8
3200LEVEL
 62
13
 10
3481.508
 20
-4401.752
 30
2027.000
 70
    32
  0
VERTEX
  8
3200LEVEL
 62
13
 10
3483.865
 20
-4404.264
 30
2027.000
 70
    32
  0
VERTEX
  8
3200LEVEL
 62
13
 10
3484.926
 20
-4408.836
 30
2027.000
 70
    32
  0
VERTEX
  8
3200LEVEL
 62
13
 10
3487.357
 20
-4414.320
 30
2027.000
 70
    32
  0
VERTEX
  8
3200LEVEL
 62
13
 10
3491.775
 20
-4423.465
 30
2027.000
 70
    32
  0
VERTEX
  8
3200LEVEL
 62
13
 10
3495.304
 20
-4432.746
 30
2027.000
 70
    32
  0
VERTEX
  8
3200LEVEL
 62
13
 10
3497.243
 20
-4438.949
 30
2027.000
 70
    32
  0
VERTEX
  8
3200LEVEL
 62
13
 10
3502.238
 20
-4450.135
 30
2027.000
 70
    32
  0
VERTEX
  8
3200LEVEL
 62
13
 10
3505.171
 20
-4456.243
 30
2027.000
 70
    32
  0
VERTEX
  8
3200LEVEL
 62
13
 10
3512.364
 20
-4466.506
 30
2027.000
 70
    32
  0
VERTEX
  8
3200LEVEL
 62
13
 10
3518.787
 20
-4473.553
 30
2027.000
 70
    32
  0
VERTEX
  8
3200LEVEL
 62
13
 10
3527.020
 20
-4482.734
 30
2027.000
 70
    32
  0
VERTEX
  8
3200LEVEL
 62
13
 10
3532.423
 20
-4489.698
 30
2027.000
 70
    32
  0
VERTEX
  8
3200LEVEL
 62
13
 10
3539.728
 20
-4500.602
 30
2027.000
 70
    32
  0
VERTEX
  8
3200LEVEL
 62
13
 10
3543.758
 20
-4508.952
 30
2027.000
 70
    32
  0
VERTEX
  8
3200LEVEL
 62
13
 10
3548.000
 20
-4516.569
 30
2027.000
 70
    32
  0
VERTEX
  8
3200LEVEL
 62
13
 10
3551.611
 20
-4522.532
 30
2027.000
 70
    32
  0
VERTEX
  8
3200LEVEL
 62
13
 10
3556.151
 20
-4529.810
 30
2027.000
 70
    32
  0
VERTEX
  8
3200LEVEL
 62
13
 10
3558.799
 20
-4533.678
 30
2027.000
 70
    32
  0
VERTEX
  8
3200LEVEL
 62
13
 10
3560.157
 20
-4534.872
 30
2027.000
 70
    32
  0
VERTEX
  8
3200LEVEL
 62
13
 10
3560.799
 20
-4533.205
 30
2027.000
 70
    32
  0
VERTEX
  8
3200LEVEL
 62
13
 10
3560.065
 20
-4531.511
 30
2027.000
 70
    32
  0
VERTEX
  8
3200LEVEL
 62
13
 10
3560.667
 20
-4529.948
 30
2027.000
 70
    32
  0
VERTEX
  8
3200LEVEL
 62
13
 10
3562.556
 20
-4528.092
 30
2027.000
 70
    32
  0
VERTEX
  8
3200LEVEL
 62
13
 10
3562.392
 20
-4523.985
 30
2027.000
 70
    32
  0
VERTEX
  8
3200LEVEL
 62
13
 10
3561.050
 20
-4519.400
 30
2027.000
 70
    32
  0
VERTEX
  8
3200LEVEL
 62
13
 10
3560.077
 20
-4515.220
 30
2027.000
 70
    32
  0
VERTEX
  8
3200LEVEL
 62
13
 10
3560.756
 20
-4512.778
 30
2027.000
 70
    32
  0
VERTEX
  8
3200LEVEL
 62
13
 10
3561.154
 20
-4509.510
 30
2027.000
 70
    32
  0
VERTEX
  8
3200LEVEL
 62
13
 10
3559.942
 20
-4499.064
 30
2027.000
 70
    32
  0
VERTEX
  8
3200LEVEL
 62
13
 10
3559.943
 20
-4492.916
 30
2027.000
 70
    32
  0
VERTEX
  8
3200LEVEL
 62
13
 10
3561.797
 20
-4490.280
 30
2027.000
 70
    32
  0
VERTEX
  8
3200LEVEL
 62
13
 10
3566.679
 20
-4489.411
 30
2027.000
 70
    32
  0
VERTEX
  8
3200LEVEL
 62
13
 10
3574.119
 20
-4491.275
 30
2027.000
 70
    32
  0
VERTEX
  8
3200LEVEL
 62
13
 10
3581.203
 20
-4494.748
 30
2027.000
 70
    32
  0
VERTEX
  8
3200LEVEL
 62
13
 10
3586.996
 20
-4497.843
 30
2027.000
 70
    32
  0
VERTEX
  8
3200LEVEL
 62
13
 10
3590.995
 20
-4499.265
 30
2027.000
 70
    32
  0
VERTEX
  8
3200LEVEL
 62
13
 10
3595.300
 20
-4499.394
 30
2027.000
 70
    32
  0
VERTEX
  8
3200LEVEL
 62
13
 10
3597.482
 20
-4498.823
 30
2027.000
 70
    32
  0
VERTEX
  8
3200LEVEL
 62
13
 10
3599.581
 20
-4499.274
 30
2027.000
 70
    32
  0
VERTEX
  8
3200LEVEL
 62
13
 10
3601.599
 20
-4501.488
 30
2027.000
 70
    32
  0
VERTEX
  8
3200LEVEL
 62
13
 10
3603.931
 20
-4505.306
 30
2027.000
 70
    32
  0
VERTEX
  8
3200LEVEL
 62
13
 10
3606.341
 20
-4506.690
 30
2027.000
 70
    32
  0
VERTEX
  8
3200LEVEL
 62
13
 10
3607.452
 20
-4506.352
 30
2027.000
 70
    32
  0
VERTEX
  8
3200LEVEL
 62
13
 10
3608.461
 20
-4502.123
 30
2027.000
 70
    32
  0
VERTEX
  8
3200LEVEL
 62
13
 10
3608.728
 20
-4491.004
 30
2027.000
 70
    32
  0
VERTEX
  8
3200LEVEL
 62
13
 10
3610.522
 20
-4488.896
 30
2027.000
 70
    32
  0
VERTEX
  8
3200LEVEL
 62
13
 10
3612.946
 20
-4486.146
 30
2027.000
 70
    32
  0
VERTEX
  8
3200LEVEL
 62
13
 10
3615.568
 20
-4482.946
 30
2027.000
 70
    32
  0
VERTEX
  8
3200LEVEL
 62
13
 10
3617.668
 20
-4481.099
 30
2027.000
 70
    32
  0
VERTEX
  8
3200LEVEL
 62
13
 10
3619.655
 20
-4480.908
 30
2027.000
 70
    32
  0
VERTEX
  8
3200LEVEL
 62
13
 10
3621.697
 20
-4481.074
 30
2027.000
 70
    32
  0
VERTEX
  8
3200LEVEL
 62
13
 10
3623.477
 20
-4480.803
 30
2027.000
 70
    32
  0
VERTEX
  8
3200LEVEL
 62
13
 10
3623.342
 20
-4480.655
 30
2027.000
 70
    32
  0
VERTEX
  8
3200LEVEL
 62
13
 10
3623.241
 20
-4480.544
 30
2027.000
 70
    32
  0
VERTEX
  8
3200LEVEL
 62
13
 10
3625.930
 20
-4479.715
 30
2027.000
 70
    32
  0
VERTEX
  8
3200LEVEL
 62
13
 10
3628.645
 20
-4478.321
 30
2027.000
 70
    32
  0
VERTEX
  8
3200LEVEL
 62
13
 10
3631.587
 20
-4478.139
 30
2027.000
 70
    32
  0
VERTEX
  8
3200LEVEL
 62
13
 10
3634.186
 20
-4478.471
 30
2027.000
 70
    32
  0
VERTEX
  8
3200LEVEL
 62
13
 10
3635.847
 20
-4476.958
 30
2027.000
 70
    32
  0
VERTEX
  8
3200LEVEL
 62
13
 10
3635.900
 20
-4474.275
 30
2027.000
 70
    32
  0
VERTEX
  8
3200LEVEL
 62
13
 10
3635.929
 20
-4470.601
 30
2027.000
 70
    32
  0
VERTEX
  8
3200LEVEL
 62
13
 10
3636.412
 20
-4467.796
 30
2027.000
 70
    32
  0
VERTEX
  8
3200LEVEL
 62
13
 10
3638.754
 20
-4466.067
 30
2027.000
 70
    32
  0
VERTEX
  8
3200LEVEL
 62
13
 10
3640.682
 20
-4466.404
 30
2027.000
 70
    32
  0
VERTEX
  8
3200LEVEL
 62
13
 10
3643.369
 20
-4469.426
 30
2027.000
 70
    32
  0
VERTEX
  8
3200LEVEL
 62
13
 10
3646.616
 20
-4477.139
 30
2027.000
 70
    32
  0
VERTEX
  8
3200LEVEL
 62
13
 10
3651.434
 20
-4489.094
 30
2027.000
 70
    32
  0
VERTEX
  8
3200LEVEL
 62
13
 10
3657.341
 20
-4498.909
 30
2027.000
 70
    32
  0
VERTEX
  8
3200LEVEL
 62
13
 10
3663.002
 20
-4506.380
 30
2027.000
 70
    32
  0
VERTEX
  8
3200LEVEL
 62
13
 10
3672.553
 20
-4516.858
 30
2027.000
 70
    32
  0
VERTEX
  8
3200LEVEL
 62
13
 10
3684.609
 20
-4529.714
 30
2027.000
 70
    32
  0
VERTEX
  8
3200LEVEL
 62
13
 10
3689.910
 20
-4535.825
 30
2027.000
 70
    32
  0
VERTEX
  8
3200LEVEL
 62
13
 10
3699.175
 20
-4548.658
 30
2027.000
 70
    32
  0
VERTEX
  8
3200LEVEL
 62
13
 10
3705.182
 20
-4557.841
 30
2027.000
 70
    32
  0
VERTEX
  8
3200LEVEL
 62
13
 10
3713.386
 20
-4568.398
 30
2027.000
 70
    32
  0
VERTEX
  8
3200LEVEL
 62
13
 10
3716.693
 20
-4572.545
 30
2027.000
 70
    32
  0
VERTEX
  8
3200LEVEL
 62
13
 10
3718.642
 20
-4573.942
 30
2027.000
 70
    32
  0
VERTEX
  8
3200LEVEL
 62
13
 10
3719.998
 20
-4573.652
 30
2027.000
 70
    32
  0
VERTEX
  8
3200LEVEL
 62
13
 10
3720.459
 20
-4571.341
 30
2027.000
 70
    32
  0
VERTEX
  8
3200LEVEL
 62
13
 10
3717.329
 20
-4563.386
 30
2027.000
 70
    32
  0
VERTEX
  8
3200LEVEL
 62
13
 10
3712.186
 20
-4552.335
 30
2027.000
 70
    32
  0
VERTEX
  8
3200LEVEL
 62
13
 10
3705.170
 20
-4536.708
 30
2027.000
 70
    32
  0
VERTEX
  8
3200LEVEL
 62
13
 10
3700.335
 20
-4522.067
 30
2027.000
 70
    32
  0
VERTEX
  8
3200LEVEL
 62
13
 10
3695.280
 20
-4506.072
 30
2027.000
 70
    32
  0
VERTEX
  8
3200LEVEL
 62
13
 10
3691.829
 20
-4493.614
 30
2027.000
 70
    32
  0
VERTEX
  8
3200LEVEL
 62
13
 10
3684.025
 20
-4473.640
 30
2027.000
 70
    32
  0
VERTEX
  8
3200LEVEL
 62
13
 10
3680.754
 20
-4466.421
 30
2027.000
 70
    32
  0
VERTEX
  8
3200LEVEL
 62
13
 10
3676.519
 20
-4457.921
 30
2027.000
 70
    32
  0
VERTEX
  8
3200LEVEL
 62
13
 10
3673.643
 20
-4452.098
 30
2027.000
 70
    32
  0
VERTEX
  8
3200LEVEL
 62
13
 10
3669.679
 20
-4446.119
 30
2027.000
 70
    32
  0
VERTEX
  8
3200LEVEL
 62
13
 10
3665.794
 20
-4441.487
 30
2027.000
 70
    32
  0
VERTEX
  8
3200LEVEL
 62
13
 10
3660.129
 20
-4433.344
 30
2027.000
 70
    32
  0
VERTEX
  8
3200LEVEL
 62
13
 10
3651.951
 20
-4419.926
 30
2027.000
 70
    32
  0
VERTEX
  8
3200LEVEL
 62
13
 10
3643.507
 20
-4406.142
 30
2027.000
 70
    32
  0
VERTEX
  8
3200LEVEL
 62
13
 10
3635.915
 20
-4391.513
 30
2027.000
 70
    32
  0
VERTEX
  8
3200LEVEL
 62
13
 10
3628.437
 20
-4376.714
 30
2027.000
 70
    32
  0
VERTEX
  8
3200LEVEL
 62
13
 10
3622.108
 20
-4365.325
 30
2027.000
 70
    32
  0
VERTEX
  8
3200LEVEL
 62
13
 10
3618.429
 20
-4358.546
 30
2027.000
 70
    32
  0
VERTEX
  8
3200LEVEL
 62
13
 10
3613.558
 20
-4346.977
 30
2027.000
 70
    32
  0
VERTEX
  8
3200LEVEL
 62
13
 10
3613.112
 20
-4329.888
 30
2027.000
 70
    32
  0
VERTEX
  8
3200LEVEL
 62
13
 10
3617.612
 20
-4322.004
 30
2027.000
 70
    32
  0
VERTEX
  8
3200LEVEL
 62
13
 10
3620.402
 20
-4311.355
 30
2027.000
 70
    32
  0
VERTEX
  8
3200LEVEL
 62
13
 10
3621.890
 20
-4304.392
 30
2027.000
 70
    32
  0
VERTEX
  8
3200LEVEL
 62
13
 10
3624.757
 20
-4293.605
 30
2027.000
 70
    32
  0
VERTEX
  8
3200LEVEL
 62
13
 10
3627.190
 20
-4286.862
 30
2027.000
 70
    32
  0
VERTEX
  8
3200LEVEL
 62
13
 10
3630.771
 20
-4278.193
 30
2027.000
 70
    32
  0
VERTEX
  8
3200LEVEL
 62
13
 10
3633.832
 20
-4271.621
 30
2027.000
 70
    32
  0
VERTEX
  8
3200LEVEL
 62
13
 10
3636.890
 20
-4262.822
 30
2027.000
 70
    32
  0
VERTEX
  8
3200LEVEL
 62
13
 10
3639.345
 20
-4253.288
 30
2027.000
 70
    32
  0
VERTEX
  8
3200LEVEL
 62
13
 10
3640.479
 20
-4244.824
 30
2027.000
 70
    32
  0
VERTEX
  8
3200LEVEL
 62
13
 10
3639.844
 20
-4239.458
 30
2027.000
 70
    32
  0
VERTEX
  8
3200LEVEL
 62
13
 10
3636.788
 20
-4231.437
 30
2027.000
 70
    32
  0
VERTEX
  8
3200LEVEL
 62
13
 10
3631.858
 20
-4224.176
 30
2027.000
 70
    32
  0
VERTEX
  8
3200LEVEL
 62
13
 10
3629.071
 20
-4218.746
 30
2027.000
 70
    32
  0
VERTEX
  8
3200LEVEL
 62
13
 10
3627.285
 20
-4214.564
 30
2027.000
 70
    32
  0
VERTEX
  8
3200LEVEL
 62
13
 10
3626.313
 20
-4210.385
 30
2027.000
 70
    32
  0
VERTEX
  8
3200LEVEL
 62
13
 10
3626.649
 20
-4208.457
 30
2027.000
 70
    32
  0
VERTEX
  8
3200LEVEL
 62
13
 10
3627.844
 20
-4207.841
 30
2027.000
 70
    32
  0
VERTEX
  8
3200LEVEL
 62
13
 10
3631.420
 20
-4209.985
 30
2027.000
 70
    32
  0
VERTEX
  8
3200LEVEL
 62
13
 10
3635.807
 20
-4213.687
 30
2027.000
 70
    32
  0
VERTEX
  8
3200LEVEL
 62
13
 10
3643.424
 20
-4221.672
 30
2027.000
 70
    32
  0
VERTEX
  8
3200LEVEL
 62
13
 10
3653.710
 20
-4232.291
 30
2027.000
 70
    32
  0
VERTEX
  8
3200LEVEL
 62
13
 10
3664.078
 20
-4245.740
 30
2027.000
 70
    32
  0
VERTEX
  8
3200LEVEL
 62
13
 10
3674.536
 20
-4258.769
 30
2027.000
 70
    32
  0
VERTEX
  8
3200LEVEL
 62
13
 10
3682.632
 20
-4271.653
 30
2027.000
 70
    32
  0
VERTEX
  8
3200LEVEL
 62
13
 10
3690.056
 20
-4283.058
 30
2027.000
 70
    32
  0
VERTEX
  8
3200LEVEL
 62
13
 10
3698.565
 20
-4293.135
 30
2027.000
 70
    32
  0
VERTEX
  8
3200LEVEL
 62
13
 10
3706.349
 20
-4300.562
 30
2027.000
 70
    32
  0
VERTEX
  8
3200LEVEL
 62
13
 10
3712.716
 20
-4305.769
 30
2027.000
 70
    32
  0
VERTEX
  8
3200LEVEL
 62
13
 10
3719.196
 20
-4310.062
 30
2027.000
 70
    32
  0
VERTEX
  8
3200LEVEL
 62
13
 10
3724.126
 20
-4312.729
 30
2027.000
 70
    32
  0
VERTEX
  8
3200LEVEL
 62
13
 10
3730.567
 20
-4314.829
 30
2027.000
 70
    32
  0
VERTEX
  8
3200LEVEL
 62
13
 10
3736.828
 20
-4316.215
 30
2027.000
 70
    32
  0
VERTEX
  8
3200LEVEL
 62
13
 10
3741.688
 20
-4316.581
 30
2027.000
 70
    32
  0
VERTEX
  8
3200LEVEL
 62
13
 10
3745.073
 20
-4316.738
 30
2027.000
 70
    32
  0
VERTEX
  8
3200LEVEL
 62
13
 10
3747.551
 20
-4316.640
 30
2027.000
 70
    32
  0
VERTEX
  8
3200LEVEL
 62
13
 10
3756.854
 20
-4318.432
 30
2027.000
 70
    32
  0
VERTEX
  8
3200LEVEL
 62
13
 10
3762.688
 20
-4322.818
 30
2027.000
 70
    32
  0
VERTEX
  8
3200LEVEL
 62
13
 10
3769.494
 20
-4334.026
 30
2027.000
 70
    32
  0
VERTEX
  8
3200LEVEL
 62
13
 10
3777.273
 20
-4350.595
 30
2027.000
 70
    32
  0
VERTEX
  8
3200LEVEL
 62
13
 10
3785.331
 20
-4363.067
 30
2027.000
 70
    32
  0
VERTEX
  8
3200LEVEL
 62
13
 10
3819.235
 20
-4405.946
 30
2027.000
 70
    32
  0
VERTEX
  8
3200LEVEL
 62
13
 10
3848.574
 20
-4380.429
 30
2027.000
 70
    32
  0
VERTEX
  8
3200LEVEL
 62
13
 10
3858.884
 20
-4320.709
 30
2027.000
 70
    32
  0
VERTEX
  8
3200LEVEL
 62
13
 10
3844.515
 20
-4259.220
 30
2027.000
 70
    32
  0
VERTEX
  8
3200LEVEL
 62
13
 10
3817.379
 20
-4218.317
 30
2027.000
 70
    32
  0
VERTEX
  8
3200LEVEL
 62
13
 10
3815.981
 20
-4168.255
 30
2027.000
 70
    32
  0
VERTEX
  8
3200LEVEL
 62
13
 10
3799.352
 20
-4126.085
 30
2027.000
 70
    32
  0
VERTEX
  8
3200LEVEL
 62
13
 10
3778.982
 20
-4094.209
 30
2027.000
 70
    32
  0
VERTEX
  8
3200LEVEL
 62
13
 10
3779.695
 20
-4064.595
 30
2027.000
 70
    32
  0
VERTEX
  8
3200LEVEL
 62
13
 10
3805.083
 20
-4047.326
 30
2027.000
 70
    32
  0
VERTEX
  8
3200LEVEL
 62
13
 10
3808.473
 20
-4027.161
 30
2027.000
 70
    32
  0
VERTEX
  8
3200LEVEL
 62
13
 10
3824.412
 20
-4010.807
 30
2027.000
 70
    32
  0
SEQEND
  8
3200LEVEL
  0
POLYLINE
  8
3200LEVEL
 62
13
 66
     1
 70
     8
  0
VERTEX
  8
3200LEVEL
 62
13
 10
3447.708
 20
-4617.376
 30
2027.000
 70
    32
  0
VERTEX
  8
3200LEVEL
 62
13
 10
3446.913
 20
-4615.980
 30
2027.000
 70
    32
  0
VERTEX
  8
3200LEVEL
 62
13
 10
3446.355
 20
-4615.299
 30
2027.000
 70
    32
  0
VERTEX
  8
3200LEVEL
 62
13
 10
3444.513
 20
-4613.871
 30
2027.000
 70
    32
  0
VERTEX
  8
3200LEVEL
 62
13
 10
3442.395
 20
-4612.288
 30
2027.000
 70
    32
  0
VERTEX
  8
3200LEVEL
 62
13
 10
3440.846
 20
-4611.691
 30
2027.000
 70
    32
  0
VERTEX
  8
3200LEVEL
 62
13
 10
3438.766
 20
-4610.530
 30
2027.000
 70
    32
  0
SEQEND
  8
3200LEVEL
  0
POLYLINE
  8
3200LEVEL
 62
13
 66
     1
 70
     8
  0
VERTEX
  8
3200LEVEL
 62
13
 10
3527.070
 20
-4663.620
 30
2027.000
 70
    32
  0
VERTEX
  8
3200LEVEL
 62
13
 10
3527.981
 20
-4665.795
 30
2027.000
 70
    32
  0
VERTEX
  8
3200LEVEL
 62
13
 10
3535.403
 20
-4681.051
 30
2027.000
 70
    32
  0
VERTEX
  8
3200LEVEL
 62
13
 10
3541.334
 20
-4691.856
 30
2027.000
 70
    32
  0
VERTEX
  8
3200LEVEL
 62
13
 10
3544.519
 20
-4700.909
 30
2027.000
 70
    32
  0
VERTEX
  8
3200LEVEL
 62
13
 10
3549.565
 20
-4712.521
 30
2027.000
 70
    32
  0
VERTEX
  8
3200LEVEL
 62
13
 10
3554.378
 20
-4723.063
 30
2027.000
 70
    32
  0
VERTEX
  8
3200LEVEL
 62
13
 10
3558.827
 20
-4730.018
 30
2027.000
 70
    32
  0
VERTEX
  8
3200LEVEL
 62
13
 10
3563.291
 20
-4735.879
 30
2027.000
 70
    32
  0
VERTEX
  8
3200LEVEL
 62
13
 10
3567.257
 20
-4741.046
 30
2027.000
 70
    32
  0
VERTEX
  8
3200LEVEL
 62
13
 10
3570.422
 20
-4745.185
 30
2027.000
 70
    32
  0
VERTEX
  8
3200LEVEL
 62
13
 10
3572.909
 20
-4748.728
 30
2027.000
 70
    32
  0
VERTEX
  8
3200LEVEL
 62
13
 10
3575.912
 20
-4752.542
 30
2027.000
 70
    32
  0
VERTEX
  8
3200LEVEL
 62
13
 10
3578.469
 20
-4756.089
 30
2027.000
 70
    32
  0
VERTEX
  8
3200LEVEL
 62
13
 10
3580.565
 20
-4758.907
 30
2027.000
 70
    32
  0
VERTEX
  8
3200LEVEL
 62
13
 10
3581.397
 20
-4760.783
 30
2027.000
 70
    32
  0
VERTEX
  8
3200LEVEL
 62
13
 10
3581.405
 20
-4761.384
 30
2027.000
 70
    32
  0
VERTEX
  8
3200LEVEL
 62
13
 10
3579.649
 20
-4759.606
 30
2027.000
 70
    32
  0
VERTEX
  8
3200LEVEL
 62
13
 10
3575.258
 20
-4755.233
 30
2027.000
 70
    32
  0
VERTEX
  8
3200LEVEL
 62
13
 10
3570.873
 20
-4750.719
 30
2027.000
 70
    32
  0
VERTEX
  8
3200LEVEL
 62
13
 10
3567.819
 20
-4747.220
 30
2027.000
 70
    32
  0
VERTEX
  8
3200LEVEL
 62
13
 10
3565.373
 20
-4743.573
 30
2027.000
 70
    32
  0
VERTEX
  8
3200LEVEL
 62
13
 10
3562.585
 20
-4740.441
 30
2027.000
 70
    32
  0
VERTEX
  8
3200LEVEL
 62
13
 10
3560.825
 20
-4737.991
 30
2027.000
 70
    32
  0
VERTEX
  8
3200LEVEL
 62
13
 10
3559.560
 20
-4736.307
 30
2027.000
 70
    32
  0
VERTEX
  8
3200LEVEL
 62
13
 10
3559.272
 20
-4736.435
 30
2027.000
 70
    32
  0
VERTEX
  8
3200LEVEL
 62
13
 10
3560.070
 20
-4738.274
 30
2027.000
 70
    32
  0
VERTEX
  8
3200LEVEL
 62
13
 10
3561.597
 20
-4740.395
 30
2027.000
 70
    32
  0
VERTEX
  8
3200LEVEL
 62
13
 10
3562.436
 20
-4742.130
 30
2027.000
 70
    32
  0
VERTEX
  8
3200LEVEL
 62
13
 10
3562.185
 20
-4742.966
 30
2027.000
 70
    32
  0
VERTEX
  8
3200LEVEL
 62
13
 10
3559.617
 20
-4741.187
 30
2027.000
 70
    32
  0
VERTEX
  8
3200LEVEL
 62
13
 10
3555.646
 20
-4737.646
 30
2027.000
 70
    32
  0
VERTEX
  8
3200LEVEL
 62
13
 10
3547.864
 20
-4730.960
 30
2027.000
 70
    32
  0
VERTEX
  8
3200LEVEL
 62
13
 10
3540.680
 20
-4725.821
 30
2027.000
 70
    32
  0
VERTEX
  8
3200LEVEL
 62
13
 10
3530.060
 20
-4719.358
 30
2027.000
 70
    32
  0
VERTEX
  8
3200LEVEL
 62
13
 10
3524.218
 20
-4715.023
 30
2027.000
 70
    32
  0
VERTEX
  8
3200LEVEL
 62
13
 10
3519.605
 20
-4710.852
 30
2027.000
 70
    32
  0
VERTEX
  8
3200LEVEL
 62
13
 10
3517.490
 20
-4708.457
 30
2027.000
 70
    32
  0
VERTEX
  8
3200LEVEL
 62
13
 10
3517.179
 20
-4707.524
 30
2027.000
 70
    32
  0
VERTEX
  8
3200LEVEL
 62
13
 10
3517.756
 20
-4706.526
 30
2027.000
 70
    32
  0
VERTEX
  8
3200LEVEL
 62
13
 10
3518.140
 20
-4705.094
 30
2027.000
 70
    32
  0
VERTEX
  8
3200LEVEL
 62
13
 10
3516.557
 20
-4704.173
 30
2027.000
 70
    32
  0
VERTEX
  8
3200LEVEL
 62
13
 10
3514.599
 20
-4703.729
 30
2027.000
 70
    32
  0
VERTEX
  8
3200LEVEL
 62
13
 10
3513.960
 20
-4703.028
 30
2027.000
 70
    32
  0
VERTEX
  8
3200LEVEL
 62
13
 10
3513.855
 20
-4702.246
 30
2027.000
 70
    32
  0
VERTEX
  8
3200LEVEL
 62
13
 10
3514.070
 20
-4699.888
 30
2027.000
 70
    32
  0
VERTEX
  8
3200LEVEL
 62
13
 10
3512.336
 20
-4696.875
 30
2027.000
 70
    32
  0
VERTEX
  8
3200LEVEL
 62
13
 10
3508.113
 20
-4692.686
 30
2027.000
 70
    32
  0
VERTEX
  8
3200LEVEL
 62
13
 10
3505.715
 20
-4690.278
 30
2027.000
 70
    32
  0
VERTEX
  8
3200LEVEL
 62
13
 10
3503.431
 20
-4686.956
 30
2027.000
 70
    32
  0
VERTEX
  8
3200LEVEL
 62
13
 10
3501.838
 20
-4683.208
 30
2027.000
 70
    32
  0
VERTEX
  8
3200LEVEL
 62
13
 10
3497.396
 20
-4676.853
 30
2027.000
 70
    32
  0
VERTEX
  8
3200LEVEL
 62
13
 10
3494.897
 20
-4673.592
 30
2027.000
 70
    32
  0
VERTEX
  8
3200LEVEL
 62
13
 10
3492.076
 20
-4671.165
 30
2027.000
 70
    32
  0
VERTEX
  8
3200LEVEL
 62
13
 10
3489.826
 20
-4668.622
 30
2027.000
 70
    32
  0
VERTEX
  8
3200LEVEL
 62
13
 10
3488.423
 20
-4666.119
 30
2027.000
 70
    32
  0
VERTEX
  8
3200LEVEL
 62
13
 10
3485.197
 20
-4662.506
 30
2027.000
 70
    32
  0
VERTEX
  8
3200LEVEL
 62
13
 10
3483.506
 20
-4660.873
 30
2027.000
 70
    32
  0
VERTEX
  8
3200LEVEL
 62
13
 10
3482.593
 20
-4660.760
 30
2027.000
 70
    32
  0
VERTEX
  8
3200LEVEL
 62
13
 10
3481.183
 20
-4661.437
 30
2027.000
 70
    32
  0
VERTEX
  8
3200LEVEL
 62
13
 10
3479.775
 20
-4660.559
 30
2027.000
 70
    32
  0
VERTEX
  8
3200LEVEL
 62
13
 10
3478.379
 20
-4656.360
 30
2027.000
 70
    32
  0
VERTEX
  8
3200LEVEL
 62
13
 10
3477.159
 20
-4652.946
 30
2027.000
 70
    32
  0
VERTEX
  8
3200LEVEL
 62
13
 10
3474.470
 20
-4648.440
 30
2027.000
 70
    32
  0
VERTEX
  8
3200LEVEL
 62
13
 10
3473.211
 20
-4646.615
 30
2027.000
 70
    32
  0
VERTEX
  8
3200LEVEL
 62
13
 10
3472.379
 20
-4647.036
 30
2027.000
 70
    32
  0
VERTEX
  8
3200LEVEL
 62
13
 10
3472.293
 20
-4648.127
 30
2027.000
 70
    32
  0
VERTEX
  8
3200LEVEL
 62
13
 10
3472.241
 20
-4649.256
 30
2027.000
 70
    32
  0
VERTEX
  8
3200LEVEL
 62
13
 10
3471.483
 20
-4649.609
 30
2027.000
 70
    32
  0
VERTEX
  8
3200LEVEL
 62
13
 10
3470.999
 20
-4649.375
 30
2027.000
 70
    32
  0
VERTEX
  8
3200LEVEL
 62
13
 10
3470.338
 20
-4649.120
 30
2027.000
 70
    32
  0
VERTEX
  8
3200LEVEL
 62
13
 10
3468.242
 20
-4647.339
 30
2027.000
 70
    32
  0
SEQEND
  8
3200LEVEL
  0
POLYLINE
  8
3200LEVEL
 62
13
 66
     1
 70
     8
  0
VERTEX
  8
3200LEVEL
 62
13
 10
3500.072
 20
-4605.311
 30
2027.000
 70
    32
  0
VERTEX
  8
3200LEVEL
 62
13
 10
3498.462
 20
-4604.212
 30
2027.000
 70
    32
  0
VERTEX
  8
3200LEVEL
 62
13
 10
3497.477
 20
-4603.353
 30
2027.000
 70
    32
  0
VERTEX
  8
3200LEVEL
 62
13
 10
3495.379
 20
-4601.348
 30
2027.000
 70
    32
  0
VERTEX
  8
3200LEVEL
 62
13
 10
3492.193
 20
-4599.186
 30
2027.000
 70
    32
  0
VERTEX
  8
3200LEVEL
 62
13
 10
3488.931
 20
-4596.350
 30
2027.000
 70
    32
  0
VERTEX
  8
3200LEVEL
 62
13
 10
3485.692
 20
-4592.277
 30
2027.000
 70
    32
  0
VERTEX
  8
3200LEVEL
 62
13
 10
3484.655
 20
-4590.250
 30
2027.000
 70
    32
  0
VERTEX
  8
3200LEVEL
 62
13
 10
3486.011
 20
-4586.920
 30
2027.000
 70
    32
  0
VERTEX
  8
3200LEVEL
 62
13
 10
3487.108
 20
-4583.826
 30
2027.000
 70
    32
  0
VERTEX
  8
3200LEVEL
 62
13
 10
3486.147
 20
-4583.216
 30
2027.000
 70
    32
  0
VERTEX
  8
3200LEVEL
 62
13
 10
3484.861
 20
-4583.510
 30
2027.000
 70
    32
  0
VERTEX
  8
3200LEVEL
 62
13
 10
3483.113
 20
-4584.631
 30
2027.000
 70
    32
  0
VERTEX
  8
3200LEVEL
 62
13
 10
3481.207
 20
-4585.355
 30
2027.000
 70
    32
  0
VERTEX
  8
3200LEVEL
 62
13
 10
3478.504
 20
-4585.725
 30
2027.000
 70
    32
  0
VERTEX
  8
3200LEVEL
 62
13
 10
3476.467
 20
-4584.676
 30
2027.000
 70
    32
  0
VERTEX
  8
3200LEVEL
 62
13
 10
3476.209
 20
-4582.615
 30
2027.000
 70
    32
  0
VERTEX
  8
3200LEVEL
 62
13
 10
3476.604
 20
-4578.675
 30
2027.000
 70
    32
  0
VERTEX
  8
3200LEVEL
 62
13
 10
3477.917
 20
-4573.965
 30
2027.000
 70
    32
  0
VERTEX
  8
3200LEVEL
 62
13
 10
3478.459
 20
-4569.891
 30
2027.000
 70
    32
  0
VERTEX
  8
3200LEVEL
 62
13
 10
3477.531
 20
-4563.982
 30
2027.000
 70
    32
  0
VERTEX
  8
3200LEVEL
 62
13
 10
3474.195
 20
-4562.768
 30
2027.000
 70
    32
  0
VERTEX
  8
3200LEVEL
 62
13
 10
3472.645
 20
-4563.438
 30
2027.000
 70
    32
  0
VERTEX
  8
3200LEVEL
 62
13
 10
3470.912
 20
-4566.503
 30
2027.000
 70
    32
  0
VERTEX
  8
3200LEVEL
 62
13
 10
3469.585
 20
-4573.050
 30
2027.000
 70
    32
  0
VERTEX
  8
3200LEVEL
 62
13
 10
3468.049
 20
-4577.219
 30
2027.000
 70
    32
  0
VERTEX
  8
3200LEVEL
 62
13
 10
3466.767
 20
-4580.481
 30
2027.000
 70
    32
  0
VERTEX
  8
3200LEVEL
 62
13
 10
3467.138
 20
-4586.966
 30
2027.000
 70
    32
  0
VERTEX
  8
3200LEVEL
 62
13
 10
3466.794
 20
-4593.629
 30
2027.000
 70
    32
  0
VERTEX
  8
3200LEVEL
 62
13
 10
3466.110
 20
-4601.548
 30
2027.000
 70
    32
  0
VERTEX
  8
3200LEVEL
 62
13
 10
3466.463
 20
-4604.603
 30
2027.000
 70
    32
  0
VERTEX
  8
3200LEVEL
 62
13
 10
3465.747
 20
-4604.040
 30
2027.000
 70
    32
  0
VERTEX
  8
3200LEVEL
 62
13
 10
3462.887
 20
-4600.162
 30
2027.000
 70
    32
  0
VERTEX
  8
3200LEVEL
 62
13
 10
3459.940
 20
-4595.891
 30
2027.000
 70
    32
  0
VERTEX
  8
3200LEVEL
 62
13
 10
3456.355
 20
-4589.364
 30
2027.000
 70
    32
  0
VERTEX
  8
3200LEVEL
 62
13
 10
3453.313
 20
-4581.802
 30
2027.000
 70
    32
  0
VERTEX
  8
3200LEVEL
 62
13
 10
3450.362
 20
-4572.266
 30
2027.000
 70
    32
  0
VERTEX
  8
3200LEVEL
 62
13
 10
3448.983
 20
-4566.159
 30
2027.000
 70
    32
  0
VERTEX
  8
3200LEVEL
 62
13
 10
3446.806
 20
-4557.471
 30
2027.000
 70
    32
  0
VERTEX
  8
3200LEVEL
 62
13
 10
3445.008
 20
-4551.274
 30
2027.000
 70
    32
  0
VERTEX
  8
3200LEVEL
 62
13
 10
3442.171
 20
-4544.605
 30
2027.000
 70
    32
  0
VERTEX
  8
3200LEVEL
 62
13
 10
3440.631
 20
-4535.134
 30
2027.000
 70
    32
  0
VERTEX
  8
3200LEVEL
 62
13
 10
3440.651
 20
-4527.078
 30
2027.000
 70
    32
  0
VERTEX
  8
3200LEVEL
 62
13
 10
3440.439
 20
-4521.732
 30
2027.000
 70
    32
  0
VERTEX
  8
3200LEVEL
 62
13
 10
3438.496
 20
-4517.896
 30
2027.000
 70
    32
  0
VERTEX
  8
3200LEVEL
 62
13
 10
3435.232
 20
-4512.833
 30
2027.000
 70
    32
  0
VERTEX
  8
3200LEVEL
 62
13
 10
3432.670
 20
-4510.912
 30
2027.000
 70
    32
  0
VERTEX
  8
3200LEVEL
 62
13
 10
3431.011
 20
-4510.871
 30
2027.000
 70
    32
  0
VERTEX
  8
3200LEVEL
 62
13
 10
3429.720
 20
-4512.048
 30
2027.000
 70
    32
  0
VERTEX
  8
3200LEVEL
 62
13
 10
3428.373
 20
-4514.424
 30
2027.000
 70
    32
  0
VERTEX
  8
3200LEVEL
 62
13
 10
3426.008
 20
-4518.944
 30
2027.000
 70
    32
  0
VERTEX
  8
3200LEVEL
 62
13
 10
3423.769
 20
-4522.268
 30
2027.000
 70
    32
  0
VERTEX
  8
3200LEVEL
 62
13
 10
3420.233
 20
-4524.613
 30
2027.000
 70
    32
  0
VERTEX
  8
3200LEVEL
 62
13
 10
3416.876
 20
-4527.674
 30
2027.000
 70
    32
  0
VERTEX
  8
3200LEVEL
 62
13
 10
3415.554
 20
-4531.040
 30
2027.000
 70
    32
  0
VERTEX
  8
3200LEVEL
 62
13
 10
3416.257
 20
-4537.222
 30
2027.000
 70
    32
  0
VERTEX
  8
3200LEVEL
 62
13
 10
3416.833
 20
-4543.857
 30
2027.000
 70
    32
  0
VERTEX
  8
3200LEVEL
 62
13
 10
3415.740
 20
-4547.622
 30
2027.000
 70
    32
  0
VERTEX
  8
3200LEVEL
 62
13
 10
3415.641
 20
-4548.996
 30
2027.000
 70
    32
  0
VERTEX
  8
3200LEVEL
 62
13
 10
3418.703
 20
-4553.096
 30
2027.000
 70
    32
  0
VERTEX
  8
3200LEVEL
 62
13
 10
3422.702
 20
-4558.299
 30
2027.000
 70
    32
  0
VERTEX
  8
3200LEVEL
 62
13
 10
3421.973
 20
-4560.315
 30
2027.000
 70
    32
  0
VERTEX
  8
3200LEVEL
 62
13
 10
3420.910
 20
-4561.891
 30
2027.000
 70
    32
  0
VERTEX
  8
3200LEVEL
 62
13
 10
3419.688
 20
-4564.626
 30
2027.000
 70
    32
  0
VERTEX
  8
3200LEVEL
 62
13
 10
3420.889
 20
-4568.463
 30
2027.000
 70
    32
  0
VERTEX
  8
3200LEVEL
 62
13
 10
3422.138
 20
-4571.242
 30
2027.000
 70
    32
  0
VERTEX
  8
3200LEVEL
 62
13
 10
3422.196
 20
-4573.824
 30
2027.000
 70
    32
  0
VERTEX
  8
3200LEVEL
 62
13
 10
3423.161
 20
-4577.403
 30
2027.000
 70
    32
  0
VERTEX
  8
3200LEVEL
 62
13
 10
3423.806
 20
-4580.260
 30
2027.000
 70
    32
  0
VERTEX
  8
3200LEVEL
 62
13
 10
3424.416
 20
-4582.337
 30
2027.000
 70
    32
  0
VERTEX
  8
3200LEVEL
 62
13
 10
3423.810
 20
-4583.228
 30
2027.000
 70
    32
  0
VERTEX
  8
3200LEVEL
 62
13
 10
3421.895
 20
-4582.609
 30
2027.000
 70
    32
  0
VERTEX
  8
3200LEVEL
 62
13
 10
3420.981
 20
-4582.496
 30
2027.000
 70
    32
  0
VERTEX
  8
3200LEVEL
 62
13
 10
3420.207
 20
-4583.203
 30
2027.000
 70
    32
  0
VERTEX
  8
3200LEVEL
 62
13
 10
3418.640
 20
-4581.929
 30
2027.000
 70
    32
  0
VERTEX
  8
3200LEVEL
 62
13
 10
3417.823
 20
-4581.255
 30
2027.000
 70
    32
  0
VERTEX
  8
3200LEVEL
 62
13
 10
3415.558
 20
-4579.807
 30
2027.000
 70
    32
  0
VERTEX
  8
3200LEVEL
 62
13
 10
3413.684
 20
-4577.529
 30
2027.000
 70
    32
  0
VERTEX
  8
3200LEVEL
 62
13
 10
3412.328
 20
-4575.523
 30
2027.000
 70
    32
  0
VERTEX
  8
3200LEVEL
 62
13
 10
3409.324
 20
-4571.709
 30
2027.000
 70
    32
  0
VERTEX
  8
3200LEVEL
 62
13
 10
3406.048
 20
-4569.967
 30
2027.000
 70
    32
  0
VERTEX
  8
3200LEVEL
 62
13
 10
3404.203
 20
-4569.351
 30
2027.000
 70
    32
  0
VERTEX
  8
3200LEVEL
 62
13
 10
3403.204
 20
-4570.330
 30
2027.000
 70
    32
  0
VERTEX
  8
3200LEVEL
 62
13
 10
3403.754
 20
-4572.193
 30
2027.000
 70
    32
  0
VERTEX
  8
3200LEVEL
 62
13
 10
3404.172
 20
-4573.838
 30
2027.000
 70
    32
  0
VERTEX
  8
3200LEVEL
 62
13
 10
3403.590
 20
-4574.977
 30
2027.000
 70
    32
  0
VERTEX
  8
3200LEVEL
 62
13
 10
3403.312
 20
-4575.636
 30
2027.000
 70
    32
  0
VERTEX
  8
3200LEVEL
 62
13
 10
3402.678
 20
-4576.348
 30
2027.000
 70
    32
  0
VERTEX
  8
3200LEVEL
 62
13
 10
3402.669
 20
-4577.302
 30
2027.000
 70
    32
  0
VERTEX
  8
3200LEVEL
 62
13
 10
3402.241
 20
-4578.166
 30
2027.000
 70
    32
  0
VERTEX
  8
3200LEVEL
 62
13
 10
3401.518
 20
-4577.744
 30
2027.000
 70
    32
  0
VERTEX
  8
3200LEVEL
 62
13
 10
3399.528
 20
-4576.450
 30
2027.000
 70
    32
  0
VERTEX
  8
3200LEVEL
 62
13
 10
3398.380
 20
-4576.821
 30
2027.000
 70
    32
  0
VERTEX
  8
3200LEVEL
 62
13
 10
3397.978
 20
-4577.120
 30
2027.000
 70
    32
  0
VERTEX
  8
3200LEVEL
 62
13
 10
3396.685
 20
-4577.555
 30
2027.000
 70
    32
  0
VERTEX
  8
3200LEVEL
 62
13
 10
3394.903
 20
-4575.600
 30
2027.000
 70
    32
  0
VERTEX
  8
3200LEVEL
 62
13
 10
3393.738
 20
-4573.284
 30
2027.000
 70
    32
  0
VERTEX
  8
3200LEVEL
 62
13
 10
3392.110
 20
-4568.756
 30
2027.000
 70
    32
  0
VERTEX
  8
3200LEVEL
 62
13
 10
3390.448
 20
-4564.191
 30
2027.000
 70
    32
  0
VERTEX
  8
3200LEVEL
 62
13
 10
3388.246
 20
-4562.146
 30
2027.000
 70
    32
  0
VERTEX
  8
3200LEVEL
 62
13
 10
3386.614
 20
-4562.282
 30
2027.000
 70
    32
  0
VERTEX
  8
3200LEVEL
 62
13
 10
3384.132
 20
-4564.747
 30
2027.000
 70
    32
  0
VERTEX
  8
3200LEVEL
 62
13
 10
3382.072
 20
-4568.044
 30
2027.000
 70
    32
  0
VERTEX
  8
3200LEVEL
 62
13
 10
3378.508
 20
-4572.508
 30
2027.000
 70
    32
  0
VERTEX
  8
3200LEVEL
 62
13
 10
3376.606
 20
-4571.608
 30
2027.000
 70
    32
  0
VERTEX
  8
3200LEVEL
 62
13
 10
3375.630
 20
-4569.796
 30
2027.000
 70
    32
  0
VERTEX
  8
3200LEVEL
 62
13
 10
3373.971
 20
-4569.754
 30
2027.000
 70
    32
  0
VERTEX
  8
3200LEVEL
 62
13
 10
3372.238
 20
-4572.077
 30
2027.000
 70
    32
  0
VERTEX
  8
3200LEVEL
 62
13
 10
3369.815
 20
-4576.311
 30
2027.000
 70
    32
  0
VERTEX
  8
3200LEVEL
 62
13
 10
3368.206
 20
-4578.251
 30
2027.000
 70
    32
  0
VERTEX
  8
3200LEVEL
 62
13
 10
3367.003
 20
-4577.524
 30
2027.000
 70
    32
  0
VERTEX
  8
3200LEVEL
 62
13
 10
3365.367
 20
-4576.989
 30
2027.000
 70
    32
  0
VERTEX
  8
3200LEVEL
 62
13
 10
3365.516
 20
-4578.339
 30
2027.000
 70
    32
  0
VERTEX
  8
3200LEVEL
 62
13
 10
3364.189
 20
-4580.291
 30
2027.000
 70
    32
  0
VERTEX
  8
3200LEVEL
 62
13
 10
3362.003
 20
-4583.229
 30
2027.000
 70
    32
  0
VERTEX
  8
3200LEVEL
 62
13
 10
3360.826
 20
-4586.532
 30
2027.000
 70
    32
  0
VERTEX
  8
3200LEVEL
 62
13
 10
3360.571
 20
-4589.736
 30
2027.000
 70
    32
  0
VERTEX
  8
3200LEVEL
 62
13
 10
3360.027
 20
-4592.326
 30
2027.000
 70
    32
  0
VERTEX
  8
3200LEVEL
 62
13
 10
3359.131
 20
-4592.602
 30
2027.000
 70
    32
  0
VERTEX
  8
3200LEVEL
 62
13
 10
3357.601
 20
-4591.295
 30
2027.000
 70
    32
  0
VERTEX
  8
3200LEVEL
 62
13
 10
3356.232
 20
-4589.570
 30
2027.000
 70
    32
  0
VERTEX
  8
3200LEVEL
 62
13
 10
3355.537
 20
-4589.326
 30
2027.000
 70
    32
  0
VERTEX
  8
3200LEVEL
 62
13
 10
3354.165
 20
-4590.712
 30
2027.000
 70
    32
  0
VERTEX
  8
3200LEVEL
 62
13
 10
3352.248
 20
-4593.203
 30
2027.000
 70
    32
  0
VERTEX
  8
3200LEVEL
 62
13
 10
3349.811
 20
-4599.274
 30
2027.000
 70
    32
  0
VERTEX
  8
3200LEVEL
 62
13
 10
3348.390
 20
-4601.717
 30
2027.000
 70
    32
  0
VERTEX
  8
3200LEVEL
 62
13
 10
3345.338
 20
-4604.297
 30
2027.000
 70
    32
  0
VERTEX
  8
3200LEVEL
 62
13
 10
3341.151
 20
-4604.668
 30
2027.000
 70
    32
  0
VERTEX
  8
3200LEVEL
 62
13
 10
3339.379
 20
-4605.541
 30
2027.000
 70
    32
  0
VERTEX
  8
3200LEVEL
 62
13
 10
3339.418
 20
-4606.991
 30
2027.000
 70
    32
  0
VERTEX
  8
3200LEVEL
 62
13
 10
3340.955
 20
-4608.900
 30
2027.000
 70
    32
  0
VERTEX
  8
3200LEVEL
 62
13
 10
3343.019
 20
-4610.868
 30
2027.000
 70
    32
  0
VERTEX
  8
3200LEVEL
 62
13
 10
3346.966
 20
-4614.161
 30
2027.000
 70
    32
  0
VERTEX
  8
3200LEVEL
 62
13
 10
3350.609
 20
-4616.379
 30
2027.000
 70
    32
  0
VERTEX
  8
3200LEVEL
 62
13
 10
3354.042
 20
-4619.330
 30
2027.000
 70
    32
  0
VERTEX
  8
3200LEVEL
 62
13
 10
3355.632
 20
-4620.852
 30
2027.000
 70
    32
  0
VERTEX
  8
3200LEVEL
 62
13
 10
3357.183
 20
-4620.182
 30
2027.000
 70
    32
  0
VERTEX
  8
3200LEVEL
 62
13
 10
3357.600
 20
-4618.046
 30
2027.000
 70
    32
  0
VERTEX
  8
3200LEVEL
 62
13
 10
3357.878
 20
-4615.090
 30
2027.000
 70
    32
  0
VERTEX
  8
3200LEVEL
 62
13
 10
3357.810
 20
-4611.977
 30
2027.000
 70
    32
  0
VERTEX
  8
3200LEVEL
 62
13
 10
3358.540
 20
-4607.664
 30
2027.000
 70
    32
  0
VERTEX
  8
3200LEVEL
 62
13
 10
3359.682
 20
-4608.177
 30
2027.000
 70
    32
  0
VERTEX
  8
3200LEVEL
 62
13
 10
3359.960
 20
-4609.815
 30
2027.000
 70
    32
  0
VERTEX
  8
3200LEVEL
 62
13
 10
3360.325
 20
-4611.846
 30
2027.000
 70
    32
  0
VERTEX
  8
3200LEVEL
 62
13
 10
3361.026
 20
-4613.504
 30
2027.000
 70
    32
  0
VERTEX
  8
3200LEVEL
 62
13
 10
3361.370
 20
-4614.474
 30
2027.000
 70
    32
  0
VERTEX
  8
3200LEVEL
 62
13
 10
3363.440
 20
-4613.263
 30
2027.000
 70
    32
  0
VERTEX
  8
3200LEVEL
 62
13
 10
3364.266
 20
-4610.686
 30
2027.000
 70
    32
  0
VERTEX
  8
3200LEVEL
 62
13
 10
3364.469
 20
-4607.055
 30
2027.000
 70
    32
  0
VERTEX
  8
3200LEVEL
 62
13
 10
3364.529
 20
-4603.489
 30
2027.000
 70
    32
  0
VERTEX
  8
3200LEVEL
 62
13
 10
3365.254
 20
-4600.802
 30
2027.000
 70
    32
  0
VERTEX
  8
3200LEVEL
 62
13
 10
3366.551
 20
-4598.741
 30
2027.000
 70
    32
  0
VERTEX
  8
3200LEVEL
 62
13
 10
3369.259
 20
-4597.488
 30
2027.000
 70
    32
  0
VERTEX
  8
3200LEVEL
 62
13
 10
3370.960
 20
-4596.613
 30
2027.000
 70
    32
  0
VERTEX
  8
3200LEVEL
 62
13
 10
3373.345
 20
-4593.967
 30
2027.000
 70
    32
  0
VERTEX
  8
3200LEVEL
 62
13
 10
3374.511
 20
-4592.431
 30
2027.000
 70
    32
  0
VERTEX
  8
3200LEVEL
 62
13
 10
3376.615
 20
-4591.256
 30
2027.000
 70
    32
  0
VERTEX
  8
3200LEVEL
 62
13
 10
3378.257
 20
-4590.908
 30
2027.000
 70
    32
  0
VERTEX
  8
3200LEVEL
 62
13
 10
3380.140
 20
-4590.677
 30
2027.000
 70
    32
  0
VERTEX
  8
3200LEVEL
 62
13
 10
3381.153
 20
-4589.417
 30
2027.000
 70
    32
  0
VERTEX
  8
3200LEVEL
 62
13
 10
3381.628
 20
-4588.308
 30
2027.000
 70
    32
  0
VERTEX
  8
3200LEVEL
 62
13
 10
3381.850
 20
-4588.106
 30
2027.000
 70
    32
  0
VERTEX
  8
3200LEVEL
 62
13
 10
3383.002
 20
-4588.407
 30
2027.000
 70
    32
  0
VERTEX
  8
3200LEVEL
 62
13
 10
3383.595
 20
-4587.798
 30
2027.000
 70
    32
  0
VERTEX
  8
3200LEVEL
 62
13
 10
3384.246
 20
-4586.733
 30
2027.000
 70
    32
  0
VERTEX
  8
3200LEVEL
 62
13
 10
3384.893
 20
-4586.480
 30
2027.000
 70
    32
  0
VERTEX
  8
3200LEVEL
 62
13
 10
3385.654
 20
-4587.611
 30
2027.000
 70
    32
  0
VERTEX
  8
3200LEVEL
 62
13
 10
3385.639
 20
-4589.448
 30
2027.000
 70
    32
  0
VERTEX
  8
3200LEVEL
 62
13
 10
3385.732
 20
-4591.254
 30
2027.000
 70
    32
  0
VERTEX
  8
3200LEVEL
 62
13
 10
3386.328
 20
-4592.130
 30
2027.000
 70
    32
  0
VERTEX
  8
3200LEVEL
 62
13
 10
3387.531
 20
-4592.857
 30
2027.000
 70
    32
  0
VERTEX
  8
3200LEVEL
 62
13
 10
3387.640
 20
-4591.272
 30
2027.000
 70
    32
  0
VERTEX
  8
3200LEVEL
 62
13
 10
3387.755
 20
-4589.546
 30
2027.000
 70
    32
  0
VERTEX
  8
3200LEVEL
 62
13
 10
3388.136
 20
-4588.185
 30
2027.000
 70
    32
  0
VERTEX
  8
3200LEVEL
 62
13
 10
3388.790
 20
-4587.791
 30
2027.000
 70
    32
  0
VERTEX
  8
3200LEVEL
 62
13
 10
3389.719
 20
-4589.106
 30
2027.000
 70
    32
  0
VERTEX
  8
3200LEVEL
 62
13
 10
3390.934
 20
-4591.106
 30
2027.000
 70
    32
  0
VERTEX
  8
3200LEVEL
 62
13
 10
3392.470
 20
-4592.273
 30
2027.000
 70
    32
  0
VERTEX
  8
3200LEVEL
 62
13
 10
3393.741
 20
-4593.074
 30
2027.000
 70
    32
  0
VERTEX
  8
3200LEVEL
 62
13
 10
3396.119
 20
-4593.608
 30
2027.000
 70
    32
  0
VERTEX
  8
3200LEVEL
 62
13
 10
3398.088
 20
-4592.286
 30
2027.000
 70
    32
  0
VERTEX
  8
3200LEVEL
 62
13
 10
3399.122
 20
-4592.086
 30
2027.000
 70
    32
  0
VERTEX
  8
3200LEVEL
 62
13
 10
3400.232
 20
-4593.304
 30
2027.000
 70
    32
  0
VERTEX
  8
3200LEVEL
 62
13
 10
3400.852
 20
-4594.428
 30
2027.000
 70
    32
  0
VERTEX
  8
3200LEVEL
 62
13
 10
3402.684
 20
-4596.543
 30
2027.000
 70
    32
  0
SEQEND
  8
3200LEVEL
  0
POLYLINE
  8
3200LEVEL
 62
7
 66
     1
 70
     9
  0
VERTEX
  8
3200LEVEL
 62
7
 10
3342.790
 20
-4670.791
 30
2027.000
 70
    32
  0
VERTEX
  8
3200LEVEL
 62
7
 10
3338.918
 20
-4671.213
 30
2027.000
 70
    32
  0
VERTEX
  8
3200LEVEL
 62
7
 10
3336.843
 20
-4671.011
 30
2027.000
 70
    32
  0
VERTEX
  8
3200LEVEL
 62
7
 10
3332.376
 20
-4668.260
 30
2027.000
 70
    32
  0
VERTEX
  8
3200LEVEL
 62
7
 10
3326.115
 20
-4662.280
 30
2027.000
 70
    32
  0
VERTEX
  8
3200LEVEL
 62
7
 10
3322.315
 20
-4658.111
 30
2027.000
 70
    32
  0
VERTEX
  8
3200LEVEL
 62
7
 10
3316.342
 20
-4651.262
 30
2027.000
 70
    32
  0
VERTEX
  8
3200LEVEL
 62
7
 10
3311.753
 20
-4645.042
 30
2027.000
 70
    32
  0
VERTEX
  8
3200LEVEL
 62
7
 10
3309.392
 20
-4641.858
 30
2027.000
 70
    32
  0
VERTEX
  8
3200LEVEL
 62
7
 10
3305.755
 20
-4634.163
 30
2027.000
 70
    32
  0
VERTEX
  8
3200LEVEL
 62
7
 10
3304.741
 20
-4629.345
 30
2027.000
 70
    32
  0
VERTEX
  8
3200LEVEL
 62
7
 10
3304.301
 20
-4622.045
 30
2027.000
 70
    32
  0
VERTEX
  8
3200LEVEL
 62
7
 10
3303.713
 20
-4616.435
 30
2027.000
 70
    32
  0
VERTEX
  8
3200LEVEL
 62
7
 10
3303.695
 20
-4613.006
 30
2027.000
 70
    32
  0
VERTEX
  8
3200LEVEL
 62
7
 10
3303.882
 20
-4612.025
 30
2027.000
 70
    32
  0
VERTEX
  8
3200LEVEL
 62
7
 10
3304.613
 20
-4611.494
 30
2027.000
 70
    32
  0
VERTEX
  8
3200LEVEL
 62
7
 10
3305.565
 20
-4612.315
 30
2027.000
 70
    32
  0
VERTEX
  8
3200LEVEL
 62
7
 10
3305.805
 20
-4616.284
 30
2027.000
 70
    32
  0
VERTEX
  8
3200LEVEL
 62
7
 10
3306.080
 20
-4621.032
 30
2027.000
 70
    32
  0
VERTEX
  8
3200LEVEL
 62
7
 10
3306.851
 20
-4624.990
 30
2027.000
 70
    32
  0
VERTEX
  8
3200LEVEL
 62
7
 10
3308.486
 20
-4632.416
 30
2027.000
 70
    32
  0
VERTEX
  8
3200LEVEL
 62
7
 10
3310.501
 20
-4637.740
 30
2027.000
 70
    32
  0
VERTEX
  8
3200LEVEL
 62
7
 10
3314.012
 20
-4644.334
 30
2027.000
 70
    32
  0
VERTEX
  8
3200LEVEL
 62
7
 10
3317.564
 20
-4648.527
 30
2027.000
 70
    32
  0
VERTEX
  8
3200LEVEL
 62
7
 10
3321.176
 20
-4652.192
 30
2027.000
 70
    32
  0
VERTEX
  8
3200LEVEL
 62
7
 10
3325.709
 20
-4657.314
 30
2027.000
 70
    32
  0
VERTEX
  8
3200LEVEL
 62
7
 10
3329.500
 20
-4661.695
 30
2027.000
 70
    32
  0
VERTEX
  8
3200LEVEL
 62
7
 10
3332.479
 20
-4664.519
 30
2027.000
 70
    32
  0
VERTEX
  8
3200LEVEL
 62
7
 10
3337.615
 20
-4668.078
 30
2027.000
 70
    32
  0
VERTEX
  8
3200LEVEL
 62
7
 10
3340.182
 20
-4669.116
 30
2027.000
 70
    32
  0
VERTEX
  8
3200LEVEL
 62
7
 10
3341.976
 20
-4670.047
 30
2027.000
 70
    32
  0
SEQEND
  8
3200LEVEL
  0
POLYLINE
  8
3200LEVEL
 62
7
 66
     1
 70
     8
  0
VERTEX
  8
3200LEVEL
 62
7
 10
3400.775
 20
-5064.775
 30
2027.000
 70
    32
  0
VERTEX
  8
3200LEVEL
 62
7
 10
3400.738
 20
-5064.097
 30
2027.000
 70
    32
  0
VERTEX
  8
3200LEVEL
 62
7
 10
3400.377
 20
-5063.450
 30
2027.000
 70
    32
  0
VERTEX
  8
3200LEVEL
 62
7
 10
3399.270
 20
-5059.122
 30
2027.000
 70
    32
  0
VERTEX
  8
3200LEVEL
 62
7
 10
3398.773
 20
-5056.131
 30
2027.000
 70
    32
  0
VERTEX
  8
3200LEVEL
 62
7
 10
3400.124
 20
-5054.427
 30
2027.000
 70
    32
  0
VERTEX
  8
3200LEVEL
 62
7
 10
3403.852
 20
-5054.811
 30
2027.000
 70
    32
  0
VERTEX
  8
3200LEVEL
 62
7
 10
3407.466
 20
-5055.367
 30
2027.000
 70
    32
  0
VERTEX
  8
3200LEVEL
 62
7
 10
3411.273
 20
-5054.801
 30
2027.000
 70
    32
  0
VERTEX
  8
3200LEVEL
 62
7
 10
3411.281
 20
-5053.105
 30
2027.000
 70
    32
  0
VERTEX
  8
3200LEVEL
 62
7
 10
3407.285
 20
-5047.832
 30
2027.000
 70
    32
  0
VERTEX
  8
3200LEVEL
 62
7
 10
3402.532
 20
-5042.099
 30
2027.000
 70
    32
  0
VERTEX
  8
3200LEVEL
 62
7
 10
3394.003
 20
-5034.743
 30
2027.000
 70
    32
  0
VERTEX
  8
3200LEVEL
 62
7
 10
3390.953
 20
-5031.916
 30
2027.000
 70
    32
  0
VERTEX
  8
3200LEVEL
 62
7
 10
3389.413
 20
-5030.077
 30
2027.000
 70
    32
  0
VERTEX
  8
3200LEVEL
 62
7
 10
3387.751
 20
-5027.810
 30
2027.000
 70
    32
  0
SEQEND
  8
3200LEVEL
  0
POLYLINE
  8
3200LEVEL
 62
7
 66
     1
 70
     8
  0
VERTEX
  8
3200LEVEL
 62
7
 10
3381.872
 20
-5021.212
 30
2027.000
 70
    32
  0
VERTEX
  8
3200LEVEL
 62
7
 10
3380.855
 20
-5018.762
 30
2027.000
 70
    32
  0
VERTEX
  8
3200LEVEL
 62
7
 10
3378.592
 20
-5016.501
 30
2027.000
 70
    32
  0
VERTEX
  8
3200LEVEL
 62
7
 10
3377.597
 20
-5013.558
 30
2027.000
 70
    32
  0
VERTEX
  8
3200LEVEL
 62
7
 10
3377.387
 20
-5011.993
 30
2027.000
 70
    32
  0
VERTEX
  8
3200LEVEL
 62
7
 10
3381.275
 20
-5011.961
 30
2027.000
 70
    32
  0
VERTEX
  8
3200LEVEL
 62
7
 10
3384.526
 20
-5011.970
 30
2027.000
 70
    32
  0
VERTEX
  8
3200LEVEL
 62
7
 10
3386.262
 20
-5009.577
 30
2027.000
 70
    32
  0
VERTEX
  8
3200LEVEL
 62
7
 10
3380.504
 20
-5000.370
 30
2027.000
 70
    32
  0
VERTEX
  8
3200LEVEL
 62
7
 10
3372.574
 20
-4991.521
 30
2027.000
 70
    32
  0
VERTEX
  8
3200LEVEL
 62
7
 10
3365.614
 20
-4984.626
 30
2027.000
 70
    32
  0
VERTEX
  8
3200LEVEL
 62
7
 10
3359.055
 20
-4978.987
 30
2027.000
 70
    32
  0
VERTEX
  8
3200LEVEL
 62
7
 10
3354.126
 20
-4977.062
 30
2027.000
 70
    32
  0
VERTEX
  8
3200LEVEL
 62
7
 10
3343.357
 20
-4972.288
 30
2027.000
 70
    32
  0
VERTEX
  8
3200LEVEL
 62
7
 10
3336.805
 20
-4969.546
 30
2027.000
 70
    32
  0
VERTEX
  8
3200LEVEL
 62
7
 10
3329.670
 20
-4965.647
 30
2027.000
 70
    32
  0
VERTEX
  8
3200LEVEL
 62
7
 10
3326.148
 20
-4963.858
 30
2027.000
 70
    32
  0
VERTEX
  8
3200LEVEL
 62
7
 10
3318.190
 20
-4959.426
 30
2027.000
 70
    32
  0
VERTEX
  8
3200LEVEL
 62
7
 10
3314.208
 20
-4956.909
 30
2027.000
 70
    32
  0
VERTEX
  8
3200LEVEL
 62
7
 10
3310.456
 20
-4953.979
 30
2027.000
 70
    32
  0
VERTEX
  8
3200LEVEL
 62
7
 10
3309.050
 20
-4952.288
 30
2027.000
 70
    32
  0
VERTEX
  8
3200LEVEL
 62
7
 10
3305.143
 20
-4948.150
 30
2027.000
 70
    32
  0
VERTEX
  8
3200LEVEL
 62
7
 10
3302.777
 20
-4944.294
 30
2027.000
 70
    32
  0
VERTEX
  8
3200LEVEL
 62
7
 10
3298.542
 20
-4938.833
 30
2027.000
 70
    32
  0
VERTEX
  8
3200LEVEL
 62
7
 10
3293.803
 20
-4933.560
 30
2027.000
 70
    32
  0
VERTEX
  8
3200LEVEL
 62
7
 10
3289.622
 20
-4928.454
 30
2027.000
 70
    32
  0
VERTEX
  8
3200LEVEL
 62
7
 10
3283.572
 20
-4921.743
 30
2027.000
 70
    32
  0
VERTEX
  8
3200LEVEL
 62
7
 10
3278.083
 20
-4915.128
 30
2027.000
 70
    32
  0
VERTEX
  8
3200LEVEL
 62
7
 10
3273.396
 20
-4908.727
 30
2027.000
 70
    32
  0
VERTEX
  8
3200LEVEL
 62
7
 10
3269.952
 20
-4904.503
 30
2027.000
 70
    32
  0
VERTEX
  8
3200LEVEL
 62
7
 10
3267.954
 20
-4901.867
 30
2027.000
 70
    32
  0
VERTEX
  8
3200LEVEL
 62
7
 10
3263.908
 20
-4897.651
 30
2027.000
 70
    32
  0
VERTEX
  8
3200LEVEL
 62
7
 10
3260.745
 20
-4892.698
 30
2027.000
 70
    32
  0
VERTEX
  8
3200LEVEL
 62
7
 10
3258.188
 20
-4889.152
 30
2027.000
 70
    32
  0
VERTEX
  8
3200LEVEL
 62
7
 10
3253.657
 20
-4883.218
 30
2027.000
 70
    32
  0
VERTEX
  8
3200LEVEL
 62
7
 10
3247.110
 20
-4874.257
 30
2027.000
 70
    32
  0
VERTEX
  8
3200LEVEL
 62
7
 10
3242.298
 20
-4866.754
 30
2027.000
 70
    32
  0
VERTEX
  8
3200LEVEL
 62
7
 10
3241.234
 20
-4864.549
 30
2027.000
 70
    32
  0
VERTEX
  8
3200LEVEL
 62
7
 10
3240.140
 20
-4862.237
 30
2027.000
 70
    32
  0
VERTEX
  8
3200LEVEL
 62
7
 10
3239.670
 20
-4862.463
 30
2027.000
 70
    32
  0
VERTEX
  8
3200LEVEL
 62
7
 10
3239.902
 20
-4865.088
 30
2027.000
 70
    32
  0
VERTEX
  8
3200LEVEL
 62
7
 10
3239.475
 20
-4867.436
 30
2027.000
 70
    32
  0
VERTEX
  8
3200LEVEL
 62
7
 10
3238.714
 20
-4868.603
 30
2027.000
 70
    32
  0
VERTEX
  8
3200LEVEL
 62
7
 10
3237.538
 20
-4868.053
 30
2027.000
 70
    32
  0
VERTEX
  8
3200LEVEL
 62
7
 10
3235.362
 20
-4865.444
 30
2027.000
 70
    32
  0
VERTEX
  8
3200LEVEL
 62
7
 10
3233.390
 20
-4859.946
 30
2027.000
 70
    32
  0
VERTEX
  8
3200LEVEL
 62
7
 10
3233.354
 20
-4853.088
 30
2027.000
 70
    32
  0
VERTEX
  8
3200LEVEL
 62
7
 10
3229.495
 20
-4842.556
 30
2027.000
 70
    32
  0
VERTEX
  8
3200LEVEL
 62
7
 10
3225.906
 20
-4838.396
 30
2027.000
 70
    32
  0
VERTEX
  8
3200LEVEL
 62
7
 10
3222.611
 20
-4834.781
 30
2027.000
 70
    32
  0
VERTEX
  8
3200LEVEL
 62
7
 10
3220.094
 20
-4833.427
 30
2027.000
 70
    32
  0
VERTEX
  8
3200LEVEL
 62
7
 10
3218.703
 20
-4832.939
 30
2027.000
 70
    32
  0
VERTEX
  8
3200LEVEL
 62
7
 10
3218.132
 20
-4833.054
 30
2027.000
 70
    32
  0
VERTEX
  8
3200LEVEL
 62
7
 10
3218.159
 20
-4833.232
 30
2027.000
 70
    32
  0
VERTEX
  8
3200LEVEL
 62
7
 10
3219.117
 20
-4833.912
 30
2027.000
 70
    32
  0
VERTEX
  8
3200LEVEL
 62
7
 10
3219.410
 20
-4834.456
 30
2027.000
 70
    32
  0
VERTEX
  8
3200LEVEL
 62
7
 10
3216.965
 20
-4834.590
 30
2027.000
 70
    32
  0
VERTEX
  8
3200LEVEL
 62
7
 10
3215.283
 20
-4834.300
 30
2027.000
 70
    32
  0
VERTEX
  8
3200LEVEL
 62
7
 10
3210.270
 20
-4832.654
 30
2027.000
 70
    32
  0
VERTEX
  8
3200LEVEL
 62
7
 10
3206.852
 20
-4830.164
 30
2027.000
 70
    32
  0
VERTEX
  8
3200LEVEL
 62
7
 10
3205.729
 20
-4829.228
 30
2027.000
 70
    32
  0
VERTEX
  8
3200LEVEL
 62
7
 10
3209.370
 20
-4829.962
 30
2027.000
 70
    32
  0
VERTEX
  8
3200LEVEL
 62
7
 10
3213.941
 20
-4830.457
 30
2027.000
 70
    32
  0
VERTEX
  8
3200LEVEL
 62
7
 10
3215.989
 20
-4830.481
 30
2027.000
 70
    32
  0
VERTEX
  8
3200LEVEL
 62
7
 10
3216.697
 20
-4829.701
 30
2027.000
 70
    32
  0
VERTEX
  8
3200LEVEL
 62
7
 10
3216.650
 20
-4826.907
 30
2027.000
 70
    32
  0
VERTEX
  8
3200LEVEL
 62
7
 10
3216.766
 20
-4823.626
 30
2027.000
 70
    32
  0
VERTEX
  8
3200LEVEL
 62
7
 10
3216.894
 20
-4820.875
 30
2027.000
 70
    32
  0
VERTEX
  8
3200LEVEL
 62
7
 10
3216.255
 20
-4820.174
 30
2027.000
 70
    32
  0
VERTEX
  8
3200LEVEL
 62
7
 10
3214.679
 20
-4819.854
 30
2027.000
 70
    32
  0
VERTEX
  8
3200LEVEL
 62
7
 10
3213.987
 20
-4819.539
 30
2027.000
 70
    32
  0
VERTEX
  8
3200LEVEL
 62
7
 10
3213.563
 20
-4818.778
 30
2027.000
 70
    32
  0
VERTEX
  8
3200LEVEL
 62
7
 10
3212.870
 20
-4817.721
 30
2027.000
 70
    32
  0
VERTEX
  8
3200LEVEL
 62
7
 10
3212.648
 20
-4817.922
 30
2027.000
 70
    32
  0
VERTEX
  8
3200LEVEL
 62
7
 10
3212.479
 20
-4819.293
 30
2027.000
 70
    32
  0
VERTEX
  8
3200LEVEL
 62
7
 10
3212.615
 20
-4820.925
 30
2027.000
 70
    32
  0
VERTEX
  8
3200LEVEL
 62
7
 10
3212.174
 20
-4822.070
 30
2027.000
 70
    32
  0
VERTEX
  8
3200LEVEL
 62
7
 10
3211.640
 20
-4822.152
 30
2027.000
 70
    32
  0
VERTEX
  8
3200LEVEL
 62
7
 10
3211.339
 20
-4821.007
 30
2027.000
 70
    32
  0
VERTEX
  8
3200LEVEL
 62
7
 10
3210.071
 20
-4816.354
 30
2027.000
 70
    32
  0
VERTEX
  8
3200LEVEL
 62
7
 10
3208.832
 20
-4814.106
 30
2027.000
 70
    32
  0
VERTEX
  8
3200LEVEL
 62
7
 10
3207.876
 20
-4812.613
 30
2027.000
 70
    32
  0
VERTEX
  8
3200LEVEL
 62
7
 10
3208.100
 20
-4811.598
 30
2027.000
 70
    32
  0
VERTEX
  8
3200LEVEL
 62
7
 10
3208.959
 20
-4811.355
 30
2027.000
 70
    32
  0
VERTEX
  8
3200LEVEL
 62
7
 10
3211.426
 20
-4813.025
 30
2027.000
 70
    32
  0
VERTEX
  8
3200LEVEL
 62
7
 10
3213.578
 20
-4814.644
 30
2027.000
 70
    32
  0
VERTEX
  8
3200LEVEL
 62
7
 10
3215.142
 20
-4816.730
 30
2027.000
 70
    32
  0
VERTEX
  8
3200LEVEL
 62
7
 10
3217.566
 20
-4819.316
 30
2027.000
 70
    32
  0
VERTEX
  8
3200LEVEL
 62
7
 10
3219.935
 20
-4822.359
 30
2027.000
 70
    32
  0
VERTEX
  8
3200LEVEL
 62
7
 10
3221.237
 20
-4824.752
 30
2027.000
 70
    32
  0
VERTEX
  8
3200LEVEL
 62
7
 10
3222.440
 20
-4827.776
 30
2027.000
 70
    32
  0
VERTEX
  8
3200LEVEL
 62
7
 10
3224.220
 20
-4830.544
 30
2027.000
 70
    32
  0
VERTEX
  8
3200LEVEL
 62
7
 10
3227.555
 20
-4833.313
 30
2027.000
 70
    32
  0
VERTEX
  8
3200LEVEL
 62
7
 10
3233.442
 20
-4838.215
 30
2027.000
 70
    32
  0
VERTEX
  8
3200LEVEL
 62
7
 10
3237.763
 20
-4842.585
 30
2027.000
 70
    32
  0
VERTEX
  8
3200LEVEL
 62
7
 10
3240.571
 20
-4846.037
 30
2027.000
 70
    32
  0
VERTEX
  8
3200LEVEL
 62
7
 10
3243.851
 20
-4850.005
 30
2027.000
 70
    32
  0
VERTEX
  8
3200LEVEL
 62
7
 10
3246.272
 20
-4852.662
 30
2027.000
 70
    32
  0
VERTEX
  8
3200LEVEL
 62
7
 10
3247.302
 20
-4854.087
 30
2027.000
 70
    32
  0
VERTEX
  8
3200LEVEL
 62
7
 10
3248.952
 20
-4855.083
 30
2027.000
 70
    32
  0
SEQEND
  8
3200LEVEL
  0
POLYLINE
  8
3200LEVEL
 62
7
 66
     1
 70
     8
  0
VERTEX
  8
3200LEVEL
 62
7
 10
3279.803
 20
-4910.790
 30
2027.000
 70
    32
  0
VERTEX
  8
3200LEVEL
 62
7
 10
3280.439
 20
-4912.855
 30
2027.000
 70
    32
  0
VERTEX
  8
3200LEVEL
 62
7
 10
3281.366
 20
-4914.432
 30
2027.000
 70
    32
  0
VERTEX
  8
3200LEVEL
 62
7
 10
3283.981
 20
-4915.966
 30
2027.000
 70
    32
  0
VERTEX
  8
3200LEVEL
 62
7
 10
3286.772
 20
-4916.732
 30
2027.000
 70
    32
  0
VERTEX
  8
3200LEVEL
 62
7
 10
3290.190
 20
-4918.480
 30
2027.000
 70
    32
  0
VERTEX
  8
3200LEVEL
 62
7
 10
3293.474
 20
-4920.823
 30
2027.000
 70
    32
  0
VERTEX
  8
3200LEVEL
 62
7
 10
3295.608
 20
-4922.053
 30
2027.000
 70
    32
  0
VERTEX
  8
3200LEVEL
 62
7
 10
3296.278
 20
-4921.306
 30
2027.000
 70
    32
  0
VERTEX
  8
3200LEVEL
 62
7
 10
3295.352
 20
-4919.178
 30
2027.000
 70
    32
  0
VERTEX
  8
3200LEVEL
 62
7
 10
3293.185
 20
-4915.615
 30
2027.000
 70
    32
  0
VERTEX
  8
3200LEVEL
 62
7
 10
3292.366
 20
-4913.457
 30
2027.000
 70
    32
  0
VERTEX
  8
3200LEVEL
 62
7
 10
3290.706
 20
-4910.892
 30
2027.000
 70
    32
  0
VERTEX
  8
3200LEVEL
 62
7
 10
3289.929
 20
-4910.508
 30
2027.000
 70
    32
  0
SEQEND
  8
3200LEVEL
  0
POLYLINE
  8
3200LEVEL
 62
7
 66
     1
 70
     8
  0
VERTEX
  8
3200LEVEL
 62
7
 10
3255.834
 20
-4815.575
 30
2027.000
 70
    32
  0
VERTEX
  8
3200LEVEL
 62
7
 10
3256.019
 20
-4814.061
 30
2027.000
 70
    32
  0
VERTEX
  8
3200LEVEL
 62
7
 10
3255.932
 20
-4813.459
 30
2027.000
 70
    32
  0
VERTEX
  8
3200LEVEL
 62
7
 10
3256.441
 20
-4810.090
 30
2027.000
 70
    32
  0
VERTEX
  8
3200LEVEL
 62
7
 10
3257.384
 20
-4809.569
 30
2027.000
 70
    32
  0
VERTEX
  8
3200LEVEL
 62
7
 10
3258.439
 20
-4809.688
 30
2027.000
 70
    32
  0
VERTEX
  8
3200LEVEL
 62
7
 10
3260.253
 20
-4807.899
 30
2027.000
 70
    32
  0
VERTEX
  8
3200LEVEL
 62
7
 10
3260.696
 20
-4807.496
 30
2027.000
 70
    32
  0
VERTEX
  8
3200LEVEL
 62
7
 10
3262.664
 20
-4810.025
 30
2027.000
 70
    32
  0
VERTEX
  8
3200LEVEL
 62
7
 10
3266.003
 20
-4815.763
 30
2027.000
 70
    32
  0
VERTEX
  8
3200LEVEL
 62
7
 10
3269.978
 20
-4819.976
 30
2027.000
 70
    32
  0
VERTEX
  8
3200LEVEL
 62
7
 10
3272.324
 20
-4821.957
 30
2027.000
 70
    32
  0
VERTEX
  8
3200LEVEL
 62
7
 10
3273.598
 20
-4822.688
 30
2027.000
 70
    32
  0
VERTEX
  8
3200LEVEL
 62
7
 10
3275.518
 20
-4821.681
 30
2027.000
 70
    32
  0
VERTEX
  8
3200LEVEL
 62
7
 10
3276.086
 20
-4820.082
 30
2027.000
 70
    32
  0
VERTEX
  8
3200LEVEL
 62
7
 10
3277.095
 20
-4818.149
 30
2027.000
 70
    32
  0
VERTEX
  8
3200LEVEL
 62
7
 10
3278.286
 20
-4817.604
 30
2027.000
 70
    32
  0
VERTEX
  8
3200LEVEL
 62
7
 10
3280.321
 20
-4817.910
 30
2027.000
 70
    32
  0
VERTEX
  8
3200LEVEL
 62
7
 10
3281.373
 20
-4818.100
 30
2027.000
 70
    32
  0
VERTEX
  8
3200LEVEL
 62
7
 10
3282.808
 20
-4819.156
 30
2027.000
 70
    32
  0
VERTEX
  8
3200LEVEL
 62
7
 10
3283.217
 20
-4818.716
 30
2027.000
 70
    32
  0
VERTEX
  8
3200LEVEL
 62
7
 10
3282.452
 20
-4816.171
 30
2027.000
 70
    32
  0
VERTEX
  8
3200LEVEL
 62
7
 10
3281.888
 20
-4811.551
 30
2027.000
 70
    32
  0
VERTEX
  8
3200LEVEL
 62
7
 10
3282.026
 20
-4807.034
 30
2027.000
 70
    32
  0
VERTEX
  8
3200LEVEL
 62
7
 10
3280.972
 20
-4802.321
 30
2027.000
 70
    32
  0
VERTEX
  8
3200LEVEL
 62
7
 10
3280.769
 20
-4800.615
 30
2027.000
 70
    32
  0
VERTEX
  8
3200LEVEL
 62
7
 10
3282.018
 20
-4800.355
 30
2027.000
 70
    32
  0
VERTEX
  8
3200LEVEL
 62
7
 10
3283.624
 20
-4801.525
 30
2027.000
 70
    32
  0
VERTEX
  8
3200LEVEL
 62
7
 10
3284.707
 20
-4802.564
 30
2027.000
 70
    32
  0
VERTEX
  8
3200LEVEL
 62
7
 10
3285.423
 20
-4800.831
 30
2027.000
 70
    32
  0
VERTEX
  8
3200LEVEL
 62
7
 10
3285.270
 20
-4798.809
 30
2027.000
 70
    32
  0
VERTEX
  8
3200LEVEL
 62
7
 10
3285.261
 20
-4797.466
 30
2027.000
 70
    32
  0
VERTEX
  8
3200LEVEL
 62
7
 10
3286.969
 20
-4798.747
 30
2027.000
 70
    32
  0
VERTEX
  8
3200LEVEL
 62
7
 10
3289.074
 20
-4801.353
 30
2027.000
 70
    32
  0
VERTEX
  8
3200LEVEL
 62
7
 10
3292.463
 20
-4806.775
 30
2027.000
 70
    32
  0
VERTEX
  8
3200LEVEL
 62
7
 10
3295.415
 20
-4814.015
 30
2027.000
 70
    32
  0
VERTEX
  8
3200LEVEL
 62
7
 10
3297.260
 20
-4820.709
 30
2027.000
 70
    32
  0
VERTEX
  8
3200LEVEL
 62
7
 10
3299.792
 20
-4827.858
 30
2027.000
 70
    32
  0
VERTEX
  8
3200LEVEL
 62
7
 10
3302.913
 20
-4834.469
 30
2027.000
 70
    32
  0
VERTEX
  8
3200LEVEL
 62
7
 10
3305.224
 20
-4837.227
 30
2027.000
 70
    32
  0
VERTEX
  8
3200LEVEL
 62
7
 10
3306.277
 20
-4835.862
 30
2027.000
 70
    32
  0
VERTEX
  8
3200LEVEL
 62
7
 10
3307.849
 20
-4828.620
 30
2027.000
 70
    32
  0
VERTEX
  8
3200LEVEL
 62
7
 10
3308.521
 20
-4821.725
 30
2027.000
 70
    32
  0
VERTEX
  8
3200LEVEL
 62
7
 10
3309.573
 20
-4814.282
 30
2027.000
 70
    32
  0
VERTEX
  8
3200LEVEL
 62
7
 10
3311.262
 20
-4812.134
 30
2027.000
 70
    32
  0
VERTEX
  8
3200LEVEL
 62
7
 10
3313.367
 20
-4811.701
 30
2027.000
 70
    32
  0
VERTEX
  8
3200LEVEL
 62
7
 10
3316.509
 20
-4813.295
 30
2027.000
 70
    32
  0
VERTEX
  8
3200LEVEL
 62
7
 10
3321.299
 20
-4816.697
 30
2027.000
 70
    32
  0
VERTEX
  8
3200LEVEL
 62
7
 10
3324.565
 20
-4817.909
 30
2027.000
 70
    32
  0
VERTEX
  8
3200LEVEL
 62
7
 10
3328.497
 20
-4819.999
 30
2027.000
 70
    32
  0
VERTEX
  8
3200LEVEL
 62
7
 10
3331.020
 20
-4821.211
 30
2027.000
 70
    32
  0
VERTEX
  8
3200LEVEL
 62
7
 10
3332.458
 20
-4821.455
 30
2027.000
 70
    32
  0
VERTEX
  8
3200LEVEL
 62
7
 10
3330.820
 20
-4817.138
 30
2027.000
 70
    32
  0
VERTEX
  8
3200LEVEL
 62
7
 10
3326.671
 20
-4810.585
 30
2027.000
 70
    32
  0
VERTEX
  8
3200LEVEL
 62
7
 10
3323.766
 20
-4807.694
 30
2027.000
 70
    32
  0
VERTEX
  8
3200LEVEL
 62
7
 10
3320.475
 20
-4803.195
 30
2027.000
 70
    32
  0
VERTEX
  8
3200LEVEL
 62
7
 10
3318.814
 20
-4798.631
 30
2027.000
 70
    32
  0
VERTEX
  8
3200LEVEL
 62
7
 10
3317.030
 20
-4795.933
 30
2027.000
 70
    32
  0
VERTEX
  8
3200LEVEL
 62
7
 10
3313.650
 20
-4791.854
 30
2027.000
 70
    32
  0
VERTEX
  8
3200LEVEL
 62
7
 10
3310.895
 20
-4788.016
 30
2027.000
 70
    32
  0
VERTEX
  8
3200LEVEL
 62
7
 10
3308.989
 20
-4784.146
 30
2027.000
 70
    32
  0
VERTEX
  8
3200LEVEL
 62
7
 10
3307.034
 20
-4781.335
 30
2027.000
 70
    32
  0
VERTEX
  8
3200LEVEL
 62
7
 10
3303.910
 20
-4777.833
 30
2027.000
 70
    32
  0
VERTEX
  8
3200LEVEL
 62
7
 10
3302.576
 20
-4774.591
 30
2027.000
 70
    32
  0
VERTEX
  8
3200LEVEL
 62
7
 10
3301.972
 20
-4772.372
 30
2027.000
 70
    32
  0
VERTEX
  8
3200LEVEL
 62
7
 10
3299.559
 20
-4768.762
 30
2027.000
 70
    32
  0
VERTEX
  8
3200LEVEL
 62
7
 10
3297.515
 20
-4767.112
 30
2027.000
 70
    32
  0
VERTEX
  8
3200LEVEL
 62
7
 10
3295.469
 20
-4763.979
 30
2027.000
 70
    32
  0
VERTEX
  8
3200LEVEL
 62
7
 10
3293.947
 20
-4760.975
 30
2027.000
 70
    32
  0
VERTEX
  8
3200LEVEL
 62
7
 10
3292.836
 20
-4758.273
 30
2027.000
 70
    32
  0
VERTEX
  8
3200LEVEL
 62
7
 10
3292.060
 20
-4755.940
 30
2027.000
 70
    32
  0
VERTEX
  8
3200LEVEL
 62
7
 10
3292.963
 20
-4755.523
 30
2027.000
 70
    32
  0
VERTEX
  8
3200LEVEL
 62
7
 10
3298.253
 20
-4761.104
 30
2027.000
 70
    32
  0
VERTEX
  8
3200LEVEL
 62
7
 10
3305.484
 20
-4767.481
 30
2027.000
 70
    32
  0
VERTEX
  8
3200LEVEL
 62
7
 10
3310.466
 20
-4771.316
 30
2027.000
 70
    32
  0
VERTEX
  8
3200LEVEL
 62
7
 10
3318.914
 20
-4778.139
 30
2027.000
 70
    32
  0
VERTEX
  8
3200LEVEL
 62
7
 10
3323.864
 20
-4782.679
 30
2027.000
 70
    32
  0
VERTEX
  8
3200LEVEL
 62
7
 10
3327.088
 20
-4785.550
 30
2027.000
 70
    32
  0
VERTEX
  8
3200LEVEL
 62
7
 10
3327.627
 20
-4784.585
 30
2027.000
 70
    32
  0
VERTEX
  8
3200LEVEL
 62
7
 10
3327.756
 20
-4780.280
 30
2027.000
 70
    32
  0
VERTEX
  8
3200LEVEL
 62
7
 10
3328.462
 20
-4778.758
 30
2027.000
 70
    32
  0
VERTEX
  8
3200LEVEL
 62
7
 10
3331.868
 20
-4781.530
 30
2027.000
 70
    32
  0
VERTEX
  8
3200LEVEL
 62
7
 10
3338.551
 20
-4786.787
 30
2027.000
 70
    32
  0
VERTEX
  8
3200LEVEL
 62
7
 10
3343.727
 20
-4790.242
 30
2027.000
 70
    32
  0
VERTEX
  8
3200LEVEL
 62
7
 10
3348.661
 20
-4793.581
 30
2027.000
 70
    32
  0
VERTEX
  8
3200LEVEL
 62
7
 10
3350.951
 20
-4793.722
 30
2027.000
 70
    32
  0
VERTEX
  8
3200LEVEL
 62
7
 10
3349.060
 20
-4788.016
 30
2027.000
 70
    32
  0
VERTEX
  8
3200LEVEL
 62
7
 10
3347.457
 20
-4784.478
 30
2027.000
 70
    32
  0
VERTEX
  8
3200LEVEL
 62
7
 10
3346.764
 20
-4781.124
 30
2027.000
 70
    32
  0
VERTEX
  8
3200LEVEL
 62
7
 10
3346.438
 20
-4775.950
 30
2027.000
 70
    32
  0
VERTEX
  8
3200LEVEL
 62
7
 10
3345.324
 20
-4768.725
 30
2027.000
 70
    32
  0
VERTEX
  8
3200LEVEL
 62
7
 10
3344.003
 20
-4765.200
 30
2027.000
 70
    32
  0
VERTEX
  8
3200LEVEL
 62
7
 10
3343.604
 20
-4763.132
 30
2027.000
 70
    32
  0
VERTEX
  8
3200LEVEL
 62
7
 10
3347.569
 20
-4765.260
 30
2027.000
 70
    32
  0
VERTEX
  8
3200LEVEL
 62
7
 10
3352.536
 20
-4770.189
 30
2027.000
 70
    32
  0
VERTEX
  8
3200LEVEL
 62
7
 10
3356.573
 20
-4773.062
 30
2027.000
 70
    32
  0
VERTEX
  8
3200LEVEL
 62
7
 10
3359.359
 20
-4774.711
 30
2027.000
 70
    32
  0
VERTEX
  8
3200LEVEL
 62
7
 10
3361.650
 20
-4775.594
 30
2027.000
 70
    32
  0
VERTEX
  8
3200LEVEL
 62
7
 10
3362.394
 20
-4774.780
 30
2027.000
 70
    32
  0
VERTEX
  8
3200LEVEL
 62
7
 10
3362.653
 20
-4769.951
 30
2027.000
 70
    32
  0
VERTEX
  8
3200LEVEL
 62
7
 10
3362.152
 20
-4763.991
 30
2027.000
 70
    32
  0
VERTEX
  8
3200LEVEL
 62
7
 10
3359.545
 20
-4755.425
 30
2027.000
 70
    32
  0
VERTEX
  8
3200LEVEL
 62
7
 10
3358.672
 20
-4752.910
 30
2027.000
 70
    32
  0
VERTEX
  8
3200LEVEL
 62
7
 10
3358.514
 20
-4750.217
 30
2027.000
 70
    32
  0
VERTEX
  8
3200LEVEL
 62
7
 10
3360.279
 20
-4749.486
 30
2027.000
 70
    32
  0
VERTEX
  8
3200LEVEL
 62
7
 10
3363.850
 20
-4750.217
 30
2027.000
 70
    32
  0
VERTEX
  8
3200LEVEL
 62
7
 10
3364.208
 20
-4747.053
 30
2027.000
 70
    32
  0
VERTEX
  8
3200LEVEL
 62
7
 10
3361.042
 20
-4732.241
 30
2027.000
 70
    32
  0
VERTEX
  8
3200LEVEL
 62
7
 10
3356.519
 20
-4720.017
 30
2027.000
 70
    32
  0
VERTEX
  8
3200LEVEL
 62
7
 10
3355.813
 20
-4713.906
 30
2027.000
 70
    32
  0
VERTEX
  8
3200LEVEL
 62
7
 10
3354.453
 20
-4708.931
 30
2027.000
 70
    32
  0
VERTEX
  8
3200LEVEL
 62
7
 10
3354.386
 20
-4706.560
 30
2027.000
 70
    32
  0
VERTEX
  8
3200LEVEL
 62
7
 10
3355.561
 20
-4706.367
 30
2027.000
 70
    32
  0
VERTEX
  8
3200LEVEL
 62
7
 10
3362.422
 20
-4711.597
 30
2027.000
 70
    32
  0
VERTEX
  8
3200LEVEL
 62
7
 10
3368.696
 20
-4718.036
 30
2027.000
 70
    32
  0
VERTEX
  8
3200LEVEL
 62
7
 10
3374.726
 20
-4724.429
 30
2027.000
 70
    32
  0
VERTEX
  8
3200LEVEL
 62
7
 10
3378.637
 20
-4728.497
 30
2027.000
 70
    32
  0
VERTEX
  8
3200LEVEL
 62
7
 10
3381.544
 20
-4730.575
 30
2027.000
 70
    32
  0
VERTEX
  8
3200LEVEL
 62
7
 10
3381.920
 20
-4730.098
 30
2027.000
 70
    32
  0
VERTEX
  8
3200LEVEL
 62
7
 10
3377.119
 20
-4723.126
 30
2027.000
 70
    32
  0
VERTEX
  8
3200LEVEL
 62
7
 10
3371.639
 20
-4716.300
 30
2027.000
 70
    32
  0
VERTEX
  8
3200LEVEL
 62
7
 10
3367.629
 20
-4710.566
 30
2027.000
 70
    32
  0
VERTEX
  8
3200LEVEL
 62
7
 10
3363.686
 20
-4704.906
 30
2027.000
 70
    32
  0
VERTEX
  8
3200LEVEL
 62
7
 10
3360.160
 20
-4700.149
 30
2027.000
 70
    32
  0
VERTEX
  8
3200LEVEL
 62
7
 10
3358.984
 20
-4697.303
 30
2027.000
 70
    32
  0
VERTEX
  8
3200LEVEL
 62
7
 10
3359.296
 20
-4696.681
 30
2027.000
 70
    32
  0
VERTEX
  8
3200LEVEL
 62
7
 10
3360.969
 20
-4697.182
 30
2027.000
 70
    32
  0
VERTEX
  8
3200LEVEL
 62
7
 10
3360.589
 20
-4694.691
 30
2027.000
 70
    32
  0
VERTEX
  8
3200LEVEL
 62
7
 10
3358.154
 20
-4691.575
 30
2027.000
 70
    32
  0
VERTEX
  8
3200LEVEL
 62
7
 10
3357.342
 20
-4690.018
 30
2027.000
 70
    32
  0
VERTEX
  8
3200LEVEL
 62
7
 10
3358.484
 20
-4689.788
 30
2027.000
 70
    32
  0
VERTEX
  8
3200LEVEL
 62
7
 10
3359.051
 20
-4686.704
 30
2027.000
 70
    32
  0
VERTEX
  8
3200LEVEL
 62
7
 10
3357.479
 20
-4684.016
 30
2027.000
 70
    32
  0
VERTEX
  8
3200LEVEL
 62
7
 10
3355.769
 20
-4681.252
 30
2027.000
 70
    32
  0
VERTEX
  8
3200LEVEL
 62
7
 10
3355.711
 20
-4680.224
 30
2027.000
 70
    32
  0
VERTEX
  8
3200LEVEL
 62
7
 10
3356.100
 20
-4680.207
 30
2027.000
 70
    32
  0
VERTEX
  8
3200LEVEL
 62
7
 10
3358.696
 20
-4679.868
 30
2027.000
 70
    32
  0
VERTEX
  8
3200LEVEL
 62
7
 10
3357.837
 20
-4677.813
 30
2027.000
 70
    32
  0
VERTEX
  8
3200LEVEL
 62
7
 10
3356.490
 20
-4674.853
 30
2027.000
 70
    32
  0
VERTEX
  8
3200LEVEL
 62
7
 10
3356.757
 20
-4673.664
 30
2027.000
 70
    32
  0
VERTEX
  8
3200LEVEL
 62
7
 10
3361.537
 20
-4677.278
 30
2027.000
 70
    32
  0
VERTEX
  8
3200LEVEL
 62
7
 10
3368.965
 20
-4682.463
 30
2027.000
 70
    32
  0
VERTEX
  8
3200LEVEL
 62
7
 10
3371.912
 20
-4683.695
 30
2027.000
 70
    32
  0
VERTEX
  8
3200LEVEL
 62
7
 10
3377.031
 20
-4687.607
 30
2027.000
 70
    32
  0
VERTEX
  8
3200LEVEL
 62
7
 10
3379.484
 20
-4688.816
 30
2027.000
 70
    32
  0
VERTEX
  8
3200LEVEL
 62
7
 10
3379.677
 20
-4686.952
 30
2027.000
 70
    32
  0
VERTEX
  8
3200LEVEL
 62
7
 10
3376.084
 20
-4677.527
 30
2027.000
 70
    32
  0
VERTEX
  8
3200LEVEL
 62
7
 10
3372.305
 20
-4668.341
 30
2027.000
 70
    32
  0
VERTEX
  8
3200LEVEL
 62
7
 10
3368.537
 20
-4661.170
 30
2027.000
 70
    32
  0
VERTEX
  8
3200LEVEL
 62
7
 10
3363.039
 20
-4652.469
 30
2027.000
 70
    32
  0
VERTEX
  8
3200LEVEL
 62
7
 10
3358.857
 20
-4646.622
 30
2027.000
 70
    32
  0
VERTEX
  8
3200LEVEL
 62
7
 10
3355.593
 20
-4644.598
 30
2027.000
 70
    32
  0
VERTEX
  8
3200LEVEL
 62
7
 10
3353.638
 20
-4646.380
 30
2027.000
 70
    32
  0
VERTEX
  8
3200LEVEL
 62
7
 10
3352.592
 20
-4650.643
 30
2027.000
 70
    32
  0
VERTEX
  8
3200LEVEL
 62
7
 10
3351.086
 20
-4651.881
 30
2027.000
 70
    32
  0
VERTEX
  8
3200LEVEL
 62
7
 10
3349.669
 20
-4654.254
 30
2027.000
 70
    32
  0
VERTEX
  8
3200LEVEL
 62
7
 10
3350.085
 20
-4659.008
 30
2027.000
 70
    32
  0
VERTEX
  8
3200LEVEL
 62
7
 10
3348.983
 20
-4661.431
 30
2027.000
 70
    32
  0
VERTEX
  8
3200LEVEL
 62
7
 10
3349.625
 20
-4664.358
 30
2027.000
 70
    32
  0
VERTEX
  8
3200LEVEL
 62
7
 10
3349.819
 20
-4666.275
 30
2027.000
 70
    32
  0
VERTEX
  8
3200LEVEL
 62
7
 10
3348.518
 20
-4667.664
 30
2027.000
 70
    32
  0
VERTEX
  8
3200LEVEL
 62
7
 10
3346.717
 20
-4666.874
 30
2027.000
 70
    32
  0
VERTEX
  8
3200LEVEL
 62
7
 10
3346.048
 20
-4666.066
 30
2027.000
 70
    32
  0
VERTEX
  8
3200LEVEL
 62
7
 10
3346.927
 20
-4665.399
 30
2027.000
 70
    32
  0
VERTEX
  8
3200LEVEL
 62
7
 10
3348.013
 20
-4664.072
 30
2027.000
 70
    32
  0
VERTEX
  8
3200LEVEL
 62
7
 10
3346.361
 20
-4659.295
 30
2027.000
 70
    32
  0
VERTEX
  8
3200LEVEL
 62
7
 10
3343.758
 20
-4653.697
 30
2027.000
 70
    32
  0
VERTEX
  8
3200LEVEL
 62
7
 10
3342.670
 20
-4651.244
 30
2027.000
 70
    32
  0
VERTEX
  8
3200LEVEL
 62
7
 10
3343.328
 20
-4648.483
 30
2027.000
 70
    32
  0
VERTEX
  8
3200LEVEL
 62
7
 10
3343.575
 20
-4647.717
 30
2027.000
 70
    32
  0
VERTEX
  8
3200LEVEL
 62
7
 10
3343.783
 20
-4647.055
 30
2027.000
 70
    32
  0
VERTEX
  8
3200LEVEL
 62
7
 10
3341.821
 20
-4646.681
 30
2027.000
 70
    32
  0
VERTEX
  8
3200LEVEL
 62
7
 10
3341.860
 20
-4645.835
 30
2027.000
 70
    32
  0
VERTEX
  8
3200LEVEL
 62
7
 10
3344.381
 20
-4644.821
 30
2027.000
 70
    32
  0
VERTEX
  8
3200LEVEL
 62
7
 10
3347.364
 20
-4642.980
 30
2027.000
 70
    32
  0
VERTEX
  8
3200LEVEL
 62
7
 10
3346.879
 20
-4639.706
 30
2027.000
 70
    32
  0
VERTEX
  8
3200LEVEL
 62
7
 10
3344.930
 20
-4633.715
 30
2027.000
 70
    32
  0
VERTEX
  8
3200LEVEL
 62
7
 10
3344.292
 20
-4630.717
 30
2027.000
 70
    32
  0
VERTEX
  8
3200LEVEL
 62
7
 10
3342.928
 20
-4628.109
 30
2027.000
 70
    32
  0
VERTEX
  8
3200LEVEL
 62
7
 10
3342.515
 20
-4625.581
 30
2027.000
 70
    32
  0
VERTEX
  8
3200LEVEL
 62
7
 10
3343.396
 20
-4624.102
 30
2027.000
 70
    32
  0
VERTEX
  8
3200LEVEL
 62
7
 10
3343.613
 20
-4623.229
 30
2027.000
 70
    32
  0
VERTEX
  8
3200LEVEL
 62
7
 10
3343.055
 20
-4620.023
 30
2027.000
 70
    32
  0
VERTEX
  8
3200LEVEL
 62
7
 10
3341.262
 20
-4615.240
 30
2027.000
 70
    32
  0
VERTEX
  8
3200LEVEL
 62
7
 10
3340.944
 20
-4613.705
 30
2027.000
 70
    32
  0
VERTEX
  8
3200LEVEL
 62
7
 10
3343.410
 20
-4616.929
 30
2027.000
 70
    32
  0
VERTEX
  8
3200LEVEL
 62
7
 10
3347.634
 20
-4624.157
 30
2027.000
 70
    32
  0
VERTEX
  8
3200LEVEL
 62
7
 10
3351.411
 20
-4631.117
 30
2027.000
 70
    32
  0
VERTEX
  8
3200LEVEL
 62
7
 10
3353.925
 20
-4634.838
 30
2027.000
 70
    32
  0
VERTEX
  8
3200LEVEL
 62
7
 10
3357.606
 20
-4635.468
 30
2027.000
 70
    32
  0
VERTEX
  8
3200LEVEL
 62
7
 10
3359.091
 20
-4628.575
 30
2027.000
 70
    32
  0
VERTEX
  8
3200LEVEL
 62
7
 10
3359.372
 20
-4624.807
 30
2027.000
 70
    32
  0
VERTEX
  8
3200LEVEL
 62
7
 10
3360.232
 20
-4623.009
 30
2027.000
 70
    32
  0
VERTEX
  8
3200LEVEL
 62
7
 10
3362.132
 20
-4622.425
 30
2027.000
 70
    32
  0
VERTEX
  8
3200LEVEL
 62
7
 10
3364.529
 20
-4624.091
 30
2027.000
 70
    32
  0
VERTEX
  8
3200LEVEL
 62
7
 10
3367.258
 20
-4623.157
 30
2027.000
 70
    32
  0
VERTEX
  8
3200LEVEL
 62
7
 10
3369.802
 20
-4619.353
 30
2027.000
 70
    32
  0
VERTEX
  8
3200LEVEL
 62
7
 10
3371.844
 20
-4609.588
 30
2027.000
 70
    32
  0
VERTEX
  8
3200LEVEL
 62
7
 10
3373.873
 20
-4605.441
 30
2027.000
 70
    32
  0
VERTEX
  8
3200LEVEL
 62
7
 10
3375.794
 20
-4602.880
 30
2027.000
 70
    32
  0
VERTEX
  8
3200LEVEL
 62
7
 10
3377.751
 20
-4601.839
 30
2027.000
 70
    32
  0
VERTEX
  8
3200LEVEL
 62
7
 10
3379.613
 20
-4600.547
 30
2027.000
 70
    32
  0
VERTEX
  8
3200LEVEL
 62
7
 10
3381.125
 20
-4591.536
 30
2027.000
 70
    32
  0
VERTEX
  8
3200LEVEL
 62
7
 10
3381.810
 20
-4591.249
 30
2027.000
 70
    32
  0
VERTEX
  8
3200LEVEL
 62
7
 10
3384.776
 20
-4594.355
 30
2027.000
 70
    32
  0
VERTEX
  8
3200LEVEL
 62
7
 10
3386.474
 20
-4595.847
 30
2027.000
 70
    32
  0
VERTEX
  8
3200LEVEL
 62
7
 10
3388.507
 20
-4596.966
 30
2027.000
 70
    32
  0
VERTEX
  8
3200LEVEL
 62
7
 10
3389.181
 20
-4596.149
 30
2027.000
 70
    32
  0
VERTEX
  8
3200LEVEL
 62
7
 10
3390.369
 20
-4595.674
 30
2027.000
 70
    32
  0
VERTEX
  8
3200LEVEL
 62
7
 10
3392.488
 20
-4597.998
 30
2027.000
 70
    32
  0
VERTEX
  8
3200LEVEL
 62
7
 10
3394.672
 20
-4598.912
 30
2027.000
 70
    32
  0
VERTEX
  8
3200LEVEL
 62
7
 10
3396.212
 20
-4597.711
 30
2027.000
 70
    32
  0
VERTEX
  8
3200LEVEL
 62
7
 10
3398.140
 20
-4595.751
 30
2027.000
 70
    32
  0
VERTEX
  8
3200LEVEL
 62
7
 10
3399.216
 20
-4594.635
 30
2027.000
 70
    32
  0
VERTEX
  8
3200LEVEL
 62
7
 10
3400.000
 20
-4595.272
 30
2027.000
 70
    32
  0
VERTEX
  8
3200LEVEL
 62
7
 10
3401.196
 20
-4596.140
 30
2027.000
 70
    32
  0
VERTEX
  8
3200LEVEL
 62
7
 10
3402.684
 20
-4596.543
 30
2027.000
 70
    32
  0
SEQEND
  8
3200LEVEL
  0
POLYLINE
  8
3200LEVEL
 62
7
 66
     1
 70
     8
  0
VERTEX
  8
3200LEVEL
 62
7
 10
3438.766
 20
-4610.530
 30
2027.000
 70
    32
  0
VERTEX
  8
3200LEVEL
 62
7
 10
3438.998
 20
-4610.859
 30
2027.000
 70
    32
  0
VERTEX
  8
3200LEVEL
 62
7
 10
3440.815
 20
-4613.593
 30
2027.000
 70
    32
  0
VERTEX
  8
3200LEVEL
 62
7
 10
3442.157
 20
-4615.140
 30
2027.000
 70
    32
  0
VERTEX
  8
3200LEVEL
 62
7
 10
3444.419
 20
-4616.658
 30
2027.000
 70
    32
  0
VERTEX
  8
3200LEVEL
 62
7
 10
3445.991
 20
-4617.049
 30
2027.000
 70
    32
  0
VERTEX
  8
3200LEVEL
 62
7
 10
3446.482
 20
-4617.142
 30
2027.000
 70
    32
  0
VERTEX
  8
3200LEVEL
 62
7
 10
3447.708
 20
-4617.376
 30
2027.000
 70
    32
  0
SEQEND
  8
3200LEVEL
  0
POLYLINE
  8
3200LEVEL
 62
7
 66
     1
 70
     8
  0
VERTEX
  8
3200LEVEL
 62
7
 10
3468.242
 20
-4647.339
 30
2027.000
 70
    32
  0
VERTEX
  8
3200LEVEL
 62
7
 10
3468.640
 20
-4648.417
 30
2027.000
 70
    32
  0
VERTEX
  8
3200LEVEL
 62
7
 10
3470.410
 20
-4653.694
 30
2027.000
 70
    32
  0
VERTEX
  8
3200LEVEL
 62
7
 10
3472.648
 20
-4657.261
 30
2027.000
 70
    32
  0
VERTEX
  8
3200LEVEL
 62
7
 10
3475.033
 20
-4657.654
 30
2027.000
 70
    32
  0
VERTEX
  8
3200LEVEL
 62
7
 10
3476.172
 20
-4658.237
 30
2027.000
 70
    32
  0
VERTEX
  8
3200LEVEL
 62
7
 10
3475.604
 20
-4660.578
 30
2027.000
 70
    32
  0
VERTEX
  8
3200LEVEL
 62
7
 10
3475.810
 20
-4663.768
 30
2027.000
 70
    32
  0
VERTEX
  8
3200LEVEL
 62
7
 10
3479.280
 20
-4667.427
 30
2027.000
 70
    32
  0
VERTEX
  8
3200LEVEL
 62
7
 10
3483.275
 20
-4671.217
 30
2027.000
 70
    32
  0
VERTEX
  8
3200LEVEL
 62
7
 10
3484.813
 20
-4671.571
 30
2027.000
 70
    32
  0
VERTEX
  8
3200LEVEL
 62
7
 10
3487.142
 20
-4673.163
 30
2027.000
 70
    32
  0
VERTEX
  8
3200LEVEL
 62
7
 10
3488.979
 20
-4677.771
 30
2027.000
 70
    32
  0
VERTEX
  8
3200LEVEL
 62
7
 10
3491.132
 20
-4680.874
 30
2027.000
 70
    32
  0
VERTEX
  8
3200LEVEL
 62
7
 10
3495.013
 20
-4684.835
 30
2027.000
 70
    32
  0
VERTEX
  8
3200LEVEL
 62
7
 10
3499.104
 20
-4691.103
 30
2027.000
 70
    32
  0
VERTEX
  8
3200LEVEL
 62
7
 10
3499.897
 20
-4693.825
 30
2027.000
 70
    32
  0
VERTEX
  8
3200LEVEL
 62
7
 10
3500.396
 20
-4695.262
 30
2027.000
 70
    32
  0
VERTEX
  8
3200LEVEL
 62
7
 10
3500.999
 20
-4694.442
 30
2027.000
 70
    32
  0
VERTEX
  8
3200LEVEL
 62
7
 10
3501.945
 20
-4693.107
 30
2027.000
 70
    32
  0
VERTEX
  8
3200LEVEL
 62
7
 10
3503.015
 20
-4692.132
 30
2027.000
 70
    32
  0
VERTEX
  8
3200LEVEL
 62
7
 10
3503.578
 20
-4696.752
 30
2027.000
 70
    32
  0
VERTEX
  8
3200LEVEL
 62
7
 10
3504.788
 20
-4699.635
 30
2027.000
 70
    32
  0
VERTEX
  8
3200LEVEL
 62
7
 10
3504.507
 20
-4703.403
 30
2027.000
 70
    32
  0
VERTEX
  8
3200LEVEL
 62
7
 10
3503.995
 20
-4707.585
 30
2027.000
 70
    32
  0
VERTEX
  8
3200LEVEL
 62
7
 10
3505.532
 20
-4714.087
 30
2027.000
 70
    32
  0
VERTEX
  8
3200LEVEL
 62
7
 10
3509.780
 20
-4721.564
 30
2027.000
 70
    32
  0
VERTEX
  8
3200LEVEL
 62
7
 10
3514.310
 20
-4726.756
 30
2027.000
 70
    32
  0
VERTEX
  8
3200LEVEL
 62
7
 10
3519.655
 20
-4731.138
 30
2027.000
 70
    32
  0
VERTEX
  8
3200LEVEL
 62
7
 10
3524.885
 20
-4734.207
 30
2027.000
 70
    32
  0
VERTEX
  8
3200LEVEL
 62
7
 10
3529.541
 20
-4735.907
 30
2027.000
 70
    32
  0
VERTEX
  8
3200LEVEL
 62
7
 10
3534.083
 20
-4737.036
 30
2027.000
 70
    32
  0
VERTEX
  8
3200LEVEL
 62
7
 10
3536.485
 20
-4737.819
 30
2027.000
 70
    32
  0
VERTEX
  8
3200LEVEL
 62
7
 10
3540.744
 20
-4741.232
 30
2027.000
 70
    32
  0
VERTEX
  8
3200LEVEL
 62
7
 10
3544.339
 20
-4744.508
 30
2027.000
 70
    32
  0
VERTEX
  8
3200LEVEL
 62
7
 10
3551.923
 20
-4750.902
 30
2027.000
 70
    32
  0
VERTEX
  8
3200LEVEL
 62
7
 10
3557.934
 20
-4756.163
 30
2027.000
 70
    32
  0
VERTEX
  8
3200LEVEL
 62
7
 10
3567.484
 20
-4765.899
 30
2027.000
 70
    32
  0
VERTEX
  8
3200LEVEL
 62
7
 10
3574.251
 20
-4776.213
 30
2027.000
 70
    32
  0
VERTEX
  8
3200LEVEL
 62
7
 10
3581.000
 20
-4785.395
 30
2027.000
 70
    32
  0
VERTEX
  8
3200LEVEL
 62
7
 10
3584.967
 20
-4791.304
 30
2027.000
 70
    32
  0
VERTEX
  8
3200LEVEL
 62
7
 10
3587.440
 20
-4795.129
 30
2027.000
 70
    32
  0
VERTEX
  8
3200LEVEL
 62
7
 10
3648.269
 20
-4875.573
 30
2027.000
 70
    32
  0
VERTEX
  8
3200LEVEL
 62
7
 10
3694.931
 20
-4940.172
 30
2027.000
 70
    32
  0
VERTEX
  8
3200LEVEL
 62
7
 10
3735.742
 20
-4994.616
 30
2027.000
 70
    32
  0
VERTEX
  8
3200LEVEL
 62
7
 10
3782.189
 20
-5073.036
 30
2027.000
 70
    32
  0
VERTEX
  8
3200LEVEL
 62
7
 10
3795.993
 20
-5136.710
 30
2027.000
 70
    32
  0
VERTEX
  8
3200LEVEL
 62
7
 10
3815.508
 20
-5200.950
 30
2027.000
 70
    32
  0
VERTEX
  8
3200LEVEL
 62
7
 10
3836.150
 20
-5269.633
 30
2027.000
 70
    32
  0
VERTEX
  8
3200LEVEL
 62
7
 10
3878.933
 20
-5336.699
 30
2027.000
 70
    32
  0
VERTEX
  8
3200LEVEL
 62
7
 10
3920.448
 20
-5396.784
 30
2027.000
 70
    32
  0
VERTEX
  8
3200LEVEL
 62
7
 10
3943.074
 20
-5426.968
 30
2027.000
 70
    32
  0
VERTEX
  8
3200LEVEL
 62
7
 10
3939.137
 20
-5384.097
 30
2027.000
 70
    32
  0
VERTEX
  8
3200LEVEL
 62
7
 10
3903.478
 20
-5307.725
 30
2027.000
 70
    32
  0
VERTEX
  8
3200LEVEL
 62
7
 10
3866.619
 20
-5234.456
 30
2027.000
 70
    32
  0
VERTEX
  8
3200LEVEL
 62
7
 10
3854.221
 20
-5190.877
 30
2027.000
 70
    32
  0
VERTEX
  8
3200LEVEL
 62
7
 10
3875.655
 20
-5192.434
 30
2027.000
 70
    32
  0
VERTEX
  8
3200LEVEL
 62
7
 10
3858.958
 20
-5140.181
 30
2027.000
 70
    32
  0
VERTEX
  8
3200LEVEL
 62
7
 10
3818.924
 20
-5076.782
 30
2027.000
 70
    32
  0
VERTEX
  8
3200LEVEL
 62
7
 10
3798.701
 20
-5024.529
 30
2027.000
 70
    32
  0
VERTEX
  8
3200LEVEL
 62
7
 10
3761.273
 20
-4971.072
 30
2027.000
 70
    32
  0
VERTEX
  8
3200LEVEL
 62
7
 10
3723.981
 20
-4941.308
 30
2027.000
 70
    32
  0
VERTEX
  8
3200LEVEL
 62
7
 10
3694.163
 20
-4910.346
 30
2027.000
 70
    32
  0
VERTEX
  8
3200LEVEL
 62
7
 10
3664.560
 20
-4863.802
 30
2027.000
 70
    32
  0
VERTEX
  8
3200LEVEL
 62
7
 10
3619.028
 20
-4793.068
 30
2027.000
 70
    32
  0
VERTEX
  8
3200LEVEL
 62
7
 10
3602.900
 20
-4779.483
 30
2027.000
 70
    32
  0
VERTEX
  8
3200LEVEL
 62
7
 10
3594.690
 20
-4772.106
 30
2027.000
 70
    32
  0
VERTEX
  8
3200LEVEL
 62
7
 10
3589.212
 20
-4766.021
 30
2027.000
 70
    32
  0
VERTEX
  8
3200LEVEL
 62
7
 10
3583.624
 20
-4758.483
 30
2027.000
 70
    32
  0
VERTEX
  8
3200LEVEL
 62
7
 10
3578.290
 20
-4752.334
 30
2027.000
 70
    32
  0
VERTEX
  8
3200LEVEL
 62
7
 10
3573.789
 20
-4746.507
 30
2027.000
 70
    32
  0
VERTEX
  8
3200LEVEL
 62
7
 10
3570.287
 20
-4741.999
 30
2027.000
 70
    32
  0
VERTEX
  8
3200LEVEL
 62
7
 10
3566.163
 20
-4736.436
 30
2027.000
 70
    32
  0
VERTEX
  8
3200LEVEL
 62
7
 10
3562.569
 20
-4728.566
 30
2027.000
 70
    32
  0
VERTEX
  8
3200LEVEL
 62
7
 10
3560.192
 20
-4721.141
 30
2027.000
 70
    32
  0
VERTEX
  8
3200LEVEL
 62
7
 10
3556.082
 20
-4709.148
 30
2027.000
 70
    32
  0
VERTEX
  8
3200LEVEL
 62
7
 10
3551.953
 20
-4699.875
 30
2027.000
 70
    32
  0
VERTEX
  8
3200LEVEL
 62
7
 10
3548.833
 20
-4694.748
 30
2027.000
 70
    32
  0
VERTEX
  8
3200LEVEL
 62
7
 10
3541.162
 20
-4683.367
 30
2027.000
 70
    32
  0
VERTEX
  8
3200LEVEL
 62
7
 10
3537.359
 20
-4677.714
 30
2027.000
 70
    32
  0
VERTEX
  8
3200LEVEL
 62
7
 10
3532.777
 20
-4671.353
 30
2027.000
 70
    32
  0
VERTEX
  8
3200LEVEL
 62
7
 10
3530.849
 20
-4668.719
 30
2027.000
 70
    32
  0
VERTEX
  8
3200LEVEL
 62
7
 10
3527.070
 20
-4663.620
 30
2027.000
 70
    32
  0
SEQEND
  8
3200LEVEL
  0
POLYLINE
  8
3200LEVEL
 62
7
 66
     1
 70
     8
  0
VERTEX
  8
3200LEVEL
 62
7
 10
3500.072
 20
-4605.311
 30
2027.000
 70
    32
  0
VERTEX
  8
3200LEVEL
 62
7
 10
3498.857
 20
-4603.311
 30
2027.000
 70
    32
  0
VERTEX
  8
3200LEVEL
 62
7
 10
3495.501
 20
-4599.481
 30
2027.000
 70
    32
  0
VERTEX
  8
3200LEVEL
 62
7
 10
3492.577
 20
-4595.458
 30
2027.000
 70
    32
  0
VERTEX
  8
3200LEVEL
 62
7
 10
3491.195
 20
-4591.719
 30
2027.000
 70
    32
  0
VERTEX
  8
3200LEVEL
 62
7
 10
3493.164
 20
-4587.358
 30
2027.000
 70
    32
  0
VERTEX
  8
3200LEVEL
 62
7
 10
3495.164
 20
-4583.846
 30
2027.000
 70
    32
  0
VERTEX
  8
3200LEVEL
 62
7
 10
3492.963
 20
-4580.245
 30
2027.000
 70
    32
  0
VERTEX
  8
3200LEVEL
 62
7
 10
3490.163
 20
-4578.137
 30
2027.000
 70
    32
  0
VERTEX
  8
3200LEVEL
 62
7
 10
3489.295
 20
-4579.333
 30
2027.000
 70
    32
  0
VERTEX
  8
3200LEVEL
 62
7
 10
3487.594
 20
-4580.209
 30
2027.000
 70
    32
  0
VERTEX
  8
3200LEVEL
 62
7
 10
3483.700
 20
-4578.827
 30
2027.000
 70
    32
  0
VERTEX
  8
3200LEVEL
 62
7
 10
3482.899
 20
-4577.800
 30
2027.000
 70
    32
  0
VERTEX
  8
3200LEVEL
 62
7
 10
3484.426
 20
-4576.882
 30
2027.000
 70
    32
  0
VERTEX
  8
3200LEVEL
 62
7
 10
3485.642
 20
-4575.030
 30
2027.000
 70
    32
  0
VERTEX
  8
3200LEVEL
 62
7
 10
3486.527
 20
-4573.480
 30
2027.000
 70
    32
  0
VERTEX
  8
3200LEVEL
 62
7
 10
3487.285
 20
-4573.127
 30
2027.000
 70
    32
  0
VERTEX
  8
3200LEVEL
 62
7
 10
3488.987
 20
-4572.251
 30
2027.000
 70
    32
  0
VERTEX
  8
3200LEVEL
 62
7
 10
3490.492
 20
-4570.272
 30
2027.000
 70
    32
  0
VERTEX
  8
3200LEVEL
 62
7
 10
3490.741
 20
-4565.654
 30
2027.000
 70
    32
  0
VERTEX
  8
3200LEVEL
 62
7
 10
3489.875
 20
-4560.702
 30
2027.000
 70
    32
  0
VERTEX
  8
3200LEVEL
 62
7
 10
3487.105
 20
-4551.067
 30
2027.000
 70
    32
  0
VERTEX
  8
3200LEVEL
 62
7
 10
3483.557
 20
-4546.804
 30
2027.000
 70
    32
  0
VERTEX
  8
3200LEVEL
 62
7
 10
3478.542
 20
-4543.674
 30
2027.000
 70
    32
  0
VERTEX
  8
3200LEVEL
 62
7
 10
3475.838
 20
-4543.302
 30
2027.000
 70
    32
  0
VERTEX
  8
3200LEVEL
 62
7
 10
3472.585
 20
-4544.105
 30
2027.000
 70
    32
  0
VERTEX
  8
3200LEVEL
 62
7
 10
3469.878
 20
-4546.100
 30
2027.000
 70
    32
  0
VERTEX
  8
3200LEVEL
 62
7
 10
3467.411
 20
-4549.767
 30
2027.000
 70
    32
  0
VERTEX
  8
3200LEVEL
 62
7
 10
3465.219
 20
-4552.846
 30
2027.000
 70
    32
  0
VERTEX
  8
3200LEVEL
 62
7
 10
3462.358
 20
-4552.820
 30
2027.000
 70
    32
  0
VERTEX
  8
3200LEVEL
 62
7
 10
3460.939
 20
-4551.411
 30
2027.000
 70
    32
  0
VERTEX
  8
3200LEVEL
 62
7
 10
3457.805
 20
-4545.824
 30
2027.000
 70
    32
  0
VERTEX
  8
3200LEVEL
 62
7
 10
3456.589
 20
-4540.043
 30
2027.000
 70
    32
  0
VERTEX
  8
3200LEVEL
 62
7
 10
3453.876
 20
-4525.358
 30
2027.000
 70
    32
  0
VERTEX
  8
3200LEVEL
 62
7
 10
3451.271
 20
-4515.979
 30
2027.000
 70
    32
  0
VERTEX
  8
3200LEVEL
 62
7
 10
3443.156
 20
-4501.962
 30
2027.000
 70
    32
  0
VERTEX
  8
3200LEVEL
 62
7
 10
3437.624
 20
-4493.225
 30
2027.000
 70
    32
  0
VERTEX
  8
3200LEVEL
 62
7
 10
3426.252
 20
-4480.083
 30
2027.000
 70
    32
  0
VERTEX
  8
3200LEVEL
 62
7
 10
3417.889
 20
-4471.427
 30
2027.000
 70
    32
  0
VERTEX
  8
3200LEVEL
 62
7
 10
3411.140
 20
-4466.838
 30
2027.000
 70
    32
  0
VERTEX
  8
3200LEVEL
 62
7
 10
3405.322
 20
-4465.792
 30
2027.000
 70
    32
  0
VERTEX
  8
3200LEVEL
 62
7
 10
3400.271
 20
-4468.032
 30
2027.000
 70
    32
  0
VERTEX
  8
3200LEVEL
 62
7
 10
3396.902
 20
-4469.819
 30
2027.000
 70
    32
  0
VERTEX
  8
3200LEVEL
 62
7
 10
3392.645
 20
-4470.930
 30
2027.000
 70
    32
  0
VERTEX
  8
3200LEVEL
 62
7
 10
3388.878
 20
-4473.688
 30
2027.000
 70
    32
  0
VERTEX
  8
3200LEVEL
 62
7
 10
3387.139
 20
-4479.191
 30
2027.000
 70
    32
  0
VERTEX
  8
3200LEVEL
 62
7
 10
3386.195
 20
-4484.307
 30
2027.000
 70
    32
  0
VERTEX
  8
3200LEVEL
 62
7
 10
3384.519
 20
-4489.212
 30
2027.000
 70
    32
  0
VERTEX
  8
3200LEVEL
 62
7
 10
3384.958
 20
-4495.770
 30
2027.000
 70
    32
  0
VERTEX
  8
3200LEVEL
 62
7
 10
3388.531
 20
-4503.321
 30
2027.000
 70
    32
  0
VERTEX
  8
3200LEVEL
 62
7
 10
3389.664
 20
-4507.084
 30
2027.000
 70
    32
  0
VERTEX
  8
3200LEVEL
 62
7
 10
3390.220
 20
-4511.103
 30
2027.000
 70
    32
  0
VERTEX
  8
3200LEVEL
 62
7
 10
3390.066
 20
-4511.378
 30
2027.000
 70
    32
  0
VERTEX
  8
3200LEVEL
 62
7
 10
3388.593
 20
-4509.614
 30
2027.000
 70
    32
  0
VERTEX
  8
3200LEVEL
 62
7
 10
3387.213
 20
-4507.359
 30
2027.000
 70
    32
  0
VERTEX
  8
3200LEVEL
 62
7
 10
3386.082
 20
-4507.377
 30
2027.000
 70
    32
  0
VERTEX
  8
3200LEVEL
 62
7
 10
3385.681
 20
-4509.161
 30
2027.000
 70
    32
  0
VERTEX
  8
3200LEVEL
 62
7
 10
3387.070
 20
-4513.501
 30
2027.000
 70
    32
  0
VERTEX
  8
3200LEVEL
 62
7
 10
3390.164
 20
-4521.490
 30
2027.000
 70
    32
  0
VERTEX
  8
3200LEVEL
 62
7
 10
3392.650
 20
-4527.330
 30
2027.000
 70
    32
  0
VERTEX
  8
3200LEVEL
 62
7
 10
3396.968
 20
-4534.809
 30
2027.000
 70
    32
  0
VERTEX
  8
3200LEVEL
 62
7
 10
3400.324
 20
-4540.937
 30
2027.000
 70
    32
  0
VERTEX
  8
3200LEVEL
 62
7
 10
3401.888
 20
-4545.320
 30
2027.000
 70
    32
  0
VERTEX
  8
3200LEVEL
 62
7
 10
3401.587
 20
-4546.473
 30
2027.000
 70
    32
  0
VERTEX
  8
3200LEVEL
 62
7
 10
3400.663
 20
-4545.829
 30
2027.000
 70
    32
  0
VERTEX
  8
3200LEVEL
 62
7
 10
3398.399
 20
-4542.826
 30
2027.000
 70
    32
  0
VERTEX
  8
3200LEVEL
 62
7
 10
3391.780
 20
-4532.378
 30
2027.000
 70
    32
  0
VERTEX
  8
3200LEVEL
 62
7
 10
3387.816
 20
-4524.102
 30
2027.000
 70
    32
  0
VERTEX
  8
3200LEVEL
 62
7
 10
3382.271
 20
-4510.311
 30
2027.000
 70
    32
  0
VERTEX
  8
3200LEVEL
 62
7
 10
3380.343
 20
-4500.044
 30
2027.000
 70
    32
  0
VERTEX
  8
3200LEVEL
 62
7
 10
3377.922
 20
-4487.458
 30
2027.000
 70
    32
  0
VERTEX
  8
3200LEVEL
 62
7
 10
3377.153
 20
-4475.054
 30
2027.000
 70
    32
  0
VERTEX
  8
3200LEVEL
 62
7
 10
3375.450
 20
-4462.218
 30
2027.000
 70
    32
  0
VERTEX
  8
3200LEVEL
 62
7
 10
3371.633
 20
-4452.323
 30
2027.000
 70
    32
  0
VERTEX
  8
3200LEVEL
 62
7
 10
3365.586
 20
-4440.947
 30
2027.000
 70
    32
  0
VERTEX
  8
3200LEVEL
 62
7
 10
3359.298
 20
-4427.157
 30
2027.000
 70
    32
  0
VERTEX
  8
3200LEVEL
 62
7
 10
3350.592
 20
-4412.936
 30
2027.000
 70
    32
  0
VERTEX
  8
3200LEVEL
 62
7
 10
3346.424
 20
-4404.510
 30
2027.000
 70
    32
  0
VERTEX
  8
3200LEVEL
 62
7
 10
3342.377
 20
-4394.216
 30
2027.000
 70
    32
  0
VERTEX
  8
3200LEVEL
 62
7
 10
3340.507
 20
-4387.273
 30
2027.000
 70
    32
  0
VERTEX
  8
3200LEVEL
 62
7
 10
3339.510
 20
-4382.103
 30
2027.000
 70
    32
  0
VERTEX
  8
3200LEVEL
 62
7
 10
3337.728
 20
-4373.257
 30
2027.000
 70
    32
  0
VERTEX
  8
3200LEVEL
 62
7
 10
3337.206
 20
-4369.275
 30
2027.000
 70
    32
  0
VERTEX
  8
3200LEVEL
 62
7
 10
3335.044
 20
-4362.531
 30
2027.000
 70
    32
  0
VERTEX
  8
3200LEVEL
 62
7
 10
3334.206
 20
-4356.202
 30
2027.000
 70
    32
  0
VERTEX
  8
3200LEVEL
 62
7
 10
3334.157
 20
-4351.924
 30
2027.000
 70
    32
  0
VERTEX
  8
3200LEVEL
 62
7
 10
3331.860
 20
-4341.994
 30
2027.000
 70
    32
  0
VERTEX
  8
3200LEVEL
 62
7
 10
3329.726
 20
-4337.725
 30
2027.000
 70
    32
  0
VERTEX
  8
3200LEVEL
 62
7
 10
3328.442
 20
-4337.206
 30
2027.000
 70
    32
  0
VERTEX
  8
3200LEVEL
 62
7
 10
3327.113
 20
-4337.675
 30
2027.000
 70
    32
  0
VERTEX
  8
3200LEVEL
 62
7
 10
3326.494
 20
-4339.590
 30
2027.000
 70
    32
  0
VERTEX
  8
3200LEVEL
 62
7
 10
3326.438
 20
-4342.343
 30
2027.000
 70
    32
  0
VERTEX
  8
3200LEVEL
 62
7
 10
3326.662
 20
-4344.368
 30
2027.000
 70
    32
  0
VERTEX
  8
3200LEVEL
 62
7
 10
3325.740
 20
-4345.951
 30
2027.000
 70
    32
  0
VERTEX
  8
3200LEVEL
 62
7
 10
3324.698
 20
-4344.807
 30
2027.000
 70
    32
  0
VERTEX
  8
3200LEVEL
 62
7
 10
3321.385
 20
-4338.505
 30
2027.000
 70
    32
  0
VERTEX
  8
3200LEVEL
 62
7
 10
3316.740
 20
-4327.406
 30
2027.000
 70
    32
  0
VERTEX
  8
3200LEVEL
 62
7
 10
3312.281
 20
-4317.623
 30
2027.000
 70
    32
  0
VERTEX
  8
3200LEVEL
 62
7
 10
3308.081
 20
-4306.049
 30
2027.000
 70
    32
  0
VERTEX
  8
3200LEVEL
 62
7
 10
3304.755
 20
-4296.990
 30
2027.000
 70
    32
  0
VERTEX
  8
3200LEVEL
 62
7
 10
3304.548
 20
-4293.058
 30
2027.000
 70
    32
  0
VERTEX
  8
3200LEVEL
 62
7
 10
3306.401
 20
-4290.423
 30
2027.000
 70
    32
  0
VERTEX
  8
3200LEVEL
 62
7
 10
3309.043
 20
-4286.799
 30
2027.000
 70
    32
  0
VERTEX
  8
3200LEVEL
 62
7
 10
3309.504
 20
-4282.933
 30
2027.000
 70
    32
  0
VERTEX
  8
3200LEVEL
 62
7
 10
3310.375
 20
-4280.924
 30
2027.000
 70
    32
  0
VERTEX
  8
3200LEVEL
 62
7
 10
3311.271
 20
-4280.648
 30
2027.000
 70
    32
  0
VERTEX
  8
3200LEVEL
 62
7
 10
3313.439
 20
-4284.211
 30
2027.000
 70
    32
  0
VERTEX
  8
3200LEVEL
 62
7
 10
3316.048
 20
-4289.668
 30
2027.000
 70
    32
  0
VERTEX
  8
3200LEVEL
 62
7
 10
3319.789
 20
-4299.700
 30
2027.000
 70
    32
  0
VERTEX
  8
3200LEVEL
 62
7
 10
3321.869
 20
-4305.910
 30
2027.000
 70
    32
  0
VERTEX
  8
3200LEVEL
 62
7
 10
3322.626
 20
-4314.745
 30
2027.000
 70
    32
  0
VERTEX
  8
3200LEVEL
 62
7
 10
3324.199
 20
-4322.768
 30
2027.000
 70
    32
  0
VERTEX
  8
3200LEVEL
 62
7
 10
3326.269
 20
-4326.893
 30
2027.000
 70
    32
  0
VERTEX
  8
3200LEVEL
 62
7
 10
3329.870
 20
-4330.028
 30
2027.000
 70
    32
  0
VERTEX
  8
3200LEVEL
 62
7
 10
3332.881
 20
-4331.404
 30
2027.000
 70
    32
  0
VERTEX
  8
3200LEVEL
 62
7
 10
3335.474
 20
-4334.175
 30
2027.000
 70
    32
  0
VERTEX
  8
3200LEVEL
 62
7
 10
3337.593
 20
-4339.538
 30
2027.000
 70
    32
  0
VERTEX
  8
3200LEVEL
 62
7
 10
3340.067
 20
-4346.402
 30
2027.000
 70
    32
  0
VERTEX
  8
3200LEVEL
 62
7
 10
3342.603
 20
-4349.629
 30
2027.000
 70
    32
  0
VERTEX
  8
3200LEVEL
 62
7
 10
3348.401
 20
-4351.099
 30
2027.000
 70
    32
  0
VERTEX
  8
3200LEVEL
 62
7
 10
3354.841
 20
-4350.160
 30
2027.000
 70
    32
  0
VERTEX
  8
3200LEVEL
 62
7
 10
3358.430
 20
-4346.687
 30
2027.000
 70
    32
  0
VERTEX
  8
3200LEVEL
 62
7
 10
3359.633
 20
-4342.820
 30
2027.000
 70
    32
  0
VERTEX
  8
3200LEVEL
 62
7
 10
3358.015
 20
-4332.744
 30
2027.000
 70
    32
  0
VERTEX
  8
3200LEVEL
 62
7
 10
3356.550
 20
-4324.690
 30
2027.000
 70
    32
  0
VERTEX
  8
3200LEVEL
 62
7
 10
3357.041
 20
-4322.487
 30
2027.000
 70
    32
  0
VERTEX
  8
3200LEVEL
 62
7
 10
3359.806
 20
-4316.183
 30
2027.000
 70
    32
  0
VERTEX
  8
3200LEVEL
 62
7
 10
3359.401
 20
-4314.256
 30
2027.000
 70
    32
  0
VERTEX
  8
3200LEVEL
 62
7
 10
3360.998
 20
-4311.043
 30
2027.000
 70
    32
  0
VERTEX
  8
3200LEVEL
 62
7
 10
3361.580
 20
-4309.162
 30
2027.000
 70
    32
  0
VERTEX
  8
3200LEVEL
 62
7
 10
3361.271
 20
-4306.674
 30
2027.000
 70
    32
  0
VERTEX
  8
3200LEVEL
 62
7
 10
3361.967
 20
-4304.621
 30
2027.000
 70
    32
  0
VERTEX
  8
3200LEVEL
 62
7
 10
3362.591
 20
-4301.823
 30
2027.000
 70
    32
  0
VERTEX
  8
3200LEVEL
 62
7
 10
3359.271
 20
-4294.920
 30
2027.000
 70
    32
  0
VERTEX
  8
3200LEVEL
 62
7
 10
3353.292
 20
-4285.915
 30
2027.000
 70
    32
  0
VERTEX
  8
3200LEVEL
 62
7
 10
3348.138
 20
-4278.926
 30
2027.000
 70
    32
  0
VERTEX
  8
3200LEVEL
 62
7
 10
3344.192
 20
-4274.079
 30
2027.000
 70
    32
  0
VERTEX
  8
3200LEVEL
 62
7
 10
3340.085
 20
-4268.906
 30
2027.000
 70
    32
  0
VERTEX
  8
3200LEVEL
 62
7
 10
3337.919
 20
-4268.382
 30
2027.000
 70
    32
  0
VERTEX
  8
3200LEVEL
 62
7
 10
3334.008
 20
-4269.650
 30
2027.000
 70
    32
  0
VERTEX
  8
3200LEVEL
 62
7
 10
3333.300
 20
-4270.430
 30
2027.000
 70
    32
  0
VERTEX
  8
3200LEVEL
 62
7
 10
3332.907
 20
-4272.815
 30
2027.000
 70
    32
  0
VERTEX
  8
3200LEVEL
 62
7
 10
3331.096
 20
-4274.533
 30
2027.000
 70
    32
  0
VERTEX
  8
3200LEVEL
 62
7
 10
3329.506
 20
-4275.308
 30
2027.000
 70
    32
  0
VERTEX
  8
3200LEVEL
 62
7
 10
3328.221
 20
-4276.344
 30
2027.000
 70
    32
  0
VERTEX
  8
3200LEVEL
 62
7
 10
3326.510
 20
-4277.430
 30
2027.000
 70
    32
  0
VERTEX
  8
3200LEVEL
 62
7
 10
3325.504
 20
-4278.550
 30
2027.000
 70
    32
  0
VERTEX
  8
3200LEVEL
 62
7
 10
3323.626
 20
-4278.640
 30
2027.000
 70
    32
  0
VERTEX
  8
3200LEVEL
 62
7
 10
3321.447
 20
-4276.101
 30
2027.000
 70
    32
  0
VERTEX
  8
3200LEVEL
 62
7
 10
3319.604
 20
-4273.930
 30
2027.000
 70
    32
  0
VERTEX
  8
3200LEVEL
 62
7
 10
3318.330
 20
-4270.161
 30
2027.000
 70
    32
  0
VERTEX
  8
3200LEVEL
 62
7
 10
3317.735
 20
-4264.691
 30
2027.000
 70
    32
  0
VERTEX
  8
3200LEVEL
 62
7
 10
3317.187
 20
-4256.679
 30
2027.000
 70
    32
  0
VERTEX
  8
3200LEVEL
 62
7
 10
3317.360
 20
-4252.942
 30
2027.000
 70
    32
  0
VERTEX
  8
3200LEVEL
 62
7
 10
3317.332
 20
-4247.428
 30
2027.000
 70
    32
  0
VERTEX
  8
3200LEVEL
 62
7
 10
3317.541
 20
-4245.211
 30
2027.000
 70
    32
  0
VERTEX
  8
3200LEVEL
 62
7
 10
3321.634
 20
-4249.924
 30
2027.000
 70
    32
  0
VERTEX
  8
3200LEVEL
 62
7
 10
3326.106
 20
-4254.089
 30
2027.000
 70
    32
  0
VERTEX
  8
3200LEVEL
 62
7
 10
3329.077
 20
-4256.311
 30
2027.000
 70
    32
  0
VERTEX
  8
3200LEVEL
 62
7
 10
3330.588
 20
-4258.042
 30
2027.000
 70
    32
  0
VERTEX
  8
3200LEVEL
 62
7
 10
3331.067
 20
-4255.308
 30
2027.000
 70
    32
  0
VERTEX
  8
3200LEVEL
 62
7
 10
3330.394
 20
-4251.531
 30
2027.000
 70
    32
  0
VERTEX
  8
3200LEVEL
 62
7
 10
3330.720
 20
-4249.072
 30
2027.000
 70
    32
  0
VERTEX
  8
3200LEVEL
 62
7
 10
3333.030
 20
-4248.790
 30
2027.000
 70
    32
  0
VERTEX
  8
3200LEVEL
 62
7
 10
3340.104
 20
-4252.475
 30
2027.000
 70
    32
  0
VERTEX
  8
3200LEVEL
 62
7
 10
3342.592
 20
-4255.205
 30
2027.000
 70
    32
  0
VERTEX
  8
3200LEVEL
 62
7
 10
3344.542
 20
-4256.603
 30
2027.000
 70
    32
  0
VERTEX
  8
3200LEVEL
 62
7
 10
3347.127
 20
-4255.733
 30
2027.000
 70
    32
  0
VERTEX
  8
3200LEVEL
 62
7
 10
3350.741
 20
-4259.328
 30
2027.000
 70
    32
  0
VERTEX
  8
3200LEVEL
 62
7
 10
3354.499
 20
-4261.375
 30
2027.000
 70
    32
  0
VERTEX
  8
3200LEVEL
 62
7
 10
3356.309
 20
-4261.954
 30
2027.000
 70
    32
  0
VERTEX
  8
3200LEVEL
 62
7
 10
3357.857
 20
-4264.393
 30
2027.000
 70
    32
  0
VERTEX
  8
3200LEVEL
 62
7
 10
3359.563
 20
-4266.486
 30
2027.000
 70
    32
  0
VERTEX
  8
3200LEVEL
 62
7
 10
3361.326
 20
-4266.568
 30
2027.000
 70
    32
  0
VERTEX
  8
3200LEVEL
 62
7
 10
3363.858
 20
-4269.123
 30
2027.000
 70
    32
  0
VERTEX
  8
3200LEVEL
 62
7
 10
3367.079
 20
-4272.064
 30
2027.000
 70
    32
  0
VERTEX
  8
3200LEVEL
 62
7
 10
3369.206
 20
-4273.435
 30
2027.000
 70
    32
  0
VERTEX
  8
3200LEVEL
 62
7
 10
3371.523
 20
-4278.348
 30
2027.000
 70
    32
  0
VERTEX
  8
3200LEVEL
 62
7
 10
3376.565
 20
-4286.992
 30
2027.000
 70
    32
  0
VERTEX
  8
3200LEVEL
 62
7
 10
3380.748
 20
-4293.582
 30
2027.000
 70
    32
  0
VERTEX
  8
3200LEVEL
 62
7
 10
3386.733
 20
-4301.704
 30
2027.000
 70
    32
  0
VERTEX
  8
3200LEVEL
 62
7
 10
3392.963
 20
-4309.873
 30
2027.000
 70
    32
  0
VERTEX
  8
3200LEVEL
 62
7
 10
3398.190
 20
-4316.052
 30
2027.000
 70
    32
  0
VERTEX
  8
3200LEVEL
 62
7
 10
3402.215
 20
-4319.948
 30
2027.000
 70
    32
  0
VERTEX
  8
3200LEVEL
 62
7
 10
3405.378
 20
-4322.604
 30
2027.000
 70
    32
  0
VERTEX
  8
3200LEVEL
 62
7
 10
3406.031
 20
-4323.765
 30
2027.000
 70
    32
  0
VERTEX
  8
3200LEVEL
 62
7
 10
3404.693
 20
-4322.890
 30
2027.000
 70
    32
  0
VERTEX
  8
3200LEVEL
 62
7
 10
3402.223
 20
-4321.292
 30
2027.000
 70
    32
  0
VERTEX
  8
3200LEVEL
 62
7
 10
3400.089
 20
-4320.062
 30
2027.000
 70
    32
  0
VERTEX
  8
3200LEVEL
 62
7
 10
3397.673
 20
-4318.819
 30
2027.000
 70
    32
  0
VERTEX
  8
3200LEVEL
 62
7
 10
3396.336
 20
-4318.687
 30
2027.000
 70
    32
  0
VERTEX
  8
3200LEVEL
 62
7
 10
3397.572
 20
-4321.006
 30
2027.000
 70
    32
  0
VERTEX
  8
3200LEVEL
 62
7
 10
3402.198
 20
-4324.895
 30
2027.000
 70
    32
  0
VERTEX
  8
3200LEVEL
 62
7
 10
3409.322
 20
-4331.303
 30
2027.000
 70
    32
  0
VERTEX
  8
3200LEVEL
 62
7
 10
3420.303
 20
-4341.423
 30
2027.000
 70
    32
  0
VERTEX
  8
3200LEVEL
 62
7
 10
3434.513
 20
-4358.125
 30
2027.000
 70
    32
  0
VERTEX
  8
3200LEVEL
 62
7
 10
3442.677
 20
-4368.044
 30
2027.000
 70
    32
  0
VERTEX
  8
3200LEVEL
 62
7
 10
3449.472
 20
-4374.684
 30
2027.000
 70
    32
  0
VERTEX
  8
3200LEVEL
 62
7
 10
3455.428
 20
-4381.144
 30
2027.000
 70
    32
  0
VERTEX
  8
3200LEVEL
 62
7
 10
3462.892
 20
-4387.850
 30
2027.000
 70
    32
  0
VERTEX
  8
3200LEVEL
 62
7
 10
3468.308
 20
-4395.275
 30
2027.000
 70
    32
  0
VERTEX
  8
3200LEVEL
 62
7
 10
3471.341
 20
-4400.751
 30
2027.000
 70
    32
  0
VERTEX
  8
3200LEVEL
 62
7
 10
3475.792
 20
-4411.488
 30
2027.000
 70
    32
  0
VERTEX
  8
3200LEVEL
 62
7
 10
3479.852
 20
-4422.242
 30
2027.000
 70
    32
  0
VERTEX
  8
3200LEVEL
 62
7
 10
3484.020
 20
-4432.224
 30
2027.000
 70
    32
  0
VERTEX
  8
3200LEVEL
 62
7
 10
3487.728
 20
-4440.664
 30
2027.000
 70
    32
  0
VERTEX
  8
3200LEVEL
 62
7
 10
3493.072
 20
-4451.937
 30
2027.000
 70
    32
  0
VERTEX
  8
3200LEVEL
 62
7
 10
3496.496
 20
-4455.842
 30
2027.000
 70
    32
  0
VERTEX
  8
3200LEVEL
 62
7
 10
3502.026
 20
-4462.353
 30
2027.000
 70
    32
  0
VERTEX
  8
3200LEVEL
 62
7
 10
3505.992
 20
-4467.519
 30
2027.000
 70
    32
  0
VERTEX
  8
3200LEVEL
 62
7
 10
3510.883
 20
-4474.071
 30
2027.000
 70
    32
  0
VERTEX
  8
3200LEVEL
 62
7
 10
3514.589
 20
-4480.285
 30
2027.000
 70
    32
  0
VERTEX
  8
3200LEVEL
 62
7
 10
3516.714
 20
-4485.508
 30
2027.000
 70
    32
  0
VERTEX
  8
3200LEVEL
 62
7
 10
3519.771
 20
-4491.233
 30
2027.000
 70
    32
  0
VERTEX
  8
3200LEVEL
 62
7
 10
3524.996
 20
-4501.263
 30
2027.000
 70
    32
  0
VERTEX
  8
3200LEVEL
 62
7
 10
3528.108
 20
-4508.086
 30
2027.000
 70
    32
  0
VERTEX
  8
3200LEVEL
 62
7
 10
3532.605
 20
-4518.578
 30
2027.000
 70
    32
  0
VERTEX
  8
3200LEVEL
 62
7
 10
3536.218
 20
-4526.025
 30
2027.000
 70
    32
  0
VERTEX
  8
3200LEVEL
 62
7
 10
3539.923
 20
-4533.794
 30
2027.000
 70
    32
  0
VERTEX
  8
3200LEVEL
 62
7
 10
3545.522
 20
-4542.605
 30
2027.000
 70
    32
  0
VERTEX
  8
3200LEVEL
 62
7
 10
3553.063
 20
-4551.471
 30
2027.000
 70
    32
  0
VERTEX
  8
3200LEVEL
 62
7
 10
3558.712
 20
-4556.927
 30
2027.000
 70
    32
  0
VERTEX
  8
3200LEVEL
 62
7
 10
3567.778
 20
-4564.131
 30
2027.000
 70
    32
  0
VERTEX
  8
3200LEVEL
 62
7
 10
3574.237
 20
-4567.363
 30
2027.000
 70
    32
  0
VERTEX
  8
3200LEVEL
 62
7
 10
3578.617
 20
-4568.167
 30
2027.000
 70
    32
  0
VERTEX
  8
3200LEVEL
 62
7
 10
3581.719
 20
-4567.568
 30
2027.000
 70
    32
  0
VERTEX
  8
3200LEVEL
 62
7
 10
3584.860
 20
-4566.124
 30
2027.000
 70
    32
  0
VERTEX
  8
3200LEVEL
 62
7
 10
3587.333
 20
-4564.613
 30
2027.000
 70
    32
  0
VERTEX
  8
3200LEVEL
 62
7
 10
3591.624
 20
-4561.242
 30
2027.000
 70
    32
  0
VERTEX
  8
3200LEVEL
 62
7
 10
3594.030
 20
-4559.657
 30
2027.000
 70
    32
  0
VERTEX
  8
3200LEVEL
 62
7
 10
3596.302
 20
-4558.667
 30
2027.000
 70
    32
  0
VERTEX
  8
3200LEVEL
 62
7
 10
3597.127
 20
-4558.387
 30
2027.000
 70
    32
  0
VERTEX
  8
3200LEVEL
 62
7
 10
3598.161
 20
-4557.445
 30
2027.000
 70
    32
  0
VERTEX
  8
3200LEVEL
 62
7
 10
3600.019
 20
-4556.224
 30
2027.000
 70
    32
  0
VERTEX
  8
3200LEVEL
 62
7
 10
3602.995
 20
-4556.821
 30
2027.000
 70
    32
  0
VERTEX
  8
3200LEVEL
 62
7
 10
3604.970
 20
-4556.913
 30
2027.000
 70
    32
  0
VERTEX
  8
3200LEVEL
 62
7
 10
3605.696
 20
-4554.967
 30
2027.000
 70
    32
  0
VERTEX
  8
3200LEVEL
 62
7
 10
3602.020
 20
-4550.415
 30
2027.000
 70
    32
  0
VERTEX
  8
3200LEVEL
 62
7
 10
3599.071
 20
-4545.402
 30
2027.000
 70
    32
  0
VERTEX
  8
3200LEVEL
 62
7
 10
3596.086
 20
-4537.383
 30
2027.000
 70
    32
  0
VERTEX
  8
3200LEVEL
 62
7
 10
3596.643
 20
-4534.511
 30
2027.000
 70
    32
  0
VERTEX
  8
3200LEVEL
 62
7
 10
3602.586
 20
-4529.026
 30
2027.000
 70
    32
  0
VERTEX
  8
3200LEVEL
 62
7
 10
3606.151
 20
-4528.343
 30
2027.000
 70
    32
  0
VERTEX
  8
3200LEVEL
 62
7
 10
3612.821
 20
-4530.843
 30
2027.000
 70
    32
  0
VERTEX
  8
3200LEVEL
 62
7
 10
3618.488
 20
-4537.431
 30
2027.000
 70
    32
  0
VERTEX
  8
3200LEVEL
 62
7
 10
3621.665
 20
-4545.140
 30
2027.000
 70
    32
  0
VERTEX
  8
3200LEVEL
 62
7
 10
3628.512
 20
-4562.879
 30
2027.000
 70
    32
  0
VERTEX
  8
3200LEVEL
 62
7
 10
3638.167
 20
-4578.733
 30
2027.000
 70
    32
  0
VERTEX
  8
3200LEVEL
 62
7
 10
3648.827
 20
-4589.687
 30
2027.000
 70
    32
  0
VERTEX
  8
3200LEVEL
 62
7
 10
3671.693
 20
-4607.955
 30
2027.000
 70
    32
  0
VERTEX
  8
3200LEVEL
 62
7
 10
3693.797
 20
-4625.906
 30
2027.000
 70
    32
  0
VERTEX
  8
3200LEVEL
 62
7
 10
3708.222
 20
-4637.210
 30
2027.000
 70
    32
  0
VERTEX
  8
3200LEVEL
 62
7
 10
3727.398
 20
-4651.208
 30
2027.000
 70
    32
  0
VERTEX
  8
3200LEVEL
 62
7
 10
3740.561
 20
-4660.758
 30
2027.000
 70
    32
  0
VERTEX
  8
3200LEVEL
 62
7
 10
3747.868
 20
-4665.514
 30
2027.000
 70
    32
  0
VERTEX
  8
3200LEVEL
 62
7
 10
3752.879
 20
-4667.972
 30
2027.000
 70
    32
  0
VERTEX
  8
3200LEVEL
 62
7
 10
3754.889
 20
-4667.288
 30
2027.000
 70
    32
  0
VERTEX
  8
3200LEVEL
 62
7
 10
3755.851
 20
-4663.304
 30
2027.000
 70
    32
  0
VERTEX
  8
3200LEVEL
 62
7
 10
3750.390
 20
-4652.273
 30
2027.000
 70
    32
  0
VERTEX
  8
3200LEVEL
 62
7
 10
3742.985
 20
-4639.703
 30
2027.000
 70
    32
  0
VERTEX
  8
3200LEVEL
 62
7
 10
3736.641
 20
-4626.369
 30
2027.000
 70
    32
  0
VERTEX
  8
3200LEVEL
 62
7
 10
3730.661
 20
-4614.325
 30
2027.000
 70
    32
  0
VERTEX
  8
3200LEVEL
 62
7
 10
3728.892
 20
-4609.790
 30
2027.000
 70
    32
  0
VERTEX
  8
3200LEVEL
 62
7
 10
3728.560
 20
-4607.796
 30
2027.000
 70
    32
  0
VERTEX
  8
3200LEVEL
 62
7
 10
3731.258
 20
-4611.349
 30
2027.000
 70
    32
  0
VERTEX
  8
3200LEVEL
 62
7
 10
3734.938
 20
-4615.830
 30
2027.000
 70
    32
  0
VERTEX
  8
3200LEVEL
 62
7
 10
3737.924
 20
-4619.255
 30
2027.000
 70
    32
  0
VERTEX
  8
3200LEVEL
 62
7
 10
3740.927
 20
-4622.327
 30
2027.000
 70
    32
  0
VERTEX
  8
3200LEVEL
 62
7
 10
3744.100
 20
-4624.771
 30
2027.000
 70
    32
  0
VERTEX
  8
3200LEVEL
 62
7
 10
3744.939
 20
-4624.209
 30
2027.000
 70
    32
  0
VERTEX
  8
3200LEVEL
 62
7
 10
3742.311
 20
-4619.918
 30
2027.000
 70
    32
  0
VERTEX
  8
3200LEVEL
 62
7
 10
3737.708
 20
-4613.238
 30
2027.000
 70
    32
  0
VERTEX
  8
3200LEVEL
 62
7
 10
3733.711
 20
-4604.925
 30
2027.000
 70
    32
  0
VERTEX
  8
3200LEVEL
 62
7
 10
3732.039
 20
-4600.571
 30
2027.000
 70
    32
  0
VERTEX
  8
3200LEVEL
 62
7
 10
3732.098
 20
-4599.302
 30
2027.000
 70
    32
  0
VERTEX
  8
3200LEVEL
 62
7
 10
3735.077
 20
-4602.126
 30
2027.000
 70
    32
  0
VERTEX
  8
3200LEVEL
 62
7
 10
3737.030
 20
-4603.453
 30
2027.000
 70
    32
  0
VERTEX
  8
3200LEVEL
 62
7
 10
3738.440
 20
-4602.776
 30
2027.000
 70
    32
  0
VERTEX
  8
3200LEVEL
 62
7
 10
3738.060
 20
-4597.988
 30
2027.000
 70
    32
  0
VERTEX
  8
3200LEVEL
 62
7
 10
3735.895
 20
-4590.573
 30
2027.000
 70
    32
  0
VERTEX
  8
3200LEVEL
 62
7
 10
3735.514
 20
-4587.339
 30
2027.000
 70
    32
  0
VERTEX
  8
3200LEVEL
 62
7
 10
3737.032
 20
-4587.374
 30
2027.000
 70
    32
  0
VERTEX
  8
3200LEVEL
 62
7
 10
3740.977
 20
-4594.518
 30
2027.000
 70
    32
  0
VERTEX
  8
3200LEVEL
 62
7
 10
3744.786
 20
-4600.031
 30
2027.000
 70
    32
  0
VERTEX
  8
3200LEVEL
 62
7
 10
3751.603
 20
-4610.029
 30
2027.000
 70
    32
  0
VERTEX
  8
3200LEVEL
 62
7
 10
3756.342
 20
-4615.302
 30
2027.000
 70
    32
  0
VERTEX
  8
3200LEVEL
 62
7
 10
3758.180
 20
-4616.800
 30
2027.000
 70
    32
  0
VERTEX
  8
3200LEVEL
 62
7
 10
3757.087
 20
-4612.933
 30
2027.000
 70
    32
  0
VERTEX
  8
3200LEVEL
 62
7
 10
3751.677
 20
-4605.368
 30
2027.000
 70
    32
  0
VERTEX
  8
3200LEVEL
 62
7
 10
3749.248
 20
-4601.368
 30
2027.000
 70
    32
  0
VERTEX
  8
3200LEVEL
 62
7
 10
3748.445
 20
-4598.857
 30
2027.000
 70
    32
  0
VERTEX
  8
3200LEVEL
 62
7
 10
3748.204
 20
-4597.185
 30
2027.000
 70
    32
  0
VERTEX
  8
3200LEVEL
 62
7
 10
3751.801
 20
-4601.946
 30
2027.000
 70
    32
  0
VERTEX
  8
3200LEVEL
 62
7
 10
3755.676
 20
-4606.790
 30
2027.000
 70
    32
  0
VERTEX
  8
3200LEVEL
 62
7
 10
3759.458
 20
-4610.569
 30
2027.000
 70
    32
  0
VERTEX
  8
3200LEVEL
 62
7
 10
3762.511
 20
-4613.326
 30
2027.000
 70
    32
  0
VERTEX
  8
3200LEVEL
 62
7
 10
3763.744
 20
-4613.418
 30
2027.000
 70
    32
  0
VERTEX
  8
3200LEVEL
 62
7
 10
3759.592
 20
-4604.639
 30
2027.000
 70
    32
  0
VERTEX
  8
3200LEVEL
 62
7
 10
3753.952
 20
-4593.635
 30
2027.000
 70
    32
  0
VERTEX
  8
3200LEVEL
 62
7
 10
3747.626
 20
-4581.433
 30
2027.000
 70
    32
  0
VERTEX
  8
3200LEVEL
 62
7
 10
3739.612
 20
-4565.230
 30
2027.000
 70
    32
  0
VERTEX
  8
3200LEVEL
 62
7
 10
3728.255
 20
-4544.915
 30
2027.000
 70
    32
  0
VERTEX
  8
3200LEVEL
 62
7
 10
3715.018
 20
-4522.464
 30
2027.000
 70
    32
  0
VERTEX
  8
3200LEVEL
 62
7
 10
3703.672
 20
-4503.421
 30
2027.000
 70
    32
  0
VERTEX
  8
3200LEVEL
 62
7
 10
3695.091
 20
-4487.263
 30
2027.000
 70
    32
  0
VERTEX
  8
3200LEVEL
 62
7
 10
3686.352
 20
-4471.451
 30
2027.000
 70
    32
  0
VERTEX
  8
3200LEVEL
 62
7
 10
3681.153
 20
-4460.856
 30
2027.000
 70
    32
  0
VERTEX
  8
3200LEVEL
 62
7
 10
3674.709
 20
-4450.451
 30
2027.000
 70
    32
  0
VERTEX
  8
3200LEVEL
 62
7
 10
3669.413
 20
-4442.714
 30
2027.000
 70
    32
  0
VERTEX
  8
3200LEVEL
 62
7
 10
3664.168
 20
-4433.107
 30
2027.000
 70
    32
  0
VERTEX
  8
3200LEVEL
 62
7
 10
3661.711
 20
-4425.890
 30
2027.000
 70
    32
  0
VERTEX
  8
3200LEVEL
 62
7
 10
3662.094
 20
-4416.084
 30
2027.000
 70
    32
  0
VERTEX
  8
3200LEVEL
 62
7
 10
3666.620
 20
-4408.378
 30
2027.000
 70
    32
  0
VERTEX
  8
3200LEVEL
 62
7
 10
3671.272
 20
-4401.031
 30
2027.000
 70
    32
  0
VERTEX
  8
3200LEVEL
 62
7
 10
3672.149
 20
-4394.286
 30
2027.000
 70
    32
  0
VERTEX
  8
3200LEVEL
 62
7
 10
3674.719
 20
-4382.284
 30
2027.000
 70
    32
  0
VERTEX
  8
3200LEVEL
 62
7
 10
3680.815
 20
-4372.743
 30
2027.000
 70
    32
  0
VERTEX
  8
3200LEVEL
 62
7
 10
3685.194
 20
-4367.468
 30
2027.000
 70
    32
  0
VERTEX
  8
3200LEVEL
 62
7
 10
3692.900
 20
-4362.064
 30
2027.000
 70
    32
  0
VERTEX
  8
3200LEVEL
 62
7
 10
3700.022
 20
-4358.613
 30
2027.000
 70
    32
  0
VERTEX
  8
3200LEVEL
 62
7
 10
3704.488
 20
-4358.325
 30
2027.000
 70
    32
  0
VERTEX
  8
3200LEVEL
 62
7
 10
3709.059
 20
-4358.819
 30
2027.000
 70
    32
  0
VERTEX
  8
3200LEVEL
 62
7
 10
3710.799
 20
-4359.395
 30
2027.000
 70
    32
  0
VERTEX
  8
3200LEVEL
 62
7
 10
3713.074
 20
-4360.631
 30
2027.000
 70
    32
  0
VERTEX
  8
3200LEVEL
 62
7
 10
3748.586
 20
-4396.339
 30
2027.000
 70
    32
  0
VERTEX
  8
3200LEVEL
 62
7
 10
3791.870
 20
-4435.271
 30
2027.000
 70
    32
  0
VERTEX
  8
3200LEVEL
 62
7
 10
3837.760
 20
-4482.384
 30
2027.000
 70
    32
  0
VERTEX
  8
3200LEVEL
 62
7
 10
3879.562
 20
-4522.868
 30
2027.000
 70
    32
  0
VERTEX
  8
3200LEVEL
 62
7
 10
3894.372
 20
-4514.410
 30
2027.000
 70
    32
  0
VERTEX
  8
3200LEVEL
 62
7
 10
3898.686
 20
-4463.150
 30
2027.000
 70
    32
  0
VERTEX
  8
3200LEVEL
 62
7
 10
3920.837
 20
-4420.991
 30
2027.000
 70
    32
  0
VERTEX
  8
3200LEVEL
 62
7
 10
3916.128
 20
-4362.395
 30
2027.000
 70
    32
  0
VERTEX
  8
3200LEVEL
 62
7
 10
3925.310
 20
-4298.233
 30
2027.000
 70
    32
  0
VERTEX
  8
3200LEVEL
 62
7
 10
3909.171
 20
-4266.711
 30
2027.000
 70
    32
  0
VERTEX
  8
3200LEVEL
 62
7
 10
3890.709
 20
-4221.509
 30
2027.000
 70
    32
  0
VERTEX
  8
3200LEVEL
 62
7
 10
3865.975
 20
-4162.062
 30
2027.000
 70
    32
  0
VERTEX
  8
3200LEVEL
 62
7
 10
3847.867
 20
-4109.104
 30
2027.000
 70
    32
  0
VERTEX
  8
3200LEVEL
 62
7
 10
3852.949
 20
-4089.433
 30
2027.000
 70
    32
  0
VERTEX
  8
3200LEVEL
 62
7
 10
3866.490
 20
-4077.521
 30
2027.000
 70
    32
  0
SEQEND
  8
3200LEVEL
  0
POLYLINE
  8
3200LEVEL
 62
3
 66
     1
 70
     8
  0
VERTEX
  8
3200LEVEL
 62
3
 10
3279.803
 20
-4910.790
 30
2027.000
 70
    32
  0
VERTEX
  8
3200LEVEL
 62
3
 10
3278.627
 20
-4907.944
 30
2027.000
 70
    32
  0
VERTEX
  8
3200LEVEL
 62
3
 10
3276.523
 20
-4903.783
 30
2027.000
 70
    32
  0
VERTEX
  8
3200LEVEL
 62
3
 10
3273.543
 20
-4900.217
 30
2027.000
 70
    32
  0
VERTEX
  8
3200LEVEL
 62
3
 10
3270.329
 20
-4897.877
 30
2027.000
 70
    32
  0
VERTEX
  8
3200LEVEL
 62
3
 10
3266.977
 20
-4894.718
 30
2027.000
 70
    32
  0
VERTEX
  8
3200LEVEL
 62
3
 10
3264.043
 20
-4890.165
 30
2027.000
 70
    32
  0
VERTEX
  8
3200LEVEL
 62
3
 10
3262.853
 20
-4886.859
 30
2027.000
 70
    32
  0
VERTEX
  8
3200LEVEL
 62
3
 10
3262.308
 20
-4883.371
 30
2027.000
 70
    32
  0
VERTEX
  8
3200LEVEL
 62
3
 10
3260.811
 20
-4881.358
 30
2027.000
 70
    32
  0
VERTEX
  8
3200LEVEL
 62
3
 10
3258.926
 20
-4880.846
 30
2027.000
 70
    32
  0
VERTEX
  8
3200LEVEL
 62
3
 10
3257.538
 20
-4880.287
 30
2027.000
 70
    32
  0
VERTEX
  8
3200LEVEL
 62
3
 10
3256.166
 20
-4878.634
 30
2027.000
 70
    32
  0
VERTEX
  8
3200LEVEL
 62
3
 10
3256.393
 20
-4877.549
 30
2027.000
 70
    32
  0
VERTEX
  8
3200LEVEL
 62
3
 10
3257.062
 20
-4875.318
 30
2027.000
 70
    32
  0
VERTEX
  8
3200LEVEL
 62
3
 10
3256.918
 20
-4870.788
 30
2027.000
 70
    32
  0
VERTEX
  8
3200LEVEL
 62
3
 10
3255.007
 20
-4865.505
 30
2027.000
 70
    32
  0
VERTEX
  8
3200LEVEL
 62
3
 10
3252.927
 20
-4861.592
 30
2027.000
 70
    32
  0
VERTEX
  8
3200LEVEL
 62
3
 10
3250.607
 20
-4857.492
 30
2027.000
 70
    32
  0
VERTEX
  8
3200LEVEL
 62
3
 10
3248.952
 20
-4855.083
 30
2027.000
 70
    32
  0
SEQEND
  8
3200LEVEL
  0
POLYLINE
  8
3200LEVEL
 62
3
 66
     1
 70
     8
  0
VERTEX
  8
3200LEVEL
 62
3
 10
3381.872
 20
-5021.212
 30
2027.000
 70
    32
  0
VERTEX
  8
3200LEVEL
 62
3
 10
3384.388
 20
-5024.120
 30
2027.000
 70
    32
  0
VERTEX
  8
3200LEVEL
 62
3
 10
3387.751
 20
-5027.810
 30
2027.000
 70
    32
  0
SEQEND
  8
3200LEVEL
  0
POLYLINE
  8
3200LEVEL
 62
3
 66
     1
 70
     8
  0
VERTEX
  8
3200LEVEL
 62
3
 10
3400.775
 20
-5064.775
 30
2027.000
 70
    32
  0
VERTEX
  8
3200LEVEL
 62
3
 10
3403.379
 20
-5068.076
 30
2027.000
 70
    32
  0
VERTEX
  8
3200LEVEL
 62
3
 10
3405.454
 20
-5070.575
 30
2027.000
 70
    32
  0
VERTEX
  8
3200LEVEL
 62
3
 10
3408.465
 20
-5074.249
 30
2027.000
 70
    32
  0
VERTEX
  8
3200LEVEL
 62
3
 10
3411.391
 20
-5077.459
 30
2027.000
 70
    32
  0
VERTEX
  8
3200LEVEL
 62
3
 10
3414.378
 20
-5081.625
 30
2027.000
 70
    32
  0
SEQEND
  8
3200LEVEL
  0
POLYLINE
  8
3200LEVEL
 62
3
 66
     1
 70
     8
  0
VERTEX
  8
3200LEVEL
 62
3
 10
3255.834
 20
-4815.575
 30
2027.000
 70
    32
  0
VERTEX
  8
3200LEVEL
 62
3
 10
3256.657
 20
-4818.405
 30
2027.000
 70
    32
  0
VERTEX
  8
3200LEVEL
 62
3
 10
3257.832
 20
-4822.806
 30
2027.000
 70
    32
  0
VERTEX
  8
3200LEVEL
 62
3
 10
3258.877
 20
-4826.176
 30
2027.000
 70
    32
  0
VERTEX
  8
3200LEVEL
 62
3
 10
3259.674
 20
-4831.867
 30
2027.000
 70
    32
  0
VERTEX
  8
3200LEVEL
 62
3
 10
3261.674
 20
-4838.285
 30
2027.000
 70
    32
  0
VERTEX
  8
3200LEVEL
 62
3
 10
3263.860
 20
-4843.722
 30
2027.000
 70
    32
  0
VERTEX
  8
3200LEVEL
 62
3
 10
3266.560
 20
-4851.056
 30
2027.000
 70
    32
  0
VERTEX
  8
3200LEVEL
 62
3
 10
3268.889
 20
-4857.242
 30
2027.000
 70
    32
  0
VERTEX
  8
3200LEVEL
 62
3
 10
3271.948
 20
-4867.491
 30
2027.000
 70
    32
  0
VERTEX
  8
3200LEVEL
 62
3
 10
3274.721
 20
-4874.757
 30
2027.000
 70
    32
  0
VERTEX
  8
3200LEVEL
 62
3
 10
3278.459
 20
-4884.860
 30
2027.000
 70
    32
  0
VERTEX
  8
3200LEVEL
 62
3
 10
3282.495
 20
-4894.624
 30
2027.000
 70
    32
  0
VERTEX
  8
3200LEVEL
 62
3
 10
3285.149
 20
-4900.648
 30
2027.000
 70
    32
  0
VERTEX
  8
3200LEVEL
 62
3
 10
3287.635
 20
-4906.488
 30
2027.000
 70
    32
  0
VERTEX
  8
3200LEVEL
 62
3
 10
3289.255
 20
-4909.673
 30
2027.000
 70
    32
  0
VERTEX
  8
3200LEVEL
 62
3
 10
3289.929
 20
-4910.508
 30
2027.000
 70
    32
  0
SEQEND
  8
3200LEVEL
  0
POLYLINE
  8
3200LEVEL
 62
3
 66
     1
 70
     8
  0
VERTEX
  8
3200LEVEL
 62
3
 10
3438.766
 20
-4610.530
 30
2027.000
 70
    32
  0
VERTEX
  8
3200LEVEL
 62
3
 10
3433.785
 20
-4607.437
 30
2027.000
 70
    32
  0
VERTEX
  8
3200LEVEL
 62
3
 10
3429.736
 20
-4605.589
 30
2027.000
 70
    32
  0
VERTEX
  8
3200LEVEL
 62
3
 10
3425.408
 20
-4602.915
 30
2027.000
 70
    32
  0
VERTEX
  8
3200LEVEL
 62
3
 10
3421.501
 20
-4599.518
 30
2027.000
 70
    32
  0
VERTEX
  8
3200LEVEL
 62
3
 10
3418.592
 20
-4596.698
 30
2027.000
 70
    32
  0
VERTEX
  8
3200LEVEL
 62
3
 10
3414.841
 20
-4593.768
 30
2027.000
 70
    32
  0
VERTEX
  8
3200LEVEL
 62
3
 10
3413.174
 20
-4593.125
 30
2027.000
 70
    32
  0
VERTEX
  8
3200LEVEL
 62
3
 10
3412.352
 20
-4593.335
 30
2027.000
 70
    32
  0
VERTEX
  8
3200LEVEL
 62
3
 10
3410.687
 20
-4594.176
 30
2027.000
 70
    32
  0
VERTEX
  8
3200LEVEL
 62
3
 10
3409.943
 20
-4594.990
 30
2027.000
 70
    32
  0
VERTEX
  8
3200LEVEL
 62
3
 10
3407.897
 20
-4597.192
 30
2027.000
 70
    32
  0
VERTEX
  8
3200LEVEL
 62
3
 10
3405.454
 20
-4598.069
 30
2027.000
 70
    32
  0
VERTEX
  8
3200LEVEL
 62
3
 10
3404.614
 20
-4597.888
 30
2027.000
 70
    32
  0
VERTEX
  8
3200LEVEL
 62
3
 10
3403.408
 20
-4597.232
 30
2027.000
 70
    32
  0
VERTEX
  8
3200LEVEL
 62
3
 10
3402.684
 20
-4596.543
 30
2027.000
 70
    32
  0
SEQEND
  8
3200LEVEL
  0
POLYLINE
  8
3200LEVEL
 62
3
 66
     1
 70
     8
  0
VERTEX
  8
3200LEVEL
 62
3
 10
3468.242
 20
-4647.339
 30
2027.000
 70
    32
  0
VERTEX
  8
3200LEVEL
 62
3
 10
3467.636
 20
-4645.685
 30
2027.000
 70
    32
  0
VERTEX
  8
3200LEVEL
 62
3
 10
3466.927
 20
-4643.426
 30
2027.000
 70
    32
  0
VERTEX
  8
3200LEVEL
 62
3
 10
3466.252
 20
-4642.759
 30
2027.000
 70
    32
  0
VERTEX
  8
3200LEVEL
 62
3
 10
3464.606
 20
-4640.138
 30
2027.000
 70
    32
  0
VERTEX
  8
3200LEVEL
 62
3
 10
3463.135
 20
-4637.561
 30
2027.000
 70
    32
  0
VERTEX
  8
3200LEVEL
 62
3
 10
3458.575
 20
-4633.004
 30
2027.000
 70
    32
  0
VERTEX
  8
3200LEVEL
 62
3
 10
3455.101
 20
-4628.673
 30
2027.000
 70
    32
  0
VERTEX
  8
3200LEVEL
 62
3
 10
3452.970
 20
-4625.076
 30
2027.000
 70
    32
  0
VERTEX
  8
3200LEVEL
 62
3
 10
3450.809
 20
-4621.371
 30
2027.000
 70
    32
  0
VERTEX
  8
3200LEVEL
 62
3
 10
3448.794
 20
-4618.345
 30
2027.000
 70
    32
  0
VERTEX
  8
3200LEVEL
 62
3
 10
3447.708
 20
-4617.376
 30
2027.000
 70
    32
  0
SEQEND
  8
3200LEVEL
  0
POLYLINE
  8
3200LEVEL
 62
3
 66
     1
 70
     8
  0
VERTEX
  8
3200LEVEL
 62
3
 10
3527.070
 20
-4663.620
 30
2027.000
 70
    32
  0
VERTEX
  8
3200LEVEL
 62
3
 10
3522.956
 20
-4657.540
 30
2027.000
 70
    32
  0
VERTEX
  8
3200LEVEL
 62
3
 10
3516.944
 20
-4648.498
 30
2027.000
 70
    32
  0
VERTEX
  8
3200LEVEL
 62
3
 10
3513.828
 20
-4644.042
 30
2027.000
 70
    32
  0
VERTEX
  8
3200LEVEL
 62
3
 10
3510.687
 20
-4637.854
 30
2027.000
 70
    32
  0
VERTEX
  8
3200LEVEL
 62
3
 10
3509.089
 20
-4631.137
 30
2027.000
 70
    32
  0
VERTEX
  8
3200LEVEL
 62
3
 10
3508.119
 20
-4626.144
 30
2027.000
 70
    32
  0
VERTEX
  8
3200LEVEL
 62
3
 10
3506.719
 20
-4618.977
 30
2027.000
 70
    32
  0
VERTEX
  8
3200LEVEL
 62
3
 10
3504.490
 20
-4612.159
 30
2027.000
 70
    32
  0
VERTEX
  8
3200LEVEL
 62
3
 10
3501.915
 20
-4607.481
 30
2027.000
 70
    32
  0
VERTEX
  8
3200LEVEL
 62
3
 10
3500.742
 20
-4606.120
 30
2027.000
 70
    32
  0
VERTEX
  8
3200LEVEL
 62
3
 10
3500.072
 20
-4605.311
 30
2027.000
 70
    32
  0
SEQEND
  8
3200LEVEL
  0
POLYLINE
  8
3200LEVEL
 62
5
 66
     1
 70
     9
  0
VERTEX
  8
3200LEVEL
 62
5
 10
3032.549
 20
-4486.205
 30
2027.000
 70
    32
  0
VERTEX
  8
3200LEVEL
 62
5
 10
3032.977
 20
-4492.233
 30
2027.000
 70
    32
  0
VERTEX
  8
3200LEVEL
 62
5
 10
3033.735
 20
-4496.473
 30
2027.000
 70
    32
  0
VERTEX
  8
3200LEVEL
 62
5
 10
3033.857
 20
-4502.981
 30
2027.000
 70
    32
  0
VERTEX
  8
3200LEVEL
 62
5
 10
3034.234
 20
-4508.582
 30
2027.000
 70
    32
  0
VERTEX
  8
3200LEVEL
 62
5
 10
3034.018
 20
-4512.494
 30
2027.000
 70
    32
  0
VERTEX
  8
3200LEVEL
 62
5
 10
3033.861
 20
-4515.879
 30
2027.000
 70
    32
  0
VERTEX
  8
3200LEVEL
 62
5
 10
3033.557
 20
-4517.102
 30
2027.000
 70
    32
  0
VERTEX
  8
3200LEVEL
 62
5
 10
3032.408
 20
-4514.434
 30
2027.000
 70
    32
  0
VERTEX
  8
3200LEVEL
 62
5
 10
3031.012
 20
-4507.196
 30
2027.000
 70
    32
  0
VERTEX
  8
3200LEVEL
 62
5
 10
3029.697
 20
-4498.194
 30
2027.000
 70
    32
  0
VERTEX
  8
3200LEVEL
 62
5
 10
3028.779
 20
-4492.074
 30
2027.000
 70
    32
  0
VERTEX
  8
3200LEVEL
 62
5
 10
3028.955
 20
-4482.929
 30
2027.000
 70
    32
  0
VERTEX
  8
3200LEVEL
 62
5
 10
3029.523
 20
-4472.955
 30
2027.000
 70
    32
  0
VERTEX
  8
3200LEVEL
 62
5
 10
3029.261
 20
-4463.331
 30
2027.000
 70
    32
  0
VERTEX
  8
3200LEVEL
 62
5
 10
3029.225
 20
-4458.770
 30
2027.000
 70
    32
  0
VERTEX
  8
3200LEVEL
 62
5
 10
3029.256
 20
-4454.284
 30
2027.000
 70
    32
  0
VERTEX
  8
3200LEVEL
 62
5
 10
3029.696
 20
-4451.654
 30
2027.000
 70
    32
  0
VERTEX
  8
3200LEVEL
 62
5
 10
3030.444
 20
-4450.770
 30
2027.000
 70
    32
  0
VERTEX
  8
3200LEVEL
 62
5
 10
3031.315
 20
-4451.799
 30
2027.000
 70
    32
  0
VERTEX
  8
3200LEVEL
 62
5
 10
3032.122
 20
-4455.724
 30
2027.000
 70
    32
  0
VERTEX
  8
3200LEVEL
 62
5
 10
3032.130
 20
-4461.661
 30
2027.000
 70
    32
  0
VERTEX
  8
3200LEVEL
 62
5
 10
3032.256
 20
-4468.099
 30
2027.000
 70
    32
  0
VERTEX
  8
3200LEVEL
 62
5
 10
3032.579
 20
-4473.344
 30
2027.000
 70
    32
  0
VERTEX
  8
3200LEVEL
 62
5
 10
3032.388
 20
-4478.989
 30
2027.000
 70
    32
  0
VERTEX
  8
3200LEVEL
 62
5
 10
3032.211
 20
-4482.055
 30
2027.000
 70
    32
  0
SEQEND
  8
3200LEVEL
  0
POLYLINE
  8
3200LEVEL
 62
5
 66
     1
 70
     9
  0
VERTEX
  8
3200LEVEL
 62
5
 10
3026.002
 20
-4801.684
 30
2027.000
 70
    32
  0
VERTEX
  8
3200LEVEL
 62
5
 10
3023.159
 20
-4795.156
 30
2027.000
 70
    32
  0
VERTEX
  8
3200LEVEL
 62
5
 10
3018.312
 20
-4781.539
 30
2027.000
 70
    32
  0
VERTEX
  8
3200LEVEL
 62
5
 10
3014.454
 20
-4767.154
 30
2027.000
 70
    32
  0
VERTEX
  8
3200LEVEL
 62
5
 10
3011.684
 20
-4756.778
 30
2027.000
 70
    32
  0
VERTEX
  8
3200LEVEL
 62
5
 10
3006.602
 20
-4738.308
 30
2027.000
 70
    32
  0
VERTEX
  8
3200LEVEL
 62
5
 10
3002.636
 20
-4725.509
 30
2027.000
 70
    32
  0
VERTEX
  8
3200LEVEL
 62
5
 10
3001.138
 20
-4715.121
 30
2027.000
 70
    32
  0
VERTEX
  8
3200LEVEL
 62
5
 10
3001.691
 20
-4706.983
 30
2027.000
 70
    32
  0
VERTEX
  8
3200LEVEL
 62
5
 10
3002.816
 20
-4704.809
 30
2027.000
 70
    32
  0
VERTEX
  8
3200LEVEL
 62
5
 10
3005.108
 20
-4703.396
 30
2027.000
 70
    32
  0
VERTEX
  8
3200LEVEL
 62
5
 10
3008.137
 20
-4705.904
 30
2027.000
 70
    32
  0
VERTEX
  8
3200LEVEL
 62
5
 10
3011.412
 20
-4713.794
 30
2027.000
 70
    32
  0
VERTEX
  8
3200LEVEL
 62
5
 10
3015.374
 20
-4725.922
 30
2027.000
 70
    32
  0
VERTEX
  8
3200LEVEL
 62
5
 10
3019.269
 20
-4735.679
 30
2027.000
 70
    32
  0
VERTEX
  8
3200LEVEL
 62
5
 10
3024.381
 20
-4749.662
 30
2027.000
 70
    32
  0
VERTEX
  8
3200LEVEL
 62
5
 10
3029.403
 20
-4763.323
 30
2027.000
 70
    32
  0
VERTEX
  8
3200LEVEL
 62
5
 10
3035.327
 20
-4775.824
 30
2027.000
 70
    32
  0
VERTEX
  8
3200LEVEL
 62
5
 10
3040.034
 20
-4785.584
 30
2027.000
 70
    32
  0
VERTEX
  8
3200LEVEL
 62
5
 10
3042.544
 20
-4791.672
 30
2027.000
 70
    32
  0
VERTEX
  8
3200LEVEL
 62
5
 10
3044.299
 20
-4795.746
 30
2027.000
 70
    32
  0
SEQEND
  8
3200LEVEL
  0
POLYLINE
  8
3200LEVEL
 62
5
 66
     1
 70
     9
  0
VERTEX
  8
3200LEVEL
 62
5
 10
3002.166
 20
-4802.065
 30
2027.000
 70
    32
  0
VERTEX
  8
3200LEVEL
 62
5
 10
2994.631
 20
-4777.050
 30
2027.000
 70
    32
  0
VERTEX
  8
3200LEVEL
 62
5
 10
2990.571
 20
-4757.108
 30
2027.000
 70
    32
  0
VERTEX
  8
3200LEVEL
 62
5
 10
2988.178
 20
-4745.442
 30
2027.000
 70
    32
  0
VERTEX
  8
3200LEVEL
 62
5
 10
2983.366
 20
-4727.267
 30
2027.000
 70
    32
  0
VERTEX
  8
3200LEVEL
 62
5
 10
2979.850
 20
-4712.368
 30
2027.000
 70
    32
  0
VERTEX
  8
3200LEVEL
 62
5
 10
2973.894
 20
-4687.603
 30
2027.000
 70
    32
  0
VERTEX
  8
3200LEVEL
 62
5
 10
2966.318
 20
-4664.990
 30
2027.000
 70
    32
  0
VERTEX
  8
3200LEVEL
 62
5
 10
2963.651
 20
-4651.614
 30
2027.000
 70
    32
  0
VERTEX
  8
3200LEVEL
 62
5
 10
2959.780
 20
-4629.879
 30
2027.000
 70
    32
  0
VERTEX
  8
3200LEVEL
 62
5
 10
2954.868
 20
-4610.039
 30
2027.000
 70
    32
  0
VERTEX
  8
3200LEVEL
 62
5
 10
2951.846
 20
-4597.460
 30
2027.000
 70
    32
  0
VERTEX
  8
3200LEVEL
 62
5
 10
2949.862
 20
-4590.689
 30
2027.000
 70
    32
  0
VERTEX
  8
3200LEVEL
 62
5
 10
2947.527
 20
-4584.644
 30
2027.000
 70
    32
  0
VERTEX
  8
3200LEVEL
 62
5
 10
2945.084
 20
-4578.630
 30
2027.000
 70
    32
  0
VERTEX
  8
3200LEVEL
 62
5
 10
2942.494
 20
-4572.750
 30
2027.000
 70
    32
  0
VERTEX
  8
3200LEVEL
 62
5
 10
2937.232
 20
-4565.050
 30
2027.000
 70
    32
  0
VERTEX
  8
3200LEVEL
 62
5
 10
2931.553
 20
-4557.189
 30
2027.000
 70
    32
  0
VERTEX
  8
3200LEVEL
 62
5
 10
2926.722
 20
-4550.852
 30
2027.000
 70
    32
  0
VERTEX
  8
3200LEVEL
 62
5
 10
2919.263
 20
-4540.223
 30
2027.000
 70
    32
  0
VERTEX
  8
3200LEVEL
 62
5
 10
2914.773
 20
-4529.591
 30
2027.000
 70
    32
  0
VERTEX
  8
3200LEVEL
 62
5
 10
2913.984
 20
-4525.243
 30
2027.000
 70
    32
  0
VERTEX
  8
3200LEVEL
 62
5
 10
2913.241
 20
-4516.869
 30
2027.000
 70
    32
  0
VERTEX
  8
3200LEVEL
 62
5
 10
2910.892
 20
-4508.067
 30
2027.000
 70
    32
  0
VERTEX
  8
3200LEVEL
 62
5
 10
2909.251
 20
-4503.821
 30
2027.000
 70
    32
  0
VERTEX
  8
3200LEVEL
 62
5
 10
2907.653
 20
-4498.658
 30
2027.000
 70
    32
  0
VERTEX
  8
3200LEVEL
 62
5
 10
2906.577
 20
-4495.180
 30
2027.000
 70
    32
  0
VERTEX
  8
3200LEVEL
 62
5
 10
2905.458
 20
-4491.878
 30
2027.000
 70
    32
  0
VERTEX
  8
3200LEVEL
 62
5
 10
2904.970
 20
-4488.674
 30
2027.000
 70
    32
  0
VERTEX
  8
3200LEVEL
 62
5
 10
2904.992
 20
-4485.142
 30
2027.000
 70
    32
  0
VERTEX
  8
3200LEVEL
 62
5
 10
2904.414
 20
-4482.359
 30
2027.000
 70
    32
  0
VERTEX
  8
3200LEVEL
 62
5
 10
2903.861
 20
-4480.566
 30
2027.000
 70
    32
  0
VERTEX
  8
3200LEVEL
 62
5
 10
2903.119
 20
-4478.270
 30
2027.000
 70
    32
  0
VERTEX
  8
3200LEVEL
 62
5
 10
2929.931
 20
-4460.923
 30
2027.000
 70
    32
  0
VERTEX
  8
3200LEVEL
 62
5
 10
2929.846
 20
-4465.054
 30
2027.000
 70
    32
  0
VERTEX
  8
3200LEVEL
 62
5
 10
2930.169
 20
-4471.041
 30
2027.000
 70
    32
  0
VERTEX
  8
3200LEVEL
 62
5
 10
2930.939
 20
-4476.554
 30
2027.000
 70
    32
  0
VERTEX
  8
3200LEVEL
 62
5
 10
2933.944
 20
-4486.447
 30
2027.000
 70
    32
  0
VERTEX
  8
3200LEVEL
 62
5
 10
2937.470
 20
-4496.540
 30
2027.000
 70
    32
  0
VERTEX
  8
3200LEVEL
 62
5
 10
2941.921
 20
-4507.277
 30
2027.000
 70
    32
  0
VERTEX
  8
3200LEVEL
 62
5
 10
2946.744
 20
-4518.349
 30
2027.000
 70
    32
  0
VERTEX
  8
3200LEVEL
 62
5
 10
2953.548
 20
-4531.668
 30
2027.000
 70
    32
  0
VERTEX
  8
3200LEVEL
 62
5
 10
2957.913
 20
-4543.497
 30
2027.000
 70
    32
  0
VERTEX
  8
3200LEVEL
 62
5
 10
2962.415
 20
-4553.105
 30
2027.000
 70
    32
  0
VERTEX
  8
3200LEVEL
 62
5
 10
2968.214
 20
-4567.544
 30
2027.000
 70
    32
  0
VERTEX
  8
3200LEVEL
 62
5
 10
2970.829
 20
-4574.415
 30
2027.000
 70
    32
  0
VERTEX
  8
3200LEVEL
 62
5
 10
2973.208
 20
-4583.324
 30
2027.000
 70
    32
  0
VERTEX
  8
3200LEVEL
 62
5
 10
2974.285
 20
-4589.841
 30
2027.000
 70
    32
  0
VERTEX
  8
3200LEVEL
 62
5
 10
2973.888
 20
-4594.593
 30
2027.000
 70
    32
  0
VERTEX
  8
3200LEVEL
 62
5
 10
2972.818
 20
-4597.865
 30
2027.000
 70
    32
  0
VERTEX
  8
3200LEVEL
 62
5
 10
2970.903
 20
-4600.286
 30
2027.000
 70
    32
  0
VERTEX
  8
3200LEVEL
 62
5
 10
2969.638
 20
-4600.899
 30
2027.000
 70
    32
  0
VERTEX
  8
3200LEVEL
 62
5
 10
2967.329
 20
-4601.922
 30
2027.000
 70
    32
  0
VERTEX
  8
3200LEVEL
 62
5
 10
2965.820
 20
-4603.231
 30
2027.000
 70
    32
  0
VERTEX
  8
3200LEVEL
 62
5
 10
2965.203
 20
-4608.927
 30
2027.000
 70
    32
  0
VERTEX
  8
3200LEVEL
 62
5
 10
2966.146
 20
-4621.374
 30
2027.000
 70
    32
  0
VERTEX
  8
3200LEVEL
 62
5
 10
2967.722
 20
-4630.070
 30
2027.000
 70
    32
  0
VERTEX
  8
3200LEVEL
 62
5
 10
2971.341
 20
-4646.564
 30
2027.000
 70
    32
  0
VERTEX
  8
3200LEVEL
 62
5
 10
2976.068
 20
-4661.236
 30
2027.000
 70
    32
  0
VERTEX
  8
3200LEVEL
 62
5
 10
2979.158
 20
-4669.295
 30
2027.000
 70
    32
  0
VERTEX
  8
3200LEVEL
 62
5
 10
2982.163
 20
-4678.445
 30
2027.000
 70
    32
  0
VERTEX
  8
3200LEVEL
 62
5
 10
2984.565
 20
-4684.564
 30
2027.000
 70
    32
  0
VERTEX
  8
3200LEVEL
 62
5
 10
2987.362
 20
-4692.079
 30
2027.000
 70
    32
  0
VERTEX
  8
3200LEVEL
 62
5
 10
2989.778
 20
-4703.251
 30
2027.000
 70
    32
  0
VERTEX
  8
3200LEVEL
 62
5
 10
2992.450
 20
-4712.704
 30
2027.000
 70
    32
  0
VERTEX
  8
3200LEVEL
 62
5
 10
2995.888
 20
-4724.702
 30
2027.000
 70
    32
  0
VERTEX
  8
3200LEVEL
 62
5
 10
2999.335
 20
-4735.746
 30
2027.000
 70
    32
  0
VERTEX
  8
3200LEVEL
 62
5
 10
3002.727
 20
-4748.730
 30
2027.000
 70
    32
  0
VERTEX
  8
3200LEVEL
 62
5
 10
3006.549
 20
-4761.594
 30
2027.000
 70
    32
  0
VERTEX
  8
3200LEVEL
 62
5
 10
3011.431
 20
-4773.693
 30
2027.000
 70
    32
  0
VERTEX
  8
3200LEVEL
 62
5
 10
3014.839
 20
-4784.029
 30
2027.000
 70
    32
  0
VERTEX
  8
3200LEVEL
 62
5
 10
3016.876
 20
-4790.413
 30
2027.000
 70
    32
  0
VERTEX
  8
3200LEVEL
 62
5
 10
3018.983
 20
-4796.801
 30
2027.000
 70
    32
  0
VERTEX
  8
3200LEVEL
 62
5
 10
3020.759
 20
-4801.194
 30
2027.000
 70
    32
  0
SEQEND
  8
3200LEVEL
  0
POLYLINE
  8
3200LEVEL
 62
5
 66
     1
 70
     9
  0
VERTEX
  8
3200LEVEL
 62
5
 10
2875.385
 20
-4542.256
 30
2027.000
 70
    32
  0
VERTEX
  8
3200LEVEL
 62
5
 10
2871.130
 20
-4531.881
 30
2027.000
 70
    32
  0
VERTEX
  8
3200LEVEL
 62
5
 10
2867.506
 20
-4523.904
 30
2027.000
 70
    32
  0
VERTEX
  8
3200LEVEL
 62
5
 10
2863.544
 20
-4514.073
 30
2027.000
 70
    32
  0
VERTEX
  8
3200LEVEL
 62
5
 10
2862.039
 20
-4508.420
 30
2027.000
 70
    32
  0
VERTEX
  8
3200LEVEL
 62
5
 10
2860.727
 20
-4504.684
 30
2027.000
 70
    32
  0
VERTEX
  8
3200LEVEL
 62
5
 10
2898.561
 20
-4482.088
 30
2027.000
 70
    32
  0
VERTEX
  8
3200LEVEL
 62
5
 10
2899.098
 20
-4484.975
 30
2027.000
 70
    32
  0
VERTEX
  8
3200LEVEL
 62
5
 10
2901.650
 20
-4489.404
 30
2027.000
 70
    32
  0
VERTEX
  8
3200LEVEL
 62
5
 10
2903.350
 20
-4493.123
 30
2027.000
 70
    32
  0
VERTEX
  8
3200LEVEL
 62
5
 10
2904.644
 20
-4496.469
 30
2027.000
 70
    32
  0
VERTEX
  8
3200LEVEL
 62
5
 10
2906.511
 20
-4503.482
 30
2027.000
 70
    32
  0
VERTEX
  8
3200LEVEL
 62
5
 10
2907.530
 20
-4507.416
 30
2027.000
 70
    32
  0
VERTEX
  8
3200LEVEL
 62
5
 10
2909.283
 20
-4515.342
 30
2027.000
 70
    32
  0
VERTEX
  8
3200LEVEL
 62
5
 10
2909.580
 20
-4523.449
 30
2027.000
 70
    32
  0
VERTEX
  8
3200LEVEL
 62
5
 10
2910.813
 20
-4529.619
 30
2027.000
 70
    32
  0
VERTEX
  8
3200LEVEL
 62
5
 10
2913.074
 20
-4537.286
 30
2027.000
 70
    32
  0
VERTEX
  8
3200LEVEL
 62
5
 10
2914.402
 20
-4543.709
 30
2027.000
 70
    32
  0
VERTEX
  8
3200LEVEL
 62
5
 10
2916.106
 20
-4550.396
 30
2027.000
 70
    32
  0
VERTEX
  8
3200LEVEL
 62
5
 10
2918.745
 20
-4557.515
 30
2027.000
 70
    32
  0
VERTEX
  8
3200LEVEL
 62
5
 10
2920.869
 20
-4563.550
 30
2027.000
 70
    32
  0
VERTEX
  8
3200LEVEL
 62
5
 10
2921.402
 20
-4568.063
 30
2027.000
 70
    32
  0
VERTEX
  8
3200LEVEL
 62
5
 10
2922.299
 20
-4576.161
 30
2027.000
 70
    32
  0
VERTEX
  8
3200LEVEL
 62
5
 10
2923.136
 20
-4581.748
 30
2027.000
 70
    32
  0
SEQEND
  8
3200LEVEL
  0
POLYLINE
  8
3200LEVEL
 62
5
 66
     1
 70
     9
  0
VERTEX
  8
3200LEVEL
 62
5
 10
2811.805
 20
-4549.278
 30
2027.000
 70
    32
  0
VERTEX
  8
3200LEVEL
 62
5
 10
2814.645
 20
-4553.579
 30
2027.000
 70
    32
  0
VERTEX
  8
3200LEVEL
 62
5
 10
2816.016
 20
-4556.788
 30
2027.000
 70
    32
  0
VERTEX
  8
3200LEVEL
 62
5
 10
2816.401
 20
-4559.138
 30
2027.000
 70
    32
  0
VERTEX
  8
3200LEVEL
 62
5
 10
2815.224
 20
-4560.144
 30
2027.000
 70
    32
  0
VERTEX
  8
3200LEVEL
 62
5
 10
2814.153
 20
-4560.377
 30
2027.000
 70
    32
  0
VERTEX
  8
3200LEVEL
 62
5
 10
2813.097
 20
-4561.812
 30
2027.000
 70
    32
  0
VERTEX
  8
3200LEVEL
 62
5
 10
2812.975
 20
-4563.679
 30
2027.000
 70
    32
  0
VERTEX
  8
3200LEVEL
 62
5
 10
2811.294
 20
-4564.132
 30
2027.000
 70
    32
  0
VERTEX
  8
3200LEVEL
 62
5
 10
2809.909
 20
-4563.502
 30
2027.000
 70
    32
  0
VERTEX
  8
3200LEVEL
 62
5
 10
2808.487
 20
-4564.461
 30
2027.000
 70
    32
  0
VERTEX
  8
3200LEVEL
 62
5
 10
2808.279
 20
-4567.420
 30
2027.000
 70
    32
  0
VERTEX
  8
3200LEVEL
 62
5
 10
2809.597
 20
-4571.015
 30
2027.000
 70
    32
  0
VERTEX
  8
3200LEVEL
 62
5
 10
2810.420
 20
-4573.844
 30
2027.000
 70
    32
  0
VERTEX
  8
3200LEVEL
 62
5
 10
2792.649
 20
-4586.733
 30
2027.000
 70
    32
  0
VERTEX
  8
3200LEVEL
 62
5
 10
2789.447
 20
-4580.330
 30
2027.000
 70
    32
  0
VERTEX
  8
3200LEVEL
 62
5
 10
2786.796
 20
-4574.235
 30
2027.000
 70
    32
  0
VERTEX
  8
3200LEVEL
 62
5
 10
2784.165
 20
-4570.756
 30
2027.000
 70
    32
  0
VERTEX
  8
3200LEVEL
 62
5
 10
2782.611
 20
-4568.458
 30
2027.000
 70
    32
  0
SEQEND
  8
3200LEVEL
  0
POLYLINE
  8
3200LEVEL
 62
5
 66
     1
 70
     9
  0
VERTEX
  8
3200LEVEL
 62
5
 10
2777.822
 20
-4571.134
 30
2027.000
 70
    32
  0
VERTEX
  8
3200LEVEL
 62
5
 10
2779.137
 20
-4574.799
 30
2027.000
 70
    32
  0
VERTEX
  8
3200LEVEL
 62
5
 10
2780.175
 20
-4577.568
 30
2027.000
 70
    32
  0
VERTEX
  8
3200LEVEL
 62
5
 10
2781.638
 20
-4579.544
 30
2027.000
 70
    32
  0
VERTEX
  8
3200LEVEL
 62
5
 10
2782.788
 20
-4580.658
 30
2027.000
 70
    32
  0
VERTEX
  8
3200LEVEL
 62
5
 10
2782.986
 20
-4583.247
 30
2027.000
 70
    32
  0
VERTEX
  8
3200LEVEL
 62
5
 10
2783.734
 20
-4587.698
 30
2027.000
 70
    32
  0
VERTEX
  8
3200LEVEL
 62
5
 10
2785.341
 20
-4591.165
 30
2027.000
 70
    32
  0
VERTEX
  8
3200LEVEL
 62
5
 10
2786.038
 20
-4592.894
 30
2027.000
 70
    32
  0
VERTEX
  8
3200LEVEL
 62
5
 10
2774.795
 20
-4600.643
 30
2027.000
 70
    32
  0
VERTEX
  8
3200LEVEL
 62
5
 10
2773.378
 20
-4597.679
 30
2027.000
 70
    32
  0
VERTEX
  8
3200LEVEL
 62
5
 10
2771.002
 20
-4591.738
 30
2027.000
 70
    32
  0
VERTEX
  8
3200LEVEL
 62
5
 10
2768.568
 20
-4584.770
 30
2027.000
 70
    32
  0
VERTEX
  8
3200LEVEL
 62
5
 10
2767.014
 20
-4582.472
 30
2027.000
 70
    32
  0
VERTEX
  8
3200LEVEL
 62
5
 10
2765.872
 20
-4579.663
 30
2027.000
 70
    32
  0
VERTEX
  8
3200LEVEL
 62
5
 10
2765.727
 20
-4578.984
 30
2027.000
 70
    32
  0
SEQEND
  8
3200LEVEL
  0
POLYLINE
  8
3200LEVEL
 62
5
 66
     1
 70
     9
  0
VERTEX
  8
3200LEVEL
 62
5
 10
2738.438
 20
-4598.995
 30
2027.000
 70
    32
  0
VERTEX
  8
3200LEVEL
 62
5
 10
2739.907
 20
-4602.385
 30
2027.000
 70
    32
  0
VERTEX
  8
3200LEVEL
 62
5
 10
2740.415
 20
-4603.610
 30
2027.000
 70
    32
  0
VERTEX
  8
3200LEVEL
 62
5
 10
2740.116
 20
-4605.504
 30
2027.000
 70
    32
  0
VERTEX
  8
3200LEVEL
 62
5
 10
2739.805
 20
-4606.868
 30
2027.000
 70
    32
  0
VERTEX
  8
3200LEVEL
 62
5
 10
2740.149
 20
-4607.838
 30
2027.000
 70
    32
  0
VERTEX
  8
3200LEVEL
 62
5
 10
2740.513
 20
-4609.127
 30
2027.000
 70
    32
  0
VERTEX
  8
3200LEVEL
 62
5
 10
2739.197
 20
-4609.313
 30
2027.000
 70
    32
  0
VERTEX
  8
3200LEVEL
 62
5
 10
2737.119
 20
-4609.924
 30
2027.000
 70
    32
  0
VERTEX
  8
3200LEVEL
 62
5
 10
2735.780
 20
-4610.604
 30
2027.000
 70
    32
  0
VERTEX
  8
3200LEVEL
 62
5
 10
2734.075
 20
-4610.808
 30
2027.000
 70
    32
  0
VERTEX
  8
3200LEVEL
 62
5
 10
2733.274
 20
-4609.781
 30
2027.000
 70
    32
  0
VERTEX
  8
3200LEVEL
 62
5
 10
2731.797
 20
-4608.087
 30
2027.000
 70
    32
  0
VERTEX
  8
3200LEVEL
 62
5
 10
2730.855
 20
-4606.312
 30
2027.000
 70
    32
  0
VERTEX
  8
3200LEVEL
 62
5
 10
2730.205
 20
-4605.081
 30
2027.000
 70
    32
  0
SEQEND
  8
3200LEVEL
  0
POLYLINE
  8
3200LEVEL
 62
5
 66
     1
 70
     9
  0
VERTEX
  8
3200LEVEL
 62
5
 10
2743.098
 20
-4621.226
 30
2027.000
 70
    32
  0
VERTEX
  8
3200LEVEL
 62
5
 10
2741.507
 20
-4618.962
 30
2027.000
 70
    32
  0
VERTEX
  8
3200LEVEL
 62
5
 10
2740.531
 20
-4617.149
 30
2027.000
 70
    32
  0
VERTEX
  8
3200LEVEL
 62
5
 10
2740.091
 20
-4615.186
 30
2027.000
 70
    32
  0
VERTEX
  8
3200LEVEL
 62
5
 10
2740.342
 20
-4614.349
 30
2027.000
 70
    32
  0
VERTEX
  8
3200LEVEL
 62
5
 10
2741.033
 20
-4613.922
 30
2027.000
 70
    32
  0
VERTEX
  8
3200LEVEL
 62
5
 10
2741.981
 20
-4614.071
 30
2027.000
 70
    32
  0
VERTEX
  8
3200LEVEL
 62
5
 10
2743.110
 20
-4614.866
 30
2027.000
 70
    32
  0
VERTEX
  8
3200LEVEL
 62
5
 10
2744.314
 20
-4616.335
 30
2027.000
 70
    32
  0
VERTEX
  8
3200LEVEL
 62
5
 10
2744.829
 20
-4617.419
 30
2027.000
 70
    32
  0
VERTEX
  8
3200LEVEL
 62
5
 10
2745.153
 20
-4618.070
 30
2027.000
 70
    32
  0
SEQEND
  8
3200LEVEL
  0
POLYLINE
  8
3200LEVEL
 62
5
 66
     1
 70
     9
  0
VERTEX
  8
3200LEVEL
 62
5
 10
3014.744
 20
-4034.183
 30
2027.000
 70
    32
  0
VERTEX
  8
3200LEVEL
 62
5
 10
3013.817
 20
-4029.016
 30
2027.000
 70
    32
  0
VERTEX
  8
3200LEVEL
 62
5
 10
3026.961
 20
-4016.832
 30
2027.000
 70
    32
  0
VERTEX
  8
3200LEVEL
 62
5
 10
3027.527
 20
-4020.640
 30
2027.000
 70
    32
  0
VERTEX
  8
3200LEVEL
 62
5
 10
3026.589
 20
-4027.169
 30
2027.000
 70
    32
  0
VERTEX
  8
3200LEVEL
 62
5
 10
3027.045
 20
-4031.820
 30
2027.000
 70
    32
  0
VERTEX
  8
3200LEVEL
 62
5
 10
3028.113
 20
-4036.993
 30
2027.000
 70
    32
  0
VERTEX
  8
3200LEVEL
 62
5
 10
3028.977
 20
-4040.461
 30
2027.000
 70
    32
  0
VERTEX
  8
3200LEVEL
 62
5
 10
3029.308
 20
-4044.010
 30
2027.000
 70
    32
  0
VERTEX
  8
3200LEVEL
 62
5
 10
3029.489
 20
-4046.209
 30
2027.000
 70
    32
  0
VERTEX
  8
3200LEVEL
 62
5
 10
3029.775
 20
-4049.191
 30
2027.000
 70
    32
  0
VERTEX
  8
3200LEVEL
 62
5
 10
3029.777
 20
-4050.675
 30
2027.000
 70
    32
  0
VERTEX
  8
3200LEVEL
 62
5
 10
3029.819
 20
-4052.055
 30
2027.000
 70
    32
  0
SEQEND
  8
3200LEVEL
  0
POLYLINE
  8
3200LEVEL
 62
5
 66
     1
 70
     9
  0
VERTEX
  8
3200LEVEL
 62
5
 10
3034.448
 20
-4063.507
 30
2027.000
 70
    32
  0
VERTEX
  8
3200LEVEL
 62
5
 10
3034.116
 20
-4059.216
 30
2027.000
 70
    32
  0
VERTEX
  8
3200LEVEL
 62
5
 10
3034.501
 20
-4055.488
 30
2027.000
 70
    32
  0
VERTEX
  8
3200LEVEL
 62
5
 10
3034.960
 20
-4052.435
 30
2027.000
 70
    32
  0
VERTEX
  8
3200LEVEL
 62
5
 10
3035.446
 20
-4051.114
 30
2027.000
 70
    32
  0
VERTEX
  8
3200LEVEL
 62
5
 10
3035.949
 20
-4050.926
 30
2027.000
 70
    32
  0
VERTEX
  8
3200LEVEL
 62
5
 10
3036.989
 20
-4052.882
 30
2027.000
 70
    32
  0
VERTEX
  8
3200LEVEL
 62
5
 10
3037.257
 20
-4057.029
 30
2027.000
 70
    32
  0
VERTEX
  8
3200LEVEL
 62
5
 10
3036.901
 20
-4059.380
 30
2027.000
 70
    32
  0
VERTEX
  8
3200LEVEL
 62
5
 10
3036.876
 20
-4061.429
 30
2027.000
 70
    32
  0
VERTEX
  8
3200LEVEL
 62
5
 10
3036.728
 20
-4063.118
 30
2027.000
 70
    32
  0
SEQEND
  8
3200LEVEL
  0
POLYLINE
  8
3200LEVEL
 62
5
 66
     1
 70
     9
  0
VERTEX
  8
3200LEVEL
 62
5
 10
3033.903
 20
-4022.596
 30
2027.000
 70
    32
  0
VERTEX
  8
3200LEVEL
 62
5
 10
3033.299
 20
-4028.010
 30
2027.000
 70
    32
  0
VERTEX
  8
3200LEVEL
 62
5
 10
3032.920
 20
-4033.152
 30
2027.000
 70
    32
  0
VERTEX
  8
3200LEVEL
 62
5
 10
3032.982
 20
-4037.148
 30
2027.000
 70
    32
  0
VERTEX
  8
3200LEVEL
 62
5
 10
3033.183
 20
-4041.221
 30
2027.000
 70
    32
  0
VERTEX
  8
3200LEVEL
 62
5
 10
3033.606
 20
-4044.280
 30
2027.000
 70
    32
  0
VERTEX
  8
3200LEVEL
 62
5
 10
3033.784
 20
-4046.549
 30
2027.000
 70
    32
  0
VERTEX
  8
3200LEVEL
 62
5
 10
3033.362
 20
-4047.272
 30
2027.000
 70
    32
  0
VERTEX
  8
3200LEVEL
 62
5
 10
3032.202
 20
-4046.370
 30
2027.000
 70
    32
  0
VERTEX
  8
3200LEVEL
 62
5
 10
3031.288
 20
-4043.218
 30
2027.000
 70
    32
  0
VERTEX
  8
3200LEVEL
 62
5
 10
3031.071
 20
-4039.498
 30
2027.000
 70
    32
  0
VERTEX
  8
3200LEVEL
 62
5
 10
3030.594
 20
-4033.786
 30
2027.000
 70
    32
  0
VERTEX
  8
3200LEVEL
 62
5
 10
3030.464
 20
-4029.716
 30
2027.000
 70
    32
  0
VERTEX
  8
3200LEVEL
 62
5
 10
3030.554
 20
-4026.257
 30
2027.000
 70
    32
  0
VERTEX
  8
3200LEVEL
 62
5
 10
3030.637
 20
-4023.681
 30
2027.000
 70
    32
  0
VERTEX
  8
3200LEVEL
 62
5
 10
3030.857
 20
-4021.995
 30
2027.000
 70
    32
  0
SEQEND
  8
3200LEVEL
  0
POLYLINE
  8
3200LEVEL
 62
5
 66
     1
 70
     9
  0
VERTEX
  8
3200LEVEL
 62
5
 10
3143.140
 20
-4179.713
 30
2027.000
 70
    32
  0
VERTEX
  8
3200LEVEL
 62
5
 10
3142.138
 20
-4183.801
 30
2027.000
 70
    32
  0
VERTEX
  8
3200LEVEL
 62
5
 10
3142.284
 20
-4189.815
 30
2027.000
 70
    32
  0
VERTEX
  8
3200LEVEL
 62
5
 10
3142.905
 20
-4194.721
 30
2027.000
 70
    32
  0
VERTEX
  8
3200LEVEL
 62
5
 10
3142.494
 20
-4199.013
 30
2027.000
 70
    32
  0
VERTEX
  8
3200LEVEL
 62
5
 10
3142.533
 20
-4203.503
 30
2027.000
 70
    32
  0
VERTEX
  8
3200LEVEL
 62
5
 10
3143.414
 20
-4208.915
 30
2027.000
 70
    32
  0
VERTEX
  8
3200LEVEL
 62
5
 10
3144.049
 20
-4214.280
 30
2027.000
 70
    32
  0
VERTEX
  8
3200LEVEL
 62
5
 10
3144.392
 20
-4217.547
 30
2027.000
 70
    32
  0
VERTEX
  8
3200LEVEL
 62
5
 10
3144.448
 20
-4219.387
 30
2027.000
 70
    32
  0
VERTEX
  8
3200LEVEL
 62
5
 10
3143.870
 20
-4221.198
 30
2027.000
 70
    32
  0
VERTEX
  8
3200LEVEL
 62
5
 10
3143.148
 20
-4221.518
 30
2027.000
 70
    32
  0
VERTEX
  8
3200LEVEL
 62
5
 10
3141.963
 20
-4218.884
 30
2027.000
 70
    32
  0
VERTEX
  8
3200LEVEL
 62
5
 10
3139.743
 20
-4213.410
 30
2027.000
 70
    32
  0
VERTEX
  8
3200LEVEL
 62
5
 10
3138.092
 20
-4207.078
 30
2027.000
 70
    32
  0
VERTEX
  8
3200LEVEL
 62
5
 10
3137.623
 20
-4202.710
 30
2027.000
 70
    32
  0
VERTEX
  8
3200LEVEL
 62
5
 10
3138.137
 20
-4195.419
 30
2027.000
 70
    32
  0
VERTEX
  8
3200LEVEL
 62
5
 10
3138.515
 20
-4191.832
 30
2027.000
 70
    32
  0
VERTEX
  8
3200LEVEL
 62
5
 10
3138.147
 20
-4182.980
 30
2027.000
 70
    32
  0
VERTEX
  8
3200LEVEL
 62
5
 10
3137.417
 20
-4178.918
 30
2027.000
 70
    32
  0
VERTEX
  8
3200LEVEL
 62
5
 10
3136.227
 20
-4170.276
 30
2027.000
 70
    32
  0
VERTEX
  8
3200LEVEL
 62
5
 10
3136.595
 20
-4164.603
 30
2027.000
 70
    32
  0
VERTEX
  8
3200LEVEL
 62
5
 10
3137.033
 20
-4160.489
 30
2027.000
 70
    32
  0
VERTEX
  8
3200LEVEL
 62
5
 10
3137.421
 20
-4158.987
 30
2027.000
 70
    32
  0
VERTEX
  8
3200LEVEL
 62
5
 10
3138.199
 20
-4158.210
 30
2027.000
 70
    32
  0
VERTEX
  8
3200LEVEL
 62
5
 10
3139.453
 20
-4159.364
 30
2027.000
 70
    32
  0
VERTEX
  8
3200LEVEL
 62
5
 10
3140.858
 20
-4163.352
 30
2027.000
 70
    32
  0
VERTEX
  8
3200LEVEL
 62
5
 10
3141.693
 20
-4167.454
 30
2027.000
 70
    32
  0
VERTEX
  8
3200LEVEL
 62
5
 10
3142.726
 20
-4171.106
 30
2027.000
 70
    32
  0
VERTEX
  8
3200LEVEL
 62
5
 10
3143.257
 20
-4174.135
 30
2027.000
 70
    32
  0
SEQEND
  8
3200LEVEL
  0
POLYLINE
  8
3200LEVEL
 62
5
 66
     1
 70
     9
  0
VERTEX
  8
3200LEVEL
 62
5
 10
3187.397
 20
-4222.931
 30
2027.000
 70
    32
  0
VERTEX
  8
3200LEVEL
 62
5
 10
3187.386
 20
-4226.994
 30
2027.000
 70
    32
  0
VERTEX
  8
3200LEVEL
 62
5
 10
3188.501
 20
-4232.664
 30
2027.000
 70
    32
  0
VERTEX
  8
3200LEVEL
 62
5
 10
3189.513
 20
-4238.295
 30
2027.000
 70
    32
  0
VERTEX
  8
3200LEVEL
 62
5
 10
3190.388
 20
-4242.293
 30
2027.000
 70
    32
  0
VERTEX
  8
3200LEVEL
 62
5
 10
3192.679
 20
-4247.770
 30
2027.000
 70
    32
  0
VERTEX
  8
3200LEVEL
 62
5
 10
3193.967
 20
-4249.703
 30
2027.000
 70
    32
  0
VERTEX
  8
3200LEVEL
 62
5
 10
3195.198
 20
-4253.647
 30
2027.000
 70
    32
  0
VERTEX
  8
3200LEVEL
 62
5
 10
3196.205
 20
-4257.864
 30
2027.000
 70
    32
  0
VERTEX
  8
3200LEVEL
 62
5
 10
3196.456
 20
-4262.363
 30
2027.000
 70
    32
  0
VERTEX
  8
3200LEVEL
 62
5
 10
3196.504
 20
-4265.899
 30
2027.000
 70
    32
  0
VERTEX
  8
3200LEVEL
 62
5
 10
3196.187
 20
-4267.404
 30
2027.000
 70
    32
  0
VERTEX
  8
3200LEVEL
 62
5
 10
3195.993
 20
-4267.784
 30
2027.000
 70
    32
  0
VERTEX
  8
3200LEVEL
 62
5
 10
3195.036
 20
-4265.549
 30
2027.000
 70
    32
  0
VERTEX
  8
3200LEVEL
 62
5
 10
3193.896
 20
-4258.888
 30
2027.000
 70
    32
  0
VERTEX
  8
3200LEVEL
 62
5
 10
3192.666
 20
-4253.389
 30
2027.000
 70
    32
  0
VERTEX
  8
3200LEVEL
 62
5
 10
3189.137
 20
-4246.405
 30
2027.000
 70
    32
  0
VERTEX
  8
3200LEVEL
 62
5
 10
3187.356
 20
-4242.895
 30
2027.000
 70
    32
  0
VERTEX
  8
3200LEVEL
 62
5
 10
3185.182
 20
-4236.433
 30
2027.000
 70
    32
  0
VERTEX
  8
3200LEVEL
 62
5
 10
3184.718
 20
-4231.182
 30
2027.000
 70
    32
  0
VERTEX
  8
3200LEVEL
 62
5
 10
3184.662
 20
-4229.342
 30
2027.000
 70
    32
  0
VERTEX
  8
3200LEVEL
 62
5
 10
3185.123
 20
-4227.773
 30
2027.000
 70
    32
  0
VERTEX
  8
3200LEVEL
 62
5
 10
3185.307
 20
-4226.862
 30
2027.000
 70
    32
  0
VERTEX
  8
3200LEVEL
 62
5
 10
3185.027
 20
-4223.740
 30
2027.000
 70
    32
  0
VERTEX
  8
3200LEVEL
 62
5
 10
3184.723
 20
-4219.626
 30
2027.000
 70
    32
  0
VERTEX
  8
3200LEVEL
 62
5
 10
3184.023
 20
-4215.671
 30
2027.000
 70
    32
  0
VERTEX
  8
3200LEVEL
 62
5
 10
3184.048
 20
-4214.365
 30
2027.000
 70
    32
  0
VERTEX
  8
3200LEVEL
 62
5
 10
3184.392
 20
-4213.038
 30
2027.000
 70
    32
  0
VERTEX
  8
3200LEVEL
 62
5
 10
3185.333
 20
-4214.071
 30
2027.000
 70
    32
  0
VERTEX
  8
3200LEVEL
 62
5
 10
3186.341
 20
-4216.733
 30
2027.000
 70
    32
  0
VERTEX
  8
3200LEVEL
 62
5
 10
3186.653
 20
-4219.150
 30
2027.000
 70
    32
  0
SEQEND
  8
3200LEVEL
  0
POLYLINE
  8
3200LEVEL
 62
5
 66
     1
 70
     9
  0
VERTEX
  8
3200LEVEL
 62
5
 10
3200.409
 20
-4288.414
 30
2027.000
 70
    32
  0
VERTEX
  8
3200LEVEL
 62
5
 10
3200.765
 20
-4290.657
 30
2027.000
 70
    32
  0
VERTEX
  8
3200LEVEL
 62
5
 10
3201.139
 20
-4294.031
 30
2027.000
 70
    32
  0
VERTEX
  8
3200LEVEL
 62
5
 10
3201.059
 20
-4294.982
 30
2027.000
 70
    32
  0
VERTEX
  8
3200LEVEL
 62
5
 10
3200.517
 20
-4296.017
 30
2027.000
 70
    32
  0
VERTEX
  8
3200LEVEL
 62
5
 10
3199.845
 20
-4296.021
 30
2027.000
 70
    32
  0
VERTEX
  8
3200LEVEL
 62
5
 10
3198.775
 20
-4294.699
 30
2027.000
 70
    32
  0
VERTEX
  8
3200LEVEL
 62
5
 10
3198.146
 20
-4291.490
 30
2027.000
 70
    32
  0
VERTEX
  8
3200LEVEL
 62
5
 10
3197.850
 20
-4287.977
 30
2027.000
 70
    32
  0
VERTEX
  8
3200LEVEL
 62
5
 10
3197.721
 20
-4284.650
 30
2027.000
 70
    32
  0
VERTEX
  8
3200LEVEL
 62
5
 10
3198.072
 20
-4283.182
 30
2027.000
 70
    32
  0
VERTEX
  8
3200LEVEL
 62
5
 10
3199.360
 20
-4282.075
 30
2027.000
 70
    32
  0
VERTEX
  8
3200LEVEL
 62
5
 10
3199.672
 20
-4282.196
 30
2027.000
 70
    32
  0
VERTEX
  8
3200LEVEL
 62
5
 10
3200.292
 20
-4283.320
 30
2027.000
 70
    32
  0
VERTEX
  8
3200LEVEL
 62
5
 10
3200.822
 20
-4285.606
 30
2027.000
 70
    32
  0
VERTEX
  8
3200LEVEL
 62
5
 10
3201.005
 20
-4286.993
 30
2027.000
 70
    32
  0
SEQEND
  8
3200LEVEL
  0
ENDSEC
  0
EOF
