999
********************************
999
*   DXF File - Entities Only   *
999
*        3D Data Format        *
999
*     Output from ENVISAGE     *
999
*     28-Dec-2007 13:56:50     *
999
********************************
  0
SECTION 
  2
HEADER
  9
$ACADVER
  1
AC1009
  9
$EXTMIN
 10
-290000.000
 20
-250000.000
 30
-4000.000
  9
$EXTMAX
 10
5000000.000
 20
600000.000
 30
6000.000
  0
ENDSEC
  0
SECTION
  2
ENTITIES
  0
POLYLINE
  8
3350LEVEL
 62
13
 66
     1
 70
     9
  0
VERTEX
  8
3350LEVEL
 62
13
 10
2937.650
 20
-5461.002
 30
1877.000
 70
    32
  0
VERTEX
  8
3350LEVEL
 62
13
 10
2959.094
 20
-5486.844
 30
1877.000
 70
    32
  0
VERTEX
  8
3350LEVEL
 62
13
 10
2993.862
 20
-5507.087
 30
1877.000
 70
    32
  0
VERTEX
  8
3350LEVEL
 62
13
 10
3021.539
 20
-5528.920
 30
1877.000
 70
    32
  0
VERTEX
  8
3350LEVEL
 62
13
 10
3041.429
 20
-5551.974
 30
1877.000
 70
    32
  0
VERTEX
  8
3350LEVEL
 62
13
 10
3065.238
 20
-5587.817
 30
1877.000
 70
    32
  0
VERTEX
  8
3350LEVEL
 62
13
 10
3108.429
 20
-5624.134
 30
1877.000
 70
    32
  0
VERTEX
  8
3350LEVEL
 62
13
 10
3146.762
 20
-5645.733
 30
1877.000
 70
    32
  0
VERTEX
  8
3350LEVEL
 62
13
 10
3100.879
 20
-5632.977
 30
1877.000
 70
    32
  0
VERTEX
  8
3350LEVEL
 62
13
 10
3055.832
 20
-5606.206
 30
1877.000
 70
    32
  0
VERTEX
  8
3350LEVEL
 62
13
 10
3027.839
 20
-5574.210
 30
1877.000
 70
    32
  0
VERTEX
  8
3350LEVEL
 62
13
 10
2996.853
 20
-5543.480
 30
1877.000
 70
    32
  0
VERTEX
  8
3350LEVEL
 62
13
 10
2961.815
 20
-5508.280
 30
1877.000
 70
    32
  0
VERTEX
  8
3350LEVEL
 62
13
 10
2937.152
 20
-5466.985
 30
1877.000
 70
    32
  0
SEQEND
  8
3350LEVEL
  0
LINE
  8
3350LEVEL
 62
13
 10
1136.234
 20
-4565.165
 30
1877.000
 11
1167.820
 21
-4608.885
 31
1877.000
  0
LINE
  8
3350LEVEL
 62
13
 10
1003.790
 20
-4634.432
 30
1877.000
 11
1042.658
 21
-4688.979
 31
1877.000
  0
LINE
  8
3350LEVEL
 62
13
 10
993.498
 20
-4640.034
 30
1877.000
 11
1031.874
 21
-4694.499
 31
1877.000
  0
LINE
  8
3350LEVEL
 62
13
 10
987.007
 20
-4654.615
 30
1877.000
 11
1025.752
 21
-4708.384
 31
1877.000
  0
LINE
  8
3350LEVEL
 62
13
 10
802.621
 20
-4777.342
 30
1877.000
 11
845.534
 21
-4842.426
 31
1877.000
  0
LINE
  8
3350LEVEL
 62
13
 10
749.416
 20
-4824.776
 30
1877.000
 11
796.463
 21
-4893.840
 31
1877.000
  0
LINE
  8
3350LEVEL
 62
13
 10
718.367
 20
-4848.631
 30
1877.000
 11
765.619
 21
-4917.982
 31
1877.000
  0
LINE
  8
3350LEVEL
 62
13
 10
1028.979
 20
-4397.025
 30
1877.000
 11
1065.389
 21
-4451.160
 31
1877.000
  0
LINE
  8
3350LEVEL
 62
13
 10
960.586
 20
-4431.041
 30
1877.000
 11
1002.271
 21
-4494.403
 31
1877.000
  0
LINE
  8
3350LEVEL
 62
13
 10
904.649
 20
-4466.137
 30
1877.000
 11
952.059
 21
-4540.570
 31
1877.000
  0
LINE
  8
3350LEVEL
 62
13
 10
890.532
 20
-4483.988
 30
1877.000
 11
939.255
 21
-4556.619
 31
1877.000
  0
LINE
  8
3350LEVEL
 62
13
 10
643.682
 20
-4652.089
 30
1877.000
 11
694.986
 21
-4725.912
 31
1877.000
  0
POLYLINE
  8
3350LEVEL
 62
13
 66
     1
 70
     9
  0
VERTEX
  8
3350LEVEL
 62
13
 10
2460.184
 20
-4617.789
 30
1877.000
 70
    32
  0
VERTEX
  8
3350LEVEL
 62
13
 10
2439.317
 20
-4553.878
 30
1877.000
 70
    32
  0
VERTEX
  8
3350LEVEL
 62
13
 10
2415.212
 20
-4489.676
 30
1877.000
 70
    32
  0
VERTEX
  8
3350LEVEL
 62
13
 10
2382.298
 20
-4425.260
 30
1877.000
 70
    32
  0
VERTEX
  8
3350LEVEL
 62
13
 10
2359.705
 20
-4365.608
 30
1877.000
 70
    32
  0
VERTEX
  8
3350LEVEL
 62
13
 10
2332.411
 20
-4330.949
 30
1877.000
 70
    32
  0
VERTEX
  8
3350LEVEL
 62
13
 10
2295.580
 20
-4322.998
 30
1877.000
 70
    32
  0
VERTEX
  8
3350LEVEL
 62
13
 10
2292.617
 20
-4369.260
 30
1877.000
 70
    32
  0
VERTEX
  8
3350LEVEL
 62
13
 10
2304.358
 20
-4422.793
 30
1877.000
 70
    32
  0
VERTEX
  8
3350LEVEL
 62
13
 10
2287.653
 20
-4445.518
 30
1877.000
 70
    32
  0
VERTEX
  8
3350LEVEL
 62
13
 10
2256.839
 20
-4407.740
 30
1877.000
 70
    32
  0
VERTEX
  8
3350LEVEL
 62
13
 10
2222.514
 20
-4357.746
 30
1877.000
 70
    32
  0
VERTEX
  8
3350LEVEL
 62
13
 10
2172.116
 20
-4316.176
 30
1877.000
 70
    32
  0
VERTEX
  8
3350LEVEL
 62
13
 10
2133.647
 20
-4271.300
 30
1877.000
 70
    32
  0
VERTEX
  8
3350LEVEL
 62
13
 10
2105.579
 20
-4268.358
 30
1877.000
 70
    32
  0
VERTEX
  8
3350LEVEL
 62
13
 10
2135.231
 20
-4319.084
 30
1877.000
 70
    32
  0
VERTEX
  8
3350LEVEL
 62
13
 10
2165.486
 20
-4379.769
 30
1877.000
 70
    32
  0
VERTEX
  8
3350LEVEL
 62
13
 10
2210.918
 20
-4428.341
 30
1877.000
 70
    32
  0
VERTEX
  8
3350LEVEL
 62
13
 10
2245.644
 20
-4484.974
 30
1877.000
 70
    32
  0
VERTEX
  8
3350LEVEL
 62
13
 10
2283.931
 20
-4545.995
 30
1877.000
 70
    32
  0
VERTEX
  8
3350LEVEL
 62
13
 10
2329.225
 20
-4571.291
 30
1877.000
 70
    32
  0
VERTEX
  8
3350LEVEL
 62
13
 10
2338.827
 20
-4524.626
 30
1877.000
 70
    32
  0
VERTEX
  8
3350LEVEL
 62
13
 10
2359.925
 20
-4495.309
 30
1877.000
 70
    32
  0
VERTEX
  8
3350LEVEL
 62
13
 10
2398.462
 20
-4551.823
 30
1877.000
 70
    32
  0
VERTEX
  8
3350LEVEL
 62
13
 10
2436.849
 20
-4597.191
 30
1877.000
 70
    32
  0
VERTEX
  8
3350LEVEL
 62
13
 10
2455.594
 20
-4618.030
 30
1877.000
 70
    32
  0
SEQEND
  8
3350LEVEL
  0
POLYLINE
  8
3350LEVEL
 62
13
 66
     1
 70
     8
  0
VERTEX
  8
3350LEVEL
 62
13
 10
1396.484
 20
-4610.869
 30
1877.000
 70
    32
  0
VERTEX
  8
3350LEVEL
 62
13
 10
1366.808
 20
-4581.371
 30
1877.000
 70
    32
  0
VERTEX
  8
3350LEVEL
 62
13
 10
1329.318
 20
-4539.693
 30
1877.000
 70
    32
  0
VERTEX
  8
3350LEVEL
 62
13
 10
1284.360
 20
-4471.738
 30
1877.000
 70
    32
  0
VERTEX
  8
3350LEVEL
 62
13
 10
1235.791
 20
-4407.221
 30
1877.000
 70
    32
  0
VERTEX
  8
3350LEVEL
 62
13
 10
1194.163
 20
-4329.967
 30
1877.000
 70
    32
  0
VERTEX
  8
3350LEVEL
 62
13
 10
1151.725
 20
-4280.128
 30
1877.000
 70
    32
  0
VERTEX
  8
3350LEVEL
 62
13
 10
1122.356
 20
-4232.230
 30
1877.000
 70
    32
  0
VERTEX
  8
3350LEVEL
 62
13
 10
1091.003
 20
-4164.537
 30
1877.000
 70
    32
  0
VERTEX
  8
3350LEVEL
 62
13
 10
1045.607
 20
-4120.268
 30
1877.000
 70
    32
  0
VERTEX
  8
3350LEVEL
 62
13
 10
1002.354
 20
-4066.248
 30
1877.000
 70
    32
  0
VERTEX
  8
3350LEVEL
 62
13
 10
954.446
 20
-3997.798
 30
1877.000
 70
    32
  0
VERTEX
  8
3350LEVEL
 62
13
 10
922.881
 20
-3935.882
 30
1877.000
 70
    32
  0
VERTEX
  8
3350LEVEL
 62
13
 10
896.034
 20
-3940.728
 30
1877.000
 70
    32
  0
VERTEX
  8
3350LEVEL
 62
13
 10
861.483
 20
-3874.014
 30
1877.000
 70
    32
  0
VERTEX
  8
3350LEVEL
 62
13
 10
834.255
 20
-3781.738
 30
1877.000
 70
    32
  0
VERTEX
  8
3350LEVEL
 62
13
 10
816.976
 20
-3697.956
 30
1877.000
 70
    32
  0
VERTEX
  8
3350LEVEL
 62
13
 10
807.478
 20
-3619.018
 30
1877.000
 70
    32
  0
VERTEX
  8
3350LEVEL
 62
13
 10
823.784
 20
-3586.622
 30
1877.000
 70
    32
  0
VERTEX
  8
3350LEVEL
 62
13
 10
840.533
 20
-3596.763
 30
1877.000
 70
    32
  0
VERTEX
  8
3350LEVEL
 62
13
 10
862.796
 20
-3658.381
 30
1877.000
 70
    32
  0
VERTEX
  8
3350LEVEL
 62
13
 10
892.186
 20
-3722.712
 30
1877.000
 70
    32
  0
VERTEX
  8
3350LEVEL
 62
13
 10
933.722
 20
-3809.555
 30
1877.000
 70
    32
  0
VERTEX
  8
3350LEVEL
 62
13
 10
983.622
 20
-3891.735
 30
1877.000
 70
    32
  0
VERTEX
  8
3350LEVEL
 62
13
 10
1009.349
 20
-3970.364
 30
1877.000
 70
    32
  0
VERTEX
  8
3350LEVEL
 62
13
 10
1041.987
 20
-4025.888
 30
1877.000
 70
    32
  0
VERTEX
  8
3350LEVEL
 62
13
 10
1083.568
 20
-4073.308
 30
1877.000
 70
    32
  0
VERTEX
  8
3350LEVEL
 62
13
 10
1081.424
 20
-4048.431
 30
1877.000
 70
    32
  0
VERTEX
  8
3350LEVEL
 62
13
 10
1047.083
 20
-4013.600
 30
1877.000
 70
    32
  0
VERTEX
  8
3350LEVEL
 62
13
 10
1029.920
 20
-3971.289
 30
1877.000
 70
    32
  0
VERTEX
  8
3350LEVEL
 62
13
 10
1073.718
 20
-4014.532
 30
1877.000
 70
    32
  0
VERTEX
  8
3350LEVEL
 62
13
 10
1100.068
 20
-4050.296
 30
1877.000
 70
    32
  0
VERTEX
  8
3350LEVEL
 62
13
 10
1131.152
 20
-4103.032
 30
1877.000
 70
    32
  0
VERTEX
  8
3350LEVEL
 62
13
 10
1170.156
 20
-4146.228
 30
1877.000
 70
    32
  0
VERTEX
  8
3350LEVEL
 62
13
 10
1213.942
 20
-4163.941
 30
1877.000
 70
    32
  0
VERTEX
  8
3350LEVEL
 62
13
 10
1250.557
 20
-4218.363
 30
1877.000
 70
    32
  0
VERTEX
  8
3350LEVEL
 62
13
 10
1271.014
 20
-4281.700
 30
1877.000
 70
    32
  0
VERTEX
  8
3350LEVEL
 62
13
 10
1301.239
 20
-4297.389
 30
1877.000
 70
    32
  0
VERTEX
  8
3350LEVEL
 62
13
 10
1292.320
 20
-4249.637
 30
1877.000
 70
    32
  0
VERTEX
  8
3350LEVEL
 62
13
 10
1322.283
 20
-4278.931
 30
1877.000
 70
    32
  0
VERTEX
  8
3350LEVEL
 62
13
 10
1320.843
 20
-4248.359
 30
1877.000
 70
    32
  0
VERTEX
  8
3350LEVEL
 62
13
 10
1302.162
 20
-4207.563
 30
1877.000
 70
    32
  0
VERTEX
  8
3350LEVEL
 62
13
 10
1293.461
 20
-4147.968
 30
1877.000
 70
    32
  0
VERTEX
  8
3350LEVEL
 62
13
 10
1256.414
 20
-4114.199
 30
1877.000
 70
    32
  0
VERTEX
  8
3350LEVEL
 62
13
 10
1225.370
 20
-4097.362
 30
1877.000
 70
    32
  0
VERTEX
  8
3350LEVEL
 62
13
 10
1186.908
 20
-4046.421
 30
1877.000
 70
    32
  0
VERTEX
  8
3350LEVEL
 62
13
 10
1152.501
 20
-3996.919
 30
1877.000
 70
    32
  0
VERTEX
  8
3350LEVEL
 62
13
 10
1136.071
 20
-3959.281
 30
1877.000
 70
    32
  0
VERTEX
  8
3350LEVEL
 62
13
 10
1111.260
 20
-3903.807
 30
1877.000
 70
    32
  0
VERTEX
  8
3350LEVEL
 62
13
 10
1069.719
 20
-3857.657
 30
1877.000
 70
    32
  0
VERTEX
  8
3350LEVEL
 62
13
 10
1070.094
 20
-3816.268
 30
1877.000
 70
    32
  0
VERTEX
  8
3350LEVEL
 62
13
 10
1046.701
 20
-3774.934
 30
1877.000
 70
    32
  0
VERTEX
  8
3350LEVEL
 62
13
 10
1047.734
 20
-3732.644
 30
1877.000
 70
    32
  0
VERTEX
  8
3350LEVEL
 62
13
 10
1087.057
 20
-3782.971
 30
1877.000
 70
    32
  0
VERTEX
  8
3350LEVEL
 62
13
 10
1108.439
 20
-3791.110
 30
1877.000
 70
    32
  0
VERTEX
  8
3350LEVEL
 62
13
 10
1127.177
 20
-3818.014
 30
1877.000
 70
    32
  0
VERTEX
  8
3350LEVEL
 62
13
 10
1171.902
 20
-3875.314
 30
1877.000
 70
    32
  0
VERTEX
  8
3350LEVEL
 62
13
 10
1207.787
 20
-3922.031
 30
1877.000
 70
    32
  0
VERTEX
  8
3350LEVEL
 62
13
 10
1246.651
 20
-3979.611
 30
1877.000
 70
    32
  0
VERTEX
  8
3350LEVEL
 62
13
 10
1286.628
 20
-4032.070
 30
1877.000
 70
    32
  0
VERTEX
  8
3350LEVEL
 62
13
 10
1306.576
 20
-4075.859
 30
1877.000
 70
    32
  0
VERTEX
  8
3350LEVEL
 62
13
 10
1337.390
 20
-4113.637
 30
1877.000
 70
    32
  0
VERTEX
  8
3350LEVEL
 62
13
 10
1367.436
 20
-4142.439
 30
1877.000
 70
    32
  0
VERTEX
  8
3350LEVEL
 62
13
 10
1360.171
 20
-4116.450
 30
1877.000
 70
    32
  0
VERTEX
  8
3350LEVEL
 62
13
 10
1333.455
 20
-4078.349
 30
1877.000
 70
    32
  0
VERTEX
  8
3350LEVEL
 62
13
 10
1336.060
 20
-4058.313
 30
1877.000
 70
    32
  0
VERTEX
  8
3350LEVEL
 62
13
 10
1330.637
 20
-4034.907
 30
1877.000
 70
    32
  0
VERTEX
  8
3350LEVEL
 62
13
 10
1329.871
 20
-3988.272
 30
1877.000
 70
    32
  0
VERTEX
  8
3350LEVEL
 62
13
 10
1317.087
 20
-3951.498
 30
1877.000
 70
    32
  0
VERTEX
  8
3350LEVEL
 62
13
 10
1290.708
 20
-3905.366
 30
1877.000
 70
    32
  0
VERTEX
  8
3350LEVEL
 62
13
 10
1255.859
 20
-3847.954
 30
1877.000
 70
    32
  0
VERTEX
  8
3350LEVEL
 62
13
 10
1257.907
 20
-3813.165
 30
1877.000
 70
    32
  0
VERTEX
  8
3350LEVEL
 62
13
 10
1283.582
 20
-3830.365
 30
1877.000
 70
    32
  0
VERTEX
  8
3350LEVEL
 62
13
 10
1302.534
 20
-3848.459
 30
1877.000
 70
    32
  0
VERTEX
  8
3350LEVEL
 62
13
 10
1329.819
 20
-3819.927
 30
1877.000
 70
    32
  0
VERTEX
  8
3350LEVEL
 62
13
 10
1359.254
 20
-3844.836
 30
1877.000
 70
    32
  0
VERTEX
  8
3350LEVEL
 62
13
 10
1366.885
 20
-3873.162
 30
1877.000
 70
    32
  0
VERTEX
  8
3350LEVEL
 62
13
 10
1391.846
 20
-3905.154
 30
1877.000
 70
    32
  0
VERTEX
  8
3350LEVEL
 62
13
 10
1438.849
 20
-3941.352
 30
1877.000
 70
    32
  0
VERTEX
  8
3350LEVEL
 62
13
 10
1467.765
 20
-3990.438
 30
1877.000
 70
    32
  0
VERTEX
  8
3350LEVEL
 62
13
 10
1503.485
 20
-4038.139
 30
1877.000
 70
    32
  0
VERTEX
  8
3350LEVEL
 62
13
 10
1531.755
 20
-4079.028
 30
1877.000
 70
    32
  0
VERTEX
  8
3350LEVEL
 62
13
 10
1567.127
 20
-4109.230
 30
1877.000
 70
    32
  0
VERTEX
  8
3350LEVEL
 62
13
 10
1657.427
 20
-4232.313
 30
1877.000
 70
    32
  0
VERTEX
  8
3350LEVEL
 62
13
 10
1698.896
 20
-4269.857
 30
1877.000
 70
    32
  0
VERTEX
  8
3350LEVEL
 62
13
 10
1735.858
 20
-4307.150
 30
1877.000
 70
    32
  0
VERTEX
  8
3350LEVEL
 62
13
 10
1776.638
 20
-4338.260
 30
1877.000
 70
    32
  0
VERTEX
  8
3350LEVEL
 62
13
 10
1813.955
 20
-4386.986
 30
1877.000
 70
    32
  0
VERTEX
  8
3350LEVEL
 62
13
 10
1844.069
 20
-4427.427
 30
1877.000
 70
    32
  0
VERTEX
  8
3350LEVEL
 62
13
 10
1873.420
 20
-4490.487
 30
1877.000
 70
    32
  0
VERTEX
  8
3350LEVEL
 62
13
 10
1887.065
 20
-4492.019
 30
1877.000
 70
    32
  0
VERTEX
  8
3350LEVEL
 62
13
 10
1872.141
 20
-4427.336
 30
1877.000
 70
    32
  0
VERTEX
  8
3350LEVEL
 62
13
 10
1844.103
 20
-4362.474
 30
1877.000
 70
    32
  0
VERTEX
  8
3350LEVEL
 62
13
 10
1795.000
 20
-4299.637
 30
1877.000
 70
    32
  0
VERTEX
  8
3350LEVEL
 62
13
 10
1762.524
 20
-4246.162
 30
1877.000
 70
    32
  0
VERTEX
  8
3350LEVEL
 62
13
 10
1724.235
 20
-4222.801
 30
1877.000
 70
    32
  0
VERTEX
  8
3350LEVEL
 62
13
 10
1699.310
 20
-4195.111
 30
1877.000
 70
    32
  0
VERTEX
  8
3350LEVEL
 62
13
 10
1684.638
 20
-4160.548
 30
1877.000
 70
    32
  0
VERTEX
  8
3350LEVEL
 62
13
 10
1707.029
 20
-4182.252
 30
1877.000
 70
    32
  0
VERTEX
  8
3350LEVEL
 62
13
 10
1730.855
 20
-4202.933
 30
1877.000
 70
    32
  0
VERTEX
  8
3350LEVEL
 62
13
 10
1727.732
 20
-4174.859
 30
1877.000
 70
    32
  0
VERTEX
  8
3350LEVEL
 62
13
 10
1697.456
 20
-4132.369
 30
1877.000
 70
    32
  0
VERTEX
  8
3350LEVEL
 62
13
 10
1659.957
 20
-4134.416
 30
1877.000
 70
    32
  0
VERTEX
  8
3350LEVEL
 62
13
 10
1626.955
 20
-4111.183
 30
1877.000
 70
    32
  0
VERTEX
  8
3350LEVEL
 62
13
 10
1619.764
 20
-4056.140
 30
1877.000
 70
    32
  0
VERTEX
  8
3350LEVEL
 62
13
 10
1675.659
 20
-4057.433
 30
1877.000
 70
    32
  0
VERTEX
  8
3350LEVEL
 62
13
 10
1719.784
 20
-4101.742
 30
1877.000
 70
    32
  0
VERTEX
  8
3350LEVEL
 62
13
 10
1758.448
 20
-4156.003
 30
1877.000
 70
    32
  0
VERTEX
  8
3350LEVEL
 62
13
 10
1804.008
 20
-4199.288
 30
1877.000
 70
    32
  0
VERTEX
  8
3350LEVEL
 62
13
 10
1852.637
 20
-4246.881
 30
1877.000
 70
    32
  0
VERTEX
  8
3350LEVEL
 62
13
 10
1894.142
 20
-4288.728
 30
1877.000
 70
    32
  0
VERTEX
  8
3350LEVEL
 62
13
 10
1929.964
 20
-4355.402
 30
1877.000
 70
    32
  0
VERTEX
  8
3350LEVEL
 62
13
 10
1984.284
 20
-4406.730
 30
1877.000
 70
    32
  0
VERTEX
  8
3350LEVEL
 62
13
 10
2027.911
 20
-4457.021
 30
1877.000
 70
    32
  0
VERTEX
  8
3350LEVEL
 62
13
 10
2046.578
 20
-4509.947
 30
1877.000
 70
    32
  0
VERTEX
  8
3350LEVEL
 62
13
 10
2080.008
 20
-4553.219
 30
1877.000
 70
    32
  0
VERTEX
  8
3350LEVEL
 62
13
 10
2109.804
 20
-4621.156
 30
1877.000
 70
    32
  0
VERTEX
  8
3350LEVEL
 62
13
 10
2136.176
 20
-4673.354
 30
1877.000
 70
    32
  0
VERTEX
  8
3350LEVEL
 62
13
 10
2180.485
 20
-4736.145
 30
1877.000
 70
    32
  0
VERTEX
  8
3350LEVEL
 62
13
 10
2232.775
 20
-4807.099
 30
1877.000
 70
    32
  0
VERTEX
  8
3350LEVEL
 62
13
 10
2273.401
 20
-4864.723
 30
1877.000
 70
    32
  0
VERTEX
  8
3350LEVEL
 62
13
 10
2323.395
 20
-4937.314
 30
1877.000
 70
    32
  0
VERTEX
  8
3350LEVEL
 62
13
 10
2372.617
 20
-5003.962
 30
1877.000
 70
    32
  0
VERTEX
  8
3350LEVEL
 62
13
 10
2412.088
 20
-5068.469
 30
1877.000
 70
    32
  0
VERTEX
  8
3350LEVEL
 62
13
 10
2444.198
 20
-5119.607
 30
1877.000
 70
    32
  0
VERTEX
  8
3350LEVEL
 62
13
 10
2475.454
 20
-5165.295
 30
1877.000
 70
    32
  0
VERTEX
  8
3350LEVEL
 62
13
 10
2507.172
 20
-5200.696
 30
1877.000
 70
    32
  0
VERTEX
  8
3350LEVEL
 62
13
 10
2538.948
 20
-5222.206
 30
1877.000
 70
    32
  0
VERTEX
  8
3350LEVEL
 62
13
 10
2559.430
 20
-5264.316
 30
1877.000
 70
    32
  0
VERTEX
  8
3350LEVEL
 62
13
 10
2587.298
 20
-5298.566
 30
1877.000
 70
    32
  0
VERTEX
  8
3350LEVEL
 62
13
 10
2608.942
 20
-5327.727
 30
1877.000
 70
    32
  0
VERTEX
  8
3350LEVEL
 62
13
 10
2614.929
 20
-5359.821
 30
1877.000
 70
    32
  0
VERTEX
  8
3350LEVEL
 62
13
 10
2596.845
 20
-5335.049
 30
1877.000
 70
    32
  0
VERTEX
  8
3350LEVEL
 62
13
 10
2572.171
 20
-5302.851
 30
1877.000
 70
    32
  0
VERTEX
  8
3350LEVEL
 62
13
 10
2584.808
 20
-5325.446
 30
1877.000
 70
    32
  0
VERTEX
  8
3350LEVEL
 62
13
 10
2617.700
 20
-5373.430
 30
1877.000
 70
    32
  0
VERTEX
  8
3350LEVEL
 62
13
 10
2660.146
 20
-5417.204
 30
1877.000
 70
    32
  0
VERTEX
  8
3350LEVEL
 62
13
 10
2697.922
 20
-5458.678
 30
1877.000
 70
    32
  0
VERTEX
  8
3350LEVEL
 62
13
 10
2730.954
 20
-5492.278
 30
1877.000
 70
    32
  0
VERTEX
  8
3350LEVEL
 62
13
 10
2751.975
 20
-5529.675
 30
1877.000
 70
    32
  0
VERTEX
  8
3350LEVEL
 62
13
 10
2769.062
 20
-5566.413
 30
1877.000
 70
    32
  0
VERTEX
  8
3350LEVEL
 62
13
 10
2795.785
 20
-5598.449
 30
1877.000
 70
    32
  0
VERTEX
  8
3350LEVEL
 62
13
 10
2816.708
 20
-5613.840
 30
1877.000
 70
    32
  0
VERTEX
  8
3350LEVEL
 62
13
 10
2847.123
 20
-5641.946
 30
1877.000
 70
    32
  0
VERTEX
  8
3350LEVEL
 62
13
 10
2868.097
 20
-5684.138
 30
1877.000
 70
    32
  0
VERTEX
  8
3350LEVEL
 62
13
 10
2893.737
 20
-5731.663
 30
1877.000
 70
    32
  0
VERTEX
  8
3350LEVEL
 62
13
 10
2920.083
 20
-5770.460
 30
1877.000
 70
    32
  0
VERTEX
  8
3350LEVEL
 62
13
 10
2943.953
 20
-5824.007
 30
1877.000
 70
    32
  0
VERTEX
  8
3350LEVEL
 62
13
 10
2957.466
 20
-5868.485
 30
1877.000
 70
    32
  0
VERTEX
  8
3350LEVEL
 62
13
 10
2986.608
 20
-5899.663
 30
1877.000
 70
    32
  0
VERTEX
  8
3350LEVEL
 62
13
 10
2992.536
 20
-5876.394
 30
1877.000
 70
    32
  0
VERTEX
  8
3350LEVEL
 62
13
 10
2973.317
 20
-5840.310
 30
1877.000
 70
    32
  0
VERTEX
  8
3350LEVEL
 62
13
 10
2955.422
 20
-5793.326
 30
1877.000
 70
    32
  0
VERTEX
  8
3350LEVEL
 62
13
 10
2964.518
 20
-5758.709
 30
1877.000
 70
    32
  0
VERTEX
  8
3350LEVEL
 62
13
 10
2961.211
 20
-5712.152
 30
1877.000
 70
    32
  0
VERTEX
  8
3350LEVEL
 62
13
 10
2986.867
 20
-5709.887
 30
1877.000
 70
    32
  0
VERTEX
  8
3350LEVEL
 62
13
 10
3022.839
 20
-5753.080
 30
1877.000
 70
    32
  0
VERTEX
  8
3350LEVEL
 62
13
 10
3058.777
 20
-5788.938
 30
1877.000
 70
    32
  0
VERTEX
  8
3350LEVEL
 62
13
 10
3097.419
 20
-5826.765
 30
1877.000
 70
    32
  0
VERTEX
  8
3350LEVEL
 62
13
 10
3129.966
 20
-5854.218
 30
1877.000
 70
    32
  0
VERTEX
  8
3350LEVEL
 62
13
 10
3173.488
 20
-5888.568
 30
1877.000
 70
    32
  0
VERTEX
  8
3350LEVEL
 62
13
 10
3197.326
 20
-5934.779
 30
1877.000
 70
    32
  0
VERTEX
  8
3350LEVEL
 62
13
 10
3215.755
 20
-5980.083
 30
1877.000
 70
    32
  0
VERTEX
  8
3350LEVEL
 62
13
 10
3240.303
 20
-6014.534
 30
1877.000
 70
    32
  0
VERTEX
  8
3350LEVEL
 62
13
 10
3268.479
 20
-6030.385
 30
1877.000
 70
    32
  0
VERTEX
  8
3350LEVEL
 62
13
 10
3255.454
 20
-5989.021
 30
1877.000
 70
    32
  0
VERTEX
  8
3350LEVEL
 62
13
 10
3233.332
 20
-5947.648
 30
1877.000
 70
    32
  0
VERTEX
  8
3350LEVEL
 62
13
 10
3258.597
 20
-5964.273
 30
1877.000
 70
    32
  0
VERTEX
  8
3350LEVEL
 62
13
 10
3285.439
 20
-6000.120
 30
1877.000
 70
    32
  0
VERTEX
  8
3350LEVEL
 62
13
 10
3282.021
 20
-5978.315
 30
1877.000
 70
    32
  0
VERTEX
  8
3350LEVEL
 62
13
 10
3272.481
 20
-5935.767
 30
1877.000
 70
    32
  0
VERTEX
  8
3350LEVEL
 62
13
 10
3252.494
 20
-5890.708
 30
1877.000
 70
    32
  0
VERTEX
  8
3350LEVEL
 62
13
 10
3224.109
 20
-5842.975
 30
1877.000
 70
    32
  0
VERTEX
  8
3350LEVEL
 62
13
 10
3211.486
 20
-5808.251
 30
1877.000
 70
    32
  0
VERTEX
  8
3350LEVEL
 62
13
 10
3242.182
 20
-5842.217
 30
1877.000
 70
    32
  0
VERTEX
  8
3350LEVEL
 62
13
 10
3271.841
 20
-5886.878
 30
1877.000
 70
    32
  0
VERTEX
  8
3350LEVEL
 62
13
 10
3288.034
 20
-5916.894
 30
1877.000
 70
    32
  0
VERTEX
  8
3350LEVEL
 62
13
 10
3307.953
 20
-5950.315
 30
1877.000
 70
    32
  0
VERTEX
  8
3350LEVEL
 62
13
 10
3302.461
 20
-5915.271
 30
1877.000
 70
    32
  0
VERTEX
  8
3350LEVEL
 62
13
 10
3320.563
 20
-5924.881
 30
1877.000
 70
    32
  0
VERTEX
  8
3350LEVEL
 62
13
 10
3341.012
 20
-5959.655
 30
1877.000
 70
    32
  0
VERTEX
  8
3350LEVEL
 62
13
 10
3342.908
 20
-5986.008
 30
1877.000
 70
    32
  0
VERTEX
  8
3350LEVEL
 62
13
 10
3361.011
 20
-6030.245
 30
1877.000
 70
    32
  0
VERTEX
  8
3350LEVEL
 62
13
 10
3379.775
 20
-6070.550
 30
1877.000
 70
    32
  0
VERTEX
  8
3350LEVEL
 62
13
 10
3407.671
 20
-6115.168
 30
1877.000
 70
    32
  0
VERTEX
  8
3350LEVEL
 62
13
 10
3438.568
 20
-6152.454
 30
1877.000
 70
    32
  0
VERTEX
  8
3350LEVEL
 62
13
 10
3460.191
 20
-6165.182
 30
1877.000
 70
    32
  0
VERTEX
  8
3350LEVEL
 62
13
 10
3477.485
 20
-6164.547
 30
1877.000
 70
    32
  0
SEQEND
  8
3350LEVEL
  0
POLYLINE
  8
3350LEVEL
 62
13
 66
     1
 70
     8
  0
VERTEX
  8
3350LEVEL
 62
13
 10
3442.626
 20
-6116.233
 30
1877.000
 70
    32
  0
VERTEX
  8
3350LEVEL
 62
13
 10
3413.879
 20
-6097.759
 30
1877.000
 70
    32
  0
VERTEX
  8
3350LEVEL
 62
13
 10
3405.025
 20
-6064.678
 30
1877.000
 70
    32
  0
VERTEX
  8
3350LEVEL
 62
13
 10
3398.768
 20
-6017.626
 30
1877.000
 70
    32
  0
VERTEX
  8
3350LEVEL
 62
13
 10
3378.490
 20
-5975.804
 30
1877.000
 70
    32
  0
VERTEX
  8
3350LEVEL
 62
13
 10
3351.197
 20
-5941.144
 30
1877.000
 70
    32
  0
VERTEX
  8
3350LEVEL
 62
13
 10
3317.073
 20
-5894.470
 30
1877.000
 70
    32
  0
VERTEX
  8
3350LEVEL
 62
13
 10
3291.248
 20
-5866.124
 30
1877.000
 70
    32
  0
VERTEX
  8
3350LEVEL
 62
13
 10
3260.143
 20
-5831.583
 30
1877.000
 70
    32
  0
VERTEX
  8
3350LEVEL
 62
13
 10
3269.901
 20
-5827.660
 30
1877.000
 70
    32
  0
VERTEX
  8
3350LEVEL
 62
13
 10
3264.567
 20
-5797.698
 30
1877.000
 70
    32
  0
VERTEX
  8
3350LEVEL
 62
13
 10
3242.556
 20
-5766.200
 30
1877.000
 70
    32
  0
SEQEND
  8
3350LEVEL
  0
POLYLINE
  8
3350LEVEL
 62
13
 66
     1
 70
     8
  0
VERTEX
  8
3350LEVEL
 62
13
 10
3219.010
 20
-5751.380
 30
1877.000
 70
    32
  0
VERTEX
  8
3350LEVEL
 62
13
 10
3195.532
 20
-5748.197
 30
1877.000
 70
    32
  0
VERTEX
  8
3350LEVEL
 62
13
 10
3158.302
 20
-5730.574
 30
1877.000
 70
    32
  0
VERTEX
  8
3350LEVEL
 62
13
 10
3125.399
 20
-5691.688
 30
1877.000
 70
    32
  0
VERTEX
  8
3350LEVEL
 62
13
 10
3111.826
 20
-5664.134
 30
1877.000
 70
    32
  0
VERTEX
  8
3350LEVEL
 62
13
 10
3144.872
 20
-5685.604
 30
1877.000
 70
    32
  0
VERTEX
  8
3350LEVEL
 62
13
 10
3175.212
 20
-5708.137
 30
1877.000
 70
    32
  0
VERTEX
  8
3350LEVEL
 62
13
 10
3161.796
 20
-5685.665
 30
1877.000
 70
    32
  0
VERTEX
  8
3350LEVEL
 62
13
 10
3128.104
 20
-5655.998
 30
1877.000
 70
    32
  0
VERTEX
  8
3350LEVEL
 62
13
 10
3089.313
 20
-5641.651
 30
1877.000
 70
    32
  0
VERTEX
  8
3350LEVEL
 62
13
 10
3045.282
 20
-5622.381
 30
1877.000
 70
    32
  0
VERTEX
  8
3350LEVEL
 62
13
 10
3008.478
 20
-5590.170
 30
1877.000
 70
    32
  0
VERTEX
  8
3350LEVEL
 62
13
 10
2969.335
 20
-5561.357
 30
1877.000
 70
    32
  0
VERTEX
  8
3350LEVEL
 62
13
 10
2933.906
 20
-5545.047
 30
1877.000
 70
    32
  0
VERTEX
  8
3350LEVEL
 62
13
 10
2898.363
 20
-5521.894
 30
1877.000
 70
    32
  0
VERTEX
  8
3350LEVEL
 62
13
 10
2857.181
 20
-5484.145
 30
1877.000
 70
    32
  0
VERTEX
  8
3350LEVEL
 62
13
 10
2815.342
 20
-5447.297
 30
1877.000
 70
    32
  0
VERTEX
  8
3350LEVEL
 62
13
 10
2776.471
 20
-5395.782
 30
1877.000
 70
    32
  0
VERTEX
  8
3350LEVEL
 62
13
 10
2760.754
 20
-5343.351
 30
1877.000
 70
    32
  0
VERTEX
  8
3350LEVEL
 62
13
 10
2755.143
 20
-5304.496
 30
1877.000
 70
    32
  0
VERTEX
  8
3350LEVEL
 62
13
 10
2770.187
 20
-5300.702
 30
1877.000
 70
    32
  0
VERTEX
  8
3350LEVEL
 62
13
 10
2808.731
 20
-5316.524
 30
1877.000
 70
    32
  0
VERTEX
  8
3350LEVEL
 62
13
 10
2854.409
 20
-5328.993
 30
1877.000
 70
    32
  0
VERTEX
  8
3350LEVEL
 62
13
 10
2889.428
 20
-5344.729
 30
1877.000
 70
    32
  0
VERTEX
  8
3350LEVEL
 62
13
 10
2922.987
 20
-5348.087
 30
1877.000
 70
    32
  0
VERTEX
  8
3350LEVEL
 62
13
 10
2946.088
 20
-5358.030
 30
1877.000
 70
    32
  0
VERTEX
  8
3350LEVEL
 62
13
 10
2939.968
 20
-5334.255
 30
1877.000
 70
    32
  0
VERTEX
  8
3350LEVEL
 62
13
 10
2964.376
 20
-5348.462
 30
1877.000
 70
    32
  0
VERTEX
  8
3350LEVEL
 62
13
 10
2976.890
 20
-5370.278
 30
1877.000
 70
    32
  0
VERTEX
  8
3350LEVEL
 62
13
 10
2987.718
 20
-5397.624
 30
1877.000
 70
    32
  0
VERTEX
  8
3350LEVEL
 62
13
 10
3010.185
 20
-5424.901
 30
1877.000
 70
    32
  0
VERTEX
  8
3350LEVEL
 62
13
 10
3033.856
 20
-5437.468
 30
1877.000
 70
    32
  0
VERTEX
  8
3350LEVEL
 62
13
 10
3012.126
 20
-5411.831
 30
1877.000
 70
    32
  0
VERTEX
  8
3350LEVEL
 62
13
 10
2996.051
 20
-5385.626
 30
1877.000
 70
    32
  0
VERTEX
  8
3350LEVEL
 62
13
 10
3016.974
 20
-5401.018
 30
1877.000
 70
    32
  0
VERTEX
  8
3350LEVEL
 62
13
 10
3040.962
 20
-5423.748
 30
1877.000
 70
    32
  0
VERTEX
  8
3350LEVEL
 62
13
 10
3062.150
 20
-5422.502
 30
1877.000
 70
    32
  0
VERTEX
  8
3350LEVEL
 62
13
 10
3092.349
 20
-5424.790
 30
1877.000
 70
    32
  0
VERTEX
  8
3350LEVEL
 62
13
 10
3128.991
 20
-5454.953
 30
1877.000
 70
    32
  0
VERTEX
  8
3350LEVEL
 62
13
 10
3162.353
 20
-5486.586
 30
1877.000
 70
    32
  0
VERTEX
  8
3350LEVEL
 62
13
 10
3189.643
 20
-5524.278
 30
1877.000
 70
    32
  0
VERTEX
  8
3350LEVEL
 62
13
 10
3230.595
 20
-5548.339
 30
1877.000
 70
    32
  0
VERTEX
  8
3350LEVEL
 62
13
 10
3263.218
 20
-5581.365
 30
1877.000
 70
    32
  0
VERTEX
  8
3350LEVEL
 62
13
 10
3290.389
 20
-5615.246
 30
1877.000
 70
    32
  0
VERTEX
  8
3350LEVEL
 62
13
 10
3177.189
 20
-5378.622
 30
1877.000
 70
    32
  0
VERTEX
  8
3350LEVEL
 62
13
 10
3172.235
 20
-5338.866
 30
1877.000
 70
    32
  0
VERTEX
  8
3350LEVEL
 62
13
 10
3162.533
 20
-5294.269
 30
1877.000
 70
    32
  0
VERTEX
  8
3350LEVEL
 62
13
 10
3155.190
 20
-5265.739
 30
1877.000
 70
    32
  0
VERTEX
  8
3350LEVEL
 62
13
 10
3170.133
 20
-5242.972
 30
1877.000
 70
    32
  0
VERTEX
  8
3350LEVEL
 62
13
 10
3181.569
 20
-5204.956
 30
1877.000
 70
    32
  0
VERTEX
  8
3350LEVEL
 62
13
 10
3205.326
 20
-5213.998
 30
1877.000
 70
    32
  0
VERTEX
  8
3350LEVEL
 62
13
 10
3228.255
 20
-5230.990
 30
1877.000
 70
    32
  0
VERTEX
  8
3350LEVEL
 62
13
 10
3259.371
 20
-5256.434
 30
1877.000
 70
    32
  0
VERTEX
  8
3350LEVEL
 62
13
 10
3293.091
 20
-5261.841
 30
1877.000
 70
    32
  0
VERTEX
  8
3350LEVEL
 62
13
 10
3319.397
 20
-5299.367
 30
1877.000
 70
    32
  0
VERTEX
  8
3350LEVEL
 62
13
 10
3344.291
 20
-5354.350
 30
1877.000
 70
    32
  0
VERTEX
  8
3350LEVEL
 62
13
 10
3368.276
 20
-5414.740
 30
1877.000
 70
    32
  0
VERTEX
  8
3350LEVEL
 62
13
 10
3392.240
 20
-5458.698
 30
1877.000
 70
    32
  0
VERTEX
  8
3350LEVEL
 62
13
 10
3414.581
 20
-5488.229
 30
1877.000
 70
    32
  0
SEQEND
  8
3350LEVEL
  0
POLYLINE
  8
3350LEVEL
 62
3
 66
     1
 70
     8
  0
VERTEX
  8
3350LEVEL
 62
3
 10
3414.581
 20
-5488.229
 30
1877.000
 70
    32
  0
VERTEX
  8
3350LEVEL
 62
3
 10
3453.914
 20
-5529.459
 30
1877.000
 70
    32
  0
VERTEX
  8
3350LEVEL
 62
3
 10
3484.366
 20
-5561.868
 30
1877.000
 70
    32
  0
VERTEX
  8
3350LEVEL
 62
3
 10
3507.644
 20
-5596.358
 30
1877.000
 70
    32
  0
VERTEX
  8
3350LEVEL
 62
3
 10
3534.162
 20
-5628.107
 30
1877.000
 70
    32
  0
VERTEX
  8
3350LEVEL
 62
3
 10
3552.857
 20
-5656.773
 30
1877.000
 70
    32
  0
SEQEND
  8
3350LEVEL
  0
LINE
  8
3350LEVEL
 62
3
 10
3219.010
 20
-5751.380
 30
1877.000
 11
3242.556
 21
-5766.200
 31
1877.000
  0
POLYLINE
  8
3350LEVEL
 62
3
 66
     1
 70
     8
  0
VERTEX
  8
3350LEVEL
 62
3
 10
1669.861
 20
-5072.286
 30
1877.000
 70
    32
  0
VERTEX
  8
3350LEVEL
 62
3
 10
1647.257
 20
-5021.733
 30
1877.000
 70
    32
  0
VERTEX
  8
3350LEVEL
 62
3
 10
1613.237
 20
-4956.372
 30
1877.000
 70
    32
  0
VERTEX
  8
3350LEVEL
 62
3
 10
1571.322
 20
-4879.323
 30
1877.000
 70
    32
  0
VERTEX
  8
3350LEVEL
 62
3
 10
1570.143
 20
-4835.146
 30
1877.000
 70
    32
  0
VERTEX
  8
3350LEVEL
 62
3
 10
1525.154
 20
-4794.483
 30
1877.000
 70
    32
  0
VERTEX
  8
3350LEVEL
 62
3
 10
1487.438
 20
-4736.085
 30
1877.000
 70
    32
  0
VERTEX
  8
3350LEVEL
 62
3
 10
1443.215
 20
-4669.770
 30
1877.000
 70
    32
  0
VERTEX
  8
3350LEVEL
 62
3
 10
1396.484
 20
-4610.869
 30
1877.000
 70
    32
  0
SEQEND
  8
3350LEVEL
  0
POLYLINE
  8
3350LEVEL
 62
7
 66
     1
 70
     8
  0
VERTEX
  8
3350LEVEL
 62
7
 10
3245.407
 20
-5766.340
 30
1877.000
 70
    32
  0
VERTEX
  8
3350LEVEL
 62
7
 10
3274.913
 20
-5781.236
 30
1877.000
 70
    32
  0
VERTEX
  8
3350LEVEL
 62
7
 10
3283.071
 20
-5813.947
 30
1877.000
 70
    32
  0
VERTEX
  8
3350LEVEL
 62
7
 10
3296.394
 20
-5846.009
 30
1877.000
 70
    32
  0
VERTEX
  8
3350LEVEL
 62
7
 10
3330.158
 20
-5884.282
 30
1877.000
 70
    32
  0
VERTEX
  8
3350LEVEL
 62
7
 10
3359.741
 20
-5923.369
 30
1877.000
 70
    32
  0
VERTEX
  8
3350LEVEL
 62
7
 10
3385.222
 20
-5965.812
 30
1877.000
 70
    32
  0
VERTEX
  8
3350LEVEL
 62
7
 10
3409.150
 20
-6005.467
 30
1877.000
 70
    32
  0
VERTEX
  8
3350LEVEL
 62
7
 10
3412.962
 20
-6039.976
 30
1877.000
 70
    32
  0
VERTEX
  8
3350LEVEL
 62
7
 10
3413.746
 20
-6071.450
 30
1877.000
 70
    32
  0
SEQEND
  8
3350LEVEL
  0
POLYLINE
  8
3350LEVEL
 62
7
 66
     1
 70
     8
  0
VERTEX
  8
3350LEVEL
 62
7
 10
3516.280
 20
-6210.488
 30
1877.000
 70
    32
  0
VERTEX
  8
3350LEVEL
 62
7
 10
3536.529
 20
-6241.943
 30
1877.000
 70
    32
  0
VERTEX
  8
3350LEVEL
 62
7
 10
3565.258
 20
-6275.579
 30
1877.000
 70
    32
  0
VERTEX
  8
3350LEVEL
 62
7
 10
3591.730
 20
-6312.123
 30
1877.000
 70
    32
  0
SEQEND
  8
3350LEVEL
  0
POLYLINE
  8
3350LEVEL
 62
7
 66
     1
 70
     8
  0
VERTEX
  8
3350LEVEL
 62
7
 10
3570.327
 20
-6322.179
 30
1877.000
 70
    32
  0
VERTEX
  8
3350LEVEL
 62
7
 10
3537.522
 20
-6305.299
 30
1877.000
 70
    32
  0
VERTEX
  8
3350LEVEL
 62
7
 10
3559.741
 20
-6334.051
 30
1877.000
 70
    32
  0
SEQEND
  8
3350LEVEL
  0
POLYLINE
  8
3350LEVEL
 62
7
 66
     1
 70
     9
  0
VERTEX
  8
3350LEVEL
 62
7
 10
2052.021
 20
-4587.446
 30
1877.000
 70
    32
  0
VERTEX
  8
3350LEVEL
 62
7
 10
2035.540
 20
-4557.635
 30
1877.000
 70
    32
  0
VERTEX
  8
3350LEVEL
 62
7
 10
2045.028
 20
-4538.754
 30
1877.000
 70
    32
  0
VERTEX
  8
3350LEVEL
 62
7
 10
2024.618
 20
-4505.250
 30
1877.000
 70
    32
  0
VERTEX
  8
3350LEVEL
 62
7
 10
1996.176
 20
-4471.409
 30
1877.000
 70
    32
  0
VERTEX
  8
3350LEVEL
 62
7
 10
1975.702
 20
-4457.862
 30
1877.000
 70
    32
  0
VERTEX
  8
3350LEVEL
 62
7
 10
1975.767
 20
-4472.533
 30
1877.000
 70
    32
  0
VERTEX
  8
3350LEVEL
 62
7
 10
1997.085
 20
-4500.629
 30
1877.000
 70
    32
  0
VERTEX
  8
3350LEVEL
 62
7
 10
2016.723
 20
-4528.190
 30
1877.000
 70
    32
  0
VERTEX
  8
3350LEVEL
 62
7
 10
2027.347
 20
-4555.248
 30
1877.000
 70
    32
  0
VERTEX
  8
3350LEVEL
 62
7
 10
2030.398
 20
-4574.717
 30
1877.000
 70
    32
  0
VERTEX
  8
3350LEVEL
 62
7
 10
2048.741
 20
-4588.917
 30
1877.000
 70
    32
  0
SEQEND
  8
3350LEVEL
  0
POLYLINE
  8
3350LEVEL
 62
7
 66
     1
 70
     9
  0
VERTEX
  8
3350LEVEL
 62
7
 10
2656.221
 20
-5445.106
 30
1877.000
 70
    32
  0
VERTEX
  8
3350LEVEL
 62
7
 10
2637.153
 20
-5420.169
 30
1877.000
 70
    32
  0
VERTEX
  8
3350LEVEL
 62
7
 10
2614.241
 20
-5388.014
 30
1877.000
 70
    32
  0
VERTEX
  8
3350LEVEL
 62
7
 10
2593.128
 20
-5360.206
 30
1877.000
 70
    32
  0
VERTEX
  8
3350LEVEL
 62
7
 10
2568.946
 20
-5328.091
 30
1877.000
 70
    32
  0
VERTEX
  8
3350LEVEL
 62
7
 10
2542.374
 20
-5307.202
 30
1877.000
 70
    32
  0
VERTEX
  8
3350LEVEL
 62
7
 10
2535.315
 20
-5316.127
 30
1877.000
 70
    32
  0
VERTEX
  8
3350LEVEL
 62
7
 10
2562.652
 20
-5349.024
 30
1877.000
 70
    32
  0
VERTEX
  8
3350LEVEL
 62
7
 10
2589.665
 20
-5377.823
 30
1877.000
 70
    32
  0
VERTEX
  8
3350LEVEL
 62
7
 10
2613.438
 20
-5409.364
 30
1877.000
 70
    32
  0
VERTEX
  8
3350LEVEL
 62
7
 10
2631.530
 20
-5428.071
 30
1877.000
 70
    32
  0
VERTEX
  8
3350LEVEL
 62
7
 10
2653.597
 20
-5445.677
 30
1877.000
 70
    32
  0
SEQEND
  8
3350LEVEL
  0
POLYLINE
  8
3350LEVEL
 62
7
 66
     1
 70
     9
  0
VERTEX
  8
3350LEVEL
 62
7
 10
3010.043
 20
-6687.646
 30
1877.000
 70
    32
  0
VERTEX
  8
3350LEVEL
 62
7
 10
3035.969
 20
-6700.339
 30
1877.000
 70
    32
  0
VERTEX
  8
3350LEVEL
 62
7
 10
3019.696
 20
-6667.782
 30
1877.000
 70
    32
  0
VERTEX
  8
3350LEVEL
 62
7
 10
3002.692
 20
-6630.553
 30
1877.000
 70
    32
  0
VERTEX
  8
3350LEVEL
 62
7
 10
2989.771
 20
-6605.131
 30
1877.000
 70
    32
  0
VERTEX
  8
3350LEVEL
 62
7
 10
2997.207
 20
-6589.444
 30
1877.000
 70
    32
  0
VERTEX
  8
3350LEVEL
 62
7
 10
3019.680
 20
-6610.657
 30
1877.000
 70
    32
  0
VERTEX
  8
3350LEVEL
 62
7
 10
3035.521
 20
-6626.206
 30
1877.000
 70
    32
  0
VERTEX
  8
3350LEVEL
 62
7
 10
3031.691
 20
-6606.859
 30
1877.000
 70
    32
  0
VERTEX
  8
3350LEVEL
 62
7
 10
3012.624
 20
-6581.922
 30
1877.000
 70
    32
  0
VERTEX
  8
3350LEVEL
 62
7
 10
3024.405
 20
-6564.437
 30
1877.000
 70
    32
  0
VERTEX
  8
3350LEVEL
 62
7
 10
3019.638
 20
-6540.131
 30
1877.000
 70
    32
  0
VERTEX
  8
3350LEVEL
 62
7
 10
3022.580
 20
-6512.063
 30
1877.000
 70
    32
  0
VERTEX
  8
3350LEVEL
 62
7
 10
3010.112
 20
-6485.453
 30
1877.000
 70
    32
  0
VERTEX
  8
3350LEVEL
 62
7
 10
3002.966
 20
-6463.275
 30
1877.000
 70
    32
  0
VERTEX
  8
3350LEVEL
 62
7
 10
3024.417
 20
-6483.052
 30
1877.000
 70
    32
  0
VERTEX
  8
3350LEVEL
 62
7
 10
3048.361
 20
-6507.544
 30
1877.000
 70
    32
  0
VERTEX
  8
3350LEVEL
 62
7
 10
3055.068
 20
-6484.152
 30
1877.000
 70
    32
  0
VERTEX
  8
3350LEVEL
 62
7
 10
3038.010
 20
-6457.783
 30
1877.000
 70
    32
  0
VERTEX
  8
3350LEVEL
 62
7
 10
3007.457
 20
-6406.400
 30
1877.000
 70
    32
  0
VERTEX
  8
3350LEVEL
 62
7
 10
2972.232
 20
-6355.750
 30
1877.000
 70
    32
  0
VERTEX
  8
3350LEVEL
 62
7
 10
2923.696
 20
-6298.568
 30
1877.000
 70
    32
  0
VERTEX
  8
3350LEVEL
 62
7
 10
2883.013
 20
-6254.837
 30
1877.000
 70
    32
  0
VERTEX
  8
3350LEVEL
 62
7
 10
2833.705
 20
-6191.713
 30
1877.000
 70
    32
  0
VERTEX
  8
3350LEVEL
 62
7
 10
2786.640
 20
-6137.812
 30
1877.000
 70
    32
  0
VERTEX
  8
3350LEVEL
 62
7
 10
2750.607
 20
-6076.915
 30
1877.000
 70
    32
  0
VERTEX
  8
3350LEVEL
 62
7
 10
2716.796
 20
-6008.809
 30
1877.000
 70
    32
  0
VERTEX
  8
3350LEVEL
 62
7
 10
2682.277
 20
-5949.431
 30
1877.000
 70
    32
  0
VERTEX
  8
3350LEVEL
 62
7
 10
2638.862
 20
-5893.362
 30
1877.000
 70
    32
  0
VERTEX
  8
3350LEVEL
 62
7
 10
2590.667
 20
-5825.117
 30
1877.000
 70
    32
  0
VERTEX
  8
3350LEVEL
 62
7
 10
2538.198
 20
-5767.275
 30
1877.000
 70
    32
  0
VERTEX
  8
3350LEVEL
 62
7
 10
2496.469
 20
-5705.676
 30
1877.000
 70
    32
  0
VERTEX
  8
3350LEVEL
 62
7
 10
2461.172
 20
-5646.420
 30
1877.000
 70
    32
  0
VERTEX
  8
3350LEVEL
 62
7
 10
2429.141
 20
-5597.822
 30
1877.000
 70
    32
  0
VERTEX
  8
3350LEVEL
 62
7
 10
2408.696
 20
-5594.643
 30
1877.000
 70
    32
  0
VERTEX
  8
3350LEVEL
 62
7
 10
2434.127
 20
-5644.913
 30
1877.000
 70
    32
  0
VERTEX
  8
3350LEVEL
 62
7
 10
2460.506
 20
-5691.046
 30
1877.000
 70
    32
  0
VERTEX
  8
3350LEVEL
 62
7
 10
2497.816
 20
-5745.837
 30
1877.000
 70
    32
  0
VERTEX
  8
3350LEVEL
 62
7
 10
2551.057
 20
-5809.622
 30
1877.000
 70
    32
  0
VERTEX
  8
3350LEVEL
 62
7
 10
2597.376
 20
-5870.981
 30
1877.000
 70
    32
  0
VERTEX
  8
3350LEVEL
 62
7
 10
2632.759
 20
-5926.713
 30
1877.000
 70
    32
  0
VERTEX
  8
3350LEVEL
 62
7
 10
2670.934
 20
-5977.858
 30
1877.000
 70
    32
  0
VERTEX
  8
3350LEVEL
 62
7
 10
2714.120
 20
-6054.867
 30
1877.000
 70
    32
  0
VERTEX
  8
3350LEVEL
 62
7
 10
2743.205
 20
-6099.937
 30
1877.000
 70
    32
  0
VERTEX
  8
3350LEVEL
 62
7
 10
2771.715
 20
-6145.417
 30
1877.000
 70
    32
  0
VERTEX
  8
3350LEVEL
 62
7
 10
2815.671
 20
-6193.741
 30
1877.000
 70
    32
  0
VERTEX
  8
3350LEVEL
 62
7
 10
2865.669
 20
-6263.300
 30
1877.000
 70
    32
  0
VERTEX
  8
3350LEVEL
 62
7
 10
2912.759
 20
-6330.602
 30
1877.000
 70
    32
  0
VERTEX
  8
3350LEVEL
 62
7
 10
2952.775
 20
-6384.331
 30
1877.000
 70
    32
  0
VERTEX
  8
3350LEVEL
 62
7
 10
2991.266
 20
-6445.640
 30
1877.000
 70
    32
  0
VERTEX
  8
3350LEVEL
 62
7
 10
2966.088
 20
-6460.118
 30
1877.000
 70
    32
  0
VERTEX
  8
3350LEVEL
 62
7
 10
2997.237
 20
-6527.524
 30
1877.000
 70
    32
  0
VERTEX
  8
3350LEVEL
 62
7
 10
2974.144
 20
-6546.143
 30
1877.000
 70
    32
  0
VERTEX
  8
3350LEVEL
 62
7
 10
2966.648
 20
-6578.754
 30
1877.000
 70
    32
  0
VERTEX
  8
3350LEVEL
 62
7
 10
2942.378
 20
-6587.824
 30
1877.000
 70
    32
  0
SEQEND
  8
3350LEVEL
  0
LINE
  8
3350LEVEL
 62
7
 10
687.997
 20
-4888.019
 30
1877.000
 11
715.082
 21
-4925.423
 31
1877.000
  0
LINE
  8
3350LEVEL
 62
7
 10
568.479
 20
-4728.184
 30
1877.000
 11
599.897
 21
-4775.920
 31
1877.000
  0
POLYLINE
  8
3350LEVEL
 62
7
 66
     1
 70
     8
  0
VERTEX
  8
3350LEVEL
 62
7
 10
3218.550
 20
-5747.817
 30
1877.000
 70
    32
  0
VERTEX
  8
3350LEVEL
 62
7
 10
3220.635
 20
-5728.146
 30
1877.000
 70
    32
  0
VERTEX
  8
3350LEVEL
 62
7
 10
3207.173
 20
-5710.468
 30
1877.000
 70
    32
  0
VERTEX
  8
3350LEVEL
 62
7
 10
3235.108
 20
-5721.729
 30
1877.000
 70
    32
  0
VERTEX
  8
3350LEVEL
 62
7
 10
3250.069
 20
-5718.427
 30
1877.000
 70
    32
  0
VERTEX
  8
3350LEVEL
 62
7
 10
3253.037
 20
-5703.760
 30
1877.000
 70
    32
  0
VERTEX
  8
3350LEVEL
 62
7
 10
3275.356
 20
-5716.858
 30
1877.000
 70
    32
  0
VERTEX
  8
3350LEVEL
 62
7
 10
3262.288
 20
-5677.256
 30
1877.000
 70
    32
  0
VERTEX
  8
3350LEVEL
 62
7
 10
3239.631
 20
-5637.562
 30
1877.000
 70
    32
  0
VERTEX
  8
3350LEVEL
 62
7
 10
3207.876
 20
-5597.857
 30
1877.000
 70
    32
  0
VERTEX
  8
3350LEVEL
 62
7
 10
3186.027
 20
-5568.409
 30
1877.000
 70
    32
  0
VERTEX
  8
3350LEVEL
 62
7
 10
3207.743
 20
-5571.548
 30
1877.000
 70
    32
  0
VERTEX
  8
3350LEVEL
 62
7
 10
3238.940
 20
-5596.500
 30
1877.000
 70
    32
  0
VERTEX
  8
3350LEVEL
 62
7
 10
3263.488
 20
-5630.951
 30
1877.000
 70
    32
  0
VERTEX
  8
3350LEVEL
 62
7
 10
3293.524
 20
-5668.851
 30
1877.000
 70
    32
  0
VERTEX
  8
3350LEVEL
 62
7
 10
3311.845
 20
-5701.246
 30
1877.000
 70
    32
  0
VERTEX
  8
3350LEVEL
 62
7
 10
3340.040
 20
-5736.561
 30
1877.000
 70
    32
  0
VERTEX
  8
3350LEVEL
 62
7
 10
3360.101
 20
-5752.567
 30
1877.000
 70
    32
  0
VERTEX
  8
3350LEVEL
 62
7
 10
3376.065
 20
-5768.895
 30
1877.000
 70
    32
  0
VERTEX
  8
3350LEVEL
 62
7
 10
3398.657
 20
-5793.918
 30
1877.000
 70
    32
  0
VERTEX
  8
3350LEVEL
 62
7
 10
3429.983
 20
-5813.584
 30
1877.000
 70
    32
  0
VERTEX
  8
3350LEVEL
 62
7
 10
3464.121
 20
-5848.128
 30
1877.000
 70
    32
  0
VERTEX
  8
3350LEVEL
 62
7
 10
3491.144
 20
-5867.829
 30
1877.000
 70
    32
  0
VERTEX
  8
3350LEVEL
 62
7
 10
3469.381
 20
-5834.856
 30
1877.000
 70
    32
  0
VERTEX
  8
3350LEVEL
 62
7
 10
3441.022
 20
-5800.524
 30
1877.000
 70
    32
  0
VERTEX
  8
3350LEVEL
 62
7
 10
3403.450
 20
-5759.337
 30
1877.000
 70
    32
  0
VERTEX
  8
3350LEVEL
 62
7
 10
3379.113
 20
-5719.108
 30
1877.000
 70
    32
  0
VERTEX
  8
3350LEVEL
 62
7
 10
3355.771
 20
-5669.947
 30
1877.000
 70
    32
  0
VERTEX
  8
3350LEVEL
 62
7
 10
3335.457
 20
-5623.821
 30
1877.000
 70
    32
  0
VERTEX
  8
3350LEVEL
 62
7
 10
3316.492
 20
-5580.197
 30
1877.000
 70
    32
  0
VERTEX
  8
3350LEVEL
 62
7
 10
3294.876
 20
-5526.776
 30
1877.000
 70
    32
  0
VERTEX
  8
3350LEVEL
 62
7
 10
3280.376
 20
-5485.165
 30
1877.000
 70
    32
  0
VERTEX
  8
3350LEVEL
 62
7
 10
3265.434
 20
-5435.644
 30
1877.000
 70
    32
  0
VERTEX
  8
3350LEVEL
 62
7
 10
3256.554
 20
-5389.163
 30
1877.000
 70
    32
  0
VERTEX
  8
3350LEVEL
 62
7
 10
3306.855
 20
-5408.727
 30
1877.000
 70
    32
  0
VERTEX
  8
3350LEVEL
 62
7
 10
3358.240
 20
-5447.430
 30
1877.000
 70
    32
  0
VERTEX
  8
3350LEVEL
 62
7
 10
3393.902
 20
-5474.395
 30
1877.000
 70
    32
  0
SEQEND
  8
3350LEVEL
  0
POLYLINE
  8
3350LEVEL
 62
7
 66
     1
 70
     8
  0
VERTEX
  8
3350LEVEL
 62
7
 10
1392.647
 20
-4597.588
 30
1877.000
 70
    32
  0
VERTEX
  8
3350LEVEL
 62
7
 10
1383.564
 20
-4585.447
 30
1877.000
 70
    32
  0
VERTEX
  8
3350LEVEL
 62
7
 10
1350.790
 20
-4541.274
 30
1877.000
 70
    32
  0
VERTEX
  8
3350LEVEL
 62
7
 10
1314.912
 20
-4488.492
 30
1877.000
 70
    32
  0
VERTEX
  8
3350LEVEL
 62
7
 10
1291.189
 20
-4449.125
 30
1877.000
 70
    32
  0
VERTEX
  8
3350LEVEL
 62
7
 10
1313.220
 20
-4462.427
 30
1877.000
 70
    32
  0
VERTEX
  8
3350LEVEL
 62
7
 10
1348.539
 20
-4503.489
 30
1877.000
 70
    32
  0
VERTEX
  8
3350LEVEL
 62
7
 10
1387.948
 20
-4550.292
 30
1877.000
 70
    32
  0
VERTEX
  8
3350LEVEL
 62
7
 10
1427.218
 20
-4611.478
 30
1877.000
 70
    32
  0
VERTEX
  8
3350LEVEL
 62
7
 10
1474.735
 20
-4664.192
 30
1877.000
 70
    32
  0
VERTEX
  8
3350LEVEL
 62
7
 10
1519.330
 20
-4726.778
 30
1877.000
 70
    32
  0
VERTEX
  8
3350LEVEL
 62
7
 10
1560.829
 20
-4774.690
 30
1877.000
 70
    32
  0
VERTEX
  8
3350LEVEL
 62
7
 10
1599.279
 20
-4800.101
 30
1877.000
 70
    32
  0
VERTEX
  8
3350LEVEL
 62
7
 10
1632.284
 20
-4785.673
 30
1877.000
 70
    32
  0
VERTEX
  8
3350LEVEL
 62
7
 10
1661.600
 20
-4772.142
 30
1877.000
 70
    32
  0
VERTEX
  8
3350LEVEL
 62
7
 10
1659.022
 20
-4733.291
 30
1877.000
 70
    32
  0
VERTEX
  8
3350LEVEL
 62
7
 10
1610.336
 20
-4699.590
 30
1877.000
 70
    32
  0
VERTEX
  8
3350LEVEL
 62
7
 10
1585.694
 20
-4640.101
 30
1877.000
 70
    32
  0
VERTEX
  8
3350LEVEL
 62
7
 10
1555.432
 20
-4585.481
 30
1877.000
 70
    32
  0
VERTEX
  8
3350LEVEL
 62
7
 10
1580.008
 20
-4595.672
 30
1877.000
 70
    32
  0
VERTEX
  8
3350LEVEL
 62
7
 10
1610.525
 20
-4642.752
 30
1877.000
 70
    32
  0
VERTEX
  8
3350LEVEL
 62
7
 10
1652.802
 20
-4690.542
 30
1877.000
 70
    32
  0
VERTEX
  8
3350LEVEL
 62
7
 10
1654.112
 20
-4691.773
 30
1877.000
 70
    32
  0
VERTEX
  8
3350LEVEL
 62
7
 10
1696.177
 20
-4745.340
 30
1877.000
 70
    32
  0
VERTEX
  8
3350LEVEL
 62
7
 10
1739.602
 20
-4792.312
 30
1877.000
 70
    32
  0
VERTEX
  8
3350LEVEL
 62
7
 10
1781.198
 20
-4862.230
 30
1877.000
 70
    32
  0
VERTEX
  8
3350LEVEL
 62
7
 10
1829.067
 20
-4929.410
 30
1877.000
 70
    32
  0
VERTEX
  8
3350LEVEL
 62
7
 10
1866.233
 20
-4966.990
 30
1877.000
 70
    32
  0
VERTEX
  8
3350LEVEL
 62
7
 10
1843.827
 20
-4922.788
 30
1877.000
 70
    32
  0
VERTEX
  8
3350LEVEL
 62
7
 10
1820.904
 20
-4865.103
 30
1877.000
 70
    32
  0
VERTEX
  8
3350LEVEL
 62
7
 10
1784.185
 20
-4794.740
 30
1877.000
 70
    32
  0
VERTEX
  8
3350LEVEL
 62
7
 10
1742.216
 20
-4728.551
 30
1877.000
 70
    32
  0
VERTEX
  8
3350LEVEL
 62
7
 10
1707.982
 20
-4672.001
 30
1877.000
 70
    32
  0
VERTEX
  8
3350LEVEL
 62
7
 10
1738.024
 20
-4703.835
 30
1877.000
 70
    32
  0
VERTEX
  8
3350LEVEL
 62
7
 10
1703.211
 20
-4650.727
 30
1877.000
 70
    32
  0
VERTEX
  8
3350LEVEL
 62
7
 10
1652.985
 20
-4602.108
 30
1877.000
 70
    32
  0
VERTEX
  8
3350LEVEL
 62
7
 10
1616.167
 20
-4547.399
 30
1877.000
 70
    32
  0
VERTEX
  8
3350LEVEL
 62
7
 10
1586.267
 20
-4498.148
 30
1877.000
 70
    32
  0
VERTEX
  8
3350LEVEL
 62
7
 10
1532.184
 20
-4454.442
 30
1877.000
 70
    32
  0
VERTEX
  8
3350LEVEL
 62
7
 10
1495.843
 20
-4411.946
 30
1877.000
 70
    32
  0
VERTEX
  8
3350LEVEL
 62
7
 10
1528.558
 20
-4435.383
 30
1877.000
 70
    32
  0
VERTEX
  8
3350LEVEL
 62
7
 10
1484.612
 20
-4377.961
 30
1877.000
 70
    32
  0
VERTEX
  8
3350LEVEL
 62
7
 10
1434.024
 20
-4323.973
 30
1877.000
 70
    32
  0
VERTEX
  8
3350LEVEL
 62
7
 10
1383.750
 20
-4245.522
 30
1877.000
 70
    32
  0
VERTEX
  8
3350LEVEL
 62
7
 10
1351.439
 20
-4191.064
 30
1877.000
 70
    32
  0
VERTEX
  8
3350LEVEL
 62
7
 10
1383.871
 20
-4211.673
 30
1877.000
 70
    32
  0
VERTEX
  8
3350LEVEL
 62
7
 10
1431.979
 20
-4248.814
 30
1877.000
 70
    32
  0
VERTEX
  8
3350LEVEL
 62
7
 10
1475.566
 20
-4297.835
 30
1877.000
 70
    32
  0
VERTEX
  8
3350LEVEL
 62
7
 10
1529.514
 20
-4352.892
 30
1877.000
 70
    32
  0
VERTEX
  8
3350LEVEL
 62
7
 10
1571.500
 20
-4403.919
 30
1877.000
 70
    32
  0
VERTEX
  8
3350LEVEL
 62
7
 10
1614.304
 20
-4421.466
 30
1877.000
 70
    32
  0
VERTEX
  8
3350LEVEL
 62
7
 10
1651.724
 20
-4451.507
 30
1877.000
 70
    32
  0
VERTEX
  8
3350LEVEL
 62
7
 10
1690.295
 20
-4515.356
 30
1877.000
 70
    32
  0
VERTEX
  8
3350LEVEL
 62
7
 10
1723.194
 20
-4557.275
 30
1877.000
 70
    32
  0
VERTEX
  8
3350LEVEL
 62
7
 10
1750.049
 20
-4580.992
 30
1877.000
 70
    32
  0
VERTEX
  8
3350LEVEL
 62
7
 10
1754.470
 20
-4550.140
 30
1877.000
 70
    32
  0
VERTEX
  8
3350LEVEL
 62
7
 10
1725.640
 20
-4497.530
 30
1877.000
 70
    32
  0
VERTEX
  8
3350LEVEL
 62
7
 10
1702.670
 20
-4444.640
 30
1877.000
 70
    32
  0
VERTEX
  8
3350LEVEL
 62
7
 10
1680.275
 20
-4391.340
 30
1877.000
 70
    32
  0
VERTEX
  8
3350LEVEL
 62
7
 10
1663.399
 20
-4348.825
 30
1877.000
 70
    32
  0
VERTEX
  8
3350LEVEL
 62
7
 10
1623.125
 20
-4305.668
 30
1877.000
 70
    32
  0
VERTEX
  8
3350LEVEL
 62
7
 10
1586.895
 20
-4273.048
 30
1877.000
 70
    32
  0
VERTEX
  8
3350LEVEL
 62
7
 10
1564.737
 20
-4227.371
 30
1877.000
 70
    32
  0
VERTEX
  8
3350LEVEL
 62
7
 10
1532.498
 20
-4181.519
 30
1877.000
 70
    32
  0
VERTEX
  8
3350LEVEL
 62
7
 10
1510.580
 20
-4140.432
 30
1877.000
 70
    32
  0
VERTEX
  8
3350LEVEL
 62
7
 10
1495.126
 20
-4109.024
 30
1877.000
 70
    32
  0
VERTEX
  8
3350LEVEL
 62
7
 10
1467.330
 20
-4083.380
 30
1877.000
 70
    32
  0
VERTEX
  8
3350LEVEL
 62
7
 10
1436.430
 20
-4049.126
 30
1877.000
 70
    32
  0
VERTEX
  8
3350LEVEL
 62
7
 10
1414.096
 20
-4013.530
 30
1877.000
 70
    32
  0
VERTEX
  8
3350LEVEL
 62
7
 10
1414.899
 20
-3992.181
 30
1877.000
 70
    32
  0
VERTEX
  8
3350LEVEL
 62
7
 10
1431.626
 20
-3985.889
 30
1877.000
 70
    32
  0
VERTEX
  8
3350LEVEL
 62
7
 10
1455.758
 20
-4025.831
 30
1877.000
 70
    32
  0
VERTEX
  8
3350LEVEL
 62
7
 10
1501.879
 20
-4080.838
 30
1877.000
 70
    32
  0
VERTEX
  8
3350LEVEL
 62
7
 10
1543.036
 20
-4139.814
 30
1877.000
 70
    32
  0
VERTEX
  8
3350LEVEL
 62
7
 10
1592.265
 20
-4200.397
 30
1877.000
 70
    32
  0
VERTEX
  8
3350LEVEL
 62
7
 10
1624.824
 20
-4253.380
 30
1877.000
 70
    32
  0
VERTEX
  8
3350LEVEL
 62
7
 10
1648.887
 20
-4281.684
 30
1877.000
 70
    32
  0
VERTEX
  8
3350LEVEL
 62
7
 10
1683.499
 20
-4331.473
 30
1877.000
 70
    32
  0
VERTEX
  8
3350LEVEL
 62
7
 10
1719.147
 20
-4370.567
 30
1877.000
 70
    32
  0
VERTEX
  8
3350LEVEL
 62
7
 10
1764.543
 20
-4414.837
 30
1877.000
 70
    32
  0
VERTEX
  8
3350LEVEL
 62
7
 10
1784.105
 20
-4436.824
 30
1877.000
 70
    32
  0
VERTEX
  8
3350LEVEL
 62
7
 10
1815.035
 20
-4481.446
 30
1877.000
 70
    32
  0
VERTEX
  8
3350LEVEL
 62
7
 10
1842.149
 20
-4529.218
 30
1877.000
 70
    32
  0
VERTEX
  8
3350LEVEL
 62
7
 10
1866.228
 20
-4580.020
 30
1877.000
 70
    32
  0
VERTEX
  8
3350LEVEL
 62
7
 10
1878.952
 20
-4633.717
 30
1877.000
 70
    32
  0
VERTEX
  8
3350LEVEL
 62
7
 10
1899.459
 20
-4689.227
 30
1877.000
 70
    32
  0
VERTEX
  8
3350LEVEL
 62
7
 10
1937.143
 20
-4740.290
 30
1877.000
 70
    32
  0
VERTEX
  8
3350LEVEL
 62
7
 10
1962.236
 20
-4763.964
 30
1877.000
 70
    32
  0
VERTEX
  8
3350LEVEL
 62
7
 10
1998.533
 20
-4773.595
 30
1877.000
 70
    32
  0
VERTEX
  8
3350LEVEL
 62
7
 10
2010.057
 20
-4801.311
 30
1877.000
 70
    32
  0
VERTEX
  8
3350LEVEL
 62
7
 10
2034.236
 20
-4836.458
 30
1877.000
 70
    32
  0
VERTEX
  8
3350LEVEL
 62
7
 10
2094.166
 20
-4892.014
 30
1877.000
 70
    32
  0
VERTEX
  8
3350LEVEL
 62
7
 10
2135.223
 20
-4932.016
 30
1877.000
 70
    32
  0
VERTEX
  8
3350LEVEL
 62
7
 10
2169.963
 20
-4976.519
 30
1877.000
 70
    32
  0
VERTEX
  8
3350LEVEL
 62
7
 10
2157.824
 20
-4913.314
 30
1877.000
 70
    32
  0
VERTEX
  8
3350LEVEL
 62
7
 10
2191.502
 20
-4955.111
 30
1877.000
 70
    32
  0
VERTEX
  8
3350LEVEL
 62
7
 10
2225.489
 20
-5013.136
 30
1877.000
 70
    32
  0
VERTEX
  8
3350LEVEL
 62
7
 10
2270.322
 20
-5083.345
 30
1877.000
 70
    32
  0
VERTEX
  8
3350LEVEL
 62
7
 10
2320.373
 20
-5142.045
 30
1877.000
 70
    32
  0
VERTEX
  8
3350LEVEL
 62
7
 10
2357.073
 20
-5192.942
 30
1877.000
 70
    32
  0
VERTEX
  8
3350LEVEL
 62
7
 10
2390.159
 20
-5250.311
 30
1877.000
 70
    32
  0
VERTEX
  8
3350LEVEL
 62
7
 10
2420.052
 20
-5305.627
 30
1877.000
 70
    32
  0
VERTEX
  8
3350LEVEL
 62
7
 10
2458.834
 20
-5363.699
 30
1877.000
 70
    32
  0
VERTEX
  8
3350LEVEL
 62
7
 10
2492.312
 20
-5436.804
 30
1877.000
 70
    32
  0
VERTEX
  8
3350LEVEL
 62
7
 10
2524.135
 20
-5488.147
 30
1877.000
 70
    32
  0
VERTEX
  8
3350LEVEL
 62
7
 10
2530.300
 20
-5472.500
 30
1877.000
 70
    32
  0
VERTEX
  8
3350LEVEL
 62
7
 10
2559.916
 20
-5518.923
 30
1877.000
 70
    32
  0
VERTEX
  8
3350LEVEL
 62
7
 10
2613.329
 20
-5575.659
 30
1877.000
 70
    32
  0
VERTEX
  8
3350LEVEL
 62
7
 10
2636.352
 20
-5617.690
 30
1877.000
 70
    32
  0
VERTEX
  8
3350LEVEL
 62
7
 10
2673.597
 20
-5657.810
 30
1877.000
 70
    32
  0
VERTEX
  8
3350LEVEL
 62
7
 10
2701.950
 20
-5698.208
 30
1877.000
 70
    32
  0
VERTEX
  8
3350LEVEL
 62
7
 10
2736.104
 20
-5717.590
 30
1877.000
 70
    32
  0
VERTEX
  8
3350LEVEL
 62
7
 10
2782.677
 20
-5771.408
 30
1877.000
 70
    32
  0
VERTEX
  8
3350LEVEL
 62
7
 10
2817.001
 20
-5821.402
 30
1877.000
 70
    32
  0
VERTEX
  8
3350LEVEL
 62
7
 10
2836.526
 20
-5876.747
 30
1877.000
 70
    32
  0
VERTEX
  8
3350LEVEL
 62
7
 10
2849.504
 20
-5922.905
 30
1877.000
 70
    32
  0
VERTEX
  8
3350LEVEL
 62
7
 10
2872.320
 20
-5967.681
 30
1877.000
 70
    32
  0
VERTEX
  8
3350LEVEL
 62
7
 10
2893.393
 20
-5994.219
 30
1877.000
 70
    32
  0
VERTEX
  8
3350LEVEL
 62
7
 10
2894.491
 20
-5966.600
 30
1877.000
 70
    32
  0
VERTEX
  8
3350LEVEL
 62
7
 10
2879.269
 20
-5911.219
 30
1877.000
 70
    32
  0
VERTEX
  8
3350LEVEL
 62
7
 10
2851.483
 20
-5841.850
 30
1877.000
 70
    32
  0
VERTEX
  8
3350LEVEL
 62
7
 10
2815.292
 20
-5775.872
 30
1877.000
 70
    32
  0
VERTEX
  8
3350LEVEL
 62
7
 10
2795.463
 20
-5735.894
 30
1877.000
 70
    32
  0
VERTEX
  8
3350LEVEL
 62
7
 10
2777.923
 20
-5700.344
 30
1877.000
 70
    32
  0
VERTEX
  8
3350LEVEL
 62
7
 10
2748.811
 20
-5679.534
 30
1877.000
 70
    32
  0
VERTEX
  8
3350LEVEL
 62
7
 10
2684.976
 20
-5633.687
 30
1877.000
 70
    32
  0
VERTEX
  8
3350LEVEL
 62
7
 10
2648.488
 20
-5577.011
 30
1877.000
 70
    32
  0
VERTEX
  8
3350LEVEL
 62
7
 10
2635.513
 20
-5527.820
 30
1877.000
 70
    32
  0
VERTEX
  8
3350LEVEL
 62
7
 10
2597.955
 20
-5474.504
 30
1877.000
 70
    32
  0
VERTEX
  8
3350LEVEL
 62
7
 10
2552.010
 20
-5409.416
 30
1877.000
 70
    32
  0
VERTEX
  8
3350LEVEL
 62
7
 10
2492.829
 20
-5343.371
 30
1877.000
 70
    32
  0
VERTEX
  8
3350LEVEL
 62
7
 10
2451.410
 20
-5298.000
 30
1877.000
 70
    32
  0
VERTEX
  8
3350LEVEL
 62
7
 10
2418.984
 20
-5236.698
 30
1877.000
 70
    32
  0
VERTEX
  8
3350LEVEL
 62
7
 10
2383.726
 20
-5178.712
 30
1877.000
 70
    32
  0
VERTEX
  8
3350LEVEL
 62
7
 10
2345.532
 20
-5108.101
 30
1877.000
 70
    32
  0
VERTEX
  8
3350LEVEL
 62
7
 10
2311.584
 20
-5051.347
 30
1877.000
 70
    32
  0
VERTEX
  8
3350LEVEL
 62
7
 10
2278.362
 20
-5005.329
 30
1877.000
 70
    32
  0
VERTEX
  8
3350LEVEL
 62
7
 10
2239.444
 20
-4958.609
 30
1877.000
 70
    32
  0
VERTEX
  8
3350LEVEL
 62
7
 10
2198.689
 20
-4906.272
 30
1877.000
 70
    32
  0
VERTEX
  8
3350LEVEL
 62
7
 10
2162.857
 20
-4848.695
 30
1877.000
 70
    32
  0
VERTEX
  8
3350LEVEL
 62
7
 10
2130.236
 20
-4778.009
 30
1877.000
 70
    32
  0
VERTEX
  8
3350LEVEL
 62
7
 10
2109.187
 20
-4730.243
 30
1877.000
 70
    32
  0
VERTEX
  8
3350LEVEL
 62
7
 10
2097.842
 20
-4689.415
 30
1877.000
 70
    32
  0
VERTEX
  8
3350LEVEL
 62
7
 10
2130.748
 20
-4725.269
 30
1877.000
 70
    32
  0
VERTEX
  8
3350LEVEL
 62
7
 10
2157.608
 20
-4780.581
 30
1877.000
 70
    32
  0
VERTEX
  8
3350LEVEL
 62
7
 10
2192.938
 20
-4847.173
 30
1877.000
 70
    32
  0
VERTEX
  8
3350LEVEL
 62
7
 10
2225.579
 20
-4899.664
 30
1877.000
 70
    32
  0
VERTEX
  8
3350LEVEL
 62
7
 10
2260.079
 20
-4939.577
 30
1877.000
 70
    32
  0
VERTEX
  8
3350LEVEL
 62
7
 10
2297.802
 20
-4991.910
 30
1877.000
 70
    32
  0
VERTEX
  8
3350LEVEL
 62
7
 10
2331.225
 20
-5041.247
 30
1877.000
 70
    32
  0
VERTEX
  8
3350LEVEL
 62
7
 10
2356.337
 20
-5084.387
 30
1877.000
 70
    32
  0
VERTEX
  8
3350LEVEL
 62
7
 10
2403.699
 20
-5128.986
 30
1877.000
 70
    32
  0
VERTEX
  8
3350LEVEL
 62
7
 10
2434.190
 20
-5162.665
 30
1877.000
 70
    32
  0
VERTEX
  8
3350LEVEL
 62
7
 10
2442.130
 20
-5207.219
 30
1877.000
 70
    32
  0
VERTEX
  8
3350LEVEL
 62
7
 10
2468.720
 20
-5247.574
 30
1877.000
 70
    32
  0
VERTEX
  8
3350LEVEL
 62
7
 10
2509.060
 20
-5305.401
 30
1877.000
 70
    32
  0
VERTEX
  8
3350LEVEL
 62
7
 10
2546.632
 20
-5346.588
 30
1877.000
 70
    32
  0
VERTEX
  8
3350LEVEL
 62
7
 10
2587.929
 20
-5391.181
 30
1877.000
 70
    32
  0
VERTEX
  8
3350LEVEL
 62
7
 10
2618.564
 20
-5442.071
 30
1877.000
 70
    32
  0
VERTEX
  8
3350LEVEL
 62
7
 10
2651.962
 20
-5478.008
 30
1877.000
 70
    32
  0
VERTEX
  8
3350LEVEL
 62
7
 10
2675.573
 20
-5507.500
 30
1877.000
 70
    32
  0
VERTEX
  8
3350LEVEL
 62
7
 10
2683.701
 20
-5495.215
 30
1877.000
 70
    32
  0
VERTEX
  8
3350LEVEL
 62
7
 10
2699.324
 20
-5522.607
 30
1877.000
 70
    32
  0
VERTEX
  8
3350LEVEL
 62
7
 10
2708.577
 20
-5565.360
 30
1877.000
 70
    32
  0
VERTEX
  8
3350LEVEL
 62
7
 10
2729.558
 20
-5601.487
 30
1877.000
 70
    32
  0
VERTEX
  8
3350LEVEL
 62
7
 10
2764.428
 20
-5640.704
 30
1877.000
 70
    32
  0
VERTEX
  8
3350LEVEL
 62
7
 10
2791.685
 20
-5671.060
 30
1877.000
 70
    32
  0
VERTEX
  8
3350LEVEL
 62
7
 10
2826.092
 20
-5720.562
 30
1877.000
 70
    32
  0
VERTEX
  8
3350LEVEL
 62
7
 10
2835.990
 20
-5736.883
 30
1877.000
 70
    32
  0
VERTEX
  8
3350LEVEL
 62
7
 10
2857.922
 20
-5765.840
 30
1877.000
 70
    32
  0
VERTEX
  8
3350LEVEL
 62
7
 10
2878.691
 20
-5807.745
 30
1877.000
 70
    32
  0
VERTEX
  8
3350LEVEL
 62
7
 10
2891.235
 20
-5839.928
 30
1877.000
 70
    32
  0
VERTEX
  8
3350LEVEL
 62
7
 10
2905.082
 20
-5879.408
 30
1877.000
 70
    32
  0
VERTEX
  8
3350LEVEL
 62
7
 10
2930.843
 20
-5927.711
 30
1877.000
 70
    32
  0
VERTEX
  8
3350LEVEL
 62
7
 10
2948.207
 20
-5973.341
 30
1877.000
 70
    32
  0
VERTEX
  8
3350LEVEL
 62
7
 10
2956.309
 20
-6019.945
 30
1877.000
 70
    32
  0
VERTEX
  8
3350LEVEL
 62
7
 10
2984.338
 20
-6056.244
 30
1877.000
 70
    32
  0
VERTEX
  8
3350LEVEL
 62
7
 10
3039.868
 20
-6089.829
 30
1877.000
 70
    32
  0
VERTEX
  8
3350LEVEL
 62
7
 10
3090.233
 20
-6124.064
 30
1877.000
 70
    32
  0
VERTEX
  8
3350LEVEL
 62
7
 10
3132.187
 20
-6167.756
 30
1877.000
 70
    32
  0
VERTEX
  8
3350LEVEL
 62
7
 10
3178.717
 20
-6223.336
 30
1877.000
 70
    32
  0
VERTEX
  8
3350LEVEL
 62
7
 10
3211.243
 20
-6268.984
 30
1877.000
 70
    32
  0
VERTEX
  8
3350LEVEL
 62
7
 10
3243.680
 20
-6321.188
 30
1877.000
 70
    32
  0
VERTEX
  8
3350LEVEL
 62
7
 10
3278.348
 20
-6357.086
 30
1877.000
 70
    32
  0
VERTEX
  8
3350LEVEL
 62
7
 10
3314.189
 20
-6370.937
 30
1877.000
 70
    32
  0
VERTEX
  8
3350LEVEL
 62
7
 10
3317.587
 20
-6338.649
 30
1877.000
 70
    32
  0
VERTEX
  8
3350LEVEL
 62
7
 10
3301.813
 20
-6300.110
 30
1877.000
 70
    32
  0
VERTEX
  8
3350LEVEL
 62
7
 10
3277.929
 20
-6258.693
 30
1877.000
 70
    32
  0
VERTEX
  8
3350LEVEL
 62
7
 10
3254.546
 20
-6208.261
 30
1877.000
 70
    32
  0
VERTEX
  8
3350LEVEL
 62
7
 10
3233.863
 20
-6162.832
 30
1877.000
 70
    32
  0
VERTEX
  8
3350LEVEL
 62
7
 10
3187.832
 20
-6101.269
 30
1877.000
 70
    32
  0
VERTEX
  8
3350LEVEL
 62
7
 10
3131.996
 20
-6048.423
 30
1877.000
 70
    32
  0
VERTEX
  8
3350LEVEL
 62
7
 10
3091.037
 20
-6030.426
 30
1877.000
 70
    32
  0
VERTEX
  8
3350LEVEL
 62
7
 10
3071.980
 20
-5996.392
 30
1877.000
 70
    32
  0
VERTEX
  8
3350LEVEL
 62
7
 10
3041.955
 20
-5949.394
 30
1877.000
 70
    32
  0
VERTEX
  8
3350LEVEL
 62
7
 10
3034.371
 20
-5916.274
 30
1877.000
 70
    32
  0
VERTEX
  8
3350LEVEL
 62
7
 10
3055.182
 20
-5921.789
 30
1877.000
 70
    32
  0
VERTEX
  8
3350LEVEL
 62
7
 10
3070.234
 20
-5946.558
 30
1877.000
 70
    32
  0
VERTEX
  8
3350LEVEL
 62
7
 10
3082.649
 20
-5984.028
 30
1877.000
 70
    32
  0
VERTEX
  8
3350LEVEL
 62
7
 10
3097.992
 20
-6005.560
 30
1877.000
 70
    32
  0
VERTEX
  8
3350LEVEL
 62
7
 10
3100.402
 20
-5976.139
 30
1877.000
 70
    32
  0
VERTEX
  8
3350LEVEL
 62
7
 10
3121.992
 20
-5981.532
 30
1877.000
 70
    32
  0
VERTEX
  8
3350LEVEL
 62
7
 10
3147.914
 20
-5997.257
 30
1877.000
 70
    32
  0
VERTEX
  8
3350LEVEL
 62
7
 10
3160.950
 20
-6029.523
 30
1877.000
 70
    32
  0
VERTEX
  8
3350LEVEL
 62
7
 10
3192.018
 20
-6059.761
 30
1877.000
 70
    32
  0
VERTEX
  8
3350LEVEL
 62
7
 10
3229.475
 20
-6094.104
 30
1877.000
 70
    32
  0
VERTEX
  8
3350LEVEL
 62
7
 10
3210.741
 20
-6064.168
 30
1877.000
 70
    32
  0
VERTEX
  8
3350LEVEL
 62
7
 10
3188.120
 20
-6028.776
 30
1877.000
 70
    32
  0
VERTEX
  8
3350LEVEL
 62
7
 10
3157.679
 20
-5987.270
 30
1877.000
 70
    32
  0
VERTEX
  8
3350LEVEL
 62
7
 10
3122.490
 20
-5940.922
 30
1877.000
 70
    32
  0
VERTEX
  8
3350LEVEL
 62
7
 10
3092.979
 20
-5910.440
 30
1877.000
 70
    32
  0
VERTEX
  8
3350LEVEL
 62
7
 10
3044.774
 20
-5885.920
 30
1877.000
 70
    32
  0
VERTEX
  8
3350LEVEL
 62
7
 10
3001.737
 20
-5857.718
 30
1877.000
 70
    32
  0
VERTEX
  8
3350LEVEL
 62
7
 10
2985.916
 20
-5823.973
 30
1877.000
 70
    32
  0
VERTEX
  8
3350LEVEL
 62
7
 10
2973.294
 20
-5789.249
 30
1877.000
 70
    32
  0
VERTEX
  8
3350LEVEL
 62
7
 10
3001.438
 20
-5832.392
 30
1877.000
 70
    32
  0
VERTEX
  8
3350LEVEL
 62
7
 10
3021.579
 20
-5850.938
 30
1877.000
 70
    32
  0
VERTEX
  8
3350LEVEL
 62
7
 10
3037.171
 20
-5833.335
 30
1877.000
 70
    32
  0
VERTEX
  8
3350LEVEL
 62
7
 10
3069.643
 20
-5855.214
 30
1877.000
 70
    32
  0
VERTEX
  8
3350LEVEL
 62
7
 10
3114.966
 20
-5890.878
 30
1877.000
 70
    32
  0
VERTEX
  8
3350LEVEL
 62
7
 10
3138.032
 20
-5931.146
 30
1877.000
 70
    32
  0
VERTEX
  8
3350LEVEL
 62
7
 10
3171.998
 20
-5972.738
 30
1877.000
 70
    32
  0
VERTEX
  8
3350LEVEL
 62
7
 10
3215.258
 20
-6020.693
 30
1877.000
 70
    32
  0
VERTEX
  8
3350LEVEL
 62
7
 10
3243.880
 20
-6076.049
 30
1877.000
 70
    32
  0
VERTEX
  8
3350LEVEL
 62
7
 10
3279.963
 20
-6129.118
 30
1877.000
 70
    32
  0
VERTEX
  8
3350LEVEL
 62
7
 10
3322.150
 20
-6183.464
 30
1877.000
 70
    32
  0
VERTEX
  8
3350LEVEL
 62
7
 10
3357.343
 20
-6226.779
 30
1877.000
 70
    32
  0
VERTEX
  8
3350LEVEL
 62
7
 10
3381.805
 20
-6264.755
 30
1877.000
 70
    32
  0
VERTEX
  8
3350LEVEL
 62
7
 10
3405.847
 20
-6311.253
 30
1877.000
 70
    32
  0
VERTEX
  8
3350LEVEL
 62
7
 10
3437.879
 20
-6359.851
 30
1877.000
 70
    32
  0
VERTEX
  8
3350LEVEL
 62
7
 10
3437.734
 20
-6342.639
 30
1877.000
 70
    32
  0
VERTEX
  8
3350LEVEL
 62
7
 10
3462.260
 20
-6360.657
 30
1877.000
 70
    32
  0
VERTEX
  8
3350LEVEL
 62
7
 10
3482.857
 20
-6374.983
 30
1877.000
 70
    32
  0
VERTEX
  8
3350LEVEL
 62
7
 10
3500.183
 20
-6381.683
 30
1877.000
 70
    32
  0
VERTEX
  8
3350LEVEL
 62
7
 10
3486.273
 20
-6362.160
 30
1877.000
 70
    32
  0
VERTEX
  8
3350LEVEL
 62
7
 10
3451.845
 20
-6330.853
 30
1877.000
 70
    32
  0
VERTEX
  8
3350LEVEL
 62
7
 10
3446.382
 20
-6306.177
 30
1877.000
 70
    32
  0
VERTEX
  8
3350LEVEL
 62
7
 10
3427.106
 20
-6283.985
 30
1877.000
 70
    32
  0
VERTEX
  8
3350LEVEL
 62
7
 10
3398.912
 20
-6248.669
 30
1877.000
 70
    32
  0
VERTEX
  8
3350LEVEL
 62
7
 10
3385.019
 20
-6213.985
 30
1877.000
 70
    32
  0
VERTEX
  8
3350LEVEL
 62
7
 10
3403.903
 20
-6220.440
 30
1877.000
 70
    32
  0
VERTEX
  8
3350LEVEL
 62
7
 10
3421.245
 20
-6249.638
 30
1877.000
 70
    32
  0
VERTEX
  8
3350LEVEL
 62
7
 10
3445.215
 20
-6287.530
 30
1877.000
 70
    32
  0
VERTEX
  8
3350LEVEL
 62
7
 10
3470.377
 20
-6322.843
 30
1877.000
 70
    32
  0
VERTEX
  8
3350LEVEL
 62
7
 10
3471.220
 20
-6302.764
 30
1877.000
 70
    32
  0
VERTEX
  8
3350LEVEL
 62
7
 10
3454.255
 20
-6266.805
 30
1877.000
 70
    32
  0
VERTEX
  8
3350LEVEL
 62
7
 10
3427.420
 20
-6224.893
 30
1877.000
 70
    32
  0
VERTEX
  8
3350LEVEL
 62
7
 10
3386.414
 20
-6177.064
 30
1877.000
 70
    32
  0
VERTEX
  8
3350LEVEL
 62
7
 10
3353.801
 20
-6134.940
 30
1877.000
 70
    32
  0
VERTEX
  8
3350LEVEL
 62
7
 10
3341.957
 20
-6100.094
 30
1877.000
 70
    32
  0
VERTEX
  8
3350LEVEL
 62
7
 10
3331.018
 20
-6062.872
 30
1877.000
 70
    32
  0
VERTEX
  8
3350LEVEL
 62
7
 10
3309.746
 20
-6029.981
 30
1877.000
 70
    32
  0
VERTEX
  8
3350LEVEL
 62
7
 10
3320.649
 20
-6028.273
 30
1877.000
 70
    32
  0
VERTEX
  8
3350LEVEL
 62
7
 10
3344.102
 20
-6052.683
 30
1877.000
 70
    32
  0
VERTEX
  8
3350LEVEL
 62
7
 10
3353.293
 20
-6077.732
 30
1877.000
 70
    32
  0
VERTEX
  8
3350LEVEL
 62
7
 10
3360.967
 20
-6104.295
 30
1877.000
 70
    32
  0
VERTEX
  8
3350LEVEL
 62
7
 10
3372.541
 20
-6124.184
 30
1877.000
 70
    32
  0
VERTEX
  8
3350LEVEL
 62
7
 10
3366.432
 20
-6091.311
 30
1877.000
 70
    32
  0
VERTEX
  8
3350LEVEL
 62
7
 10
3381.940
 20
-6111.860
 30
1877.000
 70
    32
  0
VERTEX
  8
3350LEVEL
 62
7
 10
3395.646
 20
-6131.095
 30
1877.000
 70
    32
  0
VERTEX
  8
3350LEVEL
 62
7
 10
3421.956
 20
-6165.589
 30
1877.000
 70
    32
  0
VERTEX
  8
3350LEVEL
 62
7
 10
3446.224
 20
-6194.180
 30
1877.000
 70
    32
  0
VERTEX
  8
3350LEVEL
 62
7
 10
3441.414
 20
-6171.636
 30
1877.000
 70
    32
  0
VERTEX
  8
3350LEVEL
 62
7
 10
3456.430
 20
-6192.102
 30
1877.000
 70
    32
  0
VERTEX
  8
3350LEVEL
 62
7
 10
3480.167
 20
-6219.339
 30
1877.000
 70
    32
  0
VERTEX
  8
3350LEVEL
 62
7
 10
3483.039
 20
-6251.922
 30
1877.000
 70
    32
  0
VERTEX
  8
3350LEVEL
 62
7
 10
3492.723
 20
-6277.053
 30
1877.000
 70
    32
  0
VERTEX
  8
3350LEVEL
 62
7
 10
3519.643
 20
-6315.441
 30
1877.000
 70
    32
  0
VERTEX
  8
3350LEVEL
 62
7
 10
3549.405
 20
-6341.415
 30
1877.000
 70
    32
  0
SEQEND
  8
3350LEVEL
  0
POLYLINE
  8
3350LEVEL
 62
5
 66
     1
 70
     9
  0
VERTEX
  8
3350LEVEL
 62
5
 10
4283.963
 20
-4704.265
 30
1877.000
 70
    32
  0
VERTEX
  8
3350LEVEL
 62
5
 10
4263.732
 20
-4657.648
 30
1877.000
 70
    32
  0
VERTEX
  8
3350LEVEL
 62
5
 10
4249.071
 20
-4613.988
 30
1877.000
 70
    32
  0
VERTEX
  8
3350LEVEL
 62
5
 10
4231.976
 20
-4583.315
 30
1877.000
 70
    32
  0
VERTEX
  8
3350LEVEL
 62
5
 10
4222.818
 20
-4600.229
 30
1877.000
 70
    32
  0
VERTEX
  8
3350LEVEL
 62
5
 10
4236.866
 20
-4643.028
 30
1877.000
 70
    32
  0
VERTEX
  8
3350LEVEL
 62
5
 10
4252.683
 20
-4679.805
 30
1877.000
 70
    32
  0
VERTEX
  8
3350LEVEL
 62
5
 10
4267.890
 20
-4712.688
 30
1877.000
 70
    32
  0
SEQEND
  8
3350LEVEL
  0
POLYLINE
  8
3350LEVEL
 62
5
 66
     1
 70
     9
  0
VERTEX
  8
3350LEVEL
 62
5
 10
4077.662
 20
-4855.160
 30
1877.000
 70
    32
  0
VERTEX
  8
3350LEVEL
 62
5
 10
4061.141
 20
-4789.451
 30
1877.000
 70
    32
  0
VERTEX
  8
3350LEVEL
 62
5
 10
4039.355
 20
-4705.418
 30
1877.000
 70
    32
  0
VERTEX
  8
3350LEVEL
 62
5
 10
4000.388
 20
-4594.236
 30
1877.000
 70
    32
  0
VERTEX
  8
3350LEVEL
 62
5
 10
3966.762
 20
-4506.952
 30
1877.000
 70
    32
  0
VERTEX
  8
3350LEVEL
 62
5
 10
3926.114
 20
-4432.896
 30
1877.000
 70
    32
  0
VERTEX
  8
3350LEVEL
 62
5
 10
3876.270
 20
-4336.823
 30
1877.000
 70
    32
  0
VERTEX
  8
3350LEVEL
 62
5
 10
3832.158
 20
-4245.757
 30
1877.000
 70
    32
  0
VERTEX
  8
3350LEVEL
 62
5
 10
3818.333
 20
-4222.711
 30
1877.000
 70
    32
  0
VERTEX
  8
3350LEVEL
 62
5
 10
3830.299
 20
-4258.336
 30
1877.000
 70
    32
  0
VERTEX
  8
3350LEVEL
 62
5
 10
3866.839
 20
-4341.812
 30
1877.000
 70
    32
  0
VERTEX
  8
3350LEVEL
 62
5
 10
3922.734
 20
-4450.022
 30
1877.000
 70
    32
  0
VERTEX
  8
3350LEVEL
 62
5
 10
3968.536
 20
-4532.525
 30
1877.000
 70
    32
  0
VERTEX
  8
3350LEVEL
 62
5
 10
4012.488
 20
-4656.170
 30
1877.000
 70
    32
  0
VERTEX
  8
3350LEVEL
 62
5
 10
4046.907
 20
-4765.830
 30
1877.000
 70
    32
  0
VERTEX
  8
3350LEVEL
 62
5
 10
4068.891
 20
-4856.216
 30
1877.000
 70
    32
  0
SEQEND
  8
3350LEVEL
  0
POLYLINE
  8
3350LEVEL
 62
5
 66
     1
 70
     9
  0
VERTEX
  8
3350LEVEL
 62
5
 10
3174.841
 20
-5460.374
 30
1877.000
 70
    32
  0
VERTEX
  8
3350LEVEL
 62
5
 10
3161.551
 20
-5435.648
 30
1877.000
 70
    32
  0
VERTEX
  8
3350LEVEL
 62
5
 10
3147.525
 20
-5409.282
 30
1877.000
 70
    32
  0
VERTEX
  8
3350LEVEL
 62
5
 10
3136.540
 20
-5411.482
 30
1877.000
 70
    32
  0
VERTEX
  8
3350LEVEL
 62
5
 10
3150.932
 20
-5440.184
 30
1877.000
 70
    32
  0
VERTEX
  8
3350LEVEL
 62
5
 10
3171.970
 20
-5462.419
 30
1877.000
 70
    32
  0
SEQEND
  8
3350LEVEL
  0
POLYLINE
  8
3350LEVEL
 62
5
 66
     1
 70
     9
  0
VERTEX
  8
3350LEVEL
 62
5
 10
3591.858
 20
-5630.714
 30
1877.000
 70
    32
  0
VERTEX
  8
3350LEVEL
 62
5
 10
3563.093
 20
-5592.775
 30
1877.000
 70
    32
  0
VERTEX
  8
3350LEVEL
 62
5
 10
3538.951
 20
-5561.930
 30
1877.000
 70
    32
  0
VERTEX
  8
3350LEVEL
 62
5
 10
3541.457
 20
-5592.176
 30
1877.000
 70
    32
  0
VERTEX
  8
3350LEVEL
 62
5
 10
3573.775
 20
-5640.569
 30
1877.000
 70
    32
  0
SEQEND
  8
3350LEVEL
  0
POLYLINE
  8
3350LEVEL
 62
5
 66
     1
 70
     9
  0
VERTEX
  8
3350LEVEL
 62
5
 10
3566.756
 20
-5650.765
 30
1877.000
 70
    32
  0
VERTEX
  8
3350LEVEL
 62
5
 10
3548.962
 20
-5622.756
 30
1877.000
 70
    32
  0
VERTEX
  8
3350LEVEL
 62
5
 10
3525.239
 20
-5583.388
 30
1877.000
 70
    32
  0
VERTEX
  8
3350LEVEL
 62
5
 10
3496.075
 20
-5535.777
 30
1877.000
 70
    32
  0
VERTEX
  8
3350LEVEL
 62
5
 10
3453.040
 20
-5469.914
 30
1877.000
 70
    32
  0
VERTEX
  8
3350LEVEL
 62
5
 10
3429.278
 20
-5429.276
 30
1877.000
 70
    32
  0
VERTEX
  8
3350LEVEL
 62
5
 10
3416.441
 20
-5437.990
 30
1877.000
 70
    32
  0
VERTEX
  8
3350LEVEL
 62
5
 10
3438.686
 20
-5480.143
 30
1877.000
 70
    32
  0
VERTEX
  8
3350LEVEL
 62
5
 10
3475.310
 20
-5525.467
 30
1877.000
 70
    32
  0
VERTEX
  8
3350LEVEL
 62
5
 10
3507.428
 20
-5570.541
 30
1877.000
 70
    32
  0
VERTEX
  8
3350LEVEL
 62
5
 10
3529.180
 20
-5612.611
 30
1877.000
 70
    32
  0
VERTEX
  8
3350LEVEL
 62
5
 10
3558.882
 20
-5655.510
 30
1877.000
 70
    32
  0
SEQEND
  8
3350LEVEL
  0
POLYLINE
  8
3350LEVEL
 62
5
 66
     1
 70
     9
  0
VERTEX
  8
3350LEVEL
 62
5
 10
3534.562
 20
-5672.406
 30
1877.000
 70
    32
  0
VERTEX
  8
3350LEVEL
 62
5
 10
3512.099
 20
-5642.097
 30
1877.000
 70
    32
  0
VERTEX
  8
3350LEVEL
 62
5
 10
3486.858
 20
-5604.243
 30
1877.000
 70
    32
  0
VERTEX
  8
3350LEVEL
 62
5
 10
3462.659
 20
-5587.291
 30
1877.000
 70
    32
  0
VERTEX
  8
3350LEVEL
 62
5
 10
3481.425
 20
-5624.563
 30
1877.000
 70
    32
  0
VERTEX
  8
3350LEVEL
 62
5
 10
3505.112
 20
-5659.628
 30
1877.000
 70
    32
  0
VERTEX
  8
3350LEVEL
 62
5
 10
3517.627
 20
-5681.443
 30
1877.000
 70
    32
  0
SEQEND
  8
3350LEVEL
  0
POLYLINE
  8
3350LEVEL
 62
5
 66
     1
 70
     9
  0
VERTEX
  8
3350LEVEL
 62
5
 10
3509.786
 20
-5693.523
 30
1877.000
 70
    32
  0
VERTEX
  8
3350LEVEL
 62
5
 10
3485.740
 20
-5650.057
 30
1877.000
 70
    32
  0
VERTEX
  8
3350LEVEL
 62
5
 10
3462.182
 20
-5609.706
 30
1877.000
 70
    32
  0
VERTEX
  8
3350LEVEL
 62
5
 10
3436.191
 20
-5582.343
 30
1877.000
 70
    32
  0
VERTEX
  8
3350LEVEL
 62
5
 10
3432.521
 20
-5602.706
 30
1877.000
 70
    32
  0
VERTEX
  8
3350LEVEL
 62
5
 10
3459.402
 20
-5639.823
 30
1877.000
 70
    32
  0
VERTEX
  8
3350LEVEL
 62
5
 10
3481.204
 20
-5674.066
 30
1877.000
 70
    32
  0
VERTEX
  8
3350LEVEL
 62
5
 10
3496.217
 20
-5697.565
 30
1877.000
 70
    32
  0
SEQEND
  8
3350LEVEL
  0
POLYLINE
  8
3350LEVEL
 62
5
 66
     1
 70
     9
  0
VERTEX
  8
3350LEVEL
 62
5
 10
3489.330
 20
-5699.442
 30
1877.000
 70
    32
  0
VERTEX
  8
3350LEVEL
 62
5
 10
3473.876
 20
-5668.034
 30
1877.000
 70
    32
  0
VERTEX
  8
3350LEVEL
 62
5
 10
3452.475
 20
-5640.430
 30
1877.000
 70
    32
  0
VERTEX
  8
3350LEVEL
 62
5
 10
3455.649
 20
-5660.677
 30
1877.000
 70
    32
  0
VERTEX
  8
3350LEVEL
 62
5
 10
3482.321
 20
-5700.540
 30
1877.000
 70
    32
  0
SEQEND
  8
3350LEVEL
  0
POLYLINE
  8
3350LEVEL
 62
5
 66
     1
 70
     9
  0
VERTEX
  8
3350LEVEL
 62
5
 10
3474.434
 20
-5717.415
 30
1877.000
 70
    32
  0
VERTEX
  8
3350LEVEL
 62
5
 10
3461.478
 20
-5687.690
 30
1877.000
 70
    32
  0
VERTEX
  8
3350LEVEL
 62
5
 10
3446.247
 20
-5676.034
 30
1877.000
 70
    32
  0
VERTEX
  8
3350LEVEL
 62
5
 10
3454.046
 20
-5700.344
 30
1877.000
 70
    32
  0
VERTEX
  8
3350LEVEL
 62
5
 10
3460.133
 20
-5716.784
 30
1877.000
 70
    32
  0
SEQEND
  8
3350LEVEL
  0
POLYLINE
  8
3350LEVEL
 62
5
 66
     1
 70
     9
  0
VERTEX
  8
3350LEVEL
 62
5
 10
3456.878
 20
-5731.655
 30
1877.000
 70
    32
  0
VERTEX
  8
3350LEVEL
 62
5
 10
3444.335
 20
-5699.472
 30
1877.000
 70
    32
  0
VERTEX
  8
3350LEVEL
 62
5
 10
3431.482
 20
-5651.060
 30
1877.000
 70
    32
  0
VERTEX
  8
3350LEVEL
 62
5
 10
3413.221
 20
-5601.741
 30
1877.000
 70
    32
  0
VERTEX
  8
3350LEVEL
 62
5
 10
3393.894
 20
-5552.748
 30
1877.000
 70
    32
  0
VERTEX
  8
3350LEVEL
 62
5
 10
3366.855
 20
-5510.549
 30
1877.000
 70
    32
  0
VERTEX
  8
3350LEVEL
 62
5
 10
3352.768
 20
-5501.107
 30
1877.000
 70
    32
  0
VERTEX
  8
3350LEVEL
 62
5
 10
3366.644
 20
-5550.954
 30
1877.000
 70
    32
  0
VERTEX
  8
3350LEVEL
 62
5
 10
3388.106
 20
-5596.262
 30
1877.000
 70
    32
  0
VERTEX
  8
3350LEVEL
 62
5
 10
3409.852
 20
-5644.397
 30
1877.000
 70
    32
  0
VERTEX
  8
3350LEVEL
 62
5
 10
3424.226
 20
-5688.261
 30
1877.000
 70
    32
  0
VERTEX
  8
3350LEVEL
 62
5
 10
3443.180
 20
-5740.983
 30
1877.000
 70
    32
  0
SEQEND
  8
3350LEVEL
  0
POLYLINE
  8
3350LEVEL
 62
5
 66
     1
 70
     9
  0
VERTEX
  8
3350LEVEL
 62
5
 10
3421.042
 20
-5749.399
 30
1877.000
 70
    32
  0
VERTEX
  8
3350LEVEL
 62
5
 10
3400.839
 20
-5713.150
 30
1877.000
 70
    32
  0
VERTEX
  8
3350LEVEL
 62
5
 10
3388.554
 20
-5670.394
 30
1877.000
 70
    32
  0
VERTEX
  8
3350LEVEL
 62
5
 10
3361.938
 20
-5616.639
 30
1877.000
 70
    32
  0
VERTEX
  8
3350LEVEL
 62
5
 10
3338.035
 20
-5555.757
 30
1877.000
 70
    32
  0
VERTEX
  8
3350LEVEL
 62
5
 10
3312.374
 20
-5526.427
 30
1877.000
 70
    32
  0
VERTEX
  8
3350LEVEL
 62
5
 10
3318.021
 20
-5569.585
 30
1877.000
 70
    32
  0
VERTEX
  8
3350LEVEL
 62
5
 10
3343.653
 20
-5623.175
 30
1877.000
 70
    32
  0
VERTEX
  8
3350LEVEL
 62
5
 10
3365.683
 20
-5674.138
 30
1877.000
 70
    32
  0
VERTEX
  8
3350LEVEL
 62
5
 10
3387.307
 20
-5721.494
 30
1877.000
 70
    32
  0
VERTEX
  8
3350LEVEL
 62
5
 10
3401.494
 20
-5749.910
 30
1877.000
 70
    32
  0
SEQEND
  8
3350LEVEL
  0
POLYLINE
  8
3350LEVEL
 62
5
 66
     1
 70
     9
  0
VERTEX
  8
3350LEVEL
 62
5
 10
3458.899
 20
-5862.669
 30
1877.000
 70
    32
  0
VERTEX
  8
3350LEVEL
 62
5
 10
3442.907
 20
-5835.973
 30
1877.000
 70
    32
  0
VERTEX
  8
3350LEVEL
 62
5
 10
3427.141
 20
-5825.997
 30
1877.000
 70
    32
  0
VERTEX
  8
3350LEVEL
 62
5
 10
3431.865
 20
-5852.066
 30
1877.000
 70
    32
  0
VERTEX
  8
3350LEVEL
 62
5
 10
3441.028
 20
-5866.747
 30
1877.000
 70
    32
  0
SEQEND
  8
3350LEVEL
  0
POLYLINE
  8
3350LEVEL
 62
5
 66
     1
 70
     9
  0
VERTEX
  8
3350LEVEL
 62
5
 10
3433.685
 20
-5872.844
 30
1877.000
 70
    32
  0
VERTEX
  8
3350LEVEL
 62
5
 10
3416.598
 20
-5836.107
 30
1877.000
 70
    32
  0
VERTEX
  8
3350LEVEL
 62
5
 10
3401.909
 20
-5816.707
 30
1877.000
 70
    32
  0
VERTEX
  8
3350LEVEL
 62
5
 10
3395.503
 20
-5827.764
 30
1877.000
 70
    32
  0
VERTEX
  8
3350LEVEL
 62
5
 10
3379.062
 20
-5799.223
 30
1877.000
 70
    32
  0
VERTEX
  8
3350LEVEL
 62
5
 10
3362.556
 20
-5756.012
 30
1877.000
 70
    32
  0
VERTEX
  8
3350LEVEL
 62
5
 10
3347.116
 20
-5712.474
 30
1877.000
 70
    32
  0
VERTEX
  8
3350LEVEL
 62
5
 10
3328.399
 20
-5667.374
 30
1877.000
 70
    32
  0
VERTEX
  8
3350LEVEL
 62
5
 10
3331.690
 20
-5656.806
 30
1877.000
 70
    32
  0
VERTEX
  8
3350LEVEL
 62
5
 10
3322.928
 20
-5614.136
 30
1877.000
 70
    32
  0
VERTEX
  8
3350LEVEL
 62
5
 10
3295.989
 20
-5556.282
 30
1877.000
 70
    32
  0
VERTEX
  8
3350LEVEL
 62
5
 10
3276.982
 20
-5514.420
 30
1877.000
 70
    32
  0
VERTEX
  8
3350LEVEL
 62
5
 10
3237.483
 20
-5474.174
 30
1877.000
 70
    32
  0
VERTEX
  8
3350LEVEL
 62
5
 10
3207.781
 20
-5431.275
 30
1877.000
 70
    32
  0
VERTEX
  8
3350LEVEL
 62
5
 10
3177.562
 20
-5374.893
 30
1877.000
 70
    32
  0
VERTEX
  8
3350LEVEL
 62
5
 10
3156.566
 20
-5316.268
 30
1877.000
 70
    32
  0
VERTEX
  8
3350LEVEL
 62
5
 10
3131.637
 20
-5256.983
 30
1877.000
 70
    32
  0
VERTEX
  8
3350LEVEL
 62
5
 10
3113.138
 20
-5200.041
 30
1877.000
 70
    32
  0
VERTEX
  8
3350LEVEL
 62
5
 10
3088.289
 20
-5177.925
 30
1877.000
 70
    32
  0
VERTEX
  8
3350LEVEL
 62
5
 10
3091.936
 20
-5213.417
 30
1877.000
 70
    32
  0
VERTEX
  8
3350LEVEL
 62
5
 10
3106.839
 20
-5261.667
 30
1877.000
 70
    32
  0
VERTEX
  8
3350LEVEL
 62
5
 10
3133.544
 20
-5308.866
 30
1877.000
 70
    32
  0
VERTEX
  8
3350LEVEL
 62
5
 10
3161.172
 20
-5373.153
 30
1877.000
 70
    32
  0
VERTEX
  8
3350LEVEL
 62
5
 10
3183.693
 20
-5424.199
 30
1877.000
 70
    32
  0
VERTEX
  8
3350LEVEL
 62
5
 10
3220.752
 20
-5483.498
 30
1877.000
 70
    32
  0
VERTEX
  8
3350LEVEL
 62
5
 10
3252.338
 20
-5527.219
 30
1877.000
 70
    32
  0
VERTEX
  8
3350LEVEL
 62
5
 10
3277.117
 20
-5575.357
 30
1877.000
 70
    32
  0
VERTEX
  8
3350LEVEL
 62
5
 10
3300.298
 20
-5622.469
 30
1877.000
 70
    32
  0
VERTEX
  8
3350LEVEL
 62
5
 10
3312.365
 20
-5677.068
 30
1877.000
 70
    32
  0
VERTEX
  8
3350LEVEL
 62
5
 10
3332.754
 20
-5728.767
 30
1877.000
 70
    32
  0
VERTEX
  8
3350LEVEL
 62
5
 10
3349.178
 20
-5772.470
 30
1877.000
 70
    32
  0
VERTEX
  8
3350LEVEL
 62
5
 10
3373.791
 20
-5821.592
 30
1877.000
 70
    32
  0
VERTEX
  8
3350LEVEL
 62
5
 10
3394.158
 20
-5856.858
 30
1877.000
 70
    32
  0
VERTEX
  8
3350LEVEL
 62
5
 10
3417.433
 20
-5894.381
 30
1877.000
 70
    32
  0
SEQEND
  8
3350LEVEL
  0
POLYLINE
  8
3350LEVEL
 62
5
 66
     1
 70
     9
  0
VERTEX
  8
3350LEVEL
 62
5
 10
3536.189
 20
-6146.091
 30
1877.000
 70
    32
  0
VERTEX
  8
3350LEVEL
 62
5
 10
3518.682
 20
-6117.877
 30
1877.000
 70
    32
  0
VERTEX
  8
3350LEVEL
 62
5
 10
3505.848
 20
-6088.931
 30
1877.000
 70
    32
  0
VERTEX
  8
3350LEVEL
 62
5
 10
3484.378
 20
-6049.689
 30
1877.000
 70
    32
  0
VERTEX
  8
3350LEVEL
 62
5
 10
3462.364
 20
-6021.224
 30
1877.000
 70
    32
  0
VERTEX
  8
3350LEVEL
 62
5
 10
3444.747
 20
-6017.761
 30
1877.000
 70
    32
  0
VERTEX
  8
3350LEVEL
 62
5
 10
3467.038
 20
-6055.119
 30
1877.000
 70
    32
  0
VERTEX
  8
3350LEVEL
 62
5
 10
3493.872
 20
-6097.031
 30
1877.000
 70
    32
  0
VERTEX
  8
3350LEVEL
 62
5
 10
3512.646
 20
-6128.238
 30
1877.000
 70
    32
  0
VERTEX
  8
3350LEVEL
 62
5
 10
3525.078
 20
-6150.545
 30
1877.000
 70
    32
  0
SEQEND
  8
3350LEVEL
  0
POLYLINE
  8
3350LEVEL
 62
5
 66
     1
 70
     9
  0
VERTEX
  8
3350LEVEL
 62
5
 10
3570.468
 20
-6235.507
 30
1877.000
 70
    32
  0
VERTEX
  8
3350LEVEL
 62
5
 10
3548.450
 20
-6210.075
 30
1877.000
 70
    32
  0
VERTEX
  8
3350LEVEL
 62
5
 10
3543.181
 20
-6194.783
 30
1877.000
 70
    32
  0
VERTEX
  8
3350LEVEL
 62
5
 10
3528.212
 20
-6169.523
 30
1877.000
 70
    32
  0
VERTEX
  8
3350LEVEL
 62
5
 10
3507.758
 20
-6137.781
 30
1877.000
 70
    32
  0
VERTEX
  8
3350LEVEL
 62
5
 10
3487.876
 20
-6108.662
 30
1877.000
 70
    32
  0
VERTEX
  8
3350LEVEL
 62
5
 10
3461.247
 20
-6101.665
 30
1877.000
 70
    32
  0
VERTEX
  8
3350LEVEL
 62
5
 10
3472.811
 20
-6130.651
 30
1877.000
 70
    32
  0
VERTEX
  8
3350LEVEL
 62
5
 10
3496.261
 20
-6158.093
 30
1877.000
 70
    32
  0
VERTEX
  8
3350LEVEL
 62
5
 10
3515.160
 20
-6187.047
 30
1877.000
 70
    32
  0
VERTEX
  8
3350LEVEL
 62
5
 10
3541.395
 20
-6215.968
 30
1877.000
 70
    32
  0
VERTEX
  8
3350LEVEL
 62
5
 10
3569.316
 20
-6239.358
 30
1877.000
 70
    32
  0
SEQEND
  8
3350LEVEL
  0
POLYLINE
  8
3350LEVEL
 62
5
 66
     1
 70
     9
  0
VERTEX
  8
3350LEVEL
 62
5
 10
3415.350
 20
-6066.411
 30
1877.000
 70
    32
  0
VERTEX
  8
3350LEVEL
 62
5
 10
3439.980
 20
-6100.370
 30
1877.000
 70
    32
  0
VERTEX
  8
3350LEVEL
 62
5
 10
3469.287
 20
-6130.565
 30
1877.000
 70
    32
  0
VERTEX
  8
3350LEVEL
 62
5
 10
3498.174
 20
-6169.283
 30
1877.000
 70
    32
  0
VERTEX
  8
3350LEVEL
 62
5
 10
3524.603
 20
-6207.588
 30
1877.000
 70
    32
  0
VERTEX
  8
3350LEVEL
 62
5
 10
3553.655
 20
-6245.323
 30
1877.000
 70
    32
  0
VERTEX
  8
3350LEVEL
 62
5
 10
3530.033
 20
-6224.929
 30
1877.000
 70
    32
  0
VERTEX
  8
3350LEVEL
 62
5
 10
3511.740
 20
-6202.902
 30
1877.000
 70
    32
  0
VERTEX
  8
3350LEVEL
 62
5
 10
3489.974
 20
-6172.962
 30
1877.000
 70
    32
  0
VERTEX
  8
3350LEVEL
 62
5
 10
3468.125
 20
-6143.513
 30
1877.000
 70
    32
  0
VERTEX
  8
3350LEVEL
 62
5
 10
3444.431
 20
-6114.513
 30
1877.000
 70
    32
  0
VERTEX
  8
3350LEVEL
 62
5
 10
3426.102
 20
-6088.183
 30
1877.000
 70
    32
  0
VERTEX
  8
3350LEVEL
 62
5
 10
3415.673
 20
-6070.509
 30
1877.000
 70
    32
  0
SEQEND
  8
3350LEVEL
  0
POLYLINE
  8
3350LEVEL
 62
5
 66
     1
 70
     9
  0
VERTEX
  8
3350LEVEL
 62
5
 10
3168.476
 20
-5828.076
 30
1877.000
 70
    32
  0
VERTEX
  8
3350LEVEL
 62
5
 10
3194.226
 20
-5850.850
 30
1877.000
 70
    32
  0
VERTEX
  8
3350LEVEL
 62
5
 10
3219.675
 20
-5885.957
 30
1877.000
 70
    32
  0
VERTEX
  8
3350LEVEL
 62
5
 10
3235.746
 20
-5915.194
 30
1877.000
 70
    32
  0
VERTEX
  8
3350LEVEL
 62
5
 10
3207.864
 20
-5893.074
 30
1877.000
 70
    32
  0
VERTEX
  8
3350LEVEL
 62
5
 10
3179.429
 20
-5853.168
 30
1877.000
 70
    32
  0
VERTEX
  8
3350LEVEL
 62
5
 10
3165.515
 20
-5836.679
 30
1877.000
 70
    32
  0
SEQEND
  8
3350LEVEL
  0
POLYLINE
  8
3350LEVEL
 62
5
 66
     1
 70
     9
  0
VERTEX
  8
3350LEVEL
 62
5
 10
3054.985
 20
-5701.606
 30
1877.000
 70
    32
  0
VERTEX
  8
3350LEVEL
 62
5
 10
3078.675
 20
-5733.638
 30
1877.000
 70
    32
  0
VERTEX
  8
3350LEVEL
 62
5
 10
3108.467
 20
-5769.980
 30
1877.000
 70
    32
  0
VERTEX
  8
3350LEVEL
 62
5
 10
3128.995
 20
-5807.295
 30
1877.000
 70
    32
  0
VERTEX
  8
3350LEVEL
 62
5
 10
3156.289
 20
-5841.954
 30
1877.000
 70
    32
  0
VERTEX
  8
3350LEVEL
 62
5
 10
3131.440
 20
-5819.838
 30
1877.000
 70
    32
  0
VERTEX
  8
3350LEVEL
 62
5
 10
3102.879
 20
-5782.186
 30
1877.000
 70
    32
  0
VERTEX
  8
3350LEVEL
 62
5
 10
3080.334
 20
-5752.368
 30
1877.000
 70
    32
  0
VERTEX
  8
3350LEVEL
 62
5
 10
3044.607
 20
-5710.732
 30
1877.000
 70
    32
  0
SEQEND
  8
3350LEVEL
  0
POLYLINE
  8
3350LEVEL
 62
5
 66
     1
 70
     9
  0
VERTEX
  8
3350LEVEL
 62
5
 10
3042.868
 20
-5654.834
 30
1877.000
 70
    32
  0
VERTEX
  8
3350LEVEL
 62
5
 10
3017.854
 20
-5633.701
 30
1877.000
 70
    32
  0
VERTEX
  8
3350LEVEL
 62
5
 10
2989.444
 20
-5607.195
 30
1877.000
 70
    32
  0
VERTEX
  8
3350LEVEL
 62
5
 10
2967.810
 20
-5568.936
 30
1877.000
 70
    32
  0
VERTEX
  8
3350LEVEL
 62
5
 10
2943.277
 20
-5556.983
 30
1877.000
 70
    32
  0
VERTEX
  8
3350LEVEL
 62
5
 10
2953.082
 20
-5582.893
 30
1877.000
 70
    32
  0
VERTEX
  8
3350LEVEL
 62
5
 10
2977.508
 20
-5616.566
 30
1877.000
 70
    32
  0
VERTEX
  8
3350LEVEL
 62
5
 10
2998.794
 20
-5637.326
 30
1877.000
 70
    32
  0
VERTEX
  8
3350LEVEL
 62
5
 10
3026.808
 20
-5651.127
 30
1877.000
 70
    32
  0
VERTEX
  8
3350LEVEL
 62
5
 10
3032.489
 20
-5663.961
 30
1877.000
 70
    32
  0
SEQEND
  8
3350LEVEL
  0
POLYLINE
  8
3350LEVEL
 62
5
 66
     1
 70
     9
  0
VERTEX
  8
3350LEVEL
 62
5
 10
2899.193
 20
-5441.657
 30
1877.000
 70
    32
  0
VERTEX
  8
3350LEVEL
 62
5
 10
2920.198
 20
-5456.556
 30
1877.000
 70
    32
  0
VERTEX
  8
3350LEVEL
 62
5
 10
2939.959
 20
-5484.896
 30
1877.000
 70
    32
  0
VERTEX
  8
3350LEVEL
 62
5
 10
2948.978
 20
-5516.994
 30
1877.000
 70
    32
  0
VERTEX
  8
3350LEVEL
 62
5
 10
2924.911
 20
-5491.722
 30
1877.000
 70
    32
  0
VERTEX
  8
3350LEVEL
 62
5
 10
2903.310
 20
-5460.799
 30
1877.000
 70
    32
  0
VERTEX
  8
3350LEVEL
 62
5
 10
2899.354
 20
-5443.706
 30
1877.000
 70
    32
  0
SEQEND
  8
3350LEVEL
  0
POLYLINE
  8
3350LEVEL
 62
5
 66
     1
 70
     9
  0
VERTEX
  8
3350LEVEL
 62
5
 10
2869.085
 20
-5288.235
 30
1877.000
 70
    32
  0
VERTEX
  8
3350LEVEL
 62
5
 10
2895.079
 20
-5312.566
 30
1877.000
 70
    32
  0
VERTEX
  8
3350LEVEL
 62
5
 10
2923.966
 20
-5351.284
 30
1877.000
 70
    32
  0
VERTEX
  8
3350LEVEL
 62
5
 10
2950.808
 20
-5387.131
 30
1877.000
 70
    32
  0
VERTEX
  8
3350LEVEL
 62
5
 10
2940.218
 20
-5402.036
 30
1877.000
 70
    32
  0
VERTEX
  8
3350LEVEL
 62
5
 10
2910.301
 20
-5367.947
 30
1877.000
 70
    32
  0
VERTEX
  8
3350LEVEL
 62
5
 10
2883.998
 20
-5327.388
 30
1877.000
 70
    32
  0
VERTEX
  8
3350LEVEL
 62
5
 10
2861.502
 20
-5289.743
 30
1877.000
 70
    32
  0
SEQEND
  8
3350LEVEL
  0
POLYLINE
  8
3350LEVEL
 62
5
 66
     1
 70
     9
  0
VERTEX
  8
3350LEVEL
 62
5
 10
2683.223
 20
-5234.543
 30
1877.000
 70
    32
  0
VERTEX
  8
3350LEVEL
 62
5
 10
2717.155
 20
-5268.800
 30
1877.000
 70
    32
  0
VERTEX
  8
3350LEVEL
 62
5
 10
2735.391
 20
-5304.719
 30
1877.000
 70
    32
  0
VERTEX
  8
3350LEVEL
 62
5
 10
2729.104
 20
-5319.588
 30
1877.000
 70
    32
  0
VERTEX
  8
3350LEVEL
 62
5
 10
2708.403
 20
-5289.321
 30
1877.000
 70
    32
  0
VERTEX
  8
3350LEVEL
 62
5
 10
2689.220
 20
-5257.540
 30
1877.000
 70
    32
  0
VERTEX
  8
3350LEVEL
 62
5
 10
2678.755
 20
-5235.563
 30
1877.000
 70
    32
  0
SEQEND
  8
3350LEVEL
  0
POLYLINE
  8
3350LEVEL
 62
5
 66
     1
 70
     9
  0
VERTEX
  8
3350LEVEL
 62
5
 10
2433.836
 20
-4651.280
 30
1877.000
 70
    32
  0
VERTEX
  8
3350LEVEL
 62
5
 10
2455.890
 20
-4681.016
 30
1877.000
 70
    32
  0
VERTEX
  8
3350LEVEL
 62
5
 10
2469.410
 20
-4719.429
 30
1877.000
 70
    32
  0
VERTEX
  8
3350LEVEL
 62
5
 10
2498.861
 20
-4766.836
 30
1877.000
 70
    32
  0
VERTEX
  8
3350LEVEL
 62
5
 10
2520.194
 20
-4817.429
 30
1877.000
 70
    32
  0
VERTEX
  8
3350LEVEL
 62
5
 10
2532.516
 20
-4864.488
 30
1877.000
 70
    32
  0
VERTEX
  8
3350LEVEL
 62
5
 10
2539.874
 20
-4915.516
 30
1877.000
 70
    32
  0
VERTEX
  8
3350LEVEL
 62
5
 10
2522.220
 20
-4873.123
 30
1877.000
 70
    32
  0
VERTEX
  8
3350LEVEL
 62
5
 10
2506.823
 20
-4827.823
 30
1877.000
 70
    32
  0
VERTEX
  8
3350LEVEL
 62
5
 10
2491.713
 20
-4782.318
 30
1877.000
 70
    32
  0
VERTEX
  8
3350LEVEL
 62
5
 10
2460.173
 20
-4733.803
 30
1877.000
 70
    32
  0
VERTEX
  8
3350LEVEL
 62
5
 10
2437.160
 20
-4682.675
 30
1877.000
 70
    32
  0
VERTEX
  8
3350LEVEL
 62
5
 10
2426.870
 20
-4650.617
 30
1877.000
 70
    32
  0
SEQEND
  8
3350LEVEL
  0
POLYLINE
  8
3350LEVEL
 62
5
 66
     1
 70
     9
  0
VERTEX
  8
3350LEVEL
 62
5
 10
2711.003
 20
-5451.521
 30
1877.000
 70
    32
  0
VERTEX
  8
3350LEVEL
 62
5
 10
2735.565
 20
-5473.842
 30
1877.000
 70
    32
  0
VERTEX
  8
3350LEVEL
 62
5
 10
2756.962
 20
-5504.479
 30
1877.000
 70
    32
  0
VERTEX
  8
3350LEVEL
 62
5
 10
2775.736
 20
-5535.686
 30
1877.000
 70
    32
  0
VERTEX
  8
3350LEVEL
 62
5
 10
2803.855
 20
-5565.428
 30
1877.000
 70
    32
  0
VERTEX
  8
3350LEVEL
 62
5
 10
2812.426
 20
-5595.681
 30
1877.000
 70
    32
  0
VERTEX
  8
3350LEVEL
 62
5
 10
2809.434
 20
-5631.576
 30
1877.000
 70
    32
  0
VERTEX
  8
3350LEVEL
 62
5
 10
2810.088
 20
-5668.335
 30
1877.000
 70
    32
  0
VERTEX
  8
3350LEVEL
 62
5
 10
2821.922
 20
-5712.279
 30
1877.000
 70
    32
  0
VERTEX
  8
3350LEVEL
 62
5
 10
2833.848
 20
-5746.634
 30
1877.000
 70
    32
  0
VERTEX
  8
3350LEVEL
 62
5
 10
2853.077
 20
-5773.620
 30
1877.000
 70
    32
  0
VERTEX
  8
3350LEVEL
 62
5
 10
2867.060
 20
-5801.748
 30
1877.000
 70
    32
  0
VERTEX
  8
3350LEVEL
 62
5
 10
2847.232
 20
-5796.398
 30
1877.000
 70
    32
  0
VERTEX
  8
3350LEVEL
 62
5
 10
2822.479
 20
-5761.660
 30
1877.000
 70
    32
  0
VERTEX
  8
3350LEVEL
 62
5
 10
2810.298
 20
-5734.845
 30
1877.000
 70
    32
  0
VERTEX
  8
3350LEVEL
 62
5
 10
2819.353
 20
-5736.618
 30
1877.000
 70
    32
  0
VERTEX
  8
3350LEVEL
 62
5
 10
2804.724
 20
-5700.293
 30
1877.000
 70
    32
  0
VERTEX
  8
3350LEVEL
 62
5
 10
2788.825
 20
-5664.008
 30
1877.000
 70
    32
  0
VERTEX
  8
3350LEVEL
 62
5
 10
2793.090
 20
-5625.041
 30
1877.000
 70
    32
  0
VERTEX
  8
3350LEVEL
 62
5
 10
2795.303
 20
-5589.269
 30
1877.000
 70
    32
  0
VERTEX
  8
3350LEVEL
 62
5
 10
2782.100
 20
-5561.019
 30
1877.000
 70
    32
  0
VERTEX
  8
3350LEVEL
 62
5
 10
2754.192
 20
-5525.498
 30
1877.000
 70
    32
  0
VERTEX
  8
3350LEVEL
 62
5
 10
2734.356
 20
-5491.585
 30
1877.000
 70
    32
  0
VERTEX
  8
3350LEVEL
 62
5
 10
2710.698
 20
-5466.888
 30
1877.000
 70
    32
  0
VERTEX
  8
3350LEVEL
 62
5
 10
2707.640
 20
-5453.484
 30
1877.000
 70
    32
  0
SEQEND
  8
3350LEVEL
  0
POLYLINE
  8
3350LEVEL
 62
5
 66
     1
 70
     9
  0
VERTEX
  8
3350LEVEL
 62
5
 10
2310.828
 20
-5495.565
 30
1877.000
 70
    32
  0
VERTEX
  8
3350LEVEL
 62
5
 10
2356.162
 20
-5556.758
 30
1877.000
 70
    32
  0
VERTEX
  8
3350LEVEL
 62
5
 10
2407.340
 20
-5632.834
 30
1877.000
 70
    32
  0
VERTEX
  8
3350LEVEL
 62
5
 10
2453.387
 20
-5716.896
 30
1877.000
 70
    32
  0
VERTEX
  8
3350LEVEL
 62
5
 10
2511.168
 20
-5788.267
 30
1877.000
 70
    32
  0
VERTEX
  8
3350LEVEL
 62
5
 10
2571.727
 20
-5867.181
 30
1877.000
 70
    32
  0
VERTEX
  8
3350LEVEL
 62
5
 10
2619.998
 20
-5941.000
 30
1877.000
 70
    32
  0
VERTEX
  8
3350LEVEL
 62
5
 10
2674.812
 20
-6027.038
 30
1877.000
 70
    32
  0
VERTEX
  8
3350LEVEL
 62
5
 10
2721.647
 20
-6101.880
 30
1877.000
 70
    32
  0
VERTEX
  8
3350LEVEL
 62
5
 10
2761.304
 20
-6147.208
 30
1877.000
 70
    32
  0
VERTEX
  8
3350LEVEL
 62
5
 10
2806.962
 20
-6212.500
 30
1877.000
 70
    32
  0
VERTEX
  8
3350LEVEL
 62
5
 10
2777.821
 20
-6181.322
 30
1877.000
 70
    32
  0
VERTEX
  8
3350LEVEL
 62
5
 10
2756.489
 20
-6165.356
 30
1877.000
 70
    32
  0
VERTEX
  8
3350LEVEL
 62
5
 10
2785.771
 20
-6216.778
 30
1877.000
 70
    32
  0
VERTEX
  8
3350LEVEL
 62
5
 10
2815.632
 20
-6299.387
 30
1877.000
 70
    32
  0
VERTEX
  8
3350LEVEL
 62
5
 10
2837.759
 20
-6372.356
 30
1877.000
 70
    32
  0
VERTEX
  8
3350LEVEL
 62
5
 10
2860.414
 20
-6449.710
 30
1877.000
 70
    32
  0
VERTEX
  8
3350LEVEL
 62
5
 10
2898.105
 20
-6529.336
 30
1877.000
 70
    32
  0
VERTEX
  8
3350LEVEL
 62
5
 10
2950.722
 20
-6601.357
 30
1877.000
 70
    32
  0
VERTEX
  8
3350LEVEL
 62
5
 10
2992.777
 20
-6664.022
 30
1877.000
 70
    32
  0
VERTEX
  8
3350LEVEL
 62
5
 10
3029.757
 20
-6720.780
 30
1877.000
 70
    32
  0
VERTEX
  8
3350LEVEL
 62
5
 10
3038.242
 20
-6754.557
 30
1877.000
 70
    32
  0
VERTEX
  8
3350LEVEL
 62
5
 10
2994.483
 20
-6712.585
 30
1877.000
 70
    32
  0
VERTEX
  8
3350LEVEL
 62
5
 10
2946.001
 20
-6644.544
 30
1877.000
 70
    32
  0
VERTEX
  8
3350LEVEL
 62
5
 10
2892.677
 20
-6581.251
 30
1877.000
 70
    32
  0
VERTEX
  8
3350LEVEL
 62
5
 10
2847.330
 20
-6494.527
 30
1877.000
 70
    32
  0
VERTEX
  8
3350LEVEL
 62
5
 10
2807.299
 20
-6418.300
 30
1877.000
 70
    32
  0
VERTEX
  8
3350LEVEL
 62
5
 10
2776.498
 20
-6333.764
 30
1877.000
 70
    32
  0
VERTEX
  8
3350LEVEL
 62
5
 10
2755.540
 20
-6241.782
 30
1877.000
 70
    32
  0
VERTEX
  8
3350LEVEL
 62
5
 10
2731.892
 20
-6173.360
 30
1877.000
 70
    32
  0
VERTEX
  8
3350LEVEL
 62
5
 10
2681.334
 20
-6092.080
 30
1877.000
 70
    32
  0
VERTEX
  8
3350LEVEL
 62
5
 10
2630.813
 20
-6015.103
 30
1877.000
 70
    32
  0
VERTEX
  8
3350LEVEL
 62
5
 10
2572.296
 20
-5942.092
 30
1877.000
 70
    32
  0
VERTEX
  8
3350LEVEL
 62
5
 10
2541.428
 20
-5880.546
 30
1877.000
 70
    32
  0
VERTEX
  8
3350LEVEL
 62
5
 10
2514.597
 20
-5835.602
 30
1877.000
 70
    32
  0
VERTEX
  8
3350LEVEL
 62
5
 10
2463.118
 20
-5771.860
 30
1877.000
 70
    32
  0
VERTEX
  8
3350LEVEL
 62
5
 10
2419.182
 20
-5705.341
 30
1877.000
 70
    32
  0
VERTEX
  8
3350LEVEL
 62
5
 10
2376.072
 20
-5633.905
 30
1877.000
 70
    32
  0
VERTEX
  8
3350LEVEL
 62
5
 10
2340.372
 20
-5568.010
 30
1877.000
 70
    32
  0
VERTEX
  8
3350LEVEL
 62
5
 10
2308.869
 20
-5523.797
 30
1877.000
 70
    32
  0
VERTEX
  8
3350LEVEL
 62
5
 10
2287.257
 20
-5501.971
 30
1877.000
 70
    32
  0
SEQEND
  8
3350LEVEL
  0
POLYLINE
  8
3350LEVEL
 62
5
 66
     1
 70
     9
  0
VERTEX
  8
3350LEVEL
 62
5
 10
1667.347
 20
-4265.067
 30
1877.000
 70
    32
  0
VERTEX
  8
3350LEVEL
 62
5
 10
1690.015
 20
-4295.664
 30
1877.000
 70
    32
  0
VERTEX
  8
3350LEVEL
 62
5
 10
1717.879
 20
-4332.947
 30
1877.000
 70
    32
  0
VERTEX
  8
3350LEVEL
 62
5
 10
1736.854
 20
-4367.473
 30
1877.000
 70
    32
  0
VERTEX
  8
3350LEVEL
 62
5
 10
1761.596
 20
-4411.309
 30
1877.000
 70
    32
  0
VERTEX
  8
3350LEVEL
 62
5
 10
1792.224
 20
-4468.265
 30
1877.000
 70
    32
  0
VERTEX
  8
3350LEVEL
 62
5
 10
1812.096
 20
-4506.481
 30
1877.000
 70
    32
  0
VERTEX
  8
3350LEVEL
 62
5
 10
1843.123
 20
-4573.108
 30
1877.000
 70
    32
  0
VERTEX
  8
3350LEVEL
 62
5
 10
1860.318
 20
-4622.754
 30
1877.000
 70
    32
  0
VERTEX
  8
3350LEVEL
 62
5
 10
1879.025
 20
-4676.951
 30
1877.000
 70
    32
  0
VERTEX
  8
3350LEVEL
 62
5
 10
1895.398
 20
-4728.481
 30
1877.000
 70
    32
  0
VERTEX
  8
3350LEVEL
 62
5
 10
1931.306
 20
-4791.631
 30
1877.000
 70
    32
  0
VERTEX
  8
3350LEVEL
 62
5
 10
1957.559
 20
-4840.017
 30
1877.000
 70
    32
  0
VERTEX
  8
3350LEVEL
 62
5
 10
1977.223
 20
-4880.978
 30
1877.000
 70
    32
  0
VERTEX
  8
3350LEVEL
 62
5
 10
1993.977
 20
-4922.715
 30
1877.000
 70
    32
  0
VERTEX
  8
3350LEVEL
 62
5
 10
1978.111
 20
-4928.393
 30
1877.000
 70
    32
  0
VERTEX
  8
3350LEVEL
 62
5
 10
1965.406
 20
-4894.160
 30
1877.000
 70
    32
  0
VERTEX
  8
3350LEVEL
 62
5
 10
1945.204
 20
-4857.911
 30
1877.000
 70
    32
  0
VERTEX
  8
3350LEVEL
 62
5
 10
1923.221
 20
-4802.154
 30
1877.000
 70
    32
  0
VERTEX
  8
3350LEVEL
 62
5
 10
1892.133
 20
-4752.451
 30
1877.000
 70
    32
  0
VERTEX
  8
3350LEVEL
 62
5
 10
1872.942
 20
-4692.106
 30
1877.000
 70
    32
  0
VERTEX
  8
3350LEVEL
 62
5
 10
1856.863
 20
-4634.307
 30
1877.000
 70
    32
  0
VERTEX
  8
3350LEVEL
 62
5
 10
1826.034
 20
-4574.031
 30
1877.000
 70
    32
  0
VERTEX
  8
3350LEVEL
 62
5
 10
1804.991
 20
-4520.201
 30
1877.000
 70
    32
  0
VERTEX
  8
3350LEVEL
 62
5
 10
1772.780
 20
-4450.089
 30
1877.000
 70
    32
  0
VERTEX
  8
3350LEVEL
 62
5
 10
1746.606
 20
-4404.243
 30
1877.000
 70
    32
  0
VERTEX
  8
3350LEVEL
 62
5
 10
1711.140
 20
-4349.003
 30
1877.000
 70
    32
  0
VERTEX
  8
3350LEVEL
 62
5
 10
1681.287
 20
-4294.958
 30
1877.000
 70
    32
  0
VERTEX
  8
3350LEVEL
 62
5
 10
1664.634
 20
-4272.195
 30
1877.000
 70
    32
  0
SEQEND
  8
3350LEVEL
  0
POLYLINE
  8
3350LEVEL
 62
5
 66
     1
 70
     9
  0
VERTEX
  8
3350LEVEL
 62
5
 10
1572.872
 20
-4102.106
 30
1877.000
 70
    32
  0
VERTEX
  8
3350LEVEL
 62
5
 10
1594.689
 20
-4124.219
 30
1877.000
 70
    32
  0
VERTEX
  8
3350LEVEL
 62
5
 10
1616.660
 20
-4154.446
 30
1877.000
 70
    32
  0
VERTEX
  8
3350LEVEL
 62
5
 10
1645.518
 20
-4182.796
 30
1877.000
 70
    32
  0
VERTEX
  8
3350LEVEL
 62
5
 10
1671.293
 20
-4218.970
 30
1877.000
 70
    32
  0
VERTEX
  8
3350LEVEL
 62
5
 10
1673.150
 20
-4244.051
 30
1877.000
 70
    32
  0
VERTEX
  8
3350LEVEL
 62
5
 10
1651.627
 20
-4215.669
 30
1877.000
 70
    32
  0
VERTEX
  8
3350LEVEL
 62
5
 10
1627.930
 20
-4189.701
 30
1877.000
 70
    32
  0
VERTEX
  8
3350LEVEL
 62
5
 10
1598.788
 20
-4158.523
 30
1877.000
 70
    32
  0
VERTEX
  8
3350LEVEL
 62
5
 10
1575.589
 20
-4126.574
 30
1877.000
 70
    32
  0
VERTEX
  8
3350LEVEL
 62
5
 10
1570.245
 20
-4105.709
 30
1877.000
 70
    32
  0
SEQEND
  8
3350LEVEL
  0
POLYLINE
  8
3350LEVEL
 62
5
 66
     1
 70
     9
  0
VERTEX
  8
3350LEVEL
 62
5
 10
1615.109
 20
-4041.709
 30
1877.000
 70
    32
  0
VERTEX
  8
3350LEVEL
 62
5
 10
1601.661
 20
-4011.902
 30
1877.000
 70
    32
  0
VERTEX
  8
3350LEVEL
 62
5
 10
1580.551
 20
-3981.061
 30
1877.000
 70
    32
  0
VERTEX
  8
3350LEVEL
 62
5
 10
1563.177
 20
-3944.528
 30
1877.000
 70
    32
  0
VERTEX
  8
3350LEVEL
 62
5
 10
1550.195
 20
-3901.403
 30
1877.000
 70
    32
  0
VERTEX
  8
3350LEVEL
 62
5
 10
1539.245
 20
-3873.278
 30
1877.000
 70
    32
  0
VERTEX
  8
3350LEVEL
 62
5
 10
1543.833
 20
-3910.698
 30
1877.000
 70
    32
  0
VERTEX
  8
3350LEVEL
 62
5
 10
1555.056
 20
-3950.748
 30
1877.000
 70
    32
  0
VERTEX
  8
3350LEVEL
 62
5
 10
1572.714
 20
-3990.108
 30
1877.000
 70
    32
  0
VERTEX
  8
3350LEVEL
 62
5
 10
1598.285
 20
-4025.995
 30
1877.000
 70
    32
  0
VERTEX
  8
3350LEVEL
 62
5
 10
1614.040
 20
-4045.068
 30
1877.000
 70
    32
  0
SEQEND
  8
3350LEVEL
  0
POLYLINE
  8
3350LEVEL
 62
5
 66
     1
 70
     9
  0
VERTEX
  8
3350LEVEL
 62
5
 10
3780.766
 20
-3216.249
 30
1877.000
 70
    32
  0
VERTEX
  8
3350LEVEL
 62
5
 10
3857.438
 20
-3394.927
 30
1877.000
 70
    32
  0
VERTEX
  8
3350LEVEL
 62
5
 10
3862.279
 20
-3390.179
 30
1877.000
 70
    32
  0
VERTEX
  8
3350LEVEL
 62
5
 10
3789.867
 20
-3213.227
 30
1877.000
 70
    32
  0
SEQEND
  8
3350LEVEL
  0
POLYLINE
  8
3350LEVEL
 62
5
 66
     1
 70
     9
  0
VERTEX
  8
3350LEVEL
 62
5
 10
3794.765
 20
-3763.794
 30
1877.000
 70
    32
  0
VERTEX
  8
3350LEVEL
 62
5
 10
3790.910
 20
-3731.047
 30
1877.000
 70
    32
  0
VERTEX
  8
3350LEVEL
 62
5
 10
3792.011
 20
-3700.395
 30
1877.000
 70
    32
  0
VERTEX
  8
3350LEVEL
 62
5
 10
3777.774
 20
-3679.807
 30
1877.000
 70
    32
  0
VERTEX
  8
3350LEVEL
 62
5
 10
3758.742
 20
-3659.172
 30
1877.000
 70
    32
  0
VERTEX
  8
3350LEVEL
 62
5
 10
3747.663
 20
-3636.334
 30
1877.000
 70
    32
  0
VERTEX
  8
3350LEVEL
 62
5
 10
3748.731
 20
-3598.347
 30
1877.000
 70
    32
  0
VERTEX
  8
3350LEVEL
 62
5
 10
3754.156
 20
-3584.093
 30
1877.000
 70
    32
  0
VERTEX
  8
3350LEVEL
 62
5
 10
3759.683
 20
-3588.812
 30
1877.000
 70
    32
  0
VERTEX
  8
3350LEVEL
 62
5
 10
3754.068
 20
-3625.277
 30
1877.000
 70
    32
  0
VERTEX
  8
3350LEVEL
 62
5
 10
3764.121
 20
-3649.712
 30
1877.000
 70
    32
  0
VERTEX
  8
3350LEVEL
 62
5
 10
3787.366
 20
-3676.868
 30
1877.000
 70
    32
  0
VERTEX
  8
3350LEVEL
 62
5
 10
3798.029
 20
-3705.197
 30
1877.000
 70
    32
  0
VERTEX
  8
3350LEVEL
 62
5
 10
3799.957
 20
-3738.884
 30
1877.000
 70
    32
  0
VERTEX
  8
3350LEVEL
 62
5
 10
3803.450
 20
-3766.263
 30
1877.000
 70
    32
  0
SEQEND
  8
3350LEVEL
  0
POLYLINE
  8
3350LEVEL
 62
5
 66
     1
 70
     9
  0
VERTEX
  8
3350LEVEL
 62
5
 10
1474.890
 20
-3816.980
 30
1877.000
 70
    32
  0
VERTEX
  8
3350LEVEL
 62
5
 10
1431.076
 20
-3751.239
 30
1877.000
 70
    32
  0
VERTEX
  8
3350LEVEL
 62
5
 10
1436.366
 20
-3748.336
 30
1877.000
 70
    32
  0
VERTEX
  8
3350LEVEL
 62
5
 10
1481.447
 20
-3817.069
 30
1877.000
 70
    32
  0
SEQEND
  8
3350LEVEL
  0
POLYLINE
  8
3350LEVEL
 62
8
 66
     1
 70
     9
  0
VERTEX
  8
3350LEVEL
 62
8
 10
3773.891
 20
-3705.948
 30
1877.000
 70
    32
  0
VERTEX
  8
3350LEVEL
 62
8
 10
3740.128
 20
-3702.303
 30
1877.000
 70
    32
  0
VERTEX
  8
3350LEVEL
 62
8
 10
3723.972
 20
-3711.218
 30
1877.000
 70
    32
  0
VERTEX
  8
3350LEVEL
 62
8
 10
3712.442
 20
-3724.195
 30
1877.000
 70
    32
  0
VERTEX
  8
3350LEVEL
 62
8
 10
3701.611
 20
-3734.509
 30
1877.000
 70
    32
  0
VERTEX
  8
3350LEVEL
 62
8
 10
3703.640
 20
-3752.543
 30
1877.000
 70
    32
  0
VERTEX
  8
3350LEVEL
 62
8
 10
3697.349
 20
-3770.443
 30
1877.000
 70
    32
  0
VERTEX
  8
3350LEVEL
 62
8
 10
3712.078
 20
-3791.114
 30
1877.000
 70
    32
  0
VERTEX
  8
3350LEVEL
 62
8
 10
3729.423
 20
-3817.279
 30
1877.000
 70
    32
  0
VERTEX
  8
3350LEVEL
 62
8
 10
3745.627
 20
-3838.197
 30
1877.000
 70
    32
  0
VERTEX
  8
3350LEVEL
 62
8
 10
3747.769
 20
-3828.447
 30
1877.000
 70
    32
  0
VERTEX
  8
3350LEVEL
 62
8
 10
3732.222
 20
-3806.628
 30
1877.000
 70
    32
  0
VERTEX
  8
3350LEVEL
 62
8
 10
3718.932
 20
-3781.902
 30
1877.000
 70
    32
  0
VERTEX
  8
3350LEVEL
 62
8
 10
3723.777
 20
-3774.121
 30
1877.000
 70
    32
  0
VERTEX
  8
3350LEVEL
 62
8
 10
3730.621
 20
-3774.006
 30
1877.000
 70
    32
  0
VERTEX
  8
3350LEVEL
 62
8
 10
3722.646
 20
-3759.777
 30
1877.000
 70
    32
  0
VERTEX
  8
3350LEVEL
 62
8
 10
3721.641
 20
-3743.179
 30
1877.000
 70
    32
  0
VERTEX
  8
3350LEVEL
 62
8
 10
3727.809
 20
-3724.499
 30
1877.000
 70
    32
  0
VERTEX
  8
3350LEVEL
 62
8
 10
3737.290
 20
-3711.684
 30
1877.000
 70
    32
  0
VERTEX
  8
3350LEVEL
 62
8
 10
3759.662
 20
-3713.922
 30
1877.000
 70
    32
  0
VERTEX
  8
3350LEVEL
 62
8
 10
3777.818
 20
-3712.673
 30
1877.000
 70
    32
  0
SEQEND
  8
3350LEVEL
  0
POLYLINE
  8
3350LEVEL
 62
5
 66
     1
 70
     9
  0
VERTEX
  8
3350LEVEL
 62
5
 10
2869.892
 20
-4836.190
 30
1877.000
 70
    32
  0
VERTEX
  8
3350LEVEL
 62
5
 10
2904.924
 20
-4912.084
 30
1877.000
 70
    32
  0
VERTEX
  8
3350LEVEL
 62
5
 10
2943.778
 20
-4978.761
 30
1877.000
 70
    32
  0
VERTEX
  8
3350LEVEL
 62
5
 10
2987.884
 20
-5075.893
 30
1877.000
 70
    32
  0
VERTEX
  8
3350LEVEL
 62
5
 10
3042.324
 20
-5165.660
 30
1877.000
 70
    32
  0
VERTEX
  8
3350LEVEL
 62
5
 10
3071.603
 20
-5220.114
 30
1877.000
 70
    32
  0
VERTEX
  8
3350LEVEL
 62
5
 10
3102.257
 20
-5290.471
 30
1877.000
 70
    32
  0
VERTEX
  8
3350LEVEL
 62
5
 10
3131.073
 20
-5355.211
 30
1877.000
 70
    32
  0
VERTEX
  8
3350LEVEL
 62
5
 10
3153.267
 20
-5405.190
 30
1877.000
 70
    32
  0
VERTEX
  8
3350LEVEL
 62
5
 10
3181.505
 20
-5438.744
 30
1877.000
 70
    32
  0
VERTEX
  8
3350LEVEL
 62
5
 10
3166.183
 20
-5399.017
 30
1877.000
 70
    32
  0
VERTEX
  8
3350LEVEL
 62
5
 10
3136.614
 20
-5347.800
 30
1877.000
 70
    32
  0
VERTEX
  8
3350LEVEL
 62
5
 10
3111.200
 20
-5282.367
 30
1877.000
 70
    32
  0
VERTEX
  8
3350LEVEL
 62
5
 10
3090.645
 20
-5231.652
 30
1877.000
 70
    32
  0
VERTEX
  8
3350LEVEL
 62
5
 10
3078.485
 20
-5186.642
 30
1877.000
 70
    32
  0
VERTEX
  8
3350LEVEL
 62
5
 10
3057.917
 20
-5148.057
 30
1877.000
 70
    32
  0
VERTEX
  8
3350LEVEL
 62
5
 10
3001.088
 20
-5048.499
 30
1877.000
 70
    32
  0
VERTEX
  8
3350LEVEL
 62
5
 10
2970.923
 20
-4979.225
 30
1877.000
 70
    32
  0
VERTEX
  8
3350LEVEL
 62
5
 10
2937.801
 20
-4920.608
 30
1877.000
 70
    32
  0
VERTEX
  8
3350LEVEL
 62
5
 10
2907.045
 20
-4849.558
 30
1877.000
 70
    32
  0
SEQEND
  8
3350LEVEL
  0
POLYLINE
  8
3350LEVEL
 62
7
 66
     1
 70
     8
  0
VERTEX
  8
3350LEVEL
 62
7
 10
4041.116
 20
-4350.086
 30
1877.000
 70
    32
  0
VERTEX
  8
3350LEVEL
 62
7
 10
4065.431
 20
-4408.510
 30
1877.000
 70
    32
  0
VERTEX
  8
3350LEVEL
 62
7
 10
4062.988
 20
-4430.595
 30
1877.000
 70
    32
  0
VERTEX
  8
3350LEVEL
 62
7
 10
4085.387
 20
-4480.861
 30
1877.000
 70
    32
  0
VERTEX
  8
3350LEVEL
 62
7
 10
4103.251
 20
-4555.137
 30
1877.000
 70
    32
  0
VERTEX
  8
3350LEVEL
 62
7
 10
4122.417
 20
-4636.709
 30
1877.000
 70
    32
  0
VERTEX
  8
3350LEVEL
 62
7
 10
4155.304
 20
-4725.385
 30
1877.000
 70
    32
  0
VERTEX
  8
3350LEVEL
 62
7
 10
4195.694
 20
-4810.014
 30
1877.000
 70
    32
  0
VERTEX
  8
3350LEVEL
 62
7
 10
4229.094
 20
-4880.578
 30
1877.000
 70
    32
  0
VERTEX
  8
3350LEVEL
 62
7
 10
4191.411
 20
-4864.143
 30
1877.000
 70
    32
  0
VERTEX
  8
3350LEVEL
 62
7
 10
4150.943
 20
-4811.601
 30
1877.000
 70
    32
  0
VERTEX
  8
3350LEVEL
 62
7
 10
4095.520
 20
-4756.297
 30
1877.000
 70
    32
  0
VERTEX
  8
3350LEVEL
 62
7
 10
4111.190
 20
-4813.523
 30
1877.000
 70
    32
  0
VERTEX
  8
3350LEVEL
 62
7
 10
4154.308
 20
-4878.894
 30
1877.000
 70
    32
  0
VERTEX
  8
3350LEVEL
 62
7
 10
4188.180
 20
-4930.075
 30
1877.000
 70
    32
  0
VERTEX
  8
3350LEVEL
 62
7
 10
4218.435
 20
-4990.760
 30
1877.000
 70
    32
  0
VERTEX
  8
3350LEVEL
 62
7
 10
4180.100
 20
-4972.193
 30
1877.000
 70
    32
  0
VERTEX
  8
3350LEVEL
 62
7
 10
4134.998
 20
-4921.654
 30
1877.000
 70
    32
  0
VERTEX
  8
3350LEVEL
 62
7
 10
4094.167
 20
-4863.744
 30
1877.000
 70
    32
  0
VERTEX
  8
3350LEVEL
 62
7
 10
4066.974
 20
-4813.431
 30
1877.000
 70
    32
  0
VERTEX
  8
3350LEVEL
 62
7
 10
4047.615
 20
-4791.730
 30
1877.000
 70
    32
  0
VERTEX
  8
3350LEVEL
 62
7
 10
4022.084
 20
-4757.114
 30
1877.000
 70
    32
  0
VERTEX
  8
3350LEVEL
 62
7
 10
3999.040
 20
-4733.278
 30
1877.000
 70
    32
  0
VERTEX
  8
3350LEVEL
 62
7
 10
4015.223
 20
-4772.392
 30
1877.000
 70
    32
  0
VERTEX
  8
3350LEVEL
 62
7
 10
4036.088
 20
-4801.675
 30
1877.000
 70
    32
  0
VERTEX
  8
3350LEVEL
 62
7
 10
4045.995
 20
-4846.559
 30
1877.000
 70
    32
  0
VERTEX
  8
3350LEVEL
 62
7
 10
4029.461
 20
-4827.607
 30
1877.000
 70
    32
  0
VERTEX
  8
3350LEVEL
 62
7
 10
4002.375
 20
-4790.203
 30
1877.000
 70
    32
  0
VERTEX
  8
3350LEVEL
 62
7
 10
3985.493
 20
-4753.753
 30
1877.000
 70
    32
  0
VERTEX
  8
3350LEVEL
 62
7
 10
3962.832
 20
-4717.091
 30
1877.000
 70
    32
  0
VERTEX
  8
3350LEVEL
 62
7
 10
3927.758
 20
-4677.587
 30
1877.000
 70
    32
  0
VERTEX
  8
3350LEVEL
 62
7
 10
3898.017
 20
-4633.418
 30
1877.000
 70
    32
  0
VERTEX
  8
3350LEVEL
 62
7
 10
3865.865
 20
-4590.927
 30
1877.000
 70
    32
  0
VERTEX
  8
3350LEVEL
 62
7
 10
3863.463
 20
-4587.242
 30
1877.000
 70
    32
  0
VERTEX
  8
3350LEVEL
 62
7
 10
3858.332
 20
-4580.472
 30
1877.000
 70
    32
  0
VERTEX
  8
3350LEVEL
 62
7
 10
3851.634
 20
-4571.304
 30
1877.000
 70
    32
  0
VERTEX
  8
3350LEVEL
 62
7
 10
3844.631
 20
-4561.032
 30
1877.000
 70
    32
  0
VERTEX
  8
3350LEVEL
 62
7
 10
3834.509
 20
-4547.634
 30
1877.000
 70
    32
  0
VERTEX
  8
3350LEVEL
 62
7
 10
3823.182
 20
-4534.150
 30
1877.000
 70
    32
  0
VERTEX
  8
3350LEVEL
 62
7
 10
3815.555
 20
-4525.467
 30
1877.000
 70
    32
  0
VERTEX
  8
3350LEVEL
 62
7
 10
3806.214
 20
-4514.882
 30
1877.000
 70
    32
  0
VERTEX
  8
3350LEVEL
 62
7
 10
3798.122
 20
-4506.583
 30
1877.000
 70
    32
  0
VERTEX
  8
3350LEVEL
 62
7
 10
3792.414
 20
-4500.515
 30
1877.000
 70
    32
  0
VERTEX
  8
3350LEVEL
 62
7
 10
3789.598
 20
-4495.902
 30
1877.000
 70
    32
  0
SEQEND
  8
3350LEVEL
  0
POLYLINE
  8
3350LEVEL
 62
13
 66
     1
 70
     8
  0
VERTEX
  8
3350LEVEL
 62
13
 10
3996.985
 20
-4346.470
 30
1877.000
 70
    32
  0
VERTEX
  8
3350LEVEL
 62
13
 10
4009.009
 20
-4402.830
 30
1877.000
 70
    32
  0
VERTEX
  8
3350LEVEL
 62
13
 10
4033.400
 20
-4466.828
 30
1877.000
 70
    32
  0
VERTEX
  8
3350LEVEL
 62
13
 10
4055.333
 20
-4530.412
 30
1877.000
 70
    32
  0
VERTEX
  8
3350LEVEL
 62
13
 10
4061.440
 20
-4600.945
 30
1877.000
 70
    32
  0
VERTEX
  8
3350LEVEL
 62
13
 10
4064.306
 20
-4674.220
 30
1877.000
 70
    32
  0
VERTEX
  8
3350LEVEL
 62
13
 10
4063.924
 20
-4721.674
 30
1877.000
 70
    32
  0
VERTEX
  8
3350LEVEL
 62
13
 10
4081.661
 20
-4763.575
 30
1877.000
 70
    32
  0
VERTEX
  8
3350LEVEL
 62
13
 10
4080.448
 20
-4784.351
 30
1877.000
 70
    32
  0
VERTEX
  8
3350LEVEL
 62
13
 10
4061.521
 20
-4779.657
 30
1877.000
 70
    32
  0
VERTEX
  8
3350LEVEL
 62
13
 10
4044.661
 20
-4759.640
 30
1877.000
 70
    32
  0
VERTEX
  8
3350LEVEL
 62
13
 10
4008.528
 20
-4714.398
 30
1877.000
 70
    32
  0
VERTEX
  8
3350LEVEL
 62
13
 10
3973.909
 20
-4670.674
 30
1877.000
 70
    32
  0
VERTEX
  8
3350LEVEL
 62
13
 10
3934.715
 20
-4615.060
 30
1877.000
 70
    32
  0
VERTEX
  8
3350LEVEL
 62
13
 10
3888.678
 20
-4554.453
 30
1877.000
 70
    32
  0
VERTEX
  8
3350LEVEL
 62
13
 10
3886.448
 20
-4551.231
 30
1877.000
 70
    32
  0
VERTEX
  8
3350LEVEL
 62
13
 10
3882.322
 20
-4546.354
 30
1877.000
 70
    32
  0
VERTEX
  8
3350LEVEL
 62
13
 10
3877.670
 20
-4541.008
 30
1877.000
 70
    32
  0
VERTEX
  8
3350LEVEL
 62
13
 10
3869.856
 20
-4533.068
 30
1877.000
 70
    32
  0
VERTEX
  8
3350LEVEL
 62
13
 10
3862.775
 20
-4526.237
 30
1877.000
 70
    32
  0
VERTEX
  8
3350LEVEL
 62
13
 10
3852.877
 20
-4517.597
 30
1877.000
 70
    32
  0
VERTEX
  8
3350LEVEL
 62
13
 10
3841.801
 20
-4509.474
 30
1877.000
 70
    32
  0
VERTEX
  8
3350LEVEL
 62
13
 10
3831.762
 20
-4503.635
 30
1877.000
 70
    32
  0
VERTEX
  8
3350LEVEL
 62
13
 10
3822.027
 20
-4498.971
 30
1877.000
 70
    32
  0
VERTEX
  8
3350LEVEL
 62
13
 10
3815.818
 20
-4496.125
 30
1877.000
 70
    32
  0
VERTEX
  8
3350LEVEL
 62
13
 10
3809.113
 20
-4493.131
 30
1877.000
 70
    32
  0
VERTEX
  8
3350LEVEL
 62
13
 10
3804.659
 20
-4488.995
 30
1877.000
 70
    32
  0
VERTEX
  8
3350LEVEL
 62
13
 10
3800.288
 20
-4483.866
 30
1877.000
 70
    32
  0
VERTEX
  8
3350LEVEL
 62
13
 10
3794.871
 20
-4477.233
 30
1877.000
 70
    32
  0
VERTEX
  8
3350LEVEL
 62
13
 10
3790.518
 20
-4473.488
 30
1877.000
 70
    32
  0
VERTEX
  8
3350LEVEL
 62
13
 10
3789.900
 20
-4474.722
 30
1877.000
 70
    32
  0
VERTEX
  8
3350LEVEL
 62
13
 10
3792.122
 20
-4478.582
 30
1877.000
 70
    32
  0
VERTEX
  8
3350LEVEL
 62
13
 10
3795.750
 20
-4483.525
 30
1877.000
 70
    32
  0
VERTEX
  8
3350LEVEL
 62
13
 10
3799.933
 20
-4489.539
 30
1877.000
 70
    32
  0
VERTEX
  8
3350LEVEL
 62
13
 10
3804.618
 20
-4497.865
 30
1877.000
 70
    32
  0
VERTEX
  8
3350LEVEL
 62
13
 10
3805.497
 20
-4504.157
 30
1877.000
 70
    32
  0
VERTEX
  8
3350LEVEL
 62
13
 10
3803.427
 20
-4505.124
 30
1877.000
 70
    32
  0
VERTEX
  8
3350LEVEL
 62
13
 10
3801.665
 20
-4504.180
 30
1877.000
 70
    32
  0
VERTEX
  8
3350LEVEL
 62
13
 10
3798.176
 20
-4502.255
 30
1877.000
 70
    32
  0
VERTEX
  8
3350LEVEL
 62
13
 10
3791.942
 20
-4498.522
 30
1877.000
 70
    32
  0
VERTEX
  8
3350LEVEL
 62
13
 10
3789.598
 20
-4495.902
 30
1877.000
 70
    32
  0
SEQEND
  8
3350LEVEL
  0
POLYLINE
  8
3350LEVEL
 62
5
 66
     1
 70
     9
  0
VERTEX
  8
3350LEVEL
 62
5
 10
2832.098
 20
-4717.002
 30
1877.000
 70
    32
  0
VERTEX
  8
3350LEVEL
 62
5
 10
2833.713
 20
-4721.174
 30
1877.000
 70
    32
  0
VERTEX
  8
3350LEVEL
 62
5
 10
2836.359
 20
-4725.253
 30
1877.000
 70
    32
  0
VERTEX
  8
3350LEVEL
 62
5
 10
2838.406
 20
-4728.933
 30
1877.000
 70
    32
  0
VERTEX
  8
3350LEVEL
 62
5
 10
2839.901
 20
-4731.400
 30
1877.000
 70
    32
  0
VERTEX
  8
3350LEVEL
 62
5
 10
2840.660
 20
-4733.113
 30
1877.000
 70
    32
  0
VERTEX
  8
3350LEVEL
 62
5
 10
2841.241
 20
-4734.859
 30
1877.000
 70
    32
  0
VERTEX
  8
3350LEVEL
 62
5
 10
2842.172
 20
-4737.035
 30
1877.000
 70
    32
  0
VERTEX
  8
3350LEVEL
 62
5
 10
2829.655
 20
-4739.149
 30
1877.000
 70
    32
  0
VERTEX
  8
3350LEVEL
 62
5
 10
2828.761
 20
-4736.867
 30
1877.000
 70
    32
  0
VERTEX
  8
3350LEVEL
 62
5
 10
2828.998
 20
-4734.954
 30
1877.000
 70
    32
  0
VERTEX
  8
3350LEVEL
 62
5
 10
2829.273
 20
-4732.864
 30
1877.000
 70
    32
  0
VERTEX
  8
3350LEVEL
 62
5
 10
2828.258
 20
-4731.751
 30
1877.000
 70
    32
  0
VERTEX
  8
3350LEVEL
 62
5
 10
2827.038
 20
-4729.997
 30
1877.000
 70
    32
  0
VERTEX
  8
3350LEVEL
 62
5
 10
2827.891
 20
-4727.062
 30
1877.000
 70
    32
  0
VERTEX
  8
3350LEVEL
 62
5
 10
2828.125
 20
-4725.362
 30
1877.000
 70
    32
  0
VERTEX
  8
3350LEVEL
 62
5
 10
2828.136
 20
-4721.707
 30
1877.000
 70
    32
  0
VERTEX
  8
3350LEVEL
 62
5
 10
2828.136
 20
-4718.833
 30
1877.000
 70
    32
  0
VERTEX
  8
3350LEVEL
 62
5
 10
2827.877
 20
-4716.843
 30
1877.000
 70
    32
  0
SEQEND
  8
3350LEVEL
  0
POLYLINE
  8
3350LEVEL
 62
5
 66
     1
 70
     9
  0
VERTEX
  8
3350LEVEL
 62
5
 10
3321.397
 20
-4478.489
 30
1877.000
 70
    32
  0
VERTEX
  8
3350LEVEL
 62
5
 10
3319.640
 20
-4482.796
 30
1877.000
 70
    32
  0
VERTEX
  8
3350LEVEL
 62
5
 10
3316.898
 20
-4486.381
 30
1877.000
 70
    32
  0
VERTEX
  8
3350LEVEL
 62
5
 10
3314.256
 20
-4490.499
 30
1877.000
 70
    32
  0
VERTEX
  8
3350LEVEL
 62
5
 10
3312.747
 20
-4494.845
 30
1877.000
 70
    32
  0
VERTEX
  8
3350LEVEL
 62
5
 10
3311.823
 20
-4497.778
 30
1877.000
 70
    32
  0
VERTEX
  8
3350LEVEL
 62
5
 10
3310.676
 20
-4501.490
 30
1877.000
 70
    32
  0
VERTEX
  8
3350LEVEL
 62
5
 10
3309.926
 20
-4504.674
 30
1877.000
 70
    32
  0
VERTEX
  8
3350LEVEL
 62
5
 10
3309.686
 20
-4506.871
 30
1877.000
 70
    32
  0
VERTEX
  8
3350LEVEL
 62
5
 10
3308.959
 20
-4508.281
 30
1877.000
 70
    32
  0
VERTEX
  8
3350LEVEL
 62
5
 10
3308.420
 20
-4508.806
 30
1877.000
 70
    32
  0
VERTEX
  8
3350LEVEL
 62
5
 10
3307.785
 20
-4508.515
 30
1877.000
 70
    32
  0
VERTEX
  8
3350LEVEL
 62
5
 10
3307.659
 20
-4507.236
 30
1877.000
 70
    32
  0
VERTEX
  8
3350LEVEL
 62
5
 10
3308.368
 20
-4504.441
 30
1877.000
 70
    32
  0
VERTEX
  8
3350LEVEL
 62
5
 10
3310.388
 20
-4496.163
 30
1877.000
 70
    32
  0
VERTEX
  8
3350LEVEL
 62
5
 10
3313.171
 20
-4489.315
 30
1877.000
 70
    32
  0
VERTEX
  8
3350LEVEL
 62
5
 10
3315.817
 20
-4484.841
 30
1877.000
 70
    32
  0
VERTEX
  8
3350LEVEL
 62
5
 10
3318.546
 20
-4479.518
 30
1877.000
 70
    32
  0
VERTEX
  8
3350LEVEL
 62
5
 10
3320.006
 20
-4476.271
 30
1877.000
 70
    32
  0
VERTEX
  8
3350LEVEL
 62
5
 10
3321.026
 20
-4474.155
 30
1877.000
 70
    32
  0
VERTEX
  8
3350LEVEL
 62
5
 10
3322.105
 20
-4472.962
 30
1877.000
 70
    32
  0
VERTEX
  8
3350LEVEL
 62
5
 10
3322.705
 20
-4473.218
 30
1877.000
 70
    32
  0
VERTEX
  8
3350LEVEL
 62
5
 10
3323.193
 20
-4473.934
 30
1877.000
 70
    32
  0
SEQEND
  8
3350LEVEL
  0
POLYLINE
  8
3350LEVEL
 62
5
 66
     1
 70
     9
  0
VERTEX
  8
3350LEVEL
 62
5
 10
3170.804
 20
-4622.612
 30
1877.000
 70
    32
  0
VERTEX
  8
3350LEVEL
 62
5
 10
3171.442
 20
-4625.495
 30
1877.000
 70
    32
  0
VERTEX
  8
3350LEVEL
 62
5
 10
3172.089
 20
-4627.667
 30
1877.000
 70
    32
  0
VERTEX
  8
3350LEVEL
 62
5
 10
3172.676
 20
-4628.917
 30
1877.000
 70
    32
  0
VERTEX
  8
3350LEVEL
 62
5
 10
3173.848
 20
-4628.825
 30
1877.000
 70
    32
  0
VERTEX
  8
3350LEVEL
 62
5
 10
3174.304
 20
-4629.292
 30
1877.000
 70
    32
  0
VERTEX
  8
3350LEVEL
 62
5
 10
3173.690
 20
-4630.171
 30
1877.000
 70
    32
  0
VERTEX
  8
3350LEVEL
 62
5
 10
3173.424
 20
-4631.552
 30
1877.000
 70
    32
  0
VERTEX
  8
3350LEVEL
 62
5
 10
3173.940
 20
-4632.871
 30
1877.000
 70
    32
  0
VERTEX
  8
3350LEVEL
 62
5
 10
3174.430
 20
-4633.374
 30
1877.000
 70
    32
  0
VERTEX
  8
3350LEVEL
 62
5
 10
3174.969
 20
-4632.849
 30
1877.000
 70
    32
  0
VERTEX
  8
3350LEVEL
 62
5
 10
3176.558
 20
-4633.472
 30
1877.000
 70
    32
  0
VERTEX
  8
3350LEVEL
 62
5
 10
3179.837
 20
-4637.913
 30
1877.000
 70
    32
  0
VERTEX
  8
3350LEVEL
 62
5
 10
3184.139
 20
-4645.773
 30
1877.000
 70
    32
  0
VERTEX
  8
3350LEVEL
 62
5
 10
3188.344
 20
-4655.620
 30
1877.000
 70
    32
  0
VERTEX
  8
3350LEVEL
 62
5
 10
3191.894
 20
-4664.003
 30
1877.000
 70
    32
  0
VERTEX
  8
3350LEVEL
 62
5
 10
3194.776
 20
-4671.846
 30
1877.000
 70
    32
  0
VERTEX
  8
3350LEVEL
 62
5
 10
3197.904
 20
-4679.869
 30
1877.000
 70
    32
  0
VERTEX
  8
3350LEVEL
 62
5
 10
3199.818
 20
-4685.712
 30
1877.000
 70
    32
  0
VERTEX
  8
3350LEVEL
 62
5
 10
3199.706
 20
-4688.904
 30
1877.000
 70
    32
  0
VERTEX
  8
3350LEVEL
 62
5
 10
3198.572
 20
-4691.622
 30
1877.000
 70
    32
  0
VERTEX
  8
3350LEVEL
 62
5
 10
3196.375
 20
-4694.256
 30
1877.000
 70
    32
  0
VERTEX
  8
3350LEVEL
 62
5
 10
3192.867
 20
-4696.696
 30
1877.000
 70
    32
  0
VERTEX
  8
3350LEVEL
 62
5
 10
3190.192
 20
-4697.762
 30
1877.000
 70
    32
  0
VERTEX
  8
3350LEVEL
 62
5
 10
3186.426
 20
-4698.140
 30
1877.000
 70
    32
  0
VERTEX
  8
3350LEVEL
 62
5
 10
3184.081
 20
-4698.395
 30
1877.000
 70
    32
  0
VERTEX
  8
3350LEVEL
 62
5
 10
3182.126
 20
-4698.690
 30
1877.000
 70
    32
  0
VERTEX
  8
3350LEVEL
 62
5
 10
3181.243
 20
-4698.359
 30
1877.000
 70
    32
  0
VERTEX
  8
3350LEVEL
 62
5
 10
3180.191
 20
-4697.352
 30
1877.000
 70
    32
  0
VERTEX
  8
3350LEVEL
 62
5
 10
3178.735
 20
-4694.566
 30
1877.000
 70
    32
  0
VERTEX
  8
3350LEVEL
 62
5
 10
3177.351
 20
-4691.781
 30
1877.000
 70
    32
  0
VERTEX
  8
3350LEVEL
 62
5
 10
3176.058
 20
-4687.365
 30
1877.000
 70
    32
  0
VERTEX
  8
3350LEVEL
 62
5
 10
3175.060
 20
-4682.101
 30
1877.000
 70
    32
  0
VERTEX
  8
3350LEVEL
 62
5
 10
3174.105
 20
-4676.234
 30
1877.000
 70
    32
  0
VERTEX
  8
3350LEVEL
 62
5
 10
3173.536
 20
-4670.621
 30
1877.000
 70
    32
  0
VERTEX
  8
3350LEVEL
 62
5
 10
3172.549
 20
-4664.505
 30
1877.000
 70
    32
  0
VERTEX
  8
3350LEVEL
 62
5
 10
3170.476
 20
-4660.008
 30
1877.000
 70
    32
  0
VERTEX
  8
3350LEVEL
 62
5
 10
3169.120
 20
-4657.827
 30
1877.000
 70
    32
  0
VERTEX
  8
3350LEVEL
 62
5
 10
3167.514
 20
-4655.677
 30
1877.000
 70
    32
  0
VERTEX
  8
3350LEVEL
 62
5
 10
3166.741
 20
-4655.100
 30
1877.000
 70
    32
  0
VERTEX
  8
3350LEVEL
 62
5
 10
3165.826
 20
-4654.521
 30
1877.000
 70
    32
  0
VERTEX
  8
3350LEVEL
 62
5
 10
3164.598
 20
-4653.405
 30
1877.000
 70
    32
  0
VERTEX
  8
3350LEVEL
 62
5
 10
3163.593
 20
-4651.512
 30
1877.000
 70
    32
  0
VERTEX
  8
3350LEVEL
 62
5
 10
3163.583
 20
-4649.418
 30
1877.000
 70
    32
  0
VERTEX
  8
3350LEVEL
 62
5
 10
3163.967
 20
-4647.152
 30
1877.000
 70
    32
  0
VERTEX
  8
3350LEVEL
 62
5
 10
3163.515
 20
-4646.401
 30
1877.000
 70
    32
  0
VERTEX
  8
3350LEVEL
 62
5
 10
3162.362
 20
-4644.932
 30
1877.000
 70
    32
  0
VERTEX
  8
3350LEVEL
 62
5
 10
3161.602
 20
-4643.290
 30
1877.000
 70
    32
  0
VERTEX
  8
3350LEVEL
 62
5
 10
3161.889
 20
-4640.207
 30
1877.000
 70
    32
  0
VERTEX
  8
3350LEVEL
 62
5
 10
3161.399
 20
-4636.901
 30
1877.000
 70
    32
  0
VERTEX
  8
3350LEVEL
 62
5
 10
3160.853
 20
-4635.120
 30
1877.000
 70
    32
  0
VERTEX
  8
3350LEVEL
 62
5
 10
3160.443
 20
-4633.908
 30
1877.000
 70
    32
  0
VERTEX
  8
3350LEVEL
 62
5
 10
3159.931
 20
-4632.305
 30
1877.000
 70
    32
  0
SEQEND
  8
3350LEVEL
  0
POLYLINE
  8
3350LEVEL
 62
5
 66
     1
 70
     9
  0
VERTEX
  8
3350LEVEL
 62
5
 10
3157.120
 20
-4635.747
 30
1877.000
 70
    32
  0
VERTEX
  8
3350LEVEL
 62
5
 10
3159.080
 20
-4637.901
 30
1877.000
 70
    32
  0
VERTEX
  8
3350LEVEL
 62
5
 10
3159.994
 20
-4641.354
 30
1877.000
 70
    32
  0
VERTEX
  8
3350LEVEL
 62
5
 10
3160.403
 20
-4645.582
 30
1877.000
 70
    32
  0
VERTEX
  8
3350LEVEL
 62
5
 10
3161.400
 20
-4648.114
 30
1877.000
 70
    32
  0
VERTEX
  8
3350LEVEL
 62
5
 10
3161.579
 20
-4650.813
 30
1877.000
 70
    32
  0
VERTEX
  8
3350LEVEL
 62
5
 10
3162.009
 20
-4653.266
 30
1877.000
 70
    32
  0
VERTEX
  8
3350LEVEL
 62
5
 10
3162.873
 20
-4655.158
 30
1877.000
 70
    32
  0
VERTEX
  8
3350LEVEL
 62
5
 10
3163.743
 20
-4656.482
 30
1877.000
 70
    32
  0
VERTEX
  8
3350LEVEL
 62
5
 10
3165.319
 20
-4658.098
 30
1877.000
 70
    32
  0
VERTEX
  8
3350LEVEL
 62
5
 10
3167.350
 20
-4660.253
 30
1877.000
 70
    32
  0
VERTEX
  8
3350LEVEL
 62
5
 10
3169.049
 20
-4663.432
 30
1877.000
 70
    32
  0
VERTEX
  8
3350LEVEL
 62
5
 10
3170.573
 20
-4669.235
 30
1877.000
 70
    32
  0
VERTEX
  8
3350LEVEL
 62
5
 10
3171.281
 20
-4675.063
 30
1877.000
 70
    32
  0
VERTEX
  8
3350LEVEL
 62
5
 10
3171.949
 20
-4681.139
 30
1877.000
 70
    32
  0
VERTEX
  8
3350LEVEL
 62
5
 10
3173.061
 20
-4685.873
 30
1877.000
 70
    32
  0
VERTEX
  8
3350LEVEL
 62
5
 10
3174.385
 20
-4690.609
 30
1877.000
 70
    32
  0
VERTEX
  8
3350LEVEL
 62
5
 10
3175.937
 20
-4694.212
 30
1877.000
 70
    32
  0
VERTEX
  8
3350LEVEL
 62
5
 10
3176.976
 20
-4696.212
 30
1877.000
 70
    32
  0
VERTEX
  8
3350LEVEL
 62
5
 10
3178.127
 20
-4697.823
 30
1877.000
 70
    32
  0
VERTEX
  8
3350LEVEL
 62
5
 10
3179.636
 20
-4699.155
 30
1877.000
 70
    32
  0
VERTEX
  8
3350LEVEL
 62
5
 10
3181.131
 20
-4701.622
 30
1877.000
 70
    32
  0
VERTEX
  8
3350LEVEL
 62
5
 10
3183.533
 20
-4705.307
 30
1877.000
 70
    32
  0
VERTEX
  8
3350LEVEL
 62
5
 10
3186.562
 20
-4709.923
 30
1877.000
 70
    32
  0
VERTEX
  8
3350LEVEL
 62
5
 10
3189.402
 20
-4718.297
 30
1877.000
 70
    32
  0
VERTEX
  8
3350LEVEL
 62
5
 10
3192.051
 20
-4727.698
 30
1877.000
 70
    32
  0
VERTEX
  8
3350LEVEL
 62
5
 10
3195.969
 20
-4740.699
 30
1877.000
 70
    32
  0
VERTEX
  8
3350LEVEL
 62
5
 10
3199.916
 20
-4751.287
 30
1877.000
 70
    32
  0
VERTEX
  8
3350LEVEL
 62
5
 10
3204.454
 20
-4760.108
 30
1877.000
 70
    32
  0
VERTEX
  8
3350LEVEL
 62
5
 10
3209.248
 20
-4768.259
 30
1877.000
 70
    32
  0
VERTEX
  8
3350LEVEL
 62
5
 10
3216.373
 20
-4780.165
 30
1877.000
 70
    32
  0
VERTEX
  8
3350LEVEL
 62
5
 10
3222.559
 20
-4790.532
 30
1877.000
 70
    32
  0
VERTEX
  8
3350LEVEL
 62
5
 10
3231.057
 20
-4806.075
 30
1877.000
 70
    32
  0
VERTEX
  8
3350LEVEL
 62
5
 10
3236.889
 20
-4819.170
 30
1877.000
 70
    32
  0
VERTEX
  8
3350LEVEL
 62
5
 10
3241.405
 20
-4829.766
 30
1877.000
 70
    32
  0
VERTEX
  8
3350LEVEL
 62
5
 10
3246.082
 20
-4841.605
 30
1877.000
 70
    32
  0
VERTEX
  8
3350LEVEL
 62
5
 10
3250.282
 20
-4851.806
 30
1877.000
 70
    32
  0
VERTEX
  8
3350LEVEL
 62
5
 10
3252.740
 20
-4859.572
 30
1877.000
 70
    32
  0
VERTEX
  8
3350LEVEL
 62
5
 10
3255.021
 20
-4867.230
 30
1877.000
 70
    32
  0
VERTEX
  8
3350LEVEL
 62
5
 10
3257.156
 20
-4875.241
 30
1877.000
 70
    32
  0
VERTEX
  8
3350LEVEL
 62
5
 10
3259.390
 20
-4886.659
 30
1877.000
 70
    32
  0
VERTEX
  8
3350LEVEL
 62
5
 10
3263.117
 20
-4900.686
 30
1877.000
 70
    32
  0
VERTEX
  8
3350LEVEL
 62
5
 10
3266.335
 20
-4910.024
 30
1877.000
 70
    32
  0
VERTEX
  8
3350LEVEL
 62
5
 10
3269.634
 20
-4918.581
 30
1877.000
 70
    32
  0
VERTEX
  8
3350LEVEL
 62
5
 10
3271.981
 20
-4923.791
 30
1877.000
 70
    32
  0
VERTEX
  8
3350LEVEL
 62
5
 10
3273.779
 20
-4927.575
 30
1877.000
 70
    32
  0
VERTEX
  8
3350LEVEL
 62
5
 10
3278.724
 20
-4932.214
 30
1877.000
 70
    32
  0
VERTEX
  8
3350LEVEL
 62
5
 10
3286.698
 20
-4941.469
 30
1877.000
 70
    32
  0
VERTEX
  8
3350LEVEL
 62
5
 10
3294.664
 20
-4948.560
 30
1877.000
 70
    32
  0
VERTEX
  8
3350LEVEL
 62
5
 10
3300.024
 20
-4953.985
 30
1877.000
 70
    32
  0
VERTEX
  8
3350LEVEL
 62
5
 10
3304.632
 20
-4960.075
 30
1877.000
 70
    32
  0
VERTEX
  8
3350LEVEL
 62
5
 10
3307.525
 20
-4964.192
 30
1877.000
 70
    32
  0
VERTEX
  8
3350LEVEL
 62
5
 10
3309.467
 20
-4967.836
 30
1877.000
 70
    32
  0
VERTEX
  8
3350LEVEL
 62
5
 10
3310.821
 20
-4975.837
 30
1877.000
 70
    32
  0
VERTEX
  8
3350LEVEL
 62
5
 10
3308.673
 20
-4982.977
 30
1877.000
 70
    32
  0
VERTEX
  8
3350LEVEL
 62
5
 10
3306.911
 20
-4987.639
 30
1877.000
 70
    32
  0
VERTEX
  8
3350LEVEL
 62
5
 10
3302.954
 20
-4991.918
 30
1877.000
 70
    32
  0
VERTEX
  8
3350LEVEL
 62
5
 10
3298.032
 20
-4993.986
 30
1877.000
 70
    32
  0
VERTEX
  8
3350LEVEL
 62
5
 10
3291.570
 20
-4994.259
 30
1877.000
 70
    32
  0
VERTEX
  8
3350LEVEL
 62
5
 10
3286.369
 20
-4993.094
 30
1877.000
 70
    32
  0
VERTEX
  8
3350LEVEL
 62
5
 10
3281.341
 20
-4989.376
 30
1877.000
 70
    32
  0
VERTEX
  8
3350LEVEL
 62
5
 10
3274.072
 20
-4983.359
 30
1877.000
 70
    32
  0
VERTEX
  8
3350LEVEL
 62
5
 10
3263.243
 20
-4972.542
 30
1877.000
 70
    32
  0
VERTEX
  8
3350LEVEL
 62
5
 10
3254.467
 20
-4959.374
 30
1877.000
 70
    32
  0
VERTEX
  8
3350LEVEL
 62
5
 10
3250.816
 20
-4953.402
 30
1877.000
 70
    32
  0
VERTEX
  8
3350LEVEL
 62
5
 10
3246.032
 20
-4947.275
 30
1877.000
 70
    32
  0
VERTEX
  8
3350LEVEL
 62
5
 10
3236.278
 20
-4932.817
 30
1877.000
 70
    32
  0
VERTEX
  8
3350LEVEL
 62
5
 10
3233.336
 20
-4926.925
 30
1877.000
 70
    32
  0
VERTEX
  8
3350LEVEL
 62
5
 10
3224.994
 20
-4913.053
 30
1877.000
 70
    32
  0
VERTEX
  8
3350LEVEL
 62
5
 10
3218.900
 20
-4903.857
 30
1877.000
 70
    32
  0
VERTEX
  8
3350LEVEL
 62
5
 10
3212.852
 20
-4893.774
 30
1877.000
 70
    32
  0
VERTEX
  8
3350LEVEL
 62
5
 10
3206.915
 20
-4883.374
 30
1877.000
 70
    32
  0
VERTEX
  8
3350LEVEL
 62
5
 10
3202.818
 20
-4873.423
 30
1877.000
 70
    32
  0
VERTEX
  8
3350LEVEL
 62
5
 10
3200.064
 20
-4866.646
 30
1877.000
 70
    32
  0
VERTEX
  8
3350LEVEL
 62
5
 10
3197.824
 20
-4858.528
 30
1877.000
 70
    32
  0
VERTEX
  8
3350LEVEL
 62
5
 10
3196.818
 20
-4851.028
 30
1877.000
 70
    32
  0
VERTEX
  8
3350LEVEL
 62
5
 10
3197.730
 20
-4846.214
 30
1877.000
 70
    32
  0
VERTEX
  8
3350LEVEL
 62
5
 10
3199.810
 20
-4844.466
 30
1877.000
 70
    32
  0
VERTEX
  8
3350LEVEL
 62
5
 10
3203.612
 20
-4844.123
 30
1877.000
 70
    32
  0
VERTEX
  8
3350LEVEL
 62
5
 10
3206.350
 20
-4843.625
 30
1877.000
 70
    32
  0
VERTEX
  8
3350LEVEL
 62
5
 10
3208.993
 20
-4842.239
 30
1877.000
 70
    32
  0
VERTEX
  8
3350LEVEL
 62
5
 10
3209.884
 20
-4839.128
 30
1877.000
 70
    32
  0
VERTEX
  8
3350LEVEL
 62
5
 10
3206.218
 20
-4831.559
 30
1877.000
 70
    32
  0
VERTEX
  8
3350LEVEL
 62
5
 10
3201.654
 20
-4821.992
 30
1877.000
 70
    32
  0
VERTEX
  8
3350LEVEL
 62
5
 10
3196.590
 20
-4809.900
 30
1877.000
 70
    32
  0
VERTEX
  8
3350LEVEL
 62
5
 10
3192.745
 20
-4802.435
 30
1877.000
 70
    32
  0
VERTEX
  8
3350LEVEL
 62
5
 10
3188.034
 20
-4793.292
 30
1877.000
 70
    32
  0
VERTEX
  8
3350LEVEL
 62
5
 10
3181.152
 20
-4781.851
 30
1877.000
 70
    32
  0
VERTEX
  8
3350LEVEL
 62
5
 10
3176.699
 20
-4771.966
 30
1877.000
 70
    32
  0
VERTEX
  8
3350LEVEL
 62
5
 10
3172.133
 20
-4762.541
 30
1877.000
 70
    32
  0
VERTEX
  8
3350LEVEL
 62
5
 10
3168.112
 20
-4754.968
 30
1877.000
 70
    32
  0
VERTEX
  8
3350LEVEL
 62
5
 10
3160.263
 20
-4741.457
 30
1877.000
 70
    32
  0
VERTEX
  8
3350LEVEL
 62
5
 10
3155.867
 20
-4732.637
 30
1877.000
 70
    32
  0
VERTEX
  8
3350LEVEL
 62
5
 10
3150.844
 20
-4722.958
 30
1877.000
 70
    32
  0
VERTEX
  8
3350LEVEL
 62
5
 10
3148.697
 20
-4715.870
 30
1877.000
 70
    32
  0
VERTEX
  8
3350LEVEL
 62
5
 10
3150.366
 20
-4710.107
 30
1877.000
 70
    32
  0
VERTEX
  8
3350LEVEL
 62
5
 10
3153.607
 20
-4706.386
 30
1877.000
 70
    32
  0
VERTEX
  8
3350LEVEL
 62
5
 10
3157.788
 20
-4701.187
 30
1877.000
 70
    32
  0
VERTEX
  8
3350LEVEL
 62
5
 10
3159.912
 20
-4698.765
 30
1877.000
 70
    32
  0
VERTEX
  8
3350LEVEL
 62
5
 10
3160.629
 20
-4698.136
 30
1877.000
 70
    32
  0
VERTEX
  8
3350LEVEL
 62
5
 10
3161.453
 20
-4697.543
 30
1877.000
 70
    32
  0
VERTEX
  8
3350LEVEL
 62
5
 10
3162.348
 20
-4696.880
 30
1877.000
 70
    32
  0
VERTEX
  8
3350LEVEL
 62
5
 10
3162.519
 20
-4697.414
 30
1877.000
 70
    32
  0
VERTEX
  8
3350LEVEL
 62
5
 10
3162.917
 20
-4699.619
 30
1877.000
 70
    32
  0
VERTEX
  8
3350LEVEL
 62
5
 10
3163.561
 20
-4702.076
 30
1877.000
 70
    32
  0
VERTEX
  8
3350LEVEL
 62
5
 10
3164.574
 20
-4706.134
 30
1877.000
 70
    32
  0
VERTEX
  8
3350LEVEL
 62
5
 10
3166.620
 20
-4712.759
 30
1877.000
 70
    32
  0
VERTEX
  8
3350LEVEL
 62
5
 10
3169.764
 20
-4722.308
 30
1877.000
 70
    32
  0
VERTEX
  8
3350LEVEL
 62
5
 10
3176.373
 20
-4738.572
 30
1877.000
 70
    32
  0
VERTEX
  8
3350LEVEL
 62
5
 10
3181.960
 20
-4751.416
 30
1877.000
 70
    32
  0
VERTEX
  8
3350LEVEL
 62
5
 10
3187.066
 20
-4762.977
 30
1877.000
 70
    32
  0
VERTEX
  8
3350LEVEL
 62
5
 10
3191.836
 20
-4773.114
 30
1877.000
 70
    32
  0
VERTEX
  8
3350LEVEL
 62
5
 10
3197.551
 20
-4784.222
 30
1877.000
 70
    32
  0
VERTEX
  8
3350LEVEL
 62
5
 10
3204.688
 20
-4797.937
 30
1877.000
 70
    32
  0
VERTEX
  8
3350LEVEL
 62
5
 10
3211.647
 20
-4811.757
 30
1877.000
 70
    32
  0
VERTEX
  8
3350LEVEL
 62
5
 10
3215.932
 20
-4820.894
 30
1877.000
 70
    32
  0
VERTEX
  8
3350LEVEL
 62
5
 10
3219.203
 20
-4828.848
 30
1877.000
 70
    32
  0
VERTEX
  8
3350LEVEL
 62
5
 10
3221.444
 20
-4836.896
 30
1877.000
 70
    32
  0
VERTEX
  8
3350LEVEL
 62
5
 10
3220.725
 20
-4840.470
 30
1877.000
 70
    32
  0
VERTEX
  8
3350LEVEL
 62
5
 10
3217.347
 20
-4843.834
 30
1877.000
 70
    32
  0
VERTEX
  8
3350LEVEL
 62
5
 10
3215.487
 20
-4845.017
 30
1877.000
 70
    32
  0
VERTEX
  8
3350LEVEL
 62
5
 10
3213.594
 20
-4846.023
 30
1877.000
 70
    32
  0
VERTEX
  8
3350LEVEL
 62
5
 10
3211.484
 20
-4847.309
 30
1877.000
 70
    32
  0
VERTEX
  8
3350LEVEL
 62
5
 10
3211.046
 20
-4851.171
 30
1877.000
 70
    32
  0
VERTEX
  8
3350LEVEL
 62
5
 10
3213.521
 20
-4860.322
 30
1877.000
 70
    32
  0
VERTEX
  8
3350LEVEL
 62
5
 10
3218.962
 20
-4873.519
 30
1877.000
 70
    32
  0
VERTEX
  8
3350LEVEL
 62
5
 10
3221.823
 20
-4880.190
 30
1877.000
 70
    32
  0
VERTEX
  8
3350LEVEL
 62
5
 10
3227.605
 20
-4891.653
 30
1877.000
 70
    32
  0
VERTEX
  8
3350LEVEL
 62
5
 10
3231.349
 20
-4898.655
 30
1877.000
 70
    32
  0
VERTEX
  8
3350LEVEL
 62
5
 10
3232.282
 20
-4900.618
 30
1877.000
 70
    32
  0
VERTEX
  8
3350LEVEL
 62
5
 10
3233.253
 20
-4902.476
 30
1877.000
 70
    32
  0
VERTEX
  8
3350LEVEL
 62
5
 10
3233.778
 20
-4903.015
 30
1877.000
 70
    32
  0
VERTEX
  8
3350LEVEL
 62
5
 10
3235.831
 20
-4900.592
 30
1877.000
 70
    32
  0
VERTEX
  8
3350LEVEL
 62
5
 10
3238.793
 20
-4893.568
 30
1877.000
 70
    32
  0
VERTEX
  8
3350LEVEL
 62
5
 10
3240.093
 20
-4883.330
 30
1877.000
 70
    32
  0
VERTEX
  8
3350LEVEL
 62
5
 10
3238.905
 20
-4873.415
 30
1877.000
 70
    32
  0
VERTEX
  8
3350LEVEL
 62
5
 10
3235.318
 20
-4856.728
 30
1877.000
 70
    32
  0
VERTEX
  8
3350LEVEL
 62
5
 10
3232.014
 20
-4842.919
 30
1877.000
 70
    32
  0
VERTEX
  8
3350LEVEL
 62
5
 10
3225.587
 20
-4826.267
 30
1877.000
 70
    32
  0
VERTEX
  8
3350LEVEL
 62
5
 10
3217.627
 20
-4807.467
 30
1877.000
 70
    32
  0
VERTEX
  8
3350LEVEL
 62
5
 10
3210.314
 20
-4790.769
 30
1877.000
 70
    32
  0
VERTEX
  8
3350LEVEL
 62
5
 10
3204.350
 20
-4779.694
 30
1877.000
 70
    32
  0
VERTEX
  8
3350LEVEL
 62
5
 10
3199.821
 20
-4770.163
 30
1877.000
 70
    32
  0
VERTEX
  8
3350LEVEL
 62
5
 10
3196.094
 20
-4761.813
 30
1877.000
 70
    32
  0
VERTEX
  8
3350LEVEL
 62
5
 10
3190.305
 20
-4748.115
 30
1877.000
 70
    32
  0
VERTEX
  8
3350LEVEL
 62
5
 10
3185.209
 20
-4735.702
 30
1877.000
 70
    32
  0
VERTEX
  8
3350LEVEL
 62
5
 10
3182.098
 20
-4726.331
 30
1877.000
 70
    32
  0
VERTEX
  8
3350LEVEL
 62
5
 10
3177.796
 20
-4715.667
 30
1877.000
 70
    32
  0
VERTEX
  8
3350LEVEL
 62
5
 10
3174.582
 20
-4708.850
 30
1877.000
 70
    32
  0
VERTEX
  8
3350LEVEL
 62
5
 10
3171.343
 20
-4704.019
 30
1877.000
 70
    32
  0
VERTEX
  8
3350LEVEL
 62
5
 10
3169.906
 20
-4702.546
 30
1877.000
 70
    32
  0
VERTEX
  8
3350LEVEL
 62
5
 10
3165.635
 20
-4697.950
 30
1877.000
 70
    32
  0
VERTEX
  8
3350LEVEL
 62
5
 10
3163.225
 20
-4694.904
 30
1877.000
 70
    32
  0
VERTEX
  8
3350LEVEL
 62
5
 10
3161.523
 20
-4691.937
 30
1877.000
 70
    32
  0
VERTEX
  8
3350LEVEL
 62
5
 10
3159.726
 20
-4685.350
 30
1877.000
 70
    32
  0
VERTEX
  8
3350LEVEL
 62
5
 10
3159.932
 20
-4680.243
 30
1877.000
 70
    32
  0
VERTEX
  8
3350LEVEL
 62
5
 10
3160.571
 20
-4674.503
 30
1877.000
 70
    32
  0
VERTEX
  8
3350LEVEL
 62
5
 10
3160.681
 20
-4671.453
 30
1877.000
 70
    32
  0
VERTEX
  8
3350LEVEL
 62
5
 10
3160.134
 20
-4666.939
 30
1877.000
 70
    32
  0
VERTEX
  8
3350LEVEL
 62
5
 10
3158.030
 20
-4662.123
 30
1877.000
 70
    32
  0
VERTEX
  8
3350LEVEL
 62
5
 10
3156.105
 20
-4660.005
 30
1877.000
 70
    32
  0
VERTEX
  8
3350LEVEL
 62
5
 10
3154.763
 20
-4659.491
 30
1877.000
 70
    32
  0
VERTEX
  8
3350LEVEL
 62
5
 10
3153.534
 20
-4658.518
 30
1877.000
 70
    32
  0
VERTEX
  8
3350LEVEL
 62
5
 10
3153.083
 20
-4657.696
 30
1877.000
 70
    32
  0
VERTEX
  8
3350LEVEL
 62
5
 10
3152.704
 20
-4656.733
 30
1877.000
 70
    32
  0
VERTEX
  8
3350LEVEL
 62
5
 10
3152.465
 20
-4655.985
 30
1877.000
 70
    32
  0
VERTEX
  8
3350LEVEL
 62
5
 10
3152.770
 20
-4654.357
 30
1877.000
 70
    32
  0
VERTEX
  8
3350LEVEL
 62
5
 10
3152.609
 20
-4653.042
 30
1877.000
 70
    32
  0
VERTEX
  8
3350LEVEL
 62
5
 10
3151.279
 20
-4651.535
 30
1877.000
 70
    32
  0
VERTEX
  8
3350LEVEL
 62
5
 10
3149.213
 20
-4649.415
 30
1877.000
 70
    32
  0
VERTEX
  8
3350LEVEL
 62
5
 10
3147.860
 20
-4646.950
 30
1877.000
 70
    32
  0
VERTEX
  8
3350LEVEL
 62
5
 10
3146.715
 20
-4644.842
 30
1877.000
 70
    32
  0
VERTEX
  8
3350LEVEL
 62
5
 10
3145.395
 20
-4642.554
 30
1877.000
 70
    32
  0
SEQEND
  8
3350LEVEL
  0
POLYLINE
  8
3350LEVEL
 62
5
 66
     1
 70
     9
  0
VERTEX
  8
3350LEVEL
 62
5
 10
3071.234
 20
-4718.871
 30
1877.000
 70
    32
  0
VERTEX
  8
3350LEVEL
 62
5
 10
3042.409
 20
-4719.857
 30
1877.000
 70
    32
  0
VERTEX
  8
3350LEVEL
 62
5
 10
3040.910
 20
-4714.871
 30
1877.000
 70
    32
  0
VERTEX
  8
3350LEVEL
 62
5
 10
3039.872
 20
-4709.925
 30
1877.000
 70
    32
  0
VERTEX
  8
3350LEVEL
 62
5
 10
3039.491
 20
-4706.372
 30
1877.000
 70
    32
  0
VERTEX
  8
3350LEVEL
 62
5
 10
3038.761
 20
-4702.389
 30
1877.000
 70
    32
  0
VERTEX
  8
3350LEVEL
 62
5
 10
3038.580
 20
-4699.832
 30
1877.000
 70
    32
  0
VERTEX
  8
3350LEVEL
 62
5
 10
3038.526
 20
-4698.483
 30
1877.000
 70
    32
  0
VERTEX
  8
3350LEVEL
 62
5
 10
3039.302
 20
-4698.847
 30
1877.000
 70
    32
  0
VERTEX
  8
3350LEVEL
 62
5
 10
3040.195
 20
-4701.200
 30
1877.000
 70
    32
  0
VERTEX
  8
3350LEVEL
 62
5
 10
3040.660
 20
-4703.690
 30
1877.000
 70
    32
  0
VERTEX
  8
3350LEVEL
 62
5
 10
3040.732
 20
-4706.494
 30
1877.000
 70
    32
  0
VERTEX
  8
3350LEVEL
 62
5
 10
3040.847
 20
-4708.625
 30
1877.000
 70
    32
  0
VERTEX
  8
3350LEVEL
 62
5
 10
3041.148
 20
-4710.083
 30
1877.000
 70
    32
  0
VERTEX
  8
3350LEVEL
 62
5
 10
3041.825
 20
-4709.843
 30
1877.000
 70
    32
  0
VERTEX
  8
3350LEVEL
 62
5
 10
3042.294
 20
-4706.443
 30
1877.000
 70
    32
  0
VERTEX
  8
3350LEVEL
 62
5
 10
3042.101
 20
-4702.005
 30
1877.000
 70
    32
  0
VERTEX
  8
3350LEVEL
 62
5
 10
3041.996
 20
-4699.094
 30
1877.000
 70
    32
  0
VERTEX
  8
3350LEVEL
 62
5
 10
3068.032
 20
-4696.973
 30
1877.000
 70
    32
  0
VERTEX
  8
3350LEVEL
 62
5
 10
3069.336
 20
-4700.466
 30
1877.000
 70
    32
  0
VERTEX
  8
3350LEVEL
 62
5
 10
3069.950
 20
-4702.461
 30
1877.000
 70
    32
  0
VERTEX
  8
3350LEVEL
 62
5
 10
3070.035
 20
-4704.130
 30
1877.000
 70
    32
  0
VERTEX
  8
3350LEVEL
 62
5
 10
3069.338
 20
-4706.002
 30
1877.000
 70
    32
  0
VERTEX
  8
3350LEVEL
 62
5
 10
3068.553
 20
-4706.347
 30
1877.000
 70
    32
  0
VERTEX
  8
3350LEVEL
 62
5
 10
3067.333
 20
-4707.396
 30
1877.000
 70
    32
  0
VERTEX
  8
3350LEVEL
 62
5
 10
3067.580
 20
-4710.380
 30
1877.000
 70
    32
  0
VERTEX
  8
3350LEVEL
 62
5
 10
3068.567
 20
-4713.692
 30
1877.000
 70
    32
  0
VERTEX
  8
3350LEVEL
 62
5
 10
3069.712
 20
-4715.729
 30
1877.000
 70
    32
  0
SEQEND
  8
3350LEVEL
  0
POLYLINE
  8
3350LEVEL
 62
5
 66
     1
 70
     9
  0
VERTEX
  8
3350LEVEL
 62
5
 10
2999.950
 20
-4718.650
 30
1877.000
 70
    32
  0
VERTEX
  8
3350LEVEL
 62
5
 10
3000.824
 20
-4719.690
 30
1877.000
 70
    32
  0
VERTEX
  8
3350LEVEL
 62
5
 10
3001.482
 20
-4721.011
 30
1877.000
 70
    32
  0
VERTEX
  8
3350LEVEL
 62
5
 10
3001.080
 20
-4721.893
 30
1877.000
 70
    32
  0
VERTEX
  8
3350LEVEL
 62
5
 10
3000.053
 20
-4721.773
 30
1877.000
 70
    32
  0
VERTEX
  8
3350LEVEL
 62
5
 10
2997.799
 20
-4720.397
 30
1877.000
 70
    32
  0
VERTEX
  8
3350LEVEL
 62
5
 10
2996.266
 20
-4718.177
 30
1877.000
 70
    32
  0
VERTEX
  8
3350LEVEL
 62
5
 10
2994.703
 20
-4715.497
 30
1877.000
 70
    32
  0
VERTEX
  8
3350LEVEL
 62
5
 10
2993.626
 20
-4713.673
 30
1877.000
 70
    32
  0
VERTEX
  8
3350LEVEL
 62
5
 10
2993.146
 20
-4712.319
 30
1877.000
 70
    32
  0
VERTEX
  8
3350LEVEL
 62
5
 10
2993.156
 20
-4711.538
 30
1877.000
 70
    32
  0
VERTEX
  8
3350LEVEL
 62
5
 10
2993.408
 20
-4711.222
 30
1877.000
 70
    32
  0
VERTEX
  8
3350LEVEL
 62
5
 10
2994.186
 20
-4711.445
 30
1877.000
 70
    32
  0
VERTEX
  8
3350LEVEL
 62
5
 10
2996.009
 20
-4713.242
 30
1877.000
 70
    32
  0
VERTEX
  8
3350LEVEL
 62
5
 10
2997.544
 20
-4715.319
 30
1877.000
 70
    32
  0
VERTEX
  8
3350LEVEL
 62
5
 10
2998.517
 20
-4716.964
 30
1877.000
 70
    32
  0
VERTEX
  8
3350LEVEL
 62
5
 10
2998.689
 20
-4717.356
 30
1877.000
 70
    32
  0
SEQEND
  8
3350LEVEL
  0
POLYLINE
  8
3350LEVEL
 62
5
 66
     1
 70
     9
  0
VERTEX
  8
3350LEVEL
 62
5
 10
3035.335
 20
-4701.104
 30
1877.000
 70
    32
  0
VERTEX
  8
3350LEVEL
 62
5
 10
3037.468
 20
-4706.453
 30
1877.000
 70
    32
  0
VERTEX
  8
3350LEVEL
 62
5
 10
3038.396
 20
-4708.842
 30
1877.000
 70
    32
  0
VERTEX
  8
3350LEVEL
 62
5
 10
3039.279
 20
-4711.976
 30
1877.000
 70
    32
  0
VERTEX
  8
3350LEVEL
 62
5
 10
3040.067
 20
-4714.221
 30
1877.000
 70
    32
  0
VERTEX
  8
3350LEVEL
 62
5
 10
3040.571
 20
-4716.463
 30
1877.000
 70
    32
  0
VERTEX
  8
3350LEVEL
 62
5
 10
3041.072
 20
-4718.989
 30
1877.000
 70
    32
  0
VERTEX
  8
3350LEVEL
 62
5
 10
3006.551
 20
-4721.394
 30
1877.000
 70
    32
  0
VERTEX
  8
3350LEVEL
 62
5
 10
3005.344
 20
-4715.843
 30
1877.000
 70
    32
  0
VERTEX
  8
3350LEVEL
 62
5
 10
3003.911
 20
-4711.283
 30
1877.000
 70
    32
  0
VERTEX
  8
3350LEVEL
 62
5
 10
3002.747
 20
-4707.862
 30
1877.000
 70
    32
  0
VERTEX
  8
3350LEVEL
 62
5
 10
3002.346
 20
-4705.870
 30
1877.000
 70
    32
  0
VERTEX
  8
3350LEVEL
 62
5
 10
3002.021
 20
-4703.524
 30
1877.000
 70
    32
  0
SEQEND
  8
3350LEVEL
  0
POLYLINE
  8
3350LEVEL
 62
5
 66
     1
 70
     9
  0
VERTEX
  8
3350LEVEL
 62
5
 10
2948.105
 20
-4704.798
 30
1877.000
 70
    32
  0
VERTEX
  8
3350LEVEL
 62
5
 10
2951.848
 20
-4711.942
 30
1877.000
 70
    32
  0
VERTEX
  8
3350LEVEL
 62
5
 10
2955.510
 20
-4716.991
 30
1877.000
 70
    32
  0
VERTEX
  8
3350LEVEL
 62
5
 10
2959.137
 20
-4722.005
 30
1877.000
 70
    32
  0
VERTEX
  8
3350LEVEL
 62
5
 10
2961.726
 20
-4724.947
 30
1877.000
 70
    32
  0
VERTEX
  8
3350LEVEL
 62
5
 10
2962.704
 20
-4726.166
 30
1877.000
 70
    32
  0
VERTEX
  8
3350LEVEL
 62
5
 10
2955.377
 20
-4727.564
 30
1877.000
 70
    32
  0
VERTEX
  8
3350LEVEL
 62
5
 10
2952.721
 20
-4724.337
 30
1877.000
 70
    32
  0
VERTEX
  8
3350LEVEL
 62
5
 10
2950.751
 20
-4720.161
 30
1877.000
 70
    32
  0
VERTEX
  8
3350LEVEL
 62
5
 10
2948.956
 20
-4716.164
 30
1877.000
 70
    32
  0
VERTEX
  8
3350LEVEL
 62
5
 10
2947.644
 20
-4713.238
 30
1877.000
 70
    32
  0
VERTEX
  8
3350LEVEL
 62
5
 10
2946.708
 20
-4711.487
 30
1877.000
 70
    32
  0
VERTEX
  8
3350LEVEL
 62
5
 10
2946.185
 20
-4710.736
 30
1877.000
 70
    32
  0
VERTEX
  8
3350LEVEL
 62
5
 10
2946.943
 20
-4712.590
 30
1877.000
 70
    32
  0
VERTEX
  8
3350LEVEL
 62
5
 10
2948.068
 20
-4716.259
 30
1877.000
 70
    32
  0
VERTEX
  8
3350LEVEL
 62
5
 10
2948.953
 20
-4719.251
 30
1877.000
 70
    32
  0
VERTEX
  8
3350LEVEL
 62
5
 10
2950.422
 20
-4723.776
 30
1877.000
 70
    32
  0
VERTEX
  8
3350LEVEL
 62
5
 10
2951.200
 20
-4726.802
 30
1877.000
 70
    32
  0
VERTEX
  8
3350LEVEL
 62
5
 10
2951.645
 20
-4728.120
 30
1877.000
 70
    32
  0
VERTEX
  8
3350LEVEL
 62
5
 10
2925.164
 20
-4728.923
 30
1877.000
 70
    32
  0
VERTEX
  8
3350LEVEL
 62
5
 10
2923.899
 20
-4725.110
 30
1877.000
 70
    32
  0
VERTEX
  8
3350LEVEL
 62
5
 10
2922.423
 20
-4721.153
 30
1877.000
 70
    32
  0
VERTEX
  8
3350LEVEL
 62
5
 10
2922.207
 20
-4718.560
 30
1877.000
 70
    32
  0
VERTEX
  8
3350LEVEL
 62
5
 10
2922.974
 20
-4716.831
 30
1877.000
 70
    32
  0
VERTEX
  8
3350LEVEL
 62
5
 10
2923.065
 20
-4715.200
 30
1877.000
 70
    32
  0
VERTEX
  8
3350LEVEL
 62
5
 10
2921.393
 20
-4712.695
 30
1877.000
 70
    32
  0
VERTEX
  8
3350LEVEL
 62
5
 10
2920.145
 20
-4710.408
 30
1877.000
 70
    32
  0
VERTEX
  8
3350LEVEL
 62
5
 10
2919.635
 20
-4708.592
 30
1877.000
 70
    32
  0
VERTEX
  8
3350LEVEL
 62
5
 10
2918.813
 20
-4706.240
 30
1877.000
 70
    32
  0
VERTEX
  8
3350LEVEL
 62
5
 10
2916.918
 20
-4701.710
 30
1877.000
 70
    32
  0
SEQEND
  8
3350LEVEL
  0
POLYLINE
  8
3350LEVEL
 62
5
 66
     1
 70
     9
  0
VERTEX
  8
3350LEVEL
 62
5
 10
2877.062
 20
-4733.428
 30
1877.000
 70
    32
  0
VERTEX
  8
3350LEVEL
 62
5
 10
2858.999
 20
-4733.592
 30
1877.000
 70
    32
  0
VERTEX
  8
3350LEVEL
 62
5
 10
2859.136
 20
-4731.145
 30
1877.000
 70
    32
  0
VERTEX
  8
3350LEVEL
 62
5
 10
2858.005
 20
-4727.973
 30
1877.000
 70
    32
  0
VERTEX
  8
3350LEVEL
 62
5
 10
2856.858
 20
-4726.078
 30
1877.000
 70
    32
  0
VERTEX
  8
3350LEVEL
 62
5
 10
2857.116
 20
-4725.336
 30
1877.000
 70
    32
  0
VERTEX
  8
3350LEVEL
 62
5
 10
2858.463
 20
-4725.424
 30
1877.000
 70
    32
  0
VERTEX
  8
3350LEVEL
 62
5
 10
2858.687
 20
-4724.504
 30
1877.000
 70
    32
  0
VERTEX
  8
3350LEVEL
 62
5
 10
2858.260
 20
-4721.767
 30
1877.000
 70
    32
  0
VERTEX
  8
3350LEVEL
 62
5
 10
2857.666
 20
-4718.211
 30
1877.000
 70
    32
  0
VERTEX
  8
3350LEVEL
 62
5
 10
2857.141
 20
-4714.869
 30
1877.000
 70
    32
  0
VERTEX
  8
3350LEVEL
 62
5
 10
2856.861
 20
-4711.707
 30
1877.000
 70
    32
  0
VERTEX
  8
3350LEVEL
 62
5
 10
2856.881
 20
-4710.075
 30
1877.000
 70
    32
  0
VERTEX
  8
3350LEVEL
 62
5
 10
2868.324
 20
-4711.532
 30
1877.000
 70
    32
  0
VERTEX
  8
3350LEVEL
 62
5
 10
2870.320
 20
-4716.524
 30
1877.000
 70
    32
  0
VERTEX
  8
3350LEVEL
 62
5
 10
2871.236
 20
-4719.836
 30
1877.000
 70
    32
  0
VERTEX
  8
3350LEVEL
 62
5
 10
2871.778
 20
-4721.901
 30
1877.000
 70
    32
  0
VERTEX
  8
3350LEVEL
 62
5
 10
2872.360
 20
-4723.576
 30
1877.000
 70
    32
  0
VERTEX
  8
3350LEVEL
 62
5
 10
2873.260
 20
-4725.361
 30
1877.000
 70
    32
  0
VERTEX
  8
3350LEVEL
 62
5
 10
2874.301
 20
-4727.291
 30
1877.000
 70
    32
  0
VERTEX
  8
3350LEVEL
 62
5
 10
2874.926
 20
-4728.363
 30
1877.000
 70
    32
  0
SEQEND
  8
3350LEVEL
  0
POLYLINE
  8
3350LEVEL
 62
13
 66
     1
 70
     8
  0
VERTEX
  8
3350LEVEL
 62
13
 10
3487.197
 20
-4784.773
 30
1877.000
 70
    32
  0
VERTEX
  8
3350LEVEL
 62
13
 10
3488.718
 20
-4785.182
 30
1877.000
 70
    32
  0
VERTEX
  8
3350LEVEL
 62
13
 10
3492.498
 20
-4786.472
 30
1877.000
 70
    32
  0
VERTEX
  8
3350LEVEL
 62
13
 10
3497.268
 20
-4788.128
 30
1877.000
 70
    32
  0
VERTEX
  8
3350LEVEL
 62
13
 10
3502.503
 20
-4789.472
 30
1877.000
 70
    32
  0
VERTEX
  8
3350LEVEL
 62
13
 10
3505.802
 20
-4789.548
 30
1877.000
 70
    32
  0
VERTEX
  8
3350LEVEL
 62
13
 10
3511.537
 20
-4787.740
 30
1877.000
 70
    32
  0
VERTEX
  8
3350LEVEL
 62
13
 10
3516.211
 20
-4782.902
 30
1877.000
 70
    32
  0
VERTEX
  8
3350LEVEL
 62
13
 10
3518.625
 20
-4777.113
 30
1877.000
 70
    32
  0
VERTEX
  8
3350LEVEL
 62
13
 10
3518.778
 20
-4770.657
 30
1877.000
 70
    32
  0
VERTEX
  8
3350LEVEL
 62
13
 10
3517.499
 20
-4762.231
 30
1877.000
 70
    32
  0
VERTEX
  8
3350LEVEL
 62
13
 10
3517.015
 20
-4752.751
 30
1877.000
 70
    32
  0
VERTEX
  8
3350LEVEL
 62
13
 10
3517.544
 20
-4744.596
 30
1877.000
 70
    32
  0
VERTEX
  8
3350LEVEL
 62
13
 10
3518.023
 20
-4740.344
 30
1877.000
 70
    32
  0
VERTEX
  8
3350LEVEL
 62
13
 10
3519.816
 20
-4736.002
 30
1877.000
 70
    32
  0
VERTEX
  8
3350LEVEL
 62
13
 10
3522.658
 20
-4732.951
 30
1877.000
 70
    32
  0
VERTEX
  8
3350LEVEL
 62
13
 10
3523.897
 20
-4733.144
 30
1877.000
 70
    32
  0
VERTEX
  8
3350LEVEL
 62
13
 10
3527.868
 20
-4736.210
 30
1877.000
 70
    32
  0
VERTEX
  8
3350LEVEL
 62
13
 10
3531.966
 20
-4737.681
 30
1877.000
 70
    32
  0
VERTEX
  8
3350LEVEL
 62
13
 10
3534.545
 20
-4738.600
 30
1877.000
 70
    32
  0
VERTEX
  8
3350LEVEL
 62
13
 10
3539.050
 20
-4738.692
 30
1877.000
 70
    32
  0
VERTEX
  8
3350LEVEL
 62
13
 10
3543.319
 20
-4734.949
 30
1877.000
 70
    32
  0
VERTEX
  8
3350LEVEL
 62
13
 10
3546.864
 20
-4732.403
 30
1877.000
 70
    32
  0
VERTEX
  8
3350LEVEL
 62
13
 10
3551.273
 20
-4731.678
 30
1877.000
 70
    32
  0
VERTEX
  8
3350LEVEL
 62
13
 10
3555.935
 20
-4733.440
 30
1877.000
 70
    32
  0
VERTEX
  8
3350LEVEL
 62
13
 10
3561.284
 20
-4736.984
 30
1877.000
 70
    32
  0
VERTEX
  8
3350LEVEL
 62
13
 10
3569.554
 20
-4745.250
 30
1877.000
 70
    32
  0
VERTEX
  8
3350LEVEL
 62
13
 10
3576.503
 20
-4754.243
 30
1877.000
 70
    32
  0
VERTEX
  8
3350LEVEL
 62
13
 10
3583.218
 20
-4764.866
 30
1877.000
 70
    32
  0
VERTEX
  8
3350LEVEL
 62
13
 10
3590.345
 20
-4776.559
 30
1877.000
 70
    32
  0
VERTEX
  8
3350LEVEL
 62
13
 10
3597.477
 20
-4787.897
 30
1877.000
 70
    32
  0
VERTEX
  8
3350LEVEL
 62
13
 10
3603.332
 20
-4799.148
 30
1877.000
 70
    32
  0
VERTEX
  8
3350LEVEL
 62
13
 10
3609.508
 20
-4810.296
 30
1877.000
 70
    32
  0
VERTEX
  8
3350LEVEL
 62
13
 10
3615.028
 20
-4819.982
 30
1877.000
 70
    32
  0
VERTEX
  8
3350LEVEL
 62
13
 10
3621.133
 20
-4831.129
 30
1877.000
 70
    32
  0
VERTEX
  8
3350LEVEL
 62
13
 10
3625.290
 20
-4839.201
 30
1877.000
 70
    32
  0
VERTEX
  8
3350LEVEL
 62
13
 10
3627.410
 20
-4842.740
 30
1877.000
 70
    32
  0
VERTEX
  8
3350LEVEL
 62
13
 10
3628.396
 20
-4843.320
 30
1877.000
 70
    32
  0
VERTEX
  8
3350LEVEL
 62
13
 10
3629.566
 20
-4843.441
 30
1877.000
 70
    32
  0
VERTEX
  8
3350LEVEL
 62
13
 10
3631.457
 20
-4842.578
 30
1877.000
 70
    32
  0
VERTEX
  8
3350LEVEL
 62
13
 10
3633.654
 20
-4842.819
 30
1877.000
 70
    32
  0
VERTEX
  8
3350LEVEL
 62
13
 10
3634.627
 20
-4841.660
 30
1877.000
 70
    32
  0
VERTEX
  8
3350LEVEL
 62
13
 10
3635.984
 20
-4840.967
 30
1877.000
 70
    32
  0
VERTEX
  8
3350LEVEL
 62
13
 10
3637.533
 20
-4839.106
 30
1877.000
 70
    32
  0
VERTEX
  8
3350LEVEL
 62
13
 10
3638.454
 20
-4836.385
 30
1877.000
 70
    32
  0
VERTEX
  8
3350LEVEL
 62
13
 10
3640.279
 20
-4835.166
 30
1877.000
 70
    32
  0
VERTEX
  8
3350LEVEL
 62
13
 10
3642.688
 20
-4835.481
 30
1877.000
 70
    32
  0
VERTEX
  8
3350LEVEL
 62
13
 10
3644.207
 20
-4836.032
 30
1877.000
 70
    32
  0
VERTEX
  8
3350LEVEL
 62
13
 10
3646.012
 20
-4842.051
 30
1877.000
 70
    32
  0
VERTEX
  8
3350LEVEL
 62
13
 10
3648.708
 20
-4842.156
 30
1877.000
 70
    32
  0
VERTEX
  8
3350LEVEL
 62
13
 10
3650.486
 20
-4841.824
 30
1877.000
 70
    32
  0
VERTEX
  8
3350LEVEL
 62
13
 10
3651.585
 20
-4841.873
 30
1877.000
 70
    32
  0
VERTEX
  8
3350LEVEL
 62
13
 10
3651.146
 20
-4845.735
 30
1877.000
 70
    32
  0
VERTEX
  8
3350LEVEL
 62
13
 10
3653.289
 20
-4844.627
 30
1877.000
 70
    32
  0
VERTEX
  8
3350LEVEL
 62
13
 10
3655.359
 20
-4843.730
 30
1877.000
 70
    32
  0
VERTEX
  8
3350LEVEL
 62
13
 10
3658.859
 20
-4844.732
 30
1877.000
 70
    32
  0
VERTEX
  8
3350LEVEL
 62
13
 10
3662.781
 20
-4846.094
 30
1877.000
 70
    32
  0
VERTEX
  8
3350LEVEL
 62
13
 10
3665.163
 20
-4845.663
 30
1877.000
 70
    32
  0
VERTEX
  8
3350LEVEL
 62
13
 10
3665.156
 20
-4843.427
 30
1877.000
 70
    32
  0
VERTEX
  8
3350LEVEL
 62
13
 10
3662.600
 20
-4840.734
 30
1877.000
 70
    32
  0
VERTEX
  8
3350LEVEL
 62
13
 10
3659.675
 20
-4839.100
 30
1877.000
 70
    32
  0
VERTEX
  8
3350LEVEL
 62
13
 10
3658.049
 20
-4838.583
 30
1877.000
 70
    32
  0
VERTEX
  8
3350LEVEL
 62
13
 10
3655.325
 20
-4837.946
 30
1877.000
 70
    32
  0
VERTEX
  8
3350LEVEL
 62
13
 10
3653.267
 20
-4837.920
 30
1877.000
 70
    32
  0
VERTEX
  8
3350LEVEL
 62
13
 10
3652.060
 20
-4837.976
 30
1877.000
 70
    32
  0
VERTEX
  8
3350LEVEL
 62
13
 10
3651.577
 20
-4836.905
 30
1877.000
 70
    32
  0
VERTEX
  8
3350LEVEL
 62
13
 10
3652.156
 20
-4835.990
 30
1877.000
 70
    32
  0
VERTEX
  8
3350LEVEL
 62
13
 10
3654.219
 20
-4835.590
 30
1877.000
 70
    32
  0
VERTEX
  8
3350LEVEL
 62
13
 10
3657.738
 20
-4835.102
 30
1877.000
 70
    32
  0
VERTEX
  8
3350LEVEL
 62
13
 10
3661.987
 20
-4835.865
 30
1877.000
 70
    32
  0
VERTEX
  8
3350LEVEL
 62
13
 10
3664.352
 20
-4836.853
 30
1877.000
 70
    32
  0
VERTEX
  8
3350LEVEL
 62
13
 10
3667.550
 20
-4839.270
 30
1877.000
 70
    32
  0
VERTEX
  8
3350LEVEL
 62
13
 10
3669.910
 20
-4840.684
 30
1877.000
 70
    32
  0
VERTEX
  8
3350LEVEL
 62
13
 10
3671.751
 20
-4840.991
 30
1877.000
 70
    32
  0
VERTEX
  8
3350LEVEL
 62
13
 10
3672.118
 20
-4840.002
 30
1877.000
 70
    32
  0
VERTEX
  8
3350LEVEL
 62
13
 10
3670.877
 20
-4837.147
 30
1877.000
 70
    32
  0
VERTEX
  8
3350LEVEL
 62
13
 10
3669.913
 20
-4834.793
 30
1877.000
 70
    32
  0
VERTEX
  8
3350LEVEL
 62
13
 10
3670.179
 20
-4833.413
 30
1877.000
 70
    32
  0
VERTEX
  8
3350LEVEL
 62
13
 10
3670.795
 20
-4832.392
 30
1877.000
 70
    32
  0
VERTEX
  8
3350LEVEL
 62
13
 10
3671.306
 20
-4831.192
 30
1877.000
 70
    32
  0
VERTEX
  8
3350LEVEL
 62
13
 10
3670.931
 20
-4830.016
 30
1877.000
 70
    32
  0
VERTEX
  8
3350LEVEL
 62
13
 10
3670.733
 20
-4828.807
 30
1877.000
 70
    32
  0
VERTEX
  8
3350LEVEL
 62
13
 10
3670.814
 20
-4828.027
 30
1877.000
 70
    32
  0
VERTEX
  8
3350LEVEL
 62
13
 10
3671.629
 20
-4828.073
 30
1877.000
 70
    32
  0
VERTEX
  8
3350LEVEL
 62
13
 10
3672.787
 20
-4829.117
 30
1877.000
 70
    32
  0
VERTEX
  8
3350LEVEL
 62
13
 10
3673.338
 20
-4830.472
 30
1877.000
 70
    32
  0
VERTEX
  8
3350LEVEL
 62
13
 10
3673.218
 20
-4831.570
 30
1877.000
 70
    32
  0
VERTEX
  8
3350LEVEL
 62
13
 10
3672.876
 20
-4833.376
 30
1877.000
 70
    32
  0
VERTEX
  8
3350LEVEL
 62
13
 10
3673.967
 20
-4836.938
 30
1877.000
 70
    32
  0
VERTEX
  8
3350LEVEL
 62
13
 10
3677.821
 20
-4843.622
 30
1877.000
 70
    32
  0
VERTEX
  8
3350LEVEL
 62
13
 10
3686.025
 20
-4857.209
 30
1877.000
 70
    32
  0
VERTEX
  8
3350LEVEL
 62
13
 10
3696.198
 20
-4872.169
 30
1877.000
 70
    32
  0
VERTEX
  8
3350LEVEL
 62
13
 10
3706.035
 20
-4888.508
 30
1877.000
 70
    32
  0
VERTEX
  8
3350LEVEL
 62
13
 10
3712.702
 20
-4900.089
 30
1877.000
 70
    32
  0
VERTEX
  8
3350LEVEL
 62
13
 10
3719.287
 20
-4909.787
 30
1877.000
 70
    32
  0
VERTEX
  8
3350LEVEL
 62
13
 10
3727.391
 20
-4922.770
 30
1877.000
 70
    32
  0
VERTEX
  8
3350LEVEL
 62
13
 10
3734.187
 20
-4932.613
 30
1877.000
 70
    32
  0
VERTEX
  8
3350LEVEL
 62
13
 10
3743.538
 20
-4948.095
 30
1877.000
 70
    32
  0
VERTEX
  8
3350LEVEL
 62
13
 10
3749.789
 20
-4958.890
 30
1877.000
 70
    32
  0
VERTEX
  8
3350LEVEL
 62
13
 10
3756.852
 20
-4972.888
 30
1877.000
 70
    32
  0
VERTEX
  8
3350LEVEL
 62
13
 10
3761.697
 20
-4982.671
 30
1877.000
 70
    32
  0
VERTEX
  8
3350LEVEL
 62
13
 10
3768.135
 20
-4995.526
 30
1877.000
 70
    32
  0
VERTEX
  8
3350LEVEL
 62
13
 10
3772.655
 20
-5002.893
 30
1877.000
 70
    32
  0
VERTEX
  8
3350LEVEL
 62
13
 10
3776.185
 20
-5007.230
 30
1877.000
 70
    32
  0
VERTEX
  8
3350LEVEL
 62
13
 10
3777.793
 20
-5009.167
 30
1877.000
 70
    32
  0
VERTEX
  8
3350LEVEL
 62
13
 10
3778.854
 20
-5009.464
 30
1877.000
 70
    32
  0
VERTEX
  8
3350LEVEL
 62
13
 10
3778.365
 20
-5005.945
 30
1877.000
 70
    32
  0
VERTEX
  8
3350LEVEL
 62
13
 10
3773.389
 20
-4995.308
 30
1877.000
 70
    32
  0
VERTEX
  8
3350LEVEL
 62
13
 10
3769.847
 20
-4986.357
 30
1877.000
 70
    32
  0
VERTEX
  8
3350LEVEL
 62
13
 10
3764.412
 20
-4972.734
 30
1877.000
 70
    32
  0
VERTEX
  8
3350LEVEL
 62
13
 10
3759.016
 20
-4958.793
 30
1877.000
 70
    32
  0
VERTEX
  8
3350LEVEL
 62
13
 10
3753.891
 20
-4945.848
 30
1877.000
 70
    32
  0
VERTEX
  8
3350LEVEL
 62
13
 10
3747.752
 20
-4934.593
 30
1877.000
 70
    32
  0
VERTEX
  8
3350LEVEL
 62
13
 10
3738.767
 20
-4921.067
 30
1877.000
 70
    32
  0
VERTEX
  8
3350LEVEL
 62
13
 10
3734.583
 20
-4915.196
 30
1877.000
 70
    32
  0
VERTEX
  8
3350LEVEL
 62
13
 10
3729.919
 20
-4907.969
 30
1877.000
 70
    32
  0
VERTEX
  8
3350LEVEL
 62
13
 10
3725.542
 20
-4900.534
 30
1877.000
 70
    32
  0
VERTEX
  8
3350LEVEL
 62
13
 10
3723.826
 20
-4895.828
 30
1877.000
 70
    32
  0
VERTEX
  8
3350LEVEL
 62
13
 10
3723.970
 20
-4892.885
 30
1877.000
 70
    32
  0
VERTEX
  8
3350LEVEL
 62
13
 10
3725.436
 20
-4891.945
 30
1877.000
 70
    32
  0
VERTEX
  8
3350LEVEL
 62
13
 10
3731.244
 20
-4892.870
 30
1877.000
 70
    32
  0
VERTEX
  8
3350LEVEL
 62
13
 10
3737.063
 20
-4895.746
 30
1877.000
 70
    32
  0
VERTEX
  8
3350LEVEL
 62
13
 10
3740.263
 20
-4898.022
 30
1877.000
 70
    32
  0
VERTEX
  8
3350LEVEL
 62
13
 10
3745.817
 20
-4902.208
 30
1877.000
 70
    32
  0
VERTEX
  8
3350LEVEL
 62
13
 10
3748.406
 20
-4905.150
 30
1877.000
 70
    32
  0
VERTEX
  8
3350LEVEL
 62
13
 10
3750.683
 20
-4907.485
 30
1877.000
 70
    32
  0
VERTEX
  8
3350LEVEL
 62
13
 10
3751.954
 20
-4907.998
 30
1877.000
 70
    32
  0
VERTEX
  8
3350LEVEL
 62
13
 10
3752.651
 20
-4906.197
 30
1877.000
 70
    32
  0
VERTEX
  8
3350LEVEL
 62
13
 10
3750.458
 20
-4902.798
 30
1877.000
 70
    32
  0
VERTEX
  8
3350LEVEL
 62
13
 10
3744.439
 20
-4896.123
 30
1877.000
 70
    32
  0
VERTEX
  8
3350LEVEL
 62
13
 10
3737.702
 20
-4890.077
 30
1877.000
 70
    32
  0
VERTEX
  8
3350LEVEL
 62
13
 10
3731.399
 20
-4886.201
 30
1877.000
 70
    32
  0
VERTEX
  8
3350LEVEL
 62
13
 10
3725.469
 20
-4883.714
 30
1877.000
 70
    32
  0
VERTEX
  8
3350LEVEL
 62
13
 10
3718.317
 20
-4879.614
 30
1877.000
 70
    32
  0
VERTEX
  8
3350LEVEL
 62
13
 10
3707.294
 20
-4870.179
 30
1877.000
 70
    32
  0
VERTEX
  8
3350LEVEL
 62
13
 10
3700.743
 20
-4860.658
 30
1877.000
 70
    32
  0
VERTEX
  8
3350LEVEL
 62
13
 10
3695.766
 20
-4852.896
 30
1877.000
 70
    32
  0
VERTEX
  8
3350LEVEL
 62
13
 10
3691.556
 20
-4846.278
 30
1877.000
 70
    32
  0
VERTEX
  8
3350LEVEL
 62
13
 10
3688.735
 20
-4839.146
 30
1877.000
 70
    32
  0
VERTEX
  8
3350LEVEL
 62
13
 10
3688.501
 20
-4835.240
 30
1877.000
 70
    32
  0
VERTEX
  8
3350LEVEL
 62
13
 10
3688.495
 20
-4832.862
 30
1877.000
 70
    32
  0
VERTEX
  8
3350LEVEL
 62
13
 10
3688.516
 20
-4831.230
 30
1877.000
 70
    32
  0
VERTEX
  8
3350LEVEL
 62
13
 10
3688.983
 20
-4830.704
 30
1877.000
 70
    32
  0
VERTEX
  8
3350LEVEL
 62
13
 10
3689.316
 20
-4829.679
 30
1877.000
 70
    32
  0
SEQEND
  8
3350LEVEL
  0
POLYLINE
  8
3350LEVEL
 62
13
 66
     1
 70
     9
  0
VERTEX
  8
3350LEVEL
 62
13
 10
3197.123
 20
-4821.155
 30
1877.000
 70
    32
  0
VERTEX
  8
3350LEVEL
 62
13
 10
3198.489
 20
-4825.359
 30
1877.000
 70
    32
  0
VERTEX
  8
3350LEVEL
 62
13
 10
3200.315
 20
-4829.746
 30
1877.000
 70
    32
  0
VERTEX
  8
3350LEVEL
 62
13
 10
3201.558
 20
-4835.262
 30
1877.000
 70
    32
  0
VERTEX
  8
3350LEVEL
 62
13
 10
3201.073
 20
-4837.207
 30
1877.000
 70
    32
  0
VERTEX
  8
3350LEVEL
 62
13
 10
3197.898
 20
-4838.551
 30
1877.000
 70
    32
  0
VERTEX
  8
3350LEVEL
 62
13
 10
3195.298
 20
-4839.264
 30
1877.000
 70
    32
  0
VERTEX
  8
3350LEVEL
 62
13
 10
3193.540
 20
-4840.839
 30
1877.000
 70
    32
  0
VERTEX
  8
3350LEVEL
 62
13
 10
3193.890
 20
-4844.072
 30
1877.000
 70
    32
  0
VERTEX
  8
3350LEVEL
 62
13
 10
3194.517
 20
-4847.806
 30
1877.000
 70
    32
  0
VERTEX
  8
3350LEVEL
 62
13
 10
3193.186
 20
-4849.244
 30
1877.000
 70
    32
  0
VERTEX
  8
3350LEVEL
 62
13
 10
3190.755
 20
-4850.704
 30
1877.000
 70
    32
  0
VERTEX
  8
3350LEVEL
 62
13
 10
3188.802
 20
-4853.589
 30
1877.000
 70
    32
  0
VERTEX
  8
3350LEVEL
 62
13
 10
3191.270
 20
-4863.378
 30
1877.000
 70
    32
  0
VERTEX
  8
3350LEVEL
 62
13
 10
3195.373
 20
-4872.903
 30
1877.000
 70
    32
  0
VERTEX
  8
3350LEVEL
 62
13
 10
3201.487
 20
-4886.145
 30
1877.000
 70
    32
  0
VERTEX
  8
3350LEVEL
 62
13
 10
3205.031
 20
-4892.150
 30
1877.000
 70
    32
  0
VERTEX
  8
3350LEVEL
 62
13
 10
3210.070
 20
-4900.552
 30
1877.000
 70
    32
  0
VERTEX
  8
3350LEVEL
 62
13
 10
3213.762
 20
-4906.063
 30
1877.000
 70
    32
  0
VERTEX
  8
3350LEVEL
 62
13
 10
3216.437
 20
-4910.674
 30
1877.000
 70
    32
  0
VERTEX
  8
3350LEVEL
 62
13
 10
3217.678
 20
-4913.528
 30
1877.000
 70
    32
  0
VERTEX
  8
3350LEVEL
 62
13
 10
3217.619
 20
-4915.408
 30
1877.000
 70
    32
  0
VERTEX
  8
3350LEVEL
 62
13
 10
3214.939
 20
-4914.097
 30
1877.000
 70
    32
  0
VERTEX
  8
3350LEVEL
 62
13
 10
3212.104
 20
-4910.975
 30
1877.000
 70
    32
  0
VERTEX
  8
3350LEVEL
 62
13
 10
3207.436
 20
-4904.103
 30
1877.000
 70
    32
  0
VERTEX
  8
3350LEVEL
 62
13
 10
3200.017
 20
-4892.974
 30
1877.000
 70
    32
  0
VERTEX
  8
3350LEVEL
 62
13
 10
3193.640
 20
-4883.704
 30
1877.000
 70
    32
  0
VERTEX
  8
3350LEVEL
 62
13
 10
3186.040
 20
-4870.089
 30
1877.000
 70
    32
  0
VERTEX
  8
3350LEVEL
 62
13
 10
3179.696
 20
-4855.390
 30
1877.000
 70
    32
  0
VERTEX
  8
3350LEVEL
 62
13
 10
3177.319
 20
-4844.041
 30
1877.000
 70
    32
  0
VERTEX
  8
3350LEVEL
 62
13
 10
3173.120
 20
-4828.021
 30
1877.000
 70
    32
  0
VERTEX
  8
3350LEVEL
 62
13
 10
3171.436
 20
-4818.029
 30
1877.000
 70
    32
  0
VERTEX
  8
3350LEVEL
 62
13
 10
3170.153
 20
-4812.832
 30
1877.000
 70
    32
  0
VERTEX
  8
3350LEVEL
 62
13
 10
3170.382
 20
-4805.951
 30
1877.000
 70
    32
  0
VERTEX
  8
3350LEVEL
 62
13
 10
3169.584
 20
-4798.809
 30
1877.000
 70
    32
  0
VERTEX
  8
3350LEVEL
 62
13
 10
3170.109
 20
-4796.545
 30
1877.000
 70
    32
  0
VERTEX
  8
3350LEVEL
 62
13
 10
3171.941
 20
-4794.829
 30
1877.000
 70
    32
  0
VERTEX
  8
3350LEVEL
 62
13
 10
3174.103
 20
-4795.033
 30
1877.000
 70
    32
  0
VERTEX
  8
3350LEVEL
 62
13
 10
3174.893
 20
-4794.263
 30
1877.000
 70
    32
  0
VERTEX
  8
3350LEVEL
 62
13
 10
3175.640
 20
-4794.095
 30
1877.000
 70
    32
  0
VERTEX
  8
3350LEVEL
 62
13
 10
3177.721
 20
-4795.079
 30
1877.000
 70
    32
  0
VERTEX
  8
3350LEVEL
 62
13
 10
3179.568
 20
-4794.960
 30
1877.000
 70
    32
  0
VERTEX
  8
3350LEVEL
 62
13
 10
3181.249
 20
-4793.881
 30
1877.000
 70
    32
  0
VERTEX
  8
3350LEVEL
 62
13
 10
3183.448
 20
-4793.980
 30
1877.000
 70
    32
  0
VERTEX
  8
3350LEVEL
 62
13
 10
3186.807
 20
-4794.909
 30
1877.000
 70
    32
  0
VERTEX
  8
3350LEVEL
 62
13
 10
3188.146
 20
-4795.707
 30
1877.000
 70
    32
  0
VERTEX
  8
3350LEVEL
 62
13
 10
3190.069
 20
-4797.966
 30
1877.000
 70
    32
  0
VERTEX
  8
3350LEVEL
 62
13
 10
3191.064
 20
-4800.640
 30
1877.000
 70
    32
  0
VERTEX
  8
3350LEVEL
 62
13
 10
3191.742
 20
-4806.007
 30
1877.000
 70
    32
  0
VERTEX
  8
3350LEVEL
 62
13
 10
3192.648
 20
-4810.170
 30
1877.000
 70
    32
  0
VERTEX
  8
3350LEVEL
 62
13
 10
3193.422
 20
-4813.479
 30
1877.000
 70
    32
  0
VERTEX
  8
3350LEVEL
 62
13
 10
3194.876
 20
-4816.407
 30
1877.000
 70
    32
  0
VERTEX
  8
3350LEVEL
 62
13
 10
3196.479
 20
-4818.698
 30
1877.000
 70
    32
  0
SEQEND
  8
3350LEVEL
  0
POLYLINE
  8
3350LEVEL
 62
13
 66
     1
 70
     8
  0
VERTEX
  8
3350LEVEL
 62
13
 10
3526.655
 20
-5171.792
 30
1877.000
 70
    32
  0
VERTEX
  8
3350LEVEL
 62
13
 10
3518.382
 20
-5166.543
 30
1877.000
 70
    32
  0
VERTEX
  8
3350LEVEL
 62
13
 10
3510.235
 20
-5159.769
 30
1877.000
 70
    32
  0
VERTEX
  8
3350LEVEL
 62
13
 10
3504.305
 20
-5154.479
 30
1877.000
 70
    32
  0
VERTEX
  8
3350LEVEL
 62
13
 10
3501.081
 20
-5151.245
 30
1877.000
 70
    32
  0
VERTEX
  8
3350LEVEL
 62
13
 10
3496.409
 20
-5147.460
 30
1877.000
 70
    32
  0
VERTEX
  8
3350LEVEL
 62
13
 10
3492.826
 20
-5144.577
 30
1877.000
 70
    32
  0
VERTEX
  8
3350LEVEL
 62
13
 10
3490.235
 20
-5141.776
 30
1877.000
 70
    32
  0
VERTEX
  8
3350LEVEL
 62
13
 10
3487.976
 20
-5135.219
 30
1877.000
 70
    32
  0
VERTEX
  8
3350LEVEL
 62
13
 10
3486.687
 20
-5130.448
 30
1877.000
 70
    32
  0
VERTEX
  8
3350LEVEL
 62
13
 10
3482.937
 20
-5121.069
 30
1877.000
 70
    32
  0
VERTEX
  8
3350LEVEL
 62
13
 10
3480.584
 20
-5116.355
 30
1877.000
 70
    32
  0
VERTEX
  8
3350LEVEL
 62
13
 10
3477.792
 20
-5109.756
 30
1877.000
 70
    32
  0
VERTEX
  8
3350LEVEL
 62
13
 10
3477.241
 20
-5105.668
 30
1877.000
 70
    32
  0
VERTEX
  8
3350LEVEL
 62
13
 10
3477.990
 20
-5102.484
 30
1877.000
 70
    32
  0
VERTEX
  8
3350LEVEL
 62
13
 10
3479.431
 20
-5095.122
 30
1877.000
 70
    32
  0
VERTEX
  8
3350LEVEL
 62
13
 10
3479.185
 20
-5089.264
 30
1877.000
 70
    32
  0
VERTEX
  8
3350LEVEL
 62
13
 10
3477.432
 20
-5079.129
 30
1877.000
 70
    32
  0
VERTEX
  8
3350LEVEL
 62
13
 10
3473.936
 20
-5069.292
 30
1877.000
 70
    32
  0
VERTEX
  8
3350LEVEL
 62
13
 10
3470.423
 20
-5063.676
 30
1877.000
 70
    32
  0
VERTEX
  8
3350LEVEL
 62
13
 10
3459.133
 20
-5050.015
 30
1877.000
 70
    32
  0
VERTEX
  8
3350LEVEL
 62
13
 10
3452.172
 20
-5042.086
 30
1877.000
 70
    32
  0
VERTEX
  8
3350LEVEL
 62
13
 10
3442.667
 20
-5033.202
 30
1877.000
 70
    32
  0
VERTEX
  8
3350LEVEL
 62
13
 10
3434.653
 20
-5024.337
 30
1877.000
 70
    32
  0
VERTEX
  8
3350LEVEL
 62
13
 10
3427.493
 20
-5015.199
 30
1877.000
 70
    32
  0
VERTEX
  8
3350LEVEL
 62
13
 10
3421.699
 20
-5007.533
 30
1877.000
 70
    32
  0
VERTEX
  8
3350LEVEL
 62
13
 10
3415.650
 20
-5000.466
 30
1877.000
 70
    32
  0
VERTEX
  8
3350LEVEL
 62
13
 10
3412.290
 20
-4996.734
 30
1877.000
 70
    32
  0
VERTEX
  8
3350LEVEL
 62
13
 10
3410.149
 20
-4994.826
 30
1877.000
 70
    32
  0
VERTEX
  8
3350LEVEL
 62
13
 10
3409.089
 20
-4994.529
 30
1877.000
 70
    32
  0
VERTEX
  8
3350LEVEL
 62
13
 10
3408.517
 20
-4994.806
 30
1877.000
 70
    32
  0
VERTEX
  8
3350LEVEL
 62
13
 10
3408.665
 20
-4997.185
 30
1877.000
 70
    32
  0
VERTEX
  8
3350LEVEL
 62
13
 10
3411.760
 20
-5002.227
 30
1877.000
 70
    32
  0
VERTEX
  8
3350LEVEL
 62
13
 10
3416.543
 20
-5008.426
 30
1877.000
 70
    32
  0
VERTEX
  8
3350LEVEL
 62
13
 10
3421.559
 20
-5015.869
 30
1877.000
 70
    32
  0
VERTEX
  8
3350LEVEL
 62
13
 10
3427.558
 20
-5024.177
 30
1877.000
 70
    32
  0
VERTEX
  8
3350LEVEL
 62
13
 10
3431.070
 20
-5029.863
 30
1877.000
 70
    32
  0
VERTEX
  8
3350LEVEL
 62
13
 10
3433.389
 20
-5034.540
 30
1877.000
 70
    32
  0
VERTEX
  8
3350LEVEL
 62
13
 10
3436.396
 20
-5038.127
 30
1877.000
 70
    32
  0
VERTEX
  8
3350LEVEL
 62
13
 10
3437.620
 20
-5039.526
 30
1877.000
 70
    32
  0
VERTEX
  8
3350LEVEL
 62
13
 10
3438.949
 20
-5041.033
 30
1877.000
 70
    32
  0
VERTEX
  8
3350LEVEL
 62
13
 10
3438.873
 20
-5041.458
 30
1877.000
 70
    32
  0
VERTEX
  8
3350LEVEL
 62
13
 10
3436.017
 20
-5040.038
 30
1877.000
 70
    32
  0
VERTEX
  8
3350LEVEL
 62
13
 10
3433.704
 20
-5037.738
 30
1877.000
 70
    32
  0
VERTEX
  8
3350LEVEL
 62
13
 10
3430.893
 20
-5035.503
 30
1877.000
 70
    32
  0
VERTEX
  8
3350LEVEL
 62
13
 10
3430.464
 20
-5035.781
 30
1877.000
 70
    32
  0
VERTEX
  8
3350LEVEL
 62
13
 10
3429.330
 20
-5038.499
 30
1877.000
 70
    32
  0
VERTEX
  8
3350LEVEL
 62
13
 10
3429.114
 20
-5041.584
 30
1877.000
 70
    32
  0
VERTEX
  8
3350LEVEL
 62
13
 10
3429.487
 20
-5045.775
 30
1877.000
 70
    32
  0
VERTEX
  8
3350LEVEL
 62
13
 10
3430.415
 20
-5048.164
 30
1877.000
 70
    32
  0
VERTEX
  8
3350LEVEL
 62
13
 10
3435.380
 20
-5054.046
 30
1877.000
 70
    32
  0
VERTEX
  8
3350LEVEL
 62
13
 10
3440.567
 20
-5059.150
 30
1877.000
 70
    32
  0
VERTEX
  8
3350LEVEL
 62
13
 10
3450.271
 20
-5066.297
 30
1877.000
 70
    32
  0
VERTEX
  8
3350LEVEL
 62
13
 10
3456.564
 20
-5070.954
 30
1877.000
 70
    32
  0
VERTEX
  8
3350LEVEL
 62
13
 10
3463.797
 20
-5077.077
 30
1877.000
 70
    32
  0
VERTEX
  8
3350LEVEL
 62
13
 10
3467.968
 20
-5081.139
 30
1877.000
 70
    32
  0
VERTEX
  8
3350LEVEL
 62
13
 10
3472.214
 20
-5087.721
 30
1877.000
 70
    32
  0
VERTEX
  8
3350LEVEL
 62
13
 10
3473.699
 20
-5091.040
 30
1877.000
 70
    32
  0
VERTEX
  8
3350LEVEL
 62
13
 10
3474.720
 20
-5094.459
 30
1877.000
 70
    32
  0
VERTEX
  8
3350LEVEL
 62
13
 10
3474.982
 20
-5096.237
 30
1877.000
 70
    32
  0
VERTEX
  8
3350LEVEL
 62
13
 10
3474.541
 20
-5097.438
 30
1877.000
 70
    32
  0
VERTEX
  8
3350LEVEL
 62
13
 10
3473.795
 20
-5097.464
 30
1877.000
 70
    32
  0
VERTEX
  8
3350LEVEL
 62
13
 10
3468.996
 20
-5095.345
 30
1877.000
 70
    32
  0
VERTEX
  8
3350LEVEL
 62
13
 10
3465.092
 20
-5092.564
 30
1877.000
 70
    32
  0
VERTEX
  8
3350LEVEL
 62
13
 10
3456.776
 20
-5085.115
 30
1877.000
 70
    32
  0
VERTEX
  8
3350LEVEL
 62
13
 10
3449.976
 20
-5078.429
 30
1877.000
 70
    32
  0
VERTEX
  8
3350LEVEL
 62
13
 10
3442.364
 20
-5071.485
 30
1877.000
 70
    32
  0
VERTEX
  8
3350LEVEL
 62
13
 10
3435.208
 20
-5064.866
 30
1877.000
 70
    32
  0
VERTEX
  8
3350LEVEL
 62
13
 10
3428.720
 20
-5058.788
 30
1877.000
 70
    32
  0
VERTEX
  8
3350LEVEL
 62
13
 10
3424.595
 20
-5053.840
 30
1877.000
 70
    32
  0
VERTEX
  8
3350LEVEL
 62
13
 10
3420.971
 20
-5048.542
 30
1877.000
 70
    32
  0
VERTEX
  8
3350LEVEL
 62
13
 10
3414.932
 20
-5040.625
 30
1877.000
 70
    32
  0
VERTEX
  8
3350LEVEL
 62
13
 10
3405.380
 20
-5029.895
 30
1877.000
 70
    32
  0
VERTEX
  8
3350LEVEL
 62
13
 10
3399.082
 20
-5022.790
 30
1877.000
 70
    32
  0
VERTEX
  8
3350LEVEL
 62
13
 10
3390.591
 20
-5012.358
 30
1877.000
 70
    32
  0
VERTEX
  8
3350LEVEL
 62
13
 10
3385.685
 20
-5004.596
 30
1877.000
 70
    32
  0
VERTEX
  8
3350LEVEL
 62
13
 10
3378.878
 20
-4987.195
 30
1877.000
 70
    32
  0
VERTEX
  8
3350LEVEL
 62
13
 10
3374.262
 20
-4973.263
 30
1877.000
 70
    32
  0
VERTEX
  8
3350LEVEL
 62
13
 10
3371.068
 20
-4959.207
 30
1877.000
 70
    32
  0
VERTEX
  8
3350LEVEL
 62
13
 10
3370.935
 20
-4952.818
 30
1877.000
 70
    32
  0
VERTEX
  8
3350LEVEL
 62
13
 10
3370.103
 20
-4945.640
 30
1877.000
 70
    32
  0
VERTEX
  8
3350LEVEL
 62
13
 10
3368.721
 20
-4939.838
 30
1877.000
 70
    32
  0
VERTEX
  8
3350LEVEL
 62
13
 10
3365.726
 20
-4932.527
 30
1877.000
 70
    32
  0
VERTEX
  8
3350LEVEL
 62
13
 10
3363.483
 20
-4927.424
 30
1877.000
 70
    32
  0
VERTEX
  8
3350LEVEL
 62
13
 10
3361.594
 20
-4922.468
 30
1877.000
 70
    32
  0
VERTEX
  8
3350LEVEL
 62
13
 10
3360.678
 20
-4919.157
 30
1877.000
 70
    32
  0
VERTEX
  8
3350LEVEL
 62
13
 10
3359.317
 20
-4914.456
 30
1877.000
 70
    32
  0
VERTEX
  8
3350LEVEL
 62
13
 10
3358.775
 20
-4909.588
 30
1877.000
 70
    32
  0
VERTEX
  8
3350LEVEL
 62
13
 10
3358.070
 20
-4906.421
 30
1877.000
 70
    32
  0
VERTEX
  8
3350LEVEL
 62
13
 10
3356.415
 20
-4902.568
 30
1877.000
 70
    32
  0
VERTEX
  8
3350LEVEL
 62
13
 10
3355.166
 20
-4900.281
 30
1877.000
 70
    32
  0
VERTEX
  8
3350LEVEL
 62
13
 10
3352.099
 20
-4895.914
 30
1877.000
 70
    32
  0
VERTEX
  8
3350LEVEL
 62
13
 10
3349.140
 20
-4891.370
 30
1877.000
 70
    32
  0
VERTEX
  8
3350LEVEL
 62
13
 10
3347.339
 20
-4887.870
 30
1877.000
 70
    32
  0
VERTEX
  8
3350LEVEL
 62
13
 10
3345.560
 20
-4882.596
 30
1877.000
 70
    32
  0
VERTEX
  8
3350LEVEL
 62
13
 10
3344.663
 20
-4877.724
 30
1877.000
 70
    32
  0
VERTEX
  8
3350LEVEL
 62
13
 10
3344.422
 20
-4874.314
 30
1877.000
 70
    32
  0
VERTEX
  8
3350LEVEL
 62
13
 10
3344.526
 20
-4871.690
 30
1877.000
 70
    32
  0
VERTEX
  8
3350LEVEL
 62
13
 10
3344.065
 20
-4865.971
 30
1877.000
 70
    32
  0
VERTEX
  8
3350LEVEL
 62
13
 10
3341.823
 20
-4857.995
 30
1877.000
 70
    32
  0
VERTEX
  8
3350LEVEL
 62
13
 10
3340.390
 20
-4853.506
 30
1877.000
 70
    32
  0
VERTEX
  8
3350LEVEL
 62
13
 10
3338.329
 20
-4845.212
 30
1877.000
 70
    32
  0
VERTEX
  8
3350LEVEL
 62
13
 10
3336.623
 20
-4839.797
 30
1877.000
 70
    32
  0
VERTEX
  8
3350LEVEL
 62
13
 10
3333.216
 20
-4831.345
 30
1877.000
 70
    32
  0
VERTEX
  8
3350LEVEL
 62
13
 10
3330.627
 20
-4825.599
 30
1877.000
 70
    32
  0
VERTEX
  8
3350LEVEL
 62
13
 10
3326.999
 20
-4817.854
 30
1877.000
 70
    32
  0
VERTEX
  8
3350LEVEL
 62
13
 10
3325.452
 20
-4813.896
 30
1877.000
 70
    32
  0
VERTEX
  8
3350LEVEL
 62
13
 10
3326.122
 20
-4811.420
 30
1877.000
 70
    32
  0
VERTEX
  8
3350LEVEL
 62
13
 10
3327.233
 20
-4810.547
 30
1877.000
 70
    32
  0
VERTEX
  8
3350LEVEL
 62
13
 10
3327.785
 20
-4808.957
 30
1877.000
 70
    32
  0
VERTEX
  8
3350LEVEL
 62
13
 10
3326.707
 20
-4804.331
 30
1877.000
 70
    32
  0
VERTEX
  8
3350LEVEL
 62
13
 10
3325.924
 20
-4798.928
 30
1877.000
 70
    32
  0
VERTEX
  8
3350LEVEL
 62
13
 10
3325.215
 20
-4796.044
 30
1877.000
 70
    32
  0
VERTEX
  8
3350LEVEL
 62
13
 10
3325.123
 20
-4794.872
 30
1877.000
 70
    32
  0
VERTEX
  8
3350LEVEL
 62
13
 10
3326.152
 20
-4794.850
 30
1877.000
 70
    32
  0
VERTEX
  8
3350LEVEL
 62
13
 10
3328.592
 20
-4798.358
 30
1877.000
 70
    32
  0
VERTEX
  8
3350LEVEL
 62
13
 10
3331.849
 20
-4804.644
 30
1877.000
 70
    32
  0
VERTEX
  8
3350LEVEL
 62
13
 10
3334.591
 20
-4812.272
 30
1877.000
 70
    32
  0
VERTEX
  8
3350LEVEL
 62
13
 10
3335.372
 20
-4817.959
 30
1877.000
 70
    32
  0
VERTEX
  8
3350LEVEL
 62
13
 10
3335.375
 20
-4823.353
 30
1877.000
 70
    32
  0
VERTEX
  8
3350LEVEL
 62
13
 10
3336.307
 20
-4828.261
 30
1877.000
 70
    32
  0
VERTEX
  8
3350LEVEL
 62
13
 10
3337.758
 20
-4831.331
 30
1877.000
 70
    32
  0
VERTEX
  8
3350LEVEL
 62
13
 10
3339.469
 20
-4833.588
 30
1877.000
 70
    32
  0
VERTEX
  8
3350LEVEL
 62
13
 10
3340.509
 20
-4835.517
 30
1877.000
 70
    32
  0
VERTEX
  8
3350LEVEL
 62
13
 10
3341.497
 20
-4838.758
 30
1877.000
 70
    32
  0
VERTEX
  8
3350LEVEL
 62
13
 10
3342.059
 20
-4839.262
 30
1877.000
 70
    32
  0
VERTEX
  8
3350LEVEL
 62
13
 10
3343.132
 20
-4838.566
 30
1877.000
 70
    32
  0
VERTEX
  8
3350LEVEL
 62
13
 10
3344.059
 20
-4838.223
 30
1877.000
 70
    32
  0
VERTEX
  8
3350LEVEL
 62
13
 10
3345.247
 20
-4839.657
 30
1877.000
 70
    32
  0
VERTEX
  8
3350LEVEL
 62
13
 10
3346.696
 20
-4843.011
 30
1877.000
 70
    32
  0
VERTEX
  8
3350LEVEL
 62
13
 10
3347.771
 20
-4844.976
 30
1877.000
 70
    32
  0
VERTEX
  8
3350LEVEL
 62
13
 10
3348.642
 20
-4846.229
 30
1877.000
 70
    32
  0
VERTEX
  8
3350LEVEL
 62
13
 10
3349.709
 20
-4846.029
 30
1877.000
 70
    32
  0
VERTEX
  8
3350LEVEL
 62
13
 10
3350.836
 20
-4843.879
 30
1877.000
 70
    32
  0
VERTEX
  8
3350LEVEL
 62
13
 10
3351.260
 20
-4841.223
 30
1877.000
 70
    32
  0
VERTEX
  8
3350LEVEL
 62
13
 10
3351.912
 20
-4840.167
 30
1877.000
 70
    32
  0
VERTEX
  8
3350LEVEL
 62
13
 10
3353.075
 20
-4837.981
 30
1877.000
 70
    32
  0
VERTEX
  8
3350LEVEL
 62
13
 10
3352.917
 20
-4836.453
 30
1877.000
 70
    32
  0
VERTEX
  8
3350LEVEL
 62
13
 10
3353.462
 20
-4835.431
 30
1877.000
 70
    32
  0
VERTEX
  8
3350LEVEL
 62
13
 10
3354.248
 20
-4835.015
 30
1877.000
 70
    32
  0
VERTEX
  8
3350LEVEL
 62
13
 10
3355.295
 20
-4836.377
 30
1877.000
 70
    32
  0
VERTEX
  8
3350LEVEL
 62
13
 10
3356.519
 20
-4837.776
 30
1877.000
 70
    32
  0
VERTEX
  8
3350LEVEL
 62
13
 10
3357.552
 20
-4837.470
 30
1877.000
 70
    32
  0
VERTEX
  8
3350LEVEL
 62
13
 10
3358.077
 20
-4832.402
 30
1877.000
 70
    32
  0
VERTEX
  8
3350LEVEL
 62
13
 10
3357.346
 20
-4825.616
 30
1877.000
 70
    32
  0
VERTEX
  8
3350LEVEL
 62
13
 10
3357.409
 20
-4820.649
 30
1877.000
 70
    32
  0
VERTEX
  8
3350LEVEL
 62
13
 10
3358.204
 20
-4819.452
 30
1877.000
 70
    32
  0
VERTEX
  8
3350LEVEL
 62
13
 10
3358.763
 20
-4820.169
 30
1877.000
 70
    32
  0
VERTEX
  8
3350LEVEL
 62
13
 10
3360.260
 20
-4825.297
 30
1877.000
 70
    32
  0
VERTEX
  8
3350LEVEL
 62
13
 10
3362.229
 20
-4829.545
 30
1877.000
 70
    32
  0
VERTEX
  8
3350LEVEL
 62
13
 10
3365.738
 20
-4835.515
 30
1877.000
 70
    32
  0
VERTEX
  8
3350LEVEL
 62
13
 10
3367.511
 20
-4838.411
 30
1877.000
 70
    32
  0
VERTEX
  8
3350LEVEL
 62
13
 10
3368.557
 20
-4839.914
 30
1877.000
 70
    32
  0
VERTEX
  8
3350LEVEL
 62
13
 10
3369.403
 20
-4840.351
 30
1877.000
 70
    32
  0
VERTEX
  8
3350LEVEL
 62
13
 10
3369.967
 20
-4837.839
 30
1877.000
 70
    32
  0
VERTEX
  8
3350LEVEL
 62
13
 10
3369.635
 20
-4833.186
 30
1877.000
 70
    32
  0
VERTEX
  8
3350LEVEL
 62
13
 10
3368.935
 20
-4829.593
 30
1877.000
 70
    32
  0
VERTEX
  8
3350LEVEL
 62
13
 10
3368.947
 20
-4828.671
 30
1877.000
 70
    32
  0
VERTEX
  8
3350LEVEL
 62
13
 10
3369.456
 20
-4824.810
 30
1877.000
 70
    32
  0
VERTEX
  8
3350LEVEL
 62
13
 10
3370.231
 20
-4822.442
 30
1877.000
 70
    32
  0
VERTEX
  8
3350LEVEL
 62
13
 10
3372.641
 20
-4819.882
 30
1877.000
 70
    32
  0
VERTEX
  8
3350LEVEL
 62
13
 10
3372.783
 20
-4814.206
 30
1877.000
 70
    32
  0
VERTEX
  8
3350LEVEL
 62
13
 10
3372.503
 20
-4805.438
 30
1877.000
 70
    32
  0
VERTEX
  8
3350LEVEL
 62
13
 10
3372.764
 20
-4798.806
 30
1877.000
 70
    32
  0
VERTEX
  8
3350LEVEL
 62
13
 10
3373.689
 20
-4795.731
 30
1877.000
 70
    32
  0
VERTEX
  8
3350LEVEL
 62
13
 10
3375.167
 20
-4793.940
 30
1877.000
 70
    32
  0
VERTEX
  8
3350LEVEL
 62
13
 10
3375.764
 20
-4794.409
 30
1877.000
 70
    32
  0
VERTEX
  8
3350LEVEL
 62
13
 10
3376.697
 20
-4796.372
 30
1877.000
 70
    32
  0
VERTEX
  8
3350LEVEL
 62
13
 10
3377.747
 20
-4797.591
 30
1877.000
 70
    32
  0
VERTEX
  8
3350LEVEL
 62
13
 10
3378.781
 20
-4797.143
 30
1877.000
 70
    32
  0
VERTEX
  8
3350LEVEL
 62
13
 10
3378.887
 20
-4794.377
 30
1877.000
 70
    32
  0
VERTEX
  8
3350LEVEL
 62
13
 10
3377.789
 20
-4788.579
 30
1877.000
 70
    32
  0
VERTEX
  8
3350LEVEL
 62
13
 10
3377.448
 20
-4784.636
 30
1877.000
 70
    32
  0
VERTEX
  8
3350LEVEL
 62
13
 10
3377.899
 20
-4782.655
 30
1877.000
 70
    32
  0
VERTEX
  8
3350LEVEL
 62
13
 10
3379.130
 20
-4780.683
 30
1877.000
 70
    32
  0
VERTEX
  8
3350LEVEL
 62
13
 10
3380.140
 20
-4782.222
 30
1877.000
 70
    32
  0
VERTEX
  8
3350LEVEL
 62
13
 10
3382.073
 20
-4786.504
 30
1877.000
 70
    32
  0
VERTEX
  8
3350LEVEL
 62
13
 10
3383.741
 20
-4789.293
 30
1877.000
 70
    32
  0
VERTEX
  8
3350LEVEL
 62
13
 10
3385.703
 20
-4791.304
 30
1877.000
 70
    32
  0
VERTEX
  8
3350LEVEL
 62
13
 10
3386.874
 20
-4791.284
 30
1877.000
 70
    32
  0
VERTEX
  8
3350LEVEL
 62
13
 10
3386.030
 20
-4787.831
 30
1877.000
 70
    32
  0
VERTEX
  8
3350LEVEL
 62
13
 10
3384.440
 20
-4784.476
 30
1877.000
 70
    32
  0
VERTEX
  8
3350LEVEL
 62
13
 10
3383.405
 20
-4779.317
 30
1877.000
 70
    32
  0
VERTEX
  8
3350LEVEL
 62
13
 10
3382.146
 20
-4775.008
 30
1877.000
 70
    32
  0
VERTEX
  8
3350LEVEL
 62
13
 10
3382.221
 20
-4774.725
 30
1877.000
 70
    32
  0
VERTEX
  8
3350LEVEL
 62
13
 10
3383.707
 20
-4775.028
 30
1877.000
 70
    32
  0
VERTEX
  8
3350LEVEL
 62
13
 10
3384.039
 20
-4774.074
 30
1877.000
 70
    32
  0
VERTEX
  8
3350LEVEL
 62
13
 10
3383.944
 20
-4773.115
 30
1877.000
 70
    32
  0
VERTEX
  8
3350LEVEL
 62
13
 10
3384.413
 20
-4772.517
 30
1877.000
 70
    32
  0
VERTEX
  8
3350LEVEL
 62
13
 10
3385.229
 20
-4772.563
 30
1877.000
 70
    32
  0
VERTEX
  8
3350LEVEL
 62
13
 10
3386.127
 20
-4771.687
 30
1877.000
 70
    32
  0
VERTEX
  8
3350LEVEL
 62
13
 10
3386.706
 20
-4770.772
 30
1877.000
 70
    32
  0
VERTEX
  8
3350LEVEL
 62
13
 10
3387.276
 20
-4770.566
 30
1877.000
 70
    32
  0
VERTEX
  8
3350LEVEL
 62
13
 10
3389.253
 20
-4774.175
 30
1877.000
 70
    32
  0
VERTEX
  8
3350LEVEL
 62
13
 10
3390.936
 20
-4778.631
 30
1877.000
 70
    32
  0
VERTEX
  8
3350LEVEL
 62
13
 10
3392.994
 20
-4784.335
 30
1877.000
 70
    32
  0
VERTEX
  8
3350LEVEL
 62
13
 10
3394.575
 20
-4788.400
 30
1877.000
 70
    32
  0
VERTEX
  8
3350LEVEL
 62
13
 10
3394.843
 20
-4789.609
 30
1877.000
 70
    32
  0
VERTEX
  8
3350LEVEL
 62
13
 10
3393.499
 20
-4789.309
 30
1877.000
 70
    32
  0
VERTEX
  8
3350LEVEL
 62
13
 10
3392.679
 20
-4789.618
 30
1877.000
 70
    32
  0
VERTEX
  8
3350LEVEL
 62
13
 10
3392.342
 20
-4790.997
 30
1877.000
 70
    32
  0
VERTEX
  8
3350LEVEL
 62
13
 10
3394.940
 20
-4796.033
 30
1877.000
 70
    32
  0
VERTEX
  8
3350LEVEL
 62
13
 10
3399.253
 20
-4802.971
 30
1877.000
 70
    32
  0
VERTEX
  8
3350LEVEL
 62
13
 10
3400.786
 20
-4805.190
 30
1877.000
 70
    32
  0
VERTEX
  8
3350LEVEL
 62
13
 10
3402.433
 20
-4806.879
 30
1877.000
 70
    32
  0
VERTEX
  8
3350LEVEL
 62
13
 10
3403.577
 20
-4806.184
 30
1877.000
 70
    32
  0
VERTEX
  8
3350LEVEL
 62
13
 10
3402.510
 20
-4803.580
 30
1877.000
 70
    32
  0
VERTEX
  8
3350LEVEL
 62
13
 10
3401.554
 20
-4800.587
 30
1877.000
 70
    32
  0
VERTEX
  8
3350LEVEL
 62
13
 10
3401.673
 20
-4799.560
 30
1877.000
 70
    32
  0
VERTEX
  8
3350LEVEL
 62
13
 10
3402.786
 20
-4798.545
 30
1877.000
 70
    32
  0
VERTEX
  8
3350LEVEL
 62
13
 10
3402.639
 20
-4796.094
 30
1877.000
 70
    32
  0
VERTEX
  8
3350LEVEL
 62
13
 10
3401.291
 20
-4793.274
 30
1877.000
 70
    32
  0
VERTEX
  8
3350LEVEL
 62
13
 10
3401.761
 20
-4792.606
 30
1877.000
 70
    32
  0
VERTEX
  8
3350LEVEL
 62
13
 10
3402.699
 20
-4791.340
 30
1877.000
 70
    32
  0
VERTEX
  8
3350LEVEL
 62
13
 10
3400.291
 20
-4785.278
 30
1877.000
 70
    32
  0
VERTEX
  8
3350LEVEL
 62
13
 10
3396.167
 20
-4777.455
 30
1877.000
 70
    32
  0
VERTEX
  8
3350LEVEL
 62
13
 10
3392.809
 20
-4767.974
 30
1877.000
 70
    32
  0
VERTEX
  8
3350LEVEL
 62
13
 10
3389.629
 20
-4758.389
 30
1877.000
 70
    32
  0
VERTEX
  8
3350LEVEL
 62
13
 10
3387.390
 20
-4753.074
 30
1877.000
 70
    32
  0
VERTEX
  8
3350LEVEL
 62
13
 10
3382.676
 20
-4746.947
 30
1877.000
 70
    32
  0
VERTEX
  8
3350LEVEL
 62
13
 10
3380.837
 20
-4743.624
 30
1877.000
 70
    32
  0
VERTEX
  8
3350LEVEL
 62
13
 10
3378.985
 20
-4741.365
 30
1877.000
 70
    32
  0
VERTEX
  8
3350LEVEL
 62
13
 10
3377.051
 20
-4739.957
 30
1877.000
 70
    32
  0
VERTEX
  8
3350LEVEL
 62
13
 10
3376.449
 20
-4739.843
 30
1877.000
 70
    32
  0
VERTEX
  8
3350LEVEL
 62
13
 10
3375.803
 20
-4740.474
 30
1877.000
 70
    32
  0
VERTEX
  8
3350LEVEL
 62
13
 10
3375.746
 20
-4742.141
 30
1877.000
 70
    32
  0
VERTEX
  8
3350LEVEL
 62
13
 10
3376.320
 20
-4744.525
 30
1877.000
 70
    32
  0
VERTEX
  8
3350LEVEL
 62
13
 10
3377.344
 20
-4747.732
 30
1877.000
 70
    32
  0
VERTEX
  8
3350LEVEL
 62
13
 10
3377.538
 20
-4749.225
 30
1877.000
 70
    32
  0
VERTEX
  8
3350LEVEL
 62
13
 10
3375.701
 20
-4748.563
 30
1877.000
 70
    32
  0
VERTEX
  8
3350LEVEL
 62
13
 10
3371.448
 20
-4742.548
 30
1877.000
 70
    32
  0
VERTEX
  8
3350LEVEL
 62
13
 10
3365.323
 20
-4735.765
 30
1877.000
 70
    32
  0
VERTEX
  8
3350LEVEL
 62
13
 10
3361.458
 20
-4727.058
 30
1877.000
 70
    32
  0
VERTEX
  8
3350LEVEL
 62
13
 10
3356.349
 20
-4715.710
 30
1877.000
 70
    32
  0
VERTEX
  8
3350LEVEL
 62
13
 10
3353.995
 20
-4708.265
 30
1877.000
 70
    32
  0
VERTEX
  8
3350LEVEL
 62
13
 10
3353.700
 20
-4700.632
 30
1877.000
 70
    32
  0
VERTEX
  8
3350LEVEL
 62
13
 10
3354.744
 20
-4693.797
 30
1877.000
 70
    32
  0
VERTEX
  8
3350LEVEL
 62
13
 10
3354.368
 20
-4689.818
 30
1877.000
 70
    32
  0
VERTEX
  8
3350LEVEL
 62
13
 10
3352.971
 20
-4685.223
 30
1877.000
 70
    32
  0
VERTEX
  8
3350LEVEL
 62
13
 10
3353.512
 20
-4681.681
 30
1877.000
 70
    32
  0
VERTEX
  8
3350LEVEL
 62
13
 10
3353.424
 20
-4680.225
 30
1877.000
 70
    32
  0
VERTEX
  8
3350LEVEL
 62
13
 10
3352.225
 20
-4676.839
 30
1877.000
 70
    32
  0
VERTEX
  8
3350LEVEL
 62
13
 10
3351.587
 20
-4673.957
 30
1877.000
 70
    32
  0
VERTEX
  8
3350LEVEL
 62
13
 10
3352.232
 20
-4673.469
 30
1877.000
 70
    32
  0
VERTEX
  8
3350LEVEL
 62
13
 10
3351.693
 20
-4671.191
 30
1877.000
 70
    32
  0
VERTEX
  8
3350LEVEL
 62
13
 10
3349.876
 20
-4668.897
 30
1877.000
 70
    32
  0
VERTEX
  8
3350LEVEL
 62
13
 10
3348.870
 20
-4667.075
 30
1877.000
 70
    32
  0
VERTEX
  8
3350LEVEL
 62
13
 10
3349.132
 20
-4665.978
 30
1877.000
 70
    32
  0
VERTEX
  8
3350LEVEL
 62
13
 10
3350.539
 20
-4666.989
 30
1877.000
 70
    32
  0
VERTEX
  8
3350LEVEL
 62
13
 10
3354.491
 20
-4671.545
 30
1877.000
 70
    32
  0
VERTEX
  8
3350LEVEL
 62
13
 10
3358.416
 20
-4675.498
 30
1877.000
 70
    32
  0
VERTEX
  8
3350LEVEL
 62
13
 10
3362.525
 20
-4678.849
 30
1877.000
 70
    32
  0
VERTEX
  8
3350LEVEL
 62
13
 10
3367.764
 20
-4685.515
 30
1877.000
 70
    32
  0
VERTEX
  8
3350LEVEL
 62
13
 10
3370.717
 20
-4690.555
 30
1877.000
 70
    32
  0
VERTEX
  8
3350LEVEL
 62
13
 10
3373.663
 20
-4696.092
 30
1877.000
 70
    32
  0
VERTEX
  8
3350LEVEL
 62
13
 10
3375.212
 20
-4699.909
 30
1877.000
 70
    32
  0
VERTEX
  8
3350LEVEL
 62
13
 10
3376.804
 20
-4705.925
 30
1877.000
 70
    32
  0
VERTEX
  8
3350LEVEL
 62
13
 10
3377.390
 20
-4710.191
 30
1877.000
 70
    32
  0
VERTEX
  8
3350LEVEL
 62
13
 10
3378.726
 20
-4716.807
 30
1877.000
 70
    32
  0
VERTEX
  8
3350LEVEL
 62
13
 10
3379.577
 20
-4719.692
 30
1877.000
 70
    32
  0
VERTEX
  8
3350LEVEL
 62
13
 10
3380.553
 20
-4721.053
 30
1877.000
 70
    32
  0
VERTEX
  8
3350LEVEL
 62
13
 10
3381.066
 20
-4719.782
 30
1877.000
 70
    32
  0
VERTEX
  8
3350LEVEL
 62
13
 10
3381.332
 20
-4718.402
 30
1877.000
 70
    32
  0
VERTEX
  8
3350LEVEL
 62
13
 10
3381.869
 20
-4718.018
 30
1877.000
 70
    32
  0
VERTEX
  8
3350LEVEL
 62
13
 10
3383.552
 20
-4719.600
 30
1877.000
 70
    32
  0
VERTEX
  8
3350LEVEL
 62
13
 10
3385.530
 20
-4723.138
 30
1877.000
 70
    32
  0
VERTEX
  8
3350LEVEL
 62
13
 10
3386.640
 20
-4725.139
 30
1877.000
 70
    32
  0
VERTEX
  8
3350LEVEL
 62
13
 10
3387.663
 20
-4725.684
 30
1877.000
 70
    32
  0
VERTEX
  8
3350LEVEL
 62
13
 10
3388.726
 20
-4722.965
 30
1877.000
 70
    32
  0
VERTEX
  8
3350LEVEL
 62
13
 10
3388.817
 20
-4718.531
 30
1877.000
 70
    32
  0
VERTEX
  8
3350LEVEL
 62
13
 10
3389.268
 20
-4713.675
 30
1877.000
 70
    32
  0
VERTEX
  8
3350LEVEL
 62
13
 10
3390.235
 20
-4713.013
 30
1877.000
 70
    32
  0
VERTEX
  8
3350LEVEL
 62
13
 10
3392.341
 20
-4714.814
 30
1877.000
 70
    32
  0
VERTEX
  8
3350LEVEL
 62
13
 10
3395.804
 20
-4721.599
 30
1877.000
 70
    32
  0
VERTEX
  8
3350LEVEL
 62
13
 10
3398.284
 20
-4727.592
 30
1877.000
 70
    32
  0
VERTEX
  8
3350LEVEL
 62
13
 10
3402.288
 20
-4733.639
 30
1877.000
 70
    32
  0
VERTEX
  8
3350LEVEL
 62
13
 10
3407.851
 20
-4739.918
 30
1877.000
 70
    32
  0
VERTEX
  8
3350LEVEL
 62
13
 10
3411.083
 20
-4742.514
 30
1877.000
 70
    32
  0
VERTEX
  8
3350LEVEL
 62
13
 10
3415.185
 20
-4743.701
 30
1877.000
 70
    32
  0
VERTEX
  8
3350LEVEL
 62
13
 10
3418.456
 20
-4743.174
 30
1877.000
 70
    32
  0
VERTEX
  8
3350LEVEL
 62
13
 10
3420.773
 20
-4739.442
 30
1877.000
 70
    32
  0
VERTEX
  8
3350LEVEL
 62
13
 10
3422.359
 20
-4737.546
 30
1877.000
 70
    32
  0
VERTEX
  8
3350LEVEL
 62
13
 10
3424.281
 20
-4737.073
 30
1877.000
 70
    32
  0
VERTEX
  8
3350LEVEL
 62
13
 10
3427.730
 20
-4739.316
 30
1877.000
 70
    32
  0
VERTEX
  8
3350LEVEL
 62
13
 10
3431.892
 20
-4744.159
 30
1877.000
 70
    32
  0
VERTEX
  8
3350LEVEL
 62
13
 10
3436.340
 20
-4748.792
 30
1877.000
 70
    32
  0
VERTEX
  8
3350LEVEL
 62
13
 10
3439.530
 20
-4751.919
 30
1877.000
 70
    32
  0
VERTEX
  8
3350LEVEL
 62
13
 10
3441.004
 20
-4753.144
 30
1877.000
 70
    32
  0
VERTEX
  8
3350LEVEL
 62
13
 10
3442.804
 20
-4753.912
 30
1877.000
 70
    32
  0
VERTEX
  8
3350LEVEL
 62
13
 10
3442.820
 20
-4752.706
 30
1877.000
 70
    32
  0
VERTEX
  8
3350LEVEL
 62
13
 10
3441.435
 20
-4749.921
 30
1877.000
 70
    32
  0
VERTEX
  8
3350LEVEL
 62
13
 10
3441.896
 20
-4747.159
 30
1877.000
 70
    32
  0
VERTEX
  8
3350LEVEL
 62
13
 10
3442.278
 20
-4742.160
 30
1877.000
 70
    32
  0
VERTEX
  8
3350LEVEL
 62
13
 10
3439.703
 20
-4735.280
 30
1877.000
 70
    32
  0
VERTEX
  8
3350LEVEL
 62
13
 10
3438.821
 20
-4732.075
 30
1877.000
 70
    32
  0
VERTEX
  8
3350LEVEL
 62
13
 10
3438.947
 20
-4727.677
 30
1877.000
 70
    32
  0
VERTEX
  8
3350LEVEL
 62
13
 10
3438.546
 20
-4725.685
 30
1877.000
 70
    32
  0
VERTEX
  8
3350LEVEL
 62
13
 10
3438.354
 20
-4724.050
 30
1877.000
 70
    32
  0
VERTEX
  8
3350LEVEL
 62
13
 10
3439.318
 20
-4723.530
 30
1877.000
 70
    32
  0
VERTEX
  8
3350LEVEL
 62
13
 10
3442.434
 20
-4726.940
 30
1877.000
 70
    32
  0
VERTEX
  8
3350LEVEL
 62
13
 10
3448.141
 20
-4733.008
 30
1877.000
 70
    32
  0
VERTEX
  8
3350LEVEL
 62
13
 10
3454.153
 20
-4737.448
 30
1877.000
 70
    32
  0
VERTEX
  8
3350LEVEL
 62
13
 10
3461.097
 20
-4743.994
 30
1877.000
 70
    32
  0
VERTEX
  8
3350LEVEL
 62
13
 10
3467.079
 20
-4750.775
 30
1877.000
 70
    32
  0
VERTEX
  8
3350LEVEL
 62
13
 10
3472.439
 20
-4759.146
 30
1877.000
 70
    32
  0
VERTEX
  8
3350LEVEL
 62
13
 10
3474.696
 20
-4763.042
 30
1877.000
 70
    32
  0
VERTEX
  8
3350LEVEL
 62
13
 10
3476.143
 20
-4766.466
 30
1877.000
 70
    32
  0
VERTEX
  8
3350LEVEL
 62
13
 10
3476.927
 20
-4769.066
 30
1877.000
 70
    32
  0
VERTEX
  8
3350LEVEL
 62
13
 10
3478.311
 20
-4771.852
 30
1877.000
 70
    32
  0
VERTEX
  8
3350LEVEL
 62
13
 10
3479.484
 20
-4774.563
 30
1877.000
 70
    32
  0
SEQEND
  8
3350LEVEL
  0
POLYLINE
  8
3350LEVEL
 62
13
 66
     1
 70
     8
  0
VERTEX
  8
3350LEVEL
 62
13
 10
3772.168
 20
-4505.476
 30
1877.000
 70
    32
  0
VERTEX
  8
3350LEVEL
 62
13
 10
3772.402
 20
-4506.083
 30
1877.000
 70
    32
  0
VERTEX
  8
3350LEVEL
 62
13
 10
3772.419
 20
-4507.609
 30
1877.000
 70
    32
  0
VERTEX
  8
3350LEVEL
 62
13
 10
3771.286
 20
-4507.382
 30
1877.000
 70
    32
  0
VERTEX
  8
3350LEVEL
 62
13
 10
3769.488
 20
-4506.472
 30
1877.000
 70
    32
  0
VERTEX
  8
3350LEVEL
 62
13
 10
3768.563
 20
-4506.673
 30
1877.000
 70
    32
  0
VERTEX
  8
3350LEVEL
 62
13
 10
3768.076
 20
-4508.690
 30
1877.000
 70
    32
  0
VERTEX
  8
3350LEVEL
 62
13
 10
3765.892
 20
-4510.259
 30
1877.000
 70
    32
  0
VERTEX
  8
3350LEVEL
 62
13
 10
3763.377
 20
-4509.908
 30
1877.000
 70
    32
  0
VERTEX
  8
3350LEVEL
 62
13
 10
3761.285
 20
-4509.776
 30
1877.000
 70
    32
  0
VERTEX
  8
3350LEVEL
 62
13
 10
3760.435
 20
-4512.497
 30
1877.000
 70
    32
  0
VERTEX
  8
3350LEVEL
 62
13
 10
3760.814
 20
-4516.192
 30
1877.000
 70
    32
  0
VERTEX
  8
3350LEVEL
 62
13
 10
3759.090
 20
-4517.874
 30
1877.000
 70
    32
  0
VERTEX
  8
3350LEVEL
 62
13
 10
3754.890
 20
-4518.885
 30
1877.000
 70
    32
  0
VERTEX
  8
3350LEVEL
 62
13
 10
3751.266
 20
-4522.069
 30
1877.000
 70
    32
  0
VERTEX
  8
3350LEVEL
 62
13
 10
3749.083
 20
-4526.371
 30
1877.000
 70
    32
  0
VERTEX
  8
3350LEVEL
 62
13
 10
3746.425
 20
-4528.963
 30
1877.000
 70
    32
  0
VERTEX
  8
3350LEVEL
 62
13
 10
3742.126
 20
-4529.370
 30
1877.000
 70
    32
  0
VERTEX
  8
3350LEVEL
 62
13
 10
3737.897
 20
-4529.920
 30
1877.000
 70
    32
  0
VERTEX
  8
3350LEVEL
 62
13
 10
3734.772
 20
-4532.897
 30
1877.000
 70
    32
  0
VERTEX
  8
3350LEVEL
 62
13
 10
3731.357
 20
-4533.635
 30
1877.000
 70
    32
  0
VERTEX
  8
3350LEVEL
 62
13
 10
3727.345
 20
-4530.959
 30
1877.000
 70
    32
  0
VERTEX
  8
3350LEVEL
 62
13
 10
3722.961
 20
-4526.894
 30
1877.000
 70
    32
  0
VERTEX
  8
3350LEVEL
 62
13
 10
3722.537
 20
-4529.550
 30
1877.000
 70
    32
  0
VERTEX
  8
3350LEVEL
 62
13
 10
3723.030
 20
-4532.643
 30
1877.000
 70
    32
  0
VERTEX
  8
3350LEVEL
 62
13
 10
3724.946
 20
-4538.345
 30
1877.000
 70
    32
  0
VERTEX
  8
3350LEVEL
 62
13
 10
3728.821
 20
-4546.271
 30
1877.000
 70
    32
  0
VERTEX
  8
3350LEVEL
 62
13
 10
3734.568
 20
-4554.824
 30
1877.000
 70
    32
  0
VERTEX
  8
3350LEVEL
 62
13
 10
3737.878
 20
-4559.655
 30
1877.000
 70
    32
  0
VERTEX
  8
3350LEVEL
 62
13
 10
3748.179
 20
-4570.075
 30
1877.000
 70
    32
  0
VERTEX
  8
3350LEVEL
 62
13
 10
3755.559
 20
-4578.648
 30
1877.000
 70
    32
  0
VERTEX
  8
3350LEVEL
 62
13
 10
3760.484
 20
-4587.652
 30
1877.000
 70
    32
  0
VERTEX
  8
3350LEVEL
 62
13
 10
3762.829
 20
-4593.075
 30
1877.000
 70
    32
  0
VERTEX
  8
3350LEVEL
 62
13
 10
3767.806
 20
-4603.641
 30
1877.000
 70
    32
  0
VERTEX
  8
3350LEVEL
 62
13
 10
3767.434
 20
-4604.984
 30
1877.000
 70
    32
  0
VERTEX
  8
3350LEVEL
 62
13
 10
3763.316
 20
-4602.342
 30
1877.000
 70
    32
  0
VERTEX
  8
3350LEVEL
 62
13
 10
3755.671
 20
-4595.150
 30
1877.000
 70
    32
  0
VERTEX
  8
3350LEVEL
 62
13
 10
3749.291
 20
-4588.895
 30
1877.000
 70
    32
  0
VERTEX
  8
3350LEVEL
 62
13
 10
3734.155
 20
-4573.589
 30
1877.000
 70
    32
  0
VERTEX
  8
3350LEVEL
 62
13
 10
3725.694
 20
-4563.547
 30
1877.000
 70
    32
  0
VERTEX
  8
3350LEVEL
 62
13
 10
3716.907
 20
-4551.231
 30
1877.000
 70
    32
  0
VERTEX
  8
3350LEVEL
 62
13
 10
3710.069
 20
-4541.919
 30
1877.000
 70
    32
  0
VERTEX
  8
3350LEVEL
 62
13
 10
3707.097
 20
-4538.369
 30
1877.000
 70
    32
  0
VERTEX
  8
3350LEVEL
 62
13
 10
3705.191
 20
-4543.242
 30
1877.000
 70
    32
  0
VERTEX
  8
3350LEVEL
 62
13
 10
3706.053
 20
-4548.078
 30
1877.000
 70
    32
  0
VERTEX
  8
3350LEVEL
 62
13
 10
3709.390
 20
-4556.388
 30
1877.000
 70
    32
  0
VERTEX
  8
3350LEVEL
 62
13
 10
3710.353
 20
-4561.687
 30
1877.000
 70
    32
  0
VERTEX
  8
3350LEVEL
 62
13
 10
3706.498
 20
-4563.484
 30
1877.000
 70
    32
  0
VERTEX
  8
3350LEVEL
 62
13
 10
3701.681
 20
-4562.785
 30
1877.000
 70
    32
  0
VERTEX
  8
3350LEVEL
 62
13
 10
3699.246
 20
-4561.725
 30
1877.000
 70
    32
  0
VERTEX
  8
3350LEVEL
 62
13
 10
3696.082
 20
-4559.343
 30
1877.000
 70
    32
  0
VERTEX
  8
3350LEVEL
 62
13
 10
3692.118
 20
-4555.710
 30
1877.000
 70
    32
  0
VERTEX
  8
3350LEVEL
 62
13
 10
3691.147
 20
-4556.726
 30
1877.000
 70
    32
  0
VERTEX
  8
3350LEVEL
 62
13
 10
3691.625
 20
-4558.294
 30
1877.000
 70
    32
  0
VERTEX
  8
3350LEVEL
 62
13
 10
3689.963
 20
-4560.615
 30
1877.000
 70
    32
  0
VERTEX
  8
3350LEVEL
 62
13
 10
3687.878
 20
-4562.789
 30
1877.000
 70
    32
  0
VERTEX
  8
3350LEVEL
 62
13
 10
3687.831
 20
-4566.549
 30
1877.000
 70
    32
  0
VERTEX
  8
3350LEVEL
 62
13
 10
3686.754
 20
-4570.333
 30
1877.000
 70
    32
  0
VERTEX
  8
3350LEVEL
 62
13
 10
3684.138
 20
-4572.393
 30
1877.000
 70
    32
  0
VERTEX
  8
3350LEVEL
 62
13
 10
3680.918
 20
-4574.482
 30
1877.000
 70
    32
  0
VERTEX
  8
3350LEVEL
 62
13
 10
3680.804
 20
-4577.887
 30
1877.000
 70
    32
  0
VERTEX
  8
3350LEVEL
 62
13
 10
3682.916
 20
-4582.065
 30
1877.000
 70
    32
  0
VERTEX
  8
3350LEVEL
 62
13
 10
3684.027
 20
-4586.869
 30
1877.000
 70
    32
  0
VERTEX
  8
3350LEVEL
 62
13
 10
3686.938
 20
-4592.441
 30
1877.000
 70
    32
  0
VERTEX
  8
3350LEVEL
 62
13
 10
3692.225
 20
-4600.882
 30
1877.000
 70
    32
  0
VERTEX
  8
3350LEVEL
 62
13
 10
3694.341
 20
-4610.382
 30
1877.000
 70
    32
  0
VERTEX
  8
3350LEVEL
 62
13
 10
3694.166
 20
-4621.487
 30
1877.000
 70
    32
  0
VERTEX
  8
3350LEVEL
 62
13
 10
3697.186
 20
-4629.686
 30
1877.000
 70
    32
  0
VERTEX
  8
3350LEVEL
 62
13
 10
3703.120
 20
-4640.299
 30
1877.000
 70
    32
  0
VERTEX
  8
3350LEVEL
 62
13
 10
3710.356
 20
-4651.816
 30
1877.000
 70
    32
  0
VERTEX
  8
3350LEVEL
 62
13
 10
3717.893
 20
-4664.791
 30
1877.000
 70
    32
  0
VERTEX
  8
3350LEVEL
 62
13
 10
3723.252
 20
-4673.161
 30
1877.000
 70
    32
  0
VERTEX
  8
3350LEVEL
 62
13
 10
3727.246
 20
-4682.934
 30
1877.000
 70
    32
  0
VERTEX
  8
3350LEVEL
 62
13
 10
3730.113
 20
-4689.109
 30
1877.000
 70
    32
  0
VERTEX
  8
3350LEVEL
 62
13
 10
3732.725
 20
-4695.883
 30
1877.000
 70
    32
  0
VERTEX
  8
3350LEVEL
 62
13
 10
3732.023
 20
-4695.307
 30
1877.000
 70
    32
  0
VERTEX
  8
3350LEVEL
 62
13
 10
3727.964
 20
-4690.714
 30
1877.000
 70
    32
  0
VERTEX
  8
3350LEVEL
 62
13
 10
3723.942
 20
-4686.086
 30
1877.000
 70
    32
  0
VERTEX
  8
3350LEVEL
 62
13
 10
3718.139
 20
-4679.129
 30
1877.000
 70
    32
  0
VERTEX
  8
3350LEVEL
 62
13
 10
3713.203
 20
-4670.977
 30
1877.000
 70
    32
  0
VERTEX
  8
3350LEVEL
 62
13
 10
3707.766
 20
-4663.102
 30
1877.000
 70
    32
  0
VERTEX
  8
3350LEVEL
 62
13
 10
3704.028
 20
-4658.407
 30
1877.000
 70
    32
  0
VERTEX
  8
3350LEVEL
 62
13
 10
3698.617
 20
-4651.349
 30
1877.000
 70
    32
  0
VERTEX
  8
3350LEVEL
 62
13
 10
3695.581
 20
-4644.427
 30
1877.000
 70
    32
  0
VERTEX
  8
3350LEVEL
 62
13
 10
3695.378
 20
-4638.037
 30
1877.000
 70
    32
  0
VERTEX
  8
3350LEVEL
 62
13
 10
3693.784
 20
-4634.966
 30
1877.000
 70
    32
  0
VERTEX
  8
3350LEVEL
 62
13
 10
3691.904
 20
-4632.103
 30
1877.000
 70
    32
  0
VERTEX
  8
3350LEVEL
 62
13
 10
3690.542
 20
-4627.544
 30
1877.000
 70
    32
  0
VERTEX
  8
3350LEVEL
 62
13
 10
3689.613
 20
-4622.423
 30
1877.000
 70
    32
  0
VERTEX
  8
3350LEVEL
 62
13
 10
3688.420
 20
-4618.469
 30
1877.000
 70
    32
  0
VERTEX
  8
3350LEVEL
 62
13
 10
3685.690
 20
-4612.651
 30
1877.000
 70
    32
  0
VERTEX
  8
3350LEVEL
 62
13
 10
3683.129
 20
-4610.313
 30
1877.000
 70
    32
  0
VERTEX
  8
3350LEVEL
 62
13
 10
3680.165
 20
-4608.998
 30
1877.000
 70
    32
  0
VERTEX
  8
3350LEVEL
 62
13
 10
3678.397
 20
-4608.550
 30
1877.000
 70
    32
  0
VERTEX
  8
3350LEVEL
 62
13
 10
3676.783
 20
-4607.039
 30
1877.000
 70
    32
  0
VERTEX
  8
3350LEVEL
 62
13
 10
3675.674
 20
-4607.771
 30
1877.000
 70
    32
  0
VERTEX
  8
3350LEVEL
 62
13
 10
3674.471
 20
-4607.542
 30
1877.000
 70
    32
  0
VERTEX
  8
3350LEVEL
 62
13
 10
3673.350
 20
-4606.322
 30
1877.000
 70
    32
  0
VERTEX
  8
3350LEVEL
 62
13
 10
3672.102
 20
-4606.839
 30
1877.000
 70
    32
  0
VERTEX
  8
3350LEVEL
 62
13
 10
3671.734
 20
-4607.898
 30
1877.000
 70
    32
  0
VERTEX
  8
3350LEVEL
 62
13
 10
3670.489
 20
-4608.131
 30
1877.000
 70
    32
  0
VERTEX
  8
3350LEVEL
 62
13
 10
3669.754
 20
-4607.306
 30
1877.000
 70
    32
  0
VERTEX
  8
3350LEVEL
 62
13
 10
3667.903
 20
-4604.976
 30
1877.000
 70
    32
  0
VERTEX
  8
3350LEVEL
 62
13
 10
3667.006
 20
-4605.781
 30
1877.000
 70
    32
  0
VERTEX
  8
3350LEVEL
 62
13
 10
3667.232
 20
-4610.326
 30
1877.000
 70
    32
  0
VERTEX
  8
3350LEVEL
 62
13
 10
3668.974
 20
-4618.580
 30
1877.000
 70
    32
  0
VERTEX
  8
3350LEVEL
 62
13
 10
3670.493
 20
-4624.738
 30
1877.000
 70
    32
  0
VERTEX
  8
3350LEVEL
 62
13
 10
3673.699
 20
-4632.265
 30
1877.000
 70
    32
  0
VERTEX
  8
3350LEVEL
 62
13
 10
3673.641
 20
-4636.877
 30
1877.000
 70
    32
  0
VERTEX
  8
3350LEVEL
 62
13
 10
3673.154
 20
-4641.768
 30
1877.000
 70
    32
  0
VERTEX
  8
3350LEVEL
 62
13
 10
3672.024
 20
-4644.131
 30
1877.000
 70
    32
  0
VERTEX
  8
3350LEVEL
 62
13
 10
3669.620
 20
-4643.391
 30
1877.000
 70
    32
  0
VERTEX
  8
3350LEVEL
 62
13
 10
3666.063
 20
-4641.253
 30
1877.000
 70
    32
  0
VERTEX
  8
3350LEVEL
 62
13
 10
3664.785
 20
-4641.308
 30
1877.000
 70
    32
  0
VERTEX
  8
3350LEVEL
 62
13
 10
3664.905
 20
-4643.083
 30
1877.000
 70
    32
  0
VERTEX
  8
3350LEVEL
 62
13
 10
3666.303
 20
-4644.804
 30
1877.000
 70
    32
  0
VERTEX
  8
3350LEVEL
 62
13
 10
3668.962
 20
-4647.747
 30
1877.000
 70
    32
  0
VERTEX
  8
3350LEVEL
 62
13
 10
3668.150
 20
-4650.292
 30
1877.000
 70
    32
  0
VERTEX
  8
3350LEVEL
 62
13
 10
3665.772
 20
-4650.297
 30
1877.000
 70
    32
  0
VERTEX
  8
3350LEVEL
 62
13
 10
3663.456
 20
-4651.085
 30
1877.000
 70
    32
  0
VERTEX
  8
3350LEVEL
 62
13
 10
3662.862
 20
-4653.135
 30
1877.000
 70
    32
  0
VERTEX
  8
3350LEVEL
 62
13
 10
3662.080
 20
-4656.141
 30
1877.000
 70
    32
  0
VERTEX
  8
3350LEVEL
 62
13
 10
3660.565
 20
-4658.038
 30
1877.000
 70
    32
  0
VERTEX
  8
3350LEVEL
 62
13
 10
3660.945
 20
-4661.734
 30
1877.000
 70
    32
  0
VERTEX
  8
3350LEVEL
 62
13
 10
3659.033
 20
-4664.229
 30
1877.000
 70
    32
  0
VERTEX
  8
3350LEVEL
 62
13
 10
3655.614
 20
-4662.376
 30
1877.000
 70
    32
  0
VERTEX
  8
3350LEVEL
 62
13
 10
3649.989
 20
-4658.189
 30
1877.000
 70
    32
  0
VERTEX
  8
3350LEVEL
 62
13
 10
3646.123
 20
-4655.231
 30
1877.000
 70
    32
  0
VERTEX
  8
3350LEVEL
 62
13
 10
3643.674
 20
-4655.307
 30
1877.000
 70
    32
  0
VERTEX
  8
3350LEVEL
 62
13
 10
3643.220
 20
-4657.572
 30
1877.000
 70
    32
  0
VERTEX
  8
3350LEVEL
 62
13
 10
3643.912
 20
-4658.929
 30
1877.000
 70
    32
  0
VERTEX
  8
3350LEVEL
 62
13
 10
3647.475
 20
-4660.642
 30
1877.000
 70
    32
  0
VERTEX
  8
3350LEVEL
 62
13
 10
3649.857
 20
-4663.085
 30
1877.000
 70
    32
  0
VERTEX
  8
3350LEVEL
 62
13
 10
3649.051
 20
-4665.132
 30
1877.000
 70
    32
  0
VERTEX
  8
3350LEVEL
 62
13
 10
3646.611
 20
-4670.105
 30
1877.000
 70
    32
  0
VERTEX
  8
3350LEVEL
 62
13
 10
3644.421
 20
-4672.100
 30
1877.000
 70
    32
  0
VERTEX
  8
3350LEVEL
 62
13
 10
3639.822
 20
-4673.852
 30
1877.000
 70
    32
  0
VERTEX
  8
3350LEVEL
 62
13
 10
3635.026
 20
-4674.253
 30
1877.000
 70
    32
  0
VERTEX
  8
3350LEVEL
 62
13
 10
3630.853
 20
-4673.136
 30
1877.000
 70
    32
  0
VERTEX
  8
3350LEVEL
 62
13
 10
3625.984
 20
-4670.946
 30
1877.000
 70
    32
  0
VERTEX
  8
3350LEVEL
 62
13
 10
3621.609
 20
-4668.975
 30
1877.000
 70
    32
  0
VERTEX
  8
3350LEVEL
 62
13
 10
3619.560
 20
-4668.239
 30
1877.000
 70
    32
  0
VERTEX
  8
3350LEVEL
 62
13
 10
3617.093
 20
-4666.931
 30
1877.000
 70
    32
  0
VERTEX
  8
3350LEVEL
 62
13
 10
3611.591
 20
-4664.236
 30
1877.000
 70
    32
  0
VERTEX
  8
3350LEVEL
 62
13
 10
3607.869
 20
-4663.941
 30
1877.000
 70
    32
  0
VERTEX
  8
3350LEVEL
 62
13
 10
3606.229
 20
-4667.362
 30
1877.000
 70
    32
  0
VERTEX
  8
3350LEVEL
 62
13
 10
3604.457
 20
-4670.001
 30
1877.000
 70
    32
  0
VERTEX
  8
3350LEVEL
 62
13
 10
3600.563
 20
-4669.314
 30
1877.000
 70
    32
  0
VERTEX
  8
3350LEVEL
 62
13
 10
3597.415
 20
-4668.529
 30
1877.000
 70
    32
  0
VERTEX
  8
3350LEVEL
 62
13
 10
3594.146
 20
-4668.843
 30
1877.000
 70
    32
  0
VERTEX
  8
3350LEVEL
 62
13
 10
3591.140
 20
-4673.737
 30
1877.000
 70
    32
  0
VERTEX
  8
3350LEVEL
 62
13
 10
3589.387
 20
-4677.689
 30
1877.000
 70
    32
  0
VERTEX
  8
3350LEVEL
 62
13
 10
3586.707
 20
-4681.985
 30
1877.000
 70
    32
  0
VERTEX
  8
3350LEVEL
 62
13
 10
3584.389
 20
-4685.717
 30
1877.000
 70
    32
  0
VERTEX
  8
3350LEVEL
 62
13
 10
3583.338
 20
-4687.513
 30
1877.000
 70
    32
  0
VERTEX
  8
3350LEVEL
 62
13
 10
3581.847
 20
-4687.566
 30
1877.000
 70
    32
  0
VERTEX
  8
3350LEVEL
 62
13
 10
3574.625
 20
-4683.394
 30
1877.000
 70
    32
  0
VERTEX
  8
3350LEVEL
 62
13
 10
3565.882
 20
-4676.010
 30
1877.000
 70
    32
  0
VERTEX
  8
3350LEVEL
 62
13
 10
3560.281
 20
-4669.908
 30
1877.000
 70
    32
  0
VERTEX
  8
3350LEVEL
 62
13
 10
3552.268
 20
-4660.972
 30
1877.000
 70
    32
  0
VERTEX
  8
3350LEVEL
 62
13
 10
3543.697
 20
-4651.248
 30
1877.000
 70
    32
  0
VERTEX
  8
3350LEVEL
 62
13
 10
3536.188
 20
-4641.679
 30
1877.000
 70
    32
  0
VERTEX
  8
3350LEVEL
 62
13
 10
3526.427
 20
-4627.789
 30
1877.000
 70
    32
  0
VERTEX
  8
3350LEVEL
 62
13
 10
3521.860
 20
-4621.309
 30
1877.000
 70
    32
  0
VERTEX
  8
3350LEVEL
 62
13
 10
3514.308
 20
-4609.540
 30
1877.000
 70
    32
  0
VERTEX
  8
3350LEVEL
 62
13
 10
3507.532
 20
-4598.136
 30
1877.000
 70
    32
  0
VERTEX
  8
3350LEVEL
 62
13
 10
3502.962
 20
-4586.191
 30
1877.000
 70
    32
  0
VERTEX
  8
3350LEVEL
 62
13
 10
3498.526
 20
-4577.833
 30
1877.000
 70
    32
  0
VERTEX
  8
3350LEVEL
 62
13
 10
3490.860
 20
-4566.594
 30
1877.000
 70
    32
  0
VERTEX
  8
3350LEVEL
 62
13
 10
3484.051
 20
-4555.012
 30
1877.000
 70
    32
  0
VERTEX
  8
3350LEVEL
 62
13
 10
3480.116
 20
-4546.234
 30
1877.000
 70
    32
  0
VERTEX
  8
3350LEVEL
 62
13
 10
3480.048
 20
-4543.217
 30
1877.000
 70
    32
  0
VERTEX
  8
3350LEVEL
 62
13
 10
3479.479
 20
-4537.603
 30
1877.000
 70
    32
  0
VERTEX
  8
3350LEVEL
 62
13
 10
3476.086
 20
-4533.764
 30
1877.000
 70
    32
  0
VERTEX
  8
3350LEVEL
 62
13
 10
3470.969
 20
-4528.661
 30
1877.000
 70
    32
  0
VERTEX
  8
3350LEVEL
 62
13
 10
3465.742
 20
-4523.876
 30
1877.000
 70
    32
  0
VERTEX
  8
3350LEVEL
 62
13
 10
3459.366
 20
-4517.338
 30
1877.000
 70
    32
  0
VERTEX
  8
3350LEVEL
 62
13
 10
3451.273
 20
-4509.110
 30
1877.000
 70
    32
  0
VERTEX
  8
3350LEVEL
 62
13
 10
3445.645
 20
-4502.333
 30
1877.000
 70
    32
  0
VERTEX
  8
3350LEVEL
 62
13
 10
3442.165
 20
-4499.770
 30
1877.000
 70
    32
  0
VERTEX
  8
3350LEVEL
 62
13
 10
3440.168
 20
-4500.526
 30
1877.000
 70
    32
  0
VERTEX
  8
3350LEVEL
 62
13
 10
3439.880
 20
-4503.680
 30
1877.000
 70
    32
  0
VERTEX
  8
3350LEVEL
 62
13
 10
3440.557
 20
-4509.118
 30
1877.000
 70
    32
  0
VERTEX
  8
3350LEVEL
 62
13
 10
3437.146
 20
-4515.107
 30
1877.000
 70
    32
  0
VERTEX
  8
3350LEVEL
 62
13
 10
3436.857
 20
-4518.333
 30
1877.000
 70
    32
  0
VERTEX
  8
3350LEVEL
 62
13
 10
3436.922
 20
-4524.507
 30
1877.000
 70
    32
  0
VERTEX
  8
3350LEVEL
 62
13
 10
3435.406
 20
-4526.547
 30
1877.000
 70
    32
  0
VERTEX
  8
3350LEVEL
 62
13
 10
3431.265
 20
-4522.875
 30
1877.000
 70
    32
  0
VERTEX
  8
3350LEVEL
 62
13
 10
3428.360
 20
-4519.681
 30
1877.000
 70
    32
  0
VERTEX
  8
3350LEVEL
 62
13
 10
3424.272
 20
-4514.555
 30
1877.000
 70
    32
  0
VERTEX
  8
3350LEVEL
 62
13
 10
3421.673
 20
-4512.464
 30
1877.000
 70
    32
  0
VERTEX
  8
3350LEVEL
 62
13
 10
3421.235
 20
-4513.452
 30
1877.000
 70
    32
  0
VERTEX
  8
3350LEVEL
 62
13
 10
3420.552
 20
-4514.118
 30
1877.000
 70
    32
  0
VERTEX
  8
3350LEVEL
 62
13
 10
3418.486
 20
-4511.928
 30
1877.000
 70
    32
  0
VERTEX
  8
3350LEVEL
 62
13
 10
3413.389
 20
-4508.138
 30
1877.000
 70
    32
  0
VERTEX
  8
3350LEVEL
 62
13
 10
3411.829
 20
-4508.047
 30
1877.000
 70
    32
  0
VERTEX
  8
3350LEVEL
 62
13
 10
3412.298
 20
-4510.182
 30
1877.000
 70
    32
  0
VERTEX
  8
3350LEVEL
 62
13
 10
3415.241
 20
-4516.074
 30
1877.000
 70
    32
  0
VERTEX
  8
3350LEVEL
 62
13
 10
3421.662
 20
-4524.600
 30
1877.000
 70
    32
  0
VERTEX
  8
3350LEVEL
 62
13
 10
3428.819
 20
-4536.754
 30
1877.000
 70
    32
  0
VERTEX
  8
3350LEVEL
 62
13
 10
3434.152
 20
-4547.253
 30
1877.000
 70
    32
  0
VERTEX
  8
3350LEVEL
 62
13
 10
3437.549
 20
-4556.486
 30
1877.000
 70
    32
  0
VERTEX
  8
3350LEVEL
 62
13
 10
3441.107
 20
-4567.034
 30
1877.000
 70
    32
  0
VERTEX
  8
3350LEVEL
 62
13
 10
3444.723
 20
-4575.773
 30
1877.000
 70
    32
  0
VERTEX
  8
3350LEVEL
 62
13
 10
3446.299
 20
-4583.067
 30
1877.000
 70
    32
  0
VERTEX
  8
3350LEVEL
 62
13
 10
3445.102
 20
-4582.271
 30
1877.000
 70
    32
  0
VERTEX
  8
3350LEVEL
 62
13
 10
3441.292
 20
-4577.717
 30
1877.000
 70
    32
  0
VERTEX
  8
3350LEVEL
 62
13
 10
3436.430
 20
-4572.156
 30
1877.000
 70
    32
  0
VERTEX
  8
3350LEVEL
 62
13
 10
3432.206
 20
-4566.603
 30
1877.000
 70
    32
  0
VERTEX
  8
3350LEVEL
 62
13
 10
3426.900
 20
-4559.581
 30
1877.000
 70
    32
  0
VERTEX
  8
3350LEVEL
 62
13
 10
3424.584
 20
-4557.565
 30
1877.000
 70
    32
  0
VERTEX
  8
3350LEVEL
 62
13
 10
3422.256
 20
-4556.471
 30
1877.000
 70
    32
  0
VERTEX
  8
3350LEVEL
 62
13
 10
3422.488
 20
-4557.787
 30
1877.000
 70
    32
  0
VERTEX
  8
3350LEVEL
 62
13
 10
3423.028
 20
-4559.994
 30
1877.000
 70
    32
  0
VERTEX
  8
3350LEVEL
 62
13
 10
3422.825
 20
-4562.014
 30
1877.000
 70
    32
  0
VERTEX
  8
3350LEVEL
 62
13
 10
3421.406
 20
-4561.996
 30
1877.000
 70
    32
  0
VERTEX
  8
3350LEVEL
 62
13
 10
3419.860
 20
-4560.770
 30
1877.000
 70
    32
  0
VERTEX
  8
3350LEVEL
 62
13
 10
3415.680
 20
-4557.347
 30
1877.000
 70
    32
  0
VERTEX
  8
3350LEVEL
 62
13
 10
3412.149
 20
-4555.954
 30
1877.000
 70
    32
  0
VERTEX
  8
3350LEVEL
 62
13
 10
3411.980
 20
-4558.152
 30
1877.000
 70
    32
  0
VERTEX
  8
3350LEVEL
 62
13
 10
3414.074
 20
-4563.749
 30
1877.000
 70
    32
  0
VERTEX
  8
3350LEVEL
 62
13
 10
3417.585
 20
-4569.577
 30
1877.000
 70
    32
  0
VERTEX
  8
3350LEVEL
 62
13
 10
3426.325
 20
-4579.977
 30
1877.000
 70
    32
  0
VERTEX
  8
3350LEVEL
 62
13
 10
3436.497
 20
-4589.402
 30
1877.000
 70
    32
  0
VERTEX
  8
3350LEVEL
 62
13
 10
3444.334
 20
-4598.229
 30
1877.000
 70
    32
  0
VERTEX
  8
3350LEVEL
 62
13
 10
3449.050
 20
-4606.946
 30
1877.000
 70
    32
  0
VERTEX
  8
3350LEVEL
 62
13
 10
3453.022
 20
-4618.493
 30
1877.000
 70
    32
  0
VERTEX
  8
3350LEVEL
 62
13
 10
3451.896
 20
-4620.501
 30
1877.000
 70
    32
  0
VERTEX
  8
3350LEVEL
 62
13
 10
3449.588
 20
-4620.650
 30
1877.000
 70
    32
  0
VERTEX
  8
3350LEVEL
 62
13
 10
3444.578
 20
-4615.513
 30
1877.000
 70
    32
  0
VERTEX
  8
3350LEVEL
 62
13
 10
3440.354
 20
-4610.031
 30
1877.000
 70
    32
  0
VERTEX
  8
3350LEVEL
 62
13
 10
3437.272
 20
-4603.924
 30
1877.000
 70
    32
  0
VERTEX
  8
3350LEVEL
 62
13
 10
3436.096
 20
-4601.568
 30
1877.000
 70
    32
  0
VERTEX
  8
3350LEVEL
 62
13
 10
3433.314
 20
-4599.865
 30
1877.000
 70
    32
  0
VERTEX
  8
3350LEVEL
 62
13
 10
3431.385
 20
-4600.834
 30
1877.000
 70
    32
  0
VERTEX
  8
3350LEVEL
 62
13
 10
3430.867
 20
-4602.531
 30
1877.000
 70
    32
  0
VERTEX
  8
3350LEVEL
 62
13
 10
3430.005
 20
-4603.372
 30
1877.000
 70
    32
  0
VERTEX
  8
3350LEVEL
 62
13
 10
3427.778
 20
-4602.741
 30
1877.000
 70
    32
  0
VERTEX
  8
3350LEVEL
 62
13
 10
3425.869
 20
-4602.149
 30
1877.000
 70
    32
  0
VERTEX
  8
3350LEVEL
 62
13
 10
3425.749
 20
-4603.247
 30
1877.000
 70
    32
  0
VERTEX
  8
3350LEVEL
 62
13
 10
3426.231
 20
-4604.389
 30
1877.000
 70
    32
  0
VERTEX
  8
3350LEVEL
 62
13
 10
3425.896
 20
-4605.627
 30
1877.000
 70
    32
  0
VERTEX
  8
3350LEVEL
 62
13
 10
3422.384
 20
-4602.744
 30
1877.000
 70
    32
  0
VERTEX
  8
3350LEVEL
 62
13
 10
3418.820
 20
-4598.370
 30
1877.000
 70
    32
  0
VERTEX
  8
3350LEVEL
 62
13
 10
3415.341
 20
-4592.862
 30
1877.000
 70
    32
  0
VERTEX
  8
3350LEVEL
 62
13
 10
3412.033
 20
-4585.014
 30
1877.000
 70
    32
  0
VERTEX
  8
3350LEVEL
 62
13
 10
3409.471
 20
-4579.872
 30
1877.000
 70
    32
  0
VERTEX
  8
3350LEVEL
 62
13
 10
3404.824
 20
-4571.298
 30
1877.000
 70
    32
  0
VERTEX
  8
3350LEVEL
 62
13
 10
3398.806
 20
-4564.551
 30
1877.000
 70
    32
  0
VERTEX
  8
3350LEVEL
 62
13
 10
3396.932
 20
-4561.192
 30
1877.000
 70
    32
  0
VERTEX
  8
3350LEVEL
 62
13
 10
3397.998
 20
-4558.260
 30
1877.000
 70
    32
  0
VERTEX
  8
3350LEVEL
 62
13
 10
3398.397
 20
-4554.717
 30
1877.000
 70
    32
  0
VERTEX
  8
3350LEVEL
 62
13
 10
3397.823
 20
-4552.403
 30
1877.000
 70
    32
  0
VERTEX
  8
3350LEVEL
 62
13
 10
3393.652
 20
-4548.270
 30
1877.000
 70
    32
  0
VERTEX
  8
3350LEVEL
 62
13
 10
3391.647
 20
-4546.932
 30
1877.000
 70
    32
  0
VERTEX
  8
3350LEVEL
 62
13
 10
3384.805
 20
-4543.582
 30
1877.000
 70
    32
  0
VERTEX
  8
3350LEVEL
 62
13
 10
3377.052
 20
-4542.171
 30
1877.000
 70
    32
  0
VERTEX
  8
3350LEVEL
 62
13
 10
3370.653
 20
-4543.085
 30
1877.000
 70
    32
  0
VERTEX
  8
3350LEVEL
 62
13
 10
3366.435
 20
-4545.586
 30
1877.000
 70
    32
  0
VERTEX
  8
3350LEVEL
 62
13
 10
3362.109
 20
-4550.997
 30
1877.000
 70
    32
  0
VERTEX
  8
3350LEVEL
 62
13
 10
3359.503
 20
-4555.009
 30
1877.000
 70
    32
  0
VERTEX
  8
3350LEVEL
 62
13
 10
3357.588
 20
-4557.788
 30
1877.000
 70
    32
  0
VERTEX
  8
3350LEVEL
 62
13
 10
3355.736
 20
-4558.333
 30
1877.000
 70
    32
  0
VERTEX
  8
3350LEVEL
 62
13
 10
3352.430
 20
-4558.823
 30
1877.000
 70
    32
  0
VERTEX
  8
3350LEVEL
 62
13
 10
3348.595
 20
-4559.059
 30
1877.000
 70
    32
  0
VERTEX
  8
3350LEVEL
 62
13
 10
3344.339
 20
-4558.864
 30
1877.000
 70
    32
  0
VERTEX
  8
3350LEVEL
 62
13
 10
3339.475
 20
-4559.122
 30
1877.000
 70
    32
  0
VERTEX
  8
3350LEVEL
 62
13
 10
3338.815
 20
-4560.817
 30
1877.000
 70
    32
  0
VERTEX
  8
3350LEVEL
 62
13
 10
3340.533
 20
-4565.238
 30
1877.000
 70
    32
  0
VERTEX
  8
3350LEVEL
 62
13
 10
3341.671
 20
-4567.914
 30
1877.000
 70
    32
  0
VERTEX
  8
3350LEVEL
 62
13
 10
3340.293
 20
-4570.239
 30
1877.000
 70
    32
  0
VERTEX
  8
3350LEVEL
 62
13
 10
3336.396
 20
-4569.764
 30
1877.000
 70
    32
  0
VERTEX
  8
3350LEVEL
 62
13
 10
3330.361
 20
-4567.098
 30
1877.000
 70
    32
  0
VERTEX
  8
3350LEVEL
 62
13
 10
3323.735
 20
-4563.537
 30
1877.000
 70
    32
  0
VERTEX
  8
3350LEVEL
 62
13
 10
3321.287
 20
-4563.542
 30
1877.000
 70
    32
  0
VERTEX
  8
3350LEVEL
 62
13
 10
3321.931
 20
-4565.927
 30
1877.000
 70
    32
  0
VERTEX
  8
3350LEVEL
 62
13
 10
3325.041
 20
-4569.763
 30
1877.000
 70
    32
  0
VERTEX
  8
3350LEVEL
 62
13
 10
3330.587
 20
-4577.391
 30
1877.000
 70
    32
  0
VERTEX
  8
3350LEVEL
 62
13
 10
3335.604
 20
-4584.763
 30
1877.000
 70
    32
  0
VERTEX
  8
3350LEVEL
 62
13
 10
3339.045
 20
-4590.520
 30
1877.000
 70
    32
  0
VERTEX
  8
3350LEVEL
 62
13
 10
3337.410
 20
-4590.712
 30
1877.000
 70
    32
  0
VERTEX
  8
3350LEVEL
 62
13
 10
3333.191
 20
-4587.607
 30
1877.000
 70
    32
  0
VERTEX
  8
3350LEVEL
 62
13
 10
3325.395
 20
-4581.122
 30
1877.000
 70
    32
  0
VERTEX
  8
3350LEVEL
 62
13
 10
3316.244
 20
-4572.314
 30
1877.000
 70
    32
  0
VERTEX
  8
3350LEVEL
 62
13
 10
3308.475
 20
-4563.700
 30
1877.000
 70
    32
  0
VERTEX
  8
3350LEVEL
 62
13
 10
3299.386
 20
-4555.673
 30
1877.000
 70
    32
  0
VERTEX
  8
3350LEVEL
 62
13
 10
3290.448
 20
-4549.742
 30
1877.000
 70
    32
  0
VERTEX
  8
3350LEVEL
 62
13
 10
3286.175
 20
-4548.091
 30
1877.000
 70
    32
  0
VERTEX
  8
3350LEVEL
 62
13
 10
3283.665
 20
-4550.189
 30
1877.000
 70
    32
  0
VERTEX
  8
3350LEVEL
 62
13
 10
3283.203
 20
-4553.022
 30
1877.000
 70
    32
  0
VERTEX
  8
3350LEVEL
 62
13
 10
3282.542
 20
-4560.465
 30
1877.000
 70
    32
  0
VERTEX
  8
3350LEVEL
 62
13
 10
3280.740
 20
-4565.516
 30
1877.000
 70
    32
  0
VERTEX
  8
3350LEVEL
 62
13
 10
3277.895
 20
-4571.655
 30
1877.000
 70
    32
  0
VERTEX
  8
3350LEVEL
 62
13
 10
3277.049
 20
-4576.825
 30
1877.000
 70
    32
  0
VERTEX
  8
3350LEVEL
 62
13
 10
3277.224
 20
-4585.485
 30
1877.000
 70
    32
  0
VERTEX
  8
3350LEVEL
 62
13
 10
3278.469
 20
-4590.930
 30
1877.000
 70
    32
  0
VERTEX
  8
3350LEVEL
 62
13
 10
3284.089
 20
-4603.952
 30
1877.000
 70
    32
  0
VERTEX
  8
3350LEVEL
 62
13
 10
3286.643
 20
-4612.535
 30
1877.000
 70
    32
  0
VERTEX
  8
3350LEVEL
 62
13
 10
3290.745
 20
-4624.935
 30
1877.000
 70
    32
  0
VERTEX
  8
3350LEVEL
 62
13
 10
3293.848
 20
-4634.945
 30
1877.000
 70
    32
  0
VERTEX
  8
3350LEVEL
 62
13
 10
3295.760
 20
-4640.930
 30
1877.000
 70
    32
  0
VERTEX
  8
3350LEVEL
 62
13
 10
3302.020
 20
-4653.890
 30
1877.000
 70
    32
  0
VERTEX
  8
3350LEVEL
 62
13
 10
3308.848
 20
-4663.982
 30
1877.000
 70
    32
  0
VERTEX
  8
3350LEVEL
 62
13
 10
3317.682
 20
-4678.215
 30
1877.000
 70
    32
  0
VERTEX
  8
3350LEVEL
 62
13
 10
3322.999
 20
-4687.117
 30
1877.000
 70
    32
  0
VERTEX
  8
3350LEVEL
 62
13
 10
3328.204
 20
-4699.283
 30
1877.000
 70
    32
  0
VERTEX
  8
3350LEVEL
 62
13
 10
3332.373
 20
-4714.841
 30
1877.000
 70
    32
  0
VERTEX
  8
3350LEVEL
 62
13
 10
3335.217
 20
-4722.932
 30
1877.000
 70
    32
  0
VERTEX
  8
3350LEVEL
 62
13
 10
3339.361
 20
-4729.194
 30
1877.000
 70
    32
  0
VERTEX
  8
3350LEVEL
 62
13
 10
3344.676
 20
-4732.631
 30
1877.000
 70
    32
  0
VERTEX
  8
3350LEVEL
 62
13
 10
3349.412
 20
-4734.110
 30
1877.000
 70
    32
  0
VERTEX
  8
3350LEVEL
 62
13
 10
3353.040
 20
-4733.375
 30
1877.000
 70
    32
  0
VERTEX
  8
3350LEVEL
 62
13
 10
3353.917
 20
-4731.399
 30
1877.000
 70
    32
  0
VERTEX
  8
3350LEVEL
 62
13
 10
3352.492
 20
-4726.200
 30
1877.000
 70
    32
  0
VERTEX
  8
3350LEVEL
 62
13
 10
3349.094
 20
-4719.842
 30
1877.000
 70
    32
  0
VERTEX
  8
3350LEVEL
 62
13
 10
3344.502
 20
-4712.545
 30
1877.000
 70
    32
  0
VERTEX
  8
3350LEVEL
 62
13
 10
3339.797
 20
-4705.780
 30
1877.000
 70
    32
  0
VERTEX
  8
3350LEVEL
 62
13
 10
3337.484
 20
-4700.606
 30
1877.000
 70
    32
  0
VERTEX
  8
3350LEVEL
 62
13
 10
3336.405
 20
-4693.318
 30
1877.000
 70
    32
  0
VERTEX
  8
3350LEVEL
 62
13
 10
3335.152
 20
-4688.512
 30
1877.000
 70
    32
  0
VERTEX
  8
3350LEVEL
 62
13
 10
3336.216
 20
-4685.793
 30
1877.000
 70
    32
  0
VERTEX
  8
3350LEVEL
 62
13
 10
3337.792
 20
-4684.606
 30
1877.000
 70
    32
  0
VERTEX
  8
3350LEVEL
 62
13
 10
3339.155
 20
-4683.417
 30
1877.000
 70
    32
  0
VERTEX
  8
3350LEVEL
 62
13
 10
3338.688
 20
-4678.266
 30
1877.000
 70
    32
  0
VERTEX
  8
3350LEVEL
 62
13
 10
3338.704
 20
-4674.115
 30
1877.000
 70
    32
  0
VERTEX
  8
3350LEVEL
 62
13
 10
3338.229
 20
-4669.602
 30
1877.000
 70
    32
  0
VERTEX
  8
3350LEVEL
 62
13
 10
3338.631
 20
-4662.972
 30
1877.000
 70
    32
  0
VERTEX
  8
3350LEVEL
 62
13
 10
3339.477
 20
-4657.802
 30
1877.000
 70
    32
  0
VERTEX
  8
3350LEVEL
 62
13
 10
3341.631
 20
-4655.771
 30
1877.000
 70
    32
  0
VERTEX
  8
3350LEVEL
 62
13
 10
3346.602
 20
-4655.550
 30
1877.000
 70
    32
  0
VERTEX
  8
3350LEVEL
 62
13
 10
3350.691
 20
-4657.730
 30
1877.000
 70
    32
  0
VERTEX
  8
3350LEVEL
 62
13
 10
3356.650
 20
-4663.553
 30
1877.000
 70
    32
  0
VERTEX
  8
3350LEVEL
 62
13
 10
3360.493
 20
-4668.356
 30
1877.000
 70
    32
  0
VERTEX
  8
3350LEVEL
 62
13
 10
3364.519
 20
-4669.826
 30
1877.000
 70
    32
  0
VERTEX
  8
3350LEVEL
 62
13
 10
3365.261
 20
-4667.281
 30
1877.000
 70
    32
  0
VERTEX
  8
3350LEVEL
 62
13
 10
3362.785
 20
-4663.808
 30
1877.000
 70
    32
  0
VERTEX
  8
3350LEVEL
 62
13
 10
3358.844
 20
-4658.329
 30
1877.000
 70
    32
  0
VERTEX
  8
3350LEVEL
 62
13
 10
3356.762
 20
-4654.613
 30
1877.000
 70
    32
  0
VERTEX
  8
3350LEVEL
 62
13
 10
3357.109
 20
-4652.453
 30
1877.000
 70
    32
  0
VERTEX
  8
3350LEVEL
 62
13
 10
3357.393
 20
-4652.385
 30
1877.000
 70
    32
  0
VERTEX
  8
3350LEVEL
 62
13
 10
3358.241
 20
-4652.680
 30
1877.000
 70
    32
  0
VERTEX
  8
3350LEVEL
 62
13
 10
3359.019
 20
-4652.902
 30
1877.000
 70
    32
  0
VERTEX
  8
3350LEVEL
 62
13
 10
3361.921
 20
-4656.310
 30
1877.000
 70
    32
  0
VERTEX
  8
3350LEVEL
 62
13
 10
3368.044
 20
-4663.235
 30
1877.000
 70
    32
  0
VERTEX
  8
3350LEVEL
 62
13
 10
3372.243
 20
-4667.901
 30
1877.000
 70
    32
  0
VERTEX
  8
3350LEVEL
 62
13
 10
3377.249
 20
-4670.518
 30
1877.000
 70
    32
  0
VERTEX
  8
3350LEVEL
 62
13
 10
3381.744
 20
-4671.462
 30
1877.000
 70
    32
  0
VERTEX
  8
3350LEVEL
 62
13
 10
3386.995
 20
-4674.331
 30
1877.000
 70
    32
  0
VERTEX
  8
3350LEVEL
 62
13
 10
3388.792
 20
-4678.186
 30
1877.000
 70
    32
  0
VERTEX
  8
3350LEVEL
 62
13
 10
3386.304
 20
-4678.438
 30
1877.000
 70
    32
  0
VERTEX
  8
3350LEVEL
 62
13
 10
3383.231
 20
-4677.371
 30
1877.000
 70
    32
  0
VERTEX
  8
3350LEVEL
 62
13
 10
3378.468
 20
-4675.217
 30
1877.000
 70
    32
  0
VERTEX
  8
3350LEVEL
 62
13
 10
3377.699
 20
-4677.088
 30
1877.000
 70
    32
  0
VERTEX
  8
3350LEVEL
 62
13
 10
3380.233
 20
-4681.556
 30
1877.000
 70
    32
  0
VERTEX
  8
3350LEVEL
 62
13
 10
3385.829
 20
-4690.887
 30
1877.000
 70
    32
  0
VERTEX
  8
3350LEVEL
 62
13
 10
3390.854
 20
-4700.424
 30
1877.000
 70
    32
  0
VERTEX
  8
3350LEVEL
 62
13
 10
3392.557
 20
-4703.249
 30
1877.000
 70
    32
  0
VERTEX
  8
3350LEVEL
 62
13
 10
3393.366
 20
-4703.862
 30
1877.000
 70
    32
  0
VERTEX
  8
3350LEVEL
 62
13
 10
3394.502
 20
-4703.806
 30
1877.000
 70
    32
  0
VERTEX
  8
3350LEVEL
 62
13
 10
3396.957
 20
-4703.233
 30
1877.000
 70
    32
  0
VERTEX
  8
3350LEVEL
 62
13
 10
3399.819
 20
-4704.227
 30
1877.000
 70
    32
  0
VERTEX
  8
3350LEVEL
 62
13
 10
3404.030
 20
-4707.971
 30
1877.000
 70
    32
  0
VERTEX
  8
3350LEVEL
 62
13
 10
3405.647
 20
-4712.001
 30
1877.000
 70
    32
  0
VERTEX
  8
3350LEVEL
 62
13
 10
3404.580
 20
-4715.074
 30
1877.000
 70
    32
  0
VERTEX
  8
3350LEVEL
 62
13
 10
3402.636
 20
-4720.053
 30
1877.000
 70
    32
  0
VERTEX
  8
3350LEVEL
 62
13
 10
3405.271
 20
-4724.983
 30
1877.000
 70
    32
  0
VERTEX
  8
3350LEVEL
 62
13
 10
3410.977
 20
-4731.193
 30
1877.000
 70
    32
  0
VERTEX
  8
3350LEVEL
 62
13
 10
3413.411
 20
-4732.324
 30
1877.000
 70
    32
  0
VERTEX
  8
3350LEVEL
 62
13
 10
3416.469
 20
-4731.865
 30
1877.000
 70
    32
  0
VERTEX
  8
3350LEVEL
 62
13
 10
3419.160
 20
-4729.451
 30
1877.000
 70
    32
  0
VERTEX
  8
3350LEVEL
 62
13
 10
3421.027
 20
-4727.771
 30
1877.000
 70
    32
  0
VERTEX
  8
3350LEVEL
 62
13
 10
3422.420
 20
-4727.043
 30
1877.000
 70
    32
  0
VERTEX
  8
3350LEVEL
 62
13
 10
3425.141
 20
-4727.894
 30
1877.000
 70
    32
  0
VERTEX
  8
3350LEVEL
 62
13
 10
3428.857
 20
-4731.489
 30
1877.000
 70
    32
  0
VERTEX
  8
3350LEVEL
 62
13
 10
3431.226
 20
-4732.193
 30
1877.000
 70
    32
  0
VERTEX
  8
3350LEVEL
 62
13
 10
3432.545
 20
-4728.874
 30
1877.000
 70
    32
  0
VERTEX
  8
3350LEVEL
 62
13
 10
3432.756
 20
-4723.341
 30
1877.000
 70
    32
  0
VERTEX
  8
3350LEVEL
 62
13
 10
3433.836
 20
-4719.274
 30
1877.000
 70
    32
  0
VERTEX
  8
3350LEVEL
 62
13
 10
3435.052
 20
-4718.580
 30
1877.000
 70
    32
  0
VERTEX
  8
3350LEVEL
 62
13
 10
3437.213
 20
-4718.784
 30
1877.000
 70
    32
  0
VERTEX
  8
3350LEVEL
 62
13
 10
3440.440
 20
-4719.002
 30
1877.000
 70
    32
  0
VERTEX
  8
3350LEVEL
 62
13
 10
3442.245
 20
-4716.541
 30
1877.000
 70
    32
  0
VERTEX
  8
3350LEVEL
 62
13
 10
3442.084
 20
-4712.423
 30
1877.000
 70
    32
  0
VERTEX
  8
3350LEVEL
 62
13
 10
3443.054
 20
-4711.477
 30
1877.000
 70
    32
  0
VERTEX
  8
3350LEVEL
 62
13
 10
3447.517
 20
-4714.904
 30
1877.000
 70
    32
  0
VERTEX
  8
3350LEVEL
 62
13
 10
3453.301
 20
-4720.547
 30
1877.000
 70
    32
  0
VERTEX
  8
3350LEVEL
 62
13
 10
3459.105
 20
-4727.433
 30
1877.000
 70
    32
  0
VERTEX
  8
3350LEVEL
 62
13
 10
3466.852
 20
-4737.821
 30
1877.000
 70
    32
  0
VERTEX
  8
3350LEVEL
 62
13
 10
3475.412
 20
-4751.270
 30
1877.000
 70
    32
  0
VERTEX
  8
3350LEVEL
 62
13
 10
3479.258
 20
-4758.593
 30
1877.000
 70
    32
  0
VERTEX
  8
3350LEVEL
 62
13
 10
3487.313
 20
-4769.871
 30
1877.000
 70
    32
  0
VERTEX
  8
3350LEVEL
 62
13
 10
3490.852
 20
-4773.499
 30
1877.000
 70
    32
  0
VERTEX
  8
3350LEVEL
 62
13
 10
3497.023
 20
-4776.522
 30
1877.000
 70
    32
  0
VERTEX
  8
3350LEVEL
 62
13
 10
3502.575
 20
-4778.047
 30
1877.000
 70
    32
  0
VERTEX
  8
3350LEVEL
 62
13
 10
3505.581
 20
-4778.830
 30
1877.000
 70
    32
  0
VERTEX
  8
3350LEVEL
 62
13
 10
3510.139
 20
-4777.609
 30
1877.000
 70
    32
  0
VERTEX
  8
3350LEVEL
 62
13
 10
3512.087
 20
-4775.079
 30
1877.000
 70
    32
  0
VERTEX
  8
3350LEVEL
 62
13
 10
3513.754
 20
-4769.458
 30
1877.000
 70
    32
  0
VERTEX
  8
3350LEVEL
 62
13
 10
3514.035
 20
-4763.997
 30
1877.000
 70
    32
  0
VERTEX
  8
3350LEVEL
 62
13
 10
3512.742
 20
-4759.652
 30
1877.000
 70
    32
  0
VERTEX
  8
3350LEVEL
 62
13
 10
3511.354
 20
-4754.276
 30
1877.000
 70
    32
  0
VERTEX
  8
3350LEVEL
 62
13
 10
3511.695
 20
-4749.739
 30
1877.000
 70
    32
  0
VERTEX
  8
3350LEVEL
 62
13
 10
3513.521
 20
-4742.772
 30
1877.000
 70
    32
  0
VERTEX
  8
3350LEVEL
 62
13
 10
3514.692
 20
-4737.144
 30
1877.000
 70
    32
  0
VERTEX
  8
3350LEVEL
 62
13
 10
3521.807
 20
-4724.389
 30
1877.000
 70
    32
  0
VERTEX
  8
3350LEVEL
 62
13
 10
3523.419
 20
-4723.167
 30
1877.000
 70
    32
  0
VERTEX
  8
3350LEVEL
 62
13
 10
3527.190
 20
-4722.434
 30
1877.000
 70
    32
  0
VERTEX
  8
3350LEVEL
 62
13
 10
3531.069
 20
-4721.524
 30
1877.000
 70
    32
  0
VERTEX
  8
3350LEVEL
 62
13
 10
3533.311
 20
-4720.949
 30
1877.000
 70
    32
  0
VERTEX
  8
3350LEVEL
 62
13
 10
3539.891
 20
-4722.593
 30
1877.000
 70
    32
  0
VERTEX
  8
3350LEVEL
 62
13
 10
3544.757
 20
-4724.996
 30
1877.000
 70
    32
  0
VERTEX
  8
3350LEVEL
 62
13
 10
3547.244
 20
-4724.744
 30
1877.000
 70
    32
  0
VERTEX
  8
3350LEVEL
 62
13
 10
3551.680
 20
-4724.693
 30
1877.000
 70
    32
  0
VERTEX
  8
3350LEVEL
 62
13
 10
3557.009
 20
-4727.066
 30
1877.000
 70
    32
  0
VERTEX
  8
3350LEVEL
 62
13
 10
3561.979
 20
-4732.522
 30
1877.000
 70
    32
  0
VERTEX
  8
3350LEVEL
 62
13
 10
3565.785
 20
-4737.431
 30
1877.000
 70
    32
  0
VERTEX
  8
3350LEVEL
 62
13
 10
3569.856
 20
-4741.031
 30
1877.000
 70
    32
  0
VERTEX
  8
3350LEVEL
 62
13
 10
3575.208
 20
-4744.292
 30
1877.000
 70
    32
  0
VERTEX
  8
3350LEVEL
 62
13
 10
3577.129
 20
-4746.764
 30
1877.000
 70
    32
  0
VERTEX
  8
3350LEVEL
 62
13
 10
3579.376
 20
-4748.637
 30
1877.000
 70
    32
  0
VERTEX
  8
3350LEVEL
 62
13
 10
3581.951
 20
-4749.912
 30
1877.000
 70
    32
  0
VERTEX
  8
3350LEVEL
 62
13
 10
3582.672
 20
-4748.998
 30
1877.000
 70
    32
  0
VERTEX
  8
3350LEVEL
 62
13
 10
3582.502
 20
-4748.393
 30
1877.000
 70
    32
  0
VERTEX
  8
3350LEVEL
 62
13
 10
3582.861
 20
-4748.042
 30
1877.000
 70
    32
  0
VERTEX
  8
3350LEVEL
 62
13
 10
3584.401
 20
-4749.765
 30
1877.000
 70
    32
  0
VERTEX
  8
3350LEVEL
 62
13
 10
3587.407
 20
-4753.351
 30
1877.000
 70
    32
  0
VERTEX
  8
3350LEVEL
 62
13
 10
3590.063
 20
-4756.649
 30
1877.000
 70
    32
  0
VERTEX
  8
3350LEVEL
 62
13
 10
3594.785
 20
-4762.066
 30
1877.000
 70
    32
  0
VERTEX
  8
3350LEVEL
 62
13
 10
3599.321
 20
-4765.352
 30
1877.000
 70
    32
  0
VERTEX
  8
3350LEVEL
 62
13
 10
3601.231
 20
-4765.873
 30
1877.000
 70
    32
  0
VERTEX
  8
3350LEVEL
 62
13
 10
3601.148
 20
-4763.991
 30
1877.000
 70
    32
  0
VERTEX
  8
3350LEVEL
 62
13
 10
3599.623
 20
-4761.063
 30
1877.000
 70
    32
  0
VERTEX
  8
3350LEVEL
 62
13
 10
3596.331
 20
-4754.812
 30
1877.000
 70
    32
  0
VERTEX
  8
3350LEVEL
 62
13
 10
3592.645
 20
-4748.804
 30
1877.000
 70
    32
  0
VERTEX
  8
3350LEVEL
 62
13
 10
3590.945
 20
-4745.767
 30
1877.000
 70
    32
  0
VERTEX
  8
3350LEVEL
 62
13
 10
3590.746
 20
-4744.629
 30
1877.000
 70
    32
  0
VERTEX
  8
3350LEVEL
 62
13
 10
3591.492
 20
-4744.532
 30
1877.000
 70
    32
  0
VERTEX
  8
3350LEVEL
 62
13
 10
3592.548
 20
-4745.254
 30
1877.000
 70
    32
  0
VERTEX
  8
3350LEVEL
 62
13
 10
3596.017
 20
-4748.740
 30
1877.000
 70
    32
  0
VERTEX
  8
3350LEVEL
 62
13
 10
3600.231
 20
-4755.074
 30
1877.000
 70
    32
  0
VERTEX
  8
3350LEVEL
 62
13
 10
3606.212
 20
-4761.926
 30
1877.000
 70
    32
  0
VERTEX
  8
3350LEVEL
 62
13
 10
3610.313
 20
-4765.987
 30
1877.000
 70
    32
  0
VERTEX
  8
3350LEVEL
 62
13
 10
3616.874
 20
-4771.924
 30
1877.000
 70
    32
  0
VERTEX
  8
3350LEVEL
 62
13
 10
3622.074
 20
-4776.035
 30
1877.000
 70
    32
  0
VERTEX
  8
3350LEVEL
 62
13
 10
3622.832
 20
-4775.015
 30
1877.000
 70
    32
  0
VERTEX
  8
3350LEVEL
 62
13
 10
3622.285
 20
-4773.376
 30
1877.000
 70
    32
  0
VERTEX
  8
3350LEVEL
 62
13
 10
3622.435
 20
-4772.739
 30
1877.000
 70
    32
  0
VERTEX
  8
3350LEVEL
 62
13
 10
3624.360
 20
-4774.857
 30
1877.000
 70
    32
  0
VERTEX
  8
3350LEVEL
 62
13
 10
3626.847
 20
-4777.408
 30
1877.000
 70
    32
  0
VERTEX
  8
3350LEVEL
 62
13
 10
3631.660
 20
-4781.265
 30
1877.000
 70
    32
  0
VERTEX
  8
3350LEVEL
 62
13
 10
3640.108
 20
-4786.623
 30
1877.000
 70
    32
  0
VERTEX
  8
3350LEVEL
 62
13
 10
3647.941
 20
-4790.198
 30
1877.000
 70
    32
  0
VERTEX
  8
3350LEVEL
 62
13
 10
3657.454
 20
-4792.766
 30
1877.000
 70
    32
  0
VERTEX
  8
3350LEVEL
 62
13
 10
3662.549
 20
-4793.895
 30
1877.000
 70
    32
  0
VERTEX
  8
3350LEVEL
 62
13
 10
3671.001
 20
-4796.165
 30
1877.000
 70
    32
  0
VERTEX
  8
3350LEVEL
 62
13
 10
3678.343
 20
-4799.238
 30
1877.000
 70
    32
  0
VERTEX
  8
3350LEVEL
 62
13
 10
3682.644
 20
-4801.492
 30
1877.000
 70
    32
  0
VERTEX
  8
3350LEVEL
 62
13
 10
3687.176
 20
-4805.133
 30
1877.000
 70
    32
  0
VERTEX
  8
3350LEVEL
 62
13
 10
3687.725
 20
-4806.630
 30
1877.000
 70
    32
  0
VERTEX
  8
3350LEVEL
 62
13
 10
3689.189
 20
-4808.707
 30
1877.000
 70
    32
  0
VERTEX
  8
3350LEVEL
 62
13
 10
3690.551
 20
-4810.463
 30
1877.000
 70
    32
  0
VERTEX
  8
3350LEVEL
 62
13
 10
3691.513
 20
-4812.958
 30
1877.000
 70
    32
  0
VERTEX
  8
3350LEVEL
 62
13
 10
3692.060
 20
-4814.598
 30
1877.000
 70
    32
  0
VERTEX
  8
3350LEVEL
 62
13
 10
3693.744
 20
-4816.109
 30
1877.000
 70
    32
  0
VERTEX
  8
3350LEVEL
 62
13
 10
3695.179
 20
-4817.724
 30
1877.000
 70
    32
  0
VERTEX
  8
3350LEVEL
 62
13
 10
3695.546
 20
-4819.538
 30
1877.000
 70
    32
  0
VERTEX
  8
3350LEVEL
 62
13
 10
3691.921
 20
-4819.989
 30
1877.000
 70
    32
  0
VERTEX
  8
3350LEVEL
 62
13
 10
3688.460
 20
-4818.739
 30
1877.000
 70
    32
  0
VERTEX
  8
3350LEVEL
 62
13
 10
3683.229
 20
-4817.041
 30
1877.000
 70
    32
  0
VERTEX
  8
3350LEVEL
 62
13
 10
3681.348
 20
-4817.124
 30
1877.000
 70
    32
  0
VERTEX
  8
3350LEVEL
 62
13
 10
3681.518
 20
-4817.659
 30
1877.000
 70
    32
  0
VERTEX
  8
3350LEVEL
 62
13
 10
3682.168
 20
-4819.618
 30
1877.000
 70
    32
  0
VERTEX
  8
3350LEVEL
 62
13
 10
3682.835
 20
-4820.062
 30
1877.000
 70
    32
  0
SEQEND
  8
3350LEVEL
  0
POLYLINE
  8
3350LEVEL
 62
13
 66
     1
 70
     8
  0
VERTEX
  8
3350LEVEL
 62
13
 10
3765.533
 20
-4497.223
 30
1877.000
 70
    32
  0
VERTEX
  8
3350LEVEL
 62
13
 10
3763.672
 20
-4494.881
 30
1877.000
 70
    32
  0
VERTEX
  8
3350LEVEL
 62
13
 10
3760.937
 20
-4492.313
 30
1877.000
 70
    32
  0
VERTEX
  8
3350LEVEL
 62
13
 10
3755.417
 20
-4485.431
 30
1877.000
 70
    32
  0
VERTEX
  8
3350LEVEL
 62
13
 10
3752.249
 20
-4480.601
 30
1877.000
 70
    32
  0
VERTEX
  8
3350LEVEL
 62
13
 10
3750.076
 20
-4475.570
 30
1877.000
 70
    32
  0
VERTEX
  8
3350LEVEL
 62
13
 10
3750.376
 20
-4471.494
 30
1877.000
 70
    32
  0
VERTEX
  8
3350LEVEL
 62
13
 10
3753.123
 20
-4470.286
 30
1877.000
 70
    32
  0
VERTEX
  8
3350LEVEL
 62
13
 10
3756.110
 20
-4469.827
 30
1877.000
 70
    32
  0
VERTEX
  8
3350LEVEL
 62
13
 10
3756.096
 20
-4468.088
 30
1877.000
 70
    32
  0
VERTEX
  8
3350LEVEL
 62
13
 10
3755.124
 20
-4460.695
 30
1877.000
 70
    32
  0
VERTEX
  8
3350LEVEL
 62
13
 10
3756.022
 20
-4457.016
 30
1877.000
 70
    32
  0
VERTEX
  8
3350LEVEL
 62
13
 10
3757.464
 20
-4455.189
 30
1877.000
 70
    32
  0
VERTEX
  8
3350LEVEL
 62
13
 10
3759.503
 20
-4456.705
 30
1877.000
 70
    32
  0
VERTEX
  8
3350LEVEL
 62
13
 10
3766.571
 20
-4464.671
 30
1877.000
 70
    32
  0
VERTEX
  8
3350LEVEL
 62
13
 10
3770.233
 20
-4469.791
 30
1877.000
 70
    32
  0
VERTEX
  8
3350LEVEL
 62
13
 10
3774.361
 20
-4474.456
 30
1877.000
 70
    32
  0
VERTEX
  8
3350LEVEL
 62
13
 10
3777.501
 20
-4478.683
 30
1877.000
 70
    32
  0
VERTEX
  8
3350LEVEL
 62
13
 10
3779.524
 20
-4481.476
 30
1877.000
 70
    32
  0
VERTEX
  8
3350LEVEL
 62
13
 10
3780.321
 20
-4484.040
 30
1877.000
 70
    32
  0
SEQEND
  8
3350LEVEL
  0
POLYLINE
  8
3350LEVEL
 62
7
 66
     1
 70
     8
  0
VERTEX
  8
3350LEVEL
 62
7
 10
3529.809
 20
-5163.599
 30
1877.000
 70
    32
  0
VERTEX
  8
3350LEVEL
 62
7
 10
3526.014
 20
-5160.642
 30
1877.000
 70
    32
  0
VERTEX
  8
3350LEVEL
 62
7
 10
3519.276
 20
-5154.738
 30
1877.000
 70
    32
  0
VERTEX
  8
3350LEVEL
 62
7
 10
3514.377
 20
-5152.015
 30
1877.000
 70
    32
  0
VERTEX
  8
3350LEVEL
 62
7
 10
3510.059
 20
-5148.377
 30
1877.000
 70
    32
  0
VERTEX
  8
3350LEVEL
 62
7
 10
3506.943
 20
-5145.038
 30
1877.000
 70
    32
  0
VERTEX
  8
3350LEVEL
 62
7
 10
3503.218
 20
-5142.152
 30
1877.000
 70
    32
  0
VERTEX
  8
3350LEVEL
 62
7
 10
3500.537
 20
-5140.841
 30
1877.000
 70
    32
  0
VERTEX
  8
3350LEVEL
 62
7
 10
3499.330
 20
-5140.897
 30
1877.000
 70
    32
  0
VERTEX
  8
3350LEVEL
 62
7
 10
3498.757
 20
-5141.316
 30
1877.000
 70
    32
  0
VERTEX
  8
3350LEVEL
 62
7
 10
3498.133
 20
-5142.976
 30
1877.000
 70
    32
  0
VERTEX
  8
3350LEVEL
 62
7
 10
3495.305
 20
-5142.159
 30
1877.000
 70
    32
  0
VERTEX
  8
3350LEVEL
 62
7
 10
3493.827
 20
-5141.147
 30
1877.000
 70
    32
  0
VERTEX
  8
3350LEVEL
 62
7
 10
3494.934
 20
-5140.629
 30
1877.000
 70
    32
  0
VERTEX
  8
3350LEVEL
 62
7
 10
3494.532
 20
-5138.708
 30
1877.000
 70
    32
  0
VERTEX
  8
3350LEVEL
 62
7
 10
3492.710
 20
-5136.840
 30
1877.000
 70
    32
  0
VERTEX
  8
3350LEVEL
 62
7
 10
3492.321
 20
-5136.728
 30
1877.000
 70
    32
  0
VERTEX
  8
3350LEVEL
 62
7
 10
3492.140
 20
-5137.046
 30
1877.000
 70
    32
  0
VERTEX
  8
3350LEVEL
 62
7
 10
3491.457
 20
-5137.711
 30
1877.000
 70
    32
  0
VERTEX
  8
3350LEVEL
 62
7
 10
3490.260
 20
-5136.986
 30
1877.000
 70
    32
  0
VERTEX
  8
3350LEVEL
 62
7
 10
3490.175
 20
-5135.247
 30
1877.000
 70
    32
  0
VERTEX
  8
3350LEVEL
 62
7
 10
3489.109
 20
-5129.769
 30
1877.000
 70
    32
  0
VERTEX
  8
3350LEVEL
 62
7
 10
3488.551
 20
-5126.178
 30
1877.000
 70
    32
  0
VERTEX
  8
3350LEVEL
 62
7
 10
3487.608
 20
-5122.121
 30
1877.000
 70
    32
  0
VERTEX
  8
3350LEVEL
 62
7
 10
3485.556
 20
-5118.795
 30
1877.000
 70
    32
  0
VERTEX
  8
3350LEVEL
 62
7
 10
3481.791
 20
-5113.496
 30
1877.000
 70
    32
  0
VERTEX
  8
3350LEVEL
 62
7
 10
3481.575
 20
-5110.903
 30
1877.000
 70
    32
  0
VERTEX
  8
3350LEVEL
 62
7
 10
3481.727
 20
-5107.250
 30
1877.000
 70
    32
  0
VERTEX
  8
3350LEVEL
 62
7
 10
3482.786
 20
-5102.012
 30
1877.000
 70
    32
  0
VERTEX
  8
3350LEVEL
 62
7
 10
3482.993
 20
-5094.031
 30
1877.000
 70
    32
  0
VERTEX
  8
3350LEVEL
 62
7
 10
3482.171
 20
-5088.875
 30
1877.000
 70
    32
  0
VERTEX
  8
3350LEVEL
 62
7
 10
3482.133
 20
-5080.572
 30
1877.000
 70
    32
  0
VERTEX
  8
3350LEVEL
 62
7
 10
3482.920
 20
-5071.604
 30
1877.000
 70
    32
  0
VERTEX
  8
3350LEVEL
 62
7
 10
3482.222
 20
-5059.389
 30
1877.000
 70
    32
  0
VERTEX
  8
3350LEVEL
 62
7
 10
3480.275
 20
-5050.565
 30
1877.000
 70
    32
  0
VERTEX
  8
3350LEVEL
 62
7
 10
3477.995
 20
-5045.568
 30
1877.000
 70
    32
  0
VERTEX
  8
3350LEVEL
 62
7
 10
3473.869
 20
-5040.762
 30
1877.000
 70
    32
  0
VERTEX
  8
3350LEVEL
 62
7
 10
3465.165
 20
-5030.256
 30
1877.000
 70
    32
  0
VERTEX
  8
3350LEVEL
 62
7
 10
3456.552
 20
-5021.064
 30
1877.000
 70
    32
  0
VERTEX
  8
3350LEVEL
 62
7
 10
3448.630
 20
-5013.300
 30
1877.000
 70
    32
  0
VERTEX
  8
3350LEVEL
 62
7
 10
3439.946
 20
-5004.107
 30
1877.000
 70
    32
  0
VERTEX
  8
3350LEVEL
 62
7
 10
3433.600
 20
-4997.959
 30
1877.000
 70
    32
  0
VERTEX
  8
3350LEVEL
 62
7
 10
3429.564
 20
-4994.396
 30
1877.000
 70
    32
  0
VERTEX
  8
3350LEVEL
 62
7
 10
3421.778
 20
-4990.005
 30
1877.000
 70
    32
  0
VERTEX
  8
3350LEVEL
 62
7
 10
3416.720
 20
-4988.699
 30
1877.000
 70
    32
  0
VERTEX
  8
3350LEVEL
 62
7
 10
3409.635
 20
-4987.759
 30
1877.000
 70
    32
  0
VERTEX
  8
3350LEVEL
 62
7
 10
3404.395
 20
-4986.841
 30
1877.000
 70
    32
  0
VERTEX
  8
3350LEVEL
 62
7
 10
3398.769
 20
-4985.599
 30
1877.000
 70
    32
  0
VERTEX
  8
3350LEVEL
 62
7
 10
3396.276
 20
-4983.475
 30
1877.000
 70
    32
  0
VERTEX
  8
3350LEVEL
 62
7
 10
3393.255
 20
-4981.024
 30
1877.000
 70
    32
  0
VERTEX
  8
3350LEVEL
 62
7
 10
3392.256
 20
-4981.437
 30
1877.000
 70
    32
  0
VERTEX
  8
3350LEVEL
 62
7
 10
3391.251
 20
-4982.418
 30
1877.000
 70
    32
  0
VERTEX
  8
3350LEVEL
 62
7
 10
3389.728
 20
-4982.150
 30
1877.000
 70
    32
  0
VERTEX
  8
3350LEVEL
 62
7
 10
3389.062
 20
-4981.539
 30
1877.000
 70
    32
  0
VERTEX
  8
3350LEVEL
 62
7
 10
3388.421
 20
-4981.673
 30
1877.000
 70
    32
  0
VERTEX
  8
3350LEVEL
 62
7
 10
3387.462
 20
-4984.570
 30
1877.000
 70
    32
  0
VERTEX
  8
3350LEVEL
 62
7
 10
3387.111
 20
-4987.085
 30
1877.000
 70
    32
  0
VERTEX
  8
3350LEVEL
 62
7
 10
3387.037
 20
-4990.171
 30
1877.000
 70
    32
  0
VERTEX
  8
3350LEVEL
 62
7
 10
3386.001
 20
-4990.762
 30
1877.000
 70
    32
  0
VERTEX
  8
3350LEVEL
 62
7
 10
3383.881
 20
-4987.222
 30
1877.000
 70
    32
  0
VERTEX
  8
3350LEVEL
 62
7
 10
3380.441
 20
-4978.592
 30
1877.000
 70
    32
  0
VERTEX
  8
3350LEVEL
 62
7
 10
3377.658
 20
-4965.676
 30
1877.000
 70
    32
  0
VERTEX
  8
3350LEVEL
 62
7
 10
3376.232
 20
-4957.746
 30
1877.000
 70
    32
  0
VERTEX
  8
3350LEVEL
 62
7
 10
3374.309
 20
-4946.934
 30
1877.000
 70
    32
  0
VERTEX
  8
3350LEVEL
 62
7
 10
3371.102
 20
-4936.746
 30
1877.000
 70
    32
  0
VERTEX
  8
3350LEVEL
 62
7
 10
3368.676
 20
-4929.299
 30
1877.000
 70
    32
  0
VERTEX
  8
3350LEVEL
 62
7
 10
3365.063
 20
-4923.151
 30
1877.000
 70
    32
  0
VERTEX
  8
3350LEVEL
 62
7
 10
3363.178
 20
-4920.643
 30
1877.000
 70
    32
  0
VERTEX
  8
3350LEVEL
 62
7
 10
3361.249
 20
-4916.077
 30
1877.000
 70
    32
  0
VERTEX
  8
3350LEVEL
 62
7
 10
3360.991
 20
-4911.142
 30
1877.000
 70
    32
  0
VERTEX
  8
3350LEVEL
 62
7
 10
3358.523
 20
-4904.227
 30
1877.000
 70
    32
  0
VERTEX
  8
3350LEVEL
 62
7
 10
3355.916
 20
-4899.900
 30
1877.000
 70
    32
  0
VERTEX
  8
3350LEVEL
 62
7
 10
3352.070
 20
-4892.578
 30
1877.000
 70
    32
  0
VERTEX
  8
3350LEVEL
 62
7
 10
3349.207
 20
-4885.978
 30
1877.000
 70
    32
  0
VERTEX
  8
3350LEVEL
 62
7
 10
3347.867
 20
-4879.716
 30
1877.000
 70
    32
  0
VERTEX
  8
3350LEVEL
 62
7
 10
3347.448
 20
-4873.536
 30
1877.000
 70
    32
  0
VERTEX
  8
3350LEVEL
 62
7
 10
3347.858
 20
-4869.141
 30
1877.000
 70
    32
  0
VERTEX
  8
3350LEVEL
 62
7
 10
3349.629
 20
-4866.502
 30
1877.000
 70
    32
  0
VERTEX
  8
3350LEVEL
 62
7
 10
3352.688
 20
-4865.973
 30
1877.000
 70
    32
  0
VERTEX
  8
3350LEVEL
 62
7
 10
3355.951
 20
-4866.085
 30
1877.000
 70
    32
  0
VERTEX
  8
3350LEVEL
 62
7
 10
3359.285
 20
-4866.198
 30
1877.000
 70
    32
  0
VERTEX
  8
3350LEVEL
 62
7
 10
3360.596
 20
-4863.518
 30
1877.000
 70
    32
  0
VERTEX
  8
3350LEVEL
 62
7
 10
3361.700
 20
-4860.338
 30
1877.000
 70
    32
  0
VERTEX
  8
3350LEVEL
 62
7
 10
3360.833
 20
-4855.927
 30
1877.000
 70
    32
  0
VERTEX
  8
3350LEVEL
 62
7
 10
3359.565
 20
-4852.398
 30
1877.000
 70
    32
  0
VERTEX
  8
3350LEVEL
 62
7
 10
3357.533
 20
-4847.511
 30
1877.000
 70
    32
  0
VERTEX
  8
3350LEVEL
 62
7
 10
3357.412
 20
-4845.807
 30
1877.000
 70
    32
  0
VERTEX
  8
3350LEVEL
 62
7
 10
3359.000
 20
-4846.501
 30
1877.000
 70
    32
  0
VERTEX
  8
3350LEVEL
 62
7
 10
3360.453
 20
-4849.500
 30
1877.000
 70
    32
  0
VERTEX
  8
3350LEVEL
 62
7
 10
3361.933
 20
-4853.102
 30
1877.000
 70
    32
  0
VERTEX
  8
3350LEVEL
 62
7
 10
3363.305
 20
-4856.881
 30
1877.000
 70
    32
  0
VERTEX
  8
3350LEVEL
 62
7
 10
3364.175
 20
-4858.275
 30
1877.000
 70
    32
  0
VERTEX
  8
3350LEVEL
 62
7
 10
3364.942
 20
-4856.546
 30
1877.000
 70
    32
  0
VERTEX
  8
3350LEVEL
 62
7
 10
3364.732
 20
-4850.653
 30
1877.000
 70
    32
  0
VERTEX
  8
3350LEVEL
 62
7
 10
3363.384
 20
-4844.959
 30
1877.000
 70
    32
  0
VERTEX
  8
3350LEVEL
 62
7
 10
3363.153
 20
-4840.769
 30
1877.000
 70
    32
  0
VERTEX
  8
3350LEVEL
 62
7
 10
3363.635
 20
-4839.107
 30
1877.000
 70
    32
  0
VERTEX
  8
3350LEVEL
 62
7
 10
3364.589
 20
-4839.439
 30
1877.000
 70
    32
  0
VERTEX
  8
3350LEVEL
 62
7
 10
3367.365
 20
-4844.441
 30
1877.000
 70
    32
  0
VERTEX
  8
3350LEVEL
 62
7
 10
3369.596
 20
-4847.592
 30
1877.000
 70
    32
  0
VERTEX
  8
3350LEVEL
 62
7
 10
3374.488
 20
-4853.615
 30
1877.000
 70
    32
  0
VERTEX
  8
3350LEVEL
 62
7
 10
3378.806
 20
-4860.127
 30
1877.000
 70
    32
  0
VERTEX
  8
3350LEVEL
 62
7
 10
3381.521
 20
-4864.348
 30
1877.000
 70
    32
  0
VERTEX
  8
3350LEVEL
 62
7
 10
3383.724
 20
-4866.895
 30
1877.000
 70
    32
  0
VERTEX
  8
3350LEVEL
 62
7
 10
3384.320
 20
-4864.703
 30
1877.000
 70
    32
  0
VERTEX
  8
3350LEVEL
 62
7
 10
3384.133
 20
-4862.571
 30
1877.000
 70
    32
  0
VERTEX
  8
3350LEVEL
 62
7
 10
3384.727
 20
-4863.324
 30
1877.000
 70
    32
  0
VERTEX
  8
3350LEVEL
 62
7
 10
3385.358
 20
-4863.971
 30
1877.000
 70
    32
  0
VERTEX
  8
3350LEVEL
 62
7
 10
3385.417
 20
-4862.091
 30
1877.000
 70
    32
  0
VERTEX
  8
3350LEVEL
 62
7
 10
3384.741
 20
-4859.385
 30
1877.000
 70
    32
  0
VERTEX
  8
3350LEVEL
 62
7
 10
3385.808
 20
-4859.186
 30
1877.000
 70
    32
  0
VERTEX
  8
3350LEVEL
 62
7
 10
3388.880
 20
-4860.395
 30
1877.000
 70
    32
  0
VERTEX
  8
3350LEVEL
 62
7
 10
3390.777
 20
-4861.910
 30
1877.000
 70
    32
  0
VERTEX
  8
3350LEVEL
 62
7
 10
3390.891
 20
-4861.308
 30
1877.000
 70
    32
  0
VERTEX
  8
3350LEVEL
 62
7
 10
3391.188
 20
-4860.318
 30
1877.000
 70
    32
  0
VERTEX
  8
3350LEVEL
 62
7
 10
3392.422
 20
-4860.937
 30
1877.000
 70
    32
  0
VERTEX
  8
3350LEVEL
 62
7
 10
3393.067
 20
-4860.448
 30
1877.000
 70
    32
  0
VERTEX
  8
3350LEVEL
 62
7
 10
3393.857
 20
-4859.677
 30
1877.000
 70
    32
  0
VERTEX
  8
3350LEVEL
 62
7
 10
3395.095
 20
-4860.012
 30
1877.000
 70
    32
  0
VERTEX
  8
3350LEVEL
 62
7
 10
3396.155
 20
-4860.309
 30
1877.000
 70
    32
  0
VERTEX
  8
3350LEVEL
 62
7
 10
3397.862
 20
-4857.244
 30
1877.000
 70
    32
  0
VERTEX
  8
3350LEVEL
 62
7
 10
3396.399
 20
-4852.222
 30
1877.000
 70
    32
  0
VERTEX
  8
3350LEVEL
 62
7
 10
3392.330
 20
-4845.607
 30
1877.000
 70
    32
  0
VERTEX
  8
3350LEVEL
 62
7
 10
3389.032
 20
-4839.852
 30
1877.000
 70
    32
  0
VERTEX
  8
3350LEVEL
 62
7
 10
3386.371
 20
-4836.980
 30
1877.000
 70
    32
  0
VERTEX
  8
3350LEVEL
 62
7
 10
3384.072
 20
-4833.545
 30
1877.000
 70
    32
  0
VERTEX
  8
3350LEVEL
 62
7
 10
3384.796
 20
-4832.418
 30
1877.000
 70
    32
  0
VERTEX
  8
3350LEVEL
 62
7
 10
3388.667
 20
-4834.951
 30
1877.000
 70
    32
  0
VERTEX
  8
3350LEVEL
 62
7
 10
3391.655
 20
-4837.224
 30
1877.000
 70
    32
  0
VERTEX
  8
3350LEVEL
 62
7
 10
3394.587
 20
-4838.290
 30
1877.000
 70
    32
  0
VERTEX
  8
3350LEVEL
 62
7
 10
3397.088
 20
-4836.902
 30
1877.000
 70
    32
  0
VERTEX
  8
3350LEVEL
 62
7
 10
3397.968
 20
-4834.642
 30
1877.000
 70
    32
  0
VERTEX
  8
3350LEVEL
 62
7
 10
3398.819
 20
-4831.849
 30
1877.000
 70
    32
  0
VERTEX
  8
3350LEVEL
 62
7
 10
3399.112
 20
-4828.340
 30
1877.000
 70
    32
  0
VERTEX
  8
3350LEVEL
 62
7
 10
3399.588
 20
-4827.175
 30
1877.000
 70
    32
  0
VERTEX
  8
3350LEVEL
 62
7
 10
3399.942
 20
-4827.251
 30
1877.000
 70
    32
  0
VERTEX
  8
3350LEVEL
 62
7
 10
3402.693
 20
-4831.366
 30
1877.000
 70
    32
  0
VERTEX
  8
3350LEVEL
 62
7
 10
3405.842
 20
-4837.757
 30
1877.000
 70
    32
  0
VERTEX
  8
3350LEVEL
 62
7
 10
3410.606
 20
-4845.446
 30
1877.000
 70
    32
  0
VERTEX
  8
3350LEVEL
 62
7
 10
3414.806
 20
-4852.915
 30
1877.000
 70
    32
  0
VERTEX
  8
3350LEVEL
 62
7
 10
3421.585
 20
-4861.303
 30
1877.000
 70
    32
  0
VERTEX
  8
3350LEVEL
 62
7
 10
3424.800
 20
-4865.247
 30
1877.000
 70
    32
  0
VERTEX
  8
3350LEVEL
 62
7
 10
3429.218
 20
-4869.418
 30
1877.000
 70
    32
  0
VERTEX
  8
3350LEVEL
 62
7
 10
3431.083
 20
-4870.684
 30
1877.000
 70
    32
  0
VERTEX
  8
3350LEVEL
 62
7
 10
3431.565
 20
-4869.022
 30
1877.000
 70
    32
  0
VERTEX
  8
3350LEVEL
 62
7
 10
3432.035
 20
-4868.354
 30
1877.000
 70
    32
  0
VERTEX
  8
3350LEVEL
 62
7
 10
3433.933
 20
-4869.797
 30
1877.000
 70
    32
  0
VERTEX
  8
3350LEVEL
 62
7
 10
3435.095
 20
-4870.486
 30
1877.000
 70
    32
  0
VERTEX
  8
3350LEVEL
 62
7
 10
3435.451
 20
-4870.419
 30
1877.000
 70
    32
  0
VERTEX
  8
3350LEVEL
 62
7
 10
3439.464
 20
-4875.757
 30
1877.000
 70
    32
  0
VERTEX
  8
3350LEVEL
 62
7
 10
3445.435
 20
-4883.461
 30
1877.000
 70
    32
  0
VERTEX
  8
3350LEVEL
 62
7
 10
3451.783
 20
-4892.198
 30
1877.000
 70
    32
  0
VERTEX
  8
3350LEVEL
 62
7
 10
3457.778
 20
-4897.986
 30
1877.000
 70
    32
  0
VERTEX
  8
3350LEVEL
 62
7
 10
3461.952
 20
-4901.907
 30
1877.000
 70
    32
  0
VERTEX
  8
3350LEVEL
 62
7
 10
3466.184
 20
-4903.947
 30
1877.000
 70
    32
  0
VERTEX
  8
3350LEVEL
 62
7
 10
3469.614
 20
-4904.948
 30
1877.000
 70
    32
  0
VERTEX
  8
3350LEVEL
 62
7
 10
3472.531
 20
-4907.149
 30
1877.000
 70
    32
  0
VERTEX
  8
3350LEVEL
 62
7
 10
3476.456
 20
-4911.031
 30
1877.000
 70
    32
  0
VERTEX
  8
3350LEVEL
 62
7
 10
3480.094
 20
-4915.192
 30
1877.000
 70
    32
  0
VERTEX
  8
3350LEVEL
 62
7
 10
3481.458
 20
-4916.806
 30
1877.000
 70
    32
  0
VERTEX
  8
3350LEVEL
 62
7
 10
3481.930
 20
-4915.925
 30
1877.000
 70
    32
  0
VERTEX
  8
3350LEVEL
 62
7
 10
3481.387
 20
-4914.002
 30
1877.000
 70
    32
  0
VERTEX
  8
3350LEVEL
 62
7
 10
3481.787
 20
-4913.191
 30
1877.000
 70
    32
  0
VERTEX
  8
3350LEVEL
 62
7
 10
3484.983
 20
-4915.822
 30
1877.000
 70
    32
  0
VERTEX
  8
3350LEVEL
 62
7
 10
3489.515
 20
-4919.462
 30
1877.000
 70
    32
  0
VERTEX
  8
3350LEVEL
 62
7
 10
3491.516
 20
-4921.155
 30
1877.000
 70
    32
  0
VERTEX
  8
3350LEVEL
 62
7
 10
3492.955
 20
-4922.415
 30
1877.000
 70
    32
  0
VERTEX
  8
3350LEVEL
 62
7
 10
3494.888
 20
-4923.894
 30
1877.000
 70
    32
  0
VERTEX
  8
3350LEVEL
 62
7
 10
3493.774
 20
-4919.374
 30
1877.000
 70
    32
  0
VERTEX
  8
3350LEVEL
 62
7
 10
3491.452
 20
-4914.980
 30
1877.000
 70
    32
  0
VERTEX
  8
3350LEVEL
 62
7
 10
3488.963
 20
-4909.697
 30
1877.000
 70
    32
  0
VERTEX
  8
3350LEVEL
 62
7
 10
3489.073
 20
-4906.647
 30
1877.000
 70
    32
  0
VERTEX
  8
3350LEVEL
 62
7
 10
3489.049
 20
-4902.886
 30
1877.000
 70
    32
  0
VERTEX
  8
3350LEVEL
 62
7
 10
3487.099
 20
-4899.951
 30
1877.000
 70
    32
  0
VERTEX
  8
3350LEVEL
 62
7
 10
3482.173
 20
-4893.751
 30
1877.000
 70
    32
  0
VERTEX
  8
3350LEVEL
 62
7
 10
3481.383
 20
-4891.718
 30
1877.000
 70
    32
  0
VERTEX
  8
3350LEVEL
 62
7
 10
3483.697
 20
-4888.270
 30
1877.000
 70
    32
  0
VERTEX
  8
3350LEVEL
 62
7
 10
3483.194
 20
-4885.957
 30
1877.000
 70
    32
  0
VERTEX
  8
3350LEVEL
 62
7
 10
3482.265
 20
-4883.639
 30
1877.000
 70
    32
  0
VERTEX
  8
3350LEVEL
 62
7
 10
3483.659
 20
-4882.841
 30
1877.000
 70
    32
  0
VERTEX
  8
3350LEVEL
 62
7
 10
3488.209
 20
-4884.991
 30
1877.000
 70
    32
  0
VERTEX
  8
3350LEVEL
 62
7
 10
3493.197
 20
-4889.028
 30
1877.000
 70
    32
  0
VERTEX
  8
3350LEVEL
 62
7
 10
3496.855
 20
-4894.432
 30
1877.000
 70
    32
  0
VERTEX
  8
3350LEVEL
 62
7
 10
3505.180
 20
-4903.975
 30
1877.000
 70
    32
  0
VERTEX
  8
3350LEVEL
 62
7
 10
3513.270
 20
-4909.683
 30
1877.000
 70
    32
  0
VERTEX
  8
3350LEVEL
 62
7
 10
3519.678
 20
-4910.864
 30
1877.000
 70
    32
  0
VERTEX
  8
3350LEVEL
 62
7
 10
3528.960
 20
-4914.848
 30
1877.000
 70
    32
  0
VERTEX
  8
3350LEVEL
 62
7
 10
3533.048
 20
-4917.029
 30
1877.000
 70
    32
  0
VERTEX
  8
3350LEVEL
 62
7
 10
3538.380
 20
-4919.118
 30
1877.000
 70
    32
  0
VERTEX
  8
3350LEVEL
 62
7
 10
3541.637
 20
-4916.924
 30
1877.000
 70
    32
  0
VERTEX
  8
3350LEVEL
 62
7
 10
3543.568
 20
-4915.741
 30
1877.000
 70
    32
  0
VERTEX
  8
3350LEVEL
 62
7
 10
3545.238
 20
-4915.514
 30
1877.000
 70
    32
  0
VERTEX
  8
3350LEVEL
 62
7
 10
3547.302
 20
-4915.043
 30
1877.000
 70
    32
  0
VERTEX
  8
3350LEVEL
 62
7
 10
3549.645
 20
-4912.127
 30
1877.000
 70
    32
  0
VERTEX
  8
3350LEVEL
 62
7
 10
3552.532
 20
-4911.135
 30
1877.000
 70
    32
  0
VERTEX
  8
3350LEVEL
 62
7
 10
3555.859
 20
-4911.815
 30
1877.000
 70
    32
  0
VERTEX
  8
3350LEVEL
 62
7
 10
3561.012
 20
-4911.206
 30
1877.000
 70
    32
  0
VERTEX
  8
3350LEVEL
 62
7
 10
3562.904
 20
-4910.271
 30
1877.000
 70
    32
  0
VERTEX
  8
3350LEVEL
 62
7
 10
3567.146
 20
-4911.531
 30
1877.000
 70
    32
  0
VERTEX
  8
3350LEVEL
 62
7
 10
3579.106
 20
-4919.843
 30
1877.000
 70
    32
  0
VERTEX
  8
3350LEVEL
 62
7
 10
3583.302
 20
-4924.792
 30
1877.000
 70
    32
  0
VERTEX
  8
3350LEVEL
 62
7
 10
3584.583
 20
-4924.524
 30
1877.000
 70
    32
  0
VERTEX
  8
3350LEVEL
 62
7
 10
3581.993
 20
-4916.047
 30
1877.000
 70
    32
  0
VERTEX
  8
3350LEVEL
 62
7
 10
3577.469
 20
-4906.161
 30
1877.000
 70
    32
  0
VERTEX
  8
3350LEVEL
 62
7
 10
3573.413
 20
-4901.355
 30
1877.000
 70
    32
  0
VERTEX
  8
3350LEVEL
 62
7
 10
3561.537
 20
-4891.980
 30
1877.000
 70
    32
  0
VERTEX
  8
3350LEVEL
 62
7
 10
3553.111
 20
-4884.849
 30
1877.000
 70
    32
  0
VERTEX
  8
3350LEVEL
 62
7
 10
3548.943
 20
-4880.503
 30
1877.000
 70
    32
  0
VERTEX
  8
3350LEVEL
 62
7
 10
3545.055
 20
-4876.444
 30
1877.000
 70
    32
  0
VERTEX
  8
3350LEVEL
 62
7
 10
3543.348
 20
-4876.707
 30
1877.000
 70
    32
  0
VERTEX
  8
3350LEVEL
 62
7
 10
3542.528
 20
-4879.890
 30
1877.000
 70
    32
  0
VERTEX
  8
3350LEVEL
 62
7
 10
3542.959
 20
-4885.076
 30
1877.000
 70
    32
  0
VERTEX
  8
3350LEVEL
 62
7
 10
3543.336
 20
-4891.858
 30
1877.000
 70
    32
  0
VERTEX
  8
3350LEVEL
 62
7
 10
3542.119
 20
-4895.497
 30
1877.000
 70
    32
  0
VERTEX
  8
3350LEVEL
 62
7
 10
3538.675
 20
-4895.632
 30
1877.000
 70
    32
  0
VERTEX
  8
3350LEVEL
 62
7
 10
3534.691
 20
-4893.630
 30
1877.000
 70
    32
  0
VERTEX
  8
3350LEVEL
 62
7
 10
3529.947
 20
-4892.790
 30
1877.000
 70
    32
  0
VERTEX
  8
3350LEVEL
 62
7
 10
3526.872
 20
-4894.596
 30
1877.000
 70
    32
  0
VERTEX
  8
3350LEVEL
 62
7
 10
3522.671
 20
-4898.553
 30
1877.000
 70
    32
  0
VERTEX
  8
3350LEVEL
 62
7
 10
3519.162
 20
-4901.064
 30
1877.000
 70
    32
  0
VERTEX
  8
3350LEVEL
 62
7
 10
3513.962
 20
-4902.631
 30
1877.000
 70
    32
  0
VERTEX
  8
3350LEVEL
 62
7
 10
3510.576
 20
-4900.956
 30
1877.000
 70
    32
  0
VERTEX
  8
3350LEVEL
 62
7
 10
3502.898
 20
-4893.585
 30
1877.000
 70
    32
  0
VERTEX
  8
3350LEVEL
 62
7
 10
3497.472
 20
-4887.663
 30
1877.000
 70
    32
  0
VERTEX
  8
3350LEVEL
 62
7
 10
3492.281
 20
-4880.039
 30
1877.000
 70
    32
  0
VERTEX
  8
3350LEVEL
 62
7
 10
3490.397
 20
-4877.461
 30
1877.000
 70
    32
  0
VERTEX
  8
3350LEVEL
 62
7
 10
3491.829
 20
-4876.485
 30
1877.000
 70
    32
  0
VERTEX
  8
3350LEVEL
 62
7
 10
3493.849
 20
-4873.885
 30
1877.000
 70
    32
  0
VERTEX
  8
3350LEVEL
 62
7
 10
3491.373
 20
-4867.609
 30
1877.000
 70
    32
  0
VERTEX
  8
3350LEVEL
 62
7
 10
3489.991
 20
-4864.611
 30
1877.000
 70
    32
  0
VERTEX
  8
3350LEVEL
 62
7
 10
3491.523
 20
-4864.098
 30
1877.000
 70
    32
  0
VERTEX
  8
3350LEVEL
 62
7
 10
3494.663
 20
-4862.718
 30
1877.000
 70
    32
  0
VERTEX
  8
3350LEVEL
 62
7
 10
3492.914
 20
-4855.102
 30
1877.000
 70
    32
  0
VERTEX
  8
3350LEVEL
 62
7
 10
3490.095
 20
-4845.025
 30
1877.000
 70
    32
  0
VERTEX
  8
3350LEVEL
 62
7
 10
3485.090
 20
-4833.856
 30
1877.000
 70
    32
  0
VERTEX
  8
3350LEVEL
 62
7
 10
3479.333
 20
-4823.280
 30
1877.000
 70
    32
  0
VERTEX
  8
3350LEVEL
 62
7
 10
3474.578
 20
-4814.811
 30
1877.000
 70
    32
  0
VERTEX
  8
3350LEVEL
 62
7
 10
3470.032
 20
-4809.502
 30
1877.000
 70
    32
  0
VERTEX
  8
3350LEVEL
 62
7
 10
3467.265
 20
-4809.396
 30
1877.000
 70
    32
  0
VERTEX
  8
3350LEVEL
 62
7
 10
3465.767
 20
-4810.016
 30
1877.000
 70
    32
  0
VERTEX
  8
3350LEVEL
 62
7
 10
3463.045
 20
-4809.237
 30
1877.000
 70
    32
  0
VERTEX
  8
3350LEVEL
 62
7
 10
3462.078
 20
-4809.970
 30
1877.000
 70
    32
  0
VERTEX
  8
3350LEVEL
 62
7
 10
3459.834
 20
-4810.616
 30
1877.000
 70
    32
  0
VERTEX
  8
3350LEVEL
 62
7
 10
3456.414
 20
-4808.905
 30
1877.000
 70
    32
  0
VERTEX
  8
3350LEVEL
 62
7
 10
3451.728
 20
-4806.256
 30
1877.000
 70
    32
  0
VERTEX
  8
3350LEVEL
 62
7
 10
3449.128
 20
-4804.165
 30
1877.000
 70
    32
  0
VERTEX
  8
3350LEVEL
 62
7
 10
3442.118
 20
-4797.265
 30
1877.000
 70
    32
  0
VERTEX
  8
3350LEVEL
 62
7
 10
3435.805
 20
-4788.563
 30
1877.000
 70
    32
  0
VERTEX
  8
3350LEVEL
 62
7
 10
3430.461
 20
-4781.789
 30
1877.000
 70
    32
  0
VERTEX
  8
3350LEVEL
 62
7
 10
3425.665
 20
-4773.781
 30
1877.000
 70
    32
  0
VERTEX
  8
3350LEVEL
 62
7
 10
3422.400
 20
-4768.133
 30
1877.000
 70
    32
  0
VERTEX
  8
3350LEVEL
 62
7
 10
3421.930
 20
-4765.998
 30
1877.000
 70
    32
  0
VERTEX
  8
3350LEVEL
 62
7
 10
3426.742
 20
-4764.249
 30
1877.000
 70
    32
  0
VERTEX
  8
3350LEVEL
 62
7
 10
3431.979
 20
-4765.450
 30
1877.000
 70
    32
  0
VERTEX
  8
3350LEVEL
 62
7
 10
3436.780
 20
-4767.427
 30
1877.000
 70
    32
  0
VERTEX
  8
3350LEVEL
 62
7
 10
3444.724
 20
-4773.417
 30
1877.000
 70
    32
  0
VERTEX
  8
3350LEVEL
 62
7
 10
3449.777
 20
-4777.951
 30
1877.000
 70
    32
  0
VERTEX
  8
3350LEVEL
 62
7
 10
3455.044
 20
-4782.346
 30
1877.000
 70
    32
  0
VERTEX
  8
3350LEVEL
 62
7
 10
3458.609
 20
-4783.846
 30
1877.000
 70
    32
  0
VERTEX
  8
3350LEVEL
 62
7
 10
3460.326
 20
-4782.732
 30
1877.000
 70
    32
  0
VERTEX
  8
3350LEVEL
 62
7
 10
3458.958
 20
-4775.796
 30
1877.000
 70
    32
  0
VERTEX
  8
3350LEVEL
 62
7
 10
3455.576
 20
-4768.231
 30
1877.000
 70
    32
  0
VERTEX
  8
3350LEVEL
 62
7
 10
3451.753
 20
-4756.189
 30
1877.000
 70
    32
  0
VERTEX
  8
3350LEVEL
 62
7
 10
3450.425
 20
-4748.934
 30
1877.000
 70
    32
  0
VERTEX
  8
3350LEVEL
 62
7
 10
3450.357
 20
-4745.846
 30
1877.000
 70
    32
  0
VERTEX
  8
3350LEVEL
 62
7
 10
3451.083
 20
-4744.578
 30
1877.000
 70
    32
  0
VERTEX
  8
3350LEVEL
 62
7
 10
3455.428
 20
-4746.158
 30
1877.000
 70
    32
  0
VERTEX
  8
3350LEVEL
 62
7
 10
3460.505
 20
-4751.580
 30
1877.000
 70
    32
  0
VERTEX
  8
3350LEVEL
 62
7
 10
3462.873
 20
-4755.158
 30
1877.000
 70
    32
  0
VERTEX
  8
3350LEVEL
 62
7
 10
3468.313
 20
-4762.749
 30
1877.000
 70
    32
  0
VERTEX
  8
3350LEVEL
 62
7
 10
3472.227
 20
-4767.482
 30
1877.000
 70
    32
  0
VERTEX
  8
3350LEVEL
 62
7
 10
3474.955
 20
-4770.639
 30
1877.000
 70
    32
  0
VERTEX
  8
3350LEVEL
 62
7
 10
3476.848
 20
-4772.507
 30
1877.000
 70
    32
  0
VERTEX
  8
3350LEVEL
 62
7
 10
3479.484
 20
-4774.563
 30
1877.000
 70
    32
  0
SEQEND
  8
3350LEVEL
  0
POLYLINE
  8
3350LEVEL
 62
7
 66
     1
 70
     8
  0
VERTEX
  8
3350LEVEL
 62
7
 10
3689.316
 20
-4829.679
 30
1877.000
 70
    32
  0
VERTEX
  8
3350LEVEL
 62
7
 10
3689.729
 20
-4830.678
 30
1877.000
 70
    32
  0
VERTEX
  8
3350LEVEL
 62
7
 10
3691.959
 20
-4833.970
 30
1877.000
 70
    32
  0
VERTEX
  8
3350LEVEL
 62
7
 10
3692.407
 20
-4835.005
 30
1877.000
 70
    32
  0
VERTEX
  8
3350LEVEL
 62
7
 10
3693.632
 20
-4839.137
 30
1877.000
 70
    32
  0
VERTEX
  8
3350LEVEL
 62
7
 10
3696.334
 20
-4844.422
 30
1877.000
 70
    32
  0
VERTEX
  8
3350LEVEL
 62
7
 10
3698.853
 20
-4847.221
 30
1877.000
 70
    32
  0
VERTEX
  8
3350LEVEL
 62
7
 10
3708.609
 20
-4855.860
 30
1877.000
 70
    32
  0
VERTEX
  8
3350LEVEL
 62
7
 10
3722.939
 20
-4867.608
 30
1877.000
 70
    32
  0
VERTEX
  8
3350LEVEL
 62
7
 10
3741.840
 20
-4882.677
 30
1877.000
 70
    32
  0
VERTEX
  8
3350LEVEL
 62
7
 10
3751.005
 20
-4893.154
 30
1877.000
 70
    32
  0
VERTEX
  8
3350LEVEL
 62
7
 10
3763.625
 20
-4911.054
 30
1877.000
 70
    32
  0
VERTEX
  8
3350LEVEL
 62
7
 10
3770.153
 20
-4922.491
 30
1877.000
 70
    32
  0
VERTEX
  8
3350LEVEL
 62
7
 10
3773.789
 20
-4935.275
 30
1877.000
 70
    32
  0
VERTEX
  8
3350LEVEL
 62
7
 10
3775.101
 20
-4946.611
 30
1877.000
 70
    32
  0
VERTEX
  8
3350LEVEL
 62
7
 10
3777.171
 20
-4954.124
 30
1877.000
 70
    32
  0
VERTEX
  8
3350LEVEL
 62
7
 10
3783.182
 20
-4969.919
 30
1877.000
 70
    32
  0
VERTEX
  8
3350LEVEL
 62
7
 10
3785.801
 20
-4979.000
 30
1877.000
 70
    32
  0
VERTEX
  8
3350LEVEL
 62
7
 10
3788.370
 20
-4989.180
 30
1877.000
 70
    32
  0
VERTEX
  8
3350LEVEL
 62
7
 10
3791.277
 20
-4994.965
 30
1877.000
 70
    32
  0
VERTEX
  8
3350LEVEL
 62
7
 10
3802.505
 20
-5010.719
 30
1877.000
 70
    32
  0
VERTEX
  8
3350LEVEL
 62
7
 10
3822.117
 20
-5029.890
 30
1877.000
 70
    32
  0
VERTEX
  8
3350LEVEL
 62
7
 10
3833.706
 20
-5037.649
 30
1877.000
 70
    32
  0
VERTEX
  8
3350LEVEL
 62
7
 10
3839.056
 20
-5017.821
 30
1877.000
 70
    32
  0
VERTEX
  8
3350LEVEL
 62
7
 10
3855.773
 20
-5055.254
 30
1877.000
 70
    32
  0
VERTEX
  8
3350LEVEL
 62
7
 10
3868.812
 20
-5084.488
 30
1877.000
 70
    32
  0
VERTEX
  8
3350LEVEL
 62
7
 10
3878.939
 20
-5079.869
 30
1877.000
 70
    32
  0
VERTEX
  8
3350LEVEL
 62
7
 10
3893.321
 20
-5117.668
 30
1877.000
 70
    32
  0
VERTEX
  8
3350LEVEL
 62
7
 10
3914.413
 20
-5163.672
 30
1877.000
 70
    32
  0
VERTEX
  8
3350LEVEL
 62
7
 10
3945.203
 20
-5222.677
 30
1877.000
 70
    32
  0
VERTEX
  8
3350LEVEL
 62
7
 10
3974.033
 20
-5275.287
 30
1877.000
 70
    32
  0
VERTEX
  8
3350LEVEL
 62
7
 10
4002.361
 20
-5336.912
 30
1877.000
 70
    32
  0
VERTEX
  8
3350LEVEL
 62
7
 10
4032.939
 20
-5401.695
 30
1877.000
 70
    32
  0
VERTEX
  8
3350LEVEL
 62
7
 10
4046.495
 20
-5444.411
 30
1877.000
 70
    32
  0
VERTEX
  8
3350LEVEL
 62
7
 10
4006.721
 20
-5429.900
 30
1877.000
 70
    32
  0
VERTEX
  8
3350LEVEL
 62
7
 10
4043.048
 20
-5484.526
 30
1877.000
 70
    32
  0
VERTEX
  8
3350LEVEL
 62
7
 10
4085.502
 20
-5556.863
 30
1877.000
 70
    32
  0
VERTEX
  8
3350LEVEL
 62
7
 10
4109.351
 20
-5628.605
 30
1877.000
 70
    32
  0
VERTEX
  8
3350LEVEL
 62
7
 10
4134.966
 20
-5697.357
 30
1877.000
 70
    32
  0
VERTEX
  8
3350LEVEL
 62
7
 10
4105.082
 20
-5670.604
 30
1877.000
 70
    32
  0
VERTEX
  8
3350LEVEL
 62
7
 10
4073.388
 20
-5613.975
 30
1877.000
 70
    32
  0
VERTEX
  8
3350LEVEL
 62
7
 10
4045.211
 20
-5563.496
 30
1877.000
 70
    32
  0
VERTEX
  8
3350LEVEL
 62
7
 10
4013.201
 20
-5496.704
 30
1877.000
 70
    32
  0
VERTEX
  8
3350LEVEL
 62
7
 10
3983.434
 20
-5439.134
 30
1877.000
 70
    32
  0
VERTEX
  8
3350LEVEL
 62
7
 10
3961.541
 20
-5376.820
 30
1877.000
 70
    32
  0
VERTEX
  8
3350LEVEL
 62
7
 10
3942.547
 20
-5322.828
 30
1877.000
 70
    32
  0
VERTEX
  8
3350LEVEL
 62
7
 10
3882.196
 20
-5241.168
 30
1877.000
 70
    32
  0
VERTEX
  8
3350LEVEL
 62
7
 10
3839.865
 20
-5169.610
 30
1877.000
 70
    32
  0
VERTEX
  8
3350LEVEL
 62
7
 10
3821.906
 20
-5142.584
 30
1877.000
 70
    32
  0
VERTEX
  8
3350LEVEL
 62
7
 10
3826.389
 20
-5164.062
 30
1877.000
 70
    32
  0
VERTEX
  8
3350LEVEL
 62
7
 10
3803.606
 20
-5126.622
 30
1877.000
 70
    32
  0
VERTEX
  8
3350LEVEL
 62
7
 10
3777.669
 20
-5088.399
 30
1877.000
 70
    32
  0
VERTEX
  8
3350LEVEL
 62
7
 10
3771.334
 20
-5073.434
 30
1877.000
 70
    32
  0
VERTEX
  8
3350LEVEL
 62
7
 10
3765.816
 20
-5097.278
 30
1877.000
 70
    32
  0
VERTEX
  8
3350LEVEL
 62
7
 10
3744.293
 20
-5068.895
 30
1877.000
 70
    32
  0
VERTEX
  8
3350LEVEL
 62
7
 10
3730.650
 20
-5101.991
 30
1877.000
 70
    32
  0
VERTEX
  8
3350LEVEL
 62
7
 10
3710.575
 20
-5086.351
 30
1877.000
 70
    32
  0
VERTEX
  8
3350LEVEL
 62
7
 10
3708.774
 20
-5082.851
 30
1877.000
 70
    32
  0
VERTEX
  8
3350LEVEL
 62
7
 10
3703.693
 20
-5072.107
 30
1877.000
 70
    32
  0
VERTEX
  8
3350LEVEL
 62
7
 10
3696.259
 20
-5056.578
 30
1877.000
 70
    32
  0
VERTEX
  8
3350LEVEL
 62
7
 10
3690.896
 20
-5042.885
 30
1877.000
 70
    32
  0
VERTEX
  8
3350LEVEL
 62
7
 10
3685.721
 20
-5025.433
 30
1877.000
 70
    32
  0
VERTEX
  8
3350LEVEL
 62
7
 10
3681.927
 20
-5011.121
 30
1877.000
 70
    32
  0
VERTEX
  8
3350LEVEL
 62
7
 10
3680.134
 20
-4995.627
 30
1877.000
 70
    32
  0
VERTEX
  8
3350LEVEL
 62
7
 10
3681.499
 20
-4983.012
 30
1877.000
 70
    32
  0
VERTEX
  8
3350LEVEL
 62
7
 10
3681.729
 20
-4973.186
 30
1877.000
 70
    32
  0
VERTEX
  8
3350LEVEL
 62
7
 10
3680.912
 20
-4959.124
 30
1877.000
 70
    32
  0
VERTEX
  8
3350LEVEL
 62
7
 10
3677.471
 20
-4942.155
 30
1877.000
 70
    32
  0
VERTEX
  8
3350LEVEL
 62
7
 10
3673.902
 20
-4923.978
 30
1877.000
 70
    32
  0
VERTEX
  8
3350LEVEL
 62
7
 10
3672.167
 20
-4903.944
 30
1877.000
 70
    32
  0
VERTEX
  8
3350LEVEL
 62
7
 10
3671.253
 20
-4889.136
 30
1877.000
 70
    32
  0
VERTEX
  8
3350LEVEL
 62
7
 10
3670.164
 20
-4879.754
 30
1877.000
 70
    32
  0
VERTEX
  8
3350LEVEL
 62
7
 10
3666.519
 20
-4873.357
 30
1877.000
 70
    32
  0
VERTEX
  8
3350LEVEL
 62
7
 10
3659.505
 20
-4869.543
 30
1877.000
 70
    32
  0
VERTEX
  8
3350LEVEL
 62
7
 10
3654.121
 20
-4865.963
 30
1877.000
 70
    32
  0
VERTEX
  8
3350LEVEL
 62
7
 10
3652.016
 20
-4861.288
 30
1877.000
 70
    32
  0
VERTEX
  8
3350LEVEL
 62
7
 10
3650.909
 20
-4859.003
 30
1877.000
 70
    32
  0
VERTEX
  8
3350LEVEL
 62
7
 10
3646.919
 20
-4857.427
 30
1877.000
 70
    32
  0
VERTEX
  8
3350LEVEL
 62
7
 10
3642.454
 20
-4854.142
 30
1877.000
 70
    32
  0
VERTEX
  8
3350LEVEL
 62
7
 10
3640.802
 20
-4852.879
 30
1877.000
 70
    32
  0
VERTEX
  8
3350LEVEL
 62
7
 10
3640.345
 20
-4855.357
 30
1877.000
 70
    32
  0
VERTEX
  8
3350LEVEL
 62
7
 10
3640.467
 20
-4859.794
 30
1877.000
 70
    32
  0
VERTEX
  8
3350LEVEL
 62
7
 10
3638.694
 20
-4862.504
 30
1877.000
 70
    32
  0
VERTEX
  8
3350LEVEL
 62
7
 10
3636.545
 20
-4861.306
 30
1877.000
 70
    32
  0
VERTEX
  8
3350LEVEL
 62
7
 10
3632.885
 20
-4858.848
 30
1877.000
 70
    32
  0
VERTEX
  8
3350LEVEL
 62
7
 10
3631.845
 20
-4859.722
 30
1877.000
 70
    32
  0
VERTEX
  8
3350LEVEL
 62
7
 10
3630.916
 20
-4860.207
 30
1877.000
 70
    32
  0
VERTEX
  8
3350LEVEL
 62
7
 10
3629.441
 20
-4859.053
 30
1877.000
 70
    32
  0
VERTEX
  8
3350LEVEL
 62
7
 10
3628.887
 20
-4857.910
 30
1877.000
 70
    32
  0
VERTEX
  8
3350LEVEL
 62
7
 10
3623.797
 20
-4850.679
 30
1877.000
 70
    32
  0
VERTEX
  8
3350LEVEL
 62
7
 10
3615.756
 20
-4835.462
 30
1877.000
 70
    32
  0
VERTEX
  8
3350LEVEL
 62
7
 10
3608.910
 20
-4821.182
 30
1877.000
 70
    32
  0
VERTEX
  8
3350LEVEL
 62
7
 10
3601.737
 20
-4807.502
 30
1877.000
 70
    32
  0
VERTEX
  8
3350LEVEL
 62
7
 10
3595.514
 20
-4797.240
 30
1877.000
 70
    32
  0
VERTEX
  8
3350LEVEL
 62
7
 10
3587.610
 20
-4782.379
 30
1877.000
 70
    32
  0
VERTEX
  8
3350LEVEL
 62
7
 10
3583.323
 20
-4773.455
 30
1877.000
 70
    32
  0
VERTEX
  8
3350LEVEL
 62
7
 10
3576.285
 20
-4760.273
 30
1877.000
 70
    32
  0
VERTEX
  8
3350LEVEL
 62
7
 10
3568.494
 20
-4750.559
 30
1877.000
 70
    32
  0
VERTEX
  8
3350LEVEL
 62
7
 10
3560.292
 20
-4742.507
 30
1877.000
 70
    32
  0
VERTEX
  8
3350LEVEL
 62
7
 10
3555.854
 20
-4739.897
 30
1877.000
 70
    32
  0
VERTEX
  8
3350LEVEL
 62
7
 10
3552.314
 20
-4739.214
 30
1877.000
 70
    32
  0
VERTEX
  8
3350LEVEL
 62
7
 10
3544.316
 20
-4740.355
 30
1877.000
 70
    32
  0
VERTEX
  8
3350LEVEL
 62
7
 10
3538.949
 20
-4743.907
 30
1877.000
 70
    32
  0
VERTEX
  8
3350LEVEL
 62
7
 10
3535.362
 20
-4746.985
 30
1877.000
 70
    32
  0
VERTEX
  8
3350LEVEL
 62
7
 10
3532.864
 20
-4748.089
 30
1877.000
 70
    32
  0
VERTEX
  8
3350LEVEL
 62
7
 10
3528.054
 20
-4746.822
 30
1877.000
 70
    32
  0
VERTEX
  8
3350LEVEL
 62
7
 10
3525.045
 20
-4746.252
 30
1877.000
 70
    32
  0
VERTEX
  8
3350LEVEL
 62
7
 10
3522.109
 20
-4748.344
 30
1877.000
 70
    32
  0
VERTEX
  8
3350LEVEL
 62
7
 10
3520.625
 20
-4750.703
 30
1877.000
 70
    32
  0
VERTEX
  8
3350LEVEL
 62
7
 10
3519.811
 20
-4758.996
 30
1877.000
 70
    32
  0
VERTEX
  8
3350LEVEL
 62
7
 10
3520.461
 20
-4766.562
 30
1877.000
 70
    32
  0
VERTEX
  8
3350LEVEL
 62
7
 10
3521.613
 20
-4773.708
 30
1877.000
 70
    32
  0
VERTEX
  8
3350LEVEL
 62
7
 10
3521.720
 20
-4782.155
 30
1877.000
 70
    32
  0
VERTEX
  8
3350LEVEL
 62
7
 10
3517.531
 20
-4790.796
 30
1877.000
 70
    32
  0
VERTEX
  8
3350LEVEL
 62
7
 10
3513.730
 20
-4796.745
 30
1877.000
 70
    32
  0
VERTEX
  8
3350LEVEL
 62
7
 10
3507.932
 20
-4800.717
 30
1877.000
 70
    32
  0
VERTEX
  8
3350LEVEL
 62
7
 10
3503.841
 20
-4801.553
 30
1877.000
 70
    32
  0
VERTEX
  8
3350LEVEL
 62
7
 10
3498.487
 20
-4798.434
 30
1877.000
 70
    32
  0
VERTEX
  8
3350LEVEL
 62
7
 10
3495.615
 20
-4795.417
 30
1877.000
 70
    32
  0
VERTEX
  8
3350LEVEL
 62
7
 10
3491.910
 20
-4790.971
 30
1877.000
 70
    32
  0
VERTEX
  8
3350LEVEL
 62
7
 10
3488.067
 20
-4786.168
 30
1877.000
 70
    32
  0
VERTEX
  8
3350LEVEL
 62
7
 10
3487.197
 20
-4784.773
 30
1877.000
 70
    32
  0
SEQEND
  8
3350LEVEL
  0
POLYLINE
  8
3350LEVEL
 62
7
 66
     1
 70
     8
  0
VERTEX
  8
3350LEVEL
 62
7
 10
3682.835
 20
-4820.062
 30
1877.000
 70
    32
  0
VERTEX
  8
3350LEVEL
 62
7
 10
3687.675
 20
-4821.888
 30
1877.000
 70
    32
  0
VERTEX
  8
3350LEVEL
 62
7
 10
3693.128
 20
-4825.611
 30
1877.000
 70
    32
  0
VERTEX
  8
3350LEVEL
 62
7
 10
3696.683
 20
-4827.891
 30
1877.000
 70
    32
  0
VERTEX
  8
3350LEVEL
 62
7
 10
3700.267
 20
-4827.901
 30
1877.000
 70
    32
  0
VERTEX
  8
3350LEVEL
 62
7
 10
3702.280
 20
-4825.797
 30
1877.000
 70
    32
  0
VERTEX
  8
3350LEVEL
 62
7
 10
3702.401
 20
-4821.824
 30
1877.000
 70
    32
  0
VERTEX
  8
3350LEVEL
 62
7
 10
3703.233
 20
-4817.790
 30
1877.000
 70
    32
  0
VERTEX
  8
3350LEVEL
 62
7
 10
3701.341
 20
-4815.850
 30
1877.000
 70
    32
  0
VERTEX
  8
3350LEVEL
 62
7
 10
3696.339
 20
-4812.948
 30
1877.000
 70
    32
  0
VERTEX
  8
3350LEVEL
 62
7
 10
3694.259
 20
-4811.822
 30
1877.000
 70
    32
  0
VERTEX
  8
3350LEVEL
 62
7
 10
3692.783
 20
-4810.739
 30
1877.000
 70
    32
  0
VERTEX
  8
3350LEVEL
 62
7
 10
3691.113
 20
-4808.021
 30
1877.000
 70
    32
  0
VERTEX
  8
3350LEVEL
 62
7
 10
3690.700
 20
-4807.022
 30
1877.000
 70
    32
  0
VERTEX
  8
3350LEVEL
 62
7
 10
3693.397
 20
-4807.056
 30
1877.000
 70
    32
  0
VERTEX
  8
3350LEVEL
 62
7
 10
3695.688
 20
-4808.256
 30
1877.000
 70
    32
  0
VERTEX
  8
3350LEVEL
 62
7
 10
3698.057
 20
-4808.889
 30
1877.000
 70
    32
  0
VERTEX
  8
3350LEVEL
 62
7
 10
3698.469
 20
-4807.227
 30
1877.000
 70
    32
  0
VERTEX
  8
3350LEVEL
 62
7
 10
3700.155
 20
-4805.722
 30
1877.000
 70
    32
  0
VERTEX
  8
3350LEVEL
 62
7
 10
3698.836
 20
-4803.363
 30
1877.000
 70
    32
  0
VERTEX
  8
3350LEVEL
 62
7
 10
3696.943
 20
-4801.565
 30
1877.000
 70
    32
  0
VERTEX
  8
3350LEVEL
 62
7
 10
3695.730
 20
-4799.244
 30
1877.000
 70
    32
  0
VERTEX
  8
3350LEVEL
 62
7
 10
3696.333
 20
-4796.413
 30
1877.000
 70
    32
  0
VERTEX
  8
3350LEVEL
 62
7
 10
3693.656
 20
-4792.015
 30
1877.000
 70
    32
  0
VERTEX
  8
3350LEVEL
 62
7
 10
3685.435
 20
-4785.524
 30
1877.000
 70
    32
  0
VERTEX
  8
3350LEVEL
 62
7
 10
3675.427
 20
-4780.005
 30
1877.000
 70
    32
  0
VERTEX
  8
3350LEVEL
 62
7
 10
3665.027
 20
-4774.587
 30
1877.000
 70
    32
  0
VERTEX
  8
3350LEVEL
 62
7
 10
3655.590
 20
-4765.988
 30
1877.000
 70
    32
  0
VERTEX
  8
3350LEVEL
 62
7
 10
3647.930
 20
-4757.198
 30
1877.000
 70
    32
  0
VERTEX
  8
3350LEVEL
 62
7
 10
3645.093
 20
-4751.344
 30
1877.000
 70
    32
  0
VERTEX
  8
3350LEVEL
 62
7
 10
3642.472
 20
-4742.546
 30
1877.000
 70
    32
  0
VERTEX
  8
3350LEVEL
 62
7
 10
3636.471
 20
-4737.184
 30
1877.000
 70
    32
  0
VERTEX
  8
3350LEVEL
 62
7
 10
3629.653
 20
-4734.792
 30
1877.000
 70
    32
  0
VERTEX
  8
3350LEVEL
 62
7
 10
3618.401
 20
-4732.237
 30
1877.000
 70
    32
  0
VERTEX
  8
3350LEVEL
 62
7
 10
3609.857
 20
-4728.866
 30
1877.000
 70
    32
  0
VERTEX
  8
3350LEVEL
 62
7
 10
3605.627
 20
-4726.612
 30
1877.000
 70
    32
  0
VERTEX
  8
3350LEVEL
 62
7
 10
3603.118
 20
-4725.765
 30
1877.000
 70
    32
  0
VERTEX
  8
3350LEVEL
 62
7
 10
3601.491
 20
-4725.390
 30
1877.000
 70
    32
  0
VERTEX
  8
3350LEVEL
 62
7
 10
3599.872
 20
-4724.305
 30
1877.000
 70
    32
  0
VERTEX
  8
3350LEVEL
 62
7
 10
3596.789
 20
-4721.143
 30
1877.000
 70
    32
  0
VERTEX
  8
3350LEVEL
 62
7
 10
3592.922
 20
-4718.256
 30
1877.000
 70
    32
  0
VERTEX
  8
3350LEVEL
 62
7
 10
3589.934
 20
-4716.054
 30
1877.000
 70
    32
  0
VERTEX
  8
3350LEVEL
 62
7
 10
3584.948
 20
-4714.679
 30
1877.000
 70
    32
  0
VERTEX
  8
3350LEVEL
 62
7
 10
3580.395
 20
-4712.741
 30
1877.000
 70
    32
  0
VERTEX
  8
3350LEVEL
 62
7
 10
3573.004
 20
-4710.767
 30
1877.000
 70
    32
  0
VERTEX
  8
3350LEVEL
 62
7
 10
3568.092
 20
-4709.109
 30
1877.000
 70
    32
  0
VERTEX
  8
3350LEVEL
 62
7
 10
3564.523
 20
-4707.964
 30
1877.000
 70
    32
  0
VERTEX
  8
3350LEVEL
 62
7
 10
3562.328
 20
-4707.511
 30
1877.000
 70
    32
  0
VERTEX
  8
3350LEVEL
 62
7
 10
3562.313
 20
-4708.717
 30
1877.000
 70
    32
  0
VERTEX
  8
3350LEVEL
 62
7
 10
3562.157
 20
-4709.850
 30
1877.000
 70
    32
  0
VERTEX
  8
3350LEVEL
 62
7
 10
3560.845
 20
-4709.798
 30
1877.000
 70
    32
  0
VERTEX
  8
3350LEVEL
 62
7
 10
3557.706
 20
-4705.430
 30
1877.000
 70
    32
  0
VERTEX
  8
3350LEVEL
 62
7
 10
3557.668
 20
-4697.197
 30
1877.000
 70
    32
  0
VERTEX
  8
3350LEVEL
 62
7
 10
3555.297
 20
-4688.155
 30
1877.000
 70
    32
  0
VERTEX
  8
3350LEVEL
 62
7
 10
3553.696
 20
-4682.848
 30
1877.000
 70
    32
  0
VERTEX
  8
3350LEVEL
 62
7
 10
3552.707
 20
-4676.874
 30
1877.000
 70
    32
  0
VERTEX
  8
3350LEVEL
 62
7
 10
3553.320
 20
-4676.065
 30
1877.000
 70
    32
  0
VERTEX
  8
3350LEVEL
 62
7
 10
3555.277
 20
-4678.503
 30
1877.000
 70
    32
  0
VERTEX
  8
3350LEVEL
 62
7
 10
3558.010
 20
-4684.108
 30
1877.000
 70
    32
  0
VERTEX
  8
3350LEVEL
 62
7
 10
3560.000
 20
-4689.527
 30
1877.000
 70
    32
  0
VERTEX
  8
3350LEVEL
 62
7
 10
3562.453
 20
-4691.970
 30
1877.000
 70
    32
  0
VERTEX
  8
3350LEVEL
 62
7
 10
3564.646
 20
-4692.495
 30
1877.000
 70
    32
  0
VERTEX
  8
3350LEVEL
 62
7
 10
3565.024
 20
-4690.654
 30
1877.000
 70
    32
  0
VERTEX
  8
3350LEVEL
 62
7
 10
3565.578
 20
-4688.923
 30
1877.000
 70
    32
  0
VERTEX
  8
3350LEVEL
 62
7
 10
3567.738
 20
-4689.269
 30
1877.000
 70
    32
  0
VERTEX
  8
3350LEVEL
 62
7
 10
3573.272
 20
-4695.087
 30
1877.000
 70
    32
  0
VERTEX
  8
3350LEVEL
 62
7
 10
3578.462
 20
-4699.978
 30
1877.000
 70
    32
  0
VERTEX
  8
3350LEVEL
 62
7
 10
3582.303
 20
-4702.049
 30
1877.000
 70
    32
  0
VERTEX
  8
3350LEVEL
 62
7
 10
3586.586
 20
-4702.919
 30
1877.000
 70
    32
  0
VERTEX
  8
3350LEVEL
 62
7
 10
3590.535
 20
-4704.884
 30
1877.000
 70
    32
  0
VERTEX
  8
3350LEVEL
 62
7
 10
3597.098
 20
-4707.876
 30
1877.000
 70
    32
  0
VERTEX
  8
3350LEVEL
 62
7
 10
3602.486
 20
-4708.299
 30
1877.000
 70
    32
  0
VERTEX
  8
3350LEVEL
 62
7
 10
3603.786
 20
-4706.541
 30
1877.000
 70
    32
  0
VERTEX
  8
3350LEVEL
 62
7
 10
3604.161
 20
-4702.039
 30
1877.000
 70
    32
  0
VERTEX
  8
3350LEVEL
 62
7
 10
3606.865
 20
-4698.702
 30
1877.000
 70
    32
  0
VERTEX
  8
3350LEVEL
 62
7
 10
3610.217
 20
-4697.325
 30
1877.000
 70
    32
  0
VERTEX
  8
3350LEVEL
 62
7
 10
3616.253
 20
-4697.046
 30
1877.000
 70
    32
  0
VERTEX
  8
3350LEVEL
 62
7
 10
3619.274
 20
-4696.694
 30
1877.000
 70
    32
  0
VERTEX
  8
3350LEVEL
 62
7
 10
3626.310
 20
-4698.663
 30
1877.000
 70
    32
  0
VERTEX
  8
3350LEVEL
 62
7
 10
3630.489
 20
-4699.283
 30
1877.000
 70
    32
  0
VERTEX
  8
3350LEVEL
 62
7
 10
3637.856
 20
-4700.369
 30
1877.000
 70
    32
  0
VERTEX
  8
3350LEVEL
 62
7
 10
3641.933
 20
-4700.669
 30
1877.000
 70
    32
  0
VERTEX
  8
3350LEVEL
 62
7
 10
3644.951
 20
-4700.529
 30
1877.000
 70
    32
  0
VERTEX
  8
3350LEVEL
 62
7
 10
3647.678
 20
-4700.954
 30
1877.000
 70
    32
  0
VERTEX
  8
3350LEVEL
 62
7
 10
3651.162
 20
-4700.430
 30
1877.000
 70
    32
  0
VERTEX
  8
3350LEVEL
 62
7
 10
3656.081
 20
-4698.646
 30
1877.000
 70
    32
  0
VERTEX
  8
3350LEVEL
 62
7
 10
3660.767
 20
-4701.296
 30
1877.000
 70
    32
  0
VERTEX
  8
3350LEVEL
 62
7
 10
3664.894
 20
-4706.102
 30
1877.000
 70
    32
  0
VERTEX
  8
3350LEVEL
 62
7
 10
3669.830
 20
-4711.451
 30
1877.000
 70
    32
  0
VERTEX
  8
3350LEVEL
 62
7
 10
3675.945
 20
-4716.141
 30
1877.000
 70
    32
  0
VERTEX
  8
3350LEVEL
 62
7
 10
3679.698
 20
-4719.630
 30
1877.000
 70
    32
  0
VERTEX
  8
3350LEVEL
 62
7
 10
3685.174
 20
-4724.383
 30
1877.000
 70
    32
  0
VERTEX
  8
3350LEVEL
 62
7
 10
3688.369
 20
-4727.084
 30
1877.000
 70
    32
  0
VERTEX
  8
3350LEVEL
 62
7
 10
3688.643
 20
-4725.065
 30
1877.000
 70
    32
  0
VERTEX
  8
3350LEVEL
 62
7
 10
3685.452
 20
-4719.206
 30
1877.000
 70
    32
  0
VERTEX
  8
3350LEVEL
 62
7
 10
3682.378
 20
-4712.531
 30
1877.000
 70
    32
  0
VERTEX
  8
3350LEVEL
 62
7
 10
3676.481
 20
-4701.741
 30
1877.000
 70
    32
  0
VERTEX
  8
3350LEVEL
 62
7
 10
3675.265
 20
-4696.829
 30
1877.000
 70
    32
  0
VERTEX
  8
3350LEVEL
 62
7
 10
3670.037
 20
-4689.312
 30
1877.000
 70
    32
  0
VERTEX
  8
3350LEVEL
 62
7
 10
3670.321
 20
-4686.441
 30
1877.000
 70
    32
  0
VERTEX
  8
3350LEVEL
 62
7
 10
3674.887
 20
-4687.386
 30
1877.000
 70
    32
  0
VERTEX
  8
3350LEVEL
 62
7
 10
3679.025
 20
-4688.467
 30
1877.000
 70
    32
  0
VERTEX
  8
3350LEVEL
 62
7
 10
3680.121
 20
-4685.926
 30
1877.000
 70
    32
  0
VERTEX
  8
3350LEVEL
 62
7
 10
3681.889
 20
-4680.838
 30
1877.000
 70
    32
  0
VERTEX
  8
3350LEVEL
 62
7
 10
3685.950
 20
-4679.541
 30
1877.000
 70
    32
  0
VERTEX
  8
3350LEVEL
 62
7
 10
3690.213
 20
-4679.169
 30
1877.000
 70
    32
  0
VERTEX
  8
3350LEVEL
 62
7
 10
3691.182
 20
-4675.420
 30
1877.000
 70
    32
  0
VERTEX
  8
3350LEVEL
 62
7
 10
3690.409
 20
-4669.165
 30
1877.000
 70
    32
  0
VERTEX
  8
3350LEVEL
 62
7
 10
3686.736
 20
-4656.487
 30
1877.000
 70
    32
  0
VERTEX
  8
3350LEVEL
 62
7
 10
3682.840
 20
-4644.657
 30
1877.000
 70
    32
  0
VERTEX
  8
3350LEVEL
 62
7
 10
3682.856
 20
-4640.577
 30
1877.000
 70
    32
  0
VERTEX
  8
3350LEVEL
 62
7
 10
3684.996
 20
-4639.681
 30
1877.000
 70
    32
  0
VERTEX
  8
3350LEVEL
 62
7
 10
3691.379
 20
-4645.651
 30
1877.000
 70
    32
  0
VERTEX
  8
3350LEVEL
 62
7
 10
3699.304
 20
-4656.006
 30
1877.000
 70
    32
  0
VERTEX
  8
3350LEVEL
 62
7
 10
3704.627
 20
-4664.411
 30
1877.000
 70
    32
  0
VERTEX
  8
3350LEVEL
 62
7
 10
3712.431
 20
-4675.864
 30
1877.000
 70
    32
  0
VERTEX
  8
3350LEVEL
 62
7
 10
3718.860
 20
-4683.893
 30
1877.000
 70
    32
  0
VERTEX
  8
3350LEVEL
 62
7
 10
3727.874
 20
-4695.077
 30
1877.000
 70
    32
  0
VERTEX
  8
3350LEVEL
 62
7
 10
3740.612
 20
-4709.218
 30
1877.000
 70
    32
  0
VERTEX
  8
3350LEVEL
 62
7
 10
3752.688
 20
-4719.660
 30
1877.000
 70
    32
  0
VERTEX
  8
3350LEVEL
 62
7
 10
3762.968
 20
-4726.105
 30
1877.000
 70
    32
  0
VERTEX
  8
3350LEVEL
 62
7
 10
3773.349
 20
-4730.139
 30
1877.000
 70
    32
  0
VERTEX
  8
3350LEVEL
 62
7
 10
3779.321
 20
-4732.165
 30
1877.000
 70
    32
  0
VERTEX
  8
3350LEVEL
 62
7
 10
3782.538
 20
-4733.093
 30
1877.000
 70
    32
  0
VERTEX
  8
3350LEVEL
 62
7
 10
3784.446
 20
-4733.755
 30
1877.000
 70
    32
  0
VERTEX
  8
3350LEVEL
 62
7
 10
3800.809
 20
-4738.964
 30
1877.000
 70
    32
  0
VERTEX
  8
3350LEVEL
 62
7
 10
3809.337
 20
-4740.881
 30
1877.000
 70
    32
  0
VERTEX
  8
3350LEVEL
 62
7
 10
3820.353
 20
-4745.206
 30
1877.000
 70
    32
  0
VERTEX
  8
3350LEVEL
 62
7
 10
3830.618
 20
-4750.055
 30
1877.000
 70
    32
  0
VERTEX
  8
3350LEVEL
 62
7
 10
3834.789
 20
-4751.313
 30
1877.000
 70
    32
  0
VERTEX
  8
3350LEVEL
 62
7
 10
3843.130
 20
-4751.170
 30
1877.000
 70
    32
  0
VERTEX
  8
3350LEVEL
 62
7
 10
3846.848
 20
-4748.946
 30
1877.000
 70
    32
  0
VERTEX
  8
3350LEVEL
 62
7
 10
3846.991
 20
-4743.199
 30
1877.000
 70
    32
  0
VERTEX
  8
3350LEVEL
 62
7
 10
3840.438
 20
-4725.339
 30
1877.000
 70
    32
  0
VERTEX
  8
3350LEVEL
 62
7
 10
3832.789
 20
-4710.021
 30
1877.000
 70
    32
  0
VERTEX
  8
3350LEVEL
 62
7
 10
3825.740
 20
-4686.407
 30
1877.000
 70
    32
  0
VERTEX
  8
3350LEVEL
 62
7
 10
3819.021
 20
-4664.855
 30
1877.000
 70
    32
  0
VERTEX
  8
3350LEVEL
 62
7
 10
3812.557
 20
-4653.986
 30
1877.000
 70
    32
  0
VERTEX
  8
3350LEVEL
 62
7
 10
3803.928
 20
-4640.394
 30
1877.000
 70
    32
  0
VERTEX
  8
3350LEVEL
 62
7
 10
3796.464
 20
-4630.081
 30
1877.000
 70
    32
  0
VERTEX
  8
3350LEVEL
 62
7
 10
3790.105
 20
-4622.195
 30
1877.000
 70
    32
  0
VERTEX
  8
3350LEVEL
 62
7
 10
3784.158
 20
-4615.449
 30
1877.000
 70
    32
  0
VERTEX
  8
3350LEVEL
 62
7
 10
3781.710
 20
-4612.580
 30
1877.000
 70
    32
  0
VERTEX
  8
3350LEVEL
 62
7
 10
3780.811
 20
-4610.652
 30
1877.000
 70
    32
  0
VERTEX
  8
3350LEVEL
 62
7
 10
3780.969
 20
-4609.377
 30
1877.000
 70
    32
  0
VERTEX
  8
3350LEVEL
 62
7
 10
3782.378
 20
-4610.246
 30
1877.000
 70
    32
  0
VERTEX
  8
3350LEVEL
 62
7
 10
3784.831
 20
-4612.690
 30
1877.000
 70
    32
  0
VERTEX
  8
3350LEVEL
 62
7
 10
3788.226
 20
-4616.458
 30
1877.000
 70
    32
  0
VERTEX
  8
3350LEVEL
 62
7
 10
3791.237
 20
-4619.690
 30
1877.000
 70
    32
  0
VERTEX
  8
3350LEVEL
 62
7
 10
3793.268
 20
-4621.773
 30
1877.000
 70
    32
  0
VERTEX
  8
3350LEVEL
 62
7
 10
3794.435
 20
-4622.107
 30
1877.000
 70
    32
  0
VERTEX
  8
3350LEVEL
 62
7
 10
3793.615
 20
-4619.613
 30
1877.000
 70
    32
  0
VERTEX
  8
3350LEVEL
 62
7
 10
3789.701
 20
-4614.809
 30
1877.000
 70
    32
  0
VERTEX
  8
3350LEVEL
 62
7
 10
3783.908
 20
-4607.072
 30
1877.000
 70
    32
  0
VERTEX
  8
3350LEVEL
 62
7
 10
3780.323
 20
-4598.724
 30
1877.000
 70
    32
  0
VERTEX
  8
3350LEVEL
 62
7
 10
3779.775
 20
-4594.281
 30
1877.000
 70
    32
  0
VERTEX
  8
3350LEVEL
 62
7
 10
3780.583
 20
-4589.288
 30
1877.000
 70
    32
  0
VERTEX
  8
3350LEVEL
 62
7
 10
3781.456
 20
-4584.793
 30
1877.000
 70
    32
  0
VERTEX
  8
3350LEVEL
 62
7
 10
3778.434
 20
-4576.736
 30
1877.000
 70
    32
  0
VERTEX
  8
3350LEVEL
 62
7
 10
3775.102
 20
-4568.000
 30
1877.000
 70
    32
  0
VERTEX
  8
3350LEVEL
 62
7
 10
3774.588
 20
-4563.736
 30
1877.000
 70
    32
  0
VERTEX
  8
3350LEVEL
 62
7
 10
3777.158
 20
-4562.491
 30
1877.000
 70
    32
  0
VERTEX
  8
3350LEVEL
 62
7
 10
3781.559
 20
-4562.404
 30
1877.000
 70
    32
  0
VERTEX
  8
3350LEVEL
 62
7
 10
3784.467
 20
-4559.779
 30
1877.000
 70
    32
  0
VERTEX
  8
3350LEVEL
 62
7
 10
3781.823
 20
-4555.559
 30
1877.000
 70
    32
  0
VERTEX
  8
3350LEVEL
 62
7
 10
3779.005
 20
-4548.214
 30
1877.000
 70
    32
  0
VERTEX
  8
3350LEVEL
 62
7
 10
3780.698
 20
-4543.410
 30
1877.000
 70
    32
  0
VERTEX
  8
3350LEVEL
 62
7
 10
3782.623
 20
-4537.047
 30
1877.000
 70
    32
  0
VERTEX
  8
3350LEVEL
 62
7
 10
3782.261
 20
-4529.129
 30
1877.000
 70
    32
  0
VERTEX
  8
3350LEVEL
 62
7
 10
3782.294
 20
-4523.701
 30
1877.000
 70
    32
  0
VERTEX
  8
3350LEVEL
 62
7
 10
3777.487
 20
-4513.740
 30
1877.000
 70
    32
  0
VERTEX
  8
3350LEVEL
 62
7
 10
3774.913
 20
-4509.592
 30
1877.000
 70
    32
  0
VERTEX
  8
3350LEVEL
 62
7
 10
3773.909
 20
-4507.628
 30
1877.000
 70
    32
  0
VERTEX
  8
3350LEVEL
 62
7
 10
3772.168
 20
-4505.476
 30
1877.000
 70
    32
  0
SEQEND
  8
3350LEVEL
  0
POLYLINE
  8
3350LEVEL
 62
7
 66
     1
 70
     8
  0
VERTEX
  8
3350LEVEL
 62
7
 10
3765.533
 20
-4497.223
 30
1877.000
 70
    32
  0
VERTEX
  8
3350LEVEL
 62
7
 10
3764.885
 20
-4494.350
 30
1877.000
 70
    32
  0
VERTEX
  8
3350LEVEL
 62
7
 10
3761.994
 20
-4490.091
 30
1877.000
 70
    32
  0
VERTEX
  8
3350LEVEL
 62
7
 10
3759.759
 20
-4484.421
 30
1877.000
 70
    32
  0
VERTEX
  8
3350LEVEL
 62
7
 10
3757.462
 20
-4480.773
 30
1877.000
 70
    32
  0
VERTEX
  8
3350LEVEL
 62
7
 10
3758.192
 20
-4479.221
 30
1877.000
 70
    32
  0
VERTEX
  8
3350LEVEL
 62
7
 10
3759.895
 20
-4479.242
 30
1877.000
 70
    32
  0
VERTEX
  8
3350LEVEL
 62
7
 10
3763.530
 20
-4477.939
 30
1877.000
 70
    32
  0
VERTEX
  8
3350LEVEL
 62
7
 10
3763.923
 20
-4474.893
 30
1877.000
 70
    32
  0
VERTEX
  8
3350LEVEL
 62
7
 10
3765.457
 20
-4474.238
 30
1877.000
 70
    32
  0
VERTEX
  8
3350LEVEL
 62
7
 10
3768.500
 20
-4474.986
 30
1877.000
 70
    32
  0
VERTEX
  8
3350LEVEL
 62
7
 10
3773.182
 20
-4477.919
 30
1877.000
 70
    32
  0
VERTEX
  8
3350LEVEL
 62
7
 10
3775.957
 20
-4480.189
 30
1877.000
 70
    32
  0
VERTEX
  8
3350LEVEL
 62
7
 10
3780.321
 20
-4484.040
 30
1877.000
 70
    32
  0
SEQEND
  8
3350LEVEL
  0
POLYLINE
  8
3350LEVEL
 62
3
 66
     1
 70
     8
  0
VERTEX
  8
3350LEVEL
 62
3
 10
3487.197
 20
-4784.773
 30
1877.000
 70
    32
  0
VERTEX
  8
3350LEVEL
 62
3
 10
3485.343
 20
-4782.656
 30
1877.000
 70
    32
  0
VERTEX
  8
3350LEVEL
 62
3
 10
3482.615
 20
-4779.499
 30
1877.000
 70
    32
  0
VERTEX
  8
3350LEVEL
 62
3
 10
3480.102
 20
-4776.203
 30
1877.000
 70
    32
  0
VERTEX
  8
3350LEVEL
 62
3
 10
3479.484
 20
-4774.563
 30
1877.000
 70
    32
  0
SEQEND
  8
3350LEVEL
  0
POLYLINE
  8
3350LEVEL
 62
3
 66
     1
 70
     8
  0
VERTEX
  8
3350LEVEL
 62
3
 10
3689.316
 20
-4829.679
 30
1877.000
 70
    32
  0
VERTEX
  8
3350LEVEL
 62
3
 10
3686.387
 20
-4825.526
 30
1877.000
 70
    32
  0
VERTEX
  8
3350LEVEL
 62
3
 10
3684.051
 20
-4822.268
 30
1877.000
 70
    32
  0
VERTEX
  8
3350LEVEL
 62
3
 10
3682.835
 20
-4820.062
 30
1877.000
 70
    32
  0
SEQEND
  8
3350LEVEL
  0
POLYLINE
  8
3350LEVEL
 62
3
 66
     1
 70
     8
  0
VERTEX
  8
3350LEVEL
 62
3
 10
3772.168
 20
-4505.476
 30
1877.000
 70
    32
  0
VERTEX
  8
3350LEVEL
 62
3
 10
3770.071
 20
-4502.399
 30
1877.000
 70
    32
  0
VERTEX
  8
3350LEVEL
 62
3
 10
3767.020
 20
-4499.557
 30
1877.000
 70
    32
  0
VERTEX
  8
3350LEVEL
 62
3
 10
3765.533
 20
-4497.223
 30
1877.000
 70
    32
  0
SEQEND
  8
3350LEVEL
  0
POLYLINE
  8
3350LEVEL
 62
3
 66
     1
 70
     8
  0
VERTEX
  8
3350LEVEL
 62
3
 10
3789.598
 20
-4495.902
 30
1877.000
 70
    32
  0
VERTEX
  8
3350LEVEL
 62
3
 10
3785.225
 20
-4490.915
 30
1877.000
 70
    32
  0
VERTEX
  8
3350LEVEL
 62
3
 10
3781.251
 20
-4485.259
 30
1877.000
 70
    32
  0
VERTEX
  8
3350LEVEL
 62
3
 10
3780.321
 20
-4484.040
 30
1877.000
 70
    32
  0
SEQEND
  8
3350LEVEL
  0
ENDSEC
  0
EOF
