999
********************************
999
*   DXF File - Entities Only   *
999
*        3D Data Format        *
999
*     Output from ENVISAGE     *
999
*     28-Dec-2007 13:57:32     *
999
********************************
  0
SECTION 
  2
HEADER
  9
$ACADVER
  1
AC1009
  9
$EXTMIN
 10
-290000.000
 20
-250000.000
 30
-4000.000
  9
$EXTMAX
 10
5000000.000
 20
600000.000
 30
6000.000
  0
ENDSEC
  0
SECTION
  2
ENTITIES
  0
POLYLINE
  8
3500LEVEL
 62
7
 66
     1
 70
     8
  0
VERTEX
  8
3500LEVEL
 62
7
 10
4662.736
 20
-6541.247
 30
1727.000
 70
    32
  0
VERTEX
  8
3500LEVEL
 62
7
 10
4788.533
 20
-6684.470
 30
1727.000
 70
    32
  0
VERTEX
  8
3500LEVEL
 62
7
 10
4919.307
 20
-6861.544
 30
1727.000
 70
    32
  0
SEQEND
  8
3500LEVEL
  0
POLYLINE
  8
3500LEVEL
 62
7
 66
     1
 70
     9
  0
VERTEX
  8
3500LEVEL
 62
7
 10
2035.070
 20
-5211.476
 30
1727.000
 70
    32
  0
VERTEX
  8
3500LEVEL
 62
7
 10
2000.598
 20
-5192.080
 30
1727.000
 70
    32
  0
VERTEX
  8
3500LEVEL
 62
7
 10
2019.229
 20
-5231.637
 30
1727.000
 70
    32
  0
VERTEX
  8
3500LEVEL
 62
7
 10
2045.933
 20
-5239.699
 30
1727.000
 70
    32
  0
VERTEX
  8
3500LEVEL
 62
7
 10
2049.596
 20
-5223.135
 30
1727.000
 70
    32
  0
SEQEND
  8
3500LEVEL
  0
POLYLINE
  8
3500LEVEL
 62
7
 66
     1
 70
     9
  0
VERTEX
  8
3500LEVEL
 62
7
 10
2372.480
 20
-5329.854
 30
1727.000
 70
    32
  0
VERTEX
  8
3500LEVEL
 62
7
 10
2406.530
 20
-5386.509
 30
1727.000
 70
    32
  0
VERTEX
  8
3500LEVEL
 62
7
 10
2463.820
 20
-5460.255
 30
1727.000
 70
    32
  0
VERTEX
  8
3500LEVEL
 62
7
 10
2547.577
 20
-5589.189
 30
1727.000
 70
    32
  0
VERTEX
  8
3500LEVEL
 62
7
 10
2394.743
 20
-5400.257
 30
1727.000
 70
    32
  0
VERTEX
  8
3500LEVEL
 62
7
 10
2362.858
 20
-5336.383
 30
1727.000
 70
    32
  0
SEQEND
  8
3500LEVEL
  0
POLYLINE
  8
3500LEVEL
 62
7
 66
     1
 70
     9
  0
VERTEX
  8
3500LEVEL
 62
7
 10
2602.498
 20
-5657.259
 30
1727.000
 70
    32
  0
VERTEX
  8
3500LEVEL
 62
7
 10
2684.622
 20
-5741.290
 30
1727.000
 70
    32
  0
VERTEX
  8
3500LEVEL
 62
7
 10
2725.251
 20
-5808.835
 30
1727.000
 70
    32
  0
VERTEX
  8
3500LEVEL
 62
7
 10
2798.881
 20
-5915.970
 30
1727.000
 70
    32
  0
VERTEX
  8
3500LEVEL
 62
7
 10
2854.818
 20
-6015.477
 30
1727.000
 70
    32
  0
VERTEX
  8
3500LEVEL
 62
7
 10
2911.624
 20
-6096.965
 30
1727.000
 70
    32
  0
VERTEX
  8
3500LEVEL
 62
7
 10
2955.793
 20
-6167.600
 30
1727.000
 70
    32
  0
VERTEX
  8
3500LEVEL
 62
7
 10
3019.685
 20
-6275.696
 30
1727.000
 70
    32
  0
VERTEX
  8
3500LEVEL
 62
7
 10
3080.556
 20
-6391.631
 30
1727.000
 70
    32
  0
VERTEX
  8
3500LEVEL
 62
7
 10
3161.172
 20
-6535.447
 30
1727.000
 70
    32
  0
VERTEX
  8
3500LEVEL
 62
7
 10
3226.260
 20
-6664.416
 30
1727.000
 70
    32
  0
VERTEX
  8
3500LEVEL
 62
7
 10
3212.371
 20
-6747.943
 30
1727.000
 70
    32
  0
VERTEX
  8
3500LEVEL
 62
7
 10
3156.836
 20
-6790.748
 30
1727.000
 70
    32
  0
VERTEX
  8
3500LEVEL
 62
7
 10
3226.535
 20
-6884.642
 30
1727.000
 70
    32
  0
VERTEX
  8
3500LEVEL
 62
7
 10
3261.465
 20
-6964.138
 30
1727.000
 70
    32
  0
VERTEX
  8
3500LEVEL
 62
7
 10
3198.809
 20
-6916.014
 30
1727.000
 70
    32
  0
VERTEX
  8
3500LEVEL
 62
7
 10
3151.903
 20
-6853.011
 30
1727.000
 70
    32
  0
VERTEX
  8
3500LEVEL
 62
7
 10
3104.705
 20
-6782.395
 30
1727.000
 70
    32
  0
VERTEX
  8
3500LEVEL
 62
7
 10
3078.211
 20
-6716.358
 30
1727.000
 70
    32
  0
VERTEX
  8
3500LEVEL
 62
7
 10
3077.024
 20
-6657.654
 30
1727.000
 70
    32
  0
VERTEX
  8
3500LEVEL
 62
7
 10
3143.344
 20
-6643.564
 30
1727.000
 70
    32
  0
VERTEX
  8
3500LEVEL
 62
7
 10
3164.777
 20
-6601.095
 30
1727.000
 70
    32
  0
VERTEX
  8
3500LEVEL
 62
7
 10
3123.953
 20
-6528.474
 30
1727.000
 70
    32
  0
VERTEX
  8
3500LEVEL
 62
7
 10
3063.473
 20
-6468.341
 30
1727.000
 70
    32
  0
VERTEX
  8
3500LEVEL
 62
7
 10
3034.666
 20
-6405.716
 30
1727.000
 70
    32
  0
VERTEX
  8
3500LEVEL
 62
7
 10
3021.587
 20
-6350.403
 30
1727.000
 70
    32
  0
VERTEX
  8
3500LEVEL
 62
7
 10
2978.958
 20
-6296.913
 30
1727.000
 70
    32
  0
VERTEX
  8
3500LEVEL
 62
7
 10
2965.243
 20
-6225.105
 30
1727.000
 70
    32
  0
VERTEX
  8
3500LEVEL
 62
7
 10
2929.048
 20
-6166.089
 30
1727.000
 70
    32
  0
VERTEX
  8
3500LEVEL
 62
7
 10
2878.899
 20
-6095.000
 30
1727.000
 70
    32
  0
VERTEX
  8
3500LEVEL
 62
7
 10
2837.358
 20
-6018.985
 30
1727.000
 70
    32
  0
VERTEX
  8
3500LEVEL
 62
7
 10
2785.081
 20
-5961.175
 30
1727.000
 70
    32
  0
VERTEX
  8
3500LEVEL
 62
7
 10
2762.303
 20
-5900.273
 30
1727.000
 70
    32
  0
VERTEX
  8
3500LEVEL
 62
7
 10
2719.982
 20
-5836.996
 30
1727.000
 70
    32
  0
VERTEX
  8
3500LEVEL
 62
7
 10
2670.952
 20
-5774.662
 30
1727.000
 70
    32
  0
VERTEX
  8
3500LEVEL
 62
7
 10
2594.224
 20
-5663.248
 30
1727.000
 70
    32
  0
SEQEND
  8
3500LEVEL
  0
POLYLINE
  8
3500LEVEL
 62
7
 66
     1
 70
     9
  0
VERTEX
  8
3500LEVEL
 62
7
 10
3585.250
 20
-6607.180
 30
1727.000
 70
    32
  0
VERTEX
  8
3500LEVEL
 62
7
 10
3545.602
 20
-6552.403
 30
1727.000
 70
    32
  0
VERTEX
  8
3500LEVEL
 62
7
 10
3543.719
 20
-6572.026
 30
1727.000
 70
    32
  0
VERTEX
  8
3500LEVEL
 62
7
 10
3580.153
 20
-6616.957
 30
1727.000
 70
    32
  0
SEQEND
  8
3500LEVEL
  0
POLYLINE
  8
3500LEVEL
 62
7
 66
     1
 70
     8
  0
VERTEX
  8
3500LEVEL
 62
7
 10
4636.161
 20
-7065.614
 30
1727.000
 70
    32
  0
VERTEX
  8
3500LEVEL
 62
7
 10
4590.321
 20
-6989.667
 30
1727.000
 70
    32
  0
VERTEX
  8
3500LEVEL
 62
7
 10
4537.284
 20
-6901.974
 30
1727.000
 70
    32
  0
VERTEX
  8
3500LEVEL
 62
7
 10
4481.608
 20
-6824.451
 30
1727.000
 70
    32
  0
VERTEX
  8
3500LEVEL
 62
7
 10
4426.364
 20
-6750.528
 30
1727.000
 70
    32
  0
VERTEX
  8
3500LEVEL
 62
7
 10
4385.632
 20
-6705.665
 30
1727.000
 70
    32
  0
VERTEX
  8
3500LEVEL
 62
7
 10
4314.514
 20
-6620.624
 30
1727.000
 70
    32
  0
VERTEX
  8
3500LEVEL
 62
7
 10
4239.973
 20
-6538.060
 30
1727.000
 70
    32
  0
VERTEX
  8
3500LEVEL
 62
7
 10
4174.461
 20
-6458.961
 30
1727.000
 70
    32
  0
VERTEX
  8
3500LEVEL
 62
7
 10
4129.129
 20
-6398.733
 30
1727.000
 70
    32
  0
VERTEX
  8
3500LEVEL
 62
7
 10
4089.827
 20
-6340.227
 30
1727.000
 70
    32
  0
VERTEX
  8
3500LEVEL
 62
7
 10
4036.281
 20
-6282.466
 30
1727.000
 70
    32
  0
VERTEX
  8
3500LEVEL
 62
7
 10
3961.606
 20
-6224.346
 30
1727.000
 70
    32
  0
VERTEX
  8
3500LEVEL
 62
7
 10
3917.274
 20
-6179.915
 30
1727.000
 70
    32
  0
VERTEX
  8
3500LEVEL
 62
7
 10
3879.327
 20
-6174.339
 30
1727.000
 70
    32
  0
VERTEX
  8
3500LEVEL
 62
7
 10
3564.367
 20
-5999.279
 30
1727.000
 70
    32
  0
VERTEX
  8
3500LEVEL
 62
7
 10
3514.880
 20
-5955.536
 30
1727.000
 70
    32
  0
VERTEX
  8
3500LEVEL
 62
7
 10
3455.125
 20
-5906.616
 30
1727.000
 70
    32
  0
VERTEX
  8
3500LEVEL
 62
7
 10
3399.827
 20
-5856.645
 30
1727.000
 70
    32
  0
VERTEX
  8
3500LEVEL
 62
7
 10
3368.363
 20
-5801.160
 30
1727.000
 70
    32
  0
VERTEX
  8
3500LEVEL
 62
7
 10
3409.220
 20
-5813.760
 30
1727.000
 70
    32
  0
VERTEX
  8
3500LEVEL
 62
7
 10
3459.150
 20
-5856.314
 30
1727.000
 70
    32
  0
VERTEX
  8
3500LEVEL
 62
7
 10
3466.766
 20
-5843.410
 30
1727.000
 70
    32
  0
VERTEX
  8
3500LEVEL
 62
7
 10
3426.983
 20
-5780.035
 30
1727.000
 70
    32
  0
VERTEX
  8
3500LEVEL
 62
7
 10
3398.894
 20
-5720.804
 30
1727.000
 70
    32
  0
VERTEX
  8
3500LEVEL
 62
7
 10
3367.193
 20
-5666.796
 30
1727.000
 70
    32
  0
VERTEX
  8
3500LEVEL
 62
7
 10
3412.162
 20
-5682.072
 30
1727.000
 70
    32
  0
VERTEX
  8
3500LEVEL
 62
7
 10
3821.903
 20
-5985.589
 30
1727.000
 70
    32
  0
VERTEX
  8
3500LEVEL
 62
7
 10
3913.118
 20
-6072.058
 30
1727.000
 70
    32
  0
VERTEX
  8
3500LEVEL
 62
7
 10
3983.274
 20
-6147.362
 30
1727.000
 70
    32
  0
VERTEX
  8
3500LEVEL
 62
7
 10
4051.223
 20
-6236.435
 30
1727.000
 70
    32
  0
VERTEX
  8
3500LEVEL
 62
7
 10
4135.474
 20
-6352.838
 30
1727.000
 70
    32
  0
VERTEX
  8
3500LEVEL
 62
7
 10
4203.375
 20
-6440.643
 30
1727.000
 70
    32
  0
VERTEX
  8
3500LEVEL
 62
7
 10
4225.144
 20
-6432.277
 30
1727.000
 70
    32
  0
VERTEX
  8
3500LEVEL
 62
7
 10
4278.451
 20
-6504.124
 30
1727.000
 70
    32
  0
VERTEX
  8
3500LEVEL
 62
7
 10
4321.981
 20
-6570.873
 30
1727.000
 70
    32
  0
VERTEX
  8
3500LEVEL
 62
7
 10
4381.828
 20
-6647.551
 30
1727.000
 70
    32
  0
VERTEX
  8
3500LEVEL
 62
7
 10
4436.434
 20
-6717.588
 30
1727.000
 70
    32
  0
VERTEX
  8
3500LEVEL
 62
7
 10
4504.130
 20
-6792.498
 30
1727.000
 70
    32
  0
VERTEX
  8
3500LEVEL
 62
7
 10
4567.637
 20
-6865.222
 30
1727.000
 70
    32
  0
VERTEX
  8
3500LEVEL
 62
7
 10
4634.771
 20
-6948.364
 30
1727.000
 70
    32
  0
VERTEX
  8
3500LEVEL
 62
7
 10
4691.510
 20
-7025.553
 30
1727.000
 70
    32
  0
SEQEND
  8
3500LEVEL
  0
POLYLINE
  8
3500LEVEL
 62
7
 66
     1
 70
     9
  0
VERTEX
  8
3500LEVEL
 62
7
 10
2177.578
 20
-4954.858
 30
1727.000
 70
    32
  0
VERTEX
  8
3500LEVEL
 62
7
 10
2133.786
 20
-4911.774
 30
1727.000
 70
    32
  0
VERTEX
  8
3500LEVEL
 62
7
 10
2097.681
 20
-4893.126
 30
1727.000
 70
    32
  0
VERTEX
  8
3500LEVEL
 62
7
 10
2065.201
 20
-4851.856
 30
1727.000
 70
    32
  0
VERTEX
  8
3500LEVEL
 62
7
 10
2024.868
 20
-4824.964
 30
1727.000
 70
    32
  0
VERTEX
  8
3500LEVEL
 62
7
 10
1992.951
 20
-4775.460
 30
1727.000
 70
    32
  0
VERTEX
  8
3500LEVEL
 62
7
 10
1961.794
 20
-4710.189
 30
1727.000
 70
    32
  0
VERTEX
  8
3500LEVEL
 62
7
 10
1978.094
 20
-4704.478
 30
1727.000
 70
    32
  0
VERTEX
  8
3500LEVEL
 62
7
 10
2031.170
 20
-4752.579
 30
1727.000
 70
    32
  0
VERTEX
  8
3500LEVEL
 62
7
 10
2077.084
 20
-4807.605
 30
1727.000
 70
    32
  0
VERTEX
  8
3500LEVEL
 62
7
 10
2116.104
 20
-4853.706
 30
1727.000
 70
    32
  0
VERTEX
  8
3500LEVEL
 62
7
 10
2151.016
 20
-4884.522
 30
1727.000
 70
    32
  0
SEQEND
  8
3500LEVEL
  0
POLYLINE
  8
3500LEVEL
 62
7
 66
     1
 70
     8
  0
VERTEX
  8
3500LEVEL
 62
7
 10
148.588
 20
-4416.126
 30
1727.000
 70
    32
  0
VERTEX
  8
3500LEVEL
 62
7
 10
190.091
 20
-4486.082
 30
1727.000
 70
    32
  0
VERTEX
  8
3500LEVEL
 62
7
 10
245.115
 20
-4577.120
 30
1727.000
 70
    32
  0
VERTEX
  8
3500LEVEL
 62
7
 10
285.716
 20
-4679.466
 30
1727.000
 70
    32
  0
VERTEX
  8
3500LEVEL
 62
7
 10
280.970
 20
-4614.644
 30
1727.000
 70
    32
  0
VERTEX
  8
3500LEVEL
 62
7
 10
244.488
 20
-4522.793
 30
1727.000
 70
    32
  0
VERTEX
  8
3500LEVEL
 62
7
 10
287.964
 20
-4613.494
 30
1727.000
 70
    32
  0
VERTEX
  8
3500LEVEL
 62
7
 10
337.129
 20
-4730.076
 30
1727.000
 70
    32
  0
VERTEX
  8
3500LEVEL
 62
7
 10
398.975
 20
-4883.999
 30
1727.000
 70
    32
  0
VERTEX
  8
3500LEVEL
 62
7
 10
506.645
 20
-5006.929
 30
1727.000
 70
    32
  0
VERTEX
  8
3500LEVEL
 62
7
 10
598.470
 20
-5083.939
 30
1727.000
 70
    32
  0
VERTEX
  8
3500LEVEL
 62
7
 10
595.395
 20
-5024.428
 30
1727.000
 70
    32
  0
VERTEX
  8
3500LEVEL
 62
7
 10
520.466
 20
-4919.103
 30
1727.000
 70
    32
  0
VERTEX
  8
3500LEVEL
 62
7
 10
456.054
 20
-4800.079
 30
1727.000
 70
    32
  0
VERTEX
  8
3500LEVEL
 62
7
 10
431.621
 20
-4670.814
 30
1727.000
 70
    32
  0
VERTEX
  8
3500LEVEL
 62
7
 10
393.867
 20
-4545.972
 30
1727.000
 70
    32
  0
VERTEX
  8
3500LEVEL
 62
7
 10
358.116
 20
-4440.115
 30
1727.000
 70
    32
  0
VERTEX
  8
3500LEVEL
 62
7
 10
386.002
 20
-4486.450
 30
1727.000
 70
    32
  0
VERTEX
  8
3500LEVEL
 62
7
 10
420.622
 20
-4588.343
 30
1727.000
 70
    32
  0
VERTEX
  8
3500LEVEL
 62
7
 10
450.390
 20
-4706.356
 30
1727.000
 70
    32
  0
VERTEX
  8
3500LEVEL
 62
7
 10
488.241
 20
-4833.736
 30
1727.000
 70
    32
  0
VERTEX
  8
3500LEVEL
 62
7
 10
563.290
 20
-4932.018
 30
1727.000
 70
    32
  0
VERTEX
  8
3500LEVEL
 62
7
 10
643.135
 20
-5005.091
 30
1727.000
 70
    32
  0
VERTEX
  8
3500LEVEL
 62
7
 10
643.489
 20
-4963.532
 30
1727.000
 70
    32
  0
VERTEX
  8
3500LEVEL
 62
7
 10
589.772
 20
-4878.504
 30
1727.000
 70
    32
  0
VERTEX
  8
3500LEVEL
 62
7
 10
545.049
 20
-4778.272
 30
1727.000
 70
    32
  0
VERTEX
  8
3500LEVEL
 62
7
 10
538.839
 20
-4617.121
 30
1727.000
 70
    32
  0
VERTEX
  8
3500LEVEL
 62
7
 10
493.728
 20
-4448.477
 30
1727.000
 70
    32
  0
VERTEX
  8
3500LEVEL
 62
7
 10
451.945
 20
-4307.857
 30
1727.000
 70
    32
  0
VERTEX
  8
3500LEVEL
 62
7
 10
412.065
 20
-4196.294
 30
1727.000
 70
    32
  0
VERTEX
  8
3500LEVEL
 62
7
 10
467.319
 20
-4265.426
 30
1727.000
 70
    32
  0
VERTEX
  8
3500LEVEL
 62
7
 10
513.230
 20
-4378.712
 30
1727.000
 70
    32
  0
VERTEX
  8
3500LEVEL
 62
7
 10
545.394
 20
-4513.251
 30
1727.000
 70
    32
  0
VERTEX
  8
3500LEVEL
 62
7
 10
589.557
 20
-4654.757
 30
1727.000
 70
    32
  0
VERTEX
  8
3500LEVEL
 62
7
 10
627.552
 20
-4798.553
 30
1727.000
 70
    32
  0
VERTEX
  8
3500LEVEL
 62
7
 10
728.739
 20
-4880.090
 30
1727.000
 70
    32
  0
VERTEX
  8
3500LEVEL
 62
7
 10
798.591
 20
-4906.919
 30
1727.000
 70
    32
  0
VERTEX
  8
3500LEVEL
 62
7
 10
783.479
 20
-4834.383
 30
1727.000
 70
    32
  0
VERTEX
  8
3500LEVEL
 62
7
 10
732.713
 20
-4749.828
 30
1727.000
 70
    32
  0
VERTEX
  8
3500LEVEL
 62
7
 10
707.113
 20
-4689.230
 30
1727.000
 70
    32
  0
VERTEX
  8
3500LEVEL
 62
7
 10
744.658
 20
-4735.096
 30
1727.000
 70
    32
  0
VERTEX
  8
3500LEVEL
 62
7
 10
803.380
 20
-4828.240
 30
1727.000
 70
    32
  0
VERTEX
  8
3500LEVEL
 62
7
 10
857.199
 20
-4936.235
 30
1727.000
 70
    32
  0
VERTEX
  8
3500LEVEL
 62
7
 10
918.505
 20
-5043.160
 30
1727.000
 70
    32
  0
VERTEX
  8
3500LEVEL
 62
7
 10
976.601
 20
-5160.669
 30
1727.000
 70
    32
  0
VERTEX
  8
3500LEVEL
 62
7
 10
981.673
 20
-5264.384
 30
1727.000
 70
    32
  0
VERTEX
  8
3500LEVEL
 62
7
 10
1002.023
 20
-5401.822
 30
1727.000
 70
    32
  0
VERTEX
  8
3500LEVEL
 62
7
 10
1072.208
 20
-5521.015
 30
1727.000
 70
    32
  0
VERTEX
  8
3500LEVEL
 62
7
 10
1114.207
 20
-5532.789
 30
1727.000
 70
    32
  0
VERTEX
  8
3500LEVEL
 62
7
 10
1131.932
 20
-5447.355
 30
1727.000
 70
    32
  0
VERTEX
  8
3500LEVEL
 62
7
 10
1182.244
 20
-5537.890
 30
1727.000
 70
    32
  0
VERTEX
  8
3500LEVEL
 62
7
 10
1248.092
 20
-5651.092
 30
1727.000
 70
    32
  0
VERTEX
  8
3500LEVEL
 62
7
 10
1347.220
 20
-5750.205
 30
1727.000
 70
    32
  0
VERTEX
  8
3500LEVEL
 62
7
 10
1471.409
 20
-5862.919
 30
1727.000
 70
    32
  0
VERTEX
  8
3500LEVEL
 62
7
 10
1593.347
 20
-5962.913
 30
1727.000
 70
    32
  0
VERTEX
  8
3500LEVEL
 62
7
 10
1684.590
 20
-6045.126
 30
1727.000
 70
    32
  0
VERTEX
  8
3500LEVEL
 62
7
 10
1817.897
 20
-6110.371
 30
1727.000
 70
    32
  0
VERTEX
  8
3500LEVEL
 62
7
 10
1911.619
 20
-6150.357
 30
1727.000
 70
    32
  0
VERTEX
  8
3500LEVEL
 62
7
 10
1880.194
 20
-6009.631
 30
1727.000
 70
    32
  0
VERTEX
  8
3500LEVEL
 62
7
 10
1834.384
 20
-5886.273
 30
1727.000
 70
    32
  0
VERTEX
  8
3500LEVEL
 62
7
 10
1766.055
 20
-5782.258
 30
1727.000
 70
    32
  0
VERTEX
  8
3500LEVEL
 62
7
 10
1673.959
 20
-5688.054
 30
1727.000
 70
    32
  0
VERTEX
  8
3500LEVEL
 62
7
 10
1585.800
 20
-5581.871
 30
1727.000
 70
    32
  0
VERTEX
  8
3500LEVEL
 62
7
 10
1477.181
 20
-5477.453
 30
1727.000
 70
    32
  0
VERTEX
  8
3500LEVEL
 62
7
 10
1376.939
 20
-5344.364
 30
1727.000
 70
    32
  0
VERTEX
  8
3500LEVEL
 62
7
 10
1300.676
 20
-5222.179
 30
1727.000
 70
    32
  0
VERTEX
  8
3500LEVEL
 62
7
 10
1263.099
 20
-5099.384
 30
1727.000
 70
    32
  0
VERTEX
  8
3500LEVEL
 62
7
 10
1247.178
 20
-4995.695
 30
1727.000
 70
    32
  0
VERTEX
  8
3500LEVEL
 62
7
 10
1231.145
 20
-4906.869
 30
1727.000
 70
    32
  0
VERTEX
  8
3500LEVEL
 62
7
 10
1181.107
 20
-4820.918
 30
1727.000
 70
    32
  0
VERTEX
  8
3500LEVEL
 62
7
 10
1130.889
 20
-4726.778
 30
1727.000
 70
    32
  0
VERTEX
  8
3500LEVEL
 62
7
 10
1102.799
 20
-4674.082
 30
1727.000
 70
    32
  0
VERTEX
  8
3500LEVEL
 62
7
 10
1123.331
 20
-4676.222
 30
1727.000
 70
    32
  0
VERTEX
  8
3500LEVEL
 62
7
 10
1170.410
 20
-4753.881
 30
1727.000
 70
    32
  0
VERTEX
  8
3500LEVEL
 62
7
 10
1200.168
 20
-4831.034
 30
1727.000
 70
    32
  0
VERTEX
  8
3500LEVEL
 62
7
 10
1265.682
 20
-4943.173
 30
1727.000
 70
    32
  0
VERTEX
  8
3500LEVEL
 62
7
 10
1299.572
 20
-4967.772
 30
1727.000
 70
    32
  0
VERTEX
  8
3500LEVEL
 62
7
 10
1302.168
 20
-4931.112
 30
1727.000
 70
    32
  0
VERTEX
  8
3500LEVEL
 62
7
 10
1260.273
 20
-4851.005
 30
1727.000
 70
    32
  0
VERTEX
  8
3500LEVEL
 62
7
 10
1198.927
 20
-4750.631
 30
1727.000
 70
    32
  0
VERTEX
  8
3500LEVEL
 62
7
 10
1151.658
 20
-4642.677
 30
1727.000
 70
    32
  0
VERTEX
  8
3500LEVEL
 62
7
 10
1115.344
 20
-4545.052
 30
1727.000
 70
    32
  0
VERTEX
  8
3500LEVEL
 62
7
 10
1165.994
 20
-4578.389
 30
1727.000
 70
    32
  0
VERTEX
  8
3500LEVEL
 62
7
 10
1227.474
 20
-4654.320
 30
1727.000
 70
    32
  0
VERTEX
  8
3500LEVEL
 62
7
 10
1271.656
 20
-4753.205
 30
1727.000
 70
    32
  0
VERTEX
  8
3500LEVEL
 62
7
 10
1329.924
 20
-4852.329
 30
1727.000
 70
    32
  0
VERTEX
  8
3500LEVEL
 62
7
 10
1366.726
 20
-4962.642
 30
1727.000
 70
    32
  0
VERTEX
  8
3500LEVEL
 62
7
 10
1406.124
 20
-5081.947
 30
1727.000
 70
    32
  0
VERTEX
  8
3500LEVEL
 62
7
 10
1456.607
 20
-5154.098
 30
1727.000
 70
    32
  0
VERTEX
  8
3500LEVEL
 62
7
 10
1533.352
 20
-5235.501
 30
1727.000
 70
    32
  0
VERTEX
  8
3500LEVEL
 62
7
 10
1537.192
 20
-5175.333
 30
1727.000
 70
    32
  0
VERTEX
  8
3500LEVEL
 62
7
 10
1646.264
 20
-5319.421
 30
1727.000
 70
    32
  0
VERTEX
  8
3500LEVEL
 62
7
 10
1774.285
 20
-5488.487
 30
1727.000
 70
    32
  0
VERTEX
  8
3500LEVEL
 62
7
 10
1887.216
 20
-5666.738
 30
1727.000
 70
    32
  0
VERTEX
  8
3500LEVEL
 62
7
 10
1988.139
 20
-5830.201
 30
1727.000
 70
    32
  0
VERTEX
  8
3500LEVEL
 62
7
 10
2080.056
 20
-5980.620
 30
1727.000
 70
    32
  0
VERTEX
  8
3500LEVEL
 62
7
 10
2188.641
 20
-6145.059
 30
1727.000
 70
    32
  0
VERTEX
  8
3500LEVEL
 62
7
 10
2310.544
 20
-6317.685
 30
1727.000
 70
    32
  0
VERTEX
  8
3500LEVEL
 62
7
 10
2407.976
 20
-6433.677
 30
1727.000
 70
    32
  0
VERTEX
  8
3500LEVEL
 62
7
 10
2484.525
 20
-6555.656
 30
1727.000
 70
    32
  0
VERTEX
  8
3500LEVEL
 62
7
 10
2542.258
 20
-6628.212
 30
1727.000
 70
    32
  0
VERTEX
  8
3500LEVEL
 62
7
 10
2570.133
 20
-6588.036
 30
1727.000
 70
    32
  0
VERTEX
  8
3500LEVEL
 62
7
 10
2537.708
 20
-6477.164
 30
1727.000
 70
    32
  0
VERTEX
  8
3500LEVEL
 62
7
 10
2459.377
 20
-6319.086
 30
1727.000
 70
    32
  0
VERTEX
  8
3500LEVEL
 62
7
 10
2375.762
 20
-6173.528
 30
1727.000
 70
    32
  0
VERTEX
  8
3500LEVEL
 62
7
 10
2316.940
 20
-6044.806
 30
1727.000
 70
    32
  0
VERTEX
  8
3500LEVEL
 62
7
 10
2297.788
 20
-5961.281
 30
1727.000
 70
    32
  0
VERTEX
  8
3500LEVEL
 62
7
 10
2245.117
 20
-5860.280
 30
1727.000
 70
    32
  0
VERTEX
  8
3500LEVEL
 62
7
 10
2186.023
 20
-5760.014
 30
1727.000
 70
    32
  0
VERTEX
  8
3500LEVEL
 62
7
 10
2125.307
 20
-5655.706
 30
1727.000
 70
    32
  0
VERTEX
  8
3500LEVEL
 62
7
 10
2067.898
 20
-5543.352
 30
1727.000
 70
    32
  0
VERTEX
  8
3500LEVEL
 62
7
 10
2010.741
 20
-5445.162
 30
1727.000
 70
    32
  0
VERTEX
  8
3500LEVEL
 62
7
 10
1950.840
 20
-5346.785
 30
1727.000
 70
    32
  0
VERTEX
  8
3500LEVEL
 62
7
 10
1891.391
 20
-5255.038
 30
1727.000
 70
    32
  0
VERTEX
  8
3500LEVEL
 62
7
 10
1861.405
 20
-5187.180
 30
1727.000
 70
    32
  0
VERTEX
  8
3500LEVEL
 62
7
 10
1826.874
 20
-5125.656
 30
1727.000
 70
    32
  0
VERTEX
  8
3500LEVEL
 62
7
 10
1770.728
 20
-5038.473
 30
1727.000
 70
    32
  0
VERTEX
  8
3500LEVEL
 62
7
 10
1727.906
 20
-4967.298
 30
1727.000
 70
    32
  0
VERTEX
  8
3500LEVEL
 62
7
 10
1761.177
 20
-4991.040
 30
1727.000
 70
    32
  0
VERTEX
  8
3500LEVEL
 62
7
 10
1819.201
 20
-5038.170
 30
1727.000
 70
    32
  0
VERTEX
  8
3500LEVEL
 62
7
 10
1799.451
 20
-4989.859
 30
1727.000
 70
    32
  0
VERTEX
  8
3500LEVEL
 62
7
 10
1841.139
 20
-5024.030
 30
1727.000
 70
    32
  0
VERTEX
  8
3500LEVEL
 62
7
 10
1884.372
 20
-5017.085
 30
1727.000
 70
    32
  0
VERTEX
  8
3500LEVEL
 62
7
 10
1877.069
 20
-4949.331
 30
1727.000
 70
    32
  0
VERTEX
  8
3500LEVEL
 62
7
 10
1834.856
 20
-4883.801
 30
1727.000
 70
    32
  0
VERTEX
  8
3500LEVEL
 62
7
 10
1825.164
 20
-4852.992
 30
1727.000
 70
    32
  0
VERTEX
  8
3500LEVEL
 62
7
 10
1870.823
 20
-4906.463
 30
1727.000
 70
    32
  0
VERTEX
  8
3500LEVEL
 62
7
 10
1908.552
 20
-4962.194
 30
1727.000
 70
    32
  0
VERTEX
  8
3500LEVEL
 62
7
 10
1922.083
 20
-5024.137
 30
1727.000
 70
    32
  0
VERTEX
  8
3500LEVEL
 62
7
 10
1949.865
 20
-5093.155
 30
1727.000
 70
    32
  0
VERTEX
  8
3500LEVEL
 62
7
 10
1971.362
 20
-5158.896
 30
1727.000
 70
    32
  0
VERTEX
  8
3500LEVEL
 62
7
 10
1973.889
 20
-5117.938
 30
1727.000
 70
    32
  0
VERTEX
  8
3500LEVEL
 62
7
 10
2004.612
 20
-5146.569
 30
1727.000
 70
    32
  0
VERTEX
  8
3500LEVEL
 62
7
 10
2055.134
 20
-5179.128
 30
1727.000
 70
    32
  0
VERTEX
  8
3500LEVEL
 62
7
 10
2030.821
 20
-5121.511
 30
1727.000
 70
    32
  0
VERTEX
  8
3500LEVEL
 62
7
 10
1984.402
 20
-5083.808
 30
1727.000
 70
    32
  0
VERTEX
  8
3500LEVEL
 62
7
 10
1966.415
 20
-5022.917
 30
1727.000
 70
    32
  0
VERTEX
  8
3500LEVEL
 62
7
 10
1958.020
 20
-4957.257
 30
1727.000
 70
    32
  0
VERTEX
  8
3500LEVEL
 62
7
 10
1921.443
 20
-4895.910
 30
1727.000
 70
    32
  0
VERTEX
  8
3500LEVEL
 62
7
 10
1886.352
 20
-4830.008
 30
1727.000
 70
    32
  0
VERTEX
  8
3500LEVEL
 62
7
 10
1826.222
 20
-4740.926
 30
1727.000
 70
    32
  0
VERTEX
  8
3500LEVEL
 62
7
 10
1766.859
 20
-4656.507
 30
1727.000
 70
    32
  0
VERTEX
  8
3500LEVEL
 62
7
 10
1708.529
 20
-4573.515
 30
1727.000
 70
    32
  0
VERTEX
  8
3500LEVEL
 62
7
 10
1754.179
 20
-4619.166
 30
1727.000
 70
    32
  0
VERTEX
  8
3500LEVEL
 62
7
 10
1810.641
 20
-4658.730
 30
1727.000
 70
    32
  0
VERTEX
  8
3500LEVEL
 62
7
 10
1854.274
 20
-4702.797
 30
1727.000
 70
    32
  0
VERTEX
  8
3500LEVEL
 62
7
 10
1910.239
 20
-4767.503
 30
1727.000
 70
    32
  0
VERTEX
  8
3500LEVEL
 62
7
 10
1947.859
 20
-4825.487
 30
1727.000
 70
    32
  0
VERTEX
  8
3500LEVEL
 62
7
 10
2006.815
 20
-4884.116
 30
1727.000
 70
    32
  0
VERTEX
  8
3500LEVEL
 62
7
 10
2063.567
 20
-4943.904
 30
1727.000
 70
    32
  0
VERTEX
  8
3500LEVEL
 62
7
 10
2120.110
 20
-5016.017
 30
1727.000
 70
    32
  0
VERTEX
  8
3500LEVEL
 62
7
 10
2168.683
 20
-5096.942
 30
1727.000
 70
    32
  0
VERTEX
  8
3500LEVEL
 62
7
 10
2220.330
 20
-5158.686
 30
1727.000
 70
    32
  0
VERTEX
  8
3500LEVEL
 62
7
 10
2265.331
 20
-5205.242
 30
1727.000
 70
    32
  0
VERTEX
  8
3500LEVEL
 62
7
 10
2308.331
 20
-5265.854
 30
1727.000
 70
    32
  0
VERTEX
  8
3500LEVEL
 62
7
 10
2331.435
 20
-5274.348
 30
1727.000
 70
    32
  0
VERTEX
  8
3500LEVEL
 62
7
 10
2347.276
 20
-5254.187
 30
1727.000
 70
    32
  0
VERTEX
  8
3500LEVEL
 62
7
 10
2369.956
 20
-5221.250
 30
1727.000
 70
    32
  0
VERTEX
  8
3500LEVEL
 62
7
 10
2336.047
 20
-5193.622
 30
1727.000
 70
    32
  0
VERTEX
  8
3500LEVEL
 62
7
 10
2323.367
 20
-5110.630
 30
1727.000
 70
    32
  0
VERTEX
  8
3500LEVEL
 62
7
 10
2345.014
 20
-5167.567
 30
1727.000
 70
    32
  0
VERTEX
  8
3500LEVEL
 62
7
 10
2380.140
 20
-5206.488
 30
1727.000
 70
    32
  0
VERTEX
  8
3500LEVEL
 62
7
 10
2427.078
 20
-5300.770
 30
1727.000
 70
    32
  0
VERTEX
  8
3500LEVEL
 62
7
 10
2461.971
 20
-5374.206
 30
1727.000
 70
    32
  0
VERTEX
  8
3500LEVEL
 62
7
 10
2518.972
 20
-5460.769
 30
1727.000
 70
    32
  0
VERTEX
  8
3500LEVEL
 62
7
 10
2566.782
 20
-5570.072
 30
1727.000
 70
    32
  0
VERTEX
  8
3500LEVEL
 62
7
 10
2623.974
 20
-5641.280
 30
1727.000
 70
    32
  0
VERTEX
  8
3500LEVEL
 62
7
 10
2692.785
 20
-5704.514
 30
1727.000
 70
    32
  0
VERTEX
  8
3500LEVEL
 62
7
 10
2720.716
 20
-5764.728
 30
1727.000
 70
    32
  0
VERTEX
  8
3500LEVEL
 62
7
 10
2754.598
 20
-5827.157
 30
1727.000
 70
    32
  0
VERTEX
  8
3500LEVEL
 62
7
 10
2815.855
 20
-5887.163
 30
1727.000
 70
    32
  0
VERTEX
  8
3500LEVEL
 62
7
 10
2853.998
 20
-5943.465
 30
1727.000
 70
    32
  0
VERTEX
  8
3500LEVEL
 62
7
 10
2886.310
 20
-5990.510
 30
1727.000
 70
    32
  0
VERTEX
  8
3500LEVEL
 62
7
 10
2914.851
 20
-5965.070
 30
1727.000
 70
    32
  0
VERTEX
  8
3500LEVEL
 62
7
 10
2952.716
 20
-6029.398
 30
1727.000
 70
    32
  0
VERTEX
  8
3500LEVEL
 62
7
 10
2966.521
 20
-6095.924
 30
1727.000
 70
    32
  0
VERTEX
  8
3500LEVEL
 62
7
 10
2993.292
 20
-6153.935
 30
1727.000
 70
    32
  0
VERTEX
  8
3500LEVEL
 62
7
 10
3049.490
 20
-6229.777
 30
1727.000
 70
    32
  0
VERTEX
  8
3500LEVEL
 62
7
 10
3087.483
 20
-6294.882
 30
1727.000
 70
    32
  0
VERTEX
  8
3500LEVEL
 62
7
 10
3075.661
 20
-6244.311
 30
1727.000
 70
    32
  0
VERTEX
  8
3500LEVEL
 62
7
 10
3059.680
 20
-6189.794
 30
1727.000
 70
    32
  0
VERTEX
  8
3500LEVEL
 62
7
 10
3053.015
 20
-6125.925
 30
1727.000
 70
    32
  0
VERTEX
  8
3500LEVEL
 62
7
 10
3034.175
 20
-6053.043
 30
1727.000
 70
    32
  0
VERTEX
  8
3500LEVEL
 62
7
 10
2996.074
 20
-5990.190
 30
1727.000
 70
    32
  0
VERTEX
  8
3500LEVEL
 62
7
 10
2964.629
 20
-5937.736
 30
1727.000
 70
    32
  0
VERTEX
  8
3500LEVEL
 62
7
 10
2952.826
 20
-5890.194
 30
1727.000
 70
    32
  0
VERTEX
  8
3500LEVEL
 62
7
 10
2929.546
 20
-5834.004
 30
1727.000
 70
    32
  0
VERTEX
  8
3500LEVEL
 62
7
 10
2900.128
 20
-5778.343
 30
1727.000
 70
    32
  0
VERTEX
  8
3500LEVEL
 62
7
 10
2876.615
 20
-5711.018
 30
1727.000
 70
    32
  0
VERTEX
  8
3500LEVEL
 62
7
 10
2907.044
 20
-5732.035
 30
1727.000
 70
    32
  0
VERTEX
  8
3500LEVEL
 62
7
 10
2911.684
 20
-5786.500
 30
1727.000
 70
    32
  0
VERTEX
  8
3500LEVEL
 62
7
 10
2943.178
 20
-5840.223
 30
1727.000
 70
    32
  0
VERTEX
  8
3500LEVEL
 62
7
 10
2991.969
 20
-5916.643
 30
1727.000
 70
    32
  0
VERTEX
  8
3500LEVEL
 62
7
 10
3031.538
 20
-5971.913
 30
1727.000
 70
    32
  0
VERTEX
  8
3500LEVEL
 62
7
 10
3047.492
 20
-6015.580
 30
1727.000
 70
    32
  0
VERTEX
  8
3500LEVEL
 62
7
 10
3067.280
 20
-6074.265
 30
1727.000
 70
    32
  0
VERTEX
  8
3500LEVEL
 62
7
 10
3092.161
 20
-6139.764
 30
1727.000
 70
    32
  0
VERTEX
  8
3500LEVEL
 62
7
 10
3125.277
 20
-6197.530
 30
1727.000
 70
    32
  0
VERTEX
  8
3500LEVEL
 62
7
 10
3148.328
 20
-6217.366
 30
1727.000
 70
    32
  0
VERTEX
  8
3500LEVEL
 62
7
 10
3158.813
 20
-6263.687
 30
1727.000
 70
    32
  0
VERTEX
  8
3500LEVEL
 62
7
 10
3171.245
 20
-6228.604
 30
1727.000
 70
    32
  0
VERTEX
  8
3500LEVEL
 62
7
 10
3234.629
 20
-6275.331
 30
1727.000
 70
    32
  0
VERTEX
  8
3500LEVEL
 62
7
 10
3285.059
 20
-6325.783
 30
1727.000
 70
    32
  0
VERTEX
  8
3500LEVEL
 62
7
 10
3353.916
 20
-6357.246
 30
1727.000
 70
    32
  0
VERTEX
  8
3500LEVEL
 62
7
 10
3372.444
 20
-6419.484
 30
1727.000
 70
    32
  0
VERTEX
  8
3500LEVEL
 62
7
 10
3374.989
 20
-6472.857
 30
1727.000
 70
    32
  0
VERTEX
  8
3500LEVEL
 62
7
 10
3394.376
 20
-6476.216
 30
1727.000
 70
    32
  0
VERTEX
  8
3500LEVEL
 62
7
 10
3417.384
 20
-6469.561
 30
1727.000
 70
    32
  0
VERTEX
  8
3500LEVEL
 62
7
 10
3393.949
 20
-6447.395
 30
1727.000
 70
    32
  0
VERTEX
  8
3500LEVEL
 62
7
 10
3395.686
 20
-6378.315
 30
1727.000
 70
    32
  0
VERTEX
  8
3500LEVEL
 62
7
 10
3366.155
 20
-6304.476
 30
1727.000
 70
    32
  0
VERTEX
  8
3500LEVEL
 62
7
 10
3345.535
 20
-6228.535
 30
1727.000
 70
    32
  0
VERTEX
  8
3500LEVEL
 62
7
 10
3315.818
 20
-6190.481
 30
1727.000
 70
    32
  0
VERTEX
  8
3500LEVEL
 62
7
 10
3380.915
 20
-6235.969
 30
1727.000
 70
    32
  0
VERTEX
  8
3500LEVEL
 62
7
 10
3360.110
 20
-6195.813
 30
1727.000
 70
    32
  0
VERTEX
  8
3500LEVEL
 62
7
 10
3314.968
 20
-6165.880
 30
1727.000
 70
    32
  0
VERTEX
  8
3500LEVEL
 62
7
 10
3279.382
 20
-6112.510
 30
1727.000
 70
    32
  0
VERTEX
  8
3500LEVEL
 62
7
 10
3294.484
 20
-6098.536
 30
1727.000
 70
    32
  0
VERTEX
  8
3500LEVEL
 62
7
 10
3334.393
 20
-6129.648
 30
1727.000
 70
    32
  0
VERTEX
  8
3500LEVEL
 62
7
 10
3370.373
 20
-6180.559
 30
1727.000
 70
    32
  0
VERTEX
  8
3500LEVEL
 62
7
 10
3400.147
 20
-6227.701
 30
1727.000
 70
    32
  0
VERTEX
  8
3500LEVEL
 62
7
 10
3406.319
 20
-6291.492
 30
1727.000
 70
    32
  0
VERTEX
  8
3500LEVEL
 62
7
 10
3442.758
 20
-6356.852
 30
1727.000
 70
    32
  0
VERTEX
  8
3500LEVEL
 62
7
 10
3502.980
 20
-6428.042
 30
1727.000
 70
    32
  0
VERTEX
  8
3500LEVEL
 62
7
 10
3542.791
 20
-6456.616
 30
1727.000
 70
    32
  0
VERTEX
  8
3500LEVEL
 62
7
 10
3559.941
 20
-6521.156
 30
1727.000
 70
    32
  0
VERTEX
  8
3500LEVEL
 62
7
 10
3613.280
 20
-6578.632
 30
1727.000
 70
    32
  0
VERTEX
  8
3500LEVEL
 62
7
 10
3581.738
 20
-6523.639
 30
1727.000
 70
    32
  0
VERTEX
  8
3500LEVEL
 62
7
 10
3634.164
 20
-6572.646
 30
1727.000
 70
    32
  0
VERTEX
  8
3500LEVEL
 62
7
 10
3591.158
 20
-6491.605
 30
1727.000
 70
    32
  0
VERTEX
  8
3500LEVEL
 62
7
 10
3676.065
 20
-6581.882
 30
1727.000
 70
    32
  0
VERTEX
  8
3500LEVEL
 62
7
 10
3626.057
 20
-6494.170
 30
1727.000
 70
    32
  0
VERTEX
  8
3500LEVEL
 62
7
 10
3551.035
 20
-6406.737
 30
1727.000
 70
    32
  0
VERTEX
  8
3500LEVEL
 62
7
 10
3621.580
 20
-6459.151
 30
1727.000
 70
    32
  0
VERTEX
  8
3500LEVEL
 62
7
 10
3591.491
 20
-6413.976
 30
1727.000
 70
    32
  0
VERTEX
  8
3500LEVEL
 62
7
 10
3542.267
 20
-6379.607
 30
1727.000
 70
    32
  0
VERTEX
  8
3500LEVEL
 62
7
 10
3511.274
 20
-6333.782
 30
1727.000
 70
    32
  0
VERTEX
  8
3500LEVEL
 62
7
 10
3541.102
 20
-6356.973
 30
1727.000
 70
    32
  0
VERTEX
  8
3500LEVEL
 62
7
 10
3583.106
 20
-6389.177
 30
1727.000
 70
    32
  0
VERTEX
  8
3500LEVEL
 62
7
 10
3541.580
 20
-6328.802
 30
1727.000
 70
    32
  0
VERTEX
  8
3500LEVEL
 62
7
 10
3501.403
 20
-6267.886
 30
1727.000
 70
    32
  0
VERTEX
  8
3500LEVEL
 62
7
 10
3463.861
 20
-6209.410
 30
1727.000
 70
    32
  0
VERTEX
  8
3500LEVEL
 62
7
 10
3497.102
 20
-6234.914
 30
1727.000
 70
    32
  0
VERTEX
  8
3500LEVEL
 62
7
 10
3535.255
 20
-6286.425
 30
1727.000
 70
    32
  0
VERTEX
  8
3500LEVEL
 62
7
 10
3573.998
 20
-6340.554
 30
1727.000
 70
    32
  0
VERTEX
  8
3500LEVEL
 62
7
 10
3533.272
 20
-6270.470
 30
1727.000
 70
    32
  0
VERTEX
  8
3500LEVEL
 62
7
 10
3500.501
 20
-6208.976
 30
1727.000
 70
    32
  0
VERTEX
  8
3500LEVEL
 62
7
 10
3538.538
 20
-6254.920
 30
1727.000
 70
    32
  0
VERTEX
  8
3500LEVEL
 62
7
 10
3576.610
 20
-6319.534
 30
1727.000
 70
    32
  0
VERTEX
  8
3500LEVEL
 62
7
 10
3624.344
 20
-6371.068
 30
1727.000
 70
    32
  0
VERTEX
  8
3500LEVEL
 62
7
 10
3611.810
 20
-6383.183
 30
1727.000
 70
    32
  0
VERTEX
  8
3500LEVEL
 62
7
 10
3622.259
 20
-6410.835
 30
1727.000
 70
    32
  0
VERTEX
  8
3500LEVEL
 62
7
 10
3657.054
 20
-6481.734
 30
1727.000
 70
    32
  0
VERTEX
  8
3500LEVEL
 62
7
 10
3702.645
 20
-6530.906
 30
1727.000
 70
    32
  0
VERTEX
  8
3500LEVEL
 62
7
 10
3690.584
 20
-6494.420
 30
1727.000
 70
    32
  0
VERTEX
  8
3500LEVEL
 62
7
 10
3669.140
 20
-6450.378
 30
1727.000
 70
    32
  0
VERTEX
  8
3500LEVEL
 62
7
 10
3730.229
 20
-6516.158
 30
1727.000
 70
    32
  0
VERTEX
  8
3500LEVEL
 62
7
 10
3779.536
 20
-6570.466
 30
1727.000
 70
    32
  0
VERTEX
  8
3500LEVEL
 62
7
 10
3769.217
 20
-6530.980
 30
1727.000
 70
    32
  0
VERTEX
  8
3500LEVEL
 62
7
 10
3738.245
 20
-6475.575
 30
1727.000
 70
    32
  0
VERTEX
  8
3500LEVEL
 62
7
 10
3701.037
 20
-6418.162
 30
1727.000
 70
    32
  0
VERTEX
  8
3500LEVEL
 62
7
 10
3659.561
 20
-6359.055
 30
1727.000
 70
    32
  0
VERTEX
  8
3500LEVEL
 62
7
 10
3640.024
 20
-6364.500
 30
1727.000
 70
    32
  0
VERTEX
  8
3500LEVEL
 62
7
 10
3618.964
 20
-6322.789
 30
1727.000
 70
    32
  0
VERTEX
  8
3500LEVEL
 62
7
 10
3639.894
 20
-6330.683
 30
1727.000
 70
    32
  0
VERTEX
  8
3500LEVEL
 62
7
 10
3589.020
 20
-6248.381
 30
1727.000
 70
    32
  0
VERTEX
  8
3500LEVEL
 62
7
 10
3598.812
 20
-6223.467
 30
1727.000
 70
    32
  0
VERTEX
  8
3500LEVEL
 62
7
 10
3636.559
 20
-6249.188
 30
1727.000
 70
    32
  0
VERTEX
  8
3500LEVEL
 62
7
 10
3701.878
 20
-6264.951
 30
1727.000
 70
    32
  0
VERTEX
  8
3500LEVEL
 62
7
 10
3746.852
 20
-6300.657
 30
1727.000
 70
    32
  0
VERTEX
  8
3500LEVEL
 62
7
 10
3793.526
 20
-6339.915
 30
1727.000
 70
    32
  0
VERTEX
  8
3500LEVEL
 62
7
 10
4003.431
 20
-6482.756
 30
1727.000
 70
    32
  0
VERTEX
  8
3500LEVEL
 62
7
 10
4048.392
 20
-6490.212
 30
1727.000
 70
    32
  0
VERTEX
  8
3500LEVEL
 62
7
 10
4086.738
 20
-6513.759
 30
1727.000
 70
    32
  0
VERTEX
  8
3500LEVEL
 62
7
 10
4134.507
 20
-6583.962
 30
1727.000
 70
    32
  0
VERTEX
  8
3500LEVEL
 62
7
 10
4186.958
 20
-6656.429
 30
1727.000
 70
    32
  0
VERTEX
  8
3500LEVEL
 62
7
 10
4259.565
 20
-6724.306
 30
1727.000
 70
    32
  0
VERTEX
  8
3500LEVEL
 62
7
 10
4327.604
 20
-6808.098
 30
1727.000
 70
    32
  0
VERTEX
  8
3500LEVEL
 62
7
 10
4376.142
 20
-6870.353
 30
1727.000
 70
    32
  0
VERTEX
  8
3500LEVEL
 62
7
 10
4446.963
 20
-6960.391
 30
1727.000
 70
    32
  0
VERTEX
  8
3500LEVEL
 62
7
 10
4512.652
 20
-7041.536
 30
1727.000
 70
    32
  0
VERTEX
  8
3500LEVEL
 62
7
 10
4570.827
 20
-7112.902
 30
1727.000
 70
    32
  0
SEQEND
  8
3500LEVEL
  0
POLYLINE
  8
3500LEVEL
 62
13
 66
     1
 70
     8
  0
VERTEX
  8
3500LEVEL
 62
13
 10
3851.272
 20
-2906.962
 30
1727.000
 70
    32
  0
VERTEX
  8
3500LEVEL
 62
13
 10
3870.930
 20
-2927.514
 30
1727.000
 70
    32
  0
VERTEX
  8
3500LEVEL
 62
13
 10
3892.254
 20
-2932.949
 30
1727.000
 70
    32
  0
VERTEX
  8
3500LEVEL
 62
13
 10
3906.345
 20
-2953.618
 30
1727.000
 70
    32
  0
SEQEND
  8
3500LEVEL
  0
POLYLINE
  8
3500LEVEL
 62
13
 66
     1
 70
     8
  0
VERTEX
  8
3500LEVEL
 62
13
 10
3890.289
 20
-2965.674
 30
1727.000
 70
    32
  0
VERTEX
  8
3500LEVEL
 62
13
 10
3871.919
 20
-2948.102
 30
1727.000
 70
    32
  0
VERTEX
  8
3500LEVEL
 62
13
 10
3851.440
 20
-2946.838
 30
1727.000
 70
    32
  0
VERTEX
  8
3500LEVEL
 62
13
 10
3835.550
 20
-2920.080
 30
1727.000
 70
    32
  0
SEQEND
  8
3500LEVEL
  0
POLYLINE
  8
3500LEVEL
 62
13
 66
     1
 70
     9
  0
VERTEX
  8
3500LEVEL
 62
13
 10
2485.602
 20
-4219.325
 30
1727.000
 70
    32
  0
VERTEX
  8
3500LEVEL
 62
13
 10
2487.438
 20
-4277.124
 30
1727.000
 70
    32
  0
VERTEX
  8
3500LEVEL
 62
13
 10
2490.440
 20
-4357.557
 30
1727.000
 70
    32
  0
VERTEX
  8
3500LEVEL
 62
13
 10
2488.923
 20
-4363.871
 30
1727.000
 70
    32
  0
VERTEX
  8
3500LEVEL
 62
13
 10
2484.896
 20
-4426.784
 30
1727.000
 70
    32
  0
VERTEX
  8
3500LEVEL
 62
13
 10
2444.258
 20
-4442.719
 30
1727.000
 70
    32
  0
VERTEX
  8
3500LEVEL
 62
13
 10
2398.439
 20
-4448.493
 30
1727.000
 70
    32
  0
VERTEX
  8
3500LEVEL
 62
13
 10
2418.739
 20
-4505.971
 30
1727.000
 70
    32
  0
VERTEX
  8
3500LEVEL
 62
13
 10
2467.282
 20
-4588.657
 30
1727.000
 70
    32
  0
VERTEX
  8
3500LEVEL
 62
13
 10
2498.784
 20
-4650.200
 30
1727.000
 70
    32
  0
VERTEX
  8
3500LEVEL
 62
13
 10
2509.013
 20
-4694.967
 30
1727.000
 70
    32
  0
VERTEX
  8
3500LEVEL
 62
13
 10
2489.611
 20
-4675.969
 30
1727.000
 70
    32
  0
VERTEX
  8
3500LEVEL
 62
13
 10
2448.216
 20
-4603.761
 30
1727.000
 70
    32
  0
VERTEX
  8
3500LEVEL
 62
13
 10
2407.324
 20
-4526.841
 30
1727.000
 70
    32
  0
VERTEX
  8
3500LEVEL
 62
13
 10
2368.271
 20
-4449.460
 30
1727.000
 70
    32
  0
VERTEX
  8
3500LEVEL
 62
13
 10
2324.181
 20
-4378.333
 30
1727.000
 70
    32
  0
VERTEX
  8
3500LEVEL
 62
13
 10
2280.678
 20
-4322.433
 30
1727.000
 70
    32
  0
VERTEX
  8
3500LEVEL
 62
13
 10
2275.018
 20
-4294.792
 30
1727.000
 70
    32
  0
VERTEX
  8
3500LEVEL
 62
13
 10
2312.949
 20
-4330.378
 30
1727.000
 70
    32
  0
VERTEX
  8
3500LEVEL
 62
13
 10
2353.659
 20
-4384.822
 30
1727.000
 70
    32
  0
VERTEX
  8
3500LEVEL
 62
13
 10
2387.794
 20
-4415.765
 30
1727.000
 70
    32
  0
VERTEX
  8
3500LEVEL
 62
13
 10
2416.726
 20
-4400.476
 30
1727.000
 70
    32
  0
VERTEX
  8
3500LEVEL
 62
13
 10
2447.082
 20
-4396.764
 30
1727.000
 70
    32
  0
VERTEX
  8
3500LEVEL
 62
13
 10
2454.316
 20
-4335.879
 30
1727.000
 70
    32
  0
VERTEX
  8
3500LEVEL
 62
13
 10
2463.894
 20
-4257.210
 30
1727.000
 70
    32
  0
VERTEX
  8
3500LEVEL
 62
13
 10
2482.464
 20
-4221.597
 30
1727.000
 70
    32
  0
SEQEND
  8
3500LEVEL
  0
POLYLINE
  8
3500LEVEL
 62
13
 66
     1
 70
     9
  0
VERTEX
  8
3500LEVEL
 62
13
 10
888.119
 20
-4219.103
 30
1727.000
 70
    32
  0
VERTEX
  8
3500LEVEL
 62
13
 10
935.831
 20
-4280.217
 30
1727.000
 70
    32
  0
VERTEX
  8
3500LEVEL
 62
13
 10
973.229
 20
-4367.927
 30
1727.000
 70
    32
  0
VERTEX
  8
3500LEVEL
 62
13
 10
1020.398
 20
-4440.303
 30
1727.000
 70
    32
  0
VERTEX
  8
3500LEVEL
 62
13
 10
1010.627
 20
-4455.636
 30
1727.000
 70
    32
  0
VERTEX
  8
3500LEVEL
 62
13
 10
972.101
 20
-4397.003
 30
1727.000
 70
    32
  0
VERTEX
  8
3500LEVEL
 62
13
 10
922.240
 20
-4313.097
 30
1727.000
 70
    32
  0
VERTEX
  8
3500LEVEL
 62
13
 10
884.429
 20
-4224.817
 30
1727.000
 70
    32
  0
SEQEND
  8
3500LEVEL
  0
POLYLINE
  8
3500LEVEL
 62
13
 66
     1
 70
     9
  0
VERTEX
  8
3500LEVEL
 62
13
 10
1458.972
 20
-4525.457
 30
1727.000
 70
    32
  0
VERTEX
  8
3500LEVEL
 62
13
 10
1469.425
 20
-4494.849
 30
1727.000
 70
    32
  0
VERTEX
  8
3500LEVEL
 62
13
 10
1462.510
 20
-4449.856
 30
1727.000
 70
    32
  0
VERTEX
  8
3500LEVEL
 62
13
 10
1423.064
 20
-4374.933
 30
1727.000
 70
    32
  0
VERTEX
  8
3500LEVEL
 62
13
 10
1381.014
 20
-4328.850
 30
1727.000
 70
    32
  0
VERTEX
  8
3500LEVEL
 62
13
 10
1339.733
 20
-4274.820
 30
1727.000
 70
    32
  0
VERTEX
  8
3500LEVEL
 62
13
 10
1315.220
 20
-4191.697
 30
1727.000
 70
    32
  0
VERTEX
  8
3500LEVEL
 62
13
 10
1303.784
 20
-4130.847
 30
1727.000
 70
    32
  0
VERTEX
  8
3500LEVEL
 62
13
 10
1266.329
 20
-4079.699
 30
1727.000
 70
    32
  0
VERTEX
  8
3500LEVEL
 62
13
 10
1217.573
 20
-4021.949
 30
1727.000
 70
    32
  0
VERTEX
  8
3500LEVEL
 62
13
 10
1176.050
 20
-3994.614
 30
1727.000
 70
    32
  0
VERTEX
  8
3500LEVEL
 62
13
 10
1204.115
 20
-4030.385
 30
1727.000
 70
    32
  0
VERTEX
  8
3500LEVEL
 62
13
 10
1241.247
 20
-4075.680
 30
1727.000
 70
    32
  0
VERTEX
  8
3500LEVEL
 62
13
 10
1276.770
 20
-4145.182
 30
1727.000
 70
    32
  0
VERTEX
  8
3500LEVEL
 62
13
 10
1274.302
 20
-4228.269
 30
1727.000
 70
    32
  0
VERTEX
  8
3500LEVEL
 62
13
 10
1307.942
 20
-4317.394
 30
1727.000
 70
    32
  0
VERTEX
  8
3500LEVEL
 62
13
 10
1376.516
 20
-4382.103
 30
1727.000
 70
    32
  0
VERTEX
  8
3500LEVEL
 62
13
 10
1426.560
 20
-4442.834
 30
1727.000
 70
    32
  0
VERTEX
  8
3500LEVEL
 62
13
 10
1444.922
 20
-4498.237
 30
1727.000
 70
    32
  0
VERTEX
  8
3500LEVEL
 62
13
 10
1444.897
 20
-4520.428
 30
1727.000
 70
    32
  0
SEQEND
  8
3500LEVEL
  0
POLYLINE
  8
3500LEVEL
 62
13
 66
     1
 70
     9
  0
VERTEX
  8
3500LEVEL
 62
13
 10
1153.048
 20
-3930.397
 30
1727.000
 70
    32
  0
VERTEX
  8
3500LEVEL
 62
13
 10
1136.123
 20
-3914.822
 30
1727.000
 70
    32
  0
VERTEX
  8
3500LEVEL
 62
13
 10
1153.262
 20
-3938.502
 30
1727.000
 70
    32
  0
SEQEND
  8
3500LEVEL
  0
POLYLINE
  8
3500LEVEL
 62
13
 66
     1
 70
     8
  0
VERTEX
  8
3500LEVEL
 62
13
 10
1199.274
 20
-4211.707
 30
1727.000
 70
    32
  0
VERTEX
  8
3500LEVEL
 62
13
 10
1179.184
 20
-4141.904
 30
1727.000
 70
    32
  0
VERTEX
  8
3500LEVEL
 62
13
 10
1169.987
 20
-4098.563
 30
1727.000
 70
    32
  0
VERTEX
  8
3500LEVEL
 62
13
 10
1117.243
 20
-4018.483
 30
1727.000
 70
    32
  0
SEQEND
  8
3500LEVEL
  0
POLYLINE
  8
3500LEVEL
 62
13
 66
     1
 70
     9
  0
VERTEX
  8
3500LEVEL
 62
13
 10
1069.327
 20
-3990.124
 30
1727.000
 70
    32
  0
VERTEX
  8
3500LEVEL
 62
13
 10
1070.993
 20
-3975.006
 30
1727.000
 70
    32
  0
VERTEX
  8
3500LEVEL
 62
13
 10
1040.422
 20
-3970.612
 30
1727.000
 70
    32
  0
VERTEX
  8
3500LEVEL
 62
13
 10
1060.602
 20
-3989.483
 30
1727.000
 70
    32
  0
SEQEND
  8
3500LEVEL
  0
POLYLINE
  8
3500LEVEL
 62
13
 66
     1
 70
     8
  0
VERTEX
  8
3500LEVEL
 62
13
 10
1004.139
 20
-3871.227
 30
1727.000
 70
    32
  0
VERTEX
  8
3500LEVEL
 62
13
 10
1043.838
 20
-3914.664
 30
1727.000
 70
    32
  0
VERTEX
  8
3500LEVEL
 62
13
 10
1009.263
 20
-3917.951
 30
1727.000
 70
    32
  0
VERTEX
  8
3500LEVEL
 62
13
 10
984.662
 20
-3918.801
 30
1727.000
 70
    32
  0
VERTEX
  8
3500LEVEL
 62
13
 10
1009.730
 20
-3940.221
 30
1727.000
 70
    32
  0
SEQEND
  8
3500LEVEL
  0
POLYLINE
  8
3500LEVEL
 62
13
 66
     1
 70
     9
  0
VERTEX
  8
3500LEVEL
 62
13
 10
1811.441
 20
-4819.014
 30
1727.000
 70
    32
  0
VERTEX
  8
3500LEVEL
 62
13
 10
1783.060
 20
-4785.210
 30
1727.000
 70
    32
  0
VERTEX
  8
3500LEVEL
 62
13
 10
1802.341
 20
-4823.861
 30
1727.000
 70
    32
  0
SEQEND
  8
3500LEVEL
  0
POLYLINE
  8
3500LEVEL
 62
13
 66
     1
 70
     9
  0
VERTEX
  8
3500LEVEL
 62
13
 10
2272.474
 20
-4933.996
 30
1727.000
 70
    32
  0
VERTEX
  8
3500LEVEL
 62
13
 10
2347.792
 20
-5016.432
 30
1727.000
 70
    32
  0
VERTEX
  8
3500LEVEL
 62
13
 10
2414.078
 20
-5108.014
 30
1727.000
 70
    32
  0
VERTEX
  8
3500LEVEL
 62
13
 10
2467.534
 20
-5216.708
 30
1727.000
 70
    32
  0
VERTEX
  8
3500LEVEL
 62
13
 10
2502.619
 20
-5307.830
 30
1727.000
 70
    32
  0
VERTEX
  8
3500LEVEL
 62
13
 10
2553.684
 20
-5420.428
 30
1727.000
 70
    32
  0
VERTEX
  8
3500LEVEL
 62
13
 10
2572.785
 20
-5469.644
 30
1727.000
 70
    32
  0
VERTEX
  8
3500LEVEL
 62
13
 10
2536.501
 20
-5415.909
 30
1727.000
 70
    32
  0
VERTEX
  8
3500LEVEL
 62
13
 10
2497.291
 20
-5339.511
 30
1727.000
 70
    32
  0
VERTEX
  8
3500LEVEL
 62
13
 10
2456.008
 20
-5252.441
 30
1727.000
 70
    32
  0
VERTEX
  8
3500LEVEL
 62
13
 10
2416.958
 20
-5162.449
 30
1727.000
 70
    32
  0
VERTEX
  8
3500LEVEL
 62
13
 10
2377.924
 20
-5088.097
 30
1727.000
 70
    32
  0
VERTEX
  8
3500LEVEL
 62
13
 10
2323.020
 20
-5035.667
 30
1727.000
 70
    32
  0
VERTEX
  8
3500LEVEL
 62
13
 10
2266.608
 20
-4951.720
 30
1727.000
 70
    32
  0
VERTEX
  8
3500LEVEL
 62
13
 10
2266.662
 20
-4927.769
 30
1727.000
 70
    32
  0
SEQEND
  8
3500LEVEL
  0
POLYLINE
  8
3500LEVEL
 62
13
 66
     1
 70
     8
  0
VERTEX
  8
3500LEVEL
 62
13
 10
4618.030
 20
-7079.607
 30
1727.000
 70
    32
  0
VERTEX
  8
3500LEVEL
 62
13
 10
4566.546
 20
-6991.659
 30
1727.000
 70
    32
  0
VERTEX
  8
3500LEVEL
 62
13
 10
4520.369
 20
-6927.259
 30
1727.000
 70
    32
  0
VERTEX
  8
3500LEVEL
 62
13
 10
4471.924
 20
-6847.112
 30
1727.000
 70
    32
  0
VERTEX
  8
3500LEVEL
 62
13
 10
4405.113
 20
-6769.822
 30
1727.000
 70
    32
  0
VERTEX
  8
3500LEVEL
 62
13
 10
4319.293
 20
-6671.075
 30
1727.000
 70
    32
  0
VERTEX
  8
3500LEVEL
 62
13
 10
4251.059
 20
-6582.208
 30
1727.000
 70
    32
  0
VERTEX
  8
3500LEVEL
 62
13
 10
4174.956
 20
-6492.080
 30
1727.000
 70
    32
  0
VERTEX
  8
3500LEVEL
 62
13
 10
4127.420
 20
-6433.012
 30
1727.000
 70
    32
  0
VERTEX
  8
3500LEVEL
 62
13
 10
4063.984
 20
-6351.976
 30
1727.000
 70
    32
  0
VERTEX
  8
3500LEVEL
 62
13
 10
4005.069
 20
-6286.797
 30
1727.000
 70
    32
  0
VERTEX
  8
3500LEVEL
 62
13
 10
3939.136
 20
-6244.958
 30
1727.000
 70
    32
  0
VERTEX
  8
3500LEVEL
 62
13
 10
3905.538
 20
-6227.973
 30
1727.000
 70
    32
  0
VERTEX
  8
3500LEVEL
 62
13
 10
3610.932
 20
-6086.440
 30
1727.000
 70
    32
  0
VERTEX
  8
3500LEVEL
 62
13
 10
3546.841
 20
-6077.179
 30
1727.000
 70
    32
  0
VERTEX
  8
3500LEVEL
 62
13
 10
3480.372
 20
-6054.423
 30
1727.000
 70
    32
  0
VERTEX
  8
3500LEVEL
 62
13
 10
3405.083
 20
-6015.877
 30
1727.000
 70
    32
  0
VERTEX
  8
3500LEVEL
 62
13
 10
3346.108
 20
-5954.219
 30
1727.000
 70
    32
  0
VERTEX
  8
3500LEVEL
 62
13
 10
3302.222
 20
-5895.988
 30
1727.000
 70
    32
  0
VERTEX
  8
3500LEVEL
 62
13
 10
3267.256
 20
-5843.473
 30
1727.000
 70
    32
  0
VERTEX
  8
3500LEVEL
 62
13
 10
3230.450
 20
-5791.421
 30
1727.000
 70
    32
  0
VERTEX
  8
3500LEVEL
 62
13
 10
3197.885
 20
-5775.862
 30
1727.000
 70
    32
  0
VERTEX
  8
3500LEVEL
 62
13
 10
3224.081
 20
-5813.856
 30
1727.000
 70
    32
  0
VERTEX
  8
3500LEVEL
 62
13
 10
3249.135
 20
-5852.676
 30
1727.000
 70
    32
  0
VERTEX
  8
3500LEVEL
 62
13
 10
3222.089
 20
-5835.732
 30
1727.000
 70
    32
  0
VERTEX
  8
3500LEVEL
 62
13
 10
3174.374
 20
-5787.228
 30
1727.000
 70
    32
  0
VERTEX
  8
3500LEVEL
 62
13
 10
3141.105
 20
-5750.875
 30
1727.000
 70
    32
  0
VERTEX
  8
3500LEVEL
 62
13
 10
3117.244
 20
-5745.538
 30
1727.000
 70
    32
  0
VERTEX
  8
3500LEVEL
 62
13
 10
3092.762
 20
-5739.346
 30
1727.000
 70
    32
  0
VERTEX
  8
3500LEVEL
 62
13
 10
3060.418
 20
-5706.672
 30
1727.000
 70
    32
  0
VERTEX
  8
3500LEVEL
 62
13
 10
3027.992
 20
-5641.450
 30
1727.000
 70
    32
  0
VERTEX
  8
3500LEVEL
 62
13
 10
3010.248
 20
-5553.863
 30
1727.000
 70
    32
  0
VERTEX
  8
3500LEVEL
 62
13
 10
2970.771
 20
-5480.701
 30
1727.000
 70
    32
  0
VERTEX
  8
3500LEVEL
 62
13
 10
2965.710
 20
-5417.845
 30
1727.000
 70
    32
  0
VERTEX
  8
3500LEVEL
 62
13
 10
2953.617
 20
-5350.080
 30
1727.000
 70
    32
  0
VERTEX
  8
3500LEVEL
 62
13
 10
2982.657
 20
-5378.189
 30
1727.000
 70
    32
  0
VERTEX
  8
3500LEVEL
 62
13
 10
3021.587
 20
-5429.573
 30
1727.000
 70
    32
  0
VERTEX
  8
3500LEVEL
 62
13
 10
3074.305
 20
-5498.803
 30
1727.000
 70
    32
  0
VERTEX
  8
3500LEVEL
 62
13
 10
3152.326
 20
-5587.978
 30
1727.000
 70
    32
  0
VERTEX
  8
3500LEVEL
 62
13
 10
3227.133
 20
-5667.305
 30
1727.000
 70
    32
  0
VERTEX
  8
3500LEVEL
 62
13
 10
3264.391
 20
-5680.337
 30
1727.000
 70
    32
  0
VERTEX
  8
3500LEVEL
 62
13
 10
3248.379
 20
-5627.581
 30
1727.000
 70
    32
  0
VERTEX
  8
3500LEVEL
 62
13
 10
3226.395
 20
-5582.191
 30
1727.000
 70
    32
  0
VERTEX
  8
3500LEVEL
 62
13
 10
3176.104
 20
-5527.726
 30
1727.000
 70
    32
  0
VERTEX
  8
3500LEVEL
 62
13
 10
3199.901
 20
-5516.154
 30
1727.000
 70
    32
  0
VERTEX
  8
3500LEVEL
 62
13
 10
3174.613
 20
-5466.199
 30
1727.000
 70
    32
  0
VERTEX
  8
3500LEVEL
 62
13
 10
3234.458
 20
-5509.837
 30
1727.000
 70
    32
  0
VERTEX
  8
3500LEVEL
 62
13
 10
3289.965
 20
-5547.483
 30
1727.000
 70
    32
  0
VERTEX
  8
3500LEVEL
 62
13
 10
3263.311
 20
-5495.039
 30
1727.000
 70
    32
  0
VERTEX
  8
3500LEVEL
 62
13
 10
3309.730
 20
-5532.743
 30
1727.000
 70
    32
  0
VERTEX
  8
3500LEVEL
 62
13
 10
3358.165
 20
-5572.030
 30
1727.000
 70
    32
  0
VERTEX
  8
3500LEVEL
 62
13
 10
3756.961
 20
-5875.532
 30
1727.000
 70
    32
  0
VERTEX
  8
3500LEVEL
 62
13
 10
3826.801
 20
-5952.803
 30
1727.000
 70
    32
  0
VERTEX
  8
3500LEVEL
 62
13
 10
3880.654
 20
-6000.777
 30
1727.000
 70
    32
  0
VERTEX
  8
3500LEVEL
 62
13
 10
3959.103
 20
-6073.121
 30
1727.000
 70
    32
  0
VERTEX
  8
3500LEVEL
 62
13
 10
4055.889
 20
-6177.408
 30
1727.000
 70
    32
  0
VERTEX
  8
3500LEVEL
 62
13
 10
4148.710
 20
-6282.826
 30
1727.000
 70
    32
  0
VERTEX
  8
3500LEVEL
 62
13
 10
4228.479
 20
-6389.430
 30
1727.000
 70
    32
  0
VERTEX
  8
3500LEVEL
 62
13
 10
4320.550
 20
-6505.825
 30
1727.000
 70
    32
  0
VERTEX
  8
3500LEVEL
 62
13
 10
4397.525
 20
-6610.973
 30
1727.000
 70
    32
  0
VERTEX
  8
3500LEVEL
 62
13
 10
4467.205
 20
-6701.838
 30
1727.000
 70
    32
  0
VERTEX
  8
3500LEVEL
 62
13
 10
4541.143
 20
-6799.185
 30
1727.000
 70
    32
  0
VERTEX
  8
3500LEVEL
 62
13
 10
4635.046
 20
-6907.298
 30
1727.000
 70
    32
  0
VERTEX
  8
3500LEVEL
 62
13
 10
4709.543
 20
-7009.022
 30
1727.000
 70
    32
  0
SEQEND
  8
3500LEVEL
  0
POLYLINE
  8
3500LEVEL
 62
13
 66
     1
 70
     8
  0
VERTEX
  8
3500LEVEL
 62
13
 10
267.938
 20
-4390.608
 30
1727.000
 70
    32
  0
VERTEX
  8
3500LEVEL
 62
13
 10
324.282
 20
-4470.256
 30
1727.000
 70
    32
  0
VERTEX
  8
3500LEVEL
 62
13
 10
377.004
 20
-4605.567
 30
1727.000
 70
    32
  0
VERTEX
  8
3500LEVEL
 62
13
 10
410.641
 20
-4707.302
 30
1727.000
 70
    32
  0
VERTEX
  8
3500LEVEL
 62
13
 10
402.162
 20
-4621.704
 30
1727.000
 70
    32
  0
VERTEX
  8
3500LEVEL
 62
13
 10
372.234
 20
-4521.511
 30
1727.000
 70
    32
  0
VERTEX
  8
3500LEVEL
 62
13
 10
327.603
 20
-4399.159
 30
1727.000
 70
    32
  0
VERTEX
  8
3500LEVEL
 62
13
 10
297.787
 20
-4279.877
 30
1727.000
 70
    32
  0
VERTEX
  8
3500LEVEL
 62
13
 10
277.227
 20
-4154.764
 30
1727.000
 70
    32
  0
VERTEX
  8
3500LEVEL
 62
13
 10
261.776
 20
-4015.084
 30
1727.000
 70
    32
  0
VERTEX
  8
3500LEVEL
 62
13
 10
202.615
 20
-3864.870
 30
1727.000
 70
    32
  0
VERTEX
  8
3500LEVEL
 62
13
 10
206.732
 20
-3796.675
 30
1727.000
 70
    32
  0
VERTEX
  8
3500LEVEL
 62
13
 10
264.976
 20
-3826.689
 30
1727.000
 70
    32
  0
VERTEX
  8
3500LEVEL
 62
13
 10
354.130
 20
-3928.240
 30
1727.000
 70
    32
  0
VERTEX
  8
3500LEVEL
 62
13
 10
442.848
 20
-4038.801
 30
1727.000
 70
    32
  0
VERTEX
  8
3500LEVEL
 62
13
 10
512.159
 20
-4155.584
 30
1727.000
 70
    32
  0
VERTEX
  8
3500LEVEL
 62
13
 10
584.017
 20
-4267.479
 30
1727.000
 70
    32
  0
VERTEX
  8
3500LEVEL
 62
13
 10
637.604
 20
-4364.339
 30
1727.000
 70
    32
  0
VERTEX
  8
3500LEVEL
 62
13
 10
678.145
 20
-4470.207
 30
1727.000
 70
    32
  0
VERTEX
  8
3500LEVEL
 62
13
 10
725.389
 20
-4600.353
 30
1727.000
 70
    32
  0
VERTEX
  8
3500LEVEL
 62
13
 10
800.332
 20
-4733.928
 30
1727.000
 70
    32
  0
VERTEX
  8
3500LEVEL
 62
13
 10
874.324
 20
-4852.974
 30
1727.000
 70
    32
  0
VERTEX
  8
3500LEVEL
 62
13
 10
930.347
 20
-4959.810
 30
1727.000
 70
    32
  0
VERTEX
  8
3500LEVEL
 62
13
 10
997.456
 20
-5065.143
 30
1727.000
 70
    32
  0
VERTEX
  8
3500LEVEL
 62
13
 10
1035.074
 20
-5181.387
 30
1727.000
 70
    32
  0
VERTEX
  8
3500LEVEL
 62
13
 10
1061.239
 20
-5266.792
 30
1727.000
 70
    32
  0
VERTEX
  8
3500LEVEL
 62
13
 10
1064.558
 20
-5162.656
 30
1727.000
 70
    32
  0
VERTEX
  8
3500LEVEL
 62
13
 10
1107.697
 20
-5219.254
 30
1727.000
 70
    32
  0
VERTEX
  8
3500LEVEL
 62
13
 10
1159.577
 20
-5337.784
 30
1727.000
 70
    32
  0
VERTEX
  8
3500LEVEL
 62
13
 10
1236.473
 20
-5489.074
 30
1727.000
 70
    32
  0
VERTEX
  8
3500LEVEL
 62
13
 10
1314.883
 20
-5601.010
 30
1727.000
 70
    32
  0
VERTEX
  8
3500LEVEL
 62
13
 10
1439.424
 20
-5717.815
 30
1727.000
 70
    32
  0
VERTEX
  8
3500LEVEL
 62
13
 10
1586.333
 20
-5836.691
 30
1727.000
 70
    32
  0
VERTEX
  8
3500LEVEL
 62
13
 10
1653.323
 20
-5903.416
 30
1727.000
 70
    32
  0
VERTEX
  8
3500LEVEL
 62
13
 10
1634.999
 20
-5808.423
 30
1727.000
 70
    32
  0
VERTEX
  8
3500LEVEL
 62
13
 10
1575.471
 20
-5717.167
 30
1727.000
 70
    32
  0
VERTEX
  8
3500LEVEL
 62
13
 10
1479.484
 20
-5603.172
 30
1727.000
 70
    32
  0
VERTEX
  8
3500LEVEL
 62
13
 10
1388.877
 20
-5491.804
 30
1727.000
 70
    32
  0
VERTEX
  8
3500LEVEL
 62
13
 10
1293.719
 20
-5366.339
 30
1727.000
 70
    32
  0
VERTEX
  8
3500LEVEL
 62
13
 10
1240.684
 20
-5266.036
 30
1727.000
 70
    32
  0
VERTEX
  8
3500LEVEL
 62
13
 10
1219.040
 20
-5150.838
 30
1727.000
 70
    32
  0
VERTEX
  8
3500LEVEL
 62
13
 10
1222.489
 20
-5034.868
 30
1727.000
 70
    32
  0
VERTEX
  8
3500LEVEL
 62
13
 10
1223.898
 20
-4939.505
 30
1727.000
 70
    32
  0
VERTEX
  8
3500LEVEL
 62
13
 10
1180.207
 20
-4840.699
 30
1727.000
 70
    32
  0
VERTEX
  8
3500LEVEL
 62
13
 10
1138.587
 20
-4765.176
 30
1727.000
 70
    32
  0
VERTEX
  8
3500LEVEL
 62
13
 10
1070.307
 20
-4662.429
 30
1727.000
 70
    32
  0
VERTEX
  8
3500LEVEL
 62
13
 10
1043.313
 20
-4542.843
 30
1727.000
 70
    32
  0
VERTEX
  8
3500LEVEL
 62
13
 10
981.291
 20
-4446.716
 30
1727.000
 70
    32
  0
VERTEX
  8
3500LEVEL
 62
13
 10
930.146
 20
-4366.068
 30
1727.000
 70
    32
  0
VERTEX
  8
3500LEVEL
 62
13
 10
873.204
 20
-4275.983
 30
1727.000
 70
    32
  0
VERTEX
  8
3500LEVEL
 62
13
 10
804.451
 20
-4176.188
 30
1727.000
 70
    32
  0
VERTEX
  8
3500LEVEL
 62
13
 10
750.533
 20
-4065.655
 30
1727.000
 70
    32
  0
VERTEX
  8
3500LEVEL
 62
13
 10
700.354
 20
-3950.676
 30
1727.000
 70
    32
  0
VERTEX
  8
3500LEVEL
 62
13
 10
766.138
 20
-4001.319
 30
1727.000
 70
    32
  0
VERTEX
  8
3500LEVEL
 62
13
 10
844.975
 20
-4096.424
 30
1727.000
 70
    32
  0
VERTEX
  8
3500LEVEL
 62
13
 10
917.201
 20
-4195.011
 30
1727.000
 70
    32
  0
VERTEX
  8
3500LEVEL
 62
13
 10
988.998
 20
-4277.387
 30
1727.000
 70
    32
  0
VERTEX
  8
3500LEVEL
 62
13
 10
976.961
 20
-4218.710
 30
1727.000
 70
    32
  0
VERTEX
  8
3500LEVEL
 62
13
 10
960.347
 20
-4135.087
 30
1727.000
 70
    32
  0
VERTEX
  8
3500LEVEL
 62
13
 10
991.238
 20
-4157.944
 30
1727.000
 70
    32
  0
VERTEX
  8
3500LEVEL
 62
13
 10
1047.405
 20
-4235.546
 30
1727.000
 70
    32
  0
VERTEX
  8
3500LEVEL
 62
13
 10
1094.253
 20
-4335.110
 30
1727.000
 70
    32
  0
VERTEX
  8
3500LEVEL
 62
13
 10
1121.981
 20
-4428.080
 30
1727.000
 70
    32
  0
VERTEX
  8
3500LEVEL
 62
13
 10
1167.926
 20
-4514.385
 30
1727.000
 70
    32
  0
VERTEX
  8
3500LEVEL
 62
13
 10
1243.027
 20
-4601.325
 30
1727.000
 70
    32
  0
VERTEX
  8
3500LEVEL
 62
13
 10
1303.784
 20
-4699.083
 30
1727.000
 70
    32
  0
VERTEX
  8
3500LEVEL
 62
13
 10
1368.652
 20
-4799.517
 30
1727.000
 70
    32
  0
VERTEX
  8
3500LEVEL
 62
13
 10
1447.534
 20
-4908.502
 30
1727.000
 70
    32
  0
VERTEX
  8
3500LEVEL
 62
13
 10
1485.802
 20
-4932.541
 30
1727.000
 70
    32
  0
VERTEX
  8
3500LEVEL
 62
13
 10
1476.728
 20
-4869.547
 30
1727.000
 70
    32
  0
VERTEX
  8
3500LEVEL
 62
13
 10
1531.037
 20
-4944.581
 30
1727.000
 70
    32
  0
VERTEX
  8
3500LEVEL
 62
13
 10
1579.947
 20
-5013.958
 30
1727.000
 70
    32
  0
VERTEX
  8
3500LEVEL
 62
13
 10
1639.693
 20
-5100.708
 30
1727.000
 70
    32
  0
VERTEX
  8
3500LEVEL
 62
13
 10
1737.821
 20
-5229.675
 30
1727.000
 70
    32
  0
VERTEX
  8
3500LEVEL
 62
13
 10
1814.889
 20
-5362.581
 30
1727.000
 70
    32
  0
VERTEX
  8
3500LEVEL
 62
13
 10
1902.569
 20
-5496.936
 30
1727.000
 70
    32
  0
VERTEX
  8
3500LEVEL
 62
13
 10
1968.545
 20
-5610.915
 30
1727.000
 70
    32
  0
VERTEX
  8
3500LEVEL
 62
13
 10
2038.005
 20
-5718.894
 30
1727.000
 70
    32
  0
VERTEX
  8
3500LEVEL
 62
13
 10
2098.879
 20
-5822.219
 30
1727.000
 70
    32
  0
VERTEX
  8
3500LEVEL
 62
13
 10
2174.770
 20
-5937.282
 30
1727.000
 70
    32
  0
VERTEX
  8
3500LEVEL
 62
13
 10
2242.917
 20
-6018.821
 30
1727.000
 70
    32
  0
VERTEX
  8
3500LEVEL
 62
13
 10
2283.541
 20
-6065.937
 30
1727.000
 70
    32
  0
VERTEX
  8
3500LEVEL
 62
13
 10
2254.088
 20
-5991.607
 30
1727.000
 70
    32
  0
VERTEX
  8
3500LEVEL
 62
13
 10
2238.234
 20
-5937.867
 30
1727.000
 70
    32
  0
VERTEX
  8
3500LEVEL
 62
13
 10
2196.391
 20
-5846.419
 30
1727.000
 70
    32
  0
VERTEX
  8
3500LEVEL
 62
13
 10
2139.503
 20
-5732.383
 30
1727.000
 70
    32
  0
VERTEX
  8
3500LEVEL
 62
13
 10
2082.662
 20
-5632.227
 30
1727.000
 70
    32
  0
VERTEX
  8
3500LEVEL
 62
13
 10
2026.639
 20
-5525.391
 30
1727.000
 70
    32
  0
VERTEX
  8
3500LEVEL
 62
13
 10
1973.533
 20
-5433.399
 30
1727.000
 70
    32
  0
VERTEX
  8
3500LEVEL
 62
13
 10
1923.112
 20
-5345.117
 30
1727.000
 70
    32
  0
VERTEX
  8
3500LEVEL
 62
13
 10
1870.556
 20
-5262.293
 30
1727.000
 70
    32
  0
VERTEX
  8
3500LEVEL
 62
13
 10
1834.263
 20
-5200.738
 30
1727.000
 70
    32
  0
VERTEX
  8
3500LEVEL
 62
13
 10
1782.060
 20
-5122.006
 30
1727.000
 70
    32
  0
VERTEX
  8
3500LEVEL
 62
13
 10
1732.908
 20
-5033.675
 30
1727.000
 70
    32
  0
VERTEX
  8
3500LEVEL
 62
13
 10
1657.593
 20
-4938.629
 30
1727.000
 70
    32
  0
VERTEX
  8
3500LEVEL
 62
13
 10
1597.961
 20
-4824.405
 30
1727.000
 70
    32
  0
VERTEX
  8
3500LEVEL
 62
13
 10
1531.197
 20
-4715.344
 30
1727.000
 70
    32
  0
VERTEX
  8
3500LEVEL
 62
13
 10
1520.266
 20
-4637.173
 30
1727.000
 70
    32
  0
VERTEX
  8
3500LEVEL
 62
13
 10
1490.479
 20
-4561.780
 30
1727.000
 70
    32
  0
VERTEX
  8
3500LEVEL
 62
13
 10
1532.328
 20
-4582.357
 30
1727.000
 70
    32
  0
VERTEX
  8
3500LEVEL
 62
13
 10
1594.528
 20
-4649.072
 30
1727.000
 70
    32
  0
VERTEX
  8
3500LEVEL
 62
13
 10
1635.496
 20
-4738.110
 30
1727.000
 70
    32
  0
VERTEX
  8
3500LEVEL
 62
13
 10
1693.514
 20
-4810.459
 30
1727.000
 70
    32
  0
VERTEX
  8
3500LEVEL
 62
13
 10
1743.911
 20
-4875.282
 30
1727.000
 70
    32
  0
VERTEX
  8
3500LEVEL
 62
13
 10
1730.293
 20
-4851.662
 30
1727.000
 70
    32
  0
VERTEX
  8
3500LEVEL
 62
13
 10
1686.814
 20
-4773.571
 30
1727.000
 70
    32
  0
VERTEX
  8
3500LEVEL
 62
13
 10
1638.749
 20
-4708.365
 30
1727.000
 70
    32
  0
VERTEX
  8
3500LEVEL
 62
13
 10
1610.535
 20
-4635.747
 30
1727.000
 70
    32
  0
VERTEX
  8
3500LEVEL
 62
13
 10
1570.493
 20
-4583.428
 30
1727.000
 70
    32
  0
VERTEX
  8
3500LEVEL
 62
13
 10
1518.306
 20
-4520.336
 30
1727.000
 70
    32
  0
VERTEX
  8
3500LEVEL
 62
13
 10
1569.725
 20
-4545.725
 30
1727.000
 70
    32
  0
VERTEX
  8
3500LEVEL
 62
13
 10
1629.846
 20
-4581.337
 30
1727.000
 70
    32
  0
VERTEX
  8
3500LEVEL
 62
13
 10
1603.249
 20
-4537.982
 30
1727.000
 70
    32
  0
VERTEX
  8
3500LEVEL
 62
13
 10
1550.445
 20
-4461.423
 30
1727.000
 70
    32
  0
VERTEX
  8
3500LEVEL
 62
13
 10
1525.583
 20
-4394.639
 30
1727.000
 70
    32
  0
VERTEX
  8
3500LEVEL
 62
13
 10
1528.342
 20
-4331.775
 30
1727.000
 70
    32
  0
VERTEX
  8
3500LEVEL
 62
13
 10
1470.359
 20
-4232.445
 30
1727.000
 70
    32
  0
VERTEX
  8
3500LEVEL
 62
13
 10
1459.847
 20
-4175.273
 30
1727.000
 70
    32
  0
VERTEX
  8
3500LEVEL
 62
13
 10
1516.526
 20
-4255.983
 30
1727.000
 70
    32
  0
VERTEX
  8
3500LEVEL
 62
13
 10
1583.318
 20
-4330.243
 30
1727.000
 70
    32
  0
VERTEX
  8
3500LEVEL
 62
13
 10
1615.844
 20
-4385.393
 30
1727.000
 70
    32
  0
VERTEX
  8
3500LEVEL
 62
13
 10
1681.138
 20
-4468.997
 30
1727.000
 70
    32
  0
VERTEX
  8
3500LEVEL
 62
13
 10
1739.847
 20
-4488.241
 30
1727.000
 70
    32
  0
VERTEX
  8
3500LEVEL
 62
13
 10
1767.381
 20
-4439.183
 30
1727.000
 70
    32
  0
VERTEX
  8
3500LEVEL
 62
13
 10
1828.024
 20
-4427.462
 30
1727.000
 70
    32
  0
VERTEX
  8
3500LEVEL
 62
13
 10
1869.166
 20
-4485.506
 30
1727.000
 70
    32
  0
VERTEX
  8
3500LEVEL
 62
13
 10
1922.259
 20
-4549.247
 30
1727.000
 70
    32
  0
VERTEX
  8
3500LEVEL
 62
13
 10
2005.567
 20
-4658.941
 30
1727.000
 70
    32
  0
VERTEX
  8
3500LEVEL
 62
13
 10
2039.537
 20
-4683.048
 30
1727.000
 70
    32
  0
VERTEX
  8
3500LEVEL
 62
13
 10
2012.363
 20
-4619.676
 30
1727.000
 70
    32
  0
VERTEX
  8
3500LEVEL
 62
13
 10
1998.371
 20
-4555.894
 30
1727.000
 70
    32
  0
VERTEX
  8
3500LEVEL
 62
13
 10
1961.707
 20
-4487.218
 30
1727.000
 70
    32
  0
VERTEX
  8
3500LEVEL
 62
13
 10
1938.362
 20
-4414.119
 30
1727.000
 70
    32
  0
VERTEX
  8
3500LEVEL
 62
13
 10
1979.061
 20
-4473.353
 30
1727.000
 70
    32
  0
VERTEX
  8
3500LEVEL
 62
13
 10
1998.372
 20
-4464.593
 30
1727.000
 70
    32
  0
VERTEX
  8
3500LEVEL
 62
13
 10
2037.047
 20
-4468.773
 30
1727.000
 70
    32
  0
VERTEX
  8
3500LEVEL
 62
13
 10
2081.771
 20
-4523.355
 30
1727.000
 70
    32
  0
VERTEX
  8
3500LEVEL
 62
13
 10
2130.665
 20
-4577.092
 30
1727.000
 70
    32
  0
VERTEX
  8
3500LEVEL
 62
13
 10
2168.185
 20
-4645.148
 30
1727.000
 70
    32
  0
VERTEX
  8
3500LEVEL
 62
13
 10
2206.205
 20
-4721.103
 30
1727.000
 70
    32
  0
VERTEX
  8
3500LEVEL
 62
13
 10
2228.007
 20
-4789.668
 30
1727.000
 70
    32
  0
VERTEX
  8
3500LEVEL
 62
13
 10
2263.932
 20
-4864.530
 30
1727.000
 70
    32
  0
VERTEX
  8
3500LEVEL
 62
13
 10
2300.817
 20
-4916.091
 30
1727.000
 70
    32
  0
VERTEX
  8
3500LEVEL
 62
13
 10
2349.515
 20
-4964.752
 30
1727.000
 70
    32
  0
VERTEX
  8
3500LEVEL
 62
13
 10
2381.800
 20
-5000.948
 30
1727.000
 70
    32
  0
VERTEX
  8
3500LEVEL
 62
13
 10
2421.241
 20
-5055.440
 30
1727.000
 70
    32
  0
VERTEX
  8
3500LEVEL
 62
13
 10
2469.752
 20
-5106.846
 30
1727.000
 70
    32
  0
VERTEX
  8
3500LEVEL
 62
13
 10
2508.642
 20
-5164.781
 30
1727.000
 70
    32
  0
VERTEX
  8
3500LEVEL
 62
13
 10
2527.379
 20
-5214.695
 30
1727.000
 70
    32
  0
VERTEX
  8
3500LEVEL
 62
13
 10
2562.315
 20
-5268.970
 30
1727.000
 70
    32
  0
VERTEX
  8
3500LEVEL
 62
13
 10
2588.174
 20
-5318.512
 30
1727.000
 70
    32
  0
VERTEX
  8
3500LEVEL
 62
13
 10
2630.359
 20
-5373.192
 30
1727.000
 70
    32
  0
VERTEX
  8
3500LEVEL
 62
13
 10
2645.418
 20
-5378.379
 30
1727.000
 70
    32
  0
VERTEX
  8
3500LEVEL
 62
13
 10
2688.701
 20
-5405.743
 30
1727.000
 70
    32
  0
VERTEX
  8
3500LEVEL
 62
13
 10
2730.012
 20
-5458.013
 30
1727.000
 70
    32
  0
VERTEX
  8
3500LEVEL
 62
13
 10
2774.271
 20
-5523.366
 30
1727.000
 70
    32
  0
VERTEX
  8
3500LEVEL
 62
13
 10
2799.363
 20
-5568.245
 30
1727.000
 70
    32
  0
VERTEX
  8
3500LEVEL
 62
13
 10
2832.117
 20
-5614.100
 30
1727.000
 70
    32
  0
VERTEX
  8
3500LEVEL
 62
13
 10
2868.187
 20
-5659.729
 30
1727.000
 70
    32
  0
VERTEX
  8
3500LEVEL
 62
13
 10
2911.218
 20
-5718.580
 30
1727.000
 70
    32
  0
VERTEX
  8
3500LEVEL
 62
13
 10
2937.098
 20
-5758.541
 30
1727.000
 70
    32
  0
VERTEX
  8
3500LEVEL
 62
13
 10
2968.847
 20
-5813.818
 30
1727.000
 70
    32
  0
VERTEX
  8
3500LEVEL
 62
13
 10
3002.357
 20
-5869.126
 30
1727.000
 70
    32
  0
VERTEX
  8
3500LEVEL
 62
13
 10
3022.794
 20
-5922.591
 30
1727.000
 70
    32
  0
VERTEX
  8
3500LEVEL
 62
13
 10
3047.841
 20
-5953.591
 30
1727.000
 70
    32
  0
VERTEX
  8
3500LEVEL
 62
13
 10
3101.251
 20
-6002.755
 30
1727.000
 70
    32
  0
VERTEX
  8
3500LEVEL
 62
13
 10
3140.801
 20
-6054.995
 30
1727.000
 70
    32
  0
VERTEX
  8
3500LEVEL
 62
13
 10
3154.971
 20
-6029.522
 30
1727.000
 70
    32
  0
VERTEX
  8
3500LEVEL
 62
13
 10
3102.487
 20
-5971.427
 30
1727.000
 70
    32
  0
VERTEX
  8
3500LEVEL
 62
13
 10
3062.245
 20
-5893.602
 30
1727.000
 70
    32
  0
VERTEX
  8
3500LEVEL
 62
13
 10
3081.564
 20
-5847.012
 30
1727.000
 70
    32
  0
VERTEX
  8
3500LEVEL
 62
13
 10
3141.186
 20
-5874.725
 30
1727.000
 70
    32
  0
VERTEX
  8
3500LEVEL
 62
13
 10
3174.419
 20
-5892.408
 30
1727.000
 70
    32
  0
VERTEX
  8
3500LEVEL
 62
13
 10
3213.711
 20
-5910.053
 30
1727.000
 70
    32
  0
VERTEX
  8
3500LEVEL
 62
13
 10
3247.004
 20
-5969.866
 30
1727.000
 70
    32
  0
VERTEX
  8
3500LEVEL
 62
13
 10
3289.208
 20
-6027.575
 30
1727.000
 70
    32
  0
VERTEX
  8
3500LEVEL
 62
13
 10
3329.475
 20
-6083.209
 30
1727.000
 70
    32
  0
VERTEX
  8
3500LEVEL
 62
13
 10
3366.626
 20
-6131.534
 30
1727.000
 70
    32
  0
VERTEX
  8
3500LEVEL
 62
13
 10
3380.201
 20
-6174.315
 30
1727.000
 70
    32
  0
VERTEX
  8
3500LEVEL
 62
13
 10
3405.000
 20
-6211.581
 30
1727.000
 70
    32
  0
VERTEX
  8
3500LEVEL
 62
13
 10
3432.310
 20
-6192.249
 30
1727.000
 70
    32
  0
VERTEX
  8
3500LEVEL
 62
13
 10
3451.705
 20
-6157.777
 30
1727.000
 70
    32
  0
VERTEX
  8
3500LEVEL
 62
13
 10
3487.351
 20
-6161.975
 30
1727.000
 70
    32
  0
VERTEX
  8
3500LEVEL
 62
13
 10
3503.159
 20
-6156.185
 30
1727.000
 70
    32
  0
VERTEX
  8
3500LEVEL
 62
13
 10
3546.764
 20
-6156.362
 30
1727.000
 70
    32
  0
VERTEX
  8
3500LEVEL
 62
13
 10
3623.843
 20
-6193.177
 30
1727.000
 70
    32
  0
VERTEX
  8
3500LEVEL
 62
13
 10
3674.713
 20
-6209.399
 30
1727.000
 70
    32
  0
VERTEX
  8
3500LEVEL
 62
13
 10
3986.719
 20
-6442.246
 30
1727.000
 70
    32
  0
VERTEX
  8
3500LEVEL
 62
13
 10
4024.633
 20
-6462.193
 30
1727.000
 70
    32
  0
VERTEX
  8
3500LEVEL
 62
13
 10
4063.290
 20
-6463.343
 30
1727.000
 70
    32
  0
VERTEX
  8
3500LEVEL
 62
13
 10
4101.704
 20
-6491.188
 30
1727.000
 70
    32
  0
VERTEX
  8
3500LEVEL
 62
13
 10
4175.650
 20
-6596.356
 30
1727.000
 70
    32
  0
VERTEX
  8
3500LEVEL
 62
13
 10
4237.472
 20
-6681.169
 30
1727.000
 70
    32
  0
VERTEX
  8
3500LEVEL
 62
13
 10
4308.022
 20
-6754.013
 30
1727.000
 70
    32
  0
VERTEX
  8
3500LEVEL
 62
13
 10
4402.188
 20
-6871.500
 30
1727.000
 70
    32
  0
VERTEX
  8
3500LEVEL
 62
13
 10
4469.724
 20
-6960.003
 30
1727.000
 70
    32
  0
VERTEX
  8
3500LEVEL
 62
13
 10
4541.195
 20
-7049.136
 30
1727.000
 70
    32
  0
VERTEX
  8
3500LEVEL
 62
13
 10
4585.073
 20
-7099.548
 30
1727.000
 70
    32
  0
SEQEND
  8
3500LEVEL
  0
POLYLINE
  8
3500LEVEL
 62
5
 66
     1
 70
     9
  0
VERTEX
  8
3500LEVEL
 62
5
 10
2747.455
 20
-4178.052
 30
1727.000
 70
    32
  0
VERTEX
  8
3500LEVEL
 62
5
 10
2724.560
 20
-4157.233
 30
1727.000
 70
    32
  0
VERTEX
  8
3500LEVEL
 62
5
 10
2692.977
 20
-4108.792
 30
1727.000
 70
    32
  0
VERTEX
  8
3500LEVEL
 62
5
 10
2657.239
 20
-4076.835
 30
1727.000
 70
    32
  0
VERTEX
  8
3500LEVEL
 62
5
 10
2684.559
 20
-4144.014
 30
1727.000
 70
    32
  0
VERTEX
  8
3500LEVEL
 62
5
 10
2715.767
 20
-4197.944
 30
1727.000
 70
    32
  0
VERTEX
  8
3500LEVEL
 62
5
 10
2753.742
 20
-4214.369
 30
1727.000
 70
    32
  0
VERTEX
  8
3500LEVEL
 62
5
 10
2772.560
 20
-4251.181
 30
1727.000
 70
    32
  0
VERTEX
  8
3500LEVEL
 62
5
 10
2762.939
 20
-4212.060
 30
1727.000
 70
    32
  0
SEQEND
  8
3500LEVEL
  0
POLYLINE
  8
3500LEVEL
 62
5
 66
     1
 70
     9
  0
VERTEX
  8
3500LEVEL
 62
5
 10
2579.127
 20
-4913.773
 30
1727.000
 70
    32
  0
VERTEX
  8
3500LEVEL
 62
5
 10
2610.384
 20
-4968.972
 30
1727.000
 70
    32
  0
VERTEX
  8
3500LEVEL
 62
5
 10
2644.671
 20
-5024.152
 30
1727.000
 70
    32
  0
VERTEX
  8
3500LEVEL
 62
5
 10
2655.917
 20
-5054.706
 30
1727.000
 70
    32
  0
VERTEX
  8
3500LEVEL
 62
5
 10
2679.322
 20
-5124.284
 30
1727.000
 70
    32
  0
VERTEX
  8
3500LEVEL
 62
5
 10
2671.192
 20
-5146.689
 30
1727.000
 70
    32
  0
VERTEX
  8
3500LEVEL
 62
5
 10
2656.791
 20
-5102.767
 30
1727.000
 70
    32
  0
VERTEX
  8
3500LEVEL
 62
5
 10
2630.827
 20
-5042.867
 30
1727.000
 70
    32
  0
VERTEX
  8
3500LEVEL
 62
5
 10
2599.070
 20
-4979.770
 30
1727.000
 70
    32
  0
VERTEX
  8
3500LEVEL
 62
5
 10
2567.272
 20
-4923.223
 30
1727.000
 70
    32
  0
SEQEND
  8
3500LEVEL
  0
POLYLINE
  8
3500LEVEL
 62
5
 66
     1
 70
     9
  0
VERTEX
  8
3500LEVEL
 62
5
 10
2483.219
 20
-5014.928
 30
1727.000
 70
    32
  0
VERTEX
  8
3500LEVEL
 62
5
 10
2526.685
 20
-5064.769
 30
1727.000
 70
    32
  0
VERTEX
  8
3500LEVEL
 62
5
 10
2558.092
 20
-5111.164
 30
1727.000
 70
    32
  0
VERTEX
  8
3500LEVEL
 62
5
 10
2564.539
 20
-5133.888
 30
1727.000
 70
    32
  0
VERTEX
  8
3500LEVEL
 62
5
 10
2529.252
 20
-5108.561
 30
1727.000
 70
    32
  0
VERTEX
  8
3500LEVEL
 62
5
 10
2499.152
 20
-5068.176
 30
1727.000
 70
    32
  0
VERTEX
  8
3500LEVEL
 62
5
 10
2481.831
 20
-5022.020
 30
1727.000
 70
    32
  0
SEQEND
  8
3500LEVEL
  0
POLYLINE
  8
3500LEVEL
 62
5
 66
     1
 70
     9
  0
VERTEX
  8
3500LEVEL
 62
5
 10
2207.603
 20
-4891.823
 30
1727.000
 70
    32
  0
VERTEX
  8
3500LEVEL
 62
5
 10
2263.029
 20
-4942.572
 30
1727.000
 70
    32
  0
VERTEX
  8
3500LEVEL
 62
5
 10
2249.563
 20
-4943.188
 30
1727.000
 70
    32
  0
VERTEX
  8
3500LEVEL
 62
5
 10
2207.926
 20
-4897.676
 30
1727.000
 70
    32
  0
SEQEND
  8
3500LEVEL
  0
POLYLINE
  8
3500LEVEL
 62
5
 66
     1
 70
     9
  0
VERTEX
  8
3500LEVEL
 62
5
 10
1852.944
 20
-4320.733
 30
1727.000
 70
    32
  0
VERTEX
  8
3500LEVEL
 62
5
 10
1873.221
 20
-4387.792
 30
1727.000
 70
    32
  0
VERTEX
  8
3500LEVEL
 62
5
 10
1911.212
 20
-4465.508
 30
1727.000
 70
    32
  0
VERTEX
  8
3500LEVEL
 62
5
 10
1927.712
 20
-4530.953
 30
1727.000
 70
    32
  0
VERTEX
  8
3500LEVEL
 62
5
 10
1959.814
 20
-4590.323
 30
1727.000
 70
    32
  0
VERTEX
  8
3500LEVEL
 62
5
 10
1992.705
 20
-4644.774
 30
1727.000
 70
    32
  0
VERTEX
  8
3500LEVEL
 62
5
 10
2013.191
 20
-4699.508
 30
1727.000
 70
    32
  0
VERTEX
  8
3500LEVEL
 62
5
 10
2049.902
 20
-4736.413
 30
1727.000
 70
    32
  0
VERTEX
  8
3500LEVEL
 62
5
 10
2103.435
 20
-4765.924
 30
1727.000
 70
    32
  0
VERTEX
  8
3500LEVEL
 62
5
 10
2135.836
 20
-4807.687
 30
1727.000
 70
    32
  0
VERTEX
  8
3500LEVEL
 62
5
 10
2167.102
 20
-4870.705
 30
1727.000
 70
    32
  0
VERTEX
  8
3500LEVEL
 62
5
 10
2195.242
 20
-4918.595
 30
1727.000
 70
    32
  0
VERTEX
  8
3500LEVEL
 62
5
 10
2206.132
 20
-4957.667
 30
1727.000
 70
    32
  0
VERTEX
  8
3500LEVEL
 62
5
 10
2252.095
 20
-5013.961
 30
1727.000
 70
    32
  0
VERTEX
  8
3500LEVEL
 62
5
 10
2275.760
 20
-5059.873
 30
1727.000
 70
    32
  0
VERTEX
  8
3500LEVEL
 62
5
 10
2296.869
 20
-5102.853
 30
1727.000
 70
    32
  0
VERTEX
  8
3500LEVEL
 62
5
 10
2318.201
 20
-5161.758
 30
1727.000
 70
    32
  0
VERTEX
  8
3500LEVEL
 62
5
 10
2329.044
 20
-5232.602
 30
1727.000
 70
    32
  0
VERTEX
  8
3500LEVEL
 62
5
 10
2336.307
 20
-5306.907
 30
1727.000
 70
    32
  0
VERTEX
  8
3500LEVEL
 62
5
 10
2322.821
 20
-5304.494
 30
1727.000
 70
    32
  0
VERTEX
  8
3500LEVEL
 62
5
 10
2310.992
 20
-5246.103
 30
1727.000
 70
    32
  0
VERTEX
  8
3500LEVEL
 62
5
 10
2296.695
 20
-5179.498
 30
1727.000
 70
    32
  0
VERTEX
  8
3500LEVEL
 62
5
 10
2284.737
 20
-5120.329
 30
1727.000
 70
    32
  0
VERTEX
  8
3500LEVEL
 62
5
 10
2258.237
 20
-5079.512
 30
1727.000
 70
    32
  0
VERTEX
  8
3500LEVEL
 62
5
 10
2248.204
 20
-5039.820
 30
1727.000
 70
    32
  0
VERTEX
  8
3500LEVEL
 62
5
 10
2204.157
 20
-4995.183
 30
1727.000
 70
    32
  0
VERTEX
  8
3500LEVEL
 62
5
 10
2170.163
 20
-4947.616
 30
1727.000
 70
    32
  0
VERTEX
  8
3500LEVEL
 62
5
 10
2168.558
 20
-4913.563
 30
1727.000
 70
    32
  0
VERTEX
  8
3500LEVEL
 62
5
 10
2138.066
 20
-4863.026
 30
1727.000
 70
    32
  0
VERTEX
  8
3500LEVEL
 62
5
 10
2111.599
 20
-4807.839
 30
1727.000
 70
    32
  0
VERTEX
  8
3500LEVEL
 62
5
 10
2079.442
 20
-4772.420
 30
1727.000
 70
    32
  0
VERTEX
  8
3500LEVEL
 62
5
 10
2029.176
 20
-4741.415
 30
1727.000
 70
    32
  0
VERTEX
  8
3500LEVEL
 62
5
 10
2020.527
 20
-4752.892
 30
1727.000
 70
    32
  0
VERTEX
  8
3500LEVEL
 62
5
 10
1991.144
 20
-4715.901
 30
1727.000
 70
    32
  0
VERTEX
  8
3500LEVEL
 62
5
 10
1976.391
 20
-4667.886
 30
1727.000
 70
    32
  0
VERTEX
  8
3500LEVEL
 62
5
 10
1950.622
 20
-4613.062
 30
1727.000
 70
    32
  0
VERTEX
  8
3500LEVEL
 62
5
 10
1920.547
 20
-4550.486
 30
1727.000
 70
    32
  0
VERTEX
  8
3500LEVEL
 62
5
 10
1902.294
 20
-4492.831
 30
1727.000
 70
    32
  0
VERTEX
  8
3500LEVEL
 62
5
 10
1884.198
 20
-4434.193
 30
1727.000
 70
    32
  0
VERTEX
  8
3500LEVEL
 62
5
 10
1857.682
 20
-4377.736
 30
1727.000
 70
    32
  0
VERTEX
  8
3500LEVEL
 62
5
 10
1839.171
 20
-4331.137
 30
1727.000
 70
    32
  0
SEQEND
  8
3500LEVEL
  0
POLYLINE
  8
3500LEVEL
 62
5
 66
     1
 70
     8
  0
VERTEX
  8
3500LEVEL
 62
5
 10
3037.716
 20
-6578.718
 30
1727.000
 70
    32
  0
VERTEX
  8
3500LEVEL
 62
5
 10
3009.105
 20
-6566.820
 30
1727.000
 70
    32
  0
VERTEX
  8
3500LEVEL
 62
5
 10
3017.587
 20
-6594.157
 30
1727.000
 70
    32
  0
VERTEX
  8
3500LEVEL
 62
5
 10
3001.545
 20
-6588.812
 30
1727.000
 70
    32
  0
SEQEND
  8
3500LEVEL
  0
POLYLINE
  8
3500LEVEL
 62
5
 66
     1
 70
     9
  0
VERTEX
  8
3500LEVEL
 62
5
 10
3170.692
 20
-6891.584
 30
1727.000
 70
    32
  0
VERTEX
  8
3500LEVEL
 62
5
 10
3082.596
 20
-6769.269
 30
1727.000
 70
    32
  0
VERTEX
  8
3500LEVEL
 62
5
 10
3092.603
 20
-6798.111
 30
1727.000
 70
    32
  0
VERTEX
  8
3500LEVEL
 62
5
 10
3071.387
 20
-6790.424
 30
1727.000
 70
    32
  0
VERTEX
  8
3500LEVEL
 62
5
 10
3160.527
 20
-6909.375
 30
1727.000
 70
    32
  0
SEQEND
  8
3500LEVEL
  0
POLYLINE
  8
3500LEVEL
 62
5
 66
     1
 70
     9
  0
VERTEX
  8
3500LEVEL
 62
5
 10
2905.716
 20
-5644.304
 30
1727.000
 70
    32
  0
VERTEX
  8
3500LEVEL
 62
5
 10
2921.698
 20
-5698.821
 30
1727.000
 70
    32
  0
VERTEX
  8
3500LEVEL
 62
5
 10
2933.576
 20
-5758.481
 30
1727.000
 70
    32
  0
VERTEX
  8
3500LEVEL
 62
5
 10
2945.656
 20
-5797.996
 30
1727.000
 70
    32
  0
VERTEX
  8
3500LEVEL
 62
5
 10
2984.141
 20
-5863.181
 30
1727.000
 70
    32
  0
VERTEX
  8
3500LEVEL
 62
5
 10
2962.771
 20
-5843.867
 30
1727.000
 70
    32
  0
VERTEX
  8
3500LEVEL
 62
5
 10
2923.949
 20
-5790.231
 30
1727.000
 70
    32
  0
VERTEX
  8
3500LEVEL
 62
5
 10
2915.456
 20
-5722.033
 30
1727.000
 70
    32
  0
VERTEX
  8
3500LEVEL
 62
5
 10
2892.913
 20
-5672.266
 30
1727.000
 70
    32
  0
VERTEX
  8
3500LEVEL
 62
5
 10
2891.788
 20
-5643.081
 30
1727.000
 70
    32
  0
SEQEND
  8
3500LEVEL
  0
POLYLINE
  8
3500LEVEL
 62
5
 66
     1
 70
     9
  0
VERTEX
  8
3500LEVEL
 62
5
 10
2955.345
 20
-5841.416
 30
1727.000
 70
    32
  0
VERTEX
  8
3500LEVEL
 62
5
 10
2979.897
 20
-5884.948
 30
1727.000
 70
    32
  0
VERTEX
  8
3500LEVEL
 62
5
 10
3010.543
 20
-5947.110
 30
1727.000
 70
    32
  0
VERTEX
  8
3500LEVEL
 62
5
 10
3011.146
 20
-5977.977
 30
1727.000
 70
    32
  0
VERTEX
  8
3500LEVEL
 62
5
 10
2988.178
 20
-5932.429
 30
1727.000
 70
    32
  0
VERTEX
  8
3500LEVEL
 62
5
 10
2957.904
 20
-5877.388
 30
1727.000
 70
    32
  0
VERTEX
  8
3500LEVEL
 62
5
 10
2946.884
 20
-5850.149
 30
1727.000
 70
    32
  0
SEQEND
  8
3500LEVEL
  0
POLYLINE
  8
3500LEVEL
 62
5
 66
     1
 70
     9
  0
VERTEX
  8
3500LEVEL
 62
5
 10
3066.410
 20
-5656.685
 30
1727.000
 70
    32
  0
VERTEX
  8
3500LEVEL
 62
5
 10
3107.514
 20
-5708.669
 30
1727.000
 70
    32
  0
VERTEX
  8
3500LEVEL
 62
5
 10
3144.043
 20
-5768.748
 30
1727.000
 70
    32
  0
VERTEX
  8
3500LEVEL
 62
5
 10
3176.077
 20
-5823.819
 30
1727.000
 70
    32
  0
VERTEX
  8
3500LEVEL
 62
5
 10
3204.354
 20
-5880.306
 30
1727.000
 70
    32
  0
VERTEX
  8
3500LEVEL
 62
5
 10
3173.601
 20
-5853.436
 30
1727.000
 70
    32
  0
VERTEX
  8
3500LEVEL
 62
5
 10
3141.961
 20
-5795.906
 30
1727.000
 70
    32
  0
VERTEX
  8
3500LEVEL
 62
5
 10
3110.576
 20
-5739.930
 30
1727.000
 70
    32
  0
VERTEX
  8
3500LEVEL
 62
5
 10
3057.772
 20
-5663.372
 30
1727.000
 70
    32
  0
SEQEND
  8
3500LEVEL
  0
POLYLINE
  8
3500LEVEL
 62
5
 66
     1
 70
     9
  0
VERTEX
  8
3500LEVEL
 62
5
 10
3793.261
 20
-6513.143
 30
1727.000
 70
    32
  0
VERTEX
  8
3500LEVEL
 62
5
 10
3746.198
 20
-6451.124
 30
1727.000
 70
    32
  0
VERTEX
  8
3500LEVEL
 62
5
 10
3691.593
 20
-6381.086
 30
1727.000
 70
    32
  0
VERTEX
  8
3500LEVEL
 62
5
 10
3635.493
 20
-6307.783
 30
1727.000
 70
    32
  0
VERTEX
  8
3500LEVEL
 62
5
 10
3562.506
 20
-6224.964
 30
1727.000
 70
    32
  0
VERTEX
  8
3500LEVEL
 62
5
 10
3494.573
 20
-6151.530
 30
1727.000
 70
    32
  0
VERTEX
  8
3500LEVEL
 62
5
 10
3403.787
 20
-6050.727
 30
1727.000
 70
    32
  0
VERTEX
  8
3500LEVEL
 62
5
 10
3336.693
 20
-5961.033
 30
1727.000
 70
    32
  0
VERTEX
  8
3500LEVEL
 62
5
 10
3267.796
 20
-5890.472
 30
1727.000
 70
    32
  0
VERTEX
  8
3500LEVEL
 62
5
 10
3297.559
 20
-5942.404
 30
1727.000
 70
    32
  0
VERTEX
  8
3500LEVEL
 62
5
 10
3382.811
 20
-6028.954
 30
1727.000
 70
    32
  0
VERTEX
  8
3500LEVEL
 62
5
 10
3443.405
 20
-6107.265
 30
1727.000
 70
    32
  0
VERTEX
  8
3500LEVEL
 62
5
 10
3511.030
 20
-6190.486
 30
1727.000
 70
    32
  0
VERTEX
  8
3500LEVEL
 62
5
 10
3565.677
 20
-6253.972
 30
1727.000
 70
    32
  0
VERTEX
  8
3500LEVEL
 62
5
 10
3639.158
 20
-6324.260
 30
1727.000
 70
    32
  0
VERTEX
  8
3500LEVEL
 62
5
 10
3692.093
 20
-6388.985
 30
1727.000
 70
    32
  0
VERTEX
  8
3500LEVEL
 62
5
 10
3737.973
 20
-6458.381
 30
1727.000
 70
    32
  0
VERTEX
  8
3500LEVEL
 62
5
 10
3785.262
 20
-6523.715
 30
1727.000
 70
    32
  0
SEQEND
  8
3500LEVEL
  0
POLYLINE
  8
3500LEVEL
 62
5
 66
     1
 70
     9
  0
VERTEX
  8
3500LEVEL
 62
5
 10
3729.225
 20
-6388.629
 30
1727.000
 70
    32
  0
VERTEX
  8
3500LEVEL
 62
5
 10
3680.176
 20
-6323.266
 30
1727.000
 70
    32
  0
VERTEX
  8
3500LEVEL
 62
5
 10
3644.362
 20
-6279.191
 30
1727.000
 70
    32
  0
VERTEX
  8
3500LEVEL
 62
5
 10
3688.461
 20
-6312.487
 30
1727.000
 70
    32
  0
VERTEX
  8
3500LEVEL
 62
5
 10
3697.965
 20
-6300.390
 30
1727.000
 70
    32
  0
VERTEX
  8
3500LEVEL
 62
5
 10
3644.199
 20
-6259.744
 30
1727.000
 70
    32
  0
VERTEX
  8
3500LEVEL
 62
5
 10
3629.122
 20
-6251.527
 30
1727.000
 70
    32
  0
VERTEX
  8
3500LEVEL
 62
5
 10
3610.618
 20
-6258.399
 30
1727.000
 70
    32
  0
VERTEX
  8
3500LEVEL
 62
5
 10
3655.518
 20
-6315.027
 30
1727.000
 70
    32
  0
VERTEX
  8
3500LEVEL
 62
5
 10
3723.320
 20
-6400.294
 30
1727.000
 70
    32
  0
SEQEND
  8
3500LEVEL
  0
POLYLINE
  8
3500LEVEL
 62
5
 66
     1
 70
     9
  0
VERTEX
  8
3500LEVEL
 62
5
 10
3695.215
 20
-6325.423
 30
1727.000
 70
    32
  0
VERTEX
  8
3500LEVEL
 62
5
 10
3733.369
 20
-6376.935
 30
1727.000
 70
    32
  0
VERTEX
  8
3500LEVEL
 62
5
 10
3753.049
 20
-6387.907
 30
1727.000
 70
    32
  0
VERTEX
  8
3500LEVEL
 62
5
 10
3724.139
 20
-6347.965
 30
1727.000
 70
    32
  0
VERTEX
  8
3500LEVEL
 62
5
 10
3694.794
 20
-6317.033
 30
1727.000
 70
    32
  0
SEQEND
  8
3500LEVEL
  0
POLYLINE
  8
3500LEVEL
 62
5
 66
     1
 70
     9
  0
VERTEX
  8
3500LEVEL
 62
5
 10
2887.857
 20
-3879.481
 30
1727.000
 70
    32
  0
VERTEX
  8
3500LEVEL
 62
5
 10
2831.731
 20
-3749.678
 30
1727.000
 70
    32
  0
VERTEX
  8
3500LEVEL
 62
5
 10
2865.467
 20
-3762.650
 30
1727.000
 70
    32
  0
VERTEX
  8
3500LEVEL
 62
5
 10
2916.273
 20
-3886.304
 30
1727.000
 70
    32
  0
SEQEND
  8
3500LEVEL
  0
POLYLINE
  8
3500LEVEL
 62
5
 66
     1
 70
     9
  0
VERTEX
  8
3500LEVEL
 62
5
 10
3323.356
 20
-4166.417
 30
1727.000
 70
    32
  0
VERTEX
  8
3500LEVEL
 62
5
 10
3289.534
 20
-4100.467
 30
1727.000
 70
    32
  0
VERTEX
  8
3500LEVEL
 62
5
 10
3257.269
 20
-4021.651
 30
1727.000
 70
    32
  0
VERTEX
  8
3500LEVEL
 62
5
 10
3269.420
 20
-4007.204
 30
1727.000
 70
    32
  0
VERTEX
  8
3500LEVEL
 62
5
 10
3337.355
 20
-4159.329
 30
1727.000
 70
    32
  0
SEQEND
  8
3500LEVEL
  0
POLYLINE
  8
3500LEVEL
 62
5
 66
     1
 70
     9
  0
VERTEX
  8
3500LEVEL
 62
5
 10
2888.994
 20
-4028.217
 30
1727.000
 70
    32
  0
VERTEX
  8
3500LEVEL
 62
5
 10
2868.986
 20
-3990.962
 30
1727.000
 70
    32
  0
VERTEX
  8
3500LEVEL
 62
5
 10
2879.955
 20
-3983.892
 30
1727.000
 70
    32
  0
VERTEX
  8
3500LEVEL
 62
5
 10
2901.390
 20
-4020.115
 30
1727.000
 70
    32
  0
SEQEND
  8
3500LEVEL
  0
POLYLINE
  8
3500LEVEL
 62
5
 66
     1
 70
     9
  0
VERTEX
  8
3500LEVEL
 62
5
 10
2869.624
 20
-4040.498
 30
1727.000
 70
    32
  0
VERTEX
  8
3500LEVEL
 62
5
 10
2869.417
 20
-4040.213
 30
1727.000
 70
    32
  0
VERTEX
  8
3500LEVEL
 62
5
 10
2849.123
 20
-4003.165
 30
1727.000
 70
    32
  0
VERTEX
  8
3500LEVEL
 62
5
 10
2859.413
 20
-3998.760
 30
1727.000
 70
    32
  0
VERTEX
  8
3500LEVEL
 62
5
 10
2883.435
 20
-4036.154
 30
1727.000
 70
    32
  0
SEQEND
  8
3500LEVEL
  0
POLYLINE
  8
3500LEVEL
 62
5
 66
     1
 70
     9
  0
VERTEX
  8
3500LEVEL
 62
5
 10
2832.407
 20
-4066.566
 30
1727.000
 70
    32
  0
VERTEX
  8
3500LEVEL
 62
5
 10
2813.686
 20
-4032.292
 30
1727.000
 70
    32
  0
VERTEX
  8
3500LEVEL
 62
5
 10
2820.574
 20
-4020.785
 30
1727.000
 70
    32
  0
VERTEX
  8
3500LEVEL
 62
5
 10
2844.585
 20
-4062.969
 30
1727.000
 70
    32
  0
SEQEND
  8
3500LEVEL
  0
POLYLINE
  8
3500LEVEL
 62
5
 66
     1
 70
     9
  0
VERTEX
  8
3500LEVEL
 62
5
 10
2775.513
 20
-4114.702
 30
1727.000
 70
    32
  0
VERTEX
  8
3500LEVEL
 62
5
 10
2757.110
 20
-4065.851
 30
1727.000
 70
    32
  0
VERTEX
  8
3500LEVEL
 62
5
 10
2762.403
 20
-4061.150
 30
1727.000
 70
    32
  0
VERTEX
  8
3500LEVEL
 62
5
 10
2781.564
 20
-4106.844
 30
1727.000
 70
    32
  0
SEQEND
  8
3500LEVEL
  0
POLYLINE
  8
3500LEVEL
 62
5
 66
     1
 70
     9
  0
VERTEX
  8
3500LEVEL
 62
5
 10
2759.250
 20
-4126.473
 30
1727.000
 70
    32
  0
VERTEX
  8
3500LEVEL
 62
5
 10
2747.880
 20
-4082.531
 30
1727.000
 70
    32
  0
VERTEX
  8
3500LEVEL
 62
5
 10
2753.056
 20
-4072.263
 30
1727.000
 70
    32
  0
VERTEX
  8
3500LEVEL
 62
5
 10
2764.446
 20
-4119.234
 30
1727.000
 70
    32
  0
VERTEX
  8
3500LEVEL
 62
5
 10
2764.652
 20
-4119.520
 30
1727.000
 70
    32
  0
SEQEND
  8
3500LEVEL
  0
POLYLINE
  8
3500LEVEL
 62
5
 66
     1
 70
     9
  0
VERTEX
  8
3500LEVEL
 62
5
 10
2191.490
 20
-4417.855
 30
1727.000
 70
    32
  0
VERTEX
  8
3500LEVEL
 62
5
 10
2235.352
 20
-4452.627
 30
1727.000
 70
    32
  0
VERTEX
  8
3500LEVEL
 62
5
 10
2295.321
 20
-4509.652
 30
1727.000
 70
    32
  0
VERTEX
  8
3500LEVEL
 62
5
 10
2309.418
 20
-4505.100
 30
1727.000
 70
    32
  0
VERTEX
  8
3500LEVEL
 62
5
 10
2251.937
 20
-4446.709
 30
1727.000
 70
    32
  0
VERTEX
  8
3500LEVEL
 62
5
 10
2202.312
 20
-4406.978
 30
1727.000
 70
    32
  0
SEQEND
  8
3500LEVEL
  0
POLYLINE
  8
3500LEVEL
 62
5
 66
     1
 70
     9
  0
VERTEX
  8
3500LEVEL
 62
5
 10
3174.232
 20
-4144.793
 30
1727.000
 70
    32
  0
VERTEX
  8
3500LEVEL
 62
5
 10
3223.020
 20
-4233.823
 30
1727.000
 70
    32
  0
VERTEX
  8
3500LEVEL
 62
5
 10
3254.378
 20
-4278.949
 30
1727.000
 70
    32
  0
VERTEX
  8
3500LEVEL
 62
5
 10
3296.142
 20
-4370.889
 30
1727.000
 70
    32
  0
VERTEX
  8
3500LEVEL
 62
5
 10
3331.929
 20
-4449.765
 30
1727.000
 70
    32
  0
VERTEX
  8
3500LEVEL
 62
5
 10
3333.396
 20
-4462.679
 30
1727.000
 70
    32
  0
VERTEX
  8
3500LEVEL
 62
5
 10
3329.191
 20
-4476.011
 30
1727.000
 70
    32
  0
VERTEX
  8
3500LEVEL
 62
5
 10
3301.408
 20
-4573.367
 30
1727.000
 70
    32
  0
VERTEX
  8
3500LEVEL
 62
5
 10
3301.836
 20
-4574.799
 30
1727.000
 70
    32
  0
VERTEX
  8
3500LEVEL
 62
5
 10
3302.658
 20
-4578.439
 30
1727.000
 70
    32
  0
VERTEX
  8
3500LEVEL
 62
5
 10
3304.960
 20
-4586.738
 30
1727.000
 70
    32
  0
VERTEX
  8
3500LEVEL
 62
5
 10
3307.196
 20
-4599.554
 30
1727.000
 70
    32
  0
VERTEX
  8
3500LEVEL
 62
5
 10
3307.658
 20
-4611.017
 30
1727.000
 70
    32
  0
VERTEX
  8
3500LEVEL
 62
5
 10
3307.414
 20
-4619.411
 30
1727.000
 70
    32
  0
VERTEX
  8
3500LEVEL
 62
5
 10
3306.405
 20
-4630.594
 30
1727.000
 70
    32
  0
VERTEX
  8
3500LEVEL
 62
5
 10
3307.057
 20
-4641.007
 30
1727.000
 70
    32
  0
VERTEX
  8
3500LEVEL
 62
5
 10
3307.737
 20
-4648.490
 30
1727.000
 70
    32
  0
VERTEX
  8
3500LEVEL
 62
5
 10
3309.273
 20
-4660.391
 30
1727.000
 70
    32
  0
VERTEX
  8
3500LEVEL
 62
5
 10
3311.415
 20
-4672.955
 30
1727.000
 70
    32
  0
VERTEX
  8
3500LEVEL
 62
5
 10
3312.286
 20
-4680.129
 30
1727.000
 70
    32
  0
VERTEX
  8
3500LEVEL
 62
5
 10
3314.677
 20
-4691.116
 30
1727.000
 70
    32
  0
VERTEX
  8
3500LEVEL
 62
5
 10
3317.969
 20
-4705.534
 30
1727.000
 70
    32
  0
VERTEX
  8
3500LEVEL
 62
5
 10
3320.311
 20
-4719.132
 30
1727.000
 70
    32
  0
VERTEX
  8
3500LEVEL
 62
5
 10
3321.608
 20
-4728.550
 30
1727.000
 70
    32
  0
VERTEX
  8
3500LEVEL
 62
5
 10
3322.301
 20
-4739.600
 30
1727.000
 70
    32
  0
VERTEX
  8
3500LEVEL
 62
5
 10
3322.884
 20
-4753.046
 30
1727.000
 70
    32
  0
VERTEX
  8
3500LEVEL
 62
5
 10
3325.007
 20
-4766.776
 30
1727.000
 70
    32
  0
VERTEX
  8
3500LEVEL
 62
5
 10
3328.887
 20
-4783.022
 30
1727.000
 70
    32
  0
VERTEX
  8
3500LEVEL
 62
5
 10
3331.054
 20
-4795.023
 30
1727.000
 70
    32
  0
VERTEX
  8
3500LEVEL
 62
5
 10
3336.328
 20
-4813.982
 30
1727.000
 70
    32
  0
VERTEX
  8
3500LEVEL
 62
5
 10
3343.262
 20
-4836.761
 30
1727.000
 70
    32
  0
VERTEX
  8
3500LEVEL
 62
5
 10
3346.407
 20
-4851.314
 30
1727.000
 70
    32
  0
VERTEX
  8
3500LEVEL
 62
5
 10
3350.398
 20
-4870.497
 30
1727.000
 70
    32
  0
VERTEX
  8
3500LEVEL
 62
5
 10
3356.037
 20
-4886.895
 30
1727.000
 70
    32
  0
VERTEX
  8
3500LEVEL
 62
5
 10
3361.871
 20
-4904.396
 30
1727.000
 70
    32
  0
VERTEX
  8
3500LEVEL
 62
5
 10
3368.182
 20
-4917.682
 30
1727.000
 70
    32
  0
VERTEX
  8
3500LEVEL
 62
5
 10
3370.517
 20
-4922.981
 30
1727.000
 70
    32
  0
VERTEX
  8
3500LEVEL
 62
5
 10
3373.672
 20
-4929.624
 30
1727.000
 70
    32
  0
VERTEX
  8
3500LEVEL
 62
5
 10
3375.595
 20
-4937.729
 30
1727.000
 70
    32
  0
VERTEX
  8
3500LEVEL
 62
5
 10
3377.579
 20
-4948.344
 30
1727.000
 70
    32
  0
VERTEX
  8
3500LEVEL
 62
5
 10
3380.484
 20
-4957.376
 30
1727.000
 70
    32
  0
VERTEX
  8
3500LEVEL
 62
5
 10
3384.566
 20
-4964.592
 30
1727.000
 70
    32
  0
VERTEX
  8
3500LEVEL
 62
5
 10
3386.785
 20
-4964.729
 30
1727.000
 70
    32
  0
VERTEX
  8
3500LEVEL
 62
5
 10
3387.710
 20
-4963.818
 30
1727.000
 70
    32
  0
VERTEX
  8
3500LEVEL
 62
5
 10
3388.769
 20
-4959.205
 30
1727.000
 70
    32
  0
VERTEX
  8
3500LEVEL
 62
5
 10
3389.029
 20
-4952.013
 30
1727.000
 70
    32
  0
VERTEX
  8
3500LEVEL
 62
5
 10
3389.207
 20
-4945.841
 30
1727.000
 70
    32
  0
VERTEX
  8
3500LEVEL
 62
5
 10
3388.436
 20
-4936.483
 30
1727.000
 70
    32
  0
VERTEX
  8
3500LEVEL
 62
5
 10
3387.151
 20
-4928.336
 30
1727.000
 70
    32
  0
VERTEX
  8
3500LEVEL
 62
5
 10
3385.272
 20
-4918.503
 30
1727.000
 70
    32
  0
VERTEX
  8
3500LEVEL
 62
5
 10
3383.340
 20
-4912.905
 30
1727.000
 70
    32
  0
VERTEX
  8
3500LEVEL
 62
5
 10
3380.485
 20
-4907.406
 30
1727.000
 70
    32
  0
VERTEX
  8
3500LEVEL
 62
5
 10
3377.996
 20
-4901.641
 30
1727.000
 70
    32
  0
VERTEX
  8
3500LEVEL
 62
5
 10
3375.696
 20
-4894.826
 30
1727.000
 70
    32
  0
VERTEX
  8
3500LEVEL
 62
5
 10
3373.152
 20
-4887.152
 30
1727.000
 70
    32
  0
VERTEX
  8
3500LEVEL
 62
5
 10
3369.987
 20
-4878.425
 30
1727.000
 70
    32
  0
VERTEX
  8
3500LEVEL
 62
5
 10
3367.117
 20
-4867.875
 30
1727.000
 70
    32
  0
VERTEX
  8
3500LEVEL
 62
5
 10
3364.519
 20
-4855.254
 30
1727.000
 70
    32
  0
VERTEX
  8
3500LEVEL
 62
5
 10
3361.935
 20
-4845.388
 30
1727.000
 70
    32
  0
VERTEX
  8
3500LEVEL
 62
5
 10
3359.819
 20
-4838.405
 30
1727.000
 70
    32
  0
VERTEX
  8
3500LEVEL
 62
5
 10
3356.733
 20
-4828.728
 30
1727.000
 70
    32
  0
VERTEX
  8
3500LEVEL
 62
5
 10
3347.837
 20
-4807.130
 30
1727.000
 70
    32
  0
VERTEX
  8
3500LEVEL
 62
5
 10
3345.201
 20
-4793.801
 30
1727.000
 70
    32
  0
VERTEX
  8
3500LEVEL
 62
5
 10
3343.818
 20
-4785.474
 30
1727.000
 70
    32
  0
VERTEX
  8
3500LEVEL
 62
5
 10
3343.204
 20
-4779.619
 30
1727.000
 70
    32
  0
VERTEX
  8
3500LEVEL
 62
5
 10
3341.762
 20
-4771.819
 30
1727.000
 70
    32
  0
VERTEX
  8
3500LEVEL
 62
5
 10
3339.307
 20
-4760.688
 30
1727.000
 70
    32
  0
VERTEX
  8
3500LEVEL
 62
5
 10
3336.964
 20
-4752.493
 30
1727.000
 70
    32
  0
VERTEX
  8
3500LEVEL
 62
5
 10
3336.028
 20
-4744.433
 30
1727.000
 70
    32
  0
VERTEX
  8
3500LEVEL
 62
5
 10
3336.266
 20
-4737.735
 30
1727.000
 70
    32
  0
VERTEX
  8
3500LEVEL
 62
5
 10
3337.080
 20
-4729.226
 30
1727.000
 70
    32
  0
VERTEX
  8
3500LEVEL
 62
5
 10
3337.170
 20
-4722.661
 30
1727.000
 70
    32
  0
VERTEX
  8
3500LEVEL
 62
5
 10
3336.996
 20
-4714.920
 30
1727.000
 70
    32
  0
VERTEX
  8
3500LEVEL
 62
5
 10
3336.714
 20
-4710.316
 30
1727.000
 70
    32
  0
VERTEX
  8
3500LEVEL
 62
5
 10
3336.655
 20
-4703.144
 30
1727.000
 70
    32
  0
VERTEX
  8
3500LEVEL
 62
5
 10
3336.367
 20
-4699.423
 30
1727.000
 70
    32
  0
VERTEX
  8
3500LEVEL
 62
5
 10
3334.264
 20
-4694.453
 30
1727.000
 70
    32
  0
VERTEX
  8
3500LEVEL
 62
5
 10
3333.003
 20
-4692.700
 30
1727.000
 70
    32
  0
VERTEX
  8
3500LEVEL
 62
5
 10
3332.317
 20
-4691.503
 30
1727.000
 70
    32
  0
VERTEX
  8
3500LEVEL
 62
5
 10
3331.285
 20
-4688.595
 30
1727.000
 70
    32
  0
VERTEX
  8
3500LEVEL
 62
5
 10
3330.189
 20
-4681.693
 30
1727.000
 70
    32
  0
VERTEX
  8
3500LEVEL
 62
5
 10
3329.772
 20
-4676.942
 30
1727.000
 70
    32
  0
VERTEX
  8
3500LEVEL
 62
5
 10
3329.144
 20
-4670.627
 30
1727.000
 70
    32
  0
VERTEX
  8
3500LEVEL
 62
5
 10
3328.523
 20
-4664.171
 30
1727.000
 70
    32
  0
VERTEX
  8
3500LEVEL
 62
5
 10
3327.417
 20
-4659.035
 30
1727.000
 70
    32
  0
VERTEX
  8
3500LEVEL
 62
5
 10
3326.475
 20
-4653.412
 30
1727.000
 70
    32
  0
VERTEX
  8
3500LEVEL
 62
5
 10
3324.977
 20
-4644.515
 30
1727.000
 70
    32
  0
VERTEX
  8
3500LEVEL
 62
5
 10
3324.912
 20
-4635.930
 30
1727.000
 70
    32
  0
VERTEX
  8
3500LEVEL
 62
5
 10
3327.002
 20
-4627.339
 30
1727.000
 70
    32
  0
VERTEX
  8
3500LEVEL
 62
5
 10
3328.733
 20
-4622.721
 30
1727.000
 70
    32
  0
VERTEX
  8
3500LEVEL
 62
5
 10
3330.877
 20
-4618.335
 30
1727.000
 70
    32
  0
VERTEX
  8
3500LEVEL
 62
5
 10
3331.722
 20
-4616.078
 30
1727.000
 70
    32
  0
VERTEX
  8
3500LEVEL
 62
5
 10
3331.260
 20
-4612.314
 30
1727.000
 70
    32
  0
VERTEX
  8
3500LEVEL
 62
5
 10
3329.843
 20
-4607.799
 30
1727.000
 70
    32
  0
VERTEX
  8
3500LEVEL
 62
5
 10
3328.310
 20
-4604.268
 30
1727.000
 70
    32
  0
VERTEX
  8
3500LEVEL
 62
5
 10
3325.666
 20
-4596.483
 30
1727.000
 70
    32
  0
VERTEX
  8
3500LEVEL
 62
5
 10
3320.911
 20
-4584.681
 30
1727.000
 70
    32
  0
VERTEX
  8
3500LEVEL
 62
5
 10
3318.644
 20
-4575.607
 30
1727.000
 70
    32
  0
VERTEX
  8
3500LEVEL
 62
5
 10
3318.016
 20
-4566.997
 30
1727.000
 70
    32
  0
VERTEX
  8
3500LEVEL
 62
5
 10
3339.703
 20
-4483.730
 30
1727.000
 70
    32
  0
VERTEX
  8
3500LEVEL
 62
5
 10
3345.310
 20
-4460.574
 30
1727.000
 70
    32
  0
VERTEX
  8
3500LEVEL
 62
5
 10
3341.268
 20
-4430.832
 30
1727.000
 70
    32
  0
VERTEX
  8
3500LEVEL
 62
5
 10
3314.217
 20
-4347.807
 30
1727.000
 70
    32
  0
VERTEX
  8
3500LEVEL
 62
5
 10
3274.545
 20
-4269.570
 30
1727.000
 70
    32
  0
VERTEX
  8
3500LEVEL
 62
5
 10
3228.544
 20
-4207.217
 30
1727.000
 70
    32
  0
VERTEX
  8
3500LEVEL
 62
5
 10
3186.913
 20
-4136.484
 30
1727.000
 70
    32
  0
SEQEND
  8
3500LEVEL
  0
POLYLINE
  8
3500LEVEL
 62
5
 66
     1
 70
     9
  0
VERTEX
  8
3500LEVEL
 62
5
 10
4035.653
 20
-6580.734
 30
1727.000
 70
    32
  0
VERTEX
  8
3500LEVEL
 62
5
 10
3968.256
 20
-6396.916
 30
1727.000
 70
    32
  0
VERTEX
  8
3500LEVEL
 62
5
 10
3897.982
 20
-6237.355
 30
1727.000
 70
    32
  0
VERTEX
  8
3500LEVEL
 62
5
 10
3837.161
 20
-6077.038
 30
1727.000
 70
    32
  0
VERTEX
  8
3500LEVEL
 62
5
 10
3768.845
 20
-5909.972
 30
1727.000
 70
    32
  0
VERTEX
  8
3500LEVEL
 62
5
 10
3722.761
 20
-5782.030
 30
1727.000
 70
    32
  0
VERTEX
  8
3500LEVEL
 62
5
 10
3651.096
 20
-5596.520
 30
1727.000
 70
    32
  0
VERTEX
  8
3500LEVEL
 62
5
 10
3571.437
 20
-5442.012
 30
1727.000
 70
    32
  0
VERTEX
  8
3500LEVEL
 62
5
 10
3405.040
 20
-5136.880
 30
1727.000
 70
    32
  0
VERTEX
  8
3500LEVEL
 62
5
 10
3405.229
 20
-5133.534
 30
1727.000
 70
    32
  0
VERTEX
  8
3500LEVEL
 62
5
 10
3405.633
 20
-5130.127
 30
1727.000
 70
    32
  0
VERTEX
  8
3500LEVEL
 62
5
 10
3405.898
 20
-5125.901
 30
1727.000
 70
    32
  0
VERTEX
  8
3500LEVEL
 62
5
 10
3405.786
 20
-5121.411
 30
1727.000
 70
    32
  0
VERTEX
  8
3500LEVEL
 62
5
 10
3406.495
 20
-5117.524
 30
1727.000
 70
    32
  0
VERTEX
  8
3500LEVEL
 62
5
 10
3408.541
 20
-5112.956
 30
1727.000
 70
    32
  0
VERTEX
  8
3500LEVEL
 62
5
 10
3409.776
 20
-5109.128
 30
1727.000
 70
    32
  0
VERTEX
  8
3500LEVEL
 62
5
 10
3411.530
 20
-5106.313
 30
1727.000
 70
    32
  0
VERTEX
  8
3500LEVEL
 62
5
 10
3414.484
 20
-5104.295
 30
1727.000
 70
    32
  0
VERTEX
  8
3500LEVEL
 62
5
 10
3416.166
 20
-5103.030
 30
1727.000
 70
    32
  0
VERTEX
  8
3500LEVEL
 62
5
 10
3417.876
 20
-5101.943
 30
1727.000
 70
    32
  0
VERTEX
  8
3500LEVEL
 62
5
 10
3418.210
 20
-5103.124
 30
1727.000
 70
    32
  0
VERTEX
  8
3500LEVEL
 62
5
 10
3418.183
 20
-5106.795
 30
1727.000
 70
    32
  0
VERTEX
  8
3500LEVEL
 62
5
 10
3417.838
 20
-5109.675
 30
1727.000
 70
    32
  0
VERTEX
  8
3500LEVEL
 62
5
 10
3416.693
 20
-5115.379
 30
1727.000
 70
    32
  0
VERTEX
  8
3500LEVEL
 62
5
 10
3416.590
 20
-5123.779
 30
1727.000
 70
    32
  0
VERTEX
  8
3500LEVEL
 62
5
 10
3415.609
 20
-5133.587
 30
1727.000
 70
    32
  0
VERTEX
  8
3500LEVEL
 62
5
 10
3416.269
 20
-5136.902
 30
1727.000
 70
    32
  0
VERTEX
  8
3500LEVEL
 62
5
 10
3418.763
 20
-5141.042
 30
1727.000
 70
    32
  0
VERTEX
  8
3500LEVEL
 62
5
 10
3420.820
 20
-5143.150
 30
1727.000
 70
    32
  0
VERTEX
  8
3500LEVEL
 62
5
 10
3423.432
 20
-5143.941
 30
1727.000
 70
    32
  0
VERTEX
  8
3500LEVEL
 62
5
 10
3426.433
 20
-5143.973
 30
1727.000
 70
    32
  0
VERTEX
  8
3500LEVEL
 62
5
 10
3429.811
 20
-5143.457
 30
1727.000
 70
    32
  0
VERTEX
  8
3500LEVEL
 62
5
 10
3433.253
 20
-5142.344
 30
1727.000
 70
    32
  0
VERTEX
  8
3500LEVEL
 62
5
 10
3433.368
 20
-5141.360
 30
1727.000
 70
    32
  0
VERTEX
  8
3500LEVEL
 62
5
 10
3432.898
 20
-5139.290
 30
1727.000
 70
    32
  0
VERTEX
  8
3500LEVEL
 62
5
 10
3432.180
 20
-5137.245
 30
1727.000
 70
    32
  0
VERTEX
  8
3500LEVEL
 62
5
 10
3432.629
 20
-5136.700
 30
1727.000
 70
    32
  0
VERTEX
  8
3500LEVEL
 62
5
 10
3433.463
 20
-5137.763
 30
1727.000
 70
    32
  0
VERTEX
  8
3500LEVEL
 62
5
 10
3435.374
 20
-5140.746
 30
1727.000
 70
    32
  0
VERTEX
  8
3500LEVEL
 62
5
 10
3439.295
 20
-5145.341
 30
1727.000
 70
    32
  0
VERTEX
  8
3500LEVEL
 62
5
 10
3443.612
 20
-5152.072
 30
1727.000
 70
    32
  0
VERTEX
  8
3500LEVEL
 62
5
 10
3449.503
 20
-5162.973
 30
1727.000
 70
    32
  0
VERTEX
  8
3500LEVEL
 62
5
 10
3457.058
 20
-5173.773
 30
1727.000
 70
    32
  0
VERTEX
  8
3500LEVEL
 62
5
 10
3465.526
 20
-5184.686
 30
1727.000
 70
    32
  0
VERTEX
  8
3500LEVEL
 62
5
 10
3469.680
 20
-5190.351
 30
1727.000
 70
    32
  0
VERTEX
  8
3500LEVEL
 62
5
 10
3473.362
 20
-5194.758
 30
1727.000
 70
    32
  0
VERTEX
  8
3500LEVEL
 62
5
 10
3474.492
 20
-5196.293
 30
1727.000
 70
    32
  0
VERTEX
  8
3500LEVEL
 62
5
 10
3476.008
 20
-5197.882
 30
1727.000
 70
    32
  0
VERTEX
  8
3500LEVEL
 62
5
 10
3476.866
 20
-5199.192
 30
1727.000
 70
    32
  0
VERTEX
  8
3500LEVEL
 62
5
 10
3477.109
 20
-5200.051
 30
1727.000
 70
    32
  0
VERTEX
  8
3500LEVEL
 62
5
 10
3478.467
 20
-5201.244
 30
1727.000
 70
    32
  0
VERTEX
  8
3500LEVEL
 62
5
 10
3479.391
 20
-5201.886
 30
1727.000
 70
    32
  0
VERTEX
  8
3500LEVEL
 62
5
 10
3479.964
 20
-5203.255
 30
1727.000
 70
    32
  0
VERTEX
  8
3500LEVEL
 62
5
 10
3480.864
 20
-5205.945
 30
1727.000
 70
    32
  0
VERTEX
  8
3500LEVEL
 62
5
 10
3482.086
 20
-5207.802
 30
1727.000
 70
    32
  0
VERTEX
  8
3500LEVEL
 62
5
 10
3483.909
 20
-5212.688
 30
1727.000
 70
    32
  0
VERTEX
  8
3500LEVEL
 62
5
 10
3485.169
 20
-5217.549
 30
1727.000
 70
    32
  0
VERTEX
  8
3500LEVEL
 62
5
 10
3487.097
 20
-5224.771
 30
1727.000
 70
    32
  0
VERTEX
  8
3500LEVEL
 62
5
 10
3489.064
 20
-5232.702
 30
1727.000
 70
    32
  0
VERTEX
  8
3500LEVEL
 62
5
 10
3490.235
 20
-5241.019
 30
1727.000
 70
    32
  0
VERTEX
  8
3500LEVEL
 62
5
 10
3491.240
 20
-5246.045
 30
1727.000
 70
    32
  0
VERTEX
  8
3500LEVEL
 62
5
 10
3493.435
 20
-5248.229
 30
1727.000
 70
    32
  0
VERTEX
  8
3500LEVEL
 62
5
 10
3495.271
 20
-5248.243
 30
1727.000
 70
    32
  0
VERTEX
  8
3500LEVEL
 62
5
 10
3496.885
 20
-5246.163
 30
1727.000
 70
    32
  0
VERTEX
  8
3500LEVEL
 62
5
 10
3497.596
 20
-5243.759
 30
1727.000
 70
    32
  0
VERTEX
  8
3500LEVEL
 62
5
 10
3497.829
 20
-5242.534
 30
1727.000
 70
    32
  0
VERTEX
  8
3500LEVEL
 62
5
 10
3497.750
 20
-5239.634
 30
1727.000
 70
    32
  0
VERTEX
  8
3500LEVEL
 62
5
 10
3496.803
 20
-5233.340
 30
1727.000
 70
    32
  0
VERTEX
  8
3500LEVEL
 62
5
 10
3494.981
 20
-5225.346
 30
1727.000
 70
    32
  0
VERTEX
  8
3500LEVEL
 62
5
 10
3493.709
 20
-5219.213
 30
1727.000
 70
    32
  0
VERTEX
  8
3500LEVEL
 62
5
 10
3492.513
 20
-5209.906
 30
1727.000
 70
    32
  0
VERTEX
  8
3500LEVEL
 62
5
 10
3491.072
 20
-5201.293
 30
1727.000
 70
    32
  0
VERTEX
  8
3500LEVEL
 62
5
 10
3489.880
 20
-5192.657
 30
1727.000
 70
    32
  0
VERTEX
  8
3500LEVEL
 62
5
 10
3488.690
 20
-5187.058
 30
1727.000
 70
    32
  0
VERTEX
  8
3500LEVEL
 62
5
 10
3486.618
 20
-5182.195
 30
1727.000
 70
    32
  0
VERTEX
  8
3500LEVEL
 62
5
 10
3481.748
 20
-5173.672
 30
1727.000
 70
    32
  0
VERTEX
  8
3500LEVEL
 62
5
 10
3476.540
 20
-5166.335
 30
1727.000
 70
    32
  0
VERTEX
  8
3500LEVEL
 62
5
 10
3471.731
 20
-5160.322
 30
1727.000
 70
    32
  0
VERTEX
  8
3500LEVEL
 62
5
 10
3467.101
 20
-5156.578
 30
1727.000
 70
    32
  0
VERTEX
  8
3500LEVEL
 62
5
 10
3460.657
 20
-5148.477
 30
1727.000
 70
    32
  0
VERTEX
  8
3500LEVEL
 62
5
 10
3456.204
 20
-5142.410
 30
1727.000
 70
    32
  0
VERTEX
  8
3500LEVEL
 62
5
 10
3450.084
 20
-5134.960
 30
1727.000
 70
    32
  0
VERTEX
  8
3500LEVEL
 62
5
 10
3446.732
 20
-5131.062
 30
1727.000
 70
    32
  0
VERTEX
  8
3500LEVEL
 62
5
 10
3446.995
 20
-5129.944
 30
1727.000
 70
    32
  0
VERTEX
  8
3500LEVEL
 62
5
 10
3447.717
 20
-5128.071
 30
1727.000
 70
    32
  0
VERTEX
  8
3500LEVEL
 62
5
 10
3447.926
 20
-5125.043
 30
1727.000
 70
    32
  0
VERTEX
  8
3500LEVEL
 62
5
 10
3446.669
 20
-5119.370
 30
1727.000
 70
    32
  0
VERTEX
  8
3500LEVEL
 62
5
 10
3445.202
 20
-5115.171
 30
1727.000
 70
    32
  0
VERTEX
  8
3500LEVEL
 62
5
 10
3442.223
 20
-5107.759
 30
1727.000
 70
    32
  0
VERTEX
  8
3500LEVEL
 62
5
 10
3438.652
 20
-5101.698
 30
1727.000
 70
    32
  0
VERTEX
  8
3500LEVEL
 62
5
 10
3433.023
 20
-5092.787
 30
1727.000
 70
    32
  0
VERTEX
  8
3500LEVEL
 62
5
 10
3425.320
 20
-5079.825
 30
1727.000
 70
    32
  0
VERTEX
  8
3500LEVEL
 62
5
 10
3421.107
 20
-5073.134
 30
1727.000
 70
    32
  0
VERTEX
  8
3500LEVEL
 62
5
 10
3415.169
 20
-5064.032
 30
1727.000
 70
    32
  0
VERTEX
  8
3500LEVEL
 62
5
 10
3409.425
 20
-5056.846
 30
1727.000
 70
    32
  0
VERTEX
  8
3500LEVEL
 62
5
 10
3403.369
 20
-5047.245
 30
1727.000
 70
    32
  0
VERTEX
  8
3500LEVEL
 62
5
 10
3399.991
 20
-5042.357
 30
1727.000
 70
    32
  0
VERTEX
  8
3500LEVEL
 62
5
 10
3395.859
 20
-5035.458
 30
1727.000
 70
    32
  0
VERTEX
  8
3500LEVEL
 62
5
 10
3393.770
 20
-5030.947
 30
1727.000
 70
    32
  0
VERTEX
  8
3500LEVEL
 62
5
 10
3393.011
 20
-5028.264
 30
1727.000
 70
    32
  0
VERTEX
  8
3500LEVEL
 62
5
 10
3391.811
 20
-5025.172
 30
1727.000
 70
    32
  0
VERTEX
  8
3500LEVEL
 62
5
 10
3389.437
 20
-5022.273
 30
1727.000
 70
    32
  0
VERTEX
  8
3500LEVEL
 62
5
 10
3388.187
 20
-5021.050
 30
1727.000
 70
    32
  0
VERTEX
  8
3500LEVEL
 62
5
 10
3387.572
 20
-5019.044
 30
1727.000
 70
    32
  0
VERTEX
  8
3500LEVEL
 62
5
 10
3387.450
 20
-5017.873
 30
1727.000
 70
    32
  0
VERTEX
  8
3500LEVEL
 62
5
 10
3385.322
 20
-5015.762
 30
1727.000
 70
    32
  0
VERTEX
  8
3500LEVEL
 62
5
 10
3381.058
 20
-5012.494
 30
1727.000
 70
    32
  0
VERTEX
  8
3500LEVEL
 62
5
 10
3378.519
 20
-5009.340
 30
1727.000
 70
    32
  0
VERTEX
  8
3500LEVEL
 62
5
 10
3374.491
 20
-5004.776
 30
1727.000
 70
    32
  0
VERTEX
  8
3500LEVEL
 62
5
 10
3371.645
 20
-5000.619
 30
1727.000
 70
    32
  0
VERTEX
  8
3500LEVEL
 62
5
 10
3367.728
 20
-4994.400
 30
1727.000
 70
    32
  0
VERTEX
  8
3500LEVEL
 62
5
 10
3362.846
 20
-4988.455
 30
1727.000
 70
    32
  0
VERTEX
  8
3500LEVEL
 62
5
 10
3355.534
 20
-4976.959
 30
1727.000
 70
    32
  0
VERTEX
  8
3500LEVEL
 62
5
 10
3350.045
 20
-4965.760
 30
1727.000
 70
    32
  0
VERTEX
  8
3500LEVEL
 62
5
 10
3345.546
 20
-4953.793
 30
1727.000
 70
    32
  0
VERTEX
  8
3500LEVEL
 62
5
 10
3342.356
 20
-4948.667
 30
1727.000
 70
    32
  0
VERTEX
  8
3500LEVEL
 62
5
 10
3337.417
 20
-4941.624
 30
1727.000
 70
    32
  0
VERTEX
  8
3500LEVEL
 62
5
 10
3334.987
 20
-4936.886
 30
1727.000
 70
    32
  0
VERTEX
  8
3500LEVEL
 62
5
 10
3290.059
 20
-4824.403
 30
1727.000
 70
    32
  0
VERTEX
  8
3500LEVEL
 62
5
 10
3248.323
 20
-4697.662
 30
1727.000
 70
    32
  0
VERTEX
  8
3500LEVEL
 62
5
 10
3202.000
 20
-4538.155
 30
1727.000
 70
    32
  0
VERTEX
  8
3500LEVEL
 62
5
 10
3169.179
 20
-4396.701
 30
1727.000
 70
    32
  0
VERTEX
  8
3500LEVEL
 62
5
 10
3111.338
 20
-4235.096
 30
1727.000
 70
    32
  0
VERTEX
  8
3500LEVEL
 62
5
 10
3074.617
 20
-4111.681
 30
1727.000
 70
    32
  0
VERTEX
  8
3500LEVEL
 62
5
 10
3038.173
 20
-3980.239
 30
1727.000
 70
    32
  0
VERTEX
  8
3500LEVEL
 62
5
 10
2651.271
 20
-3934.640
 30
1727.000
 70
    32
  0
VERTEX
  8
3500LEVEL
 62
5
 10
2674.140
 20
-3977.649
 30
1727.000
 70
    32
  0
VERTEX
  8
3500LEVEL
 62
5
 10
2707.932
 20
-4091.011
 30
1727.000
 70
    32
  0
VERTEX
  8
3500LEVEL
 62
5
 10
2751.748
 20
-4157.554
 30
1727.000
 70
    32
  0
VERTEX
  8
3500LEVEL
 62
5
 10
2781.022
 20
-4242.448
 30
1727.000
 70
    32
  0
VERTEX
  8
3500LEVEL
 62
5
 10
2844.465
 20
-4376.955
 30
1727.000
 70
    32
  0
VERTEX
  8
3500LEVEL
 62
5
 10
2912.960
 20
-4533.457
 30
1727.000
 70
    32
  0
VERTEX
  8
3500LEVEL
 62
5
 10
2957.745
 20
-4663.209
 30
1727.000
 70
    32
  0
VERTEX
  8
3500LEVEL
 62
5
 10
3021.686
 20
-4818.224
 30
1727.000
 70
    32
  0
VERTEX
  8
3500LEVEL
 62
5
 10
3095.653
 20
-4959.461
 30
1727.000
 70
    32
  0
VERTEX
  8
3500LEVEL
 62
5
 10
3151.755
 20
-5111.455
 30
1727.000
 70
    32
  0
VERTEX
  8
3500LEVEL
 62
5
 10
3223.526
 20
-5261.673
 30
1727.000
 70
    32
  0
VERTEX
  8
3500LEVEL
 62
5
 10
3295.314
 20
-5427.530
 30
1727.000
 70
    32
  0
VERTEX
  8
3500LEVEL
 62
5
 10
3362.062
 20
-5566.601
 30
1727.000
 70
    32
  0
VERTEX
  8
3500LEVEL
 62
5
 10
3427.087
 20
-5711.702
 30
1727.000
 70
    32
  0
VERTEX
  8
3500LEVEL
 62
5
 10
3491.574
 20
-5842.845
 30
1727.000
 70
    32
  0
VERTEX
  8
3500LEVEL
 62
5
 10
3548.567
 20
-5967.239
 30
1727.000
 70
    32
  0
VERTEX
  8
3500LEVEL
 62
5
 10
3609.949
 20
-6086.282
 30
1727.000
 70
    32
  0
VERTEX
  8
3500LEVEL
 62
5
 10
3671.675
 20
-6201.598
 30
1727.000
 70
    32
  0
VERTEX
  8
3500LEVEL
 62
5
 10
3728.909
 20
-6220.605
 30
1727.000
 70
    32
  0
VERTEX
  8
3500LEVEL
 62
5
 10
3791.288
 20
-6322.405
 30
1727.000
 70
    32
  0
VERTEX
  8
3500LEVEL
 62
5
 10
3831.772
 20
-6419.185
 30
1727.000
 70
    32
  0
SEQEND
  8
3500LEVEL
  0
POLYLINE
  8
3500LEVEL
 62
3
 66
     1
 70
     8
  0
VERTEX
  8
3500LEVEL
 62
3
 10
4658.420
 20
-6547.351
 30
1727.000
 70
    32
  0
VERTEX
  8
3500LEVEL
 62
3
 10
4566.479
 20
-6419.124
 30
1727.000
 70
    32
  0
VERTEX
  8
3500LEVEL
 62
3
 10
4479.442
 20
-6309.085
 30
1727.000
 70
    32
  0
VERTEX
  8
3500LEVEL
 62
3
 10
4366.500
 20
-6181.275
 30
1727.000
 70
    32
  0
VERTEX
  8
3500LEVEL
 62
3
 10
4245.136
 20
-6022.607
 30
1727.000
 70
    32
  0
VERTEX
  8
3500LEVEL
 62
3
 10
4111.288
 20
-5864.713
 30
1727.000
 70
    32
  0
VERTEX
  8
3500LEVEL
 62
3
 10
4013.473
 20
-5746.389
 30
1727.000
 70
    32
  0
VERTEX
  8
3500LEVEL
 62
3
 10
3887.598
 20
-5612.724
 30
1727.000
 70
    32
  0
VERTEX
  8
3500LEVEL
 62
3
 10
3761.377
 20
-5482.787
 30
1727.000
 70
    32
  0
VERTEX
  8
3500LEVEL
 62
3
 10
3687.565
 20
-5398.827
 30
1727.000
 70
    32
  0
SEQEND
  8
3500LEVEL
  0
POLYLINE
  8
3500LEVEL
 62
7
 66
     1
 70
     8
  0
VERTEX
  8
3500LEVEL
 62
7
 10
4300.866
 20
-5137.192
 30
1727.000
 70
    32
  0
VERTEX
  8
3500LEVEL
 62
7
 10
4307.636
 20
-5140.927
 30
1727.000
 70
    32
  0
VERTEX
  8
3500LEVEL
 62
7
 10
4311.300
 20
-5142.728
 30
1727.000
 70
    32
  0
VERTEX
  8
3500LEVEL
 62
7
 10
4315.909
 20
-5145.411
 30
1727.000
 70
    32
  0
VERTEX
  8
3500LEVEL
 62
7
 10
4321.294
 20
-5148.873
 30
1727.000
 70
    32
  0
VERTEX
  8
3500LEVEL
 62
7
 10
4328.618
 20
-5151.646
 30
1727.000
 70
    32
  0
VERTEX
  8
3500LEVEL
 62
7
 10
4334.322
 20
-5152.791
 30
1727.000
 70
    32
  0
VERTEX
  8
3500LEVEL
 62
7
 10
4341.296
 20
-5153.182
 30
1727.000
 70
    32
  0
VERTEX
  8
3500LEVEL
 62
7
 10
4345.715
 20
-5150.772
 30
1727.000
 70
    32
  0
VERTEX
  8
3500LEVEL
 62
7
 10
4347.548
 20
-5147.007
 30
1727.000
 70
    32
  0
VERTEX
  8
3500LEVEL
 62
7
 10
4347.984
 20
-5140.600
 30
1727.000
 70
    32
  0
VERTEX
  8
3500LEVEL
 62
7
 10
4347.020
 20
-5133.916
 30
1727.000
 70
    32
  0
VERTEX
  8
3500LEVEL
 62
7
 10
4345.165
 20
-5124.331
 30
1727.000
 70
    32
  0
VERTEX
  8
3500LEVEL
 62
7
 10
4343.330
 20
-5116.619
 30
1727.000
 70
    32
  0
VERTEX
  8
3500LEVEL
 62
7
 10
4344.378
 20
-5113.030
 30
1727.000
 70
    32
  0
VERTEX
  8
3500LEVEL
 62
7
 10
4347.225
 20
-5114.079
 30
1727.000
 70
    32
  0
VERTEX
  8
3500LEVEL
 62
7
 10
4352.289
 20
-5117.631
 30
1727.000
 70
    32
  0
VERTEX
  8
3500LEVEL
 62
7
 10
4356.751
 20
-5121.191
 30
1727.000
 70
    32
  0
VERTEX
  8
3500LEVEL
 62
7
 10
4363.944
 20
-5126.042
 30
1727.000
 70
    32
  0
VERTEX
  8
3500LEVEL
 62
7
 10
4373.986
 20
-5130.388
 30
1727.000
 70
    32
  0
VERTEX
  8
3500LEVEL
 62
7
 10
4386.625
 20
-5132.770
 30
1727.000
 70
    32
  0
VERTEX
  8
3500LEVEL
 62
7
 10
4397.824
 20
-5132.685
 30
1727.000
 70
    32
  0
VERTEX
  8
3500LEVEL
 62
7
 10
4404.371
 20
-5128.536
 30
1727.000
 70
    32
  0
VERTEX
  8
3500LEVEL
 62
7
 10
4408.418
 20
-5124.237
 30
1727.000
 70
    32
  0
VERTEX
  8
3500LEVEL
 62
7
 10
4412.968
 20
-5117.454
 30
1727.000
 70
    32
  0
VERTEX
  8
3500LEVEL
 62
7
 10
4417.771
 20
-5103.619
 30
1727.000
 70
    32
  0
VERTEX
  8
3500LEVEL
 62
7
 10
4418.089
 20
-5095.159
 30
1727.000
 70
    32
  0
VERTEX
  8
3500LEVEL
 62
7
 10
4417.042
 20
-5074.910
 30
1727.000
 70
    32
  0
VERTEX
  8
3500LEVEL
 62
7
 10
4413.417
 20
-5056.204
 30
1727.000
 70
    32
  0
VERTEX
  8
3500LEVEL
 62
7
 10
4409.132
 20
-5044.176
 30
1727.000
 70
    32
  0
VERTEX
  8
3500LEVEL
 62
7
 10
4401.431
 20
-5026.553
 30
1727.000
 70
    32
  0
VERTEX
  8
3500LEVEL
 62
7
 10
4396.400
 20
-5016.151
 30
1727.000
 70
    32
  0
VERTEX
  8
3500LEVEL
 62
7
 10
4387.550
 20
-5002.007
 30
1727.000
 70
    32
  0
VERTEX
  8
3500LEVEL
 62
7
 10
4376.550
 20
-4983.950
 30
1727.000
 70
    32
  0
VERTEX
  8
3500LEVEL
 62
7
 10
4365.633
 20
-4969.464
 30
1727.000
 70
    32
  0
VERTEX
  8
3500LEVEL
 62
7
 10
4358.233
 20
-4955.280
 30
1727.000
 70
    32
  0
VERTEX
  8
3500LEVEL
 62
7
 10
4347.607
 20
-4934.450
 30
1727.000
 70
    32
  0
VERTEX
  8
3500LEVEL
 62
7
 10
4338.803
 20
-4913.175
 30
1727.000
 70
    32
  0
VERTEX
  8
3500LEVEL
 62
7
 10
4330.711
 20
-4898.677
 30
1727.000
 70
    32
  0
VERTEX
  8
3500LEVEL
 62
7
 10
4316.261
 20
-4878.837
 30
1727.000
 70
    32
  0
VERTEX
  8
3500LEVEL
 62
7
 10
4297.621
 20
-4849.516
 30
1727.000
 70
    32
  0
VERTEX
  8
3500LEVEL
 62
7
 10
4286.082
 20
-4830.869
 30
1727.000
 70
    32
  0
VERTEX
  8
3500LEVEL
 62
7
 10
4280.163
 20
-4822.899
 30
1727.000
 70
    32
  0
VERTEX
  8
3500LEVEL
 62
7
 10
4271.377
 20
-4806.603
 30
1727.000
 70
    32
  0
VERTEX
  8
3500LEVEL
 62
7
 10
4264.610
 20
-4795.557
 30
1727.000
 70
    32
  0
VERTEX
  8
3500LEVEL
 62
7
 10
4258.717
 20
-4785.468
 30
1727.000
 70
    32
  0
VERTEX
  8
3500LEVEL
 62
7
 10
4248.574
 20
-4764.131
 30
1727.000
 70
    32
  0
VERTEX
  8
3500LEVEL
 62
7
 10
4242.568
 20
-4748.811
 30
1727.000
 70
    32
  0
VERTEX
  8
3500LEVEL
 62
7
 10
4236.052
 20
-4733.079
 30
1727.000
 70
    32
  0
VERTEX
  8
3500LEVEL
 62
7
 10
4275.270
 20
-4775.197
 30
1727.000
 70
    32
  0
VERTEX
  8
3500LEVEL
 62
7
 10
4314.564
 20
-4825.883
 30
1727.000
 70
    32
  0
VERTEX
  8
3500LEVEL
 62
7
 10
4298.865
 20
-4783.770
 30
1727.000
 70
    32
  0
VERTEX
  8
3500LEVEL
 62
7
 10
4244.841
 20
-4708.529
 30
1727.000
 70
    32
  0
VERTEX
  8
3500LEVEL
 62
7
 10
4183.020
 20
-4578.066
 30
1727.000
 70
    32
  0
VERTEX
  8
3500LEVEL
 62
7
 10
4150.040
 20
-4483.246
 30
1727.000
 70
    32
  0
SEQEND
  8
3500LEVEL
  0
POLYLINE
  8
3500LEVEL
 62
7
 66
     1
 70
     8
  0
VERTEX
  8
3500LEVEL
 62
7
 10
3462.832
 20
-5012.050
 30
1727.000
 70
    32
  0
VERTEX
  8
3500LEVEL
 62
7
 10
3463.794
 20
-5013.401
 30
1727.000
 70
    32
  0
VERTEX
  8
3500LEVEL
 62
7
 10
3466.593
 20
-5017.803
 30
1727.000
 70
    32
  0
VERTEX
  8
3500LEVEL
 62
7
 10
3471.195
 20
-5024.477
 30
1727.000
 70
    32
  0
VERTEX
  8
3500LEVEL
 62
7
 10
3479.200
 20
-5037.028
 30
1727.000
 70
    32
  0
VERTEX
  8
3500LEVEL
 62
7
 10
3484.305
 20
-5043.514
 30
1727.000
 70
    32
  0
VERTEX
  8
3500LEVEL
 62
7
 10
3492.353
 20
-5052.041
 30
1727.000
 70
    32
  0
VERTEX
  8
3500LEVEL
 62
7
 10
3496.455
 20
-5056.538
 30
1727.000
 70
    32
  0
VERTEX
  8
3500LEVEL
 62
7
 10
3501.138
 20
-5061.450
 30
1727.000
 70
    32
  0
VERTEX
  8
3500LEVEL
 62
7
 10
3505.591
 20
-5067.517
 30
1727.000
 70
    32
  0
VERTEX
  8
3500LEVEL
 62
7
 10
3508.080
 20
-5070.987
 30
1727.000
 70
    32
  0
VERTEX
  8
3500LEVEL
 62
7
 10
3510.052
 20
-5074.185
 30
1727.000
 70
    32
  0
VERTEX
  8
3500LEVEL
 62
7
 10
3510.766
 20
-5075.560
 30
1727.000
 70
    32
  0
VERTEX
  8
3500LEVEL
 62
7
 10
3509.689
 20
-5075.934
 30
1727.000
 70
    32
  0
VERTEX
  8
3500LEVEL
 62
7
 10
3506.570
 20
-5073.107
 30
1727.000
 70
    32
  0
VERTEX
  8
3500LEVEL
 62
7
 10
3503.285
 20
-5069.283
 30
1727.000
 70
    32
  0
VERTEX
  8
3500LEVEL
 62
7
 10
3502.370
 20
-5067.687
 30
1727.000
 70
    32
  0
VERTEX
  8
3500LEVEL
 62
7
 10
3501.318
 20
-5066.756
 30
1727.000
 70
    32
  0
VERTEX
  8
3500LEVEL
 62
7
 10
3500.484
 20
-5067.989
 30
1727.000
 70
    32
  0
VERTEX
  8
3500LEVEL
 62
7
 10
3503.599
 20
-5074.736
 30
1727.000
 70
    32
  0
VERTEX
  8
3500LEVEL
 62
7
 10
3512.015
 20
-5086.035
 30
1727.000
 70
    32
  0
VERTEX
  8
3500LEVEL
 62
7
 10
3522.838
 20
-5096.421
 30
1727.000
 70
    32
  0
VERTEX
  8
3500LEVEL
 62
7
 10
3528.985
 20
-5101.753
 30
1727.000
 70
    32
  0
VERTEX
  8
3500LEVEL
 62
7
 10
3538.028
 20
-5109.373
 30
1727.000
 70
    32
  0
VERTEX
  8
3500LEVEL
 62
7
 10
3547.156
 20
-5117.456
 30
1727.000
 70
    32
  0
VERTEX
  8
3500LEVEL
 62
7
 10
3558.229
 20
-5128.559
 30
1727.000
 70
    32
  0
VERTEX
  8
3500LEVEL
 62
7
 10
3564.759
 20
-5136.311
 30
1727.000
 70
    32
  0
VERTEX
  8
3500LEVEL
 62
7
 10
3573.440
 20
-5145.680
 30
1727.000
 70
    32
  0
VERTEX
  8
3500LEVEL
 62
7
 10
3579.500
 20
-5151.362
 30
1727.000
 70
    32
  0
VERTEX
  8
3500LEVEL
 62
7
 10
3586.945
 20
-5158.414
 30
1727.000
 70
    32
  0
VERTEX
  8
3500LEVEL
 62
7
 10
3594.606
 20
-5166.147
 30
1727.000
 70
    32
  0
VERTEX
  8
3500LEVEL
 62
7
 10
3599.940
 20
-5173.031
 30
1727.000
 70
    32
  0
VERTEX
  8
3500LEVEL
 62
7
 10
3606.908
 20
-5183.557
 30
1727.000
 70
    32
  0
VERTEX
  8
3500LEVEL
 62
7
 10
3612.100
 20
-5191.989
 30
1727.000
 70
    32
  0
VERTEX
  8
3500LEVEL
 62
7
 10
3615.937
 20
-5199.158
 30
1727.000
 70
    32
  0
VERTEX
  8
3500LEVEL
 62
7
 10
3617.576
 20
-5201.917
 30
1727.000
 70
    32
  0
VERTEX
  8
3500LEVEL
 62
7
 10
3618.688
 20
-5204.617
 30
1727.000
 70
    32
  0
VERTEX
  8
3500LEVEL
 62
7
 10
3617.407
 20
-5204.840
 30
1727.000
 70
    32
  0
VERTEX
  8
3500LEVEL
 62
7
 10
3612.335
 20
-5202.241
 30
1727.000
 70
    32
  0
VERTEX
  8
3500LEVEL
 62
7
 10
3608.704
 20
-5200.555
 30
1727.000
 70
    32
  0
VERTEX
  8
3500LEVEL
 62
7
 10
3606.097
 20
-5198.882
 30
1727.000
 70
    32
  0
VERTEX
  8
3500LEVEL
 62
7
 10
3605.604
 20
-5198.859
 30
1727.000
 70
    32
  0
VERTEX
  8
3500LEVEL
 62
7
 10
3606.473
 20
-5202.996
 30
1727.000
 70
    32
  0
VERTEX
  8
3500LEVEL
 62
7
 10
3609.956
 20
-5208.665
 30
1727.000
 70
    32
  0
VERTEX
  8
3500LEVEL
 62
7
 10
3613.171
 20
-5214.781
 30
1727.000
 70
    32
  0
VERTEX
  8
3500LEVEL
 62
7
 10
3615.162
 20
-5219.110
 30
1727.000
 70
    32
  0
VERTEX
  8
3500LEVEL
 62
7
 10
3617.394
 20
-5223.556
 30
1727.000
 70
    32
  0
VERTEX
  8
3500LEVEL
 62
7
 10
3618.397
 20
-5225.545
 30
1727.000
 70
    32
  0
VERTEX
  8
3500LEVEL
 62
7
 10
3614.573
 20
-5224.239
 30
1727.000
 70
    32
  0
VERTEX
  8
3500LEVEL
 62
7
 10
3608.329
 20
-5219.467
 30
1727.000
 70
    32
  0
VERTEX
  8
3500LEVEL
 62
7
 10
3602.111
 20
-5213.389
 30
1727.000
 70
    32
  0
VERTEX
  8
3500LEVEL
 62
7
 10
3598.436
 20
-5209.583
 30
1727.000
 70
    32
  0
VERTEX
  8
3500LEVEL
 62
7
 10
3596.475
 20
-5208.469
 30
1727.000
 70
    32
  0
VERTEX
  8
3500LEVEL
 62
7
 10
3596.278
 20
-5208.919
 30
1727.000
 70
    32
  0
VERTEX
  8
3500LEVEL
 62
7
 10
3596.873
 20
-5212.089
 30
1727.000
 70
    32
  0
VERTEX
  8
3500LEVEL
 62
7
 10
3598.770
 20
-5216.167
 30
1727.000
 70
    32
  0
VERTEX
  8
3500LEVEL
 62
7
 10
3598.678
 20
-5217.399
 30
1727.000
 70
    32
  0
VERTEX
  8
3500LEVEL
 62
7
 10
3596.888
 20
-5217.140
 30
1727.000
 70
    32
  0
VERTEX
  8
3500LEVEL
 62
7
 10
3595.263
 20
-5216.394
 30
1727.000
 70
    32
  0
VERTEX
  8
3500LEVEL
 62
7
 10
3594.111
 20
-5216.094
 30
1727.000
 70
    32
  0
VERTEX
  8
3500LEVEL
 62
7
 10
3593.368
 20
-5216.908
 30
1727.000
 70
    32
  0
VERTEX
  8
3500LEVEL
 62
7
 10
3594.346
 20
-5220.201
 30
1727.000
 70
    32
  0
VERTEX
  8
3500LEVEL
 62
7
 10
3598.410
 20
-5227.840
 30
1727.000
 70
    32
  0
VERTEX
  8
3500LEVEL
 62
7
 10
3601.687
 20
-5233.358
 30
1727.000
 70
    32
  0
VERTEX
  8
3500LEVEL
 62
7
 10
3606.292
 20
-5241.516
 30
1727.000
 70
    32
  0
VERTEX
  8
3500LEVEL
 62
7
 10
3609.906
 20
-5247.403
 30
1727.000
 70
    32
  0
VERTEX
  8
3500LEVEL
 62
7
 10
3614.750
 20
-5256.489
 30
1727.000
 70
    32
  0
VERTEX
  8
3500LEVEL
 62
7
 10
3618.121
 20
-5263.813
 30
1727.000
 70
    32
  0
VERTEX
  8
3500LEVEL
 62
7
 10
3621.409
 20
-5269.120
 30
1727.000
 70
    32
  0
VERTEX
  8
3500LEVEL
 62
7
 10
3625.590
 20
-5277.258
 30
1727.000
 70
    32
  0
VERTEX
  8
3500LEVEL
 62
7
 10
3629.217
 20
-5282.864
 30
1727.000
 70
    32
  0
VERTEX
  8
3500LEVEL
 62
7
 10
3630.644
 20
-5284.871
 30
1727.000
 70
    32
  0
VERTEX
  8
3500LEVEL
 62
7
 10
3632.201
 20
-5287.097
 30
1727.000
 70
    32
  0
VERTEX
  8
3500LEVEL
 62
7
 10
3632.784
 20
-5288.254
 30
1727.000
 70
    32
  0
VERTEX
  8
3500LEVEL
 62
7
 10
3687.565
 20
-5398.827
 30
1727.000
 70
    32
  0
SEQEND
  8
3500LEVEL
  0
POLYLINE
  8
3500LEVEL
 62
7
 66
     1
 70
     8
  0
VERTEX
  8
3500LEVEL
 62
7
 10
4153.088
 20
-5005.372
 30
1727.000
 70
    32
  0
VERTEX
  8
3500LEVEL
 62
7
 10
4149.503
 20
-5002.578
 30
1727.000
 70
    32
  0
VERTEX
  8
3500LEVEL
 62
7
 10
4144.092
 20
-4998.127
 30
1727.000
 70
    32
  0
VERTEX
  8
3500LEVEL
 62
7
 10
4140.574
 20
-4993.233
 30
1727.000
 70
    32
  0
VERTEX
  8
3500LEVEL
 62
7
 10
4135.471
 20
-4985.935
 30
1727.000
 70
    32
  0
VERTEX
  8
3500LEVEL
 62
7
 10
4131.969
 20
-4980.689
 30
1727.000
 70
    32
  0
VERTEX
  8
3500LEVEL
 62
7
 10
4130.344
 20
-4978.389
 30
1727.000
 70
    32
  0
VERTEX
  8
3500LEVEL
 62
7
 10
4128.889
 20
-4977.016
 30
1727.000
 70
    32
  0
VERTEX
  8
3500LEVEL
 62
7
 10
4128.792
 20
-4977.576
 30
1727.000
 70
    32
  0
VERTEX
  8
3500LEVEL
 62
7
 10
4129.026
 20
-4980.942
 30
1727.000
 70
    32
  0
VERTEX
  8
3500LEVEL
 62
7
 10
4126.852
 20
-4981.372
 30
1727.000
 70
    32
  0
VERTEX
  8
3500LEVEL
 62
7
 10
4122.362
 20
-4977.634
 30
1727.000
 70
    32
  0
VERTEX
  8
3500LEVEL
 62
7
 10
4117.223
 20
-4972.666
 30
1727.000
 70
    32
  0
VERTEX
  8
3500LEVEL
 62
7
 10
4112.433
 20
-4967.784
 30
1727.000
 70
    32
  0
VERTEX
  8
3500LEVEL
 62
7
 10
4109.400
 20
-4965.193
 30
1727.000
 70
    32
  0
VERTEX
  8
3500LEVEL
 62
7
 10
4103.619
 20
-4961.176
 30
1727.000
 70
    32
  0
SEQEND
  8
3500LEVEL
  0
POLYLINE
  8
3500LEVEL
 62
7
 66
     1
 70
     8
  0
VERTEX
  8
3500LEVEL
 62
7
 10
4073.571
 20
-4931.829
 30
1727.000
 70
    32
  0
VERTEX
  8
3500LEVEL
 62
7
 10
4071.997
 20
-4930.852
 30
1727.000
 70
    32
  0
VERTEX
  8
3500LEVEL
 62
7
 10
4066.378
 20
-4924.843
 30
1727.000
 70
    32
  0
VERTEX
  8
3500LEVEL
 62
7
 10
4061.245
 20
-4913.589
 30
1727.000
 70
    32
  0
VERTEX
  8
3500LEVEL
 62
7
 10
4054.613
 20
-4896.545
 30
1727.000
 70
    32
  0
VERTEX
  8
3500LEVEL
 62
7
 10
4049.716
 20
-4880.146
 30
1727.000
 70
    32
  0
VERTEX
  8
3500LEVEL
 62
7
 10
4037.762
 20
-4843.646
 30
1727.000
 70
    32
  0
VERTEX
  8
3500LEVEL
 62
7
 10
4033.147
 20
-4824.964
 30
1727.000
 70
    32
  0
VERTEX
  8
3500LEVEL
 62
7
 10
4022.363
 20
-4795.298
 30
1727.000
 70
    32
  0
VERTEX
  8
3500LEVEL
 62
7
 10
4010.815
 20
-4770.718
 30
1727.000
 70
    32
  0
VERTEX
  8
3500LEVEL
 62
7
 10
4002.585
 20
-4756.144
 30
1727.000
 70
    32
  0
VERTEX
  8
3500LEVEL
 62
7
 10
3990.283
 20
-4734.142
 30
1727.000
 70
    32
  0
VERTEX
  8
3500LEVEL
 62
7
 10
3984.900
 20
-4722.170
 30
1727.000
 70
    32
  0
VERTEX
  8
3500LEVEL
 62
7
 10
3978.445
 20
-4708.948
 30
1727.000
 70
    32
  0
VERTEX
  8
3500LEVEL
 62
7
 10
3972.535
 20
-4698.471
 30
1727.000
 70
    32
  0
VERTEX
  8
3500LEVEL
 62
7
 10
3969.369
 20
-4693.593
 30
1727.000
 70
    32
  0
VERTEX
  8
3500LEVEL
 62
7
 10
3965.440
 20
-4688.398
 30
1727.000
 70
    32
  0
VERTEX
  8
3500LEVEL
 62
7
 10
3962.118
 20
-4686.161
 30
1727.000
 70
    32
  0
VERTEX
  8
3500LEVEL
 62
7
 10
3960.564
 20
-4686.161
 30
1727.000
 70
    32
  0
VERTEX
  8
3500LEVEL
 62
7
 10
3958.523
 20
-4689.845
 30
1727.000
 70
    32
  0
VERTEX
  8
3500LEVEL
 62
7
 10
3956.446
 20
-4696.601
 30
1727.000
 70
    32
  0
VERTEX
  8
3500LEVEL
 62
7
 10
3955.698
 20
-4700.592
 30
1727.000
 70
    32
  0
VERTEX
  8
3500LEVEL
 62
7
 10
3956.094
 20
-4706.579
 30
1727.000
 70
    32
  0
VERTEX
  8
3500LEVEL
 62
7
 10
3957.958
 20
-4713.657
 30
1727.000
 70
    32
  0
VERTEX
  8
3500LEVEL
 62
7
 10
3961.729
 20
-4725.343
 30
1727.000
 70
    32
  0
VERTEX
  8
3500LEVEL
 62
7
 10
3962.955
 20
-4734.016
 30
1727.000
 70
    32
  0
VERTEX
  8
3500LEVEL
 62
7
 10
3964.723
 20
-4741.655
 30
1727.000
 70
    32
  0
VERTEX
  8
3500LEVEL
 62
7
 10
3966.130
 20
-4748.676
 30
1727.000
 70
    32
  0
VERTEX
  8
3500LEVEL
 62
7
 10
3965.909
 20
-4755.023
 30
1727.000
 70
    32
  0
VERTEX
  8
3500LEVEL
 62
7
 10
3965.514
 20
-4761.326
 30
1727.000
 70
    32
  0
VERTEX
  8
3500LEVEL
 62
7
 10
3965.798
 20
-4766.671
 30
1727.000
 70
    32
  0
VERTEX
  8
3500LEVEL
 62
7
 10
3967.222
 20
-4771.787
 30
1727.000
 70
    32
  0
VERTEX
  8
3500LEVEL
 62
7
 10
3970.550
 20
-4779.285
 30
1727.000
 70
    32
  0
VERTEX
  8
3500LEVEL
 62
7
 10
3975.884
 20
-4790.019
 30
1727.000
 70
    32
  0
VERTEX
  8
3500LEVEL
 62
7
 10
3978.931
 20
-4795.951
 30
1727.000
 70
    32
  0
VERTEX
  8
3500LEVEL
 62
7
 10
3981.959
 20
-4804.601
 30
1727.000
 70
    32
  0
VERTEX
  8
3500LEVEL
 62
7
 10
3986.001
 20
-4815.769
 30
1727.000
 70
    32
  0
VERTEX
  8
3500LEVEL
 62
7
 10
3988.813
 20
-4823.739
 30
1727.000
 70
    32
  0
VERTEX
  8
3500LEVEL
 62
7
 10
3993.348
 20
-4836.484
 30
1727.000
 70
    32
  0
VERTEX
  8
3500LEVEL
 62
7
 10
3996.076
 20
-4844.732
 30
1727.000
 70
    32
  0
VERTEX
  8
3500LEVEL
 62
7
 10
4000.673
 20
-4858.433
 30
1727.000
 70
    32
  0
VERTEX
  8
3500LEVEL
 62
7
 10
4004.221
 20
-4868.837
 30
1727.000
 70
    32
  0
VERTEX
  8
3500LEVEL
 62
7
 10
4007.006
 20
-4878.924
 30
1727.000
 70
    32
  0
VERTEX
  8
3500LEVEL
 62
7
 10
4008.342
 20
-4885.201
 30
1727.000
 70
    32
  0
VERTEX
  8
3500LEVEL
 62
7
 10
4010.622
 20
-4893.993
 30
1727.000
 70
    32
  0
VERTEX
  8
3500LEVEL
 62
7
 10
4014.538
 20
-4901.766
 30
1727.000
 70
    32
  0
VERTEX
  8
3500LEVEL
 62
7
 10
4020.531
 20
-4909.669
 30
1727.000
 70
    32
  0
VERTEX
  8
3500LEVEL
 62
7
 10
4032.084
 20
-4922.631
 30
1727.000
 70
    32
  0
VERTEX
  8
3500LEVEL
 62
7
 10
4043.187
 20
-4933.842
 30
1727.000
 70
    32
  0
VERTEX
  8
3500LEVEL
 62
7
 10
4053.445
 20
-4945.755
 30
1727.000
 70
    32
  0
VERTEX
  8
3500LEVEL
 62
7
 10
4065.547
 20
-4959.837
 30
1727.000
 70
    32
  0
VERTEX
  8
3500LEVEL
 62
7
 10
4080.324
 20
-4976.408
 30
1727.000
 70
    32
  0
VERTEX
  8
3500LEVEL
 62
7
 10
4095.527
 20
-4992.928
 30
1727.000
 70
    32
  0
VERTEX
  8
3500LEVEL
 62
7
 10
4105.009
 20
-5004.064
 30
1727.000
 70
    32
  0
VERTEX
  8
3500LEVEL
 62
7
 10
4119.013
 20
-5018.233
 30
1727.000
 70
    32
  0
VERTEX
  8
3500LEVEL
 62
7
 10
4134.435
 20
-5031.514
 30
1727.000
 70
    32
  0
VERTEX
  8
3500LEVEL
 62
7
 10
4151.854
 20
-5048.242
 30
1727.000
 70
    32
  0
VERTEX
  8
3500LEVEL
 62
7
 10
4164.320
 20
-5059.762
 30
1727.000
 70
    32
  0
VERTEX
  8
3500LEVEL
 62
7
 10
4181.156
 20
-5075.333
 30
1727.000
 70
    32
  0
VERTEX
  8
3500LEVEL
 62
7
 10
4195.900
 20
-5090.313
 30
1727.000
 70
    32
  0
VERTEX
  8
3500LEVEL
 62
7
 10
4204.089
 20
-5098.847
 30
1727.000
 70
    32
  0
VERTEX
  8
3500LEVEL
 62
7
 10
4213.292
 20
-5109.900
 30
1727.000
 70
    32
  0
VERTEX
  8
3500LEVEL
 62
7
 10
4220.974
 20
-5121.801
 30
1727.000
 70
    32
  0
VERTEX
  8
3500LEVEL
 62
7
 10
4228.802
 20
-5137.417
 30
1727.000
 70
    32
  0
VERTEX
  8
3500LEVEL
 62
7
 10
4234.283
 20
-5151.865
 30
1727.000
 70
    32
  0
VERTEX
  8
3500LEVEL
 62
7
 10
4236.916
 20
-5161.415
 30
1727.000
 70
    32
  0
VERTEX
  8
3500LEVEL
 62
7
 10
4240.437
 20
-5176.233
 30
1727.000
 70
    32
  0
VERTEX
  8
3500LEVEL
 62
7
 10
4243.898
 20
-5190.836
 30
1727.000
 70
    32
  0
VERTEX
  8
3500LEVEL
 62
7
 10
4247.531
 20
-5200.149
 30
1727.000
 70
    32
  0
VERTEX
  8
3500LEVEL
 62
7
 10
4248.199
 20
-5202.511
 30
1727.000
 70
    32
  0
VERTEX
  8
3500LEVEL
 62
7
 10
4246.722
 20
-5203.926
 30
1727.000
 70
    32
  0
VERTEX
  8
3500LEVEL
 62
7
 10
4243.257
 20
-5203.237
 30
1727.000
 70
    32
  0
VERTEX
  8
3500LEVEL
 62
7
 10
4232.353
 20
-5194.613
 30
1727.000
 70
    32
  0
VERTEX
  8
3500LEVEL
 62
7
 10
4221.433
 20
-5184.788
 30
1727.000
 70
    32
  0
VERTEX
  8
3500LEVEL
 62
7
 10
4208.848
 20
-5174.322
 30
1727.000
 70
    32
  0
VERTEX
  8
3500LEVEL
 62
7
 10
4197.174
 20
-5163.226
 30
1727.000
 70
    32
  0
VERTEX
  8
3500LEVEL
 62
7
 10
4184.074
 20
-5150.123
 30
1727.000
 70
    32
  0
VERTEX
  8
3500LEVEL
 62
7
 10
4174.198
 20
-5139.886
 30
1727.000
 70
    32
  0
VERTEX
  8
3500LEVEL
 62
7
 10
4168.760
 20
-5132.962
 30
1727.000
 70
    32
  0
VERTEX
  8
3500LEVEL
 62
7
 10
4160.784
 20
-5121.330
 30
1727.000
 70
    32
  0
VERTEX
  8
3500LEVEL
 62
7
 10
4150.176
 20
-5105.480
 30
1727.000
 70
    32
  0
VERTEX
  8
3500LEVEL
 62
7
 10
4137.267
 20
-5085.923
 30
1727.000
 70
    32
  0
VERTEX
  8
3500LEVEL
 62
7
 10
4125.623
 20
-5066.494
 30
1727.000
 70
    32
  0
VERTEX
  8
3500LEVEL
 62
7
 10
4113.270
 20
-5046.362
 30
1727.000
 70
    32
  0
VERTEX
  8
3500LEVEL
 62
7
 10
4103.231
 20
-5028.914
 30
1727.000
 70
    32
  0
VERTEX
  8
3500LEVEL
 62
7
 10
4092.105
 20
-5012.052
 30
1727.000
 70
    32
  0
VERTEX
  8
3500LEVEL
 62
7
 10
4084.226
 20
-5000.601
 30
1727.000
 70
    32
  0
VERTEX
  8
3500LEVEL
 62
7
 10
4076.443
 20
-4990.144
 30
1727.000
 70
    32
  0
VERTEX
  8
3500LEVEL
 62
7
 10
4069.017
 20
-4980.373
 30
1727.000
 70
    32
  0
VERTEX
  8
3500LEVEL
 62
7
 10
4061.133
 20
-4969.805
 30
1727.000
 70
    32
  0
VERTEX
  8
3500LEVEL
 62
7
 10
4050.605
 20
-4956.855
 30
1727.000
 70
    32
  0
VERTEX
  8
3500LEVEL
 62
7
 10
4044.206
 20
-4949.321
 30
1727.000
 70
    32
  0
VERTEX
  8
3500LEVEL
 62
7
 10
4030.867
 20
-4933.735
 30
1727.000
 70
    32
  0
VERTEX
  8
3500LEVEL
 62
7
 10
4018.490
 20
-4919.499
 30
1727.000
 70
    32
  0
VERTEX
  8
3500LEVEL
 62
7
 10
4009.921
 20
-4908.475
 30
1727.000
 70
    32
  0
VERTEX
  8
3500LEVEL
 62
7
 10
4006.372
 20
-4903.474
 30
1727.000
 70
    32
  0
VERTEX
  8
3500LEVEL
 62
7
 10
4001.366
 20
-4897.911
 30
1727.000
 70
    32
  0
VERTEX
  8
3500LEVEL
 62
7
 10
3994.731
 20
-4891.674
 30
1727.000
 70
    32
  0
VERTEX
  8
3500LEVEL
 62
7
 10
3986.468
 20
-4885.502
 30
1727.000
 70
    32
  0
VERTEX
  8
3500LEVEL
 62
7
 10
3978.775
 20
-4882.323
 30
1727.000
 70
    32
  0
VERTEX
  8
3500LEVEL
 62
7
 10
3973.233
 20
-4881.504
 30
1727.000
 70
    32
  0
VERTEX
  8
3500LEVEL
 62
7
 10
3967.035
 20
-4881.890
 30
1727.000
 70
    32
  0
VERTEX
  8
3500LEVEL
 62
7
 10
3959.738
 20
-4881.590
 30
1727.000
 70
    32
  0
VERTEX
  8
3500LEVEL
 62
7
 10
3953.206
 20
-4878.499
 30
1727.000
 70
    32
  0
VERTEX
  8
3500LEVEL
 62
7
 10
3947.529
 20
-4875.237
 30
1727.000
 70
    32
  0
VERTEX
  8
3500LEVEL
 62
7
 10
3941.436
 20
-4874.109
 30
1727.000
 70
    32
  0
VERTEX
  8
3500LEVEL
 62
7
 10
3930.650
 20
-4872.130
 30
1727.000
 70
    32
  0
VERTEX
  8
3500LEVEL
 62
7
 10
3919.319
 20
-4867.407
 30
1727.000
 70
    32
  0
VERTEX
  8
3500LEVEL
 62
7
 10
3912.010
 20
-4861.244
 30
1727.000
 70
    32
  0
VERTEX
  8
3500LEVEL
 62
7
 10
3902.274
 20
-4848.719
 30
1727.000
 70
    32
  0
VERTEX
  8
3500LEVEL
 62
7
 10
3896.845
 20
-4839.287
 30
1727.000
 70
    32
  0
VERTEX
  8
3500LEVEL
 62
7
 10
3894.024
 20
-4833.825
 30
1727.000
 70
    32
  0
VERTEX
  8
3500LEVEL
 62
7
 10
3890.551
 20
-4827.945
 30
1727.000
 70
    32
  0
VERTEX
  8
3500LEVEL
 62
7
 10
3886.274
 20
-4823.404
 30
1727.000
 70
    32
  0
VERTEX
  8
3500LEVEL
 62
7
 10
3881.521
 20
-4822.338
 30
1727.000
 70
    32
  0
VERTEX
  8
3500LEVEL
 62
7
 10
3879.753
 20
-4824.694
 30
1727.000
 70
    32
  0
VERTEX
  8
3500LEVEL
 62
7
 10
3879.424
 20
-4828.775
 30
1727.000
 70
    32
  0
VERTEX
  8
3500LEVEL
 62
7
 10
3880.892
 20
-4836.011
 30
1727.000
 70
    32
  0
VERTEX
  8
3500LEVEL
 62
7
 10
3882.018
 20
-4839.171
 30
1727.000
 70
    32
  0
VERTEX
  8
3500LEVEL
 62
7
 10
3881.796
 20
-4842.480
 30
1727.000
 70
    32
  0
VERTEX
  8
3500LEVEL
 62
7
 10
3880.964
 20
-4845.197
 30
1727.000
 70
    32
  0
VERTEX
  8
3500LEVEL
 62
7
 10
3881.294
 20
-4849.555
 30
1727.000
 70
    32
  0
VERTEX
  8
3500LEVEL
 62
7
 10
3883.670
 20
-4853.938
 30
1727.000
 70
    32
  0
VERTEX
  8
3500LEVEL
 62
7
 10
3887.709
 20
-4859.032
 30
1727.000
 70
    32
  0
VERTEX
  8
3500LEVEL
 62
7
 10
3893.949
 20
-4867.724
 30
1727.000
 70
    32
  0
VERTEX
  8
3500LEVEL
 62
7
 10
3898.357
 20
-4874.778
 30
1727.000
 70
    32
  0
VERTEX
  8
3500LEVEL
 62
7
 10
3904.896
 20
-4886.167
 30
1727.000
 70
    32
  0
VERTEX
  8
3500LEVEL
 62
7
 10
3910.755
 20
-4897.772
 30
1727.000
 70
    32
  0
VERTEX
  8
3500LEVEL
 62
7
 10
3916.949
 20
-4911.300
 30
1727.000
 70
    32
  0
VERTEX
  8
3500LEVEL
 62
7
 10
3921.281
 20
-4919.233
 30
1727.000
 70
    32
  0
VERTEX
  8
3500LEVEL
 62
7
 10
3925.579
 20
-4928.683
 30
1727.000
 70
    32
  0
VERTEX
  8
3500LEVEL
 62
7
 10
3929.878
 20
-4937.321
 30
1727.000
 70
    32
  0
VERTEX
  8
3500LEVEL
 62
7
 10
3932.640
 20
-4947.159
 30
1727.000
 70
    32
  0
VERTEX
  8
3500LEVEL
 62
7
 10
3936.519
 20
-4954.966
 30
1727.000
 70
    32
  0
VERTEX
  8
3500LEVEL
 62
7
 10
3944.268
 20
-4965.387
 30
1727.000
 70
    32
  0
VERTEX
  8
3500LEVEL
 62
7
 10
3951.015
 20
-4974.561
 30
1727.000
 70
    32
  0
VERTEX
  8
3500LEVEL
 62
7
 10
3955.845
 20
-4980.892
 30
1727.000
 70
    32
  0
VERTEX
  8
3500LEVEL
 62
7
 10
3958.277
 20
-4984.076
 30
1727.000
 70
    32
  0
VERTEX
  8
3500LEVEL
 62
7
 10
3957.754
 20
-4984.688
 30
1727.000
 70
    32
  0
VERTEX
  8
3500LEVEL
 62
7
 10
3953.649
 20
-4984.111
 30
1727.000
 70
    32
  0
VERTEX
  8
3500LEVEL
 62
7
 10
3950.241
 20
-4982.965
 30
1727.000
 70
    32
  0
VERTEX
  8
3500LEVEL
 62
7
 10
3948.393
 20
-4983.975
 30
1727.000
 70
    32
  0
VERTEX
  8
3500LEVEL
 62
7
 10
3947.391
 20
-4986.578
 30
1727.000
 70
    32
  0
VERTEX
  8
3500LEVEL
 62
7
 10
3946.133
 20
-4989.345
 30
1727.000
 70
    32
  0
VERTEX
  8
3500LEVEL
 62
7
 10
3943.705
 20
-4989.940
 30
1727.000
 70
    32
  0
VERTEX
  8
3500LEVEL
 62
7
 10
3941.494
 20
-4990.403
 30
1727.000
 70
    32
  0
VERTEX
  8
3500LEVEL
 62
7
 10
3937.721
 20
-4991.819
 30
1727.000
 70
    32
  0
VERTEX
  8
3500LEVEL
 62
7
 10
3934.149
 20
-4993.456
 30
1727.000
 70
    32
  0
VERTEX
  8
3500LEVEL
 62
7
 10
3931.217
 20
-4995.793
 30
1727.000
 70
    32
  0
VERTEX
  8
3500LEVEL
 62
7
 10
3927.297
 20
-4999.639
 30
1727.000
 70
    32
  0
VERTEX
  8
3500LEVEL
 62
7
 10
3924.433
 20
-5001.238
 30
1727.000
 70
    32
  0
VERTEX
  8
3500LEVEL
 62
7
 10
3920.978
 20
-5001.891
 30
1727.000
 70
    32
  0
VERTEX
  8
3500LEVEL
 62
7
 10
3918.305
 20
-5000.885
 30
1727.000
 70
    32
  0
VERTEX
  8
3500LEVEL
 62
7
 10
3914.816
 20
-4997.652
 30
1727.000
 70
    32
  0
VERTEX
  8
3500LEVEL
 62
7
 10
3911.038
 20
-4992.252
 30
1727.000
 70
    32
  0
VERTEX
  8
3500LEVEL
 62
7
 10
3907.256
 20
-4986.181
 30
1727.000
 70
    32
  0
VERTEX
  8
3500LEVEL
 62
7
 10
3904.654
 20
-4983.624
 30
1727.000
 70
    32
  0
VERTEX
  8
3500LEVEL
 62
7
 10
3903.395
 20
-4983.355
 30
1727.000
 70
    32
  0
VERTEX
  8
3500LEVEL
 62
7
 10
3902.211
 20
-4985.313
 30
1727.000
 70
    32
  0
VERTEX
  8
3500LEVEL
 62
7
 10
3902.450
 20
-4990.092
 30
1727.000
 70
    32
  0
VERTEX
  8
3500LEVEL
 62
7
 10
3903.306
 20
-4992.215
 30
1727.000
 70
    32
  0
VERTEX
  8
3500LEVEL
 62
7
 10
3904.314
 20
-4994.874
 30
1727.000
 70
    32
  0
VERTEX
  8
3500LEVEL
 62
7
 10
3904.306
 20
-4998.123
 30
1727.000
 70
    32
  0
VERTEX
  8
3500LEVEL
 62
7
 10
3904.481
 20
-5000.462
 30
1727.000
 70
    32
  0
VERTEX
  8
3500LEVEL
 62
7
 10
3905.516
 20
-5001.745
 30
1727.000
 70
    32
  0
VERTEX
  8
3500LEVEL
 62
7
 10
3907.295
 20
-5001.474
 30
1727.000
 70
    32
  0
VERTEX
  8
3500LEVEL
 62
7
 10
3908.177
 20
-4999.184
 30
1727.000
 70
    32
  0
VERTEX
  8
3500LEVEL
 62
7
 10
3909.871
 20
-4996.895
 30
1727.000
 70
    32
  0
VERTEX
  8
3500LEVEL
 62
7
 10
3910.839
 20
-4995.810
 30
1727.000
 70
    32
  0
VERTEX
  8
3500LEVEL
 62
7
 10
3911.971
 20
-4996.533
 30
1727.000
 70
    32
  0
VERTEX
  8
3500LEVEL
 62
7
 10
3912.790
 20
-5000.243
 30
1727.000
 70
    32
  0
VERTEX
  8
3500LEVEL
 62
7
 10
3911.901
 20
-5006.524
 30
1727.000
 70
    32
  0
VERTEX
  8
3500LEVEL
 62
7
 10
3909.845
 20
-5011.303
 30
1727.000
 70
    32
  0
VERTEX
  8
3500LEVEL
 62
7
 10
3908.586
 20
-5013.328
 30
1727.000
 70
    32
  0
VERTEX
  8
3500LEVEL
 62
7
 10
3908.348
 20
-5017.732
 30
1727.000
 70
    32
  0
VERTEX
  8
3500LEVEL
 62
7
 10
3907.833
 20
-5020.498
 30
1727.000
 70
    32
  0
VERTEX
  8
3500LEVEL
 62
7
 10
3905.126
 20
-5025.600
 30
1727.000
 70
    32
  0
VERTEX
  8
3500LEVEL
 62
7
 10
3901.795
 20
-5030.462
 30
1727.000
 70
    32
  0
VERTEX
  8
3500LEVEL
 62
7
 10
3898.429
 20
-5034.545
 30
1727.000
 70
    32
  0
VERTEX
  8
3500LEVEL
 62
7
 10
3895.295
 20
-5038.956
 30
1727.000
 70
    32
  0
VERTEX
  8
3500LEVEL
 62
7
 10
3892.586
 20
-5040.280
 30
1727.000
 70
    32
  0
VERTEX
  8
3500LEVEL
 62
7
 10
3887.862
 20
-5040.875
 30
1727.000
 70
    32
  0
VERTEX
  8
3500LEVEL
 62
7
 10
3882.507
 20
-5039.816
 30
1727.000
 70
    32
  0
VERTEX
  8
3500LEVEL
 62
7
 10
3876.929
 20
-5037.476
 30
1727.000
 70
    32
  0
VERTEX
  8
3500LEVEL
 62
7
 10
3871.736
 20
-5032.894
 30
1727.000
 70
    32
  0
VERTEX
  8
3500LEVEL
 62
7
 10
3865.791
 20
-5027.783
 30
1727.000
 70
    32
  0
VERTEX
  8
3500LEVEL
 62
7
 10
3860.401
 20
-5023.650
 30
1727.000
 70
    32
  0
VERTEX
  8
3500LEVEL
 62
7
 10
3854.527
 20
-5020.838
 30
1727.000
 70
    32
  0
VERTEX
  8
3500LEVEL
 62
7
 10
3849.794
 20
-5017.795
 30
1727.000
 70
    32
  0
VERTEX
  8
3500LEVEL
 62
7
 10
3845.543
 20
-5014.244
 30
1727.000
 70
    32
  0
VERTEX
  8
3500LEVEL
 62
7
 10
3840.900
 20
-5011.524
 30
1727.000
 70
    32
  0
VERTEX
  8
3500LEVEL
 62
7
 10
3837.804
 20
-5010.499
 30
1727.000
 70
    32
  0
VERTEX
  8
3500LEVEL
 62
7
 10
3836.284
 20
-5010.535
 30
1727.000
 70
    32
  0
VERTEX
  8
3500LEVEL
 62
7
 10
3836.173
 20
-5010.636
 30
1727.000
 70
    32
  0
VERTEX
  8
3500LEVEL
 62
7
 10
3836.460
 20
-5013.615
 30
1727.000
 70
    32
  0
VERTEX
  8
3500LEVEL
 62
7
 10
3840.314
 20
-5020.431
 30
1727.000
 70
    32
  0
VERTEX
  8
3500LEVEL
 62
7
 10
3846.777
 20
-5028.109
 30
1727.000
 70
    32
  0
VERTEX
  8
3500LEVEL
 62
7
 10
3858.952
 20
-5035.979
 30
1727.000
 70
    32
  0
VERTEX
  8
3500LEVEL
 62
7
 10
3869.862
 20
-5042.166
 30
1727.000
 70
    32
  0
VERTEX
  8
3500LEVEL
 62
7
 10
3880.387
 20
-5048.300
 30
1727.000
 70
    32
  0
VERTEX
  8
3500LEVEL
 62
7
 10
3889.195
 20
-5051.813
 30
1727.000
 70
    32
  0
VERTEX
  8
3500LEVEL
 62
7
 10
3891.502
 20
-5052.343
 30
1727.000
 70
    32
  0
VERTEX
  8
3500LEVEL
 62
7
 10
3893.981
 20
-5052.174
 30
1727.000
 70
    32
  0
VERTEX
  8
3500LEVEL
 62
7
 10
3895.775
 20
-5050.809
 30
1727.000
 70
    32
  0
VERTEX
  8
3500LEVEL
 62
7
 10
3897.412
 20
-5050.531
 30
1727.000
 70
    32
  0
VERTEX
  8
3500LEVEL
 62
7
 10
3898.597
 20
-5050.868
 30
1727.000
 70
    32
  0
VERTEX
  8
3500LEVEL
 62
7
 10
3898.812
 20
-5050.807
 30
1727.000
 70
    32
  0
VERTEX
  8
3500LEVEL
 62
7
 10
3899.328
 20
-5050.336
 30
1727.000
 70
    32
  0
VERTEX
  8
3500LEVEL
 62
7
 10
3900.957
 20
-5049.458
 30
1727.000
 70
    32
  0
VERTEX
  8
3500LEVEL
 62
7
 10
3901.833
 20
-5049.604
 30
1727.000
 70
    32
  0
VERTEX
  8
3500LEVEL
 62
7
 10
3904.291
 20
-5048.375
 30
1727.000
 70
    32
  0
VERTEX
  8
3500LEVEL
 62
7
 10
3906.983
 20
-5046.662
 30
1727.000
 70
    32
  0
VERTEX
  8
3500LEVEL
 62
7
 10
3908.743
 20
-5045.260
 30
1727.000
 70
    32
  0
VERTEX
  8
3500LEVEL
 62
7
 10
3910.113
 20
-5043.875
 30
1727.000
 70
    32
  0
VERTEX
  8
3500LEVEL
 62
7
 10
3911.227
 20
-5041.913
 30
1727.000
 70
    32
  0
VERTEX
  8
3500LEVEL
 62
7
 10
3912.165
 20
-5038.425
 30
1727.000
 70
    32
  0
VERTEX
  8
3500LEVEL
 62
7
 10
3913.414
 20
-5035.057
 30
1727.000
 70
    32
  0
VERTEX
  8
3500LEVEL
 62
7
 10
3914.494
 20
-5032.317
 30
1727.000
 70
    32
  0
VERTEX
  8
3500LEVEL
 62
7
 10
3917.037
 20
-5029.997
 30
1727.000
 70
    32
  0
VERTEX
  8
3500LEVEL
 62
7
 10
3924.305
 20
-5029.377
 30
1727.000
 70
    32
  0
VERTEX
  8
3500LEVEL
 62
7
 10
3930.640
 20
-5032.918
 30
1727.000
 70
    32
  0
VERTEX
  8
3500LEVEL
 62
7
 10
3939.091
 20
-5037.297
 30
1727.000
 70
    32
  0
VERTEX
  8
3500LEVEL
 62
7
 10
3949.750
 20
-5039.729
 30
1727.000
 70
    32
  0
VERTEX
  8
3500LEVEL
 62
7
 10
3958.578
 20
-5040.523
 30
1727.000
 70
    32
  0
VERTEX
  8
3500LEVEL
 62
7
 10
3964.083
 20
-5041.377
 30
1727.000
 70
    32
  0
VERTEX
  8
3500LEVEL
 62
7
 10
3971.296
 20
-5044.251
 30
1727.000
 70
    32
  0
VERTEX
  8
3500LEVEL
 62
7
 10
3975.698
 20
-5047.596
 30
1727.000
 70
    32
  0
VERTEX
  8
3500LEVEL
 62
7
 10
3979.963
 20
-5051.606
 30
1727.000
 70
    32
  0
VERTEX
  8
3500LEVEL
 62
7
 10
3985.808
 20
-5058.902
 30
1727.000
 70
    32
  0
VERTEX
  8
3500LEVEL
 62
7
 10
3990.335
 20
-5068.751
 30
1727.000
 70
    32
  0
VERTEX
  8
3500LEVEL
 62
7
 10
3994.817
 20
-5080.329
 30
1727.000
 70
    32
  0
VERTEX
  8
3500LEVEL
 62
7
 10
3997.094
 20
-5089.191
 30
1727.000
 70
    32
  0
VERTEX
  8
3500LEVEL
 62
7
 10
3997.269
 20
-5095.380
 30
1727.000
 70
    32
  0
VERTEX
  8
3500LEVEL
 62
7
 10
3997.002
 20
-5098.864
 30
1727.000
 70
    32
  0
VERTEX
  8
3500LEVEL
 62
7
 10
3995.097
 20
-5101.142
 30
1727.000
 70
    32
  0
VERTEX
  8
3500LEVEL
 62
7
 10
3989.644
 20
-5101.456
 30
1727.000
 70
    32
  0
VERTEX
  8
3500LEVEL
 62
7
 10
3981.680
 20
-5099.536
 30
1727.000
 70
    32
  0
VERTEX
  8
3500LEVEL
 62
7
 10
3973.136
 20
-5095.648
 30
1727.000
 70
    32
  0
VERTEX
  8
3500LEVEL
 62
7
 10
3964.291
 20
-5092.169
 30
1727.000
 70
    32
  0
VERTEX
  8
3500LEVEL
 62
7
 10
3957.604
 20
-5090.908
 30
1727.000
 70
    32
  0
VERTEX
  8
3500LEVEL
 62
7
 10
3953.724
 20
-5090.800
 30
1727.000
 70
    32
  0
VERTEX
  8
3500LEVEL
 62
7
 10
3952.325
 20
-5091.265
 30
1727.000
 70
    32
  0
VERTEX
  8
3500LEVEL
 62
7
 10
3948.066
 20
-5094.813
 30
1727.000
 70
    32
  0
VERTEX
  8
3500LEVEL
 62
7
 10
3945.123
 20
-5098.916
 30
1727.000
 70
    32
  0
VERTEX
  8
3500LEVEL
 62
7
 10
3943.786
 20
-5104.187
 30
1727.000
 70
    32
  0
VERTEX
  8
3500LEVEL
 62
7
 10
3944.008
 20
-5108.576
 30
1727.000
 70
    32
  0
VERTEX
  8
3500LEVEL
 62
7
 10
3944.903
 20
-5114.444
 30
1727.000
 70
    32
  0
VERTEX
  8
3500LEVEL
 62
7
 10
3947.128
 20
-5118.290
 30
1727.000
 70
    32
  0
VERTEX
  8
3500LEVEL
 62
7
 10
3951.139
 20
-5124.760
 30
1727.000
 70
    32
  0
VERTEX
  8
3500LEVEL
 62
7
 10
3953.498
 20
-5128.753
 30
1727.000
 70
    32
  0
VERTEX
  8
3500LEVEL
 62
7
 10
3955.800
 20
-5134.756
 30
1727.000
 70
    32
  0
VERTEX
  8
3500LEVEL
 62
7
 10
3957.126
 20
-5141.245
 30
1727.000
 70
    32
  0
VERTEX
  8
3500LEVEL
 62
7
 10
3957.635
 20
-5146.318
 30
1727.000
 70
    32
  0
VERTEX
  8
3500LEVEL
 62
7
 10
3958.427
 20
-5154.441
 30
1727.000
 70
    32
  0
VERTEX
  8
3500LEVEL
 62
7
 10
3960.163
 20
-5165.080
 30
1727.000
 70
    32
  0
VERTEX
  8
3500LEVEL
 62
7
 10
3961.981
 20
-5170.850
 30
1727.000
 70
    32
  0
VERTEX
  8
3500LEVEL
 62
7
 10
3966.180
 20
-5181.672
 30
1727.000
 70
    32
  0
VERTEX
  8
3500LEVEL
 62
7
 10
3970.328
 20
-5189.774
 30
1727.000
 70
    32
  0
VERTEX
  8
3500LEVEL
 62
7
 10
3972.599
 20
-5194.928
 30
1727.000
 70
    32
  0
VERTEX
  8
3500LEVEL
 62
7
 10
3973.999
 20
-5197.500
 30
1727.000
 70
    32
  0
VERTEX
  8
3500LEVEL
 62
7
 10
3975.062
 20
-5198.961
 30
1727.000
 70
    32
  0
VERTEX
  8
3500LEVEL
 62
7
 10
3974.531
 20
-5198.231
 30
1727.000
 70
    32
  0
VERTEX
  8
3500LEVEL
 62
7
 10
4023.705
 20
-5255.961
 30
1727.000
 70
    32
  0
VERTEX
  8
3500LEVEL
 62
7
 10
4090.133
 20
-5330.919
 30
1727.000
 70
    32
  0
VERTEX
  8
3500LEVEL
 62
7
 10
4143.755
 20
-5400.799
 30
1727.000
 70
    32
  0
VERTEX
  8
3500LEVEL
 62
7
 10
4182.717
 20
-5483.462
 30
1727.000
 70
    32
  0
VERTEX
  8
3500LEVEL
 62
7
 10
4250.979
 20
-5583.179
 30
1727.000
 70
    32
  0
VERTEX
  8
3500LEVEL
 62
7
 10
4302.720
 20
-5660.072
 30
1727.000
 70
    32
  0
VERTEX
  8
3500LEVEL
 62
7
 10
4320.031
 20
-5711.018
 30
1727.000
 70
    32
  0
VERTEX
  8
3500LEVEL
 62
7
 10
4247.913
 20
-5655.830
 30
1727.000
 70
    32
  0
VERTEX
  8
3500LEVEL
 62
7
 10
4289.316
 20
-5735.858
 30
1727.000
 70
    32
  0
VERTEX
  8
3500LEVEL
 62
7
 10
4334.210
 20
-5817.706
 30
1727.000
 70
    32
  0
VERTEX
  8
3500LEVEL
 62
7
 10
4337.022
 20
-5867.843
 30
1727.000
 70
    32
  0
VERTEX
  8
3500LEVEL
 62
7
 10
4295.336
 20
-5821.062
 30
1727.000
 70
    32
  0
VERTEX
  8
3500LEVEL
 62
7
 10
4233.824
 20
-5713.851
 30
1727.000
 70
    32
  0
VERTEX
  8
3500LEVEL
 62
7
 10
4202.426
 20
-5629.625
 30
1727.000
 70
    32
  0
VERTEX
  8
3500LEVEL
 62
7
 10
4124.598
 20
-5512.486
 30
1727.000
 70
    32
  0
VERTEX
  8
3500LEVEL
 62
7
 10
4061.287
 20
-5399.187
 30
1727.000
 70
    32
  0
VERTEX
  8
3500LEVEL
 62
7
 10
4004.296
 20
-5307.834
 30
1727.000
 70
    32
  0
VERTEX
  8
3500LEVEL
 62
7
 10
3952.642
 20
-5221.909
 30
1727.000
 70
    32
  0
VERTEX
  8
3500LEVEL
 62
7
 10
3943.496
 20
-5209.588
 30
1727.000
 70
    32
  0
VERTEX
  8
3500LEVEL
 62
7
 10
3933.558
 20
-5192.250
 30
1727.000
 70
    32
  0
VERTEX
  8
3500LEVEL
 62
7
 10
3927.735
 20
-5179.870
 30
1727.000
 70
    32
  0
VERTEX
  8
3500LEVEL
 62
7
 10
3921.225
 20
-5163.997
 30
1727.000
 70
    32
  0
VERTEX
  8
3500LEVEL
 62
7
 10
3914.505
 20
-5148.856
 30
1727.000
 70
    32
  0
VERTEX
  8
3500LEVEL
 62
7
 10
3905.789
 20
-5132.564
 30
1727.000
 70
    32
  0
VERTEX
  8
3500LEVEL
 62
7
 10
3898.707
 20
-5121.467
 30
1727.000
 70
    32
  0
VERTEX
  8
3500LEVEL
 62
7
 10
3890.916
 20
-5110.409
 30
1727.000
 70
    32
  0
VERTEX
  8
3500LEVEL
 62
7
 10
3883.773
 20
-5101.393
 30
1727.000
 70
    32
  0
VERTEX
  8
3500LEVEL
 62
7
 10
3878.884
 20
-5095.588
 30
1727.000
 70
    32
  0
VERTEX
  8
3500LEVEL
 62
7
 10
3876.122
 20
-5093.448
 30
1727.000
 70
    32
  0
VERTEX
  8
3500LEVEL
 62
7
 10
3875.183
 20
-5093.900
 30
1727.000
 70
    32
  0
VERTEX
  8
3500LEVEL
 62
7
 10
3875.565
 20
-5097.872
 30
1727.000
 70
    32
  0
VERTEX
  8
3500LEVEL
 62
7
 10
3877.922
 20
-5106.527
 30
1727.000
 70
    32
  0
VERTEX
  8
3500LEVEL
 62
7
 10
3881.338
 20
-5114.418
 30
1727.000
 70
    32
  0
VERTEX
  8
3500LEVEL
 62
7
 10
3882.549
 20
-5118.040
 30
1727.000
 70
    32
  0
VERTEX
  8
3500LEVEL
 62
7
 10
3879.631
 20
-5116.988
 30
1727.000
 70
    32
  0
VERTEX
  8
3500LEVEL
 62
7
 10
3876.445
 20
-5112.533
 30
1727.000
 70
    32
  0
VERTEX
  8
3500LEVEL
 62
7
 10
3867.727
 20
-5100.902
 30
1727.000
 70
    32
  0
VERTEX
  8
3500LEVEL
 62
7
 10
3856.013
 20
-5089.169
 30
1727.000
 70
    32
  0
VERTEX
  8
3500LEVEL
 62
7
 10
3850.057
 20
-5081.974
 30
1727.000
 70
    32
  0
VERTEX
  8
3500LEVEL
 62
7
 10
3841.702
 20
-5072.443
 30
1727.000
 70
    32
  0
VERTEX
  8
3500LEVEL
 62
7
 10
3832.403
 20
-5062.693
 30
1727.000
 70
    32
  0
VERTEX
  8
3500LEVEL
 62
7
 10
3825.211
 20
-5056.288
 30
1727.000
 70
    32
  0
VERTEX
  8
3500LEVEL
 62
7
 10
3821.020
 20
-5054.506
 30
1727.000
 70
    32
  0
VERTEX
  8
3500LEVEL
 62
7
 10
3819.430
 20
-5055.281
 30
1727.000
 70
    32
  0
VERTEX
  8
3500LEVEL
 62
7
 10
3818.786
 20
-5059.312
 30
1727.000
 70
    32
  0
VERTEX
  8
3500LEVEL
 62
7
 10
3819.929
 20
-5064.415
 30
1727.000
 70
    32
  0
VERTEX
  8
3500LEVEL
 62
7
 10
3820.772
 20
-5066.820
 30
1727.000
 70
    32
  0
VERTEX
  8
3500LEVEL
 62
7
 10
3820.073
 20
-5068.200
 30
1727.000
 70
    32
  0
VERTEX
  8
3500LEVEL
 62
7
 10
3815.593
 20
-5066.546
 30
1727.000
 70
    32
  0
VERTEX
  8
3500LEVEL
 62
7
 10
3810.974
 20
-5064.074
 30
1727.000
 70
    32
  0
VERTEX
  8
3500LEVEL
 62
7
 10
3805.075
 20
-5060.271
 30
1727.000
 70
    32
  0
VERTEX
  8
3500LEVEL
 62
7
 10
3800.681
 20
-5057.526
 30
1727.000
 70
    32
  0
VERTEX
  8
3500LEVEL
 62
7
 10
3800.380
 20
-5057.936
 30
1727.000
 70
    32
  0
VERTEX
  8
3500LEVEL
 62
7
 10
3800.694
 20
-5059.540
 30
1727.000
 70
    32
  0
VERTEX
  8
3500LEVEL
 62
7
 10
3798.280
 20
-5060.594
 30
1727.000
 70
    32
  0
VERTEX
  8
3500LEVEL
 62
7
 10
3790.985
 20
-5057.187
 30
1727.000
 70
    32
  0
VERTEX
  8
3500LEVEL
 62
7
 10
3784.055
 20
-5051.218
 30
1727.000
 70
    32
  0
VERTEX
  8
3500LEVEL
 62
7
 10
3778.173
 20
-5045.509
 30
1727.000
 70
    32
  0
VERTEX
  8
3500LEVEL
 62
7
 10
3775.715
 20
-5042.889
 30
1727.000
 70
    32
  0
VERTEX
  8
3500LEVEL
 62
7
 10
3775.858
 20
-5042.083
 30
1727.000
 70
    32
  0
VERTEX
  8
3500LEVEL
 62
7
 10
3778.339
 20
-5042.656
 30
1727.000
 70
    32
  0
VERTEX
  8
3500LEVEL
 62
7
 10
3780.074
 20
-5042.559
 30
1727.000
 70
    32
  0
VERTEX
  8
3500LEVEL
 62
7
 10
3778.287
 20
-5035.344
 30
1727.000
 70
    32
  0
VERTEX
  8
3500LEVEL
 62
7
 10
3772.721
 20
-5025.835
 30
1727.000
 70
    32
  0
VERTEX
  8
3500LEVEL
 62
7
 10
3769.050
 20
-5018.109
 30
1727.000
 70
    32
  0
VERTEX
  8
3500LEVEL
 62
7
 10
3764.210
 20
-5009.694
 30
1727.000
 70
    32
  0
VERTEX
  8
3500LEVEL
 62
7
 10
3757.992
 20
-4999.767
 30
1727.000
 70
    32
  0
VERTEX
  8
3500LEVEL
 62
7
 10
3752.436
 20
-4992.343
 30
1727.000
 70
    32
  0
VERTEX
  8
3500LEVEL
 62
7
 10
3748.002
 20
-4985.853
 30
1727.000
 70
    32
  0
VERTEX
  8
3500LEVEL
 62
7
 10
3743.328
 20
-4978.434
 30
1727.000
 70
    32
  0
VERTEX
  8
3500LEVEL
 62
7
 10
3737.455
 20
-4970.218
 30
1727.000
 70
    32
  0
VERTEX
  8
3500LEVEL
 62
7
 10
3731.727
 20
-4964.234
 30
1727.000
 70
    32
  0
VERTEX
  8
3500LEVEL
 62
7
 10
3726.589
 20
-4958.453
 30
1727.000
 70
    32
  0
VERTEX
  8
3500LEVEL
 62
7
 10
3721.964
 20
-4953.826
 30
1727.000
 70
    32
  0
VERTEX
  8
3500LEVEL
 62
7
 10
3718.387
 20
-4950.201
 30
1727.000
 70
    32
  0
VERTEX
  8
3500LEVEL
 62
7
 10
3716.031
 20
-4948.433
 30
1727.000
 70
    32
  0
VERTEX
  8
3500LEVEL
 62
7
 10
3715.314
 20
-4947.129
 30
1727.000
 70
    32
  0
VERTEX
  8
3500LEVEL
 62
7
 10
3714.685
 20
-4946.217
 30
1727.000
 70
    32
  0
SEQEND
  8
3500LEVEL
  0
POLYLINE
  8
3500LEVEL
 62
7
 66
     1
 70
     8
  0
VERTEX
  8
3500LEVEL
 62
7
 10
3711.613
 20
-4943.145
 30
1727.000
 70
    32
  0
VERTEX
  8
3500LEVEL
 62
7
 10
3709.163
 20
-4941.125
 30
1727.000
 70
    32
  0
VERTEX
  8
3500LEVEL
 62
7
 10
3706.510
 20
-4938.143
 30
1727.000
 70
    32
  0
VERTEX
  8
3500LEVEL
 62
7
 10
3703.859
 20
-4935.902
 30
1727.000
 70
    32
  0
VERTEX
  8
3500LEVEL
 62
7
 10
3699.907
 20
-4932.754
 30
1727.000
 70
    32
  0
VERTEX
  8
3500LEVEL
 62
7
 10
3695.630
 20
-4929.767
 30
1727.000
 70
    32
  0
VERTEX
  8
3500LEVEL
 62
7
 10
3693.044
 20
-4928.412
 30
1727.000
 70
    32
  0
VERTEX
  8
3500LEVEL
 62
7
 10
3690.840
 20
-4927.181
 30
1727.000
 70
    32
  0
VERTEX
  8
3500LEVEL
 62
7
 10
3689.703
 20
-4925.787
 30
1727.000
 70
    32
  0
VERTEX
  8
3500LEVEL
 62
7
 10
3688.977
 20
-4924.990
 30
1727.000
 70
    32
  0
SEQEND
  8
3500LEVEL
  0
POLYLINE
  8
3500LEVEL
 62
7
 66
     1
 70
     8
  0
VERTEX
  8
3500LEVEL
 62
7
 10
3576.593
 20
-4902.683
 30
1727.000
 70
    32
  0
VERTEX
  8
3500LEVEL
 62
7
 10
3576.980
 20
-4903.478
 30
1727.000
 70
    32
  0
VERTEX
  8
3500LEVEL
 62
7
 10
3578.006
 20
-4904.973
 30
1727.000
 70
    32
  0
VERTEX
  8
3500LEVEL
 62
7
 10
3579.284
 20
-4906.373
 30
1727.000
 70
    32
  0
VERTEX
  8
3500LEVEL
 62
7
 10
3581.146
 20
-4908.119
 30
1727.000
 70
    32
  0
VERTEX
  8
3500LEVEL
 62
7
 10
3583.462
 20
-4908.437
 30
1727.000
 70
    32
  0
VERTEX
  8
3500LEVEL
 62
7
 10
3585.625
 20
-4907.477
 30
1727.000
 70
    32
  0
VERTEX
  8
3500LEVEL
 62
7
 10
3587.281
 20
-4906.035
 30
1727.000
 70
    32
  0
VERTEX
  8
3500LEVEL
 62
7
 10
3588.539
 20
-4904.009
 30
1727.000
 70
    32
  0
VERTEX
  8
3500LEVEL
 62
7
 10
3589.507
 20
-4902.923
 30
1727.000
 70
    32
  0
VERTEX
  8
3500LEVEL
 62
7
 10
3591.971
 20
-4901.553
 30
1727.000
 70
    32
  0
VERTEX
  8
3500LEVEL
 62
7
 10
3596.125
 20
-4901.073
 30
1727.000
 70
    32
  0
VERTEX
  8
3500LEVEL
 62
7
 10
3598.543
 20
-4899.949
 30
1727.000
 70
    32
  0
VERTEX
  8
3500LEVEL
 62
7
 10
3601.554
 20
-4895.920
 30
1727.000
 70
    32
  0
VERTEX
  8
3500LEVEL
 62
7
 10
3602.194
 20
-4893.513
 30
1727.000
 70
    32
  0
VERTEX
  8
3500LEVEL
 62
7
 10
3603.928
 20
-4891.120
 30
1727.000
 70
    32
  0
VERTEX
  8
3500LEVEL
 62
7
 10
3605.308
 20
-4889.524
 30
1727.000
 70
    32
  0
VERTEX
  8
3500LEVEL
 62
7
 10
3606.485
 20
-4886.965
 30
1727.000
 70
    32
  0
VERTEX
  8
3500LEVEL
 62
7
 10
3608.300
 20
-4884.364
 30
1727.000
 70
    32
  0
VERTEX
  8
3500LEVEL
 62
7
 10
3610.913
 20
-4883.601
 30
1727.000
 70
    32
  0
VERTEX
  8
3500LEVEL
 62
7
 10
3613.582
 20
-4883.936
 30
1727.000
 70
    32
  0
VERTEX
  8
3500LEVEL
 62
7
 10
3618.789
 20
-4885.129
 30
1727.000
 70
    32
  0
VERTEX
  8
3500LEVEL
 62
7
 10
3622.362
 20
-4886.529
 30
1727.000
 70
    32
  0
VERTEX
  8
3500LEVEL
 62
7
 10
3623.797
 20
-4886.030
 30
1727.000
 70
    32
  0
VERTEX
  8
3500LEVEL
 62
7
 10
3624.240
 20
-4885.627
 30
1727.000
 70
    32
  0
VERTEX
  8
3500LEVEL
 62
7
 10
3625.195
 20
-4884.823
 30
1727.000
 70
    32
  0
VERTEX
  8
3500LEVEL
 62
7
 10
3626.011
 20
-4883.201
 30
1727.000
 70
    32
  0
VERTEX
  8
3500LEVEL
 62
7
 10
3625.864
 20
-4879.486
 30
1727.000
 70
    32
  0
VERTEX
  8
3500LEVEL
 62
7
 10
3625.962
 20
-4878.113
 30
1727.000
 70
    32
  0
VERTEX
  8
3500LEVEL
 62
7
 10
3628.060
 20
-4880.116
 30
1727.000
 70
    32
  0
VERTEX
  8
3500LEVEL
 62
7
 10
3630.732
 20
-4882.676
 30
1727.000
 70
    32
  0
VERTEX
  8
3500LEVEL
 62
7
 10
3635.018
 20
-4887.005
 30
1727.000
 70
    32
  0
VERTEX
  8
3500LEVEL
 62
7
 10
3642.757
 20
-4893.046
 30
1727.000
 70
    32
  0
VERTEX
  8
3500LEVEL
 62
7
 10
3649.645
 20
-4898.378
 30
1727.000
 70
    32
  0
VERTEX
  8
3500LEVEL
 62
7
 10
3655.204
 20
-4903.436
 30
1727.000
 70
    32
  0
VERTEX
  8
3500LEVEL
 62
7
 10
3661.736
 20
-4908.080
 30
1727.000
 70
    32
  0
VERTEX
  8
3500LEVEL
 62
7
 10
3667.585
 20
-4912.198
 30
1727.000
 70
    32
  0
VERTEX
  8
3500LEVEL
 62
7
 10
3668.929
 20
-4912.931
 30
1727.000
 70
    32
  0
SEQEND
  8
3500LEVEL
  0
POLYLINE
  8
3500LEVEL
 62
7
 66
     1
 70
     8
  0
VERTEX
  8
3500LEVEL
 62
7
 10
3567.619
 20
-4886.519
 30
1727.000
 70
    32
  0
VERTEX
  8
3500LEVEL
 62
7
 10
3565.729
 20
-4883.961
 30
1727.000
 70
    32
  0
VERTEX
  8
3500LEVEL
 62
7
 10
3563.051
 20
-4879.989
 30
1727.000
 70
    32
  0
VERTEX
  8
3500LEVEL
 62
7
 10
3561.375
 20
-4877.263
 30
1727.000
 70
    32
  0
VERTEX
  8
3500LEVEL
 62
7
 10
3560.266
 20
-4876.047
 30
1727.000
 70
    32
  0
VERTEX
  8
3500LEVEL
 62
7
 10
3559.148
 20
-4878.079
 30
1727.000
 70
    32
  0
VERTEX
  8
3500LEVEL
 62
7
 10
3559.597
 20
-4883.679
 30
1727.000
 70
    32
  0
VERTEX
  8
3500LEVEL
 62
7
 10
3560.838
 20
-4888.963
 30
1727.000
 70
    32
  0
VERTEX
  8
3500LEVEL
 62
7
 10
3562.831
 20
-4893.222
 30
1727.000
 70
    32
  0
VERTEX
  8
3500LEVEL
 62
7
 10
3564.373
 20
-4895.800
 30
1727.000
 70
    32
  0
VERTEX
  8
3500LEVEL
 62
7
 10
3564.452
 20
-4897.146
 30
1727.000
 70
    32
  0
VERTEX
  8
3500LEVEL
 62
7
 10
3561.838
 20
-4897.167
 30
1727.000
 70
    32
  0
VERTEX
  8
3500LEVEL
 62
7
 10
3558.470
 20
-4895.917
 30
1727.000
 70
    32
  0
VERTEX
  8
3500LEVEL
 62
7
 10
3555.444
 20
-4894.895
 30
1727.000
 70
    32
  0
VERTEX
  8
3500LEVEL
 62
7
 10
3554.181
 20
-4896.250
 30
1727.000
 70
    32
  0
VERTEX
  8
3500LEVEL
 62
7
 10
3556.573
 20
-4901.833
 30
1727.000
 70
    32
  0
VERTEX
  8
3500LEVEL
 62
7
 10
3559.958
 20
-4907.322
 30
1727.000
 70
    32
  0
VERTEX
  8
3500LEVEL
 62
7
 10
3562.731
 20
-4911.545
 30
1727.000
 70
    32
  0
VERTEX
  8
3500LEVEL
 62
7
 10
3565.243
 20
-4914.521
 30
1727.000
 70
    32
  0
VERTEX
  8
3500LEVEL
 62
7
 10
3565.890
 20
-4914.269
 30
1727.000
 70
    32
  0
VERTEX
  8
3500LEVEL
 62
7
 10
3566.499
 20
-4913.308
 30
1727.000
 70
    32
  0
VERTEX
  8
3500LEVEL
 62
7
 10
3567.058
 20
-4912.663
 30
1727.000
 70
    32
  0
VERTEX
  8
3500LEVEL
 62
7
 10
3567.683
 20
-4912.903
 30
1727.000
 70
    32
  0
VERTEX
  8
3500LEVEL
 62
7
 10
3568.681
 20
-4913.479
 30
1727.000
 70
    32
  0
VERTEX
  8
3500LEVEL
 62
7
 10
3569.786
 20
-4914.024
 30
1727.000
 70
    32
  0
VERTEX
  8
3500LEVEL
 62
7
 10
3571.127
 20
-4913.273
 30
1727.000
 70
    32
  0
VERTEX
  8
3500LEVEL
 62
7
 10
3571.594
 20
-4911.564
 30
1727.000
 70
    32
  0
VERTEX
  8
3500LEVEL
 62
7
 10
3573.231
 20
-4911.287
 30
1727.000
 70
    32
  0
VERTEX
  8
3500LEVEL
 62
7
 10
3574.979
 20
-4913.203
 30
1727.000
 70
    32
  0
VERTEX
  8
3500LEVEL
 62
7
 10
3579.626
 20
-4922.740
 30
1727.000
 70
    32
  0
VERTEX
  8
3500LEVEL
 62
7
 10
3584.055
 20
-4933.962
 30
1727.000
 70
    32
  0
VERTEX
  8
3500LEVEL
 62
7
 10
3587.716
 20
-4941.899
 30
1727.000
 70
    32
  0
VERTEX
  8
3500LEVEL
 62
7
 10
3591.783
 20
-4947.913
 30
1727.000
 70
    32
  0
VERTEX
  8
3500LEVEL
 62
7
 10
3593.531
 20
-4947.534
 30
1727.000
 70
    32
  0
VERTEX
  8
3500LEVEL
 62
7
 10
3595.703
 20
-4946.363
 30
1727.000
 70
    32
  0
VERTEX
  8
3500LEVEL
 62
7
 10
3597.159
 20
-4947.736
 30
1727.000
 70
    32
  0
VERTEX
  8
3500LEVEL
 62
7
 10
3598.080
 20
-4948.450
 30
1727.000
 70
    32
  0
VERTEX
  8
3500LEVEL
 62
7
 10
3598.790
 20
-4947.599
 30
1727.000
 70
    32
  0
VERTEX
  8
3500LEVEL
 62
7
 10
3599.685
 20
-4947.323
 30
1727.000
 70
    32
  0
VERTEX
  8
3500LEVEL
 62
7
 10
3601.403
 20
-4949.132
 30
1727.000
 70
    32
  0
VERTEX
  8
3500LEVEL
 62
7
 10
3602.826
 20
-4951.211
 30
1727.000
 70
    32
  0
VERTEX
  8
3500LEVEL
 62
7
 10
3604.446
 20
-4952.839
 30
1727.000
 70
    32
  0
VERTEX
  8
3500LEVEL
 62
7
 10
3606.726
 20
-4955.486
 30
1727.000
 70
    32
  0
VERTEX
  8
3500LEVEL
 62
7
 10
3610.385
 20
-4961.940
 30
1727.000
 70
    32
  0
VERTEX
  8
3500LEVEL
 62
7
 10
3613.455
 20
-4968.120
 30
1727.000
 70
    32
  0
VERTEX
  8
3500LEVEL
 62
7
 10
3617.703
 20
-4975.591
 30
1727.000
 70
    32
  0
VERTEX
  8
3500LEVEL
 62
7
 10
3622.371
 20
-4983.892
 30
1727.000
 70
    32
  0
VERTEX
  8
3500LEVEL
 62
7
 10
3624.658
 20
-4988.694
 30
1727.000
 70
    32
  0
VERTEX
  8
3500LEVEL
 62
7
 10
3633.338
 20
-5008.057
 30
1727.000
 70
    32
  0
VERTEX
  8
3500LEVEL
 62
7
 10
3639.997
 20
-5020.688
 30
1727.000
 70
    32
  0
VERTEX
  8
3500LEVEL
 62
7
 10
3643.687
 20
-5027.991
 30
1727.000
 70
    32
  0
VERTEX
  8
3500LEVEL
 62
7
 10
3646.574
 20
-5034.339
 30
1727.000
 70
    32
  0
VERTEX
  8
3500LEVEL
 62
7
 10
3648.840
 20
-5041.118
 30
1727.000
 70
    32
  0
VERTEX
  8
3500LEVEL
 62
7
 10
3649.879
 20
-5046.180
 30
1727.000
 70
    32
  0
VERTEX
  8
3500LEVEL
 62
7
 10
3650.481
 20
-5049.210
 30
1727.000
 70
    32
  0
VERTEX
  8
3500LEVEL
 62
7
 10
3650.437
 20
-5050.938
 30
1727.000
 70
    32
  0
VERTEX
  8
3500LEVEL
 62
7
 10
3649.205
 20
-5050.846
 30
1727.000
 70
    32
  0
VERTEX
  8
3500LEVEL
 62
7
 10
3646.403
 20
-5046.515
 30
1727.000
 70
    32
  0
VERTEX
  8
3500LEVEL
 62
7
 10
3642.120
 20
-5038.266
 30
1727.000
 70
    32
  0
VERTEX
  8
3500LEVEL
 62
7
 10
3637.779
 20
-5028.991
 30
1727.000
 70
    32
  0
VERTEX
  8
3500LEVEL
 62
7
 10
3631.781
 20
-5018.121
 30
1727.000
 70
    32
  0
VERTEX
  8
3500LEVEL
 62
7
 10
3625.792
 20
-5007.039
 30
1727.000
 70
    32
  0
VERTEX
  8
3500LEVEL
 62
7
 10
3620.382
 20
-4996.443
 30
1727.000
 70
    32
  0
VERTEX
  8
3500LEVEL
 62
7
 10
3616.603
 20
-4988.006
 30
1727.000
 70
    32
  0
VERTEX
  8
3500LEVEL
 62
7
 10
3613.390
 20
-4981.078
 30
1727.000
 70
    32
  0
VERTEX
  8
3500LEVEL
 62
7
 10
3610.684
 20
-4974.632
 30
1727.000
 70
    32
  0
VERTEX
  8
3500LEVEL
 62
7
 10
3609.150
 20
-4970.359
 30
1727.000
 70
    32
  0
VERTEX
  8
3500LEVEL
 62
7
 10
3607.820
 20
-4967.791
 30
1727.000
 70
    32
  0
VERTEX
  8
3500LEVEL
 62
7
 10
3606.978
 20
-4967.681
 30
1727.000
 70
    32
  0
VERTEX
  8
3500LEVEL
 62
7
 10
3606.192
 20
-4969.411
 30
1727.000
 70
    32
  0
VERTEX
  8
3500LEVEL
 62
7
 10
3606.020
 20
-4970.851
 30
1727.000
 70
    32
  0
VERTEX
  8
3500LEVEL
 62
7
 10
3604.544
 20
-4971.454
 30
1727.000
 70
    32
  0
VERTEX
  8
3500LEVEL
 62
7
 10
3602.954
 20
-4969.933
 30
1727.000
 70
    32
  0
VERTEX
  8
3500LEVEL
 62
7
 10
3601.364
 20
-4968.412
 30
1727.000
 70
    32
  0
VERTEX
  8
3500LEVEL
 62
7
 10
3599.778
 20
-4966.821
 30
1727.000
 70
    32
  0
VERTEX
  8
3500LEVEL
 62
7
 10
3598.470
 20
-4965.313
 30
1727.000
 70
    32
  0
VERTEX
  8
3500LEVEL
 62
7
 10
3598.138
 20
-4965.615
 30
1727.000
 70
    32
  0
VERTEX
  8
3500LEVEL
 62
7
 10
3599.724
 20
-4971.056
 30
1727.000
 70
    32
  0
VERTEX
  8
3500LEVEL
 62
7
 10
3600.719
 20
-4973.998
 30
1727.000
 70
    32
  0
VERTEX
  8
3500LEVEL
 62
7
 10
3601.677
 20
-4976.973
 30
1727.000
 70
    32
  0
VERTEX
  8
3500LEVEL
 62
7
 10
3602.080
 20
-4978.969
 30
1727.000
 70
    32
  0
VERTEX
  8
3500LEVEL
 62
7
 10
3602.060
 20
-4980.946
 30
1727.000
 70
    32
  0
VERTEX
  8
3500LEVEL
 62
7
 10
3600.949
 20
-4981.283
 30
1727.000
 70
    32
  0
VERTEX
  8
3500LEVEL
 62
7
 10
3599.696
 20
-4980.131
 30
1727.000
 70
    32
  0
VERTEX
  8
3500LEVEL
 62
7
 10
3599.096
 20
-4978.585
 30
1727.000
 70
    32
  0
VERTEX
  8
3500LEVEL
 62
7
 10
3596.760
 20
-4976.394
 30
1727.000
 70
    32
  0
VERTEX
  8
3500LEVEL
 62
7
 10
3595.036
 20
-4973.171
 30
1727.000
 70
    32
  0
VERTEX
  8
3500LEVEL
 62
7
 10
3594.686
 20
-4972.343
 30
1727.000
 70
    32
  0
VERTEX
  8
3500LEVEL
 62
7
 10
3594.077
 20
-4971.750
 30
1727.000
 70
    32
  0
VERTEX
  8
3500LEVEL
 62
7
 10
3593.106
 20
-4972.906
 30
1727.000
 70
    32
  0
VERTEX
  8
3500LEVEL
 62
7
 10
3594.400
 20
-4976.250
 30
1727.000
 70
    32
  0
VERTEX
  8
3500LEVEL
 62
7
 10
3595.996
 20
-4979.184
 30
1727.000
 70
    32
  0
VERTEX
  8
3500LEVEL
 62
7
 10
3600.086
 20
-4987.000
 30
1727.000
 70
    32
  0
VERTEX
  8
3500LEVEL
 62
7
 10
3603.411
 20
-4992.273
 30
1727.000
 70
    32
  0
VERTEX
  8
3500LEVEL
 62
7
 10
3607.055
 20
-4998.268
 30
1727.000
 70
    32
  0
VERTEX
  8
3500LEVEL
 62
7
 10
3609.722
 20
-5004.005
 30
1727.000
 70
    32
  0
VERTEX
  8
3500LEVEL
 62
7
 10
3613.080
 20
-5009.316
 30
1727.000
 70
    32
  0
VERTEX
  8
3500LEVEL
 62
7
 10
3617.907
 20
-5018.013
 30
1727.000
 70
    32
  0
VERTEX
  8
3500LEVEL
 62
7
 10
3620.886
 20
-5023.129
 30
1727.000
 70
    32
  0
VERTEX
  8
3500LEVEL
 62
7
 10
3622.341
 20
-5026.798
 30
1727.000
 70
    32
  0
VERTEX
  8
3500LEVEL
 62
7
 10
3622.610
 20
-5028.647
 30
1727.000
 70
    32
  0
VERTEX
  8
3500LEVEL
 62
7
 10
3623.985
 20
-5032.524
 30
1727.000
 70
    32
  0
VERTEX
  8
3500LEVEL
 62
7
 10
3624.627
 20
-5034.708
 30
1727.000
 70
    32
  0
VERTEX
  8
3500LEVEL
 62
7
 10
3623.315
 20
-5034.824
 30
1727.000
 70
    32
  0
VERTEX
  8
3500LEVEL
 62
7
 10
3617.865
 20
-5031.219
 30
1727.000
 70
    32
  0
VERTEX
  8
3500LEVEL
 62
7
 10
3612.519
 20
-5026.912
 30
1727.000
 70
    32
  0
VERTEX
  8
3500LEVEL
 62
7
 10
3605.516
 20
-5021.752
 30
1727.000
 70
    32
  0
VERTEX
  8
3500LEVEL
 62
7
 10
3601.053
 20
-5017.450
 30
1727.000
 70
    32
  0
VERTEX
  8
3500LEVEL
 62
7
 10
3598.415
 20
-5015.669
 30
1727.000
 70
    32
  0
VERTEX
  8
3500LEVEL
 62
7
 10
3594.733
 20
-5011.262
 30
1727.000
 70
    32
  0
VERTEX
  8
3500LEVEL
 62
7
 10
3588.736
 20
-5004.983
 30
1727.000
 70
    32
  0
VERTEX
  8
3500LEVEL
 62
7
 10
3582.542
 20
-4997.600
 30
1727.000
 70
    32
  0
VERTEX
  8
3500LEVEL
 62
7
 10
3579.220
 20
-4993.810
 30
1727.000
 70
    32
  0
VERTEX
  8
3500LEVEL
 62
7
 10
3577.070
 20
-4990.639
 30
1727.000
 70
    32
  0
VERTEX
  8
3500LEVEL
 62
7
 10
3575.004
 20
-4987.189
 30
1727.000
 70
    32
  0
VERTEX
  8
3500LEVEL
 62
7
 10
3573.527
 20
-4984.755
 30
1727.000
 70
    32
  0
VERTEX
  8
3500LEVEL
 62
7
 10
3572.988
 20
-4983.423
 30
1727.000
 70
    32
  0
VERTEX
  8
3500LEVEL
 62
7
 10
3572.389
 20
-4982.619
 30
1727.000
 70
    32
  0
VERTEX
  8
3500LEVEL
 62
7
 10
3572.102
 20
-4983.489
 30
1727.000
 70
    32
  0
VERTEX
  8
3500LEVEL
 62
7
 10
3571.971
 20
-4985.566
 30
1727.000
 70
    32
  0
VERTEX
  8
3500LEVEL
 62
7
 10
3571.591
 20
-4986.926
 30
1727.000
 70
    32
  0
VERTEX
  8
3500LEVEL
 62
7
 10
3569.993
 20
-4987.100
 30
1727.000
 70
    32
  0
VERTEX
  8
3500LEVEL
 62
7
 10
3568.005
 20
-4985.808
 30
1727.000
 70
    32
  0
VERTEX
  8
3500LEVEL
 62
7
 10
3562.608
 20
-4981.816
 30
1727.000
 70
    32
  0
VERTEX
  8
3500LEVEL
 62
7
 10
3558.331
 20
-4978.830
 30
1727.000
 70
    32
  0
VERTEX
  8
3500LEVEL
 62
7
 10
3552.519
 20
-4973.124
 30
1727.000
 70
    32
  0
VERTEX
  8
3500LEVEL
 62
7
 10
3548.152
 20
-4968.262
 30
1727.000
 70
    32
  0
VERTEX
  8
3500LEVEL
 62
7
 10
3543.676
 20
-4962.688
 30
1727.000
 70
    32
  0
VERTEX
  8
3500LEVEL
 62
7
 10
3540.209
 20
-4958.220
 30
1727.000
 70
    32
  0
VERTEX
  8
3500LEVEL
 62
7
 10
3537.395
 20
-4953.359
 30
1727.000
 70
    32
  0
VERTEX
  8
3500LEVEL
 62
7
 10
3532.851
 20
-4945.416
 30
1727.000
 70
    32
  0
VERTEX
  8
3500LEVEL
 62
7
 10
3529.962
 20
-4939.139
 30
1727.000
 70
    32
  0
VERTEX
  8
3500LEVEL
 62
7
 10
3527.299
 20
-4932.518
 30
1727.000
 70
    32
  0
VERTEX
  8
3500LEVEL
 62
7
 10
3523.886
 20
-4923.815
 30
1727.000
 70
    32
  0
VERTEX
  8
3500LEVEL
 62
7
 10
3521.923
 20
-4918.110
 30
1727.000
 70
    32
  0
VERTEX
  8
3500LEVEL
 62
7
 10
3519.066
 20
-4909.574
 30
1727.000
 70
    32
  0
VERTEX
  8
3500LEVEL
 62
7
 10
3518.259
 20
-4902.544
 30
1727.000
 70
    32
  0
VERTEX
  8
3500LEVEL
 62
7
 10
3517.621
 20
-4897.995
 30
1727.000
 70
    32
  0
VERTEX
  8
3500LEVEL
 62
7
 10
3516.348
 20
-4893.416
 30
1727.000
 70
    32
  0
VERTEX
  8
3500LEVEL
 62
7
 10
3514.537
 20
-4889.801
 30
1727.000
 70
    32
  0
VERTEX
  8
3500LEVEL
 62
7
 10
3513.032
 20
-4887.189
 30
1727.000
 70
    32
  0
VERTEX
  8
3500LEVEL
 62
7
 10
3511.726
 20
-4884.869
 30
1727.000
 70
    32
  0
VERTEX
  8
3500LEVEL
 62
7
 10
3510.885
 20
-4883.206
 30
1727.000
 70
    32
  0
VERTEX
  8
3500LEVEL
 62
7
 10
3510.329
 20
-4882.227
 30
1727.000
 70
    32
  0
VERTEX
  8
3500LEVEL
 62
7
 10
3509.610
 20
-4883.289
 30
1727.000
 70
    32
  0
VERTEX
  8
3500LEVEL
 62
7
 10
3509.533
 20
-4885.722
 30
1727.000
 70
    32
  0
VERTEX
  8
3500LEVEL
 62
7
 10
3508.313
 20
-4888.456
 30
1727.000
 70
    32
  0
VERTEX
  8
3500LEVEL
 62
7
 10
3507.400
 20
-4890.638
 30
1727.000
 70
    32
  0
VERTEX
  8
3500LEVEL
 62
7
 10
3507.014
 20
-4892.881
 30
1727.000
 70
    32
  0
VERTEX
  8
3500LEVEL
 62
7
 10
3508.709
 20
-4896.737
 30
1727.000
 70
    32
  0
VERTEX
  8
3500LEVEL
 62
7
 10
3511.061
 20
-4900.871
 30
1727.000
 70
    32
  0
VERTEX
  8
3500LEVEL
 62
7
 10
3512.702
 20
-4904.372
 30
1727.000
 70
    32
  0
VERTEX
  8
3500LEVEL
 62
7
 10
3513.760
 20
-4909.012
 30
1727.000
 70
    32
  0
VERTEX
  8
3500LEVEL
 62
7
 10
3514.748
 20
-4914.390
 30
1727.000
 70
    32
  0
VERTEX
  8
3500LEVEL
 62
7
 10
3515.286
 20
-4921.124
 30
1727.000
 70
    32
  0
VERTEX
  8
3500LEVEL
 62
7
 10
3516.931
 20
-4929.146
 30
1727.000
 70
    32
  0
VERTEX
  8
3500LEVEL
 62
7
 10
3518.038
 20
-4935.024
 30
1727.000
 70
    32
  0
VERTEX
  8
3500LEVEL
 62
7
 10
3519.022
 20
-4939.730
 30
1727.000
 70
    32
  0
VERTEX
  8
3500LEVEL
 62
7
 10
3519.962
 20
-4943.870
 30
1727.000
 70
    32
  0
VERTEX
  8
3500LEVEL
 62
7
 10
3520.396
 20
-4946.715
 30
1727.000
 70
    32
  0
VERTEX
  8
3500LEVEL
 62
7
 10
3521.002
 20
-4951.970
 30
1727.000
 70
    32
  0
VERTEX
  8
3500LEVEL
 62
7
 10
3520.988
 20
-4953.805
 30
1727.000
 70
    32
  0
VERTEX
  8
3500LEVEL
 62
7
 10
3520.746
 20
-4955.242
 30
1727.000
 70
    32
  0
VERTEX
  8
3500LEVEL
 62
7
 10
3520.052
 20
-4955.740
 30
1727.000
 70
    32
  0
VERTEX
  8
3500LEVEL
 62
7
 10
3518.751
 20
-4954.091
 30
1727.000
 70
    32
  0
VERTEX
  8
3500LEVEL
 62
7
 10
3518.184
 20
-4952.582
 30
1727.000
 70
    32
  0
VERTEX
  8
3500LEVEL
 62
7
 10
3517.156
 20
-4951.899
 30
1727.000
 70
    32
  0
VERTEX
  8
3500LEVEL
 62
7
 10
3516.058
 20
-4953.508
 30
1727.000
 70
    32
  0
VERTEX
  8
3500LEVEL
 62
7
 10
3515.079
 20
-4956.359
 30
1727.000
 70
    32
  0
VERTEX
  8
3500LEVEL
 62
7
 10
3513.515
 20
-4961.973
 30
1727.000
 70
    32
  0
VERTEX
  8
3500LEVEL
 62
7
 10
3512.907
 20
-4965.971
 30
1727.000
 70
    32
  0
VERTEX
  8
3500LEVEL
 62
7
 10
3512.935
 20
-4968.444
 30
1727.000
 70
    32
  0
VERTEX
  8
3500LEVEL
 62
7
 10
3512.342
 20
-4969.052
 30
1727.000
 70
    32
  0
VERTEX
  8
3500LEVEL
 62
7
 10
3511.391
 20
-4968.232
 30
1727.000
 70
    32
  0
VERTEX
  8
3500LEVEL
 62
7
 10
3510.105
 20
-4966.230
 30
1727.000
 70
    32
  0
VERTEX
  8
3500LEVEL
 62
7
 10
3509.148
 20
-4965.551
 30
1727.000
 70
    32
  0
VERTEX
  8
3500LEVEL
 62
7
 10
3508.824
 20
-4966.454
 30
1727.000
 70
    32
  0
VERTEX
  8
3500LEVEL
 62
7
 10
3507.576
 20
-4970.564
 30
1727.000
 70
    32
  0
VERTEX
  8
3500LEVEL
 62
7
 10
3507.461
 20
-4972.289
 30
1727.000
 70
    32
  0
VERTEX
  8
3500LEVEL
 62
7
 10
3506.297
 20
-4974.566
 30
1727.000
 70
    32
  0
VERTEX
  8
3500LEVEL
 62
7
 10
3504.611
 20
-4973.606
 30
1727.000
 70
    32
  0
VERTEX
  8
3500LEVEL
 62
7
 10
3501.345
 20
-4969.359
 30
1727.000
 70
    32
  0
VERTEX
  8
3500LEVEL
 62
7
 10
3498.768
 20
-4965.497
 30
1727.000
 70
    32
  0
VERTEX
  8
3500LEVEL
 62
7
 10
3497.097
 20
-4961.889
 30
1727.000
 70
    32
  0
VERTEX
  8
3500LEVEL
 62
7
 10
3495.224
 20
-4957.318
 30
1727.000
 70
    32
  0
VERTEX
  8
3500LEVEL
 62
7
 10
3494.730
 20
-4955.000
 30
1727.000
 70
    32
  0
VERTEX
  8
3500LEVEL
 62
7
 10
3493.762
 20
-4949.941
 30
1727.000
 70
    32
  0
VERTEX
  8
3500LEVEL
 62
7
 10
3492.669
 20
-4946.818
 30
1727.000
 70
    32
  0
VERTEX
  8
3500LEVEL
 62
7
 10
3490.797
 20
-4942.989
 30
1727.000
 70
    32
  0
VERTEX
  8
3500LEVEL
 62
7
 10
3488.417
 20
-4940.231
 30
1727.000
 70
    32
  0
VERTEX
  8
3500LEVEL
 62
7
 10
3486.240
 20
-4939.177
 30
1727.000
 70
    32
  0
VERTEX
  8
3500LEVEL
 62
7
 10
3484.350
 20
-4938.808
 30
1727.000
 70
    32
  0
VERTEX
  8
3500LEVEL
 62
7
 10
3483.342
 20
-4939.997
 30
1727.000
 70
    32
  0
VERTEX
  8
3500LEVEL
 62
7
 10
3482.391
 20
-4941.472
 30
1727.000
 70
    32
  0
VERTEX
  8
3500LEVEL
 62
7
 10
3480.386
 20
-4942.086
 30
1727.000
 70
    32
  0
VERTEX
  8
3500LEVEL
 62
7
 10
3478.500
 20
-4940.093
 30
1727.000
 70
    32
  0
VERTEX
  8
3500LEVEL
 62
7
 10
3477.587
 20
-4938.426
 30
1727.000
 70
    32
  0
VERTEX
  8
3500LEVEL
 62
7
 10
3475.684
 20
-4936.043
 30
1727.000
 70
    32
  0
VERTEX
  8
3500LEVEL
 62
7
 10
3473.680
 20
-4933.550
 30
1727.000
 70
    32
  0
VERTEX
  8
3500LEVEL
 62
7
 10
3471.820
 20
-4930.992
 30
1727.000
 70
    32
  0
VERTEX
  8
3500LEVEL
 62
7
 10
3469.727
 20
-4928.106
 30
1727.000
 70
    32
  0
VERTEX
  8
3500LEVEL
 62
7
 10
3468.176
 20
-4925.739
 30
1727.000
 70
    32
  0
VERTEX
  8
3500LEVEL
 62
7
 10
3467.067
 20
-4924.523
 30
1727.000
 70
    32
  0
VERTEX
  8
3500LEVEL
 62
7
 10
3466.365
 20
-4924.420
 30
1727.000
 70
    32
  0
VERTEX
  8
3500LEVEL
 62
7
 10
3465.932
 20
-4926.166
 30
1727.000
 70
    32
  0
VERTEX
  8
3500LEVEL
 62
7
 10
3466.032
 20
-4930.126
 30
1727.000
 70
    32
  0
VERTEX
  8
3500LEVEL
 62
7
 10
3466.886
 20
-4934.615
 30
1727.000
 70
    32
  0
VERTEX
  8
3500LEVEL
 62
7
 10
3467.771
 20
-4938.399
 30
1727.000
 70
    32
  0
VERTEX
  8
3500LEVEL
 62
7
 10
3468.007
 20
-4940.952
 30
1727.000
 70
    32
  0
VERTEX
  8
3500LEVEL
 62
7
 10
3467.875
 20
-4942.288
 30
1727.000
 70
    32
  0
VERTEX
  8
3500LEVEL
 62
7
 10
3466.758
 20
-4942.767
 30
1727.000
 70
    32
  0
VERTEX
  8
3500LEVEL
 62
7
 10
3465.018
 20
-4941.451
 30
1727.000
 70
    32
  0
VERTEX
  8
3500LEVEL
 62
7
 10
3463.430
 20
-4939.117
 30
1727.000
 70
    32
  0
VERTEX
  8
3500LEVEL
 62
7
 10
3462.839
 20
-4937.360
 30
1727.000
 70
    32
  0
VERTEX
  8
3500LEVEL
 62
7
 10
3462.217
 20
-4936.307
 30
1727.000
 70
    32
  0
VERTEX
  8
3500LEVEL
 62
7
 10
3461.653
 20
-4936.281
 30
1727.000
 70
    32
  0
VERTEX
  8
3500LEVEL
 62
7
 10
3461.289
 20
-4937.289
 30
1727.000
 70
    32
  0
VERTEX
  8
3500LEVEL
 62
7
 10
3461.474
 20
-4939.416
 30
1727.000
 70
    32
  0
VERTEX
  8
3500LEVEL
 62
7
 10
3461.468
 20
-4940.299
 30
1727.000
 70
    32
  0
VERTEX
  8
3500LEVEL
 62
7
 10
3461.139
 20
-4942.085
 30
1727.000
 70
    32
  0
VERTEX
  8
3500LEVEL
 62
7
 10
3459.041
 20
-4941.635
 30
1727.000
 70
    32
  0
VERTEX
  8
3500LEVEL
 62
7
 10
3457.941
 20
-4940.207
 30
1727.000
 70
    32
  0
VERTEX
  8
3500LEVEL
 62
7
 10
3454.704
 20
-4936.880
 30
1727.000
 70
    32
  0
VERTEX
  8
3500LEVEL
 62
7
 10
3453.457
 20
-4935.587
 30
1727.000
 70
    32
  0
VERTEX
  8
3500LEVEL
 62
7
 10
3451.212
 20
-4933.718
 30
1727.000
 70
    32
  0
VERTEX
  8
3500LEVEL
 62
7
 10
3450.449
 20
-4933.400
 30
1727.000
 70
    32
  0
VERTEX
  8
3500LEVEL
 62
7
 10
3449.704
 20
-4935.026
 30
1727.000
 70
    32
  0
VERTEX
  8
3500LEVEL
 62
7
 10
3450.523
 20
-4937.182
 30
1727.000
 70
    32
  0
VERTEX
  8
3500LEVEL
 62
7
 10
3451.507
 20
-4941.889
 30
1727.000
 70
    32
  0
VERTEX
  8
3500LEVEL
 62
7
 10
3452.427
 20
-4946.452
 30
1727.000
 70
    32
  0
VERTEX
  8
3500LEVEL
 62
7
 10
3452.970
 20
-4950.008
 30
1727.000
 70
    32
  0
VERTEX
  8
3500LEVEL
 62
7
 10
3452.935
 20
-4953.079
 30
1727.000
 70
    32
  0
VERTEX
  8
3500LEVEL
 62
7
 10
3453.055
 20
-4956.616
 30
1727.000
 70
    32
  0
VERTEX
  8
3500LEVEL
 62
7
 10
3452.285
 20
-4959.547
 30
1727.000
 70
    32
  0
SEQEND
  8
3500LEVEL
  0
POLYLINE
  8
3500LEVEL
 62
13
 66
     1
 70
     8
  0
VERTEX
  8
3500LEVEL
 62
13
 10
4300.866
 20
-5137.192
 30
1727.000
 70
    32
  0
VERTEX
  8
3500LEVEL
 62
13
 10
4304.238
 20
-5138.095
 30
1727.000
 70
    32
  0
VERTEX
  8
3500LEVEL
 62
13
 10
4306.793
 20
-5138.600
 30
1727.000
 70
    32
  0
VERTEX
  8
3500LEVEL
 62
13
 10
4310.100
 20
-5139.635
 30
1727.000
 70
    32
  0
VERTEX
  8
3500LEVEL
 62
13
 10
4315.325
 20
-5141.217
 30
1727.000
 70
    32
  0
VERTEX
  8
3500LEVEL
 62
13
 10
4318.778
 20
-5141.376
 30
1727.000
 70
    32
  0
VERTEX
  8
3500LEVEL
 62
13
 10
4321.079
 20
-5140.493
 30
1727.000
 70
    32
  0
VERTEX
  8
3500LEVEL
 62
13
 10
4322.545
 20
-5137.806
 30
1727.000
 70
    32
  0
VERTEX
  8
3500LEVEL
 62
13
 10
4323.394
 20
-5133.925
 30
1727.000
 70
    32
  0
VERTEX
  8
3500LEVEL
 62
13
 10
4323.101
 20
-5131.086
 30
1727.000
 70
    32
  0
VERTEX
  8
3500LEVEL
 62
13
 10
4322.396
 20
-5127.205
 30
1727.000
 70
    32
  0
VERTEX
  8
3500LEVEL
 62
13
 10
4321.082
 20
-5121.988
 30
1727.000
 70
    32
  0
VERTEX
  8
3500LEVEL
 62
13
 10
4317.476
 20
-5112.853
 30
1727.000
 70
    32
  0
VERTEX
  8
3500LEVEL
 62
13
 10
4311.020
 20
-5098.889
 30
1727.000
 70
    32
  0
VERTEX
  8
3500LEVEL
 62
13
 10
4304.682
 20
-5087.721
 30
1727.000
 70
    32
  0
VERTEX
  8
3500LEVEL
 62
13
 10
4297.052
 20
-5078.541
 30
1727.000
 70
    32
  0
VERTEX
  8
3500LEVEL
 62
13
 10
4285.318
 20
-5064.936
 30
1727.000
 70
    32
  0
VERTEX
  8
3500LEVEL
 62
13
 10
4272.534
 20
-5050.328
 30
1727.000
 70
    32
  0
VERTEX
  8
3500LEVEL
 62
13
 10
4265.725
 20
-5040.198
 30
1727.000
 70
    32
  0
VERTEX
  8
3500LEVEL
 62
13
 10
4258.185
 20
-5028.303
 30
1727.000
 70
    32
  0
VERTEX
  8
3500LEVEL
 62
13
 10
4250.358
 20
-5015.724
 30
1727.000
 70
    32
  0
VERTEX
  8
3500LEVEL
 62
13
 10
4243.802
 20
-5004.687
 30
1727.000
 70
    32
  0
VERTEX
  8
3500LEVEL
 62
13
 10
4231.696
 20
-4987.639
 30
1727.000
 70
    32
  0
VERTEX
  8
3500LEVEL
 62
13
 10
4220.471
 20
-4973.703
 30
1727.000
 70
    32
  0
VERTEX
  8
3500LEVEL
 62
13
 10
4208.690
 20
-4958.789
 30
1727.000
 70
    32
  0
VERTEX
  8
3500LEVEL
 62
13
 10
4198.652
 20
-4944.378
 30
1727.000
 70
    32
  0
VERTEX
  8
3500LEVEL
 62
13
 10
4187.097
 20
-4927.637
 30
1727.000
 70
    32
  0
VERTEX
  8
3500LEVEL
 62
13
 10
4176.349
 20
-4910.228
 30
1727.000
 70
    32
  0
VERTEX
  8
3500LEVEL
 62
13
 10
4170.508
 20
-4899.012
 30
1727.000
 70
    32
  0
VERTEX
  8
3500LEVEL
 62
13
 10
4168.297
 20
-4893.330
 30
1727.000
 70
    32
  0
VERTEX
  8
3500LEVEL
 62
13
 10
4169.428
 20
-4893.312
 30
1727.000
 70
    32
  0
VERTEX
  8
3500LEVEL
 62
13
 10
4172.262
 20
-4896.196
 30
1727.000
 70
    32
  0
VERTEX
  8
3500LEVEL
 62
13
 10
4176.506
 20
-4901.442
 30
1727.000
 70
    32
  0
VERTEX
  8
3500LEVEL
 62
13
 10
4181.134
 20
-4907.552
 30
1727.000
 70
    32
  0
VERTEX
  8
3500LEVEL
 62
13
 10
4189.152
 20
-4918.268
 30
1727.000
 70
    32
  0
VERTEX
  8
3500LEVEL
 62
13
 10
4197.142
 20
-4930.359
 30
1727.000
 70
    32
  0
VERTEX
  8
3500LEVEL
 62
13
 10
4214.041
 20
-4953.773
 30
1727.000
 70
    32
  0
VERTEX
  8
3500LEVEL
 62
13
 10
4228.673
 20
-4975.811
 30
1727.000
 70
    32
  0
VERTEX
  8
3500LEVEL
 62
13
 10
4243.874
 20
-4995.438
 30
1727.000
 70
    32
  0
VERTEX
  8
3500LEVEL
 62
13
 10
4257.369
 20
-5012.233
 30
1727.000
 70
    32
  0
VERTEX
  8
3500LEVEL
 62
13
 10
4267.366
 20
-5026.006
 30
1727.000
 70
    32
  0
VERTEX
  8
3500LEVEL
 62
13
 10
4274.880
 20
-5036.169
 30
1727.000
 70
    32
  0
VERTEX
  8
3500LEVEL
 62
13
 10
4282.766
 20
-5045.925
 30
1727.000
 70
    32
  0
VERTEX
  8
3500LEVEL
 62
13
 10
4291.777
 20
-5056.545
 30
1727.000
 70
    32
  0
VERTEX
  8
3500LEVEL
 62
13
 10
4301.858
 20
-5068.486
 30
1727.000
 70
    32
  0
VERTEX
  8
3500LEVEL
 62
13
 10
4313.500
 20
-5082.582
 30
1727.000
 70
    32
  0
VERTEX
  8
3500LEVEL
 62
13
 10
4321.366
 20
-5090.465
 30
1727.000
 70
    32
  0
VERTEX
  8
3500LEVEL
 62
13
 10
4323.923
 20
-5092.455
 30
1727.000
 70
    32
  0
VERTEX
  8
3500LEVEL
 62
13
 10
4324.050
 20
-5092.001
 30
1727.000
 70
    32
  0
VERTEX
  8
3500LEVEL
 62
13
 10
4323.005
 20
-5089.375
 30
1727.000
 70
    32
  0
VERTEX
  8
3500LEVEL
 62
13
 10
4317.556
 20
-5081.921
 30
1727.000
 70
    32
  0
VERTEX
  8
3500LEVEL
 62
13
 10
4309.187
 20
-5071.930
 30
1727.000
 70
    32
  0
VERTEX
  8
3500LEVEL
 62
13
 10
4300.888
 20
-5060.389
 30
1727.000
 70
    32
  0
VERTEX
  8
3500LEVEL
 62
13
 10
4294.044
 20
-5051.034
 30
1727.000
 70
    32
  0
VERTEX
  8
3500LEVEL
 62
13
 10
4288.379
 20
-5042.899
 30
1727.000
 70
    32
  0
VERTEX
  8
3500LEVEL
 62
13
 10
4283.080
 20
-5035.239
 30
1727.000
 70
    32
  0
VERTEX
  8
3500LEVEL
 62
13
 10
4278.662
 20
-5027.655
 30
1727.000
 70
    32
  0
VERTEX
  8
3500LEVEL
 62
13
 10
4270.658
 20
-5015.845
 30
1727.000
 70
    32
  0
VERTEX
  8
3500LEVEL
 62
13
 10
4262.318
 20
-5002.925
 30
1727.000
 70
    32
  0
VERTEX
  8
3500LEVEL
 62
13
 10
4253.250
 20
-4988.912
 30
1727.000
 70
    32
  0
VERTEX
  8
3500LEVEL
 62
13
 10
4243.319
 20
-4974.471
 30
1727.000
 70
    32
  0
VERTEX
  8
3500LEVEL
 62
13
 10
4232.758
 20
-4959.930
 30
1727.000
 70
    32
  0
VERTEX
  8
3500LEVEL
 62
13
 10
4224.736
 20
-4946.990
 30
1727.000
 70
    32
  0
VERTEX
  8
3500LEVEL
 62
13
 10
4222.885
 20
-4939.630
 30
1727.000
 70
    32
  0
VERTEX
  8
3500LEVEL
 62
13
 10
4223.592
 20
-4937.296
 30
1727.000
 70
    32
  0
VERTEX
  8
3500LEVEL
 62
13
 10
4225.401
 20
-4937.132
 30
1727.000
 70
    32
  0
VERTEX
  8
3500LEVEL
 62
13
 10
4228.412
 20
-4939.990
 30
1727.000
 70
    32
  0
VERTEX
  8
3500LEVEL
 62
13
 10
4234.860
 20
-4946.466
 30
1727.000
 70
    32
  0
VERTEX
  8
3500LEVEL
 62
13
 10
4242.538
 20
-4954.588
 30
1727.000
 70
    32
  0
VERTEX
  8
3500LEVEL
 62
13
 10
4247.387
 20
-4960.497
 30
1727.000
 70
    32
  0
VERTEX
  8
3500LEVEL
 62
13
 10
4255.636
 20
-4970.800
 30
1727.000
 70
    32
  0
VERTEX
  8
3500LEVEL
 62
13
 10
4264.696
 20
-4984.212
 30
1727.000
 70
    32
  0
VERTEX
  8
3500LEVEL
 62
13
 10
4271.115
 20
-4993.618
 30
1727.000
 70
    32
  0
VERTEX
  8
3500LEVEL
 62
13
 10
4281.947
 20
-5009.195
 30
1727.000
 70
    32
  0
VERTEX
  8
3500LEVEL
 62
13
 10
4290.527
 20
-5020.749
 30
1727.000
 70
    32
  0
VERTEX
  8
3500LEVEL
 62
13
 10
4298.421
 20
-5029.552
 30
1727.000
 70
    32
  0
VERTEX
  8
3500LEVEL
 62
13
 10
4305.298
 20
-5038.203
 30
1727.000
 70
    32
  0
VERTEX
  8
3500LEVEL
 62
13
 10
4313.633
 20
-5047.414
 30
1727.000
 70
    32
  0
VERTEX
  8
3500LEVEL
 62
13
 10
4323.038
 20
-5058.688
 30
1727.000
 70
    32
  0
VERTEX
  8
3500LEVEL
 62
13
 10
4334.298
 20
-5071.107
 30
1727.000
 70
    32
  0
VERTEX
  8
3500LEVEL
 62
13
 10
4344.608
 20
-5081.893
 30
1727.000
 70
    32
  0
VERTEX
  8
3500LEVEL
 62
13
 10
4359.672
 20
-5095.299
 30
1727.000
 70
    32
  0
VERTEX
  8
3500LEVEL
 62
13
 10
4369.786
 20
-5102.685
 30
1727.000
 70
    32
  0
VERTEX
  8
3500LEVEL
 62
13
 10
4376.685
 20
-5104.697
 30
1727.000
 70
    32
  0
VERTEX
  8
3500LEVEL
 62
13
 10
4380.858
 20
-5103.053
 30
1727.000
 70
    32
  0
VERTEX
  8
3500LEVEL
 62
13
 10
4383.292
 20
-5100.022
 30
1727.000
 70
    32
  0
VERTEX
  8
3500LEVEL
 62
13
 10
4385.616
 20
-5094.796
 30
1727.000
 70
    32
  0
VERTEX
  8
3500LEVEL
 62
13
 10
4387.353
 20
-5087.742
 30
1727.000
 70
    32
  0
VERTEX
  8
3500LEVEL
 62
13
 10
4387.113
 20
-5080.668
 30
1727.000
 70
    32
  0
VERTEX
  8
3500LEVEL
 62
13
 10
4385.430
 20
-5067.348
 30
1727.000
 70
    32
  0
VERTEX
  8
3500LEVEL
 62
13
 10
4381.198
 20
-5051.085
 30
1727.000
 70
    32
  0
VERTEX
  8
3500LEVEL
 62
13
 10
4376.995
 20
-5034.188
 30
1727.000
 70
    32
  0
VERTEX
  8
3500LEVEL
 62
13
 10
4373.871
 20
-5026.099
 30
1727.000
 70
    32
  0
VERTEX
  8
3500LEVEL
 62
13
 10
4367.488
 20
-5012.068
 30
1727.000
 70
    32
  0
VERTEX
  8
3500LEVEL
 62
13
 10
4358.955
 20
-4996.420
 30
1727.000
 70
    32
  0
VERTEX
  8
3500LEVEL
 62
13
 10
4351.964
 20
-4985.645
 30
1727.000
 70
    32
  0
VERTEX
  8
3500LEVEL
 62
13
 10
4345.308
 20
-4975.239
 30
1727.000
 70
    32
  0
VERTEX
  8
3500LEVEL
 62
13
 10
4332.701
 20
-4957.567
 30
1727.000
 70
    32
  0
VERTEX
  8
3500LEVEL
 62
13
 10
4316.814
 20
-4935.189
 30
1727.000
 70
    32
  0
VERTEX
  8
3500LEVEL
 62
13
 10
4308.102
 20
-4921.122
 30
1727.000
 70
    32
  0
VERTEX
  8
3500LEVEL
 62
13
 10
4297.126
 20
-4903.313
 30
1727.000
 70
    32
  0
VERTEX
  8
3500LEVEL
 62
13
 10
4286.251
 20
-4884.061
 30
1727.000
 70
    32
  0
VERTEX
  8
3500LEVEL
 62
13
 10
4280.069
 20
-4874.101
 30
1727.000
 70
    32
  0
VERTEX
  8
3500LEVEL
 62
13
 10
4268.679
 20
-4857.615
 30
1727.000
 70
    32
  0
VERTEX
  8
3500LEVEL
 62
13
 10
4257.951
 20
-4839.782
 30
1727.000
 70
    32
  0
VERTEX
  8
3500LEVEL
 62
13
 10
4250.058
 20
-4827.872
 30
1727.000
 70
    32
  0
VERTEX
  8
3500LEVEL
 62
13
 10
4241.006
 20
-4812.765
 30
1727.000
 70
    32
  0
VERTEX
  8
3500LEVEL
 62
13
 10
4232.437
 20
-4797.892
 30
1727.000
 70
    32
  0
VERTEX
  8
3500LEVEL
 62
13
 10
4226.969
 20
-4785.457
 30
1727.000
 70
    32
  0
VERTEX
  8
3500LEVEL
 62
13
 10
4219.962
 20
-4762.745
 30
1727.000
 70
    32
  0
VERTEX
  8
3500LEVEL
 62
13
 10
4214.854
 20
-4744.782
 30
1727.000
 70
    32
  0
VERTEX
  8
3500LEVEL
 62
13
 10
4206.161
 20
-4719.557
 30
1727.000
 70
    32
  0
VERTEX
  8
3500LEVEL
 62
13
 10
4198.359
 20
-4695.678
 30
1727.000
 70
    32
  0
VERTEX
  8
3500LEVEL
 62
13
 10
4138.578
 20
-4581.538
 30
1727.000
 70
    32
  0
VERTEX
  8
3500LEVEL
 62
13
 10
4108.204
 20
-4490.918
 30
1727.000
 70
    32
  0
VERTEX
  8
3500LEVEL
 62
13
 10
4095.519
 20
-4433.147
 30
1727.000
 70
    32
  0
SEQEND
  8
3500LEVEL
  0
POLYLINE
  8
3500LEVEL
 62
13
 66
     1
 70
     8
  0
VERTEX
  8
3500LEVEL
 62
13
 10
3462.832
 20
-5012.050
 30
1727.000
 70
    32
  0
VERTEX
  8
3500LEVEL
 62
13
 10
3463.536
 20
-5013.636
 30
1727.000
 70
    32
  0
VERTEX
  8
3500LEVEL
 62
13
 10
3466.221
 20
-5019.763
 30
1727.000
 70
    32
  0
VERTEX
  8
3500LEVEL
 62
13
 10
3469.813
 20
-5026.885
 30
1727.000
 70
    32
  0
VERTEX
  8
3500LEVEL
 62
13
 10
3475.627
 20
-5035.628
 30
1727.000
 70
    32
  0
VERTEX
  8
3500LEVEL
 62
13
 10
3480.321
 20
-5043.366
 30
1727.000
 70
    32
  0
VERTEX
  8
3500LEVEL
 62
13
 10
3484.901
 20
-5048.980
 30
1727.000
 70
    32
  0
VERTEX
  8
3500LEVEL
 62
13
 10
3486.644
 20
-5051.779
 30
1727.000
 70
    32
  0
VERTEX
  8
3500LEVEL
 62
13
 10
3487.060
 20
-5053.493
 30
1727.000
 70
    32
  0
VERTEX
  8
3500LEVEL
 62
13
 10
3485.770
 20
-5053.116
 30
1727.000
 70
    32
  0
VERTEX
  8
3500LEVEL
 62
13
 10
3484.472
 20
-5051.397
 30
1727.000
 70
    32
  0
VERTEX
  8
3500LEVEL
 62
13
 10
3482.237
 20
-5049.316
 30
1727.000
 70
    32
  0
VERTEX
  8
3500LEVEL
 62
13
 10
3481.654
 20
-5049.713
 30
1727.000
 70
    32
  0
VERTEX
  8
3500LEVEL
 62
13
 10
3482.964
 20
-5056.554
 30
1727.000
 70
    32
  0
VERTEX
  8
3500LEVEL
 62
13
 10
3490.291
 20
-5069.251
 30
1727.000
 70
    32
  0
VERTEX
  8
3500LEVEL
 62
13
 10
3498.868
 20
-5080.875
 30
1727.000
 70
    32
  0
VERTEX
  8
3500LEVEL
 62
13
 10
3506.572
 20
-5090.729
 30
1727.000
 70
    32
  0
VERTEX
  8
3500LEVEL
 62
13
 10
3517.016
 20
-5100.921
 30
1727.000
 70
    32
  0
VERTEX
  8
3500LEVEL
 62
13
 10
3527.611
 20
-5109.353
 30
1727.000
 70
    32
  0
VERTEX
  8
3500LEVEL
 62
13
 10
3533.606
 20
-5114.149
 30
1727.000
 70
    32
  0
VERTEX
  8
3500LEVEL
 62
13
 10
3539.430
 20
-5121.127
 30
1727.000
 70
    32
  0
VERTEX
  8
3500LEVEL
 62
13
 10
3544.264
 20
-5128.129
 30
1727.000
 70
    32
  0
VERTEX
  8
3500LEVEL
 62
13
 10
3552.682
 20
-5138.616
 30
1727.000
 70
    32
  0
VERTEX
  8
3500LEVEL
 62
13
 10
3559.868
 20
-5147.457
 30
1727.000
 70
    32
  0
VERTEX
  8
3500LEVEL
 62
13
 10
3567.798
 20
-5157.781
 30
1727.000
 70
    32
  0
VERTEX
  8
3500LEVEL
 62
13
 10
3576.695
 20
-5167.831
 30
1727.000
 70
    32
  0
VERTEX
  8
3500LEVEL
 62
13
 10
3583.659
 20
-5176.132
 30
1727.000
 70
    32
  0
VERTEX
  8
3500LEVEL
 62
13
 10
3587.962
 20
-5180.850
 30
1727.000
 70
    32
  0
VERTEX
  8
3500LEVEL
 62
13
 10
3590.357
 20
-5184.068
 30
1727.000
 70
    32
  0
VERTEX
  8
3500LEVEL
 62
13
 10
3592.036
 20
-5186.723
 30
1727.000
 70
    32
  0
VERTEX
  8
3500LEVEL
 62
13
 10
3591.686
 20
-5188.190
 30
1727.000
 70
    32
  0
VERTEX
  8
3500LEVEL
 62
13
 10
3589.316
 20
-5187.516
 30
1727.000
 70
    32
  0
VERTEX
  8
3500LEVEL
 62
13
 10
3587.029
 20
-5186.563
 30
1727.000
 70
    32
  0
VERTEX
  8
3500LEVEL
 62
13
 10
3586.113
 20
-5187.263
 30
1727.000
 70
    32
  0
VERTEX
  8
3500LEVEL
 62
13
 10
3588.454
 20
-5190.125
 30
1727.000
 70
    32
  0
VERTEX
  8
3500LEVEL
 62
13
 10
3592.645
 20
-5195.756
 30
1727.000
 70
    32
  0
VERTEX
  8
3500LEVEL
 62
13
 10
3594.959
 20
-5199.182
 30
1727.000
 70
    32
  0
VERTEX
  8
3500LEVEL
 62
13
 10
3595.304
 20
-5200.893
 30
1727.000
 70
    32
  0
VERTEX
  8
3500LEVEL
 62
13
 10
3594.077
 20
-5201.472
 30
1727.000
 70
    32
  0
VERTEX
  8
3500LEVEL
 62
13
 10
3591.299
 20
-5199.685
 30
1727.000
 70
    32
  0
VERTEX
  8
3500LEVEL
 62
13
 10
3589.366
 20
-5197.936
 30
1727.000
 70
    32
  0
VERTEX
  8
3500LEVEL
 62
13
 10
3587.774
 20
-5197.227
 30
1727.000
 70
    32
  0
VERTEX
  8
3500LEVEL
 62
13
 10
3588.435
 20
-5198.988
 30
1727.000
 70
    32
  0
VERTEX
  8
3500LEVEL
 62
13
 10
3590.547
 20
-5203.747
 30
1727.000
 70
    32
  0
VERTEX
  8
3500LEVEL
 62
13
 10
3591.177
 20
-5206.954
 30
1727.000
 70
    32
  0
VERTEX
  8
3500LEVEL
 62
13
 10
3590.671
 20
-5207.955
 30
1727.000
 70
    32
  0
VERTEX
  8
3500LEVEL
 62
13
 10
3589.709
 20
-5208.158
 30
1727.000
 70
    32
  0
VERTEX
  8
3500LEVEL
 62
13
 10
3588.276
 20
-5208.586
 30
1727.000
 70
    32
  0
VERTEX
  8
3500LEVEL
 62
13
 10
3588.294
 20
-5211.271
 30
1727.000
 70
    32
  0
VERTEX
  8
3500LEVEL
 62
13
 10
3590.070
 20
-5217.957
 30
1727.000
 70
    32
  0
VERTEX
  8
3500LEVEL
 62
13
 10
3593.009
 20
-5225.473
 30
1727.000
 70
    32
  0
VERTEX
  8
3500LEVEL
 62
13
 10
3596.771
 20
-5233.521
 30
1727.000
 70
    32
  0
VERTEX
  8
3500LEVEL
 62
13
 10
3598.970
 20
-5237.930
 30
1727.000
 70
    32
  0
VERTEX
  8
3500LEVEL
 62
13
 10
3602.910
 20
-5244.397
 30
1727.000
 70
    32
  0
VERTEX
  8
3500LEVEL
 62
13
 10
3605.721
 20
-5249.329
 30
1727.000
 70
    32
  0
VERTEX
  8
3500LEVEL
 62
13
 10
3608.570
 20
-5253.415
 30
1727.000
 70
    32
  0
VERTEX
  8
3500LEVEL
 62
13
 10
3611.666
 20
-5258.290
 30
1727.000
 70
    32
  0
VERTEX
  8
3500LEVEL
 62
13
 10
3615.612
 20
-5266.170
 30
1727.000
 70
    32
  0
VERTEX
  8
3500LEVEL
 62
13
 10
3617.245
 20
-5269.812
 30
1727.000
 70
    32
  0
VERTEX
  8
3500LEVEL
 62
13
 10
3619.205
 20
-5275.588
 30
1727.000
 70
    32
  0
VERTEX
  8
3500LEVEL
 62
13
 10
3622.908
 20
-5282.609
 30
1727.000
 70
    32
  0
VERTEX
  8
3500LEVEL
 62
13
 10
3627.026
 20
-5289.049
 30
1727.000
 70
    32
  0
VERTEX
  8
3500LEVEL
 62
13
 10
3631.264
 20
-5294.435
 30
1727.000
 70
    32
  0
VERTEX
  8
3500LEVEL
 62
13
 10
3632.565
 20
-5296.084
 30
1727.000
 70
    32
  0
VERTEX
  8
3500LEVEL
 62
13
 10
3687.565
 20
-5398.827
 30
1727.000
 70
    32
  0
SEQEND
  8
3500LEVEL
  0
POLYLINE
  8
3500LEVEL
 62
13
 66
     1
 70
     9
  0
VERTEX
  8
3500LEVEL
 62
13
 10
3563.121
 20
-4649.528
 30
1727.000
 70
    32
  0
VERTEX
  8
3500LEVEL
 62
13
 10
3565.980
 20
-4655.698
 30
1727.000
 70
    32
  0
VERTEX
  8
3500LEVEL
 62
13
 10
3567.898
 20
-4658.541
 30
1727.000
 70
    32
  0
VERTEX
  8
3500LEVEL
 62
13
 10
3569.377
 20
-4662.458
 30
1727.000
 70
    32
  0
VERTEX
  8
3500LEVEL
 62
13
 10
3570.165
 20
-4666.061
 30
1727.000
 70
    32
  0
VERTEX
  8
3500LEVEL
 62
13
 10
3569.744
 20
-4666.784
 30
1727.000
 70
    32
  0
VERTEX
  8
3500LEVEL
 62
13
 10
3568.110
 20
-4665.437
 30
1727.000
 70
    32
  0
VERTEX
  8
3500LEVEL
 62
13
 10
3564.421
 20
-4658.876
 30
1727.000
 70
    32
  0
VERTEX
  8
3500LEVEL
 62
13
 10
3560.916
 20
-4653.700
 30
1727.000
 70
    32
  0
VERTEX
  8
3500LEVEL
 62
13
 10
3555.800
 20
-4646.684
 30
1727.000
 70
    32
  0
VERTEX
  8
3500LEVEL
 62
13
 10
3552.024
 20
-4638.176
 30
1727.000
 70
    32
  0
VERTEX
  8
3500LEVEL
 62
13
 10
3549.706
 20
-4632.525
 30
1727.000
 70
    32
  0
VERTEX
  8
3500LEVEL
 62
13
 10
3548.443
 20
-4627.735
 30
1727.000
 70
    32
  0
VERTEX
  8
3500LEVEL
 62
13
 10
3547.450
 20
-4623.982
 30
1727.000
 70
    32
  0
VERTEX
  8
3500LEVEL
 62
13
 10
3547.303
 20
-4622.562
 30
1727.000
 70
    32
  0
VERTEX
  8
3500LEVEL
 62
13
 10
3547.728
 20
-4621.770
 30
1727.000
 70
    32
  0
VERTEX
  8
3500LEVEL
 62
13
 10
3549.181
 20
-4623.955
 30
1727.000
 70
    32
  0
VERTEX
  8
3500LEVEL
 62
13
 10
3551.577
 20
-4629.468
 30
1727.000
 70
    32
  0
VERTEX
  8
3500LEVEL
 62
13
 10
3553.802
 20
-4634.056
 30
1727.000
 70
    32
  0
VERTEX
  8
3500LEVEL
 62
13
 10
3556.288
 20
-4639.149
 30
1727.000
 70
    32
  0
VERTEX
  8
3500LEVEL
 62
13
 10
3558.802
 20
-4643.609
 30
1727.000
 70
    32
  0
VERTEX
  8
3500LEVEL
 62
13
 10
3559.832
 20
-4645.775
 30
1727.000
 70
    32
  0
SEQEND
  8
3500LEVEL
  0
POLYLINE
  8
3500LEVEL
 62
13
 66
     1
 70
     9
  0
VERTEX
  8
3500LEVEL
 62
13
 10
3462.572
 20
-4781.080
 30
1727.000
 70
    32
  0
VERTEX
  8
3500LEVEL
 62
13
 10
3463.207
 20
-4785.700
 30
1727.000
 70
    32
  0
VERTEX
  8
3500LEVEL
 62
13
 10
3463.980
 20
-4790.397
 30
1727.000
 70
    32
  0
VERTEX
  8
3500LEVEL
 62
13
 10
3464.066
 20
-4791.602
 30
1727.000
 70
    32
  0
VERTEX
  8
3500LEVEL
 62
13
 10
3463.642
 20
-4793.136
 30
1727.000
 70
    32
  0
VERTEX
  8
3500LEVEL
 62
13
 10
3462.347
 20
-4791.346
 30
1727.000
 70
    32
  0
VERTEX
  8
3500LEVEL
 62
13
 10
3461.392
 20
-4788.301
 30
1727.000
 70
    32
  0
VERTEX
  8
3500LEVEL
 62
13
 10
3460.064
 20
-4782.624
 30
1727.000
 70
    32
  0
VERTEX
  8
3500LEVEL
 62
13
 10
3460.118
 20
-4779.131
 30
1727.000
 70
    32
  0
VERTEX
  8
3500LEVEL
 62
13
 10
3460.140
 20
-4775.600
 30
1727.000
 70
    32
  0
VERTEX
  8
3500LEVEL
 62
13
 10
3459.649
 20
-4773.212
 30
1727.000
 70
    32
  0
VERTEX
  8
3500LEVEL
 62
13
 10
3458.996
 20
-4772.052
 30
1727.000
 70
    32
  0
VERTEX
  8
3500LEVEL
 62
13
 10
3458.495
 20
-4773.724
 30
1727.000
 70
    32
  0
VERTEX
  8
3500LEVEL
 62
13
 10
3458.122
 20
-4779.533
 30
1727.000
 70
    32
  0
VERTEX
  8
3500LEVEL
 62
13
 10
3458.382
 20
-4784.631
 30
1727.000
 70
    32
  0
VERTEX
  8
3500LEVEL
 62
13
 10
3458.481
 20
-4787.107
 30
1727.000
 70
    32
  0
VERTEX
  8
3500LEVEL
 62
13
 10
3458.848
 20
-4792.174
 30
1727.000
 70
    32
  0
VERTEX
  8
3500LEVEL
 62
13
 10
3458.923
 20
-4795.144
 30
1727.000
 70
    32
  0
VERTEX
  8
3500LEVEL
 62
13
 10
3458.471
 20
-4797.313
 30
1727.000
 70
    32
  0
VERTEX
  8
3500LEVEL
 62
13
 10
3457.784
 20
-4798.411
 30
1727.000
 70
    32
  0
VERTEX
  8
3500LEVEL
 62
13
 10
3456.877
 20
-4797.416
 30
1727.000
 70
    32
  0
VERTEX
  8
3500LEVEL
 62
13
 10
3456.258
 20
-4794.739
 30
1727.000
 70
    32
  0
VERTEX
  8
3500LEVEL
 62
13
 10
3455.859
 20
-4791.119
 30
1727.000
 70
    32
  0
VERTEX
  8
3500LEVEL
 62
13
 10
3455.675
 20
-4787.437
 30
1727.000
 70
    32
  0
VERTEX
  8
3500LEVEL
 62
13
 10
3455.693
 20
-4783.977
 30
1727.000
 70
    32
  0
VERTEX
  8
3500LEVEL
 62
13
 10
3455.666
 20
-4779.950
 30
1727.000
 70
    32
  0
VERTEX
  8
3500LEVEL
 62
13
 10
3455.655
 20
-4777.125
 30
1727.000
 70
    32
  0
VERTEX
  8
3500LEVEL
 62
13
 10
3455.732
 20
-4770.842
 30
1727.000
 70
    32
  0
VERTEX
  8
3500LEVEL
 62
13
 10
3455.552
 20
-4765.537
 30
1727.000
 70
    32
  0
VERTEX
  8
3500LEVEL
 62
13
 10
3455.172
 20
-4760.752
 30
1727.000
 70
    32
  0
VERTEX
  8
3500LEVEL
 62
13
 10
3455.105
 20
-4759.124
 30
1727.000
 70
    32
  0
VERTEX
  8
3500LEVEL
 62
13
 10
3452.476
 20
-4754.094
 30
1727.000
 70
    32
  0
VERTEX
  8
3500LEVEL
 62
13
 10
3450.198
 20
-4750.635
 30
1727.000
 70
    32
  0
VERTEX
  8
3500LEVEL
 62
13
 10
3448.617
 20
-4748.161
 30
1727.000
 70
    32
  0
VERTEX
  8
3500LEVEL
 62
13
 10
3447.635
 20
-4747.233
 30
1727.000
 70
    32
  0
VERTEX
  8
3500LEVEL
 62
13
 10
3446.296
 20
-4747.171
 30
1727.000
 70
    32
  0
VERTEX
  8
3500LEVEL
 62
13
 10
3445.485
 20
-4747.911
 30
1727.000
 70
    32
  0
VERTEX
  8
3500LEVEL
 62
13
 10
3444.311
 20
-4751.953
 30
1727.000
 70
    32
  0
VERTEX
  8
3500LEVEL
 62
13
 10
3444.731
 20
-4756.634
 30
1727.000
 70
    32
  0
VERTEX
  8
3500LEVEL
 62
13
 10
3446.576
 20
-4760.286
 30
1727.000
 70
    32
  0
VERTEX
  8
3500LEVEL
 62
13
 10
3449.443
 20
-4764.761
 30
1727.000
 70
    32
  0
VERTEX
  8
3500LEVEL
 62
13
 10
3450.691
 20
-4768.350
 30
1727.000
 70
    32
  0
VERTEX
  8
3500LEVEL
 62
13
 10
3450.945
 20
-4772.035
 30
1727.000
 70
    32
  0
VERTEX
  8
3500LEVEL
 62
13
 10
3450.347
 20
-4775.821
 30
1727.000
 70
    32
  0
VERTEX
  8
3500LEVEL
 62
13
 10
3449.140
 20
-4780.568
 30
1727.000
 70
    32
  0
VERTEX
  8
3500LEVEL
 62
13
 10
3448.450
 20
-4785.587
 30
1727.000
 70
    32
  0
VERTEX
  8
3500LEVEL
 62
13
 10
3448.581
 20
-4787.358
 30
1727.000
 70
    32
  0
VERTEX
  8
3500LEVEL
 62
13
 10
3448.903
 20
-4789.563
 30
1727.000
 70
    32
  0
VERTEX
  8
3500LEVEL
 62
13
 10
3449.669
 20
-4793.659
 30
1727.000
 70
    32
  0
VERTEX
  8
3500LEVEL
 62
13
 10
3449.588
 20
-4797.717
 30
1727.000
 70
    32
  0
VERTEX
  8
3500LEVEL
 62
13
 10
3448.994
 20
-4799.879
 30
1727.000
 70
    32
  0
VERTEX
  8
3500LEVEL
 62
13
 10
3448.276
 20
-4801.682
 30
1727.000
 70
    32
  0
VERTEX
  8
3500LEVEL
 62
13
 10
3447.742
 20
-4801.764
 30
1727.000
 70
    32
  0
VERTEX
  8
3500LEVEL
 62
13
 10
3446.716
 20
-4800.269
 30
1727.000
 70
    32
  0
VERTEX
  8
3500LEVEL
 62
13
 10
3445.750
 20
-4794.397
 30
1727.000
 70
    32
  0
VERTEX
  8
3500LEVEL
 62
13
 10
3444.914
 20
-4788.002
 30
1727.000
 70
    32
  0
VERTEX
  8
3500LEVEL
 62
13
 10
3443.426
 20
-4781.189
 30
1727.000
 70
    32
  0
VERTEX
  8
3500LEVEL
 62
13
 10
3442.759
 20
-4773.424
 30
1727.000
 70
    32
  0
VERTEX
  8
3500LEVEL
 62
13
 10
3441.872
 20
-4766.603
 30
1727.000
 70
    32
  0
VERTEX
  8
3500LEVEL
 62
13
 10
3441.821
 20
-4762.327
 30
1727.000
 70
    32
  0
VERTEX
  8
3500LEVEL
 62
13
 10
3441.439
 20
-4756.801
 30
1727.000
 70
    32
  0
VERTEX
  8
3500LEVEL
 62
13
 10
3440.654
 20
-4750.832
 30
1727.000
 70
    32
  0
VERTEX
  8
3500LEVEL
 62
13
 10
3439.597
 20
-4744.638
 30
1727.000
 70
    32
  0
VERTEX
  8
3500LEVEL
 62
13
 10
3437.484
 20
-4737.584
 30
1727.000
 70
    32
  0
VERTEX
  8
3500LEVEL
 62
13
 10
3435.729
 20
-4733.513
 30
1727.000
 70
    32
  0
VERTEX
  8
3500LEVEL
 62
13
 10
3435.819
 20
-4733.094
 30
1727.000
 70
    32
  0
VERTEX
  8
3500LEVEL
 62
13
 10
3435.870
 20
-4731.224
 30
1727.000
 70
    32
  0
VERTEX
  8
3500LEVEL
 62
13
 10
3434.799
 20
-4726.867
 30
1727.000
 70
    32
  0
VERTEX
  8
3500LEVEL
 62
13
 10
3432.723
 20
-4719.779
 30
1727.000
 70
    32
  0
VERTEX
  8
3500LEVEL
 62
13
 10
3430.979
 20
-4713.942
 30
1727.000
 70
    32
  0
VERTEX
  8
3500LEVEL
 62
13
 10
3430.509
 20
-4708.023
 30
1727.000
 70
    32
  0
VERTEX
  8
3500LEVEL
 62
13
 10
3428.823
 20
-4699.364
 30
1727.000
 70
    32
  0
VERTEX
  8
3500LEVEL
 62
13
 10
3428.393
 20
-4694.895
 30
1727.000
 70
    32
  0
VERTEX
  8
3500LEVEL
 62
13
 10
3427.828
 20
-4691.832
 30
1727.000
 70
    32
  0
VERTEX
  8
3500LEVEL
 62
13
 10
3427.902
 20
-4687.915
 30
1727.000
 70
    32
  0
VERTEX
  8
3500LEVEL
 62
13
 10
3428.298
 20
-4686.203
 30
1727.000
 70
    32
  0
VERTEX
  8
3500LEVEL
 62
13
 10
3428.908
 20
-4685.242
 30
1727.000
 70
    32
  0
VERTEX
  8
3500LEVEL
 62
13
 10
3429.773
 20
-4684.858
 30
1727.000
 70
    32
  0
VERTEX
  8
3500LEVEL
 62
13
 10
3431.420
 20
-4686.664
 30
1727.000
 70
    32
  0
VERTEX
  8
3500LEVEL
 62
13
 10
3432.540
 20
-4689.965
 30
1727.000
 70
    32
  0
VERTEX
  8
3500LEVEL
 62
13
 10
3434.185
 20
-4696.432
 30
1727.000
 70
    32
  0
VERTEX
  8
3500LEVEL
 62
13
 10
3436.567
 20
-4704.523
 30
1727.000
 70
    32
  0
VERTEX
  8
3500LEVEL
 62
13
 10
3439.596
 20
-4711.619
 30
1727.000
 70
    32
  0
VERTEX
  8
3500LEVEL
 62
13
 10
3442.393
 20
-4718.387
 30
1727.000
 70
    32
  0
VERTEX
  8
3500LEVEL
 62
13
 10
3445.680
 20
-4723.694
 30
1727.000
 70
    32
  0
VERTEX
  8
3500LEVEL
 62
13
 10
3450.673
 20
-4731.092
 30
1727.000
 70
    32
  0
VERTEX
  8
3500LEVEL
 62
13
 10
3453.111
 20
-4736.431
 30
1727.000
 70
    32
  0
VERTEX
  8
3500LEVEL
 62
13
 10
3454.557
 20
-4740.311
 30
1727.000
 70
    32
  0
VERTEX
  8
3500LEVEL
 62
13
 10
3455.502
 20
-4743.569
 30
1727.000
 70
    32
  0
VERTEX
  8
3500LEVEL
 62
13
 10
3457.320
 20
-4748.596
 30
1727.000
 70
    32
  0
VERTEX
  8
3500LEVEL
 62
13
 10
3458.897
 20
-4752.695
 30
1727.000
 70
    32
  0
VERTEX
  8
3500LEVEL
 62
13
 10
3460.518
 20
-4755.065
 30
1727.000
 70
    32
  0
VERTEX
  8
3500LEVEL
 62
13
 10
3462.228
 20
-4757.827
 30
1727.000
 70
    32
  0
VERTEX
  8
3500LEVEL
 62
13
 10
3463.626
 20
-4761.211
 30
1727.000
 70
    32
  0
VERTEX
  8
3500LEVEL
 62
13
 10
3464.158
 20
-4764.237
 30
1727.000
 70
    32
  0
VERTEX
  8
3500LEVEL
 62
13
 10
3464.330
 20
-4766.646
 30
1727.000
 70
    32
  0
VERTEX
  8
3500LEVEL
 62
13
 10
3464.081
 20
-4768.224
 30
1727.000
 70
    32
  0
VERTEX
  8
3500LEVEL
 62
13
 10
3463.800
 20
-4771.248
 30
1727.000
 70
    32
  0
VERTEX
  8
3500LEVEL
 62
13
 10
3463.073
 20
-4774.005
 30
1727.000
 70
    32
  0
VERTEX
  8
3500LEVEL
 62
13
 10
3462.665
 20
-4776.740
 30
1727.000
 70
    32
  0
VERTEX
  8
3500LEVEL
 62
13
 10
3462.845
 20
-4778.197
 30
1727.000
 70
    32
  0
SEQEND
  8
3500LEVEL
  0
POLYLINE
  8
3500LEVEL
 62
13
 66
     1
 70
     8
  0
VERTEX
  8
3500LEVEL
 62
13
 10
4153.088
 20
-5005.372
 30
1727.000
 70
    32
  0
VERTEX
  8
3500LEVEL
 62
13
 10
4144.655
 20
-4993.562
 30
1727.000
 70
    32
  0
VERTEX
  8
3500LEVEL
 62
13
 10
4136.722
 20
-4983.309
 30
1727.000
 70
    32
  0
VERTEX
  8
3500LEVEL
 62
13
 10
4129.541
 20
-4973.585
 30
1727.000
 70
    32
  0
VERTEX
  8
3500LEVEL
 62
13
 10
4125.057
 20
-4965.115
 30
1727.000
 70
    32
  0
VERTEX
  8
3500LEVEL
 62
13
 10
4120.641
 20
-4957.461
 30
1727.000
 70
    32
  0
VERTEX
  8
3500LEVEL
 62
13
 10
4113.671
 20
-4947.747
 30
1727.000
 70
    32
  0
VERTEX
  8
3500LEVEL
 62
13
 10
4107.766
 20
-4937.940
 30
1727.000
 70
    32
  0
VERTEX
  8
3500LEVEL
 62
13
 10
4101.437
 20
-4928.114
 30
1727.000
 70
    32
  0
VERTEX
  8
3500LEVEL
 62
13
 10
4096.049
 20
-4920.874
 30
1727.000
 70
    32
  0
VERTEX
  8
3500LEVEL
 62
13
 10
4092.427
 20
-4916.682
 30
1727.000
 70
    32
  0
VERTEX
  8
3500LEVEL
 62
13
 10
4090.040
 20
-4914.065
 30
1727.000
 70
    32
  0
VERTEX
  8
3500LEVEL
 62
13
 10
4089.166
 20
-4913.107
 30
1727.000
 70
    32
  0
VERTEX
  8
3500LEVEL
 62
13
 10
4088.629
 20
-4914.812
 30
1727.000
 70
    32
  0
VERTEX
  8
3500LEVEL
 62
13
 10
4092.194
 20
-4921.757
 30
1727.000
 70
    32
  0
VERTEX
  8
3500LEVEL
 62
13
 10
4096.976
 20
-4929.887
 30
1727.000
 70
    32
  0
VERTEX
  8
3500LEVEL
 62
13
 10
4102.827
 20
-4938.596
 30
1727.000
 70
    32
  0
VERTEX
  8
3500LEVEL
 62
13
 10
4109.548
 20
-4948.334
 30
1727.000
 70
    32
  0
VERTEX
  8
3500LEVEL
 62
13
 10
4115.147
 20
-4957.138
 30
1727.000
 70
    32
  0
VERTEX
  8
3500LEVEL
 62
13
 10
4119.974
 20
-4965.835
 30
1727.000
 70
    32
  0
VERTEX
  8
3500LEVEL
 62
13
 10
4123.061
 20
-4970.109
 30
1727.000
 70
    32
  0
VERTEX
  8
3500LEVEL
 62
13
 10
4124.808
 20
-4972.838
 30
1727.000
 70
    32
  0
VERTEX
  8
3500LEVEL
 62
13
 10
4125.142
 20
-4974.018
 30
1727.000
 70
    32
  0
VERTEX
  8
3500LEVEL
 62
13
 10
4121.842
 20
-4973.584
 30
1727.000
 70
    32
  0
VERTEX
  8
3500LEVEL
 62
13
 10
4117.907
 20
-4970.084
 30
1727.000
 70
    32
  0
VERTEX
  8
3500LEVEL
 62
13
 10
4113.931
 20
-4966.687
 30
1727.000
 70
    32
  0
VERTEX
  8
3500LEVEL
 62
13
 10
4110.044
 20
-4964.425
 30
1727.000
 70
    32
  0
VERTEX
  8
3500LEVEL
 62
13
 10
4103.619
 20
-4961.176
 30
1727.000
 70
    32
  0
SEQEND
  8
3500LEVEL
  0
POLYLINE
  8
3500LEVEL
 62
13
 66
     1
 70
     8
  0
VERTEX
  8
3500LEVEL
 62
13
 10
3711.613
 20
-4943.145
 30
1727.000
 70
    32
  0
VERTEX
  8
3500LEVEL
 62
13
 10
3711.410
 20
-4942.182
 30
1727.000
 70
    32
  0
VERTEX
  8
3500LEVEL
 62
13
 10
3710.773
 20
-4940.669
 30
1727.000
 70
    32
  0
VERTEX
  8
3500LEVEL
 62
13
 10
3710.732
 20
-4940.032
 30
1727.000
 70
    32
  0
VERTEX
  8
3500LEVEL
 62
13
 10
3714.895
 20
-4940.894
 30
1727.000
 70
    32
  0
VERTEX
  8
3500LEVEL
 62
13
 10
3719.825
 20
-4945.041
 30
1727.000
 70
    32
  0
VERTEX
  8
3500LEVEL
 62
13
 10
3725.158
 20
-4949.629
 30
1727.000
 70
    32
  0
VERTEX
  8
3500LEVEL
 62
13
 10
3732.191
 20
-4954.897
 30
1727.000
 70
    32
  0
VERTEX
  8
3500LEVEL
 62
13
 10
3735.978
 20
-4957.790
 30
1727.000
 70
    32
  0
VERTEX
  8
3500LEVEL
 62
13
 10
3737.739
 20
-4959.425
 30
1727.000
 70
    32
  0
VERTEX
  8
3500LEVEL
 62
13
 10
3740.967
 20
-4962.963
 30
1727.000
 70
    32
  0
VERTEX
  8
3500LEVEL
 62
13
 10
3747.511
 20
-4968.879
 30
1727.000
 70
    32
  0
VERTEX
  8
3500LEVEL
 62
13
 10
3755.037
 20
-4974.169
 30
1727.000
 70
    32
  0
VERTEX
  8
3500LEVEL
 62
13
 10
3761.634
 20
-4978.145
 30
1727.000
 70
    32
  0
VERTEX
  8
3500LEVEL
 62
13
 10
3767.349
 20
-4982.116
 30
1727.000
 70
    32
  0
VERTEX
  8
3500LEVEL
 62
13
 10
3774.036
 20
-4987.226
 30
1727.000
 70
    32
  0
VERTEX
  8
3500LEVEL
 62
13
 10
3779.072
 20
-4990.601
 30
1727.000
 70
    32
  0
VERTEX
  8
3500LEVEL
 62
13
 10
3787.769
 20
-4997.322
 30
1727.000
 70
    32
  0
VERTEX
  8
3500LEVEL
 62
13
 10
3796.405
 20
-5004.570
 30
1727.000
 70
    32
  0
VERTEX
  8
3500LEVEL
 62
13
 10
3804.339
 20
-5010.973
 30
1727.000
 70
    32
  0
VERTEX
  8
3500LEVEL
 62
13
 10
3811.037
 20
-5016.614
 30
1727.000
 70
    32
  0
VERTEX
  8
3500LEVEL
 62
13
 10
3818.054
 20
-5022.233
 30
1727.000
 70
    32
  0
VERTEX
  8
3500LEVEL
 62
13
 10
3825.766
 20
-5028.839
 30
1727.000
 70
    32
  0
VERTEX
  8
3500LEVEL
 62
13
 10
3831.278
 20
-5033.400
 30
1727.000
 70
    32
  0
VERTEX
  8
3500LEVEL
 62
13
 10
3836.592
 20
-5038.412
 30
1727.000
 70
    32
  0
VERTEX
  8
3500LEVEL
 62
13
 10
3842.809
 20
-5043.748
 30
1727.000
 70
    32
  0
VERTEX
  8
3500LEVEL
 62
13
 10
3843.901
 20
-5044.575
 30
1727.000
 70
    32
  0
VERTEX
  8
3500LEVEL
 62
13
 10
3844.532
 20
-5044.675
 30
1727.000
 70
    32
  0
VERTEX
  8
3500LEVEL
 62
13
 10
3845.381
 20
-5042.348
 30
1727.000
 70
    32
  0
VERTEX
  8
3500LEVEL
 62
13
 10
3845.301
 20
-5038.706
 30
1727.000
 70
    32
  0
VERTEX
  8
3500LEVEL
 62
13
 10
3845.903
 20
-5037.145
 30
1727.000
 70
    32
  0
VERTEX
  8
3500LEVEL
 62
13
 10
3848.055
 20
-5035.655
 30
1727.000
 70
    32
  0
VERTEX
  8
3500LEVEL
 62
13
 10
3851.535
 20
-5035.991
 30
1727.000
 70
    32
  0
VERTEX
  8
3500LEVEL
 62
13
 10
3858.194
 20
-5040.182
 30
1727.000
 70
    32
  0
VERTEX
  8
3500LEVEL
 62
13
 10
3866.483
 20
-5048.085
 30
1727.000
 70
    32
  0
VERTEX
  8
3500LEVEL
 62
13
 10
3873.056
 20
-5053.367
 30
1727.000
 70
    32
  0
VERTEX
  8
3500LEVEL
 62
13
 10
3881.855
 20
-5059.386
 30
1727.000
 70
    32
  0
VERTEX
  8
3500LEVEL
 62
13
 10
3889.374
 20
-5062.522
 30
1727.000
 70
    32
  0
VERTEX
  8
3500LEVEL
 62
13
 10
3893.369
 20
-5063.200
 30
1727.000
 70
    32
  0
VERTEX
  8
3500LEVEL
 62
13
 10
3899.587
 20
-5063.132
 30
1727.000
 70
    32
  0
VERTEX
  8
3500LEVEL
 62
13
 10
3903.870
 20
-5061.387
 30
1727.000
 70
    32
  0
VERTEX
  8
3500LEVEL
 62
13
 10
3906.052
 20
-5060.004
 30
1727.000
 70
    32
  0
VERTEX
  8
3500LEVEL
 62
13
 10
3910.441
 20
-5057.486
 30
1727.000
 70
    32
  0
VERTEX
  8
3500LEVEL
 62
13
 10
3913.447
 20
-5056.636
 30
1727.000
 70
    32
  0
VERTEX
  8
3500LEVEL
 62
13
 10
3917.887
 20
-5056.840
 30
1727.000
 70
    32
  0
VERTEX
  8
3500LEVEL
 62
13
 10
3921.634
 20
-5058.283
 30
1727.000
 70
    32
  0
VERTEX
  8
3500LEVEL
 62
13
 10
3927.206
 20
-5060.764
 30
1727.000
 70
    32
  0
VERTEX
  8
3500LEVEL
 62
13
 10
3931.558
 20
-5062.130
 30
1727.000
 70
    32
  0
VERTEX
  8
3500LEVEL
 62
13
 10
3933.706
 20
-5062.264
 30
1727.000
 70
    32
  0
VERTEX
  8
3500LEVEL
 62
13
 10
3936.471
 20
-5062.038
 30
1727.000
 70
    32
  0
VERTEX
  8
3500LEVEL
 62
13
 10
3938.509
 20
-5060.719
 30
1727.000
 70
    32
  0
VERTEX
  8
3500LEVEL
 62
13
 10
3942.240
 20
-5056.370
 30
1727.000
 70
    32
  0
VERTEX
  8
3500LEVEL
 62
13
 10
3946.757
 20
-5051.845
 30
1727.000
 70
    32
  0
VERTEX
  8
3500LEVEL
 62
13
 10
3952.776
 20
-5049.191
 30
1727.000
 70
    32
  0
VERTEX
  8
3500LEVEL
 62
13
 10
3958.231
 20
-5048.065
 30
1727.000
 70
    32
  0
VERTEX
  8
3500LEVEL
 62
13
 10
3962.909
 20
-5047.715
 30
1727.000
 70
    32
  0
VERTEX
  8
3500LEVEL
 62
13
 10
3968.301
 20
-5049.481
 30
1727.000
 70
    32
  0
VERTEX
  8
3500LEVEL
 62
13
 10
3973.879
 20
-5053.375
 30
1727.000
 70
    32
  0
VERTEX
  8
3500LEVEL
 62
13
 10
3977.696
 20
-5056.375
 30
1727.000
 70
    32
  0
VERTEX
  8
3500LEVEL
 62
13
 10
3981.512
 20
-5062.484
 30
1727.000
 70
    32
  0
VERTEX
  8
3500LEVEL
 62
13
 10
3985.650
 20
-5070.796
 30
1727.000
 70
    32
  0
VERTEX
  8
3500LEVEL
 62
13
 10
3987.139
 20
-5076.056
 30
1727.000
 70
    32
  0
VERTEX
  8
3500LEVEL
 62
13
 10
3987.634
 20
-5081.411
 30
1727.000
 70
    32
  0
VERTEX
  8
3500LEVEL
 62
13
 10
3987.289
 20
-5083.550
 30
1727.000
 70
    32
  0
VERTEX
  8
3500LEVEL
 62
13
 10
3985.037
 20
-5085.671
 30
1727.000
 70
    32
  0
VERTEX
  8
3500LEVEL
 62
13
 10
3981.977
 20
-5086.166
 30
1727.000
 70
    32
  0
VERTEX
  8
3500LEVEL
 62
13
 10
3977.433
 20
-5085.922
 30
1727.000
 70
    32
  0
VERTEX
  8
3500LEVEL
 62
13
 10
3970.635
 20
-5084.762
 30
1727.000
 70
    32
  0
VERTEX
  8
3500LEVEL
 62
13
 10
3965.948
 20
-5083.769
 30
1727.000
 70
    32
  0
VERTEX
  8
3500LEVEL
 62
13
 10
3961.018
 20
-5083.472
 30
1727.000
 70
    32
  0
VERTEX
  8
3500LEVEL
 62
13
 10
3954.514
 20
-5083.597
 30
1727.000
 70
    32
  0
VERTEX
  8
3500LEVEL
 62
13
 10
3951.450
 20
-5083.421
 30
1727.000
 70
    32
  0
VERTEX
  8
3500LEVEL
 62
13
 10
3949.688
 20
-5083.340
 30
1727.000
 70
    32
  0
VERTEX
  8
3500LEVEL
 62
13
 10
3947.259
 20
-5083.934
 30
1727.000
 70
    32
  0
VERTEX
  8
3500LEVEL
 62
13
 10
3943.737
 20
-5086.810
 30
1727.000
 70
    32
  0
VERTEX
  8
3500LEVEL
 62
13
 10
3941.128
 20
-5089.797
 30
1727.000
 70
    32
  0
VERTEX
  8
3500LEVEL
 62
13
 10
3937.631
 20
-5095.958
 30
1727.000
 70
    32
  0
VERTEX
  8
3500LEVEL
 62
13
 10
3937.876
 20
-5102.149
 30
1727.000
 70
    32
  0
VERTEX
  8
3500LEVEL
 62
13
 10
3940.293
 20
-5111.018
 30
1727.000
 70
    32
  0
VERTEX
  8
3500LEVEL
 62
13
 10
3942.818
 20
-5117.562
 30
1727.000
 70
    32
  0
VERTEX
  8
3500LEVEL
 62
13
 10
3944.933
 20
-5122.250
 30
1727.000
 70
    32
  0
VERTEX
  8
3500LEVEL
 62
13
 10
3947.833
 20
-5130.611
 30
1727.000
 70
    32
  0
VERTEX
  8
3500LEVEL
 62
13
 10
3950.635
 20
-5138.792
 30
1727.000
 70
    32
  0
VERTEX
  8
3500LEVEL
 62
13
 10
3952.454
 20
-5144.561
 30
1727.000
 70
    32
  0
VERTEX
  8
3500LEVEL
 62
13
 10
3952.690
 20
-5149.410
 30
1727.000
 70
    32
  0
VERTEX
  8
3500LEVEL
 62
13
 10
3952.241
 20
-5153.804
 30
1727.000
 70
    32
  0
VERTEX
  8
3500LEVEL
 62
13
 10
3950.851
 20
-5159.461
 30
1727.000
 70
    32
  0
VERTEX
  8
3500LEVEL
 62
13
 10
3948.880
 20
-5165.445
 30
1727.000
 70
    32
  0
VERTEX
  8
3500LEVEL
 62
13
 10
3947.290
 20
-5171.622
 30
1727.000
 70
    32
  0
VERTEX
  8
3500LEVEL
 62
13
 10
3947.227
 20
-5176.069
 30
1727.000
 70
    32
  0
VERTEX
  8
3500LEVEL
 62
13
 10
3949.120
 20
-5182.513
 30
1727.000
 70
    32
  0
VERTEX
  8
3500LEVEL
 62
13
 10
3954.104
 20
-5190.864
 30
1727.000
 70
    32
  0
VERTEX
  8
3500LEVEL
 62
13
 10
3958.583
 20
-5196.367
 30
1727.000
 70
    32
  0
VERTEX
  8
3500LEVEL
 62
13
 10
3960.994
 20
-5199.233
 30
1727.000
 70
    32
  0
VERTEX
  8
3500LEVEL
 62
13
 10
3963.515
 20
-5203.551
 30
1727.000
 70
    32
  0
VERTEX
  8
3500LEVEL
 62
13
 10
3964.605
 20
-5205.190
 30
1727.000
 70
    32
  0
VERTEX
  8
3500LEVEL
 62
13
 10
3991.444
 20
-5237.578
 30
1727.000
 70
    32
  0
VERTEX
  8
3500LEVEL
 62
13
 10
4025.993
 20
-5281.867
 30
1727.000
 70
    32
  0
VERTEX
  8
3500LEVEL
 62
13
 10
4058.480
 20
-5324.095
 30
1727.000
 70
    32
  0
VERTEX
  8
3500LEVEL
 62
13
 10
4084.779
 20
-5354.479
 30
1727.000
 70
    32
  0
VERTEX
  8
3500LEVEL
 62
13
 10
4103.343
 20
-5388.983
 30
1727.000
 70
    32
  0
VERTEX
  8
3500LEVEL
 62
13
 10
4122.938
 20
-5428.637
 30
1727.000
 70
    32
  0
VERTEX
  8
3500LEVEL
 62
13
 10
4135.830
 20
-5459.021
 30
1727.000
 70
    32
  0
VERTEX
  8
3500LEVEL
 62
13
 10
4135.314
 20
-5473.956
 30
1727.000
 70
    32
  0
VERTEX
  8
3500LEVEL
 62
13
 10
4125.001
 20
-5469.320
 30
1727.000
 70
    32
  0
VERTEX
  8
3500LEVEL
 62
13
 10
4091.999
 20
-5420.912
 30
1727.000
 70
    32
  0
VERTEX
  8
3500LEVEL
 62
13
 10
4072.919
 20
-5371.474
 30
1727.000
 70
    32
  0
VERTEX
  8
3500LEVEL
 62
13
 10
4043.526
 20
-5329.245
 30
1727.000
 70
    32
  0
VERTEX
  8
3500LEVEL
 62
13
 10
4009.492
 20
-5288.046
 30
1727.000
 70
    32
  0
VERTEX
  8
3500LEVEL
 62
13
 10
3978.037
 20
-5241.698
 30
1727.000
 70
    32
  0
VERTEX
  8
3500LEVEL
 62
13
 10
3960.428
 20
-5216.158
 30
1727.000
 70
    32
  0
VERTEX
  8
3500LEVEL
 62
13
 10
3953.084
 20
-5205.367
 30
1727.000
 70
    32
  0
VERTEX
  8
3500LEVEL
 62
13
 10
3948.800
 20
-5197.930
 30
1727.000
 70
    32
  0
VERTEX
  8
3500LEVEL
 62
13
 10
3942.476
 20
-5187.222
 30
1727.000
 70
    32
  0
VERTEX
  8
3500LEVEL
 62
13
 10
3935.136
 20
-5172.511
 30
1727.000
 70
    32
  0
VERTEX
  8
3500LEVEL
 62
13
 10
3928.175
 20
-5155.700
 30
1727.000
 70
    32
  0
VERTEX
  8
3500LEVEL
 62
13
 10
3924.464
 20
-5145.782
 30
1727.000
 70
    32
  0
VERTEX
  8
3500LEVEL
 62
13
 10
3918.658
 20
-5131.495
 30
1727.000
 70
    32
  0
VERTEX
  8
3500LEVEL
 62
13
 10
3916.671
 20
-5125.542
 30
1727.000
 70
    32
  0
VERTEX
  8
3500LEVEL
 62
13
 10
3911.095
 20
-5113.949
 30
1727.000
 70
    32
  0
VERTEX
  8
3500LEVEL
 62
13
 10
3907.716
 20
-5108.320
 30
1727.000
 70
    32
  0
VERTEX
  8
3500LEVEL
 62
13
 10
3898.909
 20
-5097.851
 30
1727.000
 70
    32
  0
VERTEX
  8
3500LEVEL
 62
13
 10
3889.639
 20
-5086.724
 30
1727.000
 70
    32
  0
VERTEX
  8
3500LEVEL
 62
13
 10
3883.081
 20
-5080.349
 30
1727.000
 70
    32
  0
VERTEX
  8
3500LEVEL
 62
13
 10
3874.932
 20
-5074.006
 30
1727.000
 70
    32
  0
VERTEX
  8
3500LEVEL
 62
13
 10
3870.584
 20
-5071.016
 30
1727.000
 70
    32
  0
VERTEX
  8
3500LEVEL
 62
13
 10
3863.503
 20
-5066.806
 30
1727.000
 70
    32
  0
VERTEX
  8
3500LEVEL
 62
13
 10
3860.749
 20
-5065.267
 30
1727.000
 70
    32
  0
VERTEX
  8
3500LEVEL
 62
13
 10
3860.135
 20
-5065.557
 30
1727.000
 70
    32
  0
VERTEX
  8
3500LEVEL
 62
13
 10
3860.735
 20
-5067.103
 30
1727.000
 70
    32
  0
VERTEX
  8
3500LEVEL
 62
13
 10
3860.573
 20
-5068.331
 30
1727.000
 70
    32
  0
VERTEX
  8
3500LEVEL
 62
13
 10
3858.133
 20
-5068.396
 30
1727.000
 70
    32
  0
VERTEX
  8
3500LEVEL
 62
13
 10
3856.898
 20
-5068.374
 30
1727.000
 70
    32
  0
VERTEX
  8
3500LEVEL
 62
13
 10
3856.003
 20
-5069.393
 30
1727.000
 70
    32
  0
VERTEX
  8
3500LEVEL
 62
13
 10
3856.720
 20
-5072.251
 30
1727.000
 70
    32
  0
VERTEX
  8
3500LEVEL
 62
13
 10
3857.915
 20
-5074.672
 30
1727.000
 70
    32
  0
VERTEX
  8
3500LEVEL
 62
13
 10
3858.084
 20
-5075.598
 30
1727.000
 70
    32
  0
VERTEX
  8
3500LEVEL
 62
13
 10
3857.603
 20
-5076.847
 30
1727.000
 70
    32
  0
VERTEX
  8
3500LEVEL
 62
13
 10
3854.929
 20
-5075.099
 30
1727.000
 70
    32
  0
VERTEX
  8
3500LEVEL
 62
13
 10
3849.541
 20
-5070.155
 30
1727.000
 70
    32
  0
VERTEX
  8
3500LEVEL
 62
13
 10
3842.889
 20
-5063.528
 30
1727.000
 70
    32
  0
VERTEX
  8
3500LEVEL
 62
13
 10
3838.230
 20
-5058.864
 30
1727.000
 70
    32
  0
VERTEX
  8
3500LEVEL
 62
13
 10
3830.637
 20
-5051.946
 30
1727.000
 70
    32
  0
VERTEX
  8
3500LEVEL
 62
13
 10
3826.013
 20
-5048.061
 30
1727.000
 70
    32
  0
VERTEX
  8
3500LEVEL
 62
13
 10
3818.719
 20
-5043.100
 30
1727.000
 70
    32
  0
VERTEX
  8
3500LEVEL
 62
13
 10
3815.675
 20
-5040.947
 30
1727.000
 70
    32
  0
VERTEX
  8
3500LEVEL
 62
13
 10
3810.842
 20
-5034.686
 30
1727.000
 70
    32
  0
VERTEX
  8
3500LEVEL
 62
13
 10
3808.297
 20
-5030.119
 30
1727.000
 70
    32
  0
VERTEX
  8
3500LEVEL
 62
13
 10
3805.195
 20
-5025.386
 30
1727.000
 70
    32
  0
VERTEX
  8
3500LEVEL
 62
13
 10
3799.405
 20
-5018.445
 30
1727.000
 70
    32
  0
VERTEX
  8
3500LEVEL
 62
13
 10
3795.495
 20
-5014.381
 30
1727.000
 70
    32
  0
VERTEX
  8
3500LEVEL
 62
13
 10
3788.429
 20
-5006.781
 30
1727.000
 70
    32
  0
VERTEX
  8
3500LEVEL
 62
13
 10
3781.745
 20
-4999.305
 30
1727.000
 70
    32
  0
VERTEX
  8
3500LEVEL
 62
13
 10
3773.906
 20
-4991.599
 30
1727.000
 70
    32
  0
VERTEX
  8
3500LEVEL
 62
13
 10
3769.597
 20
-4987.764
 30
1727.000
 70
    32
  0
VERTEX
  8
3500LEVEL
 62
13
 10
3763.189
 20
-4982.737
 30
1727.000
 70
    32
  0
VERTEX
  8
3500LEVEL
 62
13
 10
3759.906
 20
-4980.397
 30
1727.000
 70
    32
  0
VERTEX
  8
3500LEVEL
 62
13
 10
3757.041
 20
-4978.958
 30
1727.000
 70
    32
  0
VERTEX
  8
3500LEVEL
 62
13
 10
3754.701
 20
-4978.392
 30
1727.000
 70
    32
  0
VERTEX
  8
3500LEVEL
 62
13
 10
3753.259
 20
-4979.032
 30
1727.000
 70
    32
  0
VERTEX
  8
3500LEVEL
 62
13
 10
3753.471
 20
-4981.337
 30
1727.000
 70
    32
  0
VERTEX
  8
3500LEVEL
 62
13
 10
3755.151
 20
-4984.734
 30
1727.000
 70
    32
  0
VERTEX
  8
3500LEVEL
 62
13
 10
3756.877
 20
-4987.144
 30
1727.000
 70
    32
  0
VERTEX
  8
3500LEVEL
 62
13
 10
3759.176
 20
-4989.368
 30
1727.000
 70
    32
  0
VERTEX
  8
3500LEVEL
 62
13
 10
3761.158
 20
-4992.355
 30
1727.000
 70
    32
  0
VERTEX
  8
3500LEVEL
 62
13
 10
3764.650
 20
-4997.813
 30
1727.000
 70
    32
  0
VERTEX
  8
3500LEVEL
 62
13
 10
3770.003
 20
-5005.828
 30
1727.000
 70
    32
  0
VERTEX
  8
3500LEVEL
 62
13
 10
3776.378
 20
-5015.409
 30
1727.000
 70
    32
  0
VERTEX
  8
3500LEVEL
 62
13
 10
3781.625
 20
-5022.643
 30
1727.000
 70
    32
  0
VERTEX
  8
3500LEVEL
 62
13
 10
3786.253
 20
-5028.753
 30
1727.000
 70
    32
  0
VERTEX
  8
3500LEVEL
 62
13
 10
3792.362
 20
-5035.673
 30
1727.000
 70
    32
  0
VERTEX
  8
3500LEVEL
 62
13
 10
3798.169
 20
-5039.966
 30
1727.000
 70
    32
  0
VERTEX
  8
3500LEVEL
 62
13
 10
3802.768
 20
-5042.861
 30
1727.000
 70
    32
  0
VERTEX
  8
3500LEVEL
 62
13
 10
3804.925
 20
-5044.337
 30
1727.000
 70
    32
  0
VERTEX
  8
3500LEVEL
 62
13
 10
3806.212
 20
-5045.527
 30
1727.000
 70
    32
  0
VERTEX
  8
3500LEVEL
 62
13
 10
3807.189
 20
-5048.079
 30
1727.000
 70
    32
  0
VERTEX
  8
3500LEVEL
 62
13
 10
3808.418
 20
-5050.537
 30
1727.000
 70
    32
  0
VERTEX
  8
3500LEVEL
 62
13
 10
3809.489
 20
-5052.599
 30
1727.000
 70
    32
  0
VERTEX
  8
3500LEVEL
 62
13
 10
3811.504
 20
-5055.623
 30
1727.000
 70
    32
  0
VERTEX
  8
3500LEVEL
 62
13
 10
3812.279
 20
-5057.212
 30
1727.000
 70
    32
  0
VERTEX
  8
3500LEVEL
 62
13
 10
3811.330
 20
-5057.875
 30
1727.000
 70
    32
  0
VERTEX
  8
3500LEVEL
 62
13
 10
3808.080
 20
-5057.125
 30
1727.000
 70
    32
  0
VERTEX
  8
3500LEVEL
 62
13
 10
3801.691
 20
-5053.229
 30
1727.000
 70
    32
  0
VERTEX
  8
3500LEVEL
 62
13
 10
3793.971
 20
-5046.765
 30
1727.000
 70
    32
  0
VERTEX
  8
3500LEVEL
 62
13
 10
3784.660
 20
-5037.296
 30
1727.000
 70
    32
  0
VERTEX
  8
3500LEVEL
 62
13
 10
3777.920
 20
-5026.427
 30
1727.000
 70
    32
  0
VERTEX
  8
3500LEVEL
 62
13
 10
3775.373
 20
-5020.377
 30
1727.000
 70
    32
  0
VERTEX
  8
3500LEVEL
 62
13
 10
3771.137
 20
-5011.884
 30
1727.000
 70
    32
  0
VERTEX
  8
3500LEVEL
 62
13
 10
3764.635
 20
-5002.756
 30
1727.000
 70
    32
  0
VERTEX
  8
3500LEVEL
 62
13
 10
3759.856
 20
-4996.851
 30
1727.000
 70
    32
  0
VERTEX
  8
3500LEVEL
 62
13
 10
3755.209
 20
-4991.164
 30
1727.000
 70
    32
  0
VERTEX
  8
3500LEVEL
 62
13
 10
3750.512
 20
-4985.792
 30
1727.000
 70
    32
  0
VERTEX
  8
3500LEVEL
 62
13
 10
3748.100
 20
-4982.185
 30
1727.000
 70
    32
  0
VERTEX
  8
3500LEVEL
 62
13
 10
3744.043
 20
-4974.406
 30
1727.000
 70
    32
  0
VERTEX
  8
3500LEVEL
 62
13
 10
3739.102
 20
-4965.879
 30
1727.000
 70
    32
  0
VERTEX
  8
3500LEVEL
 62
13
 10
3734.384
 20
-4960.189
 30
1727.000
 70
    32
  0
VERTEX
  8
3500LEVEL
 62
13
 10
3728.558
 20
-4955.577
 30
1727.000
 70
    32
  0
VERTEX
  8
3500LEVEL
 62
13
 10
3722.466
 20
-4951.342
 30
1727.000
 70
    32
  0
VERTEX
  8
3500LEVEL
 62
13
 10
3719.382
 20
-4949.293
 30
1727.000
 70
    32
  0
VERTEX
  8
3500LEVEL
 62
13
 10
3716.937
 20
-4947.945
 30
1727.000
 70
    32
  0
VERTEX
  8
3500LEVEL
 62
13
 10
3714.685
 20
-4946.217
 30
1727.000
 70
    32
  0
SEQEND
  8
3500LEVEL
  0
POLYLINE
  8
3500LEVEL
 62
13
 66
     1
 70
     8
  0
VERTEX
  8
3500LEVEL
 62
13
 10
3576.593
 20
-4902.683
 30
1727.000
 70
    32
  0
VERTEX
  8
3500LEVEL
 62
13
 10
3577.943
 20
-4903.275
 30
1727.000
 70
    32
  0
VERTEX
  8
3500LEVEL
 62
13
 10
3579.263
 20
-4903.759
 30
1727.000
 70
    32
  0
VERTEX
  8
3500LEVEL
 62
13
 10
3581.139
 20
-4903.669
 30
1727.000
 70
    32
  0
VERTEX
  8
3500LEVEL
 62
13
 10
3584.597
 20
-4902.945
 30
1727.000
 70
    32
  0
VERTEX
  8
3500LEVEL
 62
13
 10
3586.113
 20
-4902.238
 30
1727.000
 70
    32
  0
VERTEX
  8
3500LEVEL
 62
13
 10
3587.858
 20
-4900.376
 30
1727.000
 70
    32
  0
VERTEX
  8
3500LEVEL
 62
13
 10
3589.422
 20
-4897.870
 30
1727.000
 70
    32
  0
VERTEX
  8
3500LEVEL
 62
13
 10
3591.755
 20
-4896.282
 30
1727.000
 70
    32
  0
VERTEX
  8
3500LEVEL
 62
13
 10
3593.097
 20
-4896.273
 30
1727.000
 70
    32
  0
VERTEX
  8
3500LEVEL
 62
13
 10
3595.947
 20
-4894.956
 30
1727.000
 70
    32
  0
VERTEX
  8
3500LEVEL
 62
13
 10
3597.812
 20
-4892.040
 30
1727.000
 70
    32
  0
VERTEX
  8
3500LEVEL
 62
13
 10
3599.309
 20
-4887.906
 30
1727.000
 70
    32
  0
VERTEX
  8
3500LEVEL
 62
13
 10
3600.283
 20
-4886.680
 30
1727.000
 70
    32
  0
VERTEX
  8
3500LEVEL
 62
13
 10
3602.177
 20
-4885.425
 30
1727.000
 70
    32
  0
VERTEX
  8
3500LEVEL
 62
13
 10
3602.918
 20
-4884.682
 30
1727.000
 70
    32
  0
VERTEX
  8
3500LEVEL
 62
13
 10
3603.616
 20
-4882.560
 30
1727.000
 70
    32
  0
VERTEX
  8
3500LEVEL
 62
13
 10
3605.260
 20
-4880.587
 30
1727.000
 70
    32
  0
VERTEX
  8
3500LEVEL
 62
13
 10
3608.695
 20
-4879.615
 30
1727.000
 70
    32
  0
VERTEX
  8
3500LEVEL
 62
13
 10
3612.065
 20
-4880.052
 30
1727.000
 70
    32
  0
VERTEX
  8
3500LEVEL
 62
13
 10
3617.030
 20
-4881.128
 30
1727.000
 70
    32
  0
VERTEX
  8
3500LEVEL
 62
13
 10
3618.850
 20
-4881.494
 30
1727.000
 70
    32
  0
VERTEX
  8
3500LEVEL
 62
13
 10
3620.156
 20
-4879.965
 30
1727.000
 70
    32
  0
VERTEX
  8
3500LEVEL
 62
13
 10
3621.056
 20
-4878.064
 30
1727.000
 70
    32
  0
VERTEX
  8
3500LEVEL
 62
13
 10
3621.846
 20
-4877.006
 30
1727.000
 70
    32
  0
VERTEX
  8
3500LEVEL
 62
13
 10
3622.547
 20
-4874.813
 30
1727.000
 70
    32
  0
VERTEX
  8
3500LEVEL
 62
13
 10
3622.481
 20
-4873.186
 30
1727.000
 70
    32
  0
VERTEX
  8
3500LEVEL
 62
13
 10
3623.535
 20
-4871.751
 30
1727.000
 70
    32
  0
VERTEX
  8
3500LEVEL
 62
13
 10
3626.126
 20
-4873.777
 30
1727.000
 70
    32
  0
VERTEX
  8
3500LEVEL
 62
13
 10
3628.379
 20
-4876.247
 30
1727.000
 70
    32
  0
VERTEX
  8
3500LEVEL
 62
13
 10
3631.701
 20
-4880.037
 30
1727.000
 70
    32
  0
VERTEX
  8
3500LEVEL
 62
13
 10
3636.706
 20
-4884.858
 30
1727.000
 70
    32
  0
VERTEX
  8
3500LEVEL
 62
13
 10
3640.745
 20
-4888.398
 30
1727.000
 70
    32
  0
VERTEX
  8
3500LEVEL
 62
13
 10
3646.747
 20
-4893.053
 30
1727.000
 70
    32
  0
VERTEX
  8
3500LEVEL
 62
13
 10
3655.086
 20
-4899.087
 30
1727.000
 70
    32
  0
VERTEX
  8
3500LEVEL
 62
13
 10
3659.035
 20
-4902.305
 30
1727.000
 70
    32
  0
VERTEX
  8
3500LEVEL
 62
13
 10
3662.618
 20
-4905.790
 30
1727.000
 70
    32
  0
VERTEX
  8
3500LEVEL
 62
13
 10
3665.870
 20
-4909.577
 30
1727.000
 70
    32
  0
VERTEX
  8
3500LEVEL
 62
13
 10
3668.579
 20
-4912.102
 30
1727.000
 70
    32
  0
VERTEX
  8
3500LEVEL
 62
13
 10
3668.929
 20
-4912.931
 30
1727.000
 70
    32
  0
SEQEND
  8
3500LEVEL
  0
POLYLINE
  8
3500LEVEL
 62
13
 66
     1
 70
     8
  0
VERTEX
  8
3500LEVEL
 62
13
 10
3567.619
 20
-4886.519
 30
1727.000
 70
    32
  0
VERTEX
  8
3500LEVEL
 62
13
 10
3566.531
 20
-4884.175
 30
1727.000
 70
    32
  0
VERTEX
  8
3500LEVEL
 62
13
 10
3565.723
 20
-4882.548
 30
1727.000
 70
    32
  0
VERTEX
  8
3500LEVEL
 62
13
 10
3565.440
 20
-4879.498
 30
1727.000
 70
    32
  0
VERTEX
  8
3500LEVEL
 62
13
 10
3566.019
 20
-4878.430
 30
1727.000
 70
    32
  0
VERTEX
  8
3500LEVEL
 62
13
 10
3568.139
 20
-4878.386
 30
1727.000
 70
    32
  0
VERTEX
  8
3500LEVEL
 62
13
 10
3570.022
 20
-4878.155
 30
1727.000
 70
    32
  0
VERTEX
  8
3500LEVEL
 62
13
 10
3572.158
 20
-4877.017
 30
1727.000
 70
    32
  0
VERTEX
  8
3500LEVEL
 62
13
 10
3572.863
 20
-4875.496
 30
1727.000
 70
    32
  0
VERTEX
  8
3500LEVEL
 62
13
 10
3573.728
 20
-4875.112
 30
1727.000
 70
    32
  0
VERTEX
  8
3500LEVEL
 62
13
 10
3575.865
 20
-4872.420
 30
1727.000
 70
    32
  0
VERTEX
  8
3500LEVEL
 62
13
 10
3575.855
 20
-4868.041
 30
1727.000
 70
    32
  0
VERTEX
  8
3500LEVEL
 62
13
 10
3574.778
 20
-4862.270
 30
1727.000
 70
    32
  0
VERTEX
  8
3500LEVEL
 62
13
 10
3573.545
 20
-4857.587
 30
1727.000
 70
    32
  0
VERTEX
  8
3500LEVEL
 62
13
 10
3573.260
 20
-4855.349
 30
1727.000
 70
    32
  0
VERTEX
  8
3500LEVEL
 62
13
 10
3573.631
 20
-4854.943
 30
1727.000
 70
    32
  0
VERTEX
  8
3500LEVEL
 62
13
 10
3576.256
 20
-4857.006
 30
1727.000
 70
    32
  0
VERTEX
  8
3500LEVEL
 62
13
 10
3577.943
 20
-4858.708
 30
1727.000
 70
    32
  0
VERTEX
  8
3500LEVEL
 62
13
 10
3578.736
 20
-4856.837
 30
1727.000
 70
    32
  0
VERTEX
  8
3500LEVEL
 62
13
 10
3578.474
 20
-4852.552
 30
1727.000
 70
    32
  0
VERTEX
  8
3500LEVEL
 62
13
 10
3578.053
 20
-4850.166
 30
1727.000
 70
    32
  0
VERTEX
  8
3500LEVEL
 62
13
 10
3578.676
 20
-4847.370
 30
1727.000
 70
    32
  0
VERTEX
  8
3500LEVEL
 62
13
 10
3578.754
 20
-4845.678
 30
1727.000
 70
    32
  0
VERTEX
  8
3500LEVEL
 62
13
 10
3578.915
 20
-4843.708
 30
1727.000
 70
    32
  0
VERTEX
  8
3500LEVEL
 62
13
 10
3580.472
 20
-4845.192
 30
1727.000
 70
    32
  0
VERTEX
  8
3500LEVEL
 62
13
 10
3582.705
 20
-4850.380
 30
1727.000
 70
    32
  0
VERTEX
  8
3500LEVEL
 62
13
 10
3584.210
 20
-4855.288
 30
1727.000
 70
    32
  0
VERTEX
  8
3500LEVEL
 62
13
 10
3586.054
 20
-4858.198
 30
1727.000
 70
    32
  0
VERTEX
  8
3500LEVEL
 62
13
 10
3589.609
 20
-4859.209
 30
1727.000
 70
    32
  0
VERTEX
  8
3500LEVEL
 62
13
 10
3592.221
 20
-4861.553
 30
1727.000
 70
    32
  0
VERTEX
  8
3500LEVEL
 62
13
 10
3595.443
 20
-4865.975
 30
1727.000
 70
    32
  0
VERTEX
  8
3500LEVEL
 62
13
 10
3599.959
 20
-4869.149
 30
1727.000
 70
    32
  0
VERTEX
  8
3500LEVEL
 62
13
 10
3601.788
 20
-4869.303
 30
1727.000
 70
    32
  0
VERTEX
  8
3500LEVEL
 62
13
 10
3603.087
 20
-4869.469
 30
1727.000
 70
    32
  0
VERTEX
  8
3500LEVEL
 62
13
 10
3604.727
 20
-4870.674
 30
1727.000
 70
    32
  0
VERTEX
  8
3500LEVEL
 62
13
 10
3606.808
 20
-4870.735
 30
1727.000
 70
    32
  0
VERTEX
  8
3500LEVEL
 62
13
 10
3609.919
 20
-4870.666
 30
1727.000
 70
    32
  0
VERTEX
  8
3500LEVEL
 62
13
 10
3613.347
 20
-4872.130
 30
1727.000
 70
    32
  0
VERTEX
  8
3500LEVEL
 62
13
 10
3614.597
 20
-4872.611
 30
1727.000
 70
    32
  0
VERTEX
  8
3500LEVEL
 62
13
 10
3615.504
 20
-4871.311
 30
1727.000
 70
    32
  0
VERTEX
  8
3500LEVEL
 62
13
 10
3616.218
 20
-4868.836
 30
1727.000
 70
    32
  0
VERTEX
  8
3500LEVEL
 62
13
 10
3618.172
 20
-4867.055
 30
1727.000
 70
    32
  0
VERTEX
  8
3500LEVEL
 62
13
 10
3621.629
 20
-4865.589
 30
1727.000
 70
    32
  0
VERTEX
  8
3500LEVEL
 62
13
 10
3624.766
 20
-4862.661
 30
1727.000
 70
    32
  0
VERTEX
  8
3500LEVEL
 62
13
 10
3626.604
 20
-4856.459
 30
1727.000
 70
    32
  0
VERTEX
  8
3500LEVEL
 62
13
 10
3627.427
 20
-4852.401
 30
1727.000
 70
    32
  0
VERTEX
  8
3500LEVEL
 62
13
 10
3629.662
 20
-4848.336
 30
1727.000
 70
    32
  0
VERTEX
  8
3500LEVEL
 62
13
 10
3631.539
 20
-4845.138
 30
1727.000
 70
    32
  0
VERTEX
  8
3500LEVEL
 62
13
 10
3634.998
 20
-4838.270
 30
1727.000
 70
    32
  0
VERTEX
  8
3500LEVEL
 62
13
 10
3638.328
 20
-4834.962
 30
1727.000
 70
    32
  0
VERTEX
  8
3500LEVEL
 62
13
 10
3642.253
 20
-4831.787
 30
1727.000
 70
    32
  0
VERTEX
  8
3500LEVEL
 62
13
 10
3645.288
 20
-4830.302
 30
1727.000
 70
    32
  0
VERTEX
  8
3500LEVEL
 62
13
 10
3647.924
 20
-4829.788
 30
1727.000
 70
    32
  0
VERTEX
  8
3500LEVEL
 62
13
 10
3650.050
 20
-4830.415
 30
1727.000
 70
    32
  0
VERTEX
  8
3500LEVEL
 62
13
 10
3652.625
 20
-4831.240
 30
1727.000
 70
    32
  0
VERTEX
  8
3500LEVEL
 62
13
 10
3654.810
 20
-4831.340
 30
1727.000
 70
    32
  0
VERTEX
  8
3500LEVEL
 62
13
 10
3655.906
 20
-4830.543
 30
1727.000
 70
    32
  0
VERTEX
  8
3500LEVEL
 62
13
 10
3657.422
 20
-4829.836
 30
1727.000
 70
    32
  0
VERTEX
  8
3500LEVEL
 62
13
 10
3660.604
 20
-4832.066
 30
1727.000
 70
    32
  0
VERTEX
  8
3500LEVEL
 62
13
 10
3665.168
 20
-4836.478
 30
1727.000
 70
    32
  0
VERTEX
  8
3500LEVEL
 62
13
 10
3668.834
 20
-4841.238
 30
1727.000
 70
    32
  0
VERTEX
  8
3500LEVEL
 62
13
 10
3670.273
 20
-4844.517
 30
1727.000
 70
    32
  0
VERTEX
  8
3500LEVEL
 62
13
 10
3670.311
 20
-4845.225
 30
1727.000
 70
    32
  0
VERTEX
  8
3500LEVEL
 62
13
 10
3669.644
 20
-4845.901
 30
1727.000
 70
    32
  0
VERTEX
  8
3500LEVEL
 62
13
 10
3668.432
 20
-4845.386
 30
1727.000
 70
    32
  0
VERTEX
  8
3500LEVEL
 62
13
 10
3665.221
 20
-4843.791
 30
1727.000
 70
    32
  0
VERTEX
  8
3500LEVEL
 62
13
 10
3664.147
 20
-4844.094
 30
1727.000
 70
    32
  0
VERTEX
  8
3500LEVEL
 62
13
 10
3663.403
 20
-4846.462
 30
1727.000
 70
    32
  0
VERTEX
  8
3500LEVEL
 62
13
 10
3662.950
 20
-4848.630
 30
1727.000
 70
    32
  0
VERTEX
  8
3500LEVEL
 62
13
 10
3662.030
 20
-4850.213
 30
1727.000
 70
    32
  0
VERTEX
  8
3500LEVEL
 62
13
 10
3660.717
 20
-4849.587
 30
1727.000
 70
    32
  0
VERTEX
  8
3500LEVEL
 62
13
 10
3655.828
 20
-4846.078
 30
1727.000
 70
    32
  0
VERTEX
  8
3500LEVEL
 62
13
 10
3652.333
 20
-4842.986
 30
1727.000
 70
    32
  0
VERTEX
  8
3500LEVEL
 62
13
 10
3650.272
 20
-4840.949
 30
1727.000
 70
    32
  0
VERTEX
  8
3500LEVEL
 62
13
 10
3648.856
 20
-4841.025
 30
1727.000
 70
    32
  0
VERTEX
  8
3500LEVEL
 62
13
 10
3647.300
 20
-4845.686
 30
1727.000
 70
    32
  0
VERTEX
  8
3500LEVEL
 62
13
 10
3646.406
 20
-4849.000
 30
1727.000
 70
    32
  0
VERTEX
  8
3500LEVEL
 62
13
 10
3647.235
 20
-4850.945
 30
1727.000
 70
    32
  0
VERTEX
  8
3500LEVEL
 62
13
 10
3650.851
 20
-4854.466
 30
1727.000
 70
    32
  0
VERTEX
  8
3500LEVEL
 62
13
 10
3653.302
 20
-4857.227
 30
1727.000
 70
    32
  0
VERTEX
  8
3500LEVEL
 62
13
 10
3654.774
 20
-4860.544
 30
1727.000
 70
    32
  0
VERTEX
  8
3500LEVEL
 62
13
 10
3655.436
 20
-4863.047
 30
1727.000
 70
    32
  0
VERTEX
  8
3500LEVEL
 62
13
 10
3654.543
 20
-4864.807
 30
1727.000
 70
    32
  0
VERTEX
  8
3500LEVEL
 62
13
 10
3652.842
 20
-4864.940
 30
1727.000
 70
    32
  0
VERTEX
  8
3500LEVEL
 62
13
 10
3651.363
 20
-4865.614
 30
1727.000
 70
    32
  0
VERTEX
  8
3500LEVEL
 62
13
 10
3650.025
 20
-4866.294
 30
1727.000
 70
    32
  0
VERTEX
  8
3500LEVEL
 62
13
 10
3648.296
 20
-4865.508
 30
1727.000
 70
    32
  0
VERTEX
  8
3500LEVEL
 62
13
 10
3645.346
 20
-4863.607
 30
1727.000
 70
    32
  0
VERTEX
  8
3500LEVEL
 62
13
 10
3640.948
 20
-4860.933
 30
1727.000
 70
    32
  0
VERTEX
  8
3500LEVEL
 62
13
 10
3638.690
 20
-4860.899
 30
1727.000
 70
    32
  0
VERTEX
  8
3500LEVEL
 62
13
 10
3637.430
 20
-4862.184
 30
1727.000
 70
    32
  0
VERTEX
  8
3500LEVEL
 62
13
 10
3636.948
 20
-4864.987
 30
1727.000
 70
    32
  0
VERTEX
  8
3500LEVEL
 62
13
 10
3636.874
 20
-4866.608
 30
1727.000
 70
    32
  0
VERTEX
  8
3500LEVEL
 62
13
 10
3636.458
 20
-4867.189
 30
1727.000
 70
    32
  0
VERTEX
  8
3500LEVEL
 62
13
 10
3635.311
 20
-4867.560
 30
1727.000
 70
    32
  0
VERTEX
  8
3500LEVEL
 62
13
 10
3634.718
 20
-4869.722
 30
1727.000
 70
    32
  0
VERTEX
  8
3500LEVEL
 62
13
 10
3636.742
 20
-4872.534
 30
1727.000
 70
    32
  0
VERTEX
  8
3500LEVEL
 62
13
 10
3639.459
 20
-4875.661
 30
1727.000
 70
    32
  0
VERTEX
  8
3500LEVEL
 62
13
 10
3640.921
 20
-4876.894
 30
1727.000
 70
    32
  0
VERTEX
  8
3500LEVEL
 62
13
 10
3642.922
 20
-4877.162
 30
1727.000
 70
    32
  0
VERTEX
  8
3500LEVEL
 62
13
 10
3646.421
 20
-4878.630
 30
1727.000
 70
    32
  0
VERTEX
  8
3500LEVEL
 62
13
 10
3651.045
 20
-4882.515
 30
1727.000
 70
    32
  0
VERTEX
  8
3500LEVEL
 62
13
 10
3652.984
 20
-4885.676
 30
1727.000
 70
    32
  0
VERTEX
  8
3500LEVEL
 62
13
 10
3655.941
 20
-4890.474
 30
1727.000
 70
    32
  0
VERTEX
  8
3500LEVEL
 62
13
 10
3659.209
 20
-4893.908
 30
1727.000
 70
    32
  0
VERTEX
  8
3500LEVEL
 62
13
 10
3661.239
 20
-4895.838
 30
1727.000
 70
    32
  0
VERTEX
  8
3500LEVEL
 62
13
 10
3662.840
 20
-4897.889
 30
1727.000
 70
    32
  0
VERTEX
  8
3500LEVEL
 62
13
 10
3662.636
 20
-4898.480
 30
1727.000
 70
    32
  0
VERTEX
  8
3500LEVEL
 62
13
 10
3659.757
 20
-4896.582
 30
1727.000
 70
    32
  0
VERTEX
  8
3500LEVEL
 62
13
 10
3655.146
 20
-4892.415
 30
1727.000
 70
    32
  0
VERTEX
  8
3500LEVEL
 62
13
 10
3651.236
 20
-4888.351
 30
1727.000
 70
    32
  0
VERTEX
  8
3500LEVEL
 62
13
 10
3646.587
 20
-4883.475
 30
1727.000
 70
    32
  0
VERTEX
  8
3500LEVEL
 62
13
 10
3644.762
 20
-4881.696
 30
1727.000
 70
    32
  0
VERTEX
  8
3500LEVEL
 62
13
 10
3641.059
 20
-4879.266
 30
1727.000
 70
    32
  0
VERTEX
  8
3500LEVEL
 62
13
 10
3638.653
 20
-4877.072
 30
1727.000
 70
    32
  0
VERTEX
  8
3500LEVEL
 62
13
 10
3636.293
 20
-4874.633
 30
1727.000
 70
    32
  0
VERTEX
  8
3500LEVEL
 62
13
 10
3634.853
 20
-4874.461
 30
1727.000
 70
    32
  0
VERTEX
  8
3500LEVEL
 62
13
 10
3635.394
 20
-4877.275
 30
1727.000
 70
    32
  0
VERTEX
  8
3500LEVEL
 62
13
 10
3641.354
 20
-4885.142
 30
1727.000
 70
    32
  0
VERTEX
  8
3500LEVEL
 62
13
 10
3646.444
 20
-4890.426
 30
1727.000
 70
    32
  0
VERTEX
  8
3500LEVEL
 62
13
 10
3653.097
 20
-4895.499
 30
1727.000
 70
    32
  0
VERTEX
  8
3500LEVEL
 62
13
 10
3657.267
 20
-4898.516
 30
1727.000
 70
    32
  0
VERTEX
  8
3500LEVEL
 62
13
 10
3661.779
 20
-4901.761
 30
1727.000
 70
    32
  0
VERTEX
  8
3500LEVEL
 62
13
 10
3666.298
 20
-4904.864
 30
1727.000
 70
    32
  0
VERTEX
  8
3500LEVEL
 62
13
 10
3669.511
 20
-4907.943
 30
1727.000
 70
    32
  0
VERTEX
  8
3500LEVEL
 62
13
 10
3674.661
 20
-4911.146
 30
1727.000
 70
    32
  0
VERTEX
  8
3500LEVEL
 62
13
 10
3678.700
 20
-4916.240
 30
1727.000
 70
    32
  0
VERTEX
  8
3500LEVEL
 62
13
 10
3683.098
 20
-4918.915
 30
1727.000
 70
    32
  0
VERTEX
  8
3500LEVEL
 62
13
 10
3685.155
 20
-4921.022
 30
1727.000
 70
    32
  0
VERTEX
  8
3500LEVEL
 62
13
 10
3686.258
 20
-4922.379
 30
1727.000
 70
    32
  0
VERTEX
  8
3500LEVEL
 62
13
 10
3688.977
 20
-4924.990
 30
1727.000
 70
    32
  0
SEQEND
  8
3500LEVEL
  0
POLYLINE
  8
3500LEVEL
 62
13
 66
     1
 70
     8
  0
VERTEX
  8
3500LEVEL
 62
13
 10
4073.571
 20
-4931.829
 30
1727.000
 70
    32
  0
VERTEX
  8
3500LEVEL
 62
13
 10
4067.873
 20
-4921.522
 30
1727.000
 70
    32
  0
VERTEX
  8
3500LEVEL
 62
13
 10
4064.992
 20
-4908.146
 30
1727.000
 70
    32
  0
VERTEX
  8
3500LEVEL
 62
13
 10
4060.102
 20
-4887.757
 30
1727.000
 70
    32
  0
VERTEX
  8
3500LEVEL
 62
13
 10
4052.860
 20
-4859.384
 30
1727.000
 70
    32
  0
VERTEX
  8
3500LEVEL
 62
13
 10
4046.136
 20
-4833.578
 30
1727.000
 70
    32
  0
VERTEX
  8
3500LEVEL
 62
13
 10
4040.326
 20
-4817.066
 30
1727.000
 70
    32
  0
VERTEX
  8
3500LEVEL
 62
13
 10
4031.610
 20
-4796.183
 30
1727.000
 70
    32
  0
VERTEX
  8
3500LEVEL
 62
13
 10
4020.822
 20
-4768.883
 30
1727.000
 70
    32
  0
VERTEX
  8
3500LEVEL
 62
13
 10
4010.920
 20
-4746.921
 30
1727.000
 70
    32
  0
VERTEX
  8
3500LEVEL
 62
13
 10
4005.359
 20
-4734.976
 30
1727.000
 70
    32
  0
VERTEX
  8
3500LEVEL
 62
13
 10
3996.146
 20
-4720.286
 30
1727.000
 70
    32
  0
VERTEX
  8
3500LEVEL
 62
13
 10
3988.954
 20
-4710.032
 30
1727.000
 70
    32
  0
VERTEX
  8
3500LEVEL
 62
13
 10
3979.767
 20
-4696.331
 30
1727.000
 70
    32
  0
VERTEX
  8
3500LEVEL
 62
13
 10
3973.000
 20
-4685.284
 30
1727.000
 70
    32
  0
VERTEX
  8
3500LEVEL
 62
13
 10
3967.143
 20
-4676.716
 30
1727.000
 70
    32
  0
VERTEX
  8
3500LEVEL
 62
13
 10
3962.098
 20
-4671.999
 30
1727.000
 70
    32
  0
VERTEX
  8
3500LEVEL
 62
13
 10
3958.411
 20
-4670.770
 30
1727.000
 70
    32
  0
VERTEX
  8
3500LEVEL
 62
13
 10
3956.770
 20
-4671.119
 30
1727.000
 70
    32
  0
VERTEX
  8
3500LEVEL
 62
13
 10
3954.467
 20
-4674.368
 30
1727.000
 70
    32
  0
VERTEX
  8
3500LEVEL
 62
13
 10
3953.210
 20
-4679.431
 30
1727.000
 70
    32
  0
VERTEX
  8
3500LEVEL
 62
13
 10
3952.202
 20
-4689.060
 30
1727.000
 70
    32
  0
VERTEX
  8
3500LEVEL
 62
13
 10
3951.835
 20
-4698.579
 30
1727.000
 70
    32
  0
VERTEX
  8
3500LEVEL
 62
13
 10
3953.290
 20
-4711.500
 30
1727.000
 70
    32
  0
VERTEX
  8
3500LEVEL
 62
13
 10
3954.497
 20
-4721.338
 30
1727.000
 70
    32
  0
VERTEX
  8
3500LEVEL
 62
13
 10
3956.897
 20
-4731.371
 30
1727.000
 70
    32
  0
VERTEX
  8
3500LEVEL
 62
13
 10
3959.594
 20
-4741.066
 30
1727.000
 70
    32
  0
VERTEX
  8
3500LEVEL
 62
13
 10
3961.061
 20
-4745.265
 30
1727.000
 70
    32
  0
VERTEX
  8
3500LEVEL
 62
13
 10
3961.759
 20
-4751.583
 30
1727.000
 70
    32
  0
VERTEX
  8
3500LEVEL
 62
13
 10
3960.649
 20
-4760.361
 30
1727.000
 70
    32
  0
VERTEX
  8
3500LEVEL
 62
13
 10
3960.155
 20
-4768.037
 30
1727.000
 70
    32
  0
VERTEX
  8
3500LEVEL
 62
13
 10
3962.665
 20
-4775.674
 30
1727.000
 70
    32
  0
VERTEX
  8
3500LEVEL
 62
13
 10
3968.590
 20
-4787.353
 30
1727.000
 70
    32
  0
VERTEX
  8
3500LEVEL
 62
13
 10
3971.626
 20
-4792.754
 30
1727.000
 70
    32
  0
VERTEX
  8
3500LEVEL
 62
13
 10
3975.859
 20
-4801.319
 30
1727.000
 70
    32
  0
VERTEX
  8
3500LEVEL
 62
13
 10
3979.110
 20
-4808.955
 30
1727.000
 70
    32
  0
VERTEX
  8
3500LEVEL
 62
13
 10
3980.587
 20
-4815.238
 30
1727.000
 70
    32
  0
VERTEX
  8
3500LEVEL
 62
13
 10
3980.082
 20
-4816.239
 30
1727.000
 70
    32
  0
VERTEX
  8
3500LEVEL
 62
13
 10
3978.635
 20
-4816.208
 30
1727.000
 70
    32
  0
VERTEX
  8
3500LEVEL
 62
13
 10
3974.532
 20
-4812.523
 30
1727.000
 70
    32
  0
VERTEX
  8
3500LEVEL
 62
13
 10
3967.979
 20
-4805.265
 30
1727.000
 70
    32
  0
VERTEX
  8
3500LEVEL
 62
13
 10
3963.503
 20
-4799.691
 30
1727.000
 70
    32
  0
VERTEX
  8
3500LEVEL
 62
13
 10
3958.185
 20
-4792.454
 30
1727.000
 70
    32
  0
VERTEX
  8
3500LEVEL
 62
13
 10
3951.710
 20
-4787.354
 30
1727.000
 70
    32
  0
VERTEX
  8
3500LEVEL
 62
13
 10
3947.981
 20
-4784.746
 30
1727.000
 70
    32
  0
VERTEX
  8
3500LEVEL
 62
13
 10
3943.809
 20
-4782.541
 30
1727.000
 70
    32
  0
VERTEX
  8
3500LEVEL
 62
13
 10
3941.542
 20
-4783.461
 30
1727.000
 70
    32
  0
VERTEX
  8
3500LEVEL
 62
13
 10
3938.844
 20
-4787.610
 30
1727.000
 70
    32
  0
VERTEX
  8
3500LEVEL
 62
13
 10
3936.503
 20
-4790.893
 30
1727.000
 70
    32
  0
VERTEX
  8
3500LEVEL
 62
13
 10
3933.240
 20
-4791.979
 30
1727.000
 70
    32
  0
VERTEX
  8
3500LEVEL
 62
13
 10
3927.276
 20
-4788.032
 30
1727.000
 70
    32
  0
VERTEX
  8
3500LEVEL
 62
13
 10
3922.752
 20
-4783.516
 30
1727.000
 70
    32
  0
VERTEX
  8
3500LEVEL
 62
13
 10
3915.222
 20
-4776.001
 30
1727.000
 70
    32
  0
VERTEX
  8
3500LEVEL
 62
13
 10
3909.285
 20
-4769.936
 30
1727.000
 70
    32
  0
VERTEX
  8
3500LEVEL
 62
13
 10
3898.258
 20
-4757.846
 30
1727.000
 70
    32
  0
VERTEX
  8
3500LEVEL
 62
13
 10
3890.196
 20
-4747.305
 30
1727.000
 70
    32
  0
VERTEX
  8
3500LEVEL
 62
13
 10
3882.226
 20
-4737.086
 30
1727.000
 70
    32
  0
VERTEX
  8
3500LEVEL
 62
13
 10
3874.283
 20
-4729.340
 30
1727.000
 70
    32
  0
VERTEX
  8
3500LEVEL
 62
13
 10
3863.799
 20
-4719.252
 30
1727.000
 70
    32
  0
VERTEX
  8
3500LEVEL
 62
13
 10
3853.115
 20
-4709.685
 30
1727.000
 70
    32
  0
VERTEX
  8
3500LEVEL
 62
13
 10
3847.720
 20
-4704.882
 30
1727.000
 70
    32
  0
VERTEX
  8
3500LEVEL
 62
13
 10
3842.236
 20
-4700.498
 30
1727.000
 70
    32
  0
VERTEX
  8
3500LEVEL
 62
13
 10
3835.737
 20
-4695.149
 30
1727.000
 70
    32
  0
VERTEX
  8
3500LEVEL
 62
13
 10
3828.596
 20
-4691.466
 30
1727.000
 70
    32
  0
VERTEX
  8
3500LEVEL
 62
13
 10
3823.637
 20
-4690.249
 30
1727.000
 70
    32
  0
VERTEX
  8
3500LEVEL
 62
13
 10
3817.623
 20
-4689.725
 30
1727.000
 70
    32
  0
VERTEX
  8
3500LEVEL
 62
13
 10
3814.146
 20
-4691.614
 30
1727.000
 70
    32
  0
VERTEX
  8
3500LEVEL
 62
13
 10
3811.140
 20
-4694.760
 30
1727.000
 70
    32
  0
VERTEX
  8
3500LEVEL
 62
13
 10
3808.663
 20
-4698.707
 30
1727.000
 70
    32
  0
VERTEX
  8
3500LEVEL
 62
13
 10
3805.085
 20
-4704.334
 30
1727.000
 70
    32
  0
VERTEX
  8
3500LEVEL
 62
13
 10
3801.656
 20
-4710.569
 30
1727.000
 70
    32
  0
VERTEX
  8
3500LEVEL
 62
13
 10
3799.929
 20
-4715.857
 30
1727.000
 70
    32
  0
VERTEX
  8
3500LEVEL
 62
13
 10
3799.413
 20
-4722.473
 30
1727.000
 70
    32
  0
VERTEX
  8
3500LEVEL
 62
13
 10
3801.788
 20
-4727.667
 30
1727.000
 70
    32
  0
VERTEX
  8
3500LEVEL
 62
13
 10
3805.126
 20
-4734.954
 30
1727.000
 70
    32
  0
VERTEX
  8
3500LEVEL
 62
13
 10
3809.083
 20
-4743.364
 30
1727.000
 70
    32
  0
VERTEX
  8
3500LEVEL
 62
13
 10
3814.756
 20
-4750.547
 30
1727.000
 70
    32
  0
VERTEX
  8
3500LEVEL
 62
13
 10
3819.814
 20
-4754.982
 30
1727.000
 70
    32
  0
VERTEX
  8
3500LEVEL
 62
13
 10
3825.891
 20
-4760.311
 30
1727.000
 70
    32
  0
VERTEX
  8
3500LEVEL
 62
13
 10
3831.493
 20
-4767.490
 30
1727.000
 70
    32
  0
VERTEX
  8
3500LEVEL
 62
13
 10
3834.574
 20
-4773.459
 30
1727.000
 70
    32
  0
VERTEX
  8
3500LEVEL
 62
13
 10
3838.498
 20
-4781.832
 30
1727.000
 70
    32
  0
VERTEX
  8
3500LEVEL
 62
13
 10
3842.914
 20
-4790.228
 30
1727.000
 70
    32
  0
VERTEX
  8
3500LEVEL
 62
13
 10
3847.827
 20
-4797.835
 30
1727.000
 70
    32
  0
VERTEX
  8
3500LEVEL
 62
13
 10
3851.127
 20
-4802.860
 30
1727.000
 70
    32
  0
VERTEX
  8
3500LEVEL
 62
13
 10
3854.144
 20
-4807.131
 30
1727.000
 70
    32
  0
VERTEX
  8
3500LEVEL
 62
13
 10
3855.302
 20
-4808.844
 30
1727.000
 70
    32
  0
VERTEX
  8
3500LEVEL
 62
13
 10
3855.153
 20
-4808.236
 30
1727.000
 70
    32
  0
VERTEX
  8
3500LEVEL
 62
13
 10
3854.697
 20
-4806.626
 30
1727.000
 70
    32
  0
VERTEX
  8
3500LEVEL
 62
13
 10
3853.411
 20
-4803.883
 30
1727.000
 70
    32
  0
VERTEX
  8
3500LEVEL
 62
13
 10
3853.264
 20
-4802.464
 30
1727.000
 70
    32
  0
VERTEX
  8
3500LEVEL
 62
13
 10
3855.289
 20
-4802.981
 30
1727.000
 70
    32
  0
VERTEX
  8
3500LEVEL
 62
13
 10
3860.113
 20
-4807.899
 30
1727.000
 70
    32
  0
VERTEX
  8
3500LEVEL
 62
13
 10
3865.367
 20
-4813.438
 30
1727.000
 70
    32
  0
VERTEX
  8
3500LEVEL
 62
13
 10
3870.020
 20
-4818.243
 30
1727.000
 70
    32
  0
VERTEX
  8
3500LEVEL
 62
13
 10
3869.824
 20
-4819.434
 30
1727.000
 70
    32
  0
VERTEX
  8
3500LEVEL
 62
13
 10
3868.216
 20
-4819.078
 30
1727.000
 70
    32
  0
VERTEX
  8
3500LEVEL
 62
13
 10
3865.635
 20
-4816.841
 30
1727.000
 70
    32
  0
VERTEX
  8
3500LEVEL
 62
13
 10
3861.182
 20
-4813.069
 30
1727.000
 70
    32
  0
VERTEX
  8
3500LEVEL
 62
13
 10
3860.186
 20
-4811.681
 30
1727.000
 70
    32
  0
VERTEX
  8
3500LEVEL
 62
13
 10
3858.552
 20
-4809.593
 30
1727.000
 70
    32
  0
VERTEX
  8
3500LEVEL
 62
13
 10
3857.668
 20
-4808.846
 30
1727.000
 70
    32
  0
VERTEX
  8
3500LEVEL
 62
13
 10
3857.667
 20
-4810.400
 30
1727.000
 70
    32
  0
VERTEX
  8
3500LEVEL
 62
13
 10
3858.868
 20
-4811.939
 30
1727.000
 70
    32
  0
VERTEX
  8
3500LEVEL
 62
13
 10
3859.402
 20
-4812.599
 30
1727.000
 70
    32
  0
VERTEX
  8
3500LEVEL
 62
13
 10
3859.343
 20
-4813.126
 30
1727.000
 70
    32
  0
VERTEX
  8
3500LEVEL
 62
13
 10
3859.301
 20
-4814.042
 30
1727.000
 70
    32
  0
VERTEX
  8
3500LEVEL
 62
13
 10
3860.837
 20
-4815.949
 30
1727.000
 70
    32
  0
VERTEX
  8
3500LEVEL
 62
13
 10
3862.860
 20
-4817.278
 30
1727.000
 70
    32
  0
VERTEX
  8
3500LEVEL
 62
13
 10
3864.383
 20
-4818.725
 30
1727.000
 70
    32
  0
VERTEX
  8
3500LEVEL
 62
13
 10
3865.526
 20
-4819.979
 30
1727.000
 70
    32
  0
VERTEX
  8
3500LEVEL
 62
13
 10
3866.537
 20
-4821.014
 30
1727.000
 70
    32
  0
VERTEX
  8
3500LEVEL
 62
13
 10
3866.801
 20
-4822.191
 30
1727.000
 70
    32
  0
VERTEX
  8
3500LEVEL
 62
13
 10
3865.899
 20
-4822.609
 30
1727.000
 70
    32
  0
VERTEX
  8
3500LEVEL
 62
13
 10
3862.817
 20
-4822.044
 30
1727.000
 70
    32
  0
VERTEX
  8
3500LEVEL
 62
13
 10
3860.315
 20
-4820.410
 30
1727.000
 70
    32
  0
VERTEX
  8
3500LEVEL
 62
13
 10
3857.354
 20
-4817.978
 30
1727.000
 70
    32
  0
VERTEX
  8
3500LEVEL
 62
13
 10
3856.519
 20
-4816.174
 30
1727.000
 70
    32
  0
VERTEX
  8
3500LEVEL
 62
13
 10
3854.898
 20
-4814.546
 30
1727.000
 70
    32
  0
VERTEX
  8
3500LEVEL
 62
13
 10
3853.534
 20
-4813.494
 30
1727.000
 70
    32
  0
VERTEX
  8
3500LEVEL
 62
13
 10
3853.125
 20
-4813.935
 30
1727.000
 70
    32
  0
VERTEX
  8
3500LEVEL
 62
13
 10
3854.071
 20
-4815.638
 30
1727.000
 70
    32
  0
VERTEX
  8
3500LEVEL
 62
13
 10
3854.479
 20
-4816.752
 30
1727.000
 70
    32
  0
VERTEX
  8
3500LEVEL
 62
13
 10
3853.868
 20
-4816.229
 30
1727.000
 70
    32
  0
VERTEX
  8
3500LEVEL
 62
13
 10
3853.125
 20
-4815.489
 30
1727.000
 70
    32
  0
VERTEX
  8
3500LEVEL
 62
13
 10
3852.718
 20
-4815.117
 30
1727.000
 70
    32
  0
VERTEX
  8
3500LEVEL
 62
13
 10
3852.793
 20
-4815.791
 30
1727.000
 70
    32
  0
VERTEX
  8
3500LEVEL
 62
13
 10
3853.955
 20
-4818.175
 30
1727.000
 70
    32
  0
VERTEX
  8
3500LEVEL
 62
13
 10
3856.083
 20
-4826.431
 30
1727.000
 70
    32
  0
VERTEX
  8
3500LEVEL
 62
13
 10
3858.325
 20
-4832.961
 30
1727.000
 70
    32
  0
VERTEX
  8
3500LEVEL
 62
13
 10
3860.409
 20
-4839.096
 30
1727.000
 70
    32
  0
VERTEX
  8
3500LEVEL
 62
13
 10
3864.086
 20
-4846.681
 30
1727.000
 70
    32
  0
VERTEX
  8
3500LEVEL
 62
13
 10
3867.359
 20
-4853.082
 30
1727.000
 70
    32
  0
VERTEX
  8
3500LEVEL
 62
13
 10
3872.406
 20
-4863.132
 30
1727.000
 70
    32
  0
VERTEX
  8
3500LEVEL
 62
13
 10
3877.259
 20
-4873.561
 30
1727.000
 70
    32
  0
VERTEX
  8
3500LEVEL
 62
13
 10
3881.390
 20
-4883.568
 30
1727.000
 70
    32
  0
VERTEX
  8
3500LEVEL
 62
13
 10
3886.075
 20
-4893.813
 30
1727.000
 70
    32
  0
VERTEX
  8
3500LEVEL
 62
13
 10
3890.107
 20
-4900.602
 30
1727.000
 70
    32
  0
VERTEX
  8
3500LEVEL
 62
13
 10
3894.524
 20
-4911.293
 30
1727.000
 70
    32
  0
VERTEX
  8
3500LEVEL
 62
13
 10
3896.904
 20
-4919.455
 30
1727.000
 70
    32
  0
VERTEX
  8
3500LEVEL
 62
13
 10
3897.139
 20
-4925.857
 30
1727.000
 70
    32
  0
VERTEX
  8
3500LEVEL
 62
13
 10
3895.614
 20
-4931.367
 30
1727.000
 70
    32
  0
VERTEX
  8
3500LEVEL
 62
13
 10
3896.163
 20
-4940.186
 30
1727.000
 70
    32
  0
VERTEX
  8
3500LEVEL
 62
13
 10
3898.271
 20
-4946.568
 30
1727.000
 70
    32
  0
VERTEX
  8
3500LEVEL
 62
13
 10
3900.940
 20
-4953.789
 30
1727.000
 70
    32
  0
VERTEX
  8
3500LEVEL
 62
13
 10
3902.289
 20
-4959.784
 30
1727.000
 70
    32
  0
VERTEX
  8
3500LEVEL
 62
13
 10
3901.299
 20
-4961.363
 30
1727.000
 70
    32
  0
VERTEX
  8
3500LEVEL
 62
13
 10
3898.855
 20
-4963.052
 30
1727.000
 70
    32
  0
VERTEX
  8
3500LEVEL
 62
13
 10
3895.582
 20
-4962.796
 30
1727.000
 70
    32
  0
VERTEX
  8
3500LEVEL
 62
13
 10
3891.019
 20
-4959.125
 30
1727.000
 70
    32
  0
VERTEX
  8
3500LEVEL
 62
13
 10
3887.622
 20
-4954.660
 30
1727.000
 70
    32
  0
VERTEX
  8
3500LEVEL
 62
13
 10
3880.033
 20
-4946.119
 30
1727.000
 70
    32
  0
VERTEX
  8
3500LEVEL
 62
13
 10
3877.009
 20
-4943.543
 30
1727.000
 70
    32
  0
VERTEX
  8
3500LEVEL
 62
13
 10
3874.900
 20
-4942.563
 30
1727.000
 70
    32
  0
VERTEX
  8
3500LEVEL
 62
13
 10
3873.060
 20
-4941.878
 30
1727.000
 70
    32
  0
VERTEX
  8
3500LEVEL
 62
13
 10
3871.943
 20
-4942.357
 30
1727.000
 70
    32
  0
VERTEX
  8
3500LEVEL
 62
13
 10
3869.008
 20
-4945.506
 30
1727.000
 70
    32
  0
VERTEX
  8
3500LEVEL
 62
13
 10
3867.839
 20
-4948.666
 30
1727.000
 70
    32
  0
VERTEX
  8
3500LEVEL
 62
13
 10
3867.211
 20
-4950.791
 30
1727.000
 70
    32
  0
VERTEX
  8
3500LEVEL
 62
13
 10
3865.709
 20
-4953.512
 30
1727.000
 70
    32
  0
VERTEX
  8
3500LEVEL
 62
13
 10
3864.318
 20
-4954.578
 30
1727.000
 70
    32
  0
VERTEX
  8
3500LEVEL
 62
13
 10
3862.612
 20
-4955.594
 30
1727.000
 70
    32
  0
VERTEX
  8
3500LEVEL
 62
13
 10
3860.082
 20
-4958.374
 30
1727.000
 70
    32
  0
VERTEX
  8
3500LEVEL
 62
13
 10
3858.948
 20
-4962.312
 30
1727.000
 70
    32
  0
VERTEX
  8
3500LEVEL
 62
13
 10
3859.220
 20
-4968.682
 30
1727.000
 70
    32
  0
VERTEX
  8
3500LEVEL
 62
13
 10
3861.594
 20
-4975.430
 30
1727.000
 70
    32
  0
VERTEX
  8
3500LEVEL
 62
13
 10
3862.578
 20
-4980.137
 30
1727.000
 70
    32
  0
VERTEX
  8
3500LEVEL
 62
13
 10
3861.711
 20
-4985.182
 30
1727.000
 70
    32
  0
VERTEX
  8
3500LEVEL
 62
13
 10
3860.144
 20
-4987.759
 30
1727.000
 70
    32
  0
VERTEX
  8
3500LEVEL
 62
13
 10
3858.246
 20
-4988.342
 30
1727.000
 70
    32
  0
VERTEX
  8
3500LEVEL
 62
13
 10
3856.306
 20
-4988.288
 30
1727.000
 70
    32
  0
VERTEX
  8
3500LEVEL
 62
13
 10
3855.039
 20
-4988.972
 30
1727.000
 70
    32
  0
VERTEX
  8
3500LEVEL
 62
13
 10
3854.537
 20
-4989.902
 30
1727.000
 70
    32
  0
VERTEX
  8
3500LEVEL
 62
13
 10
3853.139
 20
-4991.109
 30
1727.000
 70
    32
  0
VERTEX
  8
3500LEVEL
 62
13
 10
3851.431
 20
-4991.384
 30
1727.000
 70
    32
  0
VERTEX
  8
3500LEVEL
 62
13
 10
3845.360
 20
-4991.317
 30
1727.000
 70
    32
  0
VERTEX
  8
3500LEVEL
 62
13
 10
3840.554
 20
-4990.637
 30
1727.000
 70
    32
  0
VERTEX
  8
3500LEVEL
 62
13
 10
3837.787
 20
-4990.121
 30
1727.000
 70
    32
  0
VERTEX
  8
3500LEVEL
 62
13
 10
3835.483
 20
-4991.075
 30
1727.000
 70
    32
  0
VERTEX
  8
3500LEVEL
 62
13
 10
3832.662
 20
-4991.757
 30
1727.000
 70
    32
  0
VERTEX
  8
3500LEVEL
 62
13
 10
3830.946
 20
-4992.985
 30
1727.000
 70
    32
  0
VERTEX
  8
3500LEVEL
 62
13
 10
3827.889
 20
-4993.410
 30
1727.000
 70
    32
  0
VERTEX
  8
3500LEVEL
 62
13
 10
3822.845
 20
-4993.284
 30
1727.000
 70
    32
  0
VERTEX
  8
3500LEVEL
 62
13
 10
3818.574
 20
-4994.006
 30
1727.000
 70
    32
  0
VERTEX
  8
3500LEVEL
 62
13
 10
3816.580
 20
-4993.596
 30
1727.000
 70
    32
  0
VERTEX
  8
3500LEVEL
 62
13
 10
3815.771
 20
-4991.228
 30
1727.000
 70
    32
  0
VERTEX
  8
3500LEVEL
 62
13
 10
3816.710
 20
-4989.223
 30
1727.000
 70
    32
  0
VERTEX
  8
3500LEVEL
 62
13
 10
3816.852
 20
-4987.676
 30
1727.000
 70
    32
  0
VERTEX
  8
3500LEVEL
 62
13
 10
3814.388
 20
-4985.196
 30
1727.000
 70
    32
  0
VERTEX
  8
3500LEVEL
 62
13
 10
3811.513
 20
-4983.969
 30
1727.000
 70
    32
  0
VERTEX
  8
3500LEVEL
 62
13
 10
3805.584
 20
-4982.355
 30
1727.000
 70
    32
  0
VERTEX
  8
3500LEVEL
 62
13
 10
3801.812
 20
-4982.217
 30
1727.000
 70
    32
  0
VERTEX
  8
3500LEVEL
 62
13
 10
3793.494
 20
-4984.942
 30
1727.000
 70
    32
  0
VERTEX
  8
3500LEVEL
 62
13
 10
3789.445
 20
-4986.204
 30
1727.000
 70
    32
  0
VERTEX
  8
3500LEVEL
 62
13
 10
3786.103
 20
-4986.686
 30
1727.000
 70
    32
  0
VERTEX
  8
3500LEVEL
 62
13
 10
3781.386
 20
-4985.586
 30
1727.000
 70
    32
  0
VERTEX
  8
3500LEVEL
 62
13
 10
3776.732
 20
-4983.889
 30
1727.000
 70
    32
  0
VERTEX
  8
3500LEVEL
 62
13
 10
3771.976
 20
-4981.340
 30
1727.000
 70
    32
  0
VERTEX
  8
3500LEVEL
 62
13
 10
3768.805
 20
-4979.640
 30
1727.000
 70
    32
  0
VERTEX
  8
3500LEVEL
 62
13
 10
3765.654
 20
-4977.518
 30
1727.000
 70
    32
  0
VERTEX
  8
3500LEVEL
 62
13
 10
3764.235
 20
-4976.111
 30
1727.000
 70
    32
  0
VERTEX
  8
3500LEVEL
 62
13
 10
3763.576
 20
-4975.091
 30
1727.000
 70
    32
  0
VERTEX
  8
3500LEVEL
 62
13
 10
3765.074
 20
-4973.995
 30
1727.000
 70
    32
  0
VERTEX
  8
3500LEVEL
 62
13
 10
3767.433
 20
-4975.693
 30
1727.000
 70
    32
  0
VERTEX
  8
3500LEVEL
 62
13
 10
3771.716
 20
-4978.538
 30
1727.000
 70
    32
  0
VERTEX
  8
3500LEVEL
 62
13
 10
3774.401
 20
-4980.816
 30
1727.000
 70
    32
  0
VERTEX
  8
3500LEVEL
 62
13
 10
3775.812
 20
-4981.622
 30
1727.000
 70
    32
  0
VERTEX
  8
3500LEVEL
 62
13
 10
3777.181
 20
-4981.049
 30
1727.000
 70
    32
  0
VERTEX
  8
3500LEVEL
 62
13
 10
3774.971
 20
-4978.405
 30
1727.000
 70
    32
  0
VERTEX
  8
3500LEVEL
 62
13
 10
3771.646
 20
-4974.686
 30
1727.000
 70
    32
  0
VERTEX
  8
3500LEVEL
 62
13
 10
3767.999
 20
-4971.057
 30
1727.000
 70
    32
  0
VERTEX
  8
3500LEVEL
 62
13
 10
3765.268
 20
-4967.471
 30
1727.000
 70
    32
  0
VERTEX
  8
3500LEVEL
 62
13
 10
3762.558
 20
-4964.203
 30
1727.000
 70
    32
  0
VERTEX
  8
3500LEVEL
 62
13
 10
3761.642
 20
-4962.607
 30
1727.000
 70
    32
  0
VERTEX
  8
3500LEVEL
 62
13
 10
3760.602
 20
-4960.652
 30
1727.000
 70
    32
  0
VERTEX
  8
3500LEVEL
 62
13
 10
3762.054
 20
-4959.801
 30
1727.000
 70
    32
  0
VERTEX
  8
3500LEVEL
 62
13
 10
3766.688
 20
-4961.921
 30
1727.000
 70
    32
  0
VERTEX
  8
3500LEVEL
 62
13
 10
3768.018
 20
-4962.194
 30
1727.000
 70
    32
  0
VERTEX
  8
3500LEVEL
 62
13
 10
3769.175
 20
-4961.611
 30
1727.000
 70
    32
  0
VERTEX
  8
3500LEVEL
 62
13
 10
3769.905
 20
-4961.080
 30
1727.000
 70
    32
  0
VERTEX
  8
3500LEVEL
 62
13
 10
3770.039
 20
-4958.932
 30
1727.000
 70
    32
  0
VERTEX
  8
3500LEVEL
 62
13
 10
3767.982
 20
-4954.529
 30
1727.000
 70
    32
  0
VERTEX
  8
3500LEVEL
 62
13
 10
3760.315
 20
-4947.679
 30
1727.000
 70
    32
  0
VERTEX
  8
3500LEVEL
 62
13
 10
3750.671
 20
-4940.066
 30
1727.000
 70
    32
  0
VERTEX
  8
3500LEVEL
 62
13
 10
3744.875
 20
-4935.562
 30
1727.000
 70
    32
  0
VERTEX
  8
3500LEVEL
 62
13
 10
3735.507
 20
-4928.846
 30
1727.000
 70
    32
  0
VERTEX
  8
3500LEVEL
 62
13
 10
3731.289
 20
-4924.591
 30
1727.000
 70
    32
  0
VERTEX
  8
3500LEVEL
 62
13
 10
3731.449
 20
-4921.879
 30
1727.000
 70
    32
  0
VERTEX
  8
3500LEVEL
 62
13
 10
3732.876
 20
-4920.779
 30
1727.000
 70
    32
  0
VERTEX
  8
3500LEVEL
 62
13
 10
3735.883
 20
-4920.670
 30
1727.000
 70
    32
  0
VERTEX
  8
3500LEVEL
 62
13
 10
3738.753
 20
-4921.226
 30
1727.000
 70
    32
  0
VERTEX
  8
3500LEVEL
 62
13
 10
3739.990
 20
-4920.435
 30
1727.000
 70
    32
  0
VERTEX
  8
3500LEVEL
 62
13
 10
3739.936
 20
-4917.784
 30
1727.000
 70
    32
  0
VERTEX
  8
3500LEVEL
 62
13
 10
3734.613
 20
-4911.430
 30
1727.000
 70
    32
  0
VERTEX
  8
3500LEVEL
 62
13
 10
3728.436
 20
-4904.436
 30
1727.000
 70
    32
  0
VERTEX
  8
3500LEVEL
 62
13
 10
3717.365
 20
-4892.520
 30
1727.000
 70
    32
  0
VERTEX
  8
3500LEVEL
 62
13
 10
3709.071
 20
-4880.909
 30
1727.000
 70
    32
  0
VERTEX
  8
3500LEVEL
 62
13
 10
3701.456
 20
-4870.636
 30
1727.000
 70
    32
  0
VERTEX
  8
3500LEVEL
 62
13
 10
3695.042
 20
-4860.347
 30
1727.000
 70
    32
  0
VERTEX
  8
3500LEVEL
 62
13
 10
3689.665
 20
-4847.492
 30
1727.000
 70
    32
  0
VERTEX
  8
3500LEVEL
 62
13
 10
3684.854
 20
-4839.996
 30
1727.000
 70
    32
  0
VERTEX
  8
3500LEVEL
 62
13
 10
3678.235
 20
-4829.557
 30
1727.000
 70
    32
  0
VERTEX
  8
3500LEVEL
 62
13
 10
3673.422
 20
-4825.168
 30
1727.000
 70
    32
  0
VERTEX
  8
3500LEVEL
 62
13
 10
3667.678
 20
-4821.832
 30
1727.000
 70
    32
  0
VERTEX
  8
3500LEVEL
 62
13
 10
3662.313
 20
-4820.243
 30
1727.000
 70
    32
  0
VERTEX
  8
3500LEVEL
 62
13
 10
3659.655
 20
-4820.439
 30
1727.000
 70
    32
  0
VERTEX
  8
3500LEVEL
 62
13
 10
3658.957
 20
-4820.266
 30
1727.000
 70
    32
  0
VERTEX
  8
3500LEVEL
 62
13
 10
3656.343
 20
-4822.582
 30
1727.000
 70
    32
  0
VERTEX
  8
3500LEVEL
 62
13
 10
3654.008
 20
-4823.428
 30
1727.000
 70
    32
  0
VERTEX
  8
3500LEVEL
 62
13
 10
3651.555
 20
-4825.329
 30
1727.000
 70
    32
  0
VERTEX
  8
3500LEVEL
 62
13
 10
3648.952
 20
-4825.880
 30
1727.000
 70
    32
  0
VERTEX
  8
3500LEVEL
 62
13
 10
3646.096
 20
-4824.230
 30
1727.000
 70
    32
  0
VERTEX
  8
3500LEVEL
 62
13
 10
3642.752
 20
-4823.229
 30
1727.000
 70
    32
  0
VERTEX
  8
3500LEVEL
 62
13
 10
3641.271
 20
-4824.715
 30
1727.000
 70
    32
  0
VERTEX
  8
3500LEVEL
 62
13
 10
3640.087
 20
-4826.673
 30
1727.000
 70
    32
  0
VERTEX
  8
3500LEVEL
 62
13
 10
3638.347
 20
-4826.099
 30
1727.000
 70
    32
  0
VERTEX
  8
3500LEVEL
 62
13
 10
3631.845
 20
-4820.820
 30
1727.000
 70
    32
  0
VERTEX
  8
3500LEVEL
 62
13
 10
3623.918
 20
-4810.427
 30
1727.000
 70
    32
  0
VERTEX
  8
3500LEVEL
 62
13
 10
3619.948
 20
-4800.745
 30
1727.000
 70
    32
  0
VERTEX
  8
3500LEVEL
 62
13
 10
3607.962
 20
-4783.384
 30
1727.000
 70
    32
  0
VERTEX
  8
3500LEVEL
 62
13
 10
3599.764
 20
-4773.507
 30
1727.000
 70
    32
  0
VERTEX
  8
3500LEVEL
 62
13
 10
3591.494
 20
-4760.590
 30
1727.000
 70
    32
  0
VERTEX
  8
3500LEVEL
 62
13
 10
3584.155
 20
-4748.917
 30
1727.000
 70
    32
  0
VERTEX
  8
3500LEVEL
 62
13
 10
3579.039
 20
-4739.606
 30
1727.000
 70
    32
  0
VERTEX
  8
3500LEVEL
 62
13
 10
3571.314
 20
-4727.880
 30
1727.000
 70
    32
  0
VERTEX
  8
3500LEVEL
 62
13
 10
3567.738
 20
-4722.701
 30
1727.000
 70
    32
  0
VERTEX
  8
3500LEVEL
 62
13
 10
3564.516
 20
-4718.279
 30
1727.000
 70
    32
  0
VERTEX
  8
3500LEVEL
 62
13
 10
3563.044
 20
-4717.258
 30
1727.000
 70
    32
  0
VERTEX
  8
3500LEVEL
 62
13
 10
3561.265
 20
-4716.788
 30
1727.000
 70
    32
  0
VERTEX
  8
3500LEVEL
 62
13
 10
3559.837
 20
-4717.888
 30
1727.000
 70
    32
  0
VERTEX
  8
3500LEVEL
 62
13
 10
3558.934
 20
-4719.859
 30
1727.000
 70
    32
  0
VERTEX
  8
3500LEVEL
 62
13
 10
3558.445
 20
-4720.508
 30
1727.000
 70
    32
  0
VERTEX
  8
3500LEVEL
 62
13
 10
3556.914
 20
-4720.014
 30
1727.000
 70
    32
  0
VERTEX
  8
3500LEVEL
 62
13
 10
3556.409
 20
-4721.014
 30
1727.000
 70
    32
  0
VERTEX
  8
3500LEVEL
 62
13
 10
3556.050
 20
-4724.989
 30
1727.000
 70
    32
  0
VERTEX
  8
3500LEVEL
 62
13
 10
3555.660
 20
-4728.855
 30
1727.000
 70
    32
  0
VERTEX
  8
3500LEVEL
 62
13
 10
3555.268
 20
-4731.239
 30
1727.000
 70
    32
  0
VERTEX
  8
3500LEVEL
 62
13
 10
3554.610
 20
-4733.257
 30
1727.000
 70
    32
  0
VERTEX
  8
3500LEVEL
 62
13
 10
3554.258
 20
-4733.240
 30
1727.000
 70
    32
  0
VERTEX
  8
3500LEVEL
 62
13
 10
3553.698
 20
-4729.295
 30
1727.000
 70
    32
  0
VERTEX
  8
3500LEVEL
 62
13
 10
3553.345
 20
-4724.688
 30
1727.000
 70
    32
  0
VERTEX
  8
3500LEVEL
 62
13
 10
3553.042
 20
-4722.060
 30
1727.000
 70
    32
  0
VERTEX
  8
3500LEVEL
 62
13
 10
3552.519
 20
-4714.232
 30
1727.000
 70
    32
  0
VERTEX
  8
3500LEVEL
 62
13
 10
3551.868
 20
-4704.561
 30
1727.000
 70
    32
  0
VERTEX
  8
3500LEVEL
 62
13
 10
3550.674
 20
-4696.737
 30
1727.000
 70
    32
  0
VERTEX
  8
3500LEVEL
 62
13
 10
3550.028
 20
-4691.586
 30
1727.000
 70
    32
  0
VERTEX
  8
3500LEVEL
 62
13
 10
3549.793
 20
-4685.184
 30
1727.000
 70
    32
  0
VERTEX
  8
3500LEVEL
 62
13
 10
3549.762
 20
-4678.932
 30
1727.000
 70
    32
  0
VERTEX
  8
3500LEVEL
 62
13
 10
3549.278
 20
-4676.402
 30
1727.000
 70
    32
  0
VERTEX
  8
3500LEVEL
 62
13
 10
3544.179
 20
-4667.480
 30
1727.000
 70
    32
  0
VERTEX
  8
3500LEVEL
 62
13
 10
3540.670
 20
-4660.079
 30
1727.000
 70
    32
  0
VERTEX
  8
3500LEVEL
 62
13
 10
3536.003
 20
-4650.966
 30
1727.000
 70
    32
  0
VERTEX
  8
3500LEVEL
 62
13
 10
3533.023
 20
-4646.661
 30
1727.000
 70
    32
  0
VERTEX
  8
3500LEVEL
 62
13
 10
3531.930
 20
-4645.093
 30
1727.000
 70
    32
  0
VERTEX
  8
3500LEVEL
 62
13
 10
3530.619
 20
-4643.655
 30
1727.000
 70
    32
  0
VERTEX
  8
3500LEVEL
 62
13
 10
3530.261
 20
-4644.522
 30
1727.000
 70
    32
  0
VERTEX
  8
3500LEVEL
 62
13
 10
3531.777
 20
-4649.959
 30
1727.000
 70
    32
  0
VERTEX
  8
3500LEVEL
 62
13
 10
3534.768
 20
-4658.643
 30
1727.000
 70
    32
  0
VERTEX
  8
3500LEVEL
 62
13
 10
3537.359
 20
-4665.260
 30
1727.000
 70
    32
  0
VERTEX
  8
3500LEVEL
 62
13
 10
3540.642
 20
-4671.449
 30
1727.000
 70
    32
  0
VERTEX
  8
3500LEVEL
 62
13
 10
3542.992
 20
-4676.396
 30
1727.000
 70
    32
  0
VERTEX
  8
3500LEVEL
 62
13
 10
3543.944
 20
-4679.512
 30
1727.000
 70
    32
  0
VERTEX
  8
3500LEVEL
 62
13
 10
3543.471
 20
-4679.808
 30
1727.000
 70
    32
  0
VERTEX
  8
3500LEVEL
 62
13
 10
3540.354
 20
-4676.168
 30
1727.000
 70
    32
  0
VERTEX
  8
3500LEVEL
 62
13
 10
3535.816
 20
-4669.638
 30
1727.000
 70
    32
  0
VERTEX
  8
3500LEVEL
 62
13
 10
3534.037
 20
-4665.319
 30
1727.000
 70
    32
  0
VERTEX
  8
3500LEVEL
 62
13
 10
3532.869
 20
-4663.076
 30
1727.000
 70
    32
  0
VERTEX
  8
3500LEVEL
 62
13
 10
3531.503
 20
-4661.283
 30
1727.000
 70
    32
  0
VERTEX
  8
3500LEVEL
 62
13
 10
3530.248
 20
-4660.942
 30
1727.000
 70
    32
  0
VERTEX
  8
3500LEVEL
 62
13
 10
3530.793
 20
-4663.687
 30
1727.000
 70
    32
  0
VERTEX
  8
3500LEVEL
 62
13
 10
3533.040
 20
-4669.334
 30
1727.000
 70
    32
  0
VERTEX
  8
3500LEVEL
 62
13
 10
3535.966
 20
-4674.837
 30
1727.000
 70
    32
  0
VERTEX
  8
3500LEVEL
 62
13
 10
3538.470
 20
-4679.507
 30
1727.000
 70
    32
  0
VERTEX
  8
3500LEVEL
 62
13
 10
3539.986
 20
-4682.649
 30
1727.000
 70
    32
  0
VERTEX
  8
3500LEVEL
 62
13
 10
3540.768
 20
-4684.840
 30
1727.000
 70
    32
  0
VERTEX
  8
3500LEVEL
 62
13
 10
3539.128
 20
-4683.634
 30
1727.000
 70
    32
  0
VERTEX
  8
3500LEVEL
 62
13
 10
3532.512
 20
-4674.678
 30
1727.000
 70
    32
  0
VERTEX
  8
3500LEVEL
 62
13
 10
3525.523
 20
-4663.091
 30
1727.000
 70
    32
  0
VERTEX
  8
3500LEVEL
 62
13
 10
3518.821
 20
-4652.930
 30
1727.000
 70
    32
  0
VERTEX
  8
3500LEVEL
 62
13
 10
3513.325
 20
-4645.721
 30
1727.000
 70
    32
  0
VERTEX
  8
3500LEVEL
 62
13
 10
3510.146
 20
-4642.679
 30
1727.000
 70
    32
  0
VERTEX
  8
3500LEVEL
 62
13
 10
3508.147
 20
-4641.598
 30
1727.000
 70
    32
  0
VERTEX
  8
3500LEVEL
 62
13
 10
3505.048
 20
-4640.643
 30
1727.000
 70
    32
  0
VERTEX
  8
3500LEVEL
 62
13
 10
3504.824
 20
-4645.507
 30
1727.000
 70
    32
  0
VERTEX
  8
3500LEVEL
 62
13
 10
3505.780
 20
-4649.294
 30
1727.000
 70
    32
  0
VERTEX
  8
3500LEVEL
 62
13
 10
3505.572
 20
-4653.063
 30
1727.000
 70
    32
  0
VERTEX
  8
3500LEVEL
 62
13
 10
3502.902
 20
-4651.987
 30
1727.000
 70
    32
  0
VERTEX
  8
3500LEVEL
 62
13
 10
3500.142
 20
-4649.035
 30
1727.000
 70
    32
  0
VERTEX
  8
3500LEVEL
 62
13
 10
3496.829
 20
-4646.587
 30
1727.000
 70
    32
  0
VERTEX
  8
3500LEVEL
 62
13
 10
3494.906
 20
-4646.922
 30
1727.000
 70
    32
  0
VERTEX
  8
3500LEVEL
 62
13
 10
3494.823
 20
-4651.050
 30
1727.000
 70
    32
  0
VERTEX
  8
3500LEVEL
 62
13
 10
3494.629
 20
-4653.725
 30
1727.000
 70
    32
  0
VERTEX
  8
3500LEVEL
 62
13
 10
3492.437
 20
-4655.320
 30
1727.000
 70
    32
  0
VERTEX
  8
3500LEVEL
 62
13
 10
3493.085
 20
-4659.658
 30
1727.000
 70
    32
  0
VERTEX
  8
3500LEVEL
 62
13
 10
3494.946
 20
-4662.957
 30
1727.000
 70
    32
  0
VERTEX
  8
3500LEVEL
 62
13
 10
3496.053
 20
-4666.539
 30
1727.000
 70
    32
  0
VERTEX
  8
3500LEVEL
 62
13
 10
3494.963
 20
-4667.196
 30
1727.000
 70
    32
  0
VERTEX
  8
3500LEVEL
 62
13
 10
3491.543
 20
-4664.778
 30
1727.000
 70
    32
  0
VERTEX
  8
3500LEVEL
 62
13
 10
3489.132
 20
-4661.913
 30
1727.000
 70
    32
  0
VERTEX
  8
3500LEVEL
 62
13
 10
3488.059
 20
-4662.217
 30
1727.000
 70
    32
  0
VERTEX
  8
3500LEVEL
 62
13
 10
3490.400
 20
-4667.374
 30
1727.000
 70
    32
  0
VERTEX
  8
3500LEVEL
 62
13
 10
3495.386
 20
-4674.914
 30
1727.000
 70
    32
  0
VERTEX
  8
3500LEVEL
 62
13
 10
3501.009
 20
-4684.707
 30
1727.000
 70
    32
  0
VERTEX
  8
3500LEVEL
 62
13
 10
3505.124
 20
-4692.771
 30
1727.000
 70
    32
  0
VERTEX
  8
3500LEVEL
 62
13
 10
3507.363
 20
-4697.077
 30
1727.000
 70
    32
  0
VERTEX
  8
3500LEVEL
 62
13
 10
3507.743
 20
-4699.566
 30
1727.000
 70
    32
  0
VERTEX
  8
3500LEVEL
 62
13
 10
3507.124
 20
-4700.739
 30
1727.000
 70
    32
  0
VERTEX
  8
3500LEVEL
 62
13
 10
3506.335
 20
-4702.539
 30
1727.000
 70
    32
  0
VERTEX
  8
3500LEVEL
 62
13
 10
3506.374
 20
-4706.284
 30
1727.000
 70
    32
  0
VERTEX
  8
3500LEVEL
 62
13
 10
3506.380
 20
-4711.546
 30
1727.000
 70
    32
  0
VERTEX
  8
3500LEVEL
 62
13
 10
3506.905
 20
-4714.713
 30
1727.000
 70
    32
  0
VERTEX
  8
3500LEVEL
 62
13
 10
3506.681
 20
-4717.281
 30
1727.000
 70
    32
  0
VERTEX
  8
3500LEVEL
 62
13
 10
3506.165
 20
-4717.751
 30
1727.000
 70
    32
  0
VERTEX
  8
3500LEVEL
 62
13
 10
3505.137
 20
-4717.069
 30
1727.000
 70
    32
  0
VERTEX
  8
3500LEVEL
 62
13
 10
3504.014
 20
-4717.688
 30
1727.000
 70
    32
  0
VERTEX
  8
3500LEVEL
 62
13
 10
3504.906
 20
-4721.331
 30
1727.000
 70
    32
  0
VERTEX
  8
3500LEVEL
 62
13
 10
3506.463
 20
-4727.406
 30
1727.000
 70
    32
  0
VERTEX
  8
3500LEVEL
 62
13
 10
3507.292
 20
-4731.647
 30
1727.000
 70
    32
  0
VERTEX
  8
3500LEVEL
 62
13
 10
3507.369
 20
-4737.654
 30
1727.000
 70
    32
  0
VERTEX
  8
3500LEVEL
 62
13
 10
3505.746
 20
-4742.241
 30
1727.000
 70
    32
  0
VERTEX
  8
3500LEVEL
 62
13
 10
3504.452
 20
-4745.042
 30
1727.000
 70
    32
  0
VERTEX
  8
3500LEVEL
 62
13
 10
3501.422
 20
-4749.493
 30
1727.000
 70
    32
  0
VERTEX
  8
3500LEVEL
 62
13
 10
3498.820
 20
-4753.082
 30
1727.000
 70
    32
  0
VERTEX
  8
3500LEVEL
 62
13
 10
3496.958
 20
-4755.186
 30
1727.000
 70
    32
  0
VERTEX
  8
3500LEVEL
 62
13
 10
3494.444
 20
-4759.167
 30
1727.000
 70
    32
  0
VERTEX
  8
3500LEVEL
 62
13
 10
3492.899
 20
-4764.357
 30
1727.000
 70
    32
  0
VERTEX
  8
3500LEVEL
 62
13
 10
3492.544
 20
-4769.003
 30
1727.000
 70
    32
  0
VERTEX
  8
3500LEVEL
 62
13
 10
3493.332
 20
-4774.901
 30
1727.000
 70
    32
  0
VERTEX
  8
3500LEVEL
 62
13
 10
3493.930
 20
-4781.109
 30
1727.000
 70
    32
  0
VERTEX
  8
3500LEVEL
 62
13
 10
3494.319
 20
-4784.941
 30
1727.000
 70
    32
  0
VERTEX
  8
3500LEVEL
 62
13
 10
3494.936
 20
-4789.171
 30
1727.000
 70
    32
  0
VERTEX
  8
3500LEVEL
 62
13
 10
3494.652
 20
-4789.971
 30
1727.000
 70
    32
  0
VERTEX
  8
3500LEVEL
 62
13
 10
3491.930
 20
-4787.727
 30
1727.000
 70
    32
  0
VERTEX
  8
3500LEVEL
 62
13
 10
3487.815
 20
-4782.770
 30
1727.000
 70
    32
  0
VERTEX
  8
3500LEVEL
 62
13
 10
3484.705
 20
-4777.436
 30
1727.000
 70
    32
  0
VERTEX
  8
3500LEVEL
 62
13
 10
3483.311
 20
-4770.874
 30
1727.000
 70
    32
  0
VERTEX
  8
3500LEVEL
 62
13
 10
3483.587
 20
-4764.883
 30
1727.000
 70
    32
  0
VERTEX
  8
3500LEVEL
 62
13
 10
3483.801
 20
-4760.231
 30
1727.000
 70
    32
  0
VERTEX
  8
3500LEVEL
 62
13
 10
3482.426
 20
-4754.800
 30
1727.000
 70
    32
  0
VERTEX
  8
3500LEVEL
 62
13
 10
3483.124
 20
-4751.124
 30
1727.000
 70
    32
  0
VERTEX
  8
3500LEVEL
 62
13
 10
3485.105
 20
-4745.671
 30
1727.000
 70
    32
  0
VERTEX
  8
3500LEVEL
 62
13
 10
3484.767
 20
-4739.970
 30
1727.000
 70
    32
  0
VERTEX
  8
3500LEVEL
 62
13
 10
3479.619
 20
-4733.659
 30
1727.000
 70
    32
  0
VERTEX
  8
3500LEVEL
 62
13
 10
3472.487
 20
-4725.173
 30
1727.000
 70
    32
  0
VERTEX
  8
3500LEVEL
 62
13
 10
3465.875
 20
-4716.888
 30
1727.000
 70
    32
  0
VERTEX
  8
3500LEVEL
 62
13
 10
3458.979
 20
-4708.661
 30
1727.000
 70
    32
  0
VERTEX
  8
3500LEVEL
 62
13
 10
3455.044
 20
-4703.607
 30
1727.000
 70
    32
  0
VERTEX
  8
3500LEVEL
 62
13
 10
3451.149
 20
-4698.448
 30
1727.000
 70
    32
  0
VERTEX
  8
3500LEVEL
 62
13
 10
3448.565
 20
-4696.281
 30
1727.000
 70
    32
  0
VERTEX
  8
3500LEVEL
 62
13
 10
3447.147
 20
-4697.169
 30
1727.000
 70
    32
  0
VERTEX
  8
3500LEVEL
 62
13
 10
3449.046
 20
-4701.177
 30
1727.000
 70
    32
  0
VERTEX
  8
3500LEVEL
 62
13
 10
3451.112
 20
-4706.180
 30
1727.000
 70
    32
  0
VERTEX
  8
3500LEVEL
 62
13
 10
3451.523
 20
-4709.519
 30
1727.000
 70
    32
  0
VERTEX
  8
3500LEVEL
 62
13
 10
3451.473
 20
-4713.684
 30
1727.000
 70
    32
  0
VERTEX
  8
3500LEVEL
 62
13
 10
3451.842
 20
-4719.492
 30
1727.000
 70
    32
  0
VERTEX
  8
3500LEVEL
 62
13
 10
3453.529
 20
-4725.044
 30
1727.000
 70
    32
  0
VERTEX
  8
3500LEVEL
 62
13
 10
3456.158
 20
-4730.073
 30
1727.000
 70
    32
  0
VERTEX
  8
3500LEVEL
 62
13
 10
3460.592
 20
-4738.858
 30
1727.000
 70
    32
  0
VERTEX
  8
3500LEVEL
 62
13
 10
3461.872
 20
-4741.742
 30
1727.000
 70
    32
  0
VERTEX
  8
3500LEVEL
 62
13
 10
3464.128
 20
-4747.991
 30
1727.000
 70
    32
  0
VERTEX
  8
3500LEVEL
 62
13
 10
3466.140
 20
-4751.085
 30
1727.000
 70
    32
  0
VERTEX
  8
3500LEVEL
 62
13
 10
3469.648
 20
-4757.744
 30
1727.000
 70
    32
  0
VERTEX
  8
3500LEVEL
 62
13
 10
3471.458
 20
-4762.913
 30
1727.000
 70
    32
  0
VERTEX
  8
3500LEVEL
 62
13
 10
3473.547
 20
-4769.719
 30
1727.000
 70
    32
  0
VERTEX
  8
3500LEVEL
 62
13
 10
3476.361
 20
-4776.876
 30
1727.000
 70
    32
  0
VERTEX
  8
3500LEVEL
 62
13
 10
3478.503
 20
-4781.742
 30
1727.000
 70
    32
  0
VERTEX
  8
3500LEVEL
 62
13
 10
3482.076
 20
-4786.991
 30
1727.000
 70
    32
  0
VERTEX
  8
3500LEVEL
 62
13
 10
3486.298
 20
-4791.176
 30
1727.000
 70
    32
  0
VERTEX
  8
3500LEVEL
 62
13
 10
3492.391
 20
-4794.599
 30
1727.000
 70
    32
  0
VERTEX
  8
3500LEVEL
 62
13
 10
3497.807
 20
-4798.167
 30
1727.000
 70
    32
  0
VERTEX
  8
3500LEVEL
 62
13
 10
3504.805
 20
-4802.656
 30
1727.000
 70
    32
  0
VERTEX
  8
3500LEVEL
 62
13
 10
3510.104
 20
-4806.467
 30
1727.000
 70
    32
  0
VERTEX
  8
3500LEVEL
 62
13
 10
3513.059
 20
-4809.781
 30
1727.000
 70
    32
  0
VERTEX
  8
3500LEVEL
 62
13
 10
3515.643
 20
-4811.948
 30
1727.000
 70
    32
  0
VERTEX
  8
3500LEVEL
 62
13
 10
3517.282
 20
-4812.412
 30
1727.000
 70
    32
  0
VERTEX
  8
3500LEVEL
 62
13
 10
3521.131
 20
-4812.412
 30
1727.000
 70
    32
  0
VERTEX
  8
3500LEVEL
 62
13
 10
3525.554
 20
-4812.227
 30
1727.000
 70
    32
  0
VERTEX
  8
3500LEVEL
 62
13
 10
3531.550
 20
-4813.915
 30
1727.000
 70
    32
  0
VERTEX
  8
3500LEVEL
 62
13
 10
3536.241
 20
-4815.578
 30
1727.000
 70
    32
  0
VERTEX
  8
3500LEVEL
 62
13
 10
3539.792
 20
-4817.472
 30
1727.000
 70
    32
  0
VERTEX
  8
3500LEVEL
 62
13
 10
3541.664
 20
-4819.006
 30
1727.000
 70
    32
  0
VERTEX
  8
3500LEVEL
 62
13
 10
3541.206
 20
-4820.504
 30
1727.000
 70
    32
  0
VERTEX
  8
3500LEVEL
 62
13
 10
3539.693
 20
-4820.399
 30
1727.000
 70
    32
  0
VERTEX
  8
3500LEVEL
 62
13
 10
3535.463
 20
-4819.463
 30
1727.000
 70
    32
  0
VERTEX
  8
3500LEVEL
 62
13
 10
3530.523
 20
-4817.823
 30
1727.000
 70
    32
  0
VERTEX
  8
3500LEVEL
 62
13
 10
3526.050
 20
-4816.028
 30
1727.000
 70
    32
  0
VERTEX
  8
3500LEVEL
 62
13
 10
3523.646
 20
-4815.317
 30
1727.000
 70
    32
  0
VERTEX
  8
3500LEVEL
 62
13
 10
3522.103
 20
-4815.847
 30
1727.000
 70
    32
  0
VERTEX
  8
3500LEVEL
 62
13
 10
3523.391
 20
-4817.036
 30
1727.000
 70
    32
  0
VERTEX
  8
3500LEVEL
 62
13
 10
3529.009
 20
-4819.272
 30
1727.000
 70
    32
  0
VERTEX
  8
3500LEVEL
 62
13
 10
3536.353
 20
-4822.364
 30
1727.000
 70
    32
  0
VERTEX
  8
3500LEVEL
 62
13
 10
3540.572
 20
-4824.324
 30
1727.000
 70
    32
  0
VERTEX
  8
3500LEVEL
 62
13
 10
3542.894
 20
-4826.055
 30
1727.000
 70
    32
  0
VERTEX
  8
3500LEVEL
 62
13
 10
3545.199
 20
-4828.138
 30
1727.000
 70
    32
  0
VERTEX
  8
3500LEVEL
 62
13
 10
3547.056
 20
-4830.766
 30
1727.000
 70
    32
  0
VERTEX
  8
3500LEVEL
 62
13
 10
3548.828
 20
-4832.931
 30
1727.000
 70
    32
  0
VERTEX
  8
3500LEVEL
 62
13
 10
3549.657
 20
-4834.877
 30
1727.000
 70
    32
  0
VERTEX
  8
3500LEVEL
 62
13
 10
3550.493
 20
-4835.127
 30
1727.000
 70
    32
  0
VERTEX
  8
3500LEVEL
 62
13
 10
3552.880
 20
-4835.448
 30
1727.000
 70
    32
  0
VERTEX
  8
3500LEVEL
 62
13
 10
3556.554
 20
-4839.255
 30
1727.000
 70
    32
  0
VERTEX
  8
3500LEVEL
 62
13
 10
3558.612
 20
-4842.104
 30
1727.000
 70
    32
  0
VERTEX
  8
3500LEVEL
 62
13
 10
3560.636
 20
-4844.175
 30
1727.000
 70
    32
  0
VERTEX
  8
3500LEVEL
 62
13
 10
3562.847
 20
-4846.007
 30
1727.000
 70
    32
  0
VERTEX
  8
3500LEVEL
 62
13
 10
3565.024
 20
-4847.060
 30
1727.000
 70
    32
  0
VERTEX
  8
3500LEVEL
 62
13
 10
3567.447
 20
-4848.902
 30
1727.000
 70
    32
  0
VERTEX
  8
3500LEVEL
 62
13
 10
3569.036
 20
-4850.423
 30
1727.000
 70
    32
  0
VERTEX
  8
3500LEVEL
 62
13
 10
3569.911
 20
-4851.381
 30
1727.000
 70
    32
  0
VERTEX
  8
3500LEVEL
 62
13
 10
3570.393
 20
-4853.169
 30
1727.000
 70
    32
  0
VERTEX
  8
3500LEVEL
 62
13
 10
3570.797
 20
-4853.612
 30
1727.000
 70
    32
  0
VERTEX
  8
3500LEVEL
 62
13
 10
3569.945
 20
-4853.714
 30
1727.000
 70
    32
  0
VERTEX
  8
3500LEVEL
 62
13
 10
3568.763
 20
-4853.306
 30
1727.000
 70
    32
  0
VERTEX
  8
3500LEVEL
 62
13
 10
3568.146
 20
-4853.666
 30
1727.000
 70
    32
  0
VERTEX
  8
3500LEVEL
 62
13
 10
3567.778
 20
-4854.744
 30
1727.000
 70
    32
  0
VERTEX
  8
3500LEVEL
 62
13
 10
3567.659
 20
-4855.798
 30
1727.000
 70
    32
  0
VERTEX
  8
3500LEVEL
 62
13
 10
3567.057
 20
-4856.618
 30
1727.000
 70
    32
  0
VERTEX
  8
3500LEVEL
 62
13
 10
3565.553
 20
-4856.302
 30
1727.000
 70
    32
  0
VERTEX
  8
3500LEVEL
 62
13
 10
3563.565
 20
-4855.751
 30
1727.000
 70
    32
  0
VERTEX
  8
3500LEVEL
 62
13
 10
3562.642
 20
-4855.850
 30
1727.000
 70
    32
  0
VERTEX
  8
3500LEVEL
 62
13
 10
3562.185
 20
-4857.348
 30
1727.000
 70
    32
  0
VERTEX
  8
3500LEVEL
 62
13
 10
3562.342
 20
-4859.297
 30
1727.000
 70
    32
  0
VERTEX
  8
3500LEVEL
 62
13
 10
3562.829
 20
-4861.015
 30
1727.000
 70
    32
  0
VERTEX
  8
3500LEVEL
 62
13
 10
3562.925
 20
-4862.749
 30
1727.000
 70
    32
  0
VERTEX
  8
3500LEVEL
 62
13
 10
3561.831
 20
-4862.734
 30
1727.000
 70
    32
  0
VERTEX
  8
3500LEVEL
 62
13
 10
3560.128
 20
-4861.385
 30
1727.000
 70
    32
  0
VERTEX
  8
3500LEVEL
 62
13
 10
3558.092
 20
-4860.338
 30
1727.000
 70
    32
  0
VERTEX
  8
3500LEVEL
 62
13
 10
3556.805
 20
-4861.444
 30
1727.000
 70
    32
  0
VERTEX
  8
3500LEVEL
 62
13
 10
3556.468
 20
-4862.629
 30
1727.000
 70
    32
  0
VERTEX
  8
3500LEVEL
 62
13
 10
3556.433
 20
-4865.700
 30
1727.000
 70
    32
  0
VERTEX
  8
3500LEVEL
 62
13
 10
3556.003
 20
-4867.375
 30
1727.000
 70
    32
  0
VERTEX
  8
3500LEVEL
 62
13
 10
3554.928
 20
-4868.491
 30
1727.000
 70
    32
  0
VERTEX
  8
3500LEVEL
 62
13
 10
3553.682
 20
-4866.386
 30
1727.000
 70
    32
  0
VERTEX
  8
3500LEVEL
 62
13
 10
3550.558
 20
-4860.592
 30
1727.000
 70
    32
  0
VERTEX
  8
3500LEVEL
 62
13
 10
3548.907
 20
-4856.561
 30
1727.000
 70
    32
  0
VERTEX
  8
3500LEVEL
 62
13
 10
3548.690
 20
-4855.138
 30
1727.000
 70
    32
  0
VERTEX
  8
3500LEVEL
 62
13
 10
3548.074
 20
-4853.944
 30
1727.000
 70
    32
  0
VERTEX
  8
3500LEVEL
 62
13
 10
3547.709
 20
-4854.210
 30
1727.000
 70
    32
  0
VERTEX
  8
3500LEVEL
 62
13
 10
3547.063
 20
-4857.500
 30
1727.000
 70
    32
  0
VERTEX
  8
3500LEVEL
 62
13
 10
3546.550
 20
-4859.454
 30
1727.000
 70
    32
  0
VERTEX
  8
3500LEVEL
 62
13
 10
3545.106
 20
-4859.352
 30
1727.000
 70
    32
  0
VERTEX
  8
3500LEVEL
 62
13
 10
3542.619
 20
-4858.920
 30
1727.000
 70
    32
  0
VERTEX
  8
3500LEVEL
 62
13
 10
3541.364
 20
-4859.322
 30
1727.000
 70
    32
  0
VERTEX
  8
3500LEVEL
 62
13
 10
3539.792
 20
-4860.485
 30
1727.000
 70
    32
  0
VERTEX
  8
3500LEVEL
 62
13
 10
3538.840
 20
-4862.772
 30
1727.000
 70
    32
  0
VERTEX
  8
3500LEVEL
 62
13
 10
3538.605
 20
-4864.810
 30
1727.000
 70
    32
  0
VERTEX
  8
3500LEVEL
 62
13
 10
3537.694
 20
-4866.181
 30
1727.000
 70
    32
  0
VERTEX
  8
3500LEVEL
 62
13
 10
3536.623
 20
-4865.672
 30
1727.000
 70
    32
  0
VERTEX
  8
3500LEVEL
 62
13
 10
3533.519
 20
-4861.751
 30
1727.000
 70
    32
  0
VERTEX
  8
3500LEVEL
 62
13
 10
3530.838
 20
-4856.295
 30
1727.000
 70
    32
  0
VERTEX
  8
3500LEVEL
 62
13
 10
3528.573
 20
-4850.258
 30
1727.000
 70
    32
  0
VERTEX
  8
3500LEVEL
 62
13
 10
3525.310
 20
-4845.199
 30
1727.000
 70
    32
  0
VERTEX
  8
3500LEVEL
 62
13
 10
3523.097
 20
-4842.626
 30
1727.000
 70
    32
  0
VERTEX
  8
3500LEVEL
 62
13
 10
3517.974
 20
-4839.600
 30
1727.000
 70
    32
  0
VERTEX
  8
3500LEVEL
 62
13
 10
3513.440
 20
-4835.295
 30
1727.000
 70
    32
  0
VERTEX
  8
3500LEVEL
 62
13
 10
3511.006
 20
-4828.332
 30
1727.000
 70
    32
  0
VERTEX
  8
3500LEVEL
 62
13
 10
3509.974
 20
-4821.575
 30
1727.000
 70
    32
  0
VERTEX
  8
3500LEVEL
 62
13
 10
3504.650
 20
-4814.479
 30
1727.000
 70
    32
  0
VERTEX
  8
3500LEVEL
 62
13
 10
3497.344
 20
-4808.246
 30
1727.000
 70
    32
  0
VERTEX
  8
3500LEVEL
 62
13
 10
3492.091
 20
-4803.449
 30
1727.000
 70
    32
  0
VERTEX
  8
3500LEVEL
 62
13
 10
3487.731
 20
-4799.187
 30
1727.000
 70
    32
  0
VERTEX
  8
3500LEVEL
 62
13
 10
3485.145
 20
-4796.279
 30
1727.000
 70
    32
  0
VERTEX
  8
3500LEVEL
 62
13
 10
3482.641
 20
-4793.903
 30
1727.000
 70
    32
  0
VERTEX
  8
3500LEVEL
 62
13
 10
3481.721
 20
-4793.190
 30
1727.000
 70
    32
  0
VERTEX
  8
3500LEVEL
 62
13
 10
3482.006
 20
-4795.428
 30
1727.000
 70
    32
  0
VERTEX
  8
3500LEVEL
 62
13
 10
3484.348
 20
-4801.327
 30
1727.000
 70
    32
  0
VERTEX
  8
3500LEVEL
 62
13
 10
3487.349
 20
-4807.504
 30
1727.000
 70
    32
  0
VERTEX
  8
3500LEVEL
 62
13
 10
3492.790
 20
-4814.358
 30
1727.000
 70
    32
  0
VERTEX
  8
3500LEVEL
 62
13
 10
3497.828
 20
-4820.770
 30
1727.000
 70
    32
  0
VERTEX
  8
3500LEVEL
 62
13
 10
3502.554
 20
-4827.803
 30
1727.000
 70
    32
  0
VERTEX
  8
3500LEVEL
 62
13
 10
3506.499
 20
-4834.941
 30
1727.000
 70
    32
  0
VERTEX
  8
3500LEVEL
 62
13
 10
3508.221
 20
-4838.975
 30
1727.000
 70
    32
  0
VERTEX
  8
3500LEVEL
 62
13
 10
3510.055
 20
-4842.097
 30
1727.000
 70
    32
  0
VERTEX
  8
3500LEVEL
 62
13
 10
3511.303
 20
-4844.132
 30
1727.000
 70
    32
  0
VERTEX
  8
3500LEVEL
 62
13
 10
3512.910
 20
-4845.300
 30
1727.000
 70
    32
  0
VERTEX
  8
3500LEVEL
 62
13
 10
3515.218
 20
-4847.314
 30
1727.000
 70
    32
  0
VERTEX
  8
3500LEVEL
 62
13
 10
3516.120
 20
-4848.450
 30
1727.000
 70
    32
  0
VERTEX
  8
3500LEVEL
 62
13
 10
3516.060
 20
-4848.977
 30
1727.000
 70
    32
  0
VERTEX
  8
3500LEVEL
 62
13
 10
3514.237
 20
-4848.681
 30
1727.000
 70
    32
  0
VERTEX
  8
3500LEVEL
 62
13
 10
3510.778
 20
-4847.109
 30
1727.000
 70
    32
  0
VERTEX
  8
3500LEVEL
 62
13
 10
3507.788
 20
-4845.312
 30
1727.000
 70
    32
  0
VERTEX
  8
3500LEVEL
 62
13
 10
3506.741
 20
-4845.052
 30
1727.000
 70
    32
  0
VERTEX
  8
3500LEVEL
 62
13
 10
3506.889
 20
-4847.213
 30
1727.000
 70
    32
  0
VERTEX
  8
3500LEVEL
 62
13
 10
3510.587
 20
-4851.268
 30
1727.000
 70
    32
  0
VERTEX
  8
3500LEVEL
 62
13
 10
3513.098
 20
-4853.502
 30
1727.000
 70
    32
  0
VERTEX
  8
3500LEVEL
 62
13
 10
3516.502
 20
-4856.272
 30
1727.000
 70
    32
  0
VERTEX
  8
3500LEVEL
 62
13
 10
3519.460
 20
-4859.516
 30
1727.000
 70
    32
  0
VERTEX
  8
3500LEVEL
 62
13
 10
3522.013
 20
-4864.683
 30
1727.000
 70
    32
  0
VERTEX
  8
3500LEVEL
 62
13
 10
3522.696
 20
-4869.800
 30
1727.000
 70
    32
  0
VERTEX
  8
3500LEVEL
 62
13
 10
3523.823
 20
-4873.701
 30
1727.000
 70
    32
  0
VERTEX
  8
3500LEVEL
 62
13
 10
3525.614
 20
-4876.997
 30
1727.000
 70
    32
  0
VERTEX
  8
3500LEVEL
 62
13
 10
3526.761
 20
-4878.921
 30
1727.000
 70
    32
  0
VERTEX
  8
3500LEVEL
 62
13
 10
3529.694
 20
-4882.729
 30
1727.000
 70
    32
  0
VERTEX
  8
3500LEVEL
 62
13
 10
3532.309
 20
-4887.298
 30
1727.000
 70
    32
  0
VERTEX
  8
3500LEVEL
 62
13
 10
3534.881
 20
-4892.043
 30
1727.000
 70
    32
  0
VERTEX
  8
3500LEVEL
 62
13
 10
3535.853
 20
-4895.478
 30
1727.000
 70
    32
  0
VERTEX
  8
3500LEVEL
 62
13
 10
3535.523
 20
-4896.522
 30
1727.000
 70
    32
  0
VERTEX
  8
3500LEVEL
 62
13
 10
3534.776
 20
-4895.852
 30
1727.000
 70
    32
  0
VERTEX
  8
3500LEVEL
 62
13
 10
3529.062
 20
-4890.328
 30
1727.000
 70
    32
  0
VERTEX
  8
3500LEVEL
 62
13
 10
3526.839
 20
-4887.224
 30
1727.000
 70
    32
  0
VERTEX
  8
3500LEVEL
 62
13
 10
3522.535
 20
-4880.210
 30
1727.000
 70
    32
  0
VERTEX
  8
3500LEVEL
 62
13
 10
3518.333
 20
-4874.049
 30
1727.000
 70
    32
  0
VERTEX
  8
3500LEVEL
 62
13
 10
3515.975
 20
-4870.797
 30
1727.000
 70
    32
  0
VERTEX
  8
3500LEVEL
 62
13
 10
3515.225
 20
-4869.456
 30
1727.000
 70
    32
  0
VERTEX
  8
3500LEVEL
 62
13
 10
3514.645
 20
-4869.783
 30
1727.000
 70
    32
  0
VERTEX
  8
3500LEVEL
 62
13
 10
3515.030
 20
-4873.685
 30
1727.000
 70
    32
  0
VERTEX
  8
3500LEVEL
 62
13
 10
3516.585
 20
-4878.277
 30
1727.000
 70
    32
  0
VERTEX
  8
3500LEVEL
 62
13
 10
3516.896
 20
-4881.505
 30
1727.000
 70
    32
  0
VERTEX
  8
3500LEVEL
 62
13
 10
3516.525
 20
-4882.653
 30
1727.000
 70
    32
  0
VERTEX
  8
3500LEVEL
 62
13
 10
3515.033
 20
-4881.313
 30
1727.000
 70
    32
  0
VERTEX
  8
3500LEVEL
 62
13
 10
3511.270
 20
-4874.819
 30
1727.000
 70
    32
  0
VERTEX
  8
3500LEVEL
 62
13
 10
3509.074
 20
-4868.043
 30
1727.000
 70
    32
  0
VERTEX
  8
3500LEVEL
 62
13
 10
3505.436
 20
-4861.908
 30
1727.000
 70
    32
  0
VERTEX
  8
3500LEVEL
 62
13
 10
3501.423
 20
-4857.804
 30
1727.000
 70
    32
  0
VERTEX
  8
3500LEVEL
 62
13
 10
3498.739
 20
-4854.714
 30
1727.000
 70
    32
  0
VERTEX
  8
3500LEVEL
 62
13
 10
3495.392
 20
-4853.783
 30
1727.000
 70
    32
  0
VERTEX
  8
3500LEVEL
 62
13
 10
3493.039
 20
-4853.498
 30
1727.000
 70
    32
  0
VERTEX
  8
3500LEVEL
 62
13
 10
3488.764
 20
-4851.995
 30
1727.000
 70
    32
  0
VERTEX
  8
3500LEVEL
 62
13
 10
3485.316
 20
-4848.658
 30
1727.000
 70
    32
  0
VERTEX
  8
3500LEVEL
 62
13
 10
3483.643
 20
-4845.862
 30
1727.000
 70
    32
  0
VERTEX
  8
3500LEVEL
 62
13
 10
3482.433
 20
-4844.535
 30
1727.000
 70
    32
  0
VERTEX
  8
3500LEVEL
 62
13
 10
3478.865
 20
-4842.252
 30
1727.000
 70
    32
  0
VERTEX
  8
3500LEVEL
 62
13
 10
3475.344
 20
-4839.724
 30
1727.000
 70
    32
  0
VERTEX
  8
3500LEVEL
 62
13
 10
3472.230
 20
-4836.014
 30
1727.000
 70
    32
  0
VERTEX
  8
3500LEVEL
 62
13
 10
3470.650
 20
-4834.282
 30
1727.000
 70
    32
  0
VERTEX
  8
3500LEVEL
 62
13
 10
3469.403
 20
-4832.989
 30
1727.000
 70
    32
  0
VERTEX
  8
3500LEVEL
 62
13
 10
3468.451
 20
-4833.722
 30
1727.000
 70
    32
  0
VERTEX
  8
3500LEVEL
 62
13
 10
3469.258
 20
-4836.902
 30
1727.000
 70
    32
  0
VERTEX
  8
3500LEVEL
 62
13
 10
3471.505
 20
-4840.254
 30
1727.000
 70
    32
  0
VERTEX
  8
3500LEVEL
 62
13
 10
3474.803
 20
-4843.796
 30
1727.000
 70
    32
  0
VERTEX
  8
3500LEVEL
 62
13
 10
3476.909
 20
-4846.400
 30
1727.000
 70
    32
  0
VERTEX
  8
3500LEVEL
 62
13
 10
3477.671
 20
-4849.013
 30
1727.000
 70
    32
  0
VERTEX
  8
3500LEVEL
 62
13
 10
3477.594
 20
-4850.705
 30
1727.000
 70
    32
  0
VERTEX
  8
3500LEVEL
 62
13
 10
3477.023
 20
-4850.820
 30
1727.000
 70
    32
  0
VERTEX
  8
3500LEVEL
 62
13
 10
3474.530
 20
-4848.975
 30
1727.000
 70
    32
  0
VERTEX
  8
3500LEVEL
 62
13
 10
3472.680
 20
-4848.501
 30
1727.000
 70
    32
  0
VERTEX
  8
3500LEVEL
 62
13
 10
3471.137
 20
-4849.031
 30
1727.000
 70
    32
  0
VERTEX
  8
3500LEVEL
 62
13
 10
3468.233
 20
-4848.438
 30
1727.000
 70
    32
  0
VERTEX
  8
3500LEVEL
 62
13
 10
3465.700
 20
-4846.697
 30
1727.000
 70
    32
  0
VERTEX
  8
3500LEVEL
 62
13
 10
3463.192
 20
-4843.651
 30
1727.000
 70
    32
  0
VERTEX
  8
3500LEVEL
 62
13
 10
3460.861
 20
-4840.577
 30
1727.000
 70
    32
  0
VERTEX
  8
3500LEVEL
 62
13
 10
3459.281
 20
-4838.845
 30
1727.000
 70
    32
  0
VERTEX
  8
3500LEVEL
 62
13
 10
3458.232
 20
-4837.843
 30
1727.000
 70
    32
  0
VERTEX
  8
3500LEVEL
 62
13
 10
3457.541
 20
-4839.824
 30
1727.000
 70
    32
  0
VERTEX
  8
3500LEVEL
 62
13
 10
3460.057
 20
-4843.471
 30
1727.000
 70
    32
  0
VERTEX
  8
3500LEVEL
 62
13
 10
3462.764
 20
-4846.809
 30
1727.000
 70
    32
  0
VERTEX
  8
3500LEVEL
 62
13
 10
3464.248
 20
-4849.102
 30
1727.000
 70
    32
  0
VERTEX
  8
3500LEVEL
 62
13
 10
3466.678
 20
-4851.545
 30
1727.000
 70
    32
  0
VERTEX
  8
3500LEVEL
 62
13
 10
3468.431
 20
-4854.133
 30
1727.000
 70
    32
  0
VERTEX
  8
3500LEVEL
 62
13
 10
3469.858
 20
-4854.587
 30
1727.000
 70
    32
  0
VERTEX
  8
3500LEVEL
 62
13
 10
3472.014
 20
-4855.322
 30
1727.000
 70
    32
  0
VERTEX
  8
3500LEVEL
 62
13
 10
3473.494
 20
-4857.685
 30
1727.000
 70
    32
  0
VERTEX
  8
3500LEVEL
 62
13
 10
3475.520
 20
-4861.239
 30
1727.000
 70
    32
  0
VERTEX
  8
3500LEVEL
 62
13
 10
3476.134
 20
-4863.245
 30
1727.000
 70
    32
  0
VERTEX
  8
3500LEVEL
 62
13
 10
3474.174
 20
-4862.872
 30
1727.000
 70
    32
  0
VERTEX
  8
3500LEVEL
 62
13
 10
3470.364
 20
-4860.472
 30
1727.000
 70
    32
  0
VERTEX
  8
3500LEVEL
 62
13
 10
3468.753
 20
-4860.186
 30
1727.000
 70
    32
  0
VERTEX
  8
3500LEVEL
 62
13
 10
3467.299
 20
-4861.850
 30
1727.000
 70
    32
  0
VERTEX
  8
3500LEVEL
 62
13
 10
3465.843
 20
-4862.030
 30
1727.000
 70
    32
  0
VERTEX
  8
3500LEVEL
 62
13
 10
3464.707
 20
-4862.932
 30
1727.000
 70
    32
  0
VERTEX
  8
3500LEVEL
 62
13
 10
3464.519
 20
-4863.170
 30
1727.000
 70
    32
  0
VERTEX
  8
3500LEVEL
 62
13
 10
3461.029
 20
-4859.196
 30
1727.000
 70
    32
  0
VERTEX
  8
3500LEVEL
 62
13
 10
3458.059
 20
-4853.126
 30
1727.000
 70
    32
  0
VERTEX
  8
3500LEVEL
 62
13
 10
3453.420
 20
-4846.486
 30
1727.000
 70
    32
  0
VERTEX
  8
3500LEVEL
 62
13
 10
3449.802
 20
-4842.223
 30
1727.000
 70
    32
  0
VERTEX
  8
3500LEVEL
 62
13
 10
3447.114
 20
-4840.016
 30
1727.000
 70
    32
  0
VERTEX
  8
3500LEVEL
 62
13
 10
3444.477
 20
-4838.235
 30
1727.000
 70
    32
  0
VERTEX
  8
3500LEVEL
 62
13
 10
3442.861
 20
-4837.278
 30
1727.000
 70
    32
  0
VERTEX
  8
3500LEVEL
 62
13
 10
3440.652
 20
-4836.929
 30
1727.000
 70
    32
  0
VERTEX
  8
3500LEVEL
 62
13
 10
3438.742
 20
-4836.983
 30
1727.000
 70
    32
  0
VERTEX
  8
3500LEVEL
 62
13
 10
3435.753
 20
-4835.185
 30
1727.000
 70
    32
  0
VERTEX
  8
3500LEVEL
 62
13
 10
3432.972
 20
-4831.914
 30
1727.000
 70
    32
  0
VERTEX
  8
3500LEVEL
 62
13
 10
3432.106
 20
-4830.003
 30
1727.000
 70
    32
  0
VERTEX
  8
3500LEVEL
 62
13
 10
3431.309
 20
-4828.907
 30
1727.000
 70
    32
  0
VERTEX
  8
3500LEVEL
 62
13
 10
3430.975
 20
-4831.575
 30
1727.000
 70
    32
  0
VERTEX
  8
3500LEVEL
 62
13
 10
3431.744
 20
-4840.192
 30
1727.000
 70
    32
  0
VERTEX
  8
3500LEVEL
 62
13
 10
3433.761
 20
-4848.549
 30
1727.000
 70
    32
  0
VERTEX
  8
3500LEVEL
 62
13
 10
3436.589
 20
-4856.165
 30
1727.000
 70
    32
  0
VERTEX
  8
3500LEVEL
 62
13
 10
3440.446
 20
-4864.465
 30
1727.000
 70
    32
  0
VERTEX
  8
3500LEVEL
 62
13
 10
3444.782
 20
-4873.069
 30
1727.000
 70
    32
  0
VERTEX
  8
3500LEVEL
 62
13
 10
3448.328
 20
-4880.436
 30
1727.000
 70
    32
  0
VERTEX
  8
3500LEVEL
 62
13
 10
3451.711
 20
-4884.441
 30
1727.000
 70
    32
  0
VERTEX
  8
3500LEVEL
 62
13
 10
3453.154
 20
-4884.543
 30
1727.000
 70
    32
  0
VERTEX
  8
3500LEVEL
 62
13
 10
3455.333
 20
-4883.231
 30
1727.000
 70
    32
  0
VERTEX
  8
3500LEVEL
 62
13
 10
3457.546
 20
-4881.955
 30
1727.000
 70
    32
  0
VERTEX
  8
3500LEVEL
 62
13
 10
3459.193
 20
-4881.466
 30
1727.000
 70
    32
  0
VERTEX
  8
3500LEVEL
 62
13
 10
3461.313
 20
-4882.976
 30
1727.000
 70
    32
  0
VERTEX
  8
3500LEVEL
 62
13
 10
3463.994
 20
-4884.582
 30
1727.000
 70
    32
  0
VERTEX
  8
3500LEVEL
 62
13
 10
3465.716
 20
-4884.767
 30
1727.000
 70
    32
  0
VERTEX
  8
3500LEVEL
 62
13
 10
3467.406
 20
-4884.103
 30
1727.000
 70
    32
  0
VERTEX
  8
3500LEVEL
 62
13
 10
3468.679
 20
-4882.537
 30
1727.000
 70
    32
  0
VERTEX
  8
3500LEVEL
 62
13
 10
3469.275
 20
-4879.563
 30
1727.000
 70
    32
  0
VERTEX
  8
3500LEVEL
 62
13
 10
3470.441
 20
-4876.474
 30
1727.000
 70
    32
  0
VERTEX
  8
3500LEVEL
 62
13
 10
3472.107
 20
-4875.561
 30
1727.000
 70
    32
  0
VERTEX
  8
3500LEVEL
 62
13
 10
3474.586
 20
-4874.651
 30
1727.000
 70
    32
  0
VERTEX
  8
3500LEVEL
 62
13
 10
3476.477
 20
-4875.762
 30
1727.000
 70
    32
  0
VERTEX
  8
3500LEVEL
 62
13
 10
3480.064
 20
-4879.176
 30
1727.000
 70
    32
  0
VERTEX
  8
3500LEVEL
 62
13
 10
3483.374
 20
-4883.990
 30
1727.000
 70
    32
  0
VERTEX
  8
3500LEVEL
 62
13
 10
3485.393
 20
-4891.534
 30
1727.000
 70
    32
  0
VERTEX
  8
3500LEVEL
 62
13
 10
3485.330
 20
-4898.276
 30
1727.000
 70
    32
  0
VERTEX
  8
3500LEVEL
 62
13
 10
3485.060
 20
-4903.384
 30
1727.000
 70
    32
  0
VERTEX
  8
3500LEVEL
 62
13
 10
3485.010
 20
-4907.549
 30
1727.000
 70
    32
  0
VERTEX
  8
3500LEVEL
 62
13
 10
3485.582
 20
-4910.471
 30
1727.000
 70
    32
  0
VERTEX
  8
3500LEVEL
 62
13
 10
3486.352
 20
-4915.239
 30
1727.000
 70
    32
  0
VERTEX
  8
3500LEVEL
 62
13
 10
3488.177
 20
-4919.313
 30
1727.000
 70
    32
  0
VERTEX
  8
3500LEVEL
 62
13
 10
3491.676
 20
-4924.630
 30
1727.000
 70
    32
  0
VERTEX
  8
3500LEVEL
 62
13
 10
3494.363
 20
-4929.945
 30
1727.000
 70
    32
  0
VERTEX
  8
3500LEVEL
 62
13
 10
3494.569
 20
-4934.687
 30
1727.000
 70
    32
  0
VERTEX
  8
3500LEVEL
 62
13
 10
3494.128
 20
-4938.127
 30
1727.000
 70
    32
  0
VERTEX
  8
3500LEVEL
 62
13
 10
3493.420
 20
-4939.719
 30
1727.000
 70
    32
  0
VERTEX
  8
3500LEVEL
 62
13
 10
3492.385
 20
-4939.177
 30
1727.000
 70
    32
  0
VERTEX
  8
3500LEVEL
 62
13
 10
3489.977
 20
-4936.241
 30
1727.000
 70
    32
  0
VERTEX
  8
3500LEVEL
 62
13
 10
3486.234
 20
-4931.619
 30
1727.000
 70
    32
  0
VERTEX
  8
3500LEVEL
 62
13
 10
3484.221
 20
-4927.784
 30
1727.000
 70
    32
  0
VERTEX
  8
3500LEVEL
 62
13
 10
3480.239
 20
-4920.679
 30
1727.000
 70
    32
  0
VERTEX
  8
3500LEVEL
 62
13
 10
3478.507
 20
-4913.819
 30
1727.000
 70
    32
  0
VERTEX
  8
3500LEVEL
 62
13
 10
3478.019
 20
-4905.215
 30
1727.000
 70
    32
  0
VERTEX
  8
3500LEVEL
 62
13
 10
3478.688
 20
-4899.878
 30
1727.000
 70
    32
  0
VERTEX
  8
3500LEVEL
 62
13
 10
3479.616
 20
-4892.752
 30
1727.000
 70
    32
  0
VERTEX
  8
3500LEVEL
 62
13
 10
3479.747
 20
-4886.825
 30
1727.000
 70
    32
  0
VERTEX
  8
3500LEVEL
 62
13
 10
3479.315
 20
-4883.167
 30
1727.000
 70
    32
  0
VERTEX
  8
3500LEVEL
 62
13
 10
3478.573
 20
-4880.873
 30
1727.000
 70
    32
  0
VERTEX
  8
3500LEVEL
 62
13
 10
3478.031
 20
-4879.612
 30
1727.000
 70
    32
  0
VERTEX
  8
3500LEVEL
 62
13
 10
3477.425
 20
-4878.949
 30
1727.000
 70
    32
  0
VERTEX
  8
3500LEVEL
 62
13
 10
3477.010
 20
-4879.530
 30
1727.000
 70
    32
  0
VERTEX
  8
3500LEVEL
 62
13
 10
3476.372
 20
-4883.421
 30
1727.000
 70
    32
  0
VERTEX
  8
3500LEVEL
 62
13
 10
3475.988
 20
-4886.405
 30
1727.000
 70
    32
  0
VERTEX
  8
3500LEVEL
 62
13
 10
3475.219
 20
-4892.373
 30
1727.000
 70
    32
  0
VERTEX
  8
3500LEVEL
 62
13
 10
3474.855
 20
-4897.230
 30
1727.000
 70
    32
  0
VERTEX
  8
3500LEVEL
 62
13
 10
3474.900
 20
-4900.092
 30
1727.000
 70
    32
  0
VERTEX
  8
3500LEVEL
 62
13
 10
3474.854
 20
-4901.079
 30
1727.000
 70
    32
  0
VERTEX
  8
3500LEVEL
 62
13
 10
3474.286
 20
-4900.382
 30
1727.000
 70
    32
  0
VERTEX
  8
3500LEVEL
 62
13
 10
3473.782
 20
-4899.829
 30
1727.000
 70
    32
  0
VERTEX
  8
3500LEVEL
 62
13
 10
3473.137
 20
-4901.565
 30
1727.000
 70
    32
  0
VERTEX
  8
3500LEVEL
 62
13
 10
3473.820
 20
-4908.977
 30
1727.000
 70
    32
  0
VERTEX
  8
3500LEVEL
 62
13
 10
3475.521
 20
-4918.838
 30
1727.000
 70
    32
  0
VERTEX
  8
3500LEVEL
 62
13
 10
3476.774
 20
-4925.393
 30
1727.000
 70
    32
  0
VERTEX
  8
3500LEVEL
 62
13
 10
3476.638
 20
-4928.353
 30
1727.000
 70
    32
  0
VERTEX
  8
3500LEVEL
 62
13
 10
3476.208
 20
-4930.029
 30
1727.000
 70
    32
  0
VERTEX
  8
3500LEVEL
 62
13
 10
3475.893
 20
-4930.720
 30
1727.000
 70
    32
  0
VERTEX
  8
3500LEVEL
 62
13
 10
3475.053
 20
-4929.799
 30
1727.000
 70
    32
  0
VERTEX
  8
3500LEVEL
 62
13
 10
3472.621
 20
-4926.615
 30
1727.000
 70
    32
  0
VERTEX
  8
3500LEVEL
 62
13
 10
3469.580
 20
-4922.096
 30
1727.000
 70
    32
  0
VERTEX
  8
3500LEVEL
 62
13
 10
3467.810
 20
-4919.119
 30
1727.000
 70
    32
  0
VERTEX
  8
3500LEVEL
 62
13
 10
3466.111
 20
-4916.886
 30
1727.000
 70
    32
  0
VERTEX
  8
3500LEVEL
 62
13
 10
3464.579
 20
-4915.651
 30
1727.000
 70
    32
  0
VERTEX
  8
3500LEVEL
 62
13
 10
3462.471
 20
-4917.708
 30
1727.000
 70
    32
  0
VERTEX
  8
3500LEVEL
 62
13
 10
3462.223
 20
-4921.581
 30
1727.000
 70
    32
  0
VERTEX
  8
3500LEVEL
 62
13
 10
3462.602
 20
-4925.624
 30
1727.000
 70
    32
  0
VERTEX
  8
3500LEVEL
 62
13
 10
3462.826
 20
-4929.202
 30
1727.000
 70
    32
  0
VERTEX
  8
3500LEVEL
 62
13
 10
3463.635
 20
-4931.570
 30
1727.000
 70
    32
  0
VERTEX
  8
3500LEVEL
 62
13
 10
3463.657
 20
-4932.630
 30
1727.000
 70
    32
  0
VERTEX
  8
3500LEVEL
 62
13
 10
3462.775
 20
-4932.625
 30
1727.000
 70
    32
  0
VERTEX
  8
3500LEVEL
 62
13
 10
3461.337
 20
-4931.640
 30
1727.000
 70
    32
  0
VERTEX
  8
3500LEVEL
 62
13
 10
3459.992
 20
-4930.166
 30
1727.000
 70
    32
  0
VERTEX
  8
3500LEVEL
 62
13
 10
3458.408
 20
-4928.504
 30
1727.000
 70
    32
  0
VERTEX
  8
3500LEVEL
 62
13
 10
3457.477
 20
-4929.556
 30
1727.000
 70
    32
  0
VERTEX
  8
3500LEVEL
 62
13
 10
3457.705
 20
-4931.509
 30
1727.000
 70
    32
  0
VERTEX
  8
3500LEVEL
 62
13
 10
3457.909
 20
-4933.213
 30
1727.000
 70
    32
  0
VERTEX
  8
3500LEVEL
 62
13
 10
3457.563
 20
-4934.610
 30
1727.000
 70
    32
  0
VERTEX
  8
3500LEVEL
 62
13
 10
3456.882
 20
-4934.826
 30
1727.000
 70
    32
  0
VERTEX
  8
3500LEVEL
 62
13
 10
3456.126
 20
-4934.367
 30
1727.000
 70
    32
  0
VERTEX
  8
3500LEVEL
 62
13
 10
3453.865
 20
-4932.851
 30
1727.000
 70
    32
  0
VERTEX
  8
3500LEVEL
 62
13
 10
3451.308
 20
-4930.862
 30
1727.000
 70
    32
  0
VERTEX
  8
3500LEVEL
 62
13
 10
3448.922
 20
-4928.986
 30
1727.000
 70
    32
  0
VERTEX
  8
3500LEVEL
 62
13
 10
3447.729
 20
-4928.049
 30
1727.000
 70
    32
  0
VERTEX
  8
3500LEVEL
 62
13
 10
3446.125
 20
-4928.363
 30
1727.000
 70
    32
  0
VERTEX
  8
3500LEVEL
 62
13
 10
3445.909
 20
-4931.532
 30
1727.000
 70
    32
  0
VERTEX
  8
3500LEVEL
 62
13
 10
3446.370
 20
-4936.108
 30
1727.000
 70
    32
  0
VERTEX
  8
3500LEVEL
 62
13
 10
3447.216
 20
-4940.738
 30
1727.000
 70
    32
  0
VERTEX
  8
3500LEVEL
 62
13
 10
3447.817
 20
-4944.580
 30
1727.000
 70
    32
  0
VERTEX
  8
3500LEVEL
 62
13
 10
3448.737
 20
-4949.142
 30
1727.000
 70
    32
  0
VERTEX
  8
3500LEVEL
 62
13
 10
3449.358
 20
-4953.303
 30
1727.000
 70
    32
  0
VERTEX
  8
3500LEVEL
 62
13
 10
3450.542
 20
-4956.747
 30
1727.000
 70
    32
  0
VERTEX
  8
3500LEVEL
 62
13
 10
3452.285
 20
-4959.547
 30
1727.000
 70
    32
  0
SEQEND
  8
3500LEVEL
  0
POLYLINE
  8
3500LEVEL
 62
3
 66
     1
 70
     8
  0
VERTEX
  8
3500LEVEL
 62
3
 10
3462.832
 20
-5012.050
 30
1727.000
 70
    32
  0
VERTEX
  8
3500LEVEL
 62
3
 10
3459.932
 20
-5007.538
 30
1727.000
 70
    32
  0
VERTEX
  8
3500LEVEL
 62
3
 10
3455.013
 20
-5000.072
 30
1727.000
 70
    32
  0
VERTEX
  8
3500LEVEL
 62
3
 10
3450.958
 20
-4993.776
 30
1727.000
 70
    32
  0
VERTEX
  8
3500LEVEL
 62
3
 10
3447.593
 20
-4987.865
 30
1727.000
 70
    32
  0
VERTEX
  8
3500LEVEL
 62
3
 10
3444.146
 20
-4981.421
 30
1727.000
 70
    32
  0
VERTEX
  8
3500LEVEL
 62
3
 10
3442.445
 20
-4977.705
 30
1727.000
 70
    32
  0
VERTEX
  8
3500LEVEL
 62
3
 10
3440.485
 20
-4973.483
 30
1727.000
 70
    32
  0
VERTEX
  8
3500LEVEL
 62
3
 10
3439.322
 20
-4970.358
 30
1727.000
 70
    32
  0
VERTEX
  8
3500LEVEL
 62
3
 10
3438.539
 20
-4968.167
 30
1727.000
 70
    32
  0
VERTEX
  8
3500LEVEL
 62
3
 10
3438.007
 20
-4966.695
 30
1727.000
 70
    32
  0
VERTEX
  8
3500LEVEL
 62
3
 10
3437.713
 20
-4965.410
 30
1727.000
 70
    32
  0
VERTEX
  8
3500LEVEL
 62
3
 10
3438.107
 20
-4964.510
 30
1727.000
 70
    32
  0
VERTEX
  8
3500LEVEL
 62
3
 10
3440.169
 20
-4964.993
 30
1727.000
 70
    32
  0
VERTEX
  8
3500LEVEL
 62
3
 10
3442.592
 20
-4967.577
 30
1727.000
 70
    32
  0
VERTEX
  8
3500LEVEL
 62
3
 10
3445.018
 20
-4969.348
 30
1727.000
 70
    32
  0
VERTEX
  8
3500LEVEL
 62
3
 10
3446.429
 20
-4970.155
 30
1727.000
 70
    32
  0
VERTEX
  8
3500LEVEL
 62
3
 10
3447.886
 20
-4968.420
 30
1727.000
 70
    32
  0
VERTEX
  8
3500LEVEL
 62
3
 10
3446.854
 20
-4965.513
 30
1727.000
 70
    32
  0
VERTEX
  8
3500LEVEL
 62
3
 10
3445.891
 20
-4963.420
 30
1727.000
 70
    32
  0
VERTEX
  8
3500LEVEL
 62
3
 10
3445.436
 20
-4961.810
 30
1727.000
 70
    32
  0
VERTEX
  8
3500LEVEL
 62
3
 10
3445.255
 20
-4960.354
 30
1727.000
 70
    32
  0
VERTEX
  8
3500LEVEL
 62
3
 10
3446.281
 20
-4959.553
 30
1727.000
 70
    32
  0
VERTEX
  8
3500LEVEL
 62
3
 10
3447.873
 20
-4960.262
 30
1727.000
 70
    32
  0
VERTEX
  8
3500LEVEL
 62
3
 10
3449.674
 20
-4961.793
 30
1727.000
 70
    32
  0
VERTEX
  8
3500LEVEL
 62
3
 10
3450.716
 20
-4962.936
 30
1727.000
 70
    32
  0
VERTEX
  8
3500LEVEL
 62
3
 10
3451.707
 20
-4963.652
 30
1727.000
 70
    32
  0
VERTEX
  8
3500LEVEL
 62
3
 10
3452.441
 20
-4963.050
 30
1727.000
 70
    32
  0
VERTEX
  8
3500LEVEL
 62
3
 10
3452.338
 20
-4961.456
 30
1727.000
 70
    32
  0
VERTEX
  8
3500LEVEL
 62
3
 10
3452.209
 20
-4960.426
 30
1727.000
 70
    32
  0
VERTEX
  8
3500LEVEL
 62
3
 10
3452.285
 20
-4959.547
 30
1727.000
 70
    32
  0
SEQEND
  8
3500LEVEL
  0
POLYLINE
  8
3500LEVEL
 62
3
 66
     1
 70
     8
  0
VERTEX
  8
3500LEVEL
 62
3
 10
3711.613
 20
-4943.145
 30
1727.000
 70
    32
  0
VERTEX
  8
3500LEVEL
 62
3
 10
3713.576
 20
-4945.001
 30
1727.000
 70
    32
  0
VERTEX
  8
3500LEVEL
 62
3
 10
3714.685
 20
-4946.217
 30
1727.000
 70
    32
  0
SEQEND
  8
3500LEVEL
  0
POLYLINE
  8
3500LEVEL
 62
3
 66
     1
 70
     8
  0
VERTEX
  8
3500LEVEL
 62
3
 10
4153.088
 20
-5005.372
 30
1727.000
 70
    32
  0
VERTEX
  8
3500LEVEL
 62
3
 10
4160.627
 20
-5014.107
 30
1727.000
 70
    32
  0
VERTEX
  8
3500LEVEL
 62
3
 10
4173.358
 20
-5025.252
 30
1727.000
 70
    32
  0
VERTEX
  8
3500LEVEL
 62
3
 10
4185.454
 20
-5036.367
 30
1727.000
 70
    32
  0
VERTEX
  8
3500LEVEL
 62
3
 10
4197.102
 20
-5046.472
 30
1727.000
 70
    32
  0
VERTEX
  8
3500LEVEL
 62
3
 10
4210.781
 20
-5058.508
 30
1727.000
 70
    32
  0
VERTEX
  8
3500LEVEL
 62
3
 10
4226.530
 20
-5072.369
 30
1727.000
 70
    32
  0
VERTEX
  8
3500LEVEL
 62
3
 10
4242.367
 20
-5086.622
 30
1727.000
 70
    32
  0
VERTEX
  8
3500LEVEL
 62
3
 10
4257.746
 20
-5100.078
 30
1727.000
 70
    32
  0
VERTEX
  8
3500LEVEL
 62
3
 10
4269.143
 20
-5110.278
 30
1727.000
 70
    32
  0
VERTEX
  8
3500LEVEL
 62
3
 10
4281.020
 20
-5120.783
 30
1727.000
 70
    32
  0
VERTEX
  8
3500LEVEL
 62
3
 10
4292.809
 20
-5130.895
 30
1727.000
 70
    32
  0
VERTEX
  8
3500LEVEL
 62
3
 10
4298.230
 20
-5135.134
 30
1727.000
 70
    32
  0
VERTEX
  8
3500LEVEL
 62
3
 10
4300.866
 20
-5137.192
 30
1727.000
 70
    32
  0
SEQEND
  8
3500LEVEL
  0
POLYLINE
  8
3500LEVEL
 62
3
 66
     1
 70
     8
  0
VERTEX
  8
3500LEVEL
 62
3
 10
4073.571
 20
-4931.829
 30
1727.000
 70
    32
  0
VERTEX
  8
3500LEVEL
 62
3
 10
4078.967
 20
-4939.089
 30
1727.000
 70
    32
  0
VERTEX
  8
3500LEVEL
 62
3
 10
4084.245
 20
-4944.876
 30
1727.000
 70
    32
  0
VERTEX
  8
3500LEVEL
 62
3
 10
4088.766
 20
-4949.462
 30
1727.000
 70
    32
  0
VERTEX
  8
3500LEVEL
 62
3
 10
4093.868
 20
-4953.723
 30
1727.000
 70
    32
  0
VERTEX
  8
3500LEVEL
 62
3
 10
4098.226
 20
-4957.243
 30
1727.000
 70
    32
  0
VERTEX
  8
3500LEVEL
 62
3
 10
4101.539
 20
-4959.690
 30
1727.000
 70
    32
  0
VERTEX
  8
3500LEVEL
 62
3
 10
4103.619
 20
-4961.176
 30
1727.000
 70
    32
  0
SEQEND
  8
3500LEVEL
  0
POLYLINE
  8
3500LEVEL
 62
3
 66
     1
 70
     8
  0
VERTEX
  8
3500LEVEL
 62
3
 10
3668.929
 20
-4912.931
 30
1727.000
 70
    32
  0
VERTEX
  8
3500LEVEL
 62
3
 10
3673.191
 20
-4917.011
 30
1727.000
 70
    32
  0
VERTEX
  8
3500LEVEL
 62
3
 10
3677.401
 20
-4919.924
 30
1727.000
 70
    32
  0
VERTEX
  8
3500LEVEL
 62
3
 10
3680.927
 20
-4921.569
 30
1727.000
 70
    32
  0
VERTEX
  8
3500LEVEL
 62
3
 10
3684.353
 20
-4923.104
 30
1727.000
 70
    32
  0
VERTEX
  8
3500LEVEL
 62
3
 10
3687.479
 20
-4924.237
 30
1727.000
 70
    32
  0
VERTEX
  8
3500LEVEL
 62
3
 10
3688.977
 20
-4924.990
 30
1727.000
 70
    32
  0
SEQEND
  8
3500LEVEL
  0
POLYLINE
  8
3500LEVEL
 62
3
 66
     1
 70
     8
  0
VERTEX
  8
3500LEVEL
 62
3
 10
3576.593
 20
-4902.683
 30
1727.000
 70
    32
  0
VERTEX
  8
3500LEVEL
 62
3
 10
3573.508
 20
-4898.339
 30
1727.000
 70
    32
  0
VERTEX
  8
3500LEVEL
 62
3
 10
3571.590
 20
-4894.754
 30
1727.000
 70
    32
  0
VERTEX
  8
3500LEVEL
 62
3
 10
3570.039
 20
-4890.834
 30
1727.000
 70
    32
  0
VERTEX
  8
3500LEVEL
 62
3
 10
3568.740
 20
-4888.373
 30
1727.000
 70
    32
  0
VERTEX
  8
3500LEVEL
 62
3
 10
3567.946
 20
-4887.206
 30
1727.000
 70
    32
  0
VERTEX
  8
3500LEVEL
 62
3
 10
3567.619
 20
-4886.519
 30
1727.000
 70
    32
  0
SEQEND
  8
3500LEVEL
  0
POLYLINE
  8
3500LEVEL
 62
5
 66
     1
 70
     9
  0
VERTEX
  8
3500LEVEL
 62
5
 10
4298.866
 20
-5040.626
 30
1727.000
 70
    32
  0
VERTEX
  8
3500LEVEL
 62
5
 10
4304.712
 20
-5048.664
 30
1727.000
 70
    32
  0
VERTEX
  8
3500LEVEL
 62
5
 10
4310.022
 20
-5057.596
 30
1727.000
 70
    32
  0
VERTEX
  8
3500LEVEL
 62
5
 10
4314.794
 20
-5063.642
 30
1727.000
 70
    32
  0
VERTEX
  8
3500LEVEL
 62
5
 10
4319.534
 20
-5070.393
 30
1727.000
 70
    32
  0
VERTEX
  8
3500LEVEL
 62
5
 10
4323.095
 20
-5076.666
 30
1727.000
 70
    32
  0
VERTEX
  8
3500LEVEL
 62
5
 10
4324.711
 20
-5079.919
 30
1727.000
 70
    32
  0
VERTEX
  8
3500LEVEL
 62
5
 10
4323.887
 20
-5080.940
 30
1727.000
 70
    32
  0
VERTEX
  8
3500LEVEL
 62
5
 10
4321.521
 20
-5080.938
 30
1727.000
 70
    32
  0
VERTEX
  8
3500LEVEL
 62
5
 10
4317.323
 20
-5077.001
 30
1727.000
 70
    32
  0
VERTEX
  8
3500LEVEL
 62
5
 10
4310.654
 20
-5068.431
 30
1727.000
 70
    32
  0
VERTEX
  8
3500LEVEL
 62
5
 10
4304.813
 20
-5059.510
 30
1727.000
 70
    32
  0
VERTEX
  8
3500LEVEL
 62
5
 10
4297.839
 20
-5049.125
 30
1727.000
 70
    32
  0
VERTEX
  8
3500LEVEL
 62
5
 10
4290.831
 20
-5037.961
 30
1727.000
 70
    32
  0
VERTEX
  8
3500LEVEL
 62
5
 10
4284.612
 20
-5028.035
 30
1727.000
 70
    32
  0
VERTEX
  8
3500LEVEL
 62
5
 10
4275.771
 20
-5016.787
 30
1727.000
 70
    32
  0
VERTEX
  8
3500LEVEL
 62
5
 10
4269.398
 20
-5008.689
 30
1727.000
 70
    32
  0
VERTEX
  8
3500LEVEL
 62
5
 10
4261.231
 20
-4997.366
 30
1727.000
 70
    32
  0
VERTEX
  8
3500LEVEL
 62
5
 10
4251.700
 20
-4981.142
 30
1727.000
 70
    32
  0
VERTEX
  8
3500LEVEL
 62
5
 10
4244.205
 20
-4968.261
 30
1727.000
 70
    32
  0
VERTEX
  8
3500LEVEL
 62
5
 10
4235.993
 20
-4955.629
 30
1727.000
 70
    32
  0
VERTEX
  8
3500LEVEL
 62
5
 10
4223.398
 20
-4937.676
 30
1727.000
 70
    32
  0
VERTEX
  8
3500LEVEL
 62
5
 10
4210.699
 20
-4918.940
 30
1727.000
 70
    32
  0
VERTEX
  8
3500LEVEL
 62
5
 10
4201.443
 20
-4906.720
 30
1727.000
 70
    32
  0
VERTEX
  8
3500LEVEL
 62
5
 10
4191.881
 20
-4894.238
 30
1727.000
 70
    32
  0
VERTEX
  8
3500LEVEL
 62
5
 10
4183.489
 20
-4882.445
 30
1727.000
 70
    32
  0
VERTEX
  8
3500LEVEL
 62
5
 10
4177.844
 20
-4874.629
 30
1727.000
 70
    32
  0
VERTEX
  8
3500LEVEL
 62
5
 10
4171.815
 20
-4865.205
 30
1727.000
 70
    32
  0
VERTEX
  8
3500LEVEL
 62
5
 10
4164.549
 20
-4852.723
 30
1727.000
 70
    32
  0
VERTEX
  8
3500LEVEL
 62
5
 10
4155.423
 20
-4837.683
 30
1727.000
 70
    32
  0
VERTEX
  8
3500LEVEL
 62
5
 10
4147.288
 20
-4823.360
 30
1727.000
 70
    32
  0
VERTEX
  8
3500LEVEL
 62
5
 10
4141.141
 20
-4811.882
 30
1727.000
 70
    32
  0
VERTEX
  8
3500LEVEL
 62
5
 10
4136.560
 20
-4801.678
 30
1727.000
 70
    32
  0
VERTEX
  8
3500LEVEL
 62
5
 10
4133.689
 20
-4794.977
 30
1727.000
 70
    32
  0
VERTEX
  8
3500LEVEL
 62
5
 10
4133.287
 20
-4792.981
 30
1727.000
 70
    32
  0
VERTEX
  8
3500LEVEL
 62
5
 10
4132.831
 20
-4791.371
 30
1727.000
 70
    32
  0
VERTEX
  8
3500LEVEL
 62
5
 10
4133.122
 20
-4790.431
 30
1727.000
 70
    32
  0
VERTEX
  8
3500LEVEL
 62
5
 10
4133.510
 20
-4789.672
 30
1727.000
 70
    32
  0
VERTEX
  8
3500LEVEL
 62
5
 10
4134.661
 20
-4789.972
 30
1727.000
 70
    32
  0
VERTEX
  8
3500LEVEL
 62
5
 10
4138.859
 20
-4793.908
 30
1727.000
 70
    32
  0
VERTEX
  8
3500LEVEL
 62
5
 10
4145.380
 20
-4804.167
 30
1727.000
 70
    32
  0
VERTEX
  8
3500LEVEL
 62
5
 10
4149.863
 20
-4814.190
 30
1727.000
 70
    32
  0
VERTEX
  8
3500LEVEL
 62
5
 10
4153.438
 20
-4822.477
 30
1727.000
 70
    32
  0
VERTEX
  8
3500LEVEL
 62
5
 10
4160.298
 20
-4835.329
 30
1727.000
 70
    32
  0
VERTEX
  8
3500LEVEL
 62
5
 10
4166.321
 20
-4844.894
 30
1727.000
 70
    32
  0
VERTEX
  8
3500LEVEL
 62
5
 10
4171.528
 20
-4853.785
 30
1727.000
 70
    32
  0
VERTEX
  8
3500LEVEL
 62
5
 10
4177.006
 20
-4862.901
 30
1727.000
 70
    32
  0
VERTEX
  8
3500LEVEL
 62
5
 10
4181.281
 20
-4870.549
 30
1727.000
 70
    32
  0
VERTEX
  8
3500LEVEL
 62
5
 10
4187.834
 20
-4880.102
 30
1727.000
 70
    32
  0
VERTEX
  8
3500LEVEL
 62
5
 10
4197.341
 20
-4892.229
 30
1727.000
 70
    32
  0
VERTEX
  8
3500LEVEL
 62
5
 10
4204.656
 20
-4901.358
 30
1727.000
 70
    32
  0
VERTEX
  8
3500LEVEL
 62
5
 10
4214.457
 20
-4914.769
 30
1727.000
 70
    32
  0
VERTEX
  8
3500LEVEL
 62
5
 10
4220.843
 20
-4922.585
 30
1727.000
 70
    32
  0
VERTEX
  8
3500LEVEL
 62
5
 10
4225.788
 20
-4929.487
 30
1727.000
 70
    32
  0
VERTEX
  8
3500LEVEL
 62
5
 10
4232.903
 20
-4939.878
 30
1727.000
 70
    32
  0
VERTEX
  8
3500LEVEL
 62
5
 10
4239.895
 20
-4951.394
 30
1727.000
 70
    32
  0
VERTEX
  8
3500LEVEL
 62
5
 10
4245.462
 20
-4960.903
 30
1727.000
 70
    32
  0
VERTEX
  8
3500LEVEL
 62
5
 10
4250.627
 20
-4969.157
 30
1727.000
 70
    32
  0
VERTEX
  8
3500LEVEL
 62
5
 10
4258.246
 20
-4982.397
 30
1727.000
 70
    32
  0
VERTEX
  8
3500LEVEL
 62
5
 10
4266.247
 20
-4994.277
 30
1727.000
 70
    32
  0
VERTEX
  8
3500LEVEL
 62
5
 10
4273.860
 20
-5003.809
 30
1727.000
 70
    32
  0
VERTEX
  8
3500LEVEL
 62
5
 10
4280.159
 20
-5011.974
 30
1727.000
 70
    32
  0
VERTEX
  8
3500LEVEL
 62
5
 10
4286.002
 20
-5020.082
 30
1727.000
 70
    32
  0
VERTEX
  8
3500LEVEL
 62
5
 10
4293.352
 20
-5032.286
 30
1727.000
 70
    32
  0
VERTEX
  8
3500LEVEL
 62
5
 10
4296.226
 20
-5037.362
 30
1727.000
 70
    32
  0
SEQEND
  8
3500LEVEL
  0
POLYLINE
  8
3500LEVEL
 62
5
 66
     1
 70
     9
  0
VERTEX
  8
3500LEVEL
 62
5
 10
3595.255
 20
-4625.755
 30
1727.000
 70
    32
  0
VERTEX
  8
3500LEVEL
 62
5
 10
3597.907
 20
-4632.587
 30
1727.000
 70
    32
  0
VERTEX
  8
3500LEVEL
 62
5
 10
3600.259
 20
-4638.275
 30
1727.000
 70
    32
  0
VERTEX
  8
3500LEVEL
 62
5
 10
3601.481
 20
-4642.427
 30
1727.000
 70
    32
  0
VERTEX
  8
3500LEVEL
 62
5
 10
3601.384
 20
-4644.542
 30
1727.000
 70
    32
  0
VERTEX
  8
3500LEVEL
 62
5
 10
3600.579
 20
-4645.140
 30
1727.000
 70
    32
  0
VERTEX
  8
3500LEVEL
 62
5
 10
3598.827
 20
-4642.553
 30
1727.000
 70
    32
  0
VERTEX
  8
3500LEVEL
 62
5
 10
3594.479
 20
-4633.418
 30
1727.000
 70
    32
  0
VERTEX
  8
3500LEVEL
 62
5
 10
3589.242
 20
-4622.124
 30
1727.000
 70
    32
  0
VERTEX
  8
3500LEVEL
 62
5
 10
3580.754
 20
-4603.193
 30
1727.000
 70
    32
  0
VERTEX
  8
3500LEVEL
 62
5
 10
3576.122
 20
-4591.009
 30
1727.000
 70
    32
  0
VERTEX
  8
3500LEVEL
 62
5
 10
3568.674
 20
-4574.033
 30
1727.000
 70
    32
  0
VERTEX
  8
3500LEVEL
 62
5
 10
3563.279
 20
-4558.494
 30
1727.000
 70
    32
  0
VERTEX
  8
3500LEVEL
 62
5
 10
3560.608
 20
-4548.236
 30
1727.000
 70
    32
  0
VERTEX
  8
3500LEVEL
 62
5
 10
3558.449
 20
-4537.578
 30
1727.000
 70
    32
  0
VERTEX
  8
3500LEVEL
 62
5
 10
3556.480
 20
-4528.164
 30
1727.000
 70
    32
  0
VERTEX
  8
3500LEVEL
 62
5
 10
3554.228
 20
-4517.996
 30
1727.000
 70
    32
  0
VERTEX
  8
3500LEVEL
 62
5
 10
3551.985
 20
-4504.579
 30
1727.000
 70
    32
  0
VERTEX
  8
3500LEVEL
 62
5
 10
3550.394
 20
-4494.618
 30
1727.000
 70
    32
  0
VERTEX
  8
3500LEVEL
 62
5
 10
3549.971
 20
-4486.158
 30
1727.000
 70
    32
  0
VERTEX
  8
3500LEVEL
 62
5
 10
3549.913
 20
-4481.282
 30
1727.000
 70
    32
  0
VERTEX
  8
3500LEVEL
 62
5
 10
3550.484
 20
-4479.613
 30
1727.000
 70
    32
  0
VERTEX
  8
3500LEVEL
 62
5
 10
3551.274
 20
-4478.555
 30
1727.000
 70
    32
  0
VERTEX
  8
3500LEVEL
 62
5
 10
3552.352
 20
-4478.922
 30
1727.000
 70
    32
  0
VERTEX
  8
3500LEVEL
 62
5
 10
3553.828
 20
-4480.614
 30
1727.000
 70
    32
  0
VERTEX
  8
3500LEVEL
 62
5
 10
3555.417
 20
-4487.538
 30
1727.000
 70
    32
  0
VERTEX
  8
3500LEVEL
 62
5
 10
3556.326
 20
-4493.866
 30
1727.000
 70
    32
  0
VERTEX
  8
3500LEVEL
 62
5
 10
3557.442
 20
-4502.640
 30
1727.000
 70
    32
  0
VERTEX
  8
3500LEVEL
 62
5
 10
3558.460
 20
-4511.975
 30
1727.000
 70
    32
  0
VERTEX
  8
3500LEVEL
 62
5
 10
3559.013
 20
-4519.169
 30
1727.000
 70
    32
  0
VERTEX
  8
3500LEVEL
 62
5
 10
3560.012
 20
-4525.077
 30
1727.000
 70
    32
  0
VERTEX
  8
3500LEVEL
 62
5
 10
3561.576
 20
-4533.307
 30
1727.000
 70
    32
  0
VERTEX
  8
3500LEVEL
 62
5
 10
3563.328
 20
-4541.298
 30
1727.000
 70
    32
  0
VERTEX
  8
3500LEVEL
 62
5
 10
3565.929
 20
-4551.553
 30
1727.000
 70
    32
  0
VERTEX
  8
3500LEVEL
 62
5
 10
3567.801
 20
-4559.232
 30
1727.000
 70
    32
  0
VERTEX
  8
3500LEVEL
 62
5
 10
3571.393
 20
-4570.203
 30
1727.000
 70
    32
  0
VERTEX
  8
3500LEVEL
 62
5
 10
3575.895
 20
-4581.358
 30
1727.000
 70
    32
  0
VERTEX
  8
3500LEVEL
 62
5
 10
3580.296
 20
-4592.401
 30
1727.000
 70
    32
  0
VERTEX
  8
3500LEVEL
 62
5
 10
3584.573
 20
-4603.086
 30
1727.000
 70
    32
  0
VERTEX
  8
3500LEVEL
 62
5
 10
3587.660
 20
-4611.210
 30
1727.000
 70
    32
  0
VERTEX
  8
3500LEVEL
 62
5
 10
3591.481
 20
-4618.731
 30
1727.000
 70
    32
  0
VERTEX
  8
3500LEVEL
 62
5
 10
3592.939
 20
-4621.588
 30
1727.000
 70
    32
  0
SEQEND
  8
3500LEVEL
  0
POLYLINE
  8
3500LEVEL
 62
5
 66
     1
 70
     9
  0
VERTEX
  8
3500LEVEL
 62
5
 10
3633.248
 20
-4774.164
 30
1727.000
 70
    32
  0
VERTEX
  8
3500LEVEL
 62
5
 10
3633.217
 20
-4780.201
 30
1727.000
 70
    32
  0
VERTEX
  8
3500LEVEL
 62
5
 10
3633.956
 20
-4788.711
 30
1727.000
 70
    32
  0
VERTEX
  8
3500LEVEL
 62
5
 10
3634.532
 20
-4793.858
 30
1727.000
 70
    32
  0
VERTEX
  8
3500LEVEL
 62
5
 10
3634.430
 20
-4795.301
 30
1727.000
 70
    32
  0
VERTEX
  8
3500LEVEL
 62
5
 10
3633.814
 20
-4797.956
 30
1727.000
 70
    32
  0
VERTEX
  8
3500LEVEL
 62
5
 10
3633.110
 20
-4798.666
 30
1727.000
 70
    32
  0
VERTEX
  8
3500LEVEL
 62
5
 10
3631.270
 20
-4795.685
 30
1727.000
 70
    32
  0
VERTEX
  8
3500LEVEL
 62
5
 10
3630.206
 20
-4793.482
 30
1727.000
 70
    32
  0
VERTEX
  8
3500LEVEL
 62
5
 10
3628.736
 20
-4789.353
 30
1727.000
 70
    32
  0
VERTEX
  8
3500LEVEL
 62
5
 10
3625.602
 20
-4779.922
 30
1727.000
 70
    32
  0
VERTEX
  8
3500LEVEL
 62
5
 10
3624.416
 20
-4774.994
 30
1727.000
 70
    32
  0
VERTEX
  8
3500LEVEL
 62
5
 10
3624.064
 20
-4771.128
 30
1727.000
 70
    32
  0
VERTEX
  8
3500LEVEL
 62
5
 10
3623.660
 20
-4766.095
 30
1727.000
 70
    32
  0
VERTEX
  8
3500LEVEL
 62
5
 10
3623.132
 20
-4763.740
 30
1727.000
 70
    32
  0
VERTEX
  8
3500LEVEL
 62
5
 10
3623.146
 20
-4761.904
 30
1727.000
 70
    32
  0
VERTEX
  8
3500LEVEL
 62
5
 10
3623.813
 20
-4761.228
 30
1727.000
 70
    32
  0
VERTEX
  8
3500LEVEL
 62
5
 10
3626.344
 20
-4763.782
 30
1727.000
 70
    32
  0
VERTEX
  8
3500LEVEL
 62
5
 10
3628.409
 20
-4766.490
 30
1727.000
 70
    32
  0
VERTEX
  8
3500LEVEL
 62
5
 10
3630.035
 20
-4769.531
 30
1727.000
 70
    32
  0
VERTEX
  8
3500LEVEL
 62
5
 10
3630.955
 20
-4771.798
 30
1727.000
 70
    32
  0
VERTEX
  8
3500LEVEL
 62
5
 10
3631.941
 20
-4773.397
 30
1727.000
 70
    32
  0
SEQEND
  8
3500LEVEL
  0
POLYLINE
  8
3500LEVEL
 62
5
 66
     1
 70
     9
  0
VERTEX
  8
3500LEVEL
 62
5
 10
3731.945
 20
-5106.986
 30
1727.000
 70
    32
  0
VERTEX
  8
3500LEVEL
 62
5
 10
3729.780
 20
-5100.318
 30
1727.000
 70
    32
  0
VERTEX
  8
3500LEVEL
 62
5
 10
3727.846
 20
-5093.978
 30
1727.000
 70
    32
  0
VERTEX
  8
3500LEVEL
 62
5
 10
3723.028
 20
-5086.623
 30
1727.000
 70
    32
  0
VERTEX
  8
3500LEVEL
 62
5
 10
3716.978
 20
-5080.730
 30
1727.000
 70
    32
  0
VERTEX
  8
3500LEVEL
 62
5
 10
3711.717
 20
-5075.332
 30
1727.000
 70
    32
  0
VERTEX
  8
3500LEVEL
 62
5
 10
3706.528
 20
-5069.126
 30
1727.000
 70
    32
  0
VERTEX
  8
3500LEVEL
 62
5
 10
3702.001
 20
-5063.126
 30
1727.000
 70
    32
  0
VERTEX
  8
3500LEVEL
 62
5
 10
3700.616
 20
-5059.460
 30
1727.000
 70
    32
  0
VERTEX
  8
3500LEVEL
 62
5
 10
3700.126
 20
-5057.072
 30
1727.000
 70
    32
  0
VERTEX
  8
3500LEVEL
 62
5
 10
3699.972
 20
-5055.793
 30
1727.000
 70
    32
  0
VERTEX
  8
3500LEVEL
 62
5
 10
3699.283
 20
-5054.667
 30
1727.000
 70
    32
  0
VERTEX
  8
3500LEVEL
 62
5
 10
3698.033
 20
-5054.186
 30
1727.000
 70
    32
  0
VERTEX
  8
3500LEVEL
 62
5
 10
3696.486
 20
-5054.044
 30
1727.000
 70
    32
  0
VERTEX
  8
3500LEVEL
 62
5
 10
3694.415
 20
-5051.477
 30
1727.000
 70
    32
  0
VERTEX
  8
3500LEVEL
 62
5
 10
3692.229
 20
-5046.785
 30
1727.000
 70
    32
  0
VERTEX
  8
3500LEVEL
 62
5
 10
3689.588
 20
-5042.779
 30
1727.000
 70
    32
  0
VERTEX
  8
3500LEVEL
 62
5
 10
3683.114
 20
-5038.420
 30
1727.000
 70
    32
  0
VERTEX
  8
3500LEVEL
 62
5
 10
3675.220
 20
-5038.057
 30
1727.000
 70
    32
  0
VERTEX
  8
3500LEVEL
 62
5
 10
3667.652
 20
-5038.275
 30
1727.000
 70
    32
  0
VERTEX
  8
3500LEVEL
 62
5
 10
3658.990
 20
-5037.735
 30
1727.000
 70
    32
  0
VERTEX
  8
3500LEVEL
 62
5
 10
3651.533
 20
-5037.852
 30
1727.000
 70
    32
  0
VERTEX
  8
3500LEVEL
 62
5
 10
3647.857
 20
-5037.153
 30
1727.000
 70
    32
  0
VERTEX
  8
3500LEVEL
 62
5
 10
3643.972
 20
-5035.632
 30
1727.000
 70
    32
  0
VERTEX
  8
3500LEVEL
 62
5
 10
3642.311
 20
-5034.108
 30
1727.000
 70
    32
  0
VERTEX
  8
3500LEVEL
 62
5
 10
3641.034
 20
-5032.707
 30
1727.000
 70
    32
  0
VERTEX
  8
3500LEVEL
 62
5
 10
3640.948
 20
-5031.503
 30
1727.000
 70
    32
  0
VERTEX
  8
3500LEVEL
 62
5
 10
3644.184
 20
-5030.239
 30
1727.000
 70
    32
  0
VERTEX
  8
3500LEVEL
 62
5
 10
3655.141
 20
-5027.741
 30
1727.000
 70
    32
  0
VERTEX
  8
3500LEVEL
 62
5
 10
3660.971
 20
-5026.137
 30
1727.000
 70
    32
  0
VERTEX
  8
3500LEVEL
 62
5
 10
3663.927
 20
-5025.602
 30
1727.000
 70
    32
  0
VERTEX
  8
3500LEVEL
 62
5
 10
3668.104
 20
-5025.370
 30
1727.000
 70
    32
  0
VERTEX
  8
3500LEVEL
 62
5
 10
3674.602
 20
-5025.386
 30
1727.000
 70
    32
  0
VERTEX
  8
3500LEVEL
 62
5
 10
3678.821
 20
-5025.792
 30
1727.000
 70
    32
  0
VERTEX
  8
3500LEVEL
 62
5
 10
3684.110
 20
-5025.965
 30
1727.000
 70
    32
  0
VERTEX
  8
3500LEVEL
 62
5
 10
3687.032
 20
-5025.393
 30
1727.000
 70
    32
  0
VERTEX
  8
3500LEVEL
 62
5
 10
3687.011
 20
-5025.074
 30
1727.000
 70
    32
  0
VERTEX
  8
3500LEVEL
 62
5
 10
3685.438
 20
-5021.647
 30
1727.000
 70
    32
  0
VERTEX
  8
3500LEVEL
 62
5
 10
3682.676
 20
-5017.211
 30
1727.000
 70
    32
  0
VERTEX
  8
3500LEVEL
 62
5
 10
3681.811
 20
-5013.746
 30
1727.000
 70
    32
  0
VERTEX
  8
3500LEVEL
 62
5
 10
3682.219
 20
-5012.564
 30
1727.000
 70
    32
  0
VERTEX
  8
3500LEVEL
 62
5
 10
3683.800
 20
-5011.189
 30
1727.000
 70
    32
  0
VERTEX
  8
3500LEVEL
 62
5
 10
3686.824
 20
-5009.174
 30
1727.000
 70
    32
  0
VERTEX
  8
3500LEVEL
 62
5
 10
3688.764
 20
-5009.228
 30
1727.000
 70
    32
  0
VERTEX
  8
3500LEVEL
 62
5
 10
3690.842
 20
-5011.654
 30
1727.000
 70
    32
  0
VERTEX
  8
3500LEVEL
 62
5
 10
3693.099
 20
-5014.795
 30
1727.000
 70
    32
  0
VERTEX
  8
3500LEVEL
 62
5
 10
3695.962
 20
-5017.045
 30
1727.000
 70
    32
  0
VERTEX
  8
3500LEVEL
 62
5
 10
3699.518
 20
-5018.056
 30
1727.000
 70
    32
  0
VERTEX
  8
3500LEVEL
 62
5
 10
3702.255
 20
-5017.652
 30
1727.000
 70
    32
  0
VERTEX
  8
3500LEVEL
 62
5
 10
3704.069
 20
-5016.606
 30
1727.000
 70
    32
  0
VERTEX
  8
3500LEVEL
 62
5
 10
3706.277
 20
-5016.213
 30
1727.000
 70
    32
  0
VERTEX
  8
3500LEVEL
 62
5
 10
3708.890
 20
-5017.745
 30
1727.000
 70
    32
  0
VERTEX
  8
3500LEVEL
 62
5
 10
3712.038
 20
-5021.492
 30
1727.000
 70
    32
  0
VERTEX
  8
3500LEVEL
 62
5
 10
3713.940
 20
-5025.429
 30
1727.000
 70
    32
  0
VERTEX
  8
3500LEVEL
 62
5
 10
3715.714
 20
-5032.927
 30
1727.000
 70
    32
  0
VERTEX
  8
3500LEVEL
 62
5
 10
3718.462
 20
-5042.305
 30
1727.000
 70
    32
  0
VERTEX
  8
3500LEVEL
 62
5
 10
3721.921
 20
-5053.871
 30
1727.000
 70
    32
  0
VERTEX
  8
3500LEVEL
 62
5
 10
3723.886
 20
-5059.506
 30
1727.000
 70
    32
  0
VERTEX
  8
3500LEVEL
 62
5
 10
3725.970
 20
-5067.194
 30
1727.000
 70
    32
  0
VERTEX
  8
3500LEVEL
 62
5
 10
3729.754
 20
-5076.303
 30
1727.000
 70
    32
  0
VERTEX
  8
3500LEVEL
 62
5
 10
3732.754
 20
-5082.479
 30
1727.000
 70
    32
  0
VERTEX
  8
3500LEVEL
 62
5
 10
3734.988
 20
-5086.114
 30
1727.000
 70
    32
  0
VERTEX
  8
3500LEVEL
 62
5
 10
3737.825
 20
-5090.482
 30
1727.000
 70
    32
  0
VERTEX
  8
3500LEVEL
 62
5
 10
3739.554
 20
-5095.117
 30
1727.000
 70
    32
  0
VERTEX
  8
3500LEVEL
 62
5
 10
3740.464
 20
-5097.595
 30
1727.000
 70
    32
  0
VERTEX
  8
3500LEVEL
 62
5
 10
3740.902
 20
-5098.816
 30
1727.000
 70
    32
  0
SEQEND
  8
3500LEVEL
  0
ENDSEC
  0
EOF
