999
********************************
999
*   DXF File - Entities Only   *
999
*        3D Data Format        *
999
*     Output from ENVISAGE     *
999
*     28-Dec-2007 13:50:43     *
999
********************************
  0
SECTION 
  2
HEADER
  9
$ACADVER
  1
AC1009
  9
$EXTMIN
 10
-290000.000
 20
-250000.000
 30
-4000.000
  9
$EXTMAX
 10
5000000.000
 20
600000.000
 30
6000.000
  0
ENDSEC
  0
SECTION
  2
ENTITIES
  0
POLYLINE
  8
0400LEVEL
 62
7
 66
     1
 70
     9
  0
VERTEX
  8
0400LEVEL
 62
7
 10
1328.308
 20
-2561.389
 30
4827.000
 70
    32
  0
VERTEX
  8
0400LEVEL
 62
7
 10
1364.422
 20
-2578.394
 30
4827.000
 70
    32
  0
VERTEX
  8
0400LEVEL
 62
7
 10
1385.635
 20
-2598.088
 30
4827.000
 70
    32
  0
VERTEX
  8
0400LEVEL
 62
7
 10
1502.536
 20
-2735.128
 30
4827.000
 70
    32
  0
VERTEX
  8
0400LEVEL
 62
7
 10
1510.282
 20
-2735.693
 30
4827.000
 70
    32
  0
VERTEX
  8
0400LEVEL
 62
7
 10
1502.329
 20
-2703.951
 30
4827.000
 70
    32
  0
VERTEX
  8
0400LEVEL
 62
7
 10
1396.233
 20
-2515.767
 30
4827.000
 70
    32
  0
VERTEX
  8
0400LEVEL
 62
7
 10
1317.970
 20
-2441.483
 30
4827.000
 70
    32
  0
VERTEX
  8
0400LEVEL
 62
7
 10
1299.621
 20
-2439.482
 30
4827.000
 70
    32
  0
VERTEX
  8
0400LEVEL
 62
7
 10
1259.138
 20
-2470.062
 30
4827.000
 70
    32
  0
VERTEX
  8
0400LEVEL
 62
7
 10
1244.760
 20
-2469.914
 30
4827.000
 70
    32
  0
VERTEX
  8
0400LEVEL
 62
7
 10
1144.566
 20
-2381.238
 30
4827.000
 70
    32
  0
VERTEX
  8
0400LEVEL
 62
7
 10
1059.652
 20
-2251.299
 30
4827.000
 70
    32
  0
VERTEX
  8
0400LEVEL
 62
7
 10
1070.967
 20
-2291.942
 30
4827.000
 70
    32
  0
VERTEX
  8
0400LEVEL
 62
7
 10
1147.449
 20
-2455.002
 30
4827.000
 70
    32
  0
VERTEX
  8
0400LEVEL
 62
7
 10
1161.068
 20
-2470.968
 30
4827.000
 70
    32
  0
VERTEX
  8
0400LEVEL
 62
7
 10
1190.065
 20
-2475.103
 30
4827.000
 70
    32
  0
VERTEX
  8
0400LEVEL
 62
7
 10
1228.763
 20
-2522.085
 30
4827.000
 70
    32
  0
VERTEX
  8
0400LEVEL
 62
7
 10
1257.461
 20
-2543.762
 30
4827.000
 70
    32
  0
VERTEX
  8
0400LEVEL
 62
7
 10
1295.755
 20
-2556.425
 30
4827.000
 70
    32
  0
SEQEND
  8
0400LEVEL
  0
POLYLINE
  8
0400LEVEL
 62
7
 66
     1
 70
     9
  0
VERTEX
  8
0400LEVEL
 62
7
 10
915.300
 20
7.800
 30
4827.000
 70
    32
  0
VERTEX
  8
0400LEVEL
 62
7
 10
920.400
 20
130.300
 30
4827.000
 70
    32
  0
VERTEX
  8
0400LEVEL
 62
7
 10
927.000
 20
135.700
 30
4827.000
 70
    32
  0
VERTEX
  8
0400LEVEL
 62
7
 10
959.000
 20
90.600
 30
4827.000
 70
    32
  0
VERTEX
  8
0400LEVEL
 62
7
 10
952.200
 20
-13.500
 30
4827.000
 70
    32
  0
VERTEX
  8
0400LEVEL
 62
7
 10
992.400
 20
-63.200
 30
4827.000
 70
    32
  0
VERTEX
  8
0400LEVEL
 62
7
 10
1000.600
 20
-62.500
 30
4827.000
 70
    32
  0
VERTEX
  8
0400LEVEL
 62
7
 10
970.380
 20
1.117
 30
4827.000
 70
    32
  0
VERTEX
  8
0400LEVEL
 62
7
 10
965.204
 20
30.477
 30
4827.000
 70
    32
  0
VERTEX
  8
0400LEVEL
 62
7
 10
966.200
 20
86.400
 30
4827.000
 70
    32
  0
VERTEX
  8
0400LEVEL
 62
7
 10
935.100
 20
143.100
 30
4827.000
 70
    32
  0
VERTEX
  8
0400LEVEL
 62
7
 10
954.000
 20
251.300
 30
4827.000
 70
    32
  0
VERTEX
  8
0400LEVEL
 62
7
 10
978.300
 20
300.700
 30
4827.000
 70
    32
  0
VERTEX
  8
0400LEVEL
 62
7
 10
1011.300
 20
329.700
 30
4827.000
 70
    32
  0
VERTEX
  8
0400LEVEL
 62
7
 10
1057.700
 20
353.200
 30
4827.000
 70
    32
  0
VERTEX
  8
0400LEVEL
 62
7
 10
1115.600
 20
411.800
 30
4827.000
 70
    32
  0
VERTEX
  8
0400LEVEL
 62
7
 10
1125.900
 20
405.700
 30
4827.000
 70
    32
  0
VERTEX
  8
0400LEVEL
 62
7
 10
1145.700
 20
364.300
 30
4827.000
 70
    32
  0
VERTEX
  8
0400LEVEL
 62
7
 10
1136.400
 20
319.200
 30
4827.000
 70
    32
  0
VERTEX
  8
0400LEVEL
 62
7
 10
1163.200
 20
344.500
 30
4827.000
 70
    32
  0
VERTEX
  8
0400LEVEL
 62
7
 10
1174.400
 20
317.600
 30
4827.000
 70
    32
  0
VERTEX
  8
0400LEVEL
 62
7
 10
1152.100
 20
274.100
 30
4827.000
 70
    32
  0
VERTEX
  8
0400LEVEL
 62
7
 10
1139.600
 20
227.700
 30
4827.000
 70
    32
  0
VERTEX
  8
0400LEVEL
 62
7
 10
1191.300
 20
308.100
 30
4827.000
 70
    32
  0
VERTEX
  8
0400LEVEL
 62
7
 10
1203.900
 20
297.700
 30
4827.000
 70
    32
  0
VERTEX
  8
0400LEVEL
 62
7
 10
1214.100
 20
270.800
 30
4827.000
 70
    32
  0
VERTEX
  8
0400LEVEL
 62
7
 10
1222.500
 20
269.800
 30
4827.000
 70
    32
  0
VERTEX
  8
0400LEVEL
 62
7
 10
1228.000
 20
283.600
 30
4827.000
 70
    32
  0
VERTEX
  8
0400LEVEL
 62
7
 10
1224.100
 20
308.800
 30
4827.000
 70
    32
  0
VERTEX
  8
0400LEVEL
 62
7
 10
1198.500
 20
345.900
 30
4827.000
 70
    32
  0
VERTEX
  8
0400LEVEL
 62
7
 10
1192.700
 20
391.300
 30
4827.000
 70
    32
  0
VERTEX
  8
0400LEVEL
 62
7
 10
1166.200
 20
442.100
 30
4827.000
 70
    32
  0
VERTEX
  8
0400LEVEL
 62
7
 10
1150.500
 20
496.700
 30
4827.000
 70
    32
  0
VERTEX
  8
0400LEVEL
 62
7
 10
1136.000
 20
453.600
 30
4827.000
 70
    32
  0
VERTEX
  8
0400LEVEL
 62
7
 10
1118.800
 20
439.500
 30
4827.000
 70
    32
  0
VERTEX
  8
0400LEVEL
 62
7
 10
1079.400
 20
433.400
 30
4827.000
 70
    32
  0
VERTEX
  8
0400LEVEL
 62
7
 10
1052.600
 20
364.700
 30
4827.000
 70
    32
  0
VERTEX
  8
0400LEVEL
 62
7
 10
986.700
 20
324.000
 30
4827.000
 70
    32
  0
VERTEX
  8
0400LEVEL
 62
7
 10
948.500
 20
263.200
 30
4827.000
 70
    32
  0
VERTEX
  8
0400LEVEL
 62
7
 10
911.700
 20
133.800
 30
4827.000
 70
    32
  0
VERTEX
  8
0400LEVEL
 62
7
 10
911.100
 20
83.800
 30
4827.000
 70
    32
  0
VERTEX
  8
0400LEVEL
 62
7
 10
891.200
 20
29.600
 30
4827.000
 70
    32
  0
VERTEX
  8
0400LEVEL
 62
7
 10
887.300
 20
-4.100
 30
4827.000
 70
    32
  0
VERTEX
  8
0400LEVEL
 62
7
 10
900.300
 20
-90.400
 30
4827.000
 70
    32
  0
VERTEX
  8
0400LEVEL
 62
7
 10
925.300
 20
-151.400
 30
4827.000
 70
    32
  0
VERTEX
  8
0400LEVEL
 62
7
 10
975.100
 20
-208.500
 30
4827.000
 70
    32
  0
VERTEX
  8
0400LEVEL
 62
7
 10
961.500
 20
-136.700
 30
4827.000
 70
    32
  0
VERTEX
  8
0400LEVEL
 62
7
 10
918.900
 20
-66.800
 30
4827.000
 70
    32
  0
SEQEND
  8
0400LEVEL
  0
POLYLINE
  8
0400LEVEL
 62
3
 66
     1
 70
     8
  0
VERTEX
  8
0400LEVEL
 62
3
 10
216.909
 20
-1662.662
 30
4827.000
 70
    32
  0
VERTEX
  8
0400LEVEL
 62
3
 10
332.154
 20
-1860.651
 30
4827.000
 70
    32
  0
VERTEX
  8
0400LEVEL
 62
3
 10
378.206
 20
-1922.049
 30
4827.000
 70
    32
  0
VERTEX
  8
0400LEVEL
 62
3
 10
451.547
 20
-2015.852
 30
4827.000
 70
    32
  0
VERTEX
  8
0400LEVEL
 62
3
 10
514.655
 20
-2087.483
 30
4827.000
 70
    32
  0
VERTEX
  8
0400LEVEL
 62
3
 10
565.824
 20
-2171.053
 30
4827.000
 70
    32
  0
SEQEND
  8
0400LEVEL
  0
POLYLINE
  8
0400LEVEL
 62
5
 66
     1
 70
     9
  0
VERTEX
  8
0400LEVEL
 62
5
 10
852.366
 20
-1355.817
 30
4827.000
 70
    32
  0
VERTEX
  8
0400LEVEL
 62
5
 10
809.773
 20
-1275.224
 30
4827.000
 70
    32
  0
VERTEX
  8
0400LEVEL
 62
5
 10
795.802
 20
-1186.736
 30
4827.000
 70
    32
  0
VERTEX
  8
0400LEVEL
 62
5
 10
801.605
 20
-1184.269
 30
4827.000
 70
    32
  0
VERTEX
  8
0400LEVEL
 62
5
 10
820.791
 20
-1210.749
 30
4827.000
 70
    32
  0
VERTEX
  8
0400LEVEL
 62
5
 10
855.312
 20
-1280.860
 30
4827.000
 70
    32
  0
SEQEND
  8
0400LEVEL
  0
POLYLINE
  8
0400LEVEL
 62
7
 66
     1
 70
     8
  0
VERTEX
  8
0400LEVEL
 62
7
 10
218.519
 20
-1664.931
 30
4827.000
 70
    32
  0
VERTEX
  8
0400LEVEL
 62
7
 10
60.060
 20
-1413.101
 30
4827.000
 70
    32
  0
VERTEX
  8
0400LEVEL
 62
7
 10
-58.725
 20
-1251.648
 30
4827.000
 70
    32
  0
VERTEX
  8
0400LEVEL
 62
7
 10
-126.224
 20
-1136.736
 30
4827.000
 70
    32
  0
VERTEX
  8
0400LEVEL
 62
7
 10
-164.449
 20
-1069.398
 30
4827.000
 70
    32
  0
VERTEX
  8
0400LEVEL
 62
7
 10
-211.003
 20
-953.170
 30
4827.000
 70
    32
  0
VERTEX
  8
0400LEVEL
 62
7
 10
-347.914
 20
-676.155
 30
4827.000
 70
    32
  0
VERTEX
  8
0400LEVEL
 62
7
 10
-353.599
 20
-641.468
 30
4827.000
 70
    32
  0
VERTEX
  8
0400LEVEL
 62
7
 10
-433.068
 20
-352.783
 30
4827.000
 70
    32
  0
VERTEX
  8
0400LEVEL
 62
7
 10
-392.126
 20
-390.863
 30
4827.000
 70
    32
  0
VERTEX
  8
0400LEVEL
 62
7
 10
-343.000
 20
-497.817
 30
4827.000
 70
    32
  0
VERTEX
  8
0400LEVEL
 62
7
 10
-333.156
 20
-509.465
 30
4827.000
 70
    32
  0
VERTEX
  8
0400LEVEL
 62
7
 10
-309.571
 20
-511.137
 30
4827.000
 70
    32
  0
VERTEX
  8
0400LEVEL
 62
7
 10
-104.209
 20
-946.109
 30
4827.000
 70
    32
  0
VERTEX
  8
0400LEVEL
 62
7
 10
-16.494
 20
-1098.300
 30
4827.000
 70
    32
  0
VERTEX
  8
0400LEVEL
 62
7
 10
17.181
 20
-1132.281
 30
4827.000
 70
    32
  0
VERTEX
  8
0400LEVEL
 62
7
 10
24.879
 20
-1120.933
 30
4827.000
 70
    32
  0
VERTEX
  8
0400LEVEL
 62
7
 10
-22.467
 20
-986.531
 30
4827.000
 70
    32
  0
VERTEX
  8
0400LEVEL
 62
7
 10
-129.408
 20
-751.440
 30
4827.000
 70
    32
  0
VERTEX
  8
0400LEVEL
 62
7
 10
-169.190
 20
-597.988
 30
4827.000
 70
    32
  0
VERTEX
  8
0400LEVEL
 62
7
 10
-164.873
 20
-588.605
 30
4827.000
 70
    32
  0
VERTEX
  8
0400LEVEL
 62
7
 10
-113.973
 20
-651.292
 30
4827.000
 70
    32
  0
VERTEX
  8
0400LEVEL
 62
7
 10
-38.722
 20
-789.197
 30
4827.000
 70
    32
  0
VERTEX
  8
0400LEVEL
 62
7
 10
-31.075
 20
-821.659
 30
4827.000
 70
    32
  0
VERTEX
  8
0400LEVEL
 62
7
 10
-17.483
 20
-820.454
 30
4827.000
 70
    32
  0
VERTEX
  8
0400LEVEL
 62
7
 10
24.647
 20
-949.927
 30
4827.000
 70
    32
  0
VERTEX
  8
0400LEVEL
 62
7
 10
67.779
 20
-1011.700
 30
4827.000
 70
    32
  0
VERTEX
  8
0400LEVEL
 62
7
 10
100.931
 20
-1109.846
 30
4827.000
 70
    32
  0
VERTEX
  8
0400LEVEL
 62
7
 10
164.839
 20
-1251.267
 30
4827.000
 70
    32
  0
VERTEX
  8
0400LEVEL
 62
7
 10
196.718
 20
-1262.231
 30
4827.000
 70
    32
  0
VERTEX
  8
0400LEVEL
 62
7
 10
233.127
 20
-1378.746
 30
4827.000
 70
    32
  0
VERTEX
  8
0400LEVEL
 62
7
 10
305.588
 20
-1522.434
 30
4827.000
 70
    32
  0
VERTEX
  8
0400LEVEL
 62
7
 10
332.630
 20
-1551.224
 30
4827.000
 70
    32
  0
VERTEX
  8
0400LEVEL
 62
7
 10
342.906
 20
-1553.031
 30
4827.000
 70
    32
  0
VERTEX
  8
0400LEVEL
 62
7
 10
347.897
 20
-1537.648
 30
4827.000
 70
    32
  0
VERTEX
  8
0400LEVEL
 62
7
 10
339.660
 20
-1501.368
 30
4827.000
 70
    32
  0
VERTEX
  8
0400LEVEL
 62
7
 10
240.117
 20
-1272.470
 30
4827.000
 70
    32
  0
VERTEX
  8
0400LEVEL
 62
7
 10
238.541
 20
-1258.551
 30
4827.000
 70
    32
  0
VERTEX
  8
0400LEVEL
 62
7
 10
266.829
 20
-1229.088
 30
4827.000
 70
    32
  0
VERTEX
  8
0400LEVEL
 62
7
 10
238.434
 20
-1134.148
 30
4827.000
 70
    32
  0
VERTEX
  8
0400LEVEL
 62
7
 10
223.629
 20
-1032.396
 30
4827.000
 70
    32
  0
VERTEX
  8
0400LEVEL
 62
7
 10
228.227
 20
-1016.337
 30
4827.000
 70
    32
  0
VERTEX
  8
0400LEVEL
 62
7
 10
233.461
 20
-1010.400
 30
4827.000
 70
    32
  0
VERTEX
  8
0400LEVEL
 62
7
 10
249.937
 20
-1021.631
 30
4827.000
 70
    32
  0
VERTEX
  8
0400LEVEL
 62
7
 10
291.819
 20
-1063.506
 30
4827.000
 70
    32
  0
VERTEX
  8
0400LEVEL
 62
7
 10
318.262
 20
-1127.379
 30
4827.000
 70
    32
  0
VERTEX
  8
0400LEVEL
 62
7
 10
345.715
 20
-1145.980
 30
4827.000
 70
    32
  0
VERTEX
  8
0400LEVEL
 62
7
 10
398.526
 20
-1250.250
 30
4827.000
 70
    32
  0
VERTEX
  8
0400LEVEL
 62
7
 10
421.934
 20
-1243.523
 30
4827.000
 70
    32
  0
VERTEX
  8
0400LEVEL
 62
7
 10
435.778
 20
-1212.864
 30
4827.000
 70
    32
  0
VERTEX
  8
0400LEVEL
 62
7
 10
467.995
 20
-1318.428
 30
4827.000
 70
    32
  0
VERTEX
  8
0400LEVEL
 62
7
 10
475.017
 20
-1374.410
 30
4827.000
 70
    32
  0
VERTEX
  8
0400LEVEL
 62
7
 10
529.155
 20
-1466.331
 30
4827.000
 70
    32
  0
VERTEX
  8
0400LEVEL
 62
7
 10
557.568
 20
-1550.406
 30
4827.000
 70
    32
  0
VERTEX
  8
0400LEVEL
 62
7
 10
653.337
 20
-1713.656
 30
4827.000
 70
    32
  0
VERTEX
  8
0400LEVEL
 62
7
 10
681.292
 20
-1722.942
 30
4827.000
 70
    32
  0
VERTEX
  8
0400LEVEL
 62
7
 10
755.942
 20
-1464.869
 30
4827.000
 70
    32
  0
VERTEX
  8
0400LEVEL
 62
7
 10
747.357
 20
-1481.006
 30
4827.000
 70
    32
  0
VERTEX
  8
0400LEVEL
 62
7
 10
748.346
 20
-1502.321
 30
4827.000
 70
    32
  0
VERTEX
  8
0400LEVEL
 62
7
 10
768.867
 20
-1538.880
 30
4827.000
 70
    32
  0
VERTEX
  8
0400LEVEL
 62
7
 10
776.036
 20
-1574.877
 30
4827.000
 70
    32
  0
VERTEX
  8
0400LEVEL
 62
7
 10
783.696
 20
-1646.589
 30
4827.000
 70
    32
  0
VERTEX
  8
0400LEVEL
 62
7
 10
779.045
 20
-1700.850
 30
4827.000
 70
    32
  0
VERTEX
  8
0400LEVEL
 62
7
 10
790.841
 20
-1743.565
 30
4827.000
 70
    32
  0
VERTEX
  8
0400LEVEL
 62
7
 10
835.097
 20
-1773.026
 30
4827.000
 70
    32
  0
VERTEX
  8
0400LEVEL
 62
7
 10
898.281
 20
-1902.928
 30
4827.000
 70
    32
  0
VERTEX
  8
0400LEVEL
 62
7
 10
930.409
 20
-1940.160
 30
4827.000
 70
    32
  0
VERTEX
  8
0400LEVEL
 62
7
 10
951.291
 20
-1954.454
 30
4827.000
 70
    32
  0
VERTEX
  8
0400LEVEL
 62
7
 10
1019.863
 20
-1957.589
 30
4827.000
 70
    32
  0
VERTEX
  8
0400LEVEL
 62
7
 10
1031.929
 20
-1949.550
 30
4827.000
 70
    32
  0
VERTEX
  8
0400LEVEL
 62
7
 10
1042.997
 20
-1969.532
 30
4827.000
 70
    32
  0
VERTEX
  8
0400LEVEL
 62
7
 10
1050.565
 20
-1961.697
 30
4827.000
 70
    32
  0
VERTEX
  8
0400LEVEL
 62
7
 10
1026.635
 20
-1842.995
 30
4827.000
 70
    32
  0
VERTEX
  8
0400LEVEL
 62
7
 10
1015.282
 20
-1818.476
 30
4827.000
 70
    32
  0
VERTEX
  8
0400LEVEL
 62
7
 10
983.698
 20
-1792.428
 30
4827.000
 70
    32
  0
VERTEX
  8
0400LEVEL
 62
7
 10
907.542
 20
-1509.624
 30
4827.000
 70
    32
  0
VERTEX
  8
0400LEVEL
 62
7
 10
936.954
 20
-1553.551
 30
4827.000
 70
    32
  0
VERTEX
  8
0400LEVEL
 62
7
 10
939.316
 20
-1568.822
 30
4827.000
 70
    32
  0
VERTEX
  8
0400LEVEL
 62
7
 10
1038.351
 20
-1650.212
 30
4827.000
 70
    32
  0
VERTEX
  8
0400LEVEL
 62
7
 10
1056.708
 20
-1674.641
 30
4827.000
 70
    32
  0
VERTEX
  8
0400LEVEL
 62
7
 10
1077.238
 20
-1739.236
 30
4827.000
 70
    32
  0
VERTEX
  8
0400LEVEL
 62
7
 10
1076.181
 20
-1772.595
 30
4827.000
 70
    32
  0
VERTEX
  8
0400LEVEL
 62
7
 10
1089.353
 20
-1820.480
 30
4827.000
 70
    32
  0
VERTEX
  8
0400LEVEL
 62
7
 10
1108.150
 20
-1857.498
 30
4827.000
 70
    32
  0
VERTEX
  8
0400LEVEL
 62
7
 10
1143.920
 20
-1891.347
 30
4827.000
 70
    32
  0
VERTEX
  8
0400LEVEL
 62
7
 10
1143.725
 20
-1891.184
 30
4827.000
 70
    32
  0
VERTEX
  8
0400LEVEL
 62
7
 10
1236.408
 20
-2030.272
 30
4827.000
 70
    32
  0
VERTEX
  8
0400LEVEL
 62
7
 10
1254.015
 20
-2031.619
 30
4827.000
 70
    32
  0
VERTEX
  8
0400LEVEL
 62
7
 10
1265.178
 20
-2008.488
 30
4827.000
 70
    32
  0
VERTEX
  8
0400LEVEL
 62
7
 10
1265.192
 20
-1919.473
 30
4827.000
 70
    32
  0
VERTEX
  8
0400LEVEL
 62
7
 10
1286.879
 20
-1763.920
 30
4827.000
 70
    32
  0
VERTEX
  8
0400LEVEL
 62
7
 10
1252.432
 20
-1671.804
 30
4827.000
 70
    32
  0
VERTEX
  8
0400LEVEL
 62
7
 10
1264.145
 20
-1663.008
 30
4827.000
 70
    32
  0
VERTEX
  8
0400LEVEL
 62
7
 10
1267.303
 20
-1646.338
 30
4827.000
 70
    32
  0
VERTEX
  8
0400LEVEL
 62
7
 10
1243.134
 20
-1596.341
 30
4827.000
 70
    32
  0
VERTEX
  8
0400LEVEL
 62
7
 10
1249.851
 20
-1586.106
 30
4827.000
 70
    32
  0
VERTEX
  8
0400LEVEL
 62
7
 10
1263.752
 20
-1595.395
 30
4827.000
 70
    32
  0
VERTEX
  8
0400LEVEL
 62
7
 10
1271.190
 20
-1591.073
 30
4827.000
 70
    32
  0
VERTEX
  8
0400LEVEL
 62
7
 10
1199.490
 20
-1375.845
 30
4827.000
 70
    32
  0
VERTEX
  8
0400LEVEL
 62
7
 10
1201.466
 20
-1345.933
 30
4827.000
 70
    32
  0
VERTEX
  8
0400LEVEL
 62
7
 10
1354.623
 20
-1468.779
 30
4827.000
 70
    32
  0
VERTEX
  8
0400LEVEL
 62
7
 10
1403.129
 20
-1487.810
 30
4827.000
 70
    32
  0
VERTEX
  8
0400LEVEL
 62
7
 10
1427.718
 20
-1488.718
 30
4827.000
 70
    32
  0
VERTEX
  8
0400LEVEL
 62
7
 10
1402.429
 20
-1415.310
 30
4827.000
 70
    32
  0
VERTEX
  8
0400LEVEL
 62
7
 10
1258.314
 20
-1190.966
 30
4827.000
 70
    32
  0
VERTEX
  8
0400LEVEL
 62
7
 10
1186.397
 20
-1044.791
 30
4827.000
 70
    32
  0
VERTEX
  8
0400LEVEL
 62
7
 10
1149.624
 20
-1011.706
 30
4827.000
 70
    32
  0
VERTEX
  8
0400LEVEL
 62
7
 10
973.123
 20
-762.762
 30
4827.000
 70
    32
  0
VERTEX
  8
0400LEVEL
 62
7
 10
959.500
 20
-735.200
 30
4827.000
 70
    32
  0
VERTEX
  8
0400LEVEL
 62
7
 10
958.700
 20
-653.300
 30
4827.000
 70
    32
  0
VERTEX
  8
0400LEVEL
 62
7
 10
895.700
 20
-522.600
 30
4827.000
 70
    32
  0
VERTEX
  8
0400LEVEL
 62
7
 10
903.400
 20
-499.700
 30
4827.000
 70
    32
  0
VERTEX
  8
0400LEVEL
 62
7
 10
954.600
 20
-454.200
 30
4827.000
 70
    32
  0
VERTEX
  8
0400LEVEL
 62
7
 10
956.800
 20
-411.600
 30
4827.000
 70
    32
  0
VERTEX
  8
0400LEVEL
 62
7
 10
974.400
 20
-437.000
 30
4827.000
 70
    32
  0
VERTEX
  8
0400LEVEL
 62
7
 10
1004.800
 20
-443.900
 30
4827.000
 70
    32
  0
VERTEX
  8
0400LEVEL
 62
7
 10
1060.200
 20
-485.000
 30
4827.000
 70
    32
  0
VERTEX
  8
0400LEVEL
 62
7
 10
1094.200
 20
-523.900
 30
4827.000
 70
    32
  0
VERTEX
  8
0400LEVEL
 62
7
 10
1134.400
 20
-525.500
 30
4827.000
 70
    32
  0
VERTEX
  8
0400LEVEL
 62
7
 10
1154.600
 20
-506.600
 30
4827.000
 70
    32
  0
VERTEX
  8
0400LEVEL
 62
7
 10
1186.400
 20
-446.200
 30
4827.000
 70
    32
  0
VERTEX
  8
0400LEVEL
 62
7
 10
1206.800
 20
-369.500
 30
4827.000
 70
    32
  0
VERTEX
  8
0400LEVEL
 62
7
 10
1226.500
 20
-354.400
 30
4827.000
 70
    32
  0
VERTEX
  8
0400LEVEL
 62
7
 10
1243.600
 20
-358.300
 30
4827.000
 70
    32
  0
VERTEX
  8
0400LEVEL
 62
7
 10
1269.400
 20
-333.300
 30
4827.000
 70
    32
  0
VERTEX
  8
0400LEVEL
 62
7
 10
1300.600
 20
-228.000
 30
4827.000
 70
    32
  0
VERTEX
  8
0400LEVEL
 62
7
 10
1309.400
 20
-125.000
 30
4827.000
 70
    32
  0
VERTEX
  8
0400LEVEL
 62
7
 10
1334.600
 20
-2.600
 30
4827.000
 70
    32
  0
VERTEX
  8
0400LEVEL
 62
7
 10
1363.400
 20
-6.700
 30
4827.000
 70
    32
  0
VERTEX
  8
0400LEVEL
 62
7
 10
1404.000
 20
53.700
 30
4827.000
 70
    32
  0
VERTEX
  8
0400LEVEL
 62
7
 10
1435.100
 20
157.200
 30
4827.000
 70
    32
  0
VERTEX
  8
0400LEVEL
 62
7
 10
1459.100
 20
200.600
 30
4827.000
 70
    32
  0
VERTEX
  8
0400LEVEL
 62
7
 10
1475.800
 20
194.000
 30
4827.000
 70
    32
  0
VERTEX
  8
0400LEVEL
 62
7
 10
1494.900
 20
162.100
 30
4827.000
 70
    32
  0
VERTEX
  8
0400LEVEL
 62
7
 10
1517.900
 20
172.400
 30
4827.000
 70
    32
  0
VERTEX
  8
0400LEVEL
 62
7
 10
1571.100
 20
271.100
 30
4827.000
 70
    32
  0
VERTEX
  8
0400LEVEL
 62
7
 10
1616.100
 20
395.500
 30
4827.000
 70
    32
  0
SEQEND
  8
0400LEVEL
  0
POLYLINE
  8
0400LEVEL
 62
13
 66
     1
 70
     8
  0
VERTEX
  8
0400LEVEL
 62
13
 10
218.519
 20
-1664.931
 30
4827.000
 70
    32
  0
VERTEX
  8
0400LEVEL
 62
13
 10
-54.483
 20
-1280.119
 30
4827.000
 70
    32
  0
VERTEX
  8
0400LEVEL
 62
13
 10
-215.149
 20
-1015.461
 30
4827.000
 70
    32
  0
VERTEX
  8
0400LEVEL
 62
13
 10
-238.299
 20
-948.227
 30
4827.000
 70
    32
  0
VERTEX
  8
0400LEVEL
 62
13
 10
-360.218
 20
-681.134
 30
4827.000
 70
    32
  0
VERTEX
  8
0400LEVEL
 62
13
 10
-383.292
 20
-576.047
 30
4827.000
 70
    32
  0
VERTEX
  8
0400LEVEL
 62
13
 10
-458.620
 20
-342.123
 30
4827.000
 70
    32
  0
VERTEX
  8
0400LEVEL
 62
13
 10
-481.843
 20
-184.477
 30
4827.000
 70
    32
  0
VERTEX
  8
0400LEVEL
 62
13
 10
-575.360
 20
-34.753
 30
4827.000
 70
    32
  0
VERTEX
  8
0400LEVEL
 62
13
 10
-559.588
 20
-29.206
 30
4827.000
 70
    32
  0
VERTEX
  8
0400LEVEL
 62
13
 10
-640.639
 20
95.017
 30
4827.000
 70
    32
  0
VERTEX
  8
0400LEVEL
 62
13
 10
-688.764
 20
213.950
 30
4827.000
 70
    32
  0
VERTEX
  8
0400LEVEL
 62
13
 10
-753.313
 20
315.380
 30
4827.000
 70
    32
  0
VERTEX
  8
0400LEVEL
 62
13
 10
-805.999
 20
434.377
 30
4827.000
 70
    32
  0
VERTEX
  8
0400LEVEL
 62
13
 10
-903.802
 20
613.270
 30
4827.000
 70
    32
  0
VERTEX
  8
0400LEVEL
 62
13
 10
-1071.805
 20
961.224
 30
4827.000
 70
    32
  0
VERTEX
  8
0400LEVEL
 62
13
 10
-1110.567
 20
1003.647
 30
4827.000
 70
    32
  0
VERTEX
  8
0400LEVEL
 62
13
 10
-1180.181
 20
1113.169
 30
4827.000
 70
    32
  0
VERTEX
  8
0400LEVEL
 62
13
 10
-1148.894
 20
1111.630
 30
4827.000
 70
    32
  0
VERTEX
  8
0400LEVEL
 62
13
 10
-1072.315
 20
986.074
 30
4827.000
 70
    32
  0
VERTEX
  8
0400LEVEL
 62
13
 10
-981.540
 20
813.048
 30
4827.000
 70
    32
  0
VERTEX
  8
0400LEVEL
 62
13
 10
-965.639
 20
760.779
 30
4827.000
 70
    32
  0
VERTEX
  8
0400LEVEL
 62
13
 10
-944.369
 20
768.073
 30
4827.000
 70
    32
  0
VERTEX
  8
0400LEVEL
 62
13
 10
-930.008
 20
751.453
 30
4827.000
 70
    32
  0
VERTEX
  8
0400LEVEL
 62
13
 10
-904.130
 20
679.835
 30
4827.000
 70
    32
  0
VERTEX
  8
0400LEVEL
 62
13
 10
-850.295
 20
581.587
 30
4827.000
 70
    32
  0
VERTEX
  8
0400LEVEL
 62
13
 10
-752.413
 20
362.397
 30
4827.000
 70
    32
  0
VERTEX
  8
0400LEVEL
 62
13
 10
-688.825
 20
265.112
 30
4827.000
 70
    32
  0
VERTEX
  8
0400LEVEL
 62
13
 10
-661.840
 20
209.334
 30
4827.000
 70
    32
  0
VERTEX
  8
0400LEVEL
 62
13
 10
-596.724
 20
43.107
 30
4827.000
 70
    32
  0
VERTEX
  8
0400LEVEL
 62
13
 10
-544.516
 20
-18.096
 30
4827.000
 70
    32
  0
VERTEX
  8
0400LEVEL
 62
13
 10
-460.761
 20
-140.748
 30
4827.000
 70
    32
  0
VERTEX
  8
0400LEVEL
 62
13
 10
-428.612
 20
-239.657
 30
4827.000
 70
    32
  0
VERTEX
  8
0400LEVEL
 62
13
 10
-424.404
 20
-295.465
 30
4827.000
 70
    32
  0
VERTEX
  8
0400LEVEL
 62
13
 10
-398.596
 20
-354.822
 30
4827.000
 70
    32
  0
VERTEX
  8
0400LEVEL
 62
13
 10
-396.385
 20
-311.928
 30
4827.000
 70
    32
  0
VERTEX
  8
0400LEVEL
 62
13
 10
-387.132
 20
-319.757
 30
4827.000
 70
    32
  0
VERTEX
  8
0400LEVEL
 62
13
 10
-317.860
 20
-451.730
 30
4827.000
 70
    32
  0
VERTEX
  8
0400LEVEL
 62
13
 10
-306.796
 20
-460.497
 30
4827.000
 70
    32
  0
VERTEX
  8
0400LEVEL
 62
13
 10
-292.200
 20
-458.529
 30
4827.000
 70
    32
  0
VERTEX
  8
0400LEVEL
 62
13
 10
-291.424
 20
-431.846
 30
4827.000
 70
    32
  0
VERTEX
  8
0400LEVEL
 62
13
 10
-344.987
 20
-298.886
 30
4827.000
 70
    32
  0
VERTEX
  8
0400LEVEL
 62
13
 10
-347.242
 20
-212.816
 30
4827.000
 70
    32
  0
VERTEX
  8
0400LEVEL
 62
13
 10
-341.483
 20
-209.651
 30
4827.000
 70
    32
  0
VERTEX
  8
0400LEVEL
 62
13
 10
-281.880
 20
-265.833
 30
4827.000
 70
    32
  0
VERTEX
  8
0400LEVEL
 62
13
 10
-190.789
 20
-404.845
 30
4827.000
 70
    32
  0
VERTEX
  8
0400LEVEL
 62
13
 10
-125.489
 20
-468.028
 30
4827.000
 70
    32
  0
VERTEX
  8
0400LEVEL
 62
13
 10
-70.322
 20
-570.749
 30
4827.000
 70
    32
  0
VERTEX
  8
0400LEVEL
 62
13
 10
-8.352
 20
-659.023
 30
4827.000
 70
    32
  0
VERTEX
  8
0400LEVEL
 62
13
 10
57.428
 20
-724.279
 30
4827.000
 70
    32
  0
VERTEX
  8
0400LEVEL
 62
13
 10
99.717
 20
-744.752
 30
4827.000
 70
    32
  0
VERTEX
  8
0400LEVEL
 62
13
 10
111.125
 20
-736.675
 30
4827.000
 70
    32
  0
VERTEX
  8
0400LEVEL
 62
13
 10
127.688
 20
-682.366
 30
4827.000
 70
    32
  0
VERTEX
  8
0400LEVEL
 62
13
 10
153.891
 20
-681.070
 30
4827.000
 70
    32
  0
VERTEX
  8
0400LEVEL
 62
13
 10
188.062
 20
-761.979
 30
4827.000
 70
    32
  0
VERTEX
  8
0400LEVEL
 62
13
 10
236.577
 20
-803.438
 30
4827.000
 70
    32
  0
VERTEX
  8
0400LEVEL
 62
13
 10
284.093
 20
-862.482
 30
4827.000
 70
    32
  0
VERTEX
  8
0400LEVEL
 62
13
 10
331.519
 20
-975.852
 30
4827.000
 70
    32
  0
VERTEX
  8
0400LEVEL
 62
13
 10
410.976
 20
-1097.022
 30
4827.000
 70
    32
  0
VERTEX
  8
0400LEVEL
 62
13
 10
483.827
 20
-1297.107
 30
4827.000
 70
    32
  0
VERTEX
  8
0400LEVEL
 62
13
 10
594.804
 20
-1529.492
 30
4827.000
 70
    32
  0
VERTEX
  8
0400LEVEL
 62
13
 10
628.044
 20
-1629.034
 30
4827.000
 70
    32
  0
VERTEX
  8
0400LEVEL
 62
13
 10
660.484
 20
-1687.974
 30
4827.000
 70
    32
  0
VERTEX
  8
0400LEVEL
 62
13
 10
672.733
 20
-1685.801
 30
4827.000
 70
    32
  0
VERTEX
  8
0400LEVEL
 62
13
 10
629.978
 20
-1353.710
 30
4827.000
 70
    32
  0
VERTEX
  8
0400LEVEL
 62
13
 10
622.155
 20
-1312.246
 30
4827.000
 70
    32
  0
VERTEX
  8
0400LEVEL
 62
13
 10
572.778
 20
-1234.745
 30
4827.000
 70
    32
  0
VERTEX
  8
0400LEVEL
 62
13
 10
560.526
 20
-1134.585
 30
4827.000
 70
    32
  0
VERTEX
  8
0400LEVEL
 62
13
 10
520.126
 20
-1021.474
 30
4827.000
 70
    32
  0
VERTEX
  8
0400LEVEL
 62
13
 10
541.401
 20
-1031.001
 30
4827.000
 70
    32
  0
VERTEX
  8
0400LEVEL
 62
13
 10
558.032
 20
-1050.282
 30
4827.000
 70
    32
  0
VERTEX
  8
0400LEVEL
 62
13
 10
615.977
 20
-1136.825
 30
4827.000
 70
    32
  0
VERTEX
  8
0400LEVEL
 62
13
 10
796.080
 20
-1268.836
 30
4827.000
 70
    32
  0
VERTEX
  8
0400LEVEL
 62
13
 10
809.773
 20
-1275.224
 30
4827.000
 70
    32
  0
VERTEX
  8
0400LEVEL
 62
13
 10
853.310
 20
-1349.447
 30
4827.000
 70
    32
  0
VERTEX
  8
0400LEVEL
 62
13
 10
898.089
 20
-1397.771
 30
4827.000
 70
    32
  0
VERTEX
  8
0400LEVEL
 62
13
 10
932.261
 20
-1417.520
 30
4827.000
 70
    32
  0
VERTEX
  8
0400LEVEL
 62
13
 10
951.424
 20
-1438.044
 30
4827.000
 70
    32
  0
VERTEX
  8
0400LEVEL
 62
13
 10
1019.008
 20
-1481.809
 30
4827.000
 70
    32
  0
VERTEX
  8
0400LEVEL
 62
13
 10
1032.244
 20
-1525.134
 30
4827.000
 70
    32
  0
VERTEX
  8
0400LEVEL
 62
13
 10
1030.581
 20
-1576.755
 30
4827.000
 70
    32
  0
VERTEX
  8
0400LEVEL
 62
13
 10
1040.142
 20
-1589.471
 30
4827.000
 70
    32
  0
VERTEX
  8
0400LEVEL
 62
13
 10
1052.712
 20
-1599.896
 30
4827.000
 70
    32
  0
VERTEX
  8
0400LEVEL
 62
13
 10
1058.427
 20
-1596.032
 30
4827.000
 70
    32
  0
VERTEX
  8
0400LEVEL
 62
13
 10
1062.040
 20
-1569.872
 30
4827.000
 70
    32
  0
VERTEX
  8
0400LEVEL
 62
13
 10
1191.512
 20
-1656.007
 30
4827.000
 70
    32
  0
VERTEX
  8
0400LEVEL
 62
13
 10
1230.378
 20
-1744.682
 30
4827.000
 70
    32
  0
VERTEX
  8
0400LEVEL
 62
13
 10
1231.671
 20
-1826.607
 30
4827.000
 70
    32
  0
VERTEX
  8
0400LEVEL
 62
13
 10
1240.330
 20
-1819.404
 30
4827.000
 70
    32
  0
VERTEX
  8
0400LEVEL
 62
13
 10
1254.731
 20
-1758.572
 30
4827.000
 70
    32
  0
VERTEX
  8
0400LEVEL
 62
13
 10
1248.238
 20
-1722.182
 30
4827.000
 70
    32
  0
VERTEX
  8
0400LEVEL
 62
13
 10
1214.453
 20
-1686.457
 30
4827.000
 70
    32
  0
VERTEX
  8
0400LEVEL
 62
13
 10
1195.805
 20
-1640.668
 30
4827.000
 70
    32
  0
VERTEX
  8
0400LEVEL
 62
13
 10
1183.081
 20
-1627.800
 30
4827.000
 70
    32
  0
VERTEX
  8
0400LEVEL
 62
13
 10
1164.273
 20
-1624.075
 30
4827.000
 70
    32
  0
VERTEX
  8
0400LEVEL
 62
13
 10
1095.518
 20
-1533.774
 30
4827.000
 70
    32
  0
VERTEX
  8
0400LEVEL
 62
13
 10
1092.197
 20
-1519.965
 30
4827.000
 70
    32
  0
VERTEX
  8
0400LEVEL
 62
13
 10
1101.751
 20
-1515.860
 30
4827.000
 70
    32
  0
VERTEX
  8
0400LEVEL
 62
13
 10
1152.548
 20
-1532.293
 30
4827.000
 70
    32
  0
VERTEX
  8
0400LEVEL
 62
13
 10
1152.977
 20
-1511.239
 30
4827.000
 70
    32
  0
VERTEX
  8
0400LEVEL
 62
13
 10
1169.404
 20
-1504.950
 30
4827.000
 70
    32
  0
VERTEX
  8
0400LEVEL
 62
13
 10
1172.847
 20
-1492.818
 30
4827.000
 70
    32
  0
VERTEX
  8
0400LEVEL
 62
13
 10
1123.257
 20
-1367.319
 30
4827.000
 70
    32
  0
VERTEX
  8
0400LEVEL
 62
13
 10
1094.113
 20
-1249.296
 30
4827.000
 70
    32
  0
VERTEX
  8
0400LEVEL
 62
13
 10
1033.772
 20
-1075.408
 30
4827.000
 70
    32
  0
VERTEX
  8
0400LEVEL
 62
13
 10
973.926
 20
-1009.780
 30
4827.000
 70
    32
  0
VERTEX
  8
0400LEVEL
 62
13
 10
963.477
 20
-949.458
 30
4827.000
 70
    32
  0
VERTEX
  8
0400LEVEL
 62
13
 10
973.098
 20
-946.400
 30
4827.000
 70
    32
  0
VERTEX
  8
0400LEVEL
 62
13
 10
1004.260
 20
-968.273
 30
4827.000
 70
    32
  0
VERTEX
  8
0400LEVEL
 62
13
 10
1061.334
 20
-1028.819
 30
4827.000
 70
    32
  0
VERTEX
  8
0400LEVEL
 62
13
 10
1135.929
 20
-1161.859
 30
4827.000
 70
    32
  0
VERTEX
  8
0400LEVEL
 62
13
 10
1279.669
 20
-1307.726
 30
4827.000
 70
    32
  0
VERTEX
  8
0400LEVEL
 62
13
 10
1273.815
 20
-1287.067
 30
4827.000
 70
    32
  0
VERTEX
  8
0400LEVEL
 62
13
 10
1209.074
 20
-1199.317
 30
4827.000
 70
    32
  0
VERTEX
  8
0400LEVEL
 62
13
 10
1140.938
 20
-1135.611
 30
4827.000
 70
    32
  0
VERTEX
  8
0400LEVEL
 62
13
 10
1061.364
 20
-990.267
 30
4827.000
 70
    32
  0
VERTEX
  8
0400LEVEL
 62
13
 10
1019.723
 20
-885.295
 30
4827.000
 70
    32
  0
VERTEX
  8
0400LEVEL
 62
13
 10
929.315
 20
-701.382
 30
4827.000
 70
    32
  0
VERTEX
  8
0400LEVEL
 62
13
 10
941.618
 20
-669.378
 30
4827.000
 70
    32
  0
VERTEX
  8
0400LEVEL
 62
13
 10
934.500
 20
-641.400
 30
4827.000
 70
    32
  0
VERTEX
  8
0400LEVEL
 62
13
 10
848.900
 20
-495.300
 30
4827.000
 70
    32
  0
VERTEX
  8
0400LEVEL
 62
13
 10
792.792
 20
-455.483
 30
4827.000
 70
    32
  0
VERTEX
  8
0400LEVEL
 62
13
 10
776.806
 20
-227.585
 30
4827.000
 70
    32
  0
VERTEX
  8
0400LEVEL
 62
13
 10
789.600
 20
-157.400
 30
4827.000
 70
    32
  0
VERTEX
  8
0400LEVEL
 62
13
 10
807.500
 20
-117.600
 30
4827.000
 70
    32
  0
VERTEX
  8
0400LEVEL
 62
13
 10
837.300
 20
-77.500
 30
4827.000
 70
    32
  0
VERTEX
  8
0400LEVEL
 62
13
 10
846.800
 20
-37.700
 30
4827.000
 70
    32
  0
VERTEX
  8
0400LEVEL
 62
13
 10
873.000
 20
0.700
 30
4827.000
 70
    32
  0
VERTEX
  8
0400LEVEL
 62
13
 10
872.500
 20
38.800
 30
4827.000
 70
    32
  0
VERTEX
  8
0400LEVEL
 62
13
 10
895.500
 20
73.100
 30
4827.000
 70
    32
  0
VERTEX
  8
0400LEVEL
 62
13
 10
909.100
 20
162.500
 30
4827.000
 70
    32
  0
VERTEX
  8
0400LEVEL
 62
13
 10
967.000
 20
360.100
 30
4827.000
 70
    32
  0
VERTEX
  8
0400LEVEL
 62
13
 10
1046.700
 20
477.400
 30
4827.000
 70
    32
  0
VERTEX
  8
0400LEVEL
 62
13
 10
1096.900
 20
506.700
 30
4827.000
 70
    32
  0
VERTEX
  8
0400LEVEL
 62
13
 10
1114.100
 20
530.000
 30
4827.000
 70
    32
  0
VERTEX
  8
0400LEVEL
 62
13
 10
1137.400
 20
547.400
 30
4827.000
 70
    32
  0
VERTEX
  8
0400LEVEL
 62
13
 10
1192.500
 20
531.300
 30
4827.000
 70
    32
  0
VERTEX
  8
0400LEVEL
 62
13
 10
1211.100
 20
486.500
 30
4827.000
 70
    32
  0
VERTEX
  8
0400LEVEL
 62
13
 10
1202.600
 20
375.700
 30
4827.000
 70
    32
  0
VERTEX
  8
0400LEVEL
 62
13
 10
1209.300
 20
349.700
 30
4827.000
 70
    32
  0
VERTEX
  8
0400LEVEL
 62
13
 10
1250.100
 20
304.200
 30
4827.000
 70
    32
  0
VERTEX
  8
0400LEVEL
 62
13
 10
1253.500
 20
284.300
 30
4827.000
 70
    32
  0
VERTEX
  8
0400LEVEL
 62
13
 10
1234.900
 20
235.700
 30
4827.000
 70
    32
  0
VERTEX
  8
0400LEVEL
 62
13
 10
1200.900
 20
215.600
 30
4827.000
 70
    32
  0
VERTEX
  8
0400LEVEL
 62
13
 10
1194.700
 20
204.200
 30
4827.000
 70
    32
  0
VERTEX
  8
0400LEVEL
 62
13
 10
1141.700
 20
39.300
 30
4827.000
 70
    32
  0
VERTEX
  8
0400LEVEL
 62
13
 10
1138.200
 20
14.700
 30
4827.000
 70
    32
  0
VERTEX
  8
0400LEVEL
 62
13
 10
1191.400
 20
-29.100
 30
4827.000
 70
    32
  0
VERTEX
  8
0400LEVEL
 62
13
 10
1184.600
 20
-133.300
 30
4827.000
 70
    32
  0
VERTEX
  8
0400LEVEL
 62
13
 10
1121.100
 20
-250.500
 30
4827.000
 70
    32
  0
VERTEX
  8
0400LEVEL
 62
13
 10
1106.400
 20
-256.300
 30
4827.000
 70
    32
  0
VERTEX
  8
0400LEVEL
 62
13
 10
1086.300
 20
-215.900
 30
4827.000
 70
    32
  0
VERTEX
  8
0400LEVEL
 62
13
 10
1056.800
 20
-288.100
 30
4827.000
 70
    32
  0
VERTEX
  8
0400LEVEL
 62
13
 10
1042.600
 20
-357.000
 30
4827.000
 70
    32
  0
VERTEX
  8
0400LEVEL
 62
13
 10
1042.900
 20
-409.200
 30
4827.000
 70
    32
  0
VERTEX
  8
0400LEVEL
 62
13
 10
1082.300
 20
-429.900
 30
4827.000
 70
    32
  0
VERTEX
  8
0400LEVEL
 62
13
 10
1097.100
 20
-447.100
 30
4827.000
 70
    32
  0
VERTEX
  8
0400LEVEL
 62
13
 10
1115.900
 20
-453.100
 30
4827.000
 70
    32
  0
VERTEX
  8
0400LEVEL
 62
13
 10
1130.300
 20
-446.000
 30
4827.000
 70
    32
  0
VERTEX
  8
0400LEVEL
 62
13
 10
1155.900
 20
-391.000
 30
4827.000
 70
    32
  0
VERTEX
  8
0400LEVEL
 62
13
 10
1171.600
 20
-309.400
 30
4827.000
 70
    32
  0
VERTEX
  8
0400LEVEL
 62
13
 10
1179.900
 20
-295.700
 30
4827.000
 70
    32
  0
VERTEX
  8
0400LEVEL
 62
13
 10
1216.400
 20
-293.000
 30
4827.000
 70
    32
  0
VERTEX
  8
0400LEVEL
 62
13
 10
1241.400
 20
-258.700
 30
4827.000
 70
    32
  0
VERTEX
  8
0400LEVEL
 62
13
 10
1282.700
 20
21.400
 30
4827.000
 70
    32
  0
VERTEX
  8
0400LEVEL
 62
13
 10
1301.100
 20
80.900
 30
4827.000
 70
    32
  0
VERTEX
  8
0400LEVEL
 62
13
 10
1330.800
 20
73.700
 30
4827.000
 70
    32
  0
VERTEX
  8
0400LEVEL
 62
13
 10
1353.900
 20
87.600
 30
4827.000
 70
    32
  0
VERTEX
  8
0400LEVEL
 62
13
 10
1420.000
 20
269.600
 30
4827.000
 70
    32
  0
VERTEX
  8
0400LEVEL
 62
13
 10
1459.600
 20
287.000
 30
4827.000
 70
    32
  0
VERTEX
  8
0400LEVEL
 62
13
 10
1481.000
 20
268.500
 30
4827.000
 70
    32
  0
VERTEX
  8
0400LEVEL
 62
13
 10
1492.700
 20
268.400
 30
4827.000
 70
    32
  0
VERTEX
  8
0400LEVEL
 62
13
 10
1552.500
 20
400.300
 30
4827.000
 70
    32
  0
SEQEND
  8
0400LEVEL
  0
POLYLINE
  8
0400LEVEL
 62
5
 66
     1
 70
     9
  0
VERTEX
  8
0400LEVEL
 62
5
 10
588.583
 20
-514.524
 30
4827.000
 70
    32
  0
VERTEX
  8
0400LEVEL
 62
5
 10
616.065
 20
-594.499
 30
4827.000
 70
    32
  0
VERTEX
  8
0400LEVEL
 62
5
 10
596.658
 20
-509.106
 30
4827.000
 70
    32
  0
SEQEND
  8
0400LEVEL
  0
POLYLINE
  8
0400LEVEL
 62
5
 66
     1
 70
     9
  0
VERTEX
  8
0400LEVEL
 62
5
 10
615.423
 20
-489.689
 30
4827.000
 70
    32
  0
VERTEX
  8
0400LEVEL
 62
5
 10
638.224
 20
-595.558
 30
4827.000
 70
    32
  0
VERTEX
  8
0400LEVEL
 62
5
 10
661.453
 20
-641.435
 30
4827.000
 70
    32
  0
VERTEX
  8
0400LEVEL
 62
5
 10
746.856
 20
-944.996
 30
4827.000
 70
    32
  0
VERTEX
  8
0400LEVEL
 62
5
 10
771.448
 20
-1095.989
 30
4827.000
 70
    32
  0
VERTEX
  8
0400LEVEL
 62
5
 10
781.822
 20
-1104.804
 30
4827.000
 70
    32
  0
VERTEX
  8
0400LEVEL
 62
5
 10
791.382
 20
-1100.695
 30
4827.000
 70
    32
  0
VERTEX
  8
0400LEVEL
 62
5
 10
792.946
 20
-1042.034
 30
4827.000
 70
    32
  0
VERTEX
  8
0400LEVEL
 62
5
 10
774.626
 20
-946.052
 30
4827.000
 70
    32
  0
VERTEX
  8
0400LEVEL
 62
5
 10
624.108
 20
-482.829
 30
4827.000
 70
    32
  0
SEQEND
  8
0400LEVEL
  0
POLYLINE
  8
0400LEVEL
 62
5
 66
     1
 70
     9
  0
VERTEX
  8
0400LEVEL
 62
5
 10
635.070
 20
-445.318
 30
4827.000
 70
    32
  0
VERTEX
  8
0400LEVEL
 62
5
 10
732.797
 20
-727.414
 30
4827.000
 70
    32
  0
VERTEX
  8
0400LEVEL
 62
5
 10
818.679
 20
-899.443
 30
4827.000
 70
    32
  0
VERTEX
  8
0400LEVEL
 62
5
 10
856.079
 20
-992.118
 30
4827.000
 70
    32
  0
VERTEX
  8
0400LEVEL
 62
5
 10
870.367
 20
-1057.495
 30
4827.000
 70
    32
  0
VERTEX
  8
0400LEVEL
 62
5
 10
864.251
 20
-1094.000
 30
4827.000
 70
    32
  0
VERTEX
  8
0400LEVEL
 62
5
 10
876.182
 20
-1116.393
 30
4827.000
 70
    32
  0
VERTEX
  8
0400LEVEL
 62
5
 10
885.739
 20
-1106.673
 30
4827.000
 70
    32
  0
VERTEX
  8
0400LEVEL
 62
5
 10
885.741
 20
-1067.748
 30
4827.000
 70
    32
  0
VERTEX
  8
0400LEVEL
 62
5
 10
861.669
 20
-952.842
 30
4827.000
 70
    32
  0
VERTEX
  8
0400LEVEL
 62
5
 10
719.837
 20
-655.290
 30
4827.000
 70
    32
  0
VERTEX
  8
0400LEVEL
 62
5
 10
695.405
 20
-562.499
 30
4827.000
 70
    32
  0
VERTEX
  8
0400LEVEL
 62
5
 10
682.473
 20
-546.481
 30
4827.000
 70
    32
  0
VERTEX
  8
0400LEVEL
 62
5
 10
675.525
 20
-491.863
 30
4827.000
 70
    32
  0
VERTEX
  8
0400LEVEL
 62
5
 10
710.063
 20
-539.132
 30
4827.000
 70
    32
  0
VERTEX
  8
0400LEVEL
 62
5
 10
744.773
 20
-622.509
 30
4827.000
 70
    32
  0
VERTEX
  8
0400LEVEL
 62
5
 10
784.725
 20
-755.702
 30
4827.000
 70
    32
  0
VERTEX
  8
0400LEVEL
 62
5
 10
796.257
 20
-766.197
 30
4827.000
 70
    32
  0
VERTEX
  8
0400LEVEL
 62
5
 10
799.285
 20
-753.032
 30
4827.000
 70
    32
  0
VERTEX
  8
0400LEVEL
 62
5
 10
675.881
 20
-419.603
 30
4827.000
 70
    32
  0
SEQEND
  8
0400LEVEL
  0
POLYLINE
  8
0400LEVEL
 62
5
 66
     1
 70
     9
  0
VERTEX
  8
0400LEVEL
 62
5
 10
704.272
 20
-397.124
 30
4827.000
 70
    32
  0
VERTEX
  8
0400LEVEL
 62
5
 10
741.131
 20
-542.435
 30
4827.000
 70
    32
  0
VERTEX
  8
0400LEVEL
 62
5
 10
821.936
 20
-734.071
 30
4827.000
 70
    32
  0
VERTEX
  8
0400LEVEL
 62
5
 10
907.922
 20
-1024.621
 30
4827.000
 70
    32
  0
VERTEX
  8
0400LEVEL
 62
5
 10
971.573
 20
-1138.787
 30
4827.000
 70
    32
  0
VERTEX
  8
0400LEVEL
 62
5
 10
998.457
 20
-1159.185
 30
4827.000
 70
    32
  0
VERTEX
  8
0400LEVEL
 62
5
 10
997.593
 20
-1134.342
 30
4827.000
 70
    32
  0
VERTEX
  8
0400LEVEL
 62
5
 10
947.614
 20
-1031.237
 30
4827.000
 70
    32
  0
VERTEX
  8
0400LEVEL
 62
5
 10
838.817
 20
-701.447
 30
4827.000
 70
    32
  0
VERTEX
  8
0400LEVEL
 62
5
 10
784.943
 20
-581.054
 30
4827.000
 70
    32
  0
VERTEX
  8
0400LEVEL
 62
5
 10
717.713
 20
-382.250
 30
4827.000
 70
    32
  0
SEQEND
  8
0400LEVEL
  0
POLYLINE
  8
0400LEVEL
 62
5
 66
     1
 70
     9
  0
VERTEX
  8
0400LEVEL
 62
5
 10
758.560
 20
-123.336
 30
4827.000
 70
    32
  0
VERTEX
  8
0400LEVEL
 62
5
 10
738.838
 20
-194.362
 30
4827.000
 70
    32
  0
VERTEX
  8
0400LEVEL
 62
5
 10
757.821
 20
-261.898
 30
4827.000
 70
    32
  0
VERTEX
  8
0400LEVEL
 62
5
 10
733.312
 20
-362.682
 30
4827.000
 70
    32
  0
VERTEX
  8
0400LEVEL
 62
5
 10
745.516
 20
-406.098
 30
4827.000
 70
    32
  0
VERTEX
  8
0400LEVEL
 62
5
 10
828.370
 20
-546.757
 30
4827.000
 70
    32
  0
VERTEX
  8
0400LEVEL
 62
5
 10
1047.573
 20
-847.850
 30
4827.000
 70
    32
  0
VERTEX
  8
0400LEVEL
 62
5
 10
1166.866
 20
-993.578
 30
4827.000
 70
    32
  0
VERTEX
  8
0400LEVEL
 62
5
 10
1186.677
 20
-1013.019
 30
4827.000
 70
    32
  0
VERTEX
  8
0400LEVEL
 62
5
 10
1215.106
 20
-1024.554
 30
4827.000
 70
    32
  0
VERTEX
  8
0400LEVEL
 62
5
 10
1209.572
 20
-1003.511
 30
4827.000
 70
    32
  0
VERTEX
  8
0400LEVEL
 62
5
 10
1134.717
 20
-923.014
 30
4827.000
 70
    32
  0
VERTEX
  8
0400LEVEL
 62
5
 10
921.462
 20
-643.990
 30
4827.000
 70
    32
  0
VERTEX
  8
0400LEVEL
 62
5
 10
874.096
 20
-571.229
 30
4827.000
 70
    32
  0
VERTEX
  8
0400LEVEL
 62
5
 10
870.397
 20
-551.474
 30
4827.000
 70
    32
  0
VERTEX
  8
0400LEVEL
 62
5
 10
766.217
 20
-417.418
 30
4827.000
 70
    32
  0
VERTEX
  8
0400LEVEL
 62
5
 10
754.665
 20
-367.649
 30
4827.000
 70
    32
  0
VERTEX
  8
0400LEVEL
 62
5
 10
781.155
 20
-298.300
 30
4827.000
 70
    32
  0
VERTEX
  8
0400LEVEL
 62
5
 10
785.220
 20
-262.626
 30
4827.000
 70
    32
  0
VERTEX
  8
0400LEVEL
 62
5
 10
773.338
 20
-207.618
 30
4827.000
 70
    32
  0
VERTEX
  8
0400LEVEL
 62
5
 10
767.315
 20
-212.205
 30
4827.000
 70
    32
  0
VERTEX
  8
0400LEVEL
 62
5
 10
762.133
 20
-196.752
 30
4827.000
 70
    32
  0
VERTEX
  8
0400LEVEL
 62
5
 10
764.264
 20
-180.486
 30
4827.000
 70
    32
  0
VERTEX
  8
0400LEVEL
 62
5
 10
779.999
 20
-168.624
 30
4827.000
 70
    32
  0
VERTEX
  8
0400LEVEL
 62
5
 10
778.420
 20
-154.697
 30
4827.000
 70
    32
  0
VERTEX
  8
0400LEVEL
 62
5
 10
785.796
 20
-149.323
 30
4827.000
 70
    32
  0
VERTEX
  8
0400LEVEL
 62
5
 10
779.035
 20
-119.942
 30
4827.000
 70
    32
  0
SEQEND
  8
0400LEVEL
  0
POLYLINE
  8
0400LEVEL
 62
5
 66
     1
 70
     9
  0
VERTEX
  8
0400LEVEL
 62
5
 10
865.621
 20
-2039.676
 30
4827.000
 70
    32
  0
VERTEX
  8
0400LEVEL
 62
5
 10
824.387
 20
-1919.539
 30
4827.000
 70
    32
  0
VERTEX
  8
0400LEVEL
 62
5
 10
787.408
 20
-1750.039
 30
4827.000
 70
    32
  0
VERTEX
  8
0400LEVEL
 62
5
 10
770.421
 20
-1703.068
 30
4827.000
 70
    32
  0
VERTEX
  8
0400LEVEL
 62
5
 10
752.397
 20
-1589.533
 30
4827.000
 70
    32
  0
VERTEX
  8
0400LEVEL
 62
5
 10
725.394
 20
-1506.021
 30
4827.000
 70
    32
  0
VERTEX
  8
0400LEVEL
 62
5
 10
723.823
 20
-1464.390
 30
4827.000
 70
    32
  0
VERTEX
  8
0400LEVEL
 62
5
 10
747.767
 20
-1454.816
 30
4827.000
 70
    32
  0
VERTEX
  8
0400LEVEL
 62
5
 10
807.136
 20
-1562.239
 30
4827.000
 70
    32
  0
VERTEX
  8
0400LEVEL
 62
5
 10
804.193
 20
-1571.191
 30
4827.000
 70
    32
  0
VERTEX
  8
0400LEVEL
 62
5
 10
834.342
 20
-1615.580
 30
4827.000
 70
    32
  0
VERTEX
  8
0400LEVEL
 62
5
 10
817.066
 20
-1686.453
 30
4827.000
 70
    32
  0
VERTEX
  8
0400LEVEL
 62
5
 10
822.949
 20
-1707.473
 30
4827.000
 70
    32
  0
VERTEX
  8
0400LEVEL
 62
5
 10
834.071
 20
-1728.163
 30
4827.000
 70
    32
  0
VERTEX
  8
0400LEVEL
 62
5
 10
867.985
 20
-1748.820
 30
4827.000
 70
    32
  0
VERTEX
  8
0400LEVEL
 62
5
 10
919.669
 20
-1812.191
 30
4827.000
 70
    32
  0
VERTEX
  8
0400LEVEL
 62
5
 10
953.013
 20
-1957.373
 30
4827.000
 70
    32
  0
SEQEND
  8
0400LEVEL
  0
POLYLINE
  8
0400LEVEL
 62
5
 66
     1
 70
     9
  0
VERTEX
  8
0400LEVEL
 62
5
 10
815.380
 20
-1503.859
 30
4827.000
 70
    32
  0
VERTEX
  8
0400LEVEL
 62
5
 10
731.982
 20
-1365.688
 30
4827.000
 70
    32
  0
VERTEX
  8
0400LEVEL
 62
5
 10
747.832
 20
-1411.329
 30
4827.000
 70
    32
  0
VERTEX
  8
0400LEVEL
 62
5
 10
851.724
 20
-1579.769
 30
4827.000
 70
    32
  0
VERTEX
  8
0400LEVEL
 62
5
 10
866.617
 20
-1632.483
 30
4827.000
 70
    32
  0
VERTEX
  8
0400LEVEL
 62
5
 10
877.405
 20
-1725.784
 30
4827.000
 70
    32
  0
VERTEX
  8
0400LEVEL
 62
5
 10
888.747
 20
-1749.967
 30
4827.000
 70
    32
  0
VERTEX
  8
0400LEVEL
 62
5
 10
894.118
 20
-1751.732
 30
4827.000
 70
    32
  0
VERTEX
  8
0400LEVEL
 62
5
 10
901.836
 20
-1729.504
 30
4827.000
 70
    32
  0
VERTEX
  8
0400LEVEL
 62
5
 10
892.195
 20
-1704.513
 30
4827.000
 70
    32
  0
VERTEX
  8
0400LEVEL
 62
5
 10
898.111
 20
-1659.254
 30
4827.000
 70
    32
  0
VERTEX
  8
0400LEVEL
 62
5
 10
870.607
 20
-1578.930
 30
4827.000
 70
    32
  0
VERTEX
  8
0400LEVEL
 62
5
 10
850.178
 20
-1544.098
 30
4827.000
 70
    32
  0
SEQEND
  8
0400LEVEL
  0
POLYLINE
  8
0400LEVEL
 62
5
 66
     1
 70
     9
  0
VERTEX
  8
0400LEVEL
 62
5
 10
821.978
 20
-1469.428
 30
4827.000
 70
    32
  0
VERTEX
  8
0400LEVEL
 62
5
 10
838.048
 20
-1518.561
 30
4827.000
 70
    32
  0
VERTEX
  8
0400LEVEL
 62
5
 10
764.900
 20
-1359.406
 30
4827.000
 70
    32
  0
VERTEX
  8
0400LEVEL
 62
5
 10
766.622
 20
-1353.336
 30
4827.000
 70
    32
  0
VERTEX
  8
0400LEVEL
 62
5
 10
784.581
 20
-1382.362
 30
4827.000
 70
    32
  0
VERTEX
  8
0400LEVEL
 62
5
 10
814.676
 20
-1448.146
 30
4827.000
 70
    32
  0
SEQEND
  8
0400LEVEL
  0
POLYLINE
  8
0400LEVEL
 62
5
 66
     1
 70
     9
  0
VERTEX
  8
0400LEVEL
 62
5
 10
779.945
 20
-2268.157
 30
4827.000
 70
    32
  0
VERTEX
  8
0400LEVEL
 62
5
 10
932.183
 20
-2145.732
 30
4827.000
 70
    32
  0
VERTEX
  8
0400LEVEL
 62
5
 10
1016.223
 20
-2064.806
 30
4827.000
 70
    32
  0
VERTEX
  8
0400LEVEL
 62
5
 10
1039.029
 20
-2013.068
 30
4827.000
 70
    32
  0
VERTEX
  8
0400LEVEL
 62
5
 10
1067.095
 20
-1973.261
 30
4827.000
 70
    32
  0
VERTEX
  8
0400LEVEL
 62
5
 10
1228.700
 20
-1790.803
 30
4827.000
 70
    32
  0
VERTEX
  8
0400LEVEL
 62
5
 10
1324.390
 20
-1711.631
 30
4827.000
 70
    32
  0
VERTEX
  8
0400LEVEL
 62
5
 10
1332.177
 20
-1730.759
 30
4827.000
 70
    32
  0
VERTEX
  8
0400LEVEL
 62
5
 10
1216.853
 20
-1826.844
 30
4827.000
 70
    32
  0
VERTEX
  8
0400LEVEL
 62
5
 10
1105.828
 20
-1965.705
 30
4827.000
 70
    32
  0
VERTEX
  8
0400LEVEL
 62
5
 10
1030.198
 20
-2076.218
 30
4827.000
 70
    32
  0
VERTEX
  8
0400LEVEL
 62
5
 10
898.632
 20
-2199.160
 30
4827.000
 70
    32
  0
VERTEX
  8
0400LEVEL
 62
5
 10
787.155
 20
-2283.471
 30
4827.000
 70
    32
  0
SEQEND
  8
0400LEVEL
  0
POLYLINE
  8
0400LEVEL
 62
5
 66
     1
 70
     9
  0
VERTEX
  8
0400LEVEL
 62
5
 10
1393.897
 20
-3779.596
 30
4827.000
 70
    32
  0
VERTEX
  8
0400LEVEL
 62
5
 10
1297.125
 20
-3520.253
 30
4827.000
 70
    32
  0
VERTEX
  8
0400LEVEL
 62
5
 10
1226.356
 20
-3336.599
 30
4827.000
 70
    32
  0
VERTEX
  8
0400LEVEL
 62
5
 10
1162.018
 20
-3008.421
 30
4827.000
 70
    32
  0
VERTEX
  8
0400LEVEL
 62
5
 10
1135.674
 20
-2965.559
 30
4827.000
 70
    32
  0
VERTEX
  8
0400LEVEL
 62
5
 10
1112.800
 20
-2875.261
 30
4827.000
 70
    32
  0
VERTEX
  8
0400LEVEL
 62
5
 10
1122.445
 20
-2884.482
 30
4827.000
 70
    32
  0
VERTEX
  8
0400LEVEL
 62
5
 10
1148.011
 20
-2955.378
 30
4827.000
 70
    32
  0
VERTEX
  8
0400LEVEL
 62
5
 10
1206.922
 20
-3051.576
 30
4827.000
 70
    32
  0
VERTEX
  8
0400LEVEL
 62
5
 10
1233.129
 20
-3156.720
 30
4827.000
 70
    32
  0
VERTEX
  8
0400LEVEL
 62
5
 10
1356.063
 20
-3464.263
 30
4827.000
 70
    32
  0
VERTEX
  8
0400LEVEL
 62
5
 10
1446.652
 20
-3698.070
 30
4827.000
 70
    32
  0
VERTEX
  8
0400LEVEL
 62
5
 10
1479.919
 20
-3663.996
 30
4827.000
 70
    32
  0
VERTEX
  8
0400LEVEL
 62
5
 10
1312.256
 20
-3192.937
 30
4827.000
 70
    32
  0
VERTEX
  8
0400LEVEL
 62
5
 10
1200.088
 20
-2831.225
 30
4827.000
 70
    32
  0
VERTEX
  8
0400LEVEL
 62
5
 10
1136.290
 20
-2564.939
 30
4827.000
 70
    32
  0
VERTEX
  8
0400LEVEL
 62
5
 10
1125.303
 20
-2544.953
 30
4827.000
 70
    32
  0
VERTEX
  8
0400LEVEL
 62
5
 10
1122.283
 20
-2564.725
 30
4827.000
 70
    32
  0
VERTEX
  8
0400LEVEL
 62
5
 10
1133.209
 20
-2613.053
 30
4827.000
 70
    32
  0
VERTEX
  8
0400LEVEL
 62
5
 10
1226.418
 20
-2961.901
 30
4827.000
 70
    32
  0
VERTEX
  8
0400LEVEL
 62
5
 10
1197.529
 20
-2917.442
 30
4827.000
 70
    32
  0
VERTEX
  8
0400LEVEL
 62
5
 10
1134.453
 20
-2710.238
 30
4827.000
 70
    32
  0
VERTEX
  8
0400LEVEL
 62
5
 10
1012.026
 20
-2100.041
 30
4827.000
 70
    32
  0
VERTEX
  8
0400LEVEL
 62
5
 10
1015.157
 20
-2064.520
 30
4827.000
 70
    32
  0
VERTEX
  8
0400LEVEL
 62
5
 10
1005.057
 20
-2024.188
 30
4827.000
 70
    32
  0
VERTEX
  8
0400LEVEL
 62
5
 10
1016.393
 20
-1991.326
 30
4827.000
 70
    32
  0
VERTEX
  8
0400LEVEL
 62
5
 10
1018.691
 20
-1912.472
 30
4827.000
 70
    32
  0
VERTEX
  8
0400LEVEL
 62
5
 10
995.593
 20
-1824.286
 30
4827.000
 70
    32
  0
VERTEX
  8
0400LEVEL
 62
5
 10
941.402
 20
-1678.128
 30
4827.000
 70
    32
  0
VERTEX
  8
0400LEVEL
 62
5
 10
916.183
 20
-1577.823
 30
4827.000
 70
    32
  0
VERTEX
  8
0400LEVEL
 62
5
 10
898.595
 20
-1400.095
 30
4827.000
 70
    32
  0
VERTEX
  8
0400LEVEL
 62
5
 10
842.940
 20
-1082.596
 30
4827.000
 70
    32
  0
VERTEX
  8
0400LEVEL
 62
5
 10
827.217
 20
-1065.340
 30
4827.000
 70
    32
  0
VERTEX
  8
0400LEVEL
 62
5
 10
812.834
 20
-1082.291
 30
4827.000
 70
    32
  0
VERTEX
  8
0400LEVEL
 62
5
 10
849.490
 20
-1227.745
 30
4827.000
 70
    32
  0
VERTEX
  8
0400LEVEL
 62
5
 10
853.275
 20
-1349.968
 30
4827.000
 70
    32
  0
VERTEX
  8
0400LEVEL
 62
5
 10
878.843
 20
-1450.252
 30
4827.000
 70
    32
  0
VERTEX
  8
0400LEVEL
 62
5
 10
873.862
 20
-1507.575
 30
4827.000
 70
    32
  0
VERTEX
  8
0400LEVEL
 62
5
 10
890.732
 20
-1549.952
 30
4827.000
 70
    32
  0
VERTEX
  8
0400LEVEL
 62
5
 10
887.368
 20
-1575.692
 30
4827.000
 70
    32
  0
VERTEX
  8
0400LEVEL
 62
5
 10
850.277
 20
-1505.132
 30
4827.000
 70
    32
  0
VERTEX
  8
0400LEVEL
 62
5
 10
790.504
 20
-1300.531
 30
4827.000
 70
    32
  0
VERTEX
  8
0400LEVEL
 62
5
 10
797.698
 20
-1268.615
 30
4827.000
 70
    32
  0
VERTEX
  8
0400LEVEL
 62
5
 10
787.547
 20
-1215.693
 30
4827.000
 70
    32
  0
VERTEX
  8
0400LEVEL
 62
5
 10
777.664
 20
-1190.742
 30
4827.000
 70
    32
  0
VERTEX
  8
0400LEVEL
 62
5
 10
760.547
 20
-1173.570
 30
4827.000
 70
    32
  0
VERTEX
  8
0400LEVEL
 62
5
 10
742.427
 20
-1104.329
 30
4827.000
 70
    32
  0
VERTEX
  8
0400LEVEL
 62
5
 10
708.012
 20
-1019.966
 30
4827.000
 70
    32
  0
VERTEX
  8
0400LEVEL
 62
5
 10
663.142
 20
-807.129
 30
4827.000
 70
    32
  0
VERTEX
  8
0400LEVEL
 62
5
 10
577.293
 20
-534.811
 30
4827.000
 70
    32
  0
VERTEX
  8
0400LEVEL
 62
5
 10
549.538
 20
-550.459
 30
4827.000
 70
    32
  0
VERTEX
  8
0400LEVEL
 62
5
 10
608.666
 20
-744.253
 30
4827.000
 70
    32
  0
VERTEX
  8
0400LEVEL
 62
5
 10
616.751
 20
-803.597
 30
4827.000
 70
    32
  0
VERTEX
  8
0400LEVEL
 62
5
 10
630.062
 20
-833.241
 30
4827.000
 70
    32
  0
VERTEX
  8
0400LEVEL
 62
5
 10
632.715
 20
-895.357
 30
4827.000
 70
    32
  0
VERTEX
  8
0400LEVEL
 62
5
 10
595.107
 20
-792.641
 30
4827.000
 70
    32
  0
VERTEX
  8
0400LEVEL
 62
5
 10
566.060
 20
-675.072
 30
4827.000
 70
    32
  0
VERTEX
  8
0400LEVEL
 62
5
 10
547.203
 20
-634.563
 30
4827.000
 70
    32
  0
VERTEX
  8
0400LEVEL
 62
5
 10
531.601
 20
-560.624
 30
4827.000
 70
    32
  0
VERTEX
  8
0400LEVEL
 62
5
 10
492.211
 20
-582.314
 30
4827.000
 70
    32
  0
VERTEX
  8
0400LEVEL
 62
5
 10
524.314
 20
-691.104
 30
4827.000
 70
    32
  0
VERTEX
  8
0400LEVEL
 62
5
 10
481.125
 20
-590.026
 30
4827.000
 70
    32
  0
VERTEX
  8
0400LEVEL
 62
5
 10
471.502
 20
-598.698
 30
4827.000
 70
    32
  0
VERTEX
  8
0400LEVEL
 62
5
 10
483.785
 20
-626.679
 30
4827.000
 70
    32
  0
VERTEX
  8
0400LEVEL
 62
5
 10
553.599
 20
-972.251
 30
4827.000
 70
    32
  0
VERTEX
  8
0400LEVEL
 62
5
 10
568.083
 20
-990.626
 30
4827.000
 70
    32
  0
VERTEX
  8
0400LEVEL
 62
5
 10
540.922
 20
-854.523
 30
4827.000
 70
    32
  0
VERTEX
  8
0400LEVEL
 62
5
 10
541.288
 20
-843.629
 30
4827.000
 70
    32
  0
VERTEX
  8
0400LEVEL
 62
5
 10
545.941
 20
-850.700
 30
4827.000
 70
    32
  0
VERTEX
  8
0400LEVEL
 62
5
 10
616.316
 20
-1138.376
 30
4827.000
 70
    32
  0
VERTEX
  8
0400LEVEL
 62
5
 10
684.182
 20
-1341.698
 30
4827.000
 70
    32
  0
VERTEX
  8
0400LEVEL
 62
5
 10
658.959
 20
-1325.403
 30
4827.000
 70
    32
  0
VERTEX
  8
0400LEVEL
 62
5
 10
644.030
 20
-1333.357
 30
4827.000
 70
    32
  0
VERTEX
  8
0400LEVEL
 62
5
 10
682.111
 20
-1392.325
 30
4827.000
 70
    32
  0
VERTEX
  8
0400LEVEL
 62
5
 10
686.947
 20
-1413.412
 30
4827.000
 70
    32
  0
VERTEX
  8
0400LEVEL
 62
5
 10
647.334
 20
-1391.360
 30
4827.000
 70
    32
  0
VERTEX
  8
0400LEVEL
 62
5
 10
624.407
 20
-1339.152
 30
4827.000
 70
    32
  0
VERTEX
  8
0400LEVEL
 62
5
 10
579.995
 20
-1279.881
 30
4827.000
 70
    32
  0
VERTEX
  8
0400LEVEL
 62
5
 10
572.002
 20
-1275.475
 30
4827.000
 70
    32
  0
VERTEX
  8
0400LEVEL
 62
5
 10
565.831
 20
-1288.839
 30
4827.000
 70
    32
  0
VERTEX
  8
0400LEVEL
 62
5
 10
644.676
 20
-1488.313
 30
4827.000
 70
    32
  0
VERTEX
  8
0400LEVEL
 62
5
 10
676.120
 20
-1547.700
 30
4827.000
 70
    32
  0
VERTEX
  8
0400LEVEL
 62
5
 10
712.877
 20
-1663.560
 30
4827.000
 70
    32
  0
VERTEX
  8
0400LEVEL
 62
5
 10
717.352
 20
-1706.762
 30
4827.000
 70
    32
  0
VERTEX
  8
0400LEVEL
 62
5
 10
663.876
 20
-1553.731
 30
4827.000
 70
    32
  0
VERTEX
  8
0400LEVEL
 62
5
 10
631.301
 20
-1504.235
 30
4827.000
 70
    32
  0
VERTEX
  8
0400LEVEL
 62
5
 10
622.918
 20
-1504.763
 30
4827.000
 70
    32
  0
VERTEX
  8
0400LEVEL
 62
5
 10
617.209
 20
-1525.462
 30
4827.000
 70
    32
  0
VERTEX
  8
0400LEVEL
 62
5
 10
653.093
 20
-1644.183
 30
4827.000
 70
    32
  0
VERTEX
  8
0400LEVEL
 62
5
 10
672.915
 20
-1686.066
 30
4827.000
 70
    32
  0
VERTEX
  8
0400LEVEL
 62
5
 10
717.494
 20
-1903.831
 30
4827.000
 70
    32
  0
VERTEX
  8
0400LEVEL
 62
5
 10
799.616
 20
-2238.809
 30
4827.000
 70
    32
  0
VERTEX
  8
0400LEVEL
 62
5
 10
815.678
 20
-2271.110
 30
4827.000
 70
    32
  0
VERTEX
  8
0400LEVEL
 62
5
 10
950.559
 20
-2808.960
 30
4827.000
 70
    32
  0
VERTEX
  8
0400LEVEL
 62
5
 10
1155.857
 20
-3329.047
 30
4827.000
 70
    32
  0
VERTEX
  8
0400LEVEL
 62
5
 10
1137.622
 20
-3317.922
 30
4827.000
 70
    32
  0
VERTEX
  8
0400LEVEL
 62
5
 10
988.374
 20
-2947.197
 30
4827.000
 70
    32
  0
VERTEX
  8
0400LEVEL
 62
5
 10
972.213
 20
-2891.055
 30
4827.000
 70
    32
  0
VERTEX
  8
0400LEVEL
 62
5
 10
956.921
 20
-2870.978
 30
4827.000
 70
    32
  0
VERTEX
  8
0400LEVEL
 62
5
 10
880.001
 20
-2635.264
 30
4827.000
 70
    32
  0
VERTEX
  8
0400LEVEL
 62
5
 10
870.017
 20
-2621.515
 30
4827.000
 70
    32
  0
VERTEX
  8
0400LEVEL
 62
5
 10
868.109
 20
-2646.884
 30
4827.000
 70
    32
  0
VERTEX
  8
0400LEVEL
 62
5
 10
916.851
 20
-2808.278
 30
4827.000
 70
    32
  0
VERTEX
  8
0400LEVEL
 62
5
 10
944.850
 20
-2874.194
 30
4827.000
 70
    32
  0
VERTEX
  8
0400LEVEL
 62
5
 10
964.116
 20
-2896.124
 30
4827.000
 70
    32
  0
VERTEX
  8
0400LEVEL
 62
5
 10
981.661
 20
-2968.660
 30
4827.000
 70
    32
  0
VERTEX
  8
0400LEVEL
 62
5
 10
1083.471
 20
-3209.820
 30
4827.000
 70
    32
  0
VERTEX
  8
0400LEVEL
 62
5
 10
1298.401
 20
-3782.602
 30
4827.000
 70
    32
  0
VERTEX
  8
0400LEVEL
 62
5
 10
1349.783
 20
-3896.840
 30
4827.000
 70
    32
  0
SEQEND
  8
0400LEVEL
  0
POLYLINE
  8
0400LEVEL
 62
7
 66
     1
 70
     8
  0
VERTEX
  8
0400LEVEL
 62
7
 10
-3384.768
 20
1060.728
 30
4827.000
 70
    32
  0
VERTEX
  8
0400LEVEL
 62
7
 10
-3449.719
 20
1154.029
 30
4827.000
 70
    32
  0
VERTEX
  8
0400LEVEL
 62
7
 10
-3487.364
 20
1225.839
 30
4827.000
 70
    32
  0
VERTEX
  8
0400LEVEL
 62
7
 10
-3514.209
 20
1294.559
 30
4827.000
 70
    32
  0
VERTEX
  8
0400LEVEL
 62
7
 10
-3488.242
 20
1275.560
 30
4827.000
 70
    32
  0
VERTEX
  8
0400LEVEL
 62
7
 10
-3457.978
 20
1232.933
 30
4827.000
 70
    32
  0
VERTEX
  8
0400LEVEL
 62
7
 10
-3451.809
 20
1264.851
 30
4827.000
 70
    32
  0
VERTEX
  8
0400LEVEL
 62
7
 10
-3487.517
 20
1343.630
 30
4827.000
 70
    32
  0
VERTEX
  8
0400LEVEL
 62
7
 10
-3513.229
 20
1423.482
 30
4827.000
 70
    32
  0
VERTEX
  8
0400LEVEL
 62
7
 10
-3475.390
 20
1391.397
 30
4827.000
 70
    32
  0
VERTEX
  8
0400LEVEL
 62
7
 10
-3431.860
 20
1337.965
 30
4827.000
 70
    32
  0
VERTEX
  8
0400LEVEL
 62
7
 10
-3361.939
 20
1270.998
 30
4827.000
 70
    32
  0
VERTEX
  8
0400LEVEL
 62
7
 10
-3303.038
 20
1244.401
 30
4827.000
 70
    32
  0
VERTEX
  8
0400LEVEL
 62
7
 10
-3316.438
 20
1279.637
 30
4827.000
 70
    32
  0
VERTEX
  8
0400LEVEL
 62
7
 10
-3352.332
 20
1364.739
 30
4827.000
 70
    32
  0
VERTEX
  8
0400LEVEL
 62
7
 10
-3398.501
 20
1464.919
 30
4827.000
 70
    32
  0
VERTEX
  8
0400LEVEL
 62
7
 10
-3437.636
 20
1557.616
 30
4827.000
 70
    32
  0
VERTEX
  8
0400LEVEL
 62
7
 10
-3407.329
 20
1530.080
 30
4827.000
 70
    32
  0
VERTEX
  8
0400LEVEL
 62
7
 10
-3360.281
 20
1466.238
 30
4827.000
 70
    32
  0
VERTEX
  8
0400LEVEL
 62
7
 10
-3292.549
 20
1404.172
 30
4827.000
 70
    32
  0
VERTEX
  8
0400LEVEL
 62
7
 10
-3219.859
 20
1335.728
 30
4827.000
 70
    32
  0
VERTEX
  8
0400LEVEL
 62
7
 10
-3152.215
 20
1299.847
 30
4827.000
 70
    32
  0
VERTEX
  8
0400LEVEL
 62
7
 10
-3153.431
 20
1331.256
 30
4827.000
 70
    32
  0
VERTEX
  8
0400LEVEL
 62
7
 10
-3209.224
 20
1417.719
 30
4827.000
 70
    32
  0
VERTEX
  8
0400LEVEL
 62
7
 10
-3278.790
 20
1509.035
 30
4827.000
 70
    32
  0
VERTEX
  8
0400LEVEL
 62
7
 10
-3270.785
 20
1541.396
 30
4827.000
 70
    32
  0
VERTEX
  8
0400LEVEL
 62
7
 10
-3215.394
 20
1485.198
 30
4827.000
 70
    32
  0
VERTEX
  8
0400LEVEL
 62
7
 10
-3156.339
 20
1426.868
 30
4827.000
 70
    32
  0
VERTEX
  8
0400LEVEL
 62
7
 10
-3097.215
 20
1349.654
 30
4827.000
 70
    32
  0
VERTEX
  8
0400LEVEL
 62
7
 10
-3031.972
 20
1272.911
 30
4827.000
 70
    32
  0
VERTEX
  8
0400LEVEL
 62
7
 10
-2962.950
 20
1219.937
 30
4827.000
 70
    32
  0
VERTEX
  8
0400LEVEL
 62
7
 10
-2874.723
 20
1136.277
 30
4827.000
 70
    32
  0
VERTEX
  8
0400LEVEL
 62
7
 10
-2815.090
 20
1094.708
 30
4827.000
 70
    32
  0
VERTEX
  8
0400LEVEL
 62
7
 10
-2857.961
 20
1178.728
 30
4827.000
 70
    32
  0
VERTEX
  8
0400LEVEL
 62
7
 10
-2912.273
 20
1284.316
 30
4827.000
 70
    32
  0
VERTEX
  8
0400LEVEL
 62
7
 10
-2982.304
 20
1398.106
 30
4827.000
 70
    32
  0
VERTEX
  8
0400LEVEL
 62
7
 10
-3056.286
 20
1513.824
 30
4827.000
 70
    32
  0
VERTEX
  8
0400LEVEL
 62
7
 10
-3134.208
 20
1621.152
 30
4827.000
 70
    32
  0
VERTEX
  8
0400LEVEL
 62
7
 10
-3224.395
 20
1718.481
 30
4827.000
 70
    32
  0
VERTEX
  8
0400LEVEL
 62
7
 10
-3299.979
 20
1815.850
 30
4827.000
 70
    32
  0
VERTEX
  8
0400LEVEL
 62
7
 10
-3370.900
 20
1946.650
 30
4827.000
 70
    32
  0
VERTEX
  8
0400LEVEL
 62
7
 10
-3440.574
 20
2071.451
 30
4827.000
 70
    32
  0
VERTEX
  8
0400LEVEL
 62
7
 10
-3480.564
 20
2193.231
 30
4827.000
 70
    32
  0
VERTEX
  8
0400LEVEL
 62
7
 10
-3513.885
 20
2336.527
 30
4827.000
 70
    32
  0
VERTEX
  8
0400LEVEL
 62
7
 10
-3529.318
 20
2430.992
 30
4827.000
 70
    32
  0
VERTEX
  8
0400LEVEL
 62
7
 10
-3510.864
 20
2409.241
 30
4827.000
 70
    32
  0
VERTEX
  8
0400LEVEL
 62
7
 10
-3468.407
 20
2322.775
 30
4827.000
 70
    32
  0
VERTEX
  8
0400LEVEL
 62
7
 10
-3411.100
 20
2237.816
 30
4827.000
 70
    32
  0
VERTEX
  8
0400LEVEL
 62
7
 10
-3366.152
 20
2152.689
 30
4827.000
 70
    32
  0
VERTEX
  8
0400LEVEL
 62
7
 10
-3328.816
 20
2101.314
 30
4827.000
 70
    32
  0
VERTEX
  8
0400LEVEL
 62
7
 10
-3308.292
 20
2118.467
 30
4827.000
 70
    32
  0
VERTEX
  8
0400LEVEL
 62
7
 10
-3287.542
 20
2157.726
 30
4827.000
 70
    32
  0
VERTEX
  8
0400LEVEL
 62
7
 10
-3254.036
 20
2150.534
 30
4827.000
 70
    32
  0
VERTEX
  8
0400LEVEL
 62
7
 10
-3237.658
 20
2172.919
 30
4827.000
 70
    32
  0
VERTEX
  8
0400LEVEL
 62
7
 10
-3181.237
 20
2177.693
 30
4827.000
 70
    32
  0
VERTEX
  8
0400LEVEL
 62
7
 10
-3135.821
 20
2156.151
 30
4827.000
 70
    32
  0
VERTEX
  8
0400LEVEL
 62
7
 10
-3096.165
 20
2088.781
 30
4827.000
 70
    32
  0
VERTEX
  8
0400LEVEL
 62
7
 10
-3077.754
 20
2008.909
 30
4827.000
 70
    32
  0
VERTEX
  8
0400LEVEL
 62
7
 10
-3085.242
 20
1929.153
 30
4827.000
 70
    32
  0
VERTEX
  8
0400LEVEL
 62
7
 10
-3093.960
 20
1861.431
 30
4827.000
 70
    32
  0
VERTEX
  8
0400LEVEL
 62
7
 10
-3070.817
 20
1753.078
 30
4827.000
 70
    32
  0
VERTEX
  8
0400LEVEL
 62
7
 10
-2993.942
 20
1621.771
 30
4827.000
 70
    32
  0
VERTEX
  8
0400LEVEL
 62
7
 10
-2910.267
 20
1500.886
 30
4827.000
 70
    32
  0
VERTEX
  8
0400LEVEL
 62
7
 10
-2824.221
 20
1382.115
 30
4827.000
 70
    32
  0
VERTEX
  8
0400LEVEL
 62
7
 10
-2771.932
 20
1325.436
 30
4827.000
 70
    32
  0
VERTEX
  8
0400LEVEL
 62
7
 10
-2781.732
 20
1364.088
 30
4827.000
 70
    32
  0
VERTEX
  8
0400LEVEL
 62
7
 10
-2823.866
 20
1449.493
 30
4827.000
 70
    32
  0
VERTEX
  8
0400LEVEL
 62
7
 10
-2878.615
 20
1530.243
 30
4827.000
 70
    32
  0
VERTEX
  8
0400LEVEL
 62
7
 10
-2935.742
 20
1635.554
 30
4827.000
 70
    32
  0
VERTEX
  8
0400LEVEL
 62
7
 10
-2985.813
 20
1726.079
 30
4827.000
 70
    32
  0
VERTEX
  8
0400LEVEL
 62
7
 10
-3027.019
 20
1836.238
 30
4827.000
 70
    32
  0
VERTEX
  8
0400LEVEL
 62
7
 10
-3040.693
 20
1903.983
 30
4827.000
 70
    32
  0
VERTEX
  8
0400LEVEL
 62
7
 10
-3002.273
 20
1832.293
 30
4827.000
 70
    32
  0
VERTEX
  8
0400LEVEL
 62
7
 10
-2941.045
 20
1706.659
 30
4827.000
 70
    32
  0
VERTEX
  8
0400LEVEL
 62
7
 10
-2872.369
 20
1589.325
 30
4827.000
 70
    32
  0
VERTEX
  8
0400LEVEL
 62
7
 10
-2802.781
 20
1477.372
 30
4827.000
 70
    32
  0
VERTEX
  8
0400LEVEL
 62
7
 10
-2740.954
 20
1404.228
 30
4827.000
 70
    32
  0
VERTEX
  8
0400LEVEL
 62
7
 10
-2665.129
 20
1305.309
 30
4827.000
 70
    32
  0
VERTEX
  8
0400LEVEL
 62
7
 10
-2628.365
 20
1253.527
 30
4827.000
 70
    32
  0
VERTEX
  8
0400LEVEL
 62
7
 10
-2607.612
 20
1219.939
 30
4827.000
 70
    32
  0
VERTEX
  8
0400LEVEL
 62
7
 10
-2530.513
 20
1086.663
 30
4827.000
 70
    32
  0
VERTEX
  8
0400LEVEL
 62
7
 10
-2509.208
 20
1056.361
 30
4827.000
 70
    32
  0
VERTEX
  8
0400LEVEL
 62
7
 10
-2477.136
 20
1029.446
 30
4827.000
 70
    32
  0
VERTEX
  8
0400LEVEL
 62
7
 10
-2355.249
 20
942.277
 30
4827.000
 70
    32
  0
VERTEX
  8
0400LEVEL
 62
7
 10
-2265.155
 20
837.966
 30
4827.000
 70
    32
  0
VERTEX
  8
0400LEVEL
 62
7
 10
-1952.108
 20
347.278
 30
4827.000
 70
    32
  0
VERTEX
  8
0400LEVEL
 62
7
 10
-1769.094
 20
11.422
 30
4827.000
 70
    32
  0
VERTEX
  8
0400LEVEL
 62
7
 10
-1665.136
 20
-150.284
 30
4827.000
 70
    32
  0
VERTEX
  8
0400LEVEL
 62
7
 10
-1550.863
 20
-304.067
 30
4827.000
 70
    32
  0
VERTEX
  8
0400LEVEL
 62
7
 10
-1407.796
 20
-541.841
 30
4827.000
 70
    32
  0
VERTEX
  8
0400LEVEL
 62
7
 10
-1251.936
 20
-773.037
 30
4827.000
 70
    32
  0
VERTEX
  8
0400LEVEL
 62
7
 10
-1032.990
 20
-1089.210
 30
4827.000
 70
    32
  0
VERTEX
  8
0400LEVEL
 62
7
 10
-881.542
 20
-1279.237
 30
4827.000
 70
    32
  0
VERTEX
  8
0400LEVEL
 62
7
 10
-672.157
 20
-1605.764
 30
4827.000
 70
    32
  0
VERTEX
  8
0400LEVEL
 62
7
 10
-460.760
 20
-1865.451
 30
4827.000
 70
    32
  0
VERTEX
  8
0400LEVEL
 62
7
 10
-403.188
 20
-1906.838
 30
4827.000
 70
    32
  0
VERTEX
  8
0400LEVEL
 62
7
 10
-402.877
 20
-1889.345
 30
4827.000
 70
    32
  0
VERTEX
  8
0400LEVEL
 62
7
 10
-494.096
 20
-1734.350
 30
4827.000
 70
    32
  0
VERTEX
  8
0400LEVEL
 62
7
 10
-634.663
 20
-1546.180
 30
4827.000
 70
    32
  0
VERTEX
  8
0400LEVEL
 62
7
 10
-901.720
 20
-1142.248
 30
4827.000
 70
    32
  0
VERTEX
  8
0400LEVEL
 62
7
 10
-1340.871
 20
-516.225
 30
4827.000
 70
    32
  0
VERTEX
  8
0400LEVEL
 62
7
 10
-1435.446
 20
-351.862
 30
4827.000
 70
    32
  0
VERTEX
  8
0400LEVEL
 62
7
 10
-1551.731
 20
-186.234
 30
4827.000
 70
    32
  0
VERTEX
  8
0400LEVEL
 62
7
 10
-1712.693
 20
70.028
 30
4827.000
 70
    32
  0
VERTEX
  8
0400LEVEL
 62
7
 10
-1878.681
 20
379.333
 30
4827.000
 70
    32
  0
VERTEX
  8
0400LEVEL
 62
7
 10
-2180.985
 20
874.456
 30
4827.000
 70
    32
  0
VERTEX
  8
0400LEVEL
 62
7
 10
-2353.701
 20
1108.774
 30
4827.000
 70
    32
  0
VERTEX
  8
0400LEVEL
 62
7
 10
-2387.683
 20
1174.465
 30
4827.000
 70
    32
  0
VERTEX
  8
0400LEVEL
 62
7
 10
-2446.139
 20
1334.384
 30
4827.000
 70
    32
  0
VERTEX
  8
0400LEVEL
 62
7
 10
-2473.954
 20
1365.739
 30
4827.000
 70
    32
  0
VERTEX
  8
0400LEVEL
 62
7
 10
-2508.578
 20
1424.203
 30
4827.000
 70
    32
  0
VERTEX
  8
0400LEVEL
 62
7
 10
-2548.794
 20
1480.847
 30
4827.000
 70
    32
  0
VERTEX
  8
0400LEVEL
 62
7
 10
-2600.852
 20
1575.987
 30
4827.000
 70
    32
  0
VERTEX
  8
0400LEVEL
 62
7
 10
-2650.952
 20
1670.796
 30
4827.000
 70
    32
  0
VERTEX
  8
0400LEVEL
 62
7
 10
-2708.797
 20
1767.420
 30
4827.000
 70
    32
  0
VERTEX
  8
0400LEVEL
 62
7
 10
-2751.365
 20
1857.680
 30
4827.000
 70
    32
  0
VERTEX
  8
0400LEVEL
 62
7
 10
-2751.948
 20
1867.593
 30
4827.000
 70
    32
  0
VERTEX
  8
0400LEVEL
 62
7
 10
-2774.648
 20
1974.110
 30
4827.000
 70
    32
  0
VERTEX
  8
0400LEVEL
 62
7
 10
-2798.580
 20
2062.970
 30
4827.000
 70
    32
  0
VERTEX
  8
0400LEVEL
 62
7
 10
-2812.649
 20
2120.968
 30
4827.000
 70
    32
  0
VERTEX
  8
0400LEVEL
 62
7
 10
-2778.921
 20
2063.159
 30
4827.000
 70
    32
  0
VERTEX
  8
0400LEVEL
 62
7
 10
-2731.787
 20
1986.468
 30
4827.000
 70
    32
  0
VERTEX
  8
0400LEVEL
 62
7
 10
-2647.333
 20
1895.396
 30
4827.000
 70
    32
  0
VERTEX
  8
0400LEVEL
 62
7
 10
-2566.313
 20
1801.886
 30
4827.000
 70
    32
  0
VERTEX
  8
0400LEVEL
 62
7
 10
-2487.977
 20
1697.005
 30
4827.000
 70
    32
  0
VERTEX
  8
0400LEVEL
 62
7
 10
-2432.912
 20
1612.175
 30
4827.000
 70
    32
  0
VERTEX
  8
0400LEVEL
 62
7
 10
-2371.949
 20
1522.067
 30
4827.000
 70
    32
  0
VERTEX
  8
0400LEVEL
 62
7
 10
-2338.064
 20
1462.218
 30
4827.000
 70
    32
  0
VERTEX
  8
0400LEVEL
 62
7
 10
-2320.552
 20
1427.048
 30
4827.000
 70
    32
  0
VERTEX
  8
0400LEVEL
 62
7
 10
-2099.828
 20
1015.094
 30
4827.000
 70
    32
  0
VERTEX
  8
0400LEVEL
 62
7
 10
-2044.291
 20
955.128
 30
4827.000
 70
    32
  0
VERTEX
  8
0400LEVEL
 62
7
 10
-2077.837
 20
1095.666
 30
4827.000
 70
    32
  0
VERTEX
  8
0400LEVEL
 62
7
 10
-2077.937
 20
1163.158
 30
4827.000
 70
    32
  0
VERTEX
  8
0400LEVEL
 62
7
 10
-2102.806
 20
1338.161
 30
4827.000
 70
    32
  0
VERTEX
  8
0400LEVEL
 62
7
 10
-2128.678
 20
1432.358
 30
4827.000
 70
    32
  0
VERTEX
  8
0400LEVEL
 62
7
 10
-2160.795
 20
1540.056
 30
4827.000
 70
    32
  0
VERTEX
  8
0400LEVEL
 62
7
 10
-2170.933
 20
1572.272
 30
4827.000
 70
    32
  0
VERTEX
  8
0400LEVEL
 62
7
 10
-2206.781
 20
1659.127
 30
4827.000
 70
    32
  0
VERTEX
  8
0400LEVEL
 62
7
 10
-2265.604
 20
1755.918
 30
4827.000
 70
    32
  0
VERTEX
  8
0400LEVEL
 62
7
 10
-2327.085
 20
1850.391
 30
4827.000
 70
    32
  0
VERTEX
  8
0400LEVEL
 62
7
 10
-2400.842
 20
1945.186
 30
4827.000
 70
    32
  0
VERTEX
  8
0400LEVEL
 62
7
 10
-2480.915
 20
2056.149
 30
4827.000
 70
    32
  0
VERTEX
  8
0400LEVEL
 62
7
 10
-2572.703
 20
2178.158
 30
4827.000
 70
    32
  0
VERTEX
  8
0400LEVEL
 62
7
 10
-2629.707
 20
2269.356
 30
4827.000
 70
    32
  0
VERTEX
  8
0400LEVEL
 62
7
 10
-2683.723
 20
2378.165
 30
4827.000
 70
    32
  0
VERTEX
  8
0400LEVEL
 62
7
 10
-2737.763
 20
2507.613
 30
4827.000
 70
    32
  0
VERTEX
  8
0400LEVEL
 62
7
 10
-2791.808
 20
2620.704
 30
4827.000
 70
    32
  0
VERTEX
  8
0400LEVEL
 62
7
 10
-2848.814
 20
2725.239
 30
4827.000
 70
    32
  0
VERTEX
  8
0400LEVEL
 62
7
 10
-2894.985
 20
2782.390
 30
4827.000
 70
    32
  0
VERTEX
  8
0400LEVEL
 62
7
 10
-2928.310
 20
2852.964
 30
4827.000
 70
    32
  0
VERTEX
  8
0400LEVEL
 62
7
 10
-2995.386
 20
2958.956
 30
4827.000
 70
    32
  0
VERTEX
  8
0400LEVEL
 62
7
 10
-3068.570
 20
3097.186
 30
4827.000
 70
    32
  0
VERTEX
  8
0400LEVEL
 62
7
 10
-3149.358
 20
3229.156
 30
4827.000
 70
    32
  0
VERTEX
  8
0400LEVEL
 62
7
 10
-3192.126
 20
3349.394
 30
4827.000
 70
    32
  0
VERTEX
  8
0400LEVEL
 62
7
 10
-3206.120
 20
3404.863
 30
4827.000
 70
    32
  0
VERTEX
  8
0400LEVEL
 62
7
 10
-3167.740
 20
3347.775
 30
4827.000
 70
    32
  0
VERTEX
  8
0400LEVEL
 62
7
 10
-3099.748
 20
3233.827
 30
4827.000
 70
    32
  0
VERTEX
  8
0400LEVEL
 62
7
 10
-3033.891
 20
3129.553
 30
4827.000
 70
    32
  0
VERTEX
  8
0400LEVEL
 62
7
 10
-2939.639
 20
3013.165
 30
4827.000
 70
    32
  0
VERTEX
  8
0400LEVEL
 62
7
 10
-2834.357
 20
2889.118
 30
4827.000
 70
    32
  0
VERTEX
  8
0400LEVEL
 62
7
 10
-2740.220
 20
2789.861
 30
4827.000
 70
    32
  0
VERTEX
  8
0400LEVEL
 62
7
 10
-2666.397
 20
2689.520
 30
4827.000
 70
    32
  0
VERTEX
  8
0400LEVEL
 62
7
 10
-2616.744
 20
2566.856
 30
4827.000
 70
    32
  0
VERTEX
  8
0400LEVEL
 62
7
 10
-2551.985
 20
2420.493
 30
4827.000
 70
    32
  0
VERTEX
  8
0400LEVEL
 62
7
 10
-2486.379
 20
2285.058
 30
4827.000
 70
    32
  0
VERTEX
  8
0400LEVEL
 62
7
 10
-2441.886
 20
2212.086
 30
4827.000
 70
    32
  0
VERTEX
  8
0400LEVEL
 62
7
 10
-2375.771
 20
2069.268
 30
4827.000
 70
    32
  0
VERTEX
  8
0400LEVEL
 62
7
 10
-2313.813
 20
1942.000
 30
4827.000
 70
    32
  0
VERTEX
  8
0400LEVEL
 62
7
 10
-2267.861
 20
1822.732
 30
4827.000
 70
    32
  0
VERTEX
  8
0400LEVEL
 62
7
 10
-2221.991
 20
1746.005
 30
4827.000
 70
    32
  0
VERTEX
  8
0400LEVEL
 62
7
 10
-2160.376
 20
1670.129
 30
4827.000
 70
    32
  0
VERTEX
  8
0400LEVEL
 62
7
 10
-2108.292
 20
1627.073
 30
4827.000
 70
    32
  0
VERTEX
  8
0400LEVEL
 62
7
 10
-2137.254
 20
1711.502
 30
4827.000
 70
    32
  0
VERTEX
  8
0400LEVEL
 62
7
 10
-2192.384
 20
1801.879
 30
4827.000
 70
    32
  0
VERTEX
  8
0400LEVEL
 62
7
 10
-2258.668
 20
1914.027
 30
4827.000
 70
    32
  0
VERTEX
  8
0400LEVEL
 62
7
 10
-2319.504
 20
2062.744
 30
4827.000
 70
    32
  0
VERTEX
  8
0400LEVEL
 62
7
 10
-2381.125
 20
2208.324
 30
4827.000
 70
    32
  0
VERTEX
  8
0400LEVEL
 62
7
 10
-2446.427
 20
2349.998
 30
4827.000
 70
    32
  0
VERTEX
  8
0400LEVEL
 62
7
 10
-2510.991
 20
2493.057
 30
4827.000
 70
    32
  0
VERTEX
  8
0400LEVEL
 62
7
 10
-2578.039
 20
2637.795
 30
4827.000
 70
    32
  0
VERTEX
  8
0400LEVEL
 62
7
 10
-2630.986
 20
2749.946
 30
4827.000
 70
    32
  0
VERTEX
  8
0400LEVEL
 62
7
 10
-2697.195
 20
2859.565
 30
4827.000
 70
    32
  0
VERTEX
  8
0400LEVEL
 62
7
 10
-2769.141
 20
2945.748
 30
4827.000
 70
    32
  0
VERTEX
  8
0400LEVEL
 62
7
 10
-2861.264
 20
3036.108
 30
4827.000
 70
    32
  0
VERTEX
  8
0400LEVEL
 62
7
 10
-2947.691
 20
3121.476
 30
4827.000
 70
    32
  0
VERTEX
  8
0400LEVEL
 62
7
 10
-3030.763
 20
3225.147
 30
4827.000
 70
    32
  0
VERTEX
  8
0400LEVEL
 62
7
 10
-3084.482
 20
3323.840
 30
4827.000
 70
    32
  0
VERTEX
  8
0400LEVEL
 62
7
 10
-3123.689
 20
3405.729
 30
4827.000
 70
    32
  0
VERTEX
  8
0400LEVEL
 62
7
 10
-3136.299
 20
3460.459
 30
4827.000
 70
    32
  0
VERTEX
  8
0400LEVEL
 62
7
 10
-3079.832
 20
3423.957
 30
4827.000
 70
    32
  0
VERTEX
  8
0400LEVEL
 62
7
 10
-3035.103
 20
3419.139
 30
4827.000
 70
    32
  0
VERTEX
  8
0400LEVEL
 62
7
 10
-2973.599
 20
3390.087
 30
4827.000
 70
    32
  0
VERTEX
  8
0400LEVEL
 62
7
 10
-2919.882
 20
3347.760
 30
4827.000
 70
    32
  0
VERTEX
  8
0400LEVEL
 62
7
 10
-2923.257
 20
3379.787
 30
4827.000
 70
    32
  0
VERTEX
  8
0400LEVEL
 62
7
 10
-2938.645
 20
3432.976
 30
4827.000
 70
    32
  0
VERTEX
  8
0400LEVEL
 62
7
 10
-2957.234
 20
3479.158
 30
4827.000
 70
    32
  0
VERTEX
  8
0400LEVEL
 62
7
 10
-2880.441
 20
3433.422
 30
4827.000
 70
    32
  0
VERTEX
  8
0400LEVEL
 62
7
 10
-2813.805
 20
3358.959
 30
4827.000
 70
    32
  0
VERTEX
  8
0400LEVEL
 62
7
 10
-2734.962
 20
3260.031
 30
4827.000
 70
    32
  0
VERTEX
  8
0400LEVEL
 62
7
 10
-2653.046
 20
3165.866
 30
4827.000
 70
    32
  0
VERTEX
  8
0400LEVEL
 62
7
 10
-2575.869
 20
3040.799
 30
4827.000
 70
    32
  0
VERTEX
  8
0400LEVEL
 62
7
 10
-2522.770
 20
2953.283
 30
4827.000
 70
    32
  0
VERTEX
  8
0400LEVEL
 62
7
 10
-2470.489
 20
2893.586
 30
4827.000
 70
    32
  0
VERTEX
  8
0400LEVEL
 62
7
 10
-2447.451
 20
2848.410
 30
4827.000
 70
    32
  0
VERTEX
  8
0400LEVEL
 62
7
 10
-2402.268
 20
2788.407
 30
4827.000
 70
    32
  0
VERTEX
  8
0400LEVEL
 62
7
 10
-2317.386
 20
2676.124
 30
4827.000
 70
    32
  0
VERTEX
  8
0400LEVEL
 62
7
 10
-2246.027
 20
2570.162
 30
4827.000
 70
    32
  0
VERTEX
  8
0400LEVEL
 62
7
 10
-2182.306
 20
2488.896
 30
4827.000
 70
    32
  0
VERTEX
  8
0400LEVEL
 62
7
 10
-2131.931
 20
2404.610
 30
4827.000
 70
    32
  0
VERTEX
  8
0400LEVEL
 62
7
 10
-2090.301
 20
2342.945
 30
4827.000
 70
    32
  0
VERTEX
  8
0400LEVEL
 62
7
 10
-2050.656
 20
2285.894
 30
4827.000
 70
    32
  0
VERTEX
  8
0400LEVEL
 62
7
 10
-2080.220
 20
2288.140
 30
4827.000
 70
    32
  0
VERTEX
  8
0400LEVEL
 62
7
 10
-2076.621
 20
2248.526
 30
4827.000
 70
    32
  0
VERTEX
  8
0400LEVEL
 62
7
 10
-2051.773
 20
2194.740
 30
4827.000
 70
    32
  0
VERTEX
  8
0400LEVEL
 62
7
 10
-2057.778
 20
2177.137
 30
4827.000
 70
    32
  0
VERTEX
  8
0400LEVEL
 62
7
 10
-2091.441
 20
2186.369
 30
4827.000
 70
    32
  0
VERTEX
  8
0400LEVEL
 62
7
 10
-2060.854
 20
2099.652
 30
4827.000
 70
    32
  0
VERTEX
  8
0400LEVEL
 62
7
 10
-2024.334
 20
2019.728
 30
4827.000
 70
    32
  0
VERTEX
  8
0400LEVEL
 62
7
 10
-2002.421
 20
1966.440
 30
4827.000
 70
    32
  0
VERTEX
  8
0400LEVEL
 62
7
 10
-2040.544
 20
1984.984
 30
4827.000
 70
    32
  0
VERTEX
  8
0400LEVEL
 62
7
 10
-2090.345
 20
2013.310
 30
4827.000
 70
    32
  0
VERTEX
  8
0400LEVEL
 62
7
 10
-2116.092
 20
1995.029
 30
4827.000
 70
    32
  0
VERTEX
  8
0400LEVEL
 62
7
 10
-2156.718
 20
2022.554
 30
4827.000
 70
    32
  0
VERTEX
  8
0400LEVEL
 62
7
 10
-2177.196
 20
2007.154
 30
4827.000
 70
    32
  0
VERTEX
  8
0400LEVEL
 62
7
 10
-2223.693
 20
2035.674
 30
4827.000
 70
    32
  0
VERTEX
  8
0400LEVEL
 62
7
 10
-2259.298
 20
2064.612
 30
4827.000
 70
    32
  0
VERTEX
  8
0400LEVEL
 62
7
 10
-2266.585
 20
2040.936
 30
4827.000
 70
    32
  0
VERTEX
  8
0400LEVEL
 62
7
 10
-2221.299
 20
1974.121
 30
4827.000
 70
    32
  0
VERTEX
  8
0400LEVEL
 62
7
 10
-2169.825
 20
1888.893
 30
4827.000
 70
    32
  0
VERTEX
  8
0400LEVEL
 62
7
 10
-2112.796
 20
1806.750
 30
4827.000
 70
    32
  0
VERTEX
  8
0400LEVEL
 62
7
 10
-2065.836
 20
1726.063
 30
4827.000
 70
    32
  0
VERTEX
  8
0400LEVEL
 62
7
 10
-2042.244
 20
1675.257
 30
4827.000
 70
    32
  0
VERTEX
  8
0400LEVEL
 62
7
 10
-2016.598
 20
1597.813
 30
4827.000
 70
    32
  0
VERTEX
  8
0400LEVEL
 62
7
 10
-1823.045
 20
1212.532
 30
4827.000
 70
    32
  0
VERTEX
  8
0400LEVEL
 62
7
 10
-1720.699
 20
1081.657
 30
4827.000
 70
    32
  0
VERTEX
  8
0400LEVEL
 62
7
 10
-1325.985
 20
460.928
 30
4827.000
 70
    32
  0
VERTEX
  8
0400LEVEL
 62
7
 10
-1277.867
 20
364.424
 30
4827.000
 70
    32
  0
VERTEX
  8
0400LEVEL
 62
7
 10
-1225.460
 20
233.143
 30
4827.000
 70
    32
  0
VERTEX
  8
0400LEVEL
 62
7
 10
-1104.646
 20
5.933
 30
4827.000
 70
    32
  0
VERTEX
  8
0400LEVEL
 62
7
 10
-995.522
 20
-230.424
 30
4827.000
 70
    32
  0
VERTEX
  8
0400LEVEL
 62
7
 10
-942.150
 20
-377.063
 30
4827.000
 70
    32
  0
VERTEX
  8
0400LEVEL
 62
7
 10
-916.717
 20
-424.878
 30
4827.000
 70
    32
  0
VERTEX
  8
0400LEVEL
 62
7
 10
-900.263
 20
-435.760
 30
4827.000
 70
    32
  0
VERTEX
  8
0400LEVEL
 62
7
 10
-897.779
 20
-425.090
 30
4827.000
 70
    32
  0
VERTEX
  8
0400LEVEL
 62
7
 10
-910.153
 20
-350.871
 30
4827.000
 70
    32
  0
VERTEX
  8
0400LEVEL
 62
7
 10
-908.676
 20
-329.751
 30
4827.000
 70
    32
  0
VERTEX
  8
0400LEVEL
 62
7
 10
-899.621
 20
-334.439
 30
4827.000
 70
    32
  0
VERTEX
  8
0400LEVEL
 62
7
 10
-731.040
 20
-646.962
 30
4827.000
 70
    32
  0
VERTEX
  8
0400LEVEL
 62
7
 10
-510.580
 20
-1015.451
 30
4827.000
 70
    32
  0
VERTEX
  8
0400LEVEL
 62
7
 10
-473.759
 20
-1060.448
 30
4827.000
 70
    32
  0
VERTEX
  8
0400LEVEL
 62
7
 10
-467.544
 20
-1053.399
 30
4827.000
 70
    32
  0
VERTEX
  8
0400LEVEL
 62
7
 10
-494.833
 20
-937.012
 30
4827.000
 70
    32
  0
VERTEX
  8
0400LEVEL
 62
7
 10
-448.820
 20
-1000.005
 30
4827.000
 70
    32
  0
VERTEX
  8
0400LEVEL
 62
7
 10
-315.936
 20
-1240.826
 30
4827.000
 70
    32
  0
VERTEX
  8
0400LEVEL
 62
7
 10
-22.809
 20
-1717.244
 30
4827.000
 70
    32
  0
VERTEX
  8
0400LEVEL
 62
7
 10
277.466
 20
-2301.853
 30
4827.000
 70
    32
  0
VERTEX
  8
0400LEVEL
 62
7
 10
374.264
 20
-2475.902
 30
4827.000
 70
    32
  0
VERTEX
  8
0400LEVEL
 62
7
 10
462.667
 20
-2600.014
 30
4827.000
 70
    32
  0
VERTEX
  8
0400LEVEL
 62
7
 10
471.853
 20
-2601.189
 30
4827.000
 70
    32
  0
VERTEX
  8
0400LEVEL
 62
7
 10
471.759
 20
-2582.972
 30
4827.000
 70
    32
  0
VERTEX
  8
0400LEVEL
 62
7
 10
454.215
 20
-2510.129
 30
4827.000
 70
    32
  0
VERTEX
  8
0400LEVEL
 62
7
 10
369.326
 20
-2324.817
 30
4827.000
 70
    32
  0
VERTEX
  8
0400LEVEL
 62
7
 10
418.604
 20
-2367.280
 30
4827.000
 70
    32
  0
VERTEX
  8
0400LEVEL
 62
7
 10
536.379
 20
-2507.068
 30
4827.000
 70
    32
  0
VERTEX
  8
0400LEVEL
 62
7
 10
654.439
 20
-2651.395
 30
4827.000
 70
    32
  0
VERTEX
  8
0400LEVEL
 62
7
 10
757.163
 20
-2802.643
 30
4827.000
 70
    32
  0
VERTEX
  8
0400LEVEL
 62
7
 10
819.206
 20
-2914.394
 30
4827.000
 70
    32
  0
VERTEX
  8
0400LEVEL
 62
7
 10
838.992
 20
-2972.727
 30
4827.000
 70
    32
  0
VERTEX
  8
0400LEVEL
 62
7
 10
890.751
 20
-3060.242
 30
4827.000
 70
    32
  0
VERTEX
  8
0400LEVEL
 62
7
 10
1078.813
 20
-3303.553
 30
4827.000
 70
    32
  0
VERTEX
  8
0400LEVEL
 62
7
 10
1170.962
 20
-3447.494
 30
4827.000
 70
    32
  0
VERTEX
  8
0400LEVEL
 62
7
 10
1277.059
 20
-3477.500
 30
4827.000
 70
    32
  0
VERTEX
  8
0400LEVEL
 62
7
 10
1316.774
 20
-3487.656
 30
4827.000
 70
    32
  0
VERTEX
  8
0400LEVEL
 62
7
 10
1322.028
 20
-3476.462
 30
4827.000
 70
    32
  0
VERTEX
  8
0400LEVEL
 62
7
 10
1309.770
 20
-3420.809
 30
4827.000
 70
    32
  0
VERTEX
  8
0400LEVEL
 62
7
 10
1322.093
 20
-3410.573
 30
4827.000
 70
    32
  0
VERTEX
  8
0400LEVEL
 62
7
 10
1340.092
 20
-3416.984
 30
4827.000
 70
    32
  0
VERTEX
  8
0400LEVEL
 62
7
 10
1401.574
 20
-3443.359
 30
1000.000
 70
    32
  0
VERTEX
  8
0400LEVEL
 62
7
 10
1445.920
 20
-3484.291
 30
1000.000
 70
    32
  0
VERTEX
  8
0400LEVEL
 62
7
 10
1476.621
 20
-3514.990
 30
1000.000
 70
    32
  0
VERTEX
  8
0400LEVEL
 62
7
 10
1503.911
 20
-3520.106
 30
1000.000
 70
    32
  0
VERTEX
  8
0400LEVEL
 62
7
 10
1519.262
 20
-3511.579
 30
1000.000
 70
    32
  0
VERTEX
  8
0400LEVEL
 62
7
 10
1527.790
 20
-3480.880
 30
1000.000
 70
    32
  0
VERTEX
  8
0400LEVEL
 62
7
 10
1515.850
 20
-3450.181
 30
1000.000
 70
    32
  0
VERTEX
  8
0400LEVEL
 62
7
 10
1491.972
 20
-3409.249
 30
1000.000
 70
    32
  0
VERTEX
  8
0400LEVEL
 62
7
 10
1466.387
 20
-3352.967
 30
1000.000
 70
    32
  0
VERTEX
  8
0400LEVEL
 62
7
 10
1440.803
 20
-3310.330
 30
1000.000
 70
    32
  0
VERTEX
  8
0400LEVEL
 62
7
 10
1416.925
 20
-3281.336
 30
1000.000
 70
    32
  0
VERTEX
  8
0400LEVEL
 62
7
 10
1396.457
 20
-3259.164
 30
1000.000
 70
    32
  0
VERTEX
  8
0400LEVEL
 62
7
 10
1364.051
 20
-3218.232
 30
1000.000
 70
    32
  0
VERTEX
  8
0400LEVEL
 62
7
 10
1341.877
 20
-3179.006
 30
1000.000
 70
    32
  0
VERTEX
  8
0400LEVEL
 62
7
 10
1319.705
 20
-3160.245
 30
1000.000
 70
    32
  0
VERTEX
  8
0400LEVEL
 62
7
 10
1304.354
 20
-3151.718
 30
1000.000
 70
    32
  0
VERTEX
  8
0400LEVEL
 62
7
 10
1295.826
 20
-3144.896
 30
1000.000
 70
    32
  0
VERTEX
  8
0400LEVEL
 62
7
 10
1212.525
 20
-3074.057
 30
4827.000
 70
    32
  0
VERTEX
  8
0400LEVEL
 62
7
 10
1163.133
 20
-3020.742
 30
4827.000
 70
    32
  0
VERTEX
  8
0400LEVEL
 62
7
 10
895.065
 20
-2736.140
 30
4827.000
 70
    32
  0
VERTEX
  8
0400LEVEL
 62
7
 10
853.182
 20
-2674.302
 30
4827.000
 70
    32
  0
VERTEX
  8
0400LEVEL
 62
7
 10
673.970
 20
-2343.172
 30
4827.000
 70
    32
  0
VERTEX
  8
0400LEVEL
 62
7
 10
567.335
 20
-2174.297
 30
4827.000
 70
    32
  0
SEQEND
  8
0400LEVEL
  0
POLYLINE
  8
0400LEVEL
 62
13
 66
     1
 70
     8
  0
VERTEX
  8
0400LEVEL
 62
13
 10
-3056.119
 20
3643.891
 30
4827.000
 70
    32
  0
VERTEX
  8
0400LEVEL
 62
13
 10
-3036.792
 20
3599.094
 30
4827.000
 70
    32
  0
VERTEX
  8
0400LEVEL
 62
13
 10
-3021.070
 20
3534.525
 30
4827.000
 70
    32
  0
VERTEX
  8
0400LEVEL
 62
13
 10
-2996.264
 20
3465.647
 30
4827.000
 70
    32
  0
VERTEX
  8
0400LEVEL
 62
13
 10
-3019.886
 20
3477.706
 30
4827.000
 70
    32
  0
VERTEX
  8
0400LEVEL
 62
13
 10
-3060.481
 20
3487.610
 30
4827.000
 70
    32
  0
VERTEX
  8
0400LEVEL
 62
13
 10
-3116.358
 20
3530.555
 30
4827.000
 70
    32
  0
VERTEX
  8
0400LEVEL
 62
13
 10
-3162.145
 20
3564.742
 30
4827.000
 70
    32
  0
SEQEND
  8
0400LEVEL
  0
POLYLINE
  8
0400LEVEL
 62
13
 66
     1
 70
     8
  0
VERTEX
  8
0400LEVEL
 62
13
 10
-3008.861
 20
3682.177
 30
4827.000
 70
    32
  0
VERTEX
  8
0400LEVEL
 62
13
 10
-2935.771
 20
3596.807
 30
4827.000
 70
    32
  0
VERTEX
  8
0400LEVEL
 62
13
 10
-2823.662
 20
3492.237
 30
4827.000
 70
    32
  0
VERTEX
  8
0400LEVEL
 62
13
 10
-2726.781
 20
3382.449
 30
4827.000
 70
    32
  0
VERTEX
  8
0400LEVEL
 62
13
 10
-2643.461
 20
3280.245
 30
4827.000
 70
    32
  0
VERTEX
  8
0400LEVEL
 62
13
 10
-2555.292
 20
3162.121
 30
4827.000
 70
    32
  0
VERTEX
  8
0400LEVEL
 62
13
 10
-2505.847
 20
3066.417
 30
4827.000
 70
    32
  0
VERTEX
  8
0400LEVEL
 62
13
 10
-2446.234
 20
2989.120
 30
4827.000
 70
    32
  0
VERTEX
  8
0400LEVEL
 62
13
 10
-2369.470
 20
2904.636
 30
4827.000
 70
    32
  0
VERTEX
  8
0400LEVEL
 62
13
 10
-2317.439
 20
2800.441
 30
4827.000
 70
    32
  0
VERTEX
  8
0400LEVEL
 62
13
 10
-2262.464
 20
2698.767
 30
4827.000
 70
    32
  0
VERTEX
  8
0400LEVEL
 62
13
 10
-2205.451
 20
2610.587
 30
4827.000
 70
    32
  0
VERTEX
  8
0400LEVEL
 62
13
 10
-2136.988
 20
2490.521
 30
4827.000
 70
    32
  0
VERTEX
  8
0400LEVEL
 62
13
 10
-2061.558
 20
2381.855
 30
4827.000
 70
    32
  0
VERTEX
  8
0400LEVEL
 62
13
 10
-2014.309
 20
2288.033
 30
4827.000
 70
    32
  0
VERTEX
  8
0400LEVEL
 62
13
 10
-1980.773
 20
2220.191
 30
4827.000
 70
    32
  0
VERTEX
  8
0400LEVEL
 62
13
 10
-2004.031
 20
2216.587
 30
4827.000
 70
    32
  0
VERTEX
  8
0400LEVEL
 62
13
 10
-2042.801
 20
2237.254
 30
4827.000
 70
    32
  0
VERTEX
  8
0400LEVEL
 62
13
 10
-2028.689
 20
2194.347
 30
4827.000
 70
    32
  0
VERTEX
  8
0400LEVEL
 62
13
 10
-2016.394
 20
2143.696
 30
4827.000
 70
    32
  0
VERTEX
  8
0400LEVEL
 62
13
 10
-2050.935
 20
2159.620
 30
4827.000
 70
    32
  0
VERTEX
  8
0400LEVEL
 62
13
 10
-2047.857
 20
2137.709
 30
4827.000
 70
    32
  0
VERTEX
  8
0400LEVEL
 62
13
 10
-2010.619
 20
2066.471
 30
4827.000
 70
    32
  0
VERTEX
  8
0400LEVEL
 62
13
 10
-1966.600
 20
1969.927
 30
4827.000
 70
    32
  0
VERTEX
  8
0400LEVEL
 62
13
 10
-1928.575
 20
1888.490
 30
4827.000
 70
    32
  0
VERTEX
  8
0400LEVEL
 62
13
 10
-1940.885
 20
1876.738
 30
4827.000
 70
    32
  0
VERTEX
  8
0400LEVEL
 62
13
 10
-2004.406
 20
1928.025
 30
4827.000
 70
    32
  0
VERTEX
  8
0400LEVEL
 62
13
 10
-2051.595
 20
1956.914
 30
4827.000
 70
    32
  0
VERTEX
  8
0400LEVEL
 62
13
 10
-2064.615
 20
1939.494
 30
4827.000
 70
    32
  0
VERTEX
  8
0400LEVEL
 62
13
 10
-2100.876
 20
1967.537
 30
4827.000
 70
    32
  0
VERTEX
  8
0400LEVEL
 62
13
 10
-2123.940
 20
1960.628
 30
4827.000
 70
    32
  0
VERTEX
  8
0400LEVEL
 62
13
 10
-2150.311
 20
1966.862
 30
4827.000
 70
    32
  0
VERTEX
  8
0400LEVEL
 62
13
 10
-2196.882
 20
1997.911
 30
4827.000
 70
    32
  0
VERTEX
  8
0400LEVEL
 62
13
 10
-2156.359
 20
1934.169
 30
4827.000
 70
    32
  0
VERTEX
  8
0400LEVEL
 62
13
 10
-2099.899
 20
1838.282
 30
4827.000
 70
    32
  0
VERTEX
  8
0400LEVEL
 62
13
 10
-2056.252
 20
1754.382
 30
4827.000
 70
    32
  0
VERTEX
  8
0400LEVEL
 62
13
 10
-2024.229
 20
1685.035
 30
4827.000
 70
    32
  0
VERTEX
  8
0400LEVEL
 62
13
 10
-2004.763
 20
1640.049
 30
4827.000
 70
    32
  0
VERTEX
  8
0400LEVEL
 62
13
 10
-1971.782
 20
1552.656
 30
4827.000
 70
    32
  0
VERTEX
  8
0400LEVEL
 62
13
 10
-1827.631
 20
1288.713
 30
4827.000
 70
    32
  0
VERTEX
  8
0400LEVEL
 62
13
 10
-1681.097
 20
1070.478
 30
4827.000
 70
    32
  0
VERTEX
  8
0400LEVEL
 62
13
 10
-1353.961
 20
543.629
 30
4827.000
 70
    32
  0
VERTEX
  8
0400LEVEL
 62
13
 10
-1292.103
 20
462.707
 30
4827.000
 70
    32
  0
VERTEX
  8
0400LEVEL
 62
13
 10
-1141.320
 20
132.244
 30
4827.000
 70
    32
  0
VERTEX
  8
0400LEVEL
 62
13
 10
-1110.170
 20
82.685
 30
4827.000
 70
    32
  0
VERTEX
  8
0400LEVEL
 62
13
 10
-971.781
 20
-240.146
 30
4827.000
 70
    32
  0
VERTEX
  8
0400LEVEL
 62
13
 10
-930.347
 20
-313.941
 30
4827.000
 70
    32
  0
VERTEX
  8
0400LEVEL
 62
13
 10
-924.738
 20
-252.610
 30
4827.000
 70
    32
  0
VERTEX
  8
0400LEVEL
 62
13
 10
-898.835
 20
-268.855
 30
4827.000
 70
    32
  0
VERTEX
  8
0400LEVEL
 62
13
 10
-880.193
 20
-297.823
 30
4827.000
 70
    32
  0
VERTEX
  8
0400LEVEL
 62
13
 10
-707.234
 20
-657.732
 30
4827.000
 70
    32
  0
VERTEX
  8
0400LEVEL
 62
13
 10
-574.442
 20
-880.335
 30
4827.000
 70
    32
  0
VERTEX
  8
0400LEVEL
 62
13
 10
-539.953
 20
-932.838
 30
4827.000
 70
    32
  0
VERTEX
  8
0400LEVEL
 62
13
 10
-525.352
 20
-947.691
 30
4827.000
 70
    32
  0
VERTEX
  8
0400LEVEL
 62
13
 10
-524.438
 20
-939.924
 30
4827.000
 70
    32
  0
VERTEX
  8
0400LEVEL
 62
13
 10
-608.509
 20
-723.020
 30
4827.000
 70
    32
  0
VERTEX
  8
0400LEVEL
 62
13
 10
-623.867
 20
-662.656
 30
4827.000
 70
    32
  0
VERTEX
  8
0400LEVEL
 62
13
 10
-783.317
 20
-316.968
 30
4827.000
 70
    32
  0
VERTEX
  8
0400LEVEL
 62
13
 10
-752.176
 20
-338.491
 30
4827.000
 70
    32
  0
VERTEX
  8
0400LEVEL
 62
13
 10
-705.988
 20
-404.277
 30
4827.000
 70
    32
  0
VERTEX
  8
0400LEVEL
 62
13
 10
-671.952
 20
-471.878
 30
4827.000
 70
    32
  0
VERTEX
  8
0400LEVEL
 62
13
 10
-567.048
 20
-747.049
 30
4827.000
 70
    32
  0
VERTEX
  8
0400LEVEL
 62
13
 10
-490.719
 20
-907.666
 30
4827.000
 70
    32
  0
VERTEX
  8
0400LEVEL
 62
13
 10
-399.432
 20
-1044.213
 30
4827.000
 70
    32
  0
VERTEX
  8
0400LEVEL
 62
13
 10
-378.188
 20
-1092.292
 30
4827.000
 70
    32
  0
VERTEX
  8
0400LEVEL
 62
13
 10
-41.119
 20
-1637.791
 30
4827.000
 70
    32
  0
VERTEX
  8
0400LEVEL
 62
13
 10
126.385
 20
-1927.602
 30
4827.000
 70
    32
  0
VERTEX
  8
0400LEVEL
 62
13
 10
263.570
 20
-2242.448
 30
4827.000
 70
    32
  0
VERTEX
  8
0400LEVEL
 62
13
 10
342.907
 20
-2395.166
 30
4827.000
 70
    32
  0
VERTEX
  8
0400LEVEL
 62
13
 10
382.256
 20
-2430.192
 30
4827.000
 70
    32
  0
VERTEX
  8
0400LEVEL
 62
13
 10
382.950
 20
-2418.934
 30
4827.000
 70
    32
  0
VERTEX
  8
0400LEVEL
 62
13
 10
353.665
 20
-2337.717
 30
4827.000
 70
    32
  0
VERTEX
  8
0400LEVEL
 62
13
 10
302.621
 20
-2233.686
 30
4827.000
 70
    32
  0
VERTEX
  8
0400LEVEL
 62
13
 10
351.766
 20
-2268.447
 30
4827.000
 70
    32
  0
VERTEX
  8
0400LEVEL
 62
13
 10
457.507
 20
-2372.895
 30
4827.000
 70
    32
  0
VERTEX
  8
0400LEVEL
 62
13
 10
772.416
 20
-2744.211
 30
4827.000
 70
    32
  0
VERTEX
  8
0400LEVEL
 62
13
 10
845.867
 20
-2847.885
 30
4827.000
 70
    32
  0
VERTEX
  8
0400LEVEL
 62
13
 10
1051.930
 20
-3227.091
 30
4827.000
 70
    32
  0
VERTEX
  8
0400LEVEL
 62
13
 10
1115.715
 20
-3327.518
 30
4827.000
 70
    32
  0
VERTEX
  8
0400LEVEL
 62
13
 10
1132.335
 20
-3338.720
 30
4827.000
 70
    32
  0
VERTEX
  8
0400LEVEL
 62
13
 10
1234.720
 20
-3358.213
 30
4827.000
 70
    32
  0
VERTEX
  8
0400LEVEL
 62
13
 10
1260.597
 20
-3368.878
 30
4827.000
 70
    32
  0
VERTEX
  8
0400LEVEL
 62
13
 10
1249.212
 20
-3315.975
 30
4827.000
 70
    32
  0
VERTEX
  8
0400LEVEL
 62
13
 10
1255.604
 20
-3311.718
 30
4827.000
 70
    32
  0
VERTEX
  8
0400LEVEL
 62
13
 10
1278.339
 20
-3316.598
 30
4827.000
 70
    32
  0
VERTEX
  8
0400LEVEL
 62
13
 10
1310.870
 20
-3340.634
 30
4827.000
 70
    32
  0
VERTEX
  8
0400LEVEL
 62
13
 10
1372.579
 20
-3370.022
 30
1000.000
 70
    32
  0
VERTEX
  8
0400LEVEL
 62
13
 10
1420.336
 20
-3412.660
 30
1000.000
 70
    32
  0
VERTEX
  8
0400LEVEL
 62
13
 10
1444.215
 20
-3441.653
 30
1000.000
 70
    32
  0
VERTEX
  8
0400LEVEL
 62
13
 10
1473.210
 20
-3450.181
 30
1000.000
 70
    32
  0
VERTEX
  8
0400LEVEL
 62
13
 10
1461.271
 20
-3424.598
 30
1000.000
 70
    32
  0
VERTEX
  8
0400LEVEL
 62
13
 10
1428.864
 20
-3361.495
 30
1000.000
 70
    32
  0
VERTEX
  8
0400LEVEL
 62
13
 10
1401.574
 20
-3305.213
 30
1000.000
 70
    32
  0
VERTEX
  8
0400LEVEL
 62
13
 10
1372.579
 20
-3264.281
 30
1000.000
 70
    32
  0
VERTEX
  8
0400LEVEL
 62
13
 10
1352.111
 20
-3233.582
 30
1000.000
 70
    32
  0
VERTEX
  8
0400LEVEL
 62
13
 10
1312.882
 20
-3196.061
 30
1000.000
 70
    32
  0
VERTEX
  8
0400LEVEL
 62
13
 10
1226.909
 20
-3131.763
 30
4827.000
 70
    32
  0
VERTEX
  8
0400LEVEL
 62
13
 10
1184.772
 20
-3082.418
 30
4827.000
 70
    32
  0
VERTEX
  8
0400LEVEL
 62
13
 10
887.533
 20
-2769.218
 30
4827.000
 70
    32
  0
VERTEX
  8
0400LEVEL
 62
13
 10
855.793
 20
-2715.842
 30
4827.000
 70
    32
  0
VERTEX
  8
0400LEVEL
 62
13
 10
567.335
 20
-2174.297
 30
4827.000
 70
    32
  0
SEQEND
  8
0400LEVEL
  0
POLYLINE
  8
0400LEVEL
 62
13
 66
     1
 70
     8
  0
VERTEX
  8
0400LEVEL
 62
13
 10
-3368.298
 20
901.166
 30
4827.000
 70
    32
  0
VERTEX
  8
0400LEVEL
 62
13
 10
-3421.963
 20
961.601
 30
4827.000
 70
    32
  0
VERTEX
  8
0400LEVEL
 62
13
 10
-3492.350
 20
1051.043
 30
4827.000
 70
    32
  0
VERTEX
  8
0400LEVEL
 62
13
 10
-3555.143
 20
1157.063
 30
4827.000
 70
    32
  0
VERTEX
  8
0400LEVEL
 62
13
 10
-3589.074
 20
1258.187
 30
4827.000
 70
    32
  0
VERTEX
  8
0400LEVEL
 62
13
 10
-3606.450
 20
1372.357
 30
4827.000
 70
    32
  0
VERTEX
  8
0400LEVEL
 62
13
 10
-3632.016
 20
1460.488
 30
4827.000
 70
    32
  0
VERTEX
  8
0400LEVEL
 62
13
 10
-3657.228
 20
1529.937
 30
4827.000
 70
    32
  0
VERTEX
  8
0400LEVEL
 62
13
 10
-3631.703
 20
1512.775
 30
4827.000
 70
    32
  0
VERTEX
  8
0400LEVEL
 62
13
 10
-3586.349
 20
1470.105
 30
4827.000
 70
    32
  0
VERTEX
  8
0400LEVEL
 62
13
 10
-3596.289
 20
1516.834
 30
4827.000
 70
    32
  0
VERTEX
  8
0400LEVEL
 62
13
 10
-3623.752
 20
1583.394
 30
4827.000
 70
    32
  0
VERTEX
  8
0400LEVEL
 62
13
 10
-3665.683
 20
1668.513
 30
4827.000
 70
    32
  0
VERTEX
  8
0400LEVEL
 62
13
 10
-3638.153
 20
1682.465
 30
4827.000
 70
    32
  0
VERTEX
  8
0400LEVEL
 62
13
 10
-3587.772
 20
1614.534
 30
4827.000
 70
    32
  0
VERTEX
  8
0400LEVEL
 62
13
 10
-3528.636
 20
1570.030
 30
4827.000
 70
    32
  0
VERTEX
  8
0400LEVEL
 62
13
 10
-3558.811
 20
1629.501
 30
4827.000
 70
    32
  0
VERTEX
  8
0400LEVEL
 62
13
 10
-3591.890
 20
1714.880
 30
4827.000
 70
    32
  0
VERTEX
  8
0400LEVEL
 62
13
 10
-3644.105
 20
1812.060
 30
4827.000
 70
    32
  0
VERTEX
  8
0400LEVEL
 62
13
 10
-3664.284
 20
1872.604
 30
4827.000
 70
    32
  0
VERTEX
  8
0400LEVEL
 62
13
 10
-3628.447
 20
1839.097
 30
4827.000
 70
    32
  0
VERTEX
  8
0400LEVEL
 62
13
 10
-3575.062
 20
1794.814
 30
4827.000
 70
    32
  0
VERTEX
  8
0400LEVEL
 62
13
 10
-3502.152
 20
1732.121
 30
4827.000
 70
    32
  0
VERTEX
  8
0400LEVEL
 62
13
 10
-3445.951
 20
1688.116
 30
4827.000
 70
    32
  0
VERTEX
  8
0400LEVEL
 62
13
 10
-3444.692
 20
1714.827
 30
4827.000
 70
    32
  0
VERTEX
  8
0400LEVEL
 62
13
 10
-3471.746
 20
1767.478
 30
4827.000
 70
    32
  0
VERTEX
  8
0400LEVEL
 62
13
 10
-3417.034
 20
1731.022
 30
4827.000
 70
    32
  0
VERTEX
  8
0400LEVEL
 62
13
 10
-3367.662
 20
1680.877
 30
4827.000
 70
    32
  0
VERTEX
  8
0400LEVEL
 62
13
 10
-3297.041
 20
1616.559
 30
4827.000
 70
    32
  0
VERTEX
  8
0400LEVEL
 62
13
 10
-3218.077
 20
1559.885
 30
4827.000
 70
    32
  0
VERTEX
  8
0400LEVEL
 62
13
 10
-3144.555
 20
1482.997
 30
4827.000
 70
    32
  0
VERTEX
  8
0400LEVEL
 62
13
 10
-3061.592
 20
1369.782
 30
4827.000
 70
    32
  0
VERTEX
  8
0400LEVEL
 62
13
 10
-3003.438
 20
1295.752
 30
4827.000
 70
    32
  0
VERTEX
  8
0400LEVEL
 62
13
 10
-2955.334
 20
1258.907
 30
4827.000
 70
    32
  0
VERTEX
  8
0400LEVEL
 62
13
 10
-3008.905
 20
1352.542
 30
4827.000
 70
    32
  0
VERTEX
  8
0400LEVEL
 62
13
 10
-3064.587
 20
1435.212
 30
4827.000
 70
    32
  0
VERTEX
  8
0400LEVEL
 62
13
 10
-3130.831
 20
1532.758
 30
4827.000
 70
    32
  0
VERTEX
  8
0400LEVEL
 62
13
 10
-3200.883
 20
1610.819
 30
4827.000
 70
    32
  0
VERTEX
  8
0400LEVEL
 62
13
 10
-3272.179
 20
1681.542
 30
4827.000
 70
    32
  0
VERTEX
  8
0400LEVEL
 62
13
 10
-3352.748
 20
1776.233
 30
4827.000
 70
    32
  0
VERTEX
  8
0400LEVEL
 62
13
 10
-3423.992
 20
1865.066
 30
4827.000
 70
    32
  0
VERTEX
  8
0400LEVEL
 62
13
 10
-3483.720
 20
1959.493
 30
4827.000
 70
    32
  0
VERTEX
  8
0400LEVEL
 62
13
 10
-3521.764
 20
2091.260
 30
4827.000
 70
    32
  0
VERTEX
  8
0400LEVEL
 62
13
 10
-3553.844
 20
2212.202
 30
4827.000
 70
    32
  0
VERTEX
  8
0400LEVEL
 62
13
 10
-3586.479
 20
2338.774
 30
4827.000
 70
    32
  0
VERTEX
  8
0400LEVEL
 62
13
 10
-3607.916
 20
2458.665
 30
4827.000
 70
    32
  0
VERTEX
  8
0400LEVEL
 62
13
 10
-3629.108
 20
2550.332
 30
4827.000
 70
    32
  0
VERTEX
  8
0400LEVEL
 62
13
 10
-3654.580
 20
2628.633
 30
4827.000
 70
    32
  0
VERTEX
  8
0400LEVEL
 62
13
 10
-3668.329
 20
2655.877
 30
4827.000
 70
    32
  0
VERTEX
  8
0400LEVEL
 62
13
 10
-3692.494
 20
2706.276
 30
4827.000
 70
    32
  0
VERTEX
  8
0400LEVEL
 62
13
 10
-3655.383
 20
2675.825
 30
4827.000
 70
    32
  0
VERTEX
  8
0400LEVEL
 62
13
 10
-3629.665
 20
2612.329
 30
4827.000
 70
    32
  0
VERTEX
  8
0400LEVEL
 62
13
 10
-3598.131
 20
2543.065
 30
4827.000
 70
    32
  0
VERTEX
  8
0400LEVEL
 62
13
 10
-3556.330
 20
2498.733
 30
4827.000
 70
    32
  0
VERTEX
  8
0400LEVEL
 62
13
 10
-3565.698
 20
2545.868
 30
4827.000
 70
    32
  0
VERTEX
  8
0400LEVEL
 62
13
 10
-3598.377
 20
2614.320
 30
4827.000
 70
    32
  0
VERTEX
  8
0400LEVEL
 62
13
 10
-3637.981
 20
2699.798
 30
4827.000
 70
    32
  0
VERTEX
  8
0400LEVEL
 62
13
 10
-3680.898
 20
2782.065
 30
4827.000
 70
    32
  0
VERTEX
  8
0400LEVEL
 62
13
 10
-3706.184
 20
2854.043
 30
4827.000
 70
    32
  0
VERTEX
  8
0400LEVEL
 62
13
 10
-3727.419
 20
2930.619
 30
4827.000
 70
    32
  0
VERTEX
  8
0400LEVEL
 62
13
 10
-3749.730
 20
2987.498
 30
4827.000
 70
    32
  0
VERTEX
  8
0400LEVEL
 62
13
 10
-3750.293
 20
3033.140
 30
4827.000
 70
    32
  0
VERTEX
  8
0400LEVEL
 62
13
 10
-3715.689
 20
2981.976
 30
4827.000
 70
    32
  0
VERTEX
  8
0400LEVEL
 62
13
 10
-3673.836
 20
2912.724
 30
4827.000
 70
    32
  0
VERTEX
  8
0400LEVEL
 62
13
 10
-3625.088
 20
2844.064
 30
4827.000
 70
    32
  0
VERTEX
  8
0400LEVEL
 62
13
 10
-3576.716
 20
2758.356
 30
4827.000
 70
    32
  0
VERTEX
  8
0400LEVEL
 62
13
 10
-3545.242
 20
2667.965
 30
4827.000
 70
    32
  0
VERTEX
  8
0400LEVEL
 62
13
 10
-3521.489
 20
2601.783
 30
4827.000
 70
    32
  0
VERTEX
  8
0400LEVEL
 62
13
 10
-3484.025
 20
2509.621
 30
4827.000
 70
    32
  0
VERTEX
  8
0400LEVEL
 62
13
 10
-3438.568
 20
2417.110
 30
4827.000
 70
    32
  0
VERTEX
  8
0400LEVEL
 62
13
 10
-3379.845
 20
2313.794
 30
4827.000
 70
    32
  0
VERTEX
  8
0400LEVEL
 62
13
 10
-3341.038
 20
2248.832
 30
4827.000
 70
    32
  0
VERTEX
  8
0400LEVEL
 62
13
 10
-3302.958
 20
2258.227
 30
4827.000
 70
    32
  0
VERTEX
  8
0400LEVEL
 62
13
 10
-3270.874
 20
2253.037
 30
4827.000
 70
    32
  0
VERTEX
  8
0400LEVEL
 62
13
 10
-3234.118
 20
2284.297
 30
4827.000
 70
    32
  0
VERTEX
  8
0400LEVEL
 62
13
 10
-3188.756
 20
2301.012
 30
4827.000
 70
    32
  0
VERTEX
  8
0400LEVEL
 62
13
 10
-3129.226
 20
2266.255
 30
4827.000
 70
    32
  0
VERTEX
  8
0400LEVEL
 62
13
 10
-3063.769
 20
2178.908
 30
4827.000
 70
    32
  0
VERTEX
  8
0400LEVEL
 62
13
 10
-3007.211
 20
2059.854
 30
4827.000
 70
    32
  0
VERTEX
  8
0400LEVEL
 62
13
 10
-2992.414
 20
1957.193
 30
4827.000
 70
    32
  0
VERTEX
  8
0400LEVEL
 62
13
 10
-2964.230
 20
1842.952
 30
4827.000
 70
    32
  0
VERTEX
  8
0400LEVEL
 62
13
 10
-2908.254
 20
1720.474
 30
4827.000
 70
    32
  0
VERTEX
  8
0400LEVEL
 62
13
 10
-2847.954
 20
1626.452
 30
4827.000
 70
    32
  0
VERTEX
  8
0400LEVEL
 62
13
 10
-2774.390
 20
1521.625
 30
4827.000
 70
    32
  0
VERTEX
  8
0400LEVEL
 62
13
 10
-2702.029
 20
1437.888
 30
4827.000
 70
    32
  0
VERTEX
  8
0400LEVEL
 62
13
 10
-2631.522
 20
1347.671
 30
4827.000
 70
    32
  0
VERTEX
  8
0400LEVEL
 62
13
 10
-2586.293
 20
1289.422
 30
4827.000
 70
    32
  0
VERTEX
  8
0400LEVEL
 62
13
 10
-2541.627
 20
1209.165
 30
4827.000
 70
    32
  0
VERTEX
  8
0400LEVEL
 62
13
 10
-2427.594
 20
1066.217
 30
4827.000
 70
    32
  0
VERTEX
  8
0400LEVEL
 62
13
 10
-2400.307
 20
1065.774
 30
4827.000
 70
    32
  0
VERTEX
  8
0400LEVEL
 62
13
 10
-2472.628
 20
1188.665
 30
4827.000
 70
    32
  0
VERTEX
  8
0400LEVEL
 62
13
 10
-2500.527
 20
1295.407
 30
4827.000
 70
    32
  0
VERTEX
  8
0400LEVEL
 62
13
 10
-2516.211
 20
1336.167
 30
4827.000
 70
    32
  0
VERTEX
  8
0400LEVEL
 62
13
 10
-2589.287
 20
1440.911
 30
4827.000
 70
    32
  0
VERTEX
  8
0400LEVEL
 62
13
 10
-2668.931
 20
1530.664
 30
4827.000
 70
    32
  0
VERTEX
  8
0400LEVEL
 62
13
 10
-2741.624
 20
1612.444
 30
4827.000
 70
    32
  0
VERTEX
  8
0400LEVEL
 62
13
 10
-2769.344
 20
1674.519
 30
4827.000
 70
    32
  0
VERTEX
  8
0400LEVEL
 62
13
 10
-2730.123
 20
1655.033
 30
4827.000
 70
    32
  0
VERTEX
  8
0400LEVEL
 62
13
 10
-2684.405
 20
1596.701
 30
4827.000
 70
    32
  0
VERTEX
  8
0400LEVEL
 62
13
 10
-2645.772
 20
1570.773
 30
4827.000
 70
    32
  0
VERTEX
  8
0400LEVEL
 62
13
 10
-2673.567
 20
1635.376
 30
4827.000
 70
    32
  0
VERTEX
  8
0400LEVEL
 62
13
 10
-2726.589
 20
1707.026
 30
4827.000
 70
    32
  0
VERTEX
  8
0400LEVEL
 62
13
 10
-2773.345
 20
1787.427
 30
4827.000
 70
    32
  0
VERTEX
  8
0400LEVEL
 62
13
 10
-2808.269
 20
1912.374
 30
4827.000
 70
    32
  0
VERTEX
  8
0400LEVEL
 62
13
 10
-2843.178
 20
2056.694
 30
4827.000
 70
    32
  0
VERTEX
  8
0400LEVEL
 62
13
 10
-2881.314
 20
2184.954
 30
4827.000
 70
    32
  0
VERTEX
  8
0400LEVEL
 62
13
 10
-2950.630
 20
2320.766
 30
4827.000
 70
    32
  0
VERTEX
  8
0400LEVEL
 62
13
 10
-3031.309
 20
2462.280
 30
4827.000
 70
    32
  0
VERTEX
  8
0400LEVEL
 62
13
 10
-3134.068
 20
2613.075
 30
4827.000
 70
    32
  0
VERTEX
  8
0400LEVEL
 62
13
 10
-3233.958
 20
2768.920
 30
4827.000
 70
    32
  0
VERTEX
  8
0400LEVEL
 62
13
 10
-3285.120
 20
2863.405
 30
4827.000
 70
    32
  0
VERTEX
  8
0400LEVEL
 62
13
 10
-3200.615
 20
2790.441
 30
4827.000
 70
    32
  0
VERTEX
  8
0400LEVEL
 62
13
 10
-3099.780
 20
2708.418
 30
4827.000
 70
    32
  0
VERTEX
  8
0400LEVEL
 62
13
 10
-3011.808
 20
2606.935
 30
4827.000
 70
    32
  0
VERTEX
  8
0400LEVEL
 62
13
 10
-2935.606
 20
2511.726
 30
4827.000
 70
    32
  0
VERTEX
  8
0400LEVEL
 62
13
 10
-2874.259
 20
2398.654
 30
4827.000
 70
    32
  0
VERTEX
  8
0400LEVEL
 62
13
 10
-2827.881
 20
2271.513
 30
4827.000
 70
    32
  0
VERTEX
  8
0400LEVEL
 62
13
 10
-2769.525
 20
2154.167
 30
4827.000
 70
    32
  0
VERTEX
  8
0400LEVEL
 62
13
 10
-2707.835
 20
2075.763
 30
4827.000
 70
    32
  0
VERTEX
  8
0400LEVEL
 62
13
 10
-2609.393
 20
1955.896
 30
4827.000
 70
    32
  0
VERTEX
  8
0400LEVEL
 62
13
 10
-2517.390
 20
1823.282
 30
4827.000
 70
    32
  0
VERTEX
  8
0400LEVEL
 62
13
 10
-2430.159
 20
1690.722
 30
4827.000
 70
    32
  0
VERTEX
  8
0400LEVEL
 62
13
 10
-2358.595
 20
1571.136
 30
4827.000
 70
    32
  0
VERTEX
  8
0400LEVEL
 62
13
 10
-2303.928
 20
1489.896
 30
4827.000
 70
    32
  0
VERTEX
  8
0400LEVEL
 62
13
 10
-2283.632
 20
1449.550
 30
4827.000
 70
    32
  0
VERTEX
  8
0400LEVEL
 62
13
 10
-2109.117
 20
1102.665
 30
4827.000
 70
    32
  0
VERTEX
  8
0400LEVEL
 62
13
 10
-2112.106
 20
1158.553
 30
4827.000
 70
    32
  0
VERTEX
  8
0400LEVEL
 62
13
 10
-2160.510
 20
1369.753
 30
4827.000
 70
    32
  0
VERTEX
  8
0400LEVEL
 62
13
 10
-2216.386
 20
1552.049
 30
4827.000
 70
    32
  0
VERTEX
  8
0400LEVEL
 62
13
 10
-2244.070
 20
1612.859
 30
4827.000
 70
    32
  0
VERTEX
  8
0400LEVEL
 62
13
 10
-2301.937
 20
1687.093
 30
4827.000
 70
    32
  0
VERTEX
  8
0400LEVEL
 62
13
 10
-2396.460
 20
1822.651
 30
4827.000
 70
    32
  0
VERTEX
  8
0400LEVEL
 62
13
 10
-2477.291
 20
1939.531
 30
4827.000
 70
    32
  0
VERTEX
  8
0400LEVEL
 62
13
 10
-2592.020
 20
2083.548
 30
4827.000
 70
    32
  0
VERTEX
  8
0400LEVEL
 62
13
 10
-2672.783
 20
2181.544
 30
4827.000
 70
    32
  0
VERTEX
  8
0400LEVEL
 62
13
 10
-2741.427
 20
2281.259
 30
4827.000
 70
    32
  0
VERTEX
  8
0400LEVEL
 62
13
 10
-2784.616
 20
2382.695
 30
4827.000
 70
    32
  0
VERTEX
  8
0400LEVEL
 62
13
 10
-2835.160
 20
2479.340
 30
4827.000
 70
    32
  0
VERTEX
  8
0400LEVEL
 62
13
 10
-2932.085
 20
2630.404
 30
4827.000
 70
    32
  0
VERTEX
  8
0400LEVEL
 62
13
 10
-3011.034
 20
2792.510
 30
4827.000
 70
    32
  0
VERTEX
  8
0400LEVEL
 62
13
 10
-3107.138
 20
2945.448
 30
4827.000
 70
    32
  0
VERTEX
  8
0400LEVEL
 62
13
 10
-3186.530
 20
3066.362
 30
4827.000
 70
    32
  0
VERTEX
  8
0400LEVEL
 62
13
 10
-3243.345
 20
3180.930
 30
4827.000
 70
    32
  0
VERTEX
  8
0400LEVEL
 62
13
 10
-3322.036
 20
3347.522
 30
4827.000
 70
    32
  0
VERTEX
  8
0400LEVEL
 62
13
 10
-3359.082
 20
3428.793
 30
4827.000
 70
    32
  0
SEQEND
  8
0400LEVEL
  0
ENDSEC
  0
EOF
