999
********************************
999
*   DXF File - Entities Only   *
999
*        3D Data Format        *
999
*     Output from ENVISAGE     *
999
*     28-Dec-2007 13:50:01     *
999
********************************
  0
SECTION 
  2
HEADER
  9
$ACADVER
  1
AC1009
  9
$EXTMIN
 10
-290000.000
 20
-250000.000
 30
-4000.000
  9
$EXTMAX
 10
5000000.000
 20
600000.000
 30
6000.000
  0
ENDSEC
  0
SECTION
  2
ENTITIES
  0
POLYLINE
  8
0500LEVEL
 62
5
 66
     1
 70
     8
  0
VERTEX
  8
0500LEVEL
 62
5
 10
349.800
 20
-2419.100
 30
4727.000
 70
    32
  0
VERTEX
  8
0500LEVEL
 62
5
 10
960.800
 20
-1945.200
 30
4727.000
 70
    32
  0
VERTEX
  8
0500LEVEL
 62
5
 10
999.600
 20
-1890.500
 30
4727.000
 70
    32
  0
VERTEX
  8
0500LEVEL
 62
5
 10
1033.800
 20
-1791.900
 30
4727.000
 70
    32
  0
VERTEX
  8
0500LEVEL
 62
5
 10
1254.900
 20
-1643.200
 30
4727.000
 70
    32
  0
VERTEX
  8
0500LEVEL
 62
5
 10
1349.600
 20
-1558.600
 30
4727.000
 70
    32
  0
VERTEX
  8
0500LEVEL
 62
5
 10
1413.100
 20
-1520.400
 30
4727.000
 70
    32
  0
SEQEND
  8
0500LEVEL
  0
POLYLINE
  8
0500LEVEL
 62
5
 66
     1
 70
     8
  0
VERTEX
  8
0500LEVEL
 62
5
 10
1418.200
 20
-1539.200
 30
4727.000
 70
    32
  0
VERTEX
  8
0500LEVEL
 62
5
 10
1361.400
 20
-1572.400
 30
4727.000
 70
    32
  0
VERTEX
  8
0500LEVEL
 62
5
 10
1124.200
 20
-1769.700
 30
4727.000
 70
    32
  0
VERTEX
  8
0500LEVEL
 62
5
 10
1059.400
 20
-1810.900
 30
4727.000
 70
    32
  0
VERTEX
  8
0500LEVEL
 62
5
 10
1038.500
 20
-1838.700
 30
4727.000
 70
    32
  0
VERTEX
  8
0500LEVEL
 62
5
 10
1024.600
 20
-1897.400
 30
4727.000
 70
    32
  0
VERTEX
  8
0500LEVEL
 62
5
 10
942.200
 20
-2001.700
 30
4727.000
 70
    32
  0
VERTEX
  8
0500LEVEL
 62
5
 10
805.800
 20
-2098.500
 30
4727.000
 70
    32
  0
VERTEX
  8
0500LEVEL
 62
5
 10
508.900
 20
-2341.600
 30
4727.000
 70
    32
  0
VERTEX
  8
0500LEVEL
 62
5
 10
374.600
 20
-2438.200
 30
4727.000
 70
    32
  0
SEQEND
  8
0500LEVEL
  0
POLYLINE
  8
0500LEVEL
 62
5
 66
     1
 70
     8
  0
VERTEX
  8
0500LEVEL
 62
5
 10
1432.000
 20
-3940.100
 30
4727.000
 70
    32
  0
VERTEX
  8
0500LEVEL
 62
5
 10
1277.300
 20
-3584.300
 30
4727.000
 70
    32
  0
VERTEX
  8
0500LEVEL
 62
5
 10
1209.400
 20
-3451.500
 30
4727.000
 70
    32
  0
VERTEX
  8
0500LEVEL
 62
5
 10
1010.500
 20
-3010.700
 30
4727.000
 70
    32
  0
VERTEX
  8
0500LEVEL
 62
5
 10
988.700
 20
-2982.000
 30
4727.000
 70
    32
  0
VERTEX
  8
0500LEVEL
 62
5
 10
781.600
 20
-2584.800
 30
4727.000
 70
    32
  0
VERTEX
  8
0500LEVEL
 62
5
 10
785.200
 20
-2574.300
 30
4727.000
 70
    32
  0
VERTEX
  8
0500LEVEL
 62
5
 10
804.400
 20
-2599.400
 30
4727.000
 70
    32
  0
VERTEX
  8
0500LEVEL
 62
5
 10
999.800
 20
-2966.500
 30
4727.000
 70
    32
  0
VERTEX
  8
0500LEVEL
 62
5
 10
1037.100
 20
-3019.900
 30
4727.000
 70
    32
  0
VERTEX
  8
0500LEVEL
 62
5
 10
1120.700
 20
-3175.000
 30
4727.000
 70
    32
  0
SEQEND
  8
0500LEVEL
  0
POLYLINE
  8
0500LEVEL
 62
5
 66
     1
 70
     8
  0
VERTEX
  8
0500LEVEL
 62
5
 10
1063.600
 20
-3000.500
 30
4727.000
 70
    32
  0
VERTEX
  8
0500LEVEL
 62
5
 10
990.300
 20
-2840.500
 30
4727.000
 70
    32
  0
VERTEX
  8
0500LEVEL
 62
5
 10
989.100
 20
-2823.600
 30
4727.000
 70
    32
  0
VERTEX
  8
0500LEVEL
 62
5
 10
990.300
 20
-2808.500
 30
4727.000
 70
    32
  0
VERTEX
  8
0500LEVEL
 62
5
 10
1009.700
 20
-2796.000
 30
4727.000
 70
    32
  0
VERTEX
  8
0500LEVEL
 62
5
 10
1040.300
 20
-2811.800
 30
4727.000
 70
    32
  0
VERTEX
  8
0500LEVEL
 62
5
 10
1049.000
 20
-2810.700
 30
4727.000
 70
    32
  0
VERTEX
  8
0500LEVEL
 62
5
 10
1049.400
 20
-2795.200
 30
4727.000
 70
    32
  0
VERTEX
  8
0500LEVEL
 62
5
 10
998.300
 20
-2656.200
 30
4727.000
 70
    32
  0
VERTEX
  8
0500LEVEL
 62
5
 10
957.800
 20
-2588.300
 30
4727.000
 70
    32
  0
VERTEX
  8
0500LEVEL
 62
5
 10
871.000
 20
-2344.600
 30
4727.000
 70
    32
  0
VERTEX
  8
0500LEVEL
 62
5
 10
799.286
 20
-2103.790
 30
4727.000
 70
    32
  0
SEQEND
  8
0500LEVEL
  0
POLYLINE
  8
0500LEVEL
 62
5
 66
     1
 70
     8
  0
VERTEX
  8
0500LEVEL
 62
5
 10
975.500
 20
-2594.100
 30
4727.000
 70
    32
  0
VERTEX
  8
0500LEVEL
 62
5
 10
1009.700
 20
-2645.800
 30
4727.000
 70
    32
  0
VERTEX
  8
0500LEVEL
 62
5
 10
1087.000
 20
-2843.200
 30
4727.000
 70
    32
  0
VERTEX
  8
0500LEVEL
 62
5
 10
1110.200
 20
-2936.700
 30
4727.000
 70
    32
  0
VERTEX
  8
0500LEVEL
 62
5
 10
1163.500
 20
-3062.000
 30
4727.000
 70
    32
  0
VERTEX
  8
0500LEVEL
 62
5
 10
1341.700
 20
-3597.200
 30
4727.000
 70
    32
  0
VERTEX
  8
0500LEVEL
 62
5
 10
1408.500
 20
-3728.600
 30
4727.000
 70
    32
  0
SEQEND
  8
0500LEVEL
  0
POLYLINE
  8
0500LEVEL
 62
5
 66
     1
 70
     8
  0
VERTEX
  8
0500LEVEL
 62
5
 10
1440.300
 20
-3731.800
 30
4727.000
 70
    32
  0
VERTEX
  8
0500LEVEL
 62
5
 10
1336.300
 20
-3405.800
 30
4727.000
 70
    32
  0
VERTEX
  8
0500LEVEL
 62
5
 10
1297.200
 20
-3245.900
 30
4727.000
 70
    32
  0
VERTEX
  8
0500LEVEL
 62
5
 10
1272.800
 20
-3097.800
 30
4727.000
 70
    32
  0
SEQEND
  8
0500LEVEL
  0
POLYLINE
  8
0500LEVEL
 62
5
 66
     1
 70
     8
  0
VERTEX
  8
0500LEVEL
 62
5
 10
1591.400
 20
-3897.400
 30
4727.000
 70
    32
  0
VERTEX
  8
0500LEVEL
 62
5
 10
1482.400
 20
-3637.000
 30
4727.000
 70
    32
  0
VERTEX
  8
0500LEVEL
 62
5
 10
1340.200
 20
-3071.600
 30
4727.000
 70
    32
  0
VERTEX
  8
0500LEVEL
 62
5
 10
1251.700
 20
-2755.500
 30
4727.000
 70
    32
  0
VERTEX
  8
0500LEVEL
 62
5
 10
1197.900
 20
-2622.400
 30
4727.000
 70
    32
  0
VERTEX
  8
0500LEVEL
 62
5
 10
1086.200
 20
-2241.800
 30
4727.000
 70
    32
  0
VERTEX
  8
0500LEVEL
 62
5
 10
1055.900
 20
-2068.500
 30
4727.000
 70
    32
  0
VERTEX
  8
0500LEVEL
 62
5
 10
1056.900
 20
-1969.500
 30
4727.000
 70
    32
  0
VERTEX
  8
0500LEVEL
 62
5
 10
1030.234
 20
-1876.646
 30
4727.000
 70
    32
  0
SEQEND
  8
0500LEVEL
  0
LINE
  8
0500LEVEL
 62
5
 10
1011.400
 20
-2506.800
 30
4727.000
 11
1048.000
 21
-2564.100
 31
4727.000
  0
LINE
  8
0500LEVEL
 62
5
 10
1054.000
 20
-2558.000
 30
4727.000
 11
1024.800
 21
-2481.900
 31
4727.000
  0
POLYLINE
  8
0500LEVEL
 62
5
 66
     1
 70
     8
  0
VERTEX
  8
0500LEVEL
 62
5
 10
1069.300
 20
-2528.600
 30
4727.000
 70
    32
  0
VERTEX
  8
0500LEVEL
 62
5
 10
1021.300
 20
-2395.700
 30
4727.000
 70
    32
  0
VERTEX
  8
0500LEVEL
 62
5
 10
1037.400
 20
-2417.200
 30
4727.000
 70
    32
  0
VERTEX
  8
0500LEVEL
 62
5
 10
1078.400
 20
-2523.300
 30
4727.000
 70
    32
  0
SEQEND
  8
0500LEVEL
  0
POLYLINE
  8
0500LEVEL
 62
5
 66
     1
 70
     8
  0
VERTEX
  8
0500LEVEL
 62
5
 10
1087.700
 20
-2512.200
 30
4727.000
 70
    32
  0
VERTEX
  8
0500LEVEL
 62
5
 10
1052.400
 20
-2419.300
 30
4727.000
 70
    32
  0
VERTEX
  8
0500LEVEL
 62
5
 10
1022.900
 20
-2222.100
 30
4727.000
 70
    32
  0
VERTEX
  8
0500LEVEL
 62
5
 10
980.900
 20
-2012.000
 30
4727.000
 70
    32
  0
VERTEX
  8
0500LEVEL
 62
5
 10
965.112
 20
-1977.978
 30
4727.000
 70
    32
  0
SEQEND
  8
0500LEVEL
  0
POLYLINE
  8
0500LEVEL
 62
5
 66
     1
 70
     8
  0
VERTEX
  8
0500LEVEL
 62
5
 10
992.340
 20
-1946.253
 30
4727.000
 70
    32
  0
VERTEX
  8
0500LEVEL
 62
5
 10
995.100
 20
-1992.900
 30
4727.000
 70
    32
  0
VERTEX
  8
0500LEVEL
 62
5
 10
1042.100
 20
-2215.900
 30
4727.000
 70
    32
  0
VERTEX
  8
0500LEVEL
 62
5
 10
1061.800
 20
-2383.500
 30
4727.000
 70
    32
  0
VERTEX
  8
0500LEVEL
 62
5
 10
1095.400
 20
-2497.900
 30
4727.000
 70
    32
  0
SEQEND
  8
0500LEVEL
  0
POLYLINE
  8
0500LEVEL
 62
5
 66
     1
 70
     8
  0
VERTEX
  8
0500LEVEL
 62
5
 10
795.278
 20
-2077.620
 30
4727.000
 70
    32
  0
VERTEX
  8
0500LEVEL
 62
5
 10
713.100
 20
-1711.900
 30
4727.000
 70
    32
  0
VERTEX
  8
0500LEVEL
 62
5
 10
697.600
 20
-1564.300
 30
4727.000
 70
    32
  0
VERTEX
  8
0500LEVEL
 62
5
 10
700.400
 20
-1490.300
 30
4727.000
 70
    32
  0
VERTEX
  8
0500LEVEL
 62
5
 10
687.300
 20
-1463.500
 30
4727.000
 70
    32
  0
VERTEX
  8
0500LEVEL
 62
5
 10
686.600
 20
-1436.300
 30
4727.000
 70
    32
  0
VERTEX
  8
0500LEVEL
 62
5
 10
648.600
 20
-1305.900
 30
4727.000
 70
    32
  0
VERTEX
  8
0500LEVEL
 62
5
 10
659.600
 20
-1315.700
 30
4727.000
 70
    32
  0
VERTEX
  8
0500LEVEL
 62
5
 10
703.000
 20
-1455.900
 30
4727.000
 70
    32
  0
VERTEX
  8
0500LEVEL
 62
5
 10
694.300
 20
-1300.300
 30
4727.000
 70
    32
  0
VERTEX
  8
0500LEVEL
 62
5
 10
675.500
 20
-1221.700
 30
4727.000
 70
    32
  0
VERTEX
  8
0500LEVEL
 62
5
 10
654.500
 20
-1175.600
 30
4727.000
 70
    32
  0
VERTEX
  8
0500LEVEL
 62
5
 10
581.400
 20
-1079.100
 30
4727.000
 70
    32
  0
VERTEX
  8
0500LEVEL
 62
5
 10
594.300
 20
-1076.600
 30
4727.000
 70
    32
  0
VERTEX
  8
0500LEVEL
 62
5
 10
608.900
 20
-1087.600
 30
4727.000
 70
    32
  0
VERTEX
  8
0500LEVEL
 62
5
 10
652.900
 20
-1134.300
 30
4727.000
 70
    32
  0
VERTEX
  8
0500LEVEL
 62
5
 10
632.800
 20
-1091.400
 30
4727.000
 70
    32
  0
VERTEX
  8
0500LEVEL
 62
5
 10
623.100
 20
-1014.500
 30
4727.000
 70
    32
  0
VERTEX
  8
0500LEVEL
 62
5
 10
443.600
 20
-695.400
 30
4727.000
 70
    32
  0
VERTEX
  8
0500LEVEL
 62
5
 10
374.400
 20
-548.900
 30
4727.000
 70
    32
  0
VERTEX
  8
0500LEVEL
 62
5
 10
358.100
 20
-489.700
 30
4727.000
 70
    32
  0
SEQEND
  8
0500LEVEL
  0
LINE
  8
0500LEVEL
 62
5
 10
390.100
 20
-486.700
 30
4727.000
 11
417.100
 21
-565.300
 31
4727.000
  0
LINE
  8
0500LEVEL
 62
5
 10
431.100
 20
-564.200
 30
4727.000
 11
398.800
 21
-476.100
 31
4727.000
  0
POLYLINE
  8
0500LEVEL
 62
5
 66
     1
 70
     8
  0
VERTEX
  8
0500LEVEL
 62
5
 10
464.900
 20
-414.000
 30
4727.000
 70
    32
  0
VERTEX
  8
0500LEVEL
 62
5
 10
526.000
 20
-658.700
 30
4727.000
 70
    32
  0
VERTEX
  8
0500LEVEL
 62
5
 10
677.300
 20
-1061.500
 30
4727.000
 70
    32
  0
VERTEX
  8
0500LEVEL
 62
5
 10
666.900
 20
-1075.700
 30
4727.000
 70
    32
  0
VERTEX
  8
0500LEVEL
 62
5
 10
671.900
 20
-1104.000
 30
4727.000
 70
    32
  0
VERTEX
  8
0500LEVEL
 62
5
 10
616.400
 20
-963.100
 30
4727.000
 70
    32
  0
VERTEX
  8
0500LEVEL
 62
5
 10
560.900
 20
-858.000
 30
4727.000
 70
    32
  0
SEQEND
  8
0500LEVEL
  0
POLYLINE
  8
0500LEVEL
 62
5
 66
     1
 70
     8
  0
VERTEX
  8
0500LEVEL
 62
5
 10
645.100
 20
480.500
 30
4727.000
 70
    32
  0
VERTEX
  8
0500LEVEL
 62
5
 10
658.100
 20
249.600
 30
4727.000
 70
    32
  0
VERTEX
  8
0500LEVEL
 62
5
 10
705.500
 20
29.100
 30
4727.000
 70
    32
  0
VERTEX
  8
0500LEVEL
 62
5
 10
757.000
 20
-281.400
 30
4727.000
 70
    32
  0
VERTEX
  8
0500LEVEL
 62
5
 10
774.600
 20
-337.500
 30
4727.000
 70
    32
  0
VERTEX
  8
0500LEVEL
 62
5
 10
810.800
 20
-394.300
 30
4727.000
 70
    32
  0
VERTEX
  8
0500LEVEL
 62
5
 10
900.600
 20
-809.500
 30
4727.000
 70
    32
  0
VERTEX
  8
0500LEVEL
 62
5
 10
928.700
 20
-916.300
 30
4727.000
 70
    32
  0
VERTEX
  8
0500LEVEL
 62
5
 10
1008.200
 20
-1126.800
 30
4727.000
 70
    32
  0
VERTEX
  8
0500LEVEL
 62
5
 10
1009.900
 20
-1195.700
 30
4727.000
 70
    32
  0
VERTEX
  8
0500LEVEL
 62
5
 10
1040.500
 20
-1292.900
 30
4727.000
 70
    32
  0
VERTEX
  8
0500LEVEL
 62
5
 10
1068.700
 20
-1423.500
 30
4727.000
 70
    32
  0
VERTEX
  8
0500LEVEL
 62
5
 10
1075.000
 20
-1482.600
 30
4727.000
 70
    32
  0
VERTEX
  8
0500LEVEL
 62
5
 10
1061.700
 20
-1466.700
 30
4727.000
 70
    32
  0
VERTEX
  8
0500LEVEL
 62
5
 10
983.300
 20
-1194.800
 30
4727.000
 70
    32
  0
VERTEX
  8
0500LEVEL
 62
5
 10
954.000
 20
-1129.100
 30
4727.000
 70
    32
  0
VERTEX
  8
0500LEVEL
 62
5
 10
886.000
 20
-910.600
 30
4727.000
 70
    32
  0
SEQEND
  8
0500LEVEL
  0
POLYLINE
  8
0500LEVEL
 62
5
 66
     1
 70
     8
  0
VERTEX
  8
0500LEVEL
 62
5
 10
864.600
 20
-925.800
 30
4727.000
 70
    32
  0
VERTEX
  8
0500LEVEL
 62
5
 10
948.600
 20
-1230.900
 30
4727.000
 70
    32
  0
VERTEX
  8
0500LEVEL
 62
5
 10
950.900
 20
-1387.300
 30
4727.000
 70
    32
  0
VERTEX
  8
0500LEVEL
 62
5
 10
972.000
 20
-1513.000
 30
4727.000
 70
    32
  0
VERTEX
  8
0500LEVEL
 62
5
 10
971.100
 20
-1584.700
 30
4727.000
 70
    32
  0
VERTEX
  8
0500LEVEL
 62
5
 10
1022.757
 20
-1832.187
 30
4727.000
 70
    32
  0
SEQEND
  8
0500LEVEL
  0
POLYLINE
  8
0500LEVEL
 62
5
 66
     1
 70
     8
  0
VERTEX
  8
0500LEVEL
 62
5
 10
982.018
 20
-1920.365
 30
4727.000
 70
    32
  0
VERTEX
  8
0500LEVEL
 62
5
 10
967.000
 20
-1868.800
 30
4727.000
 70
    32
  0
VERTEX
  8
0500LEVEL
 62
5
 10
971.500
 20
-1837.000
 30
4727.000
 70
    32
  0
VERTEX
  8
0500LEVEL
 62
5
 10
941.300
 20
-1733.800
 30
4727.000
 70
    32
  0
VERTEX
  8
0500LEVEL
 62
5
 10
938.000
 20
-1623.100
 30
4727.000
 70
    32
  0
VERTEX
  8
0500LEVEL
 62
5
 10
946.500
 20
-1556.400
 30
4727.000
 70
    32
  0
VERTEX
  8
0500LEVEL
 62
5
 10
914.400
 20
-1351.500
 30
4727.000
 70
    32
  0
VERTEX
  8
0500LEVEL
 62
5
 10
916.200
 20
-1239.400
 30
4727.000
 70
    32
  0
VERTEX
  8
0500LEVEL
 62
5
 10
897.600
 20
-1172.400
 30
4727.000
 70
    32
  0
SEQEND
  8
0500LEVEL
  0
POLYLINE
  8
0500LEVEL
 62
5
 66
     1
 70
     8
  0
VERTEX
  8
0500LEVEL
 62
5
 10
833.700
 20
-1177.400
 30
4727.000
 70
    32
  0
VERTEX
  8
0500LEVEL
 62
5
 10
859.600
 20
-1226.500
 30
4727.000
 70
    32
  0
VERTEX
  8
0500LEVEL
 62
5
 10
898.000
 20
-1399.000
 30
4727.000
 70
    32
  0
VERTEX
  8
0500LEVEL
 62
5
 10
894.000
 20
-1539.600
 30
4727.000
 70
    32
  0
VERTEX
  8
0500LEVEL
 62
5
 10
874.600
 20
-1644.800
 30
4727.000
 70
    32
  0
VERTEX
  8
0500LEVEL
 62
5
 10
883.700
 20
-1786.200
 30
4727.000
 70
    32
  0
VERTEX
  8
0500LEVEL
 62
5
 10
902.000
 20
-1836.100
 30
4727.000
 70
    32
  0
VERTEX
  8
0500LEVEL
 62
5
 10
907.900
 20
-1811.000
 30
4727.000
 70
    32
  0
VERTEX
  8
0500LEVEL
 62
5
 10
933.900
 20
-1814.600
 30
4727.000
 70
    32
  0
VERTEX
  8
0500LEVEL
 62
5
 10
928.000
 20
-1847.400
 30
4727.000
 70
    32
  0
VERTEX
  8
0500LEVEL
 62
5
 10
956.109
 20
-1948.810
 30
4727.000
 70
    32
  0
SEQEND
  8
0500LEVEL
  0
POLYLINE
  8
0500LEVEL
 62
5
 66
     1
 70
     8
  0
VERTEX
  8
0500LEVEL
 62
5
 10
720.100
 20
-1081.000
 30
4727.000
 70
    32
  0
VERTEX
  8
0500LEVEL
 62
5
 10
721.500
 20
-1121.500
 30
4727.000
 70
    32
  0
VERTEX
  8
0500LEVEL
 62
5
 10
776.900
 20
-1366.100
 30
4727.000
 70
    32
  0
VERTEX
  8
0500LEVEL
 62
5
 10
835.000
 20
-1503.900
 30
4727.000
 70
    32
  0
VERTEX
  8
0500LEVEL
 62
5
 10
847.400
 20
-1596.200
 30
4727.000
 70
    32
  0
VERTEX
  8
0500LEVEL
 62
5
 10
845.400
 20
-1637.500
 30
4727.000
 70
    32
  0
VERTEX
  8
0500LEVEL
 62
5
 10
838.000
 20
-1641.600
 30
4727.000
 70
    32
  0
VERTEX
  8
0500LEVEL
 62
5
 10
829.000
 20
-1622.100
 30
4727.000
 70
    32
  0
VERTEX
  8
0500LEVEL
 62
5
 10
817.584
 20
-1466.068
 30
4727.000
 70
    32
  0
SEQEND
  8
0500LEVEL
  0
POLYLINE
  8
0500LEVEL
 62
5
 66
     1
 70
     8
  0
VERTEX
  8
0500LEVEL
 62
5
 10
602.900
 20
-759.400
 30
4727.000
 70
    32
  0
VERTEX
  8
0500LEVEL
 62
5
 10
716.600
 20
-1117.700
 30
4727.000
 70
    32
  0
VERTEX
  8
0500LEVEL
 62
5
 10
701.800
 20
-1143.700
 30
4727.000
 70
    32
  0
VERTEX
  8
0500LEVEL
 62
5
 10
709.200
 20
-1177.700
 30
4727.000
 70
    32
  0
VERTEX
  8
0500LEVEL
 62
5
 10
746.366
 20
-1231.645
 30
4727.000
 70
    32
  0
SEQEND
  8
0500LEVEL
  0
POLYLINE
  8
0500LEVEL
 62
5
 66
     1
 70
     8
  0
VERTEX
  8
0500LEVEL
 62
5
 10
652.900
 20
-1134.300
 30
4727.000
 70
    32
  0
VERTEX
  8
0500LEVEL
 62
5
 10
714.500
 20
-1270.400
 30
4727.000
 70
    32
  0
VERTEX
  8
0500LEVEL
 62
5
 10
721.800
 20
-1304.100
 30
4727.000
 70
    32
  0
VERTEX
  8
0500LEVEL
 62
5
 10
719.500
 20
-1417.900
 30
4727.000
 70
    32
  0
VERTEX
  8
0500LEVEL
 62
5
 10
730.800
 20
-1485.100
 30
4727.000
 70
    32
  0
VERTEX
  8
0500LEVEL
 62
5
 10
723.400
 20
-1517.700
 30
4727.000
 70
    32
  0
VERTEX
  8
0500LEVEL
 62
5
 10
734.900
 20
-1591.600
 30
4727.000
 70
    32
  0
VERTEX
  8
0500LEVEL
 62
5
 10
729.700
 20
-1611.800
 30
4727.000
 70
    32
  0
VERTEX
  8
0500LEVEL
 62
5
 10
749.400
 20
-1676.800
 30
4727.000
 70
    32
  0
VERTEX
  8
0500LEVEL
 62
5
 10
759.100
 20
-1683.100
 30
4727.000
 70
    32
  0
VERTEX
  8
0500LEVEL
 62
5
 10
763.500
 20
-1663.000
 30
4727.000
 70
    32
  0
VERTEX
  8
0500LEVEL
 62
5
 10
734.712
 20
-1588.481
 30
4727.000
 70
    32
  0
SEQEND
  8
0500LEVEL
  0
POLYLINE
  8
0500LEVEL
 62
5
 66
     1
 70
     8
  0
VERTEX
  8
0500LEVEL
 62
5
 10
729.532
 20
-1490.685
 30
4727.000
 70
    32
  0
VERTEX
  8
0500LEVEL
 62
5
 10
744.200
 20
-1441.100
 30
4727.000
 70
    32
  0
VERTEX
  8
0500LEVEL
 62
5
 10
719.587
 20
-1380.801
 30
4727.000
 70
    32
  0
SEQEND
  8
0500LEVEL
  0
POLYLINE
  8
0500LEVEL
 62
5
 66
     1
 70
     8
  0
VERTEX
  8
0500LEVEL
 62
5
 10
785.200
 20
-1114.900
 30
4727.000
 70
    32
  0
VERTEX
  8
0500LEVEL
 62
5
 10
785.300
 20
-1139.500
 30
4727.000
 70
    32
  0
VERTEX
  8
0500LEVEL
 62
5
 10
811.000
 20
-1185.300
 30
4727.000
 70
    32
  0
VERTEX
  8
0500LEVEL
 62
5
 10
837.900
 20
-1269.200
 30
4727.000
 70
    32
  0
VERTEX
  8
0500LEVEL
 62
5
 10
847.000
 20
-1361.300
 30
4727.000
 70
    32
  0
VERTEX
  8
0500LEVEL
 62
5
 10
895.430
 20
-1471.322
 30
4727.000
 70
    32
  0
SEQEND
  8
0500LEVEL
  0
POLYLINE
  8
0500LEVEL
 62
5
 66
     1
 70
     9
  0
VERTEX
  8
0500LEVEL
 62
5
 10
700.100
 20
483.000
 30
4727.000
 70
    32
  0
VERTEX
  8
0500LEVEL
 62
5
 10
708.000
 20
413.400
 30
4727.000
 70
    32
  0
VERTEX
  8
0500LEVEL
 62
5
 10
699.700
 20
323.800
 30
4727.000
 70
    32
  0
VERTEX
  8
0500LEVEL
 62
5
 10
723.000
 20
133.300
 30
4727.000
 70
    32
  0
VERTEX
  8
0500LEVEL
 62
5
 10
730.000
 20
151.000
 30
4727.000
 70
    32
  0
VERTEX
  8
0500LEVEL
 62
5
 10
726.500
 20
309.500
 30
4727.000
 70
    32
  0
VERTEX
  8
0500LEVEL
 62
5
 10
737.100
 20
413.800
 30
4727.000
 70
    32
  0
VERTEX
  8
0500LEVEL
 62
5
 10
730.600
 20
321.200
 30
4727.000
 70
    32
  0
VERTEX
  8
0500LEVEL
 62
5
 10
753.000
 20
-47.900
 30
4727.000
 70
    32
  0
VERTEX
  8
0500LEVEL
 62
5
 10
796.300
 20
-300.900
 30
4727.000
 70
    32
  0
VERTEX
  8
0500LEVEL
 62
5
 10
800.100
 20
-281.700
 30
4727.000
 70
    32
  0
VERTEX
  8
0500LEVEL
 62
5
 10
787.700
 20
-231.400
 30
4727.000
 70
    32
  0
VERTEX
  8
0500LEVEL
 62
5
 10
751.800
 20
198.900
 30
4727.000
 70
    32
  0
VERTEX
  8
0500LEVEL
 62
5
 10
749.200
 20
360.300
 30
4727.000
 70
    32
  0
VERTEX
  8
0500LEVEL
 62
5
 10
758.300
 20
381.700
 30
4727.000
 70
    32
  0
VERTEX
  8
0500LEVEL
 62
5
 10
759.600
 20
416.800
 30
4727.000
 70
    32
  0
VERTEX
  8
0500LEVEL
 62
5
 10
753.900
 20
479.800
 30
4727.000
 70
    32
  0
SEQEND
  8
0500LEVEL
  0
POLYLINE
  8
0500LEVEL
 62
5
 66
     1
 70
     9
  0
VERTEX
  8
0500LEVEL
 62
5
 10
813.700
 20
472.700
 30
4727.000
 70
    32
  0
VERTEX
  8
0500LEVEL
 62
5
 10
827.600
 20
376.400
 30
4727.000
 70
    32
  0
VERTEX
  8
0500LEVEL
 62
5
 10
824.100
 20
257.700
 30
4727.000
 70
    32
  0
VERTEX
  8
0500LEVEL
 62
5
 10
832.300
 20
245.900
 30
4727.000
 70
    32
  0
VERTEX
  8
0500LEVEL
 62
5
 10
850.200
 20
340.000
 30
4727.000
 70
    32
  0
VERTEX
  8
0500LEVEL
 62
5
 10
851.600
 20
228.400
 30
4727.000
 70
    32
  0
VERTEX
  8
0500LEVEL
 62
5
 10
862.600
 20
245.900
 30
4727.000
 70
    32
  0
VERTEX
  8
0500LEVEL
 62
5
 10
867.300
 20
388.400
 30
4727.000
 70
    32
  0
VERTEX
  8
0500LEVEL
 62
5
 10
848.900
 20
475.500
 30
4727.000
 70
    32
  0
SEQEND
  8
0500LEVEL
  0
POLYLINE
  8
0500LEVEL
 62
5
 66
     1
 70
     9
  0
VERTEX
  8
0500LEVEL
 62
5
 10
807.500
 20
361.200
 30
4727.000
 70
    32
  0
VERTEX
  8
0500LEVEL
 62
5
 10
799.800
 20
358.700
 30
4727.000
 70
    32
  0
VERTEX
  8
0500LEVEL
 62
5
 10
799.100
 20
366.800
 30
4727.000
 70
    32
  0
VERTEX
  8
0500LEVEL
 62
5
 10
784.600
 20
346.300
 30
4727.000
 70
    32
  0
VERTEX
  8
0500LEVEL
 62
5
 10
790.000
 20
216.000
 30
4727.000
 70
    32
  0
VERTEX
  8
0500LEVEL
 62
5
 10
816.800
 20
-56.400
 30
4727.000
 70
    32
  0
VERTEX
  8
0500LEVEL
 62
5
 10
822.400
 20
-73.600
 30
4727.000
 70
    32
  0
VERTEX
  8
0500LEVEL
 62
5
 10
832.400
 20
-70.100
 30
4727.000
 70
    32
  0
VERTEX
  8
0500LEVEL
 62
5
 10
833.700
 20
-60.500
 30
4727.000
 70
    32
  0
VERTEX
  8
0500LEVEL
 62
5
 10
804.300
 20
328.200
 30
4727.000
 70
    32
  0
SEQEND
  8
0500LEVEL
  0
POLYLINE
  8
0500LEVEL
 62
5
 66
     1
 70
     9
  0
VERTEX
  8
0500LEVEL
 62
5
 10
1416.100
 20
-1018.100
 30
4727.000
 70
    32
  0
VERTEX
  8
0500LEVEL
 62
5
 10
1403.600
 20
-1014.600
 30
4727.000
 70
    32
  0
VERTEX
  8
0500LEVEL
 62
5
 10
1183.600
 20
-770.600
 30
4727.000
 70
    32
  0
VERTEX
  8
0500LEVEL
 62
5
 10
1122.300
 20
-724.000
 30
4727.000
 70
    32
  0
VERTEX
  8
0500LEVEL
 62
5
 10
1046.600
 20
-648.800
 30
4727.000
 70
    32
  0
VERTEX
  8
0500LEVEL
 62
5
 10
934.300
 20
-568.300
 30
4727.000
 70
    32
  0
VERTEX
  8
0500LEVEL
 62
5
 10
893.600
 20
-507.900
 30
4727.000
 70
    32
  0
VERTEX
  8
0500LEVEL
 62
5
 10
859.900
 20
-433.800
 30
4727.000
 70
    32
  0
VERTEX
  8
0500LEVEL
 62
5
 10
823.000
 20
-314.300
 30
4727.000
 70
    32
  0
VERTEX
  8
0500LEVEL
 62
5
 10
826.000
 20
-229.400
 30
4727.000
 70
    32
  0
VERTEX
  8
0500LEVEL
 62
5
 10
890.900
 20
-123.600
 30
4727.000
 70
    32
  0
VERTEX
  8
0500LEVEL
 62
5
 10
922.100
 20
-33.300
 30
4727.000
 70
    32
  0
VERTEX
  8
0500LEVEL
 62
5
 10
924.500
 20
-48.000
 30
4727.000
 70
    32
  0
VERTEX
  8
0500LEVEL
 62
5
 10
894.900
 20
-146.200
 30
4727.000
 70
    32
  0
VERTEX
  8
0500LEVEL
 62
5
 10
845.900
 20
-253.000
 30
4727.000
 70
    32
  0
VERTEX
  8
0500LEVEL
 62
5
 10
840.000
 20
-282.400
 30
4727.000
 70
    32
  0
VERTEX
  8
0500LEVEL
 62
5
 10
856.000
 20
-385.100
 30
4727.000
 70
    32
  0
VERTEX
  8
0500LEVEL
 62
5
 10
893.100
 20
-425.200
 30
4727.000
 70
    32
  0
VERTEX
  8
0500LEVEL
 62
5
 10
901.900
 20
-499.700
 30
4727.000
 70
    32
  0
VERTEX
  8
0500LEVEL
 62
5
 10
933.900
 20
-550.000
 30
4727.000
 70
    32
  0
VERTEX
  8
0500LEVEL
 62
5
 10
959.600
 20
-574.600
 30
4727.000
 70
    32
  0
VERTEX
  8
0500LEVEL
 62
5
 10
1066.500
 20
-635.600
 30
4727.000
 70
    32
  0
VERTEX
  8
0500LEVEL
 62
5
 10
1110.300
 20
-677.300
 30
4727.000
 70
    32
  0
VERTEX
  8
0500LEVEL
 62
5
 10
1413.800
 20
-1011.900
 30
4727.000
 70
    32
  0
SEQEND
  8
0500LEVEL
  0
POLYLINE
  8
0500LEVEL
 62
5
 66
     1
 70
     9
  0
VERTEX
  8
0500LEVEL
 62
5
 10
1342.700
 20
-1897.000
 30
4727.000
 70
    32
  0
VERTEX
  8
0500LEVEL
 62
5
 10
1283.600
 20
-1772.100
 30
4727.000
 70
    32
  0
VERTEX
  8
0500LEVEL
 62
5
 10
1278.000
 20
-1777.500
 30
4727.000
 70
    32
  0
VERTEX
  8
0500LEVEL
 62
5
 10
1331.500
 20
-1881.800
 30
4727.000
 70
    32
  0
SEQEND
  8
0500LEVEL
  0
POLYLINE
  8
0500LEVEL
 62
5
 66
     1
 70
     8
  0
VERTEX
  8
0500LEVEL
 62
5
 10
542.300
 20
-466.200
 30
4727.000
 70
    32
  0
VERTEX
  8
0500LEVEL
 62
5
 10
516.400
 20
-418.800
 30
4727.000
 70
    32
  0
VERTEX
  8
0500LEVEL
 62
5
 10
515.200
 20
-388.600
 30
4727.000
 70
    32
  0
SEQEND
  8
0500LEVEL
  0
POLYLINE
  8
0500LEVEL
 62
5
 66
     1
 70
     8
  0
VERTEX
  8
0500LEVEL
 62
5
 10
546.700
 20
-360.000
 30
4727.000
 70
    32
  0
VERTEX
  8
0500LEVEL
 62
5
 10
554.500
 20
-388.500
 30
4727.000
 70
    32
  0
VERTEX
  8
0500LEVEL
 62
5
 10
546.200
 20
-409.200
 30
4727.000
 70
    32
  0
VERTEX
  8
0500LEVEL
 62
5
 10
562.000
 20
-448.000
 30
4727.000
 70
    32
  0
SEQEND
  8
0500LEVEL
  0
LINE
  8
0500LEVEL
 62
5
 10
575.700
 20
-443.600
 30
4727.000
 11
570.200
 21
-350.600
 31
4727.000
  0
LINE
  8
0500LEVEL
 62
5
 10
596.200
 20
-265.800
 30
4727.000
 11
614.800
 21
-399.900
 31
4727.000
  0
LINE
  8
0500LEVEL
 62
5
 10
622.300
 20
-401.800
 30
4727.000
 11
606.800
 21
-265.400
 31
4727.000
  0
LINE
  8
0500LEVEL
 62
5
 10
616.300
 20
-254.200
 30
4727.000
 11
640.200
 21
-384.900
 31
4727.000
  0
LINE
  8
0500LEVEL
 62
5
 10
645.900
 20
-386.800
 30
4727.000
 11
622.900
 21
-242.400
 31
4727.000
  0
POLYLINE
  8
0500LEVEL
 62
5
 66
     1
 70
     8
  0
VERTEX
  8
0500LEVEL
 62
5
 10
648.800
 20
-240.000
 30
4727.000
 70
    32
  0
VERTEX
  8
0500LEVEL
 62
5
 10
661.600
 20
-347.100
 30
4727.000
 70
    32
  0
VERTEX
  8
0500LEVEL
 62
5
 10
670.600
 20
-369.600
 30
4727.000
 70
    32
  0
SEQEND
  8
0500LEVEL
  0
POLYLINE
  8
0500LEVEL
 62
5
 66
     1
 70
     8
  0
VERTEX
  8
0500LEVEL
 62
5
 10
666.800
 20
-300.900
 30
4727.000
 70
    32
  0
VERTEX
  8
0500LEVEL
 62
5
 10
669.400
 20
-324.600
 30
4727.000
 70
    32
  0
VERTEX
  8
0500LEVEL
 62
5
 10
672.700
 20
-300.100
 30
4727.000
 70
    32
  0
SEQEND
  8
0500LEVEL
  0
LINE
  8
0500LEVEL
 62
5
 10
696.400
 20
-301.000
 30
4727.000
 11
702.800
 21
-341.300
 31
4727.000
  0
LINE
  8
0500LEVEL
 62
5
 10
709.100
 20
-344.600
 30
4727.000
 11
699.479
 21
-312.763
 31
4727.000
  0
POLYLINE
  8
0500LEVEL
 62
5
 66
     1
 70
     9
  0
VERTEX
  8
0500LEVEL
 62
5
 10
719.400
 20
-304.100
 30
4727.000
 70
    32
  0
VERTEX
  8
0500LEVEL
 62
5
 10
695.400
 20
-229.000
 30
4727.000
 70
    32
  0
VERTEX
  8
0500LEVEL
 62
5
 10
694.900
 20
-198.600
 30
4727.000
 70
    32
  0
VERTEX
  8
0500LEVEL
 62
5
 10
710.200
 20
-222.000
 30
4727.000
 70
    32
  0
VERTEX
  8
0500LEVEL
 62
5
 10
724.200
 20
-272.000
 30
4727.000
 70
    32
  0
SEQEND
  8
0500LEVEL
  0
LINE
  8
0500LEVEL
 62
13
 10
1081.300
 20
-827.400
 30
4727.000
 11
1081.600
 21
-827.700
 31
4727.000
  0
POLYLINE
  8
0500LEVEL
 62
7
 66
     1
 70
     9
  0
VERTEX
  8
0500LEVEL
 62
7
 10
1396.200
 20
-2508.200
 30
4727.000
 70
    32
  0
VERTEX
  8
0500LEVEL
 62
7
 10
1379.100
 20
-2490.800
 30
4727.000
 70
    32
  0
VERTEX
  8
0500LEVEL
 62
7
 10
1340.000
 20
-2515.000
 30
4727.000
 70
    32
  0
VERTEX
  8
0500LEVEL
 62
7
 10
1267.700
 20
-2509.700
 30
4727.000
 70
    32
  0
VERTEX
  8
0500LEVEL
 62
7
 10
1251.200
 20
-2488.300
 30
4727.000
 70
    32
  0
VERTEX
  8
0500LEVEL
 62
7
 10
1244.700
 20
-2430.600
 30
4727.000
 70
    32
  0
VERTEX
  8
0500LEVEL
 62
7
 10
1164.000
 20
-2360.400
 30
4727.000
 70
    32
  0
VERTEX
  8
0500LEVEL
 62
7
 10
1166.000
 20
-2392.300
 30
4727.000
 70
    32
  0
VERTEX
  8
0500LEVEL
 62
7
 10
1264.900
 20
-2549.800
 30
4727.000
 70
    32
  0
VERTEX
  8
0500LEVEL
 62
7
 10
1313.900
 20
-2579.000
 30
4727.000
 70
    32
  0
VERTEX
  8
0500LEVEL
 62
7
 10
1433.700
 20
-2625.600
 30
4727.000
 70
    32
  0
VERTEX
  8
0500LEVEL
 62
7
 10
1567.500
 20
-2806.600
 30
4727.000
 70
    32
  0
VERTEX
  8
0500LEVEL
 62
7
 10
1575.900
 20
-2796.200
 30
4727.000
 70
    32
  0
VERTEX
  8
0500LEVEL
 62
7
 10
1568.700
 20
-2760.700
 30
4727.000
 70
    32
  0
VERTEX
  8
0500LEVEL
 62
7
 10
1443.800
 20
-2565.800
 30
4727.000
 70
    32
  0
SEQEND
  8
0500LEVEL
  0
POLYLINE
  8
0500LEVEL
 62
7
 66
     1
 70
     9
  0
VERTEX
  8
0500LEVEL
 62
7
 10
1250.800
 20
12.100
 30
4727.000
 70
    32
  0
VERTEX
  8
0500LEVEL
 62
7
 10
1242.900
 20
22.600
 30
4727.000
 70
    32
  0
VERTEX
  8
0500LEVEL
 62
7
 10
1246.800
 20
159.800
 30
4727.000
 70
    32
  0
VERTEX
  8
0500LEVEL
 62
7
 10
1254.500
 20
140.500
 30
4727.000
 70
    32
  0
VERTEX
  8
0500LEVEL
 62
7
 10
1258.100
 20
71.100
 30
4727.000
 70
    32
  0
VERTEX
  8
0500LEVEL
 62
7
 10
1269.600
 20
62.700
 30
4727.000
 70
    32
  0
VERTEX
  8
0500LEVEL
 62
7
 10
1289.300
 20
73.300
 30
4727.000
 70
    32
  0
VERTEX
  8
0500LEVEL
 62
7
 10
1299.000
 20
28.800
 30
4727.000
 70
    32
  0
VERTEX
  8
0500LEVEL
 62
7
 10
1291.900
 20
12.000
 30
4727.000
 70
    32
  0
VERTEX
  8
0500LEVEL
 62
7
 10
1267.600
 20
1.500
 30
4727.000
 70
    32
  0
VERTEX
  8
0500LEVEL
 62
7
 10
1257.500
 20
10.600
 30
4727.000
 70
    32
  0
SEQEND
  8
0500LEVEL
  0
POLYLINE
  8
0500LEVEL
 62
7
 66
     1
 70
     9
  0
VERTEX
  8
0500LEVEL
 62
7
 10
1250.800
 20
285.400
 30
4727.000
 70
    32
  0
VERTEX
  8
0500LEVEL
 62
7
 10
1255.200
 20
291.300
 30
4727.000
 70
    32
  0
VERTEX
  8
0500LEVEL
 62
7
 10
1265.900
 20
277.300
 30
4727.000
 70
    32
  0
VERTEX
  8
0500LEVEL
 62
7
 10
1274.900
 20
285.600
 30
4727.000
 70
    32
  0
VERTEX
  8
0500LEVEL
 62
7
 10
1277.000
 20
304.300
 30
4727.000
 70
    32
  0
VERTEX
  8
0500LEVEL
 62
7
 10
1238.600
 20
431.800
 30
4727.000
 70
    32
  0
VERTEX
  8
0500LEVEL
 62
7
 10
1229.000
 20
395.900
 30
4727.000
 70
    32
  0
VERTEX
  8
0500LEVEL
 62
7
 10
1168.000
 20
404.200
 30
4727.000
 70
    32
  0
VERTEX
  8
0500LEVEL
 62
7
 10
1181.800
 20
386.600
 30
4727.000
 70
    32
  0
VERTEX
  8
0500LEVEL
 62
7
 10
1166.100
 20
379.900
 30
4727.000
 70
    32
  0
VERTEX
  8
0500LEVEL
 62
7
 10
1147.000
 20
383.400
 30
4727.000
 70
    32
  0
VERTEX
  8
0500LEVEL
 62
7
 10
1166.800
 20
366.400
 30
4727.000
 70
    32
  0
VERTEX
  8
0500LEVEL
 62
7
 10
1190.100
 20
361.300
 30
4727.000
 70
    32
  0
VERTEX
  8
0500LEVEL
 62
7
 10
1212.000
 20
341.000
 30
4727.000
 70
    32
  0
VERTEX
  8
0500LEVEL
 62
7
 10
1246.200
 20
234.500
 30
4727.000
 70
    32
  0
VERTEX
  8
0500LEVEL
 62
7
 10
1253.700
 20
235.400
 30
4727.000
 70
    32
  0
SEQEND
  8
0500LEVEL
  0
POLYLINE
  8
0500LEVEL
 62
13
 66
     1
 70
     9
  0
VERTEX
  8
0500LEVEL
 62
13
 10
993.400
 20
-113.500
 30
4727.000
 70
    32
  0
VERTEX
  8
0500LEVEL
 62
13
 10
970.800
 20
-76.600
 30
4727.000
 70
    32
  0
VERTEX
  8
0500LEVEL
 62
13
 10
948.300
 20
14.500
 30
4727.000
 70
    32
  0
VERTEX
  8
0500LEVEL
 62
13
 10
980.900
 20
71.200
 30
4727.000
 70
    32
  0
VERTEX
  8
0500LEVEL
 62
13
 10
1000.600
 20
130.200
 30
4727.000
 70
    32
  0
VERTEX
  8
0500LEVEL
 62
13
 10
1056.800
 20
194.900
 30
4727.000
 70
    32
  0
VERTEX
  8
0500LEVEL
 62
13
 10
1064.900
 20
230.800
 30
4727.000
 70
    32
  0
VERTEX
  8
0500LEVEL
 62
13
 10
1064.400
 20
138.500
 30
4727.000
 70
    32
  0
VERTEX
  8
0500LEVEL
 62
13
 10
1050.100
 20
97.000
 30
4727.000
 70
    32
  0
VERTEX
  8
0500LEVEL
 62
13
 10
984.900
 20
4.200
 30
4727.000
 70
    32
  0
VERTEX
  8
0500LEVEL
 62
13
 10
987.400
 20
-11.400
 30
4727.000
 70
    32
  0
VERTEX
  8
0500LEVEL
 62
13
 10
1031.300
 20
-59.000
 30
4727.000
 70
    32
  0
VERTEX
  8
0500LEVEL
 62
13
 10
1027.700
 20
-114.900
 30
4727.000
 70
    32
  0
VERTEX
  8
0500LEVEL
 62
13
 10
1075.200
 20
-179.900
 30
4727.000
 70
    32
  0
VERTEX
  8
0500LEVEL
 62
13
 10
1079.000
 20
-203.700
 30
4727.000
 70
    32
  0
VERTEX
  8
0500LEVEL
 62
13
 10
1071.300
 20
-230.500
 30
4727.000
 70
    32
  0
VERTEX
  8
0500LEVEL
 62
13
 10
1065.700
 20
-227.900
 30
4727.000
 70
    32
  0
VERTEX
  8
0500LEVEL
 62
13
 10
1058.800
 20
-203.700
 30
4727.000
 70
    32
  0
VERTEX
  8
0500LEVEL
 62
13
 10
1000.600
 20
-141.900
 30
4727.000
 70
    32
  0
SEQEND
  8
0500LEVEL
  0
POLYLINE
  8
0500LEVEL
 62
7
 66
     1
 70
     8
  0
VERTEX
  8
0500LEVEL
 62
7
 10
989.000
 20
-514.700
 30
4727.000
 70
    32
  0
VERTEX
  8
0500LEVEL
 62
7
 10
1015.700
 20
-556.300
 30
4727.000
 70
    32
  0
VERTEX
  8
0500LEVEL
 62
7
 10
1049.700
 20
-574.700
 30
4727.000
 70
    32
  0
VERTEX
  8
0500LEVEL
 62
7
 10
1112.400
 20
-588.800
 30
4727.000
 70
    32
  0
VERTEX
  8
0500LEVEL
 62
7
 10
1129.900
 20
-565.100
 30
4727.000
 70
    32
  0
VERTEX
  8
0500LEVEL
 62
7
 10
1141.500
 20
-497.000
 30
4727.000
 70
    32
  0
VERTEX
  8
0500LEVEL
 62
7
 10
1173.100
 20
-475.700
 30
4727.000
 70
    32
  0
VERTEX
  8
0500LEVEL
 62
7
 10
1184.200
 20
-435.200
 30
4727.000
 70
    32
  0
VERTEX
  8
0500LEVEL
 62
7
 10
1205.800
 20
-468.300
 30
4727.000
 70
    32
  0
VERTEX
  8
0500LEVEL
 62
7
 10
1224.500
 20
-475.400
 30
4727.000
 70
    32
  0
VERTEX
  8
0500LEVEL
 62
7
 10
1245.200
 20
-466.900
 30
4727.000
 70
    32
  0
VERTEX
  8
0500LEVEL
 62
7
 10
1274.000
 20
-439.600
 30
4727.000
 70
    32
  0
VERTEX
  8
0500LEVEL
 62
7
 10
1335.700
 20
-313.800
 30
4727.000
 70
    32
  0
VERTEX
  8
0500LEVEL
 62
7
 10
1373.900
 20
-263.600
 30
4727.000
 70
    32
  0
VERTEX
  8
0500LEVEL
 62
7
 10
1403.000
 20
-174.300
 30
4727.000
 70
    32
  0
VERTEX
  8
0500LEVEL
 62
7
 10
1411.400
 20
-165.700
 30
4727.000
 70
    32
  0
VERTEX
  8
0500LEVEL
 62
7
 10
1441.300
 20
-173.700
 30
4727.000
 70
    32
  0
VERTEX
  8
0500LEVEL
 62
7
 10
1537.500
 20
48.300
 30
4727.000
 70
    32
  0
VERTEX
  8
0500LEVEL
 62
7
 10
1553.000
 20
60.000
 30
4727.000
 70
    32
  0
VERTEX
  8
0500LEVEL
 62
7
 10
1639.800
 20
66.400
 30
4727.000
 70
    32
  0
VERTEX
  8
0500LEVEL
 62
7
 10
1715.700
 20
176.300
 30
4727.000
 70
    32
  0
VERTEX
  8
0500LEVEL
 62
7
 10
1741.800
 20
185.000
 30
4727.000
 70
    32
  0
VERTEX
  8
0500LEVEL
 62
7
 10
1774.200
 20
180.000
 30
4727.000
 70
    32
  0
VERTEX
  8
0500LEVEL
 62
7
 10
1810.400
 20
203.000
 30
4727.000
 70
    32
  0
VERTEX
  8
0500LEVEL
 62
7
 10
1822.600
 20
294.800
 30
4727.000
 70
    32
  0
VERTEX
  8
0500LEVEL
 62
7
 10
1814.900
 20
317.900
 30
4727.000
 70
    32
  0
VERTEX
  8
0500LEVEL
 62
7
 10
1771.400
 20
350.700
 30
4727.000
 70
    32
  0
VERTEX
  8
0500LEVEL
 62
7
 10
1784.700
 20
359.600
 30
4727.000
 70
    32
  0
VERTEX
  8
0500LEVEL
 62
7
 10
1787.500
 20
375.500
 30
4727.000
 70
    32
  0
VERTEX
  8
0500LEVEL
 62
7
 10
1740.300
 20
454.300
 30
4727.000
 70
    32
  0
VERTEX
  8
0500LEVEL
 62
7
 10
1722.200
 20
521.900
 30
4727.000
 70
    32
  0
VERTEX
  8
0500LEVEL
 62
7
 10
1723.200
 20
536.100
 30
4727.000
 70
    32
  0
VERTEX
  8
0500LEVEL
 62
7
 10
1731.300
 20
536.600
 30
4727.000
 70
    32
  0
VERTEX
  8
0500LEVEL
 62
7
 10
1746.000
 20
491.400
 30
4727.000
 70
    32
  0
VERTEX
  8
0500LEVEL
 62
7
 10
1756.500
 20
485.800
 30
4727.000
 70
    32
  0
VERTEX
  8
0500LEVEL
 62
7
 10
1782.300
 20
623.000
 30
4727.000
 70
    32
  0
SEQEND
  8
0500LEVEL
  0
POLYLINE
  8
0500LEVEL
 62
13
 66
     1
 70
     8
  0
VERTEX
  8
0500LEVEL
 62
13
 10
1745.600
 20
608.900
 30
4727.000
 70
    32
  0
VERTEX
  8
0500LEVEL
 62
13
 10
1735.000
 20
592.800
 30
4727.000
 70
    32
  0
VERTEX
  8
0500LEVEL
 62
13
 10
1723.100
 20
632.700
 30
4727.000
 70
    32
  0
VERTEX
  8
0500LEVEL
 62
13
 10
1714.700
 20
640.700
 30
4727.000
 70
    32
  0
VERTEX
  8
0500LEVEL
 62
13
 10
1703.300
 20
634.900
 30
4727.000
 70
    32
  0
VERTEX
  8
0500LEVEL
 62
13
 10
1666.700
 20
455.800
 30
4727.000
 70
    32
  0
VERTEX
  8
0500LEVEL
 62
13
 10
1648.500
 20
518.500
 30
4727.000
 70
    32
  0
VERTEX
  8
0500LEVEL
 62
13
 10
1644.100
 20
510.100
 30
4727.000
 70
    32
  0
VERTEX
  8
0500LEVEL
 62
13
 10
1656.400
 20
438.000
 30
4727.000
 70
    32
  0
VERTEX
  8
0500LEVEL
 62
13
 10
1718.100
 20
359.600
 30
4727.000
 70
    32
  0
VERTEX
  8
0500LEVEL
 62
13
 10
1720.700
 20
328.400
 30
4727.000
 70
    32
  0
VERTEX
  8
0500LEVEL
 62
13
 10
1615.000
 20
320.700
 30
4727.000
 70
    32
  0
VERTEX
  8
0500LEVEL
 62
13
 10
1580.900
 20
262.600
 30
4727.000
 70
    32
  0
VERTEX
  8
0500LEVEL
 62
13
 10
1533.900
 20
249.800
 30
4727.000
 70
    32
  0
VERTEX
  8
0500LEVEL
 62
13
 10
1501.000
 20
230.300
 30
4727.000
 70
    32
  0
VERTEX
  8
0500LEVEL
 62
13
 10
1504.800
 20
225.300
 30
4727.000
 70
    32
  0
VERTEX
  8
0500LEVEL
 62
13
 10
1578.900
 20
235.400
 30
4727.000
 70
    32
  0
VERTEX
  8
0500LEVEL
 62
13
 10
1607.200
 20
268.400
 30
4727.000
 70
    32
  0
VERTEX
  8
0500LEVEL
 62
13
 10
1612.400
 20
259.800
 30
4727.000
 70
    32
  0
VERTEX
  8
0500LEVEL
 62
13
 10
1593.700
 20
229.400
 30
4727.000
 70
    32
  0
VERTEX
  8
0500LEVEL
 62
13
 10
1534.400
 20
223.600
 30
4727.000
 70
    32
  0
VERTEX
  8
0500LEVEL
 62
13
 10
1476.900
 20
196.800
 30
4727.000
 70
    32
  0
VERTEX
  8
0500LEVEL
 62
13
 10
1497.500
 20
197.800
 30
4727.000
 70
    32
  0
VERTEX
  8
0500LEVEL
 62
13
 10
1530.700
 20
179.800
 30
4727.000
 70
    32
  0
VERTEX
  8
0500LEVEL
 62
13
 10
1608.200
 20
195.500
 30
4727.000
 70
    32
  0
VERTEX
  8
0500LEVEL
 62
13
 10
1626.500
 20
207.500
 30
4727.000
 70
    32
  0
VERTEX
  8
0500LEVEL
 62
13
 10
1647.300
 20
256.600
 30
4727.000
 70
    32
  0
VERTEX
  8
0500LEVEL
 62
13
 10
1664.600
 20
270.400
 30
4727.000
 70
    32
  0
VERTEX
  8
0500LEVEL
 62
13
 10
1703.000
 20
264.000
 30
4727.000
 70
    32
  0
VERTEX
  8
0500LEVEL
 62
13
 10
1714.500
 20
255.600
 30
4727.000
 70
    32
  0
VERTEX
  8
0500LEVEL
 62
13
 10
1711.100
 20
245.100
 30
4727.000
 70
    32
  0
VERTEX
  8
0500LEVEL
 62
13
 10
1664.500
 20
197.200
 30
4727.000
 70
    32
  0
VERTEX
  8
0500LEVEL
 62
13
 10
1640.700
 20
158.400
 30
4727.000
 70
    32
  0
VERTEX
  8
0500LEVEL
 62
13
 10
1590.200
 20
128.600
 30
4727.000
 70
    32
  0
VERTEX
  8
0500LEVEL
 62
13
 10
1570.600
 20
121.300
 30
4727.000
 70
    32
  0
VERTEX
  8
0500LEVEL
 62
13
 10
1523.200
 20
139.600
 30
4727.000
 70
    32
  0
VERTEX
  8
0500LEVEL
 62
13
 10
1496.900
 20
136.200
 30
4727.000
 70
    32
  0
VERTEX
  8
0500LEVEL
 62
13
 10
1471.800
 20
86.500
 30
4727.000
 70
    32
  0
VERTEX
  8
0500LEVEL
 62
13
 10
1419.400
 20
-66.400
 30
4727.000
 70
    32
  0
VERTEX
  8
0500LEVEL
 62
13
 10
1401.900
 20
-91.500
 30
4727.000
 70
    32
  0
VERTEX
  8
0500LEVEL
 62
13
 10
1370.000
 20
-97.200
 30
4727.000
 70
    32
  0
VERTEX
  8
0500LEVEL
 62
13
 10
1274.800
 20
-267.200
 30
4727.000
 70
    32
  0
VERTEX
  8
0500LEVEL
 62
13
 10
1269.300
 20
-294.400
 30
4727.000
 70
    32
  0
VERTEX
  8
0500LEVEL
 62
13
 10
1243.500
 20
-339.900
 30
4727.000
 70
    32
  0
VERTEX
  8
0500LEVEL
 62
13
 10
1208.500
 20
-374.200
 30
4727.000
 70
    32
  0
VERTEX
  8
0500LEVEL
 62
13
 10
1173.700
 20
-344.100
 30
4727.000
 70
    32
  0
VERTEX
  8
0500LEVEL
 62
13
 10
1152.200
 20
-356.000
 30
4727.000
 70
    32
  0
VERTEX
  8
0500LEVEL
 62
13
 10
1137.000
 20
-410.600
 30
4727.000
 70
    32
  0
VERTEX
  8
0500LEVEL
 62
13
 10
1110.100
 20
-427.300
 30
4727.000
 70
    32
  0
VERTEX
  8
0500LEVEL
 62
13
 10
1092.300
 20
-450.300
 30
4727.000
 70
    32
  0
VERTEX
  8
0500LEVEL
 62
13
 10
1071.400
 20
-536.600
 30
4727.000
 70
    32
  0
VERTEX
  8
0500LEVEL
 62
13
 10
1062.000
 20
-545.600
 30
4727.000
 70
    32
  0
VERTEX
  8
0500LEVEL
 62
13
 10
1050.200
 20
-549.300
 30
4727.000
 70
    32
  0
VERTEX
  8
0500LEVEL
 62
13
 10
989.000
 20
-514.700
 30
4727.000
 70
    32
  0
SEQEND
  8
0500LEVEL
  0
POLYLINE
  8
0500LEVEL
 62
13
 66
     1
 70
     8
  0
VERTEX
  8
0500LEVEL
 62
13
 10
964.600
 20
-513.200
 30
4727.000
 70
    32
  0
VERTEX
  8
0500LEVEL
 62
13
 10
958.300
 20
-491.100
 30
4727.000
 70
    32
  0
VERTEX
  8
0500LEVEL
 62
13
 10
966.600
 20
-483.100
 30
4727.000
 70
    32
  0
VERTEX
  8
0500LEVEL
 62
13
 10
967.000
 20
-465.400
 30
4727.000
 70
    32
  0
VERTEX
  8
0500LEVEL
 62
13
 10
973.700
 20
-466.300
 30
4727.000
 70
    32
  0
VERTEX
  8
0500LEVEL
 62
13
 10
976.300
 20
-493.600
 30
4727.000
 70
    32
  0
VERTEX
  8
0500LEVEL
 62
13
 10
984.000
 20
-498.300
 30
4727.000
 70
    32
  0
VERTEX
  8
0500LEVEL
 62
13
 10
1023.500
 20
-470.100
 30
4727.000
 70
    32
  0
VERTEX
  8
0500LEVEL
 62
13
 10
1039.600
 20
-396.500
 30
4727.000
 70
    32
  0
VERTEX
  8
0500LEVEL
 62
13
 10
1092.800
 20
-373.900
 30
4727.000
 70
    32
  0
VERTEX
  8
0500LEVEL
 62
13
 10
1084.100
 20
-331.900
 30
4727.000
 70
    32
  0
VERTEX
  8
0500LEVEL
 62
13
 10
1120.000
 20
-323.800
 30
4727.000
 70
    32
  0
VERTEX
  8
0500LEVEL
 62
13
 10
1138.300
 20
-260.500
 30
4727.000
 70
    32
  0
VERTEX
  8
0500LEVEL
 62
13
 10
1139.300
 20
-180.200
 30
4727.000
 70
    32
  0
VERTEX
  8
0500LEVEL
 62
13
 10
1127.400
 20
-135.700
 30
4727.000
 70
    32
  0
VERTEX
  8
0500LEVEL
 62
13
 10
1037.800
 20
-54.200
 30
4727.000
 70
    32
  0
VERTEX
  8
0500LEVEL
 62
13
 10
990.200
 20
4.800
 30
4727.000
 70
    32
  0
VERTEX
  8
0500LEVEL
 62
13
 10
1009.900
 20
17.100
 30
4727.000
 70
    32
  0
VERTEX
  8
0500LEVEL
 62
13
 10
1040.800
 20
-29.500
 30
4727.000
 70
    32
  0
VERTEX
  8
0500LEVEL
 62
13
 10
1081.000
 20
-71.400
 30
4727.000
 70
    32
  0
VERTEX
  8
0500LEVEL
 62
13
 10
1160.000
 20
-134.300
 30
4727.000
 70
    32
  0
VERTEX
  8
0500LEVEL
 62
13
 10
1212.800
 20
-199.800
 30
4727.000
 70
    32
  0
VERTEX
  8
0500LEVEL
 62
13
 10
1231.400
 20
-210.100
 30
4727.000
 70
    32
  0
VERTEX
  8
0500LEVEL
 62
13
 10
1272.600
 20
-182.300
 30
4727.000
 70
    32
  0
VERTEX
  8
0500LEVEL
 62
13
 10
1291.700
 20
-116.500
 30
4727.000
 70
    32
  0
VERTEX
  8
0500LEVEL
 62
13
 10
1329.300
 20
-76.500
 30
4727.000
 70
    32
  0
VERTEX
  8
0500LEVEL
 62
13
 10
1346.200
 20
-13.200
 30
4727.000
 70
    32
  0
VERTEX
  8
0500LEVEL
 62
13
 10
1307.100
 20
148.300
 30
4727.000
 70
    32
  0
VERTEX
  8
0500LEVEL
 62
13
 10
1312.000
 20
163.800
 30
4727.000
 70
    32
  0
VERTEX
  8
0500LEVEL
 62
13
 10
1293.300
 20
232.500
 30
4727.000
 70
    32
  0
VERTEX
  8
0500LEVEL
 62
13
 10
1281.500
 20
364.000
 30
4727.000
 70
    32
  0
VERTEX
  8
0500LEVEL
 62
13
 10
1267.300
 20
446.800
 30
4727.000
 70
    32
  0
VERTEX
  8
0500LEVEL
 62
13
 10
1257.300
 20
464.000
 30
4727.000
 70
    32
  0
VERTEX
  8
0500LEVEL
 62
13
 10
1199.600
 20
443.900
 30
4727.000
 70
    32
  0
VERTEX
  8
0500LEVEL
 62
13
 10
1133.300
 20
436.500
 30
4727.000
 70
    32
  0
VERTEX
  8
0500LEVEL
 62
13
 10
1079.000
 20
411.700
 30
4727.000
 70
    32
  0
VERTEX
  8
0500LEVEL
 62
13
 10
1019.800
 20
305.000
 30
4727.000
 70
    32
  0
VERTEX
  8
0500LEVEL
 62
13
 10
1007.900
 20
262.400
 30
4727.000
 70
    32
  0
VERTEX
  8
0500LEVEL
 62
13
 10
997.500
 20
133.800
 30
4727.000
 70
    32
  0
VERTEX
  8
0500LEVEL
 62
13
 10
980.800
 20
80.000
 30
4727.000
 70
    32
  0
VERTEX
  8
0500LEVEL
 62
13
 10
933.500
 20
-0.400
 30
4727.000
 70
    32
  0
VERTEX
  8
0500LEVEL
 62
13
 10
890.900
 20
-123.600
 30
4727.000
 70
    32
  0
VERTEX
  8
0500LEVEL
 62
13
 10
826.000
 20
-229.400
 30
4727.000
 70
    32
  0
VERTEX
  8
0500LEVEL
 62
13
 10
820.900
 20
-289.400
 30
4727.000
 70
    32
  0
VERTEX
  8
0500LEVEL
 62
13
 10
834.700
 20
-348.100
 30
4727.000
 70
    32
  0
VERTEX
  8
0500LEVEL
 62
13
 10
826.900
 20
-349.400
 30
4727.000
 70
    32
  0
VERTEX
  8
0500LEVEL
 62
13
 10
828.700
 20
-366.200
 30
4727.000
 70
    32
  0
VERTEX
  8
0500LEVEL
 62
13
 10
846.300
 20
-421.800
 30
4727.000
 70
    32
  0
VERTEX
  8
0500LEVEL
 62
13
 10
838.700
 20
-462.500
 30
4727.000
 70
    32
  0
VERTEX
  8
0500LEVEL
 62
13
 10
919.300
 20
-591.400
 30
4727.000
 70
    32
  0
VERTEX
  8
0500LEVEL
 62
13
 10
959.100
 20
-639.400
 30
4727.000
 70
    32
  0
VERTEX
  8
0500LEVEL
 62
13
 10
1000.700
 20
-739.200
 30
4727.000
 70
    32
  0
VERTEX
  8
0500LEVEL
 62
13
 10
1065.600
 20
-815.700
 30
4727.000
 70
    32
  0
VERTEX
  8
0500LEVEL
 62
13
 10
1116.200
 20
-859.000
 30
4727.000
 70
    32
  0
VERTEX
  8
0500LEVEL
 62
13
 10
1112.100
 20
-864.600
 30
4727.000
 70
    32
  0
VERTEX
  8
0500LEVEL
 62
13
 10
1067.000
 20
-864.500
 30
4727.000
 70
    32
  0
VERTEX
  8
0500LEVEL
 62
13
 10
1064.900
 20
-903.800
 30
4727.000
 70
    32
  0
VERTEX
  8
0500LEVEL
 62
13
 10
1130.800
 20
-1004.300
 30
4727.000
 70
    32
  0
VERTEX
  8
0500LEVEL
 62
13
 10
1146.200
 20
-1061.600
 30
4727.000
 70
    32
  0
VERTEX
  8
0500LEVEL
 62
13
 10
1151.000
 20
-1131.800
 30
4727.000
 70
    32
  0
VERTEX
  8
0500LEVEL
 62
13
 10
1224.100
 20
-1194.600
 30
4727.000
 70
    32
  0
VERTEX
  8
0500LEVEL
 62
13
 10
1251.700
 20
-1263.300
 30
4727.000
 70
    32
  0
VERTEX
  8
0500LEVEL
 62
13
 10
1263.800
 20
-1341.100
 30
4727.000
 70
    32
  0
VERTEX
  8
0500LEVEL
 62
13
 10
1247.500
 20
-1320.500
 30
4727.000
 70
    32
  0
VERTEX
  8
0500LEVEL
 62
13
 10
1234.300
 20
-1246.000
 30
4727.000
 70
    32
  0
VERTEX
  8
0500LEVEL
 62
13
 10
1216.300
 20
-1209.400
 30
4727.000
 70
    32
  0
VERTEX
  8
0500LEVEL
 62
13
 10
1150.300
 20
-1154.000
 30
4727.000
 70
    32
  0
VERTEX
  8
0500LEVEL
 62
13
 10
1134.200
 20
-1131.400
 30
4727.000
 70
    32
  0
VERTEX
  8
0500LEVEL
 62
13
 10
1125.600
 20
-1063.200
 30
4727.000
 70
    32
  0
VERTEX
  8
0500LEVEL
 62
13
 10
1110.100
 20
-1034.200
 30
4727.000
 70
    32
  0
VERTEX
  8
0500LEVEL
 62
13
 10
1101.700
 20
-1039.900
 30
4727.000
 70
    32
  0
VERTEX
  8
0500LEVEL
 62
13
 10
1108.600
 20
-1077.800
 30
4727.000
 70
    32
  0
VERTEX
  8
0500LEVEL
 62
13
 10
1096.400
 20
-1087.900
 30
4727.000
 70
    32
  0
VERTEX
  8
0500LEVEL
 62
13
 10
1080.000
 20
-1024.900
 30
4727.000
 70
    32
  0
VERTEX
  8
0500LEVEL
 62
13
 10
1071.000
 20
-1024.500
 30
4727.000
 70
    32
  0
VERTEX
  8
0500LEVEL
 62
13
 10
1052.300
 20
-1133.100
 30
4727.000
 70
    32
  0
VERTEX
  8
0500LEVEL
 62
13
 10
1103.800
 20
-1209.100
 30
4727.000
 70
    32
  0
VERTEX
  8
0500LEVEL
 62
13
 10
1133.000
 20
-1268.800
 30
4727.000
 70
    32
  0
VERTEX
  8
0500LEVEL
 62
13
 10
1224.800
 20
-1585.800
 30
4727.000
 70
    32
  0
VERTEX
  8
0500LEVEL
 62
13
 10
1241.550
 20
-1650.626
 30
4727.000
 70
    32
  0
VERTEX
  8
0500LEVEL
 62
13
 10
1234.000
 20
-1834.300
 30
4727.000
 70
    32
  0
VERTEX
  8
0500LEVEL
 62
13
 10
1225.600
 20
-1835.300
 30
4727.000
 70
    32
  0
VERTEX
  8
0500LEVEL
 62
13
 10
1214.200
 20
-1815.000
 30
4727.000
 70
    32
  0
VERTEX
  8
0500LEVEL
 62
13
 10
1159.400
 20
-1676.800
 30
4727.000
 70
    32
  0
VERTEX
  8
0500LEVEL
 62
13
 10
1171.900
 20
-1672.000
 30
4727.000
 70
    32
  0
VERTEX
  8
0500LEVEL
 62
13
 10
1191.700
 20
-1683.600
 30
4727.000
 70
    32
  0
VERTEX
  8
0500LEVEL
 62
13
 10
1180.800
 20
-1655.600
 30
4727.000
 70
    32
  0
VERTEX
  8
0500LEVEL
 62
13
 10
1137.700
 20
-1600.800
 30
4727.000
 70
    32
  0
VERTEX
  8
0500LEVEL
 62
13
 10
1055.100
 20
-1518.500
 30
4727.000
 70
    32
  0
VERTEX
  8
0500LEVEL
 62
13
 10
950.892
 20
-1386.989
 30
4727.000
 70
    32
  0
VERTEX
  8
0500LEVEL
 62
13
 10
889.300
 20
-1358.776
 30
4727.000
 70
    32
  0
VERTEX
  8
0500LEVEL
 62
13
 10
843.274
 20
-1326.857
 30
4727.000
 70
    32
  0
VERTEX
  8
0500LEVEL
 62
13
 10
847.000
 20
-1361.300
 30
4727.000
 70
    32
  0
VERTEX
  8
0500LEVEL
 62
13
 10
886.400
 20
-1461.600
 30
4727.000
 70
    32
  0
VERTEX
  8
0500LEVEL
 62
13
 10
939.990
 20
-1515.865
 30
4727.000
 70
    32
  0
VERTEX
  8
0500LEVEL
 62
13
 10
915.400
 20
-1626.900
 30
4727.000
 70
    32
  0
VERTEX
  8
0500LEVEL
 62
13
 10
913.200
 20
-1689.200
 30
4727.000
 70
    32
  0
VERTEX
  8
0500LEVEL
 62
13
 10
919.900
 20
-1738.900
 30
4727.000
 70
    32
  0
VERTEX
  8
0500LEVEL
 62
13
 10
944.400
 20
-1793.800
 30
4727.000
 70
    32
  0
VERTEX
  8
0500LEVEL
 62
13
 10
929.500
 20
-1845.800
 30
4727.000
 70
    32
  0
VERTEX
  8
0500LEVEL
 62
13
 10
944.000
 20
-1918.000
 30
4727.000
 70
    32
  0
VERTEX
  8
0500LEVEL
 62
13
 10
713.100
 20
-1711.900
 30
4727.000
 70
    32
  0
VERTEX
  8
0500LEVEL
 62
13
 10
700.900
 20
-1594.300
 30
4727.000
 70
    32
  0
VERTEX
  8
0500LEVEL
 62
13
 10
701.700
 20
-1531.800
 30
4727.000
 70
    32
  0
VERTEX
  8
0500LEVEL
 62
13
 10
741.100
 20
-1463.600
 30
4727.000
 70
    32
  0
VERTEX
  8
0500LEVEL
 62
13
 10
744.200
 20
-1441.100
 30
4727.000
 70
    32
  0
VERTEX
  8
0500LEVEL
 62
13
 10
719.587
 20
-1380.801
 30
4727.000
 70
    32
  0
VERTEX
  8
0500LEVEL
 62
13
 10
714.500
 20
-1270.400
 30
4727.000
 70
    32
  0
VERTEX
  8
0500LEVEL
 62
13
 10
652.900
 20
-1134.300
 30
4727.000
 70
    32
  0
VERTEX
  8
0500LEVEL
 62
13
 10
626.400
 20
-1103.900
 30
4727.000
 70
    32
  0
VERTEX
  8
0500LEVEL
 62
13
 10
576.400
 20
-1069.400
 30
4727.000
 70
    32
  0
VERTEX
  8
0500LEVEL
 62
13
 10
555.800
 20
-1050.700
 30
4727.000
 70
    32
  0
VERTEX
  8
0500LEVEL
 62
13
 10
549.000
 20
-1052.100
 30
4727.000
 70
    32
  0
VERTEX
  8
0500LEVEL
 62
13
 10
570.300
 20
-1103.800
 30
4727.000
 70
    32
  0
VERTEX
  8
0500LEVEL
 62
13
 10
614.000
 20
-1191.100
 30
4727.000
 70
    32
  0
VERTEX
  8
0500LEVEL
 62
13
 10
648.300
 20
-1236.300
 30
4727.000
 70
    32
  0
VERTEX
  8
0500LEVEL
 62
13
 10
691.500
 20
-1328.200
 30
4727.000
 70
    32
  0
VERTEX
  8
0500LEVEL
 62
13
 10
690.300
 20
-1361.600
 30
4727.000
 70
    32
  0
VERTEX
  8
0500LEVEL
 62
13
 10
672.362
 20
-1396.421
 30
4727.000
 70
    32
  0
VERTEX
  8
0500LEVEL
 62
13
 10
688.500
 20
-1640.700
 30
4727.000
 70
    32
  0
VERTEX
  8
0500LEVEL
 62
13
 10
683.300
 20
-1651.500
 30
4727.000
 70
    32
  0
VERTEX
  8
0500LEVEL
 62
13
 10
670.300
 20
-1652.700
 30
4727.000
 70
    32
  0
VERTEX
  8
0500LEVEL
 62
13
 10
654.900
 20
-1634.000
 30
4727.000
 70
    32
  0
VERTEX
  8
0500LEVEL
 62
13
 10
622.600
 20
-1518.900
 30
4727.000
 70
    32
  0
VERTEX
  8
0500LEVEL
 62
13
 10
544.800
 20
-1346.900
 30
4727.000
 70
    32
  0
VERTEX
  8
0500LEVEL
 62
13
 10
500.100
 20
-1270.200
 30
4727.000
 70
    32
  0
VERTEX
  8
0500LEVEL
 62
13
 10
472.100
 20
-1167.100
 30
4727.000
 70
    32
  0
VERTEX
  8
0500LEVEL
 62
13
 10
456.800
 20
-1144.900
 30
4727.000
 70
    32
  0
VERTEX
  8
0500LEVEL
 62
13
 10
445.300
 20
-1146.400
 30
4727.000
 70
    32
  0
VERTEX
  8
0500LEVEL
 62
13
 10
438.200
 20
-1162.800
 30
4727.000
 70
    32
  0
VERTEX
  8
0500LEVEL
 62
13
 10
423.300
 20
-1157.700
 30
4727.000
 70
    32
  0
VERTEX
  8
0500LEVEL
 62
13
 10
379.900
 20
-1087.500
 30
4727.000
 70
    32
  0
VERTEX
  8
0500LEVEL
 62
13
 10
297.200
 20
-914.200
 30
4727.000
 70
    32
  0
VERTEX
  8
0500LEVEL
 62
13
 10
230.800
 20
-827.900
 30
4727.000
 70
    32
  0
VERTEX
  8
0500LEVEL
 62
13
 10
187.300
 20
-833.700
 30
4727.000
 70
    32
  0
VERTEX
  8
0500LEVEL
 62
13
 10
167.000
 20
-862.300
 30
4727.000
 70
    32
  0
VERTEX
  8
0500LEVEL
 62
13
 10
150.600
 20
-858.200
 30
4727.000
 70
    32
  0
VERTEX
  8
0500LEVEL
 62
13
 10
115.600
 20
-825.700
 30
4727.000
 70
    32
  0
VERTEX
  8
0500LEVEL
 62
13
 10
60.300
 20
-753.400
 30
4727.000
 70
    32
  0
VERTEX
  8
0500LEVEL
 62
13
 10
-4.800
 20
-706.400
 30
4727.000
 70
    32
  0
VERTEX
  8
0500LEVEL
 62
13
 10
-121.800
 20
-579.800
 30
4727.000
 70
    32
  0
VERTEX
  8
0500LEVEL
 62
13
 10
-209.500
 20
-451.800
 30
4727.000
 70
    32
  0
VERTEX
  8
0500LEVEL
 62
13
 10
-226.500
 20
-441.700
 30
4727.000
 70
    32
  0
VERTEX
  8
0500LEVEL
 62
13
 10
-172.200
 20
-585.000
 30
4727.000
 70
    32
  0
VERTEX
  8
0500LEVEL
 62
13
 10
-186.800
 20
-590.000
 30
4727.000
 70
    32
  0
VERTEX
  8
0500LEVEL
 62
13
 10
-176.900
 20
-637.400
 30
4727.000
 70
    32
  0
VERTEX
  8
0500LEVEL
 62
13
 10
-185.800
 20
-665.500
 30
4727.000
 70
    32
  0
VERTEX
  8
0500LEVEL
 62
13
 10
-235.500
 20
-622.400
 30
4727.000
 70
    32
  0
VERTEX
  8
0500LEVEL
 62
13
 10
-325.900
 20
-470.000
 30
4727.000
 70
    32
  0
VERTEX
  8
0500LEVEL
 62
13
 10
-353.600
 20
-402.200
 30
4727.000
 70
    32
  0
VERTEX
  8
0500LEVEL
 62
13
 10
-385.400
 20
-235.600
 30
4727.000
 70
    32
  0
VERTEX
  8
0500LEVEL
 62
13
 10
-415.100
 20
-158.100
 30
4727.000
 70
    32
  0
VERTEX
  8
0500LEVEL
 62
13
 10
-592.500
 20
125.500
 30
4727.000
 70
    32
  0
VERTEX
  8
0500LEVEL
 62
13
 10
-640.900
 20
234.600
 30
4727.000
 70
    32
  0
VERTEX
  8
0500LEVEL
 62
13
 10
-748.200
 20
416.300
 30
4727.000
 70
    32
  0
VERTEX
  8
0500LEVEL
 62
13
 10
-779.400
 20
508.300
 30
4727.000
 70
    32
  0
VERTEX
  8
0500LEVEL
 62
13
 10
-823.100
 20
581.800
 30
4727.000
 70
    32
  0
VERTEX
  8
0500LEVEL
 62
13
 10
-907.400
 20
755.600
 30
4727.000
 70
    32
  0
VERTEX
  8
0500LEVEL
 62
13
 10
-932.000
 20
787.100
 30
4727.000
 70
    32
  0
VERTEX
  8
0500LEVEL
 62
13
 10
-948.400
 20
795.900
 30
4727.000
 70
    32
  0
VERTEX
  8
0500LEVEL
 62
13
 10
-891.900
 20
651.200
 30
4727.000
 70
    32
  0
VERTEX
  8
0500LEVEL
 62
13
 10
-775.000
 20
455.300
 30
4727.000
 70
    32
  0
VERTEX
  8
0500LEVEL
 62
13
 10
-727.600
 20
339.900
 30
4727.000
 70
    32
  0
VERTEX
  8
0500LEVEL
 62
13
 10
-647.600
 20
196.300
 30
4727.000
 70
    32
  0
VERTEX
  8
0500LEVEL
 62
13
 10
-578.000
 20
-9.000
 30
4727.000
 70
    32
  0
VERTEX
  8
0500LEVEL
 62
13
 10
-494.600
 20
-137.600
 30
4727.000
 70
    32
  0
VERTEX
  8
0500LEVEL
 62
13
 10
-446.000
 20
-239.900
 30
4727.000
 70
    32
  0
VERTEX
  8
0500LEVEL
 62
13
 10
-424.900
 20
-384.100
 30
4727.000
 70
    32
  0
VERTEX
  8
0500LEVEL
 62
13
 10
-432.400
 20
-473.600
 30
4727.000
 70
    32
  0
VERTEX
  8
0500LEVEL
 62
13
 10
-329.500
 20
-741.800
 30
4727.000
 70
    32
  0
VERTEX
  8
0500LEVEL
 62
13
 10
-253.500
 20
-915.500
 30
4727.000
 70
    32
  0
VERTEX
  8
0500LEVEL
 62
13
 10
32.700
 20
-1429.600
 30
4727.000
 70
    32
  0
VERTEX
  8
0500LEVEL
 62
13
 10
447.300
 20
-1998.700
 30
4727.000
 70
    32
  0
VERTEX
  8
0500LEVEL
 62
13
 10
700.800
 20
-2394.900
 30
4727.000
 70
    32
  0
VERTEX
  8
0500LEVEL
 62
13
 10
817.500
 20
-2547.200
 30
4727.000
 70
    32
  0
VERTEX
  8
0500LEVEL
 62
13
 10
1109.499
 20
-2933.873
 30
4727.000
 70
    32
  0
VERTEX
  8
0500LEVEL
 62
13
 10
1184.200
 20
-3073.700
 30
4727.000
 70
    32
  0
VERTEX
  8
0500LEVEL
 62
13
 10
1299.779
 20
-3256.447
 30
4727.000
 70
    32
  0
VERTEX
  8
0500LEVEL
 62
13
 10
1400.718
 20
-3321.280
 30
4727.000
 70
    32
  0
VERTEX
  8
0500LEVEL
 62
13
 10
1427.800
 20
-3351.800
 30
4727.000
 70
    32
  0
VERTEX
  8
0500LEVEL
 62
13
 10
1481.700
 20
-3450.700
 30
4727.000
 70
    32
  0
VERTEX
  8
0500LEVEL
 62
13
 10
1513.800
 20
-3537.400
 30
4727.000
 70
    32
  0
VERTEX
  8
0500LEVEL
 62
13
 10
1507.100
 20
-3543.700
 30
4727.000
 70
    32
  0
VERTEX
  8
0500LEVEL
 62
13
 10
1492.100
 20
-3533.300
 30
4727.000
 70
    32
  0
VERTEX
  8
0500LEVEL
 62
13
 10
1456.000
 20
-3489.000
 30
4727.000
 70
    32
  0
VERTEX
  8
0500LEVEL
 62
13
 10
1351.261
 20
-3453.792
 30
4727.000
 70
    32
  0
VERTEX
  8
0500LEVEL
 62
13
 10
1344.700
 20
-3466.600
 30
4727.000
 70
    32
  0
VERTEX
  8
0500LEVEL
 62
13
 10
1364.300
 20
-3532.100
 30
4727.000
 70
    32
  0
VERTEX
  8
0500LEVEL
 62
13
 10
1368.600
 20
-3560.600
 30
4727.000
 70
    32
  0
VERTEX
  8
0500LEVEL
 62
13
 10
1362.600
 20
-3560.100
 30
4727.000
 70
    32
  0
VERTEX
  8
0500LEVEL
 62
13
 10
1311.343
 20
-3496.838
 30
4727.000
 70
    32
  0
VERTEX
  8
0500LEVEL
 62
13
 10
1207.562
 20
-3447.498
 30
4727.000
 70
    32
  0
VERTEX
  8
0500LEVEL
 62
13
 10
1192.200
 20
-3430.500
 30
4727.000
 70
    32
  0
VERTEX
  8
0500LEVEL
 62
13
 10
1132.100
 20
-3321.900
 30
4727.000
 70
    32
  0
VERTEX
  8
0500LEVEL
 62
13
 10
1092.500
 20
-3281.300
 30
4727.000
 70
    32
  0
VERTEX
  8
0500LEVEL
 62
13
 10
948.000
 20
-3047.000
 30
4727.000
 70
    32
  0
VERTEX
  8
0500LEVEL
 62
13
 10
871.700
 20
-2887.700
 30
4727.000
 70
    32
  0
VERTEX
  8
0500LEVEL
 62
13
 10
826.500
 20
-2816.200
 30
4727.000
 70
    32
  0
VERTEX
  8
0500LEVEL
 62
13
 10
617.100
 20
-2611.100
 30
4727.000
 70
    32
  0
VERTEX
  8
0500LEVEL
 62
13
 10
566.900
 20
-2576.200
 30
4727.000
 70
    32
  0
VERTEX
  8
0500LEVEL
 62
13
 10
558.600
 20
-2574.900
 30
4727.000
 70
    32
  0
VERTEX
  8
0500LEVEL
 62
13
 10
570.700
 20
-2620.600
 30
4727.000
 70
    32
  0
VERTEX
  8
0500LEVEL
 62
13
 10
652.800
 20
-2773.500
 30
4727.000
 70
    32
  0
VERTEX
  8
0500LEVEL
 62
13
 10
653.700
 20
-2795.000
 30
4727.000
 70
    32
  0
VERTEX
  8
0500LEVEL
 62
13
 10
649.400
 20
-2798.600
 30
4727.000
 70
    32
  0
VERTEX
  8
0500LEVEL
 62
13
 10
637.800
 20
-2786.200
 30
4727.000
 70
    32
  0
VERTEX
  8
0500LEVEL
 62
13
 10
535.600
 20
-2616.400
 30
4727.000
 70
    32
  0
VERTEX
  8
0500LEVEL
 62
13
 10
428.914
 20
-2395.305
 30
4727.000
 70
    32
  0
VERTEX
  8
0500LEVEL
 62
13
 10
206.000
 20
-1993.500
 30
4727.000
 70
    32
  0
VERTEX
  8
0500LEVEL
 62
13
 10
106.400
 20
-1826.600
 30
4727.000
 70
    32
  0
VERTEX
  8
0500LEVEL
 62
13
 10
-150.400
 20
-1443.600
 30
4727.000
 70
    32
  0
VERTEX
  8
0500LEVEL
 62
13
 10
-213.200
 20
-1319.500
 30
4727.000
 70
    32
  0
VERTEX
  8
0500LEVEL
 62
13
 10
-479.000
 20
-875.500
 30
4727.000
 70
    32
  0
VERTEX
  8
0500LEVEL
 62
13
 10
-556.900
 20
-731.200
 30
4727.000
 70
    32
  0
VERTEX
  8
0500LEVEL
 62
13
 10
-627.700
 20
-562.300
 30
4727.000
 70
    32
  0
VERTEX
  8
0500LEVEL
 62
13
 10
-711.600
 20
-389.100
 30
4727.000
 70
    32
  0
VERTEX
  8
0500LEVEL
 62
13
 10
-718.200
 20
-383.000
 30
4727.000
 70
    32
  0
VERTEX
  8
0500LEVEL
 62
13
 10
-719.900
 20
-397.300
 30
4727.000
 70
    32
  0
VERTEX
  8
0500LEVEL
 62
13
 10
-633.500
 20
-647.600
 30
4727.000
 70
    32
  0
VERTEX
  8
0500LEVEL
 62
13
 10
-594.600
 20
-728.400
 30
4727.000
 70
    32
  0
VERTEX
  8
0500LEVEL
 62
13
 10
-460.400
 20
-942.100
 30
4727.000
 70
    32
  0
VERTEX
  8
0500LEVEL
 62
13
 10
-354.100
 20
-1161.400
 30
4727.000
 70
    32
  0
VERTEX
  8
0500LEVEL
 62
13
 10
-342.300
 20
-1217.400
 30
4727.000
 70
    32
  0
VERTEX
  8
0500LEVEL
 62
13
 10
-353.200
 20
-1224.400
 30
4727.000
 70
    32
  0
VERTEX
  8
0500LEVEL
 62
13
 10
-392.500
 20
-1185.500
 30
4727.000
 70
    32
  0
VERTEX
  8
0500LEVEL
 62
13
 10
-433.400
 20
-1122.200
 30
4727.000
 70
    32
  0
VERTEX
  8
0500LEVEL
 62
13
 10
-546.900
 20
-906.000
 30
4727.000
 70
    32
  0
VERTEX
  8
0500LEVEL
 62
13
 10
-741.100
 20
-425.300
 30
4727.000
 70
    32
  0
VERTEX
  8
0500LEVEL
 62
13
 10
-748.000
 20
-421.700
 30
4727.000
 70
    32
  0
VERTEX
  8
0500LEVEL
 62
13
 10
-749.700
 20
-427.200
 30
4727.000
 70
    32
  0
VERTEX
  8
0500LEVEL
 62
13
 10
-735.300
 20
-567.500
 30
4727.000
 70
    32
  0
VERTEX
  8
0500LEVEL
 62
13
 10
-739.400
 20
-571.400
 30
4727.000
 70
    32
  0
VERTEX
  8
0500LEVEL
 62
13
 10
-748.000
 20
-560.800
 30
4727.000
 70
    32
  0
VERTEX
  8
0500LEVEL
 62
13
 10
-967.000
 20
88.100
 30
4727.000
 70
    32
  0
VERTEX
  8
0500LEVEL
 62
13
 10
-1001.800
 20
166.300
 30
4727.000
 70
    32
  0
VERTEX
  8
0500LEVEL
 62
13
 10
-1025.200
 20
257.100
 30
4727.000
 70
    32
  0
VERTEX
  8
0500LEVEL
 62
13
 10
-1200.700
 20
581.500
 30
4727.000
 70
    32
  0
VERTEX
  8
0500LEVEL
 62
13
 10
-1297.600
 20
716.700
 30
4727.000
 70
    32
  0
VERTEX
  8
0500LEVEL
 62
13
 10
-1563.600
 20
1145.000
 30
4727.000
 70
    32
  0
VERTEX
  8
0500LEVEL
 62
13
 10
-1975.300
 20
1670.200
 30
4727.000
 70
    32
  0
VERTEX
  8
0500LEVEL
 62
13
 10
-2002.684
 20
1700.870
 30
4827.000
 70
    32
  0
VERTEX
  8
0500LEVEL
 62
13
 10
-2056.252
 20
1754.382
 30
4827.000
 70
    32
  0
VERTEX
  8
0500LEVEL
 62
13
 10
-2099.899
 20
1838.282
 30
4827.000
 70
    32
  0
VERTEX
  8
0500LEVEL
 62
13
 10
-2156.359
 20
1934.169
 30
4827.000
 70
    32
  0
VERTEX
  8
0500LEVEL
 62
13
 10
-2196.882
 20
1997.911
 30
4827.000
 70
    32
  0
VERTEX
  8
0500LEVEL
 62
13
 10
-2150.311
 20
1966.862
 30
4827.000
 70
    32
  0
VERTEX
  8
0500LEVEL
 62
13
 10
-2123.940
 20
1960.628
 30
4827.000
 70
    32
  0
VERTEX
  8
0500LEVEL
 62
13
 10
-2100.876
 20
1967.537
 30
4827.000
 70
    32
  0
VERTEX
  8
0500LEVEL
 62
13
 10
-2064.615
 20
1939.494
 30
4827.000
 70
    32
  0
VERTEX
  8
0500LEVEL
 62
13
 10
-2051.595
 20
1956.914
 30
4827.000
 70
    32
  0
VERTEX
  8
0500LEVEL
 62
13
 10
-2004.406
 20
1928.025
 30
4827.000
 70
    32
  0
VERTEX
  8
0500LEVEL
 62
13
 10
-1940.885
 20
1876.738
 30
4827.000
 70
    32
  0
VERTEX
  8
0500LEVEL
 62
13
 10
-1928.575
 20
1888.490
 30
4827.000
 70
    32
  0
VERTEX
  8
0500LEVEL
 62
13
 10
-1966.600
 20
1969.927
 30
4827.000
 70
    32
  0
VERTEX
  8
0500LEVEL
 62
13
 10
-2010.619
 20
2066.471
 30
4827.000
 70
    32
  0
VERTEX
  8
0500LEVEL
 62
13
 10
-2047.857
 20
2137.709
 30
4827.000
 70
    32
  0
VERTEX
  8
0500LEVEL
 62
13
 10
-2050.935
 20
2159.620
 30
4827.000
 70
    32
  0
VERTEX
  8
0500LEVEL
 62
13
 10
-2016.394
 20
2143.696
 30
4827.000
 70
    32
  0
VERTEX
  8
0500LEVEL
 62
13
 10
-2028.689
 20
2194.347
 30
4827.000
 70
    32
  0
VERTEX
  8
0500LEVEL
 62
13
 10
-2042.801
 20
2237.254
 30
4827.000
 70
    32
  0
VERTEX
  8
0500LEVEL
 62
13
 10
-2004.031
 20
2216.587
 30
4827.000
 70
    32
  0
VERTEX
  8
0500LEVEL
 62
13
 10
-1980.773
 20
2220.191
 30
4827.000
 70
    32
  0
VERTEX
  8
0500LEVEL
 62
13
 10
-2014.309
 20
2288.033
 30
4827.000
 70
    32
  0
VERTEX
  8
0500LEVEL
 62
13
 10
-2061.558
 20
2381.855
 30
4827.000
 70
    32
  0
VERTEX
  8
0500LEVEL
 62
13
 10
-2136.988
 20
2490.521
 30
4827.000
 70
    32
  0
VERTEX
  8
0500LEVEL
 62
13
 10
-2205.451
 20
2610.587
 30
4827.000
 70
    32
  0
VERTEX
  8
0500LEVEL
 62
13
 10
-2262.464
 20
2698.767
 30
4827.000
 70
    32
  0
VERTEX
  8
0500LEVEL
 62
13
 10
-2317.439
 20
2800.441
 30
4827.000
 70
    32
  0
VERTEX
  8
0500LEVEL
 62
13
 10
-2369.470
 20
2904.636
 30
4827.000
 70
    32
  0
VERTEX
  8
0500LEVEL
 62
13
 10
-2446.234
 20
2989.120
 30
4827.000
 70
    32
  0
VERTEX
  8
0500LEVEL
 62
13
 10
-2505.847
 20
3066.417
 30
4827.000
 70
    32
  0
VERTEX
  8
0500LEVEL
 62
13
 10
-2555.292
 20
3162.121
 30
4827.000
 70
    32
  0
VERTEX
  8
0500LEVEL
 62
13
 10
-2643.461
 20
3280.245
 30
4827.000
 70
    32
  0
VERTEX
  8
0500LEVEL
 62
13
 10
-2726.781
 20
3382.449
 30
4827.000
 70
    32
  0
VERTEX
  8
0500LEVEL
 62
13
 10
-2823.662
 20
3492.237
 30
4827.000
 70
    32
  0
VERTEX
  8
0500LEVEL
 62
13
 10
-2935.771
 20
3596.807
 30
4827.000
 70
    32
  0
VERTEX
  8
0500LEVEL
 62
13
 10
-3008.861
 20
3682.177
 30
4827.000
 70
    32
  0
SEQEND
  8
0500LEVEL
  0
POLYLINE
  8
0500LEVEL
 62
13
 66
     1
 70
     8
  0
VERTEX
  8
0500LEVEL
 62
13
 10
-3359.082
 20
3428.793
 30
4827.000
 70
    32
  0
VERTEX
  8
0500LEVEL
 62
13
 10
-3322.036
 20
3347.522
 30
4827.000
 70
    32
  0
VERTEX
  8
0500LEVEL
 62
13
 10
-3243.345
 20
3180.930
 30
4827.000
 70
    32
  0
VERTEX
  8
0500LEVEL
 62
13
 10
-3186.530
 20
3066.362
 30
4827.000
 70
    32
  0
VERTEX
  8
0500LEVEL
 62
13
 10
-3107.138
 20
2945.448
 30
4827.000
 70
    32
  0
VERTEX
  8
0500LEVEL
 62
13
 10
-3011.034
 20
2792.510
 30
4827.000
 70
    32
  0
VERTEX
  8
0500LEVEL
 62
13
 10
-2932.085
 20
2630.404
 30
4827.000
 70
    32
  0
VERTEX
  8
0500LEVEL
 62
13
 10
-2835.160
 20
2479.340
 30
4827.000
 70
    32
  0
VERTEX
  8
0500LEVEL
 62
13
 10
-2784.616
 20
2382.695
 30
4827.000
 70
    32
  0
VERTEX
  8
0500LEVEL
 62
13
 10
-2741.427
 20
2281.259
 30
4827.000
 70
    32
  0
VERTEX
  8
0500LEVEL
 62
13
 10
-2672.783
 20
2181.544
 30
4827.000
 70
    32
  0
VERTEX
  8
0500LEVEL
 62
13
 10
-2592.020
 20
2083.548
 30
4827.000
 70
    32
  0
VERTEX
  8
0500LEVEL
 62
13
 10
-2477.291
 20
1939.531
 30
4827.000
 70
    32
  0
VERTEX
  8
0500LEVEL
 62
13
 10
-2396.460
 20
1822.651
 30
4827.000
 70
    32
  0
VERTEX
  8
0500LEVEL
 62
13
 10
-2301.937
 20
1687.093
 30
4827.000
 70
    32
  0
VERTEX
  8
0500LEVEL
 62
13
 10
-2244.070
 20
1612.859
 30
4827.000
 70
    32
  0
VERTEX
  8
0500LEVEL
 62
13
 10
-2216.386
 20
1552.049
 30
4827.000
 70
    32
  0
VERTEX
  8
0500LEVEL
 62
13
 10
-2216.436
 20
1503.481
 30
4727.000
 70
    32
  0
VERTEX
  8
0500LEVEL
 62
13
 10
-2186.673
 20
1416.954
 30
4727.000
 70
    32
  0
VERTEX
  8
0500LEVEL
 62
13
 10
-2156.910
 20
1303.388
 30
4727.000
 70
    32
  0
VERTEX
  8
0500LEVEL
 62
13
 10
-2081.700
 20
1121.500
 30
4727.000
 70
    32
  0
VERTEX
  8
0500LEVEL
 62
13
 10
-2071.100
 20
1082.000
 30
4727.000
 70
    32
  0
VERTEX
  8
0500LEVEL
 62
13
 10
-2080.900
 20
1084.800
 30
4727.000
 70
    32
  0
VERTEX
  8
0500LEVEL
 62
13
 10
-2292.196
 20
1476.442
 30
4727.000
 70
    32
  0
VERTEX
  8
0500LEVEL
 62
13
 10
-2303.928
 20
1489.896
 30
4827.000
 70
    32
  0
VERTEX
  8
0500LEVEL
 62
13
 10
-2358.595
 20
1571.136
 30
4827.000
 70
    32
  0
VERTEX
  8
0500LEVEL
 62
13
 10
-2430.159
 20
1690.722
 30
4827.000
 70
    32
  0
VERTEX
  8
0500LEVEL
 62
13
 10
-2517.390
 20
1823.282
 30
4827.000
 70
    32
  0
VERTEX
  8
0500LEVEL
 62
13
 10
-2609.393
 20
1955.896
 30
4827.000
 70
    32
  0
VERTEX
  8
0500LEVEL
 62
13
 10
-2707.835
 20
2075.763
 30
4827.000
 70
    32
  0
VERTEX
  8
0500LEVEL
 62
13
 10
-2769.525
 20
2154.167
 30
4827.000
 70
    32
  0
VERTEX
  8
0500LEVEL
 62
13
 10
-2827.881
 20
2271.513
 30
4827.000
 70
    32
  0
VERTEX
  8
0500LEVEL
 62
13
 10
-2874.259
 20
2398.654
 30
4827.000
 70
    32
  0
VERTEX
  8
0500LEVEL
 62
13
 10
-2935.606
 20
2511.726
 30
4827.000
 70
    32
  0
VERTEX
  8
0500LEVEL
 62
13
 10
-3011.808
 20
2606.935
 30
4827.000
 70
    32
  0
VERTEX
  8
0500LEVEL
 62
13
 10
-3099.780
 20
2708.418
 30
4827.000
 70
    32
  0
VERTEX
  8
0500LEVEL
 62
13
 10
-3200.615
 20
2790.441
 30
4827.000
 70
    32
  0
VERTEX
  8
0500LEVEL
 62
13
 10
-3285.120
 20
2863.405
 30
4827.000
 70
    32
  0
VERTEX
  8
0500LEVEL
 62
13
 10
-3233.958
 20
2768.920
 30
4827.000
 70
    32
  0
VERTEX
  8
0500LEVEL
 62
13
 10
-3134.068
 20
2613.075
 30
4827.000
 70
    32
  0
VERTEX
  8
0500LEVEL
 62
13
 10
-3031.309
 20
2462.280
 30
4827.000
 70
    32
  0
VERTEX
  8
0500LEVEL
 62
13
 10
-2950.630
 20
2320.766
 30
4827.000
 70
    32
  0
VERTEX
  8
0500LEVEL
 62
13
 10
-2881.314
 20
2184.954
 30
4827.000
 70
    32
  0
VERTEX
  8
0500LEVEL
 62
13
 10
-2843.178
 20
2056.694
 30
4827.000
 70
    32
  0
VERTEX
  8
0500LEVEL
 62
13
 10
-2808.269
 20
1912.374
 30
4827.000
 70
    32
  0
VERTEX
  8
0500LEVEL
 62
13
 10
-2773.345
 20
1787.427
 30
4827.000
 70
    32
  0
VERTEX
  8
0500LEVEL
 62
13
 10
-2726.589
 20
1707.026
 30
4827.000
 70
    32
  0
VERTEX
  8
0500LEVEL
 62
13
 10
-2673.567
 20
1635.376
 30
4827.000
 70
    32
  0
VERTEX
  8
0500LEVEL
 62
13
 10
-2645.772
 20
1570.773
 30
4827.000
 70
    32
  0
VERTEX
  8
0500LEVEL
 62
13
 10
-2684.405
 20
1596.701
 30
4827.000
 70
    32
  0
VERTEX
  8
0500LEVEL
 62
13
 10
-2730.123
 20
1655.033
 30
4827.000
 70
    32
  0
VERTEX
  8
0500LEVEL
 62
13
 10
-2769.344
 20
1674.519
 30
4827.000
 70
    32
  0
VERTEX
  8
0500LEVEL
 62
13
 10
-2741.624
 20
1612.444
 30
4827.000
 70
    32
  0
VERTEX
  8
0500LEVEL
 62
13
 10
-2668.931
 20
1530.664
 30
4827.000
 70
    32
  0
VERTEX
  8
0500LEVEL
 62
13
 10
-2589.287
 20
1440.911
 30
4827.000
 70
    32
  0
VERTEX
  8
0500LEVEL
 62
13
 10
-2516.211
 20
1336.167
 30
4827.000
 70
    32
  0
VERTEX
  8
0500LEVEL
 62
13
 10
-2500.800
 20
1322.400
 30
4727.000
 70
    32
  0
VERTEX
  8
0500LEVEL
 62
13
 10
-2416.600
 20
1185.000
 30
4727.000
 70
    32
  0
VERTEX
  8
0500LEVEL
 62
13
 10
-2324.900
 20
1011.700
 30
4727.000
 70
    32
  0
VERTEX
  8
0500LEVEL
 62
13
 10
-2361.500
 20
1032.300
 30
4727.000
 70
    32
  0
VERTEX
  8
0500LEVEL
 62
13
 10
-2391.900
 20
1060.800
 30
4727.000
 70
    32
  0
VERTEX
  8
0500LEVEL
 62
13
 10
-2570.886
 20
1270.941
 30
4727.000
 70
    32
  0
VERTEX
  8
0500LEVEL
 62
13
 10
-2586.293
 20
1289.422
 30
4827.000
 70
    32
  0
VERTEX
  8
0500LEVEL
 62
13
 10
-2631.522
 20
1347.671
 30
4827.000
 70
    32
  0
VERTEX
  8
0500LEVEL
 62
13
 10
-2702.029
 20
1437.888
 30
4827.000
 70
    32
  0
VERTEX
  8
0500LEVEL
 62
13
 10
-2774.390
 20
1521.625
 30
4827.000
 70
    32
  0
VERTEX
  8
0500LEVEL
 62
13
 10
-2847.954
 20
1626.452
 30
4827.000
 70
    32
  0
VERTEX
  8
0500LEVEL
 62
13
 10
-2908.254
 20
1720.474
 30
4827.000
 70
    32
  0
VERTEX
  8
0500LEVEL
 62
13
 10
-2964.230
 20
1842.952
 30
4827.000
 70
    32
  0
VERTEX
  8
0500LEVEL
 62
13
 10
-2992.414
 20
1957.193
 30
4827.000
 70
    32
  0
VERTEX
  8
0500LEVEL
 62
13
 10
-3007.211
 20
2059.854
 30
4827.000
 70
    32
  0
VERTEX
  8
0500LEVEL
 62
13
 10
-3063.769
 20
2178.908
 30
4827.000
 70
    32
  0
VERTEX
  8
0500LEVEL
 62
13
 10
-3129.226
 20
2266.255
 30
4827.000
 70
    32
  0
VERTEX
  8
0500LEVEL
 62
13
 10
-3188.756
 20
2301.012
 30
4827.000
 70
    32
  0
VERTEX
  8
0500LEVEL
 62
13
 10
-3234.118
 20
2284.297
 30
4827.000
 70
    32
  0
VERTEX
  8
0500LEVEL
 62
13
 10
-3270.874
 20
2253.037
 30
4827.000
 70
    32
  0
VERTEX
  8
0500LEVEL
 62
13
 10
-3302.958
 20
2258.227
 30
4827.000
 70
    32
  0
VERTEX
  8
0500LEVEL
 62
13
 10
-3341.038
 20
2248.832
 30
4827.000
 70
    32
  0
VERTEX
  8
0500LEVEL
 62
13
 10
-3379.845
 20
2313.794
 30
4827.000
 70
    32
  0
VERTEX
  8
0500LEVEL
 62
13
 10
-3438.568
 20
2417.110
 30
4827.000
 70
    32
  0
VERTEX
  8
0500LEVEL
 62
13
 10
-3484.025
 20
2509.621
 30
4827.000
 70
    32
  0
VERTEX
  8
0500LEVEL
 62
13
 10
-3521.489
 20
2601.783
 30
4827.000
 70
    32
  0
VERTEX
  8
0500LEVEL
 62
13
 10
-3545.242
 20
2667.965
 30
4827.000
 70
    32
  0
VERTEX
  8
0500LEVEL
 62
13
 10
-3576.716
 20
2758.356
 30
4827.000
 70
    32
  0
VERTEX
  8
0500LEVEL
 62
13
 10
-3625.088
 20
2844.064
 30
4827.000
 70
    32
  0
VERTEX
  8
0500LEVEL
 62
13
 10
-3673.836
 20
2912.724
 30
4827.000
 70
    32
  0
VERTEX
  8
0500LEVEL
 62
13
 10
-3715.689
 20
2981.976
 30
4827.000
 70
    32
  0
VERTEX
  8
0500LEVEL
 62
13
 10
-3750.293
 20
3033.140
 30
4827.000
 70
    32
  0
VERTEX
  8
0500LEVEL
 62
13
 10
-3749.730
 20
2987.498
 30
4827.000
 70
    32
  0
VERTEX
  8
0500LEVEL
 62
13
 10
-3727.419
 20
2930.619
 30
4827.000
 70
    32
  0
VERTEX
  8
0500LEVEL
 62
13
 10
-3706.184
 20
2854.043
 30
4827.000
 70
    32
  0
VERTEX
  8
0500LEVEL
 62
13
 10
-3680.898
 20
2782.065
 30
4827.000
 70
    32
  0
VERTEX
  8
0500LEVEL
 62
13
 10
-3637.981
 20
2699.798
 30
4827.000
 70
    32
  0
VERTEX
  8
0500LEVEL
 62
13
 10
-3598.377
 20
2614.320
 30
4827.000
 70
    32
  0
VERTEX
  8
0500LEVEL
 62
13
 10
-3565.698
 20
2545.868
 30
4827.000
 70
    32
  0
VERTEX
  8
0500LEVEL
 62
13
 10
-3556.330
 20
2498.733
 30
4827.000
 70
    32
  0
VERTEX
  8
0500LEVEL
 62
13
 10
-3598.131
 20
2543.065
 30
4827.000
 70
    32
  0
VERTEX
  8
0500LEVEL
 62
13
 10
-3629.665
 20
2612.329
 30
4827.000
 70
    32
  0
VERTEX
  8
0500LEVEL
 62
13
 10
-3655.383
 20
2675.825
 30
4827.000
 70
    32
  0
VERTEX
  8
0500LEVEL
 62
13
 10
-3692.494
 20
2706.276
 30
4827.000
 70
    32
  0
VERTEX
  8
0500LEVEL
 62
13
 10
-3668.329
 20
2655.877
 30
4827.000
 70
    32
  0
VERTEX
  8
0500LEVEL
 62
13
 10
-3654.580
 20
2628.633
 30
4827.000
 70
    32
  0
VERTEX
  8
0500LEVEL
 62
13
 10
-3629.108
 20
2550.332
 30
4827.000
 70
    32
  0
VERTEX
  8
0500LEVEL
 62
13
 10
-3607.916
 20
2458.665
 30
4827.000
 70
    32
  0
VERTEX
  8
0500LEVEL
 62
13
 10
-3586.479
 20
2338.774
 30
4827.000
 70
    32
  0
VERTEX
  8
0500LEVEL
 62
13
 10
-3553.844
 20
2212.202
 30
4827.000
 70
    32
  0
VERTEX
  8
0500LEVEL
 62
13
 10
-3521.764
 20
2091.260
 30
4827.000
 70
    32
  0
VERTEX
  8
0500LEVEL
 62
13
 10
-3483.720
 20
1959.493
 30
4827.000
 70
    32
  0
VERTEX
  8
0500LEVEL
 62
13
 10
-3423.992
 20
1865.066
 30
4827.000
 70
    32
  0
VERTEX
  8
0500LEVEL
 62
13
 10
-3352.748
 20
1776.233
 30
4827.000
 70
    32
  0
VERTEX
  8
0500LEVEL
 62
13
 10
-3272.179
 20
1681.542
 30
4827.000
 70
    32
  0
VERTEX
  8
0500LEVEL
 62
13
 10
-3200.883
 20
1610.819
 30
4827.000
 70
    32
  0
VERTEX
  8
0500LEVEL
 62
13
 10
-3130.831
 20
1532.758
 30
4827.000
 70
    32
  0
VERTEX
  8
0500LEVEL
 62
13
 10
-3064.587
 20
1435.212
 30
4827.000
 70
    32
  0
VERTEX
  8
0500LEVEL
 62
13
 10
-3008.905
 20
1352.542
 30
4827.000
 70
    32
  0
VERTEX
  8
0500LEVEL
 62
13
 10
-2955.334
 20
1258.907
 30
4827.000
 70
    32
  0
VERTEX
  8
0500LEVEL
 62
13
 10
-3003.438
 20
1295.752
 30
4827.000
 70
    32
  0
VERTEX
  8
0500LEVEL
 62
13
 10
-3061.592
 20
1369.782
 30
4827.000
 70
    32
  0
VERTEX
  8
0500LEVEL
 62
13
 10
-3144.555
 20
1482.997
 30
4827.000
 70
    32
  0
VERTEX
  8
0500LEVEL
 62
13
 10
-3218.077
 20
1559.885
 30
4827.000
 70
    32
  0
VERTEX
  8
0500LEVEL
 62
13
 10
-3297.041
 20
1616.559
 30
4827.000
 70
    32
  0
VERTEX
  8
0500LEVEL
 62
13
 10
-3367.662
 20
1680.877
 30
4827.000
 70
    32
  0
VERTEX
  8
0500LEVEL
 62
13
 10
-3417.034
 20
1731.022
 30
4827.000
 70
    32
  0
VERTEX
  8
0500LEVEL
 62
13
 10
-3471.746
 20
1767.478
 30
4827.000
 70
    32
  0
VERTEX
  8
0500LEVEL
 62
13
 10
-3444.692
 20
1714.827
 30
4827.000
 70
    32
  0
VERTEX
  8
0500LEVEL
 62
13
 10
-3445.951
 20
1688.116
 30
4827.000
 70
    32
  0
VERTEX
  8
0500LEVEL
 62
13
 10
-3502.152
 20
1732.121
 30
4827.000
 70
    32
  0
VERTEX
  8
0500LEVEL
 62
13
 10
-3575.062
 20
1794.814
 30
4827.000
 70
    32
  0
VERTEX
  8
0500LEVEL
 62
13
 10
-3628.447
 20
1839.097
 30
4827.000
 70
    32
  0
VERTEX
  8
0500LEVEL
 62
13
 10
-3664.284
 20
1872.604
 30
4827.000
 70
    32
  0
VERTEX
  8
0500LEVEL
 62
13
 10
-3644.105
 20
1812.060
 30
4827.000
 70
    32
  0
VERTEX
  8
0500LEVEL
 62
13
 10
-3591.890
 20
1714.880
 30
4827.000
 70
    32
  0
VERTEX
  8
0500LEVEL
 62
13
 10
-3558.811
 20
1629.501
 30
4827.000
 70
    32
  0
VERTEX
  8
0500LEVEL
 62
13
 10
-3528.636
 20
1570.030
 30
4827.000
 70
    32
  0
VERTEX
  8
0500LEVEL
 62
13
 10
-3587.772
 20
1614.534
 30
4827.000
 70
    32
  0
VERTEX
  8
0500LEVEL
 62
13
 10
-3638.153
 20
1682.465
 30
4827.000
 70
    32
  0
VERTEX
  8
0500LEVEL
 62
13
 10
-3665.683
 20
1668.513
 30
4827.000
 70
    32
  0
VERTEX
  8
0500LEVEL
 62
13
 10
-3623.752
 20
1583.394
 30
4827.000
 70
    32
  0
VERTEX
  8
0500LEVEL
 62
13
 10
-3596.289
 20
1516.834
 30
4827.000
 70
    32
  0
VERTEX
  8
0500LEVEL
 62
13
 10
-3586.349
 20
1470.105
 30
4827.000
 70
    32
  0
VERTEX
  8
0500LEVEL
 62
13
 10
-3631.703
 20
1512.775
 30
4827.000
 70
    32
  0
VERTEX
  8
0500LEVEL
 62
13
 10
-3657.228
 20
1529.937
 30
4827.000
 70
    32
  0
VERTEX
  8
0500LEVEL
 62
13
 10
-3632.016
 20
1460.488
 30
4827.000
 70
    32
  0
VERTEX
  8
0500LEVEL
 62
13
 10
-3606.450
 20
1372.357
 30
4827.000
 70
    32
  0
VERTEX
  8
0500LEVEL
 62
13
 10
-3589.074
 20
1258.187
 30
4827.000
 70
    32
  0
VERTEX
  8
0500LEVEL
 62
13
 10
-3555.143
 20
1157.063
 30
4827.000
 70
    32
  0
VERTEX
  8
0500LEVEL
 62
13
 10
-3492.350
 20
1051.043
 30
4827.000
 70
    32
  0
VERTEX
  8
0500LEVEL
 62
13
 10
-3421.963
 20
961.601
 30
4827.000
 70
    32
  0
VERTEX
  8
0500LEVEL
 62
13
 10
-3368.298
 20
901.166
 30
4827.000
 70
    32
  0
SEQEND
  8
0500LEVEL
  0
POLYLINE
  8
0500LEVEL
 62
7
 66
     1
 70
     8
  0
VERTEX
  8
0500LEVEL
 62
7
 10
964.600
 20
-513.200
 30
4727.000
 70
    32
  0
VERTEX
  8
0500LEVEL
 62
7
 10
1024.400
 20
-597.200
 30
4727.000
 70
    32
  0
VERTEX
  8
0500LEVEL
 62
7
 10
1022.600
 20
-650.400
 30
4727.000
 70
    32
  0
VERTEX
  8
0500LEVEL
 62
7
 10
1039.100
 20
-711.600
 30
4727.000
 70
    32
  0
VERTEX
  8
0500LEVEL
 62
7
 10
1196.500
 20
-863.300
 30
4727.000
 70
    32
  0
VERTEX
  8
0500LEVEL
 62
7
 10
1209.100
 20
-902.600
 30
4727.000
 70
    32
  0
VERTEX
  8
0500LEVEL
 62
7
 10
1217.700
 20
-995.100
 30
4727.000
 70
    32
  0
VERTEX
  8
0500LEVEL
 62
7
 10
1207.800
 20
-1004.100
 30
4727.000
 70
    32
  0
VERTEX
  8
0500LEVEL
 62
7
 10
1158.200
 20
-1012.100
 30
4727.000
 70
    32
  0
VERTEX
  8
0500LEVEL
 62
7
 10
1155.600
 20
-1022.200
 30
4727.000
 70
    32
  0
VERTEX
  8
0500LEVEL
 62
7
 10
1219.400
 20
-1070.600
 30
4727.000
 70
    32
  0
VERTEX
  8
0500LEVEL
 62
7
 10
1279.100
 20
-1192.200
 30
4727.000
 70
    32
  0
VERTEX
  8
0500LEVEL
 62
7
 10
1314.800
 20
-1320.800
 30
4727.000
 70
    32
  0
VERTEX
  8
0500LEVEL
 62
7
 10
1365.300
 20
-1400.600
 30
4727.000
 70
    32
  0
VERTEX
  8
0500LEVEL
 62
7
 10
1359.000
 20
-1421.700
 30
4727.000
 70
    32
  0
VERTEX
  8
0500LEVEL
 62
7
 10
1342.200
 20
-1429.600
 30
4727.000
 70
    32
  0
VERTEX
  8
0500LEVEL
 62
7
 10
1322.600
 20
-1424.700
 30
4727.000
 70
    32
  0
VERTEX
  8
0500LEVEL
 62
7
 10
1271.100
 20
-1384.300
 30
4727.000
 70
    32
  0
VERTEX
  8
0500LEVEL
 62
7
 10
1198.100
 20
-1256.400
 30
4727.000
 70
    32
  0
VERTEX
  8
0500LEVEL
 62
7
 10
1151.900
 20
-1207.300
 30
4727.000
 70
    32
  0
VERTEX
  8
0500LEVEL
 62
7
 10
1227.400
 20
-1332.200
 30
4727.000
 70
    32
  0
VERTEX
  8
0500LEVEL
 62
7
 10
1253.600
 20
-1427.000
 30
4727.000
 70
    32
  0
VERTEX
  8
0500LEVEL
 62
7
 10
1280.400
 20
-1491.100
 30
4727.000
 70
    32
  0
VERTEX
  8
0500LEVEL
 62
7
 10
1306.685
 20
-1597.986
 30
4727.000
 70
    32
  0
VERTEX
  8
0500LEVEL
 62
7
 10
1307.400
 20
-1786.400
 30
4727.000
 70
    32
  0
VERTEX
  8
0500LEVEL
 62
7
 10
1295.140
 20
-1811.682
 30
4727.000
 70
    32
  0
VERTEX
  8
0500LEVEL
 62
7
 10
1310.000
 20
-1856.000
 30
4727.000
 70
    32
  0
VERTEX
  8
0500LEVEL
 62
7
 10
1317.600
 20
-1922.900
 30
4727.000
 70
    32
  0
VERTEX
  8
0500LEVEL
 62
7
 10
1315.900
 20
-1999.500
 30
4727.000
 70
    32
  0
VERTEX
  8
0500LEVEL
 62
7
 10
1299.200
 20
-2116.200
 30
4727.000
 70
    32
  0
VERTEX
  8
0500LEVEL
 62
7
 10
1289.300
 20
-2145.400
 30
4727.000
 70
    32
  0
VERTEX
  8
0500LEVEL
 62
7
 10
1266.500
 20
-2146.900
 30
4727.000
 70
    32
  0
VERTEX
  8
0500LEVEL
 62
7
 10
1196.900
 20
-2076.400
 30
4727.000
 70
    32
  0
VERTEX
  8
0500LEVEL
 62
7
 10
1163.800
 20
-2002.500
 30
4727.000
 70
    32
  0
VERTEX
  8
0500LEVEL
 62
7
 10
1142.000
 20
-1977.300
 30
4727.000
 70
    32
  0
VERTEX
  8
0500LEVEL
 62
7
 10
1075.216
 20
-1764.129
 30
4727.000
 70
    32
  0
VERTEX
  8
0500LEVEL
 62
7
 10
1055.000
 20
-1738.700
 30
4727.000
 70
    32
  0
VERTEX
  8
0500LEVEL
 62
7
 10
1026.300
 20
-1658.300
 30
4727.000
 70
    32
  0
VERTEX
  8
0500LEVEL
 62
7
 10
1012.100
 20
-1644.800
 30
4727.000
 70
    32
  0
VERTEX
  8
0500LEVEL
 62
7
 10
1014.500
 20
-1733.100
 30
4727.000
 70
    32
  0
VERTEX
  8
0500LEVEL
 62
7
 10
1076.700
 20
-2007.200
 30
4727.000
 70
    32
  0
VERTEX
  8
0500LEVEL
 62
7
 10
1069.500
 20
-2019.300
 30
4727.000
 70
    32
  0
VERTEX
  8
0500LEVEL
 62
7
 10
756.978
 20
-1905.999
 30
4727.000
 70
    32
  0
VERTEX
  8
0500LEVEL
 62
7
 10
739.200
 20
-1899.300
 30
4727.000
 70
    32
  0
VERTEX
  8
0500LEVEL
 62
7
 10
696.800
 20
-1792.400
 30
4727.000
 70
    32
  0
VERTEX
  8
0500LEVEL
 62
7
 10
664.000
 20
-1747.400
 30
4727.000
 70
    32
  0
VERTEX
  8
0500LEVEL
 62
7
 10
638.100
 20
-1725.600
 30
4727.000
 70
    32
  0
VERTEX
  8
0500LEVEL
 62
7
 10
602.500
 20
-1669.600
 30
4727.000
 70
    32
  0
VERTEX
  8
0500LEVEL
 62
7
 10
595.700
 20
-1647.300
 30
4727.000
 70
    32
  0
VERTEX
  8
0500LEVEL
 62
7
 10
601.500
 20
-1581.500
 30
4727.000
 70
    32
  0
VERTEX
  8
0500LEVEL
 62
7
 10
530.700
 20
-1406.100
 30
4727.000
 70
    32
  0
VERTEX
  8
0500LEVEL
 62
7
 10
508.900
 20
-1375.600
 30
4727.000
 70
    32
  0
VERTEX
  8
0500LEVEL
 62
7
 10
500.600
 20
-1385.600
 30
4727.000
 70
    32
  0
VERTEX
  8
0500LEVEL
 62
7
 10
482.400
 20
-1362.400
 30
4727.000
 70
    32
  0
VERTEX
  8
0500LEVEL
 62
7
 10
466.200
 20
-1358.700
 30
4727.000
 70
    32
  0
VERTEX
  8
0500LEVEL
 62
7
 10
461.400
 20
-1371.700
 30
4727.000
 70
    32
  0
VERTEX
  8
0500LEVEL
 62
7
 10
450.500
 20
-1368.000
 30
4727.000
 70
    32
  0
VERTEX
  8
0500LEVEL
 62
7
 10
397.100
 20
-1260.900
 30
4727.000
 70
    32
  0
VERTEX
  8
0500LEVEL
 62
7
 10
349.000
 20
-1208.000
 30
4727.000
 70
    32
  0
VERTEX
  8
0500LEVEL
 62
7
 10
345.100
 20
-1224.700
 30
4727.000
 70
    32
  0
VERTEX
  8
0500LEVEL
 62
7
 10
390.000
 20
-1346.200
 30
4727.000
 70
    32
  0
VERTEX
  8
0500LEVEL
 62
7
 10
374.000
 20
-1410.400
 30
4727.000
 70
    32
  0
VERTEX
  8
0500LEVEL
 62
7
 10
400.800
 20
-1516.000
 30
4727.000
 70
    32
  0
VERTEX
  8
0500LEVEL
 62
7
 10
426.000
 20
-1579.100
 30
4727.000
 70
    32
  0
VERTEX
  8
0500LEVEL
 62
7
 10
419.300
 20
-1605.600
 30
4727.000
 70
    32
  0
VERTEX
  8
0500LEVEL
 62
7
 10
462.500
 20
-1736.700
 30
4727.000
 70
    32
  0
VERTEX
  8
0500LEVEL
 62
7
 10
497.300
 20
-1783.200
 30
4727.000
 70
    32
  0
VERTEX
  8
0500LEVEL
 62
7
 10
430.700
 20
-1731.700
 30
4727.000
 70
    32
  0
VERTEX
  8
0500LEVEL
 62
7
 10
373.400
 20
-1650.800
 30
4727.000
 70
    32
  0
VERTEX
  8
0500LEVEL
 62
7
 10
330.700
 20
-1510.400
 30
4727.000
 70
    32
  0
VERTEX
  8
0500LEVEL
 62
7
 10
275.100
 20
-1427.000
 30
4727.000
 70
    32
  0
VERTEX
  8
0500LEVEL
 62
7
 10
217.500
 20
-1226.800
 30
4727.000
 70
    32
  0
VERTEX
  8
0500LEVEL
 62
7
 10
137.500
 20
-1076.700
 30
4727.000
 70
    32
  0
VERTEX
  8
0500LEVEL
 62
7
 10
125.300
 20
-1068.300
 30
4727.000
 70
    32
  0
VERTEX
  8
0500LEVEL
 62
7
 10
119.300
 20
-1089.100
 30
4727.000
 70
    32
  0
VERTEX
  8
0500LEVEL
 62
7
 10
139.500
 20
-1180.500
 30
4727.000
 70
    32
  0
VERTEX
  8
0500LEVEL
 62
7
 10
238.800
 20
-1359.400
 30
4727.000
 70
    32
  0
VERTEX
  8
0500LEVEL
 62
7
 10
275.500
 20
-1458.400
 30
4727.000
 70
    32
  0
VERTEX
  8
0500LEVEL
 62
7
 10
320.800
 20
-1527.600
 30
4727.000
 70
    32
  0
VERTEX
  8
0500LEVEL
 62
7
 10
318.900
 20
-1533.300
 30
4727.000
 70
    32
  0
VERTEX
  8
0500LEVEL
 62
7
 10
309.900
 20
-1529.900
 30
4727.000
 70
    32
  0
VERTEX
  8
0500LEVEL
 62
7
 10
249.400
 20
-1468.300
 30
4727.000
 70
    32
  0
VERTEX
  8
0500LEVEL
 62
7
 10
174.400
 20
-1353.600
 30
4727.000
 70
    32
  0
VERTEX
  8
0500LEVEL
 62
7
 10
166.300
 20
-1353.800
 30
4727.000
 70
    32
  0
VERTEX
  8
0500LEVEL
 62
7
 10
163.600
 20
-1388.700
 30
4727.000
 70
    32
  0
VERTEX
  8
0500LEVEL
 62
7
 10
155.200
 20
-1381.400
 30
4727.000
 70
    32
  0
VERTEX
  8
0500LEVEL
 62
7
 10
126.500
 20
-1347.300
 30
4727.000
 70
    32
  0
VERTEX
  8
0500LEVEL
 62
7
 10
110.900
 20
-1307.600
 30
4727.000
 70
    32
  0
VERTEX
  8
0500LEVEL
 62
7
 10
6.300
 20
-1124.300
 30
4727.000
 70
    32
  0
VERTEX
  8
0500LEVEL
 62
7
 10
-41.500
 20
-981.000
 30
4727.000
 70
    32
  0
VERTEX
  8
0500LEVEL
 62
7
 10
-70.200
 20
-938.700
 30
4727.000
 70
    32
  0
VERTEX
  8
0500LEVEL
 62
7
 10
-132.300
 20
-893.900
 30
4727.000
 70
    32
  0
VERTEX
  8
0500LEVEL
 62
7
 10
-196.500
 20
-810.700
 30
4727.000
 70
    32
  0
VERTEX
  8
0500LEVEL
 62
7
 10
-269.700
 20
-646.100
 30
4727.000
 70
    32
  0
VERTEX
  8
0500LEVEL
 62
7
 10
-318.900
 20
-571.500
 30
4727.000
 70
    32
  0
VERTEX
  8
0500LEVEL
 62
7
 10
-319.400
 20
-561.400
 30
4727.000
 70
    32
  0
VERTEX
  8
0500LEVEL
 62
7
 10
-301.700
 20
-575.000
 30
4727.000
 70
    32
  0
VERTEX
  8
0500LEVEL
 62
7
 10
-315.300
 20
-537.300
 30
4727.000
 70
    32
  0
VERTEX
  8
0500LEVEL
 62
7
 10
-409.100
 20
-383.800
 30
4727.000
 70
    32
  0
VERTEX
  8
0500LEVEL
 62
7
 10
-419.300
 20
-413.700
 30
4727.000
 70
    32
  0
VERTEX
  8
0500LEVEL
 62
7
 10
-421.300
 20
-460.300
 30
4727.000
 70
    32
  0
VERTEX
  8
0500LEVEL
 62
7
 10
-412.500
 20
-506.300
 30
4727.000
 70
    32
  0
VERTEX
  8
0500LEVEL
 62
7
 10
-363.600
 20
-632.700
 30
4727.000
 70
    32
  0
VERTEX
  8
0500LEVEL
 62
7
 10
-242.000
 20
-904.600
 30
4727.000
 70
    32
  0
VERTEX
  8
0500LEVEL
 62
7
 10
-135.500
 20
-1061.300
 30
4727.000
 70
    32
  0
VERTEX
  8
0500LEVEL
 62
7
 10
-96.900
 20
-1151.000
 30
4727.000
 70
    32
  0
VERTEX
  8
0500LEVEL
 62
7
 10
78.800
 20
-1466.200
 30
4727.000
 70
    32
  0
VERTEX
  8
0500LEVEL
 62
7
 10
419.300
 20
-1934.200
 30
4727.000
 70
    32
  0
VERTEX
  8
0500LEVEL
 62
7
 10
826.087
 20
-2539.085
 30
4727.000
 70
    32
  0
VERTEX
  8
0500LEVEL
 62
7
 10
1103.314
 20
-2908.948
 30
4727.000
 70
    32
  0
VERTEX
  8
0500LEVEL
 62
7
 10
1258.400
 20
-3156.400
 30
4727.000
 70
    32
  0
VERTEX
  8
0500LEVEL
 62
7
 10
1289.138
 20
-3197.610
 30
4727.000
 70
    32
  0
VERTEX
  8
0500LEVEL
 62
7
 10
1377.947
 20
-3236.474
 30
4727.000
 70
    32
  0
VERTEX
  8
0500LEVEL
 62
7
 10
1415.700
 20
-3284.800
 30
4727.000
 70
    32
  0
VERTEX
  8
0500LEVEL
 62
7
 10
1574.100
 20
-3563.700
 30
4727.000
 70
    32
  0
VERTEX
  8
0500LEVEL
 62
7
 10
1633.200
 20
-3713.000
 30
4727.000
 70
    32
  0
VERTEX
  8
0500LEVEL
 62
7
 10
1631.900
 20
-3738.600
 30
4727.000
 70
    32
  0
VERTEX
  8
0500LEVEL
 62
7
 10
1618.300
 20
-3742.000
 30
4727.000
 70
    32
  0
VERTEX
  8
0500LEVEL
 62
7
 10
1525.700
 20
-3647.100
 30
4727.000
 70
    32
  0
VERTEX
  8
0500LEVEL
 62
7
 10
1512.200
 20
-3661.200
 30
4727.000
 70
    32
  0
VERTEX
  8
0500LEVEL
 62
7
 10
1523.500
 20
-3720.600
 30
4727.000
 70
    32
  0
VERTEX
  8
0500LEVEL
 62
7
 10
1516.422
 20
-3728.115
 30
4727.000
 70
    32
  0
VERTEX
  8
0500LEVEL
 62
7
 10
1429.481
 20
-3694.832
 30
4727.000
 70
    32
  0
VERTEX
  8
0500LEVEL
 62
7
 10
1422.100
 20
-3714.800
 30
4727.000
 70
    32
  0
VERTEX
  8
0500LEVEL
 62
7
 10
1399.979
 20
-3712.964
 30
4727.000
 70
    32
  0
VERTEX
  8
0500LEVEL
 62
7
 10
1317.749
 20
-3679.251
 30
4727.000
 70
    32
  0
VERTEX
  8
0500LEVEL
 62
7
 10
1158.300
 20
-3435.700
 30
4727.000
 70
    32
  0
VERTEX
  8
0500LEVEL
 62
7
 10
1124.000
 20
-3371.500
 30
4727.000
 70
    32
  0
VERTEX
  8
0500LEVEL
 62
7
 10
988.700
 20
-3182.900
 30
4727.000
 70
    32
  0
VERTEX
  8
0500LEVEL
 62
7
 10
944.300
 20
-3095.300
 30
4727.000
 70
    32
  0
VERTEX
  8
0500LEVEL
 62
7
 10
888.800
 20
-3022.200
 30
4727.000
 70
    32
  0
VERTEX
  8
0500LEVEL
 62
7
 10
853.000
 20
-2919.600
 30
4727.000
 70
    32
  0
VERTEX
  8
0500LEVEL
 62
7
 10
830.500
 20
-2882.300
 30
4727.000
 70
    32
  0
VERTEX
  8
0500LEVEL
 62
7
 10
740.100
 20
-2784.400
 30
4727.000
 70
    32
  0
VERTEX
  8
0500LEVEL
 62
7
 10
701.500
 20
-2754.100
 30
4727.000
 70
    32
  0
VERTEX
  8
0500LEVEL
 62
7
 10
694.900
 20
-2757.600
 30
4727.000
 70
    32
  0
VERTEX
  8
0500LEVEL
 62
7
 10
696.700
 20
-2793.900
 30
4727.000
 70
    32
  0
VERTEX
  8
0500LEVEL
 62
7
 10
730.700
 20
-2897.000
 30
4727.000
 70
    32
  0
VERTEX
  8
0500LEVEL
 62
7
 10
742.600
 20
-2971.500
 30
4727.000
 70
    32
  0
VERTEX
  8
0500LEVEL
 62
7
 10
740.200
 20
-2994.900
 30
4727.000
 70
    32
  0
VERTEX
  8
0500LEVEL
 62
7
 10
728.900
 20
-2994.900
 30
4727.000
 70
    32
  0
VERTEX
  8
0500LEVEL
 62
7
 10
556.300
 20
-2696.500
 30
4727.000
 70
    32
  0
VERTEX
  8
0500LEVEL
 62
7
 10
264.000
 20
-2134.100
 30
4727.000
 70
    32
  0
VERTEX
  8
0500LEVEL
 62
7
 10
34.200
 20
-1754.400
 30
4727.000
 70
    32
  0
VERTEX
  8
0500LEVEL
 62
7
 10
-92.900
 20
-1559.300
 30
4727.000
 70
    32
  0
VERTEX
  8
0500LEVEL
 62
7
 10
-259.000
 20
-1274.000
 30
4727.000
 70
    32
  0
VERTEX
  8
0500LEVEL
 62
7
 10
-291.400
 20
-1223.600
 30
4727.000
 70
    32
  0
VERTEX
  8
0500LEVEL
 62
7
 10
-309.200
 20
-1215.300
 30
4727.000
 70
    32
  0
VERTEX
  8
0500LEVEL
 62
7
 10
-303.700
 20
-1326.100
 30
4727.000
 70
    32
  0
VERTEX
  8
0500LEVEL
 62
7
 10
-310.400
 20
-1328.900
 30
4727.000
 70
    32
  0
VERTEX
  8
0500LEVEL
 62
7
 10
-328.900
 20
-1315.900
 30
4727.000
 70
    32
  0
VERTEX
  8
0500LEVEL
 62
7
 10
-527.800
 20
-969.600
 30
4727.000
 70
    32
  0
VERTEX
  8
0500LEVEL
 62
7
 10
-697.400
 20
-623.600
 30
4727.000
 70
    32
  0
VERTEX
  8
0500LEVEL
 62
7
 10
-705.300
 20
-621.100
 30
4727.000
 70
    32
  0
VERTEX
  8
0500LEVEL
 62
7
 10
-699.700
 20
-706.700
 30
4727.000
 70
    32
  0
VERTEX
  8
0500LEVEL
 62
7
 10
-709.500
 20
-729.400
 30
4727.000
 70
    32
  0
VERTEX
  8
0500LEVEL
 62
7
 10
-908.700
 20
-175.300
 30
4727.000
 70
    32
  0
VERTEX
  8
0500LEVEL
 62
7
 10
-1172.900
 20
471.400
 30
4727.000
 70
    32
  0
VERTEX
  8
0500LEVEL
 62
7
 10
-1609.000
 20
1154.300
 30
4727.000
 70
    32
  0
VERTEX
  8
0500LEVEL
 62
7
 10
-1679.800
 20
1231.800
 30
4727.000
 70
    32
  0
VERTEX
  8
0500LEVEL
 62
7
 10
-1914.700
 20
1535.400
 30
4727.000
 70
    32
  0
VERTEX
  8
0500LEVEL
 62
7
 10
-1609.300
 20
1008.500
 30
4727.000
 70
    32
  0
VERTEX
  8
0500LEVEL
 62
7
 10
-1536.400
 20
803.400
 30
4727.000
 70
    32
  0
VERTEX
  8
0500LEVEL
 62
7
 10
-1542.200
 20
798.300
 30
4727.000
 70
    32
  0
VERTEX
  8
0500LEVEL
 62
7
 10
-1564.400
 20
821.100
 30
4727.000
 70
    32
  0
VERTEX
  8
0500LEVEL
 62
7
 10
-1694.200
 20
1032.300
 30
4727.000
 70
    32
  0
VERTEX
  8
0500LEVEL
 62
7
 10
-2041.000
 20
1657.400
 30
4727.000
 70
    32
  0
VERTEX
  8
0500LEVEL
 62
7
 10
-2042.244
 20
1675.257
 30
4827.000
 70
    32
  0
VERTEX
  8
0500LEVEL
 62
7
 10
-2065.836
 20
1726.063
 30
4827.000
 70
    32
  0
VERTEX
  8
0500LEVEL
 62
7
 10
-2112.796
 20
1806.750
 30
4827.000
 70
    32
  0
VERTEX
  8
0500LEVEL
 62
7
 10
-2169.825
 20
1888.893
 30
4827.000
 70
    32
  0
VERTEX
  8
0500LEVEL
 62
7
 10
-2221.299
 20
1974.121
 30
4827.000
 70
    32
  0
VERTEX
  8
0500LEVEL
 62
7
 10
-2266.585
 20
2040.936
 30
4827.000
 70
    32
  0
VERTEX
  8
0500LEVEL
 62
7
 10
-2259.298
 20
2064.612
 30
4827.000
 70
    32
  0
VERTEX
  8
0500LEVEL
 62
7
 10
-2223.693
 20
2035.674
 30
4827.000
 70
    32
  0
VERTEX
  8
0500LEVEL
 62
7
 10
-2177.196
 20
2007.154
 30
4827.000
 70
    32
  0
VERTEX
  8
0500LEVEL
 62
7
 10
-2156.718
 20
2022.554
 30
4827.000
 70
    32
  0
VERTEX
  8
0500LEVEL
 62
7
 10
-2116.092
 20
1995.029
 30
4827.000
 70
    32
  0
VERTEX
  8
0500LEVEL
 62
7
 10
-2090.345
 20
2013.310
 30
4827.000
 70
    32
  0
VERTEX
  8
0500LEVEL
 62
7
 10
-2040.544
 20
1984.984
 30
4827.000
 70
    32
  0
VERTEX
  8
0500LEVEL
 62
7
 10
-2002.421
 20
1966.440
 30
4827.000
 70
    32
  0
VERTEX
  8
0500LEVEL
 62
7
 10
-2024.334
 20
2019.728
 30
4827.000
 70
    32
  0
VERTEX
  8
0500LEVEL
 62
7
 10
-2060.854
 20
2099.652
 30
4827.000
 70
    32
  0
VERTEX
  8
0500LEVEL
 62
7
 10
-2091.441
 20
2186.369
 30
4827.000
 70
    32
  0
VERTEX
  8
0500LEVEL
 62
7
 10
-2057.778
 20
2177.137
 30
4827.000
 70
    32
  0
VERTEX
  8
0500LEVEL
 62
7
 10
-2051.773
 20
2194.740
 30
4827.000
 70
    32
  0
VERTEX
  8
0500LEVEL
 62
7
 10
-2076.621
 20
2248.526
 30
4827.000
 70
    32
  0
VERTEX
  8
0500LEVEL
 62
7
 10
-2080.220
 20
2288.140
 30
4827.000
 70
    32
  0
VERTEX
  8
0500LEVEL
 62
7
 10
-2050.656
 20
2285.894
 30
4827.000
 70
    32
  0
VERTEX
  8
0500LEVEL
 62
7
 10
-2090.301
 20
2342.945
 30
4827.000
 70
    32
  0
VERTEX
  8
0500LEVEL
 62
7
 10
-2131.931
 20
2404.610
 30
4827.000
 70
    32
  0
VERTEX
  8
0500LEVEL
 62
7
 10
-2182.306
 20
2488.896
 30
4827.000
 70
    32
  0
VERTEX
  8
0500LEVEL
 62
7
 10
-2246.027
 20
2570.162
 30
4827.000
 70
    32
  0
VERTEX
  8
0500LEVEL
 62
7
 10
-2317.386
 20
2676.124
 30
4827.000
 70
    32
  0
VERTEX
  8
0500LEVEL
 62
7
 10
-2402.268
 20
2788.407
 30
4827.000
 70
    32
  0
VERTEX
  8
0500LEVEL
 62
7
 10
-2447.451
 20
2848.410
 30
4827.000
 70
    32
  0
VERTEX
  8
0500LEVEL
 62
7
 10
-2470.489
 20
2893.586
 30
4827.000
 70
    32
  0
VERTEX
  8
0500LEVEL
 62
7
 10
-2522.770
 20
2953.283
 30
4827.000
 70
    32
  0
VERTEX
  8
0500LEVEL
 62
7
 10
-2575.869
 20
3040.799
 30
4827.000
 70
    32
  0
VERTEX
  8
0500LEVEL
 62
7
 10
-2653.046
 20
3165.866
 30
4827.000
 70
    32
  0
VERTEX
  8
0500LEVEL
 62
7
 10
-2734.962
 20
3260.031
 30
4827.000
 70
    32
  0
VERTEX
  8
0500LEVEL
 62
7
 10
-2813.805
 20
3358.959
 30
4827.000
 70
    32
  0
VERTEX
  8
0500LEVEL
 62
7
 10
-2880.441
 20
3433.422
 30
4827.000
 70
    32
  0
VERTEX
  8
0500LEVEL
 62
7
 10
-2957.234
 20
3479.158
 30
4827.000
 70
    32
  0
VERTEX
  8
0500LEVEL
 62
7
 10
-2938.645
 20
3432.976
 30
4827.000
 70
    32
  0
VERTEX
  8
0500LEVEL
 62
7
 10
-2923.257
 20
3379.787
 30
4827.000
 70
    32
  0
VERTEX
  8
0500LEVEL
 62
7
 10
-2919.882
 20
3347.760
 30
4827.000
 70
    32
  0
VERTEX
  8
0500LEVEL
 62
7
 10
-2973.599
 20
3390.087
 30
4827.000
 70
    32
  0
VERTEX
  8
0500LEVEL
 62
7
 10
-3035.103
 20
3419.139
 30
4827.000
 70
    32
  0
VERTEX
  8
0500LEVEL
 62
7
 10
-3079.832
 20
3423.957
 30
4827.000
 70
    32
  0
VERTEX
  8
0500LEVEL
 62
7
 10
-3136.299
 20
3460.459
 30
4827.000
 70
    32
  0
VERTEX
  8
0500LEVEL
 62
7
 10
-3123.689
 20
3405.729
 30
4827.000
 70
    32
  0
VERTEX
  8
0500LEVEL
 62
7
 10
-3084.482
 20
3323.840
 30
4827.000
 70
    32
  0
VERTEX
  8
0500LEVEL
 62
7
 10
-3030.763
 20
3225.147
 30
4827.000
 70
    32
  0
VERTEX
  8
0500LEVEL
 62
7
 10
-2947.691
 20
3121.476
 30
4827.000
 70
    32
  0
VERTEX
  8
0500LEVEL
 62
7
 10
-2861.264
 20
3036.108
 30
4827.000
 70
    32
  0
VERTEX
  8
0500LEVEL
 62
7
 10
-2769.141
 20
2945.748
 30
4827.000
 70
    32
  0
VERTEX
  8
0500LEVEL
 62
7
 10
-2697.195
 20
2859.565
 30
4827.000
 70
    32
  0
VERTEX
  8
0500LEVEL
 62
7
 10
-2630.986
 20
2749.946
 30
4827.000
 70
    32
  0
VERTEX
  8
0500LEVEL
 62
7
 10
-2578.039
 20
2637.795
 30
4827.000
 70
    32
  0
VERTEX
  8
0500LEVEL
 62
7
 10
-2510.991
 20
2493.057
 30
4827.000
 70
    32
  0
VERTEX
  8
0500LEVEL
 62
7
 10
-2446.427
 20
2349.998
 30
4827.000
 70
    32
  0
VERTEX
  8
0500LEVEL
 62
7
 10
-2381.125
 20
2208.324
 30
4827.000
 70
    32
  0
VERTEX
  8
0500LEVEL
 62
7
 10
-2319.504
 20
2062.744
 30
4827.000
 70
    32
  0
VERTEX
  8
0500LEVEL
 62
7
 10
-2258.668
 20
1914.027
 30
4827.000
 70
    32
  0
VERTEX
  8
0500LEVEL
 62
7
 10
-2192.384
 20
1801.879
 30
4827.000
 70
    32
  0
VERTEX
  8
0500LEVEL
 62
7
 10
-2137.254
 20
1711.502
 30
4827.000
 70
    32
  0
VERTEX
  8
0500LEVEL
 62
7
 10
-2108.292
 20
1627.073
 30
4827.000
 70
    32
  0
VERTEX
  8
0500LEVEL
 62
7
 10
-2160.376
 20
1670.129
 30
4827.000
 70
    32
  0
VERTEX
  8
0500LEVEL
 62
7
 10
-2221.991
 20
1746.005
 30
4827.000
 70
    32
  0
VERTEX
  8
0500LEVEL
 62
7
 10
-2267.861
 20
1822.732
 30
4827.000
 70
    32
  0
VERTEX
  8
0500LEVEL
 62
7
 10
-2313.813
 20
1942.000
 30
4827.000
 70
    32
  0
VERTEX
  8
0500LEVEL
 62
7
 10
-2375.771
 20
2069.268
 30
4827.000
 70
    32
  0
VERTEX
  8
0500LEVEL
 62
7
 10
-2441.886
 20
2212.086
 30
4827.000
 70
    32
  0
VERTEX
  8
0500LEVEL
 62
7
 10
-2486.379
 20
2285.058
 30
4827.000
 70
    32
  0
VERTEX
  8
0500LEVEL
 62
7
 10
-2551.985
 20
2420.493
 30
4827.000
 70
    32
  0
VERTEX
  8
0500LEVEL
 62
7
 10
-2616.744
 20
2566.856
 30
4827.000
 70
    32
  0
VERTEX
  8
0500LEVEL
 62
7
 10
-2666.397
 20
2689.520
 30
4827.000
 70
    32
  0
VERTEX
  8
0500LEVEL
 62
7
 10
-2740.220
 20
2789.861
 30
4827.000
 70
    32
  0
VERTEX
  8
0500LEVEL
 62
7
 10
-2834.357
 20
2889.118
 30
4827.000
 70
    32
  0
VERTEX
  8
0500LEVEL
 62
7
 10
-2939.639
 20
3013.165
 30
4827.000
 70
    32
  0
VERTEX
  8
0500LEVEL
 62
7
 10
-3033.891
 20
3129.553
 30
4827.000
 70
    32
  0
VERTEX
  8
0500LEVEL
 62
7
 10
-3099.748
 20
3233.827
 30
4827.000
 70
    32
  0
VERTEX
  8
0500LEVEL
 62
7
 10
-3167.740
 20
3347.775
 30
4827.000
 70
    32
  0
VERTEX
  8
0500LEVEL
 62
7
 10
-3206.120
 20
3404.863
 30
4827.000
 70
    32
  0
VERTEX
  8
0500LEVEL
 62
7
 10
-3192.126
 20
3349.394
 30
4827.000
 70
    32
  0
VERTEX
  8
0500LEVEL
 62
7
 10
-3149.358
 20
3229.156
 30
4827.000
 70
    32
  0
VERTEX
  8
0500LEVEL
 62
7
 10
-3068.570
 20
3097.186
 30
4827.000
 70
    32
  0
VERTEX
  8
0500LEVEL
 62
7
 10
-2995.386
 20
2958.956
 30
4827.000
 70
    32
  0
VERTEX
  8
0500LEVEL
 62
7
 10
-2928.310
 20
2852.964
 30
4827.000
 70
    32
  0
VERTEX
  8
0500LEVEL
 62
7
 10
-2894.985
 20
2782.390
 30
4827.000
 70
    32
  0
VERTEX
  8
0500LEVEL
 62
7
 10
-2848.814
 20
2725.239
 30
4827.000
 70
    32
  0
VERTEX
  8
0500LEVEL
 62
7
 10
-2791.808
 20
2620.704
 30
4827.000
 70
    32
  0
VERTEX
  8
0500LEVEL
 62
7
 10
-2737.763
 20
2507.613
 30
4827.000
 70
    32
  0
VERTEX
  8
0500LEVEL
 62
7
 10
-2683.723
 20
2378.165
 30
4827.000
 70
    32
  0
VERTEX
  8
0500LEVEL
 62
7
 10
-2629.707
 20
2269.356
 30
4827.000
 70
    32
  0
VERTEX
  8
0500LEVEL
 62
7
 10
-2572.703
 20
2178.158
 30
4827.000
 70
    32
  0
VERTEX
  8
0500LEVEL
 62
7
 10
-2480.915
 20
2056.149
 30
4827.000
 70
    32
  0
VERTEX
  8
0500LEVEL
 62
7
 10
-2400.842
 20
1945.186
 30
4827.000
 70
    32
  0
VERTEX
  8
0500LEVEL
 62
7
 10
-2327.085
 20
1850.391
 30
4827.000
 70
    32
  0
VERTEX
  8
0500LEVEL
 62
7
 10
-2265.604
 20
1755.918
 30
4827.000
 70
    32
  0
VERTEX
  8
0500LEVEL
 62
7
 10
-2206.781
 20
1659.127
 30
4827.000
 70
    32
  0
VERTEX
  8
0500LEVEL
 62
7
 10
-2170.933
 20
1572.272
 30
4827.000
 70
    32
  0
VERTEX
  8
0500LEVEL
 62
7
 10
-2162.322
 20
1525.113
 30
4727.000
 70
    32
  0
VERTEX
  8
0500LEVEL
 62
7
 10
-2042.300
 20
1091.300
 30
4727.000
 70
    32
  0
VERTEX
  8
0500LEVEL
 62
7
 10
-2023.600
 20
1031.800
 30
4727.000
 70
    32
  0
VERTEX
  8
0500LEVEL
 62
7
 10
-2009.100
 20
922.700
 30
4727.000
 70
    32
  0
VERTEX
  8
0500LEVEL
 62
7
 10
-2189.400
 20
1218.100
 30
4727.000
 70
    32
  0
VERTEX
  8
0500LEVEL
 62
7
 10
-2314.800
 20
1459.400
 30
4727.000
 70
    32
  0
VERTEX
  8
0500LEVEL
 62
7
 10
-2338.064
 20
1462.218
 30
4827.000
 70
    32
  0
VERTEX
  8
0500LEVEL
 62
7
 10
-2371.949
 20
1522.067
 30
4827.000
 70
    32
  0
VERTEX
  8
0500LEVEL
 62
7
 10
-2432.912
 20
1612.175
 30
4827.000
 70
    32
  0
VERTEX
  8
0500LEVEL
 62
7
 10
-2487.977
 20
1697.005
 30
4827.000
 70
    32
  0
VERTEX
  8
0500LEVEL
 62
7
 10
-2566.313
 20
1801.886
 30
4827.000
 70
    32
  0
VERTEX
  8
0500LEVEL
 62
7
 10
-2647.333
 20
1895.396
 30
4827.000
 70
    32
  0
VERTEX
  8
0500LEVEL
 62
7
 10
-2731.787
 20
1986.468
 30
4827.000
 70
    32
  0
VERTEX
  8
0500LEVEL
 62
7
 10
-2778.921
 20
2063.159
 30
4827.000
 70
    32
  0
VERTEX
  8
0500LEVEL
 62
7
 10
-2812.649
 20
2120.968
 30
4827.000
 70
    32
  0
VERTEX
  8
0500LEVEL
 62
7
 10
-2798.580
 20
2062.970
 30
4827.000
 70
    32
  0
VERTEX
  8
0500LEVEL
 62
7
 10
-2774.648
 20
1974.110
 30
4827.000
 70
    32
  0
VERTEX
  8
0500LEVEL
 62
7
 10
-2751.948
 20
1867.593
 30
4827.000
 70
    32
  0
VERTEX
  8
0500LEVEL
 62
7
 10
-2751.365
 20
1857.680
 30
4827.000
 70
    32
  0
VERTEX
  8
0500LEVEL
 62
7
 10
-2708.797
 20
1767.420
 30
4827.000
 70
    32
  0
VERTEX
  8
0500LEVEL
 62
7
 10
-2650.952
 20
1670.796
 30
4827.000
 70
    32
  0
VERTEX
  8
0500LEVEL
 62
7
 10
-2600.852
 20
1575.987
 30
4827.000
 70
    32
  0
VERTEX
  8
0500LEVEL
 62
7
 10
-2524.889
 20
1500.777
 30
4827.000
 70
    32
  0
VERTEX
  8
0500LEVEL
 62
7
 10
-2500.537
 20
1446.698
 30
4827.000
 70
    32
  0
VERTEX
  8
0500LEVEL
 62
7
 10
-2441.011
 20
1400.730
 30
4827.000
 70
    32
  0
VERTEX
  8
0500LEVEL
 62
7
 10
-2426.400
 20
1367.200
 30
4727.000
 70
    32
  0
VERTEX
  8
0500LEVEL
 62
7
 10
-2377.000
 20
1288.800
 30
4727.000
 70
    32
  0
VERTEX
  8
0500LEVEL
 62
7
 10
-2252.200
 20
1045.700
 30
4727.000
 70
    32
  0
VERTEX
  8
0500LEVEL
 62
7
 10
-2039.900
 20
706.600
 30
4727.000
 70
    32
  0
VERTEX
  8
0500LEVEL
 62
7
 10
-1701.400
 20
104.100
 30
4727.000
 70
    32
  0
VERTEX
  8
0500LEVEL
 62
7
 10
-1480.500
 20
-230.900
 30
4727.000
 70
    32
  0
VERTEX
  8
0500LEVEL
 62
7
 10
-1410.100
 20
-367.700
 30
4727.000
 70
    32
  0
VERTEX
  8
0500LEVEL
 62
7
 10
-757.000
 20
-1326.100
 30
4727.000
 70
    32
  0
VERTEX
  8
0500LEVEL
 62
7
 10
-488.900
 20
-1697.800
 30
4727.000
 70
    32
  0
VERTEX
  8
0500LEVEL
 62
7
 10
-377.300
 20
-1868.600
 30
4727.000
 70
    32
  0
VERTEX
  8
0500LEVEL
 62
7
 10
-269.800
 20
-2017.800
 30
4727.000
 70
    32
  0
VERTEX
  8
0500LEVEL
 62
7
 10
-207.200
 20
-2091.200
 30
4727.000
 70
    32
  0
VERTEX
  8
0500LEVEL
 62
7
 10
-153.800
 20
-2166.700
 30
4727.000
 70
    32
  0
VERTEX
  8
0500LEVEL
 62
7
 10
-150.500
 20
-2182.000
 30
4727.000
 70
    32
  0
VERTEX
  8
0500LEVEL
 62
7
 10
-169.200
 20
-2183.100
 30
4727.000
 70
    32
  0
VERTEX
  8
0500LEVEL
 62
7
 10
-278.100
 20
-2068.800
 30
4727.000
 70
    32
  0
VERTEX
  8
0500LEVEL
 62
7
 10
-307.000
 20
-2058.300
 30
4727.000
 70
    32
  0
VERTEX
  8
0500LEVEL
 62
7
 10
-433.600
 20
-1913.200
 30
4727.000
 70
    32
  0
VERTEX
  8
0500LEVEL
 62
7
 10
-618.000
 20
-1672.400
 30
4727.000
 70
    32
  0
VERTEX
  8
0500LEVEL
 62
7
 10
-741.900
 20
-1495.400
 30
4727.000
 70
    32
  0
VERTEX
  8
0500LEVEL
 62
7
 10
-936.400
 20
-1175.800
 30
4727.000
 70
    32
  0
VERTEX
  8
0500LEVEL
 62
7
 10
-1067.400
 20
-1000.900
 30
4727.000
 70
    32
  0
VERTEX
  8
0500LEVEL
 62
7
 10
-1425.900
 20
-489.300
 30
4727.000
 70
    32
  0
VERTEX
  8
0500LEVEL
 62
7
 10
-1556.300
 20
-264.200
 30
4727.000
 70
    32
  0
VERTEX
  8
0500LEVEL
 62
7
 10
-1666.000
 20
-111.400
 30
4727.000
 70
    32
  0
VERTEX
  8
0500LEVEL
 62
7
 10
-2067.300
 20
571.800
 30
4727.000
 70
    32
  0
VERTEX
  8
0500LEVEL
 62
7
 10
-2165.700
 20
719.200
 30
4727.000
 70
    32
  0
VERTEX
  8
0500LEVEL
 62
7
 10
-2323.700
 20
931.100
 30
4727.000
 70
    32
  0
VERTEX
  8
0500LEVEL
 62
7
 10
-2467.400
 20
1074.600
 30
4727.000
 70
    32
  0
VERTEX
  8
0500LEVEL
 62
7
 10
-2595.800
 20
1253.600
 30
4727.000
 70
    32
  0
VERTEX
  8
0500LEVEL
 62
7
 10
-2625.000
 20
1279.052
 30
4827.000
 70
    32
  0
VERTEX
  8
0500LEVEL
 62
7
 10
-2665.129
 20
1305.309
 30
4827.000
 70
    32
  0
VERTEX
  8
0500LEVEL
 62
7
 10
-2740.954
 20
1404.228
 30
4827.000
 70
    32
  0
VERTEX
  8
0500LEVEL
 62
7
 10
-2802.781
 20
1477.372
 30
4827.000
 70
    32
  0
VERTEX
  8
0500LEVEL
 62
7
 10
-2872.369
 20
1589.325
 30
4827.000
 70
    32
  0
VERTEX
  8
0500LEVEL
 62
7
 10
-2941.045
 20
1706.659
 30
4827.000
 70
    32
  0
VERTEX
  8
0500LEVEL
 62
7
 10
-3002.273
 20
1832.293
 30
4827.000
 70
    32
  0
VERTEX
  8
0500LEVEL
 62
7
 10
-3040.693
 20
1903.983
 30
4827.000
 70
    32
  0
VERTEX
  8
0500LEVEL
 62
7
 10
-3027.019
 20
1836.238
 30
4827.000
 70
    32
  0
VERTEX
  8
0500LEVEL
 62
7
 10
-2985.813
 20
1726.079
 30
4827.000
 70
    32
  0
VERTEX
  8
0500LEVEL
 62
7
 10
-2935.742
 20
1635.554
 30
4827.000
 70
    32
  0
VERTEX
  8
0500LEVEL
 62
7
 10
-2878.615
 20
1530.243
 30
4827.000
 70
    32
  0
VERTEX
  8
0500LEVEL
 62
7
 10
-2823.866
 20
1449.493
 30
4827.000
 70
    32
  0
VERTEX
  8
0500LEVEL
 62
7
 10
-2781.732
 20
1364.088
 30
4827.000
 70
    32
  0
VERTEX
  8
0500LEVEL
 62
7
 10
-2771.932
 20
1325.436
 30
4827.000
 70
    32
  0
VERTEX
  8
0500LEVEL
 62
7
 10
-2824.221
 20
1382.115
 30
4827.000
 70
    32
  0
VERTEX
  8
0500LEVEL
 62
7
 10
-2910.267
 20
1500.886
 30
4827.000
 70
    32
  0
VERTEX
  8
0500LEVEL
 62
7
 10
-2993.942
 20
1621.771
 30
4827.000
 70
    32
  0
VERTEX
  8
0500LEVEL
 62
7
 10
-3070.817
 20
1753.078
 30
4827.000
 70
    32
  0
VERTEX
  8
0500LEVEL
 62
7
 10
-3093.960
 20
1861.431
 30
4827.000
 70
    32
  0
VERTEX
  8
0500LEVEL
 62
7
 10
-3085.242
 20
1929.153
 30
4827.000
 70
    32
  0
VERTEX
  8
0500LEVEL
 62
7
 10
-3077.754
 20
2008.909
 30
4827.000
 70
    32
  0
VERTEX
  8
0500LEVEL
 62
7
 10
-3096.165
 20
2088.781
 30
4827.000
 70
    32
  0
VERTEX
  8
0500LEVEL
 62
7
 10
-3135.821
 20
2156.151
 30
4827.000
 70
    32
  0
VERTEX
  8
0500LEVEL
 62
7
 10
-3181.237
 20
2177.693
 30
4827.000
 70
    32
  0
VERTEX
  8
0500LEVEL
 62
7
 10
-3237.658
 20
2172.919
 30
4827.000
 70
    32
  0
VERTEX
  8
0500LEVEL
 62
7
 10
-3254.036
 20
2150.534
 30
4827.000
 70
    32
  0
VERTEX
  8
0500LEVEL
 62
7
 10
-3287.542
 20
2157.726
 30
4827.000
 70
    32
  0
VERTEX
  8
0500LEVEL
 62
7
 10
-3308.292
 20
2118.467
 30
4827.000
 70
    32
  0
VERTEX
  8
0500LEVEL
 62
7
 10
-3328.816
 20
2101.314
 30
4827.000
 70
    32
  0
VERTEX
  8
0500LEVEL
 62
7
 10
-3366.152
 20
2152.689
 30
4827.000
 70
    32
  0
VERTEX
  8
0500LEVEL
 62
7
 10
-3411.100
 20
2237.816
 30
4827.000
 70
    32
  0
VERTEX
  8
0500LEVEL
 62
7
 10
-3468.407
 20
2322.775
 30
4827.000
 70
    32
  0
VERTEX
  8
0500LEVEL
 62
7
 10
-3510.864
 20
2409.241
 30
4827.000
 70
    32
  0
VERTEX
  8
0500LEVEL
 62
7
 10
-3529.318
 20
2430.992
 30
4827.000
 70
    32
  0
VERTEX
  8
0500LEVEL
 62
7
 10
-3513.885
 20
2336.527
 30
4827.000
 70
    32
  0
VERTEX
  8
0500LEVEL
 62
7
 10
-3480.564
 20
2193.231
 30
4827.000
 70
    32
  0
VERTEX
  8
0500LEVEL
 62
7
 10
-3440.574
 20
2071.451
 30
4827.000
 70
    32
  0
VERTEX
  8
0500LEVEL
 62
7
 10
-3370.900
 20
1946.650
 30
4827.000
 70
    32
  0
VERTEX
  8
0500LEVEL
 62
7
 10
-3299.979
 20
1815.850
 30
4827.000
 70
    32
  0
VERTEX
  8
0500LEVEL
 62
7
 10
-3224.395
 20
1718.481
 30
4827.000
 70
    32
  0
VERTEX
  8
0500LEVEL
 62
7
 10
-3134.208
 20
1621.152
 30
4827.000
 70
    32
  0
VERTEX
  8
0500LEVEL
 62
7
 10
-3056.286
 20
1513.824
 30
4827.000
 70
    32
  0
VERTEX
  8
0500LEVEL
 62
7
 10
-2982.304
 20
1398.106
 30
4827.000
 70
    32
  0
VERTEX
  8
0500LEVEL
 62
7
 10
-2912.273
 20
1284.316
 30
4827.000
 70
    32
  0
VERTEX
  8
0500LEVEL
 62
7
 10
-2857.961
 20
1178.728
 30
4827.000
 70
    32
  0
VERTEX
  8
0500LEVEL
 62
7
 10
-2815.090
 20
1094.708
 30
4827.000
 70
    32
  0
VERTEX
  8
0500LEVEL
 62
7
 10
-2874.723
 20
1136.277
 30
4827.000
 70
    32
  0
VERTEX
  8
0500LEVEL
 62
7
 10
-2962.950
 20
1219.937
 30
4827.000
 70
    32
  0
VERTEX
  8
0500LEVEL
 62
7
 10
-3031.972
 20
1272.911
 30
4827.000
 70
    32
  0
VERTEX
  8
0500LEVEL
 62
7
 10
-3097.215
 20
1349.654
 30
4827.000
 70
    32
  0
VERTEX
  8
0500LEVEL
 62
7
 10
-3156.339
 20
1426.868
 30
4827.000
 70
    32
  0
VERTEX
  8
0500LEVEL
 62
7
 10
-3215.394
 20
1485.198
 30
4827.000
 70
    32
  0
VERTEX
  8
0500LEVEL
 62
7
 10
-3270.785
 20
1541.396
 30
4827.000
 70
    32
  0
VERTEX
  8
0500LEVEL
 62
7
 10
-3278.790
 20
1509.035
 30
4827.000
 70
    32
  0
VERTEX
  8
0500LEVEL
 62
7
 10
-3209.224
 20
1417.719
 30
4827.000
 70
    32
  0
VERTEX
  8
0500LEVEL
 62
7
 10
-3153.431
 20
1331.256
 30
4827.000
 70
    32
  0
VERTEX
  8
0500LEVEL
 62
7
 10
-3152.215
 20
1299.847
 30
4827.000
 70
    32
  0
VERTEX
  8
0500LEVEL
 62
7
 10
-3219.859
 20
1335.728
 30
4827.000
 70
    32
  0
VERTEX
  8
0500LEVEL
 62
7
 10
-3292.549
 20
1404.172
 30
4827.000
 70
    32
  0
VERTEX
  8
0500LEVEL
 62
7
 10
-3360.281
 20
1466.238
 30
4827.000
 70
    32
  0
VERTEX
  8
0500LEVEL
 62
7
 10
-3407.329
 20
1530.080
 30
4827.000
 70
    32
  0
VERTEX
  8
0500LEVEL
 62
7
 10
-3437.636
 20
1557.616
 30
4827.000
 70
    32
  0
VERTEX
  8
0500LEVEL
 62
7
 10
-3398.501
 20
1464.919
 30
4827.000
 70
    32
  0
VERTEX
  8
0500LEVEL
 62
7
 10
-3352.332
 20
1364.739
 30
4827.000
 70
    32
  0
VERTEX
  8
0500LEVEL
 62
7
 10
-3316.438
 20
1279.637
 30
4827.000
 70
    32
  0
VERTEX
  8
0500LEVEL
 62
7
 10
-3303.038
 20
1244.401
 30
4827.000
 70
    32
  0
VERTEX
  8
0500LEVEL
 62
7
 10
-3361.939
 20
1270.998
 30
4827.000
 70
    32
  0
VERTEX
  8
0500LEVEL
 62
7
 10
-3431.860
 20
1337.965
 30
4827.000
 70
    32
  0
VERTEX
  8
0500LEVEL
 62
7
 10
-3475.390
 20
1391.397
 30
4827.000
 70
    32
  0
VERTEX
  8
0500LEVEL
 62
7
 10
-3513.229
 20
1423.482
 30
4827.000
 70
    32
  0
VERTEX
  8
0500LEVEL
 62
7
 10
-3487.517
 20
1343.630
 30
4827.000
 70
    32
  0
VERTEX
  8
0500LEVEL
 62
7
 10
-3451.809
 20
1264.851
 30
4827.000
 70
    32
  0
VERTEX
  8
0500LEVEL
 62
7
 10
-3457.978
 20
1232.933
 30
4827.000
 70
    32
  0
VERTEX
  8
0500LEVEL
 62
7
 10
-3488.242
 20
1275.560
 30
4827.000
 70
    32
  0
VERTEX
  8
0500LEVEL
 62
7
 10
-3514.209
 20
1294.559
 30
4827.000
 70
    32
  0
VERTEX
  8
0500LEVEL
 62
7
 10
-3487.364
 20
1225.839
 30
4827.000
 70
    32
  0
VERTEX
  8
0500LEVEL
 62
7
 10
-3449.719
 20
1154.029
 30
4827.000
 70
    32
  0
VERTEX
  8
0500LEVEL
 62
7
 10
-3384.768
 20
1060.728
 30
4827.000
 70
    32
  0
SEQEND
  8
0500LEVEL
  0
LINE
  8
0500LEVEL
 62
3
 10
989.030
 20
-514.717
 30
4727.000
 11
964.552
 21
-513.033
 31
4727.000
  0
ENDSEC
  0
EOF
