999
********************************
999
*   DXF File - Entities Only   *
999
*        3D Data Format        *
999
*     Output from ENVISAGE     *
999
*     28-Dec-2007 13:47:14     *
999
********************************
  0
SECTION 
  2
HEADER
  9
$ACADVER
  1
AC1009
  9
$EXTMIN
 10
-290000.000
 20
-250000.000
 30
-4000.000
  9
$EXTMAX
 10
5000000.000
 20
600000.000
 30
6000.000
  0
ENDSEC
  0
SECTION
  2
ENTITIES
  0
POLYLINE
  8
0600LEVEL
 62
7
 66
     1
 70
     8
  0
VERTEX
  8
0600LEVEL
 62
7
 10
1894.645
 20
392.232
 30
4627.000
 70
    32
  0
VERTEX
  8
0600LEVEL
 62
7
 10
1879.741
 20
331.348
 30
4627.000
 70
    32
  0
VERTEX
  8
0600LEVEL
 62
7
 10
1858.738
 20
276.034
 30
4627.000
 70
    32
  0
VERTEX
  8
0600LEVEL
 62
7
 10
1831.365
 20
218.785
 30
4627.000
 70
    32
  0
VERTEX
  8
0600LEVEL
 62
7
 10
1804.648
 20
162.430
 30
4627.000
 70
    32
  0
VERTEX
  8
0600LEVEL
 62
7
 10
1777.576
 20
98.083
 30
4627.000
 70
    32
  0
VERTEX
  8
0600LEVEL
 62
7
 10
1741.420
 20
48.370
 30
4627.000
 70
    32
  0
VERTEX
  8
0600LEVEL
 62
7
 10
1707.656
 20
17.127
 30
4627.000
 70
    32
  0
VERTEX
  8
0600LEVEL
 62
7
 10
1676.361
 20
25.479
 30
4627.000
 70
    32
  0
VERTEX
  8
0600LEVEL
 62
7
 10
1658.450
 20
35.578
 30
4627.000
 70
    32
  0
VERTEX
  8
0600LEVEL
 62
7
 10
1632.810
 20
6.222
 30
4627.000
 70
    32
  0
VERTEX
  8
0600LEVEL
 62
7
 10
1611.601
 20
-38.487
 30
4627.000
 70
    32
  0
VERTEX
  8
0600LEVEL
 62
7
 10
1600.773
 20
-88.740
 30
4627.000
 70
    32
  0
VERTEX
  8
0600LEVEL
 62
7
 10
1580.064
 20
-130.513
 30
4627.000
 70
    32
  0
VERTEX
  8
0600LEVEL
 62
7
 10
1567.828
 20
-107.791
 30
4627.000
 70
    32
  0
VERTEX
  8
0600LEVEL
 62
7
 10
1556.900
 20
-106.935
 30
4627.000
 70
    32
  0
VERTEX
  8
0600LEVEL
 62
7
 10
1541.572
 20
-149.626
 30
4627.000
 70
    32
  0
VERTEX
  8
0600LEVEL
 62
7
 10
1526.211
 20
-201.372
 30
4627.000
 70
    32
  0
VERTEX
  8
0600LEVEL
 62
7
 10
1512.757
 20
-210.908
 30
4627.000
 70
    32
  0
VERTEX
  8
0600LEVEL
 62
7
 10
1495.161
 20
-215.209
 30
4627.000
 70
    32
  0
VERTEX
  8
0600LEVEL
 62
7
 10
1482.927
 20
-270.759
 30
4627.000
 70
    32
  0
VERTEX
  8
0600LEVEL
 62
7
 10
1471.186
 20
-336.712
 30
4627.000
 70
    32
  0
VERTEX
  8
0600LEVEL
 62
7
 10
1449.429
 20
-386.110
 30
4627.000
 70
    32
  0
VERTEX
  8
0600LEVEL
 62
7
 10
1421.279
 20
-399.182
 30
4627.000
 70
    32
  0
VERTEX
  8
0600LEVEL
 62
7
 10
1385.320
 20
-394.565
 30
4627.000
 70
    32
  0
VERTEX
  8
0600LEVEL
 62
7
 10
1371.024
 20
-456.308
 30
4627.000
 70
    32
  0
VERTEX
  8
0600LEVEL
 62
7
 10
1339.821
 20
-512.401
 30
4627.000
 70
    32
  0
VERTEX
  8
0600LEVEL
 62
7
 10
1309.883
 20
-568.458
 30
4627.000
 70
    32
  0
VERTEX
  8
0600LEVEL
 62
7
 10
1269.727
 20
-607.673
 30
4627.000
 70
    32
  0
VERTEX
  8
0600LEVEL
 62
7
 10
1224.898
 20
-619.666
 30
4627.000
 70
    32
  0
VERTEX
  8
0600LEVEL
 62
7
 10
1185.312
 20
-614.179
 30
4627.000
 70
    32
  0
VERTEX
  8
0600LEVEL
 62
7
 10
1174.195
 20
-620.338
 30
4627.000
 70
    32
  0
VERTEX
  8
0600LEVEL
 62
7
 10
1163.832
 20
-632.415
 30
4627.000
 70
    32
  0
VERTEX
  8
0600LEVEL
 62
7
 10
1163.425
 20
-665.819
 30
4627.000
 70
    32
  0
VERTEX
  8
0600LEVEL
 62
7
 10
1187.922
 20
-715.547
 30
4627.000
 70
    32
  0
VERTEX
  8
0600LEVEL
 62
7
 10
1206.201
 20
-758.931
 30
4627.000
 70
    32
  0
VERTEX
  8
0600LEVEL
 62
7
 10
1205.986
 20
-795.640
 30
4627.000
 70
    32
  0
VERTEX
  8
0600LEVEL
 62
7
 10
1165.919
 20
-776.732
 30
4627.000
 70
    32
  0
VERTEX
  8
0600LEVEL
 62
7
 10
1189.445
 20
-812.956
 30
4627.000
 70
    32
  0
VERTEX
  8
0600LEVEL
 62
7
 10
1253.530
 20
-878.491
 30
4627.000
 70
    32
  0
VERTEX
  8
0600LEVEL
 62
7
 10
1307.738
 20
-945.866
 30
4627.000
 70
    32
  0
VERTEX
  8
0600LEVEL
 62
7
 10
1335.564
 20
-1033.662
 30
4627.000
 70
    32
  0
VERTEX
  8
0600LEVEL
 62
7
 10
1372.386
 20
-1126.264
 30
4627.000
 70
    32
  0
VERTEX
  8
0600LEVEL
 62
7
 10
1378.034
 20
-1177.310
 30
4627.000
 70
    32
  0
VERTEX
  8
0600LEVEL
 62
7
 10
1345.724
 20
-1167.526
 30
4627.000
 70
    32
  0
VERTEX
  8
0600LEVEL
 62
7
 10
1324.172
 20
-1149.256
 30
4627.000
 70
    32
  0
VERTEX
  8
0600LEVEL
 62
7
 10
1326.816
 20
-1207.594
 30
4627.000
 70
    32
  0
VERTEX
  8
0600LEVEL
 62
7
 10
1374.374
 20
-1297.746
 30
4627.000
 70
    32
  0
VERTEX
  8
0600LEVEL
 62
7
 10
1421.133
 20
-1349.757
 30
4627.000
 70
    32
  0
VERTEX
  8
0600LEVEL
 62
7
 10
1460.221
 20
-1402.476
 30
4627.000
 70
    32
  0
VERTEX
  8
0600LEVEL
 62
7
 10
1495.446
 20
-1497.070
 30
4627.000
 70
    32
  0
VERTEX
  8
0600LEVEL
 62
7
 10
1479.650
 20
-1533.640
 30
4627.000
 70
    32
  0
VERTEX
  8
0600LEVEL
 62
7
 10
1437.431
 20
-1500.775
 30
4627.000
 70
    32
  0
VERTEX
  8
0600LEVEL
 62
7
 10
1399.647
 20
-1459.604
 30
4627.000
 70
    32
  0
VERTEX
  8
0600LEVEL
 62
7
 10
1384.955
 20
-1439.483
 30
4627.000
 70
    32
  0
VERTEX
  8
0600LEVEL
 62
7
 10
1349.733
 20
-1389.186
 30
4627.000
 70
    32
  0
VERTEX
  8
0600LEVEL
 62
7
 10
1307.134
 20
-1326.054
 30
4627.000
 70
    32
  0
VERTEX
  8
0600LEVEL
 62
7
 10
1297.990
 20
-1384.144
 30
4627.000
 70
    32
  0
VERTEX
  8
0600LEVEL
 62
7
 10
1286.807
 20
-1442.390
 30
4627.000
 70
    32
  0
VERTEX
  8
0600LEVEL
 62
7
 10
1287.213
 20
-1442.963
 30
4627.000
 70
    32
  0
VERTEX
  8
0600LEVEL
 62
7
 10
1294.346
 20
-1477.903
 30
4627.000
 70
    32
  0
VERTEX
  8
0600LEVEL
 62
7
 10
1302.705
 20
-1501.224
 30
4627.000
 70
    32
  0
VERTEX
  8
0600LEVEL
 62
7
 10
1315.367
 20
-1552.460
 30
4627.000
 70
    32
  0
VERTEX
  8
0600LEVEL
 62
7
 10
1348.606
 20
-1632.118
 30
4627.000
 70
    32
  0
VERTEX
  8
0600LEVEL
 62
7
 10
1336.246
 20
-1666.254
 30
4627.000
 70
    32
  0
VERTEX
  8
0600LEVEL
 62
7
 10
1351.307
 20
-1719.660
 30
4627.000
 70
    32
  0
VERTEX
  8
0600LEVEL
 62
7
 10
1360.860
 20
-1784.711
 30
4627.000
 70
    32
  0
VERTEX
  8
0600LEVEL
 62
7
 10
1379.576
 20
-1887.566
 30
4627.000
 70
    32
  0
VERTEX
  8
0600LEVEL
 62
7
 10
1384.885
 20
-1998.204
 30
4627.000
 70
    32
  0
VERTEX
  8
0600LEVEL
 62
7
 10
1397.068
 20
-2080.314
 30
4627.000
 70
    32
  0
VERTEX
  8
0600LEVEL
 62
7
 10
1399.299
 20
-2151.417
 30
4627.000
 70
    32
  0
VERTEX
  8
0600LEVEL
 62
7
 10
1374.702
 20
-2162.830
 30
4627.000
 70
    32
  0
VERTEX
  8
0600LEVEL
 62
7
 10
1331.904
 20
-2109.731
 30
4627.000
 70
    32
  0
VERTEX
  8
0600LEVEL
 62
7
 10
1280.334
 20
-2046.077
 30
4627.000
 70
    32
  0
VERTEX
  8
0600LEVEL
 62
7
 10
1231.702
 20
-1993.243
 30
4627.000
 70
    32
  0
VERTEX
  8
0600LEVEL
 62
7
 10
1177.852
 20
-1928.194
 30
4627.000
 70
    32
  0
VERTEX
  8
0600LEVEL
 62
7
 10
1130.601
 20
-1865.779
 30
4627.000
 70
    32
  0
VERTEX
  8
0600LEVEL
 62
7
 10
1098.727
 20
-1803.216
 30
4627.000
 70
    32
  0
VERTEX
  8
0600LEVEL
 62
7
 10
1075.811
 20
-1733.874
 30
4627.000
 70
    32
  0
VERTEX
  8
0600LEVEL
 62
7
 10
1053.268
 20
-1674.159
 30
4627.000
 70
    32
  0
VERTEX
  8
0600LEVEL
 62
7
 10
1023.082
 20
-1629.754
 30
4627.000
 70
    32
  0
VERTEX
  8
0600LEVEL
 62
7
 10
1037.396
 20
-1697.882
 30
4627.000
 70
    32
  0
VERTEX
  8
0600LEVEL
 62
7
 10
1056.693
 20
-1753.016
 30
4627.000
 70
    32
  0
VERTEX
  8
0600LEVEL
 62
7
 10
1054.327
 20
-1775.767
 30
4627.000
 70
    32
  0
VERTEX
  8
0600LEVEL
 62
7
 10
1046.667
 20
-1773.455
 30
4627.000
 70
    32
  0
VERTEX
  8
0600LEVEL
 62
7
 10
1060.825
 20
-1839.543
 30
4627.000
 70
    32
  0
VERTEX
  8
0600LEVEL
 62
7
 10
1083.379
 20
-1930.216
 30
4627.000
 70
    32
  0
VERTEX
  8
0600LEVEL
 62
7
 10
1106.628
 20
-1997.602
 30
4627.000
 70
    32
  0
VERTEX
  8
0600LEVEL
 62
7
 10
1115.558
 20
-2054.493
 30
4627.000
 70
    32
  0
VERTEX
  8
0600LEVEL
 62
7
 10
1059.660
 20
-2036.915
 30
4627.000
 70
    32
  0
VERTEX
  8
0600LEVEL
 62
7
 10
1029.210
 20
-2020.652
 30
4627.000
 70
    32
  0
VERTEX
  8
0600LEVEL
 62
7
 10
1009.945
 20
-1990.439
 30
4627.000
 70
    32
  0
VERTEX
  8
0600LEVEL
 62
7
 10
938.191
 20
-1969.907
 30
4627.000
 70
    32
  0
VERTEX
  8
0600LEVEL
 62
7
 10
910.313
 20
-1941.499
 30
4627.000
 70
    32
  0
VERTEX
  8
0600LEVEL
 62
7
 10
904.544
 20
-1957.630
 30
4627.000
 70
    32
  0
VERTEX
  8
0600LEVEL
 62
7
 10
883.478
 20
-1929.124
 30
4627.000
 70
    32
  0
VERTEX
  8
0600LEVEL
 62
7
 10
861.852
 20
-1864.029
 30
4627.000
 70
    32
  0
VERTEX
  8
0600LEVEL
 62
7
 10
794.504
 20
-1820.589
 30
4627.000
 70
    32
  0
VERTEX
  8
0600LEVEL
 62
7
 10
780.566
 20
-1772.408
 30
4627.000
 70
    32
  0
VERTEX
  8
0600LEVEL
 62
7
 10
745.181
 20
-1733.409
 30
4627.000
 70
    32
  0
VERTEX
  8
0600LEVEL
 62
7
 10
762.195
 20
-1776.828
 30
4627.000
 70
    32
  0
VERTEX
  8
0600LEVEL
 62
7
 10
751.702
 20
-1791.148
 30
4627.000
 70
    32
  0
VERTEX
  8
0600LEVEL
 62
7
 10
754.864
 20
-1830.194
 30
4627.000
 70
    32
  0
VERTEX
  8
0600LEVEL
 62
7
 10
725.051
 20
-1795.416
 30
4627.000
 70
    32
  0
VERTEX
  8
0600LEVEL
 62
7
 10
698.356
 20
-1733.483
 30
4627.000
 70
    32
  0
VERTEX
  8
0600LEVEL
 62
7
 10
716.009
 20
-1724.411
 30
4627.000
 70
    32
  0
VERTEX
  8
0600LEVEL
 62
7
 10
709.818
 20
-1688.372
 30
4627.000
 70
    32
  0
VERTEX
  8
0600LEVEL
 62
7
 10
670.531
 20
-1611.710
 30
4627.000
 70
    32
  0
VERTEX
  8
0600LEVEL
 62
7
 10
636.042
 20
-1539.390
 30
4627.000
 70
    32
  0
VERTEX
  8
0600LEVEL
 62
7
 10
594.718
 20
-1473.203
 30
4627.000
 70
    32
  0
VERTEX
  8
0600LEVEL
 62
7
 10
558.164
 20
-1396.755
 30
4627.000
 70
    32
  0
VERTEX
  8
0600LEVEL
 62
7
 10
530.004
 20
-1344.892
 30
4627.000
 70
    32
  0
VERTEX
  8
0600LEVEL
 62
7
 10
496.629
 20
-1325.111
 30
4627.000
 70
    32
  0
VERTEX
  8
0600LEVEL
 62
7
 10
521.974
 20
-1377.249
 30
4627.000
 70
    32
  0
VERTEX
  8
0600LEVEL
 62
7
 10
545.684
 20
-1430.116
 30
4627.000
 70
    32
  0
VERTEX
  8
0600LEVEL
 62
7
 10
542.838
 20
-1483.742
 30
4627.000
 70
    32
  0
VERTEX
  8
0600LEVEL
 62
7
 10
505.699
 20
-1444.695
 30
4627.000
 70
    32
  0
VERTEX
  8
0600LEVEL
 62
7
 10
473.926
 20
-1399.264
 30
4627.000
 70
    32
  0
VERTEX
  8
0600LEVEL
 62
7
 10
442.766
 20
-1365.011
 30
4627.000
 70
    32
  0
VERTEX
  8
0600LEVEL
 62
7
 10
436.351
 20
-1412.996
 30
4627.000
 70
    32
  0
VERTEX
  8
0600LEVEL
 62
7
 10
444.948
 20
-1471.844
 30
4627.000
 70
    32
  0
VERTEX
  8
0600LEVEL
 62
7
 10
474.553
 20
-1529.993
 30
4627.000
 70
    32
  0
VERTEX
  8
0600LEVEL
 62
7
 10
528.799
 20
-1564.656
 30
4627.000
 70
    32
  0
VERTEX
  8
0600LEVEL
 62
7
 10
551.299
 20
-1602.467
 30
4627.000
 70
    32
  0
VERTEX
  8
0600LEVEL
 62
7
 10
519.384
 20
-1596.274
 30
4627.000
 70
    32
  0
VERTEX
  8
0600LEVEL
 62
7
 10
544.069
 20
-1638.988
 30
4627.000
 70
    32
  0
VERTEX
  8
0600LEVEL
 62
7
 10
534.108
 20
-1675.294
 30
4627.000
 70
    32
  0
VERTEX
  8
0600LEVEL
 62
7
 10
511.308
 20
-1708.658
 30
4627.000
 70
    32
  0
VERTEX
  8
0600LEVEL
 62
7
 10
504.448
 20
-1744.486
 30
4627.000
 70
    32
  0
VERTEX
  8
0600LEVEL
 62
7
 10
526.021
 20
-1790.696
 30
4627.000
 70
    32
  0
VERTEX
  8
0600LEVEL
 62
7
 10
565.036
 20
-1840.885
 30
4627.000
 70
    32
  0
VERTEX
  8
0600LEVEL
 62
7
 10
600.349
 20
-1877.356
 30
4627.000
 70
    32
  0
VERTEX
  8
0600LEVEL
 62
7
 10
611.686
 20
-1923.080
 30
4627.000
 70
    32
  0
VERTEX
  8
0600LEVEL
 62
7
 10
608.188
 20
-1953.944
 30
4627.000
 70
    32
  0
VERTEX
  8
0600LEVEL
 62
7
 10
568.632
 20
-1929.083
 30
4627.000
 70
    32
  0
VERTEX
  8
0600LEVEL
 62
7
 10
524.033
 20
-1877.691
 30
4627.000
 70
    32
  0
VERTEX
  8
0600LEVEL
 62
7
 10
481.072
 20
-1801.913
 30
4627.000
 70
    32
  0
VERTEX
  8
0600LEVEL
 62
7
 10
457.459
 20
-1755.859
 30
4627.000
 70
    32
  0
VERTEX
  8
0600LEVEL
 62
7
 10
408.030
 20
-1709.180
 30
4627.000
 70
    32
  0
VERTEX
  8
0600LEVEL
 62
7
 10
361.510
 20
-1658.719
 30
4627.000
 70
    32
  0
VERTEX
  8
0600LEVEL
 62
7
 10
325.809
 20
-1639.297
 30
4627.000
 70
    32
  0
VERTEX
  8
0600LEVEL
 62
7
 10
289.998
 20
-1650.058
 30
4627.000
 70
    32
  0
VERTEX
  8
0600LEVEL
 62
7
 10
250.080
 20
-1612.550
 30
4627.000
 70
    32
  0
VERTEX
  8
0600LEVEL
 62
7
 10
205.267
 20
-1563.890
 30
4627.000
 70
    32
  0
VERTEX
  8
0600LEVEL
 62
7
 10
185.764
 20
-1498.150
 30
4627.000
 70
    32
  0
VERTEX
  8
0600LEVEL
 62
7
 10
148.253
 20
-1415.499
 30
4627.000
 70
    32
  0
VERTEX
  8
0600LEVEL
 62
7
 10
123.957
 20
-1321.760
 30
4627.000
 70
    32
  0
VERTEX
  8
0600LEVEL
 62
7
 10
77.783
 20
-1198.371
 30
4627.000
 70
    32
  0
VERTEX
  8
0600LEVEL
 62
7
 10
43.526
 20
-1106.962
 30
4627.000
 70
    32
  0
VERTEX
  8
0600LEVEL
 62
7
 10
-0.739
 20
-1053.613
 30
4627.000
 70
    32
  0
VERTEX
  8
0600LEVEL
 62
7
 10
-54.405
 20
-1005.206
 30
4627.000
 70
    32
  0
VERTEX
  8
0600LEVEL
 62
7
 10
-112.088
 20
-962.658
 30
4627.000
 70
    32
  0
VERTEX
  8
0600LEVEL
 62
7
 10
-169.722
 20
-928.676
 30
4627.000
 70
    32
  0
VERTEX
  8
0600LEVEL
 62
7
 10
-205.269
 20
-866.998
 30
4627.000
 70
    32
  0
VERTEX
  8
0600LEVEL
 62
7
 10
-259.869
 20
-806.351
 30
4627.000
 70
    32
  0
VERTEX
  8
0600LEVEL
 62
7
 10
-248.438
 20
-848.568
 30
4627.000
 70
    32
  0
VERTEX
  8
0600LEVEL
 62
7
 10
-221.887
 20
-905.442
 30
4627.000
 70
    32
  0
VERTEX
  8
0600LEVEL
 62
7
 10
-177.643
 20
-964.827
 30
4627.000
 70
    32
  0
VERTEX
  8
0600LEVEL
 62
7
 10
-131.606
 20
-1035.844
 30
4627.000
 70
    32
  0
VERTEX
  8
0600LEVEL
 62
7
 10
-73.651
 20
-1104.864
 30
4627.000
 70
    32
  0
VERTEX
  8
0600LEVEL
 62
7
 10
-23.520
 20
-1182.871
 30
4627.000
 70
    32
  0
VERTEX
  8
0600LEVEL
 62
7
 10
11.854
 20
-1258.866
 30
4627.000
 70
    32
  0
VERTEX
  8
0600LEVEL
 62
7
 10
48.694
 20
-1335.111
 30
4627.000
 70
    32
  0
VERTEX
  8
0600LEVEL
 62
7
 10
103.877
 20
-1426.310
 30
4627.000
 70
    32
  0
VERTEX
  8
0600LEVEL
 62
7
 10
153.399
 20
-1537.434
 30
4627.000
 70
    32
  0
VERTEX
  8
0600LEVEL
 62
7
 10
206.950
 20
-1639.681
 30
4627.000
 70
    32
  0
VERTEX
  8
0600LEVEL
 62
7
 10
242.584
 20
-1711.191
 30
4627.000
 70
    32
  0
VERTEX
  8
0600LEVEL
 62
7
 10
280.476
 20
-1790.131
 30
4627.000
 70
    32
  0
VERTEX
  8
0600LEVEL
 62
7
 10
323.204
 20
-1884.997
 30
4627.000
 70
    32
  0
VERTEX
  8
0600LEVEL
 62
7
 10
373.720
 20
-1969.613
 30
4627.000
 70
    32
  0
VERTEX
  8
0600LEVEL
 62
7
 10
442.490
 20
-2059.352
 30
4627.000
 70
    32
  0
VERTEX
  8
0600LEVEL
 62
7
 10
478.734
 20
-2097.743
 30
4627.000
 70
    32
  0
VERTEX
  8
0600LEVEL
 62
7
 10
499.561
 20
-2124.699
 30
4627.000
 70
    32
  0
VERTEX
  8
0600LEVEL
 62
7
 10
565.215
 20
-2207.615
 30
4627.000
 70
    32
  0
VERTEX
  8
0600LEVEL
 62
7
 10
740.833
 20
-2414.724
 30
4627.000
 70
    32
  0
VERTEX
  8
0600LEVEL
 62
7
 10
816.259
 20
-2502.326
 30
4627.000
 70
    32
  0
VERTEX
  8
0600LEVEL
 62
7
 10
871.409
 20
-2568.603
 30
4627.000
 70
    32
  0
VERTEX
  8
0600LEVEL
 62
7
 10
903.294
 20
-2628.148
 30
4627.000
 70
    32
  0
SEQEND
  8
0600LEVEL
  0
POLYLINE
  8
0600LEVEL
 62
7
 66
     1
 70
     9
  0
VERTEX
  8
0600LEVEL
 62
7
 10
1210.468
 20
-2404.395
 30
4627.000
 70
    32
  0
VERTEX
  8
0600LEVEL
 62
7
 10
1268.611
 20
-2466.401
 30
4627.000
 70
    32
  0
VERTEX
  8
0600LEVEL
 62
7
 10
1322.505
 20
-2519.377
 30
4627.000
 70
    32
  0
VERTEX
  8
0600LEVEL
 62
7
 10
1366.006
 20
-2569.827
 30
4627.000
 70
    32
  0
VERTEX
  8
0600LEVEL
 62
7
 10
1395.895
 20
-2583.477
 30
4627.000
 70
    32
  0
VERTEX
  8
0600LEVEL
 62
7
 10
1444.424
 20
-2574.883
 30
4627.000
 70
    32
  0
VERTEX
  8
0600LEVEL
 62
7
 10
1493.093
 20
-2595.006
 30
4627.000
 70
    32
  0
VERTEX
  8
0600LEVEL
 62
7
 10
1539.334
 20
-2632.332
 30
4627.000
 70
    32
  0
VERTEX
  8
0600LEVEL
 62
7
 10
1577.238
 20
-2674.277
 30
4627.000
 70
    32
  0
VERTEX
  8
0600LEVEL
 62
7
 10
1588.925
 20
-2735.666
 30
4627.000
 70
    32
  0
VERTEX
  8
0600LEVEL
 62
7
 10
1615.454
 20
-2798.576
 30
4627.000
 70
    32
  0
VERTEX
  8
0600LEVEL
 62
7
 10
1632.769
 20
-2849.094
 30
4627.000
 70
    32
  0
VERTEX
  8
0600LEVEL
 62
7
 10
1623.905
 20
-2886.343
 30
4627.000
 70
    32
  0
VERTEX
  8
0600LEVEL
 62
7
 10
1595.090
 20
-2835.375
 30
4627.000
 70
    32
  0
VERTEX
  8
0600LEVEL
 62
7
 10
1568.875
 20
-2786.864
 30
4627.000
 70
    32
  0
VERTEX
  8
0600LEVEL
 62
7
 10
1520.750
 20
-2751.734
 30
4627.000
 70
    32
  0
VERTEX
  8
0600LEVEL
 62
7
 10
1505.233
 20
-2689.189
 30
4627.000
 70
    32
  0
VERTEX
  8
0600LEVEL
 62
7
 10
1449.567
 20
-2652.523
 30
4627.000
 70
    32
  0
VERTEX
  8
0600LEVEL
 62
7
 10
1390.122
 20
-2623.265
 30
4627.000
 70
    32
  0
VERTEX
  8
0600LEVEL
 62
7
 10
1354.432
 20
-2600.825
 30
4627.000
 70
    32
  0
VERTEX
  8
0600LEVEL
 62
7
 10
1321.361
 20
-2598.461
 30
4627.000
 70
    32
  0
VERTEX
  8
0600LEVEL
 62
7
 10
1277.617
 20
-2536.141
 30
4627.000
 70
    32
  0
VERTEX
  8
0600LEVEL
 62
7
 10
1242.747
 20
-2467.531
 30
4627.000
 70
    32
  0
SEQEND
  8
0600LEVEL
  0
POLYLINE
  8
0600LEVEL
 62
7
 66
     1
 70
     8
  0
VERTEX
  8
0600LEVEL
 62
7
 10
1532.881
 20
-3444.162
 30
4627.000
 70
    32
  0
VERTEX
  8
0600LEVEL
 62
7
 10
1571.682
 20
-3497.083
 30
4627.000
 70
    32
  0
VERTEX
  8
0600LEVEL
 62
7
 10
1593.346
 20
-3529.467
 30
4627.000
 70
    32
  0
VERTEX
  8
0600LEVEL
 62
7
 10
1598.635
 20
-3578.187
 30
4627.000
 70
    32
  0
VERTEX
  8
0600LEVEL
 62
7
 10
1617.566
 20
-3610.356
 30
4627.000
 70
    32
  0
VERTEX
  8
0600LEVEL
 62
7
 10
1643.466
 20
-3644.468
 30
4627.000
 70
    32
  0
VERTEX
  8
0600LEVEL
 62
7
 10
1690.465
 20
-3664.054
 30
4627.000
 70
    32
  0
VERTEX
  8
0600LEVEL
 62
7
 10
1724.349
 20
-3711.859
 30
4627.000
 70
    32
  0
VERTEX
  8
0600LEVEL
 62
7
 10
1731.935
 20
-3779.595
 30
4627.000
 70
    32
  0
VERTEX
  8
0600LEVEL
 62
7
 10
1753.094
 20
-3838.570
 30
4627.000
 70
    32
  0
VERTEX
  8
0600LEVEL
 62
7
 10
1755.788
 20
-3905.473
 30
4627.000
 70
    32
  0
VERTEX
  8
0600LEVEL
 62
7
 10
1772.056
 20
-3963.615
 30
4627.000
 70
    32
  0
VERTEX
  8
0600LEVEL
 62
7
 10
1760.511
 20
-3975.239
 30
4627.000
 70
    32
  0
VERTEX
  8
0600LEVEL
 62
7
 10
1731.438
 20
-3939.076
 30
4627.000
 70
    32
  0
VERTEX
  8
0600LEVEL
 62
7
 10
1697.433
 20
-3924.473
 30
4627.000
 70
    32
  0
VERTEX
  8
0600LEVEL
 62
7
 10
1658.919
 20
-3915.645
 30
4627.000
 70
    32
  0
VERTEX
  8
0600LEVEL
 62
7
 10
1619.179
 20
-3874.141
 30
4627.000
 70
    32
  0
VERTEX
  8
0600LEVEL
 62
7
 10
1595.384
 20
-3855.741
 30
4627.000
 70
    32
  0
VERTEX
  8
0600LEVEL
 62
7
 10
1568.615
 20
-3825.257
 30
4627.000
 70
    32
  0
VERTEX
  8
0600LEVEL
 62
7
 10
1548.789
 20
-3792.431
 30
4627.000
 70
    32
  0
VERTEX
  8
0600LEVEL
 62
7
 10
1541.574
 20
-3802.276
 30
4627.000
 70
    32
  0
VERTEX
  8
0600LEVEL
 62
7
 10
1529.744
 20
-3814.103
 30
4627.000
 70
    32
  0
VERTEX
  8
0600LEVEL
 62
7
 10
1544.681
 20
-3890.391
 30
4627.000
 70
    32
  0
VERTEX
  8
0600LEVEL
 62
7
 10
1512.273
 20
-3907.771
 30
4627.000
 70
    32
  0
VERTEX
  8
0600LEVEL
 62
7
 10
1502.188
 20
-3932.983
 30
4627.000
 70
    32
  0
VERTEX
  8
0600LEVEL
 62
7
 10
1516.224
 20
-3987.976
 30
4627.000
 70
    32
  0
VERTEX
  8
0600LEVEL
 62
7
 10
1514.885
 20
-4053.436
 30
4627.000
 70
    32
  0
VERTEX
  8
0600LEVEL
 62
7
 10
1473.612
 20
-3995.816
 30
4627.000
 70
    32
  0
VERTEX
  8
0600LEVEL
 62
7
 10
1439.304
 20
-3929.818
 30
4627.000
 70
    32
  0
VERTEX
  8
0600LEVEL
 62
7
 10
1417.029
 20
-3852.280
 30
4627.000
 70
    32
  0
VERTEX
  8
0600LEVEL
 62
7
 10
1389.447
 20
-3742.377
 30
4627.000
 70
    32
  0
VERTEX
  8
0600LEVEL
 62
7
 10
1344.566
 20
-3633.553
 30
4627.000
 70
    32
  0
VERTEX
  8
0600LEVEL
 62
7
 10
1299.936
 20
-3523.263
 30
4627.000
 70
    32
  0
VERTEX
  8
0600LEVEL
 62
7
 10
1257.331
 20
-3439.492
 30
4627.000
 70
    32
  0
VERTEX
  8
0600LEVEL
 62
7
 10
1215.059
 20
-3353.764
 30
4627.000
 70
    32
  0
VERTEX
  8
0600LEVEL
 62
7
 10
1132.647
 20
-3246.599
 30
4627.000
 70
    32
  0
VERTEX
  8
0600LEVEL
 62
7
 10
1094.197
 20
-3175.365
 30
4627.000
 70
    32
  0
VERTEX
  8
0600LEVEL
 62
7
 10
1080.664
 20
-3161.734
 30
4627.000
 70
    32
  0
VERTEX
  8
0600LEVEL
 62
7
 10
1055.938
 20
-3141.413
 30
4627.000
 70
    32
  0
VERTEX
  8
0600LEVEL
 62
7
 10
1040.944
 20
-3148.170
 30
4627.000
 70
    32
  0
VERTEX
  8
0600LEVEL
 62
7
 10
1059.038
 20
-3208.888
 30
4627.000
 70
    32
  0
VERTEX
  8
0600LEVEL
 62
7
 10
1079.299
 20
-3256.888
 30
4627.000
 70
    32
  0
VERTEX
  8
0600LEVEL
 62
7
 10
1092.473
 20
-3268.194
 30
4627.000
 70
    32
  0
VERTEX
  8
0600LEVEL
 62
7
 10
1095.758
 20
-3318.335
 30
4627.000
 70
    32
  0
VERTEX
  8
0600LEVEL
 62
7
 10
1088.184
 20
-3359.830
 30
4627.000
 70
    32
  0
VERTEX
  8
0600LEVEL
 62
7
 10
1091.858
 20
-3392.923
 30
4627.000
 70
    32
  0
VERTEX
  8
0600LEVEL
 62
7
 10
1073.392
 20
-3400.850
 30
4627.000
 70
    32
  0
VERTEX
  8
0600LEVEL
 62
7
 10
1058.120
 20
-3394.472
 30
4627.000
 70
    32
  0
VERTEX
  8
0600LEVEL
 62
7
 10
1046.463
 20
-3391.983
 30
4627.000
 70
    32
  0
VERTEX
  8
0600LEVEL
 62
7
 10
1024.803
 20
-3369.919
 30
4627.000
 70
    32
  0
VERTEX
  8
0600LEVEL
 62
7
 10
989.298
 20
-3330.144
 30
4627.000
 70
    32
  0
VERTEX
  8
0600LEVEL
 62
7
 10
960.885
 20
-3269.429
 30
4627.000
 70
    32
  0
VERTEX
  8
0600LEVEL
 62
7
 10
919.236
 20
-3191.862
 30
4627.000
 70
    32
  0
VERTEX
  8
0600LEVEL
 62
7
 10
879.699
 20
-3116.667
 30
4627.000
 70
    32
  0
VERTEX
  8
0600LEVEL
 62
7
 10
829.086
 20
-3025.240
 30
4627.000
 70
    32
  0
VERTEX
  8
0600LEVEL
 62
7
 10
778.415
 20
-2938.584
 30
4627.000
 70
    32
  0
VERTEX
  8
0600LEVEL
 62
7
 10
726.693
 20
-2849.233
 30
4627.000
 70
    32
  0
VERTEX
  8
0600LEVEL
 62
7
 10
685.917
 20
-2778.358
 30
4627.000
 70
    32
  0
VERTEX
  8
0600LEVEL
 62
7
 10
602.586
 20
-2632.277
 30
4627.000
 70
    32
  0
VERTEX
  8
0600LEVEL
 62
7
 10
535.947
 20
-2528.555
 30
4627.000
 70
    32
  0
VERTEX
  8
0600LEVEL
 62
7
 10
492.533
 20
-2453.959
 30
4627.000
 70
    32
  0
VERTEX
  8
0600LEVEL
 62
7
 10
450.384
 20
-2379.326
 30
4627.000
 70
    32
  0
VERTEX
  8
0600LEVEL
 62
7
 10
398.042
 20
-2292.134
 30
4627.000
 70
    32
  0
VERTEX
  8
0600LEVEL
 62
7
 10
352.291
 20
-2220.915
 30
4627.000
 70
    32
  0
VERTEX
  8
0600LEVEL
 62
7
 10
335.103
 20
-2191.811
 30
4627.000
 70
    32
  0
VERTEX
  8
0600LEVEL
 62
7
 10
289.427
 20
-2133.440
 30
4627.000
 70
    32
  0
VERTEX
  8
0600LEVEL
 62
7
 10
242.003
 20
-2051.364
 30
4627.000
 70
    32
  0
VERTEX
  8
0600LEVEL
 62
7
 10
194.425
 20
-1977.569
 30
4627.000
 70
    32
  0
VERTEX
  8
0600LEVEL
 62
7
 10
146.609
 20
-1902.222
 30
4627.000
 70
    32
  0
VERTEX
  8
0600LEVEL
 62
7
 10
100.043
 20
-1819.538
 30
4627.000
 70
    32
  0
VERTEX
  8
0600LEVEL
 62
7
 10
61.115
 20
-1745.202
 30
4627.000
 70
    32
  0
VERTEX
  8
0600LEVEL
 62
7
 10
14.995
 20
-1674.675
 30
4627.000
 70
    32
  0
VERTEX
  8
0600LEVEL
 62
7
 10
-21.684
 20
-1621.109
 30
4627.000
 70
    32
  0
VERTEX
  8
0600LEVEL
 62
7
 10
-22.602
 20
-1660.466
 30
4627.000
 70
    32
  0
VERTEX
  8
0600LEVEL
 62
7
 10
-38.393
 20
-1673.380
 30
4627.000
 70
    32
  0
VERTEX
  8
0600LEVEL
 62
7
 10
-81.988
 20
-1626.437
 30
4627.000
 70
    32
  0
VERTEX
  8
0600LEVEL
 62
7
 10
-129.348
 20
-1560.229
 30
4627.000
 70
    32
  0
VERTEX
  8
0600LEVEL
 62
7
 10
-179.839
 20
-1479.896
 30
4627.000
 70
    32
  0
VERTEX
  8
0600LEVEL
 62
7
 10
-229.851
 20
-1402.665
 30
4627.000
 70
    32
  0
VERTEX
  8
0600LEVEL
 62
7
 10
-293.833
 20
-1286.308
 30
4627.000
 70
    32
  0
VERTEX
  8
0600LEVEL
 62
7
 10
-347.323
 20
-1189.609
 30
4627.000
 70
    32
  0
VERTEX
  8
0600LEVEL
 62
7
 10
-381.302
 20
-1111.335
 30
4627.000
 70
    32
  0
VERTEX
  8
0600LEVEL
 62
7
 10
-419.997
 20
-1017.911
 30
4627.000
 70
    32
  0
VERTEX
  8
0600LEVEL
 62
7
 10
-447.834
 20
-933.133
 30
4627.000
 70
    32
  0
VERTEX
  8
0600LEVEL
 62
7
 10
-471.300
 20
-858.160
 30
4627.000
 70
    32
  0
VERTEX
  8
0600LEVEL
 62
7
 10
-487.539
 20
-814.621
 30
4627.000
 70
    32
  0
VERTEX
  8
0600LEVEL
 62
7
 10
-500.015
 20
-824.324
 30
4627.000
 70
    32
  0
VERTEX
  8
0600LEVEL
 62
7
 10
-493.473
 20
-876.027
 30
4627.000
 70
    32
  0
VERTEX
  8
0600LEVEL
 62
7
 10
-473.991
 20
-947.804
 30
4627.000
 70
    32
  0
VERTEX
  8
0600LEVEL
 62
7
 10
-460.325
 20
-1003.489
 30
4627.000
 70
    32
  0
VERTEX
  8
0600LEVEL
 62
7
 10
-466.174
 20
-1030.429
 30
4627.000
 70
    32
  0
VERTEX
  8
0600LEVEL
 62
7
 10
-498.700
 20
-979.080
 30
4627.000
 70
    32
  0
VERTEX
  8
0600LEVEL
 62
7
 10
-534.128
 20
-884.200
 30
4627.000
 70
    32
  0
VERTEX
  8
0600LEVEL
 62
7
 10
-555.221
 20
-807.115
 30
4627.000
 70
    32
  0
VERTEX
  8
0600LEVEL
 62
7
 10
-583.811
 20
-716.420
 30
4627.000
 70
    32
  0
VERTEX
  8
0600LEVEL
 62
7
 10
-614.955
 20
-621.514
 30
4627.000
 70
    32
  0
VERTEX
  8
0600LEVEL
 62
7
 10
-648.981
 20
-544.994
 30
4627.000
 70
    32
  0
VERTEX
  8
0600LEVEL
 62
7
 10
-681.050
 20
-468.807
 30
4627.000
 70
    32
  0
VERTEX
  8
0600LEVEL
 62
7
 10
-721.286
 20
-406.581
 30
4627.000
 70
    32
  0
VERTEX
  8
0600LEVEL
 62
7
 10
-775.914
 20
-331.332
 30
4627.000
 70
    32
  0
VERTEX
  8
0600LEVEL
 62
7
 10
-818.509
 20
-244.543
 30
4627.000
 70
    32
  0
VERTEX
  8
0600LEVEL
 62
7
 10
-866.137
 20
-162.181
 30
4627.000
 70
    32
  0
VERTEX
  8
0600LEVEL
 62
7
 10
-920.185
 20
-73.188
 30
4627.000
 70
    32
  0
VERTEX
  8
0600LEVEL
 62
7
 10
-976.157
 20
25.193
 30
4627.000
 70
    32
  0
VERTEX
  8
0600LEVEL
 62
7
 10
-1039.285
 20
118.501
 30
4627.000
 70
    32
  0
VERTEX
  8
0600LEVEL
 62
7
 10
-1067.659
 20
167.632
 30
4627.000
 70
    32
  0
VERTEX
  8
0600LEVEL
 62
7
 10
-1124.848
 20
267.730
 30
4627.000
 70
    32
  0
VERTEX
  8
0600LEVEL
 62
7
 10
-1188.958
 20
371.525
 30
4627.000
 70
    32
  0
VERTEX
  8
0600LEVEL
 62
7
 10
-1249.046
 20
470.859
 30
4627.000
 70
    32
  0
VERTEX
  8
0600LEVEL
 62
7
 10
-1302.681
 20
572.617
 30
4627.000
 70
    32
  0
VERTEX
  8
0600LEVEL
 62
7
 10
-1368.621
 20
655.330
 30
4627.000
 70
    32
  0
VERTEX
  8
0600LEVEL
 62
7
 10
-1426.202
 20
748.700
 30
4627.000
 70
    32
  0
VERTEX
  8
0600LEVEL
 62
7
 10
-1504.562
 20
870.779
 30
4627.000
 70
    32
  0
VERTEX
  8
0600LEVEL
 62
7
 10
-1573.408
 20
973.367
 30
4627.000
 70
    32
  0
VERTEX
  8
0600LEVEL
 62
7
 10
-1655.109
 20
1096.519
 30
4627.000
 70
    32
  0
VERTEX
  8
0600LEVEL
 62
7
 10
-1728.763
 20
1200.429
 30
4627.000
 70
    32
  0
VERTEX
  8
0600LEVEL
 62
7
 10
-1810.556
 20
1309.754
 30
4627.000
 70
    32
  0
VERTEX
  8
0600LEVEL
 62
7
 10
-1887.478
 20
1412.208
 30
4627.000
 70
    32
  0
VERTEX
  8
0600LEVEL
 62
7
 10
-1965.520
 20
1509.568
 30
4627.000
 70
    32
  0
VERTEX
  8
0600LEVEL
 62
7
 10
-2012.420
 20
1556.319
 30
4627.000
 70
    32
  0
VERTEX
  8
0600LEVEL
 62
7
 10
-1983.373
 20
1490.462
 30
4627.000
 70
    32
  0
VERTEX
  8
0600LEVEL
 62
7
 10
-1865.479
 20
1337.485
 30
4627.000
 70
    32
  0
VERTEX
  8
0600LEVEL
 62
7
 10
-1781.676
 20
1208.942
 30
4627.000
 70
    32
  0
VERTEX
  8
0600LEVEL
 62
7
 10
-1689.569
 20
1075.964
 30
4627.000
 70
    32
  0
VERTEX
  8
0600LEVEL
 62
7
 10
-1583.642
 20
929.557
 30
4627.000
 70
    32
  0
VERTEX
  8
0600LEVEL
 62
7
 10
-1487.988
 20
784.900
 30
4627.000
 70
    32
  0
VERTEX
  8
0600LEVEL
 62
7
 10
-1386.384
 20
616.075
 30
4627.000
 70
    32
  0
VERTEX
  8
0600LEVEL
 62
7
 10
-1307.278
 20
474.741
 30
4627.000
 70
    32
  0
VERTEX
  8
0600LEVEL
 62
7
 10
-1248.155
 20
334.296
 30
4627.000
 70
    32
  0
VERTEX
  8
0600LEVEL
 62
7
 10
-1197.379
 20
220.189
 30
4627.000
 70
    32
  0
VERTEX
  8
0600LEVEL
 62
7
 10
-1153.332
 20
106.474
 30
4627.000
 70
    32
  0
VERTEX
  8
0600LEVEL
 62
7
 10
-1199.972
 20
157.711
 30
4627.000
 70
    32
  0
VERTEX
  8
0600LEVEL
 62
7
 10
-1272.786
 20
245.874
 30
4627.000
 70
    32
  0
VERTEX
  8
0600LEVEL
 62
7
 10
-1358.462
 20
341.263
 30
4627.000
 70
    32
  0
VERTEX
  8
0600LEVEL
 62
7
 10
-1434.257
 20
462.150
 30
4627.000
 70
    32
  0
VERTEX
  8
0600LEVEL
 62
7
 10
-1512.624
 20
604.867
 30
4627.000
 70
    32
  0
VERTEX
  8
0600LEVEL
 62
7
 10
-1594.155
 20
752.654
 30
4627.000
 70
    32
  0
VERTEX
  8
0600LEVEL
 62
7
 10
-1658.188
 20
877.577
 30
4627.000
 70
    32
  0
VERTEX
  8
0600LEVEL
 62
7
 10
-1718.935
 20
986.336
 30
4627.000
 70
    32
  0
VERTEX
  8
0600LEVEL
 62
7
 10
-1815.459
 20
1127.365
 30
4627.000
 70
    32
  0
VERTEX
  8
0600LEVEL
 62
7
 10
-1901.661
 20
1258.079
 30
4627.000
 70
    32
  0
VERTEX
  8
0600LEVEL
 62
7
 10
-1970.571
 20
1376.534
 30
4627.000
 70
    32
  0
VERTEX
  8
0600LEVEL
 62
7
 10
-2051.178
 20
1509.063
 30
4627.000
 70
    32
  0
VERTEX
  8
0600LEVEL
 62
7
 10
-2124.222
 20
1646.092
 30
4627.000
 70
    32
  0
VERTEX
  8
0600LEVEL
 62
7
 10
-2180.096
 20
1771.638
 30
4627.000
 70
    32
  0
VERTEX
  8
0600LEVEL
 62
7
 10
-2244.187
 20
1891.788
 30
4627.000
 70
    32
  0
VERTEX
  8
0600LEVEL
 62
7
 10
-2321.961
 20
2006.972
 30
4627.000
 70
    32
  0
VERTEX
  8
0600LEVEL
 62
7
 10
-2389.926
 20
2116.205
 30
4627.000
 70
    32
  0
VERTEX
  8
0600LEVEL
 62
7
 10
-2455.635
 20
2296.280
 30
4627.000
 70
    32
  0
VERTEX
  8
0600LEVEL
 62
7
 10
-2513.777
 20
2426.239
 30
4627.000
 70
    32
  0
VERTEX
  8
0600LEVEL
 62
7
 10
-2571.704
 20
2558.930
 30
4627.000
 70
    32
  0
VERTEX
  8
0600LEVEL
 62
7
 10
-2629.122
 20
2663.598
 30
4627.000
 70
    32
  0
VERTEX
  8
0600LEVEL
 62
7
 10
-2698.891
 20
2781.444
 30
4627.000
 70
    32
  0
VERTEX
  8
0600LEVEL
 62
7
 10
-2778.154
 20
2890.841
 30
4627.000
 70
    32
  0
VERTEX
  8
0600LEVEL
 62
7
 10
-2862.175
 20
2992.995
 30
4627.000
 70
    32
  0
VERTEX
  8
0600LEVEL
 62
7
 10
-2951.446
 20
3098.308
 30
4627.000
 70
    32
  0
VERTEX
  8
0600LEVEL
 62
7
 10
-3020.303
 20
3197.878
 30
4627.000
 70
    32
  0
VERTEX
  8
0600LEVEL
 62
7
 10
-3059.145
 20
3228.407
 30
4627.000
 70
    32
  0
VERTEX
  8
0600LEVEL
 62
7
 10
-3023.565
 20
3141.806
 30
4627.000
 70
    32
  0
VERTEX
  8
0600LEVEL
 62
7
 10
-2975.758
 20
3019.145
 30
4627.000
 70
    32
  0
VERTEX
  8
0600LEVEL
 62
7
 10
-2912.525
 20
2898.385
 30
4627.000
 70
    32
  0
VERTEX
  8
0600LEVEL
 62
7
 10
-2841.227
 20
2774.741
 30
4627.000
 70
    32
  0
VERTEX
  8
0600LEVEL
 62
7
 10
-2766.838
 20
2648.557
 30
4627.000
 70
    32
  0
VERTEX
  8
0600LEVEL
 62
7
 10
-2685.597
 20
2510.887
 30
4627.000
 70
    32
  0
VERTEX
  8
0600LEVEL
 62
7
 10
-2607.374
 20
2407.204
 30
4627.000
 70
    32
  0
VERTEX
  8
0600LEVEL
 62
7
 10
-2528.622
 20
2291.854
 30
4627.000
 70
    32
  0
VERTEX
  8
0600LEVEL
 62
7
 10
-2458.201
 20
2151.245
 30
4627.000
 70
    32
  0
VERTEX
  8
0600LEVEL
 62
7
 10
-2379.403
 20
2003.672
 30
4627.000
 70
    32
  0
VERTEX
  8
0600LEVEL
 62
7
 10
-2319.870
 20
1886.312
 30
4627.000
 70
    32
  0
VERTEX
  8
0600LEVEL
 62
7
 10
-2260.261
 20
1756.102
 30
4627.000
 70
    32
  0
VERTEX
  8
0600LEVEL
 62
7
 10
-2200.848
 20
1605.541
 30
4627.000
 70
    32
  0
VERTEX
  8
0600LEVEL
 62
7
 10
-2152.497
 20
1463.911
 30
4627.000
 70
    32
  0
VERTEX
  8
0600LEVEL
 62
7
 10
-2102.070
 20
1321.172
 30
4627.000
 70
    32
  0
VERTEX
  8
0600LEVEL
 62
7
 10
-2068.245
 20
1200.641
 30
4627.000
 70
    32
  0
VERTEX
  8
0600LEVEL
 62
7
 10
-2023.956
 20
1075.056
 30
4627.000
 70
    32
  0
VERTEX
  8
0600LEVEL
 62
7
 10
-1957.933
 20
958.855
 30
4627.000
 70
    32
  0
VERTEX
  8
0600LEVEL
 62
7
 10
-1902.751
 20
867.656
 30
4627.000
 70
    32
  0
VERTEX
  8
0600LEVEL
 62
7
 10
-1905.198
 20
834.096
 30
4627.000
 70
    32
  0
VERTEX
  8
0600LEVEL
 62
7
 10
-1958.344
 20
901.793
 30
4627.000
 70
    32
  0
VERTEX
  8
0600LEVEL
 62
7
 10
-1989.846
 20
920.752
 30
4627.000
 70
    32
  0
VERTEX
  8
0600LEVEL
 62
7
 10
-1946.370
 20
840.608
 30
4627.000
 70
    32
  0
VERTEX
  8
0600LEVEL
 62
7
 10
-1904.015
 20
755.369
 30
4627.000
 70
    32
  0
VERTEX
  8
0600LEVEL
 62
7
 10
-1950.318
 20
798.243
 30
4627.000
 70
    32
  0
VERTEX
  8
0600LEVEL
 62
7
 10
-2021.837
 20
905.817
 30
4627.000
 70
    32
  0
VERTEX
  8
0600LEVEL
 62
7
 10
-2082.066
 20
1033.867
 30
4627.000
 70
    32
  0
VERTEX
  8
0600LEVEL
 62
7
 10
-2152.186
 20
1167.377
 30
4627.000
 70
    32
  0
VERTEX
  8
0600LEVEL
 62
7
 10
-2227.673
 20
1294.503
 30
4627.000
 70
    32
  0
VERTEX
  8
0600LEVEL
 62
7
 10
-2298.407
 20
1405.215
 30
4627.000
 70
    32
  0
VERTEX
  8
0600LEVEL
 62
7
 10
-2370.941
 20
1514.220
 30
4627.000
 70
    32
  0
VERTEX
  8
0600LEVEL
 62
7
 10
-2445.309
 20
1612.464
 30
4627.000
 70
    32
  0
VERTEX
  8
0600LEVEL
 62
7
 10
-2508.623
 20
1688.438
 30
4627.000
 70
    32
  0
VERTEX
  8
0600LEVEL
 62
7
 10
-2583.907
 20
1781.301
 30
4627.000
 70
    32
  0
VERTEX
  8
0600LEVEL
 62
7
 10
-2566.814
 20
1714.713
 30
4627.000
 70
    32
  0
VERTEX
  8
0600LEVEL
 62
7
 10
-2519.534
 20
1637.696
 30
4627.000
 70
    32
  0
VERTEX
  8
0600LEVEL
 62
7
 10
-2454.432
 20
1492.457
 30
4627.000
 70
    32
  0
VERTEX
  8
0600LEVEL
 62
7
 10
-2386.439
 20
1368.621
 30
4627.000
 70
    32
  0
VERTEX
  8
0600LEVEL
 62
7
 10
-2316.774
 20
1244.249
 30
4627.000
 70
    32
  0
VERTEX
  8
0600LEVEL
 62
7
 10
-2263.423
 20
1131.968
 30
4627.000
 70
    32
  0
VERTEX
  8
0600LEVEL
 62
7
 10
-2173.595
 20
966.408
 30
4627.000
 70
    32
  0
VERTEX
  8
0600LEVEL
 62
7
 10
-2072.855
 20
773.317
 30
4627.000
 70
    32
  0
VERTEX
  8
0600LEVEL
 62
7
 10
-1942.071
 20
530.559
 30
4627.000
 70
    32
  0
VERTEX
  8
0600LEVEL
 62
7
 10
-1788.720
 20
268.100
 30
4627.000
 70
    32
  0
VERTEX
  8
0600LEVEL
 62
7
 10
-1583.458
 20
-42.719
 30
4627.000
 70
    32
  0
VERTEX
  8
0600LEVEL
 62
7
 10
-1421.103
 20
-296.646
 30
4627.000
 70
    32
  0
VERTEX
  8
0600LEVEL
 62
7
 10
-1227.929
 20
-600.120
 30
4627.000
 70
    32
  0
VERTEX
  8
0600LEVEL
 62
7
 10
-1030.261
 20
-890.517
 30
4627.000
 70
    32
  0
VERTEX
  8
0600LEVEL
 62
7
 10
-870.390
 20
-1098.465
 30
4627.000
 70
    32
  0
VERTEX
  8
0600LEVEL
 62
7
 10
-723.742
 20
-1296.863
 30
4627.000
 70
    32
  0
VERTEX
  8
0600LEVEL
 62
7
 10
-589.369
 20
-1494.930
 30
4627.000
 70
    32
  0
VERTEX
  8
0600LEVEL
 62
7
 10
-439.380
 20
-1728.376
 30
4627.000
 70
    32
  0
VERTEX
  8
0600LEVEL
 62
7
 10
-288.485
 20
-1959.460
 30
4627.000
 70
    32
  0
VERTEX
  8
0600LEVEL
 62
7
 10
-144.652
 20
-2158.133
 30
4627.000
 70
    32
  0
VERTEX
  8
0600LEVEL
 62
7
 10
-40.679
 20
-2348.503
 30
4627.000
 70
    32
  0
VERTEX
  8
0600LEVEL
 62
7
 10
25.782
 20
-2456.221
 30
4627.000
 70
    32
  0
VERTEX
  8
0600LEVEL
 62
7
 10
-6.169
 20
-2448.764
 30
4627.000
 70
    32
  0
VERTEX
  8
0600LEVEL
 62
7
 10
-80.751
 20
-2353.252
 30
4627.000
 70
    32
  0
VERTEX
  8
0600LEVEL
 62
7
 10
-168.859
 20
-2264.747
 30
4627.000
 70
    32
  0
VERTEX
  8
0600LEVEL
 62
7
 10
-255.055
 20
-2188.650
 30
4627.000
 70
    32
  0
VERTEX
  8
0600LEVEL
 62
7
 10
-326.904
 20
-2093.352
 30
4627.000
 70
    32
  0
VERTEX
  8
0600LEVEL
 62
7
 10
-413.835
 20
-1994.981
 30
4627.000
 70
    32
  0
VERTEX
  8
0600LEVEL
 62
7
 10
-501.435
 20
-1856.227
 30
4627.000
 70
    32
  0
VERTEX
  8
0600LEVEL
 62
7
 10
-593.440
 20
-1706.403
 30
4627.000
 70
    32
  0
VERTEX
  8
0600LEVEL
 62
7
 10
-679.594
 20
-1573.936
 30
4627.000
 70
    32
  0
VERTEX
  8
0600LEVEL
 62
7
 10
-734.780
 20
-1472.417
 30
4627.000
 70
    32
  0
VERTEX
  8
0600LEVEL
 62
7
 10
-834.564
 20
-1319.506
 30
4627.000
 70
    32
  0
VERTEX
  8
0600LEVEL
 62
7
 10
-929.302
 20
-1169.468
 30
4627.000
 70
    32
  0
VERTEX
  8
0600LEVEL
 62
7
 10
-1048.779
 20
-991.809
 30
4627.000
 70
    32
  0
VERTEX
  8
0600LEVEL
 62
7
 10
-1166.344
 20
-826.556
 30
4627.000
 70
    32
  0
VERTEX
  8
0600LEVEL
 62
7
 10
-1313.580
 20
-621.264
 30
4627.000
 70
    32
  0
VERTEX
  8
0600LEVEL
 62
7
 10
-1440.565
 20
-433.013
 30
4627.000
 70
    32
  0
VERTEX
  8
0600LEVEL
 62
7
 10
-1542.730
 20
-261.575
 30
4627.000
 70
    32
  0
VERTEX
  8
0600LEVEL
 62
7
 10
-1684.092
 20
-67.602
 30
4627.000
 70
    32
  0
VERTEX
  8
0600LEVEL
 62
7
 10
-1790.634
 20
100.303
 30
4627.000
 70
    32
  0
VERTEX
  8
0600LEVEL
 62
7
 10
-1885.835
 20
280.118
 30
4627.000
 70
    32
  0
VERTEX
  8
0600LEVEL
 62
7
 10
-1962.775
 20
400.193
 30
4627.000
 70
    32
  0
VERTEX
  8
0600LEVEL
 62
7
 10
-2067.292
 20
541.578
 30
4627.000
 70
    32
  0
VERTEX
  8
0600LEVEL
 62
7
 10
-2171.875
 20
664.853
 30
4627.000
 70
    32
  0
VERTEX
  8
0600LEVEL
 62
7
 10
-2303.335
 20
856.383
 30
4627.000
 70
    32
  0
VERTEX
  8
0600LEVEL
 62
7
 10
-2396.087
 20
991.485
 30
4627.000
 70
    32
  0
VERTEX
  8
0600LEVEL
 62
7
 10
-2496.999
 20
1125.964
 30
4627.000
 70
    32
  0
VERTEX
  8
0600LEVEL
 62
7
 10
-2590.357
 20
1251.605
 30
4627.000
 70
    32
  0
VERTEX
  8
0600LEVEL
 62
7
 10
-2690.363
 20
1388.446
 30
4627.000
 70
    32
  0
VERTEX
  8
0600LEVEL
 62
7
 10
-2767.604
 20
1515.619
 30
4627.000
 70
    32
  0
VERTEX
  8
0600LEVEL
 62
7
 10
-2852.001
 20
1637.720
 30
4627.000
 70
    32
  0
VERTEX
  8
0600LEVEL
 62
7
 10
-2926.130
 20
1734.413
 30
4627.000
 70
    32
  0
VERTEX
  8
0600LEVEL
 62
7
 10
-2971.701
 20
1765.332
 30
4627.000
 70
    32
  0
VERTEX
  8
0600LEVEL
 62
7
 10
-2915.859
 20
1664.709
 30
4627.000
 70
    32
  0
VERTEX
  8
0600LEVEL
 62
7
 10
-2826.839
 20
1523.951
 30
4627.000
 70
    32
  0
VERTEX
  8
0600LEVEL
 62
7
 10
-2749.537
 20
1391.230
 30
4627.000
 70
    32
  0
VERTEX
  8
0600LEVEL
 62
7
 10
-2687.286
 20
1280.957
 30
4627.000
 70
    32
  0
VERTEX
  8
0600LEVEL
 62
7
 10
-2680.476
 20
1213.101
 30
4627.000
 70
    32
  0
VERTEX
  8
0600LEVEL
 62
7
 10
-2743.768
 20
1295.111
 30
4627.000
 70
    32
  0
VERTEX
  8
0600LEVEL
 62
7
 10
-2835.292
 20
1431.514
 30
4627.000
 70
    32
  0
VERTEX
  8
0600LEVEL
 62
7
 10
-2927.591
 20
1567.797
 30
4627.000
 70
    32
  0
VERTEX
  8
0600LEVEL
 62
7
 10
-3007.183
 20
1698.894
 30
4627.000
 70
    32
  0
VERTEX
  8
0600LEVEL
 62
7
 10
-3045.969
 20
1812.468
 30
4627.000
 70
    32
  0
VERTEX
  8
0600LEVEL
 62
7
 10
-3110.256
 20
1912.266
 30
4627.000
 70
    32
  0
VERTEX
  8
0600LEVEL
 62
7
 10
-3096.656
 20
1838.471
 30
4627.000
 70
    32
  0
VERTEX
  8
0600LEVEL
 62
7
 10
-3106.096
 20
1811.136
 30
4627.000
 70
    32
  0
VERTEX
  8
0600LEVEL
 62
7
 10
-3198.567
 20
1888.807
 30
4627.000
 70
    32
  0
VERTEX
  8
0600LEVEL
 62
7
 10
-3283.617
 20
1999.693
 30
4627.000
 70
    32
  0
VERTEX
  8
0600LEVEL
 62
7
 10
-3350.759
 20
2110.800
 30
4627.000
 70
    32
  0
VERTEX
  8
0600LEVEL
 62
7
 10
-3415.300
 20
2219.450
 30
4627.000
 70
    32
  0
VERTEX
  8
0600LEVEL
 62
7
 10
-3464.856
 20
2287.542
 30
4627.000
 70
    32
  0
VERTEX
  8
0600LEVEL
 62
7
 10
-3442.864
 20
2199.482
 30
4627.000
 70
    32
  0
VERTEX
  8
0600LEVEL
 62
7
 10
-3422.297
 20
2089.768
 30
4627.000
 70
    32
  0
VERTEX
  8
0600LEVEL
 62
7
 10
-3351.148
 20
1947.525
 30
4627.000
 70
    32
  0
VERTEX
  8
0600LEVEL
 62
7
 10
-3265.917
 20
1830.316
 30
4627.000
 70
    32
  0
VERTEX
  8
0600LEVEL
 62
7
 10
-3165.109
 20
1723.288
 30
4627.000
 70
    32
  0
VERTEX
  8
0600LEVEL
 62
7
 10
-3067.033
 20
1616.474
 30
4627.000
 70
    32
  0
VERTEX
  8
0600LEVEL
 62
7
 10
-2960.327
 20
1493.844
 30
4627.000
 70
    32
  0
VERTEX
  8
0600LEVEL
 62
7
 10
-2889.456
 20
1364.736
 30
4627.000
 70
    32
  0
VERTEX
  8
0600LEVEL
 62
7
 10
-2820.195
 20
1230.617
 30
4627.000
 70
    32
  0
VERTEX
  8
0600LEVEL
 62
7
 10
-2767.625
 20
1138.856
 30
4627.000
 70
    32
  0
VERTEX
  8
0600LEVEL
 62
7
 10
-2718.284
 20
1034.054
 30
4627.000
 70
    32
  0
VERTEX
  8
0600LEVEL
 62
7
 10
-2690.100
 20
943.932
 30
4627.000
 70
    32
  0
VERTEX
  8
0600LEVEL
 62
7
 10
-2771.970
 20
998.151
 30
4627.000
 70
    32
  0
VERTEX
  8
0600LEVEL
 62
7
 10
-2855.408
 20
1069.752
 30
4627.000
 70
    32
  0
VERTEX
  8
0600LEVEL
 62
7
 10
-2925.678
 20
1150.687
 30
4627.000
 70
    32
  0
VERTEX
  8
0600LEVEL
 62
7
 10
-2984.949
 20
1194.260
 30
4627.000
 70
    32
  0
VERTEX
  8
0600LEVEL
 62
7
 10
-2946.072
 20
1094.514
 30
4627.000
 70
    32
  0
VERTEX
  8
0600LEVEL
 62
7
 10
-2904.859
 20
998.144
 30
4627.000
 70
    32
  0
VERTEX
  8
0600LEVEL
 62
7
 10
-2897.555
 20
953.862
 30
4627.000
 70
    32
  0
VERTEX
  8
0600LEVEL
 62
7
 10
-2978.475
 20
1022.517
 30
4627.000
 70
    32
  0
VERTEX
  8
0600LEVEL
 62
7
 10
-3075.562
 20
1098.206
 30
4627.000
 70
    32
  0
VERTEX
  8
0600LEVEL
 62
7
 10
-3166.871
 20
1159.067
 30
4627.000
 70
    32
  0
VERTEX
  8
0600LEVEL
 62
7
 10
-3165.445
 20
1102.448
 30
4627.000
 70
    32
  0
VERTEX
  8
0600LEVEL
 62
7
 10
-3231.919
 20
1139.194
 30
4627.000
 70
    32
  0
VERTEX
  8
0600LEVEL
 62
7
 10
-3275.610
 20
1148.653
 30
4627.000
 70
    32
  0
VERTEX
  8
0600LEVEL
 62
7
 10
-3238.744
 20
1068.125
 30
4627.000
 70
    32
  0
VERTEX
  8
0600LEVEL
 62
7
 10
-3197.809
 20
984.890
 30
4627.000
 70
    32
  0
VERTEX
  8
0600LEVEL
 62
7
 10
-3286.440
 20
1030.446
 30
4627.000
 70
    32
  0
VERTEX
  8
0600LEVEL
 62
7
 10
-3349.259
 20
1051.721
 30
4627.000
 70
    32
  0
VERTEX
  8
0600LEVEL
 62
7
 10
-3294.913
 20
965.950
 30
4627.000
 70
    32
  0
VERTEX
  8
0600LEVEL
 62
7
 10
-3232.919
 20
874.848
 30
4627.000
 70
    32
  0
SEQEND
  8
0600LEVEL
  0
POLYLINE
  8
0600LEVEL
 62
7
 66
     1
 70
     8
  0
VERTEX
  8
0600LEVEL
 62
7
 10
-1510.902
 20
-1764.502
 30
4627.000
 70
    32
  0
VERTEX
  8
0600LEVEL
 62
7
 10
-1433.439
 20
-1841.628
 30
4627.000
 70
    32
  0
VERTEX
  8
0600LEVEL
 62
7
 10
-1352.538
 20
-1926.639
 30
4627.000
 70
    32
  0
VERTEX
  8
0600LEVEL
 62
7
 10
-1322.983
 20
-1976.223
 30
4627.000
 70
    32
  0
VERTEX
  8
0600LEVEL
 62
7
 10
-1376.747
 20
-1954.981
 30
4627.000
 70
    32
  0
VERTEX
  8
0600LEVEL
 62
7
 10
-1435.634
 20
-1918.017
 30
4627.000
 70
    32
  0
VERTEX
  8
0600LEVEL
 62
7
 10
-1466.907
 20
-1903.628
 30
4627.000
 70
    32
  0
VERTEX
  8
0600LEVEL
 62
7
 10
-1435.642
 20
-1965.332
 30
4627.000
 70
    32
  0
VERTEX
  8
0600LEVEL
 62
7
 10
-1405.102
 20
-2035.721
 30
4627.000
 70
    32
  0
VERTEX
  8
0600LEVEL
 62
7
 10
-1415.506
 20
-2070.190
 30
4627.000
 70
    32
  0
VERTEX
  8
0600LEVEL
 62
7
 10
-1465.986
 20
-2020.816
 30
4627.000
 70
    32
  0
VERTEX
  8
0600LEVEL
 62
7
 10
-1525.187
 20
-1935.476
 30
4627.000
 70
    32
  0
VERTEX
  8
0600LEVEL
 62
7
 10
-1579.739
 20
-1873.075
 30
4627.000
 70
    32
  0
VERTEX
  8
0600LEVEL
 62
7
 10
-1608.265
 20
-1832.224
 30
4627.000
 70
    32
  0
SEQEND
  8
0600LEVEL
  0
POLYLINE
  8
0600LEVEL
 62
7
 66
     1
 70
     9
  0
VERTEX
  8
0600LEVEL
 62
7
 10
1132.318
 20
-279.725
 30
4627.000
 70
    32
  0
VERTEX
  8
0600LEVEL
 62
7
 10
1162.269
 20
-264.946
 30
4627.000
 70
    32
  0
VERTEX
  8
0600LEVEL
 62
7
 10
1203.464
 20
-265.421
 30
4627.000
 70
    32
  0
VERTEX
  8
0600LEVEL
 62
7
 10
1232.046
 20
-257.204
 30
4627.000
 70
    32
  0
VERTEX
  8
0600LEVEL
 62
7
 10
1248.022
 20
-226.956
 30
4627.000
 70
    32
  0
VERTEX
  8
0600LEVEL
 62
7
 10
1246.055
 20
-195.664
 30
4627.000
 70
    32
  0
VERTEX
  8
0600LEVEL
 62
7
 10
1242.310
 20
-160.042
 30
4627.000
 70
    32
  0
VERTEX
  8
0600LEVEL
 62
7
 10
1232.169
 20
-122.072
 30
4627.000
 70
    32
  0
VERTEX
  8
0600LEVEL
 62
7
 10
1204.165
 20
-72.250
 30
4627.000
 70
    32
  0
VERTEX
  8
0600LEVEL
 62
7
 10
1168.189
 20
-16.035
 30
4627.000
 70
    32
  0
VERTEX
  8
0600LEVEL
 62
7
 10
1151.519
 20
32.360
 30
4627.000
 70
    32
  0
VERTEX
  8
0600LEVEL
 62
7
 10
1139.763
 20
85.958
 30
4627.000
 70
    32
  0
VERTEX
  8
0600LEVEL
 62
7
 10
1120.491
 20
136.810
 30
4627.000
 70
    32
  0
VERTEX
  8
0600LEVEL
 62
7
 10
1110.537
 20
113.841
 30
4627.000
 70
    32
  0
VERTEX
  8
0600LEVEL
 62
7
 10
1122.638
 20
65.218
 30
4627.000
 70
    32
  0
VERTEX
  8
0600LEVEL
 62
7
 10
1125.405
 20
29.763
 30
4627.000
 70
    32
  0
VERTEX
  8
0600LEVEL
 62
7
 10
1105.186
 20
21.882
 30
4627.000
 70
    32
  0
VERTEX
  8
0600LEVEL
 62
7
 10
1126.375
 20
-17.719
 30
4627.000
 70
    32
  0
VERTEX
  8
0600LEVEL
 62
7
 10
1146.013
 20
-57.559
 30
4627.000
 70
    32
  0
VERTEX
  8
0600LEVEL
 62
7
 10
1165.281
 20
-98.091
 30
4627.000
 70
    32
  0
VERTEX
  8
0600LEVEL
 62
7
 10
1201.920
 20
-140.073
 30
4627.000
 70
    32
  0
VERTEX
  8
0600LEVEL
 62
7
 10
1219.790
 20
-172.564
 30
4627.000
 70
    32
  0
VERTEX
  8
0600LEVEL
 62
7
 10
1227.366
 20
-209.342
 30
4627.000
 70
    32
  0
VERTEX
  8
0600LEVEL
 62
7
 10
1206.186
 20
-234.677
 30
4627.000
 70
    32
  0
VERTEX
  8
0600LEVEL
 62
7
 10
1164.886
 20
-240.727
 30
4627.000
 70
    32
  0
VERTEX
  8
0600LEVEL
 62
7
 10
1141.855
 20
-259.202
 30
4627.000
 70
    32
  0
SEQEND
  8
0600LEVEL
  0
POLYLINE
  8
0600LEVEL
 62
7
 66
     1
 70
     9
  0
VERTEX
  8
0600LEVEL
 62
7
 10
1283.645
 20
-43.007
 30
4627.000
 70
    32
  0
VERTEX
  8
0600LEVEL
 62
7
 10
1275.443
 20
-21.727
 30
4627.000
 70
    32
  0
VERTEX
  8
0600LEVEL
 62
7
 10
1271.646
 20
22.461
 30
4627.000
 70
    32
  0
VERTEX
  8
0600LEVEL
 62
7
 10
1287.317
 20
2.173
 30
4627.000
 70
    32
  0
VERTEX
  8
0600LEVEL
 62
7
 10
1286.012
 20
-20.256
 30
4627.000
 70
    32
  0
SEQEND
  8
0600LEVEL
  0
POLYLINE
  8
0600LEVEL
 62
7
 66
     1
 70
     9
  0
VERTEX
  8
0600LEVEL
 62
7
 10
1233.941
 20
298.940
 30
4627.000
 70
    32
  0
VERTEX
  8
0600LEVEL
 62
7
 10
1256.232
 20
282.054
 30
4627.000
 70
    32
  0
VERTEX
  8
0600LEVEL
 62
7
 10
1273.084
 20
261.313
 30
4627.000
 70
    32
  0
VERTEX
  8
0600LEVEL
 62
7
 10
1287.291
 20
230.956
 30
4627.000
 70
    32
  0
VERTEX
  8
0600LEVEL
 62
7
 10
1281.025
 20
201.570
 30
4627.000
 70
    32
  0
VERTEX
  8
0600LEVEL
 62
7
 10
1290.434
 20
175.554
 30
4627.000
 70
    32
  0
VERTEX
  8
0600LEVEL
 62
7
 10
1290.263
 20
150.918
 30
4627.000
 70
    32
  0
VERTEX
  8
0600LEVEL
 62
7
 10
1292.788
 20
127.333
 30
4627.000
 70
    32
  0
VERTEX
  8
0600LEVEL
 62
7
 10
1292.918
 20
95.599
 30
4627.000
 70
    32
  0
VERTEX
  8
0600LEVEL
 62
7
 10
1291.308
 20
56.611
 30
4627.000
 70
    32
  0
VERTEX
  8
0600LEVEL
 62
7
 10
1288.083
 20
33.251
 30
4627.000
 70
    32
  0
VERTEX
  8
0600LEVEL
 62
7
 10
1294.282
 20
10.550
 30
4627.000
 70
    32
  0
VERTEX
  8
0600LEVEL
 62
7
 10
1306.308
 20
8.753
 30
4627.000
 70
    32
  0
VERTEX
  8
0600LEVEL
 62
7
 10
1305.236
 20
39.389
 30
4627.000
 70
    32
  0
VERTEX
  8
0600LEVEL
 62
7
 10
1307.969
 20
73.152
 30
4627.000
 70
    32
  0
VERTEX
  8
0600LEVEL
 62
7
 10
1317.463
 20
115.578
 30
4627.000
 70
    32
  0
VERTEX
  8
0600LEVEL
 62
7
 10
1308.587
 20
153.584
 30
4627.000
 70
    32
  0
VERTEX
  8
0600LEVEL
 62
7
 10
1301.120
 20
186.569
 30
4627.000
 70
    32
  0
VERTEX
  8
0600LEVEL
 62
7
 10
1304.976
 20
215.107
 30
4627.000
 70
    32
  0
VERTEX
  8
0600LEVEL
 62
7
 10
1297.220
 20
258.207
 30
4627.000
 70
    32
  0
VERTEX
  8
0600LEVEL
 62
7
 10
1268.791
 20
292.247
 30
4627.000
 70
    32
  0
VERTEX
  8
0600LEVEL
 62
7
 10
1245.906
 20
302.690
 30
4627.000
 70
    32
  0
SEQEND
  8
0600LEVEL
  0
POLYLINE
  8
0600LEVEL
 62
13
 66
     1
 70
     8
  0
VERTEX
  8
0600LEVEL
 62
13
 10
1868.560
 20
375.033
 30
4627.000
 70
    32
  0
VERTEX
  8
0600LEVEL
 62
13
 10
1834.001
 20
293.336
 30
4627.000
 70
    32
  0
VERTEX
  8
0600LEVEL
 62
13
 10
1799.660
 20
204.053
 30
4627.000
 70
    32
  0
VERTEX
  8
0600LEVEL
 62
13
 10
1757.833
 20
131.397
 30
4627.000
 70
    32
  0
VERTEX
  8
0600LEVEL
 62
13
 10
1726.659
 20
94.678
 30
4627.000
 70
    32
  0
VERTEX
  8
0600LEVEL
 62
13
 10
1697.179
 20
97.436
 30
4627.000
 70
    32
  0
VERTEX
  8
0600LEVEL
 62
13
 10
1670.146
 20
133.755
 30
4627.000
 70
    32
  0
VERTEX
  8
0600LEVEL
 62
13
 10
1643.384
 20
143.600
 30
4627.000
 70
    32
  0
VERTEX
  8
0600LEVEL
 62
13
 10
1594.876
 20
107.067
 30
4627.000
 70
    32
  0
VERTEX
  8
0600LEVEL
 62
13
 10
1542.940
 20
47.459
 30
4627.000
 70
    32
  0
VERTEX
  8
0600LEVEL
 62
13
 10
1509.882
 20
8.544
 30
4627.000
 70
    32
  0
VERTEX
  8
0600LEVEL
 62
13
 10
1491.626
 20
-54.285
 30
4627.000
 70
    32
  0
VERTEX
  8
0600LEVEL
 62
13
 10
1469.408
 20
-5.952
 30
4627.000
 70
    32
  0
VERTEX
  8
0600LEVEL
 62
13
 10
1450.122
 20
52.201
 30
4627.000
 70
    32
  0
VERTEX
  8
0600LEVEL
 62
13
 10
1418.328
 20
91.596
 30
4627.000
 70
    32
  0
VERTEX
  8
0600LEVEL
 62
13
 10
1397.020
 20
131.972
 30
4627.000
 70
    32
  0
VERTEX
  8
0600LEVEL
 62
13
 10
1396.055
 20
90.861
 30
4627.000
 70
    32
  0
VERTEX
  8
0600LEVEL
 62
13
 10
1419.367
 20
51.905
 30
4627.000
 70
    32
  0
VERTEX
  8
0600LEVEL
 62
13
 10
1452.436
 20
-130.662
 30
4627.000
 70
    32
  0
VERTEX
  8
0600LEVEL
 62
13
 10
1442.423
 20
-192.380
 30
4627.000
 70
    32
  0
VERTEX
  8
0600LEVEL
 62
13
 10
1428.348
 20
-272.029
 30
4627.000
 70
    32
  0
VERTEX
  8
0600LEVEL
 62
13
 10
1404.048
 20
-314.198
 30
4627.000
 70
    32
  0
VERTEX
  8
0600LEVEL
 62
13
 10
1360.846
 20
-304.823
 30
4627.000
 70
    32
  0
VERTEX
  8
0600LEVEL
 62
13
 10
1328.274
 20
-333.502
 30
4627.000
 70
    32
  0
VERTEX
  8
0600LEVEL
 62
13
 10
1309.326
 20
-395.962
 30
4627.000
 70
    32
  0
VERTEX
  8
0600LEVEL
 62
13
 10
1265.705
 20
-456.986
 30
4627.000
 70
    32
  0
VERTEX
  8
0600LEVEL
 62
13
 10
1211.023
 20
-509.078
 30
4627.000
 70
    32
  0
VERTEX
  8
0600LEVEL
 62
13
 10
1168.520
 20
-520.712
 30
4627.000
 70
    32
  0
VERTEX
  8
0600LEVEL
 62
13
 10
1121.792
 20
-527.599
 30
4627.000
 70
    32
  0
VERTEX
  8
0600LEVEL
 62
13
 10
1097.540
 20
-534.037
 30
4627.000
 70
    32
  0
VERTEX
  8
0600LEVEL
 62
13
 10
1088.906
 20
-541.878
 30
4627.000
 70
    32
  0
VERTEX
  8
0600LEVEL
 62
13
 10
1065.733
 20
-565.614
 30
4627.000
 70
    32
  0
VERTEX
  8
0600LEVEL
 62
13
 10
1070.410
 20
-603.157
 30
4627.000
 70
    32
  0
VERTEX
  8
0600LEVEL
 62
13
 10
1092.099
 20
-639.823
 30
4627.000
 70
    32
  0
VERTEX
  8
0600LEVEL
 62
13
 10
1126.607
 20
-695.787
 30
4627.000
 70
    32
  0
VERTEX
  8
0600LEVEL
 62
13
 10
1133.715
 20
-726.445
 30
4627.000
 70
    32
  0
VERTEX
  8
0600LEVEL
 62
13
 10
1103.311
 20
-708.429
 30
4627.000
 70
    32
  0
VERTEX
  8
0600LEVEL
 62
13
 10
1078.082
 20
-680.723
 30
4627.000
 70
    32
  0
VERTEX
  8
0600LEVEL
 62
13
 10
1057.230
 20
-649.485
 30
4627.000
 70
    32
  0
VERTEX
  8
0600LEVEL
 62
13
 10
1038.716
 20
-614.870
 30
4627.000
 70
    32
  0
VERTEX
  8
0600LEVEL
 62
13
 10
1018.059
 20
-597.256
 30
4627.000
 70
    32
  0
VERTEX
  8
0600LEVEL
 62
13
 10
1034.309
 20
-637.777
 30
4627.000
 70
    32
  0
VERTEX
  8
0600LEVEL
 62
13
 10
1073.266
 20
-692.739
 30
4627.000
 70
    32
  0
VERTEX
  8
0600LEVEL
 62
13
 10
1107.905
 20
-746.460
 30
4627.000
 70
    32
  0
VERTEX
  8
0600LEVEL
 62
13
 10
1136.807
 20
-807.258
 30
4627.000
 70
    32
  0
VERTEX
  8
0600LEVEL
 62
13
 10
1192.613
 20
-906.618
 30
4627.000
 70
    32
  0
VERTEX
  8
0600LEVEL
 62
13
 10
1227.413
 20
-983.019
 30
4627.000
 70
    32
  0
VERTEX
  8
0600LEVEL
 62
13
 10
1244.163
 20
-1020.605
 30
4627.000
 70
    32
  0
VERTEX
  8
0600LEVEL
 62
13
 10
1268.726
 20
-1052.223
 30
4627.000
 70
    32
  0
VERTEX
  8
0600LEVEL
 62
13
 10
1283.672
 20
-1081.197
 30
4627.000
 70
    32
  0
VERTEX
  8
0600LEVEL
 62
13
 10
1266.888
 20
-1086.642
 30
4627.000
 70
    32
  0
VERTEX
  8
0600LEVEL
 62
13
 10
1264.981
 20
-1128.851
 30
4627.000
 70
    32
  0
VERTEX
  8
0600LEVEL
 62
13
 10
1266.831
 20
-1169.687
 30
4627.000
 70
    32
  0
VERTEX
  8
0600LEVEL
 62
13
 10
1249.485
 20
-1206.497
 30
4627.000
 70
    32
  0
VERTEX
  8
0600LEVEL
 62
13
 10
1259.604
 20
-1250.504
 30
4627.000
 70
    32
  0
VERTEX
  8
0600LEVEL
 62
13
 10
1269.567
 20
-1292.471
 30
4627.000
 70
    32
  0
VERTEX
  8
0600LEVEL
 62
13
 10
1253.949
 20
-1325.045
 30
4627.000
 70
    32
  0
VERTEX
  8
0600LEVEL
 62
13
 10
1231.221
 20
-1282.665
 30
4627.000
 70
    32
  0
VERTEX
  8
0600LEVEL
 62
13
 10
1211.076
 20
-1225.121
 30
4627.000
 70
    32
  0
VERTEX
  8
0600LEVEL
 62
13
 10
1191.826
 20
-1168.232
 30
4627.000
 70
    32
  0
VERTEX
  8
0600LEVEL
 62
13
 10
1218.581
 20
-1191.416
 30
4627.000
 70
    32
  0
VERTEX
  8
0600LEVEL
 62
13
 10
1230.387
 20
-1175.306
 30
4627.000
 70
    32
  0
VERTEX
  8
0600LEVEL
 62
13
 10
1214.231
 20
-1131.278
 30
4627.000
 70
    32
  0
VERTEX
  8
0600LEVEL
 62
13
 10
1181.770
 20
-1095.796
 30
4627.000
 70
    32
  0
VERTEX
  8
0600LEVEL
 62
13
 10
1130.141
 20
-1036.914
 30
4627.000
 70
    32
  0
VERTEX
  8
0600LEVEL
 62
13
 10
1098.205
 20
-1002.781
 30
4627.000
 70
    32
  0
VERTEX
  8
0600LEVEL
 62
13
 10
1069.766
 20
-971.760
 30
4627.000
 70
    32
  0
VERTEX
  8
0600LEVEL
 62
13
 10
1073.352
 20
-1028.999
 30
4627.000
 70
    32
  0
VERTEX
  8
0600LEVEL
 62
13
 10
1083.796
 20
-1084.387
 30
4627.000
 70
    32
  0
VERTEX
  8
0600LEVEL
 62
13
 10
1114.572
 20
-1146.008
 30
4627.000
 70
    32
  0
VERTEX
  8
0600LEVEL
 62
13
 10
1143.543
 20
-1199.016
 30
4627.000
 70
    32
  0
VERTEX
  8
0600LEVEL
 62
13
 10
1178.667
 20
-1276.478
 30
4627.000
 70
    32
  0
VERTEX
  8
0600LEVEL
 62
13
 10
1213.427
 20
-1375.272
 30
4627.000
 70
    32
  0
VERTEX
  8
0600LEVEL
 62
13
 10
1238.517
 20
-1452.534
 30
4627.000
 70
    32
  0
VERTEX
  8
0600LEVEL
 62
13
 10
1256.568
 20
-1491.349
 30
4627.000
 70
    32
  0
VERTEX
  8
0600LEVEL
 62
13
 10
1262.158
 20
-1513.191
 30
4627.000
 70
    32
  0
VERTEX
  8
0600LEVEL
 62
13
 10
1278.343
 20
-1571.822
 30
4627.000
 70
    32
  0
VERTEX
  8
0600LEVEL
 62
13
 10
1288.632
 20
-1625.170
 30
4627.000
 70
    32
  0
VERTEX
  8
0600LEVEL
 62
13
 10
1292.794
 20
-1658.346
 30
4627.000
 70
    32
  0
VERTEX
  8
0600LEVEL
 62
13
 10
1292.467
 20
-1680.942
 30
4627.000
 70
    32
  0
VERTEX
  8
0600LEVEL
 62
13
 10
1297.336
 20
-1721.789
 30
4627.000
 70
    32
  0
VERTEX
  8
0600LEVEL
 62
13
 10
1294.904
 20
-1762.650
 30
4627.000
 70
    32
  0
VERTEX
  8
0600LEVEL
 62
13
 10
1261.768
 20
-1744.420
 30
4627.000
 70
    32
  0
VERTEX
  8
0600LEVEL
 62
13
 10
1232.206
 20
-1708.174
 30
4627.000
 70
    32
  0
VERTEX
  8
0600LEVEL
 62
13
 10
1218.438
 20
-1669.334
 30
4627.000
 70
    32
  0
VERTEX
  8
0600LEVEL
 62
13
 10
1179.585
 20
-1641.824
 30
4627.000
 70
    32
  0
VERTEX
  8
0600LEVEL
 62
13
 10
1146.957
 20
-1607.321
 30
4627.000
 70
    32
  0
VERTEX
  8
0600LEVEL
 62
13
 10
1126.090
 20
-1568.782
 30
4627.000
 70
    32
  0
VERTEX
  8
0600LEVEL
 62
13
 10
1104.550
 20
-1547.493
 30
4627.000
 70
    32
  0
VERTEX
  8
0600LEVEL
 62
13
 10
1067.603
 20
-1511.751
 30
4627.000
 70
    32
  0
VERTEX
  8
0600LEVEL
 62
13
 10
1033.015
 20
-1466.595
 30
4627.000
 70
    32
  0
VERTEX
  8
0600LEVEL
 62
13
 10
1017.805
 20
-1431.788
 30
4627.000
 70
    32
  0
VERTEX
  8
0600LEVEL
 62
13
 10
989.622
 20
-1419.939
 30
4627.000
 70
    32
  0
VERTEX
  8
0600LEVEL
 62
13
 10
969.903
 20
-1424.884
 30
4627.000
 70
    32
  0
VERTEX
  8
0600LEVEL
 62
13
 10
959.025
 20
-1432.594
 30
4627.000
 70
    32
  0
VERTEX
  8
0600LEVEL
 62
13
 10
956.198
 20
-1469.865
 30
4627.000
 70
    32
  0
VERTEX
  8
0600LEVEL
 62
13
 10
957.245
 20
-1496.218
 30
4627.000
 70
    32
  0
VERTEX
  8
0600LEVEL
 62
13
 10
969.658
 20
-1627.194
 30
4627.000
 70
    32
  0
VERTEX
  8
0600LEVEL
 62
13
 10
958.031
 20
-1751.557
 30
4627.000
 70
    32
  0
VERTEX
  8
0600LEVEL
 62
13
 10
949.953
 20
-1819.644
 30
4627.000
 70
    32
  0
VERTEX
  8
0600LEVEL
 62
13
 10
948.775
 20
-1829.511
 30
4627.000
 70
    32
  0
VERTEX
  8
0600LEVEL
 62
13
 10
966.057
 20
-1889.084
 30
4627.000
 70
    32
  0
VERTEX
  8
0600LEVEL
 62
13
 10
984.535
 20
-1922.434
 30
4627.000
 70
    32
  0
VERTEX
  8
0600LEVEL
 62
13
 10
931.590
 20
-1922.976
 30
4627.000
 70
    32
  0
VERTEX
  8
0600LEVEL
 62
13
 10
913.601
 20
-1889.709
 30
4627.000
 70
    32
  0
VERTEX
  8
0600LEVEL
 62
13
 10
871.802
 20
-1830.741
 30
4627.000
 70
    32
  0
VERTEX
  8
0600LEVEL
 62
13
 10
782.154
 20
-1627.207
 30
4627.000
 70
    32
  0
VERTEX
  8
0600LEVEL
 62
13
 10
753.446
 20
-1614.010
 30
4627.000
 70
    32
  0
VERTEX
  8
0600LEVEL
 62
13
 10
725.478
 20
-1565.452
 30
4627.000
 70
    32
  0
VERTEX
  8
0600LEVEL
 62
13
 10
704.272
 20
-1508.230
 30
4627.000
 70
    32
  0
VERTEX
  8
0600LEVEL
 62
13
 10
685.025
 20
-1461.661
 30
4627.000
 70
    32
  0
VERTEX
  8
0600LEVEL
 62
13
 10
655.990
 20
-1471.060
 30
4627.000
 70
    32
  0
VERTEX
  8
0600LEVEL
 62
13
 10
639.527
 20
-1433.271
 30
4627.000
 70
    32
  0
VERTEX
  8
0600LEVEL
 62
13
 10
610.214
 20
-1395.557
 30
4627.000
 70
    32
  0
VERTEX
  8
0600LEVEL
 62
13
 10
586.160
 20
-1347.666
 30
4627.000
 70
    32
  0
VERTEX
  8
0600LEVEL
 62
13
 10
561.229
 20
-1282.762
 30
4627.000
 70
    32
  0
VERTEX
  8
0600LEVEL
 62
13
 10
531.874
 20
-1189.169
 30
4627.000
 70
    32
  0
VERTEX
  8
0600LEVEL
 62
13
 10
480.858
 20
-1141.465
 30
4627.000
 70
    32
  0
VERTEX
  8
0600LEVEL
 62
13
 10
436.222
 20
-1088.808
 30
4627.000
 70
    32
  0
VERTEX
  8
0600LEVEL
 62
13
 10
380.531
 20
-1047.858
 30
4627.000
 70
    32
  0
VERTEX
  8
0600LEVEL
 62
13
 10
334.978
 20
-1034.559
 30
4627.000
 70
    32
  0
VERTEX
  8
0600LEVEL
 62
13
 10
297.675
 20
-1040.787
 30
4627.000
 70
    32
  0
VERTEX
  8
0600LEVEL
 62
13
 10
218.853
 20
-967.204
 30
4627.000
 70
    32
  0
VERTEX
  8
0600LEVEL
 62
13
 10
169.619
 20
-934.150
 30
4627.000
 70
    32
  0
VERTEX
  8
0600LEVEL
 62
13
 10
128.233
 20
-896.393
 30
4627.000
 70
    32
  0
VERTEX
  8
0600LEVEL
 62
13
 10
75.633
 20
-857.983
 30
4627.000
 70
    32
  0
VERTEX
  8
0600LEVEL
 62
13
 10
38.204
 20
-808.819
 30
4627.000
 70
    32
  0
VERTEX
  8
0600LEVEL
 62
13
 10
3.124
 20
-753.261
 30
4627.000
 70
    32
  0
VERTEX
  8
0600LEVEL
 62
13
 10
-42.776
 20
-700.640
 30
4627.000
 70
    32
  0
VERTEX
  8
0600LEVEL
 62
13
 10
-88.615
 20
-653.567
 30
4627.000
 70
    32
  0
VERTEX
  8
0600LEVEL
 62
13
 10
-125.170
 20
-611.096
 30
4627.000
 70
    32
  0
VERTEX
  8
0600LEVEL
 62
13
 10
-154.428
 20
-558.291
 30
4627.000
 70
    32
  0
VERTEX
  8
0600LEVEL
 62
13
 10
-185.694
 20
-530.564
 30
4627.000
 70
    32
  0
VERTEX
  8
0600LEVEL
 62
13
 10
-172.394
 20
-597.260
 30
4627.000
 70
    32
  0
VERTEX
  8
0600LEVEL
 62
13
 10
-161.134
 20
-664.113
 30
4627.000
 70
    32
  0
VERTEX
  8
0600LEVEL
 62
13
 10
-116.803
 20
-733.328
 30
4627.000
 70
    32
  0
VERTEX
  8
0600LEVEL
 62
13
 10
-80.172
 20
-788.648
 30
4627.000
 70
    32
  0
VERTEX
  8
0600LEVEL
 62
13
 10
-62.727
 20
-836.924
 30
4627.000
 70
    32
  0
VERTEX
  8
0600LEVEL
 62
13
 10
-107.374
 20
-821.262
 30
4627.000
 70
    32
  0
VERTEX
  8
0600LEVEL
 62
13
 10
-164.355
 20
-776.065
 30
4627.000
 70
    32
  0
VERTEX
  8
0600LEVEL
 62
13
 10
-210.747
 20
-713.042
 30
4627.000
 70
    32
  0
VERTEX
  8
0600LEVEL
 62
13
 10
-243.505
 20
-646.805
 30
4627.000
 70
    32
  0
VERTEX
  8
0600LEVEL
 62
13
 10
-276.708
 20
-568.411
 30
4627.000
 70
    32
  0
VERTEX
  8
0600LEVEL
 62
13
 10
-302.283
 20
-467.408
 30
4627.000
 70
    32
  0
VERTEX
  8
0600LEVEL
 62
13
 10
-327.322
 20
-398.711
 30
4627.000
 70
    32
  0
VERTEX
  8
0600LEVEL
 62
13
 10
-358.732
 20
-331.948
 30
4627.000
 70
    32
  0
VERTEX
  8
0600LEVEL
 62
13
 10
-391.674
 20
-249.069
 30
4627.000
 70
    32
  0
VERTEX
  8
0600LEVEL
 62
13
 10
-445.990
 20
-143.923
 30
4627.000
 70
    32
  0
VERTEX
  8
0600LEVEL
 62
13
 10
-466.742
 20
-51.544
 30
4627.000
 70
    32
  0
VERTEX
  8
0600LEVEL
 62
13
 10
-495.873
 20
13.824
 30
4627.000
 70
    32
  0
VERTEX
  8
0600LEVEL
 62
13
 10
-523.221
 20
64.541
 30
4627.000
 70
    32
  0
VERTEX
  8
0600LEVEL
 62
13
 10
-554.530
 20
80.196
 30
4627.000
 70
    32
  0
VERTEX
  8
0600LEVEL
 62
13
 10
-587.498
 20
133.381
 30
4627.000
 70
    32
  0
VERTEX
  8
0600LEVEL
 62
13
 10
-601.697
 20
177.076
 30
4627.000
 70
    32
  0
VERTEX
  8
0600LEVEL
 62
13
 10
-618.139
 20
220.902
 30
4627.000
 70
    32
  0
VERTEX
  8
0600LEVEL
 62
13
 10
-646.766
 20
278.885
 30
4627.000
 70
    32
  0
VERTEX
  8
0600LEVEL
 62
13
 10
-688.234
 20
350.129
 30
4627.000
 70
    32
  0
VERTEX
  8
0600LEVEL
 62
13
 10
-717.112
 20
406.645
 30
4627.000
 70
    32
  0
VERTEX
  8
0600LEVEL
 62
13
 10
-747.876
 20
471.284
 30
4627.000
 70
    32
  0
VERTEX
  8
0600LEVEL
 62
13
 10
-785.195
 20
550.630
 30
4627.000
 70
    32
  0
VERTEX
  8
0600LEVEL
 62
13
 10
-814.445
 20
616.773
 30
4627.000
 70
    32
  0
VERTEX
  8
0600LEVEL
 62
13
 10
-839.195
 20
675.354
 30
4627.000
 70
    32
  0
VERTEX
  8
0600LEVEL
 62
13
 10
-875.435
 20
737.402
 30
4627.000
 70
    32
  0
VERTEX
  8
0600LEVEL
 62
13
 10
-919.806
 20
784.225
 30
4627.000
 70
    32
  0
VERTEX
  8
0600LEVEL
 62
13
 10
-900.604
 20
725.583
 30
4627.000
 70
    32
  0
VERTEX
  8
0600LEVEL
 62
13
 10
-853.256
 20
622.380
 30
4627.000
 70
    32
  0
VERTEX
  8
0600LEVEL
 62
13
 10
-810.683
 20
529.554
 30
4627.000
 70
    32
  0
VERTEX
  8
0600LEVEL
 62
13
 10
-765.759
 20
432.803
 30
4627.000
 70
    32
  0
VERTEX
  8
0600LEVEL
 62
13
 10
-724.121
 20
352.217
 30
4627.000
 70
    32
  0
VERTEX
  8
0600LEVEL
 62
13
 10
-678.250
 20
280.223
 30
4627.000
 70
    32
  0
VERTEX
  8
0600LEVEL
 62
13
 10
-650.877
 20
225.222
 30
4627.000
 70
    32
  0
VERTEX
  8
0600LEVEL
 62
13
 10
-622.862
 20
178.417
 30
4627.000
 70
    32
  0
VERTEX
  8
0600LEVEL
 62
13
 10
-612.406
 20
126.048
 30
4627.000
 70
    32
  0
VERTEX
  8
0600LEVEL
 62
13
 10
-575.532
 20
58.858
 30
4627.000
 70
    32
  0
VERTEX
  8
0600LEVEL
 62
13
 10
-564.779
 20
9.709
 30
4627.000
 70
    32
  0
VERTEX
  8
0600LEVEL
 62
13
 10
-524.870
 20
-75.112
 30
4627.000
 70
    32
  0
VERTEX
  8
0600LEVEL
 62
13
 10
-508.950
 20
-127.910
 30
4627.000
 70
    32
  0
VERTEX
  8
0600LEVEL
 62
13
 10
-468.645
 20
-216.322
 30
4627.000
 70
    32
  0
VERTEX
  8
0600LEVEL
 62
13
 10
-434.801
 20
-286.520
 30
4627.000
 70
    32
  0
VERTEX
  8
0600LEVEL
 62
13
 10
-411.878
 20
-376.501
 30
4627.000
 70
    32
  0
VERTEX
  8
0600LEVEL
 62
13
 10
-376.896
 20
-459.224
 30
4627.000
 70
    32
  0
VERTEX
  8
0600LEVEL
 62
13
 10
-336.008
 20
-544.213
 30
4627.000
 70
    32
  0
VERTEX
  8
0600LEVEL
 62
13
 10
-317.940
 20
-634.625
 30
4627.000
 70
    32
  0
VERTEX
  8
0600LEVEL
 62
13
 10
-295.975
 20
-752.379
 30
4627.000
 70
    32
  0
VERTEX
  8
0600LEVEL
 62
13
 10
-261.523
 20
-857.412
 30
4627.000
 70
    32
  0
VERTEX
  8
0600LEVEL
 62
13
 10
-231.802
 20
-939.994
 30
4627.000
 70
    32
  0
VERTEX
  8
0600LEVEL
 62
13
 10
-180.670
 20
-1012.131
 30
4627.000
 70
    32
  0
VERTEX
  8
0600LEVEL
 62
13
 10
-132.223
 20
-1082.300
 30
4627.000
 70
    32
  0
VERTEX
  8
0600LEVEL
 62
13
 10
-85.012
 20
-1167.107
 30
4627.000
 70
    32
  0
VERTEX
  8
0600LEVEL
 62
13
 10
-34.399
 20
-1258.535
 30
4627.000
 70
    32
  0
VERTEX
  8
0600LEVEL
 62
13
 10
28.294
 20
-1370.645
 30
4627.000
 70
    32
  0
VERTEX
  8
0600LEVEL
 62
13
 10
88.222
 20
-1491.596
 30
4627.000
 70
    32
  0
VERTEX
  8
0600LEVEL
 62
13
 10
144.570
 20
-1609.924
 30
4627.000
 70
    32
  0
VERTEX
  8
0600LEVEL
 62
13
 10
195.908
 20
-1692.666
 30
4627.000
 70
    32
  0
VERTEX
  8
0600LEVEL
 62
13
 10
250.372
 20
-1813.190
 30
4627.000
 70
    32
  0
VERTEX
  8
0600LEVEL
 62
13
 10
305.989
 20
-1919.564
 30
4627.000
 70
    32
  0
VERTEX
  8
0600LEVEL
 62
13
 10
374.450
 20
-2015.543
 30
4627.000
 70
    32
  0
VERTEX
  8
0600LEVEL
 62
13
 10
459.232
 20
-2110.276
 30
4627.000
 70
    32
  0
VERTEX
  8
0600LEVEL
 62
13
 10
484.509
 20
-2136.228
 30
4627.000
 70
    32
  0
VERTEX
  8
0600LEVEL
 62
13
 10
564.747
 20
-2235.472
 30
4627.000
 70
    32
  0
VERTEX
  8
0600LEVEL
 62
13
 10
700.476
 20
-2385.699
 30
4627.000
 70
    32
  0
VERTEX
  8
0600LEVEL
 62
13
 10
838.205
 20
-2558.163
 30
4627.000
 70
    32
  0
VERTEX
  8
0600LEVEL
 62
13
 10
898.377
 20
-2623.031
 30
4627.000
 70
    32
  0
SEQEND
  8
0600LEVEL
  0
POLYLINE
  8
0600LEVEL
 62
13
 66
     1
 70
     8
  0
VERTEX
  8
0600LEVEL
 62
13
 10
1541.989
 20
-3463.081
 30
4627.000
 70
    32
  0
VERTEX
  8
0600LEVEL
 62
13
 10
1561.247
 20
-3506.631
 30
4627.000
 70
    32
  0
VERTEX
  8
0600LEVEL
 62
13
 10
1574.043
 20
-3565.943
 30
4627.000
 70
    32
  0
VERTEX
  8
0600LEVEL
 62
13
 10
1595.492
 20
-3635.035
 30
4627.000
 70
    32
  0
VERTEX
  8
0600LEVEL
 62
13
 10
1618.173
 20
-3679.169
 30
4627.000
 70
    32
  0
VERTEX
  8
0600LEVEL
 62
13
 10
1659.284
 20
-3714.111
 30
4627.000
 70
    32
  0
VERTEX
  8
0600LEVEL
 62
13
 10
1686.128
 20
-3757.444
 30
4627.000
 70
    32
  0
VERTEX
  8
0600LEVEL
 62
13
 10
1700.790
 20
-3830.916
 30
4627.000
 70
    32
  0
VERTEX
  8
0600LEVEL
 62
13
 10
1712.797
 20
-3883.047
 30
4627.000
 70
    32
  0
VERTEX
  8
0600LEVEL
 62
13
 10
1676.885
 20
-3876.676
 30
4627.000
 70
    32
  0
VERTEX
  8
0600LEVEL
 62
13
 10
1640.521
 20
-3871.486
 30
4627.000
 70
    32
  0
VERTEX
  8
0600LEVEL
 62
13
 10
1606.295
 20
-3838.976
 30
4627.000
 70
    32
  0
VERTEX
  8
0600LEVEL
 62
13
 10
1582.500
 20
-3820.575
 30
4627.000
 70
    32
  0
VERTEX
  8
0600LEVEL
 62
13
 10
1560.051
 20
-3791.330
 30
4627.000
 70
    32
  0
VERTEX
  8
0600LEVEL
 62
13
 10
1547.489
 20
-3757.226
 30
4627.000
 70
    32
  0
VERTEX
  8
0600LEVEL
 62
13
 10
1529.176
 20
-3756.874
 30
4627.000
 70
    32
  0
VERTEX
  8
0600LEVEL
 62
13
 10
1524.386
 20
-3773.172
 30
4627.000
 70
    32
  0
VERTEX
  8
0600LEVEL
 62
13
 10
1514.751
 20
-3786.883
 30
4627.000
 70
    32
  0
VERTEX
  8
0600LEVEL
 62
13
 10
1512.554
 20
-3818.976
 30
4627.000
 70
    32
  0
VERTEX
  8
0600LEVEL
 62
13
 10
1511.488
 20
-3842.955
 30
4627.000
 70
    32
  0
VERTEX
  8
0600LEVEL
 62
13
 10
1475.656
 20
-3859.753
 30
4627.000
 70
    32
  0
VERTEX
  8
0600LEVEL
 62
13
 10
1476.542
 20
-3907.723
 30
4627.000
 70
    32
  0
VERTEX
  8
0600LEVEL
 62
13
 10
1458.921
 20
-3907.741
 30
4627.000
 70
    32
  0
VERTEX
  8
0600LEVEL
 62
13
 10
1439.258
 20
-3863.618
 30
4627.000
 70
    32
  0
VERTEX
  8
0600LEVEL
 62
13
 10
1432.571
 20
-3806.857
 30
4627.000
 70
    32
  0
VERTEX
  8
0600LEVEL
 62
13
 10
1426.735
 20
-3762.825
 30
4627.000
 70
    32
  0
VERTEX
  8
0600LEVEL
 62
13
 10
1413.072
 20
-3717.459
 30
4627.000
 70
    32
  0
VERTEX
  8
0600LEVEL
 62
13
 10
1386.435
 20
-3650.755
 30
4627.000
 70
    32
  0
VERTEX
  8
0600LEVEL
 62
13
 10
1351.587
 20
-3576.108
 30
4627.000
 70
    32
  0
VERTEX
  8
0600LEVEL
 62
13
 10
1317.481
 20
-3510.396
 30
4627.000
 70
    32
  0
VERTEX
  8
0600LEVEL
 62
13
 10
1285.090
 20
-3433.148
 30
4627.000
 70
    32
  0
VERTEX
  8
0600LEVEL
 62
13
 10
1253.604
 20
-3353.537
 30
4627.000
 70
    32
  0
VERTEX
  8
0600LEVEL
 62
13
 10
1214.988
 20
-3283.281
 30
4627.000
 70
    32
  0
VERTEX
  8
0600LEVEL
 62
13
 10
1183.423
 20
-3214.479
 30
4627.000
 70
    32
  0
VERTEX
  8
0600LEVEL
 62
13
 10
1135.378
 20
-3134.563
 30
4627.000
 70
    32
  0
VERTEX
  8
0600LEVEL
 62
13
 10
1104.837
 20
-3098.150
 30
4627.000
 70
    32
  0
VERTEX
  8
0600LEVEL
 62
13
 10
1090.282
 20
-3096.425
 30
4627.000
 70
    32
  0
VERTEX
  8
0600LEVEL
 62
13
 10
1040.479
 20
-3074.096
 30
4627.000
 70
    32
  0
VERTEX
  8
0600LEVEL
 62
13
 10
987.871
 20
-3049.025
 30
4627.000
 70
    32
  0
VERTEX
  8
0600LEVEL
 62
13
 10
942.014
 20
-3018.308
 30
4627.000
 70
    32
  0
VERTEX
  8
0600LEVEL
 62
13
 10
886.243
 20
-2988.166
 30
4627.000
 70
    32
  0
VERTEX
  8
0600LEVEL
 62
13
 10
866.480
 20
-3005.185
 30
4627.000
 70
    32
  0
VERTEX
  8
0600LEVEL
 62
13
 10
910.399
 20
-3053.189
 30
4627.000
 70
    32
  0
VERTEX
  8
0600LEVEL
 62
13
 10
961.324
 20
-3114.720
 30
4627.000
 70
    32
  0
VERTEX
  8
0600LEVEL
 62
13
 10
1005.162
 20
-3173.533
 30
4627.000
 70
    32
  0
VERTEX
  8
0600LEVEL
 62
13
 10
1031.930
 20
-3237.994
 30
4627.000
 70
    32
  0
VERTEX
  8
0600LEVEL
 62
13
 10
1045.897
 20
-3300.778
 30
4627.000
 70
    32
  0
VERTEX
  8
0600LEVEL
 62
13
 10
1031.207
 20
-3324.953
 30
4627.000
 70
    32
  0
VERTEX
  8
0600LEVEL
 62
13
 10
999.674
 20
-3281.072
 30
4627.000
 70
    32
  0
VERTEX
  8
0600LEVEL
 62
13
 10
953.499
 20
-3191.660
 30
4627.000
 70
    32
  0
VERTEX
  8
0600LEVEL
 62
13
 10
889.744
 20
-3079.872
 30
4627.000
 70
    32
  0
VERTEX
  8
0600LEVEL
 62
13
 10
835.740
 20
-2978.806
 30
4627.000
 70
    32
  0
VERTEX
  8
0600LEVEL
 62
13
 10
754.213
 20
-2841.338
 30
4627.000
 70
    32
  0
VERTEX
  8
0600LEVEL
 62
13
 10
650.273
 20
-2675.890
 30
4627.000
 70
    32
  0
VERTEX
  8
0600LEVEL
 62
13
 10
580.550
 20
-2556.290
 30
4627.000
 70
    32
  0
VERTEX
  8
0600LEVEL
 62
13
 10
496.074
 20
-2411.021
 30
4627.000
 70
    32
  0
VERTEX
  8
0600LEVEL
 62
13
 10
426.178
 20
-2305.737
 30
4627.000
 70
    32
  0
VERTEX
  8
0600LEVEL
 62
13
 10
398.554
 20
-2252.204
 30
4627.000
 70
    32
  0
VERTEX
  8
0600LEVEL
 62
13
 10
370.731
 20
-2208.704
 30
4627.000
 70
    32
  0
VERTEX
  8
0600LEVEL
 62
13
 10
350.774
 20
-2178.122
 30
4627.000
 70
    32
  0
VERTEX
  8
0600LEVEL
 62
13
 10
299.273
 20
-2106.678
 30
4627.000
 70
    32
  0
VERTEX
  8
0600LEVEL
 62
13
 10
258.675
 20
-2031.806
 30
4627.000
 70
    32
  0
VERTEX
  8
0600LEVEL
 62
13
 10
203.688
 20
-1954.230
 30
4627.000
 70
    32
  0
VERTEX
  8
0600LEVEL
 62
13
 10
153.306
 20
-1877.692
 30
4627.000
 70
    32
  0
VERTEX
  8
0600LEVEL
 62
13
 10
102.515
 20
-1790.261
 30
4627.000
 70
    32
  0
VERTEX
  8
0600LEVEL
 62
13
 10
48.692
 20
-1695.518
 30
4627.000
 70
    32
  0
VERTEX
  8
0600LEVEL
 62
13
 10
-11.849
 20
-1597.365
 30
4627.000
 70
    32
  0
VERTEX
  8
0600LEVEL
 62
13
 10
-74.039
 20
-1492.639
 30
4627.000
 70
    32
  0
VERTEX
  8
0600LEVEL
 62
13
 10
-122.311
 20
-1408.154
 30
4627.000
 70
    32
  0
VERTEX
  8
0600LEVEL
 62
13
 10
-198.015
 20
-1273.441
 30
4627.000
 70
    32
  0
VERTEX
  8
0600LEVEL
 62
13
 10
-228.471
 20
-1168.585
 30
4627.000
 70
    32
  0
VERTEX
  8
0600LEVEL
 62
13
 10
-268.431
 20
-1075.198
 30
4627.000
 70
    32
  0
VERTEX
  8
0600LEVEL
 62
13
 10
-319.616
 20
-950.199
 30
4627.000
 70
    32
  0
VERTEX
  8
0600LEVEL
 62
13
 10
-372.663
 20
-821.360
 30
4627.000
 70
    32
  0
VERTEX
  8
0600LEVEL
 62
13
 10
-413.829
 20
-723.236
 30
4627.000
 70
    32
  0
VERTEX
  8
0600LEVEL
 62
13
 10
-453.678
 20
-643.962
 30
4627.000
 70
    32
  0
VERTEX
  8
0600LEVEL
 62
13
 10
-496.049
 20
-619.376
 30
4627.000
 70
    32
  0
VERTEX
  8
0600LEVEL
 62
13
 10
-488.044
 20
-694.986
 30
4627.000
 70
    32
  0
VERTEX
  8
0600LEVEL
 62
13
 10
-457.867
 20
-786.707
 30
4627.000
 70
    32
  0
VERTEX
  8
0600LEVEL
 62
13
 10
-424.805
 20
-870.362
 30
4627.000
 70
    32
  0
VERTEX
  8
0600LEVEL
 62
13
 10
-394.493
 20
-936.182
 30
4627.000
 70
    32
  0
VERTEX
  8
0600LEVEL
 62
13
 10
-345.280
 20
-1053.546
 30
4627.000
 70
    32
  0
VERTEX
  8
0600LEVEL
 62
13
 10
-303.040
 20
-1148.328
 30
4627.000
 70
    32
  0
VERTEX
  8
0600LEVEL
 62
13
 10
-245.203
 20
-1260.870
 30
4627.000
 70
    32
  0
VERTEX
  8
0600LEVEL
 62
13
 10
-172.513
 20
-1371.915
 30
4627.000
 70
    32
  0
VERTEX
  8
0600LEVEL
 62
13
 10
-121.465
 20
-1478.517
 30
4627.000
 70
    32
  0
VERTEX
  8
0600LEVEL
 62
13
 10
-78.660
 20
-1552.255
 30
4627.000
 70
    32
  0
VERTEX
  8
0600LEVEL
 62
13
 10
-75.437
 20
-1596.849
 30
4627.000
 70
    32
  0
VERTEX
  8
0600LEVEL
 62
13
 10
-123.510
 20
-1536.307
 30
4627.000
 70
    32
  0
VERTEX
  8
0600LEVEL
 62
13
 10
-175.946
 20
-1452.623
 30
4627.000
 70
    32
  0
VERTEX
  8
0600LEVEL
 62
13
 10
-229.958
 20
-1364.895
 30
4627.000
 70
    32
  0
VERTEX
  8
0600LEVEL
 62
13
 10
-266.263
 20
-1286.979
 30
4627.000
 70
    32
  0
VERTEX
  8
0600LEVEL
 62
13
 10
-317.521
 20
-1193.429
 30
4627.000
 70
    32
  0
VERTEX
  8
0600LEVEL
 62
13
 10
-361.347
 20
-1097.621
 30
4627.000
 70
    32
  0
VERTEX
  8
0600LEVEL
 62
13
 10
-409.358
 20
-974.673
 30
4627.000
 70
    32
  0
VERTEX
  8
0600LEVEL
 62
13
 10
-449.958
 20
-855.505
 30
4627.000
 70
    32
  0
VERTEX
  8
0600LEVEL
 62
13
 10
-484.143
 20
-766.625
 30
4627.000
 70
    32
  0
VERTEX
  8
0600LEVEL
 62
13
 10
-509.345
 20
-675.249
 30
4627.000
 70
    32
  0
VERTEX
  8
0600LEVEL
 62
13
 10
-528.007
 20
-591.279
 30
4627.000
 70
    32
  0
VERTEX
  8
0600LEVEL
 62
13
 10
-556.004
 20
-562.095
 30
4627.000
 70
    32
  0
VERTEX
  8
0600LEVEL
 62
13
 10
-545.278
 20
-640.938
 30
4627.000
 70
    32
  0
VERTEX
  8
0600LEVEL
 62
13
 10
-532.805
 20
-733.165
 30
4627.000
 70
    32
  0
VERTEX
  8
0600LEVEL
 62
13
 10
-518.907
 20
-803.739
 30
4627.000
 70
    32
  0
VERTEX
  8
0600LEVEL
 62
13
 10
-522.890
 20
-844.839
 30
4627.000
 70
    32
  0
VERTEX
  8
0600LEVEL
 62
13
 10
-549.078
 20
-766.634
 30
4627.000
 70
    32
  0
VERTEX
  8
0600LEVEL
 62
13
 10
-581.443
 20
-659.692
 30
4627.000
 70
    32
  0
VERTEX
  8
0600LEVEL
 62
13
 10
-611.790
 20
-558.630
 30
4627.000
 70
    32
  0
VERTEX
  8
0600LEVEL
 62
13
 10
-651.192
 20
-457.536
 30
4627.000
 70
    32
  0
VERTEX
  8
0600LEVEL
 62
13
 10
-679.939
 20
-398.777
 30
4627.000
 70
    32
  0
VERTEX
  8
0600LEVEL
 62
13
 10
-737.191
 20
-327.108
 30
4627.000
 70
    32
  0
VERTEX
  8
0600LEVEL
 62
13
 10
-811.464
 20
-191.380
 30
4627.000
 70
    32
  0
VERTEX
  8
0600LEVEL
 62
13
 10
-867.366
 20
-85.209
 30
4627.000
 70
    32
  0
VERTEX
  8
0600LEVEL
 62
13
 10
-913.121
 20
-3.670
 30
4627.000
 70
    32
  0
VERTEX
  8
0600LEVEL
 62
13
 10
-972.158
 20
92.969
 30
4627.000
 70
    32
  0
VERTEX
  8
0600LEVEL
 62
13
 10
-1042.138
 20
197.763
 30
4627.000
 70
    32
  0
VERTEX
  8
0600LEVEL
 62
13
 10
-1120.571
 20
322.371
 30
4627.000
 70
    32
  0
VERTEX
  8
0600LEVEL
 62
13
 10
-1193.887
 20
451.896
 30
4627.000
 70
    32
  0
VERTEX
  8
0600LEVEL
 62
13
 10
-1259.226
 20
554.390
 30
4627.000
 70
    32
  0
VERTEX
  8
0600LEVEL
 62
13
 10
-1335.267
 20
663.489
 30
4627.000
 70
    32
  0
VERTEX
  8
0600LEVEL
 62
13
 10
-1407.740
 20
766.947
 30
4627.000
 70
    32
  0
VERTEX
  8
0600LEVEL
 62
13
 10
-1469.868
 20
866.126
 30
4627.000
 70
    32
  0
VERTEX
  8
0600LEVEL
 62
13
 10
-1551.098
 20
1006.814
 30
4627.000
 70
    32
  0
VERTEX
  8
0600LEVEL
 62
13
 10
-1621.186
 20
1115.403
 30
4627.000
 70
    32
  0
VERTEX
  8
0600LEVEL
 62
13
 10
-1706.787
 20
1231.920
 30
4627.000
 70
    32
  0
VERTEX
  8
0600LEVEL
 62
13
 10
-1802.590
 20
1357.978
 30
4627.000
 70
    32
  0
VERTEX
  8
0600LEVEL
 62
13
 10
-1884.969
 20
1474.197
 30
4627.000
 70
    32
  0
VERTEX
  8
0600LEVEL
 62
13
 10
-1957.486
 20
1565.582
 30
4627.000
 70
    32
  0
VERTEX
  8
0600LEVEL
 62
13
 10
-2024.752
 20
1653.807
 30
4627.000
 70
    32
  0
VERTEX
  8
0600LEVEL
 62
13
 10
-2091.740
 20
1728.897
 30
4627.000
 70
    32
  0
VERTEX
  8
0600LEVEL
 62
13
 10
-2134.896
 20
1818.299
 30
4627.000
 70
    32
  0
VERTEX
  8
0600LEVEL
 62
13
 10
-2105.203
 20
1784.296
 30
4627.000
 70
    32
  0
VERTEX
  8
0600LEVEL
 62
13
 10
-2092.894
 20
1793.021
 30
4627.000
 70
    32
  0
VERTEX
  8
0600LEVEL
 62
13
 10
-2058.610
 20
1765.282
 30
4627.000
 70
    32
  0
VERTEX
  8
0600LEVEL
 62
13
 10
-2023.587
 20
1738.928
 30
4627.000
 70
    32
  0
VERTEX
  8
0600LEVEL
 62
13
 10
-2025.557
 20
1746.563
 30
4627.000
 70
    32
  0
VERTEX
  8
0600LEVEL
 62
13
 10
-2041.974
 20
1786.106
 30
4627.000
 70
    32
  0
VERTEX
  8
0600LEVEL
 62
13
 10
-2031.506
 20
1804.708
 30
4627.000
 70
    32
  0
VERTEX
  8
0600LEVEL
 62
13
 10
-1998.900
 20
1764.168
 30
4627.000
 70
    32
  0
VERTEX
  8
0600LEVEL
 62
13
 10
-1966.072
 20
1739.699
 30
4627.000
 70
    32
  0
VERTEX
  8
0600LEVEL
 62
13
 10
-1977.169
 20
1783.872
 30
4627.000
 70
    32
  0
VERTEX
  8
0600LEVEL
 62
13
 10
-2027.823
 20
1852.907
 30
4627.000
 70
    32
  0
VERTEX
  8
0600LEVEL
 62
13
 10
-2089.693
 20
1966.890
 30
4627.000
 70
    32
  0
VERTEX
  8
0600LEVEL
 62
13
 10
-2149.807
 20
2070.507
 30
4627.000
 70
    32
  0
VERTEX
  8
0600LEVEL
 62
13
 10
-2218.257
 20
2203.481
 30
4627.000
 70
    32
  0
VERTEX
  8
0600LEVEL
 62
13
 10
-2270.336
 20
2329.136
 30
4627.000
 70
    32
  0
VERTEX
  8
0600LEVEL
 62
13
 10
-2309.386
 20
2448.543
 30
4627.000
 70
    32
  0
VERTEX
  8
0600LEVEL
 62
13
 10
-2349.874
 20
2587.575
 30
4627.000
 70
    32
  0
VERTEX
  8
0600LEVEL
 62
13
 10
-2404.976
 20
2723.560
 30
4627.000
 70
    32
  0
VERTEX
  8
0600LEVEL
 62
13
 10
-2471.183
 20
2856.403
 30
4627.000
 70
    32
  0
VERTEX
  8
0600LEVEL
 62
13
 10
-2547.234
 20
2996.461
 30
4627.000
 70
    32
  0
VERTEX
  8
0600LEVEL
 62
13
 10
-2611.826
 20
3113.677
 30
4627.000
 70
    32
  0
VERTEX
  8
0600LEVEL
 62
13
 10
-2690.487
 20
3242.854
 30
4627.000
 70
    32
  0
VERTEX
  8
0600LEVEL
 62
13
 10
-2778.486
 20
3361.542
 30
4627.000
 70
    32
  0
VERTEX
  8
0600LEVEL
 62
13
 10
-2853.357
 20
3467.170
 30
4627.000
 70
    32
  0
VERTEX
  8
0600LEVEL
 62
13
 10
-2912.204
 20
3526.527
 30
4627.000
 70
    32
  0
VERTEX
  8
0600LEVEL
 62
13
 10
-2966.724
 20
3564.005
 30
4627.000
 70
    32
  0
VERTEX
  8
0600LEVEL
 62
13
 10
-2955.619
 20
3533.170
 30
4627.000
 70
    32
  0
VERTEX
  8
0600LEVEL
 62
13
 10
-2883.820
 20
3446.438
 30
4627.000
 70
    32
  0
VERTEX
  8
0600LEVEL
 62
13
 10
-2832.848
 20
3352.684
 30
4627.000
 70
    32
  0
VERTEX
  8
0600LEVEL
 62
13
 10
-2771.085
 20
3276.471
 30
4627.000
 70
    32
  0
VERTEX
  8
0600LEVEL
 62
13
 10
-2698.880
 20
3189.166
 30
4627.000
 70
    32
  0
VERTEX
  8
0600LEVEL
 62
13
 10
-2646.861
 20
3103.036
 30
4627.000
 70
    32
  0
VERTEX
  8
0600LEVEL
 62
13
 10
-2594.009
 20
2987.821
 30
4627.000
 70
    32
  0
VERTEX
  8
0600LEVEL
 62
13
 10
-2542.335
 20
2896.716
 30
4627.000
 70
    32
  0
VERTEX
  8
0600LEVEL
 62
13
 10
-2483.866
 20
2789.352
 30
4627.000
 70
    32
  0
VERTEX
  8
0600LEVEL
 62
13
 10
-2448.131
 20
2700.711
 30
4627.000
 70
    32
  0
VERTEX
  8
0600LEVEL
 62
13
 10
-2422.176
 20
2603.418
 30
4627.000
 70
    32
  0
VERTEX
  8
0600LEVEL
 62
13
 10
-2412.808
 20
2521.032
 30
4627.000
 70
    32
  0
VERTEX
  8
0600LEVEL
 62
13
 10
-2413.553
 20
2428.037
 30
4627.000
 70
    32
  0
VERTEX
  8
0600LEVEL
 62
13
 10
-2411.809
 20
2346.699
 30
4627.000
 70
    32
  0
VERTEX
  8
0600LEVEL
 62
13
 10
-2399.763
 20
2282.984
 30
4627.000
 70
    32
  0
VERTEX
  8
0600LEVEL
 62
13
 10
-2370.618
 20
2210.316
 30
4627.000
 70
    32
  0
VERTEX
  8
0600LEVEL
 62
13
 10
-2347.227
 20
2148.191
 30
4627.000
 70
    32
  0
VERTEX
  8
0600LEVEL
 62
13
 10
-2347.742
 20
2118.581
 30
4627.000
 70
    32
  0
VERTEX
  8
0600LEVEL
 62
13
 10
-2379.732
 20
2171.600
 30
4627.000
 70
    32
  0
VERTEX
  8
0600LEVEL
 62
13
 10
-2414.333
 20
2258.034
 30
4627.000
 70
    32
  0
VERTEX
  8
0600LEVEL
 62
13
 10
-2453.706
 20
2344.526
 30
4627.000
 70
    32
  0
VERTEX
  8
0600LEVEL
 62
13
 10
-2457.456
 20
2356.490
 30
4627.000
 70
    32
  0
VERTEX
  8
0600LEVEL
 62
13
 10
-2490.684
 20
2439.167
 30
4627.000
 70
    32
  0
VERTEX
  8
0600LEVEL
 62
13
 10
-2534.978
 20
2541.095
 30
4627.000
 70
    32
  0
VERTEX
  8
0600LEVEL
 62
13
 10
-2581.663
 20
2658.531
 30
4627.000
 70
    32
  0
VERTEX
  8
0600LEVEL
 62
13
 10
-2643.793
 20
2802.006
 30
4627.000
 70
    32
  0
VERTEX
  8
0600LEVEL
 62
13
 10
-2699.515
 20
2901.854
 30
4627.000
 70
    32
  0
VERTEX
  8
0600LEVEL
 62
13
 10
-2753.476
 20
2981.017
 30
4627.000
 70
    32
  0
VERTEX
  8
0600LEVEL
 62
13
 10
-2825.856
 20
3054.005
 30
4627.000
 70
    32
  0
VERTEX
  8
0600LEVEL
 62
13
 10
-2896.147
 20
3162.880
 30
4627.000
 70
    32
  0
VERTEX
  8
0600LEVEL
 62
13
 10
-2923.328
 20
3248.553
 30
4627.000
 70
    32
  0
VERTEX
  8
0600LEVEL
 62
13
 10
-2941.867
 20
3321.428
 30
4627.000
 70
    32
  0
VERTEX
  8
0600LEVEL
 62
13
 10
-2997.720
 20
3385.056
 30
4627.000
 70
    32
  0
VERTEX
  8
0600LEVEL
 62
13
 10
-3064.274
 20
3410.995
 30
4627.000
 70
    32
  0
VERTEX
  8
0600LEVEL
 62
13
 10
-3054.181
 20
3371.271
 30
4627.000
 70
    32
  0
VERTEX
  8
0600LEVEL
 62
13
 10
-3005.600
 20
3293.025
 30
4627.000
 70
    32
  0
VERTEX
  8
0600LEVEL
 62
13
 10
-3048.591
 20
3315.452
 30
4627.000
 70
    32
  0
VERTEX
  8
0600LEVEL
 62
13
 10
-3096.506
 20
3363.634
 30
4627.000
 70
    32
  0
VERTEX
  8
0600LEVEL
 62
13
 10
-3101.506
 20
3368.261
 30
4627.000
 70
    32
  0
VERTEX
  8
0600LEVEL
 62
13
 10
-3153.591
 20
3436.281
 30
4627.000
 70
    32
  0
VERTEX
  8
0600LEVEL
 62
13
 10
-3212.384
 20
3476.753
 30
4627.000
 70
    32
  0
VERTEX
  8
0600LEVEL
 62
13
 10
-3182.188
 20
3401.388
 30
4627.000
 70
    32
  0
VERTEX
  8
0600LEVEL
 62
13
 10
-3148.348
 20
3307.534
 30
4627.000
 70
    32
  0
VERTEX
  8
0600LEVEL
 62
13
 10
-3114.866
 20
3216.005
 30
4627.000
 70
    32
  0
VERTEX
  8
0600LEVEL
 62
13
 10
-3071.993
 20
3116.081
 30
4627.000
 70
    32
  0
VERTEX
  8
0600LEVEL
 62
13
 10
-3031.652
 20
3026.404
 30
4627.000
 70
    32
  0
VERTEX
  8
0600LEVEL
 62
13
 10
-2982.261
 20
2913.037
 30
4627.000
 70
    32
  0
VERTEX
  8
0600LEVEL
 62
13
 10
-2939.949
 20
2815.725
 30
4627.000
 70
    32
  0
VERTEX
  8
0600LEVEL
 62
13
 10
-2889.964
 20
2674.823
 30
4627.000
 70
    32
  0
VERTEX
  8
0600LEVEL
 62
13
 10
-2840.265
 20
2567.695
 30
4627.000
 70
    32
  0
VERTEX
  8
0600LEVEL
 62
13
 10
-2776.013
 20
2469.162
 30
4627.000
 70
    32
  0
VERTEX
  8
0600LEVEL
 62
13
 10
-2698.475
 20
2379.187
 30
4627.000
 70
    32
  0
VERTEX
  8
0600LEVEL
 62
13
 10
-2628.744
 20
2306.901
 30
4627.000
 70
    32
  0
VERTEX
  8
0600LEVEL
 62
13
 10
-2572.220
 20
2236.866
 30
4627.000
 70
    32
  0
VERTEX
  8
0600LEVEL
 62
13
 10
-2540.927
 20
2160.560
 30
4627.000
 70
    32
  0
VERTEX
  8
0600LEVEL
 62
13
 10
-2580.226
 20
2200.226
 30
4627.000
 70
    32
  0
VERTEX
  8
0600LEVEL
 62
13
 10
-2643.985
 20
2288.357
 30
4627.000
 70
    32
  0
VERTEX
  8
0600LEVEL
 62
13
 10
-2707.386
 20
2340.185
 30
4627.000
 70
    32
  0
VERTEX
  8
0600LEVEL
 62
13
 10
-2676.020
 20
2261.349
 30
4627.000
 70
    32
  0
VERTEX
  8
0600LEVEL
 62
13
 10
-2632.252
 20
2160.769
 30
4627.000
 70
    32
  0
VERTEX
  8
0600LEVEL
 62
13
 10
-2558.445
 20
2065.138
 30
4627.000
 70
    32
  0
VERTEX
  8
0600LEVEL
 62
13
 10
-2494.254
 20
2006.128
 30
4627.000
 70
    32
  0
VERTEX
  8
0600LEVEL
 62
13
 10
-2447.878
 20
1994.703
 30
4627.000
 70
    32
  0
VERTEX
  8
0600LEVEL
 62
13
 10
-2405.848
 20
1954.822
 30
4627.000
 70
    32
  0
VERTEX
  8
0600LEVEL
 62
13
 10
-2369.644
 20
1894.038
 30
4627.000
 70
    32
  0
VERTEX
  8
0600LEVEL
 62
13
 10
-2323.430
 20
1793.041
 30
4627.000
 70
    32
  0
VERTEX
  8
0600LEVEL
 62
13
 10
-2292.380
 20
1694.628
 30
4627.000
 70
    32
  0
VERTEX
  8
0600LEVEL
 62
13
 10
-2258.384
 20
1598.734
 30
4627.000
 70
    32
  0
VERTEX
  8
0600LEVEL
 62
13
 10
-2218.105
 20
1514.604
 30
4627.000
 70
    32
  0
VERTEX
  8
0600LEVEL
 62
13
 10
-2189.504
 20
1426.927
 30
4627.000
 70
    32
  0
VERTEX
  8
0600LEVEL
 62
13
 10
-2158.555
 20
1345.646
 30
4627.000
 70
    32
  0
VERTEX
  8
0600LEVEL
 62
13
 10
-2120.280
 20
1260.096
 30
4627.000
 70
    32
  0
VERTEX
  8
0600LEVEL
 62
13
 10
-2147.433
 20
1263.213
 30
4627.000
 70
    32
  0
VERTEX
  8
0600LEVEL
 62
13
 10
-2202.290
 20
1343.031
 30
4627.000
 70
    32
  0
VERTEX
  8
0600LEVEL
 62
13
 10
-2250.620
 20
1456.721
 30
4627.000
 70
    32
  0
VERTEX
  8
0600LEVEL
 62
13
 10
-2306.428
 20
1566.400
 30
4627.000
 70
    32
  0
VERTEX
  8
0600LEVEL
 62
13
 10
-2372.045
 20
1682.028
 30
4627.000
 70
    32
  0
VERTEX
  8
0600LEVEL
 62
13
 10
-2442.104
 20
1809.991
 30
4627.000
 70
    32
  0
VERTEX
  8
0600LEVEL
 62
13
 10
-2498.236
 20
1886.755
 30
4627.000
 70
    32
  0
VERTEX
  8
0600LEVEL
 62
13
 10
-2521.162
 20
1874.806
 30
4627.000
 70
    32
  0
VERTEX
  8
0600LEVEL
 62
13
 10
-2481.611
 20
1792.310
 30
4627.000
 70
    32
  0
VERTEX
  8
0600LEVEL
 62
13
 10
-2440.495
 20
1702.753
 30
4627.000
 70
    32
  0
VERTEX
  8
0600LEVEL
 62
13
 10
-2418.955
 20
1647.488
 30
4627.000
 70
    32
  0
VERTEX
  8
0600LEVEL
 62
13
 10
-2467.862
 20
1703.137
 30
4627.000
 70
    32
  0
VERTEX
  8
0600LEVEL
 62
13
 10
-2527.403
 20
1807.160
 30
4627.000
 70
    32
  0
VERTEX
  8
0600LEVEL
 62
13
 10
-2588.715
 20
1928.851
 30
4627.000
 70
    32
  0
VERTEX
  8
0600LEVEL
 62
13
 10
-2667.358
 20
2074.384
 30
4627.000
 70
    32
  0
VERTEX
  8
0600LEVEL
 62
13
 10
-2745.200
 20
2181.777
 30
4627.000
 70
    32
  0
VERTEX
  8
0600LEVEL
 62
13
 10
-2814.248
 20
2318.628
 30
4627.000
 70
    32
  0
VERTEX
  8
0600LEVEL
 62
13
 10
-2883.499
 20
2455.766
 30
4627.000
 70
    32
  0
VERTEX
  8
0600LEVEL
 62
13
 10
-2953.746
 20
2576.714
 30
4627.000
 70
    32
  0
VERTEX
  8
0600LEVEL
 62
13
 10
-3045.905
 20
2684.281
 30
4627.000
 70
    32
  0
VERTEX
  8
0600LEVEL
 62
13
 10
-3110.647
 20
2748.921
 30
4627.000
 70
    32
  0
VERTEX
  8
0600LEVEL
 62
13
 10
-3153.207
 20
2766.492
 30
4627.000
 70
    32
  0
VERTEX
  8
0600LEVEL
 62
13
 10
-3109.601
 20
2688.591
 30
4627.000
 70
    32
  0
VERTEX
  8
0600LEVEL
 62
13
 10
-3052.036
 20
2568.545
 30
4627.000
 70
    32
  0
VERTEX
  8
0600LEVEL
 62
13
 10
-2967.113
 20
2445.097
 30
4627.000
 70
    32
  0
VERTEX
  8
0600LEVEL
 62
13
 10
-2895.854
 20
2333.037
 30
4627.000
 70
    32
  0
VERTEX
  8
0600LEVEL
 62
13
 10
-2830.944
 20
2225.079
 30
4627.000
 70
    32
  0
VERTEX
  8
0600LEVEL
 62
13
 10
-2777.784
 20
2116.103
 30
4627.000
 70
    32
  0
VERTEX
  8
0600LEVEL
 62
13
 10
-2742.654
 20
2018.002
 30
4627.000
 70
    32
  0
VERTEX
  8
0600LEVEL
 62
13
 10
-2714.902
 20
1898.758
 30
4627.000
 70
    32
  0
VERTEX
  8
0600LEVEL
 62
13
 10
-2681.736
 20
1787.652
 30
4627.000
 70
    32
  0
VERTEX
  8
0600LEVEL
 62
13
 10
-2623.749
 20
1693.710
 30
4627.000
 70
    32
  0
VERTEX
  8
0600LEVEL
 62
13
 10
-2572.965
 20
1626.918
 30
4627.000
 70
    32
  0
VERTEX
  8
0600LEVEL
 62
13
 10
-2540.679
 20
1543.144
 30
4627.000
 70
    32
  0
VERTEX
  8
0600LEVEL
 62
13
 10
-2539.384
 20
1484.281
 30
4627.000
 70
    32
  0
VERTEX
  8
0600LEVEL
 62
13
 10
-2556.972
 20
1459.342
 30
4627.000
 70
    32
  0
VERTEX
  8
0600LEVEL
 62
13
 10
-2517.135
 20
1377.049
 30
4627.000
 70
    32
  0
VERTEX
  8
0600LEVEL
 62
13
 10
-2454.540
 20
1271.751
 30
4627.000
 70
    32
  0
VERTEX
  8
0600LEVEL
 62
13
 10
-2400.264
 20
1178.189
 30
4627.000
 70
    32
  0
VERTEX
  8
0600LEVEL
 62
13
 10
-2337.943
 20
1075.706
 30
4627.000
 70
    32
  0
VERTEX
  8
0600LEVEL
 62
13
 10
-2288.548
 20
985.996
 30
4627.000
 70
    32
  0
VERTEX
  8
0600LEVEL
 62
13
 10
-2260.312
 20
921.285
 30
4627.000
 70
    32
  0
VERTEX
  8
0600LEVEL
 62
13
 10
-2319.825
 20
976.728
 30
4627.000
 70
    32
  0
VERTEX
  8
0600LEVEL
 62
13
 10
-2420.426
 20
1107.127
 30
4627.000
 70
    32
  0
VERTEX
  8
0600LEVEL
 62
13
 10
-2497.273
 20
1196.733
 30
4627.000
 70
    32
  0
VERTEX
  8
0600LEVEL
 62
13
 10
-2555.409
 20
1272.076
 30
4627.000
 70
    32
  0
VERTEX
  8
0600LEVEL
 62
13
 10
-2616.377
 20
1364.765
 30
4627.000
 70
    32
  0
VERTEX
  8
0600LEVEL
 62
13
 10
-2691.633
 20
1477.002
 30
4627.000
 70
    32
  0
VERTEX
  8
0600LEVEL
 62
13
 10
-2761.196
 20
1584.243
 30
4627.000
 70
    32
  0
VERTEX
  8
0600LEVEL
 62
13
 10
-2825.527
 20
1671.967
 30
4627.000
 70
    32
  0
VERTEX
  8
0600LEVEL
 62
13
 10
-2907.527
 20
1757.921
 30
4627.000
 70
    32
  0
VERTEX
  8
0600LEVEL
 62
13
 10
-2988.076
 20
1861.245
 30
4627.000
 70
    32
  0
VERTEX
  8
0600LEVEL
 62
13
 10
-3057.741
 20
1951.640
 30
4627.000
 70
    32
  0
VERTEX
  8
0600LEVEL
 62
13
 10
-3129.891
 20
2054.036
 30
4627.000
 70
    32
  0
VERTEX
  8
0600LEVEL
 62
13
 10
-3183.968
 20
2157.631
 30
4627.000
 70
    32
  0
VERTEX
  8
0600LEVEL
 62
13
 10
-3237.165
 20
2233.895
 30
4627.000
 70
    32
  0
VERTEX
  8
0600LEVEL
 62
13
 10
-3257.203
 20
2219.692
 30
4627.000
 70
    32
  0
VERTEX
  8
0600LEVEL
 62
13
 10
-3229.171
 20
2121.290
 30
4627.000
 70
    32
  0
VERTEX
  8
0600LEVEL
 62
13
 10
-3190.451
 20
2023.583
 30
4627.000
 70
    32
  0
VERTEX
  8
0600LEVEL
 62
13
 10
-3149.877
 20
1952.994
 30
4627.000
 70
    32
  0
VERTEX
  8
0600LEVEL
 62
13
 10
-3157.933
 20
1924.920
 30
4627.000
 70
    32
  0
VERTEX
  8
0600LEVEL
 62
13
 10
-3210.793
 20
1992.821
 30
4627.000
 70
    32
  0
VERTEX
  8
0600LEVEL
 62
13
 10
-3267.091
 20
2102.583
 30
4627.000
 70
    32
  0
VERTEX
  8
0600LEVEL
 62
13
 10
-3331.164
 20
2239.090
 30
4627.000
 70
    32
  0
VERTEX
  8
0600LEVEL
 62
13
 10
-3386.099
 20
2342.076
 30
4627.000
 70
    32
  0
VERTEX
  8
0600LEVEL
 62
13
 10
-3451.971
 20
2432.580
 30
4627.000
 70
    32
  0
VERTEX
  8
0600LEVEL
 62
13
 10
-3493.250
 20
2510.840
 30
4627.000
 70
    32
  0
VERTEX
  8
0600LEVEL
 62
13
 10
-3535.853
 20
2550.315
 30
4627.000
 70
    32
  0
VERTEX
  8
0600LEVEL
 62
13
 10
-3539.290
 20
2479.926
 30
4627.000
 70
    32
  0
VERTEX
  8
0600LEVEL
 62
13
 10
-3541.749
 20
2409.371
 30
4627.000
 70
    32
  0
VERTEX
  8
0600LEVEL
 62
13
 10
-3563.525
 20
2421.890
 30
4627.000
 70
    32
  0
VERTEX
  8
0600LEVEL
 62
13
 10
-3554.302
 20
2344.563
 30
4627.000
 70
    32
  0
VERTEX
  8
0600LEVEL
 62
13
 10
-3539.822
 20
2243.436
 30
4627.000
 70
    32
  0
VERTEX
  8
0600LEVEL
 62
13
 10
-3514.610
 20
2121.102
 30
4627.000
 70
    32
  0
VERTEX
  8
0600LEVEL
 62
13
 10
-3468.861
 20
1981.929
 30
4627.000
 70
    32
  0
VERTEX
  8
0600LEVEL
 62
13
 10
-3388.964
 20
1867.390
 30
4627.000
 70
    32
  0
VERTEX
  8
0600LEVEL
 62
13
 10
-3303.381
 20
1768.494
 30
4627.000
 70
    32
  0
VERTEX
  8
0600LEVEL
 62
13
 10
-3220.443
 20
1693.958
 30
4627.000
 70
    32
  0
VERTEX
  8
0600LEVEL
 62
13
 10
-3131.821
 20
1601.087
 30
4627.000
 70
    32
  0
VERTEX
  8
0600LEVEL
 62
13
 10
-3051.289
 20
1515.384
 30
4627.000
 70
    32
  0
VERTEX
  8
0600LEVEL
 62
13
 10
-2974.239
 20
1425.492
 30
4627.000
 70
    32
  0
VERTEX
  8
0600LEVEL
 62
13
 10
-2913.253
 20
1315.183
 30
4627.000
 70
    32
  0
VERTEX
  8
0600LEVEL
 62
13
 10
-2870.296
 20
1215.748
 30
4627.000
 70
    32
  0
VERTEX
  8
0600LEVEL
 62
13
 10
-2834.644
 20
1126.618
 30
4627.000
 70
    32
  0
VERTEX
  8
0600LEVEL
 62
13
 10
-2889.527
 20
1176.742
 30
4627.000
 70
    32
  0
VERTEX
  8
0600LEVEL
 62
13
 10
-2956.087
 20
1257.296
 30
4627.000
 70
    32
  0
VERTEX
  8
0600LEVEL
 62
13
 10
-3040.299
 20
1362.754
 30
4627.000
 70
    32
  0
VERTEX
  8
0600LEVEL
 62
13
 10
-3110.841
 20
1470.162
 30
4627.000
 70
    32
  0
VERTEX
  8
0600LEVEL
 62
13
 10
-3186.492
 20
1552.013
 30
4627.000
 70
    32
  0
VERTEX
  8
0600LEVEL
 62
13
 10
-3284.880
 20
1628.930
 30
4627.000
 70
    32
  0
VERTEX
  8
0600LEVEL
 62
13
 10
-3310.382
 20
1615.155
 30
4627.000
 70
    32
  0
VERTEX
  8
0600LEVEL
 62
13
 10
-3238.366
 20
1520.835
 30
4627.000
 70
    32
  0
VERTEX
  8
0600LEVEL
 62
13
 10
-3161.107
 20
1410.018
 30
4627.000
 70
    32
  0
VERTEX
  8
0600LEVEL
 62
13
 10
-3115.215
 20
1310.083
 30
4627.000
 70
    32
  0
VERTEX
  8
0600LEVEL
 62
13
 10
-3066.055
 20
1211.604
 30
4627.000
 70
    32
  0
VERTEX
  8
0600LEVEL
 62
13
 10
-3142.917
 20
1274.534
 30
4627.000
 70
    32
  0
VERTEX
  8
0600LEVEL
 62
13
 10
-3235.862
 20
1378.964
 30
4627.000
 70
    32
  0
VERTEX
  8
0600LEVEL
 62
13
 10
-3314.821
 20
1470.943
 30
4627.000
 70
    32
  0
VERTEX
  8
0600LEVEL
 62
13
 10
-3369.581
 20
1509.972
 30
4627.000
 70
    32
  0
VERTEX
  8
0600LEVEL
 62
13
 10
-3309.960
 20
1416.758
 30
4627.000
 70
    32
  0
VERTEX
  8
0600LEVEL
 62
13
 10
-3302.853
 20
1352.123
 30
4627.000
 70
    32
  0
VERTEX
  8
0600LEVEL
 62
13
 10
-3376.272
 20
1430.826
 30
4627.000
 70
    32
  0
VERTEX
  8
0600LEVEL
 62
13
 10
-3444.839
 20
1520.279
 30
4627.000
 70
    32
  0
VERTEX
  8
0600LEVEL
 62
13
 10
-3486.344
 20
1558.812
 30
4627.000
 70
    32
  0
VERTEX
  8
0600LEVEL
 62
13
 10
-3455.805
 20
1454.445
 30
4627.000
 70
    32
  0
VERTEX
  8
0600LEVEL
 62
13
 10
-3455.411
 20
1450.854
 30
4627.000
 70
    32
  0
VERTEX
  8
0600LEVEL
 62
13
 10
-3435.764
 20
1346.079
 30
4627.000
 70
    32
  0
VERTEX
  8
0600LEVEL
 62
13
 10
-3403.427
 20
1253.739
 30
4627.000
 70
    32
  0
VERTEX
  8
0600LEVEL
 62
13
 10
-3396.091
 20
1184.535
 30
4627.000
 70
    32
  0
VERTEX
  8
0600LEVEL
 62
13
 10
-3459.833
 20
1255.045
 30
4627.000
 70
    32
  0
VERTEX
  8
0600LEVEL
 62
13
 10
-3500.589
 20
1264.003
 30
4627.000
 70
    32
  0
VERTEX
  8
0600LEVEL
 62
13
 10
-3460.190
 20
1179.098
 30
4627.000
 70
    32
  0
VERTEX
  8
0600LEVEL
 62
13
 10
-3418.306
 20
1076.322
 30
4627.000
 70
    32
  0
VERTEX
  8
0600LEVEL
 62
13
 10
-3371.549
 20
956.357
 30
4627.000
 70
    32
  0
VERTEX
  8
0600LEVEL
 62
13
 10
-3304.482
 20
858.099
 30
4627.000
 70
    32
  0
SEQEND
  8
0600LEVEL
  0
POLYLINE
  8
0600LEVEL
 62
13
 66
     1
 70
     9
  0
VERTEX
  8
0600LEVEL
 62
13
 10
931.300
 20
-586.500
 30
4627.000
 70
    32
  0
VERTEX
  8
0600LEVEL
 62
13
 10
948.310
 20
-541.327
 30
4627.000
 70
    32
  0
VERTEX
  8
0600LEVEL
 62
13
 10
965.775
 20
-539.269
 30
4627.000
 70
    32
  0
VERTEX
  8
0600LEVEL
 62
13
 10
984.153
 20
-521.511
 30
4627.000
 70
    32
  0
VERTEX
  8
0600LEVEL
 62
13
 10
983.777
 20
-501.565
 30
4627.000
 70
    32
  0
VERTEX
  8
0600LEVEL
 62
13
 10
1030.904
 20
-474.611
 30
4627.000
 70
    32
  0
VERTEX
  8
0600LEVEL
 62
13
 10
1055.145
 20
-437.215
 30
4627.000
 70
    32
  0
VERTEX
  8
0600LEVEL
 62
13
 10
1098.551
 20
-412.899
 30
4627.000
 70
    32
  0
VERTEX
  8
0600LEVEL
 62
13
 10
1164.396
 20
-420.847
 30
4627.000
 70
    32
  0
VERTEX
  8
0600LEVEL
 62
13
 10
1231.017
 20
-394.698
 30
4627.000
 70
    32
  0
VERTEX
  8
0600LEVEL
 62
13
 10
1277.594
 20
-328.137
 30
4627.000
 70
    32
  0
VERTEX
  8
0600LEVEL
 62
13
 10
1282.133
 20
-235.034
 30
4627.000
 70
    32
  0
VERTEX
  8
0600LEVEL
 62
13
 10
1272.174
 20
-169.410
 30
4627.000
 70
    32
  0
VERTEX
  8
0600LEVEL
 62
13
 10
1246.518
 20
-113.192
 30
4627.000
 70
    32
  0
VERTEX
  8
0600LEVEL
 62
13
 10
1201.162
 20
-45.563
 30
4627.000
 70
    32
  0
VERTEX
  8
0600LEVEL
 62
13
 10
1188.318
 20
11.995
 30
4627.000
 70
    32
  0
VERTEX
  8
0600LEVEL
 62
13
 10
1226.011
 20
-43.002
 30
4627.000
 70
    32
  0
VERTEX
  8
0600LEVEL
 62
13
 10
1255.022
 20
-107.594
 30
4627.000
 70
    32
  0
VERTEX
  8
0600LEVEL
 62
13
 10
1311.223
 20
-176.567
 30
4627.000
 70
    32
  0
VERTEX
  8
0600LEVEL
 62
13
 10
1355.810
 20
-152.704
 30
4627.000
 70
    32
  0
VERTEX
  8
0600LEVEL
 62
13
 10
1385.278
 20
-80.208
 30
4627.000
 70
    32
  0
VERTEX
  8
0600LEVEL
 62
13
 10
1392.193
 20
4.689
 30
4627.000
 70
    32
  0
VERTEX
  8
0600LEVEL
 62
13
 10
1383.159
 20
89.031
 30
4627.000
 70
    32
  0
VERTEX
  8
0600LEVEL
 62
13
 10
1370.374
 20
151.362
 30
4627.000
 70
    32
  0
VERTEX
  8
0600LEVEL
 62
13
 10
1346.492
 20
179.592
 30
4627.000
 70
    32
  0
VERTEX
  8
0600LEVEL
 62
13
 10
1333.040
 20
238.010
 30
4627.000
 70
    32
  0
VERTEX
  8
0600LEVEL
 62
13
 10
1325.038
 20
303.300
 30
4627.000
 70
    32
  0
VERTEX
  8
0600LEVEL
 62
13
 10
1267.027
 20
323.252
 30
4627.000
 70
    32
  0
VERTEX
  8
0600LEVEL
 62
13
 10
1215.379
 20
331.801
 30
4627.000
 70
    32
  0
VERTEX
  8
0600LEVEL
 62
13
 10
1155.690
 20
304.975
 30
4627.000
 70
    32
  0
VERTEX
  8
0600LEVEL
 62
13
 10
1110.102
 20
241.266
 30
4627.000
 70
    32
  0
VERTEX
  8
0600LEVEL
 62
13
 10
1087.033
 20
156.102
 30
4627.000
 70
    32
  0
VERTEX
  8
0600LEVEL
 62
13
 10
1085.849
 20
54.624
 30
4627.000
 70
    32
  0
VERTEX
  8
0600LEVEL
 62
13
 10
1088.062
 20
1.142
 30
4627.000
 70
    32
  0
VERTEX
  8
0600LEVEL
 62
13
 10
1116.812
 20
-33.959
 30
4627.000
 70
    32
  0
VERTEX
  8
0600LEVEL
 62
13
 10
1123.841
 20
-75.425
 30
4627.000
 70
    32
  0
VERTEX
  8
0600LEVEL
 62
13
 10
1136.177
 20
-115.279
 30
4627.000
 70
    32
  0
VERTEX
  8
0600LEVEL
 62
13
 10
1167.761
 20
-167.726
 30
4627.000
 70
    32
  0
VERTEX
  8
0600LEVEL
 62
13
 10
1137.843
 20
-173.450
 30
4627.000
 70
    32
  0
VERTEX
  8
0600LEVEL
 62
13
 10
1102.993
 20
-166.756
 30
4627.000
 70
    32
  0
VERTEX
  8
0600LEVEL
 62
13
 10
1058.182
 20
-162.393
 30
4627.000
 70
    32
  0
VERTEX
  8
0600LEVEL
 62
13
 10
1020.976
 20
-209.409
 30
4627.000
 70
    32
  0
VERTEX
  8
0600LEVEL
 62
13
 10
1031.000
 20
-256.923
 30
4627.000
 70
    32
  0
VERTEX
  8
0600LEVEL
 62
13
 10
1002.154
 20
-259.307
 30
4627.000
 70
    32
  0
VERTEX
  8
0600LEVEL
 62
13
 10
989.841
 20
-291.689
 30
4627.000
 70
    32
  0
VERTEX
  8
0600LEVEL
 62
13
 10
962.820
 20
-330.625
 30
4627.000
 70
    32
  0
VERTEX
  8
0600LEVEL
 62
13
 10
929.345
 20
-405.963
 30
4627.000
 70
    32
  0
VERTEX
  8
0600LEVEL
 62
13
 10
903.269
 20
-454.121
 30
4627.000
 70
    32
  0
VERTEX
  8
0600LEVEL
 62
13
 10
898.303
 20
-518.712
 30
4627.000
 70
    32
  0
VERTEX
  8
0600LEVEL
 62
13
 10
908.731
 20
-556.479
 30
4627.000
 70
    32
  0
SEQEND
  8
0600LEVEL
  0
POLYLINE
  8
0600LEVEL
 62
5
 66
     1
 70
     9
  0
VERTEX
  8
0600LEVEL
 62
5
 10
1725.263
 20
-604.758
 30
4627.000
 70
    32
  0
VERTEX
  8
0600LEVEL
 62
5
 10
1665.309
 20
-513.500
 30
4627.000
 70
    32
  0
VERTEX
  8
0600LEVEL
 62
5
 10
1576.188
 20
-355.611
 30
4627.000
 70
    32
  0
VERTEX
  8
0600LEVEL
 62
5
 10
1526.032
 20
-239.345
 30
4627.000
 70
    32
  0
VERTEX
  8
0600LEVEL
 62
5
 10
1481.489
 20
-138.885
 30
4627.000
 70
    32
  0
VERTEX
  8
0600LEVEL
 62
5
 10
1454.373
 20
-69.079
 30
4627.000
 70
    32
  0
VERTEX
  8
0600LEVEL
 62
5
 10
1443.066
 20
-3.980
 30
4627.000
 70
    32
  0
VERTEX
  8
0600LEVEL
 62
5
 10
1435.625
 20
58.698
 30
4627.000
 70
    32
  0
VERTEX
  8
0600LEVEL
 62
5
 10
1417.388
 20
46.201
 30
4627.000
 70
    32
  0
VERTEX
  8
0600LEVEL
 62
5
 10
1420.100
 20
-38.322
 30
4627.000
 70
    32
  0
VERTEX
  8
0600LEVEL
 62
5
 10
1436.792
 20
-80.680
 30
4627.000
 70
    32
  0
VERTEX
  8
0600LEVEL
 62
5
 10
1458.454
 20
-147.040
 30
4627.000
 70
    32
  0
VERTEX
  8
0600LEVEL
 62
5
 10
1503.487
 20
-247.584
 30
4627.000
 70
    32
  0
VERTEX
  8
0600LEVEL
 62
5
 10
1561.734
 20
-371.017
 30
4627.000
 70
    32
  0
VERTEX
  8
0600LEVEL
 62
5
 10
1636.615
 20
-507.604
 30
4627.000
 70
    32
  0
VERTEX
  8
0600LEVEL
 62
5
 10
1701.215
 20
-611.482
 30
4627.000
 70
    32
  0
SEQEND
  8
0600LEVEL
  0
POLYLINE
  8
0600LEVEL
 62
5
 66
     1
 70
     9
  0
VERTEX
  8
0600LEVEL
 62
5
 10
1464.950
 20
-1009.904
 30
4627.000
 70
    32
  0
VERTEX
  8
0600LEVEL
 62
5
 10
1420.328
 20
-964.548
 30
4627.000
 70
    32
  0
VERTEX
  8
0600LEVEL
 62
5
 10
1382.827
 20
-912.855
 30
4627.000
 70
    32
  0
VERTEX
  8
0600LEVEL
 62
5
 10
1333.678
 20
-845.335
 30
4627.000
 70
    32
  0
VERTEX
  8
0600LEVEL
 62
5
 10
1283.988
 20
-769.166
 30
4627.000
 70
    32
  0
VERTEX
  8
0600LEVEL
 62
5
 10
1226.628
 20
-693.703
 30
4627.000
 70
    32
  0
VERTEX
  8
0600LEVEL
 62
5
 10
1160.079
 20
-610.131
 30
4627.000
 70
    32
  0
VERTEX
  8
0600LEVEL
 62
5
 10
1121.099
 20
-561.206
 30
4627.000
 70
    32
  0
VERTEX
  8
0600LEVEL
 62
5
 10
1091.729
 20
-528.265
 30
4627.000
 70
    32
  0
VERTEX
  8
0600LEVEL
 62
5
 10
1049.984
 20
-488.181
 30
4627.000
 70
    32
  0
VERTEX
  8
0600LEVEL
 62
5
 10
1007.798
 20
-446.261
 30
4627.000
 70
    32
  0
VERTEX
  8
0600LEVEL
 62
5
 10
967.536
 20
-379.752
 30
4627.000
 70
    32
  0
VERTEX
  8
0600LEVEL
 62
5
 10
960.975
 20
-344.405
 30
4627.000
 70
    32
  0
VERTEX
  8
0600LEVEL
 62
5
 10
968.980
 20
-307.765
 30
4627.000
 70
    32
  0
VERTEX
  8
0600LEVEL
 62
5
 10
957.115
 20
-250.374
 30
4627.000
 70
    32
  0
VERTEX
  8
0600LEVEL
 62
5
 10
929.817
 20
-242.199
 30
4627.000
 70
    32
  0
VERTEX
  8
0600LEVEL
 62
5
 10
921.755
 20
-215.657
 30
4627.000
 70
    32
  0
VERTEX
  8
0600LEVEL
 62
5
 10
891.980
 20
-260.416
 30
4627.000
 70
    32
  0
VERTEX
  8
0600LEVEL
 62
5
 10
906.491
 20
-308.191
 30
4627.000
 70
    32
  0
VERTEX
  8
0600LEVEL
 62
5
 10
910.921
 20
-357.521
 30
4627.000
 70
    32
  0
VERTEX
  8
0600LEVEL
 62
5
 10
902.597
 20
-403.418
 30
4627.000
 70
    32
  0
VERTEX
  8
0600LEVEL
 62
5
 10
927.939
 20
-411.260
 30
4627.000
 70
    32
  0
VERTEX
  8
0600LEVEL
 62
5
 10
955.524
 20
-419.232
 30
4627.000
 70
    32
  0
VERTEX
  8
0600LEVEL
 62
5
 10
984.492
 20
-461.921
 30
4627.000
 70
    32
  0
VERTEX
  8
0600LEVEL
 62
5
 10
995.912
 20
-507.156
 30
4627.000
 70
    32
  0
VERTEX
  8
0600LEVEL
 62
5
 10
1019.504
 20
-491.293
 30
4627.000
 70
    32
  0
VERTEX
  8
0600LEVEL
 62
5
 10
1057.187
 20
-515.332
 30
4627.000
 70
    32
  0
VERTEX
  8
0600LEVEL
 62
5
 10
1089.290
 20
-548.487
 30
4627.000
 70
    32
  0
VERTEX
  8
0600LEVEL
 62
5
 10
1135.023
 20
-602.086
 30
4627.000
 70
    32
  0
VERTEX
  8
0600LEVEL
 62
5
 10
1174.575
 20
-650.605
 30
4627.000
 70
    32
  0
VERTEX
  8
0600LEVEL
 62
5
 10
1235.348
 20
-729.669
 30
4627.000
 70
    32
  0
VERTEX
  8
0600LEVEL
 62
5
 10
1289.657
 20
-814.176
 30
4627.000
 70
    32
  0
VERTEX
  8
0600LEVEL
 62
5
 10
1351.543
 20
-901.484
 30
4627.000
 70
    32
  0
VERTEX
  8
0600LEVEL
 62
5
 10
1399.236
 20
-965.736
 30
4627.000
 70
    32
  0
VERTEX
  8
0600LEVEL
 62
5
 10
1457.680
 20
-1034.840
 30
4627.000
 70
    32
  0
SEQEND
  8
0600LEVEL
  0
POLYLINE
  8
0600LEVEL
 62
5
 66
     1
 70
     9
  0
VERTEX
  8
0600LEVEL
 62
5
 10
1507.374
 20
-1345.828
 30
4627.000
 70
    32
  0
VERTEX
  8
0600LEVEL
 62
5
 10
1462.421
 20
-1380.703
 30
4627.000
 70
    32
  0
VERTEX
  8
0600LEVEL
 62
5
 10
1403.061
 20
-1429.229
 30
4627.000
 70
    32
  0
VERTEX
  8
0600LEVEL
 62
5
 10
1351.568
 20
-1456.697
 30
4627.000
 70
    32
  0
VERTEX
  8
0600LEVEL
 62
5
 10
1290.125
 20
-1483.476
 30
4627.000
 70
    32
  0
VERTEX
  8
0600LEVEL
 62
5
 10
1234.418
 20
-1503.179
 30
4627.000
 70
    32
  0
VERTEX
  8
0600LEVEL
 62
5
 10
1177.171
 20
-1520.102
 30
4627.000
 70
    32
  0
VERTEX
  8
0600LEVEL
 62
5
 10
1116.692
 20
-1539.747
 30
4627.000
 70
    32
  0
VERTEX
  8
0600LEVEL
 62
5
 10
1043.965
 20
-1573.664
 30
4627.000
 70
    32
  0
VERTEX
  8
0600LEVEL
 62
5
 10
999.179
 20
-1607.560
 30
4627.000
 70
    32
  0
VERTEX
  8
0600LEVEL
 62
5
 10
961.016
 20
-1648.373
 30
4627.000
 70
    32
  0
VERTEX
  8
0600LEVEL
 62
5
 10
946.767
 20
-1708.362
 30
4627.000
 70
    32
  0
VERTEX
  8
0600LEVEL
 62
5
 10
913.699
 20
-1750.295
 30
4627.000
 70
    32
  0
VERTEX
  8
0600LEVEL
 62
5
 10
871.369
 20
-1781.589
 30
4627.000
 70
    32
  0
VERTEX
  8
0600LEVEL
 62
5
 10
843.163
 20
-1843.730
 30
4627.000
 70
    32
  0
VERTEX
  8
0600LEVEL
 62
5
 10
812.474
 20
-1904.189
 30
4627.000
 70
    32
  0
VERTEX
  8
0600LEVEL
 62
5
 10
767.358
 20
-1950.361
 30
4627.000
 70
    32
  0
VERTEX
  8
0600LEVEL
 62
5
 10
708.487
 20
-1998.972
 30
4627.000
 70
    32
  0
VERTEX
  8
0600LEVEL
 62
5
 10
671.368
 20
-2021.842
 30
4627.000
 70
    32
  0
VERTEX
  8
0600LEVEL
 62
5
 10
602.661
 20
-2015.923
 30
4627.000
 70
    32
  0
VERTEX
  8
0600LEVEL
 62
5
 10
529.017
 20
-2055.220
 30
4627.000
 70
    32
  0
VERTEX
  8
0600LEVEL
 62
5
 10
425.599
 20
-2139.277
 30
4627.000
 70
    32
  0
VERTEX
  8
0600LEVEL
 62
5
 10
342.190
 20
-2194.529
 30
4627.000
 70
    32
  0
VERTEX
  8
0600LEVEL
 62
5
 10
272.749
 20
-2244.610
 30
4627.000
 70
    32
  0
VERTEX
  8
0600LEVEL
 62
5
 10
242.167
 20
-2264.567
 30
4627.000
 70
    32
  0
VERTEX
  8
0600LEVEL
 62
5
 10
252.888
 20
-2288.793
 30
4627.000
 70
    32
  0
VERTEX
  8
0600LEVEL
 62
5
 10
293.942
 20
-2260.553
 30
4627.000
 70
    32
  0
VERTEX
  8
0600LEVEL
 62
5
 10
346.041
 20
-2223.625
 30
4627.000
 70
    32
  0
VERTEX
  8
0600LEVEL
 62
5
 10
406.477
 20
-2182.077
 30
4627.000
 70
    32
  0
VERTEX
  8
0600LEVEL
 62
5
 10
494.299
 20
-2124.557
 30
4627.000
 70
    32
  0
VERTEX
  8
0600LEVEL
 62
5
 10
573.259
 20
-2070.309
 30
4627.000
 70
    32
  0
VERTEX
  8
0600LEVEL
 62
5
 10
624.125
 20
-2058.339
 30
4627.000
 70
    32
  0
VERTEX
  8
0600LEVEL
 62
5
 10
706.710
 20
-2038.938
 30
4627.000
 70
    32
  0
VERTEX
  8
0600LEVEL
 62
5
 10
777.365
 20
-1980.255
 30
4627.000
 70
    32
  0
VERTEX
  8
0600LEVEL
 62
5
 10
837.617
 20
-1922.064
 30
4627.000
 70
    32
  0
VERTEX
  8
0600LEVEL
 62
5
 10
863.011
 20
-1870.518
 30
4627.000
 70
    32
  0
VERTEX
  8
0600LEVEL
 62
5
 10
881.829
 20
-1810.301
 30
4627.000
 70
    32
  0
VERTEX
  8
0600LEVEL
 62
5
 10
913.172
 20
-1782.923
 30
4627.000
 70
    32
  0
VERTEX
  8
0600LEVEL
 62
5
 10
960.680
 20
-1752.260
 30
4627.000
 70
    32
  0
VERTEX
  8
0600LEVEL
 62
5
 10
995.198
 20
-1692.956
 30
4627.000
 70
    32
  0
VERTEX
  8
0600LEVEL
 62
5
 10
1014.197
 20
-1639.062
 30
4627.000
 70
    32
  0
VERTEX
  8
0600LEVEL
 62
5
 10
1057.121
 20
-1601.325
 30
4627.000
 70
    32
  0
VERTEX
  8
0600LEVEL
 62
5
 10
1132.986
 20
-1568.195
 30
4627.000
 70
    32
  0
VERTEX
  8
0600LEVEL
 62
5
 10
1202.792
 20
-1541.079
 30
4627.000
 70
    32
  0
VERTEX
  8
0600LEVEL
 62
5
 10
1267.528
 20
-1517.126
 30
4627.000
 70
    32
  0
VERTEX
  8
0600LEVEL
 62
5
 10
1349.216
 20
-1486.750
 30
4627.000
 70
    32
  0
VERTEX
  8
0600LEVEL
 62
5
 10
1409.010
 20
-1453.398
 30
4627.000
 70
    32
  0
VERTEX
  8
0600LEVEL
 62
5
 10
1463.181
 20
-1407.259
 30
4627.000
 70
    32
  0
VERTEX
  8
0600LEVEL
 62
5
 10
1520.502
 20
-1358.887
 30
4627.000
 70
    32
  0
SEQEND
  8
0600LEVEL
  0
POLYLINE
  8
0600LEVEL
 62
5
 66
     1
 70
     9
  0
VERTEX
  8
0600LEVEL
 62
5
 10
826.724
 20
-337.637
 30
4627.000
 70
    32
  0
VERTEX
  8
0600LEVEL
 62
5
 10
846.372
 20
-408.435
 30
4627.000
 70
    32
  0
VERTEX
  8
0600LEVEL
 62
5
 10
860.828
 20
-471.302
 30
4627.000
 70
    32
  0
VERTEX
  8
0600LEVEL
 62
5
 10
886.820
 20
-535.883
 30
4627.000
 70
    32
  0
VERTEX
  8
0600LEVEL
 62
5
 10
908.157
 20
-590.862
 30
4627.000
 70
    32
  0
VERTEX
  8
0600LEVEL
 62
5
 10
942.697
 20
-671.748
 30
4627.000
 70
    32
  0
VERTEX
  8
0600LEVEL
 62
5
 10
982.498
 20
-752.776
 30
4627.000
 70
    32
  0
VERTEX
  8
0600LEVEL
 62
5
 10
990.598
 20
-824.879
 30
4627.000
 70
    32
  0
VERTEX
  8
0600LEVEL
 62
5
 10
1008.438
 20
-910.722
 30
4627.000
 70
    32
  0
VERTEX
  8
0600LEVEL
 62
5
 10
1024.001
 20
-1005.489
 30
4627.000
 70
    32
  0
VERTEX
  8
0600LEVEL
 62
5
 10
1038.837
 20
-1098.622
 30
4627.000
 70
    32
  0
VERTEX
  8
0600LEVEL
 62
5
 10
1063.362
 20
-1162.953
 30
4627.000
 70
    32
  0
VERTEX
  8
0600LEVEL
 62
5
 10
1085.481
 20
-1238.451
 30
4627.000
 70
    32
  0
VERTEX
  8
0600LEVEL
 62
5
 10
1112.176
 20
-1300.384
 30
4627.000
 70
    32
  0
VERTEX
  8
0600LEVEL
 62
5
 10
1138.679
 20
-1392.988
 30
4627.000
 70
    32
  0
VERTEX
  8
0600LEVEL
 62
5
 10
1178.335
 20
-1468.958
 30
4627.000
 70
    32
  0
VERTEX
  8
0600LEVEL
 62
5
 10
1213.086
 20
-1536.793
 30
4627.000
 70
    32
  0
VERTEX
  8
0600LEVEL
 62
5
 10
1260.330
 20
-1612.545
 30
4627.000
 70
    32
  0
VERTEX
  8
0600LEVEL
 62
5
 10
1309.802
 20
-1681.127
 30
4627.000
 70
    32
  0
VERTEX
  8
0600LEVEL
 62
5
 10
1338.342
 20
-1729.279
 30
4627.000
 70
    32
  0
VERTEX
  8
0600LEVEL
 62
5
 10
1305.287
 20
-1700.240
 30
4627.000
 70
    32
  0
VERTEX
  8
0600LEVEL
 62
5
 10
1256.162
 20
-1637.003
 30
4627.000
 70
    32
  0
VERTEX
  8
0600LEVEL
 62
5
 10
1208.371
 20
-1565.939
 30
4627.000
 70
    32
  0
VERTEX
  8
0600LEVEL
 62
5
 10
1164.421
 20
-1493.013
 30
4627.000
 70
    32
  0
VERTEX
  8
0600LEVEL
 62
5
 10
1109.152
 20
-1391.984
 30
4627.000
 70
    32
  0
VERTEX
  8
0600LEVEL
 62
5
 10
1058.963
 20
-1284.772
 30
4627.000
 70
    32
  0
VERTEX
  8
0600LEVEL
 62
5
 10
1032.693
 20
-1173.080
 30
4627.000
 70
    32
  0
VERTEX
  8
0600LEVEL
 62
5
 10
1018.440
 20
-1110.499
 30
4627.000
 70
    32
  0
VERTEX
  8
0600LEVEL
 62
5
 10
1004.634
 20
-1026.099
 30
4627.000
 70
    32
  0
VERTEX
  8
0600LEVEL
 62
5
 10
978.552
 20
-907.391
 30
4627.000
 70
    32
  0
VERTEX
  8
0600LEVEL
 62
5
 10
948.813
 20
-807.188
 30
4627.000
 70
    32
  0
VERTEX
  8
0600LEVEL
 62
5
 10
921.640
 20
-708.177
 30
4627.000
 70
    32
  0
VERTEX
  8
0600LEVEL
 62
5
 10
874.593
 20
-612.072
 30
4627.000
 70
    32
  0
VERTEX
  8
0600LEVEL
 62
5
 10
838.687
 20
-514.090
 30
4627.000
 70
    32
  0
VERTEX
  8
0600LEVEL
 62
5
 10
824.776
 20
-436.215
 30
4627.000
 70
    32
  0
VERTEX
  8
0600LEVEL
 62
5
 10
804.454
 20
-348.691
 30
4627.000
 70
    32
  0
SEQEND
  8
0600LEVEL
  0
POLYLINE
  8
0600LEVEL
 62
5
 66
     1
 70
     9
  0
VERTEX
  8
0600LEVEL
 62
5
 10
1000.338
 20
-1097.096
 30
4627.000
 70
    32
  0
VERTEX
  8
0600LEVEL
 62
5
 10
1011.251
 20
-1124.627
 30
4627.000
 70
    32
  0
VERTEX
  8
0600LEVEL
 62
5
 10
1015.899
 20
-1147.567
 30
4627.000
 70
    32
  0
VERTEX
  8
0600LEVEL
 62
5
 10
1023.555
 20
-1173.536
 30
4627.000
 70
    32
  0
VERTEX
  8
0600LEVEL
 62
5
 10
1027.569
 20
-1191.334
 30
4627.000
 70
    32
  0
VERTEX
  8
0600LEVEL
 62
5
 10
1016.115
 20
-1189.131
 30
4627.000
 70
    32
  0
VERTEX
  8
0600LEVEL
 62
5
 10
1002.539
 20
-1153.596
 30
4627.000
 70
    32
  0
VERTEX
  8
0600LEVEL
 62
5
 10
1005.729
 20
-1128.971
 30
4627.000
 70
    32
  0
VERTEX
  8
0600LEVEL
 62
5
 10
992.120
 20
-1102.491
 30
4627.000
 70
    32
  0
SEQEND
  8
0600LEVEL
  0
POLYLINE
  8
0600LEVEL
 62
5
 66
     1
 70
     9
  0
VERTEX
  8
0600LEVEL
 62
5
 10
474.744
 20
-645.618
 30
4627.000
 70
    32
  0
VERTEX
  8
0600LEVEL
 62
5
 10
506.976
 20
-710.507
 30
4627.000
 70
    32
  0
VERTEX
  8
0600LEVEL
 62
5
 10
519.655
 20
-701.090
 30
4627.000
 70
    32
  0
VERTEX
  8
0600LEVEL
 62
5
 10
493.510
 20
-644.789
 30
4627.000
 70
    32
  0
SEQEND
  8
0600LEVEL
  0
POLYLINE
  8
0600LEVEL
 62
5
 66
     1
 70
     9
  0
VERTEX
  8
0600LEVEL
 62
5
 10
913.966
 20
-1103.268
 30
4627.000
 70
    32
  0
VERTEX
  8
0600LEVEL
 62
5
 10
941.756
 20
-1155.823
 30
4627.000
 70
    32
  0
VERTEX
  8
0600LEVEL
 62
5
 10
961.698
 20
-1213.080
 30
4627.000
 70
    32
  0
VERTEX
  8
0600LEVEL
 62
5
 10
974.689
 20
-1319.993
 30
4627.000
 70
    32
  0
VERTEX
  8
0600LEVEL
 62
5
 10
992.148
 20
-1409.547
 30
4627.000
 70
    32
  0
VERTEX
  8
0600LEVEL
 62
5
 10
1000.001
 20
-1493.436
 30
4627.000
 70
    32
  0
VERTEX
  8
0600LEVEL
 62
5
 10
1011.231
 20
-1579.663
 30
4627.000
 70
    32
  0
VERTEX
  8
0600LEVEL
 62
5
 10
1017.846
 20
-1633.895
 30
4627.000
 70
    32
  0
VERTEX
  8
0600LEVEL
 62
5
 10
1024.139
 20
-1687.065
 30
4627.000
 70
    32
  0
VERTEX
  8
0600LEVEL
 62
5
 10
1023.847
 20
-1744.902
 30
4627.000
 70
    32
  0
VERTEX
  8
0600LEVEL
 62
5
 10
1040.063
 20
-1828.455
 30
4627.000
 70
    32
  0
VERTEX
  8
0600LEVEL
 62
5
 10
1064.120
 20
-1920.643
 30
4627.000
 70
    32
  0
VERTEX
  8
0600LEVEL
 62
5
 10
1101.823
 20
-2006.599
 30
4627.000
 70
    32
  0
VERTEX
  8
0600LEVEL
 62
5
 10
1110.652
 20
-2046.359
 30
4627.000
 70
    32
  0
VERTEX
  8
0600LEVEL
 62
5
 10
1102.959
 20
-2087.079
 30
4627.000
 70
    32
  0
VERTEX
  8
0600LEVEL
 62
5
 10
1131.945
 20
-2147.387
 30
4627.000
 70
    32
  0
VERTEX
  8
0600LEVEL
 62
5
 10
1146.589
 20
-2203.239
 30
4627.000
 70
    32
  0
VERTEX
  8
0600LEVEL
 62
5
 10
1152.504
 20
-2270.439
 30
4627.000
 70
    32
  0
VERTEX
  8
0600LEVEL
 62
5
 10
1171.213
 20
-2352.655
 30
4627.000
 70
    32
  0
VERTEX
  8
0600LEVEL
 62
5
 10
1197.235
 20
-2431.839
 30
4627.000
 70
    32
  0
VERTEX
  8
0600LEVEL
 62
5
 10
1217.132
 20
-2501.170
 30
4627.000
 70
    32
  0
VERTEX
  8
0600LEVEL
 62
5
 10
1258.984
 20
-2613.000
 30
4627.000
 70
    32
  0
VERTEX
  8
0600LEVEL
 62
5
 10
1288.715
 20
-2692.564
 30
4627.000
 70
    32
  0
VERTEX
  8
0600LEVEL
 62
5
 10
1325.350
 20
-2758.204
 30
4627.000
 70
    32
  0
VERTEX
  8
0600LEVEL
 62
5
 10
1344.082
 20
-2800.406
 30
4627.000
 70
    32
  0
VERTEX
  8
0600LEVEL
 62
5
 10
1351.628
 20
-2856.558
 30
4627.000
 70
    32
  0
VERTEX
  8
0600LEVEL
 62
5
 10
1376.496
 20
-2949.891
 30
4627.000
 70
    32
  0
VERTEX
  8
0600LEVEL
 62
5
 10
1397.677
 20
-3036.807
 30
4627.000
 70
    32
  0
VERTEX
  8
0600LEVEL
 62
5
 10
1422.647
 20
-3113.294
 30
4627.000
 70
    32
  0
VERTEX
  8
0600LEVEL
 62
5
 10
1447.020
 20
-3185.904
 30
4627.000
 70
    32
  0
VERTEX
  8
0600LEVEL
 62
5
 10
1474.903
 20
-3268.929
 30
4627.000
 70
    32
  0
VERTEX
  8
0600LEVEL
 62
5
 10
1502.664
 20
-3340.858
 30
4627.000
 70
    32
  0
VERTEX
  8
0600LEVEL
 62
5
 10
1529.969
 20
-3403.649
 30
4627.000
 70
    32
  0
VERTEX
  8
0600LEVEL
 62
5
 10
1553.143
 20
-3458.186
 30
4627.000
 70
    32
  0
VERTEX
  8
0600LEVEL
 62
5
 10
1540.232
 20
-3452.714
 30
4627.000
 70
    32
  0
VERTEX
  8
0600LEVEL
 62
5
 10
1516.584
 20
-3405.395
 30
4627.000
 70
    32
  0
VERTEX
  8
0600LEVEL
 62
5
 10
1472.932
 20
-3295.271
 30
4627.000
 70
    32
  0
VERTEX
  8
0600LEVEL
 62
5
 10
1428.298
 20
-3174.660
 30
4627.000
 70
    32
  0
VERTEX
  8
0600LEVEL
 62
5
 10
1395.628
 20
-3084.277
 30
4627.000
 70
    32
  0
VERTEX
  8
0600LEVEL
 62
5
 10
1373.310
 20
-3018.812
 30
4627.000
 70
    32
  0
VERTEX
  8
0600LEVEL
 62
5
 10
1354.712
 20
-2950.709
 30
4627.000
 70
    32
  0
VERTEX
  8
0600LEVEL
 62
5
 10
1328.057
 20
-2866.384
 30
4627.000
 70
    32
  0
VERTEX
  8
0600LEVEL
 62
5
 10
1304.238
 20
-2809.724
 30
4627.000
 70
    32
  0
VERTEX
  8
0600LEVEL
 62
5
 10
1279.104
 20
-2744.535
 30
4627.000
 70
    32
  0
VERTEX
  8
0600LEVEL
 62
5
 10
1244.384
 20
-2657.325
 30
4627.000
 70
    32
  0
VERTEX
  8
0600LEVEL
 62
5
 10
1212.884
 20
-2570.413
 30
4627.000
 70
    32
  0
VERTEX
  8
0600LEVEL
 62
5
 10
1176.638
 20
-2453.749
 30
4627.000
 70
    32
  0
VERTEX
  8
0600LEVEL
 62
5
 10
1140.001
 20
-2343.813
 30
4627.000
 70
    32
  0
VERTEX
  8
0600LEVEL
 62
5
 10
1089.818
 20
-2178.968
 30
4627.000
 70
    32
  0
VERTEX
  8
0600LEVEL
 62
5
 10
1067.101
 20
-2099.593
 30
4627.000
 70
    32
  0
VERTEX
  8
0600LEVEL
 62
5
 10
1052.029
 20
-2049.205
 30
4627.000
 70
    32
  0
VERTEX
  8
0600LEVEL
 62
5
 10
1060.190
 20
-2014.605
 30
4627.000
 70
    32
  0
VERTEX
  8
0600LEVEL
 62
5
 10
1041.640
 20
-1944.749
 30
4627.000
 70
    32
  0
VERTEX
  8
0600LEVEL
 62
5
 10
1013.431
 20
-1850.344
 30
4627.000
 70
    32
  0
VERTEX
  8
0600LEVEL
 62
5
 10
990.689
 20
-1766.685
 30
4627.000
 70
    32
  0
VERTEX
  8
0600LEVEL
 62
5
 10
989.506
 20
-1687.959
 30
4627.000
 70
    32
  0
VERTEX
  8
0600LEVEL
 62
5
 10
976.775
 20
-1610.537
 30
4627.000
 70
    32
  0
VERTEX
  8
0600LEVEL
 62
5
 10
973.404
 20
-1516.589
 30
4627.000
 70
    32
  0
VERTEX
  8
0600LEVEL
 62
5
 10
964.117
 20
-1423.395
 30
4627.000
 70
    32
  0
VERTEX
  8
0600LEVEL
 62
5
 10
951.590
 20
-1312.282
 30
4627.000
 70
    32
  0
VERTEX
  8
0600LEVEL
 62
5
 10
935.707
 20
-1226.773
 30
4627.000
 70
    32
  0
VERTEX
  8
0600LEVEL
 62
5
 10
922.686
 20
-1173.211
 30
4627.000
 70
    32
  0
VERTEX
  8
0600LEVEL
 62
5
 10
902.342
 20
-1125.700
 30
4627.000
 70
    32
  0
SEQEND
  8
0600LEVEL
  0
POLYLINE
  8
0600LEVEL
 62
5
 66
     1
 70
     9
  0
VERTEX
  8
0600LEVEL
 62
5
 10
1328.580
 20
-2823.436
 30
4627.000
 70
    32
  0
VERTEX
  8
0600LEVEL
 62
5
 10
1321.602
 20
-2790.535
 30
4627.000
 70
    32
  0
VERTEX
  8
0600LEVEL
 62
5
 10
1298.504
 20
-2748.847
 30
4627.000
 70
    32
  0
VERTEX
  8
0600LEVEL
 62
5
 10
1307.380
 20
-2786.853
 30
4627.000
 70
    32
  0
VERTEX
  8
0600LEVEL
 62
5
 10
1317.685
 20
-2813.526
 30
4627.000
 70
    32
  0
SEQEND
  8
0600LEVEL
  0
POLYLINE
  8
0600LEVEL
 62
5
 66
     1
 70
     8
  0
VERTEX
  8
0600LEVEL
 62
5
 10
895.322
 20
-1149.169
 30
4627.000
 70
    32
  0
VERTEX
  8
0600LEVEL
 62
5
 10
908.496
 20
-1194.451
 30
4627.000
 70
    32
  0
VERTEX
  8
0600LEVEL
 62
5
 10
923.730
 20
-1267.518
 30
4627.000
 70
    32
  0
VERTEX
  8
0600LEVEL
 62
5
 10
932.842
 20
-1330.732
 30
4627.000
 70
    32
  0
VERTEX
  8
0600LEVEL
 62
5
 10
945.532
 20
-1430.547
 30
4627.000
 70
    32
  0
VERTEX
  8
0600LEVEL
 62
5
 10
957.451
 20
-1506.824
 30
4627.000
 70
    32
  0
VERTEX
  8
0600LEVEL
 62
5
 10
963.613
 20
-1562.237
 30
4627.000
 70
    32
  0
VERTEX
  8
0600LEVEL
 62
5
 10
967.749
 20
-1625.107
 30
4627.000
 70
    32
  0
VERTEX
  8
0600LEVEL
 62
5
 10
971.156
 20
-1720.320
 30
4627.000
 70
    32
  0
VERTEX
  8
0600LEVEL
 62
5
 10
956.509
 20
-1766.398
 30
4627.000
 70
    32
  0
VERTEX
  8
0600LEVEL
 62
5
 10
955.804
 20
-1837.001
 30
4627.000
 70
    32
  0
VERTEX
  8
0600LEVEL
 62
5
 10
973.336
 20
-1895.106
 30
4627.000
 70
    32
  0
VERTEX
  8
0600LEVEL
 62
5
 10
1000.637
 20
-1947.578
 30
4627.000
 70
    32
  0
VERTEX
  8
0600LEVEL
 62
5
 10
1006.459
 20
-1984.308
 30
4627.000
 70
    32
  0
VERTEX
  8
0600LEVEL
 62
5
 10
989.545
 20
-1991.997
 30
4627.000
 70
    32
  0
VERTEX
  8
0600LEVEL
 62
5
 10
980.832
 20
-2054.943
 30
4627.000
 70
    32
  0
VERTEX
  8
0600LEVEL
 62
5
 10
971.461
 20
-2108.464
 30
4627.000
 70
    32
  0
VERTEX
  8
0600LEVEL
 62
5
 10
969.115
 20
-2159.156
 30
4627.000
 70
    32
  0
SEQEND
  8
0600LEVEL
  0
POLYLINE
  8
0600LEVEL
 62
5
 66
     1
 70
     9
  0
VERTEX
  8
0600LEVEL
 62
5
 10
1029.224
 20
-2140.203
 30
4627.000
 70
    32
  0
VERTEX
  8
0600LEVEL
 62
5
 10
1027.972
 20
-2103.244
 30
4627.000
 70
    32
  0
VERTEX
  8
0600LEVEL
 62
5
 10
1027.230
 20
-2060.332
 30
4627.000
 70
    32
  0
VERTEX
  8
0600LEVEL
 62
5
 10
1023.626
 20
-2019.449
 30
4627.000
 70
    32
  0
VERTEX
  8
0600LEVEL
 62
5
 10
1008.102
 20
-2048.515
 30
4627.000
 70
    32
  0
VERTEX
  8
0600LEVEL
 62
5
 10
1005.782
 20
-2103.490
 30
4627.000
 70
    32
  0
VERTEX
  8
0600LEVEL
 62
5
 10
1008.372
 20
-2142.942
 30
4627.000
 70
    32
  0
SEQEND
  8
0600LEVEL
  0
POLYLINE
  8
0600LEVEL
 62
5
 66
     1
 70
     8
  0
VERTEX
  8
0600LEVEL
 62
5
 10
876.796
 20
-1151.549
 30
4627.000
 70
    32
  0
VERTEX
  8
0600LEVEL
 62
5
 10
891.125
 20
-1193.001
 30
4627.000
 70
    32
  0
VERTEX
  8
0600LEVEL
 62
5
 10
900.469
 20
-1237.127
 30
4627.000
 70
    32
  0
VERTEX
  8
0600LEVEL
 62
5
 10
899.410
 20
-1281.746
 30
4627.000
 70
    32
  0
VERTEX
  8
0600LEVEL
 62
5
 10
879.641
 20
-1244.149
 30
4627.000
 70
    32
  0
VERTEX
  8
0600LEVEL
 62
5
 10
872.092
 20
-1177.677
 30
4627.000
 70
    32
  0
VERTEX
  8
0600LEVEL
 62
5
 10
845.300
 20
-1187.206
 30
4627.000
 70
    32
  0
VERTEX
  8
0600LEVEL
 62
5
 10
839.513
 20
-1219.693
 30
4627.000
 70
    32
  0
VERTEX
  8
0600LEVEL
 62
5
 10
812.418
 20
-1177.828
 30
4627.000
 70
    32
  0
VERTEX
  8
0600LEVEL
 62
5
 10
801.357
 20
-1134.919
 30
4627.000
 70
    32
  0
VERTEX
  8
0600LEVEL
 62
5
 10
802.988
 20
-1089.894
 30
4627.000
 70
    32
  0
SEQEND
  8
0600LEVEL
  0
POLYLINE
  8
0600LEVEL
 62
5
 66
     1
 70
     9
  0
VERTEX
  8
0600LEVEL
 62
5
 10
801.123
 20
-1187.984
 30
4627.000
 70
    32
  0
VERTEX
  8
0600LEVEL
 62
5
 10
822.081
 20
-1212.696
 30
4627.000
 70
    32
  0
VERTEX
  8
0600LEVEL
 62
5
 10
840.885
 20
-1257.428
 30
4627.000
 70
    32
  0
VERTEX
  8
0600LEVEL
 62
5
 10
858.098
 20
-1324.791
 30
4627.000
 70
    32
  0
VERTEX
  8
0600LEVEL
 62
5
 10
874.923
 20
-1409.203
 30
4627.000
 70
    32
  0
VERTEX
  8
0600LEVEL
 62
5
 10
883.628
 20
-1471.845
 30
4627.000
 70
    32
  0
VERTEX
  8
0600LEVEL
 62
5
 10
876.540
 20
-1503.104
 30
4627.000
 70
    32
  0
VERTEX
  8
0600LEVEL
 62
5
 10
856.619
 20
-1473.786
 30
4627.000
 70
    32
  0
VERTEX
  8
0600LEVEL
 62
5
 10
853.700
 20
-1412.634
 30
4627.000
 70
    32
  0
VERTEX
  8
0600LEVEL
 62
5
 10
841.679
 20
-1353.202
 30
4627.000
 70
    32
  0
VERTEX
  8
0600LEVEL
 62
5
 10
832.844
 20
-1292.803
 30
4627.000
 70
    32
  0
VERTEX
  8
0600LEVEL
 62
5
 10
822.283
 20
-1246.959
 30
4627.000
 70
    32
  0
VERTEX
  8
0600LEVEL
 62
5
 10
805.080
 20
-1210.554
 30
4627.000
 70
    32
  0
SEQEND
  8
0600LEVEL
  0
POLYLINE
  8
0600LEVEL
 62
5
 66
     1
 70
     9
  0
VERTEX
  8
0600LEVEL
 62
5
 10
785.977
 20
-1203.021
 30
4627.000
 70
    32
  0
VERTEX
  8
0600LEVEL
 62
5
 10
806.057
 20
-1244.698
 30
4627.000
 70
    32
  0
VERTEX
  8
0600LEVEL
 62
5
 10
802.023
 20
-1277.232
 30
4627.000
 70
    32
  0
VERTEX
  8
0600LEVEL
 62
5
 10
784.751
 20
-1248.618
 30
4627.000
 70
    32
  0
SEQEND
  8
0600LEVEL
  0
POLYLINE
  8
0600LEVEL
 62
5
 66
     1
 70
     9
  0
VERTEX
  8
0600LEVEL
 62
5
 10
860.982
 20
-1867.656
 30
4627.000
 70
    32
  0
VERTEX
  8
0600LEVEL
 62
5
 10
876.375
 20
-1840.832
 30
4627.000
 70
    32
  0
VERTEX
  8
0600LEVEL
 62
5
 10
905.952
 20
-1884.379
 30
4627.000
 70
    32
  0
VERTEX
  8
0600LEVEL
 62
5
 10
933.224
 20
-1922.248
 30
4627.000
 70
    32
  0
VERTEX
  8
0600LEVEL
 62
5
 10
940.144
 20
-1959.921
 30
4627.000
 70
    32
  0
VERTEX
  8
0600LEVEL
 62
5
 10
948.800
 20
-1980.020
 30
4627.000
 70
    32
  0
VERTEX
  8
0600LEVEL
 62
5
 10
947.267
 20
-1997.880
 30
4627.000
 70
    32
  0
VERTEX
  8
0600LEVEL
 62
5
 10
930.292
 20
-1966.044
 30
4627.000
 70
    32
  0
VERTEX
  8
0600LEVEL
 62
5
 10
905.863
 20
-1942.502
 30
4627.000
 70
    32
  0
VERTEX
  8
0600LEVEL
 62
5
 10
904.699
 20
-1993.647
 30
4627.000
 70
    32
  0
VERTEX
  8
0600LEVEL
 62
5
 10
913.578
 20
-2041.973
 30
4627.000
 70
    32
  0
VERTEX
  8
0600LEVEL
 62
5
 10
895.969
 20
-2038.972
 30
4627.000
 70
    32
  0
VERTEX
  8
0600LEVEL
 62
5
 10
875.563
 20
-1985.914
 30
4627.000
 70
    32
  0
VERTEX
  8
0600LEVEL
 62
5
 10
855.657
 20
-1929.920
 30
4627.000
 70
    32
  0
VERTEX
  8
0600LEVEL
 62
5
 10
851.611
 20
-1887.200
 30
4627.000
 70
    32
  0
SEQEND
  8
0600LEVEL
  0
POLYLINE
  8
0600LEVEL
 62
5
 66
     1
 70
     9
  0
VERTEX
  8
0600LEVEL
 62
5
 10
774.487
 20
-1345.779
 30
4627.000
 70
    32
  0
VERTEX
  8
0600LEVEL
 62
5
 10
784.186
 20
-1381.912
 30
4627.000
 70
    32
  0
VERTEX
  8
0600LEVEL
 62
5
 10
794.019
 20
-1426.122
 30
4627.000
 70
    32
  0
VERTEX
  8
0600LEVEL
 62
5
 10
795.195
 20
-1484.209
 30
4627.000
 70
    32
  0
VERTEX
  8
0600LEVEL
 62
5
 10
795.795
 20
-1532.383
 30
4627.000
 70
    32
  0
VERTEX
  8
0600LEVEL
 62
5
 10
809.863
 20
-1578.321
 30
4627.000
 70
    32
  0
VERTEX
  8
0600LEVEL
 62
5
 10
802.847
 20
-1612.109
 30
4627.000
 70
    32
  0
VERTEX
  8
0600LEVEL
 62
5
 10
786.514
 20
-1572.077
 30
4627.000
 70
    32
  0
VERTEX
  8
0600LEVEL
 62
5
 10
779.620
 20
-1538.687
 30
4627.000
 70
    32
  0
VERTEX
  8
0600LEVEL
 62
5
 10
765.385
 20
-1493.727
 30
4627.000
 70
    32
  0
VERTEX
  8
0600LEVEL
 62
5
 10
763.676
 20
-1447.630
 30
4627.000
 70
    32
  0
VERTEX
  8
0600LEVEL
 62
5
 10
767.714
 20
-1391.438
 30
4627.000
 70
    32
  0
SEQEND
  8
0600LEVEL
  0
POLYLINE
  8
0600LEVEL
 62
5
 66
     1
 70
     9
  0
VERTEX
  8
0600LEVEL
 62
5
 10
818.534
 20
-1976.448
 30
4627.000
 70
    32
  0
VERTEX
  8
0600LEVEL
 62
5
 10
830.668
 20
-2016.016
 30
4627.000
 70
    32
  0
VERTEX
  8
0600LEVEL
 62
5
 10
823.261
 20
-2056.533
 30
4627.000
 70
    32
  0
VERTEX
  8
0600LEVEL
 62
5
 10
811.462
 20
-2093.281
 30
4627.000
 70
    32
  0
VERTEX
  8
0600LEVEL
 62
5
 10
805.462
 20
-2060.547
 30
4627.000
 70
    32
  0
VERTEX
  8
0600LEVEL
 62
5
 10
816.555
 20
-2016.128
 30
4627.000
 70
    32
  0
VERTEX
  8
0600LEVEL
 62
5
 10
816.976
 20
-1990.025
 30
4627.000
 70
    32
  0
SEQEND
  8
0600LEVEL
  0
POLYLINE
  8
0600LEVEL
 62
5
 66
     1
 70
     8
  0
VERTEX
  8
0600LEVEL
 62
5
 10
458.804
 20
-677.130
 30
4627.000
 70
    32
  0
VERTEX
  8
0600LEVEL
 62
5
 10
477.927
 20
-712.604
 30
4627.000
 70
    32
  0
VERTEX
  8
0600LEVEL
 62
5
 10
496.917
 20
-740.001
 30
4627.000
 70
    32
  0
SEQEND
  8
0600LEVEL
  0
POLYLINE
  8
0600LEVEL
 62
5
 66
     1
 70
     8
  0
VERTEX
  8
0600LEVEL
 62
5
 10
446.709
 20
-683.123
 30
4627.000
 70
    32
  0
VERTEX
  8
0600LEVEL
 62
5
 10
474.260
 20
-734.127
 30
4627.000
 70
    32
  0
VERTEX
  8
0600LEVEL
 62
5
 10
507.119
 20
-783.519
 30
4627.000
 70
    32
  0
VERTEX
  8
0600LEVEL
 62
5
 10
546.099
 20
-832.443
 30
4627.000
 70
    32
  0
VERTEX
  8
0600LEVEL
 62
5
 10
586.665
 20
-882.393
 30
4627.000
 70
    32
  0
VERTEX
  8
0600LEVEL
 62
5
 10
612.285
 20
-937.347
 30
4627.000
 70
    32
  0
VERTEX
  8
0600LEVEL
 62
5
 10
646.840
 20
-991.558
 30
4627.000
 70
    32
  0
VERTEX
  8
0600LEVEL
 62
5
 10
670.169
 20
-1048.134
 30
4627.000
 70
    32
  0
VERTEX
  8
0600LEVEL
 62
5
 10
684.748
 20
-1122.096
 30
4627.000
 70
    32
  0
VERTEX
  8
0600LEVEL
 62
5
 10
703.726
 20
-1186.488
 30
4627.000
 70
    32
  0
VERTEX
  8
0600LEVEL
 62
5
 10
717.914
 20
-1233.202
 30
4627.000
 70
    32
  0
VERTEX
  8
0600LEVEL
 62
5
 10
748.737
 20
-1293.069
 30
4627.000
 70
    32
  0
VERTEX
  8
0600LEVEL
 62
5
 10
747.434
 20
-1359.794
 30
4627.000
 70
    32
  0
VERTEX
  8
0600LEVEL
 62
5
 10
752.222
 20
-1445.427
 30
4627.000
 70
    32
  0
VERTEX
  8
0600LEVEL
 62
5
 10
755.619
 20
-1509.681
 30
4627.000
 70
    32
  0
VERTEX
  8
0600LEVEL
 62
5
 10
762.969
 20
-1586.186
 30
4627.000
 70
    32
  0
VERTEX
  8
0600LEVEL
 62
5
 10
783.414
 20
-1650.828
 30
4627.000
 70
    32
  0
VERTEX
  8
0600LEVEL
 62
5
 10
792.083
 20
-1712.206
 30
4627.000
 70
    32
  0
VERTEX
  8
0600LEVEL
 62
5
 10
801.111
 20
-1775.909
 30
4627.000
 70
    32
  0
VERTEX
  8
0600LEVEL
 62
5
 10
794.083
 20
-1846.692
 30
4627.000
 70
    32
  0
VERTEX
  8
0600LEVEL
 62
5
 10
783.907
 20
-1919.708
 30
4627.000
 70
    32
  0
VERTEX
  8
0600LEVEL
 62
5
 10
781.601
 20
-1981.983
 30
4627.000
 70
    32
  0
VERTEX
  8
0600LEVEL
 62
5
 10
780.254
 20
-2060.782
 30
4627.000
 70
    32
  0
VERTEX
  8
0600LEVEL
 62
5
 10
784.850
 20
-2143.110
 30
4627.000
 70
    32
  0
VERTEX
  8
0600LEVEL
 62
5
 10
817.432
 20
-2257.640
 30
4627.000
 70
    32
  0
VERTEX
  8
0600LEVEL
 62
5
 10
853.222
 20
-2365.166
 30
4627.000
 70
    32
  0
VERTEX
  8
0600LEVEL
 62
5
 10
895.801
 20
-2478.631
 30
4627.000
 70
    32
  0
VERTEX
  8
0600LEVEL
 62
5
 10
944.920
 20
-2599.502
 30
4627.000
 70
    32
  0
VERTEX
  8
0600LEVEL
 62
5
 10
981.482
 20
-2696.589
 30
4627.000
 70
    32
  0
VERTEX
  8
0600LEVEL
 62
5
 10
1023.232
 20
-2791.288
 30
4627.000
 70
    32
  0
VERTEX
  8
0600LEVEL
 62
5
 10
1045.420
 20
-2858.996
 30
4627.000
 70
    32
  0
VERTEX
  8
0600LEVEL
 62
5
 10
1085.510
 20
-2950.140
 30
4627.000
 70
    32
  0
VERTEX
  8
0600LEVEL
 62
5
 10
1098.788
 20
-3022.874
 30
4627.000
 70
    32
  0
VERTEX
  8
0600LEVEL
 62
5
 10
1092.391
 20
-3088.479
 30
4627.000
 70
    32
  0
VERTEX
  8
0600LEVEL
 62
5
 10
1084.059
 20
-3147.715
 30
4627.000
 70
    32
  0
VERTEX
  8
0600LEVEL
 62
5
 10
1070.905
 20
-3198.326
 30
4627.000
 70
    32
  0
VERTEX
  8
0600LEVEL
 62
5
 10
1070.933
 20
-3246.905
 30
4627.000
 70
    32
  0
VERTEX
  8
0600LEVEL
 62
5
 10
1067.351
 20
-3312.236
 30
4627.000
 70
    32
  0
VERTEX
  8
0600LEVEL
 62
5
 10
1052.142
 20
-3355.702
 30
4627.000
 70
    32
  0
VERTEX
  8
0600LEVEL
 62
5
 10
1029.183
 20
-3410.683
 30
4627.000
 70
    32
  0
VERTEX
  8
0600LEVEL
 62
5
 10
1041.708
 20
-3443.522
 30
4627.000
 70
    32
  0
VERTEX
  8
0600LEVEL
 62
5
 10
1054.405
 20
-3417.749
 30
4627.000
 70
    32
  0
VERTEX
  8
0600LEVEL
 62
5
 10
1059.834
 20
-3382.936
 30
4627.000
 70
    32
  0
VERTEX
  8
0600LEVEL
 62
5
 10
1080.568
 20
-3345.445
 30
4627.000
 70
    32
  0
VERTEX
  8
0600LEVEL
 62
5
 10
1085.432
 20
-3297.699
 30
4627.000
 70
    32
  0
VERTEX
  8
0600LEVEL
 62
5
 10
1088.767
 20
-3244.156
 30
4627.000
 70
    32
  0
VERTEX
  8
0600LEVEL
 62
5
 10
1091.765
 20
-3182.250
 30
4627.000
 70
    32
  0
VERTEX
  8
0600LEVEL
 62
5
 10
1098.213
 20
-3125.210
 30
4627.000
 70
    32
  0
VERTEX
  8
0600LEVEL
 62
5
 10
1108.940
 20
-3057.825
 30
4627.000
 70
    32
  0
VERTEX
  8
0600LEVEL
 62
5
 10
1107.420
 20
-3004.713
 30
4627.000
 70
    32
  0
VERTEX
  8
0600LEVEL
 62
5
 10
1101.947
 20
-2939.350
 30
4627.000
 70
    32
  0
VERTEX
  8
0600LEVEL
 62
5
 10
1080.885
 20
-2887.187
 30
4627.000
 70
    32
  0
VERTEX
  8
0600LEVEL
 62
5
 10
1059.523
 20
-2827.925
 30
4627.000
 70
    32
  0
VERTEX
  8
0600LEVEL
 62
5
 10
1031.874
 20
-2770.109
 30
4627.000
 70
    32
  0
VERTEX
  8
0600LEVEL
 62
5
 10
1005.781
 20
-2688.397
 30
4627.000
 70
    32
  0
VERTEX
  8
0600LEVEL
 62
5
 10
980.607
 20
-2611.623
 30
4627.000
 70
    32
  0
VERTEX
  8
0600LEVEL
 62
5
 10
953.122
 20
-2542.509
 30
4627.000
 70
    32
  0
VERTEX
  8
0600LEVEL
 62
5
 10
916.394
 20
-2446.401
 30
4627.000
 70
    32
  0
VERTEX
  8
0600LEVEL
 62
5
 10
889.199
 20
-2353.427
 30
4627.000
 70
    32
  0
VERTEX
  8
0600LEVEL
 62
5
 10
861.384
 20
-2262.612
 30
4627.000
 70
    32
  0
VERTEX
  8
0600LEVEL
 62
5
 10
841.244
 20
-2181.411
 30
4627.000
 70
    32
  0
VERTEX
  8
0600LEVEL
 62
5
 10
826.708
 20
-2129.353
 30
4627.000
 70
    32
  0
VERTEX
  8
0600LEVEL
 62
5
 10
831.398
 20
-2095.923
 30
4627.000
 70
    32
  0
VERTEX
  8
0600LEVEL
 62
5
 10
843.835
 20
-2040.659
 30
4627.000
 70
    32
  0
VERTEX
  8
0600LEVEL
 62
5
 10
846.058
 20
-1978.873
 30
4627.000
 70
    32
  0
VERTEX
  8
0600LEVEL
 62
5
 10
864.380
 20
-2010.183
 30
4627.000
 70
    32
  0
VERTEX
  8
0600LEVEL
 62
5
 10
878.985
 20
-2054.451
 30
4627.000
 70
    32
  0
VERTEX
  8
0600LEVEL
 62
5
 10
897.133
 20
-2134.054
 30
4627.000
 70
    32
  0
VERTEX
  8
0600LEVEL
 62
5
 10
918.378
 20
-2236.837
 30
4627.000
 70
    32
  0
VERTEX
  8
0600LEVEL
 62
5
 10
957.790
 20
-2368.890
 30
4627.000
 70
    32
  0
VERTEX
  8
0600LEVEL
 62
5
 10
985.768
 20
-2448.406
 30
4627.000
 70
    32
  0
VERTEX
  8
0600LEVEL
 62
5
 10
1029.242
 20
-2562.527
 30
4627.000
 70
    32
  0
VERTEX
  8
0600LEVEL
 62
5
 10
1075.295
 20
-2719.118
 30
4627.000
 70
    32
  0
VERTEX
  8
0600LEVEL
 62
5
 10
1108.939
 20
-2833.326
 30
4627.000
 70
    32
  0
VERTEX
  8
0600LEVEL
 62
5
 10
1153.360
 20
-2922.691
 30
4627.000
 70
    32
  0
VERTEX
  8
0600LEVEL
 62
5
 10
1171.188
 20
-3011.552
 30
4627.000
 70
    32
  0
VERTEX
  8
0600LEVEL
 62
5
 10
1206.973
 20
-3142.736
 30
4627.000
 70
    32
  0
VERTEX
  8
0600LEVEL
 62
5
 10
1221.635
 20
-3216.208
 30
4627.000
 70
    32
  0
VERTEX
  8
0600LEVEL
 62
5
 10
1259.664
 20
-3313.545
 30
4627.000
 70
    32
  0
VERTEX
  8
0600LEVEL
 62
5
 10
1302.534
 20
-3403.150
 30
4627.000
 70
    32
  0
VERTEX
  8
0600LEVEL
 62
5
 10
1339.979
 20
-3503.911
 30
4627.000
 70
    32
  0
VERTEX
  8
0600LEVEL
 62
5
 10
1381.816
 20
-3608.441
 30
4627.000
 70
    32
  0
VERTEX
  8
0600LEVEL
 62
5
 10
1409.149
 20
-3685.834
 30
4627.000
 70
    32
  0
VERTEX
  8
0600LEVEL
 62
5
 10
1438.181
 20
-3778.366
 30
4627.000
 70
    32
  0
VERTEX
  8
0600LEVEL
 62
5
 10
1474.696
 20
-3843.230
 30
4627.000
 70
    32
  0
VERTEX
  8
0600LEVEL
 62
5
 10
1521.211
 20
-3917.348
 30
4627.000
 70
    32
  0
VERTEX
  8
0600LEVEL
 62
5
 10
1553.143
 20
-3975.139
 30
4627.000
 70
    32
  0
VERTEX
  8
0600LEVEL
 62
5
 10
1584.922
 20
-4041.209
 30
4627.000
 70
    32
  0
SEQEND
  8
0600LEVEL
  0
POLYLINE
  8
0600LEVEL
 62
5
 66
     1
 70
     8
  0
VERTEX
  8
0600LEVEL
 62
5
 10
1227.052
 20
-2701.436
 30
4627.000
 70
    32
  0
VERTEX
  8
0600LEVEL
 62
5
 10
1250.392
 20
-2754.995
 30
4627.000
 70
    32
  0
VERTEX
  8
0600LEVEL
 62
5
 10
1277.969
 20
-2810.282
 30
4627.000
 70
    32
  0
VERTEX
  8
0600LEVEL
 62
5
 10
1299.965
 20
-2874.685
 30
4627.000
 70
    32
  0
VERTEX
  8
0600LEVEL
 62
5
 10
1327.584
 20
-2951.875
 30
4627.000
 70
    32
  0
VERTEX
  8
0600LEVEL
 62
5
 10
1348.251
 20
-3000.448
 30
4627.000
 70
    32
  0
VERTEX
  8
0600LEVEL
 62
5
 10
1364.199
 20
-3067.848
 30
4627.000
 70
    32
  0
VERTEX
  8
0600LEVEL
 62
5
 10
1368.118
 20
-3123.130
 30
4627.000
 70
    32
  0
VERTEX
  8
0600LEVEL
 62
5
 10
1390.784
 20
-3193.940
 30
4627.000
 70
    32
  0
VERTEX
  8
0600LEVEL
 62
5
 10
1418.570
 20
-3270.152
 30
4627.000
 70
    32
  0
VERTEX
  8
0600LEVEL
 62
5
 10
1444.149
 20
-3347.498
 30
4627.000
 70
    32
  0
VERTEX
  8
0600LEVEL
 62
5
 10
1464.950
 20
-3404.147
 30
4627.000
 70
    32
  0
VERTEX
  8
0600LEVEL
 62
5
 10
1491.236
 20
-3455.187
 30
4627.000
 70
    32
  0
VERTEX
  8
0600LEVEL
 62
5
 10
1533.606
 20
-3547.727
 30
4627.000
 70
    32
  0
VERTEX
  8
0600LEVEL
 62
5
 10
1568.686
 20
-3637.263
 30
4627.000
 70
    32
  0
VERTEX
  8
0600LEVEL
 62
5
 10
1608.121
 20
-3729.302
 30
4627.000
 70
    32
  0
VERTEX
  8
0600LEVEL
 62
5
 10
1646.052
 20
-3819.827
 30
4627.000
 70
    32
  0
VERTEX
  8
0600LEVEL
 62
5
 10
1683.171
 20
-3909.207
 30
4627.000
 70
    32
  0
VERTEX
  8
0600LEVEL
 62
5
 10
1717.650
 20
-3984.546
 30
4627.000
 70
    32
  0
VERTEX
  8
0600LEVEL
 62
5
 10
1740.429
 20
-4035.492
 30
4627.000
 70
    32
  0
SEQEND
  8
0600LEVEL
  0
POLYLINE
  8
0600LEVEL
 62
5
 66
     1
 70
     8
  0
VERTEX
  8
0600LEVEL
 62
5
 10
1684.409
 20
-3972.842
 30
4627.000
 70
    32
  0
VERTEX
  8
0600LEVEL
 62
5
 10
1663.706
 20
-3923.005
 30
4627.000
 70
    32
  0
VERTEX
  8
0600LEVEL
 62
5
 10
1639.445
 20
-3864.507
 30
4627.000
 70
    32
  0
VERTEX
  8
0600LEVEL
 62
5
 10
1603.151
 20
-3783.574
 30
4627.000
 70
    32
  0
SEQEND
  8
0600LEVEL
  0
POLYLINE
  8
0600LEVEL
 62
5
 66
     1
 70
     9
  0
VERTEX
  8
0600LEVEL
 62
5
 10
1589.480
 20
-3785.523
 30
4627.000
 70
    32
  0
VERTEX
  8
0600LEVEL
 62
5
 10
1634.882
 20
-3919.351
 30
4627.000
 70
    32
  0
VERTEX
  8
0600LEVEL
 62
5
 10
1611.366
 20
-3914.086
 30
4627.000
 70
    32
  0
VERTEX
  8
0600LEVEL
 62
5
 10
1566.464
 20
-3777.322
 30
4627.000
 70
    32
  0
SEQEND
  8
0600LEVEL
  0
POLYLINE
  8
0600LEVEL
 62
5
 66
     1
 70
     9
  0
VERTEX
  8
0600LEVEL
 62
5
 10
1518.259
 20
-3753.001
 30
4627.000
 70
    32
  0
VERTEX
  8
0600LEVEL
 62
5
 10
1568.915
 20
-3866.332
 30
4627.000
 70
    32
  0
VERTEX
  8
0600LEVEL
 62
5
 10
1557.276
 20
-3881.463
 30
4627.000
 70
    32
  0
VERTEX
  8
0600LEVEL
 62
5
 10
1502.001
 20
-3759.794
 30
4627.000
 70
    32
  0
SEQEND
  8
0600LEVEL
  0
LINE
  8
0600LEVEL
 62
5
 10
1567.710
 20
-3939.869
 30
4627.000
 11
1492.698
 21
-3805.525
 31
4627.000
  0
LINE
  8
0600LEVEL
 62
5
 10
1337.847
 20
-3293.394
 30
4627.000
 11
1360.140
 21
-3354.576
 31
4627.000
  0
LINE
  8
0600LEVEL
 62
5
 10
1351.730
 20
-3356.666
 30
4627.000
 11
1325.332
 21
-3291.513
 31
4627.000
  0
LINE
  8
0600LEVEL
 62
5
 10
1272.554
 20
-3257.100
 30
4627.000
 11
1310.112
 21
-3337.997
 31
4627.000
  0
LINE
  8
0600LEVEL
 62
5
 10
1297.850
 20
-3344.969
 30
4627.000
 11
1263.586
 21
-3266.897
 31
4627.000
  0
POLYLINE
  8
0600LEVEL
 62
5
 66
     1
 70
     9
  0
VERTEX
  8
0600LEVEL
 62
5
 10
1208.196
 20
-2794.366
 30
4627.000
 70
    32
  0
VERTEX
  8
0600LEVEL
 62
5
 10
1234.491
 20
-2832.068
 30
4627.000
 70
    32
  0
VERTEX
  8
0600LEVEL
 62
5
 10
1251.371
 20
-2867.411
 30
4627.000
 70
    32
  0
VERTEX
  8
0600LEVEL
 62
5
 10
1256.175
 20
-2892.391
 30
4627.000
 70
    32
  0
VERTEX
  8
0600LEVEL
 62
5
 10
1244.174
 20
-2894.877
 30
4627.000
 70
    32
  0
VERTEX
  8
0600LEVEL
 62
5
 10
1235.801
 20
-2864.255
 30
4627.000
 70
    32
  0
VERTEX
  8
0600LEVEL
 62
5
 10
1222.384
 20
-2841.079
 30
4627.000
 70
    32
  0
VERTEX
  8
0600LEVEL
 62
5
 10
1199.156
 20
-2801.634
 30
4627.000
 70
    32
  0
SEQEND
  8
0600LEVEL
  0
POLYLINE
  8
0600LEVEL
 62
5
 66
     1
 70
     9
  0
VERTEX
  8
0600LEVEL
 62
5
 10
1193.253
 20
-2809.689
 30
4627.000
 70
    32
  0
VERTEX
  8
0600LEVEL
 62
5
 10
1215.503
 20
-2848.967
 30
4627.000
 70
    32
  0
VERTEX
  8
0600LEVEL
 62
5
 10
1232.395
 20
-2881.292
 30
4627.000
 70
    32
  0
VERTEX
  8
0600LEVEL
 62
5
 10
1236.112
 20
-2902.312
 30
4627.000
 70
    32
  0
VERTEX
  8
0600LEVEL
 62
5
 10
1227.332
 20
-2905.094
 30
4627.000
 70
    32
  0
VERTEX
  8
0600LEVEL
 62
5
 10
1208.445
 20
-2860.852
 30
4627.000
 70
    32
  0
VERTEX
  8
0600LEVEL
 62
5
 10
1188.499
 20
-2827.251
 30
4627.000
 70
    32
  0
VERTEX
  8
0600LEVEL
 62
5
 10
1181.502
 20
-2810.707
 30
4627.000
 70
    32
  0
SEQEND
  8
0600LEVEL
  0
POLYLINE
  8
0600LEVEL
 62
5
 66
     1
 70
     8
  0
VERTEX
  8
0600LEVEL
 62
5
 10
1140.507
 20
-2800.198
 30
4627.000
 70
    32
  0
VERTEX
  8
0600LEVEL
 62
5
 10
1163.587
 20
-2858.242
 30
4627.000
 70
    32
  0
VERTEX
  8
0600LEVEL
 62
5
 10
1193.765
 20
-2915.985
 30
4627.000
 70
    32
  0
SEQEND
  8
0600LEVEL
  0
POLYLINE
  8
0600LEVEL
 62
5
 66
     1
 70
     9
  0
VERTEX
  8
0600LEVEL
 62
5
 10
680.569
 20
-3060.839
 30
4627.000
 70
    32
  0
VERTEX
  8
0600LEVEL
 62
5
 10
719.303
 20
-3199.824
 30
4627.000
 70
    32
  0
VERTEX
  8
0600LEVEL
 62
5
 10
692.069
 20
-3207.516
 30
4627.000
 70
    32
  0
VERTEX
  8
0600LEVEL
 62
5
 10
650.044
 20
-3076.024
 30
4627.000
 70
    32
  0
SEQEND
  8
0600LEVEL
  0
POLYLINE
  8
0600LEVEL
 62
3
 66
     1
 70
     8
  0
VERTEX
  8
0600LEVEL
 62
3
 10
903.294
 20
-2628.148
 30
4627.000
 70
    32
  0
VERTEX
  8
0600LEVEL
 62
3
 10
934.791
 20
-2670.763
 30
4627.000
 70
    32
  0
VERTEX
  8
0600LEVEL
 62
3
 10
975.611
 20
-2729.565
 30
4627.000
 70
    32
  0
VERTEX
  8
0600LEVEL
 62
3
 10
1008.340
 20
-2781.200
 30
4627.000
 70
    32
  0
VERTEX
  8
0600LEVEL
 62
3
 10
1043.714
 20
-2823.218
 30
4627.000
 70
    32
  0
VERTEX
  8
0600LEVEL
 62
3
 10
1062.436
 20
-2834.462
 30
4627.000
 70
    32
  0
VERTEX
  8
0600LEVEL
 62
3
 10
1093.730
 20
-2876.792
 30
4627.000
 70
    32
  0
VERTEX
  8
0600LEVEL
 62
3
 10
1129.847
 20
-2927.745
 30
4627.000
 70
    32
  0
VERTEX
  8
0600LEVEL
 62
3
 10
1166.591
 20
-2963.201
 30
4627.000
 70
    32
  0
VERTEX
  8
0600LEVEL
 62
3
 10
1369.165
 20
-3115.507
 30
4627.000
 70
    32
  0
VERTEX
  8
0600LEVEL
 62
3
 10
1395.485
 20
-3157.492
 30
4627.000
 70
    32
  0
VERTEX
  8
0600LEVEL
 62
3
 10
1427.456
 20
-3226.867
 30
4627.000
 70
    32
  0
VERTEX
  8
0600LEVEL
 62
3
 10
1461.373
 20
-3299.593
 30
4627.000
 70
    32
  0
VERTEX
  8
0600LEVEL
 62
3
 10
1495.807
 20
-3387.006
 30
4627.000
 70
    32
  0
VERTEX
  8
0600LEVEL
 62
3
 10
1524.967
 20
-3432.998
 30
4627.000
 70
    32
  0
VERTEX
  8
0600LEVEL
 62
3
 10
1532.881
 20
-3444.162
 30
4627.000
 70
    32
  0
SEQEND
  8
0600LEVEL
  0
ENDSEC
  0
EOF
