999
********************************
999
*   DXF File - Entities Only   *
999
*        3D Data Format        *
999
*     Output from ENVISAGE     *
999
*     28-Dec-2007 14:09:08     *
999
********************************
  0
SECTION 
  2
HEADER
  9
$ACADVER
  1
AC1009
  9
$EXTMIN
 10
-290000.000
 20
-250000.000
 30
-4000.000
  9
$EXTMAX
 10
5000000.000
 20
600000.000
 30
6000.000
  0
ENDSEC
  0
SECTION
  2
ENTITIES
  0
POLYLINE
  8
6200LEVEL
 62
13
 66
     1
 70
     9
  0
VERTEX
  8
6200LEVEL
 62
13
 10
6972.861
 20
-7320.301
 30
-965.000
 70
    32
  0
VERTEX
  8
6200LEVEL
 62
13
 10
6982.376
 20
-7344.175
 30
-965.000
 70
    32
  0
VERTEX
  8
6200LEVEL
 62
13
 10
6985.533
 20
-7364.195
 30
-965.000
 70
    32
  0
VERTEX
  8
6200LEVEL
 62
13
 10
6966.848
 20
-7355.078
 30
-965.000
 70
    32
  0
VERTEX
  8
6200LEVEL
 62
13
 10
6960.636
 20
-7334.830
 30
-965.000
 70
    32
  0
SEQEND
  8
6200LEVEL
  0
POLYLINE
  8
6200LEVEL
 62
13
 66
     1
 70
     9
  0
VERTEX
  8
6200LEVEL
 62
13
 10
5601.821
 20
-9189.848
 30
-965.000
 70
    32
  0
VERTEX
  8
6200LEVEL
 62
13
 10
5630.094
 20
-9227.654
 30
-965.000
 70
    32
  0
VERTEX
  8
6200LEVEL
 62
13
 10
5666.573
 20
-9267.778
 30
-965.000
 70
    32
  0
VERTEX
  8
6200LEVEL
 62
13
 10
5702.888
 20
-9313.678
 30
-965.000
 70
    32
  0
VERTEX
  8
6200LEVEL
 62
13
 10
5739.503
 20
-9349.788
 30
-965.000
 70
    32
  0
VERTEX
  8
6200LEVEL
 62
13
 10
5769.761
 20
-9360.922
 30
-965.000
 70
    32
  0
VERTEX
  8
6200LEVEL
 62
13
 10
5832.633
 20
-9415.851
 30
-965.000
 70
    32
  0
VERTEX
  8
6200LEVEL
 62
13
 10
5878.842
 20
-9477.202
 30
-965.000
 70
    32
  0
VERTEX
  8
6200LEVEL
 62
13
 10
5914.477
 20
-9543.172
 30
-965.000
 70
    32
  0
VERTEX
  8
6200LEVEL
 62
13
 10
5892.436
 20
-9559.583
 30
-965.000
 70
    32
  0
VERTEX
  8
6200LEVEL
 62
13
 10
5834.223
 20
-9538.692
 30
-965.000
 70
    32
  0
VERTEX
  8
6200LEVEL
 62
13
 10
5784.723
 20
-9510.616
 30
-965.000
 70
    32
  0
VERTEX
  8
6200LEVEL
 62
13
 10
5733.706
 20
-9476.244
 30
-965.000
 70
    32
  0
VERTEX
  8
6200LEVEL
 62
13
 10
5706.958
 20
-9439.942
 30
-965.000
 70
    32
  0
VERTEX
  8
6200LEVEL
 62
13
 10
5673.638
 20
-9400.574
 30
-965.000
 70
    32
  0
VERTEX
  8
6200LEVEL
 62
13
 10
5642.834
 20
-9358.076
 30
-965.000
 70
    32
  0
VERTEX
  8
6200LEVEL
 62
13
 10
5679.316
 20
-9380.796
 30
-965.000
 70
    32
  0
VERTEX
  8
6200LEVEL
 62
13
 10
5722.973
 20
-9434.426
 30
-965.000
 70
    32
  0
VERTEX
  8
6200LEVEL
 62
13
 10
5767.009
 20
-9477.774
 30
-965.000
 70
    32
  0
VERTEX
  8
6200LEVEL
 62
13
 10
5821.664
 20
-9505.159
 30
-965.000
 70
    32
  0
VERTEX
  8
6200LEVEL
 62
13
 10
5858.666
 20
-9526.197
 30
-965.000
 70
    32
  0
VERTEX
  8
6200LEVEL
 62
13
 10
5871.396
 20
-9501.742
 30
-965.000
 70
    32
  0
VERTEX
  8
6200LEVEL
 62
13
 10
5845.326
 20
-9462.774
 30
-965.000
 70
    32
  0
VERTEX
  8
6200LEVEL
 62
13
 10
5810.273
 20
-9421.616
 30
-965.000
 70
    32
  0
VERTEX
  8
6200LEVEL
 62
13
 10
5763.363
 20
-9377.305
 30
-965.000
 70
    32
  0
VERTEX
  8
6200LEVEL
 62
13
 10
5739.407
 20
-9377.267
 30
-965.000
 70
    32
  0
VERTEX
  8
6200LEVEL
 62
13
 10
5699.356
 20
-9335.816
 30
-965.000
 70
    32
  0
VERTEX
  8
6200LEVEL
 62
13
 10
5655.576
 20
-9294.022
 30
-965.000
 70
    32
  0
VERTEX
  8
6200LEVEL
 62
13
 10
5619.732
 20
-9245.171
 30
-965.000
 70
    32
  0
VERTEX
  8
6200LEVEL
 62
13
 10
5595.809
 20
-9208.563
 30
-965.000
 70
    32
  0
SEQEND
  8
6200LEVEL
  0
POLYLINE
  8
6200LEVEL
 62
13
 66
     1
 70
     8
  0
VERTEX
  8
6200LEVEL
 62
13
 10
5965.130
 20
-10433.584
 30
-965.000
 70
    32
  0
VERTEX
  8
6200LEVEL
 62
13
 10
5960.716
 20
-10440.699
 30
-965.000
 70
    32
  0
VERTEX
  8
6200LEVEL
 62
13
 10
5951.439
 20
-10443.507
 30
-965.000
 70
    32
  0
VERTEX
  8
6200LEVEL
 62
13
 10
5932.698
 20
-10415.669
 30
-965.000
 70
    32
  0
VERTEX
  8
6200LEVEL
 62
13
 10
5906.366
 20
-10368.716
 30
-965.000
 70
    32
  0
VERTEX
  8
6200LEVEL
 62
13
 10
5885.946
 20
-10334.599
 30
-965.000
 70
    32
  0
VERTEX
  8
6200LEVEL
 62
13
 10
5855.503
 20
-10285.939
 30
-965.000
 70
    32
  0
VERTEX
  8
6200LEVEL
 62
13
 10
5833.310
 20
-10250.288
 30
-965.000
 70
    32
  0
VERTEX
  8
6200LEVEL
 62
13
 10
5803.192
 20
-10216.305
 30
-965.000
 70
    32
  0
VERTEX
  8
6200LEVEL
 62
13
 10
5829.178
 20
-10180.592
 30
-965.000
 70
    32
  0
VERTEX
  8
6200LEVEL
 62
13
 10
5855.918
 20
-10156.859
 30
-965.000
 70
    32
  0
VERTEX
  8
6200LEVEL
 62
13
 10
5862.150
 20
-10113.709
 30
-965.000
 70
    32
  0
VERTEX
  8
6200LEVEL
 62
13
 10
5827.579
 20
-10080.769
 30
-965.000
 70
    32
  0
VERTEX
  8
6200LEVEL
 62
13
 10
5790.994
 20
-10048.502
 30
-965.000
 70
    32
  0
VERTEX
  8
6200LEVEL
 62
13
 10
5756.314
 20
-10025.443
 30
-965.000
 70
    32
  0
VERTEX
  8
6200LEVEL
 62
13
 10
5736.992
 20
-10026.396
 30
-965.000
 70
    32
  0
VERTEX
  8
6200LEVEL
 62
13
 10
5701.587
 20
-10011.162
 30
-965.000
 70
    32
  0
VERTEX
  8
6200LEVEL
 62
13
 10
5704.513
 20
-10043.411
 30
-965.000
 70
    32
  0
VERTEX
  8
6200LEVEL
 62
13
 10
5733.856
 20
-10076.091
 30
-965.000
 70
    32
  0
SEQEND
  8
6200LEVEL
  0
POLYLINE
  8
6200LEVEL
 62
13
 66
     1
 70
     8
  0
VERTEX
  8
6200LEVEL
 62
13
 10
5735.071
 20
-10138.343
 30
-965.000
 70
    32
  0
VERTEX
  8
6200LEVEL
 62
13
 10
5730.368
 20
-10151.711
 30
-965.000
 70
    32
  0
VERTEX
  8
6200LEVEL
 62
13
 10
5725.564
 20
-10169.911
 30
-965.000
 70
    32
  0
VERTEX
  8
6200LEVEL
 62
13
 10
5717.065
 20
-10171.274
 30
-965.000
 70
    32
  0
VERTEX
  8
6200LEVEL
 62
13
 10
5708.226
 20
-10167.866
 30
-965.000
 70
    32
  0
VERTEX
  8
6200LEVEL
 62
13
 10
5686.126
 20
-10157.538
 30
-965.000
 70
    32
  0
SEQEND
  8
6200LEVEL
  0
POLYLINE
  8
6200LEVEL
 62
13
 66
     1
 70
     8
  0
VERTEX
  8
6200LEVEL
 62
13
 10
2510.076
 20
-8528.835
 30
-965.000
 70
    32
  0
VERTEX
  8
6200LEVEL
 62
13
 10
2545.359
 20
-8588.933
 30
-965.000
 70
    32
  0
VERTEX
  8
6200LEVEL
 62
13
 10
2596.089
 20
-8672.040
 30
-965.000
 70
    32
  0
VERTEX
  8
6200LEVEL
 62
13
 10
2631.949
 20
-8752.361
 30
-965.000
 70
    32
  0
VERTEX
  8
6200LEVEL
 62
13
 10
2669.179
 20
-8826.123
 30
-965.000
 70
    32
  0
VERTEX
  8
6200LEVEL
 62
13
 10
2700.066
 20
-8898.740
 30
-965.000
 70
    32
  0
VERTEX
  8
6200LEVEL
 62
13
 10
2723.887
 20
-8942.811
 30
-965.000
 70
    32
  0
VERTEX
  8
6200LEVEL
 62
13
 10
2779.873
 20
-9073.904
 30
-965.000
 70
    32
  0
VERTEX
  8
6200LEVEL
 62
13
 10
2826.309
 20
-9149.739
 30
-965.000
 70
    32
  0
VERTEX
  8
6200LEVEL
 62
13
 10
2846.576
 20
-9191.681
 30
-965.000
 70
    32
  0
VERTEX
  8
6200LEVEL
 62
13
 10
2889.887
 20
-9263.713
 30
-965.000
 70
    32
  0
VERTEX
  8
6200LEVEL
 62
13
 10
2932.481
 20
-9331.095
 30
-965.000
 70
    32
  0
VERTEX
  8
6200LEVEL
 62
13
 10
2977.517
 20
-9388.580
 30
-965.000
 70
    32
  0
SEQEND
  8
6200LEVEL
  0
POLYLINE
  8
6200LEVEL
 62
13
 66
     1
 70
     8
  0
VERTEX
  8
6200LEVEL
 62
13
 10
2727.094
 20
-9365.756
 30
-965.000
 70
    32
  0
VERTEX
  8
6200LEVEL
 62
13
 10
2768.114
 20
-9429.096
 30
-965.000
 70
    32
  0
VERTEX
  8
6200LEVEL
 62
13
 10
2817.505
 20
-9499.397
 30
-965.000
 70
    32
  0
VERTEX
  8
6200LEVEL
 62
13
 10
2875.220
 20
-9578.413
 30
-965.000
 70
    32
  0
SEQEND
  8
6200LEVEL
  0
POLYLINE
  8
6200LEVEL
 62
13
 66
     1
 70
     8
  0
VERTEX
  8
6200LEVEL
 62
13
 10
2259.592
 20
-7340.834
 30
-965.000
 70
    32
  0
VERTEX
  8
6200LEVEL
 62
13
 10
2280.725
 20
-7413.109
 30
-965.000
 70
    32
  0
VERTEX
  8
6200LEVEL
 62
13
 10
2309.430
 20
-7488.185
 30
-965.000
 70
    32
  0
VERTEX
  8
6200LEVEL
 62
13
 10
2335.071
 20
-7565.003
 30
-965.000
 70
    32
  0
VERTEX
  8
6200LEVEL
 62
13
 10
2357.574
 20
-7630.720
 30
-965.000
 70
    32
  0
VERTEX
  8
6200LEVEL
 62
13
 10
2396.588
 20
-7685.166
 30
-965.000
 70
    32
  0
VERTEX
  8
6200LEVEL
 62
13
 10
2421.927
 20
-7744.575
 30
-965.000
 70
    32
  0
VERTEX
  8
6200LEVEL
 62
13
 10
2468.143
 20
-7802.512
 30
-965.000
 70
    32
  0
SEQEND
  8
6200LEVEL
  0
POLYLINE
  8
6200LEVEL
 62
13
 66
     1
 70
     8
  0
VERTEX
  8
6200LEVEL
 62
13
 10
2356.710
 20
-7873.315
 30
-965.000
 70
    32
  0
VERTEX
  8
6200LEVEL
 62
13
 10
2332.554
 20
-7824.673
 30
-965.000
 70
    32
  0
VERTEX
  8
6200LEVEL
 62
13
 10
2307.204
 20
-7768.281
 30
-965.000
 70
    32
  0
VERTEX
  8
6200LEVEL
 62
13
 10
2280.110
 20
-7698.510
 30
-965.000
 70
    32
  0
VERTEX
  8
6200LEVEL
 62
13
 10
2261.836
 20
-7613.894
 30
-965.000
 70
    32
  0
VERTEX
  8
6200LEVEL
 62
13
 10
2256.989
 20
-7536.094
 30
-965.000
 70
    32
  0
VERTEX
  8
6200LEVEL
 62
13
 10
2239.932
 20
-7453.194
 30
-965.000
 70
    32
  0
VERTEX
  8
6200LEVEL
 62
13
 10
2209.474
 20
-7378.071
 30
-965.000
 70
    32
  0
VERTEX
  8
6200LEVEL
 62
13
 10
2181.213
 20
-7315.145
 30
-965.000
 70
    32
  0
SEQEND
  8
6200LEVEL
  0
POLYLINE
  8
6200LEVEL
 62
13
 66
     1
 70
     8
  0
VERTEX
  8
6200LEVEL
 62
13
 10
1823.283
 20
-8213.518
 30
-965.000
 70
    32
  0
VERTEX
  8
6200LEVEL
 62
13
 10
1802.326
 20
-8185.060
 30
-965.000
 70
    32
  0
VERTEX
  8
6200LEVEL
 62
13
 10
1770.426
 20
-8146.699
 30
-965.000
 70
    32
  0
VERTEX
  8
6200LEVEL
 62
13
 10
1747.273
 20
-8120.818
 30
-965.000
 70
    32
  0
VERTEX
  8
6200LEVEL
 62
13
 10
1759.556
 20
-8154.513
 30
-965.000
 70
    32
  0
VERTEX
  8
6200LEVEL
 62
13
 10
1780.350
 20
-8200.451
 30
-965.000
 70
    32
  0
VERTEX
  8
6200LEVEL
 62
13
 10
1800.909
 20
-8230.288
 30
-965.000
 70
    32
  0
SEQEND
  8
6200LEVEL
  0
POLYLINE
  8
6200LEVEL
 62
13
 66
     1
 70
     9
  0
VERTEX
  8
6200LEVEL
 62
13
 10
1218.771
 20
-6917.557
 30
-965.000
 70
    32
  0
VERTEX
  8
6200LEVEL
 62
13
 10
1213.971
 20
-6883.612
 30
-965.000
 70
    32
  0
VERTEX
  8
6200LEVEL
 62
13
 10
1206.329
 20
-6836.201
 30
-965.000
 70
    32
  0
VERTEX
  8
6200LEVEL
 62
13
 10
1192.572
 20
-6775.791
 30
-965.000
 70
    32
  0
VERTEX
  8
6200LEVEL
 62
13
 10
1184.929
 20
-6748.772
 30
-965.000
 70
    32
  0
VERTEX
  8
6200LEVEL
 62
13
 10
1189.005
 20
-6778.595
 30
-965.000
 70
    32
  0
VERTEX
  8
6200LEVEL
 62
13
 10
1195.162
 20
-6834.100
 30
-965.000
 70
    32
  0
VERTEX
  8
6200LEVEL
 62
13
 10
1204.036
 20
-6891.004
 30
-965.000
 70
    32
  0
VERTEX
  8
6200LEVEL
 62
13
 10
1203.791
 20
-6925.122
 30
-965.000
 70
    32
  0
VERTEX
  8
6200LEVEL
 62
13
 10
1208.653
 20
-6945.469
 30
-965.000
 70
    32
  0
SEQEND
  8
6200LEVEL
  0
POLYLINE
  8
6200LEVEL
 62
7
 66
     1
 70
     9
  0
VERTEX
  8
6200LEVEL
 62
7
 10
7154.305
 20
-7176.622
 30
-965.000
 70
    32
  0
VERTEX
  8
6200LEVEL
 62
7
 10
7159.184
 20
-7193.581
 30
-965.000
 70
    32
  0
VERTEX
  8
6200LEVEL
 62
7
 10
7162.697
 20
-7214.266
 30
-965.000
 70
    32
  0
VERTEX
  8
6200LEVEL
 62
7
 10
7176.981
 20
-7251.383
 30
-965.000
 70
    32
  0
VERTEX
  8
6200LEVEL
 62
7
 10
7177.761
 20
-7264.716
 30
-965.000
 70
    32
  0
VERTEX
  8
6200LEVEL
 62
7
 10
7174.638
 20
-7281.969
 30
-965.000
 70
    32
  0
VERTEX
  8
6200LEVEL
 62
7
 10
7172.687
 20
-7290.204
 30
-965.000
 70
    32
  0
VERTEX
  8
6200LEVEL
 62
7
 10
7171.516
 20
-7312.164
 30
-965.000
 70
    32
  0
VERTEX
  8
6200LEVEL
 62
7
 10
7168.003
 20
-7301.576
 30
-965.000
 70
    32
  0
VERTEX
  8
6200LEVEL
 62
7
 10
7168.003
 20
-7280.793
 30
-965.000
 70
    32
  0
VERTEX
  8
6200LEVEL
 62
7
 10
7171.516
 20
-7264.716
 30
-965.000
 70
    32
  0
VERTEX
  8
6200LEVEL
 62
7
 10
7172.297
 20
-7251.383
 30
-965.000
 70
    32
  0
VERTEX
  8
6200LEVEL
 62
7
 10
7160.355
 20
-7215.834
 30
-965.000
 70
    32
  0
VERTEX
  8
6200LEVEL
 62
7
 10
7156.921
 20
-7194.287
 30
-965.000
 70
    32
  0
VERTEX
  8
6200LEVEL
 62
7
 10
7151.865
 20
-7177.504
 30
-965.000
 70
    32
  0
SEQEND
  8
6200LEVEL
  0
POLYLINE
  8
6200LEVEL
 62
7
 66
     1
 70
     8
  0
VERTEX
  8
6200LEVEL
 62
7
 10
7090.381
 20
-7165.510
 30
-965.000
 70
    32
  0
VERTEX
  8
6200LEVEL
 62
7
 10
7101.435
 20
-7200.569
 30
-965.000
 70
    32
  0
VERTEX
  8
6200LEVEL
 62
7
 10
7108.935
 20
-7227.362
 30
-965.000
 70
    32
  0
VERTEX
  8
6200LEVEL
 62
7
 10
7111.652
 20
-7250.725
 30
-965.000
 70
    32
  0
VERTEX
  8
6200LEVEL
 62
7
 10
7110.876
 20
-7284.601
 30
-965.000
 70
    32
  0
VERTEX
  8
6200LEVEL
 62
7
 10
7108.158
 20
-7314.583
 30
-965.000
 70
    32
  0
VERTEX
  8
6200LEVEL
 62
7
 10
7115.146
 20
-7372.600
 30
-965.000
 70
    32
  0
VERTEX
  8
6200LEVEL
 62
7
 10
7120.581
 20
-7430.618
 30
-965.000
 70
    32
  0
VERTEX
  8
6200LEVEL
 62
7
 10
7122.522
 20
-7492.919
 30
-965.000
 70
    32
  0
VERTEX
  8
6200LEVEL
 62
7
 10
7127.569
 20
-7508.494
 30
-965.000
 70
    32
  0
VERTEX
  8
6200LEVEL
 62
7
 10
7122.979
 20
-7525.611
 30
-965.000
 70
    32
  0
VERTEX
  8
6200LEVEL
 62
7
 10
7104.141
 20
-7531.434
 30
-965.000
 70
    32
  0
VERTEX
  8
6200LEVEL
 62
7
 10
7096.955
 20
-7522.720
 30
-965.000
 70
    32
  0
SEQEND
  8
6200LEVEL
  0
POLYLINE
  8
6200LEVEL
 62
7
 66
     1
 70
     9
  0
VERTEX
  8
6200LEVEL
 62
7
 10
7254.282
 20
-7964.266
 30
-965.000
 70
    32
  0
VERTEX
  8
6200LEVEL
 62
7
 10
7227.757
 20
-7918.667
 30
-965.000
 70
    32
  0
VERTEX
  8
6200LEVEL
 62
7
 10
7207.400
 20
-7870.773
 30
-965.000
 70
    32
  0
VERTEX
  8
6200LEVEL
 62
7
 10
7191.297
 20
-7834.152
 30
-965.000
 70
    32
  0
VERTEX
  8
6200LEVEL
 62
7
 10
7195.099
 20
-7821.390
 30
-965.000
 70
    32
  0
VERTEX
  8
6200LEVEL
 62
7
 10
7165.335
 20
-7792.931
 30
-965.000
 70
    32
  0
VERTEX
  8
6200LEVEL
 62
7
 10
7128.720
 20
-7756.821
 30
-965.000
 70
    32
  0
VERTEX
  8
6200LEVEL
 62
7
 10
7112.382
 20
-7721.675
 30
-965.000
 70
    32
  0
VERTEX
  8
6200LEVEL
 62
7
 10
7098.807
 20
-7724.554
 30
-965.000
 70
    32
  0
VERTEX
  8
6200LEVEL
 62
7
 10
7108.008
 20
-7752.255
 30
-965.000
 70
    32
  0
VERTEX
  8
6200LEVEL
 62
7
 10
7124.267
 20
-7787.892
 30
-965.000
 70
    32
  0
VERTEX
  8
6200LEVEL
 62
7
 10
7158.080
 20
-7827.339
 30
-965.000
 70
    32
  0
VERTEX
  8
6200LEVEL
 62
7
 10
7190.514
 20
-7886.493
 30
-965.000
 70
    32
  0
VERTEX
  8
6200LEVEL
 62
7
 10
7210.343
 20
-7940.861
 30
-965.000
 70
    32
  0
VERTEX
  8
6200LEVEL
 62
7
 10
7235.232
 20
-7957.191
 30
-965.000
 70
    32
  0
SEQEND
  8
6200LEVEL
  0
POLYLINE
  8
6200LEVEL
 62
7
 66
     1
 70
     9
  0
VERTEX
  8
6200LEVEL
 62
7
 10
6995.308
 20
-9209.478
 30
-965.000
 70
    32
  0
VERTEX
  8
6200LEVEL
 62
7
 10
7002.024
 20
-9184.752
 30
-965.000
 70
    32
  0
VERTEX
  8
6200LEVEL
 62
7
 10
7018.393
 20
-9142.422
 30
-965.000
 70
    32
  0
VERTEX
  8
6200LEVEL
 62
7
 10
7044.401
 20
-9154.896
 30
-965.000
 70
    32
  0
VERTEX
  8
6200LEVEL
 62
7
 10
7056.938
 20
-9137.978
 30
-965.000
 70
    32
  0
VERTEX
  8
6200LEVEL
 62
7
 10
7040.587
 20
-9095.011
 30
-965.000
 70
    32
  0
VERTEX
  8
6200LEVEL
 62
7
 10
7053.916
 20
-9068.382
 30
-965.000
 70
    32
  0
VERTEX
  8
6200LEVEL
 62
7
 10
7098.869
 20
-9072.780
 30
-965.000
 70
    32
  0
VERTEX
  8
6200LEVEL
 62
7
 10
7130.087
 20
-9051.023
 30
-965.000
 70
    32
  0
VERTEX
  8
6200LEVEL
 62
7
 10
7169.303
 20
-9031.299
 30
-965.000
 70
    32
  0
VERTEX
  8
6200LEVEL
 62
7
 10
7169.339
 20
-8996.112
 30
-965.000
 70
    32
  0
VERTEX
  8
6200LEVEL
 62
7
 10
7160.294
 20
-8972.997
 30
-965.000
 70
    32
  0
VERTEX
  8
6200LEVEL
 62
7
 10
7123.311
 20
-8948.037
 30
-965.000
 70
    32
  0
VERTEX
  8
6200LEVEL
 62
7
 10
7099.240
 20
-8955.043
 30
-965.000
 70
    32
  0
VERTEX
  8
6200LEVEL
 62
7
 10
7100.641
 20
-8985.788
 30
-965.000
 70
    32
  0
VERTEX
  8
6200LEVEL
 62
7
 10
7067.771
 20
-8987.859
 30
-965.000
 70
    32
  0
VERTEX
  8
6200LEVEL
 62
7
 10
7046.950
 20
-9002.950
 30
-965.000
 70
    32
  0
VERTEX
  8
6200LEVEL
 62
7
 10
7041.487
 20
-9018.222
 30
-965.000
 70
    32
  0
VERTEX
  8
6200LEVEL
 62
7
 10
7029.966
 20
-9067.521
 30
-965.000
 70
    32
  0
VERTEX
  8
6200LEVEL
 62
7
 10
7026.677
 20
-9082.793
 30
-965.000
 70
    32
  0
VERTEX
  8
6200LEVEL
 62
7
 10
7024.621
 20
-9072.061
 30
-965.000
 70
    32
  0
VERTEX
  8
6200LEVEL
 62
7
 10
7033.495
 20
-9011.398
 30
-965.000
 70
    32
  0
VERTEX
  8
6200LEVEL
 62
7
 10
7036.106
 20
-8998.193
 30
-965.000
 70
    32
  0
VERTEX
  8
6200LEVEL
 62
7
 10
7038.646
 20
-8980.690
 30
-965.000
 70
    32
  0
VERTEX
  8
6200LEVEL
 62
7
 10
7049.764
 20
-8960.014
 30
-965.000
 70
    32
  0
VERTEX
  8
6200LEVEL
 62
7
 10
7051.113
 20
-8942.890
 30
-965.000
 70
    32
  0
VERTEX
  8
6200LEVEL
 62
7
 10
7055.841
 20
-8924.522
 30
-965.000
 70
    32
  0
VERTEX
  8
6200LEVEL
 62
7
 10
7073.519
 20
-8929.475
 30
-965.000
 70
    32
  0
VERTEX
  8
6200LEVEL
 62
7
 10
7094.693
 20
-8930.507
 30
-965.000
 70
    32
  0
VERTEX
  8
6200LEVEL
 62
7
 10
7118.333
 20
-8923.903
 30
-965.000
 70
    32
  0
VERTEX
  8
6200LEVEL
 62
7
 10
7148.535
 20
-8900.605
 30
-965.000
 70
    32
  0
VERTEX
  8
6200LEVEL
 62
7
 10
7177.358
 20
-8870.142
 30
-965.000
 70
    32
  0
VERTEX
  8
6200LEVEL
 62
7
 10
7181.054
 20
-8842.229
 30
-965.000
 70
    32
  0
VERTEX
  8
6200LEVEL
 62
7
 10
7178.639
 20
-8830.493
 30
-965.000
 70
    32
  0
VERTEX
  8
6200LEVEL
 62
7
 10
7175.362
 20
-8827.504
 30
-965.000
 70
    32
  0
VERTEX
  8
6200LEVEL
 62
7
 10
7147.112
 20
-8805.438
 30
-965.000
 70
    32
  0
VERTEX
  8
6200LEVEL
 62
7
 10
7110.110
 20
-8803.787
 30
-965.000
 70
    32
  0
VERTEX
  8
6200LEVEL
 62
7
 10
7083.592
 20
-8809.566
 30
-965.000
 70
    32
  0
VERTEX
  8
6200LEVEL
 62
7
 10
7105.177
 20
-8829.792
 30
-965.000
 70
    32
  0
VERTEX
  8
6200LEVEL
 62
7
 10
7101.476
 20
-8846.921
 30
-965.000
 70
    32
  0
VERTEX
  8
6200LEVEL
 62
7
 10
7092.020
 20
-8876.434
 30
-965.000
 70
    32
  0
VERTEX
  8
6200LEVEL
 62
7
 10
7076.192
 20
-8864.051
 30
-965.000
 70
    32
  0
VERTEX
  8
6200LEVEL
 62
7
 10
7040.799
 20
-8866.012
 30
-965.000
 70
    32
  0
VERTEX
  8
6200LEVEL
 62
7
 10
7014.111
 20
-8884.896
 30
-965.000
 70
    32
  0
VERTEX
  8
6200LEVEL
 62
7
 10
7000.544
 20
-8911.726
 30
-965.000
 70
    32
  0
VERTEX
  8
6200LEVEL
 62
7
 10
6994.788
 20
-8939.588
 30
-965.000
 70
    32
  0
VERTEX
  8
6200LEVEL
 62
7
 10
6997.900
 20
-8968.892
 30
-965.000
 70
    32
  0
VERTEX
  8
6200LEVEL
 62
7
 10
6993.136
 20
-8984.527
 30
-965.000
 70
    32
  0
VERTEX
  8
6200LEVEL
 62
7
 10
6987.649
 20
-9014.173
 30
-965.000
 70
    32
  0
VERTEX
  8
6200LEVEL
 62
7
 10
6980.407
 20
-9056.403
 30
-965.000
 70
    32
  0
VERTEX
  8
6200LEVEL
 62
7
 10
6984.928
 20
-9099.948
 30
-965.000
 70
    32
  0
VERTEX
  8
6200LEVEL
 62
7
 10
6985.742
 20
-9129.783
 30
-965.000
 70
    32
  0
VERTEX
  8
6200LEVEL
 62
7
 10
6990.177
 20
-9165.919
 30
-965.000
 70
    32
  0
VERTEX
  8
6200LEVEL
 62
7
 10
6989.813
 20
-9193.130
 30
-965.000
 70
    32
  0
SEQEND
  8
6200LEVEL
  0
POLYLINE
  8
6200LEVEL
 62
7
 66
     1
 70
     9
  0
VERTEX
  8
6200LEVEL
 62
7
 10
6927.333
 20
-10076.816
 30
-965.000
 70
    32
  0
VERTEX
  8
6200LEVEL
 62
7
 10
6906.207
 20
-10024.259
 30
-965.000
 70
    32
  0
VERTEX
  8
6200LEVEL
 62
7
 10
6883.091
 20
-9968.358
 30
-965.000
 70
    32
  0
VERTEX
  8
6200LEVEL
 62
7
 10
6848.053
 20
-9917.617
 30
-965.000
 70
    32
  0
VERTEX
  8
6200LEVEL
 62
7
 10
6820.973
 20
-9862.849
 30
-965.000
 70
    32
  0
VERTEX
  8
6200LEVEL
 62
7
 10
6780.683
 20
-9792.857
 30
-965.000
 70
    32
  0
VERTEX
  8
6200LEVEL
 62
7
 10
6791.757
 20
-9783.525
 30
-965.000
 70
    32
  0
VERTEX
  8
6200LEVEL
 62
7
 10
6820.250
 20
-9829.438
 30
-965.000
 70
    32
  0
VERTEX
  8
6200LEVEL
 62
7
 10
6861.652
 20
-9900.364
 30
-965.000
 70
    32
  0
VERTEX
  8
6200LEVEL
 62
7
 10
6868.256
 20
-9884.266
 30
-965.000
 70
    32
  0
VERTEX
  8
6200LEVEL
 62
7
 10
6853.551
 20
-9848.372
 30
-965.000
 70
    32
  0
VERTEX
  8
6200LEVEL
 62
7
 10
6830.554
 20
-9815.443
 30
-965.000
 70
    32
  0
VERTEX
  8
6200LEVEL
 62
7
 10
6815.713
 20
-9783.564
 30
-965.000
 70
    32
  0
VERTEX
  8
6200LEVEL
 62
7
 10
6778.407
 20
-9742.299
 30
-965.000
 70
    32
  0
VERTEX
  8
6200LEVEL
 62
7
 10
6728.818
 20
-9689.489
 30
-965.000
 70
    32
  0
VERTEX
  8
6200LEVEL
 62
7
 10
6709.685
 20
-9652.888
 30
-965.000
 70
    32
  0
VERTEX
  8
6200LEVEL
 62
7
 10
6710.798
 20
-9653.823
 30
-965.000
 70
    32
  0
VERTEX
  8
6200LEVEL
 62
7
 10
6669.799
 20
-9605.662
 30
-965.000
 70
    32
  0
VERTEX
  8
6200LEVEL
 62
7
 10
6652.420
 20
-9638.707
 30
-965.000
 70
    32
  0
VERTEX
  8
6200LEVEL
 62
7
 10
6683.200
 20
-9695.579
 30
-965.000
 70
    32
  0
VERTEX
  8
6200LEVEL
 62
7
 10
6721.231
 20
-9752.851
 30
-965.000
 70
    32
  0
VERTEX
  8
6200LEVEL
 62
7
 10
6753.581
 20
-9799.884
 30
-965.000
 70
    32
  0
VERTEX
  8
6200LEVEL
 62
7
 10
6716.807
 20
-9782.162
 30
-965.000
 70
    32
  0
VERTEX
  8
6200LEVEL
 62
7
 10
6687.903
 20
-9783.100
 30
-965.000
 70
    32
  0
VERTEX
  8
6200LEVEL
 62
7
 10
6672.347
 20
-9825.264
 30
-965.000
 70
    32
  0
VERTEX
  8
6200LEVEL
 62
7
 10
6678.053
 20
-9868.551
 30
-965.000
 70
    32
  0
VERTEX
  8
6200LEVEL
 62
7
 10
6676.267
 20
-9900.300
 30
-965.000
 70
    32
  0
VERTEX
  8
6200LEVEL
 62
7
 10
6708.688
 20
-9951.632
 30
-965.000
 70
    32
  0
VERTEX
  8
6200LEVEL
 62
7
 10
6745.334
 20
-9968.577
 30
-965.000
 70
    32
  0
VERTEX
  8
6200LEVEL
 62
7
 10
6734.714
 20
-9937.119
 30
-965.000
 70
    32
  0
VERTEX
  8
6200LEVEL
 62
7
 10
6768.563
 20
-9970.013
 30
-965.000
 70
    32
  0
VERTEX
  8
6200LEVEL
 62
7
 10
6783.431
 20
-9952.710
 30
-965.000
 70
    32
  0
VERTEX
  8
6200LEVEL
 62
7
 10
6746.630
 20
-9919.345
 30
-965.000
 70
    32
  0
VERTEX
  8
6200LEVEL
 62
7
 10
6714.506
 20
-9893.032
 30
-965.000
 70
    32
  0
VERTEX
  8
6200LEVEL
 62
7
 10
6709.833
 20
-9851.172
 30
-965.000
 70
    32
  0
VERTEX
  8
6200LEVEL
 62
7
 10
6719.485
 20
-9808.065
 30
-965.000
 70
    32
  0
VERTEX
  8
6200LEVEL
 62
7
 10
6755.978
 20
-9856.011
 30
-965.000
 70
    32
  0
VERTEX
  8
6200LEVEL
 62
7
 10
6791.086
 20
-9911.051
 30
-965.000
 70
    32
  0
VERTEX
  8
6200LEVEL
 62
7
 10
6829.787
 20
-9970.448
 30
-965.000
 70
    32
  0
VERTEX
  8
6200LEVEL
 62
7
 10
6867.097
 20
-10041.730
 30
-965.000
 70
    32
  0
VERTEX
  8
6200LEVEL
 62
7
 10
6914.372
 20
-10132.763
 30
-965.000
 70
    32
  0
VERTEX
  8
6200LEVEL
 62
7
 10
6922.412
 20
-10093.436
 30
-965.000
 70
    32
  0
SEQEND
  8
6200LEVEL
  0
POLYLINE
  8
6200LEVEL
 62
7
 66
     1
 70
     9
  0
VERTEX
  8
6200LEVEL
 62
7
 10
6656.738
 20
-10207.690
 30
-965.000
 70
    32
  0
VERTEX
  8
6200LEVEL
 62
7
 10
6679.316
 20
-10227.435
 30
-965.000
 70
    32
  0
VERTEX
  8
6200LEVEL
 62
7
 10
6690.935
 20
-10249.468
 30
-965.000
 70
    32
  0
VERTEX
  8
6200LEVEL
 62
7
 10
6674.266
 20
-10243.277
 30
-965.000
 70
    32
  0
VERTEX
  8
6200LEVEL
 62
7
 10
6660.857
 20
-10222.977
 30
-965.000
 70
    32
  0
SEQEND
  8
6200LEVEL
  0
POLYLINE
  8
6200LEVEL
 62
7
 66
     1
 70
     8
  0
VERTEX
  8
6200LEVEL
 62
7
 10
5965.130
 20
-10433.584
 30
-965.000
 70
    32
  0
VERTEX
  8
6200LEVEL
 62
7
 10
5973.580
 20
-10455.573
 30
-965.000
 70
    32
  0
VERTEX
  8
6200LEVEL
 62
7
 10
5962.469
 20
-10465.235
 30
-965.000
 70
    32
  0
VERTEX
  8
6200LEVEL
 62
7
 10
5946.955
 20
-10451.793
 30
-965.000
 70
    32
  0
VERTEX
  8
6200LEVEL
 62
7
 10
5929.134
 20
-10419.029
 30
-965.000
 70
    32
  0
VERTEX
  8
6200LEVEL
 62
7
 10
5901.041
 20
-10383.955
 30
-965.000
 70
    32
  0
VERTEX
  8
6200LEVEL
 62
7
 10
5873.215
 20
-10336.186
 30
-965.000
 70
    32
  0
VERTEX
  8
6200LEVEL
 62
7
 10
5882.666
 20
-10370.232
 30
-965.000
 70
    32
  0
VERTEX
  8
6200LEVEL
 62
7
 10
5898.938
 20
-10413.691
 30
-965.000
 70
    32
  0
VERTEX
  8
6200LEVEL
 62
7
 10
5909.864
 20
-10447.973
 30
-965.000
 70
    32
  0
VERTEX
  8
6200LEVEL
 62
7
 10
5885.868
 20
-10424.470
 30
-965.000
 70
    32
  0
VERTEX
  8
6200LEVEL
 62
7
 10
5868.925
 20
-10378.886
 30
-965.000
 70
    32
  0
VERTEX
  8
6200LEVEL
 62
7
 10
5851.904
 20
-10333.795
 30
-965.000
 70
    32
  0
VERTEX
  8
6200LEVEL
 62
7
 10
5839.589
 20
-10293.994
 30
-965.000
 70
    32
  0
VERTEX
  8
6200LEVEL
 62
7
 10
5842.877
 20
-10278.123
 30
-965.000
 70
    32
  0
VERTEX
  8
6200LEVEL
 62
7
 10
5828.292
 20
-10254.160
 30
-965.000
 70
    32
  0
VERTEX
  8
6200LEVEL
 62
7
 10
5797.504
 20
-10219.904
 30
-965.000
 70
    32
  0
VERTEX
  8
6200LEVEL
 62
7
 10
5799.574
 20
-10181.166
 30
-965.000
 70
    32
  0
VERTEX
  8
6200LEVEL
 62
7
 10
5825.401
 20
-10161.576
 30
-965.000
 70
    32
  0
VERTEX
  8
6200LEVEL
 62
7
 10
5837.313
 20
-10131.859
 30
-965.000
 70
    32
  0
VERTEX
  8
6200LEVEL
 62
7
 10
5820.195
 20
-10086.147
 30
-965.000
 70
    32
  0
VERTEX
  8
6200LEVEL
 62
7
 10
5784.953
 20
-10051.863
 30
-965.000
 70
    32
  0
VERTEX
  8
6200LEVEL
 62
7
 10
5776.897
 20
-10048.166
 30
-965.000
 70
    32
  0
VERTEX
  8
6200LEVEL
 62
7
 10
5753.067
 20
-10039.762
 30
-965.000
 70
    32
  0
VERTEX
  8
6200LEVEL
 62
7
 10
5733.525
 20
-10040.221
 30
-965.000
 70
    32
  0
VERTEX
  8
6200LEVEL
 62
7
 10
5733.856
 20
-10076.091
 30
-965.000
 70
    32
  0
SEQEND
  8
6200LEVEL
  0
POLYLINE
  8
6200LEVEL
 62
7
 66
     1
 70
     8
  0
VERTEX
  8
6200LEVEL
 62
7
 10
5735.071
 20
-10138.643
 30
-965.000
 70
    32
  0
VERTEX
  8
6200LEVEL
 62
7
 10
5741.207
 20
-10143.741
 30
-965.000
 70
    32
  0
VERTEX
  8
6200LEVEL
 62
7
 10
5750.039
 20
-10195.466
 30
-965.000
 70
    32
  0
VERTEX
  8
6200LEVEL
 62
7
 10
5778.477
 20
-10239.094
 30
-965.000
 70
    32
  0
VERTEX
  8
6200LEVEL
 62
7
 10
5806.371
 20
-10287.181
 30
-965.000
 70
    32
  0
VERTEX
  8
6200LEVEL
 62
7
 10
5828.267
 20
-10344.401
 30
-965.000
 70
    32
  0
VERTEX
  8
6200LEVEL
 62
7
 10
5819.879
 20
-10374.845
 30
-965.000
 70
    32
  0
VERTEX
  8
6200LEVEL
 62
7
 10
5786.132
 20
-10327.085
 30
-965.000
 70
    32
  0
VERTEX
  8
6200LEVEL
 62
7
 10
5758.816
 20
-10273.793
 30
-965.000
 70
    32
  0
VERTEX
  8
6200LEVEL
 62
7
 10
5743.581
 20
-10200.577
 30
-965.000
 70
    32
  0
VERTEX
  8
6200LEVEL
 62
7
 10
5731.476
 20
-10187.453
 30
-965.000
 70
    32
  0
VERTEX
  8
6200LEVEL
 62
7
 10
5722.092
 20
-10192.514
 30
-965.000
 70
    32
  0
VERTEX
  8
6200LEVEL
 62
7
 10
5730.323
 20
-10209.436
 30
-965.000
 70
    32
  0
VERTEX
  8
6200LEVEL
 62
7
 10
5752.306
 20
-10279.817
 30
-965.000
 70
    32
  0
VERTEX
  8
6200LEVEL
 62
7
 10
5773.276
 20
-10333.358
 30
-965.000
 70
    32
  0
VERTEX
  8
6200LEVEL
 62
7
 10
5741.125
 20
-10291.402
 30
-965.000
 70
    32
  0
VERTEX
  8
6200LEVEL
 62
7
 10
5756.982
 20
-10351.694
 30
-965.000
 70
    32
  0
VERTEX
  8
6200LEVEL
 62
7
 10
5722.409
 20
-10285.389
 30
-965.000
 70
    32
  0
VERTEX
  8
6200LEVEL
 62
7
 10
5722.844
 20
-10215.229
 30
-965.000
 70
    32
  0
VERTEX
  8
6200LEVEL
 62
7
 10
5705.507
 20
-10197.510
 30
-965.000
 70
    32
  0
VERTEX
  8
6200LEVEL
 62
7
 10
5701.088
 20
-10230.902
 30
-965.000
 70
    32
  0
VERTEX
  8
6200LEVEL
 62
7
 10
5712.476
 20
-10293.894
 30
-965.000
 70
    32
  0
VERTEX
  8
6200LEVEL
 62
7
 10
5726.875
 20
-10326.964
 30
-965.000
 70
    32
  0
VERTEX
  8
6200LEVEL
 62
7
 10
5734.187
 20
-10353.859
 30
-965.000
 70
    32
  0
VERTEX
  8
6200LEVEL
 62
7
 10
5710.926
 20
-10324.167
 30
-965.000
 70
    32
  0
VERTEX
  8
6200LEVEL
 62
7
 10
5722.935
 20
-10361.144
 30
-965.000
 70
    32
  0
VERTEX
  8
6200LEVEL
 62
7
 10
5700.459
 20
-10326.533
 30
-965.000
 70
    32
  0
VERTEX
  8
6200LEVEL
 62
7
 10
5717.983
 20
-10396.929
 30
-965.000
 70
    32
  0
VERTEX
  8
6200LEVEL
 62
7
 10
5718.520
 20
-10433.085
 30
-965.000
 70
    32
  0
VERTEX
  8
6200LEVEL
 62
7
 10
5696.551
 20
-10388.969
 30
-965.000
 70
    32
  0
VERTEX
  8
6200LEVEL
 62
7
 10
5673.044
 20
-10382.949
 30
-965.000
 70
    32
  0
VERTEX
  8
6200LEVEL
 62
7
 10
5651.960
 20
-10336.452
 30
-965.000
 70
    32
  0
VERTEX
  8
6200LEVEL
 62
7
 10
5646.545
 20
-10305.572
 30
-965.000
 70
    32
  0
VERTEX
  8
6200LEVEL
 62
7
 10
5672.920
 20
-10347.363
 30
-965.000
 70
    32
  0
VERTEX
  8
6200LEVEL
 62
7
 10
5682.723
 20
-10355.486
 30
-965.000
 70
    32
  0
VERTEX
  8
6200LEVEL
 62
7
 10
5668.939
 20
-10310.658
 30
-965.000
 70
    32
  0
VERTEX
  8
6200LEVEL
 62
7
 10
5689.546
 20
-10300.073
 30
-965.000
 70
    32
  0
VERTEX
  8
6200LEVEL
 62
7
 10
5697.688
 20
-10233.288
 30
-965.000
 70
    32
  0
VERTEX
  8
6200LEVEL
 62
7
 10
5701.088
 20
-10173.659
 30
-965.000
 70
    32
  0
VERTEX
  8
6200LEVEL
 62
7
 10
5686.275
 20
-10157.688
 30
-965.000
 70
    32
  0
SEQEND
  8
6200LEVEL
  0
POLYLINE
  8
6200LEVEL
 62
7
 66
     1
 70
     8
  0
VERTEX
  8
6200LEVEL
 62
7
 10
2231.933
 20
-7882.227
 30
-965.000
 70
    32
  0
VERTEX
  8
6200LEVEL
 62
7
 10
2192.950
 20
-7808.417
 30
-965.000
 70
    32
  0
VERTEX
  8
6200LEVEL
 62
7
 10
2162.851
 20
-7735.619
 30
-965.000
 70
    32
  0
VERTEX
  8
6200LEVEL
 62
7
 10
2139.699
 20
-7647.152
 30
-965.000
 70
    32
  0
VERTEX
  8
6200LEVEL
 62
7
 10
2126.159
 20
-7561.330
 30
-965.000
 70
    32
  0
VERTEX
  8
6200LEVEL
 62
7
 10
2106.323
 20
-7479.968
 30
-965.000
 70
    32
  0
VERTEX
  8
6200LEVEL
 62
7
 10
2103.740
 20
-7549.709
 30
-965.000
 70
    32
  0
VERTEX
  8
6200LEVEL
 62
7
 10
2077.545
 20
-7555.808
 30
-965.000
 70
    32
  0
VERTEX
  8
6200LEVEL
 62
7
 10
2051.048
 20
-7489.913
 30
-965.000
 70
    32
  0
VERTEX
  8
6200LEVEL
 62
7
 10
2029.282
 20
-7412.499
 30
-965.000
 70
    32
  0
VERTEX
  8
6200LEVEL
 62
7
 10
2000.949
 20
-7401.631
 30
-965.000
 70
    32
  0
VERTEX
  8
6200LEVEL
 62
7
 10
1985.449
 20
-7404.019
 30
-965.000
 70
    32
  0
VERTEX
  8
6200LEVEL
 62
7
 10
2010.088
 20
-7476.389
 30
-965.000
 70
    32
  0
VERTEX
  8
6200LEVEL
 62
7
 10
2026.188
 20
-7542.776
 30
-965.000
 70
    32
  0
VERTEX
  8
6200LEVEL
 62
7
 10
2023.708
 20
-7595.681
 30
-965.000
 70
    32
  0
VERTEX
  8
6200LEVEL
 62
7
 10
1992.777
 20
-7538.085
 30
-965.000
 70
    32
  0
VERTEX
  8
6200LEVEL
 62
7
 10
1969.466
 20
-7481.537
 30
-965.000
 70
    32
  0
VERTEX
  8
6200LEVEL
 62
7
 10
1946.765
 20
-7436.162
 30
-965.000
 70
    32
  0
VERTEX
  8
6200LEVEL
 62
7
 10
1922.733
 20
-7408.922
 30
-965.000
 70
    32
  0
VERTEX
  8
6200LEVEL
 62
7
 10
1948.094
 20
-7462.298
 30
-965.000
 70
    32
  0
VERTEX
  8
6200LEVEL
 62
7
 10
1956.987
 20
-7504.565
 30
-965.000
 70
    32
  0
VERTEX
  8
6200LEVEL
 62
7
 10
1909.743
 20
-7437.899
 30
-965.000
 70
    32
  0
VERTEX
  8
6200LEVEL
 62
7
 10
1894.024
 20
-7367.804
 30
-965.000
 70
    32
  0
VERTEX
  8
6200LEVEL
 62
7
 10
1867.416
 20
-7287.804
 30
-965.000
 70
    32
  0
VERTEX
  8
6200LEVEL
 62
7
 10
1869.989
 20
-7221.079
 30
-965.000
 70
    32
  0
VERTEX
  8
6200LEVEL
 62
7
 10
1876.578
 20
-7148.499
 30
-965.000
 70
    32
  0
VERTEX
  8
6200LEVEL
 62
7
 10
1860.663
 20
-7109.060
 30
-965.000
 70
    32
  0
VERTEX
  8
6200LEVEL
 62
7
 10
1837.482
 20
-7050.271
 30
-965.000
 70
    32
  0
VERTEX
  8
6200LEVEL
 62
7
 10
1797.108
 20
-7043.638
 30
-965.000
 70
    32
  0
VERTEX
  8
6200LEVEL
 62
7
 10
1780.220
 20
-7079.246
 30
-965.000
 70
    32
  0
VERTEX
  8
6200LEVEL
 62
7
 10
1749.148
 20
-7081.494
 30
-965.000
 70
    32
  0
VERTEX
  8
6200LEVEL
 62
7
 10
1774.226
 20
-7145.387
 30
-965.000
 70
    32
  0
VERTEX
  8
6200LEVEL
 62
7
 10
1798.718
 20
-7202.387
 30
-965.000
 70
    32
  0
VERTEX
  8
6200LEVEL
 62
7
 10
1791.689
 20
-7228.859
 30
-965.000
 70
    32
  0
VERTEX
  8
6200LEVEL
 62
7
 10
1770.007
 20
-7205.542
 30
-965.000
 70
    32
  0
VERTEX
  8
6200LEVEL
 62
7
 10
1737.238
 20
-7283.736
 30
-965.000
 70
    32
  0
VERTEX
  8
6200LEVEL
 62
7
 10
1737.605
 20
-7430.095
 30
-965.000
 70
    32
  0
VERTEX
  8
6200LEVEL
 62
7
 10
1761.814
 20
-7485.991
 30
-965.000
 70
    32
  0
VERTEX
  8
6200LEVEL
 62
7
 10
1729.169
 20
-7464.294
 30
-965.000
 70
    32
  0
VERTEX
  8
6200LEVEL
 62
7
 10
1730.269
 20
-7494.081
 30
-965.000
 70
    32
  0
VERTEX
  8
6200LEVEL
 62
7
 10
1696.891
 20
-7460.250
 30
-965.000
 70
    32
  0
VERTEX
  8
6200LEVEL
 62
7
 10
1641.871
 20
-7358.019
 30
-965.000
 70
    32
  0
VERTEX
  8
6200LEVEL
 62
7
 10
1652.142
 20
-7404.721
 30
-965.000
 70
    32
  0
VERTEX
  8
6200LEVEL
 62
7
 10
1671.948
 20
-7440.392
 30
-965.000
 70
    32
  0
VERTEX
  8
6200LEVEL
 62
7
 10
1684.786
 20
-7468.707
 30
-965.000
 70
    32
  0
VERTEX
  8
6200LEVEL
 62
7
 10
1744.208
 20
-7520.190
 30
-965.000
 70
    32
  0
VERTEX
  8
6200LEVEL
 62
7
 10
1800.694
 20
-7569.100
 30
-965.000
 70
    32
  0
VERTEX
  8
6200LEVEL
 62
7
 10
1851.679
 20
-7598.151
 30
-965.000
 70
    32
  0
VERTEX
  8
6200LEVEL
 62
7
 10
1903.256
 20
-7647.086
 30
-965.000
 70
    32
  0
VERTEX
  8
6200LEVEL
 62
7
 10
1951.287
 20
-7710.616
 30
-965.000
 70
    32
  0
VERTEX
  8
6200LEVEL
 62
7
 10
1989.873
 20
-7770.523
 30
-965.000
 70
    32
  0
VERTEX
  8
6200LEVEL
 62
7
 10
2046.622
 20
-7846.355
 30
-965.000
 70
    32
  0
VERTEX
  8
6200LEVEL
 62
7
 10
2078.328
 20
-7903.831
 30
-965.000
 70
    32
  0
VERTEX
  8
6200LEVEL
 62
7
 10
2063.073
 20
-7938.711
 30
-965.000
 70
    32
  0
VERTEX
  8
6200LEVEL
 62
7
 10
2071.680
 20
-7981.180
 30
-965.000
 70
    32
  0
VERTEX
  8
6200LEVEL
 62
7
 10
2092.256
 20
-8016.887
 30
-965.000
 70
    32
  0
SEQEND
  8
6200LEVEL
  0
POLYLINE
  8
6200LEVEL
 62
7
 66
     1
 70
     8
  0
VERTEX
  8
6200LEVEL
 62
7
 10
2173.479
 20
-7913.766
 30
-965.000
 70
    32
  0
VERTEX
  8
6200LEVEL
 62
7
 10
2142.657
 20
-7859.962
 30
-965.000
 70
    32
  0
VERTEX
  8
6200LEVEL
 62
7
 10
2116.615
 20
-7803.200
 30
-965.000
 70
    32
  0
VERTEX
  8
6200LEVEL
 62
7
 10
2090.249
 20
-7735.063
 30
-965.000
 70
    32
  0
VERTEX
  8
6200LEVEL
 62
7
 10
2062.267
 20
-7695.579
 30
-965.000
 70
    32
  0
VERTEX
  8
6200LEVEL
 62
7
 10
2078.462
 20
-7758.460
 30
-965.000
 70
    32
  0
VERTEX
  8
6200LEVEL
 62
7
 10
2096.575
 20
-7820.410
 30
-965.000
 70
    32
  0
VERTEX
  8
6200LEVEL
 62
7
 10
2117.454
 20
-7873.525
 30
-965.000
 70
    32
  0
VERTEX
  8
6200LEVEL
 62
7
 10
2152.045
 20
-7933.254
 30
-965.000
 70
    32
  0
SEQEND
  8
6200LEVEL
  0
POLYLINE
  8
6200LEVEL
 62
7
 66
     1
 70
     8
  0
VERTEX
  8
6200LEVEL
 62
7
 10
1800.429
 20
-8756.234
 30
-965.000
 70
    32
  0
VERTEX
  8
6200LEVEL
 62
7
 10
1767.126
 20
-8683.816
 30
-965.000
 70
    32
  0
VERTEX
  8
6200LEVEL
 62
7
 10
1750.427
 20
-8652.559
 30
-965.000
 70
    32
  0
VERTEX
  8
6200LEVEL
 62
7
 10
1722.927
 20
-8611.524
 30
-965.000
 70
    32
  0
VERTEX
  8
6200LEVEL
 62
7
 10
1709.222
 20
-8558.956
 30
-965.000
 70
    32
  0
VERTEX
  8
6200LEVEL
 62
7
 10
1693.626
 20
-8508.518
 30
-965.000
 70
    32
  0
VERTEX
  8
6200LEVEL
 62
7
 10
1685.355
 20
-8452.160
 30
-965.000
 70
    32
  0
VERTEX
  8
6200LEVEL
 62
7
 10
1634.118
 20
-8380.240
 30
-965.000
 70
    32
  0
VERTEX
  8
6200LEVEL
 62
7
 10
1602.154
 20
-8337.561
 30
-965.000
 70
    32
  0
VERTEX
  8
6200LEVEL
 62
7
 10
1572.108
 20
-8293.952
 30
-965.000
 70
    32
  0
VERTEX
  8
6200LEVEL
 62
7
 10
1583.702
 20
-8366.110
 30
-965.000
 70
    32
  0
VERTEX
  8
6200LEVEL
 62
7
 10
1583.878
 20
-8406.387
 30
-965.000
 70
    32
  0
VERTEX
  8
6200LEVEL
 62
7
 10
1553.223
 20
-8351.606
 30
-965.000
 70
    32
  0
VERTEX
  8
6200LEVEL
 62
7
 10
1536.059
 20
-8275.228
 30
-965.000
 70
    32
  0
VERTEX
  8
6200LEVEL
 62
7
 10
1534.832
 20
-8197.841
 30
-965.000
 70
    32
  0
VERTEX
  8
6200LEVEL
 62
7
 10
1533.651
 20
-8162.321
 30
-965.000
 70
    32
  0
VERTEX
  8
6200LEVEL
 62
7
 10
1470.073
 20
-8162.101
 30
-965.000
 70
    32
  0
VERTEX
  8
6200LEVEL
 62
7
 10
1474.545
 20
-8110.793
 30
-965.000
 70
    32
  0
VERTEX
  8
6200LEVEL
 62
7
 10
1469.860
 20
-8065.974
 30
-965.000
 70
    32
  0
VERTEX
  8
6200LEVEL
 62
7
 10
1418.235
 20
-8026.483
 30
-965.000
 70
    32
  0
VERTEX
  8
6200LEVEL
 62
7
 10
1386.128
 20
-7989.062
 30
-965.000
 70
    32
  0
VERTEX
  8
6200LEVEL
 62
7
 10
1384.828
 20
-7933.249
 30
-965.000
 70
    32
  0
VERTEX
  8
6200LEVEL
 62
7
 10
1372.043
 20
-7972.826
 30
-965.000
 70
    32
  0
VERTEX
  8
6200LEVEL
 62
7
 10
1370.124
 20
-8028.342
 30
-965.000
 70
    32
  0
VERTEX
  8
6200LEVEL
 62
7
 10
1402.891
 20
-8085.496
 30
-965.000
 70
    32
  0
VERTEX
  8
6200LEVEL
 62
7
 10
1436.680
 20
-8130.750
 30
-965.000
 70
    32
  0
VERTEX
  8
6200LEVEL
 62
7
 10
1476.043
 20
-8200.851
 30
-965.000
 70
    32
  0
VERTEX
  8
6200LEVEL
 62
7
 10
1426.754
 20
-8157.985
 30
-965.000
 70
    32
  0
VERTEX
  8
6200LEVEL
 62
7
 10
1454.907
 20
-8217.119
 30
-965.000
 70
    32
  0
VERTEX
  8
6200LEVEL
 62
7
 10
1416.886
 20
-8180.451
 30
-965.000
 70
    32
  0
VERTEX
  8
6200LEVEL
 62
7
 10
1396.488
 20
-8140.751
 30
-965.000
 70
    32
  0
VERTEX
  8
6200LEVEL
 62
7
 10
1402.772
 20
-8193.892
 30
-965.000
 70
    32
  0
VERTEX
  8
6200LEVEL
 62
7
 10
1422.668
 20
-8226.212
 30
-965.000
 70
    32
  0
VERTEX
  8
6200LEVEL
 62
7
 10
1460.882
 20
-8276.497
 30
-965.000
 70
    32
  0
VERTEX
  8
6200LEVEL
 62
7
 10
1495.269
 20
-8325.626
 30
-965.000
 70
    32
  0
VERTEX
  8
6200LEVEL
 62
7
 10
1508.388
 20
-8393.265
 30
-965.000
 70
    32
  0
VERTEX
  8
6200LEVEL
 62
7
 10
1534.599
 20
-8459.363
 30
-965.000
 70
    32
  0
VERTEX
  8
6200LEVEL
 62
7
 10
1569.303
 20
-8488.925
 30
-965.000
 70
    32
  0
VERTEX
  8
6200LEVEL
 62
7
 10
1578.950
 20
-8547.420
 30
-965.000
 70
    32
  0
VERTEX
  8
6200LEVEL
 62
7
 10
1580.764
 20
-8607.597
 30
-965.000
 70
    32
  0
VERTEX
  8
6200LEVEL
 62
7
 10
1560.058
 20
-8683.304
 30
-965.000
 70
    32
  0
SEQEND
  8
6200LEVEL
  0
POLYLINE
  8
6200LEVEL
 62
7
 66
     1
 70
     8
  0
VERTEX
  8
6200LEVEL
 62
7
 10
1030.086
 20
-6695.777
 30
-965.000
 70
    32
  0
VERTEX
  8
6200LEVEL
 62
7
 10
1038.237
 20
-6729.113
 30
-965.000
 70
    32
  0
VERTEX
  8
6200LEVEL
 62
7
 10
1023.741
 20
-6774.150
 30
-965.000
 70
    32
  0
VERTEX
  8
6200LEVEL
 62
7
 10
1040.139
 20
-6809.739
 30
-965.000
 70
    32
  0
VERTEX
  8
6200LEVEL
 62
7
 10
1052.657
 20
-6852.566
 30
-965.000
 70
    32
  0
VERTEX
  8
6200LEVEL
 62
7
 10
1062.468
 20
-6870.448
 30
-965.000
 70
    32
  0
VERTEX
  8
6200LEVEL
 62
7
 10
1077.488
 20
-6937.788
 30
-965.000
 70
    32
  0
VERTEX
  8
6200LEVEL
 62
7
 10
1096.782
 20
-6968.647
 30
-965.000
 70
    32
  0
VERTEX
  8
6200LEVEL
 62
7
 10
1098.855
 20
-7090.081
 30
-965.000
 70
    32
  0
VERTEX
  8
6200LEVEL
 62
7
 10
1103.801
 20
-7122.241
 30
-965.000
 70
    32
  0
VERTEX
  8
6200LEVEL
 62
7
 10
1119.912
 20
-7159.448
 30
-965.000
 70
    32
  0
VERTEX
  8
6200LEVEL
 62
7
 10
1106.387
 20
-7172.381
 30
-965.000
 70
    32
  0
VERTEX
  8
6200LEVEL
 62
7
 10
1113.548
 20
-7203.818
 30
-965.000
 70
    32
  0
VERTEX
  8
6200LEVEL
 62
7
 10
1103.403
 20
-7230.281
 30
-965.000
 70
    32
  0
VERTEX
  8
6200LEVEL
 62
7
 10
1069.391
 20
-7276.840
 30
-965.000
 70
    32
  0
VERTEX
  8
6200LEVEL
 62
7
 10
1054.792
 20
-7370.073
 30
-965.000
 70
    32
  0
VERTEX
  8
6200LEVEL
 62
7
 10
1068.853
 20
-7450.991
 30
-965.000
 70
    32
  0
VERTEX
  8
6200LEVEL
 62
7
 10
1082.973
 20
-7512.763
 30
-965.000
 70
    32
  0
VERTEX
  8
6200LEVEL
 62
7
 10
1092.873
 20
-7426.661
 30
-965.000
 70
    32
  0
VERTEX
  8
6200LEVEL
 62
7
 10
1100.978
 20
-7511.126
 30
-965.000
 70
    32
  0
VERTEX
  8
6200LEVEL
 62
7
 10
1084.891
 20
-7591.939
 30
-965.000
 70
    32
  0
VERTEX
  8
6200LEVEL
 62
7
 10
1112.570
 20
-7658.532
 30
-965.000
 70
    32
  0
VERTEX
  8
6200LEVEL
 62
7
 10
1143.088
 20
-7650.238
 30
-965.000
 70
    32
  0
VERTEX
  8
6200LEVEL
 62
7
 10
1165.992
 20
-7704.510
 30
-965.000
 70
    32
  0
VERTEX
  8
6200LEVEL
 62
7
 10
1180.703
 20
-7771.973
 30
-965.000
 70
    32
  0
VERTEX
  8
6200LEVEL
 62
7
 10
1200.091
 20
-7852.699
 30
-965.000
 70
    32
  0
VERTEX
  8
6200LEVEL
 62
7
 10
1203.234
 20
-7884.427
 30
-965.000
 70
    32
  0
VERTEX
  8
6200LEVEL
 62
7
 10
1193.619
 20
-7915.740
 30
-965.000
 70
    32
  0
VERTEX
  8
6200LEVEL
 62
7
 10
1173.834
 20
-7952.112
 30
-965.000
 70
    32
  0
VERTEX
  8
6200LEVEL
 62
7
 10
1153.107
 20
-7989.580
 30
-965.000
 70
    32
  0
VERTEX
  8
6200LEVEL
 62
7
 10
1135.648
 20
-8025.593
 30
-965.000
 70
    32
  0
VERTEX
  8
6200LEVEL
 62
7
 10
1127.499
 20
-8057.156
 30
-965.000
 70
    32
  0
VERTEX
  8
6200LEVEL
 62
7
 10
1144.547
 20
-8098.801
 30
-965.000
 70
    32
  0
VERTEX
  8
6200LEVEL
 62
7
 10
1161.070
 20
-8139.099
 30
-965.000
 70
    32
  0
VERTEX
  8
6200LEVEL
 62
7
 10
1168.172
 20
-8169.741
 30
-965.000
 70
    32
  0
VERTEX
  8
6200LEVEL
 62
7
 10
1164.689
 20
-8218.198
 30
-965.000
 70
    32
  0
VERTEX
  8
6200LEVEL
 62
7
 10
1158.487
 20
-8263.426
 30
-965.000
 70
    32
  0
VERTEX
  8
6200LEVEL
 62
7
 10
1141.892
 20
-8220.600
 30
-965.000
 70
    32
  0
VERTEX
  8
6200LEVEL
 62
7
 10
1138.648
 20
-8270.608
 30
-965.000
 70
    32
  0
VERTEX
  8
6200LEVEL
 62
7
 10
1127.296
 20
-8264.899
 30
-965.000
 70
    32
  0
VERTEX
  8
6200LEVEL
 62
7
 10
1130.013
 20
-8312.402
 30
-965.000
 70
    32
  0
VERTEX
  8
6200LEVEL
 62
7
 10
1157.165
 20
-8322.817
 30
-965.000
 70
    32
  0
VERTEX
  8
6200LEVEL
 62
7
 10
1207.714
 20
-8345.019
 30
-965.000
 70
    32
  0
VERTEX
  8
6200LEVEL
 62
7
 10
1211.299
 20
-8378.583
 30
-965.000
 70
    32
  0
VERTEX
  8
6200LEVEL
 62
7
 10
1210.346
 20
-8437.282
 30
-965.000
 70
    32
  0
VERTEX
  8
6200LEVEL
 62
7
 10
1212.552
 20
-8490.735
 30
-965.000
 70
    32
  0
VERTEX
  8
6200LEVEL
 62
7
 10
1244.672
 20
-8535.453
 30
-965.000
 70
    32
  0
VERTEX
  8
6200LEVEL
 62
7
 10
1274.120
 20
-8575.187
 30
-965.000
 70
    32
  0
VERTEX
  8
6200LEVEL
 62
7
 10
1301.521
 20
-8628.407
 30
-965.000
 70
    32
  0
SEQEND
  8
6200LEVEL
  0
POLYLINE
  8
6200LEVEL
 62
3
 66
     1
 70
     8
  0
VERTEX
  8
6200LEVEL
 62
3
 10
7096.955
 20
-7522.720
 30
-965.000
 70
    32
  0
VERTEX
  8
6200LEVEL
 62
3
 10
7091.794
 20
-7514.765
 30
-965.000
 70
    32
  0
VERTEX
  8
6200LEVEL
 62
3
 10
7085.387
 20
-7502.038
 30
-965.000
 70
    32
  0
VERTEX
  8
6200LEVEL
 62
3
 10
7071.519
 20
-7492.429
 30
-965.000
 70
    32
  0
SEQEND
  8
6200LEVEL
  0
POLYLINE
  8
6200LEVEL
 62
3
 66
     1
 70
     8
  0
VERTEX
  8
6200LEVEL
 62
3
 10
5878.264
 20
-10272.923
 30
-965.000
 70
    32
  0
VERTEX
  8
6200LEVEL
 62
3
 10
5898.018
 20
-10292.974
 30
-965.000
 70
    32
  0
VERTEX
  8
6200LEVEL
 62
3
 10
5914.458
 20
-10313.387
 30
-965.000
 70
    32
  0
VERTEX
  8
6200LEVEL
 62
3
 10
5938.065
 20
-10369.234
 30
-965.000
 70
    32
  0
VERTEX
  8
6200LEVEL
 62
3
 10
5952.406
 20
-10402.017
 30
-965.000
 70
    32
  0
VERTEX
  8
6200LEVEL
 62
3
 10
5965.130
 20
-10433.584
 30
-965.000
 70
    32
  0
SEQEND
  8
6200LEVEL
  0
POLYLINE
  8
6200LEVEL
 62
3
 66
     1
 70
     8
  0
VERTEX
  8
6200LEVEL
 62
3
 10
5733.856
 20
-10076.091
 30
-965.000
 70
    32
  0
VERTEX
  8
6200LEVEL
 62
3
 10
5739.162
 20
-10086.090
 30
-965.000
 70
    32
  0
VERTEX
  8
6200LEVEL
 62
3
 10
5742.385
 20
-10119.071
 30
-965.000
 70
    32
  0
VERTEX
  8
6200LEVEL
 62
3
 10
5735.220
 20
-10138.493
 30
-965.000
 70
    32
  0
SEQEND
  8
6200LEVEL
  0
POLYLINE
  8
6200LEVEL
 62
3
 66
     1
 70
     8
  0
VERTEX
  8
6200LEVEL
 62
3
 10
5686.575
 20
-10157.538
 30
-965.000
 70
    32
  0
VERTEX
  8
6200LEVEL
 62
3
 10
5662.674
 20
-10141.630
 30
-965.000
 70
    32
  0
VERTEX
  8
6200LEVEL
 62
3
 10
5648.709
 20
-10086.470
 30
-965.000
 70
    32
  0
VERTEX
  8
6200LEVEL
 62
3
 10
5642.630
 20
-10066.077
 30
-965.000
 70
    32
  0
SEQEND
  8
6200LEVEL
  0
POLYLINE
  8
6200LEVEL
 62
5
 66
     1
 70
     9
  0
VERTEX
  8
6200LEVEL
 62
5
 10
7100.723
 20
-7741.003
 30
-965.000
 70
    32
  0
VERTEX
  8
6200LEVEL
 62
5
 10
7111.978
 20
-7763.735
 30
-965.000
 70
    32
  0
VERTEX
  8
6200LEVEL
 62
5
 10
7136.614
 20
-7808.528
 30
-965.000
 70
    32
  0
VERTEX
  8
6200LEVEL
 62
5
 10
7162.048
 20
-7856.223
 30
-965.000
 70
    32
  0
VERTEX
  8
6200LEVEL
 62
5
 10
7187.361
 20
-7898.349
 30
-965.000
 70
    32
  0
VERTEX
  8
6200LEVEL
 62
5
 10
7216.551
 20
-7962.030
 30
-965.000
 70
    32
  0
VERTEX
  8
6200LEVEL
 62
5
 10
7181.197
 20
-7930.661
 30
-965.000
 70
    32
  0
VERTEX
  8
6200LEVEL
 62
5
 10
7154.347
 20
-7861.805
 30
-965.000
 70
    32
  0
VERTEX
  8
6200LEVEL
 62
5
 10
7122.967
 20
-7807.107
 30
-965.000
 70
    32
  0
VERTEX
  8
6200LEVEL
 62
5
 10
7090.690
 20
-7746.970
 30
-965.000
 70
    32
  0
SEQEND
  8
6200LEVEL
  0
POLYLINE
  8
6200LEVEL
 62
5
 66
     1
 70
     9
  0
VERTEX
  8
6200LEVEL
 62
5
 10
6845.586
 20
-7922.016
 30
-965.000
 70
    32
  0
VERTEX
  8
6200LEVEL
 62
5
 10
6866.458
 20
-7955.615
 30
-965.000
 70
    32
  0
VERTEX
  8
6200LEVEL
 62
5
 10
6890.521
 20
-8018.225
 30
-965.000
 70
    32
  0
VERTEX
  8
6200LEVEL
 62
5
 10
6918.536
 20
-8071.881
 30
-965.000
 70
    32
  0
VERTEX
  8
6200LEVEL
 62
5
 10
6932.722
 20
-8092.054
 30
-965.000
 70
    32
  0
VERTEX
  8
6200LEVEL
 62
5
 10
6945.786
 20
-8133.487
 30
-965.000
 70
    32
  0
VERTEX
  8
6200LEVEL
 62
5
 10
6966.814
 20
-8183.506
 30
-965.000
 70
    32
  0
VERTEX
  8
6200LEVEL
 62
5
 10
6984.374
 20
-8247.349
 30
-965.000
 70
    32
  0
VERTEX
  8
6200LEVEL
 62
5
 10
6971.235
 20
-8236.425
 30
-965.000
 70
    32
  0
VERTEX
  8
6200LEVEL
 62
5
 10
6989.358
 20
-8304.646
 30
-965.000
 70
    32
  0
VERTEX
  8
6200LEVEL
 62
5
 10
6965.686
 20
-8256.980
 30
-965.000
 70
    32
  0
VERTEX
  8
6200LEVEL
 62
5
 10
6956.143
 20
-8215.604
 30
-965.000
 70
    32
  0
VERTEX
  8
6200LEVEL
 62
5
 10
6968.819
 20
-8224.689
 30
-965.000
 70
    32
  0
VERTEX
  8
6200LEVEL
 62
5
 10
6949.924
 20
-8169.209
 30
-965.000
 70
    32
  0
VERTEX
  8
6200LEVEL
 62
5
 10
6931.391
 20
-8130.434
 30
-965.000
 70
    32
  0
VERTEX
  8
6200LEVEL
 62
5
 10
6909.045
 20
-8079.196
 30
-965.000
 70
    32
  0
VERTEX
  8
6200LEVEL
 62
5
 10
6879.968
 20
-8025.875
 30
-965.000
 70
    32
  0
VERTEX
  8
6200LEVEL
 62
5
 10
6857.559
 20
-7965.546
 30
-965.000
 70
    32
  0
VERTEX
  8
6200LEVEL
 62
5
 10
6844.364
 20
-7940.739
 30
-965.000
 70
    32
  0
SEQEND
  8
6200LEVEL
  0
POLYLINE
  8
6200LEVEL
 62
5
 66
     1
 70
     9
  0
VERTEX
  8
6200LEVEL
 62
5
 10
7013.359
 20
-8524.574
 30
-965.000
 70
    32
  0
VERTEX
  8
6200LEVEL
 62
5
 10
7033.595
 20
-8558.023
 30
-965.000
 70
    32
  0
VERTEX
  8
6200LEVEL
 62
5
 10
7063.106
 20
-8609.255
 30
-965.000
 70
    32
  0
VERTEX
  8
6200LEVEL
 62
5
 10
7029.380
 20
-8561.833
 30
-965.000
 70
    32
  0
SEQEND
  8
6200LEVEL
  0
POLYLINE
  8
6200LEVEL
 62
5
 66
     1
 70
     9
  0
VERTEX
  8
6200LEVEL
 62
5
 10
6756.905
 20
-8735.152
 30
-965.000
 70
    32
  0
VERTEX
  8
6200LEVEL
 62
5
 10
6767.673
 20
-8752.147
 30
-965.000
 70
    32
  0
VERTEX
  8
6200LEVEL
 62
5
 10
6875.970
 20
-8927.041
 30
-965.000
 70
    32
  0
VERTEX
  8
6200LEVEL
 62
5
 10
6881.508
 20
-8935.693
 30
-965.000
 70
    32
  0
VERTEX
  8
6200LEVEL
 62
5
 10
6897.814
 20
-8959.485
 30
-965.000
 70
    32
  0
VERTEX
  8
6200LEVEL
 62
5
 10
6885.815
 20
-8954.851
 30
-965.000
 70
    32
  0
VERTEX
  8
6200LEVEL
 62
5
 10
6870.125
 20
-8931.058
 30
-965.000
 70
    32
  0
VERTEX
  8
6200LEVEL
 62
5
 10
6810.131
 20
-8828.470
 30
-965.000
 70
    32
  0
VERTEX
  8
6200LEVEL
 62
5
 10
6766.135
 20
-8753.692
 30
-965.000
 70
    32
  0
SEQEND
  8
6200LEVEL
  0
POLYLINE
  8
6200LEVEL
 62
5
 66
     1
 70
     9
  0
VERTEX
  8
6200LEVEL
 62
5
 10
5667.993
 20
-8593.267
 30
-965.000
 70
    32
  0
VERTEX
  8
6200LEVEL
 62
5
 10
5695.707
 20
-8656.712
 30
-965.000
 70
    32
  0
VERTEX
  8
6200LEVEL
 62
5
 10
5700.086
 20
-8703.570
 30
-965.000
 70
    32
  0
VERTEX
  8
6200LEVEL
 62
5
 10
5659.484
 20
-8682.967
 30
-965.000
 70
    32
  0
VERTEX
  8
6200LEVEL
 62
5
 10
5640.016
 20
-8645.305
 30
-965.000
 70
    32
  0
VERTEX
  8
6200LEVEL
 62
5
 10
5654.659
 20
-8607.283
 30
-965.000
 70
    32
  0
SEQEND
  8
6200LEVEL
  0
POLYLINE
  8
6200LEVEL
 62
5
 66
     1
 70
     9
  0
VERTEX
  8
6200LEVEL
 62
5
 10
5662.998
 20
-8752.641
 30
-965.000
 70
    32
  0
VERTEX
  8
6200LEVEL
 62
5
 10
5705.600
 20
-8801.814
 30
-965.000
 70
    32
  0
VERTEX
  8
6200LEVEL
 62
5
 10
5673.388
 20
-8798.188
 30
-965.000
 70
    32
  0
VERTEX
  8
6200LEVEL
 62
5
 10
5650.362
 20
-8767.021
 30
-965.000
 70
    32
  0
SEQEND
  8
6200LEVEL
  0
POLYLINE
  8
6200LEVEL
 62
5
 66
     1
 70
     9
  0
VERTEX
  8
6200LEVEL
 62
5
 10
5708.360
 20
-8857.242
 30
-965.000
 70
    32
  0
VERTEX
  8
6200LEVEL
 62
5
 10
5666.408
 20
-8854.585
 30
-965.000
 70
    32
  0
VERTEX
  8
6200LEVEL
 62
5
 10
5710.604
 20
-8879.545
 30
-965.000
 70
    32
  0
SEQEND
  8
6200LEVEL
  0
POLYLINE
  8
6200LEVEL
 62
5
 66
     1
 70
     9
  0
VERTEX
  8
6200LEVEL
 62
5
 10
5709.690
 20
-8883.688
 30
-965.000
 70
    32
  0
VERTEX
  8
6200LEVEL
 62
5
 10
5665.763
 20
-8885.508
 30
-965.000
 70
    32
  0
VERTEX
  8
6200LEVEL
 62
5
 10
5676.995
 20
-8922.613
 30
-965.000
 70
    32
  0
VERTEX
  8
6200LEVEL
 62
5
 10
5702.814
 20
-8972.640
 30
-965.000
 70
    32
  0
VERTEX
  8
6200LEVEL
 62
5
 10
5746.253
 20
-9000.758
 30
-965.000
 70
    32
  0
VERTEX
  8
6200LEVEL
 62
5
 10
5708.934
 20
-8951.671
 30
-965.000
 70
    32
  0
VERTEX
  8
6200LEVEL
 62
5
 10
5703.854
 20
-8921.853
 30
-965.000
 70
    32
  0
VERTEX
  8
6200LEVEL
 62
5
 10
5727.996
 20
-8919.147
 30
-965.000
 70
    32
  0
SEQEND
  8
6200LEVEL
  0
POLYLINE
  8
6200LEVEL
 62
5
 66
     1
 70
     9
  0
VERTEX
  8
6200LEVEL
 62
5
 10
5715.926
 20
-9145.687
 30
-965.000
 70
    32
  0
VERTEX
  8
6200LEVEL
 62
5
 10
5743.641
 20
-9208.438
 30
-965.000
 70
    32
  0
VERTEX
  8
6200LEVEL
 62
5
 10
5794.057
 20
-9262.389
 30
-965.000
 70
    32
  0
VERTEX
  8
6200LEVEL
 62
5
 10
5789.336
 20
-9278.771
 30
-965.000
 70
    32
  0
VERTEX
  8
6200LEVEL
 62
5
 10
5732.286
 20
-9215.378
 30
-965.000
 70
    32
  0
VERTEX
  8
6200LEVEL
 62
5
 10
5710.053
 20
-9168.358
 30
-965.000
 70
    32
  0
SEQEND
  8
6200LEVEL
  0
POLYLINE
  8
6200LEVEL
 62
5
 66
     1
 70
     9
  0
VERTEX
  8
6200LEVEL
 62
5
 10
6296.167
 20
-9871.693
 30
-965.000
 70
    32
  0
VERTEX
  8
6200LEVEL
 62
5
 10
6335.910
 20
-9927.724
 30
-965.000
 70
    32
  0
VERTEX
  8
6200LEVEL
 62
5
 10
6375.417
 20
-9985.232
 30
-965.000
 70
    32
  0
VERTEX
  8
6200LEVEL
 62
5
 10
6387.212
 20
-10026.715
 30
-965.000
 70
    32
  0
VERTEX
  8
6200LEVEL
 62
5
 10
6330.915
 20
-9957.448
 30
-965.000
 70
    32
  0
VERTEX
  8
6200LEVEL
 62
5
 10
6290.817
 20
-9897.324
 30
-965.000
 70
    32
  0
SEQEND
  8
6200LEVEL
  0
POLYLINE
  8
6200LEVEL
 62
5
 66
     1
 70
     9
  0
VERTEX
  8
6200LEVEL
 62
5
 10
6382.861
 20
-10042.921
 30
-965.000
 70
    32
  0
VERTEX
  8
6200LEVEL
 62
5
 10
6415.144
 20
-10115.671
 30
-965.000
 70
    32
  0
VERTEX
  8
6200LEVEL
 62
5
 10
6437.922
 20
-10163.836
 30
-965.000
 70
    32
  0
VERTEX
  8
6200LEVEL
 62
5
 10
6455.644
 20
-10215.965
 30
-965.000
 70
    32
  0
VERTEX
  8
6200LEVEL
 62
5
 10
6475.581
 20
-10268.080
 30
-965.000
 70
    32
  0
VERTEX
  8
6200LEVEL
 62
5
 10
6491.581
 20
-10319.567
 30
-965.000
 70
    32
  0
VERTEX
  8
6200LEVEL
 62
5
 10
6458.825
 20
-10267.173
 30
-965.000
 70
    32
  0
VERTEX
  8
6200LEVEL
 62
5
 10
6412.694
 20
-10183.796
 30
-965.000
 70
    32
  0
VERTEX
  8
6200LEVEL
 62
5
 10
6399.417
 20
-10148.867
 30
-965.000
 70
    32
  0
VERTEX
  8
6200LEVEL
 62
5
 10
6380.497
 20
-10092.980
 30
-965.000
 70
    32
  0
VERTEX
  8
6200LEVEL
 62
5
 10
6363.309
 20
-10057.963
 30
-965.000
 70
    32
  0
SEQEND
  8
6200LEVEL
  0
POLYLINE
  8
6200LEVEL
 62
5
 66
     1
 70
     9
  0
VERTEX
  8
6200LEVEL
 62
5
 10
6257.817
 20
-9916.022
 30
-965.000
 70
    32
  0
VERTEX
  8
6200LEVEL
 62
5
 10
6323.403
 20
-10014.139
 30
-965.000
 70
    32
  0
VERTEX
  8
6200LEVEL
 62
5
 10
6358.152
 20
-10076.058
 30
-965.000
 70
    32
  0
VERTEX
  8
6200LEVEL
 62
5
 10
6399.417
 20
-10193.111
 30
-965.000
 70
    32
  0
VERTEX
  8
6200LEVEL
 62
5
 10
6411.367
 20
-10216.397
 30
-965.000
 70
    32
  0
VERTEX
  8
6200LEVEL
 62
5
 10
6401.741
 20
-10215.399
 30
-965.000
 70
    32
  0
VERTEX
  8
6200LEVEL
 62
5
 10
6391.782
 20
-10198.433
 30
-965.000
 70
    32
  0
VERTEX
  8
6200LEVEL
 62
5
 10
6303.819
 20
-10028.111
 30
-965.000
 70
    32
  0
VERTEX
  8
6200LEVEL
 62
5
 10
6261.663
 20
-9966.901
 30
-965.000
 70
    32
  0
VERTEX
  8
6200LEVEL
 62
5
 10
6227.101
 20
-9915.662
 30
-965.000
 70
    32
  0
SEQEND
  8
6200LEVEL
  0
POLYLINE
  8
6200LEVEL
 62
5
 66
     1
 70
     9
  0
VERTEX
  8
6200LEVEL
 62
5
 10
6456.478
 20
-10277.140
 30
-965.000
 70
    32
  0
VERTEX
  8
6200LEVEL
 62
5
 10
6481.263
 20
-10325.741
 30
-965.000
 70
    32
  0
VERTEX
  8
6200LEVEL
 62
5
 10
6447.778
 20
-10292.148
 30
-965.000
 70
    32
  0
VERTEX
  8
6200LEVEL
 62
5
 10
6427.306
 20
-10251.298
 30
-965.000
 70
    32
  0
SEQEND
  8
6200LEVEL
  0
POLYLINE
  8
6200LEVEL
 62
5
 66
     1
 70
     9
  0
VERTEX
  8
6200LEVEL
 62
5
 10
6638.795
 20
-11026.873
 30
-965.000
 70
    32
  0
VERTEX
  8
6200LEVEL
 62
5
 10
6627.999
 20
-10975.964
 30
-965.000
 70
    32
  0
VERTEX
  8
6200LEVEL
 62
5
 10
6607.236
 20
-10922.708
 30
-965.000
 70
    32
  0
VERTEX
  8
6200LEVEL
 62
5
 10
6591.042
 20
-10878.757
 30
-965.000
 70
    32
  0
VERTEX
  8
6200LEVEL
 62
5
 10
6584.189
 20
-10823.685
 30
-965.000
 70
    32
  0
VERTEX
  8
6200LEVEL
 62
5
 10
6566.575
 20
-10793.381
 30
-965.000
 70
    32
  0
VERTEX
  8
6200LEVEL
 62
5
 10
6562.084
 20
-10848.409
 30
-965.000
 70
    32
  0
VERTEX
  8
6200LEVEL
 62
5
 10
6589.313
 20
-10906.985
 30
-965.000
 70
    32
  0
VERTEX
  8
6200LEVEL
 62
5
 10
6603.325
 20
-10955.128
 30
-965.000
 70
    32
  0
VERTEX
  8
6200LEVEL
 62
5
 10
6619.854
 20
-11000.141
 30
-965.000
 70
    32
  0
SEQEND
  8
6200LEVEL
  0
POLYLINE
  8
6200LEVEL
 62
5
 66
     1
 70
     9
  0
VERTEX
  8
6200LEVEL
 62
5
 10
6545.177
 20
-11167.820
 30
-965.000
 70
    32
  0
VERTEX
  8
6200LEVEL
 62
5
 10
6524.676
 20
-11128.732
 30
-965.000
 70
    32
  0
VERTEX
  8
6200LEVEL
 62
5
 10
6528.586
 20
-11161.138
 30
-965.000
 70
    32
  0
VERTEX
  8
6200LEVEL
 62
5
 10
6537.583
 20
-11171.149
 30
-965.000
 70
    32
  0
SEQEND
  8
6200LEVEL
  0
POLYLINE
  8
6200LEVEL
 62
5
 66
     1
 70
     9
  0
VERTEX
  8
6200LEVEL
 62
5
 10
6521.854
 20
-11176.459
 30
-965.000
 70
    32
  0
VERTEX
  8
6200LEVEL
 62
5
 10
6500.034
 20
-11136.151
 30
-965.000
 70
    32
  0
VERTEX
  8
6200LEVEL
 62
5
 10
6497.999
 20
-11161.555
 30
-965.000
 70
    32
  0
VERTEX
  8
6200LEVEL
 62
5
 10
6512.135
 20
-11180.458
 30
-965.000
 70
    32
  0
SEQEND
  8
6200LEVEL
  0
POLYLINE
  8
6200LEVEL
 62
5
 66
     1
 70
     9
  0
VERTEX
  8
6200LEVEL
 62
5
 10
4395.906
 20
-10063.920
 30
-965.000
 70
    32
  0
VERTEX
  8
6200LEVEL
 62
5
 10
4381.190
 20
-10067.626
 30
-965.000
 70
    32
  0
VERTEX
  8
6200LEVEL
 62
5
 10
4355.283
 20
-10040.287
 30
-965.000
 70
    32
  0
VERTEX
  8
6200LEVEL
 62
5
 10
4332.678
 20
-10004.898
 30
-965.000
 70
    32
  0
VERTEX
  8
6200LEVEL
 62
5
 10
4305.567
 20
-9969.295
 30
-965.000
 70
    32
  0
VERTEX
  8
6200LEVEL
 62
5
 10
4281.002
 20
-9928.802
 30
-965.000
 70
    32
  0
VERTEX
  8
6200LEVEL
 62
5
 10
4294.308
 20
-9916.547
 30
-965.000
 70
    32
  0
VERTEX
  8
6200LEVEL
 62
5
 10
4310.897
 20
-9948.183
 30
-965.000
 70
    32
  0
VERTEX
  8
6200LEVEL
 62
5
 10
4342.773
 20
-9987.280
 30
-965.000
 70
    32
  0
VERTEX
  8
6200LEVEL
 62
5
 10
4366.192
 20
-10019.860
 30
-965.000
 70
    32
  0
SEQEND
  8
6200LEVEL
  0
POLYLINE
  8
6200LEVEL
 62
5
 66
     1
 70
     9
  0
VERTEX
  8
6200LEVEL
 62
5
 10
3418.169
 20
-8367.972
 30
-965.000
 70
    32
  0
VERTEX
  8
6200LEVEL
 62
5
 10
3415.432
 20
-8391.402
 30
-965.000
 70
    32
  0
VERTEX
  8
6200LEVEL
 62
5
 10
3402.009
 20
-8405.212
 30
-965.000
 70
    32
  0
VERTEX
  8
6200LEVEL
 62
5
 10
3402.779
 20
-8384.465
 30
-965.000
 70
    32
  0
VERTEX
  8
6200LEVEL
 62
5
 10
3410.955
 20
-8367.496
 30
-965.000
 70
    32
  0
SEQEND
  8
6200LEVEL
  0
POLYLINE
  8
6200LEVEL
 62
5
 66
     1
 70
     9
  0
VERTEX
  8
6200LEVEL
 62
5
 10
3337.850
 20
-8304.974
 30
-965.000
 70
    32
  0
VERTEX
  8
6200LEVEL
 62
5
 10
3340.885
 20
-8332.910
 30
-965.000
 70
    32
  0
VERTEX
  8
6200LEVEL
 62
5
 10
3328.001
 20
-8355.365
 30
-965.000
 70
    32
  0
VERTEX
  8
6200LEVEL
 62
5
 10
3320.854
 20
-8336.790
 30
-965.000
 70
    32
  0
VERTEX
  8
6200LEVEL
 62
5
 10
3328.289
 20
-8310.890
 30
-965.000
 70
    32
  0
SEQEND
  8
6200LEVEL
  0
POLYLINE
  8
6200LEVEL
 62
5
 66
     1
 70
     9
  0
VERTEX
  8
6200LEVEL
 62
5
 10
3036.874
 20
-9344.366
 30
-965.000
 70
    32
  0
VERTEX
  8
6200LEVEL
 62
5
 10
3016.064
 20
-9327.738
 30
-965.000
 70
    32
  0
VERTEX
  8
6200LEVEL
 62
5
 10
2996.157
 20
-9298.434
 30
-965.000
 70
    32
  0
VERTEX
  8
6200LEVEL
 62
5
 10
2972.541
 20
-9268.750
 30
-965.000
 70
    32
  0
VERTEX
  8
6200LEVEL
 62
5
 10
2970.223
 20
-9245.464
 30
-965.000
 70
    32
  0
VERTEX
  8
6200LEVEL
 62
5
 10
2994.219
 20
-9271.440
 30
-965.000
 70
    32
  0
VERTEX
  8
6200LEVEL
 62
5
 10
3016.523
 20
-9302.913
 30
-965.000
 70
    32
  0
VERTEX
  8
6200LEVEL
 62
5
 10
3027.092
 20
-9322.071
 30
-965.000
 70
    32
  0
SEQEND
  8
6200LEVEL
  0
POLYLINE
  8
6200LEVEL
 62
5
 66
     1
 70
     9
  0
VERTEX
  8
6200LEVEL
 62
5
 10
2874.174
 20
-9115.388
 30
-965.000
 70
    32
  0
VERTEX
  8
6200LEVEL
 62
5
 10
2866.050
 20
-9151.232
 30
-965.000
 70
    32
  0
VERTEX
  8
6200LEVEL
 62
5
 10
2852.702
 20
-9177.884
 30
-965.000
 70
    32
  0
VERTEX
  8
6200LEVEL
 62
5
 10
2851.264
 20
-9147.957
 30
-965.000
 70
    32
  0
VERTEX
  8
6200LEVEL
 62
5
 10
2861.537
 20
-9126.063
 30
-965.000
 70
    32
  0
SEQEND
  8
6200LEVEL
  0
POLYLINE
  8
6200LEVEL
 62
7
 66
     1
 70
     8
  0
VERTEX
  8
6200LEVEL
 62
7
 10
1326.010
 20
-8620.508
 30
-965.000
 70
    32
  0
VERTEX
  8
6200LEVEL
 62
7
 10
1298.098
 20
-8573.238
 30
-965.000
 70
    32
  0
VERTEX
  8
6200LEVEL
 62
7
 10
1267.037
 20
-8517.884
 30
-965.000
 70
    32
  0
VERTEX
  8
6200LEVEL
 62
7
 10
1241.578
 20
-8457.700
 30
-965.000
 70
    32
  0
VERTEX
  8
6200LEVEL
 62
7
 10
1249.434
 20
-8395.398
 30
-965.000
 70
    32
  0
VERTEX
  8
6200LEVEL
 62
7
 10
1255.365
 20
-8313.399
 30
-965.000
 70
    32
  0
VERTEX
  8
6200LEVEL
 62
7
 10
1226.244
 20
-8232.509
 30
-965.000
 70
    32
  0
VERTEX
  8
6200LEVEL
 62
7
 10
1215.636
 20
-8210.031
 30
-965.000
 70
    32
  0
VERTEX
  8
6200LEVEL
 62
7
 10
1197.599
 20
-8171.236
 30
-965.000
 70
    32
  0
VERTEX
  8
6200LEVEL
 62
7
 10
1176.390
 20
-8130.391
 30
-965.000
 70
    32
  0
VERTEX
  8
6200LEVEL
 62
7
 10
1163.381
 20
-8076.858
 30
-965.000
 70
    32
  0
VERTEX
  8
6200LEVEL
 62
7
 10
1170.498
 20
-8015.939
 30
-965.000
 70
    32
  0
VERTEX
  8
6200LEVEL
 62
7
 10
1185.797
 20
-7968.993
 30
-965.000
 70
    32
  0
VERTEX
  8
6200LEVEL
 62
7
 10
1203.563
 20
-7916.430
 30
-965.000
 70
    32
  0
VERTEX
  8
6200LEVEL
 62
7
 10
1214.023
 20
-7877.211
 30
-965.000
 70
    32
  0
VERTEX
  8
6200LEVEL
 62
7
 10
1206.739
 20
-7829.936
 30
-965.000
 70
    32
  0
VERTEX
  8
6200LEVEL
 62
7
 10
1198.550
 20
-7758.761
 30
-965.000
 70
    32
  0
VERTEX
  8
6200LEVEL
 62
7
 10
1188.207
 20
-7716.277
 30
-965.000
 70
    32
  0
VERTEX
  8
6200LEVEL
 62
7
 10
1178.490
 20
-7665.136
 30
-965.000
 70
    32
  0
VERTEX
  8
6200LEVEL
 62
7
 10
1160.784
 20
-7614.071
 30
-965.000
 70
    32
  0
VERTEX
  8
6200LEVEL
 62
7
 10
1138.640
 20
-7550.679
 30
-965.000
 70
    32
  0
VERTEX
  8
6200LEVEL
 62
7
 10
1138.339
 20
-7489.866
 30
-965.000
 70
    32
  0
VERTEX
  8
6200LEVEL
 62
7
 10
1133.276
 20
-7435.599
 30
-965.000
 70
    32
  0
VERTEX
  8
6200LEVEL
 62
7
 10
1105.791
 20
-7332.949
 30
-965.000
 70
    32
  0
VERTEX
  8
6200LEVEL
 62
7
 10
1105.019
 20
-7289.548
 30
-965.000
 70
    32
  0
VERTEX
  8
6200LEVEL
 62
7
 10
1137.416
 20
-7223.118
 30
-965.000
 70
    32
  0
VERTEX
  8
6200LEVEL
 62
7
 10
1147.361
 20
-7179.146
 30
-965.000
 70
    32
  0
VERTEX
  8
6200LEVEL
 62
7
 10
1127.869
 20
-7139.352
 30
-965.000
 70
    32
  0
VERTEX
  8
6200LEVEL
 62
7
 10
1109.325
 20
-7082.740
 30
-965.000
 70
    32
  0
VERTEX
  8
6200LEVEL
 62
7
 10
1113.094
 20
-6956.198
 30
-965.000
 70
    32
  0
VERTEX
  8
6200LEVEL
 62
7
 10
1096.957
 20
-6927.443
 30
-965.000
 70
    32
  0
VERTEX
  8
6200LEVEL
 62
7
 10
1071.887
 20
-6863.116
 30
-965.000
 70
    32
  0
VERTEX
  8
6200LEVEL
 62
7
 10
1038.045
 20
-6763.330
 30
-965.000
 70
    32
  0
VERTEX
  8
6200LEVEL
 62
7
 10
1050.684
 20
-6725.450
 30
-965.000
 70
    32
  0
VERTEX
  8
6200LEVEL
 62
7
 10
1043.282
 20
-6634.325
 30
-965.000
 70
    32
  0
VERTEX
  8
6200LEVEL
 62
7
 10
1035.499
 20
-6580.683
 30
-965.000
 70
    32
  0
VERTEX
  8
6200LEVEL
 62
7
 10
1028.739
 20
-6542.858
 30
-965.000
 70
    32
  0
VERTEX
  8
6200LEVEL
 62
7
 10
1005.478
 20
-6494.872
 30
-965.000
 70
    32
  0
VERTEX
  8
6200LEVEL
 62
7
 10
974.500
 20
-6439.029
 30
-965.000
 70
    32
  0
VERTEX
  8
6200LEVEL
 62
7
 10
950.973
 20
-6334.128
 30
-965.000
 70
    32
  0
VERTEX
  8
6200LEVEL
 62
7
 10
925.319
 20
-6234.060
 30
-965.000
 70
    32
  0
VERTEX
  8
6200LEVEL
 62
7
 10
934.680
 20
-6196.037
 30
-965.000
 70
    32
  0
VERTEX
  8
6200LEVEL
 62
7
 10
932.813
 20
-6162.541
 30
-965.000
 70
    32
  0
VERTEX
  8
6200LEVEL
 62
7
 10
957.025
 20
-6120.725
 30
-965.000
 70
    32
  0
VERTEX
  8
6200LEVEL
 62
7
 10
960.196
 20
-6086.984
 30
-965.000
 70
    32
  0
VERTEX
  8
6200LEVEL
 62
7
 10
943.497
 20
-6023.336
 30
-965.000
 70
    32
  0
VERTEX
  8
6200LEVEL
 62
7
 10
933.692
 20
-5984.645
 30
-965.000
 70
    32
  0
VERTEX
  8
6200LEVEL
 62
7
 10
928.000
 20
-5919.714
 30
-965.000
 70
    32
  0
VERTEX
  8
6200LEVEL
 62
7
 10
912.072
 20
-5870.504
 30
-965.000
 70
    32
  0
VERTEX
  8
6200LEVEL
 62
7
 10
875.092
 20
-5773.402
 30
-965.000
 70
    32
  0
VERTEX
  8
6200LEVEL
 62
7
 10
859.231
 20
-5734.162
 30
-965.000
 70
    32
  0
VERTEX
  8
6200LEVEL
 62
7
 10
843.356
 20
-5734.602
 30
-965.000
 70
    32
  0
VERTEX
  8
6200LEVEL
 62
7
 10
818.471
 20
-5691.554
 30
-965.000
 70
    32
  0
VERTEX
  8
6200LEVEL
 62
7
 10
797.123
 20
-5645.266
 30
-965.000
 70
    32
  0
VERTEX
  8
6200LEVEL
 62
7
 10
780.972
 20
-5594.897
 30
-965.000
 70
    32
  0
VERTEX
  8
6200LEVEL
 62
7
 10
788.889
 20
-5559.100
 30
-965.000
 70
    32
  0
VERTEX
  8
6200LEVEL
 62
7
 10
808.150
 20
-5544.398
 30
-965.000
 70
    32
  0
VERTEX
  8
6200LEVEL
 62
7
 10
820.412
 20
-5524.767
 30
-965.000
 70
    32
  0
VERTEX
  8
6200LEVEL
 62
7
 10
821.025
 20
-5513.725
 30
-965.000
 70
    32
  0
VERTEX
  8
6200LEVEL
 62
7
 10
818.573
 20
-5505.750
 30
-965.000
 70
    32
  0
VERTEX
  8
6200LEVEL
 62
7
 10
810.603
 20
-5495.935
 30
-965.000
 70
    32
  0
VERTEX
  8
6200LEVEL
 62
7
 10
813.668
 20
-5510.045
 30
-965.000
 70
    32
  0
VERTEX
  8
6200LEVEL
 62
7
 10
809.376
 20
-5522.313
 30
-965.000
 70
    32
  0
VERTEX
  8
6200LEVEL
 62
7
 10
802.019
 20
-5529.675
 30
-965.000
 70
    32
  0
VERTEX
  8
6200LEVEL
 62
7
 10
796.502
 20
-5529.675
 30
-965.000
 70
    32
  0
VERTEX
  8
6200LEVEL
 62
7
 10
790.371
 20
-5527.221
 30
-965.000
 70
    32
  0
VERTEX
  8
6200LEVEL
 62
7
 10
773.205
 20
-5504.523
 30
-965.000
 70
    32
  0
VERTEX
  8
6200LEVEL
 62
7
 10
760.331
 20
-5516.793
 30
-965.000
 70
    32
  0
VERTEX
  8
6200LEVEL
 62
7
 10
760.331
 20
-5549.305
 30
-965.000
 70
    32
  0
VERTEX
  8
6200LEVEL
 62
7
 10
748.069
 20
-5619.239
 30
-965.000
 70
    32
  0
VERTEX
  8
6200LEVEL
 62
7
 10
769.889
 20
-5664.909
 30
-965.000
 70
    32
  0
VERTEX
  8
6200LEVEL
 62
7
 10
799.973
 20
-5705.457
 30
-965.000
 70
    32
  0
VERTEX
  8
6200LEVEL
 62
7
 10
815.489
 20
-5755.193
 30
-965.000
 70
    32
  0
VERTEX
  8
6200LEVEL
 62
7
 10
847.156
 20
-5793.208
 30
-965.000
 70
    32
  0
VERTEX
  8
6200LEVEL
 62
7
 10
880.406
 20
-5892.679
 30
-965.000
 70
    32
  0
VERTEX
  8
6200LEVEL
 62
7
 10
894.753
 20
-5943.962
 30
-965.000
 70
    32
  0
VERTEX
  8
6200LEVEL
 62
7
 10
903.050
 20
-6005.697
 30
-965.000
 70
    32
  0
VERTEX
  8
6200LEVEL
 62
7
 10
916.532
 20
-6042.012
 30
-965.000
 70
    32
  0
VERTEX
  8
6200LEVEL
 62
7
 10
937.793
 20
-6106.342
 30
-965.000
 70
    32
  0
VERTEX
  8
6200LEVEL
 62
7
 10
935.236
 20
-6123.435
 30
-965.000
 70
    32
  0
VERTEX
  8
6200LEVEL
 62
7
 10
929.642
 20
-6111.209
 30
-965.000
 70
    32
  0
VERTEX
  8
6200LEVEL
 62
7
 10
923.013
 20
-6101.980
 30
-965.000
 70
    32
  0
VERTEX
  8
6200LEVEL
 62
7
 10
926.472
 20
-6113.804
 30
-965.000
 70
    32
  0
VERTEX
  8
6200LEVEL
 62
7
 10
927.625
 20
-6119.283
 30
-965.000
 70
    32
  0
VERTEX
  8
6200LEVEL
 62
7
 10
925.319
 20
-6115.246
 30
-965.000
 70
    32
  0
VERTEX
  8
6200LEVEL
 62
7
 10
914.943
 20
-6100.827
 30
-965.000
 70
    32
  0
VERTEX
  8
6200LEVEL
 62
7
 10
899.378
 20
-6068.816
 30
-965.000
 70
    32
  0
VERTEX
  8
6200LEVEL
 62
7
 10
902.548
 20
-6090.445
 30
-965.000
 70
    32
  0
VERTEX
  8
6200LEVEL
 62
7
 10
913.501
 20
-6124.186
 30
-965.000
 70
    32
  0
VERTEX
  8
6200LEVEL
 62
7
 10
912.349
 20
-6177.537
 30
-965.000
 70
    32
  0
VERTEX
  8
6200LEVEL
 62
7
 10
908.889
 20
-6191.091
 30
-965.000
 70
    32
  0
VERTEX
  8
6200LEVEL
 62
7
 10
902.548
 20
-6201.761
 30
-965.000
 70
    32
  0
VERTEX
  8
6200LEVEL
 62
7
 10
896.207
 20
-6188.495
 30
-965.000
 70
    32
  0
VERTEX
  8
6200LEVEL
 62
7
 10
888.713
 20
-6170.039
 30
-965.000
 70
    32
  0
VERTEX
  8
6200LEVEL
 62
7
 10
877.472
 20
-6163.406
 30
-965.000
 70
    32
  0
VERTEX
  8
6200LEVEL
 62
7
 10
887.560
 20
-6194.840
 30
-965.000
 70
    32
  0
VERTEX
  8
6200LEVEL
 62
7
 10
887.848
 20
-6200.607
 30
-965.000
 70
    32
  0
VERTEX
  8
6200LEVEL
 62
7
 10
889.001
 20
-6220.794
 30
-965.000
 70
    32
  0
VERTEX
  8
6200LEVEL
 62
7
 10
886.384
 20
-6261.762
 30
-965.000
 70
    32
  0
VERTEX
  8
6200LEVEL
 62
7
 10
894.356
 20
-6307.137
 30
-965.000
 70
    32
  0
SEQEND
  8
6200LEVEL
  0
POLYLINE
  8
6200LEVEL
 62
13
 66
     1
 70
     8
  0
VERTEX
  8
6200LEVEL
 62
13
 10
986.980
 20
-6541.799
 30
-965.000
 70
    32
  0
VERTEX
  8
6200LEVEL
 62
13
 10
990.037
 20
-6551.995
 30
-965.000
 70
    32
  0
VERTEX
  8
6200LEVEL
 62
13
 10
991.821
 20
-6559.387
 30
-965.000
 70
    32
  0
VERTEX
  8
6200LEVEL
 62
13
 10
1000.227
 20
-6576.210
 30
-965.000
 70
    32
  0
VERTEX
  8
6200LEVEL
 62
13
 10
1009.258
 20
-6587.385
 30
-965.000
 70
    32
  0
SEQEND
  8
6200LEVEL
  0
POLYLINE
  8
6200LEVEL
 62
7
 66
     1
 70
     8
  0
VERTEX
  8
6200LEVEL
 62
7
 10
987.005
 20
-6541.811
 30
-965.000
 70
    32
  0
VERTEX
  8
6200LEVEL
 62
7
 10
993.350
 20
-6549.701
 30
-965.000
 70
    32
  0
VERTEX
  8
6200LEVEL
 62
7
 10
997.986
 20
-6554.606
 30
-965.000
 70
    32
  0
VERTEX
  8
6200LEVEL
 62
7
 10
1008.629
 20
-6578.407
 30
-965.000
 70
    32
  0
VERTEX
  8
6200LEVEL
 62
7
 10
1009.399
 20
-6587.425
 30
-965.000
 70
    32
  0
SEQEND
  8
6200LEVEL
  0
POLYLINE
  8
6200LEVEL
 62
3
 66
     1
 70
     8
  0
VERTEX
  8
6200LEVEL
 62
3
 10
894.356
 20
-6307.137
 30
-965.000
 70
    32
  0
VERTEX
  8
6200LEVEL
 62
3
 10
898.535
 20
-6334.263
 30
-965.000
 70
    32
  0
VERTEX
  8
6200LEVEL
 62
3
 10
905.720
 20
-6367.292
 30
-965.000
 70
    32
  0
VERTEX
  8
6200LEVEL
 62
3
 10
905.457
 20
-6380.450
 30
-965.000
 70
    32
  0
VERTEX
  8
6200LEVEL
 62
3
 10
896.541
 20
-6423.527
 30
-965.000
 70
    32
  0
VERTEX
  8
6200LEVEL
 62
3
 10
917.176
 20
-6449.782
 30
-965.000
 70
    32
  0
VERTEX
  8
6200LEVEL
 62
3
 10
940.359
 20
-6467.115
 30
-965.000
 70
    32
  0
VERTEX
  8
6200LEVEL
 62
3
 10
973.223
 20
-6503.055
 30
-965.000
 70
    32
  0
VERTEX
  8
6200LEVEL
 62
3
 10
986.973
 20
-6541.908
 30
-965.000
 70
    32
  0
SEQEND
  8
6200LEVEL
  0
POLYLINE
  8
6200LEVEL
 62
3
 66
     1
 70
     8
  0
VERTEX
  8
6200LEVEL
 62
3
 10
1009.313
 20
-6587.330
 30
-965.000
 70
    32
  0
VERTEX
  8
6200LEVEL
 62
3
 10
1012.058
 20
-6597.768
 30
-965.000
 70
    32
  0
VERTEX
  8
6200LEVEL
 62
3
 10
1022.137
 20
-6649.619
 30
-965.000
 70
    32
  0
VERTEX
  8
6200LEVEL
 62
3
 10
1030.086
 20
-6695.777
 30
-965.000
 70
    32
  0
SEQEND
  8
6200LEVEL
  0
POLYLINE
  8
6200LEVEL
 62
7
 66
     1
 70
     8
  0
VERTEX
  8
6200LEVEL
 62
7
 10
2052.828
 20
-8084.371
 30
-965.000
 70
    32
  0
VERTEX
  8
6200LEVEL
 62
7
 10
2012.534
 20
-8016.845
 30
-965.000
 70
    32
  0
VERTEX
  8
6200LEVEL
 62
7
 10
1967.707
 20
-7983.500
 30
-965.000
 70
    32
  0
VERTEX
  8
6200LEVEL
 62
7
 10
1977.102
 20
-8057.450
 30
-965.000
 70
    32
  0
VERTEX
  8
6200LEVEL
 62
7
 10
1999.187
 20
-8093.588
 30
-965.000
 70
    32
  0
VERTEX
  8
6200LEVEL
 62
7
 10
1973.344
 20
-8060.676
 30
-965.000
 70
    32
  0
VERTEX
  8
6200LEVEL
 62
7
 10
1962.338
 20
-8038.895
 30
-965.000
 70
    32
  0
VERTEX
  8
6200LEVEL
 62
7
 10
1945.696
 20
-8034.324
 30
-965.000
 70
    32
  0
VERTEX
  8
6200LEVEL
 62
7
 10
1957.775
 20
-8072.240
 30
-965.000
 70
    32
  0
VERTEX
  8
6200LEVEL
 62
7
 10
1985.566
 20
-8127.740
 30
-965.000
 70
    32
  0
VERTEX
  8
6200LEVEL
 62
7
 10
1953.749
 20
-8075.198
 30
-965.000
 70
    32
  0
VERTEX
  8
6200LEVEL
 62
7
 10
1931.201
 20
-8033.517
 30
-965.000
 70
    32
  0
VERTEX
  8
6200LEVEL
 62
7
 10
1921.538
 20
-8067.130
 30
-965.000
 70
    32
  0
VERTEX
  8
6200LEVEL
 62
7
 10
1921.807
 20
-8097.786
 30
-965.000
 70
    32
  0
VERTEX
  8
6200LEVEL
 62
7
 10
1964.220
 20
-8167.366
 30
-965.000
 70
    32
  0
SEQEND
  8
6200LEVEL
  0
POLYLINE
  8
6200LEVEL
 62
13
 66
     1
 70
     8
  0
VERTEX
  8
6200LEVEL
 62
13
 10
1838.593
 20
-8743.371
 30
-965.000
 70
    32
  0
VERTEX
  8
6200LEVEL
 62
13
 10
1782.880
 20
-8628.248
 30
-965.000
 70
    32
  0
VERTEX
  8
6200LEVEL
 62
13
 10
1757.989
 20
-8585.624
 30
-965.000
 70
    32
  0
VERTEX
  8
6200LEVEL
 62
13
 10
1738.771
 20
-8537.001
 30
-965.000
 70
    32
  0
VERTEX
  8
6200LEVEL
 62
13
 10
1722.072
 20
-8487.116
 30
-965.000
 70
    32
  0
VERTEX
  8
6200LEVEL
 62
13
 10
1741.922
 20
-8411.340
 30
-965.000
 70
    32
  0
VERTEX
  8
6200LEVEL
 62
13
 10
1724.644
 20
-8340.586
 30
-965.000
 70
    32
  0
VERTEX
  8
6200LEVEL
 62
13
 10
1767.162
 20
-8384.812
 30
-965.000
 70
    32
  0
VERTEX
  8
6200LEVEL
 62
13
 10
1748.903
 20
-8317.806
 30
-965.000
 70
    32
  0
VERTEX
  8
6200LEVEL
 62
13
 10
1759.715
 20
-8304.557
 30
-965.000
 70
    32
  0
VERTEX
  8
6200LEVEL
 62
13
 10
1729.320
 20
-8238.003
 30
-965.000
 70
    32
  0
VERTEX
  8
6200LEVEL
 62
13
 10
1701.898
 20
-8195.716
 30
-965.000
 70
    32
  0
VERTEX
  8
6200LEVEL
 62
13
 10
1681.576
 20
-8148.830
 30
-965.000
 70
    32
  0
VERTEX
  8
6200LEVEL
 62
13
 10
1680.123
 20
-8134.021
 30
-965.000
 70
    32
  0
VERTEX
  8
6200LEVEL
 62
13
 10
1689.885
 20
-8118.077
 30
-965.000
 70
    32
  0
VERTEX
  8
6200LEVEL
 62
13
 10
1723.874
 20
-8118.757
 30
-965.000
 70
    32
  0
VERTEX
  8
6200LEVEL
 62
13
 10
1743.251
 20
-8165.879
 30
-965.000
 70
    32
  0
VERTEX
  8
6200LEVEL
 62
13
 10
1773.734
 20
-8205.661
 30
-965.000
 70
    32
  0
VERTEX
  8
6200LEVEL
 62
13
 10
1795.474
 20
-8235.734
 30
-965.000
 70
    32
  0
VERTEX
  8
6200LEVEL
 62
13
 10
1816.189
 20
-8268.404
 30
-965.000
 70
    32
  0
SEQEND
  8
6200LEVEL
  0
POLYLINE
  8
6200LEVEL
 62
13
 66
     1
 70
     8
  0
VERTEX
  8
6200LEVEL
 62
13
 10
3520.720
 20
-8985.145
 30
-965.000
 70
    32
  0
VERTEX
  8
6200LEVEL
 62
13
 10
3491.318
 20
-8939.745
 30
-965.000
 70
    32
  0
VERTEX
  8
6200LEVEL
 62
13
 10
3475.237
 20
-8905.196
 30
-965.000
 70
    32
  0
VERTEX
  8
6200LEVEL
 62
13
 10
3492.929
 20
-8894.377
 30
-965.000
 70
    32
  0
VERTEX
  8
6200LEVEL
 62
13
 10
3503.191
 20
-8875.500
 30
-965.000
 70
    32
  0
VERTEX
  8
6200LEVEL
 62
13
 10
3527.466
 20
-8870.332
 30
-965.000
 70
    32
  0
VERTEX
  8
6200LEVEL
 62
13
 10
3532.350
 20
-8850.538
 30
-965.000
 70
    32
  0
VERTEX
  8
6200LEVEL
 62
13
 10
3571.031
 20
-8852.353
 30
-965.000
 70
    32
  0
VERTEX
  8
6200LEVEL
 62
13
 10
3549.522
 20
-8804.414
 30
-965.000
 70
    32
  0
VERTEX
  8
6200LEVEL
 62
13
 10
3529.385
 20
-8760.230
 30
-965.000
 70
    32
  0
VERTEX
  8
6200LEVEL
 62
13
 10
3520.445
 20
-8719.716
 30
-965.000
 70
    32
  0
VERTEX
  8
6200LEVEL
 62
13
 10
3539.899
 20
-8695.614
 30
-965.000
 70
    32
  0
VERTEX
  8
6200LEVEL
 62
13
 10
3512.782
 20
-8631.877
 30
-965.000
 70
    32
  0
VERTEX
  8
6200LEVEL
 62
13
 10
3484.104
 20
-8571.396
 30
-965.000
 70
    32
  0
VERTEX
  8
6200LEVEL
 62
13
 10
3443.594
 20
-8546.377
 30
-965.000
 70
    32
  0
VERTEX
  8
6200LEVEL
 62
13
 10
3424.566
 20
-8500.118
 30
-965.000
 70
    32
  0
VERTEX
  8
6200LEVEL
 62
13
 10
3385.778
 20
-8494.511
 30
-965.000
 70
    32
  0
VERTEX
  8
6200LEVEL
 62
13
 10
3368.685
 20
-8464.933
 30
-965.000
 70
    32
  0
VERTEX
  8
6200LEVEL
 62
13
 10
3390.463
 20
-8440.473
 30
-965.000
 70
    32
  0
VERTEX
  8
6200LEVEL
 62
13
 10
3398.323
 20
-8398.798
 30
-965.000
 70
    32
  0
VERTEX
  8
6200LEVEL
 62
13
 10
3367.906
 20
-8345.567
 30
-965.000
 70
    32
  0
VERTEX
  8
6200LEVEL
 62
13
 10
3336.156
 20
-8300.158
 30
-965.000
 70
    32
  0
VERTEX
  8
6200LEVEL
 62
13
 10
3295.405
 20
-8263.275
 30
-965.000
 70
    32
  0
VERTEX
  8
6200LEVEL
 62
13
 10
3261.748
 20
-8226.094
 30
-965.000
 70
    32
  0
VERTEX
  8
6200LEVEL
 62
13
 10
3225.359
 20
-8178.384
 30
-965.000
 70
    32
  0
VERTEX
  8
6200LEVEL
 62
13
 10
3136.217
 20
-8149.535
 30
-965.000
 70
    32
  0
VERTEX
  8
6200LEVEL
 62
13
 10
3137.348
 20
-8111.811
 30
-965.000
 70
    32
  0
VERTEX
  8
6200LEVEL
 62
13
 10
3122.740
 20
-8049.956
 30
-965.000
 70
    32
  0
VERTEX
  8
6200LEVEL
 62
13
 10
3112.840
 20
-7982.614
 30
-965.000
 70
    32
  0
VERTEX
  8
6200LEVEL
 62
13
 10
3081.801
 20
-7921.227
 30
-965.000
 70
    32
  0
VERTEX
  8
6200LEVEL
 62
13
 10
3046.254
 20
-7855.298
 30
-965.000
 70
    32
  0
VERTEX
  8
6200LEVEL
 62
13
 10
2998.039
 20
-7819.407
 30
-965.000
 70
    32
  0
VERTEX
  8
6200LEVEL
 62
13
 10
2952.021
 20
-7795.714
 30
-965.000
 70
    32
  0
VERTEX
  8
6200LEVEL
 62
13
 10
2927.248
 20
-7759.543
 30
-965.000
 70
    32
  0
VERTEX
  8
6200LEVEL
 62
13
 10
2918.885
 20
-7739.251
 30
-965.000
 70
    32
  0
VERTEX
  8
6200LEVEL
 62
13
 10
2898.557
 20
-7701.169
 30
-965.000
 70
    32
  0
VERTEX
  8
6200LEVEL
 62
13
 10
2889.524
 20
-7682.371
 30
-965.000
 70
    32
  0
VERTEX
  8
6200LEVEL
 62
13
 10
2878.405
 20
-7685.852
 30
-965.000
 70
    32
  0
VERTEX
  8
6200LEVEL
 62
13
 10
2883.964
 20
-7713.701
 30
-965.000
 70
    32
  0
VERTEX
  8
6200LEVEL
 62
13
 10
2908.981
 20
-7760.454
 30
-965.000
 70
    32
  0
VERTEX
  8
6200LEVEL
 62
13
 10
2917.047
 20
-7783.965
 30
-965.000
 70
    32
  0
VERTEX
  8
6200LEVEL
 62
13
 10
2897.509
 20
-7753.970
 30
-965.000
 70
    32
  0
VERTEX
  8
6200LEVEL
 62
13
 10
2876.320
 20
-7719.270
 30
-965.000
 70
    32
  0
VERTEX
  8
6200LEVEL
 62
13
 10
2843.288
 20
-7678.065
 30
-965.000
 70
    32
  0
VERTEX
  8
6200LEVEL
 62
13
 10
2836.985
 20
-7695.857
 30
-965.000
 70
    32
  0
VERTEX
  8
6200LEVEL
 62
13
 10
2855.473
 20
-7733.891
 30
-965.000
 70
    32
  0
VERTEX
  8
6200LEVEL
 62
13
 10
2887.286
 20
-7784.425
 30
-965.000
 70
    32
  0
VERTEX
  8
6200LEVEL
 62
13
 10
2914.456
 20
-7822.765
 30
-965.000
 70
    32
  0
VERTEX
  8
6200LEVEL
 62
13
 10
2903.717
 20
-7838.542
 30
-965.000
 70
    32
  0
VERTEX
  8
6200LEVEL
 62
13
 10
2870.718
 20
-7810.780
 30
-965.000
 70
    32
  0
VERTEX
  8
6200LEVEL
 62
13
 10
2842.964
 20
-7777.753
 30
-965.000
 70
    32
  0
VERTEX
  8
6200LEVEL
 62
13
 10
2833.931
 20
-7749.904
 30
-965.000
 70
    32
  0
VERTEX
  8
6200LEVEL
 62
13
 10
2819.786
 20
-7727.386
 30
-965.000
 70
    32
  0
VERTEX
  8
6200LEVEL
 62
13
 10
2824.897
 20
-7756.866
 30
-965.000
 70
    32
  0
VERTEX
  8
6200LEVEL
 62
13
 10
2826.982
 20
-7768.006
 30
-965.000
 70
    32
  0
VERTEX
  8
6200LEVEL
 62
13
 10
2819.338
 20
-7760.348
 30
-965.000
 70
    32
  0
VERTEX
  8
6200LEVEL
 62
13
 10
2786.114
 20
-7727.179
 30
-965.000
 70
    32
  0
VERTEX
  8
6200LEVEL
 62
13
 10
2808.914
 20
-7768.702
 30
-965.000
 70
    32
  0
VERTEX
  8
6200LEVEL
 62
13
 10
2836.519
 20
-7798.911
 30
-965.000
 70
    32
  0
VERTEX
  8
6200LEVEL
 62
13
 10
2880.048
 20
-7834.255
 30
-965.000
 70
    32
  0
VERTEX
  8
6200LEVEL
 62
13
 10
2922.838
 20
-7870.981
 30
-965.000
 70
    32
  0
VERTEX
  8
6200LEVEL
 62
13
 10
2985.559
 20
-7941.292
 30
-965.000
 70
    32
  0
VERTEX
  8
6200LEVEL
 62
13
 10
3011.376
 20
-8003.801
 30
-965.000
 70
    32
  0
VERTEX
  8
6200LEVEL
 62
13
 10
3032.968
 20
-8051.252
 30
-965.000
 70
    32
  0
VERTEX
  8
6200LEVEL
 62
13
 10
3041.709
 20
-8089.660
 30
-965.000
 70
    32
  0
VERTEX
  8
6200LEVEL
 62
13
 10
3059.082
 20
-8142.573
 30
-965.000
 70
    32
  0
VERTEX
  8
6200LEVEL
 62
13
 10
3061.167
 20
-8153.016
 30
-965.000
 70
    32
  0
VERTEX
  8
6200LEVEL
 62
13
 10
3052.133
 20
-8166.244
 30
-965.000
 70
    32
  0
VERTEX
  8
6200LEVEL
 62
13
 10
3037.540
 20
-8176.688
 30
-965.000
 70
    32
  0
VERTEX
  8
6200LEVEL
 62
13
 10
3038.930
 20
-8201.751
 30
-965.000
 70
    32
  0
VERTEX
  8
6200LEVEL
 62
13
 10
3045.184
 20
-8215.676
 30
-965.000
 70
    32
  0
VERTEX
  8
6200LEVEL
 62
13
 10
3055.608
 20
-8228.904
 30
-965.000
 70
    32
  0
VERTEX
  8
6200LEVEL
 62
13
 10
3064.641
 20
-8229.600
 30
-965.000
 70
    32
  0
VERTEX
  8
6200LEVEL
 62
13
 10
3076.455
 20
-8231.689
 30
-965.000
 70
    32
  0
VERTEX
  8
6200LEVEL
 62
13
 10
3078.540
 20
-8224.031
 30
-965.000
 70
    32
  0
VERTEX
  8
6200LEVEL
 62
13
 10
3069.506
 20
-8201.055
 30
-965.000
 70
    32
  0
VERTEX
  8
6200LEVEL
 62
13
 10
3068.116
 20
-8181.561
 30
-965.000
 70
    32
  0
VERTEX
  8
6200LEVEL
 62
13
 10
3077.845
 20
-8192.005
 30
-965.000
 70
    32
  0
VERTEX
  8
6200LEVEL
 62
13
 10
3084.099
 20
-8201.751
 30
-965.000
 70
    32
  0
VERTEX
  8
6200LEVEL
 62
13
 10
3093.828
 20
-8212.891
 30
-965.000
 70
    32
  0
VERTEX
  8
6200LEVEL
 62
13
 10
3117.455
 20
-8226.119
 30
-965.000
 70
    32
  0
VERTEX
  8
6200LEVEL
 62
13
 10
3134.828
 20
-8226.119
 30
-965.000
 70
    32
  0
VERTEX
  8
6200LEVEL
 62
13
 10
3157.760
 20
-8226.119
 30
-965.000
 70
    32
  0
VERTEX
  8
6200LEVEL
 62
13
 10
3207.365
 20
-8226.380
 30
-965.000
 70
    32
  0
VERTEX
  8
6200LEVEL
 62
13
 10
3232.760
 20
-8270.706
 30
-965.000
 70
    32
  0
VERTEX
  8
6200LEVEL
 62
13
 10
3263.547
 20
-8323.246
 30
-965.000
 70
    32
  0
VERTEX
  8
6200LEVEL
 62
13
 10
3290.100
 20
-8374.058
 30
-965.000
 70
    32
  0
VERTEX
  8
6200LEVEL
 62
13
 10
3282.882
 20
-8407.541
 30
-965.000
 70
    32
  0
VERTEX
  8
6200LEVEL
 62
13
 10
3250.291
 20
-8390.664
 30
-965.000
 70
    32
  0
VERTEX
  8
6200LEVEL
 62
13
 10
3222.424
 20
-8331.327
 30
-965.000
 70
    32
  0
VERTEX
  8
6200LEVEL
 62
13
 10
3226.434
 20
-8294.531
 30
-965.000
 70
    32
  0
VERTEX
  8
6200LEVEL
 62
13
 10
3197.725
 20
-8253.413
 30
-965.000
 70
    32
  0
VERTEX
  8
6200LEVEL
 62
13
 10
3167.142
 20
-8255.745
 30
-965.000
 70
    32
  0
VERTEX
  8
6200LEVEL
 62
13
 10
3176.801
 20
-8311.223
 30
-965.000
 70
    32
  0
VERTEX
  8
6200LEVEL
 62
13
 10
3202.543
 20
-8360.890
 30
-965.000
 70
    32
  0
VERTEX
  8
6200LEVEL
 62
13
 10
3238.921
 20
-8411.617
 30
-965.000
 70
    32
  0
VERTEX
  8
6200LEVEL
 62
13
 10
3287.077
 20
-8452.277
 30
-965.000
 70
    32
  0
VERTEX
  8
6200LEVEL
 62
13
 10
3313.590
 20
-8481.197
 30
-965.000
 70
    32
  0
VERTEX
  8
6200LEVEL
 62
13
 10
3297.637
 20
-8484.766
 30
-965.000
 70
    32
  0
VERTEX
  8
6200LEVEL
 62
13
 10
3282.011
 20
-8510.023
 30
-965.000
 70
    32
  0
VERTEX
  8
6200LEVEL
 62
13
 10
3251.608
 20
-8518.675
 30
-965.000
 70
    32
  0
VERTEX
  8
6200LEVEL
 62
13
 10
3255.741
 20
-8553.342
 30
-965.000
 70
    32
  0
VERTEX
  8
6200LEVEL
 62
13
 10
3252.267
 20
-8570.748
 30
-965.000
 70
    32
  0
VERTEX
  8
6200LEVEL
 62
13
 10
3239.758
 20
-8568.659
 30
-965.000
 70
    32
  0
VERTEX
  8
6200LEVEL
 62
13
 10
3220.266
 20
-8538.737
 30
-965.000
 70
    32
  0
VERTEX
  8
6200LEVEL
 62
13
 10
3231.419
 20
-8574.229
 30
-965.000
 70
    32
  0
VERTEX
  8
6200LEVEL
 62
13
 10
3232.114
 20
-8588.153
 30
-965.000
 70
    32
  0
VERTEX
  8
6200LEVEL
 62
13
 10
3220.301
 20
-8581.191
 30
-965.000
 70
    32
  0
VERTEX
  8
6200LEVEL
 62
13
 10
3198.758
 20
-8562.393
 30
-965.000
 70
    32
  0
VERTEX
  8
6200LEVEL
 62
13
 10
3187.640
 20
-8543.595
 30
-965.000
 70
    32
  0
VERTEX
  8
6200LEVEL
 62
13
 10
3171.981
 20
-8510.633
 30
-965.000
 70
    32
  0
VERTEX
  8
6200LEVEL
 62
13
 10
3142.895
 20
-8439.265
 30
-965.000
 70
    32
  0
VERTEX
  8
6200LEVEL
 62
13
 10
3106.945
 20
-8383.078
 30
-965.000
 70
    32
  0
VERTEX
  8
6200LEVEL
 62
13
 10
3091.047
 20
-8345.869
 30
-965.000
 70
    32
  0
VERTEX
  8
6200LEVEL
 62
13
 10
3064.641
 20
-8311.057
 30
-965.000
 70
    32
  0
VERTEX
  8
6200LEVEL
 62
13
 10
3043.794
 20
-8347.261
 30
-965.000
 70
    32
  0
VERTEX
  8
6200LEVEL
 62
13
 10
3015.997
 20
-8346.565
 30
-965.000
 70
    32
  0
VERTEX
  8
6200LEVEL
 62
13
 10
3016.692
 20
-8403.655
 30
-965.000
 70
    32
  0
VERTEX
  8
6200LEVEL
 62
13
 10
3008.353
 20
-8408.529
 30
-965.000
 70
    32
  0
VERTEX
  8
6200LEVEL
 62
13
 10
2995.845
 20
-8390.427
 30
-965.000
 70
    32
  0
VERTEX
  8
6200LEVEL
 62
13
 10
2983.336
 20
-8360.489
 30
-965.000
 70
    32
  0
VERTEX
  8
6200LEVEL
 62
13
 10
2986.810
 20
-8394.604
 30
-965.000
 70
    32
  0
VERTEX
  8
6200LEVEL
 62
13
 10
2982.641
 20
-8412.706
 30
-965.000
 70
    32
  0
VERTEX
  8
6200LEVEL
 62
13
 10
2952.065
 20
-8388.338
 30
-965.000
 70
    32
  0
VERTEX
  8
6200LEVEL
 62
13
 10
2931.217
 20
-8359.097
 30
-965.000
 70
    32
  0
VERTEX
  8
6200LEVEL
 62
13
 10
2926.353
 20
-8343.780
 30
-965.000
 70
    32
  0
VERTEX
  8
6200LEVEL
 62
13
 10
2938.862
 20
-8320.805
 30
-965.000
 70
    32
  0
VERTEX
  8
6200LEVEL
 62
13
 10
2962.489
 20
-8296.437
 30
-965.000
 70
    32
  0
VERTEX
  8
6200LEVEL
 62
13
 10
2974.997
 20
-8281.816
 30
-965.000
 70
    32
  0
VERTEX
  8
6200LEVEL
 62
13
 10
2968.743
 20
-8269.284
 30
-965.000
 70
    32
  0
VERTEX
  8
6200LEVEL
 62
13
 10
2955.539
 20
-8264.411
 30
-965.000
 70
    32
  0
VERTEX
  8
6200LEVEL
 62
13
 10
2943.031
 20
-8273.462
 30
-965.000
 70
    32
  0
VERTEX
  8
6200LEVEL
 62
13
 10
2914.540
 20
-8290.171
 30
-965.000
 70
    32
  0
VERTEX
  8
6200LEVEL
 62
13
 10
2889.523
 20
-8294.348
 30
-965.000
 70
    32
  0
VERTEX
  8
6200LEVEL
 62
13
 10
2867.286
 20
-8294.348
 30
-965.000
 70
    32
  0
VERTEX
  8
6200LEVEL
 62
13
 10
2858.947
 20
-8287.386
 30
-965.000
 70
    32
  0
VERTEX
  8
6200LEVEL
 62
13
 10
2838.519
 20
-8257.823
 30
-965.000
 70
    32
  0
VERTEX
  8
6200LEVEL
 62
13
 10
2797.633
 20
-8257.140
 30
-965.000
 70
    32
  0
VERTEX
  8
6200LEVEL
 62
13
 10
2772.838
 20
-8281.589
 30
-965.000
 70
    32
  0
VERTEX
  8
6200LEVEL
 62
13
 10
2742.432
 20
-8279.927
 30
-965.000
 70
    32
  0
VERTEX
  8
6200LEVEL
 62
13
 10
2719.340
 20
-8295.862
 30
-965.000
 70
    32
  0
VERTEX
  8
6200LEVEL
 62
13
 10
2696.337
 20
-8281.817
 30
-965.000
 70
    32
  0
VERTEX
  8
6200LEVEL
 62
13
 10
2650.473
 20
-8192.701
 30
-965.000
 70
    32
  0
VERTEX
  8
6200LEVEL
 62
13
 10
2631.710
 20
-8153.016
 30
-965.000
 70
    32
  0
VERTEX
  8
6200LEVEL
 62
13
 10
2610.863
 20
-8096.622
 30
-965.000
 70
    32
  0
VERTEX
  8
6200LEVEL
 62
13
 10
2588.732
 20
-8042.422
 30
-965.000
 70
    32
  0
VERTEX
  8
6200LEVEL
 62
13
 10
2551.101
 20
-7990.797
 30
-965.000
 70
    32
  0
VERTEX
  8
6200LEVEL
 62
13
 10
2530.253
 20
-7969.214
 30
-965.000
 70
    32
  0
VERTEX
  8
6200LEVEL
 62
13
 10
2508.016
 20
-7953.897
 30
-965.000
 70
    32
  0
VERTEX
  8
6200LEVEL
 62
13
 10
2523.304
 20
-7976.176
 30
-965.000
 70
    32
  0
VERTEX
  8
6200LEVEL
 62
13
 10
2534.423
 20
-8001.240
 30
-965.000
 70
    32
  0
VERTEX
  8
6200LEVEL
 62
13
 10
2512.880
 20
-7994.278
 30
-965.000
 70
    32
  0
VERTEX
  8
6200LEVEL
 62
13
 10
2498.471
 20
-7989.049
 30
-965.000
 70
    32
  0
VERTEX
  8
6200LEVEL
 62
13
 10
2542.067
 20
-8028.393
 30
-965.000
 70
    32
  0
VERTEX
  8
6200LEVEL
 62
13
 10
2592.795
 20
-8111.243
 30
-965.000
 70
    32
  0
VERTEX
  8
6200LEVEL
 62
13
 10
2616.696
 20
-8163.153
 30
-965.000
 70
    32
  0
VERTEX
  8
6200LEVEL
 62
13
 10
2638.660
 20
-8200.359
 30
-965.000
 70
    32
  0
VERTEX
  8
6200LEVEL
 62
13
 10
2687.998
 20
-8288.779
 30
-965.000
 70
    32
  0
VERTEX
  8
6200LEVEL
 62
13
 10
2697.727
 20
-8308.273
 30
-965.000
 70
    32
  0
VERTEX
  8
6200LEVEL
 62
13
 10
2710.930
 20
-8337.514
 30
-965.000
 70
    32
  0
VERTEX
  8
6200LEVEL
 62
13
 10
2712.320
 20
-8350.046
 30
-965.000
 70
    32
  0
VERTEX
  8
6200LEVEL
 62
13
 10
2666.028
 20
-8337.081
 30
-965.000
 70
    32
  0
VERTEX
  8
6200LEVEL
 62
13
 10
2627.528
 20
-8341.585
 30
-965.000
 70
    32
  0
VERTEX
  8
6200LEVEL
 62
13
 10
2617.812
 20
-8338.906
 30
-965.000
 70
    32
  0
VERTEX
  8
6200LEVEL
 62
13
 10
2619.856
 20
-8267.077
 30
-965.000
 70
    32
  0
VERTEX
  8
6200LEVEL
 62
13
 10
2608.778
 20
-8222.638
 30
-965.000
 70
    32
  0
VERTEX
  8
6200LEVEL
 62
13
 10
2567.398
 20
-8188.203
 30
-965.000
 70
    32
  0
VERTEX
  8
6200LEVEL
 62
13
 10
2524.891
 20
-8185.232
 30
-965.000
 70
    32
  0
VERTEX
  8
6200LEVEL
 62
13
 10
2526.216
 20
-8245.326
 30
-965.000
 70
    32
  0
VERTEX
  8
6200LEVEL
 62
13
 10
2540.677
 20
-8272.070
 30
-965.000
 70
    32
  0
VERTEX
  8
6200LEVEL
 62
13
 10
2583.066
 20
-8365.363
 30
-965.000
 70
    32
  0
VERTEX
  8
6200LEVEL
 62
13
 10
2611.796
 20
-8427.951
 30
-965.000
 70
    32
  0
VERTEX
  8
6200LEVEL
 62
13
 10
2645.232
 20
-8491.507
 30
-965.000
 70
    32
  0
VERTEX
  8
6200LEVEL
 62
13
 10
2691.591
 20
-8544.187
 30
-965.000
 70
    32
  0
VERTEX
  8
6200LEVEL
 62
13
 10
2730.580
 20
-8594.352
 30
-965.000
 70
    32
  0
VERTEX
  8
6200LEVEL
 62
13
 10
2749.370
 20
-8639.061
 30
-965.000
 70
    32
  0
VERTEX
  8
6200LEVEL
 62
13
 10
2736.037
 20
-8683.324
 30
-965.000
 70
    32
  0
VERTEX
  8
6200LEVEL
 62
13
 10
2737.347
 20
-8725.807
 30
-965.000
 70
    32
  0
VERTEX
  8
6200LEVEL
 62
13
 10
2778.163
 20
-8788.861
 30
-965.000
 70
    32
  0
VERTEX
  8
6200LEVEL
 62
13
 10
2825.588
 20
-8867.982
 30
-965.000
 70
    32
  0
VERTEX
  8
6200LEVEL
 62
13
 10
2836.316
 20
-8903.671
 30
-965.000
 70
    32
  0
VERTEX
  8
6200LEVEL
 62
13
 10
2845.759
 20
-8951.566
 30
-965.000
 70
    32
  0
VERTEX
  8
6200LEVEL
 62
13
 10
2843.668
 20
-8987.432
 30
-965.000
 70
    32
  0
VERTEX
  8
6200LEVEL
 62
13
 10
2860.791
 20
-9041.919
 30
-965.000
 70
    32
  0
VERTEX
  8
6200LEVEL
 62
13
 10
2822.464
 20
-9021.801
 30
-965.000
 70
    32
  0
VERTEX
  8
6200LEVEL
 62
13
 10
2853.787
 20
-9072.671
 30
-965.000
 70
    32
  0
VERTEX
  8
6200LEVEL
 62
13
 10
2901.278
 20
-9127.556
 30
-965.000
 70
    32
  0
VERTEX
  8
6200LEVEL
 62
13
 10
2944.348
 20
-9187.724
 30
-965.000
 70
    32
  0
VERTEX
  8
6200LEVEL
 62
13
 10
2981.037
 20
-9242.528
 30
-965.000
 70
    32
  0
VERTEX
  8
6200LEVEL
 62
13
 10
2982.330
 20
-9212.815
 30
-965.000
 70
    32
  0
VERTEX
  8
6200LEVEL
 62
13
 10
2949.683
 20
-9156.436
 30
-965.000
 70
    32
  0
VERTEX
  8
6200LEVEL
 62
13
 10
2922.890
 20
-9104.074
 30
-965.000
 70
    32
  0
VERTEX
  8
6200LEVEL
 62
13
 10
2901.276
 20
-9062.657
 30
-965.000
 70
    32
  0
VERTEX
  8
6200LEVEL
 62
13
 10
2936.065
 20
-9102.044
 30
-965.000
 70
    32
  0
VERTEX
  8
6200LEVEL
 62
13
 10
2976.670
 20
-9178.142
 30
-965.000
 70
    32
  0
VERTEX
  8
6200LEVEL
 62
13
 10
3016.164
 20
-9246.002
 30
-965.000
 70
    32
  0
VERTEX
  8
6200LEVEL
 62
13
 10
3034.607
 20
-9285.369
 30
-965.000
 70
    32
  0
VERTEX
  8
6200LEVEL
 62
13
 10
3056.994
 20
-9316.353
 30
-965.000
 70
    32
  0
VERTEX
  8
6200LEVEL
 62
13
 10
3068.027
 20
-9331.315
 30
-965.000
 70
    32
  0
VERTEX
  8
6200LEVEL
 62
13
 10
3081.815
 20
-9350.771
 30
-965.000
 70
    32
  0
SEQEND
  8
6200LEVEL
  0
POLYLINE
  8
6200LEVEL
 62
13
 66
     1
 70
     8
  0
VERTEX
  8
6200LEVEL
 62
13
 10
2993.929
 20
-9360.186
 30
-965.000
 70
    32
  0
VERTEX
  8
6200LEVEL
 62
13
 10
2960.198
 20
-9310.163
 30
-965.000
 70
    32
  0
VERTEX
  8
6200LEVEL
 62
13
 10
2924.795
 20
-9249.290
 30
-965.000
 70
    32
  0
VERTEX
  8
6200LEVEL
 62
13
 10
2894.840
 20
-9181.547
 30
-965.000
 70
    32
  0
VERTEX
  8
6200LEVEL
 62
13
 10
2867.311
 20
-9140.882
 30
-965.000
 70
    32
  0
VERTEX
  8
6200LEVEL
 62
13
 10
2858.212
 20
-9132.288
 30
-965.000
 70
    32
  0
VERTEX
  8
6200LEVEL
 62
13
 10
2839.183
 20
-9086.029
 30
-965.000
 70
    32
  0
VERTEX
  8
6200LEVEL
 62
13
 10
2798.092
 20
-9020.161
 30
-965.000
 70
    32
  0
VERTEX
  8
6200LEVEL
 62
13
 10
2751.374
 20
-8922.612
 30
-965.000
 70
    32
  0
VERTEX
  8
6200LEVEL
 62
13
 10
2727.176
 20
-8884.308
 30
-965.000
 70
    32
  0
VERTEX
  8
6200LEVEL
 62
13
 10
2750.757
 20
-8868.457
 30
-965.000
 70
    32
  0
VERTEX
  8
6200LEVEL
 62
13
 10
2781.151
 20
-8900.576
 30
-965.000
 70
    32
  0
VERTEX
  8
6200LEVEL
 62
13
 10
2786.649
 20
-8906.085
 30
-965.000
 70
    32
  0
VERTEX
  8
6200LEVEL
 62
13
 10
2783.900
 20
-8898.281
 30
-965.000
 70
    32
  0
VERTEX
  8
6200LEVEL
 62
13
 10
2767.866
 20
-8846.406
 30
-965.000
 70
    32
  0
VERTEX
  8
6200LEVEL
 62
13
 10
2742.020
 20
-8773.643
 30
-965.000
 70
    32
  0
VERTEX
  8
6200LEVEL
 62
13
 10
2717.102
 20
-8732.417
 30
-965.000
 70
    32
  0
VERTEX
  8
6200LEVEL
 62
13
 10
2706.849
 20
-8683.378
 30
-965.000
 70
    32
  0
VERTEX
  8
6200LEVEL
 62
13
 10
2715.495
 20
-8638.568
 30
-965.000
 70
    32
  0
VERTEX
  8
6200LEVEL
 62
13
 10
2679.858
 20
-8596.772
 30
-965.000
 70
    32
  0
VERTEX
  8
6200LEVEL
 62
13
 10
2635.090
 20
-8565.745
 30
-965.000
 70
    32
  0
VERTEX
  8
6200LEVEL
 62
13
 10
2605.318
 20
-8514.636
 30
-965.000
 70
    32
  0
VERTEX
  8
6200LEVEL
 62
13
 10
2577.861
 20
-8476.499
 30
-965.000
 70
    32
  0
SEQEND
  8
6200LEVEL
  0
POLYLINE
  8
6200LEVEL
 62
7
 66
     1
 70
     8
  0
VERTEX
  8
6200LEVEL
 62
7
 10
3407.928
 20
-9095.002
 30
-965.000
 70
    32
  0
VERTEX
  8
6200LEVEL
 62
7
 10
3387.776
 20
-9053.229
 30
-965.000
 70
    32
  0
VERTEX
  8
6200LEVEL
 62
7
 10
3384.301
 20
-9016.329
 30
-965.000
 70
    32
  0
VERTEX
  8
6200LEVEL
 62
7
 10
3368.157
 20
-8978.502
 30
-965.000
 70
    32
  0
VERTEX
  8
6200LEVEL
 62
7
 10
3347.412
 20
-8933.460
 30
-965.000
 70
    32
  0
VERTEX
  8
6200LEVEL
 62
7
 10
3320.750
 20
-8878.856
 30
-965.000
 70
    32
  0
VERTEX
  8
6200LEVEL
 62
7
 10
3297.786
 20
-8827.650
 30
-965.000
 70
    32
  0
VERTEX
  8
6200LEVEL
 62
7
 10
3286.037
 20
-8808.038
 30
-965.000
 70
    32
  0
VERTEX
  8
6200LEVEL
 62
7
 10
3275.885
 20
-8786.435
 30
-965.000
 70
    32
  0
VERTEX
  8
6200LEVEL
 62
7
 10
3283.322
 20
-8770.850
 30
-965.000
 70
    32
  0
VERTEX
  8
6200LEVEL
 62
7
 10
3287.927
 20
-8782.200
 30
-965.000
 70
    32
  0
VERTEX
  8
6200LEVEL
 62
7
 10
3300.390
 20
-8796.147
 30
-965.000
 70
    32
  0
VERTEX
  8
6200LEVEL
 62
7
 10
3317.853
 20
-8825.034
 30
-965.000
 70
    32
  0
VERTEX
  8
6200LEVEL
 62
7
 10
3338.796
 20
-8849.735
 30
-965.000
 70
    32
  0
VERTEX
  8
6200LEVEL
 62
7
 10
3367.651
 20
-8851.636
 30
-965.000
 70
    32
  0
VERTEX
  8
6200LEVEL
 62
7
 10
3386.168
 20
-8849.259
 30
-965.000
 70
    32
  0
VERTEX
  8
6200LEVEL
 62
7
 10
3370.970
 20
-8814.470
 30
-965.000
 70
    32
  0
VERTEX
  8
6200LEVEL
 62
7
 10
3400.350
 20
-8817.718
 30
-965.000
 70
    32
  0
VERTEX
  8
6200LEVEL
 62
7
 10
3419.484
 20
-8802.869
 30
-965.000
 70
    32
  0
VERTEX
  8
6200LEVEL
 62
7
 10
3449.612
 20
-8791.404
 30
-965.000
 70
    32
  0
VERTEX
  8
6200LEVEL
 62
7
 10
3457.154
 20
-8769.296
 30
-965.000
 70
    32
  0
VERTEX
  8
6200LEVEL
 62
7
 10
3441.861
 20
-8738.012
 30
-965.000
 70
    32
  0
VERTEX
  8
6200LEVEL
 62
7
 10
3427.627
 20
-8750.678
 30
-965.000
 70
    32
  0
VERTEX
  8
6200LEVEL
 62
7
 10
3407.486
 20
-8740.452
 30
-965.000
 70
    32
  0
VERTEX
  8
6200LEVEL
 62
7
 10
3394.539
 20
-8692.463
 30
-965.000
 70
    32
  0
VERTEX
  8
6200LEVEL
 62
7
 10
3393.448
 20
-8667.877
 30
-965.000
 70
    32
  0
VERTEX
  8
6200LEVEL
 62
7
 10
3382.091
 20
-8641.541
 30
-965.000
 70
    32
  0
VERTEX
  8
6200LEVEL
 62
7
 10
3351.224
 20
-8654.389
 30
-965.000
 70
    32
  0
VERTEX
  8
6200LEVEL
 62
7
 10
3330.900
 20
-8682.116
 30
-965.000
 70
    32
  0
VERTEX
  8
6200LEVEL
 62
7
 10
3313.781
 20
-8692.529
 30
-965.000
 70
    32
  0
VERTEX
  8
6200LEVEL
 62
7
 10
3297.744
 20
-8696.587
 30
-965.000
 70
    32
  0
VERTEX
  8
6200LEVEL
 62
7
 10
3283.537
 20
-8669.261
 30
-965.000
 70
    32
  0
VERTEX
  8
6200LEVEL
 62
7
 10
3274.933
 20
-8637.106
 30
-965.000
 70
    32
  0
VERTEX
  8
6200LEVEL
 62
7
 10
3300.612
 20
-8616.329
 30
-965.000
 70
    32
  0
VERTEX
  8
6200LEVEL
 62
7
 10
3290.397
 20
-8578.868
 30
-965.000
 70
    32
  0
VERTEX
  8
6200LEVEL
 62
7
 10
3262.769
 20
-8575.667
 30
-965.000
 70
    32
  0
VERTEX
  8
6200LEVEL
 62
7
 10
3226.555
 20
-8611.825
 30
-965.000
 70
    32
  0
VERTEX
  8
6200LEVEL
 62
7
 10
3232.809
 20
-8634.800
 30
-965.000
 70
    32
  0
VERTEX
  8
6200LEVEL
 62
7
 10
3253.260
 20
-8655.043
 30
-965.000
 70
    32
  0
VERTEX
  8
6200LEVEL
 62
7
 10
3268.339
 20
-8689.058
 30
-965.000
 70
    32
  0
VERTEX
  8
6200LEVEL
 62
7
 10
3273.783
 20
-8716.147
 30
-965.000
 70
    32
  0
VERTEX
  8
6200LEVEL
 62
7
 10
3251.753
 20
-8719.979
 30
-965.000
 70
    32
  0
VERTEX
  8
6200LEVEL
 62
7
 10
3223.113
 20
-8702.765
 30
-965.000
 70
    32
  0
VERTEX
  8
6200LEVEL
 62
7
 10
3181.107
 20
-8670.632
 30
-965.000
 70
    32
  0
VERTEX
  8
6200LEVEL
 62
7
 10
3163.160
 20
-8652.270
 30
-965.000
 70
    32
  0
VERTEX
  8
6200LEVEL
 62
7
 10
3142.539
 20
-8659.538
 30
-965.000
 70
    32
  0
VERTEX
  8
6200LEVEL
 62
7
 10
3155.522
 20
-8690.524
 30
-965.000
 70
    32
  0
VERTEX
  8
6200LEVEL
 62
7
 10
3192.182
 20
-8725.335
 30
-965.000
 70
    32
  0
VERTEX
  8
6200LEVEL
 62
7
 10
3204.240
 20
-8747.808
 30
-965.000
 70
    32
  0
VERTEX
  8
6200LEVEL
 62
7
 10
3189.432
 20
-8750.565
 30
-965.000
 70
    32
  0
VERTEX
  8
6200LEVEL
 62
7
 10
3183.017
 20
-8731.838
 30
-965.000
 70
    32
  0
VERTEX
  8
6200LEVEL
 62
7
 10
3178.816
 20
-8721.892
 30
-965.000
 70
    32
  0
VERTEX
  8
6200LEVEL
 62
7
 10
3180.344
 20
-8735.281
 30
-965.000
 70
    32
  0
VERTEX
  8
6200LEVEL
 62
7
 10
3183.412
 20
-8757.840
 30
-965.000
 70
    32
  0
VERTEX
  8
6200LEVEL
 62
7
 10
3168.124
 20
-8741.784
 30
-965.000
 70
    32
  0
VERTEX
  8
6200LEVEL
 62
7
 10
3149.412
 20
-8694.349
 30
-965.000
 70
    32
  0
VERTEX
  8
6200LEVEL
 62
7
 10
3138.338
 20
-8677.517
 30
-965.000
 70
    32
  0
VERTEX
  8
6200LEVEL
 62
7
 10
3139.102
 20
-8700.852
 30
-965.000
 70
    32
  0
VERTEX
  8
6200LEVEL
 62
7
 10
3152.849
 20
-8752.495
 30
-965.000
 70
    32
  0
VERTEX
  8
6200LEVEL
 62
7
 10
3152.085
 20
-8775.830
 30
-965.000
 70
    32
  0
VERTEX
  8
6200LEVEL
 62
7
 10
3154.284
 20
-8813.729
 30
-965.000
 70
    32
  0
VERTEX
  8
6200LEVEL
 62
7
 10
3145.075
 20
-8849.910
 30
-965.000
 70
    32
  0
VERTEX
  8
6200LEVEL
 62
7
 10
3149.420
 20
-8879.173
 30
-965.000
 70
    32
  0
VERTEX
  8
6200LEVEL
 62
7
 10
3196.675
 20
-8907.022
 30
-965.000
 70
    32
  0
VERTEX
  8
6200LEVEL
 62
7
 10
3207.821
 20
-8924.501
 30
-965.000
 70
    32
  0
VERTEX
  8
6200LEVEL
 62
7
 10
3231.403
 20
-8963.235
 30
-965.000
 70
    32
  0
VERTEX
  8
6200LEVEL
 62
7
 10
3248.098
 20
-8993.354
 30
-965.000
 70
    32
  0
VERTEX
  8
6200LEVEL
 62
7
 10
3276.455
 20
-9038.331
 30
-965.000
 70
    32
  0
VERTEX
  8
6200LEVEL
 62
7
 10
3300.912
 20
-9076.900
 30
-965.000
 70
    32
  0
VERTEX
  8
6200LEVEL
 62
7
 10
3321.496
 20
-9116.444
 30
-965.000
 70
    32
  0
VERTEX
  8
6200LEVEL
 62
7
 10
3330.875
 20
-9148.480
 30
-965.000
 70
    32
  0
VERTEX
  8
6200LEVEL
 62
7
 10
3300.217
 20
-9133.294
 30
-965.000
 70
    32
  0
VERTEX
  8
6200LEVEL
 62
7
 10
3277.285
 20
-9095.699
 30
-965.000
 70
    32
  0
VERTEX
  8
6200LEVEL
 62
7
 10
3252.268
 20
-9040.697
 30
-965.000
 70
    32
  0
VERTEX
  8
6200LEVEL
 62
7
 10
3232.115
 20
-9004.494
 30
-965.000
 70
    32
  0
VERTEX
  8
6200LEVEL
 62
7
 10
3220.997
 20
-8973.860
 30
-965.000
 70
    32
  0
VERTEX
  8
6200LEVEL
 62
7
 10
3220.997
 20
-8956.454
 30
-965.000
 70
    32
  0
VERTEX
  8
6200LEVEL
 62
7
 10
3204.319
 20
-8929.301
 30
-965.000
 70
    32
  0
VERTEX
  8
6200LEVEL
 62
7
 10
3193.895
 20
-8909.807
 30
-965.000
 70
    32
  0
VERTEX
  8
6200LEVEL
 62
7
 10
3164.709
 20
-8900.060
 30
-965.000
 70
    32
  0
VERTEX
  8
6200LEVEL
 62
7
 10
3138.302
 20
-8888.224
 30
-965.000
 70
    32
  0
VERTEX
  8
6200LEVEL
 62
7
 10
3125.098
 20
-8835.312
 30
-965.000
 70
    32
  0
VERTEX
  8
6200LEVEL
 62
7
 10
3112.589
 20
-8810.248
 30
-965.000
 70
    32
  0
VERTEX
  8
6200LEVEL
 62
7
 10
3108.656
 20
-8777.292
 30
-965.000
 70
    32
  0
VERTEX
  8
6200LEVEL
 62
7
 10
3104.146
 20
-8762.436
 30
-965.000
 70
    32
  0
VERTEX
  8
6200LEVEL
 62
7
 10
3102.860
 20
-8728.790
 30
-965.000
 70
    32
  0
VERTEX
  8
6200LEVEL
 62
7
 10
3108.420
 20
-8714.866
 30
-965.000
 70
    32
  0
VERTEX
  8
6200LEVEL
 62
7
 10
3113.432
 20
-8699.121
 30
-965.000
 70
    32
  0
VERTEX
  8
6200LEVEL
 62
7
 10
3110.266
 20
-8673.426
 30
-965.000
 70
    32
  0
VERTEX
  8
6200LEVEL
 62
7
 10
3118.120
 20
-8655.396
 30
-965.000
 70
    32
  0
VERTEX
  8
6200LEVEL
 62
7
 10
3096.620
 20
-8648.712
 30
-965.000
 70
    32
  0
VERTEX
  8
6200LEVEL
 62
7
 10
3077.943
 20
-8628.422
 30
-965.000
 70
    32
  0
VERTEX
  8
6200LEVEL
 62
7
 10
3076.828
 20
-8599.556
 30
-965.000
 70
    32
  0
VERTEX
  8
6200LEVEL
 62
7
 10
3099.670
 20
-8585.087
 30
-965.000
 70
    32
  0
VERTEX
  8
6200LEVEL
 62
7
 10
3104.251
 20
-8562.393
 30
-965.000
 70
    32
  0
VERTEX
  8
6200LEVEL
 62
7
 10
3062.556
 20
-8548.469
 30
-965.000
 70
    32
  0
VERTEX
  8
6200LEVEL
 62
7
 10
3033.370
 20
-8532.456
 30
-965.000
 70
    32
  0
VERTEX
  8
6200LEVEL
 62
7
 10
2963.184
 20
-8519.228
 30
-965.000
 70
    32
  0
VERTEX
  8
6200LEVEL
 62
7
 10
2945.811
 20
-8551.254
 30
-965.000
 70
    32
  0
VERTEX
  8
6200LEVEL
 62
7
 10
2956.234
 20
-8588.153
 30
-965.000
 70
    32
  0
VERTEX
  8
6200LEVEL
 62
7
 10
2960.404
 20
-8599.989
 30
-965.000
 70
    32
  0
VERTEX
  8
6200LEVEL
 62
7
 10
2952.760
 20
-8590.242
 30
-965.000
 70
    32
  0
VERTEX
  8
6200LEVEL
 62
7
 10
2925.740
 20
-8525.247
 30
-965.000
 70
    32
  0
VERTEX
  8
6200LEVEL
 62
7
 10
2918.014
 20
-8492.075
 30
-965.000
 70
    32
  0
VERTEX
  8
6200LEVEL
 62
7
 10
2867.209
 20
-8479.045
 30
-965.000
 70
    32
  0
VERTEX
  8
6200LEVEL
 62
7
 10
2815.167
 20
-8443.340
 30
-965.000
 70
    32
  0
VERTEX
  8
6200LEVEL
 62
7
 10
2810.998
 20
-8431.504
 30
-965.000
 70
    32
  0
VERTEX
  8
6200LEVEL
 62
7
 10
2817.947
 20
-8421.060
 30
-965.000
 70
    32
  0
VERTEX
  8
6200LEVEL
 62
7
 10
2836.015
 20
-8409.225
 30
-965.000
 70
    32
  0
VERTEX
  8
6200LEVEL
 62
7
 10
2856.862
 20
-8388.338
 30
-965.000
 70
    32
  0
VERTEX
  8
6200LEVEL
 62
7
 10
2892.302
 20
-8364.667
 30
-965.000
 70
    32
  0
VERTEX
  8
6200LEVEL
 62
7
 10
2906.895
 20
-8337.514
 30
-965.000
 70
    32
  0
VERTEX
  8
6200LEVEL
 62
7
 10
2922.879
 20
-8325.678
 30
-965.000
 70
    32
  0
VERTEX
  8
6200LEVEL
 62
7
 10
2918.014
 20
-8306.880
 30
-965.000
 70
    32
  0
VERTEX
  8
6200LEVEL
 62
7
 10
2911.065
 20
-8302.703
 30
-965.000
 70
    32
  0
VERTEX
  8
6200LEVEL
 62
7
 10
2897.167
 20
-8307.576
 30
-965.000
 70
    32
  0
VERTEX
  8
6200LEVEL
 62
7
 10
2852.693
 20
-8332.640
 30
-965.000
 70
    32
  0
VERTEX
  8
6200LEVEL
 62
7
 10
2811.693
 20
-8355.616
 30
-965.000
 70
    32
  0
VERTEX
  8
6200LEVEL
 62
7
 10
2781.116
 20
-8373.718
 30
-965.000
 70
    32
  0
VERTEX
  8
6200LEVEL
 62
7
 10
2753.320
 20
-8380.680
 30
-965.000
 70
    32
  0
VERTEX
  8
6200LEVEL
 62
7
 10
2735.947
 20
-8375.806
 30
-965.000
 70
    32
  0
VERTEX
  8
6200LEVEL
 62
7
 10
2699.117
 20
-8366.059
 30
-965.000
 70
    32
  0
VERTEX
  8
6200LEVEL
 62
7
 10
2663.126
 20
-8371.803
 30
-965.000
 70
    32
  0
VERTEX
  8
6200LEVEL
 62
7
 10
2624.761
 20
-8373.718
 30
-965.000
 70
    32
  0
VERTEX
  8
6200LEVEL
 62
7
 10
2599.744
 20
-8352.831
 30
-965.000
 70
    32
  0
VERTEX
  8
6200LEVEL
 62
7
 10
2596.579
 20
-8310.651
 30
-965.000
 70
    32
  0
VERTEX
  8
6200LEVEL
 62
7
 10
2592.661
 20
-8279.043
 30
-965.000
 70
    32
  0
VERTEX
  8
6200LEVEL
 62
7
 10
2588.625
 20
-8237.258
 30
-965.000
 70
    32
  0
VERTEX
  8
6200LEVEL
 62
7
 10
2579.805
 20
-8217.234
 30
-965.000
 70
    32
  0
VERTEX
  8
6200LEVEL
 62
7
 10
2553.739
 20
-8210.777
 30
-965.000
 70
    32
  0
VERTEX
  8
6200LEVEL
 62
7
 10
2573.337
 20
-8249.790
 30
-965.000
 70
    32
  0
VERTEX
  8
6200LEVEL
 62
7
 10
2580.286
 20
-8275.550
 30
-965.000
 70
    32
  0
VERTEX
  8
6200LEVEL
 62
7
 10
2582.785
 20
-8314.839
 30
-965.000
 70
    32
  0
VERTEX
  8
6200LEVEL
 62
7
 10
2593.490
 20
-8357.704
 30
-965.000
 70
    32
  0
VERTEX
  8
6200LEVEL
 62
7
 10
2615.101
 20
-8383.487
 30
-965.000
 70
    32
  0
VERTEX
  8
6200LEVEL
 62
7
 10
2649.037
 20
-8389.525
 30
-965.000
 70
    32
  0
VERTEX
  8
6200LEVEL
 62
7
 10
2670.561
 20
-8400.490
 30
-965.000
 70
    32
  0
VERTEX
  8
6200LEVEL
 62
7
 10
2709.540
 20
-8415.491
 30
-965.000
 70
    32
  0
VERTEX
  8
6200LEVEL
 62
7
 10
2742.201
 20
-8430.808
 30
-965.000
 70
    32
  0
VERTEX
  8
6200LEVEL
 62
7
 10
2792.930
 20
-8459.353
 30
-965.000
 70
    32
  0
VERTEX
  8
6200LEVEL
 62
7
 10
2824.201
 20
-8513.658
 30
-965.000
 70
    32
  0
VERTEX
  8
6200LEVEL
 62
7
 10
2838.003
 20
-8560.346
 30
-965.000
 70
    32
  0
VERTEX
  8
6200LEVEL
 62
7
 10
2840.085
 20
-8592.396
 30
-965.000
 70
    32
  0
VERTEX
  8
6200LEVEL
 62
7
 10
2859.483
 20
-8637.963
 30
-965.000
 70
    32
  0
VERTEX
  8
6200LEVEL
 62
7
 10
2889.564
 20
-8682.836
 30
-965.000
 70
    32
  0
VERTEX
  8
6200LEVEL
 62
7
 10
2929.468
 20
-8717.310
 30
-965.000
 70
    32
  0
VERTEX
  8
6200LEVEL
 62
7
 10
2977.776
 20
-8757.335
 30
-965.000
 70
    32
  0
VERTEX
  8
6200LEVEL
 62
7
 10
2992.023
 20
-8788.598
 30
-965.000
 70
    32
  0
VERTEX
  8
6200LEVEL
 62
7
 10
3007.699
 20
-8826.488
 30
-965.000
 70
    32
  0
VERTEX
  8
6200LEVEL
 62
7
 10
3014.170
 20
-8862.304
 30
-965.000
 70
    32
  0
VERTEX
  8
6200LEVEL
 62
7
 10
3034.065
 20
-8900.756
 30
-965.000
 70
    32
  0
VERTEX
  8
6200LEVEL
 62
7
 10
3066.877
 20
-8939.712
 30
-965.000
 70
    32
  0
VERTEX
  8
6200LEVEL
 62
7
 10
3100.378
 20
-8974.854
 30
-965.000
 70
    32
  0
VERTEX
  8
6200LEVEL
 62
7
 10
3116.541
 20
-9002.513
 30
-965.000
 70
    32
  0
VERTEX
  8
6200LEVEL
 62
7
 10
3119.064
 20
-9036.399
 30
-965.000
 70
    32
  0
VERTEX
  8
6200LEVEL
 62
7
 10
3125.193
 20
-9056.202
 30
-965.000
 70
    32
  0
VERTEX
  8
6200LEVEL
 62
7
 10
3143.059
 20
-9070.433
 30
-965.000
 70
    32
  0
VERTEX
  8
6200LEVEL
 62
7
 10
3147.445
 20
-9100.100
 30
-965.000
 70
    32
  0
VERTEX
  8
6200LEVEL
 62
7
 10
3148.616
 20
-9113.883
 30
-965.000
 70
    32
  0
VERTEX
  8
6200LEVEL
 62
7
 10
3142.475
 20
-9110.069
 30
-965.000
 70
    32
  0
VERTEX
  8
6200LEVEL
 62
7
 10
3127.941
 20
-9079.614
 30
-965.000
 70
    32
  0
VERTEX
  8
6200LEVEL
 62
7
 10
3102.794
 20
-9059.535
 30
-965.000
 70
    32
  0
VERTEX
  8
6200LEVEL
 62
7
 10
3099.304
 20
-9022.465
 30
-965.000
 70
    32
  0
VERTEX
  8
6200LEVEL
 62
7
 10
3099.763
 20
-8997.640
 30
-965.000
 70
    32
  0
VERTEX
  8
6200LEVEL
 62
7
 10
3068.885
 20
-8958.920
 30
-965.000
 70
    32
  0
VERTEX
  8
6200LEVEL
 62
7
 10
3021.556
 20
-8910.504
 30
-965.000
 70
    32
  0
VERTEX
  8
6200LEVEL
 62
7
 10
2998.624
 20
-8882.655
 30
-965.000
 70
    32
  0
VERTEX
  8
6200LEVEL
 62
7
 10
2975.149
 20
-8831.503
 30
-965.000
 70
    32
  0
VERTEX
  8
6200LEVEL
 62
7
 10
2950.932
 20
-8777.316
 30
-965.000
 70
    32
  0
VERTEX
  8
6200LEVEL
 62
7
 10
2912.756
 20
-8738.609
 30
-965.000
 70
    32
  0
VERTEX
  8
6200LEVEL
 62
7
 10
2868.222
 20
-8688.505
 30
-965.000
 70
    32
  0
VERTEX
  8
6200LEVEL
 62
7
 10
2836.994
 20
-8634.129
 30
-965.000
 70
    32
  0
VERTEX
  8
6200LEVEL
 62
7
 10
2817.947
 20
-8530.367
 30
-965.000
 70
    32
  0
VERTEX
  8
6200LEVEL
 62
7
 10
2789.455
 20
-8461.441
 30
-965.000
 70
    32
  0
VERTEX
  8
6200LEVEL
 62
7
 10
2757.489
 20
-8447.517
 30
-965.000
 70
    32
  0
VERTEX
  8
6200LEVEL
 62
7
 10
2754.015
 20
-8471.885
 30
-965.000
 70
    32
  0
VERTEX
  8
6200LEVEL
 62
7
 10
2785.981
 20
-8541.507
 30
-965.000
 70
    32
  0
VERTEX
  8
6200LEVEL
 62
7
 10
2799.184
 20
-8647.332
 30
-965.000
 70
    32
  0
VERTEX
  8
6200LEVEL
 62
7
 10
2808.217
 20
-8709.992
 30
-965.000
 70
    32
  0
VERTEX
  8
6200LEVEL
 62
7
 10
2844.394
 20
-8770.723
 30
-965.000
 70
    32
  0
VERTEX
  8
6200LEVEL
 62
7
 10
2888.132
 20
-8823.476
 30
-965.000
 70
    32
  0
VERTEX
  8
6200LEVEL
 62
7
 10
2943.115
 20
-8905.781
 30
-965.000
 70
    32
  0
VERTEX
  8
6200LEVEL
 62
7
 10
2979.167
 20
-8940.441
 30
-965.000
 70
    32
  0
VERTEX
  8
6200LEVEL
 62
7
 10
3001.956
 20
-9000.333
 30
-965.000
 70
    32
  0
VERTEX
  8
6200LEVEL
 62
7
 10
3019.472
 20
-9035.823
 30
-965.000
 70
    32
  0
VERTEX
  8
6200LEVEL
 62
7
 10
3064.641
 20
-9127.028
 30
-965.000
 70
    32
  0
VERTEX
  8
6200LEVEL
 62
7
 10
3076.762
 20
-9153.200
 30
-965.000
 70
    32
  0
VERTEX
  8
6200LEVEL
 62
7
 10
3101.177
 20
-9187.045
 30
-965.000
 70
    32
  0
VERTEX
  8
6200LEVEL
 62
7
 10
3111.435
 20
-9202.126
 30
-965.000
 70
    32
  0
VERTEX
  8
6200LEVEL
 62
7
 10
3140.872
 20
-9244.877
 30
-965.000
 70
    32
  0
SEQEND
  8
6200LEVEL
  0
POLYLINE
  8
6200LEVEL
 62
5
 66
     1
 70
     9
  0
VERTEX
  8
6200LEVEL
 62
5
 10
3251.307
 20
-8873.053
 30
-965.000
 70
    32
  0
VERTEX
  8
6200LEVEL
 62
5
 10
3253.920
 20
-8865.671
 30
-965.000
 70
    32
  0
VERTEX
  8
6200LEVEL
 62
5
 10
3252.107
 20
-8857.234
 30
-965.000
 70
    32
  0
VERTEX
  8
6200LEVEL
 62
5
 10
3245.077
 20
-8849.100
 30
-965.000
 70
    32
  0
VERTEX
  8
6200LEVEL
 62
5
 10
3222.386
 20
-8890.313
 30
-965.000
 70
    32
  0
VERTEX
  8
6200LEVEL
 62
5
 10
3212.805
 20
-8921.829
 30
-965.000
 70
    32
  0
VERTEX
  8
6200LEVEL
 62
5
 10
3198.436
 20
-8970.695
 30
-965.000
 70
    32
  0
VERTEX
  8
6200LEVEL
 62
5
 10
3183.471
 20
-9040.697
 30
-965.000
 70
    32
  0
VERTEX
  8
6200LEVEL
 62
5
 10
3169.573
 20
-9082.470
 30
-965.000
 70
    32
  0
VERTEX
  8
6200LEVEL
 62
5
 10
3137.854
 20
-9135.694
 30
-965.000
 70
    32
  0
VERTEX
  8
6200LEVEL
 62
5
 10
3108.701
 20
-9202.187
 30
-965.000
 70
    32
  0
VERTEX
  8
6200LEVEL
 62
5
 10
3100.655
 20
-9224.021
 30
-965.000
 70
    32
  0
VERTEX
  8
6200LEVEL
 62
5
 10
3092.583
 20
-9250.730
 30
-965.000
 70
    32
  0
VERTEX
  8
6200LEVEL
 62
5
 10
3096.332
 20
-9232.485
 30
-965.000
 70
    32
  0
VERTEX
  8
6200LEVEL
 62
5
 10
3099.052
 20
-9224.710
 30
-965.000
 70
    32
  0
VERTEX
  8
6200LEVEL
 62
5
 10
3104.578
 20
-9202.187
 30
-965.000
 70
    32
  0
VERTEX
  8
6200LEVEL
 62
5
 10
3108.610
 20
-9150.832
 30
-965.000
 70
    32
  0
VERTEX
  8
6200LEVEL
 62
5
 10
3133.437
 20
-9076.204
 30
-965.000
 70
    32
  0
VERTEX
  8
6200LEVEL
 62
5
 10
3147.336
 20
-9044.874
 30
-965.000
 70
    32
  0
VERTEX
  8
6200LEVEL
 62
5
 10
3158.269
 20
-8984.976
 30
-965.000
 70
    32
  0
VERTEX
  8
6200LEVEL
 62
5
 10
3194.860
 20
-8923.800
 30
-965.000
 70
    32
  0
VERTEX
  8
6200LEVEL
 62
5
 10
3202.234
 20
-8903.541
 30
-965.000
 70
    32
  0
VERTEX
  8
6200LEVEL
 62
5
 10
3233.247
 20
-8840.292
 30
-965.000
 70
    32
  0
VERTEX
  8
6200LEVEL
 62
5
 10
3268.943
 20
-8793.246
 30
-965.000
 70
    32
  0
VERTEX
  8
6200LEVEL
 62
5
 10
3282.800
 20
-8775.205
 30
-965.000
 70
    32
  0
VERTEX
  8
6200LEVEL
 62
5
 10
3300.228
 20
-8763.167
 30
-965.000
 70
    32
  0
VERTEX
  8
6200LEVEL
 62
5
 10
3312.941
 20
-8721.062
 30
-965.000
 70
    32
  0
VERTEX
  8
6200LEVEL
 62
5
 10
3316.912
 20
-8672.688
 30
-965.000
 70
    32
  0
VERTEX
  8
6200LEVEL
 62
5
 10
3317.137
 20
-8612.355
 30
-965.000
 70
    32
  0
VERTEX
  8
6200LEVEL
 62
5
 10
3311.675
 20
-8557.341
 30
-965.000
 70
    32
  0
VERTEX
  8
6200LEVEL
 62
5
 10
3308.316
 20
-8518.030
 30
-965.000
 70
    32
  0
VERTEX
  8
6200LEVEL
 62
5
 10
3310.492
 20
-8491.989
 30
-965.000
 70
    32
  0
VERTEX
  8
6200LEVEL
 62
5
 10
3325.292
 20
-8502.561
 30
-965.000
 70
    32
  0
VERTEX
  8
6200LEVEL
 62
5
 10
3331.226
 20
-8540.048
 30
-965.000
 70
    32
  0
VERTEX
  8
6200LEVEL
 62
5
 10
3326.119
 20
-8575.903
 30
-965.000
 70
    32
  0
VERTEX
  8
6200LEVEL
 62
5
 10
3342.496
 20
-8600.831
 30
-965.000
 70
    32
  0
VERTEX
  8
6200LEVEL
 62
5
 10
3345.389
 20
-8634.025
 30
-965.000
 70
    32
  0
VERTEX
  8
6200LEVEL
 62
5
 10
3335.904
 20
-8663.097
 30
-965.000
 70
    32
  0
VERTEX
  8
6200LEVEL
 62
5
 10
3329.258
 20
-8696.174
 30
-965.000
 70
    32
  0
VERTEX
  8
6200LEVEL
 62
5
 10
3331.815
 20
-8721.010
 30
-965.000
 70
    32
  0
VERTEX
  8
6200LEVEL
 62
5
 10
3349.516
 20
-8696.861
 30
-965.000
 70
    32
  0
VERTEX
  8
6200LEVEL
 62
5
 10
3371.043
 20
-8663.554
 30
-965.000
 70
    32
  0
VERTEX
  8
6200LEVEL
 62
5
 10
3392.134
 20
-8659.352
 30
-965.000
 70
    32
  0
VERTEX
  8
6200LEVEL
 62
5
 10
3392.486
 20
-8685.321
 30
-965.000
 70
    32
  0
VERTEX
  8
6200LEVEL
 62
5
 10
3363.293
 20
-8719.334
 30
-965.000
 70
    32
  0
VERTEX
  8
6200LEVEL
 62
5
 10
3336.486
 20
-8758.533
 30
-965.000
 70
    32
  0
VERTEX
  8
6200LEVEL
 62
5
 10
3304.490
 20
-8789.803
 30
-965.000
 70
    32
  0
VERTEX
  8
6200LEVEL
 62
5
 10
3276.836
 20
-8826.593
 30
-965.000
 70
    32
  0
VERTEX
  8
6200LEVEL
 62
5
 10
3260.221
 20
-8854.701
 30
-965.000
 70
    32
  0
VERTEX
  8
6200LEVEL
 62
5
 10
3256.899
 20
-8863.724
 30
-965.000
 70
    32
  0
SEQEND
  8
6200LEVEL
  0
POLYLINE
  8
6200LEVEL
 62
13
 66
     1
 70
     8
  0
VERTEX
  8
6200LEVEL
 62
13
 10
1030.086
 20
-6695.777
 30
-965.000
 70
    32
  0
VERTEX
  8
6200LEVEL
 62
13
 10
1021.676
 20
-6731.824
 30
-965.000
 70
    32
  0
VERTEX
  8
6200LEVEL
 62
13
 10
1005.117
 20
-6744.848
 30
-965.000
 70
    32
  0
VERTEX
  8
6200LEVEL
 62
13
 10
978.036
 20
-6807.645
 30
-965.000
 70
    32
  0
VERTEX
  8
6200LEVEL
 62
13
 10
976.990
 20
-6828.928
 30
-965.000
 70
    32
  0
VERTEX
  8
6200LEVEL
 62
13
 10
982.627
 20
-6894.457
 30
-965.000
 70
    32
  0
VERTEX
  8
6200LEVEL
 62
13
 10
989.550
 20
-6923.133
 30
-965.000
 70
    32
  0
VERTEX
  8
6200LEVEL
 62
13
 10
1016.309
 20
-6990.505
 30
-965.000
 70
    32
  0
VERTEX
  8
6200LEVEL
 62
13
 10
1031.310
 20
-7045.636
 30
-965.000
 70
    32
  0
VERTEX
  8
6200LEVEL
 62
13
 10
1031.413
 20
-7083.386
 30
-965.000
 70
    32
  0
VERTEX
  8
6200LEVEL
 62
13
 10
1007.886
 20
-7019.255
 30
-965.000
 70
    32
  0
VERTEX
  8
6200LEVEL
 62
13
 10
1010.763
 20
-7089.424
 30
-965.000
 70
    32
  0
VERTEX
  8
6200LEVEL
 62
13
 10
997.984
 20
-7104.775
 30
-965.000
 70
    32
  0
VERTEX
  8
6200LEVEL
 62
13
 10
1013.573
 20
-7151.839
 30
-965.000
 70
    32
  0
VERTEX
  8
6200LEVEL
 62
13
 10
1013.767
 20
-7191.309
 30
-965.000
 70
    32
  0
VERTEX
  8
6200LEVEL
 62
13
 10
998.442
 20
-7162.859
 30
-965.000
 70
    32
  0
VERTEX
  8
6200LEVEL
 62
13
 10
984.687
 20
-7148.395
 30
-965.000
 70
    32
  0
VERTEX
  8
6200LEVEL
 62
13
 10
992.430
 20
-7216.905
 30
-965.000
 70
    32
  0
VERTEX
  8
6200LEVEL
 62
13
 10
1003.446
 20
-7279.481
 30
-965.000
 70
    32
  0
VERTEX
  8
6200LEVEL
 62
13
 10
999.717
 20
-7409.115
 30
-965.000
 70
    32
  0
VERTEX
  8
6200LEVEL
 62
13
 10
1004.772
 20
-7483.079
 30
-965.000
 70
    32
  0
VERTEX
  8
6200LEVEL
 62
13
 10
1011.553
 20
-7552.836
 30
-965.000
 70
    32
  0
VERTEX
  8
6200LEVEL
 62
13
 10
1011.601
 20
-7619.332
 30
-965.000
 70
    32
  0
VERTEX
  8
6200LEVEL
 62
13
 10
1019.386
 20
-7571.884
 30
-965.000
 70
    32
  0
VERTEX
  8
6200LEVEL
 62
13
 10
1025.206
 20
-7635.134
 30
-965.000
 70
    32
  0
VERTEX
  8
6200LEVEL
 62
13
 10
1077.031
 20
-7761.536
 30
-965.000
 70
    32
  0
VERTEX
  8
6200LEVEL
 62
13
 10
1102.977
 20
-7866.076
 30
-965.000
 70
    32
  0
VERTEX
  8
6200LEVEL
 62
13
 10
1121.548
 20
-7947.473
 30
-965.000
 70
    32
  0
VERTEX
  8
6200LEVEL
 62
13
 10
1116.863
 20
-8001.512
 30
-965.000
 70
    32
  0
VERTEX
  8
6200LEVEL
 62
13
 10
1088.988
 20
-8064.677
 30
-965.000
 70
    32
  0
VERTEX
  8
6200LEVEL
 62
13
 10
1095.959
 20
-8152.146
 30
-965.000
 70
    32
  0
VERTEX
  8
6200LEVEL
 62
13
 10
1113.645
 20
-8219.557
 30
-965.000
 70
    32
  0
VERTEX
  8
6200LEVEL
 62
13
 10
1106.137
 20
-8287.201
 30
-965.000
 70
    32
  0
VERTEX
  8
6200LEVEL
 62
13
 10
1124.642
 20
-8342.427
 30
-965.000
 70
    32
  0
VERTEX
  8
6200LEVEL
 62
13
 10
1168.840
 20
-8384.173
 30
-965.000
 70
    32
  0
VERTEX
  8
6200LEVEL
 62
13
 10
1173.619
 20
-8425.486
 30
-965.000
 70
    32
  0
VERTEX
  8
6200LEVEL
 62
13
 10
1134.918
 20
-8385.432
 30
-965.000
 70
    32
  0
VERTEX
  8
6200LEVEL
 62
13
 10
1088.199
 20
-8320.114
 30
-965.000
 70
    32
  0
VERTEX
  8
6200LEVEL
 62
13
 10
1085.814
 20
-8369.514
 30
-965.000
 70
    32
  0
VERTEX
  8
6200LEVEL
 62
13
 10
1083.469
 20
-8440.805
 30
-965.000
 70
    32
  0
VERTEX
  8
6200LEVEL
 62
13
 10
1133.802
 20
-8510.009
 30
-965.000
 70
    32
  0
VERTEX
  8
6200LEVEL
 62
13
 10
1177.281
 20
-8591.377
 30
-965.000
 70
    32
  0
VERTEX
  8
6200LEVEL
 62
13
 10
1254.379
 20
-8698.349
 30
-965.000
 70
    32
  0
SEQEND
  8
6200LEVEL
  0
POLYLINE
  8
6200LEVEL
 62
13
 66
     1
 70
     8
  0
VERTEX
  8
6200LEVEL
 62
13
 10
1841.094
 20
-8203.475
 30
-965.000
 70
    32
  0
VERTEX
  8
6200LEVEL
 62
13
 10
1822.176
 20
-8170.378
 30
-965.000
 70
    32
  0
VERTEX
  8
6200LEVEL
 62
13
 10
1764.282
 20
-8089.394
 30
-965.000
 70
    32
  0
VERTEX
  8
6200LEVEL
 62
13
 10
1747.268
 20
-8038.956
 30
-965.000
 70
    32
  0
VERTEX
  8
6200LEVEL
 62
13
 10
1738.052
 20
-8028.300
 30
-965.000
 70
    32
  0
VERTEX
  8
6200LEVEL
 62
13
 10
1735.452
 20
-8047.007
 30
-965.000
 70
    32
  0
VERTEX
  8
6200LEVEL
 62
13
 10
1736.398
 20
-8067.135
 30
-965.000
 70
    32
  0
VERTEX
  8
6200LEVEL
 62
13
 10
1724.583
 20
-8055.531
 30
-965.000
 70
    32
  0
VERTEX
  8
6200LEVEL
 62
13
 10
1720.802
 20
-8026.642
 30
-965.000
 70
    32
  0
VERTEX
  8
6200LEVEL
 62
13
 10
1702.606
 20
-7986.149
 30
-965.000
 70
    32
  0
VERTEX
  8
6200LEVEL
 62
13
 10
1682.993
 20
-7938.079
 30
-965.000
 70
    32
  0
VERTEX
  8
6200LEVEL
 62
13
 10
1677.321
 20
-7903.269
 30
-965.000
 70
    32
  0
VERTEX
  8
6200LEVEL
 62
13
 10
1623.237
 20
-7883.678
 30
-965.000
 70
    32
  0
VERTEX
  8
6200LEVEL
 62
13
 10
1637.987
 20
-7809.908
 30
-965.000
 70
    32
  0
VERTEX
  8
6200LEVEL
 62
13
 10
1599.834
 20
-7719.180
 30
-965.000
 70
    32
  0
VERTEX
  8
6200LEVEL
 62
13
 10
1610.164
 20
-7680.441
 30
-965.000
 70
    32
  0
VERTEX
  8
6200LEVEL
 62
13
 10
1623.314
 20
-7636.586
 30
-965.000
 70
    32
  0
VERTEX
  8
6200LEVEL
 62
13
 10
1616.766
 20
-7583.375
 30
-965.000
 70
    32
  0
VERTEX
  8
6200LEVEL
 62
13
 10
1579.318
 20
-7544.901
 30
-965.000
 70
    32
  0
VERTEX
  8
6200LEVEL
 62
13
 10
1577.151
 20
-7536.369
 30
-965.000
 70
    32
  0
VERTEX
  8
6200LEVEL
 62
13
 10
1578.699
 20
-7526.750
 30
-965.000
 70
    32
  0
VERTEX
  8
6200LEVEL
 62
13
 10
1585.817
 20
-7505.496
 30
-965.000
 70
    32
  0
VERTEX
  8
6200LEVEL
 62
13
 10
1589.376
 20
-7473.538
 30
-965.000
 70
    32
  0
VERTEX
  8
6200LEVEL
 62
13
 10
1586.089
 20
-7444.135
 30
-965.000
 70
    32
  0
VERTEX
  8
6200LEVEL
 62
13
 10
1577.333
 20
-7408.474
 30
-965.000
 70
    32
  0
VERTEX
  8
6200LEVEL
 62
13
 10
1564.095
 20
-7371.629
 30
-965.000
 70
    32
  0
VERTEX
  8
6200LEVEL
 62
13
 10
1560.548
 20
-7341.063
 30
-965.000
 70
    32
  0
VERTEX
  8
6200LEVEL
 62
13
 10
1556.543
 20
-7314.763
 30
-965.000
 70
    32
  0
VERTEX
  8
6200LEVEL
 62
13
 10
1546.607
 20
-7294.103
 30
-965.000
 70
    32
  0
VERTEX
  8
6200LEVEL
 62
13
 10
1547.068
 20
-7305.521
 30
-965.000
 70
    32
  0
VERTEX
  8
6200LEVEL
 62
13
 10
1549.164
 20
-7320.438
 30
-965.000
 70
    32
  0
VERTEX
  8
6200LEVEL
 62
13
 10
1552.035
 20
-7341.063
 30
-965.000
 70
    32
  0
VERTEX
  8
6200LEVEL
 62
13
 10
1554.872
 20
-7373.051
 30
-965.000
 70
    32
  0
VERTEX
  8
6200LEVEL
 62
13
 10
1563.386
 20
-7398.641
 30
-965.000
 70
    32
  0
VERTEX
  8
6200LEVEL
 62
13
 10
1576.866
 20
-7448.400
 30
-965.000
 70
    32
  0
VERTEX
  8
6200LEVEL
 62
13
 10
1578.544
 20
-7481.139
 30
-965.000
 70
    32
  0
VERTEX
  8
6200LEVEL
 62
13
 10
1577.616
 20
-7490.758
 30
-965.000
 70
    32
  0
VERTEX
  8
6200LEVEL
 62
13
 10
1574.057
 20
-7484.552
 30
-965.000
 70
    32
  0
VERTEX
  8
6200LEVEL
 62
13
 10
1560.238
 20
-7460.135
 30
-965.000
 70
    32
  0
VERTEX
  8
6200LEVEL
 62
13
 10
1552.744
 20
-7426.364
 30
-965.000
 70
    32
  0
VERTEX
  8
6200LEVEL
 62
13
 10
1547.778
 20
-7390.111
 30
-965.000
 70
    32
  0
VERTEX
  8
6200LEVEL
 62
13
 10
1545.649
 20
-7341.774
 30
-965.000
 70
    32
  0
VERTEX
  8
6200LEVEL
 62
13
 10
1542.811
 20
-7325.425
 30
-965.000
 70
    32
  0
VERTEX
  8
6200LEVEL
 62
13
 10
1539.264
 20
-7311.919
 30
-965.000
 70
    32
  0
VERTEX
  8
6200LEVEL
 62
13
 10
1532.561
 20
-7304.220
 30
-965.000
 70
    32
  0
VERTEX
  8
6200LEVEL
 62
13
 10
1532.169
 20
-7284.907
 30
-965.000
 70
    32
  0
VERTEX
  8
6200LEVEL
 62
13
 10
1535.007
 20
-7268.558
 30
-965.000
 70
    32
  0
VERTEX
  8
6200LEVEL
 62
13
 10
1535.007
 20
-7252.920
 30
-965.000
 70
    32
  0
VERTEX
  8
6200LEVEL
 62
13
 10
1531.460
 20
-7244.389
 30
-965.000
 70
    32
  0
VERTEX
  8
6200LEVEL
 62
13
 10
1527.913
 20
-7254.341
 30
-965.000
 70
    32
  0
VERTEX
  8
6200LEVEL
 62
13
 10
1528.622
 20
-7270.690
 30
-965.000
 70
    32
  0
VERTEX
  8
6200LEVEL
 62
13
 10
1519.399
 20
-7341.063
 30
-965.000
 70
    32
  0
VERTEX
  8
6200LEVEL
 62
13
 10
1525.075
 20
-7371.629
 30
-965.000
 70
    32
  0
VERTEX
  8
6200LEVEL
 62
13
 10
1524.814
 20
-7397.917
 30
-965.000
 70
    32
  0
VERTEX
  8
6200LEVEL
 62
13
 10
1533.588
 20
-7431.340
 30
-965.000
 70
    32
  0
VERTEX
  8
6200LEVEL
 62
13
 10
1556.545
 20
-7497.601
 30
-965.000
 70
    32
  0
VERTEX
  8
6200LEVEL
 62
13
 10
1557.774
 20
-7518.328
 30
-965.000
 70
    32
  0
VERTEX
  8
6200LEVEL
 62
13
 10
1551.379
 20
-7501.056
 30
-965.000
 70
    32
  0
VERTEX
  8
6200LEVEL
 62
13
 10
1503.596
 20
-7413.921
 30
-965.000
 70
    32
  0
VERTEX
  8
6200LEVEL
 62
13
 10
1504.399
 20
-7382.125
 30
-965.000
 70
    32
  0
VERTEX
  8
6200LEVEL
 62
13
 10
1514.729
 20
-7342.398
 30
-965.000
 70
    32
  0
VERTEX
  8
6200LEVEL
 62
13
 10
1523.656
 20
-7277.088
 30
-965.000
 70
    32
  0
VERTEX
  8
6200LEVEL
 62
13
 10
1510.569
 20
-7162.984
 30
-965.000
 70
    32
  0
VERTEX
  8
6200LEVEL
 62
13
 10
1494.444
 20
-7143.311
 30
-965.000
 70
    32
  0
VERTEX
  8
6200LEVEL
 62
13
 10
1474.702
 20
-7126.390
 30
-965.000
 70
    32
  0
VERTEX
  8
6200LEVEL
 62
13
 10
1433.864
 20
-7095.659
 30
-965.000
 70
    32
  0
VERTEX
  8
6200LEVEL
 62
13
 10
1451.965
 20
-7058.425
 30
-965.000
 70
    32
  0
VERTEX
  8
6200LEVEL
 62
13
 10
1464.860
 20
-6948.137
 30
-965.000
 70
    32
  0
VERTEX
  8
6200LEVEL
 62
13
 10
1426.266
 20
-6899.412
 30
-965.000
 70
    32
  0
VERTEX
  8
6200LEVEL
 62
13
 10
1390.471
 20
-6845.264
 30
-965.000
 70
    32
  0
VERTEX
  8
6200LEVEL
 62
13
 10
1399.069
 20
-6901.064
 30
-965.000
 70
    32
  0
VERTEX
  8
6200LEVEL
 62
13
 10
1380.302
 20
-6904.907
 30
-965.000
 70
    32
  0
VERTEX
  8
6200LEVEL
 62
13
 10
1436.670
 20
-6968.040
 30
-965.000
 70
    32
  0
VERTEX
  8
6200LEVEL
 62
13
 10
1443.869
 20
-7063.918
 30
-965.000
 70
    32
  0
VERTEX
  8
6200LEVEL
 62
13
 10
1429.070
 20
-7098.719
 30
-965.000
 70
    32
  0
VERTEX
  8
6200LEVEL
 62
13
 10
1438.519
 20
-7117.860
 30
-965.000
 70
    32
  0
VERTEX
  8
6200LEVEL
 62
13
 10
1449.554
 20
-7207.138
 30
-965.000
 70
    32
  0
VERTEX
  8
6200LEVEL
 62
13
 10
1503.160
 20
-7292.386
 30
-965.000
 70
    32
  0
VERTEX
  8
6200LEVEL
 62
13
 10
1500.953
 20
-7356.702
 30
-965.000
 70
    32
  0
VERTEX
  8
6200LEVEL
 62
13
 10
1481.369
 20
-7430.096
 30
-965.000
 70
    32
  0
VERTEX
  8
6200LEVEL
 62
13
 10
1511.485
 20
-7530.180
 30
-965.000
 70
    32
  0
VERTEX
  8
6200LEVEL
 62
13
 10
1544.497
 20
-7570.112
 30
-965.000
 70
    32
  0
VERTEX
  8
6200LEVEL
 62
13
 10
1549.090
 20
-7633.741
 30
-965.000
 70
    32
  0
VERTEX
  8
6200LEVEL
 62
13
 10
1568.102
 20
-7672.749
 30
-965.000
 70
    32
  0
VERTEX
  8
6200LEVEL
 62
13
 10
1533.846
 20
-7655.162
 30
-965.000
 70
    32
  0
VERTEX
  8
6200LEVEL
 62
13
 10
1511.968
 20
-7633.251
 30
-965.000
 70
    32
  0
VERTEX
  8
6200LEVEL
 62
13
 10
1489.396
 20
-7586.677
 30
-965.000
 70
    32
  0
VERTEX
  8
6200LEVEL
 62
13
 10
1501.940
 20
-7537.574
 30
-965.000
 70
    32
  0
VERTEX
  8
6200LEVEL
 62
13
 10
1471.345
 20
-7437.965
 30
-965.000
 70
    32
  0
VERTEX
  8
6200LEVEL
 62
13
 10
1460.449
 20
-7364.083
 30
-965.000
 70
    32
  0
VERTEX
  8
6200LEVEL
 62
13
 10
1447.374
 20
-7333.043
 30
-965.000
 70
    32
  0
VERTEX
  8
6200LEVEL
 62
13
 10
1442.581
 20
-7211.947
 30
-965.000
 70
    32
  0
VERTEX
  8
6200LEVEL
 62
13
 10
1424.712
 20
-7147.682
 30
-965.000
 70
    32
  0
VERTEX
  8
6200LEVEL
 62
13
 10
1410.139
 20
-7110.265
 30
-965.000
 70
    32
  0
VERTEX
  8
6200LEVEL
 62
13
 10
1408.481
 20
-7089.532
 30
-965.000
 70
    32
  0
VERTEX
  8
6200LEVEL
 62
13
 10
1378.514
 20
-7075.986
 30
-965.000
 70
    32
  0
VERTEX
  8
6200LEVEL
 62
13
 10
1374.029
 20
-7035.486
 30
-965.000
 70
    32
  0
VERTEX
  8
6200LEVEL
 62
13
 10
1362.516
 20
-7021.530
 30
-965.000
 70
    32
  0
VERTEX
  8
6200LEVEL
 62
13
 10
1323.788
 20
-6926.280
 30
-965.000
 70
    32
  0
VERTEX
  8
6200LEVEL
 62
13
 10
1327.626
 20
-6870.805
 30
-965.000
 70
    32
  0
VERTEX
  8
6200LEVEL
 62
13
 10
1323.439
 20
-6803.815
 30
-965.000
 70
    32
  0
VERTEX
  8
6200LEVEL
 62
13
 10
1301.109
 20
-6696.702
 30
-965.000
 70
    32
  0
VERTEX
  8
6200LEVEL
 62
13
 10
1293.376
 20
-6623.950
 30
-965.000
 70
    32
  0
VERTEX
  8
6200LEVEL
 62
13
 10
1259.953
 20
-6513.105
 30
-965.000
 70
    32
  0
VERTEX
  8
6200LEVEL
 62
13
 10
1292.282
 20
-6479.878
 30
-965.000
 70
    32
  0
VERTEX
  8
6200LEVEL
 62
13
 10
1285.242
 20
-6509.367
 30
-965.000
 70
    32
  0
VERTEX
  8
6200LEVEL
 62
13
 10
1305.827
 20
-6586.328
 30
-965.000
 70
    32
  0
VERTEX
  8
6200LEVEL
 62
13
 10
1326.289
 20
-6641.887
 30
-965.000
 70
    32
  0
VERTEX
  8
6200LEVEL
 62
13
 10
1344.937
 20
-6691.854
 30
-965.000
 70
    32
  0
VERTEX
  8
6200LEVEL
 62
13
 10
1349.182
 20
-6745.151
 30
-965.000
 70
    32
  0
VERTEX
  8
6200LEVEL
 62
13
 10
1379.921
 20
-6799.444
 30
-965.000
 70
    32
  0
VERTEX
  8
6200LEVEL
 62
13
 10
1419.550
 20
-6831.104
 30
-965.000
 70
    32
  0
VERTEX
  8
6200LEVEL
 62
13
 10
1441.784
 20
-6870.363
 30
-965.000
 70
    32
  0
VERTEX
  8
6200LEVEL
 62
13
 10
1479.714
 20
-6876.578
 30
-965.000
 70
    32
  0
VERTEX
  8
6200LEVEL
 62
13
 10
1517.508
 20
-6909.989
 30
-965.000
 70
    32
  0
VERTEX
  8
6200LEVEL
 62
13
 10
1583.419
 20
-7008.965
 30
-965.000
 70
    32
  0
VERTEX
  8
6200LEVEL
 62
13
 10
1611.365
 20
-7101.772
 30
-965.000
 70
    32
  0
VERTEX
  8
6200LEVEL
 62
13
 10
1620.144
 20
-7154.115
 30
-965.000
 70
    32
  0
VERTEX
  8
6200LEVEL
 62
13
 10
1589.637
 20
-7119.995
 30
-965.000
 70
    32
  0
VERTEX
  8
6200LEVEL
 62
13
 10
1613.050
 20
-7215.247
 30
-965.000
 70
    32
  0
VERTEX
  8
6200LEVEL
 62
13
 10
1631.495
 20
-7267.847
 30
-965.000
 70
    32
  0
VERTEX
  8
6200LEVEL
 62
13
 10
1646.394
 20
-7324.714
 30
-965.000
 70
    32
  0
VERTEX
  8
6200LEVEL
 62
13
 10
1612.339
 20
-7277.799
 30
-965.000
 70
    32
  0
VERTEX
  8
6200LEVEL
 62
13
 10
1591.765
 20
-7229.462
 30
-965.000
 70
    32
  0
VERTEX
  8
6200LEVEL
 62
13
 10
1556.056
 20
-7120.766
 30
-965.000
 70
    32
  0
VERTEX
  8
6200LEVEL
 62
13
 10
1516.215
 20
-7010.812
 30
-965.000
 70
    32
  0
VERTEX
  8
6200LEVEL
 62
13
 10
1500.933
 20
-6958.679
 30
-965.000
 70
    32
  0
VERTEX
  8
6200LEVEL
 62
13
 10
1498.717
 20
-7023.630
 30
-965.000
 70
    32
  0
VERTEX
  8
6200LEVEL
 62
13
 10
1533.902
 20
-7134.818
 30
-965.000
 70
    32
  0
VERTEX
  8
6200LEVEL
 62
13
 10
1565.919
 20
-7246.483
 30
-965.000
 70
    32
  0
VERTEX
  8
6200LEVEL
 62
13
 10
1579.704
 20
-7298.413
 30
-965.000
 70
    32
  0
VERTEX
  8
6200LEVEL
 62
13
 10
1581.283
 20
-7313.018
 30
-965.000
 70
    32
  0
VERTEX
  8
6200LEVEL
 62
13
 10
1576.866
 20
-7327.558
 30
-965.000
 70
    32
  0
VERTEX
  8
6200LEVEL
 62
13
 10
1572.609
 20
-7340.353
 30
-965.000
 70
    32
  0
VERTEX
  8
6200LEVEL
 62
13
 10
1584.670
 20
-7362.388
 30
-965.000
 70
    32
  0
VERTEX
  8
6200LEVEL
 62
13
 10
1593.893
 20
-7369.497
 30
-965.000
 70
    32
  0
VERTEX
  8
6200LEVEL
 62
13
 10
1603.116
 20
-7388.689
 30
-965.000
 70
    32
  0
VERTEX
  8
6200LEVEL
 62
13
 10
1613.049
 20
-7424.232
 30
-965.000
 70
    32
  0
VERTEX
  8
6200LEVEL
 62
13
 10
1614.468
 20
-7447.689
 30
-965.000
 70
    32
  0
VERTEX
  8
6200LEVEL
 62
13
 10
1618.015
 20
-7464.749
 30
-965.000
 70
    32
  0
VERTEX
  8
6200LEVEL
 62
13
 10
1633.623
 20
-7474.701
 30
-965.000
 70
    32
  0
VERTEX
  8
6200LEVEL
 62
13
 10
1627.948
 20
-7445.557
 30
-965.000
 70
    32
  0
VERTEX
  8
6200LEVEL
 62
13
 10
1634.333
 20
-7420.677
 30
-965.000
 70
    32
  0
VERTEX
  8
6200LEVEL
 62
13
 10
1647.813
 20
-7442.002
 30
-965.000
 70
    32
  0
VERTEX
  8
6200LEVEL
 62
13
 10
1645.684
 20
-7403.617
 30
-965.000
 70
    32
  0
VERTEX
  8
6200LEVEL
 62
13
 10
1679.651
 20
-7472.017
 30
-965.000
 70
    32
  0
VERTEX
  8
6200LEVEL
 62
13
 10
1731.736
 20
-7522.765
 30
-965.000
 70
    32
  0
VERTEX
  8
6200LEVEL
 62
13
 10
1793.725
 20
-7578.661
 30
-965.000
 70
    32
  0
VERTEX
  8
6200LEVEL
 62
13
 10
1857.914
 20
-7620.214
 30
-965.000
 70
    32
  0
VERTEX
  8
6200LEVEL
 62
13
 10
1915.105
 20
-7683.820
 30
-965.000
 70
    32
  0
VERTEX
  8
6200LEVEL
 62
13
 10
1948.097
 20
-7735.227
 30
-965.000
 70
    32
  0
VERTEX
  8
6200LEVEL
 62
13
 10
1973.553
 20
-7785.097
 30
-965.000
 70
    32
  0
VERTEX
  8
6200LEVEL
 62
13
 10
1955.059
 20
-7781.441
 30
-965.000
 70
    32
  0
VERTEX
  8
6200LEVEL
 62
13
 10
1979.420
 20
-7840.683
 30
-965.000
 70
    32
  0
VERTEX
  8
6200LEVEL
 62
13
 10
1992.476
 20
-7892.464
 30
-965.000
 70
    32
  0
VERTEX
  8
6200LEVEL
 62
13
 10
1965.763
 20
-7873.571
 30
-965.000
 70
    32
  0
VERTEX
  8
6200LEVEL
 62
13
 10
1941.663
 20
-7809.845
 30
-965.000
 70
    32
  0
VERTEX
  8
6200LEVEL
 62
13
 10
1924.383
 20
-7743.006
 30
-965.000
 70
    32
  0
VERTEX
  8
6200LEVEL
 62
13
 10
1901.186
 20
-7721.191
 30
-965.000
 70
    32
  0
VERTEX
  8
6200LEVEL
 62
13
 10
1920.458
 20
-7789.628
 30
-965.000
 70
    32
  0
VERTEX
  8
6200LEVEL
 62
13
 10
1916.027
 20
-7855.645
 30
-965.000
 70
    32
  0
VERTEX
  8
6200LEVEL
 62
13
 10
1958.312
 20
-7946.662
 30
-965.000
 70
    32
  0
VERTEX
  8
6200LEVEL
 62
13
 10
1963.681
 20
-7958.763
 30
-965.000
 70
    32
  0
VERTEX
  8
6200LEVEL
 62
13
 10
1955.628
 20
-7949.620
 30
-965.000
 70
    32
  0
VERTEX
  8
6200LEVEL
 62
13
 10
1905.358
 20
-7862.704
 30
-965.000
 70
    32
  0
VERTEX
  8
6200LEVEL
 62
13
 10
1902.041
 20
-7809.127
 30
-965.000
 70
    32
  0
VERTEX
  8
6200LEVEL
 62
13
 10
1892.299
 20
-7754.138
 30
-965.000
 70
    32
  0
VERTEX
  8
6200LEVEL
 62
13
 10
1890.735
 20
-7747.080
 30
-965.000
 70
    32
  0
VERTEX
  8
6200LEVEL
 62
13
 10
1872.998
 20
-7715.379
 30
-965.000
 70
    32
  0
VERTEX
  8
6200LEVEL
 62
13
 10
1881.785
 20
-7764.168
 30
-965.000
 70
    32
  0
VERTEX
  8
6200LEVEL
 62
13
 10
1890.024
 20
-7817.643
 30
-965.000
 70
    32
  0
VERTEX
  8
6200LEVEL
 62
13
 10
1901.935
 20
-7865.528
 30
-965.000
 70
    32
  0
VERTEX
  8
6200LEVEL
 62
13
 10
1928.249
 20
-7918.157
 30
-965.000
 70
    32
  0
VERTEX
  8
6200LEVEL
 62
13
 10
1949.991
 20
-7952.846
 30
-965.000
 70
    32
  0
VERTEX
  8
6200LEVEL
 62
13
 10
1956.165
 20
-7977.586
 30
-965.000
 70
    32
  0
VERTEX
  8
6200LEVEL
 62
13
 10
1951.602
 20
-7985.115
 30
-965.000
 70
    32
  0
VERTEX
  8
6200LEVEL
 62
13
 10
1933.349
 20
-7965.485
 30
-965.000
 70
    32
  0
VERTEX
  8
6200LEVEL
 62
13
 10
1873.952
 20
-7885.898
 30
-965.000
 70
    32
  0
VERTEX
  8
6200LEVEL
 62
13
 10
1873.306
 20
-7862.587
 30
-965.000
 70
    32
  0
VERTEX
  8
6200LEVEL
 62
13
 10
1871.636
 20
-7807.465
 30
-965.000
 70
    32
  0
VERTEX
  8
6200LEVEL
 62
13
 10
1863.518
 20
-7765.078
 30
-965.000
 70
    32
  0
VERTEX
  8
6200LEVEL
 62
13
 10
1842.685
 20
-7754.483
 30
-965.000
 70
    32
  0
VERTEX
  8
6200LEVEL
 62
13
 10
1854.437
 20
-7784.408
 30
-965.000
 70
    32
  0
VERTEX
  8
6200LEVEL
 62
13
 10
1861.601
 20
-7830.908
 30
-965.000
 70
    32
  0
VERTEX
  8
6200LEVEL
 62
13
 10
1871.334
 20
-7887.914
 30
-965.000
 70
    32
  0
VERTEX
  8
6200LEVEL
 62
13
 10
1887.180
 20
-7921.653
 30
-965.000
 70
    32
  0
VERTEX
  8
6200LEVEL
 62
13
 10
1896.575
 20
-7956.073
 30
-965.000
 70
    32
  0
VERTEX
  8
6200LEVEL
 62
13
 10
1856.638
 20
-7898.603
 30
-965.000
 70
    32
  0
VERTEX
  8
6200LEVEL
 62
13
 10
1848.756
 20
-7864.941
 30
-965.000
 70
    32
  0
VERTEX
  8
6200LEVEL
 62
13
 10
1850.589
 20
-7799.600
 30
-965.000
 70
    32
  0
VERTEX
  8
6200LEVEL
 62
13
 10
1829.857
 20
-7761.855
 30
-965.000
 70
    32
  0
VERTEX
  8
6200LEVEL
 62
13
 10
1838.447
 20
-7790.237
 30
-965.000
 70
    32
  0
VERTEX
  8
6200LEVEL
 62
13
 10
1842.893
 20
-7829.983
 30
-965.000
 70
    32
  0
VERTEX
  8
6200LEVEL
 62
13
 10
1839.911
 20
-7875.507
 30
-965.000
 70
    32
  0
VERTEX
  8
6200LEVEL
 62
13
 10
1853.015
 20
-7901.024
 30
-965.000
 70
    32
  0
VERTEX
  8
6200LEVEL
 62
13
 10
1885.301
 20
-7956.073
 30
-965.000
 70
    32
  0
VERTEX
  8
6200LEVEL
 62
13
 10
1905.433
 20
-7985.922
 30
-965.000
 70
    32
  0
VERTEX
  8
6200LEVEL
 62
13
 10
1918.049
 20
-8015.233
 30
-965.000
 70
    32
  0
VERTEX
  8
6200LEVEL
 62
13
 10
1913.111
 20
-8043.695
 30
-965.000
 70
    32
  0
VERTEX
  8
6200LEVEL
 62
13
 10
1887.985
 20
-7999.099
 30
-965.000
 70
    32
  0
VERTEX
  8
6200LEVEL
 62
13
 10
1858.995
 20
-7961.721
 30
-965.000
 70
    32
  0
VERTEX
  8
6200LEVEL
 62
13
 10
1823.949
 20
-7946.992
 30
-965.000
 70
    32
  0
VERTEX
  8
6200LEVEL
 62
13
 10
1834.489
 20
-7995.829
 30
-965.000
 70
    32
  0
VERTEX
  8
6200LEVEL
 62
13
 10
1852.553
 20
-8024.643
 30
-965.000
 70
    32
  0
VERTEX
  8
6200LEVEL
 62
13
 10
1890.133
 20
-8121.719
 30
-965.000
 70
    32
  0
VERTEX
  8
6200LEVEL
 62
13
 10
1923.197
 20
-8192.570
 30
-965.000
 70
    32
  0
VERTEX
  8
6200LEVEL
 62
13
 10
1900.848
 20
-8173.164
 30
-965.000
 70
    32
  0
VERTEX
  8
6200LEVEL
 62
13
 10
1871.611
 20
-8134.088
 30
-965.000
 70
    32
  0
VERTEX
  8
6200LEVEL
 62
13
 10
1845.037
 20
-8029.752
 30
-965.000
 70
    32
  0
VERTEX
  8
6200LEVEL
 62
13
 10
1815.522
 20
-8009.700
 30
-965.000
 70
    32
  0
VERTEX
  8
6200LEVEL
 62
13
 10
1774.839
 20
-7957.729
 30
-965.000
 70
    32
  0
VERTEX
  8
6200LEVEL
 62
13
 10
1770.362
 20
-7930.812
 30
-965.000
 70
    32
  0
VERTEX
  8
6200LEVEL
 62
13
 10
1807.264
 20
-7918.178
 30
-965.000
 70
    32
  0
VERTEX
  8
6200LEVEL
 62
13
 10
1769.702
 20
-7838.433
 30
-965.000
 70
    32
  0
VERTEX
  8
6200LEVEL
 62
13
 10
1748.151
 20
-7786.662
 30
-965.000
 70
    32
  0
VERTEX
  8
6200LEVEL
 62
13
 10
1718.977
 20
-7750.971
 30
-965.000
 70
    32
  0
VERTEX
  8
6200LEVEL
 62
13
 10
1707.670
 20
-7731.966
 30
-965.000
 70
    32
  0
VERTEX
  8
6200LEVEL
 62
13
 10
1709.025
 20
-7758.367
 30
-965.000
 70
    32
  0
VERTEX
  8
6200LEVEL
 62
13
 10
1718.237
 20
-7795.397
 30
-965.000
 70
    32
  0
VERTEX
  8
6200LEVEL
 62
13
 10
1686.551
 20
-7774.123
 30
-965.000
 70
    32
  0
VERTEX
  8
6200LEVEL
 62
13
 10
1659.587
 20
-7748.420
 30
-965.000
 70
    32
  0
VERTEX
  8
6200LEVEL
 62
13
 10
1650.269
 20
-7776.514
 30
-965.000
 70
    32
  0
VERTEX
  8
6200LEVEL
 62
13
 10
1656.899
 20
-7795.911
 30
-965.000
 70
    32
  0
VERTEX
  8
6200LEVEL
 62
13
 10
1668.893
 20
-7860.299
 30
-965.000
 70
    32
  0
VERTEX
  8
6200LEVEL
 62
13
 10
1684.946
 20
-7908.532
 30
-965.000
 70
    32
  0
VERTEX
  8
6200LEVEL
 62
13
 10
1763.603
 20
-7966.089
 30
-965.000
 70
    32
  0
VERTEX
  8
6200LEVEL
 62
13
 10
1761.992
 20
-7988.750
 30
-965.000
 70
    32
  0
VERTEX
  8
6200LEVEL
 62
13
 10
1768.905
 20
-8026.403
 30
-965.000
 70
    32
  0
VERTEX
  8
6200LEVEL
 62
13
 10
1780.884
 20
-8077.080
 30
-965.000
 70
    32
  0
VERTEX
  8
6200LEVEL
 62
13
 10
1865.169
 20
-8139.198
 30
-965.000
 70
    32
  0
VERTEX
  8
6200LEVEL
 62
13
 10
1876.259
 20
-8163.940
 30
-965.000
 70
    32
  0
SEQEND
  8
6200LEVEL
  0
POLYLINE
  8
6200LEVEL
 62
13
 66
     1
 70
     8
  0
VERTEX
  8
6200LEVEL
 62
13
 10
2262.178
 20
-7861.223
 30
-965.000
 70
    32
  0
VERTEX
  8
6200LEVEL
 62
13
 10
2243.023
 20
-7783.247
 30
-965.000
 70
    32
  0
VERTEX
  8
6200LEVEL
 62
13
 10
2212.190
 20
-7732.460
 30
-965.000
 70
    32
  0
VERTEX
  8
6200LEVEL
 62
13
 10
2232.248
 20
-7797.761
 30
-965.000
 70
    32
  0
VERTEX
  8
6200LEVEL
 62
13
 10
2207.833
 20
-7763.915
 30
-965.000
 70
    32
  0
VERTEX
  8
6200LEVEL
 62
13
 10
2185.526
 20
-7722.129
 30
-965.000
 70
    32
  0
VERTEX
  8
6200LEVEL
 62
13
 10
2193.098
 20
-7670.343
 30
-965.000
 70
    32
  0
VERTEX
  8
6200LEVEL
 62
13
 10
2210.240
 20
-7599.311
 30
-965.000
 70
    32
  0
VERTEX
  8
6200LEVEL
 62
13
 10
2202.982
 20
-7512.044
 30
-965.000
 70
    32
  0
VERTEX
  8
6200LEVEL
 62
13
 10
2163.705
 20
-7451.768
 30
-965.000
 70
    32
  0
VERTEX
  8
6200LEVEL
 62
13
 10
2123.614
 20
-7380.034
 30
-965.000
 70
    32
  0
VERTEX
  8
6200LEVEL
 62
13
 10
2092.888
 20
-7278.452
 30
-965.000
 70
    32
  0
VERTEX
  8
6200LEVEL
 62
13
 10
2093.801
 20
-7361.618
 30
-965.000
 70
    32
  0
VERTEX
  8
6200LEVEL
 62
13
 10
2095.367
 20
-7433.576
 30
-965.000
 70
    32
  0
VERTEX
  8
6200LEVEL
 62
13
 10
2093.248
 20
-7499.120
 30
-965.000
 70
    32
  0
VERTEX
  8
6200LEVEL
 62
13
 10
2055.578
 20
-7433.836
 30
-965.000
 70
    32
  0
VERTEX
  8
6200LEVEL
 62
13
 10
2031.321
 20
-7357.757
 30
-965.000
 70
    32
  0
VERTEX
  8
6200LEVEL
 62
13
 10
2016.915
 20
-7241.602
 30
-965.000
 70
    32
  0
VERTEX
  8
6200LEVEL
 62
13
 10
2007.961
 20
-7139.205
 30
-965.000
 70
    32
  0
VERTEX
  8
6200LEVEL
 62
13
 10
1971.360
 20
-7104.540
 30
-965.000
 70
    32
  0
VERTEX
  8
6200LEVEL
 62
13
 10
1940.065
 20
-7177.435
 30
-965.000
 70
    32
  0
VERTEX
  8
6200LEVEL
 62
13
 10
1937.840
 20
-7249.501
 30
-965.000
 70
    32
  0
VERTEX
  8
6200LEVEL
 62
13
 10
1956.487
 20
-7299.469
 30
-965.000
 70
    32
  0
VERTEX
  8
6200LEVEL
 62
13
 10
1958.718
 20
-7357.202
 30
-965.000
 70
    32
  0
VERTEX
  8
6200LEVEL
 62
13
 10
1966.482
 20
-7417.890
 30
-965.000
 70
    32
  0
VERTEX
  8
6200LEVEL
 62
13
 10
1936.151
 20
-7374.484
 30
-965.000
 70
    32
  0
VERTEX
  8
6200LEVEL
 62
13
 10
1906.736
 20
-7271.114
 30
-965.000
 70
    32
  0
VERTEX
  8
6200LEVEL
 62
13
 10
1916.254
 20
-7178.406
 30
-965.000
 70
    32
  0
VERTEX
  8
6200LEVEL
 62
13
 10
1945.868
 20
-7107.991
 30
-965.000
 70
    32
  0
VERTEX
  8
6200LEVEL
 62
13
 10
1935.265
 20
-7043.297
 30
-965.000
 70
    32
  0
VERTEX
  8
6200LEVEL
 62
13
 10
1882.392
 20
-7076.039
 30
-965.000
 70
    32
  0
VERTEX
  8
6200LEVEL
 62
13
 10
1861.737
 20
-7006.863
 30
-965.000
 70
    32
  0
VERTEX
  8
6200LEVEL
 62
13
 10
1815.128
 20
-6901.065
 30
-965.000
 70
    32
  0
VERTEX
  8
6200LEVEL
 62
13
 10
1810.286
 20
-6953.064
 30
-965.000
 70
    32
  0
VERTEX
  8
6200LEVEL
 62
13
 10
1800.090
 20
-6998.114
 30
-965.000
 70
    32
  0
VERTEX
  8
6200LEVEL
 62
13
 10
1745.356
 20
-7027.017
 30
-965.000
 70
    32
  0
VERTEX
  8
6200LEVEL
 62
13
 10
1719.477
 20
-7057.821
 30
-965.000
 70
    32
  0
VERTEX
  8
6200LEVEL
 62
13
 10
1695.412
 20
-7094.217
 30
-965.000
 70
    32
  0
VERTEX
  8
6200LEVEL
 62
13
 10
1678.716
 20
-7133.127
 30
-965.000
 70
    32
  0
VERTEX
  8
6200LEVEL
 62
13
 10
1676.414
 20
-7182.038
 30
-965.000
 70
    32
  0
VERTEX
  8
6200LEVEL
 62
13
 10
1655.950
 20
-7116.165
 30
-965.000
 70
    32
  0
VERTEX
  8
6200LEVEL
 62
13
 10
1638.068
 20
-7024.823
 30
-965.000
 70
    32
  0
VERTEX
  8
6200LEVEL
 62
13
 10
1642.091
 20
-6940.738
 30
-965.000
 70
    32
  0
VERTEX
  8
6200LEVEL
 62
13
 10
1598.787
 20
-6845.062
 30
-965.000
 70
    32
  0
VERTEX
  8
6200LEVEL
 62
13
 10
1567.318
 20
-6778.822
 30
-965.000
 70
    32
  0
VERTEX
  8
6200LEVEL
 62
13
 10
1540.690
 20
-6715.168
 30
-965.000
 70
    32
  0
VERTEX
  8
6200LEVEL
 62
13
 10
1498.414
 20
-6682.805
 30
-965.000
 70
    32
  0
VERTEX
  8
6200LEVEL
 62
13
 10
1482.224
 20
-6640.552
 30
-965.000
 70
    32
  0
VERTEX
  8
6200LEVEL
 62
13
 10
1455.906
 20
-6679.834
 30
-965.000
 70
    32
  0
VERTEX
  8
6200LEVEL
 62
13
 10
1423.313
 20
-6652.644
 30
-965.000
 70
    32
  0
VERTEX
  8
6200LEVEL
 62
13
 10
1388.801
 20
-6680.970
 30
-965.000
 70
    32
  0
VERTEX
  8
6200LEVEL
 62
13
 10
1363.054
 20
-6610.675
 30
-965.000
 70
    32
  0
VERTEX
  8
6200LEVEL
 62
13
 10
1340.488
 20
-6529.100
 30
-965.000
 70
    32
  0
VERTEX
  8
6200LEVEL
 62
13
 10
1323.856
 20
-6430.425
 30
-965.000
 70
    32
  0
VERTEX
  8
6200LEVEL
 62
13
 10
1320.612
 20
-6425.847
 30
-965.000
 70
    32
  0
VERTEX
  8
6200LEVEL
 62
13
 10
1308.392
 20
-6379.491
 30
-965.000
 70
    32
  0
VERTEX
  8
6200LEVEL
 62
13
 10
1352.952
 20
-6389.604
 30
-965.000
 70
    32
  0
VERTEX
  8
6200LEVEL
 62
13
 10
1362.504
 20
-6342.432
 30
-965.000
 70
    32
  0
VERTEX
  8
6200LEVEL
 62
13
 10
1334.016
 20
-6274.940
 30
-965.000
 70
    32
  0
VERTEX
  8
6200LEVEL
 62
13
 10
1286.657
 20
-6282.713
 30
-965.000
 70
    32
  0
VERTEX
  8
6200LEVEL
 62
13
 10
1261.046
 20
-6230.804
 30
-965.000
 70
    32
  0
VERTEX
  8
6200LEVEL
 62
13
 10
1239.613
 20
-6151.434
 30
-965.000
 70
    32
  0
VERTEX
  8
6200LEVEL
 62
13
 10
1183.698
 20
-6070.712
 30
-965.000
 70
    32
  0
VERTEX
  8
6200LEVEL
 62
13
 10
1178.736
 20
-6012.765
 30
-965.000
 70
    32
  0
VERTEX
  8
6200LEVEL
 62
13
 10
1219.375
 20
-6079.814
 30
-965.000
 70
    32
  0
VERTEX
  8
6200LEVEL
 62
13
 10
1211.250
 20
-6006.486
 30
-965.000
 70
    32
  0
VERTEX
  8
6200LEVEL
 62
13
 10
1191.917
 20
-5932.505
 30
-965.000
 70
    32
  0
VERTEX
  8
6200LEVEL
 62
13
 10
1164.114
 20
-5889.027
 30
-965.000
 70
    32
  0
VERTEX
  8
6200LEVEL
 62
13
 10
1148.272
 20
-5867.908
 30
-965.000
 70
    32
  0
VERTEX
  8
6200LEVEL
 62
13
 10
1130.304
 20
-5856.220
 30
-965.000
 70
    32
  0
VERTEX
  8
6200LEVEL
 62
13
 10
1134.491
 20
-5884.132
 30
-965.000
 70
    32
  0
VERTEX
  8
6200LEVEL
 62
13
 10
1140.073
 20
-5896.343
 30
-965.000
 70
    32
  0
VERTEX
  8
6200LEVEL
 62
13
 10
1137.282
 20
-5908.206
 30
-965.000
 70
    32
  0
VERTEX
  8
6200LEVEL
 62
13
 10
1116.174
 20
-5897.390
 30
-965.000
 70
    32
  0
VERTEX
  8
6200LEVEL
 62
13
 10
1082.729
 20
-5860.309
 30
-965.000
 70
    32
  0
VERTEX
  8
6200LEVEL
 62
13
 10
1086.693
 20
-5919.197
 30
-965.000
 70
    32
  0
VERTEX
  8
6200LEVEL
 62
13
 10
1115.261
 20
-6035.399
 30
-965.000
 70
    32
  0
VERTEX
  8
6200LEVEL
 62
13
 10
1162.250
 20
-6113.686
 30
-965.000
 70
    32
  0
VERTEX
  8
6200LEVEL
 62
13
 10
1200.280
 20
-6148.228
 30
-965.000
 70
    32
  0
VERTEX
  8
6200LEVEL
 62
13
 10
1222.609
 20
-6206.493
 30
-965.000
 70
    32
  0
VERTEX
  8
6200LEVEL
 62
13
 10
1243.193
 20
-6285.346
 30
-965.000
 70
    32
  0
VERTEX
  8
6200LEVEL
 62
13
 10
1270.286
 20
-6332.998
 30
-965.000
 70
    32
  0
VERTEX
  8
6200LEVEL
 62
13
 10
1296.242
 20
-6379.935
 30
-965.000
 70
    32
  0
VERTEX
  8
6200LEVEL
 62
13
 10
1281.716
 20
-6478.774
 30
-965.000
 70
    32
  0
VERTEX
  8
6200LEVEL
 62
13
 10
1273.358
 20
-6469.072
 30
-965.000
 70
    32
  0
VERTEX
  8
6200LEVEL
 62
13
 10
1275.324
 20
-6414.100
 30
-965.000
 70
    32
  0
VERTEX
  8
6200LEVEL
 62
13
 10
1255.972
 20
-6358.997
 30
-965.000
 70
    32
  0
VERTEX
  8
6200LEVEL
 62
13
 10
1243.601
 20
-6325.540
 30
-965.000
 70
    32
  0
VERTEX
  8
6200LEVEL
 62
13
 10
1252.294
 20
-6361.339
 30
-965.000
 70
    32
  0
VERTEX
  8
6200LEVEL
 62
13
 10
1256.640
 20
-6384.759
 30
-965.000
 70
    32
  0
VERTEX
  8
6200LEVEL
 62
13
 10
1246.610
 20
-6381.079
 30
-965.000
 70
    32
  0
VERTEX
  8
6200LEVEL
 62
13
 10
1236.580
 20
-6373.049
 30
-965.000
 70
    32
  0
VERTEX
  8
6200LEVEL
 62
13
 10
1212.507
 20
-6330.558
 30
-965.000
 70
    32
  0
VERTEX
  8
6200LEVEL
 62
13
 10
1204.817
 20
-6324.201
 30
-965.000
 70
    32
  0
VERTEX
  8
6200LEVEL
 62
13
 10
1229.225
 20
-6378.402
 30
-965.000
 70
    32
  0
VERTEX
  8
6200LEVEL
 62
13
 10
1243.745
 20
-6442.927
 30
-965.000
 70
    32
  0
VERTEX
  8
6200LEVEL
 62
13
 10
1223.656
 20
-6383.736
 30
-965.000
 70
    32
  0
VERTEX
  8
6200LEVEL
 62
13
 10
1171.563
 20
-6296.797
 30
-965.000
 70
    32
  0
VERTEX
  8
6200LEVEL
 62
13
 10
1160.848
 20
-6316.854
 30
-965.000
 70
    32
  0
VERTEX
  8
6200LEVEL
 62
13
 10
1159.459
 20
-6367.687
 30
-965.000
 70
    32
  0
VERTEX
  8
6200LEVEL
 62
13
 10
1178.997
 20
-6414.440
 30
-965.000
 70
    32
  0
VERTEX
  8
6200LEVEL
 62
13
 10
1196.442
 20
-6525.391
 30
-965.000
 70
    32
  0
VERTEX
  8
6200LEVEL
 62
13
 10
1221.213
 20
-6630.760
 30
-965.000
 70
    32
  0
VERTEX
  8
6200LEVEL
 62
13
 10
1226.447
 20
-6751.479
 30
-965.000
 70
    32
  0
VERTEX
  8
6200LEVEL
 62
13
 10
1242.845
 20
-6862.780
 30
-965.000
 70
    32
  0
VERTEX
  8
6200LEVEL
 62
13
 10
1244.211
 20
-6919.688
 30
-965.000
 70
    32
  0
VERTEX
  8
6200LEVEL
 62
13
 10
1207.606
 20
-7000.945
 30
-965.000
 70
    32
  0
VERTEX
  8
6200LEVEL
 62
13
 10
1238.089
 20
-7052.970
 30
-965.000
 70
    32
  0
VERTEX
  8
6200LEVEL
 62
13
 10
1241.450
 20
-7111.198
 30
-965.000
 70
    32
  0
VERTEX
  8
6200LEVEL
 62
13
 10
1242.148
 20
-7124.108
 30
-965.000
 70
    32
  0
VERTEX
  8
6200LEVEL
 62
13
 10
1235.868
 20
-7114.687
 30
-965.000
 70
    32
  0
VERTEX
  8
6200LEVEL
 62
13
 10
1216.749
 20
-7068.952
 30
-965.000
 70
    32
  0
VERTEX
  8
6200LEVEL
 62
13
 10
1209.576
 20
-7090.368
 30
-965.000
 70
    32
  0
VERTEX
  8
6200LEVEL
 62
13
 10
1196.443
 20
-7034.788
 30
-965.000
 70
    32
  0
VERTEX
  8
6200LEVEL
 62
13
 10
1200.630
 20
-7140.506
 30
-965.000
 70
    32
  0
VERTEX
  8
6200LEVEL
 62
13
 10
1199.461
 20
-7179.201
 30
-965.000
 70
    32
  0
VERTEX
  8
6200LEVEL
 62
13
 10
1200.280
 20
-7263.668
 30
-965.000
 70
    32
  0
VERTEX
  8
6200LEVEL
 62
13
 10
1214.149
 20
-7329.112
 30
-965.000
 70
    32
  0
VERTEX
  8
6200LEVEL
 62
13
 10
1246.566
 20
-7316.024
 30
-965.000
 70
    32
  0
VERTEX
  8
6200LEVEL
 62
13
 10
1258.197
 20
-7221.451
 30
-965.000
 70
    32
  0
VERTEX
  8
6200LEVEL
 62
13
 10
1253.517
 20
-7157.225
 30
-965.000
 70
    32
  0
VERTEX
  8
6200LEVEL
 62
13
 10
1248.079
 20
-7107.012
 30
-965.000
 70
    32
  0
VERTEX
  8
6200LEVEL
 62
13
 10
1247.730
 20
-7041.766
 30
-965.000
 70
    32
  0
VERTEX
  8
6200LEVEL
 62
13
 10
1221.911
 20
-6997.805
 30
-965.000
 70
    32
  0
VERTEX
  8
6200LEVEL
 62
13
 10
1258.999
 20
-6933.277
 30
-965.000
 70
    32
  0
VERTEX
  8
6200LEVEL
 62
13
 10
1263.304
 20
-6882.947
 30
-965.000
 70
    32
  0
VERTEX
  8
6200LEVEL
 62
13
 10
1262.034
 20
-6849.173
 30
-965.000
 70
    32
  0
VERTEX
  8
6200LEVEL
 62
13
 10
1257.847
 20
-6728.452
 30
-965.000
 70
    32
  0
VERTEX
  8
6200LEVEL
 62
13
 10
1257.810
 20
-6683.540
 30
-965.000
 70
    32
  0
VERTEX
  8
6200LEVEL
 62
13
 10
1273.510
 20
-6671.124
 30
-965.000
 70
    32
  0
VERTEX
  8
6200LEVEL
 62
13
 10
1287.154
 20
-6706.471
 30
-965.000
 70
    32
  0
VERTEX
  8
6200LEVEL
 62
13
 10
1307.390
 20
-6815.678
 30
-965.000
 70
    32
  0
VERTEX
  8
6200LEVEL
 62
13
 10
1309.678
 20
-6898.652
 30
-965.000
 70
    32
  0
VERTEX
  8
6200LEVEL
 62
13
 10
1300.412
 20
-6944.074
 30
-965.000
 70
    32
  0
VERTEX
  8
6200LEVEL
 62
13
 10
1342.978
 20
-7035.835
 30
-965.000
 70
    32
  0
VERTEX
  8
6200LEVEL
 62
13
 10
1357.980
 20
-7068.632
 30
-965.000
 70
    32
  0
VERTEX
  8
6200LEVEL
 62
13
 10
1328.673
 20
-7046.302
 30
-965.000
 70
    32
  0
VERTEX
  8
6200LEVEL
 62
13
 10
1282.270
 20
-6999.549
 30
-965.000
 70
    32
  0
VERTEX
  8
6200LEVEL
 62
13
 10
1299.867
 20
-7067.556
 30
-965.000
 70
    32
  0
VERTEX
  8
6200LEVEL
 62
13
 10
1318.555
 20
-7118.874
 30
-965.000
 70
    32
  0
VERTEX
  8
6200LEVEL
 62
13
 10
1312.624
 20
-7181.674
 30
-965.000
 70
    32
  0
VERTEX
  8
6200LEVEL
 62
13
 10
1315.955
 20
-7238.053
 30
-965.000
 70
    32
  0
VERTEX
  8
6200LEVEL
 62
13
 10
1306.212
 20
-7281.921
 30
-965.000
 70
    32
  0
VERTEX
  8
6200LEVEL
 62
13
 10
1285.530
 20
-7307.323
 30
-965.000
 70
    32
  0
VERTEX
  8
6200LEVEL
 62
13
 10
1289.247
 20
-7322.273
 30
-965.000
 70
    32
  0
VERTEX
  8
6200LEVEL
 62
13
 10
1299.936
 20
-7368.893
 30
-965.000
 70
    32
  0
VERTEX
  8
6200LEVEL
 62
13
 10
1321.834
 20
-7345.208
 30
-965.000
 70
    32
  0
VERTEX
  8
6200LEVEL
 62
13
 10
1338.143
 20
-7388.236
 30
-965.000
 70
    32
  0
VERTEX
  8
6200LEVEL
 62
13
 10
1359.545
 20
-7333.526
 30
-965.000
 70
    32
  0
VERTEX
  8
6200LEVEL
 62
13
 10
1357.282
 20
-7274.134
 30
-965.000
 70
    32
  0
VERTEX
  8
6200LEVEL
 62
13
 10
1321.347
 20
-7175.743
 30
-965.000
 70
    32
  0
VERTEX
  8
6200LEVEL
 62
13
 10
1322.742
 20
-7156.902
 30
-965.000
 70
    32
  0
VERTEX
  8
6200LEVEL
 62
13
 10
1329.720
 20
-7143.992
 30
-965.000
 70
    32
  0
VERTEX
  8
6200LEVEL
 62
13
 10
1340.187
 20
-7148.528
 30
-965.000
 70
    32
  0
VERTEX
  8
6200LEVEL
 62
13
 10
1349.607
 20
-7155.157
 30
-965.000
 70
    32
  0
VERTEX
  8
6200LEVEL
 62
13
 10
1371.936
 20
-7177.836
 30
-965.000
 70
    32
  0
VERTEX
  8
6200LEVEL
 62
13
 10
1399.847
 20
-7210.982
 30
-965.000
 70
    32
  0
VERTEX
  8
6200LEVEL
 62
13
 10
1407.652
 20
-7237.977
 30
-965.000
 70
    32
  0
VERTEX
  8
6200LEVEL
 62
13
 10
1408.570
 20
-7274.483
 30
-965.000
 70
    32
  0
VERTEX
  8
6200LEVEL
 62
13
 10
1397.405
 20
-7367.641
 30
-965.000
 70
    32
  0
VERTEX
  8
6200LEVEL
 62
13
 10
1415.321
 20
-7429.820
 30
-965.000
 70
    32
  0
VERTEX
  8
6200LEVEL
 62
13
 10
1423.957
 20
-7497.197
 30
-965.000
 70
    32
  0
VERTEX
  8
6200LEVEL
 62
13
 10
1452.250
 20
-7574.538
 30
-965.000
 70
    32
  0
VERTEX
  8
6200LEVEL
 62
13
 10
1474.462
 20
-7612.340
 30
-965.000
 70
    32
  0
VERTEX
  8
6200LEVEL
 62
13
 10
1500.741
 20
-7663.234
 30
-965.000
 70
    32
  0
VERTEX
  8
6200LEVEL
 62
13
 10
1510.941
 20
-7687.403
 30
-965.000
 70
    32
  0
VERTEX
  8
6200LEVEL
 62
13
 10
1503.593
 20
-7699.938
 30
-965.000
 70
    32
  0
VERTEX
  8
6200LEVEL
 62
13
 10
1483.757
 20
-7674.190
 30
-965.000
 70
    32
  0
VERTEX
  8
6200LEVEL
 62
13
 10
1470.850
 20
-7645.983
 30
-965.000
 70
    32
  0
VERTEX
  8
6200LEVEL
 62
13
 10
1443.401
 20
-7580.869
 30
-965.000
 70
    32
  0
VERTEX
  8
6200LEVEL
 62
13
 10
1424.801
 20
-7545.960
 30
-965.000
 70
    32
  0
VERTEX
  8
6200LEVEL
 62
13
 10
1432.024
 20
-7589.370
 30
-965.000
 70
    32
  0
VERTEX
  8
6200LEVEL
 62
13
 10
1460.469
 20
-7665.167
 30
-965.000
 70
    32
  0
VERTEX
  8
6200LEVEL
 62
13
 10
1423.717
 20
-7595.339
 30
-965.000
 70
    32
  0
VERTEX
  8
6200LEVEL
 62
13
 10
1417.071
 20
-7572.997
 30
-965.000
 70
    32
  0
VERTEX
  8
6200LEVEL
 62
13
 10
1374.235
 20
-7524.075
 30
-965.000
 70
    32
  0
VERTEX
  8
6200LEVEL
 62
13
 10
1396.087
 20
-7615.416
 30
-965.000
 70
    32
  0
VERTEX
  8
6200LEVEL
 62
13
 10
1442.859
 20
-7705.128
 30
-965.000
 70
    32
  0
VERTEX
  8
6200LEVEL
 62
13
 10
1468.864
 20
-7809.130
 30
-965.000
 70
    32
  0
VERTEX
  8
6200LEVEL
 62
13
 10
1479.691
 20
-7878.486
 30
-965.000
 70
    32
  0
VERTEX
  8
6200LEVEL
 62
13
 10
1437.397
 20
-7872.784
 30
-965.000
 70
    32
  0
VERTEX
  8
6200LEVEL
 62
13
 10
1410.507
 20
-7850.947
 30
-965.000
 70
    32
  0
VERTEX
  8
6200LEVEL
 62
13
 10
1379.185
 20
-7817.330
 30
-965.000
 70
    32
  0
VERTEX
  8
6200LEVEL
 62
13
 10
1334.075
 20
-7747.003
 30
-965.000
 70
    32
  0
VERTEX
  8
6200LEVEL
 62
13
 10
1335.603
 20
-7807.383
 30
-965.000
 70
    32
  0
VERTEX
  8
6200LEVEL
 62
13
 10
1361.814
 20
-7873.481
 30
-965.000
 70
    32
  0
VERTEX
  8
6200LEVEL
 62
13
 10
1349.764
 20
-7945.633
 30
-965.000
 70
    32
  0
VERTEX
  8
6200LEVEL
 62
13
 10
1322.490
 20
-8033.301
 30
-965.000
 70
    32
  0
VERTEX
  8
6200LEVEL
 62
13
 10
1321.126
 20
-8115.072
 30
-965.000
 70
    32
  0
VERTEX
  8
6200LEVEL
 62
13
 10
1341.720
 20
-8178.704
 30
-965.000
 70
    32
  0
VERTEX
  8
6200LEVEL
 62
13
 10
1338.623
 20
-8244.081
 30
-965.000
 70
    32
  0
VERTEX
  8
6200LEVEL
 62
13
 10
1347.437
 20
-8307.464
 30
-965.000
 70
    32
  0
VERTEX
  8
6200LEVEL
 62
13
 10
1324.901
 20
-8250.797
 30
-965.000
 70
    32
  0
VERTEX
  8
6200LEVEL
 62
13
 10
1317.786
 20
-8212.858
 30
-965.000
 70
    32
  0
VERTEX
  8
6200LEVEL
 62
13
 10
1310.322
 20
-8268.435
 30
-965.000
 70
    32
  0
VERTEX
  8
6200LEVEL
 62
13
 10
1329.044
 20
-8331.244
 30
-965.000
 70
    32
  0
VERTEX
  8
6200LEVEL
 62
13
 10
1355.953
 20
-8374.067
 30
-965.000
 70
    32
  0
VERTEX
  8
6200LEVEL
 62
13
 10
1371.121
 20
-8428.220
 30
-965.000
 70
    32
  0
VERTEX
  8
6200LEVEL
 62
13
 10
1378.765
 20
-8488.134
 30
-965.000
 70
    32
  0
VERTEX
  8
6200LEVEL
 62
13
 10
1397.104
 20
-8544.337
 30
-965.000
 70
    32
  0
VERTEX
  8
6200LEVEL
 62
13
 10
1408.608
 20
-8586.043
 30
-965.000
 70
    32
  0
VERTEX
  8
6200LEVEL
 62
13
 10
1412.684
 20
-8684.590
 30
-965.000
 70
    32
  0
VERTEX
  8
6200LEVEL
 62
13
 10
1416.830
 20
-8720.765
 30
-965.000
 70
    32
  0
VERTEX
  8
6200LEVEL
 62
13
 10
1418.272
 20
-8771.320
 30
-965.000
 70
    32
  0
VERTEX
  8
6200LEVEL
 62
13
 10
1389.811
 20
-8773.008
 30
-965.000
 70
    32
  0
VERTEX
  8
6200LEVEL
 62
13
 10
1387.612
 20
-8695.911
 30
-965.000
 70
    32
  0
VERTEX
  8
6200LEVEL
 62
13
 10
1396.242
 20
-8633.489
 30
-965.000
 70
    32
  0
VERTEX
  8
6200LEVEL
 62
13
 10
1383.326
 20
-8566.136
 30
-965.000
 70
    32
  0
VERTEX
  8
6200LEVEL
 62
13
 10
1342.437
 20
-8500.554
 30
-965.000
 70
    32
  0
VERTEX
  8
6200LEVEL
 62
13
 10
1306.023
 20
-8448.564
 30
-965.000
 70
    32
  0
VERTEX
  8
6200LEVEL
 62
13
 10
1302.720
 20
-8394.170
 30
-965.000
 70
    32
  0
VERTEX
  8
6200LEVEL
 62
13
 10
1307.520
 20
-8320.279
 30
-965.000
 70
    32
  0
VERTEX
  8
6200LEVEL
 62
13
 10
1273.257
 20
-8237.967
 30
-965.000
 70
    32
  0
VERTEX
  8
6200LEVEL
 62
13
 10
1287.318
 20
-8304.509
 30
-965.000
 70
    32
  0
VERTEX
  8
6200LEVEL
 62
13
 10
1288.166
 20
-8361.503
 30
-965.000
 70
    32
  0
VERTEX
  8
6200LEVEL
 62
13
 10
1258.708
 20
-8304.185
 30
-965.000
 70
    32
  0
VERTEX
  8
6200LEVEL
 62
13
 10
1227.676
 20
-8231.554
 30
-965.000
 70
    32
  0
VERTEX
  8
6200LEVEL
 62
13
 10
1202.303
 20
-8145.123
 30
-965.000
 70
    32
  0
VERTEX
  8
6200LEVEL
 62
13
 10
1186.106
 20
-8071.928
 30
-965.000
 70
    32
  0
VERTEX
  8
6200LEVEL
 62
13
 10
1187.079
 20
-7996.881
 30
-965.000
 70
    32
  0
VERTEX
  8
6200LEVEL
 62
13
 10
1209.218
 20
-7930.474
 30
-965.000
 70
    32
  0
VERTEX
  8
6200LEVEL
 62
13
 10
1221.613
 20
-7853.350
 30
-965.000
 70
    32
  0
VERTEX
  8
6200LEVEL
 62
13
 10
1200.578
 20
-7757.948
 30
-965.000
 70
    32
  0
VERTEX
  8
6200LEVEL
 62
13
 10
1188.207
 20
-7671.152
 30
-965.000
 70
    32
  0
VERTEX
  8
6200LEVEL
 62
13
 10
1211.327
 20
-7749.410
 30
-965.000
 70
    32
  0
VERTEX
  8
6200LEVEL
 62
13
 10
1247.470
 20
-7883.165
 30
-965.000
 70
    32
  0
VERTEX
  8
6200LEVEL
 62
13
 10
1241.361
 20
-7815.715
 30
-965.000
 70
    32
  0
VERTEX
  8
6200LEVEL
 62
13
 10
1219.236
 20
-7743.922
 30
-965.000
 70
    32
  0
VERTEX
  8
6200LEVEL
 62
13
 10
1201.125
 20
-7629.754
 30
-965.000
 70
    32
  0
VERTEX
  8
6200LEVEL
 62
13
 10
1229.538
 20
-7736.270
 30
-965.000
 70
    32
  0
VERTEX
  8
6200LEVEL
 62
13
 10
1249.812
 20
-7798.776
 30
-965.000
 70
    32
  0
VERTEX
  8
6200LEVEL
 62
13
 10
1236.837
 20
-7733.023
 30
-965.000
 70
    32
  0
VERTEX
  8
6200LEVEL
 62
13
 10
1214.801
 20
-7625.757
 30
-965.000
 70
    32
  0
VERTEX
  8
6200LEVEL
 62
13
 10
1194.014
 20
-7557.857
 30
-965.000
 70
    32
  0
VERTEX
  8
6200LEVEL
 62
13
 10
1181.347
 20
-7587.895
 30
-965.000
 70
    32
  0
VERTEX
  8
6200LEVEL
 62
13
 10
1165.536
 20
-7586.205
 30
-965.000
 70
    32
  0
VERTEX
  8
6200LEVEL
 62
13
 10
1153.409
 20
-7516.470
 30
-965.000
 70
    32
  0
VERTEX
  8
6200LEVEL
 62
13
 10
1150.484
 20
-7468.222
 30
-965.000
 70
    32
  0
VERTEX
  8
6200LEVEL
 62
13
 10
1157.232
 20
-7474.309
 30
-965.000
 70
    32
  0
VERTEX
  8
6200LEVEL
 62
13
 10
1139.727
 20
-7431.587
 30
-965.000
 70
    32
  0
VERTEX
  8
6200LEVEL
 62
13
 10
1133.390
 20
-7389.311
 30
-965.000
 70
    32
  0
VERTEX
  8
6200LEVEL
 62
13
 10
1123.523
 20
-7320.179
 30
-965.000
 70
    32
  0
VERTEX
  8
6200LEVEL
 62
13
 10
1148.952
 20
-7215.757
 30
-965.000
 70
    32
  0
VERTEX
  8
6200LEVEL
 62
13
 10
1149.152
 20
-7177.753
 30
-965.000
 70
    32
  0
VERTEX
  8
6200LEVEL
 62
13
 10
1118.940
 20
-7075.705
 30
-965.000
 70
    32
  0
VERTEX
  8
6200LEVEL
 62
13
 10
1117.243
 20
-7001.631
 30
-965.000
 70
    32
  0
VERTEX
  8
6200LEVEL
 62
13
 10
1126.763
 20
-7069.750
 30
-965.000
 70
    32
  0
VERTEX
  8
6200LEVEL
 62
13
 10
1155.914
 20
-7173.177
 30
-965.000
 70
    32
  0
VERTEX
  8
6200LEVEL
 62
13
 10
1153.528
 20
-7235.653
 30
-965.000
 70
    32
  0
VERTEX
  8
6200LEVEL
 62
13
 10
1145.571
 20
-7272.860
 30
-965.000
 70
    32
  0
VERTEX
  8
6200LEVEL
 62
13
 10
1138.875
 20
-7308.316
 30
-965.000
 70
    32
  0
VERTEX
  8
6200LEVEL
 62
13
 10
1146.400
 20
-7426.015
 30
-965.000
 70
    32
  0
VERTEX
  8
6200LEVEL
 62
13
 10
1163.755
 20
-7474.760
 30
-965.000
 70
    32
  0
VERTEX
  8
6200LEVEL
 62
13
 10
1155.743
 20
-7419.327
 30
-965.000
 70
    32
  0
VERTEX
  8
6200LEVEL
 62
13
 10
1169.926
 20
-7322.621
 30
-965.000
 70
    32
  0
VERTEX
  8
6200LEVEL
 62
13
 10
1168.880
 20
-7287.743
 30
-965.000
 70
    32
  0
VERTEX
  8
6200LEVEL
 62
13
 10
1162.600
 20
-7167.719
 30
-965.000
 70
    32
  0
VERTEX
  8
6200LEVEL
 62
13
 10
1167.897
 20
-7116.466
 30
-965.000
 70
    32
  0
VERTEX
  8
6200LEVEL
 62
13
 10
1153.973
 20
-7049.877
 30
-965.000
 70
    32
  0
VERTEX
  8
6200LEVEL
 62
13
 10
1148.371
 20
-7028.869
 30
-965.000
 70
    32
  0
VERTEX
  8
6200LEVEL
 62
13
 10
1163.817
 20
-7042.968
 30
-965.000
 70
    32
  0
VERTEX
  8
6200LEVEL
 62
13
 10
1174.463
 20
-7057.118
 30
-965.000
 70
    32
  0
VERTEX
  8
6200LEVEL
 62
13
 10
1167.876
 20
-7040.118
 30
-965.000
 70
    32
  0
VERTEX
  8
6200LEVEL
 62
13
 10
1164.344
 20
-7003.387
 30
-965.000
 70
    32
  0
VERTEX
  8
6200LEVEL
 62
13
 10
1139.223
 20
-6937.794
 30
-965.000
 70
    32
  0
VERTEX
  8
6200LEVEL
 62
13
 10
1108.870
 20
-6836.612
 30
-965.000
 70
    32
  0
VERTEX
  8
6200LEVEL
 62
13
 10
1102.209
 20
-6792.091
 30
-965.000
 70
    32
  0
VERTEX
  8
6200LEVEL
 62
13
 10
1130.152
 20
-6835.216
 30
-965.000
 70
    32
  0
VERTEX
  8
6200LEVEL
 62
13
 10
1150.039
 20
-6852.662
 30
-965.000
 70
    32
  0
VERTEX
  8
6200LEVEL
 62
13
 10
1175.508
 20
-6877.434
 30
-965.000
 70
    32
  0
VERTEX
  8
6200LEVEL
 62
13
 10
1189.115
 20
-6901.508
 30
-965.000
 70
    32
  0
VERTEX
  8
6200LEVEL
 62
13
 10
1194.697
 20
-6903.950
 30
-965.000
 70
    32
  0
VERTEX
  8
6200LEVEL
 62
13
 10
1192.255
 20
-6899.415
 30
-965.000
 70
    32
  0
VERTEX
  8
6200LEVEL
 62
13
 10
1180.393
 20
-6874.294
 30
-965.000
 70
    32
  0
VERTEX
  8
6200LEVEL
 62
13
 10
1163.995
 20
-6841.148
 30
-965.000
 70
    32
  0
VERTEX
  8
6200LEVEL
 62
13
 10
1150.039
 20
-6829.285
 30
-965.000
 70
    32
  0
VERTEX
  8
6200LEVEL
 62
13
 10
1143.658
 20
-6810.966
 30
-965.000
 70
    32
  0
VERTEX
  8
6200LEVEL
 62
13
 10
1140.821
 20
-6757.420
 30
-965.000
 70
    32
  0
VERTEX
  8
6200LEVEL
 62
13
 10
1158.752
 20
-6748.152
 30
-965.000
 70
    32
  0
VERTEX
  8
6200LEVEL
 62
13
 10
1146.715
 20
-6685.048
 30
-965.000
 70
    32
  0
VERTEX
  8
6200LEVEL
 62
13
 10
1146.899
 20
-6560.979
 30
-965.000
 70
    32
  0
VERTEX
  8
6200LEVEL
 62
13
 10
1119.687
 20
-6520.145
 30
-965.000
 70
    32
  0
VERTEX
  8
6200LEVEL
 62
13
 10
1109.917
 20
-6464.682
 30
-965.000
 70
    32
  0
VERTEX
  8
6200LEVEL
 62
13
 10
1107.125
 20
-6453.168
 30
-965.000
 70
    32
  0
VERTEX
  8
6200LEVEL
 62
13
 10
1109.219
 20
-6435.723
 30
-965.000
 70
    32
  0
VERTEX
  8
6200LEVEL
 62
13
 10
1130.850
 20
-6449.330
 30
-965.000
 70
    32
  0
VERTEX
  8
6200LEVEL
 62
13
 10
1133.292
 20
-6510.039
 30
-965.000
 70
    32
  0
VERTEX
  8
6200LEVEL
 62
13
 10
1156.668
 20
-6553.652
 30
-965.000
 70
    32
  0
VERTEX
  8
6200LEVEL
 62
13
 10
1164.344
 20
-6565.864
 30
-965.000
 70
    32
  0
VERTEX
  8
6200LEVEL
 62
13
 10
1184.928
 20
-6554.001
 30
-965.000
 70
    32
  0
VERTEX
  8
6200LEVEL
 62
13
 10
1178.649
 20
-6538.650
 30
-965.000
 70
    32
  0
VERTEX
  8
6200LEVEL
 62
13
 10
1144.457
 20
-6504.108
 30
-965.000
 70
    32
  0
VERTEX
  8
6200LEVEL
 62
13
 10
1152.830
 20
-6434.327
 30
-965.000
 70
    32
  0
VERTEX
  8
6200LEVEL
 62
13
 10
1117.243
 20
-6398.390
 30
-965.000
 70
    32
  0
VERTEX
  8
6200LEVEL
 62
13
 10
1089.327
 20
-6360.947
 30
-965.000
 70
    32
  0
VERTEX
  8
6200LEVEL
 62
13
 10
1057.333
 20
-6318.555
 30
-965.000
 70
    32
  0
VERTEX
  8
6200LEVEL
 62
13
 10
1085.868
 20
-6267.799
 30
-965.000
 70
    32
  0
VERTEX
  8
6200LEVEL
 62
13
 10
1092.210
 20
-6231.463
 30
-965.000
 70
    32
  0
VERTEX
  8
6200LEVEL
 62
13
 10
1102.602
 20
-6187.572
 30
-965.000
 70
    32
  0
VERTEX
  8
6200LEVEL
 62
13
 10
1102.461
 20
-6111.930
 30
-965.000
 70
    32
  0
VERTEX
  8
6200LEVEL
 62
13
 10
1061.398
 20
-6069.050
 30
-965.000
 70
    32
  0
VERTEX
  8
6200LEVEL
 62
13
 10
1051.105
 20
-6014.970
 30
-965.000
 70
    32
  0
VERTEX
  8
6200LEVEL
 62
13
 10
1038.393
 20
-5954.239
 30
-965.000
 70
    32
  0
VERTEX
  8
6200LEVEL
 62
13
 10
1029.371
 20
-5859.010
 30
-965.000
 70
    32
  0
VERTEX
  8
6200LEVEL
 62
13
 10
1043.519
 20
-5781.933
 30
-965.000
 70
    32
  0
VERTEX
  8
6200LEVEL
 62
13
 10
1052.911
 20
-5743.193
 30
-965.000
 70
    32
  0
VERTEX
  8
6200LEVEL
 62
13
 10
1053.430
 20
-5705.840
 30
-965.000
 70
    32
  0
VERTEX
  8
6200LEVEL
 62
13
 10
1040.466
 20
-5678.864
 30
-965.000
 70
    32
  0
VERTEX
  8
6200LEVEL
 62
13
 10
1034.762
 20
-5687.164
 30
-965.000
 70
    32
  0
VERTEX
  8
6200LEVEL
 62
13
 10
1040.984
 20
-5715.697
 30
-965.000
 70
    32
  0
VERTEX
  8
6200LEVEL
 62
13
 10
1039.947
 20
-5729.704
 30
-965.000
 70
    32
  0
VERTEX
  8
6200LEVEL
 62
13
 10
1035.799
 20
-5719.329
 30
-965.000
 70
    32
  0
VERTEX
  8
6200LEVEL
 62
13
 10
1014.019
 20
-5701.171
 30
-965.000
 70
    32
  0
VERTEX
  8
6200LEVEL
 62
13
 10
1000.537
 20
-5720.885
 30
-965.000
 70
    32
  0
VERTEX
  8
6200LEVEL
 62
13
 10
1001.056
 20
-5744.749
 30
-965.000
 70
    32
  0
VERTEX
  8
6200LEVEL
 62
13
 10
998.463
 20
-5808.041
 30
-965.000
 70
    32
  0
VERTEX
  8
6200LEVEL
 62
13
 10
1003.080
 20
-5858.300
 30
-965.000
 70
    32
  0
VERTEX
  8
6200LEVEL
 62
13
 10
993.805
 20
-5918.600
 30
-965.000
 70
    32
  0
VERTEX
  8
6200LEVEL
 62
13
 10
1038.720
 20
-6023.518
 30
-965.000
 70
    32
  0
VERTEX
  8
6200LEVEL
 62
13
 10
1043.604
 20
-6082.308
 30
-965.000
 70
    32
  0
VERTEX
  8
6200LEVEL
 62
13
 10
1062.118
 20
-6134.619
 30
-965.000
 70
    32
  0
VERTEX
  8
6200LEVEL
 62
13
 10
1072.502
 20
-6187.338
 30
-965.000
 70
    32
  0
VERTEX
  8
6200LEVEL
 62
13
 10
1049.262
 20
-6263.474
 30
-965.000
 70
    32
  0
VERTEX
  8
6200LEVEL
 62
13
 10
1050.267
 20
-6275.499
 30
-965.000
 70
    32
  0
VERTEX
  8
6200LEVEL
 62
13
 10
1041.191
 20
-6268.376
 30
-965.000
 70
    32
  0
VERTEX
  8
6200LEVEL
 62
13
 10
1007.118
 20
-6255.254
 30
-965.000
 70
    32
  0
VERTEX
  8
6200LEVEL
 62
13
 10
963.574
 20
-6205.766
 30
-965.000
 70
    32
  0
VERTEX
  8
6200LEVEL
 62
13
 10
979.509
 20
-6174.075
 30
-965.000
 70
    32
  0
VERTEX
  8
6200LEVEL
 62
13
 10
984.990
 20
-6062.420
 30
-965.000
 70
    32
  0
VERTEX
  8
6200LEVEL
 62
13
 10
954.811
 20
-6014.970
 30
-965.000
 70
    32
  0
VERTEX
  8
6200LEVEL
 62
13
 10
948.977
 20
-5936.614
 30
-965.000
 70
    32
  0
VERTEX
  8
6200LEVEL
 62
13
 10
916.599
 20
-5853.242
 30
-965.000
 70
    32
  0
VERTEX
  8
6200LEVEL
 62
13
 10
927.648
 20
-5858.477
 30
-965.000
 70
    32
  0
VERTEX
  8
6200LEVEL
 62
13
 10
958.266
 20
-5938.198
 30
-965.000
 70
    32
  0
VERTEX
  8
6200LEVEL
 62
13
 10
981.152
 20
-5995.606
 30
-965.000
 70
    32
  0
VERTEX
  8
6200LEVEL
 62
13
 10
1001.912
 20
-6050.732
 30
-965.000
 70
    32
  0
VERTEX
  8
6200LEVEL
 62
13
 10
1001.638
 20
-6124.946
 30
-965.000
 70
    32
  0
VERTEX
  8
6200LEVEL
 62
13
 10
1003.433
 20
-6177.247
 30
-965.000
 70
    32
  0
VERTEX
  8
6200LEVEL
 62
13
 10
1029.152
 20
-6223.045
 30
-965.000
 70
    32
  0
VERTEX
  8
6200LEVEL
 62
13
 10
1040.663
 20
-6176.375
 30
-965.000
 70
    32
  0
VERTEX
  8
6200LEVEL
 62
13
 10
1026.203
 20
-6160.233
 30
-965.000
 70
    32
  0
VERTEX
  8
6200LEVEL
 62
13
 10
1031.044
 20
-6091.205
 30
-965.000
 70
    32
  0
VERTEX
  8
6200LEVEL
 62
13
 10
1017.263
 20
-6039.044
 30
-965.000
 70
    32
  0
VERTEX
  8
6200LEVEL
 62
13
 10
994.331
 20
-5974.533
 30
-965.000
 70
    32
  0
VERTEX
  8
6200LEVEL
 62
13
 10
973.328
 20
-5900.016
 30
-965.000
 70
    32
  0
VERTEX
  8
6200LEVEL
 62
13
 10
970.338
 20
-5828.366
 30
-965.000
 70
    32
  0
VERTEX
  8
6200LEVEL
 62
13
 10
945.322
 20
-5742.201
 30
-965.000
 70
    32
  0
VERTEX
  8
6200LEVEL
 62
13
 10
929.489
 20
-5733.331
 30
-965.000
 70
    32
  0
VERTEX
  8
6200LEVEL
 62
13
 10
918.279
 20
-5696.184
 30
-965.000
 70
    32
  0
VERTEX
  8
6200LEVEL
 62
13
 10
883.559
 20
-5583.658
 30
-965.000
 70
    32
  0
VERTEX
  8
6200LEVEL
 62
13
 10
873.011
 20
-5575.968
 30
-965.000
 70
    32
  0
VERTEX
  8
6200LEVEL
 62
13
 10
850.852
 20
-5564.437
 30
-965.000
 70
    32
  0
VERTEX
  8
6200LEVEL
 62
13
 10
837.586
 20
-5553.636
 30
-965.000
 70
    32
  0
VERTEX
  8
6200LEVEL
 62
13
 10
828.839
 20
-5535.537
 30
-965.000
 70
    32
  0
VERTEX
  8
6200LEVEL
 62
13
 10
837.878
 20
-5539.916
 30
-965.000
 70
    32
  0
VERTEX
  8
6200LEVEL
 62
13
 10
846.333
 20
-5547.506
 30
-965.000
 70
    32
  0
VERTEX
  8
6200LEVEL
 62
13
 10
857.120
 20
-5556.555
 30
-965.000
 70
    32
  0
VERTEX
  8
6200LEVEL
 62
13
 10
876.218
 20
-5567.648
 30
-965.000
 70
    32
  0
VERTEX
  8
6200LEVEL
 62
13
 10
887.850
 20
-5578.751
 30
-965.000
 70
    32
  0
VERTEX
  8
6200LEVEL
 62
13
 10
916.051
 20
-5595.928
 30
-965.000
 70
    32
  0
VERTEX
  8
6200LEVEL
 62
13
 10
914.212
 20
-5559.734
 30
-965.000
 70
    32
  0
VERTEX
  8
6200LEVEL
 62
13
 10
915.438
 20
-5497.776
 30
-965.000
 70
    32
  0
VERTEX
  8
6200LEVEL
 62
13
 10
911.392
 20
-5454.782
 30
-965.000
 70
    32
  0
VERTEX
  8
6200LEVEL
 62
13
 10
928.926
 20
-5486.120
 30
-965.000
 70
    32
  0
VERTEX
  8
6200LEVEL
 62
13
 10
948.544
 20
-5504.523
 30
-965.000
 70
    32
  0
VERTEX
  8
6200LEVEL
 62
13
 10
965.097
 20
-5505.137
 30
-965.000
 70
    32
  0
VERTEX
  8
6200LEVEL
 62
13
 10
955.901
 20
-5467.717
 30
-965.000
 70
    32
  0
VERTEX
  8
6200LEVEL
 62
13
 10
935.057
 20
-5420.481
 30
-965.000
 70
    32
  0
VERTEX
  8
6200LEVEL
 62
13
 10
913.599
 20
-5375.086
 30
-965.000
 70
    32
  0
VERTEX
  8
6200LEVEL
 62
13
 10
891.528
 20
-5353.001
 30
-965.000
 70
    32
  0
VERTEX
  8
6200LEVEL
 62
13
 10
860.875
 20
-5281.841
 30
-965.000
 70
    32
  0
VERTEX
  8
6200LEVEL
 62
13
 10
861.488
 20
-5294.723
 30
-965.000
 70
    32
  0
VERTEX
  8
6200LEVEL
 62
13
 10
883.559
 20
-5359.749
 30
-965.000
 70
    32
  0
VERTEX
  8
6200LEVEL
 62
13
 10
887.850
 20
-5376.312
 30
-965.000
 70
    32
  0
VERTEX
  8
6200LEVEL
 62
13
 10
854.744
 20
-5399.010
 30
-965.000
 70
    32
  0
VERTEX
  8
6200LEVEL
 62
13
 10
845.548
 20
-5386.128
 30
-965.000
 70
    32
  0
VERTEX
  8
6200LEVEL
 62
13
 10
803.307
 20
-5250.712
 30
-965.000
 70
    32
  0
VERTEX
  8
6200LEVEL
 62
13
 10
766.525
 20
-5155.142
 30
-965.000
 70
    32
  0
VERTEX
  8
6200LEVEL
 62
13
 10
729.278
 20
-5108.041
 30
-965.000
 70
    32
  0
VERTEX
  8
6200LEVEL
 62
13
 10
714.646
 20
-5205.662
 30
-965.000
 70
    32
  0
VERTEX
  8
6200LEVEL
 62
13
 10
719.819
 20
-5305.150
 30
-965.000
 70
    32
  0
VERTEX
  8
6200LEVEL
 62
13
 10
714.963
 20
-5416.800
 30
-965.000
 70
    32
  0
VERTEX
  8
6200LEVEL
 62
13
 10
737.647
 20
-5502.683
 30
-965.000
 70
    32
  0
VERTEX
  8
6200LEVEL
 62
13
 10
715.475
 20
-5551.932
 30
-965.000
 70
    32
  0
VERTEX
  8
6200LEVEL
 62
13
 10
656.721
 20
-5588.566
 30
-965.000
 70
    32
  0
VERTEX
  8
6200LEVEL
 62
13
 10
635.263
 20
-5580.591
 30
-965.000
 70
    32
  0
VERTEX
  8
6200LEVEL
 62
13
 10
645.073
 20
-5521.700
 30
-965.000
 70
    32
  0
VERTEX
  8
6200LEVEL
 62
13
 10
695.345
 20
-5463.423
 30
-965.000
 70
    32
  0
VERTEX
  8
6200LEVEL
 62
13
 10
702.088
 20
-5424.775
 30
-965.000
 70
    32
  0
VERTEX
  8
6200LEVEL
 62
13
 10
688.103
 20
-5359.862
 30
-965.000
 70
    32
  0
VERTEX
  8
6200LEVEL
 62
13
 10
674.943
 20
-5270.332
 30
-965.000
 70
    32
  0
VERTEX
  8
6200LEVEL
 62
13
 10
652.438
 20
-5194.301
 30
-965.000
 70
    32
  0
VERTEX
  8
6200LEVEL
 62
13
 10
630.972
 20
-5244.420
 30
-965.000
 70
    32
  0
VERTEX
  8
6200LEVEL
 62
13
 10
657.947
 20
-5363.430
 30
-965.000
 70
    32
  0
VERTEX
  8
6200LEVEL
 62
13
 10
649.364
 20
-5430.909
 30
-965.000
 70
    32
  0
VERTEX
  8
6200LEVEL
 62
13
 10
601.544
 20
-5534.582
 30
-965.000
 70
    32
  0
VERTEX
  8
6200LEVEL
 62
13
 10
614.419
 20
-5656.659
 30
-965.000
 70
    32
  0
VERTEX
  8
6200LEVEL
 62
13
 10
679.006
 20
-5731.751
 30
-965.000
 70
    32
  0
VERTEX
  8
6200LEVEL
 62
13
 10
669.823
 20
-5799.860
 30
-965.000
 70
    32
  0
VERTEX
  8
6200LEVEL
 62
13
 10
694.840
 20
-5842.627
 30
-965.000
 70
    32
  0
VERTEX
  8
6200LEVEL
 62
13
 10
719.223
 20
-5886.343
 30
-965.000
 70
    32
  0
VERTEX
  8
6200LEVEL
 62
13
 10
721.759
 20
-5922.274
 30
-965.000
 70
    32
  0
VERTEX
  8
6200LEVEL
 62
13
 10
758.892
 20
-5999.472
 30
-965.000
 70
    32
  0
VERTEX
  8
6200LEVEL
 62
13
 10
787.412
 20
-6020.742
 30
-965.000
 70
    32
  0
VERTEX
  8
6200LEVEL
 62
13
 10
823.711
 20
-6062.763
 30
-965.000
 70
    32
  0
VERTEX
  8
6200LEVEL
 62
13
 10
821.765
 20
-6095.536
 30
-965.000
 70
    32
  0
VERTEX
  8
6200LEVEL
 62
13
 10
803.487
 20
-6113.605
 30
-965.000
 70
    32
  0
VERTEX
  8
6200LEVEL
 62
13
 10
814.377
 20
-6133.319
 30
-965.000
 70
    32
  0
VERTEX
  8
6200LEVEL
 62
13
 10
833.661
 20
-6168.307
 30
-965.000
 70
    32
  0
VERTEX
  8
6200LEVEL
 62
13
 10
852.396
 20
-6168.596
 30
-965.000
 70
    32
  0
VERTEX
  8
6200LEVEL
 62
13
 10
854.990
 20
-6219.351
 30
-965.000
 70
    32
  0
VERTEX
  8
6200LEVEL
 62
13
 10
883.176
 20
-6264.218
 30
-965.000
 70
    32
  0
VERTEX
  8
6200LEVEL
 62
13
 10
894.356
 20
-6307.137
 30
-965.000
 70
    32
  0
SEQEND
  8
6200LEVEL
  0
POLYLINE
  8
6200LEVEL
 62
5
 66
     1
 70
     9
  0
VERTEX
  8
6200LEVEL
 62
5
 10
5522.481
 20
-9216.937
 30
-965.000
 70
    32
  0
VERTEX
  8
6200LEVEL
 62
5
 10
5567.121
 20
-9273.405
 30
-965.000
 70
    32
  0
VERTEX
  8
6200LEVEL
 62
5
 10
5627.202
 20
-9347.016
 30
-965.000
 70
    32
  0
VERTEX
  8
6200LEVEL
 62
5
 10
5684.595
 20
-9423.651
 30
-965.000
 70
    32
  0
VERTEX
  8
6200LEVEL
 62
5
 10
5718.160
 20
-9475.750
 30
-965.000
 70
    32
  0
VERTEX
  8
6200LEVEL
 62
5
 10
5779.582
 20
-9588.351
 30
-965.000
 70
    32
  0
VERTEX
  8
6200LEVEL
 62
5
 10
5815.832
 20
-9642.467
 30
-965.000
 70
    32
  0
VERTEX
  8
6200LEVEL
 62
5
 10
5854.095
 20
-9709.691
 30
-965.000
 70
    32
  0
VERTEX
  8
6200LEVEL
 62
5
 10
5853.446
 20
-9712.273
 30
-965.000
 70
    32
  0
VERTEX
  8
6200LEVEL
 62
5
 10
5822.559
 20
-9657.654
 30
-965.000
 70
    32
  0
VERTEX
  8
6200LEVEL
 62
5
 10
5778.575
 20
-9589.023
 30
-965.000
 70
    32
  0
VERTEX
  8
6200LEVEL
 62
5
 10
5715.139
 20
-9477.431
 30
-965.000
 70
    32
  0
VERTEX
  8
6200LEVEL
 62
5
 10
5680.232
 20
-9426.004
 30
-965.000
 70
    32
  0
VERTEX
  8
6200LEVEL
 62
5
 10
5623.174
 20
-9351.385
 30
-965.000
 70
    32
  0
VERTEX
  8
6200LEVEL
 62
5
 10
5563.429
 20
-9276.430
 30
-965.000
 70
    32
  0
VERTEX
  8
6200LEVEL
 62
5
 10
5528.858
 20
-9231.726
 30
-965.000
 70
    32
  0
SEQEND
  8
6200LEVEL
  0
POLYLINE
  8
6200LEVEL
 62
7
 66
     1
 70
     8
  0
VERTEX
  8
6200LEVEL
 62
7
 10
5642.630
 20
-10066.077
 30
-965.000
 70
    32
  0
VERTEX
  8
6200LEVEL
 62
7
 10
5616.367
 20
-10034.646
 30
-965.000
 70
    32
  0
VERTEX
  8
6200LEVEL
 62
7
 10
5593.157
 20
-9988.819
 30
-965.000
 70
    32
  0
VERTEX
  8
6200LEVEL
 62
7
 10
5583.260
 20
-9961.297
 30
-965.000
 70
    32
  0
VERTEX
  8
6200LEVEL
 62
7
 10
5526.075
 20
-9887.165
 30
-965.000
 70
    32
  0
VERTEX
  8
6200LEVEL
 62
7
 10
5511.492
 20
-9829.986
 30
-965.000
 70
    32
  0
VERTEX
  8
6200LEVEL
 62
7
 10
5501.642
 20
-9812.606
 30
-965.000
 70
    32
  0
VERTEX
  8
6200LEVEL
 62
7
 10
5499.278
 20
-9839.861
 30
-965.000
 70
    32
  0
VERTEX
  8
6200LEVEL
 62
7
 10
5461.457
 20
-9789.300
 30
-965.000
 70
    32
  0
VERTEX
  8
6200LEVEL
 62
7
 10
5432.871
 20
-9793.490
 30
-965.000
 70
    32
  0
VERTEX
  8
6200LEVEL
 62
7
 10
5419.302
 20
-9846.577
 30
-965.000
 70
    32
  0
VERTEX
  8
6200LEVEL
 62
7
 10
5433.091
 20
-9886.473
 30
-965.000
 70
    32
  0
VERTEX
  8
6200LEVEL
 62
7
 10
5418.514
 20
-9892.398
 30
-965.000
 70
    32
  0
VERTEX
  8
6200LEVEL
 62
7
 10
5400.785
 20
-9860.402
 30
-965.000
 70
    32
  0
VERTEX
  8
6200LEVEL
 62
7
 10
5379.510
 20
-9817.741
 30
-965.000
 70
    32
  0
VERTEX
  8
6200LEVEL
 62
7
 10
5358.235
 20
-9779.425
 30
-965.000
 70
    32
  0
VERTEX
  8
6200LEVEL
 62
7
 10
5366.903
 20
-9826.826
 30
-965.000
 70
    32
  0
VERTEX
  8
6200LEVEL
 62
7
 10
5392.117
 20
-9867.117
 30
-965.000
 70
    32
  0
VERTEX
  8
6200LEVEL
 62
7
 10
5382.662
 20
-9931.899
 30
-965.000
 70
    32
  0
VERTEX
  8
6200LEVEL
 62
7
 10
5386.996
 20
-9988.780
 30
-965.000
 70
    32
  0
VERTEX
  8
6200LEVEL
 62
7
 10
5387.390
 20
-9992.335
 30
-965.000
 70
    32
  0
VERTEX
  8
6200LEVEL
 62
7
 10
5389.753
 20
-10005.371
 30
-965.000
 70
    32
  0
VERTEX
  8
6200LEVEL
 62
7
 10
5383.450
 20
-9990.360
 30
-965.000
 70
    32
  0
VERTEX
  8
6200LEVEL
 62
7
 10
5372.024
 20
-9964.685
 30
-965.000
 70
    32
  0
VERTEX
  8
6200LEVEL
 62
7
 10
5350.318
 20
-9897.554
 30
-965.000
 70
    32
  0
VERTEX
  8
6200LEVEL
 62
7
 10
5332.658
 20
-9887.462
 30
-965.000
 70
    32
  0
VERTEX
  8
6200LEVEL
 62
7
 10
5292.922
 20
-9925.939
 30
-965.000
 70
    32
  0
VERTEX
  8
6200LEVEL
 62
7
 10
5262.500
 20
-10044.872
 30
-965.000
 70
    32
  0
VERTEX
  8
6200LEVEL
 62
7
 10
5241.619
 20
-10053.167
 30
-965.000
 70
    32
  0
VERTEX
  8
6200LEVEL
 62
7
 10
5243.141
 20
-9999.316
 30
-965.000
 70
    32
  0
VERTEX
  8
6200LEVEL
 62
7
 10
5250.364
 20
-9936.652
 30
-965.000
 70
    32
  0
VERTEX
  8
6200LEVEL
 62
7
 10
5286.457
 20
-9885.182
 30
-965.000
 70
    32
  0
VERTEX
  8
6200LEVEL
 62
7
 10
5285.240
 20
-9846.113
 30
-965.000
 70
    32
  0
VERTEX
  8
6200LEVEL
 62
7
 10
5244.945
 20
-9875.754
 30
-965.000
 70
    32
  0
VERTEX
  8
6200LEVEL
 62
7
 10
5189.896
 20
-9889.791
 30
-965.000
 70
    32
  0
VERTEX
  8
6200LEVEL
 62
7
 10
5172.827
 20
-9869.293
 30
-965.000
 70
    32
  0
VERTEX
  8
6200LEVEL
 62
7
 10
5144.314
 20
-9867.771
 30
-965.000
 70
    32
  0
VERTEX
  8
6200LEVEL
 62
7
 10
5140.849
 20
-9814.516
 30
-965.000
 70
    32
  0
VERTEX
  8
6200LEVEL
 62
7
 10
5140.083
 20
-9695.461
 30
-965.000
 70
    32
  0
VERTEX
  8
6200LEVEL
 62
7
 10
5117.092
 20
-9656.288
 30
-965.000
 70
    32
  0
VERTEX
  8
6200LEVEL
 62
7
 10
5133.952
 20
-9583.319
 30
-965.000
 70
    32
  0
VERTEX
  8
6200LEVEL
 62
7
 10
5127.384
 20
-9540.691
 30
-965.000
 70
    32
  0
VERTEX
  8
6200LEVEL
 62
7
 10
5126.288
 20
-9591.000
 30
-965.000
 70
    32
  0
VERTEX
  8
6200LEVEL
 62
7
 10
5108.662
 20
-9635.550
 30
-965.000
 70
    32
  0
VERTEX
  8
6200LEVEL
 62
7
 10
5090.270
 20
-9618.652
 30
-965.000
 70
    32
  0
VERTEX
  8
6200LEVEL
 62
7
 10
5023.596
 20
-9606.362
 30
-965.000
 70
    32
  0
VERTEX
  8
6200LEVEL
 62
7
 10
5017.466
 20
-9551.059
 30
-965.000
 70
    32
  0
VERTEX
  8
6200LEVEL
 62
7
 10
5028.195
 20
-9524.176
 30
-965.000
 70
    32
  0
VERTEX
  8
6200LEVEL
 62
7
 10
5042.756
 20
-9494.219
 30
-965.000
 70
    32
  0
VERTEX
  8
6200LEVEL
 62
7
 10
5041.989
 20
-9477.321
 30
-965.000
 70
    32
  0
VERTEX
  8
6200LEVEL
 62
7
 10
5033.559
 20
-9458.887
 30
-965.000
 70
    32
  0
VERTEX
  8
6200LEVEL
 62
7
 10
5035.092
 20
-9479.626
 30
-965.000
 70
    32
  0
VERTEX
  8
6200LEVEL
 62
7
 10
5032.793
 20
-9489.611
 30
-965.000
 70
    32
  0
VERTEX
  8
6200LEVEL
 62
7
 10
5029.727
 20
-9484.234
 30
-965.000
 70
    32
  0
VERTEX
  8
6200LEVEL
 62
7
 10
5018.998
 20
-9469.640
 30
-965.000
 70
    32
  0
VERTEX
  8
6200LEVEL
 62
7
 10
5016.699
 20
-9491.147
 30
-965.000
 70
    32
  0
VERTEX
  8
6200LEVEL
 62
7
 10
5012.101
 20
-9507.277
 30
-965.000
 70
    32
  0
VERTEX
  8
6200LEVEL
 62
7
 10
5001.372
 20
-9527.248
 30
-965.000
 70
    32
  0
VERTEX
  8
6200LEVEL
 62
7
 10
4971.485
 20
-9525.711
 30
-965.000
 70
    32
  0
VERTEX
  8
6200LEVEL
 62
7
 10
4888.854
 20
-9524.328
 30
-965.000
 70
    32
  0
VERTEX
  8
6200LEVEL
 62
7
 10
4851.166
 20
-9494.988
 30
-965.000
 70
    32
  0
VERTEX
  8
6200LEVEL
 62
7
 10
4845.802
 20
-9441.221
 30
-965.000
 70
    32
  0
VERTEX
  8
6200LEVEL
 62
7
 10
4825.110
 20
-9416.642
 30
-965.000
 70
    32
  0
VERTEX
  8
6200LEVEL
 62
7
 10
4822.811
 20
-9456.583
 30
-965.000
 70
    32
  0
VERTEX
  8
6200LEVEL
 62
7
 10
4832.375
 20
-9487.824
 30
-965.000
 70
    32
  0
VERTEX
  8
6200LEVEL
 62
7
 10
4818.980
 20
-9487.307
 30
-965.000
 70
    32
  0
VERTEX
  8
6200LEVEL
 62
7
 10
4813.615
 20
-9464.264
 30
-965.000
 70
    32
  0
VERTEX
  8
6200LEVEL
 62
7
 10
4772.998
 20
-9433.540
 30
-965.000
 70
    32
  0
VERTEX
  8
6200LEVEL
 62
7
 10
4749.241
 20
-9421.250
 30
-965.000
 70
    32
  0
VERTEX
  8
6200LEVEL
 62
7
 10
4685.634
 20
-9438.149
 30
-965.000
 70
    32
  0
VERTEX
  8
6200LEVEL
 62
7
 10
4677.204
 20
-9414.338
 30
-965.000
 70
    32
  0
VERTEX
  8
6200LEVEL
 62
7
 10
4643.484
 20
-9423.554
 30
-965.000
 70
    32
  0
VERTEX
  8
6200LEVEL
 62
7
 10
4617.428
 20
-9389.758
 30
-965.000
 70
    32
  0
VERTEX
  8
6200LEVEL
 62
7
 10
4586.843
 20
-9235.510
 30
-965.000
 70
    32
  0
VERTEX
  8
6200LEVEL
 62
7
 10
4574.512
 20
-9165.474
 30
-965.000
 70
    32
  0
VERTEX
  8
6200LEVEL
 62
7
 10
4563.783
 20
-9150.112
 30
-965.000
 70
    32
  0
VERTEX
  8
6200LEVEL
 62
7
 10
4527.764
 20
-9149.344
 30
-965.000
 70
    32
  0
VERTEX
  8
6200LEVEL
 62
7
 10
4509.371
 20
-9181.604
 30
-965.000
 70
    32
  0
VERTEX
  8
6200LEVEL
 62
7
 10
4513.969
 20
-9206.951
 30
-965.000
 70
    32
  0
VERTEX
  8
6200LEVEL
 62
7
 10
4502.665
 20
-9255.628
 30
-965.000
 70
    32
  0
VERTEX
  8
6200LEVEL
 62
7
 10
4484.082
 20
-9287.601
 30
-965.000
 70
    32
  0
VERTEX
  8
6200LEVEL
 62
7
 10
4502.474
 20
-9332.919
 30
-965.000
 70
    32
  0
VERTEX
  8
6200LEVEL
 62
7
 10
4507.072
 20
-9389.758
 30
-965.000
 70
    32
  0
VERTEX
  8
6200LEVEL
 62
7
 10
4512.437
 20
-9441.221
 30
-965.000
 70
    32
  0
VERTEX
  8
6200LEVEL
 62
7
 10
4491.745
 20
-9521.103
 30
-965.000
 70
    32
  0
VERTEX
  8
6200LEVEL
 62
7
 10
4535.428
 20
-9547.218
 30
-965.000
 70
    32
  0
VERTEX
  8
6200LEVEL
 62
7
 10
4551.521
 20
-9591.000
 30
-965.000
 70
    32
  0
VERTEX
  8
6200LEVEL
 62
7
 10
4570.467
 20
-9637.692
 30
-965.000
 70
    32
  0
VERTEX
  8
6200LEVEL
 62
7
 10
4584.843
 20
-9690.734
 30
-965.000
 70
    32
  0
VERTEX
  8
6200LEVEL
 62
7
 10
4550.087
 20
-9651.553
 30
-965.000
 70
    32
  0
VERTEX
  8
6200LEVEL
 62
7
 10
4534.990
 20
-9603.165
 30
-965.000
 70
    32
  0
VERTEX
  8
6200LEVEL
 62
7
 10
4525.348
 20
-9597.246
 30
-965.000
 70
    32
  0
VERTEX
  8
6200LEVEL
 62
7
 10
4519.138
 20
-9614.758
 30
-965.000
 70
    32
  0
VERTEX
  8
6200LEVEL
 62
7
 10
4524.674
 20
-9669.951
 30
-965.000
 70
    32
  0
VERTEX
  8
6200LEVEL
 62
7
 10
4533.624
 20
-9733.514
 30
-965.000
 70
    32
  0
VERTEX
  8
6200LEVEL
 62
7
 10
4507.355
 20
-9681.677
 30
-965.000
 70
    32
  0
VERTEX
  8
6200LEVEL
 62
7
 10
4477.622
 20
-9645.000
 30
-965.000
 70
    32
  0
VERTEX
  8
6200LEVEL
 62
7
 10
4458.248
 20
-9640.212
 30
-965.000
 70
    32
  0
VERTEX
  8
6200LEVEL
 62
7
 10
4455.313
 20
-9719.469
 30
-965.000
 70
    32
  0
VERTEX
  8
6200LEVEL
 62
7
 10
4483.937
 20
-9819.165
 30
-965.000
 70
    32
  0
VERTEX
  8
6200LEVEL
 62
7
 10
4478.574
 20
-9855.643
 30
-965.000
 70
    32
  0
VERTEX
  8
6200LEVEL
 62
7
 10
4452.645
 20
-9890.099
 30
-965.000
 70
    32
  0
VERTEX
  8
6200LEVEL
 62
7
 10
4469.625
 20
-9945.577
 30
-965.000
 70
    32
  0
VERTEX
  8
6200LEVEL
 62
7
 10
4523.618
 20
-10022.466
 30
-965.000
 70
    32
  0
VERTEX
  8
6200LEVEL
 62
7
 10
4545.706
 20
-10064.109
 30
-965.000
 70
    32
  0
SEQEND
  8
6200LEVEL
  0
POLYLINE
  8
6200LEVEL
 62
13
 66
     1
 70
     8
  0
VERTEX
  8
6200LEVEL
 62
13
 10
5642.630
 20
-10066.077
 30
-965.000
 70
    32
  0
VERTEX
  8
6200LEVEL
 62
13
 10
5641.491
 20
-10049.500
 30
-965.000
 70
    32
  0
VERTEX
  8
6200LEVEL
 62
13
 10
5613.875
 20
-10005.997
 30
-965.000
 70
    32
  0
VERTEX
  8
6200LEVEL
 62
13
 10
5590.449
 20
-9956.184
 30
-965.000
 70
    32
  0
VERTEX
  8
6200LEVEL
 62
13
 10
5569.337
 20
-9919.941
 30
-965.000
 70
    32
  0
VERTEX
  8
6200LEVEL
 62
13
 10
5546.252
 20
-9872.173
 30
-965.000
 70
    32
  0
VERTEX
  8
6200LEVEL
 62
13
 10
5528.293
 20
-9816.723
 30
-965.000
 70
    32
  0
VERTEX
  8
6200LEVEL
 62
13
 10
5564.807
 20
-9858.692
 30
-965.000
 70
    32
  0
VERTEX
  8
6200LEVEL
 62
13
 10
5588.711
 20
-9902.853
 30
-965.000
 70
    32
  0
VERTEX
  8
6200LEVEL
 62
13
 10
5568.054
 20
-9856.368
 30
-965.000
 70
    32
  0
VERTEX
  8
6200LEVEL
 62
13
 10
5530.705
 20
-9794.108
 30
-965.000
 70
    32
  0
VERTEX
  8
6200LEVEL
 62
13
 10
5489.859
 20
-9737.489
 30
-965.000
 70
    32
  0
VERTEX
  8
6200LEVEL
 62
13
 10
5446.922
 20
-9688.026
 30
-965.000
 70
    32
  0
VERTEX
  8
6200LEVEL
 62
13
 10
5406.115
 20
-9654.736
 30
-965.000
 70
    32
  0
VERTEX
  8
6200LEVEL
 62
13
 10
5390.615
 20
-9644.692
 30
-965.000
 70
    32
  0
VERTEX
  8
6200LEVEL
 62
13
 10
5380.880
 20
-9641.986
 30
-965.000
 70
    32
  0
VERTEX
  8
6200LEVEL
 62
13
 10
5358.435
 20
-9624.671
 30
-965.000
 70
    32
  0
VERTEX
  8
6200LEVEL
 62
13
 10
5347.889
 20
-9604.110
 30
-965.000
 70
    32
  0
VERTEX
  8
6200LEVEL
 62
13
 10
5329.771
 20
-9567.315
 30
-965.000
 70
    32
  0
VERTEX
  8
6200LEVEL
 62
13
 10
5337.342
 20
-9611.955
 30
-965.000
 70
    32
  0
VERTEX
  8
6200LEVEL
 62
13
 10
5349.241
 20
-9644.962
 30
-965.000
 70
    32
  0
VERTEX
  8
6200LEVEL
 62
13
 10
5327.607
 20
-9618.719
 30
-965.000
 70
    32
  0
VERTEX
  8
6200LEVEL
 62
13
 10
5303.270
 20
-9592.476
 30
-965.000
 70
    32
  0
VERTEX
  8
6200LEVEL
 62
13
 10
5299.213
 20
-9637.657
 30
-965.000
 70
    32
  0
VERTEX
  8
6200LEVEL
 62
13
 10
5313.275
 20
-9687.709
 30
-965.000
 70
    32
  0
VERTEX
  8
6200LEVEL
 62
13
 10
5313.275
 20
-9723.421
 30
-965.000
 70
    32
  0
VERTEX
  8
6200LEVEL
 62
13
 10
5303.810
 20
-9694.743
 30
-965.000
 70
    32
  0
VERTEX
  8
6200LEVEL
 62
13
 10
5269.252
 20
-9602.785
 30
-965.000
 70
    32
  0
VERTEX
  8
6200LEVEL
 62
13
 10
5263.891
 20
-9554.026
 30
-965.000
 70
    32
  0
VERTEX
  8
6200LEVEL
 62
13
 10
5249.048
 20
-9617.661
 30
-965.000
 70
    32
  0
VERTEX
  8
6200LEVEL
 62
13
 10
5218.369
 20
-9716.640
 30
-965.000
 70
    32
  0
VERTEX
  8
6200LEVEL
 62
13
 10
5203.281
 20
-9650.305
 30
-965.000
 70
    32
  0
VERTEX
  8
6200LEVEL
 62
13
 10
5224.721
 20
-9577.579
 30
-965.000
 70
    32
  0
VERTEX
  8
6200LEVEL
 62
13
 10
5209.363
 20
-9528.323
 30
-965.000
 70
    32
  0
VERTEX
  8
6200LEVEL
 62
13
 10
5266.796
 20
-9429.745
 30
-965.000
 70
    32
  0
VERTEX
  8
6200LEVEL
 62
13
 10
5251.368
 20
-9380.964
 30
-965.000
 70
    32
  0
VERTEX
  8
6200LEVEL
 62
13
 10
5236.881
 20
-9333.416
 30
-965.000
 70
    32
  0
VERTEX
  8
6200LEVEL
 62
13
 10
5208.460
 20
-9313.346
 30
-965.000
 70
    32
  0
VERTEX
  8
6200LEVEL
 62
13
 10
5151.089
 20
-9218.681
 30
-965.000
 70
    32
  0
VERTEX
  8
6200LEVEL
 62
13
 10
5116.397
 20
-9173.192
 30
-965.000
 70
    32
  0
VERTEX
  8
6200LEVEL
 62
13
 10
5061.647
 20
-9108.460
 30
-965.000
 70
    32
  0
VERTEX
  8
6200LEVEL
 62
13
 10
5003.658
 20
-9060.869
 30
-965.000
 70
    32
  0
VERTEX
  8
6200LEVEL
 62
13
 10
4969.104
 20
-9079.823
 30
-965.000
 70
    32
  0
VERTEX
  8
6200LEVEL
 62
13
 10
4999.227
 20
-9162.655
 30
-965.000
 70
    32
  0
VERTEX
  8
6200LEVEL
 62
13
 10
5033.939
 20
-9303.686
 30
-965.000
 70
    32
  0
VERTEX
  8
6200LEVEL
 62
13
 10
5041.652
 20
-9328.319
 30
-965.000
 70
    32
  0
VERTEX
  8
6200LEVEL
 62
13
 10
5030.564
 20
-9332.183
 30
-965.000
 70
    32
  0
VERTEX
  8
6200LEVEL
 62
13
 10
5021.886
 20
-9310.931
 30
-965.000
 70
    32
  0
VERTEX
  8
6200LEVEL
 62
13
 10
4978.978
 20
-9170.383
 30
-965.000
 70
    32
  0
VERTEX
  8
6200LEVEL
 62
13
 10
4945.693
 20
-9111.149
 30
-965.000
 70
    32
  0
VERTEX
  8
6200LEVEL
 62
13
 10
4912.837
 20
-9056.216
 30
-965.000
 70
    32
  0
VERTEX
  8
6200LEVEL
 62
13
 10
4871.134
 20
-8995.079
 30
-965.000
 70
    32
  0
VERTEX
  8
6200LEVEL
 62
13
 10
4850.562
 20
-9016.517
 30
-965.000
 70
    32
  0
VERTEX
  8
6200LEVEL
 62
13
 10
4826.188
 20
-8985.891
 30
-965.000
 70
    32
  0
VERTEX
  8
6200LEVEL
 62
13
 10
4808.292
 20
-9050.636
 30
-965.000
 70
    32
  0
VERTEX
  8
6200LEVEL
 62
13
 10
4787.566
 20
-9103.074
 30
-965.000
 70
    32
  0
VERTEX
  8
6200LEVEL
 62
13
 10
4726.363
 20
-9040.844
 30
-965.000
 70
    32
  0
VERTEX
  8
6200LEVEL
 62
13
 10
4729.538
 20
-9144.264
 30
-965.000
 70
    32
  0
VERTEX
  8
6200LEVEL
 62
13
 10
4640.544
 20
-9066.501
 30
-965.000
 70
    32
  0
VERTEX
  8
6200LEVEL
 62
13
 10
4682.992
 20
-9164.079
 30
-965.000
 70
    32
  0
VERTEX
  8
6200LEVEL
 62
13
 10
4677.428
 20
-9241.638
 30
-965.000
 70
    32
  0
VERTEX
  8
6200LEVEL
 62
13
 10
4742.261
 20
-9336.046
 30
-965.000
 70
    32
  0
VERTEX
  8
6200LEVEL
 62
13
 10
4750.940
 20
-9352.467
 30
-965.000
 70
    32
  0
VERTEX
  8
6200LEVEL
 62
13
 10
4739.369
 20
-9338.944
 30
-965.000
 70
    32
  0
VERTEX
  8
6200LEVEL
 62
13
 10
4722.495
 20
-9321.557
 30
-965.000
 70
    32
  0
VERTEX
  8
6200LEVEL
 62
13
 10
4703.693
 20
-9313.829
 30
-965.000
 70
    32
  0
VERTEX
  8
6200LEVEL
 62
13
 10
4719.120
 20
-9353.917
 30
-965.000
 70
    32
  0
VERTEX
  8
6200LEVEL
 62
13
 10
4722.495
 20
-9367.923
 30
-965.000
 70
    32
  0
VERTEX
  8
6200LEVEL
 62
13
 10
4711.889
 20
-9358.746
 30
-965.000
 70
    32
  0
VERTEX
  8
6200LEVEL
 62
13
 10
4693.413
 20
-9302.708
 30
-965.000
 70
    32
  0
VERTEX
  8
6200LEVEL
 62
13
 10
4657.748
 20
-9255.903
 30
-965.000
 70
    32
  0
VERTEX
  8
6200LEVEL
 62
13
 10
4662.881
 20
-9317.007
 30
-965.000
 70
    32
  0
VERTEX
  8
6200LEVEL
 62
13
 10
4619.042
 20
-9296.139
 30
-965.000
 70
    32
  0
VERTEX
  8
6200LEVEL
 62
13
 10
4608.865
 20
-9256.099
 30
-965.000
 70
    32
  0
VERTEX
  8
6200LEVEL
 62
13
 10
4602.867
 20
-9144.735
 30
-965.000
 70
    32
  0
VERTEX
  8
6200LEVEL
 62
13
 10
4576.044
 20
-9102.490
 30
-965.000
 70
    32
  0
VERTEX
  8
6200LEVEL
 62
13
 10
4554.587
 20
-9060.244
 30
-965.000
 70
    32
  0
VERTEX
  8
6200LEVEL
 62
13
 10
4494.153
 20
-8943.764
 30
-965.000
 70
    32
  0
VERTEX
  8
6200LEVEL
 62
13
 10
4468.551
 20
-8871.827
 30
-965.000
 70
    32
  0
VERTEX
  8
6200LEVEL
 62
13
 10
4437.898
 20
-8880.558
 30
-965.000
 70
    32
  0
VERTEX
  8
6200LEVEL
 62
13
 10
4435.109
 20
-8891.716
 30
-965.000
 70
    32
  0
VERTEX
  8
6200LEVEL
 62
13
 10
4402.025
 20
-8898.293
 30
-965.000
 70
    32
  0
VERTEX
  8
6200LEVEL
 62
13
 10
4384.767
 20
-8936.906
 30
-965.000
 70
    32
  0
VERTEX
  8
6200LEVEL
 62
13
 10
4330.950
 20
-8935.887
 30
-965.000
 70
    32
  0
VERTEX
  8
6200LEVEL
 62
13
 10
4284.062
 20
-9002.636
 30
-965.000
 70
    32
  0
VERTEX
  8
6200LEVEL
 62
13
 10
4249.555
 20
-8997.060
 30
-965.000
 70
    32
  0
VERTEX
  8
6200LEVEL
 62
13
 10
4228.118
 20
-8977.289
 30
-965.000
 70
    32
  0
VERTEX
  8
6200LEVEL
 62
13
 10
4206.660
 20
-8980.362
 30
-965.000
 70
    32
  0
VERTEX
  8
6200LEVEL
 62
13
 10
4210.492
 20
-9011.085
 30
-965.000
 70
    32
  0
VERTEX
  8
6200LEVEL
 62
13
 10
4223.520
 20
-9066.389
 30
-965.000
 70
    32
  0
VERTEX
  8
6200LEVEL
 62
13
 10
4214.324
 20
-9167.010
 30
-965.000
 70
    32
  0
VERTEX
  8
6200LEVEL
 62
13
 10
4142.286
 20
-9123.996
 30
-965.000
 70
    32
  0
VERTEX
  8
6200LEVEL
 62
13
 10
4116.997
 20
-9084.823
 30
-965.000
 70
    32
  0
VERTEX
  8
6200LEVEL
 62
13
 10
4113.931
 20
-9144.734
 30
-965.000
 70
    32
  0
VERTEX
  8
6200LEVEL
 62
13
 10
4113.164
 20
-9264.558
 30
-965.000
 70
    32
  0
VERTEX
  8
6200LEVEL
 62
13
 10
4150.716
 20
-9355.961
 30
-965.000
 70
    32
  0
VERTEX
  8
6200LEVEL
 62
13
 10
4172.174
 20
-9403.584
 30
-965.000
 70
    32
  0
VERTEX
  8
6200LEVEL
 62
13
 10
4141.520
 20
-9361.338
 30
-965.000
 70
    32
  0
VERTEX
  8
6200LEVEL
 62
13
 10
4095.538
 20
-9276.079
 30
-965.000
 70
    32
  0
VERTEX
  8
6200LEVEL
 62
13
 10
4101.669
 20
-9158.560
 30
-965.000
 70
    32
  0
VERTEX
  8
6200LEVEL
 62
13
 10
4097.837
 20
-9148.575
 30
-965.000
 70
    32
  0
VERTEX
  8
6200LEVEL
 62
13
 10
4096.304
 20
-9159.328
 30
-965.000
 70
    32
  0
VERTEX
  8
6200LEVEL
 62
13
 10
4091.706
 20
-9279.920
 30
-965.000
 70
    32
  0
VERTEX
  8
6200LEVEL
 62
13
 10
4139.987
 20
-9362.874
 30
-965.000
 70
    32
  0
VERTEX
  8
6200LEVEL
 62
13
 10
4155.314
 20
-9399.743
 30
-965.000
 70
    32
  0
VERTEX
  8
6200LEVEL
 62
13
 10
4130.024
 20
-9368.251
 30
-965.000
 70
    32
  0
VERTEX
  8
6200LEVEL
 62
13
 10
4082.510
 20
-9286.064
 30
-965.000
 70
    32
  0
VERTEX
  8
6200LEVEL
 62
13
 10
4087.875
 20
-9163.937
 30
-965.000
 70
    32
  0
VERTEX
  8
6200LEVEL
 62
13
 10
4083.277
 20
-9047.186
 30
-965.000
 70
    32
  0
VERTEX
  8
6200LEVEL
 62
13
 10
4087.875
 20
-8998.796
 30
-965.000
 70
    32
  0
VERTEX
  8
6200LEVEL
 62
13
 10
4119.295
 20
-9021.839
 30
-965.000
 70
    32
  0
VERTEX
  8
6200LEVEL
 62
13
 10
4177.539
 20
-9098.649
 30
-965.000
 70
    32
  0
VERTEX
  8
6200LEVEL
 62
13
 10
4194.399
 20
-9117.851
 30
-965.000
 70
    32
  0
VERTEX
  8
6200LEVEL
 62
13
 10
4187.501
 20
-9090.968
 30
-965.000
 70
    32
  0
VERTEX
  8
6200LEVEL
 62
13
 10
4162.978
 20
-8990.347
 30
-965.000
 70
    32
  0
VERTEX
  8
6200LEVEL
 62
13
 10
4163.744
 20
-8931.203
 30
-965.000
 70
    32
  0
VERTEX
  8
6200LEVEL
 62
13
 10
4162.978
 20
-8902.016
 30
-965.000
 70
    32
  0
VERTEX
  8
6200LEVEL
 62
13
 10
4190.567
 20
-8876.668
 30
-965.000
 70
    32
  0
VERTEX
  8
6200LEVEL
 62
13
 10
4218.922
 20
-8873.596
 30
-965.000
 70
    32
  0
VERTEX
  8
6200LEVEL
 62
13
 10
4244.212
 20
-8863.611
 30
-965.000
 70
    32
  0
VERTEX
  8
6200LEVEL
 62
13
 10
4250.342
 20
-8868.987
 30
-965.000
 70
    32
  0
VERTEX
  8
6200LEVEL
 62
13
 10
4256.473
 20
-8882.813
 30
-965.000
 70
    32
  0
VERTEX
  8
6200LEVEL
 62
13
 10
4241.146
 20
-8917.378
 30
-965.000
 70
    32
  0
VERTEX
  8
6200LEVEL
 62
13
 10
4235.015
 20
-8933.508
 30
-965.000
 70
    32
  0
VERTEX
  8
6200LEVEL
 62
13
 10
4263.582
 20
-8970.795
 30
-965.000
 70
    32
  0
VERTEX
  8
6200LEVEL
 62
13
 10
4268.045
 20
-8917.528
 30
-965.000
 70
    32
  0
VERTEX
  8
6200LEVEL
 62
13
 10
4300.162
 20
-8883.807
 30
-965.000
 70
    32
  0
VERTEX
  8
6200LEVEL
 62
13
 10
4366.120
 20
-8887.772
 30
-965.000
 70
    32
  0
VERTEX
  8
6200LEVEL
 62
13
 10
4399.842
 20
-8855.064
 30
-965.000
 70
    32
  0
VERTEX
  8
6200LEVEL
 62
13
 10
4375.587
 20
-8782.585
 30
-965.000
 70
    32
  0
VERTEX
  8
6200LEVEL
 62
13
 10
4320.159
 20
-8720.520
 30
-965.000
 70
    32
  0
VERTEX
  8
6200LEVEL
 62
13
 10
4299.809
 20
-8732.660
 30
-965.000
 70
    32
  0
VERTEX
  8
6200LEVEL
 62
13
 10
4250.432
 20
-8692.748
 30
-965.000
 70
    32
  0
VERTEX
  8
6200LEVEL
 62
13
 10
4182.745
 20
-8717.010
 30
-965.000
 70
    32
  0
VERTEX
  8
6200LEVEL
 62
13
 10
4130.222
 20
-8748.989
 30
-965.000
 70
    32
  0
VERTEX
  8
6200LEVEL
 62
13
 10
4099.230
 20
-8791.465
 30
-965.000
 70
    32
  0
VERTEX
  8
6200LEVEL
 62
13
 10
4042.510
 20
-8808.649
 30
-965.000
 70
    32
  0
VERTEX
  8
6200LEVEL
 62
13
 10
4013.538
 20
-8865.915
 30
-965.000
 70
    32
  0
VERTEX
  8
6200LEVEL
 62
13
 10
3986.434
 20
-8924.560
 30
-965.000
 70
    32
  0
VERTEX
  8
6200LEVEL
 62
13
 10
3984.827
 20
-9005.777
 30
-965.000
 70
    32
  0
VERTEX
  8
6200LEVEL
 62
13
 10
4008.173
 20
-9103.257
 30
-965.000
 70
    32
  0
VERTEX
  8
6200LEVEL
 62
13
 10
4018.136
 20
-9217.704
 30
-965.000
 70
    32
  0
VERTEX
  8
6200LEVEL
 62
13
 10
4049.556
 20
-9311.412
 30
-965.000
 70
    32
  0
VERTEX
  8
6200LEVEL
 62
13
 10
4062.930
 20
-9349.427
 30
-965.000
 70
    32
  0
VERTEX
  8
6200LEVEL
 62
13
 10
4055.687
 20
-9306.803
 30
-965.000
 70
    32
  0
VERTEX
  8
6200LEVEL
 62
13
 10
4050.192
 20
-9266.426
 30
-965.000
 70
    32
  0
VERTEX
  8
6200LEVEL
 62
13
 10
4069.482
 20
-9296.050
 30
-965.000
 70
    32
  0
VERTEX
  8
6200LEVEL
 62
13
 10
4084.043
 20
-9328.310
 30
-965.000
 70
    32
  0
VERTEX
  8
6200LEVEL
 62
13
 10
4098.603
 20
-9337.528
 30
-965.000
 70
    32
  0
VERTEX
  8
6200LEVEL
 62
13
 10
4119.295
 20
-9378.236
 30
-965.000
 70
    32
  0
VERTEX
  8
6200LEVEL
 62
13
 10
4164.510
 20
-9460.423
 30
-965.000
 70
    32
  0
VERTEX
  8
6200LEVEL
 62
13
 10
4180.604
 20
-9567.189
 30
-965.000
 70
    32
  0
VERTEX
  8
6200LEVEL
 62
13
 10
4224.286
 20
-9653.984
 30
-965.000
 70
    32
  0
VERTEX
  8
6200LEVEL
 62
13
 10
4240.137
 20
-9758.712
 30
-965.000
 70
    32
  0
VERTEX
  8
6200LEVEL
 62
13
 10
4276.333
 20
-9805.286
 30
-965.000
 70
    32
  0
VERTEX
  8
6200LEVEL
 62
13
 10
4248.907
 20
-9752.362
 30
-965.000
 70
    32
  0
VERTEX
  8
6200LEVEL
 62
13
 10
4246.894
 20
-9731.696
 30
-965.000
 70
    32
  0
VERTEX
  8
6200LEVEL
 62
13
 10
4256.959
 20
-9746.565
 30
-965.000
 70
    32
  0
VERTEX
  8
6200LEVEL
 62
13
 10
4335.210
 20
-9807.302
 30
-965.000
 70
    32
  0
VERTEX
  8
6200LEVEL
 62
13
 10
4388.453
 20
-9886.632
 30
-965.000
 70
    32
  0
VERTEX
  8
6200LEVEL
 62
13
 10
4402.823
 20
-9907.695
 30
-965.000
 70
    32
  0
VERTEX
  8
6200LEVEL
 62
13
 10
4399.230
 20
-9880.468
 30
-965.000
 70
    32
  0
VERTEX
  8
6200LEVEL
 62
13
 10
4391.812
 20
-9839.783
 30
-965.000
 70
    32
  0
VERTEX
  8
6200LEVEL
 62
13
 10
4419.245
 20
-9864.542
 30
-965.000
 70
    32
  0
VERTEX
  8
6200LEVEL
 62
13
 10
4425.390
 20
-9938.409
 30
-965.000
 70
    32
  0
VERTEX
  8
6200LEVEL
 62
13
 10
4404.573
 20
-9940.364
 30
-965.000
 70
    32
  0
VERTEX
  8
6200LEVEL
 62
13
 10
4421.486
 20
-9979.460
 30
-965.000
 70
    32
  0
VERTEX
  8
6200LEVEL
 62
13
 10
4403.895
 20
-10040.727
 30
-965.000
 70
    32
  0
VERTEX
  8
6200LEVEL
 62
13
 10
4422.787
 20
-10095.446
 30
-965.000
 70
    32
  0
VERTEX
  8
6200LEVEL
 62
13
 10
4449.720
 20
-10147.168
 30
-965.000
 70
    32
  0
SEQEND
  8
6200LEVEL
  0
POLYLINE
  8
6200LEVEL
 62
5
 66
     1
 70
     9
  0
VERTEX
  8
6200LEVEL
 62
5
 10
5944.241
 20
-9776.549
 30
-965.000
 70
    32
  0
VERTEX
  8
6200LEVEL
 62
5
 10
5958.932
 20
-9805.226
 30
-965.000
 70
    32
  0
VERTEX
  8
6200LEVEL
 62
5
 10
6013.840
 20
-9919.213
 30
-965.000
 70
    32
  0
VERTEX
  8
6200LEVEL
 62
5
 10
6042.017
 20
-9983.316
 30
-965.000
 70
    32
  0
VERTEX
  8
6200LEVEL
 62
5
 10
6043.943
 20
-9988.376
 30
-965.000
 70
    32
  0
VERTEX
  8
6200LEVEL
 62
5
 10
6041.294
 20
-9984.039
 30
-965.000
 70
    32
  0
VERTEX
  8
6200LEVEL
 62
5
 10
6035.755
 20
-9980.665
 30
-965.000
 70
    32
  0
VERTEX
  8
6200LEVEL
 62
5
 10
6028.289
 20
-9980.183
 30
-965.000
 70
    32
  0
VERTEX
  8
6200LEVEL
 62
5
 10
6031.420
 20
-9990.786
 30
-965.000
 70
    32
  0
VERTEX
  8
6200LEVEL
 62
5
 10
6034.069
 20
-10000.185
 30
-965.000
 70
    32
  0
VERTEX
  8
6200LEVEL
 62
5
 10
6027.567
 20
-9993.678
 30
-965.000
 70
    32
  0
VERTEX
  8
6200LEVEL
 62
5
 10
6021.787
 20
-9987.172
 30
-965.000
 70
    32
  0
VERTEX
  8
6200LEVEL
 62
5
 10
6025.158
 20
-9994.883
 30
-965.000
 70
    32
  0
VERTEX
  8
6200LEVEL
 62
5
 10
6026.603
 20
-10008.619
 30
-965.000
 70
    32
  0
VERTEX
  8
6200LEVEL
 62
5
 10
6019.620
 20
-9999.944
 30
-965.000
 70
    32
  0
VERTEX
  8
6200LEVEL
 62
5
 10
5991.960
 20
-9950.792
 30
-965.000
 70
    32
  0
VERTEX
  8
6200LEVEL
 62
5
 10
5966.763
 20
-9884.217
 30
-965.000
 70
    32
  0
VERTEX
  8
6200LEVEL
 62
5
 10
5937.258
 20
-9820.890
 30
-965.000
 70
    32
  0
VERTEX
  8
6200LEVEL
 62
5
 10
5919.682
 20
-9785.647
 30
-965.000
 70
    32
  0
VERTEX
  8
6200LEVEL
 62
5
 10
5944.964
 20
-9815.107
 30
-965.000
 70
    32
  0
VERTEX
  8
6200LEVEL
 62
5
 10
5980.606
 20
-9893.668
 30
-965.000
 70
    32
  0
VERTEX
  8
6200LEVEL
 62
5
 10
6001.317
 20
-9951.987
 30
-965.000
 70
    32
  0
VERTEX
  8
6200LEVEL
 62
5
 10
6013.599
 20
-9979.942
 30
-965.000
 70
    32
  0
VERTEX
  8
6200LEVEL
 62
5
 10
6011.672
 20
-9965.001
 30
-965.000
 70
    32
  0
VERTEX
  8
6200LEVEL
 62
5
 10
6022.509
 20
-9978.255
 30
-965.000
 70
    32
  0
VERTEX
  8
6200LEVEL
 62
5
 10
6020.101
 20
-9968.375
 30
-965.000
 70
    32
  0
VERTEX
  8
6200LEVEL
 62
5
 10
6032.143
 20
-9969.097
 30
-965.000
 70
    32
  0
VERTEX
  8
6200LEVEL
 62
5
 10
6000.835
 20
-9907.405
 30
-965.000
 70
    32
  0
VERTEX
  8
6200LEVEL
 62
5
 10
5973.622
 20
-9846.917
 30
-965.000
 70
    32
  0
VERTEX
  8
6200LEVEL
 62
5
 10
5955.319
 20
-9807.877
 30
-965.000
 70
    32
  0
VERTEX
  8
6200LEVEL
 62
5
 10
5941.833
 20
-9782.814
 30
-965.000
 70
    32
  0
SEQEND
  8
6200LEVEL
  0
POLYLINE
  8
6200LEVEL
 62
5
 66
     1
 70
     9
  0
VERTEX
  8
6200LEVEL
 62
5
 10
6151.832
 20
-10377.571
 30
-965.000
 70
    32
  0
VERTEX
  8
6200LEVEL
 62
5
 10
6149.665
 20
-10374.679
 30
-965.000
 70
    32
  0
VERTEX
  8
6200LEVEL
 62
5
 10
6096.202
 20
-10297.804
 30
-965.000
 70
    32
  0
VERTEX
  8
6200LEVEL
 62
5
 10
6043.943
 20
-10219.002
 30
-965.000
 70
    32
  0
VERTEX
  8
6200LEVEL
 62
5
 10
5995.537
 20
-10134.656
 30
-965.000
 70
    32
  0
VERTEX
  8
6200LEVEL
 62
5
 10
5948.745
 20
-10050.854
 30
-965.000
 70
    32
  0
VERTEX
  8
6200LEVEL
 62
5
 10
5918.538
 20
-10014.889
 30
-965.000
 70
    32
  0
VERTEX
  8
6200LEVEL
 62
5
 10
5894.036
 20
-9973.546
 30
-965.000
 70
    32
  0
VERTEX
  8
6200LEVEL
 62
5
 10
5871.883
 20
-9872.038
 30
-965.000
 70
    32
  0
VERTEX
  8
6200LEVEL
 62
5
 10
5858.122
 20
-9833.047
 30
-965.000
 70
    32
  0
VERTEX
  8
6200LEVEL
 62
5
 10
5834.291
 20
-9769.185
 30
-965.000
 70
    32
  0
VERTEX
  8
6200LEVEL
 62
5
 10
5808.111
 20
-9705.994
 30
-965.000
 70
    32
  0
VERTEX
  8
6200LEVEL
 62
5
 10
5779.247
 20
-9629.358
 30
-965.000
 70
    32
  0
VERTEX
  8
6200LEVEL
 62
5
 10
5767.834
 20
-9597.091
 30
-965.000
 70
    32
  0
VERTEX
  8
6200LEVEL
 62
5
 10
5714.803
 20
-9513.060
 30
-965.000
 70
    32
  0
VERTEX
  8
6200LEVEL
 62
5
 10
5655.730
 20
-9443.819
 30
-965.000
 70
    32
  0
VERTEX
  8
6200LEVEL
 62
5
 10
5626.379
 20
-9412.205
 30
-965.000
 70
    32
  0
VERTEX
  8
6200LEVEL
 62
5
 10
5659.422
 20
-9441.466
 30
-965.000
 70
    32
  0
VERTEX
  8
6200LEVEL
 62
5
 10
5701.983
 20
-9490.101
 30
-965.000
 70
    32
  0
VERTEX
  8
6200LEVEL
 62
5
 10
5722.187
 20
-9516.758
 30
-965.000
 70
    32
  0
VERTEX
  8
6200LEVEL
 62
5
 10
5769.176
 20
-9595.410
 30
-965.000
 70
    32
  0
VERTEX
  8
6200LEVEL
 62
5
 10
5790.197
 20
-9650.221
 30
-965.000
 70
    32
  0
VERTEX
  8
6200LEVEL
 62
5
 10
5823.886
 20
-9736.581
 30
-965.000
 70
    32
  0
VERTEX
  8
6200LEVEL
 62
5
 10
5847.717
 20
-9795.402
 30
-965.000
 70
    32
  0
VERTEX
  8
6200LEVEL
 62
5
 10
5874.568
 20
-9870.021
 30
-965.000
 70
    32
  0
VERTEX
  8
6200LEVEL
 62
5
 10
5883.967
 20
-9909.683
 30
-965.000
 70
    32
  0
VERTEX
  8
6200LEVEL
 62
5
 10
5896.721
 20
-9971.530
 30
-965.000
 70
    32
  0
VERTEX
  8
6200LEVEL
 62
5
 10
5919.880
 20
-10013.881
 30
-965.000
 70
    32
  0
VERTEX
  8
6200LEVEL
 62
5
 10
5952.102
 20
-10048.166
 30
-965.000
 70
    32
  0
VERTEX
  8
6200LEVEL
 62
5
 10
5998.909
 20
-10132.005
 30
-965.000
 70
    32
  0
VERTEX
  8
6200LEVEL
 62
5
 10
6046.351
 20
-10217.315
 30
-965.000
 70
    32
  0
VERTEX
  8
6200LEVEL
 62
5
 10
6097.647
 20
-10296.599
 30
-965.000
 70
    32
  0
VERTEX
  8
6200LEVEL
 62
5
 10
6150.387
 20
-10374.197
 30
-965.000
 70
    32
  0
SEQEND
  8
6200LEVEL
  0
POLYLINE
  8
6200LEVEL
 62
5
 66
     1
 70
     9
  0
VERTEX
  8
6200LEVEL
 62
5
 10
6140.754
 20
-10256.114
 30
-965.000
 70
    32
  0
VERTEX
  8
6200LEVEL
 62
5
 10
6144.607
 20
-10262.379
 30
-965.000
 70
    32
  0
VERTEX
  8
6200LEVEL
 62
5
 10
6191.708
 20
-10344.622
 30
-965.000
 70
    32
  0
VERTEX
  8
6200LEVEL
 62
5
 10
6224.321
 20
-10437.818
 30
-965.000
 70
    32
  0
VERTEX
  8
6200LEVEL
 62
5
 10
6226.488
 20
-10446.735
 30
-965.000
 70
    32
  0
VERTEX
  8
6200LEVEL
 62
5
 10
6223.357
 20
-10438.782
 30
-965.000
 70
    32
  0
VERTEX
  8
6200LEVEL
 62
5
 10
6181.935
 20
-10351.545
 30
-965.000
 70
    32
  0
VERTEX
  8
6200LEVEL
 62
5
 10
6143.403
 20
-10263.343
 30
-965.000
 70
    32
  0
SEQEND
  8
6200LEVEL
  0
POLYLINE
  8
6200LEVEL
 62
5
 66
     1
 70
     9
  0
VERTEX
  8
6200LEVEL
 62
5
 10
6507.771
 20
-11011.850
 30
-965.000
 70
    32
  0
VERTEX
  8
6200LEVEL
 62
5
 10
6469.962
 20
-10964.616
 30
-965.000
 70
    32
  0
VERTEX
  8
6200LEVEL
 62
5
 10
6444.675
 20
-10923.408
 30
-965.000
 70
    32
  0
VERTEX
  8
6200LEVEL
 62
5
 10
6423.001
 20
-10880.994
 30
-965.000
 70
    32
  0
VERTEX
  8
6200LEVEL
 62
5
 10
6408.551
 20
-10832.314
 30
-965.000
 70
    32
  0
VERTEX
  8
6200LEVEL
 62
5
 10
6382.783
 20
-10792.311
 30
-965.000
 70
    32
  0
VERTEX
  8
6200LEVEL
 62
5
 10
6371.946
 20
-10765.079
 30
-965.000
 70
    32
  0
VERTEX
  8
6200LEVEL
 62
5
 10
6377.725
 20
-10796.407
 30
-965.000
 70
    32
  0
VERTEX
  8
6200LEVEL
 62
5
 10
6402.530
 20
-10836.893
 30
-965.000
 70
    32
  0
VERTEX
  8
6200LEVEL
 62
5
 10
6412.886
 20
-10888.706
 30
-965.000
 70
    32
  0
VERTEX
  8
6200LEVEL
 62
5
 10
6436.487
 20
-10929.673
 30
-965.000
 70
    32
  0
VERTEX
  8
6200LEVEL
 62
5
 10
6462.737
 20
-10970.159
 30
-965.000
 70
    32
  0
VERTEX
  8
6200LEVEL
 62
5
 10
6502.786
 20
-11019.299
 30
-965.000
 70
    32
  0
SEQEND
  8
6200LEVEL
  0
POLYLINE
  8
6200LEVEL
 62
5
 66
     1
 70
     9
  0
VERTEX
  8
6200LEVEL
 62
5
 10
6462.737
 20
-11161.022
 30
-965.000
 70
    32
  0
VERTEX
  8
6200LEVEL
 62
5
 10
6462.496
 20
-11144.875
 30
-965.000
 70
    32
  0
VERTEX
  8
6200LEVEL
 62
5
 10
6458.161
 20
-11090.412
 30
-965.000
 70
    32
  0
VERTEX
  8
6200LEVEL
 62
5
 10
6423.241
 20
-10998.114
 30
-965.000
 70
    32
  0
VERTEX
  8
6200LEVEL
 62
5
 10
6409.755
 20
-10948.711
 30
-965.000
 70
    32
  0
VERTEX
  8
6200LEVEL
 62
5
 10
6396.751
 20
-10900.032
 30
-965.000
 70
    32
  0
VERTEX
  8
6200LEVEL
 62
5
 10
6383.987
 20
-10858.823
 30
-965.000
 70
    32
  0
VERTEX
  8
6200LEVEL
 62
5
 10
6381.338
 20
-10851.835
 30
-965.000
 70
    32
  0
VERTEX
  8
6200LEVEL
 62
5
 10
6371.223
 20
-10800.986
 30
-965.000
 70
    32
  0
VERTEX
  8
6200LEVEL
 62
5
 10
6367.274
 20
-10782.520
 30
-965.000
 70
    32
  0
VERTEX
  8
6200LEVEL
 62
5
 10
6367.129
 20
-10803.637
 30
-965.000
 70
    32
  0
VERTEX
  8
6200LEVEL
 62
5
 10
6376.040
 20
-10856.172
 30
-965.000
 70
    32
  0
VERTEX
  8
6200LEVEL
 62
5
 10
6391.453
 20
-10903.888
 30
-965.000
 70
    32
  0
VERTEX
  8
6200LEVEL
 62
5
 10
6405.902
 20
-10951.844
 30
-965.000
 70
    32
  0
VERTEX
  8
6200LEVEL
 62
5
 10
6418.666
 20
-11001.729
 30
-965.000
 70
    32
  0
VERTEX
  8
6200LEVEL
 62
5
 10
6452.863
 20
-11093.786
 30
-965.000
 70
    32
  0
VERTEX
  8
6200LEVEL
 62
5
 10
6458.884
 20
-11148.249
 30
-965.000
 70
    32
  0
SEQEND
  8
6200LEVEL
  0
POLYLINE
  8
6200LEVEL
 62
5
 66
     1
 70
     9
  0
VERTEX
  8
6200LEVEL
 62
5
 10
6462.496
 20
-11295.974
 30
-965.000
 70
    32
  0
VERTEX
  8
6200LEVEL
 62
5
 10
6455.271
 20
-11268.743
 30
-965.000
 70
    32
  0
VERTEX
  8
6200LEVEL
 62
5
 10
6438.895
 20
-11221.992
 30
-965.000
 70
    32
  0
VERTEX
  8
6200LEVEL
 62
5
 10
6423.482
 20
-11174.035
 30
-965.000
 70
    32
  0
VERTEX
  8
6200LEVEL
 62
5
 10
6414.812
 20
-11121.499
 30
-965.000
 70
    32
  0
VERTEX
  8
6200LEVEL
 62
5
 10
6377.003
 20
-11032.334
 30
-965.000
 70
    32
  0
VERTEX
  8
6200LEVEL
 62
5
 10
6341.120
 20
-10940.276
 30
-965.000
 70
    32
  0
VERTEX
  8
6200LEVEL
 62
5
 10
6324.262
 20
-10894.007
 30
-965.000
 70
    32
  0
VERTEX
  8
6200LEVEL
 62
5
 10
6317.453
 20
-10873.449
 30
-965.000
 70
    32
  0
VERTEX
  8
6200LEVEL
 62
5
 10
6323.058
 20
-10877.861
 30
-965.000
 70
    32
  0
VERTEX
  8
6200LEVEL
 62
5
 10
6320.409
 20
-10860.028
 30
-965.000
 70
    32
  0
VERTEX
  8
6200LEVEL
 62
5
 10
6332.691
 20
-10875.451
 30
-965.000
 70
    32
  0
VERTEX
  8
6200LEVEL
 62
5
 10
6334.815
 20
-10867.391
 30
-965.000
 70
    32
  0
VERTEX
  8
6200LEVEL
 62
5
 10
6322.095
 20
-10837.375
 30
-965.000
 70
    32
  0
VERTEX
  8
6200LEVEL
 62
5
 10
6299.698
 20
-10735.920
 30
-965.000
 70
    32
  0
VERTEX
  8
6200LEVEL
 62
5
 10
6274.171
 20
-10636.634
 30
-965.000
 70
    32
  0
VERTEX
  8
6200LEVEL
 62
5
 10
6257.795
 20
-10531.563
 30
-965.000
 70
    32
  0
VERTEX
  8
6200LEVEL
 62
5
 10
6231.064
 20
-10433.239
 30
-965.000
 70
    32
  0
VERTEX
  8
6200LEVEL
 62
5
 10
6196.626
 20
-10340.459
 30
-965.000
 70
    32
  0
VERTEX
  8
6200LEVEL
 62
5
 10
6151.110
 20
-10257.801
 30
-965.000
 70
    32
  0
VERTEX
  8
6200LEVEL
 62
5
 10
6098.610
 20
-10180.443
 30
-965.000
 70
    32
  0
VERTEX
  8
6200LEVEL
 62
5
 10
6050.871
 20
-10101.696
 30
-965.000
 70
    32
  0
VERTEX
  8
6200LEVEL
 62
5
 10
6002.039
 20
-10012.716
 30
-965.000
 70
    32
  0
VERTEX
  8
6200LEVEL
 62
5
 10
5985.742
 20
-9951.818
 30
-965.000
 70
    32
  0
VERTEX
  8
6200LEVEL
 62
5
 10
5981.117
 20
-9993.456
 30
-965.000
 70
    32
  0
VERTEX
  8
6200LEVEL
 62
5
 10
5998.427
 20
-10037.297
 30
-965.000
 70
    32
  0
VERTEX
  8
6200LEVEL
 62
5
 10
6042.980
 20
-10120.920
 30
-965.000
 70
    32
  0
VERTEX
  8
6200LEVEL
 62
5
 10
6088.496
 20
-10186.709
 30
-965.000
 70
    32
  0
VERTEX
  8
6200LEVEL
 62
5
 10
6138.828
 20
-10266.717
 30
-965.000
 70
    32
  0
VERTEX
  8
6200LEVEL
 62
5
 10
6177.601
 20
-10354.678
 30
-965.000
 70
    32
  0
VERTEX
  8
6200LEVEL
 62
5
 10
6219.023
 20
-10440.951
 30
-965.000
 70
    32
  0
VERTEX
  8
6200LEVEL
 62
5
 10
6247.199
 20
-10539.997
 30
-965.000
 70
    32
  0
VERTEX
  8
6200LEVEL
 62
5
 10
6266.465
 20
-10642.899
 30
-965.000
 70
    32
  0
VERTEX
  8
6200LEVEL
 62
5
 10
6290.788
 20
-10743.150
 30
-965.000
 70
    32
  0
VERTEX
  8
6200LEVEL
 62
5
 10
6318.723
 20
-10839.303
 30
-965.000
 70
    32
  0
VERTEX
  8
6200LEVEL
 62
5
 10
6320.650
 20
-10848.461
 30
-965.000
 70
    32
  0
VERTEX
  8
6200LEVEL
 62
5
 10
6314.629
 20
-10841.713
 30
-965.000
 70
    32
  0
VERTEX
  8
6200LEVEL
 62
5
 10
6306.923
 20
-10827.977
 30
-965.000
 70
    32
  0
VERTEX
  8
6200LEVEL
 62
5
 10
6310.776
 20
-10844.846
 30
-965.000
 70
    32
  0
VERTEX
  8
6200LEVEL
 62
5
 10
6311.258
 20
-10853.039
 30
-965.000
 70
    32
  0
VERTEX
  8
6200LEVEL
 62
5
 10
6306.200
 20
-10847.979
 30
-965.000
 70
    32
  0
VERTEX
  8
6200LEVEL
 62
5
 10
6274.653
 20
-10754.958
 30
-965.000
 70
    32
  0
VERTEX
  8
6200LEVEL
 62
5
 10
6194.458
 20
-10577.591
 30
-965.000
 70
    32
  0
VERTEX
  8
6200LEVEL
 62
5
 10
6144.126
 20
-10495.655
 30
-965.000
 70
    32
  0
VERTEX
  8
6200LEVEL
 62
5
 10
6098.128
 20
-10412.033
 30
-965.000
 70
    32
  0
VERTEX
  8
6200LEVEL
 62
5
 10
6053.816
 20
-10328.410
 30
-965.000
 70
    32
  0
VERTEX
  8
6200LEVEL
 62
5
 10
6017.934
 20
-10238.039
 30
-965.000
 70
    32
  0
VERTEX
  8
6200LEVEL
 62
5
 10
5998.667
 20
-10201.409
 30
-965.000
 70
    32
  0
VERTEX
  8
6200LEVEL
 62
5
 10
6015.766
 20
-10239.726
 30
-965.000
 70
    32
  0
VERTEX
  8
6200LEVEL
 62
5
 10
6050.445
 20
-10331.061
 30
-965.000
 70
    32
  0
VERTEX
  8
6200LEVEL
 62
5
 10
6091.385
 20
-10417.334
 30
-965.000
 70
    32
  0
VERTEX
  8
6200LEVEL
 62
5
 10
6135.215
 20
-10502.403
 30
-965.000
 70
    32
  0
VERTEX
  8
6200LEVEL
 62
5
 10
6184.825
 20
-10584.821
 30
-965.000
 70
    32
  0
VERTEX
  8
6200LEVEL
 62
5
 10
6226.728
 20
-10671.335
 30
-965.000
 70
    32
  0
VERTEX
  8
6200LEVEL
 62
5
 10
6265.742
 20
-10760.019
 30
-965.000
 70
    32
  0
VERTEX
  8
6200LEVEL
 62
5
 10
6300.661
 20
-10852.316
 30
-965.000
 70
    32
  0
VERTEX
  8
6200LEVEL
 62
5
 10
6321.613
 20
-10895.694
 30
-965.000
 70
    32
  0
VERTEX
  8
6200LEVEL
 62
5
 10
6339.916
 20
-10941.240
 30
-965.000
 70
    32
  0
VERTEX
  8
6200LEVEL
 62
5
 10
6373.631
 20
-11034.744
 30
-965.000
 70
    32
  0
VERTEX
  8
6200LEVEL
 62
5
 10
6412.645
 20
-11123.428
 30
-965.000
 70
    32
  0
VERTEX
  8
6200LEVEL
 62
5
 10
6421.074
 20
-11175.481
 30
-965.000
 70
    32
  0
VERTEX
  8
6200LEVEL
 62
5
 10
6433.838
 20
-11225.606
 30
-965.000
 70
    32
  0
VERTEX
  8
6200LEVEL
 62
5
 10
6450.936
 20
-11272.117
 30
-965.000
 70
    32
  0
SEQEND
  8
6200LEVEL
  0
POLYLINE
  8
6200LEVEL
 62
5
 66
     1
 70
     9
  0
VERTEX
  8
6200LEVEL
 62
5
 10
6492.388
 20
-11220.440
 30
-965.000
 70
    32
  0
VERTEX
  8
6200LEVEL
 62
5
 10
6491.154
 20
-11210.424
 30
-965.000
 70
    32
  0
VERTEX
  8
6200LEVEL
 62
5
 10
6479.835
 20
-11192.591
 30
-965.000
 70
    32
  0
VERTEX
  8
6200LEVEL
 62
5
 10
6467.312
 20
-11174.758
 30
-965.000
 70
    32
  0
VERTEX
  8
6200LEVEL
 62
5
 10
6467.071
 20
-11182.229
 30
-965.000
 70
    32
  0
VERTEX
  8
6200LEVEL
 62
5
 10
6475.019
 20
-11195.483
 30
-965.000
 70
    32
  0
SEQEND
  8
6200LEVEL
  0
POLYLINE
  8
6200LEVEL
 62
5
 66
     1
 70
     9
  0
VERTEX
  8
6200LEVEL
 62
5
 10
6668.429
 20
-11313.856
 30
-965.000
 70
    32
  0
VERTEX
  8
6200LEVEL
 62
5
 10
6664.789
 20
-11292.360
 30
-965.000
 70
    32
  0
VERTEX
  8
6200LEVEL
 62
5
 10
6657.882
 20
-11269.293
 30
-965.000
 70
    32
  0
VERTEX
  8
6200LEVEL
 62
5
 10
6658.287
 20
-11297.179
 30
-965.000
 70
    32
  0
SEQEND
  8
6200LEVEL
  0
POLYLINE
  8
6200LEVEL
 62
5
 66
     1
 70
     9
  0
VERTEX
  8
6200LEVEL
 62
5
 10
6454.028
 20
-10319.378
 30
-965.000
 70
    32
  0
VERTEX
  8
6200LEVEL
 62
5
 10
6494.171
 20
-10368.158
 30
-965.000
 70
    32
  0
VERTEX
  8
6200LEVEL
 62
5
 10
6517.442
 20
-10401.796
 30
-965.000
 70
    32
  0
VERTEX
  8
6200LEVEL
 62
5
 10
6518.517
 20
-10409.609
 30
-965.000
 70
    32
  0
VERTEX
  8
6200LEVEL
 62
5
 10
6521.987
 20
-10423.113
 30
-965.000
 70
    32
  0
VERTEX
  8
6200LEVEL
 62
5
 10
6506.767
 20
-10409.284
 30
-965.000
 70
    32
  0
VERTEX
  8
6200LEVEL
 62
5
 10
6498.103
 20
-10396.908
 30
-965.000
 70
    32
  0
VERTEX
  8
6200LEVEL
 62
5
 10
6463.007
 20
-10356.376
 30
-965.000
 70
    32
  0
VERTEX
  8
6200LEVEL
 62
5
 10
6469.529
 20
-10375.578
 30
-965.000
 70
    32
  0
VERTEX
  8
6200LEVEL
 62
5
 10
6478.950
 20
-10411.385
 30
-965.000
 70
    32
  0
VERTEX
  8
6200LEVEL
 62
5
 10
6438.409
 20
-10352.452
 30
-965.000
 70
    32
  0
VERTEX
  8
6200LEVEL
 62
5
 10
6417.244
 20
-10298.105
 30
-965.000
 70
    32
  0
VERTEX
  8
6200LEVEL
 62
5
 10
6409.773
 20
-10280.591
 30
-965.000
 70
    32
  0
VERTEX
  8
6200LEVEL
 62
5
 10
6421.381
 20
-10295.164
 30
-965.000
 70
    32
  0
VERTEX
  8
6200LEVEL
 62
5
 10
6450.919
 20
-10319.891
 30
-965.000
 70
    32
  0
SEQEND
  8
6200LEVEL
  0
POLYLINE
  8
6200LEVEL
 62
7
 66
     1
 70
     8
  0
VERTEX
  8
6200LEVEL
 62
7
 10
6516.678
 20
-11416.017
 30
-965.000
 70
    32
  0
VERTEX
  8
6200LEVEL
 62
7
 10
6494.915
 20
-11372.187
 30
-965.000
 70
    32
  0
VERTEX
  8
6200LEVEL
 62
7
 10
6476.419
 20
-11326.860
 30
-965.000
 70
    32
  0
VERTEX
  8
6200LEVEL
 62
7
 10
6466.108
 20
-11306.819
 30
-965.000
 70
    32
  0
VERTEX
  8
6200LEVEL
 62
7
 10
6453.104
 20
-11270.189
 30
-965.000
 70
    32
  0
VERTEX
  8
6200LEVEL
 62
7
 10
6434.079
 20
-11236.933
 30
-965.000
 70
    32
  0
VERTEX
  8
6200LEVEL
 62
7
 10
6442.989
 20
-11237.415
 30
-965.000
 70
    32
  0
VERTEX
  8
6200LEVEL
 62
7
 10
6453.104
 20
-11246.572
 30
-965.000
 70
    32
  0
VERTEX
  8
6200LEVEL
 62
7
 10
6460.088
 20
-11250.187
 30
-965.000
 70
    32
  0
VERTEX
  8
6200LEVEL
 62
7
 10
6453.104
 20
-11211.629
 30
-965.000
 70
    32
  0
VERTEX
  8
6200LEVEL
 62
7
 10
6434.004
 20
-11192.712
 30
-965.000
 70
    32
  0
VERTEX
  8
6200LEVEL
 62
7
 10
6410.959
 20
-11182.469
 30
-965.000
 70
    32
  0
VERTEX
  8
6200LEVEL
 62
7
 10
6386.636
 20
-11142.707
 30
-965.000
 70
    32
  0
VERTEX
  8
6200LEVEL
 62
7
 10
6345.455
 20
-11054.987
 30
-965.000
 70
    32
  0
VERTEX
  8
6200LEVEL
 62
7
 10
6318.964
 20
-10956.905
 30
-965.000
 70
    32
  0
VERTEX
  8
6200LEVEL
 62
7
 10
6289.583
 20
-10918.588
 30
-965.000
 70
    32
  0
VERTEX
  8
6200LEVEL
 62
7
 10
6271.040
 20
-10874.246
 30
-965.000
 70
    32
  0
VERTEX
  8
6200LEVEL
 62
7
 10
6268.391
 20
-10870.390
 30
-965.000
 70
    32
  0
VERTEX
  8
6200LEVEL
 62
7
 10
6260.203
 20
-10874.487
 30
-965.000
 70
    32
  0
VERTEX
  8
6200LEVEL
 62
7
 10
6245.724
 20
-10834.511
 30
-965.000
 70
    32
  0
VERTEX
  8
6200LEVEL
 62
7
 10
6228.506
 20
-10787.856
 30
-965.000
 70
    32
  0
VERTEX
  8
6200LEVEL
 62
7
 10
6200.223
 20
-10751.328
 30
-965.000
 70
    32
  0
VERTEX
  8
6200LEVEL
 62
7
 10
6175.096
 20
-10708.824
 30
-965.000
 70
    32
  0
VERTEX
  8
6200LEVEL
 62
7
 10
6174.213
 20
-10706.759
 30
-965.000
 70
    32
  0
VERTEX
  8
6200LEVEL
 62
7
 10
6174.654
 20
-10709.119
 30
-965.000
 70
    32
  0
VERTEX
  8
6200LEVEL
 62
7
 10
6184.530
 20
-10750.086
 30
-965.000
 70
    32
  0
VERTEX
  8
6200LEVEL
 62
7
 10
6168.475
 20
-10714.132
 30
-965.000
 70
    32
  0
VERTEX
  8
6200LEVEL
 62
7
 10
6142.026
 20
-10656.030
 30
-965.000
 70
    32
  0
VERTEX
  8
6200LEVEL
 62
7
 10
6121.071
 20
-10657.732
 30
-965.000
 70
    32
  0
VERTEX
  8
6200LEVEL
 62
7
 10
6121.175
 20
-10630.944
 30
-965.000
 70
    32
  0
VERTEX
  8
6200LEVEL
 62
7
 10
6094.759
 20
-10531.812
 30
-965.000
 70
    32
  0
VERTEX
  8
6200LEVEL
 62
7
 10
6079.730
 20
-10483.650
 30
-965.000
 70
    32
  0
VERTEX
  8
6200LEVEL
 62
7
 10
6071.697
 20
-10431.421
 30
-965.000
 70
    32
  0
VERTEX
  8
6200LEVEL
 62
7
 10
6045.491
 20
-10390.676
 30
-965.000
 70
    32
  0
VERTEX
  8
6200LEVEL
 62
7
 10
6062.892
 20
-10438.141
 30
-965.000
 70
    32
  0
VERTEX
  8
6200LEVEL
 62
7
 10
6071.488
 20
-10475.735
 30
-965.000
 70
    32
  0
VERTEX
  8
6200LEVEL
 62
7
 10
6090.147
 20
-10535.382
 30
-965.000
 70
    32
  0
VERTEX
  8
6200LEVEL
 62
7
 10
6096.525
 20
-10572.847
 30
-965.000
 70
    32
  0
VERTEX
  8
6200LEVEL
 62
7
 10
6098.654
 20
-10602.194
 30
-965.000
 70
    32
  0
VERTEX
  8
6200LEVEL
 62
7
 10
6077.567
 20
-10543.783
 30
-965.000
 70
    32
  0
VERTEX
  8
6200LEVEL
 62
7
 10
6057.651
 20
-10500.938
 30
-965.000
 70
    32
  0
VERTEX
  8
6200LEVEL
 62
7
 10
6041.927
 20
-10453.473
 30
-965.000
 70
    32
  0
VERTEX
  8
6200LEVEL
 62
7
 10
6002.093
 20
-10365.893
 30
-965.000
 70
    32
  0
VERTEX
  8
6200LEVEL
 62
7
 10
5957.647
 20
-10282.304
 30
-965.000
 70
    32
  0
VERTEX
  8
6200LEVEL
 62
7
 10
5937.358
 20
-10261.415
 30
-965.000
 70
    32
  0
VERTEX
  8
6200LEVEL
 62
7
 10
5893.900
 20
-10208.388
 30
-965.000
 70
    32
  0
VERTEX
  8
6200LEVEL
 62
7
 10
5880.205
 20
-10192.768
 30
-965.000
 70
    32
  0
VERTEX
  8
6200LEVEL
 62
7
 10
5865.023
 20
-10212.039
 30
-965.000
 70
    32
  0
VERTEX
  8
6200LEVEL
 62
7
 10
5862.871
 20
-10230.966
 30
-965.000
 70
    32
  0
VERTEX
  8
6200LEVEL
 62
7
 10
5878.264
 20
-10272.923
 30
-965.000
 70
    32
  0
SEQEND
  8
6200LEVEL
  0
POLYLINE
  8
6200LEVEL
 62
13
 66
     1
 70
     8
  0
VERTEX
  8
6200LEVEL
 62
13
 10
6983.726
 20
-7215.842
 30
-965.000
 70
    32
  0
VERTEX
  8
6200LEVEL
 62
13
 10
7019.645
 20
-7317.698
 30
-965.000
 70
    32
  0
VERTEX
  8
6200LEVEL
 62
13
 10
7049.538
 20
-7357.025
 30
-965.000
 70
    32
  0
VERTEX
  8
6200LEVEL
 62
13
 10
7032.068
 20
-7433.343
 30
-965.000
 70
    32
  0
VERTEX
  8
6200LEVEL
 62
13
 10
7077.489
 20
-7462.157
 30
-965.000
 70
    32
  0
VERTEX
  8
6200LEVEL
 62
13
 10
7112.429
 20
-7494.086
 30
-965.000
 70
    32
  0
VERTEX
  8
6200LEVEL
 62
13
 10
7118.959
 20
-7512.862
 30
-965.000
 70
    32
  0
VERTEX
  8
6200LEVEL
 62
13
 10
7096.955
 20
-7522.720
 30
-965.000
 70
    32
  0
SEQEND
  8
6200LEVEL
  0
POLYLINE
  8
6200LEVEL
 62
7
 66
     1
 70
     8
  0
VERTEX
  8
6200LEVEL
 62
7
 10
7071.519
 20
-7492.429
 30
-965.000
 70
    32
  0
VERTEX
  8
6200LEVEL
 62
7
 10
7058.914
 20
-7475.978
 30
-965.000
 70
    32
  0
VERTEX
  8
6200LEVEL
 62
7
 10
7052.571
 20
-7470.488
 30
-965.000
 70
    32
  0
VERTEX
  8
6200LEVEL
 62
7
 10
7033.369
 20
-7477.010
 30
-965.000
 70
    32
  0
VERTEX
  8
6200LEVEL
 62
7
 10
7034.617
 20
-7493.551
 30
-965.000
 70
    32
  0
VERTEX
  8
6200LEVEL
 62
7
 10
7046.947
 20
-7509.066
 30
-965.000
 70
    32
  0
VERTEX
  8
6200LEVEL
 62
7
 10
7060.123
 20
-7520.581
 30
-965.000
 70
    32
  0
VERTEX
  8
6200LEVEL
 62
7
 10
7062.299
 20
-7536.338
 30
-965.000
 70
    32
  0
VERTEX
  8
6200LEVEL
 62
7
 10
7065.621
 20
-7568.926
 30
-965.000
 70
    32
  0
VERTEX
  8
6200LEVEL
 62
7
 10
7061.081
 20
-7600.343
 30
-965.000
 70
    32
  0
VERTEX
  8
6200LEVEL
 62
7
 10
7067.153
 20
-7607.815
 30
-965.000
 70
    32
  0
VERTEX
  8
6200LEVEL
 62
7
 10
7080.126
 20
-7601.312
 30
-965.000
 70
    32
  0
VERTEX
  8
6200LEVEL
 62
7
 10
7085.233
 20
-7624.143
 30
-965.000
 70
    32
  0
VERTEX
  8
6200LEVEL
 62
7
 10
7086.889
 20
-7641.717
 30
-965.000
 70
    32
  0
VERTEX
  8
6200LEVEL
 62
7
 10
7091.026
 20
-7683.207
 30
-965.000
 70
    32
  0
VERTEX
  8
6200LEVEL
 62
7
 10
7082.752
 20
-7706.606
 30
-965.000
 70
    32
  0
VERTEX
  8
6200LEVEL
 62
7
 10
7063.091
 20
-7741.305
 30
-965.000
 70
    32
  0
VERTEX
  8
6200LEVEL
 62
7
 10
7042.945
 20
-7771.135
 30
-965.000
 70
    32
  0
VERTEX
  8
6200LEVEL
 62
7
 10
7053.644
 20
-7802.101
 30
-965.000
 70
    32
  0
VERTEX
  8
6200LEVEL
 62
7
 10
7073.324
 20
-7852.662
 30
-965.000
 70
    32
  0
VERTEX
  8
6200LEVEL
 62
7
 10
7093.132
 20
-7903.999
 30
-965.000
 70
    32
  0
VERTEX
  8
6200LEVEL
 62
7
 10
7116.820
 20
-7942.083
 30
-965.000
 70
    32
  0
VERTEX
  8
6200LEVEL
 62
7
 10
7155.288
 20
-7985.552
 30
-965.000
 70
    32
  0
VERTEX
  8
6200LEVEL
 62
7
 10
7180.572
 20
-8029.439
 30
-965.000
 70
    32
  0
VERTEX
  8
6200LEVEL
 62
7
 10
7192.467
 20
-8073.461
 30
-965.000
 70
    32
  0
VERTEX
  8
6200LEVEL
 62
7
 10
7175.601
 20
-8109.615
 30
-965.000
 70
    32
  0
VERTEX
  8
6200LEVEL
 62
7
 10
7125.048
 20
-8124.503
 30
-965.000
 70
    32
  0
VERTEX
  8
6200LEVEL
 62
7
 10
7122.042
 20
-8157.571
 30
-965.000
 70
    32
  0
VERTEX
  8
6200LEVEL
 62
7
 10
7123.382
 20
-8161.821
 30
-965.000
 70
    32
  0
VERTEX
  8
6200LEVEL
 62
7
 10
7114.439
 20
-8183.096
 30
-965.000
 70
    32
  0
VERTEX
  8
6200LEVEL
 62
7
 10
7068.794
 20
-8173.543
 30
-965.000
 70
    32
  0
VERTEX
  8
6200LEVEL
 62
7
 10
7036.151
 20
-8131.509
 30
-965.000
 70
    32
  0
VERTEX
  8
6200LEVEL
 62
7
 10
7006.680
 20
-8098.051
 30
-965.000
 70
    32
  0
VERTEX
  8
6200LEVEL
 62
7
 10
6978.685
 20
-8064.830
 30
-965.000
 70
    32
  0
VERTEX
  8
6200LEVEL
 62
7
 10
6962.544
 20
-8052.165
 30
-965.000
 70
    32
  0
VERTEX
  8
6200LEVEL
 62
7
 10
6969.757
 20
-8076.522
 30
-965.000
 70
    32
  0
VERTEX
  8
6200LEVEL
 62
7
 10
6987.222
 20
-8103.019
 30
-965.000
 70
    32
  0
VERTEX
  8
6200LEVEL
 62
7
 10
7013.441
 20
-8145.794
 30
-965.000
 70
    32
  0
VERTEX
  8
6200LEVEL
 62
7
 10
7038.050
 20
-8174.944
 30
-965.000
 70
    32
  0
VERTEX
  8
6200LEVEL
 62
7
 10
7060.212
 20
-8211.523
 30
-965.000
 70
    32
  0
VERTEX
  8
6200LEVEL
 62
7
 10
7080.541
 20
-8261.178
 30
-965.000
 70
    32
  0
VERTEX
  8
6200LEVEL
 62
7
 10
7085.545
 20
-8274.084
 30
-965.000
 70
    32
  0
VERTEX
  8
6200LEVEL
 62
7
 10
7093.393
 20
-8289.714
 30
-965.000
 70
    32
  0
VERTEX
  8
6200LEVEL
 62
7
 10
7080.104
 20
-8274.982
 30
-965.000
 70
    32
  0
VERTEX
  8
6200LEVEL
 62
7
 10
7059.209
 20
-8255.757
 30
-965.000
 70
    32
  0
VERTEX
  8
6200LEVEL
 62
7
 10
7041.749
 20
-8241.873
 30
-965.000
 70
    32
  0
VERTEX
  8
6200LEVEL
 62
7
 10
7033.229
 20
-8241.523
 30
-965.000
 70
    32
  0
VERTEX
  8
6200LEVEL
 62
7
 10
7030.739
 20
-8260.296
 30
-965.000
 70
    32
  0
VERTEX
  8
6200LEVEL
 62
7
 10
7046.448
 20
-8299.377
 30
-965.000
 70
    32
  0
VERTEX
  8
6200LEVEL
 62
7
 10
7074.478
 20
-8343.450
 30
-965.000
 70
    32
  0
VERTEX
  8
6200LEVEL
 62
7
 10
7111.588
 20
-8379.769
 30
-965.000
 70
    32
  0
VERTEX
  8
6200LEVEL
 62
7
 10
7135.618
 20
-8406.444
 30
-965.000
 70
    32
  0
VERTEX
  8
6200LEVEL
 62
7
 10
7144.893
 20
-8419.993
 30
-965.000
 70
    32
  0
VERTEX
  8
6200LEVEL
 62
7
 10
7149.530
 20
-8431.848
 30
-965.000
 70
    32
  0
VERTEX
  8
6200LEVEL
 62
7
 10
7157.540
 20
-8452.171
 30
-965.000
 70
    32
  0
VERTEX
  8
6200LEVEL
 62
7
 10
7145.736
 20
-8458.946
 30
-965.000
 70
    32
  0
VERTEX
  8
6200LEVEL
 62
7
 10
7154.589
 20
-8472.072
 30
-965.000
 70
    32
  0
VERTEX
  8
6200LEVEL
 62
7
 10
7139.323
 20
-8540.956
 30
-965.000
 70
    32
  0
VERTEX
  8
6200LEVEL
 62
7
 10
7148.823
 20
-8576.272
 30
-965.000
 70
    32
  0
VERTEX
  8
6200LEVEL
 62
7
 10
7130.508
 20
-8563.008
 30
-965.000
 70
    32
  0
VERTEX
  8
6200LEVEL
 62
7
 10
7112.686
 20
-8532.419
 30
-965.000
 70
    32
  0
VERTEX
  8
6200LEVEL
 62
7
 10
7105.508
 20
-8518.914
 30
-965.000
 70
    32
  0
VERTEX
  8
6200LEVEL
 62
7
 10
7088.028
 20
-8502.000
 30
-965.000
 70
    32
  0
VERTEX
  8
6200LEVEL
 62
7
 10
7099.312
 20
-8522.970
 30
-965.000
 70
    32
  0
VERTEX
  8
6200LEVEL
 62
7
 10
7114.166
 20
-8562.671
 30
-965.000
 70
    32
  0
VERTEX
  8
6200LEVEL
 62
7
 10
7085.728
 20
-8530.640
 30
-965.000
 70
    32
  0
VERTEX
  8
6200LEVEL
 62
7
 10
7055.059
 20
-8501.532
 30
-965.000
 70
    32
  0
VERTEX
  8
6200LEVEL
 62
7
 10
7026.007
 20
-8475.882
 30
-965.000
 70
    32
  0
VERTEX
  8
6200LEVEL
 62
7
 10
7004.085
 20
-8467.414
 30
-965.000
 70
    32
  0
VERTEX
  8
6200LEVEL
 62
7
 10
6984.692
 20
-8485.620
 30
-965.000
 70
    32
  0
VERTEX
  8
6200LEVEL
 62
7
 10
6987.222
 20
-8500.440
 30
-965.000
 70
    32
  0
VERTEX
  8
6200LEVEL
 62
7
 10
6993.545
 20
-8525.421
 30
-965.000
 70
    32
  0
VERTEX
  8
6200LEVEL
 62
7
 10
7009.942
 20
-8550.331
 30
-965.000
 70
    32
  0
VERTEX
  8
6200LEVEL
 62
7
 10
6998.698
 20
-8552.825
 30
-965.000
 70
    32
  0
VERTEX
  8
6200LEVEL
 62
7
 10
7010.408
 20
-8575.382
 30
-965.000
 70
    32
  0
VERTEX
  8
6200LEVEL
 62
7
 10
7030.761
 20
-8617.469
 30
-965.000
 70
    32
  0
VERTEX
  8
6200LEVEL
 62
7
 10
7010.805
 20
-8609.745
 30
-965.000
 70
    32
  0
VERTEX
  8
6200LEVEL
 62
7
 10
7021.946
 20
-8639.521
 30
-965.000
 70
    32
  0
VERTEX
  8
6200LEVEL
 62
7
 10
7030.720
 20
-8658.830
 30
-965.000
 70
    32
  0
VERTEX
  8
6200LEVEL
 62
7
 10
7020.737
 20
-8666.065
 30
-965.000
 70
    32
  0
VERTEX
  8
6200LEVEL
 62
7
 10
7008.771
 20
-8682.570
 30
-965.000
 70
    32
  0
VERTEX
  8
6200LEVEL
 62
7
 10
6980.732
 20
-8660.692
 30
-965.000
 70
    32
  0
VERTEX
  8
6200LEVEL
 62
7
 10
6959.427
 20
-8670.914
 30
-965.000
 70
    32
  0
VERTEX
  8
6200LEVEL
 62
7
 10
6970.460
 20
-8702.943
 30
-965.000
 70
    32
  0
VERTEX
  8
6200LEVEL
 62
7
 10
6956.113
 20
-8718.563
 30
-965.000
 70
    32
  0
VERTEX
  8
6200LEVEL
 62
7
 10
6957.711
 20
-8740.934
 30
-965.000
 70
    32
  0
VERTEX
  8
6200LEVEL
 62
7
 10
6972.483
 20
-8781.964
 30
-965.000
 70
    32
  0
VERTEX
  8
6200LEVEL
 62
7
 10
6944.026
 20
-8794.324
 30
-965.000
 70
    32
  0
VERTEX
  8
6200LEVEL
 62
7
 10
6926.641
 20
-8814.756
 30
-965.000
 70
    32
  0
VERTEX
  8
6200LEVEL
 62
7
 10
6906.688
 20
-8837.049
 30
-965.000
 70
    32
  0
VERTEX
  8
6200LEVEL
 62
7
 10
6891.983
 20
-8865.980
 30
-965.000
 70
    32
  0
VERTEX
  8
6200LEVEL
 62
7
 10
6889.815
 20
-8916.843
 30
-965.000
 70
    32
  0
VERTEX
  8
6200LEVEL
 62
7
 10
6895.968
 20
-8951.143
 30
-965.000
 70
    32
  0
VERTEX
  8
6200LEVEL
 62
7
 10
6899.352
 20
-8978.952
 30
-965.000
 70
    32
  0
VERTEX
  8
6200LEVEL
 62
7
 10
6906.736
 20
-9004.600
 30
-965.000
 70
    32
  0
VERTEX
  8
6200LEVEL
 62
7
 10
6915.965
 20
-9056.202
 30
-965.000
 70
    32
  0
VERTEX
  8
6200LEVEL
 62
7
 10
6922.426
 20
-9108.423
 30
-965.000
 70
    32
  0
VERTEX
  8
6200LEVEL
 62
7
 10
6925.503
 20
-9164.353
 30
-965.000
 70
    32
  0
VERTEX
  8
6200LEVEL
 62
7
 10
6924.580
 20
-9237.277
 30
-965.000
 70
    32
  0
VERTEX
  8
6200LEVEL
 62
7
 10
6923.657
 20
-9300.312
 30
-965.000
 70
    32
  0
SEQEND
  8
6200LEVEL
  0
POLYLINE
  8
6200LEVEL
 62
13
 66
     1
 70
     8
  0
VERTEX
  8
6200LEVEL
 62
13
 10
7071.519
 20
-7492.429
 30
-965.000
 70
    32
  0
VERTEX
  8
6200LEVEL
 62
13
 10
7059.519
 20
-7475.251
 30
-965.000
 70
    32
  0
VERTEX
  8
6200LEVEL
 62
13
 10
7050.314
 20
-7453.202
 30
-965.000
 70
    32
  0
VERTEX
  8
6200LEVEL
 62
13
 10
7038.848
 20
-7443.857
 30
-965.000
 70
    32
  0
VERTEX
  8
6200LEVEL
 62
13
 10
7028.453
 20
-7435.132
 30
-965.000
 70
    32
  0
VERTEX
  8
6200LEVEL
 62
13
 10
7021.683
 20
-7427.009
 30
-965.000
 70
    32
  0
VERTEX
  8
6200LEVEL
 62
13
 10
7015.156
 20
-7421.070
 30
-965.000
 70
    32
  0
VERTEX
  8
6200LEVEL
 62
13
 10
7007.661
 20
-7424.949
 30
-965.000
 70
    32
  0
VERTEX
  8
6200LEVEL
 62
13
 10
7006.090
 20
-7430.282
 30
-965.000
 70
    32
  0
VERTEX
  8
6200LEVEL
 62
13
 10
7007.541
 20
-7441.554
 30
-965.000
 70
    32
  0
VERTEX
  8
6200LEVEL
 62
13
 10
7007.420
 20
-7450.403
 30
-965.000
 70
    32
  0
VERTEX
  8
6200LEVEL
 62
13
 10
7006.332
 20
-7457.433
 30
-965.000
 70
    32
  0
VERTEX
  8
6200LEVEL
 62
13
 10
7004.518
 20
-7470.159
 30
-965.000
 70
    32
  0
VERTEX
  8
6200LEVEL
 62
13
 10
7004.014
 20
-7483.930
 30
-965.000
 70
    32
  0
VERTEX
  8
6200LEVEL
 62
13
 10
6992.552
 20
-7524.218
 30
-965.000
 70
    32
  0
VERTEX
  8
6200LEVEL
 62
13
 10
6997.749
 20
-7531.005
 30
-965.000
 70
    32
  0
VERTEX
  8
6200LEVEL
 62
13
 10
7022.287
 20
-7549.549
 30
-965.000
 70
    32
  0
VERTEX
  8
6200LEVEL
 62
13
 10
7026.156
 20
-7562.640
 30
-965.000
 70
    32
  0
VERTEX
  8
6200LEVEL
 62
13
 10
7030.091
 20
-7582.932
 30
-965.000
 70
    32
  0
VERTEX
  8
6200LEVEL
 62
13
 10
7023.094
 20
-7601.490
 30
-965.000
 70
    32
  0
VERTEX
  8
6200LEVEL
 62
13
 10
7029.063
 20
-7623.175
 30
-965.000
 70
    32
  0
VERTEX
  8
6200LEVEL
 62
13
 10
7049.627
 20
-7647.113
 30
-965.000
 70
    32
  0
VERTEX
  8
6200LEVEL
 62
13
 10
7033.480
 20
-7620.269
 30
-965.000
 70
    32
  0
VERTEX
  8
6200LEVEL
 62
13
 10
7031.133
 20
-7611.690
 30
-965.000
 70
    32
  0
VERTEX
  8
6200LEVEL
 62
13
 10
7030.858
 20
-7604.217
 30
-965.000
 70
    32
  0
VERTEX
  8
6200LEVEL
 62
13
 10
7037.206
 20
-7609.337
 30
-965.000
 70
    32
  0
VERTEX
  8
6200LEVEL
 62
13
 10
7042.174
 20
-7613.765
 30
-965.000
 70
    32
  0
VERTEX
  8
6200LEVEL
 62
13
 10
7067.153
 20
-7656.246
 30
-965.000
 70
    32
  0
VERTEX
  8
6200LEVEL
 62
13
 10
7070.314
 20
-7678.641
 30
-965.000
 70
    32
  0
VERTEX
  8
6200LEVEL
 62
13
 10
7053.675
 20
-7718.111
 30
-965.000
 70
    32
  0
VERTEX
  8
6200LEVEL
 62
13
 10
7018.970
 20
-7750.662
 30
-965.000
 70
    32
  0
VERTEX
  8
6200LEVEL
 62
13
 10
6977.171
 20
-7781.829
 30
-965.000
 70
    32
  0
VERTEX
  8
6200LEVEL
 62
13
 10
6935.528
 20
-7812.012
 30
-965.000
 70
    32
  0
VERTEX
  8
6200LEVEL
 62
13
 10
6926.112
 20
-7853.643
 30
-965.000
 70
    32
  0
VERTEX
  8
6200LEVEL
 62
13
 10
6931.784
 20
-7886.077
 30
-965.000
 70
    32
  0
VERTEX
  8
6200LEVEL
 62
13
 10
6942.069
 20
-7916.473
 30
-965.000
 70
    32
  0
VERTEX
  8
6200LEVEL
 62
13
 10
6960.759
 20
-7954.264
 30
-965.000
 70
    32
  0
VERTEX
  8
6200LEVEL
 62
13
 10
6976.091
 20
-7986.222
 30
-965.000
 70
    32
  0
VERTEX
  8
6200LEVEL
 62
13
 10
6959.001
 20
-7984.252
 30
-965.000
 70
    32
  0
VERTEX
  8
6200LEVEL
 62
13
 10
6965.615
 20
-8010.784
 30
-965.000
 70
    32
  0
VERTEX
  8
6200LEVEL
 62
13
 10
6945.138
 20
-8004.742
 30
-965.000
 70
    32
  0
VERTEX
  8
6200LEVEL
 62
13
 10
6935.810
 20
-8023.685
 30
-965.000
 70
    32
  0
VERTEX
  8
6200LEVEL
 62
13
 10
6944.590
 20
-8055.607
 30
-965.000
 70
    32
  0
VERTEX
  8
6200LEVEL
 62
13
 10
6960.072
 20
-8091.372
 30
-965.000
 70
    32
  0
VERTEX
  8
6200LEVEL
 62
13
 10
6978.799
 20
-8122.611
 30
-965.000
 70
    32
  0
VERTEX
  8
6200LEVEL
 62
13
 10
6993.571
 20
-8132.787
 30
-965.000
 70
    32
  0
VERTEX
  8
6200LEVEL
 62
13
 10
7005.004
 20
-8157.565
 30
-965.000
 70
    32
  0
VERTEX
  8
6200LEVEL
 62
13
 10
6989.476
 20
-8150.547
 30
-965.000
 70
    32
  0
VERTEX
  8
6200LEVEL
 62
13
 10
7009.214
 20
-8197.585
 30
-965.000
 70
    32
  0
VERTEX
  8
6200LEVEL
 62
13
 10
6991.930
 20
-8203.152
 30
-965.000
 70
    32
  0
VERTEX
  8
6200LEVEL
 62
13
 10
7013.271
 20
-8251.203
 30
-965.000
 70
    32
  0
VERTEX
  8
6200LEVEL
 62
13
 10
7033.344
 20
-8299.304
 30
-965.000
 70
    32
  0
VERTEX
  8
6200LEVEL
 62
13
 10
7044.762
 20
-8333.664
 30
-965.000
 70
    32
  0
VERTEX
  8
6200LEVEL
 62
13
 10
7025.338
 20
-8349.483
 30
-965.000
 70
    32
  0
VERTEX
  8
6200LEVEL
 62
13
 10
7047.757
 20
-8387.617
 30
-965.000
 70
    32
  0
VERTEX
  8
6200LEVEL
 62
13
 10
7050.982
 20
-8427.480
 30
-965.000
 70
    32
  0
VERTEX
  8
6200LEVEL
 62
13
 10
7039.801
 20
-8439.065
 30
-965.000
 70
    32
  0
VERTEX
  8
6200LEVEL
 62
13
 10
7017.154
 20
-8385.696
 30
-965.000
 70
    32
  0
VERTEX
  8
6200LEVEL
 62
13
 10
7008.828
 20
-8324.904
 30
-965.000
 70
    32
  0
VERTEX
  8
6200LEVEL
 62
13
 10
6974.155
 20
-8320.886
 30
-965.000
 70
    32
  0
VERTEX
  8
6200LEVEL
 62
13
 10
6947.904
 20
-8314.680
 30
-965.000
 70
    32
  0
VERTEX
  8
6200LEVEL
 62
13
 10
6976.682
 20
-8414.488
 30
-965.000
 70
    32
  0
VERTEX
  8
6200LEVEL
 62
13
 10
6973.731
 20
-8436.929
 30
-965.000
 70
    32
  0
VERTEX
  8
6200LEVEL
 62
13
 10
6956.867
 20
-8455.559
 30
-965.000
 70
    32
  0
VERTEX
  8
6200LEVEL
 62
13
 10
6927.357
 20
-8485.197
 30
-965.000
 70
    32
  0
VERTEX
  8
6200LEVEL
 62
13
 10
6921.455
 20
-8514.836
 30
-965.000
 70
    32
  0
VERTEX
  8
6200LEVEL
 62
13
 10
6921.455
 20
-8577.923
 30
-965.000
 70
    32
  0
VERTEX
  8
6200LEVEL
 62
13
 10
6948.436
 20
-8621.957
 30
-965.000
 70
    32
  0
VERTEX
  8
6200LEVEL
 62
13
 10
6939.563
 20
-8670.519
 30
-965.000
 70
    32
  0
VERTEX
  8
6200LEVEL
 62
13
 10
6903.290
 20
-8695.505
 30
-965.000
 70
    32
  0
VERTEX
  8
6200LEVEL
 62
13
 10
6898.267
 20
-8715.953
 30
-965.000
 70
    32
  0
VERTEX
  8
6200LEVEL
 62
13
 10
6851.711
 20
-8691.759
 30
-965.000
 70
    32
  0
VERTEX
  8
6200LEVEL
 62
13
 10
6815.638
 20
-8654.983
 30
-965.000
 70
    32
  0
VERTEX
  8
6200LEVEL
 62
13
 10
6778.688
 20
-8632.241
 30
-965.000
 70
    32
  0
VERTEX
  8
6200LEVEL
 62
13
 10
6759.989
 20
-8582.157
 30
-965.000
 70
    32
  0
VERTEX
  8
6200LEVEL
 62
13
 10
6730.478
 20
-8566.491
 30
-965.000
 70
    32
  0
VERTEX
  8
6200LEVEL
 62
13
 10
6702.232
 20
-8571.149
 30
-965.000
 70
    32
  0
VERTEX
  8
6200LEVEL
 62
13
 10
6699.703
 20
-8613.489
 30
-965.000
 70
    32
  0
VERTEX
  8
6200LEVEL
 62
13
 10
6696.101
 20
-8678.070
 30
-965.000
 70
    32
  0
VERTEX
  8
6200LEVEL
 62
13
 10
6713.582
 20
-8709.885
 30
-965.000
 70
    32
  0
VERTEX
  8
6200LEVEL
 62
13
 10
6713.805
 20
-8665.518
 30
-965.000
 70
    32
  0
VERTEX
  8
6200LEVEL
 62
13
 10
6717.835
 20
-8626.316
 30
-965.000
 70
    32
  0
VERTEX
  8
6200LEVEL
 62
13
 10
6752.822
 20
-8636.776
 30
-965.000
 70
    32
  0
VERTEX
  8
6200LEVEL
 62
13
 10
6787.813
 20
-8674.459
 30
-965.000
 70
    32
  0
VERTEX
  8
6200LEVEL
 62
13
 10
6829.971
 20
-8699.017
 30
-965.000
 70
    32
  0
VERTEX
  8
6200LEVEL
 62
13
 10
6861.554
 20
-8735.763
 30
-965.000
 70
    32
  0
VERTEX
  8
6200LEVEL
 62
13
 10
6925.670
 20
-8763.374
 30
-965.000
 70
    32
  0
VERTEX
  8
6200LEVEL
 62
13
 10
6921.210
 20
-8793.458
 30
-965.000
 70
    32
  0
VERTEX
  8
6200LEVEL
 62
13
 10
6899.296
 20
-8828.050
 30
-965.000
 70
    32
  0
VERTEX
  8
6200LEVEL
 62
13
 10
6884.892
 20
-8862.769
 30
-965.000
 70
    32
  0
VERTEX
  8
6200LEVEL
 62
13
 10
6886.123
 20
-8896.759
 30
-965.000
 70
    32
  0
VERTEX
  8
6200LEVEL
 62
13
 10
6887.046
 20
-8918.698
 30
-965.000
 70
    32
  0
VERTEX
  8
6200LEVEL
 62
13
 10
6892.999
 20
-8959.219
 30
-965.000
 70
    32
  0
VERTEX
  8
6200LEVEL
 62
13
 10
6895.499
 20
-8983.076
 30
-965.000
 70
    32
  0
VERTEX
  8
6200LEVEL
 62
13
 10
6902.966
 20
-9026.391
 30
-965.000
 70
    32
  0
VERTEX
  8
6200LEVEL
 62
13
 10
6915.209
 20
-9079.296
 30
-965.000
 70
    32
  0
VERTEX
  8
6200LEVEL
 62
13
 10
6918.376
 20
-9122.682
 30
-965.000
 70
    32
  0
VERTEX
  8
6200LEVEL
 62
13
 10
6917.212
 20
-9202.708
 30
-965.000
 70
    32
  0
VERTEX
  8
6200LEVEL
 62
13
 10
6914.284
 20
-9300.110
 30
-965.000
 70
    32
  0
SEQEND
  8
6200LEVEL
  0
POLYLINE
  8
6200LEVEL
 62
5
 66
     1
 70
     9
  0
VERTEX
  8
6200LEVEL
 62
5
 10
6514.628
 20
-8055.860
 30
-965.000
 70
    32
  0
VERTEX
  8
6200LEVEL
 62
5
 10
6522.677
 20
-8073.639
 30
-965.000
 70
    32
  0
VERTEX
  8
6200LEVEL
 62
5
 10
6527.619
 20
-8088.535
 30
-965.000
 70
    32
  0
VERTEX
  8
6200LEVEL
 62
5
 10
6537.844
 20
-8105.314
 30
-965.000
 70
    32
  0
VERTEX
  8
6200LEVEL
 62
5
 10
6564.796
 20
-8143.929
 30
-965.000
 70
    32
  0
VERTEX
  8
6200LEVEL
 62
5
 10
6630.141
 20
-8221.835
 30
-965.000
 70
    32
  0
VERTEX
  8
6200LEVEL
 62
5
 10
6681.996
 20
-8310.751
 30
-965.000
 70
    32
  0
VERTEX
  8
6200LEVEL
 62
5
 10
6628.876
 20
-8222.682
 30
-965.000
 70
    32
  0
VERTEX
  8
6200LEVEL
 62
5
 10
6558.473
 20
-8148.586
 30
-965.000
 70
    32
  0
VERTEX
  8
6200LEVEL
 62
5
 10
6497.765
 20
-8067.716
 30
-965.000
 70
    32
  0
VERTEX
  8
6200LEVEL
 62
5
 10
6488.254
 20
-8052.922
 30
-965.000
 70
    32
  0
VERTEX
  8
6200LEVEL
 62
5
 10
6498.990
 20
-8066.790
 30
-965.000
 70
    32
  0
VERTEX
  8
6200LEVEL
 62
5
 10
6560.508
 20
-8147.261
 30
-965.000
 70
    32
  0
VERTEX
  8
6200LEVEL
 62
5
 10
6583.684
 20
-8170.718
 30
-965.000
 70
    32
  0
VERTEX
  8
6200LEVEL
 62
5
 10
6564.086
 20
-8144.180
 30
-965.000
 70
    32
  0
VERTEX
  8
6200LEVEL
 62
5
 10
6505.353
 20
-8062.635
 30
-965.000
 70
    32
  0
VERTEX
  8
6200LEVEL
 62
5
 10
6488.490
 20
-8030.879
 30
-965.000
 70
    32
  0
VERTEX
  8
6200LEVEL
 62
5
 10
6506.618
 20
-8060.094
 30
-965.000
 70
    32
  0
VERTEX
  8
6200LEVEL
 62
5
 10
6523.188
 20
-8082.199
 30
-965.000
 70
    32
  0
VERTEX
  8
6200LEVEL
 62
5
 10
6513.816
 20
-8056.518
 30
-965.000
 70
    32
  0
VERTEX
  8
6200LEVEL
 62
5
 10
6511.089
 20
-8050.354
 30
-965.000
 70
    32
  0
SEQEND
  8
6200LEVEL
  0
POLYLINE
  8
6200LEVEL
 62
13
 66
     1
 70
     9
  0
VERTEX
  8
6200LEVEL
 62
13
 10
6999.306
 20
-9077.074
 30
-965.000
 70
    32
  0
VERTEX
  8
6200LEVEL
 62
13
 10
7017.706
 20
-9037.634
 30
-965.000
 70
    32
  0
VERTEX
  8
6200LEVEL
 62
13
 10
7024.563
 20
-8993.073
 30
-965.000
 70
    32
  0
VERTEX
  8
6200LEVEL
 62
13
 10
7032.575
 20
-8955.506
 30
-965.000
 70
    32
  0
VERTEX
  8
6200LEVEL
 62
13
 10
7051.113
 20
-8917.092
 30
-965.000
 70
    32
  0
VERTEX
  8
6200LEVEL
 62
13
 10
7052.298
 20
-8911.552
 30
-965.000
 70
    32
  0
VERTEX
  8
6200LEVEL
 62
13
 10
7056.663
 20
-8913.583
 30
-965.000
 70
    32
  0
VERTEX
  8
6200LEVEL
 62
13
 10
7064.604
 20
-8916.496
 30
-965.000
 70
    32
  0
VERTEX
  8
6200LEVEL
 62
13
 10
7076.910
 20
-8917.732
 30
-965.000
 70
    32
  0
VERTEX
  8
6200LEVEL
 62
13
 10
7094.755
 20
-8918.350
 30
-965.000
 70
    32
  0
VERTEX
  8
6200LEVEL
 62
13
 10
7114.445
 20
-8912.788
 30
-965.000
 70
    32
  0
VERTEX
  8
6200LEVEL
 62
13
 10
7134.136
 20
-8889.922
 30
-965.000
 70
    32
  0
VERTEX
  8
6200LEVEL
 62
13
 10
7143.981
 20
-8867.674
 30
-965.000
 70
    32
  0
VERTEX
  8
6200LEVEL
 62
13
 10
7142.750
 20
-8850.370
 30
-965.000
 70
    32
  0
VERTEX
  8
6200LEVEL
 62
13
 10
7135.366
 20
-8835.538
 30
-965.000
 70
    32
  0
VERTEX
  8
6200LEVEL
 62
13
 10
7131.674
 20
-8828.122
 30
-965.000
 70
    32
  0
VERTEX
  8
6200LEVEL
 62
13
 10
7111.984
 20
-8815.144
 30
-965.000
 70
    32
  0
VERTEX
  8
6200LEVEL
 62
13
 10
7097.831
 20
-8811.436
 30
-965.000
 70
    32
  0
VERTEX
  8
6200LEVEL
 62
13
 10
7111.369
 20
-8826.268
 30
-965.000
 70
    32
  0
VERTEX
  8
6200LEVEL
 62
13
 10
7114.445
 20
-8839.864
 30
-965.000
 70
    32
  0
VERTEX
  8
6200LEVEL
 62
13
 10
7105.177
 20
-8877.673
 30
-965.000
 70
    32
  0
VERTEX
  8
6200LEVEL
 62
13
 10
7104.600
 20
-8884.978
 30
-965.000
 70
    32
  0
VERTEX
  8
6200LEVEL
 62
13
 10
7095.986
 20
-8891.776
 30
-965.000
 70
    32
  0
VERTEX
  8
6200LEVEL
 62
13
 10
7089.217
 20
-8889.304
 30
-965.000
 70
    32
  0
VERTEX
  8
6200LEVEL
 62
13
 10
7081.218
 20
-8876.326
 30
-965.000
 70
    32
  0
VERTEX
  8
6200LEVEL
 62
13
 10
7041.222
 20
-8875.708
 30
-965.000
 70
    32
  0
VERTEX
  8
6200LEVEL
 62
13
 10
7012.302
 20
-8922.058
 30
-965.000
 70
    32
  0
VERTEX
  8
6200LEVEL
 62
13
 10
7007.994
 20
-8946.779
 30
-965.000
 70
    32
  0
VERTEX
  8
6200LEVEL
 62
13
 10
7007.368
 20
-8975.952
 30
-965.000
 70
    32
  0
VERTEX
  8
6200LEVEL
 62
13
 10
7003.915
 20
-8997.598
 30
-965.000
 70
    32
  0
VERTEX
  8
6200LEVEL
 62
13
 10
6996.608
 20
-9048.141
 30
-965.000
 70
    32
  0
SEQEND
  8
6200LEVEL
  0
POLYLINE
  8
6200LEVEL
 62
5
 66
     1
 70
     9
  0
VERTEX
  8
6200LEVEL
 62
5
 10
7094.102
 20
-9031.610
 30
-965.000
 70
    32
  0
VERTEX
  8
6200LEVEL
 62
5
 10
7088.758
 20
-9023.767
 30
-965.000
 70
    32
  0
VERTEX
  8
6200LEVEL
 62
5
 10
7047.934
 20
-9003.107
 30
-965.000
 70
    32
  0
VERTEX
  8
6200LEVEL
 62
5
 10
7008.360
 20
-8971.317
 30
-965.000
 70
    32
  0
VERTEX
  8
6200LEVEL
 62
5
 10
6970.045
 20
-8961.673
 30
-965.000
 70
    32
  0
VERTEX
  8
6200LEVEL
 62
5
 10
7007.586
 20
-9001.463
 30
-965.000
 70
    32
  0
VERTEX
  8
6200LEVEL
 62
5
 10
7047.647
 20
-9020.718
 30
-965.000
 70
    32
  0
VERTEX
  8
6200LEVEL
 62
5
 10
7085.880
 20
-9033.674
 30
-965.000
 70
    32
  0
SEQEND
  8
6200LEVEL
  0
POLYLINE
  8
6200LEVEL
 62
5
 66
     1
 70
     9
  0
VERTEX
  8
6200LEVEL
 62
5
 10
6775.065
 20
-11240.033
 30
-965.000
 70
    32
  0
VERTEX
  8
6200LEVEL
 62
5
 10
6765.289
 20
-11219.148
 30
-965.000
 70
    32
  0
VERTEX
  8
6200LEVEL
 62
5
 10
6731.497
 20
-11126.078
 30
-965.000
 70
    32
  0
VERTEX
  8
6200LEVEL
 62
5
 10
6713.195
 20
-11081.737
 30
-965.000
 70
    32
  0
VERTEX
  8
6200LEVEL
 62
5
 10
6697.541
 20
-11033.780
 30
-965.000
 70
    32
  0
VERTEX
  8
6200LEVEL
 62
5
 10
6677.071
 20
-10989.438
 30
-965.000
 70
    32
  0
VERTEX
  8
6200LEVEL
 62
5
 10
6676.641
 20
-10982.361
 30
-965.000
 70
    32
  0
VERTEX
  8
6200LEVEL
 62
5
 10
6687.426
 20
-10944.374
 30
-965.000
 70
    32
  0
VERTEX
  8
6200LEVEL
 62
5
 10
6682.610
 20
-10954.495
 30
-965.000
 70
    32
  0
VERTEX
  8
6200LEVEL
 62
5
 10
6686.385
 20
-10934.510
 30
-965.000
 70
    32
  0
VERTEX
  8
6200LEVEL
 62
5
 10
6685.018
 20
-10924.613
 30
-965.000
 70
    32
  0
VERTEX
  8
6200LEVEL
 62
5
 10
6655.637
 20
-10888.465
 30
-965.000
 70
    32
  0
VERTEX
  8
6200LEVEL
 62
5
 10
6650.058
 20
-10833.184
 30
-965.000
 70
    32
  0
VERTEX
  8
6200LEVEL
 62
5
 10
6652.765
 20
-10783.427
 30
-965.000
 70
    32
  0
VERTEX
  8
6200LEVEL
 62
5
 10
6629.136
 20
-10731.700
 30
-965.000
 70
    32
  0
VERTEX
  8
6200LEVEL
 62
5
 10
6622.244
 20
-10712.980
 30
-965.000
 70
    32
  0
VERTEX
  8
6200LEVEL
 62
5
 10
6622.490
 20
-10736.134
 30
-965.000
 70
    32
  0
VERTEX
  8
6200LEVEL
 62
5
 10
6624.459
 20
-10803.625
 30
-965.000
 70
    32
  0
VERTEX
  8
6200LEVEL
 62
5
 10
6629.136
 20
-10848.209
 30
-965.000
 70
    32
  0
VERTEX
  8
6200LEVEL
 62
5
 10
6632.010
 20
-10881.258
 30
-965.000
 70
    32
  0
VERTEX
  8
6200LEVEL
 62
5
 10
6633.074
 20
-10845.500
 30
-965.000
 70
    32
  0
VERTEX
  8
6200LEVEL
 62
5
 10
6629.136
 20
-10800.423
 30
-965.000
 70
    32
  0
VERTEX
  8
6200LEVEL
 62
5
 10
6625.444
 20
-10733.916
 30
-965.000
 70
    32
  0
VERTEX
  8
6200LEVEL
 62
5
 10
6625.444
 20
-10727.512
 30
-965.000
 70
    32
  0
VERTEX
  8
6200LEVEL
 62
5
 10
6627.413
 20
-10732.439
 30
-965.000
 70
    32
  0
VERTEX
  8
6200LEVEL
 62
5
 10
6646.612
 20
-10787.368
 30
-965.000
 70
    32
  0
VERTEX
  8
6200LEVEL
 62
5
 10
6642.181
 20
-10839.095
 30
-965.000
 70
    32
  0
VERTEX
  8
6200LEVEL
 62
5
 10
6646.004
 20
-10895.453
 30
-965.000
 70
    32
  0
VERTEX
  8
6200LEVEL
 62
5
 10
6680.442
 20
-10928.469
 30
-965.000
 70
    32
  0
VERTEX
  8
6200LEVEL
 62
5
 10
6680.040
 20
-10935.870
 30
-965.000
 70
    32
  0
VERTEX
  8
6200LEVEL
 62
5
 10
6675.055
 20
-10955.374
 30
-965.000
 70
    32
  0
VERTEX
  8
6200LEVEL
 62
5
 10
6667.123
 20
-10986.669
 30
-965.000
 70
    32
  0
VERTEX
  8
6200LEVEL
 62
5
 10
6667.919
 20
-10996.909
 30
-965.000
 70
    32
  0
VERTEX
  8
6200LEVEL
 62
5
 10
6683.092
 20
-11044.625
 30
-965.000
 70
    32
  0
VERTEX
  8
6200LEVEL
 62
5
 10
6695.855
 20
-11094.027
 30
-965.000
 70
    32
  0
VERTEX
  8
6200LEVEL
 62
5
 10
6714.399
 20
-11138.369
 30
-965.000
 70
    32
  0
VERTEX
  8
6200LEVEL
 62
5
 10
6744.735
 20
-11235.000
 30
-965.000
 70
    32
  0
VERTEX
  8
6200LEVEL
 62
5
 10
6753.257
 20
-11262.930
 30
-965.000
 70
    32
  0
VERTEX
  8
6200LEVEL
 62
5
 10
6754.010
 20
-11250.601
 30
-965.000
 70
    32
  0
VERTEX
  8
6200LEVEL
 62
5
 10
6749.748
 20
-11229.968
 30
-965.000
 70
    32
  0
VERTEX
  8
6200LEVEL
 62
5
 10
6747.994
 20
-11224.684
 30
-965.000
 70
    32
  0
VERTEX
  8
6200LEVEL
 62
5
 10
6750.751
 20
-11229.968
 30
-965.000
 70
    32
  0
VERTEX
  8
6200LEVEL
 62
5
 10
6757.268
 20
-11251.104
 30
-965.000
 70
    32
  0
VERTEX
  8
6200LEVEL
 62
5
 10
6766.614
 20
-11264.443
 30
-965.000
 70
    32
  0
VERTEX
  8
6200LEVEL
 62
5
 10
6753.257
 20
-11228.710
 30
-965.000
 70
    32
  0
VERTEX
  8
6200LEVEL
 62
5
 10
6722.828
 20
-11132.344
 30
-965.000
 70
    32
  0
VERTEX
  8
6200LEVEL
 62
5
 10
6703.562
 20
-11088.002
 30
-965.000
 70
    32
  0
VERTEX
  8
6200LEVEL
 62
5
 10
6692.002
 20
-11037.636
 30
-965.000
 70
    32
  0
VERTEX
  8
6200LEVEL
 62
5
 10
6671.301
 20
-10993.714
 30
-965.000
 70
    32
  0
VERTEX
  8
6200LEVEL
 62
5
 10
6672.736
 20
-10986.547
 30
-965.000
 70
    32
  0
VERTEX
  8
6200LEVEL
 62
5
 10
6673.001
 20
-10992.239
 30
-965.000
 70
    32
  0
VERTEX
  8
6200LEVEL
 62
5
 10
6692.484
 20
-11037.395
 30
-965.000
 70
    32
  0
VERTEX
  8
6200LEVEL
 62
5
 10
6707.415
 20
-11085.351
 30
-965.000
 70
    32
  0
VERTEX
  8
6200LEVEL
 62
5
 10
6726.440
 20
-11129.934
 30
-965.000
 70
    32
  0
VERTEX
  8
6200LEVEL
 62
5
 10
6760.777
 20
-11223.426
 30
-965.000
 70
    32
  0
VERTEX
  8
6200LEVEL
 62
5
 10
6769.368
 20
-11242.433
 30
-965.000
 70
    32
  0
SEQEND
  8
6200LEVEL
  0
POLYLINE
  8
6200LEVEL
 62
5
 66
     1
 70
     9
  0
VERTEX
  8
6200LEVEL
 62
5
 10
6703.739
 20
-11291.743
 30
-965.000
 70
    32
  0
VERTEX
  8
6200LEVEL
 62
5
 10
6698.745
 20
-11267.779
 30
-965.000
 70
    32
  0
VERTEX
  8
6200LEVEL
 62
5
 10
6672.977
 20
-11168.974
 30
-965.000
 70
    32
  0
VERTEX
  8
6200LEVEL
 62
5
 10
6657.082
 20
-11121.981
 30
-965.000
 70
    32
  0
VERTEX
  8
6200LEVEL
 62
5
 10
6647.690
 20
-11069.928
 30
-965.000
 70
    32
  0
VERTEX
  8
6200LEVEL
 62
5
 10
6621.440
 20
-11029.683
 30
-965.000
 70
    32
  0
VERTEX
  8
6200LEVEL
 62
5
 10
6598.562
 20
-10987.992
 30
-965.000
 70
    32
  0
VERTEX
  8
6200LEVEL
 62
5
 10
6581.640
 20
-10974.777
 30
-965.000
 70
    32
  0
VERTEX
  8
6200LEVEL
 62
5
 10
6589.158
 20
-10994.813
 30
-965.000
 70
    32
  0
VERTEX
  8
6200LEVEL
 62
5
 10
6609.399
 20
-11038.359
 30
-965.000
 70
    32
  0
VERTEX
  8
6200LEVEL
 62
5
 10
6631.314
 20
-11081.978
 30
-965.000
 70
    32
  0
VERTEX
  8
6200LEVEL
 62
5
 10
6646.727
 20
-11129.452
 30
-965.000
 70
    32
  0
VERTEX
  8
6200LEVEL
 62
5
 10
6661.417
 20
-11176.927
 30
-965.000
 70
    32
  0
VERTEX
  8
6200LEVEL
 62
5
 10
6688.149
 20
-11275.732
 30
-965.000
 70
    32
  0
VERTEX
  8
6200LEVEL
 62
5
 10
6696.096
 20
-11292.600
 30
-965.000
 70
    32
  0
SEQEND
  8
6200LEVEL
  0
POLYLINE
  8
6200LEVEL
 62
5
 66
     1
 70
     9
  0
VERTEX
  8
6200LEVEL
 62
5
 10
6529.941
 20
-10323.054
 30
-965.000
 70
    32
  0
VERTEX
  8
6200LEVEL
 62
5
 10
6558.985
 20
-10371.333
 30
-965.000
 70
    32
  0
VERTEX
  8
6200LEVEL
 62
5
 10
6584.338
 20
-10411.237
 30
-965.000
 70
    32
  0
VERTEX
  8
6200LEVEL
 62
5
 10
6632.090
 20
-10495.479
 30
-965.000
 70
    32
  0
VERTEX
  8
6200LEVEL
 62
5
 10
6675.903
 20
-10580.213
 30
-965.000
 70
    32
  0
VERTEX
  8
6200LEVEL
 62
5
 10
6697.811
 20
-10623.812
 30
-965.000
 70
    32
  0
VERTEX
  8
6200LEVEL
 62
5
 10
6733.009
 20
-10656.326
 30
-965.000
 70
    32
  0
VERTEX
  8
6200LEVEL
 62
5
 10
6762.793
 20
-10704.112
 30
-965.000
 70
    32
  0
VERTEX
  8
6200LEVEL
 62
5
 10
6776.823
 20
-10741.306
 30
-965.000
 70
    32
  0
VERTEX
  8
6200LEVEL
 62
5
 10
6787.406
 20
-10792.541
 30
-965.000
 70
    32
  0
VERTEX
  8
6200LEVEL
 62
5
 10
6790.221
 20
-10848.357
 30
-965.000
 70
    32
  0
VERTEX
  8
6200LEVEL
 62
5
 10
6789.704
 20
-10868.328
 30
-965.000
 70
    32
  0
VERTEX
  8
6200LEVEL
 62
5
 10
6781.907
 20
-10868.248
 30
-965.000
 70
    32
  0
VERTEX
  8
6200LEVEL
 62
5
 10
6780.684
 20
-10855.233
 30
-965.000
 70
    32
  0
VERTEX
  8
6200LEVEL
 62
5
 10
6779.284
 20
-10798.453
 30
-965.000
 70
    32
  0
VERTEX
  8
6200LEVEL
 62
5
 10
6768.453
 20
-10747.218
 30
-965.000
 70
    32
  0
VERTEX
  8
6200LEVEL
 62
5
 10
6756.885
 20
-10708.299
 30
-965.000
 70
    32
  0
VERTEX
  8
6200LEVEL
 62
5
 10
6727.102
 20
-10660.267
 30
-965.000
 70
    32
  0
VERTEX
  8
6200LEVEL
 62
5
 10
6690.919
 20
-10628.492
 30
-965.000
 70
    32
  0
VERTEX
  8
6200LEVEL
 62
5
 10
6669.504
 20
-10584.646
 30
-965.000
 70
    32
  0
VERTEX
  8
6200LEVEL
 62
5
 10
6625.690
 20
-10500.159
 30
-965.000
 70
    32
  0
VERTEX
  8
6200LEVEL
 62
5
 10
6576.954
 20
-10416.902
 30
-965.000
 70
    32
  0
VERTEX
  8
6200LEVEL
 62
5
 10
6549.386
 20
-10377.984
 30
-965.000
 70
    32
  0
VERTEX
  8
6200LEVEL
 62
5
 10
6527.649
 20
-10341.717
 30
-965.000
 70
    32
  0
SEQEND
  8
6200LEVEL
  0
POLYLINE
  8
6200LEVEL
 62
5
 66
     1
 70
     9
  0
VERTEX
  8
6200LEVEL
 62
5
 10
6530.456
 20
-10415.819
 30
-965.000
 70
    32
  0
VERTEX
  8
6200LEVEL
 62
5
 10
6547.851
 20
-10438.550
 30
-965.000
 70
    32
  0
VERTEX
  8
6200LEVEL
 62
5
 10
6602.911
 20
-10516.838
 30
-965.000
 70
    32
  0
VERTEX
  8
6200LEVEL
 62
5
 10
6651.748
 20
-10597.319
 30
-965.000
 70
    32
  0
VERTEX
  8
6200LEVEL
 62
5
 10
6665.699
 20
-10646.518
 30
-965.000
 70
    32
  0
VERTEX
  8
6200LEVEL
 62
5
 10
6666.042
 20
-10649.268
 30
-965.000
 70
    32
  0
VERTEX
  8
6200LEVEL
 62
5
 10
6664.667
 20
-10647.205
 30
-965.000
 70
    32
  0
VERTEX
  8
6200LEVEL
 62
5
 10
6646.793
 20
-10600.816
 30
-965.000
 70
    32
  0
VERTEX
  8
6200LEVEL
 62
5
 10
6639.473
 20
-10592.017
 30
-965.000
 70
    32
  0
VERTEX
  8
6200LEVEL
 62
5
 10
6633.673
 20
-10586.038
 30
-965.000
 70
    32
  0
VERTEX
  8
6200LEVEL
 62
5
 10
6641.275
 20
-10605.047
 30
-965.000
 70
    32
  0
VERTEX
  8
6200LEVEL
 62
5
 10
6660.196
 20
-10650.300
 30
-965.000
 70
    32
  0
VERTEX
  8
6200LEVEL
 62
5
 10
6668.622
 20
-10664.224
 30
-965.000
 70
    32
  0
VERTEX
  8
6200LEVEL
 62
5
 10
6666.042
 20
-10675.570
 30
-965.000
 70
    32
  0
VERTEX
  8
6200LEVEL
 62
5
 10
6652.285
 20
-10656.488
 30
-965.000
 70
    32
  0
VERTEX
  8
6200LEVEL
 62
5
 10
6637.840
 20
-10607.359
 30
-965.000
 70
    32
  0
VERTEX
  8
6200LEVEL
 62
5
 10
6591.000
 20
-10525.387
 30
-965.000
 70
    32
  0
VERTEX
  8
6200LEVEL
 62
5
 10
6537.962
 20
-10445.074
 30
-965.000
 70
    32
  0
VERTEX
  8
6200LEVEL
 62
5
 10
6530.334
 20
-10427.654
 30
-965.000
 70
    32
  0
VERTEX
  8
6200LEVEL
 62
5
 10
6541.926
 20
-10442.441
 30
-965.000
 70
    32
  0
VERTEX
  8
6200LEVEL
 62
5
 10
6546.796
 20
-10449.460
 30
-965.000
 70
    32
  0
VERTEX
  8
6200LEVEL
 62
5
 10
6542.794
 20
-10441.705
 30
-965.000
 70
    32
  0
SEQEND
  8
6200LEVEL
  0
POLYLINE
  8
6200LEVEL
 62
13
 66
     1
 70
     8
  0
VERTEX
  8
6200LEVEL
 62
13
 10
6574.007
 20
-9923.082
 30
-965.000
 70
    32
  0
VERTEX
  8
6200LEVEL
 62
13
 10
6576.706
 20
-9952.016
 30
-965.000
 70
    32
  0
VERTEX
  8
6200LEVEL
 62
13
 10
6594.862
 20
-9983.668
 30
-965.000
 70
    32
  0
VERTEX
  8
6200LEVEL
 62
13
 10
6627.122
 20
-10005.967
 30
-965.000
 70
    32
  0
VERTEX
  8
6200LEVEL
 62
13
 10
6640.022
 20
-9988.350
 30
-965.000
 70
    32
  0
VERTEX
  8
6200LEVEL
 62
13
 10
6671.032
 20
-10031.133
 30
-965.000
 70
    32
  0
VERTEX
  8
6200LEVEL
 62
13
 10
6692.345
 20
-10080.945
 30
-965.000
 70
    32
  0
VERTEX
  8
6200LEVEL
 62
13
 10
6729.854
 20
-10157.304
 30
-965.000
 70
    32
  0
VERTEX
  8
6200LEVEL
 62
13
 10
6755.337
 20
-10206.268
 30
-965.000
 70
    32
  0
VERTEX
  8
6200LEVEL
 62
13
 10
6780.976
 20
-10271.653
 30
-965.000
 70
    32
  0
VERTEX
  8
6200LEVEL
 62
13
 10
6786.975
 20
-10309.941
 30
-965.000
 70
    32
  0
VERTEX
  8
6200LEVEL
 62
13
 10
6753.197
 20
-10281.346
 30
-965.000
 70
    32
  0
VERTEX
  8
6200LEVEL
 62
13
 10
6749.780
 20
-10296.440
 30
-965.000
 70
    32
  0
VERTEX
  8
6200LEVEL
 62
13
 10
6728.699
 20
-10279.960
 30
-965.000
 70
    32
  0
VERTEX
  8
6200LEVEL
 62
13
 10
6701.894
 20
-10247.181
 30
-965.000
 70
    32
  0
VERTEX
  8
6200LEVEL
 62
13
 10
6684.601
 20
-10210.117
 30
-965.000
 70
    32
  0
VERTEX
  8
6200LEVEL
 62
13
 10
6642.867
 20
-10168.146
 30
-965.000
 70
    32
  0
VERTEX
  8
6200LEVEL
 62
13
 10
6605.370
 20
-10117.013
 30
-965.000
 70
    32
  0
VERTEX
  8
6200LEVEL
 62
13
 10
6570.254
 20
-10066.764
 30
-965.000
 70
    32
  0
VERTEX
  8
6200LEVEL
 62
13
 10
6550.698
 20
-10051.789
 30
-965.000
 70
    32
  0
VERTEX
  8
6200LEVEL
 62
13
 10
6564.226
 20
-10095.062
 30
-965.000
 70
    32
  0
VERTEX
  8
6200LEVEL
 62
13
 10
6532.928
 20
-10069.890
 30
-965.000
 70
    32
  0
VERTEX
  8
6200LEVEL
 62
13
 10
6554.000
 20
-10108.565
 30
-965.000
 70
    32
  0
VERTEX
  8
6200LEVEL
 62
13
 10
6551.452
 20
-10130.860
 30
-965.000
 70
    32
  0
VERTEX
  8
6200LEVEL
 62
13
 10
6526.259
 20
-10159.127
 30
-965.000
 70
    32
  0
VERTEX
  8
6200LEVEL
 62
13
 10
6547.728
 20
-10207.955
 30
-965.000
 70
    32
  0
VERTEX
  8
6200LEVEL
 62
13
 10
6558.061
 20
-10257.024
 30
-965.000
 70
    32
  0
VERTEX
  8
6200LEVEL
 62
13
 10
6585.049
 20
-10304.463
 30
-965.000
 70
    32
  0
VERTEX
  8
6200LEVEL
 62
13
 10
6627.198
 20
-10329.601
 30
-965.000
 70
    32
  0
VERTEX
  8
6200LEVEL
 62
13
 10
6661.076
 20
-10360.734
 30
-965.000
 70
    32
  0
VERTEX
  8
6200LEVEL
 62
13
 10
6667.559
 20
-10403.892
 30
-965.000
 70
    32
  0
VERTEX
  8
6200LEVEL
 62
13
 10
6684.153
 20
-10440.592
 30
-965.000
 70
    32
  0
VERTEX
  8
6200LEVEL
 62
13
 10
6723.940
 20
-10485.280
 30
-965.000
 70
    32
  0
VERTEX
  8
6200LEVEL
 62
13
 10
6753.052
 20
-10524.208
 30
-965.000
 70
    32
  0
VERTEX
  8
6200LEVEL
 62
13
 10
6750.851
 20
-10531.575
 30
-965.000
 70
    32
  0
VERTEX
  8
6200LEVEL
 62
13
 10
6754.764
 20
-10581.426
 30
-965.000
 70
    32
  0
VERTEX
  8
6200LEVEL
 62
13
 10
6776.027
 20
-10624.308
 30
-965.000
 70
    32
  0
VERTEX
  8
6200LEVEL
 62
13
 10
6765.868
 20
-10696.787
 30
-965.000
 70
    32
  0
VERTEX
  8
6200LEVEL
 62
13
 10
6743.423
 20
-10690.431
 30
-965.000
 70
    32
  0
VERTEX
  8
6200LEVEL
 62
13
 10
6746.786
 20
-10714.962
 30
-965.000
 70
    32
  0
VERTEX
  8
6200LEVEL
 62
13
 10
6761.343
 20
-10752.003
 30
-965.000
 70
    32
  0
VERTEX
  8
6200LEVEL
 62
13
 10
6757.546
 20
-10767.366
 30
-965.000
 70
    32
  0
VERTEX
  8
6200LEVEL
 62
13
 10
6752.693
 20
-10771.365
 30
-965.000
 70
    32
  0
VERTEX
  8
6200LEVEL
 62
13
 10
6740.457
 20
-10767.577
 30
-965.000
 70
    32
  0
VERTEX
  8
6200LEVEL
 62
13
 10
6737.925
 20
-10760.211
 30
-965.000
 70
    32
  0
VERTEX
  8
6200LEVEL
 62
13
 10
6740.668
 20
-10744.216
 30
-965.000
 70
    32
  0
VERTEX
  8
6200LEVEL
 62
13
 10
6732.862
 20
-10724.853
 30
-965.000
 70
    32
  0
VERTEX
  8
6200LEVEL
 62
13
 10
6710.136
 20
-10672.509
 30
-965.000
 70
    32
  0
VERTEX
  8
6200LEVEL
 62
13
 10
6700.704
 20
-10657.461
 30
-965.000
 70
    32
  0
VERTEX
  8
6200LEVEL
 62
13
 10
6708.615
 20
-10673.725
 30
-965.000
 70
    32
  0
VERTEX
  8
6200LEVEL
 62
13
 10
6731.385
 20
-10726.116
 30
-965.000
 70
    32
  0
VERTEX
  8
6200LEVEL
 62
13
 10
6736.660
 20
-10744.847
 30
-965.000
 70
    32
  0
VERTEX
  8
6200LEVEL
 62
13
 10
6733.495
 20
-10761.263
 30
-965.000
 70
    32
  0
VERTEX
  8
6200LEVEL
 62
13
 10
6734.339
 20
-10771.576
 30
-965.000
 70
    32
  0
VERTEX
  8
6200LEVEL
 62
13
 10
6740.879
 20
-10779.363
 30
-965.000
 70
    32
  0
VERTEX
  8
6200LEVEL
 62
13
 10
6732.651
 20
-10773.049
 30
-965.000
 70
    32
  0
VERTEX
  8
6200LEVEL
 62
13
 10
6727.588
 20
-10761.053
 30
-965.000
 70
    32
  0
VERTEX
  8
6200LEVEL
 62
13
 10
6718.094
 20
-10735.376
 30
-965.000
 70
    32
  0
VERTEX
  8
6200LEVEL
 62
13
 10
6681.079
 20
-10693.637
 30
-965.000
 70
    32
  0
VERTEX
  8
6200LEVEL
 62
13
 10
6645.024
 20
-10661.870
 30
-965.000
 70
    32
  0
VERTEX
  8
6200LEVEL
 62
13
 10
6632.549
 20
-10649.862
 30
-965.000
 70
    32
  0
VERTEX
  8
6200LEVEL
 62
13
 10
6641.068
 20
-10664.454
 30
-965.000
 70
    32
  0
VERTEX
  8
6200LEVEL
 62
13
 10
6678.340
 20
-10695.613
 30
-965.000
 70
    32
  0
VERTEX
  8
6200LEVEL
 62
13
 10
6713.241
 20
-10738.954
 30
-965.000
 70
    32
  0
VERTEX
  8
6200LEVEL
 62
13
 10
6730.330
 20
-10774.943
 30
-965.000
 70
    32
  0
VERTEX
  8
6200LEVEL
 62
13
 10
6735.542
 20
-10784.531
 30
-965.000
 70
    32
  0
VERTEX
  8
6200LEVEL
 62
13
 10
6728.544
 20
-10776.476
 30
-965.000
 70
    32
  0
VERTEX
  8
6200LEVEL
 62
13
 10
6706.333
 20
-10744.252
 30
-965.000
 70
    32
  0
VERTEX
  8
6200LEVEL
 62
13
 10
6663.584
 20
-10701.693
 30
-965.000
 70
    32
  0
VERTEX
  8
6200LEVEL
 62
13
 10
6619.009
 20
-10680.565
 30
-965.000
 70
    32
  0
VERTEX
  8
6200LEVEL
 62
13
 10
6617.122
 20
-10623.118
 30
-965.000
 70
    32
  0
VERTEX
  8
6200LEVEL
 62
13
 10
6581.813
 20
-10531.436
 30
-965.000
 70
    32
  0
VERTEX
  8
6200LEVEL
 62
13
 10
6573.317
 20
-10513.967
 30
-965.000
 70
    32
  0
VERTEX
  8
6200LEVEL
 62
13
 10
6544.313
 20
-10512.367
 30
-965.000
 70
    32
  0
VERTEX
  8
6200LEVEL
 62
13
 10
6549.715
 20
-10555.563
 30
-965.000
 70
    32
  0
VERTEX
  8
6200LEVEL
 62
13
 10
6582.883
 20
-10647.244
 30
-965.000
 70
    32
  0
VERTEX
  8
6200LEVEL
 62
13
 10
6579.674
 20
-10686.919
 30
-965.000
 70
    32
  0
VERTEX
  8
6200LEVEL
 62
13
 10
6558.542
 20
-10687.992
 30
-965.000
 70
    32
  0
VERTEX
  8
6200LEVEL
 62
13
 10
6547.576
 20
-10673.516
 30
-965.000
 70
    32
  0
VERTEX
  8
6200LEVEL
 62
13
 10
6527.247
 20
-10571.111
 30
-965.000
 70
    32
  0
VERTEX
  8
6200LEVEL
 62
13
 10
6526.725
 20
-10497.706
 30
-965.000
 70
    32
  0
VERTEX
  8
6200LEVEL
 62
13
 10
6519.222
 20
-10466.293
 30
-965.000
 70
    32
  0
VERTEX
  8
6200LEVEL
 62
13
 10
6507.803
 20
-10491.408
 30
-965.000
 70
    32
  0
VERTEX
  8
6200LEVEL
 62
13
 10
6505.892
 20
-10552.397
 30
-965.000
 70
    32
  0
VERTEX
  8
6200LEVEL
 62
13
 10
6507.198
 20
-10585.980
 30
-965.000
 70
    32
  0
VERTEX
  8
6200LEVEL
 62
13
 10
6498.075
 20
-10708.953
 30
-965.000
 70
    32
  0
VERTEX
  8
6200LEVEL
 62
13
 10
6499.841
 20
-10750.238
 30
-965.000
 70
    32
  0
VERTEX
  8
6200LEVEL
 62
13
 10
6486.599
 20
-10694.503
 30
-965.000
 70
    32
  0
VERTEX
  8
6200LEVEL
 62
13
 10
6491.896
 20
-10610.457
 30
-965.000
 70
    32
  0
VERTEX
  8
6200LEVEL
 62
13
 10
6490.424
 20
-10598.661
 30
-965.000
 70
    32
  0
VERTEX
  8
6200LEVEL
 62
13
 10
6489.673
 20
-10540.224
 30
-965.000
 70
    32
  0
VERTEX
  8
6200LEVEL
 62
13
 10
6463.201
 20
-10525.911
 30
-965.000
 70
    32
  0
VERTEX
  8
6200LEVEL
 62
13
 10
6464.836
 20
-10572.584
 30
-965.000
 70
    32
  0
VERTEX
  8
6200LEVEL
 62
13
 10
6440.318
 20
-10550.763
 30
-965.000
 70
    32
  0
VERTEX
  8
6200LEVEL
 62
13
 10
6410.715
 20
-10551.337
 30
-965.000
 70
    32
  0
VERTEX
  8
6200LEVEL
 62
13
 10
6410.868
 20
-10585.162
 30
-965.000
 70
    32
  0
VERTEX
  8
6200LEVEL
 62
13
 10
6410.471
 20
-10622.430
 30
-965.000
 70
    32
  0
VERTEX
  8
6200LEVEL
 62
13
 10
6371.455
 20
-10629.826
 30
-965.000
 70
    32
  0
VERTEX
  8
6200LEVEL
 62
13
 10
6375.365
 20
-10680.937
 30
-965.000
 70
    32
  0
VERTEX
  8
6200LEVEL
 62
13
 10
6378.608
 20
-10739.934
 30
-965.000
 70
    32
  0
VERTEX
  8
6200LEVEL
 62
13
 10
6390.373
 20
-10787.101
 30
-965.000
 70
    32
  0
VERTEX
  8
6200LEVEL
 62
13
 10
6396.256
 20
-10840.576
 30
-965.000
 70
    32
  0
VERTEX
  8
6200LEVEL
 62
13
 10
6424.028
 20
-10905.839
 30
-965.000
 70
    32
  0
VERTEX
  8
6200LEVEL
 62
13
 10
6412.765
 20
-10947.156
 30
-965.000
 70
    32
  0
VERTEX
  8
6200LEVEL
 62
13
 10
6435.764
 20
-10989.197
 30
-965.000
 70
    32
  0
VERTEX
  8
6200LEVEL
 62
13
 10
6469.721
 20
-11081.978
 30
-965.000
 70
    32
  0
VERTEX
  8
6200LEVEL
 62
13
 10
6471.165
 20
-11139.333
 30
-965.000
 70
    32
  0
VERTEX
  8
6200LEVEL
 62
13
 10
6474.537
 20
-11166.805
 30
-965.000
 70
    32
  0
VERTEX
  8
6200LEVEL
 62
13
 10
6477.668
 20
-11193.555
 30
-965.000
 70
    32
  0
VERTEX
  8
6200LEVEL
 62
13
 10
6483.929
 20
-11214.280
 30
-965.000
 70
    32
  0
VERTEX
  8
6200LEVEL
 62
13
 10
6472.610
 20
-11210.665
 30
-965.000
 70
    32
  0
VERTEX
  8
6200LEVEL
 62
13
 10
6463.700
 20
-11203.435
 30
-965.000
 70
    32
  0
VERTEX
  8
6200LEVEL
 62
13
 10
6422.278
 20
-11175.240
 30
-965.000
 70
    32
  0
VERTEX
  8
6200LEVEL
 62
13
 10
6397.988
 20
-11154.427
 30
-965.000
 70
    32
  0
VERTEX
  8
6200LEVEL
 62
13
 10
6388.322
 20
-11141.261
 30
-965.000
 70
    32
  0
VERTEX
  8
6200LEVEL
 62
13
 10
6364.721
 20
-11082.219
 30
-965.000
 70
    32
  0
VERTEX
  8
6200LEVEL
 62
13
 10
6352.198
 20
-11049.686
 30
-965.000
 70
    32
  0
VERTEX
  8
6200LEVEL
 62
13
 10
6324.503
 20
-10953.049
 30
-965.000
 70
    32
  0
VERTEX
  8
6200LEVEL
 62
13
 10
6305.718
 20
-10906.538
 30
-965.000
 70
    32
  0
VERTEX
  8
6200LEVEL
 62
13
 10
6290.306
 20
-10859.787
 30
-965.000
 70
    32
  0
VERTEX
  8
6200LEVEL
 62
13
 10
6274.139
 20
-10816.091
 30
-965.000
 70
    32
  0
VERTEX
  8
6200LEVEL
 62
13
 10
6256.609
 20
-10767.656
 30
-965.000
 70
    32
  0
VERTEX
  8
6200LEVEL
 62
13
 10
6211.954
 20
-10682.190
 30
-965.000
 70
    32
  0
VERTEX
  8
6200LEVEL
 62
13
 10
6197.907
 20
-10630.103
 30
-965.000
 70
    32
  0
VERTEX
  8
6200LEVEL
 62
13
 10
6179.668
 20
-10589.149
 30
-965.000
 70
    32
  0
VERTEX
  8
6200LEVEL
 62
13
 10
6124.949
 20
-10509.340
 30
-965.000
 70
    32
  0
VERTEX
  8
6200LEVEL
 62
13
 10
6115.934
 20
-10495.268
 30
-965.000
 70
    32
  0
VERTEX
  8
6200LEVEL
 62
13
 10
6123.272
 20
-10511.020
 30
-965.000
 70
    32
  0
VERTEX
  8
6200LEVEL
 62
13
 10
6172.749
 20
-10593.349
 30
-965.000
 70
    32
  0
VERTEX
  8
6200LEVEL
 62
13
 10
6184.280
 20
-10623.593
 30
-965.000
 70
    32
  0
VERTEX
  8
6200LEVEL
 62
13
 10
6171.911
 20
-10616.872
 30
-965.000
 70
    32
  0
VERTEX
  8
6200LEVEL
 62
13
 10
6160.380
 20
-10602.590
 30
-965.000
 70
    32
  0
VERTEX
  8
6200LEVEL
 62
13
 10
6113.627
 20
-10517.741
 30
-965.000
 70
    32
  0
VERTEX
  8
6200LEVEL
 62
13
 10
6095.211
 20
-10471.994
 30
-965.000
 70
    32
  0
VERTEX
  8
6200LEVEL
 62
13
 10
6075.052
 20
-10428.690
 30
-965.000
 70
    32
  0
VERTEX
  8
6200LEVEL
 62
13
 10
6028.928
 20
-10346.571
 30
-965.000
 70
    32
  0
VERTEX
  8
6200LEVEL
 62
13
 10
5987.208
 20
-10260.671
 30
-965.000
 70
    32
  0
VERTEX
  8
6200LEVEL
 62
13
 10
5968.104
 20
-10242.610
 30
-965.000
 70
    32
  0
VERTEX
  8
6200LEVEL
 62
13
 10
5909.938
 20
-10196.732
 30
-965.000
 70
    32
  0
VERTEX
  8
6200LEVEL
 62
13
 10
5887.505
 20
-10170.794
 30
-965.000
 70
    32
  0
VERTEX
  8
6200LEVEL
 62
13
 10
5882.591
 20
-10158.599
 30
-965.000
 70
    32
  0
VERTEX
  8
6200LEVEL
 62
13
 10
5880.914
 20
-10151.038
 30
-965.000
 70
    32
  0
VERTEX
  8
6200LEVEL
 62
13
 10
5873.366
 20
-10146.208
 30
-965.000
 70
    32
  0
VERTEX
  8
6200LEVEL
 62
13
 10
5869.802
 20
-10157.969
 30
-965.000
 70
    32
  0
VERTEX
  8
6200LEVEL
 62
13
 10
5869.802
 20
-10167.840
 30
-965.000
 70
    32
  0
VERTEX
  8
6200LEVEL
 62
13
 10
5866.959
 20
-10184.097
 30
-965.000
 70
    32
  0
VERTEX
  8
6200LEVEL
 62
13
 10
5841.601
 20
-10218.139
 30
-965.000
 70
    32
  0
VERTEX
  8
6200LEVEL
 62
13
 10
5839.180
 20
-10248.503
 30
-965.000
 70
    32
  0
VERTEX
  8
6200LEVEL
 62
13
 10
5878.264
 20
-10272.923
 30
-965.000
 70
    32
  0
SEQEND
  8
6200LEVEL
  0
POLYLINE
  8
6200LEVEL
 62
7
 66
     1
 70
     8
  0
VERTEX
  8
6200LEVEL
 62
7
 10
6574.007
 20
-9923.082
 30
-965.000
 70
    32
  0
VERTEX
  8
6200LEVEL
 62
7
 10
6588.520
 20
-9949.108
 30
-965.000
 70
    32
  0
VERTEX
  8
6200LEVEL
 62
7
 10
6615.432
 20
-9979.634
 30
-965.000
 70
    32
  0
VERTEX
  8
6200LEVEL
 62
7
 10
6646.378
 20
-9965.906
 30
-965.000
 70
    32
  0
VERTEX
  8
6200LEVEL
 62
7
 10
6672.198
 20
-9998.528
 30
-965.000
 70
    32
  0
VERTEX
  8
6200LEVEL
 62
7
 10
6700.898
 20
-10044.726
 30
-965.000
 70
    32
  0
VERTEX
  8
6200LEVEL
 62
7
 10
6731.891
 20
-10114.496
 30
-965.000
 70
    32
  0
VERTEX
  8
6200LEVEL
 62
7
 10
6768.994
 20
-10185.493
 30
-965.000
 70
    32
  0
VERTEX
  8
6200LEVEL
 62
7
 10
6784.434
 20
-10215.198
 30
-965.000
 70
    32
  0
VERTEX
  8
6200LEVEL
 62
7
 10
6794.117
 20
-10265.173
 30
-965.000
 70
    32
  0
VERTEX
  8
6200LEVEL
 62
7
 10
6818.571
 20
-10277.903
 30
-965.000
 70
    32
  0
VERTEX
  8
6200LEVEL
 62
7
 10
6859.379
 20
-10316.195
 30
-965.000
 70
    32
  0
VERTEX
  8
6200LEVEL
 62
7
 10
6859.463
 20
-10331.989
 30
-965.000
 70
    32
  0
VERTEX
  8
6200LEVEL
 62
7
 10
6896.600
 20
-10410.165
 30
-965.000
 70
    32
  0
VERTEX
  8
6200LEVEL
 62
7
 10
6921.471
 20
-10453.482
 30
-965.000
 70
    32
  0
VERTEX
  8
6200LEVEL
 62
7
 10
6952.586
 20
-10511.417
 30
-965.000
 70
    32
  0
VERTEX
  8
6200LEVEL
 62
7
 10
6944.543
 20
-10520.727
 30
-965.000
 70
    32
  0
VERTEX
  8
6200LEVEL
 62
7
 10
6960.245
 20
-10564.600
 30
-965.000
 70
    32
  0
VERTEX
  8
6200LEVEL
 62
7
 10
6970.861
 20
-10630.866
 30
-965.000
 70
    32
  0
VERTEX
  8
6200LEVEL
 62
7
 10
6981.685
 20
-10709.857
 30
-965.000
 70
    32
  0
VERTEX
  8
6200LEVEL
 62
7
 10
6981.685
 20
-10712.313
 30
-965.000
 70
    32
  0
VERTEX
  8
6200LEVEL
 62
7
 10
6980.951
 20
-10710.102
 30
-965.000
 70
    32
  0
VERTEX
  8
6200LEVEL
 62
7
 10
6973.860
 20
-10677.688
 30
-965.000
 70
    32
  0
VERTEX
  8
6200LEVEL
 62
7
 10
6961.878
 20
-10619.980
 30
-965.000
 70
    32
  0
VERTEX
  8
6200LEVEL
 62
7
 10
6954.053
 20
-10568.656
 30
-965.000
 70
    32
  0
VERTEX
  8
6200LEVEL
 62
7
 10
6930.896
 20
-10519.307
 30
-965.000
 70
    32
  0
VERTEX
  8
6200LEVEL
 62
7
 10
6917.840
 20
-10473.082
 30
-965.000
 70
    32
  0
VERTEX
  8
6200LEVEL
 62
7
 10
6884.579
 20
-10412.787
 30
-965.000
 70
    32
  0
VERTEX
  8
6200LEVEL
 62
7
 10
6849.834
 20
-10338.154
 30
-965.000
 70
    32
  0
VERTEX
  8
6200LEVEL
 62
7
 10
6821.278
 20
-10302.045
 30
-965.000
 70
    32
  0
VERTEX
  8
6200LEVEL
 62
7
 10
6809.526
 20
-10314.044
 30
-965.000
 70
    32
  0
VERTEX
  8
6200LEVEL
 62
7
 10
6823.353
 20
-10357.992
 30
-965.000
 70
    32
  0
VERTEX
  8
6200LEVEL
 62
7
 10
6845.972
 20
-10420.825
 30
-965.000
 70
    32
  0
VERTEX
  8
6200LEVEL
 62
7
 10
6851.351
 20
-10451.521
 30
-965.000
 70
    32
  0
VERTEX
  8
6200LEVEL
 62
7
 10
6852.085
 20
-10455.449
 30
-965.000
 70
    32
  0
VERTEX
  8
6200LEVEL
 62
7
 10
6849.640
 20
-10453.239
 30
-965.000
 70
    32
  0
VERTEX
  8
6200LEVEL
 62
7
 10
6833.257
 20
-10416.650
 30
-965.000
 70
    32
  0
VERTEX
  8
6200LEVEL
 62
7
 10
6835.946
 20
-10463.308
 30
-965.000
 70
    32
  0
VERTEX
  8
6200LEVEL
 62
7
 10
6836.435
 20
-10465.027
 30
-965.000
 70
    32
  0
VERTEX
  8
6200LEVEL
 62
7
 10
6835.457
 20
-10463.799
 30
-965.000
 70
    32
  0
VERTEX
  8
6200LEVEL
 62
7
 10
6829.100
 20
-10441.452
 30
-965.000
 70
    32
  0
VERTEX
  8
6200LEVEL
 62
7
 10
6819.075
 20
-10360.906
 30
-965.000
 70
    32
  0
VERTEX
  8
6200LEVEL
 62
7
 10
6806.848
 20
-10337.331
 30
-965.000
 70
    32
  0
VERTEX
  8
6200LEVEL
 62
7
 10
6794.378
 20
-10339.542
 30
-965.000
 70
    32
  0
VERTEX
  8
6200LEVEL
 62
7
 10
6805.626
 20
-10370.238
 30
-965.000
 70
    32
  0
VERTEX
  8
6200LEVEL
 62
7
 10
6825.432
 20
-10471.411
 30
-965.000
 70
    32
  0
VERTEX
  8
6200LEVEL
 62
7
 10
6862.355
 20
-10561.780
 30
-965.000
 70
    32
  0
VERTEX
  8
6200LEVEL
 62
7
 10
6866.512
 20
-10570.866
 30
-965.000
 70
    32
  0
VERTEX
  8
6200LEVEL
 62
7
 10
6861.377
 20
-10562.517
 30
-965.000
 70
    32
  0
VERTEX
  8
6200LEVEL
 62
7
 10
6833.256
 20
-10498.915
 30
-965.000
 70
    32
  0
VERTEX
  8
6200LEVEL
 62
7
 10
6819.319
 20
-10475.832
 30
-965.000
 70
    32
  0
VERTEX
  8
6200LEVEL
 62
7
 10
6791.932
 20
-10427.946
 30
-965.000
 70
    32
  0
VERTEX
  8
6200LEVEL
 62
7
 10
6812.472
 20
-10480.252
 30
-965.000
 70
    32
  0
VERTEX
  8
6200LEVEL
 62
7
 10
6853.552
 20
-10568.165
 30
-965.000
 70
    32
  0
VERTEX
  8
6200LEVEL
 62
7
 10
6884.969
 20
-10669.629
 30
-965.000
 70
    32
  0
VERTEX
  8
6200LEVEL
 62
7
 10
6921.531
 20
-10753.322
 30
-965.000
 70
    32
  0
VERTEX
  8
6200LEVEL
 62
7
 10
6937.425
 20
-10791.876
 30
-965.000
 70
    32
  0
VERTEX
  8
6200LEVEL
 62
7
 10
6916.396
 20
-10756.515
 30
-965.000
 70
    32
  0
VERTEX
  8
6200LEVEL
 62
7
 10
6884.852
 20
-10680.389
 30
-965.000
 70
    32
  0
VERTEX
  8
6200LEVEL
 62
7
 10
6865.789
 20
-10614.355
 30
-965.000
 70
    32
  0
VERTEX
  8
6200LEVEL
 62
7
 10
6852.085
 20
-10569.638
 30
-965.000
 70
    32
  0
VERTEX
  8
6200LEVEL
 62
7
 10
6824.938
 20
-10522.581
 30
-965.000
 70
    32
  0
VERTEX
  8
6200LEVEL
 62
7
 10
6806.603
 20
-10484.918
 30
-965.000
 70
    32
  0
VERTEX
  8
6200LEVEL
 62
7
 10
6760.388
 20
-10403.389
 30
-965.000
 70
    32
  0
VERTEX
  8
6200LEVEL
 62
7
 10
6749.157
 20
-10377.814
 30
-965.000
 70
    32
  0
VERTEX
  8
6200LEVEL
 62
7
 10
6708.019
 20
-10303.650
 30
-965.000
 70
    32
  0
VERTEX
  8
6200LEVEL
 62
7
 10
6640.308
 20
-10230.040
 30
-965.000
 70
    32
  0
VERTEX
  8
6200LEVEL
 62
7
 10
6643.776
 20
-10263.637
 30
-965.000
 70
    32
  0
VERTEX
  8
6200LEVEL
 62
7
 10
6699.183
 20
-10322.672
 30
-965.000
 70
    32
  0
VERTEX
  8
6200LEVEL
 62
7
 10
6731.753
 20
-10377.811
 30
-965.000
 70
    32
  0
VERTEX
  8
6200LEVEL
 62
7
 10
6751.991
 20
-10410.904
 30
-965.000
 70
    32
  0
VERTEX
  8
6200LEVEL
 62
7
 10
6741.950
 20
-10400.568
 30
-965.000
 70
    32
  0
VERTEX
  8
6200LEVEL
 62
7
 10
6747.731
 20
-10413.336
 30
-965.000
 70
    32
  0
VERTEX
  8
6200LEVEL
 62
7
 10
6728.129
 20
-10392.620
 30
-965.000
 70
    32
  0
VERTEX
  8
6200LEVEL
 62
7
 10
6700.050
 20
-10347.277
 30
-965.000
 70
    32
  0
VERTEX
  8
6200LEVEL
 62
7
 10
6665.994
 20
-10314.098
 30
-965.000
 70
    32
  0
VERTEX
  8
6200LEVEL
 62
7
 10
6616.902
 20
-10273.979
 30
-965.000
 70
    32
  0
VERTEX
  8
6200LEVEL
 62
7
 10
6585.316
 20
-10218.997
 30
-965.000
 70
    32
  0
VERTEX
  8
6200LEVEL
 62
7
 10
6557.742
 20
-10181.554
 30
-965.000
 70
    32
  0
VERTEX
  8
6200LEVEL
 62
7
 10
6579.539
 20
-10236.236
 30
-965.000
 70
    32
  0
VERTEX
  8
6200LEVEL
 62
7
 10
6605.313
 20
-10297.606
 30
-965.000
 70
    32
  0
VERTEX
  8
6200LEVEL
 62
7
 10
6657.414
 20
-10334.674
 30
-965.000
 70
    32
  0
VERTEX
  8
6200LEVEL
 62
7
 10
6696.282
 20
-10370.891
 30
-965.000
 70
    32
  0
VERTEX
  8
6200LEVEL
 62
7
 10
6719.434
 20
-10406.952
 30
-965.000
 70
    32
  0
VERTEX
  8
6200LEVEL
 62
7
 10
6737.386
 20
-10439.480
 30
-965.000
 70
    32
  0
VERTEX
  8
6200LEVEL
 62
7
 10
6783.862
 20
-10500.879
 30
-965.000
 70
    32
  0
VERTEX
  8
6200LEVEL
 62
7
 10
6803.676
 20
-10586.285
 30
-965.000
 70
    32
  0
VERTEX
  8
6200LEVEL
 62
7
 10
6786.063
 20
-10554.168
 30
-965.000
 70
    32
  0
VERTEX
  8
6200LEVEL
 62
7
 10
6759.654
 20
-10518.560
 30
-965.000
 70
    32
  0
VERTEX
  8
6200LEVEL
 62
7
 10
6755.497
 20
-10509.229
 30
-965.000
 70
    32
  0
VERTEX
  8
6200LEVEL
 62
7
 10
6751.585
 20
-10513.403
 30
-965.000
 70
    32
  0
VERTEX
  8
6200LEVEL
 62
7
 10
6755.253
 20
-10521.998
 30
-965.000
 70
    32
  0
VERTEX
  8
6200LEVEL
 62
7
 10
6768.946
 20
-10571.357
 30
-965.000
 70
    32
  0
VERTEX
  8
6200LEVEL
 62
7
 10
6790.860
 20
-10680.847
 30
-965.000
 70
    32
  0
VERTEX
  8
6200LEVEL
 62
7
 10
6763.988
 20
-10750.492
 30
-965.000
 70
    32
  0
VERTEX
  8
6200LEVEL
 62
7
 10
6764.170
 20
-10774.449
 30
-965.000
 70
    32
  0
VERTEX
  8
6200LEVEL
 62
7
 10
6752.301
 20
-10807.121
 30
-965.000
 70
    32
  0
VERTEX
  8
6200LEVEL
 62
7
 10
6720.115
 20
-10819.138
 30
-965.000
 70
    32
  0
VERTEX
  8
6200LEVEL
 62
7
 10
6701.374
 20
-10795.481
 30
-965.000
 70
    32
  0
VERTEX
  8
6200LEVEL
 62
7
 10
6692.899
 20
-10768.384
 30
-965.000
 70
    32
  0
VERTEX
  8
6200LEVEL
 62
7
 10
6699.817
 20
-10750.318
 30
-965.000
 70
    32
  0
VERTEX
  8
6200LEVEL
 62
7
 10
6663.332
 20
-10706.600
 30
-965.000
 70
    32
  0
VERTEX
  8
6200LEVEL
 62
7
 10
6633.481
 20
-10699.285
 30
-965.000
 70
    32
  0
VERTEX
  8
6200LEVEL
 62
7
 10
6610.365
 20
-10686.483
 30
-965.000
 70
    32
  0
VERTEX
  8
6200LEVEL
 62
7
 10
6606.906
 20
-10682.277
 30
-965.000
 70
    32
  0
VERTEX
  8
6200LEVEL
 62
7
 10
6607.452
 20
-10688.677
 30
-965.000
 70
    32
  0
VERTEX
  8
6200LEVEL
 62
7
 10
6605.814
 20
-10708.977
 30
-965.000
 70
    32
  0
VERTEX
  8
6200LEVEL
 62
7
 10
6593.073
 20
-10757.807
 30
-965.000
 70
    32
  0
VERTEX
  8
6200LEVEL
 62
7
 10
6609.200
 20
-10893.005
 30
-965.000
 70
    32
  0
VERTEX
  8
6200LEVEL
 62
7
 10
6586.027
 20
-10840.626
 30
-965.000
 70
    32
  0
VERTEX
  8
6200LEVEL
 62
7
 10
6590.888
 20
-10758.904
 30
-965.000
 70
    32
  0
VERTEX
  8
6200LEVEL
 62
7
 10
6603.812
 20
-10691.603
 30
-965.000
 70
    32
  0
VERTEX
  8
6200LEVEL
 62
7
 10
6595.075
 20
-10685.385
 30
-965.000
 70
    32
  0
VERTEX
  8
6200LEVEL
 62
7
 10
6585.428
 20
-10682.642
 30
-965.000
 70
    32
  0
VERTEX
  8
6200LEVEL
 62
7
 10
6582.334
 20
-10691.787
 30
-965.000
 70
    32
  0
VERTEX
  8
6200LEVEL
 62
7
 10
6577.419
 20
-10697.639
 30
-965.000
 70
    32
  0
VERTEX
  8
6200LEVEL
 62
7
 10
6574.507
 20
-10712.818
 30
-965.000
 70
    32
  0
VERTEX
  8
6200LEVEL
 62
7
 10
6556.851
 20
-10767.500
 30
-965.000
 70
    32
  0
VERTEX
  8
6200LEVEL
 62
7
 10
6546.294
 20
-10788.714
 30
-965.000
 70
    32
  0
VERTEX
  8
6200LEVEL
 62
7
 10
6592.292
 20
-10827.167
 30
-965.000
 70
    32
  0
VERTEX
  8
6200LEVEL
 62
7
 10
6569.937
 20
-10891.803
 30
-965.000
 70
    32
  0
VERTEX
  8
6200LEVEL
 62
7
 10
6577.565
 20
-10949.000
 30
-965.000
 70
    32
  0
VERTEX
  8
6200LEVEL
 62
7
 10
6557.900
 20
-10983.256
 30
-965.000
 70
    32
  0
VERTEX
  8
6200LEVEL
 62
7
 10
6509.063
 20
-10936.154
 30
-965.000
 70
    32
  0
VERTEX
  8
6200LEVEL
 62
7
 10
6476.046
 20
-10900.742
 30
-965.000
 70
    32
  0
VERTEX
  8
6200LEVEL
 62
7
 10
6457.878
 20
-10855.493
 30
-965.000
 70
    32
  0
VERTEX
  8
6200LEVEL
 62
7
 10
6447.050
 20
-10842.552
 30
-965.000
 70
    32
  0
VERTEX
  8
6200LEVEL
 62
7
 10
6449.221
 20
-10862.104
 30
-965.000
 70
    32
  0
VERTEX
  8
6200LEVEL
 62
7
 10
6449.617
 20
-10865.010
 30
-965.000
 70
    32
  0
VERTEX
  8
6200LEVEL
 62
7
 10
6448.297
 20
-10862.566
 30
-965.000
 70
    32
  0
VERTEX
  8
6200LEVEL
 62
7
 10
6440.052
 20
-10847.834
 30
-965.000
 70
    32
  0
VERTEX
  8
6200LEVEL
 62
7
 10
6441.100
 20
-10867.849
 30
-965.000
 70
    32
  0
VERTEX
  8
6200LEVEL
 62
7
 10
6442.818
 20
-10881.342
 30
-965.000
 70
    32
  0
VERTEX
  8
6200LEVEL
 62
7
 10
6439.515
 20
-10869.235
 30
-965.000
 70
    32
  0
VERTEX
  8
6200LEVEL
 62
7
 10
6420.657
 20
-10823.915
 30
-965.000
 70
    32
  0
VERTEX
  8
6200LEVEL
 62
7
 10
6401.907
 20
-10778.488
 30
-965.000
 70
    32
  0
VERTEX
  8
6200LEVEL
 62
7
 10
6400.914
 20
-10758.366
 30
-965.000
 70
    32
  0
VERTEX
  8
6200LEVEL
 62
7
 10
6410.464
 20
-10739.765
 30
-965.000
 70
    32
  0
VERTEX
  8
6200LEVEL
 62
7
 10
6419.337
 20
-10713.894
 30
-965.000
 70
    32
  0
VERTEX
  8
6200LEVEL
 62
7
 10
6431.322
 20
-10669.133
 30
-965.000
 70
    32
  0
VERTEX
  8
6200LEVEL
 62
7
 10
6436.347
 20
-10645.505
 30
-965.000
 70
    32
  0
VERTEX
  8
6200LEVEL
 62
7
 10
6434.337
 20
-10630.926
 30
-965.000
 70
    32
  0
VERTEX
  8
6200LEVEL
 62
7
 10
6424.285
 20
-10631.177
 30
-965.000
 70
    32
  0
VERTEX
  8
6200LEVEL
 62
7
 10
6412.725
 20
-10635.450
 30
-965.000
 70
    32
  0
VERTEX
  8
6200LEVEL
 62
7
 10
6405.940
 20
-10640.729
 30
-965.000
 70
    32
  0
VERTEX
  8
6200LEVEL
 62
7
 10
6406.945
 20
-10658.073
 30
-965.000
 70
    32
  0
VERTEX
  8
6200LEVEL
 62
7
 10
6406.694
 20
-10678.936
 30
-965.000
 70
    32
  0
VERTEX
  8
6200LEVEL
 62
7
 10
6407.448
 20
-10709.602
 30
-965.000
 70
    32
  0
VERTEX
  8
6200LEVEL
 62
7
 10
6397.145
 20
-10739.765
 30
-965.000
 70
    32
  0
VERTEX
  8
6200LEVEL
 62
7
 10
6392.873
 20
-10758.618
 30
-965.000
 70
    32
  0
VERTEX
  8
6200LEVEL
 62
7
 10
6396.944
 20
-10782.128
 30
-965.000
 70
    32
  0
VERTEX
  8
6200LEVEL
 62
7
 10
6405.886
 20
-10834.387
 30
-965.000
 70
    32
  0
VERTEX
  8
6200LEVEL
 62
7
 10
6420.331
 20
-10882.520
 30
-965.000
 70
    32
  0
VERTEX
  8
6200LEVEL
 62
7
 10
6432.712
 20
-10906.930
 30
-965.000
 70
    32
  0
VERTEX
  8
6200LEVEL
 62
7
 10
6423.082
 20
-10939.248
 30
-965.000
 70
    32
  0
VERTEX
  8
6200LEVEL
 62
7
 10
6447.501
 20
-10981.193
 30
-965.000
 70
    32
  0
VERTEX
  8
6200LEVEL
 62
7
 10
6479.354
 20
-11075.230
 30
-965.000
 70
    32
  0
VERTEX
  8
6200LEVEL
 62
7
 10
6499.101
 20
-11119.090
 30
-965.000
 70
    32
  0
VERTEX
  8
6200LEVEL
 62
7
 10
6505.604
 20
-11173.794
 30
-965.000
 70
    32
  0
VERTEX
  8
6200LEVEL
 62
7
 10
6497.656
 20
-11238.620
 30
-965.000
 70
    32
  0
VERTEX
  8
6200LEVEL
 62
7
 10
6521.498
 20
-11279.106
 30
-965.000
 70
    32
  0
VERTEX
  8
6200LEVEL
 62
7
 10
6558.326
 20
-11398.446
 30
-965.000
 70
    32
  0
SEQEND
  8
6200LEVEL
  0
POLYLINE
  8
6200LEVEL
 62
32
 66
     1
 70
     8
  0
VERTEX
  8
6200LEVEL
 62
32
 10
1036.541
 20
-5513.611
 30
-972.000
 70
    32
  0
VERTEX
  8
6200LEVEL
 62
32
 10
1101.258
 20
-5604.848
 30
-972.000
 70
    32
  0
VERTEX
  8
6200LEVEL
 62
32
 10
1139.235
 20
-5701.158
 30
-972.000
 70
    32
  0
VERTEX
  8
6200LEVEL
 62
32
 10
1167.655
 20
-5766.672
 30
-972.000
 70
    32
  0
VERTEX
  8
6200LEVEL
 62
32
 10
1203.237
 20
-5852.458
 30
-972.000
 70
    32
  0
VERTEX
  8
6200LEVEL
 62
32
 10
1240.796
 20
-5938.254
 30
-972.000
 70
    32
  0
VERTEX
  8
6200LEVEL
 62
32
 10
1270.073
 20
-6020.844
 30
-972.000
 70
    32
  0
VERTEX
  8
6200LEVEL
 62
32
 10
1278.879
 20
-6073.845
 30
-972.000
 70
    32
  0
VERTEX
  8
6200LEVEL
 62
32
 10
1301.982
 20
-6158.062
 30
-972.000
 70
    32
  0
VERTEX
  8
6200LEVEL
 62
32
 10
1310.059
 20
-6229.317
 30
-972.000
 70
    32
  0
VERTEX
  8
6200LEVEL
 62
32
 10
1310.486
 20
-6312.148
 30
-972.000
 70
    32
  0
VERTEX
  8
6200LEVEL
 62
32
 10
1330.244
 20
-6386.547
 30
-972.000
 70
    32
  0
VERTEX
  8
6200LEVEL
 62
32
 10
1339.321
 20
-6477.724
 30
-972.000
 70
    32
  0
VERTEX
  8
6200LEVEL
 62
32
 10
1339.563
 20
-6565.613
 30
-972.000
 70
    32
  0
VERTEX
  8
6200LEVEL
 62
32
 10
1359.511
 20
-6663.487
 30
-972.000
 70
    32
  0
VERTEX
  8
6200LEVEL
 62
32
 10
1379.398
 20
-6757.962
 30
-972.000
 70
    32
  0
VERTEX
  8
6200LEVEL
 62
32
 10
1412.965
 20
-6836.386
 30
-972.000
 70
    32
  0
VERTEX
  8
6200LEVEL
 62
32
 10
1453.423
 20
-6912.160
 30
-972.000
 70
    32
  0
VERTEX
  8
6200LEVEL
 62
32
 10
1479.742
 20
-6986.120
 30
-972.000
 70
    32
  0
VERTEX
  8
6200LEVEL
 62
32
 10
1512.971
 20
-7068.732
 30
-972.000
 70
    32
  0
VERTEX
  8
6200LEVEL
 62
32
 10
1550.048
 20
-7155.869
 30
-972.000
 70
    32
  0
VERTEX
  8
6200LEVEL
 62
32
 10
1589.889
 20
-7243.416
 30
-972.000
 70
    32
  0
VERTEX
  8
6200LEVEL
 62
32
 10
1620.028
 20
-7312.575
 30
-972.000
 70
    32
  0
SEQEND
  8
6200LEVEL
  0
POLYLINE
  8
6200LEVEL
 62
13
 66
     1
 70
     9
  0
VERTEX
  8
6200LEVEL
 62
13
 10
-132.515
 20
-1467.003
 30
-939.000
 70
    32
  0
VERTEX
  8
6200LEVEL
 62
13
 10
-87.922
 20
-1576.223
 30
-939.000
 70
    32
  0
VERTEX
  8
6200LEVEL
 62
13
 10
42.220
 20
-1891.383
 30
-939.000
 70
    32
  0
VERTEX
  8
6200LEVEL
 62
13
 10
293.646
 20
-2498.453
 30
-939.000
 70
    32
  0
VERTEX
  8
6200LEVEL
 62
13
 10
531.570
 20
-3010.414
 30
-939.000
 70
    32
  0
VERTEX
  8
6200LEVEL
 62
13
 10
657.033
 20
-3279.416
 30
-939.000
 70
    32
  0
VERTEX
  8
6200LEVEL
 62
13
 10
697.368
 20
-3370.494
 30
-939.000
 70
    32
  0
VERTEX
  8
6200LEVEL
 62
13
 10
712.009
 20
-3392.615
 30
-939.000
 70
    32
  0
VERTEX
  8
6200LEVEL
 62
13
 10
714.914
 20
-3393.970
 30
-939.000
 70
    32
  0
VERTEX
  8
6200LEVEL
 62
13
 10
710.233
 20
-3377.351
 30
-939.000
 70
    32
  0
VERTEX
  8
6200LEVEL
 62
13
 10
700.222
 20
-3334.635
 30
-939.000
 70
    32
  0
VERTEX
  8
6200LEVEL
 62
13
 10
687.277
 20
-3286.727
 30
-939.000
 70
    32
  0
VERTEX
  8
6200LEVEL
 62
13
 10
671.399
 20
-3233.627
 30
-939.000
 70
    32
  0
VERTEX
  8
6200LEVEL
 62
13
 10
660.709
 20
-3207.134
 30
-939.000
 70
    32
  0
VERTEX
  8
6200LEVEL
 62
13
 10
653.488
 20
-3189.810
 30
-939.000
 70
    32
  0
VERTEX
  8
6200LEVEL
 62
13
 10
651.995
 20
-3173.530
 30
-939.000
 70
    32
  0
VERTEX
  8
6200LEVEL
 62
13
 10
697.126
 20
-3267.035
 30
-939.000
 70
    32
  0
VERTEX
  8
6200LEVEL
 62
13
 10
759.661
 20
-3394.370
 30
-939.000
 70
    32
  0
VERTEX
  8
6200LEVEL
 62
13
 10
796.612
 20
-3468.096
 30
-939.000
 70
    32
  0
VERTEX
  8
6200LEVEL
 62
13
 10
819.823
 20
-3544.021
 30
-939.000
 70
    32
  0
VERTEX
  8
6200LEVEL
 62
13
 10
835.475
 20
-3605.810
 30
-939.000
 70
    32
  0
VERTEX
  8
6200LEVEL
 62
13
 10
851.662
 20
-3671.578
 30
-939.000
 70
    32
  0
VERTEX
  8
6200LEVEL
 62
13
 10
849.712
 20
-3702.218
 30
-939.000
 70
    32
  0
VERTEX
  8
6200LEVEL
 62
13
 10
845.367
 20
-3702.104
 30
-939.000
 70
    32
  0
VERTEX
  8
6200LEVEL
 62
13
 10
828.131
 20
-3681.450
 30
-939.000
 70
    32
  0
VERTEX
  8
6200LEVEL
 62
13
 10
755.921
 20
-3537.750
 30
-939.000
 70
    32
  0
VERTEX
  8
6200LEVEL
 62
13
 10
681.622
 20
-3395.659
 30
-939.000
 70
    32
  0
VERTEX
  8
6200LEVEL
 62
13
 10
541.744
 20
-3105.693
 30
-939.000
 70
    32
  0
VERTEX
  8
6200LEVEL
 62
13
 10
426.382
 20
-2831.839
 30
-939.000
 70
    32
  0
VERTEX
  8
6200LEVEL
 62
13
 10
248.342
 20
-2441.005
 30
-939.000
 70
    32
  0
VERTEX
  8
6200LEVEL
 62
13
 10
98.202
 20
-2083.636
 30
-939.000
 70
    32
  0
VERTEX
  8
6200LEVEL
 62
13
 10
-32.249
 20
-1755.808
 30
-939.000
 70
    32
  0
VERTEX
  8
6200LEVEL
 62
13
 10
-101.604
 20
-1566.403
 30
-939.000
 70
    32
  0
SEQEND
  8
6200LEVEL
  0
POLYLINE
  8
6200LEVEL
 62
13
 66
     1
 70
     9
  0
VERTEX
  8
6200LEVEL
 62
13
 10
590.448
 20
-3042.641
 30
-939.000
 70
    32
  0
VERTEX
  8
6200LEVEL
 62
13
 10
524.838
 20
-2910.622
 30
-939.000
 70
    32
  0
VERTEX
  8
6200LEVEL
 62
13
 10
421.207
 20
-2687.075
 30
-939.000
 70
    32
  0
VERTEX
  8
6200LEVEL
 62
13
 10
287.481
 20
-2376.937
 30
-939.000
 70
    32
  0
VERTEX
  8
6200LEVEL
 62
13
 10
201.285
 20
-2161.517
 30
-939.000
 70
    32
  0
VERTEX
  8
6200LEVEL
 62
13
 10
86.966
 20
-1891.783
 30
-939.000
 70
    32
  0
VERTEX
  8
6200LEVEL
 62
13
 10
-18.381
 20
-1621.260
 30
-939.000
 70
    32
  0
VERTEX
  8
6200LEVEL
 62
13
 10
-87.173
 20
-1439.670
 30
-939.000
 70
    32
  0
VERTEX
  8
6200LEVEL
 62
13
 10
-108.947
 20
-1382.196
 30
-939.000
 70
    32
  0
VERTEX
  8
6200LEVEL
 62
13
 10
-115.377
 20
-1354.151
 30
-939.000
 70
    32
  0
VERTEX
  8
6200LEVEL
 62
13
 10
-116.335
 20
-1341.850
 30
-939.000
 70
    32
  0
VERTEX
  8
6200LEVEL
 62
13
 10
-114.753
 20
-1330.255
 30
-939.000
 70
    32
  0
VERTEX
  8
6200LEVEL
 62
13
 10
-92.977
 20
-1368.035
 30
-939.000
 70
    32
  0
VERTEX
  8
6200LEVEL
 62
13
 10
-31.149
 20
-1507.755
 30
-939.000
 70
    32
  0
VERTEX
  8
6200LEVEL
 62
13
 10
93.692
 20
-1790.807
 30
-939.000
 70
    32
  0
VERTEX
  8
6200LEVEL
 62
13
 10
220.196
 20
-2093.468
 30
-939.000
 70
    32
  0
VERTEX
  8
6200LEVEL
 62
13
 10
291.358
 20
-2272.434
 30
-939.000
 70
    32
  0
VERTEX
  8
6200LEVEL
 62
13
 10
414.086
 20
-2533.564
 30
-939.000
 70
    32
  0
VERTEX
  8
6200LEVEL
 62
13
 10
578.986
 20
-2859.477
 30
-939.000
 70
    32
  0
VERTEX
  8
6200LEVEL
 62
13
 10
693.594
 20
-3059.270
 30
-939.000
 70
    32
  0
VERTEX
  8
6200LEVEL
 62
13
 10
757.879
 20
-3188.185
 30
-939.000
 70
    32
  0
VERTEX
  8
6200LEVEL
 62
13
 10
771.728
 20
-3221.027
 30
-939.000
 70
    32
  0
VERTEX
  8
6200LEVEL
 62
13
 10
692.802
 20
-3079.838
 30
-939.000
 70
    32
  0
VERTEX
  8
6200LEVEL
 62
13
 10
592.636
 20
-2904.846
 30
-939.000
 70
    32
  0
VERTEX
  8
6200LEVEL
 62
13
 10
461.415
 20
-2650.656
 30
-939.000
 70
    32
  0
VERTEX
  8
6200LEVEL
 62
13
 10
348.784
 20
-2424.060
 30
-939.000
 70
    32
  0
VERTEX
  8
6200LEVEL
 62
13
 10
297.362
 20
-2321.696
 30
-939.000
 70
    32
  0
VERTEX
  8
6200LEVEL
 62
13
 10
276.743
 20
-2283.690
 30
-939.000
 70
    32
  0
VERTEX
  8
6200LEVEL
 62
13
 10
264.247
 20
-2257.789
 30
-939.000
 70
    32
  0
VERTEX
  8
6200LEVEL
 62
13
 10
257.054
 20
-2244.302
 30
-939.000
 70
    32
  0
VERTEX
  8
6200LEVEL
 62
13
 10
252.879
 20
-2237.671
 30
-939.000
 70
    32
  0
VERTEX
  8
6200LEVEL
 62
13
 10
256.912
 20
-2254.656
 30
-939.000
 70
    32
  0
VERTEX
  8
6200LEVEL
 62
13
 10
289.348
 20
-2334.786
 30
-939.000
 70
    32
  0
VERTEX
  8
6200LEVEL
 62
13
 10
348.609
 20
-2479.810
 30
-939.000
 70
    32
  0
VERTEX
  8
6200LEVEL
 62
13
 10
423.439
 20
-2655.420
 30
-939.000
 70
    32
  0
VERTEX
  8
6200LEVEL
 62
13
 10
472.772
 20
-2769.239
 30
-939.000
 70
    32
  0
VERTEX
  8
6200LEVEL
 62
13
 10
531.214
 20
-2911.300
 30
-939.000
 70
    32
  0
VERTEX
  8
6200LEVEL
 62
13
 10
559.308
 20
-2971.624
 30
-939.000
 70
    32
  0
SEQEND
  8
6200LEVEL
  0
POLYLINE
  8
6200LEVEL
 62
13
 66
     1
 70
     9
  0
VERTEX
  8
6200LEVEL
 62
13
 10
1418.895
 20
-4667.833
 30
-939.000
 70
    32
  0
VERTEX
  8
6200LEVEL
 62
13
 10
1483.691
 20
-4767.349
 30
-939.000
 70
    32
  0
VERTEX
  8
6200LEVEL
 62
13
 10
1534.577
 20
-4865.736
 30
-939.000
 70
    32
  0
VERTEX
  8
6200LEVEL
 62
13
 10
1560.133
 20
-4915.507
 30
-939.000
 70
    32
  0
VERTEX
  8
6200LEVEL
 62
13
 10
1589.043
 20
-4988.640
 30
-939.000
 70
    32
  0
VERTEX
  8
6200LEVEL
 62
13
 10
1554.402
 20
-4944.002
 30
-939.000
 70
    32
  0
VERTEX
  8
6200LEVEL
 62
13
 10
1504.673
 20
-4845.390
 30
-939.000
 70
    32
  0
VERTEX
  8
6200LEVEL
 62
13
 10
1476.973
 20
-4789.553
 30
-939.000
 70
    32
  0
VERTEX
  8
6200LEVEL
 62
13
 10
1442.080
 20
-4730.075
 30
-939.000
 70
    32
  0
SEQEND
  8
6200LEVEL
  0
POLYLINE
  8
6200LEVEL
 62
13
 66
     1
 70
     9
  0
VERTEX
  8
6200LEVEL
 62
13
 10
1726.161
 20
-5237.358
 30
-939.000
 70
    32
  0
VERTEX
  8
6200LEVEL
 62
13
 10
1749.602
 20
-5275.054
 30
-939.000
 70
    32
  0
VERTEX
  8
6200LEVEL
 62
13
 10
1766.076
 20
-5300.419
 30
-939.000
 70
    32
  0
VERTEX
  8
6200LEVEL
 62
13
 10
1801.082
 20
-5365.399
 30
-939.000
 70
    32
  0
VERTEX
  8
6200LEVEL
 62
13
 10
1842.547
 20
-5442.568
 30
-939.000
 70
    32
  0
VERTEX
  8
6200LEVEL
 62
13
 10
1864.436
 20
-5485.850
 30
-939.000
 70
    32
  0
VERTEX
  8
6200LEVEL
 62
13
 10
1871.204
 20
-5510.707
 30
-939.000
 70
    32
  0
VERTEX
  8
6200LEVEL
 62
13
 10
1841.670
 20
-5461.471
 30
-939.000
 70
    32
  0
VERTEX
  8
6200LEVEL
 62
13
 10
1829.231
 20
-5433.397
 30
-939.000
 70
    32
  0
VERTEX
  8
6200LEVEL
 62
13
 10
1807.483
 20
-5389.607
 30
-939.000
 70
    32
  0
VERTEX
  8
6200LEVEL
 62
13
 10
1787.906
 20
-5365.567
 30
-939.000
 70
    32
  0
VERTEX
  8
6200LEVEL
 62
13
 10
1771.799
 20
-5340.850
 30
-939.000
 70
    32
  0
VERTEX
  8
6200LEVEL
 62
13
 10
1753.014
 20
-5296.242
 30
-939.000
 70
    32
  0
SEQEND
  8
6200LEVEL
  0
POLYLINE
  8
6200LEVEL
 62
13
 66
     1
 70
     9
  0
VERTEX
  8
6200LEVEL
 62
13
 10
1621.684
 20
-4507.011
 30
-939.000
 70
    32
  0
VERTEX
  8
6200LEVEL
 62
13
 10
1660.445
 20
-4550.605
 30
-939.000
 70
    32
  0
VERTEX
  8
6200LEVEL
 62
13
 10
1730.032
 20
-4682.088
 30
-939.000
 70
    32
  0
VERTEX
  8
6200LEVEL
 62
13
 10
1831.355
 20
-4866.700
 30
-939.000
 70
    32
  0
VERTEX
  8
6200LEVEL
 62
13
 10
1870.367
 20
-4925.135
 30
-939.000
 70
    32
  0
VERTEX
  8
6200LEVEL
 62
13
 10
1914.372
 20
-5003.009
 30
-939.000
 70
    32
  0
VERTEX
  8
6200LEVEL
 62
13
 10
2000.126
 20
-5137.343
 30
-939.000
 70
    32
  0
VERTEX
  8
6200LEVEL
 62
13
 10
2053.355
 20
-5219.423
 30
-939.000
 70
    32
  0
VERTEX
  8
6200LEVEL
 62
13
 10
2115.582
 20
-5324.243
 30
-939.000
 70
    32
  0
VERTEX
  8
6200LEVEL
 62
13
 10
2050.053
 20
-5233.275
 30
-939.000
 70
    32
  0
VERTEX
  8
6200LEVEL
 62
13
 10
1989.658
 20
-5141.546
 30
-939.000
 70
    32
  0
VERTEX
  8
6200LEVEL
 62
13
 10
1893.748
 20
-4994.543
 30
-939.000
 70
    32
  0
VERTEX
  8
6200LEVEL
 62
13
 10
1862.324
 20
-4944.235
 30
-939.000
 70
    32
  0
VERTEX
  8
6200LEVEL
 62
13
 10
1783.652
 20
-4808.039
 30
-939.000
 70
    32
  0
VERTEX
  8
6200LEVEL
 62
13
 10
1713.047
 20
-4686.120
 30
-939.000
 70
    32
  0
VERTEX
  8
6200LEVEL
 62
13
 10
1655.476
 20
-4574.388
 30
-939.000
 70
    32
  0
VERTEX
  8
6200LEVEL
 62
13
 10
1637.340
 20
-4529.414
 30
-939.000
 70
    32
  0
SEQEND
  8
6200LEVEL
  0
POLYLINE
  8
6200LEVEL
 62
13
 66
     1
 70
     9
  0
VERTEX
  8
6200LEVEL
 62
13
 10
1539.942
 20
-4076.745
 30
-939.000
 70
    32
  0
VERTEX
  8
6200LEVEL
 62
13
 10
1565.528
 20
-4110.661
 30
-939.000
 70
    32
  0
VERTEX
  8
6200LEVEL
 62
13
 10
1676.244
 20
-4302.807
 30
-939.000
 70
    32
  0
VERTEX
  8
6200LEVEL
 62
13
 10
1775.338
 20
-4479.689
 30
-939.000
 70
    32
  0
VERTEX
  8
6200LEVEL
 62
13
 10
1895.759
 20
-4682.191
 30
-939.000
 70
    32
  0
VERTEX
  8
6200LEVEL
 62
13
 10
1975.362
 20
-4817.004
 30
-939.000
 70
    32
  0
VERTEX
  8
6200LEVEL
 62
13
 10
2017.760
 20
-4882.944
 30
-939.000
 70
    32
  0
VERTEX
  8
6200LEVEL
 62
13
 10
2156.067
 20
-5086.041
 30
-939.000
 70
    32
  0
VERTEX
  8
6200LEVEL
 62
13
 10
2247.379
 20
-5227.937
 30
-939.000
 70
    32
  0
VERTEX
  8
6200LEVEL
 62
13
 10
2172.286
 20
-5126.106
 30
-939.000
 70
    32
  0
VERTEX
  8
6200LEVEL
 62
13
 10
2070.057
 20
-4976.252
 30
-939.000
 70
    32
  0
VERTEX
  8
6200LEVEL
 62
13
 10
1986.841
 20
-4852.470
 30
-939.000
 70
    32
  0
VERTEX
  8
6200LEVEL
 62
13
 10
1895.446
 20
-4699.063
 30
-939.000
 70
    32
  0
VERTEX
  8
6200LEVEL
 62
13
 10
1795.448
 20
-4537.247
 30
-939.000
 70
    32
  0
VERTEX
  8
6200LEVEL
 62
13
 10
1711.924
 20
-4390.950
 30
-939.000
 70
    32
  0
VERTEX
  8
6200LEVEL
 62
13
 10
1646.341
 20
-4272.616
 30
-939.000
 70
    32
  0
VERTEX
  8
6200LEVEL
 62
13
 10
1590.320
 20
-4174.990
 30
-939.000
 70
    32
  0
VERTEX
  8
6200LEVEL
 62
13
 10
1558.332
 20
-4116.867
 30
-939.000
 70
    32
  0
SEQEND
  8
6200LEVEL
  0
POLYLINE
  8
6200LEVEL
 62
8
 66
     1
 70
     8
  0
VERTEX
  8
6200LEVEL
 62
8
 10
1963.544
 20
-3534.727
 30
-939.000
 70
    32
  0
VERTEX
  8
6200LEVEL
 62
8
 10
2554.931
 20
-4507.060
 30
-939.000
 70
    32
  0
VERTEX
  8
6200LEVEL
 62
8
 10
3419.663
 20
-5863.889
 30
-939.000
 70
    32
  0
SEQEND
  8
6200LEVEL
  0
POLYLINE
  8
6200LEVEL
 62
13
 66
     1
 70
     9
  0
VERTEX
  8
6200LEVEL
 62
13
 10
2158.610
 20
-4975.964
 30
-939.000
 70
    32
  0
VERTEX
  8
6200LEVEL
 62
13
 10
2215.570
 20
-5048.500
 30
-939.000
 70
    32
  0
VERTEX
  8
6200LEVEL
 62
13
 10
2315.926
 20
-5197.266
 30
-939.000
 70
    32
  0
VERTEX
  8
6200LEVEL
 62
13
 10
2453.830
 20
-5391.038
 30
-939.000
 70
    32
  0
VERTEX
  8
6200LEVEL
 62
13
 10
2594.627
 20
-5586.257
 30
-939.000
 70
    32
  0
VERTEX
  8
6200LEVEL
 62
13
 10
2667.011
 20
-5690.812
 30
-939.000
 70
    32
  0
VERTEX
  8
6200LEVEL
 62
13
 10
2693.436
 20
-5735.497
 30
-939.000
 70
    32
  0
VERTEX
  8
6200LEVEL
 62
13
 10
2625.396
 20
-5643.961
 30
-939.000
 70
    32
  0
VERTEX
  8
6200LEVEL
 62
13
 10
2509.849
 20
-5485.796
 30
-939.000
 70
    32
  0
VERTEX
  8
6200LEVEL
 62
13
 10
2392.878
 20
-5319.377
 30
-939.000
 70
    32
  0
VERTEX
  8
6200LEVEL
 62
13
 10
2276.880
 20
-5152.135
 30
-939.000
 70
    32
  0
VERTEX
  8
6200LEVEL
 62
13
 10
2197.710
 20
-5038.578
 30
-939.000
 70
    32
  0
SEQEND
  8
6200LEVEL
  0
POLYLINE
  8
6200LEVEL
 62
13
 66
     1
 70
     9
  0
VERTEX
  8
6200LEVEL
 62
13
 10
2358.227
 20
-5119.713
 30
-939.000
 70
    32
  0
VERTEX
  8
6200LEVEL
 62
13
 10
2433.525
 20
-5210.948
 30
-939.000
 70
    32
  0
VERTEX
  8
6200LEVEL
 62
13
 10
2600.646
 20
-5444.817
 30
-939.000
 70
    32
  0
VERTEX
  8
6200LEVEL
 62
13
 10
2758.686
 20
-5668.288
 30
-939.000
 70
    32
  0
VERTEX
  8
6200LEVEL
 62
13
 10
2806.691
 20
-5732.546
 30
-939.000
 70
    32
  0
VERTEX
  8
6200LEVEL
 62
13
 10
2843.222
 20
-5793.440
 30
-939.000
 70
    32
  0
VERTEX
  8
6200LEVEL
 62
13
 10
2812.512
 20
-5767.686
 30
-939.000
 70
    32
  0
VERTEX
  8
6200LEVEL
 62
13
 10
2722.865
 20
-5646.027
 30
-939.000
 70
    32
  0
VERTEX
  8
6200LEVEL
 62
13
 10
2568.893
 20
-5431.633
 30
-939.000
 70
    32
  0
VERTEX
  8
6200LEVEL
 62
13
 10
2469.711
 20
-5286.882
 30
-939.000
 70
    32
  0
VERTEX
  8
6200LEVEL
 62
13
 10
2404.292
 20
-5203.699
 30
-939.000
 70
    32
  0
SEQEND
  8
6200LEVEL
  0
POLYLINE
  8
6200LEVEL
 62
13
 66
     1
 70
     9
  0
VERTEX
  8
6200LEVEL
 62
13
 10
2888.509
 20
-5861.390
 30
-939.000
 70
    32
  0
VERTEX
  8
6200LEVEL
 62
13
 10
2944.346
 20
-5929.312
 30
-939.000
 70
    32
  0
VERTEX
  8
6200LEVEL
 62
13
 10
3058.942
 20
-6077.151
 30
-939.000
 70
    32
  0
VERTEX
  8
6200LEVEL
 62
13
 10
3157.247
 20
-6207.062
 30
-939.000
 70
    32
  0
VERTEX
  8
6200LEVEL
 62
13
 10
3211.516
 20
-6286.607
 30
-939.000
 70
    32
  0
VERTEX
  8
6200LEVEL
 62
13
 10
3159.471
 20
-6223.822
 30
-939.000
 70
    32
  0
VERTEX
  8
6200LEVEL
 62
13
 10
3058.348
 20
-6091.567
 30
-939.000
 70
    32
  0
VERTEX
  8
6200LEVEL
 62
13
 10
2953.457
 20
-5953.876
 30
-939.000
 70
    32
  0
VERTEX
  8
6200LEVEL
 62
13
 10
2906.848
 20
-5887.323
 30
-939.000
 70
    32
  0
SEQEND
  8
6200LEVEL
  0
POLYLINE
  8
6200LEVEL
 62
13
 66
     1
 70
     9
  0
VERTEX
  8
6200LEVEL
 62
13
 10
2764.925
 20
-5850.827
 30
-939.000
 70
    32
  0
VERTEX
  8
6200LEVEL
 62
13
 10
2914.154
 20
-6049.759
 30
-939.000
 70
    32
  0
VERTEX
  8
6200LEVEL
 62
13
 10
3115.008
 20
-6327.413
 30
-939.000
 70
    32
  0
VERTEX
  8
6200LEVEL
 62
13
 10
3319.802
 20
-6604.792
 30
-939.000
 70
    32
  0
VERTEX
  8
6200LEVEL
 62
13
 10
3477.243
 20
-6824.597
 30
-939.000
 70
    32
  0
VERTEX
  8
6200LEVEL
 62
13
 10
3564.821
 20
-6949.399
 30
-939.000
 70
    32
  0
VERTEX
  8
6200LEVEL
 62
13
 10
3598.805
 20
-7001.041
 30
-939.000
 70
    32
  0
VERTEX
  8
6200LEVEL
 62
13
 10
3536.186
 20
-6938.584
 30
-939.000
 70
    32
  0
VERTEX
  8
6200LEVEL
 62
13
 10
3388.678
 20
-6737.082
 30
-939.000
 70
    32
  0
VERTEX
  8
6200LEVEL
 62
13
 10
3253.671
 20
-6559.220
 30
-939.000
 70
    32
  0
VERTEX
  8
6200LEVEL
 62
13
 10
3114.217
 20
-6351.456
 30
-939.000
 70
    32
  0
VERTEX
  8
6200LEVEL
 62
13
 10
2956.627
 20
-6133.447
 30
-939.000
 70
    32
  0
VERTEX
  8
6200LEVEL
 62
13
 10
2818.748
 20
-5939.375
 30
-939.000
 70
    32
  0
VERTEX
  8
6200LEVEL
 62
13
 10
2777.729
 20
-5881.724
 30
-939.000
 70
    32
  0
SEQEND
  8
6200LEVEL
  0
POLYLINE
  8
6200LEVEL
 62
13
 66
     1
 70
     9
  0
VERTEX
  8
6200LEVEL
 62
13
 10
2874.986
 20
-6350.879
 30
-939.000
 70
    32
  0
VERTEX
  8
6200LEVEL
 62
13
 10
2945.963
 20
-6421.564
 30
-939.000
 70
    32
  0
VERTEX
  8
6200LEVEL
 62
13
 10
3050.130
 20
-6557.086
 30
-939.000
 70
    32
  0
VERTEX
  8
6200LEVEL
 62
13
 10
3203.802
 20
-6767.839
 30
-939.000
 70
    32
  0
VERTEX
  8
6200LEVEL
 62
13
 10
3356.300
 20
-6974.576
 30
-939.000
 70
    32
  0
VERTEX
  8
6200LEVEL
 62
13
 10
3437.289
 20
-7080.749
 30
-939.000
 70
    32
  0
VERTEX
  8
6200LEVEL
 62
13
 10
3478.607
 20
-7138.425
 30
-939.000
 70
    32
  0
VERTEX
  8
6200LEVEL
 62
13
 10
3481.355
 20
-7152.515
 30
-939.000
 70
    32
  0
VERTEX
  8
6200LEVEL
 62
13
 10
3429.164
 20
-7102.375
 30
-939.000
 70
    32
  0
VERTEX
  8
6200LEVEL
 62
13
 10
3395.858
 20
-7067.967
 30
-939.000
 70
    32
  0
VERTEX
  8
6200LEVEL
 62
13
 10
3284.608
 20
-6930.652
 30
-939.000
 70
    32
  0
VERTEX
  8
6200LEVEL
 62
13
 10
3174.353
 20
-6788.598
 30
-939.000
 70
    32
  0
VERTEX
  8
6200LEVEL
 62
13
 10
3069.611
 20
-6649.111
 30
-939.000
 70
    32
  0
VERTEX
  8
6200LEVEL
 62
13
 10
2976.842
 20
-6514.235
 30
-939.000
 70
    32
  0
VERTEX
  8
6200LEVEL
 62
13
 10
2904.310
 20
-6415.092
 30
-939.000
 70
    32
  0
VERTEX
  8
6200LEVEL
 62
13
 10
2880.156
 20
-6375.718
 30
-939.000
 70
    32
  0
VERTEX
  8
6200LEVEL
 62
13
 10
2870.747
 20
-6354.746
 30
-939.000
 70
    32
  0
SEQEND
  8
6200LEVEL
  0
POLYLINE
  8
6200LEVEL
 62
13
 66
     1
 70
     9
  0
VERTEX
  8
6200LEVEL
 62
13
 10
2709.079
 20
-6098.037
 30
-939.000
 70
    32
  0
VERTEX
  8
6200LEVEL
 62
13
 10
2686.656
 20
-6040.931
 30
-939.000
 70
    32
  0
VERTEX
  8
6200LEVEL
 62
13
 10
2624.993
 20
-5934.079
 30
-939.000
 70
    32
  0
VERTEX
  8
6200LEVEL
 62
13
 10
2567.309
 20
-5826.692
 30
-939.000
 70
    32
  0
VERTEX
  8
6200LEVEL
 62
13
 10
2532.415
 20
-5767.214
 30
-939.000
 70
    32
  0
VERTEX
  8
6200LEVEL
 62
13
 10
2357.496
 20
-5477.357
 30
-939.000
 70
    32
  0
VERTEX
  8
6200LEVEL
 62
13
 10
2147.821
 20
-5157.053
 30
-939.000
 70
    32
  0
VERTEX
  8
6200LEVEL
 62
13
 10
2028.162
 20
-4959.686
 30
-939.000
 70
    32
  0
VERTEX
  8
6200LEVEL
 62
13
 10
1961.956
 20
-4855.401
 30
-939.000
 70
    32
  0
VERTEX
  8
6200LEVEL
 62
13
 10
1907.964
 20
-4778.034
 30
-939.000
 70
    32
  0
VERTEX
  8
6200LEVEL
 62
13
 10
1787.543
 20
-4585.378
 30
-939.000
 70
    32
  0
VERTEX
  8
6200LEVEL
 62
13
 10
1637.929
 20
-4310.759
 30
-939.000
 70
    32
  0
VERTEX
  8
6200LEVEL
 62
13
 10
1474.691
 20
-4014.301
 30
-939.000
 70
    32
  0
VERTEX
  8
6200LEVEL
 62
13
 10
1306.012
 20
-3676.397
 30
-939.000
 70
    32
  0
VERTEX
  8
6200LEVEL
 62
13
 10
1082.550
 20
-3271.847
 30
-939.000
 70
    32
  0
VERTEX
  8
6200LEVEL
 62
13
 10
957.508
 20
-3021.014
 30
-939.000
 70
    32
  0
VERTEX
  8
6200LEVEL
 62
13
 10
850.095
 20
-2805.169
 30
-939.000
 70
    32
  0
VERTEX
  8
6200LEVEL
 62
13
 10
706.012
 20
-2524.428
 30
-939.000
 70
    32
  0
VERTEX
  8
6200LEVEL
 62
13
 10
592.340
 20
-2274.020
 30
-939.000
 70
    32
  0
VERTEX
  8
6200LEVEL
 62
13
 10
486.422
 20
-2064.607
 30
-939.000
 70
    32
  0
VERTEX
  8
6200LEVEL
 62
13
 10
384.679
 20
-1861.825
 30
-939.000
 70
    32
  0
VERTEX
  8
6200LEVEL
 62
13
 10
291.905
 20
-1677.947
 30
-939.000
 70
    32
  0
VERTEX
  8
6200LEVEL
 62
13
 10
196.171
 20
-1475.194
 30
-939.000
 70
    32
  0
VERTEX
  8
6200LEVEL
 62
13
 10
123.512
 20
-1309.488
 30
-939.000
 70
    32
  0
VERTEX
  8
6200LEVEL
 62
13
 10
51.442
 20
-1175.127
 30
-939.000
 70
    32
  0
VERTEX
  8
6200LEVEL
 62
13
 10
2.335
 20
-1062.465
 30
-939.000
 70
    32
  0
VERTEX
  8
6200LEVEL
 62
13
 10
6.652
 20
-1058.741
 30
-939.000
 70
    32
  0
VERTEX
  8
6200LEVEL
 62
13
 10
16.666
 20
-1071.918
 30
-939.000
 70
    32
  0
VERTEX
  8
6200LEVEL
 62
13
 10
28.936
 20
-1096.663
 30
-939.000
 70
    32
  0
VERTEX
  8
6200LEVEL
 62
13
 10
39.852
 20
-1124.313
 30
-939.000
 70
    32
  0
VERTEX
  8
6200LEVEL
 62
13
 10
72.657
 20
-1185.399
 30
-939.000
 70
    32
  0
VERTEX
  8
6200LEVEL
 62
13
 10
131.638
 20
-1301.900
 30
-939.000
 70
    32
  0
VERTEX
  8
6200LEVEL
 62
13
 10
218.010
 20
-1461.570
 30
-939.000
 70
    32
  0
VERTEX
  8
6200LEVEL
 62
13
 10
302.884
 20
-1644.346
 30
-939.000
 70
    32
  0
VERTEX
  8
6200LEVEL
 62
13
 10
401.216
 20
-1825.940
 30
-939.000
 70
    32
  0
VERTEX
  8
6200LEVEL
 62
13
 10
528.854
 20
-2075.305
 30
-939.000
 70
    32
  0
VERTEX
  8
6200LEVEL
 62
13
 10
653.473
 20
-2327.661
 30
-939.000
 70
    32
  0
VERTEX
  8
6200LEVEL
 62
13
 10
815.664
 20
-2649.539
 30
-939.000
 70
    32
  0
VERTEX
  8
6200LEVEL
 62
13
 10
945.898
 20
-2897.438
 30
-939.000
 70
    32
  0
VERTEX
  8
6200LEVEL
 62
13
 10
1068.376
 20
-3124.034
 30
-939.000
 70
    32
  0
VERTEX
  8
6200LEVEL
 62
13
 10
1023.527
 20
-3029.514
 30
-939.000
 70
    32
  0
VERTEX
  8
6200LEVEL
 62
13
 10
928.807
 20
-2836.890
 30
-939.000
 70
    32
  0
VERTEX
  8
6200LEVEL
 62
13
 10
735.900
 20
-2442.471
 30
-939.000
 70
    32
  0
VERTEX
  8
6200LEVEL
 62
13
 10
468.325
 20
-1925.005
 30
-939.000
 70
    32
  0
VERTEX
  8
6200LEVEL
 62
13
 10
327.798
 20
-1635.405
 30
-939.000
 70
    32
  0
VERTEX
  8
6200LEVEL
 62
13
 10
221.286
 20
-1434.034
 30
-939.000
 70
    32
  0
VERTEX
  8
6200LEVEL
 62
13
 10
169.075
 20
-1322.697
 30
-939.000
 70
    32
  0
VERTEX
  8
6200LEVEL
 62
13
 10
146.820
 20
-1278.766
 30
-939.000
 70
    32
  0
VERTEX
  8
6200LEVEL
 62
13
 10
128.880
 20
-1240.958
 30
-939.000
 70
    32
  0
VERTEX
  8
6200LEVEL
 62
13
 10
139.036
 20
-1253.627
 30
-939.000
 70
    32
  0
VERTEX
  8
6200LEVEL
 62
13
 10
152.745
 20
-1277.130
 30
-939.000
 70
    32
  0
VERTEX
  8
6200LEVEL
 62
13
 10
168.768
 20
-1300.183
 30
-939.000
 70
    32
  0
VERTEX
  8
6200LEVEL
 62
13
 10
196.187
 20
-1337.343
 30
-939.000
 70
    32
  0
VERTEX
  8
6200LEVEL
 62
13
 10
197.796
 20
-1329.584
 30
-939.000
 70
    32
  0
VERTEX
  8
6200LEVEL
 62
13
 10
192.268
 20
-1316.013
 30
-939.000
 70
    32
  0
VERTEX
  8
6200LEVEL
 62
13
 10
170.577
 20
-1270.051
 30
-939.000
 70
    32
  0
VERTEX
  8
6200LEVEL
 62
13
 10
50.612
 20
-1030.476
 30
-939.000
 70
    32
  0
VERTEX
  8
6200LEVEL
 62
13
 10
-67.831
 20
-801.172
 30
-939.000
 70
    32
  0
VERTEX
  8
6200LEVEL
 62
13
 10
-200.066
 20
-536.852
 30
-939.000
 70
    32
  0
VERTEX
  8
6200LEVEL
 62
13
 10
-400.224
 20
-131.119
 30
-939.000
 70
    32
  0
VERTEX
  8
6200LEVEL
 62
13
 10
-499.007
 20
52.787
 30
-939.000
 70
    32
  0
VERTEX
  8
6200LEVEL
 62
13
 10
-518.330
 20
81.680
 30
-939.000
 70
    32
  0
VERTEX
  8
6200LEVEL
 62
13
 10
-522.393
 20
72.963
 30
-939.000
 70
    32
  0
VERTEX
  8
6200LEVEL
 62
13
 10
-512.155
 20
48.783
 30
-939.000
 70
    32
  0
VERTEX
  8
6200LEVEL
 62
13
 10
-501.070
 20
17.803
 30
-939.000
 70
    32
  0
VERTEX
  8
6200LEVEL
 62
13
 10
-459.184
 20
-77.535
 30
-939.000
 70
    32
  0
VERTEX
  8
6200LEVEL
 62
13
 10
-375.862
 20
-265.898
 30
-939.000
 70
    32
  0
VERTEX
  8
6200LEVEL
 62
13
 10
-281.286
 20
-478.723
 30
-939.000
 70
    32
  0
VERTEX
  8
6200LEVEL
 62
13
 10
-152.353
 20
-747.049
 30
-939.000
 70
    32
  0
VERTEX
  8
6200LEVEL
 62
13
 10
-112.975
 20
-825.825
 30
-939.000
 70
    32
  0
VERTEX
  8
6200LEVEL
 62
13
 10
-100.002
 20
-867.724
 30
-939.000
 70
    32
  0
VERTEX
  8
6200LEVEL
 62
13
 10
-106.180
 20
-864.366
 30
-939.000
 70
    32
  0
VERTEX
  8
6200LEVEL
 62
13
 10
-116.505
 20
-848.367
 30
-939.000
 70
    32
  0
VERTEX
  8
6200LEVEL
 62
13
 10
-130.553
 20
-828.052
 30
-939.000
 70
    32
  0
VERTEX
  8
6200LEVEL
 62
13
 10
-129.595
 20
-840.353
 30
-939.000
 70
    32
  0
VERTEX
  8
6200LEVEL
 62
13
 10
-122.968
 20
-865.718
 30
-939.000
 70
    32
  0
VERTEX
  8
6200LEVEL
 62
13
 10
-112.954
 20
-888.741
 30
-939.000
 70
    32
  0
VERTEX
  8
6200LEVEL
 62
13
 10
-85.987
 20
-933.435
 30
-939.000
 70
    32
  0
VERTEX
  8
6200LEVEL
 62
13
 10
-34.737
 20
-1052.163
 30
-939.000
 70
    32
  0
VERTEX
  8
6200LEVEL
 62
13
 10
27.318
 20
-1183.193
 30
-939.000
 70
    32
  0
VERTEX
  8
6200LEVEL
 62
13
 10
89.798
 20
-1302.854
 30
-939.000
 70
    32
  0
VERTEX
  8
6200LEVEL
 62
13
 10
147.367
 20
-1434.279
 30
-939.000
 70
    32
  0
VERTEX
  8
6200LEVEL
 62
13
 10
217.969
 20
-1575.891
 30
-939.000
 70
    32
  0
VERTEX
  8
6200LEVEL
 62
13
 10
311.475
 20
-1770.913
 30
-939.000
 70
    32
  0
VERTEX
  8
6200LEVEL
 62
13
 10
363.206
 20
-1885.946
 30
-939.000
 70
    32
  0
VERTEX
  8
6200LEVEL
 62
13
 10
440.380
 20
-2045.248
 30
-939.000
 70
    32
  0
VERTEX
  8
6200LEVEL
 62
13
 10
539.386
 20
-2250.004
 30
-939.000
 70
    32
  0
VERTEX
  8
6200LEVEL
 62
13
 10
641.298
 20
-2456.116
 30
-939.000
 70
    32
  0
VERTEX
  8
6200LEVEL
 62
13
 10
745.438
 20
-2669.958
 30
-939.000
 70
    32
  0
VERTEX
  8
6200LEVEL
 62
13
 10
846.616
 20
-2884.618
 30
-939.000
 70
    32
  0
VERTEX
  8
6200LEVEL
 62
13
 10
989.430
 20
-3160.082
 30
-939.000
 70
    32
  0
VERTEX
  8
6200LEVEL
 62
13
 10
1103.161
 20
-3388.625
 30
-939.000
 70
    32
  0
VERTEX
  8
6200LEVEL
 62
13
 10
1208.969
 20
-3572.843
 30
-939.000
 70
    32
  0
VERTEX
  8
6200LEVEL
 62
13
 10
1355.226
 20
-3843.794
 30
-939.000
 70
    32
  0
VERTEX
  8
6200LEVEL
 62
13
 10
1528.762
 20
-4142.566
 30
-939.000
 70
    32
  0
VERTEX
  8
6200LEVEL
 62
13
 10
1647.319
 20
-4357.679
 30
-939.000
 70
    32
  0
VERTEX
  8
6200LEVEL
 62
13
 10
1758.910
 20
-4550.616
 30
-939.000
 70
    32
  0
VERTEX
  8
6200LEVEL
 62
13
 10
1851.543
 20
-4725.155
 30
-939.000
 70
    32
  0
VERTEX
  8
6200LEVEL
 62
13
 10
1931.798
 20
-4839.909
 30
-939.000
 70
    32
  0
VERTEX
  8
6200LEVEL
 62
13
 10
1963.729
 20
-4900.205
 30
-939.000
 70
    32
  0
VERTEX
  8
6200LEVEL
 62
13
 10
1985.674
 20
-4941.314
 30
-939.000
 70
    32
  0
VERTEX
  8
6200LEVEL
 62
13
 10
1994.079
 20
-4962.250
 30
-939.000
 70
    32
  0
VERTEX
  8
6200LEVEL
 62
13
 10
1990.215
 20
-4958.440
 30
-939.000
 70
    32
  0
VERTEX
  8
6200LEVEL
 62
13
 10
1969.987
 20
-4944.613
 30
-939.000
 70
    32
  0
VERTEX
  8
6200LEVEL
 62
13
 10
1974.443
 20
-4960.075
 30
-939.000
 70
    32
  0
VERTEX
  8
6200LEVEL
 62
13
 10
1962.651
 20
-4951.327
 30
-939.000
 70
    32
  0
VERTEX
  8
6200LEVEL
 62
13
 10
1945.640
 20
-4931.830
 30
-939.000
 70
    32
  0
VERTEX
  8
6200LEVEL
 62
13
 10
1920.479
 20
-4886.544
 30
-939.000
 70
    32
  0
VERTEX
  8
6200LEVEL
 62
13
 10
1860.114
 20
-4778.959
 30
-939.000
 70
    32
  0
VERTEX
  8
6200LEVEL
 62
13
 10
1732.329
 20
-4579.334
 30
-939.000
 70
    32
  0
VERTEX
  8
6200LEVEL
 62
13
 10
1571.374
 20
-4308.128
 30
-939.000
 70
    32
  0
VERTEX
  8
6200LEVEL
 62
13
 10
1436.878
 20
-4071.627
 30
-939.000
 70
    32
  0
VERTEX
  8
6200LEVEL
 62
13
 10
1362.832
 20
-3944.376
 30
-939.000
 70
    32
  0
VERTEX
  8
6200LEVEL
 62
13
 10
1277.759
 20
-3774.126
 30
-939.000
 70
    32
  0
VERTEX
  8
6200LEVEL
 62
13
 10
1213.645
 20
-3638.694
 30
-939.000
 70
    32
  0
VERTEX
  8
6200LEVEL
 62
13
 10
1152.182
 20
-3519.315
 30
-939.000
 70
    32
  0
VERTEX
  8
6200LEVEL
 62
13
 10
1086.205
 20
-3386.648
 30
-939.000
 70
    32
  0
VERTEX
  8
6200LEVEL
 62
13
 10
1018.959
 20
-3258.551
 30
-939.000
 70
    32
  0
VERTEX
  8
6200LEVEL
 62
13
 10
942.602
 20
-3102.211
 30
-939.000
 70
    32
  0
VERTEX
  8
6200LEVEL
 62
13
 10
864.044
 20
-2951.824
 30
-939.000
 70
    32
  0
VERTEX
  8
6200LEVEL
 62
13
 10
757.336
 20
-2743.286
 30
-939.000
 70
    32
  0
VERTEX
  8
6200LEVEL
 62
13
 10
618.303
 20
-2469.966
 30
-939.000
 70
    32
  0
VERTEX
  8
6200LEVEL
 62
13
 10
510.185
 20
-2246.813
 30
-939.000
 70
    32
  0
VERTEX
  8
6200LEVEL
 62
13
 10
402.857
 20
-2032.632
 30
-939.000
 70
    32
  0
VERTEX
  8
6200LEVEL
 62
13
 10
315.894
 20
-1861.310
 30
-939.000
 70
    32
  0
VERTEX
  8
6200LEVEL
 62
13
 10
201.092
 20
-1624.811
 30
-939.000
 70
    32
  0
VERTEX
  8
6200LEVEL
 62
13
 10
112.072
 20
-1429.394
 30
-939.000
 70
    32
  0
VERTEX
  8
6200LEVEL
 62
13
 10
-6.312
 20
-1178.224
 30
-939.000
 70
    32
  0
VERTEX
  8
6200LEVEL
 62
13
 10
-88.308
 20
-992.965
 30
-939.000
 70
    32
  0
VERTEX
  8
6200LEVEL
 62
13
 10
-151.745
 20
-861.003
 30
-939.000
 70
    32
  0
VERTEX
  8
6200LEVEL
 62
13
 10
-223.247
 20
-695.071
 30
-939.000
 70
    32
  0
VERTEX
  8
6200LEVEL
 62
13
 10
-304.961
 20
-508.796
 30
-939.000
 70
    32
  0
VERTEX
  8
6200LEVEL
 62
13
 10
-404.052
 20
-302.375
 30
-939.000
 70
    32
  0
VERTEX
  8
6200LEVEL
 62
13
 10
-604.684
 20
148.895
 30
-939.000
 70
    32
  0
VERTEX
  8
6200LEVEL
 62
13
 10
-716.750
 20
377.521
 30
-939.000
 70
    32
  0
VERTEX
  8
6200LEVEL
 62
13
 10
-724.256
 20
364.290
 30
-939.000
 70
    32
  0
VERTEX
  8
6200LEVEL
 62
13
 10
-715.177
 20
320.191
 30
-939.000
 70
    32
  0
VERTEX
  8
6200LEVEL
 62
13
 10
-669.881
 20
183.971
 30
-939.000
 70
    32
  0
VERTEX
  8
6200LEVEL
 62
13
 10
-525.246
 20
-203.050
 30
-939.000
 70
    32
  0
VERTEX
  8
6200LEVEL
 62
13
 10
-324.872
 20
-688.712
 30
-939.000
 70
    32
  0
VERTEX
  8
6200LEVEL
 62
13
 10
-88.418
 20
-1217.770
 30
-939.000
 70
    32
  0
VERTEX
  8
6200LEVEL
 62
13
 10
68.328
 20
-1547.435
 30
-939.000
 70
    32
  0
VERTEX
  8
6200LEVEL
 62
13
 10
208.827
 20
-1833.197
 30
-939.000
 70
    32
  0
VERTEX
  8
6200LEVEL
 62
13
 10
381.256
 20
-2189.102
 30
-939.000
 70
    32
  0
VERTEX
  8
6200LEVEL
 62
13
 10
579.413
 20
-2568.568
 30
-939.000
 70
    32
  0
VERTEX
  8
6200LEVEL
 62
13
 10
683.752
 20
-2769.883
 30
-939.000
 70
    32
  0
VERTEX
  8
6200LEVEL
 62
13
 10
763.381
 20
-2928.226
 30
-939.000
 70
    32
  0
VERTEX
  8
6200LEVEL
 62
13
 10
831.334
 20
-3053.784
 30
-939.000
 70
    32
  0
VERTEX
  8
6200LEVEL
 62
13
 10
888.934
 20
-3159.507
 30
-939.000
 70
    32
  0
VERTEX
  8
6200LEVEL
 62
13
 10
951.413
 20
-3279.167
 30
-939.000
 70
    32
  0
VERTEX
  8
6200LEVEL
 62
13
 10
1001.396
 20
-3382.773
 30
-939.000
 70
    32
  0
VERTEX
  8
6200LEVEL
 62
13
 10
1045.540
 20
-3469.986
 30
-939.000
 70
    32
  0
VERTEX
  8
6200LEVEL
 62
13
 10
1083.846
 20
-3540.806
 30
-939.000
 70
    32
  0
VERTEX
  8
6200LEVEL
 62
13
 10
1131.800
 20
-3624.154
 30
-939.000
 70
    32
  0
VERTEX
  8
6200LEVEL
 62
13
 10
1159.582
 20
-3691.503
 30
-939.000
 70
    32
  0
VERTEX
  8
6200LEVEL
 62
13
 10
1155.464
 20
-3682.700
 30
-939.000
 70
    32
  0
VERTEX
  8
6200LEVEL
 62
13
 10
1138.568
 20
-3649.011
 30
-939.000
 70
    32
  0
VERTEX
  8
6200LEVEL
 62
13
 10
1111.121
 20
-3608.014
 30
-939.000
 70
    32
  0
VERTEX
  8
6200LEVEL
 62
13
 10
1082.771
 20
-3562.389
 30
-939.000
 70
    32
  0
VERTEX
  8
6200LEVEL
 62
13
 10
1049.374
 20
-3499.498
 30
-939.000
 70
    32
  0
VERTEX
  8
6200LEVEL
 62
13
 10
999.671
 20
-3414.569
 30
-939.000
 70
    32
  0
VERTEX
  8
6200LEVEL
 62
13
 10
968.191
 20
-3356.587
 30
-939.000
 70
    32
  0
VERTEX
  8
6200LEVEL
 62
13
 10
979.024
 20
-3372.726
 30
-939.000
 70
    32
  0
VERTEX
  8
6200LEVEL
 62
13
 10
897.757
 20
-3228.151
 30
-939.000
 70
    32
  0
VERTEX
  8
6200LEVEL
 62
13
 10
847.264
 20
-3144.097
 30
-939.000
 70
    32
  0
VERTEX
  8
6200LEVEL
 62
13
 10
783.402
 20
-3023.506
 30
-939.000
 70
    32
  0
VERTEX
  8
6200LEVEL
 62
13
 10
753.727
 20
-2974.778
 30
-939.000
 70
    32
  0
VERTEX
  8
6200LEVEL
 62
13
 10
756.096
 20
-2982.000
 30
-939.000
 70
    32
  0
VERTEX
  8
6200LEVEL
 62
13
 10
761.821
 20
-3002.738
 30
-939.000
 70
    32
  0
VERTEX
  8
6200LEVEL
 62
13
 10
769.604
 20
-3037.724
 30
-939.000
 70
    32
  0
VERTEX
  8
6200LEVEL
 62
13
 10
791.521
 20
-3084.843
 30
-939.000
 70
    32
  0
VERTEX
  8
6200LEVEL
 62
13
 10
800.346
 20
-3133.794
 30
-939.000
 70
    32
  0
VERTEX
  8
6200LEVEL
 62
13
 10
857.326
 20
-3233.874
 30
-939.000
 70
    32
  0
VERTEX
  8
6200LEVEL
 62
13
 10
908.832
 20
-3337.903
 30
-939.000
 70
    32
  0
VERTEX
  8
6200LEVEL
 62
13
 10
964.541
 20
-3452.400
 30
-939.000
 70
    32
  0
VERTEX
  8
6200LEVEL
 62
13
 10
1037.261
 20
-3576.547
 30
-939.000
 70
    32
  0
VERTEX
  8
6200LEVEL
 62
13
 10
1108.936
 20
-3716.269
 30
-939.000
 70
    32
  0
VERTEX
  8
6200LEVEL
 62
13
 10
1187.437
 20
-3868.828
 30
-939.000
 70
    32
  0
VERTEX
  8
6200LEVEL
 62
13
 10
1263.541
 20
-4010.328
 30
-939.000
 70
    32
  0
VERTEX
  8
6200LEVEL
 62
13
 10
1346.358
 20
-4169.010
 30
-939.000
 70
    32
  0
VERTEX
  8
6200LEVEL
 62
13
 10
1435.185
 20
-4327.721
 30
-939.000
 70
    32
  0
VERTEX
  8
6200LEVEL
 62
13
 10
1535.323
 20
-4498.875
 30
-939.000
 70
    32
  0
VERTEX
  8
6200LEVEL
 62
13
 10
1604.771
 20
-4621.020
 30
-939.000
 70
    32
  0
VERTEX
  8
6200LEVEL
 62
13
 10
1655.405
 20
-4704.566
 30
-939.000
 70
    32
  0
VERTEX
  8
6200LEVEL
 62
13
 10
1648.719
 20
-4701.066
 30
-939.000
 70
    32
  0
VERTEX
  8
6200LEVEL
 62
13
 10
1634.304
 20
-4680.102
 30
-939.000
 70
    32
  0
VERTEX
  8
6200LEVEL
 62
13
 10
1615.292
 20
-4644.184
 30
-939.000
 70
    32
  0
VERTEX
  8
6200LEVEL
 62
13
 10
1559.750
 20
-4552.710
 30
-939.000
 70
    32
  0
VERTEX
  8
6200LEVEL
 62
13
 10
1493.178
 20
-4447.776
 30
-939.000
 70
    32
  0
VERTEX
  8
6200LEVEL
 62
13
 10
1385.789
 20
-4275.154
 30
-939.000
 70
    32
  0
VERTEX
  8
6200LEVEL
 62
13
 10
1319.782
 20
-4158.342
 30
-939.000
 70
    32
  0
VERTEX
  8
6200LEVEL
 62
13
 10
1284.890
 20
-4089.018
 30
-939.000
 70
    32
  0
VERTEX
  8
6200LEVEL
 62
13
 10
1184.356
 20
-3923.224
 30
-939.000
 70
    32
  0
VERTEX
  8
6200LEVEL
 62
13
 10
1091.862
 20
-3758.023
 30
-939.000
 70
    32
  0
VERTEX
  8
6200LEVEL
 62
13
 10
1039.283
 20
-3665.731
 30
-939.000
 70
    32
  0
VERTEX
  8
6200LEVEL
 62
13
 10
989.581
 20
-3570.956
 30
-939.000
 70
    32
  0
VERTEX
  8
6200LEVEL
 62
13
 10
964.251
 20
-3522.341
 30
-939.000
 70
    32
  0
VERTEX
  8
6200LEVEL
 62
13
 10
969.044
 20
-3554.308
 30
-939.000
 70
    32
  0
VERTEX
  8
6200LEVEL
 62
13
 10
995.560
 20
-3596.687
 30
-939.000
 70
    32
  0
VERTEX
  8
6200LEVEL
 62
13
 10
1032.201
 20
-3667.592
 30
-939.000
 70
    32
  0
VERTEX
  8
6200LEVEL
 62
13
 10
1107.599
 20
-3811.630
 30
-939.000
 70
    32
  0
VERTEX
  8
6200LEVEL
 62
13
 10
1184.635
 20
-3951.748
 30
-939.000
 70
    32
  0
VERTEX
  8
6200LEVEL
 62
13
 10
1353.007
 20
-4257.291
 30
-939.000
 70
    32
  0
VERTEX
  8
6200LEVEL
 62
13
 10
1458.563
 20
-4426.668
 30
-939.000
 70
    32
  0
VERTEX
  8
6200LEVEL
 62
13
 10
1549.844
 20
-4584.420
 30
-939.000
 70
    32
  0
VERTEX
  8
6200LEVEL
 62
13
 10
1648.121
 20
-4748.493
 30
-939.000
 70
    32
  0
VERTEX
  8
6200LEVEL
 62
13
 10
1783.014
 20
-4959.941
 30
-939.000
 70
    32
  0
VERTEX
  8
6200LEVEL
 62
13
 10
1805.805
 20
-5007.850
 30
-939.000
 70
    32
  0
VERTEX
  8
6200LEVEL
 62
13
 10
1833.733
 20
-5045.151
 30
-939.000
 70
    32
  0
VERTEX
  8
6200LEVEL
 62
13
 10
1912.096
 20
-5168.679
 30
-939.000
 70
    32
  0
VERTEX
  8
6200LEVEL
 62
13
 10
2022.176
 20
-5344.475
 30
-939.000
 70
    32
  0
VERTEX
  8
6200LEVEL
 62
13
 10
2026.484
 20
-5347.718
 30
-939.000
 70
    32
  0
VERTEX
  8
6200LEVEL
 62
13
 10
2108.849
 20
-5469.978
 30
-939.000
 70
    32
  0
VERTEX
  8
6200LEVEL
 62
13
 10
2169.481
 20
-5556.379
 30
-939.000
 70
    32
  0
VERTEX
  8
6200LEVEL
 62
13
 10
2263.199
 20
-5697.964
 30
-939.000
 70
    32
  0
VERTEX
  8
6200LEVEL
 62
13
 10
2356.145
 20
-5837.978
 30
-939.000
 70
    32
  0
VERTEX
  8
6200LEVEL
 62
13
 10
2462.785
 20
-5987.266
 30
-939.000
 70
    32
  0
VERTEX
  8
6200LEVEL
 62
13
 10
2555.804
 20
-6122.766
 30
-939.000
 70
    32
  0
VERTEX
  8
6200LEVEL
 62
13
 10
2625.841
 20
-6222.907
 30
-939.000
 70
    32
  0
VERTEX
  8
6200LEVEL
 62
13
 10
2656.076
 20
-6243.499
 30
-939.000
 70
    32
  0
VERTEX
  8
6200LEVEL
 62
13
 10
2654.103
 20
-6234.596
 30
-939.000
 70
    32
  0
VERTEX
  8
6200LEVEL
 62
13
 10
2634.962
 20
-6196.542
 30
-939.000
 70
    32
  0
VERTEX
  8
6200LEVEL
 62
13
 10
2599.306
 20
-6143.255
 30
-939.000
 70
    32
  0
VERTEX
  8
6200LEVEL
 62
13
 10
2495.609
 20
-5994.814
 30
-939.000
 70
    32
  0
VERTEX
  8
6200LEVEL
 62
13
 10
2373.371
 20
-5811.985
 30
-939.000
 70
    32
  0
VERTEX
  8
6200LEVEL
 62
13
 10
2210.215
 20
-5577.542
 30
-939.000
 70
    32
  0
VERTEX
  8
6200LEVEL
 62
13
 10
2129.746
 20
-5457.850
 30
-939.000
 70
    32
  0
VERTEX
  8
6200LEVEL
 62
13
 10
2033.903
 20
-5301.925
 30
-939.000
 70
    32
  0
VERTEX
  8
6200LEVEL
 62
13
 10
2033.339
 20
-5299.732
 30
-939.000
 70
    32
  0
VERTEX
  8
6200LEVEL
 62
13
 10
2033.903
 20
-5301.925
 30
-939.000
 70
    32
  0
VERTEX
  8
6200LEVEL
 62
13
 10
2033.339
 20
-5299.732
 30
-939.000
 70
    32
  0
VERTEX
  8
6200LEVEL
 62
13
 10
1994.584
 20
-5241.930
 30
-939.000
 70
    32
  0
VERTEX
  8
6200LEVEL
 62
13
 10
1915.008
 20
-5110.954
 30
-939.000
 70
    32
  0
VERTEX
  8
6200LEVEL
 62
13
 10
1837.716
 20
-4995.383
 30
-939.000
 70
    32
  0
VERTEX
  8
6200LEVEL
 62
13
 10
1819.071
 20
-4960.114
 30
-939.000
 70
    32
  0
VERTEX
  8
6200LEVEL
 62
13
 10
1749.679
 20
-4845.644
 30
-939.000
 70
    32
  0
VERTEX
  8
6200LEVEL
 62
13
 10
1674.026
 20
-4706.458
 30
-939.000
 70
    32
  0
VERTEX
  8
6200LEVEL
 62
13
 10
1591.659
 20
-4559.936
 30
-939.000
 70
    32
  0
VERTEX
  8
6200LEVEL
 62
13
 10
1528.248
 20
-4441.658
 30
-939.000
 70
    32
  0
VERTEX
  8
6200LEVEL
 62
13
 10
1455.189
 20
-4320.698
 30
-939.000
 70
    32
  0
VERTEX
  8
6200LEVEL
 62
13
 10
1354.967
 20
-4138.032
 30
-939.000
 70
    32
  0
VERTEX
  8
6200LEVEL
 62
13
 10
1268.143
 20
-3985.895
 30
-939.000
 70
    32
  0
VERTEX
  8
6200LEVEL
 62
13
 10
1207.102
 20
-3864.993
 30
-939.000
 70
    32
  0
VERTEX
  8
6200LEVEL
 62
13
 10
1138.417
 20
-3738.138
 30
-939.000
 70
    32
  0
VERTEX
  8
6200LEVEL
 62
13
 10
1090.521
 20
-3642.771
 30
-939.000
 70
    32
  0
VERTEX
  8
6200LEVEL
 62
13
 10
1047.195
 20
-3558.520
 30
-939.000
 70
    32
  0
VERTEX
  8
6200LEVEL
 62
13
 10
999.017
 20
-3464.169
 30
-939.000
 70
    32
  0
VERTEX
  8
6200LEVEL
 62
13
 10
947.566
 20
-3367.814
 30
-939.000
 70
    32
  0
VERTEX
  8
6200LEVEL
 62
13
 10
899.415
 20
-3287.146
 30
-939.000
 70
    32
  0
VERTEX
  8
6200LEVEL
 62
13
 10
879.727
 20
-3237.911
 30
-939.000
 70
    32
  0
VERTEX
  8
6200LEVEL
 62
13
 10
876.372
 20
-3214.550
 30
-939.000
 70
    32
  0
VERTEX
  8
6200LEVEL
 62
13
 10
878.968
 20
-3213.083
 30
-939.000
 70
    32
  0
VERTEX
  8
6200LEVEL
 62
13
 10
891.042
 20
-3230.661
 30
-939.000
 70
    32
  0
VERTEX
  8
6200LEVEL
 62
13
 10
901.676
 20
-3249.481
 30
-939.000
 70
    32
  0
VERTEX
  8
6200LEVEL
 62
13
 10
923.904
 20
-3289.575
 30
-939.000
 70
    32
  0
VERTEX
  8
6200LEVEL
 62
13
 10
951.236
 20
-3344.764
 30
-939.000
 70
    32
  0
VERTEX
  8
6200LEVEL
 62
13
 10
986.919
 20
-3413.214
 30
-939.000
 70
    32
  0
VERTEX
  8
6200LEVEL
 62
13
 10
1020.402
 20
-3467.924
 30
-939.000
 70
    32
  0
VERTEX
  8
6200LEVEL
 62
13
 10
1060.823
 20
-3550.819
 30
-939.000
 70
    32
  0
VERTEX
  8
6200LEVEL
 62
13
 10
1098.311
 20
-3618.677
 30
-939.000
 70
    32
  0
VERTEX
  8
6200LEVEL
 62
13
 10
1135.150
 20
-3686.902
 30
-939.000
 70
    32
  0
VERTEX
  8
6200LEVEL
 62
13
 10
1177.912
 20
-3773.183
 30
-939.000
 70
    32
  0
VERTEX
  8
6200LEVEL
 62
13
 10
1238.898
 20
-3876.565
 30
-939.000
 70
    32
  0
VERTEX
  8
6200LEVEL
 62
13
 10
1288.234
 20
-3960.844
 30
-939.000
 70
    32
  0
VERTEX
  8
6200LEVEL
 62
13
 10
1340.534
 20
-4024.612
 30
-939.000
 70
    32
  0
VERTEX
  8
6200LEVEL
 62
13
 10
1341.072
 20
-4008.898
 30
-939.000
 70
    32
  0
VERTEX
  8
6200LEVEL
 62
13
 10
1334.981
 20
-3987.511
 30
-939.000
 70
    32
  0
VERTEX
  8
6200LEVEL
 62
13
 10
1305.363
 20
-3926.764
 30
-939.000
 70
    32
  0
VERTEX
  8
6200LEVEL
 62
13
 10
1257.750
 20
-3830.381
 30
-939.000
 70
    32
  0
VERTEX
  8
6200LEVEL
 62
13
 10
1195.212
 20
-3722.740
 30
-939.000
 70
    32
  0
VERTEX
  8
6200LEVEL
 62
13
 10
1117.558
 20
-3567.133
 30
-939.000
 70
    32
  0
VERTEX
  8
6200LEVEL
 62
13
 10
1034.008
 20
-3407.153
 30
-939.000
 70
    32
  0
VERTEX
  8
6200LEVEL
 62
13
 10
921.572
 20
-3197.570
 30
-939.000
 70
    32
  0
VERTEX
  8
6200LEVEL
 62
13
 10
692.161
 20
-2761.279
 30
-939.000
 70
    32
  0
VERTEX
  8
6200LEVEL
 62
13
 10
460.974
 20
-2309.724
 30
-939.000
 70
    32
  0
VERTEX
  8
6200LEVEL
 62
13
 10
241.917
 20
-1873.574
 30
-939.000
 70
    32
  0
VERTEX
  8
6200LEVEL
 62
13
 10
41.820
 20
-1436.129
 30
-939.000
 70
    32
  0
VERTEX
  8
6200LEVEL
 62
13
 10
-167.950
 20
-952.780
 30
-939.000
 70
    32
  0
VERTEX
  8
6200LEVEL
 62
13
 10
-305.287
 20
-643.826
 30
-939.000
 70
    32
  0
VERTEX
  8
6200LEVEL
 62
13
 10
-404.287
 20
-389.837
 30
-939.000
 70
    32
  0
VERTEX
  8
6200LEVEL
 62
13
 10
-384.767
 20
-416.050
 30
-939.000
 70
    32
  0
VERTEX
  8
6200LEVEL
 62
13
 10
-292.925
 20
-611.156
 30
-939.000
 70
    32
  0
VERTEX
  8
6200LEVEL
 62
13
 10
-203.764
 20
-806.065
 30
-939.000
 70
    32
  0
VERTEX
  8
6200LEVEL
 62
13
 10
-131.922
 20
-958.963
 30
-939.000
 70
    32
  0
VERTEX
  8
6200LEVEL
 62
13
 10
-22.112
 20
-1185.868
 30
-939.000
 70
    32
  0
VERTEX
  8
6200LEVEL
 62
13
 10
94.691
 20
-1438.787
 30
-939.000
 70
    32
  0
VERTEX
  8
6200LEVEL
 62
13
 10
187.348
 20
-1656.550
 30
-939.000
 70
    32
  0
VERTEX
  8
6200LEVEL
 62
13
 10
280.659
 20
-1834.559
 30
-939.000
 70
    32
  0
VERTEX
  8
6200LEVEL
 62
13
 10
394.249
 20
-2063.610
 30
-939.000
 70
    32
  0
VERTEX
  8
6200LEVEL
 62
13
 10
512.691
 20
-2292.914
 30
-939.000
 70
    32
  0
VERTEX
  8
6200LEVEL
 62
13
 10
591.839
 20
-2464.800
 30
-939.000
 70
    32
  0
VERTEX
  8
6200LEVEL
 62
13
 10
773.042
 20
-2822.596
 30
-939.000
 70
    32
  0
VERTEX
  8
6200LEVEL
 62
13
 10
951.679
 20
-3175.849
 30
-939.000
 70
    32
  0
VERTEX
  8
6200LEVEL
 62
13
 10
1023.268
 20
-3323.753
 30
-939.000
 70
    32
  0
VERTEX
  8
6200LEVEL
 62
13
 10
1136.603
 20
-3557.656
 30
-939.000
 70
    32
  0
VERTEX
  8
6200LEVEL
 62
13
 10
1197.757
 20
-3674.213
 30
-939.000
 70
    32
  0
VERTEX
  8
6200LEVEL
 62
13
 10
1262.465
 20
-3801.604
 30
-939.000
 70
    32
  0
VERTEX
  8
6200LEVEL
 62
13
 10
1369.541
 20
-4000.945
 30
-939.000
 70
    32
  0
VERTEX
  8
6200LEVEL
 62
13
 10
1507.364
 20
-4247.123
 30
-939.000
 70
    32
  0
VERTEX
  8
6200LEVEL
 62
13
 10
1652.862
 20
-4493.246
 30
-939.000
 70
    32
  0
VERTEX
  8
6200LEVEL
 62
13
 10
1745.356
 20
-4648.600
 30
-939.000
 70
    32
  0
VERTEX
  8
6200LEVEL
 62
13
 10
1843.210
 20
-4814.196
 30
-939.000
 70
    32
  0
VERTEX
  8
6200LEVEL
 62
13
 10
1918.272
 20
-4941.730
 30
-939.000
 70
    32
  0
VERTEX
  8
6200LEVEL
 62
13
 10
2095.423
 20
-5209.778
 30
-939.000
 70
    32
  0
VERTEX
  8
6200LEVEL
 62
13
 10
2355.393
 20
-5616.816
 30
-939.000
 70
    32
  0
VERTEX
  8
6200LEVEL
 62
13
 10
2626.507
 20
-6023.121
 30
-939.000
 70
    32
  0
VERTEX
  8
6200LEVEL
 62
13
 10
2661.880
 20
-6078.903
 30
-939.000
 70
    32
  0
VERTEX
  8
6200LEVEL
 62
13
 10
2680.611
 20
-6105.990
 30
-939.000
 70
    32
  0
VERTEX
  8
6200LEVEL
 62
13
 10
2703.857
 20
-6126.673
 30
-939.000
 70
    32
  0
VERTEX
  8
6200LEVEL
 62
13
 10
2721.235
 20
-6136.973
 30
-939.000
 70
    32
  0
SEQEND
  8
6200LEVEL
  0
ENDSEC
  0
EOF
