999
********************************
999
*   DXF File - Entities Only   *
999
*        3D Data Format        *
999
*     Output from ENVISAGE     *
999
*     28-Dec-2007 14:08:18     *
999
********************************
  0
SECTION 
  2
HEADER
  9
$ACADVER
  1
AC1009
  9
$EXTMIN
 10
-290000.000
 20
-250000.000
 30
-4000.000
  9
$EXTMAX
 10
5000000.000
 20
600000.000
 30
6000.000
  0
ENDSEC
  0
SECTION
  2
ENTITIES
  0
LINE
  8
6350LEVEL
 62
3
 10
6366.309
 20
-11066.678
 30
-1114.000
 11
6383.192
 21
-11105.944
 31
-1114.000
  0
POLYLINE
  8
6350LEVEL
 62
13
 66
     1
 70
     8
  0
VERTEX
  8
6350LEVEL
 62
13
 10
2097.526
 20
-7727.212
 30
-1114.000
 70
    32
  0
VERTEX
  8
6350LEVEL
 62
13
 10
2026.812
 20
-7645.047
 30
-1114.000
 70
    32
  0
VERTEX
  8
6350LEVEL
 62
13
 10
1873.292
 20
-7451.632
 30
-1114.000
 70
    32
  0
VERTEX
  8
6350LEVEL
 62
13
 10
1879.433
 20
-7489.222
 30
-1114.000
 70
    32
  0
VERTEX
  8
6350LEVEL
 62
13
 10
1839.177
 20
-7433.862
 30
-1114.000
 70
    32
  0
VERTEX
  8
6350LEVEL
 62
13
 10
1769.734
 20
-7340.561
 30
-1114.000
 70
    32
  0
VERTEX
  8
6350LEVEL
 62
13
 10
1708.145
 20
-7266.174
 30
-1114.000
 70
    32
  0
VERTEX
  8
6350LEVEL
 62
13
 10
1669.383
 20
-7070.148
 30
-1114.000
 70
    32
  0
VERTEX
  8
6350LEVEL
 62
13
 10
1619.275
 20
-6996.787
 30
-1114.000
 70
    32
  0
VERTEX
  8
6350LEVEL
 62
13
 10
1609.773
 20
-6961.279
 30
-1114.000
 70
    32
  0
VERTEX
  8
6350LEVEL
 62
13
 10
1618.616
 20
-6846.591
 30
-1114.000
 70
    32
  0
VERTEX
  8
6350LEVEL
 62
13
 10
1608.695
 20
-6831.404
 30
-1114.000
 70
    32
  0
VERTEX
  8
6350LEVEL
 62
13
 10
1521.802
 20
-6819.481
 30
-1114.000
 70
    32
  0
VERTEX
  8
6350LEVEL
 62
13
 10
1481.035
 20
-6815.626
 30
-1114.000
 70
    32
  0
VERTEX
  8
6350LEVEL
 62
13
 10
1505.337
 20
-6734.428
 30
-1114.000
 70
    32
  0
VERTEX
  8
6350LEVEL
 62
13
 10
1452.583
 20
-6604.451
 30
-1114.000
 70
    32
  0
VERTEX
  8
6350LEVEL
 62
13
 10
1450.368
 20
-6536.039
 30
-1114.000
 70
    32
  0
VERTEX
  8
6350LEVEL
 62
13
 10
1446.158
 20
-6472.938
 30
-1114.000
 70
    32
  0
VERTEX
  8
6350LEVEL
 62
13
 10
1430.966
 20
-6410.527
 30
-1114.000
 70
    32
  0
VERTEX
  8
6350LEVEL
 62
13
 10
1363.561
 20
-6302.936
 30
-1114.000
 70
    32
  0
VERTEX
  8
6350LEVEL
 62
13
 10
1348.378
 20
-6241.615
 30
-1114.000
 70
    32
  0
VERTEX
  8
6350LEVEL
 62
13
 10
1348.437
 20
-6207.869
 30
-1114.000
 70
    32
  0
VERTEX
  8
6350LEVEL
 62
13
 10
1311.305
 20
-6090.378
 30
-1114.000
 70
    32
  0
VERTEX
  8
6350LEVEL
 62
13
 10
1298.264
 20
-6071.813
 30
-1114.000
 70
    32
  0
VERTEX
  8
6350LEVEL
 62
13
 10
1287.418
 20
-6074.009
 30
-1114.000
 70
    32
  0
VERTEX
  8
6350LEVEL
 62
13
 10
1263.896
 20
-6024.378
 30
-1114.000
 70
    32
  0
VERTEX
  8
6350LEVEL
 62
13
 10
1263.806
 20
-5932.284
 30
-1114.000
 70
    32
  0
VERTEX
  8
6350LEVEL
 62
13
 10
1243.597
 20
-5887.394
 30
-1114.000
 70
    32
  0
VERTEX
  8
6350LEVEL
 62
13
 10
1211.314
 20
-5705.384
 30
-1114.000
 70
    32
  0
VERTEX
  8
6350LEVEL
 62
13
 10
1219.924
 20
-5594.709
 30
-1114.000
 70
    32
  0
VERTEX
  8
6350LEVEL
 62
13
 10
1225.237
 20
-5581.896
 30
-1114.000
 70
    32
  0
VERTEX
  8
6350LEVEL
 62
13
 10
1234.312
 20
-5606.768
 30
-1114.000
 70
    32
  0
VERTEX
  8
6350LEVEL
 62
13
 10
1287.683
 20
-5792.723
 30
-1114.000
 70
    32
  0
VERTEX
  8
6350LEVEL
 62
13
 10
1301.532
 20
-5996.285
 30
-1114.000
 70
    32
  0
VERTEX
  8
6350LEVEL
 62
13
 10
1379.254
 20
-6111.246
 30
-1114.000
 70
    32
  0
VERTEX
  8
6350LEVEL
 62
13
 10
1461.242
 20
-6215.679
 30
-1114.000
 70
    32
  0
VERTEX
  8
6350LEVEL
 62
13
 10
1513.436
 20
-6354.032
 30
-1114.000
 70
    32
  0
VERTEX
  8
6350LEVEL
 62
13
 10
1501.246
 20
-6452.088
 30
-1114.000
 70
    32
  0
VERTEX
  8
6350LEVEL
 62
13
 10
1528.408
 20
-6613.339
 30
-1114.000
 70
    32
  0
VERTEX
  8
6350LEVEL
 62
13
 10
1536.142
 20
-6621.697
 30
-1114.000
 70
    32
  0
VERTEX
  8
6350LEVEL
 62
13
 10
1551.622
 20
-6598.128
 30
-1114.000
 70
    32
  0
VERTEX
  8
6350LEVEL
 62
13
 10
1570.312
 20
-6614.036
 30
-1114.000
 70
    32
  0
VERTEX
  8
6350LEVEL
 62
13
 10
1592.219
 20
-6610.780
 30
-1114.000
 70
    32
  0
VERTEX
  8
6350LEVEL
 62
13
 10
1589.112
 20
-6471.765
 30
-1114.000
 70
    32
  0
SEQEND
  8
6350LEVEL
  0
POLYLINE
  8
6350LEVEL
 62
13
 66
     1
 70
     8
  0
VERTEX
  8
6350LEVEL
 62
13
 10
1036.842
 20
-7087.928
 30
-1114.000
 70
    32
  0
VERTEX
  8
6350LEVEL
 62
13
 10
1079.473
 20
-7176.299
 30
-1114.000
 70
    32
  0
VERTEX
  8
6350LEVEL
 62
13
 10
1093.369
 20
-7234.490
 30
-1114.000
 70
    32
  0
VERTEX
  8
6350LEVEL
 62
13
 10
1081.688
 20
-7342.571
 30
-1114.000
 70
    32
  0
VERTEX
  8
6350LEVEL
 62
13
 10
1044.293
 20
-7224.733
 30
-1114.000
 70
    32
  0
VERTEX
  8
6350LEVEL
 62
13
 10
992.755
 20
-7128.623
 30
-1114.000
 70
    32
  0
SEQEND
  8
6350LEVEL
  0
POLYLINE
  8
6350LEVEL
 62
3
 66
     1
 70
     8
  0
VERTEX
  8
6350LEVEL
 62
3
 10
988.841
 20
-6424.696
 30
-1114.000
 70
    32
  0
VERTEX
  8
6350LEVEL
 62
3
 10
978.181
 20
-6315.113
 30
-1114.000
 70
    32
  0
VERTEX
  8
6350LEVEL
 62
3
 10
981.600
 20
-6304.720
 30
-1114.000
 70
    32
  0
SEQEND
  8
6350LEVEL
  0
POLYLINE
  8
6350LEVEL
 62
7
 66
     1
 70
     9
  0
VERTEX
  8
6350LEVEL
 62
7
 10
1039.917
 20
-5901.654
 30
-1114.000
 70
    32
  0
VERTEX
  8
6350LEVEL
 62
7
 10
1050.958
 20
-5926.948
 30
-1114.000
 70
    32
  0
VERTEX
  8
6350LEVEL
 62
7
 10
1047.102
 20
-5984.135
 30
-1114.000
 70
    32
  0
VERTEX
  8
6350LEVEL
 62
7
 10
1034.994
 20
-5997.739
 30
-1114.000
 70
    32
  0
VERTEX
  8
6350LEVEL
 62
7
 10
1020.142
 20
-5958.085
 30
-1114.000
 70
    32
  0
VERTEX
  8
6350LEVEL
 62
7
 10
1009.568
 20
-5889.144
 30
-1114.000
 70
    32
  0
VERTEX
  8
6350LEVEL
 62
7
 10
1017.578
 20
-5827.698
 30
-1114.000
 70
    32
  0
VERTEX
  8
6350LEVEL
 62
7
 10
1028.851
 20
-5878.845
 30
-1114.000
 70
    32
  0
VERTEX
  8
6350LEVEL
 62
7
 10
1043.278
 20
-5902.109
 30
-1114.000
 70
    32
  0
SEQEND
  8
6350LEVEL
  0
POLYLINE
  8
6350LEVEL
 62
13
 66
     1
 70
     8
  0
VERTEX
  8
6350LEVEL
 62
13
 10
2880.965
 20
-8978.775
 30
-1114.000
 70
    32
  0
VERTEX
  8
6350LEVEL
 62
13
 10
2937.870
 20
-9019.554
 30
-1114.000
 70
    32
  0
VERTEX
  8
6350LEVEL
 62
13
 10
2997.787
 20
-9092.844
 30
-1114.000
 70
    32
  0
VERTEX
  8
6350LEVEL
 62
13
 10
3026.091
 20
-9153.763
 30
-1114.000
 70
    32
  0
VERTEX
  8
6350LEVEL
 62
13
 10
3027.739
 20
-9164.564
 30
-1114.000
 70
    32
  0
VERTEX
  8
6350LEVEL
 62
13
 10
3009.949
 20
-9152.355
 30
-1114.000
 70
    32
  0
VERTEX
  8
6350LEVEL
 62
13
 10
2976.893
 20
-9073.681
 30
-1114.000
 70
    32
  0
VERTEX
  8
6350LEVEL
 62
13
 10
2933.854
 20
-9030.832
 30
-1114.000
 70
    32
  0
VERTEX
  8
6350LEVEL
 62
13
 10
2977.528
 20
-9106.900
 30
-1114.000
 70
    32
  0
VERTEX
  8
6350LEVEL
 62
13
 10
3002.750
 20
-9175.646
 30
-1114.000
 70
    32
  0
VERTEX
  8
6350LEVEL
 62
13
 10
2967.173
 20
-9109.853
 30
-1114.000
 70
    32
  0
VERTEX
  8
6350LEVEL
 62
13
 10
2909.948
 20
-9035.061
 30
-1114.000
 70
    32
  0
VERTEX
  8
6350LEVEL
 62
13
 10
2846.988
 20
-8989.137
 30
-1114.000
 70
    32
  0
SEQEND
  8
6350LEVEL
  0
POLYLINE
  8
6350LEVEL
 62
13
 66
     1
 70
     8
  0
VERTEX
  8
6350LEVEL
 62
13
 10
2877.459
 20
-8798.417
 30
-1114.000
 70
    32
  0
VERTEX
  8
6350LEVEL
 62
13
 10
2809.072
 20
-8743.899
 30
-1114.000
 70
    32
  0
VERTEX
  8
6350LEVEL
 62
13
 10
2777.962
 20
-8704.843
 30
-1114.000
 70
    32
  0
VERTEX
  8
6350LEVEL
 62
13
 10
2690.266
 20
-8523.106
 30
-1114.000
 70
    32
  0
VERTEX
  8
6350LEVEL
 62
13
 10
2713.879
 20
-8676.099
 30
-1114.000
 70
    32
  0
VERTEX
  8
6350LEVEL
 62
13
 10
2737.762
 20
-8722.576
 30
-1114.000
 70
    32
  0
VERTEX
  8
6350LEVEL
 62
13
 10
2786.816
 20
-8777.636
 30
-1114.000
 70
    32
  0
SEQEND
  8
6350LEVEL
  0
POLYLINE
  8
6350LEVEL
 62
13
 66
     1
 70
     8
  0
VERTEX
  8
6350LEVEL
 62
13
 10
2810.218
 20
-8959.435
 30
-1114.000
 70
    32
  0
VERTEX
  8
6350LEVEL
 62
13
 10
2714.938
 20
-8845.169
 30
-1114.000
 70
    32
  0
VERTEX
  8
6350LEVEL
 62
13
 10
2703.862
 20
-8856.891
 30
-1114.000
 70
    32
  0
VERTEX
  8
6350LEVEL
 62
13
 10
2705.272
 20
-8894.725
 30
-1114.000
 70
    32
  0
VERTEX
  8
6350LEVEL
 62
13
 10
2759.676
 20
-8970.326
 30
-1114.000
 70
    32
  0
SEQEND
  8
6350LEVEL
  0
POLYLINE
  8
6350LEVEL
 62
13
 66
     1
 70
     8
  0
VERTEX
  8
6350LEVEL
 62
13
 10
2816.135
 20
-8819.071
 30
-1114.000
 70
    32
  0
VERTEX
  8
6350LEVEL
 62
13
 10
2812.694
 20
-8929.650
 30
-1114.000
 70
    32
  0
VERTEX
  8
6350LEVEL
 62
13
 10
2827.341
 20
-8952.270
 30
-1114.000
 70
    32
  0
SEQEND
  8
6350LEVEL
  0
POLYLINE
  8
6350LEVEL
 62
13
 66
     1
 70
     8
  0
VERTEX
  8
6350LEVEL
 62
13
 10
2802.612
 20
-9000.780
 30
-1114.000
 70
    32
  0
VERTEX
  8
6350LEVEL
 62
13
 10
2839.122
 20
-9026.247
 30
-1114.000
 70
    32
  0
VERTEX
  8
6350LEVEL
 62
13
 10
2875.876
 20
-9079.912
 30
-1114.000
 70
    32
  0
VERTEX
  8
6350LEVEL
 62
13
 10
2916.341
 20
-9176.233
 30
-1114.000
 70
    32
  0
SEQEND
  8
6350LEVEL
  0
POLYLINE
  8
6350LEVEL
 62
13
 66
     1
 70
     8
  0
VERTEX
  8
6350LEVEL
 62
13
 10
1376.306
 20
-8283.258
 30
-1114.000
 70
    32
  0
VERTEX
  8
6350LEVEL
 62
13
 10
1365.671
 20
-8223.954
 30
-1114.000
 70
    32
  0
VERTEX
  8
6350LEVEL
 62
13
 10
1384.471
 20
-8141.414
 30
-1114.000
 70
    32
  0
VERTEX
  8
6350LEVEL
 62
13
 10
1358.458
 20
-8209.444
 30
-1114.000
 70
    32
  0
VERTEX
  8
6350LEVEL
 62
13
 10
1362.178
 20
-8283.056
 30
-1114.000
 70
    32
  0
SEQEND
  8
6350LEVEL
  0
POLYLINE
  8
6350LEVEL
 62
7
 66
     1
 70
     8
  0
VERTEX
  8
6350LEVEL
 62
7
 10
1994.456
 20
-8085.735
 30
-1114.000
 70
    32
  0
VERTEX
  8
6350LEVEL
 62
7
 10
1959.178
 20
-8043.003
 30
-1114.000
 70
    32
  0
VERTEX
  8
6350LEVEL
 62
7
 10
1935.594
 20
-8049.454
 30
-1114.000
 70
    32
  0
VERTEX
  8
6350LEVEL
 62
7
 10
1968.953
 20
-8104.058
 30
-1114.000
 70
    32
  0
SEQEND
  8
6350LEVEL
  0
POLYLINE
  8
6350LEVEL
 62
13
 66
     1
 70
     8
  0
VERTEX
  8
6350LEVEL
 62
13
 10
2202.617
 20
-7376.773
 30
-1114.000
 70
    32
  0
VERTEX
  8
6350LEVEL
 62
13
 10
2139.002
 20
-7268.762
 30
-1114.000
 70
    32
  0
VERTEX
  8
6350LEVEL
 62
13
 10
2084.327
 20
-7113.118
 30
-1114.000
 70
    32
  0
VERTEX
  8
6350LEVEL
 62
13
 10
2008.626
 20
-6938.139
 30
-1114.000
 70
    32
  0
VERTEX
  8
6350LEVEL
 62
13
 10
1967.553
 20
-6860.091
 30
-1114.000
 70
    32
  0
VERTEX
  8
6350LEVEL
 62
13
 10
1951.745
 20
-6844.728
 30
-1114.000
 70
    32
  0
VERTEX
  8
6350LEVEL
 62
13
 10
1953.355
 20
-6874.190
 30
-1114.000
 70
    32
  0
VERTEX
  8
6350LEVEL
 62
13
 10
1999.852
 20
-7014.415
 30
-1114.000
 70
    32
  0
VERTEX
  8
6350LEVEL
 62
13
 10
2063.823
 20
-7147.363
 30
-1114.000
 70
    32
  0
VERTEX
  8
6350LEVEL
 62
13
 10
2092.220
 20
-7262.737
 30
-1114.000
 70
    32
  0
VERTEX
  8
6350LEVEL
 62
13
 10
2164.235
 20
-7416.685
 30
-1114.000
 70
    32
  0
SEQEND
  8
6350LEVEL
  0
POLYLINE
  8
6350LEVEL
 62
7
 66
     1
 70
     8
  0
VERTEX
  8
6350LEVEL
 62
7
 10
2072.407
 20
-7451.536
 30
-1114.000
 70
    32
  0
VERTEX
  8
6350LEVEL
 62
7
 10
2022.771
 20
-7376.995
 30
-1114.000
 70
    32
  0
VERTEX
  8
6350LEVEL
 62
7
 10
1990.150
 20
-7310.046
 30
-1114.000
 70
    32
  0
VERTEX
  8
6350LEVEL
 62
7
 10
1954.179
 20
-7232.222
 30
-1114.000
 70
    32
  0
VERTEX
  8
6350LEVEL
 62
7
 10
1922.212
 20
-7129.430
 30
-1114.000
 70
    32
  0
VERTEX
  8
6350LEVEL
 62
7
 10
1882.436
 20
-7049.846
 30
-1114.000
 70
    32
  0
VERTEX
  8
6350LEVEL
 62
7
 10
1842.925
 20
-7024.585
 30
-1114.000
 70
    32
  0
VERTEX
  8
6350LEVEL
 62
7
 10
1835.615
 20
-7032.617
 30
-1114.000
 70
    32
  0
VERTEX
  8
6350LEVEL
 62
7
 10
1854.521
 20
-7102.064
 30
-1114.000
 70
    32
  0
VERTEX
  8
6350LEVEL
 62
7
 10
1795.788
 20
-7047.600
 30
-1114.000
 70
    32
  0
VERTEX
  8
6350LEVEL
 62
7
 10
1793.695
 20
-7059.605
 30
-1114.000
 70
    32
  0
VERTEX
  8
6350LEVEL
 62
7
 10
1863.988
 20
-7174.587
 30
-1114.000
 70
    32
  0
VERTEX
  8
6350LEVEL
 62
7
 10
1857.744
 20
-7179.342
 30
-1114.000
 70
    32
  0
VERTEX
  8
6350LEVEL
 62
7
 10
1803.790
 20
-7158.502
 30
-1114.000
 70
    32
  0
VERTEX
  8
6350LEVEL
 62
7
 10
1770.389
 20
-7134.069
 30
-1114.000
 70
    32
  0
VERTEX
  8
6350LEVEL
 62
7
 10
1716.453
 20
-7109.654
 30
-1114.000
 70
    32
  0
VERTEX
  8
6350LEVEL
 62
7
 10
1713.363
 20
-7116.391
 30
-1114.000
 70
    32
  0
VERTEX
  8
6350LEVEL
 62
7
 10
1736.785
 20
-7159.384
 30
-1114.000
 70
    32
  0
VERTEX
  8
6350LEVEL
 62
7
 10
1780.498
 20
-7206.275
 30
-1114.000
 70
    32
  0
VERTEX
  8
6350LEVEL
 62
7
 10
1861.010
 20
-7330.662
 30
-1114.000
 70
    32
  0
VERTEX
  8
6350LEVEL
 62
7
 10
1996.790
 20
-7565.767
 30
-1114.000
 70
    32
  0
SEQEND
  8
6350LEVEL
  0
POLYLINE
  8
6350LEVEL
 62
13
 66
     1
 70
     9
  0
VERTEX
  8
6350LEVEL
 62
13
 10
1389.363
 20
-7369.850
 30
-1114.000
 70
    32
  0
VERTEX
  8
6350LEVEL
 62
13
 10
1397.119
 20
-7412.819
 30
-1114.000
 70
    32
  0
VERTEX
  8
6350LEVEL
 62
13
 10
1380.041
 20
-7372.112
 30
-1114.000
 70
    32
  0
VERTEX
  8
6350LEVEL
 62
13
 10
1358.440
 20
-7273.044
 30
-1114.000
 70
    32
  0
VERTEX
  8
6350LEVEL
 62
13
 10
1345.481
 20
-7158.822
 30
-1114.000
 70
    32
  0
VERTEX
  8
6350LEVEL
 62
13
 10
1351.899
 20
-7047.219
 30
-1114.000
 70
    32
  0
VERTEX
  8
6350LEVEL
 62
13
 10
1342.622
 20
-7006.609
 30
-1114.000
 70
    32
  0
VERTEX
  8
6350LEVEL
 62
13
 10
1351.607
 20
-6941.406
 30
-1114.000
 70
    32
  0
VERTEX
  8
6350LEVEL
 62
13
 10
1371.853
 20
-6894.876
 30
-1114.000
 70
    32
  0
VERTEX
  8
6350LEVEL
 62
13
 10
1378.584
 20
-6850.173
 30
-1114.000
 70
    32
  0
VERTEX
  8
6350LEVEL
 62
13
 10
1387.768
 20
-6882.888
 30
-1114.000
 70
    32
  0
VERTEX
  8
6350LEVEL
 62
13
 10
1374.933
 20
-6971.319
 30
-1114.000
 70
    32
  0
VERTEX
  8
6350LEVEL
 62
13
 10
1384.616
 20
-7007.785
 30
-1114.000
 70
    32
  0
VERTEX
  8
6350LEVEL
 62
13
 10
1362.533
 20
-7090.289
 30
-1114.000
 70
    32
  0
VERTEX
  8
6350LEVEL
 62
13
 10
1358.213
 20
-7150.001
 30
-1114.000
 70
    32
  0
VERTEX
  8
6350LEVEL
 62
13
 10
1389.361
 20
-7250.200
 30
-1114.000
 70
    32
  0
VERTEX
  8
6350LEVEL
 62
13
 10
1385.952
 20
-7367.136
 30
-1114.000
 70
    32
  0
SEQEND
  8
6350LEVEL
  0
POLYLINE
  8
6350LEVEL
 62
13
 66
     1
 70
     9
  0
VERTEX
  8
6350LEVEL
 62
13
 10
1425.686
 20
-6248.507
 30
-1114.000
 70
    32
  0
VERTEX
  8
6350LEVEL
 62
13
 10
1439.756
 20
-6306.566
 30
-1114.000
 70
    32
  0
VERTEX
  8
6350LEVEL
 62
13
 10
1431.407
 20
-6309.635
 30
-1114.000
 70
    32
  0
VERTEX
  8
6350LEVEL
 62
13
 10
1422.549
 20
-6332.546
 30
-1114.000
 70
    32
  0
VERTEX
  8
6350LEVEL
 62
13
 10
1373.274
 20
-6295.541
 30
-1114.000
 70
    32
  0
VERTEX
  8
6350LEVEL
 62
13
 10
1361.507
 20
-6266.415
 30
-1114.000
 70
    32
  0
VERTEX
  8
6350LEVEL
 62
13
 10
1363.605
 20
-6237.144
 30
-1114.000
 70
    32
  0
VERTEX
  8
6350LEVEL
 62
13
 10
1379.950
 20
-6278.401
 30
-1114.000
 70
    32
  0
VERTEX
  8
6350LEVEL
 62
13
 10
1397.370
 20
-6287.604
 30
-1114.000
 70
    32
  0
VERTEX
  8
6350LEVEL
 62
13
 10
1388.377
 20
-6172.524
 30
-1114.000
 70
    32
  0
VERTEX
  8
6350LEVEL
 62
13
 10
1400.645
 20
-6180.718
 30
-1114.000
 70
    32
  0
VERTEX
  8
6350LEVEL
 62
13
 10
1415.401
 20
-6237.159
 30
-1114.000
 70
    32
  0
SEQEND
  8
6350LEVEL
  0
POLYLINE
  8
6350LEVEL
 62
7
 66
     1
 70
     9
  0
VERTEX
  8
6350LEVEL
 62
7
 10
5278.859
 20
-9601.592
 30
-1114.000
 70
    32
  0
VERTEX
  8
6350LEVEL
 62
7
 10
5279.330
 20
-9634.962
 30
-1114.000
 70
    32
  0
VERTEX
  8
6350LEVEL
 62
7
 10
5253.356
 20
-9612.538
 30
-1114.000
 70
    32
  0
VERTEX
  8
6350LEVEL
 62
7
 10
5267.665
 20
-9569.797
 30
-1114.000
 70
    32
  0
VERTEX
  8
6350LEVEL
 62
7
 10
5274.881
 20
-9574.541
 30
-1114.000
 70
    32
  0
VERTEX
  8
6350LEVEL
 62
7
 10
5277.065
 20
-9599.118
 30
-1114.000
 70
    32
  0
SEQEND
  8
6350LEVEL
  0
POLYLINE
  8
6350LEVEL
 62
7
 66
     1
 70
     8
  0
VERTEX
  8
6350LEVEL
 62
7
 10
3813.498
 20
-9524.675
 30
-1114.000
 70
    32
  0
VERTEX
  8
6350LEVEL
 62
7
 10
3776.721
 20
-9408.010
 30
-1114.000
 70
    32
  0
VERTEX
  8
6350LEVEL
 62
7
 10
3603.274
 20
-9000.313
 30
-1114.000
 70
    32
  0
VERTEX
  8
6350LEVEL
 62
7
 10
3610.112
 20
-9142.789
 30
-1114.000
 70
    32
  0
VERTEX
  8
6350LEVEL
 62
7
 10
3630.023
 20
-9218.594
 30
-1114.000
 70
    32
  0
VERTEX
  8
6350LEVEL
 62
7
 10
3761.308
 20
-9488.520
 30
-1114.000
 70
    32
  0
VERTEX
  8
6350LEVEL
 62
7
 10
3721.553
 20
-9447.826
 30
-1114.000
 70
    32
  0
VERTEX
  8
6350LEVEL
 62
7
 10
3600.377
 20
-9260.622
 30
-1114.000
 70
    32
  0
VERTEX
  8
6350LEVEL
 62
7
 10
3586.615
 20
-9250.826
 30
-1114.000
 70
    32
  0
VERTEX
  8
6350LEVEL
 62
7
 10
3625.890
 20
-9351.341
 30
-1114.000
 70
    32
  0
VERTEX
  8
6350LEVEL
 62
7
 10
3543.885
 20
-9250.483
 30
-1114.000
 70
    32
  0
VERTEX
  8
6350LEVEL
 62
7
 10
3612.166
 20
-9412.480
 30
-1114.000
 70
    32
  0
VERTEX
  8
6350LEVEL
 62
7
 10
3511.618
 20
-9273.957
 30
-1114.000
 70
    32
  0
VERTEX
  8
6350LEVEL
 62
7
 10
3491.933
 20
-9187.294
 30
-1114.000
 70
    32
  0
VERTEX
  8
6350LEVEL
 62
7
 10
3522.777
 20
-9028.455
 30
-1114.000
 70
    32
  0
VERTEX
  8
6350LEVEL
 62
7
 10
3514.059
 20
-8933.166
 30
-1114.000
 70
    32
  0
VERTEX
  8
6350LEVEL
 62
7
 10
3468.875
 20
-8823.451
 30
-1114.000
 70
    32
  0
VERTEX
  8
6350LEVEL
 62
7
 10
3446.570
 20
-8891.672
 30
-1114.000
 70
    32
  0
VERTEX
  8
6350LEVEL
 62
7
 10
3426.380
 20
-8837.451
 30
-1114.000
 70
    32
  0
VERTEX
  8
6350LEVEL
 62
7
 10
3389.962
 20
-8973.137
 30
-1114.000
 70
    32
  0
VERTEX
  8
6350LEVEL
 62
7
 10
3418.668
 20
-9160.884
 30
-1114.000
 70
    32
  0
VERTEX
  8
6350LEVEL
 62
7
 10
3449.335
 20
-9276.722
 30
-1114.000
 70
    32
  0
VERTEX
  8
6350LEVEL
 62
7
 10
3446.022
 20
-9282.807
 30
-1114.000
 70
    32
  0
VERTEX
  8
6350LEVEL
 62
7
 10
3430.098
 20
-9269.451
 30
-1114.000
 70
    32
  0
VERTEX
  8
6350LEVEL
 62
7
 10
3377.849
 20
-9147.579
 30
-1114.000
 70
    32
  0
VERTEX
  8
6350LEVEL
 62
7
 10
3294.317
 20
-8986.783
 30
-1114.000
 70
    32
  0
VERTEX
  8
6350LEVEL
 62
7
 10
3301.732
 20
-8897.568
 30
-1114.000
 70
    32
  0
VERTEX
  8
6350LEVEL
 62
7
 10
3334.297
 20
-8843.180
 30
-1114.000
 70
    32
  0
VERTEX
  8
6350LEVEL
 62
7
 10
3365.252
 20
-8813.307
 30
-1114.000
 70
    32
  0
VERTEX
  8
6350LEVEL
 62
7
 10
3385.742
 20
-8771.128
 30
-1114.000
 70
    32
  0
VERTEX
  8
6350LEVEL
 62
7
 10
3358.156
 20
-8737.060
 30
-1114.000
 70
    32
  0
VERTEX
  8
6350LEVEL
 62
7
 10
3314.261
 20
-8737.228
 30
-1114.000
 70
    32
  0
VERTEX
  8
6350LEVEL
 62
7
 10
3288.426
 20
-8726.734
 30
-1114.000
 70
    32
  0
VERTEX
  8
6350LEVEL
 62
7
 10
3191.823
 20
-8694.935
 30
-1114.000
 70
    32
  0
VERTEX
  8
6350LEVEL
 62
7
 10
3160.643
 20
-8670.180
 30
-1114.000
 70
    32
  0
VERTEX
  8
6350LEVEL
 62
7
 10
3029.191
 20
-8466.963
 30
-1114.000
 70
    32
  0
VERTEX
  8
6350LEVEL
 62
7
 10
2961.851
 20
-8392.202
 30
-1114.000
 70
    32
  0
VERTEX
  8
6350LEVEL
 62
7
 10
2942.649
 20
-8377.780
 30
-1114.000
 70
    32
  0
VERTEX
  8
6350LEVEL
 62
7
 10
2932.815
 20
-8380.337
 30
-1114.000
 70
    32
  0
VERTEX
  8
6350LEVEL
 62
7
 10
2950.255
 20
-8464.051
 30
-1114.000
 70
    32
  0
VERTEX
  8
6350LEVEL
 62
7
 10
3002.033
 20
-8587.103
 30
-1114.000
 70
    32
  0
VERTEX
  8
6350LEVEL
 62
7
 10
3120.965
 20
-8788.822
 30
-1114.000
 70
    32
  0
VERTEX
  8
6350LEVEL
 62
7
 10
3127.064
 20
-8800.311
 30
-1114.000
 70
    32
  0
VERTEX
  8
6350LEVEL
 62
7
 10
3214.081
 20
-8937.186
 30
-1114.000
 70
    32
  0
VERTEX
  8
6350LEVEL
 62
7
 10
3272.491
 20
-9054.914
 30
-1114.000
 70
    32
  0
VERTEX
  8
6350LEVEL
 62
7
 10
3254.025
 20
-9039.658
 30
-1114.000
 70
    32
  0
VERTEX
  8
6350LEVEL
 62
7
 10
3108.897
 20
-8812.331
 30
-1114.000
 70
    32
  0
VERTEX
  8
6350LEVEL
 62
7
 10
3100.221
 20
-8802.860
 30
-1114.000
 70
    32
  0
VERTEX
  8
6350LEVEL
 62
7
 10
2974.905
 20
-8657.627
 30
-1114.000
 70
    32
  0
VERTEX
  8
6350LEVEL
 62
7
 10
2852.239
 20
-8451.555
 30
-1114.000
 70
    32
  0
VERTEX
  8
6350LEVEL
 62
7
 10
2872.131
 20
-8506.825
 30
-1114.000
 70
    32
  0
VERTEX
  8
6350LEVEL
 62
7
 10
2868.257
 20
-8513.611
 30
-1114.000
 70
    32
  0
VERTEX
  8
6350LEVEL
 62
7
 10
2845.708
 20
-8482.559
 30
-1114.000
 70
    32
  0
VERTEX
  8
6350LEVEL
 62
7
 10
2732.301
 20
-8266.697
 30
-1114.000
 70
    32
  0
VERTEX
  8
6350LEVEL
 62
7
 10
2684.749
 20
-8149.195
 30
-1114.000
 70
    32
  0
VERTEX
  8
6350LEVEL
 62
7
 10
2795.195
 20
-8467.318
 30
-1114.000
 70
    32
  0
VERTEX
  8
6350LEVEL
 62
7
 10
2892.868
 20
-8671.872
 30
-1114.000
 70
    32
  0
VERTEX
  8
6350LEVEL
 62
7
 10
2976.788
 20
-8772.367
 30
-1114.000
 70
    32
  0
VERTEX
  8
6350LEVEL
 62
7
 10
3016.516
 20
-8833.238
 30
-1114.000
 70
    32
  0
VERTEX
  8
6350LEVEL
 62
7
 10
3024.242
 20
-8855.743
 30
-1114.000
 70
    32
  0
VERTEX
  8
6350LEVEL
 62
7
 10
3052.751
 20
-8953.448
 30
-1114.000
 70
    32
  0
VERTEX
  8
6350LEVEL
 62
7
 10
3049.197
 20
-8998.076
 30
-1114.000
 70
    32
  0
VERTEX
  8
6350LEVEL
 62
7
 10
3019.347
 20
-8940.524
 30
-1114.000
 70
    32
  0
VERTEX
  8
6350LEVEL
 62
7
 10
2995.468
 20
-8870.548
 30
-1114.000
 70
    32
  0
VERTEX
  8
6350LEVEL
 62
7
 10
2967.961
 20
-8887.224
 30
-1114.000
 70
    32
  0
VERTEX
  8
6350LEVEL
 62
7
 10
2958.983
 20
-8931.417
 30
-1114.000
 70
    32
  0
VERTEX
  8
6350LEVEL
 62
7
 10
2942.477
 20
-8917.141
 30
-1114.000
 70
    32
  0
VERTEX
  8
6350LEVEL
 62
7
 10
2913.291
 20
-8876.604
 30
-1114.000
 70
    32
  0
VERTEX
  8
6350LEVEL
 62
7
 10
2903.029
 20
-8862.906
 30
-1114.000
 70
    32
  0
VERTEX
  8
6350LEVEL
 62
7
 10
2880.365
 20
-8854.091
 30
-1114.000
 70
    32
  0
VERTEX
  8
6350LEVEL
 62
7
 10
2881.670
 20
-8907.356
 30
-1114.000
 70
    32
  0
VERTEX
  8
6350LEVEL
 62
7
 10
2911.733
 20
-8961.426
 30
-1114.000
 70
    32
  0
VERTEX
  8
6350LEVEL
 62
7
 10
3091.301
 20
-9079.997
 30
-1114.000
 70
    32
  0
VERTEX
  8
6350LEVEL
 62
7
 10
3183.526
 20
-9189.239
 30
-1114.000
 70
    32
  0
SEQEND
  8
6350LEVEL
  0
POLYLINE
  8
6350LEVEL
 62
13
 66
     1
 70
     8
  0
VERTEX
  8
6350LEVEL
 62
13
 10
988.841
 20
-6424.696
 30
-1114.000
 70
    32
  0
VERTEX
  8
6350LEVEL
 62
13
 10
993.722
 20
-6478.244
 30
-1114.000
 70
    32
  0
VERTEX
  8
6350LEVEL
 62
13
 10
1012.197
 20
-6536.139
 30
-1114.000
 70
    32
  0
VERTEX
  8
6350LEVEL
 62
13
 10
1048.033
 20
-6577.996
 30
-1114.000
 70
    32
  0
VERTEX
  8
6350LEVEL
 62
13
 10
1060.789
 20
-6581.434
 30
-1114.000
 70
    32
  0
VERTEX
  8
6350LEVEL
 62
13
 10
1072.766
 20
-6567.657
 30
-1114.000
 70
    32
  0
VERTEX
  8
6350LEVEL
 62
13
 10
1081.393
 20
-6572.869
 30
-1114.000
 70
    32
  0
SEQEND
  8
6350LEVEL
  0
LINE
  8
6350LEVEL
 62
7
 10
1032.897
 20
-6521.156
 30
-1114.000
 11
988.841
 21
-6424.696
 31
-1114.000
  0
POLYLINE
  8
6350LEVEL
 62
7
 66
     1
 70
     8
  0
VERTEX
  8
6350LEVEL
 62
7
 10
1081.393
 20
-6572.869
 30
-1114.000
 70
    32
  0
VERTEX
  8
6350LEVEL
 62
7
 10
1066.791
 20
-6555.492
 30
-1114.000
 70
    32
  0
VERTEX
  8
6350LEVEL
 62
7
 10
1056.120
 20
-6568.824
 30
-1114.000
 70
    32
  0
VERTEX
  8
6350LEVEL
 62
7
 10
1040.424
 20
-6547.376
 30
-1114.000
 70
    32
  0
VERTEX
  8
6350LEVEL
 62
7
 10
1032.897
 20
-6521.156
 30
-1114.000
 70
    32
  0
SEQEND
  8
6350LEVEL
  0
POLYLINE
  8
6350LEVEL
 62
7
 66
     1
 70
     8
  0
VERTEX
  8
6350LEVEL
 62
7
 10
1225.835
 20
-8353.723
 30
-1114.000
 70
    32
  0
VERTEX
  8
6350LEVEL
 62
7
 10
1238.426
 20
-8298.652
 30
-1114.000
 70
    32
  0
VERTEX
  8
6350LEVEL
 62
7
 10
1299.822
 20
-8132.439
 30
-1114.000
 70
    32
  0
VERTEX
  8
6350LEVEL
 62
7
 10
1304.804
 20
-8092.204
 30
-1114.000
 70
    32
  0
VERTEX
  8
6350LEVEL
 62
7
 10
1256.484
 20
-7947.066
 30
-1114.000
 70
    32
  0
VERTEX
  8
6350LEVEL
 62
7
 10
1227.486
 20
-7826.943
 30
-1114.000
 70
    32
  0
VERTEX
  8
6350LEVEL
 62
7
 10
1206.626
 20
-7662.812
 30
-1114.000
 70
    32
  0
VERTEX
  8
6350LEVEL
 62
7
 10
1163.554
 20
-7526.006
 30
-1114.000
 70
    32
  0
VERTEX
  8
6350LEVEL
 62
7
 10
1175.501
 20
-7472.248
 30
-1114.000
 70
    32
  0
VERTEX
  8
6350LEVEL
 62
7
 10
1232.423
 20
-7391.916
 30
-1114.000
 70
    32
  0
VERTEX
  8
6350LEVEL
 62
7
 10
1230.714
 20
-7360.885
 30
-1114.000
 70
    32
  0
VERTEX
  8
6350LEVEL
 62
7
 10
1194.025
 20
-7136.747
 30
-1114.000
 70
    32
  0
VERTEX
  8
6350LEVEL
 62
7
 10
1157.832
 20
-7028.405
 30
-1114.000
 70
    32
  0
VERTEX
  8
6350LEVEL
 62
7
 10
1161.999
 20
-6982.419
 30
-1114.000
 70
    32
  0
VERTEX
  8
6350LEVEL
 62
7
 10
1196.558
 20
-6896.924
 30
-1114.000
 70
    32
  0
VERTEX
  8
6350LEVEL
 62
7
 10
1171.549
 20
-6791.752
 30
-1114.000
 70
    32
  0
VERTEX
  8
6350LEVEL
 62
7
 10
1130.624
 20
-6697.660
 30
-1114.000
 70
    32
  0
VERTEX
  8
6350LEVEL
 62
7
 10
1111.026
 20
-6636.613
 30
-1114.000
 70
    32
  0
SEQEND
  8
6350LEVEL
  0
POLYLINE
  8
6350LEVEL
 62
5
 66
     1
 70
     9
  0
VERTEX
  8
6350LEVEL
 62
5
 10
6518.402
 20
-11282.693
 30
-1114.000
 70
    32
  0
VERTEX
  8
6350LEVEL
 62
5
 10
6533.103
 20
-11308.168
 30
-1114.000
 70
    32
  0
VERTEX
  8
6350LEVEL
 62
5
 10
6515.126
 20
-11296.396
 30
-1114.000
 70
    32
  0
VERTEX
  8
6350LEVEL
 62
5
 10
6490.412
 20
-11255.258
 30
-1114.000
 70
    32
  0
VERTEX
  8
6350LEVEL
 62
5
 10
6509.138
 20
-11272.152
 30
-1114.000
 70
    32
  0
SEQEND
  8
6350LEVEL
  0
POLYLINE
  8
6350LEVEL
 62
5
 66
     1
 70
     9
  0
VERTEX
  8
6350LEVEL
 62
5
 10
6531.611
 20
-11270.415
 30
-1114.000
 70
    32
  0
VERTEX
  8
6350LEVEL
 62
5
 10
6552.906
 20
-11298.660
 30
-1114.000
 70
    32
  0
VERTEX
  8
6350LEVEL
 62
5
 10
6514.208
 20
-11260.923
 30
-1114.000
 70
    32
  0
VERTEX
  8
6350LEVEL
 62
5
 10
6510.516
 20
-11248.767
 30
-1114.000
 70
    32
  0
VERTEX
  8
6350LEVEL
 62
5
 10
6526.245
 20
-11261.901
 30
-1114.000
 70
    32
  0
SEQEND
  8
6350LEVEL
  0
POLYLINE
  8
6350LEVEL
 62
5
 66
     1
 70
     9
  0
VERTEX
  8
6350LEVEL
 62
5
 10
6421.723
 20
-11236.037
 30
-1114.000
 70
    32
  0
VERTEX
  8
6350LEVEL
 62
5
 10
6441.710
 20
-11283.300
 30
-1114.000
 70
    32
  0
VERTEX
  8
6350LEVEL
 62
5
 10
6440.122
 20
-11295.240
 30
-1114.000
 70
    32
  0
VERTEX
  8
6350LEVEL
 62
5
 10
6430.326
 20
-11274.297
 30
-1114.000
 70
    32
  0
VERTEX
  8
6350LEVEL
 62
5
 10
6376.602
 20
-11138.503
 30
-1114.000
 70
    32
  0
VERTEX
  8
6350LEVEL
 62
5
 10
6372.511
 20
-11123.939
 30
-1114.000
 70
    32
  0
VERTEX
  8
6350LEVEL
 62
5
 10
6379.569
 20
-11127.720
 30
-1114.000
 70
    32
  0
VERTEX
  8
6350LEVEL
 62
5
 10
6397.945
 20
-11166.443
 30
-1114.000
 70
    32
  0
VERTEX
  8
6350LEVEL
 62
5
 10
6416.396
 20
-11222.371
 30
-1114.000
 70
    32
  0
SEQEND
  8
6350LEVEL
  0
POLYLINE
  8
6350LEVEL
 62
5
 66
     1
 70
     9
  0
VERTEX
  8
6350LEVEL
 62
5
 10
3635.008
 20
-8581.047
 30
-1114.000
 70
    32
  0
VERTEX
  8
6350LEVEL
 62
5
 10
3567.181
 20
-8624.749
 30
-1114.000
 70
    32
  0
VERTEX
  8
6350LEVEL
 62
5
 10
3490.382
 20
-8657.747
 30
-1114.000
 70
    32
  0
VERTEX
  8
6350LEVEL
 62
5
 10
3307.110
 20
-8714.281
 30
-1114.000
 70
    32
  0
VERTEX
  8
6350LEVEL
 62
5
 10
3247.859
 20
-8768.166
 30
-1114.000
 70
    32
  0
VERTEX
  8
6350LEVEL
 62
5
 10
3152.827
 20
-8776.140
 30
-1114.000
 70
    32
  0
VERTEX
  8
6350LEVEL
 62
5
 10
3075.547
 20
-8814.984
 30
-1114.000
 70
    32
  0
VERTEX
  8
6350LEVEL
 62
5
 10
3009.510
 20
-8835.129
 30
-1114.000
 70
    32
  0
VERTEX
  8
6350LEVEL
 62
5
 10
2991.842
 20
-8827.759
 30
-1114.000
 70
    32
  0
VERTEX
  8
6350LEVEL
 62
5
 10
2983.764
 20
-8808.155
 30
-1114.000
 70
    32
  0
VERTEX
  8
6350LEVEL
 62
5
 10
2954.695
 20
-8791.930
 30
-1114.000
 70
    32
  0
VERTEX
  8
6350LEVEL
 62
5
 10
2912.099
 20
-8815.871
 30
-1114.000
 70
    32
  0
VERTEX
  8
6350LEVEL
 62
5
 10
2813.381
 20
-8778.704
 30
-1114.000
 70
    32
  0
VERTEX
  8
6350LEVEL
 62
5
 10
2775.712
 20
-8778.891
 30
-1114.000
 70
    32
  0
VERTEX
  8
6350LEVEL
 62
5
 10
2771.747
 20
-8785.198
 30
-1114.000
 70
    32
  0
VERTEX
  8
6350LEVEL
 62
5
 10
2809.374
 20
-8815.182
 30
-1114.000
 70
    32
  0
VERTEX
  8
6350LEVEL
 62
5
 10
2917.219
 20
-8872.252
 30
-1114.000
 70
    32
  0
VERTEX
  8
6350LEVEL
 62
5
 10
2821.571
 20
-8957.140
 30
-1114.000
 70
    32
  0
VERTEX
  8
6350LEVEL
 62
5
 10
2755.543
 20
-8972.619
 30
-1114.000
 70
    32
  0
VERTEX
  8
6350LEVEL
 62
5
 10
2753.449
 20
-8990.380
 30
-1114.000
 70
    32
  0
VERTEX
  8
6350LEVEL
 62
5
 10
2805.061
 20
-9000.947
 30
-1114.000
 70
    32
  0
VERTEX
  8
6350LEVEL
 62
5
 10
2878.158
 20
-8980.358
 30
-1114.000
 70
    32
  0
VERTEX
  8
6350LEVEL
 62
5
 10
2919.755
 20
-8956.903
 30
-1114.000
 70
    32
  0
VERTEX
  8
6350LEVEL
 62
5
 10
2971.060
 20
-8883.587
 30
-1114.000
 70
    32
  0
VERTEX
  8
6350LEVEL
 62
5
 10
3084.947
 20
-8830.568
 30
-1114.000
 70
    32
  0
VERTEX
  8
6350LEVEL
 62
5
 10
3126.670
 20
-8800.442
 30
-1114.000
 70
    32
  0
VERTEX
  8
6350LEVEL
 62
5
 10
3194.191
 20
-8786.564
 30
-1114.000
 70
    32
  0
VERTEX
  8
6350LEVEL
 62
5
 10
3253.179
 20
-8786.308
 30
-1114.000
 70
    32
  0
VERTEX
  8
6350LEVEL
 62
5
 10
3310.645
 20
-8738.714
 30
-1114.000
 70
    32
  0
VERTEX
  8
6350LEVEL
 62
5
 10
3372.415
 20
-8713.325
 30
-1114.000
 70
    32
  0
VERTEX
  8
6350LEVEL
 62
5
 10
3494.380
 20
-8679.910
 30
-1114.000
 70
    32
  0
VERTEX
  8
6350LEVEL
 62
5
 10
3565.663
 20
-8649.743
 30
-1114.000
 70
    32
  0
VERTEX
  8
6350LEVEL
 62
5
 10
3657.884
 20
-8597.056
 30
-1114.000
 70
    32
  0
SEQEND
  8
6350LEVEL
  0
POLYLINE
  8
6350LEVEL
 62
5
 66
     1
 70
     9
  0
VERTEX
  8
6350LEVEL
 62
5
 10
6929.021
 20
-8818.293
 30
-1114.000
 70
    32
  0
VERTEX
  8
6350LEVEL
 62
5
 10
6916.078
 20
-8770.523
 30
-1114.000
 70
    32
  0
VERTEX
  8
6350LEVEL
 62
5
 10
6907.636
 20
-8750.921
 30
-1114.000
 70
    32
  0
VERTEX
  8
6350LEVEL
 62
5
 10
6886.802
 20
-8684.433
 30
-1114.000
 70
    32
  0
VERTEX
  8
6350LEVEL
 62
5
 10
6886.448
 20
-8717.018
 30
-1114.000
 70
    32
  0
VERTEX
  8
6350LEVEL
 62
5
 10
6907.636
 20
-8776.269
 30
-1114.000
 70
    32
  0
VERTEX
  8
6350LEVEL
 62
5
 10
6926.693
 20
-8826.310
 30
-1114.000
 70
    32
  0
VERTEX
  8
6350LEVEL
 62
5
 10
6976.834
 20
-8852.502
 30
-1114.000
 70
    32
  0
VERTEX
  8
6350LEVEL
 62
5
 10
7007.730
 20
-8894.242
 30
-1114.000
 70
    32
  0
VERTEX
  8
6350LEVEL
 62
5
 10
7052.405
 20
-8926.246
 30
-1114.000
 70
    32
  0
VERTEX
  8
6350LEVEL
 62
5
 10
7176.641
 20
-8951.484
 30
-1114.000
 70
    32
  0
VERTEX
  8
6350LEVEL
 62
5
 10
7052.827
 20
-8918.893
 30
-1114.000
 70
    32
  0
VERTEX
  8
6350LEVEL
 62
5
 10
7012.457
 20
-8891.031
 30
-1114.000
 70
    32
  0
VERTEX
  8
6350LEVEL
 62
5
 10
6983.250
 20
-8848.109
 30
-1114.000
 70
    32
  0
VERTEX
  8
6350LEVEL
 62
5
 10
6930.576
 20
-8823.606
 30
-1114.000
 70
    32
  0
SEQEND
  8
6350LEVEL
  0
POLYLINE
  8
6350LEVEL
 62
5
 66
     1
 70
     9
  0
VERTEX
  8
6350LEVEL
 62
5
 10
7214.643
 20
-8607.254
 30
-1114.000
 70
    32
  0
VERTEX
  8
6350LEVEL
 62
5
 10
7178.511
 20
-8553.375
 30
-1114.000
 70
    32
  0
VERTEX
  8
6350LEVEL
 62
5
 10
7215.245
 20
-8597.602
 30
-1114.000
 70
    32
  0
VERTEX
  8
6350LEVEL
 62
5
 10
7218.860
 20
-8610.270
 30
-1114.000
 70
    32
  0
SEQEND
  8
6350LEVEL
  0
POLYLINE
  8
6350LEVEL
 62
13
 66
     1
 70
     8
  0
VERTEX
  8
6350LEVEL
 62
13
 10
792.679
 20
-5311.770
 30
-1114.000
 70
    32
  0
VERTEX
  8
6350LEVEL
 62
13
 10
794.751
 20
-5399.817
 30
-1114.000
 70
    32
  0
VERTEX
  8
6350LEVEL
 62
13
 10
807.774
 20
-5449.217
 30
-1114.000
 70
    32
  0
VERTEX
  8
6350LEVEL
 62
13
 10
837.437
 20
-5491.353
 30
-1114.000
 70
    32
  0
VERTEX
  8
6350LEVEL
 62
13
 10
871.441
 20
-5527.677
 30
-1114.000
 70
    32
  0
VERTEX
  8
6350LEVEL
 62
13
 10
867.747
 20
-5561.483
 30
-1114.000
 70
    32
  0
VERTEX
  8
6350LEVEL
 62
13
 10
838.826
 20
-5607.342
 30
-1114.000
 70
    32
  0
VERTEX
  8
6350LEVEL
 62
13
 10
825.468
 20
-5608.831
 30
-1114.000
 70
    32
  0
VERTEX
  8
6350LEVEL
 62
13
 10
821.520
 20
-5564.001
 30
-1114.000
 70
    32
  0
VERTEX
  8
6350LEVEL
 62
13
 10
793.763
 20
-5522.590
 30
-1114.000
 70
    32
  0
VERTEX
  8
6350LEVEL
 62
13
 10
787.243
 20
-5514.011
 30
-1114.000
 70
    32
  0
VERTEX
  8
6350LEVEL
 62
13
 10
789.041
 20
-5526.428
 30
-1114.000
 70
    32
  0
VERTEX
  8
6350LEVEL
 62
13
 10
808.107
 20
-5561.961
 30
-1114.000
 70
    32
  0
VERTEX
  8
6350LEVEL
 62
13
 10
796.686
 20
-5563.904
 30
-1114.000
 70
    32
  0
VERTEX
  8
6350LEVEL
 62
13
 10
784.994
 20
-5529.137
 30
-1114.000
 70
    32
  0
VERTEX
  8
6350LEVEL
 62
13
 10
776.000
 20
-5506.787
 30
-1114.000
 70
    32
  0
VERTEX
  8
6350LEVEL
 62
13
 10
779.823
 20
-5532.975
 30
-1114.000
 70
    32
  0
VERTEX
  8
6350LEVEL
 62
13
 10
780.272
 20
-5538.619
 30
-1114.000
 70
    32
  0
VERTEX
  8
6350LEVEL
 62
13
 10
779.823
 20
-5546.747
 30
-1114.000
 70
    32
  0
VERTEX
  8
6350LEVEL
 62
13
 10
773.302
 20
-5557.132
 30
-1114.000
 70
    32
  0
VERTEX
  8
6350LEVEL
 62
13
 10
765.882
 20
-5572.935
 30
-1114.000
 70
    32
  0
VERTEX
  8
6350LEVEL
 62
13
 10
760.935
 20
-5591.673
 30
-1114.000
 70
    32
  0
VERTEX
  8
6350LEVEL
 62
13
 10
762.509
 20
-5607.251
 30
-1114.000
 70
    32
  0
VERTEX
  8
6350LEVEL
 62
13
 10
763.478
 20
-5618.231
 30
-1114.000
 70
    32
  0
VERTEX
  8
6350LEVEL
 62
13
 10
762.291
 20
-5630.136
 30
-1114.000
 70
    32
  0
VERTEX
  8
6350LEVEL
 62
13
 10
730.659
 20
-5713.080
 30
-1114.000
 70
    32
  0
VERTEX
  8
6350LEVEL
 62
13
 10
727.496
 20
-5740.860
 30
-1114.000
 70
    32
  0
VERTEX
  8
6350LEVEL
 62
13
 10
742.521
 20
-5774.196
 30
-1114.000
 70
    32
  0
VERTEX
  8
6350LEVEL
 62
13
 10
756.756
 20
-5796.420
 30
-1114.000
 70
    32
  0
VERTEX
  8
6350LEVEL
 62
13
 10
797.202
 20
-5829.602
 30
-1114.000
 70
    32
  0
VERTEX
  8
6350LEVEL
 62
13
 10
815.549
 20
-5877.360
 30
-1114.000
 70
    32
  0
VERTEX
  8
6350LEVEL
 62
13
 10
820.254
 20
-5936.824
 30
-1114.000
 70
    32
  0
VERTEX
  8
6350LEVEL
 62
13
 10
815.547
 20
-5997.222
 30
-1114.000
 70
    32
  0
VERTEX
  8
6350LEVEL
 62
13
 10
843.305
 20
-6040.766
 30
-1114.000
 70
    32
  0
VERTEX
  8
6350LEVEL
 62
13
 10
870.410
 20
-6105.802
 30
-1114.000
 70
    32
  0
VERTEX
  8
6350LEVEL
 62
13
 10
829.661
 20
-6051.535
 30
-1114.000
 70
    32
  0
VERTEX
  8
6350LEVEL
 62
13
 10
749.397
 20
-5952.997
 30
-1114.000
 70
    32
  0
VERTEX
  8
6350LEVEL
 62
13
 10
715.116
 20
-5855.802
 30
-1114.000
 70
    32
  0
VERTEX
  8
6350LEVEL
 62
13
 10
662.757
 20
-5772.648
 30
-1114.000
 70
    32
  0
VERTEX
  8
6350LEVEL
 62
13
 10
739.086
 20
-5974.000
 30
-1114.000
 70
    32
  0
VERTEX
  8
6350LEVEL
 62
13
 10
804.256
 20
-6069.328
 30
-1114.000
 70
    32
  0
VERTEX
  8
6350LEVEL
 62
13
 10
868.833
 20
-6134.676
 30
-1114.000
 70
    32
  0
VERTEX
  8
6350LEVEL
 62
13
 10
899.091
 20
-6146.707
 30
-1114.000
 70
    32
  0
VERTEX
  8
6350LEVEL
 62
13
 10
875.433
 20
-6065.261
 30
-1114.000
 70
    32
  0
VERTEX
  8
6350LEVEL
 62
13
 10
858.359
 20
-6028.593
 30
-1114.000
 70
    32
  0
VERTEX
  8
6350LEVEL
 62
13
 10
831.073
 20
-5987.389
 30
-1114.000
 70
    32
  0
VERTEX
  8
6350LEVEL
 62
13
 10
831.715
 20
-5965.389
 30
-1114.000
 70
    32
  0
VERTEX
  8
6350LEVEL
 62
13
 10
841.423
 20
-5981.770
 30
-1114.000
 70
    32
  0
VERTEX
  8
6350LEVEL
 62
13
 10
868.655
 20
-6023.024
 30
-1114.000
 70
    32
  0
VERTEX
  8
6350LEVEL
 62
13
 10
897.519
 20
-6064.297
 30
-1114.000
 70
    32
  0
VERTEX
  8
6350LEVEL
 62
13
 10
957.225
 20
-6150.416
 30
-1114.000
 70
    32
  0
VERTEX
  8
6350LEVEL
 62
13
 10
980.554
 20
-6190.102
 30
-1114.000
 70
    32
  0
VERTEX
  8
6350LEVEL
 62
13
 10
987.276
 20
-6212.326
 30
-1114.000
 70
    32
  0
VERTEX
  8
6350LEVEL
 62
13
 10
973.832
 20
-6193.674
 30
-1114.000
 70
    32
  0
VERTEX
  8
6350LEVEL
 62
13
 10
892.775
 20
-6078.981
 30
-1114.000
 70
    32
  0
VERTEX
  8
6350LEVEL
 62
13
 10
949.317
 20
-6212.326
 30
-1114.000
 70
    32
  0
VERTEX
  8
6350LEVEL
 62
13
 10
981.600
 20
-6304.720
 30
-1114.000
 70
    32
  0
SEQEND
  8
6350LEVEL
  0
POLYLINE
  8
6350LEVEL
 62
3
 66
     1
 70
     8
  0
VERTEX
  8
6350LEVEL
 62
3
 10
1111.026
 20
-6636.613
 30
-1114.000
 70
    32
  0
VERTEX
  8
6350LEVEL
 62
3
 10
1105.348
 20
-6618.078
 30
-1114.000
 70
    32
  0
VERTEX
  8
6350LEVEL
 62
3
 10
1102.055
 20
-6597.008
 30
-1114.000
 70
    32
  0
VERTEX
  8
6350LEVEL
 62
3
 10
1081.393
 20
-6572.869
 30
-1114.000
 70
    32
  0
SEQEND
  8
6350LEVEL
  0
POLYLINE
  8
6350LEVEL
 62
13
 66
     1
 70
     8
  0
VERTEX
  8
6350LEVEL
 62
13
 10
1111.026
 20
-6636.613
 30
-1114.000
 70
    32
  0
VERTEX
  8
6350LEVEL
 62
13
 10
1128.350
 20
-6700.375
 30
-1114.000
 70
    32
  0
VERTEX
  8
6350LEVEL
 62
13
 10
1161.090
 20
-6798.989
 30
-1114.000
 70
    32
  0
VERTEX
  8
6350LEVEL
 62
13
 10
1152.243
 20
-6818.122
 30
-1114.000
 70
    32
  0
VERTEX
  8
6350LEVEL
 62
13
 10
1119.483
 20
-6936.052
 30
-1114.000
 70
    32
  0
VERTEX
  8
6350LEVEL
 62
13
 10
1097.201
 20
-7029.464
 30
-1114.000
 70
    32
  0
VERTEX
  8
6350LEVEL
 62
13
 10
1093.790
 20
-7076.505
 30
-1114.000
 70
    32
  0
VERTEX
  8
6350LEVEL
 62
13
 10
1106.068
 20
-7116.087
 30
-1114.000
 70
    32
  0
VERTEX
  8
6350LEVEL
 62
13
 10
1118.530
 20
-7199.165
 30
-1114.000
 70
    32
  0
VERTEX
  8
6350LEVEL
 62
13
 10
1144.727
 20
-7443.349
 30
-1114.000
 70
    32
  0
VERTEX
  8
6350LEVEL
 62
13
 10
1098.381
 20
-7586.867
 30
-1114.000
 70
    32
  0
VERTEX
  8
6350LEVEL
 62
13
 10
1106.423
 20
-7619.377
 30
-1114.000
 70
    32
  0
VERTEX
  8
6350LEVEL
 62
13
 10
1142.777
 20
-7684.031
 30
-1114.000
 70
    32
  0
VERTEX
  8
6350LEVEL
 62
13
 10
1185.337
 20
-7846.434
 30
-1114.000
 70
    32
  0
VERTEX
  8
6350LEVEL
 62
13
 10
1213.801
 20
-7899.287
 30
-1114.000
 70
    32
  0
VERTEX
  8
6350LEVEL
 62
13
 10
1170.269
 20
-7842.838
 30
-1114.000
 70
    32
  0
VERTEX
  8
6350LEVEL
 62
13
 10
1163.558
 20
-7837.263
 30
-1114.000
 70
    32
  0
VERTEX
  8
6350LEVEL
 62
13
 10
1165.659
 20
-7850.458
 30
-1114.000
 70
    32
  0
VERTEX
  8
6350LEVEL
 62
13
 10
1194.163
 20
-7908.760
 30
-1114.000
 70
    32
  0
VERTEX
  8
6350LEVEL
 62
13
 10
1256.160
 20
-8129.793
 30
-1114.000
 70
    32
  0
VERTEX
  8
6350LEVEL
 62
13
 10
1242.000
 20
-8214.828
 30
-1114.000
 70
    32
  0
VERTEX
  8
6350LEVEL
 62
13
 10
1204.379
 20
-8341.017
 30
-1114.000
 70
    32
  0
VERTEX
  8
6350LEVEL
 62
13
 10
1211.426
 20
-8386.614
 30
-1114.000
 70
    32
  0
SEQEND
  8
6350LEVEL
  0
POLYLINE
  8
6350LEVEL
 62
7
 66
     1
 70
     8
  0
VERTEX
  8
6350LEVEL
 62
7
 10
981.600
 20
-6304.720
 30
-1114.000
 70
    32
  0
VERTEX
  8
6350LEVEL
 62
7
 10
990.043
 20
-6244.472
 30
-1114.000
 70
    32
  0
VERTEX
  8
6350LEVEL
 62
7
 10
1007.046
 20
-6215.898
 30
-1114.000
 70
    32
  0
VERTEX
  8
6350LEVEL
 62
7
 10
1013.767
 20
-6165.100
 30
-1114.000
 70
    32
  0
VERTEX
  8
6350LEVEL
 62
7
 10
996.370
 20
-6055.170
 30
-1114.000
 70
    32
  0
VERTEX
  8
6350LEVEL
 62
7
 10
977.786
 20
-5943.653
 30
-1114.000
 70
    32
  0
VERTEX
  8
6350LEVEL
 62
7
 10
958.411
 20
-5896.825
 30
-1114.000
 70
    32
  0
VERTEX
  8
6350LEVEL
 62
7
 10
946.944
 20
-5845.631
 30
-1114.000
 70
    32
  0
VERTEX
  8
6350LEVEL
 62
7
 10
924.406
 20
-5798.801
 30
-1114.000
 70
    32
  0
VERTEX
  8
6350LEVEL
 62
7
 10
896.728
 20
-5756.734
 30
-1114.000
 70
    32
  0
VERTEX
  8
6350LEVEL
 62
7
 10
871.787
 20
-5713.359
 30
-1114.000
 70
    32
  0
VERTEX
  8
6350LEVEL
 62
7
 10
865.492
 20
-5708.714
 30
-1114.000
 70
    32
  0
VERTEX
  8
6350LEVEL
 62
7
 10
849.675
 20
-5711.096
 30
-1114.000
 70
    32
  0
VERTEX
  8
6350LEVEL
 62
7
 10
799.855
 20
-5723.398
 30
-1114.000
 70
    32
  0
VERTEX
  8
6350LEVEL
 62
7
 10
780.480
 20
-5718.239
 30
-1114.000
 70
    32
  0
VERTEX
  8
6350LEVEL
 62
7
 10
777.712
 20
-5710.302
 30
-1114.000
 70
    32
  0
VERTEX
  8
6350LEVEL
 62
7
 10
784.829
 20
-5692.443
 30
-1114.000
 70
    32
  0
VERTEX
  8
6350LEVEL
 62
7
 10
801.832
 20
-5660.297
 30
-1114.000
 70
    32
  0
VERTEX
  8
6350LEVEL
 62
7
 10
813.694
 20
-5660.297
 30
-1114.000
 70
    32
  0
VERTEX
  8
6350LEVEL
 62
7
 10
834.650
 20
-5679.744
 30
-1114.000
 70
    32
  0
VERTEX
  8
6350LEVEL
 62
7
 10
850.071
 20
-5683.712
 30
-1114.000
 70
    32
  0
VERTEX
  8
6350LEVEL
 62
7
 10
870.632
 20
-5674.584
 30
-1114.000
 70
    32
  0
VERTEX
  8
6350LEVEL
 62
7
 10
892.422
 20
-5636.649
 30
-1114.000
 70
    32
  0
VERTEX
  8
6350LEVEL
 62
7
 10
891.699
 20
-5614.128
 30
-1114.000
 70
    32
  0
VERTEX
  8
6350LEVEL
 62
7
 10
909.785
 20
-5561.095
 30
-1114.000
 70
    32
  0
VERTEX
  8
6350LEVEL
 62
7
 10
935.456
 20
-5525.543
 30
-1114.000
 70
    32
  0
VERTEX
  8
6350LEVEL
 62
7
 10
932.214
 20
-5483.362
 30
-1114.000
 70
    32
  0
VERTEX
  8
6350LEVEL
 62
7
 10
924.255
 20
-5433.235
 30
-1114.000
 70
    32
  0
VERTEX
  8
6350LEVEL
 62
7
 10
940.172
 20
-5479.003
 30
-1114.000
 70
    32
  0
VERTEX
  8
6350LEVEL
 62
7
 10
987.187
 20
-5582.324
 30
-1114.000
 70
    32
  0
VERTEX
  8
6350LEVEL
 62
7
 10
962.324
 20
-5586.735
 30
-1114.000
 70
    32
  0
VERTEX
  8
6350LEVEL
 62
7
 10
948.001
 20
-5577.640
 30
-1114.000
 70
    32
  0
VERTEX
  8
6350LEVEL
 62
7
 10
941.005
 20
-5556.937
 30
-1114.000
 70
    32
  0
VERTEX
  8
6350LEVEL
 62
7
 10
919.914
 20
-5618.487
 30
-1114.000
 70
    32
  0
VERTEX
  8
6350LEVEL
 62
7
 10
908.338
 20
-5688.229
 30
-1114.000
 70
    32
  0
VERTEX
  8
6350LEVEL
 62
7
 10
918.467
 20
-5740.536
 30
-1114.000
 70
    32
  0
VERTEX
  8
6350LEVEL
 62
7
 10
953.195
 20
-5779.039
 30
-1114.000
 70
    32
  0
VERTEX
  8
6350LEVEL
 62
7
 10
987.199
 20
-5815.363
 30
-1114.000
 70
    32
  0
VERTEX
  8
6350LEVEL
 62
7
 10
987.672
 20
-5875.394
 30
-1114.000
 70
    32
  0
VERTEX
  8
6350LEVEL
 62
7
 10
1002.697
 20
-5925.795
 30
-1114.000
 70
    32
  0
VERTEX
  8
6350LEVEL
 62
7
 10
1018.513
 20
-6038.899
 30
-1114.000
 70
    32
  0
VERTEX
  8
6350LEVEL
 62
7
 10
1061.216
 20
-6130.970
 30
-1114.000
 70
    32
  0
VERTEX
  8
6350LEVEL
 62
7
 10
1063.193
 20
-6155.179
 30
-1114.000
 70
    32
  0
VERTEX
  8
6350LEVEL
 62
7
 10
1064.379
 20
-6166.687
 30
-1114.000
 70
    32
  0
VERTEX
  8
6350LEVEL
 62
7
 10
1053.703
 20
-6198.833
 30
-1114.000
 70
    32
  0
VERTEX
  8
6350LEVEL
 62
7
 10
1043.027
 20
-6132.557
 30
-1114.000
 70
    32
  0
VERTEX
  8
6350LEVEL
 62
7
 10
1026.421
 20
-6280.189
 30
-1114.000
 70
    32
  0
VERTEX
  8
6350LEVEL
 62
7
 10
1045.042
 20
-6323.266
 30
-1114.000
 70
    32
  0
VERTEX
  8
6350LEVEL
 62
7
 10
1065.829
 20
-6374.135
 30
-1114.000
 70
    32
  0
VERTEX
  8
6350LEVEL
 62
7
 10
1098.291
 20
-6473.866
 30
-1114.000
 70
    32
  0
VERTEX
  8
6350LEVEL
 62
7
 10
1138.751
 20
-6571.256
 30
-1114.000
 70
    32
  0
VERTEX
  8
6350LEVEL
 62
7
 10
1148.532
 20
-6626.137
 30
-1114.000
 70
    32
  0
VERTEX
  8
6350LEVEL
 62
7
 10
1143.811
 20
-6688.845
 30
-1114.000
 70
    32
  0
VERTEX
  8
6350LEVEL
 62
7
 10
1170.087
 20
-6730.008
 30
-1114.000
 70
    32
  0
VERTEX
  8
6350LEVEL
 62
7
 10
1191.784
 20
-6732.945
 30
-1114.000
 70
    32
  0
VERTEX
  8
6350LEVEL
 62
7
 10
1212.474
 20
-6761.896
 30
-1114.000
 70
    32
  0
VERTEX
  8
6350LEVEL
 62
7
 10
1217.703
 20
-6769.358
 30
-1114.000
 70
    32
  0
VERTEX
  8
6350LEVEL
 62
7
 10
1220.658
 20
-6780.441
 30
-1114.000
 70
    32
  0
VERTEX
  8
6350LEVEL
 62
7
 10
1231.572
 20
-6861.866
 30
-1114.000
 70
    32
  0
VERTEX
  8
6350LEVEL
 62
7
 10
1234.300
 20
-6869.104
 30
-1114.000
 70
    32
  0
VERTEX
  8
6350LEVEL
 62
7
 10
1248.585
 20
-6911.899
 30
-1114.000
 70
    32
  0
VERTEX
  8
6350LEVEL
 62
7
 10
1235.437
 20
-6905.518
 30
-1114.000
 70
    32
  0
VERTEX
  8
6350LEVEL
 62
7
 10
1225.206
 20
-6875.889
 30
-1114.000
 70
    32
  0
VERTEX
  8
6350LEVEL
 62
7
 10
1203.016
 20
-6845.219
 30
-1114.000
 70
    32
  0
VERTEX
  8
6350LEVEL
 62
7
 10
1210.655
 20
-6886.519
 30
-1114.000
 70
    32
  0
VERTEX
  8
6350LEVEL
 62
7
 10
1206.108
 20
-6908.458
 30
-1114.000
 70
    32
  0
VERTEX
  8
6350LEVEL
 62
7
 10
1170.639
 20
-6976.086
 30
-1114.000
 70
    32
  0
VERTEX
  8
6350LEVEL
 62
7
 10
1225.453
 20
-7129.803
 30
-1114.000
 70
    32
  0
VERTEX
  8
6350LEVEL
 62
7
 10
1233.809
 20
-7214.953
 30
-1114.000
 70
    32
  0
VERTEX
  8
6350LEVEL
 62
7
 10
1271.531
 20
-7379.946
 30
-1114.000
 70
    32
  0
VERTEX
  8
6350LEVEL
 62
7
 10
1213.265
 20
-7455.274
 30
-1114.000
 70
    32
  0
VERTEX
  8
6350LEVEL
 62
7
 10
1192.644
 20
-7497.280
 30
-1114.000
 70
    32
  0
VERTEX
  8
6350LEVEL
 62
7
 10
1185.561
 20
-7548.430
 30
-1114.000
 70
    32
  0
VERTEX
  8
6350LEVEL
 62
7
 10
1221.599
 20
-7623.464
 30
-1114.000
 70
    32
  0
VERTEX
  8
6350LEVEL
 62
7
 10
1287.456
 20
-7829.775
 30
-1114.000
 70
    32
  0
VERTEX
  8
6350LEVEL
 62
7
 10
1291.287
 20
-8008.243
 30
-1114.000
 70
    32
  0
VERTEX
  8
6350LEVEL
 62
7
 10
1296.777
 20
-8037.764
 30
-1114.000
 70
    32
  0
VERTEX
  8
6350LEVEL
 62
7
 10
1319.365
 20
-8080.021
 30
-1114.000
 70
    32
  0
VERTEX
  8
6350LEVEL
 62
7
 10
1325.304
 20
-8129.201
 30
-1114.000
 70
    32
  0
VERTEX
  8
6350LEVEL
 62
7
 10
1267.292
 20
-8299.139
 30
-1114.000
 70
    32
  0
VERTEX
  8
6350LEVEL
 62
7
 10
1270.486
 20
-8336.437
 30
-1114.000
 70
    32
  0
SEQEND
  8
6350LEVEL
  0
POLYLINE
  8
6350LEVEL
 62
13
 66
     1
 70
     8
  0
VERTEX
  8
6350LEVEL
 62
13
 10
1304.102
 20
-8300.702
 30
-1114.000
 70
    32
  0
VERTEX
  8
6350LEVEL
 62
13
 10
1321.232
 20
-8222.447
 30
-1114.000
 70
    32
  0
VERTEX
  8
6350LEVEL
 62
13
 10
1385.908
 20
-8051.545
 30
-1114.000
 70
    32
  0
VERTEX
  8
6350LEVEL
 62
13
 10
1381.930
 20
-8014.296
 30
-1114.000
 70
    32
  0
VERTEX
  8
6350LEVEL
 62
13
 10
1328.262
 20
-7859.256
 30
-1114.000
 70
    32
  0
VERTEX
  8
6350LEVEL
 62
13
 10
1297.382
 20
-7797.832
 30
-1114.000
 70
    32
  0
VERTEX
  8
6350LEVEL
 62
13
 10
1284.586
 20
-7729.212
 30
-1114.000
 70
    32
  0
VERTEX
  8
6350LEVEL
 62
13
 10
1244.707
 20
-7486.131
 30
-1114.000
 70
    32
  0
VERTEX
  8
6350LEVEL
 62
13
 10
1260.046
 20
-7437.188
 30
-1114.000
 70
    32
  0
VERTEX
  8
6350LEVEL
 62
13
 10
1284.887
 20
-7393.887
 30
-1114.000
 70
    32
  0
VERTEX
  8
6350LEVEL
 62
13
 10
1296.733
 20
-7344.316
 30
-1114.000
 70
    32
  0
VERTEX
  8
6350LEVEL
 62
13
 10
1243.118
 20
-7148.684
 30
-1114.000
 70
    32
  0
VERTEX
  8
6350LEVEL
 62
13
 10
1236.084
 20
-7086.911
 30
-1114.000
 70
    32
  0
VERTEX
  8
6350LEVEL
 62
13
 10
1246.805
 20
-7024.698
 30
-1114.000
 70
    32
  0
VERTEX
  8
6350LEVEL
 62
13
 10
1234.755
 20
-6993.485
 30
-1114.000
 70
    32
  0
VERTEX
  8
6350LEVEL
 62
13
 10
1202.697
 20
-6952.998
 30
-1114.000
 70
    32
  0
VERTEX
  8
6350LEVEL
 62
13
 10
1201.105
 20
-6937.618
 30
-1114.000
 70
    32
  0
VERTEX
  8
6350LEVEL
 62
13
 10
1206.107
 20
-6940.332
 30
-1114.000
 70
    32
  0
VERTEX
  8
6350LEVEL
 62
13
 10
1211.336
 20
-6947.118
 30
-1114.000
 70
    32
  0
VERTEX
  8
6350LEVEL
 62
13
 10
1242.485
 20
-6987.604
 30
-1114.000
 70
    32
  0
VERTEX
  8
6350LEVEL
 62
13
 10
1250.670
 20
-7007.056
 30
-1114.000
 70
    32
  0
VERTEX
  8
6350LEVEL
 62
13
 10
1256.179
 20
-7008.591
 30
-1114.000
 70
    32
  0
VERTEX
  8
6350LEVEL
 62
13
 10
1258.400
 20
-6976.069
 30
-1114.000
 70
    32
  0
VERTEX
  8
6350LEVEL
 62
13
 10
1254.080
 20
-6949.832
 30
-1114.000
 70
    32
  0
VERTEX
  8
6350LEVEL
 62
13
 10
1266.358
 20
-6970.415
 30
-1114.000
 70
    32
  0
VERTEX
  8
6350LEVEL
 62
13
 10
1278.294
 20
-6998.053
 30
-1114.000
 70
    32
  0
VERTEX
  8
6350LEVEL
 62
13
 10
1280.455
 20
-6960.010
 30
-1114.000
 70
    32
  0
VERTEX
  8
6350LEVEL
 62
13
 10
1277.954
 20
-6918.392
 30
-1114.000
 70
    32
  0
VERTEX
  8
6350LEVEL
 62
13
 10
1287.503
 20
-6955.034
 30
-1114.000
 70
    32
  0
VERTEX
  8
6350LEVEL
 62
13
 10
1292.732
 20
-6978.783
 30
-1114.000
 70
    32
  0
VERTEX
  8
6350LEVEL
 62
13
 10
1298.438
 20
-6980.248
 30
-1114.000
 70
    32
  0
VERTEX
  8
6350LEVEL
 62
13
 10
1298.644
 20
-6946.892
 30
-1114.000
 70
    32
  0
VERTEX
  8
6350LEVEL
 62
13
 10
1267.950
 20
-6845.128
 30
-1114.000
 70
    32
  0
VERTEX
  8
6350LEVEL
 62
13
 10
1260.220
 20
-6727.516
 30
-1114.000
 70
    32
  0
VERTEX
  8
6350LEVEL
 62
13
 10
1212.008
 20
-6639.495
 30
-1114.000
 70
    32
  0
VERTEX
  8
6350LEVEL
 62
13
 10
1183.371
 20
-6562.866
 30
-1114.000
 70
    32
  0
VERTEX
  8
6350LEVEL
 62
13
 10
1208.598
 20
-6613.964
 30
-1114.000
 70
    32
  0
VERTEX
  8
6350LEVEL
 62
13
 10
1221.837
 20
-6632.414
 30
-1114.000
 70
    32
  0
VERTEX
  8
6350LEVEL
 62
13
 10
1251.125
 20
-6676.852
 30
-1114.000
 70
    32
  0
VERTEX
  8
6350LEVEL
 62
13
 10
1285.002
 20
-6753.301
 30
-1114.000
 70
    32
  0
VERTEX
  8
6350LEVEL
 62
13
 10
1283.411
 20
-6744.254
 30
-1114.000
 70
    32
  0
VERTEX
  8
6350LEVEL
 62
13
 10
1260.061
 20
-6680.128
 30
-1114.000
 70
    32
  0
VERTEX
  8
6350LEVEL
 62
13
 10
1271.910
 20
-6678.778
 30
-1114.000
 70
    32
  0
VERTEX
  8
6350LEVEL
 62
13
 10
1310.210
 20
-6723.318
 30
-1114.000
 70
    32
  0
VERTEX
  8
6350LEVEL
 62
13
 10
1308.002
 20
-6707.464
 30
-1114.000
 70
    32
  0
VERTEX
  8
6350LEVEL
 62
13
 10
1296.740
 20
-6675.762
 30
-1114.000
 70
    32
  0
VERTEX
  8
6350LEVEL
 62
13
 10
1242.940
 20
-6638.190
 30
-1114.000
 70
    32
  0
VERTEX
  8
6350LEVEL
 62
13
 10
1223.341
 20
-6631.117
 30
-1114.000
 70
    32
  0
VERTEX
  8
6350LEVEL
 62
13
 10
1209.902
 20
-6595.016
 30
-1114.000
 70
    32
  0
VERTEX
  8
6350LEVEL
 62
13
 10
1192.921
 20
-6549.527
 30
-1114.000
 70
    32
  0
VERTEX
  8
6350LEVEL
 62
13
 10
1171.094
 20
-6479.638
 30
-1114.000
 70
    32
  0
VERTEX
  8
6350LEVEL
 62
13
 10
1172.231
 20
-6467.198
 30
-1114.000
 70
    32
  0
VERTEX
  8
6350LEVEL
 62
13
 10
1178.824
 20
-6478.281
 30
-1114.000
 70
    32
  0
VERTEX
  8
6350LEVEL
 62
13
 10
1194.057
 20
-6528.719
 30
-1114.000
 70
    32
  0
VERTEX
  8
6350LEVEL
 62
13
 10
1217.217
 20
-6592.197
 30
-1114.000
 70
    32
  0
VERTEX
  8
6350LEVEL
 62
13
 10
1229.431
 20
-6610.871
 30
-1114.000
 70
    32
  0
VERTEX
  8
6350LEVEL
 62
13
 10
1236.344
 20
-6621.068
 30
-1114.000
 70
    32
  0
VERTEX
  8
6350LEVEL
 62
13
 10
1241.069
 20
-6624.619
 30
-1114.000
 70
    32
  0
VERTEX
  8
6350LEVEL
 62
13
 10
1245.562
 20
-6627.025
 30
-1114.000
 70
    32
  0
VERTEX
  8
6350LEVEL
 62
13
 10
1258.856
 20
-6629.143
 30
-1114.000
 70
    32
  0
VERTEX
  8
6350LEVEL
 62
13
 10
1262.266
 20
-6616.929
 30
-1114.000
 70
    32
  0
VERTEX
  8
6350LEVEL
 62
13
 10
1258.815
 20
-6604.805
 30
-1114.000
 70
    32
  0
VERTEX
  8
6350LEVEL
 62
13
 10
1243.848
 20
-6555.414
 30
-1114.000
 70
    32
  0
VERTEX
  8
6350LEVEL
 62
13
 10
1221.339
 20
-6509.500
 30
-1114.000
 70
    32
  0
VERTEX
  8
6350LEVEL
 62
13
 10
1205.197
 20
-6459.288
 30
-1114.000
 70
    32
  0
VERTEX
  8
6350LEVEL
 62
13
 10
1203.378
 20
-6427.396
 30
-1114.000
 70
    32
  0
VERTEX
  8
6350LEVEL
 62
13
 10
1222.476
 20
-6446.622
 30
-1114.000
 70
    32
  0
VERTEX
  8
6350LEVEL
 62
13
 10
1227.706
 20
-6452.276
 30
-1114.000
 70
    32
  0
VERTEX
  8
6350LEVEL
 62
13
 10
1227.706
 20
-6442.777
 30
-1114.000
 70
    32
  0
VERTEX
  8
6350LEVEL
 62
13
 10
1227.251
 20
-6435.991
 30
-1114.000
 70
    32
  0
VERTEX
  8
6350LEVEL
 62
13
 10
1226.114
 20
-6426.039
 30
-1114.000
 70
    32
  0
VERTEX
  8
6350LEVEL
 62
13
 10
1227.251
 20
-6412.242
 30
-1114.000
 70
    32
  0
VERTEX
  8
6350LEVEL
 62
13
 10
1231.571
 20
-6400.933
 30
-1114.000
 70
    32
  0
VERTEX
  8
6350LEVEL
 62
13
 10
1231.798
 20
-6385.327
 30
-1114.000
 70
    32
  0
VERTEX
  8
6350LEVEL
 62
13
 10
1229.657
 20
-6379.403
 30
-1114.000
 70
    32
  0
VERTEX
  8
6350LEVEL
 62
13
 10
1200.398
 20
-6337.732
 30
-1114.000
 70
    32
  0
VERTEX
  8
6350LEVEL
 62
13
 10
1189.326
 20
-6284.950
 30
-1114.000
 70
    32
  0
VERTEX
  8
6350LEVEL
 62
13
 10
1152.949
 20
-6187.721
 30
-1114.000
 70
    32
  0
VERTEX
  8
6350LEVEL
 62
13
 10
1150.515
 20
-6180.295
 30
-1114.000
 70
    32
  0
VERTEX
  8
6350LEVEL
 62
13
 10
1149.574
 20
-6161.566
 30
-1114.000
 70
    32
  0
VERTEX
  8
6350LEVEL
 62
13
 10
1143.928
 20
-6137.687
 30
-1114.000
 70
    32
  0
VERTEX
  8
6350LEVEL
 62
13
 10
1133.108
 20
-6125.982
 30
-1114.000
 70
    32
  0
VERTEX
  8
6350LEVEL
 62
13
 10
1105.351
 20
-6116.617
 30
-1114.000
 70
    32
  0
VERTEX
  8
6350LEVEL
 62
13
 10
1098.294
 20
-6104.443
 30
-1114.000
 70
    32
  0
VERTEX
  8
6350LEVEL
 62
13
 10
1099.705
 20
-6023.442
 30
-1114.000
 70
    32
  0
VERTEX
  8
6350LEVEL
 62
13
 10
1105.351
 20
-6003.308
 30
-1114.000
 70
    32
  0
VERTEX
  8
6350LEVEL
 62
13
 10
1111.467
 20
-5995.349
 30
-1114.000
 70
    32
  0
VERTEX
  8
6350LEVEL
 62
13
 10
1130.285
 20
-5971.001
 30
-1114.000
 70
    32
  0
VERTEX
  8
6350LEVEL
 62
13
 10
1131.226
 20
-5956.487
 30
-1114.000
 70
    32
  0
VERTEX
  8
6350LEVEL
 62
13
 10
1079.005
 20
-5869.866
 30
-1114.000
 70
    32
  0
VERTEX
  8
6350LEVEL
 62
13
 10
1052.659
 20
-5768.731
 30
-1114.000
 70
    32
  0
VERTEX
  8
6350LEVEL
 62
13
 10
996.676
 20
-5685.390
 30
-1114.000
 70
    32
  0
VERTEX
  8
6350LEVEL
 62
13
 10
970.652
 20
-5688.348
 30
-1114.000
 70
    32
  0
VERTEX
  8
6350LEVEL
 62
13
 10
953.571
 20
-5677.790
 30
-1114.000
 70
    32
  0
VERTEX
  8
6350LEVEL
 62
13
 10
966.739
 20
-5654.063
 30
-1114.000
 70
    32
  0
VERTEX
  8
6350LEVEL
 62
13
 10
1017.909
 20
-5621.950
 30
-1114.000
 70
    32
  0
VERTEX
  8
6350LEVEL
 62
13
 10
1014.992
 20
-5568.823
 30
-1114.000
 70
    32
  0
VERTEX
  8
6350LEVEL
 62
13
 10
1026.326
 20
-5520.738
 30
-1114.000
 70
    32
  0
VERTEX
  8
6350LEVEL
 62
13
 10
1057.780
 20
-5481.443
 30
-1114.000
 70
    32
  0
VERTEX
  8
6350LEVEL
 62
13
 10
1052.195
 20
-5462.954
 30
-1114.000
 70
    32
  0
VERTEX
  8
6350LEVEL
 62
13
 10
1026.066
 20
-5419.284
 30
-1114.000
 70
    32
  0
VERTEX
  8
6350LEVEL
 62
13
 10
1014.382
 20
-5359.682
 30
-1114.000
 70
    32
  0
VERTEX
  8
6350LEVEL
 62
13
 10
960.430
 20
-5338.066
 30
-1114.000
 70
    32
  0
VERTEX
  8
6350LEVEL
 62
13
 10
890.252
 20
-5330.801
 30
-1114.000
 70
    32
  0
VERTEX
  8
6350LEVEL
 62
13
 10
850.689
 20
-5267.050
 30
-1114.000
 70
    32
  0
VERTEX
  8
6350LEVEL
 62
13
 10
847.384
 20
-5244.359
 30
-1114.000
 70
    32
  0
SEQEND
  8
6350LEVEL
  0
POLYLINE
  8
6350LEVEL
 62
13
 66
     1
 70
     8
  0
VERTEX
  8
6350LEVEL
 62
13
 10
835.703
 20
-5292.708
 30
-1114.000
 70
    32
  0
VERTEX
  8
6350LEVEL
 62
13
 10
846.386
 20
-5361.177
 30
-1114.000
 70
    32
  0
VERTEX
  8
6350LEVEL
 62
13
 10
852.297
 20
-5387.988
 30
-1114.000
 70
    32
  0
VERTEX
  8
6350LEVEL
 62
13
 10
838.656
 20
-5401.166
 30
-1114.000
 70
    32
  0
VERTEX
  8
6350LEVEL
 62
13
 10
817.285
 20
-5382.989
 30
-1114.000
 70
    32
  0
VERTEX
  8
6350LEVEL
 62
13
 10
814.705
 20
-5324.863
 30
-1114.000
 70
    32
  0
VERTEX
  8
6350LEVEL
 62
13
 10
810.950
 20
-5288.267
 30
-1114.000
 70
    32
  0
SEQEND
  8
6350LEVEL
  0
POLYLINE
  8
6350LEVEL
 62
13
 66
     1
 70
     9
  0
VERTEX
  8
6350LEVEL
 62
13
 10
1502.935
 20
-6582.046
 30
-1114.000
 70
    32
  0
VERTEX
  8
6350LEVEL
 62
13
 10
1519.184
 20
-6615.978
 30
-1114.000
 70
    32
  0
VERTEX
  8
6350LEVEL
 62
13
 10
1505.446
 20
-6639.317
 30
-1114.000
 70
    32
  0
VERTEX
  8
6350LEVEL
 62
13
 10
1529.998
 20
-6716.819
 30
-1114.000
 70
    32
  0
VERTEX
  8
6350LEVEL
 62
13
 10
1541.138
 20
-6745.766
 30
-1114.000
 70
    32
  0
VERTEX
  8
6350LEVEL
 62
13
 10
1525.171
 20
-6720.159
 30
-1114.000
 70
    32
  0
VERTEX
  8
6350LEVEL
 62
13
 10
1477.951
 20
-6605.728
 30
-1114.000
 70
    32
  0
VERTEX
  8
6350LEVEL
 62
13
 10
1484.590
 20
-6577.384
 30
-1114.000
 70
    32
  0
VERTEX
  8
6350LEVEL
 62
13
 10
1467.815
 20
-6447.405
 30
-1114.000
 70
    32
  0
VERTEX
  8
6350LEVEL
 62
13
 10
1470.662
 20
-6395.371
 30
-1114.000
 70
    32
  0
VERTEX
  8
6350LEVEL
 62
13
 10
1457.892
 20
-6324.266
 30
-1114.000
 70
    32
  0
VERTEX
  8
6350LEVEL
 62
13
 10
1477.700
 20
-6296.305
 30
-1114.000
 70
    32
  0
VERTEX
  8
6350LEVEL
 62
13
 10
1483.321
 20
-6301.888
 30
-1114.000
 70
    32
  0
VERTEX
  8
6350LEVEL
 62
13
 10
1491.084
 20
-6296.251
 30
-1114.000
 70
    32
  0
VERTEX
  8
6350LEVEL
 62
13
 10
1483.457
 20
-6463.990
 30
-1114.000
 70
    32
  0
VERTEX
  8
6350LEVEL
 62
13
 10
1496.748
 20
-6564.564
 30
-1114.000
 70
    32
  0
SEQEND
  8
6350LEVEL
  0
POLYLINE
  8
6350LEVEL
 62
13
 66
     1
 70
     8
  0
VERTEX
  8
6350LEVEL
 62
13
 10
1671.332
 20
-6482.588
 30
-1114.000
 70
    32
  0
VERTEX
  8
6350LEVEL
 62
13
 10
1721.982
 20
-6638.144
 30
-1114.000
 70
    32
  0
VERTEX
  8
6350LEVEL
 62
13
 10
1609.976
 20
-6772.347
 30
-1114.000
 70
    32
  0
VERTEX
  8
6350LEVEL
 62
13
 10
1681.274
 20
-6815.396
 30
-1114.000
 70
    32
  0
VERTEX
  8
6350LEVEL
 62
13
 10
1656.661
 20
-6945.851
 30
-1114.000
 70
    32
  0
VERTEX
  8
6350LEVEL
 62
13
 10
1687.030
 20
-7032.872
 30
-1114.000
 70
    32
  0
VERTEX
  8
6350LEVEL
 62
13
 10
1704.296
 20
-7062.743
 30
-1114.000
 70
    32
  0
VERTEX
  8
6350LEVEL
 62
13
 10
1738.110
 20
-7084.121
 30
-1114.000
 70
    32
  0
VERTEX
  8
6350LEVEL
 62
13
 10
1727.832
 20
-7049.753
 30
-1114.000
 70
    32
  0
VERTEX
  8
6350LEVEL
 62
13
 10
1739.132
 20
-6973.197
 30
-1114.000
 70
    32
  0
VERTEX
  8
6350LEVEL
 62
13
 10
1800.755
 20
-6999.430
 30
-1114.000
 70
    32
  0
VERTEX
  8
6350LEVEL
 62
13
 10
1798.808
 20
-6965.568
 30
-1114.000
 70
    32
  0
VERTEX
  8
6350LEVEL
 62
13
 10
1825.386
 20
-6969.167
 30
-1114.000
 70
    32
  0
VERTEX
  8
6350LEVEL
 62
13
 10
1855.864
 20
-6993.360
 30
-1114.000
 70
    32
  0
VERTEX
  8
6350LEVEL
 62
13
 10
1907.488
 20
-7047.483
 30
-1114.000
 70
    32
  0
VERTEX
  8
6350LEVEL
 62
13
 10
2005.809
 20
-7179.482
 30
-1114.000
 70
    32
  0
VERTEX
  8
6350LEVEL
 62
13
 10
2069.534
 20
-7362.484
 30
-1114.000
 70
    32
  0
VERTEX
  8
6350LEVEL
 62
13
 10
2122.997
 20
-7453.565
 30
-1114.000
 70
    32
  0
SEQEND
  8
6350LEVEL
  0
POLYLINE
  8
6350LEVEL
 62
7
 66
     1
 70
     8
  0
VERTEX
  8
6350LEVEL
 62
7
 10
2168.502
 20
-7883.204
 30
-1114.000
 70
    32
  0
VERTEX
  8
6350LEVEL
 62
7
 10
2146.762
 20
-7865.230
 30
-1114.000
 70
    32
  0
VERTEX
  8
6350LEVEL
 62
7
 10
2044.453
 20
-7920.437
 30
-1114.000
 70
    32
  0
VERTEX
  8
6350LEVEL
 62
7
 10
2004.168
 20
-7910.166
 30
-1114.000
 70
    32
  0
VERTEX
  8
6350LEVEL
 62
7
 10
1915.893
 20
-7841.149
 30
-1114.000
 70
    32
  0
VERTEX
  8
6350LEVEL
 62
7
 10
1905.834
 20
-7818.943
 30
-1114.000
 70
    32
  0
VERTEX
  8
6350LEVEL
 62
7
 10
1907.862
 20
-7803.973
 30
-1114.000
 70
    32
  0
VERTEX
  8
6350LEVEL
 62
7
 10
1961.056
 20
-7852.242
 30
-1114.000
 70
    32
  0
VERTEX
  8
6350LEVEL
 62
7
 10
1927.032
 20
-7784.170
 30
-1114.000
 70
    32
  0
VERTEX
  8
6350LEVEL
 62
7
 10
1951.600
 20
-7799.164
 30
-1114.000
 70
    32
  0
VERTEX
  8
6350LEVEL
 62
7
 10
1962.226
 20
-7773.537
 30
-1114.000
 70
    32
  0
VERTEX
  8
6350LEVEL
 62
7
 10
1933.847
 20
-7714.318
 30
-1114.000
 70
    32
  0
VERTEX
  8
6350LEVEL
 62
7
 10
1835.278
 20
-7584.152
 30
-1114.000
 70
    32
  0
VERTEX
  8
6350LEVEL
 62
7
 10
1782.192
 20
-7532.786
 30
-1114.000
 70
    32
  0
VERTEX
  8
6350LEVEL
 62
7
 10
1753.520
 20
-7517.082
 30
-1114.000
 70
    32
  0
VERTEX
  8
6350LEVEL
 62
7
 10
1787.278
 20
-7579.138
 30
-1114.000
 70
    32
  0
VERTEX
  8
6350LEVEL
 62
7
 10
1810.402
 20
-7604.737
 30
-1114.000
 70
    32
  0
VERTEX
  8
6350LEVEL
 62
7
 10
1825.477
 20
-7645.044
 30
-1114.000
 70
    32
  0
VERTEX
  8
6350LEVEL
 62
7
 10
1776.702
 20
-7586.314
 30
-1114.000
 70
    32
  0
VERTEX
  8
6350LEVEL
 62
7
 10
1727.798
 20
-7498.491
 30
-1114.000
 70
    32
  0
VERTEX
  8
6350LEVEL
 62
7
 10
1721.721
 20
-7443.816
 30
-1114.000
 70
    32
  0
VERTEX
  8
6350LEVEL
 62
7
 10
1704.299
 20
-7392.189
 30
-1114.000
 70
    32
  0
VERTEX
  8
6350LEVEL
 62
7
 10
1655.676
 20
-7304.387
 30
-1114.000
 70
    32
  0
VERTEX
  8
6350LEVEL
 62
7
 10
1628.126
 20
-7200.728
 30
-1114.000
 70
    32
  0
VERTEX
  8
6350LEVEL
 62
7
 10
1598.346
 20
-7099.709
 30
-1114.000
 70
    32
  0
VERTEX
  8
6350LEVEL
 62
7
 10
1564.314
 20
-7000.621
 30
-1114.000
 70
    32
  0
VERTEX
  8
6350LEVEL
 62
7
 10
1545.346
 20
-6942.326
 30
-1114.000
 70
    32
  0
VERTEX
  8
6350LEVEL
 62
7
 10
1547.124
 20
-6933.997
 30
-1114.000
 70
    32
  0
VERTEX
  8
6350LEVEL
 62
7
 10
1561.350
 20
-6942.920
 30
-1114.000
 70
    32
  0
VERTEX
  8
6350LEVEL
 62
7
 10
1588.616
 20
-6992.293
 30
-1114.000
 70
    32
  0
VERTEX
  8
6350LEVEL
 62
7
 10
1628.842
 20
-7094.990
 30
-1114.000
 70
    32
  0
VERTEX
  8
6350LEVEL
 62
7
 10
1687.481
 20
-7280.606
 30
-1114.000
 70
    32
  0
VERTEX
  8
6350LEVEL
 62
7
 10
1745.018
 20
-7363.529
 30
-1114.000
 70
    32
  0
VERTEX
  8
6350LEVEL
 62
7
 10
1822.313
 20
-7504.154
 30
-1114.000
 70
    32
  0
VERTEX
  8
6350LEVEL
 62
7
 10
1827.091
 20
-7513.667
 30
-1114.000
 70
    32
  0
VERTEX
  8
6350LEVEL
 62
7
 10
1800.565
 20
-7499.342
 30
-1114.000
 70
    32
  0
VERTEX
  8
6350LEVEL
 62
7
 10
1803.773
 20
-7514.710
 30
-1114.000
 70
    32
  0
VERTEX
  8
6350LEVEL
 62
7
 10
1870.353
 20
-7616.900
 30
-1114.000
 70
    32
  0
VERTEX
  8
6350LEVEL
 62
7
 10
1937.599
 20
-7672.828
 30
-1114.000
 70
    32
  0
VERTEX
  8
6350LEVEL
 62
7
 10
1916.482
 20
-7628.903
 30
-1114.000
 70
    32
  0
VERTEX
  8
6350LEVEL
 62
7
 10
1931.540
 20
-7637.164
 30
-1114.000
 70
    32
  0
VERTEX
  8
6350LEVEL
 62
7
 10
1975.202
 20
-7699.541
 30
-1114.000
 70
    32
  0
VERTEX
  8
6350LEVEL
 62
7
 10
2018.450
 20
-7794.839
 30
-1114.000
 70
    32
  0
VERTEX
  8
6350LEVEL
 62
7
 10
2048.559
 20
-7840.137
 30
-1114.000
 70
    32
  0
VERTEX
  8
6350LEVEL
 62
7
 10
1971.557
 20
-7654.094
 30
-1114.000
 70
    32
  0
VERTEX
  8
6350LEVEL
 62
7
 10
1981.728
 20
-7661.693
 30
-1114.000
 70
    32
  0
VERTEX
  8
6350LEVEL
 62
7
 10
2164.666
 20
-7836.342
 30
-1114.000
 70
    32
  0
VERTEX
  8
6350LEVEL
 62
7
 10
2154.435
 20
-7840.194
 30
-1114.000
 70
    32
  0
VERTEX
  8
6350LEVEL
 62
7
 10
2164.026
 20
-7862.662
 30
-1114.000
 70
    32
  0
VERTEX
  8
6350LEVEL
 62
7
 10
2175.536
 20
-7873.575
 30
-1114.000
 70
    32
  0
SEQEND
  8
6350LEVEL
  0
POLYLINE
  8
6350LEVEL
 62
13
 66
     1
 70
     8
  0
VERTEX
  8
6350LEVEL
 62
13
 10
1963.440
 20
-8154.452
 30
-1114.000
 70
    32
  0
VERTEX
  8
6350LEVEL
 62
13
 10
1926.729
 20
-8096.679
 30
-1114.000
 70
    32
  0
VERTEX
  8
6350LEVEL
 62
13
 10
1891.395
 20
-8060.455
 30
-1114.000
 70
    32
  0
VERTEX
  8
6350LEVEL
 62
13
 10
1883.593
 20
-8019.189
 30
-1114.000
 70
    32
  0
VERTEX
  8
6350LEVEL
 62
13
 10
1813.383
 20
-7911.435
 30
-1114.000
 70
    32
  0
VERTEX
  8
6350LEVEL
 62
13
 10
1807.876
 20
-7903.640
 30
-1114.000
 70
    32
  0
VERTEX
  8
6350LEVEL
 62
13
 10
1791.356
 20
-7894.011
 30
-1114.000
 70
    32
  0
VERTEX
  8
6350LEVEL
 62
13
 10
1754.186
 20
-7882.090
 30
-1114.000
 70
    32
  0
VERTEX
  8
6350LEVEL
 62
13
 10
1714.263
 20
-7878.880
 30
-1114.000
 70
    32
  0
VERTEX
  8
6350LEVEL
 62
13
 10
1692.184
 20
-7833.137
 30
-1114.000
 70
    32
  0
VERTEX
  8
6350LEVEL
 62
13
 10
1701.872
 20
-7814.229
 30
-1114.000
 70
    32
  0
VERTEX
  8
6350LEVEL
 62
13
 10
1713.345
 20
-7817.438
 30
-1114.000
 70
    32
  0
VERTEX
  8
6350LEVEL
 62
13
 10
1728.488
 20
-7828.443
 30
-1114.000
 70
    32
  0
VERTEX
  8
6350LEVEL
 62
13
 10
1742.255
 20
-7820.190
 30
-1114.000
 70
    32
  0
VERTEX
  8
6350LEVEL
 62
13
 10
1736.289
 20
-7801.390
 30
-1114.000
 70
    32
  0
VERTEX
  8
6350LEVEL
 62
13
 10
1720.687
 20
-7781.674
 30
-1114.000
 70
    32
  0
VERTEX
  8
6350LEVEL
 62
13
 10
1710.591
 20
-7798.639
 30
-1114.000
 70
    32
  0
VERTEX
  8
6350LEVEL
 62
13
 10
1688.565
 20
-7795.888
 30
-1114.000
 70
    32
  0
VERTEX
  8
6350LEVEL
 62
13
 10
1674.798
 20
-7783.049
 30
-1114.000
 70
    32
  0
VERTEX
  8
6350LEVEL
 62
13
 10
1640.872
 20
-7686.153
 30
-1114.000
 70
    32
  0
VERTEX
  8
6350LEVEL
 62
13
 10
1593.296
 20
-7596.900
 30
-1114.000
 70
    32
  0
VERTEX
  8
6350LEVEL
 62
13
 10
1582.037
 20
-7583.579
 30
-1114.000
 70
    32
  0
VERTEX
  8
6350LEVEL
 62
13
 10
1573.218
 20
-7580.630
 30
-1114.000
 70
    32
  0
VERTEX
  8
6350LEVEL
 62
13
 10
1550.124
 20
-7570.939
 30
-1114.000
 70
    32
  0
VERTEX
  8
6350LEVEL
 62
13
 10
1503.934
 20
-7550.294
 30
-1114.000
 70
    32
  0
VERTEX
  8
6350LEVEL
 62
13
 10
1491.220
 20
-7538.887
 30
-1114.000
 70
    32
  0
VERTEX
  8
6350LEVEL
 62
13
 10
1489.658
 20
-7525.857
 30
-1114.000
 70
    32
  0
VERTEX
  8
6350LEVEL
 62
13
 10
1495.116
 20
-7503.105
 30
-1114.000
 70
    32
  0
VERTEX
  8
6350LEVEL
 62
13
 10
1503.095
 20
-7469.398
 30
-1114.000
 70
    32
  0
VERTEX
  8
6350LEVEL
 62
13
 10
1511.493
 20
-7422.209
 30
-1114.000
 70
    32
  0
VERTEX
  8
6350LEVEL
 62
13
 10
1509.612
 20
-7410.488
 30
-1114.000
 70
    32
  0
VERTEX
  8
6350LEVEL
 62
13
 10
1477.805
 20
-7185.738
 30
-1114.000
 70
    32
  0
VERTEX
  8
6350LEVEL
 62
13
 10
1442.564
 20
-7142.763
 30
-1114.000
 70
    32
  0
VERTEX
  8
6350LEVEL
 62
13
 10
1425.058
 20
-7100.693
 30
-1114.000
 70
    32
  0
VERTEX
  8
6350LEVEL
 62
13
 10
1419.828
 20
-7086.217
 30
-1114.000
 70
    32
  0
VERTEX
  8
6350LEVEL
 62
13
 10
1415.053
 20
-7080.789
 30
-1114.000
 70
    32
  0
VERTEX
  8
6350LEVEL
 62
13
 10
1419.374
 20
-7104.765
 30
-1114.000
 70
    32
  0
VERTEX
  8
6350LEVEL
 62
13
 10
1425.766
 20
-7167.974
 30
-1114.000
 70
    32
  0
VERTEX
  8
6350LEVEL
 62
13
 10
1423.011
 20
-7226.225
 30
-1114.000
 70
    32
  0
VERTEX
  8
6350LEVEL
 62
13
 10
1413.463
 20
-7347.910
 30
-1114.000
 70
    32
  0
VERTEX
  8
6350LEVEL
 62
13
 10
1412.648
 20
-7449.765
 30
-1114.000
 70
    32
  0
VERTEX
  8
6350LEVEL
 62
13
 10
1417.278
 20
-7486.791
 30
-1114.000
 70
    32
  0
VERTEX
  8
6350LEVEL
 62
13
 10
1406.762
 20
-7533.432
 30
-1114.000
 70
    32
  0
VERTEX
  8
6350LEVEL
 62
13
 10
1399.986
 20
-7524.892
 30
-1114.000
 70
    32
  0
VERTEX
  8
6350LEVEL
 62
13
 10
1392.256
 20
-7529.134
 30
-1114.000
 70
    32
  0
VERTEX
  8
6350LEVEL
 62
13
 10
1380.394
 20
-7576.526
 30
-1114.000
 70
    32
  0
VERTEX
  8
6350LEVEL
 62
13
 10
1365.994
 20
-7545.022
 30
-1114.000
 70
    32
  0
VERTEX
  8
6350LEVEL
 62
13
 10
1359.643
 20
-7493.141
 30
-1114.000
 70
    32
  0
VERTEX
  8
6350LEVEL
 62
13
 10
1373.620
 20
-7412.903
 30
-1114.000
 70
    32
  0
VERTEX
  8
6350LEVEL
 62
13
 10
1371.401
 20
-7377.766
 30
-1114.000
 70
    32
  0
VERTEX
  8
6350LEVEL
 62
13
 10
1336.661
 20
-7325.146
 30
-1114.000
 70
    32
  0
VERTEX
  8
6350LEVEL
 62
13
 10
1325.473
 20
-7296.794
 30
-1114.000
 70
    32
  0
VERTEX
  8
6350LEVEL
 62
13
 10
1281.165
 20
-7152.592
 30
-1114.000
 70
    32
  0
VERTEX
  8
6350LEVEL
 62
13
 10
1274.581
 20
-7044.993
 30
-1114.000
 70
    32
  0
VERTEX
  8
6350LEVEL
 62
13
 10
1277.013
 20
-7031.634
 30
-1114.000
 70
    32
  0
VERTEX
  8
6350LEVEL
 62
13
 10
1286.392
 20
-7032.437
 30
-1114.000
 70
    32
  0
VERTEX
  8
6350LEVEL
 62
13
 10
1321.925
 20
-7080.181
 30
-1114.000
 70
    32
  0
VERTEX
  8
6350LEVEL
 62
13
 10
1308.573
 20
-7024.864
 30
-1114.000
 70
    32
  0
VERTEX
  8
6350LEVEL
 62
13
 10
1309.557
 20
-6939.202
 30
-1114.000
 70
    32
  0
VERTEX
  8
6350LEVEL
 62
13
 10
1304.555
 20
-6896.905
 30
-1114.000
 70
    32
  0
VERTEX
  8
6350LEVEL
 62
13
 10
1311.149
 20
-6889.215
 30
-1114.000
 70
    32
  0
VERTEX
  8
6350LEVEL
 62
13
 10
1339.796
 20
-6916.809
 30
-1114.000
 70
    32
  0
VERTEX
  8
6350LEVEL
 62
13
 10
1348.891
 20
-6930.154
 30
-1114.000
 70
    32
  0
VERTEX
  8
6350LEVEL
 62
13
 10
1345.935
 20
-6912.286
 30
-1114.000
 70
    32
  0
VERTEX
  8
6350LEVEL
 62
13
 10
1347.072
 20
-6889.667
 30
-1114.000
 70
    32
  0
VERTEX
  8
6350LEVEL
 62
13
 10
1341.842
 20
-6839.228
 30
-1114.000
 70
    32
  0
VERTEX
  8
6350LEVEL
 62
13
 10
1323.881
 20
-6805.075
 30
-1114.000
 70
    32
  0
VERTEX
  8
6350LEVEL
 62
13
 10
1333.379
 20
-6725.678
 30
-1114.000
 70
    32
  0
VERTEX
  8
6350LEVEL
 62
13
 10
1325.242
 20
-6679.363
 30
-1114.000
 70
    32
  0
VERTEX
  8
6350LEVEL
 62
13
 10
1349.701
 20
-6614.337
 30
-1114.000
 70
    32
  0
VERTEX
  8
6350LEVEL
 62
13
 10
1346.893
 20
-6587.980
 30
-1114.000
 70
    32
  0
VERTEX
  8
6350LEVEL
 62
13
 10
1355.938
 20
-6535.737
 30
-1114.000
 70
    32
  0
VERTEX
  8
6350LEVEL
 62
13
 10
1335.020
 20
-6497.060
 30
-1114.000
 70
    32
  0
VERTEX
  8
6350LEVEL
 62
13
 10
1296.369
 20
-6454.086
 30
-1114.000
 70
    32
  0
VERTEX
  8
6350LEVEL
 62
13
 10
1288.866
 20
-6446.622
 30
-1114.000
 70
    32
  0
VERTEX
  8
6350LEVEL
 62
13
 10
1288.639
 20
-6459.966
 30
-1114.000
 70
    32
  0
VERTEX
  8
6350LEVEL
 62
13
 10
1291.226
 20
-6553.376
 30
-1114.000
 70
    32
  0
VERTEX
  8
6350LEVEL
 62
13
 10
1264.766
 20
-6540.034
 30
-1114.000
 70
    32
  0
VERTEX
  8
6350LEVEL
 62
13
 10
1269.313
 20
-6474.216
 30
-1114.000
 70
    32
  0
VERTEX
  8
6350LEVEL
 62
13
 10
1268.176
 20
-6439.158
 30
-1114.000
 70
    32
  0
VERTEX
  8
6350LEVEL
 62
13
 10
1258.522
 20
-6420.676
 30
-1114.000
 70
    32
  0
VERTEX
  8
6350LEVEL
 62
13
 10
1257.731
 20
-6409.564
 30
-1114.000
 70
    32
  0
VERTEX
  8
6350LEVEL
 62
13
 10
1262.080
 20
-6394.483
 30
-1114.000
 70
    32
  0
VERTEX
  8
6350LEVEL
 62
13
 10
1260.894
 20
-6363.131
 30
-1114.000
 70
    32
  0
VERTEX
  8
6350LEVEL
 62
13
 10
1242.706
 20
-6306.777
 30
-1114.000
 70
    32
  0
VERTEX
  8
6350LEVEL
 62
13
 10
1226.494
 20
-6257.964
 30
-1114.000
 70
    32
  0
VERTEX
  8
6350LEVEL
 62
13
 10
1169.952
 20
-6174.623
 30
-1114.000
 70
    32
  0
VERTEX
  8
6350LEVEL
 62
13
 10
1166.510
 20
-6165.781
 30
-1114.000
 70
    32
  0
VERTEX
  8
6350LEVEL
 62
13
 10
1164.629
 20
-6152.670
 30
-1114.000
 70
    32
  0
VERTEX
  8
6350LEVEL
 62
13
 10
1162.747
 20
-6127.386
 30
-1114.000
 70
    32
  0
VERTEX
  8
6350LEVEL
 62
13
 10
1147.692
 20
-6110.531
 30
-1114.000
 70
    32
  0
VERTEX
  8
6350LEVEL
 62
13
 10
1129.344
 20
-6100.230
 30
-1114.000
 70
    32
  0
VERTEX
  8
6350LEVEL
 62
13
 10
1121.817
 20
-6087.588
 30
-1114.000
 70
    32
  0
VERTEX
  8
6350LEVEL
 62
13
 10
1126.051
 20
-6025.783
 30
-1114.000
 70
    32
  0
VERTEX
  8
6350LEVEL
 62
13
 10
1131.697
 20
-6006.586
 30
-1114.000
 70
    32
  0
VERTEX
  8
6350LEVEL
 62
13
 10
1152.867
 20
-5985.516
 30
-1114.000
 70
    32
  0
VERTEX
  8
6350LEVEL
 62
13
 10
1169.333
 20
-5953.677
 30
-1114.000
 70
    32
  0
VERTEX
  8
6350LEVEL
 62
13
 10
1170.274
 20
-5929.330
 30
-1114.000
 70
    32
  0
VERTEX
  8
6350LEVEL
 62
13
 10
1106.291
 20
-5850.201
 30
-1114.000
 70
    32
  0
VERTEX
  8
6350LEVEL
 62
13
 10
1089.357
 20
-5741.108
 30
-1114.000
 70
    32
  0
VERTEX
  8
6350LEVEL
 62
13
 10
1082.770
 20
-5683.985
 30
-1114.000
 70
    32
  0
VERTEX
  8
6350LEVEL
 62
13
 10
1044.663
 20
-5650.273
 30
-1114.000
 70
    32
  0
VERTEX
  8
6350LEVEL
 62
13
 10
1052.083
 20
-5597.023
 30
-1114.000
 70
    32
  0
VERTEX
  8
6350LEVEL
 62
13
 10
1069.026
 20
-5481.100
 30
-1114.000
 70
    32
  0
VERTEX
  8
6350LEVEL
 62
13
 10
1066.874
 20
-5353.413
 30
-1114.000
 70
    32
  0
VERTEX
  8
6350LEVEL
 62
13
 10
1075.945
 20
-5305.954
 30
-1114.000
 70
    32
  0
VERTEX
  8
6350LEVEL
 62
13
 10
1083.277
 20
-5306.947
 30
-1114.000
 70
    32
  0
VERTEX
  8
6350LEVEL
 62
13
 10
1093.778
 20
-5371.834
 30
-1114.000
 70
    32
  0
VERTEX
  8
6350LEVEL
 62
13
 10
1084.050
 20
-5436.780
 30
-1114.000
 70
    32
  0
VERTEX
  8
6350LEVEL
 62
13
 10
1103.318
 20
-5478.277
 30
-1114.000
 70
    32
  0
VERTEX
  8
6350LEVEL
 62
13
 10
1104.852
 20
-5515.195
 30
-1114.000
 70
    32
  0
VERTEX
  8
6350LEVEL
 62
13
 10
1109.116
 20
-5588.000
 30
-1114.000
 70
    32
  0
VERTEX
  8
6350LEVEL
 62
13
 10
1124.171
 20
-5610.007
 30
-1114.000
 70
    32
  0
VERTEX
  8
6350LEVEL
 62
13
 10
1149.575
 20
-5627.799
 30
-1114.000
 70
    32
  0
VERTEX
  8
6350LEVEL
 62
13
 10
1156.632
 20
-5651.678
 30
-1114.000
 70
    32
  0
VERTEX
  8
6350LEVEL
 62
13
 10
1136.403
 20
-5692.882
 30
-1114.000
 70
    32
  0
VERTEX
  8
6350LEVEL
 62
13
 10
1135.932
 20
-5706.460
 30
-1114.000
 70
    32
  0
VERTEX
  8
6350LEVEL
 62
13
 10
1152.398
 20
-5786.525
 30
-1114.000
 70
    32
  0
VERTEX
  8
6350LEVEL
 62
13
 10
1205.090
 20
-5900.771
 30
-1114.000
 70
    32
  0
VERTEX
  8
6350LEVEL
 62
13
 10
1175.919
 20
-6042.170
 30
-1114.000
 70
    32
  0
VERTEX
  8
6350LEVEL
 62
13
 10
1190.033
 20
-6134.410
 30
-1114.000
 70
    32
  0
VERTEX
  8
6350LEVEL
 62
13
 10
1195.679
 20
-6156.416
 30
-1114.000
 70
    32
  0
VERTEX
  8
6350LEVEL
 62
13
 10
1224.377
 20
-6169.526
 30
-1114.000
 70
    32
  0
VERTEX
  8
6350LEVEL
 62
13
 10
1263.841
 20
-6188.169
 30
-1114.000
 70
    32
  0
VERTEX
  8
6350LEVEL
 62
13
 10
1280.669
 20
-6217.824
 30
-1114.000
 70
    32
  0
VERTEX
  8
6350LEVEL
 62
13
 10
1292.535
 20
-6272.630
 30
-1114.000
 70
    32
  0
VERTEX
  8
6350LEVEL
 62
13
 10
1338.542
 20
-6333.769
 30
-1114.000
 70
    32
  0
VERTEX
  8
6350LEVEL
 62
13
 10
1326.532
 20
-6348.942
 30
-1114.000
 70
    32
  0
VERTEX
  8
6350LEVEL
 62
13
 10
1305.918
 20
-6385.779
 30
-1114.000
 70
    32
  0
VERTEX
  8
6350LEVEL
 62
13
 10
1330.928
 20
-6429.432
 30
-1114.000
 70
    32
  0
VERTEX
  8
6350LEVEL
 62
13
 10
1361.622
 20
-6530.308
 30
-1114.000
 70
    32
  0
VERTEX
  8
6350LEVEL
 62
13
 10
1405.030
 20
-6621.355
 30
-1114.000
 70
    32
  0
VERTEX
  8
6350LEVEL
 62
13
 10
1421.761
 20
-6733.536
 30
-1114.000
 70
    32
  0
VERTEX
  8
6350LEVEL
 62
13
 10
1424.428
 20
-6749.597
 30
-1114.000
 70
    32
  0
VERTEX
  8
6350LEVEL
 62
13
 10
1418.797
 20
-6736.212
 30
-1114.000
 70
    32
  0
VERTEX
  8
6350LEVEL
 62
13
 10
1380.264
 20
-6639.555
 30
-1114.000
 70
    32
  0
VERTEX
  8
6350LEVEL
 62
13
 10
1371.397
 20
-6619.425
 30
-1114.000
 70
    32
  0
VERTEX
  8
6350LEVEL
 62
13
 10
1376.853
 20
-6642.270
 30
-1114.000
 70
    32
  0
VERTEX
  8
6350LEVEL
 62
13
 10
1414.352
 20
-6740.079
 30
-1114.000
 70
    32
  0
VERTEX
  8
6350LEVEL
 62
13
 10
1417.908
 20
-6751.084
 30
-1114.000
 70
    32
  0
VERTEX
  8
6350LEVEL
 62
13
 10
1417.316
 20
-6755.842
 30
-1114.000
 70
    32
  0
VERTEX
  8
6350LEVEL
 62
13
 10
1415.834
 20
-6769.524
 30
-1114.000
 70
    32
  0
VERTEX
  8
6350LEVEL
 62
13
 10
1411.092
 20
-6780.529
 30
-1114.000
 70
    32
  0
VERTEX
  8
6350LEVEL
 62
13
 10
1409.017
 20
-6799.267
 30
-1114.000
 70
    32
  0
VERTEX
  8
6350LEVEL
 62
13
 10
1411.388
 20
-6808.487
 30
-1114.000
 70
    32
  0
VERTEX
  8
6350LEVEL
 62
13
 10
1416.723
 20
-6814.436
 30
-1114.000
 70
    32
  0
VERTEX
  8
6350LEVEL
 62
13
 10
1434.801
 20
-6829.902
 30
-1114.000
 70
    32
  0
VERTEX
  8
6350LEVEL
 62
13
 10
1449.323
 20
-6837.338
 30
-1114.000
 70
    32
  0
VERTEX
  8
6350LEVEL
 62
13
 10
1446.476
 20
-6869.167
 30
-1114.000
 70
    32
  0
VERTEX
  8
6350LEVEL
 62
13
 10
1417.421
 20
-6950.474
 30
-1114.000
 70
    32
  0
VERTEX
  8
6350LEVEL
 62
13
 10
1413.759
 20
-6986.940
 30
-1114.000
 70
    32
  0
VERTEX
  8
6350LEVEL
 62
13
 10
1381.751
 20
-7091.634
 30
-1114.000
 70
    32
  0
VERTEX
  8
6350LEVEL
 62
13
 10
1380.267
 20
-7133.716
 30
-1114.000
 70
    32
  0
VERTEX
  8
6350LEVEL
 62
13
 10
1389.169
 20
-7171.729
 30
-1114.000
 70
    32
  0
VERTEX
  8
6350LEVEL
 62
13
 10
1397.995
 20
-7174.324
 30
-1114.000
 70
    32
  0
VERTEX
  8
6350LEVEL
 62
13
 10
1403.458
 20
-7116.752
 30
-1114.000
 70
    32
  0
VERTEX
  8
6350LEVEL
 62
13
 10
1405.731
 20
-7078.753
 30
-1114.000
 70
    32
  0
VERTEX
  8
6350LEVEL
 62
13
 10
1421.761
 20
-6981.289
 30
-1114.000
 70
    32
  0
VERTEX
  8
6350LEVEL
 62
13
 10
1425.021
 20
-6962.550
 30
-1114.000
 70
    32
  0
VERTEX
  8
6350LEVEL
 62
13
 10
1431.541
 20
-6956.602
 30
-1114.000
 70
    32
  0
VERTEX
  8
6350LEVEL
 62
13
 10
1444.285
 20
-6964.930
 30
-1114.000
 70
    32
  0
VERTEX
  8
6350LEVEL
 62
13
 10
1495.260
 20
-7050.887
 30
-1114.000
 70
    32
  0
VERTEX
  8
6350LEVEL
 62
13
 10
1512.450
 20
-7100.854
 30
-1114.000
 70
    32
  0
VERTEX
  8
6350LEVEL
 62
13
 10
1534.531
 20
-7146.458
 30
-1114.000
 70
    32
  0
VERTEX
  8
6350LEVEL
 62
13
 10
1547.092
 20
-7198.289
 30
-1114.000
 70
    32
  0
VERTEX
  8
6350LEVEL
 62
13
 10
1547.496
 20
-7259.672
 30
-1114.000
 70
    32
  0
VERTEX
  8
6350LEVEL
 62
13
 10
1566.134
 20
-7309.063
 30
-1114.000
 70
    32
  0
VERTEX
  8
6350LEVEL
 62
13
 10
1561.677
 20
-7372.275
 30
-1114.000
 70
    32
  0
VERTEX
  8
6350LEVEL
 62
13
 10
1576.668
 20
-7423.700
 30
-1114.000
 70
    32
  0
VERTEX
  8
6350LEVEL
 62
13
 10
1576.158
 20
-7431.478
 30
-1114.000
 70
    32
  0
VERTEX
  8
6350LEVEL
 62
13
 10
1560.201
 20
-7454.230
 30
-1114.000
 70
    32
  0
VERTEX
  8
6350LEVEL
 62
13
 10
1545.085
 20
-7484.566
 30
-1114.000
 70
    32
  0
VERTEX
  8
6350LEVEL
 62
13
 10
1548.747
 20
-7497.402
 30
-1114.000
 70
    32
  0
VERTEX
  8
6350LEVEL
 62
13
 10
1552.223
 20
-7503.526
 30
-1114.000
 70
    32
  0
VERTEX
  8
6350LEVEL
 62
13
 10
1561.461
 20
-7507.740
 30
-1114.000
 70
    32
  0
VERTEX
  8
6350LEVEL
 62
13
 10
1575.318
 20
-7505.633
 30
-1114.000
 70
    32
  0
VERTEX
  8
6350LEVEL
 62
13
 10
1603.871
 20
-7514.481
 30
-1114.000
 70
    32
  0
VERTEX
  8
6350LEVEL
 62
13
 10
1609.330
 20
-7522.487
 30
-1114.000
 70
    32
  0
VERTEX
  8
6350LEVEL
 62
13
 10
1620.248
 20
-7526.279
 30
-1114.000
 70
    32
  0
VERTEX
  8
6350LEVEL
 62
13
 10
1635.364
 20
-7529.650
 30
-1114.000
 70
    32
  0
VERTEX
  8
6350LEVEL
 62
13
 10
1636.624
 20
-7520.802
 30
-1114.000
 70
    32
  0
VERTEX
  8
6350LEVEL
 62
13
 10
1626.126
 20
-7508.583
 30
-1114.000
 70
    32
  0
VERTEX
  8
6350LEVEL
 62
13
 10
1619.408
 20
-7501.419
 30
-1114.000
 70
    32
  0
VERTEX
  8
6350LEVEL
 62
13
 10
1587.915
 20
-7489.201
 30
-1114.000
 70
    32
  0
VERTEX
  8
6350LEVEL
 62
13
 10
1575.318
 20
-7486.673
 30
-1114.000
 70
    32
  0
VERTEX
  8
6350LEVEL
 62
13
 10
1574.705
 20
-7477.361
 30
-1114.000
 70
    32
  0
VERTEX
  8
6350LEVEL
 62
13
 10
1572.379
 20
-7468.977
 30
-1114.000
 70
    32
  0
VERTEX
  8
6350LEVEL
 62
13
 10
1583.296
 20
-7447.068
 30
-1114.000
 70
    32
  0
VERTEX
  8
6350LEVEL
 62
13
 10
1595.893
 20
-7424.737
 30
-1114.000
 70
    32
  0
VERTEX
  8
6350LEVEL
 62
13
 10
1594.495
 20
-7410.285
 30
-1114.000
 70
    32
  0
VERTEX
  8
6350LEVEL
 62
13
 10
1569.375
 20
-7366.787
 30
-1114.000
 70
    32
  0
VERTEX
  8
6350LEVEL
 62
13
 10
1570.793
 20
-7305.201
 30
-1114.000
 70
    32
  0
VERTEX
  8
6350LEVEL
 62
13
 10
1549.319
 20
-7258.046
 30
-1114.000
 70
    32
  0
VERTEX
  8
6350LEVEL
 62
13
 10
1553.777
 20
-7193.004
 30
-1114.000
 70
    32
  0
VERTEX
  8
6350LEVEL
 62
13
 10
1550.535
 20
-7182.638
 30
-1114.000
 70
    32
  0
VERTEX
  8
6350LEVEL
 62
13
 10
1536.152
 20
-7144.629
 30
-1114.000
 70
    32
  0
VERTEX
  8
6350LEVEL
 62
13
 10
1527.644
 20
-7112.311
 30
-1114.000
 70
    32
  0
VERTEX
  8
6350LEVEL
 62
13
 10
1549.725
 20
-7114.953
 30
-1114.000
 70
    32
  0
VERTEX
  8
6350LEVEL
 62
13
 10
1556.816
 20
-7129.791
 30
-1114.000
 70
    32
  0
VERTEX
  8
6350LEVEL
 62
13
 10
1572.212
 20
-7179.590
 30
-1114.000
 70
    32
  0
VERTEX
  8
6350LEVEL
 62
13
 10
1582.341
 20
-7234.469
 30
-1114.000
 70
    32
  0
VERTEX
  8
6350LEVEL
 62
13
 10
1593.888
 20
-7288.738
 30
-1114.000
 70
    32
  0
VERTEX
  8
6350LEVEL
 62
13
 10
1595.508
 20
-7300.933
 30
-1114.000
 70
    32
  0
VERTEX
  8
6350LEVEL
 62
13
 10
1595.508
 20
-7287.518
 30
-1114.000
 70
    32
  0
VERTEX
  8
6350LEVEL
 62
13
 10
1597.534
 20
-7252.965
 30
-1114.000
 70
    32
  0
VERTEX
  8
6350LEVEL
 62
13
 10
1595.307
 20
-7225.119
 30
-1114.000
 70
    32
  0
VERTEX
  8
6350LEVEL
 62
13
 10
1575.251
 20
-7177.557
 30
-1114.000
 70
    32
  0
VERTEX
  8
6350LEVEL
 62
13
 10
1559.044
 20
-7128.368
 30
-1114.000
 70
    32
  0
VERTEX
  8
6350LEVEL
 62
13
 10
1544.458
 20
-7086.091
 30
-1114.000
 70
    32
  0
VERTEX
  8
6350LEVEL
 62
13
 10
1518.080
 20
-7033.338
 30
-1114.000
 70
    32
  0
VERTEX
  8
6350LEVEL
 62
13
 10
1508.893
 20
-7016.087
 30
-1114.000
 70
    32
  0
VERTEX
  8
6350LEVEL
 62
13
 10
1491.704
 20
-6989.319
 30
-1114.000
 70
    32
  0
VERTEX
  8
6350LEVEL
 62
13
 10
1475.700
 20
-6970.879
 30
-1114.000
 70
    32
  0
VERTEX
  8
6350LEVEL
 62
13
 10
1464.734
 20
-6950.058
 30
-1114.000
 70
    32
  0
VERTEX
  8
6350LEVEL
 62
13
 10
1459.992
 20
-6927.752
 30
-1114.000
 70
    32
  0
VERTEX
  8
6350LEVEL
 62
13
 10
1465.030
 20
-6911.988
 30
-1114.000
 70
    32
  0
VERTEX
  8
6350LEVEL
 62
13
 10
1481.627
 20
-6937.864
 30
-1114.000
 70
    32
  0
VERTEX
  8
6350LEVEL
 62
13
 10
1492.593
 20
-6963.443
 30
-1114.000
 70
    32
  0
VERTEX
  8
6350LEVEL
 62
13
 10
1500.891
 20
-6984.263
 30
-1114.000
 70
    32
  0
VERTEX
  8
6350LEVEL
 62
13
 10
1514.524
 20
-7010.437
 30
-1114.000
 70
    32
  0
VERTEX
  8
6350LEVEL
 62
13
 10
1524.897
 20
-7029.769
 30
-1114.000
 70
    32
  0
VERTEX
  8
6350LEVEL
 62
13
 10
1578.695
 20
-7114.343
 30
-1114.000
 70
    32
  0
VERTEX
  8
6350LEVEL
 62
13
 10
1604.220
 20
-7218.412
 30
-1114.000
 70
    32
  0
VERTEX
  8
6350LEVEL
 62
13
 10
1615.362
 20
-7264.549
 30
-1114.000
 70
    32
  0
VERTEX
  8
6350LEVEL
 62
13
 10
1633.797
 20
-7320.445
 30
-1114.000
 70
    32
  0
VERTEX
  8
6350LEVEL
 62
13
 10
1651.424
 20
-7431.214
 30
-1114.000
 70
    32
  0
VERTEX
  8
6350LEVEL
 62
13
 10
1672.087
 20
-7539.549
 30
-1114.000
 70
    32
  0
VERTEX
  8
6350LEVEL
 62
13
 10
1736.105
 20
-7616.386
 30
-1114.000
 70
    32
  0
VERTEX
  8
6350LEVEL
 62
13
 10
1769.788
 20
-7715.188
 30
-1114.000
 70
    32
  0
VERTEX
  8
6350LEVEL
 62
13
 10
1789.521
 20
-7734.905
 30
-1114.000
 70
    32
  0
VERTEX
  8
6350LEVEL
 62
13
 10
1829.444
 20
-7779.381
 30
-1114.000
 70
    32
  0
VERTEX
  8
6350LEVEL
 62
13
 10
1832.656
 20
-7762.416
 30
-1114.000
 70
    32
  0
VERTEX
  8
6350LEVEL
 62
13
 10
1851.012
 20
-7781.215
 30
-1114.000
 70
    32
  0
VERTEX
  8
6350LEVEL
 62
13
 10
1892.771
 20
-7853.662
 30
-1114.000
 70
    32
  0
VERTEX
  8
6350LEVEL
 62
13
 10
1927.667
 20
-7931.096
 30
-1114.000
 70
    32
  0
VERTEX
  8
6350LEVEL
 62
13
 10
1950.132
 20
-7971.503
 30
-1114.000
 70
    32
  0
VERTEX
  8
6350LEVEL
 62
13
 10
1965.735
 20
-7984.341
 30
-1114.000
 70
    32
  0
VERTEX
  8
6350LEVEL
 62
13
 10
1996.480
 20
-7983.424
 30
-1114.000
 70
    32
  0
VERTEX
  8
6350LEVEL
 62
13
 10
2009.329
 20
-8036.154
 30
-1114.000
 70
    32
  0
VERTEX
  8
6350LEVEL
 62
13
 10
2040.044
 20
-8083.353
 30
-1114.000
 70
    32
  0
SEQEND
  8
6350LEVEL
  0
POLYLINE
  8
6350LEVEL
 62
7
 66
     1
 70
     8
  0
VERTEX
  8
6350LEVEL
 62
7
 10
4670.134
 20
-9903.053
 30
-1114.000
 70
    32
  0
VERTEX
  8
6350LEVEL
 62
7
 10
4658.861
 20
-9862.598
 30
-1114.000
 70
    32
  0
VERTEX
  8
6350LEVEL
 62
7
 10
4623.705
 20
-9770.679
 30
-1114.000
 70
    32
  0
VERTEX
  8
6350LEVEL
 62
7
 10
4610.786
 20
-9724.655
 30
-1114.000
 70
    32
  0
VERTEX
  8
6350LEVEL
 62
7
 10
4610.786
 20
-9711.723
 30
-1114.000
 70
    32
  0
VERTEX
  8
6350LEVEL
 62
7
 10
4620.400
 20
-9718.686
 30
-1114.000
 70
    32
  0
VERTEX
  8
6350LEVEL
 62
7
 10
4673.118
 20
-9832.091
 30
-1114.000
 70
    32
  0
VERTEX
  8
6350LEVEL
 62
7
 10
4697.322
 20
-9880.836
 30
-1114.000
 70
    32
  0
VERTEX
  8
6350LEVEL
 62
7
 10
4678.091
 20
-9795.284
 30
-1114.000
 70
    32
  0
VERTEX
  8
6350LEVEL
 62
7
 10
4724.510
 20
-9909.021
 30
-1114.000
 70
    32
  0
VERTEX
  8
6350LEVEL
 62
7
 10
4732.798
 20
-9917.643
 30
-1114.000
 70
    32
  0
VERTEX
  8
6350LEVEL
 62
7
 10
4733.462
 20
-9910.016
 30
-1114.000
 70
    32
  0
VERTEX
  8
6350LEVEL
 62
7
 10
4675.107
 20
-9678.895
 30
-1114.000
 70
    32
  0
VERTEX
  8
6350LEVEL
 62
7
 10
4650.572
 20
-9636.783
 30
-1114.000
 70
    32
  0
VERTEX
  8
6350LEVEL
 62
7
 10
4647.399
 20
-9618.917
 30
-1114.000
 70
    32
  0
VERTEX
  8
6350LEVEL
 62
7
 10
4660.851
 20
-9630.151
 30
-1114.000
 70
    32
  0
VERTEX
  8
6350LEVEL
 62
7
 10
4672.123
 20
-9641.425
 30
-1114.000
 70
    32
  0
VERTEX
  8
6350LEVEL
 62
7
 10
4666.819
 20
-9624.513
 30
-1114.000
 70
    32
  0
VERTEX
  8
6350LEVEL
 62
7
 10
4658.969
 20
-9608.097
 30
-1114.000
 70
    32
  0
VERTEX
  8
6350LEVEL
 62
7
 10
4610.881
 20
-9570.428
 30
-1114.000
 70
    32
  0
VERTEX
  8
6350LEVEL
 62
7
 10
4600.625
 20
-9545.504
 30
-1114.000
 70
    32
  0
VERTEX
  8
6350LEVEL
 62
7
 10
4590.611
 20
-9581.895
 30
-1114.000
 70
    32
  0
VERTEX
  8
6350LEVEL
 62
7
 10
4566.811
 20
-9516.361
 30
-1114.000
 70
    32
  0
VERTEX
  8
6350LEVEL
 62
7
 10
4550.366
 20
-9411.512
 30
-1114.000
 70
    32
  0
VERTEX
  8
6350LEVEL
 62
7
 10
4593.495
 20
-9336.000
 30
-1114.000
 70
    32
  0
VERTEX
  8
6350LEVEL
 62
7
 10
4602.362
 20
-9305.836
 30
-1114.000
 70
    32
  0
VERTEX
  8
6350LEVEL
 62
7
 10
4601.330
 20
-9296.606
 30
-1114.000
 70
    32
  0
VERTEX
  8
6350LEVEL
 62
7
 10
4595.613
 20
-9299.134
 30
-1114.000
 70
    32
  0
VERTEX
  8
6350LEVEL
 62
7
 10
4580.456
 20
-9315.792
 30
-1114.000
 70
    32
  0
VERTEX
  8
6350LEVEL
 62
7
 10
4574.022
 20
-9251.147
 30
-1114.000
 70
    32
  0
VERTEX
  8
6350LEVEL
 62
7
 10
4582.844
 20
-9281.157
 30
-1114.000
 70
    32
  0
VERTEX
  8
6350LEVEL
 62
7
 10
4593.418
 20
-9283.466
 30
-1114.000
 70
    32
  0
VERTEX
  8
6350LEVEL
 62
7
 10
4610.526
 20
-9273.216
 30
-1114.000
 70
    32
  0
VERTEX
  8
6350LEVEL
 62
7
 10
4649.010
 20
-9327.019
 30
-1114.000
 70
    32
  0
VERTEX
  8
6350LEVEL
 62
7
 10
4681.586
 20
-9507.279
 30
-1114.000
 70
    32
  0
VERTEX
  8
6350LEVEL
 62
7
 10
4672.104
 20
-9529.530
 30
-1114.000
 70
    32
  0
VERTEX
  8
6350LEVEL
 62
7
 10
4674.056
 20
-9546.722
 30
-1114.000
 70
    32
  0
VERTEX
  8
6350LEVEL
 62
7
 10
4698.607
 20
-9527.028
 30
-1114.000
 70
    32
  0
VERTEX
  8
6350LEVEL
 62
7
 10
4713.173
 20
-9495.426
 30
-1114.000
 70
    32
  0
VERTEX
  8
6350LEVEL
 62
7
 10
4721.261
 20
-9522.193
 30
-1114.000
 70
    32
  0
VERTEX
  8
6350LEVEL
 62
7
 10
4708.800
 20
-9588.676
 30
-1114.000
 70
    32
  0
VERTEX
  8
6350LEVEL
 62
7
 10
4711.288
 20
-9613.301
 30
-1114.000
 70
    32
  0
VERTEX
  8
6350LEVEL
 62
7
 10
4717.320
 20
-9615.668
 30
-1114.000
 70
    32
  0
VERTEX
  8
6350LEVEL
 62
7
 10
4735.786
 20
-9547.797
 30
-1114.000
 70
    32
  0
VERTEX
  8
6350LEVEL
 62
7
 10
4748.580
 20
-9534.202
 30
-1114.000
 70
    32
  0
VERTEX
  8
6350LEVEL
 62
7
 10
4774.182
 20
-9557.974
 30
-1114.000
 70
    32
  0
VERTEX
  8
6350LEVEL
 62
7
 10
4788.922
 20
-9616.595
 30
-1114.000
 70
    32
  0
VERTEX
  8
6350LEVEL
 62
7
 10
4805.291
 20
-9606.071
 30
-1114.000
 70
    32
  0
VERTEX
  8
6350LEVEL
 62
7
 10
4859.422
 20
-9525.276
 30
-1114.000
 70
    32
  0
VERTEX
  8
6350LEVEL
 62
7
 10
4885.130
 20
-9504.203
 30
-1114.000
 70
    32
  0
VERTEX
  8
6350LEVEL
 62
7
 10
4887.793
 20
-9517.913
 30
-1114.000
 70
    32
  0
VERTEX
  8
6350LEVEL
 62
7
 10
4871.346
 20
-9538.742
 30
-1114.000
 70
    32
  0
VERTEX
  8
6350LEVEL
 62
7
 10
4932.120
 20
-9509.496
 30
-1114.000
 70
    32
  0
VERTEX
  8
6350LEVEL
 62
7
 10
5055.336
 20
-9526.925
 30
-1114.000
 70
    32
  0
VERTEX
  8
6350LEVEL
 62
7
 10
5075.529
 20
-9501.221
 30
-1114.000
 70
    32
  0
VERTEX
  8
6350LEVEL
 62
7
 10
5093.532
 20
-9612.907
 30
-1114.000
 70
    32
  0
VERTEX
  8
6350LEVEL
 62
7
 10
5112.431
 20
-9658.335
 30
-1114.000
 70
    32
  0
VERTEX
  8
6350LEVEL
 62
7
 10
5128.244
 20
-9705.685
 30
-1114.000
 70
    32
  0
VERTEX
  8
6350LEVEL
 62
7
 10
5179.074
 20
-9728.965
 30
-1114.000
 70
    32
  0
VERTEX
  8
6350LEVEL
 62
7
 10
5216.758
 20
-9776.626
 30
-1114.000
 70
    32
  0
VERTEX
  8
6350LEVEL
 62
7
 10
5184.427
 20
-9755.847
 30
-1114.000
 70
    32
  0
VERTEX
  8
6350LEVEL
 62
7
 10
5193.994
 20
-9833.748
 30
-1114.000
 70
    32
  0
VERTEX
  8
6350LEVEL
 62
7
 10
5227.399
 20
-9889.461
 30
-1114.000
 70
    32
  0
VERTEX
  8
6350LEVEL
 62
7
 10
5353.225
 20
-9986.714
 30
-1114.000
 70
    32
  0
VERTEX
  8
6350LEVEL
 62
7
 10
5386.170
 20
-10029.162
 30
-1114.000
 70
    32
  0
VERTEX
  8
6350LEVEL
 62
7
 10
5390.285
 20
-10012.154
 30
-1114.000
 70
    32
  0
VERTEX
  8
6350LEVEL
 62
7
 10
5449.356
 20
-10059.387
 30
-1114.000
 70
    32
  0
VERTEX
  8
6350LEVEL
 62
7
 10
5492.421
 20
-10195.360
 30
-1114.000
 70
    32
  0
VERTEX
  8
6350LEVEL
 62
7
 10
5478.126
 20
-10103.516
 30
-1114.000
 70
    32
  0
VERTEX
  8
6350LEVEL
 62
7
 10
5498.337
 20
-10038.423
 30
-1114.000
 70
    32
  0
VERTEX
  8
6350LEVEL
 62
7
 10
5450.942
 20
-9973.822
 30
-1114.000
 70
    32
  0
VERTEX
  8
6350LEVEL
 62
7
 10
5467.101
 20
-9990.151
 30
-1114.000
 70
    32
  0
VERTEX
  8
6350LEVEL
 62
7
 10
5453.486
 20
-9943.120
 30
-1114.000
 70
    32
  0
VERTEX
  8
6350LEVEL
 62
7
 10
5432.618
 20
-9931.826
 30
-1114.000
 70
    32
  0
VERTEX
  8
6350LEVEL
 62
7
 10
5412.359
 20
-9934.384
 30
-1114.000
 70
    32
  0
VERTEX
  8
6350LEVEL
 62
7
 10
5389.908
 20
-9918.304
 30
-1114.000
 70
    32
  0
VERTEX
  8
6350LEVEL
 62
7
 10
5369.751
 20
-9878.986
 30
-1114.000
 70
    32
  0
VERTEX
  8
6350LEVEL
 62
7
 10
5408.991
 20
-9931.972
 30
-1114.000
 70
    32
  0
VERTEX
  8
6350LEVEL
 62
7
 10
5431.612
 20
-9915.565
 30
-1114.000
 70
    32
  0
VERTEX
  8
6350LEVEL
 62
7
 10
5451.170
 20
-9921.336
 30
-1114.000
 70
    32
  0
VERTEX
  8
6350LEVEL
 62
7
 10
5462.848
 20
-9939.296
 30
-1114.000
 70
    32
  0
VERTEX
  8
6350LEVEL
 62
7
 10
5468.343
 20
-9972.528
 30
-1114.000
 70
    32
  0
VERTEX
  8
6350LEVEL
 62
7
 10
5495.119
 20
-10007.586
 30
-1114.000
 70
    32
  0
VERTEX
  8
6350LEVEL
 62
7
 10
5509.619
 20
-10064.761
 30
-1114.000
 70
    32
  0
VERTEX
  8
6350LEVEL
 62
7
 10
5572.599
 20
-10129.655
 30
-1114.000
 70
    32
  0
VERTEX
  8
6350LEVEL
 62
7
 10
5520.632
 20
-10050.570
 30
-1114.000
 70
    32
  0
VERTEX
  8
6350LEVEL
 62
7
 10
5513.079
 20
-9995.908
 30
-1114.000
 70
    32
  0
VERTEX
  8
6350LEVEL
 62
7
 10
5480.028
 20
-9935.466
 30
-1114.000
 70
    32
  0
VERTEX
  8
6350LEVEL
 62
7
 10
5509.544
 20
-9973.930
 30
-1114.000
 70
    32
  0
VERTEX
  8
6350LEVEL
 62
7
 10
5529.129
 20
-9983.457
 30
-1114.000
 70
    32
  0
VERTEX
  8
6350LEVEL
 62
7
 10
5497.974
 20
-9921.910
 30
-1114.000
 70
    32
  0
VERTEX
  8
6350LEVEL
 62
7
 10
5541.486
 20
-9972.607
 30
-1114.000
 70
    32
  0
VERTEX
  8
6350LEVEL
 62
7
 10
5507.911
 20
-9920.366
 30
-1114.000
 70
    32
  0
VERTEX
  8
6350LEVEL
 62
7
 10
5539.932
 20
-9957.822
 30
-1114.000
 70
    32
  0
VERTEX
  8
6350LEVEL
 62
7
 10
5503.496
 20
-9896.060
 30
-1114.000
 70
    32
  0
VERTEX
  8
6350LEVEL
 62
7
 10
5485.984
 20
-9847.002
 30
-1114.000
 70
    32
  0
VERTEX
  8
6350LEVEL
 62
7
 10
5487.850
 20
-9831.355
 30
-1114.000
 70
    32
  0
VERTEX
  8
6350LEVEL
 62
7
 10
5510.173
 20
-9896.341
 30
-1114.000
 70
    32
  0
VERTEX
  8
6350LEVEL
 62
7
 10
5568.334
 20
-9989.543
 30
-1114.000
 70
    32
  0
VERTEX
  8
6350LEVEL
 62
7
 10
5536.951
 20
-10029.565
 30
-1114.000
 70
    32
  0
VERTEX
  8
6350LEVEL
 62
7
 10
5541.882
 20
-10051.609
 30
-1114.000
 70
    32
  0
VERTEX
  8
6350LEVEL
 62
7
 10
5578.552
 20
-10068.702
 30
-1114.000
 70
    32
  0
VERTEX
  8
6350LEVEL
 62
7
 10
5636.790
 20
-10127.057
 30
-1114.000
 70
    32
  0
VERTEX
  8
6350LEVEL
 62
7
 10
5590.346
 20
-10046.664
 30
-1114.000
 70
    32
  0
VERTEX
  8
6350LEVEL
 62
7
 10
5608.692
 20
-10021.760
 30
-1114.000
 70
    32
  0
VERTEX
  8
6350LEVEL
 62
7
 10
5677.005
 20
-10108.137
 30
-1114.000
 70
    32
  0
VERTEX
  8
6350LEVEL
 62
7
 10
5704.298
 20
-10165.474
 30
-1114.000
 70
    32
  0
SEQEND
  8
6350LEVEL
  0
POLYLINE
  8
6350LEVEL
 62
13
 66
     1
 70
     8
  0
VERTEX
  8
6350LEVEL
 62
13
 10
4531.544
 20
-10015.794
 30
-1114.000
 70
    32
  0
VERTEX
  8
6350LEVEL
 62
13
 10
4512.976
 20
-9969.040
 30
-1114.000
 70
    32
  0
VERTEX
  8
6350LEVEL
 62
13
 10
4496.565
 20
-9946.769
 30
-1114.000
 70
    32
  0
VERTEX
  8
6350LEVEL
 62
13
 10
4481.233
 20
-9949.799
 30
-1114.000
 70
    32
  0
VERTEX
  8
6350LEVEL
 62
13
 10
4474.891
 20
-9925.811
 30
-1114.000
 70
    32
  0
VERTEX
  8
6350LEVEL
 62
13
 10
4462.580
 20
-9956.108
 30
-1114.000
 70
    32
  0
VERTEX
  8
6350LEVEL
 62
13
 10
4466.890
 20
-10002.199
 30
-1114.000
 70
    32
  0
VERTEX
  8
6350LEVEL
 62
13
 10
4474.184
 20
-10033.037
 30
-1114.000
 70
    32
  0
VERTEX
  8
6350LEVEL
 62
13
 10
4460.259
 20
-10007.173
 30
-1114.000
 70
    32
  0
VERTEX
  8
6350LEVEL
 62
13
 10
4433.071
 20
-9853.313
 30
-1114.000
 70
    32
  0
VERTEX
  8
6350LEVEL
 62
13
 10
4424.208
 20
-9834.737
 30
-1114.000
 70
    32
  0
VERTEX
  8
6350LEVEL
 62
13
 10
4411.087
 20
-9827.803
 30
-1114.000
 70
    32
  0
VERTEX
  8
6350LEVEL
 62
13
 10
4401.255
 20
-9847.340
 30
-1114.000
 70
    32
  0
VERTEX
  8
6350LEVEL
 62
13
 10
4400.579
 20
-9818.496
 30
-1114.000
 70
    32
  0
VERTEX
  8
6350LEVEL
 62
13
 10
4401.574
 20
-9802.911
 30
-1114.000
 70
    32
  0
VERTEX
  8
6350LEVEL
 62
13
 10
4416.740
 20
-9788.373
 30
-1114.000
 70
    32
  0
VERTEX
  8
6350LEVEL
 62
13
 10
4424.127
 20
-9785.172
 30
-1114.000
 70
    32
  0
VERTEX
  8
6350LEVEL
 62
13
 10
4434.848
 20
-9811.108
 30
-1114.000
 70
    32
  0
VERTEX
  8
6350LEVEL
 62
13
 10
4442.855
 20
-9812.852
 30
-1114.000
 70
    32
  0
VERTEX
  8
6350LEVEL
 62
13
 10
4465.957
 20
-9796.366
 30
-1114.000
 70
    32
  0
VERTEX
  8
6350LEVEL
 62
13
 10
4469.060
 20
-9755.279
 30
-1114.000
 70
    32
  0
VERTEX
  8
6350LEVEL
 62
13
 10
4460.497
 20
-9736.409
 30
-1114.000
 70
    32
  0
VERTEX
  8
6350LEVEL
 62
13
 10
4442.924
 20
-9759.403
 30
-1114.000
 70
    32
  0
VERTEX
  8
6350LEVEL
 62
13
 10
4411.181
 20
-9767.323
 30
-1114.000
 70
    32
  0
VERTEX
  8
6350LEVEL
 62
13
 10
4385.990
 20
-9804.569
 30
-1114.000
 70
    32
  0
VERTEX
  8
6350LEVEL
 62
13
 10
4387.648
 20
-9769.088
 30
-1114.000
 70
    32
  0
VERTEX
  8
6350LEVEL
 62
13
 10
4376.376
 20
-9743.224
 30
-1114.000
 70
    32
  0
VERTEX
  8
6350LEVEL
 62
13
 10
4365.103
 20
-9733.276
 30
-1114.000
 70
    32
  0
VERTEX
  8
6350LEVEL
 62
13
 10
4357.809
 20
-9753.835
 30
-1114.000
 70
    32
  0
VERTEX
  8
6350LEVEL
 62
13
 10
4352.646
 20
-9790.361
 30
-1114.000
 70
    32
  0
VERTEX
  8
6350LEVEL
 62
13
 10
4321.006
 20
-9702.438
 30
-1114.000
 70
    32
  0
VERTEX
  8
6350LEVEL
 62
13
 10
4316.696
 20
-9692.159
 30
-1114.000
 70
    32
  0
VERTEX
  8
6350LEVEL
 62
13
 10
4315.701
 20
-9707.080
 30
-1114.000
 70
    32
  0
VERTEX
  8
6350LEVEL
 62
13
 10
4314.721
 20
-9726.173
 30
-1114.000
 70
    32
  0
VERTEX
  8
6350LEVEL
 62
13
 10
4302.770
 20
-9698.459
 30
-1114.000
 70
    32
  0
VERTEX
  8
6350LEVEL
 62
13
 10
4300.118
 20
-9656.678
 30
-1114.000
 70
    32
  0
VERTEX
  8
6350LEVEL
 62
13
 10
4264.642
 20
-9622.856
 30
-1114.000
 70
    32
  0
VERTEX
  8
6350LEVEL
 62
13
 10
4266.515
 20
-9504.244
 30
-1114.000
 70
    32
  0
VERTEX
  8
6350LEVEL
 62
13
 10
4265.069
 20
-9483.018
 30
-1114.000
 70
    32
  0
VERTEX
  8
6350LEVEL
 62
13
 10
4266.515
 20
-9472.405
 30
-1114.000
 70
    32
  0
VERTEX
  8
6350LEVEL
 62
13
 10
4276.159
 20
-9475.782
 30
-1114.000
 70
    32
  0
VERTEX
  8
6350LEVEL
 62
13
 10
4282.428
 20
-9492.184
 30
-1114.000
 70
    32
  0
VERTEX
  8
6350LEVEL
 62
13
 10
4287.249
 20
-9512.444
 30
-1114.000
 70
    32
  0
VERTEX
  8
6350LEVEL
 62
13
 10
4286.285
 20
-9490.254
 30
-1114.000
 70
    32
  0
VERTEX
  8
6350LEVEL
 62
13
 10
4307.501
 20
-9358.076
 30
-1114.000
 70
    32
  0
VERTEX
  8
6350LEVEL
 62
13
 10
4283.874
 20
-9323.344
 30
-1114.000
 70
    32
  0
VERTEX
  8
6350LEVEL
 62
13
 10
4261.211
 20
-9390.879
 30
-1114.000
 70
    32
  0
VERTEX
  8
6350LEVEL
 62
13
 10
4230.222
 20
-9469.493
 30
-1114.000
 70
    32
  0
VERTEX
  8
6350LEVEL
 62
13
 10
4226.977
 20
-9416.929
 30
-1114.000
 70
    32
  0
VERTEX
  8
6350LEVEL
 62
13
 10
4232.706
 20
-9297.785
 30
-1114.000
 70
    32
  0
VERTEX
  8
6350LEVEL
 62
13
 10
4255.127
 20
-9211.942
 30
-1114.000
 70
    32
  0
VERTEX
  8
6350LEVEL
 62
13
 10
4280.191
 20
-9168.412
 30
-1114.000
 70
    32
  0
VERTEX
  8
6350LEVEL
 62
13
 10
4341.042
 20
-9128.861
 30
-1114.000
 70
    32
  0
VERTEX
  8
6350LEVEL
 62
13
 10
4410.800
 20
-9040.238
 30
-1114.000
 70
    32
  0
VERTEX
  8
6350LEVEL
 62
13
 10
4474.980
 20
-8983.710
 30
-1114.000
 70
    32
  0
VERTEX
  8
6350LEVEL
 62
13
 10
4492.629
 20
-8988.708
 30
-1114.000
 70
    32
  0
VERTEX
  8
6350LEVEL
 62
13
 10
4517.806
 20
-9006.316
 30
-1114.000
 70
    32
  0
VERTEX
  8
6350LEVEL
 62
13
 10
4521.472
 20
-9039.257
 30
-1114.000
 70
    32
  0
VERTEX
  8
6350LEVEL
 62
13
 10
4502.652
 20
-9082.843
 30
-1114.000
 70
    32
  0
VERTEX
  8
6350LEVEL
 62
13
 10
4465.888
 20
-9126.229
 30
-1114.000
 70
    32
  0
VERTEX
  8
6350LEVEL
 62
13
 10
4421.431
 20
-9211.064
 30
-1114.000
 70
    32
  0
VERTEX
  8
6350LEVEL
 62
13
 10
4414.545
 20
-9278.963
 30
-1114.000
 70
    32
  0
VERTEX
  8
6350LEVEL
 62
13
 10
4421.163
 20
-9418.922
 30
-1114.000
 70
    32
  0
VERTEX
  8
6350LEVEL
 62
13
 10
4441.572
 20
-9412.480
 30
-1114.000
 70
    32
  0
VERTEX
  8
6350LEVEL
 62
13
 10
4476.428
 20
-9480.243
 30
-1114.000
 70
    32
  0
VERTEX
  8
6350LEVEL
 62
13
 10
4501.041
 20
-9570.132
 30
-1114.000
 70
    32
  0
VERTEX
  8
6350LEVEL
 62
13
 10
4509.330
 20
-9586.048
 30
-1114.000
 70
    32
  0
VERTEX
  8
6350LEVEL
 62
13
 10
4522.592
 20
-9580.080
 30
-1114.000
 70
    32
  0
VERTEX
  8
6350LEVEL
 62
13
 10
4517.288
 20
-9558.858
 30
-1114.000
 70
    32
  0
VERTEX
  8
6350LEVEL
 62
13
 10
4487.771
 20
-9483.612
 30
-1114.000
 70
    32
  0
VERTEX
  8
6350LEVEL
 62
13
 10
4462.659
 20
-9390.983
 30
-1114.000
 70
    32
  0
VERTEX
  8
6350LEVEL
 62
13
 10
4444.625
 20
-9385.454
 30
-1114.000
 70
    32
  0
VERTEX
  8
6350LEVEL
 62
13
 10
4423.984
 20
-9272.590
 30
-1114.000
 70
    32
  0
VERTEX
  8
6350LEVEL
 62
13
 10
4470.696
 20
-9169.669
 30
-1114.000
 70
    32
  0
VERTEX
  8
6350LEVEL
 62
13
 10
4477.866
 20
-9160.962
 30
-1114.000
 70
    32
  0
VERTEX
  8
6350LEVEL
 62
13
 10
4490.109
 20
-9176.355
 30
-1114.000
 70
    32
  0
VERTEX
  8
6350LEVEL
 62
13
 10
4515.658
 20
-9154.318
 30
-1114.000
 70
    32
  0
VERTEX
  8
6350LEVEL
 62
13
 10
4526.177
 20
-9124.573
 30
-1114.000
 70
    32
  0
VERTEX
  8
6350LEVEL
 62
13
 10
4537.324
 20
-9118.376
 30
-1114.000
 70
    32
  0
VERTEX
  8
6350LEVEL
 62
13
 10
4540.330
 20
-9165.280
 30
-1114.000
 70
    32
  0
VERTEX
  8
6350LEVEL
 62
13
 10
4546.843
 20
-9167.568
 30
-1114.000
 70
    32
  0
VERTEX
  8
6350LEVEL
 62
13
 10
4552.201
 20
-9157.478
 30
-1114.000
 70
    32
  0
VERTEX
  8
6350LEVEL
 62
13
 10
4559.170
 20
-9174.553
 30
-1114.000
 70
    32
  0
VERTEX
  8
6350LEVEL
 62
13
 10
4546.771
 20
-9223.986
 30
-1114.000
 70
    32
  0
VERTEX
  8
6350LEVEL
 62
13
 10
4562.406
 20
-9210.218
 30
-1114.000
 70
    32
  0
VERTEX
  8
6350LEVEL
 62
13
 10
4575.082
 20
-9162.734
 30
-1114.000
 70
    32
  0
VERTEX
  8
6350LEVEL
 62
13
 10
4577.011
 20
-9152.122
 30
-1114.000
 70
    32
  0
VERTEX
  8
6350LEVEL
 62
13
 10
4580.868
 20
-9158.875
 30
-1114.000
 70
    32
  0
VERTEX
  8
6350LEVEL
 62
13
 10
4589.641
 20
-9175.632
 30
-1114.000
 70
    32
  0
VERTEX
  8
6350LEVEL
 62
13
 10
4605.218
 20
-9196.744
 30
-1114.000
 70
    32
  0
VERTEX
  8
6350LEVEL
 62
13
 10
4618.390
 20
-9223.821
 30
-1114.000
 70
    32
  0
VERTEX
  8
6350LEVEL
 62
13
 10
4678.578
 20
-9313.125
 30
-1114.000
 70
    32
  0
VERTEX
  8
6350LEVEL
 62
13
 10
4739.596
 20
-9467.901
 30
-1114.000
 70
    32
  0
VERTEX
  8
6350LEVEL
 62
13
 10
4748.003
 20
-9458.297
 30
-1114.000
 70
    32
  0
VERTEX
  8
6350LEVEL
 62
13
 10
4748.336
 20
-9423.805
 30
-1114.000
 70
    32
  0
VERTEX
  8
6350LEVEL
 62
13
 10
4759.494
 20
-9446.996
 30
-1114.000
 70
    32
  0
VERTEX
  8
6350LEVEL
 62
13
 10
4755.069
 20
-9480.681
 30
-1114.000
 70
    32
  0
VERTEX
  8
6350LEVEL
 62
13
 10
4794.686
 20
-9452.756
 30
-1114.000
 70
    32
  0
VERTEX
  8
6350LEVEL
 62
13
 10
4826.601
 20
-9447.677
 30
-1114.000
 70
    32
  0
SEQEND
  8
6350LEVEL
  0
POLYLINE
  8
6350LEVEL
 62
13
 66
     1
 70
     8
  0
VERTEX
  8
6350LEVEL
 62
13
 10
5713.828
 20
-10156.674
 30
-1114.000
 70
    32
  0
VERTEX
  8
6350LEVEL
 62
13
 10
5696.653
 20
-10094.696
 30
-1114.000
 70
    32
  0
VERTEX
  8
6350LEVEL
 62
13
 10
5654.820
 20
-10023.633
 30
-1114.000
 70
    32
  0
VERTEX
  8
6350LEVEL
 62
13
 10
5680.834
 20
-9964.311
 30
-1114.000
 70
    32
  0
VERTEX
  8
6350LEVEL
 62
13
 10
5670.249
 20
-9932.613
 30
-1114.000
 70
    32
  0
VERTEX
  8
6350LEVEL
 62
13
 10
5660.137
 20
-9920.530
 30
-1114.000
 70
    32
  0
VERTEX
  8
6350LEVEL
 62
13
 10
5666.440
 20
-9974.212
 30
-1114.000
 70
    32
  0
VERTEX
  8
6350LEVEL
 62
13
 10
5642.213
 20
-9916.269
 30
-1114.000
 70
    32
  0
VERTEX
  8
6350LEVEL
 62
13
 10
5631.765
 20
-9903.351
 30
-1114.000
 70
    32
  0
VERTEX
  8
6350LEVEL
 62
13
 10
5641.383
 20
-9938.178
 30
-1114.000
 70
    32
  0
VERTEX
  8
6350LEVEL
 62
13
 10
5605.443
 20
-9864.458
 30
-1114.000
 70
    32
  0
VERTEX
  8
6350LEVEL
 62
13
 10
5624.735
 20
-9927.868
 30
-1114.000
 70
    32
  0
VERTEX
  8
6350LEVEL
 62
13
 10
5595.866
 20
-9898.105
 30
-1114.000
 70
    32
  0
VERTEX
  8
6350LEVEL
 62
13
 10
5603.198
 20
-9838.309
 30
-1114.000
 70
    32
  0
VERTEX
  8
6350LEVEL
 62
13
 10
5585.226
 20
-9809.811
 30
-1114.000
 70
    32
  0
VERTEX
  8
6350LEVEL
 62
13
 10
5596.195
 20
-9842.040
 30
-1114.000
 70
    32
  0
VERTEX
  8
6350LEVEL
 62
13
 10
5591.765
 20
-9854.152
 30
-1114.000
 70
    32
  0
VERTEX
  8
6350LEVEL
 62
13
 10
5563.916
 20
-9817.986
 30
-1114.000
 70
    32
  0
VERTEX
  8
6350LEVEL
 62
13
 10
5576.798
 20
-9848.018
 30
-1114.000
 70
    32
  0
VERTEX
  8
6350LEVEL
 62
13
 10
5574.000
 20
-9864.610
 30
-1114.000
 70
    32
  0
VERTEX
  8
6350LEVEL
 62
13
 10
5498.362
 20
-9789.314
 30
-1114.000
 70
    32
  0
VERTEX
  8
6350LEVEL
 62
13
 10
5475.485
 20
-9746.538
 30
-1114.000
 70
    32
  0
VERTEX
  8
6350LEVEL
 62
13
 10
5445.976
 20
-9709.068
 30
-1114.000
 70
    32
  0
VERTEX
  8
6350LEVEL
 62
13
 10
5435.035
 20
-9687.846
 30
-1114.000
 70
    32
  0
VERTEX
  8
6350LEVEL
 62
13
 10
5440.008
 20
-9714.373
 30
-1114.000
 70
    32
  0
VERTEX
  8
6350LEVEL
 62
13
 10
5445.313
 20
-9769.086
 30
-1114.000
 70
    32
  0
VERTEX
  8
6350LEVEL
 62
13
 10
5468.190
 20
-9811.199
 30
-1114.000
 70
    32
  0
VERTEX
  8
6350LEVEL
 62
13
 10
5474.593
 20
-9830.182
 30
-1114.000
 70
    32
  0
VERTEX
  8
6350LEVEL
 62
13
 10
5464.260
 20
-9864.646
 30
-1114.000
 70
    32
  0
VERTEX
  8
6350LEVEL
 62
13
 10
5452.939
 20
-9822.473
 30
-1114.000
 70
    32
  0
VERTEX
  8
6350LEVEL
 62
13
 10
5432.051
 20
-9779.034
 30
-1114.000
 70
    32
  0
VERTEX
  8
6350LEVEL
 62
13
 10
5430.725
 20
-9720.674
 30
-1114.000
 70
    32
  0
VERTEX
  8
6350LEVEL
 62
13
 10
5416.970
 20
-9681.574
 30
-1114.000
 70
    32
  0
VERTEX
  8
6350LEVEL
 62
13
 10
5405.867
 20
-9665.894
 30
-1114.000
 70
    32
  0
VERTEX
  8
6350LEVEL
 62
13
 10
5413.587
 20
-9715.581
 30
-1114.000
 70
    32
  0
VERTEX
  8
6350LEVEL
 62
13
 10
5388.536
 20
-9662.822
 30
-1114.000
 70
    32
  0
VERTEX
  8
6350LEVEL
 62
13
 10
5407.550
 20
-9729.939
 30
-1114.000
 70
    32
  0
VERTEX
  8
6350LEVEL
 62
13
 10
5345.144
 20
-9642.783
 30
-1114.000
 70
    32
  0
VERTEX
  8
6350LEVEL
 62
13
 10
5357.090
 20
-9676.730
 30
-1114.000
 70
    32
  0
VERTEX
  8
6350LEVEL
 62
13
 10
5358.445
 20
-9750.186
 30
-1114.000
 70
    32
  0
VERTEX
  8
6350LEVEL
 62
13
 10
5336.562
 20
-9774.724
 30
-1114.000
 70
    32
  0
VERTEX
  8
6350LEVEL
 62
13
 10
5313.685
 20
-9767.760
 30
-1114.000
 70
    32
  0
VERTEX
  8
6350LEVEL
 62
13
 10
5302.412
 20
-9754.828
 30
-1114.000
 70
    32
  0
VERTEX
  8
6350LEVEL
 62
13
 10
5305.728
 20
-9721.669
 30
-1114.000
 70
    32
  0
VERTEX
  8
6350LEVEL
 62
13
 10
5342.055
 20
-9685.747
 30
-1114.000
 70
    32
  0
VERTEX
  8
6350LEVEL
 62
13
 10
5332.373
 20
-9638.561
 30
-1114.000
 70
    32
  0
VERTEX
  8
6350LEVEL
 62
13
 10
5345.884
 20
-9629.301
 30
-1114.000
 70
    32
  0
VERTEX
  8
6350LEVEL
 62
13
 10
5364.483
 20
-9632.263
 30
-1114.000
 70
    32
  0
VERTEX
  8
6350LEVEL
 62
13
 10
5367.172
 20
-9625.188
 30
-1114.000
 70
    32
  0
VERTEX
  8
6350LEVEL
 62
13
 10
5362.497
 20
-9603.497
 30
-1114.000
 70
    32
  0
VERTEX
  8
6350LEVEL
 62
13
 10
5312.251
 20
-9534.221
 30
-1114.000
 70
    32
  0
VERTEX
  8
6350LEVEL
 62
13
 10
5305.875
 20
-9512.416
 30
-1114.000
 70
    32
  0
VERTEX
  8
6350LEVEL
 62
13
 10
5316.778
 20
-9458.660
 30
-1114.000
 70
    32
  0
VERTEX
  8
6350LEVEL
 62
13
 10
5315.581
 20
-9416.108
 30
-1114.000
 70
    32
  0
VERTEX
  8
6350LEVEL
 62
13
 10
5340.421
 20
-9471.178
 30
-1114.000
 70
    32
  0
VERTEX
  8
6350LEVEL
 62
13
 10
5328.251
 20
-9399.367
 30
-1114.000
 70
    32
  0
SEQEND
  8
6350LEVEL
  0
POLYLINE
  8
6350LEVEL
 62
5
 66
     1
 70
     9
  0
VERTEX
  8
6350LEVEL
 62
5
 10
6473.121
 20
-11135.973
 30
-1114.000
 70
    32
  0
VERTEX
  8
6350LEVEL
 62
5
 10
6475.776
 20
-11138.630
 30
-1114.000
 70
    32
  0
VERTEX
  8
6350LEVEL
 62
5
 10
6487.809
 20
-11147.129
 30
-1114.000
 70
    32
  0
VERTEX
  8
6350LEVEL
 62
5
 10
6504.621
 20
-11153.149
 30
-1114.000
 70
    32
  0
VERTEX
  8
6350LEVEL
 62
5
 10
6515.062
 20
-11158.638
 30
-1114.000
 70
    32
  0
VERTEX
  8
6350LEVEL
 62
5
 10
6518.248
 20
-11162.533
 30
-1114.000
 70
    32
  0
VERTEX
  8
6350LEVEL
 62
5
 10
6535.767
 20
-11207.508
 30
-1114.000
 70
    32
  0
VERTEX
  8
6350LEVEL
 62
5
 10
6553.463
 20
-11251.774
 30
-1114.000
 70
    32
  0
VERTEX
  8
6350LEVEL
 62
5
 10
6557.533
 20
-11263.283
 30
-1114.000
 70
    32
  0
VERTEX
  8
6350LEVEL
 62
5
 10
6551.870
 20
-11252.659
 30
-1114.000
 70
    32
  0
VERTEX
  8
6350LEVEL
 62
5
 10
6532.935
 20
-11209.456
 30
-1114.000
 70
    32
  0
VERTEX
  8
6350LEVEL
 62
5
 10
6515.593
 20
-11164.127
 30
-1114.000
 70
    32
  0
VERTEX
  8
6350LEVEL
 62
5
 10
6512.053
 20
-11160.762
 30
-1114.000
 70
    32
  0
VERTEX
  8
6350LEVEL
 62
5
 10
6503.382
 20
-11156.690
 30
-1114.000
 70
    32
  0
VERTEX
  8
6350LEVEL
 62
5
 10
6486.571
 20
-11150.493
 30
-1114.000
 70
    32
  0
VERTEX
  8
6350LEVEL
 62
5
 10
6473.476
 20
-11140.223
 30
-1114.000
 70
    32
  0
VERTEX
  8
6350LEVEL
 62
5
 10
6471.352
 20
-11137.567
 30
-1114.000
 70
    32
  0
VERTEX
  8
6350LEVEL
 62
5
 10
6443.204
 20
-11107.996
 30
-1114.000
 70
    32
  0
VERTEX
  8
6350LEVEL
 62
5
 10
6447.639
 20
-11109.237
 30
-1114.000
 70
    32
  0
VERTEX
  8
6350LEVEL
 62
5
 10
6468.167
 20
-11130.661
 30
-1114.000
 70
    32
  0
SEQEND
  8
6350LEVEL
  0
POLYLINE
  8
6350LEVEL
 62
5
 66
     1
 70
     9
  0
VERTEX
  8
6350LEVEL
 62
5
 10
6490.997
 20
-10975.702
 30
-1114.000
 70
    32
  0
VERTEX
  8
6350LEVEL
 62
5
 10
6496.325
 20
-10887.517
 30
-1114.000
 70
    32
  0
VERTEX
  8
6350LEVEL
 62
5
 10
6488.940
 20
-10849.458
 30
-1114.000
 70
    32
  0
VERTEX
  8
6350LEVEL
 62
5
 10
6481.297
 20
-10842.228
 30
-1114.000
 70
    32
  0
VERTEX
  8
6350LEVEL
 62
5
 10
6490.308
 20
-10891.351
 30
-1114.000
 70
    32
  0
VERTEX
  8
6350LEVEL
 62
5
 10
6481.349
 20
-10989.173
 30
-1114.000
 70
    32
  0
VERTEX
  8
6350LEVEL
 62
5
 10
6495.773
 20
-11061.252
 30
-1114.000
 70
    32
  0
VERTEX
  8
6350LEVEL
 62
5
 10
6506.214
 20
-11112.247
 30
-1114.000
 70
    32
  0
VERTEX
  8
6350LEVEL
 62
5
 10
6524.795
 20
-11157.753
 30
-1114.000
 70
    32
  0
VERTEX
  8
6350LEVEL
 62
5
 10
6548.685
 20
-11198.300
 30
-1114.000
 70
    32
  0
VERTEX
  8
6350LEVEL
 62
5
 10
6569.390
 20
-11239.734
 30
-1114.000
 70
    32
  0
VERTEX
  8
6350LEVEL
 62
5
 10
6596.465
 20
-11281.344
 30
-1114.000
 70
    32
  0
VERTEX
  8
6350LEVEL
 62
5
 10
6609.560
 20
-11295.509
 30
-1114.000
 70
    32
  0
VERTEX
  8
6350LEVEL
 62
5
 10
6599.296
 20
-11279.219
 30
-1114.000
 70
    32
  0
VERTEX
  8
6350LEVEL
 62
5
 10
6572.221
 20
-11238.140
 30
-1114.000
 70
    32
  0
VERTEX
  8
6350LEVEL
 62
5
 10
6551.870
 20
-11196.176
 30
-1114.000
 70
    32
  0
VERTEX
  8
6350LEVEL
 62
5
 10
6527.450
 20
-11155.982
 30
-1114.000
 70
    32
  0
VERTEX
  8
6350LEVEL
 62
5
 10
6513.646
 20
-11106.935
 30
-1114.000
 70
    32
  0
VERTEX
  8
6350LEVEL
 62
5
 10
6501.967
 20
-11057.003
 30
-1114.000
 70
    32
  0
VERTEX
  8
6350LEVEL
 62
5
 10
6490.092
 20
-10980.404
 30
-1114.000
 70
    32
  0
SEQEND
  8
6350LEVEL
  0
POLYLINE
  8
6350LEVEL
 62
13
 66
     1
 70
     8
  0
VERTEX
  8
6350LEVEL
 62
13
 10
6490.767
 20
-11178.439
 30
-1114.000
 70
    32
  0
VERTEX
  8
6350LEVEL
 62
13
 10
6470.164
 20
-11161.528
 30
-1114.000
 70
    32
  0
VERTEX
  8
6350LEVEL
 62
13
 10
6461.796
 20
-11144.473
 30
-1114.000
 70
    32
  0
VERTEX
  8
6350LEVEL
 62
13
 10
6455.956
 20
-11135.797
 30
-1114.000
 70
    32
  0
VERTEX
  8
6350LEVEL
 62
13
 10
6458.788
 20
-11146.775
 30
-1114.000
 70
    32
  0
VERTEX
  8
6350LEVEL
 62
13
 10
6468.874
 20
-11198.301
 30
-1114.000
 70
    32
  0
VERTEX
  8
6350LEVEL
 62
13
 10
6469.091
 20
-11200.868
 30
-1114.000
 70
    32
  0
VERTEX
  8
6350LEVEL
 62
13
 10
6449.607
 20
-11186.592
 30
-1114.000
 70
    32
  0
VERTEX
  8
6350LEVEL
 62
13
 10
6435.804
 20
-11164.282
 30
-1114.000
 70
    32
  0
VERTEX
  8
6350LEVEL
 62
13
 10
6401.473
 20
-11128.869
 30
-1114.000
 70
    32
  0
VERTEX
  8
6350LEVEL
 62
13
 10
6391.430
 20
-11090.530
 30
-1114.000
 70
    32
  0
VERTEX
  8
6350LEVEL
 62
13
 10
6391.771
 20
-11112.937
 30
-1114.000
 70
    32
  0
VERTEX
  8
6350LEVEL
 62
13
 10
6383.192
 20
-11105.944
 30
-1114.000
 70
    32
  0
SEQEND
  8
6350LEVEL
  0
POLYLINE
  8
6350LEVEL
 62
3
 66
     1
 70
     8
  0
VERTEX
  8
6350LEVEL
 62
3
 10
6490.718
 20
-11178.439
 30
-1114.000
 70
    32
  0
VERTEX
  8
6350LEVEL
 62
3
 10
6492.257
 20
-11181.371
 30
-1114.000
 70
    32
  0
VERTEX
  8
6350LEVEL
 62
3
 10
6500.409
 20
-11195.418
 30
-1114.000
 70
    32
  0
SEQEND
  8
6350LEVEL
  0
POLYLINE
  8
6350LEVEL
 62
7
 66
     1
 70
     8
  0
VERTEX
  8
6350LEVEL
 62
7
 10
6383.229
 20
-11106.008
 30
-1114.000
 70
    32
  0
VERTEX
  8
6350LEVEL
 62
7
 10
6397.581
 20
-11132.056
 30
-1114.000
 70
    32
  0
VERTEX
  8
6350LEVEL
 62
7
 10
6423.505
 20
-11173.795
 30
-1114.000
 70
    32
  0
VERTEX
  8
6350LEVEL
 62
7
 10
6454.864
 20
-11200.868
 30
-1114.000
 70
    32
  0
VERTEX
  8
6350LEVEL
 62
7
 10
6473.205
 20
-11208.416
 30
-1114.000
 70
    32
  0
VERTEX
  8
6350LEVEL
 62
7
 10
6472.060
 20
-11196.176
 30
-1114.000
 70
    32
  0
VERTEX
  8
6350LEVEL
 62
7
 10
6472.359
 20
-11177.196
 30
-1114.000
 70
    32
  0
VERTEX
  8
6350LEVEL
 62
7
 10
6476.795
 20
-11172.900
 30
-1114.000
 70
    32
  0
VERTEX
  8
6350LEVEL
 62
7
 10
6490.767
 20
-11178.489
 30
-1114.000
 70
    32
  0
SEQEND
  8
6350LEVEL
  0
POLYLINE
  8
6350LEVEL
 62
7
 66
     1
 70
     8
  0
VERTEX
  8
6350LEVEL
 62
7
 10
6366.309
 20
-11066.678
 30
-1114.000
 70
    32
  0
VERTEX
  8
6350LEVEL
 62
7
 10
6326.242
 20
-11032.631
 30
-1114.000
 70
    32
  0
VERTEX
  8
6350LEVEL
 62
7
 10
6323.765
 20
-11061.937
 30
-1114.000
 70
    32
  0
VERTEX
  8
6350LEVEL
 62
7
 10
6343.242
 20
-11105.524
 30
-1114.000
 70
    32
  0
VERTEX
  8
6350LEVEL
 62
7
 10
6352.843
 20
-11165.983
 30
-1114.000
 70
    32
  0
VERTEX
  8
6350LEVEL
 62
7
 10
6376.019
 20
-11207.901
 30
-1114.000
 70
    32
  0
VERTEX
  8
6350LEVEL
 62
7
 10
6377.562
 20
-11211.847
 30
-1114.000
 70
    32
  0
VERTEX
  8
6350LEVEL
 62
7
 10
6379.790
 20
-11224.027
 30
-1114.000
 70
    32
  0
VERTEX
  8
6350LEVEL
 62
7
 10
6378.762
 20
-11244.268
 30
-1114.000
 70
    32
  0
VERTEX
  8
6350LEVEL
 62
7
 10
6379.104
 20
-11254.217
 30
-1114.000
 70
    32
  0
VERTEX
  8
6350LEVEL
 62
7
 10
6380.990
 20
-11261.765
 30
-1114.000
 70
    32
  0
VERTEX
  8
6350LEVEL
 62
7
 10
6384.761
 20
-11273.430
 30
-1114.000
 70
    32
  0
VERTEX
  8
6350LEVEL
 62
7
 10
6377.733
 20
-11264.167
 30
-1114.000
 70
    32
  0
VERTEX
  8
6350LEVEL
 62
7
 10
6373.277
 20
-11259.878
 30
-1114.000
 70
    32
  0
VERTEX
  8
6350LEVEL
 62
7
 10
6363.336
 20
-11252.673
 30
-1114.000
 70
    32
  0
VERTEX
  8
6350LEVEL
 62
7
 10
6350.652
 20
-11244.097
 30
-1114.000
 70
    32
  0
VERTEX
  8
6350LEVEL
 62
7
 10
6343.453
 20
-11237.921
 30
-1114.000
 70
    32
  0
VERTEX
  8
6350LEVEL
 62
7
 10
6341.568
 20
-11232.947
 30
-1114.000
 70
    32
  0
VERTEX
  8
6350LEVEL
 62
7
 10
6332.483
 20
-11197.781
 30
-1114.000
 70
    32
  0
VERTEX
  8
6350LEVEL
 62
7
 10
6334.369
 20
-11238.264
 30
-1114.000
 70
    32
  0
VERTEX
  8
6350LEVEL
 62
7
 10
6338.482
 20
-11251.301
 30
-1114.000
 70
    32
  0
VERTEX
  8
6350LEVEL
 62
7
 10
6332.312
 20
-11239.808
 30
-1114.000
 70
    32
  0
VERTEX
  8
6350LEVEL
 62
7
 10
6314.829
 20
-11191.948
 30
-1114.000
 70
    32
  0
VERTEX
  8
6350LEVEL
 62
7
 10
6306.430
 20
-11189.032
 30
-1114.000
 70
    32
  0
VERTEX
  8
6350LEVEL
 62
7
 10
6304.202
 20
-11191.948
 30
-1114.000
 70
    32
  0
VERTEX
  8
6350LEVEL
 62
7
 10
6302.145
 20
-11201.555
 30
-1114.000
 70
    32
  0
VERTEX
  8
6350LEVEL
 62
7
 10
6306.570
 20
-11227.864
 30
-1114.000
 70
    32
  0
VERTEX
  8
6350LEVEL
 62
7
 10
6315.343
 20
-11251.987
 30
-1114.000
 70
    32
  0
VERTEX
  8
6350LEVEL
 62
7
 10
6327.984
 20
-11275.979
 30
-1114.000
 70
    32
  0
VERTEX
  8
6350LEVEL
 62
7
 10
6311.572
 20
-11254.903
 30
-1114.000
 70
    32
  0
VERTEX
  8
6350LEVEL
 62
7
 10
6304.721
 20
-11242.419
 30
-1114.000
 70
    32
  0
VERTEX
  8
6350LEVEL
 62
7
 10
6295.803
 20
-11206.015
 30
-1114.000
 70
    32
  0
VERTEX
  8
6350LEVEL
 62
7
 10
6284.596
 20
-11190.132
 30
-1114.000
 70
    32
  0
VERTEX
  8
6350LEVEL
 62
7
 10
6229.470
 20
-11133.968
 30
-1114.000
 70
    32
  0
VERTEX
  8
6350LEVEL
 62
7
 10
6218.672
 20
-11125.391
 30
-1114.000
 70
    32
  0
VERTEX
  8
6350LEVEL
 62
7
 10
6185.591
 20
-11102.061
 30
-1114.000
 70
    32
  0
VERTEX
  8
6350LEVEL
 62
7
 10
6169.137
 20
-11102.233
 30
-1114.000
 70
    32
  0
VERTEX
  8
6350LEVEL
 62
7
 10
6163.480
 20
-11139.286
 30
-1114.000
 70
    32
  0
VERTEX
  8
6350LEVEL
 62
7
 10
6171.879
 20
-11175.652
 30
-1114.000
 70
    32
  0
VERTEX
  8
6350LEVEL
 62
7
 10
6183.192
 20
-11194.865
 30
-1114.000
 70
    32
  0
SEQEND
  8
6350LEVEL
  0
POLYLINE
  8
6350LEVEL
 62
13
 66
     1
 70
     8
  0
VERTEX
  8
6350LEVEL
 62
13
 10
6170.679
 20
-11200.868
 30
-1114.000
 70
    32
  0
VERTEX
  8
6350LEVEL
 62
13
 10
6158.852
 20
-11185.258
 30
-1114.000
 70
    32
  0
VERTEX
  8
6350LEVEL
 62
13
 10
6149.082
 20
-11139.114
 30
-1114.000
 70
    32
  0
VERTEX
  8
6350LEVEL
 62
13
 10
6158.167
 20
-11093.141
 30
-1114.000
 70
    32
  0
VERTEX
  8
6350LEVEL
 62
13
 10
6188.162
 20
-11091.426
 30
-1114.000
 70
    32
  0
VERTEX
  8
6350LEVEL
 62
13
 10
6235.641
 20
-11129.165
 30
-1114.000
 70
    32
  0
VERTEX
  8
6350LEVEL
 62
13
 10
6274.243
 20
-11165.818
 30
-1114.000
 70
    32
  0
VERTEX
  8
6350LEVEL
 62
13
 10
6292.679
 20
-11170.785
 30
-1114.000
 70
    32
  0
VERTEX
  8
6350LEVEL
 62
13
 10
6296.685
 20
-11163.295
 30
-1114.000
 70
    32
  0
VERTEX
  8
6350LEVEL
 62
13
 10
6314.385
 20
-11178.774
 30
-1114.000
 70
    32
  0
VERTEX
  8
6350LEVEL
 62
13
 10
6319.114
 20
-11189.032
 30
-1114.000
 70
    32
  0
VERTEX
  8
6350LEVEL
 62
13
 10
6328.147
 20
-11211.134
 30
-1114.000
 70
    32
  0
VERTEX
  8
6350LEVEL
 62
13
 10
6324.770
 20
-11185.258
 30
-1114.000
 70
    32
  0
VERTEX
  8
6350LEVEL
 62
13
 10
6318.276
 20
-11123.902
 30
-1114.000
 70
    32
  0
VERTEX
  8
6350LEVEL
 62
13
 10
6310.543
 20
-11075.988
 30
-1114.000
 70
    32
  0
VERTEX
  8
6350LEVEL
 62
13
 10
6281.706
 20
-10991.307
 30
-1114.000
 70
    32
  0
VERTEX
  8
6350LEVEL
 62
13
 10
6300.599
 20
-11003.225
 30
-1114.000
 70
    32
  0
VERTEX
  8
6350LEVEL
 62
13
 10
6309.161
 20
-10997.554
 30
-1114.000
 70
    32
  0
VERTEX
  8
6350LEVEL
 62
13
 10
6362.749
 20
-11051.730
 30
-1114.000
 70
    32
  0
VERTEX
  8
6350LEVEL
 62
13
 10
6366.309
 20
-11066.678
 30
-1114.000
 70
    32
  0
SEQEND
  8
6350LEVEL
  0
POLYLINE
  8
6350LEVEL
 62
5
 66
     1
 70
     9
  0
VERTEX
  8
6350LEVEL
 62
5
 10
6789.351
 20
-10936.762
 30
-1114.000
 70
    32
  0
VERTEX
  8
6350LEVEL
 62
5
 10
6744.602
 20
-10826.515
 30
-1114.000
 70
    32
  0
VERTEX
  8
6350LEVEL
 62
5
 10
6708.437
 20
-10732.931
 30
-1114.000
 70
    32
  0
VERTEX
  8
6350LEVEL
 62
5
 10
6704.253
 20
-10723.128
 30
-1114.000
 70
    32
  0
VERTEX
  8
6350LEVEL
 62
5
 10
6688.312
 20
-10698.941
 30
-1114.000
 70
    32
  0
VERTEX
  8
6350LEVEL
 62
5
 10
6684.713
 20
-10691.394
 30
-1114.000
 70
    32
  0
VERTEX
  8
6350LEVEL
 62
5
 10
6662.259
 20
-10651.768
 30
-1114.000
 70
    32
  0
VERTEX
  8
6350LEVEL
 62
5
 10
6649.404
 20
-10635.643
 30
-1114.000
 70
    32
  0
VERTEX
  8
6350LEVEL
 62
5
 10
6659.174
 20
-10654.169
 30
-1114.000
 70
    32
  0
VERTEX
  8
6350LEVEL
 62
5
 10
6681.284
 20
-10693.967
 30
-1114.000
 70
    32
  0
VERTEX
  8
6350LEVEL
 62
5
 10
6684.713
 20
-10701.171
 30
-1114.000
 70
    32
  0
VERTEX
  8
6350LEVEL
 62
5
 10
6700.310
 20
-10725.015
 30
-1114.000
 70
    32
  0
VERTEX
  8
6350LEVEL
 62
5
 10
6704.446
 20
-10735.926
 30
-1114.000
 70
    32
  0
VERTEX
  8
6350LEVEL
 62
5
 10
6713.685
 20
-10764.022
 30
-1114.000
 70
    32
  0
VERTEX
  8
6350LEVEL
 62
5
 10
6739.614
 20
-10830.258
 30
-1114.000
 70
    32
  0
VERTEX
  8
6350LEVEL
 62
5
 10
6781.039
 20
-10934.969
 30
-1114.000
 70
    32
  0
SEQEND
  8
6350LEVEL
  0
POLYLINE
  8
6350LEVEL
 62
5
 66
     1
 70
     9
  0
VERTEX
  8
6350LEVEL
 62
5
 10
6722.327
 20
-10933.594
 30
-1114.000
 70
    32
  0
VERTEX
  8
6350LEVEL
 62
5
 10
6698.710
 20
-10860.205
 30
-1114.000
 70
    32
  0
VERTEX
  8
6350LEVEL
 62
5
 10
6688.234
 20
-10747.405
 30
-1114.000
 70
    32
  0
VERTEX
  8
6350LEVEL
 62
5
 10
6684.370
 20
-10739.939
 30
-1114.000
 70
    32
  0
VERTEX
  8
6350LEVEL
 62
5
 10
6683.170
 20
-10730.333
 30
-1114.000
 70
    32
  0
VERTEX
  8
6350LEVEL
 62
5
 10
6678.199
 20
-10705.117
 30
-1114.000
 70
    32
  0
VERTEX
  8
6350LEVEL
 62
5
 10
6674.943
 20
-10697.912
 30
-1114.000
 70
    32
  0
VERTEX
  8
6350LEVEL
 62
5
 10
6649.404
 20
-10661.202
 30
-1114.000
 70
    32
  0
VERTEX
  8
6350LEVEL
 62
5
 10
6645.633
 20
-10652.797
 30
-1114.000
 70
    32
  0
VERTEX
  8
6350LEVEL
 62
5
 10
6637.748
 20
-10632.041
 30
-1114.000
 70
    32
  0
VERTEX
  8
6350LEVEL
 62
5
 10
6644.262
 20
-10635.300
 30
-1114.000
 70
    32
  0
VERTEX
  8
6350LEVEL
 62
5
 10
6654.203
 20
-10657.257
 30
-1114.000
 70
    32
  0
VERTEX
  8
6350LEVEL
 62
5
 10
6678.199
 20
-10696.197
 30
-1114.000
 70
    32
  0
VERTEX
  8
6350LEVEL
 62
5
 10
6682.313
 20
-10703.401
 30
-1114.000
 70
    32
  0
VERTEX
  8
6350LEVEL
 62
5
 10
6689.512
 20
-10731.362
 30
-1114.000
 70
    32
  0
VERTEX
  8
6350LEVEL
 62
5
 10
6689.512
 20
-10738.224
 30
-1114.000
 70
    32
  0
VERTEX
  8
6350LEVEL
 62
5
 10
6692.225
 20
-10744.660
 30
-1114.000
 70
    32
  0
VERTEX
  8
6350LEVEL
 62
5
 10
6701.952
 20
-10857.709
 30
-1114.000
 70
    32
  0
VERTEX
  8
6350LEVEL
 62
5
 10
6726.395
 20
-10930.080
 30
-1114.000
 70
    32
  0
SEQEND
  8
6350LEVEL
  0
POLYLINE
  8
6350LEVEL
 62
7
 66
     1
 70
     8
  0
VERTEX
  8
6350LEVEL
 62
7
 10
6500.409
 20
-11195.418
 30
-1114.000
 70
    32
  0
VERTEX
  8
6350LEVEL
 62
7
 10
6512.938
 20
-11224.329
 30
-1114.000
 70
    32
  0
VERTEX
  8
6350LEVEL
 62
7
 10
6592.853
 20
-11351.133
 30
-1114.000
 70
    32
  0
VERTEX
  8
6350LEVEL
 62
7
 10
6615.996
 20
-11315.739
 30
-1114.000
 70
    32
  0
VERTEX
  8
6350LEVEL
 62
7
 10
6603.908
 20
-11279.737
 30
-1114.000
 70
    32
  0
VERTEX
  8
6350LEVEL
 62
7
 10
6545.431
 20
-11195.395
 30
-1114.000
 70
    32
  0
VERTEX
  8
6350LEVEL
 62
7
 10
6596.205
 20
-11253.500
 30
-1114.000
 70
    32
  0
VERTEX
  8
6350LEVEL
 62
7
 10
6530.989
 20
-11153.326
 30
-1114.000
 70
    32
  0
VERTEX
  8
6350LEVEL
 62
7
 10
6527.450
 20
-11145.536
 30
-1114.000
 70
    32
  0
VERTEX
  8
6350LEVEL
 62
7
 10
6533.643
 20
-11151.379
 30
-1114.000
 70
    32
  0
VERTEX
  8
6350LEVEL
 62
7
 10
6588.011
 20
-11222.496
 30
-1114.000
 70
    32
  0
VERTEX
  8
6350LEVEL
 62
7
 10
6535.236
 20
-11150.493
 30
-1114.000
 70
    32
  0
VERTEX
  8
6350LEVEL
 62
7
 10
6535.059
 20
-11140.224
 30
-1114.000
 70
    32
  0
VERTEX
  8
6350LEVEL
 62
7
 10
6542.847
 20
-11133.083
 30
-1114.000
 70
    32
  0
VERTEX
  8
6350LEVEL
 62
7
 10
6552.578
 20
-11137.391
 30
-1114.000
 70
    32
  0
VERTEX
  8
6350LEVEL
 62
7
 10
6564.612
 20
-11149.254
 30
-1114.000
 70
    32
  0
VERTEX
  8
6350LEVEL
 62
7
 10
6561.968
 20
-11141.598
 30
-1114.000
 70
    32
  0
VERTEX
  8
6350LEVEL
 62
7
 10
6555.232
 20
-11135.620
 30
-1114.000
 70
    32
  0
VERTEX
  8
6350LEVEL
 62
7
 10
6518.070
 20
-11103.394
 30
-1114.000
 70
    32
  0
VERTEX
  8
6350LEVEL
 62
7
 10
6500.197
 20
-11058.065
 30
-1114.000
 70
    32
  0
VERTEX
  8
6350LEVEL
 62
7
 10
6500.584
 20
-11034.284
 30
-1114.000
 70
    32
  0
VERTEX
  8
6350LEVEL
 62
7
 10
6502.537
 20
-11013.180
 30
-1114.000
 70
    32
  0
VERTEX
  8
6350LEVEL
 62
7
 10
6518.355
 20
-11031.642
 30
-1114.000
 70
    32
  0
VERTEX
  8
6350LEVEL
 62
7
 10
6527.177
 20
-10974.272
 30
-1114.000
 70
    32
  0
VERTEX
  8
6350LEVEL
 62
7
 10
6532.847
 20
-10979.743
 30
-1114.000
 70
    32
  0
VERTEX
  8
6350LEVEL
 62
7
 10
6540.661
 20
-10985.798
 30
-1114.000
 70
    32
  0
VERTEX
  8
6350LEVEL
 62
7
 10
6536.838
 20
-10977.496
 30
-1114.000
 70
    32
  0
VERTEX
  8
6350LEVEL
 62
7
 10
6499.334
 20
-10884.779
 30
-1114.000
 70
    32
  0
VERTEX
  8
6350LEVEL
 62
7
 10
6495.505
 20
-10875.744
 30
-1114.000
 70
    32
  0
VERTEX
  8
6350LEVEL
 62
7
 10
6495.231
 20
-10863.149
 30
-1114.000
 70
    32
  0
VERTEX
  8
6350LEVEL
 62
7
 10
6496.599
 20
-10856.577
 30
-1114.000
 70
    32
  0
VERTEX
  8
6350LEVEL
 62
7
 10
6501.796
 20
-10861.779
 30
-1114.000
 70
    32
  0
VERTEX
  8
6350LEVEL
 62
7
 10
6507.813
 20
-10879.029
 30
-1114.000
 70
    32
  0
VERTEX
  8
6350LEVEL
 62
7
 10
6540.828
 20
-10946.552
 30
-1114.000
 70
    32
  0
VERTEX
  8
6350LEVEL
 62
7
 10
6536.375
 20
-10923.371
 30
-1114.000
 70
    32
  0
VERTEX
  8
6350LEVEL
 62
7
 10
6511.369
 20
-10876.018
 30
-1114.000
 70
    32
  0
VERTEX
  8
6350LEVEL
 62
7
 10
6507.540
 20
-10865.065
 30
-1114.000
 70
    32
  0
VERTEX
  8
6350LEVEL
 62
7
 10
6514.104
 20
-10873.827
 30
-1114.000
 70
    32
  0
VERTEX
  8
6350LEVEL
 62
7
 10
6562.777
 20
-10958.530
 30
-1114.000
 70
    32
  0
VERTEX
  8
6350LEVEL
 62
7
 10
6599.691
 20
-10985.981
 30
-1114.000
 70
    32
  0
VERTEX
  8
6350LEVEL
 62
7
 10
6613.245
 20
-10996.260
 30
-1114.000
 70
    32
  0
VERTEX
  8
6350LEVEL
 62
7
 10
6614.157
 20
-10975.250
 30
-1114.000
 70
    32
  0
VERTEX
  8
6350LEVEL
 62
7
 10
6626.477
 20
-10941.624
 30
-1114.000
 70
    32
  0
VERTEX
  8
6350LEVEL
 62
7
 10
6637.602
 20
-10943.807
 30
-1114.000
 70
    32
  0
VERTEX
  8
6350LEVEL
 62
7
 10
6647.080
 20
-10950.544
 30
-1114.000
 70
    32
  0
VERTEX
  8
6350LEVEL
 62
7
 10
6663.791
 20
-10997.211
 30
-1114.000
 70
    32
  0
VERTEX
  8
6350LEVEL
 62
7
 10
6667.282
 20
-11007.693
 30
-1114.000
 70
    32
  0
VERTEX
  8
6350LEVEL
 62
7
 10
6665.537
 20
-10995.714
 30
-1114.000
 70
    32
  0
VERTEX
  8
6350LEVEL
 62
7
 10
6656.308
 20
-10944.555
 30
-1114.000
 70
    32
  0
VERTEX
  8
6350LEVEL
 62
7
 10
6649.325
 20
-10895.891
 30
-1114.000
 70
    32
  0
VERTEX
  8
6350LEVEL
 62
7
 10
6634.114
 20
-10819.038
 30
-1114.000
 70
    32
  0
VERTEX
  8
6350LEVEL
 62
7
 10
6626.628
 20
-10792.325
 30
-1114.000
 70
    32
  0
VERTEX
  8
6350LEVEL
 62
7
 10
6626.877
 20
-10750.400
 30
-1114.000
 70
    32
  0
VERTEX
  8
6350LEVEL
 62
7
 10
6639.847
 20
-10746.157
 30
-1114.000
 70
    32
  0
VERTEX
  8
6350LEVEL
 62
7
 10
6649.574
 20
-10775.855
 30
-1114.000
 70
    32
  0
VERTEX
  8
6350LEVEL
 62
7
 10
6689.730
 20
-10866.693
 30
-1114.000
 70
    32
  0
VERTEX
  8
6350LEVEL
 62
7
 10
6710.931
 20
-10899.385
 30
-1114.000
 70
    32
  0
VERTEX
  8
6350LEVEL
 62
7
 10
6716.667
 20
-10902.380
 30
-1114.000
 70
    32
  0
VERTEX
  8
6350LEVEL
 62
7
 10
6734.376
 20
-10886.907
 30
-1114.000
 70
    32
  0
VERTEX
  8
6350LEVEL
 62
7
 10
6737.868
 20
-10860.704
 30
-1114.000
 70
    32
  0
VERTEX
  8
6350LEVEL
 62
7
 10
6766.172
 20
-10887.709
 30
-1114.000
 70
    32
  0
VERTEX
  8
6350LEVEL
 62
7
 10
6775.100
 20
-10891.617
 30
-1114.000
 70
    32
  0
VERTEX
  8
6350LEVEL
 62
7
 10
6807.704
 20
-10844.233
 30
-1114.000
 70
    32
  0
VERTEX
  8
6350LEVEL
 62
7
 10
6830.650
 20
-10869.688
 30
-1114.000
 70
    32
  0
VERTEX
  8
6350LEVEL
 62
7
 10
6841.375
 20
-10813.288
 30
-1114.000
 70
    32
  0
VERTEX
  8
6350LEVEL
 62
7
 10
6864.442
 20
-10797.482
 30
-1114.000
 70
    32
  0
VERTEX
  8
6350LEVEL
 62
7
 10
6875.296
 20
-10801.060
 30
-1114.000
 70
    32
  0
VERTEX
  8
6350LEVEL
 62
7
 10
6876.293
 20
-10775.106
 30
-1114.000
 70
    32
  0
VERTEX
  8
6350LEVEL
 62
7
 10
6878.289
 20
-10773.609
 30
-1114.000
 70
    32
  0
VERTEX
  8
6350LEVEL
 62
7
 10
6883.277
 20
-10776.354
 30
-1114.000
 70
    32
  0
VERTEX
  8
6350LEVEL
 62
7
 10
6882.030
 20
-10764.625
 30
-1114.000
 70
    32
  0
VERTEX
  8
6350LEVEL
 62
7
 10
6873.464
 20
-10732.952
 30
-1114.000
 70
    32
  0
VERTEX
  8
6350LEVEL
 62
7
 10
6858.767
 20
-10681.659
 30
-1114.000
 70
    32
  0
VERTEX
  8
6350LEVEL
 62
7
 10
6859.109
 20
-10657.380
 30
-1114.000
 70
    32
  0
VERTEX
  8
6350LEVEL
 62
7
 10
6867.995
 20
-10645.412
 30
-1114.000
 70
    32
  0
VERTEX
  8
6350LEVEL
 62
7
 10
6874.489
 20
-10671.400
 30
-1114.000
 70
    32
  0
VERTEX
  8
6350LEVEL
 62
7
 10
6884.059
 20
-10725.429
 30
-1114.000
 70
    32
  0
VERTEX
  8
6350LEVEL
 62
7
 10
6906.730
 20
-10762.088
 30
-1114.000
 70
    32
  0
VERTEX
  8
6350LEVEL
 62
7
 10
6917.255
 20
-10740.160
 30
-1114.000
 70
    32
  0
VERTEX
  8
6350LEVEL
 62
7
 10
6909.607
 20
-10706.470
 30
-1114.000
 70
    32
  0
VERTEX
  8
6350LEVEL
 62
7
 10
6911.255
 20
-10675.740
 30
-1114.000
 70
    32
  0
VERTEX
  8
6350LEVEL
 62
7
 10
6906.021
 20
-10647.895
 30
-1114.000
 70
    32
  0
VERTEX
  8
6350LEVEL
 62
7
 10
6906.174
 20
-10636.134
 30
-1114.000
 70
    32
  0
VERTEX
  8
6350LEVEL
 62
7
 10
6912.234
 20
-10617.322
 30
-1114.000
 70
    32
  0
VERTEX
  8
6350LEVEL
 62
7
 10
6918.294
 20
-10589.205
 30
-1114.000
 70
    32
  0
VERTEX
  8
6350LEVEL
 62
7
 10
6916.968
 20
-10583.085
 30
-1114.000
 70
    32
  0
VERTEX
  8
6350LEVEL
 62
7
 10
6897.529
 20
-10539.437
 30
-1114.000
 70
    32
  0
VERTEX
  8
6350LEVEL
 62
7
 10
6895.064
 20
-10529.735
 30
-1114.000
 70
    32
  0
VERTEX
  8
6350LEVEL
 62
7
 10
6895.064
 20
-10519.824
 30
-1114.000
 70
    32
  0
VERTEX
  8
6350LEVEL
 62
7
 10
6891.025
 20
-10505.260
 30
-1114.000
 70
    32
  0
VERTEX
  8
6350LEVEL
 62
7
 10
6885.368
 20
-10489.887
 30
-1114.000
 70
    32
  0
VERTEX
  8
6350LEVEL
 62
7
 10
6885.166
 20
-10487.459
 30
-1114.000
 70
    32
  0
VERTEX
  8
6350LEVEL
 62
7
 10
6886.176
 20
-10489.279
 30
-1114.000
 70
    32
  0
VERTEX
  8
6350LEVEL
 62
7
 10
6887.994
 20
-10493.325
 30
-1114.000
 70
    32
  0
VERTEX
  8
6350LEVEL
 62
7
 10
6893.044
 20
-10504.248
 30
-1114.000
 70
    32
  0
VERTEX
  8
6350LEVEL
 62
7
 10
6905.366
 20
-10521.037
 30
-1114.000
 70
    32
  0
VERTEX
  8
6350LEVEL
 62
7
 10
6906.983
 20
-10522.251
 30
-1114.000
 70
    32
  0
VERTEX
  8
6350LEVEL
 62
7
 10
6910.174
 20
-10530.178
 30
-1114.000
 70
    32
  0
VERTEX
  8
6350LEVEL
 62
7
 10
6922.252
 20
-10579.306
 30
-1114.000
 70
    32
  0
VERTEX
  8
6350LEVEL
 62
7
 10
6934.897
 20
-10627.299
 30
-1114.000
 70
    32
  0
VERTEX
  8
6350LEVEL
 62
7
 10
6942.258
 20
-10642.982
 30
-1114.000
 70
    32
  0
VERTEX
  8
6350LEVEL
 62
7
 10
6956.412
 20
-10672.648
 30
-1114.000
 70
    32
  0
VERTEX
  8
6350LEVEL
 62
7
 10
6960.956
 20
-10680.291
 30
-1114.000
 70
    32
  0
VERTEX
  8
6350LEVEL
 62
7
 10
6958.488
 20
-10671.136
 30
-1114.000
 70
    32
  0
VERTEX
  8
6350LEVEL
 62
7
 10
6939.049
 20
-10624.276
 30
-1114.000
 70
    32
  0
VERTEX
  8
6350LEVEL
 62
7
 10
6925.460
 20
-10576.282
 30
-1114.000
 70
    32
  0
VERTEX
  8
6350LEVEL
 62
7
 10
6917.534
 20
-10524.888
 30
-1114.000
 70
    32
  0
VERTEX
  8
6350LEVEL
 62
7
 10
6913.948
 20
-10498.812
 30
-1114.000
 70
    32
  0
VERTEX
  8
6350LEVEL
 62
7
 10
6924.517
 20
-10519.597
 30
-1114.000
 70
    32
  0
VERTEX
  8
6350LEVEL
 62
7
 10
6937.728
 20
-10567.969
 30
-1114.000
 70
    32
  0
VERTEX
  8
6350LEVEL
 62
7
 10
6950.373
 20
-10615.962
 30
-1114.000
 70
    32
  0
VERTEX
  8
6350LEVEL
 62
7
 10
6961.508
 20
-10669.057
 30
-1114.000
 70
    32
  0
VERTEX
  8
6350LEVEL
 62
7
 10
6967.450
 20
-10688.156
 30
-1114.000
 70
    32
  0
VERTEX
  8
6350LEVEL
 62
7
 10
6965.660
 20
-10666.034
 30
-1114.000
 70
    32
  0
VERTEX
  8
6350LEVEL
 62
7
 10
6958.299
 20
-10610.294
 30
-1114.000
 70
    32
  0
VERTEX
  8
6350LEVEL
 62
7
 10
6948.485
 20
-10559.844
 30
-1114.000
 70
    32
  0
VERTEX
  8
6350LEVEL
 62
7
 10
6943.956
 20
-10535.847
 30
-1114.000
 70
    32
  0
VERTEX
  8
6350LEVEL
 62
7
 10
6953.581
 20
-10556.065
 30
-1114.000
 70
    32
  0
VERTEX
  8
6350LEVEL
 62
7
 10
6970.190
 20
-10601.413
 30
-1114.000
 70
    32
  0
VERTEX
  8
6350LEVEL
 62
7
 10
6979.815
 20
-10655.642
 30
-1114.000
 70
    32
  0
VERTEX
  8
6350LEVEL
 62
7
 10
6987.175
 20
-10668.680
 30
-1114.000
 70
    32
  0
VERTEX
  8
6350LEVEL
 62
7
 10
6999.577
 20
-10674.820
 30
-1114.000
 70
    32
  0
VERTEX
  8
6350LEVEL
 62
7
 10
6994.450
 20
-10645.070
 30
-1114.000
 70
    32
  0
VERTEX
  8
6350LEVEL
 62
7
 10
6979.815
 20
-10594.233
 30
-1114.000
 70
    32
  0
VERTEX
  8
6350LEVEL
 62
7
 10
6960.376
 20
-10551.152
 30
-1114.000
 70
    32
  0
VERTEX
  8
6350LEVEL
 62
7
 10
6954.714
 20
-10533.202
 30
-1114.000
 70
    32
  0
VERTEX
  8
6350LEVEL
 62
7
 10
6958.300
 20
-10516.007
 30
-1114.000
 70
    32
  0
VERTEX
  8
6350LEVEL
 62
7
 10
6970.189
 20
-10544.161
 30
-1114.000
 70
    32
  0
VERTEX
  8
6350LEVEL
 62
7
 10
6980.759
 20
-10566.079
 30
-1114.000
 70
    32
  0
VERTEX
  8
6350LEVEL
 62
7
 10
6973.587
 20
-10541.893
 30
-1114.000
 70
    32
  0
VERTEX
  8
6350LEVEL
 62
7
 10
6970.190
 20
-10517.897
 30
-1114.000
 70
    32
  0
VERTEX
  8
6350LEVEL
 62
7
 10
6982.268
 20
-10535.658
 30
-1114.000
 70
    32
  0
VERTEX
  8
6350LEVEL
 62
7
 10
6985.099
 20
-10540.760
 30
-1114.000
 70
    32
  0
VERTEX
  8
6350LEVEL
 62
7
 10
6983.023
 20
-10534.902
 30
-1114.000
 70
    32
  0
VERTEX
  8
6350LEVEL
 62
7
 10
6978.116
 20
-10516.196
 30
-1114.000
 70
    32
  0
VERTEX
  8
6350LEVEL
 62
7
 10
6989.629
 20
-10529.612
 30
-1114.000
 70
    32
  0
VERTEX
  8
6350LEVEL
 62
7
 10
6989.629
 20
-10529.612
 30
-1114.000
 70
    32
  0
VERTEX
  8
6350LEVEL
 62
7
 10
6996.235
 20
-10537.925
 30
-1114.000
 70
    32
  0
VERTEX
  8
6350LEVEL
 62
7
 10
6994.347
 20
-10526.777
 30
-1114.000
 70
    32
  0
VERTEX
  8
6350LEVEL
 62
7
 10
6989.629
 20
-10512.417
 30
-1114.000
 70
    32
  0
VERTEX
  8
6350LEVEL
 62
7
 10
6996.989
 20
-10524.510
 30
-1114.000
 70
    32
  0
VERTEX
  8
6350LEVEL
 62
7
 10
7011.710
 20
-10571.181
 30
-1114.000
 70
    32
  0
VERTEX
  8
6350LEVEL
 62
7
 10
7027.186
 20
-10621.253
 30
-1114.000
 70
    32
  0
VERTEX
  8
6350LEVEL
 62
7
 10
7050.609
 20
-10675.261
 30
-1114.000
 70
    32
  0
VERTEX
  8
6350LEVEL
 62
7
 10
7033.792
 20
-10616.529
 30
-1114.000
 70
    32
  0
VERTEX
  8
6350LEVEL
 62
7
 10
7030.584
 20
-10601.602
 30
-1114.000
 70
    32
  0
VERTEX
  8
6350LEVEL
 62
7
 10
7039.831
 20
-10612.372
 30
-1114.000
 70
    32
  0
VERTEX
  8
6350LEVEL
 62
7
 10
7048.513
 20
-10622.953
 30
-1114.000
 70
    32
  0
VERTEX
  8
6350LEVEL
 62
7
 10
7042.473
 20
-10610.294
 30
-1114.000
 70
    32
  0
VERTEX
  8
6350LEVEL
 62
7
 10
7013.975
 20
-10569.480
 30
-1114.000
 70
    32
  0
VERTEX
  8
6350LEVEL
 62
7
 10
6997.933
 20
-10523.943
 30
-1114.000
 70
    32
  0
VERTEX
  8
6350LEVEL
 62
7
 10
6977.172
 20
-10481.807
 30
-1114.000
 70
    32
  0
VERTEX
  8
6350LEVEL
 62
7
 10
6996.611
 20
-10433.057
 30
-1114.000
 70
    32
  0
SEQEND
  8
6350LEVEL
  0
POLYLINE
  8
6350LEVEL
 62
13
 66
     1
 70
     8
  0
VERTEX
  8
6350LEVEL
 62
13
 10
7002.084
 20
-10299.091
 30
-1114.000
 70
    32
  0
VERTEX
  8
6350LEVEL
 62
13
 10
6995.668
 20
-10291.155
 30
-1114.000
 70
    32
  0
VERTEX
  8
6350LEVEL
 62
13
 10
6993.025
 20
-10286.620
 30
-1114.000
 70
    32
  0
VERTEX
  8
6350LEVEL
 62
13
 10
6994.724
 20
-10291.533
 30
-1114.000
 70
    32
  0
VERTEX
  8
6350LEVEL
 62
13
 10
6999.631
 20
-10302.870
 30
-1114.000
 70
    32
  0
VERTEX
  8
6350LEVEL
 62
13
 10
6991.516
 20
-10293.611
 30
-1114.000
 70
    32
  0
VERTEX
  8
6350LEVEL
 62
13
 10
6983.211
 20
-10280.952
 30
-1114.000
 70
    32
  0
VERTEX
  8
6350LEVEL
 62
13
 10
6989.817
 20
-10295.123
 30
-1114.000
 70
    32
  0
VERTEX
  8
6350LEVEL
 62
13
 10
6996.800
 20
-10310.995
 30
-1114.000
 70
    32
  0
VERTEX
  8
6350LEVEL
 62
13
 10
7000.763
 20
-10339.526
 30
-1114.000
 70
    32
  0
VERTEX
  8
6350LEVEL
 62
13
 10
7005.481
 20
-10373.349
 30
-1114.000
 70
    32
  0
VERTEX
  8
6350LEVEL
 62
13
 10
6994.346
 20
-10413.028
 30
-1114.000
 70
    32
  0
VERTEX
  8
6350LEVEL
 62
13
 10
6971.887
 20
-10436.270
 30
-1114.000
 70
    32
  0
VERTEX
  8
6350LEVEL
 62
13
 10
6966.792
 20
-10439.482
 30
-1114.000
 70
    32
  0
VERTEX
  8
6350LEVEL
 62
13
 10
6955.279
 20
-10430.412
 30
-1114.000
 70
    32
  0
VERTEX
  8
6350LEVEL
 62
13
 10
6949.051
 20
-10431.357
 30
-1114.000
 70
    32
  0
VERTEX
  8
6350LEVEL
 62
13
 10
6951.693
 20
-10440.616
 30
-1114.000
 70
    32
  0
VERTEX
  8
6350LEVEL
 62
13
 10
6953.958
 20
-10448.173
 30
-1114.000
 70
    32
  0
VERTEX
  8
6350LEVEL
 62
13
 10
6950.561
 20
-10452.897
 30
-1114.000
 70
    32
  0
VERTEX
  8
6350LEVEL
 62
13
 10
6944.710
 20
-10445.906
 30
-1114.000
 70
    32
  0
VERTEX
  8
6350LEVEL
 62
13
 10
6940.558
 20
-10440.426
 30
-1114.000
 70
    32
  0
VERTEX
  8
6350LEVEL
 62
13
 10
6943.956
 20
-10447.607
 30
-1114.000
 70
    32
  0
VERTEX
  8
6350LEVEL
 62
13
 10
6947.730
 20
-10457.054
 30
-1114.000
 70
    32
  0
VERTEX
  8
6350LEVEL
 62
13
 10
6941.125
 20
-10449.496
 30
-1114.000
 70
    32
  0
VERTEX
  8
6350LEVEL
 62
13
 10
6934.708
 20
-10440.238
 30
-1114.000
 70
    32
  0
VERTEX
  8
6350LEVEL
 62
13
 10
6938.860
 20
-10451.197
 30
-1114.000
 70
    32
  0
VERTEX
  8
6350LEVEL
 62
13
 10
6944.522
 20
-10463.857
 30
-1114.000
 70
    32
  0
VERTEX
  8
6350LEVEL
 62
13
 10
6935.085
 20
-10453.086
 30
-1114.000
 70
    32
  0
VERTEX
  8
6350LEVEL
 62
13
 10
6932.821
 20
-10450.252
 30
-1114.000
 70
    32
  0
VERTEX
  8
6350LEVEL
 62
13
 10
6933.764
 20
-10454.220
 30
-1114.000
 70
    32
  0
VERTEX
  8
6350LEVEL
 62
13
 10
6939.236
 20
-10485.269
 30
-1114.000
 70
    32
  0
VERTEX
  8
6350LEVEL
 62
13
 10
6924.894
 20
-10460.833
 30
-1114.000
 70
    32
  0
VERTEX
  8
6350LEVEL
 62
13
 10
6905.176
 20
-10422.034
 30
-1114.000
 70
    32
  0
VERTEX
  8
6350LEVEL
 62
13
 10
6901.338
 20
-10444.699
 30
-1114.000
 70
    32
  0
VERTEX
  8
6350LEVEL
 62
13
 10
6892.512
 20
-10434.327
 30
-1114.000
 70
    32
  0
VERTEX
  8
6350LEVEL
 62
13
 10
6893.663
 20
-10450.461
 30
-1114.000
 70
    32
  0
VERTEX
  8
6350LEVEL
 62
13
 10
6883.751
 20
-10431.168
 30
-1114.000
 70
    32
  0
VERTEX
  8
6350LEVEL
 62
13
 10
6894.047
 20
-10401.674
 30
-1114.000
 70
    32
  0
VERTEX
  8
6350LEVEL
 62
13
 10
6892.128
 20
-10365.948
 30
-1114.000
 70
    32
  0
VERTEX
  8
6350LEVEL
 62
13
 10
6887.907
 20
-10351.734
 30
-1114.000
 70
    32
  0
VERTEX
  8
6350LEVEL
 62
13
 10
6889.058
 20
-10368.253
 30
-1114.000
 70
    32
  0
VERTEX
  8
6350LEVEL
 62
13
 10
6885.221
 20
-10397.448
 30
-1114.000
 70
    32
  0
VERTEX
  8
6350LEVEL
 62
13
 10
6882.534
 20
-10407.436
 30
-1114.000
 70
    32
  0
VERTEX
  8
6350LEVEL
 62
13
 10
6876.394
 20
-10387.844
 30
-1114.000
 70
    32
  0
VERTEX
  8
6350LEVEL
 62
13
 10
6874.092
 20
-10379.009
 30
-1114.000
 70
    32
  0
VERTEX
  8
6350LEVEL
 62
13
 10
6869.487
 20
-10363.643
 30
-1114.000
 70
    32
  0
VERTEX
  8
6350LEVEL
 62
13
 10
6864.881
 20
-10354.039
 30
-1114.000
 70
    32
  0
VERTEX
  8
6350LEVEL
 62
13
 10
6864.114
 20
-10370.942
 30
-1114.000
 70
    32
  0
VERTEX
  8
6350LEVEL
 62
13
 10
6867.951
 20
-10382.851
 30
-1114.000
 70
    32
  0
VERTEX
  8
6350LEVEL
 62
13
 10
6867.951
 20
-10418.192
 30
-1114.000
 70
    32
  0
VERTEX
  8
6350LEVEL
 62
13
 10
6846.077
 20
-10398.985
 30
-1114.000
 70
    32
  0
VERTEX
  8
6350LEVEL
 62
13
 10
6838.786
 20
-10389.765
 30
-1114.000
 70
    32
  0
VERTEX
  8
6350LEVEL
 62
13
 10
6836.436
 20
-10366.371
 30
-1114.000
 70
    32
  0
VERTEX
  8
6350LEVEL
 62
13
 10
6836.992
 20
-10348.274
 30
-1114.000
 70
    32
  0
VERTEX
  8
6350LEVEL
 62
13
 10
6826.429
 20
-10297.326
 30
-1114.000
 70
    32
  0
VERTEX
  8
6350LEVEL
 62
13
 10
6824.762
 20
-10293.984
 30
-1114.000
 70
    32
  0
VERTEX
  8
6350LEVEL
 62
13
 10
6825.595
 20
-10298.161
 30
-1114.000
 70
    32
  0
VERTEX
  8
6350LEVEL
 62
13
 10
6835.046
 20
-10348.831
 30
-1114.000
 70
    32
  0
VERTEX
  8
6350LEVEL
 62
13
 10
6834.212
 20
-10365.814
 30
-1114.000
 70
    32
  0
VERTEX
  8
6350LEVEL
 62
13
 10
6830.321
 20
-10380.848
 30
-1114.000
 70
    32
  0
VERTEX
  8
6350LEVEL
 62
13
 10
6828.424
 20
-10399.369
 30
-1114.000
 70
    32
  0
VERTEX
  8
6350LEVEL
 62
13
 10
6828.424
 20
-10399.369
 30
-1114.000
 70
    32
  0
VERTEX
  8
6350LEVEL
 62
13
 10
6825.354
 20
-10413.583
 30
-1114.000
 70
    32
  0
VERTEX
  8
6350LEVEL
 62
13
 10
6836.867
 20
-10454.303
 30
-1114.000
 70
    32
  0
VERTEX
  8
6350LEVEL
 62
13
 10
6819.598
 20
-10442.394
 30
-1114.000
 70
    32
  0
VERTEX
  8
6350LEVEL
 62
13
 10
6810.771
 20
-10424.723
 30
-1114.000
 70
    32
  0
VERTEX
  8
6350LEVEL
 62
13
 10
6803.863
 20
-10398.601
 30
-1114.000
 70
    32
  0
VERTEX
  8
6350LEVEL
 62
13
 10
6796.188
 20
-10393.223
 30
-1114.000
 70
    32
  0
VERTEX
  8
6350LEVEL
 62
13
 10
6790.816
 20
-10405.132
 30
-1114.000
 70
    32
  0
VERTEX
  8
6350LEVEL
 62
13
 10
6800.026
 20
-10433.175
 30
-1114.000
 70
    32
  0
VERTEX
  8
6350LEVEL
 62
13
 10
6820.365
 20
-10478.505
 30
-1114.000
 70
    32
  0
VERTEX
  8
6350LEVEL
 62
13
 10
6819.981
 20
-10537.280
 30
-1114.000
 70
    32
  0
VERTEX
  8
6350LEVEL
 62
13
 10
6819.981
 20
-10594.519
 30
-1114.000
 70
    32
  0
VERTEX
  8
6350LEVEL
 62
13
 10
6836.895
 20
-10638.915
 30
-1114.000
 70
    32
  0
VERTEX
  8
6350LEVEL
 62
13
 10
6854.667
 20
-10684.053
 30
-1114.000
 70
    32
  0
VERTEX
  8
6350LEVEL
 62
13
 10
6865.261
 20
-10738.423
 30
-1114.000
 70
    32
  0
VERTEX
  8
6350LEVEL
 62
13
 10
6865.319
 20
-10742.165
 30
-1114.000
 70
    32
  0
VERTEX
  8
6350LEVEL
 62
13
 10
6861.578
 20
-10740.668
 30
-1114.000
 70
    32
  0
VERTEX
  8
6350LEVEL
 62
13
 10
6858.086
 20
-10735.177
 30
-1114.000
 70
    32
  0
VERTEX
  8
6350LEVEL
 62
13
 10
6851.602
 20
-10727.691
 30
-1114.000
 70
    32
  0
VERTEX
  8
6350LEVEL
 62
13
 10
6857.088
 20
-10743.912
 30
-1114.000
 70
    32
  0
VERTEX
  8
6350LEVEL
 62
13
 10
6858.336
 20
-10751.648
 30
-1114.000
 70
    32
  0
VERTEX
  8
6350LEVEL
 62
13
 10
6856.590
 20
-10761.380
 30
-1114.000
 70
    32
  0
VERTEX
  8
6350LEVEL
 62
13
 10
6844.119
 20
-10753.145
 30
-1114.000
 70
    32
  0
VERTEX
  8
6350LEVEL
 62
13
 10
6835.639
 20
-10737.673
 30
-1114.000
 70
    32
  0
VERTEX
  8
6350LEVEL
 62
13
 10
6831.149
 20
-10737.673
 30
-1114.000
 70
    32
  0
VERTEX
  8
6350LEVEL
 62
13
 10
6836.138
 20
-10759.634
 30
-1114.000
 70
    32
  0
VERTEX
  8
6350LEVEL
 62
13
 10
6838.632
 20
-10771.363
 30
-1114.000
 70
    32
  0
VERTEX
  8
6350LEVEL
 62
13
 10
6833.145
 20
-10785.837
 30
-1114.000
 70
    32
  0
VERTEX
  8
6350LEVEL
 62
13
 10
6824.166
 20
-10779.349
 30
-1114.000
 70
    32
  0
VERTEX
  8
6350LEVEL
 62
13
 10
6818.429
 20
-10772.860
 30
-1114.000
 70
    32
  0
VERTEX
  8
6350LEVEL
 62
13
 10
6810.697
 20
-10760.382
 30
-1114.000
 70
    32
  0
VERTEX
  8
6350LEVEL
 62
13
 10
6799.224
 20
-10747.655
 30
-1114.000
 70
    32
  0
VERTEX
  8
6350LEVEL
 62
13
 10
6797.728
 20
-10754.143
 30
-1114.000
 70
    32
  0
VERTEX
  8
6350LEVEL
 62
13
 10
6801.220
 20
-10765.373
 30
-1114.000
 70
    32
  0
VERTEX
  8
6350LEVEL
 62
13
 10
6809.450
 20
-10778.850
 30
-1114.000
 70
    32
  0
VERTEX
  8
6350LEVEL
 62
13
 10
6818.180
 20
-10792.824
 30
-1114.000
 70
    32
  0
VERTEX
  8
6350LEVEL
 62
13
 10
6813.940
 20
-10829.509
 30
-1114.000
 70
    32
  0
VERTEX
  8
6350LEVEL
 62
13
 10
6795.732
 20
-10809.794
 30
-1114.000
 70
    32
  0
VERTEX
  8
6350LEVEL
 62
13
 10
6785.756
 20
-10795.570
 30
-1114.000
 70
    32
  0
VERTEX
  8
6350LEVEL
 62
13
 10
6783.262
 20
-10790.578
 30
-1114.000
 70
    32
  0
VERTEX
  8
6350LEVEL
 62
13
 10
6784.259
 20
-10797.316
 30
-1114.000
 70
    32
  0
VERTEX
  8
6350LEVEL
 62
13
 10
6788.000
 20
-10813.039
 30
-1114.000
 70
    32
  0
VERTEX
  8
6350LEVEL
 62
13
 10
6787.501
 20
-10834.251
 30
-1114.000
 70
    32
  0
VERTEX
  8
6350LEVEL
 62
13
 10
6764.555
 20
-10838.743
 30
-1114.000
 70
    32
  0
VERTEX
  8
6350LEVEL
 62
13
 10
6742.607
 20
-10828.012
 30
-1114.000
 70
    32
  0
VERTEX
  8
6350LEVEL
 62
13
 10
6706.940
 20
-10779.099
 30
-1114.000
 70
    32
  0
VERTEX
  8
6350LEVEL
 62
13
 10
6702.700
 20
-10789.580
 30
-1114.000
 70
    32
  0
VERTEX
  8
6350LEVEL
 62
13
 10
6715.919
 20
-10846.978
 30
-1114.000
 70
    32
  0
VERTEX
  8
6350LEVEL
 62
13
 10
6718.413
 20
-10855.962
 30
-1114.000
 70
    32
  0
VERTEX
  8
6350LEVEL
 62
13
 10
6713.176
 20
-10849.474
 30
-1114.000
 70
    32
  0
VERTEX
  8
6350LEVEL
 62
13
 10
6689.481
 20
-10804.304
 30
-1114.000
 70
    32
  0
VERTEX
  8
6350LEVEL
 62
13
 10
6675.514
 20
-10756.888
 30
-1114.000
 70
    32
  0
VERTEX
  8
6350LEVEL
 62
13
 10
6672.371
 20
-10747.830
 30
-1114.000
 70
    32
  0
VERTEX
  8
6350LEVEL
 62
13
 10
6663.116
 20
-10732.735
 30
-1114.000
 70
    32
  0
VERTEX
  8
6350LEVEL
 62
13
 10
6651.632
 20
-10721.242
 30
-1114.000
 70
    32
  0
VERTEX
  8
6350LEVEL
 62
13
 10
6642.890
 20
-10712.665
 30
-1114.000
 70
    32
  0
VERTEX
  8
6350LEVEL
 62
13
 10
6646.147
 20
-10699.971
 30
-1114.000
 70
    32
  0
VERTEX
  8
6350LEVEL
 62
13
 10
6657.631
 20
-10685.390
 30
-1114.000
 70
    32
  0
VERTEX
  8
6350LEVEL
 62
13
 10
6674.085
 20
-10669.437
 30
-1114.000
 70
    32
  0
VERTEX
  8
6350LEVEL
 62
13
 10
6680.256
 20
-10651.768
 30
-1114.000
 70
    32
  0
VERTEX
  8
6350LEVEL
 62
13
 10
6679.056
 20
-10639.589
 30
-1114.000
 70
    32
  0
VERTEX
  8
6350LEVEL
 62
13
 10
6677.685
 20
-10628.782
 30
-1114.000
 70
    32
  0
VERTEX
  8
6350LEVEL
 62
13
 10
6675.628
 20
-10641.990
 30
-1114.000
 70
    32
  0
VERTEX
  8
6350LEVEL
 62
13
 10
6672.200
 20
-10653.141
 30
-1114.000
 70
    32
  0
VERTEX
  8
6350LEVEL
 62
13
 10
6657.974
 20
-10666.178
 30
-1114.000
 70
    32
  0
VERTEX
  8
6350LEVEL
 62
13
 10
6641.519
 20
-10681.444
 30
-1114.000
 70
    32
  0
VERTEX
  8
6350LEVEL
 62
13
 10
6617.351
 20
-10708.548
 30
-1114.000
 70
    32
  0
VERTEX
  8
6350LEVEL
 62
13
 10
6610.324
 20
-10697.398
 30
-1114.000
 70
    32
  0
VERTEX
  8
6350LEVEL
 62
13
 10
6608.781
 20
-10703.916
 30
-1114.000
 70
    32
  0
VERTEX
  8
6350LEVEL
 62
13
 10
6604.839
 20
-10693.624
 30
-1114.000
 70
    32
  0
VERTEX
  8
6350LEVEL
 62
13
 10
6593.254
 20
-10665.283
 30
-1114.000
 70
    32
  0
VERTEX
  8
6350LEVEL
 62
13
 10
6575.089
 20
-10687.089
 30
-1114.000
 70
    32
  0
VERTEX
  8
6350LEVEL
 62
13
 10
6569.279
 20
-10648.961
 30
-1114.000
 70
    32
  0
VERTEX
  8
6350LEVEL
 62
13
 10
6543.917
 20
-10662.175
 30
-1114.000
 70
    32
  0
VERTEX
  8
6350LEVEL
 62
13
 10
6533.797
 20
-10701.056
 30
-1114.000
 70
    32
  0
VERTEX
  8
6350LEVEL
 62
13
 10
6545.877
 20
-10736.509
 30
-1114.000
 70
    32
  0
VERTEX
  8
6350LEVEL
 62
13
 10
6556.499
 20
-10779.911
 30
-1114.000
 70
    32
  0
VERTEX
  8
6350LEVEL
 62
13
 10
6537.992
 20
-10741.998
 30
-1114.000
 70
    32
  0
VERTEX
  8
6350LEVEL
 62
13
 10
6515.198
 20
-10688.735
 30
-1114.000
 70
    32
  0
VERTEX
  8
6350LEVEL
 62
13
 10
6499.607
 20
-10670.390
 30
-1114.000
 70
    32
  0
VERTEX
  8
6350LEVEL
 62
13
 10
6491.675
 20
-10689.830
 30
-1114.000
 70
    32
  0
VERTEX
  8
6350LEVEL
 62
13
 10
6520.121
 20
-10754.722
 30
-1114.000
 70
    32
  0
VERTEX
  8
6350LEVEL
 62
13
 10
6524.498
 20
-10764.853
 30
-1114.000
 70
    32
  0
VERTEX
  8
6350LEVEL
 62
13
 10
6517.660
 20
-10756.638
 30
-1114.000
 70
    32
  0
VERTEX
  8
6350LEVEL
 62
13
 10
6477.725
 20
-10692.568
 30
-1114.000
 70
    32
  0
VERTEX
  8
6350LEVEL
 62
13
 10
6477.452
 20
-10710.639
 30
-1114.000
 70
    32
  0
VERTEX
  8
6350LEVEL
 62
13
 10
6505.898
 20
-10765.126
 30
-1114.000
 70
    32
  0
VERTEX
  8
6350LEVEL
 62
13
 10
6511.642
 20
-10777.995
 30
-1114.000
 70
    32
  0
VERTEX
  8
6350LEVEL
 62
13
 10
6500.975
 20
-10769.233
 30
-1114.000
 70
    32
  0
VERTEX
  8
6350LEVEL
 62
13
 10
6485.384
 20
-10747.876
 30
-1114.000
 70
    32
  0
VERTEX
  8
6350LEVEL
 62
13
 10
6482.922
 20
-10756.091
 30
-1114.000
 70
    32
  0
VERTEX
  8
6350LEVEL
 62
13
 10
6485.931
 20
-10768.686
 30
-1114.000
 70
    32
  0
VERTEX
  8
6350LEVEL
 62
13
 10
6459.400
 20
-10895.732
 30
-1114.000
 70
    32
  0
VERTEX
  8
6350LEVEL
 62
13
 10
6480.461
 20
-10985.539
 30
-1114.000
 70
    32
  0
VERTEX
  8
6350LEVEL
 62
13
 10
6474.170
 20
-10976.778
 30
-1114.000
 70
    32
  0
VERTEX
  8
6350LEVEL
 62
13
 10
6466.238
 20
-10978.694
 30
-1114.000
 70
    32
  0
VERTEX
  8
6350LEVEL
 62
13
 10
6493.826
 20
-11062.846
 30
-1114.000
 70
    32
  0
VERTEX
  8
6350LEVEL
 62
13
 10
6503.205
 20
-11114.726
 30
-1114.000
 70
    32
  0
VERTEX
  8
6350LEVEL
 62
13
 10
6517.009
 20
-11163.065
 30
-1114.000
 70
    32
  0
VERTEX
  8
6350LEVEL
 62
13
 10
6540.220
 20
-11205.330
 30
-1114.000
 70
    32
  0
VERTEX
  8
6350LEVEL
 62
13
 10
6585.549
 20
-11264.465
 30
-1114.000
 70
    32
  0
VERTEX
  8
6350LEVEL
 62
13
 10
6603.732
 20
-11304.407
 30
-1114.000
 70
    32
  0
VERTEX
  8
6350LEVEL
 62
13
 10
6603.256
 20
-11312.303
 30
-1114.000
 70
    32
  0
VERTEX
  8
6350LEVEL
 62
13
 10
6586.059
 20
-11317.225
 30
-1114.000
 70
    32
  0
VERTEX
  8
6350LEVEL
 62
13
 10
6516.831
 20
-11221.319
 30
-1114.000
 70
    32
  0
VERTEX
  8
6350LEVEL
 62
13
 10
6500.409
 20
-11195.418
 30
-1114.000
 70
    32
  0
SEQEND
  8
6350LEVEL
  0
POLYLINE
  8
6350LEVEL
 62
7
 66
     1
 70
     8
  0
VERTEX
  8
6350LEVEL
 62
7
 10
7300.698
 20
-8116.908
 30
-1114.000
 70
    32
  0
VERTEX
  8
6350LEVEL
 62
7
 10
7326.915
 20
-8190.267
 30
-1114.000
 70
    32
  0
VERTEX
  8
6350LEVEL
 62
7
 10
7356.872
 20
-8226.201
 30
-1114.000
 70
    32
  0
VERTEX
  8
6350LEVEL
 62
7
 10
7356.172
 20
-8233.039
 30
-1114.000
 70
    32
  0
VERTEX
  8
6350LEVEL
 62
7
 10
7327.881
 20
-8248.363
 30
-1114.000
 70
    32
  0
VERTEX
  8
6350LEVEL
 62
7
 10
7327.979
 20
-8273.211
 30
-1114.000
 70
    32
  0
VERTEX
  8
6350LEVEL
 62
7
 10
7295.217
 20
-8287.196
 30
-1114.000
 70
    32
  0
VERTEX
  8
6350LEVEL
 62
7
 10
7222.391
 20
-8236.141
 30
-1114.000
 70
    32
  0
VERTEX
  8
6350LEVEL
 62
7
 10
7203.934
 20
-8211.791
 30
-1114.000
 70
    32
  0
VERTEX
  8
6350LEVEL
 62
7
 10
7200.857
 20
-8189.399
 30
-1114.000
 70
    32
  0
VERTEX
  8
6350LEVEL
 62
7
 10
7179.602
 20
-8141.818
 30
-1114.000
 70
    32
  0
VERTEX
  8
6350LEVEL
 62
7
 10
7165.339
 20
-8128.104
 30
-1114.000
 70
    32
  0
VERTEX
  8
6350LEVEL
 62
7
 10
7162.543
 20
-8136.500
 30
-1114.000
 70
    32
  0
VERTEX
  8
6350LEVEL
 62
7
 10
7164.221
 20
-8153.294
 30
-1114.000
 70
    32
  0
VERTEX
  8
6350LEVEL
 62
7
 10
7168.136
 20
-8170.087
 30
-1114.000
 70
    32
  0
VERTEX
  8
6350LEVEL
 62
7
 10
7167.577
 20
-8177.644
 30
-1114.000
 70
    32
  0
VERTEX
  8
6350LEVEL
 62
7
 10
7151.077
 20
-8162.810
 30
-1114.000
 70
    32
  0
VERTEX
  8
6350LEVEL
 62
7
 10
7146.602
 20
-8157.772
 30
-1114.000
 70
    32
  0
VERTEX
  8
6350LEVEL
 62
7
 10
7148.280
 20
-8164.209
 30
-1114.000
 70
    32
  0
VERTEX
  8
6350LEVEL
 62
7
 10
7151.916
 20
-8174.565
 30
-1114.000
 70
    32
  0
VERTEX
  8
6350LEVEL
 62
7
 10
7142.966
 20
-8167.848
 30
-1114.000
 70
    32
  0
VERTEX
  8
6350LEVEL
 62
7
 10
7137.653
 20
-8157.492
 30
-1114.000
 70
    32
  0
VERTEX
  8
6350LEVEL
 62
7
 10
7120.593
 20
-8140.979
 30
-1114.000
 70
    32
  0
VERTEX
  8
6350LEVEL
 62
7
 10
7120.313
 20
-8153.294
 30
-1114.000
 70
    32
  0
VERTEX
  8
6350LEVEL
 62
7
 10
7122.271
 20
-8182.962
 30
-1114.000
 70
    32
  0
VERTEX
  8
6350LEVEL
 62
7
 10
7165.619
 20
-8214.870
 30
-1114.000
 70
    32
  0
VERTEX
  8
6350LEVEL
 62
7
 10
7181.001
 20
-8266.649
 30
-1114.000
 70
    32
  0
VERTEX
  8
6350LEVEL
 62
7
 10
7213.153
 20
-8342.243
 30
-1114.000
 70
    32
  0
VERTEX
  8
6350LEVEL
 62
7
 10
7213.228
 20
-8377.277
 30
-1114.000
 70
    32
  0
VERTEX
  8
6350LEVEL
 62
7
 10
7222.107
 20
-8388.688
 30
-1114.000
 70
    32
  0
VERTEX
  8
6350LEVEL
 62
7
 10
7260.586
 20
-8406.186
 30
-1114.000
 70
    32
  0
VERTEX
  8
6350LEVEL
 62
7
 10
7266.008
 20
-8418.217
 30
-1114.000
 70
    32
  0
VERTEX
  8
6350LEVEL
 62
7
 10
7339.389
 20
-8468.177
 30
-1114.000
 70
    32
  0
VERTEX
  8
6350LEVEL
 62
7
 10
7365.294
 20
-8509.195
 30
-1114.000
 70
    32
  0
VERTEX
  8
6350LEVEL
 62
7
 10
7390.597
 20
-8549.007
 30
-1114.000
 70
    32
  0
VERTEX
  8
6350LEVEL
 62
7
 10
7361.077
 20
-8512.814
 30
-1114.000
 70
    32
  0
VERTEX
  8
6350LEVEL
 62
7
 10
7328.545
 20
-8490.496
 30
-1114.000
 70
    32
  0
VERTEX
  8
6350LEVEL
 62
7
 10
7326.135
 20
-8502.560
 30
-1114.000
 70
    32
  0
VERTEX
  8
6350LEVEL
 62
7
 10
7324.930
 20
-8539.355
 30
-1114.000
 70
    32
  0
VERTEX
  8
6350LEVEL
 62
7
 10
7336.376
 20
-8580.374
 30
-1114.000
 70
    32
  0
VERTEX
  8
6350LEVEL
 62
7
 10
7313.483
 20
-8576.151
 30
-1114.000
 70
    32
  0
VERTEX
  8
6350LEVEL
 62
7
 10
7294.807
 20
-8559.261
 30
-1114.000
 70
    32
  0
VERTEX
  8
6350LEVEL
 62
7
 10
7281.553
 20
-8540.562
 30
-1114.000
 70
    32
  0
VERTEX
  8
6350LEVEL
 62
7
 10
7281.553
 20
-8569.516
 30
-1114.000
 70
    32
  0
VERTEX
  8
6350LEVEL
 62
7
 10
7292.397
 20
-8601.486
 30
-1114.000
 70
    32
  0
VERTEX
  8
6350LEVEL
 62
7
 10
7270.107
 20
-8588.819
 30
-1114.000
 70
    32
  0
VERTEX
  8
6350LEVEL
 62
7
 10
7266.492
 20
-8605.105
 30
-1114.000
 70
    32
  0
VERTEX
  8
6350LEVEL
 62
7
 10
7250.225
 20
-8591.231
 30
-1114.000
 70
    32
  0
VERTEX
  8
6350LEVEL
 62
7
 10
7193.887
 20
-8538.725
 30
-1114.000
 70
    32
  0
VERTEX
  8
6350LEVEL
 62
7
 10
7178.626
 20
-8546.287
 30
-1114.000
 70
    32
  0
VERTEX
  8
6350LEVEL
 62
7
 10
7172.876
 20
-8541.700
 30
-1114.000
 70
    32
  0
VERTEX
  8
6350LEVEL
 62
7
 10
7162.531
 20
-8571.559
 30
-1114.000
 70
    32
  0
VERTEX
  8
6350LEVEL
 62
7
 10
7157.464
 20
-8576.647
 30
-1114.000
 70
    32
  0
VERTEX
  8
6350LEVEL
 62
7
 10
7146.936
 20
-8566.769
 30
-1114.000
 70
    32
  0
VERTEX
  8
6350LEVEL
 62
7
 10
7140.915
 20
-8579.552
 30
-1114.000
 70
    32
  0
VERTEX
  8
6350LEVEL
 62
7
 10
7149.886
 20
-8664.556
 30
-1114.000
 70
    32
  0
VERTEX
  8
6350LEVEL
 62
7
 10
7155.636
 20
-8695.362
 30
-1114.000
 70
    32
  0
VERTEX
  8
6350LEVEL
 62
7
 10
7143.933
 20
-8693.340
 30
-1114.000
 70
    32
  0
VERTEX
  8
6350LEVEL
 62
7
 10
7138.336
 20
-8714.234
 30
-1114.000
 70
    32
  0
VERTEX
  8
6350LEVEL
 62
7
 10
7125.207
 20
-8714.054
 30
-1114.000
 70
    32
  0
VERTEX
  8
6350LEVEL
 62
7
 10
7106.339
 20
-8746.927
 30
-1114.000
 70
    32
  0
VERTEX
  8
6350LEVEL
 62
7
 10
7095.145
 20
-8731.672
 30
-1114.000
 70
    32
  0
VERTEX
  8
6350LEVEL
 62
7
 10
7072.903
 20
-8781.537
 30
-1114.000
 70
    32
  0
VERTEX
  8
6350LEVEL
 62
7
 10
7065.377
 20
-8774.871
 30
-1114.000
 70
    32
  0
VERTEX
  8
6350LEVEL
 62
7
 10
7058.310
 20
-8731.250
 30
-1114.000
 70
    32
  0
VERTEX
  8
6350LEVEL
 62
7
 10
7060.868
 20
-8713.282
 30
-1114.000
 70
    32
  0
VERTEX
  8
6350LEVEL
 62
7
 10
7056.559
 20
-8723.410
 30
-1114.000
 70
    32
  0
VERTEX
  8
6350LEVEL
 62
7
 10
7050.881
 20
-8713.720
 30
-1114.000
 70
    32
  0
VERTEX
  8
6350LEVEL
 62
7
 10
7045.151
 20
-8735.452
 30
-1114.000
 70
    32
  0
VERTEX
  8
6350LEVEL
 62
7
 10
7036.901
 20
-8735.035
 30
-1114.000
 70
    32
  0
VERTEX
  8
6350LEVEL
 62
7
 10
7033.442
 20
-8749.444
 30
-1114.000
 70
    32
  0
VERTEX
  8
6350LEVEL
 62
7
 10
7046.928
 20
-8802.780
 30
-1114.000
 70
    32
  0
VERTEX
  8
6350LEVEL
 62
7
 10
7056.962
 20
-8857.955
 30
-1114.000
 70
    32
  0
VERTEX
  8
6350LEVEL
 62
7
 10
7059.553
 20
-8876.277
 30
-1114.000
 70
    32
  0
VERTEX
  8
6350LEVEL
 62
7
 10
7046.282
 20
-8865.829
 30
-1114.000
 70
    32
  0
VERTEX
  8
6350LEVEL
 62
7
 10
7016.002
 20
-8825.296
 30
-1114.000
 70
    32
  0
VERTEX
  8
6350LEVEL
 62
7
 10
7014.917
 20
-8784.512
 30
-1114.000
 70
    32
  0
VERTEX
  8
6350LEVEL
 62
7
 10
7007.522
 20
-8768.212
 30
-1114.000
 70
    32
  0
VERTEX
  8
6350LEVEL
 62
7
 10
6998.275
 20
-8749.759
 30
-1114.000
 70
    32
  0
VERTEX
  8
6350LEVEL
 62
7
 10
6977.373
 20
-8790.110
 30
-1114.000
 70
    32
  0
VERTEX
  8
6350LEVEL
 62
7
 10
6968.342
 20
-8822.923
 30
-1114.000
 70
    32
  0
VERTEX
  8
6350LEVEL
 62
7
 10
6981.814
 20
-8786.877
 30
-1114.000
 70
    32
  0
VERTEX
  8
6350LEVEL
 62
7
 10
6997.376
 20
-8756.414
 30
-1114.000
 70
    32
  0
VERTEX
  8
6350LEVEL
 62
7
 10
7005.896
 20
-8769.457
 30
-1114.000
 70
    32
  0
VERTEX
  8
6350LEVEL
 62
7
 10
7009.280
 20
-8774.321
 30
-1114.000
 70
    32
  0
VERTEX
  8
6350LEVEL
 62
7
 10
7003.505
 20
-8771.181
 30
-1114.000
 70
    32
  0
VERTEX
  8
6350LEVEL
 62
7
 10
6997.447
 20
-8765.523
 30
-1114.000
 70
    32
  0
VERTEX
  8
6350LEVEL
 62
7
 10
6987.628
 20
-8782.767
 30
-1114.000
 70
    32
  0
VERTEX
  8
6350LEVEL
 62
7
 10
6982.907
 20
-8796.470
 30
-1114.000
 70
    32
  0
VERTEX
  8
6350LEVEL
 62
7
 10
6980.549
 20
-8849.630
 30
-1114.000
 70
    32
  0
VERTEX
  8
6350LEVEL
 62
7
 10
7007.730
 20
-8882.244
 30
-1114.000
 70
    32
  0
VERTEX
  8
6350LEVEL
 62
7
 10
7012.782
 20
-8898.326
 30
-1114.000
 70
    32
  0
VERTEX
  8
6350LEVEL
 62
7
 10
7035.840
 20
-8979.204
 30
-1114.000
 70
    32
  0
VERTEX
  8
6350LEVEL
 62
7
 10
7031.582
 20
-8982.156
 30
-1114.000
 70
    32
  0
VERTEX
  8
6350LEVEL
 62
7
 10
7008.742
 20
-8889.680
 30
-1114.000
 70
    32
  0
VERTEX
  8
6350LEVEL
 62
7
 10
6990.172
 20
-8864.163
 30
-1114.000
 70
    32
  0
VERTEX
  8
6350LEVEL
 62
7
 10
6978.692
 20
-8851.320
 30
-1114.000
 70
    32
  0
VERTEX
  8
6350LEVEL
 62
7
 10
6973.089
 20
-8839.989
 30
-1114.000
 70
    32
  0
VERTEX
  8
6350LEVEL
 62
7
 10
6968.896
 20
-8858.518
 30
-1114.000
 70
    32
  0
VERTEX
  8
6350LEVEL
 62
7
 10
6960.786
 20
-8880.597
 30
-1114.000
 70
    32
  0
VERTEX
  8
6350LEVEL
 62
7
 10
6934.793
 20
-8883.076
 30
-1114.000
 70
    32
  0
VERTEX
  8
6350LEVEL
 62
7
 10
6881.204
 20
-8859.268
 30
-1114.000
 70
    32
  0
VERTEX
  8
6350LEVEL
 62
7
 10
6843.431
 20
-8848.687
 30
-1114.000
 70
    32
  0
VERTEX
  8
6350LEVEL
 62
7
 10
6825.661
 20
-8863.658
 30
-1114.000
 70
    32
  0
VERTEX
  8
6350LEVEL
 62
7
 10
6823.969
 20
-8901.017
 30
-1114.000
 70
    32
  0
VERTEX
  8
6350LEVEL
 62
7
 10
6827.450
 20
-8913.796
 30
-1114.000
 70
    32
  0
SEQEND
  8
6350LEVEL
  0
POLYLINE
  8
6350LEVEL
 62
13
 66
     1
 70
     8
  0
VERTEX
  8
6350LEVEL
 62
13
 10
7096.542
 20
-8149.096
 30
-1114.000
 70
    32
  0
VERTEX
  8
6350LEVEL
 62
13
 10
7108.567
 20
-8174.286
 30
-1114.000
 70
    32
  0
VERTEX
  8
6350LEVEL
 62
13
 10
7117.237
 20
-8186.881
 30
-1114.000
 70
    32
  0
VERTEX
  8
6350LEVEL
 62
13
 10
7141.288
 20
-8232.503
 30
-1114.000
 70
    32
  0
VERTEX
  8
6350LEVEL
 62
13
 10
7156.110
 20
-8264.410
 30
-1114.000
 70
    32
  0
VERTEX
  8
6350LEVEL
 62
13
 10
7139.610
 20
-8260.772
 30
-1114.000
 70
    32
  0
VERTEX
  8
6350LEVEL
 62
13
 10
7118.636
 20
-8260.491
 30
-1114.000
 70
    32
  0
VERTEX
  8
6350LEVEL
 62
13
 10
7106.890
 20
-8275.885
 30
-1114.000
 70
    32
  0
VERTEX
  8
6350LEVEL
 62
13
 10
7045.673
 20
-8355.830
 30
-1114.000
 70
    32
  0
VERTEX
  8
6350LEVEL
 62
13
 10
7046.890
 20
-8378.319
 30
-1114.000
 70
    32
  0
VERTEX
  8
6350LEVEL
 62
13
 10
7093.192
 20
-8379.572
 30
-1114.000
 70
    32
  0
VERTEX
  8
6350LEVEL
 62
13
 10
7168.458
 20
-8357.605
 30
-1114.000
 70
    32
  0
VERTEX
  8
6350LEVEL
 62
13
 10
7148.594
 20
-8338.937
 30
-1114.000
 70
    32
  0
VERTEX
  8
6350LEVEL
 62
13
 10
7086.411
 20
-8332.965
 30
-1114.000
 70
    32
  0
VERTEX
  8
6350LEVEL
 62
13
 10
7090.304
 20
-8314.923
 30
-1114.000
 70
    32
  0
VERTEX
  8
6350LEVEL
 62
13
 10
7118.996
 20
-8278.228
 30
-1114.000
 70
    32
  0
VERTEX
  8
6350LEVEL
 62
13
 10
7139.610
 20
-8278.964
 30
-1114.000
 70
    32
  0
VERTEX
  8
6350LEVEL
 62
13
 10
7151.916
 20
-8288.201
 30
-1114.000
 70
    32
  0
VERTEX
  8
6350LEVEL
 62
13
 10
7163.662
 20
-8296.037
 30
-1114.000
 70
    32
  0
VERTEX
  8
6350LEVEL
 62
13
 10
7174.848
 20
-8302.475
 30
-1114.000
 70
    32
  0
VERTEX
  8
6350LEVEL
 62
13
 10
7169.814
 20
-8275.046
 30
-1114.000
 70
    32
  0
VERTEX
  8
6350LEVEL
 62
13
 10
7147.161
 20
-8227.465
 30
-1114.000
 70
    32
  0
VERTEX
  8
6350LEVEL
 62
13
 10
7144.085
 20
-8205.913
 30
-1114.000
 70
    32
  0
VERTEX
  8
6350LEVEL
 62
13
 10
7156.110
 20
-8221.867
 30
-1114.000
 70
    32
  0
VERTEX
  8
6350LEVEL
 62
13
 10
7176.806
 20
-8269.728
 30
-1114.000
 70
    32
  0
VERTEX
  8
6350LEVEL
 62
13
 10
7190.471
 20
-8302.315
 30
-1114.000
 70
    32
  0
VERTEX
  8
6350LEVEL
 62
13
 10
7207.484
 20
-8377.064
 30
-1114.000
 70
    32
  0
VERTEX
  8
6350LEVEL
 62
13
 10
7243.764
 20
-8422.557
 30
-1114.000
 70
    32
  0
VERTEX
  8
6350LEVEL
 62
13
 10
7244.164
 20
-8438.902
 30
-1114.000
 70
    32
  0
VERTEX
  8
6350LEVEL
 62
13
 10
7220.830
 20
-8471.376
 30
-1114.000
 70
    32
  0
VERTEX
  8
6350LEVEL
 62
13
 10
7218.788
 20
-8509.157
 30
-1114.000
 70
    32
  0
VERTEX
  8
6350LEVEL
 62
13
 10
7208.654
 20
-8527.415
 30
-1114.000
 70
    32
  0
VERTEX
  8
6350LEVEL
 62
13
 10
7195.488
 20
-8519.381
 30
-1114.000
 70
    32
  0
VERTEX
  8
6350LEVEL
 62
13
 10
7178.747
 20
-8522.021
 30
-1114.000
 70
    32
  0
VERTEX
  8
6350LEVEL
 62
13
 10
7158.646
 20
-8498.474
 30
-1114.000
 70
    32
  0
VERTEX
  8
6350LEVEL
 62
13
 10
7106.863
 20
-8479.440
 30
-1114.000
 70
    32
  0
VERTEX
  8
6350LEVEL
 62
13
 10
7104.060
 20
-8472.044
 30
-1114.000
 70
    32
  0
VERTEX
  8
6350LEVEL
 62
13
 10
7120.090
 20
-8449.377
 30
-1114.000
 70
    32
  0
VERTEX
  8
6350LEVEL
 62
13
 10
7105.462
 20
-8419.909
 30
-1114.000
 70
    32
  0
VERTEX
  8
6350LEVEL
 62
13
 10
7052.876
 20
-8399.303
 30
-1114.000
 70
    32
  0
VERTEX
  8
6350LEVEL
 62
13
 10
7068.805
 20
-8421.833
 30
-1114.000
 70
    32
  0
VERTEX
  8
6350LEVEL
 62
13
 10
7096.312
 20
-8436.644
 30
-1114.000
 70
    32
  0
VERTEX
  8
6350LEVEL
 62
13
 10
7096.284
 20
-8455.186
 30
-1114.000
 70
    32
  0
VERTEX
  8
6350LEVEL
 62
13
 10
7080.162
 20
-8477.447
 30
-1114.000
 70
    32
  0
VERTEX
  8
6350LEVEL
 62
13
 10
7068.163
 20
-8514.500
 30
-1114.000
 70
    32
  0
VERTEX
  8
6350LEVEL
 62
13
 10
7088.349
 20
-8524.044
 30
-1114.000
 70
    32
  0
VERTEX
  8
6350LEVEL
 62
13
 10
7141.573
 20
-8520.818
 30
-1114.000
 70
    32
  0
VERTEX
  8
6350LEVEL
 62
13
 10
7149.391
 20
-8547.209
 30
-1114.000
 70
    32
  0
VERTEX
  8
6350LEVEL
 62
13
 10
7124.876
 20
-8568.483
 30
-1114.000
 70
    32
  0
VERTEX
  8
6350LEVEL
 62
13
 10
7081.680
 20
-8643.979
 30
-1114.000
 70
    32
  0
VERTEX
  8
6350LEVEL
 62
13
 10
7059.689
 20
-8655.543
 30
-1114.000
 70
    32
  0
VERTEX
  8
6350LEVEL
 62
13
 10
7052.386
 20
-8672.158
 30
-1114.000
 70
    32
  0
VERTEX
  8
6350LEVEL
 62
13
 10
7058.087
 20
-8689.100
 30
-1114.000
 70
    32
  0
VERTEX
  8
6350LEVEL
 62
13
 10
7051.371
 20
-8705.013
 30
-1114.000
 70
    32
  0
VERTEX
  8
6350LEVEL
 62
13
 10
7042.803
 20
-8706.107
 30
-1114.000
 70
    32
  0
VERTEX
  8
6350LEVEL
 62
13
 10
7038.232
 20
-8727.672
 30
-1114.000
 70
    32
  0
VERTEX
  8
6350LEVEL
 62
13
 10
7032.056
 20
-8723.798
 30
-1114.000
 70
    32
  0
VERTEX
  8
6350LEVEL
 62
13
 10
7031.051
 20
-8751.072
 30
-1114.000
 70
    32
  0
VERTEX
  8
6350LEVEL
 62
13
 10
7037.416
 20
-8781.267
 30
-1114.000
 70
    32
  0
VERTEX
  8
6350LEVEL
 62
13
 10
7022.921
 20
-8757.105
 30
-1114.000
 70
    32
  0
VERTEX
  8
6350LEVEL
 62
13
 10
7018.617
 20
-8748.008
 30
-1114.000
 70
    32
  0
VERTEX
  8
6350LEVEL
 62
13
 10
7015.652
 20
-8746.859
 30
-1114.000
 70
    32
  0
VERTEX
  8
6350LEVEL
 62
13
 10
7020.626
 20
-8758.732
 30
-1114.000
 70
    32
  0
VERTEX
  8
6350LEVEL
 62
13
 10
7038.850
 20
-8808.604
 30
-1114.000
 70
    32
  0
VERTEX
  8
6350LEVEL
 62
13
 10
7045.325
 20
-8829.615
 30
-1114.000
 70
    32
  0
VERTEX
  8
6350LEVEL
 62
13
 10
7033.126
 20
-8812.902
 30
-1114.000
 70
    32
  0
VERTEX
  8
6350LEVEL
 62
13
 10
7012.400
 20
-8764.669
 30
-1114.000
 70
    32
  0
VERTEX
  8
6350LEVEL
 62
13
 10
7005.807
 20
-8751.043
 30
-1114.000
 70
    32
  0
VERTEX
  8
6350LEVEL
 62
13
 10
6981.695
 20
-8728.652
 30
-1114.000
 70
    32
  0
VERTEX
  8
6350LEVEL
 62
13
 10
6965.033
 20
-8760.667
 30
-1114.000
 70
    32
  0
VERTEX
  8
6350LEVEL
 62
13
 10
6958.000
 20
-8803.845
 30
-1114.000
 70
    32
  0
VERTEX
  8
6350LEVEL
 62
13
 10
6957.082
 20
-8810.088
 30
-1114.000
 70
    32
  0
VERTEX
  8
6350LEVEL
 62
13
 10
6956.143
 20
-8805.113
 30
-1114.000
 70
    32
  0
VERTEX
  8
6350LEVEL
 62
13
 10
6954.887
 20
-8802.314
 30
-1114.000
 70
    32
  0
VERTEX
  8
6350LEVEL
 62
13
 10
6955.467
 20
-8805.535
 30
-1114.000
 70
    32
  0
VERTEX
  8
6350LEVEL
 62
13
 10
6951.605
 20
-8830.357
 30
-1114.000
 70
    32
  0
VERTEX
  8
6350LEVEL
 62
13
 10
6950.710
 20
-8837.885
 30
-1114.000
 70
    32
  0
VERTEX
  8
6350LEVEL
 62
13
 10
6946.278
 20
-8851.109
 30
-1114.000
 70
    32
  0
VERTEX
  8
6350LEVEL
 62
13
 10
6914.801
 20
-8834.957
 30
-1114.000
 70
    32
  0
VERTEX
  8
6350LEVEL
 62
13
 10
6850.008
 20
-8827.483
 30
-1114.000
 70
    32
  0
VERTEX
  8
6350LEVEL
 62
13
 10
6817.333
 20
-8849.307
 30
-1114.000
 70
    32
  0
VERTEX
  8
6350LEVEL
 62
13
 10
6813.211
 20
-8876.302
 30
-1114.000
 70
    32
  0
VERTEX
  8
6350LEVEL
 62
13
 10
6817.333
 20
-8905.172
 30
-1114.000
 70
    32
  0
VERTEX
  8
6350LEVEL
 62
13
 10
6826.702
 20
-8913.045
 30
-1114.000
 70
    32
  0
SEQEND
  8
6350LEVEL
  0
POLYLINE
  8
6350LEVEL
 62
2
 66
     1
 70
     8
  0
VERTEX
  8
6350LEVEL
 62
2
 10
1182.145
 20
-5406.109
 30
-1114.000
 70
    32
  0
VERTEX
  8
6350LEVEL
 62
2
 10
1204.300
 20
-5534.818
 30
-1114.000
 70
    32
  0
VERTEX
  8
6350LEVEL
 62
2
 10
1227.695
 20
-5653.260
 30
-1114.000
 70
    32
  0
VERTEX
  8
6350LEVEL
 62
2
 10
1270.020
 20
-5764.057
 30
-1114.000
 70
    32
  0
VERTEX
  8
6350LEVEL
 62
2
 10
1313.136
 20
-5859.999
 30
-1114.000
 70
    32
  0
VERTEX
  8
6350LEVEL
 62
2
 10
1416.824
 20
-6172.269
 30
-1114.000
 70
    32
  0
VERTEX
  8
6350LEVEL
 62
2
 10
1438.265
 20
-6286.748
 30
-1114.000
 70
    32
  0
VERTEX
  8
6350LEVEL
 62
2
 10
1455.560
 20
-6392.986
 30
-1114.000
 70
    32
  0
VERTEX
  8
6350LEVEL
 62
2
 10
1474.268
 20
-6501.127
 30
-1114.000
 70
    32
  0
VERTEX
  8
6350LEVEL
 62
2
 10
1489.888
 20
-6580.563
 30
-1114.000
 70
    32
  0
SEQEND
  8
6350LEVEL
  0
POLYLINE
  8
6350LEVEL
 62
8
 66
     1
 70
     8
  0
VERTEX
  8
6350LEVEL
 62
8
 10
4744.999
 20
-4851.827
 30
-1114.000
 70
    32
  0
VERTEX
  8
6350LEVEL
 62
8
 10
4477.269
 20
-4457.614
 30
-1114.000
 70
    32
  0
VERTEX
  8
6350LEVEL
 62
8
 10
4322.585
 20
-4249.788
 30
-1114.000
 70
    32
  0
VERTEX
  8
6350LEVEL
 62
8
 10
4160.823
 20
-3956.626
 30
-1114.000
 70
    32
  0
VERTEX
  8
6350LEVEL
 62
8
 10
4060.848
 20
-3783.842
 30
-1114.000
 70
    32
  0
SEQEND
  8
6350LEVEL
  0
POLYLINE
  8
6350LEVEL
 62
8
 66
     1
 70
     8
  0
VERTEX
  8
6350LEVEL
 62
8
 10
3088.323
 20
-3794.023
 30
-1114.000
 70
    32
  0
VERTEX
  8
6350LEVEL
 62
8
 10
3264.530
 20
-4185.096
 30
-1114.000
 70
    32
  0
VERTEX
  8
6350LEVEL
 62
8
 10
3527.614
 20
-4673.237
 30
-1114.000
 70
    32
  0
VERTEX
  8
6350LEVEL
 62
8
 10
3743.198
 20
-5047.862
 30
-1114.000
 70
    32
  0
VERTEX
  8
6350LEVEL
 62
8
 10
3858.246
 20
-5252.814
 30
-1114.000
 70
    32
  0
SEQEND
  8
6350LEVEL
  0
POLYLINE
  8
6350LEVEL
 62
8
 66
     1
 70
     8
  0
VERTEX
  8
6350LEVEL
 62
8
 10
2773.011
 20
-3799.731
 30
-1114.000
 70
    32
  0
VERTEX
  8
6350LEVEL
 62
8
 10
2870.566
 20
-3959.228
 30
-1114.000
 70
    32
  0
VERTEX
  8
6350LEVEL
 62
8
 10
3001.507
 20
-4212.560
 30
-1114.000
 70
    32
  0
VERTEX
  8
6350LEVEL
 62
8
 10
3182.943
 20
-4485.717
 30
-1114.000
 70
    32
  0
VERTEX
  8
6350LEVEL
 62
8
 10
3453.834
 20
-4921.727
 30
-1114.000
 70
    32
  0
VERTEX
  8
6350LEVEL
 62
8
 10
3711.668
 20
-5394.464
 30
-1114.000
 70
    32
  0
SEQEND
  8
6350LEVEL
  0
POLYLINE
  8
6350LEVEL
 62
8
 66
     1
 70
     8
  0
VERTEX
  8
6350LEVEL
 62
8
 10
1939.674
 20
-3792.213
 30
-1114.000
 70
    32
  0
VERTEX
  8
6350LEVEL
 62
8
 10
2212.063
 20
-4142.829
 30
-1114.000
 70
    32
  0
VERTEX
  8
6350LEVEL
 62
8
 10
2498.818
 20
-4642.204
 30
-1114.000
 70
    32
  0
VERTEX
  8
6350LEVEL
 62
8
 10
3000.330
 20
-5378.456
 30
-1114.000
 70
    32
  0
VERTEX
  8
6350LEVEL
 62
8
 10
3045.165
 20
-5471.145
 30
-1114.000
 70
    32
  0
SEQEND
  8
6350LEVEL
  0
POLYLINE
  8
6350LEVEL
 62
13
 66
     1
 70
     9
  0
VERTEX
  8
6350LEVEL
 62
13
 10
1716.463
 20
-4278.210
 30
-1114.000
 70
    32
  0
VERTEX
  8
6350LEVEL
 62
13
 10
1768.010
 20
-4348.554
 30
-1114.000
 70
    32
  0
VERTEX
  8
6350LEVEL
 62
13
 10
1783.399
 20
-4370.072
 30
-1114.000
 70
    32
  0
VERTEX
  8
6350LEVEL
 62
13
 10
1927.669
 20
-4617.779
 30
-1114.000
 70
    32
  0
VERTEX
  8
6350LEVEL
 62
13
 10
2042.969
 20
-4797.613
 30
-1114.000
 70
    32
  0
VERTEX
  8
6350LEVEL
 62
13
 10
2070.492
 20
-4837.919
 30
-1114.000
 70
    32
  0
VERTEX
  8
6350LEVEL
 62
13
 10
2161.898
 20
-4978.102
 30
-1114.000
 70
    32
  0
VERTEX
  8
6350LEVEL
 62
13
 10
2325.432
 20
-5216.973
 30
-1114.000
 70
    32
  0
VERTEX
  8
6350LEVEL
 62
13
 10
2405.690
 20
-5335.869
 30
-1114.000
 70
    32
  0
VERTEX
  8
6350LEVEL
 62
13
 10
2435.108
 20
-5383.477
 30
-1114.000
 70
    32
  0
VERTEX
  8
6350LEVEL
 62
13
 10
2404.675
 20
-5353.354
 30
-1114.000
 70
    32
  0
VERTEX
  8
6350LEVEL
 62
13
 10
2264.459
 20
-5145.463
 30
-1114.000
 70
    32
  0
VERTEX
  8
6350LEVEL
 62
13
 10
2115.406
 20
-4918.309
 30
-1114.000
 70
    32
  0
VERTEX
  8
6350LEVEL
 62
13
 10
2063.658
 20
-4837.221
 30
-1114.000
 70
    32
  0
VERTEX
  8
6350LEVEL
 62
13
 10
2021.451
 20
-4774.453
 30
-1114.000
 70
    32
  0
VERTEX
  8
6350LEVEL
 62
13
 10
1857.370
 20
-4511.925
 30
-1114.000
 70
    32
  0
VERTEX
  8
6350LEVEL
 62
13
 10
1765.345
 20
-4366.276
 30
-1114.000
 70
    32
  0
SEQEND
  8
6350LEVEL
  0
POLYLINE
  8
6350LEVEL
 62
13
 66
     1
 70
     9
  0
VERTEX
  8
6350LEVEL
 62
13
 10
1680.800
 20
-5219.971
 30
-1114.000
 70
    32
  0
VERTEX
  8
6350LEVEL
 62
13
 10
1692.308
 20
-5227.402
 30
-1114.000
 70
    32
  0
VERTEX
  8
6350LEVEL
 62
13
 10
1739.138
 20
-5294.217
 30
-1114.000
 70
    32
  0
VERTEX
  8
6350LEVEL
 62
13
 10
1765.444
 20
-5341.264
 30
-1114.000
 70
    32
  0
VERTEX
  8
6350LEVEL
 62
13
 10
1778.630
 20
-5372.021
 30
-1114.000
 70
    32
  0
VERTEX
  8
6350LEVEL
 62
13
 10
1747.707
 20
-5326.818
 30
-1114.000
 70
    32
  0
VERTEX
  8
6350LEVEL
 62
13
 10
1719.241
 20
-5285.806
 30
-1114.000
 70
    32
  0
VERTEX
  8
6350LEVEL
 62
13
 10
1699.459
 20
-5255.999
 30
-1114.000
 70
    32
  0
SEQEND
  8
6350LEVEL
  0
POLYLINE
  8
6350LEVEL
 62
13
 66
     1
 70
     9
  0
VERTEX
  8
6350LEVEL
 62
13
 10
1322.616
 20
-4692.171
 30
-1114.000
 70
    32
  0
VERTEX
  8
6350LEVEL
 62
13
 10
1358.060
 20
-4736.049
 30
-1114.000
 70
    32
  0
VERTEX
  8
6350LEVEL
 62
13
 10
1399.705
 20
-4801.928
 30
-1114.000
 70
    32
  0
VERTEX
  8
6350LEVEL
 62
13
 10
1429.872
 20
-4845.388
 30
-1114.000
 70
    32
  0
VERTEX
  8
6350LEVEL
 62
13
 10
1469.047
 20
-4895.294
 30
-1114.000
 70
    32
  0
VERTEX
  8
6350LEVEL
 62
13
 10
1507.401
 20
-4967.539
 30
-1114.000
 70
    32
  0
VERTEX
  8
6350LEVEL
 62
13
 10
1541.067
 20
-5021.269
 30
-1114.000
 70
    32
  0
VERTEX
  8
6350LEVEL
 62
13
 10
1563.001
 20
-5077.699
 30
-1114.000
 70
    32
  0
VERTEX
  8
6350LEVEL
 62
13
 10
1517.295
 20
-5004.662
 30
-1114.000
 70
    32
  0
VERTEX
  8
6350LEVEL
 62
13
 10
1483.370
 20
-4931.611
 30
-1114.000
 70
    32
  0
VERTEX
  8
6350LEVEL
 62
13
 10
1439.370
 20
-4866.913
 30
-1114.000
 70
    32
  0
VERTEX
  8
6350LEVEL
 62
13
 10
1404.437
 20
-4817.238
 30
-1114.000
 70
    32
  0
VERTEX
  8
6350LEVEL
 62
13
 10
1372.283
 20
-4766.994
 30
-1114.000
 70
    32
  0
SEQEND
  8
6350LEVEL
  0
POLYLINE
  8
6350LEVEL
 62
13
 66
     1
 70
     9
  0
VERTEX
  8
6350LEVEL
 62
13
 10
1385.698
 20
-4093.737
 30
-1114.000
 70
    32
  0
VERTEX
  8
6350LEVEL
 62
13
 10
1329.485
 20
-3984.001
 30
-1114.000
 70
    32
  0
VERTEX
  8
6350LEVEL
 62
13
 10
1241.342
 20
-3813.890
 30
-1114.000
 70
    32
  0
VERTEX
  8
6350LEVEL
 62
13
 10
1130.147
 20
-3599.460
 30
-1114.000
 70
    32
  0
VERTEX
  8
6350LEVEL
 62
13
 10
1080.775
 20
-3496.315
 30
-1114.000
 70
    32
  0
VERTEX
  8
6350LEVEL
 62
13
 10
1061.166
 20
-3453.689
 30
-1114.000
 70
    32
  0
VERTEX
  8
6350LEVEL
 62
13
 10
1050.789
 20
-3445.926
 30
-1114.000
 70
    32
  0
VERTEX
  8
6350LEVEL
 62
13
 10
1054.159
 20
-3465.809
 30
-1114.000
 70
    32
  0
VERTEX
  8
6350LEVEL
 62
13
 10
1070.571
 20
-3514.282
 30
-1114.000
 70
    32
  0
VERTEX
  8
6350LEVEL
 62
13
 10
1098.440
 20
-3567.500
 30
-1114.000
 70
    32
  0
VERTEX
  8
6350LEVEL
 62
13
 10
1124.422
 20
-3619.307
 30
-1114.000
 70
    32
  0
VERTEX
  8
6350LEVEL
 62
13
 10
1134.302
 20
-3644.649
 30
-1114.000
 70
    32
  0
VERTEX
  8
6350LEVEL
 62
13
 10
1134.129
 20
-3657.468
 30
-1114.000
 70
    32
  0
VERTEX
  8
6350LEVEL
 62
13
 10
1130.975
 20
-3660.110
 30
-1114.000
 70
    32
  0
VERTEX
  8
6350LEVEL
 62
13
 10
1115.866
 20
-3637.037
 30
-1114.000
 70
    32
  0
VERTEX
  8
6350LEVEL
 62
13
 10
1071.319
 20
-3548.683
 30
-1114.000
 70
    32
  0
VERTEX
  8
6350LEVEL
 62
13
 10
1014.739
 20
-3408.363
 30
-1114.000
 70
    32
  0
VERTEX
  8
6350LEVEL
 62
13
 10
946.846
 20
-3265.466
 30
-1114.000
 70
    32
  0
VERTEX
  8
6350LEVEL
 62
13
 10
827.975
 20
-3016.455
 30
-1114.000
 70
    32
  0
VERTEX
  8
6350LEVEL
 62
13
 10
641.880
 20
-2632.699
 30
-1114.000
 70
    32
  0
VERTEX
  8
6350LEVEL
 62
13
 10
470.872
 20
-2292.893
 30
-1114.000
 70
    32
  0
VERTEX
  8
6350LEVEL
 62
13
 10
327.207
 20
-2000.322
 30
-1114.000
 70
    32
  0
VERTEX
  8
6350LEVEL
 62
13
 10
210.648
 20
-1753.335
 30
-1114.000
 70
    32
  0
VERTEX
  8
6350LEVEL
 62
13
 10
112.985
 20
-1544.026
 30
-1114.000
 70
    32
  0
VERTEX
  8
6350LEVEL
 62
13
 10
-3.431
 20
-1299.207
 30
-1114.000
 70
    32
  0
VERTEX
  8
6350LEVEL
 62
13
 10
-83.861
 20
-1116.032
 30
-1114.000
 70
    32
  0
VERTEX
  8
6350LEVEL
 62
13
 10
-151.812
 20
-964.557
 30
-1114.000
 70
    32
  0
VERTEX
  8
6350LEVEL
 62
13
 10
-218.452
 20
-805.824
 30
-1114.000
 70
    32
  0
VERTEX
  8
6350LEVEL
 62
13
 10
-263.906
 20
-707.668
 30
-1114.000
 70
    32
  0
VERTEX
  8
6350LEVEL
 62
13
 10
-284.948
 20
-649.258
 30
-1114.000
 70
    32
  0
VERTEX
  8
6350LEVEL
 62
13
 10
-297.817
 20
-607.850
 30
-1114.000
 70
    32
  0
VERTEX
  8
6350LEVEL
 62
13
 10
-308.071
 20
-584.582
 30
-1114.000
 70
    32
  0
VERTEX
  8
6350LEVEL
 62
13
 10
-308.518
 20
-566.298
 30
-1114.000
 70
    32
  0
VERTEX
  8
6350LEVEL
 62
13
 10
-299.350
 20
-586.692
 30
-1114.000
 70
    32
  0
VERTEX
  8
6350LEVEL
 62
13
 10
-280.318
 20
-620.647
 30
-1114.000
 70
    32
  0
VERTEX
  8
6350LEVEL
 62
13
 10
-273.873
 20
-650.187
 30
-1114.000
 70
    32
  0
VERTEX
  8
6350LEVEL
 62
13
 10
-262.113
 20
-671.049
 30
-1114.000
 70
    32
  0
VERTEX
  8
6350LEVEL
 62
13
 10
-258.707
 20
-681.837
 30
-1114.000
 70
    32
  0
VERTEX
  8
6350LEVEL
 62
13
 10
-255.358
 20
-684.048
 30
-1114.000
 70
    32
  0
VERTEX
  8
6350LEVEL
 62
13
 10
-250.936
 20
-677.351
 30
-1114.000
 70
    32
  0
VERTEX
  8
6350LEVEL
 62
13
 10
-241.539
 20
-693.503
 30
-1114.000
 70
    32
  0
VERTEX
  8
6350LEVEL
 62
13
 10
-200.189
 20
-787.705
 30
-1114.000
 70
    32
  0
VERTEX
  8
6350LEVEL
 62
13
 10
-153.345
 20
-904.850
 30
-1114.000
 70
    32
  0
VERTEX
  8
6350LEVEL
 62
13
 10
-105.904
 20
-1009.789
 30
-1114.000
 70
    32
  0
VERTEX
  8
6350LEVEL
 62
13
 10
-50.562
 20
-1139.177
 30
-1114.000
 70
    32
  0
VERTEX
  8
6350LEVEL
 62
13
 10
12.989
 20
-1276.472
 30
-1114.000
 70
    32
  0
VERTEX
  8
6350LEVEL
 62
13
 10
83.626
 20
-1427.896
 30
-1114.000
 70
    32
  0
VERTEX
  8
6350LEVEL
 62
13
 10
145.413
 20
-1548.275
 30
-1114.000
 70
    32
  0
VERTEX
  8
6350LEVEL
 62
13
 10
169.853
 20
-1611.582
 30
-1114.000
 70
    32
  0
VERTEX
  8
6350LEVEL
 62
13
 10
193.855
 20
-1662.496
 30
-1114.000
 70
    32
  0
VERTEX
  8
6350LEVEL
 62
13
 10
253.417
 20
-1774.442
 30
-1114.000
 70
    32
  0
VERTEX
  8
6350LEVEL
 62
13
 10
329.196
 20
-1930.007
 30
-1114.000
 70
    32
  0
VERTEX
  8
6350LEVEL
 62
13
 10
424.814
 20
-2123.956
 30
-1114.000
 70
    32
  0
VERTEX
  8
6350LEVEL
 62
13
 10
562.747
 20
-2391.935
 30
-1114.000
 70
    32
  0
VERTEX
  8
6350LEVEL
 62
13
 10
645.273
 20
-2554.608
 30
-1114.000
 70
    32
  0
VERTEX
  8
6350LEVEL
 62
13
 10
759.211
 20
-2777.563
 30
-1114.000
 70
    32
  0
VERTEX
  8
6350LEVEL
 62
13
 10
875.101
 20
-3016.398
 30
-1114.000
 70
    32
  0
VERTEX
  8
6350LEVEL
 62
13
 10
1016.152
 20
-3290.830
 30
-1114.000
 70
    32
  0
VERTEX
  8
6350LEVEL
 62
13
 10
1133.647
 20
-3532.632
 30
-1114.000
 70
    32
  0
VERTEX
  8
6350LEVEL
 62
13
 10
1231.584
 20
-3734.494
 30
-1114.000
 70
    32
  0
VERTEX
  8
6350LEVEL
 62
13
 10
1296.914
 20
-3861.938
 30
-1114.000
 70
    32
  0
VERTEX
  8
6350LEVEL
 62
13
 10
1320.354
 20
-3915.963
 30
-1114.000
 70
    32
  0
VERTEX
  8
6350LEVEL
 62
13
 10
1330.177
 20
-3932.728
 30
-1114.000
 70
    32
  0
VERTEX
  8
6350LEVEL
 62
13
 10
1322.543
 20
-3933.491
 30
-1114.000
 70
    32
  0
VERTEX
  8
6350LEVEL
 62
13
 10
1335.736
 20
-3970.139
 30
-1114.000
 70
    32
  0
VERTEX
  8
6350LEVEL
 62
13
 10
1361.862
 20
-4024.113
 30
-1114.000
 70
    32
  0
VERTEX
  8
6350LEVEL
 62
13
 10
1383.084
 20
-4075.596
 30
-1114.000
 70
    32
  0
SEQEND
  8
6350LEVEL
  0
POLYLINE
  8
6350LEVEL
 62
13
 66
     1
 70
     9
  0
VERTEX
  8
6350LEVEL
 62
13
 10
1675.549
 20
-4581.892
 30
-1114.000
 70
    32
  0
VERTEX
  8
6350LEVEL
 62
13
 10
1701.985
 20
-4619.325
 30
-1114.000
 70
    32
  0
VERTEX
  8
6350LEVEL
 62
13
 10
1747.749
 20
-4700.939
 30
-1114.000
 70
    32
  0
VERTEX
  8
6350LEVEL
 62
13
 10
1807.628
 20
-4802.234
 30
-1114.000
 70
    32
  0
VERTEX
  8
6350LEVEL
 62
13
 10
1870.862
 20
-4911.631
 30
-1114.000
 70
    32
  0
VERTEX
  8
6350LEVEL
 62
13
 10
1912.694
 20
-4976.472
 30
-1114.000
 70
    32
  0
VERTEX
  8
6350LEVEL
 62
13
 10
1966.668
 20
-5065.993
 30
-1114.000
 70
    32
  0
VERTEX
  8
6350LEVEL
 62
13
 10
2015.492
 20
-5145.482
 30
-1114.000
 70
    32
  0
VERTEX
  8
6350LEVEL
 62
13
 10
2054.725
 20
-5203.965
 30
-1114.000
 70
    32
  0
VERTEX
  8
6350LEVEL
 62
13
 10
2070.453
 20
-5232.504
 30
-1114.000
 70
    32
  0
VERTEX
  8
6350LEVEL
 62
13
 10
2088.362
 20
-5272.681
 30
-1114.000
 70
    32
  0
VERTEX
  8
6350LEVEL
 62
13
 10
2033.186
 20
-5201.682
 30
-1114.000
 70
    32
  0
VERTEX
  8
6350LEVEL
 62
13
 10
1963.960
 20
-5086.920
 30
-1114.000
 70
    32
  0
VERTEX
  8
6350LEVEL
 62
13
 10
1904.506
 20
-4986.237
 30
-1114.000
 70
    32
  0
VERTEX
  8
6350LEVEL
 62
13
 10
1893.121
 20
-4963.301
 30
-1114.000
 70
    32
  0
VERTEX
  8
6350LEVEL
 62
13
 10
1870.984
 20
-4934.675
 30
-1114.000
 70
    32
  0
VERTEX
  8
6350LEVEL
 62
13
 10
1813.511
 20
-4834.885
 30
-1114.000
 70
    32
  0
VERTEX
  8
6350LEVEL
 62
13
 10
1730.675
 20
-4688.754
 30
-1114.000
 70
    32
  0
VERTEX
  8
6350LEVEL
 62
13
 10
1696.994
 20
-4623.243
 30
-1114.000
 70
    32
  0
VERTEX
  8
6350LEVEL
 62
13
 10
1683.197
 20
-4592.910
 30
-1114.000
 70
    32
  0
SEQEND
  8
6350LEVEL
  0
POLYLINE
  8
6350LEVEL
 62
13
 66
     1
 70
     9
  0
VERTEX
  8
6350LEVEL
 62
13
 10
724.013
 20
-3286.802
 30
-1114.000
 70
    32
  0
VERTEX
  8
6350LEVEL
 62
13
 10
762.576
 20
-3375.681
 30
-1114.000
 70
    32
  0
VERTEX
  8
6350LEVEL
 62
13
 10
830.944
 20
-3560.426
 30
-1114.000
 70
    32
  0
VERTEX
  8
6350LEVEL
 62
13
 10
884.564
 20
-3708.242
 30
-1114.000
 70
    32
  0
VERTEX
  8
6350LEVEL
 62
13
 10
901.070
 20
-3756.196
 30
-1114.000
 70
    32
  0
VERTEX
  8
6350LEVEL
 62
13
 10
900.220
 20
-3793.521
 30
-1114.000
 70
    32
  0
VERTEX
  8
6350LEVEL
 62
13
 10
885.169
 20
-3779.025
 30
-1114.000
 70
    32
  0
VERTEX
  8
6350LEVEL
 62
13
 10
848.810
 20
-3719.454
 30
-1114.000
 70
    32
  0
VERTEX
  8
6350LEVEL
 62
13
 10
808.749
 20
-3638.871
 30
-1114.000
 70
    32
  0
VERTEX
  8
6350LEVEL
 62
13
 10
775.760
 20
-3560.635
 30
-1114.000
 70
    32
  0
VERTEX
  8
6350LEVEL
 62
13
 10
745.400
 20
-3512.320
 30
-1114.000
 70
    32
  0
VERTEX
  8
6350LEVEL
 62
13
 10
733.813
 20
-3478.639
 30
-1114.000
 70
    32
  0
VERTEX
  8
6350LEVEL
 62
13
 10
728.376
 20
-3464.272
 30
-1114.000
 70
    32
  0
VERTEX
  8
6350LEVEL
 62
13
 10
724.862
 20
-3442.222
 30
-1114.000
 70
    32
  0
VERTEX
  8
6350LEVEL
 62
13
 10
740.733
 20
-3472.929
 30
-1114.000
 70
    32
  0
VERTEX
  8
6350LEVEL
 62
13
 10
771.634
 20
-3539.009
 30
-1114.000
 70
    32
  0
VERTEX
  8
6350LEVEL
 62
13
 10
810.269
 20
-3609.698
 30
-1114.000
 70
    32
  0
VERTEX
  8
6350LEVEL
 62
13
 10
828.668
 20
-3626.405
 30
-1114.000
 70
    32
  0
VERTEX
  8
6350LEVEL
 62
13
 10
821.186
 20
-3596.678
 30
-1114.000
 70
    32
  0
VERTEX
  8
6350LEVEL
 62
13
 10
781.508
 20
-3481.362
 30
-1114.000
 70
    32
  0
VERTEX
  8
6350LEVEL
 62
13
 10
754.057
 20
-3384.316
 30
-1114.000
 70
    32
  0
VERTEX
  8
6350LEVEL
 62
13
 10
734.938
 20
-3318.221
 30
-1114.000
 70
    32
  0
VERTEX
  8
6350LEVEL
 62
13
 10
727.088
 20
-3296.459
 30
-1114.000
 70
    32
  0
SEQEND
  8
6350LEVEL
  0
POLYLINE
  8
6350LEVEL
 62
13
 66
     1
 70
     9
  0
VERTEX
  8
6350LEVEL
 62
13
 10
-22.250
 20
-1557.621
 30
-1114.000
 70
    32
  0
VERTEX
  8
6350LEVEL
 62
13
 10
3.199
 20
-1597.553
 30
-1114.000
 70
    32
  0
VERTEX
  8
6350LEVEL
 62
13
 10
75.471
 20
-1775.507
 30
-1114.000
 70
    32
  0
VERTEX
  8
6350LEVEL
 62
13
 10
178.067
 20
-2010.870
 30
-1114.000
 70
    32
  0
VERTEX
  8
6350LEVEL
 62
13
 10
224.695
 20
-2105.490
 30
-1114.000
 70
    32
  0
VERTEX
  8
6350LEVEL
 62
13
 10
299.717
 20
-2259.312
 30
-1114.000
 70
    32
  0
VERTEX
  8
6350LEVEL
 62
13
 10
410.797
 20
-2495.136
 30
-1114.000
 70
    32
  0
VERTEX
  8
6350LEVEL
 62
13
 10
512.421
 20
-2706.231
 30
-1114.000
 70
    32
  0
VERTEX
  8
6350LEVEL
 62
13
 10
549.932
 20
-2783.143
 30
-1114.000
 70
    32
  0
VERTEX
  8
6350LEVEL
 62
13
 10
561.425
 20
-2817.342
 30
-1114.000
 70
    32
  0
VERTEX
  8
6350LEVEL
 62
13
 10
556.204
 20
-2825.501
 30
-1114.000
 70
    32
  0
VERTEX
  8
6350LEVEL
 62
13
 10
522.228
 20
-2749.764
 30
-1114.000
 70
    32
  0
VERTEX
  8
6350LEVEL
 62
13
 10
457.604
 20
-2621.377
 30
-1114.000
 70
    32
  0
VERTEX
  8
6350LEVEL
 62
13
 10
356.686
 20
-2409.339
 30
-1114.000
 70
    32
  0
VERTEX
  8
6350LEVEL
 62
13
 10
268.572
 20
-2224.241
 30
-1114.000
 70
    32
  0
VERTEX
  8
6350LEVEL
 62
13
 10
229.836
 20
-2148.179
 30
-1114.000
 70
    32
  0
VERTEX
  8
6350LEVEL
 62
13
 10
220.669
 20
-2127.785
 30
-1114.000
 70
    32
  0
VERTEX
  8
6350LEVEL
 62
13
 10
212.884
 20
-2120.490
 30
-1114.000
 70
    32
  0
VERTEX
  8
6350LEVEL
 62
13
 10
207.339
 20
-2133.409
 30
-1114.000
 70
    32
  0
VERTEX
  8
6350LEVEL
 62
13
 10
217.406
 20
-2157.714
 30
-1114.000
 70
    32
  0
VERTEX
  8
6350LEVEL
 62
13
 10
261.694
 20
-2265.296
 30
-1114.000
 70
    32
  0
VERTEX
  8
6350LEVEL
 62
13
 10
308.092
 20
-2364.157
 30
-1114.000
 70
    32
  0
VERTEX
  8
6350LEVEL
 62
13
 10
355.857
 20
-2464.336
 30
-1114.000
 70
    32
  0
VERTEX
  8
6350LEVEL
 62
13
 10
394.722
 20
-2569.332
 30
-1114.000
 70
    32
  0
VERTEX
  8
6350LEVEL
 62
13
 10
427.401
 20
-2664.110
 30
-1114.000
 70
    32
  0
VERTEX
  8
6350LEVEL
 62
13
 10
362.612
 20
-2515.883
 30
-1114.000
 70
    32
  0
VERTEX
  8
6350LEVEL
 62
13
 10
273.626
 20
-2311.889
 30
-1114.000
 70
    32
  0
VERTEX
  8
6350LEVEL
 62
13
 10
189.358
 20
-2111.423
 30
-1114.000
 70
    32
  0
VERTEX
  8
6350LEVEL
 62
13
 10
107.724
 20
-1908.221
 30
-1114.000
 70
    32
  0
VERTEX
  8
6350LEVEL
 62
13
 10
12.042
 20
-1661.256
 30
-1114.000
 70
    32
  0
VERTEX
  8
6350LEVEL
 62
13
 10
-16.007
 20
-1614.965
 30
-1114.000
 70
    32
  0
SEQEND
  8
6350LEVEL
  0
POLYLINE
  8
6350LEVEL
 62
13
 66
     1
 70
     9
  0
VERTEX
  8
6350LEVEL
 62
13
 10
2.261
 20
-1795.483
 30
-1114.000
 70
    32
  0
VERTEX
  8
6350LEVEL
 62
13
 10
19.876
 20
-1825.433
 30
-1114.000
 70
    32
  0
VERTEX
  8
6350LEVEL
 62
13
 10
78.573
 20
-1962.923
 30
-1114.000
 70
    32
  0
VERTEX
  8
6350LEVEL
 62
13
 10
196.543
 20
-2246.572
 30
-1114.000
 70
    32
  0
VERTEX
  8
6350LEVEL
 62
13
 10
390.393
 20
-2729.707
 30
-1114.000
 70
    32
  0
VERTEX
  8
6350LEVEL
 62
13
 10
491.297
 20
-2968.513
 30
-1114.000
 70
    32
  0
VERTEX
  8
6350LEVEL
 62
13
 10
537.226
 20
-3069.966
 30
-1114.000
 70
    32
  0
VERTEX
  8
6350LEVEL
 62
13
 10
555.099
 20
-3119.238
 30
-1114.000
 70
    32
  0
VERTEX
  8
6350LEVEL
 62
13
 10
565.851
 20
-3163.476
 30
-1114.000
 70
    32
  0
VERTEX
  8
6350LEVEL
 62
13
 10
521.347
 20
-3071.918
 30
-1114.000
 70
    32
  0
VERTEX
  8
6350LEVEL
 62
13
 10
435.321
 20
-2898.976
 30
-1114.000
 70
    32
  0
VERTEX
  8
6350LEVEL
 62
13
 10
329.182
 20
-2656.547
 30
-1114.000
 70
    32
  0
VERTEX
  8
6350LEVEL
 62
13
 10
227.090
 20
-2409.496
 30
-1114.000
 70
    32
  0
VERTEX
  8
6350LEVEL
 62
13
 10
155.848
 20
-2225.839
 30
-1114.000
 70
    32
  0
VERTEX
  8
6350LEVEL
 62
13
 10
69.146
 20
-2000.305
 30
-1114.000
 70
    32
  0
VERTEX
  8
6350LEVEL
 62
13
 10
17.607
 20
-1858.754
 30
-1114.000
 70
    32
  0
SEQEND
  8
6350LEVEL
  0
POLYLINE
  8
6350LEVEL
 62
7
 66
     1
 70
     8
  0
VERTEX
  8
6350LEVEL
 62
7
 10
2086.993
 20
-9951.117
 30
-1114.000
 70
    32
  0
VERTEX
  8
6350LEVEL
 62
7
 10
2041.056
 20
-9860.840
 30
-1114.000
 70
    32
  0
VERTEX
  8
6350LEVEL
 62
7
 10
2010.432
 20
-9758.639
 30
-1114.000
 70
    32
  0
VERTEX
  8
6350LEVEL
 62
7
 10
1928.766
 20
-9571.270
 30
-1114.000
 70
    32
  0
VERTEX
  8
6350LEVEL
 62
7
 10
1925.363
 20
-9549.127
 30
-1114.000
 70
    32
  0
VERTEX
  8
6350LEVEL
 62
7
 10
1928.766
 20
-9532.093
 30
-1114.000
 70
    32
  0
VERTEX
  8
6350LEVEL
 62
7
 10
1935.572
 20
-9540.610
 30
-1114.000
 70
    32
  0
VERTEX
  8
6350LEVEL
 62
7
 10
1950.884
 20
-9557.643
 30
-1114.000
 70
    32
  0
VERTEX
  8
6350LEVEL
 62
7
 10
1961.092
 20
-9567.863
 30
-1114.000
 70
    32
  0
VERTEX
  8
6350LEVEL
 62
7
 10
1957.689
 20
-9550.830
 30
-1114.000
 70
    32
  0
VERTEX
  8
6350LEVEL
 62
7
 10
1908.350
 20
-9337.911
 30
-1114.000
 70
    32
  0
VERTEX
  8
6350LEVEL
 62
7
 10
1894.739
 20
-9285.108
 30
-1114.000
 70
    32
  0
VERTEX
  8
6350LEVEL
 62
7
 10
1869.218
 20
-9278.294
 30
-1114.000
 70
    32
  0
VERTEX
  8
6350LEVEL
 62
7
 10
1843.697
 20
-9285.108
 30
-1114.000
 70
    32
  0
VERTEX
  8
6350LEVEL
 62
7
 10
1823.281
 20
-9307.251
 30
-1114.000
 70
    32
  0
VERTEX
  8
6350LEVEL
 62
7
 10
1809.670
 20
-9341.318
 30
-1114.000
 70
    32
  0
VERTEX
  8
6350LEVEL
 62
7
 10
1806.267
 20
-9378.792
 30
-1114.000
 70
    32
  0
VERTEX
  8
6350LEVEL
 62
7
 10
1816.476
 20
-9411.156
 30
-1114.000
 70
    32
  0
VERTEX
  8
6350LEVEL
 62
7
 10
1904.947
 20
-9590.007
 30
-1114.000
 70
    32
  0
VERTEX
  8
6350LEVEL
 62
7
 10
1976.404
 20
-9780.782
 30
-1114.000
 70
    32
  0
VERTEX
  8
6350LEVEL
 62
7
 10
2027.446
 20
-9872.763
 30
-1114.000
 70
    32
  0
VERTEX
  8
6350LEVEL
 62
7
 10
2058.070
 20
-9980.074
 30
-1114.000
 70
    32
  0
SEQEND
  8
6350LEVEL
  0
POLYLINE
  8
6350LEVEL
 62
7
 66
     1
 70
     8
  0
VERTEX
  8
6350LEVEL
 62
7
 10
2008.730
 20
-10012.438
 30
-1114.000
 70
    32
  0
VERTEX
  8
6350LEVEL
 62
7
 10
1954.287
 20
-9925.567
 30
-1114.000
 70
    32
  0
VERTEX
  8
6350LEVEL
 62
7
 10
1955.988
 20
-9911.940
 30
-1114.000
 70
    32
  0
VERTEX
  8
6350LEVEL
 62
7
 10
1962.793
 20
-9923.864
 30
-1114.000
 70
    32
  0
VERTEX
  8
6350LEVEL
 62
7
 10
1971.300
 20
-9927.270
 30
-1114.000
 70
    32
  0
VERTEX
  8
6350LEVEL
 62
7
 10
1967.897
 20
-9910.237
 30
-1114.000
 70
    32
  0
VERTEX
  8
6350LEVEL
 62
7
 10
1918.558
 20
-9819.959
 30
-1114.000
 70
    32
  0
VERTEX
  8
6350LEVEL
 62
7
 10
1860.711
 20
-9617.261
 30
-1114.000
 70
    32
  0
VERTEX
  8
6350LEVEL
 62
7
 10
1758.629
 20
-9445.222
 30
-1114.000
 70
    32
  0
VERTEX
  8
6350LEVEL
 62
7
 10
1699.081
 20
-9303.844
 30
-1114.000
 70
    32
  0
VERTEX
  8
6350LEVEL
 62
7
 10
1658.248
 20
-9203.347
 30
-1114.000
 70
    32
  0
SEQEND
  8
6350LEVEL
  0
POLYLINE
  8
6350LEVEL
 62
7
 66
     1
 70
     8
  0
VERTEX
  8
6350LEVEL
 62
7
 10
1991.717
 20
-10020.955
 30
-1114.000
 70
    32
  0
VERTEX
  8
6350LEVEL
 62
7
 10
1938.974
 20
-9928.974
 30
-1114.000
 70
    32
  0
VERTEX
  8
6350LEVEL
 62
7
 10
1913.454
 20
-9825.070
 30
-1114.000
 70
    32
  0
VERTEX
  8
6350LEVEL
 62
7
 10
1860.711
 20
-9618.964
 30
-1114.000
 70
    32
  0
SEQEND
  8
6350LEVEL
  0
POLYLINE
  8
6350LEVEL
 62
7
 66
     1
 70
     8
  0
VERTEX
  8
6350LEVEL
 62
7
 10
2129.528
 20
-9937.490
 30
-1114.000
 70
    32
  0
VERTEX
  8
6350LEVEL
 62
7
 10
2119.320
 20
-9920.457
 30
-1114.000
 70
    32
  0
VERTEX
  8
6350LEVEL
 62
7
 10
2109.111
 20
-9889.797
 30
-1114.000
 70
    32
  0
VERTEX
  8
6350LEVEL
 62
7
 10
2114.215
 20
-9884.686
 30
-1114.000
 70
    32
  0
VERTEX
  8
6350LEVEL
 62
7
 10
2124.424
 20
-9898.313
 30
-1114.000
 70
    32
  0
VERTEX
  8
6350LEVEL
 62
7
 10
2144.840
 20
-9927.270
 30
-1114.000
 70
    32
  0
SEQEND
  8
6350LEVEL
  0
POLYLINE
  8
6350LEVEL
 62
7
 66
     1
 70
     8
  0
VERTEX
  8
6350LEVEL
 62
7
 10
2189.076
 20
-9881.280
 30
-1114.000
 70
    32
  0
VERTEX
  8
6350LEVEL
 62
7
 10
2153.347
 20
-9779.079
 30
-1114.000
 70
    32
  0
VERTEX
  8
6350LEVEL
 62
7
 10
2102.306
 20
-9692.208
 30
-1114.000
 70
    32
  0
VERTEX
  8
6350LEVEL
 62
7
 10
2097.202
 20
-9632.591
 30
-1114.000
 70
    32
  0
VERTEX
  8
6350LEVEL
 62
7
 10
2081.889
 20
-9583.194
 30
-1114.000
 70
    32
  0
VERTEX
  8
6350LEVEL
 62
7
 10
2049.563
 20
-9545.720
 30
-1114.000
 70
    32
  0
VERTEX
  8
6350LEVEL
 62
7
 10
2042.758
 20
-9518.467
 30
-1114.000
 70
    32
  0
VERTEX
  8
6350LEVEL
 62
7
 10
2054.667
 20
-9509.950
 30
-1114.000
 70
    32
  0
VERTEX
  8
6350LEVEL
 62
7
 10
2069.980
 20
-9530.390
 30
-1114.000
 70
    32
  0
VERTEX
  8
6350LEVEL
 62
7
 10
2102.306
 20
-9571.270
 30
-1114.000
 70
    32
  0
VERTEX
  8
6350LEVEL
 62
7
 10
2129.528
 20
-9612.151
 30
-1114.000
 70
    32
  0
VERTEX
  8
6350LEVEL
 62
7
 10
2151.645
 20
-9659.845
 30
-1114.000
 70
    32
  0
VERTEX
  8
6350LEVEL
 62
7
 10
2228.207
 20
-9852.323
 30
-1114.000
 70
    32
  0
SEQEND
  8
6350LEVEL
  0
POLYLINE
  8
6350LEVEL
 62
7
 66
     1
 70
     8
  0
VERTEX
  8
6350LEVEL
 62
7
 10
2231.610
 20
-9745.012
 30
-1114.000
 70
    32
  0
VERTEX
  8
6350LEVEL
 62
7
 10
2185.673
 20
-9632.591
 30
-1114.000
 70
    32
  0
VERTEX
  8
6350LEVEL
 62
7
 10
2160.152
 20
-9591.710
 30
-1114.000
 70
    32
  0
VERTEX
  8
6350LEVEL
 62
7
 10
2132.930
 20
-9547.423
 30
-1114.000
 70
    32
  0
VERTEX
  8
6350LEVEL
 62
7
 10
2083.591
 20
-9516.763
 30
-1114.000
 70
    32
  0
VERTEX
  8
6350LEVEL
 62
7
 10
2061.473
 20
-9474.179
 30
-1114.000
 70
    32
  0
VERTEX
  8
6350LEVEL
 62
7
 10
2044.459
 20
-9460.553
 30
-1114.000
 70
    32
  0
VERTEX
  8
6350LEVEL
 62
7
 10
2032.550
 20
-9465.663
 30
-1114.000
 70
    32
  0
VERTEX
  8
6350LEVEL
 62
7
 10
2029.147
 20
-9475.883
 30
-1114.000
 70
    32
  0
VERTEX
  8
6350LEVEL
 62
7
 10
2005.328
 20
-9452.036
 30
-1114.000
 70
    32
  0
VERTEX
  8
6350LEVEL
 62
7
 10
2010.432
 20
-9426.486
 30
-1114.000
 70
    32
  0
VERTEX
  8
6350LEVEL
 62
7
 10
2020.640
 20
-9416.265
 30
-1114.000
 70
    32
  0
VERTEX
  8
6350LEVEL
 62
7
 10
2018.938
 20
-9383.902
 30
-1114.000
 70
    32
  0
VERTEX
  8
6350LEVEL
 62
7
 10
2000.224
 20
-9336.208
 30
-1114.000
 70
    32
  0
VERTEX
  8
6350LEVEL
 62
7
 10
1974.703
 20
-9291.921
 30
-1114.000
 70
    32
  0
VERTEX
  8
6350LEVEL
 62
7
 10
1952.585
 20
-9244.227
 30
-1114.000
 70
    32
  0
VERTEX
  8
6350LEVEL
 62
7
 10
1950.884
 20
-9232.304
 30
-1114.000
 70
    32
  0
VERTEX
  8
6350LEVEL
 62
7
 10
1954.287
 20
-9232.304
 30
-1114.000
 70
    32
  0
VERTEX
  8
6350LEVEL
 62
7
 10
1966.196
 20
-9240.820
 30
-1114.000
 70
    32
  0
VERTEX
  8
6350LEVEL
 62
7
 10
2000.224
 20
-9274.887
 30
-1114.000
 70
    32
  0
VERTEX
  8
6350LEVEL
 62
7
 10
2078.487
 20
-9337.911
 30
-1114.000
 70
    32
  0
VERTEX
  8
6350LEVEL
 62
7
 10
2112.514
 20
-9378.792
 30
-1114.000
 70
    32
  0
VERTEX
  8
6350LEVEL
 62
7
 10
2129.528
 20
-9426.486
 30
-1114.000
 70
    32
  0
VERTEX
  8
6350LEVEL
 62
7
 10
2127.826
 20
-9455.443
 30
-1114.000
 70
    32
  0
VERTEX
  8
6350LEVEL
 62
7
 10
2134.632
 20
-9491.213
 30
-1114.000
 70
    32
  0
VERTEX
  8
6350LEVEL
 62
7
 10
2151.645
 20
-9538.907
 30
-1114.000
 70
    32
  0
VERTEX
  8
6350LEVEL
 62
7
 10
2185.673
 20
-9576.380
 30
-1114.000
 70
    32
  0
VERTEX
  8
6350LEVEL
 62
7
 10
2211.194
 20
-9617.261
 30
-1114.000
 70
    32
  0
VERTEX
  8
6350LEVEL
 62
7
 10
2263.936
 20
-9746.715
 30
-1114.000
 70
    32
  0
SEQEND
  8
6350LEVEL
  0
POLYLINE
  8
6350LEVEL
 62
7
 66
     1
 70
     8
  0
VERTEX
  8
6350LEVEL
 62
7
 10
2318.380
 20
-9494.620
 30
-1114.000
 70
    32
  0
VERTEX
  8
6350LEVEL
 62
7
 10
2306.470
 20
-9477.586
 30
-1114.000
 70
    32
  0
VERTEX
  8
6350LEVEL
 62
7
 10
2279.248
 20
-9443.519
 30
-1114.000
 70
    32
  0
VERTEX
  8
6350LEVEL
 62
7
 10
2195.881
 20
-9315.768
 30
-1114.000
 70
    32
  0
VERTEX
  8
6350LEVEL
 62
7
 10
2165.257
 20
-9271.481
 30
-1114.000
 70
    32
  0
VERTEX
  8
6350LEVEL
 62
7
 10
2105.708
 20
-9198.237
 30
-1114.000
 70
    32
  0
VERTEX
  8
6350LEVEL
 62
7
 10
2071.681
 20
-9157.356
 30
-1114.000
 70
    32
  0
VERTEX
  8
6350LEVEL
 62
7
 10
2044.459
 20
-9116.476
 30
-1114.000
 70
    32
  0
VERTEX
  8
6350LEVEL
 62
7
 10
2007.029
 20
-9082.409
 30
-1114.000
 70
    32
  0
VERTEX
  8
6350LEVEL
 62
7
 10
1918.558
 20
-8963.175
 30
-1114.000
 70
    32
  0
VERTEX
  8
6350LEVEL
 62
7
 10
1921.960
 20
-8942.734
 30
-1114.000
 70
    32
  0
VERTEX
  8
6350LEVEL
 62
7
 10
1927.065
 20
-8918.888
 30
-1114.000
 70
    32
  0
VERTEX
  8
6350LEVEL
 62
7
 10
1921.960
 20
-8895.041
 30
-1114.000
 70
    32
  0
VERTEX
  8
6350LEVEL
 62
7
 10
1901.544
 20
-8852.457
 30
-1114.000
 70
    32
  0
VERTEX
  8
6350LEVEL
 62
7
 10
1901.544
 20
-8787.730
 30
-1114.000
 70
    32
  0
VERTEX
  8
6350LEVEL
 62
7
 10
1852.204
 20
-8639.538
 30
-1114.000
 70
    32
  0
SEQEND
  8
6350LEVEL
  0
POLYLINE
  8
6350LEVEL
 62
13
 66
     1
 70
     8
  0
VERTEX
  8
6350LEVEL
 62
13
 10
1933.870
 20
-10080.572
 30
-1114.000
 70
    32
  0
VERTEX
  8
6350LEVEL
 62
13
 10
1923.662
 20
-10065.242
 30
-1114.000
 70
    32
  0
VERTEX
  8
6350LEVEL
 62
13
 10
1870.919
 20
-9981.777
 30
-1114.000
 70
    32
  0
VERTEX
  8
6350LEVEL
 62
13
 10
1855.607
 20
-9964.744
 30
-1114.000
 70
    32
  0
VERTEX
  8
6350LEVEL
 62
13
 10
1845.399
 20
-9968.151
 30
-1114.000
 70
    32
  0
VERTEX
  8
6350LEVEL
 62
13
 10
1859.010
 20
-10003.921
 30
-1114.000
 70
    32
  0
VERTEX
  8
6350LEVEL
 62
13
 10
1913.454
 20
-10078.868
 30
-1114.000
 70
    32
  0
VERTEX
  8
6350LEVEL
 62
13
 10
1915.155
 20
-10092.495
 30
-1114.000
 70
    32
  0
VERTEX
  8
6350LEVEL
 62
13
 10
1896.440
 20
-10083.978
 30
-1114.000
 70
    32
  0
VERTEX
  8
6350LEVEL
 62
13
 10
1869.218
 20
-10058.428
 30
-1114.000
 70
    32
  0
SEQEND
  8
6350LEVEL
  0
POLYLINE
  8
6350LEVEL
 62
13
 66
     1
 70
     8
  0
VERTEX
  8
6350LEVEL
 62
13
 10
1852.204
 20
-8637.835
 30
-1114.000
 70
    32
  0
VERTEX
  8
6350LEVEL
 62
13
 10
1891.336
 20
-8724.706
 30
-1114.000
 70
    32
  0
VERTEX
  8
6350LEVEL
 62
13
 10
1903.245
 20
-8791.136
 30
-1114.000
 70
    32
  0
VERTEX
  8
6350LEVEL
 62
13
 10
1910.051
 20
-8843.940
 30
-1114.000
 70
    32
  0
VERTEX
  8
6350LEVEL
 62
13
 10
1935.572
 20
-8888.227
 30
-1114.000
 70
    32
  0
VERTEX
  8
6350LEVEL
 62
13
 10
1937.273
 20
-8908.668
 30
-1114.000
 70
    32
  0
VERTEX
  8
6350LEVEL
 62
13
 10
1930.468
 20
-8934.217
 30
-1114.000
 70
    32
  0
VERTEX
  8
6350LEVEL
 62
13
 10
1920.259
 20
-8961.471
 30
-1114.000
 70
    32
  0
VERTEX
  8
6350LEVEL
 62
13
 10
1962.793
 20
-9005.758
 30
-1114.000
 70
    32
  0
VERTEX
  8
6350LEVEL
 62
13
 10
2022.341
 20
-9072.189
 30
-1114.000
 70
    32
  0
VERTEX
  8
6350LEVEL
 62
13
 10
2064.875
 20
-9104.553
 30
-1114.000
 70
    32
  0
VERTEX
  8
6350LEVEL
 62
13
 10
2098.903
 20
-9142.026
 30
-1114.000
 70
    32
  0
VERTEX
  8
6350LEVEL
 62
13
 10
2121.021
 20
-9143.730
 30
-1114.000
 70
    32
  0
VERTEX
  8
6350LEVEL
 62
13
 10
2141.437
 20
-9138.620
 30
-1114.000
 70
    32
  0
VERTEX
  8
6350LEVEL
 62
13
 10
2170.361
 20
-9148.840
 30
-1114.000
 70
    32
  0
VERTEX
  8
6350LEVEL
 62
13
 10
2243.519
 20
-9206.753
 30
-1114.000
 70
    32
  0
VERTEX
  8
6350LEVEL
 62
13
 10
2282.651
 20
-9245.931
 30
-1114.000
 70
    32
  0
VERTEX
  8
6350LEVEL
 62
13
 10
2309.873
 20
-9295.328
 30
-1114.000
 70
    32
  0
VERTEX
  8
6350LEVEL
 62
13
 10
2299.664
 20
-9353.242
 30
-1114.000
 70
    32
  0
VERTEX
  8
6350LEVEL
 62
13
 10
2292.859
 20
-9409.452
 30
-1114.000
 70
    32
  0
VERTEX
  8
6350LEVEL
 62
13
 10
2296.262
 20
-9438.409
 30
-1114.000
 70
    32
  0
VERTEX
  8
6350LEVEL
 62
13
 10
2316.678
 20
-9479.289
 30
-1114.000
 70
    32
  0
VERTEX
  8
6350LEVEL
 62
13
 10
2468.100
 20
-9685.395
 30
-1114.000
 70
    32
  0
SEQEND
  8
6350LEVEL
  0
POLYLINE
  8
6350LEVEL
 62
13
 66
     1
 70
     8
  0
VERTEX
  8
6350LEVEL
 62
13
 10
2576.988
 20
-9656.438
 30
-1114.000
 70
    32
  0
VERTEX
  8
6350LEVEL
 62
13
 10
2539.558
 20
-9617.261
 30
-1114.000
 70
    32
  0
VERTEX
  8
6350LEVEL
 62
13
 10
2377.928
 20
-9428.189
 30
-1114.000
 70
    32
  0
VERTEX
  8
6350LEVEL
 62
13
 10
2377.928
 20
-9366.869
 30
-1114.000
 70
    32
  0
VERTEX
  8
6350LEVEL
 62
13
 10
2401.747
 20
-9331.098
 30
-1114.000
 70
    32
  0
VERTEX
  8
6350LEVEL
 62
13
 10
2435.774
 20
-9302.141
 30
-1114.000
 70
    32
  0
VERTEX
  8
6350LEVEL
 62
13
 10
2514.037
 20
-9315.768
 30
-1114.000
 70
    32
  0
VERTEX
  8
6350LEVEL
 62
13
 10
2641.640
 20
-9310.658
 30
-1114.000
 70
    32
  0
VERTEX
  8
6350LEVEL
 62
13
 10
2765.840
 20
-9279.998
 30
-1114.000
 70
    32
  0
VERTEX
  8
6350LEVEL
 62
13
 10
2852.610
 20
-9262.964
 30
-1114.000
 70
    32
  0
VERTEX
  8
6350LEVEL
 62
13
 10
2925.769
 20
-9266.371
 30
-1114.000
 70
    32
  0
VERTEX
  8
6350LEVEL
 62
13
 10
2981.914
 20
-9266.371
 30
-1114.000
 70
    32
  0
VERTEX
  8
6350LEVEL
 62
13
 10
3029.552
 20
-9274.887
 30
-1114.000
 70
    32
  0
VERTEX
  8
6350LEVEL
 62
13
 10
3048.267
 20
-9317.471
 30
-1114.000
 70
    32
  0
VERTEX
  8
6350LEVEL
 62
13
 10
3075.489
 20
-9371.978
 30
-1114.000
 70
    32
  0
VERTEX
  8
6350LEVEL
 62
13
 10
3114.621
 20
-9417.969
 30
-1114.000
 70
    32
  0
SEQEND
  8
6350LEVEL
  0
POLYLINE
  8
6350LEVEL
 62
13
 66
     1
 70
     8
  0
VERTEX
  8
6350LEVEL
 62
13
 10
2578.689
 20
-9656.438
 30
-1114.000
 70
    32
  0
VERTEX
  8
6350LEVEL
 62
13
 10
2585.495
 20
-9654.734
 30
-1114.000
 70
    32
  0
VERTEX
  8
6350LEVEL
 62
13
 10
2549.766
 20
-9610.447
 30
-1114.000
 70
    32
  0
VERTEX
  8
6350LEVEL
 62
13
 10
2546.363
 20
-9583.194
 30
-1114.000
 70
    32
  0
VERTEX
  8
6350LEVEL
 62
13
 10
2553.169
 20
-9576.380
 30
-1114.000
 70
    32
  0
VERTEX
  8
6350LEVEL
 62
13
 10
2582.092
 20
-9596.821
 30
-1114.000
 70
    32
  0
VERTEX
  8
6350LEVEL
 62
13
 10
2617.821
 20
-9634.294
 30
-1114.000
 70
    32
  0
SEQEND
  8
6350LEVEL
  0
POLYLINE
  8
6350LEVEL
 62
13
 66
     1
 70
     8
  0
VERTEX
  8
6350LEVEL
 62
13
 10
2908.793
 20
-8812.496
 30
-1114.000
 70
    32
  0
VERTEX
  8
6350LEVEL
 62
13
 10
2916.974
 20
-8802.843
 30
-1114.000
 70
    32
  0
VERTEX
  8
6350LEVEL
 62
13
 10
2908.451
 20
-8781.934
 30
-1114.000
 70
    32
  0
VERTEX
  8
6350LEVEL
 62
13
 10
2777.469
 20
-8637.267
 30
-1114.000
 70
    32
  0
VERTEX
  8
6350LEVEL
 62
13
 10
2761.113
 20
-8606.431
 30
-1114.000
 70
    32
  0
VERTEX
  8
6350LEVEL
 62
13
 10
2743.319
 20
-8546.001
 30
-1114.000
 70
    32
  0
VERTEX
  8
6350LEVEL
 62
13
 10
2717.054
 20
-8370.095
 30
-1114.000
 70
    32
  0
VERTEX
  8
6350LEVEL
 62
13
 10
2690.546
 20
-8292.463
 30
-1114.000
 70
    32
  0
VERTEX
  8
6350LEVEL
 62
13
 10
2663.535
 20
-8241.518
 30
-1114.000
 70
    32
  0
VERTEX
  8
6350LEVEL
 62
13
 10
2578.456
 20
-8119.712
 30
-1114.000
 70
    32
  0
VERTEX
  8
6350LEVEL
 62
13
 10
2566.472
 20
-7983.072
 30
-1114.000
 70
    32
  0
VERTEX
  8
6350LEVEL
 62
13
 10
2546.994
 20
-7924.747
 30
-1114.000
 70
    32
  0
VERTEX
  8
6350LEVEL
 62
13
 10
2612.413
 20
-8106.733
 30
-1114.000
 70
    32
  0
VERTEX
  8
6350LEVEL
 62
13
 10
2718.093
 20
-8345.192
 30
-1114.000
 70
    32
  0
VERTEX
  8
6350LEVEL
 62
13
 10
2756.502
 20
-8560.075
 30
-1114.000
 70
    32
  0
VERTEX
  8
6350LEVEL
 62
13
 10
2827.638
 20
-8671.127
 30
-1114.000
 70
    32
  0
VERTEX
  8
6350LEVEL
 62
13
 10
2878.998
 20
-8724.903
 30
-1114.000
 70
    32
  0
VERTEX
  8
6350LEVEL
 62
13
 10
2825.361
 20
-8633.953
 30
-1114.000
 70
    32
  0
VERTEX
  8
6350LEVEL
 62
13
 10
2813.876
 20
-8571.734
 30
-1114.000
 70
    32
  0
VERTEX
  8
6350LEVEL
 62
13
 10
2778.856
 20
-8492.638
 30
-1114.000
 70
    32
  0
VERTEX
  8
6350LEVEL
 62
13
 10
2735.303
 20
-8337.568
 30
-1114.000
 70
    32
  0
VERTEX
  8
6350LEVEL
 62
13
 10
2672.648
 20
-8223.620
 30
-1114.000
 70
    32
  0
VERTEX
  8
6350LEVEL
 62
13
 10
2622.298
 20
-8099.206
 30
-1114.000
 70
    32
  0
VERTEX
  8
6350LEVEL
 62
13
 10
2611.366
 20
-8040.949
 30
-1114.000
 70
    32
  0
VERTEX
  8
6350LEVEL
 62
13
 10
2496.737
 20
-7735.325
 30
-1114.000
 70
    32
  0
VERTEX
  8
6350LEVEL
 62
13
 10
2450.240
 20
-7624.966
 30
-1114.000
 70
    32
  0
VERTEX
  8
6350LEVEL
 62
13
 10
2360.649
 20
-7458.372
 30
-1114.000
 70
    32
  0
VERTEX
  8
6350LEVEL
 62
13
 10
2208.489
 20
-7126.580
 30
-1114.000
 70
    32
  0
VERTEX
  8
6350LEVEL
 62
13
 10
2180.795
 20
-7040.633
 30
-1114.000
 70
    32
  0
VERTEX
  8
6350LEVEL
 62
13
 10
2172.487
 20
-6974.093
 30
-1114.000
 70
    32
  0
VERTEX
  8
6350LEVEL
 62
13
 10
2216.797
 20
-7003.666
 30
-1114.000
 70
    32
  0
VERTEX
  8
6350LEVEL
 62
13
 10
2265.723
 20
-7093.310
 30
-1114.000
 70
    32
  0
VERTEX
  8
6350LEVEL
 62
13
 10
2306.738
 20
-7168.437
 30
-1114.000
 70
    32
  0
VERTEX
  8
6350LEVEL
 62
13
 10
2450.693
 20
-7453.922
 30
-1114.000
 70
    32
  0
VERTEX
  8
6350LEVEL
 62
13
 10
2521.043
 20
-7600.644
 30
-1114.000
 70
    32
  0
VERTEX
  8
6350LEVEL
 62
13
 10
2673.099
 20
-7998.600
 30
-1114.000
 70
    32
  0
VERTEX
  8
6350LEVEL
 62
13
 10
2679.191
 20
-8003.003
 30
-1114.000
 70
    32
  0
VERTEX
  8
6350LEVEL
 62
13
 10
2680.588
 20
-7997.281
 30
-1114.000
 70
    32
  0
VERTEX
  8
6350LEVEL
 62
13
 10
2678.275
 20
-7973.013
 30
-1114.000
 70
    32
  0
VERTEX
  8
6350LEVEL
 62
13
 10
2646.410
 20
-7890.145
 30
-1114.000
 70
    32
  0
VERTEX
  8
6350LEVEL
 62
13
 10
2676.598
 20
-7946.342
 30
-1114.000
 70
    32
  0
VERTEX
  8
6350LEVEL
 62
13
 10
2741.106
 20
-8194.781
 30
-1114.000
 70
    32
  0
VERTEX
  8
6350LEVEL
 62
13
 10
2788.264
 20
-8306.008
 30
-1114.000
 70
    32
  0
VERTEX
  8
6350LEVEL
 62
13
 10
2834.028
 20
-8381.580
 30
-1114.000
 70
    32
  0
VERTEX
  8
6350LEVEL
 62
13
 10
2853.880
 20
-8401.535
 30
-1114.000
 70
    32
  0
VERTEX
  8
6350LEVEL
 62
13
 10
2863.107
 20
-8327.654
 30
-1114.000
 70
    32
  0
VERTEX
  8
6350LEVEL
 62
13
 10
2890.489
 20
-8292.008
 30
-1114.000
 70
    32
  0
VERTEX
  8
6350LEVEL
 62
13
 10
2991.311
 20
-8336.616
 30
-1114.000
 70
    32
  0
VERTEX
  8
6350LEVEL
 62
13
 10
2997.008
 20
-8310.633
 30
-1114.000
 70
    32
  0
VERTEX
  8
6350LEVEL
 62
13
 10
3003.796
 20
-8308.752
 30
-1114.000
 70
    32
  0
VERTEX
  8
6350LEVEL
 62
13
 10
3092.774
 20
-8391.421
 30
-1114.000
 70
    32
  0
VERTEX
  8
6350LEVEL
 62
13
 10
3296.962
 20
-8655.975
 30
-1114.000
 70
    32
  0
VERTEX
  8
6350LEVEL
 62
13
 10
3384.544
 20
-8690.301
 30
-1114.000
 70
    32
  0
VERTEX
  8
6350LEVEL
 62
13
 10
3397.998
 20
-8687.046
 30
-1114.000
 70
    32
  0
VERTEX
  8
6350LEVEL
 62
13
 10
3356.951
 20
-8530.015
 30
-1114.000
 70
    32
  0
VERTEX
  8
6350LEVEL
 62
13
 10
3378.847
 20
-8596.911
 30
-1114.000
 70
    32
  0
VERTEX
  8
6350LEVEL
 62
13
 10
3404.505
 20
-8641.762
 30
-1114.000
 70
    32
  0
VERTEX
  8
6350LEVEL
 62
13
 10
3386.056
 20
-8593.066
 30
-1114.000
 70
    32
  0
VERTEX
  8
6350LEVEL
 62
13
 10
3350.559
 20
-8418.709
 30
-1114.000
 70
    32
  0
VERTEX
  8
6350LEVEL
 62
13
 10
3330.285
 20
-8370.854
 30
-1114.000
 70
    32
  0
VERTEX
  8
6350LEVEL
 62
13
 10
3299.573
 20
-8326.563
 30
-1114.000
 70
    32
  0
VERTEX
  8
6350LEVEL
 62
13
 10
3236.790
 20
-8284.773
 30
-1114.000
 70
    32
  0
VERTEX
  8
6350LEVEL
 62
13
 10
3179.872
 20
-8234.133
 30
-1114.000
 70
    32
  0
VERTEX
  8
6350LEVEL
 62
13
 10
2953.071
 20
-7905.697
 30
-1114.000
 70
    32
  0
VERTEX
  8
6350LEVEL
 62
13
 10
2900.767
 20
-7800.306
 30
-1114.000
 70
    32
  0
VERTEX
  8
6350LEVEL
 62
13
 10
2890.134
 20
-7765.112
 30
-1114.000
 70
    32
  0
VERTEX
  8
6350LEVEL
 62
13
 10
2964.170
 20
-7897.245
 30
-1114.000
 70
    32
  0
VERTEX
  8
6350LEVEL
 62
13
 10
2983.461
 20
-7917.901
 30
-1114.000
 70
    32
  0
VERTEX
  8
6350LEVEL
 62
13
 10
2917.261
 20
-7784.185
 30
-1114.000
 70
    32
  0
VERTEX
  8
6350LEVEL
 62
13
 10
2961.571
 20
-7863.605
 30
-1114.000
 70
    32
  0
VERTEX
  8
6350LEVEL
 62
13
 10
2987.896
 20
-7886.303
 30
-1114.000
 70
    32
  0
VERTEX
  8
6350LEVEL
 62
13
 10
2956.432
 20
-7816.555
 30
-1114.000
 70
    32
  0
VERTEX
  8
6350LEVEL
 62
13
 10
2898.868
 20
-7623.655
 30
-1114.000
 70
    32
  0
VERTEX
  8
6350LEVEL
 62
13
 10
3009.022
 20
-7811.855
 30
-1114.000
 70
    32
  0
VERTEX
  8
6350LEVEL
 62
13
 10
3158.411
 20
-8035.390
 30
-1114.000
 70
    32
  0
VERTEX
  8
6350LEVEL
 62
13
 10
3240.535
 20
-8182.462
 30
-1114.000
 70
    32
  0
VERTEX
  8
6350LEVEL
 62
13
 10
3328.027
 20
-8264.619
 30
-1114.000
 70
    32
  0
VERTEX
  8
6350LEVEL
 62
13
 10
3391.028
 20
-8354.192
 30
-1114.000
 70
    32
  0
VERTEX
  8
6350LEVEL
 62
13
 10
3478.853
 20
-8661.743
 30
-1114.000
 70
    32
  0
VERTEX
  8
6350LEVEL
 62
13
 10
3486.089
 20
-8682.870
 30
-1114.000
 70
    32
  0
VERTEX
  8
6350LEVEL
 62
13
 10
3523.402
 20
-8803.303
 30
-1114.000
 70
    32
  0
VERTEX
  8
6350LEVEL
 62
13
 10
3534.882
 20
-8733.460
 30
-1114.000
 70
    32
  0
VERTEX
  8
6350LEVEL
 62
13
 10
3539.190
 20
-8857.861
 30
-1114.000
 70
    32
  0
VERTEX
  8
6350LEVEL
 62
13
 10
3549.656
 20
-8929.898
 30
-1114.000
 70
    32
  0
VERTEX
  8
6350LEVEL
 62
13
 10
3566.230
 20
-8924.676
 30
-1114.000
 70
    32
  0
VERTEX
  8
6350LEVEL
 62
13
 10
3581.465
 20
-8891.430
 30
-1114.000
 70
    32
  0
VERTEX
  8
6350LEVEL
 62
13
 10
3615.889
 20
-8948.512
 30
-1114.000
 70
    32
  0
VERTEX
  8
6350LEVEL
 62
13
 10
3738.869
 20
-9179.825
 30
-1114.000
 70
    32
  0
VERTEX
  8
6350LEVEL
 62
13
 10
3822.163
 20
-9397.520
 30
-1114.000
 70
    32
  0
VERTEX
  8
6350LEVEL
 62
13
 10
3866.254
 20
-9488.888
 30
-1114.000
 70
    32
  0
SEQEND
  8
6350LEVEL
  0
POLYLINE
  8
6350LEVEL
 62
13
 66
     1
 70
     9
  0
VERTEX
  8
6350LEVEL
 62
13
 10
1895.720
 20
-5028.245
 30
-1114.000
 70
    32
  0
VERTEX
  8
6350LEVEL
 62
13
 10
1918.260
 20
-5061.385
 30
-1114.000
 70
    32
  0
VERTEX
  8
6350LEVEL
 62
13
 10
2030.986
 20
-5229.156
 30
-1114.000
 70
    32
  0
VERTEX
  8
6350LEVEL
 62
13
 10
2136.890
 20
-5387.284
 30
-1114.000
 70
    32
  0
VERTEX
  8
6350LEVEL
 62
13
 10
2314.298
 20
-5637.201
 30
-1114.000
 70
    32
  0
VERTEX
  8
6350LEVEL
 62
13
 10
2487.115
 20
-5882.264
 30
-1114.000
 70
    32
  0
VERTEX
  8
6350LEVEL
 62
13
 10
2668.614
 20
-6155.140
 30
-1114.000
 70
    32
  0
VERTEX
  8
6350LEVEL
 62
13
 10
2795.402
 20
-6355.600
 30
-1114.000
 70
    32
  0
VERTEX
  8
6350LEVEL
 62
13
 10
2964.942
 20
-6662.018
 30
-1114.000
 70
    32
  0
VERTEX
  8
6350LEVEL
 62
13
 10
3083.792
 20
-6864.621
 30
-1114.000
 70
    32
  0
VERTEX
  8
6350LEVEL
 62
13
 10
3200.476
 20
-7031.713
 30
-1114.000
 70
    32
  0
VERTEX
  8
6350LEVEL
 62
13
 10
3303.078
 20
-7195.264
 30
-1114.000
 70
    32
  0
VERTEX
  8
6350LEVEL
 62
13
 10
3358.556
 20
-7296.850
 30
-1114.000
 70
    32
  0
VERTEX
  8
6350LEVEL
 62
13
 10
3387.706
 20
-7353.590
 30
-1114.000
 70
    32
  0
VERTEX
  8
6350LEVEL
 62
13
 10
3393.654
 20
-7366.359
 30
-1114.000
 70
    32
  0
VERTEX
  8
6350LEVEL
 62
13
 10
3379.900
 20
-7351.010
 30
-1114.000
 70
    32
  0
VERTEX
  8
6350LEVEL
 62
13
 10
3354.774
 20
-7319.590
 30
-1114.000
 70
    32
  0
VERTEX
  8
6350LEVEL
 62
13
 10
3190.223
 20
-7088.936
 30
-1114.000
 70
    32
  0
VERTEX
  8
6350LEVEL
 62
13
 10
3053.334
 20
-6883.470
 30
-1114.000
 70
    32
  0
VERTEX
  8
6350LEVEL
 62
13
 10
2931.510
 20
-6674.483
 30
-1114.000
 70
    32
  0
VERTEX
  8
6350LEVEL
 62
13
 10
2774.238
 20
-6408.581
 30
-1114.000
 70
    32
  0
VERTEX
  8
6350LEVEL
 62
13
 10
2654.688
 20
-6202.808
 30
-1114.000
 70
    32
  0
VERTEX
  8
6350LEVEL
 62
13
 10
2501.267
 20
-5968.524
 30
-1114.000
 70
    32
  0
VERTEX
  8
6350LEVEL
 62
13
 10
2315.439
 20
-5709.708
 30
-1114.000
 70
    32
  0
VERTEX
  8
6350LEVEL
 62
13
 10
2026.464
 20
-5307.020
 30
-1114.000
 70
    32
  0
VERTEX
  8
6350LEVEL
 62
13
 10
1836.349
 20
-5032.330
 30
-1114.000
 70
    32
  0
VERTEX
  8
6350LEVEL
 62
13
 10
1823.683
 20
-5014.308
 30
-1114.000
 70
    32
  0
VERTEX
  8
6350LEVEL
 62
13
 10
1821.121
 20
-5009.195
 30
-1114.000
 70
    32
  0
VERTEX
  8
6350LEVEL
 62
13
 10
1755.777
 20
-4908.519
 30
-1114.000
 70
    32
  0
VERTEX
  8
6350LEVEL
 62
13
 10
1618.571
 20
-4695.817
 30
-1114.000
 70
    32
  0
VERTEX
  8
6350LEVEL
 62
13
 10
1472.515
 20
-4452.071
 30
-1114.000
 70
    32
  0
VERTEX
  8
6350LEVEL
 62
13
 10
1349.783
 20
-4245.196
 30
-1114.000
 70
    32
  0
VERTEX
  8
6350LEVEL
 62
13
 10
1219.757
 20
-4007.556
 30
-1114.000
 70
    32
  0
VERTEX
  8
6350LEVEL
 62
13
 10
1158.093
 20
-3871.673
 30
-1114.000
 70
    32
  0
VERTEX
  8
6350LEVEL
 62
13
 10
1138.959
 20
-3832.346
 30
-1114.000
 70
    32
  0
VERTEX
  8
6350LEVEL
 62
13
 10
1127.351
 20
-3780.993
 30
-1114.000
 70
    32
  0
VERTEX
  8
6350LEVEL
 62
13
 10
1155.026
 20
-3829.357
 30
-1114.000
 70
    32
  0
VERTEX
  8
6350LEVEL
 62
13
 10
1220.694
 20
-3963.822
 30
-1114.000
 70
    32
  0
VERTEX
  8
6350LEVEL
 62
13
 10
1302.471
 20
-4130.643
 30
-1114.000
 70
    32
  0
VERTEX
  8
6350LEVEL
 62
13
 10
1383.327
 20
-4275.881
 30
-1114.000
 70
    32
  0
VERTEX
  8
6350LEVEL
 62
13
 10
1505.252
 20
-4478.327
 30
-1114.000
 70
    32
  0
VERTEX
  8
6350LEVEL
 62
13
 10
1601.482
 20
-4633.302
 30
-1114.000
 70
    32
  0
VERTEX
  8
6350LEVEL
 62
13
 10
1685.953
 20
-4767.414
 30
-1114.000
 70
    32
  0
VERTEX
  8
6350LEVEL
 62
13
 10
1720.469
 20
-4822.368
 30
-1114.000
 70
    32
  0
VERTEX
  8
6350LEVEL
 62
13
 10
1744.399
 20
-4852.924
 30
-1114.000
 70
    32
  0
VERTEX
  8
6350LEVEL
 62
13
 10
1755.007
 20
-4856.445
 30
-1114.000
 70
    32
  0
VERTEX
  8
6350LEVEL
 62
13
 10
1738.861
 20
-4833.185
 30
-1114.000
 70
    32
  0
VERTEX
  8
6350LEVEL
 62
13
 10
1683.901
 20
-4746.163
 30
-1114.000
 70
    32
  0
VERTEX
  8
6350LEVEL
 62
13
 10
1607.071
 20
-4617.178
 30
-1114.000
 70
    32
  0
VERTEX
  8
6350LEVEL
 62
13
 10
1534.064
 20
-4493.703
 30
-1114.000
 70
    32
  0
VERTEX
  8
6350LEVEL
 62
13
 10
1462.333
 20
-4372.064
 30
-1114.000
 70
    32
  0
VERTEX
  8
6350LEVEL
 62
13
 10
1393.251
 20
-4259.469
 30
-1114.000
 70
    32
  0
VERTEX
  8
6350LEVEL
 62
13
 10
1317.378
 20
-4104.423
 30
-1114.000
 70
    32
  0
VERTEX
  8
6350LEVEL
 62
13
 10
1256.283
 20
-3971.319
 30
-1114.000
 70
    32
  0
VERTEX
  8
6350LEVEL
 62
13
 10
1191.926
 20
-3829.595
 30
-1114.000
 70
    32
  0
VERTEX
  8
6350LEVEL
 62
13
 10
1167.960
 20
-3769.586
 30
-1114.000
 70
    32
  0
VERTEX
  8
6350LEVEL
 62
13
 10
1112.647
 20
-3663.761
 30
-1114.000
 70
    32
  0
VERTEX
  8
6350LEVEL
 62
13
 10
1041.247
 20
-3504.704
 30
-1114.000
 70
    32
  0
VERTEX
  8
6350LEVEL
 62
13
 10
1018.304
 20
-3433.100
 30
-1114.000
 70
    32
  0
VERTEX
  8
6350LEVEL
 62
13
 10
923.874
 20
-3247.397
 30
-1114.000
 70
    32
  0
VERTEX
  8
6350LEVEL
 62
13
 10
816.395
 20
-3027.214
 30
-1114.000
 70
    32
  0
VERTEX
  8
6350LEVEL
 62
13
 10
741.192
 20
-2880.320
 30
-1114.000
 70
    32
  0
VERTEX
  8
6350LEVEL
 62
13
 10
636.897
 20
-2681.057
 30
-1114.000
 70
    32
  0
VERTEX
  8
6350LEVEL
 62
13
 10
477.439
 20
-2345.478
 30
-1114.000
 70
    32
  0
VERTEX
  8
6350LEVEL
 62
13
 10
259.234
 20
-1908.273
 30
-1114.000
 70
    32
  0
VERTEX
  8
6350LEVEL
 62
13
 10
153.261
 20
-1685.684
 30
-1114.000
 70
    32
  0
VERTEX
  8
6350LEVEL
 62
13
 10
-66.456
 20
-1206.445
 30
-1114.000
 70
    32
  0
VERTEX
  8
6350LEVEL
 62
13
 10
-234.691
 20
-821.630
 30
-1114.000
 70
    32
  0
VERTEX
  8
6350LEVEL
 62
13
 10
-315.453
 20
-637.325
 30
-1114.000
 70
    32
  0
VERTEX
  8
6350LEVEL
 62
13
 10
-410.459
 20
-404.402
 30
-1114.000
 70
    32
  0
VERTEX
  8
6350LEVEL
 62
13
 10
-490.364
 20
-188.663
 30
-1114.000
 70
    32
  0
VERTEX
  8
6350LEVEL
 62
13
 10
-571.017
 20
22.929
 30
-1114.000
 70
    32
  0
VERTEX
  8
6350LEVEL
 62
13
 10
-614.851
 20
144.885
 30
-1114.000
 70
    32
  0
VERTEX
  8
6350LEVEL
 62
13
 10
-616.147
 20
164.393
 30
-1114.000
 70
    32
  0
VERTEX
  8
6350LEVEL
 62
13
 10
-622.117
 20
190.635
 30
-1114.000
 70
    32
  0
VERTEX
  8
6350LEVEL
 62
13
 10
-619.301
 20
200.299
 30
-1114.000
 70
    32
  0
VERTEX
  8
6350LEVEL
 62
13
 10
-577.858
 20
106.616
 30
-1114.000
 70
    32
  0
VERTEX
  8
6350LEVEL
 62
13
 10
-456.740
 20
-168.499
 30
-1114.000
 70
    32
  0
VERTEX
  8
6350LEVEL
 62
13
 10
-346.064
 20
-421.384
 30
-1114.000
 70
    32
  0
VERTEX
  8
6350LEVEL
 62
13
 10
-324.324
 20
-472.960
 30
-1114.000
 70
    32
  0
VERTEX
  8
6350LEVEL
 62
13
 10
-303.541
 20
-512.050
 30
-1114.000
 70
    32
  0
VERTEX
  8
6350LEVEL
 62
13
 10
-294.439
 20
-517.976
 30
-1114.000
 70
    32
  0
VERTEX
  8
6350LEVEL
 62
13
 10
-307.249
 20
-485.145
 30
-1114.000
 70
    32
  0
VERTEX
  8
6350LEVEL
 62
13
 10
-316.229
 20
-463.714
 30
-1114.000
 70
    32
  0
VERTEX
  8
6350LEVEL
 62
13
 10
-319.261
 20
-450.852
 30
-1114.000
 70
    32
  0
VERTEX
  8
6350LEVEL
 62
13
 10
-316.640
 20
-436.334
 30
-1114.000
 70
    32
  0
VERTEX
  8
6350LEVEL
 62
13
 10
-288.159
 20
-489.128
 30
-1114.000
 70
    32
  0
VERTEX
  8
6350LEVEL
 62
13
 10
-215.477
 20
-655.912
 30
-1114.000
 70
    32
  0
VERTEX
  8
6350LEVEL
 62
13
 10
-150.305
 20
-807.956
 30
-1114.000
 70
    32
  0
VERTEX
  8
6350LEVEL
 62
13
 10
-122.523
 20
-867.583
 30
-1114.000
 70
    32
  0
VERTEX
  8
6350LEVEL
 62
13
 10
-100.977
 20
-914.306
 30
-1114.000
 70
    32
  0
VERTEX
  8
6350LEVEL
 62
13
 10
-95.389
 20
-936.731
 30
-1114.000
 70
    32
  0
VERTEX
  8
6350LEVEL
 62
13
 10
-106.515
 20
-933.116
 30
-1114.000
 70
    32
  0
VERTEX
  8
6350LEVEL
 62
13
 10
-117.677
 20
-900.047
 30
-1114.000
 70
    32
  0
VERTEX
  8
6350LEVEL
 62
13
 10
-136.004
 20
-865.149
 30
-1114.000
 70
    32
  0
VERTEX
  8
6350LEVEL
 62
13
 10
-145.034
 20
-841.032
 30
-1114.000
 70
    32
  0
VERTEX
  8
6350LEVEL
 62
13
 10
-156.873
 20
-832.469
 30
-1114.000
 70
    32
  0
VERTEX
  8
6350LEVEL
 62
13
 10
-144.106
 20
-868.505
 30
-1114.000
 70
    32
  0
VERTEX
  8
6350LEVEL
 62
13
 10
-127.975
 20
-918.533
 30
-1114.000
 70
    32
  0
VERTEX
  8
6350LEVEL
 62
13
 10
-89.895
 20
-998.224
 30
-1114.000
 70
    32
  0
VERTEX
  8
6350LEVEL
 62
13
 10
-20.907
 20
-1149.886
 30
-1114.000
 70
    32
  0
VERTEX
  8
6350LEVEL
 62
13
 10
45.517
 20
-1286.093
 30
-1114.000
 70
    32
  0
VERTEX
  8
6350LEVEL
 62
13
 10
96.459
 20
-1401.301
 30
-1114.000
 70
    32
  0
VERTEX
  8
6350LEVEL
 62
13
 10
155.840
 20
-1520.175
 30
-1114.000
 70
    32
  0
VERTEX
  8
6350LEVEL
 62
13
 10
190.334
 20
-1596.006
 30
-1114.000
 70
    32
  0
VERTEX
  8
6350LEVEL
 62
13
 10
238.057
 20
-1699.389
 30
-1114.000
 70
    32
  0
VERTEX
  8
6350LEVEL
 62
13
 10
320.115
 20
-1864.655
 30
-1114.000
 70
    32
  0
VERTEX
  8
6350LEVEL
 62
13
 10
417.894
 20
-2052.568
 30
-1114.000
 70
    32
  0
VERTEX
  8
6350LEVEL
 62
13
 10
510.200
 20
-2235.211
 30
-1114.000
 70
    32
  0
VERTEX
  8
6350LEVEL
 62
13
 10
660.238
 20
-2536.964
 30
-1114.000
 70
    32
  0
VERTEX
  8
6350LEVEL
 62
13
 10
789.349
 20
-2797.461
 30
-1114.000
 70
    32
  0
VERTEX
  8
6350LEVEL
 62
13
 10
927.764
 20
-3074.629
 30
-1114.000
 70
    32
  0
VERTEX
  8
6350LEVEL
 62
13
 10
1055.788
 20
-3332.252
 30
-1114.000
 70
    32
  0
VERTEX
  8
6350LEVEL
 62
13
 10
1171.822
 20
-3573.255
 30
-1114.000
 70
    32
  0
VERTEX
  8
6350LEVEL
 62
13
 10
1282.462
 20
-3796.686
 30
-1114.000
 70
    32
  0
VERTEX
  8
6350LEVEL
 62
13
 10
1397.919
 20
-4029.018
 30
-1114.000
 70
    32
  0
VERTEX
  8
6350LEVEL
 62
13
 10
1481.497
 20
-4203.659
 30
-1114.000
 70
    32
  0
VERTEX
  8
6350LEVEL
 62
13
 10
1546.877
 20
-4333.789
 30
-1114.000
 70
    32
  0
VERTEX
  8
6350LEVEL
 62
13
 10
1572.722
 20
-4389.319
 30
-1114.000
 70
    32
  0
VERTEX
  8
6350LEVEL
 62
13
 10
1587.334
 20
-4429.971
 30
-1114.000
 70
    32
  0
VERTEX
  8
6350LEVEL
 62
13
 10
1592.302
 20
-4446.930
 30
-1114.000
 70
    32
  0
VERTEX
  8
6350LEVEL
 62
13
 10
1593.779
 20
-4459.511
 30
-1114.000
 70
    32
  0
VERTEX
  8
6350LEVEL
 62
13
 10
1589.119
 20
-4464.559
 30
-1114.000
 70
    32
  0
VERTEX
  8
6350LEVEL
 62
13
 10
1551.881
 20
-4418.751
 30
-1114.000
 70
    32
  0
VERTEX
  8
6350LEVEL
 62
13
 10
1506.052
 20
-4361.219
 30
-1114.000
 70
    32
  0
VERTEX
  8
6350LEVEL
 62
13
 10
1468.829
 20
-4288.643
 30
-1114.000
 70
    32
  0
VERTEX
  8
6350LEVEL
 62
13
 10
1426.327
 20
-4215.649
 30
-1114.000
 70
    32
  0
VERTEX
  8
6350LEVEL
 62
13
 10
1375.076
 20
-4116.983
 30
-1114.000
 70
    32
  0
VERTEX
  8
6350LEVEL
 62
13
 10
1333.596
 20
-4032.395
 30
-1114.000
 70
    32
  0
VERTEX
  8
6350LEVEL
 62
13
 10
1286.594
 20
-3939.849
 30
-1114.000
 70
    32
  0
VERTEX
  8
6350LEVEL
 62
13
 10
1251.020
 20
-3867.036
 30
-1114.000
 70
    32
  0
VERTEX
  8
6350LEVEL
 62
13
 10
1223.489
 20
-3820.839
 30
-1114.000
 70
    32
  0
VERTEX
  8
6350LEVEL
 62
13
 10
1205.918
 20
-3787.684
 30
-1114.000
 70
    32
  0
VERTEX
  8
6350LEVEL
 62
13
 10
1194.785
 20
-3778.178
 30
-1114.000
 70
    32
  0
VERTEX
  8
6350LEVEL
 62
13
 10
1221.537
 20
-3843.509
 30
-1114.000
 70
    32
  0
VERTEX
  8
6350LEVEL
 62
13
 10
1254.001
 20
-3915.761
 30
-1114.000
 70
    32
  0
VERTEX
  8
6350LEVEL
 62
13
 10
1290.777
 20
-4008.601
 30
-1114.000
 70
    32
  0
VERTEX
  8
6350LEVEL
 62
13
 10
1337.967
 20
-4100.109
 30
-1114.000
 70
    32
  0
VERTEX
  8
6350LEVEL
 62
13
 10
1381.772
 20
-4198.502
 30
-1114.000
 70
    32
  0
VERTEX
  8
6350LEVEL
 62
13
 10
1434.896
 20
-4286.799
 30
-1114.000
 70
    32
  0
VERTEX
  8
6350LEVEL
 62
13
 10
1528.167
 20
-4449.270
 30
-1114.000
 70
    32
  0
VERTEX
  8
6350LEVEL
 62
13
 10
1591.776
 20
-4556.593
 30
-1114.000
 70
    32
  0
VERTEX
  8
6350LEVEL
 62
13
 10
1684.370
 20
-4705.021
 30
-1114.000
 70
    32
  0
VERTEX
  8
6350LEVEL
 62
13
 10
1743.478
 20
-4792.792
 30
-1114.000
 70
    32
  0
VERTEX
  8
6350LEVEL
 62
13
 10
1826.249
 20
-4924.456
 30
-1114.000
 70
    32
  0
VERTEX
  8
6350LEVEL
 62
13
 10
1894.467
 20
-5024.044
 30
-1114.000
 70
    32
  0
SEQEND
  8
6350LEVEL
  0
POLYLINE
  8
6350LEVEL
 62
13
 66
     1
 70
     9
  0
VERTEX
  8
6350LEVEL
 62
13
 10
1895.758
 20
-4936.009
 30
-1114.000
 70
    32
  0
VERTEX
  8
6350LEVEL
 62
13
 10
1886.799
 20
-4918.256
 30
-1114.000
 70
    32
  0
VERTEX
  8
6350LEVEL
 62
13
 10
1800.088
 20
-4763.930
 30
-1114.000
 70
    32
  0
VERTEX
  8
6350LEVEL
 62
13
 10
1729.847
 20
-4628.104
 30
-1114.000
 70
    32
  0
VERTEX
  8
6350LEVEL
 62
13
 10
1636.836
 20
-4446.405
 30
-1114.000
 70
    32
  0
VERTEX
  8
6350LEVEL
 62
13
 10
1507.329
 20
-4170.310
 30
-1114.000
 70
    32
  0
VERTEX
  8
6350LEVEL
 62
13
 10
1410.054
 20
-3970.708
 30
-1114.000
 70
    32
  0
VERTEX
  8
6350LEVEL
 62
13
 10
1316.179
 20
-3776.004
 30
-1114.000
 70
    32
  0
VERTEX
  8
6350LEVEL
 62
13
 10
1222.361
 20
-3589.876
 30
-1114.000
 70
    32
  0
VERTEX
  8
6350LEVEL
 62
13
 10
1132.216
 20
-3401.199
 30
-1114.000
 70
    32
  0
VERTEX
  8
6350LEVEL
 62
13
 10
1021.338
 20
-3176.119
 30
-1114.000
 70
    32
  0
VERTEX
  8
6350LEVEL
 62
13
 10
908.775
 20
-2960.372
 30
-1114.000
 70
    32
  0
VERTEX
  8
6350LEVEL
 62
13
 10
833.529
 20
-2816.682
 30
-1114.000
 70
    32
  0
VERTEX
  8
6350LEVEL
 62
13
 10
712.188
 20
-2590.248
 30
-1114.000
 70
    32
  0
VERTEX
  8
6350LEVEL
 62
13
 10
639.059
 20
-2443.728
 30
-1114.000
 70
    32
  0
VERTEX
  8
6350LEVEL
 62
13
 10
516.948
 20
-2203.770
 30
-1114.000
 70
    32
  0
VERTEX
  8
6350LEVEL
 62
13
 10
434.227
 20
-2036.243
 30
-1114.000
 70
    32
  0
VERTEX
  8
6350LEVEL
 62
13
 10
357.735
 20
-1875.731
 30
-1114.000
 70
    32
  0
VERTEX
  8
6350LEVEL
 62
13
 10
288.042
 20
-1725.012
 30
-1114.000
 70
    32
  0
VERTEX
  8
6350LEVEL
 62
13
 10
225.067
 20
-1596.388
 30
-1114.000
 70
    32
  0
VERTEX
  8
6350LEVEL
 62
13
 10
178.575
 20
-1498.046
 30
-1114.000
 70
    32
  0
VERTEX
  8
6350LEVEL
 62
13
 10
100.809
 20
-1335.697
 30
-1114.000
 70
    32
  0
VERTEX
  8
6350LEVEL
 62
13
 10
23.922
 20
-1159.586
 30
-1114.000
 70
    32
  0
VERTEX
  8
6350LEVEL
 62
13
 10
-32.925
 20
-1032.604
 30
-1114.000
 70
    32
  0
VERTEX
  8
6350LEVEL
 62
13
 10
-39.305
 20
-1017.531
 30
-1114.000
 70
    32
  0
VERTEX
  8
6350LEVEL
 62
13
 10
-44.519
 20
-993.032
 30
-1114.000
 70
    32
  0
VERTEX
  8
6350LEVEL
 62
13
 10
-29.749
 20
-1009.084
 30
-1114.000
 70
    32
  0
VERTEX
  8
6350LEVEL
 62
13
 10
-18.371
 20
-1026.130
 30
-1114.000
 70
    32
  0
VERTEX
  8
6350LEVEL
 62
13
 10
-10.457
 20
-1023.811
 30
-1114.000
 70
    32
  0
VERTEX
  8
6350LEVEL
 62
13
 10
-45.325
 20
-950.054
 30
-1114.000
 70
    32
  0
VERTEX
  8
6350LEVEL
 62
13
 10
-168.243
 20
-705.667
 30
-1114.000
 70
    32
  0
VERTEX
  8
6350LEVEL
 62
13
 10
-260.109
 20
-496.870
 30
-1114.000
 70
    32
  0
VERTEX
  8
6350LEVEL
 62
13
 10
-307.832
 20
-393.486
 30
-1114.000
 70
    32
  0
VERTEX
  8
6350LEVEL
 62
13
 10
-357.197
 20
-296.231
 30
-1114.000
 70
    32
  0
VERTEX
  8
6350LEVEL
 62
13
 10
-388.868
 20
-216.627
 30
-1114.000
 70
    32
  0
VERTEX
  8
6350LEVEL
 62
13
 10
-402.211
 20
-171.920
 30
-1114.000
 70
    32
  0
VERTEX
  8
6350LEVEL
 62
13
 10
-425.579
 20
-138.254
 30
-1114.000
 70
    32
  0
VERTEX
  8
6350LEVEL
 62
13
 10
-424.370
 20
-125.622
 30
-1114.000
 70
    32
  0
VERTEX
  8
6350LEVEL
 62
13
 10
-422.216
 20
-113.697
 30
-1114.000
 70
    32
  0
VERTEX
  8
6350LEVEL
 62
13
 10
-366.968
 20
-205.054
 30
-1114.000
 70
    32
  0
VERTEX
  8
6350LEVEL
 62
13
 10
-300.515
 20
-326.276
 30
-1114.000
 70
    32
  0
VERTEX
  8
6350LEVEL
 62
13
 10
-220.675
 20
-488.999
 30
-1114.000
 70
    32
  0
VERTEX
  8
6350LEVEL
 62
13
 10
-93.263
 20
-747.047
 30
-1114.000
 70
    32
  0
VERTEX
  8
6350LEVEL
 62
13
 10
48.573
 20
-1046.784
 30
-1114.000
 70
    32
  0
VERTEX
  8
6350LEVEL
 62
13
 10
149.405
 20
-1265.232
 30
-1114.000
 70
    32
  0
VERTEX
  8
6350LEVEL
 62
13
 10
205.474
 20
-1372.799
 30
-1114.000
 70
    32
  0
VERTEX
  8
6350LEVEL
 62
13
 10
219.523
 20
-1416.562
 30
-1114.000
 70
    32
  0
VERTEX
  8
6350LEVEL
 62
13
 10
221.943
 20
-1429.849
 30
-1114.000
 70
    32
  0
VERTEX
  8
6350LEVEL
 62
13
 10
218.839
 20
-1435.178
 30
-1114.000
 70
    32
  0
VERTEX
  8
6350LEVEL
 62
13
 10
203.774
 20
-1408.900
 30
-1114.000
 70
    32
  0
VERTEX
  8
6350LEVEL
 62
13
 10
191.121
 20
-1390.018
 30
-1114.000
 70
    32
  0
VERTEX
  8
6350LEVEL
 62
13
 10
181.018
 20
-1374.808
 30
-1114.000
 70
    32
  0
VERTEX
  8
6350LEVEL
 62
13
 10
173.240
 20
-1373.404
 30
-1114.000
 70
    32
  0
VERTEX
  8
6350LEVEL
 62
13
 10
190.869
 20
-1415.136
 30
-1114.000
 70
    32
  0
VERTEX
  8
6350LEVEL
 62
13
 10
229.180
 20
-1490.585
 30
-1114.000
 70
    32
  0
VERTEX
  8
6350LEVEL
 62
13
 10
272.070
 20
-1573.286
 30
-1114.000
 70
    32
  0
VERTEX
  8
6350LEVEL
 62
13
 10
320.290
 20
-1659.091
 30
-1114.000
 70
    32
  0
VERTEX
  8
6350LEVEL
 62
13
 10
411.314
 20
-1834.006
 30
-1114.000
 70
    32
  0
VERTEX
  8
6350LEVEL
 62
13
 10
535.968
 20
-2071.747
 30
-1114.000
 70
    32
  0
VERTEX
  8
6350LEVEL
 62
13
 10
646.781
 20
-2282.359
 30
-1114.000
 70
    32
  0
VERTEX
  8
6350LEVEL
 62
13
 10
805.921
 20
-2590.040
 30
-1114.000
 70
    32
  0
VERTEX
  8
6350LEVEL
 62
13
 10
1046.436
 20
-3043.052
 30
-1114.000
 70
    32
  0
VERTEX
  8
6350LEVEL
 62
13
 10
1219.864
 20
-3357.596
 30
-1114.000
 70
    32
  0
VERTEX
  8
6350LEVEL
 62
13
 10
1322.410
 20
-3551.724
 30
-1114.000
 70
    32
  0
VERTEX
  8
6350LEVEL
 62
13
 10
1397.642
 20
-3683.632
 30
-1114.000
 70
    32
  0
VERTEX
  8
6350LEVEL
 62
13
 10
1415.357
 20
-3718.955
 30
-1114.000
 70
    32
  0
VERTEX
  8
6350LEVEL
 62
13
 10
1416.984
 20
-3739.595
 30
-1114.000
 70
    32
  0
VERTEX
  8
6350LEVEL
 62
13
 10
1400.219
 20
-3710.868
 30
-1114.000
 70
    32
  0
VERTEX
  8
6350LEVEL
 62
13
 10
1335.610
 20
-3594.263
 30
-1114.000
 70
    32
  0
VERTEX
  8
6350LEVEL
 62
13
 10
1266.081
 20
-3463.384
 30
-1114.000
 70
    32
  0
VERTEX
  8
6350LEVEL
 62
13
 10
1140.160
 20
-3229.698
 30
-1114.000
 70
    32
  0
VERTEX
  8
6350LEVEL
 62
13
 10
996.200
 20
-2965.450
 30
-1114.000
 70
    32
  0
VERTEX
  8
6350LEVEL
 62
13
 10
835.136
 20
-2665.453
 30
-1114.000
 70
    32
  0
VERTEX
  8
6350LEVEL
 62
13
 10
665.719
 20
-2355.382
 30
-1114.000
 70
    32
  0
VERTEX
  8
6350LEVEL
 62
13
 10
508.091
 20
-2051.187
 30
-1114.000
 70
    32
  0
VERTEX
  8
6350LEVEL
 62
13
 10
406.525
 20
-1848.668
 30
-1114.000
 70
    32
  0
VERTEX
  8
6350LEVEL
 62
13
 10
300.299
 20
-1651.198
 30
-1114.000
 70
    32
  0
VERTEX
  8
6350LEVEL
 62
13
 10
245.512
 20
-1551.358
 30
-1114.000
 70
    32
  0
VERTEX
  8
6350LEVEL
 62
13
 10
202.376
 20
-1461.117
 30
-1114.000
 70
    32
  0
VERTEX
  8
6350LEVEL
 62
13
 10
161.653
 20
-1378.272
 30
-1114.000
 70
    32
  0
VERTEX
  8
6350LEVEL
 62
13
 10
127.505
 20
-1315.353
 30
-1114.000
 70
    32
  0
VERTEX
  8
6350LEVEL
 62
13
 10
102.279
 20
-1265.289
 30
-1114.000
 70
    32
  0
VERTEX
  8
6350LEVEL
 62
13
 10
88.272
 20
-1256.870
 30
-1114.000
 70
    32
  0
VERTEX
  8
6350LEVEL
 62
13
 10
122.953
 20
-1331.664
 30
-1114.000
 70
    32
  0
VERTEX
  8
6350LEVEL
 62
13
 10
178.086
 20
-1444.417
 30
-1114.000
 70
    32
  0
VERTEX
  8
6350LEVEL
 62
13
 10
225.715
 20
-1548.319
 30
-1114.000
 70
    32
  0
VERTEX
  8
6350LEVEL
 62
13
 10
263.644
 20
-1619.951
 30
-1114.000
 70
    32
  0
VERTEX
  8
6350LEVEL
 62
13
 10
316.890
 20
-1731.292
 30
-1114.000
 70
    32
  0
VERTEX
  8
6350LEVEL
 62
13
 10
395.643
 20
-1891.142
 30
-1114.000
 70
    32
  0
VERTEX
  8
6350LEVEL
 62
13
 10
519.620
 20
-2153.389
 30
-1114.000
 70
    32
  0
VERTEX
  8
6350LEVEL
 62
13
 10
602.672
 20
-2322.046
 30
-1114.000
 70
    32
  0
VERTEX
  8
6350LEVEL
 62
13
 10
736.313
 20
-2587.108
 30
-1114.000
 70
    32
  0
VERTEX
  8
6350LEVEL
 62
13
 10
929.033
 20
-2954.928
 30
-1114.000
 70
    32
  0
VERTEX
  8
6350LEVEL
 62
13
 10
1103.569
 20
-3290.017
 30
-1114.000
 70
    32
  0
VERTEX
  8
6350LEVEL
 62
13
 10
1232.990
 20
-3533.972
 30
-1114.000
 70
    32
  0
VERTEX
  8
6350LEVEL
 62
13
 10
1295.533
 20
-3656.093
 30
-1114.000
 70
    32
  0
VERTEX
  8
6350LEVEL
 62
13
 10
1433.690
 20
-3913.940
 30
-1114.000
 70
    32
  0
VERTEX
  8
6350LEVEL
 62
13
 10
1542.090
 20
-4117.157
 30
-1114.000
 70
    32
  0
VERTEX
  8
6350LEVEL
 62
13
 10
1702.563
 20
-4396.702
 30
-1114.000
 70
    32
  0
VERTEX
  8
6350LEVEL
 62
13
 10
1878.152
 20
-4705.210
 30
-1114.000
 70
    32
  0
VERTEX
  8
6350LEVEL
 62
13
 10
1934.652
 20
-4814.312
 30
-1114.000
 70
    32
  0
VERTEX
  8
6350LEVEL
 62
13
 10
1936.791
 20
-4819.265
 30
-1114.000
 70
    32
  0
VERTEX
  8
6350LEVEL
 62
13
 10
1971.189
 20
-4885.604
 30
-1114.000
 70
    32
  0
VERTEX
  8
6350LEVEL
 62
13
 10
2037.491
 20
-4994.580
 30
-1114.000
 70
    32
  0
VERTEX
  8
6350LEVEL
 62
13
 10
2134.123
 20
-5146.149
 30
-1114.000
 70
    32
  0
VERTEX
  8
6350LEVEL
 62
13
 10
2259.139
 20
-5353.649
 30
-1114.000
 70
    32
  0
VERTEX
  8
6350LEVEL
 62
13
 10
2397.254
 20
-5571.753
 30
-1114.000
 70
    32
  0
VERTEX
  8
6350LEVEL
 62
13
 10
2500.205
 20
-5722.709
 30
-1114.000
 70
    32
  0
VERTEX
  8
6350LEVEL
 62
13
 10
2717.872
 20
-6026.524
 30
-1114.000
 70
    32
  0
VERTEX
  8
6350LEVEL
 62
13
 10
2897.904
 20
-6267.060
 30
-1114.000
 70
    32
  0
VERTEX
  8
6350LEVEL
 62
13
 10
3167.701
 20
-6622.738
 30
-1114.000
 70
    32
  0
VERTEX
  8
6350LEVEL
 62
13
 10
3327.835
 20
-6842.240
 30
-1114.000
 70
    32
  0
VERTEX
  8
6350LEVEL
 62
13
 10
3498.048
 20
-7067.537
 30
-1114.000
 70
    32
  0
VERTEX
  8
6350LEVEL
 62
13
 10
3598.289
 20
-7231.022
 30
-1114.000
 70
    32
  0
VERTEX
  8
6350LEVEL
 62
13
 10
3677.406
 20
-7360.836
 30
-1114.000
 70
    32
  0
VERTEX
  8
6350LEVEL
 62
13
 10
3724.531
 20
-7451.161
 30
-1114.000
 70
    32
  0
VERTEX
  8
6350LEVEL
 62
13
 10
3754.599
 20
-7503.200
 30
-1114.000
 70
    32
  0
VERTEX
  8
6350LEVEL
 62
13
 10
3757.923
 20
-7525.350
 30
-1114.000
 70
    32
  0
VERTEX
  8
6350LEVEL
 62
13
 10
3734.636
 20
-7512.887
 30
-1114.000
 70
    32
  0
VERTEX
  8
6350LEVEL
 62
13
 10
3663.306
 20
-7443.161
 30
-1114.000
 70
    32
  0
VERTEX
  8
6350LEVEL
 62
13
 10
3532.476
 20
-7303.248
 30
-1114.000
 70
    32
  0
VERTEX
  8
6350LEVEL
 62
13
 10
3360.012
 20
-7102.310
 30
-1114.000
 70
    32
  0
VERTEX
  8
6350LEVEL
 62
13
 10
3157.522
 20
-6847.759
 30
-1114.000
 70
    32
  0
VERTEX
  8
6350LEVEL
 62
13
 10
3018.206
 20
-6644.589
 30
-1114.000
 70
    32
  0
VERTEX
  8
6350LEVEL
 62
13
 10
2879.938
 20
-6431.995
 30
-1114.000
 70
    32
  0
VERTEX
  8
6350LEVEL
 62
13
 10
2730.891
 20
-6210.436
 30
-1114.000
 70
    32
  0
VERTEX
  8
6350LEVEL
 62
13
 10
2686.325
 20
-6141.452
 30
-1114.000
 70
    32
  0
VERTEX
  8
6350LEVEL
 62
13
 10
2490.416
 20
-5848.482
 30
-1114.000
 70
    32
  0
VERTEX
  8
6350LEVEL
 62
13
 10
2339.246
 20
-5618.199
 30
-1114.000
 70
    32
  0
VERTEX
  8
6350LEVEL
 62
13
 10
2203.931
 20
-5412.776
 30
-1114.000
 70
    32
  0
VERTEX
  8
6350LEVEL
 62
13
 10
2042.244
 20
-5164.083
 30
-1114.000
 70
    32
  0
VERTEX
  8
6350LEVEL
 62
13
 10
1963.740
 20
-5040.589
 30
-1114.000
 70
    32
  0
VERTEX
  8
6350LEVEL
 62
13
 10
1902.446
 20
-4949.871
 30
-1114.000
 70
    32
  0
VERTEX
  8
6350LEVEL
 62
13
 10
1898.028
 20
-4938.720
 30
-1114.000
 70
    32
  0
SEQEND
  8
6350LEVEL
  0
POLYLINE
  8
6350LEVEL
 62
13
 66
     1
 70
     9
  0
VERTEX
  8
6350LEVEL
 62
13
 10
1912.519
 20
-4813.865
 30
-1114.000
 70
    32
  0
VERTEX
  8
6350LEVEL
 62
13
 10
1955.271
 20
-4891.465
 30
-1114.000
 70
    32
  0
VERTEX
  8
6350LEVEL
 62
13
 10
2016.106
 20
-4998.714
 30
-1114.000
 70
    32
  0
VERTEX
  8
6350LEVEL
 62
13
 10
2046.109
 20
-5053.114
 30
-1114.000
 70
    32
  0
VERTEX
  8
6350LEVEL
 62
13
 10
2052.057
 20
-5065.883
 30
-1114.000
 70
    32
  0
VERTEX
  8
6350LEVEL
 62
13
 10
2036.423
 20
-5061.511
 30
-1114.000
 70
    32
  0
VERTEX
  8
6350LEVEL
 62
13
 10
2006.027
 20
-5021.279
 30
-1114.000
 70
    32
  0
VERTEX
  8
6350LEVEL
 62
13
 10
1993.213
 20
-5000.442
 30
-1114.000
 70
    32
  0
VERTEX
  8
6350LEVEL
 62
13
 10
1985.385
 20
-4998.649
 30
-1114.000
 70
    32
  0
VERTEX
  8
6350LEVEL
 62
13
 10
1988.097
 20
-5014.480
 30
-1114.000
 70
    32
  0
VERTEX
  8
6350LEVEL
 62
13
 10
2026.540
 20
-5076.992
 30
-1114.000
 70
    32
  0
VERTEX
  8
6350LEVEL
 62
13
 10
2051.403
 20
-5117.858
 30
-1114.000
 70
    32
  0
VERTEX
  8
6350LEVEL
 62
13
 10
2076.529
 20
-5149.278
 30
-1114.000
 70
    32
  0
VERTEX
  8
6350LEVEL
 62
13
 10
2091.443
 20
-5179.627
 30
-1114.000
 70
    32
  0
VERTEX
  8
6350LEVEL
 62
13
 10
2456.105
 20
-5727.583
 30
-1114.000
 70
    32
  0
VERTEX
  8
6350LEVEL
 62
13
 10
2493.059
 20
-5788.551
 30
-1114.000
 70
    32
  0
VERTEX
  8
6350LEVEL
 62
13
 10
2430.021
 20
-5707.986
 30
-1114.000
 70
    32
  0
VERTEX
  8
6350LEVEL
 62
13
 10
2006.577
 20
-5086.680
 30
-1114.000
 70
    32
  0
VERTEX
  8
6350LEVEL
 62
13
 10
1966.494
 20
-5026.485
 30
-1114.000
 70
    32
  0
VERTEX
  8
6350LEVEL
 62
13
 10
1918.058
 20
-4955.030
 30
-1114.000
 70
    32
  0
VERTEX
  8
6350LEVEL
 62
13
 10
1897.043
 20
-4917.422
 30
-1114.000
 70
    32
  0
VERTEX
  8
6350LEVEL
 62
13
 10
1864.658
 20
-4863.743
 30
-1114.000
 70
    32
  0
VERTEX
  8
6350LEVEL
 62
13
 10
1766.564
 20
-4671.693
 30
-1114.000
 70
    32
  0
VERTEX
  8
6350LEVEL
 62
13
 10
1623.261
 20
-4380.778
 30
-1114.000
 70
    32
  0
VERTEX
  8
6350LEVEL
 62
13
 10
1465.539
 20
-4058.594
 30
-1114.000
 70
    32
  0
VERTEX
  8
6350LEVEL
 62
13
 10
1428.713
 20
-3980.854
 30
-1114.000
 70
    32
  0
VERTEX
  8
6350LEVEL
 62
13
 10
1320.628
 20
-3755.640
 30
-1114.000
 70
    32
  0
VERTEX
  8
6350LEVEL
 62
13
 10
1257.484
 20
-3621.033
 30
-1114.000
 70
    32
  0
VERTEX
  8
6350LEVEL
 62
13
 10
1250.689
 20
-3600.623
 30
-1114.000
 70
    32
  0
VERTEX
  8
6350LEVEL
 62
13
 10
1266.544
 20
-3625.569
 30
-1114.000
 70
    32
  0
VERTEX
  8
6350LEVEL
 62
13
 10
1314.110
 20
-3713.259
 30
-1114.000
 70
    32
  0
VERTEX
  8
6350LEVEL
 62
13
 10
1376.669
 20
-3834.984
 30
-1114.000
 70
    32
  0
VERTEX
  8
6350LEVEL
 62
13
 10
1588.033
 20
-4233.308
 30
-1114.000
 70
    32
  0
VERTEX
  8
6350LEVEL
 62
13
 10
1815.402
 20
-4638.031
 30
-1114.000
 70
    32
  0
SEQEND
  8
6350LEVEL
  0
POLYLINE
  8
6350LEVEL
 62
13
 66
     1
 70
     9
  0
VERTEX
  8
6350LEVEL
 62
13
 10
2275.514
 20
-5302.898
 30
-1114.000
 70
    32
  0
VERTEX
  8
6350LEVEL
 62
13
 10
2362.568
 20
-5430.568
 30
-1114.000
 70
    32
  0
VERTEX
  8
6350LEVEL
 62
13
 10
2431.975
 20
-5541.205
 30
-1114.000
 70
    32
  0
VERTEX
  8
6350LEVEL
 62
13
 10
2505.515
 20
-5644.867
 30
-1114.000
 70
    32
  0
VERTEX
  8
6350LEVEL
 62
13
 10
2577.437
 20
-5750.060
 30
-1114.000
 70
    32
  0
VERTEX
  8
6350LEVEL
 62
13
 10
2566.173
 20
-5742.264
 30
-1114.000
 70
    32
  0
VERTEX
  8
6350LEVEL
 62
13
 10
2424.760
 20
-5545.731
 30
-1114.000
 70
    32
  0
VERTEX
  8
6350LEVEL
 62
13
 10
2357.956
 20
-5454.861
 30
-1114.000
 70
    32
  0
VERTEX
  8
6350LEVEL
 62
13
 10
2308.120
 20
-5377.065
 30
-1114.000
 70
    32
  0
VERTEX
  8
6350LEVEL
 62
13
 10
2284.962
 20
-5331.519
 30
-1114.000
 70
    32
  0
SEQEND
  8
6350LEVEL
  0
POLYLINE
  8
6350LEVEL
 62
13
 66
     1
 70
     9
  0
VERTEX
  8
6350LEVEL
 62
13
 10
2965.260
 20
-6451.691
 30
-1114.000
 70
    32
  0
VERTEX
  8
6350LEVEL
 62
13
 10
2986.624
 20
-6476.705
 30
-1114.000
 70
    32
  0
VERTEX
  8
6350LEVEL
 62
13
 10
3019.818
 20
-6529.618
 30
-1114.000
 70
    32
  0
VERTEX
  8
6350LEVEL
 62
13
 10
3074.465
 20
-6604.397
 30
-1114.000
 70
    32
  0
VERTEX
  8
6350LEVEL
 62
13
 10
3090.471
 20
-6623.747
 30
-1114.000
 70
    32
  0
VERTEX
  8
6350LEVEL
 62
13
 10
3168.777
 20
-6725.966
 30
-1114.000
 70
    32
  0
VERTEX
  8
6350LEVEL
 62
13
 10
3220.449
 20
-6794.359
 30
-1114.000
 70
    32
  0
VERTEX
  8
6350LEVEL
 62
13
 10
3284.783
 20
-6889.101
 30
-1114.000
 70
    32
  0
VERTEX
  8
6350LEVEL
 62
13
 10
3318.174
 20
-6934.930
 30
-1114.000
 70
    32
  0
VERTEX
  8
6350LEVEL
 62
13
 10
3286.774
 20
-6902.548
 30
-1114.000
 70
    32
  0
VERTEX
  8
6350LEVEL
 62
13
 10
3219.729
 20
-6820.336
 30
-1114.000
 70
    32
  0
VERTEX
  8
6350LEVEL
 62
13
 10
3139.149
 20
-6714.903
 30
-1114.000
 70
    32
  0
VERTEX
  8
6350LEVEL
 62
13
 10
3075.406
 20
-6627.268
 30
-1114.000
 70
    32
  0
VERTEX
  8
6350LEVEL
 62
13
 10
3049.733
 20
-6587.168
 30
-1114.000
 70
    32
  0
VERTEX
  8
6350LEVEL
 62
13
 10
3011.903
 20
-6530.974
 30
-1114.000
 70
    32
  0
VERTEX
  8
6350LEVEL
 62
13
 10
2978.599
 20
-6481.997
 30
-1114.000
 70
    32
  0
SEQEND
  8
6350LEVEL
  0
POLYLINE
  8
6350LEVEL
 62
13
 66
     1
 70
     9
  0
VERTEX
  8
6350LEVEL
 62
13
 10
2903.770
 20
-6396.418
 30
-1114.000
 70
    32
  0
VERTEX
  8
6350LEVEL
 62
13
 10
2938.583
 20
-6447.801
 30
-1114.000
 70
    32
  0
VERTEX
  8
6350LEVEL
 62
13
 10
2999.921
 20
-6536.944
 30
-1114.000
 70
    32
  0
VERTEX
  8
6350LEVEL
 62
13
 10
3065.807
 20
-6632.516
 30
-1114.000
 70
    32
  0
VERTEX
  8
6350LEVEL
 62
13
 10
3133.464
 20
-6721.048
 30
-1114.000
 70
    32
  0
VERTEX
  8
6350LEVEL
 62
13
 10
3165.106
 20
-6773.130
 30
-1114.000
 70
    32
  0
VERTEX
  8
6350LEVEL
 62
13
 10
3180.851
 20
-6801.927
 30
-1114.000
 70
    32
  0
VERTEX
  8
6350LEVEL
 62
13
 10
3123.712
 20
-6731.806
 30
-1114.000
 70
    32
  0
VERTEX
  8
6350LEVEL
 62
13
 10
3064.321
 20
-6657.684
 30
-1114.000
 70
    32
  0
VERTEX
  8
6350LEVEL
 62
13
 10
3044.684
 20
-6627.204
 30
-1114.000
 70
    32
  0
VERTEX
  8
6350LEVEL
 62
13
 10
2998.610
 20
-6555.815
 30
-1114.000
 70
    32
  0
VERTEX
  8
6350LEVEL
 62
13
 10
2954.131
 20
-6483.682
 30
-1114.000
 70
    32
  0
VERTEX
  8
6350LEVEL
 62
13
 10
2923.102
 20
-6437.918
 30
-1114.000
 70
    32
  0
VERTEX
  8
6350LEVEL
 62
13
 10
2914.136
 20
-6420.338
 30
-1114.000
 70
    32
  0
SEQEND
  8
6350LEVEL
  0
POLYLINE
  8
6350LEVEL
 62
7
 66
     1
 70
     8
  0
VERTEX
  8
6350LEVEL
 62
7
 10
1852.204
 20
-8639.538
 30
-1114.000
 70
    32
  0
VERTEX
  8
6350LEVEL
 62
7
 10
1814.152
 20
-8543.656
 30
-1114.000
 70
    32
  0
VERTEX
  8
6350LEVEL
 62
7
 10
1809.143
 20
-8490.953
 30
-1114.000
 70
    32
  0
VERTEX
  8
6350LEVEL
 62
7
 10
1781.589
 20
-8386.800
 30
-1114.000
 70
    32
  0
VERTEX
  8
6350LEVEL
 62
7
 10
1730.239
 20
-8361.703
 30
-1114.000
 70
    32
  0
VERTEX
  8
6350LEVEL
 62
7
 10
1710.306
 20
-8352.525
 30
-1114.000
 70
    32
  0
VERTEX
  8
6350LEVEL
 62
7
 10
1709.648
 20
-8346.444
 30
-1114.000
 70
    32
  0
VERTEX
  8
6350LEVEL
 62
7
 10
1606.017
 20
-8191.637
 30
-1114.000
 70
    32
  0
VERTEX
  8
6350LEVEL
 62
7
 10
1616.055
 20
-8169.198
 30
-1114.000
 70
    32
  0
VERTEX
  8
6350LEVEL
 62
7
 10
1618.665
 20
-8138.441
 30
-1114.000
 70
    32
  0
VERTEX
  8
6350LEVEL
 62
7
 10
1614.426
 20
-8089.335
 30
-1114.000
 70
    32
  0
VERTEX
  8
6350LEVEL
 62
7
 10
1587.352
 20
-8029.671
 30
-1114.000
 70
    32
  0
VERTEX
  8
6350LEVEL
 62
7
 10
1579.360
 20
-7997.945
 30
-1114.000
 70
    32
  0
VERTEX
  8
6350LEVEL
 62
7
 10
1565.751
 20
-7973.237
 30
-1114.000
 70
    32
  0
VERTEX
  8
6350LEVEL
 62
7
 10
1563.539
 20
-7968.893
 30
-1114.000
 70
    32
  0
VERTEX
  8
6350LEVEL
 62
7
 10
1557.328
 20
-7978.007
 30
-1114.000
 70
    32
  0
VERTEX
  8
6350LEVEL
 62
7
 10
1556.621
 20
-8024.576
 30
-1114.000
 70
    32
  0
VERTEX
  8
6350LEVEL
 62
7
 10
1555.405
 20
-8031.256
 30
-1114.000
 70
    32
  0
VERTEX
  8
6350LEVEL
 62
7
 10
1555.722
 20
-8050.742
 30
-1114.000
 70
    32
  0
VERTEX
  8
6350LEVEL
 62
7
 10
1562.287
 20
-8078.075
 30
-1114.000
 70
    32
  0
VERTEX
  8
6350LEVEL
 62
7
 10
1576.923
 20
-8118.167
 30
-1114.000
 70
    32
  0
VERTEX
  8
6350LEVEL
 62
7
 10
1574.380
 20
-8146.132
 30
-1114.000
 70
    32
  0
VERTEX
  8
6350LEVEL
 62
7
 10
1574.632
 20
-8192.520
 30
-1114.000
 70
    32
  0
VERTEX
  8
6350LEVEL
 62
7
 10
1574.399
 20
-8226.399
 30
-1114.000
 70
    32
  0
VERTEX
  8
6350LEVEL
 62
7
 10
1575.597
 20
-8253.160
 30
-1114.000
 70
    32
  0
VERTEX
  8
6350LEVEL
 62
7
 10
1582.256
 20
-8269.461
 30
-1114.000
 70
    32
  0
VERTEX
  8
6350LEVEL
 62
7
 10
1598.791
 20
-8282.900
 30
-1114.000
 70
    32
  0
VERTEX
  8
6350LEVEL
 62
7
 10
1617.746
 20
-8293.400
 30
-1114.000
 70
    32
  0
VERTEX
  8
6350LEVEL
 62
7
 10
1630.326
 20
-8308.481
 30
-1114.000
 70
    32
  0
VERTEX
  8
6350LEVEL
 62
7
 10
1640.327
 20
-8328.812
 30
-1114.000
 70
    32
  0
VERTEX
  8
6350LEVEL
 62
7
 10
1648.389
 20
-8346.237
 30
-1114.000
 70
    32
  0
VERTEX
  8
6350LEVEL
 62
7
 10
1652.787
 20
-8357.410
 30
-1114.000
 70
    32
  0
SEQEND
  8
6350LEVEL
  0
POLYLINE
  8
6350LEVEL
 62
13
 66
     1
 70
     8
  0
VERTEX
  8
6350LEVEL
 62
13
 10
1853.669
 20
-8643.128
 30
-1114.000
 70
    32
  0
VERTEX
  8
6350LEVEL
 62
13
 10
1813.759
 20
-8542.401
 30
-1114.000
 70
    32
  0
VERTEX
  8
6350LEVEL
 62
13
 10
1824.262
 20
-8479.447
 30
-1114.000
 70
    32
  0
VERTEX
  8
6350LEVEL
 62
13
 10
1809.558
 20
-8452.166
 30
-1114.000
 70
    32
  0
VERTEX
  8
6350LEVEL
 62
13
 10
1807.457
 20
-8414.394
 30
-1114.000
 70
    32
  0
VERTEX
  8
6350LEVEL
 62
13
 10
1824.262
 20
-8382.917
 30
-1114.000
 70
    32
  0
VERTEX
  8
6350LEVEL
 62
13
 10
1812.073
 20
-8363.018
 30
-1114.000
 70
    32
  0
VERTEX
  8
6350LEVEL
 62
13
 10
1790.350
 20
-8316.045
 30
-1114.000
 70
    32
  0
VERTEX
  8
6350LEVEL
 62
13
 10
1756.528
 20
-8270.196
 30
-1114.000
 70
    32
  0
VERTEX
  8
6350LEVEL
 62
13
 10
1772.021
 20
-8260.316
 30
-1114.000
 70
    32
  0
VERTEX
  8
6350LEVEL
 62
13
 10
1760.306
 20
-8226.220
 30
-1114.000
 70
    32
  0
VERTEX
  8
6350LEVEL
 62
13
 10
1699.331
 20
-8195.728
 30
-1114.000
 70
    32
  0
VERTEX
  8
6350LEVEL
 62
13
 10
1670.184
 20
-8174.302
 30
-1114.000
 70
    32
  0
VERTEX
  8
6350LEVEL
 62
13
 10
1683.932
 20
-8120.461
 30
-1114.000
 70
    32
  0
VERTEX
  8
6350LEVEL
 62
13
 10
1718.601
 20
-8103.443
 30
-1114.000
 70
    32
  0
VERTEX
  8
6350LEVEL
 62
13
 10
1825.272
 20
-8139.966
 30
-1114.000
 70
    32
  0
VERTEX
  8
6350LEVEL
 62
13
 10
1845.620
 20
-8154.250
 30
-1114.000
 70
    32
  0
VERTEX
  8
6350LEVEL
 62
13
 10
1893.467
 20
-8195.180
 30
-1114.000
 70
    32
  0
VERTEX
  8
6350LEVEL
 62
13
 10
1884.667
 20
-8167.436
 30
-1114.000
 70
    32
  0
VERTEX
  8
6350LEVEL
 62
13
 10
1889.342
 20
-8147.108
 30
-1114.000
 70
    32
  0
VERTEX
  8
6350LEVEL
 62
13
 10
1883.292
 20
-8127.055
 30
-1114.000
 70
    32
  0
VERTEX
  8
6350LEVEL
 62
13
 10
1856.069
 20
-8109.475
 30
-1114.000
 70
    32
  0
VERTEX
  8
6350LEVEL
 62
13
 10
1774.950
 20
-8091.619
 30
-1114.000
 70
    32
  0
VERTEX
  8
6350LEVEL
 62
13
 10
1749.686
 20
-8085.253
 30
-1114.000
 70
    32
  0
VERTEX
  8
6350LEVEL
 62
13
 10
1715.555
 20
-8061.952
 30
-1114.000
 70
    32
  0
VERTEX
  8
6350LEVEL
 62
13
 10
1732.589
 20
-8042.651
 30
-1114.000
 70
    32
  0
VERTEX
  8
6350LEVEL
 62
13
 10
1757.352
 20
-8002.892
 30
-1114.000
 70
    32
  0
VERTEX
  8
6350LEVEL
 62
13
 10
1753.551
 20
-7993.536
 30
-1114.000
 70
    32
  0
VERTEX
  8
6350LEVEL
 62
13
 10
1743.070
 20
-7973.295
 30
-1114.000
 70
    32
  0
VERTEX
  8
6350LEVEL
 62
13
 10
1723.724
 20
-7974.875
 30
-1114.000
 70
    32
  0
VERTEX
  8
6350LEVEL
 62
13
 10
1709.750
 20
-7954.005
 30
-1114.000
 70
    32
  0
VERTEX
  8
6350LEVEL
 62
13
 10
1705.717
 20
-7938.993
 30
-1114.000
 70
    32
  0
VERTEX
  8
6350LEVEL
 62
13
 10
1714.067
 20
-7930.168
 30
-1114.000
 70
    32
  0
VERTEX
  8
6350LEVEL
 62
13
 10
1723.455
 20
-7932.062
 30
-1114.000
 70
    32
  0
VERTEX
  8
6350LEVEL
 62
13
 10
1720.733
 20
-7893.584
 30
-1114.000
 70
    32
  0
VERTEX
  8
6350LEVEL
 62
13
 10
1707.838
 20
-7882.549
 30
-1114.000
 70
    32
  0
VERTEX
  8
6350LEVEL
 62
13
 10
1689.725
 20
-7874.452
 30
-1114.000
 70
    32
  0
VERTEX
  8
6350LEVEL
 62
13
 10
1685.811
 20
-7892.636
 30
-1114.000
 70
    32
  0
VERTEX
  8
6350LEVEL
 62
13
 10
1655.525
 20
-7889.885
 30
-1114.000
 70
    32
  0
VERTEX
  8
6350LEVEL
 62
13
 10
1638.013
 20
-7872.144
 30
-1114.000
 70
    32
  0
VERTEX
  8
6350LEVEL
 62
13
 10
1635.813
 20
-7860.882
 30
-1114.000
 70
    32
  0
VERTEX
  8
6350LEVEL
 62
13
 10
1645.162
 20
-7867.474
 30
-1114.000
 70
    32
  0
VERTEX
  8
6350LEVEL
 62
13
 10
1649.837
 20
-7869.947
 30
-1114.000
 70
    32
  0
VERTEX
  8
6350LEVEL
 62
13
 10
1647.362
 20
-7865.277
 30
-1114.000
 70
    32
  0
VERTEX
  8
6350LEVEL
 62
13
 10
1642.963
 20
-7854.838
 30
-1114.000
 70
    32
  0
VERTEX
  8
6350LEVEL
 62
13
 10
1649.562
 20
-7863.354
 30
-1114.000
 70
    32
  0
VERTEX
  8
6350LEVEL
 62
13
 10
1662.211
 20
-7874.342
 30
-1114.000
 70
    32
  0
VERTEX
  8
6350LEVEL
 62
13
 10
1663.861
 20
-7869.123
 30
-1114.000
 70
    32
  0
VERTEX
  8
6350LEVEL
 62
13
 10
1659.461
 20
-7857.311
 30
-1114.000
 70
    32
  0
VERTEX
  8
6350LEVEL
 62
13
 10
1640.763
 20
-7824.622
 30
-1114.000
 70
    32
  0
VERTEX
  8
6350LEVEL
 62
13
 10
1639.113
 20
-7809.514
 30
-1114.000
 70
    32
  0
VERTEX
  8
6350LEVEL
 62
13
 10
1636.811
 20
-7709.247
 30
-1114.000
 70
    32
  0
VERTEX
  8
6350LEVEL
 62
13
 10
1589.086
 20
-7599.009
 30
-1114.000
 70
    32
  0
VERTEX
  8
6350LEVEL
 62
13
 10
1581.197
 20
-7591.163
 30
-1114.000
 70
    32
  0
VERTEX
  8
6350LEVEL
 62
13
 10
1566.920
 20
-7584.001
 30
-1114.000
 70
    32
  0
VERTEX
  8
6350LEVEL
 62
13
 10
1555.162
 20
-7581.894
 30
-1114.000
 70
    32
  0
VERTEX
  8
6350LEVEL
 62
13
 10
1529.968
 20
-7569.675
 30
-1114.000
 70
    32
  0
VERTEX
  8
6350LEVEL
 62
13
 10
1491.337
 20
-7549.873
 30
-1114.000
 70
    32
  0
VERTEX
  8
6350LEVEL
 62
13
 10
1485.958
 20
-7542.403
 30
-1114.000
 70
    32
  0
VERTEX
  8
6350LEVEL
 62
13
 10
1482.939
 20
-7531.756
 30
-1114.000
 70
    32
  0
VERTEX
  8
6350LEVEL
 62
13
 10
1486.718
 20
-7511.110
 30
-1114.000
 70
    32
  0
VERTEX
  8
6350LEVEL
 62
13
 10
1493.857
 20
-7485.830
 30
-1114.000
 70
    32
  0
VERTEX
  8
6350LEVEL
 62
13
 10
1494.376
 20
-7478.062
 30
-1114.000
 70
    32
  0
VERTEX
  8
6350LEVEL
 62
13
 10
1497.660
 20
-7419.635
 30
-1114.000
 70
    32
  0
VERTEX
  8
6350LEVEL
 62
13
 10
1484.905
 20
-7371.528
 30
-1114.000
 70
    32
  0
VERTEX
  8
6350LEVEL
 62
13
 10
1469.317
 20
-7382.645
 30
-1114.000
 70
    32
  0
VERTEX
  8
6350LEVEL
 62
13
 10
1467.005
 20
-7409.670
 30
-1114.000
 70
    32
  0
VERTEX
  8
6350LEVEL
 62
13
 10
1468.300
 20
-7440.541
 30
-1114.000
 70
    32
  0
VERTEX
  8
6350LEVEL
 62
13
 10
1467.823
 20
-7460.129
 30
-1114.000
 70
    32
  0
VERTEX
  8
6350LEVEL
 62
13
 10
1466.563
 20
-7486.252
 30
-1114.000
 70
    32
  0
VERTEX
  8
6350LEVEL
 62
13
 10
1466.983
 20
-7507.318
 30
-1114.000
 70
    32
  0
VERTEX
  8
6350LEVEL
 62
13
 10
1463.624
 20
-7530.070
 30
-1114.000
 70
    32
  0
VERTEX
  8
6350LEVEL
 62
13
 10
1467.403
 20
-7542.289
 30
-1114.000
 70
    32
  0
VERTEX
  8
6350LEVEL
 62
13
 10
1473.681
 20
-7551.896
 30
-1114.000
 70
    32
  0
VERTEX
  8
6350LEVEL
 62
13
 10
1478.740
 20
-7559.985
 30
-1114.000
 70
    32
  0
VERTEX
  8
6350LEVEL
 62
13
 10
1521.150
 20
-7585.686
 30
-1114.000
 70
    32
  0
VERTEX
  8
6350LEVEL
 62
13
 10
1543.825
 20
-7605.910
 30
-1114.000
 70
    32
  0
VERTEX
  8
6350LEVEL
 62
13
 10
1552.956
 20
-7625.379
 30
-1114.000
 70
    32
  0
VERTEX
  8
6350LEVEL
 62
13
 10
1608.481
 20
-7740.409
 30
-1114.000
 70
    32
  0
VERTEX
  8
6350LEVEL
 62
13
 10
1599.893
 20
-7740.646
 30
-1114.000
 70
    32
  0
VERTEX
  8
6350LEVEL
 62
13
 10
1572.364
 20
-7714.208
 30
-1114.000
 70
    32
  0
VERTEX
  8
6350LEVEL
 62
13
 10
1567.760
 20
-7728.673
 30
-1114.000
 70
    32
  0
VERTEX
  8
6350LEVEL
 62
13
 10
1596.757
 20
-7764.954
 30
-1114.000
 70
    32
  0
VERTEX
  8
6350LEVEL
 62
13
 10
1575.124
 20
-7763.891
 30
-1114.000
 70
    32
  0
VERTEX
  8
6350LEVEL
 62
13
 10
1543.382
 20
-7739.838
 30
-1114.000
 70
    32
  0
VERTEX
  8
6350LEVEL
 62
13
 10
1554.905
 20
-7783.397
 30
-1114.000
 70
    32
  0
VERTEX
  8
6350LEVEL
 62
13
 10
1543.444
 20
-7814.043
 30
-1114.000
 70
    32
  0
VERTEX
  8
6350LEVEL
 62
13
 10
1513.983
 20
-7815.654
 30
-1114.000
 70
    32
  0
VERTEX
  8
6350LEVEL
 62
13
 10
1495.639
 20
-7805.236
 30
-1114.000
 70
    32
  0
VERTEX
  8
6350LEVEL
 62
13
 10
1470.785
 20
-7804.982
 30
-1114.000
 70
    32
  0
VERTEX
  8
6350LEVEL
 62
13
 10
1506.075
 20
-7867.158
 30
-1114.000
 70
    32
  0
VERTEX
  8
6350LEVEL
 62
13
 10
1522.310
 20
-7947.132
 30
-1114.000
 70
    32
  0
VERTEX
  8
6350LEVEL
 62
13
 10
1492.194
 20
-7906.500
 30
-1114.000
 70
    32
  0
VERTEX
  8
6350LEVEL
 62
13
 10
1490.558
 20
-7903.634
 30
-1114.000
 70
    32
  0
VERTEX
  8
6350LEVEL
 62
13
 10
1477.558
 20
-7884.763
 30
-1114.000
 70
    32
  0
VERTEX
  8
6350LEVEL
 62
13
 10
1469.031
 20
-7875.364
 30
-1114.000
 70
    32
  0
VERTEX
  8
6350LEVEL
 62
13
 10
1460.374
 20
-7889.902
 30
-1114.000
 70
    32
  0
VERTEX
  8
6350LEVEL
 62
13
 10
1460.108
 20
-7955.041
 30
-1114.000
 70
    32
  0
VERTEX
  8
6350LEVEL
 62
13
 10
1477.468
 20
-7997.991
 30
-1114.000
 70
    32
  0
VERTEX
  8
6350LEVEL
 62
13
 10
1477.845
 20
-8007.842
 30
-1114.000
 70
    32
  0
VERTEX
  8
6350LEVEL
 62
13
 10
1469.309
 20
-8003.108
 30
-1114.000
 70
    32
  0
VERTEX
  8
6350LEVEL
 62
13
 10
1466.089
 20
-8003.916
 30
-1114.000
 70
    32
  0
VERTEX
  8
6350LEVEL
 62
13
 10
1471.804
 20
-8028.334
 30
-1114.000
 70
    32
  0
VERTEX
  8
6350LEVEL
 62
13
 10
1501.076
 20
-8084.407
 30
-1114.000
 70
    32
  0
VERTEX
  8
6350LEVEL
 62
13
 10
1519.593
 20
-8124.558
 30
-1114.000
 70
    32
  0
VERTEX
  8
6350LEVEL
 62
13
 10
1523.806
 20
-8206.014
 30
-1114.000
 70
    32
  0
VERTEX
  8
6350LEVEL
 62
13
 10
1535.905
 20
-8256.807
 30
-1114.000
 70
    32
  0
VERTEX
  8
6350LEVEL
 62
13
 10
1553.711
 20
-8330.927
 30
-1114.000
 70
    32
  0
VERTEX
  8
6350LEVEL
 62
13
 10
1565.539
 20
-8374.527
 30
-1114.000
 70
    32
  0
VERTEX
  8
6350LEVEL
 62
13
 10
1590.247
 20
-8450.515
 30
-1114.000
 70
    32
  0
VERTEX
  8
6350LEVEL
 62
13
 10
1591.690
 20
-8457.088
 30
-1114.000
 70
    32
  0
SEQEND
  8
6350LEVEL
  0
POLYLINE
  8
6350LEVEL
 62
5
 66
     1
 70
     9
  0
VERTEX
  8
6350LEVEL
 62
5
 10
6676.097
 20
-10337.392
 30
-1114.000
 70
    32
  0
VERTEX
  8
6350LEVEL
 62
5
 10
6714.884
 20
-10495.636
 30
-1114.000
 70
    32
  0
VERTEX
  8
6350LEVEL
 62
5
 10
6732.656
 20
-10600.616
 30
-1114.000
 70
    32
  0
VERTEX
  8
6350LEVEL
 62
5
 10
6742.908
 20
-10648.831
 30
-1114.000
 70
    32
  0
VERTEX
  8
6350LEVEL
 62
5
 10
6765.123
 20
-10691.576
 30
-1114.000
 70
    32
  0
VERTEX
  8
6350LEVEL
 62
5
 10
6795.541
 20
-10728.164
 30
-1114.000
 70
    32
  0
VERTEX
  8
6350LEVEL
 62
5
 10
6831.085
 20
-10763.728
 30
-1114.000
 70
    32
  0
VERTEX
  8
6350LEVEL
 62
5
 10
6886.768
 20
-10858.013
 30
-1114.000
 70
    32
  0
VERTEX
  8
6350LEVEL
 62
5
 10
6895.971
 20
-10853.226
 30
-1114.000
 70
    32
  0
VERTEX
  8
6350LEVEL
 62
5
 10
6838.604
 20
-10758.256
 30
-1114.000
 70
    32
  0
VERTEX
  8
6350LEVEL
 62
5
 10
6802.376
 20
-10723.035
 30
-1114.000
 70
    32
  0
VERTEX
  8
6350LEVEL
 62
5
 10
6772.642
 20
-10686.104
 30
-1114.000
 70
    32
  0
VERTEX
  8
6350LEVEL
 62
5
 10
6752.136
 20
-10642.676
 30
-1114.000
 70
    32
  0
VERTEX
  8
6350LEVEL
 62
5
 10
6741.542
 20
-10593.777
 30
-1114.000
 70
    32
  0
VERTEX
  8
6350LEVEL
 62
5
 10
6725.478
 20
-10487.771
 30
-1114.000
 70
    32
  0
VERTEX
  8
6350LEVEL
 62
5
 10
6682.840
 20
-10336.277
 30
-1114.000
 70
    32
  0
SEQEND
  8
6350LEVEL
  0
POLYLINE
  8
6350LEVEL
 62
13
 66
     1
 70
     9
  0
VERTEX
  8
6350LEVEL
 62
13
 10
1819.061
 20
-5210.010
 30
-1091.000
 70
    32
  0
VERTEX
  8
6350LEVEL
 62
13
 10
1836.529
 20
-5238.461
 30
-1091.000
 70
    32
  0
VERTEX
  8
6350LEVEL
 62
13
 10
1884.702
 20
-5311.526
 30
-1091.000
 70
    32
  0
VERTEX
  8
6350LEVEL
 62
13
 10
1928.658
 20
-5377.403
 30
-1091.000
 70
    32
  0
VERTEX
  8
6350LEVEL
 62
13
 10
1968.698
 20
-5436.691
 30
-1091.000
 70
    32
  0
VERTEX
  8
6350LEVEL
 62
13
 10
1991.593
 20
-5476.526
 30
-1091.000
 70
    32
  0
VERTEX
  8
6350LEVEL
 62
13
 10
2037.972
 20
-5551.695
 30
-1091.000
 70
    32
  0
VERTEX
  8
6350LEVEL
 62
13
 10
2080.726
 20
-5616.975
 30
-1091.000
 70
    32
  0
VERTEX
  8
6350LEVEL
 62
13
 10
2108.123
 20
-5657.698
 30
-1091.000
 70
    32
  0
VERTEX
  8
6350LEVEL
 62
13
 10
2118.371
 20
-5678.068
 30
-1091.000
 70
    32
  0
VERTEX
  8
6350LEVEL
 62
13
 10
2116.607
 20
-5692.170
 30
-1091.000
 70
    32
  0
VERTEX
  8
6350LEVEL
 62
13
 10
2079.608
 20
-5649.371
 30
-1091.000
 70
    32
  0
VERTEX
  8
6350LEVEL
 62
13
 10
2022.431
 20
-5574.229
 30
-1091.000
 70
    32
  0
VERTEX
  8
6350LEVEL
 62
13
 10
1972.751
 20
-5498.168
 30
-1091.000
 70
    32
  0
VERTEX
  8
6350LEVEL
 62
13
 10
1953.493
 20
-5473.322
 30
-1091.000
 70
    32
  0
VERTEX
  8
6350LEVEL
 62
13
 10
1935.438
 20
-5449.971
 30
-1091.000
 70
    32
  0
VERTEX
  8
6350LEVEL
 62
13
 10
1898.998
 20
-5391.274
 30
-1091.000
 70
    32
  0
VERTEX
  8
6350LEVEL
 62
13
 10
1875.815
 20
-5355.939
 30
-1091.000
 70
    32
  0
VERTEX
  8
6350LEVEL
 62
13
 10
1869.772
 20
-5338.258
 30
-1091.000
 70
    32
  0
VERTEX
  8
6350LEVEL
 62
13
 10
1895.945
 20
-5369.686
 30
-1091.000
 70
    32
  0
VERTEX
  8
6350LEVEL
 62
13
 10
1929.354
 20
-5416.093
 30
-1091.000
 70
    32
  0
VERTEX
  8
6350LEVEL
 62
13
 10
1950.124
 20
-5445.736
 30
-1091.000
 70
    32
  0
VERTEX
  8
6350LEVEL
 62
13
 10
1960.346
 20
-5455.308
 30
-1091.000
 70
    32
  0
VERTEX
  8
6350LEVEL
 62
13
 10
1948.588
 20
-5431.042
 30
-1091.000
 70
    32
  0
VERTEX
  8
6350LEVEL
 62
13
 10
1912.162
 20
-5377.744
 30
-1091.000
 70
    32
  0
VERTEX
  8
6350LEVEL
 62
13
 10
1878.722
 20
-5319.039
 30
-1091.000
 70
    32
  0
VERTEX
  8
6350LEVEL
 62
13
 10
1847.999
 20
-5267.526
 30
-1091.000
 70
    32
  0
VERTEX
  8
6350LEVEL
 62
13
 10
1825.728
 20
-5237.288
 30
-1091.000
 70
    32
  0
SEQEND
  8
6350LEVEL
  0
POLYLINE
  8
6350LEVEL
 62
13
 66
     1
 70
     9
  0
VERTEX
  8
6350LEVEL
 62
13
 10
1976.277
 20
-5348.790
 30
-1091.000
 70
    32
  0
VERTEX
  8
6350LEVEL
 62
13
 10
2046.693
 20
-5440.995
 30
-1091.000
 70
    32
  0
VERTEX
  8
6350LEVEL
 62
13
 10
2115.632
 20
-5541.903
 30
-1091.000
 70
    32
  0
VERTEX
  8
6350LEVEL
 62
13
 10
2168.594
 20
-5611.056
 30
-1091.000
 70
    32
  0
VERTEX
  8
6350LEVEL
 62
13
 10
2190.597
 20
-5654.193
 30
-1091.000
 70
    32
  0
VERTEX
  8
6350LEVEL
 62
13
 10
2209.571
 20
-5685.339
 30
-1091.000
 70
    32
  0
VERTEX
  8
6350LEVEL
 62
13
 10
2209.610
 20
-5700.636
 30
-1091.000
 70
    32
  0
VERTEX
  8
6350LEVEL
 62
13
 10
2188.879
 20
-5686.890
 30
-1091.000
 70
    32
  0
VERTEX
  8
6350LEVEL
 62
13
 10
2170.530
 20
-5665.641
 30
-1091.000
 70
    32
  0
VERTEX
  8
6350LEVEL
 62
13
 10
2143.119
 20
-5619.218
 30
-1091.000
 70
    32
  0
VERTEX
  8
6350LEVEL
 62
13
 10
2103.065
 20
-5554.231
 30
-1091.000
 70
    32
  0
VERTEX
  8
6350LEVEL
 62
13
 10
2054.892
 20
-5481.167
 30
-1091.000
 70
    32
  0
VERTEX
  8
6350LEVEL
 62
13
 10
2025.975
 20
-5432.049
 30
-1091.000
 70
    32
  0
VERTEX
  8
6350LEVEL
 62
13
 10
1994.659
 20
-5383.237
 30
-1091.000
 70
    32
  0
SEQEND
  8
6350LEVEL
  0
POLYLINE
  8
6350LEVEL
 62
13
 66
     1
 70
     9
  0
VERTEX
  8
6350LEVEL
 62
13
 10
2563.513
 20
-5570.477
 30
-1091.000
 70
    32
  0
VERTEX
  8
6350LEVEL
 62
13
 10
2590.858
 20
-5590.505
 30
-1091.000
 70
    32
  0
VERTEX
  8
6350LEVEL
 62
13
 10
2640.531
 20
-5663.566
 30
-1091.000
 70
    32
  0
VERTEX
  8
6350LEVEL
 62
13
 10
2673.654
 20
-5715.673
 30
-1091.000
 70
    32
  0
VERTEX
  8
6350LEVEL
 62
13
 10
2695.950
 20
-5755.509
 30
-1091.000
 70
    32
  0
VERTEX
  8
6350LEVEL
 62
13
 10
2701.987
 20
-5771.091
 30
-1091.000
 70
    32
  0
VERTEX
  8
6350LEVEL
 62
13
 10
2682.119
 20
-5742.346
 30
-1091.000
 70
    32
  0
VERTEX
  8
6350LEVEL
 62
13
 10
2642.400
 20
-5691.456
 30
-1091.000
 70
    32
  0
VERTEX
  8
6350LEVEL
 62
13
 10
2612.307
 20
-5651.639
 30
-1091.000
 70
    32
  0
VERTEX
  8
6350LEVEL
 62
13
 10
2597.547
 20
-5626.781
 30
-1091.000
 70
    32
  0
VERTEX
  8
6350LEVEL
 62
13
 10
2590.312
 20
-5612.102
 30
-1091.000
 70
    32
  0
VERTEX
  8
6350LEVEL
 62
13
 10
2578.269
 20
-5593.836
 30
-1091.000
 70
    32
  0
SEQEND
  8
6350LEVEL
  0
POLYLINE
  8
6350LEVEL
 62
13
 66
     1
 70
     9
  0
VERTEX
  8
6350LEVEL
 62
13
 10
2634.349
 20
-5470.420
 30
-1091.000
 70
    32
  0
VERTEX
  8
6350LEVEL
 62
13
 10
2687.276
 20
-5525.477
 30
-1091.000
 70
    32
  0
VERTEX
  8
6350LEVEL
 62
13
 10
2720.971
 20
-5566.184
 30
-1091.000
 70
    32
  0
VERTEX
  8
6350LEVEL
 62
13
 10
2822.100
 20
-5705.704
 30
-1091.000
 70
    32
  0
VERTEX
  8
6350LEVEL
 62
13
 10
2904.274
 20
-5821.875
 30
-1091.000
 70
    32
  0
VERTEX
  8
6350LEVEL
 62
13
 10
2920.862
 20
-5858.426
 30
-1091.000
 70
    32
  0
VERTEX
  8
6350LEVEL
 62
13
 10
2951.280
 20
-5908.140
 30
-1091.000
 70
    32
  0
VERTEX
  8
6350LEVEL
 62
13
 10
2954.005
 20
-5918.331
 30
-1091.000
 70
    32
  0
VERTEX
  8
6350LEVEL
 62
13
 10
2910.697
 20
-5871.649
 30
-1091.000
 70
    32
  0
VERTEX
  8
6350LEVEL
 62
13
 10
2864.651
 20
-5809.376
 30
-1091.000
 70
    32
  0
VERTEX
  8
6350LEVEL
 62
13
 10
2812.886
 20
-5739.320
 30
-1091.000
 70
    32
  0
VERTEX
  8
6350LEVEL
 62
13
 10
2759.917
 20
-5667.767
 30
-1091.000
 70
    32
  0
VERTEX
  8
6350LEVEL
 62
13
 10
2711.466
 20
-5603.401
 30
-1091.000
 70
    32
  0
VERTEX
  8
6350LEVEL
 62
13
 10
2684.662
 20
-5559.676
 30
-1091.000
 70
    32
  0
VERTEX
  8
6350LEVEL
 62
13
 10
2659.677
 20
-5523.446
 30
-1091.000
 70
    32
  0
VERTEX
  8
6350LEVEL
 62
13
 10
2635.286
 20
-5485.415
 30
-1091.000
 70
    32
  0
SEQEND
  8
6350LEVEL
  0
POLYLINE
  8
6350LEVEL
 62
13
 66
     1
 70
     9
  0
VERTEX
  8
6350LEVEL
 62
13
 10
2897.899
 20
-6031.249
 30
-1091.000
 70
    32
  0
VERTEX
  8
6350LEVEL
 62
13
 10
2955.648
 20
-6095.592
 30
-1091.000
 70
    32
  0
VERTEX
  8
6350LEVEL
 62
13
 10
3017.665
 20
-6187.518
 30
-1091.000
 70
    32
  0
VERTEX
  8
6350LEVEL
 62
13
 10
3079.384
 20
-6280.046
 30
-1091.000
 70
    32
  0
VERTEX
  8
6350LEVEL
 62
13
 10
3137.189
 20
-6366.584
 30
-1091.000
 70
    32
  0
VERTEX
  8
6350LEVEL
 62
13
 10
3175.733
 20
-6427.075
 30
-1091.000
 70
    32
  0
VERTEX
  8
6350LEVEL
 62
13
 10
3213.079
 20
-6488.470
 30
-1091.000
 70
    32
  0
VERTEX
  8
6350LEVEL
 62
13
 10
3172.471
 20
-6442.080
 30
-1091.000
 70
    32
  0
VERTEX
  8
6350LEVEL
 62
13
 10
3146.597
 20
-6410.351
 30
-1091.000
 70
    32
  0
VERTEX
  8
6350LEVEL
 62
13
 10
3089.081
 20
-6319.613
 30
-1091.000
 70
    32
  0
VERTEX
  8
6350LEVEL
 62
13
 10
3014.131
 20
-6213.622
 30
-1091.000
 70
    32
  0
VERTEX
  8
6350LEVEL
 62
13
 10
2970.465
 20
-6143.545
 30
-1091.000
 70
    32
  0
VERTEX
  8
6350LEVEL
 62
13
 10
2940.965
 20
-6101.327
 30
-1091.000
 70
    32
  0
VERTEX
  8
6350LEVEL
 62
13
 10
2909.361
 20
-6057.315
 30
-1091.000
 70
    32
  0
SEQEND
  8
6350LEVEL
  0
POLYLINE
  8
6350LEVEL
 62
13
 66
     1
 70
     9
  0
VERTEX
  8
6350LEVEL
 62
13
 10
2320.032
 20
-5838.332
 30
-1091.000
 70
    32
  0
VERTEX
  8
6350LEVEL
 62
13
 10
2359.768
 20
-5896.121
 30
-1091.000
 70
    32
  0
VERTEX
  8
6350LEVEL
 62
13
 10
2397.672
 20
-5940.418
 30
-1091.000
 70
    32
  0
VERTEX
  8
6350LEVEL
 62
13
 10
2456.986
 20
-6030.851
 30
-1091.000
 70
    32
  0
VERTEX
  8
6350LEVEL
 62
13
 10
2511.761
 20
-6105.400
 30
-1091.000
 70
    32
  0
VERTEX
  8
6350LEVEL
 62
13
 10
2527.141
 20
-6138.654
 30
-1091.000
 70
    32
  0
VERTEX
  8
6350LEVEL
 62
13
 10
2548.823
 20
-6173.093
 30
-1091.000
 70
    32
  0
VERTEX
  8
6350LEVEL
 62
13
 10
2551.245
 20
-6182.085
 30
-1091.000
 70
    32
  0
VERTEX
  8
6350LEVEL
 62
13
 10
2509.444
 20
-6138.399
 30
-1091.000
 70
    32
  0
VERTEX
  8
6350LEVEL
 62
13
 10
2453.441
 20
-6052.756
 30
-1091.000
 70
    32
  0
VERTEX
  8
6350LEVEL
 62
13
 10
2412.197
 20
-5991.671
 30
-1091.000
 70
    32
  0
VERTEX
  8
6350LEVEL
 62
13
 10
2379.078
 20
-5941.664
 30
-1091.000
 70
    32
  0
VERTEX
  8
6350LEVEL
 62
13
 10
2350.167
 20
-5894.646
 30
-1091.000
 70
    32
  0
VERTEX
  8
6350LEVEL
 62
13
 10
2333.314
 20
-5872.192
 30
-1091.000
 70
    32
  0
VERTEX
  8
6350LEVEL
 62
13
 10
2320.662
 20
-5850.328
 30
-1091.000
 70
    32
  0
SEQEND
  8
6350LEVEL
  0
POLYLINE
  8
6350LEVEL
 62
13
 66
     1
 70
     9
  0
VERTEX
  8
6350LEVEL
 62
13
 10
3097.268
 20
-6115.034
 30
-1091.000
 70
    32
  0
VERTEX
  8
6350LEVEL
 62
13
 10
3156.243
 20
-6189.571
 30
-1091.000
 70
    32
  0
VERTEX
  8
6350LEVEL
 62
13
 10
3220.354
 20
-6279.093
 30
-1091.000
 70
    32
  0
VERTEX
  8
6350LEVEL
 62
13
 10
3254.371
 20
-6328.798
 30
-1091.000
 70
    32
  0
VERTEX
  8
6350LEVEL
 62
13
 10
3268.239
 20
-6357.258
 30
-1091.000
 70
    32
  0
VERTEX
  8
6350LEVEL
 62
13
 10
3233.630
 20
-6310.854
 30
-1091.000
 70
    32
  0
VERTEX
  8
6350LEVEL
 62
13
 10
3180.664
 20
-6239.900
 30
-1091.000
 70
    32
  0
VERTEX
  8
6350LEVEL
 62
13
 10
3125.881
 20
-6162.353
 30
-1091.000
 70
    32
  0
VERTEX
  8
6350LEVEL
 62
13
 10
3113.539
 20
-6144.687
 30
-1091.000
 70
    32
  0
SEQEND
  8
6350LEVEL
  0
POLYLINE
  8
6350LEVEL
 62
13
 66
     1
 70
     9
  0
VERTEX
  8
6350LEVEL
 62
13
 10
3308.487
 20
-6619.605
 30
-1091.000
 70
    32
  0
VERTEX
  8
6350LEVEL
 62
13
 10
3362.331
 20
-6681.558
 30
-1091.000
 70
    32
  0
VERTEX
  8
6350LEVEL
 62
13
 10
3525.156
 20
-6904.306
 30
-1091.000
 70
    32
  0
VERTEX
  8
6350LEVEL
 62
13
 10
3714.764
 20
-7162.980
 30
-1091.000
 70
    32
  0
VERTEX
  8
6350LEVEL
 62
13
 10
3918.806
 20
-7436.016
 30
-1091.000
 70
    32
  0
VERTEX
  8
6350LEVEL
 62
13
 10
4101.214
 20
-7693.508
 30
-1091.000
 70
    32
  0
VERTEX
  8
6350LEVEL
 62
13
 10
4217.374
 20
-7847.087
 30
-1091.000
 70
    32
  0
VERTEX
  8
6350LEVEL
 62
13
 10
4294.429
 20
-7955.173
 30
-1091.000
 70
    32
  0
VERTEX
  8
6350LEVEL
 62
13
 10
4374.194
 20
-8067.451
 30
-1091.000
 70
    32
  0
VERTEX
  8
6350LEVEL
 62
13
 10
4343.221
 20
-8036.035
 30
-1091.000
 70
    32
  0
VERTEX
  8
6350LEVEL
 62
13
 10
4251.771
 20
-7928.585
 30
-1091.000
 70
    32
  0
VERTEX
  8
6350LEVEL
 62
13
 10
4144.026
 20
-7781.884
 30
-1091.000
 70
    32
  0
VERTEX
  8
6350LEVEL
 62
13
 10
3991.432
 20
-7572.307
 30
-1091.000
 70
    32
  0
VERTEX
  8
6350LEVEL
 62
13
 10
3841.258
 20
-7370.523
 30
-1091.000
 70
    32
  0
VERTEX
  8
6350LEVEL
 62
13
 10
3670.284
 20
-7127.099
 30
-1091.000
 70
    32
  0
VERTEX
  8
6350LEVEL
 62
13
 10
3517.106
 20
-6923.822
 30
-1091.000
 70
    32
  0
VERTEX
  8
6350LEVEL
 62
13
 10
3437.321
 20
-6803.446
 30
-1091.000
 70
    32
  0
VERTEX
  8
6350LEVEL
 62
13
 10
3372.637
 20
-6724.723
 30
-1091.000
 70
    32
  0
VERTEX
  8
6350LEVEL
 62
13
 10
3330.186
 20
-6660.642
 30
-1091.000
 70
    32
  0
VERTEX
  8
6350LEVEL
 62
13
 10
3322.339
 20
-6641.466
 30
-1091.000
 70
    32
  0
SEQEND
  8
6350LEVEL
  0
ENDSEC
  0
EOF
