999
********************************
999
*   DXF File - Entities Only   *
999
*        3D Data Format        *
999
*     Output from ENVISAGE     *
999
*     28-Dec-2007 13:45:08     *
999
********************************
  0
SECTION 
  2
HEADER
  9
$ACADVER
  1
AC1009
  9
$EXTMIN
 10
-290000.000
 20
-250000.000
 30
-4000.000
  9
$EXTMAX
 10
5000000.000
 20
600000.000
 30
6000.000
  0
ENDSEC
  0
SECTION
  2
ENTITIES
  0
POLYLINE
  8
0700LEVEL
 62
7
 66
     1
 70
     8
  0
VERTEX
  8
0700LEVEL
 62
7
 10
1921.869
 20
188.079
 30
4527.000
 70
    32
  0
VERTEX
  8
0700LEVEL
 62
7
 10
1899.608
 20
136.113
 30
4527.000
 70
    32
  0
VERTEX
  8
0700LEVEL
 62
7
 10
1863.326
 20
33.360
 30
4527.000
 70
    32
  0
VERTEX
  8
0700LEVEL
 62
7
 10
1827.192
 20
-28.175
 30
4527.000
 70
    32
  0
VERTEX
  8
0700LEVEL
 62
7
 10
1792.163
 20
-72.035
 30
4527.000
 70
    32
  0
VERTEX
  8
0700LEVEL
 62
7
 10
1757.221
 20
-126.218
 30
4527.000
 70
    32
  0
VERTEX
  8
0700LEVEL
 62
7
 10
1729.650
 20
-158.211
 30
4527.000
 70
    32
  0
VERTEX
  8
0700LEVEL
 62
7
 10
1699.419
 20
-141.488
 30
4527.000
 70
    32
  0
VERTEX
  8
0700LEVEL
 62
7
 10
1680.373
 20
-134.878
 30
4527.000
 70
    32
  0
VERTEX
  8
0700LEVEL
 62
7
 10
1669.279
 20
-183.122
 30
4527.000
 70
    32
  0
VERTEX
  8
0700LEVEL
 62
7
 10
1676.270
 20
-233.043
 30
4527.000
 70
    32
  0
VERTEX
  8
0700LEVEL
 62
7
 10
1680.891
 20
-282.076
 30
4527.000
 70
    32
  0
VERTEX
  8
0700LEVEL
 62
7
 10
1665.425
 20
-320.055
 30
4527.000
 70
    32
  0
VERTEX
  8
0700LEVEL
 62
7
 10
1643.815
 20
-352.511
 30
4527.000
 70
    32
  0
VERTEX
  8
0700LEVEL
 62
7
 10
1648.721
 20
-382.730
 30
4527.000
 70
    32
  0
VERTEX
  8
0700LEVEL
 62
7
 10
1640.984
 20
-424.226
 30
4527.000
 70
    32
  0
VERTEX
  8
0700LEVEL
 62
7
 10
1625.495
 20
-400.338
 30
4527.000
 70
    32
  0
VERTEX
  8
0700LEVEL
 62
7
 10
1614.926
 20
-391.079
 30
4527.000
 70
    32
  0
VERTEX
  8
0700LEVEL
 62
7
 10
1583.646
 20
-452.144
 30
4527.000
 70
    32
  0
VERTEX
  8
0700LEVEL
 62
7
 10
1565.877
 20
-467.117
 30
4527.000
 70
    32
  0
VERTEX
  8
0700LEVEL
 62
7
 10
1559.955
 20
-512.931
 30
4527.000
 70
    32
  0
VERTEX
  8
0700LEVEL
 62
7
 10
1554.972
 20
-568.454
 30
4527.000
 70
    32
  0
VERTEX
  8
0700LEVEL
 62
7
 10
1548.514
 20
-612.924
 30
4527.000
 70
    32
  0
VERTEX
  8
0700LEVEL
 62
7
 10
1526.340
 20
-637.996
 30
4527.000
 70
    32
  0
VERTEX
  8
0700LEVEL
 62
7
 10
1502.103
 20
-619.981
 30
4527.000
 70
    32
  0
VERTEX
  8
0700LEVEL
 62
7
 10
1490.793
 20
-590.484
 30
4527.000
 70
    32
  0
VERTEX
  8
0700LEVEL
 62
7
 10
1470.091
 20
-578.576
 30
4527.000
 70
    32
  0
VERTEX
  8
0700LEVEL
 62
7
 10
1460.150
 20
-610.410
 30
4527.000
 70
    32
  0
VERTEX
  8
0700LEVEL
 62
7
 10
1446.929
 20
-667.112
 30
4527.000
 70
    32
  0
VERTEX
  8
0700LEVEL
 62
7
 10
1428.000
 20
-724.899
 30
4527.000
 70
    32
  0
VERTEX
  8
0700LEVEL
 62
7
 10
1406.362
 20
-769.924
 30
4527.000
 70
    32
  0
VERTEX
  8
0700LEVEL
 62
7
 10
1376.136
 20
-801.234
 30
4527.000
 70
    32
  0
VERTEX
  8
0700LEVEL
 62
7
 10
1339.029
 20
-817.597
 30
4527.000
 70
    32
  0
VERTEX
  8
0700LEVEL
 62
7
 10
1300.884
 20
-810.907
 30
4527.000
 70
    32
  0
VERTEX
  8
0700LEVEL
 62
7
 10
1277.401
 20
-797.541
 30
4527.000
 70
    32
  0
VERTEX
  8
0700LEVEL
 62
7
 10
1252.766
 20
-781.978
 30
4527.000
 70
    32
  0
VERTEX
  8
0700LEVEL
 62
7
 10
1262.063
 20
-817.687
 30
4527.000
 70
    32
  0
VERTEX
  8
0700LEVEL
 62
7
 10
1277.035
 20
-854.064
 30
4527.000
 70
    32
  0
VERTEX
  8
0700LEVEL
 62
7
 10
1302.529
 20
-917.045
 30
4527.000
 70
    32
  0
VERTEX
  8
0700LEVEL
 62
7
 10
1335.678
 20
-994.848
 30
4527.000
 70
    32
  0
VERTEX
  8
0700LEVEL
 62
7
 10
1366.350
 20
-1066.213
 30
4527.000
 70
    32
  0
VERTEX
  8
0700LEVEL
 62
7
 10
1398.957
 20
-1131.856
 30
4527.000
 70
    32
  0
VERTEX
  8
0700LEVEL
 62
7
 10
1420.200
 20
-1193.142
 30
4527.000
 70
    32
  0
VERTEX
  8
0700LEVEL
 62
7
 10
1424.304
 20
-1236.056
 30
4527.000
 70
    32
  0
VERTEX
  8
0700LEVEL
 62
7
 10
1401.184
 20
-1240.605
 30
4527.000
 70
    32
  0
VERTEX
  8
0700LEVEL
 62
7
 10
1380.244
 20
-1248.776
 30
4527.000
 70
    32
  0
VERTEX
  8
0700LEVEL
 62
7
 10
1382.104
 20
-1272.968
 30
4527.000
 70
    32
  0
VERTEX
  8
0700LEVEL
 62
7
 10
1389.487
 20
-1291.015
 30
4527.000
 70
    32
  0
VERTEX
  8
0700LEVEL
 62
7
 10
1396.022
 20
-1320.491
 30
4527.000
 70
    32
  0
VERTEX
  8
0700LEVEL
 62
7
 10
1435.379
 20
-1352.274
 30
4527.000
 70
    32
  0
VERTEX
  8
0700LEVEL
 62
7
 10
1472.291
 20
-1394.474
 30
4527.000
 70
    32
  0
VERTEX
  8
0700LEVEL
 62
7
 10
1506.653
 20
-1441.542
 30
4527.000
 70
    32
  0
VERTEX
  8
0700LEVEL
 62
7
 10
1518.850
 20
-1487.277
 30
4527.000
 70
    32
  0
VERTEX
  8
0700LEVEL
 62
7
 10
1520.332
 20
-1527.754
 30
4527.000
 70
    32
  0
VERTEX
  8
0700LEVEL
 62
7
 10
1523.462
 20
-1581.324
 30
4527.000
 70
    32
  0
VERTEX
  8
0700LEVEL
 62
7
 10
1518.281
 20
-1628.767
 30
4527.000
 70
    32
  0
VERTEX
  8
0700LEVEL
 62
7
 10
1502.988
 20
-1687.395
 30
4527.000
 70
    32
  0
VERTEX
  8
0700LEVEL
 62
7
 10
1492.787
 20
-1725.474
 30
4527.000
 70
    32
  0
VERTEX
  8
0700LEVEL
 62
7
 10
1472.463
 20
-1734.500
 30
4527.000
 70
    32
  0
VERTEX
  8
0700LEVEL
 62
7
 10
1446.782
 20
-1703.678
 30
4527.000
 70
    32
  0
VERTEX
  8
0700LEVEL
 62
7
 10
1417.777
 20
-1659.240
 30
4527.000
 70
    32
  0
VERTEX
  8
0700LEVEL
 62
7
 10
1393.891
 20
-1618.901
 30
4527.000
 70
    32
  0
VERTEX
  8
0700LEVEL
 62
7
 10
1363.164
 20
-1591.284
 30
4527.000
 70
    32
  0
VERTEX
  8
0700LEVEL
 62
7
 10
1361.481
 20
-1617.165
 30
4527.000
 70
    32
  0
VERTEX
  8
0700LEVEL
 62
7
 10
1371.876
 20
-1661.602
 30
4527.000
 70
    32
  0
VERTEX
  8
0700LEVEL
 62
7
 10
1389.424
 20
-1717.761
 30
4527.000
 70
    32
  0
VERTEX
  8
0700LEVEL
 62
7
 10
1407.441
 20
-1778.775
 30
4527.000
 70
    32
  0
VERTEX
  8
0700LEVEL
 62
7
 10
1421.181
 20
-1832.054
 30
4527.000
 70
    32
  0
VERTEX
  8
0700LEVEL
 62
7
 10
1415.710
 20
-1850.279
 30
4527.000
 70
    32
  0
VERTEX
  8
0700LEVEL
 62
7
 10
1411.947
 20
-1885.881
 30
4527.000
 70
    32
  0
VERTEX
  8
0700LEVEL
 62
7
 10
1428.462
 20
-1929.802
 30
4527.000
 70
    32
  0
VERTEX
  8
0700LEVEL
 62
7
 10
1456.719
 20
-1961.796
 30
4527.000
 70
    32
  0
VERTEX
  8
0700LEVEL
 62
7
 10
1479.108
 20
-1995.857
 30
4527.000
 70
    32
  0
VERTEX
  8
0700LEVEL
 62
7
 10
1482.748
 20
-2044.731
 30
4527.000
 70
    32
  0
VERTEX
  8
0700LEVEL
 62
7
 10
1482.680
 20
-2104.069
 30
4527.000
 70
    32
  0
VERTEX
  8
0700LEVEL
 62
7
 10
1479.757
 20
-2154.644
 30
4527.000
 70
    32
  0
VERTEX
  8
0700LEVEL
 62
7
 10
1471.067
 20
-2202.021
 30
4527.000
 70
    32
  0
VERTEX
  8
0700LEVEL
 62
7
 10
1466.084
 20
-2257.544
 30
4527.000
 70
    32
  0
VERTEX
  8
0700LEVEL
 62
7
 10
1450.375
 20
-2286.179
 30
4527.000
 70
    32
  0
VERTEX
  8
0700LEVEL
 62
7
 10
1417.878
 20
-2274.118
 30
4527.000
 70
    32
  0
VERTEX
  8
0700LEVEL
 62
7
 10
1387.304
 20
-2234.707
 30
4527.000
 70
    32
  0
VERTEX
  8
0700LEVEL
 62
7
 10
1351.874
 20
-2214.374
 30
4527.000
 70
    32
  0
VERTEX
  8
0700LEVEL
 62
7
 10
1314.353
 20
-2182.134
 30
4527.000
 70
    32
  0
VERTEX
  8
0700LEVEL
 62
7
 10
1280.818
 20
-2128.411
 30
4527.000
 70
    32
  0
VERTEX
  8
0700LEVEL
 62
7
 10
1249.642
 20
-2072.556
 30
4527.000
 70
    32
  0
VERTEX
  8
0700LEVEL
 62
7
 10
1226.393
 20
-2009.688
 30
4527.000
 70
    32
  0
VERTEX
  8
0700LEVEL
 62
7
 10
1206.210
 20
-1948.071
 30
4527.000
 70
    32
  0
VERTEX
  8
0700LEVEL
 62
7
 10
1180.895
 20
-1879.335
 30
4527.000
 70
    32
  0
VERTEX
  8
0700LEVEL
 62
7
 10
1162.957
 20
-1817.832
 30
4527.000
 70
    32
  0
VERTEX
  8
0700LEVEL
 62
7
 10
1160.986
 20
-1758.666
 30
4527.000
 70
    32
  0
VERTEX
  8
0700LEVEL
 62
7
 10
1140.908
 20
-1721.209
 30
4527.000
 70
    32
  0
VERTEX
  8
0700LEVEL
 62
7
 10
1126.045
 20
-1775.632
 30
4527.000
 70
    32
  0
VERTEX
  8
0700LEVEL
 62
7
 10
1097.453
 20
-1835.624
 30
4527.000
 70
    32
  0
VERTEX
  8
0700LEVEL
 62
7
 10
1113.278
 20
-1908.604
 30
4527.000
 70
    32
  0
VERTEX
  8
0700LEVEL
 62
7
 10
1130.257
 20
-1927.956
 30
4527.000
 70
    32
  0
VERTEX
  8
0700LEVEL
 62
7
 10
1147.123
 20
-1968.162
 30
4527.000
 70
    32
  0
VERTEX
  8
0700LEVEL
 62
7
 10
1147.069
 20
-1993.301
 30
4527.000
 70
    32
  0
VERTEX
  8
0700LEVEL
 62
7
 10
1163.160
 20
-2033.632
 30
4527.000
 70
    32
  0
VERTEX
  8
0700LEVEL
 62
7
 10
1191.695
 20
-2073.216
 30
4527.000
 70
    32
  0
VERTEX
  8
0700LEVEL
 62
7
 10
1222.461
 20
-2128.502
 30
4527.000
 70
    32
  0
VERTEX
  8
0700LEVEL
 62
7
 10
1236.095
 20
-2176.231
 30
4527.000
 70
    32
  0
VERTEX
  8
0700LEVEL
 62
7
 10
1225.101
 20
-2200.601
 30
4527.000
 70
    32
  0
VERTEX
  8
0700LEVEL
 62
7
 10
1203.942
 20
-2186.858
 30
4527.000
 70
    32
  0
VERTEX
  8
0700LEVEL
 62
7
 10
1182.288
 20
-2162.222
 30
4527.000
 70
    32
  0
VERTEX
  8
0700LEVEL
 62
7
 10
1168.554
 20
-2138.367
 30
4527.000
 70
    32
  0
VERTEX
  8
0700LEVEL
 62
7
 10
1146.143
 20
-2127.691
 30
4527.000
 70
    32
  0
VERTEX
  8
0700LEVEL
 62
7
 10
1114.415
 20
-2123.299
 30
4527.000
 70
    32
  0
VERTEX
  8
0700LEVEL
 62
7
 10
1083.516
 20
-2093.642
 30
4527.000
 70
    32
  0
VERTEX
  8
0700LEVEL
 62
7
 10
933.246
 20
-2063.484
 30
4527.000
 70
    32
  0
VERTEX
  8
0700LEVEL
 62
7
 10
923.499
 20
-2036.755
 30
4527.000
 70
    32
  0
VERTEX
  8
0700LEVEL
 62
7
 10
922.295
 20
-2003.868
 30
4527.000
 70
    32
  0
VERTEX
  8
0700LEVEL
 62
7
 10
894.680
 20
-1978.767
 30
4527.000
 70
    32
  0
VERTEX
  8
0700LEVEL
 62
7
 10
864.807
 20
-1950.535
 30
4527.000
 70
    32
  0
VERTEX
  8
0700LEVEL
 62
7
 10
826.775
 20
-1922.990
 30
4527.000
 70
    32
  0
VERTEX
  8
0700LEVEL
 62
7
 10
788.108
 20
-1880.757
 30
4527.000
 70
    32
  0
VERTEX
  8
0700LEVEL
 62
7
 10
788.209
 20
-1838.274
 30
4527.000
 70
    32
  0
VERTEX
  8
0700LEVEL
 62
7
 10
792.654
 20
-1800.016
 30
4527.000
 70
    32
  0
VERTEX
  8
0700LEVEL
 62
7
 10
762.299
 20
-1745.299
 30
4527.000
 70
    32
  0
VERTEX
  8
0700LEVEL
 62
7
 10
752.188
 20
-1700.657
 30
4527.000
 70
    32
  0
VERTEX
  8
0700LEVEL
 62
7
 10
738.395
 20
-1672.517
 30
4527.000
 70
    32
  0
VERTEX
  8
0700LEVEL
 62
7
 10
698.403
 20
-1626.046
 30
4527.000
 70
    32
  0
VERTEX
  8
0700LEVEL
 62
7
 10
675.829
 20
-1586.926
 30
4527.000
 70
    32
  0
VERTEX
  8
0700LEVEL
 62
7
 10
653.499
 20
-1557.150
 30
4527.000
 70
    32
  0
VERTEX
  8
0700LEVEL
 62
7
 10
608.845
 20
-1527.022
 30
4527.000
 70
    32
  0
VERTEX
  8
0700LEVEL
 62
7
 10
568.078
 20
-1499.286
 30
4527.000
 70
    32
  0
VERTEX
  8
0700LEVEL
 62
7
 10
542.224
 20
-1485.033
 30
4527.000
 70
    32
  0
VERTEX
  8
0700LEVEL
 62
7
 10
512.721
 20
-1466.919
 30
4527.000
 70
    32
  0
VERTEX
  8
0700LEVEL
 62
7
 10
499.893
 20
-1491.747
 30
4527.000
 70
    32
  0
VERTEX
  8
0700LEVEL
 62
7
 10
529.746
 20
-1524.754
 30
4527.000
 70
    32
  0
VERTEX
  8
0700LEVEL
 62
7
 10
566.042
 20
-1566.100
 30
4527.000
 70
    32
  0
VERTEX
  8
0700LEVEL
 62
7
 10
593.769
 20
-1607.565
 30
4527.000
 70
    32
  0
VERTEX
  8
0700LEVEL
 62
7
 10
628.945
 20
-1663.566
 30
4527.000
 70
    32
  0
VERTEX
  8
0700LEVEL
 62
7
 10
645.745
 20
-1707.282
 30
4527.000
 70
    32
  0
VERTEX
  8
0700LEVEL
 62
7
 10
634.472
 20
-1724.063
 30
4527.000
 70
    32
  0
VERTEX
  8
0700LEVEL
 62
7
 10
628.326
 20
-1755.758
 30
4527.000
 70
    32
  0
VERTEX
  8
0700LEVEL
 62
7
 10
617.239
 20
-1777.598
 30
4527.000
 70
    32
  0
VERTEX
  8
0700LEVEL
 62
7
 10
585.404
 20
-1786.266
 30
4527.000
 70
    32
  0
VERTEX
  8
0700LEVEL
 62
7
 10
563.663
 20
-1769.914
 30
4527.000
 70
    32
  0
VERTEX
  8
0700LEVEL
 62
7
 10
539.246
 20
-1757.655
 30
4527.000
 70
    32
  0
VERTEX
  8
0700LEVEL
 62
7
 10
552.060
 20
-1785.635
 30
4527.000
 70
    32
  0
VERTEX
  8
0700LEVEL
 62
7
 10
578.667
 20
-1823.146
 30
4527.000
 70
    32
  0
VERTEX
  8
0700LEVEL
 62
7
 10
603.176
 20
-1856.544
 30
4527.000
 70
    32
  0
VERTEX
  8
0700LEVEL
 62
7
 10
620.864
 20
-1879.280
 30
4527.000
 70
    32
  0
VERTEX
  8
0700LEVEL
 62
7
 10
659.802
 20
-1918.288
 30
4527.000
 70
    32
  0
VERTEX
  8
0700LEVEL
 62
7
 10
700.873
 20
-1959.654
 30
4527.000
 70
    32
  0
VERTEX
  8
0700LEVEL
 62
7
 10
719.104
 20
-1994.548
 30
4527.000
 70
    32
  0
VERTEX
  8
0700LEVEL
 62
7
 10
687.978
 20
-1987.991
 30
4527.000
 70
    32
  0
VERTEX
  8
0700LEVEL
 62
7
 10
697.851
 20
-2015.495
 30
4527.000
 70
    32
  0
VERTEX
  8
0700LEVEL
 62
7
 10
723.321
 20
-2035.217
 30
4527.000
 70
    32
  0
VERTEX
  8
0700LEVEL
 62
7
 10
759.929
 20
-2045.179
 30
4527.000
 70
    32
  0
VERTEX
  8
0700LEVEL
 62
7
 10
783.611
 20
-2066.624
 30
4527.000
 70
    32
  0
VERTEX
  8
0700LEVEL
 62
7
 10
796.570
 20
-2090.604
 30
4527.000
 70
    32
  0
VERTEX
  8
0700LEVEL
 62
7
 10
782.312
 20
-2087.034
 30
4527.000
 70
    32
  0
VERTEX
  8
0700LEVEL
 62
7
 10
764.704
 20
-2063.808
 30
4527.000
 70
    32
  0
VERTEX
  8
0700LEVEL
 62
7
 10
735.075
 20
-2063.529
 30
4527.000
 70
    32
  0
VERTEX
  8
0700LEVEL
 62
7
 10
701.406
 20
-2054.044
 30
4527.000
 70
    32
  0
VERTEX
  8
0700LEVEL
 62
7
 10
667.785
 20
-2027.215
 30
4527.000
 70
    32
  0
VERTEX
  8
0700LEVEL
 62
7
 10
637.011
 20
-1998.333
 30
4527.000
 70
    32
  0
VERTEX
  8
0700LEVEL
 62
7
 10
596.450
 20
-1952.272
 30
4527.000
 70
    32
  0
VERTEX
  8
0700LEVEL
 62
7
 10
569.498
 20
-1910.682
 30
4527.000
 70
    32
  0
VERTEX
  8
0700LEVEL
 62
7
 10
562.181
 20
-1889.125
 30
4527.000
 70
    32
  0
VERTEX
  8
0700LEVEL
 62
7
 10
556.917
 20
-1870.417
 30
4527.000
 70
    32
  0
VERTEX
  8
0700LEVEL
 62
7
 10
537.197
 20
-1840.058
 30
4527.000
 70
    32
  0
VERTEX
  8
0700LEVEL
 62
7
 10
505.715
 20
-1807.792
 30
4527.000
 70
    32
  0
VERTEX
  8
0700LEVEL
 62
7
 10
466.107
 20
-1774.460
 30
4527.000
 70
    32
  0
VERTEX
  8
0700LEVEL
 62
7
 10
419.035
 20
-1742.180
 30
4527.000
 70
    32
  0
VERTEX
  8
0700LEVEL
 62
7
 10
399.313
 20
-1749.040
 30
4527.000
 70
    32
  0
VERTEX
  8
0700LEVEL
 62
7
 10
374.870
 20
-1730.741
 30
4527.000
 70
    32
  0
VERTEX
  8
0700LEVEL
 62
7
 10
338.998
 20
-1692.985
 30
4527.000
 70
    32
  0
VERTEX
  8
0700LEVEL
 62
7
 10
287.794
 20
-1648.970
 30
4527.000
 70
    32
  0
VERTEX
  8
0700LEVEL
 62
7
 10
244.545
 20
-1603.981
 30
4527.000
 70
    32
  0
VERTEX
  8
0700LEVEL
 62
7
 10
208.335
 20
-1554.351
 30
4527.000
 70
    32
  0
VERTEX
  8
0700LEVEL
 62
7
 10
180.317
 20
-1502.277
 30
4527.000
 70
    32
  0
VERTEX
  8
0700LEVEL
 62
7
 10
155.518
 20
-1439.660
 30
4527.000
 70
    32
  0
VERTEX
  8
0700LEVEL
 62
7
 10
142.879
 20
-1376.501
 30
4527.000
 70
    32
  0
VERTEX
  8
0700LEVEL
 62
7
 10
116.623
 20
-1316.666
 30
4527.000
 70
    32
  0
VERTEX
  8
0700LEVEL
 62
7
 10
86.857
 20
-1256.764
 30
4527.000
 70
    32
  0
VERTEX
  8
0700LEVEL
 62
7
 10
50.482
 20
-1197.299
 30
4527.000
 70
    32
  0
VERTEX
  8
0700LEVEL
 62
7
 10
31.973
 20
-1173.425
 30
4527.000
 70
    32
  0
VERTEX
  8
0700LEVEL
 62
7
 10
-17.197
 20
-1137.032
 30
4527.000
 70
    32
  0
VERTEX
  8
0700LEVEL
 62
7
 10
-61.758
 20
-1090.825
 30
4527.000
 70
    32
  0
VERTEX
  8
0700LEVEL
 62
7
 10
-92.121
 20
-1043.903
 30
4527.000
 70
    32
  0
VERTEX
  8
0700LEVEL
 62
7
 10
-103.244
 20
-982.248
 30
4527.000
 70
    32
  0
VERTEX
  8
0700LEVEL
 62
7
 10
-124.812
 20
-949.326
 30
4527.000
 70
    32
  0
VERTEX
  8
0700LEVEL
 62
7
 10
-132.151
 20
-969.763
 30
4527.000
 70
    32
  0
SEQEND
  8
0700LEVEL
  0
POLYLINE
  8
0700LEVEL
 62
7
 66
     1
 70
     8
  0
VERTEX
  8
0700LEVEL
 62
7
 10
-98.555
 20
-1131.631
 30
4527.000
 70
    32
  0
VERTEX
  8
0700LEVEL
 62
7
 10
-84.940
 20
-1165.526
 30
4527.000
 70
    32
  0
VERTEX
  8
0700LEVEL
 62
7
 10
-59.863
 20
-1217.123
 30
4527.000
 70
    32
  0
VERTEX
  8
0700LEVEL
 62
7
 10
-29.123
 20
-1266.369
 30
4527.000
 70
    32
  0
VERTEX
  8
0700LEVEL
 62
7
 10
21.299
 20
-1318.304
 30
4527.000
 70
    32
  0
VERTEX
  8
0700LEVEL
 62
7
 10
50.766
 20
-1375.392
 30
4527.000
 70
    32
  0
VERTEX
  8
0700LEVEL
 62
7
 10
68.677
 20
-1449.465
 30
4527.000
 70
    32
  0
VERTEX
  8
0700LEVEL
 62
7
 10
92.450
 20
-1510.658
 30
4527.000
 70
    32
  0
VERTEX
  8
0700LEVEL
 62
7
 10
114.415
 20
-1541.129
 30
4527.000
 70
    32
  0
VERTEX
  8
0700LEVEL
 62
7
 10
170.367
 20
-1579.124
 30
4527.000
 70
    32
  0
VERTEX
  8
0700LEVEL
 62
7
 10
206.446
 20
-1598.556
 30
4527.000
 70
    32
  0
VERTEX
  8
0700LEVEL
 62
7
 10
231.113
 20
-1630.974
 30
4527.000
 70
    32
  0
VERTEX
  8
0700LEVEL
 62
7
 10
244.972
 20
-1674.213
 30
4527.000
 70
    32
  0
VERTEX
  8
0700LEVEL
 62
7
 10
260.904
 20
-1734.134
 30
4527.000
 70
    32
  0
VERTEX
  8
0700LEVEL
 62
7
 10
296.457
 20
-1811.069
 30
4527.000
 70
    32
  0
VERTEX
  8
0700LEVEL
 62
7
 10
355.348
 20
-1886.760
 30
4527.000
 70
    32
  0
VERTEX
  8
0700LEVEL
 62
7
 10
370.585
 20
-1909.098
 30
4527.000
 70
    32
  0
VERTEX
  8
0700LEVEL
 62
7
 10
383.054
 20
-1932.999
 30
4527.000
 70
    32
  0
VERTEX
  8
0700LEVEL
 62
7
 10
398.013
 20
-1966.357
 30
4527.000
 70
    32
  0
VERTEX
  8
0700LEVEL
 62
7
 10
434.872
 20
-2015.087
 30
4527.000
 70
    32
  0
VERTEX
  8
0700LEVEL
 62
7
 10
465.525
 20
-2072.618
 30
4527.000
 70
    32
  0
VERTEX
  8
0700LEVEL
 62
7
 10
515.787
 20
-2144.143
 30
4527.000
 70
    32
  0
SEQEND
  8
0700LEVEL
  0
POLYLINE
  8
0700LEVEL
 62
7
 66
     1
 70
     9
  0
VERTEX
  8
0700LEVEL
 62
7
 10
1427.434
 20
-134.589
 30
4527.000
 70
    32
  0
VERTEX
  8
0700LEVEL
 62
7
 10
1422.124
 20
-96.007
 30
4527.000
 70
    32
  0
VERTEX
  8
0700LEVEL
 62
7
 10
1422.715
 20
-53.603
 30
4527.000
 70
    32
  0
VERTEX
  8
0700LEVEL
 62
7
 10
1420.240
 20
-9.947
 30
4527.000
 70
    32
  0
VERTEX
  8
0700LEVEL
 62
7
 10
1428.513
 20
30.205
 30
4527.000
 70
    32
  0
VERTEX
  8
0700LEVEL
 62
7
 10
1432.170
 20
71.357
 30
4527.000
 70
    32
  0
VERTEX
  8
0700LEVEL
 62
7
 10
1420.284
 20
111.258
 30
4527.000
 70
    32
  0
VERTEX
  8
0700LEVEL
 62
7
 10
1424.126
 20
128.741
 30
4527.000
 70
    32
  0
VERTEX
  8
0700LEVEL
 62
7
 10
1447.966
 20
108.277
 30
4527.000
 70
    32
  0
VERTEX
  8
0700LEVEL
 62
7
 10
1464.548
 20
86.475
 30
4527.000
 70
    32
  0
VERTEX
  8
0700LEVEL
 62
7
 10
1453.043
 20
38.800
 30
4527.000
 70
    32
  0
VERTEX
  8
0700LEVEL
 62
7
 10
1437.743
 20
-9.014
 30
4527.000
 70
    32
  0
VERTEX
  8
0700LEVEL
 62
7
 10
1434.172
 20
-41.881
 30
4527.000
 70
    32
  0
VERTEX
  8
0700LEVEL
 62
7
 10
1432.025
 20
-92.331
 30
4527.000
 70
    32
  0
SEQEND
  8
0700LEVEL
  0
POLYLINE
  8
0700LEVEL
 62
7
 66
     1
 70
     9
  0
VERTEX
  8
0700LEVEL
 62
7
 10
1322.663
 20
-197.565
 30
4527.000
 70
    32
  0
VERTEX
  8
0700LEVEL
 62
7
 10
1312.359
 20
-192.876
 30
4527.000
 70
    32
  0
VERTEX
  8
0700LEVEL
 62
7
 10
1303.980
 20
-227.478
 30
4527.000
 70
    32
  0
VERTEX
  8
0700LEVEL
 62
7
 10
1303.059
 20
-231.604
 30
4527.000
 70
    32
  0
VERTEX
  8
0700LEVEL
 62
7
 10
1301.482
 20
-263.034
 30
4527.000
 70
    32
  0
VERTEX
  8
0700LEVEL
 62
7
 10
1296.593
 20
-302.478
 30
4527.000
 70
    32
  0
VERTEX
  8
0700LEVEL
 62
7
 10
1291.055
 20
-342.822
 30
4527.000
 70
    32
  0
VERTEX
  8
0700LEVEL
 62
7
 10
1282.875
 20
-366.894
 30
4527.000
 70
    32
  0
VERTEX
  8
0700LEVEL
 62
7
 10
1262.973
 20
-398.118
 30
4527.000
 70
    32
  0
VERTEX
  8
0700LEVEL
 62
7
 10
1242.429
 20
-422.449
 30
4527.000
 70
    32
  0
VERTEX
  8
0700LEVEL
 62
7
 10
1214.635
 20
-421.712
 30
4527.000
 70
    32
  0
VERTEX
  8
0700LEVEL
 62
7
 10
1220.204
 20
-435.441
 30
4527.000
 70
    32
  0
VERTEX
  8
0700LEVEL
 62
7
 10
1246.621
 20
-438.469
 30
4527.000
 70
    32
  0
VERTEX
  8
0700LEVEL
 62
7
 10
1266.449
 20
-418.549
 30
4527.000
 70
    32
  0
VERTEX
  8
0700LEVEL
 62
7
 10
1284.755
 20
-386.311
 30
4527.000
 70
    32
  0
VERTEX
  8
0700LEVEL
 62
7
 10
1305.968
 20
-374.915
 30
4527.000
 70
    32
  0
VERTEX
  8
0700LEVEL
 62
7
 10
1312.697
 20
-345.829
 30
4527.000
 70
    32
  0
VERTEX
  8
0700LEVEL
 62
7
 10
1308.453
 20
-317.730
 30
4527.000
 70
    32
  0
VERTEX
  8
0700LEVEL
 62
7
 10
1320.151
 20
-267.320
 30
4527.000
 70
    32
  0
VERTEX
  8
0700LEVEL
 62
7
 10
1319.934
 20
-208.188
 30
4527.000
 70
    32
  0
SEQEND
  8
0700LEVEL
  0
POLYLINE
  8
0700LEVEL
 62
7
 66
     1
 70
     9
  0
VERTEX
  8
0700LEVEL
 62
7
 10
1314.572
 20
-2486.206
 30
4527.000
 70
    32
  0
VERTEX
  8
0700LEVEL
 62
7
 10
1326.055
 20
-2517.743
 30
4527.000
 70
    32
  0
VERTEX
  8
0700LEVEL
 62
7
 10
1354.146
 20
-2558.512
 30
4527.000
 70
    32
  0
VERTEX
  8
0700LEVEL
 62
7
 10
1373.382
 20
-2599.606
 30
4527.000
 70
    32
  0
VERTEX
  8
0700LEVEL
 62
7
 10
1387.506
 20
-2647.414
 30
4527.000
 70
    32
  0
VERTEX
  8
0700LEVEL
 62
7
 10
1421.551
 20
-2677.832
 30
4527.000
 70
    32
  0
VERTEX
  8
0700LEVEL
 62
7
 10
1457.624
 20
-2686.450
 30
4527.000
 70
    32
  0
VERTEX
  8
0700LEVEL
 62
7
 10
1490.993
 20
-2711.729
 30
4527.000
 70
    32
  0
VERTEX
  8
0700LEVEL
 62
7
 10
1524.827
 20
-2731.048
 30
4527.000
 70
    32
  0
VERTEX
  8
0700LEVEL
 62
7
 10
1564.005
 20
-2749.977
 30
4527.000
 70
    32
  0
VERTEX
  8
0700LEVEL
 62
7
 10
1585.652
 20
-2782.408
 30
4527.000
 70
    32
  0
VERTEX
  8
0700LEVEL
 62
7
 10
1611.842
 20
-2845.753
 30
4527.000
 70
    32
  0
VERTEX
  8
0700LEVEL
 62
7
 10
1633.972
 20
-2904.668
 30
4527.000
 70
    32
  0
VERTEX
  8
0700LEVEL
 62
7
 10
1663.427
 20
-2958.735
 30
4527.000
 70
    32
  0
VERTEX
  8
0700LEVEL
 62
7
 10
1699.267
 20
-2979.637
 30
4527.000
 70
    32
  0
VERTEX
  8
0700LEVEL
 62
7
 10
1699.666
 20
-2939.968
 30
4527.000
 70
    32
  0
VERTEX
  8
0700LEVEL
 62
7
 10
1679.330
 20
-2890.147
 30
4527.000
 70
    32
  0
VERTEX
  8
0700LEVEL
 62
7
 10
1662.802
 20
-2843.206
 30
4527.000
 70
    32
  0
VERTEX
  8
0700LEVEL
 62
7
 10
1663.121
 20
-2804.027
 30
4527.000
 70
    32
  0
VERTEX
  8
0700LEVEL
 62
7
 10
1648.349
 20
-2757.119
 30
4527.000
 70
    32
  0
VERTEX
  8
0700LEVEL
 62
7
 10
1624.337
 20
-2716.006
 30
4527.000
 70
    32
  0
VERTEX
  8
0700LEVEL
 62
7
 10
1586.875
 20
-2669.442
 30
4527.000
 70
    32
  0
VERTEX
  8
0700LEVEL
 62
7
 10
1554.420
 20
-2629.222
 30
4527.000
 70
    32
  0
VERTEX
  8
0700LEVEL
 62
7
 10
1523.785
 20
-2622.744
 30
4527.000
 70
    32
  0
VERTEX
  8
0700LEVEL
 62
7
 10
1493.075
 20
-2646.180
 30
4527.000
 70
    32
  0
VERTEX
  8
0700LEVEL
 62
7
 10
1457.056
 20
-2631.033
 30
4527.000
 70
    32
  0
VERTEX
  8
0700LEVEL
 62
7
 10
1429.839
 20
-2603.482
 30
4527.000
 70
    32
  0
VERTEX
  8
0700LEVEL
 62
7
 10
1421.748
 20
-2563.442
 30
4527.000
 70
    32
  0
VERTEX
  8
0700LEVEL
 62
7
 10
1383.550
 20
-2544.672
 30
4527.000
 70
    32
  0
VERTEX
  8
0700LEVEL
 62
7
 10
1347.088
 20
-2512.102
 30
4527.000
 70
    32
  0
SEQEND
  8
0700LEVEL
  0
POLYLINE
  8
0700LEVEL
 62
7
 66
     1
 70
     8
  0
VERTEX
  8
0700LEVEL
 62
7
 10
-1408.196
 20
-1887.895
 30
4527.000
 70
    32
  0
VERTEX
  8
0700LEVEL
 62
7
 10
-1356.159
 20
-1936.069
 30
4527.000
 70
    32
  0
VERTEX
  8
0700LEVEL
 62
7
 10
-1299.373
 20
-1996.832
 30
4527.000
 70
    32
  0
VERTEX
  8
0700LEVEL
 62
7
 10
-1248.600
 20
-2045.053
 30
4527.000
 70
    32
  0
VERTEX
  8
0700LEVEL
 62
7
 10
-1217.794
 20
-2090.789
 30
4527.000
 70
    32
  0
VERTEX
  8
0700LEVEL
 62
7
 10
-1202.034
 20
-2130.061
 30
4527.000
 70
    32
  0
VERTEX
  8
0700LEVEL
 62
7
 10
-1234.411
 20
-2107.961
 30
4527.000
 70
    32
  0
VERTEX
  8
0700LEVEL
 62
7
 10
-1264.674
 20
-2074.383
 30
4527.000
 70
    32
  0
VERTEX
  8
0700LEVEL
 62
7
 10
-1310.170
 20
-2047.891
 30
4527.000
 70
    32
  0
VERTEX
  8
0700LEVEL
 62
7
 10
-1344.228
 20
-2014.453
 30
4527.000
 70
    32
  0
VERTEX
  8
0700LEVEL
 62
7
 10
-1371.816
 20
-1995.393
 30
4527.000
 70
    32
  0
VERTEX
  8
0700LEVEL
 62
7
 10
-1351.381
 20
-2039.949
 30
4527.000
 70
    32
  0
VERTEX
  8
0700LEVEL
 62
7
 10
-1316.727
 20
-2079.017
 30
4527.000
 70
    32
  0
VERTEX
  8
0700LEVEL
 62
7
 10
-1302.001
 20
-2124.660
 30
4527.000
 70
    32
  0
VERTEX
  8
0700LEVEL
 62
7
 10
-1297.321
 20
-2177.978
 30
4527.000
 70
    32
  0
VERTEX
  8
0700LEVEL
 62
7
 10
-1317.254
 20
-2173.738
 30
4527.000
 70
    32
  0
VERTEX
  8
0700LEVEL
 62
7
 10
-1349.756
 20
-2132.254
 30
4527.000
 70
    32
  0
VERTEX
  8
0700LEVEL
 62
7
 10
-1397.026
 20
-2091.895
 30
4527.000
 70
    32
  0
VERTEX
  8
0700LEVEL
 62
7
 10
-1444.235
 20
-2037.211
 30
4527.000
 70
    32
  0
VERTEX
  8
0700LEVEL
 62
7
 10
-1501.074
 20
-1982.977
 30
4527.000
 70
    32
  0
SEQEND
  8
0700LEVEL
  0
POLYLINE
  8
0700LEVEL
 62
13
 66
     1
 70
     8
  0
VERTEX
  8
0700LEVEL
 62
13
 10
1898.326
 20
187.119
 30
4527.000
 70
    32
  0
VERTEX
  8
0700LEVEL
 62
13
 10
1873.271
 20
139.630
 30
4527.000
 70
    32
  0
VERTEX
  8
0700LEVEL
 62
13
 10
1846.805
 20
88.095
 30
4527.000
 70
    32
  0
VERTEX
  8
0700LEVEL
 62
13
 10
1808.770
 20
22.594
 30
4527.000
 70
    32
  0
VERTEX
  8
0700LEVEL
 62
13
 10
1764.205
 20
-24.246
 30
4527.000
 70
    32
  0
VERTEX
  8
0700LEVEL
 62
13
 10
1718.702
 20
-24.158
 30
4527.000
 70
    32
  0
VERTEX
  8
0700LEVEL
 62
13
 10
1700.392
 20
10.247
 30
4527.000
 70
    32
  0
VERTEX
  8
0700LEVEL
 62
13
 10
1653.704
 20
29.388
 30
4527.000
 70
    32
  0
VERTEX
  8
0700LEVEL
 62
13
 10
1600.749
 20
-11.815
 30
4527.000
 70
    32
  0
VERTEX
  8
0700LEVEL
 62
13
 10
1562.589
 20
-39.324
 30
4527.000
 70
    32
  0
VERTEX
  8
0700LEVEL
 62
13
 10
1550.554
 20
-96.469
 30
4527.000
 70
    32
  0
VERTEX
  8
0700LEVEL
 62
13
 10
1555.439
 20
-150.071
 30
4527.000
 70
    32
  0
VERTEX
  8
0700LEVEL
 62
13
 10
1557.867
 20
-211.071
 30
4527.000
 70
    32
  0
VERTEX
  8
0700LEVEL
 62
13
 10
1543.044
 20
-255.945
 30
4527.000
 70
    32
  0
VERTEX
  8
0700LEVEL
 62
13
 10
1512.996
 20
-300.109
 30
4527.000
 70
    32
  0
VERTEX
  8
0700LEVEL
 62
13
 10
1492.976
 20
-304.154
 30
4527.000
 70
    32
  0
VERTEX
  8
0700LEVEL
 62
13
 10
1485.233
 20
-353.445
 30
4527.000
 70
    32
  0
VERTEX
  8
0700LEVEL
 62
13
 10
1480.693
 20
-426.392
 30
4527.000
 70
    32
  0
VERTEX
  8
0700LEVEL
 62
13
 10
1478.745
 20
-466.312
 30
4527.000
 70
    32
  0
VERTEX
  8
0700LEVEL
 62
13
 10
1447.798
 20
-472.609
 30
4527.000
 70
    32
  0
VERTEX
  8
0700LEVEL
 62
13
 10
1425.487
 20
-456.668
 30
4527.000
 70
    32
  0
VERTEX
  8
0700LEVEL
 62
13
 10
1413.876
 20
-498.793
 30
4527.000
 70
    32
  0
VERTEX
  8
0700LEVEL
 62
13
 10
1403.589
 20
-563.766
 30
4527.000
 70
    32
  0
VERTEX
  8
0700LEVEL
 62
13
 10
1379.646
 20
-623.003
 30
4527.000
 70
    32
  0
VERTEX
  8
0700LEVEL
 62
13
 10
1344.505
 20
-669.107
 30
4527.000
 70
    32
  0
VERTEX
  8
0700LEVEL
 62
13
 10
1304.471
 20
-706.622
 30
4527.000
 70
    32
  0
VERTEX
  8
0700LEVEL
 62
13
 10
1267.789
 20
-707.965
 30
4527.000
 70
    32
  0
VERTEX
  8
0700LEVEL
 62
13
 10
1237.750
 20
-688.507
 30
4527.000
 70
    32
  0
VERTEX
  8
0700LEVEL
 62
13
 10
1209.434
 20
-652.228
 30
4527.000
 70
    32
  0
VERTEX
  8
0700LEVEL
 62
13
 10
1182.057
 20
-625.657
 30
4527.000
 70
    32
  0
VERTEX
  8
0700LEVEL
 62
13
 10
1154.621
 20
-613.411
 30
4527.000
 70
    32
  0
VERTEX
  8
0700LEVEL
 62
13
 10
1143.792
 20
-647.616
 30
4527.000
 70
    32
  0
VERTEX
  8
0700LEVEL
 62
13
 10
1148.274
 20
-674.245
 30
4527.000
 70
    32
  0
VERTEX
  8
0700LEVEL
 62
13
 10
1119.950
 20
-664.370
 30
4527.000
 70
    32
  0
VERTEX
  8
0700LEVEL
 62
13
 10
1127.306
 20
-694.986
 30
4527.000
 70
    32
  0
VERTEX
  8
0700LEVEL
 62
13
 10
1158.973
 20
-750.921
 30
4527.000
 70
    32
  0
VERTEX
  8
0700LEVEL
 62
13
 10
1200.129
 20
-821.220
 30
4527.000
 70
    32
  0
VERTEX
  8
0700LEVEL
 62
13
 10
1228.895
 20
-885.738
 30
4527.000
 70
    32
  0
VERTEX
  8
0700LEVEL
 62
13
 10
1237.077
 20
-946.917
 30
4527.000
 70
    32
  0
VERTEX
  8
0700LEVEL
 62
13
 10
1243.255
 20
-987.904
 30
4527.000
 70
    32
  0
VERTEX
  8
0700LEVEL
 62
13
 10
1260.107
 20
-1025.090
 30
4527.000
 70
    32
  0
VERTEX
  8
0700LEVEL
 62
13
 10
1284.317
 20
-1074.283
 30
4527.000
 70
    32
  0
VERTEX
  8
0700LEVEL
 62
13
 10
1314.872
 20
-1099.860
 30
4527.000
 70
    32
  0
VERTEX
  8
0700LEVEL
 62
13
 10
1306.722
 20
-1055.535
 30
4527.000
 70
    32
  0
VERTEX
  8
0700LEVEL
 62
13
 10
1326.350
 20
-1083.364
 30
4527.000
 70
    32
  0
VERTEX
  8
0700LEVEL
 62
13
 10
1351.149
 20
-1127.371
 30
4527.000
 70
    32
  0
VERTEX
  8
0700LEVEL
 62
13
 10
1347.353
 20
-1164.728
 30
4527.000
 70
    32
  0
VERTEX
  8
0700LEVEL
 62
13
 10
1322.618
 20
-1173.039
 30
4527.000
 70
    32
  0
VERTEX
  8
0700LEVEL
 62
13
 10
1334.543
 20
-1221.999
 30
4527.000
 70
    32
  0
VERTEX
  8
0700LEVEL
 62
13
 10
1343.296
 20
-1264.158
 30
4527.000
 70
    32
  0
VERTEX
  8
0700LEVEL
 62
13
 10
1350.858
 20
-1295.059
 30
4527.000
 70
    32
  0
VERTEX
  8
0700LEVEL
 62
13
 10
1352.963
 20
-1328.596
 30
4527.000
 70
    32
  0
VERTEX
  8
0700LEVEL
 62
13
 10
1356.650
 20
-1360.126
 30
4527.000
 70
    32
  0
VERTEX
  8
0700LEVEL
 62
13
 10
1369.695
 20
-1394.431
 30
4527.000
 70
    32
  0
VERTEX
  8
0700LEVEL
 62
13
 10
1401.348
 20
-1447.346
 30
4527.000
 70
    32
  0
VERTEX
  8
0700LEVEL
 62
13
 10
1411.367
 20
-1489.458
 30
4527.000
 70
    32
  0
VERTEX
  8
0700LEVEL
 62
13
 10
1414.689
 20
-1540.293
 30
4527.000
 70
    32
  0
VERTEX
  8
0700LEVEL
 62
13
 10
1401.106
 20
-1560.471
 30
4527.000
 70
    32
  0
VERTEX
  8
0700LEVEL
 62
13
 10
1381.035
 20
-1515.219
 30
4527.000
 70
    32
  0
VERTEX
  8
0700LEVEL
 62
13
 10
1358.262
 20
-1468.019
 30
4527.000
 70
    32
  0
VERTEX
  8
0700LEVEL
 62
13
 10
1330.383
 20
-1419.740
 30
4527.000
 70
    32
  0
VERTEX
  8
0700LEVEL
 62
13
 10
1319.729
 20
-1381.548
 30
4527.000
 70
    32
  0
VERTEX
  8
0700LEVEL
 62
13
 10
1319.114
 20
-1362.084
 30
4527.000
 70
    32
  0
VERTEX
  8
0700LEVEL
 62
13
 10
1304.944
 20
-1313.011
 30
4527.000
 70
    32
  0
VERTEX
  8
0700LEVEL
 62
13
 10
1280.601
 20
-1270.838
 30
4527.000
 70
    32
  0
VERTEX
  8
0700LEVEL
 62
13
 10
1264.311
 20
-1222.427
 30
4527.000
 70
    32
  0
VERTEX
  8
0700LEVEL
 62
13
 10
1246.009
 20
-1180.228
 30
4527.000
 70
    32
  0
VERTEX
  8
0700LEVEL
 62
13
 10
1205.546
 20
-1166.120
 30
4527.000
 70
    32
  0
VERTEX
  8
0700LEVEL
 62
13
 10
1204.246
 20
-1205.140
 30
4527.000
 70
    32
  0
VERTEX
  8
0700LEVEL
 62
13
 10
1239.391
 20
-1225.678
 30
4527.000
 70
    32
  0
VERTEX
  8
0700LEVEL
 62
13
 10
1255.588
 20
-1252.950
 30
4527.000
 70
    32
  0
VERTEX
  8
0700LEVEL
 62
13
 10
1247.077
 20
-1294.572
 30
4527.000
 70
    32
  0
VERTEX
  8
0700LEVEL
 62
13
 10
1240.227
 20
-1352.306
 30
4527.000
 70
    32
  0
VERTEX
  8
0700LEVEL
 62
13
 10
1236.775
 20
-1393.743
 30
4527.000
 70
    32
  0
VERTEX
  8
0700LEVEL
 62
13
 10
1237.814
 20
-1416.796
 30
4527.000
 70
    32
  0
VERTEX
  8
0700LEVEL
 62
13
 10
1245.991
 20
-1467.161
 30
4527.000
 70
    32
  0
VERTEX
  8
0700LEVEL
 62
13
 10
1270.464
 20
-1539.532
 30
4527.000
 70
    32
  0
VERTEX
  8
0700LEVEL
 62
13
 10
1297.123
 20
-1626.341
 30
4527.000
 70
    32
  0
VERTEX
  8
0700LEVEL
 62
13
 10
1322.717
 20
-1684.057
 30
4527.000
 70
    32
  0
VERTEX
  8
0700LEVEL
 62
13
 10
1336.311
 20
-1722.726
 30
4527.000
 70
    32
  0
VERTEX
  8
0700LEVEL
 62
13
 10
1350.880
 20
-1750.740
 30
4527.000
 70
    32
  0
VERTEX
  8
0700LEVEL
 62
13
 10
1337.157
 20
-1767.123
 30
4527.000
 70
    32
  0
VERTEX
  8
0700LEVEL
 62
13
 10
1345.731
 20
-1815.038
 30
4527.000
 70
    32
  0
VERTEX
  8
0700LEVEL
 62
13
 10
1345.346
 20
-1857.726
 30
4527.000
 70
    32
  0
VERTEX
  8
0700LEVEL
 62
13
 10
1316.731
 20
-1837.242
 30
4527.000
 70
    32
  0
VERTEX
  8
0700LEVEL
 62
13
 10
1282.765
 20
-1806.333
 30
4527.000
 70
    32
  0
VERTEX
  8
0700LEVEL
 62
13
 10
1243.905
 20
-1785.444
 30
4527.000
 70
    32
  0
VERTEX
  8
0700LEVEL
 62
13
 10
1217.145
 20
-1741.119
 30
4527.000
 70
    32
  0
VERTEX
  8
0700LEVEL
 62
13
 10
1203.333
 20
-1680.536
 30
4527.000
 70
    32
  0
VERTEX
  8
0700LEVEL
 62
13
 10
1189.521
 20
-1619.952
 30
4527.000
 70
    32
  0
VERTEX
  8
0700LEVEL
 62
13
 10
1149.358
 20
-1571.441
 30
4527.000
 70
    32
  0
VERTEX
  8
0700LEVEL
 62
13
 10
1104.148
 20
-1526.135
 30
4527.000
 70
    32
  0
VERTEX
  8
0700LEVEL
 62
13
 10
1066.712
 20
-1504.220
 30
4527.000
 70
    32
  0
VERTEX
  8
0700LEVEL
 62
13
 10
1027.321
 20
-1492.801
 30
4527.000
 70
    32
  0
VERTEX
  8
0700LEVEL
 62
13
 10
814.841
 20
-1421.369
 30
4527.000
 70
    32
  0
VERTEX
  8
0700LEVEL
 62
13
 10
799.180
 20
-1414.050
 30
4527.000
 70
    32
  0
VERTEX
  8
0700LEVEL
 62
13
 10
792.396
 20
-1468.275
 30
4527.000
 70
    32
  0
VERTEX
  8
0700LEVEL
 62
13
 10
811.255
 20
-1525.653
 30
4527.000
 70
    32
  0
VERTEX
  8
0700LEVEL
 62
13
 10
841.113
 20
-1588.084
 30
4527.000
 70
    32
  0
VERTEX
  8
0700LEVEL
 62
13
 10
841.124
 20
-1646.932
 30
4527.000
 70
    32
  0
VERTEX
  8
0700LEVEL
 62
13
 10
829.514
 20
-1670.448
 30
4527.000
 70
    32
  0
VERTEX
  8
0700LEVEL
 62
13
 10
816.845
 20
-1657.077
 30
4527.000
 70
    32
  0
VERTEX
  8
0700LEVEL
 62
13
 10
802.654
 20
-1631.387
 30
4527.000
 70
    32
  0
VERTEX
  8
0700LEVEL
 62
13
 10
785.139
 20
-1592.082
 30
4527.000
 70
    32
  0
VERTEX
  8
0700LEVEL
 62
13
 10
761.605
 20
-1548.028
 30
4527.000
 70
    32
  0
VERTEX
  8
0700LEVEL
 62
13
 10
728.680
 20
-1502.954
 30
4527.000
 70
    32
  0
VERTEX
  8
0700LEVEL
 62
13
 10
685.112
 20
-1459.926
 30
4527.000
 70
    32
  0
VERTEX
  8
0700LEVEL
 62
13
 10
662.398
 20
-1417.012
 30
4527.000
 70
    32
  0
VERTEX
  8
0700LEVEL
 62
13
 10
646.036
 20
-1361.296
 30
4527.000
 70
    32
  0
VERTEX
  8
0700LEVEL
 62
13
 10
633.880
 20
-1306.011
 30
4527.000
 70
    32
  0
VERTEX
  8
0700LEVEL
 62
13
 10
602.358
 20
-1264.685
 30
4527.000
 70
    32
  0
VERTEX
  8
0700LEVEL
 62
13
 10
583.983
 20
-1215.181
 30
4527.000
 70
    32
  0
VERTEX
  8
0700LEVEL
 62
13
 10
553.150
 20
-1182.015
 30
4527.000
 70
    32
  0
VERTEX
  8
0700LEVEL
 62
13
 10
505.043
 20
-1211.933
 30
4527.000
 70
    32
  0
VERTEX
  8
0700LEVEL
 62
13
 10
470.360
 20
-1222.654
 30
4527.000
 70
    32
  0
VERTEX
  8
0700LEVEL
 62
13
 10
427.406
 20
-1236.308
 30
4527.000
 70
    32
  0
VERTEX
  8
0700LEVEL
 62
13
 10
412.749
 20
-1272.406
 30
4527.000
 70
    32
  0
VERTEX
  8
0700LEVEL
 62
13
 10
397.522
 20
-1327.525
 30
4527.000
 70
    32
  0
VERTEX
  8
0700LEVEL
 62
13
 10
377.318
 20
-1289.292
 30
4527.000
 70
    32
  0
VERTEX
  8
0700LEVEL
 62
13
 10
350.327
 20
-1238.642
 30
4527.000
 70
    32
  0
VERTEX
  8
0700LEVEL
 62
13
 10
308.806
 20
-1187.647
 30
4527.000
 70
    32
  0
VERTEX
  8
0700LEVEL
 62
13
 10
288.199
 20
-1141.051
 30
4527.000
 70
    32
  0
VERTEX
  8
0700LEVEL
 62
13
 10
244.883
 20
-1080.963
 30
4527.000
 70
    32
  0
VERTEX
  8
0700LEVEL
 62
13
 10
238.793
 20
-1031.692
 30
4527.000
 70
    32
  0
VERTEX
  8
0700LEVEL
 62
13
 10
230.590
 20
-956.678
 30
4527.000
 70
    32
  0
VERTEX
  8
0700LEVEL
 62
13
 10
212.466
 20
-927.333
 30
4527.000
 70
    32
  0
VERTEX
  8
0700LEVEL
 62
13
 10
182.083
 20
-903.796
 30
4527.000
 70
    32
  0
VERTEX
  8
0700LEVEL
 62
13
 10
160.031
 20
-881.609
 30
4527.000
 70
    32
  0
VERTEX
  8
0700LEVEL
 62
13
 10
138.447
 20
-901.496
 30
4527.000
 70
    32
  0
VERTEX
  8
0700LEVEL
 62
13
 10
108.912
 20
-866.528
 30
4527.000
 70
    32
  0
VERTEX
  8
0700LEVEL
 62
13
 10
87.887
 20
-827.156
 30
4527.000
 70
    32
  0
VERTEX
  8
0700LEVEL
 62
13
 10
44.816
 20
-795.022
 30
4527.000
 70
    32
  0
VERTEX
  8
0700LEVEL
 62
13
 10
14.235
 20
-763.405
 30
4527.000
 70
    32
  0
VERTEX
  8
0700LEVEL
 62
13
 10
-34.777
 20
-726.033
 30
4527.000
 70
    32
  0
VERTEX
  8
0700LEVEL
 62
13
 10
-61.908
 20
-690.197
 30
4527.000
 70
    32
  0
VERTEX
  8
0700LEVEL
 62
13
 10
-94.364
 20
-668.587
 30
4527.000
 70
    32
  0
VERTEX
  8
0700LEVEL
 62
13
 10
-80.392
 20
-709.581
 30
4527.000
 70
    32
  0
VERTEX
  8
0700LEVEL
 62
13
 10
-55.189
 20
-761.952
 30
4527.000
 70
    32
  0
VERTEX
  8
0700LEVEL
 62
13
 10
-23.952
 20
-803.483
 30
4527.000
 70
    32
  0
VERTEX
  8
0700LEVEL
 62
13
 10
-1.007
 20
-852.722
 30
4527.000
 70
    32
  0
VERTEX
  8
0700LEVEL
 62
13
 10
9.275
 20
-899.405
 30
4527.000
 70
    32
  0
VERTEX
  8
0700LEVEL
 62
13
 10
23.333
 20
-950.723
 30
4527.000
 70
    32
  0
VERTEX
  8
0700LEVEL
 62
13
 10
27.881
 20
-992.451
 30
4527.000
 70
    32
  0
VERTEX
  8
0700LEVEL
 62
13
 10
4.617
 20
-963.782
 30
4527.000
 70
    32
  0
VERTEX
  8
0700LEVEL
 62
13
 10
-23.163
 20
-928.847
 30
4527.000
 70
    32
  0
VERTEX
  8
0700LEVEL
 62
13
 10
-59.977
 20
-918.601
 30
4527.000
 70
    32
  0
VERTEX
  8
0700LEVEL
 62
13
 10
-101.777
 20
-897.235
 30
4527.000
 70
    32
  0
VERTEX
  8
0700LEVEL
 62
13
 10
-129.074
 20
-870.174
 30
4527.000
 70
    32
  0
VERTEX
  8
0700LEVEL
 62
13
 10
-145.337
 20
-827.803
 30
4527.000
 70
    32
  0
VERTEX
  8
0700LEVEL
 62
13
 10
-160.805
 20
-761.922
 30
4527.000
 70
    32
  0
VERTEX
  8
0700LEVEL
 62
13
 10
-178.583
 20
-699.438
 30
4527.000
 70
    32
  0
VERTEX
  8
0700LEVEL
 62
13
 10
-210.627
 20
-641.178
 30
4527.000
 70
    32
  0
VERTEX
  8
0700LEVEL
 62
13
 10
-239.513
 20
-586.700
 30
4527.000
 70
    32
  0
VERTEX
  8
0700LEVEL
 62
13
 10
-241.505
 20
-550.919
 30
4527.000
 70
    32
  0
VERTEX
  8
0700LEVEL
 62
13
 10
-241.065
 20
-501.701
 30
4527.000
 70
    32
  0
VERTEX
  8
0700LEVEL
 62
13
 10
-268.924
 20
-448.647
 30
4527.000
 70
    32
  0
VERTEX
  8
0700LEVEL
 62
13
 10
-307.564
 20
-393.844
 30
4527.000
 70
    32
  0
VERTEX
  8
0700LEVEL
 62
13
 10
-338.800
 20
-333.704
 30
4527.000
 70
    32
  0
VERTEX
  8
0700LEVEL
 62
13
 10
-362.056
 20
-278.630
 30
4527.000
 70
    32
  0
VERTEX
  8
0700LEVEL
 62
13
 10
-380.617
 20
-224.067
 30
4527.000
 70
    32
  0
VERTEX
  8
0700LEVEL
 62
13
 10
-404.707
 20
-164.834
 30
4527.000
 70
    32
  0
VERTEX
  8
0700LEVEL
 62
13
 10
-430.003
 20
-109.933
 30
4527.000
 70
    32
  0
VERTEX
  8
0700LEVEL
 62
13
 10
-451.352
 20
-61.707
 30
4527.000
 70
    32
  0
VERTEX
  8
0700LEVEL
 62
13
 10
-479.244
 20
-10.408
 30
4527.000
 70
    32
  0
VERTEX
  8
0700LEVEL
 62
13
 10
-506.983
 20
52.686
 30
4527.000
 70
    32
  0
VERTEX
  8
0700LEVEL
 62
13
 10
-524.882
 20
105.130
 30
4527.000
 70
    32
  0
VERTEX
  8
0700LEVEL
 62
13
 10
-558.071
 20
154.773
 30
4527.000
 70
    32
  0
VERTEX
  8
0700LEVEL
 62
13
 10
-593.347
 20
205.510
 30
4527.000
 70
    32
  0
VERTEX
  8
0700LEVEL
 62
13
 10
-626.996
 20
219.769
 30
4527.000
 70
    32
  0
VERTEX
  8
0700LEVEL
 62
13
 10
-604.309
 20
182.894
 30
4527.000
 70
    32
  0
VERTEX
  8
0700LEVEL
 62
13
 10
-585.933
 20
133.390
 30
4527.000
 70
    32
  0
VERTEX
  8
0700LEVEL
 62
13
 10
-557.114
 20
94.012
 30
4527.000
 70
    32
  0
VERTEX
  8
0700LEVEL
 62
13
 10
-528.037
 20
23.660
 30
4527.000
 70
    32
  0
VERTEX
  8
0700LEVEL
 62
13
 10
-496.827
 20
-30.440
 30
4527.000
 70
    32
  0
VERTEX
  8
0700LEVEL
 62
13
 10
-474.531
 20
-61.971
 30
4527.000
 70
    32
  0
VERTEX
  8
0700LEVEL
 62
13
 10
-455.221
 20
-91.760
 30
4527.000
 70
    32
  0
VERTEX
  8
0700LEVEL
 62
13
 10
-438.554
 20
-142.495
 30
4527.000
 70
    32
  0
VERTEX
  8
0700LEVEL
 62
13
 10
-414.271
 20
-198.993
 30
4527.000
 70
    32
  0
VERTEX
  8
0700LEVEL
 62
13
 10
-389.241
 20
-267.934
 30
4527.000
 70
    32
  0
VERTEX
  8
0700LEVEL
 62
13
 10
-365.190
 20
-318.107
 30
4527.000
 70
    32
  0
VERTEX
  8
0700LEVEL
 62
13
 10
-346.828
 20
-364.591
 30
4527.000
 70
    32
  0
VERTEX
  8
0700LEVEL
 62
13
 10
-322.962
 20
-409.704
 30
4527.000
 70
    32
  0
VERTEX
  8
0700LEVEL
 62
13
 10
-295.037
 20
-459.248
 30
4527.000
 70
    32
  0
VERTEX
  8
0700LEVEL
 62
13
 10
-279.582
 20
-503.500
 30
4527.000
 70
    32
  0
VERTEX
  8
0700LEVEL
 62
13
 10
-278.252
 20
-537.163
 30
4527.000
 70
    32
  0
VERTEX
  8
0700LEVEL
 62
13
 10
-276.837
 20
-581.149
 30
4527.000
 70
    32
  0
VERTEX
  8
0700LEVEL
 62
13
 10
-255.607
 20
-620.806
 30
4527.000
 70
    32
  0
VERTEX
  8
0700LEVEL
 62
13
 10
-226.211
 20
-670.588
 30
4527.000
 70
    32
  0
VERTEX
  8
0700LEVEL
 62
13
 10
-211.074
 20
-716.800
 30
4527.000
 70
    32
  0
VERTEX
  8
0700LEVEL
 62
13
 10
-187.414
 20
-780.238
 30
4527.000
 70
    32
  0
VERTEX
  8
0700LEVEL
 62
13
 10
-171.635
 20
-833.345
 30
4527.000
 70
    32
  0
VERTEX
  8
0700LEVEL
 62
13
 10
-160.591
 20
-895.491
 30
4527.000
 70
    32
  0
VERTEX
  8
0700LEVEL
 62
13
 10
-137.375
 20
-960.114
 30
4527.000
 70
    32
  0
SEQEND
  8
0700LEVEL
  0
POLYLINE
  8
0700LEVEL
 62
13
 66
     1
 70
     9
  0
VERTEX
  8
0700LEVEL
 62
13
 10
1489.282
 20
-280.419
 30
4527.000
 70
    32
  0
VERTEX
  8
0700LEVEL
 62
13
 10
1475.195
 20
-297.498
 30
4527.000
 70
    32
  0
VERTEX
  8
0700LEVEL
 62
13
 10
1456.724
 20
-319.901
 30
4527.000
 70
    32
  0
VERTEX
  8
0700LEVEL
 62
13
 10
1461.507
 20
-293.517
 30
4527.000
 70
    32
  0
VERTEX
  8
0700LEVEL
 62
13
 10
1470.793
 20
-251.770
 30
4527.000
 70
    32
  0
VERTEX
  8
0700LEVEL
 62
13
 10
1478.960
 20
-224.677
 30
4527.000
 70
    32
  0
VERTEX
  8
0700LEVEL
 62
13
 10
1483.065
 20
-248.982
 30
4527.000
 70
    32
  0
SEQEND
  8
0700LEVEL
  0
POLYLINE
  8
0700LEVEL
 62
13
 66
     1
 70
     9
  0
VERTEX
  8
0700LEVEL
 62
13
 10
1426.200
 20
-348.397
 30
4527.000
 70
    32
  0
VERTEX
  8
0700LEVEL
 62
13
 10
1436.625
 20
-324.437
 30
4527.000
 70
    32
  0
VERTEX
  8
0700LEVEL
 62
13
 10
1447.746
 20
-282.232
 30
4527.000
 70
    32
  0
VERTEX
  8
0700LEVEL
 62
13
 10
1457.377
 20
-225.955
 30
4527.000
 70
    32
  0
VERTEX
  8
0700LEVEL
 62
13
 10
1460.624
 20
-184.233
 30
4527.000
 70
    32
  0
VERTEX
  8
0700LEVEL
 62
13
 10
1473.268
 20
-135.737
 30
4527.000
 70
    32
  0
VERTEX
  8
0700LEVEL
 62
13
 10
1481.515
 20
-89.545
 30
4527.000
 70
    32
  0
VERTEX
  8
0700LEVEL
 62
13
 10
1484.523
 20
-49.294
 30
4527.000
 70
    32
  0
VERTEX
  8
0700LEVEL
 62
13
 10
1484.233
 20
-20.075
 30
4527.000
 70
    32
  0
VERTEX
  8
0700LEVEL
 62
13
 10
1474.550
 20
-45.664
 30
4527.000
 70
    32
  0
VERTEX
  8
0700LEVEL
 62
13
 10
1467.031
 20
-90.465
 30
4527.000
 70
    32
  0
VERTEX
  8
0700LEVEL
 62
13
 10
1457.884
 20
-136.008
 30
4527.000
 70
    32
  0
VERTEX
  8
0700LEVEL
 62
13
 10
1447.120
 20
-185.312
 30
4527.000
 70
    32
  0
VERTEX
  8
0700LEVEL
 62
13
 10
1433.879
 20
-246.788
 30
4527.000
 70
    32
  0
VERTEX
  8
0700LEVEL
 62
13
 10
1425.837
 20
-311.874
 30
4527.000
 70
    32
  0
SEQEND
  8
0700LEVEL
  0
POLYLINE
  8
0700LEVEL
 62
13
 66
     1
 70
     9
  0
VERTEX
  8
0700LEVEL
 62
13
 10
1118.108
 20
-531.543
 30
4527.000
 70
    32
  0
VERTEX
  8
0700LEVEL
 62
13
 10
1126.331
 20
-564.563
 30
4527.000
 70
    32
  0
VERTEX
  8
0700LEVEL
 62
13
 10
1119.317
 20
-593.854
 30
4527.000
 70
    32
  0
VERTEX
  8
0700LEVEL
 62
13
 10
1095.039
 20
-603.998
 30
4527.000
 70
    32
  0
VERTEX
  8
0700LEVEL
 62
13
 10
1074.410
 20
-599.395
 30
4527.000
 70
    32
  0
VERTEX
  8
0700LEVEL
 62
13
 10
1059.709
 20
-578.401
 30
4527.000
 70
    32
  0
VERTEX
  8
0700LEVEL
 62
13
 10
1041.921
 20
-560.930
 30
4527.000
 70
    32
  0
VERTEX
  8
0700LEVEL
 62
13
 10
1038.750
 20
-535.520
 30
4527.000
 70
    32
  0
VERTEX
  8
0700LEVEL
 62
13
 10
1031.976
 20
-507.513
 30
4527.000
 70
    32
  0
VERTEX
  8
0700LEVEL
 62
13
 10
1042.116
 20
-483.758
 30
4527.000
 70
    32
  0
VERTEX
  8
0700LEVEL
 62
13
 10
1059.839
 20
-467.521
 30
4527.000
 70
    32
  0
VERTEX
  8
0700LEVEL
 62
13
 10
1077.429
 20
-439.694
 30
4527.000
 70
    32
  0
VERTEX
  8
0700LEVEL
 62
13
 10
1102.351
 20
-417.834
 30
4527.000
 70
    32
  0
VERTEX
  8
0700LEVEL
 62
13
 10
1111.544
 20
-392.165
 30
4527.000
 70
    32
  0
VERTEX
  8
0700LEVEL
 62
13
 10
1140.068
 20
-372.902
 30
4527.000
 70
    32
  0
VERTEX
  8
0700LEVEL
 62
13
 10
1167.266
 20
-386.618
 30
4527.000
 70
    32
  0
VERTEX
  8
0700LEVEL
 62
13
 10
1195.497
 20
-393.963
 30
4527.000
 70
    32
  0
VERTEX
  8
0700LEVEL
 62
13
 10
1212.080
 20
-378.547
 30
4527.000
 70
    32
  0
VERTEX
  8
0700LEVEL
 62
13
 10
1217.877
 20
-331.958
 30
4527.000
 70
    32
  0
VERTEX
  8
0700LEVEL
 62
13
 10
1236.435
 20
-282.661
 30
4527.000
 70
    32
  0
VERTEX
  8
0700LEVEL
 62
13
 10
1273.410
 20
-236.099
 30
4527.000
 70
    32
  0
VERTEX
  8
0700LEVEL
 62
13
 10
1279.796
 20
-184.325
 30
4527.000
 70
    32
  0
VERTEX
  8
0700LEVEL
 62
13
 10
1297.671
 20
-174.902
 30
4527.000
 70
    32
  0
VERTEX
  8
0700LEVEL
 62
13
 10
1286.090
 20
-130.021
 30
4527.000
 70
    32
  0
VERTEX
  8
0700LEVEL
 62
13
 10
1264.443
 20
-78.980
 30
4527.000
 70
    32
  0
VERTEX
  8
0700LEVEL
 62
13
 10
1257.194
 20
-16.696
 30
4527.000
 70
    32
  0
VERTEX
  8
0700LEVEL
 62
13
 10
1268.435
 20
54.158
 30
4527.000
 70
    32
  0
VERTEX
  8
0700LEVEL
 62
13
 10
1291.908
 20
118.250
 30
4527.000
 70
    32
  0
VERTEX
  8
0700LEVEL
 62
13
 10
1350.492
 20
160.048
 30
4527.000
 70
    32
  0
VERTEX
  8
0700LEVEL
 62
13
 10
1425.472
 20
166.496
 30
4527.000
 70
    32
  0
VERTEX
  8
0700LEVEL
 62
13
 10
1472.524
 20
148.050
 30
4527.000
 70
    32
  0
VERTEX
  8
0700LEVEL
 62
13
 10
1518.828
 20
123.439
 30
4527.000
 70
    32
  0
VERTEX
  8
0700LEVEL
 62
13
 10
1543.422
 20
79.717
 30
4527.000
 70
    32
  0
VERTEX
  8
0700LEVEL
 62
13
 10
1526.467
 20
37.201
 30
4527.000
 70
    32
  0
VERTEX
  8
0700LEVEL
 62
13
 10
1489.041
 20
0.269
 30
4527.000
 70
    32
  0
VERTEX
  8
0700LEVEL
 62
13
 10
1463.915
 20
-21.306
 30
4527.000
 70
    32
  0
VERTEX
  8
0700LEVEL
 62
13
 10
1440.954
 20
-43.484
 30
4527.000
 70
    32
  0
VERTEX
  8
0700LEVEL
 62
13
 10
1443.435
 20
-97.954
 30
4527.000
 70
    32
  0
VERTEX
  8
0700LEVEL
 62
13
 10
1441.016
 20
-133.020
 30
4527.000
 70
    32
  0
VERTEX
  8
0700LEVEL
 62
13
 10
1430.611
 20
-170.815
 30
4527.000
 70
    32
  0
VERTEX
  8
0700LEVEL
 62
13
 10
1404.172
 20
-209.780
 30
4527.000
 70
    32
  0
VERTEX
  8
0700LEVEL
 62
13
 10
1377.801
 20
-226.627
 30
4527.000
 70
    32
  0
VERTEX
  8
0700LEVEL
 62
13
 10
1369.716
 20
-197.401
 30
4527.000
 70
    32
  0
VERTEX
  8
0700LEVEL
 62
13
 10
1358.227
 20
-173.659
 30
4527.000
 70
    32
  0
VERTEX
  8
0700LEVEL
 62
13
 10
1349.650
 20
-200.182
 30
4527.000
 70
    32
  0
VERTEX
  8
0700LEVEL
 62
13
 10
1345.873
 20
-251.374
 30
4527.000
 70
    32
  0
VERTEX
  8
0700LEVEL
 62
13
 10
1348.786
 20
-283.029
 30
4527.000
 70
    32
  0
VERTEX
  8
0700LEVEL
 62
13
 10
1342.360
 20
-325.744
 30
4527.000
 70
    32
  0
VERTEX
  8
0700LEVEL
 62
13
 10
1344.915
 20
-368.910
 30
4527.000
 70
    32
  0
VERTEX
  8
0700LEVEL
 62
13
 10
1337.701
 20
-408.731
 30
4527.000
 70
    32
  0
VERTEX
  8
0700LEVEL
 62
13
 10
1310.329
 20
-448.802
 30
4527.000
 70
    32
  0
VERTEX
  8
0700LEVEL
 62
13
 10
1288.413
 20
-486.238
 30
4527.000
 70
    32
  0
VERTEX
  8
0700LEVEL
 62
13
 10
1260.678
 20
-508.396
 30
4527.000
 70
    32
  0
VERTEX
  8
0700LEVEL
 62
13
 10
1237.981
 20
-535.143
 30
4527.000
 70
    32
  0
VERTEX
  8
0700LEVEL
 62
13
 10
1208.061
 20
-542.864
 30
4527.000
 70
    32
  0
VERTEX
  8
0700LEVEL
 62
13
 10
1191.194
 20
-521.267
 30
4527.000
 70
    32
  0
VERTEX
  8
0700LEVEL
 62
13
 10
1178.480
 20
-488.022
 30
4527.000
 70
    32
  0
VERTEX
  8
0700LEVEL
 62
13
 10
1166.707
 20
-445.876
 30
4527.000
 70
    32
  0
VERTEX
  8
0700LEVEL
 62
13
 10
1152.669
 20
-408.392
 30
4527.000
 70
    32
  0
VERTEX
  8
0700LEVEL
 62
13
 10
1132.940
 20
-423.047
 30
4527.000
 70
    32
  0
VERTEX
  8
0700LEVEL
 62
13
 10
1134.898
 20
-460.583
 30
4527.000
 70
    32
  0
VERTEX
  8
0700LEVEL
 62
13
 10
1109.997
 20
-477.668
 30
4527.000
 70
    32
  0
VERTEX
  8
0700LEVEL
 62
13
 10
1101.433
 20
-507.211
 30
4527.000
 70
    32
  0
VERTEX
  8
0700LEVEL
 62
13
 10
1075.784
 20
-511.852
 30
4527.000
 70
    32
  0
VERTEX
  8
0700LEVEL
 62
13
 10
1079.074
 20
-545.832
 30
4527.000
 70
    32
  0
VERTEX
  8
0700LEVEL
 62
13
 10
1090.212
 20
-573.290
 30
4527.000
 70
    32
  0
VERTEX
  8
0700LEVEL
 62
13
 10
1111.629
 20
-580.787
 30
4527.000
 70
    32
  0
VERTEX
  8
0700LEVEL
 62
13
 10
1111.160
 20
-557.324
 30
4527.000
 70
    32
  0
VERTEX
  8
0700LEVEL
 62
13
 10
1107.167
 20
-530.774
 30
4527.000
 70
    32
  0
SEQEND
  8
0700LEVEL
  0
POLYLINE
  8
0700LEVEL
 62
13
 66
     1
 70
     9
  0
VERTEX
  8
0700LEVEL
 62
13
 10
1271.626
 20
-1140.123
 30
4527.000
 70
    32
  0
VERTEX
  8
0700LEVEL
 62
13
 10
1251.104
 20
-1122.460
 30
4527.000
 70
    32
  0
VERTEX
  8
0700LEVEL
 62
13
 10
1235.065
 20
-1094.208
 30
4527.000
 70
    32
  0
VERTEX
  8
0700LEVEL
 62
13
 10
1218.610
 20
-1054.571
 30
4527.000
 70
    32
  0
VERTEX
  8
0700LEVEL
 62
13
 10
1206.717
 20
-1022.465
 30
4527.000
 70
    32
  0
VERTEX
  8
0700LEVEL
 62
13
 10
1206.460
 20
-991.492
 30
4527.000
 70
    32
  0
VERTEX
  8
0700LEVEL
 62
13
 10
1203.932
 20
-954.366
 30
4527.000
 70
    32
  0
VERTEX
  8
0700LEVEL
 62
13
 10
1217.098
 20
-941.413
 30
4527.000
 70
    32
  0
VERTEX
  8
0700LEVEL
 62
13
 10
1225.798
 20
-971.493
 30
4527.000
 70
    32
  0
VERTEX
  8
0700LEVEL
 62
13
 10
1233.678
 20
-1000.433
 30
4527.000
 70
    32
  0
VERTEX
  8
0700LEVEL
 62
13
 10
1246.604
 20
-1026.169
 30
4527.000
 70
    32
  0
VERTEX
  8
0700LEVEL
 62
13
 10
1264.285
 20
-1056.699
 30
4527.000
 70
    32
  0
VERTEX
  8
0700LEVEL
 62
13
 10
1265.761
 20
-1086.361
 30
4527.000
 70
    32
  0
VERTEX
  8
0700LEVEL
 62
13
 10
1266.972
 20
-1111.454
 30
4527.000
 70
    32
  0
SEQEND
  8
0700LEVEL
  0
POLYLINE
  8
0700LEVEL
 62
13
 66
     1
 70
     8
  0
VERTEX
  8
0700LEVEL
 62
13
 10
-103.012
 20
-1148.260
 30
4527.000
 70
    32
  0
VERTEX
  8
0700LEVEL
 62
13
 10
-91.034
 20
-1190.691
 30
4527.000
 70
    32
  0
VERTEX
  8
0700LEVEL
 62
13
 10
-67.195
 20
-1248.374
 30
4527.000
 70
    32
  0
VERTEX
  8
0700LEVEL
 62
13
 10
-32.820
 20
-1298.461
 30
4527.000
 70
    32
  0
VERTEX
  8
0700LEVEL
 62
13
 10
7.065
 20
-1357.992
 30
4527.000
 70
    32
  0
VERTEX
  8
0700LEVEL
 62
13
 10
33.891
 20
-1398.808
 30
4527.000
 70
    32
  0
VERTEX
  8
0700LEVEL
 62
13
 10
50.690
 20
-1461.133
 30
4527.000
 70
    32
  0
VERTEX
  8
0700LEVEL
 62
13
 10
69.641
 20
-1521.041
 30
4527.000
 70
    32
  0
VERTEX
  8
0700LEVEL
 62
13
 10
108.599
 20
-1573.883
 30
4527.000
 70
    32
  0
VERTEX
  8
0700LEVEL
 62
13
 10
161.068
 20
-1617.852
 30
4527.000
 70
    32
  0
VERTEX
  8
0700LEVEL
 62
13
 10
193.933
 20
-1658.641
 30
4527.000
 70
    32
  0
VERTEX
  8
0700LEVEL
 62
13
 10
225.010
 20
-1719.762
 30
4527.000
 70
    32
  0
VERTEX
  8
0700LEVEL
 62
13
 10
252.418
 20
-1781.796
 30
4527.000
 70
    32
  0
VERTEX
  8
0700LEVEL
 62
13
 10
291.608
 20
-1840.962
 30
4527.000
 70
    32
  0
VERTEX
  8
0700LEVEL
 62
13
 10
330.679
 20
-1891.560
 30
4527.000
 70
    32
  0
VERTEX
  8
0700LEVEL
 62
13
 10
358.882
 20
-1930.084
 30
4527.000
 70
    32
  0
VERTEX
  8
0700LEVEL
 62
13
 10
372.047
 20
-1954.349
 30
4527.000
 70
    32
  0
VERTEX
  8
0700LEVEL
 62
13
 10
416.998
 20
-2024.510
 30
4527.000
 70
    32
  0
VERTEX
  8
0700LEVEL
 62
13
 10
457.883
 20
-2079.425
 30
4527.000
 70
    32
  0
VERTEX
  8
0700LEVEL
 62
13
 10
511.456
 20
-2142.937
 30
4527.000
 70
    32
  0
SEQEND
  8
0700LEVEL
  0
POLYLINE
  8
0700LEVEL
 62
5
 66
     1
 70
     9
  0
VERTEX
  8
0700LEVEL
 62
5
 10
1675.895
 20
-672.564
 30
4527.000
 70
    32
  0
VERTEX
  8
0700LEVEL
 62
5
 10
1650.175
 20
-614.073
 30
4527.000
 70
    32
  0
VERTEX
  8
0700LEVEL
 62
5
 10
1622.609
 20
-534.410
 30
4527.000
 70
    32
  0
VERTEX
  8
0700LEVEL
 62
5
 10
1590.579
 20
-460.562
 30
4527.000
 70
    32
  0
VERTEX
  8
0700LEVEL
 62
5
 10
1554.132
 20
-393.792
 30
4527.000
 70
    32
  0
VERTEX
  8
0700LEVEL
 62
5
 10
1520.002
 20
-315.831
 30
4527.000
 70
    32
  0
VERTEX
  8
0700LEVEL
 62
5
 10
1504.309
 20
-254.440
 30
4527.000
 70
    32
  0
VERTEX
  8
0700LEVEL
 62
5
 10
1488.862
 20
-183.784
 30
4527.000
 70
    32
  0
VERTEX
  8
0700LEVEL
 62
5
 10
1472.565
 20
-161.777
 30
4527.000
 70
    32
  0
VERTEX
  8
0700LEVEL
 62
5
 10
1471.914
 20
-199.896
 30
4527.000
 70
    32
  0
VERTEX
  8
0700LEVEL
 62
5
 10
1484.999
 20
-243.260
 30
4527.000
 70
    32
  0
VERTEX
  8
0700LEVEL
 62
5
 10
1489.288
 20
-291.234
 30
4527.000
 70
    32
  0
VERTEX
  8
0700LEVEL
 62
5
 10
1512.664
 20
-336.268
 30
4527.000
 70
    32
  0
VERTEX
  8
0700LEVEL
 62
5
 10
1540.886
 20
-407.235
 30
4527.000
 70
    32
  0
VERTEX
  8
0700LEVEL
 62
5
 10
1577.088
 20
-483.270
 30
4527.000
 70
    32
  0
VERTEX
  8
0700LEVEL
 62
5
 10
1613.204
 20
-567.589
 30
4527.000
 70
    32
  0
VERTEX
  8
0700LEVEL
 62
5
 10
1643.558
 20
-640.914
 30
4527.000
 70
    32
  0
VERTEX
  8
0700LEVEL
 62
5
 10
1660.477
 20
-693.199
 30
4527.000
 70
    32
  0
SEQEND
  8
0700LEVEL
  0
POLYLINE
  8
0700LEVEL
 62
5
 66
     1
 70
     9
  0
VERTEX
  8
0700LEVEL
 62
5
 10
1094.017
 20
-152.934
 30
4527.000
 70
    32
  0
VERTEX
  8
0700LEVEL
 62
5
 10
1110.890
 20
-166.736
 30
4527.000
 70
    32
  0
VERTEX
  8
0700LEVEL
 62
5
 10
1118.936
 20
-186.901
 30
4527.000
 70
    32
  0
VERTEX
  8
0700LEVEL
 62
5
 10
1111.167
 20
-192.934
 30
4527.000
 70
    32
  0
VERTEX
  8
0700LEVEL
 62
5
 10
1096.592
 20
-172.715
 30
4527.000
 70
    32
  0
SEQEND
  8
0700LEVEL
  0
POLYLINE
  8
0700LEVEL
 62
5
 66
     1
 70
     9
  0
VERTEX
  8
0700LEVEL
 62
5
 10
1016.569
 20
-267.619
 30
4527.000
 70
    32
  0
VERTEX
  8
0700LEVEL
 62
5
 10
1035.057
 20
-314.878
 30
4527.000
 70
    32
  0
VERTEX
  8
0700LEVEL
 62
5
 10
1063.313
 20
-365.481
 30
4527.000
 70
    32
  0
VERTEX
  8
0700LEVEL
 62
5
 10
1094.722
 20
-409.052
 30
4527.000
 70
    32
  0
VERTEX
  8
0700LEVEL
 62
5
 10
1131.104
 20
-460.722
 30
4527.000
 70
    32
  0
VERTEX
  8
0700LEVEL
 62
5
 10
1167.221
 20
-507.823
 30
4527.000
 70
    32
  0
VERTEX
  8
0700LEVEL
 62
5
 10
1204.524
 20
-555.367
 30
4527.000
 70
    32
  0
VERTEX
  8
0700LEVEL
 62
5
 10
1228.998
 20
-609.130
 30
4527.000
 70
    32
  0
VERTEX
  8
0700LEVEL
 62
5
 10
1208.264
 20
-598.976
 30
4527.000
 70
    32
  0
VERTEX
  8
0700LEVEL
 62
5
 10
1188.371
 20
-566.578
 30
4527.000
 70
    32
  0
VERTEX
  8
0700LEVEL
 62
5
 10
1149.320
 20
-529.815
 30
4527.000
 70
    32
  0
VERTEX
  8
0700LEVEL
 62
5
 10
1118.672
 20
-483.099
 30
4527.000
 70
    32
  0
VERTEX
  8
0700LEVEL
 62
5
 10
1080.575
 20
-440.455
 30
4527.000
 70
    32
  0
VERTEX
  8
0700LEVEL
 62
5
 10
1048.848
 20
-398.845
 30
4527.000
 70
    32
  0
VERTEX
  8
0700LEVEL
 62
5
 10
1044.909
 20
-365.765
 30
4527.000
 70
    32
  0
VERTEX
  8
0700LEVEL
 62
5
 10
1021.421
 20
-322.977
 30
4527.000
 70
    32
  0
VERTEX
  8
0700LEVEL
 62
5
 10
996.688
 20
-275.459
 30
4527.000
 70
    32
  0
SEQEND
  8
0700LEVEL
  0
POLYLINE
  8
0700LEVEL
 62
5
 66
     1
 70
     9
  0
VERTEX
  8
0700LEVEL
 62
5
 10
1485.789
 20
-1025.986
 30
4527.000
 70
    32
  0
VERTEX
  8
0700LEVEL
 62
5
 10
1451.817
 20
-984.263
 30
4527.000
 70
    32
  0
VERTEX
  8
0700LEVEL
 62
5
 10
1417.753
 20
-940.010
 30
4527.000
 70
    32
  0
VERTEX
  8
0700LEVEL
 62
5
 10
1387.330
 20
-907.413
 30
4527.000
 70
    32
  0
VERTEX
  8
0700LEVEL
 62
5
 10
1357.020
 20
-872.571
 30
4527.000
 70
    32
  0
VERTEX
  8
0700LEVEL
 62
5
 10
1330.538
 20
-854.444
 30
4527.000
 70
    32
  0
VERTEX
  8
0700LEVEL
 62
5
 10
1339.821
 20
-887.133
 30
4527.000
 70
    32
  0
VERTEX
  8
0700LEVEL
 62
5
 10
1390.395
 20
-945.883
 30
4527.000
 70
    32
  0
VERTEX
  8
0700LEVEL
 62
5
 10
1433.466
 20
-996.627
 30
4527.000
 70
    32
  0
VERTEX
  8
0700LEVEL
 62
5
 10
1470.391
 20
-1041.846
 30
4527.000
 70
    32
  0
SEQEND
  8
0700LEVEL
  0
POLYLINE
  8
0700LEVEL
 62
5
 66
     1
 70
     9
  0
VERTEX
  8
0700LEVEL
 62
5
 10
932.220
 20
-710.117
 30
4527.000
 70
    32
  0
VERTEX
  8
0700LEVEL
 62
5
 10
944.039
 20
-772.138
 30
4527.000
 70
    32
  0
VERTEX
  8
0700LEVEL
 62
5
 10
963.771
 20
-842.734
 30
4527.000
 70
    32
  0
VERTEX
  8
0700LEVEL
 62
5
 10
986.669
 20
-909.318
 30
4527.000
 70
    32
  0
VERTEX
  8
0700LEVEL
 62
5
 10
1019.414
 20
-997.365
 30
4527.000
 70
    32
  0
VERTEX
  8
0700LEVEL
 62
5
 10
1041.074
 20
-1051.425
 30
4527.000
 70
    32
  0
VERTEX
  8
0700LEVEL
 62
5
 10
1055.258
 20
-1084.909
 30
4527.000
 70
    32
  0
VERTEX
  8
0700LEVEL
 62
5
 10
1074.878
 20
-1139.142
 30
4527.000
 70
    32
  0
VERTEX
  8
0700LEVEL
 62
5
 10
1115.749
 20
-1228.255
 30
4527.000
 70
    32
  0
VERTEX
  8
0700LEVEL
 62
5
 10
1147.348
 20
-1324.919
 30
4527.000
 70
    32
  0
VERTEX
  8
0700LEVEL
 62
5
 10
1165.569
 20
-1404.826
 30
4527.000
 70
    32
  0
VERTEX
  8
0700LEVEL
 62
5
 10
1186.918
 20
-1453.052
 30
4527.000
 70
    32
  0
VERTEX
  8
0700LEVEL
 62
5
 10
1229.756
 20
-1534.689
 30
4527.000
 70
    32
  0
VERTEX
  8
0700LEVEL
 62
5
 10
1272.441
 20
-1628.121
 30
4527.000
 70
    32
  0
VERTEX
  8
0700LEVEL
 62
5
 10
1314.537
 20
-1708.129
 30
4527.000
 70
    32
  0
VERTEX
  8
0700LEVEL
 62
5
 10
1348.032
 20
-1752.793
 30
4527.000
 70
    32
  0
VERTEX
  8
0700LEVEL
 62
5
 10
1400.612
 20
-1813.126
 30
4527.000
 70
    32
  0
VERTEX
  8
0700LEVEL
 62
5
 10
1423.763
 20
-1844.041
 30
4527.000
 70
    32
  0
VERTEX
  8
0700LEVEL
 62
5
 10
1435.562
 20
-1892.226
 30
4527.000
 70
    32
  0
VERTEX
  8
0700LEVEL
 62
5
 10
1469.315
 20
-1949.254
 30
4527.000
 70
    32
  0
VERTEX
  8
0700LEVEL
 62
5
 10
1519.947
 20
-2030.898
 30
4527.000
 70
    32
  0
VERTEX
  8
0700LEVEL
 62
5
 10
1585.361
 20
-2114.437
 30
4527.000
 70
    32
  0
VERTEX
  8
0700LEVEL
 62
5
 10
1630.424
 20
-2182.352
 30
4527.000
 70
    32
  0
VERTEX
  8
0700LEVEL
 62
5
 10
1613.696
 20
-2183.160
 30
4527.000
 70
    32
  0
VERTEX
  8
0700LEVEL
 62
5
 10
1583.347
 20
-2139.258
 30
4527.000
 70
    32
  0
VERTEX
  8
0700LEVEL
 62
5
 10
1536.495
 20
-2073.064
 30
4527.000
 70
    32
  0
VERTEX
  8
0700LEVEL
 62
5
 10
1494.365
 20
-2013.420
 30
4527.000
 70
    32
  0
VERTEX
  8
0700LEVEL
 62
5
 10
1462.050
 20
-1958.386
 30
4527.000
 70
    32
  0
VERTEX
  8
0700LEVEL
 62
5
 10
1433.959
 20
-1917.617
 30
4527.000
 70
    32
  0
VERTEX
  8
0700LEVEL
 62
5
 10
1416.921
 20
-1875.371
 30
4527.000
 70
    32
  0
VERTEX
  8
0700LEVEL
 62
5
 10
1409.962
 20
-1842.305
 30
4527.000
 70
    32
  0
VERTEX
  8
0700LEVEL
 62
5
 10
1370.328
 20
-1802.933
 30
4527.000
 70
    32
  0
VERTEX
  8
0700LEVEL
 62
5
 10
1322.793
 20
-1758.004
 30
4527.000
 70
    32
  0
VERTEX
  8
0700LEVEL
 62
5
 10
1288.246
 20
-1705.877
 30
4527.000
 70
    32
  0
VERTEX
  8
0700LEVEL
 62
5
 10
1252.428
 20
-1624.372
 30
4527.000
 70
    32
  0
VERTEX
  8
0700LEVEL
 62
5
 10
1220.238
 20
-1570.113
 30
4527.000
 70
    32
  0
VERTEX
  8
0700LEVEL
 62
5
 10
1176.017
 20
-1479.952
 30
4527.000
 70
    32
  0
VERTEX
  8
0700LEVEL
 62
5
 10
1152.025
 20
-1434.064
 30
4527.000
 70
    32
  0
VERTEX
  8
0700LEVEL
 62
5
 10
1137.670
 20
-1379.931
 30
4527.000
 70
    32
  0
VERTEX
  8
0700LEVEL
 62
5
 10
1121.812
 20
-1308.706
 30
4527.000
 70
    32
  0
VERTEX
  8
0700LEVEL
 62
5
 10
1101.590
 20
-1238.030
 30
4527.000
 70
    32
  0
VERTEX
  8
0700LEVEL
 62
5
 10
1080.261
 20
-1185.029
 30
4527.000
 70
    32
  0
VERTEX
  8
0700LEVEL
 62
5
 10
1058.733
 20
-1142.558
 30
4527.000
 70
    32
  0
VERTEX
  8
0700LEVEL
 62
5
 10
1043.429
 20
-1105.121
 30
4527.000
 70
    32
  0
VERTEX
  8
0700LEVEL
 62
5
 10
1030.934
 20
-1075.180
 30
4527.000
 70
    32
  0
VERTEX
  8
0700LEVEL
 62
5
 10
1015.645
 20
-1022.153
 30
4527.000
 70
    32
  0
VERTEX
  8
0700LEVEL
 62
5
 10
993.766
 20
-964.788
 30
4527.000
 70
    32
  0
VERTEX
  8
0700LEVEL
 62
5
 10
969.703
 20
-892.986
 30
4527.000
 70
    32
  0
VERTEX
  8
0700LEVEL
 62
5
 10
946.938
 20
-819.383
 30
4527.000
 70
    32
  0
VERTEX
  8
0700LEVEL
 62
5
 10
920.213
 20
-717.475
 30
4527.000
 70
    32
  0
SEQEND
  8
0700LEVEL
  0
POLYLINE
  8
0700LEVEL
 62
5
 66
     1
 70
     9
  0
VERTEX
  8
0700LEVEL
 62
5
 10
1020.338
 20
-1078.491
 30
4527.000
 70
    32
  0
VERTEX
  8
0700LEVEL
 62
5
 10
1034.866
 20
-1116.054
 30
4527.000
 70
    32
  0
VERTEX
  8
0700LEVEL
 62
5
 10
1050.699
 20
-1144.021
 30
4527.000
 70
    32
  0
VERTEX
  8
0700LEVEL
 62
5
 10
1068.003
 20
-1172.227
 30
4527.000
 70
    32
  0
VERTEX
  8
0700LEVEL
 62
5
 10
1084.802
 20
-1215.943
 30
4527.000
 70
    32
  0
VERTEX
  8
0700LEVEL
 62
5
 10
1094.092
 20
-1259.447
 30
4527.000
 70
    32
  0
VERTEX
  8
0700LEVEL
 62
5
 10
1090.164
 20
-1285.215
 30
4527.000
 70
    32
  0
VERTEX
  8
0700LEVEL
 62
5
 10
1077.185
 20
-1247.400
 30
4527.000
 70
    32
  0
VERTEX
  8
0700LEVEL
 62
5
 10
1063.962
 20
-1200.240
 30
4527.000
 70
    32
  0
VERTEX
  8
0700LEVEL
 62
5
 10
1056.036
 20
-1170.035
 30
4527.000
 70
    32
  0
VERTEX
  8
0700LEVEL
 62
5
 10
1036.329
 20
-1142.696
 30
4527.000
 70
    32
  0
VERTEX
  8
0700LEVEL
 62
5
 10
1004.636
 20
-1080.722
 30
4527.000
 70
    32
  0
SEQEND
  8
0700LEVEL
  0
POLYLINE
  8
0700LEVEL
 62
5
 66
     1
 70
     9
  0
VERTEX
  8
0700LEVEL
 62
5
 10
957.762
 20
-1075.131
 30
4527.000
 70
    32
  0
VERTEX
  8
0700LEVEL
 62
5
 10
976.694
 20
-1121.204
 30
4527.000
 70
    32
  0
VERTEX
  8
0700LEVEL
 62
5
 10
1000.493
 20
-1169.827
 30
4527.000
 70
    32
  0
VERTEX
  8
0700LEVEL
 62
5
 10
1020.273
 20
-1204.470
 30
4527.000
 70
    32
  0
VERTEX
  8
0700LEVEL
 62
5
 10
1003.472
 20
-1216.582
 30
4527.000
 70
    32
  0
VERTEX
  8
0700LEVEL
 62
5
 10
980.076
 20
-1176.323
 30
4527.000
 70
    32
  0
VERTEX
  8
0700LEVEL
 62
5
 10
954.164
 20
-1120.567
 30
4527.000
 70
    32
  0
VERTEX
  8
0700LEVEL
 62
5
 10
941.490
 20
-1077.772
 30
4527.000
 70
    32
  0
SEQEND
  8
0700LEVEL
  0
POLYLINE
  8
0700LEVEL
 62
5
 66
     1
 70
     9
  0
VERTEX
  8
0700LEVEL
 62
5
 10
1546.504
 20
-1183.452
 30
4527.000
 70
    32
  0
VERTEX
  8
0700LEVEL
 62
5
 10
1512.298
 20
-1209.841
 30
4527.000
 70
    32
  0
VERTEX
  8
0700LEVEL
 62
5
 10
1472.642
 20
-1231.071
 30
4527.000
 70
    32
  0
VERTEX
  8
0700LEVEL
 62
5
 10
1426.204
 20
-1250.698
 30
4527.000
 70
    32
  0
VERTEX
  8
0700LEVEL
 62
5
 10
1378.938
 20
-1276.981
 30
4527.000
 70
    32
  0
VERTEX
  8
0700LEVEL
 62
5
 10
1359.540
 20
-1292.695
 30
4527.000
 70
    32
  0
VERTEX
  8
0700LEVEL
 62
5
 10
1353.307
 20
-1332.675
 30
4527.000
 70
    32
  0
VERTEX
  8
0700LEVEL
 62
5
 10
1322.246
 20
-1359.826
 30
4527.000
 70
    32
  0
VERTEX
  8
0700LEVEL
 62
5
 10
1291.683
 20
-1379.262
 30
4527.000
 70
    32
  0
VERTEX
  8
0700LEVEL
 62
5
 10
1229.953
 20
-1401.690
 30
4527.000
 70
    32
  0
VERTEX
  8
0700LEVEL
 62
5
 10
1186.496
 20
-1412.244
 30
4527.000
 70
    32
  0
VERTEX
  8
0700LEVEL
 62
5
 10
1143.072
 20
-1421.044
 30
4527.000
 70
    32
  0
VERTEX
  8
0700LEVEL
 62
5
 10
1096.549
 20
-1430.347
 30
4527.000
 70
    32
  0
VERTEX
  8
0700LEVEL
 62
5
 10
1053.985
 20
-1449.345
 30
4527.000
 70
    32
  0
VERTEX
  8
0700LEVEL
 62
5
 10
1020.130
 20
-1472.019
 30
4527.000
 70
    32
  0
VERTEX
  8
0700LEVEL
 62
5
 10
985.513
 20
-1497.839
 30
4527.000
 70
    32
  0
VERTEX
  8
0700LEVEL
 62
5
 10
941.467
 20
-1513.579
 30
4527.000
 70
    32
  0
VERTEX
  8
0700LEVEL
 62
5
 10
899.121
 20
-1535.882
 30
4527.000
 70
    32
  0
VERTEX
  8
0700LEVEL
 62
5
 10
860.306
 20
-1572.085
 30
4527.000
 70
    32
  0
VERTEX
  8
0700LEVEL
 62
5
 10
824.807
 20
-1611.090
 30
4527.000
 70
    32
  0
VERTEX
  8
0700LEVEL
 62
5
 10
786.800
 20
-1645.413
 30
4527.000
 70
    32
  0
VERTEX
  8
0700LEVEL
 62
5
 10
751.759
 20
-1667.644
 30
4527.000
 70
    32
  0
VERTEX
  8
0700LEVEL
 62
5
 10
703.268
 20
-1684.423
 30
4527.000
 70
    32
  0
VERTEX
  8
0700LEVEL
 62
5
 10
658.242
 20
-1700.004
 30
4527.000
 70
    32
  0
VERTEX
  8
0700LEVEL
 62
5
 10
631.625
 20
-1726.115
 30
4527.000
 70
    32
  0
VERTEX
  8
0700LEVEL
 62
5
 10
619.067
 20
-1766.327
 30
4527.000
 70
    32
  0
VERTEX
  8
0700LEVEL
 62
5
 10
615.191
 20
-1804.174
 30
4527.000
 70
    32
  0
VERTEX
  8
0700LEVEL
 62
5
 10
609.084
 20
-1844.929
 30
4527.000
 70
    32
  0
VERTEX
  8
0700LEVEL
 62
5
 10
587.090
 20
-1864.246
 30
4527.000
 70
    32
  0
VERTEX
  8
0700LEVEL
 62
5
 10
537.222
 20
-1864.707
 30
4527.000
 70
    32
  0
VERTEX
  8
0700LEVEL
 62
5
 10
487.388
 20
-1863.414
 30
4527.000
 70
    32
  0
VERTEX
  8
0700LEVEL
 62
5
 10
436.600
 20
-1868.001
 30
4527.000
 70
    32
  0
VERTEX
  8
0700LEVEL
 62
5
 10
390.752
 20
-1882.443
 30
4527.000
 70
    32
  0
VERTEX
  8
0700LEVEL
 62
5
 10
358.750
 20
-1918.495
 30
4527.000
 70
    32
  0
VERTEX
  8
0700LEVEL
 62
5
 10
325.676
 20
-1970.467
 30
4527.000
 70
    32
  0
VERTEX
  8
0700LEVEL
 62
5
 10
279.263
 20
-2014.743
 30
4527.000
 70
    32
  0
VERTEX
  8
0700LEVEL
 62
5
 10
230.805
 20
-2048.377
 30
4527.000
 70
    32
  0
VERTEX
  8
0700LEVEL
 62
5
 10
177.897
 20
-2072.235
 30
4527.000
 70
    32
  0
VERTEX
  8
0700LEVEL
 62
5
 10
139.963
 20
-2095.254
 30
4527.000
 70
    32
  0
VERTEX
  8
0700LEVEL
 62
5
 10
145.856
 20
-2117.837
 30
4527.000
 70
    32
  0
VERTEX
  8
0700LEVEL
 62
5
 10
181.499
 20
-2093.441
 30
4527.000
 70
    32
  0
VERTEX
  8
0700LEVEL
 62
5
 10
229.758
 20
-2070.337
 30
4527.000
 70
    32
  0
VERTEX
  8
0700LEVEL
 62
5
 10
278.137
 20
-2037.193
 30
4527.000
 70
    32
  0
VERTEX
  8
0700LEVEL
 62
5
 10
319.350
 20
-2007.917
 30
4527.000
 70
    32
  0
VERTEX
  8
0700LEVEL
 62
5
 10
363.186
 20
-1962.468
 30
4527.000
 70
    32
  0
VERTEX
  8
0700LEVEL
 62
5
 10
393.115
 20
-1909.734
 30
4527.000
 70
    32
  0
VERTEX
  8
0700LEVEL
 62
5
 10
435.844
 20
-1900.571
 30
4527.000
 70
    32
  0
VERTEX
  8
0700LEVEL
 62
5
 10
511.632
 20
-1892.243
 30
4527.000
 70
    32
  0
VERTEX
  8
0700LEVEL
 62
5
 10
575.121
 20
-1899.272
 30
4527.000
 70
    32
  0
VERTEX
  8
0700LEVEL
 62
5
 10
584.088
 20
-1896.702
 30
4527.000
 70
    32
  0
VERTEX
  8
0700LEVEL
 62
5
 10
615.499
 20
-1884.445
 30
4527.000
 70
    32
  0
VERTEX
  8
0700LEVEL
 62
5
 10
639.667
 20
-1839.327
 30
4527.000
 70
    32
  0
VERTEX
  8
0700LEVEL
 62
5
 10
648.285
 20
-1784.646
 30
4527.000
 70
    32
  0
VERTEX
  8
0700LEVEL
 62
5
 10
660.856
 20
-1728.845
 30
4527.000
 70
    32
  0
VERTEX
  8
0700LEVEL
 62
5
 10
710.095
 20
-1705.900
 30
4527.000
 70
    32
  0
VERTEX
  8
0700LEVEL
 62
5
 10
760.062
 20
-1700.174
 30
4527.000
 70
    32
  0
VERTEX
  8
0700LEVEL
 62
5
 10
811.355
 20
-1661.467
 30
4527.000
 70
    32
  0
VERTEX
  8
0700LEVEL
 62
5
 10
840.357
 20
-1620.654
 30
4527.000
 70
    32
  0
VERTEX
  8
0700LEVEL
 62
5
 10
881.471
 20
-1578.033
 30
4527.000
 70
    32
  0
VERTEX
  8
0700LEVEL
 62
5
 10
929.836
 20
-1541.870
 30
4527.000
 70
    32
  0
VERTEX
  8
0700LEVEL
 62
5
 10
978.055
 20
-1528.315
 30
4527.000
 70
    32
  0
VERTEX
  8
0700LEVEL
 62
5
 10
1013.778
 20
-1503.429
 30
4527.000
 70
    32
  0
VERTEX
  8
0700LEVEL
 62
5
 10
1050.203
 20
-1471.113
 30
4527.000
 70
    32
  0
VERTEX
  8
0700LEVEL
 62
5
 10
1100.912
 20
-1448.406
 30
4527.000
 70
    32
  0
VERTEX
  8
0700LEVEL
 62
5
 10
1154.919
 20
-1433.276
 30
4527.000
 70
    32
  0
VERTEX
  8
0700LEVEL
 62
5
 10
1216.257
 20
-1424.113
 30
4527.000
 70
    32
  0
VERTEX
  8
0700LEVEL
 62
5
 10
1271.880
 20
-1405.221
 30
4527.000
 70
    32
  0
VERTEX
  8
0700LEVEL
 62
5
 10
1323.398
 20
-1380.634
 30
4527.000
 70
    32
  0
VERTEX
  8
0700LEVEL
 62
5
 10
1364.703
 20
-1353.887
 30
4527.000
 70
    32
  0
VERTEX
  8
0700LEVEL
 62
5
 10
1374.950
 20
-1317.073
 30
4527.000
 70
    32
  0
VERTEX
  8
0700LEVEL
 62
5
 10
1392.401
 20
-1285.452
 30
4527.000
 70
    32
  0
VERTEX
  8
0700LEVEL
 62
5
 10
1450.746
 20
-1263.732
 30
4527.000
 70
    32
  0
VERTEX
  8
0700LEVEL
 62
5
 10
1493.336
 20
-1250.774
 30
4527.000
 70
    32
  0
VERTEX
  8
0700LEVEL
 62
5
 10
1555.066
 20
-1209.737
 30
4527.000
 70
    32
  0
SEQEND
  8
0700LEVEL
  0
POLYLINE
  8
0700LEVEL
 62
5
 66
     1
 70
     8
  0
VERTEX
  8
0700LEVEL
 62
5
 10
919.415
 20
-1153.407
 30
4527.000
 70
    32
  0
VERTEX
  8
0700LEVEL
 62
5
 10
934.374
 20
-1186.765
 30
4527.000
 70
    32
  0
VERTEX
  8
0700LEVEL
 62
5
 10
946.418
 20
-1225.686
 30
4527.000
 70
    32
  0
VERTEX
  8
0700LEVEL
 62
5
 10
959.356
 20
-1291.660
 30
4527.000
 70
    32
  0
VERTEX
  8
0700LEVEL
 62
5
 10
971.724
 20
-1358.044
 30
4527.000
 70
    32
  0
VERTEX
  8
0700LEVEL
 62
5
 10
997.663
 20
-1401.230
 30
4527.000
 70
    32
  0
VERTEX
  8
0700LEVEL
 62
5
 10
1026.039
 20
-1423.185
 30
4527.000
 70
    32
  0
VERTEX
  8
0700LEVEL
 62
5
 10
1031.316
 20
-1463.523
 30
4527.000
 70
    32
  0
VERTEX
  8
0700LEVEL
 62
5
 10
1018.758
 20
-1503.734
 30
4527.000
 70
    32
  0
VERTEX
  8
0700LEVEL
 62
5
 10
1029.114
 20
-1557.721
 30
4527.000
 70
    32
  0
VERTEX
  8
0700LEVEL
 62
5
 10
1030.802
 20
-1561.264
 30
4527.000
 70
    32
  0
VERTEX
  8
0700LEVEL
 62
5
 10
1054.382
 20
-1625.192
 30
4527.000
 70
    32
  0
VERTEX
  8
0700LEVEL
 62
5
 10
1075.333
 20
-1694.478
 30
4527.000
 70
    32
  0
VERTEX
  8
0700LEVEL
 62
5
 10
1077.562
 20
-1766.007
 30
4527.000
 70
    32
  0
VERTEX
  8
0700LEVEL
 62
5
 10
1096.321
 20
-1828.650
 30
4527.000
 70
    32
  0
VERTEX
  8
0700LEVEL
 62
5
 10
1113.470
 20
-1905.869
 30
4527.000
 70
    32
  0
VERTEX
  8
0700LEVEL
 62
5
 10
1124.269
 20
-1958.671
 30
4527.000
 70
    32
  0
VERTEX
  8
0700LEVEL
 62
5
 10
1154.764
 20
-2017.182
 30
4527.000
 70
    32
  0
VERTEX
  8
0700LEVEL
 62
5
 10
1188.232
 20
-2074.415
 30
4527.000
 70
    32
  0
VERTEX
  8
0700LEVEL
 62
5
 10
1202.408
 20
-2134.302
 30
4527.000
 70
    32
  0
VERTEX
  8
0700LEVEL
 62
5
 10
1212.730
 20
-2190.044
 30
4527.000
 70
    32
  0
VERTEX
  8
0700LEVEL
 62
5
 10
1205.953
 20
-2255.083
 30
4527.000
 70
    32
  0
VERTEX
  8
0700LEVEL
 62
5
 10
1226.519
 20
-2348.448
 30
4527.000
 70
    32
  0
VERTEX
  8
0700LEVEL
 62
5
 10
1254.547
 20
-2459.370
 30
4527.000
 70
    32
  0
VERTEX
  8
0700LEVEL
 62
5
 10
1298.846
 20
-2604.867
 30
4527.000
 70
    32
  0
VERTEX
  8
0700LEVEL
 62
5
 10
1340.210
 20
-2760.703
 30
4527.000
 70
    32
  0
VERTEX
  8
0700LEVEL
 62
5
 10
1385.124
 20
-2925.665
 30
4527.000
 70
    32
  0
VERTEX
  8
0700LEVEL
 62
5
 10
1432.292
 20
-3027.116
 30
4527.000
 70
    32
  0
VERTEX
  8
0700LEVEL
 62
5
 10
1484.817
 20
-3149.807
 30
4527.000
 70
    32
  0
VERTEX
  8
0700LEVEL
 62
5
 10
1546.155
 20
-3300.332
 30
4527.000
 70
    32
  0
VERTEX
  8
0700LEVEL
 62
5
 10
1593.011
 20
-3433.168
 30
4527.000
 70
    32
  0
VERTEX
  8
0700LEVEL
 62
5
 10
1621.278
 20
-3542.619
 30
4527.000
 70
    32
  0
VERTEX
  8
0700LEVEL
 62
5
 10
1663.796
 20
-3663.435
 30
4527.000
 70
    32
  0
VERTEX
  8
0700LEVEL
 62
5
 10
1714.148
 20
-3793.317
 30
4527.000
 70
    32
  0
VERTEX
  8
0700LEVEL
 62
5
 10
1750.059
 20
-3877.351
 30
4527.000
 70
    32
  0
VERTEX
  8
0700LEVEL
 62
5
 10
1809.463
 20
-4033.598
 30
4527.000
 70
    32
  0
VERTEX
  8
0700LEVEL
 62
5
 10
1881.932
 20
-4219.375
 30
4527.000
 70
    32
  0
VERTEX
  8
0700LEVEL
 62
5
 10
1931.563
 20
-4342.854
 30
4527.000
 70
    32
  0
SEQEND
  8
0700LEVEL
  0
LINE
  8
0700LEVEL
 62
5
 10
1780.801
 20
-4030.458
 30
4527.000
 11
1729.668
 21
-3889.887
 31
4527.000
  0
POLYLINE
  8
0700LEVEL
 62
5
 66
     1
 70
     9
  0
VERTEX
  8
0700LEVEL
 62
5
 10
1752.053
 20
-4016.993
 30
4527.000
 70
    32
  0
VERTEX
  8
0700LEVEL
 62
5
 10
1719.037
 20
-3913.562
 30
4527.000
 70
    32
  0
VERTEX
  8
0700LEVEL
 62
5
 10
1688.975
 20
-3813.627
 30
4527.000
 70
    32
  0
VERTEX
  8
0700LEVEL
 62
5
 10
1667.518
 20
-3815.679
 30
4527.000
 70
    32
  0
VERTEX
  8
0700LEVEL
 62
5
 10
1702.421
 20
-3930.733
 30
4527.000
 70
    32
  0
VERTEX
  8
0700LEVEL
 62
5
 10
1731.179
 20
-4021.655
 30
4527.000
 70
    32
  0
SEQEND
  8
0700LEVEL
  0
POLYLINE
  8
0700LEVEL
 62
5
 66
     1
 70
     9
  0
VERTEX
  8
0700LEVEL
 62
5
 10
1707.052
 20
-4038.614
 30
4527.000
 70
    32
  0
VERTEX
  8
0700LEVEL
 62
5
 10
1668.692
 20
-3954.182
 30
4527.000
 70
    32
  0
VERTEX
  8
0700LEVEL
 62
5
 10
1617.160
 20
-3834.671
 30
4527.000
 70
    32
  0
VERTEX
  8
0700LEVEL
 62
5
 10
1607.286
 20
-3844.386
 30
4527.000
 70
    32
  0
VERTEX
  8
0700LEVEL
 62
5
 10
1627.641
 20
-3889.433
 30
4527.000
 70
    32
  0
VERTEX
  8
0700LEVEL
 62
5
 10
1697.794
 20
-4049.183
 30
4527.000
 70
    32
  0
SEQEND
  8
0700LEVEL
  0
LINE
  8
0700LEVEL
 62
5
 10
1700.341
 20
-4100.143
 30
4527.000
 11
1621.527
 21
-3937.982
 31
4527.000
  0
POLYLINE
  8
0700LEVEL
 62
5
 66
     1
 70
     8
  0
VERTEX
  8
0700LEVEL
 62
5
 10
1778.847
 20
-4360.331
 30
4527.000
 70
    32
  0
VERTEX
  8
0700LEVEL
 62
5
 10
1735.945
 20
-4244.985
 30
4527.000
 70
    32
  0
VERTEX
  8
0700LEVEL
 62
5
 10
1693.936
 20
-4138.083
 30
4527.000
 70
    32
  0
VERTEX
  8
0700LEVEL
 62
5
 10
1650.205
 20
-4048.002
 30
4527.000
 70
    32
  0
VERTEX
  8
0700LEVEL
 62
5
 10
1603.798
 20
-3962.014
 30
4527.000
 70
    32
  0
VERTEX
  8
0700LEVEL
 62
5
 10
1556.212
 20
-3867.787
 30
4527.000
 70
    32
  0
VERTEX
  8
0700LEVEL
 62
5
 10
1514.740
 20
-3762.230
 30
4527.000
 70
    32
  0
VERTEX
  8
0700LEVEL
 62
5
 10
1465.095
 20
-3654.341
 30
4527.000
 70
    32
  0
VERTEX
  8
0700LEVEL
 62
5
 10
1416.524
 20
-3530.531
 30
4527.000
 70
    32
  0
VERTEX
  8
0700LEVEL
 62
5
 10
1374.502
 20
-3420.610
 30
4527.000
 70
    32
  0
VERTEX
  8
0700LEVEL
 62
5
 10
1319.255
 20
-3300.747
 30
4527.000
 70
    32
  0
VERTEX
  8
0700LEVEL
 62
5
 10
1287.531
 20
-3203.309
 30
4527.000
 70
    32
  0
VERTEX
  8
0700LEVEL
 62
5
 10
1251.812
 20
-3116.539
 30
4527.000
 70
    32
  0
VERTEX
  8
0700LEVEL
 62
5
 10
1218.372
 20
-3028.128
 30
4527.000
 70
    32
  0
VERTEX
  8
0700LEVEL
 62
5
 10
1175.860
 20
-2936.736
 30
4527.000
 70
    32
  0
VERTEX
  8
0700LEVEL
 62
5
 10
1143.724
 20
-2838.728
 30
4527.000
 70
    32
  0
VERTEX
  8
0700LEVEL
 62
5
 10
1104.206
 20
-2722.674
 30
4527.000
 70
    32
  0
VERTEX
  8
0700LEVEL
 62
5
 10
1078.303
 20
-2621.905
 30
4527.000
 70
    32
  0
VERTEX
  8
0700LEVEL
 62
5
 10
1026.010
 20
-2486.930
 30
4527.000
 70
    32
  0
VERTEX
  8
0700LEVEL
 62
5
 10
982.412
 20
-2389.829
 30
4527.000
 70
    32
  0
VERTEX
  8
0700LEVEL
 62
5
 10
950.191
 20
-2281.497
 30
4527.000
 70
    32
  0
VERTEX
  8
0700LEVEL
 62
5
 10
918.280
 20
-2197.609
 30
4527.000
 70
    32
  0
VERTEX
  8
0700LEVEL
 62
5
 10
886.389
 20
-2127.555
 30
4527.000
 70
    32
  0
VERTEX
  8
0700LEVEL
 62
5
 10
864.293
 20
-2048.276
 30
4527.000
 70
    32
  0
VERTEX
  8
0700LEVEL
 62
5
 10
840.853
 20
-1969.534
 30
4527.000
 70
    32
  0
VERTEX
  8
0700LEVEL
 62
5
 10
846.100
 20
-1918.580
 30
4527.000
 70
    32
  0
VERTEX
  8
0700LEVEL
 62
5
 10
869.592
 20
-1849.714
 30
4527.000
 70
    32
  0
VERTEX
  8
0700LEVEL
 62
5
 10
863.238
 20
-1777.264
 30
4527.000
 70
    32
  0
VERTEX
  8
0700LEVEL
 62
5
 10
853.035
 20
-1711.482
 30
4527.000
 70
    32
  0
VERTEX
  8
0700LEVEL
 62
5
 10
842.780
 20
-1633.621
 30
4527.000
 70
    32
  0
VERTEX
  8
0700LEVEL
 62
5
 10
837.491
 20
-1571.654
 30
4527.000
 70
    32
  0
VERTEX
  8
0700LEVEL
 62
5
 10
843.401
 20
-1504.211
 30
4527.000
 70
    32
  0
VERTEX
  8
0700LEVEL
 62
5
 10
828.840
 20
-1449.793
 30
4527.000
 70
    32
  0
VERTEX
  8
0700LEVEL
 62
5
 10
793.220
 20
-1394.977
 30
4527.000
 70
    32
  0
VERTEX
  8
0700LEVEL
 62
5
 10
758.084
 20
-1329.426
 30
4527.000
 70
    32
  0
VERTEX
  8
0700LEVEL
 62
5
 10
724.167
 20
-1243.955
 30
4527.000
 70
    32
  0
VERTEX
  8
0700LEVEL
 62
5
 10
721.803
 20
-1235.273
 30
4527.000
 70
    32
  0
VERTEX
  8
0700LEVEL
 62
5
 10
704.732
 20
-1176.173
 30
4527.000
 70
    32
  0
VERTEX
  8
0700LEVEL
 62
5
 10
683.166
 20
-1087.424
 30
4527.000
 70
    32
  0
VERTEX
  8
0700LEVEL
 62
5
 10
656.323
 20
-995.556
 30
4527.000
 70
    32
  0
VERTEX
  8
0700LEVEL
 62
5
 10
623.916
 20
-900.773
 30
4527.000
 70
    32
  0
VERTEX
  8
0700LEVEL
 62
5
 10
592.972
 20
-832.633
 30
4527.000
 70
    32
  0
SEQEND
  8
0700LEVEL
  0
POLYLINE
  8
0700LEVEL
 62
5
 66
     1
 70
     8
  0
VERTEX
  8
0700LEVEL
 62
5
 10
912.878
 20
-1161.148
 30
4527.000
 70
    32
  0
VERTEX
  8
0700LEVEL
 62
5
 10
925.592
 20
-1194.394
 30
4527.000
 70
    32
  0
VERTEX
  8
0700LEVEL
 62
5
 10
932.597
 20
-1228.725
 30
4527.000
 70
    32
  0
VERTEX
  8
0700LEVEL
 62
5
 10
940.695
 20
-1260.970
 30
4527.000
 70
    32
  0
VERTEX
  8
0700LEVEL
 62
5
 10
943.899
 20
-1284.626
 30
4527.000
 70
    32
  0
VERTEX
  8
0700LEVEL
 62
5
 10
934.589
 20
-1264.506
 30
4527.000
 70
    32
  0
VERTEX
  8
0700LEVEL
 62
5
 10
923.432
 20
-1223.215
 30
4527.000
 70
    32
  0
VERTEX
  8
0700LEVEL
 62
5
 10
905.461
 20
-1163.466
 30
4527.000
 70
    32
  0
SEQEND
  8
0700LEVEL
  0
POLYLINE
  8
0700LEVEL
 62
5
 66
     1
 70
     8
  0
VERTEX
  8
0700LEVEL
 62
5
 10
898.395
 20
-1162.068
 30
4527.000
 70
    32
  0
VERTEX
  8
0700LEVEL
 62
5
 10
903.578
 20
-1199.876
 30
4527.000
 70
    32
  0
VERTEX
  8
0700LEVEL
 62
5
 10
911.683
 20
-1242.936
 30
4527.000
 70
    32
  0
VERTEX
  8
0700LEVEL
 62
5
 10
924.277
 20
-1286.221
 30
4527.000
 70
    32
  0
VERTEX
  8
0700LEVEL
 62
5
 10
945.367
 20
-1340.692
 30
4527.000
 70
    32
  0
VERTEX
  8
0700LEVEL
 62
5
 10
962.153
 20
-1399.997
 30
4527.000
 70
    32
  0
VERTEX
  8
0700LEVEL
 62
5
 10
970.827
 20
-1442.646
 30
4527.000
 70
    32
  0
VERTEX
  8
0700LEVEL
 62
5
 10
967.475
 20
-1460.209
 30
4527.000
 70
    32
  0
VERTEX
  8
0700LEVEL
 62
5
 10
945.781
 20
-1426.513
 30
4527.000
 70
    32
  0
VERTEX
  8
0700LEVEL
 62
5
 10
928.293
 20
-1374.638
 30
4527.000
 70
    32
  0
VERTEX
  8
0700LEVEL
 62
5
 10
909.057
 20
-1314.936
 30
4527.000
 70
    32
  0
VERTEX
  8
0700LEVEL
 62
5
 10
893.570
 20
-1253.829
 30
4527.000
 70
    32
  0
VERTEX
  8
0700LEVEL
 62
5
 10
882.240
 20
-1210.498
 30
4527.000
 70
    32
  0
VERTEX
  8
0700LEVEL
 62
5
 10
881.103
 20
-1174.101
 30
4527.000
 70
    32
  0
SEQEND
  8
0700LEVEL
  0
POLYLINE
  8
0700LEVEL
 62
5
 66
     1
 70
     8
  0
VERTEX
  8
0700LEVEL
 62
5
 10
862.877
 20
-1187.239
 30
4527.000
 70
    32
  0
VERTEX
  8
0700LEVEL
 62
5
 10
867.518
 20
-1231.497
 30
4527.000
 70
    32
  0
VERTEX
  8
0700LEVEL
 62
5
 10
878.006
 20
-1278.464
 30
4527.000
 70
    32
  0
VERTEX
  8
0700LEVEL
 62
5
 10
892.845
 20
-1321.862
 30
4527.000
 70
    32
  0
VERTEX
  8
0700LEVEL
 62
5
 10
900.764
 20
-1359.862
 30
4527.000
 70
    32
  0
VERTEX
  8
0700LEVEL
 62
5
 10
897.372
 20
-1386.975
 30
4527.000
 70
    32
  0
VERTEX
  8
0700LEVEL
 62
5
 10
881.043
 20
-1348.113
 30
4527.000
 70
    32
  0
VERTEX
  8
0700LEVEL
 62
5
 10
866.899
 20
-1305.080
 30
4527.000
 70
    32
  0
VERTEX
  8
0700LEVEL
 62
5
 10
848.696
 20
-1257.616
 30
4527.000
 70
    32
  0
VERTEX
  8
0700LEVEL
 62
5
 10
844.717
 20
-1215.477
 30
4527.000
 70
    32
  0
VERTEX
  8
0700LEVEL
 62
5
 10
846.493
 20
-1192.126
 30
4527.000
 70
    32
  0
SEQEND
  8
0700LEVEL
  0
POLYLINE
  8
0700LEVEL
 62
5
 66
     1
 70
     8
  0
VERTEX
  8
0700LEVEL
 62
5
 10
775.644
 20
-1228.917
 30
4527.000
 70
    32
  0
VERTEX
  8
0700LEVEL
 62
5
 10
783.781
 20
-1270.222
 30
4527.000
 70
    32
  0
VERTEX
  8
0700LEVEL
 62
5
 10
808.646
 20
-1329.329
 30
4527.000
 70
    32
  0
VERTEX
  8
0700LEVEL
 62
5
 10
833.591
 20
-1387.946
 30
4527.000
 70
    32
  0
VERTEX
  8
0700LEVEL
 62
5
 10
843.642
 20
-1428.304
 30
4527.000
 70
    32
  0
VERTEX
  8
0700LEVEL
 62
5
 10
813.684
 20
-1389.746
 30
4527.000
 70
    32
  0
VERTEX
  8
0700LEVEL
 62
5
 10
781.746
 20
-1337.037
 30
4527.000
 70
    32
  0
VERTEX
  8
0700LEVEL
 62
5
 10
757.615
 20
-1287.354
 30
4527.000
 70
    32
  0
VERTEX
  8
0700LEVEL
 62
5
 10
756.478
 20
-1250.956
 30
4527.000
 70
    32
  0
VERTEX
  8
0700LEVEL
 62
5
 10
760.770
 20
-1224.493
 30
4527.000
 70
    32
  0
SEQEND
  8
0700LEVEL
  0
POLYLINE
  8
0700LEVEL
 62
5
 66
     1
 70
     8
  0
VERTEX
  8
0700LEVEL
 62
5
 10
1183.332
 20
-2214.699
 30
4527.000
 70
    32
  0
VERTEX
  8
0700LEVEL
 62
5
 10
1181.671
 20
-2179.977
 30
4527.000
 70
    32
  0
VERTEX
  8
0700LEVEL
 62
5
 10
1189.865
 20
-2140.315
 30
4527.000
 70
    32
  0
VERTEX
  8
0700LEVEL
 62
5
 10
1179.542
 20
-2103.182
 30
4527.000
 70
    32
  0
VERTEX
  8
0700LEVEL
 62
5
 10
1162.040
 20
-2066.897
 30
4527.000
 70
    32
  0
VERTEX
  8
0700LEVEL
 62
5
 10
1140.246
 20
-2038.466
 30
4527.000
 70
    32
  0
VERTEX
  8
0700LEVEL
 62
5
 10
1148.390
 20
-2090.585
 30
4527.000
 70
    32
  0
VERTEX
  8
0700LEVEL
 62
5
 10
1165.613
 20
-2137.890
 30
4527.000
 70
    32
  0
VERTEX
  8
0700LEVEL
 62
5
 10
1169.088
 20
-2176.930
 30
4527.000
 70
    32
  0
VERTEX
  8
0700LEVEL
 62
5
 10
1170.147
 20
-2213.817
 30
4527.000
 70
    32
  0
SEQEND
  8
0700LEVEL
  0
POLYLINE
  8
0700LEVEL
 62
5
 66
     1
 70
     8
  0
VERTEX
  8
0700LEVEL
 62
5
 10
1152.643
 20
-2214.750
 30
4527.000
 70
    32
  0
VERTEX
  8
0700LEVEL
 62
5
 10
1144.731
 20
-2168.956
 30
4527.000
 70
    32
  0
VERTEX
  8
0700LEVEL
 62
5
 10
1150.336
 20
-2125.102
 30
4527.000
 70
    32
  0
VERTEX
  8
0700LEVEL
 62
5
 10
1136.397
 20
-2082.353
 30
4527.000
 70
    32
  0
VERTEX
  8
0700LEVEL
 62
5
 10
1117.525
 20
-2021.955
 30
4527.000
 70
    32
  0
VERTEX
  8
0700LEVEL
 62
5
 10
1078.369
 20
-1961.033
 30
4527.000
 70
    32
  0
VERTEX
  8
0700LEVEL
 62
5
 10
1052.591
 20
-1879.648
 30
4527.000
 70
    32
  0
VERTEX
  8
0700LEVEL
 62
5
 10
1038.792
 20
-1803.476
 30
4527.000
 70
    32
  0
VERTEX
  8
0700LEVEL
 62
5
 10
1032.450
 20
-1752.654
 30
4527.000
 70
    32
  0
VERTEX
  8
0700LEVEL
 62
5
 10
1032.452
 20
-1696.827
 30
4527.000
 70
    32
  0
VERTEX
  8
0700LEVEL
 62
5
 10
1021.368
 20
-1644.231
 30
4527.000
 70
    32
  0
VERTEX
  8
0700LEVEL
 62
5
 10
1000.542
 20
-1612.938
 30
4527.000
 70
    32
  0
VERTEX
  8
0700LEVEL
 62
5
 10
1003.004
 20
-1653.574
 30
4527.000
 70
    32
  0
VERTEX
  8
0700LEVEL
 62
5
 10
1013.359
 20
-1707.561
 30
4527.000
 70
    32
  0
VERTEX
  8
0700LEVEL
 62
5
 10
1008.861
 20
-1752.349
 30
4527.000
 70
    32
  0
VERTEX
  8
0700LEVEL
 62
5
 10
998.197
 20
-1796.388
 30
4527.000
 70
    32
  0
VERTEX
  8
0700LEVEL
 62
5
 10
1008.592
 20
-1859.435
 30
4527.000
 70
    32
  0
VERTEX
  8
0700LEVEL
 62
5
 10
1024.000
 20
-1921.031
 30
4527.000
 70
    32
  0
VERTEX
  8
0700LEVEL
 62
5
 10
1040.626
 20
-1981.316
 30
4527.000
 70
    32
  0
VERTEX
  8
0700LEVEL
 62
5
 10
1051.399
 20
-2028.078
 30
4527.000
 70
    32
  0
VERTEX
  8
0700LEVEL
 62
5
 10
1072.312
 20
-2069.695
 30
4527.000
 70
    32
  0
VERTEX
  8
0700LEVEL
 62
5
 10
1099.157
 20
-2124.345
 30
4527.000
 70
    32
  0
VERTEX
  8
0700LEVEL
 62
5
 10
1125.884
 20
-2170.425
 30
4527.000
 70
    32
  0
VERTEX
  8
0700LEVEL
 62
5
 10
1137.200
 20
-2210.737
 30
4527.000
 70
    32
  0
SEQEND
  8
0700LEVEL
  0
POLYLINE
  8
0700LEVEL
 62
5
 66
     1
 70
     8
  0
VERTEX
  8
0700LEVEL
 62
5
 10
1107.644
 20
-2199.153
 30
4527.000
 70
    32
  0
VERTEX
  8
0700LEVEL
 62
5
 10
1087.355
 20
-2150.596
 30
4527.000
 70
    32
  0
VERTEX
  8
0700LEVEL
 62
5
 10
1070.184
 20
-2115.370
 30
4527.000
 70
    32
  0
VERTEX
  8
0700LEVEL
 62
5
 10
1041.000
 20
-2076.687
 30
4527.000
 70
    32
  0
VERTEX
  8
0700LEVEL
 62
5
 10
1048.601
 20
-2116.647
 30
4527.000
 70
    32
  0
VERTEX
  8
0700LEVEL
 62
5
 10
1072.228
 20
-2163.231
 30
4527.000
 70
    32
  0
VERTEX
  8
0700LEVEL
 62
5
 10
1088.922
 20
-2201.397
 30
4527.000
 70
    32
  0
SEQEND
  8
0700LEVEL
  0
POLYLINE
  8
0700LEVEL
 62
5
 66
     1
 70
     8
  0
VERTEX
  8
0700LEVEL
 62
5
 10
1069.002
 20
-2200.178
 30
4527.000
 70
    32
  0
VERTEX
  8
0700LEVEL
 62
5
 10
1047.176
 20
-2154.892
 30
4527.000
 70
    32
  0
VERTEX
  8
0700LEVEL
 62
5
 10
1020.548
 20
-2122.156
 30
4527.000
 70
    32
  0
VERTEX
  8
0700LEVEL
 62
5
 10
1030.964
 20
-2161.819
 30
4527.000
 70
    32
  0
VERTEX
  8
0700LEVEL
 62
5
 10
1055.948
 20
-2210.886
 30
4527.000
 70
    32
  0
SEQEND
  8
0700LEVEL
  0
POLYLINE
  8
0700LEVEL
 62
5
 66
     1
 70
     8
  0
VERTEX
  8
0700LEVEL
 62
5
 10
971.247
 20
-2196.644
 30
4527.000
 70
    32
  0
VERTEX
  8
0700LEVEL
 62
5
 10
943.435
 20
-2144.855
 30
4527.000
 70
    32
  0
VERTEX
  8
0700LEVEL
 62
5
 10
931.974
 20
-2071.325
 30
4527.000
 70
    32
  0
VERTEX
  8
0700LEVEL
 62
5
 10
927.910
 20
-2018.861
 30
4527.000
 70
    32
  0
VERTEX
  8
0700LEVEL
 62
5
 10
902.468
 20
-1967.960
 30
4527.000
 70
    32
  0
VERTEX
  8
0700LEVEL
 62
5
 10
881.980
 20
-1929.933
 30
4527.000
 70
    32
  0
VERTEX
  8
0700LEVEL
 62
5
 10
889.533
 20
-2005.847
 30
4527.000
 70
    32
  0
VERTEX
  8
0700LEVEL
 62
5
 10
894.107
 20
-2072.224
 30
4527.000
 70
    32
  0
VERTEX
  8
0700LEVEL
 62
5
 10
905.581
 20
-2130.165
 30
4527.000
 70
    32
  0
VERTEX
  8
0700LEVEL
 62
5
 10
924.136
 20
-2173.914
 30
4527.000
 70
    32
  0
VERTEX
  8
0700LEVEL
 62
5
 10
941.214
 20
-2206.610
 30
4527.000
 70
    32
  0
SEQEND
  8
0700LEVEL
  0
POLYLINE
  8
0700LEVEL
 62
5
 66
     1
 70
     9
  0
VERTEX
  8
0700LEVEL
 62
5
 10
958.025
 20
-1614.592
 30
4527.000
 70
    32
  0
VERTEX
  8
0700LEVEL
 62
5
 10
966.296
 20
-1648.877
 30
4527.000
 70
    32
  0
VERTEX
  8
0700LEVEL
 62
5
 10
957.401
 20
-1658.751
 30
4527.000
 70
    32
  0
VERTEX
  8
0700LEVEL
 62
5
 10
953.442
 20
-1630.446
 30
4527.000
 70
    32
  0
SEQEND
  8
0700LEVEL
  0
POLYLINE
  8
0700LEVEL
 62
5
 66
     1
 70
     9
  0
VERTEX
  8
0700LEVEL
 62
5
 10
862.148
 20
-1545.225
 30
4527.000
 70
    32
  0
VERTEX
  8
0700LEVEL
 62
5
 10
881.629
 20
-1595.662
 30
4527.000
 70
    32
  0
VERTEX
  8
0700LEVEL
 62
5
 10
908.342
 20
-1638.723
 30
4527.000
 70
    32
  0
VERTEX
  8
0700LEVEL
 62
5
 10
924.738
 20
-1674.074
 30
4527.000
 70
    32
  0
VERTEX
  8
0700LEVEL
 62
5
 10
922.883
 20
-1697.915
 30
4527.000
 70
    32
  0
VERTEX
  8
0700LEVEL
 62
5
 10
896.865
 20
-1655.219
 30
4527.000
 70
    32
  0
VERTEX
  8
0700LEVEL
 62
5
 10
867.622
 20
-1612.251
 30
4527.000
 70
    32
  0
VERTEX
  8
0700LEVEL
 62
5
 10
859.603
 20
-1579.516
 30
4527.000
 70
    32
  0
SEQEND
  8
0700LEVEL
  0
POLYLINE
  8
0700LEVEL
 62
5
 66
     1
 70
     9
  0
VERTEX
  8
0700LEVEL
 62
5
 10
872.055
 20
-2209.726
 30
4527.000
 70
    32
  0
VERTEX
  8
0700LEVEL
 62
5
 10
852.441
 20
-2166.308
 30
4527.000
 70
    32
  0
VERTEX
  8
0700LEVEL
 62
5
 10
831.602
 20
-2113.387
 30
4527.000
 70
    32
  0
VERTEX
  8
0700LEVEL
 62
5
 10
809.630
 20
-2072.101
 30
4527.000
 70
    32
  0
VERTEX
  8
0700LEVEL
 62
5
 10
803.609
 20
-2104.571
 30
4527.000
 70
    32
  0
VERTEX
  8
0700LEVEL
 62
5
 10
818.336
 20
-2150.214
 30
4527.000
 70
    32
  0
VERTEX
  8
0700LEVEL
 62
5
 10
838.168
 20
-2196.937
 30
4527.000
 70
    32
  0
VERTEX
  8
0700LEVEL
 62
5
 10
849.439
 20
-2217.374
 30
4527.000
 70
    32
  0
SEQEND
  8
0700LEVEL
  0
LINE
  8
0700LEVEL
 62
3
 10
-132.151
 20
-969.763
 30
4527.000
 11
-98.555
 21
-1131.631
 31
4527.000
  0
LINE
  8
0700LEVEL
 62
3
 10
515.787
 20
-2144.143
 30
4527.000
 11
575.671
 21
-2223.012
 31
4527.000
  0
POLYLINE
  8
0700LEVEL
 62
13
 66
     1
 70
     8
  0
VERTEX
  8
0700LEVEL
 62
13
 10
577.684
 20
-2235.410
 30
4527.000
 70
    32
  0
VERTEX
  8
0700LEVEL
 62
13
 10
617.172
 20
-2297.391
 30
4527.000
 70
    32
  0
VERTEX
  8
0700LEVEL
 62
13
 10
669.182
 20
-2358.135
 30
4527.000
 70
    32
  0
VERTEX
  8
0700LEVEL
 62
13
 10
734.185
 20
-2441.104
 30
4527.000
 70
    32
  0
VERTEX
  8
0700LEVEL
 62
13
 10
779.487
 20
-2507.549
 30
4527.000
 70
    32
  0
VERTEX
  8
0700LEVEL
 62
13
 10
824.199
 20
-2579.180
 30
4527.000
 70
    32
  0
VERTEX
  8
0700LEVEL
 62
13
 10
869.534
 20
-2643.870
 30
4527.000
 70
    32
  0
VERTEX
  8
0700LEVEL
 62
13
 10
926.783
 20
-2717.283
 30
4527.000
 70
    32
  0
VERTEX
  8
0700LEVEL
 62
13
 10
978.469
 20
-2787.781
 30
4527.000
 70
    32
  0
VERTEX
  8
0700LEVEL
 62
13
 10
1037.830
 20
-2868.326
 30
4527.000
 70
    32
  0
VERTEX
  8
0700LEVEL
 62
13
 10
1088.204
 20
-2937.606
 30
4527.000
 70
    32
  0
VERTEX
  8
0700LEVEL
 62
13
 10
1149.890
 20
-3017.774
 30
4527.000
 70
    32
  0
VERTEX
  8
0700LEVEL
 62
13
 10
1201.575
 20
-3088.273
 30
4527.000
 70
    32
  0
VERTEX
  8
0700LEVEL
 62
13
 10
1248.340
 20
-3162.751
 30
4527.000
 70
    32
  0
VERTEX
  8
0700LEVEL
 62
13
 10
1288.411
 20
-3208.733
 30
4527.000
 70
    32
  0
VERTEX
  8
0700LEVEL
 62
13
 10
1611.154
 20
-3494.956
 30
4527.000
 70
    32
  0
VERTEX
  8
0700LEVEL
 62
13
 10
1650.932
 20
-3567.547
 30
4527.000
 70
    32
  0
VERTEX
  8
0700LEVEL
 62
13
 10
1685.538
 20
-3642.568
 30
4527.000
 70
    32
  0
VERTEX
  8
0700LEVEL
 62
13
 10
1715.257
 20
-3719.814
 30
4527.000
 70
    32
  0
VERTEX
  8
0700LEVEL
 62
13
 10
1738.440
 20
-3786.192
 30
4527.000
 70
    32
  0
VERTEX
  8
0700LEVEL
 62
13
 10
1765.775
 20
-3840.922
 30
4527.000
 70
    32
  0
VERTEX
  8
0700LEVEL
 62
13
 10
1788.402
 20
-3910.730
 30
4527.000
 70
    32
  0
VERTEX
  8
0700LEVEL
 62
13
 10
1812.518
 20
-3976.003
 30
4527.000
 70
    32
  0
VERTEX
  8
0700LEVEL
 62
13
 10
1790.545
 20
-3971.935
 30
4527.000
 70
    32
  0
VERTEX
  8
0700LEVEL
 62
13
 10
1760.406
 20
-3976.351
 30
4527.000
 70
    32
  0
VERTEX
  8
0700LEVEL
 62
13
 10
1728.308
 20
-3943.231
 30
4527.000
 70
    32
  0
VERTEX
  8
0700LEVEL
 62
13
 10
1698.693
 20
-3927.362
 30
4527.000
 70
    32
  0
VERTEX
  8
0700LEVEL
 62
13
 10
1673.006
 20
-3885.726
 30
4527.000
 70
    32
  0
VERTEX
  8
0700LEVEL
 62
13
 10
1659.319
 20
-3844.527
 30
4527.000
 70
    32
  0
VERTEX
  8
0700LEVEL
 62
13
 10
1632.525
 20
-3820.565
 30
4527.000
 70
    32
  0
VERTEX
  8
0700LEVEL
 62
13
 10
1649.192
 20
-3871.301
 30
4527.000
 70
    32
  0
VERTEX
  8
0700LEVEL
 62
13
 10
1657.686
 20
-3919.705
 30
4527.000
 70
    32
  0
VERTEX
  8
0700LEVEL
 62
13
 10
1636.991
 20
-3918.612
 30
4527.000
 70
    32
  0
VERTEX
  8
0700LEVEL
 62
13
 10
1645.413
 20
-3978.320
 30
4527.000
 70
    32
  0
VERTEX
  8
0700LEVEL
 62
13
 10
1607.320
 20
-3983.710
 30
4527.000
 70
    32
  0
VERTEX
  8
0700LEVEL
 62
13
 10
1599.054
 20
-3997.458
 30
4527.000
 70
    32
  0
VERTEX
  8
0700LEVEL
 62
13
 10
1580.361
 20
-3949.914
 30
4527.000
 70
    32
  0
VERTEX
  8
0700LEVEL
 62
13
 10
1561.681
 20
-3905.390
 30
4527.000
 70
    32
  0
VERTEX
  8
0700LEVEL
 62
13
 10
1530.014
 20
-3849.455
 30
4527.000
 70
    32
  0
VERTEX
  8
0700LEVEL
 62
13
 10
1492.441
 20
-3786.527
 30
4527.000
 70
    32
  0
VERTEX
  8
0700LEVEL
 62
13
 10
1454.416
 20
-3732.579
 30
4527.000
 70
    32
  0
VERTEX
  8
0700LEVEL
 62
13
 10
1419.902
 20
-3678.697
 30
4527.000
 70
    32
  0
VERTEX
  8
0700LEVEL
 62
13
 10
1378.229
 20
-3620.887
 30
4527.000
 70
    32
  0
VERTEX
  8
0700LEVEL
 62
13
 10
1344.059
 20
-3571.085
 30
4527.000
 70
    32
  0
VERTEX
  8
0700LEVEL
 62
13
 10
1292.976
 20
-3498.421
 30
4527.000
 70
    32
  0
VERTEX
  8
0700LEVEL
 62
13
 10
1246.243
 20
-3459.406
 30
4527.000
 70
    32
  0
VERTEX
  8
0700LEVEL
 62
13
 10
1249.916
 20
-3506.525
 30
4527.000
 70
    32
  0
VERTEX
  8
0700LEVEL
 62
13
 10
1273.185
 20
-3583.227
 30
4527.000
 70
    32
  0
VERTEX
  8
0700LEVEL
 62
13
 10
1284.427
 20
-3634.844
 30
4527.000
 70
    32
  0
VERTEX
  8
0700LEVEL
 62
13
 10
1264.845
 20
-3626.889
 30
4527.000
 70
    32
  0
VERTEX
  8
0700LEVEL
 62
13
 10
1223.583
 20
-3569.649
 30
4527.000
 70
    32
  0
VERTEX
  8
0700LEVEL
 62
13
 10
1175.771
 20
-3498.522
 30
4527.000
 70
    32
  0
VERTEX
  8
0700LEVEL
 62
13
 10
1148.654
 20
-3447.097
 30
4527.000
 70
    32
  0
VERTEX
  8
0700LEVEL
 62
13
 10
1119.047
 20
-3386.215
 30
4527.000
 70
    32
  0
VERTEX
  8
0700LEVEL
 62
13
 10
1082.434
 20
-3328.221
 30
4527.000
 70
    32
  0
VERTEX
  8
0700LEVEL
 62
13
 10
1031.304
 20
-3254.292
 30
4527.000
 70
    32
  0
VERTEX
  8
0700LEVEL
 62
13
 10
987.678
 20
-3188.370
 30
4527.000
 70
    32
  0
VERTEX
  8
0700LEVEL
 62
13
 10
926.537
 20
-3083.143
 30
4527.000
 70
    32
  0
VERTEX
  8
0700LEVEL
 62
13
 10
889.295
 20
-3002.664
 30
4527.000
 70
    32
  0
VERTEX
  8
0700LEVEL
 62
13
 10
833.788
 20
-2926.265
 30
4527.000
 70
    32
  0
VERTEX
  8
0700LEVEL
 62
13
 10
781.541
 20
-2829.773
 30
4527.000
 70
    32
  0
VERTEX
  8
0700LEVEL
 62
13
 10
734.809
 20
-2753.540
 30
4527.000
 70
    32
  0
VERTEX
  8
0700LEVEL
 62
13
 10
665.058
 20
-2639.372
 30
4527.000
 70
    32
  0
VERTEX
  8
0700LEVEL
 62
13
 10
608.234
 20
-2550.940
 30
4527.000
 70
    32
  0
VERTEX
  8
0700LEVEL
 62
13
 10
557.000
 20
-2452.852
 30
4527.000
 70
    32
  0
VERTEX
  8
0700LEVEL
 62
13
 10
503.129
 20
-2367.916
 30
4527.000
 70
    32
  0
VERTEX
  8
0700LEVEL
 62
13
 10
442.252
 20
-2285.868
 30
4527.000
 70
    32
  0
VERTEX
  8
0700LEVEL
 62
13
 10
392.282
 20
-2206.343
 30
4527.000
 70
    32
  0
VERTEX
  8
0700LEVEL
 62
13
 10
335.875
 20
-2129.294
 30
4527.000
 70
    32
  0
VERTEX
  8
0700LEVEL
 62
13
 10
274.560
 20
-2040.637
 30
4527.000
 70
    32
  0
VERTEX
  8
0700LEVEL
 62
13
 10
262.084
 20
-2024.530
 30
4527.000
 70
    32
  0
VERTEX
  8
0700LEVEL
 62
13
 10
232.961
 20
-1971.523
 30
4527.000
 70
    32
  0
VERTEX
  8
0700LEVEL
 62
13
 10
188.109
 20
-1896.097
 30
4527.000
 70
    32
  0
VERTEX
  8
0700LEVEL
 62
13
 10
144.139
 20
-1826.096
 30
4527.000
 70
    32
  0
VERTEX
  8
0700LEVEL
 62
13
 10
96.122
 20
-1754.683
 30
4527.000
 70
    32
  0
VERTEX
  8
0700LEVEL
 62
13
 10
60.051
 20
-1708.848
 30
4527.000
 70
    32
  0
VERTEX
  8
0700LEVEL
 62
13
 10
19.987
 20
-1655.071
 30
4527.000
 70
    32
  0
VERTEX
  8
0700LEVEL
 62
13
 10
-8.024
 20
-1595.203
 30
4527.000
 70
    32
  0
VERTEX
  8
0700LEVEL
 62
13
 10
-35.405
 20
-1520.600
 30
4527.000
 70
    32
  0
VERTEX
  8
0700LEVEL
 62
13
 10
-71.547
 20
-1430.241
 30
4527.000
 70
    32
  0
VERTEX
  8
0700LEVEL
 62
13
 10
-110.762
 20
-1365.034
 30
4527.000
 70
    32
  0
VERTEX
  8
0700LEVEL
 62
13
 10
-156.554
 20
-1279.900
 30
4527.000
 70
    32
  0
VERTEX
  8
0700LEVEL
 62
13
 10
-200.458
 20
-1206.389
 30
4527.000
 70
    32
  0
VERTEX
  8
0700LEVEL
 62
13
 10
-234.369
 20
-1131.732
 30
4527.000
 70
    32
  0
VERTEX
  8
0700LEVEL
 62
13
 10
-272.604
 20
-1048.075
 30
4527.000
 70
    32
  0
VERTEX
  8
0700LEVEL
 62
13
 10
-305.720
 20
-987.127
 30
4527.000
 70
    32
  0
VERTEX
  8
0700LEVEL
 62
13
 10
-337.798
 20
-949.232
 30
4527.000
 70
    32
  0
VERTEX
  8
0700LEVEL
 62
13
 10
-324.748
 20
-1012.961
 30
4527.000
 70
    32
  0
VERTEX
  8
0700LEVEL
 62
13
 10
-287.162
 20
-1097.518
 30
4527.000
 70
    32
  0
VERTEX
  8
0700LEVEL
 62
13
 10
-246.271
 20
-1181.857
 30
4527.000
 70
    32
  0
VERTEX
  8
0700LEVEL
 62
13
 10
-210.487
 20
-1265.117
 30
4527.000
 70
    32
  0
VERTEX
  8
0700LEVEL
 62
13
 10
-171.424
 20
-1360.727
 30
4527.000
 70
    32
  0
VERTEX
  8
0700LEVEL
 62
13
 10
-129.480
 20
-1433.921
 30
4527.000
 70
    32
  0
VERTEX
  8
0700LEVEL
 62
13
 10
-82.761
 20
-1488.525
 30
4527.000
 70
    32
  0
VERTEX
  8
0700LEVEL
 62
13
 10
-48.115
 20
-1553.996
 30
4527.000
 70
    32
  0
VERTEX
  8
0700LEVEL
 62
13
 10
-8.615
 20
-1637.607
 30
4527.000
 70
    32
  0
VERTEX
  8
0700LEVEL
 62
13
 10
26.390
 20
-1691.568
 30
4527.000
 70
    32
  0
VERTEX
  8
0700LEVEL
 62
13
 10
53.686
 20
-1737.238
 30
4527.000
 70
    32
  0
VERTEX
  8
0700LEVEL
 62
13
 10
63.069
 20
-1764.662
 30
4527.000
 70
    32
  0
VERTEX
  8
0700LEVEL
 62
13
 10
37.646
 20
-1746.204
 30
4527.000
 70
    32
  0
VERTEX
  8
0700LEVEL
 62
13
 10
-3.929
 20
-1701.739
 30
4527.000
 70
    32
  0
VERTEX
  8
0700LEVEL
 62
13
 10
-37.893
 20
-1652.222
 30
4527.000
 70
    32
  0
VERTEX
  8
0700LEVEL
 62
13
 10
-81.566
 20
-1585.035
 30
4527.000
 70
    32
  0
VERTEX
  8
0700LEVEL
 62
13
 10
-119.384
 20
-1512.762
 30
4527.000
 70
    32
  0
VERTEX
  8
0700LEVEL
 62
13
 10
-153.779
 20
-1448.840
 30
4527.000
 70
    32
  0
VERTEX
  8
0700LEVEL
 62
13
 10
-189.094
 20
-1370.435
 30
4527.000
 70
    32
  0
VERTEX
  8
0700LEVEL
 62
13
 10
-220.012
 20
-1308.335
 30
4527.000
 70
    32
  0
VERTEX
  8
0700LEVEL
 62
13
 10
-267.153
 20
-1194.313
 30
4527.000
 70
    32
  0
VERTEX
  8
0700LEVEL
 62
13
 10
-301.958
 20
-1129.822
 30
4527.000
 70
    32
  0
VERTEX
  8
0700LEVEL
 62
13
 10
-324.756
 20
-1057.974
 30
4527.000
 70
    32
  0
VERTEX
  8
0700LEVEL
 62
13
 10
-358.256
 20
-983.886
 30
4527.000
 70
    32
  0
VERTEX
  8
0700LEVEL
 62
13
 10
-395.386
 20
-919.773
 30
4527.000
 70
    32
  0
VERTEX
  8
0700LEVEL
 62
13
 10
-395.620
 20
-969.276
 30
4527.000
 70
    32
  0
VERTEX
  8
0700LEVEL
 62
13
 10
-369.769
 20
-1039.356
 30
4527.000
 70
    32
  0
VERTEX
  8
0700LEVEL
 62
13
 10
-333.532
 20
-1095.026
 30
4527.000
 70
    32
  0
VERTEX
  8
0700LEVEL
 62
13
 10
-319.773
 20
-1143.530
 30
4527.000
 70
    32
  0
VERTEX
  8
0700LEVEL
 62
13
 10
-324.609
 20
-1176.443
 30
4527.000
 70
    32
  0
VERTEX
  8
0700LEVEL
 62
13
 10
-355.706
 20
-1120.098
 30
4527.000
 70
    32
  0
VERTEX
  8
0700LEVEL
 62
13
 10
-393.842
 20
-1049.786
 30
4527.000
 70
    32
  0
VERTEX
  8
0700LEVEL
 62
13
 10
-430.878
 20
-969.592
 30
4527.000
 70
    32
  0
VERTEX
  8
0700LEVEL
 62
13
 10
-478.384
 20
-874.875
 30
4527.000
 70
    32
  0
VERTEX
  8
0700LEVEL
 62
13
 10
-528.479
 20
-757.357
 30
4527.000
 70
    32
  0
VERTEX
  8
0700LEVEL
 62
13
 10
-579.064
 20
-658.369
 30
4527.000
 70
    32
  0
VERTEX
  8
0700LEVEL
 62
13
 10
-638.900
 20
-543.546
 30
4527.000
 70
    32
  0
VERTEX
  8
0700LEVEL
 62
13
 10
-695.969
 20
-445.769
 30
4527.000
 70
    32
  0
VERTEX
  8
0700LEVEL
 62
13
 10
-762.799
 20
-336.853
 30
4527.000
 70
    32
  0
VERTEX
  8
0700LEVEL
 62
13
 10
-832.257
 20
-214.685
 30
4527.000
 70
    32
  0
VERTEX
  8
0700LEVEL
 62
13
 10
-895.319
 20
-99.590
 30
4527.000
 70
    32
  0
VERTEX
  8
0700LEVEL
 62
13
 10
-960.500
 20
14.843
 30
4527.000
 70
    32
  0
VERTEX
  8
0700LEVEL
 62
13
 10
-1034.481
 20
135.481
 30
4527.000
 70
    32
  0
VERTEX
  8
0700LEVEL
 62
13
 10
-1095.423
 20
251.238
 30
4527.000
 70
    32
  0
VERTEX
  8
0700LEVEL
 62
13
 10
-1157.817
 20
353.399
 30
4527.000
 70
    32
  0
VERTEX
  8
0700LEVEL
 62
13
 10
-1187.841
 20
407.056
 30
4527.000
 70
    32
  0
VERTEX
  8
0700LEVEL
 62
13
 10
-1124.272
 20
381.908
 30
4527.000
 70
    32
  0
VERTEX
  8
0700LEVEL
 62
13
 10
-1143.496
 20
419.981
 30
4527.000
 70
    32
  0
VERTEX
  8
0700LEVEL
 62
13
 10
-1188.645
 20
498.221
 30
4527.000
 70
    32
  0
VERTEX
  8
0700LEVEL
 62
13
 10
-1243.575
 20
582.826
 30
4527.000
 70
    32
  0
VERTEX
  8
0700LEVEL
 62
13
 10
-1301.565
 20
676.477
 30
4527.000
 70
    32
  0
VERTEX
  8
0700LEVEL
 62
13
 10
-1371.719
 20
780.400
 30
4527.000
 70
    32
  0
VERTEX
  8
0700LEVEL
 62
13
 10
-1457.403
 20
898.661
 30
4527.000
 70
    32
  0
VERTEX
  8
0700LEVEL
 62
13
 10
-1541.544
 20
1009.379
 30
4527.000
 70
    32
  0
VERTEX
  8
0700LEVEL
 62
13
 10
-1614.533
 20
1108.229
 30
4527.000
 70
    32
  0
VERTEX
  8
0700LEVEL
 62
13
 10
-1682.404
 20
1202.980
 30
4527.000
 70
    32
  0
VERTEX
  8
0700LEVEL
 62
13
 10
-1759.816
 20
1324.175
 30
4527.000
 70
    32
  0
VERTEX
  8
0700LEVEL
 62
13
 10
-1819.223
 20
1405.985
 30
4527.000
 70
    32
  0
VERTEX
  8
0700LEVEL
 62
13
 10
-1909.927
 20
1515.001
 30
4527.000
 70
    32
  0
VERTEX
  8
0700LEVEL
 62
13
 10
-1961.599
 20
1582.480
 30
4527.000
 70
    32
  0
VERTEX
  8
0700LEVEL
 62
13
 10
-2018.206
 20
1648.999
 30
4527.000
 70
    32
  0
VERTEX
  8
0700LEVEL
 62
13
 10
-2064.481
 20
1723.398
 30
4527.000
 70
    32
  0
VERTEX
  8
0700LEVEL
 62
13
 10
-2109.736
 20
1807.187
 30
4527.000
 70
    32
  0
VERTEX
  8
0700LEVEL
 62
13
 10
-2155.030
 20
1900.036
 30
4527.000
 70
    32
  0
VERTEX
  8
0700LEVEL
 62
13
 10
-2213.086
 20
1990.177
 30
4527.000
 70
    32
  0
VERTEX
  8
0700LEVEL
 62
13
 10
-2283.280
 20
2103.160
 30
4527.000
 70
    32
  0
VERTEX
  8
0700LEVEL
 62
13
 10
-2312.375
 20
2205.955
 30
4527.000
 70
    32
  0
VERTEX
  8
0700LEVEL
 62
13
 10
-2345.502
 20
2325.751
 30
4527.000
 70
    32
  0
VERTEX
  8
0700LEVEL
 62
13
 10
-2376.888
 20
2448.533
 30
4527.000
 70
    32
  0
VERTEX
  8
0700LEVEL
 62
13
 10
-2416.261
 20
2568.588
 30
4527.000
 70
    32
  0
VERTEX
  8
0700LEVEL
 62
13
 10
-2438.196
 20
2686.065
 30
4527.000
 70
    32
  0
VERTEX
  8
0700LEVEL
 62
13
 10
-2476.192
 20
2789.801
 30
4527.000
 70
    32
  0
VERTEX
  8
0700LEVEL
 62
13
 10
-2523.804
 20
2890.068
 30
4527.000
 70
    32
  0
VERTEX
  8
0700LEVEL
 62
13
 10
-2570.005
 20
2994.380
 30
4527.000
 70
    32
  0
VERTEX
  8
0700LEVEL
 62
13
 10
-2610.849
 20
3077.454
 30
4527.000
 70
    32
  0
VERTEX
  8
0700LEVEL
 62
13
 10
-2659.654
 20
3151.761
 30
4527.000
 70
    32
  0
VERTEX
  8
0700LEVEL
 62
13
 10
-2659.676
 20
3109.768
 30
4527.000
 70
    32
  0
VERTEX
  8
0700LEVEL
 62
13
 10
-2617.348
 20
3023.435
 30
4527.000
 70
    32
  0
VERTEX
  8
0700LEVEL
 62
13
 10
-2574.167
 20
2919.109
 30
4527.000
 70
    32
  0
VERTEX
  8
0700LEVEL
 62
13
 10
-2542.310
 20
2810.082
 30
4527.000
 70
    32
  0
VERTEX
  8
0700LEVEL
 62
13
 10
-2502.666
 20
2693.253
 30
4527.000
 70
    32
  0
VERTEX
  8
0700LEVEL
 62
13
 10
-2472.538
 20
2578.219
 30
4527.000
 70
    32
  0
VERTEX
  8
0700LEVEL
 62
13
 10
-2441.801
 20
2473.145
 30
4527.000
 70
    32
  0
VERTEX
  8
0700LEVEL
 62
13
 10
-2396.216
 20
2369.687
 30
4527.000
 70
    32
  0
VERTEX
  8
0700LEVEL
 62
13
 10
-2371.710
 20
2261.852
 30
4527.000
 70
    32
  0
VERTEX
  8
0700LEVEL
 62
13
 10
-2341.305
 20
2139.228
 30
4527.000
 70
    32
  0
VERTEX
  8
0700LEVEL
 62
13
 10
-2302.753
 20
2020.313
 30
4527.000
 70
    32
  0
VERTEX
  8
0700LEVEL
 62
13
 10
-2231.380
 20
1917.702
 30
4527.000
 70
    32
  0
VERTEX
  8
0700LEVEL
 62
13
 10
-2167.676
 20
1814.322
 30
4527.000
 70
    32
  0
VERTEX
  8
0700LEVEL
 62
13
 10
-2102.727
 20
1706.214
 30
4527.000
 70
    32
  0
VERTEX
  8
0700LEVEL
 62
13
 10
-2039.181
 20
1601.854
 30
4527.000
 70
    32
  0
VERTEX
  8
0700LEVEL
 62
13
 10
-1945.697
 20
1472.771
 30
4527.000
 70
    32
  0
VERTEX
  8
0700LEVEL
 62
13
 10
-1857.186
 20
1333.179
 30
4527.000
 70
    32
  0
VERTEX
  8
0700LEVEL
 62
13
 10
-1754.875
 20
1173.241
 30
4527.000
 70
    32
  0
VERTEX
  8
0700LEVEL
 62
13
 10
-1681.979
 20
1058.312
 30
4527.000
 70
    32
  0
VERTEX
  8
0700LEVEL
 62
13
 10
-1619.678
 20
958.680
 30
4527.000
 70
    32
  0
VERTEX
  8
0700LEVEL
 62
13
 10
-1552.166
 20
852.420
 30
4527.000
 70
    32
  0
VERTEX
  8
0700LEVEL
 62
13
 10
-1504.931
 20
773.087
 30
4527.000
 70
    32
  0
VERTEX
  8
0700LEVEL
 62
13
 10
-1487.112
 20
720.153
 30
4527.000
 70
    32
  0
VERTEX
  8
0700LEVEL
 62
13
 10
-1536.037
 20
765.810
 30
4527.000
 70
    32
  0
VERTEX
  8
0700LEVEL
 62
13
 10
-1580.895
 20
833.441
 30
4527.000
 70
    32
  0
VERTEX
  8
0700LEVEL
 62
13
 10
-1648.322
 20
929.377
 30
4527.000
 70
    32
  0
VERTEX
  8
0700LEVEL
 62
13
 10
-1726.483
 20
1044.406
 30
4527.000
 70
    32
  0
VERTEX
  8
0700LEVEL
 62
13
 10
-1813.735
 20
1176.250
 30
4527.000
 70
    32
  0
VERTEX
  8
0700LEVEL
 62
13
 10
-1898.617
 20
1307.207
 30
4527.000
 70
    32
  0
VERTEX
  8
0700LEVEL
 62
13
 10
-1982.838
 20
1417.435
 30
4527.000
 70
    32
  0
VERTEX
  8
0700LEVEL
 62
13
 10
-2063.713
 20
1556.040
 30
4527.000
 70
    32
  0
VERTEX
  8
0700LEVEL
 62
13
 10
-2136.841
 20
1658.685
 30
4527.000
 70
    32
  0
VERTEX
  8
0700LEVEL
 62
13
 10
-2223.094
 20
1776.536
 30
4527.000
 70
    32
  0
VERTEX
  8
0700LEVEL
 62
13
 10
-2299.308
 20
1894.267
 30
4527.000
 70
    32
  0
VERTEX
  8
0700LEVEL
 62
13
 10
-2368.522
 20
1988.482
 30
4527.000
 70
    32
  0
VERTEX
  8
0700LEVEL
 62
13
 10
-2405.599
 20
2059.125
 30
4527.000
 70
    32
  0
VERTEX
  8
0700LEVEL
 62
13
 10
-2397.774
 20
2146.125
 30
4527.000
 70
    32
  0
VERTEX
  8
0700LEVEL
 62
13
 10
-2408.320
 20
2234.595
 30
4527.000
 70
    32
  0
VERTEX
  8
0700LEVEL
 62
13
 10
-2413.622
 20
2318.191
 30
4527.000
 70
    32
  0
VERTEX
  8
0700LEVEL
 62
13
 10
-2451.890
 20
2400.093
 30
4527.000
 70
    32
  0
VERTEX
  8
0700LEVEL
 62
13
 10
-2496.694
 20
2492.862
 30
4527.000
 70
    32
  0
VERTEX
  8
0700LEVEL
 62
13
 10
-2547.835
 20
2607.030
 30
4527.000
 70
    32
  0
VERTEX
  8
0700LEVEL
 62
13
 10
-2583.288
 20
2707.839
 30
4527.000
 70
    32
  0
VERTEX
  8
0700LEVEL
 62
13
 10
-2624.555
 20
2813.112
 30
4527.000
 70
    32
  0
VERTEX
  8
0700LEVEL
 62
13
 10
-2667.194
 20
2905.278
 30
4527.000
 70
    32
  0
VERTEX
  8
0700LEVEL
 62
13
 10
-2717.827
 20
2968.313
 30
4527.000
 70
    32
  0
VERTEX
  8
0700LEVEL
 62
13
 10
-2789.160
 20
3061.866
 30
4527.000
 70
    32
  0
VERTEX
  8
0700LEVEL
 62
13
 10
-2829.245
 20
3110.867
 30
4527.000
 70
    32
  0
VERTEX
  8
0700LEVEL
 62
13
 10
-2887.453
 20
3189.213
 30
4527.000
 70
    32
  0
VERTEX
  8
0700LEVEL
 62
13
 10
-2929.602
 20
3262.692
 30
4527.000
 70
    32
  0
VERTEX
  8
0700LEVEL
 62
13
 10
-2982.553
 20
3333.144
 30
4527.000
 70
    32
  0
VERTEX
  8
0700LEVEL
 62
13
 10
-2982.297
 20
3283.561
 30
4527.000
 70
    32
  0
VERTEX
  8
0700LEVEL
 62
13
 10
-2964.929
 20
3203.038
 30
4527.000
 70
    32
  0
VERTEX
  8
0700LEVEL
 62
13
 10
-3003.702
 20
3250.821
 30
4527.000
 70
    32
  0
VERTEX
  8
0700LEVEL
 62
13
 10
-3056.367
 20
3340.087
 30
4527.000
 70
    32
  0
VERTEX
  8
0700LEVEL
 62
13
 10
-3120.768
 20
3406.613
 30
4527.000
 70
    32
  0
VERTEX
  8
0700LEVEL
 62
13
 10
-3104.473
 20
3347.387
 30
4527.000
 70
    32
  0
VERTEX
  8
0700LEVEL
 62
13
 10
-3059.119
 20
3250.253
 30
4527.000
 70
    32
  0
VERTEX
  8
0700LEVEL
 62
13
 10
-3010.779
 20
3132.768
 30
4527.000
 70
    32
  0
VERTEX
  8
0700LEVEL
 62
13
 10
-2964.771
 20
3025.720
 30
4527.000
 70
    32
  0
VERTEX
  8
0700LEVEL
 62
13
 10
-2902.292
 20
2913.235
 30
4527.000
 70
    32
  0
VERTEX
  8
0700LEVEL
 62
13
 10
-2830.866
 20
2798.544
 30
4527.000
 70
    32
  0
VERTEX
  8
0700LEVEL
 62
13
 10
-2746.514
 20
2676.726
 30
4527.000
 70
    32
  0
VERTEX
  8
0700LEVEL
 62
13
 10
-2654.738
 20
2546.412
 30
4527.000
 70
    32
  0
VERTEX
  8
0700LEVEL
 62
13
 10
-2572.199
 20
2447.521
 30
4527.000
 70
    32
  0
VERTEX
  8
0700LEVEL
 62
13
 10
-2495.574
 20
2347.830
 30
4527.000
 70
    32
  0
VERTEX
  8
0700LEVEL
 62
13
 10
-2472.729
 20
2293.326
 30
4527.000
 70
    32
  0
VERTEX
  8
0700LEVEL
 62
13
 10
-2465.877
 20
2228.591
 30
4527.000
 70
    32
  0
VERTEX
  8
0700LEVEL
 62
13
 10
-2471.581
 20
2179.472
 30
4527.000
 70
    32
  0
VERTEX
  8
0700LEVEL
 62
13
 10
-2492.970
 20
2218.148
 30
4527.000
 70
    32
  0
VERTEX
  8
0700LEVEL
 62
13
 10
-2505.473
 20
2221.685
 30
4527.000
 70
    32
  0
VERTEX
  8
0700LEVEL
 62
13
 10
-2527.682
 20
2280.109
 30
4527.000
 70
    32
  0
VERTEX
  8
0700LEVEL
 62
13
 10
-2566.130
 20
2337.647
 30
4527.000
 70
    32
  0
VERTEX
  8
0700LEVEL
 62
13
 10
-2593.898
 20
2350.953
 30
4527.000
 70
    32
  0
VERTEX
  8
0700LEVEL
 62
13
 10
-2570.590
 20
2265.191
 30
4527.000
 70
    32
  0
VERTEX
  8
0700LEVEL
 62
13
 10
-2535.521
 20
2177.521
 30
4527.000
 70
    32
  0
VERTEX
  8
0700LEVEL
 62
13
 10
-2521.285
 20
2113.348
 30
4527.000
 70
    32
  0
VERTEX
  8
0700LEVEL
 62
13
 10
-2564.269
 20
2172.376
 30
4527.000
 70
    32
  0
VERTEX
  8
0700LEVEL
 62
13
 10
-2602.308
 20
2210.735
 30
4527.000
 70
    32
  0
VERTEX
  8
0700LEVEL
 62
13
 10
-2628.989
 20
2218.332
 30
4527.000
 70
    32
  0
VERTEX
  8
0700LEVEL
 62
13
 10
-2598.250
 20
2150.477
 30
4527.000
 70
    32
  0
VERTEX
  8
0700LEVEL
 62
13
 10
-2545.645
 20
2065.495
 30
4527.000
 70
    32
  0
VERTEX
  8
0700LEVEL
 62
13
 10
-2496.350
 20
1991.109
 30
4527.000
 70
    32
  0
VERTEX
  8
0700LEVEL
 62
13
 10
-2450.730
 20
1926.624
 30
4527.000
 70
    32
  0
VERTEX
  8
0700LEVEL
 62
13
 10
-2416.753
 20
1855.477
 30
4527.000
 70
    32
  0
VERTEX
  8
0700LEVEL
 62
13
 10
-2379.107
 20
1766.635
 30
4527.000
 70
    32
  0
VERTEX
  8
0700LEVEL
 62
13
 10
-2354.593
 20
1703.813
 30
4527.000
 70
    32
  0
VERTEX
  8
0700LEVEL
 62
13
 10
-2349.734
 20
1674.859
 30
4527.000
 70
    32
  0
VERTEX
  8
0700LEVEL
 62
13
 10
-2384.844
 20
1715.761
 30
4527.000
 70
    32
  0
VERTEX
  8
0700LEVEL
 62
13
 10
-2411.405
 20
1770.616
 30
4527.000
 70
    32
  0
VERTEX
  8
0700LEVEL
 62
13
 10
-2448.971
 20
1859.949
 30
4527.000
 70
    32
  0
VERTEX
  8
0700LEVEL
 62
13
 10
-2484.173
 20
1940.599
 30
4527.000
 70
    32
  0
VERTEX
  8
0700LEVEL
 62
13
 10
-2527.342
 20
2004.687
 30
4527.000
 70
    32
  0
VERTEX
  8
0700LEVEL
 62
13
 10
-2573.744
 20
2061.251
 30
4527.000
 70
    32
  0
VERTEX
  8
0700LEVEL
 62
13
 10
-2607.624
 20
2081.835
 30
4527.000
 70
    32
  0
VERTEX
  8
0700LEVEL
 62
13
 10
-2587.441
 20
2020.219
 30
4527.000
 70
    32
  0
VERTEX
  8
0700LEVEL
 62
13
 10
-2542.484
 20
1939.244
 30
4527.000
 70
    32
  0
VERTEX
  8
0700LEVEL
 62
13
 10
-2500.792
 20
1848.991
 30
4527.000
 70
    32
  0
VERTEX
  8
0700LEVEL
 62
13
 10
-2461.749
 20
1767.214
 30
4527.000
 70
    32
  0
VERTEX
  8
0700LEVEL
 62
13
 10
-2421.289
 20
1697.279
 30
4527.000
 70
    32
  0
VERTEX
  8
0700LEVEL
 62
13
 10
-2388.463
 20
1646.940
 30
4527.000
 70
    32
  0
VERTEX
  8
0700LEVEL
 62
13
 10
-2360.015
 20
1599.072
 30
4527.000
 70
    32
  0
VERTEX
  8
0700LEVEL
 62
13
 10
-2402.073
 20
1632.802
 30
4527.000
 70
    32
  0
VERTEX
  8
0700LEVEL
 62
13
 10
-2447.805
 20
1695.042
 30
4527.000
 70
    32
  0
VERTEX
  8
0700LEVEL
 62
13
 10
-2511.987
 20
1795.481
 30
4527.000
 70
    32
  0
VERTEX
  8
0700LEVEL
 62
13
 10
-2571.114
 20
1906.920
 30
4527.000
 70
    32
  0
VERTEX
  8
0700LEVEL
 62
13
 10
-2636.594
 20
2005.558
 30
4527.000
 70
    32
  0
VERTEX
  8
0700LEVEL
 62
13
 10
-2675.809
 20
2089.374
 30
4527.000
 70
    32
  0
VERTEX
  8
0700LEVEL
 62
13
 10
-2730.004
 20
2183.164
 30
4527.000
 70
    32
  0
VERTEX
  8
0700LEVEL
 62
13
 10
-2773.172
 20
2265.861
 30
4527.000
 70
    32
  0
VERTEX
  8
0700LEVEL
 62
13
 10
-2810.759
 20
2331.809
 30
4527.000
 70
    32
  0
VERTEX
  8
0700LEVEL
 62
13
 10
-2847.663
 20
2400.413
 30
4527.000
 70
    32
  0
VERTEX
  8
0700LEVEL
 62
13
 10
-2897.098
 20
2459.984
 30
4527.000
 70
    32
  0
VERTEX
  8
0700LEVEL
 62
13
 10
-2877.610
 20
2398.732
 30
4527.000
 70
    32
  0
VERTEX
  8
0700LEVEL
 62
13
 10
-2825.694
 20
2303.300
 30
4527.000
 70
    32
  0
VERTEX
  8
0700LEVEL
 62
13
 10
-2758.288
 20
2183.980
 30
4527.000
 70
    32
  0
VERTEX
  8
0700LEVEL
 62
13
 10
-2735.875
 20
2088.052
 30
4527.000
 70
    32
  0
VERTEX
  8
0700LEVEL
 62
13
 10
-2706.892
 20
1983.012
 30
4527.000
 70
    32
  0
VERTEX
  8
0700LEVEL
 62
13
 10
-2678.016
 20
1883.521
 30
4527.000
 70
    32
  0
VERTEX
  8
0700LEVEL
 62
13
 10
-2647.443
 20
1788.281
 30
4527.000
 70
    32
  0
VERTEX
  8
0700LEVEL
 62
13
 10
-2599.223
 20
1679.366
 30
4527.000
 70
    32
  0
VERTEX
  8
0700LEVEL
 62
13
 10
-2546.829
 20
1586.874
 30
4527.000
 70
    32
  0
VERTEX
  8
0700LEVEL
 62
13
 10
-2525.210
 20
1504.655
 30
4527.000
 70
    32
  0
VERTEX
  8
0700LEVEL
 62
13
 10
-2523.562
 20
1472.953
 30
4527.000
 70
    32
  0
VERTEX
  8
0700LEVEL
 62
13
 10
-2541.603
 20
1454.755
 30
4527.000
 70
    32
  0
VERTEX
  8
0700LEVEL
 62
13
 10
-2494.481
 20
1354.568
 30
4527.000
 70
    32
  0
VERTEX
  8
0700LEVEL
 62
13
 10
-2445.154
 20
1263.328
 30
4527.000
 70
    32
  0
VERTEX
  8
0700LEVEL
 62
13
 10
-2374.046
 20
1146.677
 30
4527.000
 70
    32
  0
VERTEX
  8
0700LEVEL
 62
13
 10
-2308.097
 20
1043.184
 30
4527.000
 70
    32
  0
VERTEX
  8
0700LEVEL
 62
13
 10
-2259.232
 20
964.593
 30
4527.000
 70
    32
  0
VERTEX
  8
0700LEVEL
 62
13
 10
-2215.467
 20
894.876
 30
4527.000
 70
    32
  0
VERTEX
  8
0700LEVEL
 62
13
 10
-2202.390
 20
843.717
 30
4527.000
 70
    32
  0
VERTEX
  8
0700LEVEL
 62
13
 10
-2258.864
 20
898.646
 30
4527.000
 70
    32
  0
VERTEX
  8
0700LEVEL
 62
13
 10
-2317.463
 20
982.337
 30
4527.000
 70
    32
  0
VERTEX
  8
0700LEVEL
 62
13
 10
-2379.208
 20
1066.790
 30
4527.000
 70
    32
  0
VERTEX
  8
0700LEVEL
 62
13
 10
-2441.403
 20
1142.262
 30
4527.000
 70
    32
  0
VERTEX
  8
0700LEVEL
 62
13
 10
-2507.241
 20
1229.390
 30
4527.000
 70
    32
  0
VERTEX
  8
0700LEVEL
 62
13
 10
-2581.309
 20
1341.744
 30
4527.000
 70
    32
  0
VERTEX
  8
0700LEVEL
 62
13
 10
-2649.219
 20
1445.554
 30
4527.000
 70
    32
  0
VERTEX
  8
0700LEVEL
 62
13
 10
-2712.604
 20
1569.503
 30
4527.000
 70
    32
  0
VERTEX
  8
0700LEVEL
 62
13
 10
-2766.341
 20
1680.068
 30
4527.000
 70
    32
  0
VERTEX
  8
0700LEVEL
 62
13
 10
-2822.186
 20
1749.732
 30
4527.000
 70
    32
  0
VERTEX
  8
0700LEVEL
 62
13
 10
-2894.071
 20
1810.430
 30
4527.000
 70
    32
  0
VERTEX
  8
0700LEVEL
 62
13
 10
-2980.120
 20
1890.778
 30
4527.000
 70
    32
  0
VERTEX
  8
0700LEVEL
 62
13
 10
-3056.210
 20
1951.906
 30
4527.000
 70
    32
  0
VERTEX
  8
0700LEVEL
 62
13
 10
-3103.261
 20
2007.570
 30
4527.000
 70
    32
  0
VERTEX
  8
0700LEVEL
 62
13
 10
-3128.466
 20
2022.724
 30
4527.000
 70
    32
  0
VERTEX
  8
0700LEVEL
 62
13
 10
-3112.362
 20
1960.763
 30
4527.000
 70
    32
  0
VERTEX
  8
0700LEVEL
 62
13
 10
-3097.968
 20
1878.961
 30
4527.000
 70
    32
  0
VERTEX
  8
0700LEVEL
 62
13
 10
-3133.424
 20
1905.333
 30
4527.000
 70
    32
  0
VERTEX
  8
0700LEVEL
 62
13
 10
-3194.341
 20
1996.442
 30
4527.000
 70
    32
  0
VERTEX
  8
0700LEVEL
 62
13
 10
-3253.793
 20
2098.126
 30
4527.000
 70
    32
  0
VERTEX
  8
0700LEVEL
 62
13
 10
-3307.285
 20
2217.955
 30
4527.000
 70
    32
  0
VERTEX
  8
0700LEVEL
 62
13
 10
-3357.474
 20
2300.785
 30
4527.000
 70
    32
  0
VERTEX
  8
0700LEVEL
 62
13
 10
-3420.630
 20
2362.582
 30
4527.000
 70
    32
  0
VERTEX
  8
0700LEVEL
 62
13
 10
-3476.925
 20
2423.266
 30
4527.000
 70
    32
  0
VERTEX
  8
0700LEVEL
 62
13
 10
-3507.467
 20
2445.823
 30
4527.000
 70
    32
  0
VERTEX
  8
0700LEVEL
 62
13
 10
-3504.291
 20
2372.380
 30
4527.000
 70
    32
  0
VERTEX
  8
0700LEVEL
 62
13
 10
-3493.045
 20
2235.512
 30
4527.000
 70
    32
  0
VERTEX
  8
0700LEVEL
 62
13
 10
-3469.461
 20
2104.942
 30
4527.000
 70
    32
  0
VERTEX
  8
0700LEVEL
 62
13
 10
-3443.108
 20
1994.544
 30
4527.000
 70
    32
  0
VERTEX
  8
0700LEVEL
 62
13
 10
-3380.669
 20
1872.509
 30
4527.000
 70
    32
  0
VERTEX
  8
0700LEVEL
 62
13
 10
-3287.237
 20
1755.506
 30
4527.000
 70
    32
  0
VERTEX
  8
0700LEVEL
 62
13
 10
-3202.558
 20
1680.661
 30
4527.000
 70
    32
  0
VERTEX
  8
0700LEVEL
 62
13
 10
-3126.449
 20
1605.698
 30
4527.000
 70
    32
  0
VERTEX
  8
0700LEVEL
 62
13
 10
-3049.962
 20
1528.411
 30
4527.000
 70
    32
  0
VERTEX
  8
0700LEVEL
 62
13
 10
-2963.504
 20
1410.275
 30
4527.000
 70
    32
  0
VERTEX
  8
0700LEVEL
 62
13
 10
-2904.972
 20
1304.465
 30
4527.000
 70
    32
  0
VERTEX
  8
0700LEVEL
 62
13
 10
-2853.983
 20
1197.113
 30
4527.000
 70
    32
  0
VERTEX
  8
0700LEVEL
 62
13
 10
-2797.258
 20
1103.415
 30
4527.000
 70
    32
  0
VERTEX
  8
0700LEVEL
 62
13
 10
-2755.090
 20
1016.103
 30
4527.000
 70
    32
  0
VERTEX
  8
0700LEVEL
 62
13
 10
-2806.061
 20
1072.403
 30
4527.000
 70
    32
  0
VERTEX
  8
0700LEVEL
 62
13
 10
-2866.051
 20
1138.213
 30
4527.000
 70
    32
  0
VERTEX
  8
0700LEVEL
 62
13
 10
-2941.856
 20
1218.156
 30
4527.000
 70
    32
  0
VERTEX
  8
0700LEVEL
 62
13
 10
-3005.409
 20
1296.112
 30
4527.000
 70
    32
  0
VERTEX
  8
0700LEVEL
 62
13
 10
-3081.001
 20
1383.565
 30
4527.000
 70
    32
  0
VERTEX
  8
0700LEVEL
 62
13
 10
-3173.639
 20
1486.860
 30
4527.000
 70
    32
  0
VERTEX
  8
0700LEVEL
 62
13
 10
-3266.377
 20
1584.889
 30
4527.000
 70
    32
  0
VERTEX
  8
0700LEVEL
 62
13
 10
-3241.572
 20
1511.458
 30
4527.000
 70
    32
  0
VERTEX
  8
0700LEVEL
 62
13
 10
-3167.776
 20
1377.270
 30
4527.000
 70
    32
  0
VERTEX
  8
0700LEVEL
 62
13
 10
-3094.205
 20
1257.202
 30
4527.000
 70
    32
  0
VERTEX
  8
0700LEVEL
 62
13
 10
-3061.248
 20
1176.664
 30
4527.000
 70
    32
  0
VERTEX
  8
0700LEVEL
 62
13
 10
-3130.901
 20
1240.269
 30
4527.000
 70
    32
  0
VERTEX
  8
0700LEVEL
 62
13
 10
-3207.718
 20
1318.616
 30
4527.000
 70
    32
  0
VERTEX
  8
0700LEVEL
 62
13
 10
-3257.684
 20
1350.108
 30
4527.000
 70
    32
  0
VERTEX
  8
0700LEVEL
 62
13
 10
-3232.256
 20
1283.618
 30
4527.000
 70
    32
  0
VERTEX
  8
0700LEVEL
 62
13
 10
-3207.829
 20
1212.511
 30
4527.000
 70
    32
  0
VERTEX
  8
0700LEVEL
 62
13
 10
-3258.516
 20
1250.407
 30
4527.000
 70
    32
  0
VERTEX
  8
0700LEVEL
 62
13
 10
-3309.289
 20
1280.018
 30
4527.000
 70
    32
  0
VERTEX
  8
0700LEVEL
 62
13
 10
-3370.559
 20
1330.192
 30
4527.000
 70
    32
  0
VERTEX
  8
0700LEVEL
 62
13
 10
-3412.502
 20
1403.386
 30
4527.000
 70
    32
  0
VERTEX
  8
0700LEVEL
 62
13
 10
-3442.288
 20
1458.513
 30
4527.000
 70
    32
  0
VERTEX
  8
0700LEVEL
 62
13
 10
-3464.626
 20
1461.884
 30
4527.000
 70
    32
  0
VERTEX
  8
0700LEVEL
 62
13
 10
-3423.497
 20
1379.016
 30
4527.000
 70
    32
  0
VERTEX
  8
0700LEVEL
 62
13
 10
-3383.229
 20
1287.736
 30
4527.000
 70
    32
  0
VERTEX
  8
0700LEVEL
 62
13
 10
-3362.663
 20
1212.981
 30
4527.000
 70
    32
  0
VERTEX
  8
0700LEVEL
 62
13
 10
-3353.759
 20
1126.788
 30
4527.000
 70
    32
  0
VERTEX
  8
0700LEVEL
 62
13
 10
-3353.953
 20
1068.226
 30
4527.000
 70
    32
  0
VERTEX
  8
0700LEVEL
 62
13
 10
-3403.486
 20
1141.141
 30
4527.000
 70
    32
  0
VERTEX
  8
0700LEVEL
 62
13
 10
-3440.226
 20
1181.302
 30
4527.000
 70
    32
  0
VERTEX
  8
0700LEVEL
 62
13
 10
-3412.654
 20
1090.824
 30
4527.000
 70
    32
  0
VERTEX
  8
0700LEVEL
 62
13
 10
-3370.214
 20
988.127
 30
4527.000
 70
    32
  0
VERTEX
  8
0700LEVEL
 62
13
 10
-3315.060
 20
889.404
 30
4527.000
 70
    32
  0
VERTEX
  8
0700LEVEL
 62
13
 10
-3280.553
 20
839.670
 30
4527.000
 70
    32
  0
VERTEX
  8
0700LEVEL
 62
13
 10
-3130.591
 20
697.535
 30
4527.000
 70
    32
  0
VERTEX
  8
0700LEVEL
 62
13
 10
-3024.039
 20
610.673
 30
4527.000
 70
    32
  0
VERTEX
  8
0700LEVEL
 62
13
 10
-2976.683
 20
555.398
 30
4527.000
 70
    32
  0
VERTEX
  8
0700LEVEL
 62
13
 10
-2917.487
 20
472.486
 30
4527.000
 70
    32
  0
VERTEX
  8
0700LEVEL
 62
13
 10
-2878.023
 20
401.418
 30
4527.000
 70
    32
  0
VERTEX
  8
0700LEVEL
 62
13
 10
-2814.882
 20
318.505
 30
4527.000
 70
    32
  0
VERTEX
  8
0700LEVEL
 62
13
 10
-2724.115
 20
227.696
 30
4527.000
 70
    32
  0
VERTEX
  8
0700LEVEL
 62
13
 10
-2657.027
 20
164.525
 30
4527.000
 70
    32
  0
VERTEX
  8
0700LEVEL
 62
13
 10
-2609.671
 20
34.233
 30
4527.000
 70
    32
  0
VERTEX
  8
0700LEVEL
 62
13
 10
-2578.100
 20
-40.783
 30
4527.000
 70
    32
  0
VERTEX
  8
0700LEVEL
 62
13
 10
-2514.958
 20
-147.385
 30
4527.000
 70
    32
  0
VERTEX
  8
0700LEVEL
 62
13
 10
-2471.548
 20
-218.453
 30
4527.000
 70
    32
  0
VERTEX
  8
0700LEVEL
 62
13
 10
-2459.709
 20
-273.728
 30
4527.000
 70
    32
  0
VERTEX
  8
0700LEVEL
 62
13
 10
-2447.870
 20
-340.848
 30
4527.000
 70
    32
  0
VERTEX
  8
0700LEVEL
 62
13
 10
-2463.655
 20
-392.175
 30
4527.000
 70
    32
  0
VERTEX
  8
0700LEVEL
 62
13
 10
-2483.387
 20
-439.553
 30
4527.000
 70
    32
  0
VERTEX
  8
0700LEVEL
 62
13
 10
-2526.797
 20
-482.984
 30
4527.000
 70
    32
  0
VERTEX
  8
0700LEVEL
 62
13
 10
-2593.885
 20
-526.414
 30
4527.000
 70
    32
  0
VERTEX
  8
0700LEVEL
 62
13
 10
-2641.242
 20
-502.725
 30
4527.000
 70
    32
  0
VERTEX
  8
0700LEVEL
 62
13
 10
-2684.652
 20
-471.139
 30
4527.000
 70
    32
  0
VERTEX
  8
0700LEVEL
 62
13
 10
-2700.437
 20
-419.812
 30
4527.000
 70
    32
  0
VERTEX
  8
0700LEVEL
 62
13
 10
-2728.061
 20
-368.485
 30
4527.000
 70
    32
  0
VERTEX
  8
0700LEVEL
 62
13
 10
-2771.472
 20
-305.314
 30
4527.000
 70
    32
  0
VERTEX
  8
0700LEVEL
 62
13
 10
-2803.043
 20
-269.780
 30
4527.000
 70
    32
  0
VERTEX
  8
0700LEVEL
 62
13
 10
-2854.345
 20
-202.660
 30
4527.000
 70
    32
  0
VERTEX
  8
0700LEVEL
 62
13
 10
-2897.755
 20
-155.281
 30
4527.000
 70
    32
  0
VERTEX
  8
0700LEVEL
 62
13
 10
-2945.112
 20
-119.748
 30
4527.000
 70
    32
  0
VERTEX
  8
0700LEVEL
 62
13
 10
-2988.522
 20
-92.110
 30
4527.000
 70
    32
  0
VERTEX
  8
0700LEVEL
 62
13
 10
-3024.039
 20
-64.472
 30
4527.000
 70
    32
  0
VERTEX
  8
0700LEVEL
 62
13
 10
-3071.395
 20
-44.731
 30
4527.000
 70
    32
  0
VERTEX
  8
0700LEVEL
 62
13
 10
-3166.108
 20
-24.990
 30
4527.000
 70
    32
  0
VERTEX
  8
0700LEVEL
 62
13
 10
-3193.733
 20
-76.317
 30
4527.000
 70
    32
  0
VERTEX
  8
0700LEVEL
 62
13
 10
-3177.947
 20
-127.644
 30
4527.000
 70
    32
  0
VERTEX
  8
0700LEVEL
 62
13
 10
-3118.752
 20
-182.919
 30
4527.000
 70
    32
  0
VERTEX
  8
0700LEVEL
 62
13
 10
-3039.825
 20
-250.039
 30
4527.000
 70
    32
  0
VERTEX
  8
0700LEVEL
 62
13
 10
-2976.683
 20
-313.210
 30
4527.000
 70
    32
  0
VERTEX
  8
0700LEVEL
 62
13
 10
-2937.219
 20
-376.382
 30
4527.000
 70
    32
  0
VERTEX
  8
0700LEVEL
 62
13
 10
-2897.755
 20
-435.605
 30
4527.000
 70
    32
  0
VERTEX
  8
0700LEVEL
 62
13
 10
-2897.755
 20
-435.605
 30
4527.000
 70
    32
  0
VERTEX
  8
0700LEVEL
 62
13
 10
-2866.184
 20
-502.725
 30
4527.000
 70
    32
  0
VERTEX
  8
0700LEVEL
 62
13
 10
-2854.345
 20
-577.741
 30
4527.000
 70
    32
  0
VERTEX
  8
0700LEVEL
 62
13
 10
-2846.453
 20
-625.120
 30
4527.000
 70
    32
  0
VERTEX
  8
0700LEVEL
 62
13
 10
-2866.184
 20
-636.964
 30
4527.000
 70
    32
  0
VERTEX
  8
0700LEVEL
 62
13
 10
-2897.755
 20
-617.223
 30
4527.000
 70
    32
  0
VERTEX
  8
0700LEVEL
 62
13
 10
-2953.004
 20
-577.741
 30
4527.000
 70
    32
  0
VERTEX
  8
0700LEVEL
 62
13
 10
-2996.414
 20
-542.207
 30
4527.000
 70
    32
  0
VERTEX
  8
0700LEVEL
 62
13
 10
-3039.825
 20
-502.725
 30
4527.000
 70
    32
  0
VERTEX
  8
0700LEVEL
 62
13
 10
-3122.698
 20
-471.139
 30
4527.000
 70
    32
  0
VERTEX
  8
0700LEVEL
 62
13
 10
-3174.001
 20
-471.139
 30
4527.000
 70
    32
  0
VERTEX
  8
0700LEVEL
 62
13
 10
-3181.894
 20
-518.518
 30
4527.000
 70
    32
  0
VERTEX
  8
0700LEVEL
 62
13
 10
-3146.376
 20
-609.327
 30
4527.000
 70
    32
  0
VERTEX
  8
0700LEVEL
 62
13
 10
-3075.342
 20
-680.395
 30
4527.000
 70
    32
  0
VERTEX
  8
0700LEVEL
 62
13
 10
-3016.146
 20
-779.101
 30
4527.000
 70
    32
  0
VERTEX
  8
0700LEVEL
 62
13
 10
-2964.843
 20
-905.444
 30
4527.000
 70
    32
  0
VERTEX
  8
0700LEVEL
 62
13
 10
-2917.487
 20
-1008.098
 30
4527.000
 70
    32
  0
VERTEX
  8
0700LEVEL
 62
13
 10
-2866.184
 20
-1083.114
 30
4527.000
 70
    32
  0
VERTEX
  8
0700LEVEL
 62
13
 10
-2826.721
 20
-1138.389
 30
4527.000
 70
    32
  0
VERTEX
  8
0700LEVEL
 62
13
 10
-2818.828
 20
-1177.871
 30
4527.000
 70
    32
  0
VERTEX
  8
0700LEVEL
 62
13
 10
-2771.472
 20
-1260.784
 30
4527.000
 70
    32
  0
VERTEX
  8
0700LEVEL
 62
13
 10
-2751.740
 20
-1379.230
 30
4527.000
 70
    32
  0
VERTEX
  8
0700LEVEL
 62
13
 10
-2771.472
 20
-1466.091
 30
4527.000
 70
    32
  0
VERTEX
  8
0700LEVEL
 62
13
 10
-2830.667
 20
-1489.780
 30
4527.000
 70
    32
  0
VERTEX
  8
0700LEVEL
 62
13
 10
-2889.862
 20
-1462.143
 30
4527.000
 70
    32
  0
VERTEX
  8
0700LEVEL
 62
13
 10
-2956.951
 20
-1406.868
 30
4527.000
 70
    32
  0
VERTEX
  8
0700LEVEL
 62
13
 10
-2972.736
 20
-1391.075
 30
4527.000
 70
    32
  0
VERTEX
  8
0700LEVEL
 62
13
 10
-3031.932
 20
-1323.955
 30
4527.000
 70
    32
  0
SEQEND
  8
0700LEVEL
  0
POLYLINE
  8
0700LEVEL
 62
7
 66
     1
 70
     8
  0
VERTEX
  8
0700LEVEL
 62
7
 10
575.671
 20
-2223.012
 30
4527.000
 70
    32
  0
VERTEX
  8
0700LEVEL
 62
7
 10
619.768
 20
-2275.179
 30
4527.000
 70
    32
  0
VERTEX
  8
0700LEVEL
 62
7
 10
687.573
 20
-2354.831
 30
4527.000
 70
    32
  0
VERTEX
  8
0700LEVEL
 62
7
 10
748.848
 20
-2434.429
 30
4527.000
 70
    32
  0
VERTEX
  8
0700LEVEL
 62
7
 10
805.718
 20
-2524.126
 30
4527.000
 70
    32
  0
VERTEX
  8
0700LEVEL
 62
7
 10
851.431
 20
-2591.141
 30
4527.000
 70
    32
  0
VERTEX
  8
0700LEVEL
 62
7
 10
904.686
 20
-2656.613
 30
4527.000
 70
    32
  0
VERTEX
  8
0700LEVEL
 62
7
 10
975.450
 20
-2750.576
 30
4527.000
 70
    32
  0
VERTEX
  8
0700LEVEL
 62
7
 10
1047.367
 20
-2846.737
 30
4527.000
 70
    32
  0
VERTEX
  8
0700LEVEL
 62
7
 10
1127.349
 20
-2958.290
 30
4527.000
 70
    32
  0
VERTEX
  8
0700LEVEL
 62
7
 10
1198.901
 20
-3055.147
 30
4527.000
 70
    32
  0
VERTEX
  8
0700LEVEL
 62
7
 10
1243.554
 20
-3122.493
 30
4527.000
 70
    32
  0
VERTEX
  8
0700LEVEL
 62
7
 10
1279.903
 20
-3175.918
 30
4527.000
 70
    32
  0
VERTEX
  8
0700LEVEL
 62
7
 10
1603.122
 20
-3459.201
 30
4527.000
 70
    32
  0
VERTEX
  8
0700LEVEL
 62
7
 10
1643.266
 20
-3512.487
 30
4527.000
 70
    32
  0
VERTEX
  8
0700LEVEL
 62
7
 10
1691.533
 20
-3604.059
 30
4527.000
 70
    32
  0
VERTEX
  8
0700LEVEL
 62
7
 10
1733.060
 20
-3684.477
 30
4527.000
 70
    32
  0
VERTEX
  8
0700LEVEL
 62
7
 10
1764.124
 20
-3742.578
 30
4527.000
 70
    32
  0
VERTEX
  8
0700LEVEL
 62
7
 10
1797.816
 20
-3813.930
 30
4527.000
 70
    32
  0
VERTEX
  8
0700LEVEL
 62
7
 10
1818.376
 20
-3877.871
 30
4527.000
 70
    32
  0
VERTEX
  8
0700LEVEL
 62
7
 10
1836.261
 20
-3945.904
 30
4527.000
 70
    32
  0
VERTEX
  8
0700LEVEL
 62
7
 10
1857.285
 20
-4003.885
 30
4527.000
 70
    32
  0
VERTEX
  8
0700LEVEL
 62
7
 10
1876.395
 20
-4062.813
 30
4527.000
 70
    32
  0
VERTEX
  8
0700LEVEL
 62
7
 10
1873.368
 20
-4089.230
 30
4527.000
 70
    32
  0
VERTEX
  8
0700LEVEL
 62
7
 10
1843.071
 20
-4057.407
 30
4527.000
 70
    32
  0
VERTEX
  8
0700LEVEL
 62
7
 10
1816.740
 20
-4046.095
 30
4527.000
 70
    32
  0
VERTEX
  8
0700LEVEL
 62
7
 10
1776.609
 20
-4014.438
 30
4527.000
 70
    32
  0
VERTEX
  8
0700LEVEL
 62
7
 10
1742.949
 20
-3978.549
 30
4527.000
 70
    32
  0
VERTEX
  8
0700LEVEL
 62
7
 10
1719.306
 20
-3984.774
 30
4527.000
 70
    32
  0
VERTEX
  8
0700LEVEL
 62
7
 10
1675.766
 20
-3910.567
 30
4527.000
 70
    32
  0
VERTEX
  8
0700LEVEL
 62
7
 10
1672.553
 20
-3950.534
 30
4527.000
 70
    32
  0
VERTEX
  8
0700LEVEL
 62
7
 10
1654.414
 20
-3955.387
 30
4527.000
 70
    32
  0
VERTEX
  8
0700LEVEL
 62
7
 10
1675.702
 20
-4036.547
 30
4527.000
 70
    32
  0
VERTEX
  8
0700LEVEL
 62
7
 10
1664.501
 20
-4079.241
 30
4527.000
 70
    32
  0
VERTEX
  8
0700LEVEL
 62
7
 10
1678.982
 20
-4134.149
 30
4527.000
 70
    32
  0
VERTEX
  8
0700LEVEL
 62
7
 10
1674.081
 20
-4151.963
 30
4527.000
 70
    32
  0
VERTEX
  8
0700LEVEL
 62
7
 10
1645.096
 20
-4121.360
 30
4527.000
 70
    32
  0
VERTEX
  8
0700LEVEL
 62
7
 10
1630.429
 20
-4080.002
 30
4527.000
 70
    32
  0
VERTEX
  8
0700LEVEL
 62
7
 10
1608.318
 20
-4034.921
 30
4527.000
 70
    32
  0
VERTEX
  8
0700LEVEL
 62
7
 10
1564.817
 20
-3969.774
 30
4527.000
 70
    32
  0
VERTEX
  8
0700LEVEL
 62
7
 10
1523.647
 20
-3915.064
 30
4527.000
 70
    32
  0
VERTEX
  8
0700LEVEL
 62
7
 10
1484.405
 20
-3843.818
 30
4527.000
 70
    32
  0
VERTEX
  8
0700LEVEL
 62
7
 10
1448.712
 20
-3781.697
 30
4527.000
 70
    32
  0
VERTEX
  8
0700LEVEL
 62
7
 10
1415.278
 20
-3722.709
 30
4527.000
 70
    32
  0
VERTEX
  8
0700LEVEL
 62
7
 10
1370.261
 20
-3656.059
 30
4527.000
 70
    32
  0
VERTEX
  8
0700LEVEL
 62
7
 10
1332.958
 20
-3608.515
 30
4527.000
 70
    32
  0
VERTEX
  8
0700LEVEL
 62
7
 10
1301.522
 20
-3577.513
 30
4527.000
 70
    32
  0
VERTEX
  8
0700LEVEL
 62
7
 10
1315.818
 20
-3627.361
 30
4527.000
 70
    32
  0
VERTEX
  8
0700LEVEL
 62
7
 10
1336.948
 20
-3690.892
 30
4527.000
 70
    32
  0
VERTEX
  8
0700LEVEL
 62
7
 10
1353.688
 20
-3748.932
 30
4527.000
 70
    32
  0
VERTEX
  8
0700LEVEL
 62
7
 10
1331.237
 20
-3747.805
 30
4527.000
 70
    32
  0
VERTEX
  8
0700LEVEL
 62
7
 10
1292.418
 20
-3698.758
 30
4527.000
 70
    32
  0
VERTEX
  8
0700LEVEL
 62
7
 10
1249.811
 20
-3642.054
 30
4527.000
 70
    32
  0
VERTEX
  8
0700LEVEL
 62
7
 10
1208.331
 20
-3581.510
 30
4527.000
 70
    32
  0
VERTEX
  8
0700LEVEL
 62
7
 10
1162.108
 20
-3519.190
 30
4527.000
 70
    32
  0
VERTEX
  8
0700LEVEL
 62
7
 10
1102.271
 20
-3422.976
 30
4527.000
 70
    32
  0
VERTEX
  8
0700LEVEL
 62
7
 10
1063.645
 20
-3352.584
 30
4527.000
 70
    32
  0
VERTEX
  8
0700LEVEL
 62
7
 10
1025.979
 20
-3287.126
 30
4527.000
 70
    32
  0
VERTEX
  8
0700LEVEL
 62
7
 10
978.054
 20
-3218.243
 30
4527.000
 70
    32
  0
VERTEX
  8
0700LEVEL
 62
7
 10
926.429
 20
-3133.420
 30
4527.000
 70
    32
  0
VERTEX
  8
0700LEVEL
 62
7
 10
875.982
 20
-3038.227
 30
4527.000
 70
    32
  0
VERTEX
  8
0700LEVEL
 62
7
 10
828.615
 20
-2965.914
 30
4527.000
 70
    32
  0
VERTEX
  8
0700LEVEL
 62
7
 10
772.519
 20
-2876.091
 30
4527.000
 70
    32
  0
VERTEX
  8
0700LEVEL
 62
7
 10
723.688
 20
-2795.745
 30
4527.000
 70
    32
  0
VERTEX
  8
0700LEVEL
 62
7
 10
663.149
 20
-2688.352
 30
4527.000
 70
    32
  0
VERTEX
  8
0700LEVEL
 62
7
 10
600.312
 20
-2587.376
 30
4527.000
 70
    32
  0
VERTEX
  8
0700LEVEL
 62
7
 10
534.913
 20
-2488.248
 30
4527.000
 70
    32
  0
VERTEX
  8
0700LEVEL
 62
7
 10
465.573
 20
-2374.650
 30
4527.000
 70
    32
  0
VERTEX
  8
0700LEVEL
 62
7
 10
408.431
 20
-2288.178
 30
4527.000
 70
    32
  0
VERTEX
  8
0700LEVEL
 62
7
 10
348.243
 20
-2195.679
 30
4527.000
 70
    32
  0
VERTEX
  8
0700LEVEL
 62
7
 10
291.942
 20
-2105.571
 30
4527.000
 70
    32
  0
VERTEX
  8
0700LEVEL
 62
7
 10
260.288
 20
-2052.656
 30
4527.000
 70
    32
  0
VERTEX
  8
0700LEVEL
 62
7
 10
249.177
 20
-2031.238
 30
4527.000
 70
    32
  0
VERTEX
  8
0700LEVEL
 62
7
 10
215.073
 20
-1977.926
 30
4527.000
 70
    32
  0
VERTEX
  8
0700LEVEL
 62
7
 10
179.155
 20
-1920.295
 30
4527.000
 70
    32
  0
VERTEX
  8
0700LEVEL
 62
7
 10
154.375
 20
-1871.513
 30
4527.000
 70
    32
  0
VERTEX
  8
0700LEVEL
 62
7
 10
119.576
 20
-1817.836
 30
4527.000
 70
    32
  0
VERTEX
  8
0700LEVEL
 62
7
 10
83.353
 20
-1783.795
 30
4527.000
 70
    32
  0
VERTEX
  8
0700LEVEL
 62
7
 10
88.007
 20
-1812.464
 30
4527.000
 70
    32
  0
VERTEX
  8
0700LEVEL
 62
7
 10
60.478
 20
-1797.689
 30
4527.000
 70
    32
  0
VERTEX
  8
0700LEVEL
 62
7
 10
15.553
 20
-1752.177
 30
4527.000
 70
    32
  0
VERTEX
  8
0700LEVEL
 62
7
 10
-30.822
 20
-1701.652
 30
4527.000
 70
    32
  0
VERTEX
  8
0700LEVEL
 62
7
 10
-72.204
 20
-1635.843
 30
4527.000
 70
    32
  0
VERTEX
  8
0700LEVEL
 62
7
 10
-128.002
 20
-1548.834
 30
4527.000
 70
    32
  0
VERTEX
  8
0700LEVEL
 62
7
 10
-165.773
 20
-1477.826
 30
4527.000
 70
    32
  0
VERTEX
  8
0700LEVEL
 62
7
 10
-197.976
 20
-1420.547
 30
4527.000
 70
    32
  0
VERTEX
  8
0700LEVEL
 62
7
 10
-223.391
 20
-1357.076
 30
4527.000
 70
    32
  0
VERTEX
  8
0700LEVEL
 62
7
 10
-245.441
 20
-1297.671
 30
4527.000
 70
    32
  0
VERTEX
  8
0700LEVEL
 62
7
 10
-278.233
 20
-1226.968
 30
4527.000
 70
    32
  0
VERTEX
  8
0700LEVEL
 62
7
 10
-295.365
 20
-1200.802
 30
4527.000
 70
    32
  0
VERTEX
  8
0700LEVEL
 62
7
 10
-292.525
 20
-1243.762
 30
4527.000
 70
    32
  0
VERTEX
  8
0700LEVEL
 62
7
 10
-278.189
 20
-1284.061
 30
4527.000
 70
    32
  0
VERTEX
  8
0700LEVEL
 62
7
 10
-285.528
 20
-1304.498
 30
4527.000
 70
    32
  0
VERTEX
  8
0700LEVEL
 62
7
 10
-304.507
 20
-1275.768
 30
4527.000
 70
    32
  0
VERTEX
  8
0700LEVEL
 62
7
 10
-330.703
 20
-1220.218
 30
4527.000
 70
    32
  0
VERTEX
  8
0700LEVEL
 62
7
 10
-359.879
 20
-1155.131
 30
4527.000
 70
    32
  0
VERTEX
  8
0700LEVEL
 62
7
 10
-389.274
 20
-1086.739
 30
4527.000
 70
    32
  0
VERTEX
  8
0700LEVEL
 62
7
 10
-424.337
 20
-1028.493
 30
4527.000
 70
    32
  0
VERTEX
  8
0700LEVEL
 62
7
 10
-458.381
 20
-960.856
 30
4527.000
 70
    32
  0
VERTEX
  8
0700LEVEL
 62
7
 10
-489.961
 20
-896.637
 30
4527.000
 70
    32
  0
VERTEX
  8
0700LEVEL
 62
7
 10
-521.945
 20
-824.053
 30
4527.000
 70
    32
  0
VERTEX
  8
0700LEVEL
 62
7
 10
-557.121
 20
-749.442
 30
4527.000
 70
    32
  0
VERTEX
  8
0700LEVEL
 62
7
 10
-588.734
 20
-686.978
 30
4527.000
 70
    32
  0
VERTEX
  8
0700LEVEL
 62
7
 10
-624.758
 20
-623.798
 30
4527.000
 70
    32
  0
VERTEX
  8
0700LEVEL
 62
7
 10
-660.636
 20
-556.618
 30
4527.000
 70
    32
  0
VERTEX
  8
0700LEVEL
 62
7
 10
-694.905
 20
-493.471
 30
4527.000
 70
    32
  0
VERTEX
  8
0700LEVEL
 62
7
 10
-737.352
 20
-417.178
 30
4527.000
 70
    32
  0
VERTEX
  8
0700LEVEL
 62
7
 10
-778.839
 20
-345.819
 30
4527.000
 70
    32
  0
VERTEX
  8
0700LEVEL
 62
7
 10
-823.425
 20
-274.963
 30
4527.000
 70
    32
  0
VERTEX
  8
0700LEVEL
 62
7
 10
-865.065
 20
-196.789
 30
4527.000
 70
    32
  0
VERTEX
  8
0700LEVEL
 62
7
 10
-902.572
 20
-130.351
 30
4527.000
 70
    32
  0
VERTEX
  8
0700LEVEL
 62
7
 10
-937.477
 20
-71.125
 30
4527.000
 70
    32
  0
VERTEX
  8
0700LEVEL
 62
7
 10
-972.070
 20
0.876
 30
4527.000
 70
    32
  0
VERTEX
  8
0700LEVEL
 62
7
 10
-1010.193
 20
68.169
 30
4527.000
 70
    32
  0
VERTEX
  8
0700LEVEL
 62
7
 10
-1040.979
 20
100.071
 30
4527.000
 70
    32
  0
VERTEX
  8
0700LEVEL
 62
7
 10
-1073.553
 20
148.860
 30
4527.000
 70
    32
  0
VERTEX
  8
0700LEVEL
 62
7
 10
-1110.280
 20
204.610
 30
4527.000
 70
    32
  0
VERTEX
  8
0700LEVEL
 62
7
 10
-1165.415
 20
289.499
 30
4527.000
 70
    32
  0
VERTEX
  8
0700LEVEL
 62
7
 10
-1199.194
 20
352.566
 30
4527.000
 70
    32
  0
VERTEX
  8
0700LEVEL
 62
7
 10
-1237.642
 20
410.104
 30
4527.000
 70
    32
  0
VERTEX
  8
0700LEVEL
 62
7
 10
-1282.082
 20
484.960
 30
4527.000
 70
    32
  0
VERTEX
  8
0700LEVEL
 62
7
 10
-1300.604
 20
530.464
 30
4527.000
 70
    32
  0
VERTEX
  8
0700LEVEL
 62
7
 10
-1261.306
 20
521.575
 30
4527.000
 70
    32
  0
VERTEX
  8
0700LEVEL
 62
7
 10
-1249.333
 20
527.177
 30
4527.000
 70
    32
  0
VERTEX
  8
0700LEVEL
 62
7
 10
-1279.138
 20
577.529
 30
4527.000
 70
    32
  0
VERTEX
  8
0700LEVEL
 62
7
 10
-1321.063
 20
636.888
 30
4527.000
 70
    32
  0
VERTEX
  8
0700LEVEL
 62
7
 10
-1365.398
 20
706.194
 30
4527.000
 70
    32
  0
VERTEX
  8
0700LEVEL
 62
7
 10
-1433.917
 20
800.044
 30
4527.000
 70
    32
  0
VERTEX
  8
0700LEVEL
 62
7
 10
-1491.311
 20
888.066
 30
4527.000
 70
    32
  0
VERTEX
  8
0700LEVEL
 62
7
 10
-1547.348
 20
954.995
 30
4527.000
 70
    32
  0
VERTEX
  8
0700LEVEL
 62
7
 10
-1584.677
 20
1008.579
 30
4527.000
 70
    32
  0
VERTEX
  8
0700LEVEL
 62
7
 10
-1615.403
 20
1054.806
 30
4527.000
 70
    32
  0
VERTEX
  8
0700LEVEL
 62
7
 10
-1655.037
 20
1094.178
 30
4527.000
 70
    32
  0
VERTEX
  8
0700LEVEL
 62
7
 10
-1634.417
 20
1044.561
 30
4527.000
 70
    32
  0
VERTEX
  8
0700LEVEL
 62
7
 10
-1594.512
 20
971.196
 30
4527.000
 70
    32
  0
VERTEX
  8
0700LEVEL
 62
7
 10
-1551.402
 20
911.393
 30
4527.000
 70
    32
  0
VERTEX
  8
0700LEVEL
 62
7
 10
-1496.512
 20
835.848
 30
4527.000
 70
    32
  0
VERTEX
  8
0700LEVEL
 62
7
 10
-1446.985
 20
755.138
 30
4527.000
 70
    32
  0
VERTEX
  8
0700LEVEL
 62
7
 10
-1391.512
 20
676.984
 30
4527.000
 70
    32
  0
VERTEX
  8
0700LEVEL
 62
7
 10
-1363.620
 20
625.685
 30
4527.000
 70
    32
  0
VERTEX
  8
0700LEVEL
 62
7
 10
-1399.043
 20
635.202
 30
4527.000
 70
    32
  0
VERTEX
  8
0700LEVEL
 62
7
 10
-1418.063
 20
617.164
 30
4527.000
 70
    32
  0
VERTEX
  8
0700LEVEL
 62
7
 10
-1376.775
 20
553.884
 30
4527.000
 70
    32
  0
VERTEX
  8
0700LEVEL
 62
7
 10
-1326.679
 20
473.584
 30
4527.000
 70
    32
  0
VERTEX
  8
0700LEVEL
 62
7
 10
-1269.908
 20
378.622
 30
4527.000
 70
    32
  0
VERTEX
  8
0700LEVEL
 62
7
 10
-1199.628
 20
273.924
 30
4527.000
 70
    32
  0
VERTEX
  8
0700LEVEL
 62
7
 10
-1135.672
 20
168.995
 30
4527.000
 70
    32
  0
VERTEX
  8
0700LEVEL
 62
7
 10
-1081.278
 20
85.735
 30
4527.000
 70
    32
  0
VERTEX
  8
0700LEVEL
 62
7
 10
-1038.724
 20
22.501
 30
4527.000
 70
    32
  0
VERTEX
  8
0700LEVEL
 62
7
 10
-1031.494
 20
-25.949
 30
4527.000
 70
    32
  0
VERTEX
  8
0700LEVEL
 62
7
 10
-1066.241
 20
15.648
 30
4527.000
 70
    32
  0
VERTEX
  8
0700LEVEL
 62
7
 10
-1092.663
 20
48.100
 30
4527.000
 70
    32
  0
VERTEX
  8
0700LEVEL
 62
7
 10
-1078.314
 20
4.781
 30
4527.000
 70
    32
  0
VERTEX
  8
0700LEVEL
 62
7
 10
-1038.212
 20
-76.664
 30
4527.000
 70
    32
  0
VERTEX
  8
0700LEVEL
 62
7
 10
-995.917
 20
-164.751
 30
4527.000
 70
    32
  0
VERTEX
  8
0700LEVEL
 62
7
 10
-962.192
 20
-252.958
 30
4527.000
 70
    32
  0
VERTEX
  8
0700LEVEL
 62
7
 10
-946.347
 20
-302.554
 30
4527.000
 70
    32
  0
VERTEX
  8
0700LEVEL
 62
7
 10
-987.783
 20
-280.493
 30
4527.000
 70
    32
  0
VERTEX
  8
0700LEVEL
 62
7
 10
-1039.516
 20
-227.339
 30
4527.000
 70
    32
  0
VERTEX
  8
0700LEVEL
 62
7
 10
-1067.255
 20
-164.245
 30
4527.000
 70
    32
  0
VERTEX
  8
0700LEVEL
 62
7
 10
-1092.934
 20
-96.205
 30
4527.000
 70
    32
  0
VERTEX
  8
0700LEVEL
 62
7
 10
-1128.959
 20
-51.634
 30
4527.000
 70
    32
  0
VERTEX
  8
0700LEVEL
 62
7
 10
-1109.239
 20
-100.601
 30
4527.000
 70
    32
  0
VERTEX
  8
0700LEVEL
 62
7
 10
-1095.545
 20
-152.615
 30
4527.000
 70
    32
  0
VERTEX
  8
0700LEVEL
 62
7
 10
-1122.564
 20
-114.534
 30
4527.000
 70
    32
  0
VERTEX
  8
0700LEVEL
 62
7
 10
-1157.303
 20
-46.533
 30
4527.000
 70
    32
  0
VERTEX
  8
0700LEVEL
 62
7
 10
-1193.942
 20
36.110
 30
4527.000
 70
    32
  0
VERTEX
  8
0700LEVEL
 62
7
 10
-1243.521
 20
128.900
 30
4527.000
 70
    32
  0
VERTEX
  8
0700LEVEL
 62
7
 10
-1277.127
 20
208.537
 30
4527.000
 70
    32
  0
VERTEX
  8
0700LEVEL
 62
7
 10
-1311.726
 20
291.352
 30
4527.000
 70
    32
  0
VERTEX
  8
0700LEVEL
 62
7
 10
-1356.518
 20
362.493
 30
4527.000
 70
    32
  0
VERTEX
  8
0700LEVEL
 62
7
 10
-1406.090
 20
444.468
 30
4527.000
 70
    32
  0
VERTEX
  8
0700LEVEL
 62
7
 10
-1457.795
 20
528.801
 30
4527.000
 70
    32
  0
VERTEX
  8
0700LEVEL
 62
7
 10
-1495.236
 20
598.749
 30
4527.000
 70
    32
  0
VERTEX
  8
0700LEVEL
 62
7
 10
-1536.465
 20
657.744
 30
4527.000
 70
    32
  0
VERTEX
  8
0700LEVEL
 62
7
 10
-1578.038
 20
739.428
 30
4527.000
 70
    32
  0
VERTEX
  8
0700LEVEL
 62
7
 10
-1620.770
 20
815.515
 30
4527.000
 70
    32
  0
VERTEX
  8
0700LEVEL
 62
7
 10
-1685.984
 20
928.193
 30
4527.000
 70
    32
  0
VERTEX
  8
0700LEVEL
 62
7
 10
-1766.271
 20
1034.765
 30
4527.000
 70
    32
  0
VERTEX
  8
0700LEVEL
 62
7
 10
-1848.359
 20
1142.636
 30
4527.000
 70
    32
  0
VERTEX
  8
0700LEVEL
 62
7
 10
-1928.638
 20
1275.612
 30
4527.000
 70
    32
  0
VERTEX
  8
0700LEVEL
 62
7
 10
-1995.640
 20
1386.568
 30
4527.000
 70
    32
  0
VERTEX
  8
0700LEVEL
 62
7
 10
-2074.272
 20
1487.842
 30
4527.000
 70
    32
  0
VERTEX
  8
0700LEVEL
 62
7
 10
-2130.082
 20
1596.480
 30
4527.000
 70
    32
  0
VERTEX
  8
0700LEVEL
 62
7
 10
-2204.588
 20
1696.834
 30
4527.000
 70
    32
  0
VERTEX
  8
0700LEVEL
 62
7
 10
-2272.325
 20
1798.604
 30
4527.000
 70
    32
  0
VERTEX
  8
0700LEVEL
 62
7
 10
-2362.512
 20
1920.111
 30
4527.000
 70
    32
  0
VERTEX
  8
0700LEVEL
 62
7
 10
-2412.906
 20
2003.225
 30
4527.000
 70
    32
  0
VERTEX
  8
0700LEVEL
 62
7
 10
-2425.546
 20
2047.775
 30
4527.000
 70
    32
  0
VERTEX
  8
0700LEVEL
 62
7
 10
-2425.225
 20
2124.172
 30
4527.000
 70
    32
  0
VERTEX
  8
0700LEVEL
 62
7
 10
-2425.970
 20
2211.053
 30
4527.000
 70
    32
  0
VERTEX
  8
0700LEVEL
 62
7
 10
-2430.113
 20
2281.635
 30
4527.000
 70
    32
  0
VERTEX
  8
0700LEVEL
 62
7
 10
-2443.098
 20
2330.265
 30
4527.000
 70
    32
  0
VERTEX
  8
0700LEVEL
 62
7
 10
-2458.660
 20
2342.848
 30
4527.000
 70
    32
  0
VERTEX
  8
0700LEVEL
 62
7
 10
-2448.331
 20
2294.901
 30
4527.000
 70
    32
  0
VERTEX
  8
0700LEVEL
 62
7
 10
-2442.466
 20
2241.139
 30
4527.000
 70
    32
  0
VERTEX
  8
0700LEVEL
 62
7
 10
-2442.064
 20
2176.947
 30
4527.000
 70
    32
  0
VERTEX
  8
0700LEVEL
 62
7
 10
-2442.788
 20
2127.524
 30
4527.000
 70
    32
  0
VERTEX
  8
0700LEVEL
 62
7
 10
-2452.889
 20
2094.710
 30
4527.000
 70
    32
  0
VERTEX
  8
0700LEVEL
 62
7
 10
-2464.430
 20
2130.531
 30
4527.000
 70
    32
  0
VERTEX
  8
0700LEVEL
 62
7
 10
-2481.781
 20
2141.393
 30
4527.000
 70
    32
  0
VERTEX
  8
0700LEVEL
 62
7
 10
-2501.124
 20
2169.427
 30
4527.000
 70
    32
  0
VERTEX
  8
0700LEVEL
 62
7
 10
-2503.926
 20
2147.500
 30
4527.000
 70
    32
  0
VERTEX
  8
0700LEVEL
 62
7
 10
-2485.187
 20
2098.691
 30
4527.000
 70
    32
  0
VERTEX
  8
0700LEVEL
 62
7
 10
-2455.030
 20
2033.445
 30
4527.000
 70
    32
  0
VERTEX
  8
0700LEVEL
 62
7
 10
-2429.013
 20
1972.140
 30
4527.000
 70
    32
  0
VERTEX
  8
0700LEVEL
 62
7
 10
-2395.903
 20
1903.397
 30
4527.000
 70
    32
  0
VERTEX
  8
0700LEVEL
 62
7
 10
-2363.913
 20
1819.998
 30
4527.000
 70
    32
  0
VERTEX
  8
0700LEVEL
 62
7
 10
-2330.095
 20
1747.872
 30
4527.000
 70
    32
  0
VERTEX
  8
0700LEVEL
 62
7
 10
-2299.032
 20
1671.162
 30
4527.000
 70
    32
  0
VERTEX
  8
0700LEVEL
 62
7
 10
-2261.823
 20
1588.929
 30
4527.000
 70
    32
  0
VERTEX
  8
0700LEVEL
 62
7
 10
-2213.258
 20
1494.543
 30
4527.000
 70
    32
  0
VERTEX
  8
0700LEVEL
 62
7
 10
-2161.222
 20
1390.542
 30
4527.000
 70
    32
  0
VERTEX
  8
0700LEVEL
 62
7
 10
-2097.386
 20
1275.572
 30
4527.000
 70
    32
  0
VERTEX
  8
0700LEVEL
 62
7
 10
-2039.596
 20
1171.392
 30
4527.000
 70
    32
  0
VERTEX
  8
0700LEVEL
 62
7
 10
-1991.275
 20
1086.350
 30
4527.000
 70
    32
  0
VERTEX
  8
0700LEVEL
 62
7
 10
-1936.656
 20
988.971
 30
4527.000
 70
    32
  0
VERTEX
  8
0700LEVEL
 62
7
 10
-1867.164
 20
887.167
 30
4527.000
 70
    32
  0
VERTEX
  8
0700LEVEL
 62
7
 10
-1809.790
 20
794.371
 30
4527.000
 70
    32
  0
VERTEX
  8
0700LEVEL
 62
7
 10
-1760.330
 20
710.150
 30
4527.000
 70
    32
  0
VERTEX
  8
0700LEVEL
 62
7
 10
-1716.035
 20
631.295
 30
4527.000
 70
    32
  0
VERTEX
  8
0700LEVEL
 62
7
 10
-1719.639
 20
596.672
 30
4527.000
 70
    32
  0
VERTEX
  8
0700LEVEL
 62
7
 10
-1757.114
 20
646.256
 30
4527.000
 70
    32
  0
VERTEX
  8
0700LEVEL
 62
7
 10
-1790.993
 20
704.059
 30
4527.000
 70
    32
  0
VERTEX
  8
0700LEVEL
 62
7
 10
-1836.910
 20
771.359
 30
4527.000
 70
    32
  0
VERTEX
  8
0700LEVEL
 62
7
 10
-1877.491
 20
812.645
 30
4527.000
 70
    32
  0
VERTEX
  8
0700LEVEL
 62
7
 10
-1851.474
 20
751.339
 30
4527.000
 70
    32
  0
VERTEX
  8
0700LEVEL
 62
7
 10
-1797.610
 20
658.609
 30
4527.000
 70
    32
  0
VERTEX
  8
0700LEVEL
 62
7
 10
-1736.210
 20
559.627
 30
4527.000
 70
    32
  0
VERTEX
  8
0700LEVEL
 62
7
 10
-1680.452
 20
481.678
 30
4527.000
 70
    32
  0
VERTEX
  8
0700LEVEL
 62
7
 10
-1627.654
 20
399.431
 30
4527.000
 70
    32
  0
VERTEX
  8
0700LEVEL
 62
7
 10
-1615.041
 20
342.311
 30
4527.000
 70
    32
  0
VERTEX
  8
0700LEVEL
 62
7
 10
-1672.257
 20
398.870
 30
4527.000
 70
    32
  0
VERTEX
  8
0700LEVEL
 62
7
 10
-1723.313
 20
484.103
 30
4527.000
 70
    32
  0
VERTEX
  8
0700LEVEL
 62
7
 10
-1788.395
 20
585.192
 30
4527.000
 70
    32
  0
VERTEX
  8
0700LEVEL
 62
7
 10
-1843.417
 20
690.935
 30
4527.000
 70
    32
  0
VERTEX
  8
0700LEVEL
 62
7
 10
-1910.909
 20
801.971
 30
4527.000
 70
    32
  0
VERTEX
  8
0700LEVEL
 62
7
 10
-1982.090
 20
907.317
 30
4527.000
 70
    32
  0
VERTEX
  8
0700LEVEL
 62
7
 10
-2060.879
 20
1044.830
 30
4527.000
 70
    32
  0
VERTEX
  8
0700LEVEL
 62
7
 10
-2135.801
 20
1156.568
 30
4527.000
 70
    32
  0
VERTEX
  8
0700LEVEL
 62
7
 10
-2194.008
 20
1272.133
 30
4527.000
 70
    32
  0
VERTEX
  8
0700LEVEL
 62
7
 10
-2265.096
 20
1393.559
 30
4527.000
 70
    32
  0
VERTEX
  8
0700LEVEL
 62
7
 10
-2330.118
 20
1490.362
 30
4527.000
 70
    32
  0
VERTEX
  8
0700LEVEL
 62
7
 10
-2408.168
 20
1570.418
 30
4527.000
 70
    32
  0
VERTEX
  8
0700LEVEL
 62
7
 10
-2457.251
 20
1633.705
 30
4527.000
 70
    32
  0
VERTEX
  8
0700LEVEL
 62
7
 10
-2528.017
 20
1690.449
 30
4527.000
 70
    32
  0
VERTEX
  8
0700LEVEL
 62
7
 10
-2487.570
 20
1604.925
 30
4527.000
 70
    32
  0
VERTEX
  8
0700LEVEL
 62
7
 10
-2442.296
 20
1507.301
 30
4527.000
 70
    32
  0
VERTEX
  8
0700LEVEL
 62
7
 10
-2397.631
 20
1418.326
 30
4527.000
 70
    32
  0
VERTEX
  8
0700LEVEL
 62
7
 10
-2341.218
 20
1330.463
 30
4527.000
 70
    32
  0
VERTEX
  8
0700LEVEL
 62
7
 10
-2305.645
 20
1239.693
 30
4527.000
 70
    32
  0
VERTEX
  8
0700LEVEL
 62
7
 10
-2256.338
 20
1143.679
 30
4527.000
 70
    32
  0
VERTEX
  8
0700LEVEL
 62
7
 10
-2195.031
 20
1028.617
 30
4527.000
 70
    32
  0
VERTEX
  8
0700LEVEL
 62
7
 10
-2135.037
 20
896.165
 30
4527.000
 70
    32
  0
VERTEX
  8
0700LEVEL
 62
7
 10
-2058.870
 20
761.089
 30
4527.000
 70
    32
  0
VERTEX
  8
0700LEVEL
 62
7
 10
-1967.161
 20
627.265
 30
4527.000
 70
    32
  0
VERTEX
  8
0700LEVEL
 62
7
 10
-1901.834
 20
516.832
 30
4527.000
 70
    32
  0
VERTEX
  8
0700LEVEL
 62
7
 10
-1846.202
 20
421.049
 30
4527.000
 70
    32
  0
VERTEX
  8
0700LEVEL
 62
7
 10
-1771.135
 20
294.702
 30
4527.000
 70
    32
  0
VERTEX
  8
0700LEVEL
 62
7
 10
-1683.995
 20
160.613
 30
4527.000
 70
    32
  0
VERTEX
  8
0700LEVEL
 62
7
 10
-1626.058
 20
60.432
 30
4527.000
 70
    32
  0
VERTEX
  8
0700LEVEL
 62
7
 10
-1562.096
 20
-36.703
 30
4527.000
 70
    32
  0
VERTEX
  8
0700LEVEL
 62
7
 10
-1499.000
 20
-131.433
 30
4527.000
 70
    32
  0
VERTEX
  8
0700LEVEL
 62
7
 10
-1448.242
 20
-213.852
 30
4527.000
 70
    32
  0
VERTEX
  8
0700LEVEL
 62
7
 10
-1375.995
 20
-329.683
 30
4527.000
 70
    32
  0
VERTEX
  8
0700LEVEL
 62
7
 10
-1287.888
 20
-460.911
 30
4527.000
 70
    32
  0
VERTEX
  8
0700LEVEL
 62
7
 10
-1214.495
 20
-568.125
 30
4527.000
 70
    32
  0
VERTEX
  8
0700LEVEL
 62
7
 10
-1118.958
 20
-700.056
 30
4527.000
 70
    32
  0
VERTEX
  8
0700LEVEL
 62
7
 10
-1040.725
 20
-822.390
 30
4527.000
 70
    32
  0
VERTEX
  8
0700LEVEL
 62
7
 10
-929.831
 20
-985.228
 30
4527.000
 70
    32
  0
VERTEX
  8
0700LEVEL
 62
7
 10
-819.850
 20
-1125.788
 30
4527.000
 70
    32
  0
VERTEX
  8
0700LEVEL
 62
7
 10
-739.497
 20
-1228.851
 30
4527.000
 70
    32
  0
VERTEX
  8
0700LEVEL
 62
7
 10
-663.091
 20
-1343.847
 30
4527.000
 70
    32
  0
VERTEX
  8
0700LEVEL
 62
7
 10
-569.779
 20
-1489.499
 30
4527.000
 70
    32
  0
VERTEX
  8
0700LEVEL
 62
7
 10
-463.700
 20
-1643.258
 30
4527.000
 70
    32
  0
VERTEX
  8
0700LEVEL
 62
7
 10
-378.076
 20
-1775.843
 30
4527.000
 70
    32
  0
VERTEX
  8
0700LEVEL
 62
7
 10
-286.717
 20
-1913.383
 30
4527.000
 70
    32
  0
VERTEX
  8
0700LEVEL
 62
7
 10
-210.696
 20
-2033.849
 30
4527.000
 70
    32
  0
VERTEX
  8
0700LEVEL
 62
7
 10
-118.509
 20
-2164.733
 30
4527.000
 70
    32
  0
VERTEX
  8
0700LEVEL
 62
7
 10
-32.919
 20
-2299.074
 30
4527.000
 70
    32
  0
VERTEX
  8
0700LEVEL
 62
7
 10
43.248
 20
-2415.540
 30
4527.000
 70
    32
  0
VERTEX
  8
0700LEVEL
 62
7
 10
102.071
 20
-2531.959
 30
4527.000
 70
    32
  0
VERTEX
  8
0700LEVEL
 62
7
 10
154.883
 20
-2598.617
 30
4527.000
 70
    32
  0
VERTEX
  8
0700LEVEL
 62
7
 10
142.465
 20
-2624.014
 30
4527.000
 70
    32
  0
VERTEX
  8
0700LEVEL
 62
7
 10
100.792
 20
-2566.204
 30
4527.000
 70
    32
  0
VERTEX
  8
0700LEVEL
 62
7
 10
46.066
 20
-2500.494
 30
4527.000
 70
    32
  0
VERTEX
  8
0700LEVEL
 62
7
 10
0.134
 20
-2467.392
 30
4527.000
 70
    32
  0
VERTEX
  8
0700LEVEL
 62
7
 10
-60.612
 20
-2396.933
 30
4527.000
 70
    32
  0
VERTEX
  8
0700LEVEL
 62
7
 10
-114.065
 20
-2323.382
 30
4527.000
 70
    32
  0
VERTEX
  8
0700LEVEL
 62
7
 10
-174.307
 20
-2237.413
 30
4527.000
 70
    32
  0
VERTEX
  8
0700LEVEL
 62
7
 10
-239.502
 20
-2157.179
 30
4527.000
 70
    32
  0
VERTEX
  8
0700LEVEL
 62
7
 10
-326.286
 20
-2067.407
 30
4527.000
 70
    32
  0
VERTEX
  8
0700LEVEL
 62
7
 10
-417.335
 20
-1954.311
 30
4527.000
 70
    32
  0
VERTEX
  8
0700LEVEL
 62
7
 10
-503.257
 20
-1837.520
 30
4527.000
 70
    32
  0
VERTEX
  8
0700LEVEL
 62
7
 10
-587.582
 20
-1703.133
 30
4527.000
 70
    32
  0
VERTEX
  8
0700LEVEL
 62
7
 10
-667.444
 20
-1562.932
 30
4527.000
 70
    32
  0
VERTEX
  8
0700LEVEL
 62
7
 10
-731.817
 20
-1446.618
 30
4527.000
 70
    32
  0
VERTEX
  8
0700LEVEL
 62
7
 10
-800.050
 20
-1333.954
 30
4527.000
 70
    32
  0
VERTEX
  8
0700LEVEL
 62
7
 10
-877.913
 20
-1221.739
 30
4527.000
 70
    32
  0
VERTEX
  8
0700LEVEL
 62
7
 10
-959.822
 20
-1108.114
 30
4527.000
 70
    32
  0
VERTEX
  8
0700LEVEL
 62
7
 10
-1048.989
 20
-977.217
 30
4527.000
 70
    32
  0
VERTEX
  8
0700LEVEL
 62
7
 10
-1133.494
 20
-867.194
 30
4527.000
 70
    32
  0
VERTEX
  8
0700LEVEL
 62
7
 10
-1227.701
 20
-731.707
 30
4527.000
 70
    32
  0
VERTEX
  8
0700LEVEL
 62
7
 10
-1314.019
 20
-598.757
 30
4527.000
 70
    32
  0
VERTEX
  8
0700LEVEL
 62
7
 10
-1397.359
 20
-475.344
 30
4527.000
 70
    32
  0
VERTEX
  8
0700LEVEL
 62
7
 10
-1477.274
 20
-341.672
 30
4527.000
 70
    32
  0
VERTEX
  8
0700LEVEL
 62
7
 10
-1551.758
 20
-217.934
 30
4527.000
 70
    32
  0
VERTEX
  8
0700LEVEL
 62
7
 10
-1627.999
 20
-112.773
 30
4527.000
 70
    32
  0
VERTEX
  8
0700LEVEL
 62
7
 10
-1703.471
 20
3.329
 30
4527.000
 70
    32
  0
VERTEX
  8
0700LEVEL
 62
7
 10
-1784.042
 20
128.306
 30
4527.000
 70
    32
  0
VERTEX
  8
0700LEVEL
 62
7
 10
-1869.473
 20
263.626
 30
4527.000
 70
    32
  0
VERTEX
  8
0700LEVEL
 62
7
 10
-1966.321
 20
415.385
 30
4527.000
 70
    32
  0
VERTEX
  8
0700LEVEL
 62
7
 10
-2056.991
 20
544.765
 30
4527.000
 70
    32
  0
VERTEX
  8
0700LEVEL
 62
7
 10
-2156.939
 20
677.411
 30
4527.000
 70
    32
  0
VERTEX
  8
0700LEVEL
 62
7
 10
-2243.895
 20
787.832
 30
4527.000
 70
    32
  0
VERTEX
  8
0700LEVEL
 62
7
 10
-2318.115
 20
907.000
 30
4527.000
 70
    32
  0
VERTEX
  8
0700LEVEL
 62
7
 10
-2393.316
 20
1007.718
 30
4527.000
 70
    32
  0
VERTEX
  8
0700LEVEL
 62
7
 10
-2484.669
 20
1115.833
 30
4527.000
 70
    32
  0
VERTEX
  8
0700LEVEL
 62
7
 10
-2568.154
 20
1235.247
 30
4527.000
 70
    32
  0
VERTEX
  8
0700LEVEL
 62
7
 10
-2648.487
 20
1361.693
 30
4527.000
 70
    32
  0
VERTEX
  8
0700LEVEL
 62
7
 10
-2736.780
 20
1479.372
 30
4527.000
 70
    32
  0
VERTEX
  8
0700LEVEL
 62
7
 10
-2820.622
 20
1605.885
 30
4527.000
 70
    32
  0
VERTEX
  8
0700LEVEL
 62
7
 10
-2887.995
 20
1708.351
 30
4527.000
 70
    32
  0
VERTEX
  8
0700LEVEL
 62
7
 10
-2956.985
 20
1788.446
 30
4527.000
 70
    32
  0
VERTEX
  8
0700LEVEL
 62
7
 10
-3003.825
 20
1814.401
 30
4527.000
 70
    32
  0
VERTEX
  8
0700LEVEL
 62
7
 10
-2947.551
 20
1730.333
 30
4527.000
 70
    32
  0
VERTEX
  8
0700LEVEL
 62
7
 10
-2886.230
 20
1649.470
 30
4527.000
 70
    32
  0
VERTEX
  8
0700LEVEL
 62
7
 10
-2817.022
 20
1547.461
 30
4527.000
 70
    32
  0
VERTEX
  8
0700LEVEL
 62
7
 10
-2762.159
 20
1440.737
 30
4527.000
 70
    32
  0
VERTEX
  8
0700LEVEL
 62
7
 10
-2710.944
 20
1337.875
 30
4527.000
 70
    32
  0
VERTEX
  8
0700LEVEL
 62
7
 10
-2663.888
 20
1252.787
 30
4527.000
 70
    32
  0
VERTEX
  8
0700LEVEL
 62
7
 10
-2635.878
 20
1174.309
 30
4527.000
 70
    32
  0
VERTEX
  8
0700LEVEL
 62
7
 10
-2687.167
 20
1228.649
 30
4527.000
 70
    32
  0
VERTEX
  8
0700LEVEL
 62
7
 10
-2764.527
 20
1337.764
 30
4527.000
 70
    32
  0
VERTEX
  8
0700LEVEL
 62
7
 10
-2852.761
 20
1451.158
 30
4527.000
 70
    32
  0
VERTEX
  8
0700LEVEL
 62
7
 10
-2941.153
 20
1582.181
 30
4527.000
 70
    32
  0
VERTEX
  8
0700LEVEL
 62
7
 10
-3009.254
 20
1683.256
 30
4527.000
 70
    32
  0
VERTEX
  8
0700LEVEL
 62
7
 10
-3095.714
 20
1782.783
 30
4527.000
 70
    32
  0
VERTEX
  8
0700LEVEL
 62
7
 10
-3178.259
 20
1873.878
 30
4527.000
 70
    32
  0
VERTEX
  8
0700LEVEL
 62
7
 10
-3253.877
 20
1985.980
 30
4527.000
 70
    32
  0
VERTEX
  8
0700LEVEL
 62
7
 10
-3305.476
 20
2083.373
 30
4527.000
 70
    32
  0
VERTEX
  8
0700LEVEL
 62
7
 10
-3361.923
 20
2169.481
 30
4527.000
 70
    32
  0
VERTEX
  8
0700LEVEL
 62
7
 10
-3411.364
 20
2221.257
 30
4527.000
 70
    32
  0
VERTEX
  8
0700LEVEL
 62
7
 10
-3384.884
 20
2147.303
 30
4527.000
 70
    32
  0
VERTEX
  8
0700LEVEL
 62
7
 10
-3364.092
 20
2058.428
 30
4527.000
 70
    32
  0
VERTEX
  8
0700LEVEL
 62
7
 10
-3353.295
 20
1968.408
 30
4527.000
 70
    32
  0
VERTEX
  8
0700LEVEL
 62
7
 10
-3296.543
 20
1887.280
 30
4527.000
 70
    32
  0
VERTEX
  8
0700LEVEL
 62
7
 10
-3212.581
 20
1789.416
 30
4527.000
 70
    32
  0
VERTEX
  8
0700LEVEL
 62
7
 10
-3114.293
 20
1691.492
 30
4527.000
 70
    32
  0
VERTEX
  8
0700LEVEL
 62
7
 10
-3024.139
 20
1586.840
 30
4527.000
 70
    32
  0
VERTEX
  8
0700LEVEL
 62
7
 10
-2950.288
 20
1496.400
 30
4527.000
 70
    32
  0
VERTEX
  8
0700LEVEL
 62
7
 10
-2879.472
 20
1371.749
 30
4527.000
 70
    32
  0
VERTEX
  8
0700LEVEL
 62
7
 10
-2802.988
 20
1238.634
 30
4527.000
 70
    32
  0
VERTEX
  8
0700LEVEL
 62
7
 10
-2742.086
 20
1113.327
 30
4527.000
 70
    32
  0
VERTEX
  8
0700LEVEL
 62
7
 10
-2698.295
 20
1018.961
 30
4527.000
 70
    32
  0
VERTEX
  8
0700LEVEL
 62
7
 10
-2658.630
 20
925.516
 30
4527.000
 70
    32
  0
VERTEX
  8
0700LEVEL
 62
7
 10
-2640.017
 20
840.264
 30
4527.000
 70
    32
  0
VERTEX
  8
0700LEVEL
 62
7
 10
-2691.254
 20
882.525
 30
4527.000
 70
    32
  0
VERTEX
  8
0700LEVEL
 62
7
 10
-2761.899
 20
967.918
 30
4527.000
 70
    32
  0
VERTEX
  8
0700LEVEL
 62
7
 10
-2833.465
 20
1049.185
 30
4527.000
 70
    32
  0
VERTEX
  8
0700LEVEL
 62
7
 10
-2900.767
 20
1125.737
 30
4527.000
 70
    32
  0
VERTEX
  8
0700LEVEL
 62
7
 10
-2976.519
 20
1193.601
 30
4527.000
 70
    32
  0
VERTEX
  8
0700LEVEL
 62
7
 10
-2960.793
 20
1133.965
 30
4527.000
 70
    32
  0
VERTEX
  8
0700LEVEL
 62
7
 10
-2909.631
 20
1043.182
 30
4527.000
 70
    32
  0
VERTEX
  8
0700LEVEL
 62
7
 10
-2873.309
 20
977.187
 30
4527.000
 70
    32
  0
VERTEX
  8
0700LEVEL
 62
7
 10
-2922.620
 20
998.765
 30
4527.000
 70
    32
  0
VERTEX
  8
0700LEVEL
 62
7
 10
-3014.703
 20
1068.272
 30
4527.000
 70
    32
  0
VERTEX
  8
0700LEVEL
 62
7
 10
-3094.395
 20
1131.997
 30
4527.000
 70
    32
  0
VERTEX
  8
0700LEVEL
 62
7
 10
-3147.208
 20
1161.436
 30
4527.000
 70
    32
  0
VERTEX
  8
0700LEVEL
 62
7
 10
-3137.767
 20
1111.118
 30
4527.000
 70
    32
  0
VERTEX
  8
0700LEVEL
 62
7
 10
-3157.039
 20
1094.628
 30
4527.000
 70
    32
  0
VERTEX
  8
0700LEVEL
 62
7
 10
-3215.203
 20
1134.492
 30
4527.000
 70
    32
  0
VERTEX
  8
0700LEVEL
 62
7
 10
-3256.355
 20
1138.149
 30
4527.000
 70
    32
  0
VERTEX
  8
0700LEVEL
 62
7
 10
-3225.669
 20
1063.764
 30
4527.000
 70
    32
  0
VERTEX
  8
0700LEVEL
 62
7
 10
-3188.685
 20
995.650
 30
4527.000
 70
    32
  0
VERTEX
  8
0700LEVEL
 62
7
 10
-3185.899
 20
946.160
 30
4527.000
 70
    32
  0
VERTEX
  8
0700LEVEL
 62
7
 10
-3253.618
 20
996.878
 30
4527.000
 70
    32
  0
VERTEX
  8
0700LEVEL
 62
7
 10
-3314.750
 20
1024.648
 30
4527.000
 70
    32
  0
VERTEX
  8
0700LEVEL
 62
7
 10
-3272.223
 20
948.845
 30
4527.000
 70
    32
  0
VERTEX
  8
0700LEVEL
 62
7
 10
-3222.305
 20
881.400
 30
4527.000
 70
    32
  0
VERTEX
  8
0700LEVEL
 62
7
 10
-3083.234
 20
808.085
 30
4527.000
 70
    32
  0
VERTEX
  8
0700LEVEL
 62
7
 10
-2953.004
 20
748.861
 30
4527.000
 70
    32
  0
VERTEX
  8
0700LEVEL
 62
7
 10
-2838.560
 20
681.741
 30
4527.000
 70
    32
  0
VERTEX
  8
0700LEVEL
 62
7
 10
-2751.740
 20
602.777
 30
4527.000
 70
    32
  0
VERTEX
  8
0700LEVEL
 62
7
 10
-2664.920
 20
519.865
 30
4527.000
 70
    32
  0
VERTEX
  8
0700LEVEL
 62
7
 10
-2601.778
 20
440.900
 30
4527.000
 70
    32
  0
VERTEX
  8
0700LEVEL
 62
7
 10
-2546.529
 20
318.505
 30
4527.000
 70
    32
  0
VERTEX
  8
0700LEVEL
 62
7
 10
-2530.743
 20
223.748
 30
4527.000
 70
    32
  0
VERTEX
  8
0700LEVEL
 62
7
 10
-2499.173
 20
117.146
 30
4527.000
 70
    32
  0
VERTEX
  8
0700LEVEL
 62
7
 10
-2459.709
 20
34.233
 30
4527.000
 70
    32
  0
VERTEX
  8
0700LEVEL
 62
7
 10
-2424.191
 20
-76.317
 30
4527.000
 70
    32
  0
VERTEX
  8
0700LEVEL
 62
7
 10
-2353.157
 20
-234.246
 30
4527.000
 70
    32
  0
VERTEX
  8
0700LEVEL
 62
7
 10
-2297.908
 20
-407.968
 30
4527.000
 70
    32
  0
VERTEX
  8
0700LEVEL
 62
7
 10
-2215.034
 20
-530.363
 30
4527.000
 70
    32
  0
VERTEX
  8
0700LEVEL
 62
7
 10
-2167.678
 20
-597.482
 30
4527.000
 70
    32
  0
VERTEX
  8
0700LEVEL
 62
7
 10
-2124.268
 20
-708.032
 30
4527.000
 70
    32
  0
VERTEX
  8
0700LEVEL
 62
7
 10
-2092.697
 20
-771.204
 30
4527.000
 70
    32
  0
VERTEX
  8
0700LEVEL
 62
7
 10
-2065.072
 20
-858.065
 30
4527.000
 70
    32
  0
VERTEX
  8
0700LEVEL
 62
7
 10
-2061.126
 20
-929.133
 30
4527.000
 70
    32
  0
VERTEX
  8
0700LEVEL
 62
7
 10
-2080.858
 20
-1023.890
 30
4527.000
 70
    32
  0
VERTEX
  8
0700LEVEL
 62
7
 10
-2159.785
 20
-1071.269
 30
4527.000
 70
    32
  0
VERTEX
  8
0700LEVEL
 62
7
 10
-2222.927
 20
-1067.321
 30
4527.000
 70
    32
  0
VERTEX
  8
0700LEVEL
 62
7
 10
-2313.693
 20
-1023.890
 30
4527.000
 70
    32
  0
VERTEX
  8
0700LEVEL
 62
7
 10
-2376.835
 20
-972.563
 30
4527.000
 70
    32
  0
VERTEX
  8
0700LEVEL
 62
7
 10
-2518.904
 20
-897.547
 30
4527.000
 70
    32
  0
VERTEX
  8
0700LEVEL
 62
7
 10
-2601.778
 20
-810.686
 30
4527.000
 70
    32
  0
VERTEX
  8
0700LEVEL
 62
7
 10
-2680.705
 20
-688.291
 30
4527.000
 70
    32
  0
VERTEX
  8
0700LEVEL
 62
7
 10
-2724.115
 20
-593.534
 30
4527.000
 70
    32
  0
VERTEX
  8
0700LEVEL
 62
7
 10
-2735.954
 20
-530.363
 30
4527.000
 70
    32
  0
VERTEX
  8
0700LEVEL
 62
7
 10
-2783.311
 20
-455.347
 30
4527.000
 70
    32
  0
VERTEX
  8
0700LEVEL
 62
7
 10
-2799.096
 20
-411.916
 30
4527.000
 70
    32
  0
VERTEX
  8
0700LEVEL
 62
7
 10
-2838.560
 20
-352.693
 30
4527.000
 70
    32
  0
VERTEX
  8
0700LEVEL
 62
7
 10
-2862.238
 20
-321.107
 30
4527.000
 70
    32
  0
VERTEX
  8
0700LEVEL
 62
7
 10
-2893.809
 20
-257.935
 30
4527.000
 70
    32
  0
VERTEX
  8
0700LEVEL
 62
7
 10
-2905.648
 20
-234.246
 30
4527.000
 70
    32
  0
VERTEX
  8
0700LEVEL
 62
7
 10
-2933.272
 20
-194.764
 30
4527.000
 70
    32
  0
VERTEX
  8
0700LEVEL
 62
7
 10
-2960.897
 20
-198.712
 30
4527.000
 70
    32
  0
VERTEX
  8
0700LEVEL
 62
7
 10
-2949.058
 20
-246.091
 30
4527.000
 70
    32
  0
VERTEX
  8
0700LEVEL
 62
7
 10
-2917.487
 20
-301.366
 30
4527.000
 70
    32
  0
VERTEX
  8
0700LEVEL
 62
7
 10
-2854.345
 20
-396.123
 30
4527.000
 70
    32
  0
VERTEX
  8
0700LEVEL
 62
7
 10
-2838.560
 20
-467.191
 30
4527.000
 70
    32
  0
VERTEX
  8
0700LEVEL
 62
7
 10
-2810.935
 20
-581.689
 30
4527.000
 70
    32
  0
VERTEX
  8
0700LEVEL
 62
7
 10
-2755.686
 20
-700.136
 30
4527.000
 70
    32
  0
VERTEX
  8
0700LEVEL
 62
7
 10
-2704.384
 20
-814.634
 30
4527.000
 70
    32
  0
VERTEX
  8
0700LEVEL
 62
7
 10
-2680.705
 20
-948.874
 30
4527.000
 70
    32
  0
VERTEX
  8
0700LEVEL
 62
7
 10
-2649.134
 20
-988.356
 30
4527.000
 70
    32
  0
VERTEX
  8
0700LEVEL
 62
7
 10
-2601.778
 20
-1087.062
 30
4527.000
 70
    32
  0
SEQEND
  8
0700LEVEL
  0
ENDSEC
  0
EOF
