999
********************************
999
*   DXF File - Entities Only   *
999
*        3D Data Format        *
999
*     Output from ENVISAGE     *
999
*     28-Dec-2007 14:13:54     *
999
********************************
  0
SECTION 
  2
HEADER
  9
$ACADVER
  1
AC1009
  9
$EXTMIN
 10
-290000.000
 20
-250000.000
 30
-4000.000
  9
$EXTMAX
 10
5000000.000
 20
600000.000
 30
6000.000
  0
ENDSEC
  0
SECTION
  2
ENTITIES
  0
POLYLINE
  8
7250LEVEL
 62
13
 66
     1
 70
     8
  0
VERTEX
  8
7250LEVEL
 62
13
 10
1852.185
 20
-12063.418
 30
-1977.000
 70
    32
  0
VERTEX
  8
7250LEVEL
 62
13
 10
1882.416
 20
-12086.848
 30
-1977.000
 70
    32
  0
VERTEX
  8
7250LEVEL
 62
13
 10
1907.263
 20
-12148.446
 30
-1977.000
 70
    32
  0
VERTEX
  8
7250LEVEL
 62
13
 10
1934.085
 20
-12230.570
 30
-1977.000
 70
    32
  0
VERTEX
  8
7250LEVEL
 62
13
 10
1958.405
 20
-12314.026
 30
-1977.000
 70
    32
  0
VERTEX
  8
7250LEVEL
 62
13
 10
1982.415
 20
-12400.707
 30
-1977.000
 70
    32
  0
VERTEX
  8
7250LEVEL
 62
13
 10
2005.649
 20
-12487.505
 30
-1977.000
 70
    32
  0
VERTEX
  8
7250LEVEL
 62
13
 10
2028.351
 20
-12568.660
 30
-1977.000
 70
    32
  0
VERTEX
  8
7250LEVEL
 62
13
 10
2038.342
 20
-12644.574
 30
-1977.000
 70
    32
  0
VERTEX
  8
7250LEVEL
 62
13
 10
2049.176
 20
-12711.300
 30
-1977.000
 70
    32
  0
VERTEX
  8
7250LEVEL
 62
13
 10
2062.554
 20
-12782.254
 30
-1977.000
 70
    32
  0
VERTEX
  8
7250LEVEL
 62
13
 10
2069.036
 20
-12834.851
 30
-1977.000
 70
    32
  0
VERTEX
  8
7250LEVEL
 62
13
 10
2070.748
 20
-12891.662
 30
-1977.000
 70
    32
  0
VERTEX
  8
7250LEVEL
 62
13
 10
2071.771
 20
-12936.496
 30
-1977.000
 70
    32
  0
VERTEX
  8
7250LEVEL
 62
13
 10
2079.054
 20
-12884.531
 30
-1977.000
 70
    32
  0
VERTEX
  8
7250LEVEL
 62
13
 10
2074.309
 20
-12823.406
 30
-1977.000
 70
    32
  0
VERTEX
  8
7250LEVEL
 62
13
 10
2067.459
 20
-12748.292
 30
-1977.000
 70
    32
  0
VERTEX
  8
7250LEVEL
 62
13
 10
2051.632
 20
-12676.912
 30
-1977.000
 70
    32
  0
VERTEX
  8
7250LEVEL
 62
13
 10
2049.813
 20
-12623.613
 30
-1977.000
 70
    32
  0
VERTEX
  8
7250LEVEL
 62
13
 10
2069.044
 20
-12659.508
 30
-1977.000
 70
    32
  0
VERTEX
  8
7250LEVEL
 62
13
 10
2080.187
 20
-12723.008
 30
-1977.000
 70
    32
  0
VERTEX
  8
7250LEVEL
 62
13
 10
2090.308
 20
-12792.385
 30
-1977.000
 70
    32
  0
VERTEX
  8
7250LEVEL
 62
13
 10
2104.658
 20
-12847.613
 30
-1977.000
 70
    32
  0
VERTEX
  8
7250LEVEL
 62
13
 10
2097.902
 20
-12776.299
 30
-1977.000
 70
    32
  0
VERTEX
  8
7250LEVEL
 62
13
 10
2083.738
 20
-12701.172
 30
-1977.000
 70
    32
  0
VERTEX
  8
7250LEVEL
 62
13
 10
2071.615
 20
-12637.502
 30
-1977.000
 70
    32
  0
VERTEX
  8
7250LEVEL
 62
13
 10
2069.342
 20
-12562.175
 30
-1977.000
 70
    32
  0
VERTEX
  8
7250LEVEL
 62
13
 10
2085.430
 20
-12608.875
 30
-1977.000
 70
    32
  0
VERTEX
  8
7250LEVEL
 62
13
 10
2098.669
 20
-12682.075
 30
-1977.000
 70
    32
  0
VERTEX
  8
7250LEVEL
 62
13
 10
2110.707
 20
-12746.236
 30
-1977.000
 70
    32
  0
VERTEX
  8
7250LEVEL
 62
13
 10
2122.359
 20
-12818.403
 30
-1977.000
 70
    32
  0
VERTEX
  8
7250LEVEL
 62
13
 10
2124.536
 20
-12889.928
 30
-1977.000
 70
    32
  0
VERTEX
  8
7250LEVEL
 62
13
 10
2131.119
 20
-12973.827
 30
-1977.000
 70
    32
  0
VERTEX
  8
7250LEVEL
 62
13
 10
2135.837
 20
-13061.185
 30
-1977.000
 70
    32
  0
VERTEX
  8
7250LEVEL
 62
13
 10
2147.414
 20
-13138.132
 30
-1977.000
 70
    32
  0
VERTEX
  8
7250LEVEL
 62
13
 10
2165.745
 20
-13196.577
 30
-1977.000
 70
    32
  0
VERTEX
  8
7250LEVEL
 62
13
 10
2214.233
 20
-13283.231
 30
-1977.000
 70
    32
  0
VERTEX
  8
7250LEVEL
 62
13
 10
2249.235
 20
-13353.157
 30
-1977.000
 70
    32
  0
VERTEX
  8
7250LEVEL
 62
13
 10
2292.208
 20
-13433.806
 30
-1977.000
 70
    32
  0
VERTEX
  8
7250LEVEL
 62
13
 10
2324.252
 20
-13494.638
 30
-1977.000
 70
    32
  0
VERTEX
  8
7250LEVEL
 62
13
 10
2355.193
 20
-13538.627
 30
-1977.000
 70
    32
  0
VERTEX
  8
7250LEVEL
 62
13
 10
2334.008
 20
-13479.181
 30
-1977.000
 70
    32
  0
VERTEX
  8
7250LEVEL
 62
13
 10
2286.383
 20
-13391.920
 30
-1977.000
 70
    32
  0
VERTEX
  8
7250LEVEL
 62
13
 10
2245.286
 20
-13300.497
 30
-1977.000
 70
    32
  0
VERTEX
  8
7250LEVEL
 62
13
 10
2204.493
 20
-13229.058
 30
-1977.000
 70
    32
  0
VERTEX
  8
7250LEVEL
 62
13
 10
2167.181
 20
-13156.460
 30
-1977.000
 70
    32
  0
VERTEX
  8
7250LEVEL
 62
13
 10
2163.418
 20
-13083.901
 30
-1977.000
 70
    32
  0
VERTEX
  8
7250LEVEL
 62
13
 10
2166.577
 20
-13003.465
 30
-1977.000
 70
    32
  0
VERTEX
  8
7250LEVEL
 62
13
 10
2171.414
 20
-12939.468
 30
-1977.000
 70
    32
  0
VERTEX
  8
7250LEVEL
 62
13
 10
2160.305
 20
-12865.630
 30
-1977.000
 70
    32
  0
VERTEX
  8
7250LEVEL
 62
13
 10
2146.905
 20
-12797.700
 30
-1977.000
 70
    32
  0
VERTEX
  8
7250LEVEL
 62
13
 10
2138.602
 20
-12742.516
 30
-1977.000
 70
    32
  0
VERTEX
  8
7250LEVEL
 62
13
 10
2157.816
 20
-12758.224
 30
-1977.000
 70
    32
  0
VERTEX
  8
7250LEVEL
 62
13
 10
2187.455
 20
-12812.583
 30
-1977.000
 70
    32
  0
VERTEX
  8
7250LEVEL
 62
13
 10
2202.678
 20
-12820.784
 30
-1977.000
 70
    32
  0
VERTEX
  8
7250LEVEL
 62
13
 10
2186.786
 20
-12758.475
 30
-1977.000
 70
    32
  0
VERTEX
  8
7250LEVEL
 62
13
 10
2165.187
 20
-12694.164
 30
-1977.000
 70
    32
  0
VERTEX
  8
7250LEVEL
 62
13
 10
2139.120
 20
-12614.945
 30
-1977.000
 70
    32
  0
VERTEX
  8
7250LEVEL
 62
13
 10
2121.672
 20
-12513.765
 30
-1977.000
 70
    32
  0
VERTEX
  8
7250LEVEL
 62
13
 10
2103.409
 20
-12434.644
 30
-1977.000
 70
    32
  0
VERTEX
  8
7250LEVEL
 62
13
 10
2095.735
 20
-12326.588
 30
-1977.000
 70
    32
  0
VERTEX
  8
7250LEVEL
 62
13
 10
2073.774
 20
-12216.548
 30
-1977.000
 70
    32
  0
VERTEX
  8
7250LEVEL
 62
13
 10
2056.569
 20
-12121.213
 30
-1977.000
 70
    32
  0
VERTEX
  8
7250LEVEL
 62
13
 10
2035.419
 20
-12051.428
 30
-1977.000
 70
    32
  0
VERTEX
  8
7250LEVEL
 62
13
 10
2013.353
 20
-11984.008
 30
-1977.000
 70
    32
  0
VERTEX
  8
7250LEVEL
 62
13
 10
2041.377
 20
-12024.461
 30
-1977.000
 70
    32
  0
VERTEX
  8
7250LEVEL
 62
13
 10
2074.110
 20
-12097.272
 30
-1977.000
 70
    32
  0
VERTEX
  8
7250LEVEL
 62
13
 10
2108.756
 20
-12188.076
 30
-1977.000
 70
    32
  0
VERTEX
  8
7250LEVEL
 62
13
 10
2135.171
 20
-12281.231
 30
-1977.000
 70
    32
  0
VERTEX
  8
7250LEVEL
 62
13
 10
2171.103
 20
-12380.584
 30
-1977.000
 70
    32
  0
VERTEX
  8
7250LEVEL
 62
13
 10
2203.948
 20
-12477.382
 30
-1977.000
 70
    32
  0
VERTEX
  8
7250LEVEL
 62
13
 10
2245.023
 20
-12571.828
 30
-1977.000
 70
    32
  0
VERTEX
  8
7250LEVEL
 62
13
 10
2290.531
 20
-12652.414
 30
-1977.000
 70
    32
  0
VERTEX
  8
7250LEVEL
 62
13
 10
2344.803
 20
-12724.686
 30
-1977.000
 70
    32
  0
VERTEX
  8
7250LEVEL
 62
13
 10
2380.198
 20
-12751.790
 30
-1977.000
 70
    32
  0
VERTEX
  8
7250LEVEL
 62
13
 10
2354.106
 20
-12687.200
 30
-1977.000
 70
    32
  0
VERTEX
  8
7250LEVEL
 62
13
 10
2308.162
 20
-12604.773
 30
-1977.000
 70
    32
  0
VERTEX
  8
7250LEVEL
 62
13
 10
2265.795
 20
-12524.987
 30
-1977.000
 70
    32
  0
VERTEX
  8
7250LEVEL
 62
13
 10
2230.433
 20
-12448.439
 30
-1977.000
 70
    32
  0
VERTEX
  8
7250LEVEL
 62
13
 10
2203.579
 20
-12365.047
 30
-1977.000
 70
    32
  0
VERTEX
  8
7250LEVEL
 62
13
 10
2229.413
 20
-12392.000
 30
-1977.000
 70
    32
  0
VERTEX
  8
7250LEVEL
 62
13
 10
2268.744
 20
-12479.079
 30
-1977.000
 70
    32
  0
VERTEX
  8
7250LEVEL
 62
13
 10
2304.287
 20
-12558.938
 30
-1977.000
 70
    32
  0
VERTEX
  8
7250LEVEL
 62
13
 10
2344.568
 20
-12633.315
 30
-1977.000
 70
    32
  0
VERTEX
  8
7250LEVEL
 62
13
 10
2388.695
 20
-12650.839
 30
-1977.000
 70
    32
  0
VERTEX
  8
7250LEVEL
 62
13
 10
2410.404
 20
-12649.321
 30
-1977.000
 70
    32
  0
VERTEX
  8
7250LEVEL
 62
13
 10
2455.686
 20
-12693.537
 30
-1977.000
 70
    32
  0
VERTEX
  8
7250LEVEL
 62
13
 10
2439.109
 20
-12646.751
 30
-1977.000
 70
    32
  0
VERTEX
  8
7250LEVEL
 62
13
 10
2399.880
 20
-12579.369
 30
-1977.000
 70
    32
  0
VERTEX
  8
7250LEVEL
 62
13
 10
2363.289
 20
-12520.015
 30
-1977.000
 70
    32
  0
VERTEX
  8
7250LEVEL
 62
13
 10
2318.512
 20
-12456.966
 30
-1977.000
 70
    32
  0
VERTEX
  8
7250LEVEL
 62
13
 10
2279.334
 20
-12399.432
 30
-1977.000
 70
    32
  0
VERTEX
  8
7250LEVEL
 62
13
 10
2224.044
 20
-12309.827
 30
-1977.000
 70
    32
  0
VERTEX
  8
7250LEVEL
 62
13
 10
2253.467
 20
-12332.106
 30
-1977.000
 70
    32
  0
VERTEX
  8
7250LEVEL
 62
13
 10
2311.303
 20
-12414.334
 30
-1977.000
 70
    32
  0
VERTEX
  8
7250LEVEL
 62
13
 10
2365.171
 20
-12486.031
 30
-1977.000
 70
    32
  0
VERTEX
  8
7250LEVEL
 62
13
 10
2415.888
 20
-12552.639
 30
-1977.000
 70
    32
  0
VERTEX
  8
7250LEVEL
 62
13
 10
2460.453
 20
-12611.110
 30
-1977.000
 70
    32
  0
VERTEX
  8
7250LEVEL
 62
13
 10
2521.659
 20
-12668.191
 30
-1977.000
 70
    32
  0
VERTEX
  8
7250LEVEL
 62
13
 10
2584.778
 20
-12743.265
 30
-1977.000
 70
    32
  0
VERTEX
  8
7250LEVEL
 62
13
 10
2649.140
 20
-12832.937
 30
-1977.000
 70
    32
  0
VERTEX
  8
7250LEVEL
 62
13
 10
2687.730
 20
-12898.189
 30
-1977.000
 70
    32
  0
VERTEX
  8
7250LEVEL
 62
13
 10
2727.613
 20
-12948.781
 30
-1977.000
 70
    32
  0
VERTEX
  8
7250LEVEL
 62
13
 10
2716.429
 20
-12918.829
 30
-1977.000
 70
    32
  0
VERTEX
  8
7250LEVEL
 62
13
 10
2656.605
 20
-12823.388
 30
-1977.000
 70
    32
  0
VERTEX
  8
7250LEVEL
 62
13
 10
2614.333
 20
-12747.403
 30
-1977.000
 70
    32
  0
VERTEX
  8
7250LEVEL
 62
13
 10
2578.744
 20
-12685.196
 30
-1977.000
 70
    32
  0
VERTEX
  8
7250LEVEL
 62
13
 10
2527.240
 20
-12614.415
 30
-1977.000
 70
    32
  0
VERTEX
  8
7250LEVEL
 62
13
 10
2454.860
 20
-12531.673
 30
-1977.000
 70
    32
  0
VERTEX
  8
7250LEVEL
 62
13
 10
2391.624
 20
-12455.822
 30
-1977.000
 70
    32
  0
VERTEX
  8
7250LEVEL
 62
13
 10
2335.444
 20
-12393.057
 30
-1977.000
 70
    32
  0
VERTEX
  8
7250LEVEL
 62
13
 10
2274.294
 20
-12322.614
 30
-1977.000
 70
    32
  0
VERTEX
  8
7250LEVEL
 62
13
 10
2225.397
 20
-12258.594
 30
-1977.000
 70
    32
  0
VERTEX
  8
7250LEVEL
 62
13
 10
2166.367
 20
-12183.223
 30
-1977.000
 70
    32
  0
VERTEX
  8
7250LEVEL
 62
13
 10
2102.508
 20
-12086.323
 30
-1977.000
 70
    32
  0
VERTEX
  8
7250LEVEL
 62
13
 10
2056.744
 20
-12007.206
 30
-1977.000
 70
    32
  0
VERTEX
  8
7250LEVEL
 62
13
 10
2001.018
 20
-11915.759
 30
-1977.000
 70
    32
  0
VERTEX
  8
7250LEVEL
 62
13
 10
1944.066
 20
-11829.901
 30
-1977.000
 70
    32
  0
VERTEX
  8
7250LEVEL
 62
13
 10
1899.740
 20
-11749.774
 30
-1977.000
 70
    32
  0
VERTEX
  8
7250LEVEL
 62
13
 10
1855.153
 20
-11643.615
 30
-1977.000
 70
    32
  0
VERTEX
  8
7250LEVEL
 62
13
 10
1828.514
 20
-11553.196
 30
-1977.000
 70
    32
  0
VERTEX
  8
7250LEVEL
 62
13
 10
1826.524
 20
-11500.877
 30
-1977.000
 70
    32
  0
VERTEX
  8
7250LEVEL
 62
13
 10
1844.220
 20
-11545.587
 30
-1977.000
 70
    32
  0
VERTEX
  8
7250LEVEL
 62
13
 10
1868.265
 20
-11621.930
 30
-1977.000
 70
    32
  0
VERTEX
  8
7250LEVEL
 62
13
 10
1883.073
 20
-11675.977
 30
-1977.000
 70
    32
  0
VERTEX
  8
7250LEVEL
 62
13
 10
1915.119
 20
-11725.204
 30
-1977.000
 70
    32
  0
VERTEX
  8
7250LEVEL
 62
13
 10
1949.792
 20
-11789.774
 30
-1977.000
 70
    32
  0
VERTEX
  8
7250LEVEL
 62
13
 10
1980.294
 20
-11843.526
 30
-1977.000
 70
    32
  0
VERTEX
  8
7250LEVEL
 62
13
 10
1996.095
 20
-11839.718
 30
-1977.000
 70
    32
  0
VERTEX
  8
7250LEVEL
 62
13
 10
1962.218
 20
-11783.613
 30
-1977.000
 70
    32
  0
VERTEX
  8
7250LEVEL
 62
13
 10
1927.034
 20
-11721.981
 30
-1977.000
 70
    32
  0
VERTEX
  8
7250LEVEL
 62
13
 10
1897.012
 20
-11664.023
 30
-1977.000
 70
    32
  0
VERTEX
  8
7250LEVEL
 62
13
 10
1874.261
 20
-11612.126
 30
-1977.000
 70
    32
  0
VERTEX
  8
7250LEVEL
 62
13
 10
1850.896
 20
-11543.470
 30
-1977.000
 70
    32
  0
VERTEX
  8
7250LEVEL
 62
13
 10
1842.508
 20
-11488.775
 30
-1977.000
 70
    32
  0
VERTEX
  8
7250LEVEL
 62
13
 10
1866.051
 20
-11521.637
 30
-1977.000
 70
    32
  0
VERTEX
  8
7250LEVEL
 62
13
 10
1891.195
 20
-11587.322
 30
-1977.000
 70
    32
  0
VERTEX
  8
7250LEVEL
 62
13
 10
1913.198
 20
-11652.209
 30
-1977.000
 70
    32
  0
VERTEX
  8
7250LEVEL
 62
13
 10
1945.836
 20
-11721.218
 30
-1977.000
 70
    32
  0
VERTEX
  8
7250LEVEL
 62
13
 10
1980.904
 20
-11782.073
 30
-1977.000
 70
    32
  0
VERTEX
  8
7250LEVEL
 62
13
 10
2017.662
 20
-11852.052
 30
-1977.000
 70
    32
  0
VERTEX
  8
7250LEVEL
 62
13
 10
2072.857
 20
-11937.857
 30
-1977.000
 70
    32
  0
VERTEX
  8
7250LEVEL
 62
13
 10
2124.890
 20
-12025.886
 30
-1977.000
 70
    32
  0
VERTEX
  8
7250LEVEL
 62
13
 10
2174.805
 20
-12107.238
 30
-1977.000
 70
    32
  0
VERTEX
  8
7250LEVEL
 62
13
 10
2224.831
 20
-12173.473
 30
-1977.000
 70
    32
  0
VERTEX
  8
7250LEVEL
 62
13
 10
2274.444
 20
-12223.237
 30
-1977.000
 70
    32
  0
VERTEX
  8
7250LEVEL
 62
13
 10
2237.812
 20
-12158.325
 30
-1977.000
 70
    32
  0
VERTEX
  8
7250LEVEL
 62
13
 10
2192.071
 20
-12076.186
 30
-1977.000
 70
    32
  0
VERTEX
  8
7250LEVEL
 62
13
 10
2150.885
 20
-11996.857
 30
-1977.000
 70
    32
  0
VERTEX
  8
7250LEVEL
 62
13
 10
2109.748
 20
-11938.983
 30
-1977.000
 70
    32
  0
VERTEX
  8
7250LEVEL
 62
13
 10
2067.057
 20
-11881.342
 30
-1977.000
 70
    32
  0
VERTEX
  8
7250LEVEL
 62
13
 10
2017.003
 20
-11802.235
 30
-1977.000
 70
    32
  0
VERTEX
  8
7250LEVEL
 62
13
 10
1977.518
 20
-11736.323
 30
-1977.000
 70
    32
  0
VERTEX
  8
7250LEVEL
 62
13
 10
1937.280
 20
-11655.898
 30
-1977.000
 70
    32
  0
VERTEX
  8
7250LEVEL
 62
13
 10
1909.223
 20
-11575.072
 30
-1977.000
 70
    32
  0
VERTEX
  8
7250LEVEL
 62
13
 10
1876.991
 20
-11495.033
 30
-1977.000
 70
    32
  0
VERTEX
  8
7250LEVEL
 62
13
 10
1849.638
 20
-11407.265
 30
-1977.000
 70
    32
  0
VERTEX
  8
7250LEVEL
 62
13
 10
1829.521
 20
-11335.895
 30
-1977.000
 70
    32
  0
VERTEX
  8
7250LEVEL
 62
13
 10
1809.195
 20
-11248.341
 30
-1977.000
 70
    32
  0
VERTEX
  8
7250LEVEL
 62
13
 10
1786.312
 20
-11163.875
 30
-1977.000
 70
    32
  0
VERTEX
  8
7250LEVEL
 62
13
 10
1768.946
 20
-11073.809
 30
-1977.000
 70
    32
  0
VERTEX
  8
7250LEVEL
 62
13
 10
1755.915
 20
-10977.687
 30
-1977.000
 70
    32
  0
VERTEX
  8
7250LEVEL
 62
13
 10
1736.129
 20
-10900.067
 30
-1977.000
 70
    32
  0
VERTEX
  8
7250LEVEL
 62
13
 10
1706.425
 20
-10804.069
 30
-1977.000
 70
    32
  0
VERTEX
  8
7250LEVEL
 62
13
 10
1688.929
 20
-10720.540
 30
-1977.000
 70
    32
  0
VERTEX
  8
7250LEVEL
 62
13
 10
1669.889
 20
-10641.537
 30
-1977.000
 70
    32
  0
VERTEX
  8
7250LEVEL
 62
13
 10
1649.494
 20
-10574.660
 30
-1977.000
 70
    32
  0
VERTEX
  8
7250LEVEL
 62
13
 10
1624.119
 20
-10495.814
 30
-1977.000
 70
    32
  0
VERTEX
  8
7250LEVEL
 62
13
 10
1603.374
 20
-10426.605
 30
-1977.000
 70
    32
  0
VERTEX
  8
7250LEVEL
 62
13
 10
1631.227
 20
-10468.038
 30
-1977.000
 70
    32
  0
VERTEX
  8
7250LEVEL
 62
13
 10
1664.908
 20
-10539.752
 30
-1977.000
 70
    32
  0
VERTEX
  8
7250LEVEL
 62
13
 10
1682.289
 20
-10610.898
 30
-1977.000
 70
    32
  0
VERTEX
  8
7250LEVEL
 62
13
 10
1706.429
 20
-10691.042
 30
-1977.000
 70
    32
  0
VERTEX
  8
7250LEVEL
 62
13
 10
1728.748
 20
-10768.599
 30
-1977.000
 70
    32
  0
VERTEX
  8
7250LEVEL
 62
13
 10
1748.278
 20
-10847.688
 30
-1977.000
 70
    32
  0
VERTEX
  8
7250LEVEL
 62
13
 10
1769.107
 20
-10928.012
 30
-1977.000
 70
    32
  0
VERTEX
  8
7250LEVEL
 62
13
 10
1788.994
 20
-11025.328
 30
-1977.000
 70
    32
  0
VERTEX
  8
7250LEVEL
 62
13
 10
1806.385
 20
-11100.765
 30
-1977.000
 70
    32
  0
VERTEX
  8
7250LEVEL
 62
13
 10
1827.262
 20
-11202.543
 30
-1977.000
 70
    32
  0
VERTEX
  8
7250LEVEL
 62
13
 10
1849.525
 20
-11293.461
 30
-1977.000
 70
    32
  0
VERTEX
  8
7250LEVEL
 62
13
 10
1867.605
 20
-11380.875
 30
-1977.000
 70
    32
  0
VERTEX
  8
7250LEVEL
 62
13
 10
1890.722
 20
-11466.896
 30
-1977.000
 70
    32
  0
VERTEX
  8
7250LEVEL
 62
13
 10
1922.533
 20
-11565.280
 30
-1977.000
 70
    32
  0
VERTEX
  8
7250LEVEL
 62
13
 10
1966.153
 20
-11663.954
 30
-1977.000
 70
    32
  0
VERTEX
  8
7250LEVEL
 62
13
 10
2021.674
 20
-11766.719
 30
-1977.000
 70
    32
  0
VERTEX
  8
7250LEVEL
 62
13
 10
2077.603
 20
-11858.454
 30
-1977.000
 70
    32
  0
VERTEX
  8
7250LEVEL
 62
13
 10
2127.299
 20
-11919.333
 30
-1977.000
 70
    32
  0
VERTEX
  8
7250LEVEL
 62
13
 10
2084.486
 20
-11833.414
 30
-1977.000
 70
    32
  0
VERTEX
  8
7250LEVEL
 62
13
 10
2024.771
 20
-11722.855
 30
-1977.000
 70
    32
  0
VERTEX
  8
7250LEVEL
 62
13
 10
1970.040
 20
-11612.658
 30
-1977.000
 70
    32
  0
VERTEX
  8
7250LEVEL
 62
13
 10
1935.879
 20
-11494.439
 30
-1977.000
 70
    32
  0
VERTEX
  8
7250LEVEL
 62
13
 10
1905.558
 20
-11393.287
 30
-1977.000
 70
    32
  0
VERTEX
  8
7250LEVEL
 62
13
 10
1901.841
 20
-11353.787
 30
-1977.000
 70
    32
  0
VERTEX
  8
7250LEVEL
 62
13
 10
1936.723
 20
-11434.540
 30
-1977.000
 70
    32
  0
VERTEX
  8
7250LEVEL
 62
13
 10
1966.184
 20
-11524.693
 30
-1977.000
 70
    32
  0
VERTEX
  8
7250LEVEL
 62
13
 10
2002.084
 20
-11622.780
 30
-1977.000
 70
    32
  0
VERTEX
  8
7250LEVEL
 62
13
 10
2041.808
 20
-11717.748
 30
-1977.000
 70
    32
  0
VERTEX
  8
7250LEVEL
 62
13
 10
2092.775
 20
-11806.096
 30
-1977.000
 70
    32
  0
VERTEX
  8
7250LEVEL
 62
13
 10
2143.519
 20
-11897.180
 30
-1977.000
 70
    32
  0
VERTEX
  8
7250LEVEL
 62
13
 10
2201.959
 20
-11991.876
 30
-1977.000
 70
    32
  0
VERTEX
  8
7250LEVEL
 62
13
 10
2275.326
 20
-12090.684
 30
-1977.000
 70
    32
  0
VERTEX
  8
7250LEVEL
 62
13
 10
2248.381
 20
-12030.992
 30
-1977.000
 70
    32
  0
VERTEX
  8
7250LEVEL
 62
13
 10
2186.174
 20
-11926.053
 30
-1977.000
 70
    32
  0
VERTEX
  8
7250LEVEL
 62
13
 10
2123.095
 20
-11817.431
 30
-1977.000
 70
    32
  0
VERTEX
  8
7250LEVEL
 62
13
 10
2060.344
 20
-11714.164
 30
-1977.000
 70
    32
  0
VERTEX
  8
7250LEVEL
 62
13
 10
2005.464
 20
-11601.924
 30
-1977.000
 70
    32
  0
VERTEX
  8
7250LEVEL
 62
13
 10
1970.382
 20
-11509.278
 30
-1977.000
 70
    32
  0
VERTEX
  8
7250LEVEL
 62
13
 10
1936.049
 20
-11403.643
 30
-1977.000
 70
    32
  0
VERTEX
  8
7250LEVEL
 62
13
 10
1908.988
 20
-11292.463
 30
-1977.000
 70
    32
  0
VERTEX
  8
7250LEVEL
 62
13
 10
1941.941
 20
-11335.036
 30
-1977.000
 70
    32
  0
VERTEX
  8
7250LEVEL
 62
13
 10
1983.564
 20
-11455.312
 30
-1977.000
 70
    32
  0
VERTEX
  8
7250LEVEL
 62
13
 10
2022.366
 20
-11575.853
 30
-1977.000
 70
    32
  0
VERTEX
  8
7250LEVEL
 62
13
 10
2071.584
 20
-11680.043
 30
-1977.000
 70
    32
  0
VERTEX
  8
7250LEVEL
 62
13
 10
2132.980
 20
-11795.437
 30
-1977.000
 70
    32
  0
VERTEX
  8
7250LEVEL
 62
13
 10
2199.880
 20
-11912.546
 30
-1977.000
 70
    32
  0
VERTEX
  8
7250LEVEL
 62
13
 10
2251.922
 20
-12004.865
 30
-1977.000
 70
    32
  0
VERTEX
  8
7250LEVEL
 62
13
 10
2288.766
 20
-12074.355
 30
-1977.000
 70
    32
  0
VERTEX
  8
7250LEVEL
 62
13
 10
2320.673
 20
-12125.829
 30
-1977.000
 70
    32
  0
VERTEX
  8
7250LEVEL
 62
13
 10
2292.531
 20
-12045.492
 30
-1977.000
 70
    32
  0
VERTEX
  8
7250LEVEL
 62
13
 10
2252.103
 20
-11957.466
 30
-1977.000
 70
    32
  0
VERTEX
  8
7250LEVEL
 62
13
 10
2196.718
 20
-11864.059
 30
-1977.000
 70
    32
  0
VERTEX
  8
7250LEVEL
 62
13
 10
2144.537
 20
-11773.986
 30
-1977.000
 70
    32
  0
VERTEX
  8
7250LEVEL
 62
13
 10
2086.153
 20
-11665.929
 30
-1977.000
 70
    32
  0
VERTEX
  8
7250LEVEL
 62
13
 10
2032.880
 20
-11551.698
 30
-1977.000
 70
    32
  0
VERTEX
  8
7250LEVEL
 62
13
 10
1992.675
 20
-11421.830
 30
-1977.000
 70
    32
  0
VERTEX
  8
7250LEVEL
 62
13
 10
1951.948
 20
-11290.609
 30
-1977.000
 70
    32
  0
VERTEX
  8
7250LEVEL
 62
13
 10
1912.035
 20
-11188.039
 30
-1977.000
 70
    32
  0
VERTEX
  8
7250LEVEL
 62
13
 10
1870.305
 20
-11071.277
 30
-1977.000
 70
    32
  0
VERTEX
  8
7250LEVEL
 62
13
 10
1835.335
 20
-10951.908
 30
-1977.000
 70
    32
  0
VERTEX
  8
7250LEVEL
 62
13
 10
1795.788
 20
-10832.750
 30
-1977.000
 70
    32
  0
VERTEX
  8
7250LEVEL
 62
13
 10
1767.792
 20
-10715.352
 30
-1977.000
 70
    32
  0
VERTEX
  8
7250LEVEL
 62
13
 10
1771.167
 20
-10666.995
 30
-1977.000
 70
    32
  0
VERTEX
  8
7250LEVEL
 62
13
 10
1803.846
 20
-10741.562
 30
-1977.000
 70
    32
  0
VERTEX
  8
7250LEVEL
 62
13
 10
1840.395
 20
-10846.069
 30
-1977.000
 70
    32
  0
VERTEX
  8
7250LEVEL
 62
13
 10
1878.015
 20
-10966.152
 30
-1977.000
 70
    32
  0
VERTEX
  8
7250LEVEL
 62
13
 10
1917.784
 20
-11094.178
 30
-1977.000
 70
    32
  0
VERTEX
  8
7250LEVEL
 62
13
 10
1960.969
 20
-11230.116
 30
-1977.000
 70
    32
  0
VERTEX
  8
7250LEVEL
 62
13
 10
2009.731
 20
-11374.594
 30
-1977.000
 70
    32
  0
VERTEX
  8
7250LEVEL
 62
13
 10
2052.151
 20
-11503.334
 30
-1977.000
 70
    32
  0
VERTEX
  8
7250LEVEL
 62
13
 10
2087.211
 20
-11599.003
 30
-1977.000
 70
    32
  0
VERTEX
  8
7250LEVEL
 62
13
 10
2141.848
 20
-11705.399
 30
-1977.000
 70
    32
  0
VERTEX
  8
7250LEVEL
 62
13
 10
2194.026
 20
-11807.077
 30
-1977.000
 70
    32
  0
VERTEX
  8
7250LEVEL
 62
13
 10
2247.162
 20
-11911.949
 30
-1977.000
 70
    32
  0
VERTEX
  8
7250LEVEL
 62
13
 10
2302.270
 20
-12009.849
 30
-1977.000
 70
    32
  0
VERTEX
  8
7250LEVEL
 62
13
 10
2352.068
 20
-12090.424
 30
-1977.000
 70
    32
  0
VERTEX
  8
7250LEVEL
 62
13
 10
2319.839
 20
-11998.780
 30
-1977.000
 70
    32
  0
VERTEX
  8
7250LEVEL
 62
13
 10
2270.748
 20
-11899.658
 30
-1977.000
 70
    32
  0
VERTEX
  8
7250LEVEL
 62
13
 10
2220.177
 20
-11795.989
 30
-1977.000
 70
    32
  0
VERTEX
  8
7250LEVEL
 62
13
 10
2167.602
 20
-11709.631
 30
-1977.000
 70
    32
  0
VERTEX
  8
7250LEVEL
 62
13
 10
2113.281
 20
-11615.906
 30
-1977.000
 70
    32
  0
VERTEX
  8
7250LEVEL
 62
13
 10
2071.704
 20
-11528.688
 30
-1977.000
 70
    32
  0
VERTEX
  8
7250LEVEL
 62
13
 10
2040.053
 20
-11425.034
 30
-1977.000
 70
    32
  0
VERTEX
  8
7250LEVEL
 62
13
 10
2017.782
 20
-11318.220
 30
-1977.000
 70
    32
  0
VERTEX
  8
7250LEVEL
 62
13
 10
2039.537
 20
-11349.761
 30
-1977.000
 70
    32
  0
VERTEX
  8
7250LEVEL
 62
13
 10
2071.064
 20
-11436.742
 30
-1977.000
 70
    32
  0
VERTEX
  8
7250LEVEL
 62
13
 10
2094.809
 20
-11520.602
 30
-1977.000
 70
    32
  0
VERTEX
  8
7250LEVEL
 62
13
 10
2130.052
 20
-11607.978
 30
-1977.000
 70
    32
  0
VERTEX
  8
7250LEVEL
 62
13
 10
2182.372
 20
-11695.804
 30
-1977.000
 70
    32
  0
VERTEX
  8
7250LEVEL
 62
13
 10
2233.033
 20
-11775.773
 30
-1977.000
 70
    32
  0
VERTEX
  8
7250LEVEL
 62
13
 10
2285.765
 20
-11829.360
 30
-1977.000
 70
    32
  0
VERTEX
  8
7250LEVEL
 62
13
 10
2254.372
 20
-11763.343
 30
-1977.000
 70
    32
  0
VERTEX
  8
7250LEVEL
 62
13
 10
2195.688
 20
-11662.802
 30
-1977.000
 70
    32
  0
VERTEX
  8
7250LEVEL
 62
13
 10
2140.839
 20
-11551.829
 30
-1977.000
 70
    32
  0
VERTEX
  8
7250LEVEL
 62
13
 10
2103.596
 20
-11458.554
 30
-1977.000
 70
    32
  0
VERTEX
  8
7250LEVEL
 62
13
 10
2078.943
 20
-11342.243
 30
-1977.000
 70
    32
  0
VERTEX
  8
7250LEVEL
 62
13
 10
2052.326
 20
-11198.089
 30
-1977.000
 70
    32
  0
VERTEX
  8
7250LEVEL
 62
13
 10
2025.572
 20
-11095.288
 30
-1977.000
 70
    32
  0
VERTEX
  8
7250LEVEL
 62
13
 10
1991.548
 20
-10986.428
 30
-1977.000
 70
    32
  0
VERTEX
  8
7250LEVEL
 62
13
 10
1958.158
 20
-10852.196
 30
-1977.000
 70
    32
  0
VERTEX
  8
7250LEVEL
 62
13
 10
1924.131
 20
-10754.940
 30
-1977.000
 70
    32
  0
VERTEX
  8
7250LEVEL
 62
13
 10
1888.341
 20
-10641.735
 30
-1977.000
 70
    32
  0
VERTEX
  8
7250LEVEL
 62
13
 10
1853.856
 20
-10545.661
 30
-1977.000
 70
    32
  0
VERTEX
  8
7250LEVEL
 62
13
 10
1816.964
 20
-10454.718
 30
-1977.000
 70
    32
  0
VERTEX
  8
7250LEVEL
 62
13
 10
1779.285
 20
-10359.602
 30
-1977.000
 70
    32
  0
VERTEX
  8
7250LEVEL
 62
13
 10
1746.254
 20
-10282.703
 30
-1977.000
 70
    32
  0
VERTEX
  8
7250LEVEL
 62
13
 10
1748.243
 20
-10245.205
 30
-1977.000
 70
    32
  0
VERTEX
  8
7250LEVEL
 62
13
 10
1785.323
 20
-10304.644
 30
-1977.000
 70
    32
  0
VERTEX
  8
7250LEVEL
 62
13
 10
1823.877
 20
-10391.839
 30
-1977.000
 70
    32
  0
VERTEX
  8
7250LEVEL
 62
13
 10
1857.151
 20
-10474.583
 30
-1977.000
 70
    32
  0
VERTEX
  8
7250LEVEL
 62
13
 10
1890.793
 20
-10579.845
 30
-1977.000
 70
    32
  0
VERTEX
  8
7250LEVEL
 62
13
 10
1935.199
 20
-10682.693
 30
-1977.000
 70
    32
  0
VERTEX
  8
7250LEVEL
 62
13
 10
1973.426
 20
-10803.639
 30
-1977.000
 70
    32
  0
VERTEX
  8
7250LEVEL
 62
13
 10
2001.422
 20
-10921.037
 30
-1977.000
 70
    32
  0
VERTEX
  8
7250LEVEL
 62
13
 10
2037.990
 20
-11034.125
 30
-1977.000
 70
    32
  0
VERTEX
  8
7250LEVEL
 62
13
 10
2074.621
 20
-11149.747
 30
-1977.000
 70
    32
  0
VERTEX
  8
7250LEVEL
 62
13
 10
2115.752
 20
-11281.543
 30
-1977.000
 70
    32
  0
VERTEX
  8
7250LEVEL
 62
13
 10
2163.739
 20
-11414.532
 30
-1977.000
 70
    32
  0
VERTEX
  8
7250LEVEL
 62
13
 10
2215.410
 20
-11546.650
 30
-1977.000
 70
    32
  0
VERTEX
  8
7250LEVEL
 62
13
 10
2276.175
 20
-11675.809
 30
-1977.000
 70
    32
  0
VERTEX
  8
7250LEVEL
 62
13
 10
2351.643
 20
-11800.213
 30
-1977.000
 70
    32
  0
VERTEX
  8
7250LEVEL
 62
13
 10
2436.878
 20
-11913.451
 30
-1977.000
 70
    32
  0
VERTEX
  8
7250LEVEL
 62
13
 10
2531.054
 20
-12033.291
 30
-1977.000
 70
    32
  0
VERTEX
  8
7250LEVEL
 62
13
 10
2587.579
 20
-12121.598
 30
-1977.000
 70
    32
  0
VERTEX
  8
7250LEVEL
 62
13
 10
2646.430
 20
-12193.658
 30
-1977.000
 70
    32
  0
VERTEX
  8
7250LEVEL
 62
13
 10
2661.023
 20
-12254.732
 30
-1977.000
 70
    32
  0
VERTEX
  8
7250LEVEL
 62
13
 10
2678.090
 20
-12352.313
 30
-1977.000
 70
    32
  0
VERTEX
  8
7250LEVEL
 62
13
 10
2680.954
 20
-12447.422
 30
-1977.000
 70
    32
  0
VERTEX
  8
7250LEVEL
 62
13
 10
2676.515
 20
-12535.204
 30
-1977.000
 70
    32
  0
VERTEX
  8
7250LEVEL
 62
13
 10
2683.295
 20
-12642.600
 30
-1977.000
 70
    32
  0
VERTEX
  8
7250LEVEL
 62
13
 10
2695.776
 20
-12724.498
 30
-1977.000
 70
    32
  0
VERTEX
  8
7250LEVEL
 62
13
 10
2762.135
 20
-12831.674
 30
-1977.000
 70
    32
  0
VERTEX
  8
7250LEVEL
 62
13
 10
2821.757
 20
-12926.827
 30
-1977.000
 70
    32
  0
VERTEX
  8
7250LEVEL
 62
13
 10
2879.442
 20
-13018.616
 30
-1977.000
 70
    32
  0
VERTEX
  8
7250LEVEL
 62
13
 10
2936.647
 20
-13114.609
 30
-1977.000
 70
    32
  0
VERTEX
  8
7250LEVEL
 62
13
 10
2975.744
 20
-13200.134
 30
-1977.000
 70
    32
  0
VERTEX
  8
7250LEVEL
 62
13
 10
3002.472
 20
-13227.747
 30
-1977.000
 70
    32
  0
VERTEX
  8
7250LEVEL
 62
13
 10
2983.300
 20
-13166.885
 30
-1977.000
 70
    32
  0
VERTEX
  8
7250LEVEL
 62
13
 10
2944.444
 20
-13098.811
 30
-1977.000
 70
    32
  0
VERTEX
  8
7250LEVEL
 62
13
 10
2888.696
 20
-13010.388
 30
-1977.000
 70
    32
  0
VERTEX
  8
7250LEVEL
 62
13
 10
2831.064
 20
-12916.842
 30
-1977.000
 70
    32
  0
VERTEX
  8
7250LEVEL
 62
13
 10
2771.825
 20
-12825.288
 30
-1977.000
 70
    32
  0
VERTEX
  8
7250LEVEL
 62
13
 10
2727.820
 20
-12734.620
 30
-1977.000
 70
    32
  0
VERTEX
  8
7250LEVEL
 62
13
 10
2694.773
 20
-12637.535
 30
-1977.000
 70
    32
  0
VERTEX
  8
7250LEVEL
 62
13
 10
2693.179
 20
-12530.790
 30
-1977.000
 70
    32
  0
VERTEX
  8
7250LEVEL
 62
13
 10
2690.824
 20
-12444.347
 30
-1977.000
 70
    32
  0
VERTEX
  8
7250LEVEL
 62
13
 10
2691.458
 20
-12368.265
 30
-1977.000
 70
    32
  0
VERTEX
  8
7250LEVEL
 62
13
 10
2703.049
 20
-12336.477
 30
-1977.000
 70
    32
  0
VERTEX
  8
7250LEVEL
 62
13
 10
2712.078
 20
-12381.696
 30
-1977.000
 70
    32
  0
VERTEX
  8
7250LEVEL
 62
13
 10
2718.522
 20
-12467.841
 30
-1977.000
 70
    32
  0
VERTEX
  8
7250LEVEL
 62
13
 10
2719.909
 20
-12546.798
 30
-1977.000
 70
    32
  0
VERTEX
  8
7250LEVEL
 62
13
 10
2723.215
 20
-12620.538
 30
-1977.000
 70
    32
  0
VERTEX
  8
7250LEVEL
 62
13
 10
2740.132
 20
-12716.076
 30
-1977.000
 70
    32
  0
VERTEX
  8
7250LEVEL
 62
13
 10
2774.308
 20
-12764.665
 30
-1977.000
 70
    32
  0
VERTEX
  8
7250LEVEL
 62
13
 10
2848.715
 20
-12877.783
 30
-1977.000
 70
    32
  0
VERTEX
  8
7250LEVEL
 62
13
 10
2894.020
 20
-12958.081
 30
-1977.000
 70
    32
  0
VERTEX
  8
7250LEVEL
 62
13
 10
2936.904
 20
-13011.719
 30
-1977.000
 70
    32
  0
VERTEX
  8
7250LEVEL
 62
13
 10
2912.462
 20
-12950.696
 30
-1977.000
 70
    32
  0
VERTEX
  8
7250LEVEL
 62
13
 10
2864.111
 20
-12873.400
 30
-1977.000
 70
    32
  0
VERTEX
  8
7250LEVEL
 62
13
 10
2820.591
 20
-12806.028
 30
-1977.000
 70
    32
  0
VERTEX
  8
7250LEVEL
 62
13
 10
2781.650
 20
-12738.444
 30
-1977.000
 70
    32
  0
VERTEX
  8
7250LEVEL
 62
13
 10
2747.744
 20
-12669.466
 30
-1977.000
 70
    32
  0
VERTEX
  8
7250LEVEL
 62
13
 10
2732.322
 20
-12598.661
 30
-1977.000
 70
    32
  0
VERTEX
  8
7250LEVEL
 62
13
 10
2753.405
 20
-12638.411
 30
-1977.000
 70
    32
  0
VERTEX
  8
7250LEVEL
 62
13
 10
2793.438
 20
-12730.153
 30
-1977.000
 70
    32
  0
VERTEX
  8
7250LEVEL
 62
13
 10
2852.029
 20
-12815.287
 30
-1977.000
 70
    32
  0
VERTEX
  8
7250LEVEL
 62
13
 10
2795.134
 20
-12716.067
 30
-1977.000
 70
    32
  0
VERTEX
  8
7250LEVEL
 62
13
 10
2760.631
 20
-12650.518
 30
-1977.000
 70
    32
  0
VERTEX
  8
7250LEVEL
 62
13
 10
2737.761
 20
-12558.737
 30
-1977.000
 70
    32
  0
VERTEX
  8
7250LEVEL
 62
13
 10
2757.109
 20
-12595.409
 30
-1977.000
 70
    32
  0
VERTEX
  8
7250LEVEL
 62
13
 10
2780.408
 20
-12673.136
 30
-1977.000
 70
    32
  0
VERTEX
  8
7250LEVEL
 62
13
 10
2831.123
 20
-12751.348
 30
-1977.000
 70
    32
  0
VERTEX
  8
7250LEVEL
 62
13
 10
2876.333
 20
-12827.845
 30
-1977.000
 70
    32
  0
VERTEX
  8
7250LEVEL
 62
13
 10
2847.164
 20
-12764.990
 30
-1977.000
 70
    32
  0
VERTEX
  8
7250LEVEL
 62
13
 10
2799.815
 20
-12684.841
 30
-1977.000
 70
    32
  0
VERTEX
  8
7250LEVEL
 62
13
 10
2755.414
 20
-12558.783
 30
-1977.000
 70
    32
  0
VERTEX
  8
7250LEVEL
 62
13
 10
2787.292
 20
-12648.096
 30
-1977.000
 70
    32
  0
VERTEX
  8
7250LEVEL
 62
13
 10
2829.810
 20
-12718.321
 30
-1977.000
 70
    32
  0
VERTEX
  8
7250LEVEL
 62
13
 10
2887.502
 20
-12826.006
 30
-1977.000
 70
    32
  0
VERTEX
  8
7250LEVEL
 62
13
 10
2923.381
 20
-12876.405
 30
-1977.000
 70
    32
  0
VERTEX
  8
7250LEVEL
 62
13
 10
2891.116
 20
-12806.704
 30
-1977.000
 70
    32
  0
VERTEX
  8
7250LEVEL
 62
13
 10
2839.914
 20
-12716.801
 30
-1977.000
 70
    32
  0
VERTEX
  8
7250LEVEL
 62
13
 10
2810.073
 20
-12662.155
 30
-1977.000
 70
    32
  0
VERTEX
  8
7250LEVEL
 62
13
 10
2775.295
 20
-12589.493
 30
-1977.000
 70
    32
  0
VERTEX
  8
7250LEVEL
 62
13
 10
2757.278
 20
-12504.613
 30
-1977.000
 70
    32
  0
VERTEX
  8
7250LEVEL
 62
13
 10
2752.238
 20
-12427.795
 30
-1977.000
 70
    32
  0
VERTEX
  8
7250LEVEL
 62
13
 10
2746.263
 20
-12344.759
 30
-1977.000
 70
    32
  0
VERTEX
  8
7250LEVEL
 62
13
 10
2718.692
 20
-12275.623
 30
-1977.000
 70
    32
  0
VERTEX
  8
7250LEVEL
 62
13
 10
2683.567
 20
-12189.024
 30
-1977.000
 70
    32
  0
VERTEX
  8
7250LEVEL
 62
13
 10
2714.907
 20
-12206.088
 30
-1977.000
 70
    32
  0
VERTEX
  8
7250LEVEL
 62
13
 10
2749.877
 20
-12274.746
 30
-1977.000
 70
    32
  0
VERTEX
  8
7250LEVEL
 62
13
 10
2785.194
 20
-12318.236
 30
-1977.000
 70
    32
  0
VERTEX
  8
7250LEVEL
 62
13
 10
2754.261
 20
-12239.432
 30
-1977.000
 70
    32
  0
VERTEX
  8
7250LEVEL
 62
13
 10
2721.350
 20
-12151.705
 30
-1977.000
 70
    32
  0
VERTEX
  8
7250LEVEL
 62
13
 10
2704.264
 20
-12096.253
 30
-1977.000
 70
    32
  0
VERTEX
  8
7250LEVEL
 62
13
 10
2678.596
 20
-12040.820
 30
-1977.000
 70
    32
  0
VERTEX
  8
7250LEVEL
 62
13
 10
2659.770
 20
-12005.500
 30
-1977.000
 70
    32
  0
VERTEX
  8
7250LEVEL
 62
13
 10
2693.834
 20
-12030.102
 30
-1977.000
 70
    32
  0
VERTEX
  8
7250LEVEL
 62
13
 10
2726.857
 20
-12091.105
 30
-1977.000
 70
    32
  0
VERTEX
  8
7250LEVEL
 62
13
 10
2743.473
 20
-12155.053
 30
-1977.000
 70
    32
  0
VERTEX
  8
7250LEVEL
 62
13
 10
2747.475
 20
-12116.140
 30
-1977.000
 70
    32
  0
VERTEX
  8
7250LEVEL
 62
13
 10
2724.258
 20
-12049.528
 30
-1977.000
 70
    32
  0
VERTEX
  8
7250LEVEL
 62
13
 10
2681.779
 20
-11996.466
 30
-1977.000
 70
    32
  0
VERTEX
  8
7250LEVEL
 62
13
 10
2627.400
 20
-11927.707
 30
-1977.000
 70
    32
  0
VERTEX
  8
7250LEVEL
 62
13
 10
2616.276
 20
-11962.605
 30
-1977.000
 70
    32
  0
VERTEX
  8
7250LEVEL
 62
13
 10
2581.410
 20
-11952.748
 30
-1977.000
 70
    32
  0
VERTEX
  8
7250LEVEL
 62
13
 10
2543.935
 20
-11947.736
 30
-1977.000
 70
    32
  0
VERTEX
  8
7250LEVEL
 62
13
 10
2501.699
 20
-11900.519
 30
-1977.000
 70
    32
  0
VERTEX
  8
7250LEVEL
 62
13
 10
2437.503
 20
-11833.078
 30
-1977.000
 70
    32
  0
VERTEX
  8
7250LEVEL
 62
13
 10
2383.104
 20
-11755.738
 30
-1977.000
 70
    32
  0
VERTEX
  8
7250LEVEL
 62
13
 10
2326.952
 20
-11666.739
 30
-1977.000
 70
    32
  0
VERTEX
  8
7250LEVEL
 62
13
 10
2285.245
 20
-11586.059
 30
-1977.000
 70
    32
  0
VERTEX
  8
7250LEVEL
 62
13
 10
2248.523
 20
-11494.136
 30
-1977.000
 70
    32
  0
VERTEX
  8
7250LEVEL
 62
13
 10
2210.822
 20
-11402.044
 30
-1977.000
 70
    32
  0
VERTEX
  8
7250LEVEL
 62
13
 10
2175.156
 20
-11305.512
 30
-1977.000
 70
    32
  0
VERTEX
  8
7250LEVEL
 62
13
 10
2136.402
 20
-11206.423
 30
-1977.000
 70
    32
  0
VERTEX
  8
7250LEVEL
 62
13
 10
2098.852
 20
-11104.770
 30
-1977.000
 70
    32
  0
VERTEX
  8
7250LEVEL
 62
13
 10
2107.931
 20
-11070.021
 30
-1977.000
 70
    32
  0
VERTEX
  8
7250LEVEL
 62
13
 10
2136.537
 20
-11125.965
 30
-1977.000
 70
    32
  0
VERTEX
  8
7250LEVEL
 62
13
 10
2183.085
 20
-11220.860
 30
-1977.000
 70
    32
  0
VERTEX
  8
7250LEVEL
 62
13
 10
2212.268
 20
-11315.507
 30
-1977.000
 70
    32
  0
VERTEX
  8
7250LEVEL
 62
13
 10
2245.347
 20
-11413.859
 30
-1977.000
 70
    32
  0
VERTEX
  8
7250LEVEL
 62
13
 10
2276.855
 20
-11492.258
 30
-1977.000
 70
    32
  0
VERTEX
  8
7250LEVEL
 62
13
 10
2317.982
 20
-11545.842
 30
-1977.000
 70
    32
  0
VERTEX
  8
7250LEVEL
 62
13
 10
2363.556
 20
-11566.646
 30
-1977.000
 70
    32
  0
VERTEX
  8
7250LEVEL
 62
13
 10
2409.182
 20
-11597.298
 30
-1977.000
 70
    32
  0
VERTEX
  8
7250LEVEL
 62
13
 10
2396.537
 20
-11532.275
 30
-1977.000
 70
    32
  0
VERTEX
  8
7250LEVEL
 62
13
 10
2355.121
 20
-11439.787
 30
-1977.000
 70
    32
  0
VERTEX
  8
7250LEVEL
 62
13
 10
2302.918
 20
-11302.027
 30
-1977.000
 70
    32
  0
VERTEX
  8
7250LEVEL
 62
13
 10
2264.745
 20
-11179.324
 30
-1977.000
 70
    32
  0
VERTEX
  8
7250LEVEL
 62
13
 10
2231.823
 20
-11048.201
 30
-1977.000
 70
    32
  0
VERTEX
  8
7250LEVEL
 62
13
 10
2191.015
 20
-10944.971
 30
-1977.000
 70
    32
  0
VERTEX
  8
7250LEVEL
 62
13
 10
2172.933
 20
-10869.162
 30
-1977.000
 70
    32
  0
VERTEX
  8
7250LEVEL
 62
13
 10
2220.205
 20
-10914.986
 30
-1977.000
 70
    32
  0
VERTEX
  8
7250LEVEL
 62
13
 10
2273.458
 20
-11020.635
 30
-1977.000
 70
    32
  0
VERTEX
  8
7250LEVEL
 62
13
 10
2323.363
 20
-11148.408
 30
-1977.000
 70
    32
  0
VERTEX
  8
7250LEVEL
 62
13
 10
2327.117
 20
-11165.966
 30
-1977.000
 70
    32
  0
VERTEX
  8
7250LEVEL
 62
13
 10
2361.889
 20
-11261.838
 30
-1977.000
 70
    32
  0
VERTEX
  8
7250LEVEL
 62
13
 10
2403.284
 20
-11357.349
 30
-1977.000
 70
    32
  0
VERTEX
  8
7250LEVEL
 62
13
 10
2464.722
 20
-11427.589
 30
-1977.000
 70
    32
  0
VERTEX
  8
7250LEVEL
 62
13
 10
2534.731
 20
-11493.519
 30
-1977.000
 70
    32
  0
VERTEX
  8
7250LEVEL
 62
13
 10
2603.783
 20
-11556.255
 30
-1977.000
 70
    32
  0
VERTEX
  8
7250LEVEL
 62
13
 10
2594.445
 20
-11514.262
 30
-1977.000
 70
    32
  0
VERTEX
  8
7250LEVEL
 62
13
 10
2535.899
 20
-11411.475
 30
-1977.000
 70
    32
  0
VERTEX
  8
7250LEVEL
 62
13
 10
2477.415
 20
-11322.827
 30
-1977.000
 70
    32
  0
VERTEX
  8
7250LEVEL
 62
13
 10
2420.782
 20
-11238.034
 30
-1977.000
 70
    32
  0
VERTEX
  8
7250LEVEL
 62
13
 10
2386.117
 20
-11138.649
 30
-1977.000
 70
    32
  0
VERTEX
  8
7250LEVEL
 62
13
 10
2360.867
 20
-11025.765
 30
-1977.000
 70
    32
  0
VERTEX
  8
7250LEVEL
 62
13
 10
2317.499
 20
-10898.121
 30
-1977.000
 70
    32
  0
VERTEX
  8
7250LEVEL
 62
13
 10
2303.678
 20
-10809.430
 30
-1977.000
 70
    32
  0
VERTEX
  8
7250LEVEL
 62
13
 10
2303.960
 20
-10691.911
 30
-1977.000
 70
    32
  0
VERTEX
  8
7250LEVEL
 62
13
 10
2286.590
 20
-10574.345
 30
-1977.000
 70
    32
  0
VERTEX
  8
7250LEVEL
 62
13
 10
2270.603
 20
-10457.524
 30
-1977.000
 70
    32
  0
VERTEX
  8
7250LEVEL
 62
13
 10
2241.732
 20
-10348.047
 30
-1977.000
 70
    32
  0
VERTEX
  8
7250LEVEL
 62
13
 10
2188.950
 20
-10233.901
 30
-1977.000
 70
    32
  0
VERTEX
  8
7250LEVEL
 62
13
 10
2137.750
 20
-10132.394
 30
-1977.000
 70
    32
  0
VERTEX
  8
7250LEVEL
 62
13
 10
2089.806
 20
-10044.067
 30
-1977.000
 70
    32
  0
VERTEX
  8
7250LEVEL
 62
13
 10
2035.530
 20
-9944.295
 30
-1977.000
 70
    32
  0
SEQEND
  8
7250LEVEL
  0
POLYLINE
  8
7250LEVEL
 62
13
 66
     1
 70
     8
  0
VERTEX
  8
7250LEVEL
 62
13
 10
2353.312
 20
-9962.295
 30
-1977.000
 70
    32
  0
VERTEX
  8
7250LEVEL
 62
13
 10
2382.557
 20
-10020.369
 30
-1977.000
 70
    32
  0
VERTEX
  8
7250LEVEL
 62
13
 10
2399.574
 20
-10096.498
 30
-1977.000
 70
    32
  0
VERTEX
  8
7250LEVEL
 62
13
 10
2433.601
 20
-10193.754
 30
-1977.000
 70
    32
  0
VERTEX
  8
7250LEVEL
 62
13
 10
2455.830
 20
-10295.010
 30
-1977.000
 70
    32
  0
VERTEX
  8
7250LEVEL
 62
13
 10
2467.463
 20
-10409.306
 30
-1977.000
 70
    32
  0
VERTEX
  8
7250LEVEL
 62
13
 10
2487.691
 20
-10555.375
 30
-1977.000
 70
    32
  0
VERTEX
  8
7250LEVEL
 62
13
 10
2503.975
 20
-10676.284
 30
-1977.000
 70
    32
  0
VERTEX
  8
7250LEVEL
 62
13
 10
2527.198
 20
-10809.502
 30
-1977.000
 70
    32
  0
VERTEX
  8
7250LEVEL
 62
13
 10
2550.384
 20
-10913.952
 30
-1977.000
 70
    32
  0
VERTEX
  8
7250LEVEL
 62
13
 10
2568.769
 20
-11021.351
 30
-1977.000
 70
    32
  0
VERTEX
  8
7250LEVEL
 62
13
 10
2606.594
 20
-11130.117
 30
-1977.000
 70
    32
  0
VERTEX
  8
7250LEVEL
 62
13
 10
2648.424
 20
-11227.470
 30
-1977.000
 70
    32
  0
VERTEX
  8
7250LEVEL
 62
13
 10
2689.525
 20
-11307.288
 30
-1977.000
 70
    32
  0
VERTEX
  8
7250LEVEL
 62
13
 10
2726.074
 20
-11361.084
 30
-1977.000
 70
    32
  0
VERTEX
  8
7250LEVEL
 62
13
 10
2714.911
 20
-11289.002
 30
-1977.000
 70
    32
  0
VERTEX
  8
7250LEVEL
 62
13
 10
2703.998
 20
-11238.662
 30
-1977.000
 70
    32
  0
VERTEX
  8
7250LEVEL
 62
13
 10
2682.002
 20
-11189.671
 30
-1977.000
 70
    32
  0
VERTEX
  8
7250LEVEL
 62
13
 10
2662.129
 20
-11124.146
 30
-1977.000
 70
    32
  0
VERTEX
  8
7250LEVEL
 62
13
 10
2646.276
 20
-11028.289
 30
-1977.000
 70
    32
  0
VERTEX
  8
7250LEVEL
 62
13
 10
2671.929
 20
-11051.930
 30
-1977.000
 70
    32
  0
VERTEX
  8
7250LEVEL
 62
13
 10
2668.392
 20
-11015.741
 30
-1977.000
 70
    32
  0
VERTEX
  8
7250LEVEL
 62
13
 10
2644.623
 20
-10946.510
 30
-1977.000
 70
    32
  0
VERTEX
  8
7250LEVEL
 62
13
 10
2623.494
 20
-10873.702
 30
-1977.000
 70
    32
  0
VERTEX
  8
7250LEVEL
 62
13
 10
2604.837
 20
-10798.297
 30
-1977.000
 70
    32
  0
VERTEX
  8
7250LEVEL
 62
13
 10
2592.110
 20
-10722.159
 30
-1977.000
 70
    32
  0
VERTEX
  8
7250LEVEL
 62
13
 10
2592.810
 20
-10637.006
 30
-1977.000
 70
    32
  0
VERTEX
  8
7250LEVEL
 62
13
 10
2576.521
 20
-10539.307
 30
-1977.000
 70
    32
  0
VERTEX
  8
7250LEVEL
 62
13
 10
2566.418
 20
-10439.406
 30
-1977.000
 70
    32
  0
VERTEX
  8
7250LEVEL
 62
13
 10
2556.759
 20
-10357.242
 30
-1977.000
 70
    32
  0
VERTEX
  8
7250LEVEL
 62
13
 10
2548.970
 20
-10287.514
 30
-1977.000
 70
    32
  0
SEQEND
  8
7250LEVEL
  0
POLYLINE
  8
7250LEVEL
 62
7
 66
     1
 70
     8
  0
VERTEX
  8
7250LEVEL
 62
7
 10
1852.185
 20
-12063.418
 30
-1977.000
 70
    32
  0
VERTEX
  8
7250LEVEL
 62
7
 10
1872.841
 20
-12105.616
 30
-1977.000
 70
    32
  0
VERTEX
  8
7250LEVEL
 62
7
 10
1888.192
 20
-12157.991
 30
-1977.000
 70
    32
  0
VERTEX
  8
7250LEVEL
 62
7
 10
1911.245
 20
-12241.478
 30
-1977.000
 70
    32
  0
VERTEX
  8
7250LEVEL
 62
7
 10
1940.046
 20
-12332.526
 30
-1977.000
 70
    32
  0
VERTEX
  8
7250LEVEL
 62
7
 10
1968.205
 20
-12433.049
 30
-1977.000
 70
    32
  0
VERTEX
  8
7250LEVEL
 62
7
 10
1990.863
 20
-12520.251
 30
-1977.000
 70
    32
  0
VERTEX
  8
7250LEVEL
 62
7
 10
2010.303
 20
-12623.040
 30
-1977.000
 70
    32
  0
VERTEX
  8
7250LEVEL
 62
7
 10
2033.967
 20
-12734.890
 30
-1977.000
 70
    32
  0
VERTEX
  8
7250LEVEL
 62
7
 10
2048.049
 20
-12798.902
 30
-1977.000
 70
    32
  0
VERTEX
  8
7250LEVEL
 62
7
 10
2047.619
 20
-12863.667
 30
-1977.000
 70
    32
  0
VERTEX
  8
7250LEVEL
 62
7
 10
2042.867
 20
-12927.174
 30
-1977.000
 70
    32
  0
VERTEX
  8
7250LEVEL
 62
7
 10
2029.267
 20
-13038.590
 30
-1977.000
 70
    32
  0
VERTEX
  8
7250LEVEL
 62
7
 10
2028.637
 20
-13142.173
 30
-1977.000
 70
    32
  0
VERTEX
  8
7250LEVEL
 62
7
 10
2033.940
 20
-13233.417
 30
-1977.000
 70
    32
  0
VERTEX
  8
7250LEVEL
 62
7
 10
2067.239
 20
-13301.532
 30
-1977.000
 70
    32
  0
VERTEX
  8
7250LEVEL
 62
7
 10
2124.283
 20
-13402.796
 30
-1977.000
 70
    32
  0
VERTEX
  8
7250LEVEL
 62
7
 10
2181.081
 20
-13509.820
 30
-1977.000
 70
    32
  0
VERTEX
  8
7250LEVEL
 62
7
 10
2241.955
 20
-13623.861
 30
-1977.000
 70
    32
  0
VERTEX
  8
7250LEVEL
 62
7
 10
2304.084
 20
-13745.185
 30
-1977.000
 70
    32
  0
VERTEX
  8
7250LEVEL
 62
7
 10
2376.093
 20
-13867.725
 30
-1977.000
 70
    32
  0
VERTEX
  8
7250LEVEL
 62
7
 10
2440.179
 20
-13950.284
 30
-1977.000
 70
    32
  0
VERTEX
  8
7250LEVEL
 62
7
 10
2477.445
 20
-13989.824
 30
-1977.000
 70
    32
  0
VERTEX
  8
7250LEVEL
 62
7
 10
2472.487
 20
-13974.832
 30
-1977.000
 70
    32
  0
VERTEX
  8
7250LEVEL
 62
7
 10
2428.275
 20
-13907.087
 30
-1977.000
 70
    32
  0
VERTEX
  8
7250LEVEL
 62
7
 10
2382.185
 20
-13811.011
 30
-1977.000
 70
    32
  0
VERTEX
  8
7250LEVEL
 62
7
 10
2334.952
 20
-13731.639
 30
-1977.000
 70
    32
  0
VERTEX
  8
7250LEVEL
 62
7
 10
2283.039
 20
-13632.782
 30
-1977.000
 70
    32
  0
VERTEX
  8
7250LEVEL
 62
7
 10
2253.520
 20
-13567.596
 30
-1977.000
 70
    32
  0
VERTEX
  8
7250LEVEL
 62
7
 10
2198.157
 20
-13471.166
 30
-1977.000
 70
    32
  0
VERTEX
  8
7250LEVEL
 62
7
 10
2148.692
 20
-13372.735
 30
-1977.000
 70
    32
  0
VERTEX
  8
7250LEVEL
 62
7
 10
2112.590
 20
-13274.361
 30
-1977.000
 70
    32
  0
VERTEX
  8
7250LEVEL
 62
7
 10
2083.613
 20
-13207.503
 30
-1977.000
 70
    32
  0
VERTEX
  8
7250LEVEL
 62
7
 10
2072.222
 20
-13110.657
 30
-1977.000
 70
    32
  0
VERTEX
  8
7250LEVEL
 62
7
 10
2079.011
 20
-13031.106
 30
-1977.000
 70
    32
  0
VERTEX
  8
7250LEVEL
 62
7
 10
2082.979
 20
-12951.820
 30
-1977.000
 70
    32
  0
VERTEX
  8
7250LEVEL
 62
7
 10
2094.795
 20
-13007.111
 30
-1977.000
 70
    32
  0
VERTEX
  8
7250LEVEL
 62
7
 10
2102.398
 20
-13096.738
 30
-1977.000
 70
    32
  0
VERTEX
  8
7250LEVEL
 62
7
 10
2127.261
 20
-13178.522
 30
-1977.000
 70
    32
  0
VERTEX
  8
7250LEVEL
 62
7
 10
2166.744
 20
-13256.039
 30
-1977.000
 70
    32
  0
VERTEX
  8
7250LEVEL
 62
7
 10
2221.766
 20
-13354.428
 30
-1977.000
 70
    32
  0
VERTEX
  8
7250LEVEL
 62
7
 10
2265.940
 20
-13444.117
 30
-1977.000
 70
    32
  0
VERTEX
  8
7250LEVEL
 62
7
 10
2318.789
 20
-13549.191
 30
-1977.000
 70
    32
  0
VERTEX
  8
7250LEVEL
 62
7
 10
2382.485
 20
-13662.967
 30
-1977.000
 70
    32
  0
VERTEX
  8
7250LEVEL
 62
7
 10
2443.763
 20
-13777.583
 30
-1977.000
 70
    32
  0
VERTEX
  8
7250LEVEL
 62
7
 10
2518.540
 20
-13901.614
 30
-1977.000
 70
    32
  0
VERTEX
  8
7250LEVEL
 62
7
 10
2585.601
 20
-14013.453
 30
-1977.000
 70
    32
  0
VERTEX
  8
7250LEVEL
 62
7
 10
2649.962
 20
-14103.124
 30
-1977.000
 70
    32
  0
VERTEX
  8
7250LEVEL
 62
7
 10
2696.437
 20
-14140.483
 30
-1977.000
 70
    32
  0
VERTEX
  8
7250LEVEL
 62
7
 10
2670.302
 20
-14081.941
 30
-1977.000
 70
    32
  0
VERTEX
  8
7250LEVEL
 62
7
 10
2623.147
 20
-13986.184
 30
-1977.000
 70
    32
  0
VERTEX
  8
7250LEVEL
 62
7
 10
2575.306
 20
-13866.844
 30
-1977.000
 70
    32
  0
VERTEX
  8
7250LEVEL
 62
7
 10
2532.330
 20
-13747.089
 30
-1977.000
 70
    32
  0
VERTEX
  8
7250LEVEL
 62
7
 10
2498.350
 20
-13632.181
 30
-1977.000
 70
    32
  0
VERTEX
  8
7250LEVEL
 62
7
 10
2447.029
 20
-13553.106
 30
-1977.000
 70
    32
  0
VERTEX
  8
7250LEVEL
 62
7
 10
2393.328
 20
-13452.929
 30
-1977.000
 70
    32
  0
VERTEX
  8
7250LEVEL
 62
7
 10
2352.483
 20
-13371.642
 30
-1977.000
 70
    32
  0
VERTEX
  8
7250LEVEL
 62
7
 10
2310.928
 20
-13281.401
 30
-1977.000
 70
    32
  0
VERTEX
  8
7250LEVEL
 62
7
 10
2274.014
 20
-13193.482
 30
-1977.000
 70
    32
  0
VERTEX
  8
7250LEVEL
 62
7
 10
2228.716
 20
-13078.369
 30
-1977.000
 70
    32
  0
VERTEX
  8
7250LEVEL
 62
7
 10
2204.727
 20
-12988.664
 30
-1977.000
 70
    32
  0
VERTEX
  8
7250LEVEL
 62
7
 10
2196.006
 20
-12901.113
 30
-1977.000
 70
    32
  0
VERTEX
  8
7250LEVEL
 62
7
 10
2199.293
 20
-12864.851
 30
-1977.000
 70
    32
  0
VERTEX
  8
7250LEVEL
 62
7
 10
2221.740
 20
-12947.475
 30
-1977.000
 70
    32
  0
VERTEX
  8
7250LEVEL
 62
7
 10
2249.488
 20
-13031.527
 30
-1977.000
 70
    32
  0
VERTEX
  8
7250LEVEL
 62
7
 10
2298.911
 20
-13124.400
 30
-1977.000
 70
    32
  0
VERTEX
  8
7250LEVEL
 62
7
 10
2344.513
 20
-13208.786
 30
-1977.000
 70
    32
  0
VERTEX
  8
7250LEVEL
 62
7
 10
2383.353
 20
-13256.674
 30
-1977.000
 70
    32
  0
VERTEX
  8
7250LEVEL
 62
7
 10
2369.054
 20
-13211.294
 30
-1977.000
 70
    32
  0
VERTEX
  8
7250LEVEL
 62
7
 10
2327.571
 20
-13127.877
 30
-1977.000
 70
    32
  0
VERTEX
  8
7250LEVEL
 62
7
 10
2284.088
 20
-13038.562
 30
-1977.000
 70
    32
  0
VERTEX
  8
7250LEVEL
 62
7
 10
2254.396
 20
-12935.249
 30
-1977.000
 70
    32
  0
VERTEX
  8
7250LEVEL
 62
7
 10
2225.335
 20
-12818.170
 30
-1977.000
 70
    32
  0
VERTEX
  8
7250LEVEL
 62
7
 10
2198.474
 20
-12718.882
 30
-1977.000
 70
    32
  0
VERTEX
  8
7250LEVEL
 62
7
 10
2164.255
 20
-12625.630
 30
-1977.000
 70
    32
  0
VERTEX
  8
7250LEVEL
 62
7
 10
2156.479
 20
-12548.588
 30
-1977.000
 70
    32
  0
VERTEX
  8
7250LEVEL
 62
7
 10
2184.846
 20
-12626.188
 30
-1977.000
 70
    32
  0
VERTEX
  8
7250LEVEL
 62
7
 10
2212.455
 20
-12712.487
 30
-1977.000
 70
    32
  0
VERTEX
  8
7250LEVEL
 62
7
 10
2260.994
 20
-12808.990
 30
-1977.000
 70
    32
  0
VERTEX
  8
7250LEVEL
 62
7
 10
2313.835
 20
-12898.169
 30
-1977.000
 70
    32
  0
VERTEX
  8
7250LEVEL
 62
7
 10
2306.095
 20
-12849.894
 30
-1977.000
 70
    32
  0
VERTEX
  8
7250LEVEL
 62
7
 10
2269.529
 20
-12775.912
 30
-1977.000
 70
    32
  0
VERTEX
  8
7250LEVEL
 62
7
 10
2224.716
 20
-12684.095
 30
-1977.000
 70
    32
  0
VERTEX
  8
7250LEVEL
 62
7
 10
2195.319
 20
-12596.475
 30
-1977.000
 70
    32
  0
VERTEX
  8
7250LEVEL
 62
7
 10
2172.736
 20
-12504.492
 30
-1977.000
 70
    32
  0
VERTEX
  8
7250LEVEL
 62
7
 10
2152.037
 20
-12417.631
 30
-1977.000
 70
    32
  0
VERTEX
  8
7250LEVEL
 62
7
 10
2162.558
 20
-12409.371
 30
-1977.000
 70
    32
  0
VERTEX
  8
7250LEVEL
 62
7
 10
2200.892
 20
-12526.804
 30
-1977.000
 70
    32
  0
VERTEX
  8
7250LEVEL
 62
7
 10
2246.502
 20
-12627.086
 30
-1977.000
 70
    32
  0
VERTEX
  8
7250LEVEL
 62
7
 10
2296.429
 20
-12701.124
 30
-1977.000
 70
    32
  0
VERTEX
  8
7250LEVEL
 62
7
 10
2354.648
 20
-12786.951
 30
-1977.000
 70
    32
  0
VERTEX
  8
7250LEVEL
 62
7
 10
2408.121
 20
-12862.363
 30
-1977.000
 70
    32
  0
VERTEX
  8
7250LEVEL
 62
7
 10
2444.685
 20
-12897.240
 30
-1977.000
 70
    32
  0
VERTEX
  8
7250LEVEL
 62
7
 10
2418.328
 20
-12829.829
 30
-1977.000
 70
    32
  0
VERTEX
  8
7250LEVEL
 62
7
 10
2416.910
 20
-12788.711
 30
-1977.000
 70
    32
  0
VERTEX
  8
7250LEVEL
 62
7
 10
2455.832
 20
-12847.714
 30
-1977.000
 70
    32
  0
VERTEX
  8
7250LEVEL
 62
7
 10
2485.287
 20
-12871.260
 30
-1977.000
 70
    32
  0
VERTEX
  8
7250LEVEL
 62
7
 10
2454.788
 20
-12805.903
 30
-1977.000
 70
    32
  0
VERTEX
  8
7250LEVEL
 62
7
 10
2418.188
 20
-12742.259
 30
-1977.000
 70
    32
  0
VERTEX
  8
7250LEVEL
 62
7
 10
2427.062
 20
-12718.827
 30
-1977.000
 70
    32
  0
VERTEX
  8
7250LEVEL
 62
7
 10
2481.168
 20
-12768.869
 30
-1977.000
 70
    32
  0
VERTEX
  8
7250LEVEL
 62
7
 10
2536.978
 20
-12820.721
 30
-1977.000
 70
    32
  0
VERTEX
  8
7250LEVEL
 62
7
 10
2521.212
 20
-12763.480
 30
-1977.000
 70
    32
  0
VERTEX
  8
7250LEVEL
 62
7
 10
2482.826
 20
-12686.910
 30
-1977.000
 70
    32
  0
VERTEX
  8
7250LEVEL
 62
7
 10
2471.794
 20
-12647.397
 30
-1977.000
 70
    32
  0
VERTEX
  8
7250LEVEL
 62
7
 10
2540.578
 20
-12718.917
 30
-1977.000
 70
    32
  0
VERTEX
  8
7250LEVEL
 62
7
 10
2610.229
 20
-12817.330
 30
-1977.000
 70
    32
  0
VERTEX
  8
7250LEVEL
 62
7
 10
2669.383
 20
-12909.375
 30
-1977.000
 70
    32
  0
VERTEX
  8
7250LEVEL
 62
7
 10
2720.354
 20
-12986.118
 30
-1977.000
 70
    32
  0
VERTEX
  8
7250LEVEL
 62
7
 10
2762.183
 20
-13044.365
 30
-1977.000
 70
    32
  0
VERTEX
  8
7250LEVEL
 62
7
 10
2825.570
 20
-13110.656
 30
-1977.000
 70
    32
  0
VERTEX
  8
7250LEVEL
 62
7
 10
2876.280
 20
-13161.367
 30
-1977.000
 70
    32
  0
VERTEX
  8
7250LEVEL
 62
7
 10
2883.738
 20
-13135.923
 30
-1977.000
 70
    32
  0
VERTEX
  8
7250LEVEL
 62
7
 10
2836.047
 20
-13057.733
 30
-1977.000
 70
    32
  0
VERTEX
  8
7250LEVEL
 62
7
 10
2784.641
 20
-12979.148
 30
-1977.000
 70
    32
  0
VERTEX
  8
7250LEVEL
 62
7
 10
2726.668
 20
-12887.561
 30
-1977.000
 70
    32
  0
VERTEX
  8
7250LEVEL
 62
7
 10
2680.936
 20
-12809.712
 30
-1977.000
 70
    32
  0
VERTEX
  8
7250LEVEL
 62
7
 10
2631.715
 20
-12717.127
 30
-1977.000
 70
    32
  0
VERTEX
  8
7250LEVEL
 62
7
 10
2583.815
 20
-12622.754
 30
-1977.000
 70
    32
  0
VERTEX
  8
7250LEVEL
 62
7
 10
2531.264
 20
-12521.767
 30
-1977.000
 70
    32
  0
VERTEX
  8
7250LEVEL
 62
7
 10
2463.348
 20
-12426.431
 30
-1977.000
 70
    32
  0
VERTEX
  8
7250LEVEL
 62
7
 10
2392.876
 20
-12334.182
 30
-1977.000
 70
    32
  0
VERTEX
  8
7250LEVEL
 62
7
 10
2338.877
 20
-12229.916
 30
-1977.000
 70
    32
  0
VERTEX
  8
7250LEVEL
 62
7
 10
2363.279
 20
-12234.670
 30
-1977.000
 70
    32
  0
VERTEX
  8
7250LEVEL
 62
7
 10
2390.221
 20
-12255.256
 30
-1977.000
 70
    32
  0
VERTEX
  8
7250LEVEL
 62
7
 10
2423.136
 20
-12280.667
 30
-1977.000
 70
    32
  0
VERTEX
  8
7250LEVEL
 62
7
 10
2418.331
 20
-12244.509
 30
-1977.000
 70
    32
  0
VERTEX
  8
7250LEVEL
 62
7
 10
2400.658
 20
-12196.776
 30
-1977.000
 70
    32
  0
VERTEX
  8
7250LEVEL
 62
7
 10
2428.959
 20
-12232.736
 30
-1977.000
 70
    32
  0
VERTEX
  8
7250LEVEL
 62
7
 10
2455.785
 20
-12252.545
 30
-1977.000
 70
    32
  0
VERTEX
  8
7250LEVEL
 62
7
 10
2451.695
 20
-12213.737
 30
-1977.000
 70
    32
  0
VERTEX
  8
7250LEVEL
 62
7
 10
2430.990
 20
-12150.086
 30
-1977.000
 70
    32
  0
VERTEX
  8
7250LEVEL
 62
7
 10
2414.504
 20
-12079.600
 30
-1977.000
 70
    32
  0
VERTEX
  8
7250LEVEL
 62
7
 10
2395.941
 20
-12007.996
 30
-1977.000
 70
    32
  0
VERTEX
  8
7250LEVEL
 62
7
 10
2391.212
 20
-11967.058
 30
-1977.000
 70
    32
  0
VERTEX
  8
7250LEVEL
 62
7
 10
2432.449
 20
-12005.523
 30
-1977.000
 70
    32
  0
VERTEX
  8
7250LEVEL
 62
7
 10
2478.601
 20
-12065.028
 30
-1977.000
 70
    32
  0
VERTEX
  8
7250LEVEL
 62
7
 10
2521.848
 20
-12113.683
 30
-1977.000
 70
    32
  0
VERTEX
  8
7250LEVEL
 62
7
 10
2561.041
 20
-12152.297
 30
-1977.000
 70
    32
  0
VERTEX
  8
7250LEVEL
 62
7
 10
2598.672
 20
-12175.250
 30
-1977.000
 70
    32
  0
VERTEX
  8
7250LEVEL
 62
7
 10
2623.729
 20
-12202.320
 30
-1977.000
 70
    32
  0
VERTEX
  8
7250LEVEL
 62
7
 10
2641.032
 20
-12239.140
 30
-1977.000
 70
    32
  0
VERTEX
  8
7250LEVEL
 62
7
 10
2646.652
 20
-12292.344
 30
-1977.000
 70
    32
  0
VERTEX
  8
7250LEVEL
 62
7
 10
2646.096
 20
-12352.040
 30
-1977.000
 70
    32
  0
VERTEX
  8
7250LEVEL
 62
7
 10
2650.193
 20
-12406.744
 30
-1977.000
 70
    32
  0
VERTEX
  8
7250LEVEL
 62
7
 10
2649.488
 20
-12464.397
 30
-1977.000
 70
    32
  0
VERTEX
  8
7250LEVEL
 62
7
 10
2647.706
 20
-12529.683
 30
-1977.000
 70
    32
  0
VERTEX
  8
7250LEVEL
 62
7
 10
2649.033
 20
-12594.501
 30
-1977.000
 70
    32
  0
VERTEX
  8
7250LEVEL
 62
7
 10
2653.150
 20
-12657.787
 30
-1977.000
 70
    32
  0
VERTEX
  8
7250LEVEL
 62
7
 10
2679.731
 20
-12722.461
 30
-1977.000
 70
    32
  0
VERTEX
  8
7250LEVEL
 62
7
 10
2708.483
 20
-12792.055
 30
-1977.000
 70
    32
  0
VERTEX
  8
7250LEVEL
 62
7
 10
2752.161
 20
-12865.762
 30
-1977.000
 70
    32
  0
VERTEX
  8
7250LEVEL
 62
7
 10
2803.812
 20
-12950.193
 30
-1977.000
 70
    32
  0
VERTEX
  8
7250LEVEL
 62
7
 10
2846.946
 20
-13025.571
 30
-1977.000
 70
    32
  0
VERTEX
  8
7250LEVEL
 62
7
 10
2895.115
 20
-13111.161
 30
-1977.000
 70
    32
  0
VERTEX
  8
7250LEVEL
 62
7
 10
2940.303
 20
-13190.682
 30
-1977.000
 70
    32
  0
VERTEX
  8
7250LEVEL
 62
7
 10
2988.727
 20
-13274.803
 30
-1977.000
 70
    32
  0
VERTEX
  8
7250LEVEL
 62
7
 10
3040.565
 20
-13378.440
 30
-1977.000
 70
    32
  0
VERTEX
  8
7250LEVEL
 62
7
 10
3105.445
 20
-13481.068
 30
-1977.000
 70
    32
  0
VERTEX
  8
7250LEVEL
 62
7
 10
3151.876
 20
-13575.186
 30
-1977.000
 70
    32
  0
VERTEX
  8
7250LEVEL
 62
7
 10
3189.843
 20
-13619.390
 30
-1977.000
 70
    32
  0
VERTEX
  8
7250LEVEL
 62
7
 10
3180.083
 20
-13556.635
 30
-1977.000
 70
    32
  0
VERTEX
  8
7250LEVEL
 62
7
 10
3145.901
 20
-13441.439
 30
-1977.000
 70
    32
  0
VERTEX
  8
7250LEVEL
 62
7
 10
3121.481
 20
-13326.682
 30
-1977.000
 70
    32
  0
VERTEX
  8
7250LEVEL
 62
7
 10
3085.245
 20
-13207.345
 30
-1977.000
 70
    32
  0
VERTEX
  8
7250LEVEL
 62
7
 10
3030.102
 20
-13080.678
 30
-1977.000
 70
    32
  0
VERTEX
  8
7250LEVEL
 62
7
 10
2973.065
 20
-12944.599
 30
-1977.000
 70
    32
  0
VERTEX
  8
7250LEVEL
 62
7
 10
2929.497
 20
-12855.773
 30
-1977.000
 70
    32
  0
VERTEX
  8
7250LEVEL
 62
7
 10
2883.841
 20
-12773.143
 30
-1977.000
 70
    32
  0
VERTEX
  8
7250LEVEL
 62
7
 10
2836.791
 20
-12685.478
 30
-1977.000
 70
    32
  0
VERTEX
  8
7250LEVEL
 62
7
 10
2802.099
 20
-12612.326
 30
-1977.000
 70
    32
  0
VERTEX
  8
7250LEVEL
 62
7
 10
2784.053
 20
-12514.574
 30
-1977.000
 70
    32
  0
VERTEX
  8
7250LEVEL
 62
7
 10
2780.889
 20
-12426.981
 30
-1977.000
 70
    32
  0
VERTEX
  8
7250LEVEL
 62
7
 10
2792.758
 20
-12390.700
 30
-1977.000
 70
    32
  0
VERTEX
  8
7250LEVEL
 62
7
 10
2820.170
 20
-12453.501
 30
-1977.000
 70
    32
  0
VERTEX
  8
7250LEVEL
 62
7
 10
2853.343
 20
-12465.837
 30
-1977.000
 70
    32
  0
VERTEX
  8
7250LEVEL
 62
7
 10
2835.791
 20
-12395.671
 30
-1977.000
 70
    32
  0
VERTEX
  8
7250LEVEL
 62
7
 10
2818.540
 20
-12317.988
 30
-1977.000
 70
    32
  0
VERTEX
  8
7250LEVEL
 62
7
 10
2792.504
 20
-12240.036
 30
-1977.000
 70
    32
  0
VERTEX
  8
7250LEVEL
 62
7
 10
2770.440
 20
-12161.011
 30
-1977.000
 70
    32
  0
VERTEX
  8
7250LEVEL
 62
7
 10
2773.806
 20
-12108.363
 30
-1977.000
 70
    32
  0
VERTEX
  8
7250LEVEL
 62
7
 10
2790.054
 20
-12149.793
 30
-1977.000
 70
    32
  0
VERTEX
  8
7250LEVEL
 62
7
 10
2801.997
 20
-12210.153
 30
-1977.000
 70
    32
  0
VERTEX
  8
7250LEVEL
 62
7
 10
2817.032
 20
-12249.858
 30
-1977.000
 70
    32
  0
VERTEX
  8
7250LEVEL
 62
7
 10
2813.225
 20
-12183.347
 30
-1977.000
 70
    32
  0
VERTEX
  8
7250LEVEL
 62
7
 10
2799.652
 20
-12128.002
 30
-1977.000
 70
    32
  0
VERTEX
  8
7250LEVEL
 62
7
 10
2774.850
 20
-12060.357
 30
-1977.000
 70
    32
  0
VERTEX
  8
7250LEVEL
 62
7
 10
2753.848
 20
-11992.617
 30
-1977.000
 70
    32
  0
VERTEX
  8
7250LEVEL
 62
7
 10
2718.269
 20
-11934.701
 30
-1977.000
 70
    32
  0
VERTEX
  8
7250LEVEL
 62
7
 10
2678.671
 20
-11895.512
 30
-1977.000
 70
    32
  0
VERTEX
  8
7250LEVEL
 62
7
 10
2624.903
 20
-11855.116
 30
-1977.000
 70
    32
  0
VERTEX
  8
7250LEVEL
 62
7
 10
2579.748
 20
-11815.968
 30
-1977.000
 70
    32
  0
VERTEX
  8
7250LEVEL
 62
7
 10
2579.153
 20
-11858.502
 30
-1977.000
 70
    32
  0
VERTEX
  8
7250LEVEL
 62
7
 10
2564.380
 20
-11883.934
 30
-1977.000
 70
    32
  0
VERTEX
  8
7250LEVEL
 62
7
 10
2505.610
 20
-11834.594
 30
-1977.000
 70
    32
  0
VERTEX
  8
7250LEVEL
 62
7
 10
2460.482
 20
-11769.213
 30
-1977.000
 70
    32
  0
VERTEX
  8
7250LEVEL
 62
7
 10
2407.882
 20
-11697.484
 30
-1977.000
 70
    32
  0
VERTEX
  8
7250LEVEL
 62
7
 10
2353.724
 20
-11637.594
 30
-1977.000
 70
    32
  0
VERTEX
  8
7250LEVEL
 62
7
 10
2394.606
 20
-11646.227
 30
-1977.000
 70
    32
  0
VERTEX
  8
7250LEVEL
 62
7
 10
2440.797
 20
-11672.184
 30
-1977.000
 70
    32
  0
VERTEX
  8
7250LEVEL
 62
7
 10
2479.853
 20
-11701.439
 30
-1977.000
 70
    32
  0
VERTEX
  8
7250LEVEL
 62
7
 10
2486.973
 20
-11666.349
 30
-1977.000
 70
    32
  0
VERTEX
  8
7250LEVEL
 62
7
 10
2464.449
 20
-11600.110
 30
-1977.000
 70
    32
  0
VERTEX
  8
7250LEVEL
 62
7
 10
2446.610
 20
-11530.146
 30
-1977.000
 70
    32
  0
VERTEX
  8
7250LEVEL
 62
7
 10
2445.268
 20
-11484.247
 30
-1977.000
 70
    32
  0
VERTEX
  8
7250LEVEL
 62
7
 10
2482.395
 20
-11526.034
 30
-1977.000
 70
    32
  0
VERTEX
  8
7250LEVEL
 62
7
 10
2525.866
 20
-11571.952
 30
-1977.000
 70
    32
  0
VERTEX
  8
7250LEVEL
 62
7
 10
2557.847
 20
-11630.251
 30
-1977.000
 70
    32
  0
VERTEX
  8
7250LEVEL
 62
7
 10
2592.403
 20
-11694.044
 30
-1977.000
 70
    32
  0
VERTEX
  8
7250LEVEL
 62
7
 10
2641.724
 20
-11767.220
 30
-1977.000
 70
    32
  0
VERTEX
  8
7250LEVEL
 62
7
 10
2675.792
 20
-11819.322
 30
-1977.000
 70
    32
  0
VERTEX
  8
7250LEVEL
 62
7
 10
2708.402
 20
-11875.460
 30
-1977.000
 70
    32
  0
VERTEX
  8
7250LEVEL
 62
7
 10
2737.614
 20
-11932.267
 30
-1977.000
 70
    32
  0
VERTEX
  8
7250LEVEL
 62
7
 10
2763.762
 20
-11983.495
 30
-1977.000
 70
    32
  0
VERTEX
  8
7250LEVEL
 62
7
 10
2785.022
 20
-12038.160
 30
-1977.000
 70
    32
  0
VERTEX
  8
7250LEVEL
 62
7
 10
2807.428
 20
-12064.516
 30
-1977.000
 70
    32
  0
VERTEX
  8
7250LEVEL
 62
7
 10
2796.357
 20
-12007.841
 30
-1977.000
 70
    32
  0
VERTEX
  8
7250LEVEL
 62
7
 10
2771.447
 20
-11943.709
 30
-1977.000
 70
    32
  0
VERTEX
  8
7250LEVEL
 62
7
 10
2735.593
 20
-11878.681
 30
-1977.000
 70
    32
  0
VERTEX
  8
7250LEVEL
 62
7
 10
2708.692
 20
-11812.942
 30
-1977.000
 70
    32
  0
VERTEX
  8
7250LEVEL
 62
7
 10
2708.139
 20
-11810.322
 30
-1977.000
 70
    32
  0
VERTEX
  8
7250LEVEL
 62
7
 10
2696.399
 20
-11750.250
 30
-1977.000
 70
    32
  0
VERTEX
  8
7250LEVEL
 62
7
 10
2691.027
 20
-11679.682
 30
-1977.000
 70
    32
  0
VERTEX
  8
7250LEVEL
 62
7
 10
2672.411
 20
-11609.835
 30
-1977.000
 70
    32
  0
VERTEX
  8
7250LEVEL
 62
7
 10
2698.893
 20
-11643.208
 30
-1977.000
 70
    32
  0
VERTEX
  8
7250LEVEL
 62
7
 10
2739.184
 20
-11721.876
 30
-1977.000
 70
    32
  0
VERTEX
  8
7250LEVEL
 62
7
 10
2775.870
 20
-11785.030
 30
-1977.000
 70
    32
  0
VERTEX
  8
7250LEVEL
 62
7
 10
2801.001
 20
-11858.030
 30
-1977.000
 70
    32
  0
VERTEX
  8
7250LEVEL
 62
7
 10
2827.918
 20
-11943.956
 30
-1977.000
 70
    32
  0
VERTEX
  8
7250LEVEL
 62
7
 10
2845.811
 20
-12012.164
 30
-1977.000
 70
    32
  0
VERTEX
  8
7250LEVEL
 62
7
 10
2867.682
 20
-12095.193
 30
-1977.000
 70
    32
  0
VERTEX
  8
7250LEVEL
 62
7
 10
2884.878
 20
-12186.238
 30
-1977.000
 70
    32
  0
VERTEX
  8
7250LEVEL
 62
7
 10
2912.060
 20
-12274.985
 30
-1977.000
 70
    32
  0
VERTEX
  8
7250LEVEL
 62
7
 10
2934.981
 20
-12376.614
 30
-1977.000
 70
    32
  0
VERTEX
  8
7250LEVEL
 62
7
 10
2960.973
 20
-12460.613
 30
-1977.000
 70
    32
  0
VERTEX
  8
7250LEVEL
 62
7
 10
2990.034
 20
-12526.981
 30
-1977.000
 70
    32
  0
VERTEX
  8
7250LEVEL
 62
7
 10
3027.662
 20
-12612.249
 30
-1977.000
 70
    32
  0
VERTEX
  8
7250LEVEL
 62
7
 10
3058.432
 20
-12657.217
 30
-1977.000
 70
    32
  0
VERTEX
  8
7250LEVEL
 62
7
 10
3046.506
 20
-12617.044
 30
-1977.000
 70
    32
  0
VERTEX
  8
7250LEVEL
 62
7
 10
3018.500
 20
-12546.066
 30
-1977.000
 70
    32
  0
VERTEX
  8
7250LEVEL
 62
7
 10
2977.677
 20
-12461.756
 30
-1977.000
 70
    32
  0
VERTEX
  8
7250LEVEL
 62
7
 10
2968.756
 20
-12413.023
 30
-1977.000
 70
    32
  0
VERTEX
  8
7250LEVEL
 62
7
 10
2996.129
 20
-12458.661
 30
-1977.000
 70
    32
  0
VERTEX
  8
7250LEVEL
 62
7
 10
3029.788
 20
-12533.399
 30
-1977.000
 70
    32
  0
VERTEX
  8
7250LEVEL
 62
7
 10
3065.713
 20
-12616.857
 30
-1977.000
 70
    32
  0
VERTEX
  8
7250LEVEL
 62
7
 10
3099.872
 20
-12695.970
 30
-1977.000
 70
    32
  0
VERTEX
  8
7250LEVEL
 62
7
 10
3143.601
 20
-12779.526
 30
-1977.000
 70
    32
  0
VERTEX
  8
7250LEVEL
 62
7
 10
3185.563
 20
-12858.737
 30
-1977.000
 70
    32
  0
VERTEX
  8
7250LEVEL
 62
7
 10
3224.483
 20
-12929.345
 30
-1977.000
 70
    32
  0
VERTEX
  8
7250LEVEL
 62
7
 10
3254.921
 20
-12980.563
 30
-1977.000
 70
    32
  0
VERTEX
  8
7250LEVEL
 62
7
 10
3272.729
 20
-12998.549
 30
-1977.000
 70
    32
  0
VERTEX
  8
7250LEVEL
 62
7
 10
3269.828
 20
-12976.095
 30
-1977.000
 70
    32
  0
VERTEX
  8
7250LEVEL
 62
7
 10
3250.366
 20
-12927.040
 30
-1977.000
 70
    32
  0
VERTEX
  8
7250LEVEL
 62
7
 10
3218.132
 20
-12858.606
 30
-1977.000
 70
    32
  0
VERTEX
  8
7250LEVEL
 62
7
 10
3189.295
 20
-12789.502
 30
-1977.000
 70
    32
  0
VERTEX
  8
7250LEVEL
 62
7
 10
3151.310
 20
-12725.112
 30
-1977.000
 70
    32
  0
VERTEX
  8
7250LEVEL
 62
7
 10
3128.331
 20
-12648.449
 30
-1977.000
 70
    32
  0
VERTEX
  8
7250LEVEL
 62
7
 10
3093.151
 20
-12563.608
 30
-1977.000
 70
    32
  0
VERTEX
  8
7250LEVEL
 62
7
 10
3065.559
 20
-12497.495
 30
-1977.000
 70
    32
  0
VERTEX
  8
7250LEVEL
 62
7
 10
3038.478
 20
-12428.445
 30
-1977.000
 70
    32
  0
VERTEX
  8
7250LEVEL
 62
7
 10
3005.903
 20
-12361.969
 30
-1977.000
 70
    32
  0
VERTEX
  8
7250LEVEL
 62
7
 10
2978.518
 20
-12272.934
 30
-1977.000
 70
    32
  0
VERTEX
  8
7250LEVEL
 62
7
 10
3000.222
 20
-12294.627
 30
-1977.000
 70
    32
  0
VERTEX
  8
7250LEVEL
 62
7
 10
3034.422
 20
-12379.298
 30
-1977.000
 70
    32
  0
VERTEX
  8
7250LEVEL
 62
7
 10
3079.754
 20
-12484.073
 30
-1977.000
 70
    32
  0
VERTEX
  8
7250LEVEL
 62
7
 10
3126.063
 20
-12600.623
 30
-1977.000
 70
    32
  0
VERTEX
  8
7250LEVEL
 62
7
 10
3165.764
 20
-12698.615
 30
-1977.000
 70
    32
  0
VERTEX
  8
7250LEVEL
 62
7
 10
3212.714
 20
-12805.690
 30
-1977.000
 70
    32
  0
VERTEX
  8
7250LEVEL
 62
7
 10
3240.041
 20
-12868.981
 30
-1977.000
 70
    32
  0
VERTEX
  8
7250LEVEL
 62
7
 10
3274.256
 20
-12934.733
 30
-1977.000
 70
    32
  0
VERTEX
  8
7250LEVEL
 62
7
 10
3265.005
 20
-12880.645
 30
-1977.000
 70
    32
  0
VERTEX
  8
7250LEVEL
 62
7
 10
3231.996
 20
-12800.722
 30
-1977.000
 70
    32
  0
VERTEX
  8
7250LEVEL
 62
7
 10
3196.296
 20
-12714.528
 30
-1977.000
 70
    32
  0
VERTEX
  8
7250LEVEL
 62
7
 10
3162.200
 20
-12637.949
 30
-1977.000
 70
    32
  0
VERTEX
  8
7250LEVEL
 62
7
 10
3121.571
 20
-12549.635
 30
-1977.000
 70
    32
  0
VERTEX
  8
7250LEVEL
 62
7
 10
3089.352
 20
-12462.281
 30
-1977.000
 70
    32
  0
VERTEX
  8
7250LEVEL
 62
7
 10
3042.027
 20
-12367.503
 30
-1977.000
 70
    32
  0
VERTEX
  8
7250LEVEL
 62
7
 10
3002.708
 20
-12273.110
 30
-1977.000
 70
    32
  0
VERTEX
  8
7250LEVEL
 62
7
 10
2962.270
 20
-12180.793
 30
-1977.000
 70
    32
  0
VERTEX
  8
7250LEVEL
 62
7
 10
2919.431
 20
-12070.397
 30
-1977.000
 70
    32
  0
VERTEX
  8
7250LEVEL
 62
7
 10
2889.573
 20
-11995.565
 30
-1977.000
 70
    32
  0
VERTEX
  8
7250LEVEL
 62
7
 10
2834.386
 20
-11874.945
 30
-1977.000
 70
    32
  0
VERTEX
  8
7250LEVEL
 62
7
 10
2795.452
 20
-11772.546
 30
-1977.000
 70
    32
  0
VERTEX
  8
7250LEVEL
 62
7
 10
2757.495
 20
-11681.922
 30
-1977.000
 70
    32
  0
VERTEX
  8
7250LEVEL
 62
7
 10
2725.498
 20
-11603.437
 30
-1977.000
 70
    32
  0
VERTEX
  8
7250LEVEL
 62
7
 10
2680.499
 20
-11531.519
 30
-1977.000
 70
    32
  0
VERTEX
  8
7250LEVEL
 62
7
 10
2641.969
 20
-11480.405
 30
-1977.000
 70
    32
  0
VERTEX
  8
7250LEVEL
 62
7
 10
2596.690
 20
-11424.584
 30
-1977.000
 70
    32
  0
VERTEX
  8
7250LEVEL
 62
7
 10
2536.519
 20
-11354.312
 30
-1977.000
 70
    32
  0
VERTEX
  8
7250LEVEL
 62
7
 10
2477.935
 20
-11285.074
 30
-1977.000
 70
    32
  0
VERTEX
  8
7250LEVEL
 62
7
 10
2445.069
 20
-11230.406
 30
-1977.000
 70
    32
  0
VERTEX
  8
7250LEVEL
 62
7
 10
2413.352
 20
-11135.823
 30
-1977.000
 70
    32
  0
VERTEX
  8
7250LEVEL
 62
7
 10
2395.341
 20
-11027.732
 30
-1977.000
 70
    32
  0
VERTEX
  8
7250LEVEL
 62
7
 10
2367.734
 20
-10929.828
 30
-1977.000
 70
    32
  0
VERTEX
  8
7250LEVEL
 62
7
 10
2348.773
 20
-10834.439
 30
-1977.000
 70
    32
  0
VERTEX
  8
7250LEVEL
 62
7
 10
2342.371
 20
-10753.852
 30
-1977.000
 70
    32
  0
VERTEX
  8
7250LEVEL
 62
7
 10
2333.501
 20
-10664.257
 30
-1977.000
 70
    32
  0
VERTEX
  8
7250LEVEL
 62
7
 10
2320.915
 20
-10574.267
 30
-1977.000
 70
    32
  0
VERTEX
  8
7250LEVEL
 62
7
 10
2312.605
 20
-10503.187
 30
-1977.000
 70
    32
  0
VERTEX
  8
7250LEVEL
 62
7
 10
2293.407
 20
-10417.849
 30
-1977.000
 70
    32
  0
VERTEX
  8
7250LEVEL
 62
7
 10
2268.237
 20
-10327.686
 30
-1977.000
 70
    32
  0
VERTEX
  8
7250LEVEL
 62
7
 10
2234.353
 20
-10255.684
 30
-1977.000
 70
    32
  0
VERTEX
  8
7250LEVEL
 62
7
 10
2199.895
 20
-10184.087
 30
-1977.000
 70
    32
  0
VERTEX
  8
7250LEVEL
 62
7
 10
2160.783
 20
-10117.483
 30
-1977.000
 70
    32
  0
VERTEX
  8
7250LEVEL
 62
7
 10
2150.550
 20
-10074.829
 30
-1977.000
 70
    32
  0
VERTEX
  8
7250LEVEL
 62
7
 10
2189.845
 20
-10133.140
 30
-1977.000
 70
    32
  0
VERTEX
  8
7250LEVEL
 62
7
 10
2224.581
 20
-10200.244
 30
-1977.000
 70
    32
  0
VERTEX
  8
7250LEVEL
 62
7
 10
2263.160
 20
-10272.811
 30
-1977.000
 70
    32
  0
VERTEX
  8
7250LEVEL
 62
7
 10
2288.942
 20
-10340.626
 30
-1977.000
 70
    32
  0
VERTEX
  8
7250LEVEL
 62
7
 10
2313.944
 20
-10420.164
 30
-1977.000
 70
    32
  0
VERTEX
  8
7250LEVEL
 62
7
 10
2329.344
 20
-10493.992
 30
-1977.000
 70
    32
  0
VERTEX
  8
7250LEVEL
 62
7
 10
2339.599
 20
-10533.622
 30
-1977.000
 70
    32
  0
VERTEX
  8
7250LEVEL
 62
7
 10
2352.746
 20
-10540.705
 30
-1977.000
 70
    32
  0
VERTEX
  8
7250LEVEL
 62
7
 10
2342.816
 20
-10478.930
 30
-1977.000
 70
    32
  0
VERTEX
  8
7250LEVEL
 62
7
 10
2329.499
 20
-10422.115
 30
-1977.000
 70
    32
  0
VERTEX
  8
7250LEVEL
 62
7
 10
2312.213
 20
-10354.770
 30
-1977.000
 70
    32
  0
VERTEX
  8
7250LEVEL
 62
7
 10
2286.506
 20
-10282.175
 30
-1977.000
 70
    32
  0
VERTEX
  8
7250LEVEL
 62
7
 10
2258.541
 20
-10216.754
 30
-1977.000
 70
    32
  0
VERTEX
  8
7250LEVEL
 62
7
 10
2218.898
 20
-10144.507
 30
-1977.000
 70
    32
  0
VERTEX
  8
7250LEVEL
 62
7
 10
2176.358
 20
-10077.305
 30
-1977.000
 70
    32
  0
VERTEX
  8
7250LEVEL
 62
7
 10
2128.995
 20
-10004.470
 30
-1977.000
 70
    32
  0
VERTEX
  8
7250LEVEL
 62
7
 10
2078.386
 20
-9934.349
 30
-1977.000
 70
    32
  0
SEQEND
  8
7250LEVEL
  0
POLYLINE
  8
7250LEVEL
 62
7
 66
     1
 70
     8
  0
VERTEX
  8
7250LEVEL
 62
7
 10
2330.896
 20
-9982.359
 30
-1977.000
 70
    32
  0
VERTEX
  8
7250LEVEL
 62
7
 10
2348.463
 20
-10033.606
 30
-1977.000
 70
    32
  0
VERTEX
  8
7250LEVEL
 62
7
 10
2374.785
 20
-10111.355
 30
-1977.000
 70
    32
  0
VERTEX
  8
7250LEVEL
 62
7
 10
2391.162
 20
-10196.960
 30
-1977.000
 70
    32
  0
VERTEX
  8
7250LEVEL
 62
7
 10
2413.718
 20
-10315.176
 30
-1977.000
 70
    32
  0
VERTEX
  8
7250LEVEL
 62
7
 10
2428.791
 20
-10422.755
 30
-1977.000
 70
    32
  0
VERTEX
  8
7250LEVEL
 62
7
 10
2442.212
 20
-10538.372
 30
-1977.000
 70
    32
  0
VERTEX
  8
7250LEVEL
 62
7
 10
2445.326
 20
-10655.222
 30
-1977.000
 70
    32
  0
VERTEX
  8
7250LEVEL
 62
7
 10
2450.008
 20
-10764.523
 30
-1977.000
 70
    32
  0
VERTEX
  8
7250LEVEL
 62
7
 10
2462.171
 20
-10884.462
 30
-1977.000
 70
    32
  0
VERTEX
  8
7250LEVEL
 62
7
 10
2476.867
 20
-10965.232
 30
-1977.000
 70
    32
  0
VERTEX
  8
7250LEVEL
 62
7
 10
2490.145
 20
-11004.884
 30
-1977.000
 70
    32
  0
VERTEX
  8
7250LEVEL
 62
7
 10
2505.056
 20
-11078.627
 30
-1977.000
 70
    32
  0
VERTEX
  8
7250LEVEL
 62
7
 10
2520.234
 20
-11143.587
 30
-1977.000
 70
    32
  0
VERTEX
  8
7250LEVEL
 62
7
 10
2535.586
 20
-11195.962
 30
-1977.000
 70
    32
  0
VERTEX
  8
7250LEVEL
 62
7
 10
2564.021
 20
-11252.886
 30
-1977.000
 70
    32
  0
VERTEX
  8
7250LEVEL
 62
7
 10
2587.557
 20
-11320.563
 30
-1977.000
 70
    32
  0
VERTEX
  8
7250LEVEL
 62
7
 10
2610.179
 20
-11378.998
 30
-1977.000
 70
    32
  0
VERTEX
  8
7250LEVEL
 62
7
 10
2633.566
 20
-11444.630
 30
-1977.000
 70
    32
  0
VERTEX
  8
7250LEVEL
 62
7
 10
2647.880
 20
-11471.090
 30
-1977.000
 70
    32
  0
VERTEX
  8
7250LEVEL
 62
7
 10
2683.272
 20
-11509.800
 30
-1977.000
 70
    32
  0
VERTEX
  8
7250LEVEL
 62
7
 10
2716.607
 20
-11555.972
 30
-1977.000
 70
    32
  0
VERTEX
  8
7250LEVEL
 62
7
 10
2729.375
 20
-11547.851
 30
-1977.000
 70
    32
  0
VERTEX
  8
7250LEVEL
 62
7
 10
2707.462
 20
-11509.975
 30
-1977.000
 70
    32
  0
VERTEX
  8
7250LEVEL
 62
7
 10
2677.883
 20
-11469.756
 30
-1977.000
 70
    32
  0
VERTEX
  8
7250LEVEL
 62
7
 10
2642.881
 20
-11399.830
 30
-1977.000
 70
    32
  0
VERTEX
  8
7250LEVEL
 62
7
 10
2620.145
 20
-11329.013
 30
-1977.000
 70
    32
  0
VERTEX
  8
7250LEVEL
 62
7
 10
2594.031
 20
-11267.447
 30
-1977.000
 70
    32
  0
VERTEX
  8
7250LEVEL
 62
7
 10
2566.863
 20
-11210.491
 30
-1977.000
 70
    32
  0
VERTEX
  8
7250LEVEL
 62
7
 10
2539.129
 20
-11158.231
 30
-1977.000
 70
    32
  0
VERTEX
  8
7250LEVEL
 62
7
 10
2525.610
 20
-11101.129
 30
-1977.000
 70
    32
  0
VERTEX
  8
7250LEVEL
 62
7
 10
2510.570
 20
-11033.922
 30
-1977.000
 70
    32
  0
VERTEX
  8
7250LEVEL
 62
7
 10
2500.172
 20
-10969.038
 30
-1977.000
 70
    32
  0
VERTEX
  8
7250LEVEL
 62
7
 10
2517.792
 20
-11018.529
 30
-1977.000
 70
    32
  0
VERTEX
  8
7250LEVEL
 62
7
 10
2535.407
 20
-11091.229
 30
-1977.000
 70
    32
  0
VERTEX
  8
7250LEVEL
 62
7
 10
2542.613
 20
-11145.466
 30
-1977.000
 70
    32
  0
VERTEX
  8
7250LEVEL
 62
7
 10
2559.235
 20
-11186.204
 30
-1977.000
 70
    32
  0
VERTEX
  8
7250LEVEL
 62
7
 10
2577.966
 20
-11217.723
 30
-1977.000
 70
    32
  0
VERTEX
  8
7250LEVEL
 62
7
 10
2576.865
 20
-11189.274
 30
-1977.000
 70
    32
  0
VERTEX
  8
7250LEVEL
 62
7
 10
2557.384
 20
-11131.639
 30
-1977.000
 70
    32
  0
VERTEX
  8
7250LEVEL
 62
7
 10
2541.109
 20
-11065.731
 30
-1977.000
 70
    32
  0
VERTEX
  8
7250LEVEL
 62
7
 10
2523.450
 20
-10999.078
 30
-1977.000
 70
    32
  0
VERTEX
  8
7250LEVEL
 62
7
 10
2502.461
 20
-10924.024
 30
-1977.000
 70
    32
  0
VERTEX
  8
7250LEVEL
 62
7
 10
2497.128
 20
-10870.618
 30
-1977.000
 70
    32
  0
VERTEX
  8
7250LEVEL
 62
7
 10
2517.124
 20
-10913.711
 30
-1977.000
 70
    32
  0
VERTEX
  8
7250LEVEL
 62
7
 10
2534.972
 20
-10987.966
 30
-1977.000
 70
    32
  0
VERTEX
  8
7250LEVEL
 62
7
 10
2549.712
 20
-11062.688
 30
-1977.000
 70
    32
  0
VERTEX
  8
7250LEVEL
 62
7
 10
2567.519
 20
-11131.386
 30
-1977.000
 70
    32
  0
VERTEX
  8
7250LEVEL
 62
7
 10
2588.151
 20
-11188.212
 30
-1977.000
 70
    32
  0
VERTEX
  8
7250LEVEL
 62
7
 10
2620.168
 20
-11275.279
 30
-1977.000
 70
    32
  0
VERTEX
  8
7250LEVEL
 62
7
 10
2659.253
 20
-11368.117
 30
-1977.000
 70
    32
  0
VERTEX
  8
7250LEVEL
 62
7
 10
2699.354
 20
-11439.183
 30
-1977.000
 70
    32
  0
VERTEX
  8
7250LEVEL
 62
7
 10
2727.258
 20
-11490.464
 30
-1977.000
 70
    32
  0
VERTEX
  8
7250LEVEL
 62
7
 10
2751.423
 20
-11505.269
 30
-1977.000
 70
    32
  0
VERTEX
  8
7250LEVEL
 62
7
 10
2728.204
 20
-11450.262
 30
-1977.000
 70
    32
  0
VERTEX
  8
7250LEVEL
 62
7
 10
2698.621
 20
-11382.542
 30
-1977.000
 70
    32
  0
VERTEX
  8
7250LEVEL
 62
7
 10
2671.175
 20
-11330.079
 30
-1977.000
 70
    32
  0
VERTEX
  8
7250LEVEL
 62
7
 10
2640.771
 20
-11268.522
 30
-1977.000
 70
    32
  0
VERTEX
  8
7250LEVEL
 62
7
 10
2611.561
 20
-11200.110
 30
-1977.000
 70
    32
  0
VERTEX
  8
7250LEVEL
 62
7
 10
2629.305
 20
-11215.563
 30
-1977.000
 70
    32
  0
VERTEX
  8
7250LEVEL
 62
7
 10
2651.333
 20
-11265.821
 30
-1977.000
 70
    32
  0
VERTEX
  8
7250LEVEL
 62
7
 10
2695.147
 20
-11348.886
 30
-1977.000
 70
    32
  0
VERTEX
  8
7250LEVEL
 62
7
 10
2725.893
 20
-11408.483
 30
-1977.000
 70
    32
  0
VERTEX
  8
7250LEVEL
 62
7
 10
2751.302
 20
-11476.991
 30
-1977.000
 70
    32
  0
VERTEX
  8
7250LEVEL
 62
7
 10
2779.930
 20
-11529.912
 30
-1977.000
 70
    32
  0
VERTEX
  8
7250LEVEL
 62
7
 10
2807.605
 20
-11607.139
 30
-1977.000
 70
    32
  0
VERTEX
  8
7250LEVEL
 62
7
 10
2853.246
 20
-11708.688
 30
-1977.000
 70
    32
  0
VERTEX
  8
7250LEVEL
 62
7
 10
2890.528
 20
-11819.126
 30
-1977.000
 70
    32
  0
VERTEX
  8
7250LEVEL
 62
7
 10
2919.828
 20
-11914.549
 30
-1977.000
 70
    32
  0
VERTEX
  8
7250LEVEL
 62
7
 10
2949.842
 20
-12007.322
 30
-1977.000
 70
    32
  0
VERTEX
  8
7250LEVEL
 62
7
 10
2983.287
 20
-12089.086
 30
-1977.000
 70
    32
  0
VERTEX
  8
7250LEVEL
 62
7
 10
3018.432
 20
-12184.266
 30
-1977.000
 70
    32
  0
VERTEX
  8
7250LEVEL
 62
7
 10
3042.398
 20
-12276.994
 30
-1977.000
 70
    32
  0
VERTEX
  8
7250LEVEL
 62
7
 10
3083.142
 20
-12377.691
 30
-1977.000
 70
    32
  0
VERTEX
  8
7250LEVEL
 62
7
 10
3120.341
 20
-12477.012
 30
-1977.000
 70
    32
  0
VERTEX
  8
7250LEVEL
 62
7
 10
3150.512
 20
-12537.014
 30
-1977.000
 70
    32
  0
VERTEX
  8
7250LEVEL
 62
7
 10
3174.140
 20
-12569.386
 30
-1977.000
 70
    32
  0
VERTEX
  8
7250LEVEL
 62
7
 10
3207.914
 20
-12656.506
 30
-1977.000
 70
    32
  0
VERTEX
  8
7250LEVEL
 62
7
 10
3243.668
 20
-12740.943
 30
-1977.000
 70
    32
  0
VERTEX
  8
7250LEVEL
 62
7
 10
3282.619
 20
-12812.818
 30
-1977.000
 70
    32
  0
VERTEX
  8
7250LEVEL
 62
7
 10
3285.051
 20
-12793.058
 30
-1977.000
 70
    32
  0
VERTEX
  8
7250LEVEL
 62
7
 10
3259.747
 20
-12732.642
 30
-1977.000
 70
    32
  0
VERTEX
  8
7250LEVEL
 62
7
 10
3226.672
 20
-12661.791
 30
-1977.000
 70
    32
  0
VERTEX
  8
7250LEVEL
 62
7
 10
3195.793
 20
-12581.230
 30
-1977.000
 70
    32
  0
VERTEX
  8
7250LEVEL
 62
7
 10
3171.244
 20
-12523.721
 30
-1977.000
 70
    32
  0
VERTEX
  8
7250LEVEL
 62
7
 10
3136.915
 20
-12445.587
 30
-1977.000
 70
    32
  0
VERTEX
  8
7250LEVEL
 62
7
 10
3098.582
 20
-12367.260
 30
-1977.000
 70
    32
  0
VERTEX
  8
7250LEVEL
 62
7
 10
3062.221
 20
-12281.960
 30
-1977.000
 70
    32
  0
VERTEX
  8
7250LEVEL
 62
7
 10
3096.419
 20
-12327.526
 30
-1977.000
 70
    32
  0
VERTEX
  8
7250LEVEL
 62
7
 10
3135.188
 20
-12407.694
 30
-1977.000
 70
    32
  0
VERTEX
  8
7250LEVEL
 62
7
 10
3170.219
 20
-12490.492
 30
-1977.000
 70
    32
  0
VERTEX
  8
7250LEVEL
 62
7
 10
3210.059
 20
-12586.237
 30
-1977.000
 70
    32
  0
VERTEX
  8
7250LEVEL
 62
7
 10
3241.228
 20
-12654.991
 30
-1977.000
 70
    32
  0
VERTEX
  8
7250LEVEL
 62
7
 10
3257.358
 20
-12656.538
 30
-1977.000
 70
    32
  0
VERTEX
  8
7250LEVEL
 62
7
 10
3234.385
 20
-12595.771
 30
-1977.000
 70
    32
  0
VERTEX
  8
7250LEVEL
 62
7
 10
3194.861
 20
-12512.696
 30
-1977.000
 70
    32
  0
VERTEX
  8
7250LEVEL
 62
7
 10
3164.321
 20
-12441.781
 30
-1977.000
 70
    32
  0
VERTEX
  8
7250LEVEL
 62
7
 10
3133.151
 20
-12373.028
 30
-1977.000
 70
    32
  0
VERTEX
  8
7250LEVEL
 62
7
 10
3095.979
 20
-12298.183
 30
-1977.000
 70
    32
  0
VERTEX
  8
7250LEVEL
 62
7
 10
3059.116
 20
-12220.112
 30
-1977.000
 70
    32
  0
VERTEX
  8
7250LEVEL
 62
7
 10
3030.800
 20
-12152.360
 30
-1977.000
 70
    32
  0
VERTEX
  8
7250LEVEL
 62
7
 10
2992.312
 20
-12056.094
 30
-1977.000
 70
    32
  0
VERTEX
  8
7250LEVEL
 62
7
 10
2958.317
 20
-11960.105
 30
-1977.000
 70
    32
  0
VERTEX
  8
7250LEVEL
 62
7
 10
2941.849
 20
-11898.201
 30
-1977.000
 70
    32
  0
VERTEX
  8
7250LEVEL
 62
7
 10
2971.722
 20
-11954.114
 30
-1977.000
 70
    32
  0
VERTEX
  8
7250LEVEL
 62
7
 10
3022.527
 20
-12059.337
 30
-1977.000
 70
    32
  0
VERTEX
  8
7250LEVEL
 62
7
 10
3060.035
 20
-12155.433
 30
-1977.000
 70
    32
  0
VERTEX
  8
7250LEVEL
 62
7
 10
3101.832
 20
-12263.124
 30
-1977.000
 70
    32
  0
VERTEX
  8
7250LEVEL
 62
7
 10
3156.598
 20
-12362.983
 30
-1977.000
 70
    32
  0
VERTEX
  8
7250LEVEL
 62
7
 10
3223.113
 20
-12488.098
 30
-1977.000
 70
    32
  0
VERTEX
  8
7250LEVEL
 62
7
 10
3285.295
 20
-12607.665
 30
-1977.000
 70
    32
  0
VERTEX
  8
7250LEVEL
 62
7
 10
3333.495
 20
-12694.522
 30
-1977.000
 70
    32
  0
VERTEX
  8
7250LEVEL
 62
7
 10
3378.813
 20
-12767.505
 30
-1977.000
 70
    32
  0
VERTEX
  8
7250LEVEL
 62
7
 10
3354.715
 20
-12692.919
 30
-1977.000
 70
    32
  0
VERTEX
  8
7250LEVEL
 62
7
 10
3312.849
 20
-12605.904
 30
-1977.000
 70
    32
  0
VERTEX
  8
7250LEVEL
 62
7
 10
3271.262
 20
-12514.395
 30
-1977.000
 70
    32
  0
VERTEX
  8
7250LEVEL
 62
7
 10
3224.225
 20
-12419.415
 30
-1977.000
 70
    32
  0
VERTEX
  8
7250LEVEL
 62
7
 10
3185.883
 20
-12336.798
 30
-1977.000
 70
    32
  0
VERTEX
  8
7250LEVEL
 62
7
 10
3144.527
 20
-12258.449
 30
-1977.000
 70
    32
  0
VERTEX
  8
7250LEVEL
 62
7
 10
3108.090
 20
-12177.930
 30
-1977.000
 70
    32
  0
VERTEX
  8
7250LEVEL
 62
7
 10
3071.887
 20
-12098.965
 30
-1977.000
 70
    32
  0
VERTEX
  8
7250LEVEL
 62
7
 10
3109.267
 20
-12150.887
 30
-1977.000
 70
    32
  0
VERTEX
  8
7250LEVEL
 62
7
 10
3149.739
 20
-12232.866
 30
-1977.000
 70
    32
  0
VERTEX
  8
7250LEVEL
 62
7
 10
3175.358
 20
-12266.846
 30
-1977.000
 70
    32
  0
VERTEX
  8
7250LEVEL
 62
7
 10
3147.702
 20
-12198.200
 30
-1977.000
 70
    32
  0
VERTEX
  8
7250LEVEL
 62
7
 10
3104.068
 20
-12118.445
 30
-1977.000
 70
    32
  0
VERTEX
  8
7250LEVEL
 62
7
 10
3055.910
 20
-12037.146
 30
-1977.000
 70
    32
  0
VERTEX
  8
7250LEVEL
 62
7
 10
3001.536
 20
-11945.177
 30
-1977.000
 70
    32
  0
VERTEX
  8
7250LEVEL
 62
7
 10
2944.842
 20
-11846.245
 30
-1977.000
 70
    32
  0
VERTEX
  8
7250LEVEL
 62
7
 10
2936.110
 20
-11805.114
 30
-1977.000
 70
    32
  0
VERTEX
  8
7250LEVEL
 62
7
 10
2977.554
 20
-11871.368
 30
-1977.000
 70
    32
  0
VERTEX
  8
7250LEVEL
 62
7
 10
3035.322
 20
-11974.272
 30
-1977.000
 70
    32
  0
VERTEX
  8
7250LEVEL
 62
7
 10
3078.912
 20
-12060.074
 30
-1977.000
 70
    32
  0
VERTEX
  8
7250LEVEL
 62
7
 10
3126.484
 20
-12149.092
 30
-1977.000
 70
    32
  0
VERTEX
  8
7250LEVEL
 62
7
 10
3171.419
 20
-12218.477
 30
-1977.000
 70
    32
  0
VERTEX
  8
7250LEVEL
 62
7
 10
3144.051
 20
-12149.628
 30
-1977.000
 70
    32
  0
VERTEX
  8
7250LEVEL
 62
7
 10
3107.305
 20
-12072.334
 30
-1977.000
 70
    32
  0
VERTEX
  8
7250LEVEL
 62
7
 10
3074.549
 20
-12002.548
 30
-1977.000
 70
    32
  0
VERTEX
  8
7250LEVEL
 62
7
 10
3028.286
 20
-11919.056
 30
-1977.000
 70
    32
  0
VERTEX
  8
7250LEVEL
 62
7
 10
2981.117
 20
-11842.218
 30
-1977.000
 70
    32
  0
VERTEX
  8
7250LEVEL
 62
7
 10
2920.790
 20
-11754.006
 30
-1977.000
 70
    32
  0
VERTEX
  8
7250LEVEL
 62
7
 10
2868.217
 20
-11656.043
 30
-1977.000
 70
    32
  0
VERTEX
  8
7250LEVEL
 62
7
 10
2826.803
 20
-11551.951
 30
-1977.000
 70
    32
  0
VERTEX
  8
7250LEVEL
 62
7
 10
2777.509
 20
-11452.541
 30
-1977.000
 70
    32
  0
VERTEX
  8
7250LEVEL
 62
7
 10
2746.867
 20
-11361.930
 30
-1977.000
 70
    32
  0
VERTEX
  8
7250LEVEL
 62
7
 10
2740.835
 20
-11292.255
 30
-1977.000
 70
    32
  0
VERTEX
  8
7250LEVEL
 62
7
 10
2719.536
 20
-11220.427
 30
-1977.000
 70
    32
  0
VERTEX
  8
7250LEVEL
 62
7
 10
2694.509
 20
-11155.518
 30
-1977.000
 70
    32
  0
VERTEX
  8
7250LEVEL
 62
7
 10
2686.494
 20
-11100.132
 30
-1977.000
 70
    32
  0
VERTEX
  8
7250LEVEL
 62
7
 10
2720.122
 20
-11173.603
 30
-1977.000
 70
    32
  0
VERTEX
  8
7250LEVEL
 62
7
 10
2754.911
 20
-11238.950
 30
-1977.000
 70
    32
  0
VERTEX
  8
7250LEVEL
 62
7
 10
2799.803
 20
-11314.382
 30
-1977.000
 70
    32
  0
VERTEX
  8
7250LEVEL
 62
7
 10
2835.684
 20
-11353.176
 30
-1977.000
 70
    32
  0
VERTEX
  8
7250LEVEL
 62
7
 10
2811.764
 20
-11293.506
 30
-1977.000
 70
    32
  0
VERTEX
  8
7250LEVEL
 62
7
 10
2772.376
 20
-11219.790
 30
-1977.000
 70
    32
  0
VERTEX
  8
7250LEVEL
 62
7
 10
2737.533
 20
-11156.199
 30
-1977.000
 70
    32
  0
VERTEX
  8
7250LEVEL
 62
7
 10
2711.893
 20
-11074.532
 30
-1977.000
 70
    32
  0
VERTEX
  8
7250LEVEL
 62
7
 10
2677.951
 20
-10976.787
 30
-1977.000
 70
    32
  0
VERTEX
  8
7250LEVEL
 62
7
 10
2648.398
 20
-10871.227
 30
-1977.000
 70
    32
  0
VERTEX
  8
7250LEVEL
 62
7
 10
2623.478
 20
-10802.805
 30
-1977.000
 70
    32
  0
VERTEX
  8
7250LEVEL
 62
7
 10
2614.011
 20
-10767.349
 30
-1977.000
 70
    32
  0
VERTEX
  8
7250LEVEL
 62
7
 10
2643.441
 20
-10805.525
 30
-1977.000
 70
    32
  0
VERTEX
  8
7250LEVEL
 62
7
 10
2664.348
 20
-10818.753
 30
-1977.000
 70
    32
  0
VERTEX
  8
7250LEVEL
 62
7
 10
2643.724
 20
-10777.822
 30
-1977.000
 70
    32
  0
VERTEX
  8
7250LEVEL
 62
7
 10
2622.568
 20
-10731.248
 30
-1977.000
 70
    32
  0
VERTEX
  8
7250LEVEL
 62
7
 10
2649.104
 20
-10762.864
 30
-1977.000
 70
    32
  0
VERTEX
  8
7250LEVEL
 62
7
 10
2670.691
 20
-10783.779
 30
-1977.000
 70
    32
  0
VERTEX
  8
7250LEVEL
 62
7
 10
2682.203
 20
-10768.376
 30
-1977.000
 70
    32
  0
VERTEX
  8
7250LEVEL
 62
7
 10
2662.476
 20
-10716.500
 30
-1977.000
 70
    32
  0
VERTEX
  8
7250LEVEL
 62
7
 10
2676.851
 20
-10706.389
 30
-1977.000
 70
    32
  0
VERTEX
  8
7250LEVEL
 62
7
 10
2693.414
 20
-10721.383
 30
-1977.000
 70
    32
  0
VERTEX
  8
7250LEVEL
 62
7
 10
2695.135
 20
-10692.669
 30
-1977.000
 70
    32
  0
VERTEX
  8
7250LEVEL
 62
7
 10
2673.341
 20
-10643.966
 30
-1977.000
 70
    32
  0
VERTEX
  8
7250LEVEL
 62
7
 10
2643.654
 20
-10568.154
 30
-1977.000
 70
    32
  0
VERTEX
  8
7250LEVEL
 62
7
 10
2617.940
 20
-10479.662
 30
-1977.000
 70
    32
  0
VERTEX
  8
7250LEVEL
 62
7
 10
2594.448
 20
-10405.938
 30
-1977.000
 70
    32
  0
VERTEX
  8
7250LEVEL
 62
7
 10
2570.944
 20
-10339.529
 30
-1977.000
 70
    32
  0
VERTEX
  8
7250LEVEL
 62
7
 10
2548.970
 20
-10287.514
 30
-1977.000
 70
    32
  0
SEQEND
  8
7250LEVEL
  0
POLYLINE
  8
7250LEVEL
 62
3
 66
     1
 70
     8
  0
VERTEX
  8
7250LEVEL
 62
3
 10
2548.970
 20
-10287.514
 30
-1977.000
 70
    32
  0
VERTEX
  8
7250LEVEL
 62
3
 10
2544.495
 20
-10256.712
 30
-1977.000
 70
    32
  0
VERTEX
  8
7250LEVEL
 62
3
 10
2544.123
 20
-10206.693
 30
-1977.000
 70
    32
  0
VERTEX
  8
7250LEVEL
 62
3
 10
2537.365
 20
-10146.984
 30
-1977.000
 70
    32
  0
VERTEX
  8
7250LEVEL
 62
3
 10
2526.155
 20
-10092.555
 30
-1977.000
 70
    32
  0
SEQEND
  8
7250LEVEL
  0
POLYLINE
  8
7250LEVEL
 62
3
 66
     1
 70
     8
  0
VERTEX
  8
7250LEVEL
 62
3
 10
1852.185
 20
-12063.418
 30
-1977.000
 70
    32
  0
VERTEX
  8
7250LEVEL
 62
3
 10
1832.745
 20
-12011.340
 30
-1977.000
 70
    32
  0
VERTEX
  8
7250LEVEL
 62
3
 10
1802.920
 20
-11976.880
 30
-1977.000
 70
    32
  0
VERTEX
  8
7250LEVEL
 62
3
 10
1754.003
 20
-11904.279
 30
-1977.000
 70
    32
  0
VERTEX
  8
7250LEVEL
 62
3
 10
1707.355
 20
-11828.794
 30
-1977.000
 70
    32
  0
VERTEX
  8
7250LEVEL
 62
3
 10
1662.106
 20
-11735.134
 30
-1977.000
 70
    32
  0
VERTEX
  8
7250LEVEL
 62
3
 10
1634.070
 20
-11651.284
 30
-1977.000
 70
    32
  0
VERTEX
  8
7250LEVEL
 62
3
 10
1623.880
 20
-11563.477
 30
-1977.000
 70
    32
  0
VERTEX
  8
7250LEVEL
 62
3
 10
1596.934
 20
-11464.680
 30
-1977.000
 70
    32
  0
VERTEX
  8
7250LEVEL
 62
3
 10
1577.735
 20
-11379.341
 30
-1977.000
 70
    32
  0
VERTEX
  8
7250LEVEL
 62
3
 10
1557.175
 20
-11290.233
 30
-1977.000
 70
    32
  0
VERTEX
  8
7250LEVEL
 62
3
 10
1539.158
 20
-11205.353
 30
-1977.000
 70
    32
  0
VERTEX
  8
7250LEVEL
 62
3
 10
1521.802
 20
-11119.578
 30
-1977.000
 70
    32
  0
VERTEX
  8
7250LEVEL
 62
3
 10
1493.791
 20
-11021.099
 30
-1977.000
 70
    32
  0
VERTEX
  8
7250LEVEL
 62
3
 10
1480.160
 20
-10940.010
 30
-1977.000
 70
    32
  0
VERTEX
  8
7250LEVEL
 62
3
 10
1449.764
 20
-10843.639
 30
-1977.000
 70
    32
  0
VERTEX
  8
7250LEVEL
 62
3
 10
1431.876
 20
-10752.221
 30
-1977.000
 70
    32
  0
VERTEX
  8
7250LEVEL
 62
3
 10
1420.185
 20
-10662.892
 30
-1977.000
 70
    32
  0
VERTEX
  8
7250LEVEL
 62
3
 10
1404.222
 20
-10582.153
 30
-1977.000
 70
    32
  0
VERTEX
  8
7250LEVEL
 62
3
 10
1383.579
 20
-10481.930
 30
-1977.000
 70
    32
  0
SEQEND
  8
7250LEVEL
  0
POLYLINE
  8
7250LEVEL
 62
7
 66
     1
 70
     9
  0
VERTEX
  8
7250LEVEL
 62
7
 10
1818.545
 20
-6561.968
 30
-1977.000
 70
    32
  0
VERTEX
  8
7250LEVEL
 62
7
 10
1820.364
 20
-6569.357
 30
-1977.000
 70
    32
  0
VERTEX
  8
7250LEVEL
 62
7
 10
1821.680
 20
-6575.697
 30
-1977.000
 70
    32
  0
VERTEX
  8
7250LEVEL
 62
7
 10
1823.452
 20
-6584.658
 30
-1977.000
 70
    32
  0
VERTEX
  8
7250LEVEL
 62
7
 10
1824.486
 20
-6589.354
 30
-1977.000
 70
    32
  0
VERTEX
  8
7250LEVEL
 62
7
 10
1825.456
 20
-6594.449
 30
-1977.000
 70
    32
  0
VERTEX
  8
7250LEVEL
 62
7
 10
1825.357
 20
-6595.528
 30
-1977.000
 70
    32
  0
VERTEX
  8
7250LEVEL
 62
7
 10
1823.254
 20
-6593.829
 30
-1977.000
 70
    32
  0
VERTEX
  8
7250LEVEL
 62
7
 10
1820.441
 20
-6588.147
 30
-1977.000
 70
    32
  0
VERTEX
  8
7250LEVEL
 62
7
 10
1818.242
 20
-6581.866
 30
-1977.000
 70
    32
  0
VERTEX
  8
7250LEVEL
 62
7
 10
1816.465
 20
-6572.193
 30
-1977.000
 70
    32
  0
VERTEX
  8
7250LEVEL
 62
7
 10
1813.812
 20
-6557.309
 30
-1977.000
 70
    32
  0
VERTEX
  8
7250LEVEL
 62
7
 10
1812.932
 20
-6543.020
 30
-1977.000
 70
    32
  0
VERTEX
  8
7250LEVEL
 62
7
 10
1812.558
 20
-6529.139
 30
-1977.000
 70
    32
  0
VERTEX
  8
7250LEVEL
 62
7
 10
1812.021
 20
-6523.428
 30
-1977.000
 70
    32
  0
VERTEX
  8
7250LEVEL
 62
7
 10
1812.081
 20
-6520.645
 30
-1977.000
 70
    32
  0
VERTEX
  8
7250LEVEL
 62
7
 10
1812.595
 20
-6517.778
 30
-1977.000
 70
    32
  0
VERTEX
  8
7250LEVEL
 62
7
 10
1813.071
 20
-6516.232
 30
-1977.000
 70
    32
  0
VERTEX
  8
7250LEVEL
 62
7
 10
1813.799
 20
-6516.047
 30
-1977.000
 70
    32
  0
VERTEX
  8
7250LEVEL
 62
7
 10
1815.038
 20
-6520.330
 30
-1977.000
 70
    32
  0
VERTEX
  8
7250LEVEL
 62
7
 10
1815.188
 20
-6525.085
 30
-1977.000
 70
    32
  0
VERTEX
  8
7250LEVEL
 62
7
 10
1815.449
 20
-6532.890
 30
-1977.000
 70
    32
  0
VERTEX
  8
7250LEVEL
 62
7
 10
1815.737
 20
-6538.271
 30
-1977.000
 70
    32
  0
VERTEX
  8
7250LEVEL
 62
7
 10
1816.708
 20
-6544.718
 30
-1977.000
 70
    32
  0
VERTEX
  8
7250LEVEL
 62
7
 10
1816.716
 20
-6546.462
 30
-1977.000
 70
    32
  0
SEQEND
  8
7250LEVEL
  0
POLYLINE
  8
7250LEVEL
 62
7
 66
     1
 70
     9
  0
VERTEX
  8
7250LEVEL
 62
7
 10
1699.243
 20
-6231.888
 30
-1977.000
 70
    32
  0
VERTEX
  8
7250LEVEL
 62
7
 10
1700.956
 20
-6235.266
 30
-1977.000
 70
    32
  0
VERTEX
  8
7250LEVEL
 62
7
 10
1705.413
 20
-6240.345
 30
-1977.000
 70
    32
  0
VERTEX
  8
7250LEVEL
 62
7
 10
1709.804
 20
-6244.470
 30
-1977.000
 70
    32
  0
VERTEX
  8
7250LEVEL
 62
7
 10
1713.796
 20
-6248.531
 30
-1977.000
 70
    32
  0
VERTEX
  8
7250LEVEL
 62
7
 10
1716.342
 20
-6251.037
 30
-1977.000
 70
    32
  0
VERTEX
  8
7250LEVEL
 62
7
 10
1718.800
 20
-6253.731
 30
-1977.000
 70
    32
  0
VERTEX
  8
7250LEVEL
 62
7
 10
1719.148
 20
-6254.655
 30
-1977.000
 70
    32
  0
VERTEX
  8
7250LEVEL
 62
7
 10
1716.319
 20
-6254.173
 30
-1977.000
 70
    32
  0
VERTEX
  8
7250LEVEL
 62
7
 10
1712.585
 20
-6251.865
 30
-1977.000
 70
    32
  0
VERTEX
  8
7250LEVEL
 62
7
 10
1707.711
 20
-6248.894
 30
-1977.000
 70
    32
  0
VERTEX
  8
7250LEVEL
 62
7
 10
1702.201
 20
-6243.286
 30
-1977.000
 70
    32
  0
VERTEX
  8
7250LEVEL
 62
7
 10
1696.635
 20
-6234.480
 30
-1977.000
 70
    32
  0
VERTEX
  8
7250LEVEL
 62
7
 10
1694.608
 20
-6228.144
 30
-1977.000
 70
    32
  0
VERTEX
  8
7250LEVEL
 62
7
 10
1692.627
 20
-6220.238
 30
-1977.000
 70
    32
  0
VERTEX
  8
7250LEVEL
 62
7
 10
1691.211
 20
-6211.951
 30
-1977.000
 70
    32
  0
VERTEX
  8
7250LEVEL
 62
7
 10
1690.125
 20
-6206.762
 30
-1977.000
 70
    32
  0
VERTEX
  8
7250LEVEL
 62
7
 10
1689.435
 20
-6203.631
 30
-1977.000
 70
    32
  0
VERTEX
  8
7250LEVEL
 62
7
 10
1689.558
 20
-6202.443
 30
-1977.000
 70
    32
  0
VERTEX
  8
7250LEVEL
 62
7
 10
1690.274
 20
-6201.477
 30
-1977.000
 70
    32
  0
VERTEX
  8
7250LEVEL
 62
7
 10
1691.125
 20
-6201.778
 30
-1977.000
 70
    32
  0
VERTEX
  8
7250LEVEL
 62
7
 10
1692.942
 20
-6206.142
 30
-1977.000
 70
    32
  0
VERTEX
  8
7250LEVEL
 62
7
 10
1693.674
 20
-6210.336
 30
-1977.000
 70
    32
  0
VERTEX
  8
7250LEVEL
 62
7
 10
1695.073
 20
-6217.129
 30
-1977.000
 70
    32
  0
VERTEX
  8
7250LEVEL
 62
7
 10
1696.949
 20
-6224.050
 30
-1977.000
 70
    32
  0
VERTEX
  8
7250LEVEL
 62
7
 10
1698.127
 20
-6228.090
 30
-1977.000
 70
    32
  0
VERTEX
  8
7250LEVEL
 62
7
 10
1698.618
 20
-6230.032
 30
-1977.000
 70
    32
  0
VERTEX
  8
7250LEVEL
 62
7
 10
1698.992
 20
-6232.199
 30
-1977.000
 70
    32
  0
SEQEND
  8
7250LEVEL
  0
POLYLINE
  8
7250LEVEL
 62
7
 66
     1
 70
     9
  0
VERTEX
  8
7250LEVEL
 62
7
 10
1702.378
 20
-6040.262
 30
-1977.000
 70
    32
  0
VERTEX
  8
7250LEVEL
 62
7
 10
1703.347
 20
-6047.030
 30
-1977.000
 70
    32
  0
VERTEX
  8
7250LEVEL
 62
7
 10
1705.749
 20
-6051.866
 30
-1977.000
 70
    32
  0
VERTEX
  8
7250LEVEL
 62
7
 10
1710.295
 20
-6061.458
 30
-1977.000
 70
    32
  0
VERTEX
  8
7250LEVEL
 62
7
 10
1713.520
 20
-6069.018
 30
-1977.000
 70
    32
  0
VERTEX
  8
7250LEVEL
 62
7
 10
1717.048
 20
-6080.747
 30
-1977.000
 70
    32
  0
VERTEX
  8
7250LEVEL
 62
7
 10
1718.744
 20
-6087.652
 30
-1977.000
 70
    32
  0
VERTEX
  8
7250LEVEL
 62
7
 10
1719.837
 20
-6096.578
 30
-1977.000
 70
    32
  0
VERTEX
  8
7250LEVEL
 62
7
 10
1723.457
 20
-6111.858
 30
-1977.000
 70
    32
  0
VERTEX
  8
7250LEVEL
 62
7
 10
1728.782
 20
-6127.098
 30
-1977.000
 70
    32
  0
VERTEX
  8
7250LEVEL
 62
7
 10
1733.955
 20
-6137.905
 30
-1977.000
 70
    32
  0
VERTEX
  8
7250LEVEL
 62
7
 10
1738.025
 20
-6152.389
 30
-1977.000
 70
    32
  0
VERTEX
  8
7250LEVEL
 62
7
 10
1740.133
 20
-6163.166
 30
-1977.000
 70
    32
  0
VERTEX
  8
7250LEVEL
 62
7
 10
1743.259
 20
-6178.819
 30
-1977.000
 70
    32
  0
VERTEX
  8
7250LEVEL
 62
7
 10
1745.652
 20
-6188.924
 30
-1977.000
 70
    32
  0
VERTEX
  8
7250LEVEL
 62
7
 10
1747.903
 20
-6204.385
 30
-1977.000
 70
    32
  0
VERTEX
  8
7250LEVEL
 62
7
 10
1750.806
 20
-6214.258
 30
-1977.000
 70
    32
  0
VERTEX
  8
7250LEVEL
 62
7
 10
1755.505
 20
-6231.310
 30
-1977.000
 70
    32
  0
VERTEX
  8
7250LEVEL
 62
7
 10
1759.414
 20
-6243.284
 30
-1977.000
 70
    32
  0
VERTEX
  8
7250LEVEL
 62
7
 10
1762.997
 20
-6259.885
 30
-1977.000
 70
    32
  0
VERTEX
  8
7250LEVEL
 62
7
 10
1764.853
 20
-6277.987
 30
-1977.000
 70
    32
  0
VERTEX
  8
7250LEVEL
 62
7
 10
1765.392
 20
-6281.383
 30
-1977.000
 70
    32
  0
VERTEX
  8
7250LEVEL
 62
7
 10
1765.236
 20
-6281.257
 30
-1977.000
 70
    32
  0
VERTEX
  8
7250LEVEL
 62
7
 10
1761.238
 20
-6275.132
 30
-1977.000
 70
    32
  0
VERTEX
  8
7250LEVEL
 62
7
 10
1757.392
 20
-6266.427
 30
-1977.000
 70
    32
  0
VERTEX
  8
7250LEVEL
 62
7
 10
1756.493
 20
-6264.671
 30
-1977.000
 70
    32
  0
VERTEX
  8
7250LEVEL
 62
7
 10
1753.752
 20
-6256.988
 30
-1977.000
 70
    32
  0
VERTEX
  8
7250LEVEL
 62
7
 10
1750.398
 20
-6250.225
 30
-1977.000
 70
    32
  0
VERTEX
  8
7250LEVEL
 62
7
 10
1746.623
 20
-6239.519
 30
-1977.000
 70
    32
  0
VERTEX
  8
7250LEVEL
 62
7
 10
1743.461
 20
-6231.880
 30
-1977.000
 70
    32
  0
VERTEX
  8
7250LEVEL
 62
7
 10
1740.896
 20
-6228.522
 30
-1977.000
 70
    32
  0
VERTEX
  8
7250LEVEL
 62
7
 10
1739.473
 20
-6228.531
 30
-1977.000
 70
    32
  0
VERTEX
  8
7250LEVEL
 62
7
 10
1739.230
 20
-6231.939
 30
-1977.000
 70
    32
  0
VERTEX
  8
7250LEVEL
 62
7
 10
1739.313
 20
-6236.060
 30
-1977.000
 70
    32
  0
VERTEX
  8
7250LEVEL
 62
7
 10
1738.745
 20
-6237.082
 30
-1977.000
 70
    32
  0
VERTEX
  8
7250LEVEL
 62
7
 10
1736.180
 20
-6235.397
 30
-1977.000
 70
    32
  0
VERTEX
  8
7250LEVEL
 62
7
 10
1729.818
 20
-6226.461
 30
-1977.000
 70
    32
  0
VERTEX
  8
7250LEVEL
 62
7
 10
1723.243
 20
-6212.529
 30
-1977.000
 70
    32
  0
VERTEX
  8
7250LEVEL
 62
7
 10
1721.924
 20
-6200.137
 30
-1977.000
 70
    32
  0
VERTEX
  8
7250LEVEL
 62
7
 10
1722.089
 20
-6182.959
 30
-1977.000
 70
    32
  0
VERTEX
  8
7250LEVEL
 62
7
 10
1722.588
 20
-6174.931
 30
-1977.000
 70
    32
  0
VERTEX
  8
7250LEVEL
 62
7
 10
1722.549
 20
-6162.866
 30
-1977.000
 70
    32
  0
VERTEX
  8
7250LEVEL
 62
7
 10
1720.527
 20
-6155.569
 30
-1977.000
 70
    32
  0
VERTEX
  8
7250LEVEL
 62
7
 10
1713.439
 20
-6142.830
 30
-1977.000
 70
    32
  0
VERTEX
  8
7250LEVEL
 62
7
 10
1707.919
 20
-6132.452
 30
-1977.000
 70
    32
  0
VERTEX
  8
7250LEVEL
 62
7
 10
1702.840
 20
-6116.509
 30
-1977.000
 70
    32
  0
VERTEX
  8
7250LEVEL
 62
7
 10
1701.632
 20
-6107.168
 30
-1977.000
 70
    32
  0
VERTEX
  8
7250LEVEL
 62
7
 10
1700.765
 20
-6095.013
 30
-1977.000
 70
    32
  0
VERTEX
  8
7250LEVEL
 62
7
 10
1700.011
 20
-6087.260
 30
-1977.000
 70
    32
  0
VERTEX
  8
7250LEVEL
 62
7
 10
1699.014
 20
-6082.916
 30
-1977.000
 70
    32
  0
VERTEX
  8
7250LEVEL
 62
7
 10
1698.207
 20
-6080.011
 30
-1977.000
 70
    32
  0
VERTEX
  8
7250LEVEL
 62
7
 10
1696.425
 20
-6076.320
 30
-1977.000
 70
    32
  0
VERTEX
  8
7250LEVEL
 62
7
 10
1693.745
 20
-6075.894
 30
-1977.000
 70
    32
  0
VERTEX
  8
7250LEVEL
 62
7
 10
1691.837
 20
-6079.372
 30
-1977.000
 70
    32
  0
VERTEX
  8
7250LEVEL
 62
7
 10
1690.923
 20
-6089.509
 30
-1977.000
 70
    32
  0
VERTEX
  8
7250LEVEL
 62
7
 10
1690.959
 20
-6098.549
 30
-1977.000
 70
    32
  0
VERTEX
  8
7250LEVEL
 62
7
 10
1691.357
 20
-6108.973
 30
-1977.000
 70
    32
  0
VERTEX
  8
7250LEVEL
 62
7
 10
1691.957
 20
-6116.279
 30
-1977.000
 70
    32
  0
VERTEX
  8
7250LEVEL
 62
7
 10
1691.924
 20
-6119.985
 30
-1977.000
 70
    32
  0
VERTEX
  8
7250LEVEL
 62
7
 10
1690.794
 20
-6122.420
 30
-1977.000
 70
    32
  0
VERTEX
  8
7250LEVEL
 62
7
 10
1688.249
 20
-6121.587
 30
-1977.000
 70
    32
  0
VERTEX
  8
7250LEVEL
 62
7
 10
1686.556
 20
-6119.061
 30
-1977.000
 70
    32
  0
VERTEX
  8
7250LEVEL
 62
7
 10
1684.472
 20
-6113.195
 30
-1977.000
 70
    32
  0
VERTEX
  8
7250LEVEL
 62
7
 10
1681.765
 20
-6105.153
 30
-1977.000
 70
    32
  0
VERTEX
  8
7250LEVEL
 62
7
 10
1680.213
 20
-6102.612
 30
-1977.000
 70
    32
  0
VERTEX
  8
7250LEVEL
 62
7
 10
1677.901
 20
-6100.295
 30
-1977.000
 70
    32
  0
VERTEX
  8
7250LEVEL
 62
7
 10
1675.879
 20
-6104.711
 30
-1977.000
 70
    32
  0
VERTEX
  8
7250LEVEL
 62
7
 10
1674.859
 20
-6113.863
 30
-1977.000
 70
    32
  0
VERTEX
  8
7250LEVEL
 62
7
 10
1674.286
 20
-6119.513
 30
-1977.000
 70
    32
  0
VERTEX
  8
7250LEVEL
 62
7
 10
1675.608
 20
-6131.264
 30
-1977.000
 70
    32
  0
VERTEX
  8
7250LEVEL
 62
7
 10
1678.295
 20
-6140.448
 30
-1977.000
 70
    32
  0
VERTEX
  8
7250LEVEL
 62
7
 10
1681.684
 20
-6151.551
 30
-1977.000
 70
    32
  0
VERTEX
  8
7250LEVEL
 62
7
 10
1684.589
 20
-6162.456
 30
-1977.000
 70
    32
  0
VERTEX
  8
7250LEVEL
 62
7
 10
1686.687
 20
-6168.784
 30
-1977.000
 70
    32
  0
VERTEX
  8
7250LEVEL
 62
7
 10
1686.938
 20
-6173.813
 30
-1977.000
 70
    32
  0
VERTEX
  8
7250LEVEL
 62
7
 10
1686.346
 20
-6174.944
 30
-1977.000
 70
    32
  0
VERTEX
  8
7250LEVEL
 62
7
 10
1684.000
 20
-6171.633
 30
-1977.000
 70
    32
  0
VERTEX
  8
7250LEVEL
 62
7
 10
1677.618
 20
-6163.519
 30
-1977.000
 70
    32
  0
VERTEX
  8
7250LEVEL
 62
7
 10
1672.022
 20
-6157.777
 30
-1977.000
 70
    32
  0
VERTEX
  8
7250LEVEL
 62
7
 10
1663.457
 20
-6144.876
 30
-1977.000
 70
    32
  0
VERTEX
  8
7250LEVEL
 62
7
 10
1660.661
 20
-6133.994
 30
-1977.000
 70
    32
  0
VERTEX
  8
7250LEVEL
 62
7
 10
1658.566
 20
-6109.972
 30
-1977.000
 70
    32
  0
VERTEX
  8
7250LEVEL
 62
7
 10
1657.098
 20
-6101.192
 30
-1977.000
 70
    32
  0
VERTEX
  8
7250LEVEL
 62
7
 10
1652.844
 20
-6085.980
 30
-1977.000
 70
    32
  0
VERTEX
  8
7250LEVEL
 62
7
 10
1644.710
 20
-6069.436
 30
-1977.000
 70
    32
  0
VERTEX
  8
7250LEVEL
 62
7
 10
1635.259
 20
-6053.566
 30
-1977.000
 70
    32
  0
VERTEX
  8
7250LEVEL
 62
7
 10
1631.308
 20
-6042.203
 30
-1977.000
 70
    32
  0
VERTEX
  8
7250LEVEL
 62
7
 10
1625.284
 20
-6029.422
 30
-1977.000
 70
    32
  0
VERTEX
  8
7250LEVEL
 62
7
 10
1619.394
 20
-6021.255
 30
-1977.000
 70
    32
  0
VERTEX
  8
7250LEVEL
 62
7
 10
1613.902
 20
-6015.146
 30
-1977.000
 70
    32
  0
VERTEX
  8
7250LEVEL
 62
7
 10
1613.005
 20
-6013.070
 30
-1977.000
 70
    32
  0
VERTEX
  8
7250LEVEL
 62
7
 10
1612.103
 20
-6010.282
 30
-1977.000
 70
    32
  0
VERTEX
  8
7250LEVEL
 62
7
 10
1612.841
 20
-6009.527
 30
-1977.000
 70
    32
  0
VERTEX
  8
7250LEVEL
 62
7
 10
1616.437
 20
-6009.857
 30
-1977.000
 70
    32
  0
VERTEX
  8
7250LEVEL
 62
7
 10
1620.974
 20
-6012.685
 30
-1977.000
 70
    32
  0
VERTEX
  8
7250LEVEL
 62
7
 10
1626.854
 20
-6016.082
 30
-1977.000
 70
    32
  0
VERTEX
  8
7250LEVEL
 62
7
 10
1633.097
 20
-6017.197
 30
-1977.000
 70
    32
  0
VERTEX
  8
7250LEVEL
 62
7
 10
1635.114
 20
-6013.743
 30
-1977.000
 70
    32
  0
VERTEX
  8
7250LEVEL
 62
7
 10
1637.679
 20
-6008.735
 30
-1977.000
 70
    32
  0
VERTEX
  8
7250LEVEL
 62
7
 10
1641.624
 20
-6000.981
 30
-1977.000
 70
    32
  0
VERTEX
  8
7250LEVEL
 62
7
 10
1642.948
 20
-5998.704
 30
-1977.000
 70
    32
  0
VERTEX
  8
7250LEVEL
 62
7
 10
1646.236
 20
-5996.146
 30
-1977.000
 70
    32
  0
VERTEX
  8
7250LEVEL
 62
7
 10
1649.848
 20
-5996.296
 30
-1977.000
 70
    32
  0
VERTEX
  8
7250LEVEL
 62
7
 10
1657.654
 20
-6000.734
 30
-1977.000
 70
    32
  0
VERTEX
  8
7250LEVEL
 62
7
 10
1665.212
 20
-6006.516
 30
-1977.000
 70
    32
  0
VERTEX
  8
7250LEVEL
 62
7
 10
1670.962
 20
-6011.030
 30
-1977.000
 70
    32
  0
VERTEX
  8
7250LEVEL
 62
7
 10
1674.826
 20
-6014.215
 30
-1977.000
 70
    32
  0
VERTEX
  8
7250LEVEL
 62
7
 10
1677.877
 20
-6015.457
 30
-1977.000
 70
    32
  0
VERTEX
  8
7250LEVEL
 62
7
 10
1678.241
 20
-6014.528
 30
-1977.000
 70
    32
  0
VERTEX
  8
7250LEVEL
 62
7
 10
1677.675
 20
-6010.209
 30
-1977.000
 70
    32
  0
VERTEX
  8
7250LEVEL
 62
7
 10
1677.381
 20
-6007.784
 30
-1977.000
 70
    32
  0
VERTEX
  8
7250LEVEL
 62
7
 10
1677.244
 20
-6005.164
 30
-1977.000
 70
    32
  0
VERTEX
  8
7250LEVEL
 62
7
 10
1677.620
 20
-6003.344
 30
-1977.000
 70
    32
  0
VERTEX
  8
7250LEVEL
 62
7
 10
1678.347
 20
-6003.480
 30
-1977.000
 70
    32
  0
VERTEX
  8
7250LEVEL
 62
7
 10
1679.921
 20
-6004.558
 30
-1977.000
 70
    32
  0
VERTEX
  8
7250LEVEL
 62
7
 10
1682.076
 20
-6007.070
 30
-1977.000
 70
    32
  0
VERTEX
  8
7250LEVEL
 62
7
 10
1685.345
 20
-6010.354
 30
-1977.000
 70
    32
  0
VERTEX
  8
7250LEVEL
 62
7
 10
1687.112
 20
-6011.910
 30
-1977.000
 70
    32
  0
VERTEX
  8
7250LEVEL
 62
7
 10
1689.401
 20
-6012.343
 30
-1977.000
 70
    32
  0
VERTEX
  8
7250LEVEL
 62
7
 10
1690.815
 20
-6010.911
 30
-1977.000
 70
    32
  0
VERTEX
  8
7250LEVEL
 62
7
 10
1691.933
 20
-6006.021
 30
-1977.000
 70
    32
  0
VERTEX
  8
7250LEVEL
 62
7
 10
1690.439
 20
-6001.018
 30
-1977.000
 70
    32
  0
VERTEX
  8
7250LEVEL
 62
7
 10
1684.919
 20
-5988.967
 30
-1977.000
 70
    32
  0
VERTEX
  8
7250LEVEL
 62
7
 10
1676.192
 20
-5973.874
 30
-1977.000
 70
    32
  0
VERTEX
  8
7250LEVEL
 62
7
 10
1669.942
 20
-5965.995
 30
-1977.000
 70
    32
  0
VERTEX
  8
7250LEVEL
 62
7
 10
1654.415
 20
-5948.565
 30
-1977.000
 70
    32
  0
VERTEX
  8
7250LEVEL
 62
7
 10
1644.364
 20
-5939.097
 30
-1977.000
 70
    32
  0
VERTEX
  8
7250LEVEL
 62
7
 10
1636.169
 20
-5932.350
 30
-1977.000
 70
    32
  0
VERTEX
  8
7250LEVEL
 62
7
 10
1623.584
 20
-5921.478
 30
-1977.000
 70
    32
  0
VERTEX
  8
7250LEVEL
 62
7
 10
1609.139
 20
-5905.179
 30
-1977.000
 70
    32
  0
VERTEX
  8
7250LEVEL
 62
7
 10
1603.642
 20
-5896.686
 30
-1977.000
 70
    32
  0
VERTEX
  8
7250LEVEL
 62
7
 10
1600.701
 20
-5888.454
 30
-1977.000
 70
    32
  0
VERTEX
  8
7250LEVEL
 62
7
 10
1600.479
 20
-5884.028
 30
-1977.000
 70
    32
  0
VERTEX
  8
7250LEVEL
 62
7
 10
1601.211
 20
-5882.882
 30
-1977.000
 70
    32
  0
VERTEX
  8
7250LEVEL
 62
7
 10
1604.639
 20
-5883.976
 30
-1977.000
 70
    32
  0
VERTEX
  8
7250LEVEL
 62
7
 10
1612.310
 20
-5885.474
 30
-1977.000
 70
    32
  0
VERTEX
  8
7250LEVEL
 62
7
 10
1619.227
 20
-5886.233
 30
-1977.000
 70
    32
  0
VERTEX
  8
7250LEVEL
 62
7
 10
1622.341
 20
-5885.723
 30
-1977.000
 70
    32
  0
VERTEX
  8
7250LEVEL
 62
7
 10
1623.439
 20
-5883.328
 30
-1977.000
 70
    32
  0
VERTEX
  8
7250LEVEL
 62
7
 10
1622.892
 20
-5878.188
 30
-1977.000
 70
    32
  0
VERTEX
  8
7250LEVEL
 62
7
 10
1620.358
 20
-5866.424
 30
-1977.000
 70
    32
  0
VERTEX
  8
7250LEVEL
 62
7
 10
1615.906
 20
-5856.716
 30
-1977.000
 70
    32
  0
VERTEX
  8
7250LEVEL
 62
7
 10
1613.608
 20
-5849.840
 30
-1977.000
 70
    32
  0
VERTEX
  8
7250LEVEL
 62
7
 10
1611.031
 20
-5840.680
 30
-1977.000
 70
    32
  0
VERTEX
  8
7250LEVEL
 62
7
 10
1610.422
 20
-5836.971
 30
-1977.000
 70
    32
  0
VERTEX
  8
7250LEVEL
 62
7
 10
1611.134
 20
-5833.620
 30
-1977.000
 70
    32
  0
VERTEX
  8
7250LEVEL
 62
7
 10
1612.494
 20
-5833.689
 30
-1977.000
 70
    32
  0
VERTEX
  8
7250LEVEL
 62
7
 10
1615.560
 20
-5835.071
 30
-1977.000
 70
    32
  0
VERTEX
  8
7250LEVEL
 62
7
 10
1620.984
 20
-5840.867
 30
-1977.000
 70
    32
  0
VERTEX
  8
7250LEVEL
 62
7
 10
1625.607
 20
-5847.174
 30
-1977.000
 70
    32
  0
VERTEX
  8
7250LEVEL
 62
7
 10
1628.362
 20
-5853.325
 30
-1977.000
 70
    32
  0
VERTEX
  8
7250LEVEL
 62
7
 10
1630.864
 20
-5858.435
 30
-1977.000
 70
    32
  0
VERTEX
  8
7250LEVEL
 62
7
 10
1633.155
 20
-5861.894
 30
-1977.000
 70
    32
  0
VERTEX
  8
7250LEVEL
 62
7
 10
1635.271
 20
-5864.374
 30
-1977.000
 70
    32
  0
VERTEX
  8
7250LEVEL
 62
7
 10
1636.391
 20
-5863.863
 30
-1977.000
 70
    32
  0
VERTEX
  8
7250LEVEL
 62
7
 10
1636.699
 20
-5856.390
 30
-1977.000
 70
    32
  0
VERTEX
  8
7250LEVEL
 62
7
 10
1635.572
 20
-5848.143
 30
-1977.000
 70
    32
  0
VERTEX
  8
7250LEVEL
 62
7
 10
1632.517
 20
-5837.503
 30
-1977.000
 70
    32
  0
VERTEX
  8
7250LEVEL
 62
7
 10
1631.507
 20
-5829.350
 30
-1977.000
 70
    32
  0
VERTEX
  8
7250LEVEL
 62
7
 10
1631.504
 20
-5819.631
 30
-1977.000
 70
    32
  0
VERTEX
  8
7250LEVEL
 62
7
 10
1631.316
 20
-5816.518
 30
-1977.000
 70
    32
  0
VERTEX
  8
7250LEVEL
 62
7
 10
1631.050
 20
-5813.022
 30
-1977.000
 70
    32
  0
VERTEX
  8
7250LEVEL
 62
7
 10
1631.342
 20
-5810.748
 30
-1977.000
 70
    32
  0
VERTEX
  8
7250LEVEL
 62
7
 10
1633.131
 20
-5811.163
 30
-1977.000
 70
    32
  0
VERTEX
  8
7250LEVEL
 62
7
 10
1637.228
 20
-5814.536
 30
-1977.000
 70
    32
  0
VERTEX
  8
7250LEVEL
 62
7
 10
1644.556
 20
-5822.835
 30
-1977.000
 70
    32
  0
VERTEX
  8
7250LEVEL
 62
7
 10
1649.035
 20
-5831.472
 30
-1977.000
 70
    32
  0
VERTEX
  8
7250LEVEL
 62
7
 10
1652.992
 20
-5843.227
 30
-1977.000
 70
    32
  0
VERTEX
  8
7250LEVEL
 62
7
 10
1655.167
 20
-5851.611
 30
-1977.000
 70
    32
  0
VERTEX
  8
7250LEVEL
 62
7
 10
1653.774
 20
-5861.942
 30
-1977.000
 70
    32
  0
VERTEX
  8
7250LEVEL
 62
7
 10
1650.755
 20
-5872.374
 30
-1977.000
 70
    32
  0
VERTEX
  8
7250LEVEL
 62
7
 10
1649.211
 20
-5878.270
 30
-1977.000
 70
    32
  0
VERTEX
  8
7250LEVEL
 62
7
 10
1647.812
 20
-5883.190
 30
-1977.000
 70
    32
  0
VERTEX
  8
7250LEVEL
 62
7
 10
1646.353
 20
-5885.873
 30
-1977.000
 70
    32
  0
VERTEX
  8
7250LEVEL
 62
7
 10
1642.882
 20
-5884.035
 30
-1977.000
 70
    32
  0
VERTEX
  8
7250LEVEL
 62
7
 10
1639.634
 20
-5881.284
 30
-1977.000
 70
    32
  0
VERTEX
  8
7250LEVEL
 62
7
 10
1637.956
 20
-5878.899
 30
-1977.000
 70
    32
  0
VERTEX
  8
7250LEVEL
 62
7
 10
1635.189
 20
-5876.986
 30
-1977.000
 70
    32
  0
VERTEX
  8
7250LEVEL
 62
7
 10
1632.906
 20
-5878.618
 30
-1977.000
 70
    32
  0
VERTEX
  8
7250LEVEL
 62
7
 10
1634.503
 20
-5884.927
 30
-1977.000
 70
    32
  0
VERTEX
  8
7250LEVEL
 62
7
 10
1637.143
 20
-5890.663
 30
-1977.000
 70
    32
  0
VERTEX
  8
7250LEVEL
 62
7
 10
1640.726
 20
-5897.224
 30
-1977.000
 70
    32
  0
VERTEX
  8
7250LEVEL
 62
7
 10
1645.611
 20
-5902.650
 30
-1977.000
 70
    32
  0
VERTEX
  8
7250LEVEL
 62
7
 10
1649.980
 20
-5906.564
 30
-1977.000
 70
    32
  0
VERTEX
  8
7250LEVEL
 62
7
 10
1652.081
 20
-5908.583
 30
-1977.000
 70
    32
  0
VERTEX
  8
7250LEVEL
 62
7
 10
1654.559
 20
-5910.455
 30
-1977.000
 70
    32
  0
VERTEX
  8
7250LEVEL
 62
7
 10
1655.819
 20
-5911.923
 30
-1977.000
 70
    32
  0
VERTEX
  8
7250LEVEL
 62
7
 10
1655.145
 20
-5912.280
 30
-1977.000
 70
    32
  0
VERTEX
  8
7250LEVEL
 62
7
 10
1650.624
 20
-5910.945
 30
-1977.000
 70
    32
  0
VERTEX
  8
7250LEVEL
 62
7
 10
1644.332
 20
-5907.022
 30
-1977.000
 70
    32
  0
VERTEX
  8
7250LEVEL
 62
7
 10
1640.444
 20
-5903.947
 30
-1977.000
 70
    32
  0
VERTEX
  8
7250LEVEL
 62
7
 10
1637.391
 20
-5901.353
 30
-1977.000
 70
    32
  0
VERTEX
  8
7250LEVEL
 62
7
 10
1634.446
 20
-5899.103
 30
-1977.000
 70
    32
  0
VERTEX
  8
7250LEVEL
 62
7
 10
1633.101
 20
-5899.175
 30
-1977.000
 70
    32
  0
VERTEX
  8
7250LEVEL
 62
7
 10
1633.318
 20
-5902.890
 30
-1977.000
 70
    32
  0
VERTEX
  8
7250LEVEL
 62
7
 10
1636.413
 20
-5908.221
 30
-1977.000
 70
    32
  0
VERTEX
  8
7250LEVEL
 62
7
 10
1641.002
 20
-5911.863
 30
-1977.000
 70
    32
  0
VERTEX
  8
7250LEVEL
 62
7
 10
1648.951
 20
-5914.292
 30
-1977.000
 70
    32
  0
VERTEX
  8
7250LEVEL
 62
7
 10
1657.261
 20
-5918.107
 30
-1977.000
 70
    32
  0
VERTEX
  8
7250LEVEL
 62
7
 10
1667.855
 20
-5923.316
 30
-1977.000
 70
    32
  0
VERTEX
  8
7250LEVEL
 62
7
 10
1677.660
 20
-5928.468
 30
-1977.000
 70
    32
  0
VERTEX
  8
7250LEVEL
 62
7
 10
1682.797
 20
-5931.908
 30
-1977.000
 70
    32
  0
VERTEX
  8
7250LEVEL
 62
7
 10
1688.074
 20
-5940.674
 30
-1977.000
 70
    32
  0
VERTEX
  8
7250LEVEL
 62
7
 10
1693.400
 20
-5952.248
 30
-1977.000
 70
    32
  0
VERTEX
  8
7250LEVEL
 62
7
 10
1696.753
 20
-5961.005
 30
-1977.000
 70
    32
  0
VERTEX
  8
7250LEVEL
 62
7
 10
1701.143
 20
-5972.144
 30
-1977.000
 70
    32
  0
VERTEX
  8
7250LEVEL
 62
7
 10
1703.319
 20
-5981.881
 30
-1977.000
 70
    32
  0
VERTEX
  8
7250LEVEL
 62
7
 10
1704.467
 20
-5992.333
 30
-1977.000
 70
    32
  0
VERTEX
  8
7250LEVEL
 62
7
 10
1704.544
 20
-5997.736
 30
-1977.000
 70
    32
  0
VERTEX
  8
7250LEVEL
 62
7
 10
1704.805
 20
-6002.194
 30
-1977.000
 70
    32
  0
VERTEX
  8
7250LEVEL
 62
7
 10
1705.071
 20
-6009.037
 30
-1977.000
 70
    32
  0
VERTEX
  8
7250LEVEL
 62
7
 10
1705.970
 20
-6014.140
 30
-1977.000
 70
    32
  0
VERTEX
  8
7250LEVEL
 62
7
 10
1707.315
 20
-6019.087
 30
-1977.000
 70
    32
  0
VERTEX
  8
7250LEVEL
 62
7
 10
1707.498
 20
-6021.809
 30
-1977.000
 70
    32
  0
VERTEX
  8
7250LEVEL
 62
7
 10
1706.414
 20
-6029.686
 30
-1977.000
 70
    32
  0
VERTEX
  8
7250LEVEL
 62
7
 10
1705.056
 20
-6032.643
 30
-1977.000
 70
    32
  0
VERTEX
  8
7250LEVEL
 62
7
 10
1703.856
 20
-6035.085
 30
-1977.000
 70
    32
  0
SEQEND
  8
7250LEVEL
  0
POLYLINE
  8
7250LEVEL
 62
7
 66
     1
 70
     8
  0
VERTEX
  8
7250LEVEL
 62
7
 10
1556.634
 20
-6570.481
 30
-1977.000
 70
    32
  0
VERTEX
  8
7250LEVEL
 62
7
 10
1556.752
 20
-6568.581
 30
-1977.000
 70
    32
  0
VERTEX
  8
7250LEVEL
 62
7
 10
1555.176
 20
-6562.803
 30
-1977.000
 70
    32
  0
VERTEX
  8
7250LEVEL
 62
7
 10
1554.555
 20
-6556.639
 30
-1977.000
 70
    32
  0
VERTEX
  8
7250LEVEL
 62
7
 10
1554.191
 20
-6549.201
 30
-1977.000
 70
    32
  0
VERTEX
  8
7250LEVEL
 62
7
 10
1553.723
 20
-6543.804
 30
-1977.000
 70
    32
  0
VERTEX
  8
7250LEVEL
 62
7
 10
1552.760
 20
-6540.774
 30
-1977.000
 70
    32
  0
VERTEX
  8
7250LEVEL
 62
7
 10
1552.846
 20
-6538.913
 30
-1977.000
 70
    32
  0
VERTEX
  8
7250LEVEL
 62
7
 10
1553.601
 20
-6537.978
 30
-1977.000
 70
    32
  0
VERTEX
  8
7250LEVEL
 62
7
 10
1556.064
 20
-6539.710
 30
-1977.000
 70
    32
  0
VERTEX
  8
7250LEVEL
 62
7
 10
1558.096
 20
-6541.736
 30
-1977.000
 70
    32
  0
VERTEX
  8
7250LEVEL
 62
7
 10
1560.066
 20
-6543.520
 30
-1977.000
 70
    32
  0
VERTEX
  8
7250LEVEL
 62
7
 10
1564.340
 20
-6549.225
 30
-1977.000
 70
    32
  0
VERTEX
  8
7250LEVEL
 62
7
 10
1568.273
 20
-6556.069
 30
-1977.000
 70
    32
  0
VERTEX
  8
7250LEVEL
 62
7
 10
1573.735
 20
-6565.243
 30
-1977.000
 70
    32
  0
VERTEX
  8
7250LEVEL
 62
7
 10
1577.564
 20
-6569.107
 30
-1977.000
 70
    32
  0
VERTEX
  8
7250LEVEL
 62
7
 10
1584.161
 20
-6574.885
 30
-1977.000
 70
    32
  0
VERTEX
  8
7250LEVEL
 62
7
 10
1587.287
 20
-6576.830
 30
-1977.000
 70
    32
  0
VERTEX
  8
7250LEVEL
 62
7
 10
1588.925
 20
-6577.831
 30
-1977.000
 70
    32
  0
VERTEX
  8
7250LEVEL
 62
7
 10
1587.211
 20
-6573.100
 30
-1977.000
 70
    32
  0
VERTEX
  8
7250LEVEL
 62
7
 10
1581.137
 20
-6560.859
 30
-1977.000
 70
    32
  0
VERTEX
  8
7250LEVEL
 62
7
 10
1572.294
 20
-6545.352
 30
-1977.000
 70
    32
  0
VERTEX
  8
7250LEVEL
 62
7
 10
1565.639
 20
-6533.671
 30
-1977.000
 70
    32
  0
VERTEX
  8
7250LEVEL
 62
7
 10
1558.151
 20
-6519.515
 30
-1977.000
 70
    32
  0
VERTEX
  8
7250LEVEL
 62
7
 10
1554.641
 20
-6512.625
 30
-1977.000
 70
    32
  0
VERTEX
  8
7250LEVEL
 62
7
 10
1552.540
 20
-6508.612
 30
-1977.000
 70
    32
  0
VERTEX
  8
7250LEVEL
 62
7
 10
1551.247
 20
-6505.831
 30
-1977.000
 70
    32
  0
VERTEX
  8
7250LEVEL
 62
7
 10
1550.864
 20
-6504.234
 30
-1977.000
 70
    32
  0
VERTEX
  8
7250LEVEL
 62
7
 10
1551.377
 20
-6503.040
 30
-1977.000
 70
    32
  0
VERTEX
  8
7250LEVEL
 62
7
 10
1553.304
 20
-6504.081
 30
-1977.000
 70
    32
  0
VERTEX
  8
7250LEVEL
 62
7
 10
1556.646
 20
-6508.389
 30
-1977.000
 70
    32
  0
VERTEX
  8
7250LEVEL
 62
7
 10
1562.647
 20
-6519.606
 30
-1977.000
 70
    32
  0
VERTEX
  8
7250LEVEL
 62
7
 10
1570.487
 20
-6532.051
 30
-1977.000
 70
    32
  0
VERTEX
  8
7250LEVEL
 62
7
 10
1576.822
 20
-6540.063
 30
-1977.000
 70
    32
  0
VERTEX
  8
7250LEVEL
 62
7
 10
1586.945
 20
-6550.877
 30
-1977.000
 70
    32
  0
VERTEX
  8
7250LEVEL
 62
7
 10
1594.826
 20
-6558.013
 30
-1977.000
 70
    32
  0
VERTEX
  8
7250LEVEL
 62
7
 10
1612.895
 20
-6578.590
 30
-1977.000
 70
    32
  0
VERTEX
  8
7250LEVEL
 62
7
 10
1625.900
 20
-6591.732
 30
-1977.000
 70
    32
  0
VERTEX
  8
7250LEVEL
 62
7
 10
1632.779
 20
-6597.159
 30
-1977.000
 70
    32
  0
VERTEX
  8
7250LEVEL
 62
7
 10
1647.533
 20
-6607.657
 30
-1977.000
 70
    32
  0
VERTEX
  8
7250LEVEL
 62
7
 10
1659.480
 20
-6614.538
 30
-1977.000
 70
    32
  0
VERTEX
  8
7250LEVEL
 62
7
 10
1678.058
 20
-6624.844
 30
-1977.000
 70
    32
  0
VERTEX
  8
7250LEVEL
 62
7
 10
1691.094
 20
-6632.926
 30
-1977.000
 70
    32
  0
VERTEX
  8
7250LEVEL
 62
7
 10
1706.470
 20
-6642.255
 30
-1977.000
 70
    32
  0
VERTEX
  8
7250LEVEL
 62
7
 10
1713.453
 20
-6648.988
 30
-1977.000
 70
    32
  0
VERTEX
  8
7250LEVEL
 62
7
 10
1725.561
 20
-6663.400
 30
-1977.000
 70
    32
  0
VERTEX
  8
7250LEVEL
 62
7
 10
1733.818
 20
-6677.082
 30
-1977.000
 70
    32
  0
VERTEX
  8
7250LEVEL
 62
7
 10
1738.079
 20
-6683.998
 30
-1977.000
 70
    32
  0
VERTEX
  8
7250LEVEL
 62
7
 10
1745.459
 20
-6692.790
 30
-1977.000
 70
    32
  0
VERTEX
  8
7250LEVEL
 62
7
 10
1752.798
 20
-6698.524
 30
-1977.000
 70
    32
  0
VERTEX
  8
7250LEVEL
 62
7
 10
1763.172
 20
-6705.679
 30
-1977.000
 70
    32
  0
VERTEX
  8
7250LEVEL
 62
7
 10
1773.511
 20
-6712.162
 30
-1977.000
 70
    32
  0
VERTEX
  8
7250LEVEL
 62
7
 10
1780.526
 20
-6713.516
 30
-1977.000
 70
    32
  0
VERTEX
  8
7250LEVEL
 62
7
 10
1783.019
 20
-6712.182
 30
-1977.000
 70
    32
  0
VERTEX
  8
7250LEVEL
 62
7
 10
1783.866
 20
-6711.451
 30
-1977.000
 70
    32
  0
VERTEX
  8
7250LEVEL
 62
7
 10
1786.101
 20
-6710.038
 30
-1977.000
 70
    32
  0
VERTEX
  8
7250LEVEL
 62
7
 10
1786.016
 20
-6708.232
 30
-1977.000
 70
    32
  0
VERTEX
  8
7250LEVEL
 62
7
 10
1785.595
 20
-6706.283
 30
-1977.000
 70
    32
  0
VERTEX
  8
7250LEVEL
 62
7
 10
1787.094
 20
-6704.984
 30
-1977.000
 70
    32
  0
VERTEX
  8
7250LEVEL
 62
7
 10
1792.700
 20
-6706.808
 30
-1977.000
 70
    32
  0
VERTEX
  8
7250LEVEL
 62
7
 10
1799.004
 20
-6708.166
 30
-1977.000
 70
    32
  0
VERTEX
  8
7250LEVEL
 62
7
 10
1802.692
 20
-6707.026
 30
-1977.000
 70
    32
  0
VERTEX
  8
7250LEVEL
 62
7
 10
1802.767
 20
-6704.384
 30
-1977.000
 70
    32
  0
VERTEX
  8
7250LEVEL
 62
7
 10
1802.336
 20
-6699.338
 30
-1977.000
 70
    32
  0
VERTEX
  8
7250LEVEL
 62
7
 10
1803.630
 20
-6691.760
 30
-1977.000
 70
    32
  0
VERTEX
  8
7250LEVEL
 62
7
 10
1805.225
 20
-6690.023
 30
-1977.000
 70
    32
  0
VERTEX
  8
7250LEVEL
 62
7
 10
1808.280
 20
-6688.951
 30
-1977.000
 70
    32
  0
VERTEX
  8
7250LEVEL
 62
7
 10
1810.341
 20
-6687.912
 30
-1977.000
 70
    32
  0
VERTEX
  8
7250LEVEL
 62
7
 10
1811.470
 20
-6683.805
 30
-1977.000
 70
    32
  0
VERTEX
  8
7250LEVEL
 62
7
 10
1810.925
 20
-6678.344
 30
-1977.000
 70
    32
  0
VERTEX
  8
7250LEVEL
 62
7
 10
1811.210
 20
-6674.006
 30
-1977.000
 70
    32
  0
VERTEX
  8
7250LEVEL
 62
7
 10
1813.192
 20
-6673.225
 30
-1977.000
 70
    32
  0
VERTEX
  8
7250LEVEL
 62
7
 10
1815.854
 20
-6672.479
 30
-1977.000
 70
    32
  0
VERTEX
  8
7250LEVEL
 62
7
 10
1817.127
 20
-6669.389
 30
-1977.000
 70
    32
  0
VERTEX
  8
7250LEVEL
 62
7
 10
1817.672
 20
-6666.482
 30
-1977.000
 70
    32
  0
VERTEX
  8
7250LEVEL
 62
7
 10
1817.768
 20
-6657.679
 30
-1977.000
 70
    32
  0
VERTEX
  8
7250LEVEL
 62
7
 10
1816.047
 20
-6649.210
 30
-1977.000
 70
    32
  0
VERTEX
  8
7250LEVEL
 62
7
 10
1810.078
 20
-6636.281
 30
-1977.000
 70
    32
  0
VERTEX
  8
7250LEVEL
 62
7
 10
1798.915
 20
-6618.707
 30
-1977.000
 70
    32
  0
VERTEX
  8
7250LEVEL
 62
7
 10
1792.695
 20
-6607.763
 30
-1977.000
 70
    32
  0
VERTEX
  8
7250LEVEL
 62
7
 10
1786.850
 20
-6591.652
 30
-1977.000
 70
    32
  0
VERTEX
  8
7250LEVEL
 62
7
 10
1782.277
 20
-6576.118
 30
-1977.000
 70
    32
  0
VERTEX
  8
7250LEVEL
 62
7
 10
1780.418
 20
-6562.003
 30
-1977.000
 70
    32
  0
VERTEX
  8
7250LEVEL
 62
7
 10
1781.445
 20
-6549.576
 30
-1977.000
 70
    32
  0
VERTEX
  8
7250LEVEL
 62
7
 10
1782.803
 20
-6543.272
 30
-1977.000
 70
    32
  0
VERTEX
  8
7250LEVEL
 62
7
 10
1786.370
 20
-6537.979
 30
-1977.000
 70
    32
  0
VERTEX
  8
7250LEVEL
 62
7
 10
1787.535
 20
-6531.197
 30
-1977.000
 70
    32
  0
VERTEX
  8
7250LEVEL
 62
7
 10
1786.959
 20
-6522.109
 30
-1977.000
 70
    32
  0
VERTEX
  8
7250LEVEL
 62
7
 10
1785.926
 20
-6510.399
 30
-1977.000
 70
    32
  0
VERTEX
  8
7250LEVEL
 62
7
 10
1788.286
 20
-6500.464
 30
-1977.000
 70
    32
  0
VERTEX
  8
7250LEVEL
 62
7
 10
1791.920
 20
-6494.131
 30
-1977.000
 70
    32
  0
VERTEX
  8
7250LEVEL
 62
7
 10
1794.543
 20
-6490.007
 30
-1977.000
 70
    32
  0
VERTEX
  8
7250LEVEL
 62
7
 10
1797.327
 20
-6484.726
 30
-1977.000
 70
    32
  0
VERTEX
  8
7250LEVEL
 62
7
 10
1800.859
 20
-6476.767
 30
-1977.000
 70
    32
  0
VERTEX
  8
7250LEVEL
 62
7
 10
1803.131
 20
-6469.013
 30
-1977.000
 70
    32
  0
VERTEX
  8
7250LEVEL
 62
7
 10
1803.669
 20
-6462.690
 30
-1977.000
 70
    32
  0
VERTEX
  8
7250LEVEL
 62
7
 10
1802.050
 20
-6457.522
 30
-1977.000
 70
    32
  0
VERTEX
  8
7250LEVEL
 62
7
 10
1798.263
 20
-6453.047
 30
-1977.000
 70
    32
  0
VERTEX
  8
7250LEVEL
 62
7
 10
1792.353
 20
-6447.695
 30
-1977.000
 70
    32
  0
VERTEX
  8
7250LEVEL
 62
7
 10
1779.866
 20
-6437.418
 30
-1977.000
 70
    32
  0
VERTEX
  8
7250LEVEL
 62
7
 10
1772.118
 20
-6428.844
 30
-1977.000
 70
    32
  0
VERTEX
  8
7250LEVEL
 62
7
 10
1764.802
 20
-6414.634
 30
-1977.000
 70
    32
  0
VERTEX
  8
7250LEVEL
 62
7
 10
1754.601
 20
-6400.411
 30
-1977.000
 70
    32
  0
VERTEX
  8
7250LEVEL
 62
7
 10
1748.960
 20
-6387.554
 30
-1977.000
 70
    32
  0
VERTEX
  8
7250LEVEL
 62
7
 10
1744.188
 20
-6372.824
 30
-1977.000
 70
    32
  0
VERTEX
  8
7250LEVEL
 62
7
 10
1745.472
 20
-6362.149
 30
-1977.000
 70
    32
  0
VERTEX
  8
7250LEVEL
 62
7
 10
1749.058
 20
-6351.015
 30
-1977.000
 70
    32
  0
VERTEX
  8
7250LEVEL
 62
7
 10
1752.501
 20
-6340.217
 30
-1977.000
 70
    32
  0
VERTEX
  8
7250LEVEL
 62
7
 10
1753.242
 20
-6332.128
 30
-1977.000
 70
    32
  0
VERTEX
  8
7250LEVEL
 62
7
 10
1752.435
 20
-6315.516
 30
-1977.000
 70
    32
  0
VERTEX
  8
7250LEVEL
 62
7
 10
1748.156
 20
-6302.407
 30
-1977.000
 70
    32
  0
VERTEX
  8
7250LEVEL
 62
7
 10
1745.833
 20
-6295.641
 30
-1977.000
 70
    32
  0
VERTEX
  8
7250LEVEL
 62
7
 10
1741.012
 20
-6286.470
 30
-1977.000
 70
    32
  0
VERTEX
  8
7250LEVEL
 62
7
 10
1739.045
 20
-6280.698
 30
-1977.000
 70
    32
  0
VERTEX
  8
7250LEVEL
 62
7
 10
1738.233
 20
-6278.755
 30
-1977.000
 70
    32
  0
VERTEX
  8
7250LEVEL
 62
7
 10
1737.809
 20
-6277.448
 30
-1977.000
 70
    32
  0
VERTEX
  8
7250LEVEL
 62
7
 10
1738.304
 20
-6276.754
 30
-1977.000
 70
    32
  0
VERTEX
  8
7250LEVEL
 62
7
 10
1740.393
 20
-6278.312
 30
-1977.000
 70
    32
  0
VERTEX
  8
7250LEVEL
 62
7
 10
1743.612
 20
-6282.135
 30
-1977.000
 70
    32
  0
VERTEX
  8
7250LEVEL
 62
7
 10
1746.610
 20
-6286.551
 30
-1977.000
 70
    32
  0
VERTEX
  8
7250LEVEL
 62
7
 10
1750.834
 20
-6293.115
 30
-1977.000
 70
    32
  0
VERTEX
  8
7250LEVEL
 62
7
 10
1754.575
 20
-6302.507
 30
-1977.000
 70
    32
  0
VERTEX
  8
7250LEVEL
 62
7
 10
1756.640
 20
-6309.194
 30
-1977.000
 70
    32
  0
VERTEX
  8
7250LEVEL
 62
7
 10
1757.617
 20
-6321.053
 30
-1977.000
 70
    32
  0
VERTEX
  8
7250LEVEL
 62
7
 10
1758.181
 20
-6327.686
 30
-1977.000
 70
    32
  0
VERTEX
  8
7250LEVEL
 62
7
 10
1757.512
 20
-6338.794
 30
-1977.000
 70
    32
  0
VERTEX
  8
7250LEVEL
 62
7
 10
1756.081
 20
-6350.766
 30
-1977.000
 70
    32
  0
VERTEX
  8
7250LEVEL
 62
7
 10
1754.252
 20
-6359.007
 30
-1977.000
 70
    32
  0
VERTEX
  8
7250LEVEL
 62
7
 10
1753.115
 20
-6364.717
 30
-1977.000
 70
    32
  0
VERTEX
  8
7250LEVEL
 62
7
 10
1752.945
 20
-6374.491
 30
-1977.000
 70
    32
  0
VERTEX
  8
7250LEVEL
 62
7
 10
1754.498
 20
-6380.378
 30
-1977.000
 70
    32
  0
VERTEX
  8
7250LEVEL
 62
7
 10
1756.763
 20
-6387.613
 30
-1977.000
 70
    32
  0
VERTEX
  8
7250LEVEL
 62
7
 10
1763.598
 20
-6399.311
 30
-1977.000
 70
    32
  0
VERTEX
  8
7250LEVEL
 62
7
 10
1767.045
 20
-6404.605
 30
-1977.000
 70
    32
  0
VERTEX
  8
7250LEVEL
 62
7
 10
1772.530
 20
-6413.989
 30
-1977.000
 70
    32
  0
VERTEX
  8
7250LEVEL
 62
7
 10
1777.050
 20
-6420.664
 30
-1977.000
 70
    32
  0
VERTEX
  8
7250LEVEL
 62
7
 10
1785.374
 20
-6433.307
 30
-1977.000
 70
    32
  0
VERTEX
  8
7250LEVEL
 62
7
 10
1793.647
 20
-6441.790
 30
-1977.000
 70
    32
  0
VERTEX
  8
7250LEVEL
 62
7
 10
1801.773
 20
-6448.223
 30
-1977.000
 70
    32
  0
VERTEX
  8
7250LEVEL
 62
7
 10
1804.836
 20
-6451.920
 30
-1977.000
 70
    32
  0
VERTEX
  8
7250LEVEL
 62
7
 10
1807.371
 20
-6456.670
 30
-1977.000
 70
    32
  0
VERTEX
  8
7250LEVEL
 62
7
 10
1807.343
 20
-6464.435
 30
-1977.000
 70
    32
  0
VERTEX
  8
7250LEVEL
 62
7
 10
1805.972
 20
-6476.970
 30
-1977.000
 70
    32
  0
VERTEX
  8
7250LEVEL
 62
7
 10
1804.709
 20
-6481.163
 30
-1977.000
 70
    32
  0
VERTEX
  8
7250LEVEL
 62
7
 10
1802.036
 20
-6487.821
 30
-1977.000
 70
    32
  0
VERTEX
  8
7250LEVEL
 62
7
 10
1797.144
 20
-6497.385
 30
-1977.000
 70
    32
  0
VERTEX
  8
7250LEVEL
 62
7
 10
1793.876
 20
-6504.141
 30
-1977.000
 70
    32
  0
VERTEX
  8
7250LEVEL
 62
7
 10
1793.171
 20
-6509.556
 30
-1977.000
 70
    32
  0
VERTEX
  8
7250LEVEL
 62
7
 10
1794.153
 20
-6522.126
 30
-1977.000
 70
    32
  0
VERTEX
  8
7250LEVEL
 62
7
 10
1795.952
 20
-6532.010
 30
-1977.000
 70
    32
  0
VERTEX
  8
7250LEVEL
 62
7
 10
1796.183
 20
-6546.547
 30
-1977.000
 70
    32
  0
VERTEX
  8
7250LEVEL
 62
7
 10
1797.007
 20
-6554.292
 30
-1977.000
 70
    32
  0
VERTEX
  8
7250LEVEL
 62
7
 10
1796.673
 20
-6562.195
 30
-1977.000
 70
    32
  0
VERTEX
  8
7250LEVEL
 62
7
 10
1798.451
 20
-6571.868
 30
-1977.000
 70
    32
  0
VERTEX
  8
7250LEVEL
 62
7
 10
1799.964
 20
-6577.724
 30
-1977.000
 70
    32
  0
VERTEX
  8
7250LEVEL
 62
7
 10
1801.692
 20
-6581.243
 30
-1977.000
 70
    32
  0
VERTEX
  8
7250LEVEL
 62
7
 10
1804.437
 20
-6591.311
 30
-1977.000
 70
    32
  0
VERTEX
  8
7250LEVEL
 62
7
 10
1807.585
 20
-6598.808
 30
-1977.000
 70
    32
  0
VERTEX
  8
7250LEVEL
 62
7
 10
1811.606
 20
-6608.491
 30
-1977.000
 70
    32
  0
VERTEX
  8
7250LEVEL
 62
7
 10
1818.532
 20
-6620.713
 30
-1977.000
 70
    32
  0
VERTEX
  8
7250LEVEL
 62
7
 10
1825.974
 20
-6629.747
 30
-1977.000
 70
    32
  0
VERTEX
  8
7250LEVEL
 62
7
 10
1834.409
 20
-6636.753
 30
-1977.000
 70
    32
  0
VERTEX
  8
7250LEVEL
 62
7
 10
1839.868
 20
-6639.874
 30
-1977.000
 70
    32
  0
VERTEX
  8
7250LEVEL
 62
7
 10
1847.862
 20
-6646.073
 30
-1977.000
 70
    32
  0
VERTEX
  8
7250LEVEL
 62
7
 10
1852.587
 20
-6650.661
 30
-1977.000
 70
    32
  0
VERTEX
  8
7250LEVEL
 62
7
 10
1859.358
 20
-6657.737
 30
-1977.000
 70
    32
  0
VERTEX
  8
7250LEVEL
 62
7
 10
1863.457
 20
-6665.810
 30
-1977.000
 70
    32
  0
VERTEX
  8
7250LEVEL
 62
7
 10
1866.718
 20
-6674.043
 30
-1977.000
 70
    32
  0
VERTEX
  8
7250LEVEL
 62
7
 10
1870.529
 20
-6687.095
 30
-1977.000
 70
    32
  0
VERTEX
  8
7250LEVEL
 62
7
 10
1872.669
 20
-6699.506
 30
-1977.000
 70
    32
  0
VERTEX
  8
7250LEVEL
 62
7
 10
1873.199
 20
-6703.152
 30
-1977.000
 70
    32
  0
VERTEX
  8
7250LEVEL
 62
7
 10
1871.423
 20
-6706.866
 30
-1977.000
 70
    32
  0
VERTEX
  8
7250LEVEL
 62
7
 10
1868.333
 20
-6708.939
 30
-1977.000
 70
    32
  0
VERTEX
  8
7250LEVEL
 62
7
 10
1864.415
 20
-6708.929
 30
-1977.000
 70
    32
  0
VERTEX
  8
7250LEVEL
 62
7
 10
1859.431
 20
-6707.929
 30
-1977.000
 70
    32
  0
VERTEX
  8
7250LEVEL
 62
7
 10
1856.186
 20
-6706.209
 30
-1977.000
 70
    32
  0
VERTEX
  8
7250LEVEL
 62
7
 10
1852.205
 20
-6706.597
 30
-1977.000
 70
    32
  0
VERTEX
  8
7250LEVEL
 62
7
 10
1849.173
 20
-6707.881
 30
-1977.000
 70
    32
  0
VERTEX
  8
7250LEVEL
 62
7
 10
1847.339
 20
-6708.717
 30
-1977.000
 70
    32
  0
VERTEX
  8
7250LEVEL
 62
7
 10
1845.468
 20
-6709.201
 30
-1977.000
 70
    32
  0
VERTEX
  8
7250LEVEL
 62
7
 10
1843.734
 20
-6708.959
 30
-1977.000
 70
    32
  0
VERTEX
  8
7250LEVEL
 62
7
 10
1840.886
 20
-6707.624
 30
-1977.000
 70
    32
  0
VERTEX
  8
7250LEVEL
 62
7
 10
1837.920
 20
-6708.189
 30
-1977.000
 70
    32
  0
VERTEX
  8
7250LEVEL
 62
7
 10
1836.375
 20
-6710.739
 30
-1977.000
 70
    32
  0
VERTEX
  8
7250LEVEL
 62
7
 10
1835.535
 20
-6713.214
 30
-1977.000
 70
    32
  0
VERTEX
  8
7250LEVEL
 62
7
 10
1834.592
 20
-6717.729
 30
-1977.000
 70
    32
  0
VERTEX
  8
7250LEVEL
 62
7
 10
1832.412
 20
-6720.667
 30
-1977.000
 70
    32
  0
VERTEX
  8
7250LEVEL
 62
7
 10
1827.416
 20
-6723.904
 30
-1977.000
 70
    32
  0
VERTEX
  8
7250LEVEL
 62
7
 10
1824.859
 20
-6725.636
 30
-1977.000
 70
    32
  0
VERTEX
  8
7250LEVEL
 62
7
 10
1821.086
 20
-6728.316
 30
-1977.000
 70
    32
  0
VERTEX
  8
7250LEVEL
 62
7
 10
1820.532
 20
-6729.800
 30
-1977.000
 70
    32
  0
VERTEX
  8
7250LEVEL
 62
7
 10
1820.023
 20
-6731.705
 30
-1977.000
 70
    32
  0
VERTEX
  8
7250LEVEL
 62
7
 10
1817.963
 20
-6734.096
 30
-1977.000
 70
    32
  0
VERTEX
  8
7250LEVEL
 62
7
 10
1815.285
 20
-6735.022
 30
-1977.000
 70
    32
  0
VERTEX
  8
7250LEVEL
 62
7
 10
1812.328
 20
-6735.337
 30
-1977.000
 70
    32
  0
VERTEX
  8
7250LEVEL
 62
7
 10
1807.026
 20
-6735.367
 30
-1977.000
 70
    32
  0
VERTEX
  8
7250LEVEL
 62
7
 10
1805.095
 20
-6735.288
 30
-1977.000
 70
    32
  0
VERTEX
  8
7250LEVEL
 62
7
 10
1801.924
 20
-6736.266
 30
-1977.000
 70
    32
  0
VERTEX
  8
7250LEVEL
 62
7
 10
1799.566
 20
-6737.194
 30
-1977.000
 70
    32
  0
VERTEX
  8
7250LEVEL
 62
7
 10
1797.806
 20
-6737.381
 30
-1977.000
 70
    32
  0
VERTEX
  8
7250LEVEL
 62
7
 10
1796.702
 20
-6737.712
 30
-1977.000
 70
    32
  0
VERTEX
  8
7250LEVEL
 62
7
 10
1794.798
 20
-6740.229
 30
-1977.000
 70
    32
  0
VERTEX
  8
7250LEVEL
 62
7
 10
1793.989
 20
-6742.665
 30
-1977.000
 70
    32
  0
VERTEX
  8
7250LEVEL
 62
7
 10
1792.132
 20
-6746.957
 30
-1977.000
 70
    32
  0
VERTEX
  8
7250LEVEL
 62
7
 10
1788.886
 20
-6755.598
 30
-1977.000
 70
    32
  0
VERTEX
  8
7250LEVEL
 62
7
 10
1785.587
 20
-6762.393
 30
-1977.000
 70
    32
  0
VERTEX
  8
7250LEVEL
 62
7
 10
1780.609
 20
-6768.477
 30
-1977.000
 70
    32
  0
VERTEX
  8
7250LEVEL
 62
7
 10
1777.721
 20
-6772.451
 30
-1977.000
 70
    32
  0
VERTEX
  8
7250LEVEL
 62
7
 10
1775.699
 20
-6775.194
 30
-1977.000
 70
    32
  0
VERTEX
  8
7250LEVEL
 62
7
 10
1775.607
 20
-6783.357
 30
-1977.000
 70
    32
  0
VERTEX
  8
7250LEVEL
 62
7
 10
1776.717
 20
-6788.437
 30
-1977.000
 70
    32
  0
VERTEX
  8
7250LEVEL
 62
7
 10
1777.496
 20
-6795.759
 30
-1977.000
 70
    32
  0
VERTEX
  8
7250LEVEL
 62
7
 10
1775.840
 20
-6802.273
 30
-1977.000
 70
    32
  0
VERTEX
  8
7250LEVEL
 62
7
 10
1773.174
 20
-6803.981
 30
-1977.000
 70
    32
  0
VERTEX
  8
7250LEVEL
 62
7
 10
1770.351
 20
-6803.890
 30
-1977.000
 70
    32
  0
VERTEX
  8
7250LEVEL
 62
7
 10
1768.492
 20
-6805.155
 30
-1977.000
 70
    32
  0
VERTEX
  8
7250LEVEL
 62
7
 10
1765.149
 20
-6806.188
 30
-1977.000
 70
    32
  0
VERTEX
  8
7250LEVEL
 62
7
 10
1760.214
 20
-6806.322
 30
-1977.000
 70
    32
  0
VERTEX
  8
7250LEVEL
 62
7
 10
1754.516
 20
-6804.294
 30
-1977.000
 70
    32
  0
VERTEX
  8
7250LEVEL
 62
7
 10
1749.000
 20
-6801.641
 30
-1977.000
 70
    32
  0
VERTEX
  8
7250LEVEL
 62
7
 10
1744.510
 20
-6798.594
 30
-1977.000
 70
    32
  0
VERTEX
  8
7250LEVEL
 62
7
 10
1740.494
 20
-6797.989
 30
-1977.000
 70
    32
  0
VERTEX
  8
7250LEVEL
 62
7
 10
1737.721
 20
-6799.032
 30
-1977.000
 70
    32
  0
VERTEX
  8
7250LEVEL
 62
7
 10
1737.185
 20
-6800.015
 30
-1977.000
 70
    32
  0
VERTEX
  8
7250LEVEL
 62
7
 10
1736.368
 20
-6802.380
 30
-1977.000
 70
    32
  0
VERTEX
  8
7250LEVEL
 62
7
 10
1734.820
 20
-6804.219
 30
-1977.000
 70
    32
  0
VERTEX
  8
7250LEVEL
 62
7
 10
1733.172
 20
-6805.462
 30
-1977.000
 70
    32
  0
VERTEX
  8
7250LEVEL
 62
7
 10
1728.229
 20
-6807.519
 30
-1977.000
 70
    32
  0
VERTEX
  8
7250LEVEL
 62
7
 10
1725.722
 20
-6810.064
 30
-1977.000
 70
    32
  0
VERTEX
  8
7250LEVEL
 62
7
 10
1724.950
 20
-6814.846
 30
-1977.000
 70
    32
  0
VERTEX
  8
7250LEVEL
 62
7
 10
1723.012
 20
-6819.716
 30
-1977.000
 70
    32
  0
VERTEX
  8
7250LEVEL
 62
7
 10
1718.741
 20
-6821.738
 30
-1977.000
 70
    32
  0
VERTEX
  8
7250LEVEL
 62
7
 10
1710.870
 20
-6821.045
 30
-1977.000
 70
    32
  0
VERTEX
  8
7250LEVEL
 62
7
 10
1700.850
 20
-6818.551
 30
-1977.000
 70
    32
  0
VERTEX
  8
7250LEVEL
 62
7
 10
1692.236
 20
-6812.881
 30
-1977.000
 70
    32
  0
VERTEX
  8
7250LEVEL
 62
7
 10
1687.198
 20
-6810.036
 30
-1977.000
 70
    32
  0
VERTEX
  8
7250LEVEL
 62
7
 10
1680.263
 20
-6808.104
 30
-1977.000
 70
    32
  0
VERTEX
  8
7250LEVEL
 62
7
 10
1677.408
 20
-6810.045
 30
-1977.000
 70
    32
  0
VERTEX
  8
7250LEVEL
 62
7
 10
1674.731
 20
-6808.977
 30
-1977.000
 70
    32
  0
VERTEX
  8
7250LEVEL
 62
7
 10
1670.503
 20
-6806.722
 30
-1977.000
 70
    32
  0
VERTEX
  8
7250LEVEL
 62
7
 10
1668.718
 20
-6805.666
 30
-1977.000
 70
    32
  0
VERTEX
  8
7250LEVEL
 62
7
 10
1667.193
 20
-6805.721
 30
-1977.000
 70
    32
  0
VERTEX
  8
7250LEVEL
 62
7
 10
1667.488
 20
-6811.172
 30
-1977.000
 70
    32
  0
VERTEX
  8
7250LEVEL
 62
7
 10
1670.359
 20
-6817.738
 30
-1977.000
 70
    32
  0
VERTEX
  8
7250LEVEL
 62
7
 10
1676.821
 20
-6828.941
 30
-1977.000
 70
    32
  0
VERTEX
  8
7250LEVEL
 62
7
 10
1681.648
 20
-6835.156
 30
-1977.000
 70
    32
  0
VERTEX
  8
7250LEVEL
 62
7
 10
1687.583
 20
-6843.425
 30
-1977.000
 70
    32
  0
VERTEX
  8
7250LEVEL
 62
7
 10
1689.026
 20
-6849.288
 30
-1977.000
 70
    32
  0
VERTEX
  8
7250LEVEL
 62
7
 10
1688.588
 20
-6852.860
 30
-1977.000
 70
    32
  0
VERTEX
  8
7250LEVEL
 62
7
 10
1685.190
 20
-6853.720
 30
-1977.000
 70
    32
  0
VERTEX
  8
7250LEVEL
 62
7
 10
1682.572
 20
-6853.536
 30
-1977.000
 70
    32
  0
VERTEX
  8
7250LEVEL
 62
7
 10
1682.349
 20
-6856.123
 30
-1977.000
 70
    32
  0
VERTEX
  8
7250LEVEL
 62
7
 10
1686.207
 20
-6863.936
 30
-1977.000
 70
    32
  0
VERTEX
  8
7250LEVEL
 62
7
 10
1693.005
 20
-6874.961
 30
-1977.000
 70
    32
  0
VERTEX
  8
7250LEVEL
 62
7
 10
1702.001
 20
-6889.562
 30
-1977.000
 70
    32
  0
VERTEX
  8
7250LEVEL
 62
7
 10
1706.572
 20
-6897.050
 30
-1977.000
 70
    32
  0
VERTEX
  8
7250LEVEL
 62
7
 10
1717.590
 20
-6910.261
 30
-1977.000
 70
    32
  0
VERTEX
  8
7250LEVEL
 62
7
 10
1723.875
 20
-6914.113
 30
-1977.000
 70
    32
  0
VERTEX
  8
7250LEVEL
 62
7
 10
1731.527
 20
-6919.778
 30
-1977.000
 70
    32
  0
VERTEX
  8
7250LEVEL
 62
7
 10
1740.425
 20
-6928.444
 30
-1977.000
 70
    32
  0
VERTEX
  8
7250LEVEL
 62
7
 10
1749.775
 20
-6939.019
 30
-1977.000
 70
    32
  0
VERTEX
  8
7250LEVEL
 62
7
 10
1756.642
 20
-6948.684
 30
-1977.000
 70
    32
  0
VERTEX
  8
7250LEVEL
 62
7
 10
1762.157
 20
-6956.677
 30
-1977.000
 70
    32
  0
VERTEX
  8
7250LEVEL
 62
7
 10
1762.177
 20
-6959.203
 30
-1977.000
 70
    32
  0
VERTEX
  8
7250LEVEL
 62
7
 10
1759.401
 20
-6960.887
 30
-1977.000
 70
    32
  0
VERTEX
  8
7250LEVEL
 62
7
 10
1756.643
 20
-6960.397
 30
-1977.000
 70
    32
  0
VERTEX
  8
7250LEVEL
 62
7
 10
1753.507
 20
-6958.702
 30
-1977.000
 70
    32
  0
VERTEX
  8
7250LEVEL
 62
7
 10
1750.236
 20
-6957.733
 30
-1977.000
 70
    32
  0
VERTEX
  8
7250LEVEL
 62
7
 10
1749.061
 20
-6959.745
 30
-1977.000
 70
    32
  0
VERTEX
  8
7250LEVEL
 62
7
 10
1750.759
 20
-6964.655
 30
-1977.000
 70
    32
  0
VERTEX
  8
7250LEVEL
 62
7
 10
1753.949
 20
-6971.543
 30
-1977.000
 70
    32
  0
VERTEX
  8
7250LEVEL
 62
7
 10
1759.665
 20
-6983.431
 30
-1977.000
 70
    32
  0
VERTEX
  8
7250LEVEL
 62
7
 10
1764.356
 20
-6993.719
 30
-1977.000
 70
    32
  0
VERTEX
  8
7250LEVEL
 62
7
 10
1771.946
 20
-7007.828
 30
-1977.000
 70
    32
  0
VERTEX
  8
7250LEVEL
 62
7
 10
1775.491
 20
-7017.384
 30
-1977.000
 70
    32
  0
VERTEX
  8
7250LEVEL
 62
7
 10
1778.170
 20
-7024.825
 30
-1977.000
 70
    32
  0
VERTEX
  8
7250LEVEL
 62
7
 10
1782.565
 20
-7031.335
 30
-1977.000
 70
    32
  0
VERTEX
  8
7250LEVEL
 62
7
 10
1788.761
 20
-7035.695
 30
-1977.000
 70
    32
  0
VERTEX
  8
7250LEVEL
 62
7
 10
1798.766
 20
-7045.062
 30
-1977.000
 70
    32
  0
VERTEX
  8
7250LEVEL
 62
7
 10
1804.899
 20
-7051.173
 30
-1977.000
 70
    32
  0
VERTEX
  8
7250LEVEL
 62
7
 10
1813.305
 20
-7061.244
 30
-1977.000
 70
    32
  0
VERTEX
  8
7250LEVEL
 62
7
 10
1821.687
 20
-7071.424
 30
-1977.000
 70
    32
  0
VERTEX
  8
7250LEVEL
 62
7
 10
1827.250
 20
-7077.525
 30
-1977.000
 70
    32
  0
VERTEX
  8
7250LEVEL
 62
7
 10
1835.475
 20
-7087.900
 30
-1977.000
 70
    32
  0
VERTEX
  8
7250LEVEL
 62
7
 10
1840.576
 20
-7095.688
 30
-1977.000
 70
    32
  0
VERTEX
  8
7250LEVEL
 62
7
 10
1845.360
 20
-7101.160
 30
-1977.000
 70
    32
  0
VERTEX
  8
7250LEVEL
 62
7
 10
1849.737
 20
-7106.497
 30
-1977.000
 70
    32
  0
VERTEX
  8
7250LEVEL
 62
7
 10
1851.850
 20
-7109.619
 30
-1977.000
 70
    32
  0
VERTEX
  8
7250LEVEL
 62
7
 10
1852.888
 20
-7111.680
 30
-1977.000
 70
    32
  0
VERTEX
  8
7250LEVEL
 62
7
 10
1857.401
 20
-7119.958
 30
-1977.000
 70
    32
  0
VERTEX
  8
7250LEVEL
 62
7
 10
1859.813
 20
-7124.222
 30
-1977.000
 70
    32
  0
VERTEX
  8
7250LEVEL
 62
7
 10
1864.678
 20
-7134.136
 30
-1977.000
 70
    32
  0
VERTEX
  8
7250LEVEL
 62
7
 10
1866.978
 20
-7142.365
 30
-1977.000
 70
    32
  0
VERTEX
  8
7250LEVEL
 62
7
 10
1868.789
 20
-7151.357
 30
-1977.000
 70
    32
  0
VERTEX
  8
7250LEVEL
 62
7
 10
1873.405
 20
-7159.268
 30
-1977.000
 70
    32
  0
VERTEX
  8
7250LEVEL
 62
7
 10
1880.702
 20
-7170.952
 30
-1977.000
 70
    32
  0
VERTEX
  8
7250LEVEL
 62
7
 10
1886.816
 20
-7179.558
 30
-1977.000
 70
    32
  0
VERTEX
  8
7250LEVEL
 62
7
 10
1891.012
 20
-7190.219
 30
-1977.000
 70
    32
  0
VERTEX
  8
7250LEVEL
 62
7
 10
1893.408
 20
-7201.357
 30
-1977.000
 70
    32
  0
VERTEX
  8
7250LEVEL
 62
7
 10
1894.681
 20
-7208.627
 30
-1977.000
 70
    32
  0
VERTEX
  8
7250LEVEL
 62
7
 10
1896.015
 20
-7216.139
 30
-1977.000
 70
    32
  0
VERTEX
  8
7250LEVEL
 62
7
 10
1896.313
 20
-7222.623
 30
-1977.000
 70
    32
  0
VERTEX
  8
7250LEVEL
 62
7
 10
1896.192
 20
-7231.856
 30
-1977.000
 70
    32
  0
VERTEX
  8
7250LEVEL
 62
7
 10
1896.059
 20
-7238.635
 30
-1977.000
 70
    32
  0
VERTEX
  8
7250LEVEL
 62
7
 10
1898.340
 20
-7244.338
 30
-1977.000
 70
    32
  0
VERTEX
  8
7250LEVEL
 62
7
 10
1901.609
 20
-7255.988
 30
-1977.000
 70
    32
  0
VERTEX
  8
7250LEVEL
 62
7
 10
1902.026
 20
-7265.592
 30
-1977.000
 70
    32
  0
VERTEX
  8
7250LEVEL
 62
7
 10
1901.718
 20
-7274.739
 30
-1977.000
 70
    32
  0
VERTEX
  8
7250LEVEL
 62
7
 10
1900.230
 20
-7287.180
 30
-1977.000
 70
    32
  0
VERTEX
  8
7250LEVEL
 62
7
 10
1896.492
 20
-7297.547
 30
-1977.000
 70
    32
  0
VERTEX
  8
7250LEVEL
 62
7
 10
1895.240
 20
-7302.842
 30
-1977.000
 70
    32
  0
VERTEX
  8
7250LEVEL
 62
7
 10
1895.664
 20
-7309.170
 30
-1977.000
 70
    32
  0
VERTEX
  8
7250LEVEL
 62
7
 10
1898.536
 20
-7315.415
 30
-1977.000
 70
    32
  0
VERTEX
  8
7250LEVEL
 62
7
 10
1899.785
 20
-7324.468
 30
-1977.000
 70
    32
  0
VERTEX
  8
7250LEVEL
 62
7
 10
1898.506
 20
-7330.514
 30
-1977.000
 70
    32
  0
VERTEX
  8
7250LEVEL
 62
7
 10
1896.466
 20
-7340.450
 30
-1977.000
 70
    32
  0
VERTEX
  8
7250LEVEL
 62
7
 10
1895.514
 20
-7343.542
 30
-1977.000
 70
    32
  0
VERTEX
  8
7250LEVEL
 62
7
 10
1893.457
 20
-7345.292
 30
-1977.000
 70
    32
  0
VERTEX
  8
7250LEVEL
 62
7
 10
1889.071
 20
-7341.878
 30
-1977.000
 70
    32
  0
VERTEX
  8
7250LEVEL
 62
7
 10
1885.586
 20
-7337.906
 30
-1977.000
 70
    32
  0
VERTEX
  8
7250LEVEL
 62
7
 10
1879.731
 20
-7330.732
 30
-1977.000
 70
    32
  0
VERTEX
  8
7250LEVEL
 62
7
 10
1876.534
 20
-7325.447
 30
-1977.000
 70
    32
  0
VERTEX
  8
7250LEVEL
 62
7
 10
1875.221
 20
-7316.793
 30
-1977.000
 70
    32
  0
VERTEX
  8
7250LEVEL
 62
7
 10
1875.310
 20
-7305.925
 30
-1977.000
 70
    32
  0
VERTEX
  8
7250LEVEL
 62
7
 10
1874.633
 20
-7296.883
 30
-1977.000
 70
    32
  0
VERTEX
  8
7250LEVEL
 62
7
 10
1870.636
 20
-7283.423
 30
-1977.000
 70
    32
  0
VERTEX
  8
7250LEVEL
 62
7
 10
1866.690
 20
-7271.098
 30
-1977.000
 70
    32
  0
VERTEX
  8
7250LEVEL
 62
7
 10
1863.516
 20
-7259.010
 30
-1977.000
 70
    32
  0
VERTEX
  8
7250LEVEL
 62
7
 10
1861.531
 20
-7250.392
 30
-1977.000
 70
    32
  0
VERTEX
  8
7250LEVEL
 62
7
 10
1860.246
 20
-7238.994
 30
-1977.000
 70
    32
  0
VERTEX
  8
7250LEVEL
 62
7
 10
1859.546
 20
-7229.741
 30
-1977.000
 70
    32
  0
VERTEX
  8
7250LEVEL
 62
7
 10
1858.608
 20
-7224.607
 30
-1977.000
 70
    32
  0
VERTEX
  8
7250LEVEL
 62
7
 10
1856.670
 20
-7217.444
 30
-1977.000
 70
    32
  0
VERTEX
  8
7250LEVEL
 62
7
 10
1852.413
 20
-7202.873
 30
-1977.000
 70
    32
  0
VERTEX
  8
7250LEVEL
 62
7
 10
1849.868
 20
-7193.673
 30
-1977.000
 70
    32
  0
VERTEX
  8
7250LEVEL
 62
7
 10
1845.455
 20
-7178.976
 30
-1977.000
 70
    32
  0
VERTEX
  8
7250LEVEL
 62
7
 10
1839.141
 20
-7161.135
 30
-1977.000
 70
    32
  0
VERTEX
  8
7250LEVEL
 62
7
 10
1834.089
 20
-7147.788
 30
-1977.000
 70
    32
  0
VERTEX
  8
7250LEVEL
 62
7
 10
1827.967
 20
-7132.419
 30
-1977.000
 70
    32
  0
VERTEX
  8
7250LEVEL
 62
7
 10
1823.246
 20
-7120.176
 30
-1977.000
 70
    32
  0
VERTEX
  8
7250LEVEL
 62
7
 10
1814.361
 20
-7103.605
 30
-1977.000
 70
    32
  0
VERTEX
  8
7250LEVEL
 62
7
 10
1808.186
 20
-7093.083
 30
-1977.000
 70
    32
  0
VERTEX
  8
7250LEVEL
 62
7
 10
1798.347
 20
-7078.252
 30
-1977.000
 70
    32
  0
VERTEX
  8
7250LEVEL
 62
7
 10
1784.506
 20
-7064.950
 30
-1977.000
 70
    32
  0
VERTEX
  8
7250LEVEL
 62
7
 10
1773.991
 20
-7054.463
 30
-1977.000
 70
    32
  0
VERTEX
  8
7250LEVEL
 62
7
 10
1761.835
 20
-7043.617
 30
-1977.000
 70
    32
  0
VERTEX
  8
7250LEVEL
 62
7
 10
1755.465
 20
-7034.611
 30
-1977.000
 70
    32
  0
VERTEX
  8
7250LEVEL
 62
7
 10
1744.493
 20
-7017.836
 30
-1977.000
 70
    32
  0
VERTEX
  8
7250LEVEL
 62
7
 10
1732.894
 20
-6999.845
 30
-1977.000
 70
    32
  0
VERTEX
  8
7250LEVEL
 62
7
 10
1726.566
 20
-6988.556
 30
-1977.000
 70
    32
  0
VERTEX
  8
7250LEVEL
 62
7
 10
1716.091
 20
-6972.760
 30
-1977.000
 70
    32
  0
VERTEX
  8
7250LEVEL
 62
7
 10
1709.452
 20
-6962.573
 30
-1977.000
 70
    32
  0
VERTEX
  8
7250LEVEL
 62
7
 10
1703.686
 20
-6954.891
 30
-1977.000
 70
    32
  0
VERTEX
  8
7250LEVEL
 62
7
 10
1701.140
 20
-6950.712
 30
-1977.000
 70
    32
  0
VERTEX
  8
7250LEVEL
 62
7
 10
1697.861
 20
-6946.326
 30
-1977.000
 70
    32
  0
VERTEX
  8
7250LEVEL
 62
7
 10
1696.388
 20
-6943.527
 30
-1977.000
 70
    32
  0
SEQEND
  8
7250LEVEL
  0
POLYLINE
  8
7250LEVEL
 62
7
 66
     1
 70
     9
  0
VERTEX
  8
7250LEVEL
 62
7
 10
1501.594
 20
-5810.708
 30
-1977.000
 70
    32
  0
VERTEX
  8
7250LEVEL
 62
7
 10
1503.867
 20
-5812.481
 30
-1977.000
 70
    32
  0
VERTEX
  8
7250LEVEL
 62
7
 10
1506.113
 20
-5814.392
 30
-1977.000
 70
    32
  0
VERTEX
  8
7250LEVEL
 62
7
 10
1508.081
 20
-5815.890
 30
-1977.000
 70
    32
  0
VERTEX
  8
7250LEVEL
 62
7
 10
1509.468
 20
-5817.059
 30
-1977.000
 70
    32
  0
VERTEX
  8
7250LEVEL
 62
7
 10
1510.578
 20
-5818.174
 30
-1977.000
 70
    32
  0
VERTEX
  8
7250LEVEL
 62
7
 10
1511.217
 20
-5819.125
 30
-1977.000
 70
    32
  0
VERTEX
  8
7250LEVEL
 62
7
 10
1510.627
 20
-5819.942
 30
-1977.000
 70
    32
  0
VERTEX
  8
7250LEVEL
 62
7
 10
1508.690
 20
-5819.384
 30
-1977.000
 70
    32
  0
VERTEX
  8
7250LEVEL
 62
7
 10
1505.742
 20
-5818.125
 30
-1977.000
 70
    32
  0
VERTEX
  8
7250LEVEL
 62
7
 10
1502.043
 20
-5815.929
 30
-1977.000
 70
    32
  0
VERTEX
  8
7250LEVEL
 62
7
 10
1498.632
 20
-5812.820
 30
-1977.000
 70
    32
  0
VERTEX
  8
7250LEVEL
 62
7
 10
1496.784
 20
-5810.340
 30
-1977.000
 70
    32
  0
VERTEX
  8
7250LEVEL
 62
7
 10
1494.584
 20
-5806.176
 30
-1977.000
 70
    32
  0
VERTEX
  8
7250LEVEL
 62
7
 10
1493.259
 20
-5803.225
 30
-1977.000
 70
    32
  0
VERTEX
  8
7250LEVEL
 62
7
 10
1492.557
 20
-5800.395
 30
-1977.000
 70
    32
  0
VERTEX
  8
7250LEVEL
 62
7
 10
1492.466
 20
-5798.475
 30
-1977.000
 70
    32
  0
VERTEX
  8
7250LEVEL
 62
7
 10
1492.833
 20
-5796.967
 30
-1977.000
 70
    32
  0
VERTEX
  8
7250LEVEL
 62
7
 10
1493.191
 20
-5796.606
 30
-1977.000
 70
    32
  0
VERTEX
  8
7250LEVEL
 62
7
 10
1494.785
 20
-5797.816
 30
-1977.000
 70
    32
  0
VERTEX
  8
7250LEVEL
 62
7
 10
1495.774
 20
-5799.733
 30
-1977.000
 70
    32
  0
VERTEX
  8
7250LEVEL
 62
7
 10
1496.502
 20
-5802.065
 30
-1977.000
 70
    32
  0
VERTEX
  8
7250LEVEL
 62
7
 10
1497.049
 20
-5804.218
 30
-1977.000
 70
    32
  0
VERTEX
  8
7250LEVEL
 62
7
 10
1497.500
 20
-5806.316
 30
-1977.000
 70
    32
  0
VERTEX
  8
7250LEVEL
 62
7
 10
1498.432
 20
-5807.971
 30
-1977.000
 70
    32
  0
SEQEND
  8
7250LEVEL
  0
POLYLINE
  8
7250LEVEL
 62
13
 66
     1
 70
     8
  0
VERTEX
  8
7250LEVEL
 62
13
 10
2213.206
 20
-6907.203
 30
-1977.000
 70
    32
  0
VERTEX
  8
7250LEVEL
 62
13
 10
2202.878
 20
-6891.783
 30
-1977.000
 70
    32
  0
VERTEX
  8
7250LEVEL
 62
13
 10
2195.021
 20
-6877.844
 30
-1977.000
 70
    32
  0
VERTEX
  8
7250LEVEL
 62
13
 10
2187.256
 20
-6861.083
 30
-1977.000
 70
    32
  0
VERTEX
  8
7250LEVEL
 62
13
 10
2181.949
 20
-6843.669
 30
-1977.000
 70
    32
  0
VERTEX
  8
7250LEVEL
 62
13
 10
2177.281
 20
-6826.578
 30
-1977.000
 70
    32
  0
VERTEX
  8
7250LEVEL
 62
13
 10
2166.259
 20
-6810.662
 30
-1977.000
 70
    32
  0
VERTEX
  8
7250LEVEL
 62
13
 10
2161.219
 20
-6796.424
 30
-1977.000
 70
    32
  0
VERTEX
  8
7250LEVEL
 62
13
 10
2155.441
 20
-6775.927
 30
-1977.000
 70
    32
  0
VERTEX
  8
7250LEVEL
 62
13
 10
2152.087
 20
-6757.130
 30
-1977.000
 70
    32
  0
VERTEX
  8
7250LEVEL
 62
13
 10
2148.550
 20
-6732.264
 30
-1977.000
 70
    32
  0
VERTEX
  8
7250LEVEL
 62
13
 10
2145.617
 20
-6715.416
 30
-1977.000
 70
    32
  0
VERTEX
  8
7250LEVEL
 62
13
 10
2137.594
 20
-6695.229
 30
-1977.000
 70
    32
  0
VERTEX
  8
7250LEVEL
 62
13
 10
2130.993
 20
-6687.067
 30
-1977.000
 70
    32
  0
VERTEX
  8
7250LEVEL
 62
13
 10
2124.972
 20
-6682.011
 30
-1977.000
 70
    32
  0
VERTEX
  8
7250LEVEL
 62
13
 10
2121.657
 20
-6681.973
 30
-1977.000
 70
    32
  0
VERTEX
  8
7250LEVEL
 62
13
 10
2118.015
 20
-6684.888
 30
-1977.000
 70
    32
  0
VERTEX
  8
7250LEVEL
 62
13
 10
2115.989
 20
-6690.266
 30
-1977.000
 70
    32
  0
VERTEX
  8
7250LEVEL
 62
13
 10
2115.067
 20
-6698.660
 30
-1977.000
 70
    32
  0
VERTEX
  8
7250LEVEL
 62
13
 10
2112.257
 20
-6706.044
 30
-1977.000
 70
    32
  0
VERTEX
  8
7250LEVEL
 62
13
 10
2110.133
 20
-6710.506
 30
-1977.000
 70
    32
  0
VERTEX
  8
7250LEVEL
 62
13
 10
2107.552
 20
-6714.021
 30
-1977.000
 70
    32
  0
VERTEX
  8
7250LEVEL
 62
13
 10
2104.285
 20
-6715.437
 30
-1977.000
 70
    32
  0
VERTEX
  8
7250LEVEL
 62
13
 10
2099.217
 20
-6713.983
 30
-1977.000
 70
    32
  0
VERTEX
  8
7250LEVEL
 62
13
 10
2092.353
 20
-6708.696
 30
-1977.000
 70
    32
  0
VERTEX
  8
7250LEVEL
 62
13
 10
2087.142
 20
-6702.558
 30
-1977.000
 70
    32
  0
VERTEX
  8
7250LEVEL
 62
13
 10
2081.930
 20
-6693.393
 30
-1977.000
 70
    32
  0
VERTEX
  8
7250LEVEL
 62
13
 10
2079.327
 20
-6684.663
 30
-1977.000
 70
    32
  0
VERTEX
  8
7250LEVEL
 62
13
 10
2086.007
 20
-6670.494
 30
-1977.000
 70
    32
  0
VERTEX
  8
7250LEVEL
 62
13
 10
2095.995
 20
-6649.600
 30
-1977.000
 70
    32
  0
VERTEX
  8
7250LEVEL
 62
13
 10
2095.511
 20
-6642.709
 30
-1977.000
 70
    32
  0
VERTEX
  8
7250LEVEL
 62
13
 10
2090.479
 20
-6629.894
 30
-1977.000
 70
    32
  0
VERTEX
  8
7250LEVEL
 62
13
 10
2087.297
 20
-6624.750
 30
-1977.000
 70
    32
  0
VERTEX
  8
7250LEVEL
 62
13
 10
2077.914
 20
-6614.534
 30
-1977.000
 70
    32
  0
VERTEX
  8
7250LEVEL
 62
13
 10
2063.879
 20
-6604.422
 30
-1977.000
 70
    32
  0
VERTEX
  8
7250LEVEL
 62
13
 10
2051.862
 20
-6590.534
 30
-1977.000
 70
    32
  0
VERTEX
  8
7250LEVEL
 62
13
 10
2048.038
 20
-6578.694
 30
-1977.000
 70
    32
  0
VERTEX
  8
7250LEVEL
 62
13
 10
2045.429
 20
-6562.880
 30
-1977.000
 70
    32
  0
VERTEX
  8
7250LEVEL
 62
13
 10
2040.306
 20
-6549.540
 30
-1977.000
 70
    32
  0
VERTEX
  8
7250LEVEL
 62
13
 10
2038.956
 20
-6545.554
 30
-1977.000
 70
    32
  0
VERTEX
  8
7250LEVEL
 62
13
 10
2041.805
 20
-6539.875
 30
-1977.000
 70
    32
  0
VERTEX
  8
7250LEVEL
 62
13
 10
2045.707
 20
-6536.398
 30
-1977.000
 70
    32
  0
VERTEX
  8
7250LEVEL
 62
13
 10
2048.402
 20
-6525.252
 30
-1977.000
 70
    32
  0
VERTEX
  8
7250LEVEL
 62
13
 10
2048.326
 20
-6511.162
 30
-1977.000
 70
    32
  0
VERTEX
  8
7250LEVEL
 62
13
 10
2042.491
 20
-6494.480
 30
-1977.000
 70
    32
  0
VERTEX
  8
7250LEVEL
 62
13
 10
2030.789
 20
-6470.163
 30
-1977.000
 70
    32
  0
VERTEX
  8
7250LEVEL
 62
13
 10
2018.622
 20
-6448.174
 30
-1977.000
 70
    32
  0
VERTEX
  8
7250LEVEL
 62
13
 10
2006.565
 20
-6425.889
 30
-1977.000
 70
    32
  0
VERTEX
  8
7250LEVEL
 62
13
 10
1994.429
 20
-6407.528
 30
-1977.000
 70
    32
  0
VERTEX
  8
7250LEVEL
 62
13
 10
1978.323
 20
-6384.998
 30
-1977.000
 70
    32
  0
VERTEX
  8
7250LEVEL
 62
13
 10
1967.037
 20
-6368.611
 30
-1977.000
 70
    32
  0
VERTEX
  8
7250LEVEL
 62
13
 10
1952.136
 20
-6342.677
 30
-1977.000
 70
    32
  0
VERTEX
  8
7250LEVEL
 62
13
 10
1943.905
 20
-6326.891
 30
-1977.000
 70
    32
  0
VERTEX
  8
7250LEVEL
 62
13
 10
1938.355
 20
-6306.192
 30
-1977.000
 70
    32
  0
VERTEX
  8
7250LEVEL
 62
13
 10
1931.599
 20
-6285.870
 30
-1977.000
 70
    32
  0
VERTEX
  8
7250LEVEL
 62
13
 10
1925.090
 20
-6264.525
 30
-1977.000
 70
    32
  0
VERTEX
  8
7250LEVEL
 62
13
 10
1919.176
 20
-6248.101
 30
-1977.000
 70
    32
  0
VERTEX
  8
7250LEVEL
 62
13
 10
1909.690
 20
-6233.232
 30
-1977.000
 70
    32
  0
VERTEX
  8
7250LEVEL
 62
13
 10
1893.740
 20
-6207.481
 30
-1977.000
 70
    32
  0
VERTEX
  8
7250LEVEL
 62
13
 10
1879.300
 20
-6184.879
 30
-1977.000
 70
    32
  0
VERTEX
  8
7250LEVEL
 62
13
 10
1866.692
 20
-6165.430
 30
-1977.000
 70
    32
  0
VERTEX
  8
7250LEVEL
 62
13
 10
1852.177
 20
-6142.124
 30
-1977.000
 70
    32
  0
VERTEX
  8
7250LEVEL
 62
13
 10
1839.536
 20
-6124.708
 30
-1977.000
 70
    32
  0
VERTEX
  8
7250LEVEL
 62
13
 10
1829.591
 20
-6112.558
 30
-1977.000
 70
    32
  0
VERTEX
  8
7250LEVEL
 62
13
 10
1819.337
 20
-6097.842
 30
-1977.000
 70
    32
  0
VERTEX
  8
7250LEVEL
 62
13
 10
1809.320
 20
-6082.673
 30
-1977.000
 70
    32
  0
VERTEX
  8
7250LEVEL
 62
13
 10
1801.777
 20
-6070.339
 30
-1977.000
 70
    32
  0
VERTEX
  8
7250LEVEL
 62
13
 10
1799.011
 20
-6061.413
 30
-1977.000
 70
    32
  0
VERTEX
  8
7250LEVEL
 62
13
 10
1795.419
 20
-6046.735
 30
-1977.000
 70
    32
  0
VERTEX
  8
7250LEVEL
 62
13
 10
1793.038
 20
-6037.412
 30
-1977.000
 70
    32
  0
VERTEX
  8
7250LEVEL
 62
13
 10
1788.309
 20
-6021.751
 30
-1977.000
 70
    32
  0
VERTEX
  8
7250LEVEL
 62
13
 10
1784.307
 20
-6007.901
 30
-1977.000
 70
    32
  0
VERTEX
  8
7250LEVEL
 62
13
 10
1781.535
 20
-5990.217
 30
-1977.000
 70
    32
  0
VERTEX
  8
7250LEVEL
 62
13
 10
1781.133
 20
-5982.427
 30
-1977.000
 70
    32
  0
VERTEX
  8
7250LEVEL
 62
13
 10
1780.928
 20
-5965.787
 30
-1977.000
 70
    32
  0
VERTEX
  8
7250LEVEL
 62
13
 10
1779.217
 20
-5941.688
 30
-1977.000
 70
    32
  0
VERTEX
  8
7250LEVEL
 62
13
 10
1771.513
 20
-5918.477
 30
-1977.000
 70
    32
  0
VERTEX
  8
7250LEVEL
 62
13
 10
1760.043
 20
-5892.676
 30
-1977.000
 70
    32
  0
VERTEX
  8
7250LEVEL
 62
13
 10
1746.609
 20
-5870.822
 30
-1977.000
 70
    32
  0
VERTEX
  8
7250LEVEL
 62
13
 10
1738.859
 20
-5859.221
 30
-1977.000
 70
    32
  0
VERTEX
  8
7250LEVEL
 62
13
 10
1731.404
 20
-5846.379
 30
-1977.000
 70
    32
  0
VERTEX
  8
7250LEVEL
 62
13
 10
1723.369
 20
-5830.430
 30
-1977.000
 70
    32
  0
VERTEX
  8
7250LEVEL
 62
13
 10
1716.058
 20
-5816.932
 30
-1977.000
 70
    32
  0
VERTEX
  8
7250LEVEL
 62
13
 10
1706.671
 20
-5793.971
 30
-1977.000
 70
    32
  0
VERTEX
  8
7250LEVEL
 62
13
 10
1701.094
 20
-5772.349
 30
-1977.000
 70
    32
  0
VERTEX
  8
7250LEVEL
 62
13
 10
1698.420
 20
-5758.606
 30
-1977.000
 70
    32
  0
VERTEX
  8
7250LEVEL
 62
13
 10
1693.061
 20
-5742.372
 30
-1977.000
 70
    32
  0
VERTEX
  8
7250LEVEL
 62
13
 10
1685.736
 20
-5725.066
 30
-1977.000
 70
    32
  0
VERTEX
  8
7250LEVEL
 62
13
 10
1677.756
 20
-5710.642
 30
-1977.000
 70
    32
  0
VERTEX
  8
7250LEVEL
 62
13
 10
1672.088
 20
-5696.862
 30
-1977.000
 70
    32
  0
VERTEX
  8
7250LEVEL
 62
13
 10
1668.596
 20
-5687.799
 30
-1977.000
 70
    32
  0
VERTEX
  8
7250LEVEL
 62
13
 10
1664.395
 20
-5681.446
 30
-1977.000
 70
    32
  0
VERTEX
  8
7250LEVEL
 62
13
 10
1662.672
 20
-5678.639
 30
-1977.000
 70
    32
  0
VERTEX
  8
7250LEVEL
 62
13
 10
1661.151
 20
-5676.059
 30
-1977.000
 70
    32
  0
SEQEND
  8
7250LEVEL
  0
POLYLINE
  8
7250LEVEL
 62
13
 66
     1
 70
     8
  0
VERTEX
  8
7250LEVEL
 62
13
 10
1647.362
 20
-5681.978
 30
-1977.000
 70
    32
  0
VERTEX
  8
7250LEVEL
 62
13
 10
1652.467
 20
-5690.798
 30
-1977.000
 70
    32
  0
VERTEX
  8
7250LEVEL
 62
13
 10
1657.836
 20
-5701.441
 30
-1977.000
 70
    32
  0
VERTEX
  8
7250LEVEL
 62
13
 10
1661.266
 20
-5708.908
 30
-1977.000
 70
    32
  0
VERTEX
  8
7250LEVEL
 62
13
 10
1667.443
 20
-5717.436
 30
-1977.000
 70
    32
  0
VERTEX
  8
7250LEVEL
 62
13
 10
1672.647
 20
-5724.857
 30
-1977.000
 70
    32
  0
VERTEX
  8
7250LEVEL
 62
13
 10
1675.391
 20
-5728.552
 30
-1977.000
 70
    32
  0
VERTEX
  8
7250LEVEL
 62
13
 10
1681.906
 20
-5738.255
 30
-1977.000
 70
    32
  0
VERTEX
  8
7250LEVEL
 62
13
 10
1685.225
 20
-5744.346
 30
-1977.000
 70
    32
  0
VERTEX
  8
7250LEVEL
 62
13
 10
1688.434
 20
-5750.412
 30
-1977.000
 70
    32
  0
VERTEX
  8
7250LEVEL
 62
13
 10
1691.162
 20
-5755.640
 30
-1977.000
 70
    32
  0
VERTEX
  8
7250LEVEL
 62
13
 10
1692.464
 20
-5759.845
 30
-1977.000
 70
    32
  0
VERTEX
  8
7250LEVEL
 62
13
 10
1692.758
 20
-5762.270
 30
-1977.000
 70
    32
  0
VERTEX
  8
7250LEVEL
 62
13
 10
1692.056
 20
-5763.698
 30
-1977.000
 70
    32
  0
VERTEX
  8
7250LEVEL
 62
13
 10
1689.636
 20
-5762.710
 30
-1977.000
 70
    32
  0
VERTEX
  8
7250LEVEL
 62
13
 10
1683.880
 20
-5756.131
 30
-1977.000
 70
    32
  0
VERTEX
  8
7250LEVEL
 62
13
 10
1674.455
 20
-5743.178
 30
-1977.000
 70
    32
  0
VERTEX
  8
7250LEVEL
 62
13
 10
1667.519
 20
-5731.527
 30
-1977.000
 70
    32
  0
VERTEX
  8
7250LEVEL
 62
13
 10
1661.371
 20
-5719.934
 30
-1977.000
 70
    32
  0
VERTEX
  8
7250LEVEL
 62
13
 10
1657.145
 20
-5712.338
 30
-1977.000
 70
    32
  0
VERTEX
  8
7250LEVEL
 62
13
 10
1652.227
 20
-5705.598
 30
-1977.000
 70
    32
  0
VERTEX
  8
7250LEVEL
 62
13
 10
1648.108
 20
-5700.020
 30
-1977.000
 70
    32
  0
VERTEX
  8
7250LEVEL
 62
13
 10
1645.497
 20
-5696.560
 30
-1977.000
 70
    32
  0
VERTEX
  8
7250LEVEL
 62
13
 10
1642.862
 20
-5694.882
 30
-1977.000
 70
    32
  0
VERTEX
  8
7250LEVEL
 62
13
 10
1642.098
 20
-5696.067
 30
-1977.000
 70
    32
  0
VERTEX
  8
7250LEVEL
 62
13
 10
1643.166
 20
-5701.756
 30
-1977.000
 70
    32
  0
VERTEX
  8
7250LEVEL
 62
13
 10
1645.740
 20
-5708.211
 30
-1977.000
 70
    32
  0
VERTEX
  8
7250LEVEL
 62
13
 10
1647.505
 20
-5713.755
 30
-1977.000
 70
    32
  0
VERTEX
  8
7250LEVEL
 62
13
 10
1650.863
 20
-5719.878
 30
-1977.000
 70
    32
  0
VERTEX
  8
7250LEVEL
 62
13
 10
1653.819
 20
-5724.903
 30
-1977.000
 70
    32
  0
VERTEX
  8
7250LEVEL
 62
13
 10
1655.681
 20
-5731.363
 30
-1977.000
 70
    32
  0
VERTEX
  8
7250LEVEL
 62
13
 10
1655.983
 20
-5737.205
 30
-1977.000
 70
    32
  0
VERTEX
  8
7250LEVEL
 62
13
 10
1655.052
 20
-5747.522
 30
-1977.000
 70
    32
  0
VERTEX
  8
7250LEVEL
 62
13
 10
1654.774
 20
-5755.277
 30
-1977.000
 70
    32
  0
VERTEX
  8
7250LEVEL
 62
13
 10
1655.815
 20
-5765.064
 30
-1977.000
 70
    32
  0
VERTEX
  8
7250LEVEL
 62
13
 10
1660.716
 20
-5772.303
 30
-1977.000
 70
    32
  0
VERTEX
  8
7250LEVEL
 62
13
 10
1670.010
 20
-5781.354
 30
-1977.000
 70
    32
  0
VERTEX
  8
7250LEVEL
 62
13
 10
1676.612
 20
-5785.849
 30
-1977.000
 70
    32
  0
VERTEX
  8
7250LEVEL
 62
13
 10
1685.289
 20
-5793.114
 30
-1977.000
 70
    32
  0
VERTEX
  8
7250LEVEL
 62
13
 10
1690.777
 20
-5796.838
 30
-1977.000
 70
    32
  0
VERTEX
  8
7250LEVEL
 62
13
 10
1696.821
 20
-5803.778
 30
-1977.000
 70
    32
  0
VERTEX
  8
7250LEVEL
 62
13
 10
1701.663
 20
-5811.807
 30
-1977.000
 70
    32
  0
VERTEX
  8
7250LEVEL
 62
13
 10
1706.178
 20
-5821.117
 30
-1977.000
 70
    32
  0
VERTEX
  8
7250LEVEL
 62
13
 10
1711.876
 20
-5833.505
 30
-1977.000
 70
    32
  0
VERTEX
  8
7250LEVEL
 62
13
 10
1716.531
 20
-5844.794
 30
-1977.000
 70
    32
  0
VERTEX
  8
7250LEVEL
 62
13
 10
1721.843
 20
-5857.900
 30
-1977.000
 70
    32
  0
VERTEX
  8
7250LEVEL
 62
13
 10
1726.243
 20
-5868.468
 30
-1977.000
 70
    32
  0
VERTEX
  8
7250LEVEL
 62
13
 10
1730.991
 20
-5878.287
 30
-1977.000
 70
    32
  0
VERTEX
  8
7250LEVEL
 62
13
 10
1740.493
 20
-5896.644
 30
-1977.000
 70
    32
  0
VERTEX
  8
7250LEVEL
 62
13
 10
1747.733
 20
-5913.817
 30
-1977.000
 70
    32
  0
VERTEX
  8
7250LEVEL
 62
13
 10
1752.142
 20
-5924.135
 30
-1977.000
 70
    32
  0
VERTEX
  8
7250LEVEL
 62
13
 10
1755.476
 20
-5933.713
 30
-1977.000
 70
    32
  0
VERTEX
  8
7250LEVEL
 62
13
 10
1758.852
 20
-5947.701
 30
-1977.000
 70
    32
  0
VERTEX
  8
7250LEVEL
 62
13
 10
1760.778
 20
-5960.776
 30
-1977.000
 70
    32
  0
VERTEX
  8
7250LEVEL
 62
13
 10
1761.798
 20
-5971.704
 30
-1977.000
 70
    32
  0
VERTEX
  8
7250LEVEL
 62
13
 10
1762.176
 20
-5979.603
 30
-1977.000
 70
    32
  0
VERTEX
  8
7250LEVEL
 62
13
 10
1762.252
 20
-5983.654
 30
-1977.000
 70
    32
  0
VERTEX
  8
7250LEVEL
 62
13
 10
1761.976
 20
-5985.748
 30
-1977.000
 70
    32
  0
VERTEX
  8
7250LEVEL
 62
13
 10
1761.046
 20
-5987.378
 30
-1977.000
 70
    32
  0
VERTEX
  8
7250LEVEL
 62
13
 10
1758.947
 20
-5988.064
 30
-1977.000
 70
    32
  0
VERTEX
  8
7250LEVEL
 62
13
 10
1756.514
 20
-5986.614
 30
-1977.000
 70
    32
  0
VERTEX
  8
7250LEVEL
 62
13
 10
1754.973
 20
-5983.503
 30
-1977.000
 70
    32
  0
VERTEX
  8
7250LEVEL
 62
13
 10
1753.160
 20
-5978.178
 30
-1977.000
 70
    32
  0
VERTEX
  8
7250LEVEL
 62
13
 10
1751.494
 20
-5973.228
 30
-1977.000
 70
    32
  0
VERTEX
  8
7250LEVEL
 62
13
 10
1750.430
 20
-5969.924
 30
-1977.000
 70
    32
  0
VERTEX
  8
7250LEVEL
 62
13
 10
1749.024
 20
-5967.759
 30
-1977.000
 70
    32
  0
VERTEX
  8
7250LEVEL
 62
13
 10
1747.381
 20
-5966.368
 30
-1977.000
 70
    32
  0
VERTEX
  8
7250LEVEL
 62
13
 10
1746.151
 20
-5966.854
 30
-1977.000
 70
    32
  0
VERTEX
  8
7250LEVEL
 62
13
 10
1744.741
 20
-5974.339
 30
-1977.000
 70
    32
  0
VERTEX
  8
7250LEVEL
 62
13
 10
1743.375
 20
-5980.572
 30
-1977.000
 70
    32
  0
VERTEX
  8
7250LEVEL
 62
13
 10
1741.940
 20
-5991.512
 30
-1977.000
 70
    32
  0
VERTEX
  8
7250LEVEL
 62
13
 10
1741.242
 20
-6005.685
 30
-1977.000
 70
    32
  0
VERTEX
  8
7250LEVEL
 62
13
 10
1743.980
 20
-6022.376
 30
-1977.000
 70
    32
  0
VERTEX
  8
7250LEVEL
 62
13
 10
1747.250
 20
-6037.373
 30
-1977.000
 70
    32
  0
VERTEX
  8
7250LEVEL
 62
13
 10
1749.939
 20
-6047.589
 30
-1977.000
 70
    32
  0
VERTEX
  8
7250LEVEL
 62
13
 10
1753.822
 20
-6063.660
 30
-1977.000
 70
    32
  0
VERTEX
  8
7250LEVEL
 62
13
 10
1755.581
 20
-6077.179
 30
-1977.000
 70
    32
  0
VERTEX
  8
7250LEVEL
 62
13
 10
1757.218
 20
-6090.214
 30
-1977.000
 70
    32
  0
VERTEX
  8
7250LEVEL
 62
13
 10
1759.399
 20
-6110.702
 30
-1977.000
 70
    32
  0
VERTEX
  8
7250LEVEL
 62
13
 10
1761.580
 20
-6127.844
 30
-1977.000
 70
    32
  0
VERTEX
  8
7250LEVEL
 62
13
 10
1765.890
 20
-6139.241
 30
-1977.000
 70
    32
  0
VERTEX
  8
7250LEVEL
 62
13
 10
1769.814
 20
-6148.008
 30
-1977.000
 70
    32
  0
VERTEX
  8
7250LEVEL
 62
13
 10
1778.335
 20
-6165.508
 30
-1977.000
 70
    32
  0
VERTEX
  8
7250LEVEL
 62
13
 10
1782.802
 20
-6183.723
 30
-1977.000
 70
    32
  0
VERTEX
  8
7250LEVEL
 62
13
 10
1789.830
 20
-6205.939
 30
-1977.000
 70
    32
  0
VERTEX
  8
7250LEVEL
 62
13
 10
1793.119
 20
-6215.094
 30
-1977.000
 70
    32
  0
VERTEX
  8
7250LEVEL
 62
13
 10
1795.060
 20
-6224.963
 30
-1977.000
 70
    32
  0
VERTEX
  8
7250LEVEL
 62
13
 10
1797.914
 20
-6233.382
 30
-1977.000
 70
    32
  0
VERTEX
  8
7250LEVEL
 62
13
 10
1801.657
 20
-6250.820
 30
-1977.000
 70
    32
  0
VERTEX
  8
7250LEVEL
 62
13
 10
1808.983
 20
-6274.820
 30
-1977.000
 70
    32
  0
VERTEX
  8
7250LEVEL
 62
13
 10
1816.327
 20
-6291.305
 30
-1977.000
 70
    32
  0
VERTEX
  8
7250LEVEL
 62
13
 10
1825.022
 20
-6311.777
 30
-1977.000
 70
    32
  0
VERTEX
  8
7250LEVEL
 62
13
 10
1831.676
 20
-6327.125
 30
-1977.000
 70
    32
  0
VERTEX
  8
7250LEVEL
 62
13
 10
1835.475
 20
-6339.075
 30
-1977.000
 70
    32
  0
VERTEX
  8
7250LEVEL
 62
13
 10
1838.356
 20
-6358.777
 30
-1977.000
 70
    32
  0
VERTEX
  8
7250LEVEL
 62
13
 10
1840.520
 20
-6372.752
 30
-1977.000
 70
    32
  0
VERTEX
  8
7250LEVEL
 62
13
 10
1841.494
 20
-6378.558
 30
-1977.000
 70
    32
  0
VERTEX
  8
7250LEVEL
 62
13
 10
1845.720
 20
-6394.841
 30
-1977.000
 70
    32
  0
VERTEX
  8
7250LEVEL
 62
13
 10
1853.115
 20
-6407.120
 30
-1977.000
 70
    32
  0
VERTEX
  8
7250LEVEL
 62
13
 10
1857.551
 20
-6415.014
 30
-1977.000
 70
    32
  0
VERTEX
  8
7250LEVEL
 62
13
 10
1863.890
 20
-6430.752
 30
-1977.000
 70
    32
  0
VERTEX
  8
7250LEVEL
 62
13
 10
1865.760
 20
-6437.282
 30
-1977.000
 70
    32
  0
VERTEX
  8
7250LEVEL
 62
13
 10
1866.541
 20
-6445.957
 30
-1977.000
 70
    32
  0
VERTEX
  8
7250LEVEL
 62
13
 10
1866.966
 20
-6450.611
 30
-1977.000
 70
    32
  0
VERTEX
  8
7250LEVEL
 62
13
 10
1865.381
 20
-6455.124
 30
-1977.000
 70
    32
  0
VERTEX
  8
7250LEVEL
 62
13
 10
1862.953
 20
-6457.732
 30
-1977.000
 70
    32
  0
VERTEX
  8
7250LEVEL
 62
13
 10
1859.145
 20
-6457.746
 30
-1977.000
 70
    32
  0
VERTEX
  8
7250LEVEL
 62
13
 10
1854.940
 20
-6455.701
 30
-1977.000
 70
    32
  0
VERTEX
  8
7250LEVEL
 62
13
 10
1848.694
 20
-6451.880
 30
-1977.000
 70
    32
  0
VERTEX
  8
7250LEVEL
 62
13
 10
1843.918
 20
-6448.152
 30
-1977.000
 70
    32
  0
VERTEX
  8
7250LEVEL
 62
13
 10
1841.124
 20
-6446.989
 30
-1977.000
 70
    32
  0
VERTEX
  8
7250LEVEL
 62
13
 10
1838.230
 20
-6447.226
 30
-1977.000
 70
    32
  0
VERTEX
  8
7250LEVEL
 62
13
 10
1837.027
 20
-6448.636
 30
-1977.000
 70
    32
  0
VERTEX
  8
7250LEVEL
 62
13
 10
1835.720
 20
-6449.060
 30
-1977.000
 70
    32
  0
VERTEX
  8
7250LEVEL
 62
13
 10
1834.476
 20
-6449.086
 30
-1977.000
 70
    32
  0
VERTEX
  8
7250LEVEL
 62
13
 10
1832.680
 20
-6450.274
 30
-1977.000
 70
    32
  0
VERTEX
  8
7250LEVEL
 62
13
 10
1831.245
 20
-6454.521
 30
-1977.000
 70
    32
  0
VERTEX
  8
7250LEVEL
 62
13
 10
1830.536
 20
-6464.244
 30
-1977.000
 70
    32
  0
VERTEX
  8
7250LEVEL
 62
13
 10
1830.905
 20
-6472.394
 30
-1977.000
 70
    32
  0
VERTEX
  8
7250LEVEL
 62
13
 10
1833.018
 20
-6488.902
 30
-1977.000
 70
    32
  0
VERTEX
  8
7250LEVEL
 62
13
 10
1835.278
 20
-6500.766
 30
-1977.000
 70
    32
  0
VERTEX
  8
7250LEVEL
 62
13
 10
1837.183
 20
-6513.309
 30
-1977.000
 70
    32
  0
VERTEX
  8
7250LEVEL
 62
13
 10
1838.437
 20
-6521.079
 30
-1977.000
 70
    32
  0
VERTEX
  8
7250LEVEL
 62
13
 10
1839.506
 20
-6530.115
 30
-1977.000
 70
    32
  0
VERTEX
  8
7250LEVEL
 62
13
 10
1838.663
 20
-6536.578
 30
-1977.000
 70
    32
  0
VERTEX
  8
7250LEVEL
 62
13
 10
1836.269
 20
-6538.506
 30
-1977.000
 70
    32
  0
VERTEX
  8
7250LEVEL
 62
13
 10
1834.338
 20
-6538.427
 30
-1977.000
 70
    32
  0
VERTEX
  8
7250LEVEL
 62
13
 10
1832.632
 20
-6538.786
 30
-1977.000
 70
    32
  0
VERTEX
  8
7250LEVEL
 62
13
 10
1831.335
 20
-6540.313
 30
-1977.000
 70
    32
  0
VERTEX
  8
7250LEVEL
 62
13
 10
1831.588
 20
-6543.027
 30
-1977.000
 70
    32
  0
VERTEX
  8
7250LEVEL
 62
13
 10
1830.573
 20
-6546.197
 30
-1977.000
 70
    32
  0
VERTEX
  8
7250LEVEL
 62
13
 10
1829.815
 20
-6547.773
 30
-1977.000
 70
    32
  0
VERTEX
  8
7250LEVEL
 62
13
 10
1829.005
 20
-6552.203
 30
-1977.000
 70
    32
  0
VERTEX
  8
7250LEVEL
 62
13
 10
1830.335
 20
-6557.010
 30
-1977.000
 70
    32
  0
VERTEX
  8
7250LEVEL
 62
13
 10
1835.437
 20
-6566.471
 30
-1977.000
 70
    32
  0
VERTEX
  8
7250LEVEL
 62
13
 10
1840.219
 20
-6577.284
 30
-1977.000
 70
    32
  0
VERTEX
  8
7250LEVEL
 62
13
 10
1844.503
 20
-6591.104
 30
-1977.000
 70
    32
  0
VERTEX
  8
7250LEVEL
 62
13
 10
1848.139
 20
-6601.184
 30
-1977.000
 70
    32
  0
VERTEX
  8
7250LEVEL
 62
13
 10
1851.896
 20
-6610.717
 30
-1977.000
 70
    32
  0
VERTEX
  8
7250LEVEL
 62
13
 10
1861.564
 20
-6626.955
 30
-1977.000
 70
    32
  0
VERTEX
  8
7250LEVEL
 62
13
 10
1871.441
 20
-6638.472
 30
-1977.000
 70
    32
  0
VERTEX
  8
7250LEVEL
 62
13
 10
1877.474
 20
-6645.982
 30
-1977.000
 70
    32
  0
VERTEX
  8
7250LEVEL
 62
13
 10
1879.870
 20
-6652.100
 30
-1977.000
 70
    32
  0
VERTEX
  8
7250LEVEL
 62
13
 10
1880.952
 20
-6666.618
 30
-1977.000
 70
    32
  0
VERTEX
  8
7250LEVEL
 62
13
 10
1881.197
 20
-6676.275
 30
-1977.000
 70
    32
  0
VERTEX
  8
7250LEVEL
 62
13
 10
1881.065
 20
-6691.420
 30
-1977.000
 70
    32
  0
VERTEX
  8
7250LEVEL
 62
13
 10
1885.631
 20
-6710.231
 30
-1977.000
 70
    32
  0
VERTEX
  8
7250LEVEL
 62
13
 10
1889.271
 20
-6719.349
 30
-1977.000
 70
    32
  0
VERTEX
  8
7250LEVEL
 62
13
 10
1893.605
 20
-6735.977
 30
-1977.000
 70
    32
  0
VERTEX
  8
7250LEVEL
 62
13
 10
1895.771
 20
-6752.978
 30
-1977.000
 70
    32
  0
VERTEX
  8
7250LEVEL
 62
13
 10
1896.893
 20
-6762.186
 30
-1977.000
 70
    32
  0
VERTEX
  8
7250LEVEL
 62
13
 10
1898.133
 20
-6776.509
 30
-1977.000
 70
    32
  0
VERTEX
  8
7250LEVEL
 62
13
 10
1897.166
 20
-6787.827
 30
-1977.000
 70
    32
  0
VERTEX
  8
7250LEVEL
 62
13
 10
1897.913
 20
-6797.182
 30
-1977.000
 70
    32
  0
VERTEX
  8
7250LEVEL
 62
13
 10
1898.133
 20
-6800.256
 30
-1977.000
 70
    32
  0
VERTEX
  8
7250LEVEL
 62
13
 10
1898.419
 20
-6802.611
 30
-1977.000
 70
    32
  0
VERTEX
  8
7250LEVEL
 62
13
 10
1898.166
 20
-6803.243
 30
-1977.000
 70
    32
  0
VERTEX
  8
7250LEVEL
 62
13
 10
1897.431
 20
-6805.030
 30
-1977.000
 70
    32
  0
VERTEX
  8
7250LEVEL
 62
13
 10
1895.361
 20
-6804.645
 30
-1977.000
 70
    32
  0
VERTEX
  8
7250LEVEL
 62
13
 10
1893.518
 20
-6802.385
 30
-1977.000
 70
    32
  0
VERTEX
  8
7250LEVEL
 62
13
 10
1891.320
 20
-6802.476
 30
-1977.000
 70
    32
  0
VERTEX
  8
7250LEVEL
 62
13
 10
1890.290
 20
-6802.159
 30
-1977.000
 70
    32
  0
VERTEX
  8
7250LEVEL
 62
13
 10
1886.410
 20
-6799.154
 30
-1977.000
 70
    32
  0
VERTEX
  8
7250LEVEL
 62
13
 10
1884.285
 20
-6796.924
 30
-1977.000
 70
    32
  0
VERTEX
  8
7250LEVEL
 62
13
 10
1881.395
 20
-6794.525
 30
-1977.000
 70
    32
  0
VERTEX
  8
7250LEVEL
 62
13
 10
1879.102
 20
-6793.381
 30
-1977.000
 70
    32
  0
VERTEX
  8
7250LEVEL
 62
13
 10
1877.337
 20
-6794.530
 30
-1977.000
 70
    32
  0
VERTEX
  8
7250LEVEL
 62
13
 10
1875.974
 20
-6798.449
 30
-1977.000
 70
    32
  0
VERTEX
  8
7250LEVEL
 62
13
 10
1876.109
 20
-6803.063
 30
-1977.000
 70
    32
  0
VERTEX
  8
7250LEVEL
 62
13
 10
1876.387
 20
-6810.688
 30
-1977.000
 70
    32
  0
VERTEX
  8
7250LEVEL
 62
13
 10
1877.620
 20
-6816.253
 30
-1977.000
 70
    32
  0
VERTEX
  8
7250LEVEL
 62
13
 10
1877.365
 20
-6824.220
 30
-1977.000
 70
    32
  0
VERTEX
  8
7250LEVEL
 62
13
 10
1877.165
 20
-6825.024
 30
-1977.000
 70
    32
  0
VERTEX
  8
7250LEVEL
 62
13
 10
1874.458
 20
-6823.675
 30
-1977.000
 70
    32
  0
VERTEX
  8
7250LEVEL
 62
13
 10
1871.477
 20
-6820.752
 30
-1977.000
 70
    32
  0
VERTEX
  8
7250LEVEL
 62
13
 10
1868.157
 20
-6818.328
 30
-1977.000
 70
    32
  0
VERTEX
  8
7250LEVEL
 62
13
 10
1866.929
 20
-6820.168
 30
-1977.000
 70
    32
  0
VERTEX
  8
7250LEVEL
 62
13
 10
1866.329
 20
-6826.569
 30
-1977.000
 70
    32
  0
VERTEX
  8
7250LEVEL
 62
13
 10
1865.052
 20
-6838.988
 30
-1977.000
 70
    32
  0
VERTEX
  8
7250LEVEL
 62
13
 10
1866.750
 20
-6848.918
 30
-1977.000
 70
    32
  0
VERTEX
  8
7250LEVEL
 62
13
 10
1870.921
 20
-6861.683
 30
-1977.000
 70
    32
  0
VERTEX
  8
7250LEVEL
 62
13
 10
1878.589
 20
-6877.528
 30
-1977.000
 70
    32
  0
VERTEX
  8
7250LEVEL
 62
13
 10
1883.628
 20
-6887.068
 30
-1977.000
 70
    32
  0
VERTEX
  8
7250LEVEL
 62
13
 10
1888.163
 20
-6902.250
 30
-1977.000
 70
    32
  0
VERTEX
  8
7250LEVEL
 62
13
 10
1888.985
 20
-6913.982
 30
-1977.000
 70
    32
  0
VERTEX
  8
7250LEVEL
 62
13
 10
1889.063
 20
-6922.412
 30
-1977.000
 70
    32
  0
VERTEX
  8
7250LEVEL
 62
13
 10
1888.528
 20
-6936.781
 30
-1977.000
 70
    32
  0
VERTEX
  8
7250LEVEL
 62
13
 10
1889.263
 20
-6950.374
 30
-1977.000
 70
    32
  0
VERTEX
  8
7250LEVEL
 62
13
 10
1889.857
 20
-6958.962
 30
-1977.000
 70
    32
  0
VERTEX
  8
7250LEVEL
 62
13
 10
1891.347
 20
-6971.620
 30
-1977.000
 70
    32
  0
VERTEX
  8
7250LEVEL
 62
13
 10
1892.279
 20
-6981.383
 30
-1977.000
 70
    32
  0
VERTEX
  8
7250LEVEL
 62
13
 10
1893.504
 20
-6993.891
 30
-1977.000
 70
    32
  0
VERTEX
  8
7250LEVEL
 62
13
 10
1895.558
 20
-7001.149
 30
-1977.000
 70
    32
  0
VERTEX
  8
7250LEVEL
 62
13
 10
1899.394
 20
-7010.425
 30
-1977.000
 70
    32
  0
VERTEX
  8
7250LEVEL
 62
13
 10
1901.690
 20
-7014.275
 30
-1977.000
 70
    32
  0
VERTEX
  8
7250LEVEL
 62
13
 10
1903.924
 20
-7019.876
 30
-1977.000
 70
    32
  0
VERTEX
  8
7250LEVEL
 62
13
 10
1905.198
 20
-7023.478
 30
-1977.000
 70
    32
  0
VERTEX
  8
7250LEVEL
 62
13
 10
1905.002
 20
-7025.315
 30
-1977.000
 70
    32
  0
VERTEX
  8
7250LEVEL
 62
13
 10
1902.935
 20
-7025.962
 30
-1977.000
 70
    32
  0
VERTEX
  8
7250LEVEL
 62
13
 10
1900.301
 20
-7022.291
 30
-1977.000
 70
    32
  0
VERTEX
  8
7250LEVEL
 62
13
 10
1895.905
 20
-7017.454
 30
-1977.000
 70
    32
  0
VERTEX
  8
7250LEVEL
 62
13
 10
1891.472
 20
-7012.265
 30
-1977.000
 70
    32
  0
VERTEX
  8
7250LEVEL
 62
13
 10
1888.545
 20
-7009.515
 30
-1977.000
 70
    32
  0
VERTEX
  8
7250LEVEL
 62
13
 10
1886.295
 20
-7007.440
 30
-1977.000
 70
    32
  0
VERTEX
  8
7250LEVEL
 62
13
 10
1885.120
 20
-7007.779
 30
-1977.000
 70
    32
  0
VERTEX
  8
7250LEVEL
 62
13
 10
1885.371
 20
-7009.461
 30
-1977.000
 70
    32
  0
VERTEX
  8
7250LEVEL
 62
13
 10
1890.228
 20
-7014.284
 30
-1977.000
 70
    32
  0
VERTEX
  8
7250LEVEL
 62
13
 10
1894.981
 20
-7019.475
 30
-1977.000
 70
    32
  0
VERTEX
  8
7250LEVEL
 62
13
 10
1899.577
 20
-7024.860
 30
-1977.000
 70
    32
  0
VERTEX
  8
7250LEVEL
 62
13
 10
1905.318
 20
-7031.298
 30
-1977.000
 70
    32
  0
VERTEX
  8
7250LEVEL
 62
13
 10
1909.128
 20
-7035.984
 30
-1977.000
 70
    32
  0
VERTEX
  8
7250LEVEL
 62
13
 10
1912.438
 20
-7040.651
 30
-1977.000
 70
    32
  0
VERTEX
  8
7250LEVEL
 62
13
 10
1915.173
 20
-7044.276
 30
-1977.000
 70
    32
  0
VERTEX
  8
7250LEVEL
 62
13
 10
1915.933
 20
-7045.726
 30
-1977.000
 70
    32
  0
VERTEX
  8
7250LEVEL
 62
13
 10
1916.313
 20
-7046.291
 30
-1977.000
 70
    32
  0
VERTEX
  8
7250LEVEL
 62
13
 10
1916.605
 20
-7044.017
 30
-1977.000
 70
    32
  0
VERTEX
  8
7250LEVEL
 62
13
 10
1914.506
 20
-7038.010
 30
-1977.000
 70
    32
  0
VERTEX
  8
7250LEVEL
 62
13
 10
1909.334
 20
-7028.556
 30
-1977.000
 70
    32
  0
VERTEX
  8
7250LEVEL
 62
13
 10
1906.811
 20
-7021.242
 30
-1977.000
 70
    32
  0
VERTEX
  8
7250LEVEL
 62
13
 10
1904.791
 20
-7011.630
 30
-1977.000
 70
    32
  0
VERTEX
  8
7250LEVEL
 62
13
 10
1901.696
 20
-7001.279
 30
-1977.000
 70
    32
  0
VERTEX
  8
7250LEVEL
 62
13
 10
1900.775
 20
-6988.952
 30
-1977.000
 70
    32
  0
VERTEX
  8
7250LEVEL
 62
13
 10
1902.567
 20
-6971.672
 30
-1977.000
 70
    32
  0
VERTEX
  8
7250LEVEL
 62
13
 10
1905.216
 20
-6956.757
 30
-1977.000
 70
    32
  0
VERTEX
  8
7250LEVEL
 62
13
 10
1903.881
 20
-6937.532
 30
-1977.000
 70
    32
  0
VERTEX
  8
7250LEVEL
 62
13
 10
1904.498
 20
-6924.258
 30
-1977.000
 70
    32
  0
VERTEX
  8
7250LEVEL
 62
13
 10
1905.311
 20
-6919.187
 30
-1977.000
 70
    32
  0
VERTEX
  8
7250LEVEL
 62
13
 10
1907.802
 20
-6914.827
 30
-1977.000
 70
    32
  0
VERTEX
  8
7250LEVEL
 62
13
 10
1910.867
 20
-6913.184
 30
-1977.000
 70
    32
  0
VERTEX
  8
7250LEVEL
 62
13
 10
1914.176
 20
-6916.178
 30
-1977.000
 70
    32
  0
VERTEX
  8
7250LEVEL
 62
13
 10
1915.938
 20
-6920.690
 30
-1977.000
 70
    32
  0
VERTEX
  8
7250LEVEL
 62
13
 10
1919.162
 20
-6928.571
 30
-1977.000
 70
    32
  0
VERTEX
  8
7250LEVEL
 62
13
 10
1920.478
 20
-6934.911
 30
-1977.000
 70
    32
  0
VERTEX
  8
7250LEVEL
 62
13
 10
1918.591
 20
-6945.614
 30
-1977.000
 70
    32
  0
VERTEX
  8
7250LEVEL
 62
13
 10
1916.628
 20
-6952.588
 30
-1977.000
 70
    32
  0
VERTEX
  8
7250LEVEL
 62
13
 10
1913.204
 20
-6964.238
 30
-1977.000
 70
    32
  0
VERTEX
  8
7250LEVEL
 62
13
 10
1913.261
 20
-6970.462
 30
-1977.000
 70
    32
  0
VERTEX
  8
7250LEVEL
 62
13
 10
1914.742
 20
-6980.024
 30
-1977.000
 70
    32
  0
VERTEX
  8
7250LEVEL
 62
13
 10
1916.732
 20
-6987.681
 30
-1977.000
 70
    32
  0
VERTEX
  8
7250LEVEL
 62
13
 10
1920.939
 20
-6997.771
 30
-1977.000
 70
    32
  0
VERTEX
  8
7250LEVEL
 62
13
 10
1926.135
 20
-7005.442
 30
-1977.000
 70
    32
  0
VERTEX
  8
7250LEVEL
 62
13
 10
1931.856
 20
-7012.701
 30
-1977.000
 70
    32
  0
VERTEX
  8
7250LEVEL
 62
13
 10
1935.293
 20
-7016.892
 30
-1977.000
 70
    32
  0
VERTEX
  8
7250LEVEL
 62
13
 10
1938.075
 20
-7018.946
 30
-1977.000
 70
    32
  0
VERTEX
  8
7250LEVEL
 62
13
 10
1939.917
 20
-7017.860
 30
-1977.000
 70
    32
  0
VERTEX
  8
7250LEVEL
 62
13
 10
1944.700
 20
-7013.292
 30
-1977.000
 70
    32
  0
VERTEX
  8
7250LEVEL
 62
13
 10
1947.356
 20
-7005.462
 30
-1977.000
 70
    32
  0
VERTEX
  8
7250LEVEL
 62
13
 10
1947.099
 20
-7000.042
 30
-1977.000
 70
    32
  0
VERTEX
  8
7250LEVEL
 62
13
 10
1946.829
 20
-6995.834
 30
-1977.000
 70
    32
  0
VERTEX
  8
7250LEVEL
 62
13
 10
1943.349
 20
-6990.900
 30
-1977.000
 70
    32
  0
VERTEX
  8
7250LEVEL
 62
13
 10
1938.699
 20
-6981.996
 30
-1977.000
 70
    32
  0
VERTEX
  8
7250LEVEL
 62
13
 10
1935.972
 20
-6976.447
 30
-1977.000
 70
    32
  0
VERTEX
  8
7250LEVEL
 62
13
 10
1933.513
 20
-6963.714
 30
-1977.000
 70
    32
  0
VERTEX
  8
7250LEVEL
 62
13
 10
1933.098
 20
-6951.796
 30
-1977.000
 70
    32
  0
VERTEX
  8
7250LEVEL
 62
13
 10
1933.546
 20
-6941.281
 30
-1977.000
 70
    32
  0
VERTEX
  8
7250LEVEL
 62
13
 10
1934.451
 20
-6928.047
 30
-1977.000
 70
    32
  0
VERTEX
  8
7250LEVEL
 62
13
 10
1932.248
 20
-6909.021
 30
-1977.000
 70
    32
  0
VERTEX
  8
7250LEVEL
 62
13
 10
1931.107
 20
-6901.986
 30
-1977.000
 70
    32
  0
VERTEX
  8
7250LEVEL
 62
13
 10
1930.475
 20
-6896.713
 30
-1977.000
 70
    32
  0
VERTEX
  8
7250LEVEL
 62
13
 10
1931.077
 20
-6893.338
 30
-1977.000
 70
    32
  0
VERTEX
  8
7250LEVEL
 62
13
 10
1932.934
 20
-6890.719
 30
-1977.000
 70
    32
  0
VERTEX
  8
7250LEVEL
 62
13
 10
1935.821
 20
-6890.412
 30
-1977.000
 70
    32
  0
VERTEX
  8
7250LEVEL
 62
13
 10
1938.839
 20
-6892.013
 30
-1977.000
 70
    32
  0
VERTEX
  8
7250LEVEL
 62
13
 10
1944.287
 20
-6901.046
 30
-1977.000
 70
    32
  0
VERTEX
  8
7250LEVEL
 62
13
 10
1947.202
 20
-6908.034
 30
-1977.000
 70
    32
  0
VERTEX
  8
7250LEVEL
 62
13
 10
1948.055
 20
-6918.054
 30
-1977.000
 70
    32
  0
VERTEX
  8
7250LEVEL
 62
13
 10
1945.943
 20
-6931.986
 30
-1977.000
 70
    32
  0
VERTEX
  8
7250LEVEL
 62
13
 10
1943.461
 20
-6939.442
 30
-1977.000
 70
    32
  0
VERTEX
  8
7250LEVEL
 62
13
 10
1939.884
 20
-6950.326
 30
-1977.000
 70
    32
  0
VERTEX
  8
7250LEVEL
 62
13
 10
1940.114
 20
-6958.169
 30
-1977.000
 70
    32
  0
VERTEX
  8
7250LEVEL
 62
13
 10
1940.215
 20
-6963.463
 30
-1977.000
 70
    32
  0
VERTEX
  8
7250LEVEL
 62
13
 10
1940.713
 20
-6969.142
 30
-1977.000
 70
    32
  0
VERTEX
  8
7250LEVEL
 62
13
 10
1943.752
 20
-6974.622
 30
-1977.000
 70
    32
  0
VERTEX
  8
7250LEVEL
 62
13
 10
1949.035
 20
-6980.432
 30
-1977.000
 70
    32
  0
VERTEX
  8
7250LEVEL
 62
13
 10
1952.127
 20
-6986.405
 30
-1977.000
 70
    32
  0
VERTEX
  8
7250LEVEL
 62
13
 10
1954.038
 20
-6994.319
 30
-1977.000
 70
    32
  0
VERTEX
  8
7250LEVEL
 62
13
 10
1955.282
 20
-7000.986
 30
-1977.000
 70
    32
  0
VERTEX
  8
7250LEVEL
 62
13
 10
1956.194
 20
-7006.550
 30
-1977.000
 70
    32
  0
VERTEX
  8
7250LEVEL
 62
13
 10
1956.993
 20
-7011.378
 30
-1977.000
 70
    32
  0
VERTEX
  8
7250LEVEL
 62
13
 10
1958.267
 20
-7013.308
 30
-1977.000
 70
    32
  0
VERTEX
  8
7250LEVEL
 62
13
 10
1960.494
 20
-7013.498
 30
-1977.000
 70
    32
  0
VERTEX
  8
7250LEVEL
 62
13
 10
1963.964
 20
-7013.983
 30
-1977.000
 70
    32
  0
VERTEX
  8
7250LEVEL
 62
13
 10
1967.150
 20
-7016.492
 30
-1977.000
 70
    32
  0
VERTEX
  8
7250LEVEL
 62
13
 10
1968.459
 20
-7019.094
 30
-1977.000
 70
    32
  0
VERTEX
  8
7250LEVEL
 62
13
 10
1968.936
 20
-7024.241
 30
-1977.000
 70
    32
  0
VERTEX
  8
7250LEVEL
 62
13
 10
1968.162
 20
-7029.343
 30
-1977.000
 70
    32
  0
VERTEX
  8
7250LEVEL
 62
13
 10
1967.059
 20
-7038.041
 30
-1977.000
 70
    32
  0
VERTEX
  8
7250LEVEL
 62
13
 10
1966.686
 20
-7047.586
 30
-1977.000
 70
    32
  0
VERTEX
  8
7250LEVEL
 62
13
 10
1967.338
 20
-7055.385
 30
-1977.000
 70
    32
  0
VERTEX
  8
7250LEVEL
 62
13
 10
1969.219
 20
-7066.364
 30
-1977.000
 70
    32
  0
VERTEX
  8
7250LEVEL
 62
13
 10
1972.819
 20
-7074.098
 30
-1977.000
 70
    32
  0
VERTEX
  8
7250LEVEL
 62
13
 10
1977.203
 20
-7079.826
 30
-1977.000
 70
    32
  0
VERTEX
  8
7250LEVEL
 62
13
 10
1981.695
 20
-7085.899
 30
-1977.000
 70
    32
  0
VERTEX
  8
7250LEVEL
 62
13
 10
1983.247
 20
-7093.460
 30
-1977.000
 70
    32
  0
VERTEX
  8
7250LEVEL
 62
13
 10
1984.526
 20
-7102.794
 30
-1977.000
 70
    32
  0
VERTEX
  8
7250LEVEL
 62
13
 10
1986.919
 20
-7116.246
 30
-1977.000
 70
    32
  0
VERTEX
  8
7250LEVEL
 62
13
 10
1990.475
 20
-7130.251
 30
-1977.000
 70
    32
  0
VERTEX
  8
7250LEVEL
 62
13
 10
1991.542
 20
-7139.607
 30
-1977.000
 70
    32
  0
VERTEX
  8
7250LEVEL
 62
13
 10
1991.035
 20
-7149.559
 30
-1977.000
 70
    32
  0
VERTEX
  8
7250LEVEL
 62
13
 10
1988.405
 20
-7161.979
 30
-1977.000
 70
    32
  0
VERTEX
  8
7250LEVEL
 62
13
 10
1986.627
 20
-7171.033
 30
-1977.000
 70
    32
  0
VERTEX
  8
7250LEVEL
 62
13
 10
1985.723
 20
-7178.927
 30
-1977.000
 70
    32
  0
VERTEX
  8
7250LEVEL
 62
13
 10
1986.366
 20
-7185.302
 30
-1977.000
 70
    32
  0
VERTEX
  8
7250LEVEL
 62
13
 10
1988.364
 20
-7198.049
 30
-1977.000
 70
    32
  0
VERTEX
  8
7250LEVEL
 62
13
 10
1989.912
 20
-7208.244
 30
-1977.000
 70
    32
  0
VERTEX
  8
7250LEVEL
 62
13
 10
1991.300
 20
-7220.949
 30
-1977.000
 70
    32
  0
VERTEX
  8
7250LEVEL
 62
13
 10
1991.660
 20
-7229.348
 30
-1977.000
 70
    32
  0
VERTEX
  8
7250LEVEL
 62
13
 10
1992.969
 20
-7237.291
 30
-1977.000
 70
    32
  0
VERTEX
  8
7250LEVEL
 62
13
 10
1994.956
 20
-7248.935
 30
-1977.000
 70
    32
  0
VERTEX
  8
7250LEVEL
 62
13
 10
1999.023
 20
-7258.720
 30
-1977.000
 70
    32
  0
VERTEX
  8
7250LEVEL
 62
13
 10
2000.426
 20
-7264.872
 30
-1977.000
 70
    32
  0
VERTEX
  8
7250LEVEL
 62
13
 10
2005.836
 20
-7276.899
 30
-1977.000
 70
    32
  0
VERTEX
  8
7250LEVEL
 62
13
 10
2009.690
 20
-7289.021
 30
-1977.000
 70
    32
  0
VERTEX
  8
7250LEVEL
 62
13
 10
2015.162
 20
-7309.658
 30
-1977.000
 70
    32
  0
VERTEX
  8
7250LEVEL
 62
13
 10
2019.636
 20
-7324.597
 30
-1977.000
 70
    32
  0
VERTEX
  8
7250LEVEL
 62
13
 10
2024.817
 20
-7337.147
 30
-1977.000
 70
    32
  0
VERTEX
  8
7250LEVEL
 62
13
 10
2029.451
 20
-7346.231
 30
-1977.000
 70
    32
  0
VERTEX
  8
7250LEVEL
 62
13
 10
2031.368
 20
-7351.189
 30
-1977.000
 70
    32
  0
VERTEX
  8
7250LEVEL
 62
13
 10
2031.064
 20
-7352.682
 30
-1977.000
 70
    32
  0
VERTEX
  8
7250LEVEL
 62
13
 10
2028.862
 20
-7352.062
 30
-1977.000
 70
    32
  0
VERTEX
  8
7250LEVEL
 62
13
 10
2024.460
 20
-7346.834
 30
-1977.000
 70
    32
  0
VERTEX
  8
7250LEVEL
 62
13
 10
2020.971
 20
-7342.150
 30
-1977.000
 70
    32
  0
VERTEX
  8
7250LEVEL
 62
13
 10
2018.117
 20
-7338.751
 30
-1977.000
 70
    32
  0
VERTEX
  8
7250LEVEL
 62
13
 10
2016.662
 20
-7338.799
 30
-1977.000
 70
    32
  0
VERTEX
  8
7250LEVEL
 62
13
 10
2016.307
 20
-7341.151
 30
-1977.000
 70
    32
  0
VERTEX
  8
7250LEVEL
 62
13
 10
2018.958
 20
-7347.989
 30
-1977.000
 70
    32
  0
VERTEX
  8
7250LEVEL
 62
13
 10
2024.652
 20
-7357.672
 30
-1977.000
 70
    32
  0
VERTEX
  8
7250LEVEL
 62
13
 10
2031.504
 20
-7369.190
 30
-1977.000
 70
    32
  0
VERTEX
  8
7250LEVEL
 62
13
 10
2038.991
 20
-7388.686
 30
-1977.000
 70
    32
  0
VERTEX
  8
7250LEVEL
 62
13
 10
2047.293
 20
-7409.484
 30
-1977.000
 70
    32
  0
VERTEX
  8
7250LEVEL
 62
13
 10
2050.874
 20
-7423.059
 30
-1977.000
 70
    32
  0
VERTEX
  8
7250LEVEL
 62
13
 10
2053.006
 20
-7432.053
 30
-1977.000
 70
    32
  0
VERTEX
  8
7250LEVEL
 62
13
 10
2053.117
 20
-7436.777
 30
-1977.000
 70
    32
  0
VERTEX
  8
7250LEVEL
 62
13
 10
2052.553
 20
-7438.830
 30
-1977.000
 70
    32
  0
VERTEX
  8
7250LEVEL
 62
13
 10
2050.955
 20
-7441.208
 30
-1977.000
 70
    32
  0
VERTEX
  8
7250LEVEL
 62
13
 10
2047.034
 20
-7440.165
 30
-1977.000
 70
    32
  0
VERTEX
  8
7250LEVEL
 62
13
 10
2038.606
 20
-7431.557
 30
-1977.000
 70
    32
  0
VERTEX
  8
7250LEVEL
 62
13
 10
2025.501
 20
-7414.474
 30
-1977.000
 70
    32
  0
VERTEX
  8
7250LEVEL
 62
13
 10
2013.922
 20
-7402.356
 30
-1977.000
 70
    32
  0
VERTEX
  8
7250LEVEL
 62
13
 10
2003.048
 20
-7388.169
 30
-1977.000
 70
    32
  0
VERTEX
  8
7250LEVEL
 62
13
 10
1996.644
 20
-7378.170
 30
-1977.000
 70
    32
  0
VERTEX
  8
7250LEVEL
 62
13
 10
1990.443
 20
-7368.078
 30
-1977.000
 70
    32
  0
VERTEX
  8
7250LEVEL
 62
13
 10
1984.204
 20
-7360.981
 30
-1977.000
 70
    32
  0
VERTEX
  8
7250LEVEL
 62
13
 10
1980.168
 20
-7357.850
 30
-1977.000
 70
    32
  0
VERTEX
  8
7250LEVEL
 62
13
 10
1977.171
 20
-7356.781
 30
-1977.000
 70
    32
  0
VERTEX
  8
7250LEVEL
 62
13
 10
1974.560
 20
-7356.667
 30
-1977.000
 70
    32
  0
VERTEX
  8
7250LEVEL
 62
13
 10
1974.563
 20
-7359.373
 30
-1977.000
 70
    32
  0
VERTEX
  8
7250LEVEL
 62
13
 10
1979.559
 20
-7367.848
 30
-1977.000
 70
    32
  0
VERTEX
  8
7250LEVEL
 62
13
 10
1986.151
 20
-7377.934
 30
-1977.000
 70
    32
  0
VERTEX
  8
7250LEVEL
 62
13
 10
1990.841
 20
-7391.889
 30
-1977.000
 70
    32
  0
VERTEX
  8
7250LEVEL
 62
13
 10
1993.164
 20
-7407.022
 30
-1977.000
 70
    32
  0
VERTEX
  8
7250LEVEL
 62
13
 10
1991.997
 20
-7427.831
 30
-1977.000
 70
    32
  0
VERTEX
  8
7250LEVEL
 62
13
 10
1990.886
 20
-7450.166
 30
-1977.000
 70
    32
  0
VERTEX
  8
7250LEVEL
 62
13
 10
1990.281
 20
-7464.222
 30
-1977.000
 70
    32
  0
VERTEX
  8
7250LEVEL
 62
13
 10
1988.061
 20
-7484.502
 30
-1977.000
 70
    32
  0
VERTEX
  8
7250LEVEL
 62
13
 10
1986.939
 20
-7504.061
 30
-1977.000
 70
    32
  0
VERTEX
  8
7250LEVEL
 62
13
 10
1986.724
 20
-7516.758
 30
-1977.000
 70
    32
  0
VERTEX
  8
7250LEVEL
 62
13
 10
1986.977
 20
-7533.179
 30
-1977.000
 70
    32
  0
VERTEX
  8
7250LEVEL
 62
13
 10
1988.819
 20
-7547.473
 30
-1977.000
 70
    32
  0
VERTEX
  8
7250LEVEL
 62
13
 10
1990.411
 20
-7558.412
 30
-1977.000
 70
    32
  0
VERTEX
  8
7250LEVEL
 62
13
 10
1993.198
 20
-7572.890
 30
-1977.000
 70
    32
  0
VERTEX
  8
7250LEVEL
 62
13
 10
1995.604
 20
-7580.110
 30
-1977.000
 70
    32
  0
VERTEX
  8
7250LEVEL
 62
13
 10
1996.918
 20
-7585.097
 30
-1977.000
 70
    32
  0
VERTEX
  8
7250LEVEL
 62
13
 10
1997.579
 20
-7587.626
 30
-1977.000
 70
    32
  0
VERTEX
  8
7250LEVEL
 62
13
 10
1998.189
 20
-7589.341
 30
-1977.000
 70
    32
  0
SEQEND
  8
7250LEVEL
  0
POLYLINE
  8
7250LEVEL
 62
13
 66
     1
 70
     8
  0
VERTEX
  8
7250LEVEL
 62
13
 10
2189.420
 20
-7274.054
 30
-1977.000
 70
    32
  0
VERTEX
  8
7250LEVEL
 62
13
 10
2181.836
 20
-7258.662
 30
-1977.000
 70
    32
  0
VERTEX
  8
7250LEVEL
 62
13
 10
2172.964
 20
-7246.220
 30
-1977.000
 70
    32
  0
VERTEX
  8
7250LEVEL
 62
13
 10
2163.916
 20
-7227.780
 30
-1977.000
 70
    32
  0
VERTEX
  8
7250LEVEL
 62
13
 10
2157.134
 20
-7204.542
 30
-1977.000
 70
    32
  0
VERTEX
  8
7250LEVEL
 62
13
 10
2147.490
 20
-7169.468
 30
-1977.000
 70
    32
  0
VERTEX
  8
7250LEVEL
 62
13
 10
2137.622
 20
-7128.934
 30
-1977.000
 70
    32
  0
VERTEX
  8
7250LEVEL
 62
13
 10
2124.871
 20
-7091.094
 30
-1977.000
 70
    32
  0
VERTEX
  8
7250LEVEL
 62
13
 10
2118.443
 20
-7070.844
 30
-1977.000
 70
    32
  0
VERTEX
  8
7250LEVEL
 62
13
 10
2110.852
 20
-7050.041
 30
-1977.000
 70
    32
  0
VERTEX
  8
7250LEVEL
 62
13
 10
2099.081
 20
-7035.451
 30
-1977.000
 70
    32
  0
VERTEX
  8
7250LEVEL
 62
13
 10
2086.214
 20
-7021.262
 30
-1977.000
 70
    32
  0
VERTEX
  8
7250LEVEL
 62
13
 10
2081.241
 20
-7012.678
 30
-1977.000
 70
    32
  0
VERTEX
  8
7250LEVEL
 62
13
 10
2074.206
 20
-7002.105
 30
-1977.000
 70
    32
  0
VERTEX
  8
7250LEVEL
 62
13
 10
2066.778
 20
-6990.186
 30
-1977.000
 70
    32
  0
VERTEX
  8
7250LEVEL
 62
13
 10
2062.554
 20
-6983.622
 30
-1977.000
 70
    32
  0
VERTEX
  8
7250LEVEL
 62
13
 10
2059.811
 20
-6981.599
 30
-1977.000
 70
    32
  0
VERTEX
  8
7250LEVEL
 62
13
 10
2058.622
 20
-6981.797
 30
-1977.000
 70
    32
  0
VERTEX
  8
7250LEVEL
 62
13
 10
2058.378
 20
-6985.526
 30
-1977.000
 70
    32
  0
VERTEX
  8
7250LEVEL
 62
13
 10
2057.665
 20
-6989.198
 30
-1977.000
 70
    32
  0
VERTEX
  8
7250LEVEL
 62
13
 10
2055.355
 20
-6991.580
 30
-1977.000
 70
    32
  0
VERTEX
  8
7250LEVEL
 62
13
 10
2052.262
 20
-6995.968
 30
-1977.000
 70
    32
  0
VERTEX
  8
7250LEVEL
 62
13
 10
2050.636
 20
-6997.743
 30
-1977.000
 70
    32
  0
VERTEX
  8
7250LEVEL
 62
13
 10
2047.386
 20
-6996.985
 30
-1977.000
 70
    32
  0
VERTEX
  8
7250LEVEL
 62
13
 10
2041.708
 20
-6992.142
 30
-1977.000
 70
    32
  0
VERTEX
  8
7250LEVEL
 62
13
 10
2037.295
 20
-6987.806
 30
-1977.000
 70
    32
  0
VERTEX
  8
7250LEVEL
 62
13
 10
2032.002
 20
-6984.239
 30
-1977.000
 70
    32
  0
VERTEX
  8
7250LEVEL
 62
13
 10
2030.545
 20
-6984.928
 30
-1977.000
 70
    32
  0
VERTEX
  8
7250LEVEL
 62
13
 10
2029.384
 20
-6987.402
 30
-1977.000
 70
    32
  0
VERTEX
  8
7250LEVEL
 62
13
 10
2026.075
 20
-6987.754
 30
-1977.000
 70
    32
  0
VERTEX
  8
7250LEVEL
 62
13
 10
2023.562
 20
-6988.235
 30
-1977.000
 70
    32
  0
VERTEX
  8
7250LEVEL
 62
13
 10
2021.615
 20
-6988.336
 30
-1977.000
 70
    32
  0
VERTEX
  8
7250LEVEL
 62
13
 10
2020.429
 20
-6989.566
 30
-1977.000
 70
    32
  0
VERTEX
  8
7250LEVEL
 62
13
 10
2020.956
 20
-6992.180
 30
-1977.000
 70
    32
  0
VERTEX
  8
7250LEVEL
 62
13
 10
2025.382
 20
-6997.298
 30
-1977.000
 70
    32
  0
VERTEX
  8
7250LEVEL
 62
13
 10
2029.658
 20
-7004.355
 30
-1977.000
 70
    32
  0
VERTEX
  8
7250LEVEL
 62
13
 10
2031.995
 20
-7007.916
 30
-1977.000
 70
    32
  0
VERTEX
  8
7250LEVEL
 62
13
 10
2032.627
 20
-7016.535
 30
-1977.000
 70
    32
  0
VERTEX
  8
7250LEVEL
 62
13
 10
2031.620
 20
-7021.449
 30
-1977.000
 70
    32
  0
VERTEX
  8
7250LEVEL
 62
13
 10
2031.123
 20
-7029.156
 30
-1977.000
 70
    32
  0
VERTEX
  8
7250LEVEL
 62
13
 10
2035.202
 20
-7034.703
 30
-1977.000
 70
    32
  0
VERTEX
  8
7250LEVEL
 62
13
 10
2042.945
 20
-7046.233
 30
-1977.000
 70
    32
  0
VERTEX
  8
7250LEVEL
 62
13
 10
2048.550
 20
-7053.398
 30
-1977.000
 70
    32
  0
VERTEX
  8
7250LEVEL
 62
13
 10
2055.585
 20
-7060.624
 30
-1977.000
 70
    32
  0
VERTEX
  8
7250LEVEL
 62
13
 10
2061.151
 20
-7069.430
 30
-1977.000
 70
    32
  0
VERTEX
  8
7250LEVEL
 62
13
 10
2063.925
 20
-7076.433
 30
-1977.000
 70
    32
  0
VERTEX
  8
7250LEVEL
 62
13
 10
2065.694
 20
-7088.030
 30
-1977.000
 70
    32
  0
VERTEX
  8
7250LEVEL
 62
13
 10
2067.384
 20
-7099.563
 30
-1977.000
 70
    32
  0
VERTEX
  8
7250LEVEL
 62
13
 10
2067.924
 20
-7111.325
 30
-1977.000
 70
    32
  0
VERTEX
  8
7250LEVEL
 62
13
 10
2069.454
 20
-7127.362
 30
-1977.000
 70
    32
  0
VERTEX
  8
7250LEVEL
 62
13
 10
2071.445
 20
-7136.371
 30
-1977.000
 70
    32
  0
VERTEX
  8
7250LEVEL
 62
13
 10
2072.974
 20
-7147.387
 30
-1977.000
 70
    32
  0
VERTEX
  8
7250LEVEL
 62
13
 10
2074.664
 20
-7160.594
 30
-1977.000
 70
    32
  0
VERTEX
  8
7250LEVEL
 62
13
 10
2078.071
 20
-7183.230
 30
-1977.000
 70
    32
  0
VERTEX
  8
7250LEVEL
 62
13
 10
2079.568
 20
-7195.959
 30
-1977.000
 70
    32
  0
VERTEX
  8
7250LEVEL
 62
13
 10
2079.387
 20
-7216.663
 30
-1977.000
 70
    32
  0
VERTEX
  8
7250LEVEL
 62
13
 10
2078.988
 20
-7226.959
 30
-1977.000
 70
    32
  0
VERTEX
  8
7250LEVEL
 62
13
 10
2076.633
 20
-7235.612
 30
-1977.000
 70
    32
  0
VERTEX
  8
7250LEVEL
 62
13
 10
2072.306
 20
-7243.122
 30
-1977.000
 70
    32
  0
VERTEX
  8
7250LEVEL
 62
13
 10
2067.937
 20
-7246.222
 30
-1977.000
 70
    32
  0
VERTEX
  8
7250LEVEL
 62
13
 10
2065.107
 20
-7246.060
 30
-1977.000
 70
    32
  0
VERTEX
  8
7250LEVEL
 62
13
 10
2057.038
 20
-7240.831
 30
-1977.000
 70
    32
  0
VERTEX
  8
7250LEVEL
 62
13
 10
2051.406
 20
-7232.743
 30
-1977.000
 70
    32
  0
VERTEX
  8
7250LEVEL
 62
13
 10
2044.598
 20
-7215.275
 30
-1977.000
 70
    32
  0
VERTEX
  8
7250LEVEL
 62
13
 10
2041.035
 20
-7201.200
 30
-1977.000
 70
    32
  0
VERTEX
  8
7250LEVEL
 62
13
 10
2032.092
 20
-7168.365
 30
-1977.000
 70
    32
  0
VERTEX
  8
7250LEVEL
 62
13
 10
2025.179
 20
-7144.892
 30
-1977.000
 70
    32
  0
VERTEX
  8
7250LEVEL
 62
13
 10
2018.050
 20
-7120.729
 30
-1977.000
 70
    32
  0
VERTEX
  8
7250LEVEL
 62
13
 10
2014.061
 20
-7105.666
 30
-1977.000
 70
    32
  0
VERTEX
  8
7250LEVEL
 62
13
 10
2008.186
 20
-7092.620
 30
-1977.000
 70
    32
  0
VERTEX
  8
7250LEVEL
 62
13
 10
2003.351
 20
-7081.315
 30
-1977.000
 70
    32
  0
VERTEX
  8
7250LEVEL
 62
13
 10
1996.782
 20
-7068.094
 30
-1977.000
 70
    32
  0
VERTEX
  8
7250LEVEL
 62
13
 10
1992.859
 20
-7055.659
 30
-1977.000
 70
    32
  0
VERTEX
  8
7250LEVEL
 62
13
 10
1994.257
 20
-7047.393
 30
-1977.000
 70
    32
  0
VERTEX
  8
7250LEVEL
 62
13
 10
1995.731
 20
-7036.484
 30
-1977.000
 70
    32
  0
VERTEX
  8
7250LEVEL
 62
13
 10
1998.835
 20
-7024.512
 30
-1977.000
 70
    32
  0
VERTEX
  8
7250LEVEL
 62
13
 10
2000.803
 20
-7014.903
 30
-1977.000
 70
    32
  0
VERTEX
  8
7250LEVEL
 62
13
 10
1998.636
 20
-7004.916
 30
-1977.000
 70
    32
  0
VERTEX
  8
7250LEVEL
 62
13
 10
1992.482
 20
-6991.579
 30
-1977.000
 70
    32
  0
VERTEX
  8
7250LEVEL
 62
13
 10
1985.671
 20
-6978.099
 30
-1977.000
 70
    32
  0
VERTEX
  8
7250LEVEL
 62
13
 10
1980.650
 20
-6969.733
 30
-1977.000
 70
    32
  0
VERTEX
  8
7250LEVEL
 62
13
 10
1970.042
 20
-6955.696
 30
-1977.000
 70
    32
  0
VERTEX
  8
7250LEVEL
 62
13
 10
1964.730
 20
-6945.936
 30
-1977.000
 70
    32
  0
VERTEX
  8
7250LEVEL
 62
13
 10
1960.205
 20
-6931.857
 30
-1977.000
 70
    32
  0
VERTEX
  8
7250LEVEL
 62
13
 10
1959.109
 20
-6915.204
 30
-1977.000
 70
    32
  0
VERTEX
  8
7250LEVEL
 62
13
 10
1954.702
 20
-6894.205
 30
-1977.000
 70
    32
  0
VERTEX
  8
7250LEVEL
 62
13
 10
1949.940
 20
-6868.865
 30
-1977.000
 70
    32
  0
VERTEX
  8
7250LEVEL
 62
13
 10
1944.209
 20
-6851.816
 30
-1977.000
 70
    32
  0
VERTEX
  8
7250LEVEL
 62
13
 10
1943.228
 20
-6843.946
 30
-1977.000
 70
    32
  0
VERTEX
  8
7250LEVEL
 62
13
 10
1943.180
 20
-6842.491
 30
-1977.000
 70
    32
  0
VERTEX
  8
7250LEVEL
 62
13
 10
1942.115
 20
-6834.487
 30
-1977.000
 70
    32
  0
VERTEX
  8
7250LEVEL
 62
13
 10
1943.590
 20
-6833.298
 30
-1977.000
 70
    32
  0
VERTEX
  8
7250LEVEL
 62
13
 10
1946.506
 20
-6836.939
 30
-1977.000
 70
    32
  0
VERTEX
  8
7250LEVEL
 62
13
 10
1950.333
 20
-6842.798
 30
-1977.000
 70
    32
  0
VERTEX
  8
7250LEVEL
 62
13
 10
1954.368
 20
-6847.922
 30
-1977.000
 70
    32
  0
VERTEX
  8
7250LEVEL
 62
13
 10
1961.782
 20
-6849.340
 30
-1977.000
 70
    32
  0
VERTEX
  8
7250LEVEL
 62
13
 10
1969.252
 20
-6848.616
 30
-1977.000
 70
    32
  0
VERTEX
  8
7250LEVEL
 62
13
 10
1975.639
 20
-6850.749
 30
-1977.000
 70
    32
  0
VERTEX
  8
7250LEVEL
 62
13
 10
1984.811
 20
-6853.974
 30
-1977.000
 70
    32
  0
VERTEX
  8
7250LEVEL
 62
13
 10
1989.383
 20
-6854.448
 30
-1977.000
 70
    32
  0
VERTEX
  8
7250LEVEL
 62
13
 10
1991.086
 20
-6851.383
 30
-1977.000
 70
    32
  0
VERTEX
  8
7250LEVEL
 62
13
 10
1994.605
 20
-6849.656
 30
-1977.000
 70
    32
  0
VERTEX
  8
7250LEVEL
 62
13
 10
2003.965
 20
-6854.641
 30
-1977.000
 70
    32
  0
VERTEX
  8
7250LEVEL
 62
13
 10
2013.209
 20
-6862.878
 30
-1977.000
 70
    32
  0
VERTEX
  8
7250LEVEL
 62
13
 10
2021.844
 20
-6869.079
 30
-1977.000
 70
    32
  0
VERTEX
  8
7250LEVEL
 62
13
 10
2038.429
 20
-6877.389
 30
-1977.000
 70
    32
  0
VERTEX
  8
7250LEVEL
 62
13
 10
2050.009
 20
-6879.147
 30
-1977.000
 70
    32
  0
VERTEX
  8
7250LEVEL
 62
13
 10
2054.433
 20
-6879.566
 30
-1977.000
 70
    32
  0
VERTEX
  8
7250LEVEL
 62
13
 10
2061.440
 20
-6880.849
 30
-1977.000
 70
    32
  0
VERTEX
  8
7250LEVEL
 62
13
 10
2067.521
 20
-6883.121
 30
-1977.000
 70
    32
  0
VERTEX
  8
7250LEVEL
 62
13
 10
2073.770
 20
-6891.321
 30
-1977.000
 70
    32
  0
VERTEX
  8
7250LEVEL
 62
13
 10
2074.275
 20
-6897.071
 30
-1977.000
 70
    32
  0
VERTEX
  8
7250LEVEL
 62
13
 10
2071.518
 20
-6911.641
 30
-1977.000
 70
    32
  0
VERTEX
  8
7250LEVEL
 62
13
 10
2070.276
 20
-6921.706
 30
-1977.000
 70
    32
  0
VERTEX
  8
7250LEVEL
 62
13
 10
2068.320
 20
-6933.770
 30
-1977.000
 70
    32
  0
VERTEX
  8
7250LEVEL
 62
13
 10
2068.620
 20
-6941.606
 30
-1977.000
 70
    32
  0
VERTEX
  8
7250LEVEL
 62
13
 10
2070.192
 20
-6946.672
 30
-1977.000
 70
    32
  0
VERTEX
  8
7250LEVEL
 62
13
 10
2073.212
 20
-6949.626
 30
-1977.000
 70
    32
  0
VERTEX
  8
7250LEVEL
 62
13
 10
2076.617
 20
-6952.183
 30
-1977.000
 70
    32
  0
VERTEX
  8
7250LEVEL
 62
13
 10
2077.819
 20
-6952.767
 30
-1977.000
 70
    32
  0
VERTEX
  8
7250LEVEL
 62
13
 10
2078.854
 20
-6952.123
 30
-1977.000
 70
    32
  0
VERTEX
  8
7250LEVEL
 62
13
 10
2078.594
 20
-6949.017
 30
-1977.000
 70
    32
  0
VERTEX
  8
7250LEVEL
 62
13
 10
2076.575
 20
-6942.753
 30
-1977.000
 70
    32
  0
VERTEX
  8
7250LEVEL
 62
13
 10
2076.510
 20
-6934.785
 30
-1977.000
 70
    32
  0
VERTEX
  8
7250LEVEL
 62
13
 10
2078.262
 20
-6929.507
 30
-1977.000
 70
    32
  0
VERTEX
  8
7250LEVEL
 62
13
 10
2081.062
 20
-6926.040
 30
-1977.000
 70
    32
  0
VERTEX
  8
7250LEVEL
 62
13
 10
2085.103
 20
-6924.542
 30
-1977.000
 70
    32
  0
VERTEX
  8
7250LEVEL
 62
13
 10
2089.578
 20
-6927.448
 30
-1977.000
 70
    32
  0
VERTEX
  8
7250LEVEL
 62
13
 10
2097.033
 20
-6933.597
 30
-1977.000
 70
    32
  0
VERTEX
  8
7250LEVEL
 62
13
 10
2108.327
 20
-6941.367
 30
-1977.000
 70
    32
  0
VERTEX
  8
7250LEVEL
 62
13
 10
2115.403
 20
-6948.303
 30
-1977.000
 70
    32
  0
VERTEX
  8
7250LEVEL
 62
13
 10
2118.678
 20
-6953.651
 30
-1977.000
 70
    32
  0
VERTEX
  8
7250LEVEL
 62
13
 10
2125.159
 20
-6964.034
 30
-1977.000
 70
    32
  0
VERTEX
  8
7250LEVEL
 62
13
 10
2132.497
 20
-6973.435
 30
-1977.000
 70
    32
  0
VERTEX
  8
7250LEVEL
 62
13
 10
2138.034
 20
-6981.639
 30
-1977.000
 70
    32
  0
VERTEX
  8
7250LEVEL
 62
13
 10
2141.880
 20
-6986.997
 30
-1977.000
 70
    32
  0
VERTEX
  8
7250LEVEL
 62
13
 10
2144.475
 20
-6990.637
 30
-1977.000
 70
    32
  0
VERTEX
  8
7250LEVEL
 62
13
 10
2146.995
 20
-6995.247
 30
-1977.000
 70
    32
  0
VERTEX
  8
7250LEVEL
 62
13
 10
2147.873
 20
-6999.817
 30
-1977.000
 70
    32
  0
VERTEX
  8
7250LEVEL
 62
13
 10
2148.845
 20
-7004.271
 30
-1977.000
 70
    32
  0
VERTEX
  8
7250LEVEL
 62
13
 10
2149.551
 20
-7012.242
 30
-1977.000
 70
    32
  0
VERTEX
  8
7250LEVEL
 62
13
 10
2151.769
 20
-7021.369
 30
-1977.000
 70
    32
  0
VERTEX
  8
7250LEVEL
 62
13
 10
2154.310
 20
-7029.857
 30
-1977.000
 70
    32
  0
VERTEX
  8
7250LEVEL
 62
13
 10
2155.839
 20
-7040.873
 30
-1977.000
 70
    32
  0
VERTEX
  8
7250LEVEL
 62
13
 10
2159.199
 20
-7055.041
 30
-1977.000
 70
    32
  0
VERTEX
  8
7250LEVEL
 62
13
 10
2162.540
 20
-7064.690
 30
-1977.000
 70
    32
  0
VERTEX
  8
7250LEVEL
 62
13
 10
2166.985
 20
-7075.680
 30
-1977.000
 70
    32
  0
VERTEX
  8
7250LEVEL
 62
13
 10
2171.958
 20
-7092.632
 30
-1977.000
 70
    32
  0
VERTEX
  8
7250LEVEL
 62
13
 10
2174.423
 20
-7104.083
 30
-1977.000
 70
    32
  0
VERTEX
  8
7250LEVEL
 62
13
 10
2175.777
 20
-7119.141
 30
-1977.000
 70
    32
  0
VERTEX
  8
7250LEVEL
 62
13
 10
2175.893
 20
-7127.922
 30
-1977.000
 70
    32
  0
VERTEX
  8
7250LEVEL
 62
13
 10
2175.786
 20
-7137.617
 30
-1977.000
 70
    32
  0
VERTEX
  8
7250LEVEL
 62
13
 10
2175.932
 20
-7155.047
 30
-1977.000
 70
    32
  0
VERTEX
  8
7250LEVEL
 62
13
 10
2175.045
 20
-7167.780
 30
-1977.000
 70
    32
  0
VERTEX
  8
7250LEVEL
 62
13
 10
2174.607
 20
-7186.411
 30
-1977.000
 70
    32
  0
VERTEX
  8
7250LEVEL
 62
13
 10
2174.156
 20
-7201.234
 30
-1977.000
 70
    32
  0
VERTEX
  8
7250LEVEL
 62
13
 10
2174.268
 20
-7214.324
 30
-1977.000
 70
    32
  0
VERTEX
  8
7250LEVEL
 62
13
 10
2175.990
 20
-7227.492
 30
-1977.000
 70
    32
  0
VERTEX
  8
7250LEVEL
 62
13
 10
2181.280
 20
-7235.046
 30
-1977.000
 70
    32
  0
VERTEX
  8
7250LEVEL
 62
13
 10
2184.558
 20
-7239.753
 30
-1977.000
 70
    32
  0
VERTEX
  8
7250LEVEL
 62
13
 10
2188.576
 20
-7246.730
 30
-1977.000
 70
    32
  0
VERTEX
  8
7250LEVEL
 62
13
 10
2191.863
 20
-7252.860
 30
-1977.000
 70
    32
  0
VERTEX
  8
7250LEVEL
 62
13
 10
2195.952
 20
-7259.830
 30
-1977.000
 70
    32
  0
VERTEX
  8
7250LEVEL
 62
13
 10
2199.102
 20
-7265.013
 30
-1977.000
 70
    32
  0
SEQEND
  8
7250LEVEL
  0
POLYLINE
  8
7250LEVEL
 62
13
 66
     1
 70
     8
  0
VERTEX
  8
7250LEVEL
 62
13
 10
2185.228
 20
-7072.136
 30
-1977.000
 70
    32
  0
VERTEX
  8
7250LEVEL
 62
13
 10
2179.257
 20
-7054.508
 30
-1977.000
 70
    32
  0
VERTEX
  8
7250LEVEL
 62
13
 10
2173.259
 20
-7032.610
 30
-1977.000
 70
    32
  0
VERTEX
  8
7250LEVEL
 62
13
 10
2169.517
 20
-7014.851
 30
-1977.000
 70
    32
  0
VERTEX
  8
7250LEVEL
 62
13
 10
2164.161
 20
-6997.976
 30
-1977.000
 70
    32
  0
VERTEX
  8
7250LEVEL
 62
13
 10
2157.766
 20
-6984.060
 30
-1977.000
 70
    32
  0
VERTEX
  8
7250LEVEL
 62
13
 10
2146.425
 20
-6964.476
 30
-1977.000
 70
    32
  0
VERTEX
  8
7250LEVEL
 62
13
 10
2139.155
 20
-6950.368
 30
-1977.000
 70
    32
  0
VERTEX
  8
7250LEVEL
 62
13
 10
2134.219
 20
-6937.435
 30
-1977.000
 70
    32
  0
VERTEX
  8
7250LEVEL
 62
13
 10
2132.569
 20
-6928.960
 30
-1977.000
 70
    32
  0
VERTEX
  8
7250LEVEL
 62
13
 10
2131.981
 20
-6915.743
 30
-1977.000
 70
    32
  0
VERTEX
  8
7250LEVEL
 62
13
 10
2132.556
 20
-6899.411
 30
-1977.000
 70
    32
  0
VERTEX
  8
7250LEVEL
 62
13
 10
2133.530
 20
-6884.817
 30
-1977.000
 70
    32
  0
VERTEX
  8
7250LEVEL
 62
13
 10
2132.816
 20
-6870.083
 30
-1977.000
 70
    32
  0
VERTEX
  8
7250LEVEL
 62
13
 10
2129.336
 20
-6858.455
 30
-1977.000
 70
    32
  0
VERTEX
  8
7250LEVEL
 62
13
 10
2122.372
 20
-6849.228
 30
-1977.000
 70
    32
  0
VERTEX
  8
7250LEVEL
 62
13
 10
2114.895
 20
-6844.541
 30
-1977.000
 70
    32
  0
VERTEX
  8
7250LEVEL
 62
13
 10
2098.279
 20
-6837.943
 30
-1977.000
 70
    32
  0
VERTEX
  8
7250LEVEL
 62
13
 10
2082.559
 20
-6828.402
 30
-1977.000
 70
    32
  0
VERTEX
  8
7250LEVEL
 62
13
 10
2076.029
 20
-6820.232
 30
-1977.000
 70
    32
  0
VERTEX
  8
7250LEVEL
 62
13
 10
2074.047
 20
-6802.286
 30
-1977.000
 70
    32
  0
VERTEX
  8
7250LEVEL
 62
13
 10
2074.915
 20
-6782.007
 30
-1977.000
 70
    32
  0
VERTEX
  8
7250LEVEL
 62
13
 10
2074.788
 20
-6775.469
 30
-1977.000
 70
    32
  0
VERTEX
  8
7250LEVEL
 62
13
 10
2073.034
 20
-6767.681
 30
-1977.000
 70
    32
  0
VERTEX
  8
7250LEVEL
 62
13
 10
2069.916
 20
-6760.465
 30
-1977.000
 70
    32
  0
VERTEX
  8
7250LEVEL
 62
13
 10
2064.492
 20
-6752.997
 30
-1977.000
 70
    32
  0
VERTEX
  8
7250LEVEL
 62
13
 10
2053.497
 20
-6741.350
 30
-1977.000
 70
    32
  0
VERTEX
  8
7250LEVEL
 62
13
 10
2046.951
 20
-6733.360
 30
-1977.000
 70
    32
  0
VERTEX
  8
7250LEVEL
 62
13
 10
2042.021
 20
-6722.172
 30
-1977.000
 70
    32
  0
VERTEX
  8
7250LEVEL
 62
13
 10
2041.901
 20
-6712.679
 30
-1977.000
 70
    32
  0
VERTEX
  8
7250LEVEL
 62
13
 10
2044.673
 20
-6708.289
 30
-1977.000
 70
    32
  0
VERTEX
  8
7250LEVEL
 62
13
 10
2050.439
 20
-6704.258
 30
-1977.000
 70
    32
  0
VERTEX
  8
7250LEVEL
 62
13
 10
2054.395
 20
-6700.953
 30
-1977.000
 70
    32
  0
VERTEX
  8
7250LEVEL
 62
13
 10
2056.190
 20
-6698.412
 30
-1977.000
 70
    32
  0
VERTEX
  8
7250LEVEL
 62
13
 10
2058.606
 20
-6696.695
 30
-1977.000
 70
    32
  0
VERTEX
  8
7250LEVEL
 62
13
 10
2059.710
 20
-6698.037
 30
-1977.000
 70
    32
  0
VERTEX
  8
7250LEVEL
 62
13
 10
2059.358
 20
-6703.095
 30
-1977.000
 70
    32
  0
VERTEX
  8
7250LEVEL
 62
13
 10
2058.496
 20
-6710.378
 30
-1977.000
 70
    32
  0
VERTEX
  8
7250LEVEL
 62
13
 10
2058.696
 20
-6719.613
 30
-1977.000
 70
    32
  0
VERTEX
  8
7250LEVEL
 62
13
 10
2060.271
 20
-6727.385
 30
-1977.000
 70
    32
  0
VERTEX
  8
7250LEVEL
 62
13
 10
2064.446
 20
-6734.168
 30
-1977.000
 70
    32
  0
VERTEX
  8
7250LEVEL
 62
13
 10
2073.489
 20
-6746.877
 30
-1977.000
 70
    32
  0
VERTEX
  8
7250LEVEL
 62
13
 10
2077.540
 20
-6755.168
 30
-1977.000
 70
    32
  0
VERTEX
  8
7250LEVEL
 62
13
 10
2084.702
 20
-6773.951
 30
-1977.000
 70
    32
  0
VERTEX
  8
7250LEVEL
 62
13
 10
2087.647
 20
-6784.888
 30
-1977.000
 70
    32
  0
VERTEX
  8
7250LEVEL
 62
13
 10
2090.318
 20
-6798.951
 30
-1977.000
 70
    32
  0
VERTEX
  8
7250LEVEL
 62
13
 10
2092.874
 20
-6804.233
 30
-1977.000
 70
    32
  0
VERTEX
  8
7250LEVEL
 62
13
 10
2099.851
 20
-6810.576
 30
-1977.000
 70
    32
  0
VERTEX
  8
7250LEVEL
 62
13
 10
2113.643
 20
-6824.416
 30
-1977.000
 70
    32
  0
VERTEX
  8
7250LEVEL
 62
13
 10
2120.011
 20
-6828.723
 30
-1977.000
 70
    32
  0
VERTEX
  8
7250LEVEL
 62
13
 10
2133.565
 20
-6839.990
 30
-1977.000
 70
    32
  0
VERTEX
  8
7250LEVEL
 62
13
 10
2138.191
 20
-6845.657
 30
-1977.000
 70
    32
  0
VERTEX
  8
7250LEVEL
 62
13
 10
2140.638
 20
-6852.588
 30
-1977.000
 70
    32
  0
VERTEX
  8
7250LEVEL
 62
13
 10
2143.488
 20
-6865.315
 30
-1977.000
 70
    32
  0
VERTEX
  8
7250LEVEL
 62
13
 10
2145.039
 20
-6874.869
 30
-1977.000
 70
    32
  0
VERTEX
  8
7250LEVEL
 62
13
 10
2146.151
 20
-6886.322
 30
-1977.000
 70
    32
  0
VERTEX
  8
7250LEVEL
 62
13
 10
2144.508
 20
-6905.330
 30
-1977.000
 70
    32
  0
VERTEX
  8
7250LEVEL
 62
13
 10
2143.256
 20
-6917.319
 30
-1977.000
 70
    32
  0
VERTEX
  8
7250LEVEL
 62
13
 10
2141.885
 20
-6923.162
 30
-1977.000
 70
    32
  0
VERTEX
  8
7250LEVEL
 62
13
 10
2141.953
 20
-6933.835
 30
-1977.000
 70
    32
  0
VERTEX
  8
7250LEVEL
 62
13
 10
2144.744
 20
-6940.658
 30
-1977.000
 70
    32
  0
VERTEX
  8
7250LEVEL
 62
13
 10
2148.018
 20
-6948.000
 30
-1977.000
 70
    32
  0
VERTEX
  8
7250LEVEL
 62
13
 10
2156.101
 20
-6965.404
 30
-1977.000
 70
    32
  0
VERTEX
  8
7250LEVEL
 62
13
 10
2160.023
 20
-6972.819
 30
-1977.000
 70
    32
  0
VERTEX
  8
7250LEVEL
 62
13
 10
2164.609
 20
-6982.121
 30
-1977.000
 70
    32
  0
VERTEX
  8
7250LEVEL
 62
13
 10
2170.253
 20
-6994.337
 30
-1977.000
 70
    32
  0
VERTEX
  8
7250LEVEL
 62
13
 10
2173.411
 20
-7002.937
 30
-1977.000
 70
    32
  0
VERTEX
  8
7250LEVEL
 62
13
 10
2174.883
 20
-7011.076
 30
-1977.000
 70
    32
  0
VERTEX
  8
7250LEVEL
 62
13
 10
2177.310
 20
-7018.828
 30
-1977.000
 70
    32
  0
VERTEX
  8
7250LEVEL
 62
13
 10
2180.449
 20
-7026.576
 30
-1977.000
 70
    32
  0
VERTEX
  8
7250LEVEL
 62
13
 10
2184.992
 20
-7033.462
 30
-1977.000
 70
    32
  0
VERTEX
  8
7250LEVEL
 62
13
 10
2190.301
 20
-7041.868
 30
-1977.000
 70
    32
  0
VERTEX
  8
7250LEVEL
 62
13
 10
2193.894
 20
-7047.859
 30
-1977.000
 70
    32
  0
VERTEX
  8
7250LEVEL
 62
13
 10
2197.365
 20
-7053.043
 30
-1977.000
 70
    32
  0
SEQEND
  8
7250LEVEL
  0
POLYLINE
  8
7250LEVEL
 62
13
 66
     1
 70
     9
  0
VERTEX
  8
7250LEVEL
 62
13
 10
1943.656
 20
-6364.016
 30
-1977.000
 70
    32
  0
VERTEX
  8
7250LEVEL
 62
13
 10
1951.289
 20
-6377.195
 30
-1977.000
 70
    32
  0
VERTEX
  8
7250LEVEL
 62
13
 10
1959.904
 20
-6389.557
 30
-1977.000
 70
    32
  0
VERTEX
  8
7250LEVEL
 62
13
 10
1967.485
 20
-6403.917
 30
-1977.000
 70
    32
  0
VERTEX
  8
7250LEVEL
 62
13
 10
1977.052
 20
-6423.227
 30
-1977.000
 70
    32
  0
VERTEX
  8
7250LEVEL
 62
13
 10
1984.090
 20
-6438.499
 30
-1977.000
 70
    32
  0
VERTEX
  8
7250LEVEL
 62
13
 10
1993.325
 20
-6457.026
 30
-1977.000
 70
    32
  0
VERTEX
  8
7250LEVEL
 62
13
 10
2002.307
 20
-6471.166
 30
-1977.000
 70
    32
  0
VERTEX
  8
7250LEVEL
 62
13
 10
2009.153
 20
-6478.625
 30
-1977.000
 70
    32
  0
VERTEX
  8
7250LEVEL
 62
13
 10
2019.371
 20
-6492.669
 30
-1977.000
 70
    32
  0
VERTEX
  8
7250LEVEL
 62
13
 10
2022.400
 20
-6498.719
 30
-1977.000
 70
    32
  0
VERTEX
  8
7250LEVEL
 62
13
 10
2026.514
 20
-6508.606
 30
-1977.000
 70
    32
  0
VERTEX
  8
7250LEVEL
 62
13
 10
2027.323
 20
-6512.863
 30
-1977.000
 70
    32
  0
VERTEX
  8
7250LEVEL
 62
13
 10
2029.080
 20
-6520.331
 30
-1977.000
 70
    32
  0
VERTEX
  8
7250LEVEL
 62
13
 10
2029.045
 20
-6524.358
 30
-1977.000
 70
    32
  0
VERTEX
  8
7250LEVEL
 62
13
 10
2027.840
 20
-6526.408
 30
-1977.000
 70
    32
  0
VERTEX
  8
7250LEVEL
 62
13
 10
2025.178
 20
-6525.481
 30
-1977.000
 70
    32
  0
VERTEX
  8
7250LEVEL
 62
13
 10
2021.122
 20
-6523.172
 30
-1977.000
 70
    32
  0
VERTEX
  8
7250LEVEL
 62
13
 10
2018.520
 20
-6524.481
 30
-1977.000
 70
    32
  0
VERTEX
  8
7250LEVEL
 62
13
 10
2015.699
 20
-6537.776
 30
-1977.000
 70
    32
  0
VERTEX
  8
7250LEVEL
 62
13
 10
2015.935
 20
-6546.011
 30
-1977.000
 70
    32
  0
VERTEX
  8
7250LEVEL
 62
13
 10
2017.021
 20
-6554.547
 30
-1977.000
 70
    32
  0
VERTEX
  8
7250LEVEL
 62
13
 10
2018.763
 20
-6563.547
 30
-1977.000
 70
    32
  0
VERTEX
  8
7250LEVEL
 62
13
 10
2018.745
 20
-6569.067
 30
-1977.000
 70
    32
  0
VERTEX
  8
7250LEVEL
 62
13
 10
2016.010
 20
-6573.808
 30
-1977.000
 70
    32
  0
VERTEX
  8
7250LEVEL
 62
13
 10
2010.105
 20
-6580.881
 30
-1977.000
 70
    32
  0
VERTEX
  8
7250LEVEL
 62
13
 10
2002.464
 20
-6589.705
 30
-1977.000
 70
    32
  0
VERTEX
  8
7250LEVEL
 62
13
 10
1998.563
 20
-6599.875
 30
-1977.000
 70
    32
  0
VERTEX
  8
7250LEVEL
 62
13
 10
1997.718
 20
-6606.658
 30
-1977.000
 70
    32
  0
VERTEX
  8
7250LEVEL
 62
13
 10
1997.045
 20
-6618.728
 30
-1977.000
 70
    32
  0
VERTEX
  8
7250LEVEL
 62
13
 10
1999.173
 20
-6627.011
 30
-1977.000
 70
    32
  0
VERTEX
  8
7250LEVEL
 62
13
 10
2001.448
 20
-6630.329
 30
-1977.000
 70
    32
  0
VERTEX
  8
7250LEVEL
 62
13
 10
2003.843
 20
-6635.094
 30
-1977.000
 70
    32
  0
VERTEX
  8
7250LEVEL
 62
13
 10
2005.500
 20
-6638.620
 30
-1977.000
 70
    32
  0
VERTEX
  8
7250LEVEL
 62
13
 10
2006.312
 20
-6638.890
 30
-1977.000
 70
    32
  0
VERTEX
  8
7250LEVEL
 62
13
 10
2006.161
 20
-6634.135
 30
-1977.000
 70
    32
  0
VERTEX
  8
7250LEVEL
 62
13
 10
2005.123
 20
-6628.727
 30
-1977.000
 70
    32
  0
VERTEX
  8
7250LEVEL
 62
13
 10
2004.624
 20
-6625.042
 30
-1977.000
 70
    32
  0
VERTEX
  8
7250LEVEL
 62
13
 10
2004.926
 20
-6622.197
 30
-1977.000
 70
    32
  0
VERTEX
  8
7250LEVEL
 62
13
 10
2006.023
 20
-6623.469
 30
-1977.000
 70
    32
  0
VERTEX
  8
7250LEVEL
 62
13
 10
2007.188
 20
-6625.054
 30
-1977.000
 70
    32
  0
VERTEX
  8
7250LEVEL
 62
13
 10
2008.084
 20
-6625.777
 30
-1977.000
 70
    32
  0
VERTEX
  8
7250LEVEL
 62
13
 10
2008.282
 20
-6623.620
 30
-1977.000
 70
    32
  0
VERTEX
  8
7250LEVEL
 62
13
 10
2008.182
 20
-6614.659
 30
-1977.000
 70
    32
  0
VERTEX
  8
7250LEVEL
 62
13
 10
2009.574
 20
-6607.995
 30
-1977.000
 70
    32
  0
VERTEX
  8
7250LEVEL
 62
13
 10
2012.440
 20
-6600.143
 30
-1977.000
 70
    32
  0
VERTEX
  8
7250LEVEL
 62
13
 10
2014.275
 20
-6597.313
 30
-1977.000
 70
    32
  0
VERTEX
  8
7250LEVEL
 62
13
 10
2014.822
 20
-6597.432
 30
-1977.000
 70
    32
  0
VERTEX
  8
7250LEVEL
 62
13
 10
2018.180
 20
-6606.901
 30
-1977.000
 70
    32
  0
VERTEX
  8
7250LEVEL
 62
13
 10
2019.157
 20
-6608.720
 30
-1977.000
 70
    32
  0
VERTEX
  8
7250LEVEL
 62
13
 10
2023.238
 20
-6615.619
 30
-1977.000
 70
    32
  0
VERTEX
  8
7250LEVEL
 62
13
 10
2037.837
 20
-6625.672
 30
-1977.000
 70
    32
  0
VERTEX
  8
7250LEVEL
 62
13
 10
2048.648
 20
-6631.250
 30
-1977.000
 70
    32
  0
VERTEX
  8
7250LEVEL
 62
13
 10
2064.270
 20
-6639.876
 30
-1977.000
 70
    32
  0
VERTEX
  8
7250LEVEL
 62
13
 10
2068.900
 20
-6644.901
 30
-1977.000
 70
    32
  0
VERTEX
  8
7250LEVEL
 62
13
 10
2070.187
 20
-6650.639
 30
-1977.000
 70
    32
  0
VERTEX
  8
7250LEVEL
 62
13
 10
2071.413
 20
-6656.133
 30
-1977.000
 70
    32
  0
VERTEX
  8
7250LEVEL
 62
13
 10
2069.665
 20
-6667.143
 30
-1977.000
 70
    32
  0
VERTEX
  8
7250LEVEL
 62
13
 10
2063.900
 20
-6676.194
 30
-1977.000
 70
    32
  0
VERTEX
  8
7250LEVEL
 62
13
 10
2053.495
 20
-6687.484
 30
-1977.000
 70
    32
  0
VERTEX
  8
7250LEVEL
 62
13
 10
2047.495
 20
-6694.994
 30
-1977.000
 70
    32
  0
VERTEX
  8
7250LEVEL
 62
13
 10
2038.608
 20
-6709.505
 30
-1977.000
 70
    32
  0
VERTEX
  8
7250LEVEL
 62
13
 10
2036.047
 20
-6717.218
 30
-1977.000
 70
    32
  0
VERTEX
  8
7250LEVEL
 62
13
 10
2030.353
 20
-6737.975
 30
-1977.000
 70
    32
  0
VERTEX
  8
7250LEVEL
 62
13
 10
2030.278
 20
-6745.638
 30
-1977.000
 70
    32
  0
VERTEX
  8
7250LEVEL
 62
13
 10
2028.128
 20
-6762.564
 30
-1977.000
 70
    32
  0
VERTEX
  8
7250LEVEL
 62
13
 10
2025.753
 20
-6777.378
 30
-1977.000
 70
    32
  0
VERTEX
  8
7250LEVEL
 62
13
 10
2023.546
 20
-6794.773
 30
-1977.000
 70
    32
  0
VERTEX
  8
7250LEVEL
 62
13
 10
2023.529
 20
-6805.314
 30
-1977.000
 70
    32
  0
VERTEX
  8
7250LEVEL
 62
13
 10
2022.818
 20
-6810.338
 30
-1977.000
 70
    32
  0
VERTEX
  8
7250LEVEL
 62
13
 10
2022.427
 20
-6812.017
 30
-1977.000
 70
    32
  0
VERTEX
  8
7250LEVEL
 62
13
 10
2021.771
 20
-6813.547
 30
-1977.000
 70
    32
  0
VERTEX
  8
7250LEVEL
 62
13
 10
2018.922
 20
-6814.206
 30
-1977.000
 70
    32
  0
VERTEX
  8
7250LEVEL
 62
13
 10
2013.760
 20
-6812.869
 30
-1977.000
 70
    32
  0
VERTEX
  8
7250LEVEL
 62
13
 10
2005.620
 20
-6809.321
 30
-1977.000
 70
    32
  0
VERTEX
  8
7250LEVEL
 62
13
 10
1996.100
 20
-6803.498
 30
-1977.000
 70
    32
  0
VERTEX
  8
7250LEVEL
 62
13
 10
1983.781
 20
-6794.129
 30
-1977.000
 70
    32
  0
VERTEX
  8
7250LEVEL
 62
13
 10
1981.062
 20
-6791.997
 30
-1977.000
 70
    32
  0
VERTEX
  8
7250LEVEL
 62
13
 10
1975.994
 20
-6787.197
 30
-1977.000
 70
    32
  0
VERTEX
  8
7250LEVEL
 62
13
 10
1973.910
 20
-6786.350
 30
-1977.000
 70
    32
  0
VERTEX
  8
7250LEVEL
 62
13
 10
1972.609
 20
-6788.839
 30
-1977.000
 70
    32
  0
VERTEX
  8
7250LEVEL
 62
13
 10
1972.739
 20
-6792.741
 30
-1977.000
 70
    32
  0
VERTEX
  8
7250LEVEL
 62
13
 10
1973.616
 20
-6797.632
 30
-1977.000
 70
    32
  0
VERTEX
  8
7250LEVEL
 62
13
 10
1974.370
 20
-6802.038
 30
-1977.000
 70
    32
  0
VERTEX
  8
7250LEVEL
 62
13
 10
1974.436
 20
-6804.665
 30
-1977.000
 70
    32
  0
VERTEX
  8
7250LEVEL
 62
13
 10
1972.786
 20
-6806.229
 30
-1977.000
 70
    32
  0
VERTEX
  8
7250LEVEL
 62
13
 10
1969.244
 20
-6806.393
 30
-1977.000
 70
    32
  0
VERTEX
  8
7250LEVEL
 62
13
 10
1967.849
 20
-6805.331
 30
-1977.000
 70
    32
  0
VERTEX
  8
7250LEVEL
 62
13
 10
1966.450
 20
-6803.557
 30
-1977.000
 70
    32
  0
VERTEX
  8
7250LEVEL
 62
13
 10
1961.565
 20
-6794.465
 30
-1977.000
 70
    32
  0
VERTEX
  8
7250LEVEL
 62
13
 10
1954.744
 20
-6774.862
 30
-1977.000
 70
    32
  0
VERTEX
  8
7250LEVEL
 62
13
 10
1940.170
 20
-6740.633
 30
-1977.000
 70
    32
  0
VERTEX
  8
7250LEVEL
 62
13
 10
1932.617
 20
-6721.855
 30
-1977.000
 70
    32
  0
VERTEX
  8
7250LEVEL
 62
13
 10
1923.729
 20
-6697.559
 30
-1977.000
 70
    32
  0
VERTEX
  8
7250LEVEL
 62
13
 10
1913.919
 20
-6666.277
 30
-1977.000
 70
    32
  0
VERTEX
  8
7250LEVEL
 62
13
 10
1908.793
 20
-6638.519
 30
-1977.000
 70
    32
  0
VERTEX
  8
7250LEVEL
 62
13
 10
1903.793
 20
-6623.991
 30
-1977.000
 70
    32
  0
VERTEX
  8
7250LEVEL
 62
13
 10
1902.838
 20
-6615.690
 30
-1977.000
 70
    32
  0
VERTEX
  8
7250LEVEL
 62
13
 10
1902.511
 20
-6608.605
 30
-1977.000
 70
    32
  0
VERTEX
  8
7250LEVEL
 62
13
 10
1902.861
 20
-6605.541
 30
-1977.000
 70
    32
  0
VERTEX
  8
7250LEVEL
 62
13
 10
1903.543
 20
-6603.582
 30
-1977.000
 70
    32
  0
VERTEX
  8
7250LEVEL
 62
13
 10
1904.698
 20
-6604.064
 30
-1977.000
 70
    32
  0
VERTEX
  8
7250LEVEL
 62
13
 10
1905.595
 20
-6607.814
 30
-1977.000
 70
    32
  0
VERTEX
  8
7250LEVEL
 62
13
 10
1909.645
 20
-6616.426
 30
-1977.000
 70
    32
  0
VERTEX
  8
7250LEVEL
 62
13
 10
1914.868
 20
-6625.019
 30
-1977.000
 70
    32
  0
VERTEX
  8
7250LEVEL
 62
13
 10
1922.897
 20
-6637.231
 30
-1977.000
 70
    32
  0
VERTEX
  8
7250LEVEL
 62
13
 10
1934.847
 20
-6650.164
 30
-1977.000
 70
    32
  0
VERTEX
  8
7250LEVEL
 62
13
 10
1945.140
 20
-6661.565
 30
-1977.000
 70
    32
  0
VERTEX
  8
7250LEVEL
 62
13
 10
1954.801
 20
-6669.045
 30
-1977.000
 70
    32
  0
VERTEX
  8
7250LEVEL
 62
13
 10
1966.336
 20
-6678.747
 30
-1977.000
 70
    32
  0
VERTEX
  8
7250LEVEL
 62
13
 10
1977.704
 20
-6684.195
 30
-1977.000
 70
    32
  0
VERTEX
  8
7250LEVEL
 62
13
 10
1985.826
 20
-6687.923
 30
-1977.000
 70
    32
  0
VERTEX
  8
7250LEVEL
 62
13
 10
1989.083
 20
-6688.751
 30
-1977.000
 70
    32
  0
VERTEX
  8
7250LEVEL
 62
13
 10
1991.402
 20
-6687.792
 30
-1977.000
 70
    32
  0
VERTEX
  8
7250LEVEL
 62
13
 10
1991.610
 20
-6685.064
 30
-1977.000
 70
    32
  0
VERTEX
  8
7250LEVEL
 62
13
 10
1992.894
 20
-6683.076
 30
-1977.000
 70
    32
  0
VERTEX
  8
7250LEVEL
 62
13
 10
1995.362
 20
-6681.852
 30
-1977.000
 70
    32
  0
VERTEX
  8
7250LEVEL
 62
13
 10
1996.671
 20
-6679.434
 30
-1977.000
 70
    32
  0
VERTEX
  8
7250LEVEL
 62
13
 10
1998.165
 20
-6677.744
 30
-1977.000
 70
    32
  0
VERTEX
  8
7250LEVEL
 62
13
 10
2001.834
 20
-6677.425
 30
-1977.000
 70
    32
  0
VERTEX
  8
7250LEVEL
 62
13
 10
2007.746
 20
-6677.116
 30
-1977.000
 70
    32
  0
VERTEX
  8
7250LEVEL
 62
13
 10
2010.840
 20
-6676.075
 30
-1977.000
 70
    32
  0
VERTEX
  8
7250LEVEL
 62
13
 10
2013.416
 20
-6673.522
 30
-1977.000
 70
    32
  0
VERTEX
  8
7250LEVEL
 62
13
 10
2009.360
 20
-6664.519
 30
-1977.000
 70
    32
  0
VERTEX
  8
7250LEVEL
 62
13
 10
1999.356
 20
-6651.806
 30
-1977.000
 70
    32
  0
VERTEX
  8
7250LEVEL
 62
13
 10
1990.416
 20
-6640.404
 30
-1977.000
 70
    32
  0
VERTEX
  8
7250LEVEL
 62
13
 10
1985.613
 20
-6635.753
 30
-1977.000
 70
    32
  0
VERTEX
  8
7250LEVEL
 62
13
 10
1976.572
 20
-6629.416
 30
-1977.000
 70
    32
  0
VERTEX
  8
7250LEVEL
 62
13
 10
1970.259
 20
-6624.962
 30
-1977.000
 70
    32
  0
VERTEX
  8
7250LEVEL
 62
13
 10
1965.982
 20
-6621.572
 30
-1977.000
 70
    32
  0
VERTEX
  8
7250LEVEL
 62
13
 10
1963.894
 20
-6621.687
 30
-1977.000
 70
    32
  0
VERTEX
  8
7250LEVEL
 62
13
 10
1966.114
 20
-6628.500
 30
-1977.000
 70
    32
  0
VERTEX
  8
7250LEVEL
 62
13
 10
1971.672
 20
-6635.563
 30
-1977.000
 70
    32
  0
VERTEX
  8
7250LEVEL
 62
13
 10
1977.881
 20
-6642.379
 30
-1977.000
 70
    32
  0
VERTEX
  8
7250LEVEL
 62
13
 10
1983.725
 20
-6648.450
 30
-1977.000
 70
    32
  0
VERTEX
  8
7250LEVEL
 62
13
 10
1988.757
 20
-6654.251
 30
-1977.000
 70
    32
  0
VERTEX
  8
7250LEVEL
 62
13
 10
1992.223
 20
-6660.718
 30
-1977.000
 70
    32
  0
VERTEX
  8
7250LEVEL
 62
13
 10
1992.548
 20
-6663.105
 30
-1977.000
 70
    32
  0
VERTEX
  8
7250LEVEL
 62
13
 10
1990.583
 20
-6665.379
 30
-1977.000
 70
    32
  0
VERTEX
  8
7250LEVEL
 62
13
 10
1985.798
 20
-6666.921
 30
-1977.000
 70
    32
  0
VERTEX
  8
7250LEVEL
 62
13
 10
1982.913
 20
-6668.581
 30
-1977.000
 70
    32
  0
VERTEX
  8
7250LEVEL
 62
13
 10
1977.969
 20
-6670.638
 30
-1977.000
 70
    32
  0
VERTEX
  8
7250LEVEL
 62
13
 10
1970.831
 20
-6670.472
 30
-1977.000
 70
    32
  0
VERTEX
  8
7250LEVEL
 62
13
 10
1961.934
 20
-6665.153
 30
-1977.000
 70
    32
  0
VERTEX
  8
7250LEVEL
 62
13
 10
1950.352
 20
-6655.349
 30
-1977.000
 70
    32
  0
VERTEX
  8
7250LEVEL
 62
13
 10
1937.320
 20
-6639.612
 30
-1977.000
 70
    32
  0
VERTEX
  8
7250LEVEL
 62
13
 10
1932.971
 20
-6633.203
 30
-1977.000
 70
    32
  0
VERTEX
  8
7250LEVEL
 62
13
 10
1926.059
 20
-6619.449
 30
-1977.000
 70
    32
  0
VERTEX
  8
7250LEVEL
 62
13
 10
1921.131
 20
-6607.940
 30
-1977.000
 70
    32
  0
VERTEX
  8
7250LEVEL
 62
13
 10
1921.023
 20
-6595.882
 30
-1977.000
 70
    32
  0
VERTEX
  8
7250LEVEL
 62
13
 10
1923.317
 20
-6584.993
 30
-1977.000
 70
    32
  0
VERTEX
  8
7250LEVEL
 62
13
 10
1924.450
 20
-6563.191
 30
-1977.000
 70
    32
  0
VERTEX
  8
7250LEVEL
 62
13
 10
1924.580
 20
-6548.366
 30
-1977.000
 70
    32
  0
VERTEX
  8
7250LEVEL
 62
13
 10
1923.757
 20
-6526.914
 30
-1977.000
 70
    32
  0
VERTEX
  8
7250LEVEL
 62
13
 10
1921.504
 20
-6510.101
 30
-1977.000
 70
    32
  0
VERTEX
  8
7250LEVEL
 62
13
 10
1916.736
 20
-6491.062
 30
-1977.000
 70
    32
  0
VERTEX
  8
7250LEVEL
 62
13
 10
1909.487
 20
-6472.466
 30
-1977.000
 70
    32
  0
VERTEX
  8
7250LEVEL
 62
13
 10
1902.173
 20
-6459.609
 30
-1977.000
 70
    32
  0
VERTEX
  8
7250LEVEL
 62
13
 10
1893.799
 20
-6444.159
 30
-1977.000
 70
    32
  0
VERTEX
  8
7250LEVEL
 62
13
 10
1882.733
 20
-6422.480
 30
-1977.000
 70
    32
  0
VERTEX
  8
7250LEVEL
 62
13
 10
1874.926
 20
-6404.656
 30
-1977.000
 70
    32
  0
VERTEX
  8
7250LEVEL
 62
13
 10
1868.205
 20
-6388.674
 30
-1977.000
 70
    32
  0
VERTEX
  8
7250LEVEL
 62
13
 10
1859.303
 20
-6367.263
 30
-1977.000
 70
    32
  0
VERTEX
  8
7250LEVEL
 62
13
 10
1853.614
 20
-6347.931
 30
-1977.000
 70
    32
  0
VERTEX
  8
7250LEVEL
 62
13
 10
1850.006
 20
-6328.414
 30
-1977.000
 70
    32
  0
VERTEX
  8
7250LEVEL
 62
13
 10
1846.764
 20
-6310.673
 30
-1977.000
 70
    32
  0
VERTEX
  8
7250LEVEL
 62
13
 10
1837.776
 20
-6289.449
 30
-1977.000
 70
    32
  0
VERTEX
  8
7250LEVEL
 62
13
 10
1833.498
 20
-6279.366
 30
-1977.000
 70
    32
  0
VERTEX
  8
7250LEVEL
 62
13
 10
1826.328
 20
-6259.160
 30
-1977.000
 70
    32
  0
VERTEX
  8
7250LEVEL
 62
13
 10
1820.924
 20
-6240.510
 30
-1977.000
 70
    32
  0
VERTEX
  8
7250LEVEL
 62
13
 10
1816.507
 20
-6223.428
 30
-1977.000
 70
    32
  0
VERTEX
  8
7250LEVEL
 62
13
 10
1812.039
 20
-6210.553
 30
-1977.000
 70
    32
  0
VERTEX
  8
7250LEVEL
 62
13
 10
1804.814
 20
-6193.521
 30
-1977.000
 70
    32
  0
VERTEX
  8
7250LEVEL
 62
13
 10
1797.789
 20
-6174.011
 30
-1977.000
 70
    32
  0
VERTEX
  8
7250LEVEL
 62
13
 10
1790.971
 20
-6151.773
 30
-1977.000
 70
    32
  0
VERTEX
  8
7250LEVEL
 62
13
 10
1786.968
 20
-6138.243
 30
-1977.000
 70
    32
  0
VERTEX
  8
7250LEVEL
 62
13
 10
1781.614
 20
-6120.727
 30
-1977.000
 70
    32
  0
VERTEX
  8
7250LEVEL
 62
13
 10
1776.483
 20
-6098.950
 30
-1977.000
 70
    32
  0
VERTEX
  8
7250LEVEL
 62
13
 10
1773.305
 20
-6084.478
 30
-1977.000
 70
    32
  0
VERTEX
  8
7250LEVEL
 62
13
 10
1772.440
 20
-6075.349
 30
-1977.000
 70
    32
  0
VERTEX
  8
7250LEVEL
 62
13
 10
1772.135
 20
-6063.455
 30
-1977.000
 70
    32
  0
VERTEX
  8
7250LEVEL
 62
13
 10
1772.313
 20
-6052.079
 30
-1977.000
 70
    32
  0
VERTEX
  8
7250LEVEL
 62
13
 10
1773.169
 20
-6047.751
 30
-1977.000
 70
    32
  0
VERTEX
  8
7250LEVEL
 62
13
 10
1774.089
 20
-6045.018
 30
-1977.000
 70
    32
  0
VERTEX
  8
7250LEVEL
 62
13
 10
1774.905
 20
-6042.653
 30
-1977.000
 70
    32
  0
VERTEX
  8
7250LEVEL
 62
13
 10
1776.273
 20
-6041.119
 30
-1977.000
 70
    32
  0
VERTEX
  8
7250LEVEL
 62
13
 10
1777.929
 20
-6041.298
 30
-1977.000
 70
    32
  0
VERTEX
  8
7250LEVEL
 62
13
 10
1781.168
 20
-6044.300
 30
-1977.000
 70
    32
  0
VERTEX
  8
7250LEVEL
 62
13
 10
1784.042
 20
-6048.552
 30
-1977.000
 70
    32
  0
VERTEX
  8
7250LEVEL
 62
13
 10
1790.534
 20
-6061.710
 30
-1977.000
 70
    32
  0
VERTEX
  8
7250LEVEL
 62
13
 10
1796.134
 20
-6076.529
 30
-1977.000
 70
    32
  0
VERTEX
  8
7250LEVEL
 62
13
 10
1802.241
 20
-6091.758
 30
-1977.000
 70
    32
  0
VERTEX
  8
7250LEVEL
 62
13
 10
1808.957
 20
-6107.349
 30
-1977.000
 70
    32
  0
VERTEX
  8
7250LEVEL
 62
13
 10
1817.256
 20
-6127.115
 30
-1977.000
 70
    32
  0
VERTEX
  8
7250LEVEL
 62
13
 10
1825.830
 20
-6144.787
 30
-1977.000
 70
    32
  0
VERTEX
  8
7250LEVEL
 62
13
 10
1835.525
 20
-6168.641
 30
-1977.000
 70
    32
  0
VERTEX
  8
7250LEVEL
 62
13
 10
1844.236
 20
-6183.913
 30
-1977.000
 70
    32
  0
VERTEX
  8
7250LEVEL
 62
13
 10
1854.052
 20
-6201.879
 30
-1977.000
 70
    32
  0
VERTEX
  8
7250LEVEL
 62
13
 10
1864.508
 20
-6218.496
 30
-1977.000
 70
    32
  0
VERTEX
  8
7250LEVEL
 62
13
 10
1872.356
 20
-6229.338
 30
-1977.000
 70
    32
  0
VERTEX
  8
7250LEVEL
 62
13
 10
1881.237
 20
-6243.204
 30
-1977.000
 70
    32
  0
VERTEX
  8
7250LEVEL
 62
13
 10
1893.045
 20
-6258.146
 30
-1977.000
 70
    32
  0
VERTEX
  8
7250LEVEL
 62
13
 10
1901.492
 20
-6269.601
 30
-1977.000
 70
    32
  0
VERTEX
  8
7250LEVEL
 62
13
 10
1910.322
 20
-6284.326
 30
-1977.000
 70
    32
  0
VERTEX
  8
7250LEVEL
 62
13
 10
1918.001
 20
-6301.274
 30
-1977.000
 70
    32
  0
VERTEX
  8
7250LEVEL
 62
13
 10
1924.760
 20
-6319.281
 30
-1977.000
 70
    32
  0
VERTEX
  8
7250LEVEL
 62
13
 10
1929.502
 20
-6332.056
 30
-1977.000
 70
    32
  0
VERTEX
  8
7250LEVEL
 62
13
 10
1933.540
 20
-6341.559
 30
-1977.000
 70
    32
  0
VERTEX
  8
7250LEVEL
 62
13
 10
1936.909
 20
-6350.137
 30
-1977.000
 70
    32
  0
VERTEX
  8
7250LEVEL
 62
13
 10
1939.017
 20
-6355.894
 30
-1977.000
 70
    32
  0
SEQEND
  8
7250LEVEL
  0
POLYLINE
  8
7250LEVEL
 62
13
 66
     1
 70
     8
  0
VERTEX
  8
7250LEVEL
 62
13
 10
1769.827
 20
-7185.923
 30
-1977.000
 70
    32
  0
VERTEX
  8
7250LEVEL
 62
13
 10
1775.041
 20
-7193.094
 30
-1977.000
 70
    32
  0
VERTEX
  8
7250LEVEL
 62
13
 10
1778.536
 20
-7198.169
 30
-1977.000
 70
    32
  0
VERTEX
  8
7250LEVEL
 62
13
 10
1789.188
 20
-7207.930
 30
-1977.000
 70
    32
  0
VERTEX
  8
7250LEVEL
 62
13
 10
1795.684
 20
-7213.433
 30
-1977.000
 70
    32
  0
VERTEX
  8
7250LEVEL
 62
13
 10
1804.146
 20
-7218.015
 30
-1977.000
 70
    32
  0
VERTEX
  8
7250LEVEL
 62
13
 10
1809.847
 20
-7219.722
 30
-1977.000
 70
    32
  0
VERTEX
  8
7250LEVEL
 62
13
 10
1810.825
 20
-7219.547
 30
-1977.000
 70
    32
  0
VERTEX
  8
7250LEVEL
 62
13
 10
1811.752
 20
-7216.885
 30
-1977.000
 70
    32
  0
VERTEX
  8
7250LEVEL
 62
13
 10
1811.827
 20
-7215.916
 30
-1977.000
 70
    32
  0
VERTEX
  8
7250LEVEL
 62
13
 10
1812.185
 20
-7214.596
 30
-1977.000
 70
    32
  0
VERTEX
  8
7250LEVEL
 62
13
 10
1812.514
 20
-7214.347
 30
-1977.000
 70
    32
  0
VERTEX
  8
7250LEVEL
 62
13
 10
1815.834
 20
-7215.097
 30
-1977.000
 70
    32
  0
VERTEX
  8
7250LEVEL
 62
13
 10
1820.065
 20
-7218.385
 30
-1977.000
 70
    32
  0
VERTEX
  8
7250LEVEL
 62
13
 10
1826.086
 20
-7225.114
 30
-1977.000
 70
    32
  0
VERTEX
  8
7250LEVEL
 62
13
 10
1828.956
 20
-7228.333
 30
-1977.000
 70
    32
  0
VERTEX
  8
7250LEVEL
 62
13
 10
1832.845
 20
-7234.434
 30
-1977.000
 70
    32
  0
VERTEX
  8
7250LEVEL
 62
13
 10
1837.294
 20
-7244.784
 30
-1977.000
 70
    32
  0
VERTEX
  8
7250LEVEL
 62
13
 10
1838.783
 20
-7250.749
 30
-1977.000
 70
    32
  0
VERTEX
  8
7250LEVEL
 62
13
 10
1839.951
 20
-7262.053
 30
-1977.000
 70
    32
  0
VERTEX
  8
7250LEVEL
 62
13
 10
1840.249
 20
-7266.863
 30
-1977.000
 70
    32
  0
VERTEX
  8
7250LEVEL
 62
13
 10
1840.704
 20
-7275.146
 30
-1977.000
 70
    32
  0
VERTEX
  8
7250LEVEL
 62
13
 10
1840.890
 20
-7280.573
 30
-1977.000
 70
    32
  0
VERTEX
  8
7250LEVEL
 62
13
 10
1841.925
 20
-7286.622
 30
-1977.000
 70
    32
  0
VERTEX
  8
7250LEVEL
 62
13
 10
1845.900
 20
-7296.203
 30
-1977.000
 70
    32
  0
VERTEX
  8
7250LEVEL
 62
13
 10
1847.968
 20
-7302.249
 30
-1977.000
 70
    32
  0
VERTEX
  8
7250LEVEL
 62
13
 10
1850.133
 20
-7310.884
 30
-1977.000
 70
    32
  0
VERTEX
  8
7250LEVEL
 62
13
 10
1851.256
 20
-7323.439
 30
-1977.000
 70
    32
  0
VERTEX
  8
7250LEVEL
 62
13
 10
1851.980
 20
-7330.909
 30
-1977.000
 70
    32
  0
VERTEX
  8
7250LEVEL
 62
13
 10
1853.762
 20
-7341.293
 30
-1977.000
 70
    32
  0
VERTEX
  8
7250LEVEL
 62
13
 10
1855.574
 20
-7348.613
 30
-1977.000
 70
    32
  0
VERTEX
  8
7250LEVEL
 62
13
 10
1858.090
 20
-7359.204
 30
-1977.000
 70
    32
  0
VERTEX
  8
7250LEVEL
 62
13
 10
1860.345
 20
-7368.683
 30
-1977.000
 70
    32
  0
VERTEX
  8
7250LEVEL
 62
13
 10
1861.866
 20
-7374.609
 30
-1977.000
 70
    32
  0
VERTEX
  8
7250LEVEL
 62
13
 10
1862.720
 20
-7377.616
 30
-1977.000
 70
    32
  0
VERTEX
  8
7250LEVEL
 62
13
 10
1862.206
 20
-7378.810
 30
-1977.000
 70
    32
  0
VERTEX
  8
7250LEVEL
 62
13
 10
1860.880
 20
-7378.061
 30
-1977.000
 70
    32
  0
VERTEX
  8
7250LEVEL
 62
13
 10
1858.997
 20
-7376.089
 30
-1977.000
 70
    32
  0
VERTEX
  8
7250LEVEL
 62
13
 10
1854.499
 20
-7366.279
 30
-1977.000
 70
    32
  0
VERTEX
  8
7250LEVEL
 62
13
 10
1851.351
 20
-7358.782
 30
-1977.000
 70
    32
  0
VERTEX
  8
7250LEVEL
 62
13
 10
1846.798
 20
-7352.466
 30
-1977.000
 70
    32
  0
VERTEX
  8
7250LEVEL
 62
13
 10
1842.884
 20
-7346.795
 30
-1977.000
 70
    32
  0
VERTEX
  8
7250LEVEL
 62
13
 10
1840.272
 20
-7343.335
 30
-1977.000
 70
    32
  0
VERTEX
  8
7250LEVEL
 62
13
 10
1839.838
 20
-7342.598
 30
-1977.000
 70
    32
  0
VERTEX
  8
7250LEVEL
 62
13
 10
1839.432
 20
-7342.463
 30
-1977.000
 70
    32
  0
VERTEX
  8
7250LEVEL
 62
13
 10
1838.652
 20
-7343.828
 30
-1977.000
 70
    32
  0
VERTEX
  8
7250LEVEL
 62
13
 10
1838.848
 20
-7347.011
 30
-1977.000
 70
    32
  0
VERTEX
  8
7250LEVEL
 62
13
 10
1839.671
 20
-7350.056
 30
-1977.000
 70
    32
  0
VERTEX
  8
7250LEVEL
 62
13
 10
1841.674
 20
-7356.501
 30
-1977.000
 70
    32
  0
VERTEX
  8
7250LEVEL
 62
13
 10
1843.945
 20
-7364.127
 30
-1977.000
 70
    32
  0
VERTEX
  8
7250LEVEL
 62
13
 10
1845.432
 20
-7372.407
 30
-1977.000
 70
    32
  0
VERTEX
  8
7250LEVEL
 62
13
 10
1847.322
 20
-7379.789
 30
-1977.000
 70
    32
  0
VERTEX
  8
7250LEVEL
 62
13
 10
1848.902
 20
-7386.278
 30
-1977.000
 70
    32
  0
VERTEX
  8
7250LEVEL
 62
13
 10
1849.703
 20
-7389.112
 30
-1977.000
 70
    32
  0
VERTEX
  8
7250LEVEL
 62
13
 10
1849.544
 20
-7391.301
 30
-1977.000
 70
    32
  0
VERTEX
  8
7250LEVEL
 62
13
 10
1848.522
 20
-7392.407
 30
-1977.000
 70
    32
  0
VERTEX
  8
7250LEVEL
 62
13
 10
1846.922
 20
-7391.758
 30
-1977.000
 70
    32
  0
VERTEX
  8
7250LEVEL
 62
13
 10
1844.218
 20
-7388.094
 30
-1977.000
 70
    32
  0
VERTEX
  8
7250LEVEL
 62
13
 10
1841.016
 20
-7380.424
 30
-1977.000
 70
    32
  0
VERTEX
  8
7250LEVEL
 62
13
 10
1833.372
 20
-7364.469
 30
-1977.000
 70
    32
  0
VERTEX
  8
7250LEVEL
 62
13
 10
1827.912
 20
-7356.649
 30
-1977.000
 70
    32
  0
VERTEX
  8
7250LEVEL
 62
13
 10
1820.996
 20
-7343.856
 30
-1977.000
 70
    32
  0
VERTEX
  8
7250LEVEL
 62
13
 10
1816.931
 20
-7336.776
 30
-1977.000
 70
    32
  0
VERTEX
  8
7250LEVEL
 62
13
 10
1812.992
 20
-7326.195
 30
-1977.000
 70
    32
  0
VERTEX
  8
7250LEVEL
 62
13
 10
1811.356
 20
-7323.200
 30
-1977.000
 70
    32
  0
SEQEND
  8
7250LEVEL
  0
POLYLINE
  8
7250LEVEL
 62
13
 66
     1
 70
     9
  0
VERTEX
  8
7250LEVEL
 62
13
 10
1929.278
 20
-7125.942
 30
-1977.000
 70
    32
  0
VERTEX
  8
7250LEVEL
 62
13
 10
1934.874
 20
-7130.010
 30
-1977.000
 70
    32
  0
VERTEX
  8
7250LEVEL
 62
13
 10
1939.668
 20
-7133.238
 30
-1977.000
 70
    32
  0
VERTEX
  8
7250LEVEL
 62
13
 10
1942.763
 20
-7136.896
 30
-1977.000
 70
    32
  0
VERTEX
  8
7250LEVEL
 62
13
 10
1947.269
 20
-7143.110
 30
-1977.000
 70
    32
  0
VERTEX
  8
7250LEVEL
 62
13
 10
1949.807
 20
-7148.892
 30
-1977.000
 70
    32
  0
VERTEX
  8
7250LEVEL
 62
13
 10
1951.424
 20
-7154.381
 30
-1977.000
 70
    32
  0
VERTEX
  8
7250LEVEL
 62
13
 10
1953.806
 20
-7160.037
 30
-1977.000
 70
    32
  0
VERTEX
  8
7250LEVEL
 62
13
 10
1955.379
 20
-7163.109
 30
-1977.000
 70
    32
  0
VERTEX
  8
7250LEVEL
 62
13
 10
1958.720
 20
-7167.738
 30
-1977.000
 70
    32
  0
VERTEX
  8
7250LEVEL
 62
13
 10
1960.165
 20
-7169.934
 30
-1977.000
 70
    32
  0
VERTEX
  8
7250LEVEL
 62
13
 10
1959.877
 20
-7171.246
 30
-1977.000
 70
    32
  0
VERTEX
  8
7250LEVEL
 62
13
 10
1957.512
 20
-7170.430
 30
-1977.000
 70
    32
  0
VERTEX
  8
7250LEVEL
 62
13
 10
1954.181
 20
-7166.904
 30
-1977.000
 70
    32
  0
VERTEX
  8
7250LEVEL
 62
13
 10
1949.657
 20
-7161.191
 30
-1977.000
 70
    32
  0
VERTEX
  8
7250LEVEL
 62
13
 10
1947.117
 20
-7155.729
 30
-1977.000
 70
    32
  0
VERTEX
  8
7250LEVEL
 62
13
 10
1945.256
 20
-7148.949
 30
-1977.000
 70
    32
  0
VERTEX
  8
7250LEVEL
 62
13
 10
1942.261
 20
-7142.219
 30
-1977.000
 70
    32
  0
VERTEX
  8
7250LEVEL
 62
13
 10
1936.889
 20
-7137.237
 30
-1977.000
 70
    32
  0
VERTEX
  8
7250LEVEL
 62
13
 10
1931.412
 20
-7132.942
 30
-1977.000
 70
    32
  0
VERTEX
  8
7250LEVEL
 62
13
 10
1925.100
 20
-7128.167
 30
-1977.000
 70
    32
  0
VERTEX
  8
7250LEVEL
 62
13
 10
1918.771
 20
-7120.545
 30
-1977.000
 70
    32
  0
VERTEX
  8
7250LEVEL
 62
13
 10
1916.708
 20
-7116.884
 30
-1977.000
 70
    32
  0
VERTEX
  8
7250LEVEL
 62
13
 10
1912.278
 20
-7111.054
 30
-1977.000
 70
    32
  0
VERTEX
  8
7250LEVEL
 62
13
 10
1909.591
 20
-7106.890
 30
-1977.000
 70
    32
  0
VERTEX
  8
7250LEVEL
 62
13
 10
1909.170
 20
-7103.268
 30
-1977.000
 70
    32
  0
VERTEX
  8
7250LEVEL
 62
13
 10
1910.229
 20
-7099.167
 30
-1977.000
 70
    32
  0
VERTEX
  8
7250LEVEL
 62
13
 10
1912.053
 20
-7095.235
 30
-1977.000
 70
    32
  0
VERTEX
  8
7250LEVEL
 62
13
 10
1913.263
 20
-7092.222
 30
-1977.000
 70
    32
  0
VERTEX
  8
7250LEVEL
 62
13
 10
1915.482
 20
-7085.969
 30
-1977.000
 70
    32
  0
VERTEX
  8
7250LEVEL
 62
13
 10
1917.014
 20
-7077.618
 30
-1977.000
 70
    32
  0
VERTEX
  8
7250LEVEL
 62
13
 10
1917.173
 20
-7071.762
 30
-1977.000
 70
    32
  0
VERTEX
  8
7250LEVEL
 62
13
 10
1917.907
 20
-7066.949
 30
-1977.000
 70
    32
  0
VERTEX
  8
7250LEVEL
 62
13
 10
1918.488
 20
-7064.715
 30
-1977.000
 70
    32
  0
VERTEX
  8
7250LEVEL
 62
13
 10
1919.324
 20
-7063.202
 30
-1977.000
 70
    32
  0
VERTEX
  8
7250LEVEL
 62
13
 10
1920.466
 20
-7063.223
 30
-1977.000
 70
    32
  0
VERTEX
  8
7250LEVEL
 62
13
 10
1920.545
 20
-7066.312
 30
-1977.000
 70
    32
  0
VERTEX
  8
7250LEVEL
 62
13
 10
1920.757
 20
-7072.983
 30
-1977.000
 70
    32
  0
VERTEX
  8
7250LEVEL
 62
13
 10
1919.535
 20
-7080.233
 30
-1977.000
 70
    32
  0
VERTEX
  8
7250LEVEL
 62
13
 10
1918.981
 20
-7085.063
 30
-1977.000
 70
    32
  0
VERTEX
  8
7250LEVEL
 62
13
 10
1916.893
 20
-7090.198
 30
-1977.000
 70
    32
  0
VERTEX
  8
7250LEVEL
 62
13
 10
1915.601
 20
-7094.110
 30
-1977.000
 70
    32
  0
VERTEX
  8
7250LEVEL
 62
13
 10
1913.824
 20
-7097.823
 30
-1977.000
 70
    32
  0
VERTEX
  8
7250LEVEL
 62
13
 10
1913.444
 20
-7102.279
 30
-1977.000
 70
    32
  0
VERTEX
  8
7250LEVEL
 62
13
 10
1913.185
 20
-7105.866
 30
-1977.000
 70
    32
  0
VERTEX
  8
7250LEVEL
 62
13
 10
1914.820
 20
-7109.181
 30
-1977.000
 70
    32
  0
VERTEX
  8
7250LEVEL
 62
13
 10
1919.268
 20
-7114.511
 30
-1977.000
 70
    32
  0
VERTEX
  8
7250LEVEL
 62
13
 10
1922.387
 20
-7118.060
 30
-1977.000
 70
    32
  0
VERTEX
  8
7250LEVEL
 62
13
 10
1925.226
 20
-7121.318
 30
-1977.000
 70
    32
  0
VERTEX
  8
7250LEVEL
 62
13
 10
1926.616
 20
-7123.342
 30
-1977.000
 70
    32
  0
SEQEND
  8
7250LEVEL
  0
POLYLINE
  8
7250LEVEL
 62
13
 66
     1
 70
     8
  0
VERTEX
  8
7250LEVEL
 62
13
 10
1243.541
 20
-5612.568
 30
-1977.000
 70
    32
  0
VERTEX
  8
7250LEVEL
 62
13
 10
1245.115
 20
-5624.007
 30
-1977.000
 70
    32
  0
VERTEX
  8
7250LEVEL
 62
13
 10
1247.328
 20
-5635.769
 30
-1977.000
 70
    32
  0
VERTEX
  8
7250LEVEL
 62
13
 10
1252.244
 20
-5651.516
 30
-1977.000
 70
    32
  0
VERTEX
  8
7250LEVEL
 62
13
 10
1254.747
 20
-5663.319
 30
-1977.000
 70
    32
  0
VERTEX
  8
7250LEVEL
 62
13
 10
1258.831
 20
-5672.924
 30
-1977.000
 70
    32
  0
VERTEX
  8
7250LEVEL
 62
13
 10
1263.236
 20
-5684.204
 30
-1977.000
 70
    32
  0
VERTEX
  8
7250LEVEL
 62
13
 10
1267.837
 20
-5698.667
 30
-1977.000
 70
    32
  0
VERTEX
  8
7250LEVEL
 62
13
 10
1272.117
 20
-5713.450
 30
-1977.000
 70
    32
  0
VERTEX
  8
7250LEVEL
 62
13
 10
1274.571
 20
-5722.124
 30
-1977.000
 70
    32
  0
VERTEX
  8
7250LEVEL
 62
13
 10
1282.151
 20
-5746.844
 30
-1977.000
 70
    32
  0
VERTEX
  8
7250LEVEL
 62
13
 10
1282.883
 20
-5757.732
 30
-1977.000
 70
    32
  0
VERTEX
  8
7250LEVEL
 62
13
 10
1287.134
 20
-5773.585
 30
-1977.000
 70
    32
  0
VERTEX
  8
7250LEVEL
 62
13
 10
1289.377
 20
-5780.610
 30
-1977.000
 70
    32
  0
VERTEX
  8
7250LEVEL
 62
13
 10
1292.588
 20
-5786.356
 30
-1977.000
 70
    32
  0
VERTEX
  8
7250LEVEL
 62
13
 10
1294.827
 20
-5789.001
 30
-1977.000
 70
    32
  0
VERTEX
  8
7250LEVEL
 62
13
 10
1297.018
 20
-5790.513
 30
-1977.000
 70
    32
  0
VERTEX
  8
7250LEVEL
 62
13
 10
1298.234
 20
-5789.564
 30
-1977.000
 70
    32
  0
VERTEX
  8
7250LEVEL
 62
13
 10
1298.375
 20
-5786.203
 30
-1977.000
 70
    32
  0
VERTEX
  8
7250LEVEL
 62
13
 10
1297.101
 20
-5782.600
 30
-1977.000
 70
    32
  0
VERTEX
  8
7250LEVEL
 62
13
 10
1294.795
 20
-5777.327
 30
-1977.000
 70
    32
  0
VERTEX
  8
7250LEVEL
 62
13
 10
1292.343
 20
-5771.678
 30
-1977.000
 70
    32
  0
VERTEX
  8
7250LEVEL
 62
13
 10
1291.448
 20
-5767.287
 30
-1977.000
 70
    32
  0
VERTEX
  8
7250LEVEL
 62
13
 10
1291.406
 20
-5764.551
 30
-1977.000
 70
    32
  0
VERTEX
  8
7250LEVEL
 62
13
 10
1292.424
 20
-5764.086
 30
-1977.000
 70
    32
  0
VERTEX
  8
7250LEVEL
 62
13
 10
1296.006
 20
-5767.301
 30
-1977.000
 70
    32
  0
VERTEX
  8
7250LEVEL
 62
13
 10
1300.016
 20
-5774.528
 30
-1977.000
 70
    32
  0
VERTEX
  8
7250LEVEL
 62
13
 10
1302.735
 20
-5780.006
 30
-1977.000
 70
    32
  0
VERTEX
  8
7250LEVEL
 62
13
 10
1306.009
 20
-5787.348
 30
-1977.000
 70
    32
  0
VERTEX
  8
7250LEVEL
 62
13
 10
1309.807
 20
-5797.945
 30
-1977.000
 70
    32
  0
VERTEX
  8
7250LEVEL
 62
13
 10
1312.877
 20
-5808.726
 30
-1977.000
 70
    32
  0
VERTEX
  8
7250LEVEL
 62
13
 10
1315.558
 20
-5822.539
 30
-1977.000
 70
    32
  0
VERTEX
  8
7250LEVEL
 62
13
 10
1319.187
 20
-5835.895
 30
-1977.000
 70
    32
  0
VERTEX
  8
7250LEVEL
 62
13
 10
1321.610
 20
-5844.609
 30
-1977.000
 70
    32
  0
VERTEX
  8
7250LEVEL
 62
13
 10
1324.790
 20
-5857.088
 30
-1977.000
 70
    32
  0
VERTEX
  8
7250LEVEL
 62
13
 10
1327.484
 20
-5862.996
 30
-1977.000
 70
    32
  0
VERTEX
  8
7250LEVEL
 62
13
 10
1332.575
 20
-5874.701
 30
-1977.000
 70
    32
  0
VERTEX
  8
7250LEVEL
 62
13
 10
1334.472
 20
-5880.480
 30
-1977.000
 70
    32
  0
VERTEX
  8
7250LEVEL
 62
13
 10
1335.291
 20
-5887.513
 30
-1977.000
 70
    32
  0
VERTEX
  8
7250LEVEL
 62
13
 10
1335.943
 20
-5893.639
 30
-1977.000
 70
    32
  0
VERTEX
  8
7250LEVEL
 62
13
 10
1335.983
 20
-5900.364
 30
-1977.000
 70
    32
  0
VERTEX
  8
7250LEVEL
 62
13
 10
1335.824
 20
-5904.225
 30
-1977.000
 70
    32
  0
VERTEX
  8
7250LEVEL
 62
13
 10
1334.505
 20
-5907.214
 30
-1977.000
 70
    32
  0
VERTEX
  8
7250LEVEL
 62
13
 10
1333.645
 20
-5907.163
 30
-1977.000
 70
    32
  0
VERTEX
  8
7250LEVEL
 62
13
 10
1330.781
 20
-5906.008
 30
-1977.000
 70
    32
  0
VERTEX
  8
7250LEVEL
 62
13
 10
1327.522
 20
-5903.828
 30
-1977.000
 70
    32
  0
VERTEX
  8
7250LEVEL
 62
13
 10
1324.656
 20
-5902.993
 30
-1977.000
 70
    32
  0
VERTEX
  8
7250LEVEL
 62
13
 10
1323.638
 20
-5903.458
 30
-1977.000
 70
    32
  0
VERTEX
  8
7250LEVEL
 62
13
 10
1321.701
 20
-5906.334
 30
-1977.000
 70
    32
  0
VERTEX
  8
7250LEVEL
 62
13
 10
1321.168
 20
-5910.022
 30
-1977.000
 70
    32
  0
VERTEX
  8
7250LEVEL
 62
13
 10
1322.081
 20
-5913.913
 30
-1977.000
 70
    32
  0
VERTEX
  8
7250LEVEL
 62
13
 10
1323.967
 20
-5920.263
 30
-1977.000
 70
    32
  0
VERTEX
  8
7250LEVEL
 62
13
 10
1326.125
 20
-5927.153
 30
-1977.000
 70
    32
  0
VERTEX
  8
7250LEVEL
 62
13
 10
1327.762
 20
-5933.174
 30
-1977.000
 70
    32
  0
VERTEX
  8
7250LEVEL
 62
13
 10
1328.197
 20
-5938.931
 30
-1977.000
 70
    32
  0
VERTEX
  8
7250LEVEL
 62
13
 10
1328.845
 20
-5942.671
 30
-1977.000
 70
    32
  0
VERTEX
  8
7250LEVEL
 62
13
 10
1329.140
 20
-5946.449
 30
-1977.000
 70
    32
  0
VERTEX
  8
7250LEVEL
 62
13
 10
1328.794
 20
-5946.878
 30
-1977.000
 70
    32
  0
VERTEX
  8
7250LEVEL
 62
13
 10
1327.107
 20
-5946.417
 30
-1977.000
 70
    32
  0
VERTEX
  8
7250LEVEL
 62
13
 10
1324.650
 20
-5945.076
 30
-1977.000
 70
    32
  0
VERTEX
  8
7250LEVEL
 62
13
 10
1323.194
 20
-5943.771
 30
-1977.000
 70
    32
  0
VERTEX
  8
7250LEVEL
 62
13
 10
1321.781
 20
-5943.210
 30
-1977.000
 70
    32
  0
VERTEX
  8
7250LEVEL
 62
13
 10
1321.551
 20
-5944.053
 30
-1977.000
 70
    32
  0
VERTEX
  8
7250LEVEL
 62
13
 10
1321.792
 20
-5947.659
 30
-1977.000
 70
    32
  0
VERTEX
  8
7250LEVEL
 62
13
 10
1323.365
 20
-5952.404
 30
-1977.000
 70
    32
  0
VERTEX
  8
7250LEVEL
 62
13
 10
1326.038
 20
-5957.781
 30
-1977.000
 70
    32
  0
VERTEX
  8
7250LEVEL
 62
13
 10
1332.725
 20
-5967.750
 30
-1977.000
 70
    32
  0
VERTEX
  8
7250LEVEL
 62
13
 10
1339.071
 20
-5976.865
 30
-1977.000
 70
    32
  0
VERTEX
  8
7250LEVEL
 62
13
 10
1344.641
 20
-5983.036
 30
-1977.000
 70
    32
  0
VERTEX
  8
7250LEVEL
 62
13
 10
1352.740
 20
-5995.240
 30
-1977.000
 70
    32
  0
VERTEX
  8
7250LEVEL
 62
13
 10
1359.010
 20
-6003.972
 30
-1977.000
 70
    32
  0
VERTEX
  8
7250LEVEL
 62
13
 10
1368.203
 20
-6016.415
 30
-1977.000
 70
    32
  0
VERTEX
  8
7250LEVEL
 62
13
 10
1374.044
 20
-6026.474
 30
-1977.000
 70
    32
  0
VERTEX
  8
7250LEVEL
 62
13
 10
1382.383
 20
-6037.585
 30
-1977.000
 70
    32
  0
VERTEX
  8
7250LEVEL
 62
13
 10
1391.519
 20
-6047.150
 30
-1977.000
 70
    32
  0
VERTEX
  8
7250LEVEL
 62
13
 10
1398.596
 20
-6053.767
 30
-1977.000
 70
    32
  0
VERTEX
  8
7250LEVEL
 62
13
 10
1406.237
 20
-6063.670
 30
-1977.000
 70
    32
  0
VERTEX
  8
7250LEVEL
 62
13
 10
1412.770
 20
-6072.872
 30
-1977.000
 70
    32
  0
VERTEX
  8
7250LEVEL
 62
13
 10
1418.201
 20
-6085.431
 30
-1977.000
 70
    32
  0
VERTEX
  8
7250LEVEL
 62
13
 10
1424.300
 20
-6095.569
 30
-1977.000
 70
    32
  0
VERTEX
  8
7250LEVEL
 62
13
 10
1428.865
 20
-6100.993
 30
-1977.000
 70
    32
  0
VERTEX
  8
7250LEVEL
 62
13
 10
1434.095
 20
-6106.311
 30
-1977.000
 70
    32
  0
VERTEX
  8
7250LEVEL
 62
13
 10
1436.411
 20
-6107.666
 30
-1977.000
 70
    32
  0
VERTEX
  8
7250LEVEL
 62
13
 10
1436.019
 20
-6104.646
 30
-1977.000
 70
    32
  0
VERTEX
  8
7250LEVEL
 62
13
 10
1432.546
 20
-6096.436
 30
-1977.000
 70
    32
  0
VERTEX
  8
7250LEVEL
 62
13
 10
1428.553
 20
-6087.355
 30
-1977.000
 70
    32
  0
VERTEX
  8
7250LEVEL
 62
13
 10
1422.967
 20
-6072.676
 30
-1977.000
 70
    32
  0
VERTEX
  8
7250LEVEL
 62
13
 10
1419.170
 20
-6061.759
 30
-1977.000
 70
    32
  0
VERTEX
  8
7250LEVEL
 62
13
 10
1411.200
 20
-6042.065
 30
-1977.000
 70
    32
  0
VERTEX
  8
7250LEVEL
 62
13
 10
1407.173
 20
-6024.977
 30
-1977.000
 70
    32
  0
VERTEX
  8
7250LEVEL
 62
13
 10
1403.893
 20
-6012.224
 30
-1977.000
 70
    32
  0
VERTEX
  8
7250LEVEL
 62
13
 10
1397.621
 20
-5992.100
 30
-1977.000
 70
    32
  0
VERTEX
  8
7250LEVEL
 62
13
 10
1393.031
 20
-5971.726
 30
-1977.000
 70
    32
  0
VERTEX
  8
7250LEVEL
 62
13
 10
1390.855
 20
-5960.316
 30
-1977.000
 70
    32
  0
VERTEX
  8
7250LEVEL
 62
13
 10
1386.477
 20
-5948.285
 30
-1977.000
 70
    32
  0
VERTEX
  8
7250LEVEL
 62
13
 10
1382.514
 20
-5934.466
 30
-1977.000
 70
    32
  0
VERTEX
  8
7250LEVEL
 62
13
 10
1373.418
 20
-5911.225
 30
-1977.000
 70
    32
  0
VERTEX
  8
7250LEVEL
 62
13
 10
1365.189
 20
-5891.451
 30
-1977.000
 70
    32
  0
VERTEX
  8
7250LEVEL
 62
13
 10
1359.304
 20
-5877.303
 30
-1977.000
 70
    32
  0
VERTEX
  8
7250LEVEL
 62
13
 10
1350.406
 20
-5855.251
 30
-1977.000
 70
    32
  0
VERTEX
  8
7250LEVEL
 62
13
 10
1343.184
 20
-5839.251
 30
-1977.000
 70
    32
  0
VERTEX
  8
7250LEVEL
 62
13
 10
1338.815
 20
-5828.644
 30
-1977.000
 70
    32
  0
VERTEX
  8
7250LEVEL
 62
13
 10
1331.003
 20
-5811.781
 30
-1977.000
 70
    32
  0
VERTEX
  8
7250LEVEL
 62
13
 10
1323.737
 20
-5797.032
 30
-1977.000
 70
    32
  0
VERTEX
  8
7250LEVEL
 62
13
 10
1315.963
 20
-5780.521
 30
-1977.000
 70
    32
  0
VERTEX
  8
7250LEVEL
 62
13
 10
1309.036
 20
-5764.952
 30
-1977.000
 70
    32
  0
VERTEX
  8
7250LEVEL
 62
13
 10
1305.283
 20
-5754.778
 30
-1977.000
 70
    32
  0
VERTEX
  8
7250LEVEL
 62
13
 10
1300.759
 20
-5742.051
 30
-1977.000
 70
    32
  0
VERTEX
  8
7250LEVEL
 62
13
 10
1296.315
 20
-5729.066
 30
-1977.000
 70
    32
  0
VERTEX
  8
7250LEVEL
 62
13
 10
1292.026
 20
-5714.855
 30
-1977.000
 70
    32
  0
VERTEX
  8
7250LEVEL
 62
13
 10
1289.213
 20
-5704.153
 30
-1977.000
 70
    32
  0
VERTEX
  8
7250LEVEL
 62
13
 10
1286.652
 20
-5688.120
 30
-1977.000
 70
    32
  0
VERTEX
  8
7250LEVEL
 62
13
 10
1284.271
 20
-5673.776
 30
-1977.000
 70
    32
  0
VERTEX
  8
7250LEVEL
 62
13
 10
1280.719
 20
-5662.156
 30
-1977.000
 70
    32
  0
VERTEX
  8
7250LEVEL
 62
13
 10
1276.998
 20
-5650.270
 30
-1977.000
 70
    32
  0
VERTEX
  8
7250LEVEL
 62
13
 10
1274.873
 20
-5639.673
 30
-1977.000
 70
    32
  0
VERTEX
  8
7250LEVEL
 62
13
 10
1272.525
 20
-5629.990
 30
-1977.000
 70
    32
  0
VERTEX
  8
7250LEVEL
 62
13
 10
1270.027
 20
-5618.898
 30
-1977.000
 70
    32
  0
VERTEX
  8
7250LEVEL
 62
13
 10
1269.162
 20
-5609.770
 30
-1977.000
 70
    32
  0
VERTEX
  8
7250LEVEL
 62
13
 10
1267.393
 20
-5601.520
 30
-1977.000
 70
    32
  0
VERTEX
  8
7250LEVEL
 62
13
 10
1266.912
 20
-5592.315
 30
-1977.000
 70
    32
  0
VERTEX
  8
7250LEVEL
 62
13
 10
1265.707
 20
-5585.678
 30
-1977.000
 70
    32
  0
VERTEX
  8
7250LEVEL
 62
13
 10
1265.776
 20
-5580.972
 30
-1977.000
 70
    32
  0
SEQEND
  8
7250LEVEL
  0
POLYLINE
  8
7250LEVEL
 62
13
 66
     1
 70
     8
  0
VERTEX
  8
7250LEVEL
 62
13
 10
1286.955
 20
-5584.947
 30
-1977.000
 70
    32
  0
VERTEX
  8
7250LEVEL
 62
13
 10
1288.659
 20
-5593.595
 30
-1977.000
 70
    32
  0
VERTEX
  8
7250LEVEL
 62
13
 10
1291.737
 20
-5607.794
 30
-1977.000
 70
    32
  0
VERTEX
  8
7250LEVEL
 62
13
 10
1292.186
 20
-5620.705
 30
-1977.000
 70
    32
  0
VERTEX
  8
7250LEVEL
 62
13
 10
1291.055
 20
-5630.153
 30
-1977.000
 70
    32
  0
VERTEX
  8
7250LEVEL
 62
13
 10
1290.329
 20
-5640.057
 30
-1977.000
 70
    32
  0
VERTEX
  8
7250LEVEL
 62
13
 10
1291.446
 20
-5648.874
 30
-1977.000
 70
    32
  0
VERTEX
  8
7250LEVEL
 62
13
 10
1294.359
 20
-5663.197
 30
-1977.000
 70
    32
  0
VERTEX
  8
7250LEVEL
 62
13
 10
1298.556
 20
-5675.531
 30
-1977.000
 70
    32
  0
VERTEX
  8
7250LEVEL
 62
13
 10
1302.463
 20
-5686.152
 30
-1977.000
 70
    32
  0
VERTEX
  8
7250LEVEL
 62
13
 10
1308.106
 20
-5698.689
 30
-1977.000
 70
    32
  0
VERTEX
  8
7250LEVEL
 62
13
 10
1313.339
 20
-5711.732
 30
-1977.000
 70
    32
  0
VERTEX
  8
7250LEVEL
 62
13
 10
1317.404
 20
-5720.484
 30
-1977.000
 70
    32
  0
VERTEX
  8
7250LEVEL
 62
13
 10
1322.936
 20
-5736.664
 30
-1977.000
 70
    32
  0
VERTEX
  8
7250LEVEL
 62
13
 10
1327.581
 20
-5751.870
 30
-1977.000
 70
    32
  0
VERTEX
  8
7250LEVEL
 62
13
 10
1331.881
 20
-5765.511
 30
-1977.000
 70
    32
  0
VERTEX
  8
7250LEVEL
 62
13
 10
1336.192
 20
-5775.235
 30
-1977.000
 70
    32
  0
VERTEX
  8
7250LEVEL
 62
13
 10
1342.258
 20
-5789.079
 30
-1977.000
 70
    32
  0
VERTEX
  8
7250LEVEL
 62
13
 10
1345.981
 20
-5798.972
 30
-1977.000
 70
    32
  0
VERTEX
  8
7250LEVEL
 62
13
 10
1350.797
 20
-5814.444
 30
-1977.000
 70
    32
  0
VERTEX
  8
7250LEVEL
 62
13
 10
1353.755
 20
-5825.843
 30
-1977.000
 70
    32
  0
VERTEX
  8
7250LEVEL
 62
13
 10
1356.244
 20
-5833.838
 30
-1977.000
 70
    32
  0
VERTEX
  8
7250LEVEL
 62
13
 10
1361.363
 20
-5847.818
 30
-1977.000
 70
    32
  0
VERTEX
  8
7250LEVEL
 62
13
 10
1366.007
 20
-5861.672
 30
-1977.000
 70
    32
  0
VERTEX
  8
7250LEVEL
 62
13
 10
1368.497
 20
-5869.346
 30
-1977.000
 70
    32
  0
VERTEX
  8
7250LEVEL
 62
13
 10
1369.820
 20
-5872.410
 30
-1977.000
 70
    32
  0
VERTEX
  8
7250LEVEL
 62
13
 10
1370.963
 20
-5873.783
 30
-1977.000
 70
    32
  0
VERTEX
  8
7250LEVEL
 62
13
 10
1372.034
 20
-5872.138
 30
-1977.000
 70
    32
  0
VERTEX
  8
7250LEVEL
 62
13
 10
1371.908
 20
-5865.601
 30
-1977.000
 70
    32
  0
VERTEX
  8
7250LEVEL
 62
13
 10
1369.349
 20
-5855.940
 30
-1977.000
 70
    32
  0
VERTEX
  8
7250LEVEL
 62
13
 10
1368.331
 20
-5847.718
 30
-1977.000
 70
    32
  0
VERTEX
  8
7250LEVEL
 62
13
 10
1367.700
 20
-5842.124
 30
-1977.000
 70
    32
  0
VERTEX
  8
7250LEVEL
 62
13
 10
1367.698
 20
-5837.425
 30
-1977.000
 70
    32
  0
VERTEX
  8
7250LEVEL
 62
13
 10
1368.005
 20
-5835.291
 30
-1977.000
 70
    32
  0
VERTEX
  8
7250LEVEL
 62
13
 10
1368.934
 20
-5833.982
 30
-1977.000
 70
    32
  0
VERTEX
  8
7250LEVEL
 62
13
 10
1370.170
 20
-5835.559
 30
-1977.000
 70
    32
  0
VERTEX
  8
7250LEVEL
 62
13
 10
1371.731
 20
-5839.523
 30
-1977.000
 70
    32
  0
VERTEX
  8
7250LEVEL
 62
13
 10
1373.339
 20
-5846.935
 30
-1977.000
 70
    32
  0
VERTEX
  8
7250LEVEL
 62
13
 10
1374.795
 20
-5851.587
 30
-1977.000
 70
    32
  0
VERTEX
  8
7250LEVEL
 62
13
 10
1376.634
 20
-5858.155
 30
-1977.000
 70
    32
  0
VERTEX
  8
7250LEVEL
 62
13
 10
1377.344
 20
-5860.145
 30
-1977.000
 70
    32
  0
VERTEX
  8
7250LEVEL
 62
13
 10
1378.390
 20
-5862.276
 30
-1977.000
 70
    32
  0
VERTEX
  8
7250LEVEL
 62
13
 10
1380.436
 20
-5861.097
 30
-1977.000
 70
    32
  0
VERTEX
  8
7250LEVEL
 62
13
 10
1380.166
 20
-5856.889
 30
-1977.000
 70
    32
  0
VERTEX
  8
7250LEVEL
 62
13
 10
1378.227
 20
-5848.373
 30
-1977.000
 70
    32
  0
VERTEX
  8
7250LEVEL
 62
13
 10
1376.104
 20
-5840.802
 30
-1977.000
 70
    32
  0
VERTEX
  8
7250LEVEL
 62
13
 10
1374.789
 20
-5834.142
 30
-1977.000
 70
    32
  0
VERTEX
  8
7250LEVEL
 62
13
 10
1374.425
 20
-5831.724
 30
-1977.000
 70
    32
  0
VERTEX
  8
7250LEVEL
 62
13
 10
1374.581
 20
-5830.177
 30
-1977.000
 70
    32
  0
VERTEX
  8
7250LEVEL
 62
13
 10
1375.892
 20
-5830.785
 30
-1977.000
 70
    32
  0
VERTEX
  8
7250LEVEL
 62
13
 10
1379.258
 20
-5836.657
 30
-1977.000
 70
    32
  0
VERTEX
  8
7250LEVEL
 62
13
 10
1383.179
 20
-5846.066
 30
-1977.000
 70
    32
  0
VERTEX
  8
7250LEVEL
 62
13
 10
1391.383
 20
-5860.929
 30
-1977.000
 70
    32
  0
VERTEX
  8
7250LEVEL
 62
13
 10
1400.969
 20
-5873.046
 30
-1977.000
 70
    32
  0
VERTEX
  8
7250LEVEL
 62
13
 10
1403.974
 20
-5879.205
 30
-1977.000
 70
    32
  0
VERTEX
  8
7250LEVEL
 62
13
 10
1408.915
 20
-5892.849
 30
-1977.000
 70
    32
  0
VERTEX
  8
7250LEVEL
 62
13
 10
1415.370
 20
-5909.002
 30
-1977.000
 70
    32
  0
VERTEX
  8
7250LEVEL
 62
13
 10
1420.251
 20
-5920.409
 30
-1977.000
 70
    32
  0
VERTEX
  8
7250LEVEL
 62
13
 10
1423.816
 20
-5930.817
 30
-1977.000
 70
    32
  0
VERTEX
  8
7250LEVEL
 62
13
 10
1423.419
 20
-5937.125
 30
-1977.000
 70
    32
  0
VERTEX
  8
7250LEVEL
 62
13
 10
1422.010
 20
-5940.942
 30
-1977.000
 70
    32
  0
VERTEX
  8
7250LEVEL
 62
13
 10
1420.458
 20
-5941.748
 30
-1977.000
 70
    32
  0
VERTEX
  8
7250LEVEL
 62
13
 10
1417.553
 20
-5940.883
 30
-1977.000
 70
    32
  0
VERTEX
  8
7250LEVEL
 62
13
 10
1415.213
 20
-5939.637
 30
-1977.000
 70
    32
  0
VERTEX
  8
7250LEVEL
 62
13
 10
1412.118
 20
-5939.325
 30
-1977.000
 70
    32
  0
VERTEX
  8
7250LEVEL
 62
13
 10
1411.988
 20
-5940.443
 30
-1977.000
 70
    32
  0
VERTEX
  8
7250LEVEL
 62
13
 10
1411.969
 20
-5942.937
 30
-1977.000
 70
    32
  0
VERTEX
  8
7250LEVEL
 62
13
 10
1411.186
 20
-5944.943
 30
-1977.000
 70
    32
  0
VERTEX
  8
7250LEVEL
 62
13
 10
1409.491
 20
-5944.411
 30
-1977.000
 70
    32
  0
VERTEX
  8
7250LEVEL
 62
13
 10
1406.693
 20
-5942.537
 30
-1977.000
 70
    32
  0
VERTEX
  8
7250LEVEL
 62
13
 10
1403.265
 20
-5939.769
 30
-1977.000
 70
    32
  0
VERTEX
  8
7250LEVEL
 62
13
 10
1401.184
 20
-5938.282
 30
-1977.000
 70
    32
  0
VERTEX
  8
7250LEVEL
 62
13
 10
1399.149
 20
-5942.237
 30
-1977.000
 70
    32
  0
VERTEX
  8
7250LEVEL
 62
13
 10
1398.108
 20
-5949.183
 30
-1977.000
 70
    32
  0
VERTEX
  8
7250LEVEL
 62
13
 10
1398.233
 20
-5952.695
 30
-1977.000
 70
    32
  0
VERTEX
  8
7250LEVEL
 62
13
 10
1398.680
 20
-5962.580
 30
-1977.000
 70
    32
  0
VERTEX
  8
7250LEVEL
 62
13
 10
1400.014
 20
-5973.439
 30
-1977.000
 70
    32
  0
VERTEX
  8
7250LEVEL
 62
13
 10
1402.898
 20
-5982.140
 30
-1977.000
 70
    32
  0
VERTEX
  8
7250LEVEL
 62
13
 10
1405.310
 20
-5988.078
 30
-1977.000
 70
    32
  0
VERTEX
  8
7250LEVEL
 62
13
 10
1409.724
 20
-5994.087
 30
-1977.000
 70
    32
  0
VERTEX
  8
7250LEVEL
 62
13
 10
1413.964
 20
-6002.145
 30
-1977.000
 70
    32
  0
VERTEX
  8
7250LEVEL
 62
13
 10
1419.317
 20
-6014.641
 30
-1977.000
 70
    32
  0
VERTEX
  8
7250LEVEL
 62
13
 10
1422.594
 20
-6023.015
 30
-1977.000
 70
    32
  0
VERTEX
  8
7250LEVEL
 62
13
 10
1424.612
 20
-6029.600
 30
-1977.000
 70
    32
  0
VERTEX
  8
7250LEVEL
 62
13
 10
1426.195
 20
-6039.116
 30
-1977.000
 70
    32
  0
VERTEX
  8
7250LEVEL
 62
13
 10
1428.695
 20
-6044.546
 30
-1977.000
 70
    32
  0
VERTEX
  8
7250LEVEL
 62
13
 10
1433.046
 20
-6053.980
 30
-1977.000
 70
    32
  0
VERTEX
  8
7250LEVEL
 62
13
 10
1434.542
 20
-6060.336
 30
-1977.000
 70
    32
  0
VERTEX
  8
7250LEVEL
 62
13
 10
1436.042
 20
-6067.404
 30
-1977.000
 70
    32
  0
VERTEX
  8
7250LEVEL
 62
13
 10
1438.672
 20
-6080.403
 30
-1977.000
 70
    32
  0
VERTEX
  8
7250LEVEL
 62
13
 10
1441.127
 20
-6087.085
 30
-1977.000
 70
    32
  0
VERTEX
  8
7250LEVEL
 62
13
 10
1442.713
 20
-6095.959
 30
-1977.000
 70
    32
  0
VERTEX
  8
7250LEVEL
 62
13
 10
1444.779
 20
-6107.345
 30
-1977.000
 70
    32
  0
VERTEX
  8
7250LEVEL
 62
13
 10
1446.703
 20
-6112.374
 30
-1977.000
 70
    32
  0
VERTEX
  8
7250LEVEL
 62
13
 10
1447.885
 20
-6115.452
 30
-1977.000
 70
    32
  0
VERTEX
  8
7250LEVEL
 62
13
 10
1449.437
 20
-6116.320
 30
-1977.000
 70
    32
  0
VERTEX
  8
7250LEVEL
 62
13
 10
1450.629
 20
-6112.134
 30
-1977.000
 70
    32
  0
VERTEX
  8
7250LEVEL
 62
13
 10
1450.834
 20
-6106.701
 30
-1977.000
 70
    32
  0
VERTEX
  8
7250LEVEL
 62
13
 10
1451.303
 20
-6103.411
 30
-1977.000
 70
    32
  0
VERTEX
  8
7250LEVEL
 62
13
 10
1450.645
 20
-6098.568
 30
-1977.000
 70
    32
  0
VERTEX
  8
7250LEVEL
 62
13
 10
1449.756
 20
-6092.895
 30
-1977.000
 70
    32
  0
VERTEX
  8
7250LEVEL
 62
13
 10
1449.617
 20
-6087.569
 30
-1977.000
 70
    32
  0
VERTEX
  8
7250LEVEL
 62
13
 10
1450.169
 20
-6081.387
 30
-1977.000
 70
    32
  0
VERTEX
  8
7250LEVEL
 62
13
 10
1450.609
 20
-6079.168
 30
-1977.000
 70
    32
  0
VERTEX
  8
7250LEVEL
 62
13
 10
1451.887
 20
-6080.136
 30
-1977.000
 70
    32
  0
VERTEX
  8
7250LEVEL
 62
13
 10
1453.929
 20
-6081.592
 30
-1977.000
 70
    32
  0
VERTEX
  8
7250LEVEL
 62
13
 10
1454.303
 20
-6080.092
 30
-1977.000
 70
    32
  0
VERTEX
  8
7250LEVEL
 62
13
 10
1453.672
 20
-6074.499
 30
-1977.000
 70
    32
  0
VERTEX
  8
7250LEVEL
 62
13
 10
1452.632
 20
-6067.738
 30
-1977.000
 70
    32
  0
VERTEX
  8
7250LEVEL
 62
13
 10
1450.569
 20
-6054.037
 30
-1977.000
 70
    32
  0
VERTEX
  8
7250LEVEL
 62
13
 10
1445.848
 20
-6041.794
 30
-1977.000
 70
    32
  0
VERTEX
  8
7250LEVEL
 62
13
 10
1439.380
 20
-6028.527
 30
-1977.000
 70
    32
  0
VERTEX
  8
7250LEVEL
 62
13
 10
1436.007
 20
-6022.264
 30
-1977.000
 70
    32
  0
VERTEX
  8
7250LEVEL
 62
13
 10
1428.669
 20
-6012.862
 30
-1977.000
 70
    32
  0
VERTEX
  8
7250LEVEL
 62
13
 10
1420.593
 20
-6002.543
 30
-1977.000
 70
    32
  0
VERTEX
  8
7250LEVEL
 62
13
 10
1419.079
 20
-6000.034
 30
-1977.000
 70
    32
  0
VERTEX
  8
7250LEVEL
 62
13
 10
1416.013
 20
-5995.305
 30
-1977.000
 70
    32
  0
VERTEX
  8
7250LEVEL
 62
13
 10
1411.875
 20
-5988.874
 30
-1977.000
 70
    32
  0
VERTEX
  8
7250LEVEL
 62
13
 10
1407.497
 20
-5978.517
 30
-1977.000
 70
    32
  0
VERTEX
  8
7250LEVEL
 62
13
 10
1405.827
 20
-5969.189
 30
-1977.000
 70
    32
  0
VERTEX
  8
7250LEVEL
 62
13
 10
1405.756
 20
-5962.503
 30
-1977.000
 70
    32
  0
VERTEX
  8
7250LEVEL
 62
13
 10
1406.683
 20
-5956.494
 30
-1977.000
 70
    32
  0
VERTEX
  8
7250LEVEL
 62
13
 10
1407.919
 20
-5953.052
 30
-1977.000
 70
    32
  0
VERTEX
  8
7250LEVEL
 62
13
 10
1410.305
 20
-5954.400
 30
-1977.000
 70
    32
  0
VERTEX
  8
7250LEVEL
 62
13
 10
1414.203
 20
-5956.904
 30
-1977.000
 70
    32
  0
VERTEX
  8
7250LEVEL
 62
13
 10
1417.397
 20
-5959.484
 30
-1977.000
 70
    32
  0
VERTEX
  8
7250LEVEL
 62
13
 10
1421.665
 20
-5963.124
 30
-1977.000
 70
    32
  0
VERTEX
  8
7250LEVEL
 62
13
 10
1423.815
 20
-5964.924
 30
-1977.000
 70
    32
  0
VERTEX
  8
7250LEVEL
 62
13
 10
1424.103
 20
-5963.612
 30
-1977.000
 70
    32
  0
VERTEX
  8
7250LEVEL
 62
13
 10
1422.275
 20
-5959.819
 30
-1977.000
 70
    32
  0
VERTEX
  8
7250LEVEL
 62
13
 10
1419.219
 20
-5956.193
 30
-1977.000
 70
    32
  0
VERTEX
  8
7250LEVEL
 62
13
 10
1417.021
 20
-5952.937
 30
-1977.000
 70
    32
  0
VERTEX
  8
7250LEVEL
 62
13
 10
1415.935
 20
-5949.422
 30
-1977.000
 70
    32
  0
VERTEX
  8
7250LEVEL
 62
13
 10
1416.143
 20
-5946.694
 30
-1977.000
 70
    32
  0
VERTEX
  8
7250LEVEL
 62
13
 10
1417.100
 20
-5945.987
 30
-1977.000
 70
    32
  0
VERTEX
  8
7250LEVEL
 62
13
 10
1420.219
 20
-5947.862
 30
-1977.000
 70
    32
  0
VERTEX
  8
7250LEVEL
 62
13
 10
1425.536
 20
-5952.992
 30
-1977.000
 70
    32
  0
VERTEX
  8
7250LEVEL
 62
13
 10
1428.331
 20
-5955.507
 30
-1977.000
 70
    32
  0
VERTEX
  8
7250LEVEL
 62
13
 10
1432.226
 20
-5958.653
 30
-1977.000
 70
    32
  0
VERTEX
  8
7250LEVEL
 62
13
 10
1435.040
 20
-5960.668
 30
-1977.000
 70
    32
  0
VERTEX
  8
7250LEVEL
 62
13
 10
1436.990
 20
-5961.599
 30
-1977.000
 70
    32
  0
VERTEX
  8
7250LEVEL
 62
13
 10
1441.075
 20
-5962.517
 30
-1977.000
 70
    32
  0
VERTEX
  8
7250LEVEL
 62
13
 10
1442.500
 20
-5960.514
 30
-1977.000
 70
    32
  0
VERTEX
  8
7250LEVEL
 62
13
 10
1445.341
 20
-5954.765
 30
-1977.000
 70
    32
  0
VERTEX
  8
7250LEVEL
 62
13
 10
1447.556
 20
-5947.480
 30
-1977.000
 70
    32
  0
VERTEX
  8
7250LEVEL
 62
13
 10
1447.046
 20
-5935.999
 30
-1977.000
 70
    32
  0
VERTEX
  8
7250LEVEL
 62
13
 10
1443.724
 20
-5923.856
 30
-1977.000
 70
    32
  0
VERTEX
  8
7250LEVEL
 62
13
 10
1439.964
 20
-5913.611
 30
-1977.000
 70
    32
  0
VERTEX
  8
7250LEVEL
 62
13
 10
1435.248
 20
-5900.086
 30
-1977.000
 70
    32
  0
VERTEX
  8
7250LEVEL
 62
13
 10
1431.751
 20
-5883.618
 30
-1977.000
 70
    32
  0
VERTEX
  8
7250LEVEL
 62
13
 10
1428.156
 20
-5872.928
 30
-1977.000
 70
    32
  0
VERTEX
  8
7250LEVEL
 62
13
 10
1420.643
 20
-5855.856
 30
-1977.000
 70
    32
  0
VERTEX
  8
7250LEVEL
 62
13
 10
1413.830
 20
-5844.369
 30
-1977.000
 70
    32
  0
VERTEX
  8
7250LEVEL
 62
13
 10
1404.324
 20
-5831.995
 30
-1977.000
 70
    32
  0
VERTEX
  8
7250LEVEL
 62
13
 10
1395.121
 20
-5816.775
 30
-1977.000
 70
    32
  0
VERTEX
  8
7250LEVEL
 62
13
 10
1388.632
 20
-5804.649
 30
-1977.000
 70
    32
  0
VERTEX
  8
7250LEVEL
 62
13
 10
1381.971
 20
-5789.231
 30
-1977.000
 70
    32
  0
VERTEX
  8
7250LEVEL
 62
13
 10
1375.651
 20
-5774.345
 30
-1977.000
 70
    32
  0
VERTEX
  8
7250LEVEL
 62
13
 10
1367.637
 20
-5753.908
 30
-1977.000
 70
    32
  0
VERTEX
  8
7250LEVEL
 62
13
 10
1364.134
 20
-5745.416
 30
-1977.000
 70
    32
  0
VERTEX
  8
7250LEVEL
 62
13
 10
1354.881
 20
-5727.389
 30
-1977.000
 70
    32
  0
VERTEX
  8
7250LEVEL
 62
13
 10
1347.798
 20
-5710.021
 30
-1977.000
 70
    32
  0
VERTEX
  8
7250LEVEL
 62
13
 10
1340.342
 20
-5694.153
 30
-1977.000
 70
    32
  0
VERTEX
  8
7250LEVEL
 62
13
 10
1337.152
 20
-5683.919
 30
-1977.000
 70
    32
  0
VERTEX
  8
7250LEVEL
 62
13
 10
1333.220
 20
-5670.061
 30
-1977.000
 70
    32
  0
VERTEX
  8
7250LEVEL
 62
13
 10
1329.365
 20
-5658.260
 30
-1977.000
 70
    32
  0
VERTEX
  8
7250LEVEL
 62
13
 10
1324.591
 20
-5642.177
 30
-1977.000
 70
    32
  0
VERTEX
  8
7250LEVEL
 62
13
 10
1321.208
 20
-5631.465
 30
-1977.000
 70
    32
  0
VERTEX
  8
7250LEVEL
 62
13
 10
1317.682
 20
-5617.742
 30
-1977.000
 70
    32
  0
VERTEX
  8
7250LEVEL
 62
13
 10
1316.969
 20
-5604.360
 30
-1977.000
 70
    32
  0
VERTEX
  8
7250LEVEL
 62
13
 10
1315.346
 20
-5593.460
 30
-1977.000
 70
    32
  0
VERTEX
  8
7250LEVEL
 62
13
 10
1313.517
 20
-5586.641
 30
-1977.000
 70
    32
  0
VERTEX
  8
7250LEVEL
 62
13
 10
1310.065
 20
-5578.963
 30
-1977.000
 70
    32
  0
VERTEX
  8
7250LEVEL
 62
13
 10
1308.685
 20
-5576.368
 30
-1977.000
 70
    32
  0
VERTEX
  8
7250LEVEL
 62
13
 10
1308.542
 20
-5575.031
 30
-1977.000
 70
    32
  0
VERTEX
  8
7250LEVEL
 62
13
 10
1309.387
 20
-5574.941
 30
-1977.000
 70
    32
  0
VERTEX
  8
7250LEVEL
 62
13
 10
1310.758
 20
-5576.112
 30
-1977.000
 70
    32
  0
VERTEX
  8
7250LEVEL
 62
13
 10
1314.029
 20
-5579.075
 30
-1977.000
 70
    32
  0
VERTEX
  8
7250LEVEL
 62
13
 10
1317.017
 20
-5582.068
 30
-1977.000
 70
    32
  0
VERTEX
  8
7250LEVEL
 62
13
 10
1319.558
 20
-5585.535
 30
-1977.000
 70
    32
  0
VERTEX
  8
7250LEVEL
 62
13
 10
1321.766
 20
-5588.220
 30
-1977.000
 70
    32
  0
VERTEX
  8
7250LEVEL
 62
13
 10
1321.970
 20
-5588.127
 30
-1977.000
 70
    32
  0
VERTEX
  8
7250LEVEL
 62
13
 10
1323.139
 20
-5585.724
 30
-1977.000
 70
    32
  0
VERTEX
  8
7250LEVEL
 62
13
 10
1321.636
 20
-5582.644
 30
-1977.000
 70
    32
  0
VERTEX
  8
7250LEVEL
 62
13
 10
1320.434
 20
-5580.387
 30
-1977.000
 70
    32
  0
VERTEX
  8
7250LEVEL
 62
13
 10
1318.461
 20
-5577.571
 30
-1977.000
 70
    32
  0
VERTEX
  8
7250LEVEL
 62
13
 10
1315.597
 20
-5573.069
 30
-1977.000
 70
    32
  0
VERTEX
  8
7250LEVEL
 62
13
 10
1311.352
 20
-5562.627
 30
-1977.000
 70
    32
  0
VERTEX
  8
7250LEVEL
 62
13
 10
1309.837
 20
-5555.418
 30
-1977.000
 70
    32
  0
VERTEX
  8
7250LEVEL
 62
13
 10
1310.235
 20
-5553.809
 30
-1977.000
 70
    32
  0
SEQEND
  8
7250LEVEL
  0
POLYLINE
  8
7250LEVEL
 62
13
 66
     1
 70
     8
  0
VERTEX
  8
7250LEVEL
 62
13
 10
1314.350
 20
-5553.336
 30
-1977.000
 70
    32
  0
VERTEX
  8
7250LEVEL
 62
13
 10
1315.679
 20
-5558.463
 30
-1977.000
 70
    32
  0
VERTEX
  8
7250LEVEL
 62
13
 10
1320.116
 20
-5568.031
 30
-1977.000
 70
    32
  0
VERTEX
  8
7250LEVEL
 62
13
 10
1323.066
 20
-5574.339
 30
-1977.000
 70
    32
  0
VERTEX
  8
7250LEVEL
 62
13
 10
1326.061
 20
-5582.743
 30
-1977.000
 70
    32
  0
VERTEX
  8
7250LEVEL
 62
13
 10
1330.148
 20
-5591.707
 30
-1977.000
 70
    32
  0
VERTEX
  8
7250LEVEL
 62
13
 10
1330.697
 20
-5596.526
 30
-1977.000
 70
    32
  0
VERTEX
  8
7250LEVEL
 62
13
 10
1330.243
 20
-5598.283
 30
-1977.000
 70
    32
  0
VERTEX
  8
7250LEVEL
 62
13
 10
1328.385
 20
-5597.555
 30
-1977.000
 70
    32
  0
VERTEX
  8
7250LEVEL
 62
13
 10
1325.518
 20
-5595.368
 30
-1977.000
 70
    32
  0
VERTEX
  8
7250LEVEL
 62
13
 10
1321.610
 20
-5593.434
 30
-1977.000
 70
    32
  0
VERTEX
  8
7250LEVEL
 62
13
 10
1320.182
 20
-5594.405
 30
-1977.000
 70
    32
  0
VERTEX
  8
7250LEVEL
 62
13
 10
1321.760
 20
-5599.863
 30
-1977.000
 70
    32
  0
VERTEX
  8
7250LEVEL
 62
13
 10
1324.332
 20
-5608.311
 30
-1977.000
 70
    32
  0
VERTEX
  8
7250LEVEL
 62
13
 10
1328.643
 20
-5614.688
 30
-1977.000
 70
    32
  0
VERTEX
  8
7250LEVEL
 62
13
 10
1335.003
 20
-5627.611
 30
-1977.000
 70
    32
  0
VERTEX
  8
7250LEVEL
 62
13
 10
1339.017
 20
-5638.897
 30
-1977.000
 70
    32
  0
VERTEX
  8
7250LEVEL
 62
13
 10
1343.585
 20
-5653.720
 30
-1977.000
 70
    32
  0
VERTEX
  8
7250LEVEL
 62
13
 10
1346.198
 20
-5663.553
 30
-1977.000
 70
    32
  0
VERTEX
  8
7250LEVEL
 62
13
 10
1349.663
 20
-5675.360
 30
-1977.000
 70
    32
  0
VERTEX
  8
7250LEVEL
 62
13
 10
1355.594
 20
-5687.937
 30
-1977.000
 70
    32
  0
VERTEX
  8
7250LEVEL
 62
13
 10
1361.045
 20
-5701.348
 30
-1977.000
 70
    32
  0
VERTEX
  8
7250LEVEL
 62
13
 10
1362.377
 20
-5707.508
 30
-1977.000
 70
    32
  0
VERTEX
  8
7250LEVEL
 62
13
 10
1362.350
 20
-5711.605
 30
-1977.000
 70
    32
  0
VERTEX
  8
7250LEVEL
 62
13
 10
1365.194
 20
-5722.268
 30
-1977.000
 70
    32
  0
VERTEX
  8
7250LEVEL
 62
13
 10
1368.802
 20
-5730.073
 30
-1977.000
 70
    32
  0
VERTEX
  8
7250LEVEL
 62
13
 10
1372.462
 20
-5738.370
 30
-1977.000
 70
    32
  0
VERTEX
  8
7250LEVEL
 62
13
 10
1378.321
 20
-5751.596
 30
-1977.000
 70
    32
  0
VERTEX
  8
7250LEVEL
 62
13
 10
1382.260
 20
-5760.504
 30
-1977.000
 70
    32
  0
VERTEX
  8
7250LEVEL
 62
13
 10
1387.769
 20
-5773.126
 30
-1977.000
 70
    32
  0
VERTEX
  8
7250LEVEL
 62
13
 10
1390.580
 20
-5782.475
 30
-1977.000
 70
    32
  0
VERTEX
  8
7250LEVEL
 62
13
 10
1394.842
 20
-5792.417
 30
-1977.000
 70
    32
  0
VERTEX
  8
7250LEVEL
 62
13
 10
1398.609
 20
-5803.053
 30
-1977.000
 70
    32
  0
VERTEX
  8
7250LEVEL
 62
13
 10
1403.140
 20
-5812.504
 30
-1977.000
 70
    32
  0
VERTEX
  8
7250LEVEL
 62
13
 10
1407.276
 20
-5822.602
 30
-1977.000
 70
    32
  0
VERTEX
  8
7250LEVEL
 62
13
 10
1410.519
 20
-5828.309
 30
-1977.000
 70
    32
  0
VERTEX
  8
7250LEVEL
 62
13
 10
1417.847
 20
-5836.287
 30
-1977.000
 70
    32
  0
VERTEX
  8
7250LEVEL
 62
13
 10
1423.313
 20
-5843.146
 30
-1977.000
 70
    32
  0
VERTEX
  8
7250LEVEL
 62
13
 10
1430.305
 20
-5852.976
 30
-1977.000
 70
    32
  0
VERTEX
  8
7250LEVEL
 62
13
 10
1434.375
 20
-5860.446
 30
-1977.000
 70
    32
  0
VERTEX
  8
7250LEVEL
 62
13
 10
1436.232
 20
-5869.861
 30
-1977.000
 70
    32
  0
VERTEX
  8
7250LEVEL
 62
13
 10
1437.347
 20
-5877.326
 30
-1977.000
 70
    32
  0
VERTEX
  8
7250LEVEL
 62
13
 10
1440.423
 20
-5888.498
 30
-1977.000
 70
    32
  0
VERTEX
  8
7250LEVEL
 62
13
 10
1442.256
 20
-5896.349
 30
-1977.000
 70
    32
  0
VERTEX
  8
7250LEVEL
 62
13
 10
1442.986
 20
-5904.211
 30
-1977.000
 70
    32
  0
VERTEX
  8
7250LEVEL
 62
13
 10
1444.135
 20
-5909.322
 30
-1977.000
 70
    32
  0
VERTEX
  8
7250LEVEL
 62
13
 10
1447.330
 20
-5918.595
 30
-1977.000
 70
    32
  0
VERTEX
  8
7250LEVEL
 62
13
 10
1448.574
 20
-5925.262
 30
-1977.000
 70
    32
  0
VERTEX
  8
7250LEVEL
 62
13
 10
1450.275
 20
-5936.225
 30
-1977.000
 70
    32
  0
VERTEX
  8
7250LEVEL
 62
13
 10
1451.376
 20
-5944.901
 30
-1977.000
 70
    32
  0
VERTEX
  8
7250LEVEL
 62
13
 10
1451.372
 20
-5950.883
 30
-1977.000
 70
    32
  0
VERTEX
  8
7250LEVEL
 62
13
 10
1447.825
 20
-5958.701
 30
-1977.000
 70
    32
  0
VERTEX
  8
7250LEVEL
 62
13
 10
1444.052
 20
-5964.728
 30
-1977.000
 70
    32
  0
VERTEX
  8
7250LEVEL
 62
13
 10
1441.763
 20
-5965.969
 30
-1977.000
 70
    32
  0
VERTEX
  8
7250LEVEL
 62
13
 10
1438.584
 20
-5965.203
 30
-1977.000
 70
    32
  0
VERTEX
  8
7250LEVEL
 62
13
 10
1433.734
 20
-5962.444
 30
-1977.000
 70
    32
  0
VERTEX
  8
7250LEVEL
 62
13
 10
1428.733
 20
-5958.277
 30
-1977.000
 70
    32
  0
VERTEX
  8
7250LEVEL
 62
13
 10
1427.097
 20
-5956.956
 30
-1977.000
 70
    32
  0
VERTEX
  8
7250LEVEL
 62
13
 10
1425.367
 20
-5955.752
 30
-1977.000
 70
    32
  0
VERTEX
  8
7250LEVEL
 62
13
 10
1424.209
 20
-5955.911
 30
-1977.000
 70
    32
  0
VERTEX
  8
7250LEVEL
 62
13
 10
1423.675
 20
-5957.925
 30
-1977.000
 70
    32
  0
VERTEX
  8
7250LEVEL
 62
13
 10
1424.930
 20
-5960.676
 30
-1977.000
 70
    32
  0
VERTEX
  8
7250LEVEL
 62
13
 10
1427.803
 20
-5964.927
 30
-1977.000
 70
    32
  0
VERTEX
  8
7250LEVEL
 62
13
 10
1428.741
 20
-5966.714
 30
-1977.000
 70
    32
  0
VERTEX
  8
7250LEVEL
 62
13
 10
1428.889
 20
-5968.443
 30
-1977.000
 70
    32
  0
VERTEX
  8
7250LEVEL
 62
13
 10
1428.082
 20
-5968.885
 30
-1977.000
 70
    32
  0
VERTEX
  8
7250LEVEL
 62
13
 10
1424.425
 20
-5968.313
 30
-1977.000
 70
    32
  0
VERTEX
  8
7250LEVEL
 62
13
 10
1420.626
 20
-5966.403
 30
-1977.000
 70
    32
  0
VERTEX
  8
7250LEVEL
 62
13
 10
1417.290
 20
-5964.159
 30
-1977.000
 70
    32
  0
VERTEX
  8
7250LEVEL
 62
13
 10
1414.262
 20
-5961.135
 30
-1977.000
 70
    32
  0
VERTEX
  8
7250LEVEL
 62
13
 10
1411.314
 20
-5959.526
 30
-1977.000
 70
    32
  0
VERTEX
  8
7250LEVEL
 62
13
 10
1410.192
 20
-5960.358
 30
-1977.000
 70
    32
  0
VERTEX
  8
7250LEVEL
 62
13
 10
1409.118
 20
-5962.644
 30
-1977.000
 70
    32
  0
VERTEX
  8
7250LEVEL
 62
13
 10
1409.466
 20
-5968.588
 30
-1977.000
 70
    32
  0
VERTEX
  8
7250LEVEL
 62
13
 10
1413.847
 20
-5976.631
 30
-1977.000
 70
    32
  0
VERTEX
  8
7250LEVEL
 62
13
 10
1418.593
 20
-5985.097
 30
-1977.000
 70
    32
  0
VERTEX
  8
7250LEVEL
 62
13
 10
1423.329
 20
-5994.134
 30
-1977.000
 70
    32
  0
VERTEX
  8
7250LEVEL
 62
13
 10
1427.038
 20
-6000.219
 30
-1977.000
 70
    32
  0
VERTEX
  8
7250LEVEL
 62
13
 10
1434.510
 20
-6011.208
 30
-1977.000
 70
    32
  0
VERTEX
  8
7250LEVEL
 62
13
 10
1438.986
 20
-6017.140
 30
-1977.000
 70
    32
  0
VERTEX
  8
7250LEVEL
 62
13
 10
1442.691
 20
-6024.187
 30
-1977.000
 70
    32
  0
VERTEX
  8
7250LEVEL
 62
13
 10
1446.392
 20
-6032.195
 30
-1977.000
 70
    32
  0
VERTEX
  8
7250LEVEL
 62
13
 10
1449.866
 20
-6038.411
 30
-1977.000
 70
    32
  0
VERTEX
  8
7250LEVEL
 62
13
 10
1453.872
 20
-6051.621
 30
-1977.000
 70
    32
  0
VERTEX
  8
7250LEVEL
 62
13
 10
1455.199
 20
-6057.069
 30
-1977.000
 70
    32
  0
VERTEX
  8
7250LEVEL
 62
13
 10
1457.468
 20
-6068.683
 30
-1977.000
 70
    32
  0
VERTEX
  8
7250LEVEL
 62
13
 10
1458.751
 20
-6078.729
 30
-1977.000
 70
    32
  0
VERTEX
  8
7250LEVEL
 62
13
 10
1458.970
 20
-6087.143
 30
-1977.000
 70
    32
  0
VERTEX
  8
7250LEVEL
 62
13
 10
1458.222
 20
-6093.489
 30
-1977.000
 70
    32
  0
VERTEX
  8
7250LEVEL
 62
13
 10
1458.081
 20
-6093.504
 30
-1977.000
 70
    32
  0
VERTEX
  8
7250LEVEL
 62
13
 10
1455.998
 20
-6099.351
 30
-1977.000
 70
    32
  0
VERTEX
  8
7250LEVEL
 62
13
 10
1455.455
 20
-6110.303
 30
-1977.000
 70
    32
  0
VERTEX
  8
7250LEVEL
 62
13
 10
1456.409
 20
-6116.930
 30
-1977.000
 70
    32
  0
VERTEX
  8
7250LEVEL
 62
13
 10
1457.842
 20
-6128.384
 30
-1977.000
 70
    32
  0
VERTEX
  8
7250LEVEL
 62
13
 10
1461.016
 20
-6138.798
 30
-1977.000
 70
    32
  0
VERTEX
  8
7250LEVEL
 62
13
 10
1466.337
 20
-6146.313
 30
-1977.000
 70
    32
  0
VERTEX
  8
7250LEVEL
 62
13
 10
1473.023
 20
-6152.936
 30
-1977.000
 70
    32
  0
VERTEX
  8
7250LEVEL
 62
13
 10
1479.852
 20
-6155.876
 30
-1977.000
 70
    32
  0
VERTEX
  8
7250LEVEL
 62
13
 10
1483.312
 20
-6156.611
 30
-1977.000
 70
    32
  0
VERTEX
  8
7250LEVEL
 62
13
 10
1484.410
 20
-6154.216
 30
-1977.000
 70
    32
  0
VERTEX
  8
7250LEVEL
 62
13
 10
1483.133
 20
-6147.908
 30
-1977.000
 70
    32
  0
VERTEX
  8
7250LEVEL
 62
13
 10
1480.635
 20
-6133.470
 30
-1977.000
 70
    32
  0
VERTEX
  8
7250LEVEL
 62
13
 10
1478.571
 20
-6121.442
 30
-1977.000
 70
    32
  0
VERTEX
  8
7250LEVEL
 62
13
 10
1476.710
 20
-6114.662
 30
-1977.000
 70
    32
  0
VERTEX
  8
7250LEVEL
 62
13
 10
1476.488
 20
-6111.909
 30
-1977.000
 70
    32
  0
VERTEX
  8
7250LEVEL
 62
13
 10
1477.561
 20
-6111.617
 30
-1977.000
 70
    32
  0
VERTEX
  8
7250LEVEL
 62
13
 10
1478.977
 20
-6113.211
 30
-1977.000
 70
    32
  0
VERTEX
  8
7250LEVEL
 62
13
 10
1480.213
 20
-6114.788
 30
-1977.000
 70
    32
  0
VERTEX
  8
7250LEVEL
 62
13
 10
1480.521
 20
-6114.007
 30
-1977.000
 70
    32
  0
VERTEX
  8
7250LEVEL
 62
13
 10
1480.424
 20
-6109.746
 30
-1977.000
 70
    32
  0
VERTEX
  8
7250LEVEL
 62
13
 10
1480.617
 20
-6105.204
 30
-1977.000
 70
    32
  0
VERTEX
  8
7250LEVEL
 62
13
 10
1482.276
 20
-6103.069
 30
-1977.000
 70
    32
  0
VERTEX
  8
7250LEVEL
 62
13
 10
1484.994
 20
-6105.521
 30
-1977.000
 70
    32
  0
VERTEX
  8
7250LEVEL
 62
13
 10
1487.452
 20
-6108.214
 30
-1977.000
 70
    32
  0
VERTEX
  8
7250LEVEL
 62
13
 10
1488.630
 20
-6108.908
 30
-1977.000
 70
    32
  0
VERTEX
  8
7250LEVEL
 62
13
 10
1490.328
 20
-6106.804
 30
-1977.000
 70
    32
  0
VERTEX
  8
7250LEVEL
 62
13
 10
1490.267
 20
-6101.542
 30
-1977.000
 70
    32
  0
VERTEX
  8
7250LEVEL
 62
13
 10
1485.956
 20
-6090.145
 30
-1977.000
 70
    32
  0
VERTEX
  8
7250LEVEL
 62
13
 10
1482.815
 20
-6079.371
 30
-1977.000
 70
    32
  0
VERTEX
  8
7250LEVEL
 62
13
 10
1483.191
 20
-6077.551
 30
-1977.000
 70
    32
  0
VERTEX
  8
7250LEVEL
 62
13
 10
1483.785
 20
-6077.773
 30
-1977.000
 70
    32
  0
VERTEX
  8
7250LEVEL
 62
13
 10
1485.698
 20
-6081.699
 30
-1977.000
 70
    32
  0
VERTEX
  8
7250LEVEL
 62
13
 10
1487.003
 20
-6085.263
 30
-1977.000
 70
    32
  0
VERTEX
  8
7250LEVEL
 62
13
 10
1489.975
 20
-6090.109
 30
-1977.000
 70
    32
  0
VERTEX
  8
7250LEVEL
 62
13
 10
1491.349
 20
-6092.312
 30
-1977.000
 70
    32
  0
VERTEX
  8
7250LEVEL
 62
13
 10
1492.044
 20
-6092.487
 30
-1977.000
 70
    32
  0
VERTEX
  8
7250LEVEL
 62
13
 10
1492.453
 20
-6091.981
 30
-1977.000
 70
    32
  0
VERTEX
  8
7250LEVEL
 62
13
 10
1492.063
 20
-6088.320
 30
-1977.000
 70
    32
  0
VERTEX
  8
7250LEVEL
 62
13
 10
1489.840
 20
-6083.822
 30
-1977.000
 70
    32
  0
VERTEX
  8
7250LEVEL
 62
13
 10
1487.868
 20
-6080.685
 30
-1977.000
 70
    32
  0
VERTEX
  8
7250LEVEL
 62
13
 10
1487.304
 20
-6079.392
 30
-1977.000
 70
    32
  0
VERTEX
  8
7250LEVEL
 62
13
 10
1487.864
 20
-6078.300
 30
-1977.000
 70
    32
  0
VERTEX
  8
7250LEVEL
 62
13
 10
1490.367
 20
-6081.416
 30
-1977.000
 70
    32
  0
VERTEX
  8
7250LEVEL
 62
13
 10
1494.928
 20
-6087.801
 30
-1977.000
 70
    32
  0
VERTEX
  8
7250LEVEL
 62
13
 10
1499.194
 20
-6091.762
 30
-1977.000
 70
    32
  0
VERTEX
  8
7250LEVEL
 62
13
 10
1503.760
 20
-6095.192
 30
-1977.000
 70
    32
  0
VERTEX
  8
7250LEVEL
 62
13
 10
1506.195
 20
-6096.321
 30
-1977.000
 70
    32
  0
VERTEX
  8
7250LEVEL
 62
13
 10
1507.368
 20
-6096.303
 30
-1977.000
 70
    32
  0
VERTEX
  8
7250LEVEL
 62
13
 10
1508.171
 20
-6093.477
 30
-1977.000
 70
    32
  0
VERTEX
  8
7250LEVEL
 62
13
 10
1504.954
 20
-6087.339
 30
-1977.000
 70
    32
  0
VERTEX
  8
7250LEVEL
 62
13
 10
1500.564
 20
-6079.547
 30
-1977.000
 70
    32
  0
VERTEX
  8
7250LEVEL
 62
13
 10
1496.236
 20
-6070.324
 30
-1977.000
 70
    32
  0
VERTEX
  8
7250LEVEL
 62
13
 10
1494.065
 20
-6064.645
 30
-1977.000
 70
    32
  0
VERTEX
  8
7250LEVEL
 62
13
 10
1494.403
 20
-6059.126
 30
-1977.000
 70
    32
  0
VERTEX
  8
7250LEVEL
 62
13
 10
1497.134
 20
-6062.040
 30
-1977.000
 70
    32
  0
VERTEX
  8
7250LEVEL
 62
13
 10
1498.977
 20
-6065.973
 30
-1977.000
 70
    32
  0
VERTEX
  8
7250LEVEL
 62
13
 10
1502.862
 20
-6074.710
 30
-1977.000
 70
    32
  0
VERTEX
  8
7250LEVEL
 62
13
 10
1507.181
 20
-6085.856
 30
-1977.000
 70
    32
  0
VERTEX
  8
7250LEVEL
 62
13
 10
1511.415
 20
-6093.523
 30
-1977.000
 70
    32
  0
VERTEX
  8
7250LEVEL
 62
13
 10
1516.030
 20
-6101.754
 30
-1977.000
 70
    32
  0
VERTEX
  8
7250LEVEL
 62
13
 10
1519.699
 20
-6108.128
 30
-1977.000
 70
    32
  0
VERTEX
  8
7250LEVEL
 62
13
 10
1522.911
 20
-6113.554
 30
-1977.000
 70
    32
  0
VERTEX
  8
7250LEVEL
 62
13
 10
1524.856
 20
-6115.768
 30
-1977.000
 70
    32
  0
VERTEX
  8
7250LEVEL
 62
13
 10
1527.330
 20
-6116.608
 30
-1977.000
 70
    32
  0
VERTEX
  8
7250LEVEL
 62
13
 10
1529.118
 20
-6115.670
 30
-1977.000
 70
    32
  0
VERTEX
  8
7250LEVEL
 62
13
 10
1530.034
 20
-6113.579
 30
-1977.000
 70
    32
  0
VERTEX
  8
7250LEVEL
 62
13
 10
1526.367
 20
-6108.558
 30
-1977.000
 70
    32
  0
VERTEX
  8
7250LEVEL
 62
13
 10
1519.385
 20
-6101.504
 30
-1977.000
 70
    32
  0
VERTEX
  8
7250LEVEL
 62
13
 10
1517.559
 20
-6099.064
 30
-1977.000
 70
    32
  0
VERTEX
  8
7250LEVEL
 62
13
 10
1516.175
 20
-6094.084
 30
-1977.000
 70
    32
  0
VERTEX
  8
7250LEVEL
 62
13
 10
1516.553
 20
-6089.950
 30
-1977.000
 70
    32
  0
VERTEX
  8
7250LEVEL
 62
13
 10
1517.127
 20
-6082.626
 30
-1977.000
 70
    32
  0
VERTEX
  8
7250LEVEL
 62
13
 10
1516.611
 20
-6075.774
 30
-1977.000
 70
    32
  0
VERTEX
  8
7250LEVEL
 62
13
 10
1509.966
 20
-6061.849
 30
-1977.000
 70
    32
  0
VERTEX
  8
7250LEVEL
 62
13
 10
1502.986
 20
-6049.454
 30
-1977.000
 70
    32
  0
VERTEX
  8
7250LEVEL
 62
13
 10
1492.566
 20
-6035.183
 30
-1977.000
 70
    32
  0
VERTEX
  8
7250LEVEL
 62
13
 10
1485.612
 20
-6024.032
 30
-1977.000
 70
    32
  0
VERTEX
  8
7250LEVEL
 62
13
 10
1480.161
 20
-6012.294
 30
-1977.000
 70
    32
  0
VERTEX
  8
7250LEVEL
 62
13
 10
1476.944
 20
-6006.157
 30
-1977.000
 70
    32
  0
VERTEX
  8
7250LEVEL
 62
13
 10
1474.520
 20
-6001.110
 30
-1977.000
 70
    32
  0
VERTEX
  8
7250LEVEL
 62
13
 10
1473.961
 20
-5998.535
 30
-1977.000
 70
    32
  0
VERTEX
  8
7250LEVEL
 62
13
 10
1474.160
 20
-5997.731
 30
-1977.000
 70
    32
  0
VERTEX
  8
7250LEVEL
 62
13
 10
1477.384
 20
-5998.918
 30
-1977.000
 70
    32
  0
VERTEX
  8
7250LEVEL
 62
13
 10
1483.730
 20
-6004.687
 30
-1977.000
 70
    32
  0
VERTEX
  8
7250LEVEL
 62
13
 10
1490.746
 20
-6012.734
 30
-1977.000
 70
    32
  0
VERTEX
  8
7250LEVEL
 62
13
 10
1497.106
 20
-6022.310
 30
-1977.000
 70
    32
  0
VERTEX
  8
7250LEVEL
 62
13
 10
1505.792
 20
-6032.672
 30
-1977.000
 70
    32
  0
VERTEX
  8
7250LEVEL
 62
13
 10
1514.411
 20
-6042.399
 30
-1977.000
 70
    32
  0
VERTEX
  8
7250LEVEL
 62
13
 10
1523.361
 20
-6049.884
 30
-1977.000
 70
    32
  0
VERTEX
  8
7250LEVEL
 62
13
 10
1533.660
 20
-6058.009
 30
-1977.000
 70
    32
  0
VERTEX
  8
7250LEVEL
 62
13
 10
1540.075
 20
-6062.417
 30
-1977.000
 70
    32
  0
VERTEX
  8
7250LEVEL
 62
13
 10
1547.851
 20
-6064.900
 30
-1977.000
 70
    32
  0
VERTEX
  8
7250LEVEL
 62
13
 10
1555.366
 20
-6066.593
 30
-1977.000
 70
    32
  0
VERTEX
  8
7250LEVEL
 62
13
 10
1559.762
 20
-6066.089
 30
-1977.000
 70
    32
  0
VERTEX
  8
7250LEVEL
 62
13
 10
1561.997
 20
-6061.330
 30
-1977.000
 70
    32
  0
VERTEX
  8
7250LEVEL
 62
13
 10
1562.952
 20
-6050.903
 30
-1977.000
 70
    32
  0
VERTEX
  8
7250LEVEL
 62
13
 10
1562.913
 20
-6042.505
 30
-1977.000
 70
    32
  0
VERTEX
  8
7250LEVEL
 62
13
 10
1561.086
 20
-6031.699
 30
-1977.000
 70
    32
  0
VERTEX
  8
7250LEVEL
 62
13
 10
1556.615
 20
-6021.138
 30
-1977.000
 70
    32
  0
VERTEX
  8
7250LEVEL
 62
13
 10
1547.405
 20
-6012.541
 30
-1977.000
 70
    32
  0
VERTEX
  8
7250LEVEL
 62
13
 10
1537.403
 20
-6002.534
 30
-1977.000
 70
    32
  0
VERTEX
  8
7250LEVEL
 62
13
 10
1531.129
 20
-5996.437
 30
-1977.000
 70
    32
  0
VERTEX
  8
7250LEVEL
 62
13
 10
1520.276
 20
-5984.455
 30
-1977.000
 70
    32
  0
VERTEX
  8
7250LEVEL
 62
13
 10
1516.671
 20
-5976.009
 30
-1977.000
 70
    32
  0
VERTEX
  8
7250LEVEL
 62
13
 10
1507.123
 20
-5959.225
 30
-1977.000
 70
    32
  0
VERTEX
  8
7250LEVEL
 62
13
 10
1499.704
 20
-5947.055
 30
-1977.000
 70
    32
  0
VERTEX
  8
7250LEVEL
 62
13
 10
1492.864
 20
-5936.640
 30
-1977.000
 70
    32
  0
VERTEX
  8
7250LEVEL
 62
13
 10
1489.507
 20
-5928.524
 30
-1977.000
 70
    32
  0
VERTEX
  8
7250LEVEL
 62
13
 10
1489.417
 20
-5926.005
 30
-1977.000
 70
    32
  0
VERTEX
  8
7250LEVEL
 62
13
 10
1492.105
 20
-5928.176
 30
-1977.000
 70
    32
  0
VERTEX
  8
7250LEVEL
 62
13
 10
1496.213
 20
-5932.652
 30
-1977.000
 70
    32
  0
VERTEX
  8
7250LEVEL
 62
13
 10
1501.973
 20
-5938.269
 30
-1977.000
 70
    32
  0
VERTEX
  8
7250LEVEL
 62
13
 10
1506.153
 20
-5942.417
 30
-1977.000
 70
    32
  0
VERTEX
  8
7250LEVEL
 62
13
 10
1509.510
 20
-5945.192
 30
-1977.000
 70
    32
  0
VERTEX
  8
7250LEVEL
 62
13
 10
1514.298
 20
-5946.356
 30
-1977.000
 70
    32
  0
VERTEX
  8
7250LEVEL
 62
13
 10
1514.155
 20
-5941.672
 30
-1977.000
 70
    32
  0
VERTEX
  8
7250LEVEL
 62
13
 10
1510.786
 20
-5933.094
 30
-1977.000
 70
    32
  0
VERTEX
  8
7250LEVEL
 62
13
 10
1509.425
 20
-5926.332
 30
-1977.000
 70
    32
  0
VERTEX
  8
7250LEVEL
 62
13
 10
1505.572
 20
-5917.557
 30
-1977.000
 70
    32
  0
VERTEX
  8
7250LEVEL
 62
13
 10
1495.873
 20
-5908.051
 30
-1977.000
 70
    32
  0
VERTEX
  8
7250LEVEL
 62
13
 10
1490.932
 20
-5902.774
 30
-1977.000
 70
    32
  0
VERTEX
  8
7250LEVEL
 62
13
 10
1483.706
 20
-5892.756
 30
-1977.000
 70
    32
  0
VERTEX
  8
7250LEVEL
 62
13
 10
1476.825
 20
-5879.283
 30
-1977.000
 70
    32
  0
VERTEX
  8
7250LEVEL
 62
13
 10
1473.131
 20
-5867.998
 30
-1977.000
 70
    32
  0
VERTEX
  8
7250LEVEL
 62
13
 10
1470.277
 20
-5854.560
 30
-1977.000
 70
    32
  0
VERTEX
  8
7250LEVEL
 62
13
 10
1468.700
 20
-5847.109
 30
-1977.000
 70
    32
  0
VERTEX
  8
7250LEVEL
 62
13
 10
1464.655
 20
-5840.882
 30
-1977.000
 70
    32
  0
VERTEX
  8
7250LEVEL
 62
13
 10
1456.445
 20
-5830.648
 30
-1977.000
 70
    32
  0
VERTEX
  8
7250LEVEL
 62
13
 10
1446.583
 20
-5819.272
 30
-1977.000
 70
    32
  0
VERTEX
  8
7250LEVEL
 62
13
 10
1439.443
 20
-5809.387
 30
-1977.000
 70
    32
  0
VERTEX
  8
7250LEVEL
 62
13
 10
1436.208
 20
-5803.750
 30
-1977.000
 70
    32
  0
VERTEX
  8
7250LEVEL
 62
13
 10
1432.987
 20
-5798.575
 30
-1977.000
 70
    32
  0
VERTEX
  8
7250LEVEL
 62
13
 10
1430.232
 20
-5795.771
 30
-1977.000
 70
    32
  0
VERTEX
  8
7250LEVEL
 62
13
 10
1428.553
 20
-5797.053
 30
-1977.000
 70
    32
  0
VERTEX
  8
7250LEVEL
 62
13
 10
1428.625
 20
-5800.072
 30
-1977.000
 70
    32
  0
VERTEX
  8
7250LEVEL
 62
13
 10
1430.710
 20
-5803.944
 30
-1977.000
 70
    32
  0
VERTEX
  8
7250LEVEL
 62
13
 10
1433.217
 20
-5808.092
 30
-1977.000
 70
    32
  0
VERTEX
  8
7250LEVEL
 62
13
 10
1434.562
 20
-5813.040
 30
-1977.000
 70
    32
  0
VERTEX
  8
7250LEVEL
 62
13
 10
1434.712
 20
-5816.121
 30
-1977.000
 70
    32
  0
VERTEX
  8
7250LEVEL
 62
13
 10
1433.149
 20
-5819.492
 30
-1977.000
 70
    32
  0
VERTEX
  8
7250LEVEL
 62
13
 10
1432.608
 20
-5819.763
 30
-1977.000
 70
    32
  0
VERTEX
  8
7250LEVEL
 62
13
 10
1429.779
 20
-5817.607
 30
-1977.000
 70
    32
  0
VERTEX
  8
7250LEVEL
 62
13
 10
1423.618
 20
-5809.220
 30
-1977.000
 70
    32
  0
VERTEX
  8
7250LEVEL
 62
13
 10
1421.314
 20
-5799.960
 30
-1977.000
 70
    32
  0
VERTEX
  8
7250LEVEL
 62
13
 10
1418.822
 20
-5785.913
 30
-1977.000
 70
    32
  0
VERTEX
  8
7250LEVEL
 62
13
 10
1414.938
 20
-5766.816
 30
-1977.000
 70
    32
  0
VERTEX
  8
7250LEVEL
 62
13
 10
1407.758
 20
-5748.533
 30
-1977.000
 70
    32
  0
VERTEX
  8
7250LEVEL
 62
13
 10
1403.899
 20
-5737.694
 30
-1977.000
 70
    32
  0
VERTEX
  8
7250LEVEL
 62
13
 10
1397.365
 20
-5721.799
 30
-1977.000
 70
    32
  0
VERTEX
  8
7250LEVEL
 62
13
 10
1392.325
 20
-5710.907
 30
-1977.000
 70
    32
  0
VERTEX
  8
7250LEVEL
 62
13
 10
1390.940
 20
-5704.254
 30
-1977.000
 70
    32
  0
VERTEX
  8
7250LEVEL
 62
13
 10
1387.739
 20
-5694.591
 30
-1977.000
 70
    32
  0
VERTEX
  8
7250LEVEL
 62
13
 10
1381.899
 20
-5682.538
 30
-1977.000
 70
    32
  0
VERTEX
  8
7250LEVEL
 62
13
 10
1376.964
 20
-5669.285
 30
-1977.000
 70
    32
  0
VERTEX
  8
7250LEVEL
 62
13
 10
1368.382
 20
-5653.216
 30
-1977.000
 70
    32
  0
VERTEX
  8
7250LEVEL
 62
13
 10
1359.905
 20
-5638.133
 30
-1977.000
 70
    32
  0
VERTEX
  8
7250LEVEL
 62
13
 10
1353.476
 20
-5624.897
 30
-1977.000
 70
    32
  0
VERTEX
  8
7250LEVEL
 62
13
 10
1347.128
 20
-5612.756
 30
-1977.000
 70
    32
  0
VERTEX
  8
7250LEVEL
 62
13
 10
1342.813
 20
-5600.648
 30
-1977.000
 70
    32
  0
VERTEX
  8
7250LEVEL
 62
13
 10
1339.337
 20
-5589.732
 30
-1977.000
 70
    32
  0
VERTEX
  8
7250LEVEL
 62
13
 10
1335.115
 20
-5577.827
 30
-1977.000
 70
    32
  0
VERTEX
  8
7250LEVEL
 62
13
 10
1330.343
 20
-5568.117
 30
-1977.000
 70
    32
  0
VERTEX
  8
7250LEVEL
 62
13
 10
1326.803
 20
-5560.946
 30
-1977.000
 70
    32
  0
VERTEX
  8
7250LEVEL
 62
13
 10
1321.851
 20
-5554.567
 30
-1977.000
 70
    32
  0
VERTEX
  8
7250LEVEL
 62
13
 10
1319.524
 20
-5548.762
 30
-1977.000
 70
    32
  0
SEQEND
  8
7250LEVEL
  0
POLYLINE
  8
7250LEVEL
 62
13
 66
     1
 70
     8
  0
VERTEX
  8
7250LEVEL
 62
13
 10
1237.152
 20
-5611.076
 30
-1977.000
 70
    32
  0
VERTEX
  8
7250LEVEL
 62
13
 10
1237.906
 20
-5615.482
 30
-1977.000
 70
    32
  0
VERTEX
  8
7250LEVEL
 62
13
 10
1240.089
 20
-5623.616
 30
-1977.000
 70
    32
  0
VERTEX
  8
7250LEVEL
 62
13
 10
1243.105
 20
-5634.225
 30
-1977.000
 70
    32
  0
VERTEX
  8
7250LEVEL
 62
13
 10
1244.426
 20
-5646.296
 30
-1977.000
 70
    32
  0
VERTEX
  8
7250LEVEL
 62
13
 10
1246.044
 20
-5656.484
 30
-1977.000
 70
    32
  0
VERTEX
  8
7250LEVEL
 62
13
 10
1248.434
 20
-5670.578
 30
-1977.000
 70
    32
  0
VERTEX
  8
7250LEVEL
 62
13
 10
1253.045
 20
-5688.137
 30
-1977.000
 70
    32
  0
VERTEX
  8
7250LEVEL
 62
13
 10
1257.987
 20
-5706.801
 30
-1977.000
 70
    32
  0
VERTEX
  8
7250LEVEL
 62
13
 10
1262.671
 20
-5725.385
 30
-1977.000
 70
    32
  0
VERTEX
  8
7250LEVEL
 62
13
 10
1268.090
 20
-5740.509
 30
-1977.000
 70
    32
  0
VERTEX
  8
7250LEVEL
 62
13
 10
1272.491
 20
-5752.750
 30
-1977.000
 70
    32
  0
VERTEX
  8
7250LEVEL
 62
13
 10
1279.371
 20
-5769.890
 30
-1977.000
 70
    32
  0
VERTEX
  8
7250LEVEL
 62
13
 10
1287.189
 20
-5785.471
 30
-1977.000
 70
    32
  0
VERTEX
  8
7250LEVEL
 62
13
 10
1294.448
 20
-5798.476
 30
-1977.000
 70
    32
  0
VERTEX
  8
7250LEVEL
 62
13
 10
1299.053
 20
-5806.958
 30
-1977.000
 70
    32
  0
VERTEX
  8
7250LEVEL
 62
13
 10
1301.044
 20
-5810.947
 30
-1977.000
 70
    32
  0
VERTEX
  8
7250LEVEL
 62
13
 10
1301.928
 20
-5810.888
 30
-1977.000
 70
    32
  0
VERTEX
  8
7250LEVEL
 62
13
 10
1302.232
 20
-5807.723
 30
-1977.000
 70
    32
  0
VERTEX
  8
7250LEVEL
 62
13
 10
1301.937
 20
-5803.945
 30
-1977.000
 70
    32
  0
VERTEX
  8
7250LEVEL
 62
13
 10
1302.127
 20
-5800.044
 30
-1977.000
 70
    32
  0
VERTEX
  8
7250LEVEL
 62
13
 10
1302.263
 20
-5795.971
 30
-1977.000
 70
    32
  0
VERTEX
  8
7250LEVEL
 62
13
 10
1303.067
 20
-5792.824
 30
-1977.000
 70
    32
  0
VERTEX
  8
7250LEVEL
 62
13
 10
1304.821
 20
-5793.919
 30
-1977.000
 70
    32
  0
VERTEX
  8
7250LEVEL
 62
13
 10
1305.762
 20
-5798.411
 30
-1977.000
 70
    32
  0
VERTEX
  8
7250LEVEL
 62
13
 10
1306.101
 20
-5804.605
 30
-1977.000
 70
    32
  0
VERTEX
  8
7250LEVEL
 62
13
 10
1307.257
 20
-5815.128
 30
-1977.000
 70
    32
  0
VERTEX
  8
7250LEVEL
 62
13
 10
1308.953
 20
-5827.052
 30
-1977.000
 70
    32
  0
VERTEX
  8
7250LEVEL
 62
13
 10
1313.964
 20
-5842.682
 30
-1977.000
 70
    32
  0
VERTEX
  8
7250LEVEL
 62
13
 10
1319.204
 20
-5861.136
 30
-1977.000
 70
    32
  0
VERTEX
  8
7250LEVEL
 62
13
 10
1324.589
 20
-5875.266
 30
-1977.000
 70
    32
  0
VERTEX
  8
7250LEVEL
 62
13
 10
1328.467
 20
-5890.625
 30
-1977.000
 70
    32
  0
VERTEX
  8
7250LEVEL
 62
13
 10
1328.097
 20
-5896.183
 30
-1977.000
 70
    32
  0
VERTEX
  8
7250LEVEL
 62
13
 10
1326.674
 20
-5897.865
 30
-1977.000
 70
    32
  0
VERTEX
  8
7250LEVEL
 62
13
 10
1324.505
 20
-5896.886
 30
-1977.000
 70
    32
  0
VERTEX
  8
7250LEVEL
 62
13
 10
1321.774
 20
-5895.646
 30
-1977.000
 70
    32
  0
VERTEX
  8
7250LEVEL
 62
13
 10
1317.546
 20
-5893.390
 30
-1977.000
 70
    32
  0
VERTEX
  8
7250LEVEL
 62
13
 10
1315.575
 20
-5893.600
 30
-1977.000
 70
    32
  0
VERTEX
  8
7250LEVEL
 62
13
 10
1313.968
 20
-5896.227
 30
-1977.000
 70
    32
  0
VERTEX
  8
7250LEVEL
 62
13
 10
1313.291
 20
-5902.245
 30
-1977.000
 70
    32
  0
VERTEX
  8
7250LEVEL
 62
13
 10
1313.838
 20
-5907.385
 30
-1977.000
 70
    32
  0
VERTEX
  8
7250LEVEL
 62
13
 10
1316.387
 20
-5917.616
 30
-1977.000
 70
    32
  0
VERTEX
  8
7250LEVEL
 62
13
 10
1320.020
 20
-5926.664
 30
-1977.000
 70
    32
  0
VERTEX
  8
7250LEVEL
 62
13
 10
1320.573
 20
-5933.868
 30
-1977.000
 70
    32
  0
VERTEX
  8
7250LEVEL
 62
13
 10
1319.126
 20
-5935.660
 30
-1977.000
 70
    32
  0
VERTEX
  8
7250LEVEL
 62
13
 10
1317.971
 20
-5935.177
 30
-1977.000
 70
    32
  0
VERTEX
  8
7250LEVEL
 62
13
 10
1315.456
 20
-5932.953
 30
-1977.000
 70
    32
  0
VERTEX
  8
7250LEVEL
 62
13
 10
1311.912
 20
-5930.091
 30
-1977.000
 70
    32
  0
VERTEX
  8
7250LEVEL
 62
13
 10
1309.393
 20
-5928.507
 30
-1977.000
 70
    32
  0
VERTEX
  8
7250LEVEL
 62
13
 10
1307.958
 20
-5929.408
 30
-1977.000
 70
    32
  0
VERTEX
  8
7250LEVEL
 62
13
 10
1307.896
 20
-5934.506
 30
-1977.000
 70
    32
  0
VERTEX
  8
7250LEVEL
 62
13
 10
1312.316
 20
-5949.273
 30
-1977.000
 70
    32
  0
VERTEX
  8
7250LEVEL
 62
13
 10
1317.715
 20
-5960.198
 30
-1977.000
 70
    32
  0
VERTEX
  8
7250LEVEL
 62
13
 10
1328.872
 20
-5975.707
 30
-1977.000
 70
    32
  0
VERTEX
  8
7250LEVEL
 62
13
 10
1337.436
 20
-5993.950
 30
-1977.000
 70
    32
  0
VERTEX
  8
7250LEVEL
 62
13
 10
1339.245
 20
-6008.604
 30
-1977.000
 70
    32
  0
VERTEX
  8
7250LEVEL
 62
13
 10
1338.884
 20
-6020.925
 30
-1977.000
 70
    32
  0
VERTEX
  8
7250LEVEL
 62
13
 10
1340.399
 20
-6028.133
 30
-1977.000
 70
    32
  0
VERTEX
  8
7250LEVEL
 62
13
 10
1342.937
 20
-6035.589
 30
-1977.000
 70
    32
  0
VERTEX
  8
7250LEVEL
 62
13
 10
1343.524
 20
-6040.439
 30
-1977.000
 70
    32
  0
VERTEX
  8
7250LEVEL
 62
13
 10
1344.320
 20
-6045.909
 30
-1977.000
 70
    32
  0
VERTEX
  8
7250LEVEL
 62
13
 10
1346.683
 20
-6052.386
 30
-1977.000
 70
    32
  0
VERTEX
  8
7250LEVEL
 62
13
 10
1353.988
 20
-6062.147
 30
-1977.000
 70
    32
  0
VERTEX
  8
7250LEVEL
 62
13
 10
1360.664
 20
-6067.666
 30
-1977.000
 70
    32
  0
VERTEX
  8
7250LEVEL
 62
13
 10
1364.646
 20
-6068.952
 30
-1977.000
 70
    32
  0
VERTEX
  8
7250LEVEL
 62
13
 10
1366.572
 20
-6068.319
 30
-1977.000
 70
    32
  0
VERTEX
  8
7250LEVEL
 62
13
 10
1366.184
 20
-6066.011
 30
-1977.000
 70
    32
  0
VERTEX
  8
7250LEVEL
 62
13
 10
1365.516
 20
-6063.412
 30
-1977.000
 70
    32
  0
VERTEX
  8
7250LEVEL
 62
13
 10
1365.105
 20
-6060.892
 30
-1977.000
 70
    32
  0
VERTEX
  8
7250LEVEL
 62
13
 10
1365.680
 20
-6059.941
 30
-1977.000
 70
    32
  0
VERTEX
  8
7250LEVEL
 62
13
 10
1366.849
 20
-6060.884
 30
-1977.000
 70
    32
  0
VERTEX
  8
7250LEVEL
 62
13
 10
1368.510
 20
-6063.449
 30
-1977.000
 70
    32
  0
VERTEX
  8
7250LEVEL
 62
13
 10
1369.802
 20
-6064.878
 30
-1977.000
 70
    32
  0
VERTEX
  8
7250LEVEL
 62
13
 10
1372.551
 20
-6067.291
 30
-1977.000
 70
    32
  0
VERTEX
  8
7250LEVEL
 62
13
 10
1374.191
 20
-6067.651
 30
-1977.000
 70
    32
  0
VERTEX
  8
7250LEVEL
 62
13
 10
1374.034
 20
-6066.172
 30
-1977.000
 70
    32
  0
VERTEX
  8
7250LEVEL
 62
13
 10
1373.419
 20
-6063.745
 30
-1977.000
 70
    32
  0
VERTEX
  8
7250LEVEL
 62
13
 10
1372.910
 20
-6062.304
 30
-1977.000
 70
    32
  0
VERTEX
  8
7250LEVEL
 62
13
 10
1372.713
 20
-6060.794
 30
-1977.000
 70
    32
  0
VERTEX
  8
7250LEVEL
 62
13
 10
1373.633
 20
-6061.408
 30
-1977.000
 70
    32
  0
VERTEX
  8
7250LEVEL
 62
13
 10
1375.370
 20
-6063.004
 30
-1977.000
 70
    32
  0
VERTEX
  8
7250LEVEL
 62
13
 10
1377.154
 20
-6064.380
 30
-1977.000
 70
    32
  0
VERTEX
  8
7250LEVEL
 62
13
 10
1378.688
 20
-6064.074
 30
-1977.000
 70
    32
  0
VERTEX
  8
7250LEVEL
 62
13
 10
1379.456
 20
-6063.601
 30
-1977.000
 70
    32
  0
VERTEX
  8
7250LEVEL
 62
13
 10
1378.959
 20
-6059.595
 30
-1977.000
 70
    32
  0
VERTEX
  8
7250LEVEL
 62
13
 10
1376.824
 20
-6054.589
 30
-1977.000
 70
    32
  0
VERTEX
  8
7250LEVEL
 62
13
 10
1373.919
 20
-6050.377
 30
-1977.000
 70
    32
  0
VERTEX
  8
7250LEVEL
 62
13
 10
1370.771
 20
-6046.226
 30
-1977.000
 70
    32
  0
VERTEX
  8
7250LEVEL
 62
13
 10
1365.899
 20
-6039.589
 30
-1977.000
 70
    32
  0
VERTEX
  8
7250LEVEL
 62
13
 10
1362.246
 20
-6034.708
 30
-1977.000
 70
    32
  0
VERTEX
  8
7250LEVEL
 62
13
 10
1360.348
 20
-6029.249
 30
-1977.000
 70
    32
  0
VERTEX
  8
7250LEVEL
 62
13
 10
1360.658
 20
-6024.802
 30
-1977.000
 70
    32
  0
VERTEX
  8
7250LEVEL
 62
13
 10
1362.115
 20
-6024.113
 30
-1977.000
 70
    32
  0
VERTEX
  8
7250LEVEL
 62
13
 10
1363.245
 20
-6025.025
 30
-1977.000
 70
    32
  0
VERTEX
  8
7250LEVEL
 62
13
 10
1364.887
 20
-6026.737
 30
-1977.000
 70
    32
  0
VERTEX
  8
7250LEVEL
 62
13
 10
1367.889
 20
-6030.191
 30
-1977.000
 70
    32
  0
VERTEX
  8
7250LEVEL
 62
13
 10
1372.892
 20
-6037.384
 30
-1977.000
 70
    32
  0
VERTEX
  8
7250LEVEL
 62
13
 10
1380.540
 20
-6045.685
 30
-1977.000
 70
    32
  0
VERTEX
  8
7250LEVEL
 62
13
 10
1388.603
 20
-6055.543
 30
-1977.000
 70
    32
  0
VERTEX
  8
7250LEVEL
 62
13
 10
1396.448
 20
-6063.359
 30
-1977.000
 70
    32
  0
VERTEX
  8
7250LEVEL
 62
13
 10
1401.213
 20
-6069.652
 30
-1977.000
 70
    32
  0
VERTEX
  8
7250LEVEL
 62
13
 10
1403.980
 20
-6076.584
 30
-1977.000
 70
    32
  0
VERTEX
  8
7250LEVEL
 62
13
 10
1406.876
 20
-6082.720
 30
-1977.000
 70
    32
  0
VERTEX
  8
7250LEVEL
 62
13
 10
1409.577
 20
-6090.372
 30
-1977.000
 70
    32
  0
VERTEX
  8
7250LEVEL
 62
13
 10
1417.755
 20
-6105.985
 30
-1977.000
 70
    32
  0
VERTEX
  8
7250LEVEL
 62
13
 10
1426.687
 20
-6118.991
 30
-1977.000
 70
    32
  0
VERTEX
  8
7250LEVEL
 62
13
 10
1436.824
 20
-6135.285
 30
-1977.000
 70
    32
  0
VERTEX
  8
7250LEVEL
 62
13
 10
1445.275
 20
-6150.798
 30
-1977.000
 70
    32
  0
VERTEX
  8
7250LEVEL
 62
13
 10
1453.685
 20
-6166.921
 30
-1977.000
 70
    32
  0
VERTEX
  8
7250LEVEL
 62
13
 10
1458.537
 20
-6176.053
 30
-1977.000
 70
    32
  0
VERTEX
  8
7250LEVEL
 62
13
 10
1467.957
 20
-6191.961
 30
-1977.000
 70
    32
  0
VERTEX
  8
7250LEVEL
 62
13
 10
1478.204
 20
-6211.306
 30
-1977.000
 70
    32
  0
VERTEX
  8
7250LEVEL
 62
13
 10
1483.420
 20
-6224.850
 30
-1977.000
 70
    32
  0
VERTEX
  8
7250LEVEL
 62
13
 10
1487.260
 20
-6236.510
 30
-1977.000
 70
    32
  0
VERTEX
  8
7250LEVEL
 62
13
 10
1490.501
 20
-6245.884
 30
-1977.000
 70
    32
  0
VERTEX
  8
7250LEVEL
 62
13
 10
1493.006
 20
-6255.373
 30
-1977.000
 70
    32
  0
VERTEX
  8
7250LEVEL
 62
13
 10
1494.944
 20
-6262.536
 30
-1977.000
 70
    32
  0
VERTEX
  8
7250LEVEL
 62
13
 10
1495.125
 20
-6265.579
 30
-1977.000
 70
    32
  0
VERTEX
  8
7250LEVEL
 62
13
 10
1494.231
 20
-6266.208
 30
-1977.000
 70
    32
  0
VERTEX
  8
7250LEVEL
 62
13
 10
1493.918
 20
-6266.277
 30
-1977.000
 70
    32
  0
VERTEX
  8
7250LEVEL
 62
13
 10
1492.643
 20
-6264.668
 30
-1977.000
 70
    32
  0
VERTEX
  8
7250LEVEL
 62
13
 10
1492.059
 20
-6262.523
 30
-1977.000
 70
    32
  0
VERTEX
  8
7250LEVEL
 62
13
 10
1491.214
 20
-6259.266
 30
-1977.000
 70
    32
  0
VERTEX
  8
7250LEVEL
 62
13
 10
1489.950
 20
-6255.093
 30
-1977.000
 70
    32
  0
VERTEX
  8
7250LEVEL
 62
13
 10
1488.561
 20
-6249.402
 30
-1977.000
 70
    32
  0
VERTEX
  8
7250LEVEL
 62
13
 10
1486.942
 20
-6242.881
 30
-1977.000
 70
    32
  0
VERTEX
  8
7250LEVEL
 62
13
 10
1485.445
 20
-6238.519
 30
-1977.000
 70
    32
  0
VERTEX
  8
7250LEVEL
 62
13
 10
1482.595
 20
-6232.485
 30
-1977.000
 70
    32
  0
VERTEX
  8
7250LEVEL
 62
13
 10
1480.692
 20
-6229.661
 30
-1977.000
 70
    32
  0
VERTEX
  8
7250LEVEL
 62
13
 10
1480.114
 20
-6229.581
 30
-1977.000
 70
    32
  0
VERTEX
  8
7250LEVEL
 62
13
 10
1480.375
 20
-6232.365
 30
-1977.000
 70
    32
  0
VERTEX
  8
7250LEVEL
 62
13
 10
1481.171
 20
-6236.161
 30
-1977.000
 70
    32
  0
VERTEX
  8
7250LEVEL
 62
13
 10
1481.706
 20
-6243.866
 30
-1977.000
 70
    32
  0
VERTEX
  8
7250LEVEL
 62
13
 10
1483.498
 20
-6253.679
 30
-1977.000
 70
    32
  0
VERTEX
  8
7250LEVEL
 62
13
 10
1487.096
 20
-6265.401
 30
-1977.000
 70
    32
  0
VERTEX
  8
7250LEVEL
 62
13
 10
1490.728
 20
-6274.769
 30
-1977.000
 70
    32
  0
VERTEX
  8
7250LEVEL
 62
13
 10
1497.308
 20
-6294.113
 30
-1977.000
 70
    32
  0
VERTEX
  8
7250LEVEL
 62
13
 10
1503.163
 20
-6314.994
 30
-1977.000
 70
    32
  0
VERTEX
  8
7250LEVEL
 62
13
 10
1507.598
 20
-6328.229
 30
-1977.000
 70
    32
  0
VERTEX
  8
7250LEVEL
 62
13
 10
1515.795
 20
-6348.041
 30
-1977.000
 70
    32
  0
VERTEX
  8
7250LEVEL
 62
13
 10
1522.772
 20
-6367.770
 30
-1977.000
 70
    32
  0
VERTEX
  8
7250LEVEL
 62
13
 10
1531.717
 20
-6386.577
 30
-1977.000
 70
    32
  0
VERTEX
  8
7250LEVEL
 62
13
 10
1536.962
 20
-6398.728
 30
-1977.000
 70
    32
  0
VERTEX
  8
7250LEVEL
 62
13
 10
1539.691
 20
-6408.976
 30
-1977.000
 70
    32
  0
VERTEX
  8
7250LEVEL
 62
13
 10
1539.600
 20
-6415.145
 30
-1977.000
 70
    32
  0
VERTEX
  8
7250LEVEL
 62
13
 10
1537.878
 20
-6427.398
 30
-1977.000
 70
    32
  0
VERTEX
  8
7250LEVEL
 62
13
 10
1534.513
 20
-6438.259
 30
-1977.000
 70
    32
  0
VERTEX
  8
7250LEVEL
 62
13
 10
1528.405
 20
-6457.137
 30
-1977.000
 70
    32
  0
VERTEX
  8
7250LEVEL
 62
13
 10
1525.602
 20
-6471.605
 30
-1977.000
 70
    32
  0
VERTEX
  8
7250LEVEL
 62
13
 10
1524.711
 20
-6488.326
 30
-1977.000
 70
    32
  0
VERTEX
  8
7250LEVEL
 62
13
 10
1525.172
 20
-6500.347
 30
-1977.000
 70
    32
  0
VERTEX
  8
7250LEVEL
 62
13
 10
1525.311
 20
-6514.359
 30
-1977.000
 70
    32
  0
VERTEX
  8
7250LEVEL
 62
13
 10
1527.577
 20
-6526.614
 30
-1977.000
 70
    32
  0
VERTEX
  8
7250LEVEL
 62
13
 10
1530.470
 20
-6535.065
 30
-1977.000
 70
    32
  0
VERTEX
  8
7250LEVEL
 62
13
 10
1534.788
 20
-6543.185
 30
-1977.000
 70
    32
  0
VERTEX
  8
7250LEVEL
 62
13
 10
1544.897
 20
-6555.211
 30
-1977.000
 70
    32
  0
VERTEX
  8
7250LEVEL
 62
13
 10
1551.088
 20
-6562.527
 30
-1977.000
 70
    32
  0
VERTEX
  8
7250LEVEL
 62
13
 10
1554.947
 20
-6568.346
 30
-1977.000
 70
    32
  0
VERTEX
  8
7250LEVEL
 62
13
 10
1556.634
 20
-6570.481
 30
-1977.000
 70
    32
  0
SEQEND
  8
7250LEVEL
  0
POLYLINE
  8
7250LEVEL
 62
13
 66
     1
 70
     8
  0
VERTEX
  8
7250LEVEL
 62
13
 10
1937.464
 20
-7628.595
 30
-1977.000
 70
    32
  0
VERTEX
  8
7250LEVEL
 62
13
 10
1928.962
 20
-7610.595
 30
-1977.000
 70
    32
  0
VERTEX
  8
7250LEVEL
 62
13
 10
1925.229
 20
-7592.586
 30
-1977.000
 70
    32
  0
VERTEX
  8
7250LEVEL
 62
13
 10
1925.301
 20
-7565.165
 30
-1977.000
 70
    32
  0
VERTEX
  8
7250LEVEL
 62
13
 10
1928.921
 20
-7542.991
 30
-1977.000
 70
    32
  0
VERTEX
  8
7250LEVEL
 62
13
 10
1933.188
 20
-7519.858
 30
-1977.000
 70
    32
  0
VERTEX
  8
7250LEVEL
 62
13
 10
1936.485
 20
-7494.977
 30
-1977.000
 70
    32
  0
VERTEX
  8
7250LEVEL
 62
13
 10
1939.396
 20
-7479.180
 30
-1977.000
 70
    32
  0
VERTEX
  8
7250LEVEL
 62
13
 10
1942.244
 20
-7460.114
 30
-1977.000
 70
    32
  0
VERTEX
  8
7250LEVEL
 62
13
 10
1944.000
 20
-7448.855
 30
-1977.000
 70
    32
  0
VERTEX
  8
7250LEVEL
 62
13
 10
1944.226
 20
-7437.260
 30
-1977.000
 70
    32
  0
VERTEX
  8
7250LEVEL
 62
13
 10
1940.050
 20
-7425.458
 30
-1977.000
 70
    32
  0
VERTEX
  8
7250LEVEL
 62
13
 10
1931.819
 20
-7413.018
 30
-1977.000
 70
    32
  0
VERTEX
  8
7250LEVEL
 62
13
 10
1921.588
 20
-7401.860
 30
-1977.000
 70
    32
  0
VERTEX
  8
7250LEVEL
 62
13
 10
1916.084
 20
-7396.643
 30
-1977.000
 70
    32
  0
VERTEX
  8
7250LEVEL
 62
13
 10
1914.873
 20
-7396.309
 30
-1977.000
 70
    32
  0
VERTEX
  8
7250LEVEL
 62
13
 10
1913.412
 20
-7399.633
 30
-1977.000
 70
    32
  0
VERTEX
  8
7250LEVEL
 62
13
 10
1913.652
 20
-7405.233
 30
-1977.000
 70
    32
  0
VERTEX
  8
7250LEVEL
 62
13
 10
1915.400
 20
-7409.283
 30
-1977.000
 70
    32
  0
VERTEX
  8
7250LEVEL
 62
13
 10
1919.399
 20
-7417.082
 30
-1977.000
 70
    32
  0
VERTEX
  8
7250LEVEL
 62
13
 10
1922.635
 20
-7422.398
 30
-1977.000
 70
    32
  0
VERTEX
  8
7250LEVEL
 62
13
 10
1926.487
 20
-7428.147
 30
-1977.000
 70
    32
  0
VERTEX
  8
7250LEVEL
 62
13
 10
1927.531
 20
-7430.600
 30
-1977.000
 70
    32
  0
VERTEX
  8
7250LEVEL
 62
13
 10
1926.313
 20
-7431.869
 30
-1977.000
 70
    32
  0
VERTEX
  8
7250LEVEL
 62
13
 10
1922.369
 20
-7429.262
 30
-1977.000
 70
    32
  0
VERTEX
  8
7250LEVEL
 62
13
 10
1915.528
 20
-7422.193
 30
-1977.000
 70
    32
  0
VERTEX
  8
7250LEVEL
 62
13
 10
1900.181
 20
-7401.433
 30
-1977.000
 70
    32
  0
VERTEX
  8
7250LEVEL
 62
13
 10
1885.135
 20
-7376.476
 30
-1977.000
 70
    32
  0
VERTEX
  8
7250LEVEL
 62
13
 10
1881.296
 20
-7361.148
 30
-1977.000
 70
    32
  0
VERTEX
  8
7250LEVEL
 62
13
 10
1877.356
 20
-7345.546
 30
-1977.000
 70
    32
  0
VERTEX
  8
7250LEVEL
 62
13
 10
1875.239
 20
-7338.366
 30
-1977.000
 70
    32
  0
VERTEX
  8
7250LEVEL
 62
13
 10
1871.752
 20
-7326.348
 30
-1977.000
 70
    32
  0
VERTEX
  8
7250LEVEL
 62
13
 10
1870.240
 20
-7311.805
 30
-1977.000
 70
    32
  0
VERTEX
  8
7250LEVEL
 62
13
 10
1868.639
 20
-7301.117
 30
-1977.000
 70
    32
  0
VERTEX
  8
7250LEVEL
 62
13
 10
1866.752
 20
-7286.400
 30
-1977.000
 70
    32
  0
VERTEX
  8
7250LEVEL
 62
13
 10
1863.444
 20
-7274.719
 30
-1977.000
 70
    32
  0
VERTEX
  8
7250LEVEL
 62
13
 10
1860.651
 20
-7264.869
 30
-1977.000
 70
    32
  0
VERTEX
  8
7250LEVEL
 62
13
 10
1858.216
 20
-7252.027
 30
-1977.000
 70
    32
  0
VERTEX
  8
7250LEVEL
 62
13
 10
1855.815
 20
-7236.831
 30
-1977.000
 70
    32
  0
VERTEX
  8
7250LEVEL
 62
13
 10
1853.622
 20
-7223.927
 30
-1977.000
 70
    32
  0
VERTEX
  8
7250LEVEL
 62
13
 10
1848.657
 20
-7205.373
 30
-1977.000
 70
    32
  0
VERTEX
  8
7250LEVEL
 62
13
 10
1845.009
 20
-7190.844
 30
-1977.000
 70
    32
  0
VERTEX
  8
7250LEVEL
 62
13
 10
1839.428
 20
-7175.203
 30
-1977.000
 70
    32
  0
VERTEX
  8
7250LEVEL
 62
13
 10
1834.007
 20
-7160.400
 30
-1977.000
 70
    32
  0
VERTEX
  8
7250LEVEL
 62
13
 10
1829.418
 20
-7145.046
 30
-1977.000
 70
    32
  0
VERTEX
  8
7250LEVEL
 62
13
 10
1823.924
 20
-7132.564
 30
-1977.000
 70
    32
  0
VERTEX
  8
7250LEVEL
 62
13
 10
1816.437
 20
-7119.761
 30
-1977.000
 70
    32
  0
VERTEX
  8
7250LEVEL
 62
13
 10
1810.113
 20
-7110.857
 30
-1977.000
 70
    32
  0
VERTEX
  8
7250LEVEL
 62
13
 10
1805.202
 20
-7102.515
 30
-1977.000
 70
    32
  0
VERTEX
  8
7250LEVEL
 62
13
 10
1801.743
 20
-7098.113
 30
-1977.000
 70
    32
  0
VERTEX
  8
7250LEVEL
 62
13
 10
1799.908
 20
-7095.923
 30
-1977.000
 70
    32
  0
VERTEX
  8
7250LEVEL
 62
13
 10
1798.606
 20
-7095.064
 30
-1977.000
 70
    32
  0
VERTEX
  8
7250LEVEL
 62
13
 10
1797.834
 20
-7096.179
 30
-1977.000
 70
    32
  0
VERTEX
  8
7250LEVEL
 62
13
 10
1798.578
 20
-7099.482
 30
-1977.000
 70
    32
  0
VERTEX
  8
7250LEVEL
 62
13
 10
1800.900
 20
-7106.249
 30
-1977.000
 70
    32
  0
VERTEX
  8
7250LEVEL
 62
13
 10
1802.393
 20
-7111.572
 30
-1977.000
 70
    32
  0
VERTEX
  8
7250LEVEL
 62
13
 10
1805.100
 20
-7119.615
 30
-1977.000
 70
    32
  0
VERTEX
  8
7250LEVEL
 62
13
 10
1806.504
 20
-7123.774
 30
-1977.000
 70
    32
  0
VERTEX
  8
7250LEVEL
 62
13
 10
1807.550
 20
-7130.925
 30
-1977.000
 70
    32
  0
VERTEX
  8
7250LEVEL
 62
13
 10
1806.748
 20
-7137.099
 30
-1977.000
 70
    32
  0
VERTEX
  8
7250LEVEL
 62
13
 10
1807.395
 20
-7145.859
 30
-1977.000
 70
    32
  0
VERTEX
  8
7250LEVEL
 62
13
 10
1809.713
 20
-7151.914
 30
-1977.000
 70
    32
  0
VERTEX
  8
7250LEVEL
 62
13
 10
1813.682
 20
-7159.431
 30
-1977.000
 70
    32
  0
VERTEX
  8
7250LEVEL
 62
13
 10
1818.313
 20
-7167.482
 30
-1977.000
 70
    32
  0
VERTEX
  8
7250LEVEL
 62
13
 10
1820.340
 20
-7170.471
 30
-1977.000
 70
    32
  0
VERTEX
  8
7250LEVEL
 62
13
 10
1821.670
 20
-7175.278
 30
-1977.000
 70
    32
  0
VERTEX
  8
7250LEVEL
 62
13
 10
1821.847
 20
-7175.936
 30
-1977.000
 70
    32
  0
VERTEX
  8
7250LEVEL
 62
13
 10
1821.345
 20
-7176.238
 30
-1977.000
 70
    32
  0
VERTEX
  8
7250LEVEL
 62
13
 10
1818.417
 20
-7173.809
 30
-1977.000
 70
    32
  0
VERTEX
  8
7250LEVEL
 62
13
 10
1815.336
 20
-7170.291
 30
-1977.000
 70
    32
  0
VERTEX
  8
7250LEVEL
 62
13
 10
1806.960
 20
-7155.482
 30
-1977.000
 70
    32
  0
VERTEX
  8
7250LEVEL
 62
13
 10
1804.684
 20
-7148.818
 30
-1977.000
 70
    32
  0
VERTEX
  8
7250LEVEL
 62
13
 10
1803.803
 20
-7141.542
 30
-1977.000
 70
    32
  0
VERTEX
  8
7250LEVEL
 62
13
 10
1803.787
 20
-7136.381
 30
-1977.000
 70
    32
  0
VERTEX
  8
7250LEVEL
 62
13
 10
1803.087
 20
-7130.475
 30
-1977.000
 70
    32
  0
VERTEX
  8
7250LEVEL
 62
13
 10
1800.350
 20
-7123.823
 30
-1977.000
 70
    32
  0
VERTEX
  8
7250LEVEL
 62
13
 10
1795.928
 20
-7109.377
 30
-1977.000
 70
    32
  0
VERTEX
  8
7250LEVEL
 62
13
 10
1788.833
 20
-7096.568
 30
-1977.000
 70
    32
  0
VERTEX
  8
7250LEVEL
 62
13
 10
1779.290
 20
-7083.841
 30
-1977.000
 70
    32
  0
VERTEX
  8
7250LEVEL
 62
13
 10
1771.596
 20
-7073.445
 30
-1977.000
 70
    32
  0
VERTEX
  8
7250LEVEL
 62
13
 10
1759.788
 20
-7060.176
 30
-1977.000
 70
    32
  0
VERTEX
  8
7250LEVEL
 62
13
 10
1745.915
 20
-7041.894
 30
-1977.000
 70
    32
  0
VERTEX
  8
7250LEVEL
 62
13
 10
1733.601
 20
-7022.876
 30
-1977.000
 70
    32
  0
VERTEX
  8
7250LEVEL
 62
13
 10
1723.556
 20
-7003.758
 30
-1977.000
 70
    32
  0
VERTEX
  8
7250LEVEL
 62
13
 10
1715.843
 20
-6987.490
 30
-1977.000
 70
    32
  0
VERTEX
  8
7250LEVEL
 62
13
 10
1708.169
 20
-6971.254
 30
-1977.000
 70
    32
  0
VERTEX
  8
7250LEVEL
 62
13
 10
1704.380
 20
-6960.407
 30
-1977.000
 70
    32
  0
VERTEX
  8
7250LEVEL
 62
13
 10
1700.060
 20
-6952.607
 30
-1977.000
 70
    32
  0
VERTEX
  8
7250LEVEL
 62
13
 10
1697.954
 20
-6948.203
 30
-1977.000
 70
    32
  0
VERTEX
  8
7250LEVEL
 62
13
 10
1696.388
 20
-6943.527
 30
-1977.000
 70
    32
  0
SEQEND
  8
7250LEVEL
  0
POLYLINE
  8
7250LEVEL
 62
3
 66
     1
 70
     8
  0
VERTEX
  8
7250LEVEL
 62
3
 10
1696.388
 20
-6943.527
 30
-1977.000
 70
    32
  0
VERTEX
  8
7250LEVEL
 62
3
 10
1683.215
 20
-6927.805
 30
-1977.000
 70
    32
  0
VERTEX
  8
7250LEVEL
 62
3
 10
1678.493
 20
-6922.576
 30
-1977.000
 70
    32
  0
VERTEX
  8
7250LEVEL
 62
3
 10
1667.474
 20
-6909.365
 30
-1977.000
 70
    32
  0
VERTEX
  8
7250LEVEL
 62
3
 10
1658.868
 20
-6898.426
 30
-1977.000
 70
    32
  0
VERTEX
  8
7250LEVEL
 62
3
 10
1650.239
 20
-6882.576
 30
-1977.000
 70
    32
  0
VERTEX
  8
7250LEVEL
 62
3
 10
1644.756
 20
-6869.203
 30
-1977.000
 70
    32
  0
VERTEX
  8
7250LEVEL
 62
3
 10
1636.495
 20
-6851.463
 30
-1977.000
 70
    32
  0
VERTEX
  8
7250LEVEL
 62
3
 10
1633.639
 20
-6841.691
 30
-1977.000
 70
    32
  0
VERTEX
  8
7250LEVEL
 62
3
 10
1628.238
 20
-6826.067
 30
-1977.000
 70
    32
  0
VERTEX
  8
7250LEVEL
 62
3
 10
1621.585
 20
-6810.398
 30
-1977.000
 70
    32
  0
VERTEX
  8
7250LEVEL
 62
3
 10
1618.390
 20
-6792.759
 30
-1977.000
 70
    32
  0
VERTEX
  8
7250LEVEL
 62
3
 10
1617.119
 20
-6773.455
 30
-1977.000
 70
    32
  0
VERTEX
  8
7250LEVEL
 62
3
 10
1617.996
 20
-6766.313
 30
-1977.000
 70
    32
  0
VERTEX
  8
7250LEVEL
 62
3
 10
1620.578
 20
-6757.458
 30
-1977.000
 70
    32
  0
VERTEX
  8
7250LEVEL
 62
3
 10
1624.841
 20
-6747.000
 30
-1977.000
 70
    32
  0
VERTEX
  8
7250LEVEL
 62
3
 10
1626.588
 20
-6734.317
 30
-1977.000
 70
    32
  0
VERTEX
  8
7250LEVEL
 62
3
 10
1624.406
 20
-6724.189
 30
-1977.000
 70
    32
  0
VERTEX
  8
7250LEVEL
 62
3
 10
1616.659
 20
-6706.928
 30
-1977.000
 70
    32
  0
VERTEX
  8
7250LEVEL
 62
3
 10
1604.708
 20
-6688.975
 30
-1977.000
 70
    32
  0
VERTEX
  8
7250LEVEL
 62
3
 10
1592.760
 20
-6672.054
 30
-1977.000
 70
    32
  0
VERTEX
  8
7250LEVEL
 62
3
 10
1585.098
 20
-6661.619
 30
-1977.000
 70
    32
  0
VERTEX
  8
7250LEVEL
 62
3
 10
1577.496
 20
-6648.401
 30
-1977.000
 70
    32
  0
VERTEX
  8
7250LEVEL
 62
3
 10
1576.217
 20
-6646.081
 30
-1977.000
 70
    32
  0
VERTEX
  8
7250LEVEL
 62
3
 10
1574.988
 20
-6639.554
 30
-1977.000
 70
    32
  0
VERTEX
  8
7250LEVEL
 62
3
 10
1571.946
 20
-6627.702
 30
-1977.000
 70
    32
  0
VERTEX
  8
7250LEVEL
 62
3
 10
1570.224
 20
-6617.881
 30
-1977.000
 70
    32
  0
VERTEX
  8
7250LEVEL
 62
3
 10
1567.351
 20
-6608.609
 30
-1977.000
 70
    32
  0
VERTEX
  8
7250LEVEL
 62
3
 10
1566.938
 20
-6606.410
 30
-1977.000
 70
    32
  0
VERTEX
  8
7250LEVEL
 62
3
 10
1562.227
 20
-6586.903
 30
-1977.000
 70
    32
  0
VERTEX
  8
7250LEVEL
 62
3
 10
1559.186
 20
-6578.398
 30
-1977.000
 70
    32
  0
VERTEX
  8
7250LEVEL
 62
3
 10
1557.990
 20
-6573.185
 30
-1977.000
 70
    32
  0
VERTEX
  8
7250LEVEL
 62
3
 10
1556.634
 20
-6570.481
 30
-1977.000
 70
    32
  0
SEQEND
  8
7250LEVEL
  0
POLYLINE
  8
7250LEVEL
 62
5
 66
     1
 70
     9
  0
VERTEX
  8
7250LEVEL
 62
5
 10
2007.765
 20
-7547.522
 30
-1977.000
 70
    32
  0
VERTEX
  8
7250LEVEL
 62
5
 10
2011.891
 20
-7537.790
 30
-1977.000
 70
    32
  0
VERTEX
  8
7250LEVEL
 62
5
 10
2023.157
 20
-7522.884
 30
-1977.000
 70
    32
  0
VERTEX
  8
7250LEVEL
 62
5
 10
2031.232
 20
-7516.470
 30
-1977.000
 70
    32
  0
VERTEX
  8
7250LEVEL
 62
5
 10
2044.058
 20
-7510.868
 30
-1977.000
 70
    32
  0
VERTEX
  8
7250LEVEL
 62
5
 10
2054.694
 20
-7508.775
 30
-1977.000
 70
    32
  0
VERTEX
  8
7250LEVEL
 62
5
 10
2068.200
 20
-7504.880
 30
-1977.000
 70
    32
  0
VERTEX
  8
7250LEVEL
 62
5
 10
2079.836
 20
-7504.496
 30
-1977.000
 70
    32
  0
VERTEX
  8
7250LEVEL
 62
5
 10
2089.250
 20
-7502.960
 30
-1977.000
 70
    32
  0
VERTEX
  8
7250LEVEL
 62
5
 10
2096.332
 20
-7501.601
 30
-1977.000
 70
    32
  0
VERTEX
  8
7250LEVEL
 62
5
 10
2100.340
 20
-7500.783
 30
-1977.000
 70
    32
  0
VERTEX
  8
7250LEVEL
 62
5
 10
2103.226
 20
-7500.475
 30
-1977.000
 70
    32
  0
VERTEX
  8
7250LEVEL
 62
5
 10
2103.857
 20
-7501.049
 30
-1977.000
 70
    32
  0
VERTEX
  8
7250LEVEL
 62
5
 10
2102.768
 20
-7503.194
 30
-1977.000
 70
    32
  0
VERTEX
  8
7250LEVEL
 62
5
 10
2092.726
 20
-7513.876
 30
-1977.000
 70
    32
  0
VERTEX
  8
7250LEVEL
 62
5
 10
2086.132
 20
-7519.491
 30
-1977.000
 70
    32
  0
VERTEX
  8
7250LEVEL
 62
5
 10
2069.818
 20
-7530.449
 30
-1977.000
 70
    32
  0
VERTEX
  8
7250LEVEL
 62
5
 10
2049.648
 20
-7543.312
 30
-1977.000
 70
    32
  0
VERTEX
  8
7250LEVEL
 62
5
 10
2037.925
 20
-7552.250
 30
-1977.000
 70
    32
  0
VERTEX
  8
7250LEVEL
 62
5
 10
2021.414
 20
-7565.045
 30
-1977.000
 70
    32
  0
VERTEX
  8
7250LEVEL
 62
5
 10
2012.383
 20
-7573.518
 30
-1977.000
 70
    32
  0
VERTEX
  8
7250LEVEL
 62
5
 10
2008.298
 20
-7577.620
 30
-1977.000
 70
    32
  0
VERTEX
  8
7250LEVEL
 62
5
 10
2004.697
 20
-7580.246
 30
-1977.000
 70
    32
  0
VERTEX
  8
7250LEVEL
 62
5
 10
2003.395
 20
-7579.388
 30
-1977.000
 70
    32
  0
VERTEX
  8
7250LEVEL
 62
5
 10
2003.235
 20
-7575.204
 30
-1977.000
 70
    32
  0
VERTEX
  8
7250LEVEL
 62
5
 10
2004.270
 20
-7569.540
 30
-1977.000
 70
    32
  0
VERTEX
  8
7250LEVEL
 62
5
 10
2005.100
 20
-7560.622
 30
-1977.000
 70
    32
  0
VERTEX
  8
7250LEVEL
 62
5
 10
2006.668
 20
-7554.616
 30
-1977.000
 70
    32
  0
VERTEX
  8
7250LEVEL
 62
5
 10
2007.714
 20
-7550.055
 30
-1977.000
 70
    32
  0
SEQEND
  8
7250LEVEL
  0
POLYLINE
  8
7250LEVEL
 62
5
 66
     1
 70
     9
  0
VERTEX
  8
7250LEVEL
 62
5
 10
2063.224
 20
-7317.002
 30
-1977.000
 70
    32
  0
VERTEX
  8
7250LEVEL
 62
5
 10
2068.918
 20
-7314.972
 30
-1977.000
 70
    32
  0
VERTEX
  8
7250LEVEL
 62
5
 10
2076.117
 20
-7313.707
 30
-1977.000
 70
    32
  0
VERTEX
  8
7250LEVEL
 62
5
 10
2081.074
 20
-7312.112
 30
-1977.000
 70
    32
  0
VERTEX
  8
7250LEVEL
 62
5
 10
2084.831
 20
-7311.284
 30
-1977.000
 70
    32
  0
VERTEX
  8
7250LEVEL
 62
5
 10
2086.247
 20
-7311.205
 30
-1977.000
 70
    32
  0
VERTEX
  8
7250LEVEL
 62
5
 10
2087.012
 20
-7311.373
 30
-1977.000
 70
    32
  0
VERTEX
  8
7250LEVEL
 62
5
 10
2087.266
 20
-7312.414
 30
-1977.000
 70
    32
  0
VERTEX
  8
7250LEVEL
 62
5
 10
2085.960
 20
-7315.864
 30
-1977.000
 70
    32
  0
VERTEX
  8
7250LEVEL
 62
5
 10
2081.876
 20
-7319.645
 30
-1977.000
 70
    32
  0
VERTEX
  8
7250LEVEL
 62
5
 10
2076.193
 20
-7324.451
 30
-1977.000
 70
    32
  0
VERTEX
  8
7250LEVEL
 62
5
 10
2069.424
 20
-7329.088
 30
-1977.000
 70
    32
  0
VERTEX
  8
7250LEVEL
 62
5
 10
2062.117
 20
-7333.355
 30
-1977.000
 70
    32
  0
VERTEX
  8
7250LEVEL
 62
5
 10
2055.596
 20
-7336.648
 30
-1977.000
 70
    32
  0
VERTEX
  8
7250LEVEL
 62
5
 10
2051.084
 20
-7340.083
 30
-1977.000
 70
    32
  0
VERTEX
  8
7250LEVEL
 62
5
 10
2047.191
 20
-7341.637
 30
-1977.000
 70
    32
  0
VERTEX
  8
7250LEVEL
 62
5
 10
2044.494
 20
-7341.390
 30
-1977.000
 70
    32
  0
VERTEX
  8
7250LEVEL
 62
5
 10
2043.973
 20
-7339.167
 30
-1977.000
 70
    32
  0
VERTEX
  8
7250LEVEL
 62
5
 10
2044.443
 20
-7333.883
 30
-1977.000
 70
    32
  0
VERTEX
  8
7250LEVEL
 62
5
 10
2045.283
 20
-7328.062
 30
-1977.000
 70
    32
  0
VERTEX
  8
7250LEVEL
 62
5
 10
2046.384
 20
-7325.025
 30
-1977.000
 70
    32
  0
VERTEX
  8
7250LEVEL
 62
5
 10
2049.573
 20
-7321.873
 30
-1977.000
 70
    32
  0
VERTEX
  8
7250LEVEL
 62
5
 10
2054.257
 20
-7320.057
 30
-1977.000
 70
    32
  0
VERTEX
  8
7250LEVEL
 62
5
 10
2057.469
 20
-7318.790
 30
-1977.000
 70
    32
  0
VERTEX
  8
7250LEVEL
 62
5
 10
2059.809
 20
-7318.363
 30
-1977.000
 70
    32
  0
SEQEND
  8
7250LEVEL
  0
POLYLINE
  8
7250LEVEL
 62
5
 66
     1
 70
     9
  0
VERTEX
  8
7250LEVEL
 62
5
 10
2219.598
 20
-7218.755
 30
-1977.000
 70
    32
  0
VERTEX
  8
7250LEVEL
 62
5
 10
2214.414
 20
-7220.553
 30
-1977.000
 70
    32
  0
VERTEX
  8
7250LEVEL
 62
5
 10
2207.460
 20
-7224.462
 30
-1977.000
 70
    32
  0
VERTEX
  8
7250LEVEL
 62
5
 10
2200.713
 20
-7229.310
 30
-1977.000
 70
    32
  0
VERTEX
  8
7250LEVEL
 62
5
 10
2196.256
 20
-7234.591
 30
-1977.000
 70
    32
  0
VERTEX
  8
7250LEVEL
 62
5
 10
2192.674
 20
-7239.743
 30
-1977.000
 70
    32
  0
VERTEX
  8
7250LEVEL
 62
5
 10
2191.542
 20
-7241.145
 30
-1977.000
 70
    32
  0
VERTEX
  8
7250LEVEL
 62
5
 10
2188.083
 20
-7245.109
 30
-1977.000
 70
    32
  0
VERTEX
  8
7250LEVEL
 62
5
 10
2182.027
 20
-7251.094
 30
-1977.000
 70
    32
  0
VERTEX
  8
7250LEVEL
 62
5
 10
2177.737
 20
-7255.610
 30
-1977.000
 70
    32
  0
VERTEX
  8
7250LEVEL
 62
5
 10
2170.484
 20
-7261.722
 30
-1977.000
 70
    32
  0
VERTEX
  8
7250LEVEL
 62
5
 10
2166.032
 20
-7264.047
 30
-1977.000
 70
    32
  0
VERTEX
  8
7250LEVEL
 62
5
 10
2157.367
 20
-7267.604
 30
-1977.000
 70
    32
  0
VERTEX
  8
7250LEVEL
 62
5
 10
2150.438
 20
-7269.731
 30
-1977.000
 70
    32
  0
VERTEX
  8
7250LEVEL
 62
5
 10
2144.479
 20
-7271.611
 30
-1977.000
 70
    32
  0
VERTEX
  8
7250LEVEL
 62
5
 10
2141.544
 20
-7272.137
 30
-1977.000
 70
    32
  0
VERTEX
  8
7250LEVEL
 62
5
 10
2140.455
 20
-7270.936
 30
-1977.000
 70
    32
  0
VERTEX
  8
7250LEVEL
 62
5
 10
2142.174
 20
-7266.017
 30
-1977.000
 70
    32
  0
VERTEX
  8
7250LEVEL
 62
5
 10
2146.177
 20
-7259.468
 30
-1977.000
 70
    32
  0
VERTEX
  8
7250LEVEL
 62
5
 10
2149.526
 20
-7255.480
 30
-1977.000
 70
    32
  0
VERTEX
  8
7250LEVEL
 62
5
 10
2154.255
 20
-7254.086
 30
-1977.000
 70
    32
  0
VERTEX
  8
7250LEVEL
 62
5
 10
2159.685
 20
-7253.259
 30
-1977.000
 70
    32
  0
VERTEX
  8
7250LEVEL
 62
5
 10
2163.645
 20
-7252.660
 30
-1977.000
 70
    32
  0
VERTEX
  8
7250LEVEL
 62
5
 10
2172.833
 20
-7249.011
 30
-1977.000
 70
    32
  0
VERTEX
  8
7250LEVEL
 62
5
 10
2179.929
 20
-7243.094
 30
-1977.000
 70
    32
  0
VERTEX
  8
7250LEVEL
 62
5
 10
2182.986
 20
-7238.033
 30
-1977.000
 70
    32
  0
VERTEX
  8
7250LEVEL
 62
5
 10
2185.744
 20
-7228.483
 30
-1977.000
 70
    32
  0
VERTEX
  8
7250LEVEL
 62
5
 10
2189.021
 20
-7223.150
 30
-1977.000
 70
    32
  0
VERTEX
  8
7250LEVEL
 62
5
 10
2196.892
 20
-7215.156
 30
-1977.000
 70
    32
  0
VERTEX
  8
7250LEVEL
 62
5
 10
2203.296
 20
-7211.768
 30
-1977.000
 70
    32
  0
VERTEX
  8
7250LEVEL
 62
5
 10
2209.732
 20
-7210.015
 30
-1977.000
 70
    32
  0
VERTEX
  8
7250LEVEL
 62
5
 10
2215.375
 20
-7210.518
 30
-1977.000
 70
    32
  0
VERTEX
  8
7250LEVEL
 62
5
 10
2219.512
 20
-7210.256
 30
-1977.000
 70
    32
  0
VERTEX
  8
7250LEVEL
 62
5
 10
2221.680
 20
-7209.882
 30
-1977.000
 70
    32
  0
SEQEND
  8
7250LEVEL
  0
ENDSEC
  0
EOF
