999
********************************
999
*   DXF File - Entities Only   *
999
*        3D Data Format        *
999
*     Output from ENVISAGE     *
999
*     28-Dec-2007 14:16:00     *
999
********************************
  0
SECTION 
  2
HEADER
  9
$ACADVER
  1
AC1009
  9
$EXTMIN
 10
-290000.000
 20
-250000.000
 30
-4000.000
  9
$EXTMAX
 10
5000000.000
 20
600000.000
 30
6000.000
  0
ENDSEC
  0
SECTION
  2
ENTITIES
  0
POLYLINE
  8
7550LEVEL
 62
13
 66
     1
 70
     8
  0
VERTEX
  8
7550LEVEL
 62
13
 10
2000.251
 20
-7414.482
 30
-2273.000
 70
    32
  0
VERTEX
  8
7550LEVEL
 62
13
 10
1997.292
 20
-7407.006
 30
-2273.000
 70
    32
  0
VERTEX
  8
7550LEVEL
 62
13
 10
1994.351
 20
-7399.889
 30
-2273.000
 70
    32
  0
VERTEX
  8
7550LEVEL
 62
13
 10
1992.365
 20
-7395.971
 30
-2273.000
 70
    32
  0
VERTEX
  8
7550LEVEL
 62
13
 10
1991.215
 20
-7394.593
 30
-2273.000
 70
    32
  0
VERTEX
  8
7550LEVEL
 62
13
 10
1989.753
 20
-7394.379
 30
-2273.000
 70
    32
  0
VERTEX
  8
7550LEVEL
 62
13
 10
1988.813
 20
-7395.451
 30
-2273.000
 70
    32
  0
VERTEX
  8
7550LEVEL
 62
13
 10
1989.045
 20
-7400.179
 30
-2273.000
 70
    32
  0
VERTEX
  8
7550LEVEL
 62
13
 10
1990.351
 20
-7405.349
 30
-2273.000
 70
    32
  0
VERTEX
  8
7550LEVEL
 62
13
 10
1993.998
 20
-7418.082
 30
-2273.000
 70
    32
  0
VERTEX
  8
7550LEVEL
 62
13
 10
1994.980
 20
-7421.818
 30
-2273.000
 70
    32
  0
VERTEX
  8
7550LEVEL
 62
13
 10
1995.462
 20
-7423.383
 30
-2273.000
 70
    32
  0
SEQEND
  8
7550LEVEL
  0
POLYLINE
  8
7550LEVEL
 62
13
 66
     1
 70
     8
  0
VERTEX
  8
7550LEVEL
 62
13
 10
2101.919
 20
-7451.711
 30
-2273.000
 70
    32
  0
VERTEX
  8
7550LEVEL
 62
13
 10
2092.502
 20
-7432.478
 30
-2273.000
 70
    32
  0
VERTEX
  8
7550LEVEL
 62
13
 10
2087.551
 20
-7422.577
 30
-2273.000
 70
    32
  0
VERTEX
  8
7550LEVEL
 62
13
 10
2077.392
 20
-7405.013
 30
-2273.000
 70
    32
  0
VERTEX
  8
7550LEVEL
 62
13
 10
2073.402
 20
-7393.403
 30
-2273.000
 70
    32
  0
VERTEX
  8
7550LEVEL
 62
13
 10
2067.680
 20
-7379.299
 30
-2273.000
 70
    32
  0
VERTEX
  8
7550LEVEL
 62
13
 10
2064.296
 20
-7368.170
 30
-2273.000
 70
    32
  0
VERTEX
  8
7550LEVEL
 62
13
 10
2056.137
 20
-7347.876
 30
-2273.000
 70
    32
  0
VERTEX
  8
7550LEVEL
 62
13
 10
2052.876
 20
-7338.329
 30
-2273.000
 70
    32
  0
VERTEX
  8
7550LEVEL
 62
13
 10
2045.978
 20
-7324.729
 30
-2273.000
 70
    32
  0
VERTEX
  8
7550LEVEL
 62
13
 10
2037.794
 20
-7314.070
 30
-2273.000
 70
    32
  0
VERTEX
  8
7550LEVEL
 62
13
 10
2030.134
 20
-7307.613
 30
-2273.000
 70
    32
  0
VERTEX
  8
7550LEVEL
 62
13
 10
2026.398
 20
-7305.678
 30
-2273.000
 70
    32
  0
VERTEX
  8
7550LEVEL
 62
13
 10
2019.139
 20
-7303.761
 30
-2273.000
 70
    32
  0
VERTEX
  8
7550LEVEL
 62
13
 10
2014.742
 20
-7303.188
 30
-2273.000
 70
    32
  0
VERTEX
  8
7550LEVEL
 62
13
 10
2010.528
 20
-7298.694
 30
-2273.000
 70
    32
  0
VERTEX
  8
7550LEVEL
 62
13
 10
2008.336
 20
-7293.750
 30
-2273.000
 70
    32
  0
VERTEX
  8
7550LEVEL
 62
13
 10
2007.994
 20
-7283.706
 30
-2273.000
 70
    32
  0
VERTEX
  8
7550LEVEL
 62
13
 10
2008.221
 20
-7278.511
 30
-2273.000
 70
    32
  0
VERTEX
  8
7550LEVEL
 62
13
 10
2006.954
 20
-7265.309
 30
-2273.000
 70
    32
  0
VERTEX
  8
7550LEVEL
 62
13
 10
2005.323
 20
-7256.534
 30
-2273.000
 70
    32
  0
VERTEX
  8
7550LEVEL
 62
13
 10
2002.883
 20
-7248.673
 30
-2273.000
 70
    32
  0
VERTEX
  8
7550LEVEL
 62
13
 10
2002.135
 20
-7243.584
 30
-2273.000
 70
    32
  0
VERTEX
  8
7550LEVEL
 62
13
 10
2002.395
 20
-7243.266
 30
-2273.000
 70
    32
  0
VERTEX
  8
7550LEVEL
 62
13
 10
2005.574
 20
-7242.203
 30
-2273.000
 70
    32
  0
VERTEX
  8
7550LEVEL
 62
13
 10
2006.090
 20
-7239.647
 30
-2273.000
 70
    32
  0
VERTEX
  8
7550LEVEL
 62
13
 10
2006.385
 20
-7226.709
 30
-2273.000
 70
    32
  0
VERTEX
  8
7550LEVEL
 62
13
 10
2007.351
 20
-7218.421
 30
-2273.000
 70
    32
  0
VERTEX
  8
7550LEVEL
 62
13
 10
2008.492
 20
-7202.620
 30
-2273.000
 70
    32
  0
VERTEX
  8
7550LEVEL
 62
13
 10
2006.911
 20
-7190.830
 30
-2273.000
 70
    32
  0
VERTEX
  8
7550LEVEL
 62
13
 10
2003.807
 20
-7173.908
 30
-2273.000
 70
    32
  0
VERTEX
  8
7550LEVEL
 62
13
 10
2001.687
 20
-7162.644
 30
-2273.000
 70
    32
  0
VERTEX
  8
7550LEVEL
 62
13
 10
1999.583
 20
-7147.149
 30
-2273.000
 70
    32
  0
VERTEX
  8
7550LEVEL
 62
13
 10
1999.439
 20
-7137.205
 30
-2273.000
 70
    32
  0
VERTEX
  8
7550LEVEL
 62
13
 10
2002.074
 20
-7124.077
 30
-2273.000
 70
    32
  0
VERTEX
  8
7550LEVEL
 62
13
 10
2004.612
 20
-7115.486
 30
-2273.000
 70
    32
  0
VERTEX
  8
7550LEVEL
 62
13
 10
2010.744
 20
-7101.305
 30
-2273.000
 70
    32
  0
VERTEX
  8
7550LEVEL
 62
13
 10
2014.288
 20
-7095.565
 30
-2273.000
 70
    32
  0
VERTEX
  8
7550LEVEL
 62
13
 10
2017.895
 20
-7086.242
 30
-2273.000
 70
    32
  0
VERTEX
  8
7550LEVEL
 62
13
 10
2016.975
 20
-7076.256
 30
-2273.000
 70
    32
  0
VERTEX
  8
7550LEVEL
 62
13
 10
2012.240
 20
-7067.062
 30
-2273.000
 70
    32
  0
VERTEX
  8
7550LEVEL
 62
13
 10
2006.256
 20
-7056.440
 30
-2273.000
 70
    32
  0
VERTEX
  8
7550LEVEL
 62
13
 10
2000.673
 20
-7047.941
 30
-2273.000
 70
    32
  0
VERTEX
  8
7550LEVEL
 62
13
 10
1994.794
 20
-7038.544
 30
-2273.000
 70
    32
  0
VERTEX
  8
7550LEVEL
 62
13
 10
1986.744
 20
-7026.979
 30
-2273.000
 70
    32
  0
VERTEX
  8
7550LEVEL
 62
13
 10
1977.283
 20
-7014.604
 30
-2273.000
 70
    32
  0
VERTEX
  8
7550LEVEL
 62
13
 10
1965.506
 20
-7003.952
 30
-2273.000
 70
    32
  0
VERTEX
  8
7550LEVEL
 62
13
 10
1955.703
 20
-6995.367
 30
-2273.000
 70
    32
  0
VERTEX
  8
7550LEVEL
 62
13
 10
1942.408
 20
-6980.758
 30
-2273.000
 70
    32
  0
VERTEX
  8
7550LEVEL
 62
13
 10
1932.248
 20
-6960.776
 30
-2273.000
 70
    32
  0
VERTEX
  8
7550LEVEL
 62
13
 10
1924.583
 20
-6944.396
 30
-2273.000
 70
    32
  0
VERTEX
  8
7550LEVEL
 62
13
 10
1911.238
 20
-6915.803
 30
-2273.000
 70
    32
  0
VERTEX
  8
7550LEVEL
 62
13
 10
1904.239
 20
-6899.733
 30
-2273.000
 70
    32
  0
VERTEX
  8
7550LEVEL
 62
13
 10
1890.641
 20
-6872.383
 30
-2273.000
 70
    32
  0
VERTEX
  8
7550LEVEL
 62
13
 10
1874.848
 20
-6846.419
 30
-2273.000
 70
    32
  0
VERTEX
  8
7550LEVEL
 62
13
 10
1866.566
 20
-6832.794
 30
-2273.000
 70
    32
  0
VERTEX
  8
7550LEVEL
 62
13
 10
1856.078
 20
-6815.289
 30
-2273.000
 70
    32
  0
VERTEX
  8
7550LEVEL
 62
13
 10
1846.843
 20
-6803.800
 30
-2273.000
 70
    32
  0
VERTEX
  8
7550LEVEL
 62
13
 10
1833.205
 20
-6790.314
 30
-2273.000
 70
    32
  0
VERTEX
  8
7550LEVEL
 62
13
 10
1823.661
 20
-6781.661
 30
-2273.000
 70
    32
  0
VERTEX
  8
7550LEVEL
 62
13
 10
1808.394
 20
-6767.403
 30
-2273.000
 70
    32
  0
VERTEX
  8
7550LEVEL
 62
13
 10
1802.340
 20
-6759.937
 30
-2273.000
 70
    32
  0
VERTEX
  8
7550LEVEL
 62
13
 10
1793.602
 20
-6748.450
 30
-2273.000
 70
    32
  0
VERTEX
  8
7550LEVEL
 62
13
 10
1789.810
 20
-6742.773
 30
-2273.000
 70
    32
  0
VERTEX
  8
7550LEVEL
 62
13
 10
1787.551
 20
-6731.737
 30
-2273.000
 70
    32
  0
VERTEX
  8
7550LEVEL
 62
13
 10
1787.984
 20
-6721.735
 30
-2273.000
 70
    32
  0
VERTEX
  8
7550LEVEL
 62
13
 10
1787.588
 20
-6707.202
 30
-2273.000
 70
    32
  0
VERTEX
  8
7550LEVEL
 62
13
 10
1784.951
 20
-6690.243
 30
-2273.000
 70
    32
  0
VERTEX
  8
7550LEVEL
 62
13
 10
1781.709
 20
-6678.387
 30
-2273.000
 70
    32
  0
VERTEX
  8
7550LEVEL
 62
13
 10
1777.147
 20
-6662.675
 30
-2273.000
 70
    32
  0
VERTEX
  8
7550LEVEL
 62
13
 10
1774.707
 20
-6651.897
 30
-2273.000
 70
    32
  0
VERTEX
  8
7550LEVEL
 62
13
 10
1773.193
 20
-6641.112
 30
-2273.000
 70
    32
  0
VERTEX
  8
7550LEVEL
 62
13
 10
1772.595
 20
-6627.474
 30
-2273.000
 70
    32
  0
VERTEX
  8
7550LEVEL
 62
13
 10
1772.070
 20
-6621.102
 30
-2273.000
 70
    32
  0
VERTEX
  8
7550LEVEL
 62
13
 10
1770.913
 20
-6613.464
 30
-2273.000
 70
    32
  0
VERTEX
  8
7550LEVEL
 62
13
 10
1768.893
 20
-6607.585
 30
-2273.000
 70
    32
  0
VERTEX
  8
7550LEVEL
 62
13
 10
1763.372
 20
-6601.334
 30
-2273.000
 70
    32
  0
VERTEX
  8
7550LEVEL
 62
13
 10
1755.637
 20
-6596.111
 30
-2273.000
 70
    32
  0
VERTEX
  8
7550LEVEL
 62
13
 10
1743.798
 20
-6589.042
 30
-2273.000
 70
    32
  0
VERTEX
  8
7550LEVEL
 62
13
 10
1733.132
 20
-6579.549
 30
-2273.000
 70
    32
  0
VERTEX
  8
7550LEVEL
 62
13
 10
1723.874
 20
-6566.278
 30
-2273.000
 70
    32
  0
VERTEX
  8
7550LEVEL
 62
13
 10
1719.250
 20
-6556.567
 30
-2273.000
 70
    32
  0
VERTEX
  8
7550LEVEL
 62
13
 10
1715.410
 20
-6541.992
 30
-2273.000
 70
    32
  0
VERTEX
  8
7550LEVEL
 62
13
 10
1709.352
 20
-6529.937
 30
-2273.000
 70
    32
  0
VERTEX
  8
7550LEVEL
 62
13
 10
1700.006
 20
-6518.717
 30
-2273.000
 70
    32
  0
VERTEX
  8
7550LEVEL
 62
13
 10
1688.865
 20
-6508.584
 30
-2273.000
 70
    32
  0
VERTEX
  8
7550LEVEL
 62
13
 10
1678.080
 20
-6499.180
 30
-2273.000
 70
    32
  0
VERTEX
  8
7550LEVEL
 62
13
 10
1669.522
 20
-6490.351
 30
-2273.000
 70
    32
  0
VERTEX
  8
7550LEVEL
 62
13
 10
1665.680
 20
-6484.774
 30
-2273.000
 70
    32
  0
VERTEX
  8
7550LEVEL
 62
13
 10
1665.665
 20
-6480.504
 30
-2273.000
 70
    32
  0
VERTEX
  8
7550LEVEL
 62
13
 10
1669.216
 20
-6478.356
 30
-2273.000
 70
    32
  0
VERTEX
  8
7550LEVEL
 62
13
 10
1694.359
 20
-6489.295
 30
-2273.000
 70
    32
  0
VERTEX
  8
7550LEVEL
 62
13
 10
1712.503
 20
-6494.834
 30
-2273.000
 70
    32
  0
VERTEX
  8
7550LEVEL
 62
13
 10
1718.092
 20
-6493.341
 30
-2273.000
 70
    32
  0
VERTEX
  8
7550LEVEL
 62
13
 10
1720.059
 20
-6488.899
 30
-2273.000
 70
    32
  0
VERTEX
  8
7550LEVEL
 62
13
 10
1721.117
 20
-6479.736
 30
-2273.000
 70
    32
  0
VERTEX
  8
7550LEVEL
 62
13
 10
1715.356
 20
-6470.748
 30
-2273.000
 70
    32
  0
VERTEX
  8
7550LEVEL
 62
13
 10
1709.299
 20
-6464.028
 30
-2273.000
 70
    32
  0
VERTEX
  8
7550LEVEL
 62
13
 10
1697.231
 20
-6451.235
 30
-2273.000
 70
    32
  0
VERTEX
  8
7550LEVEL
 62
13
 10
1689.205
 20
-6441.203
 30
-2273.000
 70
    32
  0
VERTEX
  8
7550LEVEL
 62
13
 10
1686.278
 20
-6435.937
 30
-2273.000
 70
    32
  0
VERTEX
  8
7550LEVEL
 62
13
 10
1685.285
 20
-6429.604
 30
-2273.000
 70
    32
  0
VERTEX
  8
7550LEVEL
 62
13
 10
1687.033
 20
-6422.285
 30
-2273.000
 70
    32
  0
VERTEX
  8
7550LEVEL
 62
13
 10
1687.295
 20
-6415.886
 30
-2273.000
 70
    32
  0
VERTEX
  8
7550LEVEL
 62
13
 10
1685.951
 20
-6410.247
 30
-2273.000
 70
    32
  0
VERTEX
  8
7550LEVEL
 62
13
 10
1686.029
 20
-6402.434
 30
-2273.000
 70
    32
  0
VERTEX
  8
7550LEVEL
 62
13
 10
1687.056
 20
-6396.397
 30
-2273.000
 70
    32
  0
VERTEX
  8
7550LEVEL
 62
13
 10
1689.839
 20
-6391.967
 30
-2273.000
 70
    32
  0
VERTEX
  8
7550LEVEL
 62
13
 10
1696.061
 20
-6383.241
 30
-2273.000
 70
    32
  0
VERTEX
  8
7550LEVEL
 62
13
 10
1699.112
 20
-6376.006
 30
-2273.000
 70
    32
  0
VERTEX
  8
7550LEVEL
 62
13
 10
1699.079
 20
-6362.878
 30
-2273.000
 70
    32
  0
VERTEX
  8
7550LEVEL
 62
13
 10
1694.558
 20
-6346.887
 30
-2273.000
 70
    32
  0
VERTEX
  8
7550LEVEL
 62
13
 10
1691.586
 20
-6334.644
 30
-2273.000
 70
    32
  0
VERTEX
  8
7550LEVEL
 62
13
 10
1686.291
 20
-6317.864
 30
-2273.000
 70
    32
  0
VERTEX
  8
7550LEVEL
 62
13
 10
1678.149
 20
-6306.926
 30
-2273.000
 70
    32
  0
VERTEX
  8
7550LEVEL
 62
13
 10
1667.229
 20
-6293.341
 30
-2273.000
 70
    32
  0
VERTEX
  8
7550LEVEL
 62
13
 10
1659.727
 20
-6284.098
 30
-2273.000
 70
    32
  0
VERTEX
  8
7550LEVEL
 62
13
 10
1651.701
 20
-6268.483
 30
-2273.000
 70
    32
  0
VERTEX
  8
7550LEVEL
 62
13
 10
1650.845
 20
-6257.332
 30
-2273.000
 70
    32
  0
VERTEX
  8
7550LEVEL
 62
13
 10
1651.968
 20
-6249.423
 30
-2273.000
 70
    32
  0
VERTEX
  8
7550LEVEL
 62
13
 10
1654.983
 20
-6241.223
 30
-2273.000
 70
    32
  0
VERTEX
  8
7550LEVEL
 62
13
 10
1660.985
 20
-6232.784
 30
-2273.000
 70
    32
  0
VERTEX
  8
7550LEVEL
 62
13
 10
1665.717
 20
-6228.889
 30
-2273.000
 70
    32
  0
VERTEX
  8
7550LEVEL
 62
13
 10
1672.210
 20
-6225.110
 30
-2273.000
 70
    32
  0
VERTEX
  8
7550LEVEL
 62
13
 10
1677.406
 20
-6219.257
 30
-2273.000
 70
    32
  0
VERTEX
  8
7550LEVEL
 62
13
 10
1683.944
 20
-6208.371
 30
-2273.000
 70
    32
  0
VERTEX
  8
7550LEVEL
 62
13
 10
1691.187
 20
-6200.932
 30
-2273.000
 70
    32
  0
VERTEX
  8
7550LEVEL
 62
13
 10
1697.745
 20
-6195.740
 30
-2273.000
 70
    32
  0
VERTEX
  8
7550LEVEL
 62
13
 10
1704.123
 20
-6190.558
 30
-2273.000
 70
    32
  0
VERTEX
  8
7550LEVEL
 62
13
 10
1709.063
 20
-6186.942
 30
-2273.000
 70
    32
  0
VERTEX
  8
7550LEVEL
 62
13
 10
1715.389
 20
-6179.689
 30
-2273.000
 70
    32
  0
VERTEX
  8
7550LEVEL
 62
13
 10
1721.413
 20
-6170.614
 30
-2273.000
 70
    32
  0
VERTEX
  8
7550LEVEL
 62
13
 10
1725.390
 20
-6160.705
 30
-2273.000
 70
    32
  0
VERTEX
  8
7550LEVEL
 62
13
 10
1727.142
 20
-6152.390
 30
-2273.000
 70
    32
  0
VERTEX
  8
7550LEVEL
 62
13
 10
1725.110
 20
-6141.494
 30
-2273.000
 70
    32
  0
VERTEX
  8
7550LEVEL
 62
13
 10
1717.492
 20
-6126.010
 30
-2273.000
 70
    32
  0
VERTEX
  8
7550LEVEL
 62
13
 10
1705.615
 20
-6104.389
 30
-2273.000
 70
    32
  0
VERTEX
  8
7550LEVEL
 62
13
 10
1695.493
 20
-6084.875
 30
-2273.000
 70
    32
  0
VERTEX
  8
7550LEVEL
 62
13
 10
1689.447
 20
-6072.004
 30
-2273.000
 70
    32
  0
VERTEX
  8
7550LEVEL
 62
13
 10
1679.466
 20
-6054.680
 30
-2273.000
 70
    32
  0
VERTEX
  8
7550LEVEL
 62
13
 10
1667.995
 20
-6036.604
 30
-2273.000
 70
    32
  0
VERTEX
  8
7550LEVEL
 62
13
 10
1657.213
 20
-6017.953
 30
-2273.000
 70
    32
  0
VERTEX
  8
7550LEVEL
 62
13
 10
1649.364
 20
-6002.826
 30
-2273.000
 70
    32
  0
VERTEX
  8
7550LEVEL
 62
13
 10
1642.361
 20
-5985.085
 30
-2273.000
 70
    32
  0
VERTEX
  8
7550LEVEL
 62
13
 10
1634.612
 20
-5967.092
 30
-2273.000
 70
    32
  0
VERTEX
  8
7550LEVEL
 62
13
 10
1628.513
 20
-5955.066
 30
-2273.000
 70
    32
  0
VERTEX
  8
7550LEVEL
 62
13
 10
1622.538
 20
-5942.206
 30
-2273.000
 70
    32
  0
VERTEX
  8
7550LEVEL
 62
13
 10
1620.637
 20
-5933.818
 30
-2273.000
 70
    32
  0
VERTEX
  8
7550LEVEL
 62
13
 10
1622.351
 20
-5927.703
 30
-2273.000
 70
    32
  0
VERTEX
  8
7550LEVEL
 62
13
 10
1624.645
 20
-5923.451
 30
-2273.000
 70
    32
  0
VERTEX
  8
7550LEVEL
 62
13
 10
1627.838
 20
-5921.323
 30
-2273.000
 70
    32
  0
VERTEX
  8
7550LEVEL
 62
13
 10
1632.838
 20
-5922.874
 30
-2273.000
 70
    32
  0
VERTEX
  8
7550LEVEL
 62
13
 10
1638.445
 20
-5927.571
 30
-2273.000
 70
    32
  0
VERTEX
  8
7550LEVEL
 62
13
 10
1645.691
 20
-5935.888
 30
-2273.000
 70
    32
  0
VERTEX
  8
7550LEVEL
 62
13
 10
1651.041
 20
-5942.825
 30
-2273.000
 70
    32
  0
VERTEX
  8
7550LEVEL
 62
13
 10
1659.052
 20
-5954.419
 30
-2273.000
 70
    32
  0
VERTEX
  8
7550LEVEL
 62
13
 10
1664.589
 20
-5964.690
 30
-2273.000
 70
    32
  0
VERTEX
  8
7550LEVEL
 62
13
 10
1670.048
 20
-5974.523
 30
-2273.000
 70
    32
  0
VERTEX
  8
7550LEVEL
 62
13
 10
1675.913
 20
-5987.653
 30
-2273.000
 70
    32
  0
VERTEX
  8
7550LEVEL
 62
13
 10
1681.278
 20
-5998.859
 30
-2273.000
 70
    32
  0
VERTEX
  8
7550LEVEL
 62
13
 10
1684.231
 20
-6005.409
 30
-2273.000
 70
    32
  0
VERTEX
  8
7550LEVEL
 62
13
 10
1689.490
 20
-6018.307
 30
-2273.000
 70
    32
  0
VERTEX
  8
7550LEVEL
 62
13
 10
1693.654
 20
-6028.235
 30
-2273.000
 70
    32
  0
VERTEX
  8
7550LEVEL
 62
13
 10
1697.636
 20
-6039.168
 30
-2273.000
 70
    32
  0
VERTEX
  8
7550LEVEL
 62
13
 10
1701.145
 20
-6051.632
 30
-2273.000
 70
    32
  0
VERTEX
  8
7550LEVEL
 62
13
 10
1703.178
 20
-6059.362
 30
-2273.000
 70
    32
  0
VERTEX
  8
7550LEVEL
 62
13
 10
1707.517
 20
-6070.774
 30
-2273.000
 70
    32
  0
VERTEX
  8
7550LEVEL
 62
13
 10
1711.082
 20
-6078.481
 30
-2273.000
 70
    32
  0
VERTEX
  8
7550LEVEL
 62
13
 10
1718.009
 20
-6089.703
 30
-2273.000
 70
    32
  0
VERTEX
  8
7550LEVEL
 62
13
 10
1724.725
 20
-6101.640
 30
-2273.000
 70
    32
  0
VERTEX
  8
7550LEVEL
 62
13
 10
1728.297
 20
-6110.273
 30
-2273.000
 70
    32
  0
VERTEX
  8
7550LEVEL
 62
13
 10
1733.552
 20
-6124.415
 30
-2273.000
 70
    32
  0
VERTEX
  8
7550LEVEL
 62
13
 10
1736.108
 20
-6130.515
 30
-2273.000
 70
    32
  0
VERTEX
  8
7550LEVEL
 62
13
 10
1738.497
 20
-6141.641
 30
-2273.000
 70
    32
  0
VERTEX
  8
7550LEVEL
 62
13
 10
1738.611
 20
-6154.213
 30
-2273.000
 70
    32
  0
VERTEX
  8
7550LEVEL
 62
13
 10
1735.339
 20
-6164.652
 30
-2273.000
 70
    32
  0
VERTEX
  8
7550LEVEL
 62
13
 10
1730.864
 20
-6171.891
 30
-2273.000
 70
    32
  0
VERTEX
  8
7550LEVEL
 62
13
 10
1722.319
 20
-6181.665
 30
-2273.000
 70
    32
  0
VERTEX
  8
7550LEVEL
 62
13
 10
1717.409
 20
-6188.236
 30
-2273.000
 70
    32
  0
VERTEX
  8
7550LEVEL
 62
13
 10
1709.110
 20
-6198.757
 30
-2273.000
 70
    32
  0
VERTEX
  8
7550LEVEL
 62
13
 10
1703.501
 20
-6208.640
 30
-2273.000
 70
    32
  0
VERTEX
  8
7550LEVEL
 62
13
 10
1700.180
 20
-6216.262
 30
-2273.000
 70
    32
  0
VERTEX
  8
7550LEVEL
 62
13
 10
1698.199
 20
-6224.686
 30
-2273.000
 70
    32
  0
VERTEX
  8
7550LEVEL
 62
13
 10
1699.261
 20
-6233.946
 30
-2273.000
 70
    32
  0
VERTEX
  8
7550LEVEL
 62
13
 10
1702.213
 20
-6243.412
 30
-2273.000
 70
    32
  0
VERTEX
  8
7550LEVEL
 62
13
 10
1703.059
 20
-6249.048
 30
-2273.000
 70
    32
  0
VERTEX
  8
7550LEVEL
 62
13
 10
1705.138
 20
-6263.259
 30
-2273.000
 70
    32
  0
VERTEX
  8
7550LEVEL
 62
13
 10
1708.318
 20
-6272.865
 30
-2273.000
 70
    32
  0
VERTEX
  8
7550LEVEL
 62
13
 10
1712.730
 20
-6280.624
 30
-2273.000
 70
    32
  0
VERTEX
  8
7550LEVEL
 62
13
 10
1717.862
 20
-6284.435
 30
-2273.000
 70
    32
  0
VERTEX
  8
7550LEVEL
 62
13
 10
1725.831
 20
-6288.056
 30
-2273.000
 70
    32
  0
VERTEX
  8
7550LEVEL
 62
13
 10
1735.928
 20
-6292.452
 30
-2273.000
 70
    32
  0
VERTEX
  8
7550LEVEL
 62
13
 10
1745.326
 20
-6297.491
 30
-2273.000
 70
    32
  0
VERTEX
  8
7550LEVEL
 62
13
 10
1751.766
 20
-6302.809
 30
-2273.000
 70
    32
  0
VERTEX
  8
7550LEVEL
 62
13
 10
1758.097
 20
-6311.063
 30
-2273.000
 70
    32
  0
VERTEX
  8
7550LEVEL
 62
13
 10
1763.218
 20
-6323.443
 30
-2273.000
 70
    32
  0
VERTEX
  8
7550LEVEL
 62
13
 10
1765.683
 20
-6332.838
 30
-2273.000
 70
    32
  0
VERTEX
  8
7550LEVEL
 62
13
 10
1764.935
 20
-6338.917
 30
-2273.000
 70
    32
  0
VERTEX
  8
7550LEVEL
 62
13
 10
1761.217
 20
-6348.757
 30
-2273.000
 70
    32
  0
VERTEX
  8
7550LEVEL
 62
13
 10
1754.536
 20
-6355.033
 30
-2273.000
 70
    32
  0
VERTEX
  8
7550LEVEL
 62
13
 10
1750.087
 20
-6357.974
 30
-2273.000
 70
    32
  0
VERTEX
  8
7550LEVEL
 62
13
 10
1743.529
 20
-6360.249
 30
-2273.000
 70
    32
  0
VERTEX
  8
7550LEVEL
 62
13
 10
1739.845
 20
-6360.634
 30
-2273.000
 70
    32
  0
VERTEX
  8
7550LEVEL
 62
13
 10
1738.102
 20
-6363.793
 30
-2273.000
 70
    32
  0
VERTEX
  8
7550LEVEL
 62
13
 10
1737.755
 20
-6366.161
 30
-2273.000
 70
    32
  0
VERTEX
  8
7550LEVEL
 62
13
 10
1735.586
 20
-6368.830
 30
-2273.000
 70
    32
  0
VERTEX
  8
7550LEVEL
 62
13
 10
1731.444
 20
-6369.184
 30
-2273.000
 70
    32
  0
VERTEX
  8
7550LEVEL
 62
13
 10
1727.754
 20
-6368.394
 30
-2273.000
 70
    32
  0
VERTEX
  8
7550LEVEL
 62
13
 10
1724.807
 20
-6368.852
 30
-2273.000
 70
    32
  0
VERTEX
  8
7550LEVEL
 62
13
 10
1722.817
 20
-6371.512
 30
-2273.000
 70
    32
  0
VERTEX
  8
7550LEVEL
 62
13
 10
1721.296
 20
-6376.553
 30
-2273.000
 70
    32
  0
VERTEX
  8
7550LEVEL
 62
13
 10
1719.866
 20
-6378.299
 30
-2273.000
 70
    32
  0
VERTEX
  8
7550LEVEL
 62
13
 10
1717.515
 20
-6378.809
 30
-2273.000
 70
    32
  0
VERTEX
  8
7550LEVEL
 62
13
 10
1716.299
 20
-6379.342
 30
-2273.000
 70
    32
  0
VERTEX
  8
7550LEVEL
 62
13
 10
1713.194
 20
-6385.004
 30
-2273.000
 70
    32
  0
VERTEX
  8
7550LEVEL
 62
13
 10
1713.185
 20
-6390.160
 30
-2273.000
 70
    32
  0
VERTEX
  8
7550LEVEL
 62
13
 10
1714.257
 20
-6399.350
 30
-2273.000
 70
    32
  0
VERTEX
  8
7550LEVEL
 62
13
 10
1716.331
 20
-6406.802
 30
-2273.000
 70
    32
  0
VERTEX
  8
7550LEVEL
 62
13
 10
1718.105
 20
-6408.770
 30
-2273.000
 70
    32
  0
VERTEX
  8
7550LEVEL
 62
13
 10
1719.265
 20
-6407.410
 30
-2273.000
 70
    32
  0
VERTEX
  8
7550LEVEL
 62
13
 10
1719.713
 20
-6404.595
 30
-2273.000
 70
    32
  0
VERTEX
  8
7550LEVEL
 62
13
 10
1720.187
 20
-6402.815
 30
-2273.000
 70
    32
  0
VERTEX
  8
7550LEVEL
 62
13
 10
1721.395
 20
-6401.605
 30
-2273.000
 70
    32
  0
VERTEX
  8
7550LEVEL
 62
13
 10
1722.188
 20
-6402.504
 30
-2273.000
 70
    32
  0
VERTEX
  8
7550LEVEL
 62
13
 10
1723.268
 20
-6404.120
 30
-2273.000
 70
    32
  0
VERTEX
  8
7550LEVEL
 62
13
 10
1724.643
 20
-6403.717
 30
-2273.000
 70
    32
  0
VERTEX
  8
7550LEVEL
 62
13
 10
1725.173
 20
-6400.096
 30
-2273.000
 70
    32
  0
VERTEX
  8
7550LEVEL
 62
13
 10
1723.526
 20
-6395.800
 30
-2273.000
 70
    32
  0
VERTEX
  8
7550LEVEL
 62
13
 10
1721.438
 20
-6389.662
 30
-2273.000
 70
    32
  0
VERTEX
  8
7550LEVEL
 62
13
 10
1721.612
 20
-6388.229
 30
-2273.000
 70
    32
  0
VERTEX
  8
7550LEVEL
 62
13
 10
1723.524
 20
-6388.047
 30
-2273.000
 70
    32
  0
VERTEX
  8
7550LEVEL
 62
13
 10
1726.362
 20
-6390.525
 30
-2273.000
 70
    32
  0
VERTEX
  8
7550LEVEL
 62
13
 10
1729.752
 20
-6394.329
 30
-2273.000
 70
    32
  0
VERTEX
  8
7550LEVEL
 62
13
 10
1732.810
 20
-6396.520
 30
-2273.000
 70
    32
  0
VERTEX
  8
7550LEVEL
 62
13
 10
1734.302
 20
-6391.190
 30
-2273.000
 70
    32
  0
VERTEX
  8
7550LEVEL
 62
13
 10
1731.175
 20
-6386.073
 30
-2273.000
 70
    32
  0
VERTEX
  8
7550LEVEL
 62
13
 10
1729.067
 20
-6382.741
 30
-2273.000
 70
    32
  0
VERTEX
  8
7550LEVEL
 62
13
 10
1728.490
 20
-6379.883
 30
-2273.000
 70
    32
  0
VERTEX
  8
7550LEVEL
 62
13
 10
1729.960
 20
-6377.858
 30
-2273.000
 70
    32
  0
VERTEX
  8
7550LEVEL
 62
13
 10
1734.167
 20
-6378.759
 30
-2273.000
 70
    32
  0
VERTEX
  8
7550LEVEL
 62
13
 10
1738.421
 20
-6383.223
 30
-2273.000
 70
    32
  0
VERTEX
  8
7550LEVEL
 62
13
 10
1743.600
 20
-6387.929
 30
-2273.000
 70
    32
  0
VERTEX
  8
7550LEVEL
 62
13
 10
1746.053
 20
-6389.391
 30
-2273.000
 70
    32
  0
VERTEX
  8
7550LEVEL
 62
13
 10
1749.580
 20
-6388.378
 30
-2273.000
 70
    32
  0
VERTEX
  8
7550LEVEL
 62
13
 10
1750.774
 20
-6382.899
 30
-2273.000
 70
    32
  0
VERTEX
  8
7550LEVEL
 62
13
 10
1748.194
 20
-6375.265
 30
-2273.000
 70
    32
  0
VERTEX
  8
7550LEVEL
 62
13
 10
1747.172
 20
-6371.559
 30
-2273.000
 70
    32
  0
VERTEX
  8
7550LEVEL
 62
13
 10
1747.934
 20
-6367.083
 30
-2273.000
 70
    32
  0
VERTEX
  8
7550LEVEL
 62
13
 10
1751.314
 20
-6368.289
 30
-2273.000
 70
    32
  0
VERTEX
  8
7550LEVEL
 62
13
 10
1756.631
 20
-6373.265
 30
-2273.000
 70
    32
  0
VERTEX
  8
7550LEVEL
 62
13
 10
1760.434
 20
-6375.707
 30
-2273.000
 70
    32
  0
VERTEX
  8
7550LEVEL
 62
13
 10
1763.961
 20
-6374.694
 30
-2273.000
 70
    32
  0
VERTEX
  8
7550LEVEL
 62
13
 10
1767.679
 20
-6370.438
 30
-2273.000
 70
    32
  0
VERTEX
  8
7550LEVEL
 62
13
 10
1773.515
 20
-6366.776
 30
-2273.000
 70
    32
  0
VERTEX
  8
7550LEVEL
 62
13
 10
1776.245
 20
-6368.776
 30
-2273.000
 70
    32
  0
VERTEX
  8
7550LEVEL
 62
13
 10
1778.202
 20
-6372.655
 30
-2273.000
 70
    32
  0
VERTEX
  8
7550LEVEL
 62
13
 10
1781.598
 20
-6377.634
 30
-2273.000
 70
    32
  0
VERTEX
  8
7550LEVEL
 62
13
 10
1784.329
 20
-6379.137
 30
-2273.000
 70
    32
  0
VERTEX
  8
7550LEVEL
 62
13
 10
1786.991
 20
-6377.962
 30
-2273.000
 70
    32
  0
VERTEX
  8
7550LEVEL
 62
13
 10
1786.196
 20
-6371.977
 30
-2273.000
 70
    32
  0
VERTEX
  8
7550LEVEL
 62
13
 10
1783.144
 20
-6362.710
 30
-2273.000
 70
    32
  0
VERTEX
  8
7550LEVEL
 62
13
 10
1782.649
 20
-6359.045
 30
-2273.000
 70
    32
  0
VERTEX
  8
7550LEVEL
 62
13
 10
1783.657
 20
-6358.481
 30
-2273.000
 70
    32
  0
VERTEX
  8
7550LEVEL
 62
13
 10
1784.918
 20
-6359.093
 30
-2273.000
 70
    32
  0
VERTEX
  8
7550LEVEL
 62
13
 10
1786.470
 20
-6359.427
 30
-2273.000
 70
    32
  0
VERTEX
  8
7550LEVEL
 62
13
 10
1787.779
 20
-6355.102
 30
-2273.000
 70
    32
  0
VERTEX
  8
7550LEVEL
 62
13
 10
1787.328
 20
-6344.829
 30
-2273.000
 70
    32
  0
VERTEX
  8
7550LEVEL
 62
13
 10
1785.371
 20
-6335.367
 30
-2273.000
 70
    32
  0
VERTEX
  8
7550LEVEL
 62
13
 10
1781.600
 20
-6318.383
 30
-2273.000
 70
    32
  0
VERTEX
  8
7550LEVEL
 62
13
 10
1776.247
 20
-6298.358
 30
-2273.000
 70
    32
  0
VERTEX
  8
7550LEVEL
 62
13
 10
1773.146
 20
-6288.693
 30
-2273.000
 70
    32
  0
VERTEX
  8
7550LEVEL
 62
13
 10
1769.773
 20
-6280.161
 30
-2273.000
 70
    32
  0
VERTEX
  8
7550LEVEL
 62
13
 10
1765.806
 20
-6270.582
 30
-2273.000
 70
    32
  0
VERTEX
  8
7550LEVEL
 62
13
 10
1759.015
 20
-6251.875
 30
-2273.000
 70
    32
  0
VERTEX
  8
7550LEVEL
 62
13
 10
1755.055
 20
-6237.390
 30
-2273.000
 70
    32
  0
VERTEX
  8
7550LEVEL
 62
13
 10
1754.441
 20
-6228.230
 30
-2273.000
 70
    32
  0
VERTEX
  8
7550LEVEL
 62
13
 10
1751.514
 20
-6211.797
 30
-2273.000
 70
    32
  0
VERTEX
  8
7550LEVEL
 62
13
 10
1746.632
 20
-6196.323
 30
-2273.000
 70
    32
  0
VERTEX
  8
7550LEVEL
 62
13
 10
1745.201
 20
-6190.067
 30
-2273.000
 70
    32
  0
VERTEX
  8
7550LEVEL
 62
13
 10
1745.741
 20
-6181.042
 30
-2273.000
 70
    32
  0
VERTEX
  8
7550LEVEL
 62
13
 10
1750.547
 20
-6175.913
 30
-2273.000
 70
    32
  0
VERTEX
  8
7550LEVEL
 62
13
 10
1753.995
 20
-6177.627
 30
-2273.000
 70
    32
  0
VERTEX
  8
7550LEVEL
 62
13
 10
1761.300
 20
-6186.024
 30
-2273.000
 70
    32
  0
VERTEX
  8
7550LEVEL
 62
13
 10
1768.781
 20
-6195.407
 30
-2273.000
 70
    32
  0
VERTEX
  8
7550LEVEL
 62
13
 10
1773.649
 20
-6200.779
 30
-2273.000
 70
    32
  0
VERTEX
  8
7550LEVEL
 62
13
 10
1778.492
 20
-6199.283
 30
-2273.000
 70
    32
  0
VERTEX
  8
7550LEVEL
 62
13
 10
1775.299
 20
-6187.577
 30
-2273.000
 70
    32
  0
VERTEX
  8
7550LEVEL
 62
13
 10
1770.917
 20
-6179.857
 30
-2273.000
 70
    32
  0
VERTEX
  8
7550LEVEL
 62
13
 10
1773.439
 20
-6167.495
 30
-2273.000
 70
    32
  0
VERTEX
  8
7550LEVEL
 62
13
 10
1776.891
 20
-6156.798
 30
-2273.000
 70
    32
  0
VERTEX
  8
7550LEVEL
 62
13
 10
1781.858
 20
-6140.134
 30
-2273.000
 70
    32
  0
VERTEX
  8
7550LEVEL
 62
13
 10
1783.691
 20
-6128.346
 30
-2273.000
 70
    32
  0
VERTEX
  8
7550LEVEL
 62
13
 10
1782.441
 20
-6110.416
 30
-2273.000
 70
    32
  0
VERTEX
  8
7550LEVEL
 62
13
 10
1779.725
 20
-6096.183
 30
-2273.000
 70
    32
  0
VERTEX
  8
7550LEVEL
 62
13
 10
1775.665
 20
-6076.561
 30
-2273.000
 70
    32
  0
VERTEX
  8
7550LEVEL
 62
13
 10
1774.323
 20
-6062.174
 30
-2273.000
 70
    32
  0
VERTEX
  8
7550LEVEL
 62
13
 10
1771.234
 20
-6046.358
 30
-2273.000
 70
    32
  0
VERTEX
  8
7550LEVEL
 62
13
 10
1767.238
 20
-6036.490
 30
-2273.000
 70
    32
  0
VERTEX
  8
7550LEVEL
 62
13
 10
1757.972
 20
-6028.126
 30
-2273.000
 70
    32
  0
VERTEX
  8
7550LEVEL
 62
13
 10
1748.312
 20
-6021.234
 30
-2273.000
 70
    32
  0
VERTEX
  8
7550LEVEL
 62
13
 10
1735.624
 20
-6012.191
 30
-2273.000
 70
    32
  0
VERTEX
  8
7550LEVEL
 62
13
 10
1724.468
 20
-5995.121
 30
-2273.000
 70
    32
  0
VERTEX
  8
7550LEVEL
 62
13
 10
1716.069
 20
-5980.590
 30
-2273.000
 70
    32
  0
VERTEX
  8
7550LEVEL
 62
13
 10
1705.885
 20
-5967.326
 30
-2273.000
 70
    32
  0
VERTEX
  8
7550LEVEL
 62
13
 10
1697.678
 20
-5960.469
 30
-2273.000
 70
    32
  0
VERTEX
  8
7550LEVEL
 62
13
 10
1683.760
 20
-5950.357
 30
-2273.000
 70
    32
  0
VERTEX
  8
7550LEVEL
 62
13
 10
1672.285
 20
-5941.776
 30
-2273.000
 70
    32
  0
VERTEX
  8
7550LEVEL
 62
13
 10
1659.703
 20
-5925.458
 30
-2273.000
 70
    32
  0
VERTEX
  8
7550LEVEL
 62
13
 10
1655.329
 20
-5912.583
 30
-2273.000
 70
    32
  0
VERTEX
  8
7550LEVEL
 62
13
 10
1652.194
 20
-5904.370
 30
-2273.000
 70
    32
  0
VERTEX
  8
7550LEVEL
 62
13
 10
1645.912
 20
-5893.598
 30
-2273.000
 70
    32
  0
VERTEX
  8
7550LEVEL
 62
13
 10
1633.170
 20
-5885.650
 30
-2273.000
 70
    32
  0
VERTEX
  8
7550LEVEL
 62
13
 10
1625.283
 20
-5881.223
 30
-2273.000
 70
    32
  0
VERTEX
  8
7550LEVEL
 62
13
 10
1613.553
 20
-5871.715
 30
-2273.000
 70
    32
  0
VERTEX
  8
7550LEVEL
 62
13
 10
1606.081
 20
-5862.512
 30
-2273.000
 70
    32
  0
VERTEX
  8
7550LEVEL
 62
13
 10
1600.860
 20
-5852.749
 30
-2273.000
 70
    32
  0
VERTEX
  8
7550LEVEL
 62
13
 10
1594.819
 20
-5833.299
 30
-2273.000
 70
    32
  0
VERTEX
  8
7550LEVEL
 62
13
 10
1590.026
 20
-5812.361
 30
-2273.000
 70
    32
  0
VERTEX
  8
7550LEVEL
 62
13
 10
1587.631
 20
-5800.309
 30
-2273.000
 70
    32
  0
VERTEX
  8
7550LEVEL
 62
13
 10
1585.005
 20
-5785.947
 30
-2273.000
 70
    32
  0
VERTEX
  8
7550LEVEL
 62
13
 10
1580.612
 20
-5772.963
 30
-2273.000
 70
    32
  0
VERTEX
  8
7550LEVEL
 62
13
 10
1575.668
 20
-5763.738
 30
-2273.000
 70
    32
  0
VERTEX
  8
7550LEVEL
 62
13
 10
1563.746
 20
-5749.224
 30
-2273.000
 70
    32
  0
VERTEX
  8
7550LEVEL
 62
13
 10
1551.417
 20
-5734.579
 30
-2273.000
 70
    32
  0
VERTEX
  8
7550LEVEL
 62
13
 10
1543.021
 20
-5722.217
 30
-2273.000
 70
    32
  0
VERTEX
  8
7550LEVEL
 62
13
 10
1540.088
 20
-5715.777
 30
-2273.000
 70
    32
  0
VERTEX
  8
7550LEVEL
 62
13
 10
1539.008
 20
-5705.910
 30
-2273.000
 70
    32
  0
VERTEX
  8
7550LEVEL
 62
13
 10
1538.835
 20
-5695.926
 30
-2273.000
 70
    32
  0
VERTEX
  8
7550LEVEL
 62
13
 10
1538.486
 20
-5690.540
 30
-2273.000
 70
    32
  0
VERTEX
  8
7550LEVEL
 62
13
 10
1538.134
 20
-5685.901
 30
-2273.000
 70
    32
  0
VERTEX
  8
7550LEVEL
 62
13
 10
1539.854
 20
-5683.628
 30
-2273.000
 70
    32
  0
VERTEX
  8
7550LEVEL
 62
13
 10
1548.106
 20
-5683.378
 30
-2273.000
 70
    32
  0
VERTEX
  8
7550LEVEL
 62
13
 10
1551.522
 20
-5682.883
 30
-2273.000
 70
    32
  0
VERTEX
  8
7550LEVEL
 62
13
 10
1558.178
 20
-5680.657
 30
-2273.000
 70
    32
  0
VERTEX
  8
7550LEVEL
 62
13
 10
1564.020
 20
-5675.254
 30
-2273.000
 70
    32
  0
VERTEX
  8
7550LEVEL
 62
13
 10
1566.662
 20
-5668.634
 30
-2273.000
 70
    32
  0
VERTEX
  8
7550LEVEL
 62
13
 10
1568.265
 20
-5659.871
 30
-2273.000
 70
    32
  0
VERTEX
  8
7550LEVEL
 62
13
 10
1565.230
 20
-5645.876
 30
-2273.000
 70
    32
  0
VERTEX
  8
7550LEVEL
 62
13
 10
1561.317
 20
-5632.286
 30
-2273.000
 70
    32
  0
VERTEX
  8
7550LEVEL
 62
13
 10
1558.487
 20
-5621.985
 30
-2273.000
 70
    32
  0
VERTEX
  8
7550LEVEL
 62
13
 10
1556.723
 20
-5614.364
 30
-2273.000
 70
    32
  0
VERTEX
  8
7550LEVEL
 62
13
 10
1556.856
 20
-5607.627
 30
-2273.000
 70
    32
  0
VERTEX
  8
7550LEVEL
 62
13
 10
1558.784
 20
-5605.633
 30
-2273.000
 70
    32
  0
VERTEX
  8
7550LEVEL
 62
13
 10
1563.910
 20
-5608.518
 30
-2273.000
 70
    32
  0
VERTEX
  8
7550LEVEL
 62
13
 10
1567.871
 20
-5611.339
 30
-2273.000
 70
    32
  0
VERTEX
  8
7550LEVEL
 62
13
 10
1573.215
 20
-5614.433
 30
-2273.000
 70
    32
  0
VERTEX
  8
7550LEVEL
 62
13
 10
1575.830
 20
-5615.030
 30
-2273.000
 70
    32
  0
VERTEX
  8
7550LEVEL
 62
13
 10
1576.597
 20
-5612.226
 30
-2273.000
 70
    32
  0
VERTEX
  8
7550LEVEL
 62
13
 10
1575.752
 20
-5609.008
 30
-2273.000
 70
    32
  0
VERTEX
  8
7550LEVEL
 62
13
 10
1575.150
 20
-5604.865
 30
-2273.000
 70
    32
  0
VERTEX
  8
7550LEVEL
 62
13
 10
1575.697
 20
-5602.100
 30
-2273.000
 70
    32
  0
VERTEX
  8
7550LEVEL
 62
13
 10
1578.341
 20
-5600.318
 30
-2273.000
 70
    32
  0
VERTEX
  8
7550LEVEL
 62
13
 10
1583.225
 20
-5601.211
 30
-2273.000
 70
    32
  0
VERTEX
  8
7550LEVEL
 62
13
 10
1592.554
 20
-5603.076
 30
-2273.000
 70
    32
  0
VERTEX
  8
7550LEVEL
 62
13
 10
1597.962
 20
-5602.339
 30
-2273.000
 70
    32
  0
VERTEX
  8
7550LEVEL
 62
13
 10
1606.135
 20
-5598.984
 30
-2273.000
 70
    32
  0
VERTEX
  8
7550LEVEL
 62
13
 10
1612.765
 20
-5593.056
 30
-2273.000
 70
    32
  0
VERTEX
  8
7550LEVEL
 62
13
 10
1615.746
 20
-5588.976
 30
-2273.000
 70
    32
  0
VERTEX
  8
7550LEVEL
 62
13
 10
1618.878
 20
-5578.765
 30
-2273.000
 70
    32
  0
VERTEX
  8
7550LEVEL
 62
13
 10
1618.882
 20
-5569.270
 30
-2273.000
 70
    32
  0
VERTEX
  8
7550LEVEL
 62
13
 10
1619.383
 20
-5559.776
 30
-2273.000
 70
    32
  0
VERTEX
  8
7550LEVEL
 62
13
 10
1620.631
 20
-5555.869
 30
-2273.000
 70
    32
  0
VERTEX
  8
7550LEVEL
 62
13
 10
1624.666
 20
-5552.121
 30
-2273.000
 70
    32
  0
VERTEX
  8
7550LEVEL
 62
13
 10
1639.424
 20
-5555.528
 30
-2273.000
 70
    32
  0
VERTEX
  8
7550LEVEL
 62
13
 10
1647.150
 20
-5560.323
 30
-2273.000
 70
    32
  0
VERTEX
  8
7550LEVEL
 62
13
 10
1655.960
 20
-5571.074
 30
-2273.000
 70
    32
  0
VERTEX
  8
7550LEVEL
 62
13
 10
1663.063
 20
-5580.615
 30
-2273.000
 70
    32
  0
VERTEX
  8
7550LEVEL
 62
13
 10
1676.115
 20
-5596.397
 30
-2273.000
 70
    32
  0
VERTEX
  8
7550LEVEL
 62
13
 10
1686.702
 20
-5608.369
 30
-2273.000
 70
    32
  0
VERTEX
  8
7550LEVEL
 62
13
 10
1692.703
 20
-5616.930
 30
-2273.000
 70
    32
  0
VERTEX
  8
7550LEVEL
 62
13
 10
1695.758
 20
-5622.783
 30
-2273.000
 70
    32
  0
VERTEX
  8
7550LEVEL
 62
13
 10
1697.859
 20
-5630.773
 30
-2273.000
 70
    32
  0
VERTEX
  8
7550LEVEL
 62
13
 10
1700.295
 20
-5639.879
 30
-2273.000
 70
    32
  0
VERTEX
  8
7550LEVEL
 62
13
 10
1703.658
 20
-5648.480
 30
-2273.000
 70
    32
  0
VERTEX
  8
7550LEVEL
 62
13
 10
1708.974
 20
-5659.537
 30
-2273.000
 70
    32
  0
VERTEX
  8
7550LEVEL
 62
13
 10
1713.910
 20
-5668.085
 30
-2273.000
 70
    32
  0
VERTEX
  8
7550LEVEL
 62
13
 10
1720.078
 20
-5677.204
 30
-2273.000
 70
    32
  0
VERTEX
  8
7550LEVEL
 62
13
 10
1726.997
 20
-5687.998
 30
-2273.000
 70
    32
  0
VERTEX
  8
7550LEVEL
 62
13
 10
1733.307
 20
-5699.058
 30
-2273.000
 70
    32
  0
VERTEX
  8
7550LEVEL
 62
13
 10
1744.959
 20
-5713.960
 30
-2273.000
 70
    32
  0
VERTEX
  8
7550LEVEL
 62
13
 10
1751.517
 20
-5722.603
 30
-2273.000
 70
    32
  0
VERTEX
  8
7550LEVEL
 62
13
 10
1760.918
 20
-5737.815
 30
-2273.000
 70
    32
  0
VERTEX
  8
7550LEVEL
 62
13
 10
1768.160
 20
-5750.043
 30
-2273.000
 70
    32
  0
VERTEX
  8
7550LEVEL
 62
13
 10
1776.528
 20
-5767.451
 30
-2273.000
 70
    32
  0
VERTEX
  8
7550LEVEL
 62
13
 10
1782.386
 20
-5777.236
 30
-2273.000
 70
    32
  0
VERTEX
  8
7550LEVEL
 62
13
 10
1789.646
 20
-5790.071
 30
-2273.000
 70
    32
  0
VERTEX
  8
7550LEVEL
 62
13
 10
1796.568
 20
-5802.537
 30
-2273.000
 70
    32
  0
VERTEX
  8
7550LEVEL
 62
13
 10
1803.037
 20
-5811.060
 30
-2273.000
 70
    32
  0
VERTEX
  8
7550LEVEL
 62
13
 10
1811.569
 20
-5821.770
 30
-2273.000
 70
    32
  0
VERTEX
  8
7550LEVEL
 62
13
 10
1815.704
 20
-5828.742
 30
-2273.000
 70
    32
  0
VERTEX
  8
7550LEVEL
 62
13
 10
1822.267
 20
-5841.725
 30
-2273.000
 70
    32
  0
VERTEX
  8
7550LEVEL
 62
13
 10
1827.453
 20
-5855.608
 30
-2273.000
 70
    32
  0
VERTEX
  8
7550LEVEL
 62
13
 10
1832.262
 20
-5868.903
 30
-2273.000
 70
    32
  0
VERTEX
  8
7550LEVEL
 62
13
 10
1835.373
 20
-5875.831
 30
-2273.000
 70
    32
  0
VERTEX
  8
7550LEVEL
 62
13
 10
1839.660
 20
-5887.591
 30
-2273.000
 70
    32
  0
VERTEX
  8
7550LEVEL
 62
13
 10
1840.881
 20
-5891.397
 30
-2273.000
 70
    32
  0
VERTEX
  8
7550LEVEL
 62
13
 10
1840.164
 20
-5897.018
 30
-2273.000
 70
    32
  0
VERTEX
  8
7550LEVEL
 62
13
 10
1837.373
 20
-5898.352
 30
-2273.000
 70
    32
  0
VERTEX
  8
7550LEVEL
 62
13
 10
1831.782
 20
-5897.426
 30
-2273.000
 70
    32
  0
VERTEX
  8
7550LEVEL
 62
13
 10
1827.789
 20
-5897.980
 30
-2273.000
 70
    32
  0
VERTEX
  8
7550LEVEL
 62
13
 10
1825.699
 20
-5903.506
 30
-2273.000
 70
    32
  0
VERTEX
  8
7550LEVEL
 62
13
 10
1827.322
 20
-5914.520
 30
-2273.000
 70
    32
  0
VERTEX
  8
7550LEVEL
 62
13
 10
1833.371
 20
-5929.312
 30
-2273.000
 70
    32
  0
VERTEX
  8
7550LEVEL
 62
13
 10
1839.133
 20
-5943.386
 30
-2273.000
 70
    32
  0
VERTEX
  8
7550LEVEL
 62
13
 10
1846.558
 20
-5957.277
 30
-2273.000
 70
    32
  0
VERTEX
  8
7550LEVEL
 62
13
 10
1853.088
 20
-5970.966
 30
-2273.000
 70
    32
  0
VERTEX
  8
7550LEVEL
 62
13
 10
1857.642
 20
-5980.667
 30
-2273.000
 70
    32
  0
VERTEX
  8
7550LEVEL
 62
13
 10
1861.331
 20
-5992.873
 30
-2273.000
 70
    32
  0
VERTEX
  8
7550LEVEL
 62
13
 10
1862.444
 20
-6004.452
 30
-2273.000
 70
    32
  0
VERTEX
  8
7550LEVEL
 62
13
 10
1862.923
 20
-6012.595
 30
-2273.000
 70
    32
  0
VERTEX
  8
7550LEVEL
 62
13
 10
1862.268
 20
-6026.050
 30
-2273.000
 70
    32
  0
VERTEX
  8
7550LEVEL
 62
13
 10
1862.654
 20
-6032.152
 30
-2273.000
 70
    32
  0
VERTEX
  8
7550LEVEL
 62
13
 10
1866.235
 20
-6041.212
 30
-2273.000
 70
    32
  0
VERTEX
  8
7550LEVEL
 62
13
 10
1871.388
 20
-6050.218
 30
-2273.000
 70
    32
  0
VERTEX
  8
7550LEVEL
 62
13
 10
1877.027
 20
-6057.126
 30
-2273.000
 70
    32
  0
VERTEX
  8
7550LEVEL
 62
13
 10
1877.818
 20
-6058.522
 30
-2273.000
 70
    32
  0
VERTEX
  8
7550LEVEL
 62
13
 10
1880.079
 20
-6058.142
 30
-2273.000
 70
    32
  0
VERTEX
  8
7550LEVEL
 62
13
 10
1880.829
 20
-6054.233
 30
-2273.000
 70
    32
  0
VERTEX
  8
7550LEVEL
 62
13
 10
1878.073
 20
-6042.698
 30
-2273.000
 70
    32
  0
VERTEX
  8
7550LEVEL
 62
13
 10
1875.262
 20
-6027.171
 30
-2273.000
 70
    32
  0
VERTEX
  8
7550LEVEL
 62
13
 10
1873.532
 20
-6012.763
 30
-2273.000
 70
    32
  0
VERTEX
  8
7550LEVEL
 62
13
 10
1872.525
 20
-6004.826
 30
-2273.000
 70
    32
  0
VERTEX
  8
7550LEVEL
 62
13
 10
1867.222
 20
-5993.202
 30
-2273.000
 70
    32
  0
VERTEX
  8
7550LEVEL
 62
13
 10
1865.290
 20
-5985.273
 30
-2273.000
 70
    32
  0
VERTEX
  8
7550LEVEL
 62
13
 10
1864.711
 20
-5979.995
 30
-2273.000
 70
    32
  0
VERTEX
  8
7550LEVEL
 62
13
 10
1864.676
 20
-5975.865
 30
-2273.000
 70
    32
  0
VERTEX
  8
7550LEVEL
 62
13
 10
1866.121
 20
-5972.555
 30
-2273.000
 70
    32
  0
VERTEX
  8
7550LEVEL
 62
13
 10
1869.810
 20
-5973.594
 30
-2273.000
 70
    32
  0
VERTEX
  8
7550LEVEL
 62
13
 10
1883.241
 20
-5986.302
 30
-2273.000
 70
    32
  0
VERTEX
  8
7550LEVEL
 62
13
 10
1898.761
 20
-5999.565
 30
-2273.000
 70
    32
  0
VERTEX
  8
7550LEVEL
 62
13
 10
1907.353
 20
-6007.190
 30
-2273.000
 70
    32
  0
VERTEX
  8
7550LEVEL
 62
13
 10
1912.189
 20
-6013.020
 30
-2273.000
 70
    32
  0
VERTEX
  8
7550LEVEL
 62
13
 10
1917.522
 20
-6024.684
 30
-2273.000
 70
    32
  0
VERTEX
  8
7550LEVEL
 62
13
 10
1919.231
 20
-6033.897
 30
-2273.000
 70
    32
  0
VERTEX
  8
7550LEVEL
 62
13
 10
1921.125
 20
-6049.858
 30
-2273.000
 70
    32
  0
VERTEX
  8
7550LEVEL
 62
13
 10
1925.266
 20
-6066.505
 30
-2273.000
 70
    32
  0
VERTEX
  8
7550LEVEL
 62
13
 10
1932.283
 20
-6086.098
 30
-2273.000
 70
    32
  0
VERTEX
  8
7550LEVEL
 62
13
 10
1934.642
 20
-6099.851
 30
-2273.000
 70
    32
  0
VERTEX
  8
7550LEVEL
 62
13
 10
1935.205
 20
-6106.691
 30
-2273.000
 70
    32
  0
VERTEX
  8
7550LEVEL
 62
13
 10
1936.679
 20
-6117.505
 30
-2273.000
 70
    32
  0
VERTEX
  8
7550LEVEL
 62
13
 10
1942.115
 20
-6128.224
 30
-2273.000
 70
    32
  0
VERTEX
  8
7550LEVEL
 62
13
 10
1954.242
 20
-6138.181
 30
-2273.000
 70
    32
  0
VERTEX
  8
7550LEVEL
 62
13
 10
1963.522
 20
-6145.729
 30
-2273.000
 70
    32
  0
VERTEX
  8
7550LEVEL
 62
13
 10
1971.188
 20
-6153.360
 30
-2273.000
 70
    32
  0
VERTEX
  8
7550LEVEL
 62
13
 10
1974.829
 20
-6162.251
 30
-2273.000
 70
    32
  0
VERTEX
  8
7550LEVEL
 62
13
 10
1974.405
 20
-6172.183
 30
-2273.000
 70
    32
  0
VERTEX
  8
7550LEVEL
 62
13
 10
1972.971
 20
-6181.006
 30
-2273.000
 70
    32
  0
VERTEX
  8
7550LEVEL
 62
13
 10
1972.878
 20
-6193.049
 30
-2273.000
 70
    32
  0
VERTEX
  8
7550LEVEL
 62
13
 10
1973.840
 20
-6213.427
 30
-2273.000
 70
    32
  0
VERTEX
  8
7550LEVEL
 62
13
 10
1975.868
 20
-6225.318
 30
-2273.000
 70
    32
  0
VERTEX
  8
7550LEVEL
 62
13
 10
1980.628
 20
-6241.379
 30
-2273.000
 70
    32
  0
VERTEX
  8
7550LEVEL
 62
13
 10
1986.053
 20
-6258.000
 30
-2273.000
 70
    32
  0
VERTEX
  8
7550LEVEL
 62
13
 10
1989.600
 20
-6268.016
 30
-2273.000
 70
    32
  0
VERTEX
  8
7550LEVEL
 62
13
 10
1997.439
 20
-6285.880
 30
-2273.000
 70
    32
  0
VERTEX
  8
7550LEVEL
 62
13
 10
2004.440
 20
-6296.117
 30
-2273.000
 70
    32
  0
VERTEX
  8
7550LEVEL
 62
13
 10
2008.183
 20
-6304.311
 30
-2273.000
 70
    32
  0
VERTEX
  8
7550LEVEL
 62
13
 10
2008.893
 20
-6311.600
 30
-2273.000
 70
    32
  0
VERTEX
  8
7550LEVEL
 62
13
 10
2008.112
 20
-6318.634
 30
-2273.000
 70
    32
  0
VERTEX
  8
7550LEVEL
 62
13
 10
2006.523
 20
-6331.418
 30
-2273.000
 70
    32
  0
VERTEX
  8
7550LEVEL
 62
13
 10
2002.209
 20
-6346.790
 30
-2273.000
 70
    32
  0
VERTEX
  8
7550LEVEL
 62
13
 10
1998.484
 20
-6355.704
 30
-2273.000
 70
    32
  0
VERTEX
  8
7550LEVEL
 62
13
 10
1992.585
 20
-6368.782
 30
-2273.000
 70
    32
  0
VERTEX
  8
7550LEVEL
 62
13
 10
1991.181
 20
-6380.312
 30
-2273.000
 70
    32
  0
VERTEX
  8
7550LEVEL
 62
13
 10
1994.158
 20
-6393.979
 30
-2273.000
 70
    32
  0
VERTEX
  8
7550LEVEL
 62
13
 10
1997.228
 20
-6403.853
 30
-2273.000
 70
    32
  0
VERTEX
  8
7550LEVEL
 62
13
 10
2002.005
 20
-6417.854
 30
-2273.000
 70
    32
  0
VERTEX
  8
7550LEVEL
 62
13
 10
2011.233
 20
-6436.918
 30
-2273.000
 70
    32
  0
VERTEX
  8
7550LEVEL
 62
13
 10
2016.022
 20
-6447.684
 30
-2273.000
 70
    32
  0
VERTEX
  8
7550LEVEL
 62
13
 10
2022.341
 20
-6462.089
 30
-2273.000
 70
    32
  0
VERTEX
  8
7550LEVEL
 62
13
 10
2029.543
 20
-6485.514
 30
-2273.000
 70
    32
  0
VERTEX
  8
7550LEVEL
 62
13
 10
2033.585
 20
-6499.194
 30
-2273.000
 70
    32
  0
VERTEX
  8
7550LEVEL
 62
13
 10
2037.003
 20
-6514.703
 30
-2273.000
 70
    32
  0
VERTEX
  8
7550LEVEL
 62
13
 10
2038.616
 20
-6528.454
 30
-2273.000
 70
    32
  0
VERTEX
  8
7550LEVEL
 62
13
 10
2039.551
 20
-6539.794
 30
-2273.000
 70
    32
  0
VERTEX
  8
7550LEVEL
 62
13
 10
2038.737
 20
-6556.035
 30
-2273.000
 70
    32
  0
VERTEX
  8
7550LEVEL
 62
13
 10
2038.680
 20
-6569.043
 30
-2273.000
 70
    32
  0
VERTEX
  8
7550LEVEL
 62
13
 10
2041.870
 20
-6581.745
 30
-2273.000
 70
    32
  0
VERTEX
  8
7550LEVEL
 62
13
 10
2047.166
 20
-6592.443
 30
-2273.000
 70
    32
  0
VERTEX
  8
7550LEVEL
 62
13
 10
2049.959
 20
-6599.112
 30
-2273.000
 70
    32
  0
VERTEX
  8
7550LEVEL
 62
13
 10
2052.103
 20
-6612.158
 30
-2273.000
 70
    32
  0
VERTEX
  8
7550LEVEL
 62
13
 10
2051.953
 20
-6623.375
 30
-2273.000
 70
    32
  0
VERTEX
  8
7550LEVEL
 62
13
 10
2050.519
 20
-6631.949
 30
-2273.000
 70
    32
  0
VERTEX
  8
7550LEVEL
 62
13
 10
2048.193
 20
-6636.659
 30
-2273.000
 70
    32
  0
VERTEX
  8
7550LEVEL
 62
13
 10
2043.175
 20
-6642.752
 30
-2273.000
 70
    32
  0
VERTEX
  8
7550LEVEL
 62
13
 10
2036.122
 20
-6647.196
 30
-2273.000
 70
    32
  0
VERTEX
  8
7550LEVEL
 62
13
 10
2029.040
 20
-6646.016
 30
-2273.000
 70
    32
  0
VERTEX
  8
7550LEVEL
 62
13
 10
2025.145
 20
-6644.201
 30
-2273.000
 70
    32
  0
VERTEX
  8
7550LEVEL
 62
13
 10
2017.452
 20
-6643.785
 30
-2273.000
 70
    32
  0
VERTEX
  8
7550LEVEL
 62
13
 10
2012.792
 20
-6647.192
 30
-2273.000
 70
    32
  0
VERTEX
  8
7550LEVEL
 62
13
 10
2011.896
 20
-6650.155
 30
-2273.000
 70
    32
  0
VERTEX
  8
7550LEVEL
 62
13
 10
2016.560
 20
-6659.587
 30
-2273.000
 70
    32
  0
VERTEX
  8
7550LEVEL
 62
13
 10
2026.216
 20
-6670.391
 30
-2273.000
 70
    32
  0
VERTEX
  8
7550LEVEL
 62
13
 10
2034.817
 20
-6678.195
 30
-2273.000
 70
    32
  0
VERTEX
  8
7550LEVEL
 62
13
 10
2041.776
 20
-6683.376
 30
-2273.000
 70
    32
  0
VERTEX
  8
7550LEVEL
 62
13
 10
2044.149
 20
-6684.897
 30
-2273.000
 70
    32
  0
VERTEX
  8
7550LEVEL
 62
13
 10
2049.066
 20
-6687.751
 30
-2273.000
 70
    32
  0
VERTEX
  8
7550LEVEL
 62
13
 10
2057.720
 20
-6694.709
 30
-2273.000
 70
    32
  0
VERTEX
  8
7550LEVEL
 62
13
 10
2064.765
 20
-6703.672
 30
-2273.000
 70
    32
  0
VERTEX
  8
7550LEVEL
 62
13
 10
2068.692
 20
-6718.865
 30
-2273.000
 70
    32
  0
VERTEX
  8
7550LEVEL
 62
13
 10
2071.141
 20
-6732.738
 30
-2273.000
 70
    32
  0
VERTEX
  8
7550LEVEL
 62
13
 10
2073.757
 20
-6741.586
 30
-2273.000
 70
    32
  0
VERTEX
  8
7550LEVEL
 62
13
 10
2077.386
 20
-6753.712
 30
-2273.000
 70
    32
  0
VERTEX
  8
7550LEVEL
 62
13
 10
2085.777
 20
-6775.818
 30
-2273.000
 70
    32
  0
VERTEX
  8
7550LEVEL
 62
13
 10
2091.471
 20
-6789.633
 30
-2273.000
 70
    32
  0
VERTEX
  8
7550LEVEL
 62
13
 10
2098.093
 20
-6810.946
 30
-2273.000
 70
    32
  0
VERTEX
  8
7550LEVEL
 62
13
 10
2111.210
 20
-6850.318
 30
-2273.000
 70
    32
  0
VERTEX
  8
7550LEVEL
 62
13
 10
2116.650
 20
-6862.709
 30
-2273.000
 70
    32
  0
VERTEX
  8
7550LEVEL
 62
13
 10
2119.296
 20
-6874.513
 30
-2273.000
 70
    32
  0
VERTEX
  8
7550LEVEL
 62
13
 10
2117.330
 20
-6884.290
 30
-2273.000
 70
    32
  0
VERTEX
  8
7550LEVEL
 62
13
 10
2111.511
 20
-6891.724
 30
-2273.000
 70
    32
  0
VERTEX
  8
7550LEVEL
 62
13
 10
2099.335
 20
-6898.120
 30
-2273.000
 70
    32
  0
VERTEX
  8
7550LEVEL
 62
13
 10
2089.728
 20
-6901.549
 30
-2273.000
 70
    32
  0
VERTEX
  8
7550LEVEL
 62
13
 10
2078.496
 20
-6905.630
 30
-2273.000
 70
    32
  0
VERTEX
  8
7550LEVEL
 62
13
 10
2073.670
 20
-6910.898
 30
-2273.000
 70
    32
  0
VERTEX
  8
7550LEVEL
 62
13
 10
2069.029
 20
-6920.247
 30
-2273.000
 70
    32
  0
VERTEX
  8
7550LEVEL
 62
13
 10
2066.484
 20
-6930.579
 30
-2273.000
 70
    32
  0
VERTEX
  8
7550LEVEL
 62
13
 10
2065.810
 20
-6935.175
 30
-2273.000
 70
    32
  0
VERTEX
  8
7550LEVEL
 62
13
 10
2063.325
 20
-6937.087
 30
-2273.000
 70
    32
  0
VERTEX
  8
7550LEVEL
 62
13
 10
2058.247
 20
-6937.766
 30
-2273.000
 70
    32
  0
VERTEX
  8
7550LEVEL
 62
13
 10
2055.219
 20
-6938.283
 30
-2273.000
 70
    32
  0
VERTEX
  8
7550LEVEL
 62
13
 10
2051.334
 20
-6941.981
 30
-2273.000
 70
    32
  0
VERTEX
  8
7550LEVEL
 62
13
 10
2050.062
 20
-6949.939
 30
-2273.000
 70
    32
  0
VERTEX
  8
7550LEVEL
 62
13
 10
2055.356
 20
-6961.384
 30
-2273.000
 70
    32
  0
VERTEX
  8
7550LEVEL
 62
13
 10
2061.472
 20
-6973.768
 30
-2273.000
 70
    32
  0
VERTEX
  8
7550LEVEL
 62
13
 10
2065.156
 20
-6990.134
 30
-2273.000
 70
    32
  0
VERTEX
  8
7550LEVEL
 62
13
 10
2067.005
 20
-7002.035
 30
-2273.000
 70
    32
  0
VERTEX
  8
7550LEVEL
 62
13
 10
2068.904
 20
-7019.419
 30
-2273.000
 70
    32
  0
VERTEX
  8
7550LEVEL
 62
13
 10
2074.097
 20
-7033.979
 30
-2273.000
 70
    32
  0
VERTEX
  8
7550LEVEL
 62
13
 10
2079.385
 20
-7041.583
 30
-2273.000
 70
    32
  0
VERTEX
  8
7550LEVEL
 62
13
 10
2087.168
 20
-7055.704
 30
-2273.000
 70
    32
  0
VERTEX
  8
7550LEVEL
 62
13
 10
2088.618
 20
-7064.985
 30
-2273.000
 70
    32
  0
VERTEX
  8
7550LEVEL
 62
13
 10
2090.356
 20
-7082.738
 30
-2273.000
 70
    32
  0
VERTEX
  8
7550LEVEL
 62
13
 10
2093.937
 20
-7094.466
 30
-2273.000
 70
    32
  0
VERTEX
  8
7550LEVEL
 62
13
 10
2099.862
 20
-7113.258
 30
-2273.000
 70
    32
  0
VERTEX
  8
7550LEVEL
 62
13
 10
2102.990
 20
-7123.461
 30
-2273.000
 70
    32
  0
VERTEX
  8
7550LEVEL
 62
13
 10
2104.050
 20
-7138.803
 30
-2273.000
 70
    32
  0
VERTEX
  8
7550LEVEL
 62
13
 10
2101.864
 20
-7154.451
 30
-2273.000
 70
    32
  0
VERTEX
  8
7550LEVEL
 62
13
 10
2100.739
 20
-7165.774
 30
-2273.000
 70
    32
  0
VERTEX
  8
7550LEVEL
 62
13
 10
2098.885
 20
-7180.617
 30
-2273.000
 70
    32
  0
VERTEX
  8
7550LEVEL
 62
13
 10
2097.877
 20
-7192.597
 30
-2273.000
 70
    32
  0
VERTEX
  8
7550LEVEL
 62
13
 10
2099.956
 20
-7201.224
 30
-2273.000
 70
    32
  0
VERTEX
  8
7550LEVEL
 62
13
 10
2104.054
 20
-7207.479
 30
-2273.000
 70
    32
  0
VERTEX
  8
7550LEVEL
 62
13
 10
2114.754
 20
-7218.685
 30
-2273.000
 70
    32
  0
VERTEX
  8
7550LEVEL
 62
13
 10
2125.724
 20
-7231.922
 30
-2273.000
 70
    32
  0
VERTEX
  8
7550LEVEL
 62
13
 10
2131.489
 20
-7242.582
 30
-2273.000
 70
    32
  0
VERTEX
  8
7550LEVEL
 62
13
 10
2137.080
 20
-7257.343
 30
-2273.000
 70
    32
  0
VERTEX
  8
7550LEVEL
 62
13
 10
2140.938
 20
-7266.692
 30
-2273.000
 70
    32
  0
VERTEX
  8
7550LEVEL
 62
13
 10
2146.756
 20
-7281.842
 30
-2273.000
 70
    32
  0
VERTEX
  8
7550LEVEL
 62
13
 10
2148.592
 20
-7286.307
 30
-2273.000
 70
    32
  0
VERTEX
  8
7550LEVEL
 62
13
 10
2149.707
 20
-7288.889
 30
-2273.000
 70
    32
  0
SEQEND
  8
7550LEVEL
  0
POLYLINE
  8
7550LEVEL
 62
13
 66
     1
 70
     8
  0
VERTEX
  8
7550LEVEL
 62
13
 10
2160.124
 20
-7284.547
 30
-2273.000
 70
    32
  0
VERTEX
  8
7550LEVEL
 62
13
 10
2154.432
 20
-7270.234
 30
-2273.000
 70
    32
  0
VERTEX
  8
7550LEVEL
 62
13
 10
2148.871
 20
-7255.514
 30
-2273.000
 70
    32
  0
VERTEX
  8
7550LEVEL
 62
13
 10
2143.716
 20
-7241.421
 30
-2273.000
 70
    32
  0
VERTEX
  8
7550LEVEL
 62
13
 10
2135.321
 20
-7220.311
 30
-2273.000
 70
    32
  0
VERTEX
  8
7550LEVEL
 62
13
 10
2127.668
 20
-7203.114
 30
-2273.000
 70
    32
  0
VERTEX
  8
7550LEVEL
 62
13
 10
2122.537
 20
-7193.472
 30
-2273.000
 70
    32
  0
VERTEX
  8
7550LEVEL
 62
13
 10
2116.890
 20
-7180.552
 30
-2273.000
 70
    32
  0
VERTEX
  8
7550LEVEL
 62
13
 10
2115.314
 20
-7173.102
 30
-2273.000
 70
    32
  0
VERTEX
  8
7550LEVEL
 62
13
 10
2116.079
 20
-7156.712
 30
-2273.000
 70
    32
  0
VERTEX
  8
7550LEVEL
 62
13
 10
2119.426
 20
-7150.373
 30
-2273.000
 70
    32
  0
VERTEX
  8
7550LEVEL
 62
13
 10
2125.836
 20
-7139.149
 30
-2273.000
 70
    32
  0
VERTEX
  8
7550LEVEL
 62
13
 10
2129.123
 20
-7127.396
 30
-2273.000
 70
    32
  0
VERTEX
  8
7550LEVEL
 62
13
 10
2129.159
 20
-7114.527
 30
-2273.000
 70
    32
  0
VERTEX
  8
7550LEVEL
 62
13
 10
2128.157
 20
-7105.347
 30
-2273.000
 70
    32
  0
VERTEX
  8
7550LEVEL
 62
13
 10
2127.801
 20
-7096.119
 30
-2273.000
 70
    32
  0
VERTEX
  8
7550LEVEL
 62
13
 10
2127.817
 20
-7091.640
 30
-2273.000
 70
    32
  0
VERTEX
  8
7550LEVEL
 62
13
 10
2128.716
 20
-7087.931
 30
-2273.000
 70
    32
  0
VERTEX
  8
7550LEVEL
 62
13
 10
2129.675
 20
-7086.969
 30
-2273.000
 70
    32
  0
VERTEX
  8
7550LEVEL
 62
13
 10
2131.116
 20
-7087.571
 30
-2273.000
 70
    32
  0
VERTEX
  8
7550LEVEL
 62
13
 10
2133.438
 20
-7092.357
 30
-2273.000
 70
    32
  0
VERTEX
  8
7550LEVEL
 62
13
 10
2134.787
 20
-7099.419
 30
-2273.000
 70
    32
  0
VERTEX
  8
7550LEVEL
 62
13
 10
2136.597
 20
-7108.184
 30
-2273.000
 70
    32
  0
VERTEX
  8
7550LEVEL
 62
13
 10
2136.461
 20
-7121.003
 30
-2273.000
 70
    32
  0
VERTEX
  8
7550LEVEL
 62
13
 10
2133.513
 20
-7132.876
 30
-2273.000
 70
    32
  0
VERTEX
  8
7550LEVEL
 62
13
 10
2130.497
 20
-7141.326
 30
-2273.000
 70
    32
  0
VERTEX
  8
7550LEVEL
 62
13
 10
2126.811
 20
-7153.376
 30
-2273.000
 70
    32
  0
VERTEX
  8
7550LEVEL
 62
13
 10
2125.274
 20
-7165.563
 30
-2273.000
 70
    32
  0
VERTEX
  8
7550LEVEL
 62
13
 10
2128.151
 20
-7179.428
 30
-2273.000
 70
    32
  0
VERTEX
  8
7550LEVEL
 62
13
 10
2131.519
 20
-7189.453
 30
-2273.000
 70
    32
  0
VERTEX
  8
7550LEVEL
 62
13
 10
2138.664
 20
-7203.801
 30
-2273.000
 70
    32
  0
VERTEX
  8
7550LEVEL
 62
13
 10
2142.402
 20
-7210.572
 30
-2273.000
 70
    32
  0
VERTEX
  8
7550LEVEL
 62
13
 10
2148.124
 20
-7222.009
 30
-2273.000
 70
    32
  0
VERTEX
  8
7550LEVEL
 62
13
 10
2151.509
 20
-7230.222
 30
-2273.000
 70
    32
  0
VERTEX
  8
7550LEVEL
 62
13
 10
2155.577
 20
-7242.270
 30
-2273.000
 70
    32
  0
VERTEX
  8
7550LEVEL
 62
13
 10
2158.589
 20
-7254.483
 30
-2273.000
 70
    32
  0
VERTEX
  8
7550LEVEL
 62
13
 10
2163.811
 20
-7271.999
 30
-2273.000
 70
    32
  0
VERTEX
  8
7550LEVEL
 62
13
 10
2166.563
 20
-7279.195
 30
-2273.000
 70
    32
  0
VERTEX
  8
7550LEVEL
 62
13
 10
2169.560
 20
-7287.139
 30
-2273.000
 70
    32
  0
SEQEND
  8
7550LEVEL
  0
POLYLINE
  8
7550LEVEL
 62
13
 66
     1
 70
     8
  0
VERTEX
  8
7550LEVEL
 62
13
 10
1539.075
 20
-6267.454
 30
-2273.000
 70
    32
  0
VERTEX
  8
7550LEVEL
 62
13
 10
1543.004
 20
-6259.814
 30
-2273.000
 70
    32
  0
VERTEX
  8
7550LEVEL
 62
13
 10
1551.404
 20
-6243.262
 30
-2273.000
 70
    32
  0
VERTEX
  8
7550LEVEL
 62
13
 10
1556.968
 20
-6231.985
 30
-2273.000
 70
    32
  0
VERTEX
  8
7550LEVEL
 62
13
 10
1562.466
 20
-6219.703
 30
-2273.000
 70
    32
  0
VERTEX
  8
7550LEVEL
 62
13
 10
1564.943
 20
-6211.779
 30
-2273.000
 70
    32
  0
VERTEX
  8
7550LEVEL
 62
13
 10
1566.133
 20
-6201.959
 30
-2273.000
 70
    32
  0
VERTEX
  8
7550LEVEL
 62
13
 10
1563.990
 20
-6185.997
 30
-2273.000
 70
    32
  0
VERTEX
  8
7550LEVEL
 62
13
 10
1560.749
 20
-6173.892
 30
-2273.000
 70
    32
  0
VERTEX
  8
7550LEVEL
 62
13
 10
1557.132
 20
-6155.367
 30
-2273.000
 70
    32
  0
VERTEX
  8
7550LEVEL
 62
13
 10
1553.994
 20
-6144.984
 30
-2273.000
 70
    32
  0
VERTEX
  8
7550LEVEL
 62
13
 10
1549.769
 20
-6135.225
 30
-2273.000
 70
    32
  0
VERTEX
  8
7550LEVEL
 62
13
 10
1542.872
 20
-6129.378
 30
-2273.000
 70
    32
  0
VERTEX
  8
7550LEVEL
 62
13
 10
1534.140
 20
-6124.898
 30
-2273.000
 70
    32
  0
VERTEX
  8
7550LEVEL
 62
13
 10
1521.378
 20
-6119.756
 30
-2273.000
 70
    32
  0
VERTEX
  8
7550LEVEL
 62
13
 10
1511.666
 20
-6113.461
 30
-2273.000
 70
    32
  0
VERTEX
  8
7550LEVEL
 62
13
 10
1507.917
 20
-6109.924
 30
-2273.000
 70
    32
  0
VERTEX
  8
7550LEVEL
 62
13
 10
1505.528
 20
-6107.049
 30
-2273.000
 70
    32
  0
VERTEX
  8
7550LEVEL
 62
13
 10
1504.359
 20
-6105.562
 30
-2273.000
 70
    32
  0
SEQEND
  8
7550LEVEL
  0
POLYLINE
  8
7550LEVEL
 62
13
 66
     1
 70
     8
  0
VERTEX
  8
7550LEVEL
 62
13
 10
1517.604
 20
-6095.268
 30
-2273.000
 70
    32
  0
VERTEX
  8
7550LEVEL
 62
13
 10
1529.737
 20
-6106.399
 30
-2273.000
 70
    32
  0
VERTEX
  8
7550LEVEL
 62
13
 10
1536.616
 20
-6111.390
 30
-2273.000
 70
    32
  0
VERTEX
  8
7550LEVEL
 62
13
 10
1544.573
 20
-6115.828
 30
-2273.000
 70
    32
  0
VERTEX
  8
7550LEVEL
 62
13
 10
1556.046
 20
-6127.823
 30
-2273.000
 70
    32
  0
VERTEX
  8
7550LEVEL
 62
13
 10
1565.621
 20
-6141.602
 30
-2273.000
 70
    32
  0
VERTEX
  8
7550LEVEL
 62
13
 10
1572.966
 20
-6152.885
 30
-2273.000
 70
    32
  0
VERTEX
  8
7550LEVEL
 62
13
 10
1578.521
 20
-6163.764
 30
-2273.000
 70
    32
  0
VERTEX
  8
7550LEVEL
 62
13
 10
1583.131
 20
-6174.540
 30
-2273.000
 70
    32
  0
VERTEX
  8
7550LEVEL
 62
13
 10
1585.243
 20
-6185.127
 30
-2273.000
 70
    32
  0
VERTEX
  8
7550LEVEL
 62
13
 10
1586.005
 20
-6189.151
 30
-2273.000
 70
    32
  0
VERTEX
  8
7550LEVEL
 62
13
 10
1584.951
 20
-6191.735
 30
-2273.000
 70
    32
  0
VERTEX
  8
7550LEVEL
 62
13
 10
1583.847
 20
-6191.253
 30
-2273.000
 70
    32
  0
VERTEX
  8
7550LEVEL
 62
13
 10
1580.325
 20
-6188.106
 30
-2273.000
 70
    32
  0
VERTEX
  8
7550LEVEL
 62
13
 10
1578.180
 20
-6184.057
 30
-2273.000
 70
    32
  0
VERTEX
  8
7550LEVEL
 62
13
 10
1575.474
 20
-6180.922
 30
-2273.000
 70
    32
  0
VERTEX
  8
7550LEVEL
 62
13
 10
1573.821
 20
-6181.036
 30
-2273.000
 70
    32
  0
VERTEX
  8
7550LEVEL
 62
13
 10
1572.909
 20
-6185.561
 30
-2273.000
 70
    32
  0
VERTEX
  8
7550LEVEL
 62
13
 10
1572.604
 20
-6190.317
 30
-2273.000
 70
    32
  0
VERTEX
  8
7550LEVEL
 62
13
 10
1574.597
 20
-6197.829
 30
-2273.000
 70
    32
  0
VERTEX
  8
7550LEVEL
 62
13
 10
1577.193
 20
-6206.816
 30
-2273.000
 70
    32
  0
VERTEX
  8
7550LEVEL
 62
13
 10
1577.337
 20
-6216.760
 30
-2273.000
 70
    32
  0
VERTEX
  8
7550LEVEL
 62
13
 10
1572.892
 20
-6229.623
 30
-2273.000
 70
    32
  0
VERTEX
  8
7550LEVEL
 62
13
 10
1570.161
 20
-6239.039
 30
-2273.000
 70
    32
  0
VERTEX
  8
7550LEVEL
 62
13
 10
1565.872
 20
-6252.779
 30
-2273.000
 70
    32
  0
VERTEX
  8
7550LEVEL
 62
13
 10
1563.233
 20
-6264.236
 30
-2273.000
 70
    32
  0
VERTEX
  8
7550LEVEL
 62
13
 10
1558.560
 20
-6282.294
 30
-2273.000
 70
    32
  0
VERTEX
  8
7550LEVEL
 62
13
 10
1552.769
 20
-6298.517
 30
-2273.000
 70
    32
  0
VERTEX
  8
7550LEVEL
 62
13
 10
1548.943
 20
-6310.795
 30
-2273.000
 70
    32
  0
VERTEX
  8
7550LEVEL
 62
13
 10
1544.697
 20
-6321.091
 30
-2273.000
 70
    32
  0
VERTEX
  8
7550LEVEL
 62
13
 10
1540.255
 20
-6330.043
 30
-2273.000
 70
    32
  0
VERTEX
  8
7550LEVEL
 62
13
 10
1538.841
 20
-6333.143
 30
-2273.000
 70
    32
  0
SEQEND
  8
7550LEVEL
  0
POLYLINE
  8
7550LEVEL
 62
13
 66
     1
 70
     8
  0
VERTEX
  8
7550LEVEL
 62
13
 10
2303.123
 20
-7161.032
 30
-2273.000
 70
    32
  0
VERTEX
  8
7550LEVEL
 62
13
 10
2292.717
 20
-7140.053
 30
-2273.000
 70
    32
  0
VERTEX
  8
7550LEVEL
 62
13
 10
2286.769
 20
-7125.062
 30
-2273.000
 70
    32
  0
VERTEX
  8
7550LEVEL
 62
13
 10
2277.781
 20
-7105.572
 30
-2273.000
 70
    32
  0
VERTEX
  8
7550LEVEL
 62
13
 10
2269.216
 20
-7092.901
 30
-2273.000
 70
    32
  0
VERTEX
  8
7550LEVEL
 62
13
 10
2264.708
 20
-7087.262
 30
-2273.000
 70
    32
  0
VERTEX
  8
7550LEVEL
 62
13
 10
2259.115
 20
-7078.831
 30
-2273.000
 70
    32
  0
VERTEX
  8
7550LEVEL
 62
13
 10
2258.207
 20
-7073.861
 30
-2273.000
 70
    32
  0
VERTEX
  8
7550LEVEL
 62
13
 10
2257.181
 20
-7062.899
 30
-2273.000
 70
    32
  0
VERTEX
  8
7550LEVEL
 62
13
 10
2255.188
 20
-7046.888
 30
-2273.000
 70
    32
  0
VERTEX
  8
7550LEVEL
 62
13
 10
2253.499
 20
-7034.868
 30
-2273.000
 70
    32
  0
VERTEX
  8
7550LEVEL
 62
13
 10
2250.361
 20
-7018.902
 30
-2273.000
 70
    32
  0
VERTEX
  8
7550LEVEL
 62
13
 10
2248.409
 20
-7010.614
 30
-2273.000
 70
    32
  0
VERTEX
  8
7550LEVEL
 62
13
 10
2247.981
 20
-7005.288
 30
-2273.000
 70
    32
  0
VERTEX
  8
7550LEVEL
 62
13
 10
2248.653
 20
-7003.608
 30
-2273.000
 70
    32
  0
VERTEX
  8
7550LEVEL
 62
13
 10
2252.617
 20
-7005.683
 30
-2273.000
 70
    32
  0
VERTEX
  8
7550LEVEL
 62
13
 10
2260.982
 20
-7015.835
 30
-2273.000
 70
    32
  0
VERTEX
  8
7550LEVEL
 62
13
 10
2271.255
 20
-7029.219
 30
-2273.000
 70
    32
  0
VERTEX
  8
7550LEVEL
 62
13
 10
2280.380
 20
-7043.643
 30
-2273.000
 70
    32
  0
VERTEX
  8
7550LEVEL
 62
13
 10
2290.422
 20
-7060.798
 30
-2273.000
 70
    32
  0
VERTEX
  8
7550LEVEL
 62
13
 10
2298.984
 20
-7073.967
 30
-2273.000
 70
    32
  0
VERTEX
  8
7550LEVEL
 62
13
 10
2311.144
 20
-7097.052
 30
-2273.000
 70
    32
  0
VERTEX
  8
7550LEVEL
 62
13
 10
2317.669
 20
-7109.317
 30
-2273.000
 70
    32
  0
VERTEX
  8
7550LEVEL
 62
13
 10
2326.045
 20
-7121.819
 30
-2273.000
 70
    32
  0
VERTEX
  8
7550LEVEL
 62
13
 10
2330.902
 20
-7130.177
 30
-2273.000
 70
    32
  0
VERTEX
  8
7550LEVEL
 62
13
 10
2335.348
 20
-7136.732
 30
-2273.000
 70
    32
  0
SEQEND
  8
7550LEVEL
  0
POLYLINE
  8
7550LEVEL
 62
13
 66
     1
 70
     8
  0
VERTEX
  8
7550LEVEL
 62
13
 10
2201.343
 20
-7264.161
 30
-2273.000
 70
    32
  0
VERTEX
  8
7550LEVEL
 62
13
 10
2193.400
 20
-7247.491
 30
-2273.000
 70
    32
  0
VERTEX
  8
7550LEVEL
 62
13
 10
2187.827
 20
-7236.005
 30
-2273.000
 70
    32
  0
VERTEX
  8
7550LEVEL
 62
13
 10
2181.418
 20
-7216.395
 30
-2273.000
 70
    32
  0
VERTEX
  8
7550LEVEL
 62
13
 10
2169.764
 20
-7196.407
 30
-2273.000
 70
    32
  0
VERTEX
  8
7550LEVEL
 62
13
 10
2162.198
 20
-7185.660
 30
-2273.000
 70
    32
  0
VERTEX
  8
7550LEVEL
 62
13
 10
2151.916
 20
-7171.849
 30
-2273.000
 70
    32
  0
VERTEX
  8
7550LEVEL
 62
13
 10
2148.129
 20
-7164.928
 30
-2273.000
 70
    32
  0
VERTEX
  8
7550LEVEL
 62
13
 10
2144.235
 20
-7151.696
 30
-2273.000
 70
    32
  0
VERTEX
  8
7550LEVEL
 62
13
 10
2144.578
 20
-7139.156
 30
-2273.000
 70
    32
  0
VERTEX
  8
7550LEVEL
 62
13
 10
2150.625
 20
-7120.944
 30
-2273.000
 70
    32
  0
VERTEX
  8
7550LEVEL
 62
13
 10
2155.500
 20
-7107.574
 30
-2273.000
 70
    32
  0
VERTEX
  8
7550LEVEL
 62
13
 10
2156.614
 20
-7088.319
 30
-2273.000
 70
    32
  0
VERTEX
  8
7550LEVEL
 62
13
 10
2154.371
 20
-7069.639
 30
-2273.000
 70
    32
  0
VERTEX
  8
7550LEVEL
 62
13
 10
2148.982
 20
-7043.065
 30
-2273.000
 70
    32
  0
VERTEX
  8
7550LEVEL
 62
13
 10
2146.418
 20
-7028.037
 30
-2273.000
 70
    32
  0
VERTEX
  8
7550LEVEL
 62
13
 10
2148.620
 20
-7013.244
 30
-2273.000
 70
    32
  0
VERTEX
  8
7550LEVEL
 62
13
 10
2155.086
 20
-6989.260
 30
-2273.000
 70
    32
  0
VERTEX
  8
7550LEVEL
 62
13
 10
2156.494
 20
-6979.651
 30
-2273.000
 70
    32
  0
VERTEX
  8
7550LEVEL
 62
13
 10
2153.927
 20
-6965.369
 30
-2273.000
 70
    32
  0
VERTEX
  8
7550LEVEL
 62
13
 10
2148.715
 20
-6956.034
 30
-2273.000
 70
    32
  0
VERTEX
  8
7550LEVEL
 62
13
 10
2139.618
 20
-6939.231
 30
-2273.000
 70
    32
  0
VERTEX
  8
7550LEVEL
 62
13
 10
2134.352
 20
-6930.991
 30
-2273.000
 70
    32
  0
VERTEX
  8
7550LEVEL
 62
13
 10
2128.575
 20
-6921.146
 30
-2273.000
 70
    32
  0
VERTEX
  8
7550LEVEL
 62
13
 10
2127.427
 20
-6910.771
 30
-2273.000
 70
    32
  0
VERTEX
  8
7550LEVEL
 62
13
 10
2129.791
 20
-6900.946
 30
-2273.000
 70
    32
  0
VERTEX
  8
7550LEVEL
 62
13
 10
2133.582
 20
-6893.037
 30
-2273.000
 70
    32
  0
VERTEX
  8
7550LEVEL
 62
13
 10
2138.271
 20
-6887.002
 30
-2273.000
 70
    32
  0
VERTEX
  8
7550LEVEL
 62
13
 10
2147.959
 20
-6875.013
 30
-2273.000
 70
    32
  0
VERTEX
  8
7550LEVEL
 62
13
 10
2152.701
 20
-6868.133
 30
-2273.000
 70
    32
  0
VERTEX
  8
7550LEVEL
 62
13
 10
2156.748
 20
-6860.901
 30
-2273.000
 70
    32
  0
VERTEX
  8
7550LEVEL
 62
13
 10
2159.473
 20
-6853.227
 30
-2273.000
 70
    32
  0
VERTEX
  8
7550LEVEL
 62
13
 10
2159.065
 20
-6844.596
 30
-2273.000
 70
    32
  0
VERTEX
  8
7550LEVEL
 62
13
 10
2156.195
 20
-6840.157
 30
-2273.000
 70
    32
  0
VERTEX
  8
7550LEVEL
 62
13
 10
2153.837
 20
-6834.406
 30
-2273.000
 70
    32
  0
VERTEX
  8
7550LEVEL
 62
13
 10
2153.439
 20
-6831.538
 30
-2273.000
 70
    32
  0
VERTEX
  8
7550LEVEL
 62
13
 10
2154.532
 20
-6829.173
 30
-2273.000
 70
    32
  0
VERTEX
  8
7550LEVEL
 62
13
 10
2156.308
 20
-6827.975
 30
-2273.000
 70
    32
  0
VERTEX
  8
7550LEVEL
 62
13
 10
2158.613
 20
-6831.905
 30
-2273.000
 70
    32
  0
VERTEX
  8
7550LEVEL
 62
13
 10
2159.793
 20
-6835.990
 30
-2273.000
 70
    32
  0
VERTEX
  8
7550LEVEL
 62
13
 10
2161.867
 20
-6840.526
 30
-2273.000
 70
    32
  0
VERTEX
  8
7550LEVEL
 62
13
 10
2165.272
 20
-6845.683
 30
-2273.000
 70
    32
  0
VERTEX
  8
7550LEVEL
 62
13
 10
2167.267
 20
-6847.363
 30
-2273.000
 70
    32
  0
VERTEX
  8
7550LEVEL
 62
13
 10
2170.070
 20
-6848.378
 30
-2273.000
 70
    32
  0
VERTEX
  8
7550LEVEL
 62
13
 10
2172.540
 20
-6848.028
 30
-2273.000
 70
    32
  0
VERTEX
  8
7550LEVEL
 62
13
 10
2173.904
 20
-6842.111
 30
-2273.000
 70
    32
  0
VERTEX
  8
7550LEVEL
 62
13
 10
2174.377
 20
-6835.245
 30
-2273.000
 70
    32
  0
VERTEX
  8
7550LEVEL
 62
13
 10
2173.356
 20
-6828.374
 30
-2273.000
 70
    32
  0
VERTEX
  8
7550LEVEL
 62
13
 10
2168.674
 20
-6818.335
 30
-2273.000
 70
    32
  0
VERTEX
  8
7550LEVEL
 62
13
 10
2162.355
 20
-6812.430
 30
-2273.000
 70
    32
  0
VERTEX
  8
7550LEVEL
 62
13
 10
2154.692
 20
-6806.719
 30
-2273.000
 70
    32
  0
VERTEX
  8
7550LEVEL
 62
13
 10
2141.195
 20
-6795.673
 30
-2273.000
 70
    32
  0
VERTEX
  8
7550LEVEL
 62
13
 10
2134.146
 20
-6787.954
 30
-2273.000
 70
    32
  0
VERTEX
  8
7550LEVEL
 62
13
 10
2126.283
 20
-6776.808
 30
-2273.000
 70
    32
  0
VERTEX
  8
7550LEVEL
 62
13
 10
2116.168
 20
-6766.222
 30
-2273.000
 70
    32
  0
VERTEX
  8
7550LEVEL
 62
13
 10
2109.692
 20
-6759.689
 30
-2273.000
 70
    32
  0
VERTEX
  8
7550LEVEL
 62
13
 10
2100.282
 20
-6752.549
 30
-2273.000
 70
    32
  0
VERTEX
  8
7550LEVEL
 62
13
 10
2091.011
 20
-6745.679
 30
-2273.000
 70
    32
  0
VERTEX
  8
7550LEVEL
 62
13
 10
2086.280
 20
-6738.157
 30
-2273.000
 70
    32
  0
VERTEX
  8
7550LEVEL
 62
13
 10
2080.546
 20
-6716.120
 30
-2273.000
 70
    32
  0
VERTEX
  8
7550LEVEL
 62
13
 10
2075.630
 20
-6701.850
 30
-2273.000
 70
    32
  0
VERTEX
  8
7550LEVEL
 62
13
 10
2069.056
 20
-6680.935
 30
-2273.000
 70
    32
  0
VERTEX
  8
7550LEVEL
 62
13
 10
2067.172
 20
-6670.736
 30
-2273.000
 70
    32
  0
VERTEX
  8
7550LEVEL
 62
13
 10
2065.798
 20
-6653.891
 30
-2273.000
 70
    32
  0
VERTEX
  8
7550LEVEL
 62
13
 10
2066.264
 20
-6646.099
 30
-2273.000
 70
    32
  0
VERTEX
  8
7550LEVEL
 62
13
 10
2067.571
 20
-6642.521
 30
-2273.000
 70
    32
  0
VERTEX
  8
7550LEVEL
 62
13
 10
2069.533
 20
-6642.239
 30
-2273.000
 70
    32
  0
VERTEX
  8
7550LEVEL
 62
13
 10
2074.837
 20
-6645.114
 30
-2273.000
 70
    32
  0
VERTEX
  8
7550LEVEL
 62
13
 10
2081.238
 20
-6653.378
 30
-2273.000
 70
    32
  0
VERTEX
  8
7550LEVEL
 62
13
 10
2088.201
 20
-6662.650
 30
-2273.000
 70
    32
  0
VERTEX
  8
7550LEVEL
 62
13
 10
2095.540
 20
-6675.675
 30
-2273.000
 70
    32
  0
VERTEX
  8
7550LEVEL
 62
13
 10
2099.353
 20
-6683.880
 30
-2273.000
 70
    32
  0
VERTEX
  8
7550LEVEL
 62
13
 10
2102.685
 20
-6695.606
 30
-2273.000
 70
    32
  0
VERTEX
  8
7550LEVEL
 62
13
 10
2106.300
 20
-6711.713
 30
-2273.000
 70
    32
  0
VERTEX
  8
7550LEVEL
 62
13
 10
2108.160
 20
-6720.628
 30
-2273.000
 70
    32
  0
VERTEX
  8
7550LEVEL
 62
13
 10
2110.381
 20
-6728.529
 30
-2273.000
 70
    32
  0
VERTEX
  8
7550LEVEL
 62
13
 10
2112.753
 20
-6733.215
 30
-2273.000
 70
    32
  0
VERTEX
  8
7550LEVEL
 62
13
 10
2116.510
 20
-6737.429
 30
-2273.000
 70
    32
  0
VERTEX
  8
7550LEVEL
 62
13
 10
2118.984
 20
-6738.751
 30
-2273.000
 70
    32
  0
VERTEX
  8
7550LEVEL
 62
13
 10
2120.865
 20
-6738.778
 30
-2273.000
 70
    32
  0
VERTEX
  8
7550LEVEL
 62
13
 10
2124.264
 20
-6737.427
 30
-2273.000
 70
    32
  0
VERTEX
  8
7550LEVEL
 62
13
 10
2125.020
 20
-6734.692
 30
-2273.000
 70
    32
  0
VERTEX
  8
7550LEVEL
 62
13
 10
2124.371
 20
-6732.321
 30
-2273.000
 70
    32
  0
VERTEX
  8
7550LEVEL
 62
13
 10
2122.255
 20
-6722.977
 30
-2273.000
 70
    32
  0
VERTEX
  8
7550LEVEL
 62
13
 10
2117.700
 20
-6707.942
 30
-2273.000
 70
    32
  0
VERTEX
  8
7550LEVEL
 62
13
 10
2117.641
 20
-6685.527
 30
-2273.000
 70
    32
  0
VERTEX
  8
7550LEVEL
 62
13
 10
2111.627
 20
-6666.615
 30
-2273.000
 70
    32
  0
VERTEX
  8
7550LEVEL
 62
13
 10
2099.378
 20
-6643.410
 30
-2273.000
 70
    32
  0
VERTEX
  8
7550LEVEL
 62
13
 10
2089.980
 20
-6624.536
 30
-2273.000
 70
    32
  0
VERTEX
  8
7550LEVEL
 62
13
 10
2087.655
 20
-6614.913
 30
-2273.000
 70
    32
  0
VERTEX
  8
7550LEVEL
 62
13
 10
2089.687
 20
-6606.141
 30
-2273.000
 70
    32
  0
VERTEX
  8
7550LEVEL
 62
13
 10
2093.427
 20
-6601.248
 30
-2273.000
 70
    32
  0
VERTEX
  8
7550LEVEL
 62
13
 10
2097.267
 20
-6599.072
 30
-2273.000
 70
    32
  0
VERTEX
  8
7550LEVEL
 62
13
 10
2102.776
 20
-6597.638
 30
-2273.000
 70
    32
  0
VERTEX
  8
7550LEVEL
 62
13
 10
2110.140
 20
-6600.780
 30
-2273.000
 70
    32
  0
VERTEX
  8
7550LEVEL
 62
13
 10
2116.163
 20
-6606.037
 30
-2273.000
 70
    32
  0
VERTEX
  8
7550LEVEL
 62
13
 10
2126.250
 20
-6618.753
 30
-2273.000
 70
    32
  0
VERTEX
  8
7550LEVEL
 62
13
 10
2133.455
 20
-6627.348
 30
-2273.000
 70
    32
  0
VERTEX
  8
7550LEVEL
 62
13
 10
2140.069
 20
-6634.150
 30
-2273.000
 70
    32
  0
VERTEX
  8
7550LEVEL
 62
13
 10
2146.669
 20
-6645.182
 30
-2273.000
 70
    32
  0
VERTEX
  8
7550LEVEL
 62
13
 10
2149.223
 20
-6657.363
 30
-2273.000
 70
    32
  0
VERTEX
  8
7550LEVEL
 62
13
 10
2150.353
 20
-6669.799
 30
-2273.000
 70
    32
  0
VERTEX
  8
7550LEVEL
 62
13
 10
2150.868
 20
-6684.491
 30
-2273.000
 70
    32
  0
VERTEX
  8
7550LEVEL
 62
13
 10
2151.708
 20
-6691.621
 30
-2273.000
 70
    32
  0
VERTEX
  8
7550LEVEL
 62
13
 10
2156.492
 20
-6700.964
 30
-2273.000
 70
    32
  0
VERTEX
  8
7550LEVEL
 62
13
 10
2164.151
 20
-6707.919
 30
-2273.000
 70
    32
  0
VERTEX
  8
7550LEVEL
 62
13
 10
2176.801
 20
-6716.494
 30
-2273.000
 70
    32
  0
VERTEX
  8
7550LEVEL
 62
13
 10
2186.962
 20
-6725.308
 30
-2273.000
 70
    32
  0
VERTEX
  8
7550LEVEL
 62
13
 10
2198.773
 20
-6737.175
 30
-2273.000
 70
    32
  0
VERTEX
  8
7550LEVEL
 62
13
 10
2206.868
 20
-6744.798
 30
-2273.000
 70
    32
  0
VERTEX
  8
7550LEVEL
 62
13
 10
2213.100
 20
-6749.837
 30
-2273.000
 70
    32
  0
VERTEX
  8
7550LEVEL
 62
13
 10
2216.163
 20
-6750.783
 30
-2273.000
 70
    32
  0
VERTEX
  8
7550LEVEL
 62
13
 10
2216.112
 20
-6745.548
 30
-2273.000
 70
    32
  0
VERTEX
  8
7550LEVEL
 62
13
 10
2213.534
 20
-6739.835
 30
-2273.000
 70
    32
  0
VERTEX
  8
7550LEVEL
 62
13
 10
2208.810
 20
-6730.572
 30
-2273.000
 70
    32
  0
VERTEX
  8
7550LEVEL
 62
13
 10
2207.151
 20
-6726.844
 30
-2273.000
 70
    32
  0
VERTEX
  8
7550LEVEL
 62
13
 10
2208.045
 20
-6724.627
 30
-2273.000
 70
    32
  0
VERTEX
  8
7550LEVEL
 62
13
 10
2209.571
 20
-6723.677
 30
-2273.000
 70
    32
  0
VERTEX
  8
7550LEVEL
 62
13
 10
2215.610
 20
-6727.123
 30
-2273.000
 70
    32
  0
VERTEX
  8
7550LEVEL
 62
13
 10
2221.397
 20
-6731.562
 30
-2273.000
 70
    32
  0
VERTEX
  8
7550LEVEL
 62
13
 10
2233.484
 20
-6738.881
 30
-2273.000
 70
    32
  0
VERTEX
  8
7550LEVEL
 62
13
 10
2241.573
 20
-6745.081
 30
-2273.000
 70
    32
  0
VERTEX
  8
7550LEVEL
 62
13
 10
2250.226
 20
-6752.537
 30
-2273.000
 70
    32
  0
VERTEX
  8
7550LEVEL
 62
13
 10
2254.148
 20
-6757.806
 30
-2273.000
 70
    32
  0
VERTEX
  8
7550LEVEL
 62
13
 10
2257.379
 20
-6764.645
 30
-2273.000
 70
    32
  0
VERTEX
  8
7550LEVEL
 62
13
 10
2258.300
 20
-6777.050
 30
-2273.000
 70
    32
  0
VERTEX
  8
7550LEVEL
 62
13
 10
2256.375
 20
-6786.549
 30
-2273.000
 70
    32
  0
VERTEX
  8
7550LEVEL
 62
13
 10
2253.229
 20
-6795.157
 30
-2273.000
 70
    32
  0
VERTEX
  8
7550LEVEL
 62
13
 10
2248.435
 20
-6799.718
 30
-2273.000
 70
    32
  0
VERTEX
  8
7550LEVEL
 62
13
 10
2242.929
 20
-6803.073
 30
-2273.000
 70
    32
  0
VERTEX
  8
7550LEVEL
 62
13
 10
2237.434
 20
-6806.109
 30
-2273.000
 70
    32
  0
VERTEX
  8
7550LEVEL
 62
13
 10
2232.188
 20
-6809.145
 30
-2273.000
 70
    32
  0
VERTEX
  8
7550LEVEL
 62
13
 10
2227.417
 20
-6812.821
 30
-2273.000
 70
    32
  0
VERTEX
  8
7550LEVEL
 62
13
 10
2222.506
 20
-6819.641
 30
-2273.000
 70
    32
  0
VERTEX
  8
7550LEVEL
 62
13
 10
2218.581
 20
-6826.286
 30
-2273.000
 70
    32
  0
VERTEX
  8
7550LEVEL
 62
13
 10
2215.515
 20
-6829.002
 30
-2273.000
 70
    32
  0
VERTEX
  8
7550LEVEL
 62
13
 10
2212.019
 20
-6829.806
 30
-2273.000
 70
    32
  0
VERTEX
  8
7550LEVEL
 62
13
 10
2206.615
 20
-6826.880
 30
-2273.000
 70
    32
  0
VERTEX
  8
7550LEVEL
 62
13
 10
2203.708
 20
-6824.143
 30
-2273.000
 70
    32
  0
VERTEX
  8
7550LEVEL
 62
13
 10
2199.365
 20
-6816.891
 30
-2273.000
 70
    32
  0
VERTEX
  8
7550LEVEL
 62
13
 10
2197.084
 20
-6811.827
 30
-2273.000
 70
    32
  0
VERTEX
  8
7550LEVEL
 62
13
 10
2192.092
 20
-6804.872
 30
-2273.000
 70
    32
  0
VERTEX
  8
7550LEVEL
 62
13
 10
2188.803
 20
-6803.288
 30
-2273.000
 70
    32
  0
VERTEX
  8
7550LEVEL
 62
13
 10
2185.206
 20
-6804.539
 30
-2273.000
 70
    32
  0
VERTEX
  8
7550LEVEL
 62
13
 10
2181.335
 20
-6809.840
 30
-2273.000
 70
    32
  0
VERTEX
  8
7550LEVEL
 62
13
 10
2181.040
 20
-6817.194
 30
-2273.000
 70
    32
  0
VERTEX
  8
7550LEVEL
 62
13
 10
2183.250
 20
-6830.997
 30
-2273.000
 70
    32
  0
VERTEX
  8
7550LEVEL
 62
13
 10
2186.983
 20
-6844.845
 30
-2273.000
 70
    32
  0
VERTEX
  8
7550LEVEL
 62
13
 10
2187.892
 20
-6852.234
 30
-2273.000
 70
    32
  0
VERTEX
  8
7550LEVEL
 62
13
 10
2186.547
 20
-6863.844
 30
-2273.000
 70
    32
  0
VERTEX
  8
7550LEVEL
 62
13
 10
2188.348
 20
-6869.514
 30
-2273.000
 70
    32
  0
VERTEX
  8
7550LEVEL
 62
13
 10
2197.027
 20
-6880.672
 30
-2273.000
 70
    32
  0
VERTEX
  8
7550LEVEL
 62
13
 10
2207.395
 20
-6892.683
 30
-2273.000
 70
    32
  0
VERTEX
  8
7550LEVEL
 62
13
 10
2219.192
 20
-6906.112
 30
-2273.000
 70
    32
  0
VERTEX
  8
7550LEVEL
 62
13
 10
2228.993
 20
-6915.194
 30
-2273.000
 70
    32
  0
VERTEX
  8
7550LEVEL
 62
13
 10
2243.291
 20
-6924.900
 30
-2273.000
 70
    32
  0
VERTEX
  8
7550LEVEL
 62
13
 10
2255.114
 20
-6930.864
 30
-2273.000
 70
    32
  0
VERTEX
  8
7550LEVEL
 62
13
 10
2268.838
 20
-6936.716
 30
-2273.000
 70
    32
  0
VERTEX
  8
7550LEVEL
 62
13
 10
2286.269
 20
-6944.213
 30
-2273.000
 70
    32
  0
VERTEX
  8
7550LEVEL
 62
13
 10
2299.413
 20
-6950.869
 30
-2273.000
 70
    32
  0
VERTEX
  8
7550LEVEL
 62
13
 10
2314.788
 20
-6957.104
 30
-2273.000
 70
    32
  0
VERTEX
  8
7550LEVEL
 62
13
 10
2323.064
 20
-6961.304
 30
-2273.000
 70
    32
  0
VERTEX
  8
7550LEVEL
 62
13
 10
2329.631
 20
-6967.459
 30
-2273.000
 70
    32
  0
VERTEX
  8
7550LEVEL
 62
13
 10
2331.993
 20
-6972.215
 30
-2273.000
 70
    32
  0
VERTEX
  8
7550LEVEL
 62
13
 10
2332.933
 20
-6982.311
 30
-2273.000
 70
    32
  0
VERTEX
  8
7550LEVEL
 62
13
 10
2331.466
 20
-6991.592
 30
-2273.000
 70
    32
  0
VERTEX
  8
7550LEVEL
 62
13
 10
2329.273
 20
-7000.979
 30
-2273.000
 70
    32
  0
VERTEX
  8
7550LEVEL
 62
13
 10
2328.578
 20
-7014.463
 30
-2273.000
 70
    32
  0
VERTEX
  8
7550LEVEL
 62
13
 10
2329.239
 20
-7021.602
 30
-2273.000
 70
    32
  0
VERTEX
  8
7550LEVEL
 62
13
 10
2333.669
 20
-7029.720
 30
-2273.000
 70
    32
  0
VERTEX
  8
7550LEVEL
 62
13
 10
2345.172
 20
-7038.838
 30
-2273.000
 70
    32
  0
VERTEX
  8
7550LEVEL
 62
13
 10
2355.242
 20
-7045.363
 30
-2273.000
 70
    32
  0
VERTEX
  8
7550LEVEL
 62
13
 10
2367.834
 20
-7056.028
 30
-2273.000
 70
    32
  0
VERTEX
  8
7550LEVEL
 62
13
 10
2375.551
 20
-7066.228
 30
-2273.000
 70
    32
  0
VERTEX
  8
7550LEVEL
 62
13
 10
2383.934
 20
-7076.738
 30
-2273.000
 70
    32
  0
VERTEX
  8
7550LEVEL
 62
13
 10
2389.335
 20
-7083.327
 30
-2273.000
 70
    32
  0
VERTEX
  8
7550LEVEL
 62
13
 10
2394.169
 20
-7089.654
 30
-2273.000
 70
    32
  0
SEQEND
  8
7550LEVEL
  0
POLYLINE
  8
7550LEVEL
 62
13
 66
     1
 70
     8
  0
VERTEX
  8
7550LEVEL
 62
13
 10
2390.577
 20
-6902.483
 30
-2273.000
 70
    32
  0
VERTEX
  8
7550LEVEL
 62
13
 10
2381.752
 20
-6887.711
 30
-2273.000
 70
    32
  0
VERTEX
  8
7550LEVEL
 62
13
 10
2373.858
 20
-6874.107
 30
-2273.000
 70
    32
  0
VERTEX
  8
7550LEVEL
 62
13
 10
2364.134
 20
-6862.796
 30
-2273.000
 70
    32
  0
VERTEX
  8
7550LEVEL
 62
13
 10
2349.463
 20
-6848.839
 30
-2273.000
 70
    32
  0
VERTEX
  8
7550LEVEL
 62
13
 10
2337.317
 20
-6841.440
 30
-2273.000
 70
    32
  0
VERTEX
  8
7550LEVEL
 62
13
 10
2323.596
 20
-6831.677
 30
-2273.000
 70
    32
  0
VERTEX
  8
7550LEVEL
 62
13
 10
2317.383
 20
-6826.748
 30
-2273.000
 70
    32
  0
VERTEX
  8
7550LEVEL
 62
13
 10
2315.007
 20
-6825.973
 30
-2273.000
 70
    32
  0
VERTEX
  8
7550LEVEL
 62
13
 10
2313.750
 20
-6826.785
 30
-2273.000
 70
    32
  0
VERTEX
  8
7550LEVEL
 62
13
 10
2312.038
 20
-6829.735
 30
-2273.000
 70
    32
  0
VERTEX
  8
7550LEVEL
 62
13
 10
2308.185
 20
-6832.727
 30
-2273.000
 70
    32
  0
VERTEX
  8
7550LEVEL
 62
13
 10
2296.190
 20
-6830.365
 30
-2273.000
 70
    32
  0
VERTEX
  8
7550LEVEL
 62
13
 10
2285.536
 20
-6826.137
 30
-2273.000
 70
    32
  0
VERTEX
  8
7550LEVEL
 62
13
 10
2275.339
 20
-6816.356
 30
-2273.000
 70
    32
  0
VERTEX
  8
7550LEVEL
 62
13
 10
2271.756
 20
-6807.794
 30
-2273.000
 70
    32
  0
VERTEX
  8
7550LEVEL
 62
13
 10
2271.890
 20
-6795.472
 30
-2273.000
 70
    32
  0
VERTEX
  8
7550LEVEL
 62
13
 10
2276.106
 20
-6785.385
 30
-2273.000
 70
    32
  0
VERTEX
  8
7550LEVEL
 62
13
 10
2277.387
 20
-6766.688
 30
-2273.000
 70
    32
  0
VERTEX
  8
7550LEVEL
 62
13
 10
2274.469
 20
-6756.017
 30
-2273.000
 70
    32
  0
VERTEX
  8
7550LEVEL
 62
13
 10
2267.086
 20
-6738.683
 30
-2273.000
 70
    32
  0
VERTEX
  8
7550LEVEL
 62
13
 10
2261.839
 20
-6728.133
 30
-2273.000
 70
    32
  0
VERTEX
  8
7550LEVEL
 62
13
 10
2262.010
 20
-6724.780
 30
-2273.000
 70
    32
  0
VERTEX
  8
7550LEVEL
 62
13
 10
2265.549
 20
-6725.867
 30
-2273.000
 70
    32
  0
VERTEX
  8
7550LEVEL
 62
13
 10
2270.704
 20
-6731.708
 30
-2273.000
 70
    32
  0
VERTEX
  8
7550LEVEL
 62
13
 10
2286.343
 20
-6750.466
 30
-2273.000
 70
    32
  0
VERTEX
  8
7550LEVEL
 62
13
 10
2292.002
 20
-6757.234
 30
-2273.000
 70
    32
  0
VERTEX
  8
7550LEVEL
 62
13
 10
2298.480
 20
-6760.602
 30
-2273.000
 70
    32
  0
VERTEX
  8
7550LEVEL
 62
13
 10
2311.278
 20
-6763.793
 30
-2273.000
 70
    32
  0
VERTEX
  8
7550LEVEL
 62
13
 10
2318.421
 20
-6764.555
 30
-2273.000
 70
    32
  0
VERTEX
  8
7550LEVEL
 62
13
 10
2325.852
 20
-6763.118
 30
-2273.000
 70
    32
  0
VERTEX
  8
7550LEVEL
 62
13
 10
2327.579
 20
-6761.522
 30
-2273.000
 70
    32
  0
VERTEX
  8
7550LEVEL
 62
13
 10
2329.560
 20
-6758.682
 30
-2273.000
 70
    32
  0
VERTEX
  8
7550LEVEL
 62
13
 10
2329.617
 20
-6756.592
 30
-2273.000
 70
    32
  0
VERTEX
  8
7550LEVEL
 62
13
 10
2328.615
 20
-6750.079
 30
-2273.000
 70
    32
  0
VERTEX
  8
7550LEVEL
 62
13
 10
2323.959
 20
-6741.324
 30
-2273.000
 70
    32
  0
VERTEX
  8
7550LEVEL
 62
13
 10
2312.107
 20
-6726.571
 30
-2273.000
 70
    32
  0
VERTEX
  8
7550LEVEL
 62
13
 10
2298.484
 20
-6714.688
 30
-2273.000
 70
    32
  0
VERTEX
  8
7550LEVEL
 62
13
 10
2289.945
 20
-6708.885
 30
-2273.000
 70
    32
  0
VERTEX
  8
7550LEVEL
 62
13
 10
2270.930
 20
-6693.509
 30
-2273.000
 70
    32
  0
VERTEX
  8
7550LEVEL
 62
13
 10
2261.343
 20
-6682.965
 30
-2273.000
 70
    32
  0
VERTEX
  8
7550LEVEL
 62
13
 10
2242.065
 20
-6663.069
 30
-2273.000
 70
    32
  0
VERTEX
  8
7550LEVEL
 62
13
 10
2222.742
 20
-6644.696
 30
-2273.000
 70
    32
  0
VERTEX
  8
7550LEVEL
 62
13
 10
2212.745
 20
-6634.767
 30
-2273.000
 70
    32
  0
VERTEX
  8
7550LEVEL
 62
13
 10
2194.595
 20
-6619.554
 30
-2273.000
 70
    32
  0
VERTEX
  8
7550LEVEL
 62
13
 10
2180.460
 20
-6611.651
 30
-2273.000
 70
    32
  0
VERTEX
  8
7550LEVEL
 62
13
 10
2157.910
 20
-6599.278
 30
-2273.000
 70
    32
  0
VERTEX
  8
7550LEVEL
 62
13
 10
2143.797
 20
-6590.738
 30
-2273.000
 70
    32
  0
VERTEX
  8
7550LEVEL
 62
13
 10
2127.295
 20
-6579.571
 30
-2273.000
 70
    32
  0
VERTEX
  8
7550LEVEL
 62
13
 10
2116.396
 20
-6571.431
 30
-2273.000
 70
    32
  0
VERTEX
  8
7550LEVEL
 62
13
 10
2102.706
 20
-6558.542
 30
-2273.000
 70
    32
  0
VERTEX
  8
7550LEVEL
 62
13
 10
2094.467
 20
-6549.724
 30
-2273.000
 70
    32
  0
VERTEX
  8
7550LEVEL
 62
13
 10
2080.839
 20
-6539.086
 30
-2273.000
 70
    32
  0
VERTEX
  8
7550LEVEL
 62
13
 10
2071.465
 20
-6532.911
 30
-2273.000
 70
    32
  0
VERTEX
  8
7550LEVEL
 62
13
 10
2061.627
 20
-6523.112
 30
-2273.000
 70
    32
  0
VERTEX
  8
7550LEVEL
 62
13
 10
2056.771
 20
-6511.589
 30
-2273.000
 70
    32
  0
VERTEX
  8
7550LEVEL
 62
13
 10
2055.251
 20
-6494.046
 30
-2273.000
 70
    32
  0
VERTEX
  8
7550LEVEL
 62
13
 10
2052.135
 20
-6480.359
 30
-2273.000
 70
    32
  0
VERTEX
  8
7550LEVEL
 62
13
 10
2044.238
 20
-6459.251
 30
-2273.000
 70
    32
  0
VERTEX
  8
7550LEVEL
 62
13
 10
2034.382
 20
-6443.012
 30
-2273.000
 70
    32
  0
VERTEX
  8
7550LEVEL
 62
13
 10
2018.891
 20
-6416.203
 30
-2273.000
 70
    32
  0
VERTEX
  8
7550LEVEL
 62
13
 10
2011.797
 20
-6401.755
 30
-2273.000
 70
    32
  0
VERTEX
  8
7550LEVEL
 62
13
 10
2002.674
 20
-6386.584
 30
-2273.000
 70
    32
  0
VERTEX
  8
7550LEVEL
 62
13
 10
1998.491
 20
-6376.049
 30
-2273.000
 70
    32
  0
VERTEX
  8
7550LEVEL
 62
13
 10
1999.665
 20
-6370.708
 30
-2273.000
 70
    32
  0
VERTEX
  8
7550LEVEL
 62
13
 10
2003.238
 20
-6362.340
 30
-2273.000
 70
    32
  0
VERTEX
  8
7550LEVEL
 62
13
 10
2007.784
 20
-6354.613
 30
-2273.000
 70
    32
  0
VERTEX
  8
7550LEVEL
 62
13
 10
2014.385
 20
-6343.061
 30
-2273.000
 70
    32
  0
VERTEX
  8
7550LEVEL
 62
13
 10
2019.132
 20
-6334.688
 30
-2273.000
 70
    32
  0
VERTEX
  8
7550LEVEL
 62
13
 10
2025.556
 20
-6319.731
 30
-2273.000
 70
    32
  0
VERTEX
  8
7550LEVEL
 62
13
 10
2028.021
 20
-6306.542
 30
-2273.000
 70
    32
  0
VERTEX
  8
7550LEVEL
 62
13
 10
2025.732
 20
-6298.133
 30
-2273.000
 70
    32
  0
VERTEX
  8
7550LEVEL
 62
13
 10
2014.061
 20
-6283.122
 30
-2273.000
 70
    32
  0
VERTEX
  8
7550LEVEL
 62
13
 10
2003.384
 20
-6268.364
 30
-2273.000
 70
    32
  0
VERTEX
  8
7550LEVEL
 62
13
 10
1996.886
 20
-6259.552
 30
-2273.000
 70
    32
  0
VERTEX
  8
7550LEVEL
 62
13
 10
1991.394
 20
-6250.674
 30
-2273.000
 70
    32
  0
VERTEX
  8
7550LEVEL
 62
13
 10
1992.195
 20
-6241.082
 30
-2273.000
 70
    32
  0
VERTEX
  8
7550LEVEL
 62
13
 10
1995.065
 20
-6234.354
 30
-2273.000
 70
    32
  0
VERTEX
  8
7550LEVEL
 62
13
 10
1998.957
 20
-6223.081
 30
-2273.000
 70
    32
  0
VERTEX
  8
7550LEVEL
 62
13
 10
1999.053
 20
-6210.292
 30
-2273.000
 70
    32
  0
VERTEX
  8
7550LEVEL
 62
13
 10
1998.473
 20
-6202.596
 30
-2273.000
 70
    32
  0
VERTEX
  8
7550LEVEL
 62
13
 10
1997.702
 20
-6192.809
 30
-2273.000
 70
    32
  0
VERTEX
  8
7550LEVEL
 62
13
 10
1996.891
 20
-6183.052
 30
-2273.000
 70
    32
  0
VERTEX
  8
7550LEVEL
 62
13
 10
1996.381
 20
-6175.367
 30
-2273.000
 70
    32
  0
VERTEX
  8
7550LEVEL
 62
13
 10
1997.144
 20
-6170.642
 30
-2273.000
 70
    32
  0
VERTEX
  8
7550LEVEL
 62
13
 10
1999.358
 20
-6169.366
 30
-2273.000
 70
    32
  0
VERTEX
  8
7550LEVEL
 62
13
 10
2002.043
 20
-6169.972
 30
-2273.000
 70
    32
  0
VERTEX
  8
7550LEVEL
 62
13
 10
2009.051
 20
-6178.219
 30
-2273.000
 70
    32
  0
VERTEX
  8
7550LEVEL
 62
13
 10
2014.625
 20
-6186.291
 30
-2273.000
 70
    32
  0
VERTEX
  8
7550LEVEL
 62
13
 10
2022.743
 20
-6201.528
 30
-2273.000
 70
    32
  0
VERTEX
  8
7550LEVEL
 62
13
 10
2027.876
 20
-6213.341
 30
-2273.000
 70
    32
  0
VERTEX
  8
7550LEVEL
 62
13
 10
2032.852
 20
-6224.775
 30
-2273.000
 70
    32
  0
VERTEX
  8
7550LEVEL
 62
13
 10
2040.398
 20
-6240.995
 30
-2273.000
 70
    32
  0
VERTEX
  8
7550LEVEL
 62
13
 10
2047.412
 20
-6258.667
 30
-2273.000
 70
    32
  0
VERTEX
  8
7550LEVEL
 62
13
 10
2053.365
 20
-6272.165
 30
-2273.000
 70
    32
  0
VERTEX
  8
7550LEVEL
 62
13
 10
2057.406
 20
-6280.510
 30
-2273.000
 70
    32
  0
VERTEX
  8
7550LEVEL
 62
13
 10
2065.087
 20
-6295.328
 30
-2273.000
 70
    32
  0
VERTEX
  8
7550LEVEL
 62
13
 10
2071.349
 20
-6303.322
 30
-2273.000
 70
    32
  0
VERTEX
  8
7550LEVEL
 62
13
 10
2082.539
 20
-6319.188
 30
-2273.000
 70
    32
  0
VERTEX
  8
7550LEVEL
 62
13
 10
2090.967
 20
-6333.759
 30
-2273.000
 70
    32
  0
VERTEX
  8
7550LEVEL
 62
13
 10
2094.100
 20
-6340.051
 30
-2273.000
 70
    32
  0
VERTEX
  8
7550LEVEL
 62
13
 10
2099.701
 20
-6349.158
 30
-2273.000
 70
    32
  0
VERTEX
  8
7550LEVEL
 62
13
 10
2108.113
 20
-6359.709
 30
-2273.000
 70
    32
  0
VERTEX
  8
7550LEVEL
 62
13
 10
2118.295
 20
-6368.135
 30
-2273.000
 70
    32
  0
VERTEX
  8
7550LEVEL
 62
13
 10
2133.736
 20
-6380.960
 30
-2273.000
 70
    32
  0
VERTEX
  8
7550LEVEL
 62
13
 10
2142.935
 20
-6388.816
 30
-2273.000
 70
    32
  0
VERTEX
  8
7550LEVEL
 62
13
 10
2150.874
 20
-6398.230
 30
-2273.000
 70
    32
  0
VERTEX
  8
7550LEVEL
 62
13
 10
2152.705
 20
-6409.524
 30
-2273.000
 70
    32
  0
VERTEX
  8
7550LEVEL
 62
13
 10
2152.088
 20
-6420.530
 30
-2273.000
 70
    32
  0
VERTEX
  8
7550LEVEL
 62
13
 10
2151.606
 20
-6430.133
 30
-2273.000
 70
    32
  0
VERTEX
  8
7550LEVEL
 62
13
 10
2149.440
 20
-6440.307
 30
-2273.000
 70
    32
  0
VERTEX
  8
7550LEVEL
 62
13
 10
2145.749
 20
-6448.266
 30
-2273.000
 70
    32
  0
VERTEX
  8
7550LEVEL
 62
13
 10
2142.591
 20
-6446.274
 30
-2273.000
 70
    32
  0
VERTEX
  8
7550LEVEL
 62
13
 10
2132.842
 20
-6433.679
 30
-2273.000
 70
    32
  0
VERTEX
  8
7550LEVEL
 62
13
 10
2127.275
 20
-6423.367
 30
-2273.000
 70
    32
  0
VERTEX
  8
7550LEVEL
 62
13
 10
2121.848
 20
-6412.827
 30
-2273.000
 70
    32
  0
VERTEX
  8
7550LEVEL
 62
13
 10
2116.056
 20
-6407.213
 30
-2273.000
 70
    32
  0
VERTEX
  8
7550LEVEL
 62
13
 10
2113.575
 20
-6407.881
 30
-2273.000
 70
    32
  0
VERTEX
  8
7550LEVEL
 62
13
 10
2110.579
 20
-6413.524
 30
-2273.000
 70
    32
  0
VERTEX
  8
7550LEVEL
 62
13
 10
2112.284
 20
-6421.064
 30
-2273.000
 70
    32
  0
VERTEX
  8
7550LEVEL
 62
13
 10
2117.321
 20
-6432.081
 30
-2273.000
 70
    32
  0
VERTEX
  8
7550LEVEL
 62
13
 10
2124.393
 20
-6447.165
 30
-2273.000
 70
    32
  0
VERTEX
  8
7550LEVEL
 62
13
 10
2133.129
 20
-6464.733
 30
-2273.000
 70
    32
  0
VERTEX
  8
7550LEVEL
 62
13
 10
2137.000
 20
-6476.183
 30
-2273.000
 70
    32
  0
VERTEX
  8
7550LEVEL
 62
13
 10
2142.794
 20
-6498.051
 30
-2273.000
 70
    32
  0
VERTEX
  8
7550LEVEL
 62
13
 10
2146.825
 20
-6512.049
 30
-2273.000
 70
    32
  0
VERTEX
  8
7550LEVEL
 62
13
 10
2151.561
 20
-6532.162
 30
-2273.000
 70
    32
  0
VERTEX
  8
7550LEVEL
 62
13
 10
2154.935
 20
-6543.112
 30
-2273.000
 70
    32
  0
VERTEX
  8
7550LEVEL
 62
13
 10
2156.910
 20
-6556.098
 30
-2273.000
 70
    32
  0
VERTEX
  8
7550LEVEL
 62
13
 10
2160.897
 20
-6562.870
 30
-2273.000
 70
    32
  0
VERTEX
  8
7550LEVEL
 62
13
 10
2169.379
 20
-6570.515
 30
-2273.000
 70
    32
  0
VERTEX
  8
7550LEVEL
 62
13
 10
2188.504
 20
-6577.620
 30
-2273.000
 70
    32
  0
VERTEX
  8
7550LEVEL
 62
13
 10
2202.464
 20
-6581.372
 30
-2273.000
 70
    32
  0
VERTEX
  8
7550LEVEL
 62
13
 10
2232.217
 20
-6591.670
 30
-2273.000
 70
    32
  0
VERTEX
  8
7550LEVEL
 62
13
 10
2249.472
 20
-6598.430
 30
-2273.000
 70
    32
  0
VERTEX
  8
7550LEVEL
 62
13
 10
2275.178
 20
-6610.376
 30
-2273.000
 70
    32
  0
VERTEX
  8
7550LEVEL
 62
13
 10
2285.966
 20
-6616.118
 30
-2273.000
 70
    32
  0
VERTEX
  8
7550LEVEL
 62
13
 10
2298.750
 20
-6623.290
 30
-2273.000
 70
    32
  0
VERTEX
  8
7550LEVEL
 62
13
 10
2310.886
 20
-6630.758
 30
-2273.000
 70
    32
  0
VERTEX
  8
7550LEVEL
 62
13
 10
2324.977
 20
-6639.935
 30
-2273.000
 70
    32
  0
VERTEX
  8
7550LEVEL
 62
13
 10
2332.362
 20
-6648.273
 30
-2273.000
 70
    32
  0
VERTEX
  8
7550LEVEL
 62
13
 10
2341.431
 20
-6658.955
 30
-2273.000
 70
    32
  0
VERTEX
  8
7550LEVEL
 62
13
 10
2347.600
 20
-6668.074
 30
-2273.000
 70
    32
  0
VERTEX
  8
7550LEVEL
 62
13
 10
2348.695
 20
-6670.795
 30
-2273.000
 70
    32
  0
VERTEX
  8
7550LEVEL
 62
13
 10
2348.140
 20
-6672.883
 30
-2273.000
 70
    32
  0
VERTEX
  8
7550LEVEL
 62
13
 10
2345.276
 20
-6672.286
 30
-2273.000
 70
    32
  0
VERTEX
  8
7550LEVEL
 62
13
 10
2339.834
 20
-6668.643
 30
-2273.000
 70
    32
  0
VERTEX
  8
7550LEVEL
 62
13
 10
2330.955
 20
-6660.550
 30
-2273.000
 70
    32
  0
VERTEX
  8
7550LEVEL
 62
13
 10
2323.290
 20
-6652.420
 30
-2273.000
 70
    32
  0
VERTEX
  8
7550LEVEL
 62
13
 10
2316.294
 20
-6646.772
 30
-2273.000
 70
    32
  0
VERTEX
  8
7550LEVEL
 62
13
 10
2310.968
 20
-6644.285
 30
-2273.000
 70
    32
  0
VERTEX
  8
7550LEVEL
 62
13
 10
2307.675
 20
-6643.696
 30
-2273.000
 70
    32
  0
VERTEX
  8
7550LEVEL
 62
13
 10
2305.549
 20
-6645.340
 30
-2273.000
 70
    32
  0
VERTEX
  8
7550LEVEL
 62
13
 10
2305.627
 20
-6648.695
 30
-2273.000
 70
    32
  0
VERTEX
  8
7550LEVEL
 62
13
 10
2308.321
 20
-6652.397
 30
-2273.000
 70
    32
  0
VERTEX
  8
7550LEVEL
 62
13
 10
2312.723
 20
-6659.977
 30
-2273.000
 70
    32
  0
VERTEX
  8
7550LEVEL
 62
13
 10
2316.288
 20
-6667.932
 30
-2273.000
 70
    32
  0
VERTEX
  8
7550LEVEL
 62
13
 10
2320.180
 20
-6681.662
 30
-2273.000
 70
    32
  0
VERTEX
  8
7550LEVEL
 62
13
 10
2323.328
 20
-6692.223
 30
-2273.000
 70
    32
  0
VERTEX
  8
7550LEVEL
 62
13
 10
2330.574
 20
-6705.875
 30
-2273.000
 70
    32
  0
VERTEX
  8
7550LEVEL
 62
13
 10
2335.229
 20
-6715.128
 30
-2273.000
 70
    32
  0
VERTEX
  8
7550LEVEL
 62
13
 10
2340.208
 20
-6731.150
 30
-2273.000
 70
    32
  0
VERTEX
  8
7550LEVEL
 62
13
 10
2343.863
 20
-6741.893
 30
-2273.000
 70
    32
  0
VERTEX
  8
7550LEVEL
 62
13
 10
2349.419
 20
-6752.522
 30
-2273.000
 70
    32
  0
VERTEX
  8
7550LEVEL
 62
13
 10
2362.366
 20
-6769.748
 30
-2273.000
 70
    32
  0
VERTEX
  8
7550LEVEL
 62
13
 10
2375.287
 20
-6783.021
 30
-2273.000
 70
    32
  0
VERTEX
  8
7550LEVEL
 62
13
 10
2390.261
 20
-6798.552
 30
-2273.000
 70
    32
  0
VERTEX
  8
7550LEVEL
 62
13
 10
2397.870
 20
-6808.273
 30
-2273.000
 70
    32
  0
VERTEX
  8
7550LEVEL
 62
13
 10
2405.724
 20
-6824.824
 30
-2273.000
 70
    32
  0
VERTEX
  8
7550LEVEL
 62
13
 10
2410.382
 20
-6838.914
 30
-2273.000
 70
    32
  0
VERTEX
  8
7550LEVEL
 62
13
 10
2415.912
 20
-6856.511
 30
-2273.000
 70
    32
  0
VERTEX
  8
7550LEVEL
 62
13
 10
2420.284
 20
-6867.216
 30
-2273.000
 70
    32
  0
VERTEX
  8
7550LEVEL
 62
13
 10
2424.529
 20
-6874.168
 30
-2273.000
 70
    32
  0
VERTEX
  8
7550LEVEL
 62
13
 10
2427.866
 20
-6878.818
 30
-2273.000
 70
    32
  0
SEQEND
  8
7550LEVEL
  0
POLYLINE
  8
7550LEVEL
 62
13
 66
     1
 70
     8
  0
VERTEX
  8
7550LEVEL
 62
13
 10
2334.710
 20
-6578.838
 30
-2273.000
 70
    32
  0
VERTEX
  8
7550LEVEL
 62
13
 10
2325.323
 20
-6573.729
 30
-2273.000
 70
    32
  0
VERTEX
  8
7550LEVEL
 62
13
 10
2314.492
 20
-6565.847
 30
-2273.000
 70
    32
  0
VERTEX
  8
7550LEVEL
 62
13
 10
2308.013
 20
-6562.977
 30
-2273.000
 70
    32
  0
VERTEX
  8
7550LEVEL
 62
13
 10
2302.298
 20
-6560.717
 30
-2273.000
 70
    32
  0
VERTEX
  8
7550LEVEL
 62
13
 10
2293.108
 20
-6558.873
 30
-2273.000
 70
    32
  0
VERTEX
  8
7550LEVEL
 62
13
 10
2279.805
 20
-6557.671
 30
-2273.000
 70
    32
  0
VERTEX
  8
7550LEVEL
 62
13
 10
2261.745
 20
-6553.496
 30
-2273.000
 70
    32
  0
VERTEX
  8
7550LEVEL
 62
13
 10
2247.746
 20
-6551.943
 30
-2273.000
 70
    32
  0
VERTEX
  8
7550LEVEL
 62
13
 10
2233.040
 20
-6550.856
 30
-2273.000
 70
    32
  0
VERTEX
  8
7550LEVEL
 62
13
 10
2225.848
 20
-6552.363
 30
-2273.000
 70
    32
  0
VERTEX
  8
7550LEVEL
 62
13
 10
2220.438
 20
-6553.846
 30
-2273.000
 70
    32
  0
VERTEX
  8
7550LEVEL
 62
13
 10
2219.243
 20
-6556.908
 30
-2273.000
 70
    32
  0
VERTEX
  8
7550LEVEL
 62
13
 10
2219.380
 20
-6560.342
 30
-2273.000
 70
    32
  0
VERTEX
  8
7550LEVEL
 62
13
 10
2216.831
 20
-6563.418
 30
-2273.000
 70
    32
  0
VERTEX
  8
7550LEVEL
 62
13
 10
2209.601
 20
-6564.457
 30
-2273.000
 70
    32
  0
VERTEX
  8
7550LEVEL
 62
13
 10
2199.577
 20
-6561.993
 30
-2273.000
 70
    32
  0
VERTEX
  8
7550LEVEL
 62
13
 10
2193.333
 20
-6557.522
 30
-2273.000
 70
    32
  0
VERTEX
  8
7550LEVEL
 62
13
 10
2187.941
 20
-6542.862
 30
-2273.000
 70
    32
  0
VERTEX
  8
7550LEVEL
 62
13
 10
2186.812
 20
-6527.261
 30
-2273.000
 70
    32
  0
VERTEX
  8
7550LEVEL
 62
13
 10
2183.813
 20
-6500.148
 30
-2273.000
 70
    32
  0
VERTEX
  8
7550LEVEL
 62
13
 10
2181.673
 20
-6483.439
 30
-2273.000
 70
    32
  0
VERTEX
  8
7550LEVEL
 62
13
 10
2178.254
 20
-6457.011
 30
-2273.000
 70
    32
  0
VERTEX
  8
7550LEVEL
 62
13
 10
2177.175
 20
-6438.644
 30
-2273.000
 70
    32
  0
VERTEX
  8
7550LEVEL
 62
13
 10
2176.957
 20
-6413.183
 30
-2273.000
 70
    32
  0
VERTEX
  8
7550LEVEL
 62
13
 10
2171.629
 20
-6394.691
 30
-2273.000
 70
    32
  0
VERTEX
  8
7550LEVEL
 62
13
 10
2158.457
 20
-6364.914
 30
-2273.000
 70
    32
  0
VERTEX
  8
7550LEVEL
 62
13
 10
2145.549
 20
-6342.325
 30
-2273.000
 70
    32
  0
VERTEX
  8
7550LEVEL
 62
13
 10
2129.398
 20
-6313.712
 30
-2273.000
 70
    32
  0
VERTEX
  8
7550LEVEL
 62
13
 10
2119.807
 20
-6298.578
 30
-2273.000
 70
    32
  0
VERTEX
  8
7550LEVEL
 62
13
 10
2103.664
 20
-6276.226
 30
-2273.000
 70
    32
  0
VERTEX
  8
7550LEVEL
 62
13
 10
2092.285
 20
-6260.191
 30
-2273.000
 70
    32
  0
VERTEX
  8
7550LEVEL
 62
13
 10
2077.546
 20
-6234.559
 30
-2273.000
 70
    32
  0
VERTEX
  8
7550LEVEL
 62
13
 10
2067.224
 20
-6217.860
 30
-2273.000
 70
    32
  0
VERTEX
  8
7550LEVEL
 62
13
 10
2056.471
 20
-6199.498
 30
-2273.000
 70
    32
  0
VERTEX
  8
7550LEVEL
 62
13
 10
2044.028
 20
-6180.533
 30
-2273.000
 70
    32
  0
VERTEX
  8
7550LEVEL
 62
13
 10
2031.540
 20
-6165.509
 30
-2273.000
 70
    32
  0
VERTEX
  8
7550LEVEL
 62
13
 10
2022.915
 20
-6158.840
 30
-2273.000
 70
    32
  0
VERTEX
  8
7550LEVEL
 62
13
 10
2008.410
 20
-6148.606
 30
-2273.000
 70
    32
  0
VERTEX
  8
7550LEVEL
 62
13
 10
1995.148
 20
-6135.709
 30
-2273.000
 70
    32
  0
VERTEX
  8
7550LEVEL
 62
13
 10
1991.599
 20
-6129.108
 30
-2273.000
 70
    32
  0
VERTEX
  8
7550LEVEL
 62
13
 10
1990.158
 20
-6117.338
 30
-2273.000
 70
    32
  0
VERTEX
  8
7550LEVEL
 62
13
 10
1990.645
 20
-6106.242
 30
-2273.000
 70
    32
  0
VERTEX
  8
7550LEVEL
 62
13
 10
1992.569
 20
-6097.241
 30
-2273.000
 70
    32
  0
VERTEX
  8
7550LEVEL
 62
13
 10
1990.168
 20
-6083.766
 30
-2273.000
 70
    32
  0
VERTEX
  8
7550LEVEL
 62
13
 10
1983.716
 20
-6070.515
 30
-2273.000
 70
    32
  0
VERTEX
  8
7550LEVEL
 62
13
 10
1975.374
 20
-6051.475
 30
-2273.000
 70
    32
  0
VERTEX
  8
7550LEVEL
 62
13
 10
1969.291
 20
-6037.887
 30
-2273.000
 70
    32
  0
VERTEX
  8
7550LEVEL
 62
13
 10
1961.307
 20
-6021.496
 30
-2273.000
 70
    32
  0
VERTEX
  8
7550LEVEL
 62
13
 10
1960.160
 20
-6011.121
 30
-2273.000
 70
    32
  0
VERTEX
  8
7550LEVEL
 62
13
 10
1963.653
 20
-6000.145
 30
-2273.000
 70
    32
  0
VERTEX
  8
7550LEVEL
 62
13
 10
1966.259
 20
-5992.062
 30
-2273.000
 70
    32
  0
VERTEX
  8
7550LEVEL
 62
13
 10
1964.566
 20
-5978.371
 30
-2273.000
 70
    32
  0
VERTEX
  8
7550LEVEL
 62
13
 10
1960.531
 20
-5962.949
 30
-2273.000
 70
    32
  0
VERTEX
  8
7550LEVEL
 62
13
 10
1958.417
 20
-5952.859
 30
-2273.000
 70
    32
  0
VERTEX
  8
7550LEVEL
 62
13
 10
1952.890
 20
-5939.602
 30
-2273.000
 70
    32
  0
VERTEX
  8
7550LEVEL
 62
13
 10
1947.521
 20
-5932.556
 30
-2273.000
 70
    32
  0
VERTEX
  8
7550LEVEL
 62
13
 10
1940.426
 20
-5921.025
 30
-2273.000
 70
    32
  0
VERTEX
  8
7550LEVEL
 62
13
 10
1934.646
 20
-5906.343
 30
-2273.000
 70
    32
  0
VERTEX
  8
7550LEVEL
 62
13
 10
1930.651
 20
-5896.226
 30
-2273.000
 70
    32
  0
VERTEX
  8
7550LEVEL
 62
13
 10
1925.118
 20
-5881.795
 30
-2273.000
 70
    32
  0
VERTEX
  8
7550LEVEL
 62
13
 10
1912.628
 20
-5870.433
 30
-2273.000
 70
    32
  0
VERTEX
  8
7550LEVEL
 62
13
 10
1902.981
 20
-5862.725
 30
-2273.000
 70
    32
  0
VERTEX
  8
7550LEVEL
 62
13
 10
1893.869
 20
-5858.652
 30
-2273.000
 70
    32
  0
VERTEX
  8
7550LEVEL
 62
13
 10
1880.756
 20
-5851.538
 30
-2273.000
 70
    32
  0
VERTEX
  8
7550LEVEL
 62
13
 10
1874.880
 20
-5844.062
 30
-2273.000
 70
    32
  0
VERTEX
  8
7550LEVEL
 62
13
 10
1871.308
 20
-5829.847
 30
-2273.000
 70
    32
  0
VERTEX
  8
7550LEVEL
 62
13
 10
1869.518
 20
-5818.275
 30
-2273.000
 70
    32
  0
VERTEX
  8
7550LEVEL
 62
13
 10
1865.406
 20
-5799.250
 30
-2273.000
 70
    32
  0
VERTEX
  8
7550LEVEL
 62
13
 10
1860.230
 20
-5785.297
 30
-2273.000
 70
    32
  0
VERTEX
  8
7550LEVEL
 62
13
 10
1854.858
 20
-5767.830
 30
-2273.000
 70
    32
  0
VERTEX
  8
7550LEVEL
 62
13
 10
1846.947
 20
-5750.702
 30
-2273.000
 70
    32
  0
VERTEX
  8
7550LEVEL
 62
13
 10
1836.470
 20
-5735.546
 30
-2273.000
 70
    32
  0
VERTEX
  8
7550LEVEL
 62
13
 10
1826.687
 20
-5724.155
 30
-2273.000
 70
    32
  0
VERTEX
  8
7550LEVEL
 62
13
 10
1817.844
 20
-5714.359
 30
-2273.000
 70
    32
  0
VERTEX
  8
7550LEVEL
 62
13
 10
1808.338
 20
-5700.590
 30
-2273.000
 70
    32
  0
VERTEX
  8
7550LEVEL
 62
13
 10
1805.079
 20
-5693.462
 30
-2273.000
 70
    32
  0
VERTEX
  8
7550LEVEL
 62
13
 10
1800.331
 20
-5685.333
 30
-2273.000
 70
    32
  0
VERTEX
  8
7550LEVEL
 62
13
 10
1789.862
 20
-5676.437
 30
-2273.000
 70
    32
  0
VERTEX
  8
7550LEVEL
 62
13
 10
1781.151
 20
-5660.153
 30
-2273.000
 70
    32
  0
VERTEX
  8
7550LEVEL
 62
13
 10
1768.988
 20
-5643.647
 30
-2273.000
 70
    32
  0
VERTEX
  8
7550LEVEL
 62
13
 10
1755.418
 20
-5622.419
 30
-2273.000
 70
    32
  0
VERTEX
  8
7550LEVEL
 62
13
 10
1748.621
 20
-5608.122
 30
-2273.000
 70
    32
  0
VERTEX
  8
7550LEVEL
 62
13
 10
1741.551
 20
-5595.207
 30
-2273.000
 70
    32
  0
VERTEX
  8
7550LEVEL
 62
13
 10
1740.486
 20
-5592.277
 30
-2273.000
 70
    32
  0
SEQEND
  8
7550LEVEL
  0
POLYLINE
  8
7550LEVEL
 62
13
 66
     1
 70
     8
  0
VERTEX
  8
7550LEVEL
 62
13
 10
1757.316
 20
-5595.383
 30
-2273.000
 70
    32
  0
VERTEX
  8
7550LEVEL
 62
13
 10
1759.307
 20
-5600.725
 30
-2273.000
 70
    32
  0
VERTEX
  8
7550LEVEL
 62
13
 10
1772.210
 20
-5621.891
 30
-2273.000
 70
    32
  0
VERTEX
  8
7550LEVEL
 62
13
 10
1780.576
 20
-5637.378
 30
-2273.000
 70
    32
  0
VERTEX
  8
7550LEVEL
 62
13
 10
1790.864
 20
-5649.448
 30
-2273.000
 70
    32
  0
VERTEX
  8
7550LEVEL
 62
13
 10
1803.816
 20
-5668.097
 30
-2273.000
 70
    32
  0
VERTEX
  8
7550LEVEL
 62
13
 10
1816.025
 20
-5685.747
 30
-2273.000
 70
    32
  0
VERTEX
  8
7550LEVEL
 62
13
 10
1824.164
 20
-5700.348
 30
-2273.000
 70
    32
  0
VERTEX
  8
7550LEVEL
 62
13
 10
1829.637
 20
-5709.116
 30
-2273.000
 70
    32
  0
VERTEX
  8
7550LEVEL
 62
13
 10
1840.835
 20
-5722.991
 30
-2273.000
 70
    32
  0
VERTEX
  8
7550LEVEL
 62
13
 10
1849.258
 20
-5733.472
 30
-2273.000
 70
    32
  0
VERTEX
  8
7550LEVEL
 62
13
 10
1858.609
 20
-5748.534
 30
-2273.000
 70
    32
  0
VERTEX
  8
7550LEVEL
 62
13
 10
1864.167
 20
-5758.666
 30
-2273.000
 70
    32
  0
VERTEX
  8
7550LEVEL
 62
13
 10
1872.771
 20
-5776.891
 30
-2273.000
 70
    32
  0
VERTEX
  8
7550LEVEL
 62
13
 10
1877.583
 20
-5786.772
 30
-2273.000
 70
    32
  0
VERTEX
  8
7550LEVEL
 62
13
 10
1885.049
 20
-5800.385
 30
-2273.000
 70
    32
  0
VERTEX
  8
7550LEVEL
 62
13
 10
1892.708
 20
-5815.590
 30
-2273.000
 70
    32
  0
VERTEX
  8
7550LEVEL
 62
13
 10
1898.455
 20
-5825.644
 30
-2273.000
 70
    32
  0
VERTEX
  8
7550LEVEL
 62
13
 10
1905.928
 20
-5840.182
 30
-2273.000
 70
    32
  0
VERTEX
  8
7550LEVEL
 62
13
 10
1914.765
 20
-5854.635
 30
-2273.000
 70
    32
  0
VERTEX
  8
7550LEVEL
 62
13
 10
1922.505
 20
-5866.617
 30
-2273.000
 70
    32
  0
VERTEX
  8
7550LEVEL
 62
13
 10
1934.860
 20
-5882.546
 30
-2273.000
 70
    32
  0
VERTEX
  8
7550LEVEL
 62
13
 10
1946.128
 20
-5896.182
 30
-2273.000
 70
    32
  0
VERTEX
  8
7550LEVEL
 62
13
 10
1953.169
 20
-5903.473
 30
-2273.000
 70
    32
  0
VERTEX
  8
7550LEVEL
 62
13
 10
1960.966
 20
-5913.364
 30
-2273.000
 70
    32
  0
VERTEX
  8
7550LEVEL
 62
13
 10
1965.280
 20
-5920.576
 30
-2273.000
 70
    32
  0
VERTEX
  8
7550LEVEL
 62
13
 10
1969.819
 20
-5934.506
 30
-2273.000
 70
    32
  0
VERTEX
  8
7550LEVEL
 62
13
 10
1973.879
 20
-5945.877
 30
-2273.000
 70
    32
  0
VERTEX
  8
7550LEVEL
 62
13
 10
1980.790
 20
-5961.578
 30
-2273.000
 70
    32
  0
VERTEX
  8
7550LEVEL
 62
13
 10
1985.796
 20
-5970.136
 30
-2273.000
 70
    32
  0
VERTEX
  8
7550LEVEL
 62
13
 10
1993.868
 20
-5981.312
 30
-2273.000
 70
    32
  0
VERTEX
  8
7550LEVEL
 62
13
 10
2000.266
 20
-5990.074
 30
-2273.000
 70
    32
  0
VERTEX
  8
7550LEVEL
 62
13
 10
2011.719
 20
-6004.875
 30
-2273.000
 70
    32
  0
VERTEX
  8
7550LEVEL
 62
13
 10
2020.198
 20
-6016.431
 30
-2273.000
 70
    32
  0
VERTEX
  8
7550LEVEL
 62
13
 10
2034.160
 20
-6036.437
 30
-2273.000
 70
    32
  0
VERTEX
  8
7550LEVEL
 62
13
 10
2042.471
 20
-6050.351
 30
-2273.000
 70
    32
  0
VERTEX
  8
7550LEVEL
 62
13
 10
2054.705
 20
-6072.451
 30
-2273.000
 70
    32
  0
VERTEX
  8
7550LEVEL
 62
13
 10
2062.006
 20
-6087.675
 30
-2273.000
 70
    32
  0
VERTEX
  8
7550LEVEL
 62
13
 10
2067.477
 20
-6102.525
 30
-2273.000
 70
    32
  0
VERTEX
  8
7550LEVEL
 62
13
 10
2076.012
 20
-6123.158
 30
-2273.000
 70
    32
  0
VERTEX
  8
7550LEVEL
 62
13
 10
2085.070
 20
-6142.659
 30
-2273.000
 70
    32
  0
VERTEX
  8
7550LEVEL
 62
13
 10
2090.559
 20
-6155.199
 30
-2273.000
 70
    32
  0
VERTEX
  8
7550LEVEL
 62
13
 10
2096.909
 20
-6169.146
 30
-2273.000
 70
    32
  0
VERTEX
  8
7550LEVEL
 62
13
 10
2106.928
 20
-6189.855
 30
-2273.000
 70
    32
  0
VERTEX
  8
7550LEVEL
 62
13
 10
2112.861
 20
-6200.575
 30
-2273.000
 70
    32
  0
VERTEX
  8
7550LEVEL
 62
13
 10
2122.046
 20
-6217.996
 30
-2273.000
 70
    32
  0
VERTEX
  8
7550LEVEL
 62
13
 10
2126.729
 20
-6227.538
 30
-2273.000
 70
    32
  0
VERTEX
  8
7550LEVEL
 62
13
 10
2135.190
 20
-6246.987
 30
-2273.000
 70
    32
  0
VERTEX
  8
7550LEVEL
 62
13
 10
2143.055
 20
-6260.302
 30
-2273.000
 70
    32
  0
VERTEX
  8
7550LEVEL
 62
13
 10
2153.484
 20
-6280.395
 30
-2273.000
 70
    32
  0
VERTEX
  8
7550LEVEL
 62
13
 10
2161.905
 20
-6294.041
 30
-2273.000
 70
    32
  0
VERTEX
  8
7550LEVEL
 62
13
 10
2170.132
 20
-6309.259
 30
-2273.000
 70
    32
  0
VERTEX
  8
7550LEVEL
 62
13
 10
2179.450
 20
-6328.193
 30
-2273.000
 70
    32
  0
VERTEX
  8
7550LEVEL
 62
13
 10
2188.676
 20
-6348.002
 30
-2273.000
 70
    32
  0
VERTEX
  8
7550LEVEL
 62
13
 10
2195.420
 20
-6360.229
 30
-2273.000
 70
    32
  0
VERTEX
  8
7550LEVEL
 62
13
 10
2202.145
 20
-6375.262
 30
-2273.000
 70
    32
  0
VERTEX
  8
7550LEVEL
 62
13
 10
2207.601
 20
-6388.509
 30
-2273.000
 70
    32
  0
VERTEX
  8
7550LEVEL
 62
13
 10
2214.090
 20
-6405.393
 30
-2273.000
 70
    32
  0
VERTEX
  8
7550LEVEL
 62
13
 10
2221.217
 20
-6422.050
 30
-2273.000
 70
    32
  0
VERTEX
  8
7550LEVEL
 62
13
 10
2224.458
 20
-6437.071
 30
-2273.000
 70
    32
  0
VERTEX
  8
7550LEVEL
 62
13
 10
2224.380
 20
-6447.800
 30
-2273.000
 70
    32
  0
VERTEX
  8
7550LEVEL
 62
13
 10
2225.258
 20
-6466.565
 30
-2273.000
 70
    32
  0
VERTEX
  8
7550LEVEL
 62
13
 10
2224.856
 20
-6479.025
 30
-2273.000
 70
    32
  0
VERTEX
  8
7550LEVEL
 62
13
 10
2223.642
 20
-6495.562
 30
-2273.000
 70
    32
  0
VERTEX
  8
7550LEVEL
 62
13
 10
2222.932
 20
-6510.360
 30
-2273.000
 70
    32
  0
VERTEX
  8
7550LEVEL
 62
13
 10
2222.265
 20
-6518.798
 30
-2273.000
 70
    32
  0
VERTEX
  8
7550LEVEL
 62
13
 10
2222.870
 20
-6527.778
 30
-2273.000
 70
    32
  0
VERTEX
  8
7550LEVEL
 62
13
 10
2225.299
 20
-6533.291
 30
-2273.000
 70
    32
  0
VERTEX
  8
7550LEVEL
 62
13
 10
2228.575
 20
-6535.691
 30
-2273.000
 70
    32
  0
VERTEX
  8
7550LEVEL
 62
13
 10
2232.687
 20
-6535.298
 30
-2273.000
 70
    32
  0
VERTEX
  8
7550LEVEL
 62
13
 10
2238.901
 20
-6534.394
 30
-2273.000
 70
    32
  0
VERTEX
  8
7550LEVEL
 62
13
 10
2245.727
 20
-6532.229
 30
-2273.000
 70
    32
  0
VERTEX
  8
7550LEVEL
 62
13
 10
2253.169
 20
-6530.225
 30
-2273.000
 70
    32
  0
VERTEX
  8
7550LEVEL
 62
13
 10
2261.486
 20
-6528.563
 30
-2273.000
 70
    32
  0
VERTEX
  8
7550LEVEL
 62
13
 10
2275.925
 20
-6526.375
 30
-2273.000
 70
    32
  0
VERTEX
  8
7550LEVEL
 62
13
 10
2288.127
 20
-6526.597
 30
-2273.000
 70
    32
  0
VERTEX
  8
7550LEVEL
 62
13
 10
2303.629
 20
-6528.086
 30
-2273.000
 70
    32
  0
VERTEX
  8
7550LEVEL
 62
13
 10
2320.412
 20
-6530.296
 30
-2273.000
 70
    32
  0
VERTEX
  8
7550LEVEL
 62
13
 10
2331.752
 20
-6532.028
 30
-2273.000
 70
    32
  0
VERTEX
  8
7550LEVEL
 62
13
 10
2345.404
 20
-6533.032
 30
-2273.000
 70
    32
  0
VERTEX
  8
7550LEVEL
 62
13
 10
2355.781
 20
-6534.303
 30
-2273.000
 70
    32
  0
VERTEX
  8
7550LEVEL
 62
13
 10
2362.943
 20
-6535.424
 30
-2273.000
 70
    32
  0
VERTEX
  8
7550LEVEL
 62
13
 10
2366.286
 20
-6535.665
 30
-2273.000
 70
    32
  0
VERTEX
  8
7550LEVEL
 62
13
 10
2369.160
 20
-6536.441
 30
-2273.000
 70
    32
  0
SEQEND
  8
7550LEVEL
  0
POLYLINE
  8
7550LEVEL
 62
7
 66
     1
 70
     9
  0
VERTEX
  8
7550LEVEL
 62
7
 10
2023.080
 20
-6929.947
 30
-2273.000
 70
    32
  0
VERTEX
  8
7550LEVEL
 62
7
 10
2026.001
 20
-6953.954
 30
-2273.000
 70
    32
  0
VERTEX
  8
7550LEVEL
 62
7
 10
2033.825
 20
-6973.132
 30
-2273.000
 70
    32
  0
VERTEX
  8
7550LEVEL
 62
7
 10
2039.830
 20
-6988.949
 30
-2273.000
 70
    32
  0
VERTEX
  8
7550LEVEL
 62
7
 10
2041.260
 20
-6995.453
 30
-2273.000
 70
    32
  0
VERTEX
  8
7550LEVEL
 62
7
 10
2040.886
 20
-7002.618
 30
-2273.000
 70
    32
  0
VERTEX
  8
7550LEVEL
 62
7
 10
2039.498
 20
-7012.337
 30
-2273.000
 70
    32
  0
VERTEX
  8
7550LEVEL
 62
7
 10
2038.888
 20
-7018.685
 30
-2273.000
 70
    32
  0
VERTEX
  8
7550LEVEL
 62
7
 10
2039.446
 20
-7026.769
 30
-2273.000
 70
    32
  0
VERTEX
  8
7550LEVEL
 62
7
 10
2039.233
 20
-7030.650
 30
-2273.000
 70
    32
  0
VERTEX
  8
7550LEVEL
 62
7
 10
2036.058
 20
-7033.386
 30
-2273.000
 70
    32
  0
VERTEX
  8
7550LEVEL
 62
7
 10
2031.088
 20
-7034.543
 30
-2273.000
 70
    32
  0
VERTEX
  8
7550LEVEL
 62
7
 10
2025.030
 20
-7033.406
 30
-2273.000
 70
    32
  0
VERTEX
  8
7550LEVEL
 62
7
 10
2016.129
 20
-7028.866
 30
-2273.000
 70
    32
  0
VERTEX
  8
7550LEVEL
 62
7
 10
2007.412
 20
-7019.907
 30
-2273.000
 70
    32
  0
VERTEX
  8
7550LEVEL
 62
7
 10
1999.909
 20
-7005.329
 30
-2273.000
 70
    32
  0
VERTEX
  8
7550LEVEL
 62
7
 10
1993.679
 20
-6993.960
 30
-2273.000
 70
    32
  0
VERTEX
  8
7550LEVEL
 62
7
 10
1984.038
 20
-6979.175
 30
-2273.000
 70
    32
  0
VERTEX
  8
7550LEVEL
 62
7
 10
1977.407
 20
-6971.517
 30
-2273.000
 70
    32
  0
VERTEX
  8
7550LEVEL
 62
7
 10
1970.000
 20
-6963.568
 30
-2273.000
 70
    32
  0
VERTEX
  8
7550LEVEL
 62
7
 10
1962.910
 20
-6950.544
 30
-2273.000
 70
    32
  0
VERTEX
  8
7550LEVEL
 62
7
 10
1963.169
 20
-6942.224
 30
-2273.000
 70
    32
  0
VERTEX
  8
7550LEVEL
 62
7
 10
1967.098
 20
-6934.335
 30
-2273.000
 70
    32
  0
VERTEX
  8
7550LEVEL
 62
7
 10
1971.858
 20
-6928.062
 30
-2273.000
 70
    32
  0
VERTEX
  8
7550LEVEL
 62
7
 10
1980.023
 20
-6918.944
 30
-2273.000
 70
    32
  0
VERTEX
  8
7550LEVEL
 62
7
 10
1985.876
 20
-6912.973
 30
-2273.000
 70
    32
  0
VERTEX
  8
7550LEVEL
 62
7
 10
1994.156
 20
-6907.678
 30
-2273.000
 70
    32
  0
VERTEX
  8
7550LEVEL
 62
7
 10
1998.468
 20
-6907.136
 30
-2273.000
 70
    32
  0
VERTEX
  8
7550LEVEL
 62
7
 10
2005.659
 20
-6908.545
 30
-2273.000
 70
    32
  0
VERTEX
  8
7550LEVEL
 62
7
 10
2011.900
 20
-6911.344
 30
-2273.000
 70
    32
  0
VERTEX
  8
7550LEVEL
 62
7
 10
2018.153
 20
-6916.244
 30
-2273.000
 70
    32
  0
VERTEX
  8
7550LEVEL
 62
7
 10
2020.668
 20
-6919.706
 30
-2273.000
 70
    32
  0
VERTEX
  8
7550LEVEL
 62
7
 10
2021.936
 20
-6924.409
 30
-2273.000
 70
    32
  0
VERTEX
  8
7550LEVEL
 62
7
 10
2022.379
 20
-6925.754
 30
-2273.000
 70
    32
  0
SEQEND
  8
7550LEVEL
  0
POLYLINE
  8
7550LEVEL
 62
7
 66
     1
 70
     9
  0
VERTEX
  8
7550LEVEL
 62
7
 10
1963.961
 20
-6714.440
 30
-2273.000
 70
    32
  0
VERTEX
  8
7550LEVEL
 62
7
 10
1966.708
 20
-6720.213
 30
-2273.000
 70
    32
  0
VERTEX
  8
7550LEVEL
 62
7
 10
1968.704
 20
-6724.062
 30
-2273.000
 70
    32
  0
VERTEX
  8
7550LEVEL
 62
7
 10
1972.015
 20
-6730.842
 30
-2273.000
 70
    32
  0
VERTEX
  8
7550LEVEL
 62
7
 10
1974.447
 20
-6735.359
 30
-2273.000
 70
    32
  0
VERTEX
  8
7550LEVEL
 62
7
 10
1975.487
 20
-6739.673
 30
-2273.000
 70
    32
  0
VERTEX
  8
7550LEVEL
 62
7
 10
1976.290
 20
-6743.169
 30
-2273.000
 70
    32
  0
VERTEX
  8
7550LEVEL
 62
7
 10
1975.703
 20
-6745.964
 30
-2273.000
 70
    32
  0
VERTEX
  8
7550LEVEL
 62
7
 10
1974.096
 20
-6747.222
 30
-2273.000
 70
    32
  0
VERTEX
  8
7550LEVEL
 62
7
 10
1971.595
 20
-6745.113
 30
-2273.000
 70
    32
  0
VERTEX
  8
7550LEVEL
 62
7
 10
1968.778
 20
-6739.828
 30
-2273.000
 70
    32
  0
VERTEX
  8
7550LEVEL
 62
7
 10
1966.379
 20
-6734.106
 30
-2273.000
 70
    32
  0
VERTEX
  8
7550LEVEL
 62
7
 10
1961.840
 20
-6723.092
 30
-2273.000
 70
    32
  0
VERTEX
  8
7550LEVEL
 62
7
 10
1956.813
 20
-6712.255
 30
-2273.000
 70
    32
  0
VERTEX
  8
7550LEVEL
 62
7
 10
1953.445
 20
-6701.981
 30
-2273.000
 70
    32
  0
VERTEX
  8
7550LEVEL
 62
7
 10
1950.582
 20
-6692.635
 30
-2273.000
 70
    32
  0
VERTEX
  8
7550LEVEL
 62
7
 10
1949.683
 20
-6688.093
 30
-2273.000
 70
    32
  0
VERTEX
  8
7550LEVEL
 62
7
 10
1949.406
 20
-6684.887
 30
-2273.000
 70
    32
  0
VERTEX
  8
7550LEVEL
 62
7
 10
1949.283
 20
-6683.056
 30
-2273.000
 70
    32
  0
VERTEX
  8
7550LEVEL
 62
7
 10
1950.589
 20
-6682.393
 30
-2273.000
 70
    32
  0
VERTEX
  8
7550LEVEL
 62
7
 10
1952.661
 20
-6684.760
 30
-2273.000
 70
    32
  0
VERTEX
  8
7550LEVEL
 62
7
 10
1955.052
 20
-6689.805
 30
-2273.000
 70
    32
  0
VERTEX
  8
7550LEVEL
 62
7
 10
1957.654
 20
-6696.801
 30
-2273.000
 70
    32
  0
VERTEX
  8
7550LEVEL
 62
7
 10
1958.703
 20
-6701.293
 30
-2273.000
 70
    32
  0
VERTEX
  8
7550LEVEL
 62
7
 10
1959.734
 20
-6705.179
 30
-2273.000
 70
    32
  0
VERTEX
  8
7550LEVEL
 62
7
 10
1961.214
 20
-6708.917
 30
-2273.000
 70
    32
  0
VERTEX
  8
7550LEVEL
 62
7
 10
1961.915
 20
-6710.442
 30
-2273.000
 70
    32
  0
SEQEND
  8
7550LEVEL
  0
POLYLINE
  8
7550LEVEL
 62
7
 66
     1
 70
     9
  0
VERTEX
  8
7550LEVEL
 62
7
 10
1946.404
 20
-6544.180
 30
-2273.000
 70
    32
  0
VERTEX
  8
7550LEVEL
 62
7
 10
1946.051
 20
-6551.205
 30
-2273.000
 70
    32
  0
VERTEX
  8
7550LEVEL
 62
7
 10
1947.470
 20
-6560.696
 30
-2273.000
 70
    32
  0
VERTEX
  8
7550LEVEL
 62
7
 10
1948.394
 20
-6566.770
 30
-2273.000
 70
    32
  0
VERTEX
  8
7550LEVEL
 62
7
 10
1948.495
 20
-6571.907
 30
-2273.000
 70
    32
  0
VERTEX
  8
7550LEVEL
 62
7
 10
1947.477
 20
-6575.456
 30
-2273.000
 70
    32
  0
VERTEX
  8
7550LEVEL
 62
7
 10
1943.357
 20
-6575.422
 30
-2273.000
 70
    32
  0
VERTEX
  8
7550LEVEL
 62
7
 10
1937.127
 20
-6566.720
 30
-2273.000
 70
    32
  0
VERTEX
  8
7550LEVEL
 62
7
 10
1926.760
 20
-6551.545
 30
-2273.000
 70
    32
  0
VERTEX
  8
7550LEVEL
 62
7
 10
1916.145
 20
-6536.368
 30
-2273.000
 70
    32
  0
VERTEX
  8
7550LEVEL
 62
7
 10
1906.086
 20
-6518.606
 30
-2273.000
 70
    32
  0
VERTEX
  8
7550LEVEL
 62
7
 10
1900.275
 20
-6507.049
 30
-2273.000
 70
    32
  0
VERTEX
  8
7550LEVEL
 62
7
 10
1891.620
 20
-6491.840
 30
-2273.000
 70
    32
  0
VERTEX
  8
7550LEVEL
 62
7
 10
1890.367
 20
-6486.073
 30
-2273.000
 70
    32
  0
VERTEX
  8
7550LEVEL
 62
7
 10
1892.092
 20
-6482.307
 30
-2273.000
 70
    32
  0
VERTEX
  8
7550LEVEL
 62
7
 10
1894.282
 20
-6482.165
 30
-2273.000
 70
    32
  0
VERTEX
  8
7550LEVEL
 62
7
 10
1900.922
 20
-6487.335
 30
-2273.000
 70
    32
  0
VERTEX
  8
7550LEVEL
 62
7
 10
1907.915
 20
-6493.978
 30
-2273.000
 70
    32
  0
VERTEX
  8
7550LEVEL
 62
7
 10
1916.297
 20
-6502.070
 30
-2273.000
 70
    32
  0
VERTEX
  8
7550LEVEL
 62
7
 10
1922.298
 20
-6507.715
 30
-2273.000
 70
    32
  0
VERTEX
  8
7550LEVEL
 62
7
 10
1931.621
 20
-6517.154
 30
-2273.000
 70
    32
  0
VERTEX
  8
7550LEVEL
 62
7
 10
1937.002
 20
-6523.633
 30
-2273.000
 70
    32
  0
VERTEX
  8
7550LEVEL
 62
7
 10
1940.265
 20
-6529.766
 30
-2273.000
 70
    32
  0
VERTEX
  8
7550LEVEL
 62
7
 10
1942.380
 20
-6534.023
 30
-2273.000
 70
    32
  0
VERTEX
  8
7550LEVEL
 62
7
 10
1943.721
 20
-6537.492
 30
-2273.000
 70
    32
  0
SEQEND
  8
7550LEVEL
  0
POLYLINE
  8
7550LEVEL
 62
7
 66
     1
 70
     9
  0
VERTEX
  8
7550LEVEL
 62
7
 10
1852.926
 20
-6340.106
 30
-2273.000
 70
    32
  0
VERTEX
  8
7550LEVEL
 62
7
 10
1855.920
 20
-6346.129
 30
-2273.000
 70
    32
  0
VERTEX
  8
7550LEVEL
 62
7
 10
1859.577
 20
-6353.457
 30
-2273.000
 70
    32
  0
VERTEX
  8
7550LEVEL
 62
7
 10
1862.907
 20
-6360.098
 30
-2273.000
 70
    32
  0
VERTEX
  8
7550LEVEL
 62
7
 10
1865.247
 20
-6368.407
 30
-2273.000
 70
    32
  0
VERTEX
  8
7550LEVEL
 62
7
 10
1864.823
 20
-6372.755
 30
-2273.000
 70
    32
  0
VERTEX
  8
7550LEVEL
 62
7
 10
1861.559
 20
-6372.704
 30
-2273.000
 70
    32
  0
VERTEX
  8
7550LEVEL
 62
7
 10
1856.889
 20
-6367.432
 30
-2273.000
 70
    32
  0
VERTEX
  8
7550LEVEL
 62
7
 10
1851.201
 20
-6357.707
 30
-2273.000
 70
    32
  0
VERTEX
  8
7550LEVEL
 62
7
 10
1843.209
 20
-6343.555
 30
-2273.000
 70
    32
  0
VERTEX
  8
7550LEVEL
 62
7
 10
1839.187
 20
-6335.568
 30
-2273.000
 70
    32
  0
VERTEX
  8
7550LEVEL
 62
7
 10
1833.968
 20
-6325.308
 30
-2273.000
 70
    32
  0
VERTEX
  8
7550LEVEL
 62
7
 10
1832.331
 20
-6321.192
 30
-2273.000
 70
    32
  0
VERTEX
  8
7550LEVEL
 62
7
 10
1832.016
 20
-6317.269
 30
-2273.000
 70
    32
  0
VERTEX
  8
7550LEVEL
 62
7
 10
1834.953
 20
-6314.463
 30
-2273.000
 70
    32
  0
VERTEX
  8
7550LEVEL
 62
7
 10
1837.492
 20
-6314.123
 30
-2273.000
 70
    32
  0
VERTEX
  8
7550LEVEL
 62
7
 10
1839.855
 20
-6315.714
 30
-2273.000
 70
    32
  0
VERTEX
  8
7550LEVEL
 62
7
 10
1843.578
 20
-6321.132
 30
-2273.000
 70
    32
  0
VERTEX
  8
7550LEVEL
 62
7
 10
1845.299
 20
-6324.194
 30
-2273.000
 70
    32
  0
VERTEX
  8
7550LEVEL
 62
7
 10
1847.562
 20
-6328.651
 30
-2273.000
 70
    32
  0
SEQEND
  8
7550LEVEL
  0
POLYLINE
  8
7550LEVEL
 62
7
 66
     1
 70
     9
  0
VERTEX
  8
7550LEVEL
 62
7
 10
1857.229
 20
-6235.962
 30
-2273.000
 70
    32
  0
VERTEX
  8
7550LEVEL
 62
7
 10
1859.844
 20
-6245.059
 30
-2273.000
 70
    32
  0
VERTEX
  8
7550LEVEL
 62
7
 10
1861.871
 20
-6251.615
 30
-2273.000
 70
    32
  0
VERTEX
  8
7550LEVEL
 62
7
 10
1863.262
 20
-6260.817
 30
-2273.000
 70
    32
  0
VERTEX
  8
7550LEVEL
 62
7
 10
1862.455
 20
-6266.567
 30
-2273.000
 70
    32
  0
VERTEX
  8
7550LEVEL
 62
7
 10
1858.594
 20
-6271.798
 30
-2273.000
 70
    32
  0
VERTEX
  8
7550LEVEL
 62
7
 10
1854.875
 20
-6273.636
 30
-2273.000
 70
    32
  0
VERTEX
  8
7550LEVEL
 62
7
 10
1849.788
 20
-6273.887
 30
-2273.000
 70
    32
  0
VERTEX
  8
7550LEVEL
 62
7
 10
1843.943
 20
-6274.702
 30
-2273.000
 70
    32
  0
VERTEX
  8
7550LEVEL
 62
7
 10
1839.842
 20
-6277.445
 30
-2273.000
 70
    32
  0
VERTEX
  8
7550LEVEL
 62
7
 10
1835.604
 20
-6282.585
 30
-2273.000
 70
    32
  0
VERTEX
  8
7550LEVEL
 62
7
 10
1831.772
 20
-6285.438
 30
-2273.000
 70
    32
  0
VERTEX
  8
7550LEVEL
 62
7
 10
1824.183
 20
-6283.828
 30
-2273.000
 70
    32
  0
VERTEX
  8
7550LEVEL
 62
7
 10
1818.993
 20
-6276.773
 30
-2273.000
 70
    32
  0
VERTEX
  8
7550LEVEL
 62
7
 10
1812.726
 20
-6261.771
 30
-2273.000
 70
    32
  0
VERTEX
  8
7550LEVEL
 62
7
 10
1810.222
 20
-6252.158
 30
-2273.000
 70
    32
  0
VERTEX
  8
7550LEVEL
 62
7
 10
1810.414
 20
-6243.081
 30
-2273.000
 70
    32
  0
VERTEX
  8
7550LEVEL
 62
7
 10
1812.725
 20
-6234.351
 30
-2273.000
 70
    32
  0
VERTEX
  8
7550LEVEL
 62
7
 10
1817.120
 20
-6227.170
 30
-2273.000
 70
    32
  0
VERTEX
  8
7550LEVEL
 62
7
 10
1821.643
 20
-6222.996
 30
-2273.000
 70
    32
  0
VERTEX
  8
7550LEVEL
 62
7
 10
1826.767
 20
-6220.795
 30
-2273.000
 70
    32
  0
VERTEX
  8
7550LEVEL
 62
7
 10
1832.968
 20
-6220.707
 30
-2273.000
 70
    32
  0
VERTEX
  8
7550LEVEL
 62
7
 10
1836.639
 20
-6221.139
 30
-2273.000
 70
    32
  0
VERTEX
  8
7550LEVEL
 62
7
 10
1841.213
 20
-6222.449
 30
-2273.000
 70
    32
  0
VERTEX
  8
7550LEVEL
 62
7
 10
1847.750
 20
-6225.896
 30
-2273.000
 70
    32
  0
VERTEX
  8
7550LEVEL
 62
7
 10
1851.353
 20
-6228.735
 30
-2273.000
 70
    32
  0
VERTEX
  8
7550LEVEL
 62
7
 10
1853.711
 20
-6231.571
 30
-2273.000
 70
    32
  0
VERTEX
  8
7550LEVEL
 62
7
 10
1854.719
 20
-6233.674
 30
-2273.000
 70
    32
  0
SEQEND
  8
7550LEVEL
  0
POLYLINE
  8
7550LEVEL
 62
5
 66
     1
 70
     9
  0
VERTEX
  8
7550LEVEL
 62
5
 10
2377.109
 20
-6730.048
 30
-2273.000
 70
    32
  0
VERTEX
  8
7550LEVEL
 62
5
 10
2361.234
 20
-6726.975
 30
-2273.000
 70
    32
  0
VERTEX
  8
7550LEVEL
 62
5
 10
2342.762
 20
-6726.830
 30
-2273.000
 70
    32
  0
VERTEX
  8
7550LEVEL
 62
5
 10
2316.167
 20
-6724.107
 30
-2273.000
 70
    32
  0
VERTEX
  8
7550LEVEL
 62
5
 10
2296.007
 20
-6722.612
 30
-2273.000
 70
    32
  0
VERTEX
  8
7550LEVEL
 62
5
 10
2275.648
 20
-6721.265
 30
-2273.000
 70
    32
  0
VERTEX
  8
7550LEVEL
 62
5
 10
2265.310
 20
-6720.462
 30
-2273.000
 70
    32
  0
VERTEX
  8
7550LEVEL
 62
5
 10
2242.679
 20
-6716.898
 30
-2273.000
 70
    32
  0
VERTEX
  8
7550LEVEL
 62
5
 10
2229.218
 20
-6715.317
 30
-2273.000
 70
    32
  0
VERTEX
  8
7550LEVEL
 62
5
 10
2216.924
 20
-6715.970
 30
-2273.000
 70
    32
  0
VERTEX
  8
7550LEVEL
 62
5
 10
2197.123
 20
-6722.707
 30
-2273.000
 70
    32
  0
VERTEX
  8
7550LEVEL
 62
5
 10
2182.884
 20
-6730.081
 30
-2273.000
 70
    32
  0
VERTEX
  8
7550LEVEL
 62
5
 10
2164.547
 20
-6739.203
 30
-2273.000
 70
    32
  0
VERTEX
  8
7550LEVEL
 62
5
 10
2140.654
 20
-6754.694
 30
-2273.000
 70
    32
  0
VERTEX
  8
7550LEVEL
 62
5
 10
2129.159
 20
-6763.004
 30
-2273.000
 70
    32
  0
VERTEX
  8
7550LEVEL
 62
5
 10
2110.739
 20
-6776.096
 30
-2273.000
 70
    32
  0
VERTEX
  8
7550LEVEL
 62
5
 10
2097.759
 20
-6784.828
 30
-2273.000
 70
    32
  0
VERTEX
  8
7550LEVEL
 62
5
 10
2082.259
 20
-6794.009
 30
-2273.000
 70
    32
  0
VERTEX
  8
7550LEVEL
 62
5
 10
2061.016
 20
-6803.061
 30
-2273.000
 70
    32
  0
VERTEX
  8
7550LEVEL
 62
5
 10
2051.890
 20
-6805.636
 30
-2273.000
 70
    32
  0
VERTEX
  8
7550LEVEL
 62
5
 10
2040.836
 20
-6807.288
 30
-2273.000
 70
    32
  0
VERTEX
  8
7550LEVEL
 62
5
 10
2023.560
 20
-6806.749
 30
-2273.000
 70
    32
  0
VERTEX
  8
7550LEVEL
 62
5
 10
2000.331
 20
-6806.298
 30
-2273.000
 70
    32
  0
VERTEX
  8
7550LEVEL
 62
5
 10
1975.507
 20
-6806.538
 30
-2273.000
 70
    32
  0
VERTEX
  8
7550LEVEL
 62
5
 10
1960.497
 20
-6806.544
 30
-2273.000
 70
    32
  0
VERTEX
  8
7550LEVEL
 62
5
 10
1946.878
 20
-6807.501
 30
-2273.000
 70
    32
  0
VERTEX
  8
7550LEVEL
 62
5
 10
1922.366
 20
-6809.742
 30
-2273.000
 70
    32
  0
VERTEX
  8
7550LEVEL
 62
5
 10
1908.828
 20
-6810.142
 30
-2273.000
 70
    32
  0
VERTEX
  8
7550LEVEL
 62
5
 10
1882.226
 20
-6809.410
 30
-2273.000
 70
    32
  0
VERTEX
  8
7550LEVEL
 62
5
 10
1868.034
 20
-6809.180
 30
-2273.000
 70
    32
  0
VERTEX
  8
7550LEVEL
 62
5
 10
1842.422
 20
-6809.945
 30
-2273.000
 70
    32
  0
VERTEX
  8
7550LEVEL
 62
5
 10
1830.470
 20
-6809.474
 30
-2273.000
 70
    32
  0
VERTEX
  8
7550LEVEL
 62
5
 10
1816.415
 20
-6809.762
 30
-2273.000
 70
    32
  0
VERTEX
  8
7550LEVEL
 62
5
 10
1807.560
 20
-6811.702
 30
-2273.000
 70
    32
  0
VERTEX
  8
7550LEVEL
 62
5
 10
1792.384
 20
-6813.568
 30
-2273.000
 70
    32
  0
VERTEX
  8
7550LEVEL
 62
5
 10
1784.063
 20
-6813.807
 30
-2273.000
 70
    32
  0
VERTEX
  8
7550LEVEL
 62
5
 10
1769.327
 20
-6812.431
 30
-2273.000
 70
    32
  0
VERTEX
  8
7550LEVEL
 62
5
 10
1762.356
 20
-6810.734
 30
-2273.000
 70
    32
  0
VERTEX
  8
7550LEVEL
 62
5
 10
1756.453
 20
-6808.304
 30
-2273.000
 70
    32
  0
VERTEX
  8
7550LEVEL
 62
5
 10
1754.938
 20
-6806.020
 30
-2273.000
 70
    32
  0
VERTEX
  8
7550LEVEL
 62
5
 10
1757.620
 20
-6802.038
 30
-2273.000
 70
    32
  0
VERTEX
  8
7550LEVEL
 62
5
 10
1763.831
 20
-6798.965
 30
-2273.000
 70
    32
  0
VERTEX
  8
7550LEVEL
 62
5
 10
1778.519
 20
-6794.359
 30
-2273.000
 70
    32
  0
VERTEX
  8
7550LEVEL
 62
5
 10
1792.028
 20
-6790.755
 30
-2273.000
 70
    32
  0
VERTEX
  8
7550LEVEL
 62
5
 10
1811.258
 20
-6785.001
 30
-2273.000
 70
    32
  0
VERTEX
  8
7550LEVEL
 62
5
 10
1825.376
 20
-6780.881
 30
-2273.000
 70
    32
  0
VERTEX
  8
7550LEVEL
 62
5
 10
1837.966
 20
-6778.457
 30
-2273.000
 70
    32
  0
VERTEX
  8
7550LEVEL
 62
5
 10
1852.925
 20
-6778.550
 30
-2273.000
 70
    32
  0
VERTEX
  8
7550LEVEL
 62
5
 10
1874.202
 20
-6781.881
 30
-2273.000
 70
    32
  0
VERTEX
  8
7550LEVEL
 62
5
 10
1891.305
 20
-6783.853
 30
-2273.000
 70
    32
  0
VERTEX
  8
7550LEVEL
 62
5
 10
1912.589
 20
-6785.442
 30
-2273.000
 70
    32
  0
VERTEX
  8
7550LEVEL
 62
5
 10
1926.107
 20
-6784.933
 30
-2273.000
 70
    32
  0
VERTEX
  8
7550LEVEL
 62
5
 10
1944.160
 20
-6785.515
 30
-2273.000
 70
    32
  0
VERTEX
  8
7550LEVEL
 62
5
 10
1960.553
 20
-6785.284
 30
-2273.000
 70
    32
  0
VERTEX
  8
7550LEVEL
 62
5
 10
1979.077
 20
-6785.082
 30
-2273.000
 70
    32
  0
VERTEX
  8
7550LEVEL
 62
5
 10
1994.728
 20
-6783.605
 30
-2273.000
 70
    32
  0
VERTEX
  8
7550LEVEL
 62
5
 10
2011.246
 20
-6782.041
 30
-2273.000
 70
    32
  0
VERTEX
  8
7550LEVEL
 62
5
 10
2032.367
 20
-6779.161
 30
-2273.000
 70
    32
  0
VERTEX
  8
7550LEVEL
 62
5
 10
2048.437
 20
-6777.496
 30
-2273.000
 70
    32
  0
VERTEX
  8
7550LEVEL
 62
5
 10
2061.705
 20
-6774.567
 30
-2273.000
 70
    32
  0
VERTEX
  8
7550LEVEL
 62
5
 10
2071.285
 20
-6770.352
 30
-2273.000
 70
    32
  0
VERTEX
  8
7550LEVEL
 62
5
 10
2084.153
 20
-6762.385
 30
-2273.000
 70
    32
  0
VERTEX
  8
7550LEVEL
 62
5
 10
2093.050
 20
-6757.251
 30
-2273.000
 70
    32
  0
VERTEX
  8
7550LEVEL
 62
5
 10
2106.072
 20
-6750.659
 30
-2273.000
 70
    32
  0
VERTEX
  8
7550LEVEL
 62
5
 10
2116.224
 20
-6745.211
 30
-2273.000
 70
    32
  0
VERTEX
  8
7550LEVEL
 62
5
 10
2129.778
 20
-6737.168
 30
-2273.000
 70
    32
  0
VERTEX
  8
7550LEVEL
 62
5
 10
2143.549
 20
-6727.164
 30
-2273.000
 70
    32
  0
VERTEX
  8
7550LEVEL
 62
5
 10
2156.387
 20
-6719.407
 30
-2273.000
 70
    32
  0
VERTEX
  8
7550LEVEL
 62
5
 10
2167.494
 20
-6711.076
 30
-2273.000
 70
    32
  0
VERTEX
  8
7550LEVEL
 62
5
 10
2177.534
 20
-6703.477
 30
-2273.000
 70
    32
  0
VERTEX
  8
7550LEVEL
 62
5
 10
2191.541
 20
-6694.291
 30
-2273.000
 70
    32
  0
VERTEX
  8
7550LEVEL
 62
5
 10
2201.360
 20
-6687.229
 30
-2273.000
 70
    32
  0
VERTEX
  8
7550LEVEL
 62
5
 10
2213.149
 20
-6680.314
 30
-2273.000
 70
    32
  0
VERTEX
  8
7550LEVEL
 62
5
 10
2222.120
 20
-6676.614
 30
-2273.000
 70
    32
  0
VERTEX
  8
7550LEVEL
 62
5
 10
2236.739
 20
-6671.749
 30
-2273.000
 70
    32
  0
VERTEX
  8
7550LEVEL
 62
5
 10
2246.592
 20
-6669.067
 30
-2273.000
 70
    32
  0
VERTEX
  8
7550LEVEL
 62
5
 10
2260.968
 20
-6665.376
 30
-2273.000
 70
    32
  0
VERTEX
  8
7550LEVEL
 62
5
 10
2274.518
 20
-6661.493
 30
-2273.000
 70
    32
  0
VERTEX
  8
7550LEVEL
 62
5
 10
2286.336
 20
-6657.534
 30
-2273.000
 70
    32
  0
VERTEX
  8
7550LEVEL
 62
5
 10
2300.515
 20
-6653.245
 30
-2273.000
 70
    32
  0
VERTEX
  8
7550LEVEL
 62
5
 10
2309.690
 20
-6650.819
 30
-2273.000
 70
    32
  0
VERTEX
  8
7550LEVEL
 62
5
 10
2325.533
 20
-6648.766
 30
-2273.000
 70
    32
  0
VERTEX
  8
7550LEVEL
 62
5
 10
2340.461
 20
-6649.068
 30
-2273.000
 70
    32
  0
VERTEX
  8
7550LEVEL
 62
5
 10
2349.640
 20
-6651.231
 30
-2273.000
 70
    32
  0
VERTEX
  8
7550LEVEL
 62
5
 10
2365.565
 20
-6654.204
 30
-2273.000
 70
    32
  0
VERTEX
  8
7550LEVEL
 62
5
 10
2379.717
 20
-6654.463
 30
-2273.000
 70
    32
  0
VERTEX
  8
7550LEVEL
 62
5
 10
2389.225
 20
-6653.651
 30
-2273.000
 70
    32
  0
VERTEX
  8
7550LEVEL
 62
5
 10
2400.014
 20
-6653.809
 30
-2273.000
 70
    32
  0
VERTEX
  8
7550LEVEL
 62
5
 10
2404.065
 20
-6653.833
 30
-2273.000
 70
    32
  0
VERTEX
  8
7550LEVEL
 62
5
 10
2406.453
 20
-6654.041
 30
-2273.000
 70
    32
  0
SEQEND
  8
7550LEVEL
  0
ENDSEC
  0
EOF
