999
********************************
999
*   DXF File - Entities Only   *
999
*        3D Data Format        *
999
*     Output from ENVISAGE     *
999
*     28-Dec-2007 14:09:28     *
999
********************************
  0
SECTION 
  2
HEADER
  9
$ACADVER
  1
AC1009
  9
$EXTMIN
 10
-290000.000
 20
-250000.000
 30
-4000.000
  9
$EXTMAX
 10
5000000.000
 20
600000.000
 30
6000.000
  0
ENDSEC
  0
SECTION
  2
ENTITIES
  0
POLYLINE
  8
7700LEVEL
 62
13
 66
     1
 70
     8
  0
VERTEX
  8
7700LEVEL
 62
13
 10
2695.563
 20
-8297.529
 30
-2425.000
 70
    32
  0
VERTEX
  8
7700LEVEL
 62
13
 10
2666.174
 20
-8260.142
 30
-2425.000
 70
    32
  0
VERTEX
  8
7700LEVEL
 62
13
 10
2661.614
 20
-8222.354
 30
-2425.000
 70
    32
  0
VERTEX
  8
7700LEVEL
 62
13
 10
2651.962
 20
-8183.304
 30
-2425.000
 70
    32
  0
VERTEX
  8
7700LEVEL
 62
13
 10
2641.563
 20
-8155.468
 30
-2425.000
 70
    32
  0
VERTEX
  8
7700LEVEL
 62
13
 10
2615.949
 20
-8116.839
 30
-2425.000
 70
    32
  0
VERTEX
  8
7700LEVEL
 62
13
 10
2588.066
 20
-8076.794
 30
-2425.000
 70
    32
  0
VERTEX
  8
7700LEVEL
 62
13
 10
2582.725
 20
-8039.020
 30
-2425.000
 70
    32
  0
VERTEX
  8
7700LEVEL
 62
13
 10
2565.495
 20
-8005.674
 30
-2425.000
 70
    32
  0
VERTEX
  8
7700LEVEL
 62
13
 10
2547.196
 20
-7962.807
 30
-2425.000
 70
    32
  0
VERTEX
  8
7700LEVEL
 62
13
 10
2535.097
 20
-7913.483
 30
-2425.000
 70
    32
  0
VERTEX
  8
7700LEVEL
 62
13
 10
2513.435
 20
-7858.414
 30
-2425.000
 70
    32
  0
VERTEX
  8
7700LEVEL
 62
13
 10
2492.812
 20
-7859.512
 30
-2425.000
 70
    32
  0
VERTEX
  8
7700LEVEL
 62
13
 10
2462.947
 20
-7841.809
 30
-2425.000
 70
    32
  0
VERTEX
  8
7700LEVEL
 62
13
 10
2429.463
 20
-7799.248
 30
-2425.000
 70
    32
  0
VERTEX
  8
7700LEVEL
 62
13
 10
2416.866
 20
-7741.137
 30
-2425.000
 70
    32
  0
VERTEX
  8
7700LEVEL
 62
13
 10
2426.862
 20
-7723.634
 30
-2425.000
 70
    32
  0
VERTEX
  8
7700LEVEL
 62
13
 10
2408.123
 20
-7707.166
 30
-2425.000
 70
    32
  0
VERTEX
  8
7700LEVEL
 62
13
 10
2401.181
 20
-7734.671
 30
-2425.000
 70
    32
  0
VERTEX
  8
7700LEVEL
 62
13
 10
2402.953
 20
-7751.306
 30
-2425.000
 70
    32
  0
VERTEX
  8
7700LEVEL
 62
13
 10
2400.299
 20
-7811.427
 30
-2425.000
 70
    32
  0
VERTEX
  8
7700LEVEL
 62
13
 10
2421.172
 20
-7837.103
 30
-2425.000
 70
    32
  0
VERTEX
  8
7700LEVEL
 62
13
 10
2440.273
 20
-7881.123
 30
-2425.000
 70
    32
  0
VERTEX
  8
7700LEVEL
 62
13
 10
2445.691
 20
-7922.693
 30
-2425.000
 70
    32
  0
VERTEX
  8
7700LEVEL
 62
13
 10
2441.564
 20
-7940.111
 30
-2425.000
 70
    32
  0
VERTEX
  8
7700LEVEL
 62
13
 10
2424.206
 20
-7900.438
 30
-2425.000
 70
    32
  0
VERTEX
  8
7700LEVEL
 62
13
 10
2407.301
 20
-7863.872
 30
-2425.000
 70
    32
  0
VERTEX
  8
7700LEVEL
 62
13
 10
2382.824
 20
-7818.889
 30
-2425.000
 70
    32
  0
VERTEX
  8
7700LEVEL
 62
13
 10
2387.159
 20
-7761.852
 30
-2425.000
 70
    32
  0
VERTEX
  8
7700LEVEL
 62
13
 10
2390.074
 20
-7748.822
 30
-2425.000
 70
    32
  0
VERTEX
  8
7700LEVEL
 62
13
 10
2367.229
 20
-7715.525
 30
-2425.000
 70
    32
  0
VERTEX
  8
7700LEVEL
 62
13
 10
2354.444
 20
-7714.395
 30
-2425.000
 70
    32
  0
VERTEX
  8
7700LEVEL
 62
13
 10
2331.301
 20
-7698.203
 30
-2425.000
 70
    32
  0
VERTEX
  8
7700LEVEL
 62
13
 10
2322.744
 20
-7727.688
 30
-2425.000
 70
    32
  0
VERTEX
  8
7700LEVEL
 62
13
 10
2309.795
 20
-7742.266
 30
-2425.000
 70
    32
  0
VERTEX
  8
7700LEVEL
 62
13
 10
2301.844
 20
-7724.703
 30
-2425.000
 70
    32
  0
VERTEX
  8
7700LEVEL
 62
13
 10
2289.675
 20
-7749.003
 30
-2425.000
 70
    32
  0
VERTEX
  8
7700LEVEL
 62
13
 10
2278.980
 20
-7759.444
 30
-2425.000
 70
    32
  0
VERTEX
  8
7700LEVEL
 62
13
 10
2266.054
 20
-7741.495
 30
-2425.000
 70
    32
  0
VERTEX
  8
7700LEVEL
 62
13
 10
2251.409
 20
-7799.139
 30
-2425.000
 70
    32
  0
VERTEX
  8
7700LEVEL
 62
13
 10
2251.409
 20
-7861.286
 30
-2425.000
 70
    32
  0
VERTEX
  8
7700LEVEL
 62
13
 10
2255.546
 20
-7920.795
 30
-2425.000
 70
    32
  0
VERTEX
  8
7700LEVEL
 62
13
 10
2269.083
 20
-7975.785
 30
-2425.000
 70
    32
  0
VERTEX
  8
7700LEVEL
 62
13
 10
2268.329
 20
-8034.160
 30
-2425.000
 70
    32
  0
VERTEX
  8
7700LEVEL
 62
13
 10
2283.370
 20
-8080.487
 30
-2425.000
 70
    32
  0
VERTEX
  8
7700LEVEL
 62
13
 10
2278.106
 20
-8158.452
 30
-2425.000
 70
    32
  0
VERTEX
  8
7700LEVEL
 62
13
 10
2299.161
 20
-8258.635
 30
-2425.000
 70
    32
  0
VERTEX
  8
7700LEVEL
 62
13
 10
2317.211
 20
-8306.846
 30
-2425.000
 70
    32
  0
VERTEX
  8
7700LEVEL
 62
13
 10
2330.372
 20
-8359.199
 30
-2425.000
 70
    32
  0
VERTEX
  8
7700LEVEL
 62
13
 10
2337.141
 20
-8414.942
 30
-2425.000
 70
    32
  0
VERTEX
  8
7700LEVEL
 62
13
 10
2359.703
 20
-8460.891
 30
-2425.000
 70
    32
  0
VERTEX
  8
7700LEVEL
 62
13
 10
2370.608
 20
-8527.180
 30
-2425.000
 70
    32
  0
SEQEND
  8
7700LEVEL
  0
POLYLINE
  8
7700LEVEL
 62
7
 66
     1
 70
     8
  0
VERTEX
  8
7700LEVEL
 62
7
 10
2658.348
 20
-8320.874
 30
-2425.000
 70
    32
  0
VERTEX
  8
7700LEVEL
 62
7
 10
2647.636
 20
-8291.974
 30
-2425.000
 70
    32
  0
VERTEX
  8
7700LEVEL
 62
7
 10
2630.848
 20
-8266.020
 30
-2425.000
 70
    32
  0
VERTEX
  8
7700LEVEL
 62
7
 10
2618.067
 20
-8235.992
 30
-2425.000
 70
    32
  0
VERTEX
  8
7700LEVEL
 62
7
 10
2620.987
 20
-8207.011
 30
-2425.000
 70
    32
  0
VERTEX
  8
7700LEVEL
 62
7
 10
2612.780
 20
-8175.024
 30
-2425.000
 70
    32
  0
VERTEX
  8
7700LEVEL
 62
7
 10
2607.782
 20
-8151.185
 30
-2425.000
 70
    32
  0
VERTEX
  8
7700LEVEL
 62
7
 10
2593.196
 20
-8118.565
 30
-2425.000
 70
    32
  0
VERTEX
  8
7700LEVEL
 62
7
 10
2561.639
 20
-8081.616
 30
-2425.000
 70
    32
  0
VERTEX
  8
7700LEVEL
 62
7
 10
2564.831
 20
-8064.312
 30
-2425.000
 70
    32
  0
VERTEX
  8
7700LEVEL
 62
7
 10
2554.578
 20
-8024.398
 30
-2425.000
 70
    32
  0
VERTEX
  8
7700LEVEL
 62
7
 10
2540.229
 20
-7989.046
 30
-2425.000
 70
    32
  0
VERTEX
  8
7700LEVEL
 62
7
 10
2519.841
 20
-7953.622
 30
-2425.000
 70
    32
  0
VERTEX
  8
7700LEVEL
 62
7
 10
2506.093
 20
-7976.882
 30
-2425.000
 70
    32
  0
VERTEX
  8
7700LEVEL
 62
7
 10
2500.031
 20
-8009.336
 30
-2425.000
 70
    32
  0
VERTEX
  8
7700LEVEL
 62
7
 10
2526.411
 20
-8052.138
 30
-2425.000
 70
    32
  0
VERTEX
  8
7700LEVEL
 62
7
 10
2537.196
 20
-8097.812
 30
-2425.000
 70
    32
  0
VERTEX
  8
7700LEVEL
 62
7
 10
2570.798
 20
-8128.172
 30
-2425.000
 70
    32
  0
VERTEX
  8
7700LEVEL
 62
7
 10
2592.474
 20
-8185.570
 30
-2425.000
 70
    32
  0
VERTEX
  8
7700LEVEL
 62
7
 10
2609.382
 20
-8201.402
 30
-2425.000
 70
    32
  0
VERTEX
  8
7700LEVEL
 62
7
 10
2590.362
 20
-8228.762
 30
-2425.000
 70
    32
  0
VERTEX
  8
7700LEVEL
 62
7
 10
2583.379
 20
-8249.451
 30
-2425.000
 70
    32
  0
VERTEX
  8
7700LEVEL
 62
7
 10
2589.241
 20
-8274.457
 30
-2425.000
 70
    32
  0
VERTEX
  8
7700LEVEL
 62
7
 10
2570.991
 20
-8258.077
 30
-2425.000
 70
    32
  0
VERTEX
  8
7700LEVEL
 62
7
 10
2562.594
 20
-8223.286
 30
-2425.000
 70
    32
  0
VERTEX
  8
7700LEVEL
 62
7
 10
2560.134
 20
-8206.285
 30
-2425.000
 70
    32
  0
VERTEX
  8
7700LEVEL
 62
7
 10
2531.677
 20
-8177.655
 30
-2425.000
 70
    32
  0
VERTEX
  8
7700LEVEL
 62
7
 10
2514.334
 20
-8143.532
 30
-2425.000
 70
    32
  0
VERTEX
  8
7700LEVEL
 62
7
 10
2511.400
 20
-8166.964
 30
-2425.000
 70
    32
  0
VERTEX
  8
7700LEVEL
 62
7
 10
2530.924
 20
-8202.990
 30
-2425.000
 70
    32
  0
VERTEX
  8
7700LEVEL
 62
7
 10
2529.299
 20
-8223.234
 30
-2425.000
 70
    32
  0
VERTEX
  8
7700LEVEL
 62
7
 10
2544.071
 20
-8270.405
 30
-2425.000
 70
    32
  0
VERTEX
  8
7700LEVEL
 62
7
 10
2554.408
 20
-8299.995
 30
-2425.000
 70
    32
  0
VERTEX
  8
7700LEVEL
 62
7
 10
2578.400
 20
-8296.977
 30
-2425.000
 70
    32
  0
VERTEX
  8
7700LEVEL
 62
7
 10
2603.334
 20
-8297.155
 30
-2425.000
 70
    32
  0
VERTEX
  8
7700LEVEL
 62
7
 10
2603.846
 20
-8322.464
 30
-2425.000
 70
    32
  0
VERTEX
  8
7700LEVEL
 62
7
 10
2585.077
 20
-8352.643
 30
-2425.000
 70
    32
  0
VERTEX
  8
7700LEVEL
 62
7
 10
2553.739
 20
-8382.549
 30
-2425.000
 70
    32
  0
VERTEX
  8
7700LEVEL
 62
7
 10
2571.565
 20
-8397.128
 30
-2425.000
 70
    32
  0
SEQEND
  8
7700LEVEL
  0
POLYLINE
  8
7700LEVEL
 62
13
 66
     1
 70
     9
  0
VERTEX
  8
7700LEVEL
 62
13
 10
861.990
 20
-2885.858
 30
-2425.000
 70
    32
  0
VERTEX
  8
7700LEVEL
 62
13
 10
769.141
 20
-2709.381
 30
-2425.000
 70
    32
  0
VERTEX
  8
7700LEVEL
 62
13
 10
701.023
 20
-2554.654
 30
-2425.000
 70
    32
  0
VERTEX
  8
7700LEVEL
 62
13
 10
623.370
 20
-2381.745
 30
-2425.000
 70
    32
  0
VERTEX
  8
7700LEVEL
 62
13
 10
610.723
 20
-2341.862
 30
-2425.000
 70
    32
  0
VERTEX
  8
7700LEVEL
 62
13
 10
606.043
 20
-2319.591
 30
-2425.000
 70
    32
  0
VERTEX
  8
7700LEVEL
 62
13
 10
624.823
 20
-2346.983
 30
-2425.000
 70
    32
  0
VERTEX
  8
7700LEVEL
 62
13
 10
731.879
 20
-2544.403
 30
-2425.000
 70
    32
  0
VERTEX
  8
7700LEVEL
 62
13
 10
787.405
 20
-2657.139
 30
-2425.000
 70
    32
  0
VERTEX
  8
7700LEVEL
 62
13
 10
859.731
 20
-2792.468
 30
-2425.000
 70
    32
  0
VERTEX
  8
7700LEVEL
 62
13
 10
967.025
 20
-2980.931
 30
-2425.000
 70
    32
  0
VERTEX
  8
7700LEVEL
 62
13
 10
1095.713
 20
-3217.418
 30
-2425.000
 70
    32
  0
VERTEX
  8
7700LEVEL
 62
13
 10
1234.976
 20
-3472.642
 30
-2425.000
 70
    32
  0
VERTEX
  8
7700LEVEL
 62
13
 10
1037.946
 20
-3129.405
 30
-2425.000
 70
    32
  0
VERTEX
  8
7700LEVEL
 62
13
 10
925.938
 20
-2939.763
 30
-2425.000
 70
    32
  0
VERTEX
  8
7700LEVEL
 62
13
 10
851.174
 20
-2796.986
 30
-2425.000
 70
    32
  0
VERTEX
  8
7700LEVEL
 62
13
 10
801.002
 20
-2720.775
 30
-2425.000
 70
    32
  0
VERTEX
  8
7700LEVEL
 62
13
 10
767.840
 20
-2659.254
 30
-2425.000
 70
    32
  0
VERTEX
  8
7700LEVEL
 62
13
 10
787.914
 20
-2717.263
 30
-2425.000
 70
    32
  0
VERTEX
  8
7700LEVEL
 62
13
 10
805.746
 20
-2760.448
 30
-2425.000
 70
    32
  0
SEQEND
  8
7700LEVEL
  0
POLYLINE
  8
7700LEVEL
 62
13
 66
     1
 70
     9
  0
VERTEX
  8
7700LEVEL
 62
13
 10
1962.315
 20
-4633.059
 30
-2425.000
 70
    32
  0
VERTEX
  8
7700LEVEL
 62
13
 10
1861.809
 20
-4466.924
 30
-2425.000
 70
    32
  0
VERTEX
  8
7700LEVEL
 62
13
 10
1592.708
 20
-4018.419
 30
-2425.000
 70
    32
  0
VERTEX
  8
7700LEVEL
 62
13
 10
1343.959
 20
-3577.838
 30
-2425.000
 70
    32
  0
VERTEX
  8
7700LEVEL
 62
13
 10
1199.813
 20
-3288.210
 30
-2425.000
 70
    32
  0
VERTEX
  8
7700LEVEL
 62
13
 10
1087.761
 20
-3060.602
 30
-2425.000
 70
    32
  0
VERTEX
  8
7700LEVEL
 62
13
 10
1002.556
 20
-2874.310
 30
-2425.000
 70
    32
  0
VERTEX
  8
7700LEVEL
 62
13
 10
949.972
 20
-2750.052
 30
-2425.000
 70
    32
  0
VERTEX
  8
7700LEVEL
 62
13
 10
910.879
 20
-2673.609
 30
-2425.000
 70
    32
  0
VERTEX
  8
7700LEVEL
 62
13
 10
890.342
 20
-2632.988
 30
-2425.000
 70
    32
  0
VERTEX
  8
7700LEVEL
 62
13
 10
880.211
 20
-2617.427
 30
-2425.000
 70
    32
  0
VERTEX
  8
7700LEVEL
 62
13
 10
875.511
 20
-2615.720
 30
-2425.000
 70
    32
  0
VERTEX
  8
7700LEVEL
 62
13
 10
898.979
 20
-2684.892
 30
-2425.000
 70
    32
  0
VERTEX
  8
7700LEVEL
 62
13
 10
922.559
 20
-2749.849
 30
-2425.000
 70
    32
  0
VERTEX
  8
7700LEVEL
 62
13
 10
946.335
 20
-2807.429
 30
-2425.000
 70
    32
  0
VERTEX
  8
7700LEVEL
 62
13
 10
965.784
 20
-2869.113
 30
-2425.000
 70
    32
  0
VERTEX
  8
7700LEVEL
 62
13
 10
944.039
 20
-2834.260
 30
-2425.000
 70
    32
  0
VERTEX
  8
7700LEVEL
 62
13
 10
896.732
 20
-2729.652
 30
-2425.000
 70
    32
  0
VERTEX
  8
7700LEVEL
 62
13
 10
855.039
 20
-2632.048
 30
-2425.000
 70
    32
  0
VERTEX
  8
7700LEVEL
 62
13
 10
790.427
 20
-2484.269
 30
-2425.000
 70
    32
  0
VERTEX
  8
7700LEVEL
 62
13
 10
748.537
 20
-2394.042
 30
-2425.000
 70
    32
  0
VERTEX
  8
7700LEVEL
 62
13
 10
745.262
 20
-2358.627
 30
-2425.000
 70
    32
  0
VERTEX
  8
7700LEVEL
 62
13
 10
756.425
 20
-2355.233
 30
-2425.000
 70
    32
  0
VERTEX
  8
7700LEVEL
 62
13
 10
800.998
 20
-2423.913
 30
-2425.000
 70
    32
  0
VERTEX
  8
7700LEVEL
 62
13
 10
883.533
 20
-2591.679
 30
-2425.000
 70
    32
  0
VERTEX
  8
7700LEVEL
 62
13
 10
959.597
 20
-2745.035
 30
-2425.000
 70
    32
  0
VERTEX
  8
7700LEVEL
 62
13
 10
1025.109
 20
-2898.639
 30
-2425.000
 70
    32
  0
VERTEX
  8
7700LEVEL
 62
13
 10
1097.913
 20
-3055.600
 30
-2425.000
 70
    32
  0
VERTEX
  8
7700LEVEL
 62
13
 10
1172.811
 20
-3213.144
 30
-2425.000
 70
    32
  0
VERTEX
  8
7700LEVEL
 62
13
 10
1285.530
 20
-3435.497
 30
-2425.000
 70
    32
  0
VERTEX
  8
7700LEVEL
 62
13
 10
1411.928
 20
-3678.778
 30
-2425.000
 70
    32
  0
VERTEX
  8
7700LEVEL
 62
13
 10
1548.851
 20
-3922.867
 30
-2425.000
 70
    32
  0
VERTEX
  8
7700LEVEL
 62
13
 10
1671.264
 20
-4137.569
 30
-2425.000
 70
    32
  0
VERTEX
  8
7700LEVEL
 62
13
 10
1776.773
 20
-4313.856
 30
-2425.000
 70
    32
  0
SEQEND
  8
7700LEVEL
  0
POLYLINE
  8
7700LEVEL
 62
13
 66
     1
 70
     9
  0
VERTEX
  8
7700LEVEL
 62
13
 10
3619.709
 20
-7162.824
 30
-2425.000
 70
    32
  0
VERTEX
  8
7700LEVEL
 62
13
 10
3582.036
 20
-7112.256
 30
-2425.000
 70
    32
  0
VERTEX
  8
7700LEVEL
 62
13
 10
3490.088
 20
-6981.149
 30
-2425.000
 70
    32
  0
VERTEX
  8
7700LEVEL
 62
13
 10
3302.939
 20
-6702.504
 30
-2425.000
 70
    32
  0
VERTEX
  8
7700LEVEL
 62
13
 10
3066.699
 20
-6346.622
 30
-2425.000
 70
    32
  0
VERTEX
  8
7700LEVEL
 62
13
 10
2907.142
 20
-6120.913
 30
-2425.000
 70
    32
  0
VERTEX
  8
7700LEVEL
 62
13
 10
2735.962
 20
-5856.402
 30
-2425.000
 70
    32
  0
VERTEX
  8
7700LEVEL
 62
13
 10
2579.916
 20
-5617.604
 30
-2425.000
 70
    32
  0
VERTEX
  8
7700LEVEL
 62
13
 10
2513.100
 20
-5513.004
 30
-2425.000
 70
    32
  0
VERTEX
  8
7700LEVEL
 62
13
 10
2483.253
 20
-5445.771
 30
-2425.000
 70
    32
  0
VERTEX
  8
7700LEVEL
 62
13
 10
2548.643
 20
-5544.533
 30
-2425.000
 70
    32
  0
VERTEX
  8
7700LEVEL
 62
13
 10
2654.046
 20
-5704.998
 30
-2425.000
 70
    32
  0
VERTEX
  8
7700LEVEL
 62
13
 10
2767.542
 20
-5878.334
 30
-2425.000
 70
    32
  0
VERTEX
  8
7700LEVEL
 62
13
 10
2866.404
 20
-6027.025
 30
-2425.000
 70
    32
  0
VERTEX
  8
7700LEVEL
 62
13
 10
2951.172
 20
-6150.558
 30
-2425.000
 70
    32
  0
VERTEX
  8
7700LEVEL
 62
13
 10
2888.184
 20
-6040.787
 30
-2425.000
 70
    32
  0
VERTEX
  8
7700LEVEL
 62
13
 10
2811.847
 20
-5917.479
 30
-2425.000
 70
    32
  0
VERTEX
  8
7700LEVEL
 62
13
 10
2720.777
 20
-5773.213
 30
-2425.000
 70
    32
  0
VERTEX
  8
7700LEVEL
 62
13
 10
2610.702
 20
-5609.987
 30
-2425.000
 70
    32
  0
VERTEX
  8
7700LEVEL
 62
13
 10
2494.282
 20
-5427.609
 30
-2425.000
 70
    32
  0
VERTEX
  8
7700LEVEL
 62
13
 10
2317.819
 20
-5163.485
 30
-2425.000
 70
    32
  0
VERTEX
  8
7700LEVEL
 62
13
 10
2193.903
 20
-4965.617
 30
-2425.000
 70
    32
  0
VERTEX
  8
7700LEVEL
 62
13
 10
2100.837
 20
-4817.080
 30
-2425.000
 70
    32
  0
VERTEX
  8
7700LEVEL
 62
13
 10
2070.752
 20
-4758.805
 30
-2425.000
 70
    32
  0
VERTEX
  8
7700LEVEL
 62
13
 10
1962.734
 20
-4577.705
 30
-2425.000
 70
    32
  0
VERTEX
  8
7700LEVEL
 62
13
 10
1803.934
 20
-4323.543
 30
-2425.000
 70
    32
  0
VERTEX
  8
7700LEVEL
 62
13
 10
1692.706
 20
-4124.430
 30
-2425.000
 70
    32
  0
VERTEX
  8
7700LEVEL
 62
13
 10
1599.512
 20
-3941.089
 30
-2425.000
 70
    32
  0
VERTEX
  8
7700LEVEL
 62
13
 10
1516.450
 20
-3773.309
 30
-2425.000
 70
    32
  0
VERTEX
  8
7700LEVEL
 62
13
 10
1420.538
 20
-3593.059
 30
-2425.000
 70
    32
  0
VERTEX
  8
7700LEVEL
 62
13
 10
1347.355
 20
-3450.325
 30
-2425.000
 70
    32
  0
VERTEX
  8
7700LEVEL
 62
13
 10
1301.987
 20
-3352.096
 30
-2425.000
 70
    32
  0
VERTEX
  8
7700LEVEL
 62
13
 10
1250.858
 20
-3232.622
 30
-2425.000
 70
    32
  0
VERTEX
  8
7700LEVEL
 62
13
 10
1367.041
 20
-3463.504
 30
-2425.000
 70
    32
  0
VERTEX
  8
7700LEVEL
 62
13
 10
1460.515
 20
-3636.307
 30
-2425.000
 70
    32
  0
VERTEX
  8
7700LEVEL
 62
13
 10
1538.174
 20
-3789.179
 30
-2425.000
 70
    32
  0
VERTEX
  8
7700LEVEL
 62
13
 10
1632.357
 20
-3955.146
 30
-2425.000
 70
    32
  0
VERTEX
  8
7700LEVEL
 62
13
 10
1750.976
 20
-4153.928
 30
-2425.000
 70
    32
  0
VERTEX
  8
7700LEVEL
 62
13
 10
1879.615
 20
-4372.486
 30
-2425.000
 70
    32
  0
VERTEX
  8
7700LEVEL
 62
13
 10
2016.361
 20
-4603.388
 30
-2425.000
 70
    32
  0
VERTEX
  8
7700LEVEL
 62
13
 10
2091.005
 20
-4730.870
 30
-2425.000
 70
    32
  0
VERTEX
  8
7700LEVEL
 62
13
 10
2139.330
 20
-4817.050
 30
-2425.000
 70
    32
  0
VERTEX
  8
7700LEVEL
 62
13
 10
2229.262
 20
-4964.449
 30
-2425.000
 70
    32
  0
VERTEX
  8
7700LEVEL
 62
13
 10
2363.021
 20
-5168.907
 30
-2425.000
 70
    32
  0
VERTEX
  8
7700LEVEL
 62
13
 10
2495.517
 20
-5381.241
 30
-2425.000
 70
    32
  0
VERTEX
  8
7700LEVEL
 62
13
 10
2784.212
 20
-5826.577
 30
-2425.000
 70
    32
  0
VERTEX
  8
7700LEVEL
 62
13
 10
2953.172
 20
-6095.247
 30
-2425.000
 70
    32
  0
VERTEX
  8
7700LEVEL
 62
13
 10
3183.214
 20
-6446.218
 30
-2425.000
 70
    32
  0
VERTEX
  8
7700LEVEL
 62
13
 10
3357.928
 20
-6716.623
 30
-2425.000
 70
    32
  0
VERTEX
  8
7700LEVEL
 62
13
 10
3477.425
 20
-6902.246
 30
-2425.000
 70
    32
  0
VERTEX
  8
7700LEVEL
 62
13
 10
3572.662
 20
-7068.241
 30
-2425.000
 70
    32
  0
SEQEND
  8
7700LEVEL
  0
POLYLINE
  8
7700LEVEL
 62
13
 66
     1
 70
     9
  0
VERTEX
  8
7700LEVEL
 62
13
 10
1752.429
 20
-4475.612
 30
-2425.000
 70
    32
  0
VERTEX
  8
7700LEVEL
 62
13
 10
1573.190
 20
-4177.140
 30
-2425.000
 70
    32
  0
VERTEX
  8
7700LEVEL
 62
13
 10
1280.741
 20
-3674.757
 30
-2425.000
 70
    32
  0
VERTEX
  8
7700LEVEL
 62
13
 10
1048.890
 20
-3253.081
 30
-2425.000
 70
    32
  0
VERTEX
  8
7700LEVEL
 62
13
 10
922.351
 20
-3015.069
 30
-2425.000
 70
    32
  0
VERTEX
  8
7700LEVEL
 62
13
 10
1096.279
 20
-3314.981
 30
-2425.000
 70
    32
  0
VERTEX
  8
7700LEVEL
 62
13
 10
1273.088
 20
-3625.516
 30
-2425.000
 70
    32
  0
VERTEX
  8
7700LEVEL
 62
13
 10
1446.890
 20
-3930.170
 30
-2425.000
 70
    32
  0
VERTEX
  8
7700LEVEL
 62
13
 10
1596.466
 20
-4194.106
 30
-2425.000
 70
    32
  0
SEQEND
  8
7700LEVEL
  0
POLYLINE
  8
7700LEVEL
 62
13
 66
     1
 70
     9
  0
VERTEX
  8
7700LEVEL
 62
13
 10
2579.204
 20
-5723.570
 30
-2425.000
 70
    32
  0
VERTEX
  8
7700LEVEL
 62
13
 10
2533.944
 20
-5680.709
 30
-2425.000
 70
    32
  0
VERTEX
  8
7700LEVEL
 62
13
 10
2455.275
 20
-5565.775
 30
-2425.000
 70
    32
  0
VERTEX
  8
7700LEVEL
 62
13
 10
2287.769
 20
-5301.889
 30
-2425.000
 70
    32
  0
VERTEX
  8
7700LEVEL
 62
13
 10
2123.995
 20
-5036.521
 30
-2425.000
 70
    32
  0
VERTEX
  8
7700LEVEL
 62
13
 10
2026.235
 20
-4866.240
 30
-2425.000
 70
    32
  0
VERTEX
  8
7700LEVEL
 62
13
 10
1991.007
 20
-4803.082
 30
-2425.000
 70
    32
  0
VERTEX
  8
7700LEVEL
 62
13
 10
1866.942
 20
-4590.973
 30
-2425.000
 70
    32
  0
VERTEX
  8
7700LEVEL
 62
13
 10
1760.007
 20
-4408.848
 30
-2425.000
 70
    32
  0
VERTEX
  8
7700LEVEL
 62
13
 10
1664.243
 20
-4242.839
 30
-2425.000
 70
    32
  0
VERTEX
  8
7700LEVEL
 62
13
 10
1571.001
 20
-4081.116
 30
-2425.000
 70
    32
  0
VERTEX
  8
7700LEVEL
 62
13
 10
1522.528
 20
-3980.695
 30
-2425.000
 70
    32
  0
VERTEX
  8
7700LEVEL
 62
13
 10
1572.005
 20
-4063.214
 30
-2425.000
 70
    32
  0
VERTEX
  8
7700LEVEL
 62
13
 10
1667.699
 20
-4231.858
 30
-2425.000
 70
    32
  0
VERTEX
  8
7700LEVEL
 62
13
 10
1798.459
 20
-4449.946
 30
-2425.000
 70
    32
  0
VERTEX
  8
7700LEVEL
 62
13
 10
1916.826
 20
-4658.212
 30
-2425.000
 70
    32
  0
VERTEX
  8
7700LEVEL
 62
13
 10
2004.468
 20
-4812.405
 30
-2425.000
 70
    32
  0
VERTEX
  8
7700LEVEL
 62
13
 10
2017.578
 20
-4834.900
 30
-2425.000
 70
    32
  0
VERTEX
  8
7700LEVEL
 62
13
 10
2023.128
 20
-4824.502
 30
-2425.000
 70
    32
  0
VERTEX
  8
7700LEVEL
 62
13
 10
2010.573
 20
-4800.967
 30
-2425.000
 70
    32
  0
VERTEX
  8
7700LEVEL
 62
13
 10
1952.932
 20
-4708.211
 30
-2425.000
 70
    32
  0
VERTEX
  8
7700LEVEL
 62
13
 10
1865.178
 20
-4558.234
 30
-2425.000
 70
    32
  0
VERTEX
  8
7700LEVEL
 62
13
 10
1757.273
 20
-4372.920
 30
-2425.000
 70
    32
  0
VERTEX
  8
7700LEVEL
 62
13
 10
1687.455
 20
-4242.403
 30
-2425.000
 70
    32
  0
VERTEX
  8
7700LEVEL
 62
13
 10
1610.373
 20
-4107.474
 30
-2425.000
 70
    32
  0
VERTEX
  8
7700LEVEL
 62
13
 10
1537.865
 20
-3978.994
 30
-2425.000
 70
    32
  0
VERTEX
  8
7700LEVEL
 62
13
 10
1433.592
 20
-3795.885
 30
-2425.000
 70
    32
  0
VERTEX
  8
7700LEVEL
 62
13
 10
1545.312
 20
-3976.556
 30
-2425.000
 70
    32
  0
VERTEX
  8
7700LEVEL
 62
13
 10
1650.139
 20
-4158.625
 30
-2425.000
 70
    32
  0
VERTEX
  8
7700LEVEL
 62
13
 10
1770.227
 20
-4361.664
 30
-2425.000
 70
    32
  0
VERTEX
  8
7700LEVEL
 62
13
 10
1888.235
 20
-4563.594
 30
-2425.000
 70
    32
  0
VERTEX
  8
7700LEVEL
 62
13
 10
2008.724
 20
-4771.390
 30
-2425.000
 70
    32
  0
VERTEX
  8
7700LEVEL
 62
13
 10
2064.349
 20
-4880.437
 30
-2425.000
 70
    32
  0
VERTEX
  8
7700LEVEL
 62
13
 10
2218.956
 20
-5153.471
 30
-2425.000
 70
    32
  0
VERTEX
  8
7700LEVEL
 62
13
 10
2358.730
 20
-5369.689
 30
-2425.000
 70
    32
  0
VERTEX
  8
7700LEVEL
 62
13
 10
2518.542
 20
-5625.461
 30
-2425.000
 70
    32
  0
SEQEND
  8
7700LEVEL
  0
POLYLINE
  8
7700LEVEL
 62
13
 66
     1
 70
     9
  0
VERTEX
  8
7700LEVEL
 62
13
 10
1666.022
 20
-3918.605
 30
-2425.000
 70
    32
  0
VERTEX
  8
7700LEVEL
 62
13
 10
1683.832
 20
-3942.807
 30
-2425.000
 70
    32
  0
VERTEX
  8
7700LEVEL
 62
13
 10
1818.830
 20
-4179.990
 30
-2425.000
 70
    32
  0
VERTEX
  8
7700LEVEL
 62
13
 10
1972.411
 20
-4451.941
 30
-2425.000
 70
    32
  0
VERTEX
  8
7700LEVEL
 62
13
 10
2081.235
 20
-4622.516
 30
-2425.000
 70
    32
  0
VERTEX
  8
7700LEVEL
 62
13
 10
2111.539
 20
-4692.398
 30
-2425.000
 70
    32
  0
VERTEX
  8
7700LEVEL
 62
13
 10
2064.430
 20
-4619.960
 30
-2425.000
 70
    32
  0
VERTEX
  8
7700LEVEL
 62
13
 10
1968.315
 20
-4467.124
 30
-2425.000
 70
    32
  0
VERTEX
  8
7700LEVEL
 62
13
 10
1888.767
 20
-4325.802
 30
-2425.000
 70
    32
  0
VERTEX
  8
7700LEVEL
 62
13
 10
1793.931
 20
-4164.563
 30
-2425.000
 70
    32
  0
VERTEX
  8
7700LEVEL
 62
13
 10
1726.776
 20
-4033.062
 30
-2425.000
 70
    32
  0
SEQEND
  8
7700LEVEL
  0
POLYLINE
  8
7700LEVEL
 62
13
 66
     1
 70
     9
  0
VERTEX
  8
7700LEVEL
 62
13
 10
1735.726
 20
-3657.345
 30
-2425.000
 70
    32
  0
VERTEX
  8
7700LEVEL
 62
13
 10
1841.854
 20
-3849.994
 30
-2425.000
 70
    32
  0
VERTEX
  8
7700LEVEL
 62
13
 10
2025.660
 20
-4174.952
 30
-2425.000
 70
    32
  0
VERTEX
  8
7700LEVEL
 62
13
 10
2266.994
 20
-4557.334
 30
-2425.000
 70
    32
  0
VERTEX
  8
7700LEVEL
 62
13
 10
2341.961
 20
-4672.697
 30
-2425.000
 70
    32
  0
VERTEX
  8
7700LEVEL
 62
13
 10
2370.015
 20
-4708.245
 30
-2425.000
 70
    32
  0
VERTEX
  8
7700LEVEL
 62
13
 10
2483.835
 20
-4869.461
 30
-2425.000
 70
    32
  0
VERTEX
  8
7700LEVEL
 62
13
 10
2617.642
 20
-5052.302
 30
-2425.000
 70
    32
  0
VERTEX
  8
7700LEVEL
 62
13
 10
2705.930
 20
-5182.257
 30
-2425.000
 70
    32
  0
VERTEX
  8
7700LEVEL
 62
13
 10
2737.203
 20
-5255.328
 30
-2425.000
 70
    32
  0
VERTEX
  8
7700LEVEL
 62
13
 10
2621.410
 20
-5108.822
 30
-2425.000
 70
    32
  0
VERTEX
  8
7700LEVEL
 62
13
 10
2484.293
 20
-4911.657
 30
-2425.000
 70
    32
  0
VERTEX
  8
7700LEVEL
 62
13
 10
2369.173
 20
-4739.859
 30
-2425.000
 70
    32
  0
VERTEX
  8
7700LEVEL
 62
13
 10
2322.022
 20
-4669.002
 30
-2425.000
 70
    32
  0
VERTEX
  8
7700LEVEL
 62
13
 10
2118.573
 20
-4368.831
 30
-2425.000
 70
    32
  0
VERTEX
  8
7700LEVEL
 62
13
 10
1969.644
 20
-4120.204
 30
-2425.000
 70
    32
  0
VERTEX
  8
7700LEVEL
 62
13
 10
1872.355
 20
-3952.045
 30
-2425.000
 70
    32
  0
VERTEX
  8
7700LEVEL
 62
13
 10
1796.888
 20
-3796.068
 30
-2425.000
 70
    32
  0
VERTEX
  8
7700LEVEL
 62
13
 10
1768.594
 20
-3729.931
 30
-2425.000
 70
    32
  0
SEQEND
  8
7700LEVEL
  0
POLYLINE
  8
7700LEVEL
 62
13
 66
     1
 70
     9
  0
VERTEX
  8
7700LEVEL
 62
13
 10
2221.107
 20
-4835.047
 30
-2425.000
 70
    32
  0
VERTEX
  8
7700LEVEL
 62
13
 10
2319.779
 20
-4971.078
 30
-2425.000
 70
    32
  0
VERTEX
  8
7700LEVEL
 62
13
 10
2391.985
 20
-5091.113
 30
-2425.000
 70
    32
  0
VERTEX
  8
7700LEVEL
 62
13
 10
2476.471
 20
-5225.184
 30
-2425.000
 70
    32
  0
VERTEX
  8
7700LEVEL
 62
13
 10
2419.836
 20
-5154.074
 30
-2425.000
 70
    32
  0
VERTEX
  8
7700LEVEL
 62
13
 10
2349.900
 20
-5047.809
 30
-2425.000
 70
    32
  0
VERTEX
  8
7700LEVEL
 62
13
 10
2269.404
 20
-4922.280
 30
-2425.000
 70
    32
  0
SEQEND
  8
7700LEVEL
  0
POLYLINE
  8
7700LEVEL
 62
13
 66
     1
 70
     9
  0
VERTEX
  8
7700LEVEL
 62
13
 10
3501.098
 20
-7379.544
 30
-2425.000
 70
    32
  0
VERTEX
  8
7700LEVEL
 62
13
 10
3477.253
 20
-7364.145
 30
-2425.000
 70
    32
  0
VERTEX
  8
7700LEVEL
 62
13
 10
3397.144
 20
-7243.900
 30
-2425.000
 70
    32
  0
VERTEX
  8
7700LEVEL
 62
13
 10
3201.718
 20
-6959.234
 30
-2425.000
 70
    32
  0
VERTEX
  8
7700LEVEL
 62
13
 10
3019.600
 20
-6689.686
 30
-2425.000
 70
    32
  0
VERTEX
  8
7700LEVEL
 62
13
 10
2748.919
 20
-6280.686
 30
-2425.000
 70
    32
  0
VERTEX
  8
7700LEVEL
 62
13
 10
2505.520
 20
-5896.667
 30
-2425.000
 70
    32
  0
VERTEX
  8
7700LEVEL
 62
13
 10
2466.441
 20
-5819.697
 30
-2425.000
 70
    32
  0
VERTEX
  8
7700LEVEL
 62
13
 10
2498.873
 20
-5869.071
 30
-2425.000
 70
    32
  0
VERTEX
  8
7700LEVEL
 62
13
 10
2634.319
 20
-6089.393
 30
-2425.000
 70
    32
  0
VERTEX
  8
7700LEVEL
 62
13
 10
2755.923
 20
-6275.072
 30
-2425.000
 70
    32
  0
VERTEX
  8
7700LEVEL
 62
13
 10
2858.403
 20
-6426.496
 30
-2425.000
 70
    32
  0
VERTEX
  8
7700LEVEL
 62
13
 10
2934.452
 20
-6540.833
 30
-2425.000
 70
    32
  0
VERTEX
  8
7700LEVEL
 62
13
 10
2883.008
 20
-6452.988
 30
-2425.000
 70
    32
  0
VERTEX
  8
7700LEVEL
 62
13
 10
2785.831
 20
-6280.614
 30
-2425.000
 70
    32
  0
VERTEX
  8
7700LEVEL
 62
13
 10
2640.304
 20
-6062.660
 30
-2425.000
 70
    32
  0
VERTEX
  8
7700LEVEL
 62
13
 10
2530.038
 20
-5886.774
 30
-2425.000
 70
    32
  0
VERTEX
  8
7700LEVEL
 62
13
 10
2421.551
 20
-5703.553
 30
-2425.000
 70
    32
  0
VERTEX
  8
7700LEVEL
 62
13
 10
2318.803
 20
-5522.594
 30
-2425.000
 70
    32
  0
VERTEX
  8
7700LEVEL
 62
13
 10
2185.300
 20
-5249.068
 30
-2425.000
 70
    32
  0
VERTEX
  8
7700LEVEL
 62
13
 10
2302.016
 20
-5459.927
 30
-2425.000
 70
    32
  0
VERTEX
  8
7700LEVEL
 62
13
 10
2413.427
 20
-5652.190
 30
-2425.000
 70
    32
  0
VERTEX
  8
7700LEVEL
 62
13
 10
2563.839
 20
-5904.547
 30
-2425.000
 70
    32
  0
VERTEX
  8
7700LEVEL
 62
13
 10
2754.087
 20
-6205.421
 30
-2425.000
 70
    32
  0
VERTEX
  8
7700LEVEL
 62
13
 10
2896.327
 20
-6428.033
 30
-2425.000
 70
    32
  0
VERTEX
  8
7700LEVEL
 62
13
 10
3089.196
 20
-6729.504
 30
-2425.000
 70
    32
  0
VERTEX
  8
7700LEVEL
 62
13
 10
3305.671
 20
-7055.332
 30
-2425.000
 70
    32
  0
VERTEX
  8
7700LEVEL
 62
13
 10
3456.230
 20
-7282.383
 30
-2425.000
 70
    32
  0
SEQEND
  8
7700LEVEL
  0
POLYLINE
  8
7700LEVEL
 62
13
 66
     1
 70
     9
  0
VERTEX
  8
7700LEVEL
 62
13
 10
2060.434
 20
-5562.115
 30
-2425.000
 70
    32
  0
VERTEX
  8
7700LEVEL
 62
13
 10
2141.337
 20
-5672.364
 30
-2425.000
 70
    32
  0
VERTEX
  8
7700LEVEL
 62
13
 10
2182.004
 20
-5768.885
 30
-2425.000
 70
    32
  0
VERTEX
  8
7700LEVEL
 62
13
 10
2325.551
 20
-5982.041
 30
-2425.000
 70
    32
  0
VERTEX
  8
7700LEVEL
 62
13
 10
2350.016
 20
-6053.349
 30
-2425.000
 70
    32
  0
VERTEX
  8
7700LEVEL
 62
13
 10
2314.072
 20
-6017.063
 30
-2425.000
 70
    32
  0
VERTEX
  8
7700LEVEL
 62
13
 10
2243.181
 20
-5907.082
 30
-2425.000
 70
    32
  0
VERTEX
  8
7700LEVEL
 62
13
 10
2173.427
 20
-5793.967
 30
-2425.000
 70
    32
  0
VERTEX
  8
7700LEVEL
 62
13
 10
2109.251
 20
-5669.400
 30
-2425.000
 70
    32
  0
SEQEND
  8
7700LEVEL
  0
POLYLINE
  8
7700LEVEL
 62
13
 66
     1
 70
     9
  0
VERTEX
  8
7700LEVEL
 62
13
 10
2827.702
 20
-6787.397
 30
-2425.000
 70
    32
  0
VERTEX
  8
7700LEVEL
 62
13
 10
2954.041
 20
-6953.693
 30
-2425.000
 70
    32
  0
VERTEX
  8
7700LEVEL
 62
13
 10
3040.902
 20
-7077.809
 30
-2425.000
 70
    32
  0
VERTEX
  8
7700LEVEL
 62
13
 10
3218.356
 20
-7364.106
 30
-2425.000
 70
    32
  0
VERTEX
  8
7700LEVEL
 62
13
 10
3341.640
 20
-7546.139
 30
-2425.000
 70
    32
  0
VERTEX
  8
7700LEVEL
 62
13
 10
3462.852
 20
-7746.572
 30
-2425.000
 70
    32
  0
VERTEX
  8
7700LEVEL
 62
13
 10
3547.368
 20
-7919.136
 30
-2425.000
 70
    32
  0
VERTEX
  8
7700LEVEL
 62
13
 10
3461.294
 20
-7805.060
 30
-2425.000
 70
    32
  0
VERTEX
  8
7700LEVEL
 62
13
 10
3347.271
 20
-7631.710
 30
-2425.000
 70
    32
  0
VERTEX
  8
7700LEVEL
 62
13
 10
3238.861
 20
-7465.364
 30
-2425.000
 70
    32
  0
VERTEX
  8
7700LEVEL
 62
13
 10
3129.916
 20
-7279.494
 30
-2425.000
 70
    32
  0
VERTEX
  8
7700LEVEL
 62
13
 10
3005.817
 20
-7088.475
 30
-2425.000
 70
    32
  0
VERTEX
  8
7700LEVEL
 62
13
 10
2935.657
 20
-6990.641
 30
-2425.000
 70
    32
  0
SEQEND
  8
7700LEVEL
  0
POLYLINE
  8
7700LEVEL
 62
13
 66
     1
 70
     9
  0
VERTEX
  8
7700LEVEL
 62
13
 10
3113.554
 20
-7101.890
 30
-2425.000
 70
    32
  0
VERTEX
  8
7700LEVEL
 62
13
 10
3181.402
 20
-7187.535
 30
-2425.000
 70
    32
  0
VERTEX
  8
7700LEVEL
 62
13
 10
3278.761
 20
-7353.060
 30
-2425.000
 70
    32
  0
VERTEX
  8
7700LEVEL
 62
13
 10
3316.371
 20
-7425.772
 30
-2425.000
 70
    32
  0
VERTEX
  8
7700LEVEL
 62
13
 10
3273.914
 20
-7376.658
 30
-2425.000
 70
    32
  0
VERTEX
  8
7700LEVEL
 62
13
 10
3194.887
 20
-7255.387
 30
-2425.000
 70
    32
  0
VERTEX
  8
7700LEVEL
 62
13
 10
3151.929
 20
-7165.659
 30
-2425.000
 70
    32
  0
VERTEX
  8
7700LEVEL
 62
13
 10
3121.507
 20
-7120.030
 30
-2425.000
 70
    32
  0
SEQEND
  8
7700LEVEL
  0
POLYLINE
  8
7700LEVEL
 62
13
 66
     1
 70
     9
  0
VERTEX
  8
7700LEVEL
 62
13
 10
3132.265
 20
-6993.240
 30
-2425.000
 70
    32
  0
VERTEX
  8
7700LEVEL
 62
13
 10
3185.675
 20
-7046.863
 30
-2425.000
 70
    32
  0
VERTEX
  8
7700LEVEL
 62
13
 10
3284.853
 20
-7203.472
 30
-2425.000
 70
    32
  0
VERTEX
  8
7700LEVEL
 62
13
 10
3400.767
 20
-7365.272
 30
-2425.000
 70
    32
  0
VERTEX
  8
7700LEVEL
 62
13
 10
3458.273
 20
-7443.260
 30
-2425.000
 70
    32
  0
VERTEX
  8
7700LEVEL
 62
13
 10
3492.806
 20
-7512.727
 30
-2425.000
 70
    32
  0
VERTEX
  8
7700LEVEL
 62
13
 10
3424.453
 20
-7446.051
 30
-2425.000
 70
    32
  0
VERTEX
  8
7700LEVEL
 62
13
 10
3348.749
 20
-7338.577
 30
-2425.000
 70
    32
  0
VERTEX
  8
7700LEVEL
 62
13
 10
3258.107
 20
-7198.014
 30
-2425.000
 70
    32
  0
VERTEX
  8
7700LEVEL
 62
13
 10
3185.086
 20
-7068.994
 30
-2425.000
 70
    32
  0
SEQEND
  8
7700LEVEL
  0
POLYLINE
  8
7700LEVEL
 62
13
 66
     1
 70
     9
  0
VERTEX
  8
7700LEVEL
 62
13
 10
2791.040
 20
-5629.553
 30
-2425.000
 70
    32
  0
VERTEX
  8
7700LEVEL
 62
13
 10
2901.051
 20
-5775.377
 30
-2425.000
 70
    32
  0
VERTEX
  8
7700LEVEL
 62
13
 10
3018.489
 20
-5939.327
 30
-2425.000
 70
    32
  0
VERTEX
  8
7700LEVEL
 62
13
 10
3109.060
 20
-6082.524
 30
-2425.000
 70
    32
  0
VERTEX
  8
7700LEVEL
 62
13
 10
2991.869
 20
-5929.127
 30
-2425.000
 70
    32
  0
VERTEX
  8
7700LEVEL
 62
13
 10
2902.612
 20
-5795.983
 30
-2425.000
 70
    32
  0
VERTEX
  8
7700LEVEL
 62
13
 10
2817.936
 20
-5688.798
 30
-2425.000
 70
    32
  0
SEQEND
  8
7700LEVEL
  0
POLYLINE
  8
7700LEVEL
 62
8
 66
     1
 70
     8
  0
VERTEX
  8
7700LEVEL
 62
8
 10
2007.319
 20
-3497.427
 30
-2425.000
 70
    32
  0
VERTEX
  8
7700LEVEL
 62
8
 10
2298.471
 20
-4068.322
 30
-2425.000
 70
    32
  0
VERTEX
  8
7700LEVEL
 62
8
 10
2746.917
 20
-4831.120
 30
-2425.000
 70
    32
  0
VERTEX
  8
7700LEVEL
 62
8
 10
3289.759
 20
-5613.305
 30
-2425.000
 70
    32
  0
VERTEX
  8
7700LEVEL
 62
8
 10
3397.726
 20
-5776.475
 30
-2425.000
 70
    32
  0
SEQEND
  8
7700LEVEL
  0
POLYLINE
  8
7700LEVEL
 62
13
 66
     1
 70
     8
  0
VERTEX
  8
7700LEVEL
 62
13
 10
2458.977
 20
-7256.715
 30
-2425.000
 70
    32
  0
VERTEX
  8
7700LEVEL
 62
13
 10
2447.723
 20
-7241.614
 30
-2425.000
 70
    32
  0
VERTEX
  8
7700LEVEL
 62
13
 10
2435.061
 20
-7227.557
 30
-2425.000
 70
    32
  0
VERTEX
  8
7700LEVEL
 62
13
 10
2427.720
 20
-7218.409
 30
-2425.000
 70
    32
  0
VERTEX
  8
7700LEVEL
 62
13
 10
2418.626
 20
-7207.568
 30
-2425.000
 70
    32
  0
VERTEX
  8
7700LEVEL
 62
13
 10
2406.361
 20
-7195.897
 30
-2425.000
 70
    32
  0
VERTEX
  8
7700LEVEL
 62
13
 10
2395.758
 20
-7184.366
 30
-2425.000
 70
    32
  0
VERTEX
  8
7700LEVEL
 62
13
 10
2387.439
 20
-7174.571
 30
-2425.000
 70
    32
  0
VERTEX
  8
7700LEVEL
 62
13
 10
2375.611
 20
-7159.958
 30
-2425.000
 70
    32
  0
VERTEX
  8
7700LEVEL
 62
13
 10
2367.377
 20
-7149.352
 30
-2425.000
 70
    32
  0
VERTEX
  8
7700LEVEL
 62
13
 10
2359.455
 20
-7140.261
 30
-2425.000
 70
    32
  0
VERTEX
  8
7700LEVEL
 62
13
 10
2349.659
 20
-7129.566
 30
-2425.000
 70
    32
  0
VERTEX
  8
7700LEVEL
 62
13
 10
2343.088
 20
-7120.783
 30
-2425.000
 70
    32
  0
VERTEX
  8
7700LEVEL
 62
13
 10
2339.711
 20
-7113.871
 30
-2425.000
 70
    32
  0
VERTEX
  8
7700LEVEL
 62
13
 10
2336.260
 20
-7102.401
 30
-2425.000
 70
    32
  0
VERTEX
  8
7700LEVEL
 62
13
 10
2333.885
 20
-7093.813
 30
-2425.000
 70
    32
  0
VERTEX
  8
7700LEVEL
 62
13
 10
2328.863
 20
-7082.073
 30
-2425.000
 70
    32
  0
VERTEX
  8
7700LEVEL
 62
13
 10
2325.581
 20
-7076.214
 30
-2425.000
 70
    32
  0
VERTEX
  8
7700LEVEL
 62
13
 10
2320.143
 20
-7068.960
 30
-2425.000
 70
    32
  0
VERTEX
  8
7700LEVEL
 62
13
 10
2313.131
 20
-7063.621
 30
-2425.000
 70
    32
  0
VERTEX
  8
7700LEVEL
 62
13
 10
2303.728
 20
-7057.746
 30
-2425.000
 70
    32
  0
VERTEX
  8
7700LEVEL
 62
13
 10
2296.219
 20
-7051.653
 30
-2425.000
 70
    32
  0
VERTEX
  8
7700LEVEL
 62
13
 10
2288.202
 20
-7045.126
 30
-2425.000
 70
    32
  0
VERTEX
  8
7700LEVEL
 62
13
 10
2280.934
 20
-7039.103
 30
-2425.000
 70
    32
  0
VERTEX
  8
7700LEVEL
 62
13
 10
2275.783
 20
-7034.255
 30
-2425.000
 70
    32
  0
VERTEX
  8
7700LEVEL
 62
13
 10
2267.043
 20
-7028.014
 30
-2425.000
 70
    32
  0
VERTEX
  8
7700LEVEL
 62
13
 10
2260.471
 20
-7024.531
 30
-2425.000
 70
    32
  0
VERTEX
  8
7700LEVEL
 62
13
 10
2252.194
 20
-7021.438
 30
-2425.000
 70
    32
  0
VERTEX
  8
7700LEVEL
 62
13
 10
2247.029
 20
-7020.777
 30
-2425.000
 70
    32
  0
VERTEX
  8
7700LEVEL
 62
13
 10
2245.127
 20
-7022.249
 30
-2425.000
 70
    32
  0
VERTEX
  8
7700LEVEL
 62
13
 10
2243.597
 20
-7028.682
 30
-2425.000
 70
    32
  0
VERTEX
  8
7700LEVEL
 62
13
 10
2242.468
 20
-7035.317
 30
-2425.000
 70
    32
  0
VERTEX
  8
7700LEVEL
 62
13
 10
2240.513
 20
-7039.072
 30
-2425.000
 70
    32
  0
VERTEX
  8
7700LEVEL
 62
13
 10
2237.032
 20
-7039.844
 30
-2425.000
 70
    32
  0
VERTEX
  8
7700LEVEL
 62
13
 10
2230.000
 20
-7038.011
 30
-2425.000
 70
    32
  0
VERTEX
  8
7700LEVEL
 62
13
 10
2222.898
 20
-7034.484
 30
-2425.000
 70
    32
  0
VERTEX
  8
7700LEVEL
 62
13
 10
2218.945
 20
-7030.244
 30
-2425.000
 70
    32
  0
VERTEX
  8
7700LEVEL
 62
13
 10
2214.375
 20
-7020.040
 30
-2425.000
 70
    32
  0
VERTEX
  8
7700LEVEL
 62
13
 10
2213.333
 20
-7007.782
 30
-2425.000
 70
    32
  0
VERTEX
  8
7700LEVEL
 62
13
 10
2214.301
 20
-6990.918
 30
-2425.000
 70
    32
  0
VERTEX
  8
7700LEVEL
 62
13
 10
2214.351
 20
-6980.469
 30
-2425.000
 70
    32
  0
VERTEX
  8
7700LEVEL
 62
13
 10
2213.042
 20
-6969.282
 30
-2425.000
 70
    32
  0
VERTEX
  8
7700LEVEL
 62
13
 10
2211.863
 20
-6963.485
 30
-2425.000
 70
    32
  0
VERTEX
  8
7700LEVEL
 62
13
 10
2210.250
 20
-6954.831
 30
-2425.000
 70
    32
  0
VERTEX
  8
7700LEVEL
 62
13
 10
2210.065
 20
-6939.943
 30
-2425.000
 70
    32
  0
VERTEX
  8
7700LEVEL
 62
13
 10
2210.741
 20
-6932.023
 30
-2425.000
 70
    32
  0
VERTEX
  8
7700LEVEL
 62
13
 10
2212.127
 20
-6928.004
 30
-2425.000
 70
    32
  0
VERTEX
  8
7700LEVEL
 62
13
 10
2213.556
 20
-6928.503
 30
-2425.000
 70
    32
  0
VERTEX
  8
7700LEVEL
 62
13
 10
2218.116
 20
-6933.478
 30
-2425.000
 70
    32
  0
VERTEX
  8
7700LEVEL
 62
13
 10
2222.079
 20
-6937.648
 30
-2425.000
 70
    32
  0
VERTEX
  8
7700LEVEL
 62
13
 10
2227.244
 20
-6941.925
 30
-2425.000
 70
    32
  0
VERTEX
  8
7700LEVEL
 62
13
 10
2230.507
 20
-6944.057
 30
-2425.000
 70
    32
  0
VERTEX
  8
7700LEVEL
 62
13
 10
2231.527
 20
-6944.424
 30
-2425.000
 70
    32
  0
VERTEX
  8
7700LEVEL
 62
13
 10
2233.681
 20
-6942.703
 30
-2425.000
 70
    32
  0
VERTEX
  8
7700LEVEL
 62
13
 10
2235.743
 20
-6939.429
 30
-2425.000
 70
    32
  0
VERTEX
  8
7700LEVEL
 62
13
 10
2237.869
 20
-6935.484
 30
-2425.000
 70
    32
  0
VERTEX
  8
7700LEVEL
 62
13
 10
2239.367
 20
-6932.878
 30
-2425.000
 70
    32
  0
VERTEX
  8
7700LEVEL
 62
13
 10
2241.914
 20
-6930.679
 30
-2425.000
 70
    32
  0
VERTEX
  8
7700LEVEL
 62
13
 10
2244.030
 20
-6932.103
 30
-2425.000
 70
    32
  0
VERTEX
  8
7700LEVEL
 62
13
 10
2247.000
 20
-6936.448
 30
-2425.000
 70
    32
  0
VERTEX
  8
7700LEVEL
 62
13
 10
2250.312
 20
-6942.347
 30
-2425.000
 70
    32
  0
VERTEX
  8
7700LEVEL
 62
13
 10
2254.501
 20
-6947.410
 30
-2425.000
 70
    32
  0
VERTEX
  8
7700LEVEL
 62
13
 10
2261.481
 20
-6951.277
 30
-2425.000
 70
    32
  0
VERTEX
  8
7700LEVEL
 62
13
 10
2268.046
 20
-6952.396
 30
-2425.000
 70
    32
  0
VERTEX
  8
7700LEVEL
 62
13
 10
2278.823
 20
-6952.889
 30
-2425.000
 70
    32
  0
VERTEX
  8
7700LEVEL
 62
13
 10
2284.672
 20
-6953.042
 30
-2425.000
 70
    32
  0
VERTEX
  8
7700LEVEL
 62
13
 10
2288.492
 20
-6952.393
 30
-2425.000
 70
    32
  0
VERTEX
  8
7700LEVEL
 62
13
 10
2289.714
 20
-6948.994
 30
-2425.000
 70
    32
  0
VERTEX
  8
7700LEVEL
 62
13
 10
2291.312
 20
-6944.505
 30
-2425.000
 70
    32
  0
VERTEX
  8
7700LEVEL
 62
13
 10
2294.041
 20
-6942.046
 30
-2425.000
 70
    32
  0
VERTEX
  8
7700LEVEL
 62
13
 10
2299.229
 20
-6943.999
 30
-2425.000
 70
    32
  0
VERTEX
  8
7700LEVEL
 62
13
 10
2306.659
 20
-6951.585
 30
-2425.000
 70
    32
  0
VERTEX
  8
7700LEVEL
 62
13
 10
2311.404
 20
-6959.166
 30
-2425.000
 70
    32
  0
VERTEX
  8
7700LEVEL
 62
13
 10
2313.944
 20
-6970.500
 30
-2425.000
 70
    32
  0
VERTEX
  8
7700LEVEL
 62
13
 10
2315.228
 20
-6978.963
 30
-2425.000
 70
    32
  0
VERTEX
  8
7700LEVEL
 62
13
 10
2316.558
 20
-6993.376
 30
-2425.000
 70
    32
  0
VERTEX
  8
7700LEVEL
 62
13
 10
2317.577
 20
-7002.658
 30
-2425.000
 70
    32
  0
VERTEX
  8
7700LEVEL
 62
13
 10
2320.403
 20
-7009.416
 30
-2425.000
 70
    32
  0
VERTEX
  8
7700LEVEL
 62
13
 10
2324.215
 20
-7015.569
 30
-2425.000
 70
    32
  0
VERTEX
  8
7700LEVEL
 62
13
 10
2328.239
 20
-7019.569
 30
-2425.000
 70
    32
  0
VERTEX
  8
7700LEVEL
 62
13
 10
2334.218
 20
-7023.430
 30
-2425.000
 70
    32
  0
VERTEX
  8
7700LEVEL
 62
13
 10
2338.610
 20
-7026.160
 30
-2425.000
 70
    32
  0
VERTEX
  8
7700LEVEL
 62
13
 10
2347.441
 20
-7032.271
 30
-2425.000
 70
    32
  0
VERTEX
  8
7700LEVEL
 62
13
 10
2352.263
 20
-7036.927
 30
-2425.000
 70
    32
  0
VERTEX
  8
7700LEVEL
 62
13
 10
2357.888
 20
-7042.920
 30
-2425.000
 70
    32
  0
VERTEX
  8
7700LEVEL
 62
13
 10
2361.016
 20
-7047.896
 30
-2425.000
 70
    32
  0
VERTEX
  8
7700LEVEL
 62
13
 10
2365.728
 20
-7054.254
 30
-2425.000
 70
    32
  0
VERTEX
  8
7700LEVEL
 62
13
 10
2367.675
 20
-7057.050
 30
-2425.000
 70
    32
  0
VERTEX
  8
7700LEVEL
 62
13
 10
2369.639
 20
-7058.775
 30
-2425.000
 70
    32
  0
VERTEX
  8
7700LEVEL
 62
13
 10
2369.981
 20
-7058.396
 30
-2425.000
 70
    32
  0
VERTEX
  8
7700LEVEL
 62
13
 10
2368.933
 20
-7054.373
 30
-2425.000
 70
    32
  0
VERTEX
  8
7700LEVEL
 62
13
 10
2365.037
 20
-7045.415
 30
-2425.000
 70
    32
  0
VERTEX
  8
7700LEVEL
 62
13
 10
2362.225
 20
-7037.835
 30
-2425.000
 70
    32
  0
VERTEX
  8
7700LEVEL
 62
13
 10
2354.974
 20
-7021.826
 30
-2425.000
 70
    32
  0
VERTEX
  8
7700LEVEL
 62
13
 10
2345.693
 20
-7008.629
 30
-2425.000
 70
    32
  0
VERTEX
  8
7700LEVEL
 62
13
 10
2337.467
 20
-6994.838
 30
-2425.000
 70
    32
  0
VERTEX
  8
7700LEVEL
 62
13
 10
2332.153
 20
-6983.377
 30
-2425.000
 70
    32
  0
VERTEX
  8
7700LEVEL
 62
13
 10
2328.894
 20
-6971.578
 30
-2425.000
 70
    32
  0
VERTEX
  8
7700LEVEL
 62
13
 10
2322.860
 20
-6958.220
 30
-2425.000
 70
    32
  0
VERTEX
  8
7700LEVEL
 62
13
 10
2319.244
 20
-6951.237
 30
-2425.000
 70
    32
  0
VERTEX
  8
7700LEVEL
 62
13
 10
2315.654
 20
-6937.812
 30
-2425.000
 70
    32
  0
VERTEX
  8
7700LEVEL
 62
13
 10
2315.655
 20
-6930.580
 30
-2425.000
 70
    32
  0
VERTEX
  8
7700LEVEL
 62
13
 10
2314.711
 20
-6920.556
 30
-2425.000
 70
    32
  0
VERTEX
  8
7700LEVEL
 62
13
 10
2314.895
 20
-6918.113
 30
-2425.000
 70
    32
  0
VERTEX
  8
7700LEVEL
 62
13
 10
2315.814
 20
-6916.746
 30
-2425.000
 70
    32
  0
VERTEX
  8
7700LEVEL
 62
13
 10
2317.935
 20
-6919.102
 30
-2425.000
 70
    32
  0
VERTEX
  8
7700LEVEL
 62
13
 10
2321.724
 20
-6925.645
 30
-2425.000
 70
    32
  0
VERTEX
  8
7700LEVEL
 62
13
 10
2325.291
 20
-6932.478
 30
-2425.000
 70
    32
  0
VERTEX
  8
7700LEVEL
 62
13
 10
2330.978
 20
-6943.600
 30
-2425.000
 70
    32
  0
VERTEX
  8
7700LEVEL
 62
13
 10
2336.700
 20
-6955.444
 30
-2425.000
 70
    32
  0
VERTEX
  8
7700LEVEL
 62
13
 10
2344.313
 20
-6971.435
 30
-2425.000
 70
    32
  0
VERTEX
  8
7700LEVEL
 62
13
 10
2348.375
 20
-6979.273
 30
-2425.000
 70
    32
  0
VERTEX
  8
7700LEVEL
 62
13
 10
2352.730
 20
-6988.514
 30
-2425.000
 70
    32
  0
VERTEX
  8
7700LEVEL
 62
13
 10
2357.113
 20
-6996.363
 30
-2425.000
 70
    32
  0
VERTEX
  8
7700LEVEL
 62
13
 10
2360.450
 20
-6999.688
 30
-2425.000
 70
    32
  0
VERTEX
  8
7700LEVEL
 62
13
 10
2366.285
 20
-7004.029
 30
-2425.000
 70
    32
  0
VERTEX
  8
7700LEVEL
 62
13
 10
2374.879
 20
-7009.567
 30
-2425.000
 70
    32
  0
VERTEX
  8
7700LEVEL
 62
13
 10
2382.271
 20
-7014.999
 30
-2425.000
 70
    32
  0
VERTEX
  8
7700LEVEL
 62
13
 10
2386.307
 20
-7018.679
 30
-2425.000
 70
    32
  0
VERTEX
  8
7700LEVEL
 62
13
 10
2392.155
 20
-7026.065
 30
-2425.000
 70
    32
  0
VERTEX
  8
7700LEVEL
 62
13
 10
2394.856
 20
-7031.981
 30
-2425.000
 70
    32
  0
VERTEX
  8
7700LEVEL
 62
13
 10
2398.918
 20
-7043.435
 30
-2425.000
 70
    32
  0
VERTEX
  8
7700LEVEL
 62
13
 10
2402.608
 20
-7053.293
 30
-2425.000
 70
    32
  0
VERTEX
  8
7700LEVEL
 62
13
 10
2405.624
 20
-7060.223
 30
-2425.000
 70
    32
  0
VERTEX
  8
7700LEVEL
 62
13
 10
2408.985
 20
-7069.889
 30
-2425.000
 70
    32
  0
VERTEX
  8
7700LEVEL
 62
13
 10
2410.993
 20
-7077.815
 30
-2425.000
 70
    32
  0
VERTEX
  8
7700LEVEL
 62
13
 10
2412.430
 20
-7082.361
 30
-2425.000
 70
    32
  0
VERTEX
  8
7700LEVEL
 62
13
 10
2413.440
 20
-7087.846
 30
-2425.000
 70
    32
  0
VERTEX
  8
7700LEVEL
 62
13
 10
2414.303
 20
-7094.563
 30
-2425.000
 70
    32
  0
VERTEX
  8
7700LEVEL
 62
13
 10
2414.947
 20
-7099.385
 30
-2425.000
 70
    32
  0
VERTEX
  8
7700LEVEL
 62
13
 10
2415.806
 20
-7106.853
 30
-2425.000
 70
    32
  0
VERTEX
  8
7700LEVEL
 62
13
 10
2416.834
 20
-7109.334
 30
-2425.000
 70
    32
  0
VERTEX
  8
7700LEVEL
 62
13
 10
2417.212
 20
-7109.676
 30
-2425.000
 70
    32
  0
VERTEX
  8
7700LEVEL
 62
13
 10
2418.687
 20
-7107.461
 30
-2425.000
 70
    32
  0
VERTEX
  8
7700LEVEL
 62
13
 10
2420.190
 20
-7100.487
 30
-2425.000
 70
    32
  0
VERTEX
  8
7700LEVEL
 62
13
 10
2420.726
 20
-7092.546
 30
-2425.000
 70
    32
  0
VERTEX
  8
7700LEVEL
 62
13
 10
2420.154
 20
-7080.502
 30
-2425.000
 70
    32
  0
VERTEX
  8
7700LEVEL
 62
13
 10
2418.942
 20
-7073.482
 30
-2425.000
 70
    32
  0
VERTEX
  8
7700LEVEL
 62
13
 10
2414.479
 20
-7060.394
 30
-2425.000
 70
    32
  0
VERTEX
  8
7700LEVEL
 62
13
 10
2410.606
 20
-7049.111
 30
-2425.000
 70
    32
  0
VERTEX
  8
7700LEVEL
 62
13
 10
2405.229
 20
-7034.705
 30
-2425.000
 70
    32
  0
VERTEX
  8
7700LEVEL
 62
13
 10
2401.872
 20
-7026.221
 30
-2425.000
 70
    32
  0
VERTEX
  8
7700LEVEL
 62
13
 10
2395.113
 20
-7015.083
 30
-2425.000
 70
    32
  0
VERTEX
  8
7700LEVEL
 62
13
 10
2389.777
 20
-7004.013
 30
-2425.000
 70
    32
  0
VERTEX
  8
7700LEVEL
 62
13
 10
2382.084
 20
-6986.398
 30
-2425.000
 70
    32
  0
VERTEX
  8
7700LEVEL
 62
13
 10
2379.372
 20
-6978.869
 30
-2425.000
 70
    32
  0
VERTEX
  8
7700LEVEL
 62
13
 10
2372.560
 20
-6966.648
 30
-2425.000
 70
    32
  0
VERTEX
  8
7700LEVEL
 62
13
 10
2365.393
 20
-6956.810
 30
-2425.000
 70
    32
  0
VERTEX
  8
7700LEVEL
 62
13
 10
2358.609
 20
-6948.496
 30
-2425.000
 70
    32
  0
VERTEX
  8
7700LEVEL
 62
13
 10
2352.316
 20
-6938.323
 30
-2425.000
 70
    32
  0
VERTEX
  8
7700LEVEL
 62
13
 10
2348.828
 20
-6931.681
 30
-2425.000
 70
    32
  0
VERTEX
  8
7700LEVEL
 62
13
 10
2344.470
 20
-6917.641
 30
-2425.000
 70
    32
  0
VERTEX
  8
7700LEVEL
 62
13
 10
2342.627
 20
-6908.845
 30
-2425.000
 70
    32
  0
VERTEX
  8
7700LEVEL
 62
13
 10
2341.666
 20
-6896.528
 30
-2425.000
 70
    32
  0
VERTEX
  8
7700LEVEL
 62
13
 10
2341.346
 20
-6889.283
 30
-2425.000
 70
    32
  0
VERTEX
  8
7700LEVEL
 62
13
 10
2339.587
 20
-6879.927
 30
-2425.000
 70
    32
  0
VERTEX
  8
7700LEVEL
 62
13
 10
2337.875
 20
-6872.654
 30
-2425.000
 70
    32
  0
VERTEX
  8
7700LEVEL
 62
13
 10
2337.773
 20
-6867.805
 30
-2425.000
 70
    32
  0
VERTEX
  8
7700LEVEL
 62
13
 10
2337.530
 20
-6862.935
 30
-2425.000
 70
    32
  0
VERTEX
  8
7700LEVEL
 62
13
 10
2337.861
 20
-6861.193
 30
-2425.000
 70
    32
  0
VERTEX
  8
7700LEVEL
 62
13
 10
2338.703
 20
-6861.068
 30
-2425.000
 70
    32
  0
VERTEX
  8
7700LEVEL
 62
13
 10
2340.334
 20
-6864.784
 30
-2425.000
 70
    32
  0
VERTEX
  8
7700LEVEL
 62
13
 10
2342.090
 20
-6869.593
 30
-2425.000
 70
    32
  0
VERTEX
  8
7700LEVEL
 62
13
 10
2343.416
 20
-6874.158
 30
-2425.000
 70
    32
  0
VERTEX
  8
7700LEVEL
 62
13
 10
2346.242
 20
-6882.850
 30
-2425.000
 70
    32
  0
VERTEX
  8
7700LEVEL
 62
13
 10
2348.971
 20
-6892.673
 30
-2425.000
 70
    32
  0
VERTEX
  8
7700LEVEL
 62
13
 10
2351.294
 20
-6903.295
 30
-2425.000
 70
    32
  0
VERTEX
  8
7700LEVEL
 62
13
 10
2353.141
 20
-6909.657
 30
-2425.000
 70
    32
  0
VERTEX
  8
7700LEVEL
 62
13
 10
2356.228
 20
-6919.962
 30
-2425.000
 70
    32
  0
VERTEX
  8
7700LEVEL
 62
13
 10
2358.802
 20
-6926.969
 30
-2425.000
 70
    32
  0
VERTEX
  8
7700LEVEL
 62
13
 10
2363.174
 20
-6938.505
 30
-2425.000
 70
    32
  0
VERTEX
  8
7700LEVEL
 62
13
 10
2368.978
 20
-6946.672
 30
-2425.000
 70
    32
  0
VERTEX
  8
7700LEVEL
 62
13
 10
2374.625
 20
-6954.208
 30
-2425.000
 70
    32
  0
VERTEX
  8
7700LEVEL
 62
13
 10
2380.989
 20
-6962.459
 30
-2425.000
 70
    32
  0
VERTEX
  8
7700LEVEL
 62
13
 10
2388.023
 20
-6972.707
 30
-2425.000
 70
    32
  0
VERTEX
  8
7700LEVEL
 62
13
 10
2394.218
 20
-6980.647
 30
-2425.000
 70
    32
  0
VERTEX
  8
7700LEVEL
 62
13
 10
2400.620
 20
-6989.369
 30
-2425.000
 70
    32
  0
VERTEX
  8
7700LEVEL
 62
13
 10
2406.923
 20
-6999.473
 30
-2425.000
 70
    32
  0
VERTEX
  8
7700LEVEL
 62
13
 10
2410.941
 20
-7006.408
 30
-2425.000
 70
    32
  0
VERTEX
  8
7700LEVEL
 62
13
 10
2416.668
 20
-7017.500
 30
-2425.000
 70
    32
  0
VERTEX
  8
7700LEVEL
 62
13
 10
2419.570
 20
-7024.950
 30
-2425.000
 70
    32
  0
VERTEX
  8
7700LEVEL
 62
13
 10
2421.585
 20
-7033.557
 30
-2425.000
 70
    32
  0
VERTEX
  8
7700LEVEL
 62
13
 10
2423.228
 20
-7042.251
 30
-2425.000
 70
    32
  0
VERTEX
  8
7700LEVEL
 62
13
 10
2425.027
 20
-7055.195
 30
-2425.000
 70
    32
  0
VERTEX
  8
7700LEVEL
 62
13
 10
2426.757
 20
-7064.511
 30
-2425.000
 70
    32
  0
VERTEX
  8
7700LEVEL
 62
13
 10
2427.774
 20
-7070.678
 30
-2425.000
 70
    32
  0
VERTEX
  8
7700LEVEL
 62
13
 10
2428.414
 20
-7079.617
 30
-2425.000
 70
    32
  0
VERTEX
  8
7700LEVEL
 62
13
 10
2428.507
 20
-7087.902
 30
-2425.000
 70
    32
  0
VERTEX
  8
7700LEVEL
 62
13
 10
2428.917
 20
-7096.700
 30
-2425.000
 70
    32
  0
VERTEX
  8
7700LEVEL
 62
13
 10
2429.538
 20
-7107.212
 30
-2425.000
 70
    32
  0
VERTEX
  8
7700LEVEL
 62
13
 10
2431.044
 20
-7117.068
 30
-2425.000
 70
    32
  0
VERTEX
  8
7700LEVEL
 62
13
 10
2432.243
 20
-7122.976
 30
-2425.000
 70
    32
  0
VERTEX
  8
7700LEVEL
 62
13
 10
2435.109
 20
-7135.003
 30
-2425.000
 70
    32
  0
VERTEX
  8
7700LEVEL
 62
13
 10
2438.590
 20
-7146.514
 30
-2425.000
 70
    32
  0
VERTEX
  8
7700LEVEL
 62
13
 10
2440.063
 20
-7155.147
 30
-2425.000
 70
    32
  0
VERTEX
  8
7700LEVEL
 62
13
 10
2441.584
 20
-7171.164
 30
-2425.000
 70
    32
  0
VERTEX
  8
7700LEVEL
 62
13
 10
2441.859
 20
-7179.190
 30
-2425.000
 70
    32
  0
VERTEX
  8
7700LEVEL
 62
13
 10
2442.552
 20
-7185.846
 30
-2425.000
 70
    32
  0
VERTEX
  8
7700LEVEL
 62
13
 10
2445.612
 20
-7197.294
 30
-2425.000
 70
    32
  0
VERTEX
  8
7700LEVEL
 62
13
 10
2448.661
 20
-7205.445
 30
-2425.000
 70
    32
  0
VERTEX
  8
7700LEVEL
 62
13
 10
2454.530
 20
-7219.674
 30
-2425.000
 70
    32
  0
VERTEX
  8
7700LEVEL
 62
13
 10
2459.228
 20
-7230.220
 30
-2425.000
 70
    32
  0
VERTEX
  8
7700LEVEL
 62
13
 10
2463.349
 20
-7238.388
 30
-2425.000
 70
    32
  0
VERTEX
  8
7700LEVEL
 62
13
 10
2466.017
 20
-7244.764
 30
-2425.000
 70
    32
  0
VERTEX
  8
7700LEVEL
 62
13
 10
2467.749
 20
-7248.531
 30
-2425.000
 70
    32
  0
VERTEX
  8
7700LEVEL
 62
13
 10
2469.052
 20
-7251.804
 30
-2425.000
 70
    32
  0
SEQEND
  8
7700LEVEL
  0
POLYLINE
  8
7700LEVEL
 62
13
 66
     1
 70
     8
  0
VERTEX
  8
7700LEVEL
 62
13
 10
2527.729
 20
-7216.236
 30
-2425.000
 70
    32
  0
VERTEX
  8
7700LEVEL
 62
13
 10
2525.630
 20
-7203.141
 30
-2425.000
 70
    32
  0
VERTEX
  8
7700LEVEL
 62
13
 10
2522.536
 20
-7192.404
 30
-2425.000
 70
    32
  0
VERTEX
  8
7700LEVEL
 62
13
 10
2519.785
 20
-7174.306
 30
-2425.000
 70
    32
  0
VERTEX
  8
7700LEVEL
 62
13
 10
2518.420
 20
-7157.238
 30
-2425.000
 70
    32
  0
VERTEX
  8
7700LEVEL
 62
13
 10
2518.887
 20
-7133.389
 30
-2425.000
 70
    32
  0
VERTEX
  8
7700LEVEL
 62
13
 10
2519.633
 20
-7118.497
 30
-2425.000
 70
    32
  0
VERTEX
  8
7700LEVEL
 62
13
 10
2519.128
 20
-7101.664
 30
-2425.000
 70
    32
  0
VERTEX
  8
7700LEVEL
 62
13
 10
2516.025
 20
-7085.448
 30
-2425.000
 70
    32
  0
VERTEX
  8
7700LEVEL
 62
13
 10
2512.299
 20
-7074.868
 30
-2425.000
 70
    32
  0
VERTEX
  8
7700LEVEL
 62
13
 10
2503.938
 20
-7060.304
 30
-2425.000
 70
    32
  0
VERTEX
  8
7700LEVEL
 62
13
 10
2498.706
 20
-7051.899
 30
-2425.000
 70
    32
  0
VERTEX
  8
7700LEVEL
 62
13
 10
2492.590
 20
-7045.834
 30
-2425.000
 70
    32
  0
VERTEX
  8
7700LEVEL
 62
13
 10
2489.931
 20
-7044.937
 30
-2425.000
 70
    32
  0
VERTEX
  8
7700LEVEL
 62
13
 10
2489.405
 20
-7047.509
 30
-2425.000
 70
    32
  0
VERTEX
  8
7700LEVEL
 62
13
 10
2492.938
 20
-7055.052
 30
-2425.000
 70
    32
  0
VERTEX
  8
7700LEVEL
 62
13
 10
2498.399
 20
-7065.281
 30
-2425.000
 70
    32
  0
VERTEX
  8
7700LEVEL
 62
13
 10
2502.798
 20
-7075.675
 30
-2425.000
 70
    32
  0
VERTEX
  8
7700LEVEL
 62
13
 10
2505.855
 20
-7082.324
 30
-2425.000
 70
    32
  0
VERTEX
  8
7700LEVEL
 62
13
 10
2506.851
 20
-7086.948
 30
-2425.000
 70
    32
  0
VERTEX
  8
7700LEVEL
 62
13
 10
2506.274
 20
-7089.619
 30
-2425.000
 70
    32
  0
VERTEX
  8
7700LEVEL
 62
13
 10
2500.441
 20
-7086.711
 30
-2425.000
 70
    32
  0
VERTEX
  8
7700LEVEL
 62
13
 10
2493.951
 20
-7079.301
 30
-2425.000
 70
    32
  0
VERTEX
  8
7700LEVEL
 62
13
 10
2485.898
 20
-7070.369
 30
-2425.000
 70
    32
  0
VERTEX
  8
7700LEVEL
 62
13
 10
2479.619
 20
-7062.990
 30
-2425.000
 70
    32
  0
VERTEX
  8
7700LEVEL
 62
13
 10
2468.289
 20
-7052.497
 30
-2425.000
 70
    32
  0
VERTEX
  8
7700LEVEL
 62
13
 10
2462.806
 20
-7046.024
 30
-2425.000
 70
    32
  0
VERTEX
  8
7700LEVEL
 62
13
 10
2456.068
 20
-7026.080
 30
-2425.000
 70
    32
  0
VERTEX
  8
7700LEVEL
 62
13
 10
2455.443
 20
-7011.020
 30
-2425.000
 70
    32
  0
VERTEX
  8
7700LEVEL
 62
13
 10
2456.429
 20
-7005.115
 30
-2425.000
 70
    32
  0
VERTEX
  8
7700LEVEL
 62
13
 10
2458.294
 20
-7001.239
 30
-2425.000
 70
    32
  0
VERTEX
  8
7700LEVEL
 62
13
 10
2461.709
 20
-7001.389
 30
-2425.000
 70
    32
  0
VERTEX
  8
7700LEVEL
 62
13
 10
2465.578
 20
-7002.823
 30
-2425.000
 70
    32
  0
VERTEX
  8
7700LEVEL
 62
13
 10
2470.862
 20
-7005.578
 30
-2425.000
 70
    32
  0
VERTEX
  8
7700LEVEL
 62
13
 10
2479.157
 20
-7010.715
 30
-2425.000
 70
    32
  0
VERTEX
  8
7700LEVEL
 62
13
 10
2483.560
 20
-7013.375
 30
-2425.000
 70
    32
  0
VERTEX
  8
7700LEVEL
 62
13
 10
2486.066
 20
-7014.822
 30
-2425.000
 70
    32
  0
VERTEX
  8
7700LEVEL
 62
13
 10
2488.635
 20
-7013.915
 30
-2425.000
 70
    32
  0
VERTEX
  8
7700LEVEL
 62
13
 10
2489.370
 20
-7006.325
 30
-2425.000
 70
    32
  0
VERTEX
  8
7700LEVEL
 62
13
 10
2487.098
 20
-6991.987
 30
-2425.000
 70
    32
  0
VERTEX
  8
7700LEVEL
 62
13
 10
2484.207
 20
-6978.918
 30
-2425.000
 70
    32
  0
VERTEX
  8
7700LEVEL
 62
13
 10
2481.159
 20
-6967.149
 30
-2425.000
 70
    32
  0
VERTEX
  8
7700LEVEL
 62
13
 10
2476.376
 20
-6961.031
 30
-2425.000
 70
    32
  0
VERTEX
  8
7700LEVEL
 62
13
 10
2457.188
 20
-6944.142
 30
-2425.000
 70
    32
  0
VERTEX
  8
7700LEVEL
 62
13
 10
2440.905
 20
-6929.152
 30
-2425.000
 70
    32
  0
VERTEX
  8
7700LEVEL
 62
13
 10
2420.061
 20
-6911.121
 30
-2425.000
 70
    32
  0
VERTEX
  8
7700LEVEL
 62
13
 10
2399.659
 20
-6896.379
 30
-2425.000
 70
    32
  0
VERTEX
  8
7700LEVEL
 62
13
 10
2388.461
 20
-6889.092
 30
-2425.000
 70
    32
  0
VERTEX
  8
7700LEVEL
 62
13
 10
2374.694
 20
-6879.095
 30
-2425.000
 70
    32
  0
VERTEX
  8
7700LEVEL
 62
13
 10
2361.901
 20
-6866.881
 30
-2425.000
 70
    32
  0
VERTEX
  8
7700LEVEL
 62
13
 10
2358.198
 20
-6853.977
 30
-2425.000
 70
    32
  0
VERTEX
  8
7700LEVEL
 62
13
 10
2357.362
 20
-6835.519
 30
-2425.000
 70
    32
  0
VERTEX
  8
7700LEVEL
 62
13
 10
2354.221
 20
-6817.149
 30
-2425.000
 70
    32
  0
VERTEX
  8
7700LEVEL
 62
13
 10
2351.806
 20
-6804.974
 30
-2425.000
 70
    32
  0
VERTEX
  8
7700LEVEL
 62
13
 10
2351.934
 20
-6789.667
 30
-2425.000
 70
    32
  0
VERTEX
  8
7700LEVEL
 62
13
 10
2351.377
 20
-6778.484
 30
-2425.000
 70
    32
  0
VERTEX
  8
7700LEVEL
 62
13
 10
2349.417
 20
-6765.660
 30
-2425.000
 70
    32
  0
VERTEX
  8
7700LEVEL
 62
13
 10
2344.550
 20
-6756.486
 30
-2425.000
 70
    32
  0
VERTEX
  8
7700LEVEL
 62
13
 10
2336.213
 20
-6742.965
 30
-2425.000
 70
    32
  0
VERTEX
  8
7700LEVEL
 62
13
 10
2328.325
 20
-6727.863
 30
-2425.000
 70
    32
  0
VERTEX
  8
7700LEVEL
 62
13
 10
2324.219
 20
-6718.874
 30
-2425.000
 70
    32
  0
VERTEX
  8
7700LEVEL
 62
13
 10
2320.758
 20
-6709.157
 30
-2425.000
 70
    32
  0
VERTEX
  8
7700LEVEL
 62
13
 10
2320.293
 20
-6701.210
 30
-2425.000
 70
    32
  0
VERTEX
  8
7700LEVEL
 62
13
 10
2320.986
 20
-6695.584
 30
-2425.000
 70
    32
  0
VERTEX
  8
7700LEVEL
 62
13
 10
2323.090
 20
-6692.030
 30
-2425.000
 70
    32
  0
VERTEX
  8
7700LEVEL
 62
13
 10
2325.575
 20
-6691.934
 30
-2425.000
 70
    32
  0
VERTEX
  8
7700LEVEL
 62
13
 10
2328.292
 20
-6693.412
 30
-2425.000
 70
    32
  0
VERTEX
  8
7700LEVEL
 62
13
 10
2330.072
 20
-6693.963
 30
-2425.000
 70
    32
  0
VERTEX
  8
7700LEVEL
 62
13
 10
2331.863
 20
-6692.511
 30
-2425.000
 70
    32
  0
VERTEX
  8
7700LEVEL
 62
13
 10
2333.042
 20
-6689.642
 30
-2425.000
 70
    32
  0
VERTEX
  8
7700LEVEL
 62
13
 10
2334.663
 20
-6686.446
 30
-2425.000
 70
    32
  0
VERTEX
  8
7700LEVEL
 62
13
 10
2335.636
 20
-6677.496
 30
-2425.000
 70
    32
  0
VERTEX
  8
7700LEVEL
 62
13
 10
2334.833
 20
-6668.926
 30
-2425.000
 70
    32
  0
VERTEX
  8
7700LEVEL
 62
13
 10
2330.458
 20
-6650.909
 30
-2425.000
 70
    32
  0
VERTEX
  8
7700LEVEL
 62
13
 10
2323.818
 20
-6629.583
 30
-2425.000
 70
    32
  0
VERTEX
  8
7700LEVEL
 62
13
 10
2316.467
 20
-6611.840
 30
-2425.000
 70
    32
  0
VERTEX
  8
7700LEVEL
 62
13
 10
2309.854
 20
-6598.038
 30
-2425.000
 70
    32
  0
VERTEX
  8
7700LEVEL
 62
13
 10
2306.633
 20
-6590.075
 30
-2425.000
 70
    32
  0
VERTEX
  8
7700LEVEL
 62
13
 10
2302.621
 20
-6578.772
 30
-2425.000
 70
    32
  0
VERTEX
  8
7700LEVEL
 62
13
 10
2294.404
 20
-6566.844
 30
-2425.000
 70
    32
  0
VERTEX
  8
7700LEVEL
 62
13
 10
2289.607
 20
-6557.931
 30
-2425.000
 70
    32
  0
VERTEX
  8
7700LEVEL
 62
13
 10
2286.334
 20
-6548.636
 30
-2425.000
 70
    32
  0
VERTEX
  8
7700LEVEL
 62
13
 10
2285.559
 20
-6542.290
 30
-2425.000
 70
    32
  0
VERTEX
  8
7700LEVEL
 62
13
 10
2286.775
 20
-6532.911
 30
-2425.000
 70
    32
  0
VERTEX
  8
7700LEVEL
 62
13
 10
2287.542
 20
-6526.544
 30
-2425.000
 70
    32
  0
VERTEX
  8
7700LEVEL
 62
13
 10
2288.449
 20
-6515.149
 30
-2425.000
 70
    32
  0
VERTEX
  8
7700LEVEL
 62
13
 10
2288.043
 20
-6512.582
 30
-2425.000
 70
    32
  0
VERTEX
  8
7700LEVEL
 62
13
 10
2286.457
 20
-6507.835
 30
-2425.000
 70
    32
  0
VERTEX
  8
7700LEVEL
 62
13
 10
2282.898
 20
-6503.116
 30
-2425.000
 70
    32
  0
VERTEX
  8
7700LEVEL
 62
13
 10
2274.986
 20
-6497.571
 30
-2425.000
 70
    32
  0
VERTEX
  8
7700LEVEL
 62
13
 10
2267.680
 20
-6492.761
 30
-2425.000
 70
    32
  0
VERTEX
  8
7700LEVEL
 62
13
 10
2253.564
 20
-6484.145
 30
-2425.000
 70
    32
  0
VERTEX
  8
7700LEVEL
 62
13
 10
2246.988
 20
-6478.046
 30
-2425.000
 70
    32
  0
VERTEX
  8
7700LEVEL
 62
13
 10
2239.236
 20
-6470.699
 30
-2425.000
 70
    32
  0
VERTEX
  8
7700LEVEL
 62
13
 10
2236.978
 20
-6467.821
 30
-2425.000
 70
    32
  0
VERTEX
  8
7700LEVEL
 62
13
 10
2232.912
 20
-6462.418
 30
-2425.000
 70
    32
  0
VERTEX
  8
7700LEVEL
 62
13
 10
2225.782
 20
-6448.002
 30
-2425.000
 70
    32
  0
VERTEX
  8
7700LEVEL
 62
13
 10
2221.419
 20
-6438.330
 30
-2425.000
 70
    32
  0
VERTEX
  8
7700LEVEL
 62
13
 10
2216.275
 20
-6425.248
 30
-2425.000
 70
    32
  0
VERTEX
  8
7700LEVEL
 62
13
 10
2213.208
 20
-6416.735
 30
-2425.000
 70
    32
  0
VERTEX
  8
7700LEVEL
 62
13
 10
2211.635
 20
-6411.417
 30
-2425.000
 70
    32
  0
VERTEX
  8
7700LEVEL
 62
13
 10
2210.456
 20
-6402.254
 30
-2425.000
 70
    32
  0
VERTEX
  8
7700LEVEL
 62
13
 10
2209.765
 20
-6395.097
 30
-2425.000
 70
    32
  0
VERTEX
  8
7700LEVEL
 62
13
 10
2208.717
 20
-6387.458
 30
-2425.000
 70
    32
  0
VERTEX
  8
7700LEVEL
 62
13
 10
2208.209
 20
-6383.408
 30
-2425.000
 70
    32
  0
VERTEX
  8
7700LEVEL
 62
13
 10
2208.000
 20
-6374.460
 30
-2425.000
 70
    32
  0
VERTEX
  8
7700LEVEL
 62
13
 10
2204.318
 20
-6361.416
 30
-2425.000
 70
    32
  0
VERTEX
  8
7700LEVEL
 62
13
 10
2200.017
 20
-6347.958
 30
-2425.000
 70
    32
  0
VERTEX
  8
7700LEVEL
 62
13
 10
2199.453
 20
-6336.344
 30
-2425.000
 70
    32
  0
VERTEX
  8
7700LEVEL
 62
13
 10
2199.946
 20
-6325.318
 30
-2425.000
 70
    32
  0
VERTEX
  8
7700LEVEL
 62
13
 10
2198.416
 20
-6309.120
 30
-2425.000
 70
    32
  0
VERTEX
  8
7700LEVEL
 62
13
 10
2195.223
 20
-6294.716
 30
-2425.000
 70
    32
  0
VERTEX
  8
7700LEVEL
 62
13
 10
2190.805
 20
-6278.913
 30
-2425.000
 70
    32
  0
VERTEX
  8
7700LEVEL
 62
13
 10
2186.785
 20
-6265.496
 30
-2425.000
 70
    32
  0
VERTEX
  8
7700LEVEL
 62
13
 10
2184.268
 20
-6250.155
 30
-2425.000
 70
    32
  0
VERTEX
  8
7700LEVEL
 62
13
 10
2181.352
 20
-6236.294
 30
-2425.000
 70
    32
  0
VERTEX
  8
7700LEVEL
 62
13
 10
2176.107
 20
-6221.478
 30
-2425.000
 70
    32
  0
VERTEX
  8
7700LEVEL
 62
13
 10
2169.461
 20
-6206.453
 30
-2425.000
 70
    32
  0
VERTEX
  8
7700LEVEL
 62
13
 10
2161.927
 20
-6192.585
 30
-2425.000
 70
    32
  0
VERTEX
  8
7700LEVEL
 62
13
 10
2151.182
 20
-6177.918
 30
-2425.000
 70
    32
  0
VERTEX
  8
7700LEVEL
 62
13
 10
2142.795
 20
-6165.929
 30
-2425.000
 70
    32
  0
VERTEX
  8
7700LEVEL
 62
13
 10
2138.010
 20
-6158.378
 30
-2425.000
 70
    32
  0
VERTEX
  8
7700LEVEL
 62
13
 10
2132.171
 20
-6144.190
 30
-2425.000
 70
    32
  0
VERTEX
  8
7700LEVEL
 62
13
 10
2127.266
 20
-6134.795
 30
-2425.000
 70
    32
  0
VERTEX
  8
7700LEVEL
 62
13
 10
2120.312
 20
-6122.804
 30
-2425.000
 70
    32
  0
VERTEX
  8
7700LEVEL
 62
13
 10
2114.063
 20
-6111.849
 30
-2425.000
 70
    32
  0
VERTEX
  8
7700LEVEL
 62
13
 10
2110.426
 20
-6105.006
 30
-2425.000
 70
    32
  0
VERTEX
  8
7700LEVEL
 62
13
 10
2107.542
 20
-6099.600
 30
-2425.000
 70
    32
  0
VERTEX
  8
7700LEVEL
 62
13
 10
2106.924
 20
-6097.253
 30
-2425.000
 70
    32
  0
VERTEX
  8
7700LEVEL
 62
13
 10
2107.344
 20
-6097.315
 30
-2425.000
 70
    32
  0
VERTEX
  8
7700LEVEL
 62
13
 10
2112.459
 20
-6099.759
 30
-2425.000
 70
    32
  0
VERTEX
  8
7700LEVEL
 62
13
 10
2118.370
 20
-6105.042
 30
-2425.000
 70
    32
  0
VERTEX
  8
7700LEVEL
 62
13
 10
2123.029
 20
-6110.067
 30
-2425.000
 70
    32
  0
VERTEX
  8
7700LEVEL
 62
13
 10
2127.164
 20
-6115.731
 30
-2425.000
 70
    32
  0
VERTEX
  8
7700LEVEL
 62
13
 10
2131.478
 20
-6121.636
 30
-2425.000
 70
    32
  0
VERTEX
  8
7700LEVEL
 62
13
 10
2135.002
 20
-6125.633
 30
-2425.000
 70
    32
  0
VERTEX
  8
7700LEVEL
 62
13
 10
2137.911
 20
-6128.465
 30
-2425.000
 70
    32
  0
VERTEX
  8
7700LEVEL
 62
13
 10
2139.439
 20
-6129.265
 30
-2425.000
 70
    32
  0
VERTEX
  8
7700LEVEL
 62
13
 10
2139.439
 20
-6129.265
 30
-2425.000
 70
    32
  0
VERTEX
  8
7700LEVEL
 62
13
 10
2139.461
 20
-6128.874
 30
-2425.000
 70
    32
  0
VERTEX
  8
7700LEVEL
 62
13
 10
2139.325
 20
-6126.419
 30
-2425.000
 70
    32
  0
VERTEX
  8
7700LEVEL
 62
13
 10
2137.586
 20
-6122.222
 30
-2425.000
 70
    32
  0
VERTEX
  8
7700LEVEL
 62
13
 10
2133.179
 20
-6115.014
 30
-2425.000
 70
    32
  0
VERTEX
  8
7700LEVEL
 62
13
 10
2126.948
 20
-6104.420
 30
-2425.000
 70
    32
  0
VERTEX
  8
7700LEVEL
 62
13
 10
2123.946
 20
-6098.602
 30
-2425.000
 70
    32
  0
VERTEX
  8
7700LEVEL
 62
13
 10
2119.405
 20
-6088.689
 30
-2425.000
 70
    32
  0
VERTEX
  8
7700LEVEL
 62
13
 10
2117.564
 20
-6081.325
 30
-2425.000
 70
    32
  0
VERTEX
  8
7700LEVEL
 62
13
 10
2116.825
 20
-6075.701
 30
-2425.000
 70
    32
  0
VERTEX
  8
7700LEVEL
 62
13
 10
2117.594
 20
-6072.450
 30
-2425.000
 70
    32
  0
VERTEX
  8
7700LEVEL
 62
13
 10
2120.822
 20
-6072.178
 30
-2425.000
 70
    32
  0
VERTEX
  8
7700LEVEL
 62
13
 10
2125.229
 20
-6075.769
 30
-2425.000
 70
    32
  0
VERTEX
  8
7700LEVEL
 62
13
 10
2131.708
 20
-6083.249
 30
-2425.000
 70
    32
  0
VERTEX
  8
7700LEVEL
 62
13
 10
2139.471
 20
-6093.893
 30
-2425.000
 70
    32
  0
VERTEX
  8
7700LEVEL
 62
13
 10
2145.641
 20
-6101.040
 30
-2425.000
 70
    32
  0
VERTEX
  8
7700LEVEL
 62
13
 10
2151.795
 20
-6109.260
 30
-2425.000
 70
    32
  0
VERTEX
  8
7700LEVEL
 62
13
 10
2158.866
 20
-6119.979
 30
-2425.000
 70
    32
  0
VERTEX
  8
7700LEVEL
 62
13
 10
2161.805
 20
-6124.534
 30
-2425.000
 70
    32
  0
VERTEX
  8
7700LEVEL
 62
13
 10
2166.261
 20
-6130.210
 30
-2425.000
 70
    32
  0
VERTEX
  8
7700LEVEL
 62
13
 10
2168.594
 20
-6132.096
 30
-2425.000
 70
    32
  0
VERTEX
  8
7700LEVEL
 62
13
 10
2170.112
 20
-6132.967
 30
-2425.000
 70
    32
  0
VERTEX
  8
7700LEVEL
 62
13
 10
2171.490
 20
-6131.883
 30
-2425.000
 70
    32
  0
VERTEX
  8
7700LEVEL
 62
13
 10
2172.445
 20
-6127.871
 30
-2425.000
 70
    32
  0
VERTEX
  8
7700LEVEL
 62
13
 10
2170.867
 20
-6121.871
 30
-2425.000
 70
    32
  0
VERTEX
  8
7700LEVEL
 62
13
 10
2166.406
 20
-6108.282
 30
-2425.000
 70
    32
  0
VERTEX
  8
7700LEVEL
 62
13
 10
2159.566
 20
-6086.855
 30
-2425.000
 70
    32
  0
VERTEX
  8
7700LEVEL
 62
13
 10
2155.491
 20
-6075.972
 30
-2425.000
 70
    32
  0
VERTEX
  8
7700LEVEL
 62
13
 10
2148.469
 20
-6058.421
 30
-2425.000
 70
    32
  0
VERTEX
  8
7700LEVEL
 62
13
 10
2143.651
 20
-6046.032
 30
-2425.000
 70
    32
  0
VERTEX
  8
7700LEVEL
 62
13
 10
2140.077
 20
-6035.152
 30
-2425.000
 70
    32
  0
VERTEX
  8
7700LEVEL
 62
13
 10
2137.736
 20
-6029.469
 30
-2425.000
 70
    32
  0
SEQEND
  8
7700LEVEL
  0
POLYLINE
  8
7700LEVEL
 62
13
 66
     1
 70
     8
  0
VERTEX
  8
7700LEVEL
 62
13
 10
2199.672
 20
-6121.034
 30
-2425.000
 70
    32
  0
VERTEX
  8
7700LEVEL
 62
13
 10
2206.136
 20
-6141.618
 30
-2425.000
 70
    32
  0
VERTEX
  8
7700LEVEL
 62
13
 10
2212.447
 20
-6159.135
 30
-2425.000
 70
    32
  0
VERTEX
  8
7700LEVEL
 62
13
 10
2215.816
 20
-6169.232
 30
-2425.000
 70
    32
  0
VERTEX
  8
7700LEVEL
 62
13
 10
2220.698
 20
-6182.633
 30
-2425.000
 70
    32
  0
VERTEX
  8
7700LEVEL
 62
13
 10
2221.805
 20
-6188.670
 30
-2425.000
 70
    32
  0
VERTEX
  8
7700LEVEL
 62
13
 10
2223.298
 20
-6197.414
 30
-2425.000
 70
    32
  0
VERTEX
  8
7700LEVEL
 62
13
 10
2222.660
 20
-6198.573
 30
-2425.000
 70
    32
  0
VERTEX
  8
7700LEVEL
 62
13
 10
2220.486
 20
-6200.434
 30
-2425.000
 70
    32
  0
VERTEX
  8
7700LEVEL
 62
13
 10
2217.552
 20
-6200.177
 30
-2425.000
 70
    32
  0
VERTEX
  8
7700LEVEL
 62
13
 10
2212.176
 20
-6196.119
 30
-2425.000
 70
    32
  0
VERTEX
  8
7700LEVEL
 62
13
 10
2202.687
 20
-6186.007
 30
-2425.000
 70
    32
  0
VERTEX
  8
7700LEVEL
 62
13
 10
2196.164
 20
-6177.374
 30
-2425.000
 70
    32
  0
VERTEX
  8
7700LEVEL
 62
13
 10
2188.552
 20
-6166.682
 30
-2425.000
 70
    32
  0
VERTEX
  8
7700LEVEL
 62
13
 10
2184.627
 20
-6161.049
 30
-2425.000
 70
    32
  0
VERTEX
  8
7700LEVEL
 62
13
 10
2182.757
 20
-6158.694
 30
-2425.000
 70
    32
  0
VERTEX
  8
7700LEVEL
 62
13
 10
2181.080
 20
-6157.693
 30
-2425.000
 70
    32
  0
VERTEX
  8
7700LEVEL
 62
13
 10
2178.958
 20
-6159.204
 30
-2425.000
 70
    32
  0
VERTEX
  8
7700LEVEL
 62
13
 10
2179.701
 20
-6169.376
 30
-2425.000
 70
    32
  0
VERTEX
  8
7700LEVEL
 62
13
 10
2184.228
 20
-6181.794
 30
-2425.000
 70
    32
  0
VERTEX
  8
7700LEVEL
 62
13
 10
2192.889
 20
-6194.826
 30
-2425.000
 70
    32
  0
VERTEX
  8
7700LEVEL
 62
13
 10
2203.253
 20
-6209.652
 30
-2425.000
 70
    32
  0
VERTEX
  8
7700LEVEL
 62
13
 10
2211.165
 20
-6220.496
 30
-2425.000
 70
    32
  0
VERTEX
  8
7700LEVEL
 62
13
 10
2224.000
 20
-6237.479
 30
-2425.000
 70
    32
  0
VERTEX
  8
7700LEVEL
 62
13
 10
2235.677
 20
-6257.441
 30
-2425.000
 70
    32
  0
VERTEX
  8
7700LEVEL
 62
13
 10
2243.424
 20
-6270.839
 30
-2425.000
 70
    32
  0
VERTEX
  8
7700LEVEL
 62
13
 10
2253.112
 20
-6289.969
 30
-2425.000
 70
    32
  0
VERTEX
  8
7700LEVEL
 62
13
 10
2260.100
 20
-6306.548
 30
-2425.000
 70
    32
  0
VERTEX
  8
7700LEVEL
 62
13
 10
2268.535
 20
-6322.304
 30
-2425.000
 70
    32
  0
VERTEX
  8
7700LEVEL
 62
13
 10
2276.881
 20
-6334.323
 30
-2425.000
 70
    32
  0
VERTEX
  8
7700LEVEL
 62
13
 10
2288.320
 20
-6355.646
 30
-2425.000
 70
    32
  0
VERTEX
  8
7700LEVEL
 62
13
 10
2296.899
 20
-6379.337
 30
-2425.000
 70
    32
  0
VERTEX
  8
7700LEVEL
 62
13
 10
2301.010
 20
-6396.240
 30
-2425.000
 70
    32
  0
VERTEX
  8
7700LEVEL
 62
13
 10
2301.968
 20
-6404.009
 30
-2425.000
 70
    32
  0
VERTEX
  8
7700LEVEL
 62
13
 10
2300.801
 20
-6415.223
 30
-2425.000
 70
    32
  0
VERTEX
  8
7700LEVEL
 62
13
 10
2298.010
 20
-6416.419
 30
-2425.000
 70
    32
  0
VERTEX
  8
7700LEVEL
 62
13
 10
2294.309
 20
-6413.613
 30
-2425.000
 70
    32
  0
VERTEX
  8
7700LEVEL
 62
13
 10
2291.033
 20
-6410.118
 30
-2425.000
 70
    32
  0
VERTEX
  8
7700LEVEL
 62
13
 10
2286.926
 20
-6406.678
 30
-2425.000
 70
    32
  0
VERTEX
  8
7700LEVEL
 62
13
 10
2284.019
 20
-6406.962
 30
-2425.000
 70
    32
  0
VERTEX
  8
7700LEVEL
 62
13
 10
2281.519
 20
-6413.179
 30
-2425.000
 70
    32
  0
VERTEX
  8
7700LEVEL
 62
13
 10
2284.924
 20
-6425.680
 30
-2425.000
 70
    32
  0
VERTEX
  8
7700LEVEL
 62
13
 10
2290.653
 20
-6432.906
 30
-2425.000
 70
    32
  0
VERTEX
  8
7700LEVEL
 62
13
 10
2302.258
 20
-6446.126
 30
-2425.000
 70
    32
  0
VERTEX
  8
7700LEVEL
 62
13
 10
2311.128
 20
-6454.140
 30
-2425.000
 70
    32
  0
VERTEX
  8
7700LEVEL
 62
13
 10
2320.563
 20
-6470.153
 30
-2425.000
 70
    32
  0
VERTEX
  8
7700LEVEL
 62
13
 10
2324.848
 20
-6479.383
 30
-2425.000
 70
    32
  0
VERTEX
  8
7700LEVEL
 62
13
 10
2333.990
 20
-6493.991
 30
-2425.000
 70
    32
  0
VERTEX
  8
7700LEVEL
 62
13
 10
2339.141
 20
-6500.773
 30
-2425.000
 70
    32
  0
VERTEX
  8
7700LEVEL
 62
13
 10
2343.577
 20
-6506.338
 30
-2425.000
 70
    32
  0
VERTEX
  8
7700LEVEL
 62
13
 10
2347.771
 20
-6514.016
 30
-2425.000
 70
    32
  0
VERTEX
  8
7700LEVEL
 62
13
 10
2350.410
 20
-6520.101
 30
-2425.000
 70
    32
  0
VERTEX
  8
7700LEVEL
 62
13
 10
2352.545
 20
-6532.235
 30
-2425.000
 70
    32
  0
VERTEX
  8
7700LEVEL
 62
13
 10
2354.664
 20
-6547.124
 30
-2425.000
 70
    32
  0
VERTEX
  8
7700LEVEL
 62
13
 10
2356.264
 20
-6561.648
 30
-2425.000
 70
    32
  0
VERTEX
  8
7700LEVEL
 62
13
 10
2356.550
 20
-6569.354
 30
-2425.000
 70
    32
  0
VERTEX
  8
7700LEVEL
 62
13
 10
2358.529
 20
-6577.239
 30
-2425.000
 70
    32
  0
VERTEX
  8
7700LEVEL
 62
13
 10
2363.797
 20
-6591.414
 30
-2425.000
 70
    32
  0
VERTEX
  8
7700LEVEL
 62
13
 10
2368.053
 20
-6600.354
 30
-2425.000
 70
    32
  0
VERTEX
  8
7700LEVEL
 62
13
 10
2371.542
 20
-6606.996
 30
-2425.000
 70
    32
  0
VERTEX
  8
7700LEVEL
 62
13
 10
2373.670
 20
-6609.783
 30
-2425.000
 70
    32
  0
VERTEX
  8
7700LEVEL
 62
13
 10
2375.084
 20
-6609.420
 30
-2425.000
 70
    32
  0
VERTEX
  8
7700LEVEL
 62
13
 10
2375.752
 20
-6601.320
 30
-2425.000
 70
    32
  0
VERTEX
  8
7700LEVEL
 62
13
 10
2372.436
 20
-6585.573
 30
-2425.000
 70
    32
  0
VERTEX
  8
7700LEVEL
 62
13
 10
2369.527
 20
-6572.143
 30
-2425.000
 70
    32
  0
VERTEX
  8
7700LEVEL
 62
13
 10
2367.287
 20
-6559.277
 30
-2425.000
 70
    32
  0
VERTEX
  8
7700LEVEL
 62
13
 10
2365.556
 20
-6548.278
 30
-2425.000
 70
    32
  0
VERTEX
  8
7700LEVEL
 62
13
 10
2365.808
 20
-6541.046
 30
-2425.000
 70
    32
  0
VERTEX
  8
7700LEVEL
 62
13
 10
2366.698
 20
-6536.023
 30
-2425.000
 70
    32
  0
VERTEX
  8
7700LEVEL
 62
13
 10
2367.964
 20
-6535.459
 30
-2425.000
 70
    32
  0
VERTEX
  8
7700LEVEL
 62
13
 10
2370.199
 20
-6537.044
 30
-2425.000
 70
    32
  0
VERTEX
  8
7700LEVEL
 62
13
 10
2372.428
 20
-6541.315
 30
-2425.000
 70
    32
  0
VERTEX
  8
7700LEVEL
 62
13
 10
2375.920
 20
-6554.438
 30
-2425.000
 70
    32
  0
VERTEX
  8
7700LEVEL
 62
13
 10
2378.653
 20
-6565.192
 30
-2425.000
 70
    32
  0
VERTEX
  8
7700LEVEL
 62
13
 10
2381.692
 20
-6580.397
 30
-2425.000
 70
    32
  0
VERTEX
  8
7700LEVEL
 62
13
 10
2384.357
 20
-6595.939
 30
-2425.000
 70
    32
  0
VERTEX
  8
7700LEVEL
 62
13
 10
2386.714
 20
-6609.467
 30
-2425.000
 70
    32
  0
VERTEX
  8
7700LEVEL
 62
13
 10
2392.797
 20
-6630.208
 30
-2425.000
 70
    32
  0
VERTEX
  8
7700LEVEL
 62
13
 10
2397.711
 20
-6652.065
 30
-2425.000
 70
    32
  0
VERTEX
  8
7700LEVEL
 62
13
 10
2400.936
 20
-6671.308
 30
-2425.000
 70
    32
  0
VERTEX
  8
7700LEVEL
 62
13
 10
2403.001
 20
-6681.748
 30
-2425.000
 70
    32
  0
VERTEX
  8
7700LEVEL
 62
13
 10
2405.447
 20
-6695.396
 30
-2425.000
 70
    32
  0
VERTEX
  8
7700LEVEL
 62
13
 10
2407.357
 20
-6704.703
 30
-2425.000
 70
    32
  0
VERTEX
  8
7700LEVEL
 62
13
 10
2410.288
 20
-6719.426
 30
-2425.000
 70
    32
  0
VERTEX
  8
7700LEVEL
 62
13
 10
2412.108
 20
-6728.863
 30
-2425.000
 70
    32
  0
VERTEX
  8
7700LEVEL
 62
13
 10
2415.174
 20
-6742.675
 30
-2425.000
 70
    32
  0
VERTEX
  8
7700LEVEL
 62
13
 10
2416.780
 20
-6752.582
 30
-2425.000
 70
    32
  0
VERTEX
  8
7700LEVEL
 62
13
 10
2418.319
 20
-6767.277
 30
-2425.000
 70
    32
  0
VERTEX
  8
7700LEVEL
 62
13
 10
2419.509
 20
-6786.968
 30
-2425.000
 70
    32
  0
VERTEX
  8
7700LEVEL
 62
13
 10
2421.665
 20
-6800.645
 30
-2425.000
 70
    32
  0
VERTEX
  8
7700LEVEL
 62
13
 10
2422.727
 20
-6812.762
 30
-2425.000
 70
    32
  0
VERTEX
  8
7700LEVEL
 62
13
 10
2424.464
 20
-6820.827
 30
-2425.000
 70
    32
  0
VERTEX
  8
7700LEVEL
 62
13
 10
2428.708
 20
-6833.704
 30
-2425.000
 70
    32
  0
VERTEX
  8
7700LEVEL
 62
13
 10
2433.867
 20
-6842.599
 30
-2425.000
 70
    32
  0
VERTEX
  8
7700LEVEL
 62
13
 10
2445.113
 20
-6858.952
 30
-2425.000
 70
    32
  0
VERTEX
  8
7700LEVEL
 62
13
 10
2455.725
 20
-6875.963
 30
-2425.000
 70
    32
  0
VERTEX
  8
7700LEVEL
 62
13
 10
2462.258
 20
-6886.208
 30
-2425.000
 70
    32
  0
VERTEX
  8
7700LEVEL
 62
13
 10
2472.002
 20
-6902.553
 30
-2425.000
 70
    32
  0
VERTEX
  8
7700LEVEL
 62
13
 10
2480.003
 20
-6913.518
 30
-2425.000
 70
    32
  0
VERTEX
  8
7700LEVEL
 62
13
 10
2492.156
 20
-6930.758
 30
-2425.000
 70
    32
  0
VERTEX
  8
7700LEVEL
 62
13
 10
2499.490
 20
-6941.158
 30
-2425.000
 70
    32
  0
VERTEX
  8
7700LEVEL
 62
13
 10
2507.628
 20
-6954.578
 30
-2425.000
 70
    32
  0
VERTEX
  8
7700LEVEL
 62
13
 10
2516.988
 20
-6973.265
 30
-2425.000
 70
    32
  0
VERTEX
  8
7700LEVEL
 62
13
 10
2522.085
 20
-6984.013
 30
-2425.000
 70
    32
  0
VERTEX
  8
7700LEVEL
 62
13
 10
2529.642
 20
-7004.472
 30
-2425.000
 70
    32
  0
VERTEX
  8
7700LEVEL
 62
13
 10
2534.815
 20
-7019.528
 30
-2425.000
 70
    32
  0
VERTEX
  8
7700LEVEL
 62
13
 10
2539.812
 20
-7033.842
 30
-2425.000
 70
    32
  0
VERTEX
  8
7700LEVEL
 62
13
 10
2543.728
 20
-7044.594
 30
-2425.000
 70
    32
  0
VERTEX
  8
7700LEVEL
 62
13
 10
2547.946
 20
-7054.996
 30
-2425.000
 70
    32
  0
VERTEX
  8
7700LEVEL
 62
13
 10
2552.395
 20
-7066.973
 30
-2425.000
 70
    32
  0
VERTEX
  8
7700LEVEL
 62
13
 10
2555.319
 20
-7079.582
 30
-2425.000
 70
    32
  0
VERTEX
  8
7700LEVEL
 62
13
 10
2558.971
 20
-7099.568
 30
-2425.000
 70
    32
  0
VERTEX
  8
7700LEVEL
 62
13
 10
2561.796
 20
-7113.559
 30
-2425.000
 70
    32
  0
VERTEX
  8
7700LEVEL
 62
13
 10
2562.860
 20
-7127.109
 30
-2425.000
 70
    32
  0
VERTEX
  8
7700LEVEL
 62
13
 10
2564.944
 20
-7135.977
 30
-2425.000
 70
    32
  0
VERTEX
  8
7700LEVEL
 62
13
 10
2568.401
 20
-7146.194
 30
-2425.000
 70
    32
  0
VERTEX
  8
7700LEVEL
 62
13
 10
2571.239
 20
-7154.565
 30
-2425.000
 70
    32
  0
VERTEX
  8
7700LEVEL
 62
13
 10
2574.800
 20
-7169.382
 30
-2425.000
 70
    32
  0
VERTEX
  8
7700LEVEL
 62
13
 10
2577.363
 20
-7183.692
 30
-2425.000
 70
    32
  0
VERTEX
  8
7700LEVEL
 62
13
 10
2578.669
 20
-7191.764
 30
-2425.000
 70
    32
  0
VERTEX
  8
7700LEVEL
 62
13
 10
2580.318
 20
-7199.457
 30
-2425.000
 70
    32
  0
VERTEX
  8
7700LEVEL
 62
13
 10
2581.050
 20
-7202.967
 30
-2425.000
 70
    32
  0
SEQEND
  8
7700LEVEL
  0
POLYLINE
  8
7700LEVEL
 62
13
 66
     1
 70
     9
  0
VERTEX
  8
7700LEVEL
 62
13
 10
2272.520
 20
-6685.119
 30
-2425.000
 70
    32
  0
VERTEX
  8
7700LEVEL
 62
13
 10
2274.643
 20
-6692.274
 30
-2425.000
 70
    32
  0
VERTEX
  8
7700LEVEL
 62
13
 10
2276.583
 20
-6699.938
 30
-2425.000
 70
    32
  0
VERTEX
  8
7700LEVEL
 62
13
 10
2278.360
 20
-6707.973
 30
-2425.000
 70
    32
  0
VERTEX
  8
7700LEVEL
 62
13
 10
2278.443
 20
-6712.711
 30
-2425.000
 70
    32
  0
VERTEX
  8
7700LEVEL
 62
13
 10
2278.330
 20
-6714.915
 30
-2425.000
 70
    32
  0
VERTEX
  8
7700LEVEL
 62
13
 10
2276.938
 20
-6714.887
 30
-2425.000
 70
    32
  0
VERTEX
  8
7700LEVEL
 62
13
 10
2274.576
 20
-6709.343
 30
-2425.000
 70
    32
  0
VERTEX
  8
7700LEVEL
 62
13
 10
2271.317
 20
-6697.544
 30
-2425.000
 70
    32
  0
VERTEX
  8
7700LEVEL
 62
13
 10
2268.035
 20
-6686.385
 30
-2425.000
 70
    32
  0
VERTEX
  8
7700LEVEL
 62
13
 10
2266.208
 20
-6680.134
 30
-2425.000
 70
    32
  0
VERTEX
  8
7700LEVEL
 62
13
 10
2264.897
 20
-6672.813
 30
-2425.000
 70
    32
  0
VERTEX
  8
7700LEVEL
 62
13
 10
2264.305
 20
-6669.574
 30
-2425.000
 70
    32
  0
VERTEX
  8
7700LEVEL
 62
13
 10
2264.344
 20
-6667.862
 30
-2425.000
 70
    32
  0
VERTEX
  8
7700LEVEL
 62
13
 10
2265.298
 20
-6665.783
 30
-2425.000
 70
    32
  0
VERTEX
  8
7700LEVEL
 62
13
 10
2266.838
 20
-6667.946
 30
-2425.000
 70
    32
  0
VERTEX
  8
7700LEVEL
 62
13
 10
2268.412
 20
-6671.331
 30
-2425.000
 70
    32
  0
VERTEX
  8
7700LEVEL
 62
13
 10
2269.834
 20
-6676.699
 30
-2425.000
 70
    32
  0
VERTEX
  8
7700LEVEL
 62
13
 10
2271.124
 20
-6680.543
 30
-2425.000
 70
    32
  0
VERTEX
  8
7700LEVEL
 62
13
 10
2271.873
 20
-6682.731
 30
-2425.000
 70
    32
  0
SEQEND
  8
7700LEVEL
  0
POLYLINE
  8
7700LEVEL
 62
13
 66
     1
 70
     9
  0
VERTEX
  8
7700LEVEL
 62
13
 10
2239.834
 20
-6907.345
 30
-2425.000
 70
    32
  0
VERTEX
  8
7700LEVEL
 62
13
 10
2234.765
 20
-6900.254
 30
-2425.000
 70
    32
  0
VERTEX
  8
7700LEVEL
 62
13
 10
2228.837
 20
-6889.311
 30
-2425.000
 70
    32
  0
VERTEX
  8
7700LEVEL
 62
13
 10
2219.242
 20
-6873.167
 30
-2425.000
 70
    32
  0
VERTEX
  8
7700LEVEL
 62
13
 10
2211.057
 20
-6859.346
 30
-2425.000
 70
    32
  0
VERTEX
  8
7700LEVEL
 62
13
 10
2205.305
 20
-6849.145
 30
-2425.000
 70
    32
  0
VERTEX
  8
7700LEVEL
 62
13
 10
2204.222
 20
-6842.217
 30
-2425.000
 70
    32
  0
VERTEX
  8
7700LEVEL
 62
13
 10
2205.050
 20
-6830.631
 30
-2425.000
 70
    32
  0
VERTEX
  8
7700LEVEL
 62
13
 10
2205.868
 20
-6822.481
 30
-2425.000
 70
    32
  0
VERTEX
  8
7700LEVEL
 62
13
 10
2206.755
 20
-6821.575
 30
-2425.000
 70
    32
  0
VERTEX
  8
7700LEVEL
 62
13
 10
2208.994
 20
-6824.092
 30
-2425.000
 70
    32
  0
VERTEX
  8
7700LEVEL
 62
13
 10
2215.782
 20
-6821.306
 30
-2425.000
 70
    32
  0
VERTEX
  8
7700LEVEL
 62
13
 10
2219.592
 20
-6817.361
 30
-2425.000
 70
    32
  0
VERTEX
  8
7700LEVEL
 62
13
 10
2221.957
 20
-6804.822
 30
-2425.000
 70
    32
  0
VERTEX
  8
7700LEVEL
 62
13
 10
2222.819
 20
-6790.842
 30
-2425.000
 70
    32
  0
VERTEX
  8
7700LEVEL
 62
13
 10
2219.708
 20
-6779.494
 30
-2425.000
 70
    32
  0
VERTEX
  8
7700LEVEL
 62
13
 10
2219.465
 20
-6771.258
 30
-2425.000
 70
    32
  0
VERTEX
  8
7700LEVEL
 62
13
 10
2221.493
 20
-6756.414
 30
-2425.000
 70
    32
  0
VERTEX
  8
7700LEVEL
 62
13
 10
2223.561
 20
-6746.838
 30
-2425.000
 70
    32
  0
VERTEX
  8
7700LEVEL
 62
13
 10
2222.329
 20
-6731.043
 30
-2425.000
 70
    32
  0
VERTEX
  8
7700LEVEL
 62
13
 10
2220.393
 20
-6719.262
 30
-2425.000
 70
    32
  0
VERTEX
  8
7700LEVEL
 62
13
 10
2218.627
 20
-6712.840
 30
-2425.000
 70
    32
  0
VERTEX
  8
7700LEVEL
 62
13
 10
2212.522
 20
-6703.088
 30
-2425.000
 70
    32
  0
VERTEX
  8
7700LEVEL
 62
13
 10
2207.318
 20
-6696.907
 30
-2425.000
 70
    32
  0
VERTEX
  8
7700LEVEL
 62
13
 10
2198.170
 20
-6688.350
 30
-2425.000
 70
    32
  0
VERTEX
  8
7700LEVEL
 62
13
 10
2192.817
 20
-6681.968
 30
-2425.000
 70
    32
  0
VERTEX
  8
7700LEVEL
 62
13
 10
2189.141
 20
-6674.905
 30
-2425.000
 70
    32
  0
VERTEX
  8
7700LEVEL
 62
13
 10
2186.884
 20
-6668.410
 30
-2425.000
 70
    32
  0
VERTEX
  8
7700LEVEL
 62
13
 10
2185.280
 20
-6661.619
 30
-2425.000
 70
    32
  0
VERTEX
  8
7700LEVEL
 62
13
 10
2183.919
 20
-6654.398
 30
-2425.000
 70
    32
  0
VERTEX
  8
7700LEVEL
 62
13
 10
2184.917
 20
-6651.539
 30
-2425.000
 70
    32
  0
VERTEX
  8
7700LEVEL
 62
13
 10
2186.599
 20
-6651.789
 30
-2425.000
 70
    32
  0
VERTEX
  8
7700LEVEL
 62
13
 10
2188.396
 20
-6656.317
 30
-2425.000
 70
    32
  0
VERTEX
  8
7700LEVEL
 62
13
 10
2191.712
 20
-6665.082
 30
-2425.000
 70
    32
  0
VERTEX
  8
7700LEVEL
 62
13
 10
2195.941
 20
-6671.798
 30
-2425.000
 70
    32
  0
VERTEX
  8
7700LEVEL
 62
13
 10
2200.142
 20
-6678.223
 30
-2425.000
 70
    32
  0
VERTEX
  8
7700LEVEL
 62
13
 10
2205.578
 20
-6685.728
 30
-2425.000
 70
    32
  0
VERTEX
  8
7700LEVEL
 62
13
 10
2210.119
 20
-6692.275
 30
-2425.000
 70
    32
  0
VERTEX
  8
7700LEVEL
 62
13
 10
2215.274
 20
-6698.305
 30
-2425.000
 70
    32
  0
VERTEX
  8
7700LEVEL
 62
13
 10
2219.340
 20
-6702.025
 30
-2425.000
 70
    32
  0
VERTEX
  8
7700LEVEL
 62
13
 10
2223.613
 20
-6707.960
 30
-2425.000
 70
    32
  0
VERTEX
  8
7700LEVEL
 62
13
 10
2226.602
 20
-6712.665
 30
-2425.000
 70
    32
  0
VERTEX
  8
7700LEVEL
 62
13
 10
2228.494
 20
-6716.313
 30
-2425.000
 70
    32
  0
VERTEX
  8
7700LEVEL
 62
13
 10
2229.459
 20
-6719.213
 30
-2425.000
 70
    32
  0
VERTEX
  8
7700LEVEL
 62
13
 10
2231.381
 20
-6721.218
 30
-2425.000
 70
    32
  0
VERTEX
  8
7700LEVEL
 62
13
 10
2231.455
 20
-6718.794
 30
-2425.000
 70
    32
  0
VERTEX
  8
7700LEVEL
 62
13
 10
2230.110
 20
-6715.801
 30
-2425.000
 70
    32
  0
VERTEX
  8
7700LEVEL
 62
13
 10
2228.383
 20
-6711.283
 30
-2425.000
 70
    32
  0
VERTEX
  8
7700LEVEL
 62
13
 10
2226.336
 20
-6706.503
 30
-2425.000
 70
    32
  0
VERTEX
  8
7700LEVEL
 62
13
 10
2220.868
 20
-6699.209
 30
-2425.000
 70
    32
  0
VERTEX
  8
7700LEVEL
 62
13
 10
2214.876
 20
-6692.553
 30
-2425.000
 70
    32
  0
VERTEX
  8
7700LEVEL
 62
13
 10
2209.314
 20
-6684.206
 30
-2425.000
 70
    32
  0
VERTEX
  8
7700LEVEL
 62
13
 10
2205.205
 20
-6675.718
 30
-2425.000
 70
    32
  0
VERTEX
  8
7700LEVEL
 62
13
 10
2203.178
 20
-6671.048
 30
-2425.000
 70
    32
  0
VERTEX
  8
7700LEVEL
 62
13
 10
2200.771
 20
-6666.286
 30
-2425.000
 70
    32
  0
VERTEX
  8
7700LEVEL
 62
13
 10
2195.597
 20
-6656.529
 30
-2425.000
 70
    32
  0
VERTEX
  8
7700LEVEL
 62
13
 10
2192.408
 20
-6648.356
 30
-2425.000
 70
    32
  0
VERTEX
  8
7700LEVEL
 62
13
 10
2191.807
 20
-6643.254
 30
-2425.000
 70
    32
  0
VERTEX
  8
7700LEVEL
 62
13
 10
2192.047
 20
-6639.709
 30
-2425.000
 70
    32
  0
VERTEX
  8
7700LEVEL
 62
13
 10
2193.746
 20
-6638.637
 30
-2425.000
 70
    32
  0
VERTEX
  8
7700LEVEL
 62
13
 10
2197.888
 20
-6641.365
 30
-2425.000
 70
    32
  0
VERTEX
  8
7700LEVEL
 62
13
 10
2200.460
 20
-6645.257
 30
-2425.000
 70
    32
  0
VERTEX
  8
7700LEVEL
 62
13
 10
2202.525
 20
-6653.764
 30
-2425.000
 70
    32
  0
VERTEX
  8
7700LEVEL
 62
13
 10
2204.507
 20
-6661.148
 30
-2425.000
 70
    32
  0
VERTEX
  8
7700LEVEL
 62
13
 10
2206.404
 20
-6667.410
 30
-2425.000
 70
    32
  0
VERTEX
  8
7700LEVEL
 62
13
 10
2208.250
 20
-6674.022
 30
-2425.000
 70
    32
  0
VERTEX
  8
7700LEVEL
 62
13
 10
2209.865
 20
-6677.127
 30
-2425.000
 70
    32
  0
VERTEX
  8
7700LEVEL
 62
13
 10
2211.469
 20
-6678.619
 30
-2425.000
 70
    32
  0
VERTEX
  8
7700LEVEL
 62
13
 10
2212.954
 20
-6678.266
 30
-2425.000
 70
    32
  0
VERTEX
  8
7700LEVEL
 62
13
 10
2213.085
 20
-6676.424
 30
-2425.000
 70
    32
  0
VERTEX
  8
7700LEVEL
 62
13
 10
2212.357
 20
-6670.479
 30
-2425.000
 70
    32
  0
VERTEX
  8
7700LEVEL
 62
13
 10
2212.267
 20
-6661.693
 30
-2425.000
 70
    32
  0
VERTEX
  8
7700LEVEL
 62
13
 10
2212.266
 20
-6656.644
 30
-2425.000
 70
    32
  0
VERTEX
  8
7700LEVEL
 62
13
 10
2212.852
 20
-6650.537
 30
-2425.000
 70
    32
  0
VERTEX
  8
7700LEVEL
 62
13
 10
2212.165
 20
-6644.562
 30
-2425.000
 70
    32
  0
VERTEX
  8
7700LEVEL
 62
13
 10
2209.778
 20
-6637.977
 30
-2425.000
 70
    32
  0
VERTEX
  8
7700LEVEL
 62
13
 10
2204.513
 20
-6628.600
 30
-2425.000
 70
    32
  0
VERTEX
  8
7700LEVEL
 62
13
 10
2200.907
 20
-6621.547
 30
-2425.000
 70
    32
  0
VERTEX
  8
7700LEVEL
 62
13
 10
2193.559
 20
-6610.035
 30
-2425.000
 70
    32
  0
VERTEX
  8
7700LEVEL
 62
13
 10
2190.531
 20
-6601.743
 30
-2425.000
 70
    32
  0
VERTEX
  8
7700LEVEL
 62
13
 10
2190.042
 20
-6589.138
 30
-2425.000
 70
    32
  0
VERTEX
  8
7700LEVEL
 62
13
 10
2190.624
 20
-6576.799
 30
-2425.000
 70
    32
  0
VERTEX
  8
7700LEVEL
 62
13
 10
2189.813
 20
-6562.750
 30
-2425.000
 70
    32
  0
VERTEX
  8
7700LEVEL
 62
13
 10
2187.588
 20
-6548.813
 30
-2425.000
 70
    32
  0
VERTEX
  8
7700LEVEL
 62
13
 10
2183.291
 20
-6529.554
 30
-2425.000
 70
    32
  0
VERTEX
  8
7700LEVEL
 62
13
 10
2178.013
 20
-6511.832
 30
-2425.000
 70
    32
  0
VERTEX
  8
7700LEVEL
 62
13
 10
2176.015
 20
-6500.220
 30
-2425.000
 70
    32
  0
VERTEX
  8
7700LEVEL
 62
13
 10
2175.729
 20
-6485.533
 30
-2425.000
 70
    32
  0
VERTEX
  8
7700LEVEL
 62
13
 10
2175.966
 20
-6475.506
 30
-2425.000
 70
    32
  0
VERTEX
  8
7700LEVEL
 62
13
 10
2176.510
 20
-6471.613
 30
-2425.000
 70
    32
  0
VERTEX
  8
7700LEVEL
 62
13
 10
2177.912
 20
-6469.888
 30
-2425.000
 70
    32
  0
VERTEX
  8
7700LEVEL
 62
13
 10
2179.193
 20
-6471.868
 30
-2425.000
 70
    32
  0
VERTEX
  8
7700LEVEL
 62
13
 10
2180.799
 20
-6474.793
 30
-2425.000
 70
    32
  0
VERTEX
  8
7700LEVEL
 62
13
 10
2182.748
 20
-6479.021
 30
-2425.000
 70
    32
  0
VERTEX
  8
7700LEVEL
 62
13
 10
2184.764
 20
-6478.712
 30
-2425.000
 70
    32
  0
VERTEX
  8
7700LEVEL
 62
13
 10
2186.099
 20
-6469.494
 30
-2425.000
 70
    32
  0
VERTEX
  8
7700LEVEL
 62
13
 10
2187.399
 20
-6459.303
 30
-2425.000
 70
    32
  0
VERTEX
  8
7700LEVEL
 62
13
 10
2187.607
 20
-6447.553
 30
-2425.000
 70
    32
  0
VERTEX
  8
7700LEVEL
 62
13
 10
2187.207
 20
-6440.368
 30
-2425.000
 70
    32
  0
VERTEX
  8
7700LEVEL
 62
13
 10
2186.053
 20
-6428.381
 30
-2425.000
 70
    32
  0
VERTEX
  8
7700LEVEL
 62
13
 10
2186.404
 20
-6417.834
 30
-2425.000
 70
    32
  0
VERTEX
  8
7700LEVEL
 62
13
 10
2185.849
 20
-6408.084
 30
-2425.000
 70
    32
  0
VERTEX
  8
7700LEVEL
 62
13
 10
2186.120
 20
-6402.645
 30
-2425.000
 70
    32
  0
VERTEX
  8
7700LEVEL
 62
13
 10
2186.889
 20
-6399.645
 30
-2425.000
 70
    32
  0
VERTEX
  8
7700LEVEL
 62
13
 10
2188.388
 20
-6396.788
 30
-2425.000
 70
    32
  0
VERTEX
  8
7700LEVEL
 62
13
 10
2191.061
 20
-6398.797
 30
-2425.000
 70
    32
  0
VERTEX
  8
7700LEVEL
 62
13
 10
2196.604
 20
-6407.033
 30
-2425.000
 70
    32
  0
VERTEX
  8
7700LEVEL
 62
13
 10
2200.116
 20
-6413.034
 30
-2425.000
 70
    32
  0
VERTEX
  8
7700LEVEL
 62
13
 10
2204.392
 20
-6422.084
 30
-2425.000
 70
    32
  0
VERTEX
  8
7700LEVEL
 62
13
 10
2210.462
 20
-6437.847
 30
-2425.000
 70
    32
  0
VERTEX
  8
7700LEVEL
 62
13
 10
2214.649
 20
-6446.776
 30
-2425.000
 70
    32
  0
VERTEX
  8
7700LEVEL
 62
13
 10
2221.744
 20
-6458.538
 30
-2425.000
 70
    32
  0
VERTEX
  8
7700LEVEL
 62
13
 10
2228.581
 20
-6471.800
 30
-2425.000
 70
    32
  0
VERTEX
  8
7700LEVEL
 62
13
 10
2237.809
 20
-6483.664
 30
-2425.000
 70
    32
  0
VERTEX
  8
7700LEVEL
 62
13
 10
2248.413
 20
-6493.262
 30
-2425.000
 70
    32
  0
VERTEX
  8
7700LEVEL
 62
13
 10
2256.976
 20
-6502.377
 30
-2425.000
 70
    32
  0
VERTEX
  8
7700LEVEL
 62
13
 10
2261.706
 20
-6509.095
 30
-2425.000
 70
    32
  0
VERTEX
  8
7700LEVEL
 62
13
 10
2265.219
 20
-6518.462
 30
-2425.000
 70
    32
  0
VERTEX
  8
7700LEVEL
 62
13
 10
2264.970
 20
-6525.193
 30
-2425.000
 70
    32
  0
VERTEX
  8
7700LEVEL
 62
13
 10
2262.413
 20
-6539.744
 30
-2425.000
 70
    32
  0
VERTEX
  8
7700LEVEL
 62
13
 10
2260.934
 20
-6547.759
 30
-2425.000
 70
    32
  0
VERTEX
  8
7700LEVEL
 62
13
 10
2262.301
 20
-6560.961
 30
-2425.000
 70
    32
  0
VERTEX
  8
7700LEVEL
 62
13
 10
2264.455
 20
-6567.905
 30
-2425.000
 70
    32
  0
VERTEX
  8
7700LEVEL
 62
13
 10
2272.218
 20
-6578.548
 30
-2425.000
 70
    32
  0
VERTEX
  8
7700LEVEL
 62
13
 10
2280.102
 20
-6587.419
 30
-2425.000
 70
    32
  0
VERTEX
  8
7700LEVEL
 62
13
 10
2284.208
 20
-6592.792
 30
-2425.000
 70
    32
  0
VERTEX
  8
7700LEVEL
 62
13
 10
2288.152
 20
-6602.151
 30
-2425.000
 70
    32
  0
VERTEX
  8
7700LEVEL
 62
13
 10
2289.584
 20
-6609.132
 30
-2425.000
 70
    32
  0
VERTEX
  8
7700LEVEL
 62
13
 10
2290.178
 20
-6612.120
 30
-2425.000
 70
    32
  0
VERTEX
  8
7700LEVEL
 62
13
 10
2293.963
 20
-6623.031
 30
-2425.000
 70
    32
  0
VERTEX
  8
7700LEVEL
 62
13
 10
2298.259
 20
-6635.558
 30
-2425.000
 70
    32
  0
VERTEX
  8
7700LEVEL
 62
13
 10
2300.089
 20
-6641.309
 30
-2425.000
 70
    32
  0
VERTEX
  8
7700LEVEL
 62
13
 10
2303.793
 20
-6650.596
 30
-2425.000
 70
    32
  0
VERTEX
  8
7700LEVEL
 62
13
 10
2308.909
 20
-6659.772
 30
-2425.000
 70
    32
  0
VERTEX
  8
7700LEVEL
 62
13
 10
2311.939
 20
-6666.130
 30
-2425.000
 70
    32
  0
VERTEX
  8
7700LEVEL
 62
13
 10
2313.893
 20
-6674.656
 30
-2425.000
 70
    32
  0
VERTEX
  8
7700LEVEL
 62
13
 10
2313.123
 20
-6677.908
 30
-2425.000
 70
    32
  0
VERTEX
  8
7700LEVEL
 62
13
 10
2309.234
 20
-6678.296
 30
-2425.000
 70
    32
  0
VERTEX
  8
7700LEVEL
 62
13
 10
2306.548
 20
-6678.541
 30
-2425.000
 70
    32
  0
VERTEX
  8
7700LEVEL
 62
13
 10
2302.396
 20
-6684.548
 30
-2425.000
 70
    32
  0
VERTEX
  8
7700LEVEL
 62
13
 10
2301.923
 20
-6692.069
 30
-2425.000
 70
    32
  0
VERTEX
  8
7700LEVEL
 62
13
 10
2301.948
 20
-6706.825
 30
-2425.000
 70
    32
  0
VERTEX
  8
7700LEVEL
 62
13
 10
2303.758
 20
-6719.698
 30
-2425.000
 70
    32
  0
VERTEX
  8
7700LEVEL
 62
13
 10
2308.382
 20
-6729.302
 30
-2425.000
 70
    32
  0
VERTEX
  8
7700LEVEL
 62
13
 10
2314.650
 20
-6743.733
 30
-2425.000
 70
    32
  0
VERTEX
  8
7700LEVEL
 62
13
 10
2319.515
 20
-6753.158
 30
-2425.000
 70
    32
  0
VERTEX
  8
7700LEVEL
 62
13
 10
2324.973
 20
-6763.888
 30
-2425.000
 70
    32
  0
VERTEX
  8
7700LEVEL
 62
13
 10
2328.310
 20
-6770.829
 30
-2425.000
 70
    32
  0
VERTEX
  8
7700LEVEL
 62
13
 10
2331.092
 20
-6780.051
 30
-2425.000
 70
    32
  0
VERTEX
  8
7700LEVEL
 62
13
 10
2331.859
 20
-6794.882
 30
-2425.000
 70
    32
  0
VERTEX
  8
7700LEVEL
 62
13
 10
2332.203
 20
-6802.918
 30
-2425.000
 70
    32
  0
VERTEX
  8
7700LEVEL
 62
13
 10
2331.126
 20
-6810.886
 30
-2425.000
 70
    32
  0
VERTEX
  8
7700LEVEL
 62
13
 10
2327.740
 20
-6814.393
 30
-2425.000
 70
    32
  0
VERTEX
  8
7700LEVEL
 62
13
 10
2324.800
 20
-6815.137
 30
-2425.000
 70
    32
  0
VERTEX
  8
7700LEVEL
 62
13
 10
2321.355
 20
-6813.264
 30
-2425.000
 70
    32
  0
VERTEX
  8
7700LEVEL
 62
13
 10
2317.114
 20
-6808.552
 30
-2425.000
 70
    32
  0
VERTEX
  8
7700LEVEL
 62
13
 10
2309.154
 20
-6799.240
 30
-2425.000
 70
    32
  0
VERTEX
  8
7700LEVEL
 62
13
 10
2304.174
 20
-6790.586
 30
-2425.000
 70
    32
  0
VERTEX
  8
7700LEVEL
 62
13
 10
2301.678
 20
-6780.404
 30
-2425.000
 70
    32
  0
VERTEX
  8
7700LEVEL
 62
13
 10
2300.528
 20
-6769.598
 30
-2425.000
 70
    32
  0
VERTEX
  8
7700LEVEL
 62
13
 10
2299.724
 20
-6762.962
 30
-2425.000
 70
    32
  0
VERTEX
  8
7700LEVEL
 62
13
 10
2297.323
 20
-6757.198
 30
-2425.000
 70
    32
  0
VERTEX
  8
7700LEVEL
 62
13
 10
2295.820
 20
-6755.506
 30
-2425.000
 70
    32
  0
VERTEX
  8
7700LEVEL
 62
13
 10
2294.075
 20
-6757.610
 30
-2425.000
 70
    32
  0
VERTEX
  8
7700LEVEL
 62
13
 10
2293.946
 20
-6764.251
 30
-2425.000
 70
    32
  0
VERTEX
  8
7700LEVEL
 62
13
 10
2292.799
 20
-6773.892
 30
-2425.000
 70
    32
  0
VERTEX
  8
7700LEVEL
 62
13
 10
2293.157
 20
-6786.656
 30
-2425.000
 70
    32
  0
VERTEX
  8
7700LEVEL
 62
13
 10
2295.387
 20
-6794.293
 30
-2425.000
 70
    32
  0
VERTEX
  8
7700LEVEL
 62
13
 10
2296.216
 20
-6807.020
 30
-2425.000
 70
    32
  0
VERTEX
  8
7700LEVEL
 62
13
 10
2293.763
 20
-6822.553
 30
-2425.000
 70
    32
  0
VERTEX
  8
7700LEVEL
 62
13
 10
2292.664
 20
-6830.912
 30
-2425.000
 70
    32
  0
VERTEX
  8
7700LEVEL
 62
13
 10
2292.554
 20
-6839.597
 30
-2425.000
 70
    32
  0
VERTEX
  8
7700LEVEL
 62
13
 10
2294.508
 20
-6848.123
 30
-2425.000
 70
    32
  0
VERTEX
  8
7700LEVEL
 62
13
 10
2297.700
 20
-6861.094
 30
-2425.000
 70
    32
  0
VERTEX
  8
7700LEVEL
 62
13
 10
2298.574
 20
-6871.107
 30
-2425.000
 70
    32
  0
VERTEX
  8
7700LEVEL
 62
13
 10
2297.996
 20
-6877.645
 30
-2425.000
 70
    32
  0
VERTEX
  8
7700LEVEL
 62
13
 10
2294.589
 20
-6879.609
 30
-2425.000
 70
    32
  0
VERTEX
  8
7700LEVEL
 62
13
 10
2291.600
 20
-6878.520
 30
-2425.000
 70
    32
  0
VERTEX
  8
7700LEVEL
 62
13
 10
2288.216
 20
-6878.160
 30
-2425.000
 70
    32
  0
VERTEX
  8
7700LEVEL
 62
13
 10
2285.861
 20
-6878.347
 30
-2425.000
 70
    32
  0
VERTEX
  8
7700LEVEL
 62
13
 10
2281.566
 20
-6877.852
 30
-2425.000
 70
    32
  0
VERTEX
  8
7700LEVEL
 62
13
 10
2277.791
 20
-6875.786
 30
-2425.000
 70
    32
  0
VERTEX
  8
7700LEVEL
 62
13
 10
2271.466
 20
-6871.122
 30
-2425.000
 70
    32
  0
VERTEX
  8
7700LEVEL
 62
13
 10
2268.215
 20
-6865.053
 30
-2425.000
 70
    32
  0
VERTEX
  8
7700LEVEL
 62
13
 10
2265.368
 20
-6860.118
 30
-2425.000
 70
    32
  0
VERTEX
  8
7700LEVEL
 62
13
 10
2262.528
 20
-6857.547
 30
-2425.000
 70
    32
  0
VERTEX
  8
7700LEVEL
 62
13
 10
2261.460
 20
-6858.713
 30
-2425.000
 70
    32
  0
VERTEX
  8
7700LEVEL
 62
13
 10
2262.355
 20
-6864.969
 30
-2425.000
 70
    32
  0
VERTEX
  8
7700LEVEL
 62
13
 10
2265.303
 20
-6871.638
 30
-2425.000
 70
    32
  0
VERTEX
  8
7700LEVEL
 62
13
 10
2266.801
 20
-6879.380
 30
-2425.000
 70
    32
  0
VERTEX
  8
7700LEVEL
 62
13
 10
2266.996
 20
-6889.148
 30
-2425.000
 70
    32
  0
VERTEX
  8
7700LEVEL
 62
13
 10
2267.322
 20
-6895.141
 30
-2425.000
 70
    32
  0
VERTEX
  8
7700LEVEL
 62
13
 10
2267.768
 20
-6902.977
 30
-2425.000
 70
    32
  0
VERTEX
  8
7700LEVEL
 62
13
 10
2266.558
 20
-6909.672
 30
-2425.000
 70
    32
  0
VERTEX
  8
7700LEVEL
 62
13
 10
2263.144
 20
-6910.955
 30
-2425.000
 70
    32
  0
VERTEX
  8
7700LEVEL
 62
13
 10
2259.972
 20
-6910.376
 30
-2425.000
 70
    32
  0
VERTEX
  8
7700LEVEL
 62
13
 10
2254.159
 20
-6909.010
 30
-2425.000
 70
    32
  0
VERTEX
  8
7700LEVEL
 62
13
 10
2249.745
 20
-6908.354
 30
-2425.000
 70
    32
  0
VERTEX
  8
7700LEVEL
 62
13
 10
2248.080
 20
-6908.715
 30
-2425.000
 70
    32
  0
VERTEX
  8
7700LEVEL
 62
13
 10
2247.443
 20
-6909.873
 30
-2425.000
 70
    32
  0
VERTEX
  8
7700LEVEL
 62
13
 10
2247.122
 20
-6911.545
 30
-2425.000
 70
    32
  0
VERTEX
  8
7700LEVEL
 62
13
 10
2245.547
 20
-6912.026
 30
-2425.000
 70
    32
  0
VERTEX
  8
7700LEVEL
 62
13
 10
2244.259
 20
-6911.298
 30
-2425.000
 70
    32
  0
VERTEX
  8
7700LEVEL
 62
13
 10
2243.570
 20
-6910.873
 30
-2425.000
 70
    32
  0
VERTEX
  8
7700LEVEL
 62
13
 10
2243.172
 20
-6910.420
 30
-2425.000
 70
    32
  0
SEQEND
  8
7700LEVEL
  0
POLYLINE
  8
7700LEVEL
 62
13
 66
     1
 70
     9
  0
VERTEX
  8
7700LEVEL
 62
13
 10
1608.222
 20
-5611.926
 30
-2425.000
 70
    32
  0
VERTEX
  8
7700LEVEL
 62
13
 10
1609.865
 20
-5617.255
 30
-2425.000
 70
    32
  0
VERTEX
  8
7700LEVEL
 62
13
 10
1611.576
 20
-5624.528
 30
-2425.000
 70
    32
  0
VERTEX
  8
7700LEVEL
 62
13
 10
1615.381
 20
-5631.932
 30
-2425.000
 70
    32
  0
VERTEX
  8
7700LEVEL
 62
13
 10
1619.064
 20
-5641.360
 30
-2425.000
 70
    32
  0
VERTEX
  8
7700LEVEL
 62
13
 10
1621.444
 20
-5647.264
 30
-2425.000
 70
    32
  0
VERTEX
  8
7700LEVEL
 62
13
 10
1622.523
 20
-5653.010
 30
-2425.000
 70
    32
  0
VERTEX
  8
7700LEVEL
 62
13
 10
1623.013
 20
-5656.700
 30
-2425.000
 70
    32
  0
VERTEX
  8
7700LEVEL
 62
13
 10
1621.006
 20
-5655.506
 30
-2425.000
 70
    32
  0
VERTEX
  8
7700LEVEL
 62
13
 10
1617.964
 20
-5649.719
 30
-2425.000
 70
    32
  0
VERTEX
  8
7700LEVEL
 62
13
 10
1610.185
 20
-5634.848
 30
-2425.000
 70
    32
  0
VERTEX
  8
7700LEVEL
 62
13
 10
1605.133
 20
-5623.068
 30
-2425.000
 70
    32
  0
VERTEX
  8
7700LEVEL
 62
13
 10
1601.543
 20
-5614.943
 30
-2425.000
 70
    32
  0
VERTEX
  8
7700LEVEL
 62
13
 10
1597.880
 20
-5603.943
 30
-2425.000
 70
    32
  0
VERTEX
  8
7700LEVEL
 62
13
 10
1594.934
 20
-5595.341
 30
-2425.000
 70
    32
  0
VERTEX
  8
7700LEVEL
 62
13
 10
1592.028
 20
-5586.709
 30
-2425.000
 70
    32
  0
VERTEX
  8
7700LEVEL
 62
13
 10
1591.708
 20
-5583.081
 30
-2425.000
 70
    32
  0
VERTEX
  8
7700LEVEL
 62
13
 10
1592.298
 20
-5581.521
 30
-2425.000
 70
    32
  0
VERTEX
  8
7700LEVEL
 62
13
 10
1594.502
 20
-5583.317
 30
-2425.000
 70
    32
  0
VERTEX
  8
7700LEVEL
 62
13
 10
1597.154
 20
-5587.149
 30
-2425.000
 70
    32
  0
VERTEX
  8
7700LEVEL
 62
13
 10
1599.904
 20
-5591.532
 30
-2425.000
 70
    32
  0
VERTEX
  8
7700LEVEL
 62
13
 10
1602.450
 20
-5598.249
 30
-2425.000
 70
    32
  0
VERTEX
  8
7700LEVEL
 62
13
 10
1604.961
 20
-5604.244
 30
-2425.000
 70
    32
  0
VERTEX
  8
7700LEVEL
 62
13
 10
1606.078
 20
-5606.845
 30
-2425.000
 70
    32
  0
SEQEND
  8
7700LEVEL
  0
POLYLINE
  8
7700LEVEL
 62
13
 66
     1
 70
     9
  0
VERTEX
  8
7700LEVEL
 62
13
 10
1685.763
 20
-5798.659
 30
-2425.000
 70
    32
  0
VERTEX
  8
7700LEVEL
 62
13
 10
1685.424
 20
-5814.185
 30
-2425.000
 70
    32
  0
VERTEX
  8
7700LEVEL
 62
13
 10
1685.199
 20
-5825.574
 30
-2425.000
 70
    32
  0
VERTEX
  8
7700LEVEL
 62
13
 10
1684.390
 20
-5839.203
 30
-2425.000
 70
    32
  0
VERTEX
  8
7700LEVEL
 62
13
 10
1684.553
 20
-5849.182
 30
-2425.000
 70
    32
  0
VERTEX
  8
7700LEVEL
 62
13
 10
1686.233
 20
-5858.348
 30
-2425.000
 70
    32
  0
VERTEX
  8
7700LEVEL
 62
13
 10
1690.705
 20
-5868.251
 30
-2425.000
 70
    32
  0
VERTEX
  8
7700LEVEL
 62
13
 10
1697.710
 20
-5881.825
 30
-2425.000
 70
    32
  0
VERTEX
  8
7700LEVEL
 62
13
 10
1703.629
 20
-5892.588
 30
-2425.000
 70
    32
  0
VERTEX
  8
7700LEVEL
 62
13
 10
1708.131
 20
-5898.915
 30
-2425.000
 70
    32
  0
VERTEX
  8
7700LEVEL
 62
13
 10
1713.756
 20
-5908.524
 30
-2425.000
 70
    32
  0
VERTEX
  8
7700LEVEL
 62
13
 10
1716.503
 20
-5913.408
 30
-2425.000
 70
    32
  0
VERTEX
  8
7700LEVEL
 62
13
 10
1719.024
 20
-5917.399
 30
-2425.000
 70
    32
  0
VERTEX
  8
7700LEVEL
 62
13
 10
1720.080
 20
-5918.487
 30
-2425.000
 70
    32
  0
VERTEX
  8
7700LEVEL
 62
13
 10
1721.043
 20
-5916.590
 30
-2425.000
 70
    32
  0
VERTEX
  8
7700LEVEL
 62
13
 10
1719.768
 20
-5908.308
 30
-2425.000
 70
    32
  0
VERTEX
  8
7700LEVEL
 62
13
 10
1717.211
 20
-5901.661
 30
-2425.000
 70
    32
  0
VERTEX
  8
7700LEVEL
 62
13
 10
1710.205
 20
-5888.338
 30
-2425.000
 70
    32
  0
VERTEX
  8
7700LEVEL
 62
13
 10
1704.990
 20
-5880.544
 30
-2425.000
 70
    32
  0
VERTEX
  8
7700LEVEL
 62
13
 10
1701.797
 20
-5874.806
 30
-2425.000
 70
    32
  0
VERTEX
  8
7700LEVEL
 62
13
 10
1701.087
 20
-5872.838
 30
-2425.000
 70
    32
  0
VERTEX
  8
7700LEVEL
 62
13
 10
1701.191
 20
-5870.455
 30
-2425.000
 70
    32
  0
VERTEX
  8
7700LEVEL
 62
13
 10
1703.823
 20
-5870.810
 30
-2425.000
 70
    32
  0
VERTEX
  8
7700LEVEL
 62
13
 10
1710.923
 20
-5876.521
 30
-2425.000
 70
    32
  0
VERTEX
  8
7700LEVEL
 62
13
 10
1716.473
 20
-5883.505
 30
-2425.000
 70
    32
  0
VERTEX
  8
7700LEVEL
 62
13
 10
1722.920
 20
-5893.129
 30
-2425.000
 70
    32
  0
VERTEX
  8
7700LEVEL
 62
13
 10
1728.012
 20
-5899.579
 30
-2425.000
 70
    32
  0
VERTEX
  8
7700LEVEL
 62
13
 10
1731.543
 20
-5912.673
 30
-2425.000
 70
    32
  0
VERTEX
  8
7700LEVEL
 62
13
 10
1732.167
 20
-5919.318
 30
-2425.000
 70
    32
  0
VERTEX
  8
7700LEVEL
 62
13
 10
1730.190
 20
-5930.446
 30
-2425.000
 70
    32
  0
VERTEX
  8
7700LEVEL
 62
13
 10
1726.109
 20
-5939.830
 30
-2425.000
 70
    32
  0
VERTEX
  8
7700LEVEL
 62
13
 10
1724.519
 20
-5944.499
 30
-2425.000
 70
    32
  0
VERTEX
  8
7700LEVEL
 62
13
 10
1721.232
 20
-5948.307
 30
-2425.000
 70
    32
  0
VERTEX
  8
7700LEVEL
 62
13
 10
1719.636
 20
-5946.995
 30
-2425.000
 70
    32
  0
VERTEX
  8
7700LEVEL
 62
13
 10
1716.275
 20
-5940.945
 30
-2425.000
 70
    32
  0
VERTEX
  8
7700LEVEL
 62
13
 10
1714.378
 20
-5936.366
 30
-2425.000
 70
    32
  0
VERTEX
  8
7700LEVEL
 62
13
 10
1711.328
 20
-5930.148
 30
-2425.000
 70
    32
  0
VERTEX
  8
7700LEVEL
 62
13
 10
1708.202
 20
-5930.220
 30
-2425.000
 70
    32
  0
VERTEX
  8
7700LEVEL
 62
13
 10
1705.124
 20
-5935.993
 30
-2425.000
 70
    32
  0
VERTEX
  8
7700LEVEL
 62
13
 10
1702.454
 20
-5943.832
 30
-2425.000
 70
    32
  0
VERTEX
  8
7700LEVEL
 62
13
 10
1699.111
 20
-5950.424
 30
-2425.000
 70
    32
  0
VERTEX
  8
7700LEVEL
 62
13
 10
1698.049
 20
-5955.637
 30
-2425.000
 70
    32
  0
VERTEX
  8
7700LEVEL
 62
13
 10
1696.062
 20
-5963.219
 30
-2425.000
 70
    32
  0
VERTEX
  8
7700LEVEL
 62
13
 10
1693.289
 20
-5966.459
 30
-2425.000
 70
    32
  0
VERTEX
  8
7700LEVEL
 62
13
 10
1691.049
 20
-5965.625
 30
-2425.000
 70
    32
  0
VERTEX
  8
7700LEVEL
 62
13
 10
1683.681
 20
-5957.869
 30
-2425.000
 70
    32
  0
VERTEX
  8
7700LEVEL
 62
13
 10
1674.234
 20
-5943.861
 30
-2425.000
 70
    32
  0
VERTEX
  8
7700LEVEL
 62
13
 10
1667.784
 20
-5933.055
 30
-2425.000
 70
    32
  0
VERTEX
  8
7700LEVEL
 62
13
 10
1664.314
 20
-5921.474
 30
-2425.000
 70
    32
  0
VERTEX
  8
7700LEVEL
 62
13
 10
1658.951
 20
-5904.564
 30
-2425.000
 70
    32
  0
VERTEX
  8
7700LEVEL
 62
13
 10
1653.275
 20
-5886.389
 30
-2425.000
 70
    32
  0
VERTEX
  8
7700LEVEL
 62
13
 10
1649.993
 20
-5875.231
 30
-2425.000
 70
    32
  0
VERTEX
  8
7700LEVEL
 62
13
 10
1648.170
 20
-5862.928
 30
-2425.000
 70
    32
  0
VERTEX
  8
7700LEVEL
 62
13
 10
1648.227
 20
-5858.210
 30
-2425.000
 70
    32
  0
VERTEX
  8
7700LEVEL
 62
13
 10
1648.656
 20
-5855.087
 30
-2425.000
 70
    32
  0
VERTEX
  8
7700LEVEL
 62
13
 10
1649.979
 20
-5853.171
 30
-2425.000
 70
    32
  0
VERTEX
  8
7700LEVEL
 62
13
 10
1652.263
 20
-5856.591
 30
-2425.000
 70
    32
  0
VERTEX
  8
7700LEVEL
 62
13
 10
1653.516
 20
-5865.263
 30
-2425.000
 70
    32
  0
VERTEX
  8
7700LEVEL
 62
13
 10
1655.246
 20
-5872.896
 30
-2425.000
 70
    32
  0
VERTEX
  8
7700LEVEL
 62
13
 10
1659.899
 20
-5884.223
 30
-2425.000
 70
    32
  0
VERTEX
  8
7700LEVEL
 62
13
 10
1666.781
 20
-5894.771
 30
-2425.000
 70
    32
  0
VERTEX
  8
7700LEVEL
 62
13
 10
1670.075
 20
-5900.310
 30
-2425.000
 70
    32
  0
VERTEX
  8
7700LEVEL
 62
13
 10
1673.402
 20
-5905.388
 30
-2425.000
 70
    32
  0
VERTEX
  8
7700LEVEL
 62
13
 10
1675.736
 20
-5908.957
 30
-2425.000
 70
    32
  0
VERTEX
  8
7700LEVEL
 62
13
 10
1677.367
 20
-5910.990
 30
-2425.000
 70
    32
  0
VERTEX
  8
7700LEVEL
 62
13
 10
1679.136
 20
-5909.928
 30
-2425.000
 70
    32
  0
VERTEX
  8
7700LEVEL
 62
13
 10
1679.670
 20
-5904.171
 30
-2425.000
 70
    32
  0
VERTEX
  8
7700LEVEL
 62
13
 10
1681.281
 20
-5894.063
 30
-2425.000
 70
    32
  0
VERTEX
  8
7700LEVEL
 62
13
 10
1681.862
 20
-5887.023
 30
-2425.000
 70
    32
  0
VERTEX
  8
7700LEVEL
 62
13
 10
1682.686
 20
-5879.555
 30
-2425.000
 70
    32
  0
VERTEX
  8
7700LEVEL
 62
13
 10
1682.324
 20
-5869.225
 30
-2425.000
 70
    32
  0
VERTEX
  8
7700LEVEL
 62
13
 10
1679.676
 20
-5857.659
 30
-2425.000
 70
    32
  0
VERTEX
  8
7700LEVEL
 62
13
 10
1679.490
 20
-5851.687
 30
-2425.000
 70
    32
  0
VERTEX
  8
7700LEVEL
 62
13
 10
1678.155
 20
-5838.026
 30
-2425.000
 70
    32
  0
VERTEX
  8
7700LEVEL
 62
13
 10
1677.469
 20
-5830.118
 30
-2425.000
 70
    32
  0
VERTEX
  8
7700LEVEL
 62
13
 10
1675.235
 20
-5817.933
 30
-2425.000
 70
    32
  0
VERTEX
  8
7700LEVEL
 62
13
 10
1672.930
 20
-5809.355
 30
-2425.000
 70
    32
  0
VERTEX
  8
7700LEVEL
 62
13
 10
1665.756
 20
-5793.786
 30
-2425.000
 70
    32
  0
VERTEX
  8
7700LEVEL
 62
13
 10
1656.695
 20
-5778.868
 30
-2425.000
 70
    32
  0
VERTEX
  8
7700LEVEL
 62
13
 10
1649.378
 20
-5767.396
 30
-2425.000
 70
    32
  0
VERTEX
  8
7700LEVEL
 62
13
 10
1644.928
 20
-5757.103
 30
-2425.000
 70
    32
  0
VERTEX
  8
7700LEVEL
 62
13
 10
1642.605
 20
-5744.798
 30
-2425.000
 70
    32
  0
VERTEX
  8
7700LEVEL
 62
13
 10
1641.538
 20
-5733.431
 30
-2425.000
 70
    32
  0
VERTEX
  8
7700LEVEL
 62
13
 10
1641.431
 20
-5729.333
 30
-2425.000
 70
    32
  0
VERTEX
  8
7700LEVEL
 62
13
 10
1641.244
 20
-5725.295
 30
-2425.000
 70
    32
  0
VERTEX
  8
7700LEVEL
 62
13
 10
1641.918
 20
-5722.925
 30
-2425.000
 70
    32
  0
VERTEX
  8
7700LEVEL
 62
13
 10
1643.026
 20
-5721.980
 30
-2425.000
 70
    32
  0
VERTEX
  8
7700LEVEL
 62
13
 10
1645.407
 20
-5724.267
 30
-2425.000
 70
    32
  0
VERTEX
  8
7700LEVEL
 62
13
 10
1652.068
 20
-5734.854
 30
-2425.000
 70
    32
  0
VERTEX
  8
7700LEVEL
 62
13
 10
1660.679
 20
-5749.669
 30
-2425.000
 70
    32
  0
VERTEX
  8
7700LEVEL
 62
13
 10
1666.137
 20
-5758.717
 30
-2425.000
 70
    32
  0
VERTEX
  8
7700LEVEL
 62
13
 10
1674.700
 20
-5774.814
 30
-2425.000
 70
    32
  0
VERTEX
  8
7700LEVEL
 62
13
 10
1678.807
 20
-5783.553
 30
-2425.000
 70
    32
  0
VERTEX
  8
7700LEVEL
 62
13
 10
1681.012
 20
-5788.715
 30
-2425.000
 70
    32
  0
VERTEX
  8
7700LEVEL
 62
13
 10
1682.736
 20
-5793.733
 30
-2425.000
 70
    32
  0
SEQEND
  8
7700LEVEL
  0
POLYLINE
  8
7700LEVEL
 62
13
 66
     1
 70
     9
  0
VERTEX
  8
7700LEVEL
 62
13
 10
1766.797
 20
-5991.283
 30
-2425.000
 70
    32
  0
VERTEX
  8
7700LEVEL
 62
13
 10
1769.969
 20
-6004.144
 30
-2425.000
 70
    32
  0
VERTEX
  8
7700LEVEL
 62
13
 10
1773.215
 20
-6014.581
 30
-2425.000
 70
    32
  0
VERTEX
  8
7700LEVEL
 62
13
 10
1778.092
 20
-6037.650
 30
-2425.000
 70
    32
  0
VERTEX
  8
7700LEVEL
 62
13
 10
1780.874
 20
-6055.788
 30
-2425.000
 70
    32
  0
VERTEX
  8
7700LEVEL
 62
13
 10
1783.384
 20
-6068.765
 30
-2425.000
 70
    32
  0
VERTEX
  8
7700LEVEL
 62
13
 10
1786.596
 20
-6081.596
 30
-2425.000
 70
    32
  0
VERTEX
  8
7700LEVEL
 62
13
 10
1789.945
 20
-6091.583
 30
-2425.000
 70
    32
  0
VERTEX
  8
7700LEVEL
 62
13
 10
1793.090
 20
-6100.536
 30
-2425.000
 70
    32
  0
VERTEX
  8
7700LEVEL
 62
13
 10
1795.081
 20
-6107.851
 30
-2425.000
 70
    32
  0
VERTEX
  8
7700LEVEL
 62
13
 10
1800.134
 20
-6122.996
 30
-2425.000
 70
    32
  0
VERTEX
  8
7700LEVEL
 62
13
 10
1803.598
 20
-6135.579
 30
-2425.000
 70
    32
  0
VERTEX
  8
7700LEVEL
 62
13
 10
1808.426
 20
-6153.197
 30
-2425.000
 70
    32
  0
VERTEX
  8
7700LEVEL
 62
13
 10
1812.309
 20
-6166.092
 30
-2425.000
 70
    32
  0
VERTEX
  8
7700LEVEL
 62
13
 10
1817.405
 20
-6186.007
 30
-2425.000
 70
    32
  0
VERTEX
  8
7700LEVEL
 62
13
 10
1820.864
 20
-6195.974
 30
-2425.000
 70
    32
  0
VERTEX
  8
7700LEVEL
 62
13
 10
1824.323
 20
-6211.241
 30
-2425.000
 70
    32
  0
VERTEX
  8
7700LEVEL
 62
13
 10
1827.664
 20
-6224.413
 30
-2425.000
 70
    32
  0
VERTEX
  8
7700LEVEL
 62
13
 10
1830.174
 20
-6242.690
 30
-2425.000
 70
    32
  0
VERTEX
  8
7700LEVEL
 62
13
 10
1834.108
 20
-6258.851
 30
-2425.000
 70
    32
  0
VERTEX
  8
7700LEVEL
 62
13
 10
1835.560
 20
-6269.558
 30
-2425.000
 70
    32
  0
VERTEX
  8
7700LEVEL
 62
13
 10
1836.595
 20
-6279.452
 30
-2425.000
 70
    32
  0
VERTEX
  8
7700LEVEL
 62
13
 10
1835.061
 20
-6283.270
 30
-2425.000
 70
    32
  0
VERTEX
  8
7700LEVEL
 62
13
 10
1832.703
 20
-6280.341
 30
-2425.000
 70
    32
  0
VERTEX
  8
7700LEVEL
 62
13
 10
1829.382
 20
-6272.578
 30
-2425.000
 70
    32
  0
VERTEX
  8
7700LEVEL
 62
13
 10
1825.867
 20
-6263.462
 30
-2425.000
 70
    32
  0
VERTEX
  8
7700LEVEL
 62
13
 10
1822.811
 20
-6256.562
 30
-2425.000
 70
    32
  0
VERTEX
  8
7700LEVEL
 62
13
 10
1820.988
 20
-6254.859
 30
-2425.000
 70
    32
  0
VERTEX
  8
7700LEVEL
 62
13
 10
1818.816
 20
-6261.518
 30
-2425.000
 70
    32
  0
VERTEX
  8
7700LEVEL
 62
13
 10
1820.414
 20
-6269.311
 30
-2425.000
 70
    32
  0
VERTEX
  8
7700LEVEL
 62
13
 10
1822.497
 20
-6276.496
 30
-2425.000
 70
    32
  0
VERTEX
  8
7700LEVEL
 62
13
 10
1823.003
 20
-6280.796
 30
-2425.000
 70
    32
  0
VERTEX
  8
7700LEVEL
 62
13
 10
1821.306
 20
-6281.618
 30
-2425.000
 70
    32
  0
VERTEX
  8
7700LEVEL
 62
13
 10
1815.714
 20
-6276.597
 30
-2425.000
 70
    32
  0
VERTEX
  8
7700LEVEL
 62
13
 10
1804.858
 20
-6263.883
 30
-2425.000
 70
    32
  0
VERTEX
  8
7700LEVEL
 62
13
 10
1790.821
 20
-6250.158
 30
-2425.000
 70
    32
  0
VERTEX
  8
7700LEVEL
 62
13
 10
1777.994
 20
-6236.972
 30
-2425.000
 70
    32
  0
VERTEX
  8
7700LEVEL
 62
13
 10
1770.428
 20
-6226.931
 30
-2425.000
 70
    32
  0
VERTEX
  8
7700LEVEL
 62
13
 10
1760.351
 20
-6203.913
 30
-2425.000
 70
    32
  0
VERTEX
  8
7700LEVEL
 62
13
 10
1750.196
 20
-6180.703
 30
-2425.000
 70
    32
  0
VERTEX
  8
7700LEVEL
 62
13
 10
1742.293
 20
-6159.441
 30
-2425.000
 70
    32
  0
VERTEX
  8
7700LEVEL
 62
13
 10
1735.232
 20
-6138.303
 30
-2425.000
 70
    32
  0
VERTEX
  8
7700LEVEL
 62
13
 10
1728.725
 20
-6119.933
 30
-2425.000
 70
    32
  0
VERTEX
  8
7700LEVEL
 62
13
 10
1724.483
 20
-6110.172
 30
-2425.000
 70
    32
  0
VERTEX
  8
7700LEVEL
 62
13
 10
1715.903
 20
-6090.097
 30
-2425.000
 70
    32
  0
VERTEX
  8
7700LEVEL
 62
13
 10
1703.197
 20
-6067.905
 30
-2425.000
 70
    32
  0
VERTEX
  8
7700LEVEL
 62
13
 10
1693.061
 20
-6050.106
 30
-2425.000
 70
    32
  0
VERTEX
  8
7700LEVEL
 62
13
 10
1688.703
 20
-6036.066
 30
-2425.000
 70
    32
  0
VERTEX
  8
7700LEVEL
 62
13
 10
1686.260
 20
-6016.618
 30
-2425.000
 70
    32
  0
VERTEX
  8
7700LEVEL
 62
13
 10
1686.107
 20
-6006.569
 30
-2425.000
 70
    32
  0
VERTEX
  8
7700LEVEL
 62
13
 10
1685.950
 20
-5998.955
 30
-2425.000
 70
    32
  0
VERTEX
  8
7700LEVEL
 62
13
 10
1686.341
 20
-5995.361
 30
-2425.000
 70
    32
  0
VERTEX
  8
7700LEVEL
 62
13
 10
1687.520
 20
-5992.492
 30
-2425.000
 70
    32
  0
VERTEX
  8
7700LEVEL
 62
13
 10
1688.428
 20
-5993.129
 30
-2425.000
 70
    32
  0
VERTEX
  8
7700LEVEL
 62
13
 10
1689.770
 20
-5996.623
 30
-2425.000
 70
    32
  0
VERTEX
  8
7700LEVEL
 62
13
 10
1691.430
 20
-5998.946
 30
-2425.000
 70
    32
  0
VERTEX
  8
7700LEVEL
 62
13
 10
1692.918
 20
-5999.776
 30
-2425.000
 70
    32
  0
VERTEX
  8
7700LEVEL
 62
13
 10
1694.044
 20
-5997.258
 30
-2425.000
 70
    32
  0
VERTEX
  8
7700LEVEL
 62
13
 10
1693.981
 20
-5994.313
 30
-2425.000
 70
    32
  0
VERTEX
  8
7700LEVEL
 62
13
 10
1694.052
 20
-5990.707
 30
-2425.000
 70
    32
  0
VERTEX
  8
7700LEVEL
 62
13
 10
1695.111
 20
-5989.360
 30
-2425.000
 70
    32
  0
VERTEX
  8
7700LEVEL
 62
13
 10
1697.884
 20
-5991.420
 30
-2425.000
 70
    32
  0
VERTEX
  8
7700LEVEL
 62
13
 10
1701.372
 20
-5996.378
 30
-2425.000
 70
    32
  0
VERTEX
  8
7700LEVEL
 62
13
 10
1705.697
 20
-6003.896
 30
-2425.000
 70
    32
  0
VERTEX
  8
7700LEVEL
 62
13
 10
1708.560
 20
-6007.760
 30
-2425.000
 70
    32
  0
VERTEX
  8
7700LEVEL
 62
13
 10
1710.939
 20
-6006.932
 30
-2425.000
 70
    32
  0
VERTEX
  8
7700LEVEL
 62
13
 10
1712.568
 20
-5991.884
 30
-2425.000
 70
    32
  0
VERTEX
  8
7700LEVEL
 62
13
 10
1713.525
 20
-5982.072
 30
-2425.000
 70
    32
  0
VERTEX
  8
7700LEVEL
 62
13
 10
1714.717
 20
-5976.950
 30
-2425.000
 70
    32
  0
VERTEX
  8
7700LEVEL
 62
13
 10
1716.384
 20
-5972.722
 30
-2425.000
 70
    32
  0
VERTEX
  8
7700LEVEL
 62
13
 10
1718.836
 20
-5971.404
 30
-2425.000
 70
    32
  0
VERTEX
  8
7700LEVEL
 62
13
 10
1721.517
 20
-5975.527
 30
-2425.000
 70
    32
  0
VERTEX
  8
7700LEVEL
 62
13
 10
1723.418
 20
-5982.971
 30
-2425.000
 70
    32
  0
VERTEX
  8
7700LEVEL
 62
13
 10
1724.901
 20
-5989.851
 30
-2425.000
 70
    32
  0
VERTEX
  8
7700LEVEL
 62
13
 10
1726.367
 20
-5994.438
 30
-2425.000
 70
    32
  0
VERTEX
  8
7700LEVEL
 62
13
 10
1730.599
 20
-5990.305
 30
-2425.000
 70
    32
  0
VERTEX
  8
7700LEVEL
 62
13
 10
1732.394
 20
-5979.436
 30
-2425.000
 70
    32
  0
VERTEX
  8
7700LEVEL
 62
13
 10
1733.576
 20
-5974.133
 30
-2425.000
 70
    32
  0
VERTEX
  8
7700LEVEL
 62
13
 10
1735.590
 20
-5965.409
 30
-2425.000
 70
    32
  0
VERTEX
  8
7700LEVEL
 62
13
 10
1737.586
 20
-5959.690
 30
-2425.000
 70
    32
  0
VERTEX
  8
7700LEVEL
 62
13
 10
1739.817
 20
-5956.728
 30
-2425.000
 70
    32
  0
VERTEX
  8
7700LEVEL
 62
13
 10
1740.994
 20
-5957.476
 30
-2425.000
 70
    32
  0
VERTEX
  8
7700LEVEL
 62
13
 10
1742.718
 20
-5966.111
 30
-2425.000
 70
    32
  0
VERTEX
  8
7700LEVEL
 62
13
 10
1745.384
 20
-5974.671
 30
-2425.000
 70
    32
  0
VERTEX
  8
7700LEVEL
 62
13
 10
1749.434
 20
-5988.128
 30
-2425.000
 70
    32
  0
VERTEX
  8
7700LEVEL
 62
13
 10
1753.107
 20
-5997.626
 30
-2425.000
 70
    32
  0
VERTEX
  8
7700LEVEL
 62
13
 10
1757.199
 20
-6010.803
 30
-2425.000
 70
    32
  0
VERTEX
  8
7700LEVEL
 62
13
 10
1758.838
 20
-6021.932
 30
-2425.000
 70
    32
  0
VERTEX
  8
7700LEVEL
 62
13
 10
1758.219
 20
-6035.482
 30
-2425.000
 70
    32
  0
VERTEX
  8
7700LEVEL
 62
13
 10
1756.644
 20
-6044.629
 30
-2425.000
 70
    32
  0
VERTEX
  8
7700LEVEL
 62
13
 10
1753.121
 20
-6059.896
 30
-2425.000
 70
    32
  0
VERTEX
  8
7700LEVEL
 62
13
 10
1751.276
 20
-6072.548
 30
-2425.000
 70
    32
  0
VERTEX
  8
7700LEVEL
 62
13
 10
1749.406
 20
-6091.140
 30
-2425.000
 70
    32
  0
VERTEX
  8
7700LEVEL
 62
13
 10
1747.490
 20
-6109.081
 30
-2425.000
 70
    32
  0
VERTEX
  8
7700LEVEL
 62
13
 10
1747.628
 20
-6119.951
 30
-2425.000
 70
    32
  0
VERTEX
  8
7700LEVEL
 62
13
 10
1747.900
 20
-6133.777
 30
-2425.000
 70
    32
  0
VERTEX
  8
7700LEVEL
 62
13
 10
1749.364
 20
-6140.548
 30
-2425.000
 70
    32
  0
VERTEX
  8
7700LEVEL
 62
13
 10
1751.391
 20
-6145.217
 30
-2425.000
 70
    32
  0
VERTEX
  8
7700LEVEL
 62
13
 10
1752.877
 20
-6146.298
 30
-2425.000
 70
    32
  0
VERTEX
  8
7700LEVEL
 62
13
 10
1753.992
 20
-6145.783
 30
-2425.000
 70
    32
  0
VERTEX
  8
7700LEVEL
 62
13
 10
1753.965
 20
-6138.260
 30
-2425.000
 70
    32
  0
VERTEX
  8
7700LEVEL
 62
13
 10
1752.975
 20
-6129.268
 30
-2425.000
 70
    32
  0
VERTEX
  8
7700LEVEL
 62
13
 10
1753.347
 20
-6116.648
 30
-2425.000
 70
    32
  0
VERTEX
  8
7700LEVEL
 62
13
 10
1754.708
 20
-6108.221
 30
-2425.000
 70
    32
  0
VERTEX
  8
7700LEVEL
 62
13
 10
1756.640
 20
-6101.490
 30
-2425.000
 70
    32
  0
VERTEX
  8
7700LEVEL
 62
13
 10
1758.637
 20
-6099.137
 30
-2425.000
 70
    32
  0
VERTEX
  8
7700LEVEL
 62
13
 10
1759.486
 20
-6099.443
 30
-2425.000
 70
    32
  0
VERTEX
  8
7700LEVEL
 62
13
 10
1762.210
 20
-6106.651
 30
-2425.000
 70
    32
  0
VERTEX
  8
7700LEVEL
 62
13
 10
1763.967
 20
-6116.508
 30
-2425.000
 70
    32
  0
VERTEX
  8
7700LEVEL
 62
13
 10
1764.966
 20
-6123.997
 30
-2425.000
 70
    32
  0
VERTEX
  8
7700LEVEL
 62
13
 10
1766.207
 20
-6132.990
 30
-2425.000
 70
    32
  0
VERTEX
  8
7700LEVEL
 62
13
 10
1768.011
 20
-6139.883
 30
-2425.000
 70
    32
  0
VERTEX
  8
7700LEVEL
 62
13
 10
1770.861
 20
-6146.000
 30
-2425.000
 70
    32
  0
VERTEX
  8
7700LEVEL
 62
13
 10
1773.659
 20
-6148.851
 30
-2425.000
 70
    32
  0
VERTEX
  8
7700LEVEL
 62
13
 10
1774.779
 20
-6149.268
 30
-2425.000
 70
    32
  0
VERTEX
  8
7700LEVEL
 62
13
 10
1776.625
 20
-6146.965
 30
-2425.000
 70
    32
  0
VERTEX
  8
7700LEVEL
 62
13
 10
1777.238
 20
-6138.032
 30
-2425.000
 70
    32
  0
VERTEX
  8
7700LEVEL
 62
13
 10
1776.371
 20
-6124.834
 30
-2425.000
 70
    32
  0
VERTEX
  8
7700LEVEL
 62
13
 10
1774.341
 20
-6106.700
 30
-2425.000
 70
    32
  0
VERTEX
  8
7700LEVEL
 62
13
 10
1772.247
 20
-6089.237
 30
-2425.000
 70
    32
  0
VERTEX
  8
7700LEVEL
 62
13
 10
1771.654
 20
-6082.632
 30
-2425.000
 70
    32
  0
VERTEX
  8
7700LEVEL
 62
13
 10
1771.439
 20
-6069.388
 30
-2425.000
 70
    32
  0
VERTEX
  8
7700LEVEL
 62
13
 10
1771.347
 20
-6052.187
 30
-2425.000
 70
    32
  0
VERTEX
  8
7700LEVEL
 62
13
 10
1769.669
 20
-6033.855
 30
-2425.000
 70
    32
  0
VERTEX
  8
7700LEVEL
 62
13
 10
1766.833
 20
-6018.251
 30
-2425.000
 70
    32
  0
VERTEX
  8
7700LEVEL
 62
13
 10
1764.659
 20
-6007.830
 30
-2425.000
 70
    32
  0
VERTEX
  8
7700LEVEL
 62
13
 10
1762.148
 20
-5998.469
 30
-2425.000
 70
    32
  0
VERTEX
  8
7700LEVEL
 62
13
 10
1760.259
 20
-5990.705
 30
-2425.000
 70
    32
  0
VERTEX
  8
7700LEVEL
 62
13
 10
1759.546
 20
-5982.256
 30
-2425.000
 70
    32
  0
VERTEX
  8
7700LEVEL
 62
13
 10
1759.657
 20
-5978.620
 30
-2425.000
 70
    32
  0
VERTEX
  8
7700LEVEL
 62
13
 10
1760.026
 20
-5975.416
 30
-2425.000
 70
    32
  0
VERTEX
  8
7700LEVEL
 62
13
 10
1761.023
 20
-5974.490
 30
-2425.000
 70
    32
  0
VERTEX
  8
7700LEVEL
 62
13
 10
1762.362
 20
-5976.802
 30
-2425.000
 70
    32
  0
VERTEX
  8
7700LEVEL
 62
13
 10
1763.681
 20
-5980.937
 30
-2425.000
 70
    32
  0
VERTEX
  8
7700LEVEL
 62
13
 10
1764.230
 20
-5983.024
 30
-2425.000
 70
    32
  0
VERTEX
  8
7700LEVEL
 62
13
 10
1765.004
 20
-5987.686
 30
-2425.000
 70
    32
  0
SEQEND
  8
7700LEVEL
  0
POLYLINE
  8
7700LEVEL
 62
13
 66
     1
 70
     9
  0
VERTEX
  8
7700LEVEL
 62
13
 10
1727.958
 20
-6140.265
 30
-2425.000
 70
    32
  0
VERTEX
  8
7700LEVEL
 62
13
 10
1728.782
 20
-6148.444
 30
-2425.000
 70
    32
  0
VERTEX
  8
7700LEVEL
 62
13
 10
1731.113
 20
-6159.497
 30
-2425.000
 70
    32
  0
VERTEX
  8
7700LEVEL
 62
13
 10
1734.752
 20
-6171.389
 30
-2425.000
 70
    32
  0
VERTEX
  8
7700LEVEL
 62
13
 10
1736.966
 20
-6178.414
 30
-2425.000
 70
    32
  0
VERTEX
  8
7700LEVEL
 62
13
 10
1738.025
 20
-6182.367
 30
-2425.000
 70
    32
  0
VERTEX
  8
7700LEVEL
 62
13
 10
1738.373
 20
-6186.286
 30
-2425.000
 70
    32
  0
VERTEX
  8
7700LEVEL
 62
13
 10
1738.144
 20
-6189.510
 30
-2425.000
 70
    32
  0
VERTEX
  8
7700LEVEL
 62
13
 10
1736.185
 20
-6188.718
 30
-2425.000
 70
    32
  0
VERTEX
  8
7700LEVEL
 62
13
 10
1733.685
 20
-6184.586
 30
-2425.000
 70
    32
  0
VERTEX
  8
7700LEVEL
 62
13
 10
1729.471
 20
-6173.432
 30
-2425.000
 70
    32
  0
VERTEX
  8
7700LEVEL
 62
13
 10
1724.908
 20
-6156.677
 30
-2425.000
 70
    32
  0
VERTEX
  8
7700LEVEL
 62
13
 10
1721.450
 20
-6143.093
 30
-2425.000
 70
    32
  0
VERTEX
  8
7700LEVEL
 62
13
 10
1719.787
 20
-6134.288
 30
-2425.000
 70
    32
  0
VERTEX
  8
7700LEVEL
 62
13
 10
1717.898
 20
-6126.523
 30
-2425.000
 70
    32
  0
VERTEX
  8
7700LEVEL
 62
13
 10
1716.259
 20
-6122.376
 30
-2425.000
 70
    32
  0
VERTEX
  8
7700LEVEL
 62
13
 10
1716.294
 20
-6119.732
 30
-2425.000
 70
    32
  0
VERTEX
  8
7700LEVEL
 62
13
 10
1717.616
 20
-6118.067
 30
-2425.000
 70
    32
  0
VERTEX
  8
7700LEVEL
 62
13
 10
1719.736
 20
-6120.423
 30
-2425.000
 70
    32
  0
VERTEX
  8
7700LEVEL
 62
13
 10
1722.093
 20
-6125.285
 30
-2425.000
 70
    32
  0
VERTEX
  8
7700LEVEL
 62
13
 10
1724.672
 20
-6131.541
 30
-2425.000
 70
    32
  0
VERTEX
  8
7700LEVEL
 62
13
 10
1726.126
 20
-6134.765
 30
-2425.000
 70
    32
  0
SEQEND
  8
7700LEVEL
  0
POLYLINE
  8
7700LEVEL
 62
13
 66
     1
 70
     9
  0
VERTEX
  8
7700LEVEL
 62
13
 10
1714.321
 20
-6146.007
 30
-2425.000
 70
    32
  0
VERTEX
  8
7700LEVEL
 62
13
 10
1716.653
 20
-6155.127
 30
-2425.000
 70
    32
  0
VERTEX
  8
7700LEVEL
 62
13
 10
1718.678
 20
-6163.663
 30
-2425.000
 70
    32
  0
VERTEX
  8
7700LEVEL
 62
13
 10
1720.439
 20
-6169.153
 30
-2425.000
 70
    32
  0
VERTEX
  8
7700LEVEL
 62
13
 10
1721.575
 20
-6173.798
 30
-2425.000
 70
    32
  0
VERTEX
  8
7700LEVEL
 62
13
 10
1721.918
 20
-6175.102
 30
-2425.000
 70
    32
  0
VERTEX
  8
7700LEVEL
 62
13
 10
1720.529
 20
-6176.256
 30
-2425.000
 70
    32
  0
VERTEX
  8
7700LEVEL
 62
13
 10
1717.263
 20
-6172.691
 30
-2425.000
 70
    32
  0
VERTEX
  8
7700LEVEL
 62
13
 10
1711.562
 20
-6160.707
 30
-2425.000
 70
    32
  0
VERTEX
  8
7700LEVEL
 62
13
 10
1708.416
 20
-6146.705
 30
-2425.000
 70
    32
  0
VERTEX
  8
7700LEVEL
 62
13
 10
1703.496
 20
-6127.783
 30
-2425.000
 70
    32
  0
VERTEX
  8
7700LEVEL
 62
13
 10
1697.258
 20
-6114.825
 30
-2425.000
 70
    32
  0
VERTEX
  8
7700LEVEL
 62
13
 10
1682.858
 20
-6092.954
 30
-2425.000
 70
    32
  0
VERTEX
  8
7700LEVEL
 62
13
 10
1669.573
 20
-6075.617
 30
-2425.000
 70
    32
  0
VERTEX
  8
7700LEVEL
 62
13
 10
1659.714
 20
-6063.660
 30
-2425.000
 70
    32
  0
VERTEX
  8
7700LEVEL
 62
13
 10
1655.612
 20
-6052.236
 30
-2425.000
 70
    32
  0
VERTEX
  8
7700LEVEL
 62
13
 10
1655.631
 20
-6045.364
 30
-2425.000
 70
    32
  0
VERTEX
  8
7700LEVEL
 62
13
 10
1656.967
 20
-6043.128
 30
-2425.000
 70
    32
  0
VERTEX
  8
7700LEVEL
 62
13
 10
1659.583
 20
-6042.872
 30
-2425.000
 70
    32
  0
VERTEX
  8
7700LEVEL
 62
13
 10
1667.144
 20
-6050.298
 30
-2425.000
 70
    32
  0
VERTEX
  8
7700LEVEL
 62
13
 10
1672.616
 20
-6058.524
 30
-2425.000
 70
    32
  0
VERTEX
  8
7700LEVEL
 62
13
 10
1682.223
 20
-6076.030
 30
-2425.000
 70
    32
  0
VERTEX
  8
7700LEVEL
 62
13
 10
1693.499
 20
-6094.357
 30
-2425.000
 70
    32
  0
VERTEX
  8
7700LEVEL
 62
13
 10
1700.014
 20
-6105.925
 30
-2425.000
 70
    32
  0
VERTEX
  8
7700LEVEL
 62
13
 10
1706.382
 20
-6118.724
 30
-2425.000
 70
    32
  0
VERTEX
  8
7700LEVEL
 62
13
 10
1709.858
 20
-6129.302
 30
-2425.000
 70
    32
  0
VERTEX
  8
7700LEVEL
 62
13
 10
1711.704
 20
-6135.914
 30
-2425.000
 70
    32
  0
VERTEX
  8
7700LEVEL
 62
13
 10
1713.409
 20
-6140.823
 30
-2425.000
 70
    32
  0
SEQEND
  8
7700LEVEL
  0
POLYLINE
  8
7700LEVEL
 62
13
 66
     1
 70
     9
  0
VERTEX
  8
7700LEVEL
 62
13
 10
1704.106
 20
-6150.647
 30
-2425.000
 70
    32
  0
VERTEX
  8
7700LEVEL
 62
13
 10
1707.139
 20
-6159.871
 30
-2425.000
 70
    32
  0
VERTEX
  8
7700LEVEL
 62
13
 10
1711.611
 20
-6173.140
 30
-2425.000
 70
    32
  0
VERTEX
  8
7700LEVEL
 62
13
 10
1716.257
 20
-6184.036
 30
-2425.000
 70
    32
  0
VERTEX
  8
7700LEVEL
 62
13
 10
1720.090
 20
-6193.414
 30
-2425.000
 70
    32
  0
VERTEX
  8
7700LEVEL
 62
13
 10
1724.824
 20
-6204.681
 30
-2425.000
 70
    32
  0
VERTEX
  8
7700LEVEL
 62
13
 10
1725.152
 20
-6208.740
 30
-2425.000
 70
    32
  0
VERTEX
  8
7700LEVEL
 62
13
 10
1722.762
 20
-6207.955
 30
-2425.000
 70
    32
  0
VERTEX
  8
7700LEVEL
 62
13
 10
1716.622
 20
-6197.231
 30
-2425.000
 70
    32
  0
VERTEX
  8
7700LEVEL
 62
13
 10
1708.304
 20
-6178.520
 30
-2425.000
 70
    32
  0
VERTEX
  8
7700LEVEL
 62
13
 10
1702.685
 20
-6167.910
 30
-2425.000
 70
    32
  0
VERTEX
  8
7700LEVEL
 62
13
 10
1701.570
 20
-6159.759
 30
-2425.000
 70
    32
  0
VERTEX
  8
7700LEVEL
 62
13
 10
1697.660
 20
-6149.689
 30
-2425.000
 70
    32
  0
VERTEX
  8
7700LEVEL
 62
13
 10
1693.352
 20
-6142.782
 30
-2425.000
 70
    32
  0
VERTEX
  8
7700LEVEL
 62
13
 10
1691.982
 20
-6142.363
 30
-2425.000
 70
    32
  0
VERTEX
  8
7700LEVEL
 62
13
 10
1692.670
 20
-6144.721
 30
-2425.000
 70
    32
  0
VERTEX
  8
7700LEVEL
 62
13
 10
1691.079
 20
-6146.025
 30
-2425.000
 70
    32
  0
VERTEX
  8
7700LEVEL
 62
13
 10
1686.273
 20
-6142.230
 30
-2425.000
 70
    32
  0
VERTEX
  8
7700LEVEL
 62
13
 10
1676.954
 20
-6133.862
 30
-2425.000
 70
    32
  0
VERTEX
  8
7700LEVEL
 62
13
 10
1670.200
 20
-6128.955
 30
-2425.000
 70
    32
  0
VERTEX
  8
7700LEVEL
 62
13
 10
1665.705
 20
-6128.358
 30
-2425.000
 70
    32
  0
VERTEX
  8
7700LEVEL
 62
13
 10
1665.983
 20
-6130.584
 30
-2425.000
 70
    32
  0
VERTEX
  8
7700LEVEL
 62
13
 10
1670.620
 20
-6136.000
 30
-2425.000
 70
    32
  0
VERTEX
  8
7700LEVEL
 62
13
 10
1676.759
 20
-6141.675
 30
-2425.000
 70
    32
  0
VERTEX
  8
7700LEVEL
 62
13
 10
1677.290
 20
-6145.084
 30
-2425.000
 70
    32
  0
VERTEX
  8
7700LEVEL
 62
13
 10
1673.968
 20
-6144.554
 30
-2425.000
 70
    32
  0
VERTEX
  8
7700LEVEL
 62
13
 10
1663.823
 20
-6136.923
 30
-2425.000
 70
    32
  0
VERTEX
  8
7700LEVEL
 62
13
 10
1654.326
 20
-6131.679
 30
-2425.000
 70
    32
  0
VERTEX
  8
7700LEVEL
 62
13
 10
1648.542
 20
-6128.921
 30
-2425.000
 70
    32
  0
VERTEX
  8
7700LEVEL
 62
13
 10
1642.148
 20
-6125.930
 30
-2425.000
 70
    32
  0
VERTEX
  8
7700LEVEL
 62
13
 10
1629.166
 20
-6118.592
 30
-2425.000
 70
    32
  0
VERTEX
  8
7700LEVEL
 62
13
 10
1619.504
 20
-6110.854
 30
-2425.000
 70
    32
  0
VERTEX
  8
7700LEVEL
 62
13
 10
1612.144
 20
-6099.662
 30
-2425.000
 70
    32
  0
VERTEX
  8
7700LEVEL
 62
13
 10
1597.716
 20
-6080.866
 30
-2425.000
 70
    32
  0
VERTEX
  8
7700LEVEL
 62
13
 10
1590.403
 20
-6070.326
 30
-2425.000
 70
    32
  0
VERTEX
  8
7700LEVEL
 62
13
 10
1582.254
 20
-6058.909
 30
-2425.000
 70
    32
  0
VERTEX
  8
7700LEVEL
 62
13
 10
1576.270
 20
-6050.750
 30
-2425.000
 70
    32
  0
VERTEX
  8
7700LEVEL
 62
13
 10
1575.163
 20
-6044.713
 30
-2425.000
 70
    32
  0
VERTEX
  8
7700LEVEL
 62
13
 10
1577.645
 20
-6034.519
 30
-2425.000
 70
    32
  0
VERTEX
  8
7700LEVEL
 62
13
 10
1582.602
 20
-6024.300
 30
-2425.000
 70
    32
  0
VERTEX
  8
7700LEVEL
 62
13
 10
1586.910
 20
-6015.559
 30
-2425.000
 70
    32
  0
VERTEX
  8
7700LEVEL
 62
13
 10
1588.996
 20
-5999.362
 30
-2425.000
 70
    32
  0
VERTEX
  8
7700LEVEL
 62
13
 10
1588.190
 20
-5987.927
 30
-2425.000
 70
    32
  0
VERTEX
  8
7700LEVEL
 62
13
 10
1586.869
 20
-5978.994
 30
-2425.000
 70
    32
  0
VERTEX
  8
7700LEVEL
 62
13
 10
1584.537
 20
-5969.874
 30
-2425.000
 70
    32
  0
VERTEX
  8
7700LEVEL
 62
13
 10
1582.509
 20
-5961.839
 30
-2425.000
 70
    32
  0
VERTEX
  8
7700LEVEL
 62
13
 10
1580.421
 20
-5950.356
 30
-2425.000
 70
    32
  0
VERTEX
  8
7700LEVEL
 62
13
 10
1578.402
 20
-5935.519
 30
-2425.000
 70
    32
  0
VERTEX
  8
7700LEVEL
 62
13
 10
1578.719
 20
-5927.366
 30
-2425.000
 70
    32
  0
VERTEX
  8
7700LEVEL
 62
13
 10
1580.245
 20
-5918.068
 30
-2425.000
 70
    32
  0
VERTEX
  8
7700LEVEL
 62
13
 10
1582.009
 20
-5914.392
 30
-2425.000
 70
    32
  0
VERTEX
  8
7700LEVEL
 62
13
 10
1585.075
 20
-5914.239
 30
-2425.000
 70
    32
  0
VERTEX
  8
7700LEVEL
 62
13
 10
1589.558
 20
-5923.822
 30
-2425.000
 70
    32
  0
VERTEX
  8
7700LEVEL
 62
13
 10
1593.917
 20
-5935.928
 30
-2425.000
 70
    32
  0
VERTEX
  8
7700LEVEL
 62
13
 10
1596.629
 20
-5943.457
 30
-2425.000
 70
    32
  0
VERTEX
  8
7700LEVEL
 62
13
 10
1600.591
 20
-5956.542
 30
-2425.000
 70
    32
  0
VERTEX
  8
7700LEVEL
 62
13
 10
1602.565
 20
-5965.179
 30
-2425.000
 70
    32
  0
VERTEX
  8
7700LEVEL
 62
13
 10
1604.237
 20
-5974.164
 30
-2425.000
 70
    32
  0
VERTEX
  8
7700LEVEL
 62
13
 10
1605.287
 20
-5988.536
 30
-2425.000
 70
    32
  0
VERTEX
  8
7700LEVEL
 62
13
 10
1607.264
 20
-5998.355
 30
-2425.000
 70
    32
  0
VERTEX
  8
7700LEVEL
 62
13
 10
1608.990
 20
-6010.105
 30
-2425.000
 70
    32
  0
VERTEX
  8
7700LEVEL
 62
13
 10
1612.138
 20
-6027.223
 30
-2425.000
 70
    32
  0
VERTEX
  8
7700LEVEL
 62
13
 10
1613.825
 20
-6033.454
 30
-2425.000
 70
    32
  0
VERTEX
  8
7700LEVEL
 62
13
 10
1620.832
 20
-6048.461
 30
-2425.000
 70
    32
  0
VERTEX
  8
7700LEVEL
 62
13
 10
1625.755
 20
-6061.833
 30
-2425.000
 70
    32
  0
VERTEX
  8
7700LEVEL
 62
13
 10
1630.772
 20
-6076.006
 30
-2425.000
 70
    32
  0
VERTEX
  8
7700LEVEL
 62
13
 10
1637.241
 20
-6092.222
 30
-2425.000
 70
    32
  0
VERTEX
  8
7700LEVEL
 62
13
 10
1644.309
 20
-6101.759
 30
-2425.000
 70
    32
  0
VERTEX
  8
7700LEVEL
 62
13
 10
1650.956
 20
-6107.868
 30
-2425.000
 70
    32
  0
VERTEX
  8
7700LEVEL
 62
13
 10
1664.984
 20
-6116.113
 30
-2425.000
 70
    32
  0
VERTEX
  8
7700LEVEL
 62
13
 10
1676.969
 20
-6122.442
 30
-2425.000
 70
    32
  0
VERTEX
  8
7700LEVEL
 62
13
 10
1683.866
 20
-6125.186
 30
-2425.000
 70
    32
  0
VERTEX
  8
7700LEVEL
 62
13
 10
1690.756
 20
-6128.932
 30
-2425.000
 70
    32
  0
VERTEX
  8
7700LEVEL
 62
13
 10
1694.764
 20
-6132.321
 30
-2425.000
 70
    32
  0
VERTEX
  8
7700LEVEL
 62
13
 10
1698.541
 20
-6137.502
 30
-2425.000
 70
    32
  0
VERTEX
  8
7700LEVEL
 62
13
 10
1701.834
 20
-6144.974
 30
-2425.000
 70
    32
  0
VERTEX
  8
7700LEVEL
 62
13
 10
1703.001
 20
-6147.726
 30
-2425.000
 70
    32
  0
SEQEND
  8
7700LEVEL
  0
POLYLINE
  8
7700LEVEL
 62
13
 66
     1
 70
     9
  0
VERTEX
  8
7700LEVEL
 62
13
 10
1629.979
 20
-5946.733
 30
-2425.000
 70
    32
  0
VERTEX
  8
7700LEVEL
 62
13
 10
1635.705
 20
-5958.076
 30
-2425.000
 70
    32
  0
VERTEX
  8
7700LEVEL
 62
13
 10
1636.814
 20
-5965.545
 30
-2425.000
 70
    32
  0
VERTEX
  8
7700LEVEL
 62
13
 10
1640.653
 20
-5979.221
 30
-2425.000
 70
    32
  0
VERTEX
  8
7700LEVEL
 62
13
 10
1642.119
 20
-5990.790
 30
-2425.000
 70
    32
  0
VERTEX
  8
7700LEVEL
 62
13
 10
1640.854
 20
-5994.720
 30
-2425.000
 70
    32
  0
VERTEX
  8
7700LEVEL
 62
13
 10
1637.673
 20
-5992.277
 30
-2425.000
 70
    32
  0
VERTEX
  8
7700LEVEL
 62
13
 10
1630.417
 20
-5978.702
 30
-2425.000
 70
    32
  0
VERTEX
  8
7700LEVEL
 62
13
 10
1622.243
 20
-5961.194
 30
-2425.000
 70
    32
  0
VERTEX
  8
7700LEVEL
 62
13
 10
1617.366
 20
-5952.090
 30
-2425.000
 70
    32
  0
VERTEX
  8
7700LEVEL
 62
13
 10
1612.874
 20
-5940.644
 30
-2425.000
 70
    32
  0
VERTEX
  8
7700LEVEL
 62
13
 10
1609.243
 20
-5925.567
 30
-2425.000
 70
    32
  0
VERTEX
  8
7700LEVEL
 62
13
 10
1606.288
 20
-5915.102
 30
-2425.000
 70
    32
  0
VERTEX
  8
7700LEVEL
 62
13
 10
1603.663
 20
-5902.895
 30
-2425.000
 70
    32
  0
VERTEX
  8
7700LEVEL
 62
13
 10
1604.278
 20
-5893.462
 30
-2425.000
 70
    32
  0
VERTEX
  8
7700LEVEL
 62
13
 10
1605.113
 20
-5889.289
 30
-2425.000
 70
    32
  0
VERTEX
  8
7700LEVEL
 62
13
 10
1606.195
 20
-5887.552
 30
-2425.000
 70
    32
  0
VERTEX
  8
7700LEVEL
 62
13
 10
1609.984
 20
-5890.730
 30
-2425.000
 70
    32
  0
VERTEX
  8
7700LEVEL
 62
13
 10
1614.387
 20
-5896.755
 30
-2425.000
 70
    32
  0
VERTEX
  8
7700LEVEL
 62
13
 10
1617.286
 20
-5903.023
 30
-2425.000
 70
    32
  0
VERTEX
  8
7700LEVEL
 62
13
 10
1621.275
 20
-5913.284
 30
-2425.000
 70
    32
  0
VERTEX
  8
7700LEVEL
 62
13
 10
1623.918
 20
-5925.851
 30
-2425.000
 70
    32
  0
VERTEX
  8
7700LEVEL
 62
13
 10
1626.405
 20
-5935.853
 30
-2425.000
 70
    32
  0
VERTEX
  8
7700LEVEL
 62
13
 10
1627.373
 20
-5939.936
 30
-2425.000
 70
    32
  0
SEQEND
  8
7700LEVEL
  0
POLYLINE
  8
7700LEVEL
 62
13
 66
     1
 70
     9
  0
VERTEX
  8
7700LEVEL
 62
13
 10
2256.741
 20
-7611.889
 30
-2425.000
 70
    32
  0
VERTEX
  8
7700LEVEL
 62
13
 10
2258.820
 20
-7617.892
 30
-2425.000
 70
    32
  0
VERTEX
  8
7700LEVEL
 62
13
 10
2259.576
 20
-7624.127
 30
-2425.000
 70
    32
  0
VERTEX
  8
7700LEVEL
 62
13
 10
2259.092
 20
-7628.101
 30
-2425.000
 70
    32
  0
VERTEX
  8
7700LEVEL
 62
13
 10
2258.254
 20
-7631.092
 30
-2425.000
 70
    32
  0
VERTEX
  8
7700LEVEL
 62
13
 10
2257.116
 20
-7631.997
 30
-2425.000
 70
    32
  0
VERTEX
  8
7700LEVEL
 62
13
 10
2253.165
 20
-7629.189
 30
-2425.000
 70
    32
  0
VERTEX
  8
7700LEVEL
 62
13
 10
2248.415
 20
-7622.610
 30
-2425.000
 70
    32
  0
VERTEX
  8
7700LEVEL
 62
13
 10
2244.023
 20
-7617.947
 30
-2425.000
 70
    32
  0
VERTEX
  8
7700LEVEL
 62
13
 10
2238.066
 20
-7610.330
 30
-2425.000
 70
    32
  0
VERTEX
  8
7700LEVEL
 62
13
 10
2234.710
 20
-7606.894
 30
-2425.000
 70
    32
  0
VERTEX
  8
7700LEVEL
 62
13
 10
2231.098
 20
-7606.142
 30
-2425.000
 70
    32
  0
VERTEX
  8
7700LEVEL
 62
13
 10
2229.632
 20
-7610.221
 30
-2425.000
 70
    32
  0
VERTEX
  8
7700LEVEL
 62
13
 10
2229.627
 20
-7621.571
 30
-2425.000
 70
    32
  0
VERTEX
  8
7700LEVEL
 62
13
 10
2231.495
 20
-7629.476
 30
-2425.000
 70
    32
  0
VERTEX
  8
7700LEVEL
 62
13
 10
2232.682
 20
-7637.387
 30
-2425.000
 70
    32
  0
VERTEX
  8
7700LEVEL
 62
13
 10
2232.793
 20
-7640.733
 30
-2425.000
 70
    32
  0
VERTEX
  8
7700LEVEL
 62
13
 10
2231.649
 20
-7642.891
 30
-2425.000
 70
    32
  0
VERTEX
  8
7700LEVEL
 62
13
 10
2229.287
 20
-7640.713
 30
-2425.000
 70
    32
  0
VERTEX
  8
7700LEVEL
 62
13
 10
2225.267
 20
-7632.596
 30
-2425.000
 70
    32
  0
VERTEX
  8
7700LEVEL
 62
13
 10
2222.585
 20
-7626.790
 30
-2425.000
 70
    32
  0
VERTEX
  8
7700LEVEL
 62
13
 10
2220.922
 20
-7624.968
 30
-2425.000
 70
    32
  0
VERTEX
  8
7700LEVEL
 62
13
 10
2220.520
 20
-7626.949
 30
-2425.000
 70
    32
  0
VERTEX
  8
7700LEVEL
 62
13
 10
2219.912
 20
-7631.764
 30
-2425.000
 70
    32
  0
VERTEX
  8
7700LEVEL
 62
13
 10
2218.843
 20
-7632.930
 30
-2425.000
 70
    32
  0
VERTEX
  8
7700LEVEL
 62
13
 10
2216.592
 20
-7630.733
 30
-2425.000
 70
    32
  0
VERTEX
  8
7700LEVEL
 62
13
 10
2215.335
 20
-7629.794
 30
-2425.000
 70
    32
  0
VERTEX
  8
7700LEVEL
 62
13
 10
2214.320
 20
-7632.042
 30
-2425.000
 70
    32
  0
VERTEX
  8
7700LEVEL
 62
13
 10
2214.545
 20
-7636.552
 30
-2425.000
 70
    32
  0
VERTEX
  8
7700LEVEL
 62
13
 10
2213.885
 20
-7638.101
 30
-2425.000
 70
    32
  0
VERTEX
  8
7700LEVEL
 62
13
 10
2211.422
 20
-7636.123
 30
-2425.000
 70
    32
  0
VERTEX
  8
7700LEVEL
 62
13
 10
2208.980
 20
-7634.005
 30
-2425.000
 70
    32
  0
VERTEX
  8
7700LEVEL
 62
13
 10
2205.821
 20
-7634.538
 30
-2425.000
 70
    32
  0
VERTEX
  8
7700LEVEL
 62
13
 10
2203.091
 20
-7638.931
 30
-2425.000
 70
    32
  0
VERTEX
  8
7700LEVEL
 62
13
 10
2200.555
 20
-7644.426
 30
-2425.000
 70
    32
  0
VERTEX
  8
7700LEVEL
 62
13
 10
2197.068
 20
-7648.132
 30
-2425.000
 70
    32
  0
VERTEX
  8
7700LEVEL
 62
13
 10
2194.141
 20
-7651.922
 30
-2425.000
 70
    32
  0
VERTEX
  8
7700LEVEL
 62
13
 10
2191.002
 20
-7652.566
 30
-2425.000
 70
    32
  0
VERTEX
  8
7700LEVEL
 62
13
 10
2187.020
 20
-7649.968
 30
-2425.000
 70
    32
  0
VERTEX
  8
7700LEVEL
 62
13
 10
2182.191
 20
-7646.565
 30
-2425.000
 70
    32
  0
VERTEX
  8
7700LEVEL
 62
13
 10
2178.328
 20
-7644.128
 30
-2425.000
 70
    32
  0
VERTEX
  8
7700LEVEL
 62
13
 10
2176.058
 20
-7645.187
 30
-2425.000
 70
    32
  0
VERTEX
  8
7700LEVEL
 62
13
 10
2174.970
 20
-7647.926
 30
-2425.000
 70
    32
  0
VERTEX
  8
7700LEVEL
 62
13
 10
2171.987
 20
-7654.501
 30
-2425.000
 70
    32
  0
VERTEX
  8
7700LEVEL
 62
13
 10
2168.603
 20
-7659.440
 30
-2425.000
 70
    32
  0
VERTEX
  8
7700LEVEL
 62
13
 10
2164.931
 20
-7662.224
 30
-2425.000
 70
    32
  0
VERTEX
  8
7700LEVEL
 62
13
 10
2162.414
 20
-7660.847
 30
-2425.000
 70
    32
  0
VERTEX
  8
7700LEVEL
 62
13
 10
2159.514
 20
-7658.196
 30
-2425.000
 70
    32
  0
VERTEX
  8
7700LEVEL
 62
13
 10
2157.329
 20
-7658.444
 30
-2425.000
 70
    32
  0
VERTEX
  8
7700LEVEL
 62
13
 10
2155.698
 20
-7658.094
 30
-2425.000
 70
    32
  0
VERTEX
  8
7700LEVEL
 62
13
 10
2153.943
 20
-7656.651
 30
-2425.000
 70
    32
  0
VERTEX
  8
7700LEVEL
 62
13
 10
2153.332
 20
-7658.351
 30
-2425.000
 70
    32
  0
VERTEX
  8
7700LEVEL
 62
13
 10
2154.084
 20
-7661.721
 30
-2425.000
 70
    32
  0
VERTEX
  8
7700LEVEL
 62
13
 10
2154.091
 20
-7669.385
 30
-2425.000
 70
    32
  0
VERTEX
  8
7700LEVEL
 62
13
 10
2153.411
 20
-7677.806
 30
-2425.000
 70
    32
  0
VERTEX
  8
7700LEVEL
 62
13
 10
2154.186
 20
-7682.468
 30
-2425.000
 70
    32
  0
VERTEX
  8
7700LEVEL
 62
13
 10
2152.099
 20
-7693.616
 30
-2425.000
 70
    32
  0
VERTEX
  8
7700LEVEL
 62
13
 10
2150.808
 20
-7700.371
 30
-2425.000
 70
    32
  0
VERTEX
  8
7700LEVEL
 62
13
 10
2148.788
 20
-7705.048
 30
-2425.000
 70
    32
  0
VERTEX
  8
7700LEVEL
 62
13
 10
2146.927
 20
-7704.556
 30
-2425.000
 70
    32
  0
VERTEX
  8
7700LEVEL
 62
13
 10
2144.731
 20
-7704.874
 30
-2425.000
 70
    32
  0
VERTEX
  8
7700LEVEL
 62
13
 10
2143.790
 20
-7706.632
 30
-2425.000
 70
    32
  0
VERTEX
  8
7700LEVEL
 62
13
 10
2141.941
 20
-7712.802
 30
-2425.000
 70
    32
  0
VERTEX
  8
7700LEVEL
 62
13
 10
2140.555
 20
-7718.755
 30
-2425.000
 70
    32
  0
VERTEX
  8
7700LEVEL
 62
13
 10
2139.618
 20
-7721.444
 30
-2425.000
 70
    32
  0
VERTEX
  8
7700LEVEL
 62
13
 10
2138.105
 20
-7723.189
 30
-2425.000
 70
    32
  0
VERTEX
  8
7700LEVEL
 62
13
 10
2136.131
 20
-7723.217
 30
-2425.000
 70
    32
  0
VERTEX
  8
7700LEVEL
 62
13
 10
2133.596
 20
-7719.797
 30
-2425.000
 70
    32
  0
VERTEX
  8
7700LEVEL
 62
13
 10
2131.235
 20
-7714.003
 30
-2425.000
 70
    32
  0
VERTEX
  8
7700LEVEL
 62
13
 10
2129.299
 20
-7709.204
 30
-2425.000
 70
    32
  0
VERTEX
  8
7700LEVEL
 62
13
 10
2127.928
 20
-7705.419
 30
-2425.000
 70
    32
  0
VERTEX
  8
7700LEVEL
 62
13
 10
2126.599
 20
-7701.354
 30
-2425.000
 70
    32
  0
VERTEX
  8
7700LEVEL
 62
13
 10
2125.126
 20
-7699.703
 30
-2425.000
 70
    32
  0
VERTEX
  8
7700LEVEL
 62
13
 10
2124.510
 20
-7698.788
 30
-2425.000
 70
    32
  0
VERTEX
  8
7700LEVEL
 62
13
 10
2123.692
 20
-7699.955
 30
-2425.000
 70
    32
  0
VERTEX
  8
7700LEVEL
 62
13
 10
2123.466
 20
-7702.679
 30
-2425.000
 70
    32
  0
VERTEX
  8
7700LEVEL
 62
13
 10
2123.899
 20
-7709.403
 30
-2425.000
 70
    32
  0
VERTEX
  8
7700LEVEL
 62
13
 10
2123.964
 20
-7713.781
 30
-2425.000
 70
    32
  0
VERTEX
  8
7700LEVEL
 62
13
 10
2123.590
 20
-7717.736
 30
-2425.000
 70
    32
  0
VERTEX
  8
7700LEVEL
 62
13
 10
2123.008
 20
-7719.726
 30
-2425.000
 70
    32
  0
VERTEX
  8
7700LEVEL
 62
13
 10
2120.872
 20
-7721.808
 30
-2425.000
 70
    32
  0
VERTEX
  8
7700LEVEL
 62
13
 10
2118.468
 20
-7720.161
 30
-2425.000
 70
    32
  0
VERTEX
  8
7700LEVEL
 62
13
 10
2117.667
 20
-7714.707
 30
-2425.000
 70
    32
  0
VERTEX
  8
7700LEVEL
 62
13
 10
2117.711
 20
-7708.877
 30
-2425.000
 70
    32
  0
VERTEX
  8
7700LEVEL
 62
13
 10
2117.997
 20
-7700.934
 30
-2425.000
 70
    32
  0
VERTEX
  8
7700LEVEL
 62
13
 10
2120.257
 20
-7692.713
 30
-2425.000
 70
    32
  0
VERTEX
  8
7700LEVEL
 62
13
 10
2122.716
 20
-7688.459
 30
-2425.000
 70
    32
  0
VERTEX
  8
7700LEVEL
 62
13
 10
2124.852
 20
-7686.378
 30
-2425.000
 70
    32
  0
VERTEX
  8
7700LEVEL
 62
13
 10
2127.411
 20
-7687.224
 30
-2425.000
 70
    32
  0
VERTEX
  8
7700LEVEL
 62
13
 10
2128.672
 20
-7684.045
 30
-2425.000
 70
    32
  0
VERTEX
  8
7700LEVEL
 62
13
 10
2128.253
 20
-7678.433
 30
-2425.000
 70
    32
  0
VERTEX
  8
7700LEVEL
 62
13
 10
2129.056
 20
-7674.721
 30
-2425.000
 70
    32
  0
VERTEX
  8
7700LEVEL
 62
13
 10
2130.455
 20
-7668.198
 30
-2425.000
 70
    32
  0
VERTEX
  8
7700LEVEL
 62
13
 10
2130.148
 20
-7664.249
 30
-2425.000
 70
    32
  0
VERTEX
  8
7700LEVEL
 62
13
 10
2129.573
 20
-7661.370
 30
-2425.000
 70
    32
  0
VERTEX
  8
7700LEVEL
 62
13
 10
2129.821
 20
-7656.573
 30
-2425.000
 70
    32
  0
VERTEX
  8
7700LEVEL
 62
13
 10
2128.844
 20
-7650.377
 30
-2425.000
 70
    32
  0
VERTEX
  8
7700LEVEL
 62
13
 10
2128.012
 20
-7647.066
 30
-2425.000
 70
    32
  0
VERTEX
  8
7700LEVEL
 62
13
 10
2127.092
 20
-7641.451
 30
-2425.000
 70
    32
  0
VERTEX
  8
7700LEVEL
 62
13
 10
2126.734
 20
-7633.986
 30
-2425.000
 70
    32
  0
VERTEX
  8
7700LEVEL
 62
13
 10
2127.586
 20
-7628.741
 30
-2425.000
 70
    32
  0
VERTEX
  8
7700LEVEL
 62
13
 10
2129.230
 20
-7628.520
 30
-2425.000
 70
    32
  0
VERTEX
  8
7700LEVEL
 62
13
 10
2133.935
 20
-7629.148
 30
-2425.000
 70
    32
  0
VERTEX
  8
7700LEVEL
 62
13
 10
2137.196
 20
-7629.848
 30
-2425.000
 70
    32
  0
VERTEX
  8
7700LEVEL
 62
13
 10
2139.939
 20
-7630.184
 30
-2425.000
 70
    32
  0
VERTEX
  8
7700LEVEL
 62
13
 10
2140.341
 20
-7628.203
 30
-2425.000
 70
    32
  0
VERTEX
  8
7700LEVEL
 62
13
 10
2140.315
 20
-7625.729
 30
-2425.000
 70
    32
  0
VERTEX
  8
7700LEVEL
 62
13
 10
2140.735
 20
-7624.108
 30
-2425.000
 70
    32
  0
VERTEX
  8
7700LEVEL
 62
13
 10
2142.378
 20
-7618.838
 30
-2425.000
 70
    32
  0
VERTEX
  8
7700LEVEL
 62
13
 10
2143.701
 20
-7611.874
 30
-2425.000
 70
    32
  0
VERTEX
  8
7700LEVEL
 62
13
 10
2144.275
 20
-7607.770
 30
-2425.000
 70
    32
  0
VERTEX
  8
7700LEVEL
 62
13
 10
2144.747
 20
-7598.816
 30
-2425.000
 70
    32
  0
VERTEX
  8
7700LEVEL
 62
13
 10
2143.488
 20
-7589.463
 30
-2425.000
 70
    32
  0
VERTEX
  8
7700LEVEL
 62
13
 10
2141.303
 20
-7582.728
 30
-2425.000
 70
    32
  0
VERTEX
  8
7700LEVEL
 62
13
 10
2138.460
 20
-7575.359
 30
-2425.000
 70
    32
  0
VERTEX
  8
7700LEVEL
 62
13
 10
2137.738
 20
-7568.413
 30
-2425.000
 70
    32
  0
VERTEX
  8
7700LEVEL
 62
13
 10
2137.680
 20
-7566.399
 30
-2425.000
 70
    32
  0
VERTEX
  8
7700LEVEL
 62
13
 10
2137.639
 20
-7564.746
 30
-2425.000
 70
    32
  0
VERTEX
  8
7700LEVEL
 62
13
 10
2138.654
 20
-7564.180
 30
-2425.000
 70
    32
  0
VERTEX
  8
7700LEVEL
 62
13
 10
2140.066
 20
-7564.319
 30
-2425.000
 70
    32
  0
VERTEX
  8
7700LEVEL
 62
13
 10
2139.743
 20
-7562.874
 30
-2425.000
 70
    32
  0
VERTEX
  8
7700LEVEL
 62
13
 10
2138.516
 20
-7558.610
 30
-2425.000
 70
    32
  0
VERTEX
  8
7700LEVEL
 62
13
 10
2138.333
 20
-7555.503
 30
-2425.000
 70
    32
  0
VERTEX
  8
7700LEVEL
 62
13
 10
2139.419
 20
-7554.698
 30
-2425.000
 70
    32
  0
VERTEX
  8
7700LEVEL
 62
13
 10
2141.538
 20
-7553.939
 30
-2425.000
 70
    32
  0
VERTEX
  8
7700LEVEL
 62
13
 10
2143.223
 20
-7553.437
 30
-2425.000
 70
    32
  0
VERTEX
  8
7700LEVEL
 62
13
 10
2144.091
 20
-7552.421
 30
-2425.000
 70
    32
  0
VERTEX
  8
7700LEVEL
 62
13
 10
2143.517
 20
-7551.225
 30
-2425.000
 70
    32
  0
VERTEX
  8
7700LEVEL
 62
13
 10
2143.173
 20
-7549.921
 30
-2425.000
 70
    32
  0
VERTEX
  8
7700LEVEL
 62
13
 10
2143.732
 20
-7548.572
 30
-2425.000
 70
    32
  0
VERTEX
  8
7700LEVEL
 62
13
 10
2144.838
 20
-7547.877
 30
-2425.000
 70
    32
  0
VERTEX
  8
7700LEVEL
 62
13
 10
2146.414
 20
-7547.395
 30
-2425.000
 70
    32
  0
VERTEX
  8
7700LEVEL
 62
13
 10
2147.819
 20
-7546.852
 30
-2425.000
 70
    32
  0
VERTEX
  8
7700LEVEL
 62
13
 10
2148.819
 20
-7545.425
 30
-2425.000
 70
    32
  0
VERTEX
  8
7700LEVEL
 62
13
 10
2148.959
 20
-7543.763
 30
-2425.000
 70
    32
  0
VERTEX
  8
7700LEVEL
 62
13
 10
2148.566
 20
-7542.308
 30
-2425.000
 70
    32
  0
VERTEX
  8
7700LEVEL
 62
13
 10
2148.214
 20
-7540.824
 30
-2425.000
 70
    32
  0
VERTEX
  8
7700LEVEL
 62
13
 10
2147.106
 20
-7538.403
 30
-2425.000
 70
    32
  0
VERTEX
  8
7700LEVEL
 62
13
 10
2148.836
 20
-7537.121
 30
-2425.000
 70
    32
  0
VERTEX
  8
7700LEVEL
 62
13
 10
2149.373
 20
-7534.479
 30
-2425.000
 70
    32
  0
VERTEX
  8
7700LEVEL
 62
13
 10
2148.109
 20
-7531.176
 30
-2425.000
 70
    32
  0
VERTEX
  8
7700LEVEL
 62
13
 10
2145.127
 20
-7528.835
 30
-2425.000
 70
    32
  0
VERTEX
  8
7700LEVEL
 62
13
 10
2138.428
 20
-7528.376
 30
-2425.000
 70
    32
  0
VERTEX
  8
7700LEVEL
 62
13
 10
2134.315
 20
-7529.304
 30
-2425.000
 70
    32
  0
VERTEX
  8
7700LEVEL
 62
13
 10
2131.969
 20
-7529.671
 30
-2425.000
 70
    32
  0
VERTEX
  8
7700LEVEL
 62
13
 10
2130.581
 20
-7532.508
 30
-2425.000
 70
    32
  0
VERTEX
  8
7700LEVEL
 62
13
 10
2130.404
 20
-7535.382
 30
-2425.000
 70
    32
  0
VERTEX
  8
7700LEVEL
 62
13
 10
2126.025
 20
-7537.381
 30
-2425.000
 70
    32
  0
VERTEX
  8
7700LEVEL
 62
13
 10
2120.464
 20
-7537.449
 30
-2425.000
 70
    32
  0
VERTEX
  8
7700LEVEL
 62
13
 10
2112.519
 20
-7537.664
 30
-2425.000
 70
    32
  0
VERTEX
  8
7700LEVEL
 62
13
 10
2109.296
 20
-7537.185
 30
-2425.000
 70
    32
  0
VERTEX
  8
7700LEVEL
 62
13
 10
2107.124
 20
-7535.179
 30
-2425.000
 70
    32
  0
VERTEX
  8
7700LEVEL
 62
13
 10
2104.139
 20
-7531.656
 30
-2425.000
 70
    32
  0
VERTEX
  8
7700LEVEL
 62
13
 10
2102.042
 20
-7530.341
 30
-2425.000
 70
    32
  0
VERTEX
  8
7700LEVEL
 62
13
 10
2100.839
 20
-7534.101
 30
-2425.000
 70
    32
  0
VERTEX
  8
7700LEVEL
 62
13
 10
2101.503
 20
-7537.100
 30
-2425.000
 70
    32
  0
VERTEX
  8
7700LEVEL
 62
13
 10
2103.442
 20
-7543.082
 30
-2425.000
 70
    32
  0
VERTEX
  8
7700LEVEL
 62
13
 10
2103.064
 20
-7546.105
 30
-2425.000
 70
    32
  0
VERTEX
  8
7700LEVEL
 62
13
 10
2102.294
 20
-7547.673
 30
-2425.000
 70
    32
  0
VERTEX
  8
7700LEVEL
 62
13
 10
2100.206
 20
-7548.473
 30
-2425.000
 70
    32
  0
VERTEX
  8
7700LEVEL
 62
13
 10
2098.947
 20
-7547.785
 30
-2425.000
 70
    32
  0
VERTEX
  8
7700LEVEL
 62
13
 10
2097.258
 20
-7545.421
 30
-2425.000
 70
    32
  0
VERTEX
  8
7700LEVEL
 62
13
 10
2095.578
 20
-7537.938
 30
-2425.000
 70
    32
  0
VERTEX
  8
7700LEVEL
 62
13
 10
2094.167
 20
-7528.884
 30
-2425.000
 70
    32
  0
VERTEX
  8
7700LEVEL
 62
13
 10
2092.987
 20
-7514.421
 30
-2425.000
 70
    32
  0
VERTEX
  8
7700LEVEL
 62
13
 10
2092.783
 20
-7502.790
 30
-2425.000
 70
    32
  0
VERTEX
  8
7700LEVEL
 62
13
 10
2089.107
 20
-7487.061
 30
-2425.000
 70
    32
  0
VERTEX
  8
7700LEVEL
 62
13
 10
2084.897
 20
-7473.473
 30
-2425.000
 70
    32
  0
VERTEX
  8
7700LEVEL
 62
13
 10
2075.338
 20
-7451.069
 30
-2425.000
 70
    32
  0
VERTEX
  8
7700LEVEL
 62
13
 10
2064.280
 20
-7426.221
 30
-2425.000
 70
    32
  0
VERTEX
  8
7700LEVEL
 62
13
 10
2057.586
 20
-7410.796
 30
-2425.000
 70
    32
  0
VERTEX
  8
7700LEVEL
 62
13
 10
2048.335
 20
-7385.358
 30
-2425.000
 70
    32
  0
VERTEX
  8
7700LEVEL
 62
13
 10
2041.542
 20
-7364.583
 30
-2425.000
 70
    32
  0
VERTEX
  8
7700LEVEL
 62
13
 10
2043.458
 20
-7343.025
 30
-2425.000
 70
    32
  0
VERTEX
  8
7700LEVEL
 62
13
 10
2044.680
 20
-7327.345
 30
-2425.000
 70
    32
  0
VERTEX
  8
7700LEVEL
 62
13
 10
2047.009
 20
-7309.035
 30
-2425.000
 70
    32
  0
VERTEX
  8
7700LEVEL
 62
13
 10
2053.713
 20
-7298.144
 30
-2425.000
 70
    32
  0
VERTEX
  8
7700LEVEL
 62
13
 10
2058.325
 20
-7293.853
 30
-2425.000
 70
    32
  0
VERTEX
  8
7700LEVEL
 62
13
 10
2066.633
 20
-7281.088
 30
-2425.000
 70
    32
  0
VERTEX
  8
7700LEVEL
 62
13
 10
2072.108
 20
-7267.866
 30
-2425.000
 70
    32
  0
VERTEX
  8
7700LEVEL
 62
13
 10
2072.285
 20
-7251.027
 30
-2425.000
 70
    32
  0
VERTEX
  8
7700LEVEL
 62
13
 10
2069.639
 20
-7238.961
 30
-2425.000
 70
    32
  0
VERTEX
  8
7700LEVEL
 62
13
 10
2066.165
 20
-7224.515
 30
-2425.000
 70
    32
  0
VERTEX
  8
7700LEVEL
 62
13
 10
2058.071
 20
-7212.247
 30
-2425.000
 70
    32
  0
VERTEX
  8
7700LEVEL
 62
13
 10
2048.708
 20
-7199.361
 30
-2425.000
 70
    32
  0
VERTEX
  8
7700LEVEL
 62
13
 10
2039.007
 20
-7187.785
 30
-2425.000
 70
    32
  0
VERTEX
  8
7700LEVEL
 62
13
 10
2037.430
 20
-7176.236
 30
-2425.000
 70
    32
  0
VERTEX
  8
7700LEVEL
 62
13
 10
2038.197
 20
-7166.503
 30
-2425.000
 70
    32
  0
VERTEX
  8
7700LEVEL
 62
13
 10
2040.156
 20
-7149.714
 30
-2425.000
 70
    32
  0
VERTEX
  8
7700LEVEL
 62
13
 10
2043.464
 20
-7137.101
 30
-2425.000
 70
    32
  0
VERTEX
  8
7700LEVEL
 62
13
 10
2044.247
 20
-7126.296
 30
-2425.000
 70
    32
  0
VERTEX
  8
7700LEVEL
 62
13
 10
2041.986
 20
-7113.571
 30
-2425.000
 70
    32
  0
VERTEX
  8
7700LEVEL
 62
13
 10
2035.405
 20
-7095.942
 30
-2425.000
 70
    32
  0
VERTEX
  8
7700LEVEL
 62
13
 10
2031.931
 20
-7086.796
 30
-2425.000
 70
    32
  0
VERTEX
  8
7700LEVEL
 62
13
 10
2026.077
 20
-7075.112
 30
-2425.000
 70
    32
  0
VERTEX
  8
7700LEVEL
 62
13
 10
2013.906
 20
-7055.828
 30
-2425.000
 70
    32
  0
VERTEX
  8
7700LEVEL
 62
13
 10
2005.238
 20
-7038.748
 30
-2425.000
 70
    32
  0
VERTEX
  8
7700LEVEL
 62
13
 10
1997.032
 20
-7021.451
 30
-2425.000
 70
    32
  0
VERTEX
  8
7700LEVEL
 62
13
 10
1988.314
 20
-7004.471
 30
-2425.000
 70
    32
  0
VERTEX
  8
7700LEVEL
 62
13
 10
1981.128
 20
-6987.540
 30
-2425.000
 70
    32
  0
VERTEX
  8
7700LEVEL
 62
13
 10
1973.415
 20
-6973.431
 30
-2425.000
 70
    32
  0
VERTEX
  8
7700LEVEL
 62
13
 10
1965.639
 20
-6961.426
 30
-2425.000
 70
    32
  0
VERTEX
  8
7700LEVEL
 62
13
 10
1953.628
 20
-6943.956
 30
-2425.000
 70
    32
  0
VERTEX
  8
7700LEVEL
 62
13
 10
1944.925
 20
-6929.521
 30
-2425.000
 70
    32
  0
VERTEX
  8
7700LEVEL
 62
13
 10
1937.297
 20
-6916.284
 30
-2425.000
 70
    32
  0
VERTEX
  8
7700LEVEL
 62
13
 10
1929.652
 20
-6904.369
 30
-2425.000
 70
    32
  0
VERTEX
  8
7700LEVEL
 62
13
 10
1923.396
 20
-6894.666
 30
-2425.000
 70
    32
  0
VERTEX
  8
7700LEVEL
 62
13
 10
1914.376
 20
-6876.102
 30
-2425.000
 70
    32
  0
VERTEX
  8
7700LEVEL
 62
13
 10
1906.967
 20
-6863.076
 30
-2425.000
 70
    32
  0
VERTEX
  8
7700LEVEL
 62
13
 10
1899.317
 20
-6848.547
 30
-2425.000
 70
    32
  0
VERTEX
  8
7700LEVEL
 62
13
 10
1893.897
 20
-6836.354
 30
-2425.000
 70
    32
  0
VERTEX
  8
7700LEVEL
 62
13
 10
1887.060
 20
-6823.092
 30
-2425.000
 70
    32
  0
VERTEX
  8
7700LEVEL
 62
13
 10
1877.882
 20
-6811.128
 30
-2425.000
 70
    32
  0
VERTEX
  8
7700LEVEL
 62
13
 10
1870.740
 20
-6797.033
 30
-2425.000
 70
    32
  0
VERTEX
  8
7700LEVEL
 62
13
 10
1863.667
 20
-6786.564
 30
-2425.000
 70
    32
  0
VERTEX
  8
7700LEVEL
 62
13
 10
1853.844
 20
-6773.645
 30
-2425.000
 70
    32
  0
VERTEX
  8
7700LEVEL
 62
13
 10
1848.652
 20
-6760.161
 30
-2425.000
 70
    32
  0
VERTEX
  8
7700LEVEL
 62
13
 10
1841.366
 20
-6744.863
 30
-2425.000
 70
    32
  0
VERTEX
  8
7700LEVEL
 62
13
 10
1837.291
 20
-6733.980
 30
-2425.000
 70
    32
  0
VERTEX
  8
7700LEVEL
 62
13
 10
1832.839
 20
-6724.187
 30
-2425.000
 70
    32
  0
VERTEX
  8
7700LEVEL
 62
13
 10
1826.318
 20
-6710.005
 30
-2425.000
 70
    32
  0
VERTEX
  8
7700LEVEL
 62
13
 10
1817.384
 20
-6693.996
 30
-2425.000
 70
    32
  0
VERTEX
  8
7700LEVEL
 62
13
 10
1809.827
 20
-6682.452
 30
-2425.000
 70
    32
  0
VERTEX
  8
7700LEVEL
 62
13
 10
1804.926
 20
-6672.306
 30
-2425.000
 70
    32
  0
VERTEX
  8
7700LEVEL
 62
13
 10
1796.994
 20
-6654.369
 30
-2425.000
 70
    32
  0
VERTEX
  8
7700LEVEL
 62
13
 10
1790.278
 20
-6637.651
 30
-2425.000
 70
    32
  0
VERTEX
  8
7700LEVEL
 62
13
 10
1784.686
 20
-6623.965
 30
-2425.000
 70
    32
  0
VERTEX
  8
7700LEVEL
 62
13
 10
1783.155
 20
-6616.683
 30
-2425.000
 70
    32
  0
VERTEX
  8
7700LEVEL
 62
13
 10
1781.912
 20
-6606.258
 30
-2425.000
 70
    32
  0
VERTEX
  8
7700LEVEL
 62
13
 10
1782.410
 20
-6598.096
 30
-2425.000
 70
    32
  0
VERTEX
  8
7700LEVEL
 62
13
 10
1783.639
 20
-6584.529
 30
-2425.000
 70
    32
  0
VERTEX
  8
7700LEVEL
 62
13
 10
1783.572
 20
-6577.036
 30
-2425.000
 70
    32
  0
VERTEX
  8
7700LEVEL
 62
13
 10
1783.410
 20
-6566.807
 30
-2425.000
 70
    32
  0
VERTEX
  8
7700LEVEL
 62
13
 10
1782.430
 20
-6557.745
 30
-2425.000
 70
    32
  0
VERTEX
  8
7700LEVEL
 62
13
 10
1780.914
 20
-6546.025
 30
-2425.000
 70
    32
  0
VERTEX
  8
7700LEVEL
 62
13
 10
1780.646
 20
-6533.382
 30
-2425.000
 70
    32
  0
VERTEX
  8
7700LEVEL
 62
13
 10
1779.410
 20
-6527.003
 30
-2425.000
 70
    32
  0
VERTEX
  8
7700LEVEL
 62
13
 10
1779.661
 20
-6521.705
 30
-2425.000
 70
    32
  0
VERTEX
  8
7700LEVEL
 62
13
 10
1781.209
 20
-6510.334
 30
-2425.000
 70
    32
  0
VERTEX
  8
7700LEVEL
 62
13
 10
1780.189
 20
-6496.003
 30
-2425.000
 70
    32
  0
VERTEX
  8
7700LEVEL
 62
13
 10
1780.236
 20
-6480.756
 30
-2425.000
 70
    32
  0
VERTEX
  8
7700LEVEL
 62
13
 10
1781.144
 20
-6467.428
 30
-2425.000
 70
    32
  0
VERTEX
  8
7700LEVEL
 62
13
 10
1782.368
 20
-6454.862
 30
-2425.000
 70
    32
  0
VERTEX
  8
7700LEVEL
 62
13
 10
1783.615
 20
-6441.656
 30
-2425.000
 70
    32
  0
VERTEX
  8
7700LEVEL
 62
13
 10
1784.628
 20
-6430.993
 30
-2425.000
 70
    32
  0
VERTEX
  8
7700LEVEL
 62
13
 10
1786.114
 20
-6419.792
 30
-2425.000
 70
    32
  0
VERTEX
  8
7700LEVEL
 62
13
 10
1787.414
 20
-6411.535
 30
-2425.000
 70
    32
  0
VERTEX
  8
7700LEVEL
 62
13
 10
1790.425
 20
-6405.251
 30
-2425.000
 70
    32
  0
VERTEX
  8
7700LEVEL
 62
13
 10
1792.653
 20
-6402.789
 30
-2425.000
 70
    32
  0
VERTEX
  8
7700LEVEL
 62
13
 10
1795.289
 20
-6402.644
 30
-2425.000
 70
    32
  0
VERTEX
  8
7700LEVEL
 62
13
 10
1800.066
 20
-6406.398
 30
-2425.000
 70
    32
  0
VERTEX
  8
7700LEVEL
 62
13
 10
1802.807
 20
-6408.667
 30
-2425.000
 70
    32
  0
VERTEX
  8
7700LEVEL
 62
13
 10
1807.964
 20
-6409.148
 30
-2425.000
 70
    32
  0
VERTEX
  8
7700LEVEL
 62
13
 10
1807.145
 20
-6399.967
 30
-2425.000
 70
    32
  0
VERTEX
  8
7700LEVEL
 62
13
 10
1806.038
 20
-6390.313
 30
-2425.000
 70
    32
  0
VERTEX
  8
7700LEVEL
 62
13
 10
1803.017
 20
-6380.769
 30
-2425.000
 70
    32
  0
VERTEX
  8
7700LEVEL
 62
13
 10
1801.741
 20
-6372.738
 30
-2425.000
 70
    32
  0
VERTEX
  8
7700LEVEL
 62
13
 10
1802.255
 20
-6370.487
 30
-2425.000
 70
    32
  0
VERTEX
  8
7700LEVEL
 62
13
 10
1806.494
 20
-6375.450
 30
-2425.000
 70
    32
  0
VERTEX
  8
7700LEVEL
 62
13
 10
1810.780
 20
-6382.747
 30
-2425.000
 70
    32
  0
VERTEX
  8
7700LEVEL
 62
13
 10
1819.483
 20
-6397.182
 30
-2425.000
 70
    32
  0
VERTEX
  8
7700LEVEL
 62
13
 10
1827.347
 20
-6409.309
 30
-2425.000
 70
    32
  0
VERTEX
  8
7700LEVEL
 62
13
 10
1836.361
 20
-6421.892
 30
-2425.000
 70
    32
  0
VERTEX
  8
7700LEVEL
 62
13
 10
1841.007
 20
-6431.105
 30
-2425.000
 70
    32
  0
VERTEX
  8
7700LEVEL
 62
13
 10
1843.591
 20
-6445.275
 30
-2425.000
 70
    32
  0
VERTEX
  8
7700LEVEL
 62
13
 10
1843.398
 20
-6464.869
 30
-2425.000
 70
    32
  0
VERTEX
  8
7700LEVEL
 62
13
 10
1845.038
 20
-6475.998
 30
-2425.000
 70
    32
  0
VERTEX
  8
7700LEVEL
 62
13
 10
1847.996
 20
-6492.945
 30
-2425.000
 70
    32
  0
VERTEX
  8
7700LEVEL
 62
13
 10
1852.639
 20
-6507.958
 30
-2425.000
 70
    32
  0
VERTEX
  8
7700LEVEL
 62
13
 10
1854.862
 20
-6515.163
 30
-2425.000
 70
    32
  0
VERTEX
  8
7700LEVEL
 62
13
 10
1856.978
 20
-6525.253
 30
-2425.000
 70
    32
  0
VERTEX
  8
7700LEVEL
 62
13
 10
1859.636
 20
-6533.383
 30
-2425.000
 70
    32
  0
VERTEX
  8
7700LEVEL
 62
13
 10
1863.234
 20
-6540.005
 30
-2425.000
 70
    32
  0
VERTEX
  8
7700LEVEL
 62
13
 10
1866.657
 20
-6540.585
 30
-2425.000
 70
    32
  0
VERTEX
  8
7700LEVEL
 62
13
 10
1871.236
 20
-6538.688
 30
-2425.000
 70
    32
  0
VERTEX
  8
7700LEVEL
 62
13
 10
1877.630
 20
-6533.015
 30
-2425.000
 70
    32
  0
VERTEX
  8
7700LEVEL
 62
13
 10
1884.379
 20
-6530.008
 30
-2425.000
 70
    32
  0
VERTEX
  8
7700LEVEL
 62
13
 10
1891.895
 20
-6529.550
 30
-2425.000
 70
    32
  0
VERTEX
  8
7700LEVEL
 62
13
 10
1896.373
 20
-6529.536
 30
-2425.000
 70
    32
  0
VERTEX
  8
7700LEVEL
 62
13
 10
1902.847
 20
-6529.102
 30
-2425.000
 70
    32
  0
VERTEX
  8
7700LEVEL
 62
13
 10
1905.573
 20
-6527.144
 30
-2425.000
 70
    32
  0
VERTEX
  8
7700LEVEL
 62
13
 10
1905.024
 20
-6519.758
 30
-2425.000
 70
    32
  0
VERTEX
  8
7700LEVEL
 62
13
 10
1904.550
 20
-6514.997
 30
-2425.000
 70
    32
  0
VERTEX
  8
7700LEVEL
 62
13
 10
1905.607
 20
-6512.468
 30
-2425.000
 70
    32
  0
VERTEX
  8
7700LEVEL
 62
13
 10
1907.481
 20
-6512.389
 30
-2425.000
 70
    32
  0
VERTEX
  8
7700LEVEL
 62
13
 10
1913.407
 20
-6514.917
 30
-2425.000
 70
    32
  0
VERTEX
  8
7700LEVEL
 62
13
 10
1918.470
 20
-6517.711
 30
-2425.000
 70
    32
  0
VERTEX
  8
7700LEVEL
 62
13
 10
1920.813
 20
-6517.844
 30
-2425.000
 70
    32
  0
VERTEX
  8
7700LEVEL
 62
13
 10
1923.858
 20
-6510.849
 30
-2425.000
 70
    32
  0
VERTEX
  8
7700LEVEL
 62
13
 10
1924.565
 20
-6504.653
 30
-2425.000
 70
    32
  0
VERTEX
  8
7700LEVEL
 62
13
 10
1924.992
 20
-6496.480
 30
-2425.000
 70
    32
  0
VERTEX
  8
7700LEVEL
 62
13
 10
1920.229
 20
-6486.856
 30
-2425.000
 70
    32
  0
VERTEX
  8
7700LEVEL
 62
13
 10
1907.954
 20
-6471.639
 30
-2425.000
 70
    32
  0
VERTEX
  8
7700LEVEL
 62
13
 10
1890.952
 20
-6456.185
 30
-2425.000
 70
    32
  0
VERTEX
  8
7700LEVEL
 62
13
 10
1874.052
 20
-6442.214
 30
-2425.000
 70
    32
  0
VERTEX
  8
7700LEVEL
 62
13
 10
1859.440
 20
-6429.227
 30
-2425.000
 70
    32
  0
VERTEX
  8
7700LEVEL
 62
13
 10
1852.315
 20
-6422.725
 30
-2425.000
 70
    32
  0
VERTEX
  8
7700LEVEL
 62
13
 10
1847.252
 20
-6407.649
 30
-2425.000
 70
    32
  0
VERTEX
  8
7700LEVEL
 62
13
 10
1849.939
 20
-6393.189
 30
-2425.000
 70
    32
  0
VERTEX
  8
7700LEVEL
 62
13
 10
1851.780
 20
-6374.306
 30
-2425.000
 70
    32
  0
VERTEX
  8
7700LEVEL
 62
13
 10
1851.304
 20
-6366.430
 30
-2425.000
 70
    32
  0
VERTEX
  8
7700LEVEL
 62
13
 10
1847.950
 20
-6357.444
 30
-2425.000
 70
    32
  0
VERTEX
  8
7700LEVEL
 62
13
 10
1846.220
 20
-6349.811
 30
-2425.000
 70
    32
  0
VERTEX
  8
7700LEVEL
 62
13
 10
1844.941
 20
-6335.298
 30
-2425.000
 70
    32
  0
VERTEX
  8
7700LEVEL
 62
13
 10
1844.405
 20
-6327.341
 30
-2425.000
 70
    32
  0
VERTEX
  8
7700LEVEL
 62
13
 10
1845.490
 20
-6323.420
 30
-2425.000
 70
    32
  0
VERTEX
  8
7700LEVEL
 62
13
 10
1847.931
 20
-6325.788
 30
-2425.000
 70
    32
  0
VERTEX
  8
7700LEVEL
 62
13
 10
1853.950
 20
-6338.285
 30
-2425.000
 70
    32
  0
VERTEX
  8
7700LEVEL
 62
13
 10
1858.664
 20
-6347.759
 30
-2425.000
 70
    32
  0
VERTEX
  8
7700LEVEL
 62
13
 10
1866.011
 20
-6364.570
 30
-2425.000
 70
    32
  0
VERTEX
  8
7700LEVEL
 62
13
 10
1872.776
 20
-6378.073
 30
-2425.000
 70
    32
  0
VERTEX
  8
7700LEVEL
 62
13
 10
1878.509
 20
-6388.163
 30
-2425.000
 70
    32
  0
VERTEX
  8
7700LEVEL
 62
13
 10
1886.164
 20
-6400.008
 30
-2425.000
 70
    32
  0
VERTEX
  8
7700LEVEL
 62
13
 10
1892.775
 20
-6409.012
 30
-2425.000
 70
    32
  0
VERTEX
  8
7700LEVEL
 62
13
 10
1899.509
 20
-6417.425
 30
-2425.000
 70
    32
  0
VERTEX
  8
7700LEVEL
 62
13
 10
1903.062
 20
-6421.462
 30
-2425.000
 70
    32
  0
VERTEX
  8
7700LEVEL
 62
13
 10
1903.424
 20
-6421.194
 30
-2425.000
 70
    32
  0
VERTEX
  8
7700LEVEL
 62
13
 10
1903.058
 20
-6416.914
 30
-2425.000
 70
    32
  0
VERTEX
  8
7700LEVEL
 62
13
 10
1903.579
 20
-6413.411
 30
-2425.000
 70
    32
  0
VERTEX
  8
7700LEVEL
 62
13
 10
1904.194
 20
-6403.978
 30
-2425.000
 70
    32
  0
VERTEX
  8
7700LEVEL
 62
13
 10
1902.566
 20
-6396.145
 30
-2425.000
 70
    32
  0
VERTEX
  8
7700LEVEL
 62
13
 10
1899.379
 20
-6387.471
 30
-2425.000
 70
    32
  0
VERTEX
  8
7700LEVEL
 62
13
 10
1893.119
 20
-6371.537
 30
-2425.000
 70
    32
  0
VERTEX
  8
7700LEVEL
 62
13
 10
1887.316
 20
-6356.387
 30
-2425.000
 70
    32
  0
VERTEX
  8
7700LEVEL
 62
13
 10
1883.181
 20
-6345.424
 30
-2425.000
 70
    32
  0
VERTEX
  8
7700LEVEL
 62
13
 10
1876.107
 20
-6328.224
 30
-2425.000
 70
    32
  0
VERTEX
  8
7700LEVEL
 62
13
 10
1875.041
 20
-6318.290
 30
-2425.000
 70
    32
  0
VERTEX
  8
7700LEVEL
 62
13
 10
1873.845
 20
-6301.533
 30
-2425.000
 70
    32
  0
VERTEX
  8
7700LEVEL
 62
13
 10
1868.062
 20
-6284.560
 30
-2425.000
 70
    32
  0
VERTEX
  8
7700LEVEL
 62
13
 10
1861.901
 20
-6273.976
 30
-2425.000
 70
    32
  0
VERTEX
  8
7700LEVEL
 62
13
 10
1855.089
 20
-6256.456
 30
-2425.000
 70
    32
  0
VERTEX
  8
7700LEVEL
 62
13
 10
1846.570
 20
-6232.596
 30
-2425.000
 70
    32
  0
VERTEX
  8
7700LEVEL
 62
13
 10
1840.265
 20
-6219.376
 30
-2425.000
 70
    32
  0
VERTEX
  8
7700LEVEL
 62
13
 10
1831.752
 20
-6201.496
 30
-2425.000
 70
    32
  0
VERTEX
  8
7700LEVEL
 62
13
 10
1824.959
 20
-6184.086
 30
-2425.000
 70
    32
  0
VERTEX
  8
7700LEVEL
 62
13
 10
1822.369
 20
-6172.852
 30
-2425.000
 70
    32
  0
VERTEX
  8
7700LEVEL
 62
13
 10
1820.864
 20
-6157.446
 30
-2425.000
 70
    32
  0
VERTEX
  8
7700LEVEL
 62
13
 10
1821.857
 20
-6146.672
 30
-2425.000
 70
    32
  0
VERTEX
  8
7700LEVEL
 62
13
 10
1821.834
 20
-6138.398
 30
-2425.000
 70
    32
  0
VERTEX
  8
7700LEVEL
 62
13
 10
1822.290
 20
-6135.816
 30
-2425.000
 70
    32
  0
VERTEX
  8
7700LEVEL
 62
13
 10
1824.322
 20
-6137.801
 30
-2425.000
 70
    32
  0
VERTEX
  8
7700LEVEL
 62
13
 10
1826.009
 20
-6140.665
 30
-2425.000
 70
    32
  0
VERTEX
  8
7700LEVEL
 62
13
 10
1829.109
 20
-6145.101
 30
-2425.000
 70
    32
  0
VERTEX
  8
7700LEVEL
 62
13
 10
1830.685
 20
-6146.302
 30
-2425.000
 70
    32
  0
VERTEX
  8
7700LEVEL
 62
13
 10
1833.541
 20
-6144.435
 30
-2425.000
 70
    32
  0
VERTEX
  8
7700LEVEL
 62
13
 10
1835.518
 20
-6140.289
 30
-2425.000
 70
    32
  0
VERTEX
  8
7700LEVEL
 62
13
 10
1836.298
 20
-6131.668
 30
-2425.000
 70
    32
  0
VERTEX
  8
7700LEVEL
 62
13
 10
1834.322
 20
-6114.617
 30
-2425.000
 70
    32
  0
VERTEX
  8
7700LEVEL
 62
13
 10
1830.426
 20
-6103.976
 30
-2425.000
 70
    32
  0
VERTEX
  8
7700LEVEL
 62
13
 10
1825.355
 20
-6090.403
 30
-2425.000
 70
    32
  0
VERTEX
  8
7700LEVEL
 62
13
 10
1816.606
 20
-6070.017
 30
-2425.000
 70
    32
  0
VERTEX
  8
7700LEVEL
 62
13
 10
1804.248
 20
-6044.761
 30
-2425.000
 70
    32
  0
VERTEX
  8
7700LEVEL
 62
13
 10
1799.203
 20
-6030.047
 30
-2425.000
 70
    32
  0
VERTEX
  8
7700LEVEL
 62
13
 10
1791.411
 20
-6008.764
 30
-2425.000
 70
    32
  0
VERTEX
  8
7700LEVEL
 62
13
 10
1784.387
 20
-5993.147
 30
-2425.000
 70
    32
  0
VERTEX
  8
7700LEVEL
 62
13
 10
1781.122
 20
-5984.282
 30
-2425.000
 70
    32
  0
VERTEX
  8
7700LEVEL
 62
13
 10
1780.546
 20
-5978.288
 30
-2425.000
 70
    32
  0
VERTEX
  8
7700LEVEL
 62
13
 10
1780.233
 20
-5968.109
 30
-2425.000
 70
    32
  0
VERTEX
  8
7700LEVEL
 62
13
 10
1783.713
 20
-5956.989
 30
-2425.000
 70
    32
  0
VERTEX
  8
7700LEVEL
 62
13
 10
1786.932
 20
-5947.621
 30
-2425.000
 70
    32
  0
VERTEX
  8
7700LEVEL
 62
13
 10
1788.961
 20
-5941.441
 30
-2425.000
 70
    32
  0
VERTEX
  8
7700LEVEL
 62
13
 10
1791.209
 20
-5930.174
 30
-2425.000
 70
    32
  0
VERTEX
  8
7700LEVEL
 62
13
 10
1792.781
 20
-5919.845
 30
-2425.000
 70
    32
  0
VERTEX
  8
7700LEVEL
 62
13
 10
1793.885
 20
-5910.735
 30
-2425.000
 70
    32
  0
VERTEX
  8
7700LEVEL
 62
13
 10
1792.639
 20
-5897.444
 30
-2425.000
 70
    32
  0
VERTEX
  8
7700LEVEL
 62
13
 10
1787.816
 20
-5885.806
 30
-2425.000
 70
    32
  0
VERTEX
  8
7700LEVEL
 62
13
 10
1783.467
 20
-5879.180
 30
-2425.000
 70
    32
  0
VERTEX
  8
7700LEVEL
 62
13
 10
1780.716
 20
-5878.413
 30
-2425.000
 70
    32
  0
VERTEX
  8
7700LEVEL
 62
13
 10
1778.797
 20
-5882.890
 30
-2425.000
 70
    32
  0
VERTEX
  8
7700LEVEL
 62
13
 10
1776.688
 20
-5894.428
 30
-2425.000
 70
    32
  0
VERTEX
  8
7700LEVEL
 62
13
 10
1773.981
 20
-5905.162
 30
-2425.000
 70
    32
  0
VERTEX
  8
7700LEVEL
 62
13
 10
1771.537
 20
-5910.527
 30
-2425.000
 70
    32
  0
VERTEX
  8
7700LEVEL
 62
13
 10
1768.856
 20
-5909.770
 30
-2425.000
 70
    32
  0
VERTEX
  8
7700LEVEL
 62
13
 10
1764.686
 20
-5905.068
 30
-2425.000
 70
    32
  0
VERTEX
  8
7700LEVEL
 62
13
 10
1760.014
 20
-5900.363
 30
-2425.000
 70
    32
  0
VERTEX
  8
7700LEVEL
 62
13
 10
1757.094
 20
-5899.535
 30
-2425.000
 70
    32
  0
VERTEX
  8
7700LEVEL
 62
13
 10
1755.992
 20
-5906.461
 30
-2425.000
 70
    32
  0
VERTEX
  8
7700LEVEL
 62
13
 10
1756.089
 20
-5917.611
 30
-2425.000
 70
    32
  0
VERTEX
  8
7700LEVEL
 62
13
 10
1756.482
 20
-5929.415
 30
-2425.000
 70
    32
  0
VERTEX
  8
7700LEVEL
 62
13
 10
1759.997
 20
-5940.214
 30
-2425.000
 70
    32
  0
VERTEX
  8
7700LEVEL
 62
13
 10
1760.599
 20
-5945.316
 30
-2425.000
 70
    32
  0
VERTEX
  8
7700LEVEL
 62
13
 10
1760.152
 20
-5948.079
 30
-2425.000
 70
    32
  0
VERTEX
  8
7700LEVEL
 62
13
 10
1757.515
 20
-5946.791
 30
-2425.000
 70
    32
  0
VERTEX
  8
7700LEVEL
 62
13
 10
1754.899
 20
-5943.430
 30
-2425.000
 70
    32
  0
VERTEX
  8
7700LEVEL
 62
13
 10
1743.498
 20
-5922.578
 30
-2425.000
 70
    32
  0
VERTEX
  8
7700LEVEL
 62
13
 10
1735.918
 20
-5909.742
 30
-2425.000
 70
    32
  0
VERTEX
  8
7700LEVEL
 62
13
 10
1732.399
 20
-5899.694
 30
-2425.000
 70
    32
  0
VERTEX
  8
7700LEVEL
 62
13
 10
1729.719
 20
-5886.656
 30
-2425.000
 70
    32
  0
VERTEX
  8
7700LEVEL
 62
13
 10
1728.985
 20
-5871.365
 30
-2425.000
 70
    32
  0
VERTEX
  8
7700LEVEL
 62
13
 10
1728.914
 20
-5857.390
 30
-2425.000
 70
    32
  0
VERTEX
  8
7700LEVEL
 62
13
 10
1728.191
 20
-5847.328
 30
-2425.000
 70
    32
  0
VERTEX
  8
7700LEVEL
 62
13
 10
1728.184
 20
-5837.981
 30
-2425.000
 70
    32
  0
VERTEX
  8
7700LEVEL
 62
13
 10
1727.823
 20
-5824.034
 30
-2425.000
 70
    32
  0
VERTEX
  8
7700LEVEL
 62
13
 10
1728.467
 20
-5811.276
 30
-2425.000
 70
    32
  0
VERTEX
  8
7700LEVEL
 62
13
 10
1730.035
 20
-5798.081
 30
-2425.000
 70
    32
  0
VERTEX
  8
7700LEVEL
 62
13
 10
1732.293
 20
-5783.378
 30
-2425.000
 70
    32
  0
VERTEX
  8
7700LEVEL
 62
13
 10
1732.934
 20
-5771.120
 30
-2425.000
 70
    32
  0
VERTEX
  8
7700LEVEL
 62
13
 10
1729.843
 20
-5759.882
 30
-2425.000
 70
    32
  0
VERTEX
  8
7700LEVEL
 62
13
 10
1721.415
 20
-5748.174
 30
-2425.000
 70
    32
  0
VERTEX
  8
7700LEVEL
 62
13
 10
1711.947
 20
-5737.921
 30
-2425.000
 70
    32
  0
VERTEX
  8
7700LEVEL
 62
13
 10
1701.575
 20
-5726.282
 30
-2425.000
 70
    32
  0
VERTEX
  8
7700LEVEL
 62
13
 10
1692.114
 20
-5711.161
 30
-2425.000
 70
    32
  0
VERTEX
  8
7700LEVEL
 62
13
 10
1683.450
 20
-5696.946
 30
-2425.000
 70
    32
  0
VERTEX
  8
7700LEVEL
 62
13
 10
1678.146
 20
-5687.349
 30
-2425.000
 70
    32
  0
VERTEX
  8
7700LEVEL
 62
13
 10
1671.021
 20
-5677.230
 30
-2425.000
 70
    32
  0
VERTEX
  8
7700LEVEL
 62
13
 10
1656.822
 20
-5663.876
 30
-2425.000
 70
    32
  0
VERTEX
  8
7700LEVEL
 62
13
 10
1648.959
 20
-5654.865
 30
-2425.000
 70
    32
  0
VERTEX
  8
7700LEVEL
 62
13
 10
1637.246
 20
-5639.481
 30
-2425.000
 70
    32
  0
VERTEX
  8
7700LEVEL
 62
13
 10
1629.568
 20
-5626.343
 30
-2425.000
 70
    32
  0
VERTEX
  8
7700LEVEL
 62
13
 10
1619.637
 20
-5607.644
 30
-2425.000
 70
    32
  0
VERTEX
  8
7700LEVEL
 62
13
 10
1612.731
 20
-5594.371
 30
-2425.000
 70
    32
  0
VERTEX
  8
7700LEVEL
 62
13
 10
1608.465
 20
-5585.250
 30
-2425.000
 70
    32
  0
VERTEX
  8
7700LEVEL
 62
13
 10
1607.373
 20
-5581.758
 30
-2425.000
 70
    32
  0
VERTEX
  8
7700LEVEL
 62
13
 10
1607.374
 20
-5579.824
 30
-2425.000
 70
    32
  0
VERTEX
  8
7700LEVEL
 62
13
 10
1608.416
 20
-5579.800
 30
-2425.000
 70
    32
  0
VERTEX
  8
7700LEVEL
 62
13
 10
1610.492
 20
-5581.255
 30
-2425.000
 70
    32
  0
VERTEX
  8
7700LEVEL
 62
13
 10
1616.260
 20
-5586.767
 30
-2425.000
 70
    32
  0
VERTEX
  8
7700LEVEL
 62
13
 10
1620.757
 20
-5592.163
 30
-2425.000
 70
    32
  0
VERTEX
  8
7700LEVEL
 62
13
 10
1630.105
 20
-5604.187
 30
-2425.000
 70
    32
  0
VERTEX
  8
7700LEVEL
 62
13
 10
1640.282
 20
-5614.975
 30
-2425.000
 70
    32
  0
VERTEX
  8
7700LEVEL
 62
13
 10
1650.203
 20
-5623.146
 30
-2425.000
 70
    32
  0
VERTEX
  8
7700LEVEL
 62
13
 10
1660.097
 20
-5632.459
 30
-2425.000
 70
    32
  0
VERTEX
  8
7700LEVEL
 62
13
 10
1667.919
 20
-5639.816
 30
-2425.000
 70
    32
  0
VERTEX
  8
7700LEVEL
 62
13
 10
1676.912
 20
-5645.558
 30
-2425.000
 70
    32
  0
VERTEX
  8
7700LEVEL
 62
13
 10
1684.453
 20
-5649.508
 30
-2425.000
 70
    32
  0
VERTEX
  8
7700LEVEL
 62
13
 10
1691.616
 20
-5652.865
 30
-2425.000
 70
    32
  0
VERTEX
  8
7700LEVEL
 62
13
 10
1693.752
 20
-5652.466
 30
-2425.000
 70
    32
  0
VERTEX
  8
7700LEVEL
 62
13
 10
1692.607
 20
-5649.575
 30
-2425.000
 70
    32
  0
VERTEX
  8
7700LEVEL
 62
13
 10
1689.435
 20
-5645.379
 30
-2425.000
 70
    32
  0
VERTEX
  8
7700LEVEL
 62
13
 10
1688.066
 20
-5643.027
 30
-2425.000
 70
    32
  0
VERTEX
  8
7700LEVEL
 62
13
 10
1687.000
 20
-5640.326
 30
-2425.000
 70
    32
  0
VERTEX
  8
7700LEVEL
 62
13
 10
1692.295
 20
-5642.761
 30
-2425.000
 70
    32
  0
VERTEX
  8
7700LEVEL
 62
13
 10
1698.621
 20
-5645.492
 30
-2425.000
 70
    32
  0
VERTEX
  8
7700LEVEL
 62
13
 10
1705.510
 20
-5647.805
 30
-2425.000
 70
    32
  0
VERTEX
  8
7700LEVEL
 62
13
 10
1709.849
 20
-5647.519
 30
-2425.000
 70
    32
  0
VERTEX
  8
7700LEVEL
 62
13
 10
1711.586
 20
-5643.302
 30
-2425.000
 70
    32
  0
VERTEX
  8
7700LEVEL
 62
13
 10
1711.386
 20
-5636.218
 30
-2425.000
 70
    32
  0
VERTEX
  8
7700LEVEL
 62
13
 10
1705.838
 20
-5623.684
 30
-2425.000
 70
    32
  0
VERTEX
  8
7700LEVEL
 62
13
 10
1699.365
 20
-5613.519
 30
-2425.000
 70
    32
  0
VERTEX
  8
7700LEVEL
 62
13
 10
1691.149
 20
-5603.274
 30
-2425.000
 70
    32
  0
VERTEX
  8
7700LEVEL
 62
13
 10
1682.967
 20
-5595.684
 30
-2425.000
 70
    32
  0
VERTEX
  8
7700LEVEL
 62
13
 10
1678.123
 20
-5591.419
 30
-2425.000
 70
    32
  0
VERTEX
  8
7700LEVEL
 62
13
 10
1675.727
 20
-5589.953
 30
-2425.000
 70
    32
  0
VERTEX
  8
7700LEVEL
 62
13
 10
1674.022
 20
-5590.344
 30
-2425.000
 70
    32
  0
VERTEX
  8
7700LEVEL
 62
13
 10
1673.345
 20
-5593.215
 30
-2425.000
 70
    32
  0
VERTEX
  8
7700LEVEL
 62
13
 10
1673.687
 20
-5598.135
 30
-2425.000
 70
    32
  0
VERTEX
  8
7700LEVEL
 62
13
 10
1676.439
 20
-5603.951
 30
-2425.000
 70
    32
  0
VERTEX
  8
7700LEVEL
 62
13
 10
1677.313
 20
-5606.982
 30
-2425.000
 70
    32
  0
VERTEX
  8
7700LEVEL
 62
13
 10
1674.684
 20
-5607.808
 30
-2425.000
 70
    32
  0
VERTEX
  8
7700LEVEL
 62
13
 10
1666.641
 20
-5604.106
 30
-2425.000
 70
    32
  0
VERTEX
  8
7700LEVEL
 62
13
 10
1656.192
 20
-5597.074
 30
-2425.000
 70
    32
  0
VERTEX
  8
7700LEVEL
 62
13
 10
1647.519
 20
-5589.661
 30
-2425.000
 70
    32
  0
VERTEX
  8
7700LEVEL
 62
13
 10
1643.293
 20
-5584.127
 30
-2425.000
 70
    32
  0
VERTEX
  8
7700LEVEL
 62
13
 10
1640.490
 20
-5578.661
 30
-2425.000
 70
    32
  0
VERTEX
  8
7700LEVEL
 62
13
 10
1636.785
 20
-5571.307
 30
-2425.000
 70
    32
  0
VERTEX
  8
7700LEVEL
 62
13
 10
1635.938
 20
-5568.818
 30
-2425.000
 70
    32
  0
VERTEX
  8
7700LEVEL
 62
13
 10
1637.506
 20
-5567.905
 30
-2425.000
 70
    32
  0
VERTEX
  8
7700LEVEL
 62
13
 10
1642.182
 20
-5569.926
 30
-2425.000
 70
    32
  0
VERTEX
  8
7700LEVEL
 62
13
 10
1646.734
 20
-5572.787
 30
-2425.000
 70
    32
  0
VERTEX
  8
7700LEVEL
 62
13
 10
1653.727
 20
-5579.699
 30
-2425.000
 70
    32
  0
VERTEX
  8
7700LEVEL
 62
13
 10
1658.099
 20
-5585.935
 30
-2425.000
 70
    32
  0
VERTEX
  8
7700LEVEL
 62
13
 10
1660.588
 20
-5588.704
 30
-2425.000
 70
    32
  0
VERTEX
  8
7700LEVEL
 62
13
 10
1661.278
 20
-5588.878
 30
-2425.000
 70
    32
  0
VERTEX
  8
7700LEVEL
 62
13
 10
1660.886
 20
-5583.807
 30
-2425.000
 70
    32
  0
VERTEX
  8
7700LEVEL
 62
13
 10
1657.464
 20
-5577.927
 30
-2425.000
 70
    32
  0
VERTEX
  8
7700LEVEL
 62
13
 10
1651.892
 20
-5566.034
 30
-2425.000
 70
    32
  0
VERTEX
  8
7700LEVEL
 62
13
 10
1649.804
 20
-5561.534
 30
-2425.000
 70
    32
  0
VERTEX
  8
7700LEVEL
 62
13
 10
1646.995
 20
-5551.771
 30
-2425.000
 70
    32
  0
VERTEX
  8
7700LEVEL
 62
13
 10
1647.062
 20
-5546.983
 30
-2425.000
 70
    32
  0
VERTEX
  8
7700LEVEL
 62
13
 10
1647.491
 20
-5545.543
 30
-2425.000
 70
    32
  0
VERTEX
  8
7700LEVEL
 62
13
 10
1650.142
 20
-5546.259
 30
-2425.000
 70
    32
  0
VERTEX
  8
7700LEVEL
 62
13
 10
1658.336
 20
-5551.595
 30
-2425.000
 70
    32
  0
VERTEX
  8
7700LEVEL
 62
13
 10
1666.572
 20
-5560.017
 30
-2425.000
 70
    32
  0
VERTEX
  8
7700LEVEL
 62
13
 10
1673.513
 20
-5567.280
 30
-2425.000
 70
    32
  0
VERTEX
  8
7700LEVEL
 62
13
 10
1679.508
 20
-5571.752
 30
-2425.000
 70
    32
  0
VERTEX
  8
7700LEVEL
 62
13
 10
1684.170
 20
-5574.594
 30
-2425.000
 70
    32
  0
VERTEX
  8
7700LEVEL
 62
13
 10
1686.421
 20
-5575.107
 30
-2425.000
 70
    32
  0
VERTEX
  8
7700LEVEL
 62
13
 10
1686.877
 20
-5572.525
 30
-2425.000
 70
    32
  0
VERTEX
  8
7700LEVEL
 62
13
 10
1686.782
 20
-5568.107
 30
-2425.000
 70
    32
  0
VERTEX
  8
7700LEVEL
 62
13
 10
1687.301
 20
-5564.854
 30
-2425.000
 70
    32
  0
VERTEX
  8
7700LEVEL
 62
13
 10
1689.900
 20
-5565.921
 30
-2425.000
 70
    32
  0
VERTEX
  8
7700LEVEL
 62
13
 10
1697.142
 20
-5569.469
 30
-2425.000
 70
    32
  0
VERTEX
  8
7700LEVEL
 62
13
 10
1704.988
 20
-5570.886
 30
-2425.000
 70
    32
  0
VERTEX
  8
7700LEVEL
 62
13
 10
1710.465
 20
-5569.695
 30
-2425.000
 70
    32
  0
VERTEX
  8
7700LEVEL
 62
13
 10
1712.898
 20
-5568.016
 30
-2425.000
 70
    32
  0
VERTEX
  8
7700LEVEL
 62
13
 10
1714.197
 20
-5561.692
 30
-2425.000
 70
    32
  0
VERTEX
  8
7700LEVEL
 62
13
 10
1714.621
 20
-5554.021
 30
-2425.000
 70
    32
  0
VERTEX
  8
7700LEVEL
 62
13
 10
1715.127
 20
-5547.973
 30
-2425.000
 70
    32
  0
VERTEX
  8
7700LEVEL
 62
13
 10
1715.831
 20
-5545.643
 30
-2425.000
 70
    32
  0
VERTEX
  8
7700LEVEL
 62
13
 10
1717.222
 20
-5545.922
 30
-2425.000
 70
    32
  0
VERTEX
  8
7700LEVEL
 62
13
 10
1719.651
 20
-5548.610
 30
-2425.000
 70
    32
  0
VERTEX
  8
7700LEVEL
 62
13
 10
1721.335
 20
-5550.293
 30
-2425.000
 70
    32
  0
VERTEX
  8
7700LEVEL
 62
13
 10
1722.655
 20
-5550.561
 30
-2425.000
 70
    32
  0
VERTEX
  8
7700LEVEL
 62
13
 10
1724.127
 20
-5547.163
 30
-2425.000
 70
    32
  0
VERTEX
  8
7700LEVEL
 62
13
 10
1724.303
 20
-5539.240
 30
-2425.000
 70
    32
  0
VERTEX
  8
7700LEVEL
 62
13
 10
1724.356
 20
-5531.657
 30
-2425.000
 70
    32
  0
VERTEX
  8
7700LEVEL
 62
13
 10
1724.788
 20
-5528.033
 30
-2425.000
 70
    32
  0
VERTEX
  8
7700LEVEL
 62
13
 10
1725.422
 20
-5524.010
 30
-2425.000
 70
    32
  0
VERTEX
  8
7700LEVEL
 62
13
 10
1726.118
 20
-5523.182
 30
-2425.000
 70
    32
  0
VERTEX
  8
7700LEVEL
 62
13
 10
1727.432
 20
-5526.385
 30
-2425.000
 70
    32
  0
VERTEX
  8
7700LEVEL
 62
13
 10
1728.781
 20
-5532.243
 30
-2425.000
 70
    32
  0
VERTEX
  8
7700LEVEL
 62
13
 10
1731.454
 20
-5544.851
 30
-2425.000
 70
    32
  0
VERTEX
  8
7700LEVEL
 62
13
 10
1735.334
 20
-5558.247
 30
-2425.000
 70
    32
  0
VERTEX
  8
7700LEVEL
 62
13
 10
1740.028
 20
-5571.227
 30
-2425.000
 70
    32
  0
VERTEX
  8
7700LEVEL
 62
13
 10
1743.815
 20
-5579.954
 30
-2425.000
 70
    32
  0
VERTEX
  8
7700LEVEL
 62
13
 10
1746.633
 20
-5589.897
 30
-2425.000
 70
    32
  0
VERTEX
  8
7700LEVEL
 62
13
 10
1749.955
 20
-5602.959
 30
-2425.000
 70
    32
  0
VERTEX
  8
7700LEVEL
 62
13
 10
1753.635
 20
-5616.254
 30
-2425.000
 70
    32
  0
VERTEX
  8
7700LEVEL
 62
13
 10
1754.204
 20
-5621.817
 30
-2425.000
 70
    32
  0
VERTEX
  8
7700LEVEL
 62
13
 10
1754.489
 20
-5628.090
 30
-2425.000
 70
    32
  0
VERTEX
  8
7700LEVEL
 62
13
 10
1756.861
 20
-5640.796
 30
-2425.000
 70
    32
  0
VERTEX
  8
7700LEVEL
 62
13
 10
1755.561
 20
-5649.053
 30
-2425.000
 70
    32
  0
VERTEX
  8
7700LEVEL
 62
13
 10
1753.175
 20
-5663.415
 30
-2425.000
 70
    32
  0
VERTEX
  8
7700LEVEL
 62
13
 10
1750.114
 20
-5678.464
 30
-2425.000
 70
    32
  0
VERTEX
  8
7700LEVEL
 62
13
 10
1746.502
 20
-5691.677
 30
-2425.000
 70
    32
  0
VERTEX
  8
7700LEVEL
 62
13
 10
1744.784
 20
-5701.304
 30
-2425.000
 70
    32
  0
VERTEX
  8
7700LEVEL
 62
13
 10
1748.169
 20
-5713.695
 30
-2425.000
 70
    32
  0
VERTEX
  8
7700LEVEL
 62
13
 10
1753.920
 20
-5727.513
 30
-2425.000
 70
    32
  0
VERTEX
  8
7700LEVEL
 62
13
 10
1761.512
 20
-5740.028
 30
-2425.000
 70
    32
  0
VERTEX
  8
7700LEVEL
 62
13
 10
1766.335
 20
-5748.050
 30
-2425.000
 70
    32
  0
VERTEX
  8
7700LEVEL
 62
13
 10
1774.610
 20
-5760.309
 30
-2425.000
 70
    32
  0
VERTEX
  8
7700LEVEL
 62
13
 10
1782.522
 20
-5772.836
 30
-2425.000
 70
    32
  0
VERTEX
  8
7700LEVEL
 62
13
 10
1791.135
 20
-5782.102
 30
-2425.000
 70
    32
  0
VERTEX
  8
7700LEVEL
 62
13
 10
1798.063
 20
-5789.685
 30
-2425.000
 70
    32
  0
VERTEX
  8
7700LEVEL
 62
13
 10
1804.238
 20
-5797.764
 30
-2425.000
 70
    32
  0
VERTEX
  8
7700LEVEL
 62
13
 10
1808.095
 20
-5801.202
 30
-2425.000
 70
    32
  0
VERTEX
  8
7700LEVEL
 62
13
 10
1810.333
 20
-5802.287
 30
-2425.000
 70
    32
  0
VERTEX
  8
7700LEVEL
 62
13
 10
1811.047
 20
-5800.137
 30
-2425.000
 70
    32
  0
VERTEX
  8
7700LEVEL
 62
13
 10
1806.349
 20
-5791.275
 30
-2425.000
 70
    32
  0
VERTEX
  8
7700LEVEL
 62
13
 10
1800.014
 20
-5779.698
 30
-2425.000
 70
    32
  0
VERTEX
  8
7700LEVEL
 62
13
 10
1794.057
 20
-5766.781
 30
-2425.000
 70
    32
  0
VERTEX
  8
7700LEVEL
 62
13
 10
1790.745
 20
-5759.199
 30
-2425.000
 70
    32
  0
VERTEX
  8
7700LEVEL
 62
13
 10
1788.447
 20
-5752.734
 30
-2425.000
 70
    32
  0
VERTEX
  8
7700LEVEL
 62
13
 10
1788.223
 20
-5749.908
 30
-2425.000
 70
    32
  0
VERTEX
  8
7700LEVEL
 62
13
 10
1789.286
 20
-5748.061
 30
-2425.000
 70
    32
  0
VERTEX
  8
7700LEVEL
 62
13
 10
1791.914
 20
-5749.168
 30
-2425.000
 70
    32
  0
VERTEX
  8
7700LEVEL
 62
13
 10
1795.091
 20
-5752.362
 30
-2425.000
 70
    32
  0
VERTEX
  8
7700LEVEL
 62
13
 10
1796.608
 20
-5753.482
 30
-2425.000
 70
    32
  0
VERTEX
  8
7700LEVEL
 62
13
 10
1799.097
 20
-5752.635
 30
-2425.000
 70
    32
  0
VERTEX
  8
7700LEVEL
 62
13
 10
1802.824
 20
-5754.299
 30
-2425.000
 70
    32
  0
VERTEX
  8
7700LEVEL
 62
13
 10
1806.826
 20
-5757.007
 30
-2425.000
 70
    32
  0
VERTEX
  8
7700LEVEL
 62
13
 10
1814.915
 20
-5763.044
 30
-2425.000
 70
    32
  0
VERTEX
  8
7700LEVEL
 62
13
 10
1822.020
 20
-5768.003
 30
-2425.000
 70
    32
  0
VERTEX
  8
7700LEVEL
 62
13
 10
1826.666
 20
-5771.917
 30
-2425.000
 70
    32
  0
VERTEX
  8
7700LEVEL
 62
13
 10
1832.351
 20
-5776.307
 30
-2425.000
 70
    32
  0
VERTEX
  8
7700LEVEL
 62
13
 10
1833.576
 20
-5775.773
 30
-2425.000
 70
    32
  0
VERTEX
  8
7700LEVEL
 62
13
 10
1832.130
 20
-5769.363
 30
-2425.000
 70
    32
  0
VERTEX
  8
7700LEVEL
 62
13
 10
1830.820
 20
-5767.092
 30
-2425.000
 70
    32
  0
VERTEX
  8
7700LEVEL
 62
13
 10
1829.313
 20
-5764.468
 30
-2425.000
 70
    32
  0
VERTEX
  8
7700LEVEL
 62
13
 10
1828.002
 20
-5762.447
 30
-2425.000
 70
    32
  0
VERTEX
  8
7700LEVEL
 62
13
 10
1828.759
 20
-5761.450
 30
-2425.000
 70
    32
  0
VERTEX
  8
7700LEVEL
 62
13
 10
1837.132
 20
-5767.028
 30
-2425.000
 70
    32
  0
VERTEX
  8
7700LEVEL
 62
13
 10
1846.059
 20
-5775.624
 30
-2425.000
 70
    32
  0
VERTEX
  8
7700LEVEL
 62
13
 10
1857.097
 20
-5788.079
 30
-2425.000
 70
    32
  0
VERTEX
  8
7700LEVEL
 62
13
 10
1865.952
 20
-5796.915
 30
-2425.000
 70
    32
  0
VERTEX
  8
7700LEVEL
 62
13
 10
1872.862
 20
-5811.370
 30
-2425.000
 70
    32
  0
VERTEX
  8
7700LEVEL
 62
13
 10
1880.120
 20
-5831.427
 30
-2425.000
 70
    32
  0
VERTEX
  8
7700LEVEL
 62
13
 10
1885.336
 20
-5844.270
 30
-2425.000
 70
    32
  0
VERTEX
  8
7700LEVEL
 62
13
 10
1891.034
 20
-5857.005
 30
-2425.000
 70
    32
  0
VERTEX
  8
7700LEVEL
 62
13
 10
1897.856
 20
-5865.789
 30
-2425.000
 70
    32
  0
VERTEX
  8
7700LEVEL
 62
13
 10
1904.857
 20
-5872.882
 30
-2425.000
 70
    32
  0
VERTEX
  8
7700LEVEL
 62
13
 10
1908.384
 20
-5876.378
 30
-2425.000
 70
    32
  0
VERTEX
  8
7700LEVEL
 62
13
 10
1908.684
 20
-5871.231
 30
-2425.000
 70
    32
  0
VERTEX
  8
7700LEVEL
 62
13
 10
1908.174
 20
-5865.748
 30
-2425.000
 70
    32
  0
VERTEX
  8
7700LEVEL
 62
13
 10
1910.133
 20
-5861.241
 30
-2425.000
 70
    32
  0
VERTEX
  8
7700LEVEL
 62
13
 10
1914.492
 20
-5862.749
 30
-2425.000
 70
    32
  0
VERTEX
  8
7700LEVEL
 62
13
 10
1923.067
 20
-5868.177
 30
-2425.000
 70
    32
  0
VERTEX
  8
7700LEVEL
 62
13
 10
1927.916
 20
-5869.758
 30
-2425.000
 70
    32
  0
VERTEX
  8
7700LEVEL
 62
13
 10
1930.620
 20
-5869.874
 30
-2425.000
 70
    32
  0
VERTEX
  8
7700LEVEL
 62
13
 10
1930.436
 20
-5854.736
 30
-2425.000
 70
    32
  0
VERTEX
  8
7700LEVEL
 62
13
 10
1927.448
 20
-5844.731
 30
-2425.000
 70
    32
  0
VERTEX
  8
7700LEVEL
 62
13
 10
1922.480
 20
-5832.391
 30
-2425.000
 70
    32
  0
VERTEX
  8
7700LEVEL
 62
13
 10
1913.345
 20
-5821.579
 30
-2425.000
 70
    32
  0
VERTEX
  8
7700LEVEL
 62
13
 10
1902.426
 20
-5812.902
 30
-2425.000
 70
    32
  0
VERTEX
  8
7700LEVEL
 62
13
 10
1888.009
 20
-5804.384
 30
-2425.000
 70
    32
  0
VERTEX
  8
7700LEVEL
 62
13
 10
1876.599
 20
-5795.634
 30
-2425.000
 70
    32
  0
VERTEX
  8
7700LEVEL
 62
13
 10
1858.487
 20
-5778.009
 30
-2425.000
 70
    32
  0
VERTEX
  8
7700LEVEL
 62
13
 10
1837.276
 20
-5752.332
 30
-2425.000
 70
    32
  0
VERTEX
  8
7700LEVEL
 62
13
 10
1824.126
 20
-5737.701
 30
-2425.000
 70
    32
  0
VERTEX
  8
7700LEVEL
 62
13
 10
1806.017
 20
-5721.509
 30
-2425.000
 70
    32
  0
VERTEX
  8
7700LEVEL
 62
13
 10
1784.980
 20
-5695.143
 30
-2425.000
 70
    32
  0
VERTEX
  8
7700LEVEL
 62
13
 10
1781.451
 20
-5690.464
 30
-2425.000
 70
    32
  0
VERTEX
  8
7700LEVEL
 62
13
 10
1776.395
 20
-5682.802
 30
-2425.000
 70
    32
  0
VERTEX
  8
7700LEVEL
 62
13
 10
1771.940
 20
-5675.443
 30
-2425.000
 70
    32
  0
VERTEX
  8
7700LEVEL
 62
13
 10
1769.301
 20
-5662.125
 30
-2425.000
 70
    32
  0
VERTEX
  8
7700LEVEL
 62
13
 10
1768.348
 20
-5648.305
 30
-2425.000
 70
    32
  0
VERTEX
  8
7700LEVEL
 62
13
 10
1768.495
 20
-5643.707
 30
-2425.000
 70
    32
  0
VERTEX
  8
7700LEVEL
 62
13
 10
1769.422
 20
-5642.771
 30
-2425.000
 70
    32
  0
VERTEX
  8
7700LEVEL
 62
13
 10
1772.132
 20
-5645.251
 30
-2425.000
 70
    32
  0
VERTEX
  8
7700LEVEL
 62
13
 10
1776.011
 20
-5650.232
 30
-2425.000
 70
    32
  0
VERTEX
  8
7700LEVEL
 62
13
 10
1779.288
 20
-5653.476
 30
-2425.000
 70
    32
  0
VERTEX
  8
7700LEVEL
 62
13
 10
1781.287
 20
-5654.239
 30
-2425.000
 70
    32
  0
VERTEX
  8
7700LEVEL
 62
13
 10
1784.038
 20
-5648.024
 30
-2425.000
 70
    32
  0
VERTEX
  8
7700LEVEL
 62
13
 10
1784.129
 20
-5642.595
 30
-2425.000
 70
    32
  0
VERTEX
  8
7700LEVEL
 62
13
 10
1784.335
 20
-5634.462
 30
-2425.000
 70
    32
  0
VERTEX
  8
7700LEVEL
 62
13
 10
1785.905
 20
-5627.999
 30
-2425.000
 70
    32
  0
VERTEX
  8
7700LEVEL
 62
13
 10
1787.274
 20
-5625.052
 30
-2425.000
 70
    32
  0
VERTEX
  8
7700LEVEL
 62
13
 10
1789.143
 20
-5622.358
 30
-2425.000
 70
    32
  0
VERTEX
  8
7700LEVEL
 62
13
 10
1791.384
 20
-5622.941
 30
-2425.000
 70
    32
  0
VERTEX
  8
7700LEVEL
 62
13
 10
1793.781
 20
-5625.840
 30
-2425.000
 70
    32
  0
VERTEX
  8
7700LEVEL
 62
13
 10
1797.152
 20
-5632.071
 30
-2425.000
 70
    32
  0
VERTEX
  8
7700LEVEL
 62
13
 10
1801.281
 20
-5640.419
 30
-2425.000
 70
    32
  0
VERTEX
  8
7700LEVEL
 62
13
 10
1805.304
 20
-5648.286
 30
-2425.000
 70
    32
  0
VERTEX
  8
7700LEVEL
 62
13
 10
1811.225
 20
-5660.481
 30
-2425.000
 70
    32
  0
VERTEX
  8
7700LEVEL
 62
13
 10
1820.406
 20
-5676.993
 30
-2425.000
 70
    32
  0
VERTEX
  8
7700LEVEL
 62
13
 10
1825.969
 20
-5687.022
 30
-2425.000
 70
    32
  0
VERTEX
  8
7700LEVEL
 62
13
 10
1834.521
 20
-5698.141
 30
-2425.000
 70
    32
  0
VERTEX
  8
7700LEVEL
 62
13
 10
1845.553
 20
-5709.915
 30
-2425.000
 70
    32
  0
VERTEX
  8
7700LEVEL
 62
13
 10
1858.726
 20
-5723.905
 30
-2425.000
 70
    32
  0
VERTEX
  8
7700LEVEL
 62
13
 10
1869.169
 20
-5733.621
 30
-2425.000
 70
    32
  0
VERTEX
  8
7700LEVEL
 62
13
 10
1887.260
 20
-5751.386
 30
-2425.000
 70
    32
  0
VERTEX
  8
7700LEVEL
 62
13
 10
1896.801
 20
-5761.148
 30
-2425.000
 70
    32
  0
VERTEX
  8
7700LEVEL
 62
13
 10
1905.421
 20
-5770.844
 30
-2425.000
 70
    32
  0
VERTEX
  8
7700LEVEL
 62
13
 10
1911.551
 20
-5779.705
 30
-2425.000
 70
    32
  0
VERTEX
  8
7700LEVEL
 62
13
 10
1917.099
 20
-5788.873
 30
-2425.000
 70
    32
  0
VERTEX
  8
7700LEVEL
 62
13
 10
1926.668
 20
-5805.908
 30
-2425.000
 70
    32
  0
VERTEX
  8
7700LEVEL
 62
13
 10
1933.829
 20
-5816.748
 30
-2425.000
 70
    32
  0
VERTEX
  8
7700LEVEL
 62
13
 10
1937.156
 20
-5821.826
 30
-2425.000
 70
    32
  0
VERTEX
  8
7700LEVEL
 62
13
 10
1943.487
 20
-5828.854
 30
-2425.000
 70
    32
  0
VERTEX
  8
7700LEVEL
 62
13
 10
1946.500
 20
-5830.985
 30
-2425.000
 70
    32
  0
VERTEX
  8
7700LEVEL
 62
13
 10
1949.044
 20
-5832.903
 30
-2425.000
 70
    32
  0
VERTEX
  8
7700LEVEL
 62
13
 10
1952.488
 20
-5833.344
 30
-2425.000
 70
    32
  0
VERTEX
  8
7700LEVEL
 62
13
 10
1952.955
 20
-5830.441
 30
-2425.000
 70
    32
  0
VERTEX
  8
7700LEVEL
 62
13
 10
1952.743
 20
-5828.977
 30
-2425.000
 70
    32
  0
VERTEX
  8
7700LEVEL
 62
13
 10
1953.950
 20
-5828.083
 30
-2425.000
 70
    32
  0
VERTEX
  8
7700LEVEL
 62
13
 10
1959.261
 20
-5831.379
 30
-2425.000
 70
    32
  0
VERTEX
  8
7700LEVEL
 62
13
 10
1965.051
 20
-5838.434
 30
-2425.000
 70
    32
  0
VERTEX
  8
7700LEVEL
 62
13
 10
1976.636
 20
-5856.843
 30
-2425.000
 70
    32
  0
VERTEX
  8
7700LEVEL
 62
13
 10
1986.550
 20
-5871.566
 30
-2425.000
 70
    32
  0
VERTEX
  8
7700LEVEL
 62
13
 10
1994.185
 20
-5885.234
 30
-2425.000
 70
    32
  0
VERTEX
  8
7700LEVEL
 62
13
 10
1998.181
 20
-5894.242
 30
-2425.000
 70
    32
  0
VERTEX
  8
7700LEVEL
 62
13
 10
2006.306
 20
-5913.283
 30
-2425.000
 70
    32
  0
VERTEX
  8
7700LEVEL
 62
13
 10
2014.332
 20
-5930.589
 30
-2425.000
 70
    32
  0
VERTEX
  8
7700LEVEL
 62
13
 10
2023.692
 20
-5950.958
 30
-2425.000
 70
    32
  0
VERTEX
  8
7700LEVEL
 62
13
 10
2032.143
 20
-5967.326
 30
-2425.000
 70
    32
  0
VERTEX
  8
7700LEVEL
 62
13
 10
2040.533
 20
-5982.180
 30
-2425.000
 70
    32
  0
VERTEX
  8
7700LEVEL
 62
13
 10
2046.259
 20
-5993.523
 30
-2425.000
 70
    32
  0
VERTEX
  8
7700LEVEL
 62
13
 10
2049.109
 20
-5999.640
 30
-2425.000
 70
    32
  0
VERTEX
  8
7700LEVEL
 62
13
 10
2048.555
 20
-6003.604
 30
-2425.000
 70
    32
  0
VERTEX
  8
7700LEVEL
 62
13
 10
2044.608
 20
-6003.661
 30
-2425.000
 70
    32
  0
VERTEX
  8
7700LEVEL
 62
13
 10
2038.327
 20
-6000.149
 30
-2425.000
 70
    32
  0
VERTEX
  8
7700LEVEL
 62
13
 10
2034.652
 20
-5998.135
 30
-2425.000
 70
    32
  0
VERTEX
  8
7700LEVEL
 62
13
 10
2029.116
 20
-5995.629
 30
-2425.000
 70
    32
  0
VERTEX
  8
7700LEVEL
 62
13
 10
2023.984
 20
-5994.507
 30
-2425.000
 70
    32
  0
VERTEX
  8
7700LEVEL
 62
13
 10
2021.738
 20
-5996.608
 30
-2425.000
 70
    32
  0
VERTEX
  8
7700LEVEL
 62
13
 10
2018.159
 20
-6012.726
 30
-2425.000
 70
    32
  0
VERTEX
  8
7700LEVEL
 62
13
 10
2017.014
 20
-6022.116
 30
-2425.000
 70
    32
  0
VERTEX
  8
7700LEVEL
 62
13
 10
2017.721
 20
-6036.866
 30
-2425.000
 70
    32
  0
VERTEX
  8
7700LEVEL
 62
13
 10
2022.093
 20
-6055.384
 30
-2425.000
 70
    32
  0
VERTEX
  8
7700LEVEL
 62
13
 10
2024.197
 20
-6064.112
 30
-2425.000
 70
    32
  0
VERTEX
  8
7700LEVEL
 62
13
 10
2025.761
 20
-6079.598
 30
-2425.000
 70
    32
  0
VERTEX
  8
7700LEVEL
 62
13
 10
2028.142
 20
-6092.484
 30
-2425.000
 70
    32
  0
VERTEX
  8
7700LEVEL
 62
13
 10
2027.925
 20
-6095.388
 30
-2425.000
 70
    32
  0
VERTEX
  8
7700LEVEL
 62
13
 10
2025.723
 20
-6096.708
 30
-2425.000
 70
    32
  0
VERTEX
  8
7700LEVEL
 62
13
 10
2021.670
 20
-6090.734
 30
-2425.000
 70
    32
  0
VERTEX
  8
7700LEVEL
 62
13
 10
2017.433
 20
-6080.222
 30
-2425.000
 70
    32
  0
VERTEX
  8
7700LEVEL
 62
13
 10
2011.703
 20
-6067.947
 30
-2425.000
 70
    32
  0
VERTEX
  8
7700LEVEL
 62
13
 10
2005.794
 20
-6050.132
 30
-2425.000
 70
    32
  0
VERTEX
  8
7700LEVEL
 62
13
 10
2003.899
 20
-6034.704
 30
-2425.000
 70
    32
  0
VERTEX
  8
7700LEVEL
 62
13
 10
1999.029
 20
-6012.066
 30
-2425.000
 70
    32
  0
VERTEX
  8
7700LEVEL
 62
13
 10
1991.542
 20
-5988.251
 30
-2425.000
 70
    32
  0
VERTEX
  8
7700LEVEL
 62
13
 10
1982.553
 20
-5960.811
 30
-2425.000
 70
    32
  0
VERTEX
  8
7700LEVEL
 62
13
 10
1975.194
 20
-5944.320
 30
-2425.000
 70
    32
  0
VERTEX
  8
7700LEVEL
 62
13
 10
1964.148
 20
-5922.769
 30
-2425.000
 70
    32
  0
VERTEX
  8
7700LEVEL
 62
13
 10
1953.456
 20
-5909.183
 30
-2425.000
 70
    32
  0
VERTEX
  8
7700LEVEL
 62
13
 10
1942.334
 20
-5900.905
 30
-2425.000
 70
    32
  0
VERTEX
  8
7700LEVEL
 62
13
 10
1934.500
 20
-5899.168
 30
-2425.000
 70
    32
  0
VERTEX
  8
7700LEVEL
 62
13
 10
1930.798
 20
-5901.911
 30
-2425.000
 70
    32
  0
VERTEX
  8
7700LEVEL
 62
13
 10
1929.807
 20
-5910.501
 30
-2425.000
 70
    32
  0
VERTEX
  8
7700LEVEL
 62
13
 10
1931.788
 20
-5923.185
 30
-2425.000
 70
    32
  0
VERTEX
  8
7700LEVEL
 62
13
 10
1931.846
 20
-5928.815
 30
-2425.000
 70
    32
  0
VERTEX
  8
7700LEVEL
 62
13
 10
1929.553
 20
-5930.264
 30
-2425.000
 70
    32
  0
VERTEX
  8
7700LEVEL
 62
13
 10
1925.562
 20
-5925.804
 30
-2425.000
 70
    32
  0
VERTEX
  8
7700LEVEL
 62
13
 10
1923.767
 20
-5924.391
 30
-2425.000
 70
    32
  0
VERTEX
  8
7700LEVEL
 62
13
 10
1920.659
 20
-5926.507
 30
-2425.000
 70
    32
  0
VERTEX
  8
7700LEVEL
 62
13
 10
1919.397
 20
-5935.235
 30
-2425.000
 70
    32
  0
VERTEX
  8
7700LEVEL
 62
13
 10
1920.950
 20
-5951.042
 30
-2425.000
 70
    32
  0
VERTEX
  8
7700LEVEL
 62
13
 10
1926.607
 20
-5972.472
 30
-2425.000
 70
    32
  0
VERTEX
  8
7700LEVEL
 62
13
 10
1928.762
 20
-5982.783
 30
-2425.000
 70
    32
  0
VERTEX
  8
7700LEVEL
 62
13
 10
1933.242
 20
-5998.166
 30
-2425.000
 70
    32
  0
VERTEX
  8
7700LEVEL
 62
13
 10
1938.470
 20
-6010.688
 30
-2425.000
 70
    32
  0
VERTEX
  8
7700LEVEL
 62
13
 10
1942.566
 20
-6019.747
 30
-2425.000
 70
    32
  0
VERTEX
  8
7700LEVEL
 62
13
 10
1950.601
 20
-6036.983
 30
-2425.000
 70
    32
  0
VERTEX
  8
7700LEVEL
 62
13
 10
1959.272
 20
-6053.562
 30
-2425.000
 70
    32
  0
VERTEX
  8
7700LEVEL
 62
13
 10
1967.370
 20
-6067.012
 30
-2425.000
 70
    32
  0
VERTEX
  8
7700LEVEL
 62
13
 10
1972.606
 20
-6076.349
 30
-2425.000
 70
    32
  0
VERTEX
  8
7700LEVEL
 62
13
 10
1979.746
 20
-6089.012
 30
-2425.000
 70
    32
  0
VERTEX
  8
7700LEVEL
 62
13
 10
1986.427
 20
-6103.075
 30
-2425.000
 70
    32
  0
VERTEX
  8
7700LEVEL
 62
13
 10
1990.187
 20
-6109.578
 30
-2425.000
 70
    32
  0
VERTEX
  8
7700LEVEL
 62
13
 10
1994.829
 20
-6117.609
 30
-2425.000
 70
    32
  0
VERTEX
  8
7700LEVEL
 62
13
 10
1996.583
 20
-6119.302
 30
-2425.000
 70
    32
  0
VERTEX
  8
7700LEVEL
 62
13
 10
1998.058
 20
-6118.769
 30
-2425.000
 70
    32
  0
VERTEX
  8
7700LEVEL
 62
13
 10
1996.246
 20
-6111.696
 30
-2425.000
 70
    32
  0
VERTEX
  8
7700LEVEL
 62
13
 10
1992.086
 20
-6101.625
 30
-2425.000
 70
    32
  0
VERTEX
  8
7700LEVEL
 62
13
 10
1984.196
 20
-6083.407
 30
-2425.000
 70
    32
  0
VERTEX
  8
7700LEVEL
 62
13
 10
1979.213
 20
-6066.589
 30
-2425.000
 70
    32
  0
VERTEX
  8
7700LEVEL
 62
13
 10
1973.574
 20
-6047.203
 30
-2425.000
 70
    32
  0
VERTEX
  8
7700LEVEL
 62
13
 10
1967.854
 20
-6026.193
 30
-2425.000
 70
    32
  0
VERTEX
  8
7700LEVEL
 62
13
 10
1962.832
 20
-6010.837
 30
-2425.000
 70
    32
  0
VERTEX
  8
7700LEVEL
 62
13
 10
1961.171
 20
-6003.464
 30
-2425.000
 70
    32
  0
VERTEX
  8
7700LEVEL
 62
13
 10
1961.088
 20
-6002.342
 30
-2425.000
 70
    32
  0
VERTEX
  8
7700LEVEL
 62
13
 10
1962.086
 20
-6001.166
 30
-2425.000
 70
    32
  0
VERTEX
  8
7700LEVEL
 62
13
 10
1964.551
 20
-6002.893
 30
-2425.000
 70
    32
  0
VERTEX
  8
7700LEVEL
 62
13
 10
1967.120
 20
-6005.602
 30
-2425.000
 70
    32
  0
VERTEX
  8
7700LEVEL
 62
13
 10
1971.189
 20
-6010.504
 30
-2425.000
 70
    32
  0
VERTEX
  8
7700LEVEL
 62
13
 10
1972.773
 20
-6012.136
 30
-2425.000
 70
    32
  0
VERTEX
  8
7700LEVEL
 62
13
 10
1973.389
 20
-6011.118
 30
-2425.000
 70
    32
  0
VERTEX
  8
7700LEVEL
 62
13
 10
1973.480
 20
-6009.305
 30
-2425.000
 70
    32
  0
VERTEX
  8
7700LEVEL
 62
13
 10
1972.982
 20
-6007.118
 30
-2425.000
 70
    32
  0
VERTEX
  8
7700LEVEL
 62
13
 10
1972.749
 20
-6005.795
 30
-2425.000
 70
    32
  0
VERTEX
  8
7700LEVEL
 62
13
 10
1972.877
 20
-6004.453
 30
-2425.000
 70
    32
  0
VERTEX
  8
7700LEVEL
 62
13
 10
1973.987
 20
-6003.007
 30
-2425.000
 70
    32
  0
VERTEX
  8
7700LEVEL
 62
13
 10
1976.529
 20
-6005.175
 30
-2425.000
 70
    32
  0
VERTEX
  8
7700LEVEL
 62
13
 10
1981.510
 20
-6013.578
 30
-2425.000
 70
    32
  0
VERTEX
  8
7700LEVEL
 62
13
 10
1986.105
 20
-6022.891
 30
-2425.000
 70
    32
  0
VERTEX
  8
7700LEVEL
 62
13
 10
1995.165
 20
-6039.743
 30
-2425.000
 70
    32
  0
VERTEX
  8
7700LEVEL
 62
13
 10
2002.450
 20
-6053.358
 30
-2425.000
 70
    32
  0
VERTEX
  8
7700LEVEL
 62
13
 10
2005.594
 20
-6060.629
 30
-2425.000
 70
    32
  0
VERTEX
  8
7700LEVEL
 62
13
 10
2007.124
 20
-6064.545
 30
-2425.000
 70
    32
  0
VERTEX
  8
7700LEVEL
 62
13
 10
2007.551
 20
-6066.972
 30
-2425.000
 70
    32
  0
VERTEX
  8
7700LEVEL
 62
13
 10
2010.493
 20
-6076.325
 30
-2425.000
 70
    32
  0
VERTEX
  8
7700LEVEL
 62
13
 10
2014.505
 20
-6087.628
 30
-2425.000
 70
    32
  0
VERTEX
  8
7700LEVEL
 62
13
 10
2019.868
 20
-6102.855
 30
-2425.000
 70
    32
  0
VERTEX
  8
7700LEVEL
 62
13
 10
2023.466
 20
-6113.094
 30
-2425.000
 70
    32
  0
VERTEX
  8
7700LEVEL
 62
13
 10
2027.685
 20
-6130.229
 30
-2425.000
 70
    32
  0
VERTEX
  8
7700LEVEL
 62
13
 10
2033.074
 20
-6149.614
 30
-2425.000
 70
    32
  0
VERTEX
  8
7700LEVEL
 62
13
 10
2039.168
 20
-6166.669
 30
-2425.000
 70
    32
  0
VERTEX
  8
7700LEVEL
 62
13
 10
2042.230
 20
-6170.633
 30
-2425.000
 70
    32
  0
VERTEX
  8
7700LEVEL
 62
13
 10
2043.322
 20
-6172.443
 30
-2425.000
 70
    32
  0
VERTEX
  8
7700LEVEL
 62
13
 10
2044.011
 20
-6172.867
 30
-2425.000
 70
    32
  0
VERTEX
  8
7700LEVEL
 62
13
 10
2044.058
 20
-6171.585
 30
-2425.000
 70
    32
  0
VERTEX
  8
7700LEVEL
 62
13
 10
2043.187
 20
-6169.737
 30
-2425.000
 70
    32
  0
VERTEX
  8
7700LEVEL
 62
13
 10
2042.356
 20
-6167.859
 30
-2425.000
 70
    32
  0
VERTEX
  8
7700LEVEL
 62
13
 10
2041.509
 20
-6165.370
 30
-2425.000
 70
    32
  0
VERTEX
  8
7700LEVEL
 62
13
 10
2041.047
 20
-6163.904
 30
-2425.000
 70
    32
  0
VERTEX
  8
7700LEVEL
 62
13
 10
2042.637
 20
-6164.284
 30
-2425.000
 70
    32
  0
VERTEX
  8
7700LEVEL
 62
13
 10
2044.041
 20
-6165.925
 30
-2425.000
 70
    32
  0
VERTEX
  8
7700LEVEL
 62
13
 10
2045.059
 20
-6168.225
 30
-2425.000
 70
    32
  0
VERTEX
  8
7700LEVEL
 62
13
 10
2046.263
 20
-6173.131
 30
-2425.000
 70
    32
  0
VERTEX
  8
7700LEVEL
 62
13
 10
2048.156
 20
-6178.461
 30
-2425.000
 70
    32
  0
VERTEX
  8
7700LEVEL
 62
13
 10
2051.481
 20
-6192.705
 30
-2425.000
 70
    32
  0
VERTEX
  8
7700LEVEL
 62
13
 10
2053.497
 20
-6202.744
 30
-2425.000
 70
    32
  0
VERTEX
  8
7700LEVEL
 62
13
 10
2056.530
 20
-6213.651
 30
-2425.000
 70
    32
  0
VERTEX
  8
7700LEVEL
 62
13
 10
2059.780
 20
-6221.654
 30
-2425.000
 70
    32
  0
VERTEX
  8
7700LEVEL
 62
13
 10
2063.977
 20
-6232.196
 30
-2425.000
 70
    32
  0
VERTEX
  8
7700LEVEL
 62
13
 10
2068.544
 20
-6242.901
 30
-2425.000
 70
    32
  0
VERTEX
  8
7700LEVEL
 62
13
 10
2071.387
 20
-6248.588
 30
-2425.000
 70
    32
  0
VERTEX
  8
7700LEVEL
 62
13
 10
2074.467
 20
-6251.230
 30
-2425.000
 70
    32
  0
VERTEX
  8
7700LEVEL
 62
13
 10
2074.924
 20
-6248.397
 30
-2425.000
 70
    32
  0
VERTEX
  8
7700LEVEL
 62
13
 10
2074.034
 20
-6239.457
 30
-2425.000
 70
    32
  0
VERTEX
  8
7700LEVEL
 62
13
 10
2073.501
 20
-6236.298
 30
-2425.000
 70
    32
  0
VERTEX
  8
7700LEVEL
 62
13
 10
2073.173
 20
-6232.239
 30
-2425.000
 70
    32
  0
VERTEX
  8
7700LEVEL
 62
13
 10
2074.251
 20
-6231.253
 30
-2425.000
 70
    32
  0
VERTEX
  8
7700LEVEL
 62
13
 10
2077.722
 20
-6232.235
 30
-2425.000
 70
    32
  0
VERTEX
  8
7700LEVEL
 62
13
 10
2082.593
 20
-6237.041
 30
-2425.000
 70
    32
  0
VERTEX
  8
7700LEVEL
 62
13
 10
2085.508
 20
-6240.554
 30
-2425.000
 70
    32
  0
VERTEX
  8
7700LEVEL
 62
13
 10
2086.763
 20
-6241.743
 30
-2425.000
 70
    32
  0
VERTEX
  8
7700LEVEL
 62
13
 10
2087.047
 20
-6239.351
 30
-2425.000
 70
    32
  0
VERTEX
  8
7700LEVEL
 62
13
 10
2084.946
 20
-6228.439
 30
-2425.000
 70
    32
  0
VERTEX
  8
7700LEVEL
 62
13
 10
2080.254
 20
-6213.276
 30
-2425.000
 70
    32
  0
VERTEX
  8
7700LEVEL
 62
13
 10
2073.311
 20
-6201.215
 30
-2425.000
 70
    32
  0
VERTEX
  8
7700LEVEL
 62
13
 10
2063.477
 20
-6184.749
 30
-2425.000
 70
    32
  0
VERTEX
  8
7700LEVEL
 62
13
 10
2052.416
 20
-6169.319
 30
-2425.000
 70
    32
  0
VERTEX
  8
7700LEVEL
 62
13
 10
2048.598
 20
-6157.186
 30
-2425.000
 70
    32
  0
VERTEX
  8
7700LEVEL
 62
13
 10
2043.237
 20
-6134.725
 30
-2425.000
 70
    32
  0
VERTEX
  8
7700LEVEL
 62
13
 10
2037.299
 20
-6113.253
 30
-2425.000
 70
    32
  0
VERTEX
  8
7700LEVEL
 62
13
 10
2035.045
 20
-6099.276
 30
-2425.000
 70
    32
  0
VERTEX
  8
7700LEVEL
 62
13
 10
2032.557
 20
-6078.926
 30
-2425.000
 70
    32
  0
VERTEX
  8
7700LEVEL
 62
13
 10
2028.324
 20
-6060.679
 30
-2425.000
 70
    32
  0
VERTEX
  8
7700LEVEL
 62
13
 10
2026.910
 20
-6052.126
 30
-2425.000
 70
    32
  0
VERTEX
  8
7700LEVEL
 62
13
 10
2025.339
 20
-6039.575
 30
-2425.000
 70
    32
  0
VERTEX
  8
7700LEVEL
 62
13
 10
2025.065
 20
-6027.933
 30
-2425.000
 70
    32
  0
VERTEX
  8
7700LEVEL
 62
13
 10
2025.517
 20
-6022.485
 30
-2425.000
 70
    32
  0
VERTEX
  8
7700LEVEL
 62
13
 10
2026.688
 20
-6019.186
 30
-2425.000
 70
    32
  0
VERTEX
  8
7700LEVEL
 62
13
 10
2027.732
 20
-6016.978
 30
-2425.000
 70
    32
  0
VERTEX
  8
7700LEVEL
 62
13
 10
2029.873
 20
-6017.512
 30
-2425.000
 70
    32
  0
VERTEX
  8
7700LEVEL
 62
13
 10
2037.140
 20
-6023.784
 30
-2425.000
 70
    32
  0
VERTEX
  8
7700LEVEL
 62
13
 10
2043.477
 20
-6031.494
 30
-2425.000
 70
    32
  0
VERTEX
  8
7700LEVEL
 62
13
 10
2049.566
 20
-6042.318
 30
-2425.000
 70
    32
  0
VERTEX
  8
7700LEVEL
 62
13
 10
2051.688
 20
-6049.723
 30
-2425.000
 70
    32
  0
VERTEX
  8
7700LEVEL
 62
13
 10
2056.142
 20
-6069.614
 30
-2425.000
 70
    32
  0
VERTEX
  8
7700LEVEL
 62
13
 10
2059.121
 20
-6084.738
 30
-2425.000
 70
    32
  0
VERTEX
  8
7700LEVEL
 62
13
 10
2061.719
 20
-6098.086
 30
-2425.000
 70
    32
  0
VERTEX
  8
7700LEVEL
 62
13
 10
2068.376
 20
-6116.406
 30
-2425.000
 70
    32
  0
VERTEX
  8
7700LEVEL
 62
13
 10
2072.784
 20
-6132.280
 30
-2425.000
 70
    32
  0
VERTEX
  8
7700LEVEL
 62
13
 10
2076.313
 20
-6143.941
 30
-2425.000
 70
    32
  0
VERTEX
  8
7700LEVEL
 62
13
 10
2083.096
 20
-6156.121
 30
-2425.000
 70
    32
  0
VERTEX
  8
7700LEVEL
 62
13
 10
2092.380
 20
-6172.182
 30
-2425.000
 70
    32
  0
VERTEX
  8
7700LEVEL
 62
13
 10
2096.785
 20
-6177.958
 30
-2425.000
 70
    32
  0
VERTEX
  8
7700LEVEL
 62
13
 10
2101.846
 20
-6186.301
 30
-2425.000
 70
    32
  0
VERTEX
  8
7700LEVEL
 62
13
 10
2104.079
 20
-6191.754
 30
-2425.000
 70
    32
  0
VERTEX
  8
7700LEVEL
 62
13
 10
2106.758
 20
-6208.659
 30
-2425.000
 70
    32
  0
VERTEX
  8
7700LEVEL
 62
13
 10
2106.347
 20
-6220.808
 30
-2425.000
 70
    32
  0
VERTEX
  8
7700LEVEL
 62
13
 10
2107.080
 20
-6229.367
 30
-2425.000
 70
    32
  0
VERTEX
  8
7700LEVEL
 62
13
 10
2109.426
 20
-6235.983
 30
-2425.000
 70
    32
  0
VERTEX
  8
7700LEVEL
 62
13
 10
2111.003
 20
-6240.550
 30
-2425.000
 70
    32
  0
VERTEX
  8
7700LEVEL
 62
13
 10
2112.660
 20
-6245.057
 30
-2425.000
 70
    32
  0
VERTEX
  8
7700LEVEL
 62
13
 10
2113.813
 20
-6253.679
 30
-2425.000
 70
    32
  0
VERTEX
  8
7700LEVEL
 62
13
 10
2115.113
 20
-6262.752
 30
-2425.000
 70
    32
  0
VERTEX
  8
7700LEVEL
 62
13
 10
2115.832
 20
-6268.517
 30
-2425.000
 70
    32
  0
VERTEX
  8
7700LEVEL
 62
13
 10
2114.739
 20
-6273.940
 30
-2425.000
 70
    32
  0
VERTEX
  8
7700LEVEL
 62
13
 10
2111.690
 20
-6272.771
 30
-2425.000
 70
    32
  0
VERTEX
  8
7700LEVEL
 62
13
 10
2108.260
 20
-6266.460
 30
-2425.000
 70
    32
  0
VERTEX
  8
7700LEVEL
 62
13
 10
2105.607
 20
-6262.628
 30
-2425.000
 70
    32
  0
VERTEX
  8
7700LEVEL
 62
13
 10
2103.233
 20
-6264.387
 30
-2425.000
 70
    32
  0
VERTEX
  8
7700LEVEL
 62
13
 10
2102.175
 20
-6270.783
 30
-2425.000
 70
    32
  0
VERTEX
  8
7700LEVEL
 62
13
 10
2100.772
 20
-6279.490
 30
-2425.000
 70
    32
  0
VERTEX
  8
7700LEVEL
 62
13
 10
2099.604
 20
-6282.288
 30
-2425.000
 70
    32
  0
VERTEX
  8
7700LEVEL
 62
13
 10
2096.835
 20
-6281.411
 30
-2425.000
 70
    32
  0
VERTEX
  8
7700LEVEL
 62
13
 10
2093.095
 20
-6276.701
 30
-2425.000
 70
    32
  0
VERTEX
  8
7700LEVEL
 62
13
 10
2089.515
 20
-6272.123
 30
-2425.000
 70
    32
  0
VERTEX
  8
7700LEVEL
 62
13
 10
2088.382
 20
-6272.277
 30
-2425.000
 70
    32
  0
VERTEX
  8
7700LEVEL
 62
13
 10
2087.239
 20
-6274.183
 30
-2425.000
 70
    32
  0
VERTEX
  8
7700LEVEL
 62
13
 10
2085.403
 20
-6283.399
 30
-2425.000
 70
    32
  0
VERTEX
  8
7700LEVEL
 62
13
 10
2086.854
 20
-6294.107
 30
-2425.000
 70
    32
  0
VERTEX
  8
7700LEVEL
 62
13
 10
2085.559
 20
-6306.912
 30
-2425.000
 70
    32
  0
VERTEX
  8
7700LEVEL
 62
13
 10
2089.009
 20
-6316.699
 30
-2425.000
 70
    32
  0
VERTEX
  8
7700LEVEL
 62
13
 10
2091.510
 20
-6322.513
 30
-2425.000
 70
    32
  0
VERTEX
  8
7700LEVEL
 62
13
 10
2092.016
 20
-6328.747
 30
-2425.000
 70
    32
  0
VERTEX
  8
7700LEVEL
 62
13
 10
2087.752
 20
-6328.042
 30
-2425.000
 70
    32
  0
VERTEX
  8
7700LEVEL
 62
13
 10
2083.057
 20
-6323.978
 30
-2425.000
 70
    32
  0
VERTEX
  8
7700LEVEL
 62
13
 10
2076.489
 20
-6316.377
 30
-2425.000
 70
    32
  0
VERTEX
  8
7700LEVEL
 62
13
 10
2067.864
 20
-6305.749
 30
-2425.000
 70
    32
  0
VERTEX
  8
7700LEVEL
 62
13
 10
2062.997
 20
-6300.191
 30
-2425.000
 70
    32
  0
VERTEX
  8
7700LEVEL
 62
13
 10
2061.408
 20
-6299.561
 30
-2425.000
 70
    32
  0
VERTEX
  8
7700LEVEL
 62
13
 10
2059.406
 20
-6304.598
 30
-2425.000
 70
    32
  0
VERTEX
  8
7700LEVEL
 62
13
 10
2062.488
 20
-6315.656
 30
-2425.000
 70
    32
  0
VERTEX
  8
7700LEVEL
 62
13
 10
2067.089
 20
-6322.284
 30
-2425.000
 70
    32
  0
VERTEX
  8
7700LEVEL
 62
13
 10
2073.781
 20
-6332.660
 30
-2425.000
 70
    32
  0
VERTEX
  8
7700LEVEL
 62
13
 10
2081.039
 20
-6338.752
 30
-2425.000
 70
    32
  0
VERTEX
  8
7700LEVEL
 62
13
 10
2088.037
 20
-6348.279
 30
-2425.000
 70
    32
  0
VERTEX
  8
7700LEVEL
 62
13
 10
2093.900
 20
-6360.144
 30
-2425.000
 70
    32
  0
VERTEX
  8
7700LEVEL
 62
13
 10
2098.938
 20
-6372.494
 30
-2425.000
 70
    32
  0
VERTEX
  8
7700LEVEL
 62
13
 10
2101.358
 20
-6381.985
 30
-2425.000
 70
    32
  0
VERTEX
  8
7700LEVEL
 62
13
 10
2100.974
 20
-6396.609
 30
-2425.000
 70
    32
  0
VERTEX
  8
7700LEVEL
 62
13
 10
2098.735
 20
-6409.739
 30
-2425.000
 70
    32
  0
VERTEX
  8
7700LEVEL
 62
13
 10
2096.632
 20
-6421.959
 30
-2425.000
 70
    32
  0
VERTEX
  8
7700LEVEL
 62
13
 10
2097.707
 20
-6431.822
 30
-2425.000
 70
    32
  0
VERTEX
  8
7700LEVEL
 62
13
 10
2098.813
 20
-6438.110
 30
-2425.000
 70
    32
  0
VERTEX
  8
7700LEVEL
 62
13
 10
2098.002
 20
-6450.307
 30
-2425.000
 70
    32
  0
VERTEX
  8
7700LEVEL
 62
13
 10
2095.313
 20
-6461.651
 30
-2425.000
 70
    32
  0
VERTEX
  8
7700LEVEL
 62
13
 10
2094.246
 20
-6471.232
 30
-2425.000
 70
    32
  0
VERTEX
  8
7700LEVEL
 62
13
 10
2094.193
 20
-6482.181
 30
-2425.000
 70
    32
  0
VERTEX
  8
7700LEVEL
 62
13
 10
2095.348
 20
-6492.236
 30
-2425.000
 70
    32
  0
VERTEX
  8
7700LEVEL
 62
13
 10
2096.781
 20
-6500.899
 30
-2425.000
 70
    32
  0
VERTEX
  8
7700LEVEL
 62
13
 10
2098.996
 20
-6511.290
 30
-2425.000
 70
    32
  0
VERTEX
  8
7700LEVEL
 62
13
 10
2100.781
 20
-6516.139
 30
-2425.000
 70
    32
  0
VERTEX
  8
7700LEVEL
 62
13
 10
2102.290
 20
-6518.512
 30
-2425.000
 70
    32
  0
VERTEX
  8
7700LEVEL
 62
13
 10
2104.241
 20
-6520.807
 30
-2425.000
 70
    32
  0
VERTEX
  8
7700LEVEL
 62
13
 10
2107.474
 20
-6521.216
 30
-2425.000
 70
    32
  0
VERTEX
  8
7700LEVEL
 62
13
 10
2108.875
 20
-6514.442
 30
-2425.000
 70
    32
  0
VERTEX
  8
7700LEVEL
 62
13
 10
2111.534
 20
-6504.991
 30
-2425.000
 70
    32
  0
VERTEX
  8
7700LEVEL
 62
13
 10
2109.885
 20
-6495.615
 30
-2425.000
 70
    32
  0
VERTEX
  8
7700LEVEL
 62
13
 10
2108.465
 20
-6488.063
 30
-2425.000
 70
    32
  0
VERTEX
  8
7700LEVEL
 62
13
 10
2107.037
 20
-6475.032
 30
-2425.000
 70
    32
  0
VERTEX
  8
7700LEVEL
 62
13
 10
2106.932
 20
-6467.067
 30
-2425.000
 70
    32
  0
VERTEX
  8
7700LEVEL
 62
13
 10
2107.329
 20
-6462.471
 30
-2425.000
 70
    32
  0
VERTEX
  8
7700LEVEL
 62
13
 10
2108.457
 20
-6459.703
 30
-2425.000
 70
    32
  0
VERTEX
  8
7700LEVEL
 62
13
 10
2109.452
 20
-6460.961
 30
-2425.000
 70
    32
  0
VERTEX
  8
7700LEVEL
 62
13
 10
2112.399
 20
-6467.630
 30
-2425.000
 70
    32
  0
VERTEX
  8
7700LEVEL
 62
13
 10
2116.081
 20
-6480.674
 30
-2425.000
 70
    32
  0
VERTEX
  8
7700LEVEL
 62
13
 10
2118.383
 20
-6495.052
 30
-2425.000
 70
    32
  0
VERTEX
  8
7700LEVEL
 62
13
 10
2118.520
 20
-6507.856
 30
-2425.000
 70
    32
  0
VERTEX
  8
7700LEVEL
 62
13
 10
2118.371
 20
-6514.637
 30
-2425.000
 70
    32
  0
VERTEX
  8
7700LEVEL
 62
13
 10
2118.904
 20
-6530.077
 30
-2425.000
 70
    32
  0
VERTEX
  8
7700LEVEL
 62
13
 10
2118.773
 20
-6540.585
 30
-2425.000
 70
    32
  0
VERTEX
  8
7700LEVEL
 62
13
 10
2122.039
 20
-6556.432
 30
-2425.000
 70
    32
  0
VERTEX
  8
7700LEVEL
 62
13
 10
2124.869
 20
-6567.738
 30
-2425.000
 70
    32
  0
VERTEX
  8
7700LEVEL
 62
13
 10
2128.104
 20
-6585.478
 30
-2425.000
 70
    32
  0
VERTEX
  8
7700LEVEL
 62
13
 10
2132.127
 20
-6596.711
 30
-2425.000
 70
    32
  0
VERTEX
  8
7700LEVEL
 62
13
 10
2138.918
 20
-6614.371
 30
-2425.000
 70
    32
  0
VERTEX
  8
7700LEVEL
 62
13
 10
2142.892
 20
-6628.819
 30
-2425.000
 70
    32
  0
VERTEX
  8
7700LEVEL
 62
13
 10
2145.222
 20
-6640.122
 30
-2425.000
 70
    32
  0
VERTEX
  8
7700LEVEL
 62
13
 10
2145.959
 20
-6649.613
 30
-2425.000
 70
    32
  0
VERTEX
  8
7700LEVEL
 62
13
 10
2146.707
 20
-6662.400
 30
-2425.000
 70
    32
  0
VERTEX
  8
7700LEVEL
 62
13
 10
2147.143
 20
-6670.307
 30
-2425.000
 70
    32
  0
VERTEX
  8
7700LEVEL
 62
13
 10
2148.281
 20
-6681.433
 30
-2425.000
 70
    32
  0
VERTEX
  8
7700LEVEL
 62
13
 10
2146.909
 20
-6684.881
 30
-2425.000
 70
    32
  0
VERTEX
  8
7700LEVEL
 62
13
 10
2143.838
 20
-6684.102
 30
-2425.000
 70
    32
  0
VERTEX
  8
7700LEVEL
 62
13
 10
2140.846
 20
-6680.148
 30
-2425.000
 70
    32
  0
VERTEX
  8
7700LEVEL
 62
13
 10
2138.682
 20
-6676.640
 30
-2425.000
 70
    32
  0
VERTEX
  8
7700LEVEL
 62
13
 10
2135.088
 20
-6672.632
 30
-2425.000
 70
    32
  0
VERTEX
  8
7700LEVEL
 62
13
 10
2133.782
 20
-6671.543
 30
-2425.000
 70
    32
  0
VERTEX
  8
7700LEVEL
 62
13
 10
2131.767
 20
-6673.535
 30
-2425.000
 70
    32
  0
VERTEX
  8
7700LEVEL
 62
13
 10
2131.403
 20
-6677.670
 30
-2425.000
 70
    32
  0
VERTEX
  8
7700LEVEL
 62
13
 10
2131.917
 20
-6684.084
 30
-2425.000
 70
    32
  0
VERTEX
  8
7700LEVEL
 62
13
 10
2133.956
 20
-6695.416
 30
-2425.000
 70
    32
  0
VERTEX
  8
7700LEVEL
 62
13
 10
2136.233
 20
-6702.020
 30
-2425.000
 70
    32
  0
VERTEX
  8
7700LEVEL
 62
13
 10
2138.382
 20
-6708.033
 30
-2425.000
 70
    32
  0
VERTEX
  8
7700LEVEL
 62
13
 10
2139.837
 20
-6712.940
 30
-2425.000
 70
    32
  0
VERTEX
  8
7700LEVEL
 62
13
 10
2138.192
 20
-6713.161
 30
-2425.000
 70
    32
  0
VERTEX
  8
7700LEVEL
 62
13
 10
2134.752
 20
-6708.604
 30
-2425.000
 70
    32
  0
VERTEX
  8
7700LEVEL
 62
13
 10
2129.781
 20
-6700.381
 30
-2425.000
 70
    32
  0
VERTEX
  8
7700LEVEL
 62
13
 10
2127.299
 20
-6694.676
 30
-2425.000
 70
    32
  0
VERTEX
  8
7700LEVEL
 62
13
 10
2122.724
 20
-6688.840
 30
-2425.000
 70
    32
  0
VERTEX
  8
7700LEVEL
 62
13
 10
2116.937
 20
-6682.967
 30
-2425.000
 70
    32
  0
VERTEX
  8
7700LEVEL
 62
13
 10
2115.524
 20
-6681.396
 30
-2425.000
 70
    32
  0
VERTEX
  8
7700LEVEL
 62
13
 10
2113.999
 20
-6681.778
 30
-2425.000
 70
    32
  0
VERTEX
  8
7700LEVEL
 62
13
 10
2112.178
 20
-6686.556
 30
-2425.000
 70
    32
  0
VERTEX
  8
7700LEVEL
 62
13
 10
2111.322
 20
-6696.168
 30
-2425.000
 70
    32
  0
VERTEX
  8
7700LEVEL
 62
13
 10
2111.939
 20
-6703.815
 30
-2425.000
 70
    32
  0
VERTEX
  8
7700LEVEL
 62
13
 10
2113.205
 20
-6708.551
 30
-2425.000
 70
    32
  0
VERTEX
  8
7700LEVEL
 62
13
 10
2115.357
 20
-6714.063
 30
-2425.000
 70
    32
  0
VERTEX
  8
7700LEVEL
 62
13
 10
2118.365
 20
-6718.878
 30
-2425.000
 70
    32
  0
VERTEX
  8
7700LEVEL
 62
13
 10
2124.642
 20
-6726.508
 30
-2425.000
 70
    32
  0
VERTEX
  8
7700LEVEL
 62
13
 10
2130.226
 20
-6736.397
 30
-2425.000
 70
    32
  0
VERTEX
  8
7700LEVEL
 62
13
 10
2133.657
 20
-6747.757
 30
-2425.000
 70
    32
  0
VERTEX
  8
7700LEVEL
 62
13
 10
2136.727
 20
-6759.134
 30
-2425.000
 70
    32
  0
VERTEX
  8
7700LEVEL
 62
13
 10
2138.640
 20
-6766.258
 30
-2425.000
 70
    32
  0
VERTEX
  8
7700LEVEL
 62
13
 10
2139.433
 20
-6776.581
 30
-2425.000
 70
    32
  0
VERTEX
  8
7700LEVEL
 62
13
 10
2139.385
 20
-6784.845
 30
-2425.000
 70
    32
  0
VERTEX
  8
7700LEVEL
 62
13
 10
2140.371
 20
-6798.204
 30
-2425.000
 70
    32
  0
VERTEX
  8
7700LEVEL
 62
13
 10
2141.103
 20
-6806.764
 30
-2425.000
 70
    32
  0
VERTEX
  8
7700LEVEL
 62
13
 10
2142.722
 20
-6818.033
 30
-2425.000
 70
    32
  0
VERTEX
  8
7700LEVEL
 62
13
 10
2144.035
 20
-6826.535
 30
-2425.000
 70
    32
  0
VERTEX
  8
7700LEVEL
 62
13
 10
2145.522
 20
-6836.281
 30
-2425.000
 70
    32
  0
VERTEX
  8
7700LEVEL
 62
13
 10
2147.250
 20
-6842.482
 30
-2425.000
 70
    32
  0
VERTEX
  8
7700LEVEL
 62
13
 10
2148.970
 20
-6848.252
 30
-2425.000
 70
    32
  0
VERTEX
  8
7700LEVEL
 62
13
 10
2150.282
 20
-6848.340
 30
-2425.000
 70
    32
  0
VERTEX
  8
7700LEVEL
 62
13
 10
2151.643
 20
-6841.596
 30
-2425.000
 70
    32
  0
VERTEX
  8
7700LEVEL
 62
13
 10
2151.832
 20
-6833.102
 30
-2425.000
 70
    32
  0
VERTEX
  8
7700LEVEL
 62
13
 10
2151.464
 20
-6823.773
 30
-2425.000
 70
    32
  0
VERTEX
  8
7700LEVEL
 62
13
 10
2152.491
 20
-6810.605
 30
-2425.000
 70
    32
  0
VERTEX
  8
7700LEVEL
 62
13
 10
2153.869
 20
-6804.473
 30
-2425.000
 70
    32
  0
VERTEX
  8
7700LEVEL
 62
13
 10
2154.562
 20
-6802.463
 30
-2425.000
 70
    32
  0
VERTEX
  8
7700LEVEL
 62
13
 10
2155.942
 20
-6804.494
 30
-2425.000
 70
    32
  0
VERTEX
  8
7700LEVEL
 62
13
 10
2156.507
 20
-6809.126
 30
-2425.000
 70
    32
  0
VERTEX
  8
7700LEVEL
 62
13
 10
2157.369
 20
-6812.477
 30
-2425.000
 70
    32
  0
VERTEX
  8
7700LEVEL
 62
13
 10
2157.875
 20
-6813.411
 30
-2425.000
 70
    32
  0
VERTEX
  8
7700LEVEL
 62
13
 10
2160.063
 20
-6812.662
 30
-2425.000
 70
    32
  0
VERTEX
  8
7700LEVEL
 62
13
 10
2160.833
 20
-6809.411
 30
-2425.000
 70
    32
  0
VERTEX
  8
7700LEVEL
 62
13
 10
2161.540
 20
-6803.214
 30
-2425.000
 70
    32
  0
VERTEX
  8
7700LEVEL
 62
13
 10
2165.799
 20
-6792.389
 30
-2425.000
 70
    32
  0
VERTEX
  8
7700LEVEL
 62
13
 10
2170.005
 20
-6778.549
 30
-2425.000
 70
    32
  0
VERTEX
  8
7700LEVEL
 62
13
 10
2171.923
 20
-6769.023
 30
-2425.000
 70
    32
  0
VERTEX
  8
7700LEVEL
 62
13
 10
2173.115
 20
-6763.901
 30
-2425.000
 70
    32
  0
VERTEX
  8
7700LEVEL
 62
13
 10
2175.567
 20
-6760.649
 30
-2425.000
 70
    32
  0
VERTEX
  8
7700LEVEL
 62
13
 10
2177.793
 20
-6762.054
 30
-2425.000
 70
    32
  0
VERTEX
  8
7700LEVEL
 62
13
 10
2182.122
 20
-6768.821
 30
-2425.000
 70
    32
  0
VERTEX
  8
7700LEVEL
 62
13
 10
2187.243
 20
-6777.245
 30
-2425.000
 70
    32
  0
VERTEX
  8
7700LEVEL
 62
13
 10
2192.977
 20
-6785.402
 30
-2425.000
 70
    32
  0
VERTEX
  8
7700LEVEL
 62
13
 10
2196.450
 20
-6792.865
 30
-2425.000
 70
    32
  0
VERTEX
  8
7700LEVEL
 62
13
 10
2198.610
 20
-6798.808
 30
-2425.000
 70
    32
  0
VERTEX
  8
7700LEVEL
 62
13
 10
2198.846
 20
-6804.930
 30
-2425.000
 70
    32
  0
VERTEX
  8
7700LEVEL
 62
13
 10
2197.480
 20
-6809.060
 30
-2425.000
 70
    32
  0
VERTEX
  8
7700LEVEL
 62
13
 10
2192.597
 20
-6811.556
 30
-2425.000
 70
    32
  0
VERTEX
  8
7700LEVEL
 62
13
 10
2189.085
 20
-6817.837
 30
-2425.000
 70
    32
  0
VERTEX
  8
7700LEVEL
 62
13
 10
2184.521
 20
-6825.895
 30
-2425.000
 70
    32
  0
VERTEX
  8
7700LEVEL
 62
13
 10
2178.944
 20
-6830.652
 30
-2425.000
 70
    32
  0
VERTEX
  8
7700LEVEL
 62
13
 10
2173.497
 20
-6838.865
 30
-2425.000
 70
    32
  0
VERTEX
  8
7700LEVEL
 62
13
 10
2171.554
 20
-6847.600
 30
-2425.000
 70
    32
  0
VERTEX
  8
7700LEVEL
 62
13
 10
2170.521
 20
-6861.769
 30
-2425.000
 70
    32
  0
VERTEX
  8
7700LEVEL
 62
13
 10
2169.110
 20
-6871.979
 30
-2425.000
 70
    32
  0
VERTEX
  8
7700LEVEL
 62
13
 10
2168.339
 20
-6884.146
 30
-2425.000
 70
    32
  0
VERTEX
  8
7700LEVEL
 62
13
 10
2168.255
 20
-6893.622
 30
-2425.000
 70
    32
  0
VERTEX
  8
7700LEVEL
 62
13
 10
2167.294
 20
-6905.869
 30
-2425.000
 70
    32
  0
VERTEX
  8
7700LEVEL
 62
13
 10
2166.375
 20
-6919.267
 30
-2425.000
 70
    32
  0
VERTEX
  8
7700LEVEL
 62
13
 10
2165.616
 20
-6927.748
 30
-2425.000
 70
    32
  0
VERTEX
  8
7700LEVEL
 62
13
 10
2164.938
 20
-6937.601
 30
-2425.000
 70
    32
  0
VERTEX
  8
7700LEVEL
 62
13
 10
2165.898
 20
-6941.504
 30
-2425.000
 70
    32
  0
VERTEX
  8
7700LEVEL
 62
13
 10
2165.408
 20
-6946.480
 30
-2425.000
 70
    32
  0
VERTEX
  8
7700LEVEL
 62
13
 10
2163.421
 20
-6945.396
 30
-2425.000
 70
    32
  0
VERTEX
  8
7700LEVEL
 62
13
 10
2161.928
 20
-6941.952
 30
-2425.000
 70
    32
  0
VERTEX
  8
7700LEVEL
 62
13
 10
2161.535
 20
-6930.149
 30
-2425.000
 70
    32
  0
VERTEX
  8
7700LEVEL
 62
13
 10
2161.337
 20
-6926.181
 30
-2425.000
 70
    32
  0
VERTEX
  8
7700LEVEL
 62
13
 10
2159.234
 20
-6922.502
 30
-2425.000
 70
    32
  0
VERTEX
  8
7700LEVEL
 62
13
 10
2155.697
 20
-6924.375
 30
-2425.000
 70
    32
  0
VERTEX
  8
7700LEVEL
 62
13
 10
2152.323
 20
-6931.178
 30
-2425.000
 70
    32
  0
VERTEX
  8
7700LEVEL
 62
13
 10
2149.445
 20
-6940.418
 30
-2425.000
 70
    32
  0
VERTEX
  8
7700LEVEL
 62
13
 10
2148.726
 20
-6950.552
 30
-2425.000
 70
    32
  0
VERTEX
  8
7700LEVEL
 62
13
 10
2150.551
 20
-6958.987
 30
-2425.000
 70
    32
  0
VERTEX
  8
7700LEVEL
 62
13
 10
2155.651
 20
-6972.851
 30
-2425.000
 70
    32
  0
VERTEX
  8
7700LEVEL
 62
13
 10
2161.634
 20
-6986.309
 30
-2425.000
 70
    32
  0
VERTEX
  8
7700LEVEL
 62
13
 10
2165.054
 20
-6994.372
 30
-2425.000
 70
    32
  0
VERTEX
  8
7700LEVEL
 62
13
 10
2170.890
 20
-7005.696
 30
-2425.000
 70
    32
  0
VERTEX
  8
7700LEVEL
 62
13
 10
2180.587
 20
-7018.023
 30
-2425.000
 70
    32
  0
VERTEX
  8
7700LEVEL
 62
13
 10
2189.691
 20
-7027.111
 30
-2425.000
 70
    32
  0
VERTEX
  8
7700LEVEL
 62
13
 10
2198.035
 20
-7036.015
 30
-2425.000
 70
    32
  0
VERTEX
  8
7700LEVEL
 62
13
 10
2203.422
 20
-7041.685
 30
-2425.000
 70
    32
  0
VERTEX
  8
7700LEVEL
 62
13
 10
2208.057
 20
-7043.986
 30
-2425.000
 70
    32
  0
VERTEX
  8
7700LEVEL
 62
13
 10
2219.911
 20
-7048.792
 30
-2425.000
 70
    32
  0
VERTEX
  8
7700LEVEL
 62
13
 10
2227.861
 20
-7051.192
 30
-2425.000
 70
    32
  0
VERTEX
  8
7700LEVEL
 62
13
 10
2236.877
 20
-7052.926
 30
-2425.000
 70
    32
  0
VERTEX
  8
7700LEVEL
 62
13
 10
2241.655
 20
-7053.064
 30
-2425.000
 70
    32
  0
VERTEX
  8
7700LEVEL
 62
13
 10
2244.131
 20
-7047.488
 30
-2425.000
 70
    32
  0
VERTEX
  8
7700LEVEL
 62
13
 10
2246.647
 20
-7038.517
 30
-2425.000
 70
    32
  0
VERTEX
  8
7700LEVEL
 62
13
 10
2248.692
 20
-7031.265
 30
-2425.000
 70
    32
  0
VERTEX
  8
7700LEVEL
 62
13
 10
2251.151
 20
-7028.695
 30
-2425.000
 70
    32
  0
VERTEX
  8
7700LEVEL
 62
13
 10
2256.103
 20
-7031.508
 30
-2425.000
 70
    32
  0
VERTEX
  8
7700LEVEL
 62
13
 10
2263.417
 20
-7033.133
 30
-2425.000
 70
    32
  0
VERTEX
  8
7700LEVEL
 62
13
 10
2268.687
 20
-7036.459
 30
-2425.000
 70
    32
  0
VERTEX
  8
7700LEVEL
 62
13
 10
2273.077
 20
-7039.690
 30
-2425.000
 70
    32
  0
VERTEX
  8
7700LEVEL
 62
13
 10
2277.138
 20
-7042.478
 30
-2425.000
 70
    32
  0
VERTEX
  8
7700LEVEL
 62
13
 10
2281.721
 20
-7046.811
 30
-2425.000
 70
    32
  0
VERTEX
  8
7700LEVEL
 62
13
 10
2285.628
 20
-7050.400
 30
-2425.000
 70
    32
  0
VERTEX
  8
7700LEVEL
 62
13
 10
2288.558
 20
-7053.092
 30
-2425.000
 70
    32
  0
VERTEX
  8
7700LEVEL
 62
13
 10
2300.233
 20
-7061.022
 30
-2425.000
 70
    32
  0
VERTEX
  8
7700LEVEL
 62
13
 10
2305.659
 20
-7065.231
 30
-2425.000
 70
    32
  0
VERTEX
  8
7700LEVEL
 62
13
 10
2312.600
 20
-7070.560
 30
-2425.000
 70
    32
  0
VERTEX
  8
7700LEVEL
 62
13
 10
2315.822
 20
-7072.973
 30
-2425.000
 70
    32
  0
VERTEX
  8
7700LEVEL
 62
13
 10
2318.614
 20
-7077.076
 30
-2425.000
 70
    32
  0
VERTEX
  8
7700LEVEL
 62
13
 10
2321.233
 20
-7081.619
 30
-2425.000
 70
    32
  0
VERTEX
  8
7700LEVEL
 62
13
 10
2323.980
 20
-7086.503
 30
-2425.000
 70
    32
  0
VERTEX
  8
7700LEVEL
 62
13
 10
2326.418
 20
-7091.055
 30
-2425.000
 70
    32
  0
VERTEX
  8
7700LEVEL
 62
13
 10
2326.630
 20
-7092.519
 30
-2425.000
 70
    32
  0
VERTEX
  8
7700LEVEL
 62
13
 10
2324.251
 20
-7091.664
 30
-2425.000
 70
    32
  0
VERTEX
  8
7700LEVEL
 62
13
 10
2319.255
 20
-7085.765
 30
-2425.000
 70
    32
  0
VERTEX
  8
7700LEVEL
 62
13
 10
2314.497
 20
-7078.755
 30
-2425.000
 70
    32
  0
VERTEX
  8
7700LEVEL
 62
13
 10
2308.971
 20
-7072.813
 30
-2425.000
 70
    32
  0
VERTEX
  8
7700LEVEL
 62
13
 10
2304.653
 20
-7069.342
 30
-2425.000
 70
    32
  0
VERTEX
  8
7700LEVEL
 62
13
 10
2301.606
 20
-7067.922
 30
-2425.000
 70
    32
  0
VERTEX
  8
7700LEVEL
 62
13
 10
2300.490
 20
-7068.687
 30
-2425.000
 70
    32
  0
VERTEX
  8
7700LEVEL
 62
13
 10
2303.611
 20
-7074.666
 30
-2425.000
 70
    32
  0
VERTEX
  8
7700LEVEL
 62
13
 10
2310.925
 20
-7084.956
 30
-2425.000
 70
    32
  0
VERTEX
  8
7700LEVEL
 62
13
 10
2318.387
 20
-7095.697
 30
-2425.000
 70
    32
  0
VERTEX
  8
7700LEVEL
 62
13
 10
2325.191
 20
-7105.804
 30
-2425.000
 70
    32
  0
VERTEX
  8
7700LEVEL
 62
13
 10
2331.458
 20
-7122.419
 30
-2425.000
 70
    32
  0
VERTEX
  8
7700LEVEL
 62
13
 10
2336.215
 20
-7138.345
 30
-2425.000
 70
    32
  0
VERTEX
  8
7700LEVEL
 62
13
 10
2340.599
 20
-7158.225
 30
-2425.000
 70
    32
  0
VERTEX
  8
7700LEVEL
 62
13
 10
2344.755
 20
-7177.713
 30
-2425.000
 70
    32
  0
VERTEX
  8
7700LEVEL
 62
13
 10
2349.816
 20
-7200.272
 30
-2425.000
 70
    32
  0
VERTEX
  8
7700LEVEL
 62
13
 10
2350.454
 20
-7209.462
 30
-2425.000
 70
    32
  0
VERTEX
  8
7700LEVEL
 62
13
 10
2349.104
 20
-7221.435
 30
-2425.000
 70
    32
  0
VERTEX
  8
7700LEVEL
 62
13
 10
2345.892
 20
-7232.917
 30
-2425.000
 70
    32
  0
VERTEX
  8
7700LEVEL
 62
13
 10
2344.823
 20
-7239.383
 30
-2425.000
 70
    32
  0
VERTEX
  8
7700LEVEL
 62
13
 10
2342.570
 20
-7241.053
 30
-2425.000
 70
    32
  0
VERTEX
  8
7700LEVEL
 62
13
 10
2338.166
 20
-7238.643
 30
-2425.000
 70
    32
  0
VERTEX
  8
7700LEVEL
 62
13
 10
2333.197
 20
-7231.602
 30
-2425.000
 70
    32
  0
VERTEX
  8
7700LEVEL
 62
13
 10
2329.380
 20
-7224.769
 30
-2425.000
 70
    32
  0
VERTEX
  8
7700LEVEL
 62
13
 10
2325.693
 20
-7216.092
 30
-2425.000
 70
    32
  0
VERTEX
  8
7700LEVEL
 62
13
 10
2319.700
 20
-7202.454
 30
-2425.000
 70
    32
  0
VERTEX
  8
7700LEVEL
 62
13
 10
2313.244
 20
-7192.650
 30
-2425.000
 70
    32
  0
VERTEX
  8
7700LEVEL
 62
13
 10
2309.442
 20
-7188.360
 30
-2425.000
 70
    32
  0
VERTEX
  8
7700LEVEL
 62
13
 10
2306.345
 20
-7188.723
 30
-2425.000
 70
    32
  0
VERTEX
  8
7700LEVEL
 62
13
 10
2306.067
 20
-7193.480
 30
-2425.000
 70
    32
  0
VERTEX
  8
7700LEVEL
 62
13
 10
2305.815
 20
-7195.412
 30
-2425.000
 70
    32
  0
VERTEX
  8
7700LEVEL
 62
13
 10
2301.810
 20
-7195.139
 30
-2425.000
 70
    32
  0
VERTEX
  8
7700LEVEL
 62
13
 10
2296.585
 20
-7192.715
 30
-2425.000
 70
    32
  0
VERTEX
  8
7700LEVEL
 62
13
 10
2292.550
 20
-7190.468
 30
-2425.000
 70
    32
  0
VERTEX
  8
7700LEVEL
 62
13
 10
2288.609
 20
-7189.523
 30
-2425.000
 70
    32
  0
VERTEX
  8
7700LEVEL
 62
13
 10
2286.302
 20
-7191.794
 30
-2425.000
 70
    32
  0
VERTEX
  8
7700LEVEL
 62
13
 10
2286.827
 20
-7196.205
 30
-2425.000
 70
    32
  0
VERTEX
  8
7700LEVEL
 62
13
 10
2287.339
 20
-7199.504
 30
-2425.000
 70
    32
  0
VERTEX
  8
7700LEVEL
 62
13
 10
2287.660
 20
-7201.199
 30
-2425.000
 70
    32
  0
VERTEX
  8
7700LEVEL
 62
13
 10
2287.122
 20
-7202.408
 30
-2425.000
 70
    32
  0
VERTEX
  8
7700LEVEL
 62
13
 10
2286.082
 20
-7203.864
 30
-2425.000
 70
    32
  0
VERTEX
  8
7700LEVEL
 62
13
 10
2283.629
 20
-7203.750
 30
-2425.000
 70
    32
  0
VERTEX
  8
7700LEVEL
 62
13
 10
2280.996
 20
-7203.394
 30
-2425.000
 70
    32
  0
VERTEX
  8
7700LEVEL
 62
13
 10
2277.986
 20
-7202.446
 30
-2425.000
 70
    32
  0
VERTEX
  8
7700LEVEL
 62
13
 10
2274.747
 20
-7201.355
 30
-2425.000
 70
    32
  0
VERTEX
  8
7700LEVEL
 62
13
 10
2269.925
 20
-7200.065
 30
-2425.000
 70
    32
  0
VERTEX
  8
7700LEVEL
 62
13
 10
2267.004
 20
-7199.488
 30
-2425.000
 70
    32
  0
VERTEX
  8
7700LEVEL
 62
13
 10
2265.472
 20
-7202.805
 30
-2425.000
 70
    32
  0
VERTEX
  8
7700LEVEL
 62
13
 10
2266.884
 20
-7211.608
 30
-2425.000
 70
    32
  0
VERTEX
  8
7700LEVEL
 62
13
 10
2273.134
 20
-7223.996
 30
-2425.000
 70
    32
  0
VERTEX
  8
7700LEVEL
 62
13
 10
2278.758
 20
-7233.856
 30
-2425.000
 70
    32
  0
VERTEX
  8
7700LEVEL
 62
13
 10
2285.114
 20
-7243.609
 30
-2425.000
 70
    32
  0
VERTEX
  8
7700LEVEL
 62
13
 10
2291.959
 20
-7251.753
 30
-2425.000
 70
    32
  0
VERTEX
  8
7700LEVEL
 62
13
 10
2299.029
 20
-7261.039
 30
-2425.000
 70
    32
  0
VERTEX
  8
7700LEVEL
 62
13
 10
2304.626
 20
-7268.425
 30
-2425.000
 70
    32
  0
VERTEX
  8
7700LEVEL
 62
13
 10
2308.789
 20
-7276.312
 30
-2425.000
 70
    32
  0
VERTEX
  8
7700LEVEL
 62
13
 10
2310.343
 20
-7281.270
 30
-2425.000
 70
    32
  0
VERTEX
  8
7700LEVEL
 62
13
 10
2312.867
 20
-7293.676
 30
-2425.000
 70
    32
  0
VERTEX
  8
7700LEVEL
 62
13
 10
2314.226
 20
-7297.781
 30
-2425.000
 70
    32
  0
VERTEX
  8
7700LEVEL
 62
13
 10
2313.789
 20
-7302.407
 30
-2425.000
 70
    32
  0
VERTEX
  8
7700LEVEL
 62
13
 10
2312.990
 20
-7305.368
 30
-2425.000
 70
    32
  0
VERTEX
  8
7700LEVEL
 62
13
 10
2311.773
 20
-7306.332
 30
-2425.000
 70
    32
  0
VERTEX
  8
7700LEVEL
 62
13
 10
2308.919
 20
-7304.333
 30
-2425.000
 70
    32
  0
VERTEX
  8
7700LEVEL
 62
13
 10
2305.640
 20
-7301.339
 30
-2425.000
 70
    32
  0
VERTEX
  8
7700LEVEL
 62
13
 10
2303.306
 20
-7301.385
 30
-2425.000
 70
    32
  0
VERTEX
  8
7700LEVEL
 62
13
 10
2303.097
 20
-7304.720
 30
-2425.000
 70
    32
  0
VERTEX
  8
7700LEVEL
 62
13
 10
2305.421
 20
-7311.726
 30
-2425.000
 70
    32
  0
VERTEX
  8
7700LEVEL
 62
13
 10
2305.931
 20
-7315.275
 30
-2425.000
 70
    32
  0
VERTEX
  8
7700LEVEL
 62
13
 10
2305.255
 20
-7316.213
 30
-2425.000
 70
    32
  0
VERTEX
  8
7700LEVEL
 62
13
 10
2301.720
 20
-7314.219
 30
-2425.000
 70
    32
  0
VERTEX
  8
7700LEVEL
 62
13
 10
2298.871
 20
-7311.468
 30
-2425.000
 70
    32
  0
VERTEX
  8
7700LEVEL
 62
13
 10
2294.465
 20
-7309.309
 30
-2425.000
 70
    32
  0
VERTEX
  8
7700LEVEL
 62
13
 10
2292.271
 20
-7311.059
 30
-2425.000
 70
    32
  0
VERTEX
  8
7700LEVEL
 62
13
 10
2289.103
 20
-7315.028
 30
-2425.000
 70
    32
  0
VERTEX
  8
7700LEVEL
 62
13
 10
2286.554
 20
-7322.778
 30
-2425.000
 70
    32
  0
VERTEX
  8
7700LEVEL
 62
13
 10
2286.762
 20
-7330.292
 30
-2425.000
 70
    32
  0
VERTEX
  8
7700LEVEL
 62
13
 10
2287.179
 20
-7337.838
 30
-2425.000
 70
    32
  0
VERTEX
  8
7700LEVEL
 62
13
 10
2289.490
 20
-7343.731
 30
-2425.000
 70
    32
  0
VERTEX
  8
7700LEVEL
 62
13
 10
2292.042
 20
-7352.812
 30
-2425.000
 70
    32
  0
VERTEX
  8
7700LEVEL
 62
13
 10
2292.599
 20
-7360.629
 30
-2425.000
 70
    32
  0
VERTEX
  8
7700LEVEL
 62
13
 10
2295.378
 20
-7372.035
 30
-2425.000
 70
    32
  0
VERTEX
  8
7700LEVEL
 62
13
 10
2297.921
 20
-7382.869
 30
-2425.000
 70
    32
  0
VERTEX
  8
7700LEVEL
 62
13
 10
2299.268
 20
-7392.594
 30
-2425.000
 70
    32
  0
VERTEX
  8
7700LEVEL
 62
13
 10
2300.717
 20
-7403.802
 30
-2425.000
 70
    32
  0
VERTEX
  8
7700LEVEL
 62
13
 10
2302.359
 20
-7416.113
 30
-2425.000
 70
    32
  0
VERTEX
  8
7700LEVEL
 62
13
 10
2303.806
 20
-7434.554
 30
-2425.000
 70
    32
  0
VERTEX
  8
7700LEVEL
 62
13
 10
2306.007
 20
-7447.449
 30
-2425.000
 70
    32
  0
VERTEX
  8
7700LEVEL
 62
13
 10
2307.294
 20
-7458.777
 30
-2425.000
 70
    32
  0
VERTEX
  8
7700LEVEL
 62
13
 10
2306.797
 20
-7468.621
 30
-2425.000
 70
    32
  0
VERTEX
  8
7700LEVEL
 62
13
 10
2305.902
 20
-7476.330
 30
-2425.000
 70
    32
  0
VERTEX
  8
7700LEVEL
 62
13
 10
2307.410
 20
-7475.337
 30
-2425.000
 70
    32
  0
VERTEX
  8
7700LEVEL
 62
13
 10
2304.541
 20
-7483.074
 30
-2425.000
 70
    32
  0
VERTEX
  8
7700LEVEL
 62
13
 10
2300.912
 20
-7492.310
 30
-2425.000
 70
    32
  0
VERTEX
  8
7700LEVEL
 62
13
 10
2299.599
 20
-7497.521
 30
-2425.000
 70
    32
  0
VERTEX
  8
7700LEVEL
 62
13
 10
2295.565
 20
-7507.556
 30
-2425.000
 70
    32
  0
VERTEX
  8
7700LEVEL
 62
13
 10
2290.746
 20
-7516.364
 30
-2425.000
 70
    32
  0
VERTEX
  8
7700LEVEL
 62
13
 10
2286.984
 20
-7522.644
 30
-2425.000
 70
    32
  0
VERTEX
  8
7700LEVEL
 62
13
 10
2283.940
 20
-7525.772
 30
-2425.000
 70
    32
  0
VERTEX
  8
7700LEVEL
 62
13
 10
2280.965
 20
-7524.112
 30
-2425.000
 70
    32
  0
VERTEX
  8
7700LEVEL
 62
13
 10
2278.743
 20
-7521.955
 30
-2425.000
 70
    32
  0
VERTEX
  8
7700LEVEL
 62
13
 10
2276.350
 20
-7521.671
 30
-2425.000
 70
    32
  0
VERTEX
  8
7700LEVEL
 62
13
 10
2273.236
 20
-7519.740
 30
-2425.000
 70
    32
  0
VERTEX
  8
7700LEVEL
 62
13
 10
2270.266
 20
-7517.078
 30
-2425.000
 70
    32
  0
VERTEX
  8
7700LEVEL
 62
13
 10
2266.395
 20
-7519.511
 30
-2425.000
 70
    32
  0
VERTEX
  8
7700LEVEL
 62
13
 10
2261.962
 20
-7527.409
 30
-2425.000
 70
    32
  0
VERTEX
  8
7700LEVEL
 62
13
 10
2255.440
 20
-7536.358
 30
-2425.000
 70
    32
  0
VERTEX
  8
7700LEVEL
 62
13
 10
2244.245
 20
-7549.517
 30
-2425.000
 70
    32
  0
VERTEX
  8
7700LEVEL
 62
13
 10
2239.203
 20
-7555.249
 30
-2425.000
 70
    32
  0
VERTEX
  8
7700LEVEL
 62
13
 10
2234.023
 20
-7560.709
 30
-2425.000
 70
    32
  0
VERTEX
  8
7700LEVEL
 62
13
 10
2230.939
 20
-7563.867
 30
-2425.000
 70
    32
  0
VERTEX
  8
7700LEVEL
 62
13
 10
2228.602
 20
-7564.414
 30
-2425.000
 70
    32
  0
VERTEX
  8
7700LEVEL
 62
13
 10
2225.561
 20
-7565.359
 30
-2425.000
 70
    32
  0
VERTEX
  8
7700LEVEL
 62
13
 10
2222.890
 20
-7568.148
 30
-2425.000
 70
    32
  0
VERTEX
  8
7700LEVEL
 62
13
 10
2220.661
 20
-7570.860
 30
-2425.000
 70
    32
  0
VERTEX
  8
7700LEVEL
 62
13
 10
2221.835
 20
-7574.043
 30
-2425.000
 70
    32
  0
VERTEX
  8
7700LEVEL
 62
13
 10
2224.877
 20
-7579.830
 30
-2425.000
 70
    32
  0
VERTEX
  8
7700LEVEL
 62
13
 10
2227.470
 20
-7583.582
 30
-2425.000
 70
    32
  0
VERTEX
  8
7700LEVEL
 62
13
 10
2232.554
 20
-7589.852
 30
-2425.000
 70
    32
  0
VERTEX
  8
7700LEVEL
 62
13
 10
2237.359
 20
-7593.897
 30
-2425.000
 70
    32
  0
VERTEX
  8
7700LEVEL
 62
13
 10
2240.847
 20
-7595.239
 30
-2425.000
 70
    32
  0
VERTEX
  8
7700LEVEL
 62
13
 10
2242.663
 20
-7594.828
 30
-2425.000
 70
    32
  0
VERTEX
  8
7700LEVEL
 62
13
 10
2244.384
 20
-7593.366
 30
-2425.000
 70
    32
  0
VERTEX
  8
7700LEVEL
 62
13
 10
2246.703
 20
-7594.391
 30
-2425.000
 70
    32
  0
VERTEX
  8
7700LEVEL
 62
13
 10
2248.845
 20
-7596.356
 30
-2425.000
 70
    32
  0
VERTEX
  8
7700LEVEL
 62
13
 10
2252.475
 20
-7601.086
 30
-2425.000
 70
    32
  0
VERTEX
  8
7700LEVEL
 62
13
 10
2254.817
 20
-7604.836
 30
-2425.000
 70
    32
  0
SEQEND
  8
7700LEVEL
  0
POLYLINE
  8
7700LEVEL
 62
7
 66
     1
 70
     9
  0
VERTEX
  8
7700LEVEL
 62
7
 10
2111.520
 20
-7034.608
 30
-2425.000
 70
    32
  0
VERTEX
  8
7700LEVEL
 62
7
 10
2113.438
 20
-7039.047
 30
-2425.000
 70
    32
  0
VERTEX
  8
7700LEVEL
 62
7
 10
2113.753
 20
-7041.743
 30
-2425.000
 70
    32
  0
VERTEX
  8
7700LEVEL
 62
7
 10
2114.287
 20
-7048.268
 30
-2425.000
 70
    32
  0
VERTEX
  8
7700LEVEL
 62
7
 10
2112.953
 20
-7051.937
 30
-2425.000
 70
    32
  0
VERTEX
  8
7700LEVEL
 62
7
 10
2110.838
 20
-7057.495
 30
-2425.000
 70
    32
  0
VERTEX
  8
7700LEVEL
 62
7
 10
2109.929
 20
-7060.475
 30
-2425.000
 70
    32
  0
VERTEX
  8
7700LEVEL
 62
7
 10
2109.329
 20
-7062.104
 30
-2425.000
 70
    32
  0
VERTEX
  8
7700LEVEL
 62
7
 10
2109.067
 20
-7062.423
 30
-2425.000
 70
    32
  0
VERTEX
  8
7700LEVEL
 62
7
 10
2108.276
 20
-7060.515
 30
-2425.000
 70
    32
  0
VERTEX
  8
7700LEVEL
 62
7
 10
2107.856
 20
-7053.470
 30
-2425.000
 70
    32
  0
VERTEX
  8
7700LEVEL
 62
7
 10
2105.934
 20
-7046.167
 30
-2425.000
 70
    32
  0
VERTEX
  8
7700LEVEL
 62
7
 10
2103.937
 20
-7037.921
 30
-2425.000
 70
    32
  0
VERTEX
  8
7700LEVEL
 62
7
 10
2099.439
 20
-7027.476
 30
-2425.000
 70
    32
  0
VERTEX
  8
7700LEVEL
 62
7
 10
2093.648
 20
-7015.372
 30
-2425.000
 70
    32
  0
VERTEX
  8
7700LEVEL
 62
7
 10
2089.144
 20
-7007.612
 30
-2425.000
 70
    32
  0
VERTEX
  8
7700LEVEL
 62
7
 10
2084.167
 20
-7000.391
 30
-2425.000
 70
    32
  0
VERTEX
  8
7700LEVEL
 62
7
 10
2080.171
 20
-6993.066
 30
-2425.000
 70
    32
  0
VERTEX
  8
7700LEVEL
 62
7
 10
2076.504
 20
-6984.499
 30
-2425.000
 70
    32
  0
VERTEX
  8
7700LEVEL
 62
7
 10
2074.386
 20
-6979.959
 30
-2425.000
 70
    32
  0
VERTEX
  8
7700LEVEL
 62
7
 10
2073.885
 20
-6978.273
 30
-2425.000
 70
    32
  0
VERTEX
  8
7700LEVEL
 62
7
 10
2074.138
 20
-6977.774
 30
-2425.000
 70
    32
  0
VERTEX
  8
7700LEVEL
 62
7
 10
2075.999
 20
-6978.265
 30
-2425.000
 70
    32
  0
VERTEX
  8
7700LEVEL
 62
7
 10
2078.421
 20
-6980.273
 30
-2425.000
 70
    32
  0
VERTEX
  8
7700LEVEL
 62
7
 10
2081.465
 20
-6984.127
 30
-2425.000
 70
    32
  0
VERTEX
  8
7700LEVEL
 62
7
 10
2084.236
 20
-6988.370
 30
-2425.000
 70
    32
  0
VERTEX
  8
7700LEVEL
 62
7
 10
2087.867
 20
-6994.532
 30
-2425.000
 70
    32
  0
VERTEX
  8
7700LEVEL
 62
7
 10
2091.762
 20
-7000.124
 30
-2425.000
 70
    32
  0
VERTEX
  8
7700LEVEL
 62
7
 10
2096.226
 20
-7005.980
 30
-2425.000
 70
    32
  0
VERTEX
  8
7700LEVEL
 62
7
 10
2101.204
 20
-7014.884
 30
-2425.000
 70
    32
  0
VERTEX
  8
7700LEVEL
 62
7
 10
2104.297
 20
-7020.572
 30
-2425.000
 70
    32
  0
VERTEX
  8
7700LEVEL
 62
7
 10
2105.915
 20
-7023.176
 30
-2425.000
 70
    32
  0
VERTEX
  8
7700LEVEL
 62
7
 10
2108.398
 20
-7026.947
 30
-2425.000
 70
    32
  0
VERTEX
  8
7700LEVEL
 62
7
 10
2109.520
 20
-7030.479
 30
-2425.000
 70
    32
  0
SEQEND
  8
7700LEVEL
  0
POLYLINE
  8
7700LEVEL
 62
7
 66
     1
 70
     9
  0
VERTEX
  8
7700LEVEL
 62
7
 10
2243.718
 20
-7259.761
 30
-2425.000
 70
    32
  0
VERTEX
  8
7700LEVEL
 62
7
 10
2246.997
 20
-7268.055
 30
-2425.000
 70
    32
  0
VERTEX
  8
7700LEVEL
 62
7
 10
2251.274
 20
-7275.172
 30
-2425.000
 70
    32
  0
VERTEX
  8
7700LEVEL
 62
7
 10
2254.356
 20
-7282.613
 30
-2425.000
 70
    32
  0
VERTEX
  8
7700LEVEL
 62
7
 10
2257.102
 20
-7289.430
 30
-2425.000
 70
    32
  0
VERTEX
  8
7700LEVEL
 62
7
 10
2261.048
 20
-7296.606
 30
-2425.000
 70
    32
  0
VERTEX
  8
7700LEVEL
 62
7
 10
2266.072
 20
-7304.478
 30
-2425.000
 70
    32
  0
VERTEX
  8
7700LEVEL
 62
7
 10
2270.135
 20
-7313.998
 30
-2425.000
 70
    32
  0
VERTEX
  8
7700LEVEL
 62
7
 10
2272.544
 20
-7320.193
 30
-2425.000
 70
    32
  0
VERTEX
  8
7700LEVEL
 62
7
 10
2273.747
 20
-7327.032
 30
-2425.000
 70
    32
  0
VERTEX
  8
7700LEVEL
 62
7
 10
2275.668
 20
-7336.269
 30
-2425.000
 70
    32
  0
VERTEX
  8
7700LEVEL
 62
7
 10
2277.678
 20
-7347.310
 30
-2425.000
 70
    32
  0
VERTEX
  8
7700LEVEL
 62
7
 10
2278.745
 20
-7355.311
 30
-2425.000
 70
    32
  0
VERTEX
  8
7700LEVEL
 62
7
 10
2278.951
 20
-7366.441
 30
-2425.000
 70
    32
  0
VERTEX
  8
7700LEVEL
 62
7
 10
2278.069
 20
-7378.878
 30
-2425.000
 70
    32
  0
VERTEX
  8
7700LEVEL
 62
7
 10
2277.461
 20
-7387.059
 30
-2425.000
 70
    32
  0
VERTEX
  8
7700LEVEL
 62
7
 10
2277.566
 20
-7396.707
 30
-2425.000
 70
    32
  0
VERTEX
  8
7700LEVEL
 62
7
 10
2279.418
 20
-7405.684
 30
-2425.000
 70
    32
  0
VERTEX
  8
7700LEVEL
 62
7
 10
2280.641
 20
-7414.316
 30
-2425.000
 70
    32
  0
VERTEX
  8
7700LEVEL
 62
7
 10
2283.493
 20
-7427.165
 30
-2425.000
 70
    32
  0
VERTEX
  8
7700LEVEL
 62
7
 10
2285.184
 20
-7436.261
 30
-2425.000
 70
    32
  0
VERTEX
  8
7700LEVEL
 62
7
 10
2288.563
 20
-7447.971
 30
-2425.000
 70
    32
  0
VERTEX
  8
7700LEVEL
 62
7
 10
2290.693
 20
-7459.173
 30
-2425.000
 70
    32
  0
VERTEX
  8
7700LEVEL
 62
7
 10
2292.342
 20
-7466.866
 30
-2425.000
 70
    32
  0
VERTEX
  8
7700LEVEL
 62
7
 10
2292.208
 20
-7470.892
 30
-2425.000
 70
    32
  0
VERTEX
  8
7700LEVEL
 62
7
 10
2290.787
 20
-7479.489
 30
-2425.000
 70
    32
  0
VERTEX
  8
7700LEVEL
 62
7
 10
2287.929
 20
-7486.906
 30
-2425.000
 70
    32
  0
VERTEX
  8
7700LEVEL
 62
7
 10
2285.310
 20
-7496.578
 30
-2425.000
 70
    32
  0
VERTEX
  8
7700LEVEL
 62
7
 10
2283.312
 20
-7504.230
 30
-2425.000
 70
    32
  0
VERTEX
  8
7700LEVEL
 62
7
 10
2282.732
 20
-7507.653
 30
-2425.000
 70
    32
  0
VERTEX
  8
7700LEVEL
 62
7
 10
2281.035
 20
-7511.841
 30
-2425.000
 70
    32
  0
VERTEX
  8
7700LEVEL
 62
7
 10
2280.467
 20
-7513.009
 30
-2425.000
 70
    32
  0
VERTEX
  8
7700LEVEL
 62
7
 10
2279.470
 20
-7513.935
 30
-2425.000
 70
    32
  0
VERTEX
  8
7700LEVEL
 62
7
 10
2277.824
 20
-7512.724
 30
-2425.000
 70
    32
  0
VERTEX
  8
7700LEVEL
 62
7
 10
2276.410
 20
-7509.470
 30
-2425.000
 70
    32
  0
VERTEX
  8
7700LEVEL
 62
7
 10
2274.797
 20
-7507.798
 30
-2425.000
 70
    32
  0
VERTEX
  8
7700LEVEL
 62
7
 10
2273.427
 20
-7509.062
 30
-2425.000
 70
    32
  0
VERTEX
  8
7700LEVEL
 62
7
 10
2272.429
 20
-7510.239
 30
-2425.000
 70
    32
  0
VERTEX
  8
7700LEVEL
 62
7
 10
2271.810
 20
-7509.824
 30
-2425.000
 70
    32
  0
VERTEX
  8
7700LEVEL
 62
7
 10
2270.101
 20
-7507.350
 30
-2425.000
 70
    32
  0
VERTEX
  8
7700LEVEL
 62
7
 10
2267.575
 20
-7504.110
 30
-2425.000
 70
    32
  0
VERTEX
  8
7700LEVEL
 62
7
 10
2265.394
 20
-7503.607
 30
-2425.000
 70
    32
  0
VERTEX
  8
7700LEVEL
 62
7
 10
2263.530
 20
-7505.550
 30
-2425.000
 70
    32
  0
VERTEX
  8
7700LEVEL
 62
7
 10
2261.155
 20
-7510.926
 30
-2425.000
 70
    32
  0
VERTEX
  8
7700LEVEL
 62
7
 10
2257.747
 20
-7516.506
 30
-2425.000
 70
    32
  0
VERTEX
  8
7700LEVEL
 62
7
 10
2251.305
 20
-7525.395
 30
-2425.000
 70
    32
  0
VERTEX
  8
7700LEVEL
 62
7
 10
2244.955
 20
-7533.904
 30
-2425.000
 70
    32
  0
VERTEX
  8
7700LEVEL
 62
7
 10
2236.769
 20
-7542.963
 30
-2425.000
 70
    32
  0
VERTEX
  8
7700LEVEL
 62
7
 10
2230.611
 20
-7549.459
 30
-2425.000
 70
    32
  0
VERTEX
  8
7700LEVEL
 62
7
 10
2227.329
 20
-7552.266
 30
-2425.000
 70
    32
  0
VERTEX
  8
7700LEVEL
 62
7
 10
2219.849
 20
-7558.744
 30
-2425.000
 70
    32
  0
VERTEX
  8
7700LEVEL
 62
7
 10
2214.090
 20
-7563.760
 30
-2425.000
 70
    32
  0
VERTEX
  8
7700LEVEL
 62
7
 10
2211.884
 20
-7565.831
 30
-2425.000
 70
    32
  0
VERTEX
  8
7700LEVEL
 62
7
 10
2210.424
 20
-7568.908
 30
-2425.000
 70
    32
  0
VERTEX
  8
7700LEVEL
 62
7
 10
2209.239
 20
-7576.395
 30
-2425.000
 70
    32
  0
VERTEX
  8
7700LEVEL
 62
7
 10
2209.800
 20
-7583.461
 30
-2425.000
 70
    32
  0
VERTEX
  8
7700LEVEL
 62
7
 10
2208.694
 20
-7589.455
 30
-2425.000
 70
    32
  0
VERTEX
  8
7700LEVEL
 62
7
 10
2203.380
 20
-7600.624
 30
-2425.000
 70
    32
  0
VERTEX
  8
7700LEVEL
 62
7
 10
2197.814
 20
-7612.293
 30
-2425.000
 70
    32
  0
VERTEX
  8
7700LEVEL
 62
7
 10
2192.210
 20
-7621.808
 30
-2425.000
 70
    32
  0
VERTEX
  8
7700LEVEL
 62
7
 10
2187.809
 20
-7629.246
 30
-2425.000
 70
    32
  0
VERTEX
  8
7700LEVEL
 62
7
 10
2185.884
 20
-7631.359
 30
-2425.000
 70
    32
  0
VERTEX
  8
7700LEVEL
 62
7
 10
2183.790
 20
-7631.477
 30
-2425.000
 70
    32
  0
VERTEX
  8
7700LEVEL
 62
7
 10
2181.787
 20
-7627.849
 30
-2425.000
 70
    32
  0
VERTEX
  8
7700LEVEL
 62
7
 10
2180.173
 20
-7622.811
 30
-2425.000
 70
    32
  0
VERTEX
  8
7700LEVEL
 62
7
 10
2176.993
 20
-7616.502
 30
-2425.000
 70
    32
  0
VERTEX
  8
7700LEVEL
 62
7
 10
2172.417
 20
-7607.299
 30
-2425.000
 70
    32
  0
VERTEX
  8
7700LEVEL
 62
7
 10
2170.541
 20
-7600.897
 30
-2425.000
 70
    32
  0
VERTEX
  8
7700LEVEL
 62
7
 10
2170.449
 20
-7597.661
 30
-2425.000
 70
    32
  0
VERTEX
  8
7700LEVEL
 62
7
 10
2170.883
 20
-7593.536
 30
-2425.000
 70
    32
  0
VERTEX
  8
7700LEVEL
 62
7
 10
2172.978
 20
-7589.802
 30
-2425.000
 70
    32
  0
VERTEX
  8
7700LEVEL
 62
7
 10
2174.731
 20
-7588.129
 30
-2425.000
 70
    32
  0
VERTEX
  8
7700LEVEL
 62
7
 10
2176.551
 20
-7588.650
 30
-2425.000
 70
    32
  0
VERTEX
  8
7700LEVEL
 62
7
 10
2178.634
 20
-7590.535
 30
-2425.000
 70
    32
  0
VERTEX
  8
7700LEVEL
 62
7
 10
2180.234
 20
-7591.095
 30
-2425.000
 70
    32
  0
VERTEX
  8
7700LEVEL
 62
7
 10
2181.315
 20
-7591.292
 30
-2425.000
 70
    32
  0
VERTEX
  8
7700LEVEL
 62
7
 10
2183.543
 20
-7590.513
 30
-2425.000
 70
    32
  0
VERTEX
  8
7700LEVEL
 62
7
 10
2185.280
 20
-7586.296
 30
-2425.000
 70
    32
  0
VERTEX
  8
7700LEVEL
 62
7
 10
2185.910
 20
-7583.023
 30
-2425.000
 70
    32
  0
VERTEX
  8
7700LEVEL
 62
7
 10
2188.431
 20
-7578.350
 30
-2425.000
 70
    32
  0
VERTEX
  8
7700LEVEL
 62
7
 10
2189.956
 20
-7577.968
 30
-2425.000
 70
    32
  0
VERTEX
  8
7700LEVEL
 62
7
 10
2190.767
 20
-7576.369
 30
-2425.000
 70
    32
  0
VERTEX
  8
7700LEVEL
 62
7
 10
2192.305
 20
-7571.800
 30
-2425.000
 70
    32
  0
VERTEX
  8
7700LEVEL
 62
7
 10
2193.467
 20
-7568.321
 30
-2425.000
 70
    32
  0
VERTEX
  8
7700LEVEL
 62
7
 10
2195.675
 20
-7567.682
 30
-2425.000
 70
    32
  0
VERTEX
  8
7700LEVEL
 62
7
 10
2197.859
 20
-7564.068
 30
-2425.000
 70
    32
  0
VERTEX
  8
7700LEVEL
 62
7
 10
2199.570
 20
-7560.993
 30
-2425.000
 70
    32
  0
VERTEX
  8
7700LEVEL
 62
7
 10
2204.166
 20
-7556.090
 30
-2425.000
 70
    32
  0
VERTEX
  8
7700LEVEL
 62
7
 10
2210.478
 20
-7550.727
 30
-2425.000
 70
    32
  0
VERTEX
  8
7700LEVEL
 62
7
 10
2214.263
 20
-7547.422
 30
-2425.000
 70
    32
  0
VERTEX
  8
7700LEVEL
 62
7
 10
2222.639
 20
-7538.534
 30
-2425.000
 70
    32
  0
VERTEX
  8
7700LEVEL
 62
7
 10
2224.835
 20
-7531.234
 30
-2425.000
 70
    32
  0
VERTEX
  8
7700LEVEL
 62
7
 10
2227.878
 20
-7521.124
 30
-2425.000
 70
    32
  0
VERTEX
  8
7700LEVEL
 62
7
 10
2229.413
 20
-7513.689
 30
-2425.000
 70
    32
  0
VERTEX
  8
7700LEVEL
 62
7
 10
2228.623
 20
-7508.165
 30
-2425.000
 70
    32
  0
VERTEX
  8
7700LEVEL
 62
7
 10
2227.968
 20
-7498.364
 30
-2425.000
 70
    32
  0
VERTEX
  8
7700LEVEL
 62
7
 10
2230.162
 20
-7489.631
 30
-2425.000
 70
    32
  0
VERTEX
  8
7700LEVEL
 62
7
 10
2232.042
 20
-7484.933
 30
-2425.000
 70
    32
  0
VERTEX
  8
7700LEVEL
 62
7
 10
2235.262
 20
-7475.315
 30
-2425.000
 70
    32
  0
VERTEX
  8
7700LEVEL
 62
7
 10
2237.270
 20
-7469.275
 30
-2425.000
 70
    32
  0
VERTEX
  8
7700LEVEL
 62
7
 10
2238.005
 20
-7460.003
 30
-2425.000
 70
    32
  0
VERTEX
  8
7700LEVEL
 62
7
 10
2235.813
 20
-7450.905
 30
-2425.000
 70
    32
  0
VERTEX
  8
7700LEVEL
 62
7
 10
2232.578
 20
-7443.763
 30
-2425.000
 70
    32
  0
VERTEX
  8
7700LEVEL
 62
7
 10
2228.082
 20
-7438.118
 30
-2425.000
 70
    32
  0
VERTEX
  8
7700LEVEL
 62
7
 10
2220.682
 20
-7432.255
 30
-2425.000
 70
    32
  0
VERTEX
  8
7700LEVEL
 62
7
 10
2216.233
 20
-7428.944
 30
-2425.000
 70
    32
  0
VERTEX
  8
7700LEVEL
 62
7
 10
2212.969
 20
-7425.129
 30
-2425.000
 70
    32
  0
VERTEX
  8
7700LEVEL
 62
7
 10
2210.903
 20
-7422.171
 30
-2425.000
 70
    32
  0
VERTEX
  8
7700LEVEL
 62
7
 10
2208.760
 20
-7418.523
 30
-2425.000
 70
    32
  0
VERTEX
  8
7700LEVEL
 62
7
 10
2206.616
 20
-7409.825
 30
-2425.000
 70
    32
  0
VERTEX
  8
7700LEVEL
 62
7
 10
2205.091
 20
-7403.225
 30
-2425.000
 70
    32
  0
VERTEX
  8
7700LEVEL
 62
7
 10
2204.861
 20
-7397.784
 30
-2425.000
 70
    32
  0
VERTEX
  8
7700LEVEL
 62
7
 10
2205.062
 20
-7395.952
 30
-2425.000
 70
    32
  0
VERTEX
  8
7700LEVEL
 62
7
 10
2205.162
 20
-7396.002
 30
-2425.000
 70
    32
  0
VERTEX
  8
7700LEVEL
 62
7
 10
2205.930
 20
-7396.618
 30
-2425.000
 70
    32
  0
VERTEX
  8
7700LEVEL
 62
7
 10
2206.978
 20
-7397.275
 30
-2425.000
 70
    32
  0
VERTEX
  8
7700LEVEL
 62
7
 10
2207.477
 20
-7397.528
 30
-2425.000
 70
    32
  0
VERTEX
  8
7700LEVEL
 62
7
 10
2208.224
 20
-7396.601
 30
-2425.000
 70
    32
  0
VERTEX
  8
7700LEVEL
 62
7
 10
2206.783
 20
-7392.806
 30
-2425.000
 70
    32
  0
VERTEX
  8
7700LEVEL
 62
7
 10
2204.660
 20
-7383.968
 30
-2425.000
 70
    32
  0
VERTEX
  8
7700LEVEL
 62
7
 10
2203.664
 20
-7377.661
 30
-2425.000
 70
    32
  0
VERTEX
  8
7700LEVEL
 62
7
 10
2203.071
 20
-7371.056
 30
-2425.000
 70
    32
  0
VERTEX
  8
7700LEVEL
 62
7
 10
2204.001
 20
-7364.320
 30
-2425.000
 70
    32
  0
VERTEX
  8
7700LEVEL
 62
7
 10
2205.072
 20
-7357.353
 30
-2425.000
 70
    32
  0
VERTEX
  8
7700LEVEL
 62
7
 10
2206.099
 20
-7349.485
 30
-2425.000
 70
    32
  0
VERTEX
  8
7700LEVEL
 62
7
 10
2206.587
 20
-7343.077
 30
-2425.000
 70
    32
  0
VERTEX
  8
7700LEVEL
 62
7
 10
2206.323
 20
-7338.347
 30
-2425.000
 70
    32
  0
VERTEX
  8
7700LEVEL
 62
7
 10
2206.905
 20
-7327.691
 30
-2425.000
 70
    32
  0
VERTEX
  8
7700LEVEL
 62
7
 10
2206.011
 20
-7315.885
 30
-2425.000
 70
    32
  0
VERTEX
  8
7700LEVEL
 62
7
 10
2204.467
 20
-7305.558
 30
-2425.000
 70
    32
  0
VERTEX
  8
7700LEVEL
 62
7
 10
2202.241
 20
-7297.171
 30
-2425.000
 70
    32
  0
VERTEX
  8
7700LEVEL
 62
7
 10
2199.900
 20
-7289.554
 30
-2425.000
 70
    32
  0
VERTEX
  8
7700LEVEL
 62
7
 10
2196.309
 20
-7279.997
 30
-2425.000
 70
    32
  0
VERTEX
  8
7700LEVEL
 62
7
 10
2192.459
 20
-7270.007
 30
-2425.000
 70
    32
  0
VERTEX
  8
7700LEVEL
 62
7
 10
2187.037
 20
-7254.699
 30
-2425.000
 70
    32
  0
VERTEX
  8
7700LEVEL
 62
7
 10
2182.157
 20
-7240.796
 30
-2425.000
 70
    32
  0
VERTEX
  8
7700LEVEL
 62
7
 10
2177.564
 20
-7229.550
 30
-2425.000
 70
    32
  0
VERTEX
  8
7700LEVEL
 62
7
 10
2172.806
 20
-7215.308
 30
-2425.000
 70
    32
  0
VERTEX
  8
7700LEVEL
 62
7
 10
2169.071
 20
-7201.181
 30
-2425.000
 70
    32
  0
VERTEX
  8
7700LEVEL
 62
7
 10
2163.633
 20
-7185.012
 30
-2425.000
 70
    32
  0
VERTEX
  8
7700LEVEL
 62
7
 10
2160.577
 20
-7176.429
 30
-2425.000
 70
    32
  0
VERTEX
  8
7700LEVEL
 62
7
 10
2157.177
 20
-7166.542
 30
-2425.000
 70
    32
  0
VERTEX
  8
7700LEVEL
 62
7
 10
2151.310
 20
-7152.063
 30
-2425.000
 70
    32
  0
VERTEX
  8
7700LEVEL
 62
7
 10
2146.302
 20
-7137.819
 30
-2425.000
 70
    32
  0
VERTEX
  8
7700LEVEL
 62
7
 10
2141.527
 20
-7123.216
 30
-2425.000
 70
    32
  0
VERTEX
  8
7700LEVEL
 62
7
 10
2140.118
 20
-7108.612
 30
-2425.000
 70
    32
  0
VERTEX
  8
7700LEVEL
 62
7
 10
2140.759
 20
-7098.037
 30
-2425.000
 70
    32
  0
VERTEX
  8
7700LEVEL
 62
7
 10
2141.279
 20
-7082.503
 30
-2425.000
 70
    32
  0
VERTEX
  8
7700LEVEL
 62
7
 10
2141.007
 20
-7073.976
 30
-2425.000
 70
    32
  0
VERTEX
  8
7700LEVEL
 62
7
 10
2137.970
 20
-7060.204
 30
-2425.000
 70
    32
  0
VERTEX
  8
7700LEVEL
 62
7
 10
2134.697
 20
-7045.860
 30
-2425.000
 70
    32
  0
VERTEX
  8
7700LEVEL
 62
7
 10
2131.654
 20
-7034.773
 30
-2425.000
 70
    32
  0
VERTEX
  8
7700LEVEL
 62
7
 10
2129.611
 20
-7027.809
 30
-2425.000
 70
    32
  0
VERTEX
  8
7700LEVEL
 62
7
 10
2123.121
 20
-7017.033
 30
-2425.000
 70
    32
  0
VERTEX
  8
7700LEVEL
 62
7
 10
2117.842
 20
-7009.910
 30
-2425.000
 70
    32
  0
VERTEX
  8
7700LEVEL
 62
7
 10
2111.415
 20
-6998.714
 30
-2425.000
 70
    32
  0
VERTEX
  8
7700LEVEL
 62
7
 10
2107.989
 20
-6988.035
 30
-2425.000
 70
    32
  0
VERTEX
  8
7700LEVEL
 62
7
 10
2107.518
 20
-6981.090
 30
-2425.000
 70
    32
  0
VERTEX
  8
7700LEVEL
 62
7
 10
2106.833
 20
-6971.249
 30
-2425.000
 70
    32
  0
VERTEX
  8
7700LEVEL
 62
7
 10
2106.471
 20
-6964.535
 30
-2425.000
 70
    32
  0
VERTEX
  8
7700LEVEL
 62
7
 10
2107.217
 20
-6960.242
 30
-2425.000
 70
    32
  0
VERTEX
  8
7700LEVEL
 62
7
 10
2108.750
 20
-6956.674
 30
-2425.000
 70
    32
  0
VERTEX
  8
7700LEVEL
 62
7
 10
2111.251
 20
-6953.824
 30
-2425.000
 70
    32
  0
VERTEX
  8
7700LEVEL
 62
7
 10
2115.777
 20
-6948.911
 30
-2425.000
 70
    32
  0
VERTEX
  8
7700LEVEL
 62
7
 10
2117.925
 20
-6944.575
 30
-2425.000
 70
    32
  0
VERTEX
  8
7700LEVEL
 62
7
 10
2119.270
 20
-6940.586
 30
-2425.000
 70
    32
  0
VERTEX
  8
7700LEVEL
 62
7
 10
2120.198
 20
-6937.716
 30
-2425.000
 70
    32
  0
VERTEX
  8
7700LEVEL
 62
7
 10
2121.046
 20
-6936.589
 30
-2425.000
 70
    32
  0
VERTEX
  8
7700LEVEL
 62
7
 10
2121.455
 20
-6936.972
 30
-2425.000
 70
    32
  0
VERTEX
  8
7700LEVEL
 62
7
 10
2122.587
 20
-6938.752
 30
-2425.000
 70
    32
  0
VERTEX
  8
7700LEVEL
 62
7
 10
2124.023
 20
-6939.932
 30
-2425.000
 70
    32
  0
VERTEX
  8
7700LEVEL
 62
7
 10
2125.069
 20
-6939.156
 30
-2425.000
 70
    32
  0
VERTEX
  8
7700LEVEL
 62
7
 10
2126.240
 20
-6937.540
 30
-2425.000
 70
    32
  0
VERTEX
  8
7700LEVEL
 62
7
 10
2126.580
 20
-6937.662
 30
-2425.000
 70
    32
  0
VERTEX
  8
7700LEVEL
 62
7
 10
2126.980
 20
-6939.548
 30
-2425.000
 70
    32
  0
VERTEX
  8
7700LEVEL
 62
7
 10
2127.773
 20
-6940.955
 30
-2425.000
 70
    32
  0
VERTEX
  8
7700LEVEL
 62
7
 10
2128.312
 20
-6941.429
 30
-2425.000
 70
    32
  0
VERTEX
  8
7700LEVEL
 62
7
 10
2131.343
 20
-6938.621
 30
-2425.000
 70
    32
  0
VERTEX
  8
7700LEVEL
 62
7
 10
2132.873
 20
-6935.555
 30
-2425.000
 70
    32
  0
VERTEX
  8
7700LEVEL
 62
7
 10
2134.349
 20
-6931.406
 30
-2425.000
 70
    32
  0
VERTEX
  8
7700LEVEL
 62
7
 10
2136.345
 20
-6929.303
 30
-2425.000
 70
    32
  0
VERTEX
  8
7700LEVEL
 62
7
 10
2137.673
 20
-6928.319
 30
-2425.000
 70
    32
  0
VERTEX
  8
7700LEVEL
 62
7
 10
2138.575
 20
-6929.957
 30
-2425.000
 70
    32
  0
VERTEX
  8
7700LEVEL
 62
7
 10
2139.735
 20
-6935.644
 30
-2425.000
 70
    32
  0
VERTEX
  8
7700LEVEL
 62
7
 10
2140.257
 20
-6942.489
 30
-2425.000
 70
    32
  0
VERTEX
  8
7700LEVEL
 62
7
 10
2141.585
 20
-6950.170
 30
-2425.000
 70
    32
  0
VERTEX
  8
7700LEVEL
 62
7
 10
2143.465
 20
-6956.071
 30
-2425.000
 70
    32
  0
VERTEX
  8
7700LEVEL
 62
7
 10
2146.205
 20
-6963.891
 30
-2425.000
 70
    32
  0
VERTEX
  8
7700LEVEL
 62
7
 10
2149.818
 20
-6973.308
 30
-2425.000
 70
    32
  0
VERTEX
  8
7700LEVEL
 62
7
 10
2152.451
 20
-6978.713
 30
-2425.000
 70
    32
  0
VERTEX
  8
7700LEVEL
 62
7
 10
2155.428
 20
-6983.739
 30
-2425.000
 70
    32
  0
VERTEX
  8
7700LEVEL
 62
7
 10
2159.539
 20
-6990.043
 30
-2425.000
 70
    32
  0
VERTEX
  8
7700LEVEL
 62
7
 10
2163.567
 20
-6996.908
 30
-2425.000
 70
    32
  0
VERTEX
  8
7700LEVEL
 62
7
 10
2166.013
 20
-7001.891
 30
-2425.000
 70
    32
  0
VERTEX
  8
7700LEVEL
 62
7
 10
2168.633
 20
-7009.800
 30
-2425.000
 70
    32
  0
VERTEX
  8
7700LEVEL
 62
7
 10
2171.471
 20
-7021.537
 30
-2425.000
 70
    32
  0
VERTEX
  8
7700LEVEL
 62
7
 10
2173.612
 20
-7030.736
 30
-2425.000
 70
    32
  0
VERTEX
  8
7700LEVEL
 62
7
 10
2175.923
 20
-7041.678
 30
-2425.000
 70
    32
  0
VERTEX
  8
7700LEVEL
 62
7
 10
2178.737
 20
-7052.373
 30
-2425.000
 70
    32
  0
VERTEX
  8
7700LEVEL
 62
7
 10
2180.030
 20
-7059.333
 30
-2425.000
 70
    32
  0
VERTEX
  8
7700LEVEL
 62
7
 10
2181.249
 20
-7072.083
 30
-2425.000
 70
    32
  0
VERTEX
  8
7700LEVEL
 62
7
 10
2181.611
 20
-7084.096
 30
-2425.000
 70
    32
  0
VERTEX
  8
7700LEVEL
 62
7
 10
2181.819
 20
-7091.610
 30
-2425.000
 70
    32
  0
VERTEX
  8
7700LEVEL
 62
7
 10
2182.263
 20
-7099.697
 30
-2425.000
 70
    32
  0
VERTEX
  8
7700LEVEL
 62
7
 10
2183.192
 20
-7107.176
 30
-2425.000
 70
    32
  0
VERTEX
  8
7700LEVEL
 62
7
 10
2185.011
 20
-7113.247
 30
-2425.000
 70
    32
  0
VERTEX
  8
7700LEVEL
 62
7
 10
2188.423
 20
-7120.880
 30
-2425.000
 70
    32
  0
VERTEX
  8
7700LEVEL
 62
7
 10
2192.083
 20
-7127.332
 30
-2425.000
 70
    32
  0
VERTEX
  8
7700LEVEL
 62
7
 10
2195.592
 20
-7133.834
 30
-2425.000
 70
    32
  0
VERTEX
  8
7700LEVEL
 62
7
 10
2198.453
 20
-7141.564
 30
-2425.000
 70
    32
  0
VERTEX
  8
7700LEVEL
 62
7
 10
2201.821
 20
-7149.978
 30
-2425.000
 70
    32
  0
VERTEX
  8
7700LEVEL
 62
7
 10
2203.321
 20
-7153.853
 30
-2425.000
 70
    32
  0
VERTEX
  8
7700LEVEL
 62
7
 10
2205.575
 20
-7160.849
 30
-2425.000
 70
    32
  0
VERTEX
  8
7700LEVEL
 62
7
 10
2208.411
 20
-7169.470
 30
-2425.000
 70
    32
  0
VERTEX
  8
7700LEVEL
 62
7
 10
2211.449
 20
-7179.625
 30
-2425.000
 70
    32
  0
VERTEX
  8
7700LEVEL
 62
7
 10
2214.168
 20
-7187.585
 30
-2425.000
 70
    32
  0
VERTEX
  8
7700LEVEL
 62
7
 10
2217.315
 20
-7196.038
 30
-2425.000
 70
    32
  0
VERTEX
  8
7700LEVEL
 62
7
 10
2219.427
 20
-7201.580
 30
-2425.000
 70
    32
  0
VERTEX
  8
7700LEVEL
 62
7
 10
2222.342
 20
-7208.709
 30
-2425.000
 70
    32
  0
VERTEX
  8
7700LEVEL
 62
7
 10
2227.086
 20
-7218.223
 30
-2425.000
 70
    32
  0
VERTEX
  8
7700LEVEL
 62
7
 10
2230.260
 20
-7225.534
 30
-2425.000
 70
    32
  0
VERTEX
  8
7700LEVEL
 62
7
 10
2231.869
 20
-7229.640
 30
-2425.000
 70
    32
  0
VERTEX
  8
7700LEVEL
 62
7
 10
2234.110
 20
-7237.207
 30
-2425.000
 70
    32
  0
VERTEX
  8
7700LEVEL
 62
7
 10
2236.357
 20
-7241.838
 30
-2425.000
 70
    32
  0
SEQEND
  8
7700LEVEL
  0
POLYLINE
  8
7700LEVEL
 62
7
 66
     1
 70
     9
  0
VERTEX
  8
7700LEVEL
 62
7
 10
1971.035
 20
-6699.513
 30
-2425.000
 70
    32
  0
VERTEX
  8
7700LEVEL
 62
7
 10
1973.907
 20
-6706.922
 30
-2425.000
 70
    32
  0
VERTEX
  8
7700LEVEL
 62
7
 10
1975.246
 20
-6712.850
 30
-2425.000
 70
    32
  0
VERTEX
  8
7700LEVEL
 62
7
 10
1975.230
 20
-6717.288
 30
-2425.000
 70
    32
  0
VERTEX
  8
7700LEVEL
 62
7
 10
1975.276
 20
-6719.873
 30
-2425.000
 70
    32
  0
VERTEX
  8
7700LEVEL
 62
7
 10
1975.587
 20
-6723.321
 30
-2425.000
 70
    32
  0
VERTEX
  8
7700LEVEL
 62
7
 10
1975.149
 20
-6726.264
 30
-2425.000
 70
    32
  0
VERTEX
  8
7700LEVEL
 62
7
 10
1973.469
 20
-6724.080
 30
-2425.000
 70
    32
  0
VERTEX
  8
7700LEVEL
 62
7
 10
1971.447
 20
-6716.726
 30
-2425.000
 70
    32
  0
VERTEX
  8
7700LEVEL
 62
7
 10
1969.318
 20
-6710.573
 30
-2425.000
 70
    32
  0
VERTEX
  8
7700LEVEL
 62
7
 10
1965.912
 20
-6701.938
 30
-2425.000
 70
    32
  0
VERTEX
  8
7700LEVEL
 62
7
 10
1962.786
 20
-6691.411
 30
-2425.000
 70
    32
  0
VERTEX
  8
7700LEVEL
 62
7
 10
1960.989
 20
-6683.267
 30
-2425.000
 70
    32
  0
VERTEX
  8
7700LEVEL
 62
7
 10
1959.709
 20
-6677.669
 30
-2425.000
 70
    32
  0
VERTEX
  8
7700LEVEL
 62
7
 10
1959.324
 20
-6674.962
 30
-2425.000
 70
    32
  0
VERTEX
  8
7700LEVEL
 62
7
 10
1959.437
 20
-6672.759
 30
-2425.000
 70
    32
  0
VERTEX
  8
7700LEVEL
 62
7
 10
1959.911
 20
-6672.221
 30
-2425.000
 70
    32
  0
VERTEX
  8
7700LEVEL
 62
7
 10
1961.830
 20
-6674.726
 30
-2425.000
 70
    32
  0
VERTEX
  8
7700LEVEL
 62
7
 10
1963.885
 20
-6679.687
 30
-2425.000
 70
    32
  0
VERTEX
  8
7700LEVEL
 62
7
 10
1966.650
 20
-6686.615
 30
-2425.000
 70
    32
  0
VERTEX
  8
7700LEVEL
 62
7
 10
1967.981
 20
-6690.429
 30
-2425.000
 70
    32
  0
VERTEX
  8
7700LEVEL
 62
7
 10
1968.776
 20
-6693.269
 30
-2425.000
 70
    32
  0
VERTEX
  8
7700LEVEL
 62
7
 10
1969.303
 20
-6695.746
 30
-2425.000
 70
    32
  0
SEQEND
  8
7700LEVEL
  0
POLYLINE
  8
7700LEVEL
 62
7
 66
     1
 70
     9
  0
VERTEX
  8
7700LEVEL
 62
7
 10
1956.103
 20
-6593.560
 30
-2425.000
 70
    32
  0
VERTEX
  8
7700LEVEL
 62
7
 10
1958.715
 20
-6599.355
 30
-2425.000
 70
    32
  0
VERTEX
  8
7700LEVEL
 62
7
 10
1960.963
 20
-6607.352
 30
-2425.000
 70
    32
  0
VERTEX
  8
7700LEVEL
 62
7
 10
1961.562
 20
-6614.638
 30
-2425.000
 70
    32
  0
VERTEX
  8
7700LEVEL
 62
7
 10
1962.059
 20
-6622.375
 30
-2425.000
 70
    32
  0
VERTEX
  8
7700LEVEL
 62
7
 10
1962.360
 20
-6629.259
 30
-2425.000
 70
    32
  0
VERTEX
  8
7700LEVEL
 62
7
 10
1962.521
 20
-6632.756
 30
-2425.000
 70
    32
  0
VERTEX
  8
7700LEVEL
 62
7
 10
1962.131
 20
-6636.100
 30
-2425.000
 70
    32
  0
VERTEX
  8
7700LEVEL
 62
7
 10
1961.381
 20
-6637.528
 30
-2425.000
 70
    32
  0
VERTEX
  8
7700LEVEL
 62
7
 10
1960.424
 20
-6636.741
 30
-2425.000
 70
    32
  0
VERTEX
  8
7700LEVEL
 62
7
 10
1957.102
 20
-6630.912
 30
-2425.000
 70
    32
  0
VERTEX
  8
7700LEVEL
 62
7
 10
1953.438
 20
-6621.594
 30
-2425.000
 70
    32
  0
VERTEX
  8
7700LEVEL
 62
7
 10
1951.042
 20
-6616.762
 30
-2425.000
 70
    32
  0
VERTEX
  8
7700LEVEL
 62
7
 10
1946.378
 20
-6607.189
 30
-2425.000
 70
    32
  0
VERTEX
  8
7700LEVEL
 62
7
 10
1943.938
 20
-6601.204
 30
-2425.000
 70
    32
  0
VERTEX
  8
7700LEVEL
 62
7
 10
1941.878
 20
-6595.312
 30
-2425.000
 70
    32
  0
VERTEX
  8
7700LEVEL
 62
7
 10
1940.145
 20
-6586.496
 30
-2425.000
 70
    32
  0
VERTEX
  8
7700LEVEL
 62
7
 10
1939.548
 20
-6582.326
 30
-2425.000
 70
    32
  0
VERTEX
  8
7700LEVEL
 62
7
 10
1939.204
 20
-6579.338
 30
-2425.000
 70
    32
  0
VERTEX
  8
7700LEVEL
 62
7
 10
1939.672
 20
-6578.119
 30
-2425.000
 70
    32
  0
VERTEX
  8
7700LEVEL
 62
7
 10
1940.697
 20
-6575.801
 30
-2425.000
 70
    32
  0
VERTEX
  8
7700LEVEL
 62
7
 10
1940.218
 20
-6572.041
 30
-2425.000
 70
    32
  0
VERTEX
  8
7700LEVEL
 62
7
 10
1939.891
 20
-6569.665
 30
-2425.000
 70
    32
  0
VERTEX
  8
7700LEVEL
 62
7
 10
1940.169
 20
-6568.274
 30
-2425.000
 70
    32
  0
VERTEX
  8
7700LEVEL
 62
7
 10
1941.442
 20
-6568.141
 30
-2425.000
 70
    32
  0
VERTEX
  8
7700LEVEL
 62
7
 10
1943.096
 20
-6569.784
 30
-2425.000
 70
    32
  0
VERTEX
  8
7700LEVEL
 62
7
 10
1945.112
 20
-6574.523
 30
-2425.000
 70
    32
  0
VERTEX
  8
7700LEVEL
 62
7
 10
1947.159
 20
-6579.304
 30
-2425.000
 70
    32
  0
VERTEX
  8
7700LEVEL
 62
7
 10
1949.980
 20
-6585.130
 30
-2425.000
 70
    32
  0
VERTEX
  8
7700LEVEL
 62
7
 10
1952.153
 20
-6588.819
 30
-2425.000
 70
    32
  0
VERTEX
  8
7700LEVEL
 62
7
 10
1953.540
 20
-6591.532
 30
-2425.000
 70
    32
  0
VERTEX
  8
7700LEVEL
 62
7
 10
1954.472
 20
-6593.210
 30
-2425.000
 70
    32
  0
SEQEND
  8
7700LEVEL
  0
POLYLINE
  8
7700LEVEL
 62
7
 66
     1
 70
     9
  0
VERTEX
  8
7700LEVEL
 62
7
 10
2242.057
 20
-6704.329
 30
-2425.000
 70
    32
  0
VERTEX
  8
7700LEVEL
 62
7
 10
2242.757
 20
-6711.415
 30
-2425.000
 70
    32
  0
VERTEX
  8
7700LEVEL
 62
7
 10
2243.861
 20
-6718.204
 30
-2425.000
 70
    32
  0
VERTEX
  8
7700LEVEL
 62
7
 10
2245.308
 20
-6724.363
 30
-2425.000
 70
    32
  0
VERTEX
  8
7700LEVEL
 62
7
 10
2246.571
 20
-6732.965
 30
-2425.000
 70
    32
  0
VERTEX
  8
7700LEVEL
 62
7
 10
2246.495
 20
-6737.573
 30
-2425.000
 70
    32
  0
VERTEX
  8
7700LEVEL
 62
7
 10
2246.688
 20
-6740.609
 30
-2425.000
 70
    32
  0
VERTEX
  8
7700LEVEL
 62
7
 10
2246.042
 20
-6741.337
 30
-2425.000
 70
    32
  0
VERTEX
  8
7700LEVEL
 62
7
 10
2243.811
 20
-6737.317
 30
-2425.000
 70
    32
  0
VERTEX
  8
7700LEVEL
 62
7
 10
2240.552
 20
-6729.134
 30
-2425.000
 70
    32
  0
VERTEX
  8
7700LEVEL
 62
7
 10
2237.270
 20
-6721.592
 30
-2425.000
 70
    32
  0
VERTEX
  8
7700LEVEL
 62
7
 10
2232.962
 20
-6711.069
 30
-2425.000
 70
    32
  0
VERTEX
  8
7700LEVEL
 62
7
 10
2229.842
 20
-6699.541
 30
-2425.000
 70
    32
  0
VERTEX
  8
7700LEVEL
 62
7
 10
2227.155
 20
-6689.437
 30
-2425.000
 70
    32
  0
VERTEX
  8
7700LEVEL
 62
7
 10
2222.701
 20
-6681.828
 30
-2425.000
 70
    32
  0
VERTEX
  8
7700LEVEL
 62
7
 10
2218.930
 20
-6675.646
 30
-2425.000
 70
    32
  0
VERTEX
  8
7700LEVEL
 62
7
 10
2216.800
 20
-6671.426
 30
-2425.000
 70
    32
  0
VERTEX
  8
7700LEVEL
 62
7
 10
2216.179
 20
-6669.580
 30
-2425.000
 70
    32
  0
VERTEX
  8
7700LEVEL
 62
7
 10
2216.556
 20
-6668.490
 30
-2425.000
 70
    32
  0
VERTEX
  8
7700LEVEL
 62
7
 10
2218.967
 20
-6669.135
 30
-2425.000
 70
    32
  0
VERTEX
  8
7700LEVEL
 62
7
 10
2222.810
 20
-6671.461
 30
-2425.000
 70
    32
  0
VERTEX
  8
7700LEVEL
 62
7
 10
2229.335
 20
-6677.909
 30
-2425.000
 70
    32
  0
VERTEX
  8
7700LEVEL
 62
7
 10
2234.035
 20
-6684.588
 30
-2425.000
 70
    32
  0
VERTEX
  8
7700LEVEL
 62
7
 10
2236.836
 20
-6690.555
 30
-2425.000
 70
    32
  0
VERTEX
  8
7700LEVEL
 62
7
 10
2238.149
 20
-6694.008
 30
-2425.000
 70
    32
  0
VERTEX
  8
7700LEVEL
 62
7
 10
2239.432
 20
-6697.422
 30
-2425.000
 70
    32
  0
VERTEX
  8
7700LEVEL
 62
7
 10
2240.113
 20
-6699.098
 30
-2425.000
 70
    32
  0
SEQEND
  8
7700LEVEL
  0
POLYLINE
  8
7700LEVEL
 62
7
 66
     1
 70
     9
  0
VERTEX
  8
7700LEVEL
 62
7
 10
2224.448
 20
-6353.668
 30
-2425.000
 70
    32
  0
VERTEX
  8
7700LEVEL
 62
7
 10
2223.610
 20
-6361.707
 30
-2425.000
 70
    32
  0
VERTEX
  8
7700LEVEL
 62
7
 10
2223.868
 20
-6371.055
 30
-2425.000
 70
    32
  0
VERTEX
  8
7700LEVEL
 62
7
 10
2223.636
 20
-6374.780
 30
-2425.000
 70
    32
  0
VERTEX
  8
7700LEVEL
 62
7
 10
2223.288
 20
-6379.527
 30
-2425.000
 70
    32
  0
VERTEX
  8
7700LEVEL
 62
7
 10
2221.533
 20
-6383.384
 30
-2425.000
 70
    32
  0
VERTEX
  8
7700LEVEL
 62
7
 10
2219.814
 20
-6384.345
 30
-2425.000
 70
    32
  0
VERTEX
  8
7700LEVEL
 62
7
 10
2218.167
 20
-6383.384
 30
-2425.000
 70
    32
  0
VERTEX
  8
7700LEVEL
 62
7
 10
2216.198
 20
-6379.045
 30
-2425.000
 70
    32
  0
VERTEX
  8
7700LEVEL
 62
7
 10
2211.729
 20
-6370.575
 30
-2425.000
 70
    32
  0
VERTEX
  8
7700LEVEL
 62
7
 10
2210.571
 20
-6364.638
 30
-2425.000
 70
    32
  0
VERTEX
  8
7700LEVEL
 62
7
 10
2207.974
 20
-6354.405
 30
-2425.000
 70
    32
  0
VERTEX
  8
7700LEVEL
 62
7
 10
2207.021
 20
-6344.201
 30
-2425.000
 70
    32
  0
VERTEX
  8
7700LEVEL
 62
7
 10
2207.343
 20
-6336.980
 30
-2425.000
 70
    32
  0
VERTEX
  8
7700LEVEL
 62
7
 10
2207.878
 20
-6329.290
 30
-2425.000
 70
    32
  0
VERTEX
  8
7700LEVEL
 62
7
 10
2209.136
 20
-6324.679
 30
-2425.000
 70
    32
  0
VERTEX
  8
7700LEVEL
 62
7
 10
2211.501
 20
-6319.373
 30
-2425.000
 70
    32
  0
VERTEX
  8
7700LEVEL
 62
7
 10
2214.010
 20
-6316.703
 30
-2425.000
 70
    32
  0
VERTEX
  8
7700LEVEL
 62
7
 10
2216.344
 20
-6314.973
 30
-2425.000
 70
    32
  0
VERTEX
  8
7700LEVEL
 62
7
 10
2218.393
 20
-6315.886
 30
-2425.000
 70
    32
  0
VERTEX
  8
7700LEVEL
 62
7
 10
2219.977
 20
-6319.201
 30
-2425.000
 70
    32
  0
VERTEX
  8
7700LEVEL
 62
7
 10
2221.187
 20
-6324.788
 30
-2425.000
 70
    32
  0
VERTEX
  8
7700LEVEL
 62
7
 10
2221.798
 20
-6330.071
 30
-2425.000
 70
    32
  0
VERTEX
  8
7700LEVEL
 62
7
 10
2222.132
 20
-6338.177
 30
-2425.000
 70
    32
  0
VERTEX
  8
7700LEVEL
 62
7
 10
2222.801
 20
-6343.791
 30
-2425.000
 70
    32
  0
VERTEX
  8
7700LEVEL
 62
7
 10
2223.252
 20
-6347.259
 30
-2425.000
 70
    32
  0
VERTEX
  8
7700LEVEL
 62
7
 10
2223.408
 20
-6349.825
 30
-2425.000
 70
    32
  0
SEQEND
  8
7700LEVEL
  0
POLYLINE
  8
7700LEVEL
 62
7
 66
     1
 70
     9
  0
VERTEX
  8
7700LEVEL
 62
7
 10
2033.333
 20
-6293.560
 30
-2425.000
 70
    32
  0
VERTEX
  8
7700LEVEL
 62
7
 10
2035.923
 20
-6303.112
 30
-2425.000
 70
    32
  0
VERTEX
  8
7700LEVEL
 62
7
 10
2038.094
 20
-6312.350
 30
-2425.000
 70
    32
  0
VERTEX
  8
7700LEVEL
 62
7
 10
2039.311
 20
-6323.667
 30
-2425.000
 70
    32
  0
VERTEX
  8
7700LEVEL
 62
7
 10
2040.540
 20
-6329.615
 30
-2425.000
 70
    32
  0
VERTEX
  8
7700LEVEL
 62
7
 10
2041.021
 20
-6334.807
 30
-2425.000
 70
    32
  0
VERTEX
  8
7700LEVEL
 62
7
 10
2040.097
 20
-6336.925
 30
-2425.000
 70
    32
  0
VERTEX
  8
7700LEVEL
 62
7
 10
2038.760
 20
-6336.046
 30
-2425.000
 70
    32
  0
VERTEX
  8
7700LEVEL
 62
7
 10
2035.620
 20
-6333.323
 30
-2425.000
 70
    32
  0
VERTEX
  8
7700LEVEL
 62
7
 10
2032.000
 20
-6330.458
 30
-2425.000
 70
    32
  0
VERTEX
  8
7700LEVEL
 62
7
 10
2030.305
 20
-6329.096
 30
-2425.000
 70
    32
  0
VERTEX
  8
7700LEVEL
 62
7
 10
2028.569
 20
-6329.446
 30
-2425.000
 70
    32
  0
VERTEX
  8
7700LEVEL
 62
7
 10
2027.956
 20
-6333.330
 30
-2425.000
 70
    32
  0
VERTEX
  8
7700LEVEL
 62
7
 10
2027.805
 20
-6335.312
 30
-2425.000
 70
    32
  0
VERTEX
  8
7700LEVEL
 62
7
 10
2027.213
 20
-6337.122
 30
-2425.000
 70
    32
  0
VERTEX
  8
7700LEVEL
 62
7
 10
2026.681
 20
-6337.329
 30
-2425.000
 70
    32
  0
VERTEX
  8
7700LEVEL
 62
7
 10
2024.616
 20
-6335.805
 30
-2425.000
 70
    32
  0
VERTEX
  8
7700LEVEL
 62
7
 10
2020.397
 20
-6329.019
 30
-2425.000
 70
    32
  0
VERTEX
  8
7700LEVEL
 62
7
 10
2013.627
 20
-6312.902
 30
-2425.000
 70
    32
  0
VERTEX
  8
7700LEVEL
 62
7
 10
2012.580
 20
-6303.329
 30
-2425.000
 70
    32
  0
VERTEX
  8
7700LEVEL
 62
7
 10
2008.240
 20
-6284.601
 30
-2425.000
 70
    32
  0
VERTEX
  8
7700LEVEL
 62
7
 10
2002.892
 20
-6264.935
 30
-2425.000
 70
    32
  0
VERTEX
  8
7700LEVEL
 62
7
 10
1997.807
 20
-6250.250
 30
-2425.000
 70
    32
  0
VERTEX
  8
7700LEVEL
 62
7
 10
1990.391
 20
-6229.812
 30
-2425.000
 70
    32
  0
VERTEX
  8
7700LEVEL
 62
7
 10
1985.425
 20
-6216.971
 30
-2425.000
 70
    32
  0
VERTEX
  8
7700LEVEL
 62
7
 10
1983.631
 20
-6211.942
 30
-2425.000
 70
    32
  0
VERTEX
  8
7700LEVEL
 62
7
 10
1982.136
 20
-6207.065
 30
-2425.000
 70
    32
  0
VERTEX
  8
7700LEVEL
 62
7
 10
1982.377
 20
-6205.203
 30
-2425.000
 70
    32
  0
VERTEX
  8
7700LEVEL
 62
7
 10
1985.398
 20
-6207.764
 30
-2425.000
 70
    32
  0
VERTEX
  8
7700LEVEL
 62
7
 10
1989.956
 20
-6212.990
 30
-2425.000
 70
    32
  0
VERTEX
  8
7700LEVEL
 62
7
 10
1997.690
 20
-6221.659
 30
-2425.000
 70
    32
  0
VERTEX
  8
7700LEVEL
 62
7
 10
2003.022
 20
-6228.181
 30
-2425.000
 70
    32
  0
VERTEX
  8
7700LEVEL
 62
7
 10
2011.377
 20
-6237.014
 30
-2425.000
 70
    32
  0
VERTEX
  8
7700LEVEL
 62
7
 10
2015.543
 20
-6242.468
 30
-2425.000
 70
    32
  0
VERTEX
  8
7700LEVEL
 62
7
 10
2018.681
 20
-6249.057
 30
-2425.000
 70
    32
  0
VERTEX
  8
7700LEVEL
 62
7
 10
2021.011
 20
-6255.061
 30
-2425.000
 70
    32
  0
VERTEX
  8
7700LEVEL
 62
7
 10
2023.367
 20
-6266.906
 30
-2425.000
 70
    32
  0
VERTEX
  8
7700LEVEL
 62
7
 10
2025.556
 20
-6274.822
 30
-2425.000
 70
    32
  0
VERTEX
  8
7700LEVEL
 62
7
 10
2027.725
 20
-6282.629
 30
-2425.000
 70
    32
  0
VERTEX
  8
7700LEVEL
 62
7
 10
2029.375
 20
-6286.705
 30
-2425.000
 70
    32
  0
VERTEX
  8
7700LEVEL
 62
7
 10
2030.045
 20
-6288.703
 30
-2425.000
 70
    32
  0
SEQEND
  8
7700LEVEL
  0
POLYLINE
  8
7700LEVEL
 62
7
 66
     1
 70
     9
  0
VERTEX
  8
7700LEVEL
 62
7
 10
2100.419
 20
-7337.781
 30
-2425.000
 70
    32
  0
VERTEX
  8
7700LEVEL
 62
7
 10
2100.583
 20
-7351.126
 30
-2425.000
 70
    32
  0
VERTEX
  8
7700LEVEL
 62
7
 10
2100.902
 20
-7358.370
 30
-2425.000
 70
    32
  0
VERTEX
  8
7700LEVEL
 62
7
 10
2101.478
 20
-7366.298
 30
-2425.000
 70
    32
  0
VERTEX
  8
7700LEVEL
 62
7
 10
2102.153
 20
-7376.209
 30
-2425.000
 70
    32
  0
VERTEX
  8
7700LEVEL
 62
7
 10
2102.287
 20
-7378.915
 30
-2425.000
 70
    32
  0
VERTEX
  8
7700LEVEL
 62
7
 10
2101.731
 20
-7381.696
 30
-2425.000
 70
    32
  0
VERTEX
  8
7700LEVEL
 62
7
 10
2100.720
 20
-7383.193
 30
-2425.000
 70
    32
  0
VERTEX
  8
7700LEVEL
 62
7
 10
2098.775
 20
-7383.513
 30
-2425.000
 70
    32
  0
VERTEX
  8
7700LEVEL
 62
7
 10
2097.189
 20
-7382.382
 30
-2425.000
 70
    32
  0
VERTEX
  8
7700LEVEL
 62
7
 10
2095.084
 20
-7378.954
 30
-2425.000
 70
    32
  0
VERTEX
  8
7700LEVEL
 62
7
 10
2093.946
 20
-7374.810
 30
-2425.000
 70
    32
  0
VERTEX
  8
7700LEVEL
 62
7
 10
2092.717
 20
-7363.813
 30
-2425.000
 70
    32
  0
VERTEX
  8
7700LEVEL
 62
7
 10
2091.122
 20
-7351.903
 30
-2425.000
 70
    32
  0
VERTEX
  8
7700LEVEL
 62
7
 10
2091.171
 20
-7346.754
 30
-2425.000
 70
    32
  0
VERTEX
  8
7700LEVEL
 62
7
 10
2090.166
 20
-7336.901
 30
-2425.000
 70
    32
  0
VERTEX
  8
7700LEVEL
 62
7
 10
2090.741
 20
-7327.498
 30
-2425.000
 70
    32
  0
VERTEX
  8
7700LEVEL
 62
7
 10
2092.561
 20
-7321.037
 30
-2425.000
 70
    32
  0
VERTEX
  8
7700LEVEL
 62
7
 10
2093.891
 20
-7317.869
 30
-2425.000
 70
    32
  0
VERTEX
  8
7700LEVEL
 62
7
 10
2095.010
 20
-7313.237
 30
-2425.000
 70
    32
  0
VERTEX
  8
7700LEVEL
 62
7
 10
2096.322
 20
-7311.391
 30
-2425.000
 70
    32
  0
VERTEX
  8
7700LEVEL
 62
7
 10
2096.895
 20
-7312.837
 30
-2425.000
 70
    32
  0
VERTEX
  8
7700LEVEL
 62
7
 10
2097.504
 20
-7316.687
 30
-2425.000
 70
    32
  0
VERTEX
  8
7700LEVEL
 62
7
 10
2098.391
 20
-7321.080
 30
-2425.000
 70
    32
  0
VERTEX
  8
7700LEVEL
 62
7
 10
2098.960
 20
-7324.960
 30
-2425.000
 70
    32
  0
VERTEX
  8
7700LEVEL
 62
7
 10
2099.057
 20
-7328.878
 30
-2425.000
 70
    32
  0
VERTEX
  8
7700LEVEL
 62
7
 10
2099.001
 20
-7331.662
 30
-2425.000
 70
    32
  0
SEQEND
  8
7700LEVEL
  0
POLYLINE
  8
7700LEVEL
 62
5
 66
     1
 70
     9
  0
VERTEX
  8
7700LEVEL
 62
5
 10
1892.257
 20
-6527.599
 30
-2425.000
 70
    32
  0
VERTEX
  8
7700LEVEL
 62
5
 10
1886.651
 20
-6532.065
 30
-2425.000
 70
    32
  0
VERTEX
  8
7700LEVEL
 62
5
 10
1880.922
 20
-6537.121
 30
-2425.000
 70
    32
  0
VERTEX
  8
7700LEVEL
 62
5
 10
1872.318
 20
-6543.934
 30
-2425.000
 70
    32
  0
VERTEX
  8
7700LEVEL
 62
5
 10
1866.671
 20
-6548.680
 30
-2425.000
 70
    32
  0
VERTEX
  8
7700LEVEL
 62
5
 10
1860.025
 20
-6554.602
 30
-2425.000
 70
    32
  0
VERTEX
  8
7700LEVEL
 62
5
 10
1855.387
 20
-6558.102
 30
-2425.000
 70
    32
  0
VERTEX
  8
7700LEVEL
 62
5
 10
1849.007
 20
-6563.205
 30
-2425.000
 70
    32
  0
VERTEX
  8
7700LEVEL
 62
5
 10
1844.687
 20
-6565.284
 30
-2425.000
 70
    32
  0
VERTEX
  8
7700LEVEL
 62
5
 10
1837.639
 20
-6568.139
 30
-2425.000
 70
    32
  0
VERTEX
  8
7700LEVEL
 62
5
 10
1830.663
 20
-6570.503
 30
-2425.000
 70
    32
  0
VERTEX
  8
7700LEVEL
 62
5
 10
1826.328
 20
-6571.720
 30
-2425.000
 70
    32
  0
VERTEX
  8
7700LEVEL
 62
5
 10
1823.214
 20
-6569.789
 30
-2425.000
 70
    32
  0
VERTEX
  8
7700LEVEL
 62
5
 10
1823.861
 20
-6566.878
 30
-2425.000
 70
    32
  0
VERTEX
  8
7700LEVEL
 62
5
 10
1827.589
 20
-6563.242
 30
-2425.000
 70
    32
  0
VERTEX
  8
7700LEVEL
 62
5
 10
1836.902
 20
-6556.714
 30
-2425.000
 70
    32
  0
VERTEX
  8
7700LEVEL
 62
5
 10
1843.136
 20
-6552.843
 30
-2425.000
 70
    32
  0
VERTEX
  8
7700LEVEL
 62
5
 10
1852.296
 20
-6546.865
 30
-2425.000
 70
    32
  0
VERTEX
  8
7700LEVEL
 62
5
 10
1856.207
 20
-6544.403
 30
-2425.000
 70
    32
  0
VERTEX
  8
7700LEVEL
 62
5
 10
1862.197
 20
-6540.961
 30
-2425.000
 70
    32
  0
VERTEX
  8
7700LEVEL
 62
5
 10
1867.391
 20
-6536.613
 30
-2425.000
 70
    32
  0
VERTEX
  8
7700LEVEL
 62
5
 10
1874.937
 20
-6530.896
 30
-2425.000
 70
    32
  0
VERTEX
  8
7700LEVEL
 62
5
 10
1879.113
 20
-6527.614
 30
-2425.000
 70
    32
  0
VERTEX
  8
7700LEVEL
 62
5
 10
1884.287
 20
-6523.406
 30
-2425.000
 70
    32
  0
VERTEX
  8
7700LEVEL
 62
5
 10
1888.743
 20
-6520.165
 30
-2425.000
 70
    32
  0
VERTEX
  8
7700LEVEL
 62
5
 10
1891.439
 20
-6518.167
 30
-2425.000
 70
    32
  0
VERTEX
  8
7700LEVEL
 62
5
 10
1894.381
 20
-6516.922
 30
-2425.000
 70
    32
  0
VERTEX
  8
7700LEVEL
 62
5
 10
1896.114
 20
-6517.072
 30
-2425.000
 70
    32
  0
VERTEX
  8
7700LEVEL
 62
5
 10
1897.984
 20
-6519.427
 30
-2425.000
 70
    32
  0
VERTEX
  8
7700LEVEL
 62
5
 10
1896.143
 20
-6522.412
 30
-2425.000
 70
    32
  0
VERTEX
  8
7700LEVEL
 62
5
 10
1894.690
 20
-6524.237
 30
-2425.000
 70
    32
  0
VERTEX
  8
7700LEVEL
 62
5
 10
1892.978
 20
-6525.880
 30
-2425.000
 70
    32
  0
SEQEND
  8
7700LEVEL
  0
POLYLINE
  8
7700LEVEL
 62
5
 66
     1
 70
     9
  0
VERTEX
  8
7700LEVEL
 62
5
 10
1713.785
 20
-6546.213
 30
-2425.000
 70
    32
  0
VERTEX
  8
7700LEVEL
 62
5
 10
1719.558
 20
-6542.058
 30
-2425.000
 70
    32
  0
VERTEX
  8
7700LEVEL
 62
5
 10
1729.147
 20
-6536.573
 30
-2425.000
 70
    32
  0
VERTEX
  8
7700LEVEL
 62
5
 10
1745.304
 20
-6529.773
 30
-2425.000
 70
    32
  0
VERTEX
  8
7700LEVEL
 62
5
 10
1764.606
 20
-6523.262
 30
-2425.000
 70
    32
  0
VERTEX
  8
7700LEVEL
 62
5
 10
1776.527
 20
-6517.981
 30
-2425.000
 70
    32
  0
VERTEX
  8
7700LEVEL
 62
5
 10
1792.644
 20
-6512.894
 30
-2425.000
 70
    32
  0
VERTEX
  8
7700LEVEL
 62
5
 10
1811.039
 20
-6509.112
 30
-2425.000
 70
    32
  0
VERTEX
  8
7700LEVEL
 62
5
 10
1828.801
 20
-6507.170
 30
-2425.000
 70
    32
  0
VERTEX
  8
7700LEVEL
 62
5
 10
1842.182
 20
-6504.111
 30
-2425.000
 70
    32
  0
VERTEX
  8
7700LEVEL
 62
5
 10
1849.324
 20
-6498.943
 30
-2425.000
 70
    32
  0
VERTEX
  8
7700LEVEL
 62
5
 10
1860.468
 20
-6489.500
 30
-2425.000
 70
    32
  0
VERTEX
  8
7700LEVEL
 62
5
 10
1870.408
 20
-6476.834
 30
-2425.000
 70
    32
  0
VERTEX
  8
7700LEVEL
 62
5
 10
1877.806
 20
-6468.982
 30
-2425.000
 70
    32
  0
VERTEX
  8
7700LEVEL
 62
5
 10
1889.029
 20
-6459.730
 30
-2425.000
 70
    32
  0
VERTEX
  8
7700LEVEL
 62
5
 10
1900.026
 20
-6454.884
 30
-2425.000
 70
    32
  0
VERTEX
  8
7700LEVEL
 62
5
 10
1913.446
 20
-6452.046
 30
-2425.000
 70
    32
  0
VERTEX
  8
7700LEVEL
 62
5
 10
1919.551
 20
-6449.516
 30
-2425.000
 70
    32
  0
VERTEX
  8
7700LEVEL
 62
5
 10
1929.513
 20
-6443.442
 30
-2425.000
 70
    32
  0
VERTEX
  8
7700LEVEL
 62
5
 10
1938.323
 20
-6437.412
 30
-2425.000
 70
    32
  0
VERTEX
  8
7700LEVEL
 62
5
 10
1946.878
 20
-6430.449
 30
-2425.000
 70
    32
  0
VERTEX
  8
7700LEVEL
 62
5
 10
1960.220
 20
-6425.486
 30
-2425.000
 70
    32
  0
VERTEX
  8
7700LEVEL
 62
5
 10
1968.241
 20
-6422.597
 30
-2425.000
 70
    32
  0
VERTEX
  8
7700LEVEL
 62
5
 10
1977.611
 20
-6416.650
 30
-2425.000
 70
    32
  0
VERTEX
  8
7700LEVEL
 62
5
 10
1983.854
 20
-6411.025
 30
-2425.000
 70
    32
  0
VERTEX
  8
7700LEVEL
 62
5
 10
1988.637
 20
-6405.112
 30
-2425.000
 70
    32
  0
VERTEX
  8
7700LEVEL
 62
5
 10
1993.704
 20
-6400.172
 30
-2425.000
 70
    32
  0
VERTEX
  8
7700LEVEL
 62
5
 10
2001.423
 20
-6394.016
 30
-2425.000
 70
    32
  0
VERTEX
  8
7700LEVEL
 62
5
 10
2009.492
 20
-6387.911
 30
-2425.000
 70
    32
  0
VERTEX
  8
7700LEVEL
 62
5
 10
2015.579
 20
-6383.337
 30
-2425.000
 70
    32
  0
VERTEX
  8
7700LEVEL
 62
5
 10
2023.131
 20
-6379.985
 30
-2425.000
 70
    32
  0
VERTEX
  8
7700LEVEL
 62
5
 10
2032.119
 20
-6376.129
 30
-2425.000
 70
    32
  0
VERTEX
  8
7700LEVEL
 62
5
 10
2038.293
 20
-6373.860
 30
-2425.000
 70
    32
  0
VERTEX
  8
7700LEVEL
 62
5
 10
2044.665
 20
-6371.943
 30
-2425.000
 70
    32
  0
VERTEX
  8
7700LEVEL
 62
5
 10
2051.097
 20
-6370.107
 30
-2425.000
 70
    32
  0
VERTEX
  8
7700LEVEL
 62
5
 10
2060.479
 20
-6367.456
 30
-2425.000
 70
    32
  0
VERTEX
  8
7700LEVEL
 62
5
 10
2065.360
 20
-6363.527
 30
-2425.000
 70
    32
  0
VERTEX
  8
7700LEVEL
 62
5
 10
2084.975
 20
-6352.980
 30
-2425.000
 70
    32
  0
VERTEX
  8
7700LEVEL
 62
5
 10
2098.683
 20
-6352.297
 30
-2425.000
 70
    32
  0
VERTEX
  8
7700LEVEL
 62
5
 10
2114.674
 20
-6351.918
 30
-2425.000
 70
    32
  0
VERTEX
  8
7700LEVEL
 62
5
 10
2138.139
 20
-6347.744
 30
-2425.000
 70
    32
  0
VERTEX
  8
7700LEVEL
 62
5
 10
2155.449
 20
-6342.584
 30
-2425.000
 70
    32
  0
VERTEX
  8
7700LEVEL
 62
5
 10
2167.492
 20
-6336.963
 30
-2425.000
 70
    32
  0
VERTEX
  8
7700LEVEL
 62
5
 10
2179.248
 20
-6330.869
 30
-2425.000
 70
    32
  0
VERTEX
  8
7700LEVEL
 62
5
 10
2193.121
 20
-6322.333
 30
-2425.000
 70
    32
  0
VERTEX
  8
7700LEVEL
 62
5
 10
2203.134
 20
-6314.477
 30
-2425.000
 70
    32
  0
VERTEX
  8
7700LEVEL
 62
5
 10
2210.770
 20
-6310.563
 30
-2425.000
 70
    32
  0
VERTEX
  8
7700LEVEL
 62
5
 10
2220.083
 20
-6307.651
 30
-2425.000
 70
    32
  0
VERTEX
  8
7700LEVEL
 62
5
 10
2231.098
 20
-6303.166
 30
-2425.000
 70
    32
  0
VERTEX
  8
7700LEVEL
 62
5
 10
2242.229
 20
-6295.977
 30
-2425.000
 70
    32
  0
VERTEX
  8
7700LEVEL
 62
5
 10
2252.025
 20
-6289.091
 30
-2425.000
 70
    32
  0
VERTEX
  8
7700LEVEL
 62
5
 10
2257.527
 20
-6285.326
 30
-2425.000
 70
    32
  0
VERTEX
  8
7700LEVEL
 62
5
 10
2266.865
 20
-6281.522
 30
-2425.000
 70
    32
  0
VERTEX
  8
7700LEVEL
 62
5
 10
2275.114
 20
-6279.025
 30
-2425.000
 70
    32
  0
VERTEX
  8
7700LEVEL
 62
5
 10
2278.691
 20
-6277.122
 30
-2425.000
 70
    32
  0
VERTEX
  8
7700LEVEL
 62
5
 10
2288.389
 20
-6294.498
 30
-2425.000
 70
    32
  0
VERTEX
  8
7700LEVEL
 62
5
 10
2272.659
 20
-6305.407
 30
-2425.000
 70
    32
  0
VERTEX
  8
7700LEVEL
 62
5
 10
2263.501
 20
-6310.885
 30
-2425.000
 70
    32
  0
VERTEX
  8
7700LEVEL
 62
5
 10
2248.723
 20
-6318.284
 30
-2425.000
 70
    32
  0
VERTEX
  8
7700LEVEL
 62
5
 10
2236.373
 20
-6325.005
 30
-2425.000
 70
    32
  0
VERTEX
  8
7700LEVEL
 62
5
 10
2221.315
 20
-6332.112
 30
-2425.000
 70
    32
  0
VERTEX
  8
7700LEVEL
 62
5
 10
2203.158
 20
-6340.082
 30
-2425.000
 70
    32
  0
VERTEX
  8
7700LEVEL
 62
5
 10
2196.313
 20
-6343.970
 30
-2425.000
 70
    32
  0
VERTEX
  8
7700LEVEL
 62
5
 10
2183.692
 20
-6350.830
 30
-2425.000
 70
    32
  0
VERTEX
  8
7700LEVEL
 62
5
 10
2173.889
 20
-6357.035
 30
-2425.000
 70
    32
  0
VERTEX
  8
7700LEVEL
 62
5
 10
2158.652
 20
-6364.150
 30
-2425.000
 70
    32
  0
VERTEX
  8
7700LEVEL
 62
5
 10
2146.958
 20
-6368.141
 30
-2425.000
 70
    32
  0
VERTEX
  8
7700LEVEL
 62
5
 10
2134.349
 20
-6369.381
 30
-2425.000
 70
    32
  0
VERTEX
  8
7700LEVEL
 62
5
 10
2120.564
 20
-6369.372
 30
-2425.000
 70
    32
  0
VERTEX
  8
7700LEVEL
 62
5
 10
2113.021
 20
-6369.289
 30
-2425.000
 70
    32
  0
VERTEX
  8
7700LEVEL
 62
5
 10
2100.659
 20
-6369.349
 30
-2425.000
 70
    32
  0
VERTEX
  8
7700LEVEL
 62
5
 10
2093.014
 20
-6371.398
 30
-2425.000
 70
    32
  0
VERTEX
  8
7700LEVEL
 62
5
 10
2087.076
 20
-6374.490
 30
-2425.000
 70
    32
  0
VERTEX
  8
7700LEVEL
 62
5
 10
2084.744
 20
-6377.652
 30
-2425.000
 70
    32
  0
VERTEX
  8
7700LEVEL
 62
5
 10
2082.890
 20
-6381.208
 30
-2425.000
 70
    32
  0
VERTEX
  8
7700LEVEL
 62
5
 10
2081.341
 20
-6382.231
 30
-2425.000
 70
    32
  0
VERTEX
  8
7700LEVEL
 62
5
 10
2080.143
 20
-6381.623
 30
-2425.000
 70
    32
  0
VERTEX
  8
7700LEVEL
 62
5
 10
2078.859
 20
-6381.826
 30
-2425.000
 70
    32
  0
VERTEX
  8
7700LEVEL
 62
5
 10
2078.412
 20
-6382.905
 30
-2425.000
 70
    32
  0
VERTEX
  8
7700LEVEL
 62
5
 10
2077.767
 20
-6385.316
 30
-2425.000
 70
    32
  0
VERTEX
  8
7700LEVEL
 62
5
 10
2076.499
 20
-6386.381
 30
-2425.000
 70
    32
  0
VERTEX
  8
7700LEVEL
 62
5
 10
2073.382
 20
-6386.633
 30
-2425.000
 70
    32
  0
VERTEX
  8
7700LEVEL
 62
5
 10
2071.124
 20
-6387.372
 30
-2425.000
 70
    32
  0
VERTEX
  8
7700LEVEL
 62
5
 10
2069.567
 20
-6389.897
 30
-2425.000
 70
    32
  0
VERTEX
  8
7700LEVEL
 62
5
 10
2066.565
 20
-6396.362
 30
-2425.000
 70
    32
  0
VERTEX
  8
7700LEVEL
 62
5
 10
2062.605
 20
-6402.039
 30
-2425.000
 70
    32
  0
VERTEX
  8
7700LEVEL
 62
5
 10
2057.945
 20
-6405.929
 30
-2425.000
 70
    32
  0
VERTEX
  8
7700LEVEL
 62
5
 10
2053.205
 20
-6407.946
 30
-2425.000
 70
    32
  0
VERTEX
  8
7700LEVEL
 62
5
 10
2047.126
 20
-6409.334
 30
-2425.000
 70
    32
  0
VERTEX
  8
7700LEVEL
 62
5
 10
2041.690
 20
-6410.495
 30
-2425.000
 70
    32
  0
VERTEX
  8
7700LEVEL
 62
5
 10
2036.935
 20
-6411.650
 30
-2425.000
 70
    32
  0
VERTEX
  8
7700LEVEL
 62
5
 10
2033.251
 20
-6414.754
 30
-2425.000
 70
    32
  0
VERTEX
  8
7700LEVEL
 62
5
 10
2029.826
 20
-6419.723
 30
-2425.000
 70
    32
  0
VERTEX
  8
7700LEVEL
 62
5
 10
2025.171
 20
-6426.228
 30
-2425.000
 70
    32
  0
VERTEX
  8
7700LEVEL
 62
5
 10
2021.542
 20
-6430.164
 30
-2425.000
 70
    32
  0
VERTEX
  8
7700LEVEL
 62
5
 10
2019.235
 20
-6432.435
 30
-2425.000
 70
    32
  0
VERTEX
  8
7700LEVEL
 62
5
 10
2011.545
 20
-6436.949
 30
-2425.000
 70
    32
  0
VERTEX
  8
7700LEVEL
 62
5
 10
2002.492
 20
-6445.342
 30
-2425.000
 70
    32
  0
VERTEX
  8
7700LEVEL
 62
5
 10
1993.403
 20
-6451.081
 30
-2425.000
 70
    32
  0
VERTEX
  8
7700LEVEL
 62
5
 10
1979.042
 20
-6460.726
 30
-2425.000
 70
    32
  0
VERTEX
  8
7700LEVEL
 62
5
 10
1967.031
 20
-6469.503
 30
-2425.000
 70
    32
  0
VERTEX
  8
7700LEVEL
 62
5
 10
1953.239
 20
-6477.729
 30
-2425.000
 70
    32
  0
VERTEX
  8
7700LEVEL
 62
5
 10
1944.012
 20
-6483.196
 30
-2425.000
 70
    32
  0
VERTEX
  8
7700LEVEL
 62
5
 10
1935.635
 20
-6485.352
 30
-2425.000
 70
    32
  0
VERTEX
  8
7700LEVEL
 62
5
 10
1929.064
 20
-6486.917
 30
-2425.000
 70
    32
  0
VERTEX
  8
7700LEVEL
 62
5
 10
1921.665
 20
-6488.037
 30
-2425.000
 70
    32
  0
VERTEX
  8
7700LEVEL
 62
5
 10
1911.191
 20
-6492.495
 30
-2425.000
 70
    32
  0
VERTEX
  8
7700LEVEL
 62
5
 10
1899.772
 20
-6499.211
 30
-2425.000
 70
    32
  0
VERTEX
  8
7700LEVEL
 62
5
 10
1890.597
 20
-6504.328
 30
-2425.000
 70
    32
  0
VERTEX
  8
7700LEVEL
 62
5
 10
1884.449
 20
-6509.071
 30
-2425.000
 70
    32
  0
VERTEX
  8
7700LEVEL
 62
5
 10
1878.361
 20
-6515.578
 30
-2425.000
 70
    32
  0
VERTEX
  8
7700LEVEL
 62
5
 10
1875.878
 20
-6518.790
 30
-2425.000
 70
    32
  0
VERTEX
  8
7700LEVEL
 62
5
 10
1872.422
 20
-6522.286
 30
-2425.000
 70
    32
  0
VERTEX
  8
7700LEVEL
 62
5
 10
1866.222
 20
-6527.380
 30
-2425.000
 70
    32
  0
VERTEX
  8
7700LEVEL
 62
5
 10
1858.792
 20
-6530.392
 30
-2425.000
 70
    32
  0
VERTEX
  8
7700LEVEL
 62
5
 10
1852.646
 20
-6532.952
 30
-2425.000
 70
    32
  0
VERTEX
  8
7700LEVEL
 62
5
 10
1845.194
 20
-6534.422
 30
-2425.000
 70
    32
  0
VERTEX
  8
7700LEVEL
 62
5
 10
1836.655
 20
-6535.265
 30
-2425.000
 70
    32
  0
VERTEX
  8
7700LEVEL
 62
5
 10
1822.859
 20
-6538.942
 30
-2425.000
 70
    32
  0
VERTEX
  8
7700LEVEL
 62
5
 10
1808.123
 20
-6544.127
 30
-2425.000
 70
    32
  0
VERTEX
  8
7700LEVEL
 62
5
 10
1794.249
 20
-6547.614
 30
-2425.000
 70
    32
  0
VERTEX
  8
7700LEVEL
 62
5
 10
1778.554
 20
-6554.196
 30
-2425.000
 70
    32
  0
VERTEX
  8
7700LEVEL
 62
5
 10
1761.808
 20
-6562.305
 30
-2425.000
 70
    32
  0
VERTEX
  8
7700LEVEL
 62
5
 10
1748.611
 20
-6568.220
 30
-2425.000
 70
    32
  0
VERTEX
  8
7700LEVEL
 62
5
 10
1732.282
 20
-6576.892
 30
-2425.000
 70
    32
  0
VERTEX
  8
7700LEVEL
 62
5
 10
1727.056
 20
-6579.768
 30
-2425.000
 70
    32
  0
VERTEX
  8
7700LEVEL
 62
5
 10
1722.874
 20
-6582.368
 30
-2425.000
 70
    32
  0
SEQEND
  8
7700LEVEL
  0
POLYLINE
  8
7700LEVEL
 62
5
 66
     1
 70
     9
  0
VERTEX
  8
7700LEVEL
 62
5
 10
2336.870
 20
-6339.054
 30
-2425.000
 70
    32
  0
VERTEX
  8
7700LEVEL
 62
5
 10
2332.469
 20
-6343.126
 30
-2425.000
 70
    32
  0
VERTEX
  8
7700LEVEL
 62
5
 10
2323.803
 20
-6350.359
 30
-2425.000
 70
    32
  0
VERTEX
  8
7700LEVEL
 62
5
 10
2314.765
 20
-6357.680
 30
-2425.000
 70
    32
  0
VERTEX
  8
7700LEVEL
 62
5
 10
2304.855
 20
-6363.404
 30
-2425.000
 70
    32
  0
VERTEX
  8
7700LEVEL
 62
5
 10
2297.128
 20
-6367.447
 30
-2425.000
 70
    32
  0
VERTEX
  8
7700LEVEL
 62
5
 10
2287.525
 20
-6373.753
 30
-2425.000
 70
    32
  0
VERTEX
  8
7700LEVEL
 62
5
 10
2276.910
 20
-6380.124
 30
-2425.000
 70
    32
  0
VERTEX
  8
7700LEVEL
 62
5
 10
2264.294
 20
-6387.665
 30
-2425.000
 70
    32
  0
VERTEX
  8
7700LEVEL
 62
5
 10
2251.263
 20
-6394.393
 30
-2425.000
 70
    32
  0
VERTEX
  8
7700LEVEL
 62
5
 10
2238.163
 20
-6400.859
 30
-2425.000
 70
    32
  0
VERTEX
  8
7700LEVEL
 62
5
 10
2230.898
 20
-6404.685
 30
-2425.000
 70
    32
  0
VERTEX
  8
7700LEVEL
 62
5
 10
2223.004
 20
-6409.849
 30
-2425.000
 70
    32
  0
VERTEX
  8
7700LEVEL
 62
5
 10
2222.133
 20
-6411.617
 30
-2425.000
 70
    32
  0
VERTEX
  8
7700LEVEL
 62
5
 10
2220.309
 20
-6415.213
 30
-2425.000
 70
    32
  0
VERTEX
  8
7700LEVEL
 62
5
 10
2217.079
 20
-6417.669
 30
-2425.000
 70
    32
  0
VERTEX
  8
7700LEVEL
 62
5
 10
2211.105
 20
-6418.356
 30
-2425.000
 70
    32
  0
VERTEX
  8
7700LEVEL
 62
5
 10
2201.781
 20
-6419.655
 30
-2425.000
 70
    32
  0
VERTEX
  8
7700LEVEL
 62
5
 10
2192.195
 20
-6422.956
 30
-2425.000
 70
    32
  0
VERTEX
  8
7700LEVEL
 62
5
 10
2188.306
 20
-6425.028
 30
-2425.000
 70
    32
  0
VERTEX
  8
7700LEVEL
 62
5
 10
2184.986
 20
-6427.613
 30
-2425.000
 70
    32
  0
VERTEX
  8
7700LEVEL
 62
5
 10
2181.992
 20
-6430.892
 30
-2425.000
 70
    32
  0
VERTEX
  8
7700LEVEL
 62
5
 10
2172.468
 20
-6437.389
 30
-2425.000
 70
    32
  0
VERTEX
  8
7700LEVEL
 62
5
 10
2165.943
 20
-6441.539
 30
-2425.000
 70
    32
  0
VERTEX
  8
7700LEVEL
 62
5
 10
2158.115
 20
-6447.465
 30
-2425.000
 70
    32
  0
VERTEX
  8
7700LEVEL
 62
5
 10
2153.857
 20
-6451.057
 30
-2425.000
 70
    32
  0
VERTEX
  8
7700LEVEL
 62
5
 10
2149.571
 20
-6456.041
 30
-2425.000
 70
    32
  0
VERTEX
  8
7700LEVEL
 62
5
 10
2143.106
 20
-6463.638
 30
-2425.000
 70
    32
  0
VERTEX
  8
7700LEVEL
 62
5
 10
2140.699
 20
-6467.541
 30
-2425.000
 70
    32
  0
VERTEX
  8
7700LEVEL
 62
5
 10
2139.344
 20
-6467.984
 30
-2425.000
 70
    32
  0
VERTEX
  8
7700LEVEL
 62
5
 10
2137.746
 20
-6467.173
 30
-2425.000
 70
    32
  0
VERTEX
  8
7700LEVEL
 62
5
 10
2131.574
 20
-6470.875
 30
-2425.000
 70
    32
  0
VERTEX
  8
7700LEVEL
 62
5
 10
2128.267
 20
-6472.889
 30
-2425.000
 70
    32
  0
VERTEX
  8
7700LEVEL
 62
5
 10
2125.530
 20
-6473.234
 30
-2425.000
 70
    32
  0
VERTEX
  8
7700LEVEL
 62
5
 10
2126.486
 20
-6468.972
 30
-2425.000
 70
    32
  0
VERTEX
  8
7700LEVEL
 62
5
 10
2129.204
 20
-6464.901
 30
-2425.000
 70
    32
  0
VERTEX
  8
7700LEVEL
 62
5
 10
2133.911
 20
-6459.979
 30
-2425.000
 70
    32
  0
VERTEX
  8
7700LEVEL
 62
5
 10
2136.150
 20
-6455.514
 30
-2425.000
 70
    32
  0
VERTEX
  8
7700LEVEL
 62
5
 10
2139.717
 20
-6448.381
 30
-2425.000
 70
    32
  0
VERTEX
  8
7700LEVEL
 62
5
 10
2142.213
 20
-6442.916
 30
-2425.000
 70
    32
  0
VERTEX
  8
7700LEVEL
 62
5
 10
2142.948
 20
-6438.693
 30
-2425.000
 70
    32
  0
VERTEX
  8
7700LEVEL
 62
5
 10
2138.831
 20
-6438.689
 30
-2425.000
 70
    32
  0
VERTEX
  8
7700LEVEL
 62
5
 10
2135.070
 20
-6441.102
 30
-2425.000
 70
    32
  0
VERTEX
  8
7700LEVEL
 62
5
 10
2129.299
 20
-6444.756
 30
-2425.000
 70
    32
  0
VERTEX
  8
7700LEVEL
 62
5
 10
2125.773
 20
-6446.559
 30
-2425.000
 70
    32
  0
VERTEX
  8
7700LEVEL
 62
5
 10
2122.369
 20
-6446.088
 30
-2425.000
 70
    32
  0
VERTEX
  8
7700LEVEL
 62
5
 10
2123.497
 20
-6443.320
 30
-2425.000
 70
    32
  0
VERTEX
  8
7700LEVEL
 62
5
 10
2125.606
 20
-6439.014
 30
-2425.000
 70
    32
  0
VERTEX
  8
7700LEVEL
 62
5
 10
2126.152
 20
-6436.303
 30
-2425.000
 70
    32
  0
VERTEX
  8
7700LEVEL
 62
5
 10
2124.184
 20
-6435.330
 30
-2425.000
 70
    32
  0
VERTEX
  8
7700LEVEL
 62
5
 10
2115.462
 20
-6440.048
 30
-2425.000
 70
    32
  0
VERTEX
  8
7700LEVEL
 62
5
 10
2105.219
 20
-6446.080
 30
-2425.000
 70
    32
  0
VERTEX
  8
7700LEVEL
 62
5
 10
2103.359
 20
-6447.272
 30
-2425.000
 70
    32
  0
VERTEX
  8
7700LEVEL
 62
5
 10
2098.808
 20
-6449.460
 30
-2425.000
 70
    32
  0
VERTEX
  8
7700LEVEL
 62
5
 10
2094.808
 20
-6451.801
 30
-2425.000
 70
    32
  0
VERTEX
  8
7700LEVEL
 62
5
 10
2090.682
 20
-6451.617
 30
-2425.000
 70
    32
  0
VERTEX
  8
7700LEVEL
 62
5
 10
2092.802
 20
-6446.991
 30
-2425.000
 70
    32
  0
VERTEX
  8
7700LEVEL
 62
5
 10
2096.246
 20
-6442.132
 30
-2425.000
 70
    32
  0
VERTEX
  8
7700LEVEL
 62
5
 10
2097.874
 20
-6437.684
 30
-2425.000
 70
    32
  0
VERTEX
  8
7700LEVEL
 62
5
 10
2098.955
 20
-6432.581
 30
-2425.000
 70
    32
  0
VERTEX
  8
7700LEVEL
 62
5
 10
2100.593
 20
-6426.379
 30
-2425.000
 70
    32
  0
VERTEX
  8
7700LEVEL
 62
5
 10
2104.732
 20
-6420.943
 30
-2425.000
 70
    32
  0
VERTEX
  8
7700LEVEL
 62
5
 10
2111.636
 20
-6417.136
 30
-2425.000
 70
    32
  0
VERTEX
  8
7700LEVEL
 62
5
 10
2117.133
 20
-6415.805
 30
-2425.000
 70
    32
  0
VERTEX
  8
7700LEVEL
 62
5
 10
2120.779
 20
-6415.846
 30
-2425.000
 70
    32
  0
VERTEX
  8
7700LEVEL
 62
5
 10
2127.456
 20
-6415.012
 30
-2425.000
 70
    32
  0
VERTEX
  8
7700LEVEL
 62
5
 10
2136.265
 20
-6410.915
 30
-2425.000
 70
    32
  0
VERTEX
  8
7700LEVEL
 62
5
 10
2143.115
 20
-6406.026
 30
-2425.000
 70
    32
  0
VERTEX
  8
7700LEVEL
 62
5
 10
2148.853
 20
-6401.150
 30
-2425.000
 70
    32
  0
VERTEX
  8
7700LEVEL
 62
5
 10
2154.648
 20
-6396.855
 30
-2425.000
 70
    32
  0
VERTEX
  8
7700LEVEL
 62
5
 10
2160.193
 20
-6390.626
 30
-2425.000
 70
    32
  0
VERTEX
  8
7700LEVEL
 62
5
 10
2162.475
 20
-6387.564
 30
-2425.000
 70
    32
  0
VERTEX
  8
7700LEVEL
 62
5
 10
2165.683
 20
-6383.565
 30
-2425.000
 70
    32
  0
VERTEX
  8
7700LEVEL
 62
5
 10
2170.600
 20
-6380.357
 30
-2425.000
 70
    32
  0
VERTEX
  8
7700LEVEL
 62
5
 10
2176.397
 20
-6379.178
 30
-2425.000
 70
    32
  0
VERTEX
  8
7700LEVEL
 62
5
 10
2182.980
 20
-6378.976
 30
-2425.000
 70
    32
  0
VERTEX
  8
7700LEVEL
 62
5
 10
2189.245
 20
-6378.260
 30
-2425.000
 70
    32
  0
VERTEX
  8
7700LEVEL
 62
5
 10
2199.342
 20
-6374.892
 30
-2425.000
 70
    32
  0
VERTEX
  8
7700LEVEL
 62
5
 10
2207.497
 20
-6371.342
 30
-2425.000
 70
    32
  0
VERTEX
  8
7700LEVEL
 62
5
 10
2217.160
 20
-6366.799
 30
-2425.000
 70
    32
  0
VERTEX
  8
7700LEVEL
 62
5
 10
2224.926
 20
-6362.977
 30
-2425.000
 70
    32
  0
VERTEX
  8
7700LEVEL
 62
5
 10
2229.618
 20
-6360.559
 30
-2425.000
 70
    32
  0
VERTEX
  8
7700LEVEL
 62
5
 10
2237.842
 20
-6357.020
 30
-2425.000
 70
    32
  0
VERTEX
  8
7700LEVEL
 62
5
 10
2247.873
 20
-6349.524
 30
-2425.000
 70
    32
  0
VERTEX
  8
7700LEVEL
 62
5
 10
2255.890
 20
-6343.770
 30
-2425.000
 70
    32
  0
VERTEX
  8
7700LEVEL
 62
5
 10
2266.582
 20
-6336.157
 30
-2425.000
 70
    32
  0
VERTEX
  8
7700LEVEL
 62
5
 10
2272.912
 20
-6331.154
 30
-2425.000
 70
    32
  0
VERTEX
  8
7700LEVEL
 62
5
 10
2280.580
 20
-6325.098
 30
-2425.000
 70
    32
  0
VERTEX
  8
7700LEVEL
 62
5
 10
2292.884
 20
-6317.725
 30
-2425.000
 70
    32
  0
VERTEX
  8
7700LEVEL
 62
5
 10
2299.620
 20
-6313.606
 30
-2425.000
 70
    32
  0
VERTEX
  8
7700LEVEL
 62
5
 10
2308.455
 20
-6308.367
 30
-2425.000
 70
    32
  0
VERTEX
  8
7700LEVEL
 62
5
 10
2314.851
 20
-6304.126
 30
-2425.000
 70
    32
  0
VERTEX
  8
7700LEVEL
 62
5
 10
2319.918
 20
-6300.869
 30
-2425.000
 70
    32
  0
VERTEX
  8
7700LEVEL
 62
5
 10
2322.996
 20
-6298.713
 30
-2425.000
 70
    32
  0
SEQEND
  8
7700LEVEL
  0
ENDSEC
  0
EOF
