999
********************************
999
*   DXF File - Entities Only   *
999
*        3D Data Format        *
999
*     Output from ENVISAGE     *
999
*     28-Dec-2007 14:16:19     *
999
********************************
  0
SECTION 
  2
HEADER
  9
$ACADVER
  1
AC1009
  9
$EXTMIN
 10
-290000.000
 20
-250000.000
 30
-4000.000
  9
$EXTMAX
 10
5000000.000
 20
600000.000
 30
6000.000
  0
ENDSEC
  0
SECTION
  2
ENTITIES
  0
POLYLINE
  8
7850LEVEL
 62
13
 66
     1
 70
     8
  0
VERTEX
  8
7850LEVEL
 62
13
 10
2542.890
 20
-6683.031
 30
-2560.000
 70
    32
  0
VERTEX
  8
7850LEVEL
 62
13
 10
2539.231
 20
-6674.421
 30
-2560.000
 70
    32
  0
VERTEX
  8
7850LEVEL
 62
13
 10
2536.313
 20
-6661.696
 30
-2560.000
 70
    32
  0
VERTEX
  8
7850LEVEL
 62
13
 10
2529.143
 20
-6643.823
 30
-2560.000
 70
    32
  0
VERTEX
  8
7850LEVEL
 62
13
 10
2522.419
 20
-6629.592
 30
-2560.000
 70
    32
  0
VERTEX
  8
7850LEVEL
 62
13
 10
2516.085
 20
-6613.502
 30
-2560.000
 70
    32
  0
VERTEX
  8
7850LEVEL
 62
13
 10
2514.717
 20
-6604.001
 30
-2560.000
 70
    32
  0
VERTEX
  8
7850LEVEL
 62
13
 10
2516.169
 20
-6594.269
 30
-2560.000
 70
    32
  0
VERTEX
  8
7850LEVEL
 62
13
 10
2519.543
 20
-6584.760
 30
-2560.000
 70
    32
  0
VERTEX
  8
7850LEVEL
 62
13
 10
2523.341
 20
-6581.525
 30
-2560.000
 70
    32
  0
VERTEX
  8
7850LEVEL
 62
13
 10
2528.117
 20
-6578.814
 30
-2560.000
 70
    32
  0
VERTEX
  8
7850LEVEL
 62
13
 10
2536.018
 20
-6574.927
 30
-2560.000
 70
    32
  0
VERTEX
  8
7850LEVEL
 62
13
 10
2542.751
 20
-6572.658
 30
-2560.000
 70
    32
  0
VERTEX
  8
7850LEVEL
 62
13
 10
2550.639
 20
-6571.763
 30
-2560.000
 70
    32
  0
VERTEX
  8
7850LEVEL
 62
13
 10
2556.186
 20
-6572.463
 30
-2560.000
 70
    32
  0
VERTEX
  8
7850LEVEL
 62
13
 10
2562.841
 20
-6574.814
 30
-2560.000
 70
    32
  0
VERTEX
  8
7850LEVEL
 62
13
 10
2571.106
 20
-6583.999
 30
-2560.000
 70
    32
  0
VERTEX
  8
7850LEVEL
 62
13
 10
2575.226
 20
-6591.369
 30
-2560.000
 70
    32
  0
VERTEX
  8
7850LEVEL
 62
13
 10
2580.882
 20
-6606.844
 30
-2560.000
 70
    32
  0
VERTEX
  8
7850LEVEL
 62
13
 10
2583.972
 20
-6617.317
 30
-2560.000
 70
    32
  0
VERTEX
  8
7850LEVEL
 62
13
 10
2588.471
 20
-6634.340
 30
-2560.000
 70
    32
  0
VERTEX
  8
7850LEVEL
 62
13
 10
2591.707
 20
-6644.589
 30
-2560.000
 70
    32
  0
VERTEX
  8
7850LEVEL
 62
13
 10
2595.255
 20
-6654.677
 30
-2560.000
 70
    32
  0
VERTEX
  8
7850LEVEL
 62
13
 10
2597.221
 20
-6659.434
 30
-2560.000
 70
    32
  0
SEQEND
  8
7850LEVEL
  0
POLYLINE
  8
7850LEVEL
 62
13
 66
     1
 70
     8
  0
VERTEX
  8
7850LEVEL
 62
13
 10
2519.560
 20
-6700.637
 30
-2560.000
 70
    32
  0
VERTEX
  8
7850LEVEL
 62
13
 10
2514.996
 20
-6687.737
 30
-2560.000
 70
    32
  0
VERTEX
  8
7850LEVEL
 62
13
 10
2508.712
 20
-6671.977
 30
-2560.000
 70
    32
  0
VERTEX
  8
7850LEVEL
 62
13
 10
2501.065
 20
-6656.268
 30
-2560.000
 70
    32
  0
VERTEX
  8
7850LEVEL
 62
13
 10
2498.182
 20
-6651.248
 30
-2560.000
 70
    32
  0
VERTEX
  8
7850LEVEL
 62
13
 10
2493.587
 20
-6644.152
 30
-2560.000
 70
    32
  0
VERTEX
  8
7850LEVEL
 62
13
 10
2484.054
 20
-6635.499
 30
-2560.000
 70
    32
  0
VERTEX
  8
7850LEVEL
 62
13
 10
2474.918
 20
-6630.157
 30
-2560.000
 70
    32
  0
VERTEX
  8
7850LEVEL
 62
13
 10
2463.139
 20
-6625.467
 30
-2560.000
 70
    32
  0
VERTEX
  8
7850LEVEL
 62
13
 10
2448.055
 20
-6618.430
 30
-2560.000
 70
    32
  0
VERTEX
  8
7850LEVEL
 62
13
 10
2442.559
 20
-6611.180
 30
-2560.000
 70
    32
  0
VERTEX
  8
7850LEVEL
 62
13
 10
2441.196
 20
-6603.320
 30
-2560.000
 70
    32
  0
VERTEX
  8
7850LEVEL
 62
13
 10
2449.309
 20
-6589.240
 30
-2560.000
 70
    32
  0
VERTEX
  8
7850LEVEL
 62
13
 10
2457.160
 20
-6579.606
 30
-2560.000
 70
    32
  0
VERTEX
  8
7850LEVEL
 62
13
 10
2468.621
 20
-6563.461
 30
-2560.000
 70
    32
  0
VERTEX
  8
7850LEVEL
 62
13
 10
2474.810
 20
-6552.081
 30
-2560.000
 70
    32
  0
VERTEX
  8
7850LEVEL
 62
13
 10
2478.117
 20
-6538.177
 30
-2560.000
 70
    32
  0
VERTEX
  8
7850LEVEL
 62
13
 10
2475.207
 20
-6530.194
 30
-2560.000
 70
    32
  0
VERTEX
  8
7850LEVEL
 62
13
 10
2458.976
 20
-6526.524
 30
-2560.000
 70
    32
  0
VERTEX
  8
7850LEVEL
 62
13
 10
2445.270
 20
-6527.885
 30
-2560.000
 70
    32
  0
VERTEX
  8
7850LEVEL
 62
13
 10
2428.686
 20
-6532.317
 30
-2560.000
 70
    32
  0
VERTEX
  8
7850LEVEL
 62
13
 10
2416.531
 20
-6534.406
 30
-2560.000
 70
    32
  0
VERTEX
  8
7850LEVEL
 62
13
 10
2402.157
 20
-6534.049
 30
-2560.000
 70
    32
  0
VERTEX
  8
7850LEVEL
 62
13
 10
2394.444
 20
-6531.837
 30
-2560.000
 70
    32
  0
VERTEX
  8
7850LEVEL
 62
13
 10
2386.476
 20
-6524.877
 30
-2560.000
 70
    32
  0
VERTEX
  8
7850LEVEL
 62
13
 10
2382.771
 20
-6513.622
 30
-2560.000
 70
    32
  0
VERTEX
  8
7850LEVEL
 62
13
 10
2385.637
 20
-6496.255
 30
-2560.000
 70
    32
  0
VERTEX
  8
7850LEVEL
 62
13
 10
2388.650
 20
-6486.150
 30
-2560.000
 70
    32
  0
VERTEX
  8
7850LEVEL
 62
13
 10
2392.389
 20
-6477.843
 30
-2560.000
 70
    32
  0
VERTEX
  8
7850LEVEL
 62
13
 10
2395.759
 20
-6477.102
 30
-2560.000
 70
    32
  0
VERTEX
  8
7850LEVEL
 62
13
 10
2400.151
 20
-6484.340
 30
-2560.000
 70
    32
  0
VERTEX
  8
7850LEVEL
 62
13
 10
2402.170
 20
-6491.494
 30
-2560.000
 70
    32
  0
VERTEX
  8
7850LEVEL
 62
13
 10
2404.023
 20
-6497.122
 30
-2560.000
 70
    32
  0
VERTEX
  8
7850LEVEL
 62
13
 10
2411.631
 20
-6505.980
 30
-2560.000
 70
    32
  0
VERTEX
  8
7850LEVEL
 62
13
 10
2426.670
 20
-6509.945
 30
-2560.000
 70
    32
  0
VERTEX
  8
7850LEVEL
 62
13
 10
2438.921
 20
-6509.796
 30
-2560.000
 70
    32
  0
VERTEX
  8
7850LEVEL
 62
13
 10
2463.667
 20
-6502.449
 30
-2560.000
 70
    32
  0
VERTEX
  8
7850LEVEL
 62
13
 10
2474.679
 20
-6500.377
 30
-2560.000
 70
    32
  0
VERTEX
  8
7850LEVEL
 62
13
 10
2485.340
 20
-6500.563
 30
-2560.000
 70
    32
  0
VERTEX
  8
7850LEVEL
 62
13
 10
2492.852
 20
-6502.490
 30
-2560.000
 70
    32
  0
VERTEX
  8
7850LEVEL
 62
13
 10
2500.656
 20
-6506.036
 30
-2560.000
 70
    32
  0
VERTEX
  8
7850LEVEL
 62
13
 10
2506.322
 20
-6513.956
 30
-2560.000
 70
    32
  0
VERTEX
  8
7850LEVEL
 62
13
 10
2509.106
 20
-6521.846
 30
-2560.000
 70
    32
  0
VERTEX
  8
7850LEVEL
 62
13
 10
2508.139
 20
-6534.156
 30
-2560.000
 70
    32
  0
VERTEX
  8
7850LEVEL
 62
13
 10
2505.011
 20
-6544.099
 30
-2560.000
 70
    32
  0
VERTEX
  8
7850LEVEL
 62
13
 10
2500.039
 20
-6554.618
 30
-2560.000
 70
    32
  0
VERTEX
  8
7850LEVEL
 62
13
 10
2495.296
 20
-6560.044
 30
-2560.000
 70
    32
  0
VERTEX
  8
7850LEVEL
 62
13
 10
2487.367
 20
-6570.341
 30
-2560.000
 70
    32
  0
VERTEX
  8
7850LEVEL
 62
13
 10
2482.376
 20
-6577.221
 30
-2560.000
 70
    32
  0
VERTEX
  8
7850LEVEL
 62
13
 10
2478.277
 20
-6585.965
 30
-2560.000
 70
    32
  0
VERTEX
  8
7850LEVEL
 62
13
 10
2478.593
 20
-6590.367
 30
-2560.000
 70
    32
  0
VERTEX
  8
7850LEVEL
 62
13
 10
2484.029
 20
-6600.458
 30
-2560.000
 70
    32
  0
VERTEX
  8
7850LEVEL
 62
13
 10
2496.895
 20
-6607.544
 30
-2560.000
 70
    32
  0
VERTEX
  8
7850LEVEL
 62
13
 10
2503.990
 20
-6612.322
 30
-2560.000
 70
    32
  0
VERTEX
  8
7850LEVEL
 62
13
 10
2510.923
 20
-6619.711
 30
-2560.000
 70
    32
  0
VERTEX
  8
7850LEVEL
 62
13
 10
2515.812
 20
-6626.964
 30
-2560.000
 70
    32
  0
VERTEX
  8
7850LEVEL
 62
13
 10
2520.222
 20
-6635.346
 30
-2560.000
 70
    32
  0
VERTEX
  8
7850LEVEL
 62
13
 10
2523.988
 20
-6645.828
 30
-2560.000
 70
    32
  0
VERTEX
  8
7850LEVEL
 62
13
 10
2527.359
 20
-6655.494
 30
-2560.000
 70
    32
  0
VERTEX
  8
7850LEVEL
 62
13
 10
2531.463
 20
-6669.206
 30
-2560.000
 70
    32
  0
VERTEX
  8
7850LEVEL
 62
13
 10
2534.782
 20
-6678.970
 30
-2560.000
 70
    32
  0
VERTEX
  8
7850LEVEL
 62
13
 10
2536.278
 20
-6682.719
 30
-2560.000
 70
    32
  0
VERTEX
  8
7850LEVEL
 62
13
 10
2537.376
 20
-6686.507
 30
-2560.000
 70
    32
  0
SEQEND
  8
7850LEVEL
  0
POLYLINE
  8
7850LEVEL
 62
13
 66
     1
 70
     8
  0
VERTEX
  8
7850LEVEL
 62
13
 10
2347.406
 20
-6821.614
 30
-2560.000
 70
    32
  0
VERTEX
  8
7850LEVEL
 62
13
 10
2344.962
 20
-6812.570
 30
-2560.000
 70
    32
  0
VERTEX
  8
7850LEVEL
 62
13
 10
2340.787
 20
-6795.317
 30
-2560.000
 70
    32
  0
VERTEX
  8
7850LEVEL
 62
13
 10
2336.172
 20
-6779.593
 30
-2560.000
 70
    32
  0
VERTEX
  8
7850LEVEL
 62
13
 10
2329.736
 20
-6760.349
 30
-2560.000
 70
    32
  0
VERTEX
  8
7850LEVEL
 62
13
 10
2325.360
 20
-6746.769
 30
-2560.000
 70
    32
  0
VERTEX
  8
7850LEVEL
 62
13
 10
2320.120
 20
-6727.409
 30
-2560.000
 70
    32
  0
VERTEX
  8
7850LEVEL
 62
13
 10
2319.742
 20
-6718.790
 30
-2560.000
 70
    32
  0
VERTEX
  8
7850LEVEL
 62
13
 10
2321.317
 20
-6708.545
 30
-2560.000
 70
    32
  0
VERTEX
  8
7850LEVEL
 62
13
 10
2323.545
 20
-6704.899
 30
-2560.000
 70
    32
  0
VERTEX
  8
7850LEVEL
 62
13
 10
2326.443
 20
-6702.544
 30
-2560.000
 70
    32
  0
VERTEX
  8
7850LEVEL
 62
13
 10
2328.432
 20
-6702.171
 30
-2560.000
 70
    32
  0
VERTEX
  8
7850LEVEL
 62
13
 10
2329.927
 20
-6702.391
 30
-2560.000
 70
    32
  0
VERTEX
  8
7850LEVEL
 62
13
 10
2333.314
 20
-6705.716
 30
-2560.000
 70
    32
  0
VERTEX
  8
7850LEVEL
 62
13
 10
2335.999
 20
-6712.520
 30
-2560.000
 70
    32
  0
VERTEX
  8
7850LEVEL
 62
13
 10
2338.188
 20
-6718.882
 30
-2560.000
 70
    32
  0
VERTEX
  8
7850LEVEL
 62
13
 10
2343.871
 20
-6734.825
 30
-2560.000
 70
    32
  0
VERTEX
  8
7850LEVEL
 62
13
 10
2348.049
 20
-6746.233
 30
-2560.000
 70
    32
  0
VERTEX
  8
7850LEVEL
 62
13
 10
2351.644
 20
-6757.505
 30
-2560.000
 70
    32
  0
VERTEX
  8
7850LEVEL
 62
13
 10
2356.448
 20
-6776.078
 30
-2560.000
 70
    32
  0
VERTEX
  8
7850LEVEL
 62
13
 10
2357.698
 20
-6787.305
 30
-2560.000
 70
    32
  0
VERTEX
  8
7850LEVEL
 62
13
 10
2361.120
 20
-6805.213
 30
-2560.000
 70
    32
  0
VERTEX
  8
7850LEVEL
 62
13
 10
2362.855
 20
-6812.568
 30
-2560.000
 70
    32
  0
VERTEX
  8
7850LEVEL
 62
13
 10
2363.730
 20
-6817.244
 30
-2560.000
 70
    32
  0
VERTEX
  8
7850LEVEL
 62
13
 10
2364.398
 20
-6821.457
 30
-2560.000
 70
    32
  0
SEQEND
  8
7850LEVEL
  0
POLYLINE
  8
7850LEVEL
 62
13
 66
     1
 70
     8
  0
VERTEX
  8
7850LEVEL
 62
13
 10
2296.199
 20
-6851.948
 30
-2560.000
 70
    32
  0
VERTEX
  8
7850LEVEL
 62
13
 10
2291.918
 20
-6836.352
 30
-2560.000
 70
    32
  0
VERTEX
  8
7850LEVEL
 62
13
 10
2287.601
 20
-6815.974
 30
-2560.000
 70
    32
  0
VERTEX
  8
7850LEVEL
 62
13
 10
2279.942
 20
-6790.961
 30
-2560.000
 70
    32
  0
VERTEX
  8
7850LEVEL
 62
13
 10
2276.789
 20
-6775.237
 30
-2560.000
 70
    32
  0
VERTEX
  8
7850LEVEL
 62
13
 10
2281.246
 20
-6753.153
 30
-2560.000
 70
    32
  0
VERTEX
  8
7850LEVEL
 62
13
 10
2285.624
 20
-6738.612
 30
-2560.000
 70
    32
  0
VERTEX
  8
7850LEVEL
 62
13
 10
2290.604
 20
-6719.932
 30
-2560.000
 70
    32
  0
VERTEX
  8
7850LEVEL
 62
13
 10
2292.753
 20
-6708.004
 30
-2560.000
 70
    32
  0
VERTEX
  8
7850LEVEL
 62
13
 10
2293.959
 20
-6689.925
 30
-2560.000
 70
    32
  0
VERTEX
  8
7850LEVEL
 62
13
 10
2294.064
 20
-6680.356
 30
-2560.000
 70
    32
  0
VERTEX
  8
7850LEVEL
 62
13
 10
2290.312
 20
-6665.421
 30
-2560.000
 70
    32
  0
VERTEX
  8
7850LEVEL
 62
13
 10
2284.642
 20
-6651.904
 30
-2560.000
 70
    32
  0
VERTEX
  8
7850LEVEL
 62
13
 10
2278.127
 20
-6632.290
 30
-2560.000
 70
    32
  0
VERTEX
  8
7850LEVEL
 62
13
 10
2273.470
 20
-6619.517
 30
-2560.000
 70
    32
  0
VERTEX
  8
7850LEVEL
 62
13
 10
2269.395
 20
-6604.384
 30
-2560.000
 70
    32
  0
VERTEX
  8
7850LEVEL
 62
13
 10
2271.716
 20
-6594.160
 30
-2560.000
 70
    32
  0
VERTEX
  8
7850LEVEL
 62
13
 10
2276.830
 20
-6580.315
 30
-2560.000
 70
    32
  0
VERTEX
  8
7850LEVEL
 62
13
 10
2284.805
 20
-6566.212
 30
-2560.000
 70
    32
  0
VERTEX
  8
7850LEVEL
 62
13
 10
2287.963
 20
-6557.343
 30
-2560.000
 70
    32
  0
VERTEX
  8
7850LEVEL
 62
13
 10
2290.153
 20
-6547.880
 30
-2560.000
 70
    32
  0
VERTEX
  8
7850LEVEL
 62
13
 10
2288.675
 20
-6538.396
 30
-2560.000
 70
    32
  0
VERTEX
  8
7850LEVEL
 62
13
 10
2287.655
 20
-6529.988
 30
-2560.000
 70
    32
  0
VERTEX
  8
7850LEVEL
 62
13
 10
2289.545
 20
-6515.199
 30
-2560.000
 70
    32
  0
VERTEX
  8
7850LEVEL
 62
13
 10
2295.241
 20
-6501.917
 30
-2560.000
 70
    32
  0
VERTEX
  8
7850LEVEL
 62
13
 10
2299.193
 20
-6492.364
 30
-2560.000
 70
    32
  0
VERTEX
  8
7850LEVEL
 62
13
 10
2306.343
 20
-6477.870
 30
-2560.000
 70
    32
  0
VERTEX
  8
7850LEVEL
 62
13
 10
2309.609
 20
-6465.455
 30
-2560.000
 70
    32
  0
VERTEX
  8
7850LEVEL
 62
13
 10
2315.312
 20
-6450.463
 30
-2560.000
 70
    32
  0
VERTEX
  8
7850LEVEL
 62
13
 10
2320.836
 20
-6437.972
 30
-2560.000
 70
    32
  0
VERTEX
  8
7850LEVEL
 62
13
 10
2329.342
 20
-6421.179
 30
-2560.000
 70
    32
  0
VERTEX
  8
7850LEVEL
 62
13
 10
2335.572
 20
-6411.232
 30
-2560.000
 70
    32
  0
VERTEX
  8
7850LEVEL
 62
13
 10
2342.305
 20
-6399.589
 30
-2560.000
 70
    32
  0
VERTEX
  8
7850LEVEL
 62
13
 10
2346.165
 20
-6392.658
 30
-2560.000
 70
    32
  0
VERTEX
  8
7850LEVEL
 62
13
 10
2349.055
 20
-6381.604
 30
-2560.000
 70
    32
  0
VERTEX
  8
7850LEVEL
 62
13
 10
2348.355
 20
-6371.326
 30
-2560.000
 70
    32
  0
VERTEX
  8
7850LEVEL
 62
13
 10
2345.724
 20
-6362.963
 30
-2560.000
 70
    32
  0
VERTEX
  8
7850LEVEL
 62
13
 10
2341.489
 20
-6355.431
 30
-2560.000
 70
    32
  0
VERTEX
  8
7850LEVEL
 62
13
 10
2337.796
 20
-6352.018
 30
-2560.000
 70
    32
  0
VERTEX
  8
7850LEVEL
 62
13
 10
2322.899
 20
-6348.256
 30
-2560.000
 70
    32
  0
VERTEX
  8
7850LEVEL
 62
13
 10
2312.146
 20
-6346.736
 30
-2560.000
 70
    32
  0
VERTEX
  8
7850LEVEL
 62
13
 10
2304.569
 20
-6339.986
 30
-2560.000
 70
    32
  0
VERTEX
  8
7850LEVEL
 62
13
 10
2301.432
 20
-6328.329
 30
-2560.000
 70
    32
  0
VERTEX
  8
7850LEVEL
 62
13
 10
2295.604
 20
-6308.654
 30
-2560.000
 70
    32
  0
VERTEX
  8
7850LEVEL
 62
13
 10
2287.022
 20
-6291.538
 30
-2560.000
 70
    32
  0
VERTEX
  8
7850LEVEL
 62
13
 10
2278.819
 20
-6282.613
 30
-2560.000
 70
    32
  0
VERTEX
  8
7850LEVEL
 62
13
 10
2263.873
 20
-6269.148
 30
-2560.000
 70
    32
  0
VERTEX
  8
7850LEVEL
 62
13
 10
2255.387
 20
-6255.007
 30
-2560.000
 70
    32
  0
VERTEX
  8
7850LEVEL
 62
13
 10
2251.122
 20
-6242.443
 30
-2560.000
 70
    32
  0
VERTEX
  8
7850LEVEL
 62
13
 10
2245.373
 20
-6222.105
 30
-2560.000
 70
    32
  0
VERTEX
  8
7850LEVEL
 62
13
 10
2242.936
 20
-6208.857
 30
-2560.000
 70
    32
  0
VERTEX
  8
7850LEVEL
 62
13
 10
2243.848
 20
-6201.029
 30
-2560.000
 70
    32
  0
VERTEX
  8
7850LEVEL
 62
13
 10
2250.155
 20
-6190.418
 30
-2560.000
 70
    32
  0
VERTEX
  8
7850LEVEL
 62
13
 10
2256.333
 20
-6183.064
 30
-2560.000
 70
    32
  0
VERTEX
  8
7850LEVEL
 62
13
 10
2270.055
 20
-6168.910
 30
-2560.000
 70
    32
  0
VERTEX
  8
7850LEVEL
 62
13
 10
2284.470
 20
-6154.448
 30
-2560.000
 70
    32
  0
VERTEX
  8
7850LEVEL
 62
13
 10
2292.537
 20
-6145.635
 30
-2560.000
 70
    32
  0
VERTEX
  8
7850LEVEL
 62
13
 10
2297.515
 20
-6139.252
 30
-2560.000
 70
    32
  0
VERTEX
  8
7850LEVEL
 62
13
 10
2303.145
 20
-6133.016
 30
-2560.000
 70
    32
  0
VERTEX
  8
7850LEVEL
 62
13
 10
2312.170
 20
-6119.021
 30
-2560.000
 70
    32
  0
VERTEX
  8
7850LEVEL
 62
13
 10
2317.558
 20
-6110.034
 30
-2560.000
 70
    32
  0
VERTEX
  8
7850LEVEL
 62
13
 10
2321.249
 20
-6102.005
 30
-2560.000
 70
    32
  0
VERTEX
  8
7850LEVEL
 62
13
 10
2323.881
 20
-6089.125
 30
-2560.000
 70
    32
  0
VERTEX
  8
7850LEVEL
 62
13
 10
2328.114
 20
-6076.270
 30
-2560.000
 70
    32
  0
VERTEX
  8
7850LEVEL
 62
13
 10
2330.763
 20
-6067.457
 30
-2560.000
 70
    32
  0
VERTEX
  8
7850LEVEL
 62
13
 10
2334.945
 20
-6056.767
 30
-2560.000
 70
    32
  0
VERTEX
  8
7850LEVEL
 62
13
 10
2340.458
 20
-6046.840
 30
-2560.000
 70
    32
  0
VERTEX
  8
7850LEVEL
 62
13
 10
2348.059
 20
-6029.714
 30
-2560.000
 70
    32
  0
VERTEX
  8
7850LEVEL
 62
13
 10
2353.527
 20
-6007.767
 30
-2560.000
 70
    32
  0
VERTEX
  8
7850LEVEL
 62
13
 10
2351.456
 20
-5991.338
 30
-2560.000
 70
    32
  0
VERTEX
  8
7850LEVEL
 62
13
 10
2347.678
 20
-5978.430
 30
-2560.000
 70
    32
  0
VERTEX
  8
7850LEVEL
 62
13
 10
2342.303
 20
-5954.236
 30
-2560.000
 70
    32
  0
VERTEX
  8
7850LEVEL
 62
13
 10
2340.217
 20
-5942.687
 30
-2560.000
 70
    32
  0
VERTEX
  8
7850LEVEL
 62
13
 10
2338.408
 20
-5933.680
 30
-2560.000
 70
    32
  0
VERTEX
  8
7850LEVEL
 62
13
 10
2337.144
 20
-5928.367
 30
-2560.000
 70
    32
  0
SEQEND
  8
7850LEVEL
  0
POLYLINE
  8
7850LEVEL
 62
13
 66
     1
 70
     8
  0
VERTEX
  8
7850LEVEL
 62
13
 10
2348.374
 20
-5919.811
 30
-2560.000
 70
    32
  0
VERTEX
  8
7850LEVEL
 62
13
 10
2350.586
 20
-5931.880
 30
-2560.000
 70
    32
  0
VERTEX
  8
7850LEVEL
 62
13
 10
2354.180
 20
-5947.109
 30
-2560.000
 70
    32
  0
VERTEX
  8
7850LEVEL
 62
13
 10
2358.865
 20
-5962.845
 30
-2560.000
 70
    32
  0
VERTEX
  8
7850LEVEL
 62
13
 10
2363.005
 20
-5974.888
 30
-2560.000
 70
    32
  0
VERTEX
  8
7850LEVEL
 62
13
 10
2366.846
 20
-5990.551
 30
-2560.000
 70
    32
  0
VERTEX
  8
7850LEVEL
 62
13
 10
2369.181
 20
-6002.107
 30
-2560.000
 70
    32
  0
VERTEX
  8
7850LEVEL
 62
13
 10
2368.482
 20
-6008.688
 30
-2560.000
 70
    32
  0
VERTEX
  8
7850LEVEL
 62
13
 10
2365.582
 20
-6021.878
 30
-2560.000
 70
    32
  0
VERTEX
  8
7850LEVEL
 62
13
 10
2361.806
 20
-6032.281
 30
-2560.000
 70
    32
  0
VERTEX
  8
7850LEVEL
 62
13
 10
2355.991
 20
-6047.717
 30
-2560.000
 70
    32
  0
VERTEX
  8
7850LEVEL
 62
13
 10
2353.800
 20
-6054.684
 30
-2560.000
 70
    32
  0
VERTEX
  8
7850LEVEL
 62
13
 10
2348.764
 20
-6071.821
 30
-2560.000
 70
    32
  0
VERTEX
  8
7850LEVEL
 62
13
 10
2344.615
 20
-6084.192
 30
-2560.000
 70
    32
  0
VERTEX
  8
7850LEVEL
 62
13
 10
2336.428
 20
-6100.576
 30
-2560.000
 70
    32
  0
VERTEX
  8
7850LEVEL
 62
13
 10
2331.220
 20
-6110.591
 30
-2560.000
 70
    32
  0
VERTEX
  8
7850LEVEL
 62
13
 10
2324.090
 20
-6125.802
 30
-2560.000
 70
    32
  0
VERTEX
  8
7850LEVEL
 62
13
 10
2314.615
 20
-6140.967
 30
-2560.000
 70
    32
  0
VERTEX
  8
7850LEVEL
 62
13
 10
2308.564
 20
-6148.414
 30
-2560.000
 70
    32
  0
VERTEX
  8
7850LEVEL
 62
13
 10
2297.537
 20
-6159.322
 30
-2560.000
 70
    32
  0
VERTEX
  8
7850LEVEL
 62
13
 10
2290.365
 20
-6165.615
 30
-2560.000
 70
    32
  0
VERTEX
  8
7850LEVEL
 62
13
 10
2280.938
 20
-6175.086
 30
-2560.000
 70
    32
  0
VERTEX
  8
7850LEVEL
 62
13
 10
2278.248
 20
-6179.972
 30
-2560.000
 70
    32
  0
VERTEX
  8
7850LEVEL
 62
13
 10
2274.164
 20
-6193.209
 30
-2560.000
 70
    32
  0
VERTEX
  8
7850LEVEL
 62
13
 10
2273.700
 20
-6206.745
 30
-2560.000
 70
    32
  0
VERTEX
  8
7850LEVEL
 62
13
 10
2275.756
 20
-6230.550
 30
-2560.000
 70
    32
  0
VERTEX
  8
7850LEVEL
 62
13
 10
2279.067
 20
-6245.980
 30
-2560.000
 70
    32
  0
VERTEX
  8
7850LEVEL
 62
13
 10
2284.241
 20
-6261.978
 30
-2560.000
 70
    32
  0
VERTEX
  8
7850LEVEL
 62
13
 10
2288.825
 20
-6275.594
 30
-2560.000
 70
    32
  0
VERTEX
  8
7850LEVEL
 62
13
 10
2290.233
 20
-6281.110
 30
-2560.000
 70
    32
  0
VERTEX
  8
7850LEVEL
 62
13
 10
2292.114
 20
-6286.778
 30
-2560.000
 70
    32
  0
VERTEX
  8
7850LEVEL
 62
13
 10
2293.282
 20
-6289.117
 30
-2560.000
 70
    32
  0
VERTEX
  8
7850LEVEL
 62
13
 10
2299.600
 20
-6293.228
 30
-2560.000
 70
    32
  0
VERTEX
  8
7850LEVEL
 62
13
 10
2307.243
 20
-6295.427
 30
-2560.000
 70
    32
  0
VERTEX
  8
7850LEVEL
 62
13
 10
2317.219
 20
-6296.280
 30
-2560.000
 70
    32
  0
VERTEX
  8
7850LEVEL
 62
13
 10
2323.406
 20
-6294.701
 30
-2560.000
 70
    32
  0
VERTEX
  8
7850LEVEL
 62
13
 10
2334.304
 20
-6291.006
 30
-2560.000
 70
    32
  0
VERTEX
  8
7850LEVEL
 62
13
 10
2339.868
 20
-6290.355
 30
-2560.000
 70
    32
  0
VERTEX
  8
7850LEVEL
 62
13
 10
2347.601
 20
-6291.821
 30
-2560.000
 70
    32
  0
VERTEX
  8
7850LEVEL
 62
13
 10
2354.812
 20
-6293.840
 30
-2560.000
 70
    32
  0
VERTEX
  8
7850LEVEL
 62
13
 10
2361.288
 20
-6300.152
 30
-2560.000
 70
    32
  0
VERTEX
  8
7850LEVEL
 62
13
 10
2362.774
 20
-6308.961
 30
-2560.000
 70
    32
  0
VERTEX
  8
7850LEVEL
 62
13
 10
2361.335
 20
-6318.196
 30
-2560.000
 70
    32
  0
VERTEX
  8
7850LEVEL
 62
13
 10
2357.799
 20
-6334.271
 30
-2560.000
 70
    32
  0
VERTEX
  8
7850LEVEL
 62
13
 10
2355.329
 20
-6350.992
 30
-2560.000
 70
    32
  0
VERTEX
  8
7850LEVEL
 62
13
 10
2355.321
 20
-6362.075
 30
-2560.000
 70
    32
  0
VERTEX
  8
7850LEVEL
 62
13
 10
2355.417
 20
-6378.381
 30
-2560.000
 70
    32
  0
VERTEX
  8
7850LEVEL
 62
13
 10
2355.002
 20
-6396.630
 30
-2560.000
 70
    32
  0
VERTEX
  8
7850LEVEL
 62
13
 10
2353.594
 20
-6409.434
 30
-2560.000
 70
    32
  0
VERTEX
  8
7850LEVEL
 62
13
 10
2349.661
 20
-6425.121
 30
-2560.000
 70
    32
  0
VERTEX
  8
7850LEVEL
 62
13
 10
2346.331
 20
-6441.659
 30
-2560.000
 70
    32
  0
VERTEX
  8
7850LEVEL
 62
13
 10
2345.986
 20
-6450.546
 30
-2560.000
 70
    32
  0
VERTEX
  8
7850LEVEL
 62
13
 10
2342.016
 20
-6466.868
 30
-2560.000
 70
    32
  0
VERTEX
  8
7850LEVEL
 62
13
 10
2337.937
 20
-6478.823
 30
-2560.000
 70
    32
  0
VERTEX
  8
7850LEVEL
 62
13
 10
2330.755
 20
-6488.714
 30
-2560.000
 70
    32
  0
VERTEX
  8
7850LEVEL
 62
13
 10
2320.851
 20
-6500.349
 30
-2560.000
 70
    32
  0
VERTEX
  8
7850LEVEL
 62
13
 10
2314.658
 20
-6508.627
 30
-2560.000
 70
    32
  0
VERTEX
  8
7850LEVEL
 62
13
 10
2312.945
 20
-6515.926
 30
-2560.000
 70
    32
  0
VERTEX
  8
7850LEVEL
 62
13
 10
2316.096
 20
-6523.130
 30
-2560.000
 70
    32
  0
VERTEX
  8
7850LEVEL
 62
13
 10
2317.661
 20
-6528.352
 30
-2560.000
 70
    32
  0
VERTEX
  8
7850LEVEL
 62
13
 10
2316.010
 20
-6541.329
 30
-2560.000
 70
    32
  0
VERTEX
  8
7850LEVEL
 62
13
 10
2314.399
 20
-6555.738
 30
-2560.000
 70
    32
  0
VERTEX
  8
7850LEVEL
 62
13
 10
2311.287
 20
-6572.670
 30
-2560.000
 70
    32
  0
VERTEX
  8
7850LEVEL
 62
13
 10
2311.196
 20
-6582.777
 30
-2560.000
 70
    32
  0
VERTEX
  8
7850LEVEL
 62
13
 10
2313.923
 20
-6586.629
 30
-2560.000
 70
    32
  0
VERTEX
  8
7850LEVEL
 62
13
 10
2327.842
 20
-6591.935
 30
-2560.000
 70
    32
  0
VERTEX
  8
7850LEVEL
 62
13
 10
2337.721
 20
-6595.230
 30
-2560.000
 70
    32
  0
VERTEX
  8
7850LEVEL
 62
13
 10
2348.059
 20
-6600.635
 30
-2560.000
 70
    32
  0
VERTEX
  8
7850LEVEL
 62
13
 10
2353.379
 20
-6605.573
 30
-2560.000
 70
    32
  0
VERTEX
  8
7850LEVEL
 62
13
 10
2359.315
 20
-6613.789
 30
-2560.000
 70
    32
  0
VERTEX
  8
7850LEVEL
 62
13
 10
2362.625
 20
-6624.229
 30
-2560.000
 70
    32
  0
VERTEX
  8
7850LEVEL
 62
13
 10
2362.792
 20
-6633.667
 30
-2560.000
 70
    32
  0
VERTEX
  8
7850LEVEL
 62
13
 10
2361.593
 20
-6650.036
 30
-2560.000
 70
    32
  0
VERTEX
  8
7850LEVEL
 62
13
 10
2360.344
 20
-6661.085
 30
-2560.000
 70
    32
  0
VERTEX
  8
7850LEVEL
 62
13
 10
2361.221
 20
-6674.280
 30
-2560.000
 70
    32
  0
VERTEX
  8
7850LEVEL
 62
13
 10
2365.799
 20
-6682.727
 30
-2560.000
 70
    32
  0
VERTEX
  8
7850LEVEL
 62
13
 10
2374.870
 20
-6695.115
 30
-2560.000
 70
    32
  0
VERTEX
  8
7850LEVEL
 62
13
 10
2382.893
 20
-6708.001
 30
-2560.000
 70
    32
  0
VERTEX
  8
7850LEVEL
 62
13
 10
2387.601
 20
-6717.147
 30
-2560.000
 70
    32
  0
VERTEX
  8
7850LEVEL
 62
13
 10
2392.784
 20
-6732.470
 30
-2560.000
 70
    32
  0
VERTEX
  8
7850LEVEL
 62
13
 10
2395.317
 20
-6742.242
 30
-2560.000
 70
    32
  0
VERTEX
  8
7850LEVEL
 62
13
 10
2398.457
 20
-6758.462
 30
-2560.000
 70
    32
  0
VERTEX
  8
7850LEVEL
 62
13
 10
2402.211
 20
-6772.969
 30
-2560.000
 70
    32
  0
VERTEX
  8
7850LEVEL
 62
13
 10
2404.754
 20
-6787.056
 30
-2560.000
 70
    32
  0
VERTEX
  8
7850LEVEL
 62
13
 10
2405.912
 20
-6791.531
 30
-2560.000
 70
    32
  0
SEQEND
  8
7850LEVEL
  0
POLYLINE
  8
7850LEVEL
 62
13
 66
     1
 70
     9
  0
VERTEX
  8
7850LEVEL
 62
13
 10
2223.369
 20
-6768.730
 30
-2560.000
 70
    32
  0
VERTEX
  8
7850LEVEL
 62
13
 10
2225.867
 20
-6774.753
 30
-2560.000
 70
    32
  0
VERTEX
  8
7850LEVEL
 62
13
 10
2228.280
 20
-6781.689
 30
-2560.000
 70
    32
  0
VERTEX
  8
7850LEVEL
 62
13
 10
2228.909
 20
-6786.965
 30
-2560.000
 70
    32
  0
VERTEX
  8
7850LEVEL
 62
13
 10
2228.595
 20
-6794.004
 30
-2560.000
 70
    32
  0
VERTEX
  8
7850LEVEL
 62
13
 10
2227.519
 20
-6798.418
 30
-2560.000
 70
    32
  0
VERTEX
  8
7850LEVEL
 62
13
 10
2225.972
 20
-6800.791
 30
-2560.000
 70
    32
  0
VERTEX
  8
7850LEVEL
 62
13
 10
2224.037
 20
-6799.604
 30
-2560.000
 70
    32
  0
VERTEX
  8
7850LEVEL
 62
13
 10
2218.931
 20
-6790.496
 30
-2560.000
 70
    32
  0
VERTEX
  8
7850LEVEL
 62
13
 10
2216.164
 20
-6781.255
 30
-2560.000
 70
    32
  0
VERTEX
  8
7850LEVEL
 62
13
 10
2211.104
 20
-6768.341
 30
-2560.000
 70
    32
  0
VERTEX
  8
7850LEVEL
 62
13
 10
2209.453
 20
-6761.536
 30
-2560.000
 70
    32
  0
VERTEX
  8
7850LEVEL
 62
13
 10
2208.759
 20
-6753.932
 30
-2560.000
 70
    32
  0
VERTEX
  8
7850LEVEL
 62
13
 10
2209.395
 20
-6751.047
 30
-2560.000
 70
    32
  0
VERTEX
  8
7850LEVEL
 62
13
 10
2211.398
 20
-6748.717
 30
-2560.000
 70
    32
  0
VERTEX
  8
7850LEVEL
 62
13
 10
2212.825
 20
-6748.498
 30
-2560.000
 70
    32
  0
VERTEX
  8
7850LEVEL
 62
13
 10
2216.174
 20
-6751.424
 30
-2560.000
 70
    32
  0
VERTEX
  8
7850LEVEL
 62
13
 10
2219.473
 20
-6756.515
 30
-2560.000
 70
    32
  0
VERTEX
  8
7850LEVEL
 62
13
 10
2220.679
 20
-6760.713
 30
-2560.000
 70
    32
  0
VERTEX
  8
7850LEVEL
 62
13
 10
2221.283
 20
-6762.599
 30
-2560.000
 70
    32
  0
SEQEND
  8
7850LEVEL
  0
POLYLINE
  8
7850LEVEL
 62
13
 66
     1
 70
     8
  0
VERTEX
  8
7850LEVEL
 62
13
 10
2065.851
 20
-7055.313
 30
-2560.000
 70
    32
  0
VERTEX
  8
7850LEVEL
 62
13
 10
2056.870
 20
-7046.148
 30
-2560.000
 70
    32
  0
VERTEX
  8
7850LEVEL
 62
13
 10
2042.368
 20
-7009.056
 30
-2560.000
 70
    32
  0
VERTEX
  8
7850LEVEL
 62
13
 10
2034.196
 20
-6987.876
 30
-2560.000
 70
    32
  0
VERTEX
  8
7850LEVEL
 62
13
 10
2027.905
 20
-6973.825
 30
-2560.000
 70
    32
  0
VERTEX
  8
7850LEVEL
 62
13
 10
2021.740
 20
-6951.954
 30
-2560.000
 70
    32
  0
VERTEX
  8
7850LEVEL
 62
13
 10
2018.470
 20
-6938.991
 30
-2560.000
 70
    32
  0
VERTEX
  8
7850LEVEL
 62
13
 10
2010.012
 20
-6917.405
 30
-2560.000
 70
    32
  0
VERTEX
  8
7850LEVEL
 62
13
 10
2003.218
 20
-6904.623
 30
-2560.000
 70
    32
  0
VERTEX
  8
7850LEVEL
 62
13
 10
1992.342
 20
-6888.825
 30
-2560.000
 70
    32
  0
VERTEX
  8
7850LEVEL
 62
13
 10
1981.903
 20
-6868.397
 30
-2560.000
 70
    32
  0
VERTEX
  8
7850LEVEL
 62
13
 10
1976.556
 20
-6857.573
 30
-2560.000
 70
    32
  0
VERTEX
  8
7850LEVEL
 62
13
 10
1968.826
 20
-6842.349
 30
-2560.000
 70
    32
  0
VERTEX
  8
7850LEVEL
 62
13
 10
1963.066
 20
-6833.522
 30
-2560.000
 70
    32
  0
VERTEX
  8
7850LEVEL
 62
13
 10
1949.821
 20
-6820.740
 30
-2560.000
 70
    32
  0
VERTEX
  8
7850LEVEL
 62
13
 10
1938.049
 20
-6810.384
 30
-2560.000
 70
    32
  0
VERTEX
  8
7850LEVEL
 62
13
 10
1933.068
 20
-6805.753
 30
-2560.000
 70
    32
  0
VERTEX
  8
7850LEVEL
 62
13
 10
1925.977
 20
-6796.164
 30
-2560.000
 70
    32
  0
VERTEX
  8
7850LEVEL
 62
13
 10
1924.691
 20
-6790.561
 30
-2560.000
 70
    32
  0
VERTEX
  8
7850LEVEL
 62
13
 10
1924.958
 20
-6778.382
 30
-2560.000
 70
    32
  0
VERTEX
  8
7850LEVEL
 62
13
 10
1925.738
 20
-6763.831
 30
-2560.000
 70
    32
  0
VERTEX
  8
7850LEVEL
 62
13
 10
1924.968
 20
-6755.002
 30
-2560.000
 70
    32
  0
VERTEX
  8
7850LEVEL
 62
13
 10
1924.250
 20
-6747.537
 30
-2560.000
 70
    32
  0
VERTEX
  8
7850LEVEL
 62
13
 10
1920.784
 20
-6738.425
 30
-2560.000
 70
    32
  0
VERTEX
  8
7850LEVEL
 62
13
 10
1912.920
 20
-6720.861
 30
-2560.000
 70
    32
  0
VERTEX
  8
7850LEVEL
 62
13
 10
1907.780
 20
-6707.578
 30
-2560.000
 70
    32
  0
VERTEX
  8
7850LEVEL
 62
13
 10
1901.859
 20
-6693.448
 30
-2560.000
 70
    32
  0
VERTEX
  8
7850LEVEL
 62
13
 10
1900.476
 20
-6684.871
 30
-2560.000
 70
    32
  0
VERTEX
  8
7850LEVEL
 62
13
 10
1899.457
 20
-6669.584
 30
-2560.000
 70
    32
  0
VERTEX
  8
7850LEVEL
 62
13
 10
1897.477
 20
-6653.455
 30
-2560.000
 70
    32
  0
VERTEX
  8
7850LEVEL
 62
13
 10
1894.269
 20
-6639.718
 30
-2560.000
 70
    32
  0
VERTEX
  8
7850LEVEL
 62
13
 10
1893.314
 20
-6629.682
 30
-2560.000
 70
    32
  0
VERTEX
  8
7850LEVEL
 62
13
 10
1892.702
 20
-6613.681
 30
-2560.000
 70
    32
  0
VERTEX
  8
7850LEVEL
 62
13
 10
1892.943
 20
-6604.989
 30
-2560.000
 70
    32
  0
VERTEX
  8
7850LEVEL
 62
13
 10
1893.823
 20
-6596.515
 30
-2560.000
 70
    32
  0
VERTEX
  8
7850LEVEL
 62
13
 10
1895.668
 20
-6588.027
 30
-2560.000
 70
    32
  0
VERTEX
  8
7850LEVEL
 62
13
 10
1898.794
 20
-6582.467
 30
-2560.000
 70
    32
  0
VERTEX
  8
7850LEVEL
 62
13
 10
1902.679
 20
-6578.926
 30
-2560.000
 70
    32
  0
VERTEX
  8
7850LEVEL
 62
13
 10
1904.401
 20
-6578.865
 30
-2560.000
 70
    32
  0
VERTEX
  8
7850LEVEL
 62
13
 10
1908.474
 20
-6582.556
 30
-2560.000
 70
    32
  0
VERTEX
  8
7850LEVEL
 62
13
 10
1912.015
 20
-6588.936
 30
-2560.000
 70
    32
  0
VERTEX
  8
7850LEVEL
 62
13
 10
1916.274
 20
-6600.287
 30
-2560.000
 70
    32
  0
VERTEX
  8
7850LEVEL
 62
13
 10
1920.662
 20
-6612.336
 30
-2560.000
 70
    32
  0
VERTEX
  8
7850LEVEL
 62
13
 10
1923.331
 20
-6620.064
 30
-2560.000
 70
    32
  0
VERTEX
  8
7850LEVEL
 62
13
 10
1924.867
 20
-6626.707
 30
-2560.000
 70
    32
  0
VERTEX
  8
7850LEVEL
 62
13
 10
1928.098
 20
-6636.777
 30
-2560.000
 70
    32
  0
VERTEX
  8
7850LEVEL
 62
13
 10
1932.019
 20
-6644.897
 30
-2560.000
 70
    32
  0
VERTEX
  8
7850LEVEL
 62
13
 10
1933.666
 20
-6644.645
 30
-2560.000
 70
    32
  0
VERTEX
  8
7850LEVEL
 62
13
 10
1937.424
 20
-6642.472
 30
-2560.000
 70
    32
  0
VERTEX
  8
7850LEVEL
 62
13
 10
1940.921
 20
-6636.406
 30
-2560.000
 70
    32
  0
VERTEX
  8
7850LEVEL
 62
13
 10
1944.532
 20
-6632.390
 30
-2560.000
 70
    32
  0
VERTEX
  8
7850LEVEL
 62
13
 10
1949.576
 20
-6631.864
 30
-2560.000
 70
    32
  0
VERTEX
  8
7850LEVEL
 62
13
 10
1955.589
 20
-6630.469
 30
-2560.000
 70
    32
  0
VERTEX
  8
7850LEVEL
 62
13
 10
1961.165
 20
-6627.254
 30
-2560.000
 70
    32
  0
VERTEX
  8
7850LEVEL
 62
13
 10
1972.645
 20
-6619.738
 30
-2560.000
 70
    32
  0
VERTEX
  8
7850LEVEL
 62
13
 10
1980.992
 20
-6615.535
 30
-2560.000
 70
    32
  0
VERTEX
  8
7850LEVEL
 62
13
 10
1988.444
 20
-6615.314
 30
-2560.000
 70
    32
  0
VERTEX
  8
7850LEVEL
 62
13
 10
1990.065
 20
-6617.089
 30
-2560.000
 70
    32
  0
VERTEX
  8
7850LEVEL
 62
13
 10
1991.281
 20
-6620.184
 30
-2560.000
 70
    32
  0
VERTEX
  8
7850LEVEL
 62
13
 10
1993.654
 20
-6625.687
 30
-2560.000
 70
    32
  0
VERTEX
  8
7850LEVEL
 62
13
 10
1994.835
 20
-6635.441
 30
-2560.000
 70
    32
  0
VERTEX
  8
7850LEVEL
 62
13
 10
1994.091
 20
-6645.828
 30
-2560.000
 70
    32
  0
VERTEX
  8
7850LEVEL
 62
13
 10
1991.307
 20
-6653.763
 30
-2560.000
 70
    32
  0
VERTEX
  8
7850LEVEL
 62
13
 10
1985.581
 20
-6667.432
 30
-2560.000
 70
    32
  0
VERTEX
  8
7850LEVEL
 62
13
 10
1979.364
 20
-6687.718
 30
-2560.000
 70
    32
  0
VERTEX
  8
7850LEVEL
 62
13
 10
1977.499
 20
-6695.490
 30
-2560.000
 70
    32
  0
VERTEX
  8
7850LEVEL
 62
13
 10
1978.167
 20
-6702.625
 30
-2560.000
 70
    32
  0
VERTEX
  8
7850LEVEL
 62
13
 10
1979.319
 20
-6713.800
 30
-2560.000
 70
    32
  0
VERTEX
  8
7850LEVEL
 62
13
 10
1979.163
 20
-6723.041
 30
-2560.000
 70
    32
  0
VERTEX
  8
7850LEVEL
 62
13
 10
1976.382
 20
-6743.451
 30
-2560.000
 70
    32
  0
VERTEX
  8
7850LEVEL
 62
13
 10
1976.629
 20
-6754.293
 30
-2560.000
 70
    32
  0
VERTEX
  8
7850LEVEL
 62
13
 10
1975.895
 20
-6766.072
 30
-2560.000
 70
    32
  0
VERTEX
  8
7850LEVEL
 62
13
 10
1975.849
 20
-6775.296
 30
-2560.000
 70
    32
  0
VERTEX
  8
7850LEVEL
 62
13
 10
1976.825
 20
-6783.126
 30
-2560.000
 70
    32
  0
VERTEX
  8
7850LEVEL
 62
13
 10
1977.330
 20
-6787.882
 30
-2560.000
 70
    32
  0
VERTEX
  8
7850LEVEL
 62
13
 10
1979.398
 20
-6790.374
 30
-2560.000
 70
    32
  0
VERTEX
  8
7850LEVEL
 62
13
 10
1980.734
 20
-6791.316
 30
-2560.000
 70
    32
  0
VERTEX
  8
7850LEVEL
 62
13
 10
1984.267
 20
-6790.459
 30
-2560.000
 70
    32
  0
VERTEX
  8
7850LEVEL
 62
13
 10
1987.159
 20
-6786.891
 30
-2560.000
 70
    32
  0
VERTEX
  8
7850LEVEL
 62
13
 10
1993.262
 20
-6775.390
 30
-2560.000
 70
    32
  0
VERTEX
  8
7850LEVEL
 62
13
 10
2000.522
 20
-6762.340
 30
-2560.000
 70
    32
  0
VERTEX
  8
7850LEVEL
 62
13
 10
2006.251
 20
-6751.772
 30
-2560.000
 70
    32
  0
VERTEX
  8
7850LEVEL
 62
13
 10
2012.398
 20
-6736.892
 30
-2560.000
 70
    32
  0
VERTEX
  8
7850LEVEL
 62
13
 10
2015.231
 20
-6725.758
 30
-2560.000
 70
    32
  0
VERTEX
  8
7850LEVEL
 62
13
 10
2018.765
 20
-6707.615
 30
-2560.000
 70
    32
  0
VERTEX
  8
7850LEVEL
 62
13
 10
2020.134
 20
-6696.907
 30
-2560.000
 70
    32
  0
VERTEX
  8
7850LEVEL
 62
13
 10
2021.390
 20
-6688.532
 30
-2560.000
 70
    32
  0
VERTEX
  8
7850LEVEL
 62
13
 10
2021.576
 20
-6684.322
 30
-2560.000
 70
    32
  0
VERTEX
  8
7850LEVEL
 62
13
 10
2020.790
 20
-6676.418
 30
-2560.000
 70
    32
  0
VERTEX
  8
7850LEVEL
 62
13
 10
2017.850
 20
-6663.404
 30
-2560.000
 70
    32
  0
VERTEX
  8
7850LEVEL
 62
13
 10
2013.055
 20
-6646.651
 30
-2560.000
 70
    32
  0
VERTEX
  8
7850LEVEL
 62
13
 10
2009.229
 20
-6634.020
 30
-2560.000
 70
    32
  0
VERTEX
  8
7850LEVEL
 62
13
 10
2005.355
 20
-6615.215
 30
-2560.000
 70
    32
  0
VERTEX
  8
7850LEVEL
 62
13
 10
2003.597
 20
-6602.582
 30
-2560.000
 70
    32
  0
VERTEX
  8
7850LEVEL
 62
13
 10
2001.278
 20
-6579.694
 30
-2560.000
 70
    32
  0
VERTEX
  8
7850LEVEL
 62
13
 10
2000.052
 20
-6562.911
 30
-2560.000
 70
    32
  0
VERTEX
  8
7850LEVEL
 62
13
 10
2000.169
 20
-6541.403
 30
-2560.000
 70
    32
  0
VERTEX
  8
7850LEVEL
 62
13
 10
2002.968
 20
-6523.597
 30
-2560.000
 70
    32
  0
VERTEX
  8
7850LEVEL
 62
13
 10
2007.112
 20
-6511.048
 30
-2560.000
 70
    32
  0
VERTEX
  8
7850LEVEL
 62
13
 10
2011.550
 20
-6494.699
 30
-2560.000
 70
    32
  0
VERTEX
  8
7850LEVEL
 62
13
 10
2012.820
 20
-6480.410
 30
-2560.000
 70
    32
  0
VERTEX
  8
7850LEVEL
 62
13
 10
2015.028
 20
-6461.683
 30
-2560.000
 70
    32
  0
VERTEX
  8
7850LEVEL
 62
13
 10
2016.087
 20
-6450.709
 30
-2560.000
 70
    32
  0
VERTEX
  8
7850LEVEL
 62
13
 10
2016.772
 20
-6436.712
 30
-2560.000
 70
    32
  0
VERTEX
  8
7850LEVEL
 62
13
 10
2013.127
 20
-6425.110
 30
-2560.000
 70
    32
  0
VERTEX
  8
7850LEVEL
 62
13
 10
2006.776
 20
-6415.361
 30
-2560.000
 70
    32
  0
VERTEX
  8
7850LEVEL
 62
13
 10
1996.459
 20
-6399.837
 30
-2560.000
 70
    32
  0
VERTEX
  8
7850LEVEL
 62
13
 10
1992.291
 20
-6386.292
 30
-2560.000
 70
    32
  0
VERTEX
  8
7850LEVEL
 62
13
 10
1990.750
 20
-6375.514
 30
-2560.000
 70
    32
  0
VERTEX
  8
7850LEVEL
 62
13
 10
1989.978
 20
-6356.705
 30
-2560.000
 70
    32
  0
VERTEX
  8
7850LEVEL
 62
13
 10
1988.805
 20
-6342.319
 30
-2560.000
 70
    32
  0
VERTEX
  8
7850LEVEL
 62
13
 10
1986.913
 20
-6335.258
 30
-2560.000
 70
    32
  0
VERTEX
  8
7850LEVEL
 62
13
 10
1981.123
 20
-6321.400
 30
-2560.000
 70
    32
  0
VERTEX
  8
7850LEVEL
 62
13
 10
1974.496
 20
-6310.143
 30
-2560.000
 70
    32
  0
VERTEX
  8
7850LEVEL
 62
13
 10
1969.201
 20
-6300.683
 30
-2560.000
 70
    32
  0
VERTEX
  8
7850LEVEL
 62
13
 10
1956.173
 20
-6281.843
 30
-2560.000
 70
    32
  0
VERTEX
  8
7850LEVEL
 62
13
 10
1940.740
 20
-6260.810
 30
-2560.000
 70
    32
  0
VERTEX
  8
7850LEVEL
 62
13
 10
1931.567
 20
-6246.729
 30
-2560.000
 70
    32
  0
VERTEX
  8
7850LEVEL
 62
13
 10
1918.453
 20
-6227.768
 30
-2560.000
 70
    32
  0
VERTEX
  8
7850LEVEL
 62
13
 10
1911.686
 20
-6213.992
 30
-2560.000
 70
    32
  0
VERTEX
  8
7850LEVEL
 62
13
 10
1902.664
 20
-6194.448
 30
-2560.000
 70
    32
  0
VERTEX
  8
7850LEVEL
 62
13
 10
1896.334
 20
-6183.955
 30
-2560.000
 70
    32
  0
VERTEX
  8
7850LEVEL
 62
13
 10
1882.787
 20
-6168.769
 30
-2560.000
 70
    32
  0
VERTEX
  8
7850LEVEL
 62
13
 10
1868.770
 20
-6155.499
 30
-2560.000
 70
    32
  0
VERTEX
  8
7850LEVEL
 62
13
 10
1858.647
 20
-6145.924
 30
-2560.000
 70
    32
  0
VERTEX
  8
7850LEVEL
 62
13
 10
1848.295
 20
-6134.564
 30
-2560.000
 70
    32
  0
VERTEX
  8
7850LEVEL
 62
13
 10
1843.368
 20
-6126.913
 30
-2560.000
 70
    32
  0
VERTEX
  8
7850LEVEL
 62
13
 10
1839.233
 20
-6111.093
 30
-2560.000
 70
    32
  0
VERTEX
  8
7850LEVEL
 62
13
 10
1838.506
 20
-6100.347
 30
-2560.000
 70
    32
  0
VERTEX
  8
7850LEVEL
 62
13
 10
1837.046
 20
-6085.555
 30
-2560.000
 70
    32
  0
VERTEX
  8
7850LEVEL
 62
13
 10
1834.249
 20
-6066.292
 30
-2560.000
 70
    32
  0
VERTEX
  8
7850LEVEL
 62
13
 10
1831.845
 20
-6053.264
 30
-2560.000
 70
    32
  0
VERTEX
  8
7850LEVEL
 62
13
 10
1826.205
 20
-6034.370
 30
-2560.000
 70
    32
  0
VERTEX
  8
7850LEVEL
 62
13
 10
1822.082
 20
-6020.975
 30
-2560.000
 70
    32
  0
VERTEX
  8
7850LEVEL
 62
13
 10
1815.571
 20
-6003.002
 30
-2560.000
 70
    32
  0
VERTEX
  8
7850LEVEL
 62
13
 10
1808.172
 20
-5983.344
 30
-2560.000
 70
    32
  0
VERTEX
  8
7850LEVEL
 62
13
 10
1800.946
 20
-5966.424
 30
-2560.000
 70
    32
  0
VERTEX
  8
7850LEVEL
 62
13
 10
1795.014
 20
-5951.936
 30
-2560.000
 70
    32
  0
VERTEX
  8
7850LEVEL
 62
13
 10
1793.117
 20
-5944.697
 30
-2560.000
 70
    32
  0
VERTEX
  8
7850LEVEL
 62
13
 10
1794.171
 20
-5937.499
 30
-2560.000
 70
    32
  0
VERTEX
  8
7850LEVEL
 62
13
 10
1796.893
 20
-5933.260
 30
-2560.000
 70
    32
  0
VERTEX
  8
7850LEVEL
 62
13
 10
1798.746
 20
-5932.009
 30
-2560.000
 70
    32
  0
VERTEX
  8
7850LEVEL
 62
13
 10
1801.348
 20
-5931.385
 30
-2560.000
 70
    32
  0
VERTEX
  8
7850LEVEL
 62
13
 10
1804.134
 20
-5930.935
 30
-2560.000
 70
    32
  0
VERTEX
  8
7850LEVEL
 62
13
 10
1806.443
 20
-5931.188
 30
-2560.000
 70
    32
  0
VERTEX
  8
7850LEVEL
 62
13
 10
1809.785
 20
-5932.901
 30
-2560.000
 70
    32
  0
VERTEX
  8
7850LEVEL
 62
13
 10
1814.069
 20
-5937.234
 30
-2560.000
 70
    32
  0
VERTEX
  8
7850LEVEL
 62
13
 10
1824.526
 20
-5952.354
 30
-2560.000
 70
    32
  0
VERTEX
  8
7850LEVEL
 62
13
 10
1829.571
 20
-5962.235
 30
-2560.000
 70
    32
  0
VERTEX
  8
7850LEVEL
 62
13
 10
1836.829
 20
-5983.758
 30
-2560.000
 70
    32
  0
VERTEX
  8
7850LEVEL
 62
13
 10
1839.776
 20
-5996.524
 30
-2560.000
 70
    32
  0
VERTEX
  8
7850LEVEL
 62
13
 10
1843.881
 20
-6012.731
 30
-2560.000
 70
    32
  0
VERTEX
  8
7850LEVEL
 62
13
 10
1850.215
 20
-6034.239
 30
-2560.000
 70
    32
  0
VERTEX
  8
7850LEVEL
 62
13
 10
1852.876
 20
-6043.676
 30
-2560.000
 70
    32
  0
VERTEX
  8
7850LEVEL
 62
13
 10
1857.716
 20
-6058.084
 30
-2560.000
 70
    32
  0
VERTEX
  8
7850LEVEL
 62
13
 10
1861.671
 20
-6066.424
 30
-2560.000
 70
    32
  0
VERTEX
  8
7850LEVEL
 62
13
 10
1871.169
 20
-6082.771
 30
-2560.000
 70
    32
  0
VERTEX
  8
7850LEVEL
 62
13
 10
1877.023
 20
-6090.010
 30
-2560.000
 70
    32
  0
VERTEX
  8
7850LEVEL
 62
13
 10
1882.660
 20
-6096.429
 30
-2560.000
 70
    32
  0
VERTEX
  8
7850LEVEL
 62
13
 10
1889.482
 20
-6104.262
 30
-2560.000
 70
    32
  0
VERTEX
  8
7850LEVEL
 62
13
 10
1895.159
 20
-6109.617
 30
-2560.000
 70
    32
  0
VERTEX
  8
7850LEVEL
 62
13
 10
1904.166
 20
-6116.755
 30
-2560.000
 70
    32
  0
VERTEX
  8
7850LEVEL
 62
13
 10
1910.158
 20
-6121.523
 30
-2560.000
 70
    32
  0
VERTEX
  8
7850LEVEL
 62
13
 10
1918.088
 20
-6128.085
 30
-2560.000
 70
    32
  0
VERTEX
  8
7850LEVEL
 62
13
 10
1924.072
 20
-6134.562
 30
-2560.000
 70
    32
  0
VERTEX
  8
7850LEVEL
 62
13
 10
1928.146
 20
-6141.782
 30
-2560.000
 70
    32
  0
VERTEX
  8
7850LEVEL
 62
13
 10
1932.533
 20
-6150.303
 30
-2560.000
 70
    32
  0
VERTEX
  8
7850LEVEL
 62
13
 10
1937.121
 20
-6159.108
 30
-2560.000
 70
    32
  0
VERTEX
  8
7850LEVEL
 62
13
 10
1943.961
 20
-6173.075
 30
-2560.000
 70
    32
  0
VERTEX
  8
7850LEVEL
 62
13
 10
1946.771
 20
-6180.399
 30
-2560.000
 70
    32
  0
VERTEX
  8
7850LEVEL
 62
13
 10
1949.832
 20
-6190.832
 30
-2560.000
 70
    32
  0
VERTEX
  8
7850LEVEL
 62
13
 10
1953.744
 20
-6203.584
 30
-2560.000
 70
    32
  0
VERTEX
  8
7850LEVEL
 62
13
 10
1957.515
 20
-6218.202
 30
-2560.000
 70
    32
  0
VERTEX
  8
7850LEVEL
 62
13
 10
1960.558
 20
-6228.952
 30
-2560.000
 70
    32
  0
VERTEX
  8
7850LEVEL
 62
13
 10
1963.902
 20
-6244.601
 30
-2560.000
 70
    32
  0
VERTEX
  8
7850LEVEL
 62
13
 10
1967.306
 20
-6255.948
 30
-2560.000
 70
    32
  0
VERTEX
  8
7850LEVEL
 62
13
 10
1969.529
 20
-6263.992
 30
-2560.000
 70
    32
  0
VERTEX
  8
7850LEVEL
 62
13
 10
1972.181
 20
-6273.071
 30
-2560.000
 70
    32
  0
VERTEX
  8
7850LEVEL
 62
13
 10
1976.279
 20
-6281.614
 30
-2560.000
 70
    32
  0
VERTEX
  8
7850LEVEL
 62
13
 10
1983.378
 20
-6294.484
 30
-2560.000
 70
    32
  0
VERTEX
  8
7850LEVEL
 62
13
 10
1986.554
 20
-6302.584
 30
-2560.000
 70
    32
  0
VERTEX
  8
7850LEVEL
 62
13
 10
1991.964
 20
-6318.658
 30
-2560.000
 70
    32
  0
VERTEX
  8
7850LEVEL
 62
13
 10
1995.160
 20
-6327.474
 30
-2560.000
 70
    32
  0
VERTEX
  8
7850LEVEL
 62
13
 10
1998.653
 20
-6335.593
 30
-2560.000
 70
    32
  0
VERTEX
  8
7850LEVEL
 62
13
 10
2002.389
 20
-6341.044
 30
-2560.000
 70
    32
  0
VERTEX
  8
7850LEVEL
 62
13
 10
2005.800
 20
-6344.230
 30
-2560.000
 70
    32
  0
VERTEX
  8
7850LEVEL
 62
13
 10
2014.187
 20
-6351.868
 30
-2560.000
 70
    32
  0
VERTEX
  8
7850LEVEL
 62
13
 10
2019.592
 20
-6357.355
 30
-2560.000
 70
    32
  0
VERTEX
  8
7850LEVEL
 62
13
 10
2022.280
 20
-6360.809
 30
-2560.000
 70
    32
  0
VERTEX
  8
7850LEVEL
 62
13
 10
2023.728
 20
-6367.758
 30
-2560.000
 70
    32
  0
VERTEX
  8
7850LEVEL
 62
13
 10
2024.510
 20
-6376.517
 30
-2560.000
 70
    32
  0
VERTEX
  8
7850LEVEL
 62
13
 10
2024.177
 20
-6385.335
 30
-2560.000
 70
    32
  0
VERTEX
  8
7850LEVEL
 62
13
 10
2022.501
 20
-6399.911
 30
-2560.000
 70
    32
  0
VERTEX
  8
7850LEVEL
 62
13
 10
2021.976
 20
-6411.726
 30
-2560.000
 70
    32
  0
VERTEX
  8
7850LEVEL
 62
13
 10
2021.586
 20
-6421.497
 30
-2560.000
 70
    32
  0
VERTEX
  8
7850LEVEL
 62
13
 10
2021.679
 20
-6434.700
 30
-2560.000
 70
    32
  0
VERTEX
  8
7850LEVEL
 62
13
 10
2021.860
 20
-6440.719
 30
-2560.000
 70
    32
  0
VERTEX
  8
7850LEVEL
 62
13
 10
2021.883
 20
-6449.954
 30
-2560.000
 70
    32
  0
VERTEX
  8
7850LEVEL
 62
13
 10
2022.151
 20
-6456.095
 30
-2560.000
 70
    32
  0
VERTEX
  8
7850LEVEL
 62
13
 10
2022.920
 20
-6460.967
 30
-2560.000
 70
    32
  0
VERTEX
  8
7850LEVEL
 62
13
 10
2023.405
 20
-6461.050
 30
-2560.000
 70
    32
  0
VERTEX
  8
7850LEVEL
 62
13
 10
2025.511
 20
-6458.951
 30
-2560.000
 70
    32
  0
VERTEX
  8
7850LEVEL
 62
13
 10
2026.866
 20
-6454.158
 30
-2560.000
 70
    32
  0
VERTEX
  8
7850LEVEL
 62
13
 10
2028.871
 20
-6447.444
 30
-2560.000
 70
    32
  0
VERTEX
  8
7850LEVEL
 62
13
 10
2030.922
 20
-6439.419
 30
-2560.000
 70
    32
  0
VERTEX
  8
7850LEVEL
 62
13
 10
2032.672
 20
-6432.946
 30
-2560.000
 70
    32
  0
VERTEX
  8
7850LEVEL
 62
13
 10
2036.189
 20
-6421.145
 30
-2560.000
 70
    32
  0
VERTEX
  8
7850LEVEL
 62
13
 10
2038.471
 20
-6414.478
 30
-2560.000
 70
    32
  0
VERTEX
  8
7850LEVEL
 62
13
 10
2042.398
 20
-6406.525
 30
-2560.000
 70
    32
  0
VERTEX
  8
7850LEVEL
 62
13
 10
2048.244
 20
-6397.154
 30
-2560.000
 70
    32
  0
VERTEX
  8
7850LEVEL
 62
13
 10
2054.432
 20
-6388.697
 30
-2560.000
 70
    32
  0
VERTEX
  8
7850LEVEL
 62
13
 10
2062.375
 20
-6380.397
 30
-2560.000
 70
    32
  0
VERTEX
  8
7850LEVEL
 62
13
 10
2068.302
 20
-6374.925
 30
-2560.000
 70
    32
  0
VERTEX
  8
7850LEVEL
 62
13
 10
2074.802
 20
-6369.230
 30
-2560.000
 70
    32
  0
VERTEX
  8
7850LEVEL
 62
13
 10
2084.568
 20
-6360.066
 30
-2560.000
 70
    32
  0
VERTEX
  8
7850LEVEL
 62
13
 10
2093.661
 20
-6350.467
 30
-2560.000
 70
    32
  0
VERTEX
  8
7850LEVEL
 62
13
 10
2107.257
 20
-6335.793
 30
-2560.000
 70
    32
  0
VERTEX
  8
7850LEVEL
 62
13
 10
2115.750
 20
-6327.409
 30
-2560.000
 70
    32
  0
VERTEX
  8
7850LEVEL
 62
13
 10
2128.837
 20
-6311.757
 30
-2560.000
 70
    32
  0
VERTEX
  8
7850LEVEL
 62
13
 10
2140.425
 20
-6296.739
 30
-2560.000
 70
    32
  0
VERTEX
  8
7850LEVEL
 62
13
 10
2146.832
 20
-6287.214
 30
-2560.000
 70
    32
  0
VERTEX
  8
7850LEVEL
 62
13
 10
2153.256
 20
-6270.921
 30
-2560.000
 70
    32
  0
VERTEX
  8
7850LEVEL
 62
13
 10
2156.454
 20
-6259.528
 30
-2560.000
 70
    32
  0
VERTEX
  8
7850LEVEL
 62
13
 10
2160.473
 20
-6243.963
 30
-2560.000
 70
    32
  0
VERTEX
  8
7850LEVEL
 62
13
 10
2160.833
 20
-6235.613
 30
-2560.000
 70
    32
  0
VERTEX
  8
7850LEVEL
 62
13
 10
2159.842
 20
-6227.245
 30
-2560.000
 70
    32
  0
VERTEX
  8
7850LEVEL
 62
13
 10
2157.707
 20
-6210.983
 30
-2560.000
 70
    32
  0
VERTEX
  8
7850LEVEL
 62
13
 10
2158.999
 20
-6200.939
 30
-2560.000
 70
    32
  0
VERTEX
  8
7850LEVEL
 62
13
 10
2163.752
 20
-6185.037
 30
-2560.000
 70
    32
  0
VERTEX
  8
7850LEVEL
 62
13
 10
2167.745
 20
-6175.455
 30
-2560.000
 70
    32
  0
VERTEX
  8
7850LEVEL
 62
13
 10
2172.634
 20
-6162.926
 30
-2560.000
 70
    32
  0
VERTEX
  8
7850LEVEL
 62
13
 10
2177.318
 20
-6153.891
 30
-2560.000
 70
    32
  0
VERTEX
  8
7850LEVEL
 62
13
 10
2179.194
 20
-6146.050
 30
-2560.000
 70
    32
  0
VERTEX
  8
7850LEVEL
 62
13
 10
2180.295
 20
-6133.585
 30
-2560.000
 70
    32
  0
VERTEX
  8
7850LEVEL
 62
13
 10
2181.908
 20
-6121.244
 30
-2560.000
 70
    32
  0
VERTEX
  8
7850LEVEL
 62
13
 10
2184.294
 20
-6109.391
 30
-2560.000
 70
    32
  0
VERTEX
  8
7850LEVEL
 62
13
 10
2189.369
 20
-6088.696
 30
-2560.000
 70
    32
  0
VERTEX
  8
7850LEVEL
 62
13
 10
2195.230
 20
-6074.445
 30
-2560.000
 70
    32
  0
VERTEX
  8
7850LEVEL
 62
13
 10
2201.163
 20
-6062.273
 30
-2560.000
 70
    32
  0
VERTEX
  8
7850LEVEL
 62
13
 10
2204.093
 20
-6050.157
 30
-2560.000
 70
    32
  0
VERTEX
  8
7850LEVEL
 62
13
 10
2203.767
 20
-6025.615
 30
-2560.000
 70
    32
  0
VERTEX
  8
7850LEVEL
 62
13
 10
2201.319
 20
-6007.018
 30
-2560.000
 70
    32
  0
VERTEX
  8
7850LEVEL
 62
13
 10
2197.895
 20
-5983.086
 30
-2560.000
 70
    32
  0
VERTEX
  8
7850LEVEL
 62
13
 10
2196.725
 20
-5966.811
 30
-2560.000
 70
    32
  0
VERTEX
  8
7850LEVEL
 62
13
 10
2193.855
 20
-5946.930
 30
-2560.000
 70
    32
  0
VERTEX
  8
7850LEVEL
 62
13
 10
2193.020
 20
-5933.279
 30
-2560.000
 70
    32
  0
VERTEX
  8
7850LEVEL
 62
13
 10
2190.935
 20
-5914.851
 30
-2560.000
 70
    32
  0
VERTEX
  8
7850LEVEL
 62
13
 10
2188.275
 20
-5902.491
 30
-2560.000
 70
    32
  0
VERTEX
  8
7850LEVEL
 62
13
 10
2187.720
 20
-5897.406
 30
-2560.000
 70
    32
  0
VERTEX
  8
7850LEVEL
 62
13
 10
2186.499
 20
-5891.209
 30
-2560.000
 70
    32
  0
SEQEND
  8
7850LEVEL
  0
POLYLINE
  8
7850LEVEL
 62
13
 66
     1
 70
     8
  0
VERTEX
  8
7850LEVEL
 62
13
 10
2203.825
 20
-5891.609
 30
-2560.000
 70
    32
  0
VERTEX
  8
7850LEVEL
 62
13
 10
2206.013
 20
-5900.894
 30
-2560.000
 70
    32
  0
VERTEX
  8
7850LEVEL
 62
13
 10
2208.840
 20
-5918.736
 30
-2560.000
 70
    32
  0
VERTEX
  8
7850LEVEL
 62
13
 10
2212.612
 20
-5934.387
 30
-2560.000
 70
    32
  0
VERTEX
  8
7850LEVEL
 62
13
 10
2214.937
 20
-5945.585
 30
-2560.000
 70
    32
  0
VERTEX
  8
7850LEVEL
 62
13
 10
2221.904
 20
-5963.600
 30
-2560.000
 70
    32
  0
VERTEX
  8
7850LEVEL
 62
13
 10
2228.510
 20
-5975.602
 30
-2560.000
 70
    32
  0
VERTEX
  8
7850LEVEL
 62
13
 10
2237.188
 20
-5992.165
 30
-2560.000
 70
    32
  0
VERTEX
  8
7850LEVEL
 62
13
 10
2242.022
 20
-6001.404
 30
-2560.000
 70
    32
  0
VERTEX
  8
7850LEVEL
 62
13
 10
2244.959
 20
-6017.767
 30
-2560.000
 70
    32
  0
VERTEX
  8
7850LEVEL
 62
13
 10
2243.907
 20
-6024.538
 30
-2560.000
 70
    32
  0
VERTEX
  8
7850LEVEL
 62
13
 10
2238.695
 20
-6038.330
 30
-2560.000
 70
    32
  0
VERTEX
  8
7850LEVEL
 62
13
 10
2227.910
 20
-6054.483
 30
-2560.000
 70
    32
  0
VERTEX
  8
7850LEVEL
 62
13
 10
2222.707
 20
-6064.678
 30
-2560.000
 70
    32
  0
VERTEX
  8
7850LEVEL
 62
13
 10
2214.310
 20
-6076.463
 30
-2560.000
 70
    32
  0
VERTEX
  8
7850LEVEL
 62
13
 10
2208.404
 20
-6085.147
 30
-2560.000
 70
    32
  0
VERTEX
  8
7850LEVEL
 62
13
 10
2199.100
 20
-6098.061
 30
-2560.000
 70
    32
  0
VERTEX
  8
7850LEVEL
 62
13
 10
2190.024
 20
-6111.727
 30
-2560.000
 70
    32
  0
VERTEX
  8
7850LEVEL
 62
13
 10
2186.291
 20
-6120.212
 30
-2560.000
 70
    32
  0
VERTEX
  8
7850LEVEL
 62
13
 10
2183.295
 20
-6128.966
 30
-2560.000
 70
    32
  0
VERTEX
  8
7850LEVEL
 62
13
 10
2184.414
 20
-6139.922
 30
-2560.000
 70
    32
  0
VERTEX
  8
7850LEVEL
 62
13
 10
2185.179
 20
-6147.110
 30
-2560.000
 70
    32
  0
VERTEX
  8
7850LEVEL
 62
13
 10
2186.381
 20
-6157.581
 30
-2560.000
 70
    32
  0
VERTEX
  8
7850LEVEL
 62
13
 10
2185.402
 20
-6167.464
 30
-2560.000
 70
    32
  0
VERTEX
  8
7850LEVEL
 62
13
 10
2184.766
 20
-6179.296
 30
-2560.000
 70
    32
  0
VERTEX
  8
7850LEVEL
 62
13
 10
2184.433
 20
-6196.026
 30
-2560.000
 70
    32
  0
VERTEX
  8
7850LEVEL
 62
13
 10
2182.478
 20
-6208.487
 30
-2560.000
 70
    32
  0
VERTEX
  8
7850LEVEL
 62
13
 10
2180.508
 20
-6224.368
 30
-2560.000
 70
    32
  0
VERTEX
  8
7850LEVEL
 62
13
 10
2179.650
 20
-6243.539
 30
-2560.000
 70
    32
  0
VERTEX
  8
7850LEVEL
 62
13
 10
2178.182
 20
-6254.194
 30
-2560.000
 70
    32
  0
VERTEX
  8
7850LEVEL
 62
13
 10
2174.588
 20
-6269.155
 30
-2560.000
 70
    32
  0
VERTEX
  8
7850LEVEL
 62
13
 10
2168.406
 20
-6286.737
 30
-2560.000
 70
    32
  0
VERTEX
  8
7850LEVEL
 62
13
 10
2162.134
 20
-6299.636
 30
-2560.000
 70
    32
  0
VERTEX
  8
7850LEVEL
 62
13
 10
2154.808
 20
-6310.785
 30
-2560.000
 70
    32
  0
VERTEX
  8
7850LEVEL
 62
13
 10
2145.683
 20
-6322.660
 30
-2560.000
 70
    32
  0
VERTEX
  8
7850LEVEL
 62
13
 10
2137.908
 20
-6334.553
 30
-2560.000
 70
    32
  0
VERTEX
  8
7850LEVEL
 62
13
 10
2132.934
 20
-6344.038
 30
-2560.000
 70
    32
  0
VERTEX
  8
7850LEVEL
 62
13
 10
2131.035
 20
-6357.007
 30
-2560.000
 70
    32
  0
VERTEX
  8
7850LEVEL
 62
13
 10
2131.068
 20
-6370.557
 30
-2560.000
 70
    32
  0
VERTEX
  8
7850LEVEL
 62
13
 10
2130.717
 20
-6388.639
 30
-2560.000
 70
    32
  0
VERTEX
  8
7850LEVEL
 62
13
 10
2130.638
 20
-6400.138
 30
-2560.000
 70
    32
  0
VERTEX
  8
7850LEVEL
 62
13
 10
2131.054
 20
-6410.617
 30
-2560.000
 70
    32
  0
VERTEX
  8
7850LEVEL
 62
13
 10
2137.424
 20
-6425.037
 30
-2560.000
 70
    32
  0
VERTEX
  8
7850LEVEL
 62
13
 10
2144.172
 20
-6435.174
 30
-2560.000
 70
    32
  0
VERTEX
  8
7850LEVEL
 62
13
 10
2151.941
 20
-6446.841
 30
-2560.000
 70
    32
  0
VERTEX
  8
7850LEVEL
 62
13
 10
2155.836
 20
-6455.527
 30
-2560.000
 70
    32
  0
VERTEX
  8
7850LEVEL
 62
13
 10
2160.611
 20
-6465.112
 30
-2560.000
 70
    32
  0
VERTEX
  8
7850LEVEL
 62
13
 10
2167.147
 20
-6476.069
 30
-2560.000
 70
    32
  0
VERTEX
  8
7850LEVEL
 62
13
 10
2171.218
 20
-6482.682
 30
-2560.000
 70
    32
  0
VERTEX
  8
7850LEVEL
 62
13
 10
2176.072
 20
-6496.594
 30
-2560.000
 70
    32
  0
VERTEX
  8
7850LEVEL
 62
13
 10
2177.522
 20
-6507.072
 30
-2560.000
 70
    32
  0
VERTEX
  8
7850LEVEL
 62
13
 10
2175.141
 20
-6520.565
 30
-2560.000
 70
    32
  0
VERTEX
  8
7850LEVEL
 62
13
 10
2173.299
 20
-6531.120
 30
-2560.000
 70
    32
  0
VERTEX
  8
7850LEVEL
 62
13
 10
2171.019
 20
-6543.811
 30
-2560.000
 70
    32
  0
VERTEX
  8
7850LEVEL
 62
13
 10
2169.988
 20
-6556.287
 30
-2560.000
 70
    32
  0
VERTEX
  8
7850LEVEL
 62
13
 10
2171.918
 20
-6564.174
 30
-2560.000
 70
    32
  0
VERTEX
  8
7850LEVEL
 62
13
 10
2178.060
 20
-6577.843
 30
-2560.000
 70
    32
  0
VERTEX
  8
7850LEVEL
 62
13
 10
2183.265
 20
-6587.003
 30
-2560.000
 70
    32
  0
VERTEX
  8
7850LEVEL
 62
13
 10
2190.130
 20
-6601.865
 30
-2560.000
 70
    32
  0
VERTEX
  8
7850LEVEL
 62
13
 10
2195.811
 20
-6614.278
 30
-2560.000
 70
    32
  0
VERTEX
  8
7850LEVEL
 62
13
 10
2201.735
 20
-6629.015
 30
-2560.000
 70
    32
  0
VERTEX
  8
7850LEVEL
 62
13
 10
2204.890
 20
-6641.816
 30
-2560.000
 70
    32
  0
VERTEX
  8
7850LEVEL
 62
13
 10
2206.766
 20
-6659.174
 30
-2560.000
 70
    32
  0
VERTEX
  8
7850LEVEL
 62
13
 10
2208.883
 20
-6674.293
 30
-2560.000
 70
    32
  0
VERTEX
  8
7850LEVEL
 62
13
 10
2210.335
 20
-6688.299
 30
-2560.000
 70
    32
  0
VERTEX
  8
7850LEVEL
 62
13
 10
2211.607
 20
-6703.772
 30
-2560.000
 70
    32
  0
VERTEX
  8
7850LEVEL
 62
13
 10
2213.853
 20
-6711.677
 30
-2560.000
 70
    32
  0
VERTEX
  8
7850LEVEL
 62
13
 10
2219.424
 20
-6725.569
 30
-2560.000
 70
    32
  0
VERTEX
  8
7850LEVEL
 62
13
 10
2226.321
 20
-6737.121
 30
-2560.000
 70
    32
  0
VERTEX
  8
7850LEVEL
 62
13
 10
2237.805
 20
-6754.984
 30
-2560.000
 70
    32
  0
VERTEX
  8
7850LEVEL
 62
13
 10
2245.505
 20
-6770.595
 30
-2560.000
 70
    32
  0
VERTEX
  8
7850LEVEL
 62
13
 10
2252.619
 20
-6789.420
 30
-2560.000
 70
    32
  0
VERTEX
  8
7850LEVEL
 62
13
 10
2256.770
 20
-6802.855
 30
-2560.000
 70
    32
  0
VERTEX
  8
7850LEVEL
 62
13
 10
2262.748
 20
-6822.484
 30
-2560.000
 70
    32
  0
VERTEX
  8
7850LEVEL
 62
13
 10
2265.101
 20
-6831.227
 30
-2560.000
 70
    32
  0
VERTEX
  8
7850LEVEL
 62
13
 10
2268.435
 20
-6845.484
 30
-2560.000
 70
    32
  0
VERTEX
  8
7850LEVEL
 62
13
 10
2271.009
 20
-6853.766
 30
-2560.000
 70
    32
  0
VERTEX
  8
7850LEVEL
 62
13
 10
2273.180
 20
-6860.446
 30
-2560.000
 70
    32
  0
VERTEX
  8
7850LEVEL
 62
13
 10
2274.671
 20
-6865.478
 30
-2560.000
 70
    32
  0
SEQEND
  8
7850LEVEL
  0
POLYLINE
  8
7850LEVEL
 62
13
 66
     1
 70
     9
  0
VERTEX
  8
7850LEVEL
 62
13
 10
2154.923
 20
-6084.831
 30
-2560.000
 70
    32
  0
VERTEX
  8
7850LEVEL
 62
13
 10
2154.724
 20
-6090.571
 30
-2560.000
 70
    32
  0
VERTEX
  8
7850LEVEL
 62
13
 10
2152.718
 20
-6100.208
 30
-2560.000
 70
    32
  0
VERTEX
  8
7850LEVEL
 62
13
 10
2150.642
 20
-6108.799
 30
-2560.000
 70
    32
  0
VERTEX
  8
7850LEVEL
 62
13
 10
2145.053
 20
-6125.414
 30
-2560.000
 70
    32
  0
VERTEX
  8
7850LEVEL
 62
13
 10
2142.653
 20
-6128.817
 30
-2560.000
 70
    32
  0
VERTEX
  8
7850LEVEL
 62
13
 10
2139.955
 20
-6131.456
 30
-2560.000
 70
    32
  0
VERTEX
  8
7850LEVEL
 62
13
 10
2138.885
 20
-6129.170
 30
-2560.000
 70
    32
  0
VERTEX
  8
7850LEVEL
 62
13
 10
2139.986
 20
-6123.156
 30
-2560.000
 70
    32
  0
VERTEX
  8
7850LEVEL
 62
13
 10
2141.834
 20
-6107.362
 30
-2560.000
 70
    32
  0
VERTEX
  8
7850LEVEL
 62
13
 10
2141.666
 20
-6098.352
 30
-2560.000
 70
    32
  0
VERTEX
  8
7850LEVEL
 62
13
 10
2137.983
 20
-6087.385
 30
-2560.000
 70
    32
  0
VERTEX
  8
7850LEVEL
 62
13
 10
2131.219
 20
-6079.633
 30
-2560.000
 70
    32
  0
VERTEX
  8
7850LEVEL
 62
13
 10
2120.536
 20
-6068.751
 30
-2560.000
 70
    32
  0
VERTEX
  8
7850LEVEL
 62
13
 10
2109.750
 20
-6053.681
 30
-2560.000
 70
    32
  0
VERTEX
  8
7850LEVEL
 62
13
 10
2107.904
 20
-6045.310
 30
-2560.000
 70
    32
  0
VERTEX
  8
7850LEVEL
 62
13
 10
2109.224
 20
-6035.307
 30
-2560.000
 70
    32
  0
VERTEX
  8
7850LEVEL
 62
13
 10
2114.919
 20
-6015.573
 30
-2560.000
 70
    32
  0
VERTEX
  8
7850LEVEL
 62
13
 10
2117.541
 20
-6002.336
 30
-2560.000
 70
    32
  0
VERTEX
  8
7850LEVEL
 62
13
 10
2117.477
 20
-5984.182
 30
-2560.000
 70
    32
  0
VERTEX
  8
7850LEVEL
 62
13
 10
2115.873
 20
-5969.188
 30
-2560.000
 70
    32
  0
VERTEX
  8
7850LEVEL
 62
13
 10
2115.406
 20
-5947.972
 30
-2560.000
 70
    32
  0
VERTEX
  8
7850LEVEL
 62
13
 10
2116.048
 20
-5937.353
 30
-2560.000
 70
    32
  0
VERTEX
  8
7850LEVEL
 62
13
 10
2117.331
 20
-5927.985
 30
-2560.000
 70
    32
  0
VERTEX
  8
7850LEVEL
 62
13
 10
2118.147
 20
-5923.634
 30
-2560.000
 70
    32
  0
VERTEX
  8
7850LEVEL
 62
13
 10
2119.121
 20
-5920.022
 30
-2560.000
 70
    32
  0
VERTEX
  8
7850LEVEL
 62
13
 10
2120.215
 20
-5922.170
 30
-2560.000
 70
    32
  0
VERTEX
  8
7850LEVEL
 62
13
 10
2120.445
 20
-5926.451
 30
-2560.000
 70
    32
  0
VERTEX
  8
7850LEVEL
 62
13
 10
2120.841
 20
-5932.257
 30
-2560.000
 70
    32
  0
VERTEX
  8
7850LEVEL
 62
13
 10
2121.661
 20
-5949.328
 30
-2560.000
 70
    32
  0
VERTEX
  8
7850LEVEL
 62
13
 10
2122.690
 20
-5961.016
 30
-2560.000
 70
    32
  0
VERTEX
  8
7850LEVEL
 62
13
 10
2124.080
 20
-5977.258
 30
-2560.000
 70
    32
  0
VERTEX
  8
7850LEVEL
 62
13
 10
2124.655
 20
-5987.015
 30
-2560.000
 70
    32
  0
VERTEX
  8
7850LEVEL
 62
13
 10
2124.789
 20
-6003.719
 30
-2560.000
 70
    32
  0
VERTEX
  8
7850LEVEL
 62
13
 10
2123.974
 20
-6014.521
 30
-2560.000
 70
    32
  0
VERTEX
  8
7850LEVEL
 62
13
 10
2123.042
 20
-6024.128
 30
-2560.000
 70
    32
  0
VERTEX
  8
7850LEVEL
 62
13
 10
2121.671
 20
-6037.758
 30
-2560.000
 70
    32
  0
VERTEX
  8
7850LEVEL
 62
13
 10
2122.668
 20
-6044.844
 30
-2560.000
 70
    32
  0
VERTEX
  8
7850LEVEL
 62
13
 10
2125.585
 20
-6054.040
 30
-2560.000
 70
    32
  0
VERTEX
  8
7850LEVEL
 62
13
 10
2131.241
 20
-6061.602
 30
-2560.000
 70
    32
  0
VERTEX
  8
7850LEVEL
 62
13
 10
2136.893
 20
-6066.062
 30
-2560.000
 70
    32
  0
VERTEX
  8
7850LEVEL
 62
13
 10
2143.449
 20
-6072.317
 30
-2560.000
 70
    32
  0
VERTEX
  8
7850LEVEL
 62
13
 10
2149.140
 20
-6077.176
 30
-2560.000
 70
    32
  0
VERTEX
  8
7850LEVEL
 62
13
 10
2152.826
 20
-6080.837
 30
-2560.000
 70
    32
  0
VERTEX
  8
7850LEVEL
 62
13
 10
2153.800
 20
-6082.643
 30
-2560.000
 70
    32
  0
SEQEND
  8
7850LEVEL
  0
POLYLINE
  8
7850LEVEL
 62
13
 66
     1
 70
     9
  0
VERTEX
  8
7850LEVEL
 62
13
 10
1972.411
 20
-5848.430
 30
-2560.000
 70
    32
  0
VERTEX
  8
7850LEVEL
 62
13
 10
1974.406
 20
-5855.722
 30
-2560.000
 70
    32
  0
VERTEX
  8
7850LEVEL
 62
13
 10
1978.478
 20
-5866.292
 30
-2560.000
 70
    32
  0
VERTEX
  8
7850LEVEL
 62
13
 10
1983.674
 20
-5882.579
 30
-2560.000
 70
    32
  0
VERTEX
  8
7850LEVEL
 62
13
 10
1986.602
 20
-5895.662
 30
-2560.000
 70
    32
  0
VERTEX
  8
7850LEVEL
 62
13
 10
1986.159
 20
-5913.871
 30
-2560.000
 70
    32
  0
VERTEX
  8
7850LEVEL
 62
13
 10
1986.751
 20
-5923.738
 30
-2560.000
 70
    32
  0
VERTEX
  8
7850LEVEL
 62
13
 10
1984.975
 20
-5930.777
 30
-2560.000
 70
    32
  0
VERTEX
  8
7850LEVEL
 62
13
 10
1982.706
 20
-5931.956
 30
-2560.000
 70
    32
  0
VERTEX
  8
7850LEVEL
 62
13
 10
1980.408
 20
-5929.139
 30
-2560.000
 70
    32
  0
VERTEX
  8
7850LEVEL
 62
13
 10
1961.463
 20
-5897.810
 30
-2560.000
 70
    32
  0
VERTEX
  8
7850LEVEL
 62
13
 10
1952.711
 20
-5874.605
 30
-2560.000
 70
    32
  0
VERTEX
  8
7850LEVEL
 62
13
 10
1945.209
 20
-5860.133
 30
-2560.000
 70
    32
  0
VERTEX
  8
7850LEVEL
 62
13
 10
1929.191
 20
-5836.897
 30
-2560.000
 70
    32
  0
VERTEX
  8
7850LEVEL
 62
13
 10
1915.181
 20
-5815.466
 30
-2560.000
 70
    32
  0
VERTEX
  8
7850LEVEL
 62
13
 10
1911.227
 20
-5807.126
 30
-2560.000
 70
    32
  0
VERTEX
  8
7850LEVEL
 62
13
 10
1907.463
 20
-5792.260
 30
-2560.000
 70
    32
  0
VERTEX
  8
7850LEVEL
 62
13
 10
1908.657
 20
-5787.154
 30
-2560.000
 70
    32
  0
VERTEX
  8
7850LEVEL
 62
13
 10
1911.709
 20
-5782.864
 30
-2560.000
 70
    32
  0
VERTEX
  8
7850LEVEL
 62
13
 10
1914.652
 20
-5782.121
 30
-2560.000
 70
    32
  0
VERTEX
  8
7850LEVEL
 62
13
 10
1918.919
 20
-5784.883
 30
-2560.000
 70
    32
  0
VERTEX
  8
7850LEVEL
 62
13
 10
1928.335
 20
-5797.758
 30
-2560.000
 70
    32
  0
VERTEX
  8
7850LEVEL
 62
13
 10
1936.847
 20
-5809.872
 30
-2560.000
 70
    32
  0
VERTEX
  8
7850LEVEL
 62
13
 10
1951.040
 20
-5825.026
 30
-2560.000
 70
    32
  0
VERTEX
  8
7850LEVEL
 62
13
 10
1960.125
 20
-5832.961
 30
-2560.000
 70
    32
  0
VERTEX
  8
7850LEVEL
 62
13
 10
1967.416
 20
-5841.801
 30
-2560.000
 70
    32
  0
VERTEX
  8
7850LEVEL
 62
13
 10
1973.128
 20
-5850.905
 30
-2560.000
 70
    32
  0
SEQEND
  8
7850LEVEL
  0
POLYLINE
  8
7850LEVEL
 62
13
 66
     1
 70
     9
  0
VERTEX
  8
7850LEVEL
 62
13
 10
1928.915
 20
-5879.942
 30
-2560.000
 70
    32
  0
VERTEX
  8
7850LEVEL
 62
13
 10
1930.124
 20
-5884.746
 30
-2560.000
 70
    32
  0
VERTEX
  8
7850LEVEL
 62
13
 10
1933.778
 20
-5893.178
 30
-2560.000
 70
    32
  0
VERTEX
  8
7850LEVEL
 62
13
 10
1937.209
 20
-5901.036
 30
-2560.000
 70
    32
  0
VERTEX
  8
7850LEVEL
 62
13
 10
1938.163
 20
-5904.621
 30
-2560.000
 70
    32
  0
VERTEX
  8
7850LEVEL
 62
13
 10
1937.702
 20
-5905.861
 30
-2560.000
 70
    32
  0
VERTEX
  8
7850LEVEL
 62
13
 10
1932.052
 20
-5899.512
 30
-2560.000
 70
    32
  0
VERTEX
  8
7850LEVEL
 62
13
 10
1923.534
 20
-5886.185
 30
-2560.000
 70
    32
  0
VERTEX
  8
7850LEVEL
 62
13
 10
1919.181
 20
-5877.883
 30
-2560.000
 70
    32
  0
VERTEX
  8
7850LEVEL
 62
13
 10
1912.859
 20
-5866.714
 30
-2560.000
 70
    32
  0
VERTEX
  8
7850LEVEL
 62
13
 10
1910.439
 20
-5861.488
 30
-2560.000
 70
    32
  0
VERTEX
  8
7850LEVEL
 62
13
 10
1909.338
 20
-5857.094
 30
-2560.000
 70
    32
  0
VERTEX
  8
7850LEVEL
 62
13
 10
1910.470
 20
-5855.684
 30
-2560.000
 70
    32
  0
VERTEX
  8
7850LEVEL
 62
13
 10
1912.696
 20
-5857.883
 30
-2560.000
 70
    32
  0
VERTEX
  8
7850LEVEL
 62
13
 10
1917.101
 20
-5863.591
 30
-2560.000
 70
    32
  0
VERTEX
  8
7850LEVEL
 62
13
 10
1920.169
 20
-5867.324
 30
-2560.000
 70
    32
  0
VERTEX
  8
7850LEVEL
 62
13
 10
1924.605
 20
-5875.140
 30
-2560.000
 70
    32
  0
VERTEX
  8
7850LEVEL
 62
13
 10
1926.250
 20
-5877.810
 30
-2560.000
 70
    32
  0
SEQEND
  8
7850LEVEL
  0
ENDSEC
  0
EOF
