999
********************************
999
*   DXF File - Entities Only   *
999
*        3D Data Format        *
999
*     Output from ENVISAGE     *
999
*     28-Dec-2007 13:49:14     *
999
********************************
  0
SECTION 
  2
HEADER
  9
$ACADVER
  1
AC1009
  9
$EXTMIN
 10
-290000.000
 20
-250000.000
 30
-4000.000
  9
$EXTMAX
 10
5000000.000
 20
600000.000
 30
6000.000
  0
ENDSEC
  0
SECTION
  2
ENTITIES
  0
POLYLINE
  8
0900LEVEL
 62
13
 66
     1
 70
     8
  0
VERTEX
  8
0900LEVEL
 62
13
 10
1963.202
 20
-359.002
 30
4327.000
 70
    32
  0
VERTEX
  8
0900LEVEL
 62
13
 10
1930.071
 20
-320.405
 30
4327.000
 70
    32
  0
VERTEX
  8
0900LEVEL
 62
13
 10
1892.449
 20
-297.221
 30
4327.000
 70
    32
  0
VERTEX
  8
0900LEVEL
 62
13
 10
1869.015
 20
-341.106
 30
4327.000
 70
    32
  0
VERTEX
  8
0900LEVEL
 62
13
 10
1853.872
 20
-382.036
 30
4327.000
 70
    32
  0
VERTEX
  8
0900LEVEL
 62
13
 10
1817.911
 20
-376.766
 30
4327.000
 70
    32
  0
VERTEX
  8
0900LEVEL
 62
13
 10
1781.000
 20
-328.738
 30
4327.000
 70
    32
  0
VERTEX
  8
0900LEVEL
 62
13
 10
1746.121
 20
-305.742
 30
4327.000
 70
    32
  0
VERTEX
  8
0900LEVEL
 62
13
 10
1711.763
 20
-370.562
 30
4327.000
 70
    32
  0
VERTEX
  8
0900LEVEL
 62
13
 10
1694.694
 20
-425.049
 30
4327.000
 70
    32
  0
VERTEX
  8
0900LEVEL
 62
13
 10
1663.382
 20
-492.879
 30
4327.000
 70
    32
  0
VERTEX
  8
0900LEVEL
 62
13
 10
1637.498
 20
-523.765
 30
4327.000
 70
    32
  0
VERTEX
  8
0900LEVEL
 62
13
 10
1608.499
 20
-498.689
 30
4327.000
 70
    32
  0
VERTEX
  8
0900LEVEL
 62
13
 10
1588.167
 20
-534.248
 30
4327.000
 70
    32
  0
VERTEX
  8
0900LEVEL
 62
13
 10
1580.607
 20
-604.884
 30
4327.000
 70
    32
  0
VERTEX
  8
0900LEVEL
 62
13
 10
1569.855
 20
-668.704
 30
4327.000
 70
    32
  0
VERTEX
  8
0900LEVEL
 62
13
 10
1552.095
 20
-710.223
 30
4327.000
 70
    32
  0
VERTEX
  8
0900LEVEL
 62
13
 10
1514.472
 20
-707.459
 30
4327.000
 70
    32
  0
VERTEX
  8
0900LEVEL
 62
13
 10
1492.640
 20
-752.357
 30
4327.000
 70
    32
  0
VERTEX
  8
0900LEVEL
 62
13
 10
1493.984
 20
-792.658
 30
4327.000
 70
    32
  0
VERTEX
  8
0900LEVEL
 62
13
 10
1481.445
 20
-817.367
 30
4327.000
 70
    32
  0
VERTEX
  8
0900LEVEL
 62
13
 10
1492.225
 20
-861.704
 30
4327.000
 70
    32
  0
VERTEX
  8
0900LEVEL
 62
13
 10
1492.992
 20
-915.021
 30
4327.000
 70
    32
  0
VERTEX
  8
0900LEVEL
 62
13
 10
1470.733
 20
-915.481
 30
4327.000
 70
    32
  0
VERTEX
  8
0900LEVEL
 62
13
 10
1438.779
 20
-882.114
 30
4327.000
 70
    32
  0
VERTEX
  8
0900LEVEL
 62
13
 10
1397.759
 20
-851.830
 30
4327.000
 70
    32
  0
VERTEX
  8
0900LEVEL
 62
13
 10
1394.801
 20
-815.304
 30
4327.000
 70
    32
  0
VERTEX
  8
0900LEVEL
 62
13
 10
1395.119
 20
-772.497
 30
4327.000
 70
    32
  0
VERTEX
  8
0900LEVEL
 62
13
 10
1398.231
 20
-710.727
 30
4327.000
 70
    32
  0
VERTEX
  8
0900LEVEL
 62
13
 10
1402.466
 20
-645.104
 30
4327.000
 70
    32
  0
VERTEX
  8
0900LEVEL
 62
13
 10
1436.491
 20
-648.298
 30
4327.000
 70
    32
  0
VERTEX
  8
0900LEVEL
 62
13
 10
1448.782
 20
-609.431
 30
4327.000
 70
    32
  0
VERTEX
  8
0900LEVEL
 62
13
 10
1462.737
 20
-568.058
 30
4327.000
 70
    32
  0
VERTEX
  8
0900LEVEL
 62
13
 10
1493.835
 20
-512.546
 30
4327.000
 70
    32
  0
VERTEX
  8
0900LEVEL
 62
13
 10
1515.225
 20
-448.417
 30
4327.000
 70
    32
  0
VERTEX
  8
0900LEVEL
 62
13
 10
1532.706
 20
-394.500
 30
4327.000
 70
    32
  0
VERTEX
  8
0900LEVEL
 62
13
 10
1563.945
 20
-334.978
 30
4327.000
 70
    32
  0
VERTEX
  8
0900LEVEL
 62
13
 10
1621.294
 20
-296.539
 30
4327.000
 70
    32
  0
VERTEX
  8
0900LEVEL
 62
13
 10
1645.438
 20
-248.230
 30
4327.000
 70
    32
  0
VERTEX
  8
0900LEVEL
 62
13
 10
1652.889
 20
-179.846
 30
4327.000
 70
    32
  0
VERTEX
  8
0900LEVEL
 62
13
 10
1666.850
 20
-125.868
 30
4327.000
 70
    32
  0
VERTEX
  8
0900LEVEL
 62
13
 10
1713.065
 20
-79.843
 30
4327.000
 70
    32
  0
VERTEX
  8
0900LEVEL
 62
13
 10
1764.174
 20
-72.419
 30
4327.000
 70
    32
  0
VERTEX
  8
0900LEVEL
 62
13
 10
1772.569
 20
-38.977
 30
4327.000
 70
    32
  0
VERTEX
  8
0900LEVEL
 62
13
 10
1718.300
 20
-17.405
 30
4327.000
 70
    32
  0
VERTEX
  8
0900LEVEL
 62
13
 10
1683.371
 20
-13.561
 30
4327.000
 70
    32
  0
VERTEX
  8
0900LEVEL
 62
13
 10
1627.024
 20
-34.766
 30
4327.000
 70
    32
  0
VERTEX
  8
0900LEVEL
 62
13
 10
1614.598
 20
-85.461
 30
4327.000
 70
    32
  0
VERTEX
  8
0900LEVEL
 62
13
 10
1611.074
 20
-146.660
 30
4327.000
 70
    32
  0
VERTEX
  8
0900LEVEL
 62
13
 10
1593.613
 20
-183.185
 30
4327.000
 70
    32
  0
VERTEX
  8
0900LEVEL
 62
13
 10
1550.766
 20
-238.070
 30
4327.000
 70
    32
  0
VERTEX
  8
0900LEVEL
 62
13
 10
1517.794
 20
-267.566
 30
4327.000
 70
    32
  0
VERTEX
  8
0900LEVEL
 62
13
 10
1490.003
 20
-315.038
 30
4327.000
 70
    32
  0
VERTEX
  8
0900LEVEL
 62
13
 10
1459.893
 20
-378.523
 30
4327.000
 70
    32
  0
VERTEX
  8
0900LEVEL
 62
13
 10
1431.939
 20
-419.161
 30
4327.000
 70
    32
  0
VERTEX
  8
0900LEVEL
 62
13
 10
1447.605
 20
-445.626
 30
4327.000
 70
    32
  0
VERTEX
  8
0900LEVEL
 62
13
 10
1479.519
 20
-444.700
 30
4327.000
 70
    32
  0
VERTEX
  8
0900LEVEL
 62
13
 10
1475.603
 20
-467.517
 30
4327.000
 70
    32
  0
VERTEX
  8
0900LEVEL
 62
13
 10
1453.019
 20
-523.387
 30
4327.000
 70
    32
  0
VERTEX
  8
0900LEVEL
 62
13
 10
1430.277
 20
-559.820
 30
4327.000
 70
    32
  0
VERTEX
  8
0900LEVEL
 62
13
 10
1414.176
 20
-591.017
 30
4327.000
 70
    32
  0
VERTEX
  8
0900LEVEL
 62
13
 10
1388.365
 20
-613.595
 30
4327.000
 70
    32
  0
VERTEX
  8
0900LEVEL
 62
13
 10
1378.956
 20
-648.640
 30
4327.000
 70
    32
  0
VERTEX
  8
0900LEVEL
 62
13
 10
1375.317
 20
-704.275
 30
4327.000
 70
    32
  0
VERTEX
  8
0900LEVEL
 62
13
 10
1367.988
 20
-765.620
 30
4327.000
 70
    32
  0
VERTEX
  8
0900LEVEL
 62
13
 10
1368.403
 20
-814.847
 30
4327.000
 70
    32
  0
VERTEX
  8
0900LEVEL
 62
13
 10
1362.471
 20
-856.500
 30
4327.000
 70
    32
  0
VERTEX
  8
0900LEVEL
 62
13
 10
1343.819
 20
-913.001
 30
4327.000
 70
    32
  0
VERTEX
  8
0900LEVEL
 62
13
 10
1339.124
 20
-956.366
 30
4327.000
 70
    32
  0
VERTEX
  8
0900LEVEL
 62
13
 10
1367.993
 20
-1021.506
 30
4327.000
 70
    32
  0
VERTEX
  8
0900LEVEL
 62
13
 10
1405.419
 20
-1080.457
 30
4327.000
 70
    32
  0
VERTEX
  8
0900LEVEL
 62
13
 10
1406.855
 20
-1184.555
 30
4327.000
 70
    32
  0
VERTEX
  8
0900LEVEL
 62
13
 10
1406.501
 20
-1290.382
 30
4327.000
 70
    32
  0
VERTEX
  8
0900LEVEL
 62
13
 10
1413.044
 20
-1351.685
 30
4327.000
 70
    32
  0
VERTEX
  8
0900LEVEL
 62
13
 10
1376.837
 20
-1311.837
 30
4327.000
 70
    32
  0
VERTEX
  8
0900LEVEL
 62
13
 10
1349.682
 20
-1294.116
 30
4327.000
 70
    32
  0
VERTEX
  8
0900LEVEL
 62
13
 10
1364.508
 20
-1365.069
 30
4327.000
 70
    32
  0
VERTEX
  8
0900LEVEL
 62
13
 10
1363.589
 20
-1479.124
 30
4327.000
 70
    32
  0
VERTEX
  8
0900LEVEL
 62
13
 10
1352.977
 20
-1538.934
 30
4327.000
 70
    32
  0
VERTEX
  8
0900LEVEL
 62
13
 10
1376.974
 20
-1596.737
 30
4327.000
 70
    32
  0
VERTEX
  8
0900LEVEL
 62
13
 10
1407.282
 20
-1635.638
 30
4327.000
 70
    32
  0
VERTEX
  8
0900LEVEL
 62
13
 10
1451.191
 20
-1669.915
 30
4327.000
 70
    32
  0
VERTEX
  8
0900LEVEL
 62
13
 10
1474.841
 20
-1731.445
 30
4327.000
 70
    32
  0
VERTEX
  8
0900LEVEL
 62
13
 10
1481.364
 20
-1810.140
 30
4327.000
 70
    32
  0
VERTEX
  8
0900LEVEL
 62
13
 10
1458.112
 20
-1863.886
 30
4327.000
 70
    32
  0
VERTEX
  8
0900LEVEL
 62
13
 10
1444.795
 20
-1909.144
 30
4327.000
 70
    32
  0
VERTEX
  8
0900LEVEL
 62
13
 10
1455.084
 20
-1953.401
 30
4327.000
 70
    32
  0
VERTEX
  8
0900LEVEL
 62
13
 10
1445.791
 20
-1973.590
 30
4327.000
 70
    32
  0
VERTEX
  8
0900LEVEL
 62
13
 10
1421.666
 20
-1935.430
 30
4327.000
 70
    32
  0
VERTEX
  8
0900LEVEL
 62
13
 10
1389.719
 20
-1889.460
 30
4327.000
 70
    32
  0
VERTEX
  8
0900LEVEL
 62
13
 10
1360.222
 20
-1876.908
 30
4327.000
 70
    32
  0
VERTEX
  8
0900LEVEL
 62
13
 10
1373.665
 20
-1942.345
 30
4327.000
 70
    32
  0
VERTEX
  8
0900LEVEL
 62
13
 10
1410.683
 20
-2008.542
 30
4327.000
 70
    32
  0
VERTEX
  8
0900LEVEL
 62
13
 10
1448.449
 20
-2055.951
 30
4327.000
 70
    32
  0
VERTEX
  8
0900LEVEL
 62
13
 10
1438.411
 20
-2074.507
 30
4327.000
 70
    32
  0
VERTEX
  8
0900LEVEL
 62
13
 10
1404.525
 20
-2067.301
 30
4327.000
 70
    32
  0
VERTEX
  8
0900LEVEL
 62
13
 10
1395.524
 20
-2095.100
 30
4327.000
 70
    32
  0
VERTEX
  8
0900LEVEL
 62
13
 10
1364.953
 20
-2067.250
 30
4327.000
 70
    32
  0
VERTEX
  8
0900LEVEL
 62
13
 10
1348.839
 20
-2013.738
 30
4327.000
 70
    32
  0
VERTEX
  8
0900LEVEL
 62
13
 10
1330.420
 20
-1951.031
 30
4327.000
 70
    32
  0
VERTEX
  8
0900LEVEL
 62
13
 10
1316.867
 20
-1908.266
 30
4327.000
 70
    32
  0
VERTEX
  8
0900LEVEL
 62
13
 10
1294.254
 20
-1855.979
 30
4327.000
 70
    32
  0
VERTEX
  8
0900LEVEL
 62
13
 10
1268.085
 20
-1797.575
 30
4327.000
 70
    32
  0
VERTEX
  8
0900LEVEL
 62
13
 10
1258.575
 20
-1732.770
 30
4327.000
 70
    32
  0
VERTEX
  8
0900LEVEL
 62
13
 10
1249.823
 20
-1664.809
 30
4327.000
 70
    32
  0
VERTEX
  8
0900LEVEL
 62
13
 10
1223.461
 20
-1601.331
 30
4327.000
 70
    32
  0
VERTEX
  8
0900LEVEL
 62
13
 10
1186.443
 20
-1604.211
 30
4327.000
 70
    32
  0
VERTEX
  8
0900LEVEL
 62
13
 10
1150.150
 20
-1577.459
 30
4327.000
 70
    32
  0
VERTEX
  8
0900LEVEL
 62
13
 10
1127.775
 20
-1592.774
 30
4327.000
 70
    32
  0
VERTEX
  8
0900LEVEL
 62
13
 10
1115.910
 20
-1607.003
 30
4327.000
 70
    32
  0
VERTEX
  8
0900LEVEL
 62
13
 10
1078.596
 20
-1594.457
 30
4327.000
 70
    32
  0
VERTEX
  8
0900LEVEL
 62
13
 10
1040.707
 20
-1574.507
 30
4327.000
 70
    32
  0
VERTEX
  8
0900LEVEL
 62
13
 10
1003.958
 20
-1553.733
 30
4327.000
 70
    32
  0
VERTEX
  8
0900LEVEL
 62
13
 10
964.994
 20
-1538.904
 30
4327.000
 70
    32
  0
VERTEX
  8
0900LEVEL
 62
13
 10
922.133
 20
-1529.501
 30
4327.000
 70
    32
  0
VERTEX
  8
0900LEVEL
 62
13
 10
870.978
 20
-1515.237
 30
4327.000
 70
    32
  0
VERTEX
  8
0900LEVEL
 62
13
 10
881.509
 20
-1565.836
 30
4327.000
 70
    32
  0
VERTEX
  8
0900LEVEL
 62
13
 10
907.240
 20
-1633.246
 30
4327.000
 70
    32
  0
VERTEX
  8
0900LEVEL
 62
13
 10
937.911
 20
-1691.869
 30
4327.000
 70
    32
  0
VERTEX
  8
0900LEVEL
 62
13
 10
977.392
 20
-1697.200
 30
4327.000
 70
    32
  0
VERTEX
  8
0900LEVEL
 62
13
 10
1014.183
 20
-1711.427
 30
4327.000
 70
    32
  0
VERTEX
  8
0900LEVEL
 62
13
 10
1038.516
 20
-1729.452
 30
4327.000
 70
    32
  0
VERTEX
  8
0900LEVEL
 62
13
 10
1146.154
 20
-1938.335
 30
4327.000
 70
    32
  0
VERTEX
  8
0900LEVEL
 62
13
 10
1121.865
 20
-1982.838
 30
4327.000
 70
    32
  0
VERTEX
  8
0900LEVEL
 62
13
 10
1118.875
 20
-2037.569
 30
4327.000
 70
    32
  0
VERTEX
  8
0900LEVEL
 62
13
 10
1111.706
 20
-2077.511
 30
4327.000
 70
    32
  0
VERTEX
  8
0900LEVEL
 62
13
 10
1072.505
 20
-2064.157
 30
4327.000
 70
    32
  0
VERTEX
  8
0900LEVEL
 62
13
 10
993.671
 20
-2054.272
 30
4327.000
 70
    32
  0
VERTEX
  8
0900LEVEL
 62
13
 10
963.136
 20
-2032.478
 30
4327.000
 70
    32
  0
VERTEX
  8
0900LEVEL
 62
13
 10
939.535
 20
-1972.217
 30
4327.000
 70
    32
  0
VERTEX
  8
0900LEVEL
 62
13
 10
941.590
 20
-1918.597
 30
4327.000
 70
    32
  0
VERTEX
  8
0900LEVEL
 62
13
 10
952.152
 20
-1877.939
 30
4327.000
 70
    32
  0
VERTEX
  8
0900LEVEL
 62
13
 10
949.236
 20
-1834.866
 30
4327.000
 70
    32
  0
VERTEX
  8
0900LEVEL
 62
13
 10
929.165
 20
-1790.298
 30
4327.000
 70
    32
  0
VERTEX
  8
0900LEVEL
 62
13
 10
882.309
 20
-1735.126
 30
4327.000
 70
    32
  0
VERTEX
  8
0900LEVEL
 62
13
 10
845.532
 20
-1695.691
 30
4327.000
 70
    32
  0
VERTEX
  8
0900LEVEL
 62
13
 10
814.362
 20
-1649.593
 30
4327.000
 70
    32
  0
VERTEX
  8
0900LEVEL
 62
13
 10
817.708
 20
-1606.769
 30
4327.000
 70
    32
  0
VERTEX
  8
0900LEVEL
 62
13
 10
802.038
 20
-1552.067
 30
4327.000
 70
    32
  0
VERTEX
  8
0900LEVEL
 62
13
 10
779.995
 20
-1499.367
 30
4327.000
 70
    32
  0
VERTEX
  8
0900LEVEL
 62
13
 10
750.578
 20
-1465.904
 30
4327.000
 70
    32
  0
VERTEX
  8
0900LEVEL
 62
13
 10
724.385
 20
-1486.152
 30
4327.000
 70
    32
  0
VERTEX
  8
0900LEVEL
 62
13
 10
688.503
 20
-1480.390
 30
4327.000
 70
    32
  0
VERTEX
  8
0900LEVEL
 62
13
 10
666.781
 20
-1453.961
 30
4327.000
 70
    32
  0
VERTEX
  8
0900LEVEL
 62
13
 10
637.992
 20
-1457.405
 30
4327.000
 70
    32
  0
VERTEX
  8
0900LEVEL
 62
13
 10
623.456
 20
-1483.559
 30
4327.000
 70
    32
  0
VERTEX
  8
0900LEVEL
 62
13
 10
576.857
 20
-1478.598
 30
4327.000
 70
    32
  0
VERTEX
  8
0900LEVEL
 62
13
 10
561.519
 20
-1514.455
 30
4327.000
 70
    32
  0
VERTEX
  8
0900LEVEL
 62
13
 10
576.724
 20
-1559.502
 30
4327.000
 70
    32
  0
VERTEX
  8
0900LEVEL
 62
13
 10
550.718
 20
-1597.427
 30
4327.000
 70
    32
  0
VERTEX
  8
0900LEVEL
 62
13
 10
510.507
 20
-1613.912
 30
4327.000
 70
    32
  0
VERTEX
  8
0900LEVEL
 62
13
 10
478.566
 20
-1575.758
 30
4327.000
 70
    32
  0
VERTEX
  8
0900LEVEL
 62
13
 10
460.183
 20
-1519.108
 30
4327.000
 70
    32
  0
VERTEX
  8
0900LEVEL
 62
13
 10
430.410
 20
-1453.318
 30
4327.000
 70
    32
  0
VERTEX
  8
0900LEVEL
 62
13
 10
410.377
 20
-1394.386
 30
4327.000
 70
    32
  0
VERTEX
  8
0900LEVEL
 62
13
 10
379.621
 20
-1328.439
 30
4327.000
 70
    32
  0
VERTEX
  8
0900LEVEL
 62
13
 10
346.341
 20
-1257.800
 30
4327.000
 70
    32
  0
VERTEX
  8
0900LEVEL
 62
13
 10
300.044
 20
-1186.584
 30
4327.000
 70
    32
  0
VERTEX
  8
0900LEVEL
 62
13
 10
298.710
 20
-1182.336
 30
4327.000
 70
    32
  0
VERTEX
  8
0900LEVEL
 62
13
 10
265.769
 20
-1120.575
 30
4327.000
 70
    32
  0
VERTEX
  8
0900LEVEL
 62
13
 10
227.464
 20
-1051.398
 30
4327.000
 70
    32
  0
VERTEX
  8
0900LEVEL
 62
13
 10
214.712
 20
-998.930
 30
4327.000
 70
    32
  0
VERTEX
  8
0900LEVEL
 62
13
 10
163.409
 20
-932.204
 30
4327.000
 70
    32
  0
VERTEX
  8
0900LEVEL
 62
13
 10
142.532
 20
-958.600
 30
4327.000
 70
    32
  0
VERTEX
  8
0900LEVEL
 62
13
 10
154.998
 20
-1011.275
 30
4327.000
 70
    32
  0
VERTEX
  8
0900LEVEL
 62
13
 10
180.091
 20
-1095.221
 30
4327.000
 70
    32
  0
VERTEX
  8
0900LEVEL
 62
13
 10
217.928
 20
-1175.163
 30
4327.000
 70
    32
  0
VERTEX
  8
0900LEVEL
 62
13
 10
245.212
 20
-1242.318
 30
4327.000
 70
    32
  0
VERTEX
  8
0900LEVEL
 62
13
 10
266.912
 20
-1326.980
 30
4327.000
 70
    32
  0
VERTEX
  8
0900LEVEL
 62
13
 10
316.939
 20
-1426.778
 30
4327.000
 70
    32
  0
VERTEX
  8
0900LEVEL
 62
13
 10
356.663
 20
-1507.528
 30
4327.000
 70
    32
  0
VERTEX
  8
0900LEVEL
 62
13
 10
410.090
 20
-1573.586
 30
4327.000
 70
    32
  0
VERTEX
  8
0900LEVEL
 62
13
 10
449.306
 20
-1630.808
 30
4327.000
 70
    32
  0
VERTEX
  8
0900LEVEL
 62
13
 10
478.228
 20
-1705.033
 30
4327.000
 70
    32
  0
VERTEX
  8
0900LEVEL
 62
13
 10
440.807
 20
-1674.318
 30
4327.000
 70
    32
  0
VERTEX
  8
0900LEVEL
 62
13
 10
405.984
 20
-1619.566
 30
4327.000
 70
    32
  0
VERTEX
  8
0900LEVEL
 62
13
 10
371.901
 20
-1579.051
 30
4327.000
 70
    32
  0
VERTEX
  8
0900LEVEL
 62
13
 10
314.621
 20
-1511.869
 30
4327.000
 70
    32
  0
VERTEX
  8
0900LEVEL
 62
13
 10
277.154
 20
-1439.046
 30
4327.000
 70
    32
  0
VERTEX
  8
0900LEVEL
 62
13
 10
248.934
 20
-1373.001
 30
4327.000
 70
    32
  0
VERTEX
  8
0900LEVEL
 62
13
 10
207.139
 20
-1322.424
 30
4327.000
 70
    32
  0
VERTEX
  8
0900LEVEL
 62
13
 10
171.626
 20
-1254.704
 30
4327.000
 70
    32
  0
VERTEX
  8
0900LEVEL
 62
13
 10
124.459
 20
-1209.315
 30
4327.000
 70
    32
  0
VERTEX
  8
0900LEVEL
 62
13
 10
118.887
 20
-1152.957
 30
4327.000
 70
    32
  0
VERTEX
  8
0900LEVEL
 62
13
 10
85.630
 20
-1093.163
 30
4327.000
 70
    32
  0
VERTEX
  8
0900LEVEL
 62
13
 10
57.568
 20
-1115.632
 30
4327.000
 70
    32
  0
VERTEX
  8
0900LEVEL
 62
13
 10
21.126
 20
-1056.838
 30
4327.000
 70
    32
  0
VERTEX
  8
0900LEVEL
 62
13
 10
-15.664
 20
-932.694
 30
4327.000
 70
    32
  0
VERTEX
  8
0900LEVEL
 62
13
 10
-43.185
 20
-867.014
 30
4327.000
 70
    32
  0
VERTEX
  8
0900LEVEL
 62
13
 10
-76.859
 20
-798.833
 30
4327.000
 70
    32
  0
VERTEX
  8
0900LEVEL
 62
13
 10
-106.278
 20
-785.789
 30
4327.000
 70
    32
  0
VERTEX
  8
0900LEVEL
 62
13
 10
-98.800
 20
-845.983
 30
4327.000
 70
    32
  0
VERTEX
  8
0900LEVEL
 62
13
 10
-60.678
 20
-925.718
 30
4327.000
 70
    32
  0
VERTEX
  8
0900LEVEL
 62
13
 10
-16.974
 20
-1008.367
 30
4327.000
 70
    32
  0
VERTEX
  8
0900LEVEL
 62
13
 10
17.323
 20
-1105.640
 30
4327.000
 70
    32
  0
VERTEX
  8
0900LEVEL
 62
13
 10
50.483
 20
-1162.898
 30
4327.000
 70
    32
  0
VERTEX
  8
0900LEVEL
 62
13
 10
80.033
 20
-1204.954
 30
4327.000
 70
    32
  0
VERTEX
  8
0900LEVEL
 62
13
 10
96.803
 20
-1244.958
 30
4327.000
 70
    32
  0
VERTEX
  8
0900LEVEL
 62
13
 10
50.139
 20
-1215.280
 30
4327.000
 70
    32
  0
VERTEX
  8
0900LEVEL
 62
13
 10
71.314
 20
-1273.387
 30
4327.000
 70
    32
  0
VERTEX
  8
0900LEVEL
 62
13
 10
114.069
 20
-1313.278
 30
4327.000
 70
    32
  0
VERTEX
  8
0900LEVEL
 62
13
 10
164.562
 20
-1333.235
 30
4327.000
 70
    32
  0
VERTEX
  8
0900LEVEL
 62
13
 10
212.037
 20
-1389.262
 30
4327.000
 70
    32
  0
VERTEX
  8
0900LEVEL
 62
13
 10
246.277
 20
-1449.214
 30
4327.000
 70
    32
  0
VERTEX
  8
0900LEVEL
 62
13
 10
266.485
 20
-1530.611
 30
4327.000
 70
    32
  0
VERTEX
  8
0900LEVEL
 62
13
 10
271.806
 20
-1613.652
 30
4327.000
 70
    32
  0
VERTEX
  8
0900LEVEL
 62
13
 10
281.311
 20
-1670.641
 30
4327.000
 70
    32
  0
VERTEX
  8
0900LEVEL
 62
13
 10
311.285
 20
-1728.900
 30
4327.000
 70
    32
  0
VERTEX
  8
0900LEVEL
 62
13
 10
354.627
 20
-1791.826
 30
4327.000
 70
    32
  0
VERTEX
  8
0900LEVEL
 62
13
 10
395.785
 20
-1838.520
 30
4327.000
 70
    32
  0
VERTEX
  8
0900LEVEL
 62
13
 10
433.526
 20
-1895.505
 30
4327.000
 70
    32
  0
VERTEX
  8
0900LEVEL
 62
13
 10
456.647
 20
-1971.319
 30
4327.000
 70
    32
  0
VERTEX
  8
0900LEVEL
 62
13
 10
497.257
 20
-2049.690
 30
4327.000
 70
    32
  0
VERTEX
  8
0900LEVEL
 62
13
 10
553.785
 20
-2127.843
 30
4327.000
 70
    32
  0
VERTEX
  8
0900LEVEL
 62
13
 10
617.466
 20
-2211.683
 30
4327.000
 70
    32
  0
VERTEX
  8
0900LEVEL
 62
13
 10
662.052
 20
-2284.137
 30
4327.000
 70
    32
  0
VERTEX
  8
0900LEVEL
 62
13
 10
720.898
 20
-2346.275
 30
4327.000
 70
    32
  0
VERTEX
  8
0900LEVEL
 62
13
 10
785.947
 20
-2412.183
 30
4327.000
 70
    32
  0
VERTEX
  8
0900LEVEL
 62
13
 10
857.421
 20
-2485.173
 30
4327.000
 70
    32
  0
VERTEX
  8
0900LEVEL
 62
13
 10
894.568
 20
-2531.727
 30
4327.000
 70
    32
  0
VERTEX
  8
0900LEVEL
 62
13
 10
839.143
 20
-2487.533
 30
4327.000
 70
    32
  0
VERTEX
  8
0900LEVEL
 62
13
 10
784.356
 20
-2426.802
 30
4327.000
 70
    32
  0
VERTEX
  8
0900LEVEL
 62
13
 10
743.972
 20
-2400.401
 30
4327.000
 70
    32
  0
VERTEX
  8
0900LEVEL
 62
13
 10
783.176
 20
-2462.411
 30
4327.000
 70
    32
  0
VERTEX
  8
0900LEVEL
 62
13
 10
865.189
 20
-2552.976
 30
4327.000
 70
    32
  0
VERTEX
  8
0900LEVEL
 62
13
 10
937.265
 20
-2623.794
 30
4327.000
 70
    32
  0
VERTEX
  8
0900LEVEL
 62
13
 10
1009.830
 20
-2715.111
 30
4327.000
 70
    32
  0
VERTEX
  8
0900LEVEL
 62
13
 10
1081.843
 20
-2809.868
 30
4327.000
 70
    32
  0
VERTEX
  8
0900LEVEL
 62
13
 10
1149.559
 20
-2904.692
 30
4327.000
 70
    32
  0
VERTEX
  8
0900LEVEL
 62
13
 10
1228.428
 20
-3010.130
 30
4327.000
 70
    32
  0
SEQEND
  8
0900LEVEL
  0
POLYLINE
  8
0900LEVEL
 62
13
 66
     1
 70
     8
  0
VERTEX
  8
0900LEVEL
 62
13
 10
1777.895
 20
-3610.634
 30
4327.000
 70
    32
  0
VERTEX
  8
0900LEVEL
 62
13
 10
1821.883
 20
-3713.497
 30
4327.000
 70
    32
  0
VERTEX
  8
0900LEVEL
 62
13
 10
1863.536
 20
-3808.926
 30
4327.000
 70
    32
  0
VERTEX
  8
0900LEVEL
 62
13
 10
1903.411
 20
-3901.296
 30
4327.000
 70
    32
  0
VERTEX
  8
0900LEVEL
 62
13
 10
1953.812
 20
-4016.029
 30
4327.000
 70
    32
  0
VERTEX
  8
0900LEVEL
 62
13
 10
1983.967
 20
-4084.149
 30
4327.000
 70
    32
  0
VERTEX
  8
0900LEVEL
 62
13
 10
1939.111
 20
-4055.770
 30
4327.000
 70
    32
  0
VERTEX
  8
0900LEVEL
 62
13
 10
1919.649
 20
-4065.502
 30
4327.000
 70
    32
  0
VERTEX
  8
0900LEVEL
 62
13
 10
1922.456
 20
-4110.828
 30
4327.000
 70
    32
  0
VERTEX
  8
0900LEVEL
 62
13
 10
1892.377
 20
-4083.056
 30
4327.000
 70
    32
  0
VERTEX
  8
0900LEVEL
 62
13
 10
1683.214
 20
-4040.143
 30
4327.000
 70
    32
  0
VERTEX
  8
0900LEVEL
 62
13
 10
1642.463
 20
-3986.204
 30
4327.000
 70
    32
  0
VERTEX
  8
0900LEVEL
 62
13
 10
1592.585
 20
-3918.446
 30
4327.000
 70
    32
  0
VERTEX
  8
0900LEVEL
 62
13
 10
1537.534
 20
-3820.110
 30
4327.000
 70
    32
  0
VERTEX
  8
0900LEVEL
 62
13
 10
1476.699
 20
-3726.391
 30
4327.000
 70
    32
  0
VERTEX
  8
0900LEVEL
 62
13
 10
1426.648
 20
-3636.168
 30
4327.000
 70
    32
  0
VERTEX
  8
0900LEVEL
 62
13
 10
1420.393
 20
-3692.391
 30
4327.000
 70
    32
  0
VERTEX
  8
0900LEVEL
 62
13
 10
1387.928
 20
-3676.338
 30
4327.000
 70
    32
  0
VERTEX
  8
0900LEVEL
 62
13
 10
1318.969
 20
-3571.987
 30
4327.000
 70
    32
  0
VERTEX
  8
0900LEVEL
 62
13
 10
1257.503
 20
-3482.200
 30
4327.000
 70
    32
  0
VERTEX
  8
0900LEVEL
 62
13
 10
1203.282
 20
-3392.820
 30
4327.000
 70
    32
  0
VERTEX
  8
0900LEVEL
 62
13
 10
1138.696
 20
-3308.331
 30
4327.000
 70
    32
  0
VERTEX
  8
0900LEVEL
 62
13
 10
1085.780
 20
-3224.959
 30
4327.000
 70
    32
  0
VERTEX
  8
0900LEVEL
 62
13
 10
1027.986
 20
-3126.435
 30
4327.000
 70
    32
  0
VERTEX
  8
0900LEVEL
 62
13
 10
976.982
 20
-3034.294
 30
4327.000
 70
    32
  0
VERTEX
  8
0900LEVEL
 62
13
 10
922.446
 20
-2946.881
 30
4327.000
 70
    32
  0
VERTEX
  8
0900LEVEL
 62
13
 10
858.965
 20
-2855.510
 30
4327.000
 70
    32
  0
VERTEX
  8
0900LEVEL
 62
13
 10
797.900
 20
-2750.662
 30
4327.000
 70
    32
  0
VERTEX
  8
0900LEVEL
 62
13
 10
736.798
 20
-2660.177
 30
4327.000
 70
    32
  0
VERTEX
  8
0900LEVEL
 62
13
 10
663.852
 20
-2546.110
 30
4327.000
 70
    32
  0
VERTEX
  8
0900LEVEL
 62
13
 10
595.657
 20
-2446.419
 30
4327.000
 70
    32
  0
VERTEX
  8
0900LEVEL
 62
13
 10
519.830
 20
-2315.754
 30
4327.000
 70
    32
  0
VERTEX
  8
0900LEVEL
 62
13
 10
447.673
 20
-2196.772
 30
4327.000
 70
    32
  0
VERTEX
  8
0900LEVEL
 62
13
 10
367.118
 20
-2082.995
 30
4327.000
 70
    32
  0
VERTEX
  8
0900LEVEL
 62
13
 10
298.481
 20
-1964.074
 30
4327.000
 70
    32
  0
VERTEX
  8
0900LEVEL
 62
13
 10
255.955
 20
-1866.236
 30
4327.000
 70
    32
  0
VERTEX
  8
0900LEVEL
 62
13
 10
204.254
 20
-1753.311
 30
4327.000
 70
    32
  0
VERTEX
  8
0900LEVEL
 62
13
 10
171.660
 20
-1687.824
 30
4327.000
 70
    32
  0
VERTEX
  8
0900LEVEL
 62
13
 10
136.911
 20
-1624.765
 30
4327.000
 70
    32
  0
VERTEX
  8
0900LEVEL
 62
13
 10
96.260
 20
-1532.522
 30
4327.000
 70
    32
  0
VERTEX
  8
0900LEVEL
 62
13
 10
50.862
 20
-1454.139
 30
4327.000
 70
    32
  0
VERTEX
  8
0900LEVEL
 62
13
 10
14.213
 20
-1395.060
 30
4327.000
 70
    32
  0
VERTEX
  8
0900LEVEL
 62
13
 10
-23.485
 20
-1331.527
 30
4327.000
 70
    32
  0
VERTEX
  8
0900LEVEL
 62
13
 10
-59.653
 20
-1325.972
 30
4327.000
 70
    32
  0
VERTEX
  8
0900LEVEL
 62
13
 10
-17.787
 20
-1409.082
 30
4327.000
 70
    32
  0
VERTEX
  8
0900LEVEL
 62
13
 10
28.056
 20
-1465.855
 30
4327.000
 70
    32
  0
VERTEX
  8
0900LEVEL
 62
13
 10
72.399
 20
-1531.968
 30
4327.000
 70
    32
  0
VERTEX
  8
0900LEVEL
 62
13
 10
108.113
 20
-1592.157
 30
4327.000
 70
    32
  0
VERTEX
  8
0900LEVEL
 62
13
 10
135.277
 20
-1645.931
 30
4327.000
 70
    32
  0
VERTEX
  8
0900LEVEL
 62
13
 10
148.357
 20
-1691.646
 30
4327.000
 70
    32
  0
VERTEX
  8
0900LEVEL
 62
13
 10
187.340
 20
-1778.578
 30
4327.000
 70
    32
  0
VERTEX
  8
0900LEVEL
 62
13
 10
205.504
 20
-1839.731
 30
4327.000
 70
    32
  0
VERTEX
  8
0900LEVEL
 62
13
 10
222.030
 20
-1893.814
 30
4327.000
 70
    32
  0
VERTEX
  8
0900LEVEL
 62
13
 10
189.276
 20
-1849.731
 30
4327.000
 70
    32
  0
VERTEX
  8
0900LEVEL
 62
13
 10
167.114
 20
-1783.650
 30
4327.000
 70
    32
  0
VERTEX
  8
0900LEVEL
 62
13
 10
138.537
 20
-1705.699
 30
4327.000
 70
    32
  0
VERTEX
  8
0900LEVEL
 62
13
 10
117.854
 20
-1647.672
 30
4327.000
 70
    32
  0
VERTEX
  8
0900LEVEL
 62
13
 10
90.035
 20
-1586.985
 30
4327.000
 70
    32
  0
VERTEX
  8
0900LEVEL
 62
13
 10
40.546
 20
-1529.374
 30
4327.000
 70
    32
  0
VERTEX
  8
0900LEVEL
 62
13
 10
-19.817
 20
-1453.126
 30
4327.000
 70
    32
  0
VERTEX
  8
0900LEVEL
 62
13
 10
-60.640
 20
-1387.075
 30
4327.000
 70
    32
  0
VERTEX
  8
0900LEVEL
 62
13
 10
-48.430
 20
-1458.616
 30
4327.000
 70
    32
  0
VERTEX
  8
0900LEVEL
 62
13
 10
-24.434
 20
-1516.420
 30
4327.000
 70
    32
  0
VERTEX
  8
0900LEVEL
 62
13
 10
-28.454
 20
-1549.304
 30
4327.000
 70
    32
  0
VERTEX
  8
0900LEVEL
 62
13
 10
-79.879
 20
-1489.617
 30
4327.000
 70
    32
  0
VERTEX
  8
0900LEVEL
 62
13
 10
-123.693
 20
-1409.220
 30
4327.000
 70
    32
  0
VERTEX
  8
0900LEVEL
 62
13
 10
-165.255
 20
-1328.932
 30
4327.000
 70
    32
  0
VERTEX
  8
0900LEVEL
 62
13
 10
-222.971
 20
-1229.915
 30
4327.000
 70
    32
  0
VERTEX
  8
0900LEVEL
 62
13
 10
-263.452
 20
-1131.901
 30
4327.000
 70
    32
  0
VERTEX
  8
0900LEVEL
 62
13
 10
-310.249
 20
-1024.554
 30
4327.000
 70
    32
  0
VERTEX
  8
0900LEVEL
 62
13
 10
-360.240
 20
-930.811
 30
4327.000
 70
    32
  0
VERTEX
  8
0900LEVEL
 62
13
 10
-400.733
 20
-837.585
 30
4327.000
 70
    32
  0
VERTEX
  8
0900LEVEL
 62
13
 10
-451.129
 20
-730.668
 30
4327.000
 70
    32
  0
VERTEX
  8
0900LEVEL
 62
13
 10
-496.780
 20
-630.312
 30
4327.000
 70
    32
  0
VERTEX
  8
0900LEVEL
 62
13
 10
-560.296
 20
-512.465
 30
4327.000
 70
    32
  0
VERTEX
  8
0900LEVEL
 62
13
 10
-614.533
 20
-399.637
 30
4327.000
 70
    32
  0
VERTEX
  8
0900LEVEL
 62
13
 10
-670.398
 20
-315.791
 30
4327.000
 70
    32
  0
VERTEX
  8
0900LEVEL
 62
13
 10
-721.858
 20
-229.628
 30
4327.000
 70
    32
  0
SEQEND
  8
0900LEVEL
  0
POLYLINE
  8
0900LEVEL
 62
13
 66
     1
 70
     8
  0
VERTEX
  8
0900LEVEL
 62
13
 10
-263.245
 20
-1538.830
 30
4327.000
 70
    32
  0
VERTEX
  8
0900LEVEL
 62
13
 10
-225.583
 20
-1596.307
 30
4327.000
 70
    32
  0
VERTEX
  8
0900LEVEL
 62
13
 10
-176.083
 20
-1669.550
 30
4327.000
 70
    32
  0
VERTEX
  8
0900LEVEL
 62
13
 10
-132.226
 20
-1743.400
 30
4327.000
 70
    32
  0
VERTEX
  8
0900LEVEL
 62
13
 10
-108.382
 20
-1810.003
 30
4327.000
 70
    32
  0
VERTEX
  8
0900LEVEL
 62
13
 10
-80.581
 20
-1867.661
 30
4327.000
 70
    32
  0
VERTEX
  8
0900LEVEL
 62
13
 10
-69.322
 20
-1916.864
 30
4327.000
 70
    32
  0
VERTEX
  8
0900LEVEL
 62
13
 10
-33.274
 20
-1978.115
 30
4327.000
 70
    32
  0
VERTEX
  8
0900LEVEL
 62
13
 10
4.880
 20
-2035.671
 30
4327.000
 70
    32
  0
VERTEX
  8
0900LEVEL
 62
13
 10
18.785
 20
-2082.526
 30
4327.000
 70
    32
  0
VERTEX
  8
0900LEVEL
 62
13
 10
19.364
 20
-2138.586
 30
4327.000
 70
    32
  0
VERTEX
  8
0900LEVEL
 62
13
 10
37.492
 20
-2193.683
 30
4327.000
 70
    32
  0
VERTEX
  8
0900LEVEL
 62
13
 10
75.809
 20
-2258.071
 30
4327.000
 70
    32
  0
VERTEX
  8
0900LEVEL
 62
13
 10
103.877
 20
-2312.495
 30
4327.000
 70
    32
  0
VERTEX
  8
0900LEVEL
 62
13
 10
78.759
 20
-2327.621
 30
4327.000
 70
    32
  0
VERTEX
  8
0900LEVEL
 62
13
 10
34.851
 20
-2293.344
 30
4327.000
 70
    32
  0
VERTEX
  8
0900LEVEL
 62
13
 10
-18.268
 20
-2237.923
 30
4327.000
 70
    32
  0
VERTEX
  8
0900LEVEL
 62
13
 10
-74.456
 20
-2168.648
 30
4327.000
 70
    32
  0
VERTEX
  8
0900LEVEL
 62
13
 10
-134.790
 20
-2111.060
 30
4327.000
 70
    32
  0
VERTEX
  8
0900LEVEL
 62
13
 10
-192.259
 20
-2046.622
 30
4327.000
 70
    32
  0
VERTEX
  8
0900LEVEL
 62
13
 10
-238.132
 20
-1991.608
 30
4327.000
 70
    32
  0
VERTEX
  8
0900LEVEL
 62
13
 10
-288.436
 20
-1948.488
 30
4327.000
 70
    32
  0
VERTEX
  8
0900LEVEL
 62
13
 10
-336.119
 20
-1912.596
 30
4327.000
 70
    32
  0
VERTEX
  8
0900LEVEL
 62
13
 10
-379.322
 20
-1866.079
 30
4327.000
 70
    32
  0
VERTEX
  8
0900LEVEL
 62
13
 10
-423.120
 20
-1809.129
 30
4327.000
 70
    32
  0
VERTEX
  8
0900LEVEL
 62
13
 10
-467.100
 20
-1762.739
 30
4327.000
 70
    32
  0
VERTEX
  8
0900LEVEL
 62
13
 10
-437.624
 20
-1813.103
 30
4327.000
 70
    32
  0
VERTEX
  8
0900LEVEL
 62
13
 10
-403.201
 20
-1862.496
 30
4327.000
 70
    32
  0
VERTEX
  8
0900LEVEL
 62
13
 10
-369.731
 20
-1909.972
 30
4327.000
 70
    32
  0
VERTEX
  8
0900LEVEL
 62
13
 10
-407.596
 20
-1880.447
 30
4327.000
 70
    32
  0
VERTEX
  8
0900LEVEL
 62
13
 10
-459.811
 20
-1825.675
 30
4327.000
 70
    32
  0
VERTEX
  8
0900LEVEL
 62
13
 10
-484.555
 20
-1786.660
 30
4327.000
 70
    32
  0
VERTEX
  8
0900LEVEL
 62
13
 10
-524.439
 20
-1747.734
 30
4327.000
 70
    32
  0
VERTEX
  8
0900LEVEL
 62
13
 10
-498.009
 20
-1795.088
 30
4327.000
 70
    32
  0
VERTEX
  8
0900LEVEL
 62
13
 10
-534.476
 20
-1745.870
 30
4327.000
 70
    32
  0
VERTEX
  8
0900LEVEL
 62
13
 10
-589.949
 20
-1679.987
 30
4327.000
 70
    32
  0
SEQEND
  8
0900LEVEL
  0
POLYLINE
  8
0900LEVEL
 62
8
 66
     1
 70
     8
  0
VERTEX
  8
0900LEVEL
 62
8
 10
1651.573
 20
-812.920
 30
4327.000
 70
    32
  0
VERTEX
  8
0900LEVEL
 62
8
 10
1631.223
 20
-845.451
 30
4327.000
 70
    32
  0
VERTEX
  8
0900LEVEL
 62
8
 10
1614.976
 20
-872.843
 30
4327.000
 70
    32
  0
VERTEX
  8
0900LEVEL
 62
8
 10
1597.947
 20
-892.545
 30
4327.000
 70
    32
  0
VERTEX
  8
0900LEVEL
 62
8
 10
1589.052
 20
-869.436
 30
4327.000
 70
    32
  0
VERTEX
  8
0900LEVEL
 62
8
 10
1591.179
 20
-827.929
 30
4327.000
 70
    32
  0
VERTEX
  8
0900LEVEL
 62
8
 10
1596.370
 20
-792.459
 30
4327.000
 70
    32
  0
SEQEND
  8
0900LEVEL
  0
POLYLINE
  8
0900LEVEL
 62
8
 66
     1
 70
     8
  0
VERTEX
  8
0900LEVEL
 62
8
 10
1563.442
 20
-884.484
 30
4327.000
 70
    32
  0
VERTEX
  8
0900LEVEL
 62
8
 10
1546.138
 20
-850.949
 30
4327.000
 70
    32
  0
VERTEX
  8
0900LEVEL
 62
8
 10
1519.482
 20
-820.702
 30
4327.000
 70
    32
  0
VERTEX
  8
0900LEVEL
 62
8
 10
1500.663
 20
-821.714
 30
4327.000
 70
    32
  0
VERTEX
  8
0900LEVEL
 62
8
 10
1504.763
 20
-857.415
 30
4327.000
 70
    32
  0
VERTEX
  8
0900LEVEL
 62
8
 10
1511.569
 20
-887.247
 30
4327.000
 70
    32
  0
SEQEND
  8
0900LEVEL
  0
POLYLINE
  8
0900LEVEL
 62
8
 66
     1
 70
     8
  0
VERTEX
  8
0900LEVEL
 62
8
 10
1438.141
 20
-898.650
 30
4327.000
 70
    32
  0
VERTEX
  8
0900LEVEL
 62
8
 10
1416.436
 20
-875.249
 30
4327.000
 70
    32
  0
VERTEX
  8
0900LEVEL
 62
8
 10
1388.601
 20
-860.191
 30
4327.000
 70
    32
  0
VERTEX
  8
0900LEVEL
 62
8
 10
1369.658
 20
-909.083
 30
4327.000
 70
    32
  0
SEQEND
  8
0900LEVEL
  0
POLYLINE
  8
0900LEVEL
 62
8
 66
     1
 70
     8
  0
VERTEX
  8
0900LEVEL
 62
8
 10
1419.583
 20
-909.032
 30
4327.000
 70
    32
  0
VERTEX
  8
0900LEVEL
 62
8
 10
1395.020
 20
-879.878
 30
4327.000
 70
    32
  0
VERTEX
  8
0900LEVEL
 62
8
 10
1384.519
 20
-917.015
 30
4327.000
 70
    32
  0
SEQEND
  8
0900LEVEL
  0
POLYLINE
  8
0900LEVEL
 62
8
 66
     1
 70
     9
  0
VERTEX
  8
0900LEVEL
 62
8
 10
1801.271
 20
-48.628
 30
4327.000
 70
    32
  0
VERTEX
  8
0900LEVEL
 62
8
 10
1769.417
 20
-66.454
 30
4327.000
 70
    32
  0
VERTEX
  8
0900LEVEL
 62
8
 10
1773.021
 20
-73.840
 30
4327.000
 70
    32
  0
VERTEX
  8
0900LEVEL
 62
8
 10
1805.780
 20
-56.662
 30
4327.000
 70
    32
  0
SEQEND
  8
0900LEVEL
  0
POLYLINE
  8
0900LEVEL
 62
8
 66
     1
 70
     9
  0
VERTEX
  8
0900LEVEL
 62
8
 10
1816.053
 20
-57.052
 30
4327.000
 70
    32
  0
VERTEX
  8
0900LEVEL
 62
8
 10
1777.493
 20
-75.818
 30
4327.000
 70
    32
  0
VERTEX
  8
0900LEVEL
 62
8
 10
1782.190
 20
-81.110
 30
4327.000
 70
    32
  0
VERTEX
  8
0900LEVEL
 62
8
 10
1817.691
 20
-64.121
 30
4327.000
 70
    32
  0
SEQEND
  8
0900LEVEL
  0
POLYLINE
  8
0900LEVEL
 62
8
 66
     1
 70
     9
  0
VERTEX
  8
0900LEVEL
 62
8
 10
1637.653
 20
-156.979
 30
4327.000
 70
    32
  0
VERTEX
  8
0900LEVEL
 62
8
 10
1653.325
 20
-191.260
 30
4327.000
 70
    32
  0
VERTEX
  8
0900LEVEL
 62
8
 10
1647.827
 20
-195.672
 30
4327.000
 70
    32
  0
VERTEX
  8
0900LEVEL
 62
8
 10
1632.695
 20
-162.737
 30
4327.000
 70
    32
  0
SEQEND
  8
0900LEVEL
  0
POLYLINE
  8
0900LEVEL
 62
7
 66
     1
 70
     8
  0
VERTEX
  8
0900LEVEL
 62
7
 10
1975.139
 20
-425.962
 30
4327.000
 70
    32
  0
VERTEX
  8
0900LEVEL
 62
7
 10
1948.901
 20
-404.102
 30
4327.000
 70
    32
  0
VERTEX
  8
0900LEVEL
 62
7
 10
1921.418
 20
-393.134
 30
4327.000
 70
    32
  0
VERTEX
  8
0900LEVEL
 62
7
 10
1907.150
 20
-416.053
 30
4327.000
 70
    32
  0
VERTEX
  8
0900LEVEL
 62
7
 10
1891.988
 20
-453.955
 30
4327.000
 70
    32
  0
VERTEX
  8
0900LEVEL
 62
7
 10
1871.475
 20
-479.653
 30
4327.000
 70
    32
  0
VERTEX
  8
0900LEVEL
 62
7
 10
1848.730
 20
-487.850
 30
4327.000
 70
    32
  0
VERTEX
  8
0900LEVEL
 62
7
 10
1807.751
 20
-471.438
 30
4327.000
 70
    32
  0
VERTEX
  8
0900LEVEL
 62
7
 10
1780.148
 20
-447.090
 30
4327.000
 70
    32
  0
VERTEX
  8
0900LEVEL
 62
7
 10
1756.823
 20
-419.647
 30
4327.000
 70
    32
  0
VERTEX
  8
0900LEVEL
 62
7
 10
1736.545
 20
-464.290
 30
4327.000
 70
    32
  0
VERTEX
  8
0900LEVEL
 62
7
 10
1715.939
 20
-515.688
 30
4327.000
 70
    32
  0
VERTEX
  8
0900LEVEL
 62
7
 10
1702.202
 20
-572.979
 30
4327.000
 70
    32
  0
VERTEX
  8
0900LEVEL
 62
7
 10
1693.242
 20
-614.650
 30
4327.000
 70
    32
  0
VERTEX
  8
0900LEVEL
 62
7
 10
1682.401
 20
-642.910
 30
4327.000
 70
    32
  0
VERTEX
  8
0900LEVEL
 62
7
 10
1659.348
 20
-640.468
 30
4327.000
 70
    32
  0
VERTEX
  8
0900LEVEL
 62
7
 10
1639.135
 20
-620.332
 30
4327.000
 70
    32
  0
VERTEX
  8
0900LEVEL
 62
7
 10
1627.870
 20
-652.809
 30
4327.000
 70
    32
  0
VERTEX
  8
0900LEVEL
 62
7
 10
1621.841
 20
-691.926
 30
4327.000
 70
    32
  0
VERTEX
  8
0900LEVEL
 62
7
 10
1606.868
 20
-727.085
 30
4327.000
 70
    32
  0
VERTEX
  8
0900LEVEL
 62
7
 10
1595.479
 20
-787.022
 30
4327.000
 70
    32
  0
VERTEX
  8
0900LEVEL
 62
7
 10
1585.274
 20
-839.586
 30
4327.000
 70
    32
  0
VERTEX
  8
0900LEVEL
 62
7
 10
1570.460
 20
-853.341
 30
4327.000
 70
    32
  0
VERTEX
  8
0900LEVEL
 62
7
 10
1563.139
 20
-881.662
 30
4327.000
 70
    32
  0
VERTEX
  8
0900LEVEL
 62
7
 10
1566.485
 20
-928.335
 30
4327.000
 70
    32
  0
VERTEX
  8
0900LEVEL
 62
7
 10
1567.338
 20
-968.556
 30
4327.000
 70
    32
  0
VERTEX
  8
0900LEVEL
 62
7
 10
1554.160
 20
-1009.802
 30
4327.000
 70
    32
  0
VERTEX
  8
0900LEVEL
 62
7
 10
1526.712
 20
-1025.311
 30
4327.000
 70
    32
  0
VERTEX
  8
0900LEVEL
 62
7
 10
1489.072
 20
-999.098
 30
4327.000
 70
    32
  0
VERTEX
  8
0900LEVEL
 62
7
 10
1452.900
 20
-965.307
 30
4327.000
 70
    32
  0
VERTEX
  8
0900LEVEL
 62
7
 10
1420.721
 20
-949.047
 30
4327.000
 70
    32
  0
VERTEX
  8
0900LEVEL
 62
7
 10
1432.283
 20
-1001.073
 30
4327.000
 70
    32
  0
VERTEX
  8
0900LEVEL
 62
7
 10
1456.468
 20
-1056.133
 30
4327.000
 70
    32
  0
VERTEX
  8
0900LEVEL
 62
7
 10
1470.300
 20
-1111.296
 30
4327.000
 70
    32
  0
VERTEX
  8
0900LEVEL
 62
7
 10
1473.942
 20
-1173.394
 30
4327.000
 70
    32
  0
VERTEX
  8
0900LEVEL
 62
7
 10
1480.363
 20
-1241.737
 30
4327.000
 70
    32
  0
VERTEX
  8
0900LEVEL
 62
7
 10
1494.692
 20
-1304.795
 30
4327.000
 70
    32
  0
VERTEX
  8
0900LEVEL
 62
7
 10
1514.227
 20
-1376.252
 30
4327.000
 70
    32
  0
VERTEX
  8
0900LEVEL
 62
7
 10
1536.918
 20
-1448.468
 30
4327.000
 70
    32
  0
VERTEX
  8
0900LEVEL
 62
7
 10
1582.237
 20
-1527.342
 30
4327.000
 70
    32
  0
VERTEX
  8
0900LEVEL
 62
7
 10
1610.122
 20
-1592.325
 30
4327.000
 70
    32
  0
VERTEX
  8
0900LEVEL
 62
7
 10
1643.421
 20
-1645.571
 30
4327.000
 70
    32
  0
VERTEX
  8
0900LEVEL
 62
7
 10
1635.706
 20
-1676.350
 30
4327.000
 70
    32
  0
VERTEX
  8
0900LEVEL
 62
7
 10
1600.658
 20
-1638.705
 30
4327.000
 70
    32
  0
VERTEX
  8
0900LEVEL
 62
7
 10
1562.474
 20
-1582.909
 30
4327.000
 70
    32
  0
VERTEX
  8
0900LEVEL
 62
7
 10
1520.192
 20
-1540.069
 30
4327.000
 70
    32
  0
VERTEX
  8
0900LEVEL
 62
7
 10
1483.388
 20
-1530.630
 30
4327.000
 70
    32
  0
VERTEX
  8
0900LEVEL
 62
7
 10
1495.916
 20
-1579.785
 30
4327.000
 70
    32
  0
VERTEX
  8
0900LEVEL
 62
7
 10
1530.101
 20
-1630.653
 30
4327.000
 70
    32
  0
VERTEX
  8
0900LEVEL
 62
7
 10
1564.352
 20
-1706.237
 30
4327.000
 70
    32
  0
VERTEX
  8
0900LEVEL
 62
7
 10
1583.092
 20
-1774.793
 30
4327.000
 70
    32
  0
VERTEX
  8
0900LEVEL
 62
7
 10
1580.884
 20
-1837.213
 30
4327.000
 70
    32
  0
VERTEX
  8
0900LEVEL
 62
7
 10
1569.520
 20
-1887.574
 30
4327.000
 70
    32
  0
VERTEX
  8
0900LEVEL
 62
7
 10
1579.348
 20
-1929.993
 30
4327.000
 70
    32
  0
VERTEX
  8
0900LEVEL
 62
7
 10
1582.520
 20
-1954.200
 30
4327.000
 70
    32
  0
VERTEX
  8
0900LEVEL
 62
7
 10
1565.995
 20
-1969.194
 30
4327.000
 70
    32
  0
VERTEX
  8
0900LEVEL
 62
7
 10
1577.752
 20
-2005.872
 30
4327.000
 70
    32
  0
VERTEX
  8
0900LEVEL
 62
7
 10
1582.490
 20
-2025.036
 30
4327.000
 70
    32
  0
VERTEX
  8
0900LEVEL
 62
7
 10
1575.699
 20
-2039.072
 30
4327.000
 70
    32
  0
VERTEX
  8
0900LEVEL
 62
7
 10
1587.105
 20
-2071.660
 30
4327.000
 70
    32
  0
VERTEX
  8
0900LEVEL
 62
7
 10
1569.828
 20
-2077.205
 30
4327.000
 70
    32
  0
VERTEX
  8
0900LEVEL
 62
7
 10
1536.314
 20
-2056.698
 30
4327.000
 70
    32
  0
VERTEX
  8
0900LEVEL
 62
7
 10
1499.764
 20
-2048.812
 30
4327.000
 70
    32
  0
VERTEX
  8
0900LEVEL
 62
7
 10
1535.376
 20
-2098.649
 30
4327.000
 70
    32
  0
VERTEX
  8
0900LEVEL
 62
7
 10
1577.589
 20
-2157.612
 30
4327.000
 70
    32
  0
VERTEX
  8
0900LEVEL
 62
7
 10
1633.487
 20
-2219.278
 30
4327.000
 70
    32
  0
VERTEX
  8
0900LEVEL
 62
7
 10
1675.081
 20
-2277.386
 30
4327.000
 70
    32
  0
VERTEX
  8
0900LEVEL
 62
7
 10
1701.729
 20
-2340.657
 30
4327.000
 70
    32
  0
VERTEX
  8
0900LEVEL
 62
7
 10
1700.938
 20
-2365.992
 30
4327.000
 70
    32
  0
VERTEX
  8
0900LEVEL
 62
7
 10
1663.881
 20
-2334.580
 30
4327.000
 70
    32
  0
VERTEX
  8
0900LEVEL
 62
7
 10
1624.149
 20
-2286.855
 30
4327.000
 70
    32
  0
VERTEX
  8
0900LEVEL
 62
7
 10
1575.326
 20
-2231.368
 30
4327.000
 70
    32
  0
VERTEX
  8
0900LEVEL
 62
7
 10
1515.812
 20
-2167.105
 30
4327.000
 70
    32
  0
VERTEX
  8
0900LEVEL
 62
7
 10
1472.724
 20
-2126.152
 30
4327.000
 70
    32
  0
VERTEX
  8
0900LEVEL
 62
7
 10
1427.934
 20
-2102.069
 30
4327.000
 70
    32
  0
VERTEX
  8
0900LEVEL
 62
7
 10
1424.164
 20
-2128.691
 30
4327.000
 70
    32
  0
VERTEX
  8
0900LEVEL
 62
7
 10
1407.353
 20
-2143.891
 30
4327.000
 70
    32
  0
VERTEX
  8
0900LEVEL
 62
7
 10
1363.013
 20
-2126.435
 30
4327.000
 70
    32
  0
VERTEX
  8
0900LEVEL
 62
7
 10
1332.996
 20
-2074.724
 30
4327.000
 70
    32
  0
VERTEX
  8
0900LEVEL
 62
7
 10
1309.049
 20
-2018.189
 30
4327.000
 70
    32
  0
VERTEX
  8
0900LEVEL
 62
7
 10
1291.266
 20
-1959.366
 30
4327.000
 70
    32
  0
VERTEX
  8
0900LEVEL
 62
7
 10
1268.327
 20
-1893.413
 30
4327.000
 70
    32
  0
VERTEX
  8
0900LEVEL
 62
7
 10
1232.259
 20
-1849.554
 30
4327.000
 70
    32
  0
VERTEX
  8
0900LEVEL
 62
7
 10
1232.771
 20
-1901.318
 30
4327.000
 70
    32
  0
VERTEX
  8
0900LEVEL
 62
7
 10
1231.219
 20
-1970.649
 30
4327.000
 70
    32
  0
VERTEX
  8
0900LEVEL
 62
7
 10
1239.583
 20
-2028.463
 30
4327.000
 70
    32
  0
VERTEX
  8
0900LEVEL
 62
7
 10
1249.028
 20
-2068.552
 30
4327.000
 70
    32
  0
VERTEX
  8
0900LEVEL
 62
7
 10
1262.150
 20
-2128.139
 30
4327.000
 70
    32
  0
VERTEX
  8
0900LEVEL
 62
7
 10
1290.127
 20
-2187.842
 30
4327.000
 70
    32
  0
VERTEX
  8
0900LEVEL
 62
7
 10
1319.906
 20
-2241.028
 30
4327.000
 70
    32
  0
VERTEX
  8
0900LEVEL
 62
7
 10
1361.174
 20
-2285.470
 30
4327.000
 70
    32
  0
VERTEX
  8
0900LEVEL
 62
7
 10
1335.613
 20
-2301.786
 30
4327.000
 70
    32
  0
VERTEX
  8
0900LEVEL
 62
7
 10
1267.928
 20
-2274.278
 30
4327.000
 70
    32
  0
VERTEX
  8
0900LEVEL
 62
7
 10
1190.812
 20
-2250.551
 30
4327.000
 70
    32
  0
VERTEX
  8
0900LEVEL
 62
7
 10
1156.487
 20
-2203.695
 30
4327.000
 70
    32
  0
VERTEX
  8
0900LEVEL
 62
7
 10
1116.688
 20
-2151.673
 30
4327.000
 70
    32
  0
VERTEX
  8
0900LEVEL
 62
7
 10
1085.395
 20
-2133.035
 30
4327.000
 70
    32
  0
VERTEX
  8
0900LEVEL
 62
7
 10
1001.367
 20
-2109.962
 30
4327.000
 70
    32
  0
VERTEX
  8
0900LEVEL
 62
7
 10
959.649
 20
-2079.314
 30
4327.000
 70
    32
  0
VERTEX
  8
0900LEVEL
 62
7
 10
916.116
 20
-2059.971
 30
4327.000
 70
    32
  0
VERTEX
  8
0900LEVEL
 62
7
 10
906.683
 20
-2015.094
 30
4327.000
 70
    32
  0
VERTEX
  8
0900LEVEL
 62
7
 10
890.261
 20
-1950.944
 30
4327.000
 70
    32
  0
VERTEX
  8
0900LEVEL
 62
7
 10
904.531
 20
-1907.604
 30
4327.000
 70
    32
  0
VERTEX
  8
0900LEVEL
 62
7
 10
911.489
 20
-1859.561
 30
4327.000
 70
    32
  0
VERTEX
  8
0900LEVEL
 62
7
 10
865.288
 20
-1811.302
 30
4327.000
 70
    32
  0
VERTEX
  8
0900LEVEL
 62
7
 10
827.775
 20
-1785.866
 30
4327.000
 70
    32
  0
VERTEX
  8
0900LEVEL
 62
7
 10
787.809
 20
-1767.852
 30
4327.000
 70
    32
  0
VERTEX
  8
0900LEVEL
 62
7
 10
760.606
 20
-1748.862
 30
4327.000
 70
    32
  0
VERTEX
  8
0900LEVEL
 62
7
 10
736.734
 20
-1732.676
 30
4327.000
 70
    32
  0
VERTEX
  8
0900LEVEL
 62
7
 10
711.269
 20
-1682.452
 30
4327.000
 70
    32
  0
VERTEX
  8
0900LEVEL
 62
7
 10
684.678
 20
-1676.921
 30
4327.000
 70
    32
  0
VERTEX
  8
0900LEVEL
 62
7
 10
695.257
 20
-1728.789
 30
4327.000
 70
    32
  0
VERTEX
  8
0900LEVEL
 62
7
 10
726.221
 20
-1774.602
 30
4327.000
 70
    32
  0
VERTEX
  8
0900LEVEL
 62
7
 10
781.573
 20
-1827.104
 30
4327.000
 70
    32
  0
VERTEX
  8
0900LEVEL
 62
7
 10
816.553
 20
-1880.872
 30
4327.000
 70
    32
  0
VERTEX
  8
0900LEVEL
 62
7
 10
833.146
 20
-1939.252
 30
4327.000
 70
    32
  0
VERTEX
  8
0900LEVEL
 62
7
 10
849.660
 20
-1998.122
 30
4327.000
 70
    32
  0
VERTEX
  8
0900LEVEL
 62
7
 10
826.556
 20
-2014.833
 30
4327.000
 70
    32
  0
VERTEX
  8
0900LEVEL
 62
7
 10
817.761
 20
-2042.917
 30
4327.000
 70
    32
  0
VERTEX
  8
0900LEVEL
 62
7
 10
820.549
 20
-2085.214
 30
4327.000
 70
    32
  0
VERTEX
  8
0900LEVEL
 62
7
 10
860.954
 20
-2142.879
 30
4327.000
 70
    32
  0
VERTEX
  8
0900LEVEL
 62
7
 10
895.850
 20
-2189.323
 30
4327.000
 70
    32
  0
VERTEX
  8
0900LEVEL
 62
7
 10
908.566
 20
-2235.735
 30
4327.000
 70
    32
  0
VERTEX
  8
0900LEVEL
 62
7
 10
927.284
 20
-2273.027
 30
4327.000
 70
    32
  0
VERTEX
  8
0900LEVEL
 62
7
 10
879.600
 20
-2257.555
 30
4327.000
 70
    32
  0
VERTEX
  8
0900LEVEL
 62
7
 10
838.909
 20
-2200.096
 30
4327.000
 70
    32
  0
VERTEX
  8
0900LEVEL
 62
7
 10
788.078
 20
-2150.841
 30
4327.000
 70
    32
  0
VERTEX
  8
0900LEVEL
 62
7
 10
733.525
 20
-2129.476
 30
4327.000
 70
    32
  0
VERTEX
  8
0900LEVEL
 62
7
 10
702.041
 20
-2064.924
 30
4327.000
 70
    32
  0
VERTEX
  8
0900LEVEL
 62
7
 10
660.615
 20
-2021.466
 30
4327.000
 70
    32
  0
VERTEX
  8
0900LEVEL
 62
7
 10
618.296
 20
-1992.989
 30
4327.000
 70
    32
  0
VERTEX
  8
0900LEVEL
 62
7
 10
588.217
 20
-1965.218
 30
4327.000
 70
    32
  0
VERTEX
  8
0900LEVEL
 62
7
 10
604.635
 20
-2001.132
 30
4327.000
 70
    32
  0
VERTEX
  8
0900LEVEL
 62
7
 10
570.133
 20
-1972.651
 30
4327.000
 70
    32
  0
VERTEX
  8
0900LEVEL
 62
7
 10
544.291
 20
-1927.912
 30
4327.000
 70
    32
  0
VERTEX
  8
0900LEVEL
 62
7
 10
496.397
 20
-1863.499
 30
4327.000
 70
    32
  0
VERTEX
  8
0900LEVEL
 62
7
 10
454.876
 20
-1797.083
 30
4327.000
 70
    32
  0
VERTEX
  8
0900LEVEL
 62
7
 10
402.904
 20
-1748.653
 30
4327.000
 70
    32
  0
VERTEX
  8
0900LEVEL
 62
7
 10
351.048
 20
-1685.368
 30
4327.000
 70
    32
  0
VERTEX
  8
0900LEVEL
 62
7
 10
317.851
 20
-1642.474
 30
4327.000
 70
    32
  0
VERTEX
  8
0900LEVEL
 62
7
 10
294.004
 20
-1616.712
 30
4327.000
 70
    32
  0
VERTEX
  8
0900LEVEL
 62
7
 10
299.415
 20
-1645.816
 30
4327.000
 70
    32
  0
VERTEX
  8
0900LEVEL
 62
7
 10
306.780
 20
-1680.024
 30
4327.000
 70
    32
  0
VERTEX
  8
0900LEVEL
 62
7
 10
350.358
 20
-1741.476
 30
4327.000
 70
    32
  0
VERTEX
  8
0900LEVEL
 62
7
 10
382.700
 20
-1784.989
 30
4327.000
 70
    32
  0
VERTEX
  8
0900LEVEL
 62
7
 10
419.307
 20
-1830.196
 30
4327.000
 70
    32
  0
VERTEX
  8
0900LEVEL
 62
7
 10
448.959
 20
-1882.604
 30
4327.000
 70
    32
  0
VERTEX
  8
0900LEVEL
 62
7
 10
460.468
 20
-1925.545
 30
4327.000
 70
    32
  0
VERTEX
  8
0900LEVEL
 62
7
 10
478.402
 20
-1975.569
 30
4327.000
 70
    32
  0
VERTEX
  8
0900LEVEL
 62
7
 10
510.767
 20
-2029.926
 30
4327.000
 70
    32
  0
VERTEX
  8
0900LEVEL
 62
7
 10
538.649
 20
-2066.672
 30
4327.000
 70
    32
  0
VERTEX
  8
0900LEVEL
 62
7
 10
578.738
 20
-2126.303
 30
4327.000
 70
    32
  0
VERTEX
  8
0900LEVEL
 62
7
 10
611.716
 20
-2173.700
 30
4327.000
 70
    32
  0
VERTEX
  8
0900LEVEL
 62
7
 10
655.733
 20
-2226.146
 30
4327.000
 70
    32
  0
VERTEX
  8
0900LEVEL
 62
7
 10
689.572
 20
-2280.740
 30
4327.000
 70
    32
  0
VERTEX
  8
0900LEVEL
 62
7
 10
736.489
 20
-2332.392
 30
4327.000
 70
    32
  0
VERTEX
  8
0900LEVEL
 62
7
 10
776.986
 20
-2384.778
 30
4327.000
 70
    32
  0
VERTEX
  8
0900LEVEL
 62
7
 10
817.914
 20
-2420.342
 30
4327.000
 70
    32
  0
VERTEX
  8
0900LEVEL
 62
7
 10
856.281
 20
-2465.578
 30
4327.000
 70
    32
  0
VERTEX
  8
0900LEVEL
 62
7
 10
898.568
 20
-2516.234
 30
4327.000
 70
    32
  0
VERTEX
  8
0900LEVEL
 62
7
 10
932.949
 20
-2551.755
 30
4327.000
 70
    32
  0
VERTEX
  8
0900LEVEL
 62
7
 10
961.735
 20
-2589.151
 30
4327.000
 70
    32
  0
VERTEX
  8
0900LEVEL
 62
7
 10
929.349
 20
-2572.606
 30
4327.000
 70
    32
  0
VERTEX
  8
0900LEVEL
 62
7
 10
903.068
 20
-2557.294
 30
4327.000
 70
    32
  0
VERTEX
  8
0900LEVEL
 62
7
 10
940.075
 20
-2607.858
 30
4327.000
 70
    32
  0
VERTEX
  8
0900LEVEL
 62
7
 10
1001.762
 20
-2672.722
 30
4327.000
 70
    32
  0
VERTEX
  8
0900LEVEL
 62
7
 10
1053.636
 20
-2739.036
 30
4327.000
 70
    32
  0
VERTEX
  8
0900LEVEL
 62
7
 10
1090.855
 20
-2797.702
 30
4327.000
 70
    32
  0
VERTEX
  8
0900LEVEL
 62
7
 10
1145.004
 20
-2874.969
 30
4327.000
 70
    32
  0
VERTEX
  8
0900LEVEL
 62
7
 10
1190.663
 20
-2942.301
 30
4327.000
 70
    32
  0
VERTEX
  8
0900LEVEL
 62
7
 10
1239.708
 20
-3021.522
 30
4327.000
 70
    32
  0
SEQEND
  8
0900LEVEL
  0
POLYLINE
  8
0900LEVEL
 62
7
 66
     1
 70
     8
  0
VERTEX
  8
0900LEVEL
 62
7
 10
1783.169
 20
-3602.910
 30
4327.000
 70
    32
  0
VERTEX
  8
0900LEVEL
 62
7
 10
1811.632
 20
-3654.876
 30
4327.000
 70
    32
  0
VERTEX
  8
0900LEVEL
 62
7
 10
1844.736
 20
-3723.469
 30
4327.000
 70
    32
  0
VERTEX
  8
0900LEVEL
 62
7
 10
1880.250
 20
-3791.189
 30
4327.000
 70
    32
  0
VERTEX
  8
0900LEVEL
 62
7
 10
1919.451
 20
-3873.619
 30
4327.000
 70
    32
  0
VERTEX
  8
0900LEVEL
 62
7
 10
1966.245
 20
-3952.731
 30
4327.000
 70
    32
  0
VERTEX
  8
0900LEVEL
 62
7
 10
2007.225
 20
-4038.219
 30
4327.000
 70
    32
  0
VERTEX
  8
0900LEVEL
 62
7
 10
2049.533
 20
-4120.140
 30
4327.000
 70
    32
  0
VERTEX
  8
0900LEVEL
 62
7
 10
2098.512
 20
-4195.064
 30
4327.000
 70
    32
  0
VERTEX
  8
0900LEVEL
 62
7
 10
2118.382
 20
-4247.163
 30
4327.000
 70
    32
  0
VERTEX
  8
0900LEVEL
 62
7
 10
2072.142
 20
-4233.688
 30
4327.000
 70
    32
  0
VERTEX
  8
0900LEVEL
 62
7
 10
2025.727
 20
-4197.747
 30
4327.000
 70
    32
  0
VERTEX
  8
0900LEVEL
 62
7
 10
2010.809
 20
-4221.570
 30
4327.000
 70
    32
  0
VERTEX
  8
0900LEVEL
 62
7
 10
2046.947
 20
-4297.962
 30
4327.000
 70
    32
  0
VERTEX
  8
0900LEVEL
 62
7
 10
2068.425
 20
-4358.891
 30
4327.000
 70
    32
  0
VERTEX
  8
0900LEVEL
 62
7
 10
2033.698
 20
-4327.096
 30
4327.000
 70
    32
  0
VERTEX
  8
0900LEVEL
 62
7
 10
1990.162
 20
-4259.096
 30
4327.000
 70
    32
  0
VERTEX
  8
0900LEVEL
 62
7
 10
1953.373
 20
-4204.028
 30
4327.000
 70
    32
  0
VERTEX
  8
0900LEVEL
 62
7
 10
1930.352
 20
-4179.407
 30
4327.000
 70
    32
  0
VERTEX
  8
0900LEVEL
 62
7
 10
1729.635
 20
-4152.976
 30
4327.000
 70
    32
  0
VERTEX
  8
0900LEVEL
 62
7
 10
1673.931
 20
-4096.384
 30
4327.000
 70
    32
  0
VERTEX
  8
0900LEVEL
 62
7
 10
1617.373
 20
-4019.991
 30
4327.000
 70
    32
  0
VERTEX
  8
0900LEVEL
 62
7
 10
1578.457
 20
-3937.355
 30
4327.000
 70
    32
  0
VERTEX
  8
0900LEVEL
 62
7
 10
1524.538
 20
-3871.217
 30
4327.000
 70
    32
  0
VERTEX
  8
0900LEVEL
 62
7
 10
1530.141
 20
-3925.815
 30
4327.000
 70
    32
  0
VERTEX
  8
0900LEVEL
 62
7
 10
1514.423
 20
-3938.921
 30
4327.000
 70
    32
  0
VERTEX
  8
0900LEVEL
 62
7
 10
1459.783
 20
-3861.575
 30
4327.000
 70
    32
  0
VERTEX
  8
0900LEVEL
 62
7
 10
1408.972
 20
-3774.508
 30
4327.000
 70
    32
  0
VERTEX
  8
0900LEVEL
 62
7
 10
1323.139
 20
-3640.220
 30
4327.000
 70
    32
  0
VERTEX
  8
0900LEVEL
 62
7
 10
1232.779
 20
-3494.869
 30
4327.000
 70
    32
  0
VERTEX
  8
0900LEVEL
 62
7
 10
1156.793
 20
-3385.608
 30
4327.000
 70
    32
  0
VERTEX
  8
0900LEVEL
 62
7
 10
1093.902
 20
-3276.432
 30
4327.000
 70
    32
  0
VERTEX
  8
0900LEVEL
 62
7
 10
1013.911
 20
-3154.427
 30
4327.000
 70
    32
  0
VERTEX
  8
0900LEVEL
 62
7
 10
935.700
 20
-3015.060
 30
4327.000
 70
    32
  0
VERTEX
  8
0900LEVEL
 62
7
 10
841.390
 20
-2866.049
 30
4327.000
 70
    32
  0
VERTEX
  8
0900LEVEL
 62
7
 10
740.623
 20
-2711.716
 30
4327.000
 70
    32
  0
VERTEX
  8
0900LEVEL
 62
7
 10
655.245
 20
-2571.451
 30
4327.000
 70
    32
  0
VERTEX
  8
0900LEVEL
 62
7
 10
568.283
 20
-2433.200
 30
4327.000
 70
    32
  0
VERTEX
  8
0900LEVEL
 62
7
 10
467.901
 20
-2260.777
 30
4327.000
 70
    32
  0
VERTEX
  8
0900LEVEL
 62
7
 10
396.356
 20
-2155.254
 30
4327.000
 70
    32
  0
VERTEX
  8
0900LEVEL
 62
7
 10
326.747
 20
-2051.807
 30
4327.000
 70
    32
  0
VERTEX
  8
0900LEVEL
 62
7
 10
277.101
 20
-1974.759
 30
4327.000
 70
    32
  0
VERTEX
  8
0900LEVEL
 62
7
 10
239.998
 20
-1901.237
 30
4327.000
 70
    32
  0
VERTEX
  8
0900LEVEL
 62
7
 10
208.980
 20
-1935.837
 30
4327.000
 70
    32
  0
VERTEX
  8
0900LEVEL
 62
7
 10
171.149
 20
-1863.711
 30
4327.000
 70
    32
  0
VERTEX
  8
0900LEVEL
 62
7
 10
140.152
 20
-1860.498
 30
4327.000
 70
    32
  0
VERTEX
  8
0900LEVEL
 62
7
 10
110.564
 20
-1832.806
 30
4327.000
 70
    32
  0
VERTEX
  8
0900LEVEL
 62
7
 10
96.670
 20
-1801.583
 30
4327.000
 70
    32
  0
VERTEX
  8
0900LEVEL
 62
7
 10
80.544
 20
-1752.859
 30
4327.000
 70
    32
  0
VERTEX
  8
0900LEVEL
 62
7
 10
77.198
 20
-1706.186
 30
4327.000
 70
    32
  0
VERTEX
  8
0900LEVEL
 62
7
 10
57.837
 20
-1657.194
 30
4327.000
 70
    32
  0
VERTEX
  8
0900LEVEL
 62
7
 10
39.534
 20
-1669.130
 30
4327.000
 70
    32
  0
VERTEX
  8
0900LEVEL
 62
7
 10
55.569
 20
-1723.134
 30
4327.000
 70
    32
  0
VERTEX
  8
0900LEVEL
 62
7
 10
69.687
 20
-1757.670
 30
4327.000
 70
    32
  0
VERTEX
  8
0900LEVEL
 62
7
 10
82.409
 20
-1811.898
 30
4327.000
 70
    32
  0
VERTEX
  8
0900LEVEL
 62
7
 10
93.930
 20
-1850.051
 30
4327.000
 70
    32
  0
VERTEX
  8
0900LEVEL
 62
7
 10
78.260
 20
-1864.426
 30
4327.000
 70
    32
  0
VERTEX
  8
0900LEVEL
 62
7
 10
45.239
 20
-1823.577
 30
4327.000
 70
    32
  0
VERTEX
  8
0900LEVEL
 62
7
 10
6.918
 20
-1730.952
 30
4327.000
 70
    32
  0
VERTEX
  8
0900LEVEL
 62
7
 10
0.793
 20
-1678.035
 30
4327.000
 70
    32
  0
VERTEX
  8
0900LEVEL
 62
7
 10
-19.926
 20
-1613.951
 30
4327.000
 70
    32
  0
VERTEX
  8
0900LEVEL
 62
7
 10
-60.222
 20
-1554.035
 30
4327.000
 70
    32
  0
VERTEX
  8
0900LEVEL
 62
7
 10
-109.401
 20
-1486.642
 30
4327.000
 70
    32
  0
VERTEX
  8
0900LEVEL
 62
7
 10
-142.227
 20
-1430.446
 30
4327.000
 70
    32
  0
VERTEX
  8
0900LEVEL
 62
7
 10
-179.761
 20
-1353.325
 30
4327.000
 70
    32
  0
VERTEX
  8
0900LEVEL
 62
7
 10
-221.397
 20
-1281.345
 30
4327.000
 70
    32
  0
VERTEX
  8
0900LEVEL
 62
7
 10
-260.562
 20
-1204.971
 30
4327.000
 70
    32
  0
VERTEX
  8
0900LEVEL
 62
7
 10
-303.490
 20
-1122.195
 30
4327.000
 70
    32
  0
VERTEX
  8
0900LEVEL
 62
7
 10
-341.987
 20
-1027.525
 30
4327.000
 70
    32
  0
VERTEX
  8
0900LEVEL
 62
7
 10
-386.790
 20
-939.153
 30
4327.000
 70
    32
  0
VERTEX
  8
0900LEVEL
 62
7
 10
-424.553
 20
-850.904
 30
4327.000
 70
    32
  0
VERTEX
  8
0900LEVEL
 62
7
 10
-467.845
 20
-768.825
 30
4327.000
 70
    32
  0
VERTEX
  8
0900LEVEL
 62
7
 10
-498.836
 20
-683.932
 30
4327.000
 70
    32
  0
VERTEX
  8
0900LEVEL
 62
7
 10
-532.212
 20
-610.757
 30
4327.000
 70
    32
  0
VERTEX
  8
0900LEVEL
 62
7
 10
-589.176
 20
-521.189
 30
4327.000
 70
    32
  0
VERTEX
  8
0900LEVEL
 62
7
 10
-642.528
 20
-426.402
 30
4327.000
 70
    32
  0
VERTEX
  8
0900LEVEL
 62
7
 10
-692.531
 20
-337.448
 30
4327.000
 70
    32
  0
VERTEX
  8
0900LEVEL
 62
7
 10
-743.335
 20
-237.777
 30
4327.000
 70
    32
  0
SEQEND
  8
0900LEVEL
  0
POLYLINE
  8
0900LEVEL
 62
7
 66
     1
 70
     8
  0
VERTEX
  8
0900LEVEL
 62
7
 10
-242.424
 20
-1523.770
 30
4327.000
 70
    32
  0
VERTEX
  8
0900LEVEL
 62
7
 10
-200.908
 20
-1582.370
 30
4327.000
 70
    32
  0
VERTEX
  8
0900LEVEL
 62
7
 10
-164.072
 20
-1659.126
 30
4327.000
 70
    32
  0
VERTEX
  8
0900LEVEL
 62
7
 10
-126.835
 20
-1720.820
 30
4327.000
 70
    32
  0
VERTEX
  8
0900LEVEL
 62
7
 10
-98.941
 20
-1752.778
 30
4327.000
 70
    32
  0
VERTEX
  8
0900LEVEL
 62
7
 10
-76.649
 20
-1799.215
 30
4327.000
 70
    32
  0
VERTEX
  8
0900LEVEL
 62
7
 10
-65.851
 20
-1846.580
 30
4327.000
 70
    32
  0
VERTEX
  8
0900LEVEL
 62
7
 10
-63.894
 20
-1879.920
 30
4327.000
 70
    32
  0
VERTEX
  8
0900LEVEL
 62
7
 10
-40.298
 20
-1932.365
 30
4327.000
 70
    32
  0
VERTEX
  8
0900LEVEL
 62
7
 10
-5.979
 20
-1991.826
 30
4327.000
 70
    32
  0
VERTEX
  8
0900LEVEL
 62
7
 10
24.888
 20
-2035.102
 30
4327.000
 70
    32
  0
VERTEX
  8
0900LEVEL
 62
7
 10
46.650
 20
-2095.824
 30
4327.000
 70
    32
  0
VERTEX
  8
0900LEVEL
 62
7
 10
66.532
 20
-2163.555
 30
4327.000
 70
    32
  0
VERTEX
  8
0900LEVEL
 62
7
 10
93.337
 20
-2225.843
 30
4327.000
 70
    32
  0
VERTEX
  8
0900LEVEL
 62
7
 10
150.040
 20
-2306.041
 30
4327.000
 70
    32
  0
VERTEX
  8
0900LEVEL
 62
7
 10
197.161
 20
-2398.819
 30
4327.000
 70
    32
  0
VERTEX
  8
0900LEVEL
 62
7
 10
240.440
 20
-2485.685
 30
4327.000
 70
    32
  0
VERTEX
  8
0900LEVEL
 62
7
 10
298.193
 20
-2570.338
 30
4327.000
 70
    32
  0
VERTEX
  8
0900LEVEL
 62
7
 10
363.645
 20
-2669.840
 30
4327.000
 70
    32
  0
VERTEX
  8
0900LEVEL
 62
7
 10
425.056
 20
-2770.963
 30
4327.000
 70
    32
  0
VERTEX
  8
0900LEVEL
 62
7
 10
483.038
 20
-2866.745
 30
4327.000
 70
    32
  0
VERTEX
  8
0900LEVEL
 62
7
 10
523.340
 20
-2934.477
 30
4327.000
 70
    32
  0
VERTEX
  8
0900LEVEL
 62
7
 10
551.444
 20
-2994.957
 30
4327.000
 70
    32
  0
VERTEX
  8
0900LEVEL
 62
7
 10
534.936
 20
-3012.979
 30
4327.000
 70
    32
  0
VERTEX
  8
0900LEVEL
 62
7
 10
491.769
 20
-2972.518
 30
4327.000
 70
    32
  0
VERTEX
  8
0900LEVEL
 62
7
 10
438.887
 20
-2915.622
 30
4327.000
 70
    32
  0
VERTEX
  8
0900LEVEL
 62
7
 10
395.059
 20
-2860.433
 30
4327.000
 70
    32
  0
VERTEX
  8
0900LEVEL
 62
7
 10
342.597
 20
-2791.504
 30
4327.000
 70
    32
  0
VERTEX
  8
0900LEVEL
 62
7
 10
286.494
 20
-2709.133
 30
4327.000
 70
    32
  0
VERTEX
  8
0900LEVEL
 62
7
 10
242.953
 20
-2633.318
 30
4327.000
 70
    32
  0
VERTEX
  8
0900LEVEL
 62
7
 10
174.671
 20
-2567.143
 30
4327.000
 70
    32
  0
VERTEX
  8
0900LEVEL
 62
7
 10
124.757
 20
-2493.329
 30
4327.000
 70
    32
  0
VERTEX
  8
0900LEVEL
 62
7
 10
49.298
 20
-2390.203
 30
4327.000
 70
    32
  0
VERTEX
  8
0900LEVEL
 62
7
 10
0.047
 20
-2310.697
 30
4327.000
 70
    32
  0
VERTEX
  8
0900LEVEL
 62
7
 10
-71.045
 20
-2240.037
 30
4327.000
 70
    32
  0
VERTEX
  8
0900LEVEL
 62
7
 10
-132.852
 20
-2161.792
 30
4327.000
 70
    32
  0
VERTEX
  8
0900LEVEL
 62
7
 10
-178.045
 20
-2104.115
 30
4327.000
 70
    32
  0
VERTEX
  8
0900LEVEL
 62
7
 10
-220.574
 20
-2047.117
 30
4327.000
 70
    32
  0
VERTEX
  8
0900LEVEL
 62
7
 10
-258.893
 20
-2003.149
 30
4327.000
 70
    32
  0
VERTEX
  8
0900LEVEL
 62
7
 10
-291.817
 20
-1964.836
 30
4327.000
 70
    32
  0
VERTEX
  8
0900LEVEL
 62
7
 10
-322.910
 20
-1938.667
 30
4327.000
 70
    32
  0
VERTEX
  8
0900LEVEL
 62
7
 10
-319.252
 20
-1955.137
 30
4327.000
 70
    32
  0
VERTEX
  8
0900LEVEL
 62
7
 10
-290.010
 20
-1986.555
 30
4327.000
 70
    32
  0
VERTEX
  8
0900LEVEL
 62
7
 10
-253.306
 20
-2034.298
 30
4327.000
 70
    32
  0
VERTEX
  8
0900LEVEL
 62
7
 10
-221.293
 20
-2084.565
 30
4327.000
 70
    32
  0
VERTEX
  8
0900LEVEL
 62
7
 10
-195.894
 20
-2130.493
 30
4327.000
 70
    32
  0
VERTEX
  8
0900LEVEL
 62
7
 10
-212.547
 20
-2144.710
 30
4327.000
 70
    32
  0
VERTEX
  8
0900LEVEL
 62
7
 10
-254.034
 20
-2104.771
 30
4327.000
 70
    32
  0
VERTEX
  8
0900LEVEL
 62
7
 10
-288.438
 20
-2058.405
 30
4327.000
 70
    32
  0
VERTEX
  8
0900LEVEL
 62
7
 10
-319.206
 20
-1997.246
 30
4327.000
 70
    32
  0
VERTEX
  8
0900LEVEL
 62
7
 10
-348.799
 20
-1961.737
 30
4327.000
 70
    32
  0
VERTEX
  8
0900LEVEL
 62
7
 10
-381.724
 20
-1923.425
 30
4327.000
 70
    32
  0
VERTEX
  8
0900LEVEL
 62
7
 10
-413.866
 20
-1892.801
 30
4327.000
 70
    32
  0
VERTEX
  8
0900LEVEL
 62
7
 10
-391.172
 20
-1924.177
 30
4327.000
 70
    32
  0
VERTEX
  8
0900LEVEL
 62
7
 10
-355.451
 20
-1971.762
 30
4327.000
 70
    32
  0
VERTEX
  8
0900LEVEL
 62
7
 10
-318.808
 20
-2023.024
 30
4327.000
 70
    32
  0
VERTEX
  8
0900LEVEL
 62
7
 10
-295.237
 20
-2085.045
 30
4327.000
 70
    32
  0
VERTEX
  8
0900LEVEL
 62
7
 10
-331.298
 20
-2049.002
 30
4327.000
 70
    32
  0
VERTEX
  8
0900LEVEL
 62
7
 10
-362.128
 20
-1991.362
 30
4327.000
 70
    32
  0
VERTEX
  8
0900LEVEL
 62
7
 10
-397.278
 20
-1943.365
 30
4327.000
 70
    32
  0
VERTEX
  8
0900LEVEL
 62
7
 10
-437.612
 20
-1897.812
 30
4327.000
 70
    32
  0
VERTEX
  8
0900LEVEL
 62
7
 10
-484.631
 20
-1835.808
 30
4327.000
 70
    32
  0
VERTEX
  8
0900LEVEL
 62
7
 10
-535.152
 20
-1776.770
 30
4327.000
 70
    32
  0
VERTEX
  8
0900LEVEL
 62
7
 10
-566.923
 20
-1732.845
 30
4327.000
 70
    32
  0
VERTEX
  8
0900LEVEL
 62
7
 10
-597.117
 20
-1699.509
 30
4327.000
 70
    32
  0
SEQEND
  8
0900LEVEL
  0
POLYLINE
  8
0900LEVEL
 62
7
 66
     1
 70
     8
  0
VERTEX
  8
0900LEVEL
 62
7
 10
-1537.566
 20
-1593.375
 30
4327.000
 70
    32
  0
VERTEX
  8
0900LEVEL
 62
7
 10
-1520.328
 20
-1622.613
 30
4327.000
 70
    32
  0
VERTEX
  8
0900LEVEL
 62
7
 10
-1511.817
 20
-1663.812
 30
4327.000
 70
    32
  0
VERTEX
  8
0900LEVEL
 62
7
 10
-1521.371
 20
-1695.052
 30
4327.000
 70
    32
  0
VERTEX
  8
0900LEVEL
 62
7
 10
-1517.774
 20
-1715.041
 30
4327.000
 70
    32
  0
VERTEX
  8
0900LEVEL
 62
7
 10
-1492.142
 20
-1731.258
 30
4327.000
 70
    32
  0
VERTEX
  8
0900LEVEL
 62
7
 10
-1462.004
 20
-1775.930
 30
4327.000
 70
    32
  0
VERTEX
  8
0900LEVEL
 62
7
 10
-1423.504
 20
-1829.760
 30
4327.000
 70
    32
  0
VERTEX
  8
0900LEVEL
 62
7
 10
-1377.685
 20
-1875.689
 30
4327.000
 70
    32
  0
VERTEX
  8
0900LEVEL
 62
7
 10
-1326.988
 20
-1936.771
 30
4327.000
 70
    32
  0
VERTEX
  8
0900LEVEL
 62
7
 10
-1282.292
 20
-1986.554
 30
4327.000
 70
    32
  0
VERTEX
  8
0900LEVEL
 62
7
 10
-1240.283
 20
-2024.812
 30
4327.000
 70
    32
  0
VERTEX
  8
0900LEVEL
 62
7
 10
-1209.051
 20
-2046.970
 30
4327.000
 70
    32
  0
VERTEX
  8
0900LEVEL
 62
7
 10
-1181.313
 20
-2059.491
 30
4327.000
 70
    32
  0
VERTEX
  8
0900LEVEL
 62
7
 10
-1143.857
 20
-2116.683
 30
4327.000
 70
    32
  0
VERTEX
  8
0900LEVEL
 62
7
 10
-1112.949
 20
-2173.831
 30
4327.000
 70
    32
  0
VERTEX
  8
0900LEVEL
 62
7
 10
-1073.873
 20
-2235.064
 30
4327.000
 70
    32
  0
VERTEX
  8
0900LEVEL
 62
7
 10
-1025.537
 20
-2298.289
 30
4327.000
 70
    32
  0
VERTEX
  8
0900LEVEL
 62
7
 10
-990.314
 20
-2358.399
 30
4327.000
 70
    32
  0
VERTEX
  8
0900LEVEL
 62
7
 10
-965.844
 20
-2413.253
 30
4327.000
 70
    32
  0
VERTEX
  8
0900LEVEL
 62
7
 10
-941.391
 20
-2444.659
 30
4327.000
 70
    32
  0
VERTEX
  8
0900LEVEL
 62
7
 10
-935.446
 20
-2467.295
 30
4327.000
 70
    32
  0
VERTEX
  8
0900LEVEL
 62
7
 10
-968.626
 20
-2447.849
 30
4327.000
 70
    32
  0
VERTEX
  8
0900LEVEL
 62
7
 10
-1013.900
 20
-2411.083
 30
4327.000
 70
    32
  0
VERTEX
  8
0900LEVEL
 62
7
 10
-1046.690
 20
-2360.943
 30
4327.000
 70
    32
  0
VERTEX
  8
0900LEVEL
 62
7
 10
-1090.699
 20
-2295.893
 30
4327.000
 70
    32
  0
VERTEX
  8
0900LEVEL
 62
7
 10
-1122.354
 20
-2237.112
 30
4327.000
 70
    32
  0
VERTEX
  8
0900LEVEL
 62
7
 10
-1164.106
 20
-2179.987
 30
4327.000
 70
    32
  0
VERTEX
  8
0900LEVEL
 62
7
 10
-1198.203
 20
-2164.680
 30
4327.000
 70
    32
  0
VERTEX
  8
0900LEVEL
 62
7
 10
-1174.345
 20
-2206.074
 30
4327.000
 70
    32
  0
VERTEX
  8
0900LEVEL
 62
7
 10
-1141.064
 20
-2256.293
 30
4327.000
 70
    32
  0
VERTEX
  8
0900LEVEL
 62
7
 10
-1109.890
 20
-2330.627
 30
4327.000
 70
    32
  0
VERTEX
  8
0900LEVEL
 62
7
 10
-1078.121
 20
-2394.973
 30
4327.000
 70
    32
  0
VERTEX
  8
0900LEVEL
 62
7
 10
-1051.600
 20
-2457.467
 30
4327.000
 70
    32
  0
VERTEX
  8
0900LEVEL
 62
7
 10
-1034.163
 20
-2499.595
 30
4327.000
 70
    32
  0
VERTEX
  8
0900LEVEL
 62
7
 10
-1003.404
 20
-2524.703
 30
4327.000
 70
    32
  0
VERTEX
  8
0900LEVEL
 62
7
 10
-976.525
 20
-2578.683
 30
4327.000
 70
    32
  0
VERTEX
  8
0900LEVEL
 62
7
 10
-943.705
 20
-2627.063
 30
4327.000
 70
    32
  0
VERTEX
  8
0900LEVEL
 62
7
 10
-926.585
 20
-2691.577
 30
4327.000
 70
    32
  0
VERTEX
  8
0900LEVEL
 62
7
 10
-908.286
 20
-2740.903
 30
4327.000
 70
    32
  0
VERTEX
  8
0900LEVEL
 62
7
 10
-908.689
 20
-2776.385
 30
4327.000
 70
    32
  0
VERTEX
  8
0900LEVEL
 62
7
 10
-929.264
 20
-2736.526
 30
4327.000
 70
    32
  0
VERTEX
  8
0900LEVEL
 62
7
 10
-950.774
 20
-2697.777
 30
4327.000
 70
    32
  0
VERTEX
  8
0900LEVEL
 62
7
 10
-977.064
 20
-2646.413
 30
4327.000
 70
    32
  0
VERTEX
  8
0900LEVEL
 62
7
 10
-992.826
 20
-2596.990
 30
4327.000
 70
    32
  0
VERTEX
  8
0900LEVEL
 62
7
 10
-1020.015
 20
-2552.792
 30
4327.000
 70
    32
  0
VERTEX
  8
0900LEVEL
 62
7
 10
-1054.348
 20
-2518.539
 30
4327.000
 70
    32
  0
VERTEX
  8
0900LEVEL
 62
7
 10
-1074.977
 20
-2469.596
 30
4327.000
 70
    32
  0
VERTEX
  8
0900LEVEL
 62
7
 10
-1096.838
 20
-2426.758
 30
4327.000
 70
    32
  0
VERTEX
  8
0900LEVEL
 62
7
 10
-1126.608
 20
-2409.624
 30
4327.000
 70
    32
  0
VERTEX
  8
0900LEVEL
 62
7
 10
-1138.547
 20
-2432.161
 30
4327.000
 70
    32
  0
VERTEX
  8
0900LEVEL
 62
7
 10
-1169.742
 20
-2395.639
 30
4327.000
 70
    32
  0
VERTEX
  8
0900LEVEL
 62
7
 10
-1211.034
 20
-2360.773
 30
4327.000
 70
    32
  0
VERTEX
  8
0900LEVEL
 62
7
 10
-1256.848
 20
-2322.660
 30
4327.000
 70
    32
  0
VERTEX
  8
0900LEVEL
 62
7
 10
-1303.959
 20
-2265.935
 30
4327.000
 70
    32
  0
VERTEX
  8
0900LEVEL
 62
7
 10
-1360.007
 20
-2192.649
 30
4327.000
 70
    32
  0
SEQEND
  8
0900LEVEL
  0
POLYLINE
  8
0900LEVEL
 62
7
 66
     1
 70
     8
  0
VERTEX
  8
0900LEVEL
 62
7
 10
-1341.485
 20
-2176.211
 30
4327.000
 70
    32
  0
VERTEX
  8
0900LEVEL
 62
7
 10
-1299.645
 20
-2199.820
 30
4327.000
 70
    32
  0
VERTEX
  8
0900LEVEL
 62
7
 10
-1260.780
 20
-2232.532
 30
4327.000
 70
    32
  0
VERTEX
  8
0900LEVEL
 62
7
 10
-1230.645
 20
-2248.967
 30
4327.000
 70
    32
  0
VERTEX
  8
0900LEVEL
 62
7
 10
-1246.359
 20
-2200.814
 30
4327.000
 70
    32
  0
VERTEX
  8
0900LEVEL
 62
7
 10
-1267.976
 20
-2143.896
 30
4327.000
 70
    32
  0
VERTEX
  8
0900LEVEL
 62
7
 10
-1311.919
 20
-2083.142
 30
4327.000
 70
    32
  0
VERTEX
  8
0900LEVEL
 62
7
 10
-1362.519
 20
-2024.596
 30
4327.000
 70
    32
  0
VERTEX
  8
0900LEVEL
 62
7
 10
-1411.729
 20
-1958.963
 30
4327.000
 70
    32
  0
VERTEX
  8
0900LEVEL
 62
7
 10
-1434.681
 20
-1897.798
 30
4327.000
 70
    32
  0
VERTEX
  8
0900LEVEL
 62
7
 10
-1462.452
 20
-1838.380
 30
4327.000
 70
    32
  0
VERTEX
  8
0900LEVEL
 62
7
 10
-1512.700
 20
-1783.924
 30
4327.000
 70
    32
  0
VERTEX
  8
0900LEVEL
 62
7
 10
-1531.175
 20
-1732.554
 30
4327.000
 70
    32
  0
VERTEX
  8
0900LEVEL
 62
7
 10
-1540.304
 20
-1690.499
 30
4327.000
 70
    32
  0
VERTEX
  8
0900LEVEL
 62
7
 10
-1530.603
 20
-1642.644
 30
4327.000
 70
    32
  0
VERTEX
  8
0900LEVEL
 62
7
 10
-1537.494
 20
-1605.487
 30
4327.000
 70
    32
  0
SEQEND
  8
0900LEVEL
  0
POLYLINE
  8
0900LEVEL
 62
7
 66
     1
 70
     9
  0
VERTEX
  8
0900LEVEL
 62
7
 10
-1608.539
 20
-1625.592
 30
4327.000
 70
    32
  0
VERTEX
  8
0900LEVEL
 62
7
 10
-1615.236
 20
-1593.508
 30
4327.000
 70
    32
  0
VERTEX
  8
0900LEVEL
 62
7
 10
-1632.795
 20
-1558.419
 30
4327.000
 70
    32
  0
VERTEX
  8
0900LEVEL
 62
7
 10
-1654.550
 20
-1554.170
 30
4327.000
 70
    32
  0
VERTEX
  8
0900LEVEL
 62
7
 10
-1637.633
 20
-1577.559
 30
4327.000
 70
    32
  0
VERTEX
  8
0900LEVEL
 62
7
 10
-1628.975
 20
-1602.143
 30
4327.000
 70
    32
  0
VERTEX
  8
0900LEVEL
 62
7
 10
-1650.596
 20
-1586.066
 30
4327.000
 70
    32
  0
VERTEX
  8
0900LEVEL
 62
7
 10
-1679.492
 20
-1571.342
 30
4327.000
 70
    32
  0
VERTEX
  8
0900LEVEL
 62
7
 10
-1707.874
 20
-1567.541
 30
4327.000
 70
    32
  0
VERTEX
  8
0900LEVEL
 62
7
 10
-1683.408
 20
-1594.159
 30
4327.000
 70
    32
  0
VERTEX
  8
0900LEVEL
 62
7
 10
-1638.479
 20
-1614.230
 30
4327.000
 70
    32
  0
SEQEND
  8
0900LEVEL
  0
POLYLINE
  8
0900LEVEL
 62
7
 66
     1
 70
     9
  0
VERTEX
  8
0900LEVEL
 62
7
 10
1868.328
 20
-3023.887
 30
4327.000
 70
    32
  0
VERTEX
  8
0900LEVEL
 62
7
 10
1851.711
 20
-2975.084
 30
4327.000
 70
    32
  0
VERTEX
  8
0900LEVEL
 62
7
 10
1837.441
 20
-2928.926
 30
4327.000
 70
    32
  0
VERTEX
  8
0900LEVEL
 62
7
 10
1800.306
 20
-2877.585
 30
4327.000
 70
    32
  0
VERTEX
  8
0900LEVEL
 62
7
 10
1764.228
 20
-2818.093
 30
4327.000
 70
    32
  0
VERTEX
  8
0900LEVEL
 62
7
 10
1721.577
 20
-2768.135
 30
4327.000
 70
    32
  0
VERTEX
  8
0900LEVEL
 62
7
 10
1682.833
 20
-2728.384
 30
4327.000
 70
    32
  0
VERTEX
  8
0900LEVEL
 62
7
 10
1649.128
 20
-2751.460
 30
4327.000
 70
    32
  0
VERTEX
  8
0900LEVEL
 62
7
 10
1624.180
 20
-2760.815
 30
4327.000
 70
    32
  0
VERTEX
  8
0900LEVEL
 62
7
 10
1596.297
 20
-2744.489
 30
4327.000
 70
    32
  0
VERTEX
  8
0900LEVEL
 62
7
 10
1566.915
 20
-2717.082
 30
4327.000
 70
    32
  0
VERTEX
  8
0900LEVEL
 62
7
 10
1541.935
 20
-2679.541
 30
4327.000
 70
    32
  0
VERTEX
  8
0900LEVEL
 62
7
 10
1515.479
 20
-2641.763
 30
4327.000
 70
    32
  0
VERTEX
  8
0900LEVEL
 62
7
 10
1481.244
 20
-2610.047
 30
4327.000
 70
    32
  0
VERTEX
  8
0900LEVEL
 62
7
 10
1458.884
 20
-2579.734
 30
4327.000
 70
    32
  0
VERTEX
  8
0900LEVEL
 62
7
 10
1436.615
 20
-2544.141
 30
4327.000
 70
    32
  0
VERTEX
  8
0900LEVEL
 62
7
 10
1395.346
 20
-2520.119
 30
4327.000
 70
    32
  0
VERTEX
  8
0900LEVEL
 62
7
 10
1357.292
 20
-2513.757
 30
4327.000
 70
    32
  0
VERTEX
  8
0900LEVEL
 62
7
 10
1322.023
 20
-2501.035
 30
4327.000
 70
    32
  0
VERTEX
  8
0900LEVEL
 62
7
 10
1289.650
 20
-2479.702
 30
4327.000
 70
    32
  0
VERTEX
  8
0900LEVEL
 62
7
 10
1257.798
 20
-2456.688
 30
4327.000
 70
    32
  0
VERTEX
  8
0900LEVEL
 62
7
 10
1230.195
 20
-2432.339
 30
4327.000
 70
    32
  0
VERTEX
  8
0900LEVEL
 62
7
 10
1205.977
 20
-2419.879
 30
4327.000
 70
    32
  0
VERTEX
  8
0900LEVEL
 62
7
 10
1144.529
 20
-2402.197
 30
4327.000
 70
    32
  0
VERTEX
  8
0900LEVEL
 62
7
 10
1115.489
 20
-2363.248
 30
4327.000
 70
    32
  0
VERTEX
  8
0900LEVEL
 62
7
 10
1053.245
 20
-2294.009
 30
4327.000
 70
    32
  0
VERTEX
  8
0900LEVEL
 62
7
 10
1072.182
 20
-2326.798
 30
4327.000
 70
    32
  0
VERTEX
  8
0900LEVEL
 62
7
 10
1114.947
 20
-2382.321
 30
4327.000
 70
    32
  0
VERTEX
  8
0900LEVEL
 62
7
 10
1139.638
 20
-2412.252
 30
4327.000
 70
    32
  0
VERTEX
  8
0900LEVEL
 62
7
 10
1195.902
 20
-2432.379
 30
4327.000
 70
    32
  0
VERTEX
  8
0900LEVEL
 62
7
 10
1249.241
 20
-2462.877
 30
4327.000
 70
    32
  0
VERTEX
  8
0900LEVEL
 62
7
 10
1292.203
 20
-2503.053
 30
4327.000
 70
    32
  0
VERTEX
  8
0900LEVEL
 62
7
 10
1341.670
 20
-2529.400
 30
4327.000
 70
    32
  0
VERTEX
  8
0900LEVEL
 62
7
 10
1398.906
 20
-2554.473
 30
4327.000
 70
    32
  0
VERTEX
  8
0900LEVEL
 62
7
 10
1439.768
 20
-2585.740
 30
4327.000
 70
    32
  0
VERTEX
  8
0900LEVEL
 62
7
 10
1470.179
 20
-2634.994
 30
4327.000
 70
    32
  0
VERTEX
  8
0900LEVEL
 62
7
 10
1504.801
 20
-2697.276
 30
4327.000
 70
    32
  0
VERTEX
  8
0900LEVEL
 62
7
 10
1538.787
 20
-2735.255
 30
4327.000
 70
    32
  0
VERTEX
  8
0900LEVEL
 62
7
 10
1565.194
 20
-2771.764
 30
4327.000
 70
    32
  0
VERTEX
  8
0900LEVEL
 62
7
 10
1617.295
 20
-2800.551
 30
4327.000
 70
    32
  0
VERTEX
  8
0900LEVEL
 62
7
 10
1665.665
 20
-2821.175
 30
4327.000
 70
    32
  0
VERTEX
  8
0900LEVEL
 62
7
 10
1704.402
 20
-2873.530
 30
4327.000
 70
    32
  0
VERTEX
  8
0900LEVEL
 62
7
 10
1745.627
 20
-2924.520
 30
4327.000
 70
    32
  0
VERTEX
  8
0900LEVEL
 62
7
 10
1795.147
 20
-2980.371
 30
4327.000
 70
    32
  0
VERTEX
  8
0900LEVEL
 62
7
 10
1841.561
 20
-3016.312
 30
4327.000
 70
    32
  0
SEQEND
  8
0900LEVEL
  0
POLYLINE
  8
0900LEVEL
 62
7
 66
     1
 70
     9
  0
VERTEX
  8
0900LEVEL
 62
7
 10
1628.116
 20
-122.170
 30
4327.000
 70
    32
  0
VERTEX
  8
0900LEVEL
 62
7
 10
1626.391
 20
-148.616
 30
4327.000
 70
    32
  0
VERTEX
  8
0900LEVEL
 62
7
 10
1620.489
 20
-188.509
 30
4327.000
 70
    32
  0
VERTEX
  8
0900LEVEL
 62
7
 10
1614.448
 20
-232.413
 30
4327.000
 70
    32
  0
VERTEX
  8
0900LEVEL
 62
7
 10
1624.571
 20
-221.182
 30
4327.000
 70
    32
  0
VERTEX
  8
0900LEVEL
 62
7
 10
1635.346
 20
-168.205
 30
4327.000
 70
    32
  0
VERTEX
  8
0900LEVEL
 62
7
 10
1636.235
 20
-124.986
 30
4327.000
 70
    32
  0
SEQEND
  8
0900LEVEL
  0
POLYLINE
  8
0900LEVEL
 62
5
 66
     1
 70
     9
  0
VERTEX
  8
0900LEVEL
 62
5
 10
-787.612
 20
-2209.180
 30
4327.000
 70
    32
  0
VERTEX
  8
0900LEVEL
 62
5
 10
-740.926
 20
-2270.122
 30
4327.000
 70
    32
  0
VERTEX
  8
0900LEVEL
 62
5
 10
-753.597
 20
-2265.819
 30
4327.000
 70
    32
  0
VERTEX
  8
0900LEVEL
 62
5
 10
-772.116
 20
-2241.416
 30
4327.000
 70
    32
  0
VERTEX
  8
0900LEVEL
 62
5
 10
-783.063
 20
-2231.087
 30
4327.000
 70
    32
  0
VERTEX
  8
0900LEVEL
 62
5
 10
-774.471
 20
-2251.375
 30
4327.000
 70
    32
  0
VERTEX
  8
0900LEVEL
 62
5
 10
-762.870
 20
-2268.616
 30
4327.000
 70
    32
  0
VERTEX
  8
0900LEVEL
 62
5
 10
-768.750
 20
-2270.697
 30
4327.000
 70
    32
  0
VERTEX
  8
0900LEVEL
 62
5
 10
-801.036
 20
-2215.848
 30
4327.000
 70
    32
  0
SEQEND
  8
0900LEVEL
  0
POLYLINE
  8
0900LEVEL
 62
5
 66
     1
 70
     9
  0
VERTEX
  8
0900LEVEL
 62
5
 10
-500.228
 20
-2248.519
 30
4327.000
 70
    32
  0
VERTEX
  8
0900LEVEL
 62
5
 10
-506.263
 20
-2210.742
 30
4327.000
 70
    32
  0
VERTEX
  8
0900LEVEL
 62
5
 10
-509.623
 20
-2189.278
 30
4327.000
 70
    32
  0
VERTEX
  8
0900LEVEL
 62
5
 10
-534.863
 20
-2211.444
 30
4327.000
 70
    32
  0
VERTEX
  8
0900LEVEL
 62
5
 10
-549.993
 20
-2227.166
 30
4327.000
 70
    32
  0
VERTEX
  8
0900LEVEL
 62
5
 10
-556.221
 20
-2253.393
 30
4327.000
 70
    32
  0
SEQEND
  8
0900LEVEL
  0
POLYLINE
  8
0900LEVEL
 62
5
 66
     1
 70
     9
  0
VERTEX
  8
0900LEVEL
 62
5
 10
-511.794
 20
-2168.257
 30
4327.000
 70
    32
  0
VERTEX
  8
0900LEVEL
 62
5
 10
-496.846
 20
-2142.674
 30
4327.000
 70
    32
  0
VERTEX
  8
0900LEVEL
 62
5
 10
-478.142
 20
-2136.097
 30
4327.000
 70
    32
  0
VERTEX
  8
0900LEVEL
 62
5
 10
-450.344
 20
-2145.099
 30
4327.000
 70
    32
  0
VERTEX
  8
0900LEVEL
 62
5
 10
-433.999
 20
-2120.244
 30
4327.000
 70
    32
  0
VERTEX
  8
0900LEVEL
 62
5
 10
-410.119
 20
-2103.406
 30
4327.000
 70
    32
  0
VERTEX
  8
0900LEVEL
 62
5
 10
-385.740
 20
-2074.042
 30
4327.000
 70
    32
  0
VERTEX
  8
0900LEVEL
 62
5
 10
-374.819
 20
-2024.871
 30
4327.000
 70
    32
  0
VERTEX
  8
0900LEVEL
 62
5
 10
-364.069
 20
-1981.471
 30
4327.000
 70
    32
  0
VERTEX
  8
0900LEVEL
 62
5
 10
-330.878
 20
-1947.472
 30
4327.000
 70
    32
  0
VERTEX
  8
0900LEVEL
 62
5
 10
-285.577
 20
-1933.821
 30
4327.000
 70
    32
  0
VERTEX
  8
0900LEVEL
 62
5
 10
-252.990
 20
-1942.835
 30
4327.000
 70
    32
  0
VERTEX
  8
0900LEVEL
 62
5
 10
-217.565
 20
-1974.994
 30
4327.000
 70
    32
  0
VERTEX
  8
0900LEVEL
 62
5
 10
-190.456
 20
-1950.608
 30
4327.000
 70
    32
  0
VERTEX
  8
0900LEVEL
 62
5
 10
-167.689
 20
-1904.599
 30
4327.000
 70
    32
  0
VERTEX
  8
0900LEVEL
 62
5
 10
-165.329
 20
-1902.457
 30
4327.000
 70
    32
  0
VERTEX
  8
0900LEVEL
 62
5
 10
-137.977
 20
-1884.411
 30
4327.000
 70
    32
  0
VERTEX
  8
0900LEVEL
 62
5
 10
-91.559
 20
-1879.511
 30
4327.000
 70
    32
  0
VERTEX
  8
0900LEVEL
 62
5
 10
-99.882
 20
-1835.570
 30
4327.000
 70
    32
  0
VERTEX
  8
0900LEVEL
 62
5
 10
-88.082
 20
-1796.623
 30
4327.000
 70
    32
  0
VERTEX
  8
0900LEVEL
 62
5
 10
-35.668
 20
-1774.787
 30
4327.000
 70
    32
  0
VERTEX
  8
0900LEVEL
 62
5
 10
3.146
 20
-1777.994
 30
4327.000
 70
    32
  0
VERTEX
  8
0900LEVEL
 62
5
 10
13.793
 20
-1813.738
 30
4327.000
 70
    32
  0
VERTEX
  8
0900LEVEL
 62
5
 10
51.361
 20
-1827.838
 30
4327.000
 70
    32
  0
VERTEX
  8
0900LEVEL
 62
5
 10
104.474
 20
-1806.365
 30
4327.000
 70
    32
  0
VERTEX
  8
0900LEVEL
 62
5
 10
155.031
 20
-1781.962
 30
4327.000
 70
    32
  0
VERTEX
  8
0900LEVEL
 62
5
 10
205.352
 20
-1759.033
 30
4327.000
 70
    32
  0
VERTEX
  8
0900LEVEL
 62
5
 10
252.973
 20
-1729.369
 30
4327.000
 70
    32
  0
VERTEX
  8
0900LEVEL
 62
5
 10
270.969
 20
-1686.375
 30
4327.000
 70
    32
  0
VERTEX
  8
0900LEVEL
 62
5
 10
304.031
 20
-1672.020
 30
4327.000
 70
    32
  0
VERTEX
  8
0900LEVEL
 62
5
 10
355.778
 20
-1648.060
 30
4327.000
 70
    32
  0
VERTEX
  8
0900LEVEL
 62
5
 10
414.590
 20
-1614.645
 30
4327.000
 70
    32
  0
VERTEX
  8
0900LEVEL
 62
5
 10
471.702
 20
-1577.681
 30
4327.000
 70
    32
  0
VERTEX
  8
0900LEVEL
 62
5
 10
528.863
 20
-1541.985
 30
4327.000
 70
    32
  0
VERTEX
  8
0900LEVEL
 62
5
 10
566.388
 20
-1493.556
 30
4327.000
 70
    32
  0
VERTEX
  8
0900LEVEL
 62
5
 10
606.715
 20
-1462.215
 30
4327.000
 70
    32
  0
VERTEX
  8
0900LEVEL
 62
5
 10
618.551
 20
-1429.326
 30
4327.000
 70
    32
  0
VERTEX
  8
0900LEVEL
 62
5
 10
581.216
 20
-1454.592
 30
4327.000
 70
    32
  0
VERTEX
  8
0900LEVEL
 62
5
 10
541.095
 20
-1486.217
 30
4327.000
 70
    32
  0
VERTEX
  8
0900LEVEL
 62
5
 10
487.375
 20
-1522.466
 30
4327.000
 70
    32
  0
VERTEX
  8
0900LEVEL
 62
5
 10
440.045
 20
-1559.740
 30
4327.000
 70
    32
  0
VERTEX
  8
0900LEVEL
 62
5
 10
382.853
 20
-1597.196
 30
4327.000
 70
    32
  0
VERTEX
  8
0900LEVEL
 62
5
 10
325.019
 20
-1622.952
 30
4327.000
 70
    32
  0
VERTEX
  8
0900LEVEL
 62
5
 10
324.085
 20
-1624.063
 30
4327.000
 70
    32
  0
VERTEX
  8
0900LEVEL
 62
5
 10
279.576
 20
-1661.034
 30
4327.000
 70
    32
  0
VERTEX
  8
0900LEVEL
 62
5
 10
246.133
 20
-1673.059
 30
4327.000
 70
    32
  0
VERTEX
  8
0900LEVEL
 62
5
 10
209.650
 20
-1669.470
 30
4327.000
 70
    32
  0
VERTEX
  8
0900LEVEL
 62
5
 10
164.644
 20
-1698.547
 30
4327.000
 70
    32
  0
VERTEX
  8
0900LEVEL
 62
5
 10
120.500
 20
-1734.820
 30
4327.000
 70
    32
  0
VERTEX
  8
0900LEVEL
 62
5
 10
68.928
 20
-1760.825
 30
4327.000
 70
    32
  0
VERTEX
  8
0900LEVEL
 62
5
 10
24.355
 20
-1773.080
 30
4327.000
 70
    32
  0
VERTEX
  8
0900LEVEL
 62
5
 10
16.318
 20
-1728.932
 30
4327.000
 70
    32
  0
VERTEX
  8
0900LEVEL
 62
5
 10
-29.486
 20
-1726.871
 30
4327.000
 70
    32
  0
VERTEX
  8
0900LEVEL
 62
5
 10
-82.581
 20
-1751.372
 30
4327.000
 70
    32
  0
VERTEX
  8
0900LEVEL
 62
5
 10
-134.333
 20
-1767.516
 30
4327.000
 70
    32
  0
VERTEX
  8
0900LEVEL
 62
5
 10
-152.694
 20
-1811.207
 30
4327.000
 70
    32
  0
VERTEX
  8
0900LEVEL
 62
5
 10
-166.368
 20
-1844.558
 30
4327.000
 70
    32
  0
VERTEX
  8
0900LEVEL
 62
5
 10
-212.296
 20
-1869.957
 30
4327.000
 70
    32
  0
VERTEX
  8
0900LEVEL
 62
5
 10
-252.956
 20
-1900.235
 30
4327.000
 70
    32
  0
VERTEX
  8
0900LEVEL
 62
5
 10
-293.869
 20
-1888.119
 30
4327.000
 70
    32
  0
VERTEX
  8
0900LEVEL
 62
5
 10
-349.342
 20
-1911.734
 30
4327.000
 70
    32
  0
VERTEX
  8
0900LEVEL
 62
5
 10
-396.064
 20
-1934.232
 30
4327.000
 70
    32
  0
VERTEX
  8
0900LEVEL
 62
5
 10
-421.306
 20
-1976.818
 30
4327.000
 70
    32
  0
VERTEX
  8
0900LEVEL
 62
5
 10
-440.353
 20
-2035.777
 30
4327.000
 70
    32
  0
VERTEX
  8
0900LEVEL
 62
5
 10
-481.828
 20
-2080.547
 30
4327.000
 70
    32
  0
VERTEX
  8
0900LEVEL
 62
5
 10
-511.753
 20
-2113.053
 30
4327.000
 70
    32
  0
VERTEX
  8
0900LEVEL
 62
5
 10
-520.252
 20
-2156.563
 30
4327.000
 70
    32
  0
SEQEND
  8
0900LEVEL
  0
POLYLINE
  8
0900LEVEL
 62
5
 66
     1
 70
     9
  0
VERTEX
  8
0900LEVEL
 62
5
 10
768.664
 20
-2251.339
 30
4327.000
 70
    32
  0
VERTEX
  8
0900LEVEL
 62
5
 10
794.780
 20
-2280.238
 30
4327.000
 70
    32
  0
VERTEX
  8
0900LEVEL
 62
5
 10
812.800
 20
-2317.166
 30
4327.000
 70
    32
  0
VERTEX
  8
0900LEVEL
 62
5
 10
831.366
 20
-2363.257
 30
4327.000
 70
    32
  0
VERTEX
  8
0900LEVEL
 62
5
 10
851.389
 20
-2406.557
 30
4327.000
 70
    32
  0
VERTEX
  8
0900LEVEL
 62
5
 10
879.773
 20
-2459.014
 30
4327.000
 70
    32
  0
VERTEX
  8
0900LEVEL
 62
5
 10
891.895
 20
-2494.995
 30
4327.000
 70
    32
  0
VERTEX
  8
0900LEVEL
 62
5
 10
863.158
 20
-2458.867
 30
4327.000
 70
    32
  0
VERTEX
  8
0900LEVEL
 62
5
 10
835.642
 20
-2401.003
 30
4327.000
 70
    32
  0
VERTEX
  8
0900LEVEL
 62
5
 10
806.208
 20
-2344.091
 30
4327.000
 70
    32
  0
VERTEX
  8
0900LEVEL
 62
5
 10
786.028
 20
-2301.775
 30
4327.000
 70
    32
  0
VERTEX
  8
0900LEVEL
 62
5
 10
772.709
 20
-2277.955
 30
4327.000
 70
    32
  0
SEQEND
  8
0900LEVEL
  0
POLYLINE
  8
0900LEVEL
 62
5
 66
     1
 70
     9
  0
VERTEX
  8
0900LEVEL
 62
5
 10
1773.005
 20
-774.182
 30
4327.000
 70
    32
  0
VERTEX
  8
0900LEVEL
 62
5
 10
1748.477
 20
-771.504
 30
4327.000
 70
    32
  0
VERTEX
  8
0900LEVEL
 62
5
 10
1723.213
 20
-782.826
 30
4327.000
 70
    32
  0
VERTEX
  8
0900LEVEL
 62
5
 10
1690.334
 20
-786.622
 30
4327.000
 70
    32
  0
VERTEX
  8
0900LEVEL
 62
5
 10
1655.744
 20
-791.656
 30
4327.000
 70
    32
  0
VERTEX
  8
0900LEVEL
 62
5
 10
1633.776
 20
-799.726
 30
4327.000
 70
    32
  0
VERTEX
  8
0900LEVEL
 62
5
 10
1651.265
 20
-802.282
 30
4327.000
 70
    32
  0
VERTEX
  8
0900LEVEL
 62
5
 10
1683.968
 20
-796.441
 30
4327.000
 70
    32
  0
VERTEX
  8
0900LEVEL
 62
5
 10
1722.381
 20
-794.289
 30
4327.000
 70
    32
  0
VERTEX
  8
0900LEVEL
 62
5
 10
1751.376
 20
-791.130
 30
4327.000
 70
    32
  0
VERTEX
  8
0900LEVEL
 62
5
 10
1764.102
 20
-784.097
 30
4327.000
 70
    32
  0
SEQEND
  8
0900LEVEL
  0
POLYLINE
  8
0900LEVEL
 62
5
 66
     1
 70
     9
  0
VERTEX
  8
0900LEVEL
 62
5
 10
1497.240
 20
-913.686
 30
4327.000
 70
    32
  0
VERTEX
  8
0900LEVEL
 62
5
 10
1469.547
 20
-874.197
 30
4327.000
 70
    32
  0
VERTEX
  8
0900LEVEL
 62
5
 10
1444.925
 20
-828.142
 30
4327.000
 70
    32
  0
VERTEX
  8
0900LEVEL
 62
5
 10
1434.394
 20
-777.543
 30
4327.000
 70
    32
  0
VERTEX
  8
0900LEVEL
 62
5
 10
1423.572
 20
-719.334
 30
4327.000
 70
    32
  0
VERTEX
  8
0900LEVEL
 62
5
 10
1408.479
 20
-651.616
 30
4327.000
 70
    32
  0
VERTEX
  8
0900LEVEL
 62
5
 10
1395.011
 20
-595.755
 30
4327.000
 70
    32
  0
VERTEX
  8
0900LEVEL
 62
5
 10
1391.089
 20
-541.679
 30
4327.000
 70
    32
  0
VERTEX
  8
0900LEVEL
 62
5
 10
1385.662
 20
-489.126
 30
4327.000
 70
    32
  0
VERTEX
  8
0900LEVEL
 62
5
 10
1391.301
 20
-460.283
 30
4327.000
 70
    32
  0
VERTEX
  8
0900LEVEL
 62
5
 10
1388.415
 20
-435.870
 30
4327.000
 70
    32
  0
VERTEX
  8
0900LEVEL
 62
5
 10
1395.886
 20
-419.170
 30
4327.000
 70
    32
  0
VERTEX
  8
0900LEVEL
 62
5
 10
1405.685
 20
-442.929
 30
4327.000
 70
    32
  0
VERTEX
  8
0900LEVEL
 62
5
 10
1401.496
 20
-461.164
 30
4327.000
 70
    32
  0
VERTEX
  8
0900LEVEL
 62
5
 10
1402.598
 20
-495.123
 30
4327.000
 70
    32
  0
VERTEX
  8
0900LEVEL
 62
5
 10
1409.683
 20
-537.354
 30
4327.000
 70
    32
  0
VERTEX
  8
0900LEVEL
 62
5
 10
1419.371
 20
-583.784
 30
4327.000
 70
    32
  0
VERTEX
  8
0900LEVEL
 62
5
 10
1424.416
 20
-634.006
 30
4327.000
 70
    32
  0
VERTEX
  8
0900LEVEL
 62
5
 10
1439.067
 20
-682.494
 30
4327.000
 70
    32
  0
VERTEX
  8
0900LEVEL
 62
5
 10
1454.186
 20
-740.636
 30
4327.000
 70
    32
  0
VERTEX
  8
0900LEVEL
 62
5
 10
1463.782
 20
-792.346
 30
4327.000
 70
    32
  0
VERTEX
  8
0900LEVEL
 62
5
 10
1480.346
 20
-832.065
 30
4327.000
 70
    32
  0
VERTEX
  8
0900LEVEL
 62
5
 10
1495.684
 20
-865.285
 30
4327.000
 70
    32
  0
VERTEX
  8
0900LEVEL
 62
5
 10
1504.966
 20
-898.540
 30
4327.000
 70
    32
  0
SEQEND
  8
0900LEVEL
  0
POLYLINE
  8
0900LEVEL
 62
5
 66
     1
 70
     9
  0
VERTEX
  8
0900LEVEL
 62
5
 10
1606.350
 20
-2046.010
 30
4327.000
 70
    32
  0
VERTEX
  8
0900LEVEL
 62
5
 10
1572.496
 20
-2016.625
 30
4327.000
 70
    32
  0
VERTEX
  8
0900LEVEL
 62
5
 10
1531.792
 20
-1984.374
 30
4327.000
 70
    32
  0
VERTEX
  8
0900LEVEL
 62
5
 10
1489.243
 20
-1944.769
 30
4327.000
 70
    32
  0
VERTEX
  8
0900LEVEL
 62
5
 10
1446.058
 20
-1901.279
 30
4327.000
 70
    32
  0
VERTEX
  8
0900LEVEL
 62
5
 10
1403.297
 20
-1853.572
 30
4327.000
 70
    32
  0
VERTEX
  8
0900LEVEL
 62
5
 10
1362.855
 20
-1810.271
 30
4327.000
 70
    32
  0
VERTEX
  8
0900LEVEL
 62
5
 10
1318.838
 20
-1757.825
 30
4327.000
 70
    32
  0
VERTEX
  8
0900LEVEL
 62
5
 10
1290.671
 20
-1721.285
 30
4327.000
 70
    32
  0
VERTEX
  8
0900LEVEL
 62
5
 10
1277.753
 20
-1702.823
 30
4327.000
 70
    32
  0
VERTEX
  8
0900LEVEL
 62
5
 10
1272.673
 20
-1715.621
 30
4327.000
 70
    32
  0
VERTEX
  8
0900LEVEL
 62
5
 10
1302.108
 20
-1752.113
 30
4327.000
 70
    32
  0
VERTEX
  8
0900LEVEL
 62
5
 10
1325.099
 20
-1778.494
 30
4327.000
 70
    32
  0
VERTEX
  8
0900LEVEL
 62
5
 10
1354.917
 20
-1817.316
 30
4327.000
 70
    32
  0
VERTEX
  8
0900LEVEL
 62
5
 10
1391.014
 20
-1859.415
 30
4327.000
 70
    32
  0
VERTEX
  8
0900LEVEL
 62
5
 10
1434.090
 20
-1905.156
 30
4327.000
 70
    32
  0
VERTEX
  8
0900LEVEL
 62
5
 10
1476.354
 20
-1944.968
 30
4327.000
 70
    32
  0
VERTEX
  8
0900LEVEL
 62
5
 10
1514.698
 20
-1979.360
 30
4327.000
 70
    32
  0
VERTEX
  8
0900LEVEL
 62
5
 10
1565.177
 20
-2024.525
 30
4327.000
 70
    32
  0
VERTEX
  8
0900LEVEL
 62
5
 10
1601.871
 20
-2056.636
 30
4327.000
 70
    32
  0
SEQEND
  8
0900LEVEL
  0
POLYLINE
  8
0900LEVEL
 62
5
 66
     1
 70
     9
  0
VERTEX
  8
0900LEVEL
 62
5
 10
1407.869
 20
-2065.317
 30
4327.000
 70
    32
  0
VERTEX
  8
0900LEVEL
 62
5
 10
1386.627
 20
-2023.335
 30
4327.000
 70
    32
  0
VERTEX
  8
0900LEVEL
 62
5
 10
1364.093
 20
-1970.556
 30
4327.000
 70
    32
  0
VERTEX
  8
0900LEVEL
 62
5
 10
1338.894
 20
-1917.097
 30
4327.000
 70
    32
  0
VERTEX
  8
0900LEVEL
 62
5
 10
1317.787
 20
-1863.287
 30
4327.000
 70
    32
  0
VERTEX
  8
0900LEVEL
 62
5
 10
1294.124
 20
-1806.546
 30
4327.000
 70
    32
  0
VERTEX
  8
0900LEVEL
 62
5
 10
1286.179
 20
-1826.195
 30
4327.000
 70
    32
  0
VERTEX
  8
0900LEVEL
 62
5
 10
1306.280
 20
-1869.003
 30
4327.000
 70
    32
  0
VERTEX
  8
0900LEVEL
 62
5
 10
1338.753
 20
-1941.529
 30
4327.000
 70
    32
  0
VERTEX
  8
0900LEVEL
 62
5
 10
1393.426
 20
-2065.771
 30
4327.000
 70
    32
  0
SEQEND
  8
0900LEVEL
  0
POLYLINE
  8
0900LEVEL
 62
5
 66
     1
 70
     8
  0
VERTEX
  8
0900LEVEL
 62
5
 10
1098.774
 20
-864.326
 30
4327.000
 70
    32
  0
VERTEX
  8
0900LEVEL
 62
5
 10
1112.355
 20
-946.172
 30
4327.000
 70
    32
  0
VERTEX
  8
0900LEVEL
 62
5
 10
1116.918
 20
-1032.368
 30
4327.000
 70
    32
  0
VERTEX
  8
0900LEVEL
 62
5
 10
1133.624
 20
-1116.732
 30
4327.000
 70
    32
  0
VERTEX
  8
0900LEVEL
 62
5
 10
1158.548
 20
-1186.029
 30
4327.000
 70
    32
  0
VERTEX
  8
0900LEVEL
 62
5
 10
1166.237
 20
-1254.324
 30
4327.000
 70
    32
  0
VERTEX
  8
0900LEVEL
 62
5
 10
1164.897
 20
-1331.756
 30
4327.000
 70
    32
  0
VERTEX
  8
0900LEVEL
 62
5
 10
1173.994
 20
-1395.991
 30
4327.000
 70
    32
  0
VERTEX
  8
0900LEVEL
 62
5
 10
1186.374
 20
-1482.182
 30
4327.000
 70
    32
  0
VERTEX
  8
0900LEVEL
 62
5
 10
1200.975
 20
-1549.821
 30
4327.000
 70
    32
  0
VERTEX
  8
0900LEVEL
 62
5
 10
1215.783
 20
-1617.746
 30
4327.000
 70
    32
  0
VERTEX
  8
0900LEVEL
 62
5
 10
1217.443
 20
-1656.080
 30
4327.000
 70
    32
  0
VERTEX
  8
0900LEVEL
 62
5
 10
1204.035
 20
-1686.197
 30
4327.000
 70
    32
  0
VERTEX
  8
0900LEVEL
 62
5
 10
1204.777
 20
-1749.090
 30
4327.000
 70
    32
  0
VERTEX
  8
0900LEVEL
 62
5
 10
1194.027
 20
-1792.490
 30
4327.000
 70
    32
  0
VERTEX
  8
0900LEVEL
 62
5
 10
1195.351
 20
-1850.182
 30
4327.000
 70
    32
  0
VERTEX
  8
0900LEVEL
 62
5
 10
1202.296
 20
-1896.424
 30
4327.000
 70
    32
  0
VERTEX
  8
0900LEVEL
 62
5
 10
1215.376
 20
-1942.139
 30
4327.000
 70
    32
  0
VERTEX
  8
0900LEVEL
 62
5
 10
1212.388
 20
-1976.449
 30
4327.000
 70
    32
  0
VERTEX
  8
0900LEVEL
 62
5
 10
1197.165
 20
-2017.871
 30
4327.000
 70
    32
  0
VERTEX
  8
0900LEVEL
 62
5
 10
1177.033
 20
-2066.320
 30
4327.000
 70
    32
  0
VERTEX
  8
0900LEVEL
 62
5
 10
1163.180
 20
-2048.969
 30
4327.000
 70
    32
  0
VERTEX
  8
0900LEVEL
 62
5
 10
1150.588
 20
-2044.174
 30
4327.000
 70
    32
  0
VERTEX
  8
0900LEVEL
 62
5
 10
1151.884
 20
-2083.206
 30
4327.000
 70
    32
  0
VERTEX
  8
0900LEVEL
 62
5
 10
1167.160
 20
-2140.365
 30
4327.000
 70
    32
  0
VERTEX
  8
0900LEVEL
 62
5
 10
1197.116
 20
-2195.596
 30
4327.000
 70
    32
  0
VERTEX
  8
0900LEVEL
 62
5
 10
1228.003
 20
-2201.060
 30
4327.000
 70
    32
  0
VERTEX
  8
0900LEVEL
 62
5
 10
1264.282
 20
-2253.021
 30
4327.000
 70
    32
  0
VERTEX
  8
0900LEVEL
 62
5
 10
1296.518
 20
-2327.021
 30
4327.000
 70
    32
  0
VERTEX
  8
0900LEVEL
 62
5
 10
1336.226
 20
-2384.322
 30
4327.000
 70
    32
  0
VERTEX
  8
0900LEVEL
 62
5
 10
1372.256
 20
-2442.545
 30
4327.000
 70
    32
  0
VERTEX
  8
0900LEVEL
 62
5
 10
1400.530
 20
-2497.254
 30
4327.000
 70
    32
  0
VERTEX
  8
0900LEVEL
 62
5
 10
1427.462
 20
-2580.739
 30
4327.000
 70
    32
  0
VERTEX
  8
0900LEVEL
 62
5
 10
1459.143
 20
-2678.600
 30
4327.000
 70
    32
  0
VERTEX
  8
0900LEVEL
 62
5
 10
1499.339
 20
-2776.821
 30
4327.000
 70
    32
  0
VERTEX
  8
0900LEVEL
 62
5
 10
1530.698
 20
-2889.252
 30
4327.000
 70
    32
  0
VERTEX
  8
0900LEVEL
 62
5
 10
1571.927
 20
-3057.975
 30
4327.000
 70
    32
  0
VERTEX
  8
0900LEVEL
 62
5
 10
1607.326
 20
-3189.207
 30
4327.000
 70
    32
  0
VERTEX
  8
0900LEVEL
 62
5
 10
1650.909
 20
-3347.972
 30
4327.000
 70
    32
  0
VERTEX
  8
0900LEVEL
 62
5
 10
1689.536
 20
-3492.075
 30
4327.000
 70
    32
  0
VERTEX
  8
0900LEVEL
 62
5
 10
1741.937
 20
-3654.021
 30
4327.000
 70
    32
  0
VERTEX
  8
0900LEVEL
 62
5
 10
1793.718
 20
-3815.111
 30
4327.000
 70
    32
  0
VERTEX
  8
0900LEVEL
 62
5
 10
1859.305
 20
-3992.283
 30
4327.000
 70
    32
  0
VERTEX
  8
0900LEVEL
 62
5
 10
1911.257
 20
-4147.601
 30
4327.000
 70
    32
  0
VERTEX
  8
0900LEVEL
 62
5
 10
1988.719
 20
-4326.176
 30
4327.000
 70
    32
  0
SEQEND
  8
0900LEVEL
  0
POLYLINE
  8
0900LEVEL
 62
5
 66
     1
 70
     8
  0
VERTEX
  8
0900LEVEL
 62
5
 10
1080.252
 20
-880.764
 30
4327.000
 70
    32
  0
VERTEX
  8
0900LEVEL
 62
5
 10
1089.023
 20
-931.333
 30
4327.000
 70
    32
  0
VERTEX
  8
0900LEVEL
 62
5
 10
1094.996
 20
-993.049
 30
4327.000
 70
    32
  0
VERTEX
  8
0900LEVEL
 62
5
 10
1097.607
 20
-1053.721
 30
4327.000
 70
    32
  0
VERTEX
  8
0900LEVEL
 62
5
 10
1112.239
 20
-1119.601
 30
4327.000
 70
    32
  0
VERTEX
  8
0900LEVEL
 62
5
 10
1124.655
 20
-1191.427
 30
4327.000
 70
    32
  0
VERTEX
  8
0900LEVEL
 62
5
 10
1138.090
 20
-1289.888
 30
4327.000
 70
    32
  0
VERTEX
  8
0900LEVEL
 62
5
 10
1145.171
 20
-1372.959
 30
4327.000
 70
    32
  0
VERTEX
  8
0900LEVEL
 62
5
 10
1153.697
 20
-1458.027
 30
4327.000
 70
    32
  0
VERTEX
  8
0900LEVEL
 62
5
 10
1164.397
 20
-1523.275
 30
4327.000
 70
    32
  0
VERTEX
  8
0900LEVEL
 62
5
 10
1172.287
 20
-1584.039
 30
4327.000
 70
    32
  0
VERTEX
  8
0900LEVEL
 62
5
 10
1186.919
 20
-1649.918
 30
4327.000
 70
    32
  0
VERTEX
  8
0900LEVEL
 62
5
 10
1172.165
 20
-1680.575
 30
4327.000
 70
    32
  0
VERTEX
  8
0900LEVEL
 62
5
 10
1174.933
 20
-1740.264
 30
4327.000
 70
    32
  0
VERTEX
  8
0900LEVEL
 62
5
 10
1160.918
 20
-1785.157
 30
4327.000
 70
    32
  0
VERTEX
  8
0900LEVEL
 62
5
 10
1165.204
 20
-1838.535
 30
4327.000
 70
    32
  0
VERTEX
  8
0900LEVEL
 62
5
 10
1185.954
 20
-1900.859
 30
4327.000
 70
    32
  0
VERTEX
  8
0900LEVEL
 62
5
 10
1156.307
 20
-1856.266
 30
4327.000
 70
    32
  0
VERTEX
  8
0900LEVEL
 62
5
 10
1132.972
 20
-1792.771
 30
4327.000
 70
    32
  0
VERTEX
  8
0900LEVEL
 62
5
 10
1122.188
 20
-1720.198
 30
4327.000
 70
    32
  0
VERTEX
  8
0900LEVEL
 62
5
 10
1126.339
 20
-1647.250
 30
4327.000
 70
    32
  0
VERTEX
  8
0900LEVEL
 62
5
 10
1126.491
 20
-1638.451
 30
4327.000
 70
    32
  0
VERTEX
  8
0900LEVEL
 62
5
 10
1120.859
 20
-1565.192
 30
4327.000
 70
    32
  0
VERTEX
  8
0900LEVEL
 62
5
 10
1120.731
 20
-1495.339
 30
4327.000
 70
    32
  0
VERTEX
  8
0900LEVEL
 62
5
 10
1113.776
 20
-1413.045
 30
4327.000
 70
    32
  0
VERTEX
  8
0900LEVEL
 62
5
 10
1115.524
 20
-1328.366
 30
4327.000
 70
    32
  0
VERTEX
  8
0900LEVEL
 62
5
 10
1110.956
 20
-1234.354
 30
4327.000
 70
    32
  0
VERTEX
  8
0900LEVEL
 62
5
 10
1103.261
 20
-1158.244
 30
4327.000
 70
    32
  0
VERTEX
  8
0900LEVEL
 62
5
 10
1096.270
 20
-1069.893
 30
4327.000
 70
    32
  0
VERTEX
  8
0900LEVEL
 62
5
 10
1087.112
 20
-1009.178
 30
4327.000
 70
    32
  0
VERTEX
  8
0900LEVEL
 62
5
 10
1078.778
 20
-949.604
 30
4327.000
 70
    32
  0
VERTEX
  8
0900LEVEL
 62
5
 10
1067.221
 20
-905.395
 30
4327.000
 70
    32
  0
SEQEND
  8
0900LEVEL
  0
POLYLINE
  8
0900LEVEL
 62
5
 66
     1
 70
     8
  0
VERTEX
  8
0900LEVEL
 62
5
 10
1055.448
 20
-914.345
 30
4327.000
 70
    32
  0
VERTEX
  8
0900LEVEL
 62
5
 10
1067.210
 20
-979.260
 30
4327.000
 70
    32
  0
VERTEX
  8
0900LEVEL
 62
5
 10
1081.223
 20
-1044.284
 30
4327.000
 70
    32
  0
VERTEX
  8
0900LEVEL
 62
5
 10
1086.219
 20
-1093.238
 30
4327.000
 70
    32
  0
VERTEX
  8
0900LEVEL
 62
5
 10
1083.910
 20
-1145.304
 30
4327.000
 70
    32
  0
VERTEX
  8
0900LEVEL
 62
5
 10
1088.264
 20
-1182.559
 30
4327.000
 70
    32
  0
VERTEX
  8
0900LEVEL
 62
5
 10
1091.323
 20
-1249.858
 30
4327.000
 70
    32
  0
VERTEX
  8
0900LEVEL
 62
5
 10
1085.699
 20
-1322.569
 30
4327.000
 70
    32
  0
VERTEX
  8
0900LEVEL
 62
5
 10
1085.936
 20
-1390.171
 30
4327.000
 70
    32
  0
VERTEX
  8
0900LEVEL
 62
5
 10
1083.400
 20
-1459.344
 30
4327.000
 70
    32
  0
VERTEX
  8
0900LEVEL
 62
5
 10
1085.872
 20
-1524.028
 30
4327.000
 70
    32
  0
VERTEX
  8
0900LEVEL
 62
5
 10
1086.766
 20
-1578.122
 30
4327.000
 70
    32
  0
VERTEX
  8
0900LEVEL
 62
5
 10
1085.855
 20
-1659.153
 30
4327.000
 70
    32
  0
VERTEX
  8
0900LEVEL
 62
5
 10
1077.358
 20
-1592.746
 30
4327.000
 70
    32
  0
VERTEX
  8
0900LEVEL
 62
5
 10
1076.010
 20
-1524.209
 30
4327.000
 70
    32
  0
VERTEX
  8
0900LEVEL
 62
5
 10
1069.637
 20
-1457.135
 30
4327.000
 70
    32
  0
VERTEX
  8
0900LEVEL
 62
5
 10
1065.613
 20
-1392.706
 30
4327.000
 70
    32
  0
VERTEX
  8
0900LEVEL
 62
5
 10
1066.542
 20
-1383.779
 30
4327.000
 70
    32
  0
VERTEX
  8
0900LEVEL
 62
5
 10
1067.772
 20
-1329.018
 30
4327.000
 70
    32
  0
VERTEX
  8
0900LEVEL
 62
5
 10
1059.281
 20
-1270.427
 30
4327.000
 70
    32
  0
VERTEX
  8
0900LEVEL
 62
5
 10
1038.899
 20
-1235.641
 30
4327.000
 70
    32
  0
VERTEX
  8
0900LEVEL
 62
5
 10
1020.440
 20
-1228.140
 30
4327.000
 70
    32
  0
VERTEX
  8
0900LEVEL
 62
5
 10
1020.448
 20
-1284.612
 30
4327.000
 70
    32
  0
VERTEX
  8
0900LEVEL
 62
5
 10
1031.009
 20
-1333.451
 30
4327.000
 70
    32
  0
VERTEX
  8
0900LEVEL
 62
5
 10
1023.219
 20
-1392.958
 30
4327.000
 70
    32
  0
VERTEX
  8
0900LEVEL
 62
5
 10
1024.870
 20
-1464.316
 30
4327.000
 70
    32
  0
VERTEX
  8
0900LEVEL
 62
5
 10
1030.212
 20
-1529.965
 30
4327.000
 70
    32
  0
VERTEX
  8
0900LEVEL
 62
5
 10
1040.402
 20
-1592.106
 30
4327.000
 70
    32
  0
VERTEX
  8
0900LEVEL
 62
5
 10
1045.530
 20
-1670.073
 30
4327.000
 70
    32
  0
VERTEX
  8
0900LEVEL
 62
5
 10
1051.660
 20
-1730.806
 30
4327.000
 70
    32
  0
VERTEX
  8
0900LEVEL
 62
5
 10
1034.177
 20
-1736.066
 30
4327.000
 70
    32
  0
VERTEX
  8
0900LEVEL
 62
5
 10
1024.125
 20
-1690.334
 30
4327.000
 70
    32
  0
VERTEX
  8
0900LEVEL
 62
5
 10
1018.990
 20
-1624.971
 30
4327.000
 70
    32
  0
VERTEX
  8
0900LEVEL
 62
5
 10
1013.358
 20
-1551.712
 30
4327.000
 70
    32
  0
VERTEX
  8
0900LEVEL
 62
5
 10
1006.063
 20
-1480.960
 30
4327.000
 70
    32
  0
VERTEX
  8
0900LEVEL
 62
5
 10
1000.268
 20
-1400.869
 30
4327.000
 70
    32
  0
VERTEX
  8
0900LEVEL
 62
5
 10
1001.802
 20
-1328.510
 30
4327.000
 70
    32
  0
VERTEX
  8
0900LEVEL
 62
5
 10
1002.160
 20
-1250.919
 30
4327.000
 70
    32
  0
VERTEX
  8
0900LEVEL
 62
5
 10
1003.081
 20
-1185.520
 30
4327.000
 70
    32
  0
VERTEX
  8
0900LEVEL
 62
5
 10
995.914
 20
-1115.544
 30
4327.000
 70
    32
  0
VERTEX
  8
0900LEVEL
 62
5
 10
989.693
 20
-1039.671
 30
4327.000
 70
    32
  0
VERTEX
  8
0900LEVEL
 62
5
 10
983.109
 20
-964.495
 30
4327.000
 70
    32
  0
SEQEND
  8
0900LEVEL
  0
POLYLINE
  8
0900LEVEL
 62
5
 66
     1
 70
     8
  0
VERTEX
  8
0900LEVEL
 62
5
 10
967.577
 20
-995.279
 30
4327.000
 70
    32
  0
VERTEX
  8
0900LEVEL
 62
5
 10
967.470
 20
-1046.187
 30
4327.000
 70
    32
  0
VERTEX
  8
0900LEVEL
 62
5
 10
975.337
 20
-1096.106
 30
4327.000
 70
    32
  0
VERTEX
  8
0900LEVEL
 62
5
 10
974.084
 20
-1140.023
 30
4327.000
 70
    32
  0
VERTEX
  8
0900LEVEL
 62
5
 10
958.633
 20
-1149.895
 30
4327.000
 70
    32
  0
VERTEX
  8
0900LEVEL
 62
5
 10
959.466
 20
-1207.508
 30
4327.000
 70
    32
  0
VERTEX
  8
0900LEVEL
 62
5
 10
968.946
 20
-1274.073
 30
4327.000
 70
    32
  0
VERTEX
  8
0900LEVEL
 62
5
 10
968.676
 20
-1318.148
 30
4327.000
 70
    32
  0
VERTEX
  8
0900LEVEL
 62
5
 10
957.653
 20
-1356.967
 30
4327.000
 70
    32
  0
VERTEX
  8
0900LEVEL
 62
5
 10
955.318
 20
-1418.610
 30
4327.000
 70
    32
  0
VERTEX
  8
0900LEVEL
 62
5
 10
945.253
 20
-1377.665
 30
4327.000
 70
    32
  0
VERTEX
  8
0900LEVEL
 62
5
 10
935.488
 20
-1311.307
 30
4327.000
 70
    32
  0
VERTEX
  8
0900LEVEL
 62
5
 10
927.526
 20
-1238.431
 30
4327.000
 70
    32
  0
VERTEX
  8
0900LEVEL
 62
5
 10
915.043
 20
-1162.308
 30
4327.000
 70
    32
  0
VERTEX
  8
0900LEVEL
 62
5
 10
907.893
 20
-1095.360
 30
4327.000
 70
    32
  0
VERTEX
  8
0900LEVEL
 62
5
 10
900.597
 20
-1045.029
 30
4327.000
 70
    32
  0
SEQEND
  8
0900LEVEL
  0
POLYLINE
  8
0900LEVEL
 62
5
 66
     1
 70
     8
  0
VERTEX
  8
0900LEVEL
 62
5
 10
843.527
 20
-1075.445
 30
4327.000
 70
    32
  0
VERTEX
  8
0900LEVEL
 62
5
 10
853.450
 20
-1140.821
 30
4327.000
 70
    32
  0
VERTEX
  8
0900LEVEL
 62
5
 10
864.083
 20
-1201.773
 30
4327.000
 70
    32
  0
VERTEX
  8
0900LEVEL
 62
5
 10
869.364
 20
-1270.941
 30
4327.000
 70
    32
  0
VERTEX
  8
0900LEVEL
 62
5
 10
884.737
 20
-1330.637
 30
4327.000
 70
    32
  0
VERTEX
  8
0900LEVEL
 62
5
 10
906.242
 20
-1341.149
 30
4327.000
 70
    32
  0
VERTEX
  8
0900LEVEL
 62
5
 10
922.598
 20
-1401.003
 30
4327.000
 70
    32
  0
VERTEX
  8
0900LEVEL
 62
5
 10
932.681
 20
-1444.975
 30
4327.000
 70
    32
  0
VERTEX
  8
0900LEVEL
 62
5
 10
924.662
 20
-1472.932
 30
4327.000
 70
    32
  0
VERTEX
  8
0900LEVEL
 62
5
 10
922.232
 20
-1511.618
 30
4327.000
 70
    32
  0
VERTEX
  8
0900LEVEL
 62
5
 10
921.418
 20
-1526.109
 30
4327.000
 70
    32
  0
VERTEX
  8
0900LEVEL
 62
5
 10
931.638
 20
-1586.490
 30
4327.000
 70
    32
  0
VERTEX
  8
0900LEVEL
 62
5
 10
936.312
 20
-1650.015
 30
4327.000
 70
    32
  0
VERTEX
  8
0900LEVEL
 62
5
 10
950.962
 20
-1718.923
 30
4327.000
 70
    32
  0
VERTEX
  8
0900LEVEL
 62
5
 10
967.446
 20
-1779.553
 30
4327.000
 70
    32
  0
VERTEX
  8
0900LEVEL
 62
5
 10
966.338
 20
-1827.275
 30
4327.000
 70
    32
  0
VERTEX
  8
0900LEVEL
 62
5
 10
970.586
 20
-1895.017
 30
4327.000
 70
    32
  0
VERTEX
  8
0900LEVEL
 62
5
 10
974.553
 20
-1922.125
 30
4327.000
 70
    32
  0
VERTEX
  8
0900LEVEL
 62
5
 10
988.026
 20
-1985.802
 30
4327.000
 70
    32
  0
VERTEX
  8
0900LEVEL
 62
5
 10
997.058
 20
-2045.740
 30
4327.000
 70
    32
  0
VERTEX
  8
0900LEVEL
 62
5
 10
1003.199
 20
-2122.105
 30
4327.000
 70
    32
  0
VERTEX
  8
0900LEVEL
 62
5
 10
1022.935
 20
-2186.032
 30
4327.000
 70
    32
  0
VERTEX
  8
0900LEVEL
 62
5
 10
1028.217
 20
-2234.779
 30
4327.000
 70
    32
  0
VERTEX
  8
0900LEVEL
 62
5
 10
1002.516
 20
-2255.107
 30
4327.000
 70
    32
  0
VERTEX
  8
0900LEVEL
 62
5
 10
1024.910
 20
-2311.896
 30
4327.000
 70
    32
  0
VERTEX
  8
0900LEVEL
 62
5
 10
1062.897
 20
-2403.459
 30
4327.000
 70
    32
  0
VERTEX
  8
0900LEVEL
 62
5
 10
1111.322
 20
-2502.245
 30
4327.000
 70
    32
  0
VERTEX
  8
0900LEVEL
 62
5
 10
1163.180
 20
-2614.186
 30
4327.000
 70
    32
  0
VERTEX
  8
0900LEVEL
 62
5
 10
1211.712
 20
-2731.140
 30
4327.000
 70
    32
  0
VERTEX
  8
0900LEVEL
 62
5
 10
1247.504
 20
-2811.258
 30
4327.000
 70
    32
  0
VERTEX
  8
0900LEVEL
 62
5
 10
1282.465
 20
-2882.419
 30
4327.000
 70
    32
  0
VERTEX
  8
0900LEVEL
 62
5
 10
1321.169
 20
-2956.954
 30
4327.000
 70
    32
  0
VERTEX
  8
0900LEVEL
 62
5
 10
1337.543
 20
-3019.836
 30
4327.000
 70
    32
  0
VERTEX
  8
0900LEVEL
 62
5
 10
1377.302
 20
-3127.062
 30
4327.000
 70
    32
  0
VERTEX
  8
0900LEVEL
 62
5
 10
1414.577
 20
-3243.469
 30
4327.000
 70
    32
  0
VERTEX
  8
0900LEVEL
 62
5
 10
1450.834
 20
-3353.661
 30
4327.000
 70
    32
  0
VERTEX
  8
0900LEVEL
 62
5
 10
1480.695
 20
-3455.012
 30
4327.000
 70
    32
  0
VERTEX
  8
0900LEVEL
 62
5
 10
1506.587
 20
-3549.675
 30
4327.000
 70
    32
  0
VERTEX
  8
0900LEVEL
 62
5
 10
1530.792
 20
-3656.420
 30
4327.000
 70
    32
  0
VERTEX
  8
0900LEVEL
 62
5
 10
1562.098
 20
-3759.767
 30
4327.000
 70
    32
  0
VERTEX
  8
0900LEVEL
 62
5
 10
1605.630
 20
-3868.608
 30
4327.000
 70
    32
  0
VERTEX
  8
0900LEVEL
 62
5
 10
1656.348
 20
-3981.375
 30
4327.000
 70
    32
  0
VERTEX
  8
0900LEVEL
 62
5
 10
1702.510
 20
-4064.418
 30
4327.000
 70
    32
  0
VERTEX
  8
0900LEVEL
 62
5
 10
1735.108
 20
-4158.141
 30
4327.000
 70
    32
  0
VERTEX
  8
0900LEVEL
 62
5
 10
1762.659
 20
-4242.482
 30
4327.000
 70
    32
  0
VERTEX
  8
0900LEVEL
 62
5
 10
1791.181
 20
-4311.348
 30
4327.000
 70
    32
  0
SEQEND
  8
0900LEVEL
  0
POLYLINE
  8
0900LEVEL
 62
5
 66
     1
 70
     8
  0
VERTEX
  8
0900LEVEL
 62
5
 10
835.010
 20
-1115.927
 30
4327.000
 70
    32
  0
VERTEX
  8
0900LEVEL
 62
5
 10
841.899
 20
-1173.504
 30
4327.000
 70
    32
  0
VERTEX
  8
0900LEVEL
 62
5
 10
856.592
 20
-1235.864
 30
4327.000
 70
    32
  0
VERTEX
  8
0900LEVEL
 62
5
 10
845.632
 20
-1250.743
 30
4327.000
 70
    32
  0
VERTEX
  8
0900LEVEL
 62
5
 10
848.341
 20
-1293.532
 30
4327.000
 70
    32
  0
VERTEX
  8
0900LEVEL
 62
5
 10
832.785
 20
-1333.892
 30
4327.000
 70
    32
  0
VERTEX
  8
0900LEVEL
 62
5
 10
818.304
 20
-1279.633
 30
4327.000
 70
    32
  0
VERTEX
  8
0900LEVEL
 62
5
 10
816.051
 20
-1210.447
 30
4327.000
 70
    32
  0
VERTEX
  8
0900LEVEL
 62
5
 10
807.120
 20
-1112.205
 30
4327.000
 70
    32
  0
SEQEND
  8
0900LEVEL
  0
POLYLINE
  8
0900LEVEL
 62
5
 66
     1
 70
     9
  0
VERTEX
  8
0900LEVEL
 62
5
 10
963.786
 20
-1466.357
 30
4327.000
 70
    32
  0
VERTEX
  8
0900LEVEL
 62
5
 10
945.744
 20
-1467.241
 30
4327.000
 70
    32
  0
VERTEX
  8
0900LEVEL
 62
5
 10
947.040
 20
-1506.273
 30
4327.000
 70
    32
  0
VERTEX
  8
0900LEVEL
 62
5
 10
958.141
 20
-1556.460
 30
4327.000
 70
    32
  0
VERTEX
  8
0900LEVEL
 62
5
 10
969.419
 20
-1608.691
 30
4327.000
 70
    32
  0
VERTEX
  8
0900LEVEL
 62
5
 10
972.218
 20
-1666.621
 30
4327.000
 70
    32
  0
VERTEX
  8
0900LEVEL
 62
5
 10
976.334
 20
-1725.770
 30
4327.000
 70
    32
  0
VERTEX
  8
0900LEVEL
 62
5
 10
989.340
 20
-1779.792
 30
4327.000
 70
    32
  0
VERTEX
  8
0900LEVEL
 62
5
 10
1007.340
 20
-1854.532
 30
4327.000
 70
    32
  0
VERTEX
  8
0900LEVEL
 62
5
 10
1012.797
 20
-1905.324
 30
4327.000
 70
    32
  0
VERTEX
  8
0900LEVEL
 62
5
 10
1014.687
 20
-1954.788
 30
4327.000
 70
    32
  0
VERTEX
  8
0900LEVEL
 62
5
 10
1021.280
 20
-1996.940
 30
4327.000
 70
    32
  0
VERTEX
  8
0900LEVEL
 62
5
 10
1041.764
 20
-2042.078
 30
4327.000
 70
    32
  0
VERTEX
  8
0900LEVEL
 62
5
 10
1042.283
 20
-1991.741
 30
4327.000
 70
    32
  0
VERTEX
  8
0900LEVEL
 62
5
 10
1028.130
 20
-1930.728
 30
4327.000
 70
    32
  0
VERTEX
  8
0900LEVEL
 62
5
 10
1019.851
 20
-1880.238
 30
4327.000
 70
    32
  0
VERTEX
  8
0900LEVEL
 62
5
 10
1012.913
 20
-1821.392
 30
4327.000
 70
    32
  0
VERTEX
  8
0900LEVEL
 62
5
 10
1004.404
 20
-1759.773
 30
4327.000
 70
    32
  0
VERTEX
  8
0900LEVEL
 62
5
 10
989.099
 20
-1683.953
 30
4327.000
 70
    32
  0
VERTEX
  8
0900LEVEL
 62
5
 10
980.609
 20
-1604.942
 30
4327.000
 70
    32
  0
VERTEX
  8
0900LEVEL
 62
5
 10
975.996
 20
-1537.898
 30
4327.000
 70
    32
  0
VERTEX
  8
0900LEVEL
 62
5
 10
967.558
 20
-1488.391
 30
4327.000
 70
    32
  0
SEQEND
  8
0900LEVEL
  0
POLYLINE
  8
0900LEVEL
 62
5
 66
     1
 70
     9
  0
VERTEX
  8
0900LEVEL
 62
5
 10
1147.884
 20
-1940.125
 30
4327.000
 70
    32
  0
VERTEX
  8
0900LEVEL
 62
5
 10
1132.365
 20
-1966.121
 30
4327.000
 70
    32
  0
VERTEX
  8
0900LEVEL
 62
5
 10
1115.864
 20
-1971.539
 30
4327.000
 70
    32
  0
VERTEX
  8
0900LEVEL
 62
5
 10
1103.296
 20
-1977.588
 30
4327.000
 70
    32
  0
VERTEX
  8
0900LEVEL
 62
5
 10
1108.937
 20
-2017.822
 30
4327.000
 70
    32
  0
VERTEX
  8
0900LEVEL
 62
5
 10
1112.405
 20
-2057.455
 30
4327.000
 70
    32
  0
VERTEX
  8
0900LEVEL
 62
5
 10
1115.940
 20
-2101.384
 30
4327.000
 70
    32
  0
VERTEX
  8
0900LEVEL
 62
5
 10
1120.050
 20
-2152.717
 30
4327.000
 70
    32
  0
VERTEX
  8
0900LEVEL
 62
5
 10
1127.165
 20
-2193.188
 30
4327.000
 70
    32
  0
VERTEX
  8
0900LEVEL
 62
5
 10
1144.974
 20
-2222.014
 30
4327.000
 70
    32
  0
VERTEX
  8
0900LEVEL
 62
5
 10
1167.807
 20
-2249.378
 30
4327.000
 70
    32
  0
VERTEX
  8
0900LEVEL
 62
5
 10
1187.546
 20
-2272.464
 30
4327.000
 70
    32
  0
VERTEX
  8
0900LEVEL
 62
5
 10
1190.789
 20
-2239.707
 30
4327.000
 70
    32
  0
VERTEX
  8
0900LEVEL
 62
5
 10
1181.051
 20
-2212.429
 30
4327.000
 70
    32
  0
VERTEX
  8
0900LEVEL
 62
5
 10
1149.948
 20
-2170.627
 30
4327.000
 70
    32
  0
VERTEX
  8
0900LEVEL
 62
5
 10
1134.441
 20
-2122.759
 30
4327.000
 70
    32
  0
VERTEX
  8
0900LEVEL
 62
5
 10
1125.827
 20
-2071.207
 30
4327.000
 70
    32
  0
VERTEX
  8
0900LEVEL
 62
5
 10
1132.003
 20
-2015.475
 30
4327.000
 70
    32
  0
VERTEX
  8
0900LEVEL
 62
5
 10
1145.376
 20
-1958.882
 30
4327.000
 70
    32
  0
SEQEND
  8
0900LEVEL
  0
POLYLINE
  8
0900LEVEL
 62
5
 66
     1
 70
     8
  0
VERTEX
  8
0900LEVEL
 62
5
 10
1393.962
 20
-2604.100
 30
4327.000
 70
    32
  0
VERTEX
  8
0900LEVEL
 62
5
 10
1363.117
 20
-2523.011
 30
4327.000
 70
    32
  0
VERTEX
  8
0900LEVEL
 62
5
 10
1343.047
 20
-2458.023
 30
4327.000
 70
    32
  0
VERTEX
  8
0900LEVEL
 62
5
 10
1324.711
 20
-2423.062
 30
4327.000
 70
    32
  0
VERTEX
  8
0900LEVEL
 62
5
 10
1303.207
 20
-2392.130
 30
4327.000
 70
    32
  0
VERTEX
  8
0900LEVEL
 62
5
 10
1274.749
 20
-2347.980
 30
4327.000
 70
    32
  0
VERTEX
  8
0900LEVEL
 62
5
 10
1243.275
 20
-2319.480
 30
4327.000
 70
    32
  0
VERTEX
  8
0900LEVEL
 62
5
 10
1242.387
 20
-2342.279
 30
4327.000
 70
    32
  0
VERTEX
  8
0900LEVEL
 62
5
 10
1268.480
 20
-2360.335
 30
4327.000
 70
    32
  0
VERTEX
  8
0900LEVEL
 62
5
 10
1285.705
 20
-2394.361
 30
4327.000
 70
    32
  0
VERTEX
  8
0900LEVEL
 62
5
 10
1279.398
 20
-2421.080
 30
4327.000
 70
    32
  0
VERTEX
  8
0900LEVEL
 62
5
 10
1301.470
 20
-2492.440
 30
4327.000
 70
    32
  0
VERTEX
  8
0900LEVEL
 62
5
 10
1320.447
 20
-2559.522
 30
4327.000
 70
    32
  0
SEQEND
  8
0900LEVEL
  0
POLYLINE
  8
0900LEVEL
 62
5
 66
     1
 70
     8
  0
VERTEX
  8
0900LEVEL
 62
5
 10
1297.406
 20
-2552.293
 30
4327.000
 70
    32
  0
VERTEX
  8
0900LEVEL
 62
5
 10
1284.636
 20
-2496.796
 30
4327.000
 70
    32
  0
VERTEX
  8
0900LEVEL
 62
5
 10
1268.201
 20
-2437.434
 30
4327.000
 70
    32
  0
VERTEX
  8
0900LEVEL
 62
5
 10
1261.504
 20
-2405.349
 30
4327.000
 70
    32
  0
VERTEX
  8
0900LEVEL
 62
5
 10
1255.741
 20
-2372.155
 30
4327.000
 70
    32
  0
VERTEX
  8
0900LEVEL
 62
5
 10
1228.411
 20
-2352.388
 30
4327.000
 70
    32
  0
VERTEX
  8
0900LEVEL
 62
5
 10
1203.132
 20
-2319.841
 30
4327.000
 70
    32
  0
VERTEX
  8
0900LEVEL
 62
5
 10
1212.522
 20
-2371.266
 30
4327.000
 70
    32
  0
VERTEX
  8
0900LEVEL
 62
5
 10
1229.194
 20
-2429.153
 30
4327.000
 70
    32
  0
VERTEX
  8
0900LEVEL
 62
5
 10
1247.389
 20
-2488.546
 30
4327.000
 70
    32
  0
VERTEX
  8
0900LEVEL
 62
5
 10
1262.926
 20
-2534.655
 30
4327.000
 70
    32
  0
SEQEND
  8
0900LEVEL
  0
POLYLINE
  8
0900LEVEL
 62
5
 66
     1
 70
     8
  0
VERTEX
  8
0900LEVEL
 62
5
 10
1230.686
 20
-2521.915
 30
4327.000
 70
    32
  0
VERTEX
  8
0900LEVEL
 62
5
 10
1216.515
 20
-2457.874
 30
4327.000
 70
    32
  0
VERTEX
  8
0900LEVEL
 62
5
 10
1193.763
 20
-2389.178
 30
4327.000
 70
    32
  0
VERTEX
  8
0900LEVEL
 62
5
 10
1176.722
 20
-2324.172
 30
4327.000
 70
    32
  0
VERTEX
  8
0900LEVEL
 62
5
 10
1159.704
 20
-2270.010
 30
4327.000
 70
    32
  0
VERTEX
  8
0900LEVEL
 62
5
 10
1120.099
 20
-2223.062
 30
4327.000
 70
    32
  0
VERTEX
  8
0900LEVEL
 62
5
 10
1097.700
 20
-2158.456
 30
4327.000
 70
    32
  0
VERTEX
  8
0900LEVEL
 62
5
 10
1086.684
 20
-2095.174
 30
4327.000
 70
    32
  0
VERTEX
  8
0900LEVEL
 62
5
 10
1078.975
 20
-2044.272
 30
4327.000
 70
    32
  0
VERTEX
  8
0900LEVEL
 62
5
 10
1061.485
 20
-2062.136
 30
4327.000
 70
    32
  0
VERTEX
  8
0900LEVEL
 62
5
 10
1070.941
 20
-2117.857
 30
4327.000
 70
    32
  0
VERTEX
  8
0900LEVEL
 62
5
 10
1101.701
 20
-2212.041
 30
4327.000
 70
    32
  0
VERTEX
  8
0900LEVEL
 62
5
 10
1120.085
 20
-2248.270
 30
4327.000
 70
    32
  0
VERTEX
  8
0900LEVEL
 62
5
 10
1129.204
 20
-2274.693
 30
4327.000
 70
    32
  0
VERTEX
  8
0900LEVEL
 62
5
 10
1136.023
 20
-2299.738
 30
4327.000
 70
    32
  0
VERTEX
  8
0900LEVEL
 62
5
 10
1165.593
 20
-2324.402
 30
4327.000
 70
    32
  0
VERTEX
  8
0900LEVEL
 62
5
 10
1175.784
 20
-2366.123
 30
4327.000
 70
    32
  0
VERTEX
  8
0900LEVEL
 62
5
 10
1195.623
 20
-2440.402
 30
4327.000
 70
    32
  0
VERTEX
  8
0900LEVEL
 62
5
 10
1220.435
 20
-2532.370
 30
4327.000
 70
    32
  0
SEQEND
  8
0900LEVEL
  0
POLYLINE
  8
0900LEVEL
 62
5
 66
     1
 70
     8
  0
VERTEX
  8
0900LEVEL
 62
5
 10
1169.366
 20
-2505.010
 30
4327.000
 70
    32
  0
VERTEX
  8
0900LEVEL
 62
5
 10
1145.122
 20
-2433.049
 30
4327.000
 70
    32
  0
VERTEX
  8
0900LEVEL
 62
5
 10
1130.325
 20
-2380.757
 30
4327.000
 70
    32
  0
VERTEX
  8
0900LEVEL
 62
5
 10
1101.345
 20
-2338.288
 30
4327.000
 70
    32
  0
VERTEX
  8
0900LEVEL
 62
5
 10
1110.668
 20
-2316.339
 30
4327.000
 70
    32
  0
VERTEX
  8
0900LEVEL
 62
5
 10
1114.408
 20
-2291.477
 30
4327.000
 70
    32
  0
VERTEX
  8
0900LEVEL
 62
5
 10
1088.608
 20
-2260.611
 30
4327.000
 70
    32
  0
VERTEX
  8
0900LEVEL
 62
5
 10
1066.596
 20
-2206.152
 30
4327.000
 70
    32
  0
VERTEX
  8
0900LEVEL
 62
5
 10
1056.492
 20
-2199.991
 30
4327.000
 70
    32
  0
VERTEX
  8
0900LEVEL
 62
5
 10
1068.984
 20
-2243.090
 30
4327.000
 70
    32
  0
VERTEX
  8
0900LEVEL
 62
5
 10
1079.122
 20
-2275.727
 30
4327.000
 70
    32
  0
VERTEX
  8
0900LEVEL
 62
5
 10
1058.758
 20
-2243.969
 30
4327.000
 70
    32
  0
VERTEX
  8
0900LEVEL
 62
5
 10
1046.834
 20
-2241.298
 30
4327.000
 70
    32
  0
VERTEX
  8
0900LEVEL
 62
5
 10
1041.031
 20
-2263.308
 30
4327.000
 70
    32
  0
VERTEX
  8
0900LEVEL
 62
5
 10
1047.054
 20
-2305.872
 30
4327.000
 70
    32
  0
VERTEX
  8
0900LEVEL
 62
5
 10
1076.918
 20
-2366.383
 30
4327.000
 70
    32
  0
VERTEX
  8
0900LEVEL
 62
5
 10
1109.706
 20
-2436.942
 30
4327.000
 70
    32
  0
VERTEX
  8
0900LEVEL
 62
5
 10
1145.480
 20
-2514.032
 30
4327.000
 70
    32
  0
SEQEND
  8
0900LEVEL
  0
POLYLINE
  8
0900LEVEL
 62
3
 66
     1
 70
     8
  0
VERTEX
  8
0900LEVEL
 62
3
 10
1239.708
 20
-3021.522
 30
4327.000
 70
    32
  0
VERTEX
  8
0900LEVEL
 62
3
 10
1260.168
 20
-3055.816
 30
4327.000
 70
    32
  0
VERTEX
  8
0900LEVEL
 62
3
 10
1290.634
 20
-3114.154
 30
4327.000
 70
    32
  0
VERTEX
  8
0900LEVEL
 62
3
 10
1330.292
 20
-3170.186
 30
4327.000
 70
    32
  0
VERTEX
  8
0900LEVEL
 62
3
 10
1367.020
 20
-3228.773
 30
4327.000
 70
    32
  0
VERTEX
  8
0900LEVEL
 62
3
 10
1411.666
 20
-3297.708
 30
4327.000
 70
    32
  0
VERTEX
  8
0900LEVEL
 62
3
 10
1437.557
 20
-3343.714
 30
4327.000
 70
    32
  0
VERTEX
  8
0900LEVEL
 62
3
 10
1469.516
 20
-3384.897
 30
4327.000
 70
    32
  0
VERTEX
  8
0900LEVEL
 62
3
 10
1670.900
 20
-3413.452
 30
4327.000
 70
    32
  0
VERTEX
  8
0900LEVEL
 62
3
 10
1706.512
 20
-3463.288
 30
4327.000
 70
    32
  0
VERTEX
  8
0900LEVEL
 62
3
 10
1744.987
 20
-3526.694
 30
4327.000
 70
    32
  0
VERTEX
  8
0900LEVEL
 62
3
 10
1762.139
 20
-3569.028
 30
4327.000
 70
    32
  0
VERTEX
  8
0900LEVEL
 62
3
 10
1783.169
 20
-3602.910
 30
4327.000
 70
    32
  0
SEQEND
  8
0900LEVEL
  0
POLYLINE
  8
0900LEVEL
 62
3
 66
     1
 70
     8
  0
VERTEX
  8
0900LEVEL
 62
3
 10
-1537.566
 20
-1593.375
 30
4327.000
 70
    32
  0
VERTEX
  8
0900LEVEL
 62
3
 10
-1547.645
 20
-1577.638
 30
4327.000
 70
    32
  0
VERTEX
  8
0900LEVEL
 62
3
 10
-1563.451
 20
-1555.184
 30
4327.000
 70
    32
  0
VERTEX
  8
0900LEVEL
 62
3
 10
-1582.711
 20
-1536.965
 30
4327.000
 70
    32
  0
SEQEND
  8
0900LEVEL
  0
ENDSEC
  0
EOF
