999
********************************
999
*   DXF File - Entities Only   *
999
*        3D Data Format        *
999
*     Output from ENVISAGE     *
999
*     31-Dec-2007 13:59:48     *
999
********************************
  0
SECTION 
  2
HEADER
  9
$ACADVER
  1
AC1009
  9
$EXTMIN
 10
-290000.000
 20
-250000.000
 30
-4000.000
  9
$EXTMAX
 10
320000.000
 20
160000.000
 30
6000.000
  0
ENDSEC
  0
SECTION
  2
ENTITIES
  0
POLYLINE
  8
E14LALIFT
 62
2
 66
     1
 70
     9
  0
VERTEX
  8
E14LALIFT
 62
2
 10
-1195.272
 20
143.220
 30
3866.000
 70
    32
  0
VERTEX
  8
E14LALIFT
 62
2
 10
-1194.413
 20
150.117
 30
3866.000
 70
    32
  0
VERTEX
  8
E14LALIFT
 62
2
 10
-1197.711
 20
161.384
 30
3866.000
 70
    32
  0
VERTEX
  8
E14LALIFT
 62
2
 10
-1199.897
 20
169.300
 30
3866.000
 70
    32
  0
VERTEX
  8
E14LALIFT
 62
2
 10
-1203.454
 20
172.822
 30
3866.592
 70
    32
  0
VERTEX
  8
E14LALIFT
 62
2
 10
-1210.979
 20
171.671
 30
3866.592
 70
    32
  0
VERTEX
  8
E14LALIFT
 62
2
 10
-1218.604
 20
181.441
 30
3866.592
 70
    32
  0
VERTEX
  8
E14LALIFT
 62
2
 10
-1230.974
 20
197.076
 30
3866.592
 70
    32
  0
VERTEX
  8
E14LALIFT
 62
2
 10
-1236.995
 20
199.380
 30
3867.000
 70
    32
  0
VERTEX
  8
E14LALIFT
 62
2
 10
-1239.962
 20
197.230
 30
3867.000
 70
    32
  0
VERTEX
  8
E14LALIFT
 62
2
 10
-1242.732
 20
186.601
 30
3867.000
 70
    32
  0
VERTEX
  8
E14LALIFT
 62
2
 10
-1253.233
 20
190.891
 30
3867.000
 70
    32
  0
VERTEX
  8
E14LALIFT
 62
2
 10
-1252.208
 20
199.028
 30
3867.000
 70
    32
  0
VERTEX
  8
E14LALIFT
 62
2
 10
-1247.753
 20
218.322
 30
3867.000
 70
    32
  0
VERTEX
  8
E14LALIFT
 62
2
 10
-1249.882
 20
223.316
 30
3867.000
 70
    32
  0
VERTEX
  8
E14LALIFT
 62
2
 10
-1252.116
 20
233.442
 30
3867.000
 70
    32
  0
VERTEX
  8
E14LALIFT
 62
2
 10
-1240.050
 20
243.721
 30
3867.000
 70
    32
  0
VERTEX
  8
E14LALIFT
 62
2
 10
-1236.467
 20
251.323
 30
3867.000
 70
    32
  0
VERTEX
  8
E14LALIFT
 62
2
 10
-1234.573
 20
255.773
 30
3867.485
 70
    32
  0
VERTEX
  8
E14LALIFT
 62
2
 10
-1226.848
 20
272.195
 30
3867.485
 70
    32
  0
VERTEX
  8
E14LALIFT
 62
2
 10
-1227.573
 20
276.621
 30
3867.485
 70
    32
  0
VERTEX
  8
E14LALIFT
 62
2
 10
-1221.984
 20
283.488
 30
3867.485
 70
    32
  0
VERTEX
  8
E14LALIFT
 62
2
 10
-1218.923
 20
292.963
 30
3867.485
 70
    32
  0
VERTEX
  8
E14LALIFT
 62
2
 10
-1215.325
 20
301.749
 30
3867.485
 70
    32
  0
VERTEX
  8
E14LALIFT
 62
2
 10
-1209.704
 20
302.817
 30
3867.485
 70
    32
  0
VERTEX
  8
E14LALIFT
 62
2
 10
-1209.232
 20
307.403
 30
3867.485
 70
    32
  0
VERTEX
  8
E14LALIFT
 62
2
 10
-1220.804
 20
320.310
 30
3867.585
 70
    32
  0
VERTEX
  8
E14LALIFT
 62
2
 10
-1215.506
 20
329.378
 30
3867.785
 70
    32
  0
VERTEX
  8
E14LALIFT
 62
2
 10
-1207.872
 20
334.750
 30
3868.485
 70
    32
  0
VERTEX
  8
E14LALIFT
 62
2
 10
-1206.746
 20
346.826
 30
3869.000
 70
    32
  0
VERTEX
  8
E14LALIFT
 62
2
 10
-1206.534
 20
360.414
 30
3869.185
 70
    32
  0
VERTEX
  8
E14LALIFT
 62
2
 10
-1206.168
 20
361.201
 30
3868.270
 70
    32
  0
VERTEX
  8
E14LALIFT
 62
2
 10
-1204.665
 20
402.193
 30
3869.391
 70
    32
  0
VERTEX
  8
E14LALIFT
 62
2
 10
-1204.954
 20
402.390
 30
3869.000
 70
    32
  0
VERTEX
  8
E14LALIFT
 62
2
 10
-1205.888
 20
402.731
 30
3869.000
 70
    32
  0
VERTEX
  8
E14LALIFT
 62
2
 10
-1207.415
 20
405.802
 30
3869.000
 70
    32
  0
VERTEX
  8
E14LALIFT
 62
2
 10
-1208.381
 20
414.208
 30
3869.000
 70
    32
  0
VERTEX
  8
E14LALIFT
 62
2
 10
-1205.297
 20
418.549
 30
3869.000
 70
    32
  0
VERTEX
  8
E14LALIFT
 62
2
 10
-1200.869
 20
419.696
 30
3869.000
 70
    32
  0
VERTEX
  8
E14LALIFT
 62
2
 10
-1198.270
 20
421.043
 30
3869.000
 70
    32
  0
VERTEX
  8
E14LALIFT
 62
2
 10
-1193.707
 20
431.948
 30
3869.000
 70
    32
  0
VERTEX
  8
E14LALIFT
 62
2
 10
-1186.240
 20
444.347
 30
3869.000
 70
    32
  0
VERTEX
  8
E14LALIFT
 62
2
 10
-1181.613
 20
443.145
 30
3869.000
 70
    32
  0
VERTEX
  8
E14LALIFT
 62
2
 10
-1180.198
 20
448.676
 30
3869.000
 70
    32
  0
VERTEX
  8
E14LALIFT
 62
2
 10
-1158.052
 20
428.417
 30
3869.000
 70
    32
  0
VERTEX
  8
E14LALIFT
 62
2
 10
-1164.565
 20
430.502
 30
3869.000
 70
    32
  0
VERTEX
  8
E14LALIFT
 62
2
 10
-1175.381
 20
430.237
 30
3869.000
 70
    32
  0
VERTEX
  8
E14LALIFT
 62
2
 10
-1179.835
 20
427.737
 30
3869.000
 70
    32
  0
VERTEX
  8
E14LALIFT
 62
2
 10
-1185.268
 20
422.282
 30
3869.000
 70
    32
  0
VERTEX
  8
E14LALIFT
 62
2
 10
-1188.266
 20
417.883
 30
3869.000
 70
    32
  0
VERTEX
  8
E14LALIFT
 62
2
 10
-1193.352
 20
409.700
 30
3869.000
 70
    32
  0
VERTEX
  8
E14LALIFT
 62
2
 10
-1193.439
 20
405.974
 30
3869.000
 70
    32
  0
VERTEX
  8
E14LALIFT
 62
2
 10
-1193.455
 20
405.721
 30
3869.397
 70
    32
  0
VERTEX
  8
E14LALIFT
 62
2
 10
-1195.278
 20
391.471
 30
3868.547
 70
    32
  0
VERTEX
  8
E14LALIFT
 62
2
 10
-1193.211
 20
362.366
 30
3868.112
 70
    32
  0
VERTEX
  8
E14LALIFT
 62
2
 10
-1192.984
 20
361.960
 30
3869.185
 70
    32
  0
VERTEX
  8
E14LALIFT
 62
2
 10
-1189.444
 20
351.315
 30
3869.000
 70
    32
  0
VERTEX
  8
E14LALIFT
 62
2
 10
-1184.255
 20
343.256
 30
3868.885
 70
    32
  0
VERTEX
  8
E14LALIFT
 62
2
 10
-1183.657
 20
334.717
 30
3868.485
 70
    32
  0
VERTEX
  8
E14LALIFT
 62
2
 10
-1190.175
 20
327.083
 30
3867.785
 70
    32
  0
VERTEX
  8
E14LALIFT
 62
2
 10
-1195.295
 20
315.804
 30
3867.485
 70
    32
  0
VERTEX
  8
E14LALIFT
 62
2
 10
-1194.037
 20
306.451
 30
3867.000
 70
    32
  0
VERTEX
  8
E14LALIFT
 62
2
 10
-1190.358
 20
296.570
 30
3867.000
 70
    32
  0
VERTEX
  8
E14LALIFT
 62
2
 10
-1184.144
 20
293.621
 30
3867.000
 70
    32
  0
VERTEX
  8
E14LALIFT
 62
2
 10
-1181.764
 20
286.148
 30
3867.000
 70
    32
  0
VERTEX
  8
E14LALIFT
 62
2
 10
-1178.941
 20
281.542
 30
3867.000
 70
    32
  0
VERTEX
  8
E14LALIFT
 62
2
 10
-1183.515
 20
274.305
 30
3867.000
 70
    32
  0
VERTEX
  8
E14LALIFT
 62
2
 10
-1186.026
 20
264.083
 30
3867.000
 70
    32
  0
VERTEX
  8
E14LALIFT
 62
2
 10
-1183.943
 20
256.190
 30
3867.000
 70
    32
  0
VERTEX
  8
E14LALIFT
 62
2
 10
-1188.589
 20
249.615
 30
3867.000
 70
    32
  0
VERTEX
  8
E14LALIFT
 62
2
 10
-1192.706
 20
246.567
 30
3867.000
 70
    32
  0
VERTEX
  8
E14LALIFT
 62
2
 10
-1200.424
 20
243.283
 30
3867.000
 70
    32
  0
VERTEX
  8
E14LALIFT
 62
2
 10
-1205.955
 20
235.817
 30
3867.000
 70
    32
  0
VERTEX
  8
E14LALIFT
 62
2
 10
-1215.356
 20
231.236
 30
3867.000
 70
    32
  0
VERTEX
  8
E14LALIFT
 62
2
 10
-1219.483
 20
221.231
 30
3867.000
 70
    32
  0
VERTEX
  8
E14LALIFT
 62
2
 10
-1218.707
 20
219.035
 30
3866.592
 70
    32
  0
VERTEX
  8
E14LALIFT
 62
2
 10
-1212.418
 20
210.511
 30
3866.592
 70
    32
  0
VERTEX
  8
E14LALIFT
 62
2
 10
-1204.469
 20
206.756
 30
3866.592
 70
    32
  0
VERTEX
  8
E14LALIFT
 62
2
 10
-1188.537
 20
185.054
 30
3866.000
 70
    32
  0
VERTEX
  8
E14LALIFT
 62
2
 10
-1185.421
 20
180.309
 30
3866.000
 70
    32
  0
VERTEX
  8
E14LALIFT
 62
2
 10
-1180.455
 20
178.168
 30
3866.000
 70
    32
  0
VERTEX
  8
E14LALIFT
 62
2
 10
-1172.736
 20
177.163
 30
3866.000
 70
    32
  0
VERTEX
  8
E14LALIFT
 62
2
 10
-1172.271
 20
172.025
 30
3866.000
 70
    32
  0
VERTEX
  8
E14LALIFT
 62
2
 10
-1167.600
 20
168.690
 30
3866.000
 70
    32
  0
SEQEND
  8
E14LALIFT
  0
POLYLINE
  8
E14LALIFT
 62
1
 66
     1
 70
     9
  0
VERTEX
  8
E14LALIFT
 62
1
 10
-1206.956
 20
292.521
 30
3882.500
 70
    32
  0
VERTEX
  8
E14LALIFT
 62
1
 10
-1188.082
 20
285.025
 30
3882.500
 70
    32
  0
VERTEX
  8
E14LALIFT
 62
1
 10
-1191.334
 20
267.755
 30
3882.500
 70
    32
  0
VERTEX
  8
E14LALIFT
 62
1
 10
-1206.626
 20
244.624
 30
3882.500
 70
    32
  0
VERTEX
  8
E14LALIFT
 62
1
 10
-1228.428
 20
213.996
 30
3882.500
 70
    32
  0
VERTEX
  8
E14LALIFT
 62
1
 10
-1244.050
 20
221.810
 30
3882.500
 70
    32
  0
VERTEX
  8
E14LALIFT
 62
1
 10
-1226.476
 20
249.510
 30
3882.500
 70
    32
  0
VERTEX
  8
E14LALIFT
 62
1
 10
-1211.836
 20
274.600
 30
3882.500
 70
    32
  0
SEQEND
  8
E14LALIFT
  0
POLYLINE
  8
E14LALIFT
 62
8
 66
     1
 70
     9
  0
VERTEX
  8
E14LALIFT
 62
8
 10
-1617.724
 20
1009.396
 30
3978.592
 70
    32
  0
VERTEX
  8
E14LALIFT
 62
8
 10
-1617.685
 20
1009.627
 30
3979.000
 70
    32
  0
VERTEX
  8
E14LALIFT
 62
8
 10
-1617.452
 20
1015.839
 30
3979.000
 70
    32
  0
VERTEX
  8
E14LALIFT
 62
8
 10
-1621.897
 20
1019.532
 30
3979.000
 70
    32
  0
VERTEX
  8
E14LALIFT
 62
8
 10
-1622.891
 20
1019.063
 30
3979.000
 70
    32
  0
VERTEX
  8
E14LALIFT
 62
8
 10
-1629.140
 20
1024.438
 30
3979.000
 70
    32
  0
VERTEX
  8
E14LALIFT
 62
8
 10
-1632.351
 20
1028.050
 30
3979.000
 70
    32
  0
VERTEX
  8
E14LALIFT
 62
8
 10
-1633.157
 20
1031.145
 30
3979.000
 70
    32
  0
VERTEX
  8
E14LALIFT
 62
8
 10
-1633.912
 20
1032.813
 30
3979.000
 70
    32
  0
VERTEX
  8
E14LALIFT
 62
8
 10
-1634.435
 20
1033.915
 30
3978.923
 70
    32
  0
VERTEX
  8
E14LALIFT
 62
8
 10
-1649.351
 20
1051.019
 30
3979.885
 70
    32
  0
VERTEX
  8
E14LALIFT
 62
8
 10
-1649.968
 20
1051.793
 30
3981.000
 70
    32
  0
VERTEX
  8
E14LALIFT
 62
8
 10
-1659.073
 20
1060.785
 30
3981.000
 70
    32
  0
VERTEX
  8
E14LALIFT
 62
8
 10
-1671.881
 20
1071.482
 30
3981.000
 70
    32
  0
VERTEX
  8
E14LALIFT
 62
8
 10
-1670.492
 20
1078.458
 30
3981.000
 70
    32
  0
VERTEX
  8
E14LALIFT
 62
8
 10
-1677.900
 20
1091.635
 30
3981.000
 70
    32
  0
VERTEX
  8
E14LALIFT
 62
8
 10
-1685.770
 20
1102.177
 30
3981.000
 70
    32
  0
VERTEX
  8
E14LALIFT
 62
8
 10
-1690.709
 20
1113.649
 30
3981.000
 70
    32
  0
VERTEX
  8
E14LALIFT
 62
8
 10
-1688.703
 20
1126.671
 30
3981.000
 70
    32
  0
VERTEX
  8
E14LALIFT
 62
8
 10
-1698.579
 20
1137.213
 30
3981.000
 70
    32
  0
VERTEX
  8
E14LALIFT
 62
8
 10
-1710.152
 20
1150.080
 30
3981.000
 70
    32
  0
VERTEX
  8
E14LALIFT
 62
8
 10
-1724.659
 20
1167.443
 30
3981.000
 70
    32
  0
VERTEX
  8
E14LALIFT
 62
8
 10
-1730.575
 20
1175.339
 30
3982.526
 70
    32
  0
VERTEX
  8
E14LALIFT
 62
8
 10
-1736.714
 20
1187.789
 30
3982.526
 70
    32
  0
VERTEX
  8
E14LALIFT
 62
8
 10
-1754.273
 20
1221.274
 30
3982.526
 70
    32
  0
VERTEX
  8
E14LALIFT
 62
8
 10
-1767.122
 20
1247.177
 30
3982.526
 70
    32
  0
VERTEX
  8
E14LALIFT
 62
8
 10
-1770.088
 20
1259.774
 30
3982.526
 70
    32
  0
VERTEX
  8
E14LALIFT
 62
8
 10
-1775.299
 20
1267.459
 30
3982.526
 70
    32
  0
VERTEX
  8
E14LALIFT
 62
8
 10
-1789.764
 20
1271.836
 30
3982.526
 70
    32
  0
VERTEX
  8
E14LALIFT
 62
8
 10
-1790.218
 20
1272.928
 30
3984.055
 70
    32
  0
VERTEX
  8
E14LALIFT
 62
8
 10
-1796.366
 20
1272.730
 30
3984.055
 70
    32
  0
VERTEX
  8
E14LALIFT
 62
8
 10
-1802.810
 20
1277.015
 30
3984.055
 70
    32
  0
VERTEX
  8
E14LALIFT
 62
8
 10
-1811.669
 20
1278.036
 30
3984.055
 70
    32
  0
VERTEX
  8
E14LALIFT
 62
8
 10
-1816.436
 20
1281.333
 30
3984.055
 70
    32
  0
VERTEX
  8
E14LALIFT
 62
8
 10
-1817.634
 20
1281.484
 30
3984.000
 70
    32
  0
VERTEX
  8
E14LALIFT
 62
8
 10
-1822.545
 20
1281.522
 30
3984.000
 70
    32
  0
VERTEX
  8
E14LALIFT
 62
8
 10
-1830.348
 20
1278.800
 30
3984.000
 70
    32
  0
VERTEX
  8
E14LALIFT
 62
8
 10
-1847.824
 20
1283.234
 30
3984.000
 70
    32
  0
VERTEX
  8
E14LALIFT
 62
8
 10
-1849.212
 20
1285.620
 30
3984.000
 70
    32
  0
VERTEX
  8
E14LALIFT
 62
8
 10
-1848.437
 20
1293.879
 30
3984.000
 70
    32
  0
VERTEX
  8
E14LALIFT
 62
8
 10
-1844.559
 20
1302.771
 30
3984.000
 70
    32
  0
VERTEX
  8
E14LALIFT
 62
8
 10
-1837.931
 20
1309.108
 30
3984.000
 70
    32
  0
VERTEX
  8
E14LALIFT
 62
8
 10
-1834.496
 20
1308.759
 30
3984.000
 70
    32
  0
VERTEX
  8
E14LALIFT
 62
8
 10
-1832.071
 20
1302.653
 30
3984.000
 70
    32
  0
VERTEX
  8
E14LALIFT
 62
8
 10
-1829.117
 20
1299.347
 30
3984.000
 70
    32
  0
VERTEX
  8
E14LALIFT
 62
8
 10
-1820.656
 20
1296.291
 30
3984.000
 70
    32
  0
VERTEX
  8
E14LALIFT
 62
8
 10
-1819.866
 20
1295.874
 30
3984.055
 70
    32
  0
VERTEX
  8
E14LALIFT
 62
8
 10
-1814.001
 20
1294.713
 30
3984.055
 70
    32
  0
VERTEX
  8
E14LALIFT
 62
8
 10
-1809.636
 20
1294.485
 30
3984.055
 70
    32
  0
VERTEX
  8
E14LALIFT
 62
8
 10
-1804.822
 20
1299.345
 30
3984.055
 70
    32
  0
VERTEX
  8
E14LALIFT
 62
8
 10
-1794.608
 20
1296.555
 30
3984.055
 70
    32
  0
VERTEX
  8
E14LALIFT
 62
8
 10
-1782.165
 20
1287.604
 30
3984.055
 70
    32
  0
VERTEX
  8
E14LALIFT
 62
8
 10
-1777.935
 20
1286.586
 30
3984.055
 70
    32
  0
VERTEX
  8
E14LALIFT
 62
8
 10
-1769.791
 20
1290.103
 30
3984.055
 70
    32
  0
VERTEX
  8
E14LALIFT
 62
8
 10
-1768.843
 20
1292.685
 30
3984.055
 70
    32
  0
VERTEX
  8
E14LALIFT
 62
8
 10
-1772.536
 20
1301.875
 30
3984.055
 70
    32
  0
VERTEX
  8
E14LALIFT
 62
8
 10
-1777.220
 20
1307.256
 30
3984.055
 70
    32
  0
VERTEX
  8
E14LALIFT
 62
8
 10
-1777.626
 20
1307.636
 30
3984.000
 70
    32
  0
VERTEX
  8
E14LALIFT
 62
8
 10
-1785.664
 20
1309.675
 30
3984.000
 70
    32
  0
VERTEX
  8
E14LALIFT
 62
8
 10
-1792.472
 20
1315.472
 30
3984.000
 70
    32
  0
VERTEX
  8
E14LALIFT
 62
8
 10
-1796.581
 20
1319.341
 30
3984.000
 70
    32
  0
VERTEX
  8
E14LALIFT
 62
8
 10
-1803.580
 20
1322.969
 30
3984.000
 70
    32
  0
VERTEX
  8
E14LALIFT
 62
8
 10
-1795.914
 20
1332.954
 30
3984.000
 70
    32
  0
VERTEX
  8
E14LALIFT
 62
8
 10
-1789.508
 20
1328.932
 30
3984.000
 70
    32
  0
VERTEX
  8
E14LALIFT
 62
8
 10
-1782.809
 20
1334.550
 30
3984.000
 70
    32
  0
VERTEX
  8
E14LALIFT
 62
8
 10
-1786.181
 20
1343.186
 30
3984.000
 70
    32
  0
VERTEX
  8
E14LALIFT
 62
8
 10
-1790.944
 20
1351.718
 30
3984.000
 70
    32
  0
VERTEX
  8
E14LALIFT
 62
8
 10
-1787.322
 20
1354.560
 30
3984.000
 70
    32
  0
VERTEX
  8
E14LALIFT
 62
8
 10
-1782.062
 20
1355.851
 30
3984.000
 70
    32
  0
VERTEX
  8
E14LALIFT
 62
8
 10
-1777.133
 20
1349.556
 30
3984.000
 70
    32
  0
VERTEX
  8
E14LALIFT
 62
8
 10
-1775.478
 20
1348.454
 30
3984.000
 70
    32
  0
VERTEX
  8
E14LALIFT
 62
8
 10
-1772.763
 20
1348.218
 30
3984.000
 70
    32
  0
VERTEX
  8
E14LALIFT
 62
8
 10
-1770.471
 20
1342.087
 30
3984.000
 70
    32
  0
VERTEX
  8
E14LALIFT
 62
8
 10
-1766.234
 20
1338.111
 30
3984.000
 70
    32
  0
VERTEX
  8
E14LALIFT
 62
8
 10
-1763.550
 20
1326.138
 30
3984.000
 70
    32
  0
VERTEX
  8
E14LALIFT
 62
8
 10
-1763.447
 20
1324.989
 30
3984.055
 70
    32
  0
VERTEX
  8
E14LALIFT
 62
8
 10
-1762.256
 20
1321.109
 30
3984.055
 70
    32
  0
VERTEX
  8
E14LALIFT
 62
8
 10
-1759.426
 20
1309.436
 30
3984.055
 70
    32
  0
VERTEX
  8
E14LALIFT
 62
8
 10
-1754.740
 20
1304.902
 30
3984.055
 70
    32
  0
VERTEX
  8
E14LALIFT
 62
8
 10
-1751.378
 20
1300.370
 30
3984.055
 70
    32
  0
VERTEX
  8
E14LALIFT
 62
8
 10
-1754.758
 20
1292.046
 30
3984.055
 70
    32
  0
VERTEX
  8
E14LALIFT
 62
8
 10
-1755.000
 20
1290.659
 30
3982.526
 70
    32
  0
VERTEX
  8
E14LALIFT
 62
8
 10
-1758.557
 20
1284.091
 30
3982.526
 70
    32
  0
VERTEX
  8
E14LALIFT
 62
8
 10
-1759.933
 20
1273.674
 30
3982.526
 70
    32
  0
VERTEX
  8
E14LALIFT
 62
8
 10
-1760.367
 20
1266.632
 30
3982.526
 70
    32
  0
VERTEX
  8
E14LALIFT
 62
8
 10
-1757.842
 20
1259.770
 30
3982.526
 70
    32
  0
VERTEX
  8
E14LALIFT
 62
8
 10
-1756.686
 20
1256.674
 30
3982.526
 70
    32
  0
VERTEX
  8
E14LALIFT
 62
8
 10
-1753.702
 20
1250.038
 30
3982.526
 70
    32
  0
VERTEX
  8
E14LALIFT
 62
8
 10
-1740.568
 20
1221.418
 30
3982.526
 70
    32
  0
VERTEX
  8
E14LALIFT
 62
8
 10
-1728.148
 20
1196.375
 30
3982.526
 70
    32
  0
VERTEX
  8
E14LALIFT
 62
8
 10
-1718.083
 20
1175.767
 30
3981.000
 70
    32
  0
VERTEX
  8
E14LALIFT
 62
8
 10
-1708.455
 20
1165.273
 30
3981.000
 70
    32
  0
VERTEX
  8
E14LALIFT
 62
8
 10
-1690.709
 20
1145.584
 30
3981.000
 70
    32
  0
VERTEX
  8
E14LALIFT
 62
8
 10
-1685.172
 20
1144.340
 30
3981.000
 70
    32
  0
VERTEX
  8
E14LALIFT
 62
8
 10
-1681.247
 20
1145.817
 30
3980.000
 70
    32
  0
VERTEX
  8
E14LALIFT
 62
8
 10
-1682.141
 20
1164.332
 30
3980.000
 70
    32
  0
VERTEX
  8
E14LALIFT
 62
8
 10
-1682.891
 20
1167.482
 30
3980.000
 70
    32
  0
VERTEX
  8
E14LALIFT
 62
8
 10
-1687.177
 20
1172.905
 30
3982.533
 70
    32
  0
VERTEX
  8
E14LALIFT
 62
8
 10
-1696.028
 20
1184.497
 30
3982.533
 70
    32
  0
VERTEX
  8
E14LALIFT
 62
8
 10
-1698.740
 20
1185.212
 30
3982.533
 70
    32
  0
VERTEX
  8
E14LALIFT
 62
8
 10
-1702.881
 20
1191.509
 30
3982.533
 70
    32
  0
VERTEX
  8
E14LALIFT
 62
8
 10
-1704.202
 20
1193.615
 30
3982.533
 70
    32
  0
VERTEX
  8
E14LALIFT
 62
8
 10
-1707.318
 20
1195.617
 30
3982.533
 70
    32
  0
VERTEX
  8
E14LALIFT
 62
8
 10
-1712.502
 20
1196.646
 30
3982.533
 70
    32
  0
VERTEX
  8
E14LALIFT
 62
8
 10
-1719.450
 20
1204.709
 30
3982.533
 70
    32
  0
VERTEX
  8
E14LALIFT
 62
8
 10
-1720.051
 20
1211.706
 30
3982.533
 70
    32
  0
VERTEX
  8
E14LALIFT
 62
8
 10
-1724.202
 20
1218.834
 30
3982.533
 70
    32
  0
VERTEX
  8
E14LALIFT
 62
8
 10
-1722.787
 20
1226.617
 30
3982.533
 70
    32
  0
VERTEX
  8
E14LALIFT
 62
8
 10
-1725.203
 20
1233.686
 30
3982.533
 70
    32
  0
VERTEX
  8
E14LALIFT
 62
8
 10
-1725.398
 20
1234.434
 30
3982.552
 70
    32
  0
VERTEX
  8
E14LALIFT
 62
8
 10
-1723.303
 20
1238.386
 30
3982.552
 70
    32
  0
VERTEX
  8
E14LALIFT
 62
8
 10
-1725.917
 20
1248.187
 30
3982.552
 70
    32
  0
VERTEX
  8
E14LALIFT
 62
8
 10
-1728.437
 20
1254.062
 30
3982.552
 70
    32
  0
VERTEX
  8
E14LALIFT
 62
8
 10
-1747.703
 20
1274.627
 30
3982.552
 70
    32
  0
VERTEX
  8
E14LALIFT
 62
8
 10
-1738.809
 20
1281.484
 30
3982.552
 70
    32
  0
VERTEX
  8
E14LALIFT
 62
8
 10
-1735.562
 20
1284.686
 30
3982.552
 70
    32
  0
VERTEX
  8
E14LALIFT
 62
8
 10
-1728.421
 20
1278.810
 30
3982.552
 70
    32
  0
VERTEX
  8
E14LALIFT
 62
8
 10
-1715.291
 20
1268.727
 30
3982.552
 70
    32
  0
VERTEX
  8
E14LALIFT
 62
8
 10
-1708.348
 20
1257.224
 30
3982.552
 70
    32
  0
VERTEX
  8
E14LALIFT
 62
8
 10
-1707.632
 20
1250.085
 30
3982.552
 70
    32
  0
VERTEX
  8
E14LALIFT
 62
8
 10
-1705.955
 20
1243.468
 30
3982.552
 70
    32
  0
VERTEX
  8
E14LALIFT
 62
8
 10
-1705.658
 20
1242.704
 30
3982.533
 70
    32
  0
VERTEX
  8
E14LALIFT
 62
8
 10
-1703.753
 20
1224.166
 30
3982.533
 70
    32
  0
VERTEX
  8
E14LALIFT
 62
8
 10
-1700.301
 20
1209.243
 30
3982.533
 70
    32
  0
VERTEX
  8
E14LALIFT
 62
8
 10
-1690.284
 20
1200.346
 30
3982.533
 70
    32
  0
VERTEX
  8
E14LALIFT
 62
8
 10
-1680.846
 20
1201.874
 30
3982.533
 70
    32
  0
VERTEX
  8
E14LALIFT
 62
8
 10
-1674.623
 20
1184.964
 30
3982.533
 70
    32
  0
VERTEX
  8
E14LALIFT
 62
8
 10
-1668.579
 20
1180.606
 30
3982.533
 70
    32
  0
VERTEX
  8
E14LALIFT
 62
8
 10
-1670.877
 20
1166.312
 30
3980.000
 70
    32
  0
VERTEX
  8
E14LALIFT
 62
8
 10
-1669.202
 20
1136.147
 30
3980.000
 70
    32
  0
VERTEX
  8
E14LALIFT
 62
8
 10
-1669.207
 20
1135.192
 30
3981.000
 70
    32
  0
VERTEX
  8
E14LALIFT
 62
8
 10
-1665.091
 20
1126.827
 30
3981.000
 70
    32
  0
VERTEX
  8
E14LALIFT
 62
8
 10
-1658.147
 20
1120.005
 30
3981.000
 70
    32
  0
VERTEX
  8
E14LALIFT
 62
8
 10
-1651.511
 20
1121.401
 30
3981.000
 70
    32
  0
VERTEX
  8
E14LALIFT
 62
8
 10
-1642.252
 20
1102.797
 30
3981.000
 70
    32
  0
VERTEX
  8
E14LALIFT
 62
8
 10
-1638.085
 20
1090.705
 30
3981.000
 70
    32
  0
VERTEX
  8
E14LALIFT
 62
8
 10
-1630.832
 20
1081.094
 30
3981.000
 70
    32
  0
VERTEX
  8
E14LALIFT
 62
8
 10
-1630.523
 20
1076.287
 30
3981.000
 70
    32
  0
VERTEX
  8
E14LALIFT
 62
8
 10
-1627.591
 20
1067.452
 30
3981.000
 70
    32
  0
VERTEX
  8
E14LALIFT
 62
8
 10
-1632.992
 20
1062.800
 30
3981.000
 70
    32
  0
VERTEX
  8
E14LALIFT
 62
8
 10
-1632.838
 20
1057.839
 30
3981.000
 70
    32
  0
VERTEX
  8
E14LALIFT
 62
8
 10
-1632.992
 20
1056.909
 30
3979.824
 70
    32
  0
VERTEX
  8
E14LALIFT
 62
8
 10
-1628.792
 20
1051.472
 30
3979.290
 70
    32
  0
VERTEX
  8
E14LALIFT
 62
8
 10
-1626.454
 20
1049.032
 30
3979.053
 70
    32
  0
VERTEX
  8
E14LALIFT
 62
8
 10
-1625.991
 20
1048.383
 30
3979.000
 70
    32
  0
VERTEX
  8
E14LALIFT
 62
8
 10
-1619.330
 20
1042.502
 30
3979.000
 70
    32
  0
VERTEX
  8
E14LALIFT
 62
8
 10
-1616.017
 20
1041.087
 30
3979.000
 70
    32
  0
VERTEX
  8
E14LALIFT
 62
8
 10
-1610.782
 20
1032.989
 30
3979.000
 70
    32
  0
VERTEX
  8
E14LALIFT
 62
8
 10
-1609.914
 20
1032.257
 30
3978.592
 70
    32
  0
VERTEX
  8
E14LALIFT
 62
8
 10
-1599.371
 20
1036.542
 30
3978.592
 70
    32
  0
VERTEX
  8
E14LALIFT
 62
8
 10
-1590.820
 20
1031.023
 30
3978.592
 70
    32
  0
VERTEX
  8
E14LALIFT
 62
8
 10
-1587.599
 20
1025.511
 30
3978.592
 70
    32
  0
VERTEX
  8
E14LALIFT
 62
8
 10
-1592.375
 20
1013.334
 30
3978.592
 70
    32
  0
VERTEX
  8
E14LALIFT
 62
8
 10
-1592.424
 20
1012.801
 30
3976.537
 70
    32
  0
VERTEX
  8
E14LALIFT
 62
8
 10
-1593.941
 20
1008.819
 30
3976.537
 70
    32
  0
VERTEX
  8
E14LALIFT
 62
8
 10
-1589.278
 20
1003.838
 30
3976.537
 70
    32
  0
VERTEX
  8
E14LALIFT
 62
8
 10
-1589.237
 20
1003.618
 30
3976.000
 70
    32
  0
VERTEX
  8
E14LALIFT
 62
8
 10
-1573.864
 20
988.366
 30
3976.000
 70
    32
  0
VERTEX
  8
E14LALIFT
 62
8
 10
-1582.671
 20
980.003
 30
3976.000
 70
    32
  0
VERTEX
  8
E14LALIFT
 62
8
 10
-1597.038
 20
995.489
 30
3976.000
 70
    32
  0
VERTEX
  8
E14LALIFT
 62
8
 10
-1597.324
 20
995.792
 30
3976.537
 70
    32
  0
VERTEX
  8
E14LALIFT
 62
8
 10
-1604.972
 20
1002.200
 30
3976.537
 70
    32
  0
VERTEX
  8
E14LALIFT
 62
8
 10
-1606.064
 20
1002.940
 30
3978.592
 70
    32
  0
SEQEND
  8
E14LALIFT
  0
POLYLINE
  8
E14LALIFT
 62
3
 66
     1
 70
     9
  0
VERTEX
  8
E14LALIFT
 62
3
 10
-1494.663
 20
906.080
 30
3932.575
 70
    32
  0
VERTEX
  8
E14LALIFT
 62
3
 10
-1492.539
 20
905.756
 30
3934.000
 70
    32
  0
VERTEX
  8
E14LALIFT
 62
3
 10
-1487.482
 20
894.585
 30
3934.070
 70
    32
  0
VERTEX
  8
E14LALIFT
 62
3
 10
-1476.896
 20
885.239
 30
3934.521
 70
    32
  0
VERTEX
  8
E14LALIFT
 62
3
 10
-1472.170
 20
878.975
 30
3934.521
 70
    32
  0
VERTEX
  8
E14LALIFT
 62
3
 10
-1463.225
 20
870.783
 30
3934.500
 70
    32
  0
VERTEX
  8
E14LALIFT
 62
3
 10
-1460.954
 20
869.390
 30
3934.500
 70
    32
  0
VERTEX
  8
E14LALIFT
 62
3
 10
-1454.316
 20
864.688
 30
3934.500
 70
    32
  0
VERTEX
  8
E14LALIFT
 62
3
 10
-1447.852
 20
871.480
 30
3934.500
 70
    32
  0
VERTEX
  8
E14LALIFT
 62
3
 10
-1454.665
 20
878.446
 30
3934.500
 70
    32
  0
VERTEX
  8
E14LALIFT
 62
3
 10
-1459.987
 20
884.223
 30
3934.521
 70
    32
  0
VERTEX
  8
E14LALIFT
 62
3
 10
-1464.705
 20
890.007
 30
3934.521
 70
    32
  0
VERTEX
  8
E14LALIFT
 62
3
 10
-1471.327
 20
902.919
 30
3934.521
 70
    32
  0
VERTEX
  8
E14LALIFT
 62
3
 10
-1478.663
 20
908.310
 30
3934.000
 70
    32
  0
VERTEX
  8
E14LALIFT
 62
3
 10
-1486.264
 20
914.789
 30
3934.000
 70
    32
  0
VERTEX
  8
E14LALIFT
 62
3
 10
-1489.280
 20
919.291
 30
3934.000
 70
    32
  0
VERTEX
  8
E14LALIFT
 62
3
 10
-1490.891
 20
922.429
 30
3932.699
 70
    32
  0
VERTEX
  8
E14LALIFT
 62
3
 10
-1490.275
 20
930.418
 30
3932.939
 70
    32
  0
VERTEX
  8
E14LALIFT
 62
3
 10
-1506.061
 20
930.840
 30
3932.996
 70
    32
  0
VERTEX
  8
E14LALIFT
 62
3
 10
-1509.547
 20
935.305
 30
3932.749
 70
    32
  0
VERTEX
  8
E14LALIFT
 62
3
 10
-1509.723
 20
937.405
 30
3934.000
 70
    32
  0
VERTEX
  8
E14LALIFT
 62
3
 10
-1509.547
 20
947.061
 30
3934.000
 70
    32
  0
VERTEX
  8
E14LALIFT
 62
3
 10
-1511.917
 20
952.123
 30
3933.520
 70
    32
  0
VERTEX
  8
E14LALIFT
 62
3
 10
-1502.926
 20
957.129
 30
3934.926
 70
    32
  0
VERTEX
  8
E14LALIFT
 62
3
 10
-1502.241
 20
973.008
 30
3935.000
 70
    32
  0
VERTEX
  8
E14LALIFT
 62
3
 10
-1499.743
 20
988.425
 30
3935.000
 70
    32
  0
VERTEX
  8
E14LALIFT
 62
3
 10
-1496.329
 20
997.336
 30
3935.000
 70
    32
  0
VERTEX
  8
E14LALIFT
 62
3
 10
-1501.767
 20
1002.938
 30
3935.000
 70
    32
  0
VERTEX
  8
E14LALIFT
 62
3
 10
-1504.790
 20
1006.221
 30
3934.090
 70
    32
  0
VERTEX
  8
E14LALIFT
 62
3
 10
-1505.346
 20
1014.450
 30
3934.090
 70
    32
  0
VERTEX
  8
E14LALIFT
 62
3
 10
-1513.254
 20
1015.214
 30
3934.090
 70
    32
  0
VERTEX
  8
E14LALIFT
 62
3
 10
-1517.969
 20
1009.492
 30
3934.090
 70
    32
  0
VERTEX
  8
E14LALIFT
 62
3
 10
-1512.616
 20
998.216
 30
3934.090
 70
    32
  0
VERTEX
  8
E14LALIFT
 62
3
 10
-1515.433
 20
991.867
 30
3935.000
 70
    32
  0
VERTEX
  8
E14LALIFT
 62
3
 10
-1521.392
 20
990.853
 30
3935.000
 70
    32
  0
VERTEX
  8
E14LALIFT
 62
3
 10
-1534.776
 20
987.948
 30
3935.000
 70
    32
  0
VERTEX
  8
E14LALIFT
 62
3
 10
-1539.835
 20
983.614
 30
3935.000
 70
    32
  0
VERTEX
  8
E14LALIFT
 62
3
 10
-1533.906
 20
969.468
 30
3934.559
 70
    32
  0
VERTEX
  8
E14LALIFT
 62
3
 10
-1543.047
 20
962.094
 30
3933.000
 70
    32
  0
VERTEX
  8
E14LALIFT
 62
3
 10
-1546.224
 20
965.090
 30
3933.000
 70
    32
  0
VERTEX
  8
E14LALIFT
 62
3
 10
-1548.309
 20
973.490
 30
3933.000
 70
    32
  0
VERTEX
  8
E14LALIFT
 62
3
 10
-1551.691
 20
981.186
 30
3933.000
 70
    32
  0
VERTEX
  8
E14LALIFT
 62
3
 10
-1556.469
 20
993.774
 30
3933.000
 70
    32
  0
VERTEX
  8
E14LALIFT
 62
3
 10
-1563.926
 20
987.619
 30
3933.000
 70
    32
  0
VERTEX
  8
E14LALIFT
 62
3
 10
-1574.050
 20
1001.285
 30
3933.540
 70
    32
  0
VERTEX
  8
E14LALIFT
 62
3
 10
-1589.769
 20
1019.149
 30
3933.540
 70
    32
  0
VERTEX
  8
E14LALIFT
 62
3
 10
-1602.472
 20
1031.432
 30
3933.540
 70
    32
  0
VERTEX
  8
E14LALIFT
 62
3
 10
-1616.997
 20
1046.793
 30
3933.521
 70
    32
  0
VERTEX
  8
E14LALIFT
 62
3
 10
-1633.882
 20
1064.166
 30
3933.521
 70
    32
  0
VERTEX
  8
E14LALIFT
 62
3
 10
-1641.965
 20
1070.748
 30
3933.521
 70
    32
  0
VERTEX
  8
E14LALIFT
 62
3
 10
-1647.910
 20
1079.271
 30
3933.521
 70
    32
  0
VERTEX
  8
E14LALIFT
 62
3
 10
-1650.907
 20
1086.418
 30
3934.515
 70
    32
  0
VERTEX
  8
E14LALIFT
 62
3
 10
-1647.256
 20
1094.745
 30
3934.515
 70
    32
  0
VERTEX
  8
E14LALIFT
 62
3
 10
-1654.042
 20
1106.147
 30
3934.515
 70
    32
  0
VERTEX
  8
E14LALIFT
 62
3
 10
-1656.815
 20
1116.924
 30
3934.515
 70
    32
  0
VERTEX
  8
E14LALIFT
 62
3
 10
-1657.222
 20
1128.004
 30
3934.515
 70
    32
  0
VERTEX
  8
E14LALIFT
 62
3
 10
-1663.795
 20
1127.848
 30
3934.515
 70
    32
  0
VERTEX
  8
E14LALIFT
 62
3
 10
-1667.068
 20
1130.486
 30
3934.515
 70
    32
  0
VERTEX
  8
E14LALIFT
 62
3
 10
-1670.088
 20
1136.498
 30
3934.515
 70
    32
  0
VERTEX
  8
E14LALIFT
 62
3
 10
-1672.381
 20
1144.812
 30
3934.515
 70
    32
  0
VERTEX
  8
E14LALIFT
 62
3
 10
-1674.793
 20
1149.932
 30
3934.515
 70
    32
  0
VERTEX
  8
E14LALIFT
 62
3
 10
-1679.132
 20
1167.847
 30
3934.515
 70
    32
  0
VERTEX
  8
E14LALIFT
 62
3
 10
-1689.040
 20
1164.814
 30
3934.515
 70
    32
  0
VERTEX
  8
E14LALIFT
 62
3
 10
-1691.560
 20
1165.435
 30
3934.515
 70
    32
  0
VERTEX
  8
E14LALIFT
 62
3
 10
-1701.799
 20
1179.272
 30
3934.515
 70
    32
  0
VERTEX
  8
E14LALIFT
 62
3
 10
-1699.854
 20
1181.358
 30
3935.000
 70
    32
  0
VERTEX
  8
E14LALIFT
 62
3
 10
-1695.392
 20
1189.074
 30
3935.000
 70
    32
  0
VERTEX
  8
E14LALIFT
 62
3
 10
-1688.814
 20
1198.180
 30
3935.000
 70
    32
  0
VERTEX
  8
E14LALIFT
 62
3
 10
-1677.831
 20
1209.709
 30
3935.000
 70
    32
  0
VERTEX
  8
E14LALIFT
 62
3
 10
-1686.269
 20
1216.474
 30
3935.000
 70
    32
  0
VERTEX
  8
E14LALIFT
 62
3
 10
-1695.657
 20
1205.757
 30
3935.000
 70
    32
  0
VERTEX
  8
E14LALIFT
 62
3
 10
-1702.492
 20
1197.302
 30
3935.000
 70
    32
  0
VERTEX
  8
E14LALIFT
 62
3
 10
-1710.364
 20
1190.509
 30
3935.000
 70
    32
  0
VERTEX
  8
E14LALIFT
 62
3
 10
-1711.597
 20
1190.801
 30
3934.487
 70
    32
  0
VERTEX
  8
E14LALIFT
 62
3
 10
-1714.815
 20
1194.794
 30
3934.487
 70
    32
  0
VERTEX
  8
E14LALIFT
 62
3
 10
-1717.153
 20
1200.282
 30
3935.000
 70
    32
  0
VERTEX
  8
E14LALIFT
 62
3
 10
-1713.480
 20
1209.433
 30
3935.000
 70
    32
  0
VERTEX
  8
E14LALIFT
 62
3
 10
-1716.593
 20
1215.201
 30
3935.000
 70
    32
  0
VERTEX
  8
E14LALIFT
 62
3
 10
-1716.253
 20
1222.025
 30
3935.000
 70
    32
  0
VERTEX
  8
E14LALIFT
 62
3
 10
-1712.585
 20
1227.615
 30
3935.000
 70
    32
  0
VERTEX
  8
E14LALIFT
 62
3
 10
-1718.184
 20
1236.345
 30
3936.000
 70
    32
  0
VERTEX
  8
E14LALIFT
 62
3
 10
-1722.333
 20
1245.895
 30
3936.000
 70
    32
  0
VERTEX
  8
E14LALIFT
 62
3
 10
-1728.962
 20
1253.063
 30
3936.000
 70
    32
  0
VERTEX
  8
E14LALIFT
 62
3
 10
-1732.191
 20
1259.802
 30
3936.000
 70
    32
  0
VERTEX
  8
E14LALIFT
 62
3
 10
-1736.299
 20
1260.725
 30
3936.000
 70
    32
  0
VERTEX
  8
E14LALIFT
 62
3
 10
-1742.482
 20
1268.005
 30
3936.000
 70
    32
  0
VERTEX
  8
E14LALIFT
 62
3
 10
-1752.159
 20
1261.502
 30
3936.000
 70
    32
  0
VERTEX
  8
E14LALIFT
 62
3
 10
-1746.037
 20
1253.033
 30
3936.000
 70
    32
  0
VERTEX
  8
E14LALIFT
 62
3
 10
-1745.665
 20
1248.975
 30
3936.000
 70
    32
  0
VERTEX
  8
E14LALIFT
 62
3
 10
-1759.563
 20
1234.432
 30
3936.000
 70
    32
  0
VERTEX
  8
E14LALIFT
 62
3
 10
-1766.558
 20
1236.930
 30
3937.022
 70
    32
  0
VERTEX
  8
E14LALIFT
 62
3
 10
-1769.842
 20
1240.085
 30
3937.022
 70
    32
  0
VERTEX
  8
E14LALIFT
 62
3
 10
-1771.070
 20
1244.706
 30
3937.022
 70
    32
  0
VERTEX
  8
E14LALIFT
 62
3
 10
-1769.702
 20
1251.302
 30
3937.022
 70
    32
  0
VERTEX
  8
E14LALIFT
 62
3
 10
-1772.746
 20
1255.543
 30
3937.022
 70
    32
  0
VERTEX
  8
E14LALIFT
 62
3
 10
-1779.734
 20
1257.218
 30
3937.022
 70
    32
  0
VERTEX
  8
E14LALIFT
 62
3
 10
-1788.119
 20
1261.765
 30
3937.000
 70
    32
  0
VERTEX
  8
E14LALIFT
 62
3
 10
-1789.732
 20
1265.170
 30
3937.000
 70
    32
  0
VERTEX
  8
E14LALIFT
 62
3
 10
-1788.657
 20
1271.364
 30
3937.000
 70
    32
  0
VERTEX
  8
E14LALIFT
 62
3
 10
-1782.364
 20
1279.122
 30
3937.000
 70
    32
  0
VERTEX
  8
E14LALIFT
 62
3
 10
-1781.544
 20
1278.992
 30
3937.000
 70
    32
  0
VERTEX
  8
E14LALIFT
 62
3
 10
-1777.985
 20
1276.291
 30
3937.000
 70
    32
  0
VERTEX
  8
E14LALIFT
 62
3
 10
-1764.903
 20
1290.966
 30
3937.000
 70
    32
  0
VERTEX
  8
E14LALIFT
 62
3
 10
-1757.713
 20
1298.966
 30
3937.000
 70
    32
  0
VERTEX
  8
E14LALIFT
 62
3
 10
-1753.220
 20
1301.531
 30
3937.000
 70
    32
  0
VERTEX
  8
E14LALIFT
 62
3
 10
-1751.764
 20
1307.488
 30
3937.000
 70
    32
  0
VERTEX
  8
E14LALIFT
 62
3
 10
-1754.507
 20
1313.324
 30
3937.000
 70
    32
  0
VERTEX
  8
E14LALIFT
 62
3
 10
-1762.775
 20
1319.549
 30
3937.000
 70
    32
  0
VERTEX
  8
E14LALIFT
 62
3
 10
-1767.634
 20
1318.046
 30
3937.000
 70
    32
  0
VERTEX
  8
E14LALIFT
 62
3
 10
-1772.925
 20
1315.850
 30
3937.000
 70
    32
  0
VERTEX
  8
E14LALIFT
 62
3
 10
-1773.857
 20
1311.357
 30
3937.000
 70
    32
  0
VERTEX
  8
E14LALIFT
 62
3
 10
-1780.503
 20
1306.280
 30
3937.000
 70
    32
  0
VERTEX
  8
E14LALIFT
 62
3
 10
-1782.480
 20
1301.124
 30
3937.000
 70
    32
  0
VERTEX
  8
E14LALIFT
 62
3
 10
-1790.218
 20
1295.271
 30
3937.000
 70
    32
  0
VERTEX
  8
E14LALIFT
 62
3
 10
-1798.019
 20
1299.797
 30
3937.000
 70
    32
  0
VERTEX
  8
E14LALIFT
 62
3
 10
-1801.009
 20
1304.394
 30
3937.000
 70
    32
  0
VERTEX
  8
E14LALIFT
 62
3
 10
-1801.639
 20
1310.740
 30
3937.000
 70
    32
  0
VERTEX
  8
E14LALIFT
 62
3
 10
-1797.877
 20
1319.591
 30
3937.000
 70
    32
  0
VERTEX
  8
E14LALIFT
 62
3
 10
-1804.858
 20
1328.061
 30
3937.000
 70
    32
  0
VERTEX
  8
E14LALIFT
 62
3
 10
-1807.937
 20
1332.809
 30
3937.000
 70
    32
  0
VERTEX
  8
E14LALIFT
 62
3
 10
-1809.699
 20
1340.557
 30
3937.000
 70
    32
  0
VERTEX
  8
E14LALIFT
 62
3
 10
-1820.176
 20
1341.102
 30
3937.000
 70
    32
  0
VERTEX
  8
E14LALIFT
 62
3
 10
-1828.808
 20
1337.906
 30
3937.000
 70
    32
  0
VERTEX
  8
E14LALIFT
 62
3
 10
-1837.796
 20
1329.744
 30
3937.000
 70
    32
  0
VERTEX
  8
E14LALIFT
 62
3
 10
-1835.051
 20
1324.175
 30
3937.000
 70
    32
  0
VERTEX
  8
E14LALIFT
 62
3
 10
-1836.393
 20
1320.117
 30
3937.000
 70
    32
  0
VERTEX
  8
E14LALIFT
 62
3
 10
-1839.268
 20
1315.864
 30
3937.000
 70
    32
  0
VERTEX
  8
E14LALIFT
 62
3
 10
-1834.525
 20
1309.055
 30
3937.000
 70
    32
  0
VERTEX
  8
E14LALIFT
 62
3
 10
-1832.453
 20
1304.279
 30
3937.000
 70
    32
  0
VERTEX
  8
E14LALIFT
 62
3
 10
-1834.470
 20
1299.149
 30
3937.000
 70
    32
  0
VERTEX
  8
E14LALIFT
 62
3
 10
-1829.085
 20
1288.141
 30
3937.000
 70
    32
  0
VERTEX
  8
E14LALIFT
 62
3
 10
-1825.880
 20
1279.472
 30
3937.000
 70
    32
  0
VERTEX
  8
E14LALIFT
 62
3
 10
-1820.756
 20
1270.394
 30
3937.000
 70
    32
  0
VERTEX
  8
E14LALIFT
 62
3
 10
-1820.513
 20
1269.231
 30
3937.022
 70
    32
  0
VERTEX
  8
E14LALIFT
 62
3
 10
-1810.748
 20
1257.016
 30
3937.022
 70
    32
  0
VERTEX
  8
E14LALIFT
 62
3
 10
-1798.797
 20
1246.309
 30
3937.022
 70
    32
  0
VERTEX
  8
E14LALIFT
 62
3
 10
-1790.663
 20
1233.578
 30
3937.022
 70
    32
  0
VERTEX
  8
E14LALIFT
 62
3
 10
-1788.438
 20
1233.794
 30
3937.022
 70
    32
  0
VERTEX
  8
E14LALIFT
 62
3
 10
-1781.149
 20
1215.323
 30
3936.000
 70
    32
  0
VERTEX
  8
E14LALIFT
 62
3
 10
-1777.922
 20
1210.205
 30
3936.000
 70
    32
  0
VERTEX
  8
E14LALIFT
 62
3
 10
-1775.878
 20
1206.454
 30
3936.000
 70
    32
  0
VERTEX
  8
E14LALIFT
 62
3
 10
-1770.614
 20
1196.731
 30
3936.000
 70
    32
  0
VERTEX
  8
E14LALIFT
 62
3
 10
-1757.843
 20
1182.053
 30
3936.000
 70
    32
  0
VERTEX
  8
E14LALIFT
 62
3
 10
-1747.410
 20
1174.819
 30
3935.575
 70
    32
  0
VERTEX
  8
E14LALIFT
 62
3
 10
-1744.415
 20
1171.306
 30
3935.575
 70
    32
  0
VERTEX
  8
E14LALIFT
 62
3
 10
-1727.859
 20
1160.393
 30
3935.575
 70
    32
  0
VERTEX
  8
E14LALIFT
 62
3
 10
-1721.894
 20
1153.504
 30
3934.515
 70
    32
  0
VERTEX
  8
E14LALIFT
 62
3
 10
-1715.610
 20
1144.308
 30
3934.515
 70
    32
  0
VERTEX
  8
E14LALIFT
 62
3
 10
-1716.507
 20
1142.984
 30
3934.515
 70
    32
  0
VERTEX
  8
E14LALIFT
 62
3
 10
-1705.771
 20
1127.667
 30
3934.515
 70
    32
  0
VERTEX
  8
E14LALIFT
 62
3
 10
-1702.229
 20
1126.114
 30
3934.515
 70
    32
  0
VERTEX
  8
E14LALIFT
 62
3
 10
-1684.592
 20
1105.068
 30
3934.515
 70
    32
  0
VERTEX
  8
E14LALIFT
 62
3
 10
-1664.807
 20
1083.752
 30
3934.515
 70
    32
  0
VERTEX
  8
E14LALIFT
 62
3
 10
-1656.860
 20
1073.138
 30
3933.521
 70
    32
  0
VERTEX
  8
E14LALIFT
 62
3
 10
-1664.801
 20
1064.361
 30
3933.521
 70
    32
  0
VERTEX
  8
E14LALIFT
 62
3
 10
-1653.563
 20
1054.602
 30
3933.521
 70
    32
  0
VERTEX
  8
E14LALIFT
 62
3
 10
-1640.098
 20
1045.876
 30
3933.521
 70
    32
  0
VERTEX
  8
E14LALIFT
 62
3
 10
-1634.505
 20
1039.643
 30
3933.521
 70
    32
  0
VERTEX
  8
E14LALIFT
 62
3
 10
-1630.882
 20
1039.019
 30
3933.521
 70
    32
  0
VERTEX
  8
E14LALIFT
 62
3
 10
-1619.078
 20
1032.410
 30
3933.521
 70
    32
  0
VERTEX
  8
E14LALIFT
 62
3
 10
-1611.097
 20
1025.518
 30
3933.521
 70
    32
  0
VERTEX
  8
E14LALIFT
 62
3
 10
-1596.979
 20
1010.498
 30
3933.540
 70
    32
  0
VERTEX
  8
E14LALIFT
 62
3
 10
-1572.071
 20
980.443
 30
3933.540
 70
    32
  0
VERTEX
  8
E14LALIFT
 62
3
 10
-1566.784
 20
973.333
 30
3933.000
 70
    32
  0
VERTEX
  8
E14LALIFT
 62
3
 10
-1560.727
 20
965.003
 30
3933.000
 70
    32
  0
VERTEX
  8
E14LALIFT
 62
3
 10
-1562.021
 20
963.223
 30
3933.000
 70
    32
  0
VERTEX
  8
E14LALIFT
 62
3
 10
-1550.536
 20
953.041
 30
3933.000
 70
    32
  0
VERTEX
  8
E14LALIFT
 62
3
 10
-1541.541
 20
945.934
 30
3933.000
 70
    32
  0
VERTEX
  8
E14LALIFT
 62
3
 10
-1520.404
 20
927.605
 30
3934.000
 70
    32
  0
VERTEX
  8
E14LALIFT
 62
3
 10
-1518.128
 20
926.905
 30
3932.870
 70
    32
  0
VERTEX
  8
E14LALIFT
 62
3
 10
-1507.547
 20
905.759
 30
3932.329
 70
    32
  0
SEQEND
  8
E14LALIFT
  0
POLYLINE
  8
E14LALIFT
 62
3
 66
     1
 70
     9
  0
VERTEX
  8
E14LALIFT
 62
3
 10
-1754.711
 20
1228.859
 30
3937.000
 70
    32
  0
VERTEX
  8
E14LALIFT
 62
3
 10
-1769.754
 20
1221.417
 30
3937.000
 70
    32
  0
VERTEX
  8
E14LALIFT
 62
3
 10
-1766.344
 20
1213.731
 30
3937.000
 70
    32
  0
VERTEX
  8
E14LALIFT
 62
3
 10
-1760.940
 20
1205.222
 30
3937.000
 70
    32
  0
VERTEX
  8
E14LALIFT
 62
3
 10
-1750.362
 20
1191.753
 30
3937.000
 70
    32
  0
VERTEX
  8
E14LALIFT
 62
3
 10
-1736.491
 20
1183.829
 30
3937.000
 70
    32
  0
VERTEX
  8
E14LALIFT
 62
3
 10
-1732.849
 20
1187.971
 30
3937.000
 70
    32
  0
VERTEX
  8
E14LALIFT
 62
3
 10
-1734.496
 20
1192.814
 30
3937.000
 70
    32
  0
VERTEX
  8
E14LALIFT
 62
3
 10
-1733.203
 20
1195.535
 30
3937.000
 70
    32
  0
VERTEX
  8
E14LALIFT
 62
3
 10
-1738.022
 20
1204.398
 30
3937.000
 70
    32
  0
VERTEX
  8
E14LALIFT
 62
3
 10
-1738.961
 20
1208.412
 30
3937.000
 70
    32
  0
VERTEX
  8
E14LALIFT
 62
3
 10
-1746.952
 20
1218.459
 30
3937.000
 70
    32
  0
VERTEX
  8
E14LALIFT
 62
3
 10
-1752.711
 20
1227.444
 30
3937.000
 70
    32
  0
SEQEND
  8
E14LALIFT
  0
POLYLINE
  8
E14LALIFT
 62
1
 66
     1
 70
     9
  0
VERTEX
  8
E14LALIFT
 62
1
 10
-1791.073
 20
1325.184
 30
4033.000
 70
    32
  0
VERTEX
  8
E14LALIFT
 62
1
 10
-1779.063
 20
1335.005
 30
4033.000
 70
    32
  0
VERTEX
  8
E14LALIFT
 62
1
 10
-1759.049
 20
1308.751
 30
4033.000
 70
    32
  0
VERTEX
  8
E14LALIFT
 62
1
 10
-1752.650
 20
1295.325
 30
4033.000
 70
    32
  0
VERTEX
  8
E14LALIFT
 62
1
 10
-1733.233
 20
1279.495
 30
4033.000
 70
    32
  0
VERTEX
  8
E14LALIFT
 62
1
 10
-1719.228
 20
1268.271
 30
4033.000
 70
    32
  0
VERTEX
  8
E14LALIFT
 62
1
 10
-1710.023
 20
1255.846
 30
4033.000
 70
    32
  0
VERTEX
  8
E14LALIFT
 62
1
 10
-1705.820
 20
1241.816
 30
4033.000
 70
    32
  0
VERTEX
  8
E14LALIFT
 62
1
 10
-1703.618
 20
1219.972
 30
4033.000
 70
    32
  0
VERTEX
  8
E14LALIFT
 62
1
 10
-1702.416
 20
1214.963
 30
4033.000
 70
    32
  0
VERTEX
  8
E14LALIFT
 62
1
 10
-1692.607
 20
1193.412
 30
4033.000
 70
    32
  0
VERTEX
  8
E14LALIFT
 62
1
 10
-1700.775
 20
1188.313
 30
4033.000
 70
    32
  0
VERTEX
  8
E14LALIFT
 62
1
 10
-1714.024
 20
1207.345
 30
4033.000
 70
    32
  0
VERTEX
  8
E14LALIFT
 62
1
 10
-1718.422
 20
1217.367
 30
4033.000
 70
    32
  0
VERTEX
  8
E14LALIFT
 62
1
 10
-1720.228
 20
1231.397
 30
4033.000
 70
    32
  0
VERTEX
  8
E14LALIFT
 62
1
 10
-1723.229
 20
1245.622
 30
4033.000
 70
    32
  0
VERTEX
  8
E14LALIFT
 62
1
 10
-1729.433
 20
1256.047
 30
4033.000
 70
    32
  0
VERTEX
  8
E14LALIFT
 62
1
 10
-1746.842
 20
1274.079
 30
4033.000
 70
    32
  0
VERTEX
  8
E14LALIFT
 62
1
 10
-1764.057
 20
1287.712
 30
4033.000
 70
    32
  0
VERTEX
  8
E14LALIFT
 62
1
 10
-1771.859
 20
1296.325
 30
4033.000
 70
    32
  0
SEQEND
  8
E14LALIFT
  0
POLYLINE
  8
E14LALIFT
 62
1
 66
     1
 70
     9
  0
VERTEX
  8
E14LALIFT
 62
1
 10
-1660.393
 20
1115.064
 30
4028.000
 70
    32
  0
VERTEX
  8
E14LALIFT
 62
1
 10
-1652.201
 20
1106.871
 30
4025.973
 70
    32
  0
VERTEX
  8
E14LALIFT
 62
1
 10
-1643.167
 20
1093.836
 30
4023.198
 70
    32
  0
VERTEX
  8
E14LALIFT
 62
1
 10
-1638.336
 20
1084.173
 30
4021.308
 70
    32
  0
VERTEX
  8
E14LALIFT
 62
1
 10
-1636.024
 20
1073.450
 30
4019.389
 70
    32
  0
VERTEX
  8
E14LALIFT
 62
1
 10
-1634.340
 20
1058.108
 30
4016.689
 70
    32
  0
VERTEX
  8
E14LALIFT
 62
1
 10
-1627.410
 20
1045.920
 30
4014.236
 70
    32
  0
VERTEX
  8
E14LALIFT
 62
1
 10
-1619.846
 20
1035.617
 30
4012.000
 70
    32
  0
VERTEX
  8
E14LALIFT
 62
1
 10
-1628.881
 20
1029.103
 30
4012.000
 70
    32
  0
VERTEX
  8
E14LALIFT
 62
1
 10
-1652.414
 20
1058.529
 30
4018.837
 70
    32
  0
VERTEX
  8
E14LALIFT
 62
1
 10
-1666.908
 20
1078.708
 30
4023.345
 70
    32
  0
VERTEX
  8
E14LALIFT
 62
1
 10
-1674.893
 20
1091.109
 30
4026.021
 70
    32
  0
VERTEX
  8
E14LALIFT
 62
1
 10
-1679.517
 20
1100.985
 30
4028.000
 70
    32
  0
SEQEND
  8
E14LALIFT
  0
POLYLINE
  8
E14LALIFT
 62
1
 66
     1
 70
     9
  0
VERTEX
  8
E14LALIFT
 62
1
 10
-1828.601
 20
1294.721
 30
3990.000
 70
    32
  0
VERTEX
  8
E14LALIFT
 62
1
 10
-1803.359
 20
1295.063
 30
3990.000
 70
    32
  0
VERTEX
  8
E14LALIFT
 62
1
 10
-1792.269
 20
1290.286
 30
3990.000
 70
    32
  0
VERTEX
  8
E14LALIFT
 62
1
 10
-1789.030
 20
1285.675
 30
3990.000
 70
    32
  0
VERTEX
  8
E14LALIFT
 62
1
 10
-1793.123
 20
1273.731
 30
3990.000
 70
    32
  0
VERTEX
  8
E14LALIFT
 62
1
 10
-1812.905
 20
1279.026
 30
3990.000
 70
    32
  0
VERTEX
  8
E14LALIFT
 62
1
 10
-1830.986
 20
1285.845
 30
3990.000
 70
    32
  0
SEQEND
  8
E14LALIFT
  0
POLYLINE
  8
E14LALIFT
 62
7
 66
     1
 70
     8
  0
VERTEX
  8
E14LALIFT
 62
7
 10
-1667.433
 20
1070.027
 30
3890.497
 70
    32
  0
VERTEX
  8
E14LALIFT
 62
7
 10
-1668.794
 20
1077.011
 30
3890.409
 70
    32
  0
VERTEX
  8
E14LALIFT
 62
7
 10
-1668.203
 20
1081.022
 30
3890.474
 70
    32
  0
VERTEX
  8
E14LALIFT
 62
7
 10
-1676.199
 20
1091.537
 30
3890.393
 70
    32
  0
VERTEX
  8
E14LALIFT
 62
7
 10
-1675.484
 20
1094.062
 30
3890.399
 70
    32
  0
VERTEX
  8
E14LALIFT
 62
7
 10
-1682.004
 20
1103.122
 30
3890.379
 70
    32
  0
VERTEX
  8
E14LALIFT
 62
7
 10
-1682.243
 20
1103.529
 30
3889.530
 70
    32
  0
VERTEX
  8
E14LALIFT
 62
7
 10
-1687.323
 20
1111.235
 30
3889.530
 70
    32
  0
VERTEX
  8
E14LALIFT
 62
7
 10
-1686.226
 20
1113.946
 30
3889.530
 70
    32
  0
VERTEX
  8
E14LALIFT
 62
7
 10
-1690.524
 20
1122.132
 30
3889.530
 70
    32
  0
VERTEX
  8
E14LALIFT
 62
7
 10
-1689.731
 20
1124.147
 30
3889.530
 70
    32
  0
VERTEX
  8
E14LALIFT
 62
7
 10
-1698.304
 20
1137.278
 30
3889.530
 70
    32
  0
VERTEX
  8
E14LALIFT
 62
7
 10
-1701.092
 20
1143.124
 30
3889.530
 70
    32
  0
VERTEX
  8
E14LALIFT
 62
7
 10
-1703.020
 20
1143.807
 30
3891.027
 70
    32
  0
VERTEX
  8
E14LALIFT
 62
7
 10
-1716.828
 20
1158.945
 30
3891.027
 70
    32
  0
VERTEX
  8
E14LALIFT
 62
7
 10
-1729.570
 20
1172.014
 30
3890.027
 70
    32
  0
VERTEX
  8
E14LALIFT
 62
7
 10
-1730.281
 20
1172.806
 30
3890.001
 70
    32
  0
VERTEX
  8
E14LALIFT
 62
7
 10
-1729.338
 20
1176.501
 30
3890.001
 70
    32
  0
VERTEX
  8
E14LALIFT
 62
7
 10
-1734.721
 20
1184.636
 30
3890.001
 70
    32
  0
VERTEX
  8
E14LALIFT
 62
7
 10
-1733.100
 20
1196.360
 30
3890.001
 70
    32
  0
VERTEX
  8
E14LALIFT
 62
7
 10
-1737.769
 20
1203.236
 30
3890.001
 70
    32
  0
VERTEX
  8
E14LALIFT
 62
7
 10
-1737.912
 20
1203.526
 30
3890.001
 70
    32
  0
VERTEX
  8
E14LALIFT
 62
7
 10
-1736.010
 20
1207.272
 30
3890.019
 70
    32
  0
VERTEX
  8
E14LALIFT
 62
7
 10
-1752.767
 20
1226.897
 30
3890.451
 70
    32
  0
VERTEX
  8
E14LALIFT
 62
7
 10
-1751.409
 20
1231.722
 30
3890.138
 70
    32
  0
VERTEX
  8
E14LALIFT
 62
7
 10
-1754.699
 20
1237.716
 30
3890.334
 70
    32
  0
VERTEX
  8
E14LALIFT
 62
7
 10
-1754.422
 20
1241.328
 30
3890.325
 70
    32
  0
VERTEX
  8
E14LALIFT
 62
7
 10
-1768.461
 20
1253.558
 30
3891.288
 70
    32
  0
VERTEX
  8
E14LALIFT
 62
7
 10
-1760.555
 20
1260.768
 30
3891.434
 70
    32
  0
VERTEX
  8
E14LALIFT
 62
7
 10
-1751.631
 20
1253.656
 30
3890.425
 70
    32
  0
VERTEX
  8
E14LALIFT
 62
7
 10
-1747.172
 20
1250.716
 30
3889.970
 70
    32
  0
VERTEX
  8
E14LALIFT
 62
7
 10
-1744.201
 20
1248.654
 30
3890.036
 70
    32
  0
VERTEX
  8
E14LALIFT
 62
7
 10
-1739.203
 20
1245.703
 30
3890.030
 70
    32
  0
VERTEX
  8
E14LALIFT
 62
7
 10
-1733.190
 20
1234.654
 30
3890.053
 70
    32
  0
VERTEX
  8
E14LALIFT
 62
7
 10
-1720.301
 20
1238.778
 30
3890.000
 70
    32
  0
VERTEX
  8
E14LALIFT
 62
7
 10
-1707.858
 20
1217.947
 30
3890.073
 70
    32
  0
VERTEX
  8
E14LALIFT
 62
7
 10
-1707.302
 20
1217.849
 30
3890.001
 70
    32
  0
VERTEX
  8
E14LALIFT
 62
7
 10
-1697.858
 20
1221.831
 30
3890.001
 70
    32
  0
VERTEX
  8
E14LALIFT
 62
7
 10
-1695.846
 20
1221.326
 30
3890.001
 70
    32
  0
VERTEX
  8
E14LALIFT
 62
7
 10
-1695.630
 20
1220.955
 30
3890.027
 70
    32
  0
VERTEX
  8
E14LALIFT
 62
7
 10
-1691.591
 20
1204.743
 30
3891.027
 70
    32
  0
VERTEX
  8
E14LALIFT
 62
7
 10
-1690.478
 20
1203.081
 30
3891.027
 70
    32
  0
VERTEX
  8
E14LALIFT
 62
7
 10
-1689.568
 20
1202.824
 30
3890.703
 70
    32
  0
VERTEX
  8
E14LALIFT
 62
7
 10
-1681.935
 20
1201.915
 30
3890.408
 70
    32
  0
VERTEX
  8
E14LALIFT
 62
7
 10
-1676.015
 20
1196.194
 30
3889.989
 70
    32
  0
VERTEX
  8
E14LALIFT
 62
7
 10
-1680.300
 20
1188.122
 30
3889.959
 70
    32
  0
VERTEX
  8
E14LALIFT
 62
7
 10
-1679.041
 20
1186.019
 30
3890.008
 70
    32
  0
VERTEX
  8
E14LALIFT
 62
7
 10
-1679.283
 20
1186.023
 30
3890.027
 70
    32
  0
VERTEX
  8
E14LALIFT
 62
7
 10
-1684.185
 20
1180.084
 30
3891.027
 70
    32
  0
VERTEX
  8
E14LALIFT
 62
7
 10
-1688.430
 20
1168.629
 30
3891.027
 70
    32
  0
VERTEX
  8
E14LALIFT
 62
7
 10
-1687.319
 20
1164.931
 30
3891.027
 70
    32
  0
VERTEX
  8
E14LALIFT
 62
7
 10
-1686.661
 20
1164.578
 30
3889.530
 70
    32
  0
VERTEX
  8
E14LALIFT
 62
7
 10
-1682.626
 20
1145.931
 30
3889.530
 70
    32
  0
VERTEX
  8
E14LALIFT
 62
7
 10
-1680.002
 20
1137.819
 30
3889.530
 70
    32
  0
VERTEX
  8
E14LALIFT
 62
7
 10
-1677.804
 20
1135.156
 30
3889.530
 70
    32
  0
VERTEX
  8
E14LALIFT
 62
7
 10
-1678.421
 20
1124.813
 30
3889.530
 70
    32
  0
VERTEX
  8
E14LALIFT
 62
7
 10
-1674.334
 20
1113.450
 30
3889.530
 70
    32
  0
VERTEX
  8
E14LALIFT
 62
7
 10
-1668.958
 20
1107.085
 30
3889.530
 70
    32
  0
VERTEX
  8
E14LALIFT
 62
7
 10
-1668.698
 20
1106.697
 30
3890.302
 70
    32
  0
VERTEX
  8
E14LALIFT
 62
7
 10
-1656.880
 20
1107.520
 30
3890.235
 70
    32
  0
VERTEX
  8
E14LALIFT
 62
7
 10
-1657.369
 20
1086.301
 30
3890.586
 70
    32
  0
VERTEX
  8
E14LALIFT
 62
7
 10
-1654.765
 20
1071.778
 30
3890.388
 70
    32
  0
SEQEND
  8
E14LALIFT
  0
POLYLINE
  8
E14LALIFT
 62
7
 66
     1
 70
     9
  0
VERTEX
  8
E14LALIFT
 62
7
 10
-1663.453
 20
1077.574
 30
3890.480
 70
    32
  0
VERTEX
  8
E14LALIFT
 62
7
 10
-1665.453
 20
1074.107
 30
3890.480
 70
    32
  0
VERTEX
  8
E14LALIFT
 62
7
 10
-1661.453
 20
1074.107
 30
3890.480
 70
    32
  0
SEQEND
  8
E14LALIFT
  0
TEXT
  8
E14LALIFT
 62
7
 10
-1660.165
 20
1073.138
 30
3890.480
 40
1.575
  1
3890.48
 41
 1.0 
  0
TEXT
  8
E14LALIFT
 62
7
 10
-1660.654
 20
1075.615
 30
3890.480
 40
1.575
  1
ST-877S
 41
 1.0 
  0
POINT
  8
E14LALIFT
 62
7
 10
-1663.453
 20
1075.841
 30
3890.480
  0
POLYLINE
  8
E14LALIFT
 62
7
 66
     1
 70
     9
  0
VERTEX
  8
E14LALIFT
 62
7
 10
-1665.659
 20
1086.800
 30
3891.040
 70
    32
  0
VERTEX
  8
E14LALIFT
 62
7
 10
-1667.659
 20
1083.333
 30
3891.040
 70
    32
  0
VERTEX
  8
E14LALIFT
 62
7
 10
-1663.659
 20
1083.333
 30
3891.040
 70
    32
  0
SEQEND
  8
E14LALIFT
  0
POINT
  8
E14LALIFT
 62
7
 10
-1665.659
 20
1085.066
 30
3891.040
  0
TEXT
  8
E14LALIFT
 62
7
 10
-1662.378
 20
1082.145
 30
3891.040
 40
1.575
  1
3891.0399
 41
 1.0 
  0
TEXT
  8
E14LALIFT
 62
7
 10
-1662.409
 20
1084.841
 30
3891.040
 40
1.575
  1
ST-877T
 41
 1.0 
  0
TEXT
  8
E14LALIFT
 62
3
 10
-1498.604
 20
913.546
 30
3932.958
 40
1.575
  1
3932.9578
 41
 1.0 
  0
TEXT
  8
E14LALIFT
 62
3
 10
-1499.115
 20
915.826
 30
3932.958
 40
1.575
  1
ST-811S
 41
 1.0 
  0
POLYLINE
  8
E14LALIFT
 62
3
 66
     1
 70
     9
  0
VERTEX
  8
E14LALIFT
 62
3
 10
-1501.379
 20
917.306
 30
3932.958
 70
    32
  0
VERTEX
  8
E14LALIFT
 62
3
 10
-1503.379
 20
913.840
 30
3932.958
 70
    32
  0
VERTEX
  8
E14LALIFT
 62
3
 10
-1499.379
 20
913.840
 30
3932.958
 70
    32
  0
SEQEND
  8
E14LALIFT
  0
POINT
  8
E14LALIFT
 62
3
 10
-1501.379
 20
915.573
 30
3932.958
  0
TEXT
  8
E14LALIFT
 62
3
 10
-1505.549
 20
922.954
 30
3932.144
 40
1.575
  1
3932.1443
 41
 1.0 
  0
TEXT
  8
E14LALIFT
 62
3
 10
-1506.312
 20
925.741
 30
3932.144
 40
1.575
  1
ST-811T
 41
 1.0 
  0
POINT
  8
E14LALIFT
 62
3
 10
-1508.576
 20
925.741
 30
3932.144
  0
POLYLINE
  8
E14LALIFT
 62
3
 66
     1
 70
     9
  0
VERTEX
  8
E14LALIFT
 62
3
 10
-1508.576
 20
927.474
 30
3932.144
 70
    32
  0
VERTEX
  8
E14LALIFT
 62
3
 10
-1510.576
 20
924.008
 30
3932.144
 70
    32
  0
VERTEX
  8
E14LALIFT
 62
3
 10
-1506.576
 20
924.008
 30
3932.144
 70
    32
  0
SEQEND
  8
E14LALIFT
  0
POINT
  8
E14LALIFT
 62
3
 10
-1512.787
 20
936.752
 30
3934.106
  0
TEXT
  8
E14LALIFT
 62
3
 10
-1511.787
 20
936.752
 30
3934.106
 40
1.575
  1
ST-689T
 41
 1.0 
  0
POLYLINE
  8
E14LALIFT
 62
3
 66
     1
 70
     9
  0
VERTEX
  8
E14LALIFT
 62
3
 10
-1512.787
 20
938.486
 30
3934.106
 70
    32
  0
VERTEX
  8
E14LALIFT
 62
3
 10
-1514.787
 20
935.019
 30
3934.106
 70
    32
  0
VERTEX
  8
E14LALIFT
 62
3
 10
-1510.787
 20
935.019
 30
3934.106
 70
    32
  0
SEQEND
  8
E14LALIFT
  0
TEXT
  8
E14LALIFT
 62
3
 10
-1510.915
 20
934.477
 30
3934.106
 40
1.575
  1
3934.1064
 41
 1.0 
  0
TEXT
  8
E14LALIFT
 62
3
 10
-1523.590
 20
941.109
 30
3932.750
 40
1.575
  1
3932.7503
 41
 1.0 
  0
TEXT
  8
E14LALIFT
 62
3
 10
-1523.773
 20
944.025
 30
3932.750
 40
1.575
  1
ST-876T
 41
 1.0 
  0
POLYLINE
  8
E14LALIFT
 62
3
 66
     1
 70
     9
  0
VERTEX
  8
E14LALIFT
 62
3
 10
-1526.249
 20
945.575
 30
3932.750
 70
    32
  0
VERTEX
  8
E14LALIFT
 62
3
 10
-1528.249
 20
942.109
 30
3932.750
 70
    32
  0
VERTEX
  8
E14LALIFT
 62
3
 10
-1524.249
 20
942.109
 30
3932.750
 70
    32
  0
SEQEND
  8
E14LALIFT
  0
POINT
  8
E14LALIFT
 62
3
 10
-1526.249
 20
943.842
 30
3932.750
  0
POLYLINE
  8
E14LALIFT
 62
8
 66
     1
 70
     9
  0
VERTEX
  8
E14LALIFT
 62
8
 10
-1437.986
 20
558.742
 30
3890.000
 70
    32
  0
VERTEX
  8
E14LALIFT
 62
8
 10
-1428.639
 20
562.400
 30
3890.000
 70
    32
  0
VERTEX
  8
E14LALIFT
 62
8
 10
-1424.587
 20
555.532
 30
3890.000
 70
    32
  0
VERTEX
  8
E14LALIFT
 62
8
 10
-1419.921
 20
554.109
 30
3890.000
 70
    32
  0
VERTEX
  8
E14LALIFT
 62
8
 10
-1417.680
 20
552.400
 30
3890.000
 70
    32
  0
VERTEX
  8
E14LALIFT
 62
8
 10
-1415.755
 20
548.039
 30
3890.000
 70
    32
  0
VERTEX
  8
E14LALIFT
 62
8
 10
-1415.588
 20
543.929
 30
3890.000
 70
    32
  0
VERTEX
  8
E14LALIFT
 62
8
 10
-1413.699
 20
540.833
 30
3890.000
 70
    32
  0
VERTEX
  8
E14LALIFT
 62
8
 10
-1410.580
 20
538.636
 30
3890.000
 70
    32
  0
VERTEX
  8
E14LALIFT
 62
8
 10
-1407.753
 20
531.735
 30
3890.000
 70
    32
  0
VERTEX
  8
E14LALIFT
 62
8
 10
-1404.310
 20
522.888
 30
3890.000
 70
    32
  0
VERTEX
  8
E14LALIFT
 62
8
 10
-1399.157
 20
515.154
 30
3890.000
 70
    32
  0
VERTEX
  8
E14LALIFT
 62
8
 10
-1394.883
 20
509.942
 30
3890.000
 70
    32
  0
VERTEX
  8
E14LALIFT
 62
8
 10
-1389.851
 20
502.215
 30
3890.000
 70
    32
  0
VERTEX
  8
E14LALIFT
 62
8
 10
-1391.402
 20
496.126
 30
3890.000
 70
    32
  0
VERTEX
  8
E14LALIFT
 62
8
 10
-1395.464
 20
493.125
 30
3890.000
 70
    32
  0
VERTEX
  8
E14LALIFT
 62
8
 10
-1402.965
 20
490.816
 30
3890.000
 70
    32
  0
VERTEX
  8
E14LALIFT
 62
8
 10
-1405.144
 20
491.968
 30
3890.000
 70
    32
  0
VERTEX
  8
E14LALIFT
 62
8
 10
-1411.615
 20
507.532
 30
3890.000
 70
    32
  0
VERTEX
  8
E14LALIFT
 62
8
 10
-1415.925
 20
512.519
 30
3890.000
 70
    32
  0
VERTEX
  8
E14LALIFT
 62
8
 10
-1419.636
 20
519.947
 30
3890.000
 70
    32
  0
VERTEX
  8
E14LALIFT
 62
8
 10
-1423.880
 20
524.518
 30
3890.000
 70
    32
  0
VERTEX
  8
E14LALIFT
 62
8
 10
-1428.308
 20
531.324
 30
3890.000
 70
    32
  0
VERTEX
  8
E14LALIFT
 62
8
 10
-1431.137
 20
537.319
 30
3890.000
 70
    32
  0
VERTEX
  8
E14LALIFT
 62
8
 10
-1432.115
 20
543.696
 30
3890.000
 70
    32
  0
VERTEX
  8
E14LALIFT
 62
8
 10
-1434.267
 20
549.764
 30
3890.000
 70
    32
  0
SEQEND
  8
E14LALIFT
  0
POLYLINE
  8
E14LALIFT
 62
7
 66
     1
 70
     9
  0
VERTEX
  8
E14LALIFT
 62
7
 10
-1362.589
 20
410.077
 30
3889.372
 70
    32
  0
VERTEX
  8
E14LALIFT
 62
7
 10
-1372.379
 20
419.736
 30
3889.372
 70
    32
  0
VERTEX
  8
E14LALIFT
 62
7
 10
-1392.439
 20
459.296
 30
3902.372
 70
    32
  0
VERTEX
  8
E14LALIFT
 62
7
 10
-1408.222
 20
498.019
 30
3909.000
 70
    32
  0
VERTEX
  8
E14LALIFT
 62
7
 10
-1409.317
 20
497.829
 30
3909.000
 70
    32
  0
VERTEX
  8
E14LALIFT
 62
7
 10
-1430.108
 20
517.900
 30
3910.569
 70
    32
  0
VERTEX
  8
E14LALIFT
 62
7
 10
-1444.377
 20
533.663
 30
3910.569
 70
    32
  0
VERTEX
  8
E14LALIFT
 62
7
 10
-1450.413
 20
538.786
 30
3910.569
 70
    32
  0
VERTEX
  8
E14LALIFT
 62
7
 10
-1437.646
 20
546.851
 30
3910.569
 70
    32
  0
VERTEX
  8
E14LALIFT
 62
7
 10
-1433.414
 20
539.855
 30
3910.569
 70
    32
  0
VERTEX
  8
E14LALIFT
 62
7
 10
-1428.845
 20
535.893
 30
3910.569
 70
    32
  0
VERTEX
  8
E14LALIFT
 62
7
 10
-1425.728
 20
535.524
 30
3910.569
 70
    32
  0
VERTEX
  8
E14LALIFT
 62
7
 10
-1419.540
 20
537.261
 30
3910.569
 70
    32
  0
VERTEX
  8
E14LALIFT
 62
7
 10
-1415.263
 20
535.470
 30
3910.569
 70
    32
  0
VERTEX
  8
E14LALIFT
 62
7
 10
-1412.678
 20
522.269
 30
3910.569
 70
    32
  0
VERTEX
  8
E14LALIFT
 62
7
 10
-1403.533
 20
508.065
 30
3910.569
 70
    32
  0
VERTEX
  8
E14LALIFT
 62
7
 10
-1394.815
 20
505.438
 30
3909.000
 70
    32
  0
VERTEX
  8
E14LALIFT
 62
7
 10
-1383.014
 20
473.979
 30
3903.372
 70
    32
  0
VERTEX
  8
E14LALIFT
 62
7
 10
-1371.655
 20
442.257
 30
3893.372
 70
    32
  0
VERTEX
  8
E14LALIFT
 62
7
 10
-1356.599
 20
422.462
 30
3889.372
 70
    32
  0
VERTEX
  8
E14LALIFT
 62
7
 10
-1345.518
 20
415.096
 30
3889.372
 70
    32
  0
SEQEND
  8
E14LALIFT
  0
TEXT
  8
E14LALIFT
 62
7
 10
-1388.779
 20
467.409
 30
3903.028
 40
1.575
  1
3903.0276
 41
 1.0 
  0
TEXT
  8
E14LALIFT
 62
7
 10
-1390.095
 20
469.854
 30
3903.028
 40
1.575
  1
ST-845T
 41
 1.0 
  0
TEXT
  8
E14LALIFT
 62
7
 10
-1391.692
 20
473.092
 30
3903.427
 40
1.575
  1
3903.4274
 41
 1.0 
  0
TEXT
  8
E14LALIFT
 62
7
 10
-1391.541
 20
475.212
 30
3903.427
 40
1.575
  1
ST-845S
 41
 1.0 
  0
POINT
  8
E14LALIFT
 62
7
 10
-1391.095
 20
469.854
 30
3903.028
  0
POLYLINE
  8
E14LALIFT
 62
7
 66
     1
 70
     9
  0
VERTEX
  8
E14LALIFT
 62
7
 10
-1391.095
 20
471.587
 30
3903.028
 70
    32
  0
VERTEX
  8
E14LALIFT
 62
7
 10
-1393.095
 20
468.121
 30
3903.028
 70
    32
  0
VERTEX
  8
E14LALIFT
 62
7
 10
-1389.095
 20
468.121
 30
3903.028
 70
    32
  0
SEQEND
  8
E14LALIFT
  0
POINT
  8
E14LALIFT
 62
7
 10
-1394.335
 20
475.212
 30
3903.427
  0
POLYLINE
  8
E14LALIFT
 62
7
 66
     1
 70
     9
  0
VERTEX
  8
E14LALIFT
 62
7
 10
-1394.335
 20
476.945
 30
3903.427
 70
    32
  0
VERTEX
  8
E14LALIFT
 62
7
 10
-1396.335
 20
473.478
 30
3903.427
 70
    32
  0
VERTEX
  8
E14LALIFT
 62
7
 10
-1392.335
 20
473.478
 30
3903.427
 70
    32
  0
SEQEND
  8
E14LALIFT
  0
POLYLINE
  8
E14LALIFT
 62
2
 66
     1
 70
     9
  0
VERTEX
  8
E14LALIFT
 62
2
 10
-1437.163
 20
765.680
 30
3964.100
 70
    32
  0
VERTEX
  8
E14LALIFT
 62
2
 10
-1416.482
 20
772.203
 30
3965.200
 70
    32
  0
VERTEX
  8
E14LALIFT
 62
2
 10
-1396.069
 20
776.949
 30
3970.600
 70
    32
  0
VERTEX
  8
E14LALIFT
 62
2
 10
-1371.134
 20
794.669
 30
3973.500
 70
    32
  0
VERTEX
  8
E14LALIFT
 62
2
 10
-1365.395
 20
792.140
 30
3973.800
 70
    32
  0
VERTEX
  8
E14LALIFT
 62
2
 10
-1355.024
 20
793.836
 30
3974.100
 70
    32
  0
VERTEX
  8
E14LALIFT
 62
2
 10
-1349.864
 20
780.738
 30
3974.000
 70
    32
  0
VERTEX
  8
E14LALIFT
 62
2
 10
-1348.183
 20
771.786
 30
3974.600
 70
    32
  0
VERTEX
  8
E14LALIFT
 62
2
 10
-1346.656
 20
771.238
 30
3972.700
 70
    32
  0
VERTEX
  8
E14LALIFT
 62
2
 10
-1339.030
 20
765.131
 30
3972.700
 70
    32
  0
VERTEX
  8
E14LALIFT
 62
2
 10
-1334.763
 20
763.240
 30
3972.700
 70
    32
  0
VERTEX
  8
E14LALIFT
 62
2
 10
-1328.449
 20
771.524
 30
3972.700
 70
    32
  0
VERTEX
  8
E14LALIFT
 62
2
 10
-1324.204
 20
768.834
 30
3972.700
 70
    32
  0
VERTEX
  8
E14LALIFT
 62
2
 10
-1319.415
 20
766.790
 30
3972.700
 70
    32
  0
VERTEX
  8
E14LALIFT
 62
2
 10
-1313.597
 20
764.415
 30
3972.700
 70
    32
  0
VERTEX
  8
E14LALIFT
 62
2
 10
-1307.677
 20
767.274
 30
3972.700
 70
    32
  0
VERTEX
  8
E14LALIFT
 62
2
 10
-1301.932
 20
762.427
 30
3972.700
 70
    32
  0
VERTEX
  8
E14LALIFT
 62
2
 10
-1300.592
 20
756.470
 30
3972.700
 70
    32
  0
VERTEX
  8
E14LALIFT
 62
2
 10
-1302.587
 20
750.499
 30
3972.700
 70
    32
  0
VERTEX
  8
E14LALIFT
 62
2
 10
-1308.102
 20
749.847
 30
3972.700
 70
    32
  0
VERTEX
  8
E14LALIFT
 62
2
 10
-1310.718
 20
748.150
 30
3972.700
 70
    32
  0
VERTEX
  8
E14LALIFT
 62
2
 10
-1320.712
 20
748.279
 30
3972.700
 70
    32
  0
VERTEX
  8
E14LALIFT
 62
2
 10
-1325.998
 20
741.548
 30
3972.700
 70
    32
  0
VERTEX
  8
E14LALIFT
 62
2
 10
-1329.708
 20
743.083
 30
3972.700
 70
    32
  0
VERTEX
  8
E14LALIFT
 62
2
 10
-1331.182
 20
743.787
 30
3972.700
 70
    32
  0
VERTEX
  8
E14LALIFT
 62
2
 10
-1336.393
 20
747.018
 30
3972.600
 70
    32
  0
VERTEX
  8
E14LALIFT
 62
2
 10
-1347.118
 20
748.102
 30
3972.300
 70
    32
  0
VERTEX
  8
E14LALIFT
 62
2
 10
-1355.569
 20
740.988
 30
3972.700
 70
    32
  0
VERTEX
  8
E14LALIFT
 62
2
 10
-1359.485
 20
752.515
 30
3973.300
 70
    32
  0
VERTEX
  8
E14LALIFT
 62
2
 10
-1365.543
 20
765.001
 30
3972.248
 70
    32
  0
VERTEX
  8
E14LALIFT
 62
2
 10
-1377.542
 20
769.096
 30
3973.258
 70
    32
  0
VERTEX
  8
E14LALIFT
 62
2
 10
-1397.174
 20
765.151
 30
3970.603
 70
    32
  0
VERTEX
  8
E14LALIFT
 62
2
 10
-1411.365
 20
763.372
 30
3965.400
 70
    32
  0
VERTEX
  8
E14LALIFT
 62
2
 10
-1433.420
 20
754.986
 30
3964.665
 70
    32
  0
SEQEND
  8
E14LALIFT
  0
POLYLINE
  8
E14LALIFT
 62
7
 66
     1
 70
     9
  0
VERTEX
  8
E14LALIFT
 62
7
 10
-1361.875
 20
768.953
 30
3974.657
 70
    32
  0
VERTEX
  8
E14LALIFT
 62
7
 10
-1363.875
 20
765.487
 30
3974.657
 70
    32
  0
VERTEX
  8
E14LALIFT
 62
7
 10
-1359.875
 20
765.487
 30
3974.657
 70
    32
  0
SEQEND
  8
E14LALIFT
  0
POINT
  8
E14LALIFT
 62
7
 10
-1359.786
 20
765.843
 30
3974.126
  0
POLYLINE
  8
E14LALIFT
 62
7
 66
     1
 70
     9
  0
VERTEX
  8
E14LALIFT
 62
7
 10
-1359.786
 20
767.576
 30
3974.126
 70
    32
  0
VERTEX
  8
E14LALIFT
 62
7
 10
-1361.786
 20
764.110
 30
3974.126
 70
    32
  0
VERTEX
  8
E14LALIFT
 62
7
 10
-1357.786
 20
764.110
 30
3974.126
 70
    32
  0
SEQEND
  8
E14LALIFT
  0
POINT
  8
E14LALIFT
 62
7
 10
-1361.875
 20
767.220
 30
3974.657
  0
TEXT
  8
E14LALIFT
 62
7
 10
-1377.263
 20
756.809
 30
3974.126
 40
1.575
  1
ST-887S
 50
17.687
 41
 1.0 
  0
TEXT
  8
E14LALIFT
 62
7
 10
-1376.488
 20
754.894
 30
3974.126
 40
1.575
  1
3974.1
 50
17.687
 41
 1.0 
  0
TEXT
  8
E14LALIFT
 62
7
 10
-1379.266
 20
760.004
 30
3974.657
 40
1.575
  1
3974.6
 50
17.687
 41
 1.0 
  0
TEXT
  8
E14LALIFT
 62
7
 10
-1380.188
 20
762.053
 30
3974.657
 40
1.575
  1
ST-887T
 50
17.687
 41
 1.0 
  0
TEXT
  8
E14LALIFT
 62
3
 10
-971.793
 20
223.053
 30
3866.650
 40
1.969
  1
3866.650
 50
35.510
 41
 1.0 
  0
TEXT
  8
E14LALIFT
 62
3
 10
-973.373
 20
225.388
 30
3866.650
 40
1.969
  1
ST-218T
 50
35.510
 41
 1.0 
  0
POLYLINE
  8
E14LALIFT
 62
3
 66
     1
 70
     9
  0
VERTEX
  8
E14LALIFT
 62
3
 10
-976.627
 20
227.566
 30
3866.650
 70
    32
  0
VERTEX
  8
E14LALIFT
 62
3
 10
-974.878
 20
224.386
 30
3866.650
 70
    32
  0
VERTEX
  8
E14LALIFT
 62
3
 10
-978.377
 20
224.388
 30
3866.650
 70
    32
  0
SEQEND
  8
E14LALIFT
  0
POINT
  8
E14LALIFT
 62
3
 10
-976.627
 20
225.356
 30
3866.650
  0
TEXT
  8
E14LALIFT
 62
3
 10
-975.190
 20
230.082
 30
3867.445
 40
1.969
  1
3867.445
 50
35.510
 41
 1.0 
  0
TEXT
  8
E14LALIFT
 62
3
 10
-976.022
 20
232.583
 30
3867.445
 40
1.969
  1
ST-218S
 50
35.510
 41
 1.0 
  0
POLYLINE
  8
E14LALIFT
 62
3
 66
     1
 70
     9
  0
VERTEX
  8
E14LALIFT
 62
3
 10
-978.446
 20
232.756
 30
3867.445
 70
    32
  0
VERTEX
  8
E14LALIFT
 62
3
 10
-976.697
 20
229.576
 30
3867.445
 70
    32
  0
VERTEX
  8
E14LALIFT
 62
3
 10
-980.196
 20
229.578
 30
3867.445
 70
    32
  0
SEQEND
  8
E14LALIFT
  0
POINT
  8
E14LALIFT
 62
3
 10
-978.446
 20
230.546
 30
3867.445
  0
TEXT
  8
E14LALIFT
 62
3
 10
-1021.468
 20
295.902
 30
3865.981
 40
1.575
  1
3865.981
 50
-53.860
 41
 1.0 
  0
TEXT
  8
E14LALIFT
 62
3
 10
-1018.480
 20
296.771
 30
3865.981
 40
1.575
  1
ST-116S
 50
-53.860
 41
 1.0 
  0
POINT
  8
E14LALIFT
 62
3
 10
-1010.659
 20
281.091
 30
3866.082
  0
TEXT
  8
E14LALIFT
 62
3
 10
-1009.793
 20
278.635
 30
3866.082
 40
1.575
  1
3866.082
 50
-53.860
 41
 1.0 
  0
POLYLINE
  8
E14LALIFT
 62
3
 66
     1
 70
     9
  0
VERTEX
  8
E14LALIFT
 62
3
 10
-1010.659
 20
283.301
 30
3866.082
 70
    32
  0
VERTEX
  8
E14LALIFT
 62
3
 10
-1008.910
 20
280.121
 30
3866.082
 70
    32
  0
VERTEX
  8
E14LALIFT
 62
3
 10
-1012.409
 20
280.123
 30
3866.082
 70
    32
  0
SEQEND
  8
E14LALIFT
  0
POLYLINE
  8
E14LALIFT
 62
3
 66
     1
 70
     9
  0
VERTEX
  8
E14LALIFT
 62
3
 10
-1012.066
 20
286.279
 30
3865.981
 70
    32
  0
VERTEX
  8
E14LALIFT
 62
3
 10
-1010.317
 20
283.099
 30
3865.981
 70
    32
  0
VERTEX
  8
E14LALIFT
 62
3
 10
-1013.816
 20
283.101
 30
3865.981
 70
    32
  0
SEQEND
  8
E14LALIFT
  0
POINT
  8
E14LALIFT
 62
3
 10
-1012.066
 20
284.069
 30
3865.981
  0
TEXT
  8
E14LALIFT
 62
3
 10
-1008.259
 20
280.073
 30
3866.082
 40
1.575
  1
ST-116T
 50
-53.860
 41
 1.0 
  0
POLYLINE
  8
E14LALIFT
 62
8
 66
     1
 70
     9
  0
VERTEX
  8
E14LALIFT
 62
8
 10
-1608.194
 20
1018.939
 30
3978.552
 70
    32
  0
VERTEX
  8
E14LALIFT
 62
8
 10
-1610.194
 20
1015.473
 30
3978.552
 70
    32
  0
VERTEX
  8
E14LALIFT
 62
8
 10
-1606.194
 20
1015.473
 30
3978.552
 70
    32
  0
SEQEND
  8
E14LALIFT
  0
POINT
  8
E14LALIFT
 62
8
 10
-1608.194
 20
1017.206
 30
3978.552
  0
TEXT
  8
E14LALIFT
 62
8
 10
-1604.692
 20
1015.981
 30
3978.552
 40
1.575
  1
3978.5519
 50
72.764
 41
 1.0 
  0
TEXT
  8
E14LALIFT
 62
8
 10
-1606.172
 20
1018.227
 30
3978.552
 40
1.575
  1
ST-822S
 50
72.764
 41
 1.0 
  0
TEXT
  8
E14LALIFT
 62
8
 10
-1609.281
 20
1020.832
 30
3978.226
 40
1.575
  1
3978.2261
 50
72.764
 41
 1.0 
  0
TEXT
  8
E14LALIFT
 62
8
 10
-1610.966
 20
1022.771
 30
3978.226
 40
1.575
  1
ST-822T
 50
72.764
 41
 1.0 
  0
POLYLINE
  8
E14LALIFT
 62
8
 66
     1
 70
     9
  0
VERTEX
  8
E14LALIFT
 62
8
 10
-1612.579
 20
1023.484
 30
3978.226
 70
    32
  0
VERTEX
  8
E14LALIFT
 62
8
 10
-1614.579
 20
1020.018
 30
3978.226
 70
    32
  0
VERTEX
  8
E14LALIFT
 62
8
 10
-1610.579
 20
1020.018
 30
3978.226
 70
    32
  0
SEQEND
  8
E14LALIFT
  0
POINT
  8
E14LALIFT
 62
8
 10
-1612.579
 20
1021.751
 30
3978.226
  0
POLYLINE
  8
E14LALIFT
 62
27
 66
     1
 70
     9
  0
VERTEX
  8
E14LALIFT
 62
27
 10
-597.253
 20
-1300.810
 30
3849.038
 70
    32
  0
VERTEX
  8
E14LALIFT
 62
27
 10
-617.054
 20
-1316.186
 30
3857.089
 70
    32
  0
VERTEX
  8
E14LALIFT
 62
27
 10
-630.480
 20
-1327.790
 30
3861.981
 70
    32
  0
VERTEX
  8
E14LALIFT
 62
27
 10
-648.430
 20
-1343.713
 30
3868.408
 70
    32
  0
VERTEX
  8
E14LALIFT
 62
27
 10
-653.038
 20
-1349.031
 30
3869.852
 70
    32
  0
VERTEX
  8
E14LALIFT
 62
27
 10
-661.262
 20
-1350.515
 30
3870.226
 70
    32
  0
VERTEX
  8
E14LALIFT
 62
27
 10
-667.051
 20
-1353.960
 30
3870.933
 70
    32
  0
VERTEX
  8
E14LALIFT
 62
27
 10
-676.383
 20
-1355.846
 30
3872.906
 70
    32
  0
VERTEX
  8
E14LALIFT
 62
27
 10
-689.931
 20
-1358.118
 30
3874.008
 70
    32
  0
VERTEX
  8
E14LALIFT
 62
27
 10
-697.158
 20
-1358.330
 30
3874.684
 70
    32
  0
VERTEX
  8
E14LALIFT
 62
27
 10
-701.538
 20
-1357.208
 30
3874.915
 70
    32
  0
VERTEX
  8
E14LALIFT
 62
27
 10
-710.215
 20
-1354.593
 30
3875.828
 70
    32
  0
VERTEX
  8
E14LALIFT
 62
27
 10
-718.543
 20
-1350.930
 30
3875.652
 70
    32
  0
VERTEX
  8
E14LALIFT
 62
27
 10
-721.148
 20
-1348.518
 30
3875.584
 70
    32
  0
VERTEX
  8
E14LALIFT
 62
27
 10
-722.525
 20
-1344.515
 30
3875.502
 70
    32
  0
VERTEX
  8
E14LALIFT
 62
27
 10
-724.589
 20
-1337.751
 30
3875.366
 70
    32
  0
VERTEX
  8
E14LALIFT
 62
27
 10
-725.553
 20
-1332.092
 30
3875.255
 70
    32
  0
VERTEX
  8
E14LALIFT
 62
27
 10
-725.553
 20
-1327.813
 30
3875.172
 70
    32
  0
VERTEX
  8
E14LALIFT
 62
27
 10
-729.681
 20
-1321.050
 30
3875.019
 70
    32
  0
VERTEX
  8
E14LALIFT
 62
27
 10
-733.132
 20
-1315.185
 30
3874.888
 70
    32
  0
VERTEX
  8
E14LALIFT
 62
27
 10
-731.459
 20
-1309.855
 30
3874.780
 70
    32
  0
VERTEX
  8
E14LALIFT
 62
27
 10
-736.022
 20
-1291.440
 30
3874.710
 70
    32
  0
VERTEX
  8
E14LALIFT
 62
27
 10
-733.360
 20
-1279.272
 30
3874.663
 70
    32
  0
VERTEX
  8
E14LALIFT
 62
27
 10
-732.332
 20
-1267.236
 30
3874.619
 70
    32
  0
VERTEX
  8
E14LALIFT
 62
27
 10
-731.577
 20
-1258.402
 30
3875.000
 70
    32
  0
VERTEX
  8
E14LALIFT
 62
27
 10
-735.139
 20
-1247.874
 30
3875.392
 70
    32
  0
VERTEX
  8
E14LALIFT
 62
27
 10
-737.601
 20
-1235.789
 30
3875.827
 70
    32
  0
VERTEX
  8
E14LALIFT
 62
27
 10
-746.523
 20
-1211.835
 30
3876.728
 70
    32
  0
VERTEX
  8
E14LALIFT
 62
27
 10
-754.372
 20
-1204.768
 30
3877.100
 70
    32
  0
VERTEX
  8
E14LALIFT
 62
27
 10
-758.894
 20
-1196.134
 30
3877.100
 70
    32
  0
VERTEX
  8
E14LALIFT
 62
27
 10
-750.527
 20
-1187.718
 30
3877.100
 70
    32
  0
VERTEX
  8
E14LALIFT
 62
27
 10
-746.454
 20
-1186.960
 30
3877.100
 70
    32
  0
VERTEX
  8
E14LALIFT
 62
27
 10
-736.348
 20
-1201.729
 30
3877.100
 70
    32
  0
VERTEX
  8
E14LALIFT
 62
27
 10
-729.617
 20
-1224.671
 30
3876.244
 70
    32
  0
VERTEX
  8
E14LALIFT
 62
27
 10
-724.672
 20
-1229.579
 30
3875.994
 70
    32
  0
VERTEX
  8
E14LALIFT
 62
27
 10
-719.482
 20
-1240.725
 30
3875.553
 70
    32
  0
VERTEX
  8
E14LALIFT
 62
27
 10
-716.641
 20
-1255.913
 30
3875.000
 70
    32
  0
VERTEX
  8
E14LALIFT
 62
27
 10
-714.834
 20
-1267.678
 30
3874.741
 70
    32
  0
VERTEX
  8
E14LALIFT
 62
27
 10
-718.021
 20
-1290.846
 30
3874.693
 70
    32
  0
VERTEX
  8
E14LALIFT
 62
27
 10
-714.817
 20
-1311.388
 30
3874.650
 70
    32
  0
VERTEX
  8
E14LALIFT
 62
27
 10
-708.211
 20
-1331.402
 30
3875.380
 70
    32
  0
VERTEX
  8
E14LALIFT
 62
27
 10
-704.358
 20
-1337.475
 30
3875.630
 70
    32
  0
VERTEX
  8
E14LALIFT
 62
27
 10
-702.844
 20
-1342.996
 30
3875.828
 70
    32
  0
VERTEX
  8
E14LALIFT
 62
27
 10
-697.839
 20
-1345.238
 30
3874.883
 70
    32
  0
VERTEX
  8
E14LALIFT
 62
27
 10
-690.003
 20
-1345.936
 30
3874.227
 70
    32
  0
VERTEX
  8
E14LALIFT
 62
27
 10
-680.675
 20
-1344.812
 30
3873.000
 70
    32
  0
VERTEX
  8
E14LALIFT
 62
27
 10
-670.583
 20
-1341.940
 30
3870.425
 70
    32
  0
VERTEX
  8
E14LALIFT
 62
27
 10
-659.945
 20
-1337.082
 30
3869.818
 70
    32
  0
VERTEX
  8
E14LALIFT
 62
27
 10
-656.209
 20
-1334.893
 30
3868.455
 70
    32
  0
VERTEX
  8
E14LALIFT
 62
27
 10
-637.819
 20
-1319.031
 30
3862.067
 70
    32
  0
VERTEX
  8
E14LALIFT
 62
27
 10
-626.655
 20
-1308.620
 30
3857.034
 70
    32
  0
VERTEX
  8
E14LALIFT
 62
27
 10
-610.247
 20
-1298.134
 30
3850.293
 70
    32
  0
VERTEX
  8
E14LALIFT
 62
27
 10
-607.474
 20
-1292.461
 30
3849.077
 70
    32
  0
SEQEND
  8
E14LALIFT
  0
POLYLINE
  8
E14LALIFT
 62
1
 66
     1
 70
     9
  0
VERTEX
  8
E14LALIFT
 62
1
 10
-734.054
 20
-1248.022
 30
3886.000
 70
    32
  0
VERTEX
  8
E14LALIFT
 62
1
 10
-736.826
 20
-1235.629
 30
3886.000
 70
    32
  0
VERTEX
  8
E14LALIFT
 62
1
 10
-743.630
 20
-1216.407
 30
3886.000
 70
    32
  0
VERTEX
  8
E14LALIFT
 62
1
 10
-746.150
 20
-1211.348
 30
3886.000
 70
    32
  0
VERTEX
  8
E14LALIFT
 62
1
 10
-736.070
 20
-1204.772
 30
3886.000
 70
    32
  0
VERTEX
  8
E14LALIFT
 62
1
 10
-730.022
 20
-1224.753
 30
3886.000
 70
    32
  0
VERTEX
  8
E14LALIFT
 62
1
 10
-726.494
 20
-1233.100
 30
3886.000
 70
    32
  0
VERTEX
  8
E14LALIFT
 62
1
 10
-721.202
 20
-1245.240
 30
3886.000
 70
    32
  0
VERTEX
  8
E14LALIFT
 62
1
 10
-719.942
 20
-1251.310
 30
3886.000
 70
    32
  0
VERTEX
  8
E14LALIFT
 62
1
 10
-733.046
 20
-1254.598
 30
3886.000
 70
    32
  0
SEQEND
  8
E14LALIFT
  0
POLYLINE
  8
E14LALIFT
 62
27
 66
     1
 70
     9
  0
VERTEX
  8
E14LALIFT
 62
27
 10
-586.014
 20
-1287.884
 30
3848.507
 70
    32
  0
VERTEX
  8
E14LALIFT
 62
27
 10
-588.014
 20
-1291.350
 30
3848.507
 70
    32
  0
VERTEX
  8
E14LALIFT
 62
27
 10
-584.014
 20
-1291.350
 30
3848.507
 70
    32
  0
SEQEND
  8
E14LALIFT
  0
POINT
  8
E14LALIFT
 62
27
 10
-586.014
 20
-1289.617
 30
3848.507
  0
TEXT
  8
E14LALIFT
 62
27
 10
-583.127
 20
-1293.251
 30
3848.507
 40
1.575
  1
3848.5066
 41
 1.0 
  0
TEXT
  8
E14LALIFT
 62
27
 10
-582.291
 20
-1289.617
 30
3848.507
 40
1.575
  1
ST-687S
 41
 1.0 
  0
TEXT
  8
E14LALIFT
 62
11
 10
-634.564
 20
-1328.611
 30
3860.429
 40
1.575
  1
3860.4287
 50
-65.150
 41
 1.0 
  0
TEXT
  8
E14LALIFT
 62
11
 10
-631.839
 20
-1328.762
 30
3860.429
 40
1.575
  1
ST-801T
 50
-65.150
 41
 1.0 
  0
POINT
  8
E14LALIFT
 62
11
 10
-634.354
 20
-1325.738
 30
3860.429
  0
POLYLINE
  8
E14LALIFT
 62
11
 66
     1
 70
     9
  0
VERTEX
  8
E14LALIFT
 62
11
 10
-634.354
 20
-1324.004
 30
3860.429
 70
    32
  0
VERTEX
  8
E14LALIFT
 62
11
 10
-636.354
 20
-1327.471
 30
3860.429
 70
    32
  0
VERTEX
  8
E14LALIFT
 62
11
 10
-632.354
 20
-1327.471
 30
3860.429
 70
    32
  0
SEQEND
  8
E14LALIFT
  0
TEXT
  8
E14LALIFT
 62
27
 10
-651.729
 20
-1342.153
 30
3868.414
 40
1.575
  1
3868.4144
 50
-52.149
 41
 1.0 
  0
TEXT
  8
E14LALIFT
 62
27
 10
-653.518
 20
-1343.872
 30
1000.000
 40
1.575
  1
3855.0044 sol
 50
-55.005
 41
 1.0 
  0
TEXT
  8
E14LALIFT
 62
27
 10
-684.153
 20
-1358.508
 30
3874.059
 40
1.575
  1
ST-803S
 50
-84.318
 41
 1.0 
  0
TEXT
  8
E14LALIFT
 62
27
 10
-686.017
 20
-1358.239
 30
3874.059
 40
1.575
  1
3874.0592
 50
-84.318
 41
 1.0 
  0
POINT
  8
E14LALIFT
 62
27
 10
-684.082
 20
-1355.815
 30
3874.059
  0
POLYLINE
  8
E14LALIFT
 62
27
 66
     1
 70
     9
  0
VERTEX
  8
E14LALIFT
 62
27
 10
-684.082
 20
-1354.081
 30
3874.059
 70
    32
  0
VERTEX
  8
E14LALIFT
 62
27
 10
-686.082
 20
-1357.548
 30
3874.059
 70
    32
  0
VERTEX
  8
E14LALIFT
 62
27
 10
-682.082
 20
-1357.548
 30
3874.059
 70
    32
  0
SEQEND
  8
E14LALIFT
  0
TEXT
  8
E14LALIFT
 62
27
 10
-695.739
 20
-1359.021
 30
3874.677
 40
1.575
  1
ST-803T
 50
-84.318
 41
 1.0 
  0
TEXT
  8
E14LALIFT
 62
27
 10
-697.644
 20
-1359.072
 30
3874.677
 40
1.575
  1
3874.6775
 50
-84.318
 41
 1.0 
  0
TEXT
  8
E14LALIFT
 62
27
 10
-699.773
 20
-1359.082
 30
1000.000
 40
1.575
  1
3864.1666 SOL
 50
-83.976
 41
 1.0 
  0
POLYLINE
  8
E14LALIFT
 62
27
 66
     1
 70
     9
  0
VERTEX
  8
E14LALIFT
 62
27
 10
-695.860
 20
-1346.849
 30
3874.677
 70
    32
  0
VERTEX
  8
E14LALIFT
 62
27
 10
-697.860
 20
-1350.316
 30
3874.677
 70
    32
  0
VERTEX
  8
E14LALIFT
 62
27
 10
-693.860
 20
-1350.316
 30
3874.677
 70
    32
  0
SEQEND
  8
E14LALIFT
  0
POINT
  8
E14LALIFT
 62
27
 10
-695.860
 20
-1348.582
 30
3874.677
  0
POINT
  8
E14LALIFT
 62
27
 10
-716.196
 20
-1316.394
 30
3874.580
  0
POLYLINE
  8
E14LALIFT
 62
27
 66
     1
 70
     9
  0
VERTEX
  8
E14LALIFT
 62
27
 10
-716.196
 20
-1314.661
 30
3874.580
 70
    32
  0
VERTEX
  8
E14LALIFT
 62
27
 10
-718.196
 20
-1318.127
 30
3874.580
 70
    32
  0
VERTEX
  8
E14LALIFT
 62
27
 10
-714.196
 20
-1318.127
 30
3874.580
 70
    32
  0
SEQEND
  8
E14LALIFT
  0
TEXT
  8
E14LALIFT
 62
27
 10
-711.986
 20
-1318.332
 30
3874.580
 40
1.575
  1
3874.5803
 50
9.946
 41
 1.0 
  0
TEXT
  8
E14LALIFT
 62
27
 10
-712.540
 20
-1316.394
 30
3874.580
 40
1.575
  1
ST-809S
 50
9.946
 41
 1.0 
  0
TEXT
  8
E14LALIFT
 62
27
 10
-714.595
 20
-1309.574
 30
3874.780
 40
1.575
  1
3874.7802
 50
9.946
 41
 1.0 
  0
TEXT
  8
E14LALIFT
 62
27
 10
-714.803
 20
-1307.241
 30
3874.780
 40
1.575
  1
ST-809T
 50
9.946
 41
 1.0 
  0
POLYLINE
  8
E14LALIFT
 62
27
 66
     1
 70
     9
  0
VERTEX
  8
E14LALIFT
 62
27
 10
-719.496
 20
-1305.947
 30
3874.780
 70
    32
  0
VERTEX
  8
E14LALIFT
 62
27
 10
-721.496
 20
-1309.414
 30
3874.780
 70
    32
  0
VERTEX
  8
E14LALIFT
 62
27
 10
-717.496
 20
-1309.414
 30
3874.780
 70
    32
  0
SEQEND
  8
E14LALIFT
  0
POINT
  8
E14LALIFT
 62
27
 10
-719.496
 20
-1307.680
 30
3874.780
  0
ENDSEC
  0
EOF
