999
********************************
999
*   DXF File - Entities Only   *
999
*        3D Data Format        *
999
*     Output from ENVISAGE     *
999
*     31-Dec-2007 14:00:08     *
999
********************************
  0
SECTION 
  2
HEADER
  9
$ACADVER
  1
AC1009
  9
$EXTMIN
 10
-290000.000
 20
-250000.000
 30
-4000.000
  9
$EXTMAX
 10
320000.000
 20
160000.000
 30
6000.000
  0
ENDSEC
  0
SECTION
  2
ENTITIES
  0
POLYLINE
  8
E14LXLIFT
 62
1
 66
     1
 70
     9
  0
VERTEX
  8
E14LXLIFT
 62
1
 10
-568.327
 20
-771.640
 30
3915.000
 70
    32
  0
VERTEX
  8
E14LXLIFT
 62
1
 10
-563.377
 20
-772.062
 30
3915.000
 70
    32
  0
VERTEX
  8
E14LXLIFT
 62
1
 10
-560.230
 20
-770.271
 30
3915.000
 70
    32
  0
VERTEX
  8
E14LXLIFT
 62
1
 10
-565.979
 20
-754.806
 30
3915.000
 70
    32
  0
VERTEX
  8
E14LXLIFT
 62
1
 10
-569.427
 20
-746.772
 30
3915.000
 70
    32
  0
VERTEX
  8
E14LXLIFT
 62
1
 10
-560.752
 20
-738.665
 30
3915.000
 70
    32
  0
VERTEX
  8
E14LXLIFT
 62
1
 10
-560.279
 20
-738.350
 30
3915.000
 70
    32
  0
VERTEX
  8
E14LXLIFT
 62
1
 10
-561.056
 20
-728.792
 30
3915.000
 70
    32
  0
VERTEX
  8
E14LXLIFT
 62
1
 10
-566.530
 20
-717.438
 30
3915.000
 70
    32
  0
VERTEX
  8
E14LXLIFT
 62
1
 10
-552.599
 20
-716.050
 30
3915.000
 70
    32
  0
VERTEX
  8
E14LXLIFT
 62
1
 10
-549.319
 20
-724.434
 30
3915.000
 70
    32
  0
VERTEX
  8
E14LXLIFT
 62
1
 10
-545.667
 20
-727.970
 30
3915.000
 70
    32
  0
VERTEX
  8
E14LXLIFT
 62
1
 10
-543.619
 20
-735.696
 30
3915.000
 70
    32
  0
VERTEX
  8
E14LXLIFT
 62
1
 10
-542.668
 20
-746.579
 30
3915.000
 70
    32
  0
VERTEX
  8
E14LXLIFT
 62
1
 10
-541.668
 20
-764.708
 30
3915.000
 70
    32
  0
VERTEX
  8
E14LXLIFT
 62
1
 10
-536.249
 20
-768.189
 30
3915.000
 70
    32
  0
VERTEX
  8
E14LXLIFT
 62
1
 10
-534.656
 20
-799.784
 30
3915.000
 70
    32
  0
VERTEX
  8
E14LXLIFT
 62
1
 10
-536.796
 20
-806.740
 30
3915.000
 70
    32
  0
VERTEX
  8
E14LXLIFT
 62
1
 10
-535.643
 20
-812.942
 30
3915.000
 70
    32
  0
VERTEX
  8
E14LXLIFT
 62
1
 10
-532.833
 20
-820.891
 30
3915.000
 70
    32
  0
VERTEX
  8
E14LXLIFT
 62
1
 10
-536.069
 20
-826.227
 30
3915.000
 70
    32
  0
VERTEX
  8
E14LXLIFT
 62
1
 10
-544.949
 20
-831.375
 30
3915.000
 70
    32
  0
VERTEX
  8
E14LXLIFT
 62
1
 10
-547.710
 20
-827.032
 30
3915.000
 70
    32
  0
VERTEX
  8
E14LXLIFT
 62
1
 10
-551.647
 20
-811.092
 30
3915.000
 70
    32
  0
VERTEX
  8
E14LXLIFT
 62
1
 10
-554.864
 20
-798.761
 30
3915.000
 70
    32
  0
VERTEX
  8
E14LXLIFT
 62
1
 10
-560.910
 20
-788.900
 30
3915.000
 70
    32
  0
VERTEX
  8
E14LXLIFT
 62
1
 10
-568.434
 20
-784.628
 30
3915.000
 70
    32
  0
SEQEND
  8
E14LXLIFT
  0
POLYLINE
  8
E14LXLIFT
 62
13
 66
     1
 70
     9
  0
VERTEX
  8
E14LXLIFT
 62
13
 10
-561.242
 20
-770.259
 30
3898.000
 70
    32
  0
VERTEX
  8
E14LXLIFT
 62
13
 10
-566.495
 20
-759.834
 30
3898.000
 70
    32
  0
VERTEX
  8
E14LXLIFT
 62
13
 10
-570.678
 20
-748.635
 30
3898.000
 70
    32
  0
VERTEX
  8
E14LXLIFT
 62
13
 10
-566.569
 20
-744.256
 30
3898.000
 70
    32
  0
VERTEX
  8
E14LXLIFT
 62
13
 10
-557.484
 20
-737.148
 30
3898.000
 70
    32
  0
VERTEX
  8
E14LXLIFT
 62
13
 10
-550.946
 20
-733.727
 30
3898.000
 70
    32
  0
VERTEX
  8
E14LXLIFT
 62
13
 10
-542.928
 20
-737.161
 30
3898.000
 70
    32
  0
VERTEX
  8
E14LXLIFT
 62
13
 10
-541.967
 20
-748.408
 30
3898.000
 70
    32
  0
VERTEX
  8
E14LXLIFT
 62
13
 10
-540.958
 20
-760.922
 30
3898.000
 70
    32
  0
VERTEX
  8
E14LXLIFT
 62
13
 10
-535.277
 20
-769.084
 30
3898.000
 70
    32
  0
VERTEX
  8
E14LXLIFT
 62
13
 10
-535.588
 20
-781.575
 30
3898.000
 70
    32
  0
VERTEX
  8
E14LXLIFT
 62
13
 10
-534.266
 20
-791.367
 30
3898.000
 70
    32
  0
VERTEX
  8
E14LXLIFT
 62
13
 10
-535.547
 20
-804.017
 30
3898.000
 70
    32
  0
VERTEX
  8
E14LXLIFT
 62
13
 10
-533.718
 20
-816.916
 30
3898.000
 70
    32
  0
VERTEX
  8
E14LXLIFT
 62
13
 10
-533.546
 20
-824.065
 30
3898.000
 70
    32
  0
VERTEX
  8
E14LXLIFT
 62
13
 10
-539.898
 20
-827.894
 30
3898.000
 70
    32
  0
VERTEX
  8
E14LXLIFT
 62
13
 10
-545.378
 20
-830.225
 30
3898.000
 70
    32
  0
VERTEX
  8
E14LXLIFT
 62
13
 10
-548.966
 20
-821.203
 30
3898.000
 70
    32
  0
VERTEX
  8
E14LXLIFT
 62
13
 10
-553.423
 20
-810.528
 30
3898.000
 70
    32
  0
VERTEX
  8
E14LXLIFT
 62
13
 10
-554.721
 20
-799.416
 30
3898.000
 70
    32
  0
VERTEX
  8
E14LXLIFT
 62
13
 10
-560.548
 20
-790.600
 30
3898.000
 70
    32
  0
SEQEND
  8
E14LXLIFT
  0
POLYLINE
  8
E14LXLIFT
 62
13
 66
     1
 70
     9
  0
VERTEX
  8
E14LXLIFT
 62
13
 10
-560.242
 20
-769.259
 30
3909.000
 70
    32
  0
VERTEX
  8
E14LXLIFT
 62
13
 10
-565.495
 20
-758.834
 30
3909.000
 70
    32
  0
VERTEX
  8
E14LXLIFT
 62
13
 10
-569.678
 20
-747.635
 30
3909.000
 70
    32
  0
VERTEX
  8
E14LXLIFT
 62
13
 10
-565.569
 20
-743.256
 30
3909.000
 70
    32
  0
VERTEX
  8
E14LXLIFT
 62
13
 10
-556.484
 20
-736.148
 30
3909.000
 70
    32
  0
VERTEX
  8
E14LXLIFT
 62
13
 10
-549.946
 20
-732.727
 30
3909.000
 70
    32
  0
VERTEX
  8
E14LXLIFT
 62
13
 10
-541.928
 20
-736.161
 30
3909.000
 70
    32
  0
VERTEX
  8
E14LXLIFT
 62
13
 10
-540.967
 20
-747.408
 30
3909.000
 70
    32
  0
VERTEX
  8
E14LXLIFT
 62
13
 10
-539.958
 20
-759.922
 30
3909.000
 70
    32
  0
VERTEX
  8
E14LXLIFT
 62
13
 10
-534.277
 20
-768.084
 30
3909.000
 70
    32
  0
VERTEX
  8
E14LXLIFT
 62
13
 10
-534.588
 20
-780.575
 30
3909.000
 70
    32
  0
VERTEX
  8
E14LXLIFT
 62
13
 10
-533.266
 20
-790.367
 30
3909.000
 70
    32
  0
VERTEX
  8
E14LXLIFT
 62
13
 10
-534.547
 20
-803.017
 30
3909.000
 70
    32
  0
VERTEX
  8
E14LXLIFT
 62
13
 10
-532.718
 20
-815.916
 30
3909.000
 70
    32
  0
VERTEX
  8
E14LXLIFT
 62
13
 10
-532.546
 20
-823.065
 30
3909.000
 70
    32
  0
VERTEX
  8
E14LXLIFT
 62
13
 10
-538.898
 20
-826.894
 30
3909.000
 70
    32
  0
VERTEX
  8
E14LXLIFT
 62
13
 10
-544.378
 20
-829.225
 30
3909.000
 70
    32
  0
VERTEX
  8
E14LXLIFT
 62
13
 10
-547.966
 20
-820.203
 30
3909.000
 70
    32
  0
VERTEX
  8
E14LXLIFT
 62
13
 10
-552.423
 20
-809.528
 30
3909.000
 70
    32
  0
VERTEX
  8
E14LXLIFT
 62
13
 10
-553.721
 20
-798.416
 30
3909.000
 70
    32
  0
VERTEX
  8
E14LXLIFT
 62
13
 10
-559.548
 20
-789.600
 30
3909.000
 70
    32
  0
SEQEND
  8
E14LXLIFT
  0
POLYLINE
  8
E14LXLIFT
 62
2
 66
     1
 70
     9
  0
VERTEX
  8
E14LXLIFT
 62
2
 10
-700.593
 20
-1300.793
 30
3837.950
 70
    32
  0
VERTEX
  8
E14LXLIFT
 62
2
 10
-710.764
 20
-1303.334
 30
3837.950
 70
    32
  0
VERTEX
  8
E14LXLIFT
 62
2
 10
-707.692
 20
-1318.923
 30
3837.950
 70
    32
  0
VERTEX
  8
E14LXLIFT
 62
2
 10
-710.797
 20
-1322.556
 30
3837.950
 70
    32
  0
VERTEX
  8
E14LXLIFT
 62
2
 10
-701.355
 20
-1336.684
 30
3837.950
 70
    32
  0
VERTEX
  8
E14LXLIFT
 62
2
 10
-704.947
 20
-1345.397
 30
3837.950
 70
    32
  0
VERTEX
  8
E14LXLIFT
 62
2
 10
-715.016
 20
-1348.959
 30
3837.950
 70
    32
  0
VERTEX
  8
E14LXLIFT
 62
2
 10
-718.708
 20
-1341.950
 30
3837.950
 70
    32
  0
VERTEX
  8
E14LXLIFT
 62
2
 10
-725.015
 20
-1339.524
 30
3837.950
 70
    32
  0
VERTEX
  8
E14LXLIFT
 62
2
 10
-730.274
 20
-1306.150
 30
3837.950
 70
    32
  0
VERTEX
  8
E14LXLIFT
 62
2
 10
-737.563
 20
-1309.173
 30
3837.950
 70
    32
  0
VERTEX
  8
E14LXLIFT
 62
2
 10
-738.841
 20
-1286.871
 30
3837.950
 70
    32
  0
VERTEX
  8
E14LXLIFT
 62
2
 10
-741.796
 20
-1280.410
 30
3837.950
 70
    32
  0
VERTEX
  8
E14LXLIFT
 62
2
 10
-735.195
 20
-1257.495
 30
3837.950
 70
    32
  0
VERTEX
  8
E14LXLIFT
 62
2
 10
-738.069
 20
-1253.935
 30
3837.950
 70
    32
  0
VERTEX
  8
E14LXLIFT
 62
2
 10
-730.472
 20
-1247.061
 30
3837.950
 70
    32
  0
VERTEX
  8
E14LXLIFT
 62
2
 10
-733.568
 20
-1240.705
 30
3837.950
 70
    32
  0
VERTEX
  8
E14LXLIFT
 62
2
 10
-733.822
 20
-1229.924
 30
3837.950
 70
    32
  0
VERTEX
  8
E14LXLIFT
 62
2
 10
-722.747
 20
-1225.064
 30
3837.950
 70
    32
  0
VERTEX
  8
E14LXLIFT
 62
2
 10
-718.634
 20
-1246.019
 30
3837.950
 70
    32
  0
VERTEX
  8
E14LXLIFT
 62
2
 10
-709.272
 20
-1243.423
 30
3837.950
 70
    32
  0
VERTEX
  8
E14LXLIFT
 62
2
 10
-688.403
 20
-1245.518
 30
3837.950
 70
    32
  0
VERTEX
  8
E14LXLIFT
 62
2
 10
-688.811
 20
-1247.029
 30
3837.950
 70
    32
  0
VERTEX
  8
E14LXLIFT
 62
2
 10
-678.628
 20
-1253.474
 30
3837.950
 70
    32
  0
VERTEX
  8
E14LXLIFT
 62
2
 10
-682.739
 20
-1298.993
 30
3837.950
 70
    32
  0
SEQEND
  8
E14LXLIFT
  0
POLYLINE
  8
E14LXLIFT
 62
3
 66
     1
 70
     9
  0
VERTEX
  8
E14LXLIFT
 62
3
 10
-676.858
 20
-538.420
 30
3880.855
 70
    32
  0
VERTEX
  8
E14LXLIFT
 62
3
 10
-676.797
 20
-523.999
 30
3880.990
 70
    32
  0
VERTEX
  8
E14LXLIFT
 62
3
 10
-678.080
 20
-513.578
 30
3883.131
 70
    32
  0
VERTEX
  8
E14LXLIFT
 62
3
 10
-680.464
 20
-510.471
 30
3883.086
 70
    32
  0
VERTEX
  8
E14LXLIFT
 62
3
 10
-683.229
 20
-495.318
 30
3883.772
 70
    32
  0
VERTEX
  8
E14LXLIFT
 62
3
 10
-683.030
 20
-489.623
 30
3883.563
 70
    32
  0
VERTEX
  8
E14LXLIFT
 62
3
 10
-688.770
 20
-479.732
 30
3885.414
 70
    32
  0
VERTEX
  8
E14LXLIFT
 62
3
 10
-687.517
 20
-477.708
 30
3885.583
 70
    32
  0
VERTEX
  8
E14LXLIFT
 62
3
 10
-692.001
 20
-467.001
 30
3887.332
 70
    32
  0
VERTEX
  8
E14LXLIFT
 62
3
 10
-696.760
 20
-466.113
 30
3887.815
 70
    32
  0
VERTEX
  8
E14LXLIFT
 62
3
 10
-703.497
 20
-457.290
 30
3888.415
 70
    32
  0
VERTEX
  8
E14LXLIFT
 62
3
 10
-710.643
 20
-450.066
 30
3888.191
 70
    32
  0
VERTEX
  8
E14LXLIFT
 62
3
 10
-714.944
 20
-443.838
 30
3888.825
 70
    32
  0
VERTEX
  8
E14LXLIFT
 62
3
 10
-715.919
 20
-438.471
 30
3888.823
 70
    32
  0
VERTEX
  8
E14LXLIFT
 62
3
 10
-721.910
 20
-433.481
 30
3888.238
 70
    32
  0
VERTEX
  8
E14LXLIFT
 62
3
 10
-724.995
 20
-427.848
 30
3888.844
 70
    32
  0
VERTEX
  8
E14LXLIFT
 62
3
 10
-747.450
 20
-430.044
 30
3887.656
 70
    32
  0
VERTEX
  8
E14LXLIFT
 62
3
 10
-744.918
 20
-448.750
 30
3887.584
 70
    32
  0
VERTEX
  8
E14LXLIFT
 62
3
 10
-743.427
 20
-461.555
 30
3887.368
 70
    32
  0
VERTEX
  8
E14LXLIFT
 62
3
 10
-740.185
 20
-482.097
 30
3886.953
 70
    32
  0
VERTEX
  8
E14LXLIFT
 62
3
 10
-730.004
 20
-510.436
 30
3885.825
 70
    32
  0
VERTEX
  8
E14LXLIFT
 62
3
 10
-736.104
 20
-516.700
 30
3885.855
 70
    32
  0
VERTEX
  8
E14LXLIFT
 62
3
 10
-720.099
 20
-531.640
 30
3885.855
 70
    32
  0
VERTEX
  8
E14LXLIFT
 62
3
 10
-719.547
 20
-537.614
 30
3885.855
 70
    32
  0
VERTEX
  8
E14LXLIFT
 62
3
 10
-714.536
 20
-541.804
 30
3885.203
 70
    32
  0
VERTEX
  8
E14LXLIFT
 62
3
 10
-717.426
 20
-548.617
 30
3885.100
 70
    32
  0
VERTEX
  8
E14LXLIFT
 62
3
 10
-710.429
 20
-554.595
 30
3884.183
 70
    32
  0
VERTEX
  8
E14LXLIFT
 62
3
 10
-698.673
 20
-560.373
 30
3882.864
 70
    32
  0
VERTEX
  8
E14LXLIFT
 62
3
 10
-692.101
 20
-554.045
 30
3882.622
 70
    32
  0
SEQEND
  8
E14LXLIFT
  0
POLYLINE
  8
E14LXLIFT
 62
3
 66
     1
 70
     9
  0
VERTEX
  8
E14LXLIFT
 62
3
 10
-709.137
 20
-471.290
 30
3885.201
 70
    32
  0
VERTEX
  8
E14LXLIFT
 62
3
 10
-718.205
 20
-469.702
 30
3885.718
 70
    32
  0
VERTEX
  8
E14LXLIFT
 62
3
 10
-728.507
 20
-466.265
 30
3886.200
 70
    32
  0
VERTEX
  8
E14LXLIFT
 62
3
 10
-732.575
 20
-467.057
 30
3886.775
 70
    32
  0
VERTEX
  8
E14LXLIFT
 62
3
 10
-727.895
 20
-487.128
 30
3885.393
 70
    32
  0
VERTEX
  8
E14LXLIFT
 62
3
 10
-724.365
 20
-498.898
 30
3885.013
 70
    32
  0
VERTEX
  8
E14LXLIFT
 62
3
 10
-715.981
 20
-517.213
 30
3884.887
 70
    32
  0
VERTEX
  8
E14LXLIFT
 62
3
 10
-705.532
 20
-527.507
 30
3883.855
 70
    32
  0
VERTEX
  8
E14LXLIFT
 62
3
 10
-692.131
 20
-519.291
 30
3884.706
 70
    32
  0
VERTEX
  8
E14LXLIFT
 62
3
 10
-694.009
 20
-501.737
 30
3884.709
 70
    32
  0
VERTEX
  8
E14LXLIFT
 62
3
 10
-692.876
 20
-491.967
 30
3885.286
 70
    32
  0
VERTEX
  8
E14LXLIFT
 62
3
 10
-698.208
 20
-481.142
 30
3885.840
 70
    32
  0
VERTEX
  8
E14LXLIFT
 62
3
 10
-700.959
 20
-475.739
 30
3886.438
 70
    32
  0
SEQEND
  8
E14LXLIFT
  0
POLYLINE
  8
E14LXLIFT
 62
1
 66
     1
 70
     9
  0
VERTEX
  8
E14LXLIFT
 62
1
 10
-710.376
 20
-472.184
 30
3896.346
 70
    32
  0
VERTEX
  8
E14LXLIFT
 62
1
 10
-719.444
 20
-470.596
 30
3896.863
 70
    32
  0
VERTEX
  8
E14LXLIFT
 62
1
 10
-729.746
 20
-467.159
 30
3897.345
 70
    32
  0
VERTEX
  8
E14LXLIFT
 62
1
 10
-733.814
 20
-467.950
 30
3897.921
 70
    32
  0
VERTEX
  8
E14LXLIFT
 62
1
 10
-729.134
 20
-488.022
 30
3896.538
 70
    32
  0
VERTEX
  8
E14LXLIFT
 62
1
 10
-725.604
 20
-499.792
 30
3896.158
 70
    32
  0
VERTEX
  8
E14LXLIFT
 62
1
 10
-717.220
 20
-518.107
 30
3896.032
 70
    32
  0
VERTEX
  8
E14LXLIFT
 62
1
 10
-706.771
 20
-528.401
 30
3895.000
 70
    32
  0
VERTEX
  8
E14LXLIFT
 62
1
 10
-693.370
 20
-520.185
 30
3895.851
 70
    32
  0
VERTEX
  8
E14LXLIFT
 62
1
 10
-695.248
 20
-502.631
 30
3895.854
 70
    32
  0
VERTEX
  8
E14LXLIFT
 62
1
 10
-694.115
 20
-492.861
 30
3896.431
 70
    32
  0
VERTEX
  8
E14LXLIFT
 62
1
 10
-699.447
 20
-482.036
 30
3896.985
 70
    32
  0
VERTEX
  8
E14LXLIFT
 62
1
 10
-702.198
 20
-476.633
 30
3897.583
 70
    32
  0
SEQEND
  8
E14LXLIFT
  0
POLYLINE
  8
E14LXLIFT
 62
1
 66
     1
 70
     9
  0
VERTEX
  8
E14LXLIFT
 62
1
 10
-678.717
 20
-539.314
 30
3892.000
 70
    32
  0
VERTEX
  8
E14LXLIFT
 62
1
 10
-678.656
 20
-524.893
 30
3892.135
 70
    32
  0
VERTEX
  8
E14LXLIFT
 62
1
 10
-679.939
 20
-514.472
 30
3894.276
 70
    32
  0
VERTEX
  8
E14LXLIFT
 62
1
 10
-682.323
 20
-511.365
 30
3894.231
 70
    32
  0
VERTEX
  8
E14LXLIFT
 62
1
 10
-685.088
 20
-496.212
 30
3894.917
 70
    32
  0
VERTEX
  8
E14LXLIFT
 62
1
 10
-684.889
 20
-490.517
 30
3894.708
 70
    32
  0
VERTEX
  8
E14LXLIFT
 62
1
 10
-690.629
 20
-480.626
 30
3896.559
 70
    32
  0
VERTEX
  8
E14LXLIFT
 62
1
 10
-689.376
 20
-478.602
 30
3896.728
 70
    32
  0
VERTEX
  8
E14LXLIFT
 62
1
 10
-693.860
 20
-467.895
 30
3898.477
 70
    32
  0
VERTEX
  8
E14LXLIFT
 62
1
 10
-698.619
 20
-467.007
 30
3898.960
 70
    32
  0
VERTEX
  8
E14LXLIFT
 62
1
 10
-705.356
 20
-458.184
 30
3899.560
 70
    32
  0
VERTEX
  8
E14LXLIFT
 62
1
 10
-712.502
 20
-450.960
 30
3899.336
 70
    32
  0
VERTEX
  8
E14LXLIFT
 62
1
 10
-716.803
 20
-444.732
 30
3899.970
 70
    32
  0
VERTEX
  8
E14LXLIFT
 62
1
 10
-717.778
 20
-439.365
 30
3899.968
 70
    32
  0
VERTEX
  8
E14LXLIFT
 62
1
 10
-723.769
 20
-434.375
 30
3899.383
 70
    32
  0
VERTEX
  8
E14LXLIFT
 62
1
 10
-726.854
 20
-428.742
 30
3899.989
 70
    32
  0
VERTEX
  8
E14LXLIFT
 62
1
 10
-749.309
 20
-430.938
 30
3898.801
 70
    32
  0
VERTEX
  8
E14LXLIFT
 62
1
 10
-746.777
 20
-449.644
 30
3898.729
 70
    32
  0
VERTEX
  8
E14LXLIFT
 62
1
 10
-745.286
 20
-462.449
 30
3898.513
 70
    32
  0
VERTEX
  8
E14LXLIFT
 62
1
 10
-742.044
 20
-482.991
 30
3898.098
 70
    32
  0
VERTEX
  8
E14LXLIFT
 62
1
 10
-731.863
 20
-511.330
 30
3896.970
 70
    32
  0
VERTEX
  8
E14LXLIFT
 62
1
 10
-737.963
 20
-517.594
 30
3897.000
 70
    32
  0
VERTEX
  8
E14LXLIFT
 62
1
 10
-721.958
 20
-532.534
 30
3897.000
 70
    32
  0
VERTEX
  8
E14LXLIFT
 62
1
 10
-721.406
 20
-538.508
 30
3897.000
 70
    32
  0
VERTEX
  8
E14LXLIFT
 62
1
 10
-716.395
 20
-542.698
 30
3896.348
 70
    32
  0
VERTEX
  8
E14LXLIFT
 62
1
 10
-719.285
 20
-549.510
 30
3896.245
 70
    32
  0
VERTEX
  8
E14LXLIFT
 62
1
 10
-712.289
 20
-555.489
 30
3895.328
 70
    32
  0
VERTEX
  8
E14LXLIFT
 62
1
 10
-700.532
 20
-561.267
 30
3894.009
 70
    32
  0
VERTEX
  8
E14LXLIFT
 62
1
 10
-693.960
 20
-554.939
 30
3893.767
 70
    32
  0
SEQEND
  8
E14LXLIFT
  0
POLYLINE
  8
E14LXLIFT
 62
1
 66
     1
 70
     9
  0
VERTEX
  8
E14LXLIFT
 62
1
 10
-726.854
 20
-428.742
 30
3899.989
 70
    32
  0
VERTEX
  8
E14LXLIFT
 62
1
 10
-723.276
 20
-412.876
 30
3899.689
 70
    32
  0
VERTEX
  8
E14LXLIFT
 62
1
 10
-724.298
 20
-400.144
 30
3899.010
 70
    32
  0
VERTEX
  8
E14LXLIFT
 62
1
 10
-732.276
 20
-390.500
 30
3899.077
 70
    32
  0
VERTEX
  8
E14LXLIFT
 62
1
 10
-731.810
 20
-383.628
 30
3900.200
 70
    32
  0
VERTEX
  8
E14LXLIFT
 62
1
 10
-740.183
 20
-373.372
 30
3900.414
 70
    32
  0
VERTEX
  8
E14LXLIFT
 62
1
 10
-743.567
 20
-366.939
 30
3899.553
 70
    32
  0
VERTEX
  8
E14LXLIFT
 62
1
 10
-750.160
 20
-364.337
 30
3899.557
 70
    32
  0
VERTEX
  8
E14LXLIFT
 62
1
 10
-753.713
 20
-358.332
 30
3899.626
 70
    32
  0
VERTEX
  8
E14LXLIFT
 62
1
 10
-757.292
 20
-355.071
 30
3899.655
 70
    32
  0
VERTEX
  8
E14LXLIFT
 62
1
 10
-761.749
 20
-349.687
 30
3899.711
 70
    32
  0
VERTEX
  8
E14LXLIFT
 62
1
 10
-767.626
 20
-350.816
 30
3899.663
 70
    32
  0
VERTEX
  8
E14LXLIFT
 62
1
 10
-774.509
 20
-344.787
 30
3899.715
 70
    32
  0
VERTEX
  8
E14LXLIFT
 62
1
 10
-778.239
 20
-337.262
 30
3899.806
 70
    32
  0
VERTEX
  8
E14LXLIFT
 62
1
 10
-786.693
 20
-329.291
 30
3899.879
 70
    32
  0
VERTEX
  8
E14LXLIFT
 62
1
 10
-795.550
 20
-335.125
 30
3899.746
 70
    32
  0
VERTEX
  8
E14LXLIFT
 62
1
 10
-791.431
 20
-340.895
 30
3899.683
 70
    32
  0
VERTEX
  8
E14LXLIFT
 62
1
 10
-789.766
 20
-348.150
 30
3899.586
 70
    32
  0
VERTEX
  8
E14LXLIFT
 62
1
 10
-790.061
 20
-353.553
 30
3899.505
 70
    32
  0
VERTEX
  8
E14LXLIFT
 62
1
 10
-796.338
 20
-360.553
 30
3899.369
 70
    32
  0
VERTEX
  8
E14LXLIFT
 62
1
 10
-796.181
 20
-367.371
 30
3899.270
 70
    32
  0
VERTEX
  8
E14LXLIFT
 62
1
 10
-789.148
 20
-371.469
 30
3899.247
 70
    32
  0
VERTEX
  8
E14LXLIFT
 62
1
 10
-783.931
 20
-377.308
 30
3899.189
 70
    32
  0
VERTEX
  8
E14LXLIFT
 62
1
 10
-777.977
 20
-383.661
 30
3899.127
 70
    32
  0
VERTEX
  8
E14LXLIFT
 62
1
 10
-771.143
 20
-389.827
 30
3899.072
 70
    32
  0
VERTEX
  8
E14LXLIFT
 62
1
 10
-764.158
 20
-389.242
 30
3899.117
 70
    32
  0
VERTEX
  8
E14LXLIFT
 62
1
 10
-759.992
 20
-390.608
 30
3899.119
 70
    32
  0
VERTEX
  8
E14LXLIFT
 62
1
 10
-758.146
 20
-392.788
 30
3899.097
 70
    32
  0
VERTEX
  8
E14LXLIFT
 62
1
 10
-754.823
 20
-398.342
 30
3899.033
 70
    32
  0
VERTEX
  8
E14LXLIFT
 62
1
 10
-749.051
 20
-413.706
 30
3899.779
 70
    32
  0
VERTEX
  8
E14LXLIFT
 62
1
 10
-747.328
 20
-426.260
 30
3898.316
 70
    32
  0
VERTEX
  8
E14LXLIFT
 62
1
 10
-749.309
 20
-430.938
 30
3898.801
 70
    32
  0
SEQEND
  8
E14LXLIFT
  0
POLYLINE
  8
E14LXLIFT
 62
2
 66
     1
 70
     9
  0
VERTEX
  8
E14LXLIFT
 62
2
 10
-724.376
 20
-427.848
 30
3888.844
 70
    32
  0
VERTEX
  8
E14LXLIFT
 62
2
 10
-720.798
 20
-411.982
 30
3888.544
 70
    32
  0
VERTEX
  8
E14LXLIFT
 62
2
 10
-721.820
 20
-399.250
 30
3887.865
 70
    32
  0
VERTEX
  8
E14LXLIFT
 62
2
 10
-729.798
 20
-389.606
 30
3887.932
 70
    32
  0
VERTEX
  8
E14LXLIFT
 62
2
 10
-729.332
 20
-382.734
 30
3889.055
 70
    32
  0
VERTEX
  8
E14LXLIFT
 62
2
 10
-737.705
 20
-372.478
 30
3889.269
 70
    32
  0
VERTEX
  8
E14LXLIFT
 62
2
 10
-741.089
 20
-366.045
 30
3888.408
 70
    32
  0
VERTEX
  8
E14LXLIFT
 62
2
 10
-747.682
 20
-363.443
 30
3888.411
 70
    32
  0
VERTEX
  8
E14LXLIFT
 62
2
 10
-751.235
 20
-357.438
 30
3888.481
 70
    32
  0
VERTEX
  8
E14LXLIFT
 62
2
 10
-754.814
 20
-354.177
 30
3888.510
 70
    32
  0
VERTEX
  8
E14LXLIFT
 62
2
 10
-759.271
 20
-348.793
 30
3888.565
 70
    32
  0
VERTEX
  8
E14LXLIFT
 62
2
 10
-765.148
 20
-349.922
 30
3888.518
 70
    32
  0
VERTEX
  8
E14LXLIFT
 62
2
 10
-772.031
 20
-343.893
 30
3888.570
 70
    32
  0
VERTEX
  8
E14LXLIFT
 62
2
 10
-775.761
 20
-336.368
 30
3888.661
 70
    32
  0
VERTEX
  8
E14LXLIFT
 62
2
 10
-784.215
 20
-328.397
 30
3888.734
 70
    32
  0
VERTEX
  8
E14LXLIFT
 62
2
 10
-793.072
 20
-334.231
 30
3888.601
 70
    32
  0
VERTEX
  8
E14LXLIFT
 62
2
 10
-788.953
 20
-340.001
 30
3888.538
 70
    32
  0
VERTEX
  8
E14LXLIFT
 62
2
 10
-787.288
 20
-347.256
 30
3888.441
 70
    32
  0
VERTEX
  8
E14LXLIFT
 62
2
 10
-787.583
 20
-352.659
 30
3888.360
 70
    32
  0
VERTEX
  8
E14LXLIFT
 62
2
 10
-793.860
 20
-359.659
 30
3888.224
 70
    32
  0
VERTEX
  8
E14LXLIFT
 62
2
 10
-793.703
 20
-366.477
 30
3888.125
 70
    32
  0
VERTEX
  8
E14LXLIFT
 62
2
 10
-786.670
 20
-370.575
 30
3888.102
 70
    32
  0
VERTEX
  8
E14LXLIFT
 62
2
 10
-781.453
 20
-376.414
 30
3888.044
 70
    32
  0
VERTEX
  8
E14LXLIFT
 62
2
 10
-775.499
 20
-382.767
 30
3887.982
 70
    32
  0
VERTEX
  8
E14LXLIFT
 62
2
 10
-768.665
 20
-388.933
 30
3887.927
 70
    32
  0
VERTEX
  8
E14LXLIFT
 62
2
 10
-761.680
 20
-388.348
 30
3887.972
 70
    32
  0
VERTEX
  8
E14LXLIFT
 62
2
 10
-757.514
 20
-389.714
 30
3887.974
 70
    32
  0
VERTEX
  8
E14LXLIFT
 62
2
 10
-755.668
 20
-391.894
 30
3887.952
 70
    32
  0
VERTEX
  8
E14LXLIFT
 62
2
 10
-752.345
 20
-397.448
 30
3887.888
 70
    32
  0
VERTEX
  8
E14LXLIFT
 62
2
 10
-746.573
 20
-412.812
 30
3888.634
 70
    32
  0
VERTEX
  8
E14LXLIFT
 62
2
 10
-744.850
 20
-425.366
 30
3887.171
 70
    32
  0
VERTEX
  8
E14LXLIFT
 62
2
 10
-746.831
 20
-430.044
 30
3887.656
 70
    32
  0
SEQEND
  8
E14LXLIFT
  0
POLYLINE
  8
E14LXLIFT
 62
1
 66
     1
 70
     9
  0
VERTEX
  8
E14LXLIFT
 62
1
 10
-746.013
 20
-449.676
 30
3910.000
 70
    32
  0
VERTEX
  8
E14LXLIFT
 62
1
 10
-731.333
 20
-454.254
 30
3910.000
 70
    32
  0
VERTEX
  8
E14LXLIFT
 62
1
 10
-729.520
 20
-429.089
 30
3910.000
 70
    32
  0
VERTEX
  8
E14LXLIFT
 62
1
 10
-727.674
 20
-416.892
 30
3910.000
 70
    32
  0
VERTEX
  8
E14LXLIFT
 62
1
 10
-737.505
 20
-390.271
 30
3910.000
 70
    32
  0
VERTEX
  8
E14LXLIFT
 62
1
 10
-735.817
 20
-375.271
 30
3910.000
 70
    32
  0
VERTEX
  8
E14LXLIFT
 62
1
 10
-754.523
 20
-352.899
 30
3910.000
 70
    32
  0
VERTEX
  8
E14LXLIFT
 62
1
 10
-764.062
 20
-351.791
 30
3910.000
 70
    32
  0
VERTEX
  8
E14LXLIFT
 62
1
 10
-751.383
 20
-386.443
 30
3910.000
 70
    32
  0
VERTEX
  8
E14LXLIFT
 62
1
 10
-748.018
 20
-390.392
 30
3910.000
 70
    32
  0
VERTEX
  8
E14LXLIFT
 62
1
 10
-744.773
 20
-406.359
 30
3910.000
 70
    32
  0
VERTEX
  8
E14LXLIFT
 62
1
 10
-746.113
 20
-410.768
 30
3910.000
 70
    32
  0
VERTEX
  8
E14LXLIFT
 62
1
 10
-745.128
 20
-433.926
 30
3910.000
 70
    32
  0
SEQEND
  8
E14LXLIFT
  0
POLYLINE
  8
E14LXLIFT
 62
1
 66
     1
 70
     9
  0
VERTEX
  8
E14LXLIFT
 62
1
 10
-738.645
 20
-350.174
 30
3884.000
 70
    32
  0
VERTEX
  8
E14LXLIFT
 62
1
 10
-752.837
 20
-347.836
 30
3884.000
 70
    32
  0
VERTEX
  8
E14LXLIFT
 62
1
 10
-770.392
 20
-350.260
 30
3884.000
 70
    32
  0
VERTEX
  8
E14LXLIFT
 62
1
 10
-771.098
 20
-353.636
 30
3884.000
 70
    32
  0
VERTEX
  8
E14LXLIFT
 62
1
 10
-769.710
 20
-366.468
 30
3884.000
 70
    32
  0
VERTEX
  8
E14LXLIFT
 62
1
 10
-761.348
 20
-390.471
 30
3884.000
 70
    32
  0
VERTEX
  8
E14LXLIFT
 62
1
 10
-754.879
 20
-415.832
 30
3884.000
 70
    32
  0
VERTEX
  8
E14LXLIFT
 62
1
 10
-744.923
 20
-446.779
 30
3884.000
 70
    32
  0
VERTEX
  8
E14LXLIFT
 62
1
 10
-738.692
 20
-446.742
 30
3884.000
 70
    32
  0
VERTEX
  8
E14LXLIFT
 62
1
 10
-732.222
 20
-424.879
 30
3884.000
 70
    32
  0
VERTEX
  8
E14LXLIFT
 62
1
 10
-730.393
 20
-408.173
 30
3884.000
 70
    32
  0
VERTEX
  8
E14LXLIFT
 62
1
 10
-732.581
 20
-380.783
 30
3884.000
 70
    32
  0
VERTEX
  8
E14LXLIFT
 62
1
 10
-733.058
 20
-377.212
 30
3884.000
 70
    32
  0
VERTEX
  8
E14LXLIFT
 62
1
 10
-731.137
 20
-358.092
 30
3884.000
 70
    32
  0
VERTEX
  8
E14LXLIFT
 62
1
 10
-731.137
 20
-358.092
 30
3884.000
 70
    32
  0
VERTEX
  8
E14LXLIFT
 62
1
 10
-737.095
 20
-352.730
 30
3884.000
 70
    32
  0
SEQEND
  8
E14LXLIFT
  0
POLYLINE
  8
E14LXLIFT
 62
1
 66
     1
 70
     9
  0
VERTEX
  8
E14LXLIFT
 62
1
 10
-727.622
 20
-345.915
 30
3865.000
 70
    32
  0
VERTEX
  8
E14LXLIFT
 62
1
 10
-743.588
 20
-343.286
 30
3865.000
 70
    32
  0
VERTEX
  8
E14LXLIFT
 62
1
 10
-754.408
 20
-350.007
 30
3865.000
 70
    32
  0
VERTEX
  8
E14LXLIFT
 62
1
 10
-756.140
 20
-366.122
 30
3865.000
 70
    32
  0
VERTEX
  8
E14LXLIFT
 62
1
 10
-761.994
 20
-378.672
 30
3865.000
 70
    32
  0
VERTEX
  8
E14LXLIFT
 62
1
 10
-764.418
 20
-403.632
 30
3865.000
 70
    32
  0
VERTEX
  8
E14LXLIFT
 62
1
 10
-751.137
 20
-443.933
 30
3865.000
 70
    32
  0
VERTEX
  8
E14LXLIFT
 62
1
 10
-739.465
 20
-443.123
 30
3865.000
 70
    32
  0
VERTEX
  8
E14LXLIFT
 62
1
 10
-730.354
 20
-404.231
 30
3865.000
 70
    32
  0
VERTEX
  8
E14LXLIFT
 62
1
 10
-726.117
 20
-375.622
 30
3865.000
 70
    32
  0
VERTEX
  8
E14LXLIFT
 62
1
 10
-725.652
 20
-355.199
 30
3865.000
 70
    32
  0
SEQEND
  8
E14LXLIFT
  0
POLYLINE
  8
E14LXLIFT
 62
1
 66
     1
 70
     9
  0
VERTEX
  8
E14LXLIFT
 62
1
 10
-725.478
 20
-333.462
 30
3850.500
 70
    32
  0
VERTEX
  8
E14LXLIFT
 62
1
 10
-746.072
 20
-331.893
 30
3850.500
 70
    32
  0
VERTEX
  8
E14LXLIFT
 62
1
 10
-749.673
 20
-336.564
 30
3850.500
 70
    32
  0
VERTEX
  8
E14LXLIFT
 62
1
 10
-748.953
 20
-348.223
 30
3850.500
 70
    32
  0
VERTEX
  8
E14LXLIFT
 62
1
 10
-745.639
 20
-360.107
 30
3850.500
 70
    32
  0
VERTEX
  8
E14LXLIFT
 62
1
 10
-744.053
 20
-376.363
 30
3850.500
 70
    32
  0
VERTEX
  8
E14LXLIFT
 62
1
 10
-753.584
 20
-386.334
 30
3850.500
 70
    32
  0
VERTEX
  8
E14LXLIFT
 62
1
 10
-753.935
 20
-403.283
 30
3850.500
 70
    32
  0
VERTEX
  8
E14LXLIFT
 62
1
 10
-752.074
 20
-411.688
 30
3850.500
 70
    32
  0
VERTEX
  8
E14LXLIFT
 62
1
 10
-752.975
 20
-444.339
 30
3850.500
 70
    32
  0
VERTEX
  8
E14LXLIFT
 62
1
 10
-741.749
 20
-442.544
 30
3850.500
 70
    32
  0
VERTEX
  8
E14LXLIFT
 62
1
 10
-728.292
 20
-401.230
 30
3850.500
 70
    32
  0
VERTEX
  8
E14LXLIFT
 62
1
 10
-726.294
 20
-386.577
 30
3850.500
 70
    32
  0
VERTEX
  8
E14LXLIFT
 62
1
 10
-724.508
 20
-365.814
 30
3850.500
 70
    32
  0
VERTEX
  8
E14LXLIFT
 62
1
 10
-721.551
 20
-353.951
 30
3850.500
 70
    32
  0
VERTEX
  8
E14LXLIFT
 62
1
 10
-721.976
 20
-341.733
 30
3850.500
 70
    32
  0
SEQEND
  8
E14LXLIFT
  0
POLYLINE
  8
E14LXLIFT
 62
8
 66
     1
 70
     9
  0
VERTEX
  8
E14LXLIFT
 62
8
 10
-1386.258
 20
543.691
 30
3838.784
 70
    32
  0
VERTEX
  8
E14LXLIFT
 62
8
 10
-1395.189
 20
553.897
 30
3838.784
 70
    32
  0
VERTEX
  8
E14LXLIFT
 62
8
 10
-1402.752
 20
562.941
 30
3838.784
 70
    32
  0
VERTEX
  8
E14LXLIFT
 62
8
 10
-1409.353
 20
572.140
 30
3838.784
 70
    32
  0
VERTEX
  8
E14LXLIFT
 62
8
 10
-1410.035
 20
581.299
 30
3838.784
 70
    32
  0
VERTEX
  8
E14LXLIFT
 62
8
 10
-1417.787
 20
585.383
 30
3838.784
 70
    32
  0
VERTEX
  8
E14LXLIFT
 62
8
 10
-1421.017
 20
601.825
 30
3838.784
 70
    32
  0
VERTEX
  8
E14LXLIFT
 62
8
 10
-1419.114
 20
609.623
 30
3838.784
 70
    32
  0
VERTEX
  8
E14LXLIFT
 62
8
 10
-1430.656
 20
611.524
 30
3838.784
 70
    32
  0
VERTEX
  8
E14LXLIFT
 62
8
 10
-1433.838
 20
609.240
 30
3838.784
 70
    32
  0
VERTEX
  8
E14LXLIFT
 62
8
 10
-1438.116
 20
600.274
 30
3838.784
 70
    32
  0
VERTEX
  8
E14LXLIFT
 62
8
 10
-1444.071
 20
594.392
 30
3838.784
 70
    32
  0
VERTEX
  8
E14LXLIFT
 62
8
 10
-1445.820
 20
585.633
 30
3838.784
 70
    32
  0
VERTEX
  8
E14LXLIFT
 62
8
 10
-1437.450
 20
577.703
 30
3838.784
 70
    32
  0
VERTEX
  8
E14LXLIFT
 62
8
 10
-1436.515
 20
568.190
 30
3838.784
 70
    32
  0
VERTEX
  8
E14LXLIFT
 62
8
 10
-1425.125
 20
546.349
 30
3838.784
 70
    32
  0
VERTEX
  8
E14LXLIFT
 62
8
 10
-1421.859
 20
535.828
 30
3838.784
 70
    32
  0
VERTEX
  8
E14LXLIFT
 62
8
 10
-1416.389
 20
514.025
 30
3838.784
 70
    32
  0
VERTEX
  8
E14LXLIFT
 62
8
 10
-1402.325
 20
495.175
 30
3838.784
 70
    32
  0
VERTEX
  8
E14LXLIFT
 62
8
 10
-1392.303
 20
474.495
 30
3838.784
 70
    32
  0
VERTEX
  8
E14LXLIFT
 62
8
 10
-1382.835
 20
452.346
 30
3838.784
 70
    32
  0
VERTEX
  8
E14LXLIFT
 62
8
 10
-1382.279
 20
432.912
 30
3838.784
 70
    32
  0
VERTEX
  8
E14LXLIFT
 62
8
 10
-1375.089
 20
431.104
 30
3838.784
 70
    32
  0
VERTEX
  8
E14LXLIFT
 62
8
 10
-1362.857
 20
416.299
 30
3838.784
 70
    32
  0
VERTEX
  8
E14LXLIFT
 62
8
 10
-1350.981
 20
422.142
 30
3838.784
 70
    32
  0
VERTEX
  8
E14LXLIFT
 62
8
 10
-1370.124
 20
448.068
 30
3838.784
 70
    32
  0
VERTEX
  8
E14LXLIFT
 62
8
 10
-1367.369
 20
459.157
 30
3838.784
 70
    32
  0
VERTEX
  8
E14LXLIFT
 62
8
 10
-1370.345
 20
475.246
 30
3838.784
 70
    32
  0
VERTEX
  8
E14LXLIFT
 62
8
 10
-1374.572
 20
485.613
 30
3838.784
 70
    32
  0
VERTEX
  8
E14LXLIFT
 62
8
 10
-1377.484
 20
496.387
 30
3838.784
 70
    32
  0
VERTEX
  8
E14LXLIFT
 62
8
 10
-1380.595
 20
505.946
 30
3838.784
 70
    32
  0
VERTEX
  8
E14LXLIFT
 62
8
 10
-1391.076
 20
508.608
 30
3838.784
 70
    32
  0
VERTEX
  8
E14LXLIFT
 62
8
 10
-1393.280
 20
519.890
 30
3838.784
 70
    32
  0
VERTEX
  8
E14LXLIFT
 62
8
 10
-1395.466
 20
523.682
 30
3838.784
 70
    32
  0
SEQEND
  8
E14LXLIFT
  0
POLYLINE
  8
E14LXLIFT
 62
8
 66
     1
 70
     9
  0
VERTEX
  8
E14LXLIFT
 62
8
 10
-1415.861
 20
510.500
 30
3852.000
 70
    32
  0
VERTEX
  8
E14LXLIFT
 62
8
 10
-1417.341
 20
520.869
 30
3852.000
 70
    32
  0
VERTEX
  8
E14LXLIFT
 62
8
 10
-1424.504
 20
542.757
 30
3852.000
 70
    32
  0
VERTEX
  8
E14LXLIFT
 62
8
 10
-1424.409
 20
544.357
 30
3854.000
 70
    32
  0
VERTEX
  8
E14LXLIFT
 62
8
 10
-1426.078
 20
548.507
 30
3854.000
 70
    32
  0
VERTEX
  8
E14LXLIFT
 62
8
 10
-1431.539
 20
559.234
 30
3854.000
 70
    32
  0
VERTEX
  8
E14LXLIFT
 62
8
 10
-1436.780
 20
568.198
 30
3854.000
 70
    32
  0
VERTEX
  8
E14LXLIFT
 62
8
 10
-1438.053
 20
578.160
 30
3854.000
 70
    32
  0
VERTEX
  8
E14LXLIFT
 62
8
 10
-1446.189
 20
586.071
 30
3854.000
 70
    32
  0
VERTEX
  8
E14LXLIFT
 62
8
 10
-1444.293
 20
593.429
 30
3854.000
 70
    32
  0
VERTEX
  8
E14LXLIFT
 62
8
 10
-1438.363
 20
600.281
 30
3854.000
 70
    32
  0
VERTEX
  8
E14LXLIFT
 62
8
 10
-1433.641
 20
608.120
 30
3854.000
 70
    32
  0
VERTEX
  8
E14LXLIFT
 62
8
 10
-1430.594
 20
612.356
 30
3854.000
 70
    32
  0
VERTEX
  8
E14LXLIFT
 62
8
 10
-1419.150
 20
609.898
 30
3854.000
 70
    32
  0
VERTEX
  8
E14LXLIFT
 62
8
 10
-1421.067
 20
601.962
 30
3854.000
 70
    32
  0
VERTEX
  8
E14LXLIFT
 62
8
 10
-1419.079
 20
593.621
 30
3854.000
 70
    32
  0
VERTEX
  8
E14LXLIFT
 62
8
 10
-1417.593
 20
585.278
 30
3854.000
 70
    32
  0
VERTEX
  8
E14LXLIFT
 62
8
 10
-1410.164
 20
580.763
 30
3854.000
 70
    32
  0
VERTEX
  8
E14LXLIFT
 62
8
 10
-1410.134
 20
572.464
 30
3854.000
 70
    32
  0
VERTEX
  8
E14LXLIFT
 62
8
 10
-1402.447
 20
562.568
 30
3854.000
 70
    32
  0
VERTEX
  8
E14LXLIFT
 62
8
 10
-1394.099
 20
555.817
 30
3854.000
 70
    32
  0
VERTEX
  8
E14LXLIFT
 62
8
 10
-1402.390
 20
545.983
 30
3854.000
 70
    32
  0
VERTEX
  8
E14LXLIFT
 62
8
 10
-1407.039
 20
547.427
 30
3854.000
 70
    32
  0
VERTEX
  8
E14LXLIFT
 62
8
 10
-1411.211
 20
542.514
 30
3854.000
 70
    32
  0
VERTEX
  8
E14LXLIFT
 62
8
 10
-1408.318
 20
537.979
 30
3854.000
 70
    32
  0
VERTEX
  8
E14LXLIFT
 62
8
 10
-1406.550
 20
533.518
 30
3852.000
 70
    32
  0
VERTEX
  8
E14LXLIFT
 62
8
 10
-1393.904
 20
521.752
 30
3852.000
 70
    32
  0
VERTEX
  8
E14LXLIFT
 62
8
 10
-1392.380
 20
511.597
 30
3852.000
 70
    32
  0
VERTEX
  8
E14LXLIFT
 62
8
 10
-1390.145
 20
508.313
 30
3854.000
 70
    32
  0
VERTEX
  8
E14LXLIFT
 62
8
 10
-1381.412
 20
506.567
 30
3854.000
 70
    32
  0
VERTEX
  8
E14LXLIFT
 62
8
 10
-1378.145
 20
497.760
 30
3854.000
 70
    32
  0
VERTEX
  8
E14LXLIFT
 62
8
 10
-1375.427
 20
487.839
 30
3854.000
 70
    32
  0
VERTEX
  8
E14LXLIFT
 62
8
 10
-1370.661
 20
474.615
 30
3854.000
 70
    32
  0
VERTEX
  8
E14LXLIFT
 62
8
 10
-1367.153
 20
458.810
 30
3854.000
 70
    32
  0
VERTEX
  8
E14LXLIFT
 62
8
 10
-1370.336
 20
447.875
 30
3854.000
 70
    32
  0
VERTEX
  8
E14LXLIFT
 62
8
 10
-1364.649
 20
439.024
 30
3854.000
 70
    32
  0
VERTEX
  8
E14LXLIFT
 62
8
 10
-1351.124
 20
422.212
 30
3854.000
 70
    32
  0
VERTEX
  8
E14LXLIFT
 62
8
 10
-1359.248
 20
417.945
 30
3854.000
 70
    32
  0
VERTEX
  8
E14LXLIFT
 62
8
 10
-1362.675
 20
416.557
 30
3854.000
 70
    32
  0
VERTEX
  8
E14LXLIFT
 62
8
 10
-1369.317
 20
423.017
 30
3854.000
 70
    32
  0
VERTEX
  8
E14LXLIFT
 62
8
 10
-1375.839
 20
431.145
 30
3854.000
 70
    32
  0
VERTEX
  8
E14LXLIFT
 62
8
 10
-1382.279
 20
433.268
 30
3854.000
 70
    32
  0
VERTEX
  8
E14LXLIFT
 62
8
 10
-1382.754
 20
441.779
 30
3854.000
 70
    32
  0
VERTEX
  8
E14LXLIFT
 62
8
 10
-1383.144
 20
450.647
 30
3854.000
 70
    32
  0
VERTEX
  8
E14LXLIFT
 62
8
 10
-1393.903
 20
477.871
 30
3854.000
 70
    32
  0
VERTEX
  8
E14LXLIFT
 62
8
 10
-1394.495
 20
479.441
 30
3852.000
 70
    32
  0
VERTEX
  8
E14LXLIFT
 62
8
 10
-1402.298
 20
495.048
 30
3852.000
 70
    32
  0
VERTEX
  8
E14LXLIFT
 62
8
 10
-1407.662
 20
494.547
 30
3852.000
 70
    32
  0
SEQEND
  8
E14LXLIFT
  0
POLYLINE
  8
E14LXLIFT
 62
8
 66
     1
 70
     9
  0
VERTEX
  8
E14LXLIFT
 62
8
 10
-1408.449
 20
484.043
 30
3874.000
 70
    32
  0
VERTEX
  8
E14LXLIFT
 62
8
 10
-1403.901
 20
488.042
 30
3874.000
 70
    32
  0
VERTEX
  8
E14LXLIFT
 62
8
 10
-1390.506
 20
475.334
 30
3875.218
 70
    32
  0
VERTEX
  8
E14LXLIFT
 62
8
 10
-1385.048
 20
468.228
 30
3875.218
 70
    32
  0
VERTEX
  8
E14LXLIFT
 62
8
 10
-1385.236
 20
467.045
 30
3876.000
 70
    32
  0
VERTEX
  8
E14LXLIFT
 62
8
 10
-1387.849
 20
463.800
 30
3876.000
 70
    32
  0
VERTEX
  8
E14LXLIFT
 62
8
 10
-1389.433
 20
454.820
 30
3876.000
 70
    32
  0
VERTEX
  8
E14LXLIFT
 62
8
 10
-1384.669
 20
447.477
 30
3876.000
 70
    32
  0
VERTEX
  8
E14LXLIFT
 62
8
 10
-1379.174
 20
439.680
 30
3876.000
 70
    32
  0
VERTEX
  8
E14LXLIFT
 62
8
 10
-1375.545
 20
431.366
 30
3876.000
 70
    32
  0
VERTEX
  8
E14LXLIFT
 62
8
 10
-1373.675
 20
425.001
 30
3876.000
 70
    32
  0
VERTEX
  8
E14LXLIFT
 62
8
 10
-1368.631
 20
416.737
 30
3876.000
 70
    32
  0
VERTEX
  8
E14LXLIFT
 62
8
 10
-1363.032
 20
417.389
 30
3876.000
 70
    32
  0
VERTEX
  8
E14LXLIFT
 62
8
 10
-1358.712
 20
421.674
 30
3876.000
 70
    32
  0
VERTEX
  8
E14LXLIFT
 62
8
 10
-1361.332
 20
428.378
 30
3876.000
 70
    32
  0
VERTEX
  8
E14LXLIFT
 62
8
 10
-1365.059
 20
437.978
 30
3876.000
 70
    32
  0
VERTEX
  8
E14LXLIFT
 62
8
 10
-1366.836
 20
445.996
 30
3876.000
 70
    32
  0
VERTEX
  8
E14LXLIFT
 62
8
 10
-1366.263
 20
451.564
 30
3876.000
 70
    32
  0
VERTEX
  8
E14LXLIFT
 62
8
 10
-1364.508
 20
458.452
 30
3876.000
 70
    32
  0
VERTEX
  8
E14LXLIFT
 62
8
 10
-1365.266
 20
462.669
 30
3876.000
 70
    32
  0
VERTEX
  8
E14LXLIFT
 62
8
 10
-1371.319
 20
473.636
 30
3876.000
 70
    32
  0
VERTEX
  8
E14LXLIFT
 62
8
 10
-1372.054
 20
475.035
 30
3875.218
 70
    32
  0
VERTEX
  8
E14LXLIFT
 62
8
 10
-1378.850
 20
486.072
 30
3875.218
 70
    32
  0
VERTEX
  8
E14LXLIFT
 62
8
 10
-1382.020
 20
494.317
 30
3875.218
 70
    32
  0
VERTEX
  8
E14LXLIFT
 62
8
 10
-1388.351
 20
503.325
 30
3875.218
 70
    32
  0
VERTEX
  8
E14LXLIFT
 62
8
 10
-1397.406
 20
512.150
 30
3875.218
 70
    32
  0
VERTEX
  8
E14LXLIFT
 62
8
 10
-1403.705
 20
517.067
 30
3875.218
 70
    32
  0
VERTEX
  8
E14LXLIFT
 62
8
 10
-1409.001
 20
523.775
 30
3875.218
 70
    32
  0
VERTEX
  8
E14LXLIFT
 62
8
 10
-1412.440
 20
534.154
 30
3875.218
 70
    32
  0
VERTEX
  8
E14LXLIFT
 62
8
 10
-1415.203
 20
541.831
 30
3875.218
 70
    32
  0
VERTEX
  8
E14LXLIFT
 62
8
 10
-1422.530
 20
546.429
 30
3875.218
 70
    32
  0
VERTEX
  8
E14LXLIFT
 62
8
 10
-1423.097
 20
547.001
 30
3875.000
 70
    32
  0
VERTEX
  8
E14LXLIFT
 62
8
 10
-1428.125
 20
554.483
 30
3875.000
 70
    32
  0
VERTEX
  8
E14LXLIFT
 62
8
 10
-1431.511
 20
563.641
 30
3875.000
 70
    32
  0
VERTEX
  8
E14LXLIFT
 62
8
 10
-1430.951
 20
576.567
 30
3875.000
 70
    32
  0
VERTEX
  8
E14LXLIFT
 62
8
 10
-1434.231
 20
587.515
 30
3875.000
 70
    32
  0
VERTEX
  8
E14LXLIFT
 62
8
 10
-1437.206
 20
595.511
 30
3875.000
 70
    32
  0
VERTEX
  8
E14LXLIFT
 62
8
 10
-1437.139
 20
596.982
 30
3875.000
 70
    32
  0
VERTEX
  8
E14LXLIFT
 62
8
 10
-1433.050
 20
623.240
 30
3875.000
 70
    32
  0
VERTEX
  8
E14LXLIFT
 62
8
 10
-1436.778
 20
627.458
 30
3875.000
 70
    32
  0
VERTEX
  8
E14LXLIFT
 62
8
 10
-1440.231
 20
636.979
 30
3875.000
 70
    32
  0
VERTEX
  8
E14LXLIFT
 62
8
 10
-1452.397
 20
636.078
 30
3875.000
 70
    32
  0
VERTEX
  8
E14LXLIFT
 62
8
 10
-1448.940
 20
626.688
 30
3875.000
 70
    32
  0
VERTEX
  8
E14LXLIFT
 62
8
 10
-1455.349
 20
622.474
 30
3875.000
 70
    32
  0
VERTEX
  8
E14LXLIFT
 62
8
 10
-1453.087
 20
611.752
 30
3875.000
 70
    32
  0
VERTEX
  8
E14LXLIFT
 62
8
 10
-1458.402
 20
607.444
 30
3875.000
 70
    32
  0
VERTEX
  8
E14LXLIFT
 62
8
 10
-1453.700
 20
591.033
 30
3875.000
 70
    32
  0
VERTEX
  8
E14LXLIFT
 62
8
 10
-1453.513
 20
588.782
 30
3875.000
 70
    32
  0
VERTEX
  8
E14LXLIFT
 62
8
 10
-1450.806
 20
583.083
 30
3875.000
 70
    32
  0
VERTEX
  8
E14LXLIFT
 62
8
 10
-1447.659
 20
572.876
 30
3875.000
 70
    32
  0
VERTEX
  8
E14LXLIFT
 62
8
 10
-1449.183
 20
568.894
 30
3875.000
 70
    32
  0
VERTEX
  8
E14LXLIFT
 62
8
 10
-1445.856
 20
561.071
 30
3875.000
 70
    32
  0
VERTEX
  8
E14LXLIFT
 62
8
 10
-1446.344
 20
558.103
 30
3875.000
 70
    32
  0
VERTEX
  8
E14LXLIFT
 62
8
 10
-1438.590
 20
545.063
 30
3875.000
 70
    32
  0
VERTEX
  8
E14LXLIFT
 62
8
 10
-1437.133
 20
537.298
 30
3875.000
 70
    32
  0
VERTEX
  8
E14LXLIFT
 62
8
 10
-1436.978
 20
536.252
 30
3875.218
 70
    32
  0
VERTEX
  8
E14LXLIFT
 62
8
 10
-1428.808
 20
528.557
 30
3875.218
 70
    32
  0
VERTEX
  8
E14LXLIFT
 62
8
 10
-1422.520
 20
519.968
 30
3875.218
 70
    32
  0
VERTEX
  8
E14LXLIFT
 62
8
 10
-1413.782
 20
503.468
 30
3874.000
 70
    32
  0
VERTEX
  8
E14LXLIFT
 62
8
 10
-1418.937
 20
492.298
 30
3874.000
 70
    32
  0
SEQEND
  8
E14LXLIFT
  0
POLYLINE
  8
E14LXLIFT
 62
2
 66
     1
 70
     9
  0
VERTEX
  8
E14LXLIFT
 62
2
 10
-1192.099
 20
359.515
 30
3856.181
 70
    32
  0
VERTEX
  8
E14LXLIFT
 62
2
 10
-1206.493
 20
358.648
 30
3856.181
 70
    32
  0
VERTEX
  8
E14LXLIFT
 62
2
 10
-1208.019
 20
334.580
 30
3850.000
 70
    32
  0
VERTEX
  8
E14LXLIFT
 62
2
 10
-1215.434
 20
328.942
 30
3848.000
 70
    32
  0
VERTEX
  8
E14LXLIFT
 62
2
 10
-1219.142
 20
322.654
 30
3847.581
 70
    32
  0
VERTEX
  8
E14LXLIFT
 62
2
 10
-1210.353
 20
322.697
 30
3847.598
 70
    32
  0
VERTEX
  8
E14LXLIFT
 62
2
 10
-1215.830
 20
313.489
 30
3846.098
 70
    32
  0
VERTEX
  8
E14LXLIFT
 62
2
 10
-1215.087
 20
296.140
 30
3845.098
 70
    32
  0
VERTEX
  8
E14LXLIFT
 62
2
 10
-1220.401
 20
282.325
 30
3844.098
 70
    32
  0
VERTEX
  8
E14LXLIFT
 62
2
 10
-1220.763
 20
281.906
 30
3841.910
 70
    32
  0
VERTEX
  8
E14LXLIFT
 62
2
 10
-1223.754
 20
275.540
 30
3841.910
 70
    32
  0
VERTEX
  8
E14LXLIFT
 62
2
 10
-1227.004
 20
265.555
 30
3841.910
 70
    32
  0
VERTEX
  8
E14LXLIFT
 62
2
 10
-1231.421
 20
259.839
 30
3841.910
 70
    32
  0
VERTEX
  8
E14LXLIFT
 62
2
 10
-1228.676
 20
251.016
 30
3841.910
 70
    32
  0
VERTEX
  8
E14LXLIFT
 62
2
 10
-1232.846
 20
240.503
 30
3841.910
 70
    32
  0
VERTEX
  8
E14LXLIFT
 62
2
 10
-1240.193
 20
227.546
 30
3841.910
 70
    32
  0
VERTEX
  8
E14LXLIFT
 62
2
 10
-1240.656
 20
219.935
 30
3841.910
 70
    32
  0
VERTEX
  8
E14LXLIFT
 62
2
 10
-1236.025
 20
213.502
 30
3842.733
 70
    32
  0
VERTEX
  8
E14LXLIFT
 62
2
 10
-1235.366
 20
200.525
 30
3842.733
 70
    32
  0
VERTEX
  8
E14LXLIFT
 62
2
 10
-1227.884
 20
194.623
 30
3842.733
 70
    32
  0
VERTEX
  8
E14LXLIFT
 62
2
 10
-1225.003
 20
188.505
 30
3842.733
 70
    32
  0
VERTEX
  8
E14LXLIFT
 62
2
 10
-1219.188
 20
182.285
 30
3842.733
 70
    32
  0
VERTEX
  8
E14LXLIFT
 62
2
 10
-1215.485
 20
176.404
 30
3842.733
 70
    32
  0
VERTEX
  8
E14LXLIFT
 62
2
 10
-1203.391
 20
182.774
 30
3842.733
 70
    32
  0
VERTEX
  8
E14LXLIFT
 62
2
 10
-1197.529
 20
187.119
 30
3842.733
 70
    32
  0
VERTEX
  8
E14LXLIFT
 62
2
 10
-1209.598
 20
203.380
 30
3842.733
 70
    32
  0
VERTEX
  8
E14LXLIFT
 62
2
 10
-1212.994
 20
209.392
 30
3842.733
 70
    32
  0
VERTEX
  8
E14LXLIFT
 62
2
 10
-1220.094
 20
221.447
 30
3842.733
 70
    32
  0
VERTEX
  8
E14LXLIFT
 62
2
 10
-1219.124
 20
226.294
 30
3842.733
 70
    32
  0
VERTEX
  8
E14LXLIFT
 62
2
 10
-1211.084
 20
232.270
 30
3841.910
 70
    32
  0
VERTEX
  8
E14LXLIFT
 62
2
 10
-1199.667
 20
244.736
 30
3841.910
 70
    32
  0
VERTEX
  8
E14LXLIFT
 62
2
 10
-1189.153
 20
250.426
 30
3841.910
 70
    32
  0
VERTEX
  8
E14LXLIFT
 62
2
 10
-1181.046
 20
257.836
 30
3841.910
 70
    32
  0
VERTEX
  8
E14LXLIFT
 62
2
 10
-1181.485
 20
271.964
 30
3841.910
 70
    32
  0
VERTEX
  8
E14LXLIFT
 62
2
 10
-1180.501
 20
277.492
 30
3841.910
 70
    32
  0
VERTEX
  8
E14LXLIFT
 62
2
 10
-1183.649
 20
284.799
 30
3841.910
 70
    32
  0
VERTEX
  8
E14LXLIFT
 62
2
 10
-1189.983
 20
288.361
 30
3841.910
 70
    32
  0
VERTEX
  8
E14LXLIFT
 62
2
 10
-1190.884
 20
288.554
 30
3844.598
 70
    32
  0
VERTEX
  8
E14LXLIFT
 62
2
 10
-1192.510
 20
299.740
 30
3845.098
 70
    32
  0
VERTEX
  8
E14LXLIFT
 62
2
 10
-1194.228
 20
307.650
 30
3846.098
 70
    32
  0
VERTEX
  8
E14LXLIFT
 62
2
 10
-1192.665
 20
319.914
 30
3847.698
 70
    32
  0
VERTEX
  8
E14LXLIFT
 62
2
 10
-1192.317
 20
322.654
 30
3847.581
 70
    32
  0
VERTEX
  8
E14LXLIFT
 62
2
 10
-1191.008
 20
326.340
 30
3848.400
 70
    32
  0
VERTEX
  8
E14LXLIFT
 62
2
 10
-1184.466
 20
334.146
 30
3850.000
 70
    32
  0
VERTEX
  8
E14LXLIFT
 62
2
 10
-1184.684
 20
343.253
 30
3852.000
 70
    32
  0
VERTEX
  8
E14LXLIFT
 62
2
 10
-1190.136
 20
352.360
 30
3854.000
 70
    32
  0
VERTEX
  8
E14LXLIFT
 62
2
 10
-1191.663
 20
358.214
 30
3856.181
 70
    32
  0
SEQEND
  8
E14LXLIFT
  0
POLYLINE
  8
E14LXLIFT
 62
11
 66
     1
 70
     9
  0
VERTEX
  8
E14LXLIFT
 62
11
 10
-1273.965
 20
661.786
 30
3867.000
 70
    32
  0
VERTEX
  8
E14LXLIFT
 62
11
 10
-1276.550
 20
661.298
 30
3867.000
 70
    32
  0
VERTEX
  8
E14LXLIFT
 62
11
 10
-1280.265
 20
658.375
 30
3867.000
 70
    32
  0
VERTEX
  8
E14LXLIFT
 62
11
 10
-1286.889
 20
655.289
 30
3867.000
 70
    32
  0
VERTEX
  8
E14LXLIFT
 62
11
 10
-1287.550
 20
655.392
 30
3867.000
 70
    32
  0
VERTEX
  8
E14LXLIFT
 62
11
 10
-1288.276
 20
662.383
 30
3867.000
 70
    32
  0
VERTEX
  8
E14LXLIFT
 62
11
 10
-1291.364
 20
669.694
 30
3867.000
 70
    32
  0
VERTEX
  8
E14LXLIFT
 62
11
 10
-1288.377
 20
672.779
 30
3867.000
 70
    32
  0
VERTEX
  8
E14LXLIFT
 62
11
 10
-1280.744
 20
669.698
 30
3867.001
 70
    32
  0
VERTEX
  8
E14LXLIFT
 62
11
 10
-1276.749
 20
669.302
 30
3867.001
 70
    32
  0
VERTEX
  8
E14LXLIFT
 62
11
 10
-1271.937
 20
665.655
 30
3867.001
 70
    32
  0
VERTEX
  8
E14LXLIFT
 62
11
 10
-1267.029
 20
665.666
 30
3867.001
 70
    32
  0
VERTEX
  8
E14LXLIFT
 62
11
 10
-1251.824
 20
659.495
 30
3867.001
 70
    32
  0
VERTEX
  8
E14LXLIFT
 62
11
 10
-1246.597
 20
669.106
 30
3867.001
 70
    32
  0
VERTEX
  8
E14LXLIFT
 62
11
 10
-1259.270
 20
677.638
 30
3867.001
 70
    32
  0
VERTEX
  8
E14LXLIFT
 62
11
 10
-1261.369
 20
679.075
 30
3867.001
 70
    32
  0
VERTEX
  8
E14LXLIFT
 62
11
 10
-1261.438
 20
680.187
 30
3867.001
 70
    32
  0
VERTEX
  8
E14LXLIFT
 62
11
 10
-1266.617
 20
684.908
 30
3867.001
 70
    32
  0
VERTEX
  8
E14LXLIFT
 62
11
 10
-1267.012
 20
687.991
 30
3867.001
 70
    32
  0
VERTEX
  8
E14LXLIFT
 62
11
 10
-1267.654
 20
688.561
 30
3867.000
 70
    32
  0
VERTEX
  8
E14LXLIFT
 62
11
 10
-1265.832
 20
694.210
 30
3867.000
 70
    32
  0
VERTEX
  8
E14LXLIFT
 62
11
 10
-1264.526
 20
704.006
 30
3867.000
 70
    32
  0
VERTEX
  8
E14LXLIFT
 62
11
 10
-1270.485
 20
713.210
 30
3867.000
 70
    32
  0
VERTEX
  8
E14LXLIFT
 62
11
 10
-1274.953
 20
712.365
 30
3867.000
 70
    32
  0
VERTEX
  8
E14LXLIFT
 62
11
 10
-1281.538
 20
712.385
 30
3867.000
 70
    32
  0
VERTEX
  8
E14LXLIFT
 62
11
 10
-1287.271
 20
714.127
 30
3867.000
 70
    32
  0
VERTEX
  8
E14LXLIFT
 62
11
 10
-1291.884
 20
716.937
 30
3867.000
 70
    32
  0
VERTEX
  8
E14LXLIFT
 62
11
 10
-1298.231
 20
720.501
 30
3867.000
 70
    32
  0
VERTEX
  8
E14LXLIFT
 62
11
 10
-1301.811
 20
718.708
 30
3867.000
 70
    32
  0
VERTEX
  8
E14LXLIFT
 62
11
 10
-1304.836
 20
714.348
 30
3867.000
 70
    32
  0
VERTEX
  8
E14LXLIFT
 62
11
 10
-1310.245
 20
713.610
 30
3866.550
 70
    32
  0
VERTEX
  8
E14LXLIFT
 62
11
 10
-1311.877
 20
717.503
 30
3866.550
 70
    32
  0
VERTEX
  8
E14LXLIFT
 62
11
 10
-1309.570
 20
723.316
 30
3866.550
 70
    32
  0
VERTEX
  8
E14LXLIFT
 62
11
 10
-1303.056
 20
731.514
 30
3866.550
 70
    32
  0
VERTEX
  8
E14LXLIFT
 62
11
 10
-1305.713
 20
736.532
 30
3866.550
 70
    32
  0
VERTEX
  8
E14LXLIFT
 62
11
 10
-1295.236
 20
752.645
 30
3866.550
 70
    32
  0
VERTEX
  8
E14LXLIFT
 62
11
 10
-1296.712
 20
761.273
 30
3866.550
 70
    32
  0
VERTEX
  8
E14LXLIFT
 62
11
 10
-1349.596
 20
716.364
 30
3866.550
 70
    32
  0
VERTEX
  8
E14LXLIFT
 62
11
 10
-1346.082
 20
713.272
 30
3866.550
 70
    32
  0
VERTEX
  8
E14LXLIFT
 62
11
 10
-1346.132
 20
709.526
 30
3866.550
 70
    32
  0
VERTEX
  8
E14LXLIFT
 62
11
 10
-1340.492
 20
705.966
 30
3866.550
 70
    32
  0
VERTEX
  8
E14LXLIFT
 62
11
 10
-1329.932
 20
700.504
 30
3866.550
 70
    32
  0
VERTEX
  8
E14LXLIFT
 62
11
 10
-1325.499
 20
696.422
 30
3866.550
 70
    32
  0
VERTEX
  8
E14LXLIFT
 62
11
 10
-1313.608
 20
674.798
 30
3866.550
 70
    32
  0
VERTEX
  8
E14LXLIFT
 62
11
 10
-1312.990
 20
671.078
 30
3867.000
 70
    32
  0
VERTEX
  8
E14LXLIFT
 62
11
 10
-1308.003
 20
663.683
 30
3867.000
 70
    32
  0
VERTEX
  8
E14LXLIFT
 62
11
 10
-1305.005
 20
658.165
 30
3867.000
 70
    32
  0
VERTEX
  8
E14LXLIFT
 62
11
 10
-1301.210
 20
654.179
 30
3867.000
 70
    32
  0
VERTEX
  8
E14LXLIFT
 62
11
 10
-1297.551
 20
649.117
 30
3867.000
 70
    32
  0
VERTEX
  8
E14LXLIFT
 62
11
 10
-1294.804
 20
644.082
 30
3867.000
 70
    32
  0
VERTEX
  8
E14LXLIFT
 62
11
 10
-1290.604
 20
646.843
 30
3867.000
 70
    32
  0
VERTEX
  8
E14LXLIFT
 62
11
 10
-1285.683
 20
636.913
 30
3869.945
 70
    32
  0
VERTEX
  8
E14LXLIFT
 62
11
 10
-1281.479
 20
626.531
 30
3869.945
 70
    32
  0
VERTEX
  8
E14LXLIFT
 62
11
 10
-1275.632
 20
615.609
 30
3869.945
 70
    32
  0
VERTEX
  8
E14LXLIFT
 62
11
 10
-1273.727
 20
611.991
 30
3870.000
 70
    32
  0
VERTEX
  8
E14LXLIFT
 62
11
 10
-1269.330
 20
601.302
 30
3870.000
 70
    32
  0
VERTEX
  8
E14LXLIFT
 62
11
 10
-1265.283
 20
592.492
 30
3870.000
 70
    32
  0
VERTEX
  8
E14LXLIFT
 62
11
 10
-1253.514
 20
575.734
 30
3870.000
 70
    32
  0
VERTEX
  8
E14LXLIFT
 62
11
 10
-1249.833
 20
563.681
 30
3870.000
 70
    32
  0
VERTEX
  8
E14LXLIFT
 62
11
 10
-1238.535
 20
557.485
 30
3870.000
 70
    32
  0
VERTEX
  8
E14LXLIFT
 62
11
 10
-1236.058
 20
549.418
 30
3869.448
 70
    32
  0
VERTEX
  8
E14LXLIFT
 62
11
 10
-1234.289
 20
544.226
 30
3869.517
 70
    32
  0
VERTEX
  8
E14LXLIFT
 62
11
 10
-1229.356
 20
532.036
 30
3869.983
 70
    32
  0
VERTEX
  8
E14LXLIFT
 62
11
 10
-1224.759
 20
524.170
 30
3869.983
 70
    32
  0
VERTEX
  8
E14LXLIFT
 62
11
 10
-1221.433
 20
516.930
 30
3869.983
 70
    32
  0
VERTEX
  8
E14LXLIFT
 62
11
 10
-1217.892
 20
506.357
 30
3869.983
 70
    32
  0
VERTEX
  8
E14LXLIFT
 62
11
 10
-1211.129
 20
498.136
 30
3869.983
 70
    32
  0
VERTEX
  8
E14LXLIFT
 62
11
 10
-1205.933
 20
494.512
 30
3869.983
 70
    32
  0
VERTEX
  8
E14LXLIFT
 62
11
 10
-1199.353
 20
482.519
 30
3869.983
 70
    32
  0
VERTEX
  8
E14LXLIFT
 62
11
 10
-1192.648
 20
472.780
 30
3869.983
 70
    32
  0
VERTEX
  8
E14LXLIFT
 62
11
 10
-1190.837
 20
458.439
 30
3869.983
 70
    32
  0
VERTEX
  8
E14LXLIFT
 62
11
 10
-1178.721
 20
449.344
 30
3870.000
 70
    32
  0
VERTEX
  8
E14LXLIFT
 62
11
 10
-1170.004
 20
445.056
 30
3870.000
 70
    32
  0
VERTEX
  8
E14LXLIFT
 62
11
 10
-1159.770
 20
432.471
 30
3870.000
 70
    32
  0
VERTEX
  8
E14LXLIFT
 62
11
 10
-1153.257
 20
419.173
 30
3869.000
 70
    32
  0
VERTEX
  8
E14LXLIFT
 62
11
 10
-1148.149
 20
404.093
 30
3869.000
 70
    32
  0
VERTEX
  8
E14LXLIFT
 62
11
 10
-1146.627
 20
401.488
 30
3867.093
 70
    32
  0
VERTEX
  8
E14LXLIFT
 62
11
 10
-1135.329
 20
385.002
 30
3867.093
 70
    32
  0
VERTEX
  8
E14LXLIFT
 62
11
 10
-1119.879
 20
371.007
 30
3867.093
 70
    32
  0
VERTEX
  8
E14LXLIFT
 62
11
 10
-1104.033
 20
356.591
 30
3867.093
 70
    32
  0
VERTEX
  8
E14LXLIFT
 62
11
 10
-1091.375
 20
340.494
 30
3867.093
 70
    32
  0
VERTEX
  8
E14LXLIFT
 62
11
 10
-1087.068
 20
340.470
 30
3867.093
 70
    32
  0
VERTEX
  8
E14LXLIFT
 62
11
 10
-1080.492
 20
335.566
 30
3867.093
 70
    32
  0
VERTEX
  8
E14LXLIFT
 62
11
 10
-1078.017
 20
334.864
 30
3867.000
 70
    32
  0
VERTEX
  8
E14LXLIFT
 62
11
 10
-1073.858
 20
329.127
 30
3867.000
 70
    32
  0
VERTEX
  8
E14LXLIFT
 62
11
 10
-1066.485
 20
322.540
 30
3867.000
 70
    32
  0
VERTEX
  8
E14LXLIFT
 62
11
 10
-1060.232
 20
312.391
 30
3867.000
 70
    32
  0
VERTEX
  8
E14LXLIFT
 62
11
 10
-1057.467
 20
306.218
 30
3867.000
 70
    32
  0
VERTEX
  8
E14LXLIFT
 62
11
 10
-1050.771
 20
304.026
 30
3867.000
 70
    32
  0
VERTEX
  8
E14LXLIFT
 62
11
 10
-1036.010
 20
298.744
 30
3867.000
 70
    32
  0
VERTEX
  8
E14LXLIFT
 62
11
 10
-1034.291
 20
277.020
 30
3866.000
 70
    32
  0
VERTEX
  8
E14LXLIFT
 62
11
 10
-1040.194
 20
271.462
 30
3866.000
 70
    32
  0
VERTEX
  8
E14LXLIFT
 62
11
 10
-1034.796
 20
262.355
 30
3866.000
 70
    32
  0
VERTEX
  8
E14LXLIFT
 62
11
 10
-1024.383
 20
266.859
 30
3866.000
 70
    32
  0
VERTEX
  8
E14LXLIFT
 62
11
 10
-1017.150
 20
264.731
 30
3866.000
 70
    32
  0
VERTEX
  8
E14LXLIFT
 62
11
 10
-1010.199
 20
253.611
 30
3866.000
 70
    32
  0
VERTEX
  8
E14LXLIFT
 62
11
 10
-1008.768
 20
253.014
 30
3868.000
 70
    32
  0
VERTEX
  8
E14LXLIFT
 62
11
 10
-1001.390
 20
244.633
 30
3868.000
 70
    32
  0
VERTEX
  8
E14LXLIFT
 62
11
 10
-994.460
 20
232.477
 30
3868.000
 70
    32
  0
VERTEX
  8
E14LXLIFT
 62
11
 10
-994.600
 20
230.573
 30
3867.000
 70
    32
  0
VERTEX
  8
E14LXLIFT
 62
11
 10
-985.633
 20
220.110
 30
3867.000
 70
    32
  0
VERTEX
  8
E14LXLIFT
 62
11
 10
-976.827
 20
210.570
 30
3867.000
 70
    32
  0
VERTEX
  8
E14LXLIFT
 62
11
 10
-975.198
 20
198.741
 30
3867.000
 70
    32
  0
VERTEX
  8
E14LXLIFT
 62
11
 10
-971.685
 20
190.118
 30
3867.000
 70
    32
  0
VERTEX
  8
E14LXLIFT
 62
11
 10
-968.006
 20
180.876
 30
3867.500
 70
    32
  0
VERTEX
  8
E14LXLIFT
 62
11
 10
-963.660
 20
168.672
 30
3869.077
 70
    32
  0
VERTEX
  8
E14LXLIFT
 62
11
 10
-956.563
 20
144.109
 30
3870.466
 70
    32
  0
VERTEX
  8
E14LXLIFT
 62
11
 10
-945.555
 20
133.227
 30
3870.445
 70
    32
  0
VERTEX
  8
E14LXLIFT
 62
11
 10
-938.189
 20
143.778
 30
3870.473
 70
    32
  0
VERTEX
  8
E14LXLIFT
 62
11
 10
-940.455
 20
152.168
 30
3870.105
 70
    32
  0
VERTEX
  8
E14LXLIFT
 62
11
 10
-945.912
 20
154.360
 30
3869.705
 70
    32
  0
VERTEX
  8
E14LXLIFT
 62
11
 10
-947.580
 20
155.706
 30
3869.661
 70
    32
  0
VERTEX
  8
E14LXLIFT
 62
11
 10
-951.473
 20
167.041
 30
3869.474
 70
    32
  0
VERTEX
  8
E14LXLIFT
 62
11
 10
-951.852
 20
177.692
 30
3868.179
 70
    32
  0
VERTEX
  8
E14LXLIFT
 62
11
 10
-950.444
 20
188.568
 30
3867.442
 70
    32
  0
VERTEX
  8
E14LXLIFT
 62
11
 10
-955.145
 20
199.139
 30
3867.000
 70
    32
  0
VERTEX
  8
E14LXLIFT
 62
11
 10
-959.943
 20
209.902
 30
3867.000
 70
    32
  0
VERTEX
  8
E14LXLIFT
 62
11
 10
-961.103
 20
215.224
 30
3867.000
 70
    32
  0
VERTEX
  8
E14LXLIFT
 62
11
 10
-962.837
 20
224.839
 30
3867.000
 70
    32
  0
VERTEX
  8
E14LXLIFT
 62
11
 10
-966.781
 20
239.556
 30
3867.000
 70
    32
  0
VERTEX
  8
E14LXLIFT
 62
11
 10
-971.452
 20
248.874
 30
3868.000
 70
    32
  0
VERTEX
  8
E14LXLIFT
 62
11
 10
-980.497
 20
258.929
 30
3868.000
 70
    32
  0
VERTEX
  8
E14LXLIFT
 62
11
 10
-988.664
 20
275.306
 30
3868.000
 70
    32
  0
VERTEX
  8
E14LXLIFT
 62
11
 10
-987.928
 20
277.708
 30
3866.000
 70
    32
  0
VERTEX
  8
E14LXLIFT
 62
11
 10
-995.887
 20
287.386
 30
3866.000
 70
    32
  0
VERTEX
  8
E14LXLIFT
 62
11
 10
-998.156
 20
296.801
 30
3866.500
 70
    32
  0
VERTEX
  8
E14LXLIFT
 62
11
 10
-1013.629
 20
305.629
 30
3867.000
 70
    32
  0
VERTEX
  8
E14LXLIFT
 62
11
 10
-1016.664
 20
307.793
 30
3868.000
 70
    32
  0
VERTEX
  8
E14LXLIFT
 62
11
 10
-1020.643
 20
318.010
 30
3867.000
 70
    32
  0
VERTEX
  8
E14LXLIFT
 62
11
 10
-1019.291
 20
319.141
 30
3867.000
 70
    32
  0
VERTEX
  8
E14LXLIFT
 62
11
 10
-1022.078
 20
327.279
 30
3867.000
 70
    32
  0
VERTEX
  8
E14LXLIFT
 62
11
 10
-1024.995
 20
329.578
 30
3867.000
 70
    32
  0
VERTEX
  8
E14LXLIFT
 62
11
 10
-1036.480
 20
348.233
 30
3867.000
 70
    32
  0
VERTEX
  8
E14LXLIFT
 62
11
 10
-1050.579
 20
363.413
 30
3867.000
 70
    32
  0
VERTEX
  8
E14LXLIFT
 62
11
 10
-1057.854
 20
362.183
 30
3867.000
 70
    32
  0
VERTEX
  8
E14LXLIFT
 62
11
 10
-1062.565
 20
368.223
 30
3867.000
 70
    32
  0
VERTEX
  8
E14LXLIFT
 62
11
 10
-1084.236
 20
398.765
 30
3867.093
 70
    32
  0
VERTEX
  8
E14LXLIFT
 62
11
 10
-1099.892
 20
414.942
 30
3867.093
 70
    32
  0
VERTEX
  8
E14LXLIFT
 62
11
 10
-1113.795
 20
431.056
 30
3867.093
 70
    32
  0
VERTEX
  8
E14LXLIFT
 62
11
 10
-1124.997
 20
441.073
 30
3869.000
 70
    32
  0
VERTEX
  8
E14LXLIFT
 62
11
 10
-1133.218
 20
449.673
 30
3869.000
 70
    32
  0
VERTEX
  8
E14LXLIFT
 62
11
 10
-1147.565
 20
440.140
 30
3870.000
 70
    32
  0
VERTEX
  8
E14LXLIFT
 62
11
 10
-1150.807
 20
442.434
 30
3870.000
 70
    32
  0
VERTEX
  8
E14LXLIFT
 62
11
 10
-1155.442
 20
450.354
 30
3870.000
 70
    32
  0
VERTEX
  8
E14LXLIFT
 62
11
 10
-1155.921
 20
454.250
 30
3870.000
 70
    32
  0
VERTEX
  8
E14LXLIFT
 62
11
 10
-1155.146
 20
461.944
 30
3870.000
 70
    32
  0
VERTEX
  8
E14LXLIFT
 62
11
 10
-1150.118
 20
471.449
 30
3870.000
 70
    32
  0
VERTEX
  8
E14LXLIFT
 62
11
 10
-1151.236
 20
476.946
 30
3870.000
 70
    32
  0
VERTEX
  8
E14LXLIFT
 62
11
 10
-1149.188
 20
483.965
 30
3870.000
 70
    32
  0
VERTEX
  8
E14LXLIFT
 62
11
 10
-1162.231
 20
487.115
 30
3870.000
 70
    32
  0
VERTEX
  8
E14LXLIFT
 62
11
 10
-1167.765
 20
496.974
 30
3869.983
 70
    32
  0
VERTEX
  8
E14LXLIFT
 62
11
 10
-1172.912
 20
507.242
 30
3869.983
 70
    32
  0
VERTEX
  8
E14LXLIFT
 62
11
 10
-1174.291
 20
512.767
 30
3869.983
 70
    32
  0
VERTEX
  8
E14LXLIFT
 62
11
 10
-1173.957
 20
520.891
 30
3869.983
 70
    32
  0
VERTEX
  8
E14LXLIFT
 62
11
 10
-1180.932
 20
525.724
 30
3869.983
 70
    32
  0
VERTEX
  8
E14LXLIFT
 62
11
 10
-1186.655
 20
549.683
 30
3869.197
 70
    32
  0
VERTEX
  8
E14LXLIFT
 62
11
 10
-1191.876
 20
557.179
 30
3869.762
 70
    32
  0
VERTEX
  8
E14LXLIFT
 62
11
 10
-1197.744
 20
565.078
 30
3869.599
 70
    32
  0
VERTEX
  8
E14LXLIFT
 62
11
 10
-1201.890
 20
573.831
 30
3868.399
 70
    32
  0
VERTEX
  8
E14LXLIFT
 62
11
 10
-1210.096
 20
575.193
 30
3870.000
 70
    32
  0
VERTEX
  8
E14LXLIFT
 62
11
 10
-1216.807
 20
588.175
 30
3870.000
 70
    32
  0
VERTEX
  8
E14LXLIFT
 62
11
 10
-1222.744
 20
597.279
 30
3870.000
 70
    32
  0
VERTEX
  8
E14LXLIFT
 62
11
 10
-1242.136
 20
589.897
 30
3870.000
 70
    32
  0
VERTEX
  8
E14LXLIFT
 62
11
 10
-1248.081
 20
601.801
 30
3870.000
 70
    32
  0
VERTEX
  8
E14LXLIFT
 62
11
 10
-1250.036
 20
610.778
 30
3870.000
 70
    32
  0
VERTEX
  8
E14LXLIFT
 62
11
 10
-1252.995
 20
621.287
 30
3870.000
 70
    32
  0
VERTEX
  8
E14LXLIFT
 62
11
 10
-1262.489
 20
629.707
 30
3869.945
 70
    32
  0
VERTEX
  8
E14LXLIFT
 62
11
 10
-1263.206
 20
636.115
 30
3869.945
 70
    32
  0
VERTEX
  8
E14LXLIFT
 62
11
 10
-1267.995
 20
647.941
 30
3869.945
 70
    32
  0
VERTEX
  8
E14LXLIFT
 62
11
 10
-1272.350
 20
659.836
 30
3867.000
 70
    32
  0
SEQEND
  8
E14LXLIFT
  0
POLYLINE
  8
E14LXLIFT
 62
27
 66
     1
 70
     9
  0
VERTEX
  8
E14LXLIFT
 62
27
 10
-1318.019
 20
720.180
 30
3866.296
 70
    32
  0
VERTEX
  8
E14LXLIFT
 62
27
 10
-1308.013
 20
709.821
 30
3870.075
 70
    32
  0
VERTEX
  8
E14LXLIFT
 62
27
 10
-1304.571
 20
697.087
 30
3876.027
 70
    32
  0
VERTEX
  8
E14LXLIFT
 62
27
 10
-1303.921
 20
696.836
 30
3876.549
 70
    32
  0
VERTEX
  8
E14LXLIFT
 62
27
 10
-1296.938
 20
687.820
 30
3877.694
 70
    32
  0
VERTEX
  8
E14LXLIFT
 62
27
 10
-1301.897
 20
681.194
 30
3878.227
 70
    32
  0
VERTEX
  8
E14LXLIFT
 62
27
 10
-1293.651
 20
669.075
 30
3879.697
 70
    32
  0
VERTEX
  8
E14LXLIFT
 62
27
 10
-1295.422
 20
664.937
 30
3879.736
 70
    32
  0
VERTEX
  8
E14LXLIFT
 62
27
 10
-1284.839
 20
653.329
 30
3881.486
 70
    32
  0
VERTEX
  8
E14LXLIFT
 62
27
 10
-1273.855
 20
640.482
 30
3883.929
 70
    32
  0
VERTEX
  8
E14LXLIFT
 62
27
 10
-1264.913
 20
634.468
 30
3884.508
 70
    32
  0
VERTEX
  8
E14LXLIFT
 62
27
 10
-1247.470
 20
636.823
 30
3885.000
 70
    32
  0
VERTEX
  8
E14LXLIFT
 62
27
 10
-1236.521
 20
621.798
 30
3885.000
 70
    32
  0
VERTEX
  8
E14LXLIFT
 62
27
 10
-1237.952
 20
611.555
 30
3885.000
 70
    32
  0
VERTEX
  8
E14LXLIFT
 62
27
 10
-1233.520
 20
601.301
 30
3885.000
 70
    32
  0
VERTEX
  8
E14LXLIFT
 62
27
 10
-1236.284
 20
596.985
 30
3885.000
 70
    32
  0
VERTEX
  8
E14LXLIFT
 62
27
 10
-1233.566
 20
588.214
 30
3885.000
 70
    32
  0
VERTEX
  8
E14LXLIFT
 62
27
 10
-1229.931
 20
577.751
 30
3885.000
 70
    32
  0
VERTEX
  8
E14LXLIFT
 62
27
 10
-1233.835
 20
574.232
 30
3885.000
 70
    32
  0
VERTEX
  8
E14LXLIFT
 62
27
 10
-1237.142
 20
570.944
 30
3885.000
 70
    32
  0
VERTEX
  8
E14LXLIFT
 62
27
 10
-1241.523
 20
577.702
 30
3885.000
 70
    32
  0
VERTEX
  8
E14LXLIFT
 62
27
 10
-1246.900
 20
577.852
 30
3885.000
 70
    32
  0
VERTEX
  8
E14LXLIFT
 62
27
 10
-1252.281
 20
589.351
 30
3885.000
 70
    32
  0
VERTEX
  8
E14LXLIFT
 62
27
 10
-1263.454
 20
605.379
 30
3885.000
 70
    32
  0
VERTEX
  8
E14LXLIFT
 62
27
 10
-1273.268
 20
620.279
 30
3884.400
 70
    32
  0
VERTEX
  8
E14LXLIFT
 62
27
 10
-1284.202
 20
634.432
 30
3883.993
 70
    32
  0
VERTEX
  8
E14LXLIFT
 62
27
 10
-1296.648
 20
649.352
 30
3881.345
 70
    32
  0
VERTEX
  8
E14LXLIFT
 62
27
 10
-1307.886
 20
668.499
 30
3879.547
 70
    32
  0
VERTEX
  8
E14LXLIFT
 62
27
 10
-1317.280
 20
686.941
 30
3876.006
 70
    32
  0
VERTEX
  8
E14LXLIFT
 62
27
 10
-1317.515
 20
687.598
 30
3876.048
 70
    32
  0
VERTEX
  8
E14LXLIFT
 62
27
 10
-1322.578
 20
695.779
 30
3872.097
 70
    32
  0
VERTEX
  8
E14LXLIFT
 62
27
 10
-1326.885
 20
701.961
 30
3867.688
 70
    32
  0
VERTEX
  8
E14LXLIFT
 62
27
 10
-1337.697
 20
707.663
 30
3866.270
 70
    32
  0
SEQEND
  8
E14LXLIFT
  0
POLYLINE
  8
E14LXLIFT
 62
1
 66
     1
 70
     9
  0
VERTEX
  8
E14LXLIFT
 62
1
 10
-1265.083
 20
634.494
 30
3895.000
 70
    32
  0
VERTEX
  8
E14LXLIFT
 62
1
 10
-1247.503
 20
636.964
 30
3895.000
 70
    32
  0
VERTEX
  8
E14LXLIFT
 62
1
 10
-1236.504
 20
621.738
 30
3895.000
 70
    32
  0
VERTEX
  8
E14LXLIFT
 62
1
 10
-1237.980
 20
611.161
 30
3895.000
 70
    32
  0
VERTEX
  8
E14LXLIFT
 62
1
 10
-1233.655
 20
601.273
 30
3895.000
 70
    32
  0
VERTEX
  8
E14LXLIFT
 62
1
 10
-1236.407
 20
596.820
 30
3895.000
 70
    32
  0
VERTEX
  8
E14LXLIFT
 62
1
 10
-1230.026
 20
577.544
 30
3895.000
 70
    32
  0
VERTEX
  8
E14LXLIFT
 62
1
 10
-1237.291
 20
570.822
 30
3895.000
 70
    32
  0
VERTEX
  8
E14LXLIFT
 62
1
 10
-1241.512
 20
577.343
 30
3895.000
 70
    32
  0
VERTEX
  8
E14LXLIFT
 62
1
 10
-1247.210
 20
577.739
 30
3895.000
 70
    32
  0
VERTEX
  8
E14LXLIFT
 62
1
 10
-1252.315
 20
589.311
 30
3895.000
 70
    32
  0
VERTEX
  8
E14LXLIFT
 62
1
 10
-1263.411
 20
605.427
 30
3895.000
 70
    32
  0
VERTEX
  8
E14LXLIFT
 62
1
 10
-1264.101
 20
606.415
 30
3895.000
 70
    32
  0
VERTEX
  8
E14LXLIFT
 62
1
 10
-1255.457
 20
613.827
 30
3895.000
 70
    32
  0
VERTEX
  8
E14LXLIFT
 62
1
 10
-1260.270
 20
624.111
 30
3895.000
 70
    32
  0
VERTEX
  8
E14LXLIFT
 62
1
 10
-1258.794
 20
629.351
 30
3895.000
 70
    32
  0
VERTEX
  8
E14LXLIFT
 62
1
 10
-1264.491
 20
634.390
 30
3895.000
 70
    32
  0
SEQEND
  8
E14LXLIFT
  0
POLYLINE
  8
E14LXLIFT
 62
1
 66
     1
 70
     9
  0
VERTEX
  8
E14LXLIFT
 62
1
 10
-1225.347
 20
563.837
 30
3902.000
 70
    32
  0
VERTEX
  8
E14LXLIFT
 62
1
 10
-1209.530
 20
572.030
 30
3902.000
 70
    32
  0
VERTEX
  8
E14LXLIFT
 62
1
 10
-1167.532
 20
492.345
 30
3902.000
 70
    32
  0
VERTEX
  8
E14LXLIFT
 62
1
 10
-1148.987
 20
441.038
 30
3902.000
 70
    32
  0
VERTEX
  8
E14LXLIFT
 62
1
 10
-1139.715
 20
420.847
 30
3902.000
 70
    32
  0
VERTEX
  8
E14LXLIFT
 62
1
 10
-1093.356
 20
376.640
 30
3902.000
 70
    32
  0
VERTEX
  8
E14LXLIFT
 62
1
 10
-1029.556
 20
309.614
 30
3902.000
 70
    32
  0
VERTEX
  8
E14LXLIFT
 62
1
 10
-1045.361
 20
294.772
 30
3902.000
 70
    32
  0
VERTEX
  8
E14LXLIFT
 62
1
 10
-1114.626
 20
361.903
 30
3902.000
 70
    32
  0
VERTEX
  8
E14LXLIFT
 62
1
 10
-1160.443
 20
412.661
 30
3902.000
 70
    32
  0
VERTEX
  8
E14LXLIFT
 62
1
 10
-1173.534
 20
436.677
 30
3902.000
 70
    32
  0
VERTEX
  8
E14LXLIFT
 62
1
 10
-1199.166
 20
483.067
 30
3902.000
 70
    32
  0
VERTEX
  8
E14LXLIFT
 62
1
 10
-1214.441
 20
513.085
 30
3902.000
 70
    32
  0
VERTEX
  8
E14LXLIFT
 62
1
 10
-1221.529
 20
540.371
 30
3902.000
 70
    32
  0
SEQEND
  8
E14LXLIFT
  0
POLYLINE
  8
E14LXLIFT
 62
8
 66
     1
 70
     9
  0
VERTEX
  8
E14LXLIFT
 62
8
 10
-1416.561
 20
497.934
 30
3862.001
 70
    32
  0
VERTEX
  8
E14LXLIFT
 62
8
 10
-1415.733
 20
508.746
 30
3862.001
 70
    32
  0
VERTEX
  8
E14LXLIFT
 62
8
 10
-1419.043
 20
516.653
 30
3862.001
 70
    32
  0
VERTEX
  8
E14LXLIFT
 62
8
 10
-1419.940
 20
520.235
 30
3862.091
 70
    32
  0
VERTEX
  8
E14LXLIFT
 62
8
 10
-1428.803
 20
542.678
 30
3862.691
 70
    32
  0
VERTEX
  8
E14LXLIFT
 62
8
 10
-1443.470
 20
571.525
 30
3863.491
 70
    32
  0
VERTEX
  8
E14LXLIFT
 62
8
 10
-1440.026
 20
576.994
 30
3863.591
 70
    32
  0
VERTEX
  8
E14LXLIFT
 62
8
 10
-1440.656
 20
584.803
 30
3863.891
 70
    32
  0
VERTEX
  8
E14LXLIFT
 62
8
 10
-1444.510
 20
596.842
 30
3864.091
 70
    32
  0
VERTEX
  8
E14LXLIFT
 62
8
 10
-1447.911
 20
605.038
 30
3864.091
 70
    32
  0
VERTEX
  8
E14LXLIFT
 62
8
 10
-1441.304
 20
610.291
 30
3864.543
 70
    32
  0
VERTEX
  8
E14LXLIFT
 62
8
 10
-1443.443
 20
620.169
 30
3864.543
 70
    32
  0
VERTEX
  8
E14LXLIFT
 62
8
 10
-1430.351
 20
625.129
 30
3864.543
 70
    32
  0
VERTEX
  8
E14LXLIFT
 62
8
 10
-1428.588
 20
614.302
 30
3864.543
 70
    32
  0
VERTEX
  8
E14LXLIFT
 62
8
 10
-1429.380
 20
610.872
 30
3864.543
 70
    32
  0
VERTEX
  8
E14LXLIFT
 62
8
 10
-1423.107
 20
591.510
 30
3864.091
 70
    32
  0
VERTEX
  8
E14LXLIFT
 62
8
 10
-1416.277
 20
581.804
 30
3863.591
 70
    32
  0
VERTEX
  8
E14LXLIFT
 62
8
 10
-1413.425
 20
582.240
 30
3863.591
 70
    32
  0
VERTEX
  8
E14LXLIFT
 62
8
 10
-1410.252
 20
574.109
 30
3863.491
 70
    32
  0
VERTEX
  8
E14LXLIFT
 62
8
 10
-1405.259
 20
567.806
 30
3863.291
 70
    32
  0
VERTEX
  8
E14LXLIFT
 62
8
 10
-1398.630
 20
557.322
 30
3863.091
 70
    32
  0
VERTEX
  8
E14LXLIFT
 62
8
 10
-1392.915
 20
553.312
 30
3862.891
 70
    32
  0
VERTEX
  8
E14LXLIFT
 62
8
 10
-1403.222
 20
539.067
 30
3862.691
 70
    32
  0
VERTEX
  8
E14LXLIFT
 62
8
 10
-1404.865
 20
542.353
 30
3862.691
 70
    32
  0
VERTEX
  8
E14LXLIFT
 62
8
 10
-1409.145
 20
541.282
 30
3862.691
 70
    32
  0
VERTEX
  8
E14LXLIFT
 62
8
 10
-1407.206
 20
534.541
 30
3862.491
 70
    32
  0
VERTEX
  8
E14LXLIFT
 62
8
 10
-1403.623
 20
524.586
 30
3862.291
 70
    32
  0
VERTEX
  8
E14LXLIFT
 62
8
 10
-1400.812
 20
517.631
 30
3862.091
 70
    32
  0
VERTEX
  8
E14LXLIFT
 62
8
 10
-1400.049
 20
516.653
 30
3862.001
 70
    32
  0
VERTEX
  8
E14LXLIFT
 62
8
 10
-1393.779
 20
513.159
 30
3862.001
 70
    32
  0
VERTEX
  8
E14LXLIFT
 62
8
 10
-1392.399
 20
512.004
 30
3862.897
 70
    32
  0
VERTEX
  8
E14LXLIFT
 62
8
 10
-1384.778
 20
506.294
 30
3862.897
 70
    32
  0
VERTEX
  8
E14LXLIFT
 62
8
 10
-1378.619
 20
503.172
 30
3862.897
 70
    32
  0
VERTEX
  8
E14LXLIFT
 62
8
 10
-1371.313
 20
496.481
 30
3862.897
 70
    32
  0
VERTEX
  8
E14LXLIFT
 62
8
 10
-1369.596
 20
493.179
 30
3862.897
 70
    32
  0
VERTEX
  8
E14LXLIFT
 62
8
 10
-1362.503
 20
486.035
 30
3862.897
 70
    32
  0
VERTEX
  8
E14LXLIFT
 62
8
 10
-1363.575
 20
480.347
 30
3862.897
 70
    32
  0
VERTEX
  8
E14LXLIFT
 62
8
 10
-1360.145
 20
470.966
 30
3862.897
 70
    32
  0
VERTEX
  8
E14LXLIFT
 62
8
 10
-1361.683
 20
467.679
 30
3863.006
 70
    32
  0
VERTEX
  8
E14LXLIFT
 62
8
 10
-1361.127
 20
463.123
 30
3863.006
 70
    32
  0
VERTEX
  8
E14LXLIFT
 62
8
 10
-1357.882
 20
458.769
 30
3863.006
 70
    32
  0
VERTEX
  8
E14LXLIFT
 62
8
 10
-1363.912
 20
451.568
 30
3863.006
 70
    32
  0
VERTEX
  8
E14LXLIFT
 62
8
 10
-1363.966
 20
443.279
 30
3863.006
 70
    32
  0
VERTEX
  8
E14LXLIFT
 62
8
 10
-1365.327
 20
436.705
 30
3864.006
 70
    32
  0
VERTEX
  8
E14LXLIFT
 62
8
 10
-1377.931
 20
431.193
 30
3864.006
 70
    32
  0
VERTEX
  8
E14LXLIFT
 62
8
 10
-1379.816
 20
442.159
 30
3863.006
 70
    32
  0
VERTEX
  8
E14LXLIFT
 62
8
 10
-1381.448
 20
458.981
 30
3863.006
 70
    32
  0
VERTEX
  8
E14LXLIFT
 62
8
 10
-1384.938
 20
463.223
 30
3862.897
 70
    32
  0
VERTEX
  8
E14LXLIFT
 62
8
 10
-1389.346
 20
467.580
 30
3862.897
 70
    32
  0
VERTEX
  8
E14LXLIFT
 62
8
 10
-1392.862
 20
473.561
 30
3862.897
 70
    32
  0
VERTEX
  8
E14LXLIFT
 62
8
 10
-1395.780
 20
481.842
 30
3862.897
 70
    32
  0
VERTEX
  8
E14LXLIFT
 62
8
 10
-1401.330
 20
486.153
 30
3862.897
 70
    32
  0
VERTEX
  8
E14LXLIFT
 62
8
 10
-1406.245
 20
496.245
 30
3862.001
 70
    32
  0
SEQEND
  8
E14LXLIFT
  0
POLYLINE
  8
E14LXLIFT
 62
8
 66
     1
 70
     9
  0
VERTEX
  8
E14LXLIFT
 62
8
 10
-1365.699
 20
413.231
 30
3889.850
 70
    32
  0
VERTEX
  8
E14LXLIFT
 62
8
 10
-1378.501
 20
424.748
 30
3884.057
 70
    32
  0
VERTEX
  8
E14LXLIFT
 62
8
 10
-1379.841
 20
430.676
 30
3883.000
 70
    32
  0
VERTEX
  8
E14LXLIFT
 62
8
 10
-1385.013
 20
439.633
 30
3883.000
 70
    32
  0
VERTEX
  8
E14LXLIFT
 62
8
 10
-1388.412
 20
444.863
 30
3883.000
 70
    32
  0
VERTEX
  8
E14LXLIFT
 62
8
 10
-1392.277
 20
452.405
 30
3882.000
 70
    32
  0
VERTEX
  8
E14LXLIFT
 62
8
 10
-1394.076
 20
459.268
 30
3882.000
 70
    32
  0
VERTEX
  8
E14LXLIFT
 62
8
 10
-1390.106
 20
460.262
 30
3882.000
 70
    32
  0
VERTEX
  8
E14LXLIFT
 62
8
 10
-1397.019
 20
478.071
 30
3882.000
 70
    32
  0
VERTEX
  8
E14LXLIFT
 62
8
 10
-1395.726
 20
482.789
 30
3882.000
 70
    32
  0
VERTEX
  8
E14LXLIFT
 62
8
 10
-1398.346
 20
490.082
 30
3882.000
 70
    32
  0
VERTEX
  8
E14LXLIFT
 62
8
 10
-1402.411
 20
489.563
 30
3882.000
 70
    32
  0
VERTEX
  8
E14LXLIFT
 62
8
 10
-1413.670
 20
499.728
 30
3882.000
 70
    32
  0
VERTEX
  8
E14LXLIFT
 62
8
 10
-1419.166
 20
502.688
 30
3882.000
 70
    32
  0
VERTEX
  8
E14LXLIFT
 62
8
 10
-1424.896
 20
503.246
 30
3882.000
 70
    32
  0
VERTEX
  8
E14LXLIFT
 62
8
 10
-1428.380
 20
506.798
 30
3882.000
 70
    32
  0
VERTEX
  8
E14LXLIFT
 62
8
 10
-1428.738
 20
522.347
 30
3882.000
 70
    32
  0
VERTEX
  8
E14LXLIFT
 62
8
 10
-1430.569
 20
527.542
 30
3882.000
 70
    32
  0
VERTEX
  8
E14LXLIFT
 62
8
 10
-1435.891
 20
534.131
 30
3882.000
 70
    32
  0
VERTEX
  8
E14LXLIFT
 62
8
 10
-1444.138
 20
543.482
 30
3882.000
 70
    32
  0
VERTEX
  8
E14LXLIFT
 62
8
 10
-1448.297
 20
551.342
 30
3882.000
 70
    32
  0
VERTEX
  8
E14LXLIFT
 62
8
 10
-1446.108
 20
553.089
 30
3882.000
 70
    32
  0
VERTEX
  8
E14LXLIFT
 62
8
 10
-1453.331
 20
561.168
 30
3882.000
 70
    32
  0
VERTEX
  8
E14LXLIFT
 62
8
 10
-1444.138
 20
568.374
 30
3882.000
 70
    32
  0
VERTEX
  8
E14LXLIFT
 62
8
 10
-1438.448
 20
562.042
 30
3882.000
 70
    32
  0
VERTEX
  8
E14LXLIFT
 62
8
 10
-1436.697
 20
558.330
 30
3882.000
 70
    32
  0
VERTEX
  8
E14LXLIFT
 62
8
 10
-1431.444
 20
549.596
 30
3882.000
 70
    32
  0
VERTEX
  8
E14LXLIFT
 62
8
 10
-1426.191
 20
545.010
 30
3882.000
 70
    32
  0
VERTEX
  8
E14LXLIFT
 62
8
 10
-1422.759
 20
544.996
 30
3882.000
 70
    32
  0
VERTEX
  8
E14LXLIFT
 62
8
 10
-1412.156
 20
534.057
 30
3882.411
 70
    32
  0
VERTEX
  8
E14LXLIFT
 62
8
 10
-1401.939
 20
532.091
 30
3882.544
 70
    32
  0
VERTEX
  8
E14LXLIFT
 62
8
 10
-1399.086
 20
533.929
 30
3882.054
 70
    32
  0
VERTEX
  8
E14LXLIFT
 62
8
 10
-1389.999
 20
548.067
 30
3882.573
 70
    32
  0
VERTEX
  8
E14LXLIFT
 62
8
 10
-1378.846
 20
544.837
 30
3882.573
 70
    32
  0
VERTEX
  8
E14LXLIFT
 62
8
 10
-1385.393
 20
531.365
 30
3882.608
 70
    32
  0
VERTEX
  8
E14LXLIFT
 62
8
 10
-1390.614
 20
526.570
 30
3882.577
 70
    32
  0
VERTEX
  8
E14LXLIFT
 62
8
 10
-1396.697
 20
514.855
 30
3882.802
 70
    32
  0
VERTEX
  8
E14LXLIFT
 62
8
 10
-1389.101
 20
498.170
 30
3882.000
 70
    32
  0
VERTEX
  8
E14LXLIFT
 62
8
 10
-1385.079
 20
484.525
 30
3882.000
 70
    32
  0
VERTEX
  8
E14LXLIFT
 62
8
 10
-1370.901
 20
478.187
 30
3882.000
 70
    32
  0
VERTEX
  8
E14LXLIFT
 62
8
 10
-1365.976
 20
469.834
 30
3882.000
 70
    32
  0
VERTEX
  8
E14LXLIFT
 62
8
 10
-1374.622
 20
456.143
 30
3882.000
 70
    32
  0
VERTEX
  8
E14LXLIFT
 62
8
 10
-1368.760
 20
445.027
 30
3883.000
 70
    32
  0
VERTEX
  8
E14LXLIFT
 62
8
 10
-1363.334
 20
435.080
 30
3883.000
 70
    32
  0
VERTEX
  8
E14LXLIFT
 62
8
 10
-1356.883
 20
421.385
 30
3889.931
 70
    32
  0
SEQEND
  8
E14LXLIFT
  0
POLYLINE
  8
E14LXLIFT
 62
2
 66
     1
 70
     9
  0
VERTEX
  8
E14LXLIFT
 62
2
 10
-1369.015
 20
771.833
 30
3963.339
 70
    32
  0
VERTEX
  8
E14LXLIFT
 62
2
 10
-1365.594
 20
764.602
 30
3963.506
 70
    32
  0
VERTEX
  8
E14LXLIFT
 62
2
 10
-1363.130
 20
756.061
 30
3963.506
 70
    32
  0
VERTEX
  8
E14LXLIFT
 62
2
 10
-1360.493
 20
754.382
 30
3963.506
 70
    32
  0
VERTEX
  8
E14LXLIFT
 62
2
 10
-1357.616
 20
743.054
 30
3963.584
 70
    32
  0
VERTEX
  8
E14LXLIFT
 62
2
 10
-1357.264
 20
736.896
 30
3963.584
 70
    32
  0
VERTEX
  8
E14LXLIFT
 62
2
 10
-1355.486
 20
733.986
 30
3963.584
 70
    32
  0
VERTEX
  8
E14LXLIFT
 62
2
 10
-1354.024
 20
728.127
 30
3963.584
 70
    32
  0
VERTEX
  8
E14LXLIFT
 62
2
 10
-1356.108
 20
717.297
 30
3963.617
 70
    32
  0
VERTEX
  8
E14LXLIFT
 62
2
 10
-1352.961
 20
713.570
 30
3963.617
 70
    32
  0
VERTEX
  8
E14LXLIFT
 62
2
 10
-1351.771
 20
704.415
 30
3963.617
 70
    32
  0
VERTEX
  8
E14LXLIFT
 62
2
 10
-1350.237
 20
691.174
 30
3963.617
 70
    32
  0
VERTEX
  8
E14LXLIFT
 62
2
 10
-1351.207
 20
682.245
 30
3964.241
 70
    32
  0
VERTEX
  8
E14LXLIFT
 62
2
 10
-1343.241
 20
680.526
 30
3964.241
 70
    32
  0
VERTEX
  8
E14LXLIFT
 62
2
 10
-1339.270
 20
673.114
 30
3965.241
 70
    32
  0
VERTEX
  8
E14LXLIFT
 62
2
 10
-1334.559
 20
666.743
 30
3964.641
 70
    32
  0
VERTEX
  8
E14LXLIFT
 62
2
 10
-1327.473
 20
655.027
 30
3965.073
 70
    32
  0
VERTEX
  8
E14LXLIFT
 62
2
 10
-1323.889
 20
648.398
 30
3965.073
 70
    32
  0
VERTEX
  8
E14LXLIFT
 62
2
 10
-1319.031
 20
642.805
 30
3965.073
 70
    32
  0
VERTEX
  8
E14LXLIFT
 62
2
 10
-1316.106
 20
640.977
 30
3965.356
 70
    32
  0
VERTEX
  8
E14LXLIFT
 62
2
 10
-1309.849
 20
643.605
 30
3965.356
 70
    32
  0
VERTEX
  8
E14LXLIFT
 62
2
 10
-1303.996
 20
640.349
 30
3965.356
 70
    32
  0
VERTEX
  8
E14LXLIFT
 62
2
 10
-1291.507
 20
630.244
 30
3965.000
 70
    32
  0
VERTEX
  8
E14LXLIFT
 62
2
 10
-1281.412
 20
621.049
 30
3965.000
 70
    32
  0
VERTEX
  8
E14LXLIFT
 62
2
 10
-1272.264
 20
610.372
 30
3965.000
 70
    32
  0
VERTEX
  8
E14LXLIFT
 62
2
 10
-1266.845
 20
603.359
 30
3965.000
 70
    32
  0
VERTEX
  8
E14LXLIFT
 62
2
 10
-1267.318
 20
600.687
 30
3965.800
 70
    32
  0
VERTEX
  8
E14LXLIFT
 62
2
 10
-1266.581
 20
588.000
 30
3965.800
 70
    32
  0
VERTEX
  8
E14LXLIFT
 62
2
 10
-1263.630
 20
576.346
 30
3965.800
 70
    32
  0
VERTEX
  8
E14LXLIFT
 62
2
 10
-1259.055
 20
565.577
 30
3965.800
 70
    32
  0
VERTEX
  8
E14LXLIFT
 62
2
 10
-1258.391
 20
560.782
 30
3965.800
 70
    32
  0
VERTEX
  8
E14LXLIFT
 62
2
 10
-1252.361
 20
559.994
 30
3965.866
 70
    32
  0
VERTEX
  8
E14LXLIFT
 62
2
 10
-1247.653
 20
549.004
 30
3966.066
 70
    32
  0
VERTEX
  8
E14LXLIFT
 62
2
 10
-1241.557
 20
547.659
 30
3966.443
 70
    32
  0
VERTEX
  8
E14LXLIFT
 62
2
 10
-1236.785
 20
536.001
 30
3967.573
 70
    32
  0
VERTEX
  8
E14LXLIFT
 62
2
 10
-1229.852
 20
525.301
 30
3967.807
 70
    32
  0
VERTEX
  8
E14LXLIFT
 62
2
 10
-1221.388
 20
509.656
 30
3967.098
 70
    32
  0
VERTEX
  8
E14LXLIFT
 62
2
 10
-1206.982
 20
518.018
 30
3967.061
 70
    32
  0
VERTEX
  8
E14LXLIFT
 62
2
 10
-1207.252
 20
520.806
 30
3967.078
 70
    32
  0
VERTEX
  8
E14LXLIFT
 62
2
 10
-1211.484
 20
532.854
 30
3967.079
 70
    32
  0
VERTEX
  8
E14LXLIFT
 62
2
 10
-1218.957
 20
537.979
 30
3967.524
 70
    32
  0
VERTEX
  8
E14LXLIFT
 62
2
 10
-1228.345
 20
549.681
 30
3966.422
 70
    32
  0
VERTEX
  8
E14LXLIFT
 62
2
 10
-1227.228
 20
552.570
 30
3966.066
 70
    32
  0
VERTEX
  8
E14LXLIFT
 62
2
 10
-1227.348
 20
556.592
 30
3966.066
 70
    32
  0
VERTEX
  8
E14LXLIFT
 62
2
 10
-1225.118
 20
561.654
 30
3965.866
 70
    32
  0
VERTEX
  8
E14LXLIFT
 62
2
 10
-1231.991
 20
576.344
 30
3965.800
 70
    32
  0
VERTEX
  8
E14LXLIFT
 62
2
 10
-1244.523
 20
587.570
 30
3965.000
 70
    32
  0
VERTEX
  8
E14LXLIFT
 62
2
 10
-1246.448
 20
592.053
 30
3965.000
 70
    32
  0
VERTEX
  8
E14LXLIFT
 62
2
 10
-1249.729
 20
599.337
 30
3965.000
 70
    32
  0
VERTEX
  8
E14LXLIFT
 62
2
 10
-1256.157
 20
608.770
 30
3965.000
 70
    32
  0
VERTEX
  8
E14LXLIFT
 62
2
 10
-1258.421
 20
613.552
 30
3965.000
 70
    32
  0
VERTEX
  8
E14LXLIFT
 62
2
 10
-1270.034
 20
625.647
 30
3965.000
 70
    32
  0
VERTEX
  8
E14LXLIFT
 62
2
 10
-1272.970
 20
630.300
 30
3965.000
 70
    32
  0
VERTEX
  8
E14LXLIFT
 62
2
 10
-1290.129
 20
644.132
 30
3965.000
 70
    32
  0
VERTEX
  8
E14LXLIFT
 62
2
 10
-1296.073
 20
648.442
 30
3965.000
 70
    32
  0
VERTEX
  8
E14LXLIFT
 62
2
 10
-1303.517
 20
654.703
 30
3965.356
 70
    32
  0
VERTEX
  8
E14LXLIFT
 62
2
 10
-1306.501
 20
659.123
 30
3965.073
 70
    32
  0
VERTEX
  8
E14LXLIFT
 62
2
 10
-1314.594
 20
670.660
 30
3964.673
 70
    32
  0
VERTEX
  8
E14LXLIFT
 62
2
 10
-1319.409
 20
674.378
 30
3964.673
 70
    32
  0
VERTEX
  8
E14LXLIFT
 62
2
 10
-1325.681
 20
677.603
 30
3965.073
 70
    32
  0
VERTEX
  8
E14LXLIFT
 62
2
 10
-1330.345
 20
684.111
 30
3964.000
 70
    32
  0
VERTEX
  8
E14LXLIFT
 62
2
 10
-1328.121
 20
691.150
 30
3964.000
 70
    32
  0
VERTEX
  8
E14LXLIFT
 62
2
 10
-1331.210
 20
702.759
 30
3964.000
 70
    32
  0
VERTEX
  8
E14LXLIFT
 62
2
 10
-1333.804
 20
711.404
 30
3964.000
 70
    32
  0
VERTEX
  8
E14LXLIFT
 62
2
 10
-1334.250
 20
719.607
 30
3963.617
 70
    32
  0
VERTEX
  8
E14LXLIFT
 62
2
 10
-1331.573
 20
722.912
 30
3963.584
 70
    32
  0
VERTEX
  8
E14LXLIFT
 62
2
 10
-1332.595
 20
731.300
 30
3963.584
 70
    32
  0
VERTEX
  8
E14LXLIFT
 62
2
 10
-1330.980
 20
735.076
 30
3963.584
 70
    32
  0
VERTEX
  8
E14LXLIFT
 62
2
 10
-1333.024
 20
742.138
 30
3963.584
 70
    32
  0
VERTEX
  8
E14LXLIFT
 62
2
 10
-1332.251
 20
745.955
 30
3963.584
 70
    32
  0
VERTEX
  8
E14LXLIFT
 62
2
 10
-1335.543
 20
751.990
 30
3963.506
 70
    32
  0
VERTEX
  8
E14LXLIFT
 62
2
 10
-1330.353
 20
760.054
 30
3963.506
 70
    32
  0
VERTEX
  8
E14LXLIFT
 62
2
 10
-1338.861
 20
771.011
 30
3963.506
 70
    32
  0
VERTEX
  8
E14LXLIFT
 62
2
 10
-1337.623
 20
780.632
 30
3963.339
 70
    32
  0
VERTEX
  8
E14LXLIFT
 62
2
 10
-1341.104
 20
796.985
 30
3963.339
 70
    32
  0
VERTEX
  8
E14LXLIFT
 62
2
 10
-1345.714
 20
794.691
 30
3963.339
 70
    32
  0
VERTEX
  8
E14LXLIFT
 62
2
 10
-1361.543
 20
797.316
 30
3963.339
 70
    32
  0
VERTEX
  8
E14LXLIFT
 62
2
 10
-1372.044
 20
806.887
 30
3963.390
 70
    32
  0
VERTEX
  8
E14LXLIFT
 62
2
 10
-1378.036
 20
805.740
 30
3963.390
 70
    32
  0
VERTEX
  8
E14LXLIFT
 62
2
 10
-1381.496
 20
802.208
 30
3963.390
 70
    32
  0
VERTEX
  8
E14LXLIFT
 62
2
 10
-1385.957
 20
796.797
 30
3963.390
 70
    32
  0
VERTEX
  8
E14LXLIFT
 62
2
 10
-1387.901
 20
788.440
 30
3963.390
 70
    32
  0
VERTEX
  8
E14LXLIFT
 62
2
 10
-1386.460
 20
781.458
 30
3963.390
 70
    32
  0
SEQEND
  8
E14LXLIFT
  0
POLYLINE
  8
E14LXLIFT
 62
1
 66
     1
 70
     9
  0
VERTEX
  8
E14LXLIFT
 62
1
 10
-1295.874
 20
662.229
 30
3987.000
 70
    32
  0
VERTEX
  8
E14LXLIFT
 62
1
 10
-1288.516
 20
653.823
 30
3987.000
 70
    32
  0
VERTEX
  8
E14LXLIFT
 62
1
 10
-1268.676
 20
631.176
 30
3987.000
 70
    32
  0
VERTEX
  8
E14LXLIFT
 62
1
 10
-1254.000
 20
612.657
 30
3987.000
 70
    32
  0
VERTEX
  8
E14LXLIFT
 62
1
 10
-1247.815
 20
601.585
 30
3987.000
 70
    32
  0
VERTEX
  8
E14LXLIFT
 62
1
 10
-1235.637
 20
586.687
 30
3987.000
 70
    32
  0
VERTEX
  8
E14LXLIFT
 62
1
 10
-1229.714
 20
573.990
 30
3987.000
 70
    32
  0
VERTEX
  8
E14LXLIFT
 62
1
 10
-1224.791
 20
559.220
 30
3987.000
 70
    32
  0
VERTEX
  8
E14LXLIFT
 62
1
 10
-1217.446
 20
546.312
 30
3987.000
 70
    32
  0
VERTEX
  8
E14LXLIFT
 62
1
 10
-1227.312
 20
541.365
 30
3987.000
 70
    32
  0
VERTEX
  8
E14LXLIFT
 62
1
 10
-1232.690
 20
553.587
 30
3987.000
 70
    32
  0
VERTEX
  8
E14LXLIFT
 62
1
 10
-1238.539
 20
565.846
 30
3987.000
 70
    32
  0
VERTEX
  8
E14LXLIFT
 62
1
 10
-1240.246
 20
576.830
 30
3987.000
 70
    32
  0
VERTEX
  8
E14LXLIFT
 62
1
 10
-1248.108
 20
591.186
 30
3987.000
 70
    32
  0
VERTEX
  8
E14LXLIFT
 62
1
 10
-1256.537
 20
604.275
 30
3987.000
 70
    32
  0
VERTEX
  8
E14LXLIFT
 62
1
 10
-1264.052
 20
617.502
 30
3987.000
 70
    32
  0
VERTEX
  8
E14LXLIFT
 62
1
 10
-1271.227
 20
627.681
 30
3987.000
 70
    32
  0
VERTEX
  8
E14LXLIFT
 62
1
 10
-1300.733
 20
655.774
 30
3987.000
 70
    32
  0
SEQEND
  8
E14LXLIFT
  0
POLYLINE
  8
E14LXLIFT
 62
2
 66
     1
 70
     9
  0
VERTEX
  8
E14LXLIFT
 62
2
 10
-1327.277
 20
689.457
 30
3964.803
 70
    32
  0
VERTEX
  8
E14LXLIFT
 62
2
 10
-1317.918
 20
678.939
 30
3970.474
 70
    32
  0
VERTEX
  8
E14LXLIFT
 62
2
 10
-1308.069
 20
677.445
 30
3974.487
 70
    32
  0
VERTEX
  8
E14LXLIFT
 62
2
 10
-1301.679
 20
666.127
 30
3976.916
 70
    32
  0
VERTEX
  8
E14LXLIFT
 62
2
 10
-1296.369
 20
661.996
 30
3976.905
 70
    32
  0
VERTEX
  8
E14LXLIFT
 62
2
 10
-1279.813
 20
650.664
 30
3975.613
 70
    32
  0
VERTEX
  8
E14LXLIFT
 62
2
 10
-1278.325
 20
644.823
 30
3975.840
 70
    32
  0
VERTEX
  8
E14LXLIFT
 62
2
 10
-1265.501
 20
630.730
 30
3976.291
 70
    32
  0
VERTEX
  8
E14LXLIFT
 62
2
 10
-1258.166
 20
618.796
 30
3976.400
 70
    32
  0
VERTEX
  8
E14LXLIFT
 62
2
 10
-1242.178
 20
595.002
 30
3976.373
 70
    32
  0
VERTEX
  8
E14LXLIFT
 62
2
 10
-1235.841
 20
589.407
 30
3977.003
 70
    32
  0
VERTEX
  8
E14LXLIFT
 62
2
 10
-1226.749
 20
572.262
 30
3978.303
 70
    32
  0
VERTEX
  8
E14LXLIFT
 62
2
 10
-1224.832
 20
565.473
 30
3978.776
 70
    32
  0
VERTEX
  8
E14LXLIFT
 62
2
 10
-1215.702
 20
544.622
 30
3980.300
 70
    32
  0
VERTEX
  8
E14LXLIFT
 62
2
 10
-1221.875
 20
540.290
 30
3980.300
 70
    32
  0
VERTEX
  8
E14LXLIFT
 62
2
 10
-1229.280
 20
539.903
 30
3980.303
 70
    32
  0
VERTEX
  8
E14LXLIFT
 62
2
 10
-1236.464
 20
552.153
 30
3979.384
 70
    32
  0
VERTEX
  8
E14LXLIFT
 62
2
 10
-1242.584
 20
564.078
 30
3978.516
 70
    32
  0
VERTEX
  8
E14LXLIFT
 62
2
 10
-1244.642
 20
575.140
 30
3977.787
 70
    32
  0
VERTEX
  8
E14LXLIFT
 62
2
 10
-1251.357
 20
585.204
 30
3977.003
 70
    32
  0
VERTEX
  8
E14LXLIFT
 62
2
 10
-1262.565
 20
596.915
 30
3976.463
 70
    32
  0
VERTEX
  8
E14LXLIFT
 62
2
 10
-1269.197
 20
611.353
 30
3976.314
 70
    32
  0
VERTEX
  8
E14LXLIFT
 62
2
 10
-1282.674
 20
631.821
 30
3976.313
 70
    32
  0
VERTEX
  8
E14LXLIFT
 62
2
 10
-1301.256
 20
638.286
 30
3975.621
 70
    32
  0
VERTEX
  8
E14LXLIFT
 62
2
 10
-1310.986
 20
648.504
 30
3976.151
 70
    32
  0
VERTEX
  8
E14LXLIFT
 62
2
 10
-1320.537
 20
651.613
 30
3976.941
 70
    32
  0
VERTEX
  8
E14LXLIFT
 62
2
 10
-1333.602
 20
664.923
 30
3974.405
 70
    32
  0
VERTEX
  8
E14LXLIFT
 62
2
 10
-1342.649
 20
679.739
 30
3964.999
 70
    32
  0
SEQEND
  8
E14LXLIFT
  0
POLYLINE
  8
E14LXLIFT
 62
1
 66
     1
 70
     9
  0
VERTEX
  8
E14LXLIFT
 62
1
 10
-1437.261
 20
764.710
 30
3938.000
 70
    32
  0
VERTEX
  8
E14LXLIFT
 62
1
 10
-1433.559
 20
755.316
 30
3938.000
 70
    32
  0
VERTEX
  8
E14LXLIFT
 62
1
 10
-1411.025
 20
763.740
 30
3938.000
 70
    32
  0
VERTEX
  8
E14LXLIFT
 62
1
 10
-1387.363
 20
769.407
 30
3938.000
 70
    32
  0
VERTEX
  8
E14LXLIFT
 62
1
 10
-1369.014
 20
772.158
 30
3938.000
 70
    32
  0
VERTEX
  8
E14LXLIFT
 62
1
 10
-1362.573
 20
757.909
 30
3938.000
 70
    32
  0
VERTEX
  8
E14LXLIFT
 62
1
 10
-1356.778
 20
743.013
 30
3938.000
 70
    32
  0
VERTEX
  8
E14LXLIFT
 62
1
 10
-1353.240
 20
727.628
 30
3938.000
 70
    32
  0
VERTEX
  8
E14LXLIFT
 62
1
 10
-1351.630
 20
712.732
 30
3938.000
 70
    32
  0
VERTEX
  8
E14LXLIFT
 62
1
 10
-1347.445
 20
691.358
 30
3938.000
 70
    32
  0
VERTEX
  8
E14LXLIFT
 62
1
 10
-1343.742
 20
681.152
 30
3938.000
 70
    32
  0
VERTEX
  8
E14LXLIFT
 62
1
 10
-1326.681
 20
690.223
 30
3938.000
 70
    32
  0
VERTEX
  8
E14LXLIFT
 62
1
 10
-1325.070
 20
694.920
 30
3938.000
 70
    32
  0
VERTEX
  8
E14LXLIFT
 62
1
 10
-1330.219
 20
716.295
 30
3938.000
 70
    32
  0
VERTEX
  8
E14LXLIFT
 62
1
 10
-1331.829
 20
725.201
 30
3938.000
 70
    32
  0
VERTEX
  8
E14LXLIFT
 62
1
 10
-1334.726
 20
738.157
 30
3938.000
 70
    32
  0
VERTEX
  8
E14LXLIFT
 62
1
 10
-1336.977
 20
751.595
 30
3938.000
 70
    32
  0
VERTEX
  8
E14LXLIFT
 62
1
 10
-1338.752
 20
764.387
 30
3938.000
 70
    32
  0
VERTEX
  8
E14LXLIFT
 62
1
 10
-1340.680
 20
776.044
 30
3938.000
 70
    32
  0
VERTEX
  8
E14LXLIFT
 62
1
 10
-1342.937
 20
786.573
 30
3938.000
 70
    32
  0
VERTEX
  8
E14LXLIFT
 62
1
 10
-1349.055
 20
792.721
 30
3938.000
 70
    32
  0
VERTEX
  8
E14LXLIFT
 62
1
 10
-1361.932
 20
794.179
 30
3938.000
 70
    32
  0
VERTEX
  8
E14LXLIFT
 62
1
 10
-1378.189
 20
789.000
 30
3938.000
 70
    32
  0
VERTEX
  8
E14LXLIFT
 62
1
 10
-1382.532
 20
782.687
 30
3938.000
 70
    32
  0
VERTEX
  8
E14LXLIFT
 62
1
 10
-1386.717
 20
780.741
 30
3938.000
 70
    32
  0
VERTEX
  8
E14LXLIFT
 62
1
 10
-1407.481
 20
775.721
 30
3938.000
 70
    32
  0
VERTEX
  8
E14LXLIFT
 62
1
 10
-1433.559
 20
766.491
 30
3938.000
 70
    32
  0
SEQEND
  8
E14LXLIFT
  0
ENDSEC
  0
EOF
