999
********************************
999
*   DXF File - Entities Only   *
999
*        3D Data Format        *
999
*     Output from ENVISAGE     *
999
*     31-Dec-2007 14:00:46     *
999
********************************
  0
SECTION 
  2
HEADER
  9
$ACADVER
  1
AC1009
  9
$EXTMIN
 10
-290000.000
 20
-250000.000
 30
-4000.000
  9
$EXTMAX
 10
320000.000
 20
160000.000
 30
6000.000
  0
ENDSEC
  0
SECTION
  2
ENTITIES
  0
POLYLINE
  8
E15LXLIFT
 62
5
 66
     1
 70
     9
  0
VERTEX
  8
E15LXLIFT
 62
5
 10
-87.057
 20
-1468.926
 30
3737.000
 70
    32
  0
VERTEX
  8
E15LXLIFT
 62
5
 10
-87.519
 20
-1458.578
 30
3737.000
 70
    32
  0
VERTEX
  8
E15LXLIFT
 62
5
 10
-91.651
 20
-1451.945
 30
3737.000
 70
    32
  0
VERTEX
  8
E15LXLIFT
 62
5
 10
-91.784
 20
-1445.907
 30
3737.000
 70
    32
  0
VERTEX
  8
E15LXLIFT
 62
5
 10
-90.159
 20
-1442.501
 30
3737.000
 70
    32
  0
VERTEX
  8
E15LXLIFT
 62
5
 10
-93.857
 20
-1432.269
 30
3737.000
 70
    32
  0
VERTEX
  8
E15LXLIFT
 62
5
 10
-93.434
 20
-1422.260
 30
3737.000
 70
    32
  0
VERTEX
  8
E15LXLIFT
 62
5
 10
-97.872
 20
-1419.814
 30
3737.000
 70
    32
  0
VERTEX
  8
E15LXLIFT
 62
5
 10
-101.246
 20
-1410.216
 30
3737.000
 70
    32
  0
VERTEX
  8
E15LXLIFT
 62
5
 10
-109.896
 20
-1414.656
 30
3737.000
 70
    32
  0
VERTEX
  8
E15LXLIFT
 62
5
 10
-107.531
 20
-1429.655
 30
3737.000
 70
    32
  0
VERTEX
  8
E15LXLIFT
 62
5
 10
-109.038
 20
-1436.641
 30
3737.000
 70
    32
  0
VERTEX
  8
E15LXLIFT
 62
5
 10
-106.935
 20
-1445.563
 30
3737.000
 70
    32
  0
VERTEX
  8
E15LXLIFT
 62
5
 10
-111.929
 20
-1450.357
 30
3737.000
 70
    32
  0
VERTEX
  8
E15LXLIFT
 62
5
 10
-107.648
 20
-1461.829
 30
3737.000
 70
    32
  0
VERTEX
  8
E15LXLIFT
 62
5
 10
-112.847
 20
-1464.300
 30
3737.000
 70
    32
  0
VERTEX
  8
E15LXLIFT
 62
5
 10
-124.598
 20
-1457.890
 30
3737.000
 70
    32
  0
VERTEX
  8
E15LXLIFT
 62
5
 10
-131.079
 20
-1453.382
 30
3737.000
 70
    32
  0
VERTEX
  8
E15LXLIFT
 62
5
 10
-134.164
 20
-1449.203
 30
3737.000
 70
    32
  0
VERTEX
  8
E15LXLIFT
 62
5
 10
-143.999
 20
-1439.480
 30
3737.000
 70
    32
  0
VERTEX
  8
E15LXLIFT
 62
5
 10
-150.125
 20
-1442.904
 30
3737.000
 70
    32
  0
VERTEX
  8
E15LXLIFT
 62
5
 10
-143.697
 20
-1451.201
 30
3737.000
 70
    32
  0
VERTEX
  8
E15LXLIFT
 62
5
 10
-141.397
 20
-1455.812
 30
3737.000
 70
    32
  0
VERTEX
  8
E15LXLIFT
 62
5
 10
-133.029
 20
-1464.962
 30
3737.000
 70
    32
  0
VERTEX
  8
E15LXLIFT
 62
5
 10
-121.351
 20
-1470.788
 30
3737.000
 70
    32
  0
VERTEX
  8
E15LXLIFT
 62
5
 10
-116.052
 20
-1474.997
 30
3737.000
 70
    32
  0
VERTEX
  8
E15LXLIFT
 62
5
 10
-114.239
 20
-1473.372
 30
3737.000
 70
    32
  0
VERTEX
  8
E15LXLIFT
 62
5
 10
-108.410
 20
-1475.681
 30
3737.000
 70
    32
  0
VERTEX
  8
E15LXLIFT
 62
5
 10
-102.245
 20
-1485.931
 30
3737.000
 70
    32
  0
VERTEX
  8
E15LXLIFT
 62
5
 10
-103.010
 20
-1496.667
 30
3737.000
 70
    32
  0
VERTEX
  8
E15LXLIFT
 62
5
 10
-98.519
 20
-1504.187
 30
3737.000
 70
    32
  0
VERTEX
  8
E15LXLIFT
 62
5
 10
-86.323
 20
-1519.086
 30
3737.000
 70
    32
  0
VERTEX
  8
E15LXLIFT
 62
5
 10
-81.722
 20
-1527.709
 30
3737.000
 70
    32
  0
VERTEX
  8
E15LXLIFT
 62
5
 10
-79.335
 20
-1529.930
 30
3737.000
 70
    32
  0
VERTEX
  8
E15LXLIFT
 62
5
 10
-72.265
 20
-1528.655
 30
3737.000
 70
    32
  0
VERTEX
  8
E15LXLIFT
 62
5
 10
-69.257
 20
-1521.102
 30
3737.000
 70
    32
  0
VERTEX
  8
E15LXLIFT
 62
5
 10
-62.524
 20
-1513.391
 30
3737.000
 70
    32
  0
VERTEX
  8
E15LXLIFT
 62
5
 10
-59.453
 20
-1505.936
 30
3737.000
 70
    32
  0
VERTEX
  8
E15LXLIFT
 62
5
 10
-65.039
 20
-1502.397
 30
3737.000
 70
    32
  0
VERTEX
  8
E15LXLIFT
 62
5
 10
-72.262
 20
-1496.129
 30
3737.000
 70
    32
  0
VERTEX
  8
E15LXLIFT
 62
5
 10
-73.170
 20
-1495.325
 30
3737.000
 70
    32
  0
VERTEX
  8
E15LXLIFT
 62
5
 10
-74.037
 20
-1486.798
 30
3737.000
 70
    32
  0
VERTEX
  8
E15LXLIFT
 62
5
 10
-82.661
 20
-1483.229
 30
3737.000
 70
    32
  0
VERTEX
  8
E15LXLIFT
 62
5
 10
-83.745
 20
-1475.156
 30
3737.000
 70
    32
  0
VERTEX
  8
E15LXLIFT
 62
5
 10
-86.891
 20
-1468.999
 30
3737.000
 70
    32
  0
SEQEND
  8
E15LXLIFT
  0
POLYLINE
  8
E15LXLIFT
 62
5
 66
     1
 70
     9
  0
VERTEX
  8
E15LXLIFT
 62
5
 10
-774.043
 20
-202.920
 30
3704.000
 70
    32
  0
VERTEX
  8
E15LXLIFT
 62
5
 10
-731.723
 20
-175.520
 30
3704.000
 70
    32
  0
VERTEX
  8
E15LXLIFT
 62
5
 10
-723.378
 20
-174.329
 30
3704.000
 70
    32
  0
VERTEX
  8
E15LXLIFT
 62
5
 10
-720.398
 20
-176.116
 30
3704.000
 70
    32
  0
VERTEX
  8
E15LXLIFT
 62
5
 10
-720.398
 20
-180.881
 30
3704.000
 70
    32
  0
VERTEX
  8
E15LXLIFT
 62
5
 10
-719.206
 20
-184.455
 30
3704.000
 70
    32
  0
VERTEX
  8
E15LXLIFT
 62
5
 10
-722.782
 20
-190.412
 30
3704.000
 70
    32
  0
VERTEX
  8
E15LXLIFT
 62
5
 10
-716.225
 20
-201.133
 30
3704.000
 70
    32
  0
VERTEX
  8
E15LXLIFT
 62
5
 10
-714.437
 20
-209.473
 30
3704.000
 70
    32
  0
VERTEX
  8
E15LXLIFT
 62
5
 10
-700.728
 20
-210.068
 30
3704.000
 70
    32
  0
VERTEX
  8
E15LXLIFT
 62
5
 10
-698.940
 20
-218.408
 30
3704.000
 70
    32
  0
VERTEX
  8
E15LXLIFT
 62
5
 10
-684.038
 20
-216.621
 30
3704.000
 70
    32
  0
VERTEX
  8
E15LXLIFT
 62
5
 10
-682.250
 20
-178.498
 30
3704.000
 70
    32
  0
VERTEX
  8
E15LXLIFT
 62
5
 10
-682.846
 20
-136.802
 30
3704.000
 70
    32
  0
VERTEX
  8
E15LXLIFT
 62
5
 10
-675.693
 20
-107.019
 30
3704.000
 70
    32
  0
VERTEX
  8
E15LXLIFT
 62
5
 10
-678.077
 20
-67.706
 30
3704.000
 70
    32
  0
VERTEX
  8
E15LXLIFT
 62
5
 10
-685.230
 20
-51.027
 30
3704.000
 70
    32
  0
VERTEX
  8
E15LXLIFT
 62
5
 10
-704.304
 20
-50.431
 30
3704.000
 70
    32
  0
VERTEX
  8
E15LXLIFT
 62
5
 10
-687.018
 20
-98.084
 30
3704.000
 70
    32
  0
VERTEX
  8
E15LXLIFT
 62
5
 10
-689.999
 20
-112.976
 30
3704.000
 70
    32
  0
VERTEX
  8
E15LXLIFT
 62
5
 10
-705.496
 20
-116.550
 30
3704.000
 70
    32
  0
VERTEX
  8
E15LXLIFT
 62
5
 10
-708.477
 20
-127.272
 30
3704.000
 70
    32
  0
VERTEX
  8
E15LXLIFT
 62
5
 10
-726.955
 20
-142.163
 30
3704.000
 70
    32
  0
VERTEX
  8
E15LXLIFT
 62
5
 10
-722.186
 20
-154.076
 30
3704.000
 70
    32
  0
VERTEX
  8
E15LXLIFT
 62
5
 10
-730.531
 20
-163.607
 30
3704.000
 70
    32
  0
VERTEX
  8
E15LXLIFT
 62
5
 10
-762.718
 20
-185.051
 30
3704.000
 70
    32
  0
VERTEX
  8
E15LXLIFT
 62
5
 10
-781.196
 20
-195.177
 30
3704.000
 70
    32
  0
SEQEND
  8
E15LXLIFT
  0
POLYLINE
  8
E15LXLIFT
 62
5
 66
     1
 70
     9
  0
VERTEX
  8
E15LXLIFT
 62
5
 10
-490.446
 20
-737.321
 30
3755.000
 70
    32
  0
VERTEX
  8
E15LXLIFT
 62
5
 10
-486.836
 20
-751.752
 30
3755.000
 70
    32
  0
VERTEX
  8
E15LXLIFT
 62
5
 10
-483.677
 20
-758.968
 30
3755.000
 70
    32
  0
VERTEX
  8
E15LXLIFT
 62
5
 10
-476.005
 20
-781.967
 30
3755.000
 70
    32
  0
VERTEX
  8
E15LXLIFT
 62
5
 10
-474.651
 20
-788.281
 30
3755.000
 70
    32
  0
VERTEX
  8
E15LXLIFT
 62
5
 10
-482.323
 20
-795.046
 30
3755.000
 70
    32
  0
VERTEX
  8
E15LXLIFT
 62
5
 10
-481.872
 20
-798.202
 30
3755.000
 70
    32
  0
VERTEX
  8
E15LXLIFT
 62
5
 10
-491.348
 20
-813.084
 30
3755.000
 70
    32
  0
VERTEX
  8
E15LXLIFT
 62
5
 10
-483.225
 20
-824.359
 30
3755.000
 70
    32
  0
VERTEX
  8
E15LXLIFT
 62
5
 10
-467.431
 20
-836.535
 30
3755.000
 70
    32
  0
VERTEX
  8
E15LXLIFT
 62
5
 10
-466.979
 20
-841.496
 30
3755.000
 70
    32
  0
VERTEX
  8
E15LXLIFT
 62
5
 10
-457.954
 20
-840.594
 30
3755.000
 70
    32
  0
VERTEX
  8
E15LXLIFT
 62
5
 10
-458.856
 20
-833.829
 30
3755.000
 70
    32
  0
VERTEX
  8
E15LXLIFT
 62
5
 10
-456.149
 20
-828.868
 30
3755.000
 70
    32
  0
VERTEX
  8
E15LXLIFT
 62
5
 10
-457.503
 20
-827.516
 30
3755.000
 70
    32
  0
VERTEX
  8
E15LXLIFT
 62
5
 10
-455.246
 20
-821.653
 30
3755.000
 70
    32
  0
VERTEX
  8
E15LXLIFT
 62
5
 10
-459.759
 20
-810.830
 30
3755.000
 70
    32
  0
VERTEX
  8
E15LXLIFT
 62
5
 10
-460.662
 20
-792.791
 30
3755.000
 70
    32
  0
VERTEX
  8
E15LXLIFT
 62
5
 10
-467.431
 20
-778.360
 30
3755.000
 70
    32
  0
VERTEX
  8
E15LXLIFT
 62
5
 10
-476.456
 20
-750.850
 30
3755.000
 70
    32
  0
VERTEX
  8
E15LXLIFT
 62
5
 10
-480.066
 20
-741.380
 30
3755.000
 70
    32
  0
VERTEX
  8
E15LXLIFT
 62
5
 10
-481.420
 20
-735.066
 30
3755.000
 70
    32
  0
SEQEND
  8
E15LXLIFT
  0
POLYLINE
  8
E15LXLIFT
 62
5
 66
     1
 70
     9
  0
VERTEX
  8
E15LXLIFT
 62
5
 10
-715.606
 20
-332.952
 30
3719.000
 70
    32
  0
VERTEX
  8
E15LXLIFT
 62
5
 10
-710.374
 20
-347.572
 30
3719.000
 70
    32
  0
VERTEX
  8
E15LXLIFT
 62
5
 10
-705.575
 20
-368.411
 30
3719.000
 70
    32
  0
VERTEX
  8
E15LXLIFT
 62
5
 10
-689.985
 20
-381.274
 30
3719.000
 70
    32
  0
VERTEX
  8
E15LXLIFT
 62
5
 10
-688.127
 20
-401.507
 30
3719.000
 70
    32
  0
VERTEX
  8
E15LXLIFT
 62
5
 10
-685.212
 20
-406.378
 30
3719.000
 70
    32
  0
VERTEX
  8
E15LXLIFT
 62
5
 10
-680.781
 20
-410.465
 30
3719.000
 70
    32
  0
VERTEX
  8
E15LXLIFT
 62
5
 10
-678.924
 20
-416.050
 30
3719.000
 70
    32
  0
VERTEX
  8
E15LXLIFT
 62
5
 10
-687.441
 20
-423.597
 30
3719.000
 70
    32
  0
VERTEX
  8
E15LXLIFT
 62
5
 10
-693.631
 20
-425.352
 30
3719.000
 70
    32
  0
VERTEX
  8
E15LXLIFT
 62
5
 10
-709.908
 20
-395.304
 30
3719.000
 70
    32
  0
VERTEX
  8
E15LXLIFT
 62
5
 10
-718.983
 20
-359.850
 30
3719.000
 70
    32
  0
VERTEX
  8
E15LXLIFT
 62
5
 10
-722.082
 20
-359.603
 30
3719.000
 70
    32
  0
VERTEX
  8
E15LXLIFT
 62
5
 10
-730.729
 20
-351.803
 30
3719.000
 70
    32
  0
SEQEND
  8
E15LXLIFT
  0
POLYLINE
  8
E15LXLIFT
 62
5
 66
     1
 70
     9
  0
VERTEX
  8
E15LXLIFT
 62
5
 10
-911.825
 20
-251.923
 30
3702.000
 70
    32
  0
VERTEX
  8
E15LXLIFT
 62
5
 10
-931.332
 20
-238.234
 30
3702.000
 70
    32
  0
VERTEX
  8
E15LXLIFT
 62
5
 10
-940.462
 20
-229.050
 30
3702.000
 70
    32
  0
VERTEX
  8
E15LXLIFT
 62
5
 10
-943.957
 20
-218.500
 30
3702.000
 70
    32
  0
VERTEX
  8
E15LXLIFT
 62
5
 10
-953.405
 20
-201.243
 30
3702.000
 70
    32
  0
VERTEX
  8
E15LXLIFT
 62
5
 10
-958.002
 20
-194.005
 30
3702.000
 70
    32
  0
VERTEX
  8
E15LXLIFT
 62
5
 10
-958.002
 20
-194.005
 30
3702.000
 70
    32
  0
VERTEX
  8
E15LXLIFT
 62
5
 10
-965.378
 20
-192.395
 30
3702.000
 70
    32
  0
VERTEX
  8
E15LXLIFT
 62
5
 10
-978.284
 20
-174.436
 30
3702.000
 70
    32
  0
VERTEX
  8
E15LXLIFT
 62
5
 10
-990.399
 20
-184.857
 30
3702.000
 70
    32
  0
VERTEX
  8
E15LXLIFT
 62
5
 10
-997.451
 20
-193.114
 30
3702.000
 70
    32
  0
VERTEX
  8
E15LXLIFT
 62
5
 10
-991.883
 20
-197.041
 30
3702.000
 70
    32
  0
VERTEX
  8
E15LXLIFT
 62
5
 10
-991.902
 20
-197.138
 30
3702.000
 70
    32
  0
VERTEX
  8
E15LXLIFT
 62
5
 10
-987.591
 20
-202.376
 30
3702.000
 70
    32
  0
VERTEX
  8
E15LXLIFT
 62
5
 10
-977.323
 20
-207.533
 30
3702.000
 70
    32
  0
VERTEX
  8
E15LXLIFT
 62
5
 10
-975.501
 20
-210.197
 30
3702.000
 70
    32
  0
VERTEX
  8
E15LXLIFT
 62
5
 10
-965.673
 20
-213.660
 30
3702.000
 70
    32
  0
VERTEX
  8
E15LXLIFT
 62
5
 10
-954.657
 20
-228.993
 30
3702.000
 70
    32
  0
VERTEX
  8
E15LXLIFT
 62
5
 10
-953.756
 20
-233.272
 30
3702.000
 70
    32
  0
VERTEX
  8
E15LXLIFT
 62
5
 10
-945.975
 20
-242.529
 30
3702.000
 70
    32
  0
VERTEX
  8
E15LXLIFT
 62
5
 10
-932.995
 20
-250.549
 30
3702.000
 70
    32
  0
VERTEX
  8
E15LXLIFT
 62
5
 10
-923.092
 20
-257.483
 30
3702.000
 70
    32
  0
VERTEX
  8
E15LXLIFT
 62
5
 10
-909.029
 20
-275.723
 30
3702.000
 70
    32
  0
VERTEX
  8
E15LXLIFT
 62
5
 10
-899.936
 20
-270.538
 30
3702.000
 70
    32
  0
VERTEX
  8
E15LXLIFT
 62
5
 10
-905.615
 20
-259.545
 30
3702.000
 70
    32
  0
SEQEND
  8
E15LXLIFT
  0
POLYLINE
  8
E15LXLIFT
 62
5
 66
     1
 70
     9
  0
VERTEX
  8
E15LXLIFT
 62
5
 10
-805.681
 20
-154.342
 30
3756.000
 70
    32
  0
VERTEX
  8
E15LXLIFT
 62
5
 10
-808.708
 20
-149.175
 30
3756.000
 70
    32
  0
VERTEX
  8
E15LXLIFT
 62
5
 10
-810.532
 20
-138.968
 30
3756.000
 70
    32
  0
VERTEX
  8
E15LXLIFT
 62
5
 10
-809.417
 20
-127.597
 30
3756.000
 70
    32
  0
VERTEX
  8
E15LXLIFT
 62
5
 10
-812.435
 20
-119.888
 30
3756.000
 70
    32
  0
VERTEX
  8
E15LXLIFT
 62
5
 10
-815.552
 20
-106.576
 30
3756.000
 70
    32
  0
VERTEX
  8
E15LXLIFT
 62
5
 10
-820.910
 20
-78.362
 30
3756.000
 70
    32
  0
VERTEX
  8
E15LXLIFT
 62
5
 10
-820.928
 20
-74.779
 30
3756.000
 70
    32
  0
VERTEX
  8
E15LXLIFT
 62
5
 10
-818.568
 20
-63.126
 30
3756.000
 70
    32
  0
VERTEX
  8
E15LXLIFT
 62
5
 10
-820.994
 20
-58.516
 30
3756.000
 70
    32
  0
VERTEX
  8
E15LXLIFT
 62
5
 10
-824.942
 20
-47.001
 30
3756.000
 70
    32
  0
VERTEX
  8
E15LXLIFT
 62
5
 10
-826.799
 20
-39.803
 30
3756.000
 70
    32
  0
VERTEX
  8
E15LXLIFT
 62
5
 10
-826.927
 20
-32.218
 30
3756.000
 70
    32
  0
VERTEX
  8
E15LXLIFT
 62
5
 10
-830.324
 20
-26.566
 30
3756.000
 70
    32
  0
VERTEX
  8
E15LXLIFT
 62
5
 10
-831.732
 20
-18.882
 30
3756.000
 70
    32
  0
VERTEX
  8
E15LXLIFT
 62
5
 10
-836.843
 20
-17.072
 30
3756.000
 70
    32
  0
VERTEX
  8
E15LXLIFT
 62
5
 10
-839.551
 20
-13.083
 30
3756.000
 70
    32
  0
VERTEX
  8
E15LXLIFT
 62
5
 10
-843.746
 20
0.358
 30
3756.000
 70
    32
  0
VERTEX
  8
E15LXLIFT
 62
5
 10
-844.507
 20
10.156
 30
3756.000
 70
    32
  0
VERTEX
  8
E15LXLIFT
 62
5
 10
-844.008
 20
14.314
 30
3756.000
 70
    32
  0
VERTEX
  8
E15LXLIFT
 62
5
 10
-850.002
 20
24.940
 30
3756.000
 70
    32
  0
VERTEX
  8
E15LXLIFT
 62
5
 10
-859.234
 20
21.096
 30
3756.000
 70
    32
  0
VERTEX
  8
E15LXLIFT
 62
5
 10
-858.007
 20
15.015
 30
3756.000
 70
    32
  0
VERTEX
  8
E15LXLIFT
 62
5
 10
-867.424
 20
3.499
 30
3756.000
 70
    32
  0
VERTEX
  8
E15LXLIFT
 62
5
 10
-860.936
 20
-11.811
 30
3756.000
 70
    32
  0
VERTEX
  8
E15LXLIFT
 62
5
 10
-853.404
 20
-14.369
 30
3756.000
 70
    32
  0
VERTEX
  8
E15LXLIFT
 62
5
 10
-847.711
 20
-23.930
 30
3756.000
 70
    32
  0
VERTEX
  8
E15LXLIFT
 62
5
 10
-841.549
 20
-38.552
 30
3756.000
 70
    32
  0
VERTEX
  8
E15LXLIFT
 62
5
 10
-837.728
 20
-49.457
 30
3756.000
 70
    32
  0
VERTEX
  8
E15LXLIFT
 62
5
 10
-832.243
 20
-69.247
 30
3756.000
 70
    32
  0
VERTEX
  8
E15LXLIFT
 62
5
 10
-830.602
 20
-77.710
 30
3756.000
 70
    32
  0
VERTEX
  8
E15LXLIFT
 62
5
 10
-826.632
 20
-108.565
 30
3756.000
 70
    32
  0
VERTEX
  8
E15LXLIFT
 62
5
 10
-819.562
 20
-128.477
 30
3756.000
 70
    32
  0
VERTEX
  8
E15LXLIFT
 62
5
 10
-819.571
 20
-136.391
 30
3756.000
 70
    32
  0
VERTEX
  8
E15LXLIFT
 62
5
 10
-827.421
 20
-143.263
 30
3756.000
 70
    32
  0
VERTEX
  8
E15LXLIFT
 62
5
 10
-822.368
 20
-151.513
 30
3756.000
 70
    32
  0
VERTEX
  8
E15LXLIFT
 62
5
 10
-813.367
 20
-162.640
 30
3756.000
 70
    32
  0
SEQEND
  8
E15LXLIFT
  0
POLYLINE
  8
E15LXLIFT
 62
5
 66
     1
 70
     9
  0
VERTEX
  8
E15LXLIFT
 62
5
 10
-50.952
 20
-1431.594
 30
3717.000
 70
    32
  0
VERTEX
  8
E15LXLIFT
 62
5
 10
-78.231
 20
-1429.731
 30
3717.000
 70
    32
  0
VERTEX
  8
E15LXLIFT
 62
5
 10
-93.130
 20
-1427.611
 30
3717.000
 70
    32
  0
VERTEX
  8
E15LXLIFT
 62
5
 10
-100.641
 20
-1412.658
 30
3717.000
 70
    32
  0
VERTEX
  8
E15LXLIFT
 62
5
 10
-134.641
 20
-1430.058
 30
3717.000
 70
    32
  0
VERTEX
  8
E15LXLIFT
 62
5
 10
-126.471
 20
-1429.867
 30
3717.000
 70
    32
  0
VERTEX
  8
E15LXLIFT
 62
5
 10
-116.338
 20
-1434.908
 30
3717.000
 70
    32
  0
VERTEX
  8
E15LXLIFT
 62
5
 10
-107.040
 20
-1453.412
 30
3717.000
 70
    32
  0
VERTEX
  8
E15LXLIFT
 62
5
 10
-101.585
 20
-1457.596
 30
3717.000
 70
    32
  0
VERTEX
  8
E15LXLIFT
 62
5
 10
-95.745
 20
-1476.949
 30
3717.000
 70
    32
  0
VERTEX
  8
E15LXLIFT
 62
5
 10
-93.869
 20
-1489.983
 30
3717.000
 70
    32
  0
VERTEX
  8
E15LXLIFT
 62
5
 10
-87.178
 20
-1513.615
 30
3717.000
 70
    32
  0
VERTEX
  8
E15LXLIFT
 62
5
 10
-82.290
 20
-1530.750
 30
3717.000
 70
    32
  0
VERTEX
  8
E15LXLIFT
 62
5
 10
-71.972
 20
-1535.123
 30
3717.000
 70
    32
  0
VERTEX
  8
E15LXLIFT
 62
5
 10
-69.881
 20
-1539.752
 30
3717.000
 70
    32
  0
VERTEX
  8
E15LXLIFT
 62
5
 10
-56.744
 20
-1534.421
 30
3717.000
 70
    32
  0
VERTEX
  8
E15LXLIFT
 62
5
 10
-49.675
 20
-1528.071
 30
3717.000
 70
    32
  0
VERTEX
  8
E15LXLIFT
 62
5
 10
-53.837
 20
-1523.242
 30
3717.000
 70
    32
  0
VERTEX
  8
E15LXLIFT
 62
5
 10
-52.200
 20
-1518.481
 30
3717.000
 70
    32
  0
VERTEX
  8
E15LXLIFT
 62
5
 10
-60.156
 20
-1512.118
 30
3717.000
 70
    32
  0
VERTEX
  8
E15LXLIFT
 62
5
 10
-74.535
 20
-1500.279
 30
3717.000
 70
    32
  0
VERTEX
  8
E15LXLIFT
 62
5
 10
-80.733
 20
-1495.153
 30
3717.000
 70
    32
  0
VERTEX
  8
E15LXLIFT
 62
5
 10
-85.555
 20
-1479.523
 30
3717.000
 70
    32
  0
VERTEX
  8
E15LXLIFT
 62
5
 10
-82.426
 20
-1474.505
 30
3717.000
 70
    32
  0
VERTEX
  8
E15LXLIFT
 62
5
 10
-85.176
 20
-1469.082
 30
3717.000
 70
    32
  0
VERTEX
  8
E15LXLIFT
 62
5
 10
-83.379
 20
-1461.177
 30
3717.000
 70
    32
  0
VERTEX
  8
E15LXLIFT
 62
5
 10
-88.925
 20
-1456.659
 30
3717.000
 70
    32
  0
VERTEX
  8
E15LXLIFT
 62
5
 10
-93.104
 20
-1447.997
 30
3717.000
 70
    32
  0
VERTEX
  8
E15LXLIFT
 62
5
 10
-82.396
 20
-1439.756
 30
3717.000
 70
    32
  0
VERTEX
  8
E15LXLIFT
 62
5
 10
-63.616
 20
-1442.490
 30
3717.000
 70
    32
  0
VERTEX
  8
E15LXLIFT
 62
5
 10
-51.613
 20
-1443.118
 30
3717.000
 70
    32
  0
VERTEX
  8
E15LXLIFT
 62
5
 10
-41.415
 20
-1455.302
 30
3717.000
 70
    32
  0
VERTEX
  8
E15LXLIFT
 62
5
 10
-33.607
 20
-1476.095
 30
3717.000
 70
    32
  0
VERTEX
  8
E15LXLIFT
 62
5
 10
-32.233
 20
-1480.390
 30
3717.000
 70
    32
  0
VERTEX
  8
E15LXLIFT
 62
5
 10
-31.771
 20
-1490.930
 30
3717.000
 70
    32
  0
VERTEX
  8
E15LXLIFT
 62
5
 10
-18.293
 20
-1489.257
 30
3717.000
 70
    32
  0
VERTEX
  8
E15LXLIFT
 62
5
 10
-10.252
 20
-1480.630
 30
3717.000
 70
    32
  0
VERTEX
  8
E15LXLIFT
 62
5
 10
-16.449
 20
-1466.764
 30
3717.000
 70
    32
  0
VERTEX
  8
E15LXLIFT
 62
5
 10
-10.722
 20
-1457.140
 30
3717.000
 70
    32
  0
VERTEX
  8
E15LXLIFT
 62
5
 10
-15.033
 20
-1453.471
 30
3717.000
 70
    32
  0
VERTEX
  8
E15LXLIFT
 62
5
 10
-9.630
 20
-1446.455
 30
3717.000
 70
    32
  0
VERTEX
  8
E15LXLIFT
 62
5
 10
-16.041
 20
-1438.439
 30
3717.000
 70
    32
  0
VERTEX
  8
E15LXLIFT
 62
5
 10
-34.391
 20
-1427.377
 30
3717.000
 70
    32
  0
VERTEX
  8
E15LXLIFT
 62
5
 10
-37.763
 20
-1416.570
 30
3717.000
 70
    32
  0
VERTEX
  8
E15LXLIFT
 62
5
 10
-43.451
 20
-1404.820
 30
3717.000
 70
    32
  0
VERTEX
  8
E15LXLIFT
 62
5
 10
-51.199
 20
-1386.120
 30
3717.000
 70
    32
  0
VERTEX
  8
E15LXLIFT
 62
5
 10
-59.703
 20
-1389.978
 30
3717.000
 70
    32
  0
VERTEX
  8
E15LXLIFT
 62
5
 10
-63.862
 20
-1395.042
 30
3717.000
 70
    32
  0
VERTEX
  8
E15LXLIFT
 62
5
 10
-58.348
 20
-1411.675
 30
3717.000
 70
    32
  0
VERTEX
  8
E15LXLIFT
 62
5
 10
-56.526
 20
-1418.712
 30
3717.000
 70
    32
  0
SEQEND
  8
E15LXLIFT
  0
POLYLINE
  8
E15LXLIFT
 62
6
 66
     1
 70
     9
  0
VERTEX
  8
E15LXLIFT
 62
6
 10
-773.894
 20
-253.926
 30
3683.000
 70
    32
  0
VERTEX
  8
E15LXLIFT
 62
6
 10
-768.527
 20
-242.506
 30
3683.000
 70
    32
  0
VERTEX
  8
E15LXLIFT
 62
6
 10
-778.078
 20
-225.604
 30
3683.000
 70
    32
  0
VERTEX
  8
E15LXLIFT
 62
6
 10
-768.774
 20
-221.010
 30
3683.000
 70
    32
  0
VERTEX
  8
E15LXLIFT
 62
6
 10
-761.276
 20
-231.977
 30
3683.000
 70
    32
  0
VERTEX
  8
E15LXLIFT
 62
6
 10
-753.090
 20
-244.295
 30
3683.000
 70
    32
  0
VERTEX
  8
E15LXLIFT
 62
6
 10
-744.862
 20
-259.443
 30
3683.000
 70
    32
  0
VERTEX
  8
E15LXLIFT
 62
6
 10
-738.377
 20
-273.154
 30
3683.000
 70
    32
  0
VERTEX
  8
E15LXLIFT
 62
6
 10
-728.491
 20
-276.487
 30
3683.000
 70
    32
  0
VERTEX
  8
E15LXLIFT
 62
6
 10
-714.806
 20
-280.478
 30
3683.000
 70
    32
  0
VERTEX
  8
E15LXLIFT
 62
6
 10
-724.604
 20
-291.277
 30
3683.000
 70
    32
  0
VERTEX
  8
E15LXLIFT
 62
6
 10
-732.880
 20
-285.409
 30
3683.000
 70
    32
  0
VERTEX
  8
E15LXLIFT
 62
6
 10
-748.689
 20
-275.096
 30
3683.000
 70
    32
  0
VERTEX
  8
E15LXLIFT
 62
6
 10
-766.661
 20
-264.542
 30
3683.000
 70
    32
  0
SEQEND
  8
E15LXLIFT
  0
POLYLINE
  8
E15LXLIFT
 62
13
 66
     1
 70
     9
  0
VERTEX
  8
E15LXLIFT
 62
13
 10
-874.331
 20
-442.457
 30
3669.000
 70
    32
  0
VERTEX
  8
E15LXLIFT
 62
13
 10
-870.922
 20
-435.154
 30
3669.000
 70
    32
  0
VERTEX
  8
E15LXLIFT
 62
13
 10
-872.967
 20
-425.580
 30
3669.000
 70
    32
  0
VERTEX
  8
E15LXLIFT
 62
13
 10
-871.135
 20
-420.127
 30
3669.000
 70
    32
  0
VERTEX
  8
E15LXLIFT
 62
13
 10
-864.586
 20
-417.281
 30
3669.000
 70
    32
  0
VERTEX
  8
E15LXLIFT
 62
13
 10
-864.601
 20
-411.129
 30
3669.000
 70
    32
  0
VERTEX
  8
E15LXLIFT
 62
13
 10
-865.700
 20
-400.621
 30
3669.000
 70
    32
  0
VERTEX
  8
E15LXLIFT
 62
13
 10
-873.275
 20
-393.785
 30
3669.000
 70
    32
  0
VERTEX
  8
E15LXLIFT
 62
13
 10
-884.149
 20
-388.996
 30
3669.000
 70
    32
  0
VERTEX
  8
E15LXLIFT
 62
13
 10
-881.965
 20
-383.718
 30
3669.000
 70
    32
  0
VERTEX
  8
E15LXLIFT
 62
13
 10
-879.260
 20
-376.065
 30
3669.000
 70
    32
  0
VERTEX
  8
E15LXLIFT
 62
13
 10
-885.681
 20
-373.533
 30
3669.000
 70
    32
  0
VERTEX
  8
E15LXLIFT
 62
13
 10
-894.305
 20
-369.248
 30
3669.000
 70
    32
  0
VERTEX
  8
E15LXLIFT
 62
13
 10
-888.713
 20
-362.942
 30
3669.000
 70
    32
  0
VERTEX
  8
E15LXLIFT
 62
13
 10
-883.525
 20
-357.269
 30
3669.000
 70
    32
  0
VERTEX
  8
E15LXLIFT
 62
13
 10
-884.293
 20
-352.455
 30
3669.000
 70
    32
  0
VERTEX
  8
E15LXLIFT
 62
13
 10
-874.027
 20
-345.926
 30
3669.000
 70
    32
  0
VERTEX
  8
E15LXLIFT
 62
13
 10
-867.973
 20
-356.000
 30
3669.000
 70
    32
  0
VERTEX
  8
E15LXLIFT
 62
13
 10
-861.174
 20
-368.814
 30
3669.000
 70
    32
  0
VERTEX
  8
E15LXLIFT
 62
13
 10
-847.238
 20
-367.883
 30
3669.000
 70
    32
  0
VERTEX
  8
E15LXLIFT
 62
13
 10
-847.676
 20
-382.630
 30
3669.000
 70
    32
  0
VERTEX
  8
E15LXLIFT
 62
13
 10
-843.942
 20
-392.692
 30
3669.000
 70
    32
  0
VERTEX
  8
E15LXLIFT
 62
13
 10
-837.972
 20
-404.260
 30
3669.000
 70
    32
  0
VERTEX
  8
E15LXLIFT
 62
13
 10
-840.840
 20
-417.098
 30
3669.000
 70
    32
  0
VERTEX
  8
E15LXLIFT
 62
13
 10
-845.861
 20
-426.497
 30
3669.000
 70
    32
  0
VERTEX
  8
E15LXLIFT
 62
13
 10
-852.515
 20
-436.796
 30
3669.000
 70
    32
  0
VERTEX
  8
E15LXLIFT
 62
13
 10
-855.920
 20
-445.856
 30
3669.000
 70
    32
  0
VERTEX
  8
E15LXLIFT
 62
13
 10
-854.029
 20
-456.977
 30
3669.000
 70
    32
  0
VERTEX
  8
E15LXLIFT
 62
13
 10
-853.732
 20
-470.071
 30
3669.000
 70
    32
  0
SEQEND
  8
E15LXLIFT
  0
POLYLINE
  8
E15LXLIFT
 62
6
 66
     1
 70
     9
  0
VERTEX
  8
E15LXLIFT
 62
6
 10
-824.023
 20
-21.303
 30
3682.000
 70
    32
  0
VERTEX
  8
E15LXLIFT
 62
6
 10
-814.552
 20
-20.436
 30
3682.000
 70
    32
  0
VERTEX
  8
E15LXLIFT
 62
6
 10
-809.172
 20
-13.849
 30
3682.000
 70
    32
  0
VERTEX
  8
E15LXLIFT
 62
6
 10
-808.469
 20
-6.605
 30
3682.000
 70
    32
  0
VERTEX
  8
E15LXLIFT
 62
6
 10
-812.635
 20
0.380
 30
3682.000
 70
    32
  0
VERTEX
  8
E15LXLIFT
 62
6
 10
-810.602
 20
9.946
 30
3682.000
 70
    32
  0
VERTEX
  8
E15LXLIFT
 62
6
 10
-813.506
 20
18.323
 30
3682.000
 70
    32
  0
VERTEX
  8
E15LXLIFT
 62
6
 10
-808.178
 20
31.695
 30
3682.000
 70
    32
  0
VERTEX
  8
E15LXLIFT
 62
6
 10
-803.535
 20
37.507
 30
3682.000
 70
    32
  0
VERTEX
  8
E15LXLIFT
 62
6
 10
-803.518
 20
44.783
 30
3682.000
 70
    32
  0
VERTEX
  8
E15LXLIFT
 62
6
 10
-807.039
 20
54.125
 30
3682.000
 70
    32
  0
VERTEX
  8
E15LXLIFT
 62
6
 10
-810.554
 20
60.831
 30
3682.000
 70
    32
  0
VERTEX
  8
E15LXLIFT
 62
6
 10
-818.066
 20
63.642
 30
3682.000
 70
    32
  0
VERTEX
  8
E15LXLIFT
 62
6
 10
-819.764
 20
53.777
 30
3682.000
 70
    32
  0
VERTEX
  8
E15LXLIFT
 62
6
 10
-823.005
 20
49.463
 30
3682.000
 70
    32
  0
VERTEX
  8
E15LXLIFT
 62
6
 10
-829.963
 20
48.619
 30
3682.000
 70
    32
  0
VERTEX
  8
E15LXLIFT
 62
6
 10
-837.589
 20
40.779
 30
3682.000
 70
    32
  0
VERTEX
  8
E15LXLIFT
 62
6
 10
-836.214
 20
32.240
 30
3682.000
 70
    32
  0
VERTEX
  8
E15LXLIFT
 62
6
 10
-836.937
 20
26.192
 30
3682.000
 70
    32
  0
VERTEX
  8
E15LXLIFT
 62
6
 10
-840.880
 20
21.348
 30
3682.000
 70
    32
  0
VERTEX
  8
E15LXLIFT
 62
6
 10
-838.857
 20
13.409
 30
3682.000
 70
    32
  0
VERTEX
  8
E15LXLIFT
 62
6
 10
-836.854
 20
6.664
 30
3682.000
 70
    32
  0
VERTEX
  8
E15LXLIFT
 62
6
 10
-837.925
 20
-0.527
 30
3682.000
 70
    32
  0
VERTEX
  8
E15LXLIFT
 62
6
 10
-835.359
 20
-7.727
 30
3682.000
 70
    32
  0
VERTEX
  8
E15LXLIFT
 62
6
 10
-833.618
 20
-14.999
 30
3682.000
 70
    32
  0
VERTEX
  8
E15LXLIFT
 62
6
 10
-837.879
 20
-18.982
 30
3682.000
 70
    32
  0
SEQEND
  8
E15LXLIFT
  0
POLYLINE
  8
E15LXLIFT
 62
8
 66
     1
 70
     9
  0
VERTEX
  8
E15LXLIFT
 62
8
 10
-1612.683
 20
-35.206
 30
3683.000
 70
    32
  0
VERTEX
  8
E15LXLIFT
 62
8
 10
-1619.024
 20
-29.861
 30
3683.000
 70
    32
  0
VERTEX
  8
E15LXLIFT
 62
8
 10
-1622.976
 20
-24.035
 30
3683.000
 70
    32
  0
VERTEX
  8
E15LXLIFT
 62
8
 10
-1628.731
 20
-20.780
 30
3683.000
 70
    32
  0
VERTEX
  8
E15LXLIFT
 62
8
 10
-1637.693
 20
-14.879
 30
3683.000
 70
    32
  0
VERTEX
  8
E15LXLIFT
 62
8
 10
-1646.746
 20
-7.397
 30
3683.000
 70
    32
  0
VERTEX
  8
E15LXLIFT
 62
8
 10
-1644.594
 20
-3.243
 30
3683.000
 70
    32
  0
VERTEX
  8
E15LXLIFT
 62
8
 10
-1641.145
 20
2.108
 30
3683.000
 70
    32
  0
VERTEX
  8
E15LXLIFT
 62
8
 10
-1635.520
 20
1.947
 30
3683.000
 70
    32
  0
VERTEX
  8
E15LXLIFT
 62
8
 10
-1630.443
 20
2.803
 30
3683.000
 70
    32
  0
VERTEX
  8
E15LXLIFT
 62
8
 10
-1623.608
 20
-3.050
 30
3683.000
 70
    32
  0
VERTEX
  8
E15LXLIFT
 62
8
 10
-1613.630
 20
-7.965
 30
3683.000
 70
    32
  0
VERTEX
  8
E15LXLIFT
 62
8
 10
-1606.174
 20
-9.387
 30
3683.000
 70
    32
  0
VERTEX
  8
E15LXLIFT
 62
8
 10
-1601.298
 20
-5.491
 30
3683.000
 70
    32
  0
VERTEX
  8
E15LXLIFT
 62
8
 10
-1599.311
 20
-5.644
 30
3683.000
 70
    32
  0
VERTEX
  8
E15LXLIFT
 62
8
 10
-1594.028
 20
-2.432
 30
3683.000
 70
    32
  0
VERTEX
  8
E15LXLIFT
 62
8
 10
-1586.495
 20
0.276
 30
3683.000
 70
    32
  0
VERTEX
  8
E15LXLIFT
 62
8
 10
-1581.169
 20
-6.934
 30
3683.000
 70
    32
  0
VERTEX
  8
E15LXLIFT
 62
8
 10
-1576.246
 20
-14.339
 30
3683.000
 70
    32
  0
VERTEX
  8
E15LXLIFT
 62
8
 10
-1571.362
 20
-20.672
 30
3683.000
 70
    32
  0
VERTEX
  8
E15LXLIFT
 62
8
 10
-1575.956
 20
-25.236
 30
3683.000
 70
    32
  0
VERTEX
  8
E15LXLIFT
 62
8
 10
-1581.887
 20
-29.047
 30
3683.000
 70
    32
  0
VERTEX
  8
E15LXLIFT
 62
8
 10
-1580.659
 20
-35.056
 30
3683.000
 70
    32
  0
VERTEX
  8
E15LXLIFT
 62
8
 10
-1577.496
 20
-42.026
 30
3683.000
 70
    32
  0
VERTEX
  8
E15LXLIFT
 62
8
 10
-1580.539
 20
-48.062
 30
3683.000
 70
    32
  0
VERTEX
  8
E15LXLIFT
 62
8
 10
-1581.731
 20
-56.115
 30
3683.000
 70
    32
  0
VERTEX
  8
E15LXLIFT
 62
8
 10
-1585.498
 20
-61.046
 30
3683.000
 70
    32
  0
VERTEX
  8
E15LXLIFT
 62
8
 10
-1590.425
 20
-65.751
 30
3683.000
 70
    32
  0
VERTEX
  8
E15LXLIFT
 62
8
 10
-1597.534
 20
-69.899
 30
3683.000
 70
    32
  0
VERTEX
  8
E15LXLIFT
 62
8
 10
-1603.733
 20
-72.042
 30
3683.000
 70
    32
  0
VERTEX
  8
E15LXLIFT
 62
8
 10
-1606.636
 20
-63.665
 30
3683.000
 70
    32
  0
VERTEX
  8
E15LXLIFT
 62
8
 10
-1607.867
 20
-56.338
 30
3683.000
 70
    32
  0
VERTEX
  8
E15LXLIFT
 62
8
 10
-1607.550
 20
-49.606
 30
3683.000
 70
    32
  0
VERTEX
  8
E15LXLIFT
 62
8
 10
-1611.267
 20
-46.135
 30
3683.000
 70
    32
  0
SEQEND
  8
E15LXLIFT
  0
POLYLINE
  8
E15LXLIFT
 62
2
 66
     1
 70
     9
  0
VERTEX
  8
E15LXLIFT
 62
2
 10
-723.478
 20
-175.484
 30
3701.000
 70
    32
  0
VERTEX
  8
E15LXLIFT
 62
2
 10
-721.289
 20
-181.062
 30
3701.000
 70
    32
  0
VERTEX
  8
E15LXLIFT
 62
2
 10
-719.433
 20
-185.580
 30
3701.000
 70
    32
  0
VERTEX
  8
E15LXLIFT
 62
2
 10
-724.615
 20
-189.218
 30
3701.000
 70
    32
  0
VERTEX
  8
E15LXLIFT
 62
2
 10
-720.350
 20
-196.768
 30
3701.000
 70
    32
  0
VERTEX
  8
E15LXLIFT
 62
2
 10
-715.954
 20
-203.897
 30
3701.000
 70
    32
  0
VERTEX
  8
E15LXLIFT
 62
2
 10
-713.147
 20
-208.378
 30
3701.000
 70
    32
  0
VERTEX
  8
E15LXLIFT
 62
2
 10
-706.165
 20
-210.382
 30
3701.000
 70
    32
  0
VERTEX
  8
E15LXLIFT
 62
2
 10
-700.896
 20
-212.866
 30
3701.000
 70
    32
  0
VERTEX
  8
E15LXLIFT
 62
2
 10
-699.504
 20
-216.742
 30
3701.000
 70
    32
  0
VERTEX
  8
E15LXLIFT
 62
2
 10
-691.762
 20
-217.546
 30
3701.000
 70
    32
  0
VERTEX
  8
E15LXLIFT
 62
2
 10
-685.806
 20
-216.928
 30
3701.000
 70
    32
  0
VERTEX
  8
E15LXLIFT
 62
2
 10
-685.746
 20
-204.407
 30
3701.000
 70
    32
  0
VERTEX
  8
E15LXLIFT
 62
2
 10
-684.603
 20
-195.333
 30
3701.000
 70
    32
  0
VERTEX
  8
E15LXLIFT
 62
2
 10
-686.193
 20
-190.733
 30
3701.000
 70
    32
  0
VERTEX
  8
E15LXLIFT
 62
2
 10
-683.612
 20
-182.898
 30
3701.000
 70
    32
  0
VERTEX
  8
E15LXLIFT
 62
2
 10
-684.817
 20
-167.276
 30
3701.000
 70
    32
  0
VERTEX
  8
E15LXLIFT
 62
2
 10
-681.549
 20
-154.388
 30
3701.000
 70
    32
  0
VERTEX
  8
E15LXLIFT
 62
2
 10
-682.228
 20
-137.844
 30
3701.000
 70
    32
  0
VERTEX
  8
E15LXLIFT
 62
2
 10
-677.995
 20
-122.088
 30
3701.000
 70
    32
  0
VERTEX
  8
E15LXLIFT
 62
2
 10
-675.221
 20
-105.216
 30
3701.000
 70
    32
  0
VERTEX
  8
E15LXLIFT
 62
2
 10
-676.886
 20
-87.757
 30
3701.000
 70
    32
  0
VERTEX
  8
E15LXLIFT
 62
2
 10
-678.526
 20
-72.884
 30
3701.000
 70
    32
  0
VERTEX
  8
E15LXLIFT
 62
2
 10
-682.451
 20
-58.903
 30
3701.000
 70
    32
  0
VERTEX
  8
E15LXLIFT
 62
2
 10
-684.681
 20
-51.618
 30
3701.000
 70
    32
  0
VERTEX
  8
E15LXLIFT
 62
2
 10
-696.007
 20
-51.561
 30
3701.000
 70
    32
  0
VERTEX
  8
E15LXLIFT
 62
2
 10
-704.505
 20
-50.762
 30
3701.000
 70
    32
  0
VERTEX
  8
E15LXLIFT
 62
2
 10
-699.103
 20
-65.736
 30
3701.000
 70
    32
  0
VERTEX
  8
E15LXLIFT
 62
2
 10
-694.333
 20
-82.686
 30
3701.000
 70
    32
  0
VERTEX
  8
E15LXLIFT
 62
2
 10
-689.063
 20
-96.128
 30
3701.000
 70
    32
  0
VERTEX
  8
E15LXLIFT
 62
2
 10
-687.835
 20
-103.378
 30
3701.000
 70
    32
  0
VERTEX
  8
E15LXLIFT
 62
2
 10
-692.284
 20
-113.431
 30
3701.000
 70
    32
  0
VERTEX
  8
E15LXLIFT
 62
2
 10
-699.638
 20
-114.517
 30
3701.000
 70
    32
  0
VERTEX
  8
E15LXLIFT
 62
2
 10
-705.200
 20
-117.779
 30
3701.000
 70
    32
  0
VERTEX
  8
E15LXLIFT
 62
2
 10
-707.322
 20
-125.498
 30
3701.000
 70
    32
  0
VERTEX
  8
E15LXLIFT
 62
2
 10
-713.873
 20
-130.995
 30
3701.000
 70
    32
  0
VERTEX
  8
E15LXLIFT
 62
2
 10
-720.665
 20
-137.208
 30
3701.000
 70
    32
  0
VERTEX
  8
E15LXLIFT
 62
2
 10
-726.474
 20
-143.579
 30
3701.000
 70
    32
  0
VERTEX
  8
E15LXLIFT
 62
2
 10
-723.337
 20
-152.270
 30
3701.000
 70
    32
  0
VERTEX
  8
E15LXLIFT
 62
2
 10
-726.164
 20
-160.065
 30
3701.000
 70
    32
  0
SEQEND
  8
E15LXLIFT
  0
POLYLINE
  8
E15LXLIFT
 62
6
 66
     1
 70
     9
  0
VERTEX
  8
E15LXLIFT
 62
6
 10
-741.992
 20
-278.932
 30
3713.000
 70
    32
  0
VERTEX
  8
E15LXLIFT
 62
6
 10
-740.131
 20
-286.158
 30
3713.000
 70
    32
  0
VERTEX
  8
E15LXLIFT
 62
6
 10
-739.367
 20
-292.767
 30
3713.000
 70
    32
  0
VERTEX
  8
E15LXLIFT
 62
6
 10
-734.468
 20
-300.292
 30
3713.000
 70
    32
  0
VERTEX
  8
E15LXLIFT
 62
6
 10
-733.559
 20
-303.650
 30
3713.000
 70
    32
  0
VERTEX
  8
E15LXLIFT
 62
6
 10
-739.243
 20
-308.845
 30
3713.000
 70
    32
  0
VERTEX
  8
E15LXLIFT
 62
6
 10
-744.440
 20
-313.362
 30
3713.000
 70
    32
  0
VERTEX
  8
E15LXLIFT
 62
6
 10
-753.822
 20
-311.791
 30
3713.000
 70
    32
  0
VERTEX
  8
E15LXLIFT
 62
6
 10
-759.636
 20
-310.353
 30
3713.000
 70
    32
  0
VERTEX
  8
E15LXLIFT
 62
6
 10
-765.518
 20
-314.824
 30
3713.000
 70
    32
  0
VERTEX
  8
E15LXLIFT
 62
6
 10
-770.876
 20
-314.466
 30
3713.000
 70
    32
  0
VERTEX
  8
E15LXLIFT
 62
6
 10
-775.434
 20
-307.562
 30
3713.000
 70
    32
  0
VERTEX
  8
E15LXLIFT
 62
6
 10
-769.069
 20
-303.611
 30
3713.000
 70
    32
  0
VERTEX
  8
E15LXLIFT
 62
6
 10
-762.260
 20
-298.470
 30
3713.000
 70
    32
  0
VERTEX
  8
E15LXLIFT
 62
6
 10
-760.855
 20
-290.510
 30
3713.000
 70
    32
  0
VERTEX
  8
E15LXLIFT
 62
6
 10
-763.700
 20
-281.174
 30
3713.000
 70
    32
  0
VERTEX
  8
E15LXLIFT
 62
6
 10
-768.231
 20
-273.708
 30
3713.000
 70
    32
  0
VERTEX
  8
E15LXLIFT
 62
6
 10
-779.270
 20
-268.344
 30
3713.000
 70
    32
  0
VERTEX
  8
E15LXLIFT
 62
6
 10
-788.207
 20
-264.389
 30
3713.000
 70
    32
  0
VERTEX
  8
E15LXLIFT
 62
6
 10
-789.446
 20
-256.822
 30
3713.000
 70
    32
  0
VERTEX
  8
E15LXLIFT
 62
6
 10
-793.529
 20
-250.876
 30
3713.000
 70
    32
  0
VERTEX
  8
E15LXLIFT
 62
6
 10
-787.512
 20
-246.742
 30
3713.000
 70
    32
  0
VERTEX
  8
E15LXLIFT
 62
6
 10
-778.412
 20
-252.424
 30
3713.000
 70
    32
  0
VERTEX
  8
E15LXLIFT
 62
6
 10
-774.386
 20
-257.542
 30
3713.000
 70
    32
  0
VERTEX
  8
E15LXLIFT
 62
6
 10
-769.487
 20
-258.014
 30
3713.000
 70
    32
  0
VERTEX
  8
E15LXLIFT
 62
6
 10
-764.875
 20
-261.841
 30
3713.000
 70
    32
  0
VERTEX
  8
E15LXLIFT
 62
6
 10
-758.222
 20
-261.588
 30
3713.000
 70
    32
  0
VERTEX
  8
E15LXLIFT
 62
6
 10
-753.514
 20
-267.949
 30
3713.000
 70
    32
  0
VERTEX
  8
E15LXLIFT
 62
6
 10
-749.652
 20
-269.388
 30
3713.000
 70
    32
  0
SEQEND
  8
E15LXLIFT
  0
POLYLINE
  8
E15LXLIFT
 62
8
 66
     1
 70
     9
  0
VERTEX
  8
E15LXLIFT
 62
8
 10
-679.148
 20
-225.925
 30
3721.000
 70
    32
  0
VERTEX
  8
E15LXLIFT
 62
8
 10
-679.414
 20
-233.992
 30
3721.000
 70
    32
  0
VERTEX
  8
E15LXLIFT
 62
8
 10
-675.885
 20
-242.313
 30
3721.000
 70
    32
  0
VERTEX
  8
E15LXLIFT
 62
8
 10
-672.493
 20
-252.814
 30
3721.000
 70
    32
  0
VERTEX
  8
E15LXLIFT
 62
8
 10
-670.026
 20
-267.387
 30
3721.000
 70
    32
  0
VERTEX
  8
E15LXLIFT
 62
8
 10
-664.296
 20
-275.284
 30
3721.000
 70
    32
  0
VERTEX
  8
E15LXLIFT
 62
8
 10
-658.477
 20
-280.492
 30
3721.000
 70
    32
  0
VERTEX
  8
E15LXLIFT
 62
8
 10
-658.836
 20
-289.174
 30
3721.000
 70
    32
  0
VERTEX
  8
E15LXLIFT
 62
8
 10
-654.033
 20
-299.069
 30
3721.000
 70
    32
  0
VERTEX
  8
E15LXLIFT
 62
8
 10
-649.846
 20
-306.358
 30
3721.000
 70
    32
  0
VERTEX
  8
E15LXLIFT
 62
8
 10
-641.298
 20
-315.997
 30
3721.000
 70
    32
  0
VERTEX
  8
E15LXLIFT
 62
8
 10
-637.442
 20
-328.013
 30
3721.000
 70
    32
  0
VERTEX
  8
E15LXLIFT
 62
8
 10
-636.113
 20
-339.273
 30
3721.000
 70
    32
  0
VERTEX
  8
E15LXLIFT
 62
8
 10
-633.148
 20
-350.526
 30
3721.000
 70
    32
  0
VERTEX
  8
E15LXLIFT
 62
8
 10
-630.651
 20
-360.704
 30
3721.000
 70
    32
  0
VERTEX
  8
E15LXLIFT
 62
8
 10
-633.846
 20
-370.281
 30
3721.000
 70
    32
  0
VERTEX
  8
E15LXLIFT
 62
8
 10
-637.079
 20
-383.057
 30
3721.000
 70
    32
  0
VERTEX
  8
E15LXLIFT
 62
8
 10
-636.484
 20
-393.767
 30
3721.000
 70
    32
  0
VERTEX
  8
E15LXLIFT
 62
8
 10
-630.238
 20
-403.250
 30
3721.000
 70
    32
  0
VERTEX
  8
E15LXLIFT
 62
8
 10
-630.567
 20
-418.032
 30
3721.000
 70
    32
  0
VERTEX
  8
E15LXLIFT
 62
8
 10
-625.884
 20
-435.011
 30
3721.000
 70
    32
  0
VERTEX
  8
E15LXLIFT
 62
8
 10
-616.337
 20
-442.600
 30
3721.000
 70
    32
  0
VERTEX
  8
E15LXLIFT
 62
8
 10
-607.730
 20
-456.459
 30
3721.000
 70
    32
  0
VERTEX
  8
E15LXLIFT
 62
8
 10
-597.271
 20
-477.257
 30
3721.000
 70
    32
  0
VERTEX
  8
E15LXLIFT
 62
8
 10
-594.750
 20
-481.405
 30
3721.000
 70
    32
  0
VERTEX
  8
E15LXLIFT
 62
8
 10
-586.909
 20
-491.567
 30
3721.000
 70
    32
  0
VERTEX
  8
E15LXLIFT
 62
8
 10
-576.083
 20
-504.878
 30
3721.000
 70
    32
  0
VERTEX
  8
E15LXLIFT
 62
8
 10
-569.513
 20
-515.980
 30
3721.000
 70
    32
  0
VERTEX
  8
E15LXLIFT
 62
8
 10
-565.618
 20
-527.311
 30
3721.000
 70
    32
  0
VERTEX
  8
E15LXLIFT
 62
8
 10
-561.156
 20
-540.737
 30
3721.000
 70
    32
  0
VERTEX
  8
E15LXLIFT
 62
8
 10
-553.216
 20
-554.433
 30
3721.000
 70
    32
  0
VERTEX
  8
E15LXLIFT
 62
8
 10
-549.478
 20
-560.523
 30
3721.000
 70
    32
  0
VERTEX
  8
E15LXLIFT
 62
8
 10
-559.775
 20
-567.590
 30
3721.000
 70
    32
  0
VERTEX
  8
E15LXLIFT
 62
8
 10
-565.034
 20
-560.329
 30
3721.000
 70
    32
  0
VERTEX
  8
E15LXLIFT
 62
8
 10
-573.613
 20
-552.571
 30
3721.000
 70
    32
  0
VERTEX
  8
E15LXLIFT
 62
8
 10
-579.678
 20
-544.812
 30
3721.000
 70
    32
  0
VERTEX
  8
E15LXLIFT
 62
8
 10
-584.311
 20
-530.857
 30
3721.000
 70
    32
  0
VERTEX
  8
E15LXLIFT
 62
8
 10
-591.075
 20
-517.275
 30
3721.000
 70
    32
  0
VERTEX
  8
E15LXLIFT
 62
8
 10
-602.466
 20
-504.382
 30
3721.000
 70
    32
  0
VERTEX
  8
E15LXLIFT
 62
8
 10
-611.402
 20
-494.810
 30
3721.000
 70
    32
  0
VERTEX
  8
E15LXLIFT
 62
8
 10
-615.730
 20
-487.626
 30
3721.000
 70
    32
  0
VERTEX
  8
E15LXLIFT
 62
8
 10
-614.954
 20
-479.509
 30
3721.000
 70
    32
  0
VERTEX
  8
E15LXLIFT
 62
8
 10
-614.936
 20
-479.386
 30
3721.000
 70
    32
  0
VERTEX
  8
E15LXLIFT
 62
8
 10
-621.714
 20
-470.515
 30
3721.000
 70
    32
  0
VERTEX
  8
E15LXLIFT
 62
8
 10
-630.581
 20
-461.331
 30
3721.000
 70
    32
  0
VERTEX
  8
E15LXLIFT
 62
8
 10
-638.896
 20
-450.972
 30
3721.000
 70
    32
  0
VERTEX
  8
E15LXLIFT
 62
8
 10
-644.060
 20
-445.171
 30
3721.000
 70
    32
  0
VERTEX
  8
E15LXLIFT
 62
8
 10
-644.910
 20
-435.742
 30
3721.000
 70
    32
  0
VERTEX
  8
E15LXLIFT
 62
8
 10
-647.517
 20
-428.816
 30
3721.000
 70
    32
  0
VERTEX
  8
E15LXLIFT
 62
8
 10
-652.454
 20
-420.660
 30
3721.000
 70
    32
  0
VERTEX
  8
E15LXLIFT
 62
8
 10
-653.667
 20
-412.812
 30
3721.000
 70
    32
  0
VERTEX
  8
E15LXLIFT
 62
8
 10
-650.035
 20
-406.191
 30
3721.000
 70
    32
  0
VERTEX
  8
E15LXLIFT
 62
8
 10
-650.359
 20
-397.030
 30
3721.000
 70
    32
  0
VERTEX
  8
E15LXLIFT
 62
8
 10
-655.730
 20
-385.479
 30
3721.000
 70
    32
  0
VERTEX
  8
E15LXLIFT
 62
8
 10
-654.850
 20
-374.990
 30
3721.000
 70
    32
  0
VERTEX
  8
E15LXLIFT
 62
8
 10
-660.780
 20
-347.455
 30
3721.000
 70
    32
  0
VERTEX
  8
E15LXLIFT
 62
8
 10
-667.085
 20
-336.266
 30
3721.000
 70
    32
  0
VERTEX
  8
E15LXLIFT
 62
8
 10
-675.105
 20
-326.455
 30
3721.000
 70
    32
  0
VERTEX
  8
E15LXLIFT
 62
8
 10
-681.131
 20
-312.983
 30
3721.000
 70
    32
  0
VERTEX
  8
E15LXLIFT
 62
8
 10
-687.546
 20
-302.532
 30
3721.000
 70
    32
  0
VERTEX
  8
E15LXLIFT
 62
8
 10
-695.385
 20
-291.931
 30
3721.000
 70
    32
  0
VERTEX
  8
E15LXLIFT
 62
8
 10
-703.589
 20
-280.835
 30
3721.000
 70
    32
  0
VERTEX
  8
E15LXLIFT
 62
8
 10
-710.976
 20
-268.479
 30
3721.000
 70
    32
  0
VERTEX
  8
E15LXLIFT
 62
8
 10
-714.531
 20
-256.131
 30
3721.000
 70
    32
  0
VERTEX
  8
E15LXLIFT
 62
8
 10
-722.418
 20
-247.534
 30
3721.000
 70
    32
  0
VERTEX
  8
E15LXLIFT
 62
8
 10
-729.267
 20
-238.715
 30
3721.000
 70
    32
  0
VERTEX
  8
E15LXLIFT
 62
8
 10
-725.482
 20
-232.746
 30
3721.000
 70
    32
  0
VERTEX
  8
E15LXLIFT
 62
8
 10
-719.082
 20
-224.843
 30
3721.000
 70
    32
  0
VERTEX
  8
E15LXLIFT
 62
8
 10
-712.337
 20
-220.512
 30
3721.000
 70
    32
  0
VERTEX
  8
E15LXLIFT
 62
8
 10
-703.194
 20
-220.311
 30
3721.000
 70
    32
  0
VERTEX
  8
E15LXLIFT
 62
8
 10
-693.747
 20
-221.852
 30
3721.000
 70
    32
  0
SEQEND
  8
E15LXLIFT
  0
POLYLINE
  8
E15LXLIFT
 62
1
 66
     1
 70
     9
  0
VERTEX
  8
E15LXLIFT
 62
1
 10
-678.148
 20
-224.925
 30
3732.000
 70
    32
  0
VERTEX
  8
E15LXLIFT
 62
1
 10
-678.414
 20
-232.992
 30
3732.000
 70
    32
  0
VERTEX
  8
E15LXLIFT
 62
1
 10
-674.885
 20
-241.313
 30
3732.000
 70
    32
  0
VERTEX
  8
E15LXLIFT
 62
1
 10
-671.493
 20
-251.814
 30
3732.000
 70
    32
  0
VERTEX
  8
E15LXLIFT
 62
1
 10
-669.026
 20
-266.387
 30
3732.000
 70
    32
  0
VERTEX
  8
E15LXLIFT
 62
1
 10
-663.296
 20
-274.284
 30
3732.000
 70
    32
  0
VERTEX
  8
E15LXLIFT
 62
1
 10
-657.477
 20
-279.492
 30
3732.000
 70
    32
  0
VERTEX
  8
E15LXLIFT
 62
1
 10
-657.836
 20
-288.174
 30
3732.000
 70
    32
  0
VERTEX
  8
E15LXLIFT
 62
1
 10
-653.033
 20
-298.069
 30
3732.000
 70
    32
  0
VERTEX
  8
E15LXLIFT
 62
1
 10
-648.846
 20
-305.358
 30
3732.000
 70
    32
  0
VERTEX
  8
E15LXLIFT
 62
1
 10
-640.298
 20
-314.997
 30
3732.000
 70
    32
  0
VERTEX
  8
E15LXLIFT
 62
1
 10
-636.442
 20
-327.013
 30
3732.000
 70
    32
  0
VERTEX
  8
E15LXLIFT
 62
1
 10
-635.113
 20
-338.273
 30
3732.000
 70
    32
  0
VERTEX
  8
E15LXLIFT
 62
1
 10
-632.148
 20
-349.526
 30
3732.000
 70
    32
  0
VERTEX
  8
E15LXLIFT
 62
1
 10
-629.651
 20
-359.704
 30
3732.000
 70
    32
  0
VERTEX
  8
E15LXLIFT
 62
1
 10
-632.846
 20
-369.281
 30
3732.000
 70
    32
  0
VERTEX
  8
E15LXLIFT
 62
1
 10
-636.079
 20
-382.057
 30
3732.000
 70
    32
  0
VERTEX
  8
E15LXLIFT
 62
1
 10
-635.484
 20
-392.767
 30
3732.000
 70
    32
  0
VERTEX
  8
E15LXLIFT
 62
1
 10
-629.238
 20
-402.250
 30
3732.000
 70
    32
  0
VERTEX
  8
E15LXLIFT
 62
1
 10
-629.567
 20
-417.032
 30
3732.000
 70
    32
  0
VERTEX
  8
E15LXLIFT
 62
1
 10
-624.884
 20
-434.011
 30
3732.000
 70
    32
  0
VERTEX
  8
E15LXLIFT
 62
1
 10
-615.337
 20
-441.600
 30
3732.000
 70
    32
  0
VERTEX
  8
E15LXLIFT
 62
1
 10
-606.730
 20
-455.459
 30
3732.000
 70
    32
  0
VERTEX
  8
E15LXLIFT
 62
1
 10
-596.271
 20
-476.257
 30
3732.000
 70
    32
  0
VERTEX
  8
E15LXLIFT
 62
1
 10
-593.750
 20
-480.405
 30
3732.000
 70
    32
  0
VERTEX
  8
E15LXLIFT
 62
1
 10
-585.909
 20
-490.567
 30
3732.000
 70
    32
  0
VERTEX
  8
E15LXLIFT
 62
1
 10
-575.083
 20
-503.878
 30
3732.000
 70
    32
  0
VERTEX
  8
E15LXLIFT
 62
1
 10
-568.513
 20
-514.980
 30
3732.000
 70
    32
  0
VERTEX
  8
E15LXLIFT
 62
1
 10
-564.618
 20
-526.311
 30
3732.000
 70
    32
  0
VERTEX
  8
E15LXLIFT
 62
1
 10
-560.156
 20
-539.737
 30
3732.000
 70
    32
  0
VERTEX
  8
E15LXLIFT
 62
1
 10
-552.216
 20
-553.433
 30
3732.000
 70
    32
  0
VERTEX
  8
E15LXLIFT
 62
1
 10
-548.478
 20
-559.523
 30
3732.000
 70
    32
  0
VERTEX
  8
E15LXLIFT
 62
1
 10
-558.775
 20
-566.590
 30
3732.000
 70
    32
  0
VERTEX
  8
E15LXLIFT
 62
1
 10
-564.034
 20
-559.329
 30
3732.000
 70
    32
  0
VERTEX
  8
E15LXLIFT
 62
1
 10
-572.613
 20
-551.571
 30
3732.000
 70
    32
  0
VERTEX
  8
E15LXLIFT
 62
1
 10
-578.678
 20
-543.812
 30
3732.000
 70
    32
  0
VERTEX
  8
E15LXLIFT
 62
1
 10
-583.311
 20
-529.857
 30
3732.000
 70
    32
  0
VERTEX
  8
E15LXLIFT
 62
1
 10
-590.075
 20
-516.275
 30
3732.000
 70
    32
  0
VERTEX
  8
E15LXLIFT
 62
1
 10
-601.466
 20
-503.382
 30
3732.000
 70
    32
  0
VERTEX
  8
E15LXLIFT
 62
1
 10
-610.402
 20
-493.810
 30
3732.000
 70
    32
  0
VERTEX
  8
E15LXLIFT
 62
1
 10
-614.730
 20
-486.626
 30
3732.000
 70
    32
  0
VERTEX
  8
E15LXLIFT
 62
1
 10
-613.954
 20
-478.509
 30
3732.000
 70
    32
  0
VERTEX
  8
E15LXLIFT
 62
1
 10
-613.936
 20
-478.386
 30
3732.000
 70
    32
  0
VERTEX
  8
E15LXLIFT
 62
1
 10
-620.714
 20
-469.515
 30
3732.000
 70
    32
  0
VERTEX
  8
E15LXLIFT
 62
1
 10
-629.581
 20
-460.331
 30
3732.000
 70
    32
  0
VERTEX
  8
E15LXLIFT
 62
1
 10
-637.896
 20
-449.972
 30
3732.000
 70
    32
  0
VERTEX
  8
E15LXLIFT
 62
1
 10
-643.060
 20
-444.171
 30
3732.000
 70
    32
  0
VERTEX
  8
E15LXLIFT
 62
1
 10
-643.910
 20
-434.742
 30
3732.000
 70
    32
  0
VERTEX
  8
E15LXLIFT
 62
1
 10
-646.517
 20
-427.816
 30
3732.000
 70
    32
  0
VERTEX
  8
E15LXLIFT
 62
1
 10
-651.454
 20
-419.660
 30
3732.000
 70
    32
  0
VERTEX
  8
E15LXLIFT
 62
1
 10
-652.667
 20
-411.812
 30
3732.000
 70
    32
  0
VERTEX
  8
E15LXLIFT
 62
1
 10
-649.035
 20
-405.191
 30
3732.000
 70
    32
  0
VERTEX
  8
E15LXLIFT
 62
1
 10
-649.359
 20
-396.030
 30
3732.000
 70
    32
  0
VERTEX
  8
E15LXLIFT
 62
1
 10
-654.730
 20
-384.479
 30
3732.000
 70
    32
  0
VERTEX
  8
E15LXLIFT
 62
1
 10
-653.850
 20
-373.990
 30
3732.000
 70
    32
  0
VERTEX
  8
E15LXLIFT
 62
1
 10
-659.780
 20
-346.455
 30
3732.000
 70
    32
  0
VERTEX
  8
E15LXLIFT
 62
1
 10
-666.085
 20
-335.266
 30
3732.000
 70
    32
  0
VERTEX
  8
E15LXLIFT
 62
1
 10
-674.105
 20
-325.455
 30
3732.000
 70
    32
  0
VERTEX
  8
E15LXLIFT
 62
1
 10
-680.131
 20
-311.983
 30
3732.000
 70
    32
  0
VERTEX
  8
E15LXLIFT
 62
1
 10
-686.546
 20
-301.532
 30
3732.000
 70
    32
  0
VERTEX
  8
E15LXLIFT
 62
1
 10
-694.385
 20
-290.931
 30
3732.000
 70
    32
  0
VERTEX
  8
E15LXLIFT
 62
1
 10
-702.589
 20
-279.835
 30
3732.000
 70
    32
  0
VERTEX
  8
E15LXLIFT
 62
1
 10
-709.976
 20
-267.479
 30
3732.000
 70
    32
  0
VERTEX
  8
E15LXLIFT
 62
1
 10
-713.531
 20
-255.131
 30
3732.000
 70
    32
  0
VERTEX
  8
E15LXLIFT
 62
1
 10
-721.418
 20
-246.534
 30
3732.000
 70
    32
  0
VERTEX
  8
E15LXLIFT
 62
1
 10
-728.267
 20
-237.715
 30
3732.000
 70
    32
  0
VERTEX
  8
E15LXLIFT
 62
1
 10
-724.482
 20
-231.746
 30
3732.000
 70
    32
  0
VERTEX
  8
E15LXLIFT
 62
1
 10
-718.082
 20
-223.843
 30
3732.000
 70
    32
  0
VERTEX
  8
E15LXLIFT
 62
1
 10
-711.337
 20
-219.512
 30
3732.000
 70
    32
  0
VERTEX
  8
E15LXLIFT
 62
1
 10
-702.194
 20
-219.311
 30
3732.000
 70
    32
  0
VERTEX
  8
E15LXLIFT
 62
1
 10
-692.747
 20
-220.852
 30
3732.000
 70
    32
  0
SEQEND
  8
E15LXLIFT
  0
POLYLINE
  8
E15LXLIFT
 62
6
 66
     1
 70
     9
  0
VERTEX
  8
E15LXLIFT
 62
6
 10
-753.059
 20
-267.953
 30
3720.000
 70
    32
  0
VERTEX
  8
E15LXLIFT
 62
6
 10
-756.668
 20
-262.970
 30
3720.000
 70
    32
  0
VERTEX
  8
E15LXLIFT
 62
6
 10
-762.420
 20
-259.973
 30
3720.000
 70
    32
  0
VERTEX
  8
E15LXLIFT
 62
6
 10
-768.481
 20
-259.696
 30
3720.000
 70
    32
  0
VERTEX
  8
E15LXLIFT
 62
6
 10
-773.764
 20
-258.097
 30
3720.000
 70
    32
  0
VERTEX
  8
E15LXLIFT
 62
6
 10
-780.291
 20
-261.522
 30
3720.000
 70
    32
  0
VERTEX
  8
E15LXLIFT
 62
6
 10
-780.040
 20
-268.611
 30
3720.000
 70
    32
  0
VERTEX
  8
E15LXLIFT
 62
6
 10
-772.326
 20
-273.118
 30
3720.000
 70
    32
  0
VERTEX
  8
E15LXLIFT
 62
6
 10
-768.398
 20
-280.040
 30
3720.000
 70
    32
  0
VERTEX
  8
E15LXLIFT
 62
6
 10
-763.303
 20
-288.722
 30
3720.000
 70
    32
  0
VERTEX
  8
E15LXLIFT
 62
6
 10
-762.816
 20
-294.338
 30
3720.000
 70
    32
  0
VERTEX
  8
E15LXLIFT
 62
6
 10
-766.966
 20
-301.794
 30
3720.000
 70
    32
  0
VERTEX
  8
E15LXLIFT
 62
6
 10
-765.640
 20
-307.671
 30
3720.000
 70
    32
  0
VERTEX
  8
E15LXLIFT
 62
6
 10
-757.725
 20
-311.706
 30
3720.000
 70
    32
  0
VERTEX
  8
E15LXLIFT
 62
6
 10
-747.915
 20
-311.763
 30
3720.000
 70
    32
  0
VERTEX
  8
E15LXLIFT
 62
6
 10
-740.583
 20
-309.600
 30
3720.000
 70
    32
  0
VERTEX
  8
E15LXLIFT
 62
6
 10
-734.739
 20
-304.932
 30
3720.000
 70
    32
  0
VERTEX
  8
E15LXLIFT
 62
6
 10
-734.199
 20
-299.983
 30
3720.000
 70
    32
  0
VERTEX
  8
E15LXLIFT
 62
6
 10
-739.213
 20
-292.762
 30
3720.000
 70
    32
  0
VERTEX
  8
E15LXLIFT
 62
6
 10
-743.635
 20
-283.810
 30
3720.000
 70
    32
  0
SEQEND
  8
E15LXLIFT
  0
POLYLINE
  8
E15LXLIFT
 62
3
 66
     1
 70
     9
  0
VERTEX
  8
E15LXLIFT
 62
3
 10
-775.855
 20
-226.292
 30
3729.000
 70
    32
  0
VERTEX
  8
E15LXLIFT
 62
3
 10
-782.400
 20
-225.498
 30
3729.000
 70
    32
  0
VERTEX
  8
E15LXLIFT
 62
3
 10
-790.130
 20
-226.213
 30
3729.000
 70
    32
  0
VERTEX
  8
E15LXLIFT
 62
3
 10
-798.648
 20
-226.739
 30
3729.000
 70
    32
  0
VERTEX
  8
E15LXLIFT
 62
3
 10
-802.455
 20
-230.474
 30
3729.000
 70
    32
  0
VERTEX
  8
E15LXLIFT
 62
3
 10
-807.096
 20
-234.704
 30
3729.000
 70
    32
  0
VERTEX
  8
E15LXLIFT
 62
3
 10
-814.070
 20
-238.561
 30
3729.000
 70
    32
  0
VERTEX
  8
E15LXLIFT
 62
3
 10
-819.163
 20
-242.468
 30
3729.000
 70
    32
  0
VERTEX
  8
E15LXLIFT
 62
3
 10
-824.691
 20
-247.123
 30
3729.000
 70
    32
  0
VERTEX
  8
E15LXLIFT
 62
3
 10
-829.248
 20
-244.128
 30
3729.000
 70
    32
  0
VERTEX
  8
E15LXLIFT
 62
3
 10
-832.926
 20
-238.002
 30
3729.000
 70
    32
  0
VERTEX
  8
E15LXLIFT
 62
3
 10
-834.576
 20
-232.577
 30
3729.000
 70
    32
  0
VERTEX
  8
E15LXLIFT
 62
3
 10
-830.499
 20
-229.515
 30
3729.000
 70
    32
  0
VERTEX
  8
E15LXLIFT
 62
3
 10
-828.413
 20
-223.554
 30
3729.000
 70
    32
  0
VERTEX
  8
E15LXLIFT
 62
3
 10
-819.532
 20
-222.331
 30
3729.000
 70
    32
  0
VERTEX
  8
E15LXLIFT
 62
3
 10
-811.343
 20
-221.500
 30
3729.000
 70
    32
  0
VERTEX
  8
E15LXLIFT
 62
3
 10
-801.059
 20
-220.563
 30
3729.000
 70
    32
  0
VERTEX
  8
E15LXLIFT
 62
3
 10
-795.829
 20
-215.798
 30
3729.000
 70
    32
  0
VERTEX
  8
E15LXLIFT
 62
3
 10
-789.815
 20
-213.612
 30
3729.000
 70
    32
  0
VERTEX
  8
E15LXLIFT
 62
3
 10
-784.608
 20
-214.508
 30
3729.000
 70
    32
  0
VERTEX
  8
E15LXLIFT
 62
3
 10
-781.736
 20
-213.078
 30
3729.000
 70
    32
  0
SEQEND
  8
E15LXLIFT
  0
POLYLINE
  8
E15LXLIFT
 62
13
 66
     1
 70
     9
  0
VERTEX
  8
E15LXLIFT
 62
13
 10
-1553.865
 20
-16.647
 30
3613.000
 70
    32
  0
VERTEX
  8
E15LXLIFT
 62
13
 10
-1572.108
 20
-18.940
 30
3613.000
 70
    32
  0
VERTEX
  8
E15LXLIFT
 62
13
 10
-1653.952
 20
-66.691
 30
3613.000
 70
    32
  0
VERTEX
  8
E15LXLIFT
 62
13
 10
-1672.338
 20
-66.019
 30
3613.000
 70
    32
  0
VERTEX
  8
E15LXLIFT
 62
13
 10
-1679.333
 20
-73.795
 30
3613.000
 70
    32
  0
VERTEX
  8
E15LXLIFT
 62
13
 10
-1677.769
 20
-77.338
 30
3613.000
 70
    32
  0
VERTEX
  8
E15LXLIFT
 62
13
 10
-1688.284
 20
-95.765
 30
3613.000
 70
    32
  0
VERTEX
  8
E15LXLIFT
 62
13
 10
-1723.387
 20
-124.979
 30
3613.000
 70
    32
  0
VERTEX
  8
E15LXLIFT
 62
13
 10
-1740.904
 20
-138.463
 30
3613.000
 70
    32
  0
VERTEX
  8
E15LXLIFT
 62
13
 10
-1744.703
 20
-151.079
 30
3613.000
 70
    32
  0
VERTEX
  8
E15LXLIFT
 62
13
 10
-1752.875
 20
-156.119
 30
3613.000
 70
    32
  0
VERTEX
  8
E15LXLIFT
 62
13
 10
-1764.689
 20
-144.039
 30
3613.000
 70
    32
  0
VERTEX
  8
E15LXLIFT
 62
13
 10
-1752.262
 20
-126.260
 30
3613.000
 70
    32
  0
VERTEX
  8
E15LXLIFT
 62
13
 10
-1752.742
 20
-116.419
 30
3613.000
 70
    32
  0
VERTEX
  8
E15LXLIFT
 62
13
 10
-1741.218
 20
-113.359
 30
3613.000
 70
    32
  0
VERTEX
  8
E15LXLIFT
 62
13
 10
-1740.793
 20
-120.499
 30
3613.000
 70
    32
  0
VERTEX
  8
E15LXLIFT
 62
13
 10
-1734.427
 20
-116.267
 30
3613.000
 70
    32
  0
VERTEX
  8
E15LXLIFT
 62
13
 10
-1726.010
 20
-110.384
 30
3613.000
 70
    32
  0
VERTEX
  8
E15LXLIFT
 62
13
 10
-1717.698
 20
-105.239
 30
3613.000
 70
    32
  0
VERTEX
  8
E15LXLIFT
 62
13
 10
-1710.650
 20
-97.533
 30
3613.000
 70
    32
  0
VERTEX
  8
E15LXLIFT
 62
13
 10
-1704.848
 20
-90.214
 30
3613.000
 70
    32
  0
VERTEX
  8
E15LXLIFT
 62
13
 10
-1698.729
 20
-85.070
 30
3613.000
 70
    32
  0
VERTEX
  8
E15LXLIFT
 62
13
 10
-1693.275
 20
-81.084
 30
3613.000
 70
    32
  0
VERTEX
  8
E15LXLIFT
 62
13
 10
-1693.490
 20
-74.663
 30
3613.000
 70
    32
  0
VERTEX
  8
E15LXLIFT
 62
13
 10
-1693.266
 20
-68.242
 30
3613.000
 70
    32
  0
VERTEX
  8
E15LXLIFT
 62
13
 10
-1706.577
 20
-46.866
 30
3613.000
 70
    32
  0
VERTEX
  8
E15LXLIFT
 62
13
 10
-1697.320
 20
-38.158
 30
3613.000
 70
    32
  0
VERTEX
  8
E15LXLIFT
 62
13
 10
-1693.211
 20
-44.068
 30
3613.000
 70
    32
  0
VERTEX
  8
E15LXLIFT
 62
13
 10
-1674.258
 20
-53.529
 30
3613.000
 70
    32
  0
VERTEX
  8
E15LXLIFT
 62
13
 10
-1664.415
 20
-56.558
 30
3613.000
 70
    32
  0
VERTEX
  8
E15LXLIFT
 62
13
 10
-1655.523
 20
-52.184
 30
3613.000
 70
    32
  0
VERTEX
  8
E15LXLIFT
 62
13
 10
-1653.925
 20
-54.165
 30
3613.000
 70
    32
  0
VERTEX
  8
E15LXLIFT
 62
13
 10
-1625.551
 20
-37.025
 30
3613.000
 70
    32
  0
VERTEX
  8
E15LXLIFT
 62
13
 10
-1578.904
 20
-8.137
 30
3613.000
 70
    32
  0
VERTEX
  8
E15LXLIFT
 62
13
 10
-1556.686
 20
6.683
 30
3613.000
 70
    32
  0
VERTEX
  8
E15LXLIFT
 62
13
 10
-1550.031
 20
-4.224
 30
3613.000
 70
    32
  0
SEQEND
  8
E15LXLIFT
  0
POLYLINE
  8
E15LXLIFT
 62
13
 66
     1
 70
     9
  0
VERTEX
  8
E15LXLIFT
 62
13
 10
-835.002
 20
-55.895
 30
3756.000
 70
    32
  0
VERTEX
  8
E15LXLIFT
 62
13
 10
-838.619
 20
-44.689
 30
3756.000
 70
    32
  0
VERTEX
  8
E15LXLIFT
 62
13
 10
-842.395
 20
-33.710
 30
3756.000
 70
    32
  0
VERTEX
  8
E15LXLIFT
 62
13
 10
-846.865
 20
-24.450
 30
3756.000
 70
    32
  0
VERTEX
  8
E15LXLIFT
 62
13
 10
-852.724
 20
-15.674
 30
3756.000
 70
    32
  0
VERTEX
  8
E15LXLIFT
 62
13
 10
-859.223
 20
-12.077
 30
3756.000
 70
    32
  0
VERTEX
  8
E15LXLIFT
 62
13
 10
-863.118
 20
-7.421
 30
3756.000
 70
    32
  0
VERTEX
  8
E15LXLIFT
 62
13
 10
-867.289
 20
1.733
 30
3756.000
 70
    32
  0
VERTEX
  8
E15LXLIFT
 62
13
 10
-864.138
 20
6.917
 30
3756.000
 70
    32
  0
VERTEX
  8
E15LXLIFT
 62
13
 10
-861.416
 20
10.469
 30
3756.000
 70
    32
  0
VERTEX
  8
E15LXLIFT
 62
13
 10
-865.555
 20
18.990
 30
3756.000
 70
    32
  0
VERTEX
  8
E15LXLIFT
 62
13
 10
-868.715
 20
30.317
 30
3756.000
 70
    32
  0
VERTEX
  8
E15LXLIFT
 62
13
 10
-871.815
 20
39.501
 30
3756.000
 70
    32
  0
VERTEX
  8
E15LXLIFT
 62
13
 10
-869.419
 20
44.671
 30
3756.000
 70
    32
  0
VERTEX
  8
E15LXLIFT
 62
13
 10
-870.551
 20
54.004
 30
3756.000
 70
    32
  0
VERTEX
  8
E15LXLIFT
 62
13
 10
-873.640
 20
65.383
 30
3756.000
 70
    32
  0
VERTEX
  8
E15LXLIFT
 62
13
 10
-873.891
 20
71.760
 30
3756.000
 70
    32
  0
VERTEX
  8
E15LXLIFT
 62
13
 10
-870.550
 20
76.100
 30
3756.000
 70
    32
  0
VERTEX
  8
E15LXLIFT
 62
13
 10
-864.517
 20
77.845
 30
3756.000
 70
    32
  0
VERTEX
  8
E15LXLIFT
 62
13
 10
-861.325
 20
73.105
 30
3756.000
 70
    32
  0
VERTEX
  8
E15LXLIFT
 62
13
 10
-859.128
 20
62.485
 30
3756.000
 70
    32
  0
VERTEX
  8
E15LXLIFT
 62
13
 10
-856.761
 20
54.288
 30
3756.000
 70
    32
  0
VERTEX
  8
E15LXLIFT
 62
13
 10
-854.463
 20
42.650
 30
3756.000
 70
    32
  0
VERTEX
  8
E15LXLIFT
 62
13
 10
-853.269
 20
31.613
 30
3756.000
 70
    32
  0
VERTEX
  8
E15LXLIFT
 62
13
 10
-849.740
 20
24.061
 30
3756.000
 70
    32
  0
VERTEX
  8
E15LXLIFT
 62
13
 10
-843.754
 20
16.145
 30
3756.000
 70
    32
  0
VERTEX
  8
E15LXLIFT
 62
13
 10
-843.812
 20
14.899
 30
3756.000
 70
    32
  0
VERTEX
  8
E15LXLIFT
 62
13
 10
-844.518
 20
3.327
 30
3756.000
 70
    32
  0
VERTEX
  8
E15LXLIFT
 62
13
 10
-840.962
 20
-9.565
 30
3756.000
 70
    32
  0
VERTEX
  8
E15LXLIFT
 62
13
 10
-835.430
 20
-17.162
 30
3756.000
 70
    32
  0
VERTEX
  8
E15LXLIFT
 62
13
 10
-829.449
 20
-22.566
 30
3756.000
 70
    32
  0
VERTEX
  8
E15LXLIFT
 62
13
 10
-827.598
 20
-32.130
 30
3756.000
 70
    32
  0
VERTEX
  8
E15LXLIFT
 62
13
 10
-826.235
 20
-37.354
 30
3756.000
 70
    32
  0
VERTEX
  8
E15LXLIFT
 62
13
 10
-825.919
 20
-44.557
 30
3756.000
 70
    32
  0
VERTEX
  8
E15LXLIFT
 62
13
 10
-821.391
 20
-56.400
 30
3756.000
 70
    32
  0
SEQEND
  8
E15LXLIFT
  0
POLYLINE
  8
E15LXLIFT
 62
27
 66
     1
 70
     9
  0
VERTEX
  8
E15LXLIFT
 62
27
 10
-680.099
 20
-423.765
 30
3795.000
 70
    32
  0
VERTEX
  8
E15LXLIFT
 62
27
 10
-685.041
 20
-421.694
 30
3795.000
 70
    32
  0
VERTEX
  8
E15LXLIFT
 62
27
 10
-689.639
 20
-423.264
 30
3795.000
 70
    32
  0
VERTEX
  8
E15LXLIFT
 62
27
 10
-692.184
 20
-430.707
 30
3795.000
 70
    32
  0
VERTEX
  8
E15LXLIFT
 62
27
 10
-693.263
 20
-441.851
 30
3795.000
 70
    32
  0
VERTEX
  8
E15LXLIFT
 62
27
 10
-697.746
 20
-449.604
 30
3795.000
 70
    32
  0
VERTEX
  8
E15LXLIFT
 62
27
 10
-703.095
 20
-448.472
 30
3795.000
 70
    32
  0
VERTEX
  8
E15LXLIFT
 62
27
 10
-711.992
 20
-443.297
 30
3795.000
 70
    32
  0
VERTEX
  8
E15LXLIFT
 62
27
 10
-715.992
 20
-433.205
 30
3795.000
 70
    32
  0
VERTEX
  8
E15LXLIFT
 62
27
 10
-718.300
 20
-426.977
 30
3795.000
 70
    32
  0
VERTEX
  8
E15LXLIFT
 62
27
 10
-719.347
 20
-419.194
 30
3795.000
 70
    32
  0
VERTEX
  8
E15LXLIFT
 62
27
 10
-714.091
 20
-414.776
 30
3795.000
 70
    32
  0
VERTEX
  8
E15LXLIFT
 62
27
 10
-715.803
 20
-406.067
 30
3795.000
 70
    32
  0
VERTEX
  8
E15LXLIFT
 62
27
 10
-717.369
 20
-398.765
 30
3795.000
 70
    32
  0
VERTEX
  8
E15LXLIFT
 62
27
 10
-714.064
 20
-388.617
 30
3795.000
 70
    32
  0
VERTEX
  8
E15LXLIFT
 62
27
 10
-708.104
 20
-379.912
 30
3795.000
 70
    32
  0
VERTEX
  8
E15LXLIFT
 62
27
 10
-707.262
 20
-372.503
 30
3795.000
 70
    32
  0
VERTEX
  8
E15LXLIFT
 62
27
 10
-704.153
 20
-366.600
 30
3795.000
 70
    32
  0
VERTEX
  8
E15LXLIFT
 62
27
 10
-698.908
 20
-361.865
 30
3795.000
 70
    32
  0
VERTEX
  8
E15LXLIFT
 62
27
 10
-699.043
 20
-355.805
 30
3795.000
 70
    32
  0
VERTEX
  8
E15LXLIFT
 62
27
 10
-695.440
 20
-351.492
 30
3795.000
 70
    32
  0
VERTEX
  8
E15LXLIFT
 62
27
 10
-695.003
 20
-350.747
 30
3795.000
 70
    32
  0
VERTEX
  8
E15LXLIFT
 62
27
 10
-696.414
 20
-344.414
 30
3795.000
 70
    32
  0
VERTEX
  8
E15LXLIFT
 62
27
 10
-689.796
 20
-342.798
 30
3795.000
 70
    32
  0
VERTEX
  8
E15LXLIFT
 62
27
 10
-681.175
 20
-342.770
 30
3795.000
 70
    32
  0
VERTEX
  8
E15LXLIFT
 62
27
 10
-681.863
 20
-350.393
 30
3795.000
 70
    32
  0
VERTEX
  8
E15LXLIFT
 62
27
 10
-677.012
 20
-357.606
 30
3795.000
 70
    32
  0
VERTEX
  8
E15LXLIFT
 62
27
 10
-674.155
 20
-362.793
 30
3795.000
 70
    32
  0
VERTEX
  8
E15LXLIFT
 62
27
 10
-671.924
 20
-371.022
 30
3795.000
 70
    32
  0
VERTEX
  8
E15LXLIFT
 62
27
 10
-675.296
 20
-378.517
 30
3795.000
 70
    32
  0
VERTEX
  8
E15LXLIFT
 62
27
 10
-671.099
 20
-385.120
 30
3795.000
 70
    32
  0
VERTEX
  8
E15LXLIFT
 62
27
 10
-666.304
 20
-389.997
 30
3795.000
 70
    32
  0
VERTEX
  8
E15LXLIFT
 62
27
 10
-662.761
 20
-395.988
 30
3795.000
 70
    32
  0
VERTEX
  8
E15LXLIFT
 62
27
 10
-662.164
 20
-403.445
 30
3795.000
 70
    32
  0
VERTEX
  8
E15LXLIFT
 62
27
 10
-665.486
 20
-410.257
 30
3795.000
 70
    32
  0
VERTEX
  8
E15LXLIFT
 62
27
 10
-669.911
 20
-416.888
 30
3795.000
 70
    32
  0
SEQEND
  8
E15LXLIFT
  0
POLYLINE
  8
E15LXLIFT
 62
1
 66
     1
 70
     9
  0
VERTEX
  8
E15LXLIFT
 62
1
 10
-1552.865
 20
-15.647
 30
3623.000
 70
    32
  0
VERTEX
  8
E15LXLIFT
 62
1
 10
-1571.108
 20
-17.940
 30
3623.000
 70
    32
  0
VERTEX
  8
E15LXLIFT
 62
1
 10
-1652.952
 20
-65.691
 30
3623.000
 70
    32
  0
VERTEX
  8
E15LXLIFT
 62
1
 10
-1671.338
 20
-65.019
 30
3623.000
 70
    32
  0
VERTEX
  8
E15LXLIFT
 62
1
 10
-1678.333
 20
-72.795
 30
3623.000
 70
    32
  0
VERTEX
  8
E15LXLIFT
 62
1
 10
-1676.769
 20
-76.338
 30
3623.000
 70
    32
  0
VERTEX
  8
E15LXLIFT
 62
1
 10
-1687.284
 20
-94.765
 30
3623.000
 70
    32
  0
VERTEX
  8
E15LXLIFT
 62
1
 10
-1722.387
 20
-123.979
 30
3623.000
 70
    32
  0
VERTEX
  8
E15LXLIFT
 62
1
 10
-1739.904
 20
-137.463
 30
3623.000
 70
    32
  0
VERTEX
  8
E15LXLIFT
 62
1
 10
-1743.703
 20
-150.079
 30
3623.000
 70
    32
  0
VERTEX
  8
E15LXLIFT
 62
1
 10
-1751.875
 20
-155.119
 30
3623.000
 70
    32
  0
VERTEX
  8
E15LXLIFT
 62
1
 10
-1763.689
 20
-143.039
 30
3623.000
 70
    32
  0
VERTEX
  8
E15LXLIFT
 62
1
 10
-1751.262
 20
-125.260
 30
3623.000
 70
    32
  0
VERTEX
  8
E15LXLIFT
 62
1
 10
-1751.742
 20
-115.419
 30
3623.000
 70
    32
  0
VERTEX
  8
E15LXLIFT
 62
1
 10
-1740.218
 20
-112.359
 30
3623.000
 70
    32
  0
VERTEX
  8
E15LXLIFT
 62
1
 10
-1739.793
 20
-119.499
 30
3623.000
 70
    32
  0
VERTEX
  8
E15LXLIFT
 62
1
 10
-1733.427
 20
-115.267
 30
3623.000
 70
    32
  0
VERTEX
  8
E15LXLIFT
 62
1
 10
-1725.010
 20
-109.384
 30
3623.000
 70
    32
  0
VERTEX
  8
E15LXLIFT
 62
1
 10
-1716.698
 20
-104.239
 30
3623.000
 70
    32
  0
VERTEX
  8
E15LXLIFT
 62
1
 10
-1709.650
 20
-96.533
 30
3623.000
 70
    32
  0
VERTEX
  8
E15LXLIFT
 62
1
 10
-1703.848
 20
-89.214
 30
3623.000
 70
    32
  0
VERTEX
  8
E15LXLIFT
 62
1
 10
-1697.729
 20
-84.070
 30
3623.000
 70
    32
  0
VERTEX
  8
E15LXLIFT
 62
1
 10
-1692.275
 20
-80.084
 30
3623.000
 70
    32
  0
VERTEX
  8
E15LXLIFT
 62
1
 10
-1692.490
 20
-73.663
 30
3623.000
 70
    32
  0
VERTEX
  8
E15LXLIFT
 62
1
 10
-1692.266
 20
-67.242
 30
3623.000
 70
    32
  0
VERTEX
  8
E15LXLIFT
 62
1
 10
-1705.577
 20
-45.866
 30
3623.000
 70
    32
  0
VERTEX
  8
E15LXLIFT
 62
1
 10
-1696.320
 20
-37.158
 30
3623.000
 70
    32
  0
VERTEX
  8
E15LXLIFT
 62
1
 10
-1692.211
 20
-43.068
 30
3623.000
 70
    32
  0
VERTEX
  8
E15LXLIFT
 62
1
 10
-1673.258
 20
-52.529
 30
3623.000
 70
    32
  0
VERTEX
  8
E15LXLIFT
 62
1
 10
-1663.415
 20
-55.558
 30
3623.000
 70
    32
  0
VERTEX
  8
E15LXLIFT
 62
1
 10
-1654.523
 20
-51.184
 30
3623.000
 70
    32
  0
VERTEX
  8
E15LXLIFT
 62
1
 10
-1652.925
 20
-53.165
 30
3623.000
 70
    32
  0
VERTEX
  8
E15LXLIFT
 62
1
 10
-1624.551
 20
-36.025
 30
3623.000
 70
    32
  0
VERTEX
  8
E15LXLIFT
 62
1
 10
-1577.904
 20
-7.137
 30
3623.000
 70
    32
  0
VERTEX
  8
E15LXLIFT
 62
1
 10
-1555.686
 20
7.683
 30
3623.000
 70
    32
  0
VERTEX
  8
E15LXLIFT
 62
1
 10
-1549.031
 20
-3.224
 30
3623.000
 70
    32
  0
SEQEND
  8
E15LXLIFT
  0
POLYLINE
  8
E15LXLIFT
 62
1
 66
     1
 70
     9
  0
VERTEX
  8
E15LXLIFT
 62
1
 10
-1611.683
 20
-34.206
 30
3693.000
 70
    32
  0
VERTEX
  8
E15LXLIFT
 62
1
 10
-1618.024
 20
-28.861
 30
3693.000
 70
    32
  0
VERTEX
  8
E15LXLIFT
 62
1
 10
-1621.976
 20
-23.035
 30
3693.000
 70
    32
  0
VERTEX
  8
E15LXLIFT
 62
1
 10
-1627.731
 20
-19.780
 30
3693.000
 70
    32
  0
VERTEX
  8
E15LXLIFT
 62
1
 10
-1636.693
 20
-13.879
 30
3693.000
 70
    32
  0
VERTEX
  8
E15LXLIFT
 62
1
 10
-1645.746
 20
-6.397
 30
3693.000
 70
    32
  0
VERTEX
  8
E15LXLIFT
 62
1
 10
-1643.594
 20
-2.243
 30
3693.000
 70
    32
  0
VERTEX
  8
E15LXLIFT
 62
1
 10
-1640.145
 20
3.108
 30
3693.000
 70
    32
  0
VERTEX
  8
E15LXLIFT
 62
1
 10
-1634.520
 20
2.947
 30
3693.000
 70
    32
  0
VERTEX
  8
E15LXLIFT
 62
1
 10
-1629.443
 20
3.803
 30
3693.000
 70
    32
  0
VERTEX
  8
E15LXLIFT
 62
1
 10
-1622.608
 20
-2.050
 30
3693.000
 70
    32
  0
VERTEX
  8
E15LXLIFT
 62
1
 10
-1612.630
 20
-6.965
 30
3693.000
 70
    32
  0
VERTEX
  8
E15LXLIFT
 62
1
 10
-1605.174
 20
-8.387
 30
3693.000
 70
    32
  0
VERTEX
  8
E15LXLIFT
 62
1
 10
-1600.298
 20
-4.491
 30
3693.000
 70
    32
  0
VERTEX
  8
E15LXLIFT
 62
1
 10
-1598.311
 20
-4.644
 30
3693.000
 70
    32
  0
VERTEX
  8
E15LXLIFT
 62
1
 10
-1593.028
 20
-1.432
 30
3693.000
 70
    32
  0
VERTEX
  8
E15LXLIFT
 62
1
 10
-1585.495
 20
1.276
 30
3693.000
 70
    32
  0
VERTEX
  8
E15LXLIFT
 62
1
 10
-1580.169
 20
-5.934
 30
3693.000
 70
    32
  0
VERTEX
  8
E15LXLIFT
 62
1
 10
-1575.246
 20
-13.339
 30
3693.000
 70
    32
  0
VERTEX
  8
E15LXLIFT
 62
1
 10
-1570.362
 20
-19.672
 30
3693.000
 70
    32
  0
VERTEX
  8
E15LXLIFT
 62
1
 10
-1574.956
 20
-24.236
 30
3693.000
 70
    32
  0
VERTEX
  8
E15LXLIFT
 62
1
 10
-1580.887
 20
-28.047
 30
3693.000
 70
    32
  0
VERTEX
  8
E15LXLIFT
 62
1
 10
-1579.659
 20
-34.056
 30
3693.000
 70
    32
  0
VERTEX
  8
E15LXLIFT
 62
1
 10
-1576.496
 20
-41.026
 30
3693.000
 70
    32
  0
VERTEX
  8
E15LXLIFT
 62
1
 10
-1579.539
 20
-47.062
 30
3693.000
 70
    32
  0
VERTEX
  8
E15LXLIFT
 62
1
 10
-1580.731
 20
-55.115
 30
3693.000
 70
    32
  0
VERTEX
  8
E15LXLIFT
 62
1
 10
-1584.498
 20
-60.046
 30
3693.000
 70
    32
  0
VERTEX
  8
E15LXLIFT
 62
1
 10
-1589.425
 20
-64.751
 30
3693.000
 70
    32
  0
VERTEX
  8
E15LXLIFT
 62
1
 10
-1596.534
 20
-68.899
 30
3693.000
 70
    32
  0
VERTEX
  8
E15LXLIFT
 62
1
 10
-1602.733
 20
-71.042
 30
3693.000
 70
    32
  0
VERTEX
  8
E15LXLIFT
 62
1
 10
-1605.636
 20
-62.665
 30
3693.000
 70
    32
  0
VERTEX
  8
E15LXLIFT
 62
1
 10
-1606.867
 20
-55.338
 30
3693.000
 70
    32
  0
VERTEX
  8
E15LXLIFT
 62
1
 10
-1606.550
 20
-48.606
 30
3693.000
 70
    32
  0
VERTEX
  8
E15LXLIFT
 62
1
 10
-1610.267
 20
-45.135
 30
3693.000
 70
    32
  0
SEQEND
  8
E15LXLIFT
  0
POLYLINE
  8
E15LXLIFT
 62
1
 66
     1
 70
     9
  0
VERTEX
  8
E15LXLIFT
 62
1
 10
-834.002
 20
-54.895
 30
3766.000
 70
    32
  0
VERTEX
  8
E15LXLIFT
 62
1
 10
-837.619
 20
-43.689
 30
3766.000
 70
    32
  0
VERTEX
  8
E15LXLIFT
 62
1
 10
-841.395
 20
-32.710
 30
3766.000
 70
    32
  0
VERTEX
  8
E15LXLIFT
 62
1
 10
-845.865
 20
-23.450
 30
3766.000
 70
    32
  0
VERTEX
  8
E15LXLIFT
 62
1
 10
-851.724
 20
-14.674
 30
3766.000
 70
    32
  0
VERTEX
  8
E15LXLIFT
 62
1
 10
-858.223
 20
-11.077
 30
3766.000
 70
    32
  0
VERTEX
  8
E15LXLIFT
 62
1
 10
-862.118
 20
-6.421
 30
3766.000
 70
    32
  0
VERTEX
  8
E15LXLIFT
 62
1
 10
-866.289
 20
2.733
 30
3766.000
 70
    32
  0
VERTEX
  8
E15LXLIFT
 62
1
 10
-863.138
 20
7.917
 30
3766.000
 70
    32
  0
VERTEX
  8
E15LXLIFT
 62
1
 10
-860.416
 20
11.469
 30
3766.000
 70
    32
  0
VERTEX
  8
E15LXLIFT
 62
1
 10
-864.555
 20
19.990
 30
3766.000
 70
    32
  0
VERTEX
  8
E15LXLIFT
 62
1
 10
-867.715
 20
31.317
 30
3766.000
 70
    32
  0
VERTEX
  8
E15LXLIFT
 62
1
 10
-870.815
 20
40.501
 30
3766.000
 70
    32
  0
VERTEX
  8
E15LXLIFT
 62
1
 10
-868.419
 20
45.671
 30
3766.000
 70
    32
  0
VERTEX
  8
E15LXLIFT
 62
1
 10
-869.551
 20
55.004
 30
3766.000
 70
    32
  0
VERTEX
  8
E15LXLIFT
 62
1
 10
-872.640
 20
66.383
 30
3766.000
 70
    32
  0
VERTEX
  8
E15LXLIFT
 62
1
 10
-872.891
 20
72.760
 30
3766.000
 70
    32
  0
VERTEX
  8
E15LXLIFT
 62
1
 10
-869.550
 20
77.100
 30
3766.000
 70
    32
  0
VERTEX
  8
E15LXLIFT
 62
1
 10
-863.517
 20
78.845
 30
3766.000
 70
    32
  0
VERTEX
  8
E15LXLIFT
 62
1
 10
-860.325
 20
74.105
 30
3766.000
 70
    32
  0
VERTEX
  8
E15LXLIFT
 62
1
 10
-858.128
 20
63.485
 30
3766.000
 70
    32
  0
VERTEX
  8
E15LXLIFT
 62
1
 10
-855.761
 20
55.288
 30
3766.000
 70
    32
  0
VERTEX
  8
E15LXLIFT
 62
1
 10
-853.463
 20
43.650
 30
3766.000
 70
    32
  0
VERTEX
  8
E15LXLIFT
 62
1
 10
-852.269
 20
32.613
 30
3766.000
 70
    32
  0
VERTEX
  8
E15LXLIFT
 62
1
 10
-848.740
 20
25.061
 30
3766.000
 70
    32
  0
VERTEX
  8
E15LXLIFT
 62
1
 10
-842.754
 20
17.145
 30
3766.000
 70
    32
  0
VERTEX
  8
E15LXLIFT
 62
1
 10
-842.812
 20
15.899
 30
3766.000
 70
    32
  0
VERTEX
  8
E15LXLIFT
 62
1
 10
-843.518
 20
4.327
 30
3766.000
 70
    32
  0
VERTEX
  8
E15LXLIFT
 62
1
 10
-839.962
 20
-8.565
 30
3766.000
 70
    32
  0
VERTEX
  8
E15LXLIFT
 62
1
 10
-834.430
 20
-16.162
 30
3766.000
 70
    32
  0
VERTEX
  8
E15LXLIFT
 62
1
 10
-828.449
 20
-21.566
 30
3766.000
 70
    32
  0
VERTEX
  8
E15LXLIFT
 62
1
 10
-826.598
 20
-31.130
 30
3766.000
 70
    32
  0
VERTEX
  8
E15LXLIFT
 62
1
 10
-825.235
 20
-36.354
 30
3766.000
 70
    32
  0
VERTEX
  8
E15LXLIFT
 62
1
 10
-824.919
 20
-43.557
 30
3766.000
 70
    32
  0
VERTEX
  8
E15LXLIFT
 62
1
 10
-820.391
 20
-55.400
 30
3766.000
 70
    32
  0
SEQEND
  8
E15LXLIFT
  0
POLYLINE
  8
E15LXLIFT
 62
1
 66
     1
 70
     9
  0
VERTEX
  8
E15LXLIFT
 62
1
 10
-836.879
 20
-17.982
 30
3692.000
 70
    32
  0
VERTEX
  8
E15LXLIFT
 62
1
 10
-832.618
 20
-13.999
 30
3692.000
 70
    32
  0
VERTEX
  8
E15LXLIFT
 62
1
 10
-834.359
 20
-6.727
 30
3692.000
 70
    32
  0
VERTEX
  8
E15LXLIFT
 62
1
 10
-836.925
 20
0.473
 30
3692.000
 70
    32
  0
VERTEX
  8
E15LXLIFT
 62
1
 10
-835.854
 20
7.664
 30
3692.000
 70
    32
  0
VERTEX
  8
E15LXLIFT
 62
1
 10
-837.857
 20
14.409
 30
3692.000
 70
    32
  0
VERTEX
  8
E15LXLIFT
 62
1
 10
-839.880
 20
22.348
 30
3692.000
 70
    32
  0
VERTEX
  8
E15LXLIFT
 62
1
 10
-835.937
 20
27.192
 30
3692.000
 70
    32
  0
VERTEX
  8
E15LXLIFT
 62
1
 10
-835.214
 20
33.240
 30
3692.000
 70
    32
  0
VERTEX
  8
E15LXLIFT
 62
1
 10
-836.589
 20
41.779
 30
3692.000
 70
    32
  0
VERTEX
  8
E15LXLIFT
 62
1
 10
-828.963
 20
49.619
 30
3692.000
 70
    32
  0
VERTEX
  8
E15LXLIFT
 62
1
 10
-822.005
 20
50.463
 30
3692.000
 70
    32
  0
VERTEX
  8
E15LXLIFT
 62
1
 10
-818.764
 20
54.777
 30
3692.000
 70
    32
  0
VERTEX
  8
E15LXLIFT
 62
1
 10
-817.066
 20
64.642
 30
3692.000
 70
    32
  0
VERTEX
  8
E15LXLIFT
 62
1
 10
-809.554
 20
61.831
 30
3692.000
 70
    32
  0
VERTEX
  8
E15LXLIFT
 62
1
 10
-806.039
 20
55.125
 30
3692.000
 70
    32
  0
VERTEX
  8
E15LXLIFT
 62
1
 10
-802.518
 20
45.783
 30
3692.000
 70
    32
  0
VERTEX
  8
E15LXLIFT
 62
1
 10
-802.535
 20
38.507
 30
3692.000
 70
    32
  0
VERTEX
  8
E15LXLIFT
 62
1
 10
-807.178
 20
32.695
 30
3692.000
 70
    32
  0
VERTEX
  8
E15LXLIFT
 62
1
 10
-812.506
 20
19.323
 30
3692.000
 70
    32
  0
VERTEX
  8
E15LXLIFT
 62
1
 10
-809.602
 20
10.946
 30
3692.000
 70
    32
  0
VERTEX
  8
E15LXLIFT
 62
1
 10
-811.635
 20
1.380
 30
3692.000
 70
    32
  0
VERTEX
  8
E15LXLIFT
 62
1
 10
-807.469
 20
-5.605
 30
3692.000
 70
    32
  0
VERTEX
  8
E15LXLIFT
 62
1
 10
-808.172
 20
-12.849
 30
3692.000
 70
    32
  0
VERTEX
  8
E15LXLIFT
 62
1
 10
-813.552
 20
-19.436
 30
3692.000
 70
    32
  0
VERTEX
  8
E15LXLIFT
 62
1
 10
-823.023
 20
-20.303
 30
3692.000
 70
    32
  0
SEQEND
  8
E15LXLIFT
  0
POLYLINE
  8
E15LXLIFT
 62
1
 66
     1
 70
     9
  0
VERTEX
  8
E15LXLIFT
 62
1
 10
-774.855
 20
-225.292
 30
3739.000
 70
    32
  0
VERTEX
  8
E15LXLIFT
 62
1
 10
-781.400
 20
-224.498
 30
3739.000
 70
    32
  0
VERTEX
  8
E15LXLIFT
 62
1
 10
-789.130
 20
-225.213
 30
3739.000
 70
    32
  0
VERTEX
  8
E15LXLIFT
 62
1
 10
-797.648
 20
-225.739
 30
3739.000
 70
    32
  0
VERTEX
  8
E15LXLIFT
 62
1
 10
-801.455
 20
-229.474
 30
3739.000
 70
    32
  0
VERTEX
  8
E15LXLIFT
 62
1
 10
-806.096
 20
-233.704
 30
3739.000
 70
    32
  0
VERTEX
  8
E15LXLIFT
 62
1
 10
-813.070
 20
-237.561
 30
3739.000
 70
    32
  0
VERTEX
  8
E15LXLIFT
 62
1
 10
-818.163
 20
-241.468
 30
3739.000
 70
    32
  0
VERTEX
  8
E15LXLIFT
 62
1
 10
-823.691
 20
-246.123
 30
3739.000
 70
    32
  0
VERTEX
  8
E15LXLIFT
 62
1
 10
-828.248
 20
-243.128
 30
3739.000
 70
    32
  0
VERTEX
  8
E15LXLIFT
 62
1
 10
-831.926
 20
-237.002
 30
3739.000
 70
    32
  0
VERTEX
  8
E15LXLIFT
 62
1
 10
-833.576
 20
-231.577
 30
3739.000
 70
    32
  0
VERTEX
  8
E15LXLIFT
 62
1
 10
-829.499
 20
-228.515
 30
3739.000
 70
    32
  0
VERTEX
  8
E15LXLIFT
 62
1
 10
-827.413
 20
-222.554
 30
3739.000
 70
    32
  0
VERTEX
  8
E15LXLIFT
 62
1
 10
-818.532
 20
-221.331
 30
3739.000
 70
    32
  0
VERTEX
  8
E15LXLIFT
 62
1
 10
-810.343
 20
-220.500
 30
3739.000
 70
    32
  0
VERTEX
  8
E15LXLIFT
 62
1
 10
-800.059
 20
-219.563
 30
3739.000
 70
    32
  0
VERTEX
  8
E15LXLIFT
 62
1
 10
-794.829
 20
-214.798
 30
3739.000
 70
    32
  0
VERTEX
  8
E15LXLIFT
 62
1
 10
-788.815
 20
-212.612
 30
3739.000
 70
    32
  0
VERTEX
  8
E15LXLIFT
 62
1
 10
-783.608
 20
-213.508
 30
3739.000
 70
    32
  0
VERTEX
  8
E15LXLIFT
 62
1
 10
-780.736
 20
-212.078
 30
3739.000
 70
    32
  0
SEQEND
  8
E15LXLIFT
  0
POLYLINE
  8
E15LXLIFT
 62
1
 66
     1
 70
     9
  0
VERTEX
  8
E15LXLIFT
 62
1
 10
-679.099
 20
-422.765
 30
3805.000
 70
    32
  0
VERTEX
  8
E15LXLIFT
 62
1
 10
-684.041
 20
-420.694
 30
3805.000
 70
    32
  0
VERTEX
  8
E15LXLIFT
 62
1
 10
-688.639
 20
-422.264
 30
3805.000
 70
    32
  0
VERTEX
  8
E15LXLIFT
 62
1
 10
-691.184
 20
-429.707
 30
3805.000
 70
    32
  0
VERTEX
  8
E15LXLIFT
 62
1
 10
-692.263
 20
-440.851
 30
3805.000
 70
    32
  0
VERTEX
  8
E15LXLIFT
 62
1
 10
-696.746
 20
-448.604
 30
3805.000
 70
    32
  0
VERTEX
  8
E15LXLIFT
 62
1
 10
-702.095
 20
-447.472
 30
3805.000
 70
    32
  0
VERTEX
  8
E15LXLIFT
 62
1
 10
-710.992
 20
-442.297
 30
3805.000
 70
    32
  0
VERTEX
  8
E15LXLIFT
 62
1
 10
-714.992
 20
-432.205
 30
3805.000
 70
    32
  0
VERTEX
  8
E15LXLIFT
 62
1
 10
-717.300
 20
-425.977
 30
3805.000
 70
    32
  0
VERTEX
  8
E15LXLIFT
 62
1
 10
-718.347
 20
-418.194
 30
3805.000
 70
    32
  0
VERTEX
  8
E15LXLIFT
 62
1
 10
-713.091
 20
-413.776
 30
3805.000
 70
    32
  0
VERTEX
  8
E15LXLIFT
 62
1
 10
-714.803
 20
-405.067
 30
3805.000
 70
    32
  0
VERTEX
  8
E15LXLIFT
 62
1
 10
-716.369
 20
-397.765
 30
3805.000
 70
    32
  0
VERTEX
  8
E15LXLIFT
 62
1
 10
-713.064
 20
-387.617
 30
3805.000
 70
    32
  0
VERTEX
  8
E15LXLIFT
 62
1
 10
-707.104
 20
-378.912
 30
3805.000
 70
    32
  0
VERTEX
  8
E15LXLIFT
 62
1
 10
-706.262
 20
-371.503
 30
3805.000
 70
    32
  0
VERTEX
  8
E15LXLIFT
 62
1
 10
-703.153
 20
-365.600
 30
3805.000
 70
    32
  0
VERTEX
  8
E15LXLIFT
 62
1
 10
-697.908
 20
-360.865
 30
3805.000
 70
    32
  0
VERTEX
  8
E15LXLIFT
 62
1
 10
-698.043
 20
-354.805
 30
3805.000
 70
    32
  0
VERTEX
  8
E15LXLIFT
 62
1
 10
-694.440
 20
-350.492
 30
3805.000
 70
    32
  0
VERTEX
  8
E15LXLIFT
 62
1
 10
-694.003
 20
-349.747
 30
3805.000
 70
    32
  0
VERTEX
  8
E15LXLIFT
 62
1
 10
-695.414
 20
-343.414
 30
3805.000
 70
    32
  0
VERTEX
  8
E15LXLIFT
 62
1
 10
-688.796
 20
-341.798
 30
3805.000
 70
    32
  0
VERTEX
  8
E15LXLIFT
 62
1
 10
-680.175
 20
-341.770
 30
3805.000
 70
    32
  0
VERTEX
  8
E15LXLIFT
 62
1
 10
-680.863
 20
-349.393
 30
3805.000
 70
    32
  0
VERTEX
  8
E15LXLIFT
 62
1
 10
-676.012
 20
-356.606
 30
3805.000
 70
    32
  0
VERTEX
  8
E15LXLIFT
 62
1
 10
-673.155
 20
-361.793
 30
3805.000
 70
    32
  0
VERTEX
  8
E15LXLIFT
 62
1
 10
-670.924
 20
-370.022
 30
3805.000
 70
    32
  0
VERTEX
  8
E15LXLIFT
 62
1
 10
-674.296
 20
-377.517
 30
3805.000
 70
    32
  0
VERTEX
  8
E15LXLIFT
 62
1
 10
-670.099
 20
-384.120
 30
3805.000
 70
    32
  0
VERTEX
  8
E15LXLIFT
 62
1
 10
-665.304
 20
-388.997
 30
3805.000
 70
    32
  0
VERTEX
  8
E15LXLIFT
 62
1
 10
-661.761
 20
-394.988
 30
3805.000
 70
    32
  0
VERTEX
  8
E15LXLIFT
 62
1
 10
-661.164
 20
-402.445
 30
3805.000
 70
    32
  0
VERTEX
  8
E15LXLIFT
 62
1
 10
-664.486
 20
-409.257
 30
3805.000
 70
    32
  0
VERTEX
  8
E15LXLIFT
 62
1
 10
-668.911
 20
-415.888
 30
3805.000
 70
    32
  0
SEQEND
  8
E15LXLIFT
  0
POLYLINE
  8
E15LXLIFT
 62
1
 66
     1
 70
     9
  0
VERTEX
  8
E15LXLIFT
 62
1
 10
-725.164
 20
-159.065
 30
3711.000
 70
    32
  0
VERTEX
  8
E15LXLIFT
 62
1
 10
-722.337
 20
-151.270
 30
3711.000
 70
    32
  0
VERTEX
  8
E15LXLIFT
 62
1
 10
-725.474
 20
-142.579
 30
3711.000
 70
    32
  0
VERTEX
  8
E15LXLIFT
 62
1
 10
-719.665
 20
-136.208
 30
3711.000
 70
    32
  0
VERTEX
  8
E15LXLIFT
 62
1
 10
-712.873
 20
-129.995
 30
3711.000
 70
    32
  0
VERTEX
  8
E15LXLIFT
 62
1
 10
-706.322
 20
-124.498
 30
3711.000
 70
    32
  0
VERTEX
  8
E15LXLIFT
 62
1
 10
-704.200
 20
-116.779
 30
3711.000
 70
    32
  0
VERTEX
  8
E15LXLIFT
 62
1
 10
-698.638
 20
-113.517
 30
3711.000
 70
    32
  0
VERTEX
  8
E15LXLIFT
 62
1
 10
-691.284
 20
-112.431
 30
3711.000
 70
    32
  0
VERTEX
  8
E15LXLIFT
 62
1
 10
-686.835
 20
-102.378
 30
3711.000
 70
    32
  0
VERTEX
  8
E15LXLIFT
 62
1
 10
-688.063
 20
-95.128
 30
3711.000
 70
    32
  0
VERTEX
  8
E15LXLIFT
 62
1
 10
-693.333
 20
-81.686
 30
3711.000
 70
    32
  0
VERTEX
  8
E15LXLIFT
 62
1
 10
-698.103
 20
-64.736
 30
3711.000
 70
    32
  0
VERTEX
  8
E15LXLIFT
 62
1
 10
-703.505
 20
-49.762
 30
3711.000
 70
    32
  0
VERTEX
  8
E15LXLIFT
 62
1
 10
-695.007
 20
-50.561
 30
3711.000
 70
    32
  0
VERTEX
  8
E15LXLIFT
 62
1
 10
-683.681
 20
-50.618
 30
3711.000
 70
    32
  0
VERTEX
  8
E15LXLIFT
 62
1
 10
-681.451
 20
-57.903
 30
3711.000
 70
    32
  0
VERTEX
  8
E15LXLIFT
 62
1
 10
-677.526
 20
-71.884
 30
3711.000
 70
    32
  0
VERTEX
  8
E15LXLIFT
 62
1
 10
-675.886
 20
-86.757
 30
3711.000
 70
    32
  0
VERTEX
  8
E15LXLIFT
 62
1
 10
-674.221
 20
-104.216
 30
3711.000
 70
    32
  0
VERTEX
  8
E15LXLIFT
 62
1
 10
-676.995
 20
-121.088
 30
3711.000
 70
    32
  0
VERTEX
  8
E15LXLIFT
 62
1
 10
-681.228
 20
-136.844
 30
3711.000
 70
    32
  0
VERTEX
  8
E15LXLIFT
 62
1
 10
-680.549
 20
-153.388
 30
3711.000
 70
    32
  0
VERTEX
  8
E15LXLIFT
 62
1
 10
-683.817
 20
-166.276
 30
3711.000
 70
    32
  0
VERTEX
  8
E15LXLIFT
 62
1
 10
-682.612
 20
-181.898
 30
3711.000
 70
    32
  0
VERTEX
  8
E15LXLIFT
 62
1
 10
-685.193
 20
-189.733
 30
3711.000
 70
    32
  0
VERTEX
  8
E15LXLIFT
 62
1
 10
-683.603
 20
-194.333
 30
3711.000
 70
    32
  0
VERTEX
  8
E15LXLIFT
 62
1
 10
-684.746
 20
-203.407
 30
3711.000
 70
    32
  0
VERTEX
  8
E15LXLIFT
 62
1
 10
-684.806
 20
-215.928
 30
3711.000
 70
    32
  0
VERTEX
  8
E15LXLIFT
 62
1
 10
-690.762
 20
-216.546
 30
3711.000
 70
    32
  0
VERTEX
  8
E15LXLIFT
 62
1
 10
-698.504
 20
-215.742
 30
3711.000
 70
    32
  0
VERTEX
  8
E15LXLIFT
 62
1
 10
-699.896
 20
-211.866
 30
3711.000
 70
    32
  0
VERTEX
  8
E15LXLIFT
 62
1
 10
-705.165
 20
-209.382
 30
3711.000
 70
    32
  0
VERTEX
  8
E15LXLIFT
 62
1
 10
-712.147
 20
-207.378
 30
3711.000
 70
    32
  0
VERTEX
  8
E15LXLIFT
 62
1
 10
-714.954
 20
-202.897
 30
3711.000
 70
    32
  0
VERTEX
  8
E15LXLIFT
 62
1
 10
-719.350
 20
-195.768
 30
3711.000
 70
    32
  0
VERTEX
  8
E15LXLIFT
 62
1
 10
-723.615
 20
-188.218
 30
3711.000
 70
    32
  0
VERTEX
  8
E15LXLIFT
 62
1
 10
-718.433
 20
-184.580
 30
3711.000
 70
    32
  0
VERTEX
  8
E15LXLIFT
 62
1
 10
-720.289
 20
-180.062
 30
3711.000
 70
    32
  0
VERTEX
  8
E15LXLIFT
 62
1
 10
-722.478
 20
-174.484
 30
3711.000
 70
    32
  0
SEQEND
  8
E15LXLIFT
  0
POLYLINE
  8
E15LXLIFT
 62
1
 66
     1
 70
     9
  0
VERTEX
  8
E15LXLIFT
 62
1
 10
-742.635
 20
-282.810
 30
3730.000
 70
    32
  0
VERTEX
  8
E15LXLIFT
 62
1
 10
-738.213
 20
-291.762
 30
3730.000
 70
    32
  0
VERTEX
  8
E15LXLIFT
 62
1
 10
-733.199
 20
-298.983
 30
3730.000
 70
    32
  0
VERTEX
  8
E15LXLIFT
 62
1
 10
-733.739
 20
-303.932
 30
3730.000
 70
    32
  0
VERTEX
  8
E15LXLIFT
 62
1
 10
-739.583
 20
-308.600
 30
3730.000
 70
    32
  0
VERTEX
  8
E15LXLIFT
 62
1
 10
-746.915
 20
-310.763
 30
3730.000
 70
    32
  0
VERTEX
  8
E15LXLIFT
 62
1
 10
-756.725
 20
-310.706
 30
3730.000
 70
    32
  0
VERTEX
  8
E15LXLIFT
 62
1
 10
-764.640
 20
-306.671
 30
3730.000
 70
    32
  0
VERTEX
  8
E15LXLIFT
 62
1
 10
-765.966
 20
-300.794
 30
3730.000
 70
    32
  0
VERTEX
  8
E15LXLIFT
 62
1
 10
-761.816
 20
-293.338
 30
3730.000
 70
    32
  0
VERTEX
  8
E15LXLIFT
 62
1
 10
-762.303
 20
-287.722
 30
3730.000
 70
    32
  0
VERTEX
  8
E15LXLIFT
 62
1
 10
-767.398
 20
-279.040
 30
3730.000
 70
    32
  0
VERTEX
  8
E15LXLIFT
 62
1
 10
-771.326
 20
-272.118
 30
3730.000
 70
    32
  0
VERTEX
  8
E15LXLIFT
 62
1
 10
-779.040
 20
-267.611
 30
3730.000
 70
    32
  0
VERTEX
  8
E15LXLIFT
 62
1
 10
-779.291
 20
-260.522
 30
3730.000
 70
    32
  0
VERTEX
  8
E15LXLIFT
 62
1
 10
-772.764
 20
-257.097
 30
3730.000
 70
    32
  0
VERTEX
  8
E15LXLIFT
 62
1
 10
-767.481
 20
-258.696
 30
3730.000
 70
    32
  0
VERTEX
  8
E15LXLIFT
 62
1
 10
-761.420
 20
-258.973
 30
3730.000
 70
    32
  0
VERTEX
  8
E15LXLIFT
 62
1
 10
-755.668
 20
-261.970
 30
3730.000
 70
    32
  0
VERTEX
  8
E15LXLIFT
 62
1
 10
-752.059
 20
-266.953
 30
3730.000
 70
    32
  0
SEQEND
  8
E15LXLIFT
  0
POLYLINE
  8
E15LXLIFT
 62
7
 66
     1
 70
     9
  0
VERTEX
  8
E15LXLIFT
 62
7
 10
-557.640
 20
-684.078
 30
3683.000
 70
    32
  0
VERTEX
  8
E15LXLIFT
 62
7
 10
-548.710
 20
-678.872
 30
3683.000
 70
    32
  0
VERTEX
  8
E15LXLIFT
 62
7
 10
-546.069
 20
-682.494
 30
3683.000
 70
    32
  0
VERTEX
  8
E15LXLIFT
 62
7
 10
-539.334
 20
-695.311
 30
3683.000
 70
    32
  0
VERTEX
  8
E15LXLIFT
 62
7
 10
-531.403
 20
-708.127
 30
3683.000
 70
    32
  0
VERTEX
  8
E15LXLIFT
 62
7
 10
-525.386
 20
-719.511
 30
3683.000
 70
    32
  0
VERTEX
  8
E15LXLIFT
 62
7
 10
-524.696
 20
-733.583
 30
3683.000
 70
    32
  0
VERTEX
  8
E15LXLIFT
 62
7
 10
-525.930
 20
-749.493
 30
3683.000
 70
    32
  0
VERTEX
  8
E15LXLIFT
 62
7
 10
-525.710
 20
-765.756
 30
3683.000
 70
    32
  0
VERTEX
  8
E15LXLIFT
 62
7
 10
-521.792
 20
-782.912
 30
3683.000
 70
    32
  0
VERTEX
  8
E15LXLIFT
 62
7
 10
-518.210
 20
-794.984
 30
3683.000
 70
    32
  0
VERTEX
  8
E15LXLIFT
 62
7
 10
-514.688
 20
-806.229
 30
3683.000
 70
    32
  0
VERTEX
  8
E15LXLIFT
 62
7
 10
-520.648
 20
-808.944
 30
3683.000
 70
    32
  0
VERTEX
  8
E15LXLIFT
 62
7
 10
-526.368
 20
-813.331
 30
3683.000
 70
    32
  0
VERTEX
  8
E15LXLIFT
 62
7
 10
-532.254
 20
-813.164
 30
3683.000
 70
    32
  0
VERTEX
  8
E15LXLIFT
 62
7
 10
-539.570
 20
-806.861
 30
3683.000
 70
    32
  0
VERTEX
  8
E15LXLIFT
 62
7
 10
-546.229
 20
-793.552
 30
3683.000
 70
    32
  0
VERTEX
  8
E15LXLIFT
 62
7
 10
-554.129
 20
-779.735
 30
3683.000
 70
    32
  0
VERTEX
  8
E15LXLIFT
 62
7
 10
-562.625
 20
-769.723
 30
3683.000
 70
    32
  0
VERTEX
  8
E15LXLIFT
 62
7
 10
-570.344
 20
-760.778
 30
3683.000
 70
    32
  0
VERTEX
  8
E15LXLIFT
 62
7
 10
-568.745
 20
-752.977
 30
3683.000
 70
    32
  0
VERTEX
  8
E15LXLIFT
 62
7
 10
-563.686
 20
-747.982
 30
3683.000
 70
    32
  0
VERTEX
  8
E15LXLIFT
 62
7
 10
-555.916
 20
-745.362
 30
3683.000
 70
    32
  0
VERTEX
  8
E15LXLIFT
 62
7
 10
-555.539
 20
-736.930
 30
3683.000
 70
    32
  0
VERTEX
  8
E15LXLIFT
 62
7
 10
-557.233
 20
-725.657
 30
3683.000
 70
    32
  0
VERTEX
  8
E15LXLIFT
 62
7
 10
-560.196
 20
-712.046
 30
3683.000
 70
    32
  0
VERTEX
  8
E15LXLIFT
 62
7
 10
-565.090
 20
-699.517
 30
3683.000
 70
    32
  0
VERTEX
  8
E15LXLIFT
 62
7
 10
-570.237
 20
-686.194
 30
3683.000
 70
    32
  0
SEQEND
  8
E15LXLIFT
  0
POLYLINE
  8
E15LXLIFT
 62
11
 66
     1
 70
     9
  0
VERTEX
  8
E15LXLIFT
 62
11
 10
-616.798
 20
-641.728
 30
3704.000
 70
    32
  0
VERTEX
  8
E15LXLIFT
 62
11
 10
-611.865
 20
-643.135
 30
3704.000
 70
    32
  0
VERTEX
  8
E15LXLIFT
 62
11
 10
-606.397
 20
-643.936
 30
3704.000
 70
    32
  0
VERTEX
  8
E15LXLIFT
 62
11
 10
-601.297
 20
-647.067
 30
3704.000
 70
    32
  0
VERTEX
  8
E15LXLIFT
 62
11
 10
-593.821
 20
-646.299
 30
3704.000
 70
    32
  0
VERTEX
  8
E15LXLIFT
 62
11
 10
-585.544
 20
-644.840
 30
3704.000
 70
    32
  0
VERTEX
  8
E15LXLIFT
 62
11
 10
-578.772
 20
-652.510
 30
3704.000
 70
    32
  0
VERTEX
  8
E15LXLIFT
 62
11
 10
-575.228
 20
-659.921
 30
3704.000
 70
    32
  0
VERTEX
  8
E15LXLIFT
 62
11
 10
-574.582
 20
-667.378
 30
3704.000
 70
    32
  0
VERTEX
  8
E15LXLIFT
 62
11
 10
-576.500
 20
-671.161
 30
3704.000
 70
    32
  0
VERTEX
  8
E15LXLIFT
 62
11
 10
-582.943
 20
-673.350
 30
3704.000
 70
    32
  0
VERTEX
  8
E15LXLIFT
 62
11
 10
-583.911
 20
-681.872
 30
3704.000
 70
    32
  0
VERTEX
  8
E15LXLIFT
 62
11
 10
-588.534
 20
-690.445
 30
3704.000
 70
    32
  0
VERTEX
  8
E15LXLIFT
 62
11
 10
-588.986
 20
-694.900
 30
3704.000
 70
    32
  0
VERTEX
  8
E15LXLIFT
 62
11
 10
-593.996
 20
-697.566
 30
3704.000
 70
    32
  0
VERTEX
  8
E15LXLIFT
 62
11
 10
-597.172
 20
-700.962
 30
3704.000
 70
    32
  0
VERTEX
  8
E15LXLIFT
 62
11
 10
-602.137
 20
-698.166
 30
3704.000
 70
    32
  0
VERTEX
  8
E15LXLIFT
 62
11
 10
-607.779
 20
-698.470
 30
3704.000
 70
    32
  0
VERTEX
  8
E15LXLIFT
 62
11
 10
-612.099
 20
-694.770
 30
3704.000
 70
    32
  0
VERTEX
  8
E15LXLIFT
 62
11
 10
-617.296
 20
-694.641
 30
3704.000
 70
    32
  0
VERTEX
  8
E15LXLIFT
 62
11
 10
-625.288
 20
-692.311
 30
3704.000
 70
    32
  0
VERTEX
  8
E15LXLIFT
 62
11
 10
-628.871
 20
-685.144
 30
3704.000
 70
    32
  0
VERTEX
  8
E15LXLIFT
 62
11
 10
-633.300
 20
-680.548
 30
3704.000
 70
    32
  0
VERTEX
  8
E15LXLIFT
 62
11
 10
-633.145
 20
-672.400
 30
3704.000
 70
    32
  0
VERTEX
  8
E15LXLIFT
 62
11
 10
-639.859
 20
-666.751
 30
3704.000
 70
    32
  0
VERTEX
  8
E15LXLIFT
 62
11
 10
-642.906
 20
-657.783
 30
3704.000
 70
    32
  0
VERTEX
  8
E15LXLIFT
 62
11
 10
-650.343
 20
-651.140
 30
3704.000
 70
    32
  0
VERTEX
  8
E15LXLIFT
 62
11
 10
-654.178
 20
-641.985
 30
3704.000
 70
    32
  0
VERTEX
  8
E15LXLIFT
 62
11
 10
-655.553
 20
-631.585
 30
3704.000
 70
    32
  0
VERTEX
  8
E15LXLIFT
 62
11
 10
-657.264
 20
-622.514
 30
3704.000
 70
    32
  0
VERTEX
  8
E15LXLIFT
 62
11
 10
-660.389
 20
-616.426
 30
3704.000
 70
    32
  0
VERTEX
  8
E15LXLIFT
 62
11
 10
-667.748
 20
-611.681
 30
3704.000
 70
    32
  0
VERTEX
  8
E15LXLIFT
 62
11
 10
-674.559
 20
-605.451
 30
3704.000
 70
    32
  0
VERTEX
  8
E15LXLIFT
 62
11
 10
-681.493
 20
-600.395
 30
3704.000
 70
    32
  0
VERTEX
  8
E15LXLIFT
 62
11
 10
-686.064
 20
-595.902
 30
3704.000
 70
    32
  0
VERTEX
  8
E15LXLIFT
 62
11
 10
-677.600
 20
-591.267
 30
3704.000
 70
    32
  0
VERTEX
  8
E15LXLIFT
 62
11
 10
-670.492
 20
-588.052
 30
3704.000
 70
    32
  0
VERTEX
  8
E15LXLIFT
 62
11
 10
-659.923
 20
-586.012
 30
3704.000
 70
    32
  0
VERTEX
  8
E15LXLIFT
 62
11
 10
-652.589
 20
-591.319
 30
3704.000
 70
    32
  0
VERTEX
  8
E15LXLIFT
 62
11
 10
-644.332
 20
-597.148
 30
3704.000
 70
    32
  0
VERTEX
  8
E15LXLIFT
 62
11
 10
-640.407
 20
-602.546
 30
3704.000
 70
    32
  0
VERTEX
  8
E15LXLIFT
 62
11
 10
-641.227
 20
-608.137
 30
3704.000
 70
    32
  0
VERTEX
  8
E15LXLIFT
 62
11
 10
-636.424
 20
-614.741
 30
3704.000
 70
    32
  0
VERTEX
  8
E15LXLIFT
 62
11
 10
-634.687
 20
-624.445
 30
3704.000
 70
    32
  0
VERTEX
  8
E15LXLIFT
 62
11
 10
-632.699
 20
-632.553
 30
3704.000
 70
    32
  0
VERTEX
  8
E15LXLIFT
 62
11
 10
-628.896
 20
-631.960
 30
3704.000
 70
    32
  0
SEQEND
  8
E15LXLIFT
  0
POLYLINE
  8
E15LXLIFT
 62
11
 66
     1
 70
     9
  0
VERTEX
  8
E15LXLIFT
 62
11
 10
-617.611
 20
-632.730
 30
3716.000
 70
    32
  0
VERTEX
  8
E15LXLIFT
 62
11
 10
-612.244
 20
-641.971
 30
3716.000
 70
    32
  0
VERTEX
  8
E15LXLIFT
 62
11
 10
-604.772
 20
-648.143
 30
3716.000
 70
    32
  0
VERTEX
  8
E15LXLIFT
 62
11
 10
-595.554
 20
-655.212
 30
3716.000
 70
    32
  0
VERTEX
  8
E15LXLIFT
 62
11
 10
-586.426
 20
-660.821
 30
3716.000
 70
    32
  0
VERTEX
  8
E15LXLIFT
 62
11
 10
-583.370
 20
-664.242
 30
3716.000
 70
    32
  0
VERTEX
  8
E15LXLIFT
 62
11
 10
-581.741
 20
-674.921
 30
3716.000
 70
    32
  0
VERTEX
  8
E15LXLIFT
 62
11
 10
-576.327
 20
-684.672
 30
3716.000
 70
    32
  0
VERTEX
  8
E15LXLIFT
 62
11
 10
-572.144
 20
-696.308
 30
3716.000
 70
    32
  0
VERTEX
  8
E15LXLIFT
 62
11
 10
-571.715
 20
-705.797
 30
3716.000
 70
    32
  0
VERTEX
  8
E15LXLIFT
 62
11
 10
-572.802
 20
-714.111
 30
3716.000
 70
    32
  0
VERTEX
  8
E15LXLIFT
 62
11
 10
-571.579
 20
-724.978
 30
3716.000
 70
    32
  0
VERTEX
  8
E15LXLIFT
 62
11
 10
-568.015
 20
-735.325
 30
3716.000
 70
    32
  0
VERTEX
  8
E15LXLIFT
 62
11
 10
-574.798
 20
-738.996
 30
3716.000
 70
    32
  0
VERTEX
  8
E15LXLIFT
 62
11
 10
-584.747
 20
-734.643
 30
3716.000
 70
    32
  0
VERTEX
  8
E15LXLIFT
 62
11
 10
-593.616
 20
-737.994
 30
3716.000
 70
    32
  0
VERTEX
  8
E15LXLIFT
 62
11
 10
-596.625
 20
-745.322
 30
3716.000
 70
    32
  0
VERTEX
  8
E15LXLIFT
 62
11
 10
-608.297
 20
-742.778
 30
3716.000
 70
    32
  0
VERTEX
  8
E15LXLIFT
 62
11
 10
-606.342
 20
-732.084
 30
3716.000
 70
    32
  0
VERTEX
  8
E15LXLIFT
 62
11
 10
-608.107
 20
-722.704
 30
3716.000
 70
    32
  0
VERTEX
  8
E15LXLIFT
 62
11
 10
-608.989
 20
-712.894
 30
3716.000
 70
    32
  0
VERTEX
  8
E15LXLIFT
 62
11
 10
-606.598
 20
-707.544
 30
3716.000
 70
    32
  0
VERTEX
  8
E15LXLIFT
 62
11
 10
-614.040
 20
-702.005
 30
3716.000
 70
    32
  0
VERTEX
  8
E15LXLIFT
 62
11
 10
-612.879
 20
-689.933
 30
3716.000
 70
    32
  0
VERTEX
  8
E15LXLIFT
 62
11
 10
-616.668
 20
-684.326
 30
3716.000
 70
    32
  0
VERTEX
  8
E15LXLIFT
 62
11
 10
-623.565
 20
-685.466
 30
3716.000
 70
    32
  0
VERTEX
  8
E15LXLIFT
 62
11
 10
-635.843
 20
-678.683
 30
3716.000
 70
    32
  0
VERTEX
  8
E15LXLIFT
 62
11
 10
-638.876
 20
-673.066
 30
3716.000
 70
    32
  0
VERTEX
  8
E15LXLIFT
 62
11
 10
-640.673
 20
-665.126
 30
3716.000
 70
    32
  0
VERTEX
  8
E15LXLIFT
 62
11
 10
-647.311
 20
-654.747
 30
3716.000
 70
    32
  0
VERTEX
  8
E15LXLIFT
 62
11
 10
-653.142
 20
-642.796
 30
3716.000
 70
    32
  0
VERTEX
  8
E15LXLIFT
 62
11
 10
-656.089
 20
-628.837
 30
3716.000
 70
    32
  0
VERTEX
  8
E15LXLIFT
 62
11
 10
-658.400
 20
-621.384
 30
3716.000
 70
    32
  0
VERTEX
  8
E15LXLIFT
 62
11
 10
-670.429
 20
-610.932
 30
3716.000
 70
    32
  0
VERTEX
  8
E15LXLIFT
 62
11
 10
-680.414
 20
-599.851
 30
3716.000
 70
    32
  0
VERTEX
  8
E15LXLIFT
 62
11
 10
-683.343
 20
-596.009
 30
3716.000
 70
    32
  0
VERTEX
  8
E15LXLIFT
 62
11
 10
-677.256
 20
-588.274
 30
3716.000
 70
    32
  0
VERTEX
  8
E15LXLIFT
 62
11
 10
-682.223
 20
-576.015
 30
3716.000
 70
    32
  0
VERTEX
  8
E15LXLIFT
 62
11
 10
-686.020
 20
-562.680
 30
3716.000
 70
    32
  0
VERTEX
  8
E15LXLIFT
 62
11
 10
-681.648
 20
-562.848
 30
3716.000
 70
    32
  0
VERTEX
  8
E15LXLIFT
 62
11
 10
-674.662
 20
-561.533
 30
3716.000
 70
    32
  0
VERTEX
  8
E15LXLIFT
 62
11
 10
-670.124
 20
-574.542
 30
3716.000
 70
    32
  0
VERTEX
  8
E15LXLIFT
 62
11
 10
-665.106
 20
-585.238
 30
3716.000
 70
    32
  0
VERTEX
  8
E15LXLIFT
 62
11
 10
-659.152
 20
-585.334
 30
3716.000
 70
    32
  0
VERTEX
  8
E15LXLIFT
 62
11
 10
-654.443
 20
-591.899
 30
3716.000
 70
    32
  0
VERTEX
  8
E15LXLIFT
 62
11
 10
-646.062
 20
-593.373
 30
3716.000
 70
    32
  0
VERTEX
  8
E15LXLIFT
 62
11
 10
-643.824
 20
-604.585
 30
3716.000
 70
    32
  0
VERTEX
  8
E15LXLIFT
 62
11
 10
-642.123
 20
-608.238
 30
3716.000
 70
    32
  0
VERTEX
  8
E15LXLIFT
 62
11
 10
-638.393
 20
-609.313
 30
3716.000
 70
    32
  0
VERTEX
  8
E15LXLIFT
 62
11
 10
-639.335
 20
-615.451
 30
3716.000
 70
    32
  0
VERTEX
  8
E15LXLIFT
 62
11
 10
-635.946
 20
-624.075
 30
3716.000
 70
    32
  0
VERTEX
  8
E15LXLIFT
 62
11
 10
-633.654
 20
-630.017
 30
3716.000
 70
    32
  0
VERTEX
  8
E15LXLIFT
 62
11
 10
-628.339
 20
-627.315
 30
3716.000
 70
    32
  0
SEQEND
  8
E15LXLIFT
  0
POLYLINE
  8
E15LXLIFT
 62
6
 66
     1
 70
     9
  0
VERTEX
  8
E15LXLIFT
 62
6
 10
-466.837
 20
-676.534
 30
3703.000
 70
    32
  0
VERTEX
  8
E15LXLIFT
 62
6
 10
-471.119
 20
-681.652
 30
3703.000
 70
    32
  0
VERTEX
  8
E15LXLIFT
 62
6
 10
-474.386
 20
-682.142
 30
3703.000
 70
    32
  0
VERTEX
  8
E15LXLIFT
 62
6
 10
-475.622
 20
-692.009
 30
3703.000
 70
    32
  0
VERTEX
  8
E15LXLIFT
 62
6
 10
-478.031
 20
-706.733
 30
3703.000
 70
    32
  0
VERTEX
  8
E15LXLIFT
 62
6
 10
-479.042
 20
-715.879
 30
3703.000
 70
    32
  0
VERTEX
  8
E15LXLIFT
 62
6
 10
-477.166
 20
-725.924
 30
3703.000
 70
    32
  0
VERTEX
  8
E15LXLIFT
 62
6
 10
-472.686
 20
-736.643
 30
3703.000
 70
    32
  0
VERTEX
  8
E15LXLIFT
 62
6
 10
-473.294
 20
-749.232
 30
3703.000
 70
    32
  0
VERTEX
  8
E15LXLIFT
 62
6
 10
-468.699
 20
-761.848
 30
3703.000
 70
    32
  0
VERTEX
  8
E15LXLIFT
 62
6
 10
-462.641
 20
-771.593
 30
3703.000
 70
    32
  0
VERTEX
  8
E15LXLIFT
 62
6
 10
-461.292
 20
-778.178
 30
3703.000
 70
    32
  0
VERTEX
  8
E15LXLIFT
 62
6
 10
-466.531
 20
-781.595
 30
3703.000
 70
    32
  0
VERTEX
  8
E15LXLIFT
 62
6
 10
-472.581
 20
-780.886
 30
3703.000
 70
    32
  0
VERTEX
  8
E15LXLIFT
 62
6
 10
-477.085
 20
-768.972
 30
3703.000
 70
    32
  0
VERTEX
  8
E15LXLIFT
 62
6
 10
-481.570
 20
-761.013
 30
3703.000
 70
    32
  0
VERTEX
  8
E15LXLIFT
 62
6
 10
-485.423
 20
-756.654
 30
3703.000
 70
    32
  0
VERTEX
  8
E15LXLIFT
 62
6
 10
-487.152
 20
-747.821
 30
3703.000
 70
    32
  0
VERTEX
  8
E15LXLIFT
 62
6
 10
-490.835
 20
-738.592
 30
3703.000
 70
    32
  0
VERTEX
  8
E15LXLIFT
 62
6
 10
-495.049
 20
-724.585
 30
3703.000
 70
    32
  0
VERTEX
  8
E15LXLIFT
 62
6
 10
-499.037
 20
-713.935
 30
3703.000
 70
    32
  0
VERTEX
  8
E15LXLIFT
 62
6
 10
-502.868
 20
-703.055
 30
3703.000
 70
    32
  0
VERTEX
  8
E15LXLIFT
 62
6
 10
-502.003
 20
-692.697
 30
3703.000
 70
    32
  0
VERTEX
  8
E15LXLIFT
 62
6
 10
-494.509
 20
-686.580
 30
3703.000
 70
    32
  0
VERTEX
  8
E15LXLIFT
 62
6
 10
-487.788
 20
-680.606
 30
3703.000
 70
    32
  0
VERTEX
  8
E15LXLIFT
 62
6
 10
-487.045
 20
-659.316
 30
3703.000
 70
    32
  0
SEQEND
  8
E15LXLIFT
  0
POLYLINE
  8
E15LXLIFT
 62
3
 66
     1
 70
     9
  0
VERTEX
  8
E15LXLIFT
 62
3
 10
-85.891
 20
-1443.227
 30
3718.000
 70
    32
  0
VERTEX
  8
E15LXLIFT
 62
3
 10
-90.632
 20
-1448.031
 30
3718.000
 70
    32
  0
VERTEX
  8
E15LXLIFT
 62
3
 10
-92.188
 20
-1453.399
 30
3718.000
 70
    32
  0
VERTEX
  8
E15LXLIFT
 62
3
 10
-84.640
 20
-1462.346
 30
3718.000
 70
    32
  0
VERTEX
  8
E15LXLIFT
 62
3
 10
-82.855
 20
-1468.050
 30
3718.000
 70
    32
  0
VERTEX
  8
E15LXLIFT
 62
3
 10
-81.427
 20
-1479.979
 30
3718.000
 70
    32
  0
VERTEX
  8
E15LXLIFT
 62
3
 10
-79.981
 20
-1492.223
 30
3718.000
 70
    32
  0
VERTEX
  8
E15LXLIFT
 62
3
 10
-75.341
 20
-1499.514
 30
3718.000
 70
    32
  0
VERTEX
  8
E15LXLIFT
 62
3
 10
-62.301
 20
-1510.034
 30
3718.000
 70
    32
  0
VERTEX
  8
E15LXLIFT
 62
3
 10
-52.137
 20
-1518.212
 30
3718.000
 70
    32
  0
VERTEX
  8
E15LXLIFT
 62
3
 10
-54.498
 20
-1524.411
 30
3718.000
 70
    32
  0
VERTEX
  8
E15LXLIFT
 62
3
 10
-50.520
 20
-1529.226
 30
3718.000
 70
    32
  0
VERTEX
  8
E15LXLIFT
 62
3
 10
-57.246
 20
-1534.320
 30
3718.000
 70
    32
  0
VERTEX
  8
E15LXLIFT
 62
3
 10
-66.950
 20
-1537.811
 30
3718.000
 70
    32
  0
VERTEX
  8
E15LXLIFT
 62
3
 10
-71.822
 20
-1537.201
 30
3718.000
 70
    32
  0
VERTEX
  8
E15LXLIFT
 62
3
 10
-77.307
 20
-1529.669
 30
3718.000
 70
    32
  0
VERTEX
  8
E15LXLIFT
 62
3
 10
-81.544
 20
-1529.461
 30
3718.000
 70
    32
  0
VERTEX
  8
E15LXLIFT
 62
3
 10
-85.766
 20
-1521.412
 30
3718.000
 70
    32
  0
VERTEX
  8
E15LXLIFT
 62
3
 10
-87.527
 20
-1516.903
 30
3718.000
 70
    32
  0
VERTEX
  8
E15LXLIFT
 62
3
 10
-94.649
 20
-1508.957
 30
3718.000
 70
    32
  0
VERTEX
  8
E15LXLIFT
 62
3
 10
-100.408
 20
-1499.316
 30
3718.000
 70
    32
  0
VERTEX
  8
E15LXLIFT
 62
3
 10
-103.825
 20
-1490.438
 30
3718.000
 70
    32
  0
VERTEX
  8
E15LXLIFT
 62
3
 10
-103.140
 20
-1482.754
 30
3718.000
 70
    32
  0
VERTEX
  8
E15LXLIFT
 62
3
 10
-107.755
 20
-1477.098
 30
3718.000
 70
    32
  0
VERTEX
  8
E15LXLIFT
 62
3
 10
-113.306
 20
-1474.136
 30
3718.000
 70
    32
  0
VERTEX
  8
E15LXLIFT
 62
3
 10
-118.316
 20
-1474.072
 30
3718.000
 70
    32
  0
VERTEX
  8
E15LXLIFT
 62
3
 10
-125.217
 20
-1468.163
 30
3718.000
 70
    32
  0
VERTEX
  8
E15LXLIFT
 62
3
 10
-133.494
 20
-1464.951
 30
3718.000
 70
    32
  0
VERTEX
  8
E15LXLIFT
 62
3
 10
-140.354
 20
-1456.476
 30
3718.000
 70
    32
  0
VERTEX
  8
E15LXLIFT
 62
3
 10
-145.686
 20
-1447.835
 30
3718.000
 70
    32
  0
VERTEX
  8
E15LXLIFT
 62
3
 10
-149.734
 20
-1443.073
 30
3718.000
 70
    32
  0
VERTEX
  8
E15LXLIFT
 62
3
 10
-143.794
 20
-1439.125
 30
3718.000
 70
    32
  0
VERTEX
  8
E15LXLIFT
 62
3
 10
-134.881
 20
-1446.817
 30
3718.000
 70
    32
  0
VERTEX
  8
E15LXLIFT
 62
3
 10
-128.534
 20
-1454.468
 30
3718.000
 70
    32
  0
VERTEX
  8
E15LXLIFT
 62
3
 10
-120.737
 20
-1460.250
 30
3718.000
 70
    32
  0
VERTEX
  8
E15LXLIFT
 62
3
 10
-112.670
 20
-1463.621
 30
3718.000
 70
    32
  0
VERTEX
  8
E15LXLIFT
 62
3
 10
-106.701
 20
-1462.187
 30
3718.000
 70
    32
  0
VERTEX
  8
E15LXLIFT
 62
3
 10
-111.307
 20
-1451.012
 30
3718.000
 70
    32
  0
VERTEX
  8
E15LXLIFT
 62
3
 10
-109.379
 20
-1446.133
 30
3718.000
 70
    32
  0
VERTEX
  8
E15LXLIFT
 62
3
 10
-113.206
 20
-1439.771
 30
3718.000
 70
    32
  0
VERTEX
  8
E15LXLIFT
 62
3
 10
-120.851
 20
-1432.442
 30
3718.000
 70
    32
  0
VERTEX
  8
E15LXLIFT
 62
3
 10
-125.008
 20
-1427.101
 30
3718.000
 70
    32
  0
VERTEX
  8
E15LXLIFT
 62
3
 10
-123.638
 20
-1423.086
 30
3718.000
 70
    32
  0
VERTEX
  8
E15LXLIFT
 62
3
 10
-117.477
 20
-1421.176
 30
3718.000
 70
    32
  0
VERTEX
  8
E15LXLIFT
 62
3
 10
-111.395
 20
-1417.562
 30
3718.000
 70
    32
  0
VERTEX
  8
E15LXLIFT
 62
3
 10
-110.639
 20
-1410.263
 30
3718.000
 70
    32
  0
VERTEX
  8
E15LXLIFT
 62
3
 10
-105.350
 20
-1406.037
 30
3718.000
 70
    32
  0
VERTEX
  8
E15LXLIFT
 62
3
 10
-100.124
 20
-1410.899
 30
3718.000
 70
    32
  0
VERTEX
  8
E15LXLIFT
 62
3
 10
-96.586
 20
-1419.355
 30
3718.000
 70
    32
  0
VERTEX
  8
E15LXLIFT
 62
3
 10
-93.071
 20
-1426.615
 30
3718.000
 70
    32
  0
VERTEX
  8
E15LXLIFT
 62
3
 10
-89.427
 20
-1431.572
 30
3718.000
 70
    32
  0
SEQEND
  8
E15LXLIFT
  0
POLYLINE
  8
E15LXLIFT
 62
27
 66
     1
 70
     9
  0
VERTEX
  8
E15LXLIFT
 62
27
 10
-217.808
 20
-1262.661
 30
3733.000
 70
    32
  0
VERTEX
  8
E15LXLIFT
 62
27
 10
-190.842
 20
-1281.377
 30
3733.000
 70
    32
  0
VERTEX
  8
E15LXLIFT
 62
27
 10
-180.561
 20
-1277.338
 30
3733.000
 70
    32
  0
VERTEX
  8
E15LXLIFT
 62
27
 10
-168.594
 20
-1272.904
 30
3733.000
 70
    32
  0
VERTEX
  8
E15LXLIFT
 62
27
 10
-166.200
 20
-1281.014
 30
3733.000
 70
    32
  0
VERTEX
  8
E15LXLIFT
 62
27
 10
-160.042
 20
-1285.941
 30
3733.000
 70
    32
  0
VERTEX
  8
E15LXLIFT
 62
27
 10
-153.024
 20
-1286.910
 30
3733.000
 70
    32
  0
VERTEX
  8
E15LXLIFT
 62
27
 10
-155.589
 20
-1294.586
 30
3733.000
 70
    32
  0
VERTEX
  8
E15LXLIFT
 62
27
 10
-157.944
 20
-1302.103
 30
3733.000
 70
    32
  0
VERTEX
  8
E15LXLIFT
 62
27
 10
-146.125
 20
-1314.650
 30
3733.000
 70
    32
  0
VERTEX
  8
E15LXLIFT
 62
27
 10
-135.231
 20
-1324.811
 30
3733.000
 70
    32
  0
VERTEX
  8
E15LXLIFT
 62
27
 10
-133.861
 20
-1335.791
 30
3733.000
 70
    32
  0
VERTEX
  8
E15LXLIFT
 62
27
 10
-139.790
 20
-1341.936
 30
3733.000
 70
    32
  0
VERTEX
  8
E15LXLIFT
 62
27
 10
-142.731
 20
-1351.881
 30
3733.000
 70
    32
  0
VERTEX
  8
E15LXLIFT
 62
27
 10
-143.382
 20
-1362.959
 30
3733.000
 70
    32
  0
VERTEX
  8
E15LXLIFT
 62
27
 10
-140.646
 20
-1372.684
 30
3733.000
 70
    32
  0
VERTEX
  8
E15LXLIFT
 62
27
 10
-145.672
 20
-1376.821
 30
3733.000
 70
    32
  0
VERTEX
  8
E15LXLIFT
 62
27
 10
-145.575
 20
-1386.119
 30
3733.000
 70
    32
  0
VERTEX
  8
E15LXLIFT
 62
27
 10
-152.141
 20
-1387.785
 30
3733.000
 70
    32
  0
VERTEX
  8
E15LXLIFT
 62
27
 10
-164.273
 20
-1390.690
 30
3733.000
 70
    32
  0
VERTEX
  8
E15LXLIFT
 62
27
 10
-168.000
 20
-1379.511
 30
3733.000
 70
    32
  0
VERTEX
  8
E15LXLIFT
 62
27
 10
-170.349
 20
-1366.075
 30
3733.000
 70
    32
  0
VERTEX
  8
E15LXLIFT
 62
27
 10
-173.492
 20
-1352.027
 30
3733.000
 70
    32
  0
VERTEX
  8
E15LXLIFT
 62
27
 10
-175.962
 20
-1339.014
 30
3733.000
 70
    32
  0
VERTEX
  8
E15LXLIFT
 62
27
 10
-175.834
 20
-1332.633
 30
3733.000
 70
    32
  0
VERTEX
  8
E15LXLIFT
 62
27
 10
-174.281
 20
-1319.108
 30
3733.000
 70
    32
  0
VERTEX
  8
E15LXLIFT
 62
27
 10
-173.649
 20
-1307.715
 30
3733.000
 70
    32
  0
VERTEX
  8
E15LXLIFT
 62
27
 10
-180.733
 20
-1296.762
 30
3733.000
 70
    32
  0
VERTEX
  8
E15LXLIFT
 62
27
 10
-188.262
 20
-1291.771
 30
3733.000
 70
    32
  0
VERTEX
  8
E15LXLIFT
 62
27
 10
-194.493
 20
-1293.734
 30
3733.000
 70
    32
  0
VERTEX
  8
E15LXLIFT
 62
27
 10
-198.076
 20
-1297.882
 30
3733.000
 70
    32
  0
VERTEX
  8
E15LXLIFT
 62
27
 10
-190.807
 20
-1311.118
 30
3733.000
 70
    32
  0
VERTEX
  8
E15LXLIFT
 62
27
 10
-203.621
 20
-1318.509
 30
3733.000
 70
    32
  0
VERTEX
  8
E15LXLIFT
 62
27
 10
-214.776
 20
-1308.877
 30
3733.000
 70
    32
  0
VERTEX
  8
E15LXLIFT
 62
27
 10
-222.010
 20
-1303.110
 30
3733.000
 70
    32
  0
VERTEX
  8
E15LXLIFT
 62
27
 10
-226.153
 20
-1293.128
 30
3733.000
 70
    32
  0
VERTEX
  8
E15LXLIFT
 62
27
 10
-226.204
 20
-1267.588
 30
3733.000
 70
    32
  0
SEQEND
  8
E15LXLIFT
  0
POLYLINE
  8
E15LXLIFT
 62
11
 66
     1
 70
     9
  0
VERTEX
  8
E15LXLIFT
 62
11
 10
-614.921
 20
-624.066
 30
3728.000
 70
    32
  0
VERTEX
  8
E15LXLIFT
 62
11
 10
-610.327
 20
-630.181
 30
3728.000
 70
    32
  0
VERTEX
  8
E15LXLIFT
 62
11
 10
-609.183
 20
-636.646
 30
3728.000
 70
    32
  0
VERTEX
  8
E15LXLIFT
 62
11
 10
-611.815
 20
-642.718
 30
3728.000
 70
    32
  0
VERTEX
  8
E15LXLIFT
 62
11
 10
-607.983
 20
-652.552
 30
3728.000
 70
    32
  0
VERTEX
  8
E15LXLIFT
 62
11
 10
-602.973
 20
-664.138
 30
3728.000
 70
    32
  0
VERTEX
  8
E15LXLIFT
 62
11
 10
-597.732
 20
-675.446
 30
3728.000
 70
    32
  0
VERTEX
  8
E15LXLIFT
 62
11
 10
-594.004
 20
-686.773
 30
3728.000
 70
    32
  0
VERTEX
  8
E15LXLIFT
 62
11
 10
-596.730
 20
-696.730
 30
3728.000
 70
    32
  0
VERTEX
  8
E15LXLIFT
 62
11
 10
-597.906
 20
-706.422
 30
3728.000
 70
    32
  0
VERTEX
  8
E15LXLIFT
 62
11
 10
-597.594
 20
-713.387
 30
3728.000
 70
    32
  0
VERTEX
  8
E15LXLIFT
 62
11
 10
-604.692
 20
-714.559
 30
3728.000
 70
    32
  0
VERTEX
  8
E15LXLIFT
 62
11
 10
-611.346
 20
-710.392
 30
3728.000
 70
    32
  0
VERTEX
  8
E15LXLIFT
 62
11
 10
-614.006
 20
-701.116
 30
3728.000
 70
    32
  0
VERTEX
  8
E15LXLIFT
 62
11
 10
-613.647
 20
-693.876
 30
3728.000
 70
    32
  0
VERTEX
  8
E15LXLIFT
 62
11
 10
-620.433
 20
-687.298
 30
3728.000
 70
    32
  0
VERTEX
  8
E15LXLIFT
 62
11
 10
-629.058
 20
-679.998
 30
3728.000
 70
    32
  0
VERTEX
  8
E15LXLIFT
 62
11
 10
-635.395
 20
-675.816
 30
3728.000
 70
    32
  0
VERTEX
  8
E15LXLIFT
 62
11
 10
-640.588
 20
-679.733
 30
3728.000
 70
    32
  0
VERTEX
  8
E15LXLIFT
 62
11
 10
-646.580
 20
-681.076
 30
3728.000
 70
    32
  0
VERTEX
  8
E15LXLIFT
 62
11
 10
-652.997
 20
-677.825
 30
3728.000
 70
    32
  0
VERTEX
  8
E15LXLIFT
 62
11
 10
-657.529
 20
-669.267
 30
3728.000
 70
    32
  0
VERTEX
  8
E15LXLIFT
 62
11
 10
-659.103
 20
-660.284
 30
3728.000
 70
    32
  0
VERTEX
  8
E15LXLIFT
 62
11
 10
-662.567
 20
-650.507
 30
3728.000
 70
    32
  0
VERTEX
  8
E15LXLIFT
 62
11
 10
-661.570
 20
-639.530
 30
3728.000
 70
    32
  0
VERTEX
  8
E15LXLIFT
 62
11
 10
-662.624
 20
-632.890
 30
3728.000
 70
    32
  0
VERTEX
  8
E15LXLIFT
 62
11
 10
-666.135
 20
-625.873
 30
3728.000
 70
    32
  0
VERTEX
  8
E15LXLIFT
 62
11
 10
-663.097
 20
-621.247
 30
3728.000
 70
    32
  0
VERTEX
  8
E15LXLIFT
 62
11
 10
-660.002
 20
-617.887
 30
3728.000
 70
    32
  0
VERTEX
  8
E15LXLIFT
 62
11
 10
-656.779
 20
-622.281
 30
3728.000
 70
    32
  0
VERTEX
  8
E15LXLIFT
 62
11
 10
-651.019
 20
-624.488
 30
3728.000
 70
    32
  0
VERTEX
  8
E15LXLIFT
 62
11
 10
-646.426
 20
-619.158
 30
3728.000
 70
    32
  0
VERTEX
  8
E15LXLIFT
 62
11
 10
-639.673
 20
-614.096
 30
3728.000
 70
    32
  0
VERTEX
  8
E15LXLIFT
 62
11
 10
-633.171
 20
-619.247
 30
3728.000
 70
    32
  0
VERTEX
  8
E15LXLIFT
 62
11
 10
-627.703
 20
-622.540
 30
3728.000
 70
    32
  0
VERTEX
  8
E15LXLIFT
 62
11
 10
-625.520
 20
-620.612
 30
3728.000
 70
    32
  0
SEQEND
  8
E15LXLIFT
  0
POLYLINE
  8
E15LXLIFT
 62
6
 66
     1
 70
     9
  0
VERTEX
  8
E15LXLIFT
 62
6
 10
-492.235
 20
-690.730
 30
3742.000
 70
    32
  0
VERTEX
  8
E15LXLIFT
 62
6
 10
-483.989
 20
-692.313
 30
3742.000
 70
    32
  0
VERTEX
  8
E15LXLIFT
 62
6
 10
-478.753
 20
-694.250
 30
3742.000
 70
    32
  0
VERTEX
  8
E15LXLIFT
 62
6
 10
-478.229
 20
-705.965
 30
3742.000
 70
    32
  0
VERTEX
  8
E15LXLIFT
 62
6
 10
-478.039
 20
-721.086
 30
3742.000
 70
    32
  0
VERTEX
  8
E15LXLIFT
 62
6
 10
-478.218
 20
-734.516
 30
3742.000
 70
    32
  0
VERTEX
  8
E15LXLIFT
 62
6
 10
-475.978
 20
-751.840
 30
3742.000
 70
    32
  0
VERTEX
  8
E15LXLIFT
 62
6
 10
-472.183
 20
-766.824
 30
3742.000
 70
    32
  0
VERTEX
  8
E15LXLIFT
 62
6
 10
-468.742
 20
-782.069
 30
3742.000
 70
    32
  0
VERTEX
  8
E15LXLIFT
 62
6
 10
-463.043
 20
-796.529
 30
3742.000
 70
    32
  0
VERTEX
  8
E15LXLIFT
 62
6
 10
-458.690
 20
-808.706
 30
3742.000
 70
    32
  0
VERTEX
  8
E15LXLIFT
 62
6
 10
-459.876
 20
-822.547
 30
3742.000
 70
    32
  0
VERTEX
  8
E15LXLIFT
 62
6
 10
-461.190
 20
-831.904
 30
3742.000
 70
    32
  0
VERTEX
  8
E15LXLIFT
 62
6
 10
-470.555
 20
-833.104
 30
3742.000
 70
    32
  0
VERTEX
  8
E15LXLIFT
 62
6
 10
-476.302
 20
-826.309
 30
3742.000
 70
    32
  0
VERTEX
  8
E15LXLIFT
 62
6
 10
-483.437
 20
-821.187
 30
3742.000
 70
    32
  0
VERTEX
  8
E15LXLIFT
 62
6
 10
-489.080
 20
-811.263
 30
3742.000
 70
    32
  0
VERTEX
  8
E15LXLIFT
 62
6
 10
-482.998
 20
-804.841
 30
3742.000
 70
    32
  0
VERTEX
  8
E15LXLIFT
 62
6
 10
-480.764
 20
-798.079
 30
3742.000
 70
    32
  0
VERTEX
  8
E15LXLIFT
 62
6
 10
-476.478
 20
-791.884
 30
3742.000
 70
    32
  0
VERTEX
  8
E15LXLIFT
 62
6
 10
-475.178
 20
-785.481
 30
3742.000
 70
    32
  0
VERTEX
  8
E15LXLIFT
 62
6
 10
-478.368
 20
-773.105
 30
3742.000
 70
    32
  0
VERTEX
  8
E15LXLIFT
 62
6
 10
-482.121
 20
-763.975
 30
3742.000
 70
    32
  0
VERTEX
  8
E15LXLIFT
 62
6
 10
-489.658
 20
-753.697
 30
3742.000
 70
    32
  0
VERTEX
  8
E15LXLIFT
 62
6
 10
-493.708
 20
-742.824
 30
3742.000
 70
    32
  0
VERTEX
  8
E15LXLIFT
 62
6
 10
-495.934
 20
-730.722
 30
3742.000
 70
    32
  0
VERTEX
  8
E15LXLIFT
 62
6
 10
-494.607
 20
-710.237
 30
3742.000
 70
    32
  0
SEQEND
  8
E15LXLIFT
  0
POLYLINE
  8
E15LXLIFT
 62
27
 66
     1
 70
     9
  0
VERTEX
  8
E15LXLIFT
 62
27
 10
-191.081
 20
-1280.058
 30
3738.000
 70
    32
  0
VERTEX
  8
E15LXLIFT
 62
27
 10
-178.887
 20
-1276.195
 30
3738.000
 70
    32
  0
VERTEX
  8
E15LXLIFT
 62
27
 10
-169.461
 20
-1275.105
 30
3738.000
 70
    32
  0
VERTEX
  8
E15LXLIFT
 62
27
 10
-165.577
 20
-1281.195
 30
3738.000
 70
    32
  0
VERTEX
  8
E15LXLIFT
 62
27
 10
-159.708
 20
-1285.082
 30
3738.000
 70
    32
  0
VERTEX
  8
E15LXLIFT
 62
27
 10
-154.478
 20
-1285.846
 30
3738.000
 70
    32
  0
VERTEX
  8
E15LXLIFT
 62
27
 10
-155.541
 20
-1295.750
 30
3738.000
 70
    32
  0
VERTEX
  8
E15LXLIFT
 62
27
 10
-156.325
 20
-1305.886
 30
3738.000
 70
    32
  0
VERTEX
  8
E15LXLIFT
 62
27
 10
-147.645
 20
-1314.687
 30
3738.000
 70
    32
  0
VERTEX
  8
E15LXLIFT
 62
27
 10
-140.827
 20
-1322.123
 30
3738.000
 70
    32
  0
VERTEX
  8
E15LXLIFT
 62
27
 10
-134.835
 20
-1327.225
 30
3738.000
 70
    32
  0
VERTEX
  8
E15LXLIFT
 62
27
 10
-132.503
 20
-1335.966
 30
3738.000
 70
    32
  0
VERTEX
  8
E15LXLIFT
 62
27
 10
-137.430
 20
-1340.852
 30
3738.000
 70
    32
  0
VERTEX
  8
E15LXLIFT
 62
27
 10
-142.280
 20
-1345.247
 30
3738.000
 70
    32
  0
VERTEX
  8
E15LXLIFT
 62
27
 10
-143.685
 20
-1355.726
 30
3738.000
 70
    32
  0
VERTEX
  8
E15LXLIFT
 62
27
 10
-142.530
 20
-1365.540
 30
3738.000
 70
    32
  0
VERTEX
  8
E15LXLIFT
 62
27
 10
-142.273
 20
-1373.071
 30
3738.000
 70
    32
  0
VERTEX
  8
E15LXLIFT
 62
27
 10
-147.110
 20
-1376.587
 30
3738.000
 70
    32
  0
VERTEX
  8
E15LXLIFT
 62
27
 10
-148.178
 20
-1384.538
 30
3738.000
 70
    32
  0
VERTEX
  8
E15LXLIFT
 62
27
 10
-149.880
 20
-1388.928
 30
3738.000
 70
    32
  0
VERTEX
  8
E15LXLIFT
 62
27
 10
-157.702
 20
-1389.831
 30
3738.000
 70
    32
  0
VERTEX
  8
E15LXLIFT
 62
27
 10
-165.376
 20
-1388.995
 30
3738.000
 70
    32
  0
VERTEX
  8
E15LXLIFT
 62
27
 10
-168.257
 20
-1380.545
 30
3738.000
 70
    32
  0
VERTEX
  8
E15LXLIFT
 62
27
 10
-169.644
 20
-1366.225
 30
3738.000
 70
    32
  0
VERTEX
  8
E15LXLIFT
 62
27
 10
-171.470
 20
-1354.291
 30
3738.000
 70
    32
  0
VERTEX
  8
E15LXLIFT
 62
27
 10
-171.901
 20
-1344.277
 30
3738.000
 70
    32
  0
VERTEX
  8
E15LXLIFT
 62
27
 10
-176.335
 20
-1337.281
 30
3738.000
 70
    32
  0
VERTEX
  8
E15LXLIFT
 62
27
 10
-175.201
 20
-1329.718
 30
3738.000
 70
    32
  0
VERTEX
  8
E15LXLIFT
 62
27
 10
-173.583
 20
-1319.083
 30
3738.000
 70
    32
  0
VERTEX
  8
E15LXLIFT
 62
27
 10
-173.781
 20
-1308.792
 30
3738.000
 70
    32
  0
VERTEX
  8
E15LXLIFT
 62
27
 10
-175.551
 20
-1301.273
 30
3738.000
 70
    32
  0
VERTEX
  8
E15LXLIFT
 62
27
 10
-182.415
 20
-1294.522
 30
3738.000
 70
    32
  0
VERTEX
  8
E15LXLIFT
 62
27
 10
-187.793
 20
-1291.909
 30
3738.000
 70
    32
  0
SEQEND
  8
E15LXLIFT
  0
POLYLINE
  8
E15LXLIFT
 62
3
 66
     1
 70
     9
  0
VERTEX
  8
E15LXLIFT
 62
3
 10
-714.775
 20
-552.009
 30
3788.000
 70
    32
  0
VERTEX
  8
E15LXLIFT
 62
3
 10
-709.294
 20
-555.096
 30
3788.000
 70
    32
  0
VERTEX
  8
E15LXLIFT
 62
3
 10
-703.932
 20
-564.773
 30
3788.000
 70
    32
  0
VERTEX
  8
E15LXLIFT
 62
3
 10
-701.614
 20
-572.637
 30
3788.000
 70
    32
  0
VERTEX
  8
E15LXLIFT
 62
3
 10
-689.064
 20
-569.753
 30
3788.000
 70
    32
  0
VERTEX
  8
E15LXLIFT
 62
3
 10
-675.718
 20
-562.718
 30
3788.000
 70
    32
  0
VERTEX
  8
E15LXLIFT
 62
3
 10
-682.299
 20
-552.403
 30
3788.000
 70
    32
  0
VERTEX
  8
E15LXLIFT
 62
3
 10
-687.760
 20
-543.340
 30
3788.000
 70
    32
  0
VERTEX
  8
E15LXLIFT
 62
3
 10
-693.181
 20
-535.982
 30
3788.000
 70
    32
  0
VERTEX
  8
E15LXLIFT
 62
3
 10
-693.909
 20
-531.522
 30
3788.000
 70
    32
  0
VERTEX
  8
E15LXLIFT
 62
3
 10
-699.694
 20
-520.958
 30
3788.000
 70
    32
  0
VERTEX
  8
E15LXLIFT
 62
3
 10
-697.916
 20
-513.063
 30
3788.000
 70
    32
  0
VERTEX
  8
E15LXLIFT
 62
3
 10
-700.476
 20
-503.964
 30
3788.000
 70
    32
  0
VERTEX
  8
E15LXLIFT
 62
3
 10
-705.600
 20
-494.766
 30
3788.000
 70
    32
  0
VERTEX
  8
E15LXLIFT
 62
3
 10
-712.253
 20
-490.356
 30
3788.000
 70
    32
  0
VERTEX
  8
E15LXLIFT
 62
3
 10
-712.683
 20
-480.154
 30
3788.000
 70
    32
  0
VERTEX
  8
E15LXLIFT
 62
3
 10
-710.470
 20
-469.559
 30
3788.000
 70
    32
  0
VERTEX
  8
E15LXLIFT
 62
3
 10
-710.545
 20
-468.855
 30
3788.000
 70
    32
  0
VERTEX
  8
E15LXLIFT
 62
3
 10
-707.339
 20
-458.735
 30
3788.000
 70
    32
  0
VERTEX
  8
E15LXLIFT
 62
3
 10
-711.894
 20
-454.979
 30
3788.000
 70
    32
  0
VERTEX
  8
E15LXLIFT
 62
3
 10
-711.066
 20
-451.021
 30
3788.000
 70
    32
  0
VERTEX
  8
E15LXLIFT
 62
3
 10
-716.722
 20
-451.745
 30
3788.000
 70
    32
  0
VERTEX
  8
E15LXLIFT
 62
3
 10
-722.306
 20
-450.466
 30
3788.000
 70
    32
  0
VERTEX
  8
E15LXLIFT
 62
3
 10
-733.613
 20
-452.670
 30
3788.000
 70
    32
  0
VERTEX
  8
E15LXLIFT
 62
3
 10
-733.143
 20
-462.627
 30
3788.000
 70
    32
  0
VERTEX
  8
E15LXLIFT
 62
3
 10
-738.277
 20
-469.478
 30
3788.000
 70
    32
  0
VERTEX
  8
E15LXLIFT
 62
3
 10
-744.732
 20
-473.597
 30
3788.000
 70
    32
  0
VERTEX
  8
E15LXLIFT
 62
3
 10
-746.707
 20
-476.866
 30
3788.000
 70
    32
  0
VERTEX
  8
E15LXLIFT
 62
3
 10
-742.109
 20
-485.035
 30
3788.000
 70
    32
  0
VERTEX
  8
E15LXLIFT
 62
3
 10
-737.238
 20
-494.633
 30
3788.000
 70
    32
  0
VERTEX
  8
E15LXLIFT
 62
3
 10
-734.417
 20
-502.892
 30
3788.000
 70
    32
  0
VERTEX
  8
E15LXLIFT
 62
3
 10
-734.698
 20
-507.756
 30
3788.000
 70
    32
  0
VERTEX
  8
E15LXLIFT
 62
3
 10
-729.403
 20
-512.387
 30
3788.000
 70
    32
  0
VERTEX
  8
E15LXLIFT
 62
3
 10
-727.227
 20
-518.403
 30
3788.000
 70
    32
  0
VERTEX
  8
E15LXLIFT
 62
3
 10
-728.000
 20
-527.090
 30
3788.000
 70
    32
  0
VERTEX
  8
E15LXLIFT
 62
3
 10
-728.950
 20
-532.979
 30
3788.000
 70
    32
  0
VERTEX
  8
E15LXLIFT
 62
3
 10
-729.433
 20
-538.314
 30
3788.000
 70
    32
  0
SEQEND
  8
E15LXLIFT
  0
POLYLINE
  8
E15LXLIFT
 62
1
 66
     1
 70
     9
  0
VERTEX
  8
E15LXLIFT
 62
1
 10
-713.775
 20
-551.009
 30
3800.000
 70
    32
  0
VERTEX
  8
E15LXLIFT
 62
1
 10
-708.294
 20
-554.096
 30
3800.000
 70
    32
  0
VERTEX
  8
E15LXLIFT
 62
1
 10
-702.932
 20
-563.773
 30
3800.000
 70
    32
  0
VERTEX
  8
E15LXLIFT
 62
1
 10
-700.614
 20
-571.637
 30
3800.000
 70
    32
  0
VERTEX
  8
E15LXLIFT
 62
1
 10
-688.064
 20
-568.753
 30
3800.000
 70
    32
  0
VERTEX
  8
E15LXLIFT
 62
1
 10
-674.718
 20
-561.718
 30
3800.000
 70
    32
  0
VERTEX
  8
E15LXLIFT
 62
1
 10
-681.299
 20
-551.403
 30
3800.000
 70
    32
  0
VERTEX
  8
E15LXLIFT
 62
1
 10
-686.760
 20
-542.340
 30
3800.000
 70
    32
  0
VERTEX
  8
E15LXLIFT
 62
1
 10
-692.181
 20
-534.982
 30
3800.000
 70
    32
  0
VERTEX
  8
E15LXLIFT
 62
1
 10
-692.909
 20
-530.522
 30
3800.000
 70
    32
  0
VERTEX
  8
E15LXLIFT
 62
1
 10
-698.694
 20
-519.958
 30
3800.000
 70
    32
  0
VERTEX
  8
E15LXLIFT
 62
1
 10
-696.916
 20
-512.063
 30
3800.000
 70
    32
  0
VERTEX
  8
E15LXLIFT
 62
1
 10
-699.476
 20
-502.964
 30
3800.000
 70
    32
  0
VERTEX
  8
E15LXLIFT
 62
1
 10
-704.600
 20
-493.766
 30
3800.000
 70
    32
  0
VERTEX
  8
E15LXLIFT
 62
1
 10
-711.253
 20
-489.356
 30
3800.000
 70
    32
  0
VERTEX
  8
E15LXLIFT
 62
1
 10
-711.683
 20
-479.154
 30
3800.000
 70
    32
  0
VERTEX
  8
E15LXLIFT
 62
1
 10
-709.470
 20
-468.559
 30
3800.000
 70
    32
  0
VERTEX
  8
E15LXLIFT
 62
1
 10
-709.545
 20
-467.855
 30
3800.000
 70
    32
  0
VERTEX
  8
E15LXLIFT
 62
1
 10
-706.339
 20
-457.735
 30
3800.000
 70
    32
  0
VERTEX
  8
E15LXLIFT
 62
1
 10
-710.894
 20
-453.979
 30
3800.000
 70
    32
  0
VERTEX
  8
E15LXLIFT
 62
1
 10
-710.066
 20
-450.021
 30
3800.000
 70
    32
  0
VERTEX
  8
E15LXLIFT
 62
1
 10
-715.722
 20
-450.745
 30
3800.000
 70
    32
  0
VERTEX
  8
E15LXLIFT
 62
1
 10
-721.306
 20
-449.466
 30
3800.000
 70
    32
  0
VERTEX
  8
E15LXLIFT
 62
1
 10
-732.613
 20
-451.670
 30
3800.000
 70
    32
  0
VERTEX
  8
E15LXLIFT
 62
1
 10
-732.143
 20
-461.627
 30
3800.000
 70
    32
  0
VERTEX
  8
E15LXLIFT
 62
1
 10
-737.277
 20
-468.478
 30
3800.000
 70
    32
  0
VERTEX
  8
E15LXLIFT
 62
1
 10
-743.732
 20
-472.597
 30
3800.000
 70
    32
  0
VERTEX
  8
E15LXLIFT
 62
1
 10
-745.707
 20
-475.866
 30
3800.000
 70
    32
  0
VERTEX
  8
E15LXLIFT
 62
1
 10
-741.109
 20
-484.035
 30
3800.000
 70
    32
  0
VERTEX
  8
E15LXLIFT
 62
1
 10
-736.238
 20
-493.633
 30
3800.000
 70
    32
  0
VERTEX
  8
E15LXLIFT
 62
1
 10
-733.417
 20
-501.892
 30
3800.000
 70
    32
  0
VERTEX
  8
E15LXLIFT
 62
1
 10
-733.698
 20
-506.756
 30
3800.000
 70
    32
  0
VERTEX
  8
E15LXLIFT
 62
1
 10
-728.403
 20
-511.387
 30
3800.000
 70
    32
  0
VERTEX
  8
E15LXLIFT
 62
1
 10
-726.227
 20
-517.403
 30
3800.000
 70
    32
  0
VERTEX
  8
E15LXLIFT
 62
1
 10
-727.000
 20
-526.090
 30
3800.000
 70
    32
  0
VERTEX
  8
E15LXLIFT
 62
1
 10
-727.950
 20
-531.979
 30
3800.000
 70
    32
  0
VERTEX
  8
E15LXLIFT
 62
1
 10
-728.433
 20
-537.314
 30
3800.000
 70
    32
  0
SEQEND
  8
E15LXLIFT
  0
POLYLINE
  8
E15LXLIFT
 62
13
 66
     1
 70
     9
  0
VERTEX
  8
E15LXLIFT
 62
13
 10
-611.347
 20
-617.038
 30
3789.000
 70
    32
  0
VERTEX
  8
E15LXLIFT
 62
13
 10
-614.462
 20
-615.277
 30
3789.000
 70
    32
  0
VERTEX
  8
E15LXLIFT
 62
13
 10
-620.513
 20
-610.650
 30
3789.000
 70
    32
  0
VERTEX
  8
E15LXLIFT
 62
13
 10
-620.564
 20
-604.725
 30
3789.000
 70
    32
  0
VERTEX
  8
E15LXLIFT
 62
13
 10
-625.221
 20
-598.875
 30
3789.000
 70
    32
  0
VERTEX
  8
E15LXLIFT
 62
13
 10
-623.297
 20
-591.633
 30
3789.000
 70
    32
  0
VERTEX
  8
E15LXLIFT
 62
13
 10
-619.481
 20
-578.906
 30
3789.000
 70
    32
  0
VERTEX
  8
E15LXLIFT
 62
13
 10
-617.434
 20
-567.781
 30
3789.000
 70
    32
  0
VERTEX
  8
E15LXLIFT
 62
13
 10
-613.658
 20
-565.054
 30
3789.000
 70
    32
  0
VERTEX
  8
E15LXLIFT
 62
13
 10
-617.105
 20
-558.330
 30
3789.000
 70
    32
  0
VERTEX
  8
E15LXLIFT
 62
13
 10
-614.618
 20
-549.164
 30
3789.000
 70
    32
  0
VERTEX
  8
E15LXLIFT
 62
13
 10
-615.457
 20
-539.147
 30
3789.000
 70
    32
  0
VERTEX
  8
E15LXLIFT
 62
13
 10
-620.407
 20
-528.089
 30
3789.000
 70
    32
  0
VERTEX
  8
E15LXLIFT
 62
13
 10
-626.457
 20
-515.657
 30
3789.000
 70
    32
  0
VERTEX
  8
E15LXLIFT
 62
13
 10
-635.788
 20
-506.787
 30
3789.000
 70
    32
  0
VERTEX
  8
E15LXLIFT
 62
13
 10
-642.100
 20
-495.195
 30
3789.000
 70
    32
  0
VERTEX
  8
E15LXLIFT
 62
13
 10
-649.733
 20
-480.871
 30
3789.000
 70
    32
  0
VERTEX
  8
E15LXLIFT
 62
13
 10
-657.845
 20
-464.834
 30
3789.000
 70
    32
  0
VERTEX
  8
E15LXLIFT
 62
13
 10
-664.346
 20
-454.029
 30
3789.000
 70
    32
  0
VERTEX
  8
E15LXLIFT
 62
13
 10
-661.108
 20
-449.957
 30
3789.000
 70
    32
  0
VERTEX
  8
E15LXLIFT
 62
13
 10
-661.148
 20
-446.300
 30
3789.000
 70
    32
  0
VERTEX
  8
E15LXLIFT
 62
13
 10
-660.542
 20
-440.985
 30
3789.000
 70
    32
  0
VERTEX
  8
E15LXLIFT
 62
13
 10
-653.849
 20
-437.345
 30
3789.000
 70
    32
  0
VERTEX
  8
E15LXLIFT
 62
13
 10
-650.513
 20
-442.415
 30
3789.000
 70
    32
  0
VERTEX
  8
E15LXLIFT
 62
13
 10
-643.362
 20
-446.464
 30
3789.000
 70
    32
  0
VERTEX
  8
E15LXLIFT
 62
13
 10
-638.843
 20
-453.173
 30
3789.000
 70
    32
  0
VERTEX
  8
E15LXLIFT
 62
13
 10
-641.792
 20
-465.599
 30
3789.000
 70
    32
  0
VERTEX
  8
E15LXLIFT
 62
13
 10
-636.221
 20
-482.171
 30
3789.000
 70
    32
  0
VERTEX
  8
E15LXLIFT
 62
13
 10
-627.064
 20
-492.901
 30
3789.000
 70
    32
  0
VERTEX
  8
E15LXLIFT
 62
13
 10
-618.829
 20
-501.153
 30
3789.000
 70
    32
  0
VERTEX
  8
E15LXLIFT
 62
13
 10
-616.206
 20
-508.689
 30
3789.000
 70
    32
  0
VERTEX
  8
E15LXLIFT
 62
13
 10
-611.363
 20
-520.800
 30
3789.000
 70
    32
  0
VERTEX
  8
E15LXLIFT
 62
13
 10
-606.207
 20
-532.143
 30
3789.000
 70
    32
  0
VERTEX
  8
E15LXLIFT
 62
13
 10
-602.654
 20
-543.668
 30
3789.000
 70
    32
  0
VERTEX
  8
E15LXLIFT
 62
13
 10
-598.721
 20
-551.667
 30
3789.000
 70
    32
  0
VERTEX
  8
E15LXLIFT
 62
13
 10
-591.942
 20
-556.852
 30
3789.000
 70
    32
  0
VERTEX
  8
E15LXLIFT
 62
13
 10
-590.110
 20
-561.490
 30
3789.000
 70
    32
  0
VERTEX
  8
E15LXLIFT
 62
13
 10
-589.802
 20
-569.722
 30
3789.000
 70
    32
  0
VERTEX
  8
E15LXLIFT
 62
13
 10
-584.693
 20
-573.946
 30
3789.000
 70
    32
  0
VERTEX
  8
E15LXLIFT
 62
13
 10
-578.440
 20
-578.102
 30
3789.000
 70
    32
  0
VERTEX
  8
E15LXLIFT
 62
13
 10
-578.883
 20
-581.240
 30
3789.000
 70
    32
  0
VERTEX
  8
E15LXLIFT
 62
13
 10
-579.588
 20
-587.169
 30
3789.000
 70
    32
  0
VERTEX
  8
E15LXLIFT
 62
13
 10
-576.949
 20
-593.826
 30
3789.000
 70
    32
  0
VERTEX
  8
E15LXLIFT
 62
13
 10
-572.885
 20
-593.600
 30
3789.000
 70
    32
  0
VERTEX
  8
E15LXLIFT
 62
13
 10
-567.614
 20
-599.549
 30
3789.000
 70
    32
  0
VERTEX
  8
E15LXLIFT
 62
13
 10
-570.087
 20
-603.178
 30
3789.000
 70
    32
  0
VERTEX
  8
E15LXLIFT
 62
13
 10
-569.312
 20
-608.905
 30
3789.000
 70
    32
  0
VERTEX
  8
E15LXLIFT
 62
13
 10
-564.175
 20
-610.615
 30
3789.000
 70
    32
  0
VERTEX
  8
E15LXLIFT
 62
13
 10
-562.185
 20
-616.223
 30
3789.000
 70
    32
  0
VERTEX
  8
E15LXLIFT
 62
13
 10
-560.710
 20
-628.924
 30
3789.000
 70
    32
  0
VERTEX
  8
E15LXLIFT
 62
13
 10
-548.941
 20
-641.019
 30
3789.000
 70
    32
  0
VERTEX
  8
E15LXLIFT
 62
13
 10
-558.405
 20
-650.129
 30
3789.000
 70
    32
  0
VERTEX
  8
E15LXLIFT
 62
13
 10
-566.304
 20
-645.644
 30
3789.000
 70
    32
  0
VERTEX
  8
E15LXLIFT
 62
13
 10
-571.908
 20
-646.439
 30
3789.000
 70
    32
  0
VERTEX
  8
E15LXLIFT
 62
13
 10
-584.939
 20
-631.245
 30
3789.000
 70
    32
  0
SEQEND
  8
E15LXLIFT
  0
POLYLINE
  8
E15LXLIFT
 62
8
 66
     1
 70
     9
  0
VERTEX
  8
E15LXLIFT
 62
8
 10
-370.252
 20
-1012.777
 30
3799.000
 70
    32
  0
VERTEX
  8
E15LXLIFT
 62
8
 10
-383.289
 20
-995.872
 30
3799.000
 70
    32
  0
VERTEX
  8
E15LXLIFT
 62
8
 10
-379.895
 20
-988.740
 30
3799.000
 70
    32
  0
VERTEX
  8
E15LXLIFT
 62
8
 10
-386.925
 20
-978.761
 30
3799.000
 70
    32
  0
VERTEX
  8
E15LXLIFT
 62
8
 10
-394.944
 20
-969.065
 30
3799.000
 70
    32
  0
VERTEX
  8
E15LXLIFT
 62
8
 10
-399.793
 20
-959.998
 30
3799.000
 70
    32
  0
VERTEX
  8
E15LXLIFT
 62
8
 10
-404.118
 20
-947.618
 30
3799.000
 70
    32
  0
VERTEX
  8
E15LXLIFT
 62
8
 10
-413.636
 20
-931.523
 30
3799.000
 70
    32
  0
VERTEX
  8
E15LXLIFT
 62
8
 10
-420.704
 20
-918.206
 30
3799.000
 70
    32
  0
VERTEX
  8
E15LXLIFT
 62
8
 10
-426.823
 20
-906.045
 30
3799.000
 70
    32
  0
VERTEX
  8
E15LXLIFT
 62
8
 10
-435.926
 20
-896.051
 30
3799.000
 70
    32
  0
VERTEX
  8
E15LXLIFT
 62
8
 10
-443.234
 20
-885.839
 30
3799.000
 70
    32
  0
VERTEX
  8
E15LXLIFT
 62
8
 10
-452.150
 20
-875.058
 30
3799.000
 70
    32
  0
VERTEX
  8
E15LXLIFT
 62
8
 10
-457.713
 20
-862.168
 30
3799.000
 70
    32
  0
VERTEX
  8
E15LXLIFT
 62
8
 10
-462.974
 20
-850.143
 30
3799.000
 70
    32
  0
VERTEX
  8
E15LXLIFT
 62
8
 10
-472.579
 20
-837.367
 30
3799.000
 70
    32
  0
VERTEX
  8
E15LXLIFT
 62
8
 10
-482.430
 20
-825.746
 30
3799.000
 70
    32
  0
VERTEX
  8
E15LXLIFT
 62
8
 10
-489.513
 20
-816.890
 30
3799.000
 70
    32
  0
VERTEX
  8
E15LXLIFT
 62
8
 10
-492.544
 20
-811.820
 30
3799.000
 70
    32
  0
VERTEX
  8
E15LXLIFT
 62
8
 10
-489.459
 20
-803.067
 30
3799.000
 70
    32
  0
VERTEX
  8
E15LXLIFT
 62
8
 10
-486.039
 20
-795.373
 30
3799.000
 70
    32
  0
VERTEX
  8
E15LXLIFT
 62
8
 10
-488.012
 20
-782.047
 30
3799.000
 70
    32
  0
VERTEX
  8
E15LXLIFT
 62
8
 10
-492.837
 20
-774.806
 30
3799.000
 70
    32
  0
VERTEX
  8
E15LXLIFT
 62
8
 10
-497.589
 20
-765.125
 30
3799.000
 70
    32
  0
VERTEX
  8
E15LXLIFT
 62
8
 10
-495.387
 20
-755.604
 30
3799.000
 70
    32
  0
VERTEX
  8
E15LXLIFT
 62
8
 10
-499.228
 20
-744.936
 30
3799.000
 70
    32
  0
VERTEX
  8
E15LXLIFT
 62
8
 10
-503.869
 20
-732.569
 30
3799.000
 70
    32
  0
VERTEX
  8
E15LXLIFT
 62
8
 10
-504.447
 20
-717.577
 30
3799.000
 70
    32
  0
VERTEX
  8
E15LXLIFT
 62
8
 10
-505.694
 20
-709.584
 30
3799.000
 70
    32
  0
VERTEX
  8
E15LXLIFT
 62
8
 10
-514.069
 20
-711.651
 30
3799.000
 70
    32
  0
VERTEX
  8
E15LXLIFT
 62
8
 10
-518.628
 20
-713.443
 30
3799.000
 70
    32
  0
VERTEX
  8
E15LXLIFT
 62
8
 10
-523.994
 20
-713.975
 30
3799.000
 70
    32
  0
VERTEX
  8
E15LXLIFT
 62
8
 10
-522.147
 20
-724.138
 30
3799.000
 70
    32
  0
VERTEX
  8
E15LXLIFT
 62
8
 10
-520.146
 20
-734.515
 30
3799.000
 70
    32
  0
VERTEX
  8
E15LXLIFT
 62
8
 10
-518.538
 20
-744.200
 30
3799.000
 70
    32
  0
VERTEX
  8
E15LXLIFT
 62
8
 10
-518.938
 20
-753.064
 30
3799.000
 70
    32
  0
VERTEX
  8
E15LXLIFT
 62
8
 10
-515.630
 20
-759.561
 30
3799.000
 70
    32
  0
VERTEX
  8
E15LXLIFT
 62
8
 10
-516.862
 20
-767.728
 30
3799.000
 70
    32
  0
VERTEX
  8
E15LXLIFT
 62
8
 10
-514.059
 20
-776.219
 30
3799.000
 70
    32
  0
VERTEX
  8
E15LXLIFT
 62
8
 10
-519.881
 20
-783.595
 30
3799.000
 70
    32
  0
VERTEX
  8
E15LXLIFT
 62
8
 10
-527.137
 20
-782.570
 30
3799.000
 70
    32
  0
VERTEX
  8
E15LXLIFT
 62
8
 10
-534.110
 20
-783.728
 30
3799.000
 70
    32
  0
VERTEX
  8
E15LXLIFT
 62
8
 10
-535.479
 20
-792.753
 30
3799.000
 70
    32
  0
VERTEX
  8
E15LXLIFT
 62
8
 10
-526.223
 20
-797.426
 30
3799.000
 70
    32
  0
VERTEX
  8
E15LXLIFT
 62
8
 10
-513.891
 20
-806.486
 30
3799.000
 70
    32
  0
VERTEX
  8
E15LXLIFT
 62
8
 10
-505.343
 20
-816.014
 30
3799.000
 70
    32
  0
VERTEX
  8
E15LXLIFT
 62
8
 10
-503.394
 20
-826.320
 30
3799.000
 70
    32
  0
VERTEX
  8
E15LXLIFT
 62
8
 10
-500.908
 20
-836.019
 30
3799.000
 70
    32
  0
VERTEX
  8
E15LXLIFT
 62
8
 10
-498.149
 20
-842.806
 30
3799.000
 70
    32
  0
VERTEX
  8
E15LXLIFT
 62
8
 10
-493.246
 20
-839.245
 30
3799.000
 70
    32
  0
VERTEX
  8
E15LXLIFT
 62
8
 10
-487.570
 20
-837.945
 30
3799.000
 70
    32
  0
VERTEX
  8
E15LXLIFT
 62
8
 10
-479.813
 20
-842.947
 30
3799.000
 70
    32
  0
VERTEX
  8
E15LXLIFT
 62
8
 10
-473.208
 20
-852.041
 30
3799.000
 70
    32
  0
VERTEX
  8
E15LXLIFT
 62
8
 10
-466.596
 20
-860.697
 30
3799.000
 70
    32
  0
VERTEX
  8
E15LXLIFT
 62
8
 10
-466.408
 20
-869.025
 30
3799.000
 70
    32
  0
VERTEX
  8
E15LXLIFT
 62
8
 10
-461.001
 20
-873.781
 30
3799.000
 70
    32
  0
VERTEX
  8
E15LXLIFT
 62
8
 10
-460.877
 20
-882.916
 30
3799.000
 70
    32
  0
VERTEX
  8
E15LXLIFT
 62
8
 10
-452.167
 20
-891.024
 30
3799.000
 70
    32
  0
VERTEX
  8
E15LXLIFT
 62
8
 10
-448.807
 20
-897.593
 30
3799.000
 70
    32
  0
VERTEX
  8
E15LXLIFT
 62
8
 10
-440.407
 20
-906.469
 30
3799.000
 70
    32
  0
VERTEX
  8
E15LXLIFT
 62
8
 10
-436.511
 20
-921.547
 30
3799.000
 70
    32
  0
VERTEX
  8
E15LXLIFT
 62
8
 10
-432.136
 20
-935.191
 30
3799.000
 70
    32
  0
VERTEX
  8
E15LXLIFT
 62
8
 10
-425.168
 20
-942.394
 30
3799.000
 70
    32
  0
VERTEX
  8
E15LXLIFT
 62
8
 10
-420.358
 20
-952.902
 30
3799.000
 70
    32
  0
VERTEX
  8
E15LXLIFT
 62
8
 10
-417.867
 20
-964.550
 30
3799.000
 70
    32
  0
VERTEX
  8
E15LXLIFT
 62
8
 10
-410.792
 20
-976.234
 30
3799.000
 70
    32
  0
VERTEX
  8
E15LXLIFT
 62
8
 10
-403.922
 20
-984.051
 30
3799.000
 70
    32
  0
VERTEX
  8
E15LXLIFT
 62
8
 10
-399.794
 20
-990.929
 30
3799.000
 70
    32
  0
VERTEX
  8
E15LXLIFT
 62
8
 10
-398.549
 20
-1002.506
 30
3799.000
 70
    32
  0
VERTEX
  8
E15LXLIFT
 62
8
 10
-400.273
 20
-1012.983
 30
3799.000
 70
    32
  0
VERTEX
  8
E15LXLIFT
 62
8
 10
-385.289
 20
-1014.039
 30
3799.000
 70
    32
  0
VERTEX
  8
E15LXLIFT
 62
8
 10
-379.457
 20
-1020.873
 30
3799.000
 70
    32
  0
SEQEND
  8
E15LXLIFT
  0
POLYLINE
  8
E15LXLIFT
 62
1
 66
     1
 70
     9
  0
VERTEX
  8
E15LXLIFT
 62
1
 10
-369.252
 20
-1011.777
 30
3811.000
 70
    32
  0
VERTEX
  8
E15LXLIFT
 62
1
 10
-382.289
 20
-994.872
 30
3811.000
 70
    32
  0
VERTEX
  8
E15LXLIFT
 62
1
 10
-378.895
 20
-987.740
 30
3811.000
 70
    32
  0
VERTEX
  8
E15LXLIFT
 62
1
 10
-385.925
 20
-977.761
 30
3811.000
 70
    32
  0
VERTEX
  8
E15LXLIFT
 62
1
 10
-393.944
 20
-968.065
 30
3811.000
 70
    32
  0
VERTEX
  8
E15LXLIFT
 62
1
 10
-398.793
 20
-958.998
 30
3811.000
 70
    32
  0
VERTEX
  8
E15LXLIFT
 62
1
 10
-403.118
 20
-946.618
 30
3811.000
 70
    32
  0
VERTEX
  8
E15LXLIFT
 62
1
 10
-412.636
 20
-930.523
 30
3811.000
 70
    32
  0
VERTEX
  8
E15LXLIFT
 62
1
 10
-419.704
 20
-917.206
 30
3811.000
 70
    32
  0
VERTEX
  8
E15LXLIFT
 62
1
 10
-425.823
 20
-905.045
 30
3811.000
 70
    32
  0
VERTEX
  8
E15LXLIFT
 62
1
 10
-434.926
 20
-895.051
 30
3811.000
 70
    32
  0
VERTEX
  8
E15LXLIFT
 62
1
 10
-442.234
 20
-884.839
 30
3811.000
 70
    32
  0
VERTEX
  8
E15LXLIFT
 62
1
 10
-451.150
 20
-874.058
 30
3811.000
 70
    32
  0
VERTEX
  8
E15LXLIFT
 62
1
 10
-456.713
 20
-861.168
 30
3811.000
 70
    32
  0
VERTEX
  8
E15LXLIFT
 62
1
 10
-461.974
 20
-849.143
 30
3811.000
 70
    32
  0
VERTEX
  8
E15LXLIFT
 62
1
 10
-471.579
 20
-836.367
 30
3811.000
 70
    32
  0
VERTEX
  8
E15LXLIFT
 62
1
 10
-481.430
 20
-824.746
 30
3811.000
 70
    32
  0
VERTEX
  8
E15LXLIFT
 62
1
 10
-488.513
 20
-815.890
 30
3811.000
 70
    32
  0
VERTEX
  8
E15LXLIFT
 62
1
 10
-491.544
 20
-810.820
 30
3811.000
 70
    32
  0
VERTEX
  8
E15LXLIFT
 62
1
 10
-488.459
 20
-802.067
 30
3811.000
 70
    32
  0
VERTEX
  8
E15LXLIFT
 62
1
 10
-485.039
 20
-794.373
 30
3811.000
 70
    32
  0
VERTEX
  8
E15LXLIFT
 62
1
 10
-487.012
 20
-781.047
 30
3811.000
 70
    32
  0
VERTEX
  8
E15LXLIFT
 62
1
 10
-491.837
 20
-773.806
 30
3811.000
 70
    32
  0
VERTEX
  8
E15LXLIFT
 62
1
 10
-496.589
 20
-764.125
 30
3811.000
 70
    32
  0
VERTEX
  8
E15LXLIFT
 62
1
 10
-494.387
 20
-754.604
 30
3811.000
 70
    32
  0
VERTEX
  8
E15LXLIFT
 62
1
 10
-498.228
 20
-743.936
 30
3811.000
 70
    32
  0
VERTEX
  8
E15LXLIFT
 62
1
 10
-502.869
 20
-731.569
 30
3811.000
 70
    32
  0
VERTEX
  8
E15LXLIFT
 62
1
 10
-503.447
 20
-716.577
 30
3811.000
 70
    32
  0
VERTEX
  8
E15LXLIFT
 62
1
 10
-504.694
 20
-708.584
 30
3811.000
 70
    32
  0
VERTEX
  8
E15LXLIFT
 62
1
 10
-513.069
 20
-710.651
 30
3811.000
 70
    32
  0
VERTEX
  8
E15LXLIFT
 62
1
 10
-517.628
 20
-712.443
 30
3811.000
 70
    32
  0
VERTEX
  8
E15LXLIFT
 62
1
 10
-522.994
 20
-712.975
 30
3811.000
 70
    32
  0
VERTEX
  8
E15LXLIFT
 62
1
 10
-521.147
 20
-723.138
 30
3811.000
 70
    32
  0
VERTEX
  8
E15LXLIFT
 62
1
 10
-519.146
 20
-733.515
 30
3811.000
 70
    32
  0
VERTEX
  8
E15LXLIFT
 62
1
 10
-517.538
 20
-743.200
 30
3811.000
 70
    32
  0
VERTEX
  8
E15LXLIFT
 62
1
 10
-517.938
 20
-752.064
 30
3811.000
 70
    32
  0
VERTEX
  8
E15LXLIFT
 62
1
 10
-514.630
 20
-758.561
 30
3811.000
 70
    32
  0
VERTEX
  8
E15LXLIFT
 62
1
 10
-515.862
 20
-766.728
 30
3811.000
 70
    32
  0
VERTEX
  8
E15LXLIFT
 62
1
 10
-513.059
 20
-775.219
 30
3811.000
 70
    32
  0
VERTEX
  8
E15LXLIFT
 62
1
 10
-518.881
 20
-782.595
 30
3811.000
 70
    32
  0
VERTEX
  8
E15LXLIFT
 62
1
 10
-526.137
 20
-781.570
 30
3811.000
 70
    32
  0
VERTEX
  8
E15LXLIFT
 62
1
 10
-533.110
 20
-782.728
 30
3811.000
 70
    32
  0
VERTEX
  8
E15LXLIFT
 62
1
 10
-534.479
 20
-791.753
 30
3811.000
 70
    32
  0
VERTEX
  8
E15LXLIFT
 62
1
 10
-525.223
 20
-796.426
 30
3811.000
 70
    32
  0
VERTEX
  8
E15LXLIFT
 62
1
 10
-512.891
 20
-805.486
 30
3811.000
 70
    32
  0
VERTEX
  8
E15LXLIFT
 62
1
 10
-504.343
 20
-815.014
 30
3811.000
 70
    32
  0
VERTEX
  8
E15LXLIFT
 62
1
 10
-502.394
 20
-825.320
 30
3811.000
 70
    32
  0
VERTEX
  8
E15LXLIFT
 62
1
 10
-499.908
 20
-835.019
 30
3811.000
 70
    32
  0
VERTEX
  8
E15LXLIFT
 62
1
 10
-497.149
 20
-841.806
 30
3811.000
 70
    32
  0
VERTEX
  8
E15LXLIFT
 62
1
 10
-492.246
 20
-838.245
 30
3811.000
 70
    32
  0
VERTEX
  8
E15LXLIFT
 62
1
 10
-486.570
 20
-836.945
 30
3811.000
 70
    32
  0
VERTEX
  8
E15LXLIFT
 62
1
 10
-478.813
 20
-841.947
 30
3811.000
 70
    32
  0
VERTEX
  8
E15LXLIFT
 62
1
 10
-472.208
 20
-851.041
 30
3811.000
 70
    32
  0
VERTEX
  8
E15LXLIFT
 62
1
 10
-465.596
 20
-859.697
 30
3811.000
 70
    32
  0
VERTEX
  8
E15LXLIFT
 62
1
 10
-465.408
 20
-868.025
 30
3811.000
 70
    32
  0
VERTEX
  8
E15LXLIFT
 62
1
 10
-460.001
 20
-872.781
 30
3811.000
 70
    32
  0
VERTEX
  8
E15LXLIFT
 62
1
 10
-459.877
 20
-881.916
 30
3811.000
 70
    32
  0
VERTEX
  8
E15LXLIFT
 62
1
 10
-451.167
 20
-890.024
 30
3811.000
 70
    32
  0
VERTEX
  8
E15LXLIFT
 62
1
 10
-447.807
 20
-896.593
 30
3811.000
 70
    32
  0
VERTEX
  8
E15LXLIFT
 62
1
 10
-439.407
 20
-905.469
 30
3811.000
 70
    32
  0
VERTEX
  8
E15LXLIFT
 62
1
 10
-435.511
 20
-920.547
 30
3811.000
 70
    32
  0
VERTEX
  8
E15LXLIFT
 62
1
 10
-431.136
 20
-934.191
 30
3811.000
 70
    32
  0
VERTEX
  8
E15LXLIFT
 62
1
 10
-424.168
 20
-941.394
 30
3811.000
 70
    32
  0
VERTEX
  8
E15LXLIFT
 62
1
 10
-419.358
 20
-951.902
 30
3811.000
 70
    32
  0
VERTEX
  8
E15LXLIFT
 62
1
 10
-416.867
 20
-963.550
 30
3811.000
 70
    32
  0
VERTEX
  8
E15LXLIFT
 62
1
 10
-409.792
 20
-975.234
 30
3811.000
 70
    32
  0
VERTEX
  8
E15LXLIFT
 62
1
 10
-402.922
 20
-983.051
 30
3811.000
 70
    32
  0
VERTEX
  8
E15LXLIFT
 62
1
 10
-398.794
 20
-989.929
 30
3811.000
 70
    32
  0
VERTEX
  8
E15LXLIFT
 62
1
 10
-397.549
 20
-1001.506
 30
3811.000
 70
    32
  0
VERTEX
  8
E15LXLIFT
 62
1
 10
-399.273
 20
-1011.983
 30
3811.000
 70
    32
  0
VERTEX
  8
E15LXLIFT
 62
1
 10
-384.289
 20
-1013.039
 30
3811.000
 70
    32
  0
VERTEX
  8
E15LXLIFT
 62
1
 10
-378.457
 20
-1019.873
 30
3811.000
 70
    32
  0
SEQEND
  8
E15LXLIFT
  0
POLYLINE
  8
E15LXLIFT
 62
1
 66
     1
 70
     9
  0
VERTEX
  8
E15LXLIFT
 62
1
 10
-613.921
 20
-623.066
 30
3738.000
 70
    32
  0
VERTEX
  8
E15LXLIFT
 62
1
 10
-609.327
 20
-629.181
 30
3738.000
 70
    32
  0
VERTEX
  8
E15LXLIFT
 62
1
 10
-608.183
 20
-635.646
 30
3738.000
 70
    32
  0
VERTEX
  8
E15LXLIFT
 62
1
 10
-610.815
 20
-641.718
 30
3738.000
 70
    32
  0
VERTEX
  8
E15LXLIFT
 62
1
 10
-606.983
 20
-651.552
 30
3738.000
 70
    32
  0
VERTEX
  8
E15LXLIFT
 62
1
 10
-601.973
 20
-663.138
 30
3738.000
 70
    32
  0
VERTEX
  8
E15LXLIFT
 62
1
 10
-596.732
 20
-674.446
 30
3738.000
 70
    32
  0
VERTEX
  8
E15LXLIFT
 62
1
 10
-593.004
 20
-685.773
 30
3738.000
 70
    32
  0
VERTEX
  8
E15LXLIFT
 62
1
 10
-595.730
 20
-695.730
 30
3738.000
 70
    32
  0
VERTEX
  8
E15LXLIFT
 62
1
 10
-596.906
 20
-705.422
 30
3738.000
 70
    32
  0
VERTEX
  8
E15LXLIFT
 62
1
 10
-596.594
 20
-712.387
 30
3738.000
 70
    32
  0
VERTEX
  8
E15LXLIFT
 62
1
 10
-603.692
 20
-713.559
 30
3738.000
 70
    32
  0
VERTEX
  8
E15LXLIFT
 62
1
 10
-610.346
 20
-709.392
 30
3738.000
 70
    32
  0
VERTEX
  8
E15LXLIFT
 62
1
 10
-613.006
 20
-700.116
 30
3738.000
 70
    32
  0
VERTEX
  8
E15LXLIFT
 62
1
 10
-612.647
 20
-692.876
 30
3738.000
 70
    32
  0
VERTEX
  8
E15LXLIFT
 62
1
 10
-619.433
 20
-686.298
 30
3738.000
 70
    32
  0
VERTEX
  8
E15LXLIFT
 62
1
 10
-628.058
 20
-678.998
 30
3738.000
 70
    32
  0
VERTEX
  8
E15LXLIFT
 62
1
 10
-634.395
 20
-674.816
 30
3738.000
 70
    32
  0
VERTEX
  8
E15LXLIFT
 62
1
 10
-639.588
 20
-678.733
 30
3738.000
 70
    32
  0
VERTEX
  8
E15LXLIFT
 62
1
 10
-645.580
 20
-680.076
 30
3738.000
 70
    32
  0
VERTEX
  8
E15LXLIFT
 62
1
 10
-651.997
 20
-676.825
 30
3738.000
 70
    32
  0
VERTEX
  8
E15LXLIFT
 62
1
 10
-656.529
 20
-668.267
 30
3738.000
 70
    32
  0
VERTEX
  8
E15LXLIFT
 62
1
 10
-658.103
 20
-659.284
 30
3738.000
 70
    32
  0
VERTEX
  8
E15LXLIFT
 62
1
 10
-661.567
 20
-649.507
 30
3738.000
 70
    32
  0
VERTEX
  8
E15LXLIFT
 62
1
 10
-660.570
 20
-638.530
 30
3738.000
 70
    32
  0
VERTEX
  8
E15LXLIFT
 62
1
 10
-661.624
 20
-631.890
 30
3738.000
 70
    32
  0
VERTEX
  8
E15LXLIFT
 62
1
 10
-665.135
 20
-624.873
 30
3738.000
 70
    32
  0
VERTEX
  8
E15LXLIFT
 62
1
 10
-662.097
 20
-620.247
 30
3738.000
 70
    32
  0
VERTEX
  8
E15LXLIFT
 62
1
 10
-659.002
 20
-616.887
 30
3738.000
 70
    32
  0
VERTEX
  8
E15LXLIFT
 62
1
 10
-655.779
 20
-621.281
 30
3738.000
 70
    32
  0
VERTEX
  8
E15LXLIFT
 62
1
 10
-650.019
 20
-623.488
 30
3738.000
 70
    32
  0
VERTEX
  8
E15LXLIFT
 62
1
 10
-645.426
 20
-618.158
 30
3738.000
 70
    32
  0
VERTEX
  8
E15LXLIFT
 62
1
 10
-638.673
 20
-613.096
 30
3738.000
 70
    32
  0
VERTEX
  8
E15LXLIFT
 62
1
 10
-632.171
 20
-618.247
 30
3738.000
 70
    32
  0
VERTEX
  8
E15LXLIFT
 62
1
 10
-626.703
 20
-621.540
 30
3738.000
 70
    32
  0
VERTEX
  8
E15LXLIFT
 62
1
 10
-624.520
 20
-619.612
 30
3738.000
 70
    32
  0
SEQEND
  8
E15LXLIFT
  0
POLYLINE
  8
E15LXLIFT
 62
1
 66
     1
 70
     9
  0
VERTEX
  8
E15LXLIFT
 62
1
 10
-491.235
 20
-689.730
 30
3752.000
 70
    32
  0
VERTEX
  8
E15LXLIFT
 62
1
 10
-482.989
 20
-691.313
 30
3752.000
 70
    32
  0
VERTEX
  8
E15LXLIFT
 62
1
 10
-477.753
 20
-693.250
 30
3752.000
 70
    32
  0
VERTEX
  8
E15LXLIFT
 62
1
 10
-477.229
 20
-704.965
 30
3752.000
 70
    32
  0
VERTEX
  8
E15LXLIFT
 62
1
 10
-477.039
 20
-720.086
 30
3752.000
 70
    32
  0
VERTEX
  8
E15LXLIFT
 62
1
 10
-477.218
 20
-733.516
 30
3752.000
 70
    32
  0
VERTEX
  8
E15LXLIFT
 62
1
 10
-474.978
 20
-750.840
 30
3752.000
 70
    32
  0
VERTEX
  8
E15LXLIFT
 62
1
 10
-471.183
 20
-765.824
 30
3752.000
 70
    32
  0
VERTEX
  8
E15LXLIFT
 62
1
 10
-467.742
 20
-781.069
 30
3752.000
 70
    32
  0
VERTEX
  8
E15LXLIFT
 62
1
 10
-462.043
 20
-795.529
 30
3752.000
 70
    32
  0
VERTEX
  8
E15LXLIFT
 62
1
 10
-457.690
 20
-807.706
 30
3752.000
 70
    32
  0
VERTEX
  8
E15LXLIFT
 62
1
 10
-458.876
 20
-821.547
 30
3752.000
 70
    32
  0
VERTEX
  8
E15LXLIFT
 62
1
 10
-460.190
 20
-830.904
 30
3752.000
 70
    32
  0
VERTEX
  8
E15LXLIFT
 62
1
 10
-469.555
 20
-832.104
 30
3752.000
 70
    32
  0
VERTEX
  8
E15LXLIFT
 62
1
 10
-475.302
 20
-825.309
 30
3752.000
 70
    32
  0
VERTEX
  8
E15LXLIFT
 62
1
 10
-482.437
 20
-820.187
 30
3752.000
 70
    32
  0
VERTEX
  8
E15LXLIFT
 62
1
 10
-488.080
 20
-810.263
 30
3752.000
 70
    32
  0
VERTEX
  8
E15LXLIFT
 62
1
 10
-481.998
 20
-803.841
 30
3752.000
 70
    32
  0
VERTEX
  8
E15LXLIFT
 62
1
 10
-479.764
 20
-797.079
 30
3752.000
 70
    32
  0
VERTEX
  8
E15LXLIFT
 62
1
 10
-475.478
 20
-790.884
 30
3752.000
 70
    32
  0
VERTEX
  8
E15LXLIFT
 62
1
 10
-474.178
 20
-784.481
 30
3752.000
 70
    32
  0
VERTEX
  8
E15LXLIFT
 62
1
 10
-477.368
 20
-772.105
 30
3752.000
 70
    32
  0
VERTEX
  8
E15LXLIFT
 62
1
 10
-481.121
 20
-762.975
 30
3752.000
 70
    32
  0
VERTEX
  8
E15LXLIFT
 62
1
 10
-488.658
 20
-752.697
 30
3752.000
 70
    32
  0
VERTEX
  8
E15LXLIFT
 62
1
 10
-492.708
 20
-741.824
 30
3752.000
 70
    32
  0
VERTEX
  8
E15LXLIFT
 62
1
 10
-494.934
 20
-729.722
 30
3752.000
 70
    32
  0
VERTEX
  8
E15LXLIFT
 62
1
 10
-493.607
 20
-709.237
 30
3752.000
 70
    32
  0
SEQEND
  8
E15LXLIFT
  0
POLYLINE
  8
E15LXLIFT
 62
1
 66
     1
 70
     9
  0
VERTEX
  8
E15LXLIFT
 62
1
 10
-556.640
 20
-683.078
 30
3693.000
 70
    32
  0
VERTEX
  8
E15LXLIFT
 62
1
 10
-547.710
 20
-677.872
 30
3693.000
 70
    32
  0
VERTEX
  8
E15LXLIFT
 62
1
 10
-545.069
 20
-681.494
 30
3693.000
 70
    32
  0
VERTEX
  8
E15LXLIFT
 62
1
 10
-538.334
 20
-694.311
 30
3693.000
 70
    32
  0
VERTEX
  8
E15LXLIFT
 62
1
 10
-530.403
 20
-707.127
 30
3693.000
 70
    32
  0
VERTEX
  8
E15LXLIFT
 62
1
 10
-524.386
 20
-718.511
 30
3693.000
 70
    32
  0
VERTEX
  8
E15LXLIFT
 62
1
 10
-523.696
 20
-732.583
 30
3693.000
 70
    32
  0
VERTEX
  8
E15LXLIFT
 62
1
 10
-524.930
 20
-748.493
 30
3693.000
 70
    32
  0
VERTEX
  8
E15LXLIFT
 62
1
 10
-524.710
 20
-764.756
 30
3693.000
 70
    32
  0
VERTEX
  8
E15LXLIFT
 62
1
 10
-520.792
 20
-781.912
 30
3693.000
 70
    32
  0
VERTEX
  8
E15LXLIFT
 62
1
 10
-517.210
 20
-793.984
 30
3693.000
 70
    32
  0
VERTEX
  8
E15LXLIFT
 62
1
 10
-513.688
 20
-805.229
 30
3693.000
 70
    32
  0
VERTEX
  8
E15LXLIFT
 62
1
 10
-519.648
 20
-807.944
 30
3693.000
 70
    32
  0
VERTEX
  8
E15LXLIFT
 62
1
 10
-525.368
 20
-812.331
 30
3693.000
 70
    32
  0
VERTEX
  8
E15LXLIFT
 62
1
 10
-531.254
 20
-812.164
 30
3693.000
 70
    32
  0
VERTEX
  8
E15LXLIFT
 62
1
 10
-538.570
 20
-805.861
 30
3693.000
 70
    32
  0
VERTEX
  8
E15LXLIFT
 62
1
 10
-545.229
 20
-792.552
 30
3693.000
 70
    32
  0
VERTEX
  8
E15LXLIFT
 62
1
 10
-553.129
 20
-778.735
 30
3693.000
 70
    32
  0
VERTEX
  8
E15LXLIFT
 62
1
 10
-561.625
 20
-768.723
 30
3693.000
 70
    32
  0
VERTEX
  8
E15LXLIFT
 62
1
 10
-569.344
 20
-759.778
 30
3693.000
 70
    32
  0
VERTEX
  8
E15LXLIFT
 62
1
 10
-567.745
 20
-751.977
 30
3693.000
 70
    32
  0
VERTEX
  8
E15LXLIFT
 62
1
 10
-562.686
 20
-746.982
 30
3693.000
 70
    32
  0
VERTEX
  8
E15LXLIFT
 62
1
 10
-554.916
 20
-744.362
 30
3693.000
 70
    32
  0
VERTEX
  8
E15LXLIFT
 62
1
 10
-554.539
 20
-735.930
 30
3693.000
 70
    32
  0
VERTEX
  8
E15LXLIFT
 62
1
 10
-556.233
 20
-724.657
 30
3693.000
 70
    32
  0
VERTEX
  8
E15LXLIFT
 62
1
 10
-559.196
 20
-711.046
 30
3693.000
 70
    32
  0
VERTEX
  8
E15LXLIFT
 62
1
 10
-564.090
 20
-698.517
 30
3693.000
 70
    32
  0
VERTEX
  8
E15LXLIFT
 62
1
 10
-569.237
 20
-685.194
 30
3693.000
 70
    32
  0
SEQEND
  8
E15LXLIFT
  0
POLYLINE
  8
E15LXLIFT
 62
1
 66
     1
 70
     9
  0
VERTEX
  8
E15LXLIFT
 62
1
 10
-190.081
 20
-1279.058
 30
3748.000
 70
    32
  0
VERTEX
  8
E15LXLIFT
 62
1
 10
-177.887
 20
-1275.195
 30
3748.000
 70
    32
  0
VERTEX
  8
E15LXLIFT
 62
1
 10
-168.461
 20
-1274.105
 30
3748.000
 70
    32
  0
VERTEX
  8
E15LXLIFT
 62
1
 10
-164.577
 20
-1280.195
 30
3748.000
 70
    32
  0
VERTEX
  8
E15LXLIFT
 62
1
 10
-158.708
 20
-1284.082
 30
3748.000
 70
    32
  0
VERTEX
  8
E15LXLIFT
 62
1
 10
-153.478
 20
-1284.846
 30
3748.000
 70
    32
  0
VERTEX
  8
E15LXLIFT
 62
1
 10
-154.541
 20
-1294.750
 30
3748.000
 70
    32
  0
VERTEX
  8
E15LXLIFT
 62
1
 10
-155.325
 20
-1304.886
 30
3748.000
 70
    32
  0
VERTEX
  8
E15LXLIFT
 62
1
 10
-146.645
 20
-1313.687
 30
3748.000
 70
    32
  0
VERTEX
  8
E15LXLIFT
 62
1
 10
-139.827
 20
-1321.123
 30
3748.000
 70
    32
  0
VERTEX
  8
E15LXLIFT
 62
1
 10
-133.835
 20
-1326.225
 30
3748.000
 70
    32
  0
VERTEX
  8
E15LXLIFT
 62
1
 10
-131.503
 20
-1334.966
 30
3748.000
 70
    32
  0
VERTEX
  8
E15LXLIFT
 62
1
 10
-136.430
 20
-1339.852
 30
3748.000
 70
    32
  0
VERTEX
  8
E15LXLIFT
 62
1
 10
-141.280
 20
-1344.247
 30
3748.000
 70
    32
  0
VERTEX
  8
E15LXLIFT
 62
1
 10
-142.685
 20
-1354.726
 30
3748.000
 70
    32
  0
VERTEX
  8
E15LXLIFT
 62
1
 10
-141.530
 20
-1364.540
 30
3748.000
 70
    32
  0
VERTEX
  8
E15LXLIFT
 62
1
 10
-141.273
 20
-1372.071
 30
3748.000
 70
    32
  0
VERTEX
  8
E15LXLIFT
 62
1
 10
-146.110
 20
-1375.587
 30
3748.000
 70
    32
  0
VERTEX
  8
E15LXLIFT
 62
1
 10
-147.178
 20
-1383.538
 30
3748.000
 70
    32
  0
VERTEX
  8
E15LXLIFT
 62
1
 10
-148.880
 20
-1387.928
 30
3748.000
 70
    32
  0
VERTEX
  8
E15LXLIFT
 62
1
 10
-156.702
 20
-1388.831
 30
3748.000
 70
    32
  0
VERTEX
  8
E15LXLIFT
 62
1
 10
-164.376
 20
-1387.995
 30
3748.000
 70
    32
  0
VERTEX
  8
E15LXLIFT
 62
1
 10
-167.257
 20
-1379.545
 30
3748.000
 70
    32
  0
VERTEX
  8
E15LXLIFT
 62
1
 10
-168.644
 20
-1365.225
 30
3748.000
 70
    32
  0
VERTEX
  8
E15LXLIFT
 62
1
 10
-170.470
 20
-1353.291
 30
3748.000
 70
    32
  0
VERTEX
  8
E15LXLIFT
 62
1
 10
-170.901
 20
-1343.277
 30
3748.000
 70
    32
  0
VERTEX
  8
E15LXLIFT
 62
1
 10
-175.335
 20
-1336.281
 30
3748.000
 70
    32
  0
VERTEX
  8
E15LXLIFT
 62
1
 10
-174.201
 20
-1328.718
 30
3748.000
 70
    32
  0
VERTEX
  8
E15LXLIFT
 62
1
 10
-172.583
 20
-1318.083
 30
3748.000
 70
    32
  0
VERTEX
  8
E15LXLIFT
 62
1
 10
-172.781
 20
-1307.792
 30
3748.000
 70
    32
  0
VERTEX
  8
E15LXLIFT
 62
1
 10
-174.551
 20
-1300.273
 30
3748.000
 70
    32
  0
VERTEX
  8
E15LXLIFT
 62
1
 10
-181.415
 20
-1293.522
 30
3748.000
 70
    32
  0
VERTEX
  8
E15LXLIFT
 62
1
 10
-186.793
 20
-1290.909
 30
3748.000
 70
    32
  0
SEQEND
  8
E15LXLIFT
  0
POLYLINE
  8
E15LXLIFT
 62
1
 66
     1
 70
     9
  0
VERTEX
  8
E15LXLIFT
 62
1
 10
-84.891
 20
-1442.227
 30
3728.000
 70
    32
  0
VERTEX
  8
E15LXLIFT
 62
1
 10
-89.632
 20
-1447.031
 30
3728.000
 70
    32
  0
VERTEX
  8
E15LXLIFT
 62
1
 10
-91.188
 20
-1452.399
 30
3728.000
 70
    32
  0
VERTEX
  8
E15LXLIFT
 62
1
 10
-83.640
 20
-1461.346
 30
3728.000
 70
    32
  0
VERTEX
  8
E15LXLIFT
 62
1
 10
-81.855
 20
-1467.050
 30
3728.000
 70
    32
  0
VERTEX
  8
E15LXLIFT
 62
1
 10
-80.427
 20
-1478.979
 30
3728.000
 70
    32
  0
VERTEX
  8
E15LXLIFT
 62
1
 10
-78.981
 20
-1491.223
 30
3728.000
 70
    32
  0
VERTEX
  8
E15LXLIFT
 62
1
 10
-74.341
 20
-1498.514
 30
3728.000
 70
    32
  0
VERTEX
  8
E15LXLIFT
 62
1
 10
-61.301
 20
-1509.034
 30
3728.000
 70
    32
  0
VERTEX
  8
E15LXLIFT
 62
1
 10
-51.137
 20
-1517.212
 30
3728.000
 70
    32
  0
VERTEX
  8
E15LXLIFT
 62
1
 10
-53.498
 20
-1523.411
 30
3728.000
 70
    32
  0
VERTEX
  8
E15LXLIFT
 62
1
 10
-49.520
 20
-1528.226
 30
3728.000
 70
    32
  0
VERTEX
  8
E15LXLIFT
 62
1
 10
-56.246
 20
-1533.320
 30
3728.000
 70
    32
  0
VERTEX
  8
E15LXLIFT
 62
1
 10
-65.950
 20
-1536.811
 30
3728.000
 70
    32
  0
VERTEX
  8
E15LXLIFT
 62
1
 10
-70.822
 20
-1536.201
 30
3728.000
 70
    32
  0
VERTEX
  8
E15LXLIFT
 62
1
 10
-76.307
 20
-1528.669
 30
3728.000
 70
    32
  0
VERTEX
  8
E15LXLIFT
 62
1
 10
-80.544
 20
-1528.461
 30
3728.000
 70
    32
  0
VERTEX
  8
E15LXLIFT
 62
1
 10
-84.766
 20
-1520.412
 30
3728.000
 70
    32
  0
VERTEX
  8
E15LXLIFT
 62
1
 10
-86.527
 20
-1515.903
 30
3728.000
 70
    32
  0
VERTEX
  8
E15LXLIFT
 62
1
 10
-93.649
 20
-1507.957
 30
3728.000
 70
    32
  0
VERTEX
  8
E15LXLIFT
 62
1
 10
-99.408
 20
-1498.316
 30
3728.000
 70
    32
  0
VERTEX
  8
E15LXLIFT
 62
1
 10
-102.825
 20
-1489.438
 30
3728.000
 70
    32
  0
VERTEX
  8
E15LXLIFT
 62
1
 10
-102.140
 20
-1481.754
 30
3728.000
 70
    32
  0
VERTEX
  8
E15LXLIFT
 62
1
 10
-106.755
 20
-1476.098
 30
3728.000
 70
    32
  0
VERTEX
  8
E15LXLIFT
 62
1
 10
-112.306
 20
-1473.136
 30
3728.000
 70
    32
  0
VERTEX
  8
E15LXLIFT
 62
1
 10
-117.316
 20
-1473.072
 30
3728.000
 70
    32
  0
VERTEX
  8
E15LXLIFT
 62
1
 10
-124.217
 20
-1467.163
 30
3728.000
 70
    32
  0
VERTEX
  8
E15LXLIFT
 62
1
 10
-132.494
 20
-1463.951
 30
3728.000
 70
    32
  0
VERTEX
  8
E15LXLIFT
 62
1
 10
-139.354
 20
-1455.476
 30
3728.000
 70
    32
  0
VERTEX
  8
E15LXLIFT
 62
1
 10
-144.686
 20
-1446.835
 30
3728.000
 70
    32
  0
VERTEX
  8
E15LXLIFT
 62
1
 10
-148.734
 20
-1442.073
 30
3728.000
 70
    32
  0
VERTEX
  8
E15LXLIFT
 62
1
 10
-142.794
 20
-1438.125
 30
3728.000
 70
    32
  0
VERTEX
  8
E15LXLIFT
 62
1
 10
-133.881
 20
-1445.817
 30
3728.000
 70
    32
  0
VERTEX
  8
E15LXLIFT
 62
1
 10
-127.534
 20
-1453.468
 30
3728.000
 70
    32
  0
VERTEX
  8
E15LXLIFT
 62
1
 10
-119.737
 20
-1459.250
 30
3728.000
 70
    32
  0
VERTEX
  8
E15LXLIFT
 62
1
 10
-111.670
 20
-1462.621
 30
3728.000
 70
    32
  0
VERTEX
  8
E15LXLIFT
 62
1
 10
-105.701
 20
-1461.187
 30
3728.000
 70
    32
  0
VERTEX
  8
E15LXLIFT
 62
1
 10
-110.307
 20
-1450.012
 30
3728.000
 70
    32
  0
VERTEX
  8
E15LXLIFT
 62
1
 10
-108.379
 20
-1445.133
 30
3728.000
 70
    32
  0
VERTEX
  8
E15LXLIFT
 62
1
 10
-112.206
 20
-1438.771
 30
3728.000
 70
    32
  0
VERTEX
  8
E15LXLIFT
 62
1
 10
-119.851
 20
-1431.442
 30
3728.000
 70
    32
  0
VERTEX
  8
E15LXLIFT
 62
1
 10
-124.008
 20
-1426.101
 30
3728.000
 70
    32
  0
VERTEX
  8
E15LXLIFT
 62
1
 10
-122.638
 20
-1422.086
 30
3728.000
 70
    32
  0
VERTEX
  8
E15LXLIFT
 62
1
 10
-116.477
 20
-1420.176
 30
3728.000
 70
    32
  0
VERTEX
  8
E15LXLIFT
 62
1
 10
-110.395
 20
-1416.562
 30
3728.000
 70
    32
  0
VERTEX
  8
E15LXLIFT
 62
1
 10
-109.639
 20
-1409.263
 30
3728.000
 70
    32
  0
VERTEX
  8
E15LXLIFT
 62
1
 10
-104.350
 20
-1405.037
 30
3728.000
 70
    32
  0
VERTEX
  8
E15LXLIFT
 62
1
 10
-99.124
 20
-1409.899
 30
3728.000
 70
    32
  0
VERTEX
  8
E15LXLIFT
 62
1
 10
-95.586
 20
-1418.355
 30
3728.000
 70
    32
  0
VERTEX
  8
E15LXLIFT
 62
1
 10
-92.071
 20
-1425.615
 30
3728.000
 70
    32
  0
VERTEX
  8
E15LXLIFT
 62
1
 10
-88.427
 20
-1430.572
 30
3728.000
 70
    32
  0
SEQEND
  8
E15LXLIFT
  0
POLYLINE
  8
E15LXLIFT
 62
2
 66
     1
 70
     9
  0
VERTEX
  8
E15LXLIFT
 62
2
 10
-2317.596
 20
660.171
 30
3678.000
 70
    32
  0
VERTEX
  8
E15LXLIFT
 62
2
 10
-2321.654
 20
666.682
 30
3678.000
 70
    32
  0
VERTEX
  8
E15LXLIFT
 62
2
 10
-2326.012
 20
677.210
 30
3678.000
 70
    32
  0
VERTEX
  8
E15LXLIFT
 62
2
 10
-2335.184
 20
682.085
 30
3678.000
 70
    32
  0
VERTEX
  8
E15LXLIFT
 62
2
 10
-2339.452
 20
692.787
 30
3678.000
 70
    32
  0
VERTEX
  8
E15LXLIFT
 62
2
 10
-2335.507
 20
705.196
 30
3678.000
 70
    32
  0
VERTEX
  8
E15LXLIFT
 62
2
 10
-2332.955
 20
716.379
 30
3678.000
 70
    32
  0
VERTEX
  8
E15LXLIFT
 62
2
 10
-2333.000
 20
729.050
 30
3678.000
 70
    32
  0
VERTEX
  8
E15LXLIFT
 62
2
 10
-2338.585
 20
742.926
 30
3678.000
 70
    32
  0
VERTEX
  8
E15LXLIFT
 62
2
 10
-2345.619
 20
749.347
 30
3678.000
 70
    32
  0
VERTEX
  8
E15LXLIFT
 62
2
 10
-2357.061
 20
754.208
 30
3678.000
 70
    32
  0
VERTEX
  8
E15LXLIFT
 62
2
 10
-2368.422
 20
755.654
 30
3678.000
 70
    32
  0
VERTEX
  8
E15LXLIFT
 62
2
 10
-2369.118
 20
764.271
 30
3678.000
 70
    32
  0
VERTEX
  8
E15LXLIFT
 62
2
 10
-2373.826
 20
771.832
 30
3678.000
 70
    32
  0
VERTEX
  8
E15LXLIFT
 62
2
 10
-2381.770
 20
781.612
 30
3678.000
 70
    32
  0
VERTEX
  8
E15LXLIFT
 62
2
 10
-2382.124
 20
789.608
 30
3678.000
 70
    32
  0
VERTEX
  8
E15LXLIFT
 62
2
 10
-2375.319
 20
797.462
 30
3678.000
 70
    32
  0
VERTEX
  8
E15LXLIFT
 62
2
 10
-2363.810
 20
798.512
 30
3678.000
 70
    32
  0
VERTEX
  8
E15LXLIFT
 62
2
 10
-2357.038
 20
798.307
 30
3678.000
 70
    32
  0
VERTEX
  8
E15LXLIFT
 62
2
 10
-2351.397
 20
788.707
 30
3678.000
 70
    32
  0
VERTEX
  8
E15LXLIFT
 62
2
 10
-2348.827
 20
774.497
 30
3678.000
 70
    32
  0
VERTEX
  8
E15LXLIFT
 62
2
 10
-2344.727
 20
764.325
 30
3678.000
 70
    32
  0
VERTEX
  8
E15LXLIFT
 62
2
 10
-2336.263
 20
763.281
 30
3678.000
 70
    32
  0
VERTEX
  8
E15LXLIFT
 62
2
 10
-2327.264
 20
751.441
 30
3678.000
 70
    32
  0
VERTEX
  8
E15LXLIFT
 62
2
 10
-2321.221
 20
734.531
 30
3678.000
 70
    32
  0
VERTEX
  8
E15LXLIFT
 62
2
 10
-2316.891
 20
720.290
 30
3678.000
 70
    32
  0
VERTEX
  8
E15LXLIFT
 62
2
 10
-2308.020
 20
709.226
 30
3678.000
 70
    32
  0
VERTEX
  8
E15LXLIFT
 62
2
 10
-2301.407
 20
692.728
 30
3678.000
 70
    32
  0
VERTEX
  8
E15LXLIFT
 62
2
 10
-2299.051
 20
678.363
 30
3678.000
 70
    32
  0
VERTEX
  8
E15LXLIFT
 62
2
 10
-2300.334
 20
667.229
 30
3678.000
 70
    32
  0
VERTEX
  8
E15LXLIFT
 62
2
 10
-2304.896
 20
663.929
 30
3678.000
 70
    32
  0
SEQEND
  8
E15LXLIFT
  0
POLYLINE
  8
E15LXLIFT
 62
1
 66
     1
 70
     9
  0
VERTEX
  8
E15LXLIFT
 62
1
 10
-2316.596
 20
661.171
 30
3688.000
 70
    32
  0
VERTEX
  8
E15LXLIFT
 62
1
 10
-2320.654
 20
667.682
 30
3688.000
 70
    32
  0
VERTEX
  8
E15LXLIFT
 62
1
 10
-2325.012
 20
678.210
 30
3688.000
 70
    32
  0
VERTEX
  8
E15LXLIFT
 62
1
 10
-2334.184
 20
683.085
 30
3688.000
 70
    32
  0
VERTEX
  8
E15LXLIFT
 62
1
 10
-2338.452
 20
693.787
 30
3688.000
 70
    32
  0
VERTEX
  8
E15LXLIFT
 62
1
 10
-2334.507
 20
706.196
 30
3688.000
 70
    32
  0
VERTEX
  8
E15LXLIFT
 62
1
 10
-2331.955
 20
717.379
 30
3688.000
 70
    32
  0
VERTEX
  8
E15LXLIFT
 62
1
 10
-2332.000
 20
730.050
 30
3688.000
 70
    32
  0
VERTEX
  8
E15LXLIFT
 62
1
 10
-2337.585
 20
743.926
 30
3688.000
 70
    32
  0
VERTEX
  8
E15LXLIFT
 62
1
 10
-2344.619
 20
750.347
 30
3688.000
 70
    32
  0
VERTEX
  8
E15LXLIFT
 62
1
 10
-2356.061
 20
755.208
 30
3688.000
 70
    32
  0
VERTEX
  8
E15LXLIFT
 62
1
 10
-2367.422
 20
756.654
 30
3688.000
 70
    32
  0
VERTEX
  8
E15LXLIFT
 62
1
 10
-2368.118
 20
765.271
 30
3688.000
 70
    32
  0
VERTEX
  8
E15LXLIFT
 62
1
 10
-2372.826
 20
772.832
 30
3688.000
 70
    32
  0
VERTEX
  8
E15LXLIFT
 62
1
 10
-2380.770
 20
782.612
 30
3688.000
 70
    32
  0
VERTEX
  8
E15LXLIFT
 62
1
 10
-2381.124
 20
790.608
 30
3688.000
 70
    32
  0
VERTEX
  8
E15LXLIFT
 62
1
 10
-2374.319
 20
798.462
 30
3688.000
 70
    32
  0
VERTEX
  8
E15LXLIFT
 62
1
 10
-2362.810
 20
799.512
 30
3688.000
 70
    32
  0
VERTEX
  8
E15LXLIFT
 62
1
 10
-2356.038
 20
799.307
 30
3688.000
 70
    32
  0
VERTEX
  8
E15LXLIFT
 62
1
 10
-2350.397
 20
789.707
 30
3688.000
 70
    32
  0
VERTEX
  8
E15LXLIFT
 62
1
 10
-2347.827
 20
775.497
 30
3688.000
 70
    32
  0
VERTEX
  8
E15LXLIFT
 62
1
 10
-2343.727
 20
765.325
 30
3688.000
 70
    32
  0
VERTEX
  8
E15LXLIFT
 62
1
 10
-2335.263
 20
764.281
 30
3688.000
 70
    32
  0
VERTEX
  8
E15LXLIFT
 62
1
 10
-2326.264
 20
752.441
 30
3688.000
 70
    32
  0
VERTEX
  8
E15LXLIFT
 62
1
 10
-2320.221
 20
735.531
 30
3688.000
 70
    32
  0
VERTEX
  8
E15LXLIFT
 62
1
 10
-2315.891
 20
721.290
 30
3688.000
 70
    32
  0
VERTEX
  8
E15LXLIFT
 62
1
 10
-2307.020
 20
710.226
 30
3688.000
 70
    32
  0
VERTEX
  8
E15LXLIFT
 62
1
 10
-2300.407
 20
693.728
 30
3688.000
 70
    32
  0
VERTEX
  8
E15LXLIFT
 62
1
 10
-2298.051
 20
679.363
 30
3688.000
 70
    32
  0
VERTEX
  8
E15LXLIFT
 62
1
 10
-2299.334
 20
668.229
 30
3688.000
 70
    32
  0
VERTEX
  8
E15LXLIFT
 62
1
 10
-2303.896
 20
664.929
 30
3688.000
 70
    32
  0
SEQEND
  8
E15LXLIFT
  0
POLYLINE
  8
E15LXLIFT
 62
3
 66
     1
 70
     9
  0
VERTEX
  8
E15LXLIFT
 62
3
 10
-2639.362
 20
959.664
 30
3702.000
 70
    32
  0
VERTEX
  8
E15LXLIFT
 62
3
 10
-2636.653
 20
975.145
 30
3702.000
 70
    32
  0
VERTEX
  8
E15LXLIFT
 62
3
 10
-2624.285
 20
970.447
 30
3702.000
 70
    32
  0
VERTEX
  8
E15LXLIFT
 62
3
 10
-2612.884
 20
966.356
 30
3702.000
 70
    32
  0
VERTEX
  8
E15LXLIFT
 62
3
 10
-2606.647
 20
965.605
 30
3702.000
 70
    32
  0
VERTEX
  8
E15LXLIFT
 62
3
 10
-2600.004
 20
966.865
 30
3702.000
 70
    32
  0
VERTEX
  8
E15LXLIFT
 62
3
 10
-2588.711
 20
963.989
 30
3702.000
 70
    32
  0
VERTEX
  8
E15LXLIFT
 62
3
 10
-2583.789
 20
973.610
 30
3702.000
 70
    32
  0
VERTEX
  8
E15LXLIFT
 62
3
 10
-2579.758
 20
982.815
 30
3702.000
 70
    32
  0
VERTEX
  8
E15LXLIFT
 62
3
 10
-2572.290
 20
985.950
 30
3702.000
 70
    32
  0
VERTEX
  8
E15LXLIFT
 62
3
 10
-2577.169
 20
996.489
 30
3702.000
 70
    32
  0
VERTEX
  8
E15LXLIFT
 62
3
 10
-2580.292
 20
1006.980
 30
3702.000
 70
    32
  0
VERTEX
  8
E15LXLIFT
 62
3
 10
-2584.649
 20
1012.829
 30
3702.000
 70
    32
  0
VERTEX
  8
E15LXLIFT
 62
3
 10
-2595.579
 20
1009.718
 30
3702.000
 70
    32
  0
VERTEX
  8
E15LXLIFT
 62
3
 10
-2602.223
 20
1003.291
 30
3702.000
 70
    32
  0
VERTEX
  8
E15LXLIFT
 62
3
 10
-2607.759
 20
998.188
 30
3702.000
 70
    32
  0
VERTEX
  8
E15LXLIFT
 62
3
 10
-2618.001
 20
998.363
 30
3702.000
 70
    32
  0
VERTEX
  8
E15LXLIFT
 62
3
 10
-2626.531
 20
1005.240
 30
3702.000
 70
    32
  0
VERTEX
  8
E15LXLIFT
 62
3
 10
-2631.590
 20
1009.193
 30
3702.000
 70
    32
  0
VERTEX
  8
E15LXLIFT
 62
3
 10
-2637.575
 20
1011.413
 30
3702.000
 70
    32
  0
VERTEX
  8
E15LXLIFT
 62
3
 10
-2644.199
 20
1019.856
 30
3702.000
 70
    32
  0
VERTEX
  8
E15LXLIFT
 62
3
 10
-2653.055
 20
1024.457
 30
3702.000
 70
    32
  0
VERTEX
  8
E15LXLIFT
 62
3
 10
-2663.126
 20
1028.951
 30
3702.000
 70
    32
  0
VERTEX
  8
E15LXLIFT
 62
3
 10
-2670.934
 20
1030.097
 30
3702.000
 70
    32
  0
VERTEX
  8
E15LXLIFT
 62
3
 10
-2680.905
 20
1029.280
 30
3702.000
 70
    32
  0
VERTEX
  8
E15LXLIFT
 62
3
 10
-2686.451
 20
1031.488
 30
3702.000
 70
    32
  0
VERTEX
  8
E15LXLIFT
 62
3
 10
-2688.942
 20
1034.246
 30
3702.000
 70
    32
  0
VERTEX
  8
E15LXLIFT
 62
3
 10
-2686.114
 20
1043.783
 30
3702.000
 70
    32
  0
VERTEX
  8
E15LXLIFT
 62
3
 10
-2682.265
 20
1053.397
 30
3702.000
 70
    32
  0
VERTEX
  8
E15LXLIFT
 62
3
 10
-2681.754
 20
1058.603
 30
3702.000
 70
    32
  0
VERTEX
  8
E15LXLIFT
 62
3
 10
-2689.663
 20
1059.892
 30
3702.000
 70
    32
  0
VERTEX
  8
E15LXLIFT
 62
3
 10
-2694.708
 20
1062.456
 30
3702.000
 70
    32
  0
VERTEX
  8
E15LXLIFT
 62
3
 10
-2696.871
 20
1055.326
 30
3702.000
 70
    32
  0
VERTEX
  8
E15LXLIFT
 62
3
 10
-2705.472
 20
1049.990
 30
3702.000
 70
    32
  0
VERTEX
  8
E15LXLIFT
 62
3
 10
-2716.456
 20
1043.612
 30
3702.000
 70
    32
  0
VERTEX
  8
E15LXLIFT
 62
3
 10
-2723.074
 20
1036.235
 30
3702.000
 70
    32
  0
VERTEX
  8
E15LXLIFT
 62
3
 10
-2725.068
 20
1023.090
 30
3702.000
 70
    32
  0
VERTEX
  8
E15LXLIFT
 62
3
 10
-2727.074
 20
1014.673
 30
3702.000
 70
    32
  0
VERTEX
  8
E15LXLIFT
 62
3
 10
-2718.493
 20
1010.307
 30
3702.000
 70
    32
  0
VERTEX
  8
E15LXLIFT
 62
3
 10
-2711.989
 20
1002.641
 30
3702.000
 70
    32
  0
VERTEX
  8
E15LXLIFT
 62
3
 10
-2707.473
 20
998.088
 30
3702.000
 70
    32
  0
VERTEX
  8
E15LXLIFT
 62
3
 10
-2699.267
 20
1001.854
 30
3702.000
 70
    32
  0
VERTEX
  8
E15LXLIFT
 62
3
 10
-2693.689
 20
995.039
 30
3702.000
 70
    32
  0
VERTEX
  8
E15LXLIFT
 62
3
 10
-2687.384
 20
991.000
 30
3702.000
 70
    32
  0
VERTEX
  8
E15LXLIFT
 62
3
 10
-2688.365
 20
983.416
 30
3702.000
 70
    32
  0
VERTEX
  8
E15LXLIFT
 62
3
 10
-2686.446
 20
973.257
 30
3702.000
 70
    32
  0
VERTEX
  8
E15LXLIFT
 62
3
 10
-2680.453
 20
962.969
 30
3702.000
 70
    32
  0
VERTEX
  8
E15LXLIFT
 62
3
 10
-2674.429
 20
960.238
 30
3702.000
 70
    32
  0
VERTEX
  8
E15LXLIFT
 62
3
 10
-2663.443
 20
959.620
 30
3702.000
 70
    32
  0
VERTEX
  8
E15LXLIFT
 62
3
 10
-2655.557
 20
957.453
 30
3702.000
 70
    32
  0
VERTEX
  8
E15LXLIFT
 62
3
 10
-2649.429
 20
952.751
 30
3702.000
 70
    32
  0
SEQEND
  8
E15LXLIFT
  0
POLYLINE
  8
E15LXLIFT
 62
7
 66
     1
 70
     9
  0
VERTEX
  8
E15LXLIFT
 62
7
 10
-2458.861
 20
872.799
 30
3719.000
 70
    32
  0
VERTEX
  8
E15LXLIFT
 62
7
 10
-2453.073
 20
875.591
 30
3719.000
 70
    32
  0
VERTEX
  8
E15LXLIFT
 62
7
 10
-2441.730
 20
879.703
 30
3719.000
 70
    32
  0
VERTEX
  8
E15LXLIFT
 62
7
 10
-2431.233
 20
883.635
 30
3719.000
 70
    32
  0
VERTEX
  8
E15LXLIFT
 62
7
 10
-2425.891
 20
876.877
 30
3719.000
 70
    32
  0
VERTEX
  8
E15LXLIFT
 62
7
 10
-2423.754
 20
866.162
 30
3719.000
 70
    32
  0
VERTEX
  8
E15LXLIFT
 62
7
 10
-2426.252
 20
859.138
 30
3719.000
 70
    32
  0
VERTEX
  8
E15LXLIFT
 62
7
 10
-2423.409
 20
850.889
 30
3719.000
 70
    32
  0
VERTEX
  8
E15LXLIFT
 62
7
 10
-2424.409
 20
842.998
 30
3719.000
 70
    32
  0
VERTEX
  8
E15LXLIFT
 62
7
 10
-2422.104
 20
832.949
 30
3719.000
 70
    32
  0
VERTEX
  8
E15LXLIFT
 62
7
 10
-2419.070
 20
822.343
 30
3719.000
 70
    32
  0
VERTEX
  8
E15LXLIFT
 62
7
 10
-2423.686
 20
814.648
 30
3719.000
 70
    32
  0
VERTEX
  8
E15LXLIFT
 62
7
 10
-2431.411
 20
812.729
 30
3719.000
 70
    32
  0
VERTEX
  8
E15LXLIFT
 62
7
 10
-2442.079
 20
813.666
 30
3719.000
 70
    32
  0
VERTEX
  8
E15LXLIFT
 62
7
 10
-2447.886
 20
819.870
 30
3719.000
 70
    32
  0
VERTEX
  8
E15LXLIFT
 62
7
 10
-2449.279
 20
832.102
 30
3719.000
 70
    32
  0
VERTEX
  8
E15LXLIFT
 62
7
 10
-2448.711
 20
841.633
 30
3719.000
 70
    32
  0
VERTEX
  8
E15LXLIFT
 62
7
 10
-2447.994
 20
851.707
 30
3719.000
 70
    32
  0
VERTEX
  8
E15LXLIFT
 62
7
 10
-2453.944
 20
857.807
 30
3719.000
 70
    32
  0
VERTEX
  8
E15LXLIFT
 62
7
 10
-2460.657
 20
862.267
 30
3719.000
 70
    32
  0
SEQEND
  8
E15LXLIFT
  0
POLYLINE
  8
E15LXLIFT
 62
1
 66
     1
 70
     9
  0
VERTEX
  8
E15LXLIFT
 62
1
 10
-2655.812
 20
972.242
 30
3734.000
 70
    32
  0
VERTEX
  8
E15LXLIFT
 62
1
 10
-2650.751
 20
976.185
 30
3734.000
 70
    32
  0
VERTEX
  8
E15LXLIFT
 62
1
 10
-2639.897
 20
972.935
 30
3734.000
 70
    32
  0
VERTEX
  8
E15LXLIFT
 62
1
 10
-2630.053
 20
969.286
 30
3734.000
 70
    32
  0
VERTEX
  8
E15LXLIFT
 62
1
 10
-2626.388
 20
969.748
 30
3734.000
 70
    32
  0
VERTEX
  8
E15LXLIFT
 62
1
 10
-2613.451
 20
964.641
 30
3734.000
 70
    32
  0
VERTEX
  8
E15LXLIFT
 62
1
 10
-2601.943
 20
960.778
 30
3734.000
 70
    32
  0
VERTEX
  8
E15LXLIFT
 62
1
 10
-2598.128
 20
965.558
 30
3734.000
 70
    32
  0
VERTEX
  8
E15LXLIFT
 62
1
 10
-2586.193
 20
964.269
 30
3734.000
 70
    32
  0
VERTEX
  8
E15LXLIFT
 62
1
 10
-2575.464
 20
965.572
 30
3734.000
 70
    32
  0
VERTEX
  8
E15LXLIFT
 62
1
 10
-2568.201
 20
975.193
 30
3734.000
 70
    32
  0
VERTEX
  8
E15LXLIFT
 62
1
 10
-2561.109
 20
980.373
 30
3734.000
 70
    32
  0
VERTEX
  8
E15LXLIFT
 62
1
 10
-2557.121
 20
986.572
 30
3734.000
 70
    32
  0
VERTEX
  8
E15LXLIFT
 62
1
 10
-2551.816
 20
992.741
 30
3734.000
 70
    32
  0
VERTEX
  8
E15LXLIFT
 62
1
 10
-2543.182
 20
997.728
 30
3734.000
 70
    32
  0
VERTEX
  8
E15LXLIFT
 62
1
 10
-2536.408
 20
1005.920
 30
3734.000
 70
    32
  0
VERTEX
  8
E15LXLIFT
 62
1
 10
-2537.424
 20
1014.587
 30
3734.000
 70
    32
  0
VERTEX
  8
E15LXLIFT
 62
1
 10
-2544.059
 20
1013.296
 30
3734.000
 70
    32
  0
VERTEX
  8
E15LXLIFT
 62
1
 10
-2553.039
 20
1006.982
 30
3734.000
 70
    32
  0
VERTEX
  8
E15LXLIFT
 62
1
 10
-2560.317
 20
1005.232
 30
3734.000
 70
    32
  0
VERTEX
  8
E15LXLIFT
 62
1
 10
-2565.783
 20
1012.875
 30
3734.000
 70
    32
  0
VERTEX
  8
E15LXLIFT
 62
1
 10
-2573.077
 20
1019.752
 30
3734.000
 70
    32
  0
VERTEX
  8
E15LXLIFT
 62
1
 10
-2578.113
 20
1025.435
 30
3734.000
 70
    32
  0
VERTEX
  8
E15LXLIFT
 62
1
 10
-2587.649
 20
1026.389
 30
3734.000
 70
    32
  0
VERTEX
  8
E15LXLIFT
 62
1
 10
-2592.453
 20
1019.822
 30
3734.000
 70
    32
  0
VERTEX
  8
E15LXLIFT
 62
1
 10
-2595.826
 20
1009.744
 30
3734.000
 70
    32
  0
VERTEX
  8
E15LXLIFT
 62
1
 10
-2595.800
 20
999.290
 30
3734.000
 70
    32
  0
VERTEX
  8
E15LXLIFT
 62
1
 10
-2599.949
 20
989.844
 30
3734.000
 70
    32
  0
VERTEX
  8
E15LXLIFT
 62
1
 10
-2608.665
 20
985.123
 30
3734.000
 70
    32
  0
VERTEX
  8
E15LXLIFT
 62
1
 10
-2618.381
 20
981.197
 30
3734.000
 70
    32
  0
VERTEX
  8
E15LXLIFT
 62
1
 10
-2628.397
 20
983.426
 30
3734.000
 70
    32
  0
VERTEX
  8
E15LXLIFT
 62
1
 10
-2639.692
 20
989.708
 30
3734.000
 70
    32
  0
VERTEX
  8
E15LXLIFT
 62
1
 10
-2650.017
 20
996.144
 30
3734.000
 70
    32
  0
VERTEX
  8
E15LXLIFT
 62
1
 10
-2658.577
 20
1004.490
 30
3734.000
 70
    32
  0
VERTEX
  8
E15LXLIFT
 62
1
 10
-2663.390
 20
1011.521
 30
3734.000
 70
    32
  0
VERTEX
  8
E15LXLIFT
 62
1
 10
-2664.375
 20
1020.749
 30
3734.000
 70
    32
  0
VERTEX
  8
E15LXLIFT
 62
1
 10
-2671.217
 20
1023.522
 30
3734.000
 70
    32
  0
VERTEX
  8
E15LXLIFT
 62
1
 10
-2674.714
 20
1015.731
 30
3734.000
 70
    32
  0
VERTEX
  8
E15LXLIFT
 62
1
 10
-2674.820
 20
1005.613
 30
3734.000
 70
    32
  0
VERTEX
  8
E15LXLIFT
 62
1
 10
-2681.156
 20
999.678
 30
3734.000
 70
    32
  0
VERTEX
  8
E15LXLIFT
 62
1
 10
-2673.510
 20
982.042
 30
3734.000
 70
    32
  0
VERTEX
  8
E15LXLIFT
 62
1
 10
-2667.539
 20
967.202
 30
3734.000
 70
    32
  0
SEQEND
  8
E15LXLIFT
  0
POLYLINE
  8
E15LXLIFT
 62
2
 66
     1
 70
     9
  0
VERTEX
  8
E15LXLIFT
 62
2
 10
-2406.248
 20
714.365
 30
3794.000
 70
    32
  0
VERTEX
  8
E15LXLIFT
 62
2
 10
-2399.783
 20
706.677
 30
3794.000
 70
    32
  0
VERTEX
  8
E15LXLIFT
 62
2
 10
-2395.043
 20
698.079
 30
3794.000
 70
    32
  0
VERTEX
  8
E15LXLIFT
 62
2
 10
-2394.224
 20
688.623
 30
3794.000
 70
    32
  0
VERTEX
  8
E15LXLIFT
 62
2
 10
-2396.133
 20
682.077
 30
3794.000
 70
    32
  0
VERTEX
  8
E15LXLIFT
 62
2
 10
-2394.661
 20
673.519
 30
3794.000
 70
    32
  0
VERTEX
  8
E15LXLIFT
 62
2
 10
-2394.036
 20
663.277
 30
3794.000
 70
    32
  0
VERTEX
  8
E15LXLIFT
 62
2
 10
-2393.565
 20
655.516
 30
3794.000
 70
    32
  0
VERTEX
  8
E15LXLIFT
 62
2
 10
-2388.612
 20
652.361
 30
3794.000
 70
    32
  0
VERTEX
  8
E15LXLIFT
 62
2
 10
-2382.362
 20
649.053
 30
3794.000
 70
    32
  0
VERTEX
  8
E15LXLIFT
 62
2
 10
-2379.052
 20
640.945
 30
3794.000
 70
    32
  0
VERTEX
  8
E15LXLIFT
 62
2
 10
-2377.518
 20
629.733
 30
3794.000
 70
    32
  0
VERTEX
  8
E15LXLIFT
 62
2
 10
-2376.404
 20
622.431
 30
3794.000
 70
    32
  0
VERTEX
  8
E15LXLIFT
 62
2
 10
-2369.766
 20
623.719
 30
3794.000
 70
    32
  0
VERTEX
  8
E15LXLIFT
 62
2
 10
-2362.373
 20
628.786
 30
3794.000
 70
    32
  0
VERTEX
  8
E15LXLIFT
 62
2
 10
-2359.924
 20
635.934
 30
3794.000
 70
    32
  0
VERTEX
  8
E15LXLIFT
 62
2
 10
-2359.446
 20
648.260
 30
3794.000
 70
    32
  0
VERTEX
  8
E15LXLIFT
 62
2
 10
-2360.459
 20
660.709
 30
3794.000
 70
    32
  0
VERTEX
  8
E15LXLIFT
 62
2
 10
-2359.980
 20
666.233
 30
3794.000
 70
    32
  0
VERTEX
  8
E15LXLIFT
 62
2
 10
-2355.804
 20
672.780
 30
3794.000
 70
    32
  0
VERTEX
  8
E15LXLIFT
 62
2
 10
-2358.951
 20
681.868
 30
3794.000
 70
    32
  0
VERTEX
  8
E15LXLIFT
 62
2
 10
-2364.814
 20
692.038
 30
3794.000
 70
    32
  0
VERTEX
  8
E15LXLIFT
 62
2
 10
-2367.798
 20
703.618
 30
3794.000
 70
    32
  0
VERTEX
  8
E15LXLIFT
 62
2
 10
-2372.161
 20
717.128
 30
3794.000
 70
    32
  0
VERTEX
  8
E15LXLIFT
 62
2
 10
-2377.055
 20
730.474
 30
3794.000
 70
    32
  0
VERTEX
  8
E15LXLIFT
 62
2
 10
-2380.600
 20
741.329
 30
3794.000
 70
    32
  0
VERTEX
  8
E15LXLIFT
 62
2
 10
-2387.330
 20
745.913
 30
3794.000
 70
    32
  0
VERTEX
  8
E15LXLIFT
 62
2
 10
-2390.283
 20
755.032
 30
3794.000
 70
    32
  0
VERTEX
  8
E15LXLIFT
 62
2
 10
-2394.472
 20
769.206
 30
3794.000
 70
    32
  0
VERTEX
  8
E15LXLIFT
 62
2
 10
-2411.761
 20
764.842
 30
3794.000
 70
    32
  0
VERTEX
  8
E15LXLIFT
 62
2
 10
-2409.185
 20
751.567
 30
3794.000
 70
    32
  0
VERTEX
  8
E15LXLIFT
 62
2
 10
-2406.722
 20
742.530
 30
3794.000
 70
    32
  0
VERTEX
  8
E15LXLIFT
 62
2
 10
-2406.384
 20
735.861
 30
3794.000
 70
    32
  0
VERTEX
  8
E15LXLIFT
 62
2
 10
-2410.407
 20
732.123
 30
3794.000
 70
    32
  0
SEQEND
  8
E15LXLIFT
  0
POLYLINE
  8
E15LXLIFT
 62
1
 66
     1
 70
     9
  0
VERTEX
  8
E15LXLIFT
 62
1
 10
-2405.248
 20
715.365
 30
3804.000
 70
    32
  0
VERTEX
  8
E15LXLIFT
 62
1
 10
-2398.783
 20
707.677
 30
3804.000
 70
    32
  0
VERTEX
  8
E15LXLIFT
 62
1
 10
-2394.043
 20
699.079
 30
3804.000
 70
    32
  0
VERTEX
  8
E15LXLIFT
 62
1
 10
-2393.224
 20
689.623
 30
3804.000
 70
    32
  0
VERTEX
  8
E15LXLIFT
 62
1
 10
-2395.133
 20
683.077
 30
3804.000
 70
    32
  0
VERTEX
  8
E15LXLIFT
 62
1
 10
-2393.661
 20
674.519
 30
3804.000
 70
    32
  0
VERTEX
  8
E15LXLIFT
 62
1
 10
-2393.036
 20
664.277
 30
3804.000
 70
    32
  0
VERTEX
  8
E15LXLIFT
 62
1
 10
-2392.565
 20
656.516
 30
3804.000
 70
    32
  0
VERTEX
  8
E15LXLIFT
 62
1
 10
-2387.612
 20
653.361
 30
3804.000
 70
    32
  0
VERTEX
  8
E15LXLIFT
 62
1
 10
-2381.362
 20
650.053
 30
3804.000
 70
    32
  0
VERTEX
  8
E15LXLIFT
 62
1
 10
-2378.052
 20
641.945
 30
3804.000
 70
    32
  0
VERTEX
  8
E15LXLIFT
 62
1
 10
-2376.518
 20
630.733
 30
3804.000
 70
    32
  0
VERTEX
  8
E15LXLIFT
 62
1
 10
-2375.404
 20
623.431
 30
3804.000
 70
    32
  0
VERTEX
  8
E15LXLIFT
 62
1
 10
-2368.766
 20
624.719
 30
3804.000
 70
    32
  0
VERTEX
  8
E15LXLIFT
 62
1
 10
-2361.373
 20
629.786
 30
3804.000
 70
    32
  0
VERTEX
  8
E15LXLIFT
 62
1
 10
-2358.924
 20
636.934
 30
3804.000
 70
    32
  0
VERTEX
  8
E15LXLIFT
 62
1
 10
-2358.446
 20
649.260
 30
3804.000
 70
    32
  0
VERTEX
  8
E15LXLIFT
 62
1
 10
-2359.459
 20
661.709
 30
3804.000
 70
    32
  0
VERTEX
  8
E15LXLIFT
 62
1
 10
-2358.980
 20
667.233
 30
3804.000
 70
    32
  0
VERTEX
  8
E15LXLIFT
 62
1
 10
-2354.804
 20
673.780
 30
3804.000
 70
    32
  0
VERTEX
  8
E15LXLIFT
 62
1
 10
-2357.951
 20
682.868
 30
3804.000
 70
    32
  0
VERTEX
  8
E15LXLIFT
 62
1
 10
-2363.814
 20
693.038
 30
3804.000
 70
    32
  0
VERTEX
  8
E15LXLIFT
 62
1
 10
-2366.798
 20
704.618
 30
3804.000
 70
    32
  0
VERTEX
  8
E15LXLIFT
 62
1
 10
-2371.161
 20
718.128
 30
3804.000
 70
    32
  0
VERTEX
  8
E15LXLIFT
 62
1
 10
-2376.055
 20
731.474
 30
3804.000
 70
    32
  0
VERTEX
  8
E15LXLIFT
 62
1
 10
-2379.600
 20
742.329
 30
3804.000
 70
    32
  0
VERTEX
  8
E15LXLIFT
 62
1
 10
-2386.330
 20
746.913
 30
3804.000
 70
    32
  0
VERTEX
  8
E15LXLIFT
 62
1
 10
-2389.283
 20
756.032
 30
3804.000
 70
    32
  0
VERTEX
  8
E15LXLIFT
 62
1
 10
-2393.472
 20
770.206
 30
3804.000
 70
    32
  0
VERTEX
  8
E15LXLIFT
 62
1
 10
-2410.761
 20
765.842
 30
3804.000
 70
    32
  0
VERTEX
  8
E15LXLIFT
 62
1
 10
-2408.185
 20
752.567
 30
3804.000
 70
    32
  0
VERTEX
  8
E15LXLIFT
 62
1
 10
-2405.722
 20
743.530
 30
3804.000
 70
    32
  0
VERTEX
  8
E15LXLIFT
 62
1
 10
-2405.384
 20
736.861
 30
3804.000
 70
    32
  0
VERTEX
  8
E15LXLIFT
 62
1
 10
-2409.407
 20
733.123
 30
3804.000
 70
    32
  0
SEQEND
  8
E15LXLIFT
  0
POLYLINE
  8
E15LXLIFT
 62
1
 66
     1
 70
     9
  0
VERTEX
  8
E15LXLIFT
 62
1
 10
-2457.861
 20
873.799
 30
3729.000
 70
    32
  0
VERTEX
  8
E15LXLIFT
 62
1
 10
-2452.073
 20
876.591
 30
3729.000
 70
    32
  0
VERTEX
  8
E15LXLIFT
 62
1
 10
-2440.730
 20
880.703
 30
3729.000
 70
    32
  0
VERTEX
  8
E15LXLIFT
 62
1
 10
-2430.233
 20
884.635
 30
3729.000
 70
    32
  0
VERTEX
  8
E15LXLIFT
 62
1
 10
-2424.891
 20
877.877
 30
3729.000
 70
    32
  0
VERTEX
  8
E15LXLIFT
 62
1
 10
-2422.754
 20
867.162
 30
3729.000
 70
    32
  0
VERTEX
  8
E15LXLIFT
 62
1
 10
-2425.252
 20
860.138
 30
3729.000
 70
    32
  0
VERTEX
  8
E15LXLIFT
 62
1
 10
-2422.409
 20
851.889
 30
3729.000
 70
    32
  0
VERTEX
  8
E15LXLIFT
 62
1
 10
-2423.409
 20
843.998
 30
3729.000
 70
    32
  0
VERTEX
  8
E15LXLIFT
 62
1
 10
-2421.104
 20
833.949
 30
3729.000
 70
    32
  0
VERTEX
  8
E15LXLIFT
 62
1
 10
-2418.070
 20
823.343
 30
3729.000
 70
    32
  0
VERTEX
  8
E15LXLIFT
 62
1
 10
-2422.686
 20
815.648
 30
3729.000
 70
    32
  0
VERTEX
  8
E15LXLIFT
 62
1
 10
-2430.411
 20
813.729
 30
3729.000
 70
    32
  0
VERTEX
  8
E15LXLIFT
 62
1
 10
-2441.079
 20
814.666
 30
3729.000
 70
    32
  0
VERTEX
  8
E15LXLIFT
 62
1
 10
-2446.886
 20
820.870
 30
3729.000
 70
    32
  0
VERTEX
  8
E15LXLIFT
 62
1
 10
-2448.279
 20
833.102
 30
3729.000
 70
    32
  0
VERTEX
  8
E15LXLIFT
 62
1
 10
-2447.711
 20
842.633
 30
3729.000
 70
    32
  0
VERTEX
  8
E15LXLIFT
 62
1
 10
-2446.994
 20
852.707
 30
3729.000
 70
    32
  0
VERTEX
  8
E15LXLIFT
 62
1
 10
-2452.944
 20
858.807
 30
3729.000
 70
    32
  0
VERTEX
  8
E15LXLIFT
 62
1
 10
-2459.657
 20
863.267
 30
3729.000
 70
    32
  0
SEQEND
  8
E15LXLIFT
  0
POLYLINE
  8
E15LXLIFT
 62
6
 66
     1
 70
     9
  0
VERTEX
  8
E15LXLIFT
 62
6
 10
-1585.203
 20
-1319.860
 30
3717.000
 70
    32
  0
VERTEX
  8
E15LXLIFT
 62
6
 10
-1589.494
 20
-1328.099
 30
3717.000
 70
    32
  0
VERTEX
  8
E15LXLIFT
 62
6
 10
-1592.849
 20
-1339.809
 30
3717.000
 70
    32
  0
VERTEX
  8
E15LXLIFT
 62
6
 10
-1591.092
 20
-1349.691
 30
3717.000
 70
    32
  0
VERTEX
  8
E15LXLIFT
 62
6
 10
-1583.200
 20
-1357.203
 30
3717.000
 70
    32
  0
VERTEX
  8
E15LXLIFT
 62
6
 10
-1570.909
 20
-1365.172
 30
3717.000
 70
    32
  0
VERTEX
  8
E15LXLIFT
 62
6
 10
-1564.891
 20
-1374.736
 30
3717.000
 70
    32
  0
VERTEX
  8
E15LXLIFT
 62
6
 10
-1565.442
 20
-1380.630
 30
3717.000
 70
    32
  0
VERTEX
  8
E15LXLIFT
 62
6
 10
-1558.475
 20
-1395.303
 30
3717.000
 70
    32
  0
VERTEX
  8
E15LXLIFT
 62
6
 10
-1553.447
 20
-1406.042
 30
3717.000
 70
    32
  0
VERTEX
  8
E15LXLIFT
 62
6
 10
-1545.365
 20
-1419.117
 30
3717.000
 70
    32
  0
VERTEX
  8
E15LXLIFT
 62
6
 10
-1540.244
 20
-1428.360
 30
3717.000
 70
    32
  0
VERTEX
  8
E15LXLIFT
 62
6
 10
-1537.194
 20
-1436.293
 30
3717.000
 70
    32
  0
VERTEX
  8
E15LXLIFT
 62
6
 10
-1526.537
 20
-1448.111
 30
3717.000
 70
    32
  0
VERTEX
  8
E15LXLIFT
 62
6
 10
-1521.023
 20
-1455.965
 30
3717.000
 70
    32
  0
VERTEX
  8
E15LXLIFT
 62
6
 10
-1515.804
 20
-1462.833
 30
3717.000
 70
    32
  0
VERTEX
  8
E15LXLIFT
 62
6
 10
-1522.391
 20
-1468.282
 30
3717.000
 70
    32
  0
VERTEX
  8
E15LXLIFT
 62
6
 10
-1532.291
 20
-1474.879
 30
3717.000
 70
    32
  0
VERTEX
  8
E15LXLIFT
 62
6
 10
-1537.336
 20
-1463.823
 30
3717.000
 70
    32
  0
VERTEX
  8
E15LXLIFT
 62
6
 10
-1542.726
 20
-1451.269
 30
3717.000
 70
    32
  0
VERTEX
  8
E15LXLIFT
 62
6
 10
-1548.505
 20
-1443.502
 30
3717.000
 70
    32
  0
VERTEX
  8
E15LXLIFT
 62
6
 10
-1556.622
 20
-1434.951
 30
3717.000
 70
    32
  0
VERTEX
  8
E15LXLIFT
 62
6
 10
-1558.530
 20
-1423.097
 30
3717.000
 70
    32
  0
VERTEX
  8
E15LXLIFT
 62
6
 10
-1563.943
 20
-1416.264
 30
3717.000
 70
    32
  0
VERTEX
  8
E15LXLIFT
 62
6
 10
-1567.046
 20
-1403.983
 30
3717.000
 70
    32
  0
VERTEX
  8
E15LXLIFT
 62
6
 10
-1574.762
 20
-1391.842
 30
3717.000
 70
    32
  0
VERTEX
  8
E15LXLIFT
 62
6
 10
-1584.945
 20
-1380.660
 30
3717.000
 70
    32
  0
VERTEX
  8
E15LXLIFT
 62
6
 10
-1594.486
 20
-1371.523
 30
3717.000
 70
    32
  0
VERTEX
  8
E15LXLIFT
 62
6
 10
-1599.593
 20
-1367.754
 30
3717.000
 70
    32
  0
VERTEX
  8
E15LXLIFT
 62
6
 10
-1605.981
 20
-1367.131
 30
3717.000
 70
    32
  0
VERTEX
  8
E15LXLIFT
 62
6
 10
-1608.502
 20
-1359.024
 30
3717.000
 70
    32
  0
VERTEX
  8
E15LXLIFT
 62
6
 10
-1615.511
 20
-1355.353
 30
3717.000
 70
    32
  0
VERTEX
  8
E15LXLIFT
 62
6
 10
-1614.319
 20
-1347.665
 30
3717.000
 70
    32
  0
VERTEX
  8
E15LXLIFT
 62
6
 10
-1621.652
 20
-1341.053
 30
3717.000
 70
    32
  0
VERTEX
  8
E15LXLIFT
 62
6
 10
-1626.512
 20
-1332.603
 30
3717.000
 70
    32
  0
VERTEX
  8
E15LXLIFT
 62
6
 10
-1626.913
 20
-1322.480
 30
3717.000
 70
    32
  0
VERTEX
  8
E15LXLIFT
 62
6
 10
-1629.467
 20
-1313.739
 30
3717.000
 70
    32
  0
VERTEX
  8
E15LXLIFT
 62
6
 10
-1637.298
 20
-1313.093
 30
3717.000
 70
    32
  0
VERTEX
  8
E15LXLIFT
 62
6
 10
-1642.057
 20
-1305.664
 30
3717.000
 70
    32
  0
VERTEX
  8
E15LXLIFT
 62
6
 10
-1647.441
 20
-1296.067
 30
3717.000
 70
    32
  0
VERTEX
  8
E15LXLIFT
 62
6
 10
-1643.459
 20
-1290.362
 30
3717.000
 70
    32
  0
VERTEX
  8
E15LXLIFT
 62
6
 10
-1634.707
 20
-1280.450
 30
3717.000
 70
    32
  0
VERTEX
  8
E15LXLIFT
 62
6
 10
-1624.988
 20
-1270.806
 30
3717.000
 70
    32
  0
VERTEX
  8
E15LXLIFT
 62
6
 10
-1617.594
 20
-1265.853
 30
3717.000
 70
    32
  0
VERTEX
  8
E15LXLIFT
 62
6
 10
-1613.378
 20
-1272.699
 30
3717.000
 70
    32
  0
VERTEX
  8
E15LXLIFT
 62
6
 10
-1607.239
 20
-1273.727
 30
3717.000
 70
    32
  0
VERTEX
  8
E15LXLIFT
 62
6
 10
-1602.921
 20
-1281.594
 30
3717.000
 70
    32
  0
VERTEX
  8
E15LXLIFT
 62
6
 10
-1598.962
 20
-1291.044
 30
3717.000
 70
    32
  0
VERTEX
  8
E15LXLIFT
 62
6
 10
-1598.193
 20
-1296.944
 30
3717.000
 70
    32
  0
VERTEX
  8
E15LXLIFT
 62
6
 10
-1599.601
 20
-1306.110
 30
3717.000
 70
    32
  0
VERTEX
  8
E15LXLIFT
 62
6
 10
-1596.306
 20
-1309.801
 30
3717.000
 70
    32
  0
VERTEX
  8
E15LXLIFT
 62
6
 10
-1591.098
 20
-1310.314
 30
3717.000
 70
    32
  0
SEQEND
  8
E15LXLIFT
  0
POLYLINE
  8
E15LXLIFT
 62
6
 66
     1
 70
     9
  0
VERTEX
  8
E15LXLIFT
 62
6
 10
-1584.203
 20
-1318.860
 30
3729.000
 70
    32
  0
VERTEX
  8
E15LXLIFT
 62
6
 10
-1588.494
 20
-1327.099
 30
3729.000
 70
    32
  0
VERTEX
  8
E15LXLIFT
 62
6
 10
-1591.849
 20
-1338.809
 30
3729.000
 70
    32
  0
VERTEX
  8
E15LXLIFT
 62
6
 10
-1590.092
 20
-1348.691
 30
3729.000
 70
    32
  0
VERTEX
  8
E15LXLIFT
 62
6
 10
-1582.200
 20
-1356.203
 30
3729.000
 70
    32
  0
VERTEX
  8
E15LXLIFT
 62
6
 10
-1569.909
 20
-1364.172
 30
3729.000
 70
    32
  0
VERTEX
  8
E15LXLIFT
 62
6
 10
-1563.891
 20
-1373.736
 30
3729.000
 70
    32
  0
VERTEX
  8
E15LXLIFT
 62
6
 10
-1564.442
 20
-1379.630
 30
3729.000
 70
    32
  0
VERTEX
  8
E15LXLIFT
 62
6
 10
-1557.475
 20
-1394.303
 30
3729.000
 70
    32
  0
VERTEX
  8
E15LXLIFT
 62
6
 10
-1552.447
 20
-1405.042
 30
3729.000
 70
    32
  0
VERTEX
  8
E15LXLIFT
 62
6
 10
-1544.365
 20
-1418.117
 30
3729.000
 70
    32
  0
VERTEX
  8
E15LXLIFT
 62
6
 10
-1539.244
 20
-1427.360
 30
3729.000
 70
    32
  0
VERTEX
  8
E15LXLIFT
 62
6
 10
-1536.194
 20
-1435.293
 30
3729.000
 70
    32
  0
VERTEX
  8
E15LXLIFT
 62
6
 10
-1525.537
 20
-1447.111
 30
3729.000
 70
    32
  0
VERTEX
  8
E15LXLIFT
 62
6
 10
-1520.023
 20
-1454.965
 30
3729.000
 70
    32
  0
VERTEX
  8
E15LXLIFT
 62
6
 10
-1514.804
 20
-1461.833
 30
3729.000
 70
    32
  0
VERTEX
  8
E15LXLIFT
 62
6
 10
-1521.391
 20
-1467.282
 30
3729.000
 70
    32
  0
VERTEX
  8
E15LXLIFT
 62
6
 10
-1531.291
 20
-1473.879
 30
3729.000
 70
    32
  0
VERTEX
  8
E15LXLIFT
 62
6
 10
-1536.336
 20
-1462.823
 30
3729.000
 70
    32
  0
VERTEX
  8
E15LXLIFT
 62
6
 10
-1541.726
 20
-1450.269
 30
3729.000
 70
    32
  0
VERTEX
  8
E15LXLIFT
 62
6
 10
-1547.505
 20
-1442.502
 30
3729.000
 70
    32
  0
VERTEX
  8
E15LXLIFT
 62
6
 10
-1555.622
 20
-1433.951
 30
3729.000
 70
    32
  0
VERTEX
  8
E15LXLIFT
 62
6
 10
-1557.530
 20
-1422.097
 30
3729.000
 70
    32
  0
VERTEX
  8
E15LXLIFT
 62
6
 10
-1562.943
 20
-1415.264
 30
3729.000
 70
    32
  0
VERTEX
  8
E15LXLIFT
 62
6
 10
-1566.046
 20
-1402.983
 30
3729.000
 70
    32
  0
VERTEX
  8
E15LXLIFT
 62
6
 10
-1573.762
 20
-1390.842
 30
3729.000
 70
    32
  0
VERTEX
  8
E15LXLIFT
 62
6
 10
-1583.945
 20
-1379.660
 30
3729.000
 70
    32
  0
VERTEX
  8
E15LXLIFT
 62
6
 10
-1593.486
 20
-1370.523
 30
3729.000
 70
    32
  0
VERTEX
  8
E15LXLIFT
 62
6
 10
-1598.593
 20
-1366.754
 30
3729.000
 70
    32
  0
VERTEX
  8
E15LXLIFT
 62
6
 10
-1604.981
 20
-1366.131
 30
3729.000
 70
    32
  0
VERTEX
  8
E15LXLIFT
 62
6
 10
-1607.502
 20
-1358.024
 30
3729.000
 70
    32
  0
VERTEX
  8
E15LXLIFT
 62
6
 10
-1614.511
 20
-1354.353
 30
3729.000
 70
    32
  0
VERTEX
  8
E15LXLIFT
 62
6
 10
-1613.319
 20
-1346.665
 30
3729.000
 70
    32
  0
VERTEX
  8
E15LXLIFT
 62
6
 10
-1620.652
 20
-1340.053
 30
3729.000
 70
    32
  0
VERTEX
  8
E15LXLIFT
 62
6
 10
-1625.512
 20
-1331.603
 30
3729.000
 70
    32
  0
VERTEX
  8
E15LXLIFT
 62
6
 10
-1625.913
 20
-1321.480
 30
3729.000
 70
    32
  0
VERTEX
  8
E15LXLIFT
 62
6
 10
-1628.467
 20
-1312.739
 30
3729.000
 70
    32
  0
VERTEX
  8
E15LXLIFT
 62
6
 10
-1636.298
 20
-1312.093
 30
3729.000
 70
    32
  0
VERTEX
  8
E15LXLIFT
 62
6
 10
-1641.057
 20
-1304.664
 30
3729.000
 70
    32
  0
VERTEX
  8
E15LXLIFT
 62
6
 10
-1646.441
 20
-1295.067
 30
3729.000
 70
    32
  0
VERTEX
  8
E15LXLIFT
 62
6
 10
-1642.459
 20
-1289.362
 30
3729.000
 70
    32
  0
VERTEX
  8
E15LXLIFT
 62
6
 10
-1633.707
 20
-1279.450
 30
3729.000
 70
    32
  0
VERTEX
  8
E15LXLIFT
 62
6
 10
-1623.988
 20
-1269.806
 30
3729.000
 70
    32
  0
VERTEX
  8
E15LXLIFT
 62
6
 10
-1616.594
 20
-1264.853
 30
3729.000
 70
    32
  0
VERTEX
  8
E15LXLIFT
 62
6
 10
-1612.378
 20
-1271.699
 30
3729.000
 70
    32
  0
VERTEX
  8
E15LXLIFT
 62
6
 10
-1606.239
 20
-1272.727
 30
3729.000
 70
    32
  0
VERTEX
  8
E15LXLIFT
 62
6
 10
-1601.921
 20
-1280.594
 30
3729.000
 70
    32
  0
VERTEX
  8
E15LXLIFT
 62
6
 10
-1597.962
 20
-1290.044
 30
3729.000
 70
    32
  0
VERTEX
  8
E15LXLIFT
 62
6
 10
-1597.193
 20
-1295.944
 30
3729.000
 70
    32
  0
VERTEX
  8
E15LXLIFT
 62
6
 10
-1598.601
 20
-1305.110
 30
3729.000
 70
    32
  0
VERTEX
  8
E15LXLIFT
 62
6
 10
-1595.306
 20
-1308.801
 30
3729.000
 70
    32
  0
VERTEX
  8
E15LXLIFT
 62
6
 10
-1590.098
 20
-1309.314
 30
3729.000
 70
    32
  0
SEQEND
  8
E15LXLIFT
  0
POLYLINE
  8
E15LXLIFT
 62
5
 66
     1
 70
     9
  0
VERTEX
  8
E15LXLIFT
 62
5
 10
754.812
 20
-3505.599
 30
3683.378
 70
    32
  0
VERTEX
  8
E15LXLIFT
 62
5
 10
755.414
 20
-3502.874
 30
3683.360
 70
    32
  0
VERTEX
  8
E15LXLIFT
 62
5
 10
742.859
 20
-3484.575
 30
3683.390
 70
    32
  0
VERTEX
  8
E15LXLIFT
 62
5
 10
735.848
 20
-3468.623
 30
3683.380
 70
    32
  0
VERTEX
  8
E15LXLIFT
 62
5
 10
725.770
 20
-3454.089
 30
3683.405
 70
    32
  0
VERTEX
  8
E15LXLIFT
 62
5
 10
709.612
 20
-3435.456
 30
3683.466
 70
    32
  0
VERTEX
  8
E15LXLIFT
 62
5
 10
703.030
 20
-3417.218
 30
3683.442
 70
    32
  0
VERTEX
  8
E15LXLIFT
 62
5
 10
695.242
 20
-3404.255
 30
3683.453
 70
    32
  0
VERTEX
  8
E15LXLIFT
 62
5
 10
688.706
 20
-3396.293
 30
3683.476
 70
    32
  0
VERTEX
  8
E15LXLIFT
 62
5
 10
664.287
 20
-3376.380
 30
3683.606
 70
    32
  0
VERTEX
  8
E15LXLIFT
 62
5
 10
641.786
 20
-3353.296
 30
3683.704
 70
    32
  0
VERTEX
  8
E15LXLIFT
 62
5
 10
630.246
 20
-3326.561
 30
3683.581
 70
    32
  0
VERTEX
  8
E15LXLIFT
 62
5
 10
633.987
 20
-3299.493
 30
3682.510
 70
    32
  0
VERTEX
  8
E15LXLIFT
 62
5
 10
617.933
 20
-3265.139
 30
3681.877
 70
    32
  0
VERTEX
  8
E15LXLIFT
 62
5
 10
596.122
 20
-3181.715
 30
3679.741
 70
    32
  0
VERTEX
  8
E15LXLIFT
 62
5
 10
581.510
 20
-3155.257
 30
3679.332
 70
    32
  0
VERTEX
  8
E15LXLIFT
 62
5
 10
575.886
 20
-3135.346
 30
3679.208
 70
    32
  0
VERTEX
  8
E15LXLIFT
 62
5
 10
551.431
 20
-3107.617
 30
3679.252
 70
    32
  0
VERTEX
  8
E15LXLIFT
 62
5
 10
501.587
 20
-3039.778
 30
3679.325
 70
    32
  0
VERTEX
  8
E15LXLIFT
 62
5
 10
496.009
 20
-3029.879
 30
3679.330
 70
    32
  0
VERTEX
  8
E15LXLIFT
 62
5
 10
494.973
 20
-3014.690
 30
3679.311
 70
    32
  0
VERTEX
  8
E15LXLIFT
 62
5
 10
491.776
 20
-3006.976
 30
3679.311
 70
    32
  0
VERTEX
  8
E15LXLIFT
 62
5
 10
485.053
 20
-2996.467
 30
3679.319
 70
    32
  0
VERTEX
  8
E15LXLIFT
 62
5
 10
491.973
 20
-2991.774
 30
3679.288
 70
    32
  0
VERTEX
  8
E15LXLIFT
 62
5
 10
502.769
 20
-3010.175
 30
3679.278
 70
    32
  0
VERTEX
  8
E15LXLIFT
 62
5
 10
503.535
 20
-3024.136
 30
3679.296
 70
    32
  0
VERTEX
  8
E15LXLIFT
 62
5
 10
515.757
 20
-3046.389
 30
3679.286
 70
    32
  0
VERTEX
  8
E15LXLIFT
 62
5
 10
583.166
 20
-3133.293
 30
3679.180
 70
    32
  0
VERTEX
  8
E15LXLIFT
 62
5
 10
589.412
 20
-3154.782
 30
3679.190
 70
    32
  0
VERTEX
  8
E15LXLIFT
 62
5
 10
603.573
 20
-3178.431
 30
3679.366
 70
    32
  0
VERTEX
  8
E15LXLIFT
 62
5
 10
616.803
 20
-3229.135
 30
3680.665
 70
    32
  0
VERTEX
  8
E15LXLIFT
 62
5
 10
618.701
 20
-3221.661
 30
3680.339
 70
    32
  0
VERTEX
  8
E15LXLIFT
 62
5
 10
621.053
 20
-3217.434
 30
3680.110
 70
    32
  0
VERTEX
  8
E15LXLIFT
 62
5
 10
630.744
 20
-3204.831
 30
3679.333
 70
    32
  0
VERTEX
  8
E15LXLIFT
 62
5
 10
648.076
 20
-3192.280
 30
3679.042
 70
    32
  0
VERTEX
  8
E15LXLIFT
 62
5
 10
649.351
 20
-3182.964
 30
3679.024
 70
    32
  0
VERTEX
  8
E15LXLIFT
 62
5
 10
667.074
 20
-3178.844
 30
3678.957
 70
    32
  0
VERTEX
  8
E15LXLIFT
 62
5
 10
686.245
 20
-3165.143
 30
3678.870
 70
    32
  0
VERTEX
  8
E15LXLIFT
 62
5
 10
690.576
 20
-3171.095
 30
3678.864
 70
    32
  0
VERTEX
  8
E15LXLIFT
 62
5
 10
674.730
 20
-3182.146
 30
3678.935
 70
    32
  0
VERTEX
  8
E15LXLIFT
 62
5
 10
678.012
 20
-3189.333
 30
3678.934
 70
    32
  0
VERTEX
  8
E15LXLIFT
 62
5
 10
678.582
 20
-3198.640
 30
3678.946
 70
    32
  0
VERTEX
  8
E15LXLIFT
 62
5
 10
669.021
 20
-3201.406
 30
3678.983
 70
    32
  0
VERTEX
  8
E15LXLIFT
 62
5
 10
657.075
 20
-3201.022
 30
3679.023
 70
    32
  0
VERTEX
  8
E15LXLIFT
 62
5
 10
651.005
 20
-3198.854
 30
3679.041
 70
    32
  0
VERTEX
  8
E15LXLIFT
 62
5
 10
636.035
 20
-3209.549
 30
3679.312
 70
    32
  0
VERTEX
  8
E15LXLIFT
 62
5
 10
628.788
 20
-3218.892
 30
3679.890
 70
    32
  0
VERTEX
  8
E15LXLIFT
 62
5
 10
622.266
 20
-3233.062
 30
3680.611
 70
    32
  0
VERTEX
  8
E15LXLIFT
 62
5
 10
620.909
 20
-3243.695
 30
3681.028
 70
    32
  0
VERTEX
  8
E15LXLIFT
 62
5
 10
625.213
 20
-3262.910
 30
3681.545
 70
    32
  0
VERTEX
  8
E15LXLIFT
 62
5
 10
639.662
 20
-3292.090
 30
3682.054
 70
    32
  0
VERTEX
  8
E15LXLIFT
 62
5
 10
642.609
 20
-3302.879
 30
3682.326
 70
    32
  0
VERTEX
  8
E15LXLIFT
 62
5
 10
638.409
 20
-3325.470
 30
3683.258
 70
    32
  0
VERTEX
  8
E15LXLIFT
 62
5
 10
647.556
 20
-3347.561
 30
3683.626
 70
    32
  0
VERTEX
  8
E15LXLIFT
 62
5
 10
670.242
 20
-3372.576
 30
3683.535
 70
    32
  0
VERTEX
  8
E15LXLIFT
 62
5
 10
696.327
 20
-3391.866
 30
3683.387
 70
    32
  0
VERTEX
  8
E15LXLIFT
 62
5
 10
698.719
 20
-3396.335
 30
3683.385
 70
    32
  0
VERTEX
  8
E15LXLIFT
 62
5
 10
702.600
 20
-3400.006
 30
3683.367
 70
    32
  0
VERTEX
  8
E15LXLIFT
 62
5
 10
707.698
 20
-3401.036
 30
3683.326
 70
    32
  0
VERTEX
  8
E15LXLIFT
 62
5
 10
709.800
 20
-3418.856
 30
3683.388
 70
    32
  0
VERTEX
  8
E15LXLIFT
 62
5
 10
717.956
 20
-3435.418
 30
3683.390
 70
    32
  0
VERTEX
  8
E15LXLIFT
 62
5
 10
735.251
 20
-3453.168
 30
3683.315
 70
    32
  0
VERTEX
  8
E15LXLIFT
 62
5
 10
750.855
 20
-3485.241
 30
3683.320
 70
    32
  0
VERTEX
  8
E15LXLIFT
 62
5
 10
760.212
 20
-3495.738
 30
3683.284
 70
    32
  0
VERTEX
  8
E15LXLIFT
 62
5
 10
768.557
 20
-3495.963
 30
3683.209
 70
    32
  0
VERTEX
  8
E15LXLIFT
 62
5
 10
773.322
 20
-3500.860
 30
3683.188
 70
    32
  0
VERTEX
  8
E15LXLIFT
 62
5
 10
775.279
 20
-3506.208
 30
3683.195
 70
    32
  0
VERTEX
  8
E15LXLIFT
 62
5
 10
777.923
 20
-3508.216
 30
3683.180
 70
    32
  0
VERTEX
  8
E15LXLIFT
 62
5
 10
774.619
 20
-3515.696
 30
3683.244
 70
    32
  0
VERTEX
  8
E15LXLIFT
 62
5
 10
780.099
 20
-3523.137
 30
3683.229
 70
    32
  0
VERTEX
  8
E15LXLIFT
 62
5
 10
774.405
 20
-3526.412
 30
3683.296
 70
    32
  0
VERTEX
  8
E15LXLIFT
 62
5
 10
768.128
 20
-3517.483
 30
3683.311
 70
    32
  0
VERTEX
  8
E15LXLIFT
 62
5
 10
760.191
 20
-3510.229
 30
3683.350
 70
    32
  0
SEQEND
  8
E15LXLIFT
  0
POINT
  8
E15LXLIFT
 62
1
 10
-647.437
 20
-343.235
 30
3721.000
  0
LINE
  8
E15LXLIFT
 62
8
 10
-647.437
 20
-343.235
 30
3721.000
 11
-589.408
 21
-336.187
 31
3564.000
  0
POINT
  8
E15LXLIFT
 62
1
 10
-589.408
 20
-336.187
 30
3564.000
  0
POLYLINE
  8
E15LXLIFT
 62
6
 66
     1
 70
     9
  0
VERTEX
  8
E15LXLIFT
 62
6
 10
-837.842
 20
-16.612
 30
3677.765
 70
    32
  0
VERTEX
  8
E15LXLIFT
 62
6
 10
-833.984
 20
-12.058
 30
3677.837
 70
    32
  0
VERTEX
  8
E15LXLIFT
 62
6
 10
-837.443
 20
14.460
 30
3678.199
 70
    32
  0
VERTEX
  8
E15LXLIFT
 62
6
 10
-840.420
 20
23.165
 30
3678.314
 70
    32
  0
VERTEX
  8
E15LXLIFT
 62
6
 10
-834.175
 20
24.892
 30
3678.352
 70
    32
  0
VERTEX
  8
E15LXLIFT
 62
6
 10
-833.677
 20
34.500
 30
3678.487
 70
    32
  0
VERTEX
  8
E15LXLIFT
 62
6
 10
-830.051
 20
48.022
 30
3678.683
 70
    32
  0
VERTEX
  8
E15LXLIFT
 62
6
 10
-821.221
 20
49.784
 30
3678.727
 70
    32
  0
VERTEX
  8
E15LXLIFT
 62
6
 10
-818.475
 20
55.267
 30
3678.809
 70
    32
  0
VERTEX
  8
E15LXLIFT
 62
6
 10
-815.485
 20
65.931
 30
3678.964
 70
    32
  0
VERTEX
  8
E15LXLIFT
 62
6
 10
-803.601
 20
59.479
 30
3678.900
 70
    32
  0
VERTEX
  8
E15LXLIFT
 62
6
 10
-806.086
 20
52.447
 30
3678.797
 70
    32
  0
VERTEX
  8
E15LXLIFT
 62
6
 10
-797.669
 20
39.116
 30
3678.629
 70
    32
  0
VERTEX
  8
E15LXLIFT
 62
6
 10
-805.231
 20
30.991
 30
3678.500
 70
    32
  0
VERTEX
  8
E15LXLIFT
 62
6
 10
-810.776
 20
17.267
 30
3678.296
 70
    32
  0
VERTEX
  8
E15LXLIFT
 62
6
 10
-808.642
 20
11.209
 30
3678.217
 70
    32
  0
VERTEX
  8
E15LXLIFT
 62
6
 10
-811.286
 20
-2.466
 30
3678.020
 70
    32
  0
VERTEX
  8
E15LXLIFT
 62
6
 10
-807.923
 20
-9.911
 30
3677.924
 70
    32
  0
VERTEX
  8
E15LXLIFT
 62
6
 10
-810.841
 20
-16.499
 30
3677.826
 70
    32
  0
VERTEX
  8
E15LXLIFT
 62
6
 10
-813.758
 20
-19.061
 30
3677.784
 70
    32
  0
VERTEX
  8
E15LXLIFT
 62
6
 10
-818.612
 20
-17.924
 30
3677.789
 70
    32
  0
VERTEX
  8
E15LXLIFT
 62
6
 10
-824.934
 20
-20.142
 30
3677.744
 70
    32
  0
SEQEND
  8
E15LXLIFT
  0
POINT
  8
E15LXLIFT
 62
1
 10
-815.843
 20
35.400
 30
3678.936
  0
LINE
  8
E15LXLIFT
 62
6
 10
-815.843
 20
35.400
 30
3678.936
 11
-791.035
 21
39.003
 31
3594.000
  0
POINT
  8
E15LXLIFT
 62
1
 10
-791.035
 20
39.003
 30
3594.000
  0
POLYLINE
  8
E15LXLIFT
 62
11
 66
     1
 70
     9
  0
VERTEX
  8
E15LXLIFT
 62
11
 10
-2408.703
 20
841.672
 30
3690.178
 70
    32
  0
VERTEX
  8
E15LXLIFT
 62
11
 10
-2402.166
 20
841.660
 30
3690.129
 70
    32
  0
VERTEX
  8
E15LXLIFT
 62
11
 10
-2397.107
 20
820.438
 30
3690.077
 70
    32
  0
VERTEX
  8
E15LXLIFT
 62
11
 10
-2392.254
 20
816.475
 30
3690.052
 70
    32
  0
VERTEX
  8
E15LXLIFT
 62
11
 10
-2388.608
 20
803.143
 30
3689.996
 70
    32
  0
VERTEX
  8
E15LXLIFT
 62
11
 10
-2374.201
 20
808.446
 30
3689.986
 70
    32
  0
VERTEX
  8
E15LXLIFT
 62
11
 10
-2379.804
 20
818.498
 30
3690.034
 70
    32
  0
VERTEX
  8
E15LXLIFT
 62
11
 10
-2376.592
 20
823.783
 30
3690.031
 70
    32
  0
VERTEX
  8
E15LXLIFT
 62
11
 10
-2381.725
 20
837.660
 30
3689.989
 70
    32
  0
VERTEX
  8
E15LXLIFT
 62
11
 10
-2393.566
 20
861.762
 30
3689.938
 70
    32
  0
VERTEX
  8
E15LXLIFT
 62
11
 10
-2398.471
 20
865.796
 30
3689.954
 70
    32
  0
VERTEX
  8
E15LXLIFT
 62
11
 10
-2400.288
 20
869.474
 30
3689.946
 70
    32
  0
VERTEX
  8
E15LXLIFT
 62
11
 10
-2398.858
 20
871.389
 30
3689.923
 70
    32
  0
VERTEX
  8
E15LXLIFT
 62
11
 10
-2398.978
 20
875.872
 30
3689.897
 70
    32
  0
VERTEX
  8
E15LXLIFT
 62
11
 10
-2401.896
 20
881.357
 30
3689.887
 70
    32
  0
VERTEX
  8
E15LXLIFT
 62
11
 10
-2413.889
 20
891.964
 30
3689.920
 70
    32
  0
VERTEX
  8
E15LXLIFT
 62
11
 10
-2421.169
 20
891.651
 30
3689.980
 70
    32
  0
VERTEX
  8
E15LXLIFT
 62
11
 10
-2431.790
 20
879.974
 30
3690.137
 70
    32
  0
VERTEX
  8
E15LXLIFT
 62
11
 10
-2442.467
 20
876.418
 30
3690.245
 70
    32
  0
VERTEX
  8
E15LXLIFT
 62
11
 10
-2454.546
 20
875.972
 30
3690.345
 70
    32
  0
VERTEX
  8
E15LXLIFT
 62
11
 10
-2478.727
 20
883.006
 30
3690.473
 70
    32
  0
VERTEX
  8
E15LXLIFT
 62
11
 10
-2484.962
 20
883.348
 30
3690.487
 70
    32
  0
VERTEX
  8
E15LXLIFT
 62
11
 10
-2489.723
 20
880.631
 30
3690.487
 70
    32
  0
VERTEX
  8
E15LXLIFT
 62
11
 10
-2493.403
 20
864.667
 30
3690.436
 70
    32
  0
VERTEX
  8
E15LXLIFT
 62
11
 10
-2496.378
 20
860.100
 30
3690.426
 70
    32
  0
VERTEX
  8
E15LXLIFT
 62
11
 10
-2495.385
 20
857.996
 30
3690.416
 70
    32
  0
VERTEX
  8
E15LXLIFT
 62
11
 10
-2481.514
 20
854.202
 30
3690.374
 70
    32
  0
VERTEX
  8
E15LXLIFT
 62
11
 10
-2473.676
 20
847.197
 30
3690.332
 70
    32
  0
VERTEX
  8
E15LXLIFT
 62
11
 10
-2446.405
 20
842.637
 30
3690.259
 70
    32
  0
VERTEX
  8
E15LXLIFT
 62
11
 10
-2443.830
 20
837.772
 30
3690.236
 70
    32
  0
VERTEX
  8
E15LXLIFT
 62
11
 10
-2437.898
 20
832.686
 30
3690.205
 70
    32
  0
SEQEND
  8
E15LXLIFT
  0
POLYLINE
  8
E15LXLIFT
 62
1
 66
     1
 70
     9
  0
VERTEX
  8
E15LXLIFT
 62
1
 10
-2407.703
 20
842.672
 30
3700.178
 70
    32
  0
VERTEX
  8
E15LXLIFT
 62
1
 10
-2401.166
 20
842.660
 30
3700.129
 70
    32
  0
VERTEX
  8
E15LXLIFT
 62
1
 10
-2396.107
 20
821.438
 30
3700.077
 70
    32
  0
VERTEX
  8
E15LXLIFT
 62
1
 10
-2391.254
 20
817.475
 30
3700.052
 70
    32
  0
VERTEX
  8
E15LXLIFT
 62
1
 10
-2387.608
 20
804.143
 30
3699.996
 70
    32
  0
VERTEX
  8
E15LXLIFT
 62
1
 10
-2373.201
 20
809.446
 30
3699.986
 70
    32
  0
VERTEX
  8
E15LXLIFT
 62
1
 10
-2378.804
 20
819.498
 30
3700.034
 70
    32
  0
VERTEX
  8
E15LXLIFT
 62
1
 10
-2375.592
 20
824.783
 30
3700.031
 70
    32
  0
VERTEX
  8
E15LXLIFT
 62
1
 10
-2380.725
 20
838.660
 30
3699.989
 70
    32
  0
VERTEX
  8
E15LXLIFT
 62
1
 10
-2392.566
 20
862.762
 30
3699.938
 70
    32
  0
VERTEX
  8
E15LXLIFT
 62
1
 10
-2397.471
 20
866.796
 30
3699.954
 70
    32
  0
VERTEX
  8
E15LXLIFT
 62
1
 10
-2399.288
 20
870.474
 30
3699.946
 70
    32
  0
VERTEX
  8
E15LXLIFT
 62
1
 10
-2397.858
 20
872.389
 30
3699.923
 70
    32
  0
VERTEX
  8
E15LXLIFT
 62
1
 10
-2397.978
 20
876.872
 30
3699.897
 70
    32
  0
VERTEX
  8
E15LXLIFT
 62
1
 10
-2400.896
 20
882.357
 30
3699.887
 70
    32
  0
VERTEX
  8
E15LXLIFT
 62
1
 10
-2412.889
 20
892.964
 30
3699.920
 70
    32
  0
VERTEX
  8
E15LXLIFT
 62
1
 10
-2420.169
 20
892.651
 30
3699.980
 70
    32
  0
VERTEX
  8
E15LXLIFT
 62
1
 10
-2430.790
 20
880.974
 30
3700.137
 70
    32
  0
VERTEX
  8
E15LXLIFT
 62
1
 10
-2441.467
 20
877.418
 30
3700.245
 70
    32
  0
VERTEX
  8
E15LXLIFT
 62
1
 10
-2453.546
 20
876.972
 30
3700.345
 70
    32
  0
VERTEX
  8
E15LXLIFT
 62
1
 10
-2477.727
 20
884.006
 30
3700.473
 70
    32
  0
VERTEX
  8
E15LXLIFT
 62
1
 10
-2483.962
 20
884.348
 30
3700.487
 70
    32
  0
VERTEX
  8
E15LXLIFT
 62
1
 10
-2488.723
 20
881.631
 30
3700.487
 70
    32
  0
VERTEX
  8
E15LXLIFT
 62
1
 10
-2492.403
 20
865.667
 30
3700.436
 70
    32
  0
VERTEX
  8
E15LXLIFT
 62
1
 10
-2495.378
 20
861.100
 30
3700.426
 70
    32
  0
VERTEX
  8
E15LXLIFT
 62
1
 10
-2494.385
 20
858.996
 30
3700.416
 70
    32
  0
VERTEX
  8
E15LXLIFT
 62
1
 10
-2480.514
 20
855.202
 30
3700.374
 70
    32
  0
VERTEX
  8
E15LXLIFT
 62
1
 10
-2472.676
 20
848.197
 30
3700.332
 70
    32
  0
VERTEX
  8
E15LXLIFT
 62
1
 10
-2445.405
 20
843.637
 30
3700.259
 70
    32
  0
VERTEX
  8
E15LXLIFT
 62
1
 10
-2442.830
 20
838.772
 30
3700.236
 70
    32
  0
VERTEX
  8
E15LXLIFT
 62
1
 10
-2436.898
 20
833.686
 30
3700.205
 70
    32
  0
SEQEND
  8
E15LXLIFT
  0
POINT
  8
E15LXLIFT
 62
1
 10
-2435.049
 20
855.010
 30
3690.434
  0
LINE
  8
E15LXLIFT
 62
11
 10
-2435.049
 20
855.010
 30
3690.434
 11
-2425.707
 21
852.961
 31
3535.080
  0
POINT
  8
E15LXLIFT
 62
1
 10
-2425.707
 20
852.961
 30
3535.080
  0
POLYLINE
  8
E15LXLIFT
 62
8
 66
     1
 70
     9
  0
VERTEX
  8
E15LXLIFT
 62
8
 10
-305.841
 20
-1040.989
 30
3681.117
 70
    32
  0
VERTEX
  8
E15LXLIFT
 62
8
 10
-304.161
 20
-1042.700
 30
3681.123
 70
    32
  0
VERTEX
  8
E15LXLIFT
 62
8
 10
-300.228
 20
-1043.471
 30
3681.071
 70
    32
  0
VERTEX
  8
E15LXLIFT
 62
8
 10
-287.837
 20
-1060.003
 30
3681.022
 70
    32
  0
VERTEX
  8
E15LXLIFT
 62
8
 10
-279.926
 20
-1059.157
 30
3680.990
 70
    32
  0
VERTEX
  8
E15LXLIFT
 62
8
 10
-276.288
 20
-1063.231
 30
3680.933
 70
    32
  0
VERTEX
  8
E15LXLIFT
 62
8
 10
-264.789
 20
-1083.274
 30
3680.684
 70
    32
  0
VERTEX
  8
E15LXLIFT
 62
8
 10
-252.369
 20
-1079.669
 30
3680.656
 70
    32
  0
VERTEX
  8
E15LXLIFT
 62
8
 10
-242.835
 20
-1072.890
 30
3680.672
 70
    32
  0
VERTEX
  8
E15LXLIFT
 62
8
 10
-288.497
 20
-1019.077
 30
3680.480
 70
    32
  0
VERTEX
  8
E15LXLIFT
 62
8
 10
-289.980
 20
-1012.007
 30
3680.383
 70
    32
  0
VERTEX
  8
E15LXLIFT
 62
8
 10
-299.389
 20
-1005.221
 30
3680.413
 70
    32
  0
VERTEX
  8
E15LXLIFT
 62
8
 10
-316.309
 20
-988.314
 30
3680.382
 70
    32
  0
VERTEX
  8
E15LXLIFT
 62
8
 10
-321.957
 20
-977.295
 30
3680.275
 70
    32
  0
VERTEX
  8
E15LXLIFT
 62
8
 10
-326.837
 20
-964.070
 30
3680.111
 70
    32
  0
VERTEX
  8
E15LXLIFT
 62
8
 10
-330.903
 20
-961.825
 30
3680.135
 70
    32
  0
VERTEX
  8
E15LXLIFT
 62
8
 10
-338.925
 20
-950.830
 30
3680.061
 70
    32
  0
VERTEX
  8
E15LXLIFT
 62
8
 10
-339.036
 20
-948.457
 30
3680.020
 70
    32
  0
VERTEX
  8
E15LXLIFT
 62
8
 10
-356.826
 20
-910.046
 30
3679.717
 70
    32
  0
VERTEX
  8
E15LXLIFT
 62
8
 10
-369.277
 20
-895.666
 30
3679.735
 70
    32
  0
VERTEX
  8
E15LXLIFT
 62
8
 10
-376.283
 20
-889.495
 30
3679.747
 70
    32
  0
VERTEX
  8
E15LXLIFT
 62
8
 10
-377.393
 20
-884.056
 30
3679.650
 70
    32
  0
VERTEX
  8
E15LXLIFT
 62
8
 10
-386.171
 20
-876.496
 30
3679.668
 70
    32
  0
VERTEX
  8
E15LXLIFT
 62
8
 10
-412.005
 20
-859.966
 30
3679.381
 70
    32
  0
VERTEX
  8
E15LXLIFT
 62
8
 10
-423.731
 20
-865.269
 30
3679.293
 70
    32
  0
VERTEX
  8
E15LXLIFT
 62
8
 10
-425.790
 20
-879.091
 30
3679.414
 70
    32
  0
VERTEX
  8
E15LXLIFT
 62
8
 10
-424.960
 20
-891.741
 30
3679.558
 70
    32
  0
VERTEX
  8
E15LXLIFT
 62
8
 10
-421.840
 20
-896.017
 30
3679.653
 70
    32
  0
VERTEX
  8
E15LXLIFT
 62
8
 10
-408.819
 20
-897.117
 30
3679.813
 70
    32
  0
VERTEX
  8
E15LXLIFT
 62
8
 10
-408.091
 20
-898.744
 30
3679.839
 70
    32
  0
VERTEX
  8
E15LXLIFT
 62
8
 10
-407.291
 20
-900.530
 30
3679.878
 70
    32
  0
VERTEX
  8
E15LXLIFT
 62
8
 10
-405.751
 20
-905.086
 30
3679.974
 70
    32
  0
VERTEX
  8
E15LXLIFT
 62
8
 10
-404.059
 20
-907.266
 30
3680.029
 70
    32
  0
VERTEX
  8
E15LXLIFT
 62
8
 10
-399.646
 20
-908.980
 30
3680.104
 70
    32
  0
VERTEX
  8
E15LXLIFT
 62
8
 10
-395.637
 20
-914.302
 30
3680.238
 70
    32
  0
VERTEX
  8
E15LXLIFT
 62
8
 10
-394.279
 20
-918.244
 30
3680.321
 70
    32
  0
VERTEX
  8
E15LXLIFT
 62
8
 10
-396.281
 20
-937.779
 30
3680.644
 70
    32
  0
VERTEX
  8
E15LXLIFT
 62
8
 10
-398.629
 20
-940.352
 30
3680.666
 70
    32
  0
VERTEX
  8
E15LXLIFT
 62
8
 10
-399.590
 20
-949.679
 30
3680.820
 70
    32
  0
VERTEX
  8
E15LXLIFT
 62
8
 10
-391.778
 20
-957.337
 30
3681.033
 70
    32
  0
VERTEX
  8
E15LXLIFT
 62
8
 10
-389.015
 20
-969.879
 30
3681.282
 70
    32
  0
VERTEX
  8
E15LXLIFT
 62
8
 10
-385.577
 20
-974.249
 30
3681.320
 70
    32
  0
VERTEX
  8
E15LXLIFT
 62
8
 10
-374.432
 20
-988.311
 30
3681.305
 70
    32
  0
VERTEX
  8
E15LXLIFT
 62
8
 10
-365.886
 20
-1005.952
 30
3681.488
 70
    32
  0
VERTEX
  8
E15LXLIFT
 62
8
 10
-359.139
 20
-1003.863
 30
3681.343
 70
    32
  0
VERTEX
  8
E15LXLIFT
 62
8
 10
-352.663
 20
-1000.897
 30
3681.187
 70
    32
  0
VERTEX
  8
E15LXLIFT
 62
8
 10
-340.794
 20
-993.843
 30
3680.872
 70
    32
  0
VERTEX
  8
E15LXLIFT
 62
8
 10
-336.127
 20
-999.907
 30
3680.905
 70
    32
  0
VERTEX
  8
E15LXLIFT
 62
8
 10
-332.845
 20
-1009.549
 30
3681.025
 70
    32
  0
VERTEX
  8
E15LXLIFT
 62
8
 10
-327.749
 20
-1018.250
 30
3681.092
 70
    32
  0
VERTEX
  8
E15LXLIFT
 62
8
 10
-321.578
 20
-1017.520
 30
3680.981
 70
    32
  0
VERTEX
  8
E15LXLIFT
 62
8
 10
-311.250
 20
-1031.390
 30
3681.044
 70
    32
  0
SEQEND
  8
E15LXLIFT
  0
POLYLINE
  8
E15LXLIFT
 62
1
 66
     1
 70
     9
  0
VERTEX
  8
E15LXLIFT
 62
1
 10
-304.841
 20
-1039.989
 30
3691.117
 70
    32
  0
VERTEX
  8
E15LXLIFT
 62
1
 10
-303.161
 20
-1041.700
 30
3691.123
 70
    32
  0
VERTEX
  8
E15LXLIFT
 62
1
 10
-299.228
 20
-1042.471
 30
3691.071
 70
    32
  0
VERTEX
  8
E15LXLIFT
 62
1
 10
-286.837
 20
-1059.003
 30
3691.022
 70
    32
  0
VERTEX
  8
E15LXLIFT
 62
1
 10
-278.926
 20
-1058.157
 30
3690.990
 70
    32
  0
VERTEX
  8
E15LXLIFT
 62
1
 10
-275.288
 20
-1062.231
 30
3690.933
 70
    32
  0
VERTEX
  8
E15LXLIFT
 62
1
 10
-263.789
 20
-1082.274
 30
3690.684
 70
    32
  0
VERTEX
  8
E15LXLIFT
 62
1
 10
-251.369
 20
-1078.669
 30
3690.656
 70
    32
  0
VERTEX
  8
E15LXLIFT
 62
1
 10
-241.835
 20
-1071.890
 30
3690.672
 70
    32
  0
VERTEX
  8
E15LXLIFT
 62
1
 10
-287.497
 20
-1018.077
 30
3690.480
 70
    32
  0
VERTEX
  8
E15LXLIFT
 62
1
 10
-288.980
 20
-1011.007
 30
3690.383
 70
    32
  0
VERTEX
  8
E15LXLIFT
 62
1
 10
-298.389
 20
-1004.221
 30
3690.413
 70
    32
  0
VERTEX
  8
E15LXLIFT
 62
1
 10
-315.309
 20
-987.314
 30
3690.382
 70
    32
  0
VERTEX
  8
E15LXLIFT
 62
1
 10
-320.957
 20
-976.295
 30
3690.275
 70
    32
  0
VERTEX
  8
E15LXLIFT
 62
1
 10
-325.837
 20
-963.070
 30
3690.111
 70
    32
  0
VERTEX
  8
E15LXLIFT
 62
1
 10
-329.903
 20
-960.825
 30
3690.135
 70
    32
  0
VERTEX
  8
E15LXLIFT
 62
1
 10
-337.925
 20
-949.830
 30
3690.061
 70
    32
  0
VERTEX
  8
E15LXLIFT
 62
1
 10
-338.036
 20
-947.457
 30
3690.020
 70
    32
  0
VERTEX
  8
E15LXLIFT
 62
1
 10
-355.826
 20
-909.046
 30
3689.717
 70
    32
  0
VERTEX
  8
E15LXLIFT
 62
1
 10
-368.277
 20
-894.666
 30
3689.735
 70
    32
  0
VERTEX
  8
E15LXLIFT
 62
1
 10
-375.283
 20
-888.495
 30
3689.747
 70
    32
  0
VERTEX
  8
E15LXLIFT
 62
1
 10
-376.393
 20
-883.056
 30
3689.650
 70
    32
  0
VERTEX
  8
E15LXLIFT
 62
1
 10
-385.171
 20
-875.496
 30
3689.668
 70
    32
  0
VERTEX
  8
E15LXLIFT
 62
1
 10
-411.005
 20
-858.966
 30
3689.381
 70
    32
  0
VERTEX
  8
E15LXLIFT
 62
1
 10
-422.731
 20
-864.269
 30
3689.293
 70
    32
  0
VERTEX
  8
E15LXLIFT
 62
1
 10
-424.790
 20
-878.091
 30
3689.414
 70
    32
  0
VERTEX
  8
E15LXLIFT
 62
1
 10
-423.960
 20
-890.741
 30
3689.558
 70
    32
  0
VERTEX
  8
E15LXLIFT
 62
1
 10
-420.840
 20
-895.017
 30
3689.653
 70
    32
  0
VERTEX
  8
E15LXLIFT
 62
1
 10
-407.819
 20
-896.117
 30
3689.813
 70
    32
  0
VERTEX
  8
E15LXLIFT
 62
1
 10
-407.091
 20
-897.744
 30
3689.839
 70
    32
  0
VERTEX
  8
E15LXLIFT
 62
1
 10
-406.291
 20
-899.530
 30
3689.878
 70
    32
  0
VERTEX
  8
E15LXLIFT
 62
1
 10
-404.751
 20
-904.086
 30
3689.974
 70
    32
  0
VERTEX
  8
E15LXLIFT
 62
1
 10
-403.059
 20
-906.266
 30
3690.029
 70
    32
  0
VERTEX
  8
E15LXLIFT
 62
1
 10
-398.646
 20
-907.980
 30
3690.104
 70
    32
  0
VERTEX
  8
E15LXLIFT
 62
1
 10
-394.637
 20
-913.302
 30
3690.238
 70
    32
  0
VERTEX
  8
E15LXLIFT
 62
1
 10
-393.279
 20
-917.244
 30
3690.321
 70
    32
  0
VERTEX
  8
E15LXLIFT
 62
1
 10
-395.281
 20
-936.779
 30
3690.644
 70
    32
  0
VERTEX
  8
E15LXLIFT
 62
1
 10
-397.629
 20
-939.352
 30
3690.666
 70
    32
  0
VERTEX
  8
E15LXLIFT
 62
1
 10
-398.590
 20
-948.679
 30
3690.820
 70
    32
  0
VERTEX
  8
E15LXLIFT
 62
1
 10
-390.778
 20
-956.337
 30
3691.033
 70
    32
  0
VERTEX
  8
E15LXLIFT
 62
1
 10
-388.015
 20
-968.879
 30
3691.282
 70
    32
  0
VERTEX
  8
E15LXLIFT
 62
1
 10
-384.577
 20
-973.249
 30
3691.320
 70
    32
  0
VERTEX
  8
E15LXLIFT
 62
1
 10
-373.432
 20
-987.311
 30
3691.305
 70
    32
  0
VERTEX
  8
E15LXLIFT
 62
1
 10
-364.886
 20
-1004.952
 30
3691.488
 70
    32
  0
VERTEX
  8
E15LXLIFT
 62
1
 10
-358.139
 20
-1002.863
 30
3691.343
 70
    32
  0
VERTEX
  8
E15LXLIFT
 62
1
 10
-351.663
 20
-999.897
 30
3691.187
 70
    32
  0
VERTEX
  8
E15LXLIFT
 62
1
 10
-339.794
 20
-992.843
 30
3690.872
 70
    32
  0
VERTEX
  8
E15LXLIFT
 62
1
 10
-335.127
 20
-998.907
 30
3690.905
 70
    32
  0
VERTEX
  8
E15LXLIFT
 62
1
 10
-331.845
 20
-1008.549
 30
3691.025
 70
    32
  0
VERTEX
  8
E15LXLIFT
 62
1
 10
-326.749
 20
-1017.250
 30
3691.092
 70
    32
  0
VERTEX
  8
E15LXLIFT
 62
1
 10
-320.578
 20
-1016.520
 30
3690.981
 70
    32
  0
VERTEX
  8
E15LXLIFT
 62
1
 10
-310.250
 20
-1030.390
 30
3691.044
 70
    32
  0
SEQEND
  8
E15LXLIFT
  0
POINT
  8
E15LXLIFT
 62
1
 10
-374.030
 20
-920.151
 30
3680.408
  0
LINE
  8
E15LXLIFT
 62
8
 10
-374.030
 20
-920.151
 30
3680.408
 11
-338.673
 21
-818.739
 31
3536.352
  0
POINT
  8
E15LXLIFT
 62
1
 10
-309.203
 20
-1012.294
 30
3680.382
  0
POINT
  8
E15LXLIFT
 62
1
 10
-338.673
 20
-818.739
 30
3536.352
  0
LINE
  8
E15LXLIFT
 62
8
 10
-309.203
 20
-1012.294
 30
3680.382
 11
-277.613
 21
-988.880
 31
3601.000
  0
POINT
  8
E15LXLIFT
 62
1
 10
-277.613
 20
-988.880
 30
3601.000
  0
POINT
  8
E15LXLIFT
 62
1
 10
-374.759
 20
-941.955
 30
3690.957
  0
POINT
  8
E15LXLIFT
 62
1
 10
-413.406
 20
-948.270
 30
3799.000
  0
LINE
  8
E15LXLIFT
 62
8
 10
-413.406
 20
-948.270
 30
3799.000
 11
-374.759
 21
-941.955
 31
3690.957
  0
POLYLINE
  8
E15LXLIFT
 62
11
 66
     1
 70
     9
  0
VERTEX
  8
E15LXLIFT
 62
11
 10
-618.314
 20
-711.013
 30
3680.576
 70
    32
  0
VERTEX
  8
E15LXLIFT
 62
11
 10
-615.740
 20
-704.746
 30
3680.234
 70
    32
  0
VERTEX
  8
E15LXLIFT
 62
11
 10
-616.201
 20
-702.641
 30
3680.136
 70
    32
  0
VERTEX
  8
E15LXLIFT
 62
11
 10
-627.741
 20
-682.627
 30
3679.486
 70
    32
  0
VERTEX
  8
E15LXLIFT
 62
11
 10
-625.686
 20
-677.156
 30
3679.103
 70
    32
  0
VERTEX
  8
E15LXLIFT
 62
11
 10
-626.660
 20
-667.672
 30
3678.618
 70
    32
  0
VERTEX
  8
E15LXLIFT
 62
11
 10
-631.597
 20
-657.437
 30
3678.248
 70
    32
  0
VERTEX
  8
E15LXLIFT
 62
11
 10
-635.953
 20
-652.646
 30
3678.155
 70
    32
  0
VERTEX
  8
E15LXLIFT
 62
11
 10
-639.177
 20
-646.701
 30
3677.954
 70
    32
  0
VERTEX
  8
E15LXLIFT
 62
11
 10
-645.655
 20
-640.612
 30
3677.873
 70
    32
  0
VERTEX
  8
E15LXLIFT
 62
11
 10
-647.745
 20
-633.777
 30
3677.578
 70
    32
  0
VERTEX
  8
E15LXLIFT
 62
11
 10
-647.419
 20
-631.224
 30
3677.425
 70
    32
  0
VERTEX
  8
E15LXLIFT
 62
11
 10
-655.318
 20
-623.656
 30
3677.318
 70
    32
  0
VERTEX
  8
E15LXLIFT
 62
11
 10
-655.808
 20
-618.650
 30
3677.061
 70
    32
  0
VERTEX
  8
E15LXLIFT
 62
11
 10
-649.511
 20
-615.422
 30
3676.635
 70
    32
  0
VERTEX
  8
E15LXLIFT
 62
11
 10
-643.549
 20
-613.956
 30
3676.319
 70
    32
  0
VERTEX
  8
E15LXLIFT
 62
11
 10
-638.124
 20
-620.231
 30
3676.451
 70
    32
  0
VERTEX
  8
E15LXLIFT
 62
11
 10
-635.429
 20
-626.006
 30
3676.663
 70
    32
  0
VERTEX
  8
E15LXLIFT
 62
11
 10
-633.390
 20
-627.655
 30
3676.674
 70
    32
  0
VERTEX
  8
E15LXLIFT
 62
11
 10
-626.881
 20
-628.117
 30
3676.443
 70
    32
  0
VERTEX
  8
E15LXLIFT
 62
11
 10
-624.068
 20
-636.880
 30
3676.816
 70
    32
  0
VERTEX
  8
E15LXLIFT
 62
11
 10
-617.824
 20
-637.169
 30
3676.585
 70
    32
  0
VERTEX
  8
E15LXLIFT
 62
11
 10
-597.011
 20
-643.905
 30
3676.136
 70
    32
  0
VERTEX
  8
E15LXLIFT
 62
11
 10
-588.074
 20
-649.705
 30
3676.104
 70
    32
  0
VERTEX
  8
E15LXLIFT
 62
11
 10
-589.082
 20
-654.462
 30
3676.406
 70
    32
  0
VERTEX
  8
E15LXLIFT
 62
11
 10
-595.299
 20
-665.600
 30
3677.266
 70
    32
  0
VERTEX
  8
E15LXLIFT
 62
11
 10
-593.602
 20
-668.308
 30
3677.349
 70
    32
  0
VERTEX
  8
E15LXLIFT
 62
11
 10
-588.212
 20
-671.067
 30
3677.289
 70
    32
  0
VERTEX
  8
E15LXLIFT
 62
11
 10
-587.605
 20
-678.972
 30
3677.701
 70
    32
  0
VERTEX
  8
E15LXLIFT
 62
11
 10
-582.036
 20
-682.081
 30
3677.808
 70
    32
  0
VERTEX
  8
E15LXLIFT
 62
11
 10
-582.836
 20
-690.000
 30
3678.257
 70
    32
  0
VERTEX
  8
E15LXLIFT
 62
11
 10
-577.427
 20
-694.605
 30
3678.537
 70
    32
  0
VERTEX
  8
E15LXLIFT
 62
11
 10
-585.162
 20
-703.473
 30
3679.017
 70
    32
  0
VERTEX
  8
E15LXLIFT
 62
11
 10
-598.449
 20
-693.321
 30
3678.921
 70
    32
  0
VERTEX
  8
E15LXLIFT
 62
11
 10
-600.766
 20
-690.268
 30
3678.844
 70
    32
  0
VERTEX
  8
E15LXLIFT
 62
11
 10
-606.246
 20
-696.037
 30
3679.379
 70
    32
  0
VERTEX
  8
E15LXLIFT
 62
11
 10
-606.043
 20
-698.760
 30
3679.521
 70
    32
  0
VERTEX
  8
E15LXLIFT
 62
11
 10
-602.368
 20
-705.843
 30
3679.767
 70
    32
  0
VERTEX
  8
E15LXLIFT
 62
11
 10
-595.686
 20
-714.654
 30
3679.990
 70
    32
  0
VERTEX
  8
E15LXLIFT
 62
11
 10
-590.729
 20
-718.121
 30
3679.986
 70
    32
  0
VERTEX
  8
E15LXLIFT
 62
11
 10
-589.247
 20
-725.666
 30
3680.344
 70
    32
  0
SEQEND
  8
E15LXLIFT
  0
POLYLINE
  8
E15LXLIFT
 62
6
 66
     1
 70
     9
  0
VERTEX
  8
E15LXLIFT
 62
6
 10
-459.641
 20
-793.378
 30
3682.129
 70
    32
  0
VERTEX
  8
E15LXLIFT
 62
6
 10
-452.874
 20
-790.403
 30
3682.570
 70
    32
  0
VERTEX
  8
E15LXLIFT
 62
6
 10
-452.857
 20
-783.283
 30
3682.976
 70
    32
  0
VERTEX
  8
E15LXLIFT
 62
6
 10
-458.342
 20
-779.822
 30
3682.952
 70
    32
  0
VERTEX
  8
E15LXLIFT
 62
6
 10
-466.805
 20
-768.655
 30
3683.118
 70
    32
  0
VERTEX
  8
E15LXLIFT
 62
6
 10
-478.356
 20
-756.288
 30
3682.375
 70
    32
  0
VERTEX
  8
E15LXLIFT
 62
6
 10
-484.459
 20
-743.779
 30
3681.643
 70
    32
  0
VERTEX
  8
E15LXLIFT
 62
6
 10
-487.369
 20
-734.139
 30
3681.084
 70
    32
  0
VERTEX
  8
E15LXLIFT
 62
6
 10
-486.915
 20
-726.750
 30
3680.664
 70
    32
  0
VERTEX
  8
E15LXLIFT
 62
6
 10
-490.116
 20
-714.388
 30
3679.949
 70
    32
  0
VERTEX
  8
E15LXLIFT
 62
6
 10
-507.854
 20
-689.952
 30
3678.498
 70
    32
  0
VERTEX
  8
E15LXLIFT
 62
6
 10
-509.317
 20
-684.341
 30
3678.174
 70
    32
  0
VERTEX
  8
E15LXLIFT
 62
6
 10
-508.593
 20
-677.565
 30
3677.790
 70
    32
  0
VERTEX
  8
E15LXLIFT
 62
6
 10
-506.079
 20
-674.112
 30
3677.601
 70
    32
  0
VERTEX
  8
E15LXLIFT
 62
6
 10
-506.228
 20
-667.960
 30
3677.250
 70
    32
  0
VERTEX
  8
E15LXLIFT
 62
6
 10
-508.530
 20
-657.610
 30
3676.653
 70
    32
  0
VERTEX
  8
E15LXLIFT
 62
6
 10
-494.524
 20
-651.756
 30
3676.365
 70
    32
  0
VERTEX
  8
E15LXLIFT
 62
6
 10
-486.820
 20
-666.095
 30
3677.207
 70
    32
  0
VERTEX
  8
E15LXLIFT
 62
6
 10
-483.986
 20
-668.176
 30
3677.335
 70
    32
  0
VERTEX
  8
E15LXLIFT
 62
6
 10
-473.570
 20
-690.048
 30
3678.616
 70
    32
  0
VERTEX
  8
E15LXLIFT
 62
6
 10
-465.772
 20
-696.299
 30
3678.979
 70
    32
  0
VERTEX
  8
E15LXLIFT
 62
6
 10
-459.441
 20
-696.499
 30
3678.864
 70
    32
  0
VERTEX
  8
E15LXLIFT
 62
6
 10
-460.390
 20
-707.057
 30
3679.628
 70
    32
  0
VERTEX
  8
E15LXLIFT
 62
6
 10
-458.810
 20
-715.568
 30
3680.118
 70
    32
  0
VERTEX
  8
E15LXLIFT
 62
6
 10
-459.137
 20
-726.823
 30
3680.759
 70
    32
  0
VERTEX
  8
E15LXLIFT
 62
6
 10
-448.350
 20
-759.416
 30
3682.651
 70
    32
  0
VERTEX
  8
E15LXLIFT
 62
6
 10
-436.089
 20
-772.390
 30
3683.431
 70
    32
  0
VERTEX
  8
E15LXLIFT
 62
6
 10
-441.621
 20
-790.554
 30
3683.015
 70
    32
  0
VERTEX
  8
E15LXLIFT
 62
6
 10
-437.598
 20
-805.985
 30
3682.299
 70
    32
  0
SEQEND
  8
E15LXLIFT
  0
POLYLINE
  8
E15LXLIFT
 62
3
 66
     1
 70
     9
  0
VERTEX
  8
E15LXLIFT
 62
3
 10
-712.205
 20
-517.158
 30
3679.779
 70
    32
  0
VERTEX
  8
E15LXLIFT
 62
3
 10
-716.739
 20
-512.105
 30
3679.258
 70
    32
  0
VERTEX
  8
E15LXLIFT
 62
3
 10
-716.439
 20
-506.916
 30
3678.339
 70
    32
  0
VERTEX
  8
E15LXLIFT
 62
3
 10
-714.024
 20
-502.321
 30
3677.360
 70
    32
  0
VERTEX
  8
E15LXLIFT
 62
3
 10
-724.426
 20
-490.646
 30
3676.150
 70
    32
  0
VERTEX
  8
E15LXLIFT
 62
3
 10
-726.803
 20
-490.230
 30
3676.262
 70
    32
  0
VERTEX
  8
E15LXLIFT
 62
3
 10
-732.561
 20
-477.102
 30
3675.038
 70
    32
  0
VERTEX
  8
E15LXLIFT
 62
3
 10
-703.700
 20
-462.396
 30
3673.029
 70
    32
  0
VERTEX
  8
E15LXLIFT
 62
3
 10
-702.624
 20
-473.198
 30
3673.328
 70
    32
  0
VERTEX
  8
E15LXLIFT
 62
3
 10
-694.109
 20
-489.639
 30
3673.632
 70
    32
  0
VERTEX
  8
E15LXLIFT
 62
3
 10
-690.681
 20
-489.604
 30
3673.361
 70
    32
  0
VERTEX
  8
E15LXLIFT
 62
3
 10
-686.257
 20
-492.461
 30
3673.512
 70
    32
  0
VERTEX
  8
E15LXLIFT
 62
3
 10
-680.628
 20
-501.546
 30
3674.644
 70
    32
  0
VERTEX
  8
E15LXLIFT
 62
3
 10
-670.216
 20
-505.486
 30
3674.518
 70
    32
  0
VERTEX
  8
E15LXLIFT
 62
3
 10
-662.573
 20
-504.970
 30
3673.838
 70
    32
  0
VERTEX
  8
E15LXLIFT
 62
3
 10
-661.313
 20
-516.736
 30
3675.771
 70
    32
  0
VERTEX
  8
E15LXLIFT
 62
3
 10
-669.114
 20
-527.714
 30
3678.268
 70
    32
  0
VERTEX
  8
E15LXLIFT
 62
3
 10
-676.069
 20
-526.641
 30
3678.621
 70
    32
  0
VERTEX
  8
E15LXLIFT
 62
3
 10
-685.059
 20
-533.061
 30
3680.423
 70
    32
  0
VERTEX
  8
E15LXLIFT
 62
3
 10
-698.124
 20
-536.356
 30
3682.002
 70
    32
  0
VERTEX
  8
E15LXLIFT
 62
3
 10
-703.643
 20
-529.467
 30
3681.240
 70
    32
  0
SEQEND
  8
E15LXLIFT
  0
POLYLINE
  8
E15LXLIFT
 62
1
 66
     1
 70
     9
  0
VERTEX
  8
E15LXLIFT
 62
1
 10
-702.643
 20
-528.467
 30
3691.240
 70
    32
  0
VERTEX
  8
E15LXLIFT
 62
1
 10
-697.124
 20
-535.356
 30
3692.002
 70
    32
  0
VERTEX
  8
E15LXLIFT
 62
1
 10
-684.059
 20
-532.061
 30
3690.423
 70
    32
  0
VERTEX
  8
E15LXLIFT
 62
1
 10
-675.069
 20
-525.641
 30
3688.621
 70
    32
  0
VERTEX
  8
E15LXLIFT
 62
1
 10
-668.114
 20
-526.714
 30
3688.268
 70
    32
  0
VERTEX
  8
E15LXLIFT
 62
1
 10
-660.313
 20
-515.736
 30
3685.771
 70
    32
  0
VERTEX
  8
E15LXLIFT
 62
1
 10
-661.573
 20
-503.970
 30
3683.838
 70
    32
  0
VERTEX
  8
E15LXLIFT
 62
1
 10
-669.216
 20
-504.486
 30
3684.518
 70
    32
  0
VERTEX
  8
E15LXLIFT
 62
1
 10
-679.628
 20
-500.546
 30
3684.644
 70
    32
  0
VERTEX
  8
E15LXLIFT
 62
1
 10
-685.257
 20
-491.461
 30
3683.512
 70
    32
  0
VERTEX
  8
E15LXLIFT
 62
1
 10
-689.681
 20
-488.604
 30
3683.361
 70
    32
  0
VERTEX
  8
E15LXLIFT
 62
1
 10
-693.109
 20
-488.639
 30
3683.632
 70
    32
  0
VERTEX
  8
E15LXLIFT
 62
1
 10
-701.624
 20
-472.198
 30
3683.328
 70
    32
  0
VERTEX
  8
E15LXLIFT
 62
1
 10
-702.700
 20
-461.396
 30
3683.029
 70
    32
  0
VERTEX
  8
E15LXLIFT
 62
1
 10
-731.561
 20
-476.102
 30
3685.038
 70
    32
  0
VERTEX
  8
E15LXLIFT
 62
1
 10
-725.803
 20
-489.230
 30
3686.262
 70
    32
  0
VERTEX
  8
E15LXLIFT
 62
1
 10
-723.426
 20
-489.646
 30
3686.150
 70
    32
  0
VERTEX
  8
E15LXLIFT
 62
1
 10
-713.024
 20
-501.321
 30
3687.360
 70
    32
  0
VERTEX
  8
E15LXLIFT
 62
1
 10
-715.439
 20
-505.916
 30
3688.339
 70
    32
  0
VERTEX
  8
E15LXLIFT
 62
1
 10
-715.739
 20
-511.105
 30
3689.258
 70
    32
  0
VERTEX
  8
E15LXLIFT
 62
1
 10
-711.205
 20
-516.158
 30
3689.779
 70
    32
  0
SEQEND
  8
E15LXLIFT
  0
POINT
  8
E15LXLIFT
 62
1
 10
-696.942
 20
-499.406
 30
3687.220
  0
POINT
  8
E15LXLIFT
 62
1
 10
-711.597
 20
-507.345
 30
3788.000
  0
LINE
  8
E15LXLIFT
 62
3
 10
-711.597
 20
-507.345
 30
3788.000
 11
-696.942
 21
-499.406
 31
3687.220
  0
POLYLINE
  8
E15LXLIFT
 62
13
 66
     1
 70
     9
  0
VERTEX
  8
E15LXLIFT
 62
13
 10
-853.773
 20
-469.087
 30
3682.178
 70
    32
  0
VERTEX
  8
E15LXLIFT
 62
13
 10
-856.297
 20
-445.290
 30
3680.532
 70
    32
  0
VERTEX
  8
E15LXLIFT
 62
13
 10
-855.108
 20
-441.146
 30
3680.333
 70
    32
  0
VERTEX
  8
E15LXLIFT
 62
13
 10
-850.511
 20
-434.947
 30
3679.886
 70
    32
  0
VERTEX
  8
E15LXLIFT
 62
13
 10
-842.573
 20
-420.100
 30
3678.978
 70
    32
  0
VERTEX
  8
E15LXLIFT
 62
13
 10
-839.008
 20
-407.406
 30
3678.447
 70
    32
  0
VERTEX
  8
E15LXLIFT
 62
13
 10
-846.892
 20
-383.838
 30
3678.877
 70
    32
  0
VERTEX
  8
E15LXLIFT
 62
13
 10
-847.404
 20
-367.845
 30
3678.983
 70
    32
  0
VERTEX
  8
E15LXLIFT
 62
13
 10
-860.935
 20
-368.420
 30
3679.498
 70
    32
  0
VERTEX
  8
E15LXLIFT
 62
13
 10
-862.747
 20
-363.076
 30
3679.596
 70
    32
  0
VERTEX
  8
E15LXLIFT
 62
13
 10
-873.643
 20
-345.956
 30
3680.106
 70
    32
  0
VERTEX
  8
E15LXLIFT
 62
13
 10
-883.704
 20
-350.716
 30
3680.466
 70
    32
  0
VERTEX
  8
E15LXLIFT
 62
13
 10
-884.339
 20
-357.579
 30
3680.453
 70
    32
  0
VERTEX
  8
E15LXLIFT
 62
13
 10
-894.784
 20
-367.880
 30
3680.797
 70
    32
  0
VERTEX
  8
E15LXLIFT
 62
13
 10
-879.942
 20
-375.291
 30
3680.189
 70
    32
  0
VERTEX
  8
E15LXLIFT
 62
13
 10
-884.482
 20
-387.116
 30
3680.299
 70
    32
  0
VERTEX
  8
E15LXLIFT
 62
13
 10
-868.466
 20
-397.592
 30
3679.629
 70
    32
  0
VERTEX
  8
E15LXLIFT
 62
13
 10
-864.137
 20
-408.537
 30
3679.737
 70
    32
  0
VERTEX
  8
E15LXLIFT
 62
13
 10
-865.122
 20
-415.579
 30
3680.021
 70
    32
  0
VERTEX
  8
E15LXLIFT
 62
13
 10
-868.787
 20
-418.253
 30
3680.303
 70
    32
  0
VERTEX
  8
E15LXLIFT
 62
13
 10
-872.119
 20
-419.077
 30
3680.506
 70
    32
  0
VERTEX
  8
E15LXLIFT
 62
13
 10
-873.241
 20
-421.110
 30
3680.632
 70
    32
  0
VERTEX
  8
E15LXLIFT
 62
13
 10
-870.874
 20
-438.052
 30
3681.064
 70
    32
  0
VERTEX
  8
E15LXLIFT
 62
13
 10
-875.235
 20
-441.436
 30
3681.406
 70
    32
  0
SEQEND
  8
E15LXLIFT
  0
POLYLINE
  8
E15LXLIFT
 62
1
 66
     1
 70
     9
  0
VERTEX
  8
E15LXLIFT
 62
1
 10
-874.235
 20
-440.436
 30
3691.406
 70
    32
  0
VERTEX
  8
E15LXLIFT
 62
1
 10
-869.874
 20
-437.052
 30
3691.064
 70
    32
  0
VERTEX
  8
E15LXLIFT
 62
1
 10
-872.241
 20
-420.110
 30
3690.632
 70
    32
  0
VERTEX
  8
E15LXLIFT
 62
1
 10
-871.119
 20
-418.077
 30
3690.506
 70
    32
  0
VERTEX
  8
E15LXLIFT
 62
1
 10
-867.787
 20
-417.253
 30
3690.303
 70
    32
  0
VERTEX
  8
E15LXLIFT
 62
1
 10
-864.122
 20
-414.579
 30
3690.021
 70
    32
  0
VERTEX
  8
E15LXLIFT
 62
1
 10
-863.137
 20
-407.537
 30
3689.737
 70
    32
  0
VERTEX
  8
E15LXLIFT
 62
1
 10
-867.466
 20
-396.592
 30
3689.629
 70
    32
  0
VERTEX
  8
E15LXLIFT
 62
1
 10
-883.482
 20
-386.116
 30
3690.299
 70
    32
  0
VERTEX
  8
E15LXLIFT
 62
1
 10
-878.942
 20
-374.291
 30
3690.189
 70
    32
  0
VERTEX
  8
E15LXLIFT
 62
1
 10
-893.784
 20
-366.880
 30
3690.797
 70
    32
  0
VERTEX
  8
E15LXLIFT
 62
1
 10
-883.339
 20
-356.579
 30
3690.453
 70
    32
  0
VERTEX
  8
E15LXLIFT
 62
1
 10
-882.704
 20
-349.716
 30
3690.466
 70
    32
  0
VERTEX
  8
E15LXLIFT
 62
1
 10
-872.643
 20
-344.956
 30
3690.106
 70
    32
  0
VERTEX
  8
E15LXLIFT
 62
1
 10
-861.747
 20
-362.076
 30
3689.596
 70
    32
  0
VERTEX
  8
E15LXLIFT
 62
1
 10
-859.935
 20
-367.420
 30
3689.498
 70
    32
  0
VERTEX
  8
E15LXLIFT
 62
1
 10
-846.404
 20
-366.845
 30
3688.983
 70
    32
  0
VERTEX
  8
E15LXLIFT
 62
1
 10
-845.892
 20
-382.838
 30
3688.877
 70
    32
  0
VERTEX
  8
E15LXLIFT
 62
1
 10
-838.008
 20
-406.406
 30
3688.447
 70
    32
  0
VERTEX
  8
E15LXLIFT
 62
1
 10
-841.573
 20
-419.100
 30
3688.978
 70
    32
  0
VERTEX
  8
E15LXLIFT
 62
1
 10
-849.511
 20
-433.947
 30
3689.886
 70
    32
  0
VERTEX
  8
E15LXLIFT
 62
1
 10
-854.108
 20
-440.146
 30
3690.333
 70
    32
  0
VERTEX
  8
E15LXLIFT
 62
1
 10
-855.297
 20
-444.290
 30
3690.532
 70
    32
  0
VERTEX
  8
E15LXLIFT
 62
1
 10
-852.773
 20
-468.087
 30
3692.178
 70
    32
  0
SEQEND
  8
E15LXLIFT
  0
POLYLINE
  8
E15LXLIFT
 62
7
 66
     1
 70
     9
  0
VERTEX
  8
E15LXLIFT
 62
7
 10
-909.941
 20
-272.260
 30
3681.894
 70
    32
  0
VERTEX
  8
E15LXLIFT
 62
7
 10
-926.066
 20
-254.326
 30
3682.609
 70
    32
  0
VERTEX
  8
E15LXLIFT
 62
7
 10
-951.027
 20
-247.839
 30
3683.417
 70
    32
  0
VERTEX
  8
E15LXLIFT
 62
7
 10
-950.830
 20
-239.756
 30
3683.539
 70
    32
  0
VERTEX
  8
E15LXLIFT
 62
7
 10
-960.696
 20
-220.412
 30
3683.610
 70
    32
  0
VERTEX
  8
E15LXLIFT
 62
7
 10
-973.712
 20
-207.933
 30
3683.253
 70
    32
  0
VERTEX
  8
E15LXLIFT
 62
7
 10
-987.038
 20
-200.249
 30
3683.060
 70
    32
  0
VERTEX
  8
E15LXLIFT
 62
7
 10
-987.290
 20
-195.430
 30
3682.724
 70
    32
  0
VERTEX
  8
E15LXLIFT
 62
7
 10
-988.715
 20
-192.879
 30
3682.580
 70
    32
  0
VERTEX
  8
E15LXLIFT
 62
7
 10
-995.820
 20
-189.251
 30
3682.511
 70
    32
  0
VERTEX
  8
E15LXLIFT
 62
7
 10
-992.150
 20
-175.045
 30
3681.402
 70
    32
  0
VERTEX
  8
E15LXLIFT
 62
7
 10
-983.623
 20
-168.392
 30
3680.701
 70
    32
  0
VERTEX
  8
E15LXLIFT
 62
7
 10
-975.908
 20
-173.751
 30
3680.877
 70
    32
  0
VERTEX
  8
E15LXLIFT
 62
7
 10
-969.228
 20
-173.665
 30
3680.694
 70
    32
  0
VERTEX
  8
E15LXLIFT
 62
7
 10
-966.433
 20
-181.524
 30
3681.179
 70
    32
  0
VERTEX
  8
E15LXLIFT
 62
7
 10
-963.671
 20
-183.969
 30
3681.279
 70
    32
  0
VERTEX
  8
E15LXLIFT
 62
7
 10
-954.459
 20
-182.581
 30
3681.435
 70
    32
  0
VERTEX
  8
E15LXLIFT
 62
7
 10
-952.818
 20
-192.587
 30
3682.132
 70
    32
  0
VERTEX
  8
E15LXLIFT
 62
7
 10
-946.636
 20
-191.668
 30
3682.885
 70
    32
  0
VERTEX
  8
E15LXLIFT
 62
7
 10
-947.115
 20
-205.178
 30
3683.479
 70
    32
  0
VERTEX
  8
E15LXLIFT
 62
7
 10
-939.671
 20
-230.748
 30
3683.270
 70
    32
  0
VERTEX
  8
E15LXLIFT
 62
7
 10
-929.342
 20
-239.095
 30
3682.826
 70
    32
  0
VERTEX
  8
E15LXLIFT
 62
7
 10
-924.552
 20
-241.040
 30
3682.645
 70
    32
  0
VERTEX
  8
E15LXLIFT
 62
7
 10
-921.651
 20
-240.991
 30
3682.550
 70
    32
  0
VERTEX
  8
E15LXLIFT
 62
7
 10
-922.774
 20
-236.915
 30
3682.639
 70
    32
  0
VERTEX
  8
E15LXLIFT
 62
7
 10
-912.002
 20
-233.193
 30
3682.334
 70
    32
  0
VERTEX
  8
E15LXLIFT
 62
7
 10
-907.202
 20
-247.530
 30
3681.994
 70
    32
  0
VERTEX
  8
E15LXLIFT
 62
7
 10
-903.036
 20
-251.453
 30
3681.808
 70
    32
  0
VERTEX
  8
E15LXLIFT
 62
7
 10
-901.772
 20
-254.229
 30
3681.732
 70
    32
  0
VERTEX
  8
E15LXLIFT
 62
7
 10
-901.998
 20
-264.509
 30
3681.632
 70
    32
  0
SEQEND
  8
E15LXLIFT
  0
POLYLINE
  8
E15LXLIFT
 62
1
 66
     1
 70
     9
  0
VERTEX
  8
E15LXLIFT
 62
1
 10
-908.941
 20
-271.260
 30
3691.894
 70
    32
  0
VERTEX
  8
E15LXLIFT
 62
1
 10
-925.066
 20
-253.326
 30
3692.609
 70
    32
  0
VERTEX
  8
E15LXLIFT
 62
1
 10
-950.027
 20
-246.839
 30
3693.417
 70
    32
  0
VERTEX
  8
E15LXLIFT
 62
1
 10
-949.830
 20
-238.756
 30
3693.539
 70
    32
  0
VERTEX
  8
E15LXLIFT
 62
1
 10
-959.696
 20
-219.412
 30
3693.610
 70
    32
  0
VERTEX
  8
E15LXLIFT
 62
1
 10
-972.712
 20
-206.933
 30
3693.253
 70
    32
  0
VERTEX
  8
E15LXLIFT
 62
1
 10
-986.038
 20
-199.249
 30
3693.060
 70
    32
  0
VERTEX
  8
E15LXLIFT
 62
1
 10
-986.290
 20
-194.430
 30
3692.724
 70
    32
  0
VERTEX
  8
E15LXLIFT
 62
1
 10
-987.715
 20
-191.879
 30
3692.580
 70
    32
  0
VERTEX
  8
E15LXLIFT
 62
1
 10
-994.820
 20
-188.251
 30
3692.511
 70
    32
  0
VERTEX
  8
E15LXLIFT
 62
1
 10
-991.150
 20
-174.045
 30
3691.402
 70
    32
  0
VERTEX
  8
E15LXLIFT
 62
1
 10
-982.623
 20
-167.392
 30
3690.701
 70
    32
  0
VERTEX
  8
E15LXLIFT
 62
1
 10
-974.908
 20
-172.751
 30
3690.877
 70
    32
  0
VERTEX
  8
E15LXLIFT
 62
1
 10
-968.228
 20
-172.665
 30
3690.694
 70
    32
  0
VERTEX
  8
E15LXLIFT
 62
1
 10
-965.433
 20
-180.524
 30
3691.179
 70
    32
  0
VERTEX
  8
E15LXLIFT
 62
1
 10
-962.671
 20
-182.969
 30
3691.279
 70
    32
  0
VERTEX
  8
E15LXLIFT
 62
1
 10
-953.459
 20
-181.581
 30
3691.435
 70
    32
  0
VERTEX
  8
E15LXLIFT
 62
1
 10
-951.818
 20
-191.587
 30
3692.132
 70
    32
  0
VERTEX
  8
E15LXLIFT
 62
1
 10
-945.636
 20
-190.668
 30
3692.885
 70
    32
  0
VERTEX
  8
E15LXLIFT
 62
1
 10
-946.115
 20
-204.178
 30
3693.479
 70
    32
  0
VERTEX
  8
E15LXLIFT
 62
1
 10
-938.671
 20
-229.748
 30
3693.270
 70
    32
  0
VERTEX
  8
E15LXLIFT
 62
1
 10
-928.342
 20
-238.095
 30
3692.826
 70
    32
  0
VERTEX
  8
E15LXLIFT
 62
1
 10
-923.552
 20
-240.040
 30
3692.645
 70
    32
  0
VERTEX
  8
E15LXLIFT
 62
1
 10
-920.651
 20
-239.991
 30
3692.550
 70
    32
  0
VERTEX
  8
E15LXLIFT
 62
1
 10
-921.774
 20
-235.915
 30
3692.639
 70
    32
  0
VERTEX
  8
E15LXLIFT
 62
1
 10
-911.002
 20
-232.193
 30
3692.334
 70
    32
  0
VERTEX
  8
E15LXLIFT
 62
1
 10
-906.202
 20
-246.530
 30
3691.994
 70
    32
  0
VERTEX
  8
E15LXLIFT
 62
1
 10
-902.036
 20
-250.453
 30
3691.808
 70
    32
  0
VERTEX
  8
E15LXLIFT
 62
1
 10
-900.772
 20
-253.229
 30
3691.732
 70
    32
  0
VERTEX
  8
E15LXLIFT
 62
1
 10
-900.998
 20
-263.509
 30
3691.632
 70
    32
  0
SEQEND
  8
E15LXLIFT
  0
POLYLINE
  8
E15LXLIFT
 62
11
 66
     1
 70
     9
  0
VERTEX
  8
E15LXLIFT
 62
11
 10
-885.963
 20
-66.063
 30
3683.608
 70
    32
  0
VERTEX
  8
E15LXLIFT
 62
11
 10
-895.469
 20
-69.733
 30
3683.572
 70
    32
  0
VERTEX
  8
E15LXLIFT
 62
11
 10
-906.164
 20
-78.185
 30
3682.602
 70
    32
  0
VERTEX
  8
E15LXLIFT
 62
11
 10
-910.306
 20
-82.945
 30
3682.298
 70
    32
  0
VERTEX
  8
E15LXLIFT
 62
11
 10
-911.225
 20
-91.230
 30
3682.581
 70
    32
  0
VERTEX
  8
E15LXLIFT
 62
11
 10
-909.563
 20
-102.308
 30
3683.334
 70
    32
  0
VERTEX
  8
E15LXLIFT
 62
11
 10
-907.714
 20
-106.982
 30
3683.799
 70
    32
  0
VERTEX
  8
E15LXLIFT
 62
11
 10
-901.701
 20
-116.370
 30
3683.483
 70
    32
  0
VERTEX
  8
E15LXLIFT
 62
11
 10
-896.006
 20
-133.426
 30
3683.080
 70
    32
  0
VERTEX
  8
E15LXLIFT
 62
11
 10
-905.074
 20
-141.127
 30
3683.278
 70
    32
  0
VERTEX
  8
E15LXLIFT
 62
11
 10
-913.840
 20
-122.395
 30
3683.756
 70
    32
  0
VERTEX
  8
E15LXLIFT
 62
11
 10
-921.827
 20
-116.364
 30
3682.433
 70
    32
  0
VERTEX
  8
E15LXLIFT
 62
11
 10
-926.036
 20
-114.321
 30
3681.791
 70
    32
  0
VERTEX
  8
E15LXLIFT
 62
11
 10
-930.080
 20
-114.443
 30
3681.275
 70
    32
  0
VERTEX
  8
E15LXLIFT
 62
11
 10
-928.889
 20
-106.830
 30
3681.059
 70
    32
  0
VERTEX
  8
E15LXLIFT
 62
11
 10
-931.601
 20
-103.261
 30
3680.536
 70
    32
  0
VERTEX
  8
E15LXLIFT
 62
11
 10
-933.650
 20
-97.468
 30
3679.990
 70
    32
  0
VERTEX
  8
E15LXLIFT
 62
11
 10
-929.647
 20
-89.981
 30
3680.143
 70
    32
  0
VERTEX
  8
E15LXLIFT
 62
11
 10
-930.097
 20
-86.829
 30
3679.932
 70
    32
  0
VERTEX
  8
E15LXLIFT
 62
11
 10
-927.896
 20
-85.223
 30
3680.139
 70
    32
  0
VERTEX
  8
E15LXLIFT
 62
11
 10
-922.406
 20
-74.258
 30
3680.315
 70
    32
  0
VERTEX
  8
E15LXLIFT
 62
11
 10
-909.803
 20
-62.457
 30
3681.369
 70
    32
  0
VERTEX
  8
E15LXLIFT
 62
11
 10
-888.497
 20
-50.508
 30
3683.539
 70
    32
  0
SEQEND
  8
E15LXLIFT
  0
POLYLINE
  8
E15LXLIFT
 62
1
 66
     1
 70
     9
  0
VERTEX
  8
E15LXLIFT
 62
1
 10
-884.963
 20
-65.063
 30
3693.608
 70
    32
  0
VERTEX
  8
E15LXLIFT
 62
1
 10
-894.469
 20
-68.733
 30
3693.572
 70
    32
  0
VERTEX
  8
E15LXLIFT
 62
1
 10
-905.164
 20
-77.185
 30
3692.602
 70
    32
  0
VERTEX
  8
E15LXLIFT
 62
1
 10
-909.306
 20
-81.945
 30
3692.298
 70
    32
  0
VERTEX
  8
E15LXLIFT
 62
1
 10
-910.225
 20
-90.230
 30
3692.581
 70
    32
  0
VERTEX
  8
E15LXLIFT
 62
1
 10
-908.563
 20
-101.308
 30
3693.334
 70
    32
  0
VERTEX
  8
E15LXLIFT
 62
1
 10
-906.714
 20
-105.982
 30
3693.799
 70
    32
  0
VERTEX
  8
E15LXLIFT
 62
1
 10
-900.701
 20
-115.370
 30
3693.483
 70
    32
  0
VERTEX
  8
E15LXLIFT
 62
1
 10
-895.006
 20
-132.426
 30
3693.080
 70
    32
  0
VERTEX
  8
E15LXLIFT
 62
1
 10
-904.074
 20
-140.127
 30
3693.278
 70
    32
  0
VERTEX
  8
E15LXLIFT
 62
1
 10
-912.840
 20
-121.395
 30
3693.756
 70
    32
  0
VERTEX
  8
E15LXLIFT
 62
1
 10
-920.827
 20
-115.364
 30
3692.433
 70
    32
  0
VERTEX
  8
E15LXLIFT
 62
1
 10
-925.036
 20
-113.321
 30
3691.791
 70
    32
  0
VERTEX
  8
E15LXLIFT
 62
1
 10
-929.080
 20
-113.443
 30
3691.275
 70
    32
  0
VERTEX
  8
E15LXLIFT
 62
1
 10
-927.889
 20
-105.830
 30
3691.059
 70
    32
  0
VERTEX
  8
E15LXLIFT
 62
1
 10
-930.601
 20
-102.261
 30
3690.536
 70
    32
  0
VERTEX
  8
E15LXLIFT
 62
1
 10
-932.650
 20
-96.468
 30
3689.990
 70
    32
  0
VERTEX
  8
E15LXLIFT
 62
1
 10
-928.647
 20
-88.981
 30
3690.143
 70
    32
  0
VERTEX
  8
E15LXLIFT
 62
1
 10
-929.097
 20
-85.829
 30
3689.932
 70
    32
  0
VERTEX
  8
E15LXLIFT
 62
1
 10
-926.896
 20
-84.223
 30
3690.139
 70
    32
  0
VERTEX
  8
E15LXLIFT
 62
1
 10
-921.406
 20
-73.258
 30
3690.315
 70
    32
  0
VERTEX
  8
E15LXLIFT
 62
1
 10
-908.803
 20
-61.457
 30
3691.369
 70
    32
  0
VERTEX
  8
E15LXLIFT
 62
1
 10
-887.497
 20
-49.508
 30
3693.539
 70
    32
  0
SEQEND
  8
E15LXLIFT
  0
POLYLINE
  8
E15LXLIFT
 62
2
 66
     1
 70
     9
  0
VERTEX
  8
E15LXLIFT
 62
2
 10
-722.778
 20
-154.255
 30
3681.752
 70
    32
  0
VERTEX
  8
E15LXLIFT
 62
2
 10
-731.005
 20
-137.306
 30
3682.389
 70
    32
  0
VERTEX
  8
E15LXLIFT
 62
2
 10
-727.041
 20
-130.064
 30
3682.803
 70
    32
  0
VERTEX
  8
E15LXLIFT
 62
2
 10
-717.126
 20
-123.377
 30
3682.960
 70
    32
  0
VERTEX
  8
E15LXLIFT
 62
2
 10
-708.123
 20
-120.510
 30
3682.966
 70
    32
  0
VERTEX
  8
E15LXLIFT
 62
2
 10
-702.024
 20
-115.300
 30
3682.994
 70
    32
  0
VERTEX
  8
E15LXLIFT
 62
2
 10
-688.954
 20
-114.579
 30
3682.978
 70
    32
  0
VERTEX
  8
E15LXLIFT
 62
2
 10
-687.446
 20
-112.174
 30
3682.993
 70
    32
  0
VERTEX
  8
E15LXLIFT
 62
2
 10
-686.259
 20
-95.755
 30
3683.112
 70
    32
  0
VERTEX
  8
E15LXLIFT
 62
2
 10
-687.556
 20
-88.653
 30
3683.167
 70
    32
  0
VERTEX
  8
E15LXLIFT
 62
2
 10
-689.912
 20
-74.490
 30
3678.382
 70
    32
  0
VERTEX
  8
E15LXLIFT
 62
2
 10
-691.261
 20
-71.161
 30
3677.323
 70
    32
  0
VERTEX
  8
E15LXLIFT
 62
2
 10
-697.348
 20
-60.117
 30
3677.464
 70
    32
  0
VERTEX
  8
E15LXLIFT
 62
2
 10
-702.378
 20
-47.253
 30
3677.633
 70
    32
  0
VERTEX
  8
E15LXLIFT
 62
2
 10
-690.369
 20
-36.428
 30
3677.809
 70
    32
  0
VERTEX
  8
E15LXLIFT
 62
2
 10
-683.146
 20
-45.736
 30
3677.695
 70
    32
  0
VERTEX
  8
E15LXLIFT
 62
2
 10
-673.039
 20
-66.753
 30
3677.424
 70
    32
  0
VERTEX
  8
E15LXLIFT
 62
2
 10
-671.907
 20
-75.628
 30
3677.303
 70
    32
  0
VERTEX
  8
E15LXLIFT
 62
2
 10
-670.526
 20
-86.456
 30
3680.995
 70
    32
  0
VERTEX
  8
E15LXLIFT
 62
2
 10
-671.132
 20
-92.337
 30
3683.112
 70
    32
  0
VERTEX
  8
E15LXLIFT
 62
2
 10
-673.536
 20
-126.176
 30
3682.867
 70
    32
  0
VERTEX
  8
E15LXLIFT
 62
2
 10
-676.017
 20
-131.574
 30
3682.831
 70
    32
  0
VERTEX
  8
E15LXLIFT
 62
2
 10
-668.888
 20
-147.911
 30
3682.699
 70
    32
  0
VERTEX
  8
E15LXLIFT
 62
2
 10
-674.222
 20
-160.284
 30
3682.393
 70
    32
  0
VERTEX
  8
E15LXLIFT
 62
2
 10
-680.113
 20
-165.778
 30
3682.024
 70
    32
  0
VERTEX
  8
E15LXLIFT
 62
2
 10
-679.919
 20
-170.966
 30
3681.785
 70
    32
  0
VERTEX
  8
E15LXLIFT
 62
2
 10
-675.048
 20
-190.471
 30
3680.964
 70
    32
  0
VERTEX
  8
E15LXLIFT
 62
2
 10
-679.251
 20
-197.235
 30
3680.568
 70
    32
  0
VERTEX
  8
E15LXLIFT
 62
2
 10
-678.772
 20
-217.878
 30
3679.610
 70
    32
  0
VERTEX
  8
E15LXLIFT
 62
2
 10
-685.149
 20
-222.855
 30
3679.256
 70
    32
  0
VERTEX
  8
E15LXLIFT
 62
2
 10
-686.532
 20
-222.449
 30
3679.249
 70
    32
  0
VERTEX
  8
E15LXLIFT
 62
2
 10
-691.018
 20
-216.149
 30
3679.459
 70
    32
  0
VERTEX
  8
E15LXLIFT
 62
2
 10
-693.196
 20
-215.997
 30
3679.424
 70
    32
  0
VERTEX
  8
E15LXLIFT
 62
2
 10
-703.744
 20
-208.245
 30
3679.587
 70
    32
  0
VERTEX
  8
E15LXLIFT
 62
2
 10
-711.702
 20
-214.484
 30
3679.143
 70
    32
  0
VERTEX
  8
E15LXLIFT
 62
2
 10
-721.900
 20
-202.886
 30
3679.492
 70
    32
  0
VERTEX
  8
E15LXLIFT
 62
2
 10
-727.434
 20
-194.850
 30
3679.763
 70
    32
  0
VERTEX
  8
E15LXLIFT
 62
2
 10
-720.845
 20
-189.717
 30
3680.129
 70
    32
  0
VERTEX
  8
E15LXLIFT
 62
2
 10
-717.459
 20
-184.964
 30
3680.416
 70
    32
  0
VERTEX
  8
E15LXLIFT
 62
2
 10
-713.363
 20
-174.473
 30
3680.985
 70
    32
  0
VERTEX
  8
E15LXLIFT
 62
2
 10
-713.360
 20
-171.643
 30
3681.117
 70
    32
  0
VERTEX
  8
E15LXLIFT
 62
2
 10
-715.929
 20
-169.165
 30
3681.184
 70
    32
  0
VERTEX
  8
E15LXLIFT
 62
2
 10
-721.598
 20
-167.208
 30
3681.168
 70
    32
  0
SEQEND
  8
E15LXLIFT
  0
POINT
  8
E15LXLIFT
 62
1
 10
-2328.896
 20
737.855
 30
3688.000
  0
POINT
  8
E15LXLIFT
 62
1
 10
-2381.637
 20
702.500
 30
3794.000
  0
LINE
  8
E15LXLIFT
 62
2
 10
-2381.637
 20
702.500
 30
3794.000
 11
-2328.896
 21
737.855
 31
3688.000
  0
POLYLINE
  8
E15LXLIFT
 62
3
 66
     1
 70
     9
  0
VERTEX
  8
E15LXLIFT
 62
3
 10
-2632.722
 20
950.687
 30
3691.044
 70
    32
  0
VERTEX
  8
E15LXLIFT
 62
3
 10
-2639.841
 20
945.061
 30
3691.097
 70
    32
  0
VERTEX
  8
E15LXLIFT
 62
3
 10
-2654.445
 20
953.434
 30
3691.108
 70
    32
  0
VERTEX
  8
E15LXLIFT
 62
3
 10
-2671.814
 20
958.590
 30
3690.969
 70
    32
  0
VERTEX
  8
E15LXLIFT
 62
3
 10
-2672.187
 20
969.526
 30
3691.072
 70
    32
  0
VERTEX
  8
E15LXLIFT
 62
3
 10
-2695.397
 20
975.528
 30
3690.877
 70
    32
  0
VERTEX
  8
E15LXLIFT
 62
3
 10
-2690.039
 20
989.345
 30
3691.072
 70
    32
  0
VERTEX
  8
E15LXLIFT
 62
3
 10
-2698.169
 20
996.898
 30
3691.057
 70
    32
  0
VERTEX
  8
E15LXLIFT
 62
3
 10
-2694.296
 20
1007.236
 30
3691.201
 70
    32
  0
VERTEX
  8
E15LXLIFT
 62
3
 10
-2697.305
 20
1009.716
 30
3691.193
 70
    32
  0
VERTEX
  8
E15LXLIFT
 62
3
 10
-2714.284
 20
992.742
 30
3690.840
 70
    32
  0
VERTEX
  8
E15LXLIFT
 62
3
 10
-2716.739
 20
993.124
 30
3690.816
 70
    32
  0
VERTEX
  8
E15LXLIFT
 62
3
 10
-2722.188
 20
997.305
 30
3690.798
 70
    32
  0
VERTEX
  8
E15LXLIFT
 62
3
 10
-2725.077
 20
998.132
 30
3690.774
 70
    32
  0
VERTEX
  8
E15LXLIFT
 62
3
 10
-2728.411
 20
1001.355
 30
3690.770
 70
    32
  0
VERTEX
  8
E15LXLIFT
 62
3
 10
-2722.444
 20
1023.124
 30
3691.049
 70
    32
  0
VERTEX
  8
E15LXLIFT
 62
3
 10
-2724.048
 20
1026.958
 30
3691.069
 70
    32
  0
VERTEX
  8
E15LXLIFT
 62
3
 10
-2723.839
 20
1037.992
 30
3691.180
 70
    32
  0
VERTEX
  8
E15LXLIFT
 62
3
 10
-2721.465
 20
1039.509
 30
3691.221
 70
    32
  0
VERTEX
  8
E15LXLIFT
 62
3
 10
-2715.035
 20
1050.517
 30
3691.353
 70
    32
  0
VERTEX
  8
E15LXLIFT
 62
3
 10
-2708.593
 20
1056.355
 30
3691.274
 70
    32
  0
VERTEX
  8
E15LXLIFT
 62
3
 10
-2691.916
 20
1033.022
 30
3691.312
 70
    32
  0
VERTEX
  8
E15LXLIFT
 62
3
 10
-2681.826
 20
1033.212
 30
3691.230
 70
    32
  0
VERTEX
  8
E15LXLIFT
 62
3
 10
-2672.137
 20
1036.482
 30
3691.132
 70
    32
  0
VERTEX
  8
E15LXLIFT
 62
3
 10
-2669.918
 20
1041.041
 30
3691.086
 70
    32
  0
VERTEX
  8
E15LXLIFT
 62
3
 10
-2655.045
 20
1042.876
 30
3690.955
 70
    32
  0
VERTEX
  8
E15LXLIFT
 62
3
 10
-2654.172
 20
1042.425
 30
3690.950
 70
    32
  0
VERTEX
  8
E15LXLIFT
 62
3
 10
-2654.957
 20
1031.732
 30
3691.022
 70
    32
  0
VERTEX
  8
E15LXLIFT
 62
3
 10
-2649.806
 20
1027.661
 30
3691.005
 70
    32
  0
VERTEX
  8
E15LXLIFT
 62
3
 10
-2642.649
 20
1027.993
 30
3690.945
 70
    32
  0
VERTEX
  8
E15LXLIFT
 62
3
 10
-2633.899
 20
1023.613
 30
3690.901
 70
    32
  0
VERTEX
  8
E15LXLIFT
 62
3
 10
-2631.911
 20
1021.039
 30
3690.900
 70
    32
  0
VERTEX
  8
E15LXLIFT
 62
3
 10
-2632.795
 20
1014.952
 30
3690.944
 70
    32
  0
VERTEX
  8
E15LXLIFT
 62
3
 10
-2620.011
 20
1002.965
 30
3690.913
 70
    32
  0
VERTEX
  8
E15LXLIFT
 62
3
 10
-2614.125
 20
1008.462
 30
3690.832
 70
    32
  0
VERTEX
  8
E15LXLIFT
 62
3
 10
-2606.731
 20
1006.682
 30
3690.783
 70
    32
  0
VERTEX
  8
E15LXLIFT
 62
3
 10
-2597.287
 20
1012.820
 30
3690.670
 70
    32
  0
VERTEX
  8
E15LXLIFT
 62
3
 10
-2581.885
 20
1017.653
 30
3690.516
 70
    32
  0
VERTEX
  8
E15LXLIFT
 62
3
 10
-2577.640
 20
1011.396
 30
3690.520
 70
    32
  0
VERTEX
  8
E15LXLIFT
 62
3
 10
-2575.591
 20
1010.825
 30
3690.507
 70
    32
  0
VERTEX
  8
E15LXLIFT
 62
3
 10
-2567.844
 20
1013.329
 30
3690.420
 70
    32
  0
VERTEX
  8
E15LXLIFT
 62
3
 10
-2563.387
 20
1004.398
 30
3690.447
 70
    32
  0
VERTEX
  8
E15LXLIFT
 62
3
 10
-2565.243
 20
1002.172
 30
3690.476
 70
    32
  0
VERTEX
  8
E15LXLIFT
 62
3
 10
-2580.826
 20
996.990
 30
3690.633
 70
    32
  0
VERTEX
  8
E15LXLIFT
 62
3
 10
-2581.200
 20
990.949
 30
3690.672
 70
    32
  0
VERTEX
  8
E15LXLIFT
 62
3
 10
-2587.152
 20
985.839
 30
3690.751
 70
    32
  0
VERTEX
  8
E15LXLIFT
 62
3
 10
-2586.833
 20
981.828
 30
3690.773
 70
    32
  0
VERTEX
  8
E15LXLIFT
 62
3
 10
-2589.562
 20
980.052
 30
3690.806
 70
    32
  0
VERTEX
  8
E15LXLIFT
 62
3
 10
-2594.811
 20
979.046
 30
3690.854
 70
    32
  0
VERTEX
  8
E15LXLIFT
 62
3
 10
-2592.190
 20
973.671
 30
3690.866
 70
    32
  0
VERTEX
  8
E15LXLIFT
 62
3
 10
-2595.026
 20
964.744
 30
3690.943
 70
    32
  0
VERTEX
  8
E15LXLIFT
 62
3
 10
-2600.336
 20
961.735
 30
3691.004
 70
    32
  0
VERTEX
  8
E15LXLIFT
 62
3
 10
-2604.129
 20
962.011
 30
3691.020
 70
    32
  0
VERTEX
  8
E15LXLIFT
 62
3
 10
-2612.011
 20
965.502
 30
3691.049
 70
    32
  0
VERTEX
  8
E15LXLIFT
 62
3
 10
-2620.114
 20
963.934
 30
3691.059
 70
    32
  0
VERTEX
  8
E15LXLIFT
 62
3
 10
-2632.790
 20
973.390
 30
3691.120
 70
    32
  0
VERTEX
  8
E15LXLIFT
 62
3
 10
-2641.151
 20
962.493
 30
3691.097
 70
    32
  0
SEQEND
  8
E15LXLIFT
  0
POLYLINE
  8
E15LXLIFT
 62
7
 66
     1
 70
     9
  0
VERTEX
  8
E15LXLIFT
 62
7
 10
-533.613
 20
-792.493
 30
3810.000
 70
    32
  0
VERTEX
  8
E15LXLIFT
 62
7
 10
-514.265
 20
-807.089
 30
3810.000
 70
    32
  0
VERTEX
  8
E15LXLIFT
 62
7
 10
-512.635
 20
-808.524
 30
3810.000
 70
    32
  0
VERTEX
  8
E15LXLIFT
 62
7
 10
-509.562
 20
-813.443
 30
3810.000
 70
    32
  0
VERTEX
  8
E15LXLIFT
 62
7
 10
-506.645
 20
-819.217
 30
3810.000
 70
    32
  0
VERTEX
  8
E15LXLIFT
 62
7
 10
-500.218
 20
-840.594
 30
3810.000
 70
    32
  0
VERTEX
  8
E15LXLIFT
 62
7
 10
-487.441
 20
-837.006
 30
3810.000
 70
    32
  0
VERTEX
  8
E15LXLIFT
 62
7
 10
-484.600
 20
-838.032
 30
3810.000
 70
    32
  0
VERTEX
  8
E15LXLIFT
 62
7
 10
-482.160
 20
-839.869
 30
3810.000
 70
    32
  0
VERTEX
  8
E15LXLIFT
 62
7
 10
-477.220
 20
-844.247
 30
3810.000
 70
    32
  0
VERTEX
  8
E15LXLIFT
 62
7
 10
-473.374
 20
-848.740
 30
3810.000
 70
    32
  0
VERTEX
  8
E15LXLIFT
 62
7
 10
-470.891
 20
-854.813
 30
3810.000
 70
    32
  0
VERTEX
  8
E15LXLIFT
 62
7
 10
-468.899
 20
-859.091
 30
3810.000
 70
    32
  0
VERTEX
  8
E15LXLIFT
 62
7
 10
-453.275
 20
-889.162
 30
3810.000
 70
    32
  0
VERTEX
  8
E15LXLIFT
 62
7
 10
-453.157
 20
-891.960
 30
3810.000
 70
    32
  0
VERTEX
  8
E15LXLIFT
 62
7
 10
-452.526
 20
-893.338
 30
3810.000
 70
    32
  0
VERTEX
  8
E15LXLIFT
 62
7
 10
-451.557
 20
-894.211
 30
3810.000
 70
    32
  0
VERTEX
  8
E15LXLIFT
 62
7
 10
-451.109
 20
-894.827
 30
3810.000
 70
    32
  0
VERTEX
  8
E15LXLIFT
 62
7
 10
-447.770
 20
-896.988
 30
3810.000
 70
    32
  0
VERTEX
  8
E15LXLIFT
 62
7
 10
-445.388
 20
-898.856
 30
3810.000
 70
    32
  0
VERTEX
  8
E15LXLIFT
 62
7
 10
-444.558
 20
-902.026
 30
3810.000
 70
    32
  0
VERTEX
  8
E15LXLIFT
 62
7
 10
-444.175
 20
-903.795
 30
3810.000
 70
    32
  0
VERTEX
  8
E15LXLIFT
 62
7
 10
-441.249
 20
-910.106
 30
3810.000
 70
    32
  0
VERTEX
  8
E15LXLIFT
 62
7
 10
-438.214
 20
-916.877
 30
3810.000
 70
    32
  0
VERTEX
  8
E15LXLIFT
 62
7
 10
-433.829
 20
-923.130
 30
3810.000
 70
    32
  0
VERTEX
  8
E15LXLIFT
 62
7
 10
-430.947
 20
-928.614
 30
3810.000
 70
    32
  0
VERTEX
  8
E15LXLIFT
 62
7
 10
-426.867
 20
-938.405
 30
3810.000
 70
    32
  0
VERTEX
  8
E15LXLIFT
 62
7
 10
-422.206
 20
-945.965
 30
3810.000
 70
    32
  0
VERTEX
  8
E15LXLIFT
 62
7
 10
-418.255
 20
-956.490
 30
3810.000
 70
    32
  0
VERTEX
  8
E15LXLIFT
 62
7
 10
-414.701
 20
-964.613
 30
3810.000
 70
    32
  0
VERTEX
  8
E15LXLIFT
 62
7
 10
-410.384
 20
-974.130
 30
3810.000
 70
    32
  0
VERTEX
  8
E15LXLIFT
 62
7
 10
-407.551
 20
-981.448
 30
3810.000
 70
    32
  0
VERTEX
  8
E15LXLIFT
 62
7
 10
-407.479
 20
-981.635
 30
3810.000
 70
    32
  0
VERTEX
  8
E15LXLIFT
 62
7
 10
-400.675
 20
-991.884
 30
3810.000
 70
    32
  0
VERTEX
  8
E15LXLIFT
 62
7
 10
-399.266
 20
-1003.417
 30
3810.000
 70
    32
  0
VERTEX
  8
E15LXLIFT
 62
7
 10
-401.182
 20
-1015.377
 30
3810.000
 70
    32
  0
VERTEX
  8
E15LXLIFT
 62
7
 10
-386.306
 20
-1015.808
 30
3810.000
 70
    32
  0
VERTEX
  8
E15LXLIFT
 62
7
 10
-382.589
 20
-1023.476
 30
3810.000
 70
    32
  0
VERTEX
  8
E15LXLIFT
 62
7
 10
-373.005
 20
-1032.870
 30
3810.000
 70
    32
  0
VERTEX
  8
E15LXLIFT
 62
7
 10
-355.277
 20
-1048.293
 30
3810.000
 70
    32
  0
VERTEX
  8
E15LXLIFT
 62
7
 10
-352.734
 20
-1056.843
 30
3810.000
 70
    32
  0
VERTEX
  8
E15LXLIFT
 62
7
 10
-350.155
 20
-1067.046
 30
3810.000
 70
    32
  0
VERTEX
  8
E15LXLIFT
 62
7
 10
-336.562
 20
-1069.469
 30
3810.000
 70
    32
  0
VERTEX
  8
E15LXLIFT
 62
7
 10
-334.776
 20
-1080.952
 30
3810.000
 70
    32
  0
VERTEX
  8
E15LXLIFT
 62
7
 10
-325.163
 20
-1094.052
 30
3810.000
 70
    32
  0
VERTEX
  8
E15LXLIFT
 62
7
 10
-316.852
 20
-1113.017
 30
3810.000
 70
    32
  0
VERTEX
  8
E15LXLIFT
 62
7
 10
-309.043
 20
-1112.297
 30
3810.000
 70
    32
  0
VERTEX
  8
E15LXLIFT
 62
7
 10
-298.679
 20
-1106.104
 30
3810.000
 70
    32
  0
VERTEX
  8
E15LXLIFT
 62
7
 10
-301.525
 20
-1101.263
 30
3810.000
 70
    32
  0
VERTEX
  8
E15LXLIFT
 62
7
 10
-301.537
 20
-1096.565
 30
3810.000
 70
    32
  0
VERTEX
  8
E15LXLIFT
 62
7
 10
-300.248
 20
-1095.304
 30
3810.000
 70
    32
  0
VERTEX
  8
E15LXLIFT
 62
7
 10
-295.887
 20
-1094.516
 30
3810.000
 70
    32
  0
VERTEX
  8
E15LXLIFT
 62
7
 10
-289.292
 20
-1092.530
 30
3810.000
 70
    32
  0
VERTEX
  8
E15LXLIFT
 62
7
 10
-285.723
 20
-1083.650
 30
3810.000
 70
    32
  0
VERTEX
  8
E15LXLIFT
 62
7
 10
-290.374
 20
-1074.266
 30
3810.000
 70
    32
  0
VERTEX
  8
E15LXLIFT
 62
7
 10
-296.324
 20
-1071.030
 30
3810.000
 70
    32
  0
VERTEX
  8
E15LXLIFT
 62
7
 10
-299.101
 20
-1069.068
 30
3810.000
 70
    32
  0
VERTEX
  8
E15LXLIFT
 62
7
 10
-306.447
 20
-1065.370
 30
3810.000
 70
    32
  0
VERTEX
  8
E15LXLIFT
 62
7
 10
-307.022
 20
-1061.030
 30
3810.000
 70
    32
  0
VERTEX
  8
E15LXLIFT
 62
7
 10
-325.199
 20
-1045.516
 30
3810.000
 70
    32
  0
VERTEX
  8
E15LXLIFT
 62
7
 10
-339.243
 20
-1039.532
 30
3810.000
 70
    32
  0
VERTEX
  8
E15LXLIFT
 62
7
 10
-347.931
 20
-1033.200
 30
3810.000
 70
    32
  0
VERTEX
  8
E15LXLIFT
 62
7
 10
-357.201
 20
-1024.889
 30
3810.000
 70
    32
  0
VERTEX
  8
E15LXLIFT
 62
7
 10
-369.980
 20
-1014.575
 30
3810.000
 70
    32
  0
VERTEX
  8
E15LXLIFT
 62
7
 10
-382.390
 20
-996.798
 30
3810.000
 70
    32
  0
VERTEX
  8
E15LXLIFT
 62
7
 10
-379.644
 20
-991.560
 30
3810.000
 70
    32
  0
VERTEX
  8
E15LXLIFT
 62
7
 10
-395.462
 20
-973.849
 30
3810.000
 70
    32
  0
VERTEX
  8
E15LXLIFT
 62
7
 10
-395.478
 20
-973.755
 30
3810.000
 70
    32
  0
VERTEX
  8
E15LXLIFT
 62
7
 10
-395.947
 20
-970.865
 30
3810.000
 70
    32
  0
VERTEX
  8
E15LXLIFT
 62
7
 10
-397.445
 20
-968.270
 30
3810.000
 70
    32
  0
VERTEX
  8
E15LXLIFT
 62
7
 10
-398.937
 20
-964.920
 30
3810.000
 70
    32
  0
VERTEX
  8
E15LXLIFT
 62
7
 10
-400.163
 20
-961.491
 30
3810.000
 70
    32
  0
VERTEX
  8
E15LXLIFT
 62
7
 10
-400.670
 20
-958.630
 30
3810.000
 70
    32
  0
VERTEX
  8
E15LXLIFT
 62
7
 10
-401.474
 20
-952.439
 30
3810.000
 70
    32
  0
VERTEX
  8
E15LXLIFT
 62
7
 10
-402.116
 20
-949.994
 30
3810.000
 70
    32
  0
VERTEX
  8
E15LXLIFT
 62
7
 10
-404.078
 20
-944.293
 30
3810.000
 70
    32
  0
VERTEX
  8
E15LXLIFT
 62
7
 10
-407.493
 20
-937.896
 30
3810.000
 70
    32
  0
VERTEX
  8
E15LXLIFT
 62
7
 10
-411.714
 20
-931.421
 30
3810.000
 70
    32
  0
VERTEX
  8
E15LXLIFT
 62
7
 10
-415.870
 20
-924.579
 30
3810.000
 70
    32
  0
VERTEX
  8
E15LXLIFT
 62
7
 10
-418.954
 20
-918.807
 30
3810.000
 70
    32
  0
VERTEX
  8
E15LXLIFT
 62
7
 10
-420.491
 20
-913.559
 30
3810.000
 70
    32
  0
VERTEX
  8
E15LXLIFT
 62
7
 10
-427.315
 20
-901.437
 30
3810.000
 70
    32
  0
VERTEX
  8
E15LXLIFT
 62
7
 10
-439.327
 20
-885.726
 30
3810.000
 70
    32
  0
VERTEX
  8
E15LXLIFT
 62
7
 10
-443.374
 20
-882.332
 30
3810.000
 70
    32
  0
VERTEX
  8
E15LXLIFT
 62
7
 10
-445.281
 20
-880.341
 30
3810.000
 70
    32
  0
VERTEX
  8
E15LXLIFT
 62
7
 10
-462.838
 20
-843.604
 30
3810.000
 70
    32
  0
VERTEX
  8
E15LXLIFT
 62
7
 10
-466.783
 20
-838.967
 30
3810.000
 70
    32
  0
VERTEX
  8
E15LXLIFT
 62
7
 10
-480.507
 20
-827.423
 30
3810.000
 70
    32
  0
VERTEX
  8
E15LXLIFT
 62
7
 10
-483.662
 20
-825.013
 30
3810.000
 70
    32
  0
VERTEX
  8
E15LXLIFT
 62
7
 10
-484.749
 20
-824.056
 30
3810.000
 70
    32
  0
VERTEX
  8
E15LXLIFT
 62
7
 10
-486.401
 20
-819.651
 30
3810.000
 70
    32
  0
VERTEX
  8
E15LXLIFT
 62
7
 10
-489.375
 20
-814.876
 30
3810.000
 70
    32
  0
VERTEX
  8
E15LXLIFT
 62
7
 10
-493.478
 20
-811.094
 30
3810.000
 70
    32
  0
VERTEX
  8
E15LXLIFT
 62
7
 10
-491.482
 20
-806.411
 30
3810.000
 70
    32
  0
VERTEX
  8
E15LXLIFT
 62
7
 10
-489.636
 20
-801.511
 30
3810.000
 70
    32
  0
VERTEX
  8
E15LXLIFT
 62
7
 10
-487.907
 20
-796.905
 30
3810.000
 70
    32
  0
VERTEX
  8
E15LXLIFT
 62
7
 10
-486.634
 20
-792.721
 30
3810.000
 70
    32
  0
VERTEX
  8
E15LXLIFT
 62
7
 10
-487.248
 20
-787.811
 30
3810.000
 70
    32
  0
VERTEX
  8
E15LXLIFT
 62
7
 10
-489.708
 20
-781.616
 30
3810.000
 70
    32
  0
VERTEX
  8
E15LXLIFT
 62
7
 10
-492.932
 20
-773.388
 30
3810.000
 70
    32
  0
VERTEX
  8
E15LXLIFT
 62
7
 10
-494.226
 20
-767.028
 30
3810.000
 70
    32
  0
VERTEX
  8
E15LXLIFT
 62
7
 10
-495.348
 20
-760.763
 30
3810.000
 70
    32
  0
VERTEX
  8
E15LXLIFT
 62
7
 10
-496.057
 20
-756.025
 30
3810.000
 70
    32
  0
VERTEX
  8
E15LXLIFT
 62
7
 10
-494.146
 20
-752.147
 30
3810.000
 70
    32
  0
VERTEX
  8
E15LXLIFT
 62
7
 10
-499.280
 20
-744.704
 30
3810.000
 70
    32
  0
VERTEX
  8
E15LXLIFT
 62
7
 10
-499.978
 20
-743.692
 30
3810.000
 70
    32
  0
VERTEX
  8
E15LXLIFT
 62
7
 10
-500.133
 20
-740.066
 30
3810.000
 70
    32
  0
VERTEX
  8
E15LXLIFT
 62
7
 10
-500.570
 20
-735.568
 30
3810.000
 70
    32
  0
VERTEX
  8
E15LXLIFT
 62
7
 10
-502.061
 20
-727.531
 30
3810.000
 70
    32
  0
VERTEX
  8
E15LXLIFT
 62
7
 10
-503.126
 20
-720.267
 30
3810.000
 70
    32
  0
VERTEX
  8
E15LXLIFT
 62
7
 10
-503.709
 20
-716.768
 30
3810.000
 70
    32
  0
VERTEX
  8
E15LXLIFT
 62
7
 10
-503.454
 20
-710.239
 30
3810.000
 70
    32
  0
VERTEX
  8
E15LXLIFT
 62
7
 10
-503.953
 20
-709.698
 30
3810.000
 70
    32
  0
VERTEX
  8
E15LXLIFT
 62
7
 10
-504.458
 20
-706.384
 30
3810.000
 70
    32
  0
VERTEX
  8
E15LXLIFT
 62
7
 10
-507.013
 20
-693.302
 30
3810.000
 70
    32
  0
VERTEX
  8
E15LXLIFT
 62
7
 10
-508.306
 20
-680.675
 30
3810.000
 70
    32
  0
VERTEX
  8
E15LXLIFT
 62
7
 10
-513.266
 20
-681.304
 30
3810.000
 70
    32
  0
VERTEX
  8
E15LXLIFT
 62
7
 10
-520.820
 20
-672.739
 30
3810.000
 70
    32
  0
VERTEX
  8
E15LXLIFT
 62
7
 10
-525.452
 20
-666.688
 30
3810.000
 70
    32
  0
VERTEX
  8
E15LXLIFT
 62
7
 10
-536.223
 20
-668.921
 30
3810.000
 70
    32
  0
VERTEX
  8
E15LXLIFT
 62
7
 10
-524.638
 20
-683.451
 30
3810.000
 70
    32
  0
VERTEX
  8
E15LXLIFT
 62
7
 10
-522.538
 20
-693.911
 30
3810.000
 70
    32
  0
VERTEX
  8
E15LXLIFT
 62
7
 10
-520.925
 20
-700.024
 30
3810.000
 70
    32
  0
VERTEX
  8
E15LXLIFT
 62
7
 10
-520.549
 20
-720.719
 30
3810.000
 70
    32
  0
VERTEX
  8
E15LXLIFT
 62
7
 10
-519.626
 20
-725.751
 30
3810.000
 70
    32
  0
VERTEX
  8
E15LXLIFT
 62
7
 10
-519.958
 20
-735.120
 30
3810.000
 70
    32
  0
VERTEX
  8
E15LXLIFT
 62
7
 10
-516.333
 20
-760.340
 30
3810.000
 70
    32
  0
VERTEX
  8
E15LXLIFT
 62
7
 10
-517.219
 20
-763.691
 30
3810.000
 70
    32
  0
VERTEX
  8
E15LXLIFT
 62
7
 10
-514.975
 20
-770.036
 30
3810.000
 70
    32
  0
VERTEX
  8
E15LXLIFT
 62
7
 10
-512.916
 20
-773.949
 30
3810.000
 70
    32
  0
VERTEX
  8
E15LXLIFT
 62
7
 10
-515.652
 20
-776.476
 30
3810.000
 70
    32
  0
VERTEX
  8
E15LXLIFT
 62
7
 10
-519.928
 20
-780.172
 30
3810.000
 70
    32
  0
VERTEX
  8
E15LXLIFT
 62
7
 10
-525.291
 20
-782.912
 30
3810.000
 70
    32
  0
SEQEND
  8
E15LXLIFT
  0
POLYLINE
  8
E15LXLIFT
 62
6
 66
     1
 70
     9
  0
VERTEX
  8
E15LXLIFT
 62
6
 10
-587.870
 20
-629.599
 30
3802.000
 70
    32
  0
VERTEX
  8
E15LXLIFT
 62
6
 10
-573.214
 20
-645.554
 30
3802.000
 70
    32
  0
VERTEX
  8
E15LXLIFT
 62
6
 10
-565.509
 20
-645.321
 30
3802.000
 70
    32
  0
VERTEX
  8
E15LXLIFT
 62
6
 10
-558.926
 20
-650.076
 30
3802.000
 70
    32
  0
VERTEX
  8
E15LXLIFT
 62
6
 10
-548.638
 20
-641.804
 30
3802.000
 70
    32
  0
VERTEX
  8
E15LXLIFT
 62
6
 10
-561.340
 20
-628.340
 30
3802.000
 70
    32
  0
VERTEX
  8
E15LXLIFT
 62
6
 10
-559.719
 20
-625.061
 30
3802.000
 70
    32
  0
VERTEX
  8
E15LXLIFT
 62
6
 10
-559.957
 20
-606.857
 30
3802.000
 70
    32
  0
VERTEX
  8
E15LXLIFT
 62
6
 10
-565.181
 20
-606.894
 30
3802.000
 70
    32
  0
VERTEX
  8
E15LXLIFT
 62
6
 10
-564.335
 20
-603.751
 30
3802.000
 70
    32
  0
VERTEX
  8
E15LXLIFT
 62
6
 10
-570.408
 20
-601.902
 30
3802.000
 70
    32
  0
VERTEX
  8
E15LXLIFT
 62
6
 10
-566.455
 20
-596.897
 30
3802.000
 70
    32
  0
VERTEX
  8
E15LXLIFT
 62
6
 10
-571.823
 20
-589.054
 30
3802.000
 70
    32
  0
VERTEX
  8
E15LXLIFT
 62
6
 10
-575.710
 20
-591.932
 30
3802.000
 70
    32
  0
VERTEX
  8
E15LXLIFT
 62
6
 10
-576.164
 20
-577.278
 30
3802.000
 70
    32
  0
VERTEX
  8
E15LXLIFT
 62
6
 10
-587.451
 20
-568.238
 30
3802.000
 70
    32
  0
VERTEX
  8
E15LXLIFT
 62
6
 10
-587.893
 20
-557.296
 30
3802.000
 70
    32
  0
VERTEX
  8
E15LXLIFT
 62
6
 10
-597.249
 20
-548.795
 30
3802.000
 70
    32
  0
VERTEX
  8
E15LXLIFT
 62
6
 10
-606.366
 20
-530.271
 30
3802.000
 70
    32
  0
VERTEX
  8
E15LXLIFT
 62
6
 10
-617.957
 20
-502.199
 30
3802.000
 70
    32
  0
VERTEX
  8
E15LXLIFT
 62
6
 10
-626.898
 20
-494.287
 30
3802.000
 70
    32
  0
VERTEX
  8
E15LXLIFT
 62
6
 10
-641.473
 20
-469.175
 30
3802.000
 70
    32
  0
VERTEX
  8
E15LXLIFT
 62
6
 10
-641.373
 20
-448.432
 30
3802.000
 70
    32
  0
VERTEX
  8
E15LXLIFT
 62
6
 10
-644.777
 20
-447.626
 30
3802.000
 70
    32
  0
VERTEX
  8
E15LXLIFT
 62
6
 10
-648.253
 20
-446.291
 30
3802.000
 70
    32
  0
VERTEX
  8
E15LXLIFT
 62
6
 10
-650.803
 20
-443.400
 30
3802.000
 70
    32
  0
VERTEX
  8
E15LXLIFT
 62
6
 10
-655.181
 20
-437.027
 30
3802.000
 70
    32
  0
VERTEX
  8
E15LXLIFT
 62
6
 10
-667.131
 20
-422.337
 30
3802.000
 70
    32
  0
VERTEX
  8
E15LXLIFT
 62
6
 10
-671.504
 20
-418.689
 30
3802.000
 70
    32
  0
VERTEX
  8
E15LXLIFT
 62
6
 10
-669.868
 20
-413.991
 30
3802.000
 70
    32
  0
VERTEX
  8
E15LXLIFT
 62
6
 10
-667.244
 20
-411.521
 30
3802.000
 70
    32
  0
VERTEX
  8
E15LXLIFT
 62
6
 10
-663.896
 20
-405.469
 30
3802.000
 70
    32
  0
VERTEX
  8
E15LXLIFT
 62
6
 10
-647.979
 20
-399.446
 30
3802.000
 70
    32
  0
VERTEX
  8
E15LXLIFT
 62
6
 10
-655.006
 20
-390.531
 30
3802.000
 70
    32
  0
VERTEX
  8
E15LXLIFT
 62
6
 10
-665.049
 20
-394.183
 30
3802.000
 70
    32
  0
VERTEX
  8
E15LXLIFT
 62
6
 10
-669.946
 20
-387.530
 30
3802.000
 70
    32
  0
VERTEX
  8
E15LXLIFT
 62
6
 10
-676.222
 20
-379.956
 30
3802.000
 70
    32
  0
VERTEX
  8
E15LXLIFT
 62
6
 10
-673.854
 20
-374.314
 30
3802.000
 70
    32
  0
VERTEX
  8
E15LXLIFT
 62
6
 10
-673.673
 20
-371.243
 30
3802.000
 70
    32
  0
VERTEX
  8
E15LXLIFT
 62
6
 10
-675.041
 20
-367.070
 30
3802.000
 70
    32
  0
VERTEX
  8
E15LXLIFT
 62
6
 10
-674.025
 20
-362.529
 30
3802.000
 70
    32
  0
VERTEX
  8
E15LXLIFT
 62
6
 10
-677.126
 20
-357.513
 30
3802.000
 70
    32
  0
VERTEX
  8
E15LXLIFT
 62
6
 10
-683.295
 20
-352.228
 30
3802.000
 70
    32
  0
VERTEX
  8
E15LXLIFT
 62
6
 10
-683.942
 20
-350.363
 30
3802.000
 70
    32
  0
VERTEX
  8
E15LXLIFT
 62
6
 10
-683.314
 20
-344.140
 30
3802.000
 70
    32
  0
VERTEX
  8
E15LXLIFT
 62
6
 10
-687.115
 20
-344.817
 30
3802.000
 70
    32
  0
VERTEX
  8
E15LXLIFT
 62
6
 10
-692.515
 20
-334.456
 30
3802.000
 70
    32
  0
VERTEX
  8
E15LXLIFT
 62
6
 10
-701.079
 20
-338.593
 30
3802.000
 70
    32
  0
VERTEX
  8
E15LXLIFT
 62
6
 10
-699.367
 20
-354.643
 30
3802.000
 70
    32
  0
VERTEX
  8
E15LXLIFT
 62
6
 10
-702.387
 20
-358.595
 30
3802.000
 70
    32
  0
VERTEX
  8
E15LXLIFT
 62
6
 10
-704.122
 20
-366.542
 30
3802.000
 70
    32
  0
VERTEX
  8
E15LXLIFT
 62
6
 10
-706.207
 20
-380.280
 30
3802.000
 70
    32
  0
VERTEX
  8
E15LXLIFT
 62
6
 10
-714.210
 20
-386.191
 30
3802.000
 70
    32
  0
VERTEX
  8
E15LXLIFT
 62
6
 10
-724.288
 20
-385.183
 30
3802.000
 70
    32
  0
VERTEX
  8
E15LXLIFT
 62
6
 10
-729.858
 20
-397.849
 30
3802.000
 70
    32
  0
VERTEX
  8
E15LXLIFT
 62
6
 10
-735.848
 20
-398.283
 30
3802.000
 70
    32
  0
VERTEX
  8
E15LXLIFT
 62
6
 10
-734.850
 20
-408.862
 30
3802.000
 70
    32
  0
VERTEX
  8
E15LXLIFT
 62
6
 10
-728.571
 20
-416.348
 30
3802.000
 70
    32
  0
VERTEX
  8
E15LXLIFT
 62
6
 10
-721.392
 20
-431.860
 30
3802.000
 70
    32
  0
VERTEX
  8
E15LXLIFT
 62
6
 10
-717.954
 20
-434.425
 30
3802.000
 70
    32
  0
VERTEX
  8
E15LXLIFT
 62
6
 10
-717.203
 20
-438.668
 30
3802.000
 70
    32
  0
VERTEX
  8
E15LXLIFT
 62
6
 10
-705.636
 20
-448.599
 30
3802.000
 70
    32
  0
VERTEX
  8
E15LXLIFT
 62
6
 10
-696.798
 20
-449.921
 30
3802.000
 70
    32
  0
VERTEX
  8
E15LXLIFT
 62
6
 10
-695.593
 20
-442.046
 30
3802.000
 70
    32
  0
VERTEX
  8
E15LXLIFT
 62
6
 10
-691.415
 20
-440.502
 30
3802.000
 70
    32
  0
VERTEX
  8
E15LXLIFT
 62
6
 10
-693.102
 20
-432.364
 30
3802.000
 70
    32
  0
VERTEX
  8
E15LXLIFT
 62
6
 10
-689.401
 20
-423.334
 30
3802.000
 70
    32
  0
VERTEX
  8
E15LXLIFT
 62
6
 10
-679.948
 20
-424.675
 30
3802.000
 70
    32
  0
VERTEX
  8
E15LXLIFT
 62
6
 10
-662.848
 20
-443.476
 30
3802.000
 70
    32
  0
VERTEX
  8
E15LXLIFT
 62
6
 10
-661.384
 20
-450.289
 30
3802.000
 70
    32
  0
VERTEX
  8
E15LXLIFT
 62
6
 10
-665.607
 20
-453.326
 30
3802.000
 70
    32
  0
VERTEX
  8
E15LXLIFT
 62
6
 10
-654.763
 20
-475.542
 30
3802.000
 70
    32
  0
VERTEX
  8
E15LXLIFT
 62
6
 10
-653.792
 20
-478.296
 30
3802.000
 70
    32
  0
VERTEX
  8
E15LXLIFT
 62
6
 10
-624.918
 20
-520.818
 30
3802.000
 70
    32
  0
VERTEX
  8
E15LXLIFT
 62
6
 10
-617.179
 20
-535.321
 30
3802.000
 70
    32
  0
VERTEX
  8
E15LXLIFT
 62
6
 10
-612.551
 20
-548.963
 30
3802.000
 70
    32
  0
VERTEX
  8
E15LXLIFT
 62
6
 10
-614.952
 20
-553.257
 30
3802.000
 70
    32
  0
VERTEX
  8
E15LXLIFT
 62
6
 10
-612.171
 20
-564.108
 30
3802.000
 70
    32
  0
VERTEX
  8
E15LXLIFT
 62
6
 10
-615.448
 20
-565.002
 30
3802.000
 70
    32
  0
VERTEX
  8
E15LXLIFT
 62
6
 10
-618.940
 20
-583.342
 30
3802.000
 70
    32
  0
VERTEX
  8
E15LXLIFT
 62
6
 10
-623.984
 20
-596.923
 30
3802.000
 70
    32
  0
VERTEX
  8
E15LXLIFT
 62
6
 10
-619.317
 20
-601.455
 30
3802.000
 70
    32
  0
VERTEX
  8
E15LXLIFT
 62
6
 10
-619.607
 20
-608.453
 30
3802.000
 70
    32
  0
VERTEX
  8
E15LXLIFT
 62
6
 10
-610.889
 20
-614.909
 30
3802.000
 70
    32
  0
SEQEND
  8
E15LXLIFT
  0
POLYLINE
  8
E15LXLIFT
 62
7
 66
     1
 70
     9
  0
VERTEX
  8
E15LXLIFT
 62
7
 10
-714.261
 20
-551.826
 30
3808.000
 70
    32
  0
VERTEX
  8
E15LXLIFT
 62
7
 10
-709.033
 20
-553.864
 30
3808.000
 70
    32
  0
VERTEX
  8
E15LXLIFT
 62
7
 10
-699.977
 20
-571.121
 30
3808.000
 70
    32
  0
VERTEX
  8
E15LXLIFT
 62
7
 10
-675.196
 20
-562.623
 30
3808.000
 70
    32
  0
VERTEX
  8
E15LXLIFT
 62
7
 10
-691.132
 20
-537.549
 30
3808.000
 70
    32
  0
VERTEX
  8
E15LXLIFT
 62
7
 10
-691.041
 20
-531.464
 30
3809.000
 70
    32
  0
VERTEX
  8
E15LXLIFT
 62
7
 10
-692.517
 20
-531.244
 30
3809.000
 70
    32
  0
VERTEX
  8
E15LXLIFT
 62
7
 10
-698.819
 20
-517.055
 30
3810.000
 70
    32
  0
VERTEX
  8
E15LXLIFT
 62
7
 10
-695.573
 20
-514.609
 30
3810.000
 70
    32
  0
VERTEX
  8
E15LXLIFT
 62
7
 10
-694.007
 20
-510.797
 30
3810.000
 70
    32
  0
VERTEX
  8
E15LXLIFT
 62
7
 10
-701.012
 20
-499.967
 30
3810.000
 70
    32
  0
VERTEX
  8
E15LXLIFT
 62
7
 10
-701.121
 20
-500.000
 30
3811.000
 70
    32
  0
VERTEX
  8
E15LXLIFT
 62
7
 10
-704.013
 20
-494.537
 30
3809.000
 70
    32
  0
VERTEX
  8
E15LXLIFT
 62
7
 10
-705.582
 20
-491.572
 30
3808.000
 70
    32
  0
VERTEX
  8
E15LXLIFT
 62
7
 10
-710.952
 20
-489.639
 30
3809.000
 70
    32
  0
VERTEX
  8
E15LXLIFT
 62
7
 10
-705.067
 20
-456.945
 30
3814.500
 70
    32
  0
VERTEX
  8
E15LXLIFT
 62
7
 10
-708.622
 20
-454.654
 30
3814.500
 70
    32
  0
VERTEX
  8
E15LXLIFT
 62
7
 10
-708.799
 20
-449.095
 30
3814.500
 70
    32
  0
VERTEX
  8
E15LXLIFT
 62
7
 10
-719.490
 20
-448.694
 30
3814.000
 70
    32
  0
VERTEX
  8
E15LXLIFT
 62
7
 10
-731.077
 20
-453.880
 30
3814.500
 70
    32
  0
VERTEX
  8
E15LXLIFT
 62
7
 10
-733.103
 20
-462.820
 30
3814.000
 70
    32
  0
VERTEX
  8
E15LXLIFT
 62
7
 10
-745.642
 20
-473.962
 30
3813.000
 70
    32
  0
VERTEX
  8
E15LXLIFT
 62
7
 10
-735.460
 20
-493.777
 30
3809.000
 70
    32
  0
VERTEX
  8
E15LXLIFT
 62
7
 10
-733.791
 20
-505.343
 30
3811.000
 70
    32
  0
VERTEX
  8
E15LXLIFT
 62
7
 10
-727.395
 20
-514.722
 30
3811.000
 70
    32
  0
VERTEX
  8
E15LXLIFT
 62
7
 10
-726.183
 20
-528.923
 30
3809.000
 70
    32
  0
VERTEX
  8
E15LXLIFT
 62
7
 10
-728.063
 20
-539.833
 30
3809.000
 70
    32
  0
VERTEX
  8
E15LXLIFT
 62
7
 10
-728.562
 20
-541.998
 30
3809.000
 70
    32
  0
SEQEND
  8
E15LXLIFT
  0
POLYLINE
  8
E15LXLIFT
 62
1
 66
     1
 70
     8
  0
VERTEX
  8
E15LXLIFT
 62
1
 10
-803.587
 20
-80.921
 30
3768.000
 70
    32
  0
VERTEX
  8
E15LXLIFT
 62
1
 10
-802.113
 20
-82.318
 30
3768.000
 70
    32
  0
VERTEX
  8
E15LXLIFT
 62
1
 10
-790.993
 20
-105.323
 30
3768.000
 70
    32
  0
VERTEX
  8
E15LXLIFT
 62
1
 10
-790.060
 20
-109.544
 30
3768.000
 70
    32
  0
VERTEX
  8
E15LXLIFT
 62
1
 10
-802.242
 20
-117.492
 30
3768.000
 70
    32
  0
VERTEX
  8
E15LXLIFT
 62
1
 10
-798.636
 20
-129.508
 30
3768.000
 70
    32
  0
VERTEX
  8
E15LXLIFT
 62
1
 10
-791.290
 20
-143.488
 30
3768.000
 70
    32
  0
VERTEX
  8
E15LXLIFT
 62
1
 10
-783.000
 20
-152.418
 30
3768.000
 70
    32
  0
VERTEX
  8
E15LXLIFT
 62
1
 10
-772.185
 20
-147.828
 30
3768.000
 70
    32
  0
VERTEX
  8
E15LXLIFT
 62
1
 10
-758.976
 20
-145.750
 30
3768.000
 70
    32
  0
VERTEX
  8
E15LXLIFT
 62
1
 10
-749.132
 20
-146.915
 30
3768.000
 70
    32
  0
VERTEX
  8
E15LXLIFT
 62
1
 10
-726.348
 20
-147.462
 30
3768.000
 70
    32
  0
VERTEX
  8
E15LXLIFT
 62
1
 10
-720.513
 20
-137.694
 30
3768.000
 70
    32
  0
VERTEX
  8
E15LXLIFT
 62
1
 10
-724.135
 20
-119.458
 30
3768.000
 70
    32
  0
VERTEX
  8
E15LXLIFT
 62
1
 10
-741.838
 20
-116.453
 30
3768.000
 70
    32
  0
VERTEX
  8
E15LXLIFT
 62
1
 10
-765.443
 20
-109.548
 30
3768.000
 70
    32
  0
VERTEX
  8
E15LXLIFT
 62
1
 10
-777.721
 20
-93.858
 30
3768.000
 70
    32
  0
VERTEX
  8
E15LXLIFT
 62
1
 10
-782.428
 20
-91.468
 30
3768.000
 70
    32
  0
VERTEX
  8
E15LXLIFT
 62
1
 10
-787.640
 20
-88.194
 30
3768.000
 70
    32
  0
VERTEX
  8
E15LXLIFT
 62
1
 10
-793.900
 20
-76.831
 30
3768.000
 70
    32
  0
VERTEX
  8
E15LXLIFT
 62
1
 10
-796.575
 20
-74.292
 30
3768.000
 70
    32
  0
SEQEND
  8
E15LXLIFT
  0
POLYLINE
  8
E15LXLIFT
 62
6
 66
     1
 70
     8
  0
VERTEX
  8
E15LXLIFT
 62
6
 10
-796.575
 20
-74.292
 30
3758.000
 70
    32
  0
VERTEX
  8
E15LXLIFT
 62
6
 10
-786.533
 20
-83.149
 30
3758.000
 70
    32
  0
VERTEX
  8
E15LXLIFT
 62
6
 10
-779.756
 20
-94.294
 30
3758.000
 70
    32
  0
VERTEX
  8
E15LXLIFT
 62
6
 10
-768.427
 20
-118.583
 30
3758.000
 70
    32
  0
VERTEX
  8
E15LXLIFT
 62
6
 10
-750.487
 20
-128.615
 30
3758.000
 70
    32
  0
VERTEX
  8
E15LXLIFT
 62
6
 10
-737.436
 20
-133.206
 30
3758.000
 70
    32
  0
VERTEX
  8
E15LXLIFT
 62
6
 10
-723.199
 20
-126.390
 30
3758.000
 70
    32
  0
VERTEX
  8
E15LXLIFT
 62
6
 10
-719.613
 20
-135.724
 30
3758.000
 70
    32
  0
VERTEX
  8
E15LXLIFT
 62
6
 10
-719.354
 20
-152.809
 30
3758.000
 70
    32
  0
VERTEX
  8
E15LXLIFT
 62
6
 10
-732.136
 20
-156.957
 30
3758.000
 70
    32
  0
VERTEX
  8
E15LXLIFT
 62
6
 10
-740.014
 20
-164.329
 30
3758.000
 70
    32
  0
VERTEX
  8
E15LXLIFT
 62
6
 10
-749.123
 20
-161.875
 30
3758.000
 70
    32
  0
VERTEX
  8
E15LXLIFT
 62
6
 10
-758.676
 20
-161.054
 30
3758.000
 70
    32
  0
VERTEX
  8
E15LXLIFT
 62
6
 10
-768.886
 20
-164.008
 30
3758.000
 70
    32
  0
VERTEX
  8
E15LXLIFT
 62
6
 10
-780.860
 20
-163.649
 30
3758.000
 70
    32
  0
VERTEX
  8
E15LXLIFT
 62
6
 10
-786.370
 20
-148.136
 30
3758.000
 70
    32
  0
VERTEX
  8
E15LXLIFT
 62
6
 10
-788.218
 20
-141.025
 30
3758.000
 70
    32
  0
VERTEX
  8
E15LXLIFT
 62
6
 10
-796.934
 20
-141.060
 30
3758.000
 70
    32
  0
VERTEX
  8
E15LXLIFT
 62
6
 10
-798.853
 20
-129.995
 30
3758.000
 70
    32
  0
VERTEX
  8
E15LXLIFT
 62
6
 10
-789.682
 20
-119.795
 30
3758.000
 70
    32
  0
VERTEX
  8
E15LXLIFT
 62
6
 10
-790.673
 20
-111.316
 30
3758.000
 70
    32
  0
VERTEX
  8
E15LXLIFT
 62
6
 10
-793.811
 20
-100.961
 30
3758.000
 70
    32
  0
VERTEX
  8
E15LXLIFT
 62
6
 10
-798.791
 20
-86.569
 30
3758.000
 70
    32
  0
VERTEX
  8
E15LXLIFT
 62
6
 10
-803.587
 20
-80.921
 30
3758.000
 70
    32
  0
SEQEND
  8
E15LXLIFT
  0
POLYLINE
  8
E15LXLIFT
 62
3
 66
     1
 70
     9
  0
VERTEX
  8
E15LXLIFT
 62
3
 10
55.618
 20
-1584.450
 30
3534.210
 70
    32
  0
VERTEX
  8
E15LXLIFT
 62
3
 10
36.160
 20
-1583.922
 30
3534.210
 70
    32
  0
VERTEX
  8
E15LXLIFT
 62
3
 10
26.169
 20
-1590.248
 30
3534.210
 70
    32
  0
VERTEX
  8
E15LXLIFT
 62
3
 10
38.790
 20
-1610.804
 30
3534.210
 70
    32
  0
VERTEX
  8
E15LXLIFT
 62
3
 10
37.738
 20
-1622.400
 30
3534.210
 70
    32
  0
VERTEX
  8
E15LXLIFT
 62
3
 10
48.781
 20
-1643.483
 30
3534.210
 70
    32
  0
VERTEX
  8
E15LXLIFT
 62
3
 10
50.885
 20
-1652.443
 30
3534.210
 70
    32
  0
VERTEX
  8
E15LXLIFT
 62
3
 10
67.713
 20
-1654.025
 30
3534.210
 70
    32
  0
VERTEX
  8
E15LXLIFT
 62
3
 10
71.920
 20
-1624.508
 30
3534.210
 70
    32
  0
VERTEX
  8
E15LXLIFT
 62
3
 10
67.187
 20
-1605.006
 30
3534.210
 70
    32
  0
SEQEND
  8
E15LXLIFT
  0
POLYLINE
  8
E15LXLIFT
 62
2
 66
     1
 70
     8
  0
VERTEX
  8
E15LXLIFT
 62
2
 10
-172.817
 20
-1274.121
 30
3744.979
 70
    32
  0
VERTEX
  8
E15LXLIFT
 62
2
 10
-177.513
 20
-1261.635
 30
3746.521
 70
    32
  0
VERTEX
  8
E15LXLIFT
 62
2
 10
-182.550
 20
-1242.502
 30
3749.100
 70
    32
  0
VERTEX
  8
E15LXLIFT
 62
2
 10
-177.273
 20
-1221.687
 30
3750.970
 70
    32
  0
VERTEX
  8
E15LXLIFT
 62
2
 10
-181.916
 20
-1194.263
 30
3752.206
 70
    32
  0
VERTEX
  8
E15LXLIFT
 62
2
 10
-191.814
 20
-1183.117
 30
3752.202
 70
    32
  0
VERTEX
  8
E15LXLIFT
 62
2
 10
-195.178
 20
-1183.068
 30
3752.202
 70
    32
  0
VERTEX
  8
E15LXLIFT
 62
2
 10
-201.494
 20
-1176.202
 30
3752.200
 70
    32
  0
VERTEX
  8
E15LXLIFT
 62
2
 10
-209.427
 20
-1183.615
 30
3752.200
 70
    32
  0
VERTEX
  8
E15LXLIFT
 62
2
 10
-189.510
 20
-1207.612
 30
3751.913
 70
    32
  0
VERTEX
  8
E15LXLIFT
 62
2
 10
-191.855
 20
-1220.386
 30
3750.954
 70
    32
  0
VERTEX
  8
E15LXLIFT
 62
2
 10
-197.669
 20
-1225.250
 30
3750.650
 70
    32
  0
VERTEX
  8
E15LXLIFT
 62
2
 10
-192.810
 20
-1241.609
 30
3749.518
 70
    32
  0
VERTEX
  8
E15LXLIFT
 62
2
 10
-187.062
 20
-1265.163
 30
3746.378
 70
    32
  0
VERTEX
  8
E15LXLIFT
 62
2
 10
-183.011
 20
-1275.857
 30
3744.424
 70
    32
  0
VERTEX
  8
E15LXLIFT
 62
2
 10
-183.386
 20
-1278.125
 30
3744.202
 70
    32
  0
SEQEND
  8
E15LXLIFT
  0
POLYLINE
  8
E15LXLIFT
 62
1
 66
     1
 70
     9
  0
VERTEX
  8
E15LXLIFT
 62
1
 10
-736.060
 20
-396.195
 30
3838.000
 70
    32
  0
VERTEX
  8
E15LXLIFT
 62
1
 10
-737.212
 20
-376.851
 30
3838.000
 70
    32
  0
VERTEX
  8
E15LXLIFT
 62
1
 10
-737.057
 20
-372.140
 30
3838.000
 70
    32
  0
VERTEX
  8
E15LXLIFT
 62
1
 10
-733.365
 20
-365.951
 30
3838.000
 70
    32
  0
VERTEX
  8
E15LXLIFT
 62
1
 10
-732.170
 20
-349.877
 30
3838.000
 70
    32
  0
VERTEX
  8
E15LXLIFT
 62
1
 10
-730.871
 20
-348.238
 30
3838.000
 70
    32
  0
VERTEX
  8
E15LXLIFT
 62
1
 10
-721.996
 20
-344.344
 30
3838.000
 70
    32
  0
VERTEX
  8
E15LXLIFT
 62
1
 10
-718.278
 20
-348.046
 30
3838.000
 70
    32
  0
VERTEX
  8
E15LXLIFT
 62
1
 10
-717.582
 20
-358.871
 30
3838.000
 70
    32
  0
VERTEX
  8
E15LXLIFT
 62
1
 10
-712.702
 20
-373.062
 30
3838.000
 70
    32
  0
VERTEX
  8
E15LXLIFT
 62
1
 10
-711.719
 20
-378.372
 30
3838.000
 70
    32
  0
VERTEX
  8
E15LXLIFT
 62
1
 10
-706.829
 20
-383.709
 30
3838.000
 70
    32
  0
VERTEX
  8
E15LXLIFT
 62
1
 10
-704.601
 20
-392.726
 30
3838.000
 70
    32
  0
VERTEX
  8
E15LXLIFT
 62
1
 10
-705.324
 20
-397.138
 30
3838.000
 70
    32
  0
VERTEX
  8
E15LXLIFT
 62
1
 10
-707.843
 20
-404.961
 30
3838.000
 70
    32
  0
VERTEX
  8
E15LXLIFT
 62
1
 10
-709.468
 20
-422.406
 30
3838.000
 70
    32
  0
VERTEX
  8
E15LXLIFT
 62
1
 10
-715.794
 20
-430.838
 30
3838.000
 70
    32
  0
VERTEX
  8
E15LXLIFT
 62
1
 10
-722.227
 20
-436.163
 30
3838.000
 70
    32
  0
VERTEX
  8
E15LXLIFT
 62
1
 10
-723.651
 20
-441.078
 30
3838.000
 70
    32
  0
VERTEX
  8
E15LXLIFT
 62
1
 10
-723.307
 20
-457.817
 30
3838.000
 70
    32
  0
VERTEX
  8
E15LXLIFT
 62
1
 10
-724.905
 20
-460.025
 30
3838.000
 70
    32
  0
VERTEX
  8
E15LXLIFT
 62
1
 10
-725.695
 20
-464.838
 30
3838.000
 70
    32
  0
VERTEX
  8
E15LXLIFT
 62
1
 10
-731.823
 20
-472.067
 30
3838.000
 70
    32
  0
VERTEX
  8
E15LXLIFT
 62
1
 10
-736.665
 20
-472.711
 30
3838.000
 70
    32
  0
VERTEX
  8
E15LXLIFT
 62
1
 10
-740.718
 20
-468.543
 30
3838.000
 70
    32
  0
VERTEX
  8
E15LXLIFT
 62
1
 10
-744.987
 20
-458.159
 30
3838.000
 70
    32
  0
VERTEX
  8
E15LXLIFT
 62
1
 10
-745.263
 20
-454.819
 30
3838.000
 70
    32
  0
VERTEX
  8
E15LXLIFT
 62
1
 10
-745.055
 20
-444.761
 30
3838.000
 70
    32
  0
VERTEX
  8
E15LXLIFT
 62
1
 10
-742.476
 20
-434.064
 30
3838.000
 70
    32
  0
VERTEX
  8
E15LXLIFT
 62
1
 10
-740.743
 20
-419.727
 30
3838.000
 70
    32
  0
VERTEX
  8
E15LXLIFT
 62
1
 10
-738.619
 20
-414.310
 30
3838.000
 70
    32
  0
VERTEX
  8
E15LXLIFT
 62
1
 10
-739.637
 20
-407.963
 30
3838.000
 70
    32
  0
SEQEND
  8
E15LXLIFT
  0
POLYLINE
  8
E15LXLIFT
 62
1
 66
     1
 70
     8
  0
VERTEX
  8
E15LXLIFT
 62
1
 10
-732.464
 20
-389.334
 30
3832.000
 70
    32
  0
VERTEX
  8
E15LXLIFT
 62
1
 10
-730.634
 20
-375.669
 30
3832.000
 70
    32
  0
VERTEX
  8
E15LXLIFT
 62
1
 10
-727.733
 20
-360.494
 30
3832.000
 70
    32
  0
VERTEX
  8
E15LXLIFT
 62
1
 10
-727.387
 20
-352.107
 30
3832.000
 70
    32
  0
VERTEX
  8
E15LXLIFT
 62
1
 10
-725.592
 20
-348.695
 30
3832.000
 70
    32
  0
VERTEX
  8
E15LXLIFT
 62
1
 10
-713.896
 20
-350.209
 30
3832.000
 70
    32
  0
VERTEX
  8
E15LXLIFT
 62
1
 10
-712.123
 20
-364.507
 30
3832.000
 70
    32
  0
VERTEX
  8
E15LXLIFT
 62
1
 10
-708.734
 20
-370.214
 30
3832.000
 70
    32
  0
VERTEX
  8
E15LXLIFT
 62
1
 10
-707.686
 20
-375.123
 30
3832.000
 70
    32
  0
VERTEX
  8
E15LXLIFT
 62
1
 10
-702.339
 20
-388.979
 30
3832.000
 70
    32
  0
VERTEX
  8
E15LXLIFT
 62
1
 10
-705.432
 20
-394.031
 30
3832.000
 70
    32
  0
VERTEX
  8
E15LXLIFT
 62
1
 10
-703.552
 20
-397.636
 30
3832.000
 70
    32
  0
VERTEX
  8
E15LXLIFT
 62
1
 10
-703.145
 20
-400.174
 30
3832.000
 70
    32
  0
VERTEX
  8
E15LXLIFT
 62
1
 10
-705.545
 20
-402.250
 30
3832.000
 70
    32
  0
VERTEX
  8
E15LXLIFT
 62
1
 10
-705.184
 20
-412.608
 30
3832.000
 70
    32
  0
VERTEX
  8
E15LXLIFT
 62
1
 10
-703.094
 20
-419.955
 30
3832.000
 70
    32
  0
VERTEX
  8
E15LXLIFT
 62
1
 10
-706.625
 20
-423.904
 30
3832.000
 70
    32
  0
VERTEX
  8
E15LXLIFT
 62
1
 10
-708.683
 20
-428.920
 30
3832.000
 70
    32
  0
VERTEX
  8
E15LXLIFT
 62
1
 10
-714.943
 20
-436.951
 30
3832.000
 70
    32
  0
VERTEX
  8
E15LXLIFT
 62
1
 10
-717.241
 20
-439.662
 30
3832.000
 70
    32
  0
VERTEX
  8
E15LXLIFT
 62
1
 10
-718.096
 20
-444.876
 30
3832.000
 70
    32
  0
VERTEX
  8
E15LXLIFT
 62
1
 10
-719.034
 20
-456.873
 30
3832.000
 70
    32
  0
VERTEX
  8
E15LXLIFT
 62
1
 10
-720.793
 20
-461.320
 30
3832.000
 70
    32
  0
VERTEX
  8
E15LXLIFT
 62
1
 10
-726.208
 20
-472.992
 30
3832.000
 70
    32
  0
VERTEX
  8
E15LXLIFT
 62
1
 10
-729.745
 20
-474.469
 30
3832.000
 70
    32
  0
VERTEX
  8
E15LXLIFT
 62
1
 10
-736.366
 20
-472.143
 30
3832.000
 70
    32
  0
VERTEX
  8
E15LXLIFT
 62
1
 10
-738.120
 20
-465.263
 30
3832.000
 70
    32
  0
VERTEX
  8
E15LXLIFT
 62
1
 10
-741.808
 20
-460.125
 30
3832.000
 70
    32
  0
VERTEX
  8
E15LXLIFT
 62
1
 10
-737.844
 20
-429.678
 30
3832.000
 70
    32
  0
VERTEX
  8
E15LXLIFT
 62
1
 10
-736.414
 20
-427.236
 30
3832.000
 70
    32
  0
VERTEX
  8
E15LXLIFT
 62
1
 10
-737.331
 20
-421.524
 30
3832.000
 70
    32
  0
VERTEX
  8
E15LXLIFT
 62
1
 10
-735.548
 20
-413.168
 30
3832.000
 70
    32
  0
VERTEX
  8
E15LXLIFT
 62
1
 10
-733.479
 20
-399.297
 30
3832.000
 70
    32
  0
VERTEX
  8
E15LXLIFT
 62
1
 10
-730.984
 20
-395.383
 30
3832.000
 70
    32
  0
VERTEX
  8
E15LXLIFT
 62
1
 10
-732.471
 20
-389.347
 30
3832.000
 70
    32
  0
SEQEND
  8
E15LXLIFT
  0
POLYLINE
  8
E15LXLIFT
 62
1
 66
     1
 70
     9
  0
VERTEX
  8
E15LXLIFT
 62
1
 10
-724.588
 20
-399.885
 30
3820.000
 70
    32
  0
VERTEX
  8
E15LXLIFT
 62
1
 10
-725.031
 20
-384.675
 30
3820.000
 70
    32
  0
VERTEX
  8
E15LXLIFT
 62
1
 10
-720.398
 20
-361.940
 30
3820.000
 70
    32
  0
VERTEX
  8
E15LXLIFT
 62
1
 10
-712.966
 20
-359.324
 30
3820.000
 70
    32
  0
VERTEX
  8
E15LXLIFT
 62
1
 10
-711.155
 20
-351.036
 30
3820.000
 70
    32
  0
VERTEX
  8
E15LXLIFT
 62
1
 10
-704.123
 20
-349.483
 30
3820.000
 70
    32
  0
VERTEX
  8
E15LXLIFT
 62
1
 10
-699.132
 20
-352.113
 30
3820.000
 70
    32
  0
VERTEX
  8
E15LXLIFT
 62
1
 10
-695.001
 20
-362.734
 30
3820.000
 70
    32
  0
VERTEX
  8
E15LXLIFT
 62
1
 10
-697.743
 20
-379.454
 30
3820.000
 70
    32
  0
VERTEX
  8
E15LXLIFT
 62
1
 10
-698.241
 20
-385.246
 30
3820.000
 70
    32
  0
VERTEX
  8
E15LXLIFT
 62
1
 10
-694.701
 20
-393.963
 30
3820.000
 70
    32
  0
VERTEX
  8
E15LXLIFT
 62
1
 10
-695.960
 20
-403.019
 30
3820.000
 70
    32
  0
VERTEX
  8
E15LXLIFT
 62
1
 10
-691.959
 20
-419.945
 30
3820.000
 70
    32
  0
VERTEX
  8
E15LXLIFT
 62
1
 10
-700.178
 20
-430.114
 30
3820.000
 70
    32
  0
VERTEX
  8
E15LXLIFT
 62
1
 10
-705.750
 20
-443.431
 30
3820.000
 70
    32
  0
VERTEX
  8
E15LXLIFT
 62
1
 10
-709.109
 20
-462.534
 30
3820.000
 70
    32
  0
VERTEX
  8
E15LXLIFT
 62
1
 10
-715.457
 20
-473.689
 30
3820.000
 70
    32
  0
VERTEX
  8
E15LXLIFT
 62
1
 10
-714.852
 20
-481.019
 30
3820.000
 70
    32
  0
VERTEX
  8
E15LXLIFT
 62
1
 10
-722.696
 20
-494.412
 30
3820.000
 70
    32
  0
VERTEX
  8
E15LXLIFT
 62
1
 10
-725.415
 20
-491.705
 30
3820.000
 70
    32
  0
VERTEX
  8
E15LXLIFT
 62
1
 10
-728.923
 20
-481.412
 30
3820.000
 70
    32
  0
VERTEX
  8
E15LXLIFT
 62
1
 10
-738.420
 20
-464.936
 30
3820.000
 70
    32
  0
VERTEX
  8
E15LXLIFT
 62
1
 10
-732.766
 20
-426.329
 30
3820.000
 70
    32
  0
VERTEX
  8
E15LXLIFT
 62
1
 10
-724.935
 20
-407.510
 30
3820.000
 70
    32
  0
SEQEND
  8
E15LXLIFT
  0
POLYLINE
  8
E15LXLIFT
 62
1
 66
     1
 70
     8
  0
VERTEX
  8
E15LXLIFT
 62
1
 10
-727.618
 20
-395.491
 30
3828.000
 70
    32
  0
VERTEX
  8
E15LXLIFT
 62
1
 10
-729.800
 20
-388.164
 30
3828.000
 70
    32
  0
VERTEX
  8
E15LXLIFT
 62
1
 10
-726.655
 20
-363.967
 30
3828.000
 70
    32
  0
VERTEX
  8
E15LXLIFT
 62
1
 10
-725.268
 20
-358.017
 30
3828.000
 70
    32
  0
VERTEX
  8
E15LXLIFT
 62
1
 10
-723.880
 20
-352.066
 30
3828.000
 70
    32
  0
VERTEX
  8
E15LXLIFT
 62
1
 10
-720.882
 20
-348.853
 30
3828.000
 70
    32
  0
VERTEX
  8
E15LXLIFT
 62
1
 10
-708.851
 20
-350.835
 30
3828.000
 70
    32
  0
VERTEX
  8
E15LXLIFT
 62
1
 10
-704.274
 20
-376.921
 30
3828.000
 70
    32
  0
VERTEX
  8
E15LXLIFT
 62
1
 10
-702.933
 20
-378.790
 30
3828.000
 70
    32
  0
VERTEX
  8
E15LXLIFT
 62
1
 10
-701.704
 20
-388.878
 30
3828.000
 70
    32
  0
VERTEX
  8
E15LXLIFT
 62
1
 10
-702.468
 20
-403.581
 30
3828.000
 70
    32
  0
VERTEX
  8
E15LXLIFT
 62
1
 10
-702.035
 20
-416.010
 30
3828.000
 70
    32
  0
VERTEX
  8
E15LXLIFT
 62
1
 10
-700.185
 20
-421.052
 30
3828.000
 70
    32
  0
VERTEX
  8
E15LXLIFT
 62
1
 10
-714.164
 20
-440.993
 30
3828.000
 70
    32
  0
VERTEX
  8
E15LXLIFT
 62
1
 10
-713.774
 20
-449.913
 30
3828.000
 70
    32
  0
VERTEX
  8
E15LXLIFT
 62
1
 10
-716.723
 20
-459.107
 30
3828.000
 70
    32
  0
VERTEX
  8
E15LXLIFT
 62
1
 10
-720.882
 20
-465.631
 30
3828.000
 70
    32
  0
VERTEX
  8
E15LXLIFT
 62
1
 10
-722.737
 20
-471.916
 30
3828.000
 70
    32
  0
VERTEX
  8
E15LXLIFT
 62
1
 10
-726.800
 20
-476.602
 30
3828.000
 70
    32
  0
VERTEX
  8
E15LXLIFT
 62
1
 10
-732.714
 20
-476.245
 30
3828.000
 70
    32
  0
VERTEX
  8
E15LXLIFT
 62
1
 10
-739.767
 20
-461.491
 30
3828.000
 70
    32
  0
VERTEX
  8
E15LXLIFT
 62
1
 10
-740.450
 20
-455.611
 30
3828.000
 70
    32
  0
VERTEX
  8
E15LXLIFT
 62
1
 10
-737.388
 20
-438.197
 30
3828.000
 70
    32
  0
VERTEX
  8
E15LXLIFT
 62
1
 10
-735.487
 20
-424.093
 30
3828.000
 70
    32
  0
VERTEX
  8
E15LXLIFT
 62
1
 10
-729.936
 20
-400.293
 30
3828.000
 70
    32
  0
VERTEX
  8
E15LXLIFT
 62
1
 10
-727.590
 20
-395.563
 30
3828.000
 70
    32
  0
SEQEND
  8
E15LXLIFT
  0
POLYLINE
  8
E15LXLIFT
 62
1
 66
     1
 70
     9
  0
VERTEX
  8
E15LXLIFT
 62
1
 10
-724.244
 20
-505.228
 30
3816.000
 70
    32
  0
VERTEX
  8
E15LXLIFT
 62
1
 10
-717.101
 20
-504.371
 30
3816.000
 70
    32
  0
VERTEX
  8
E15LXLIFT
 62
1
 10
-714.005
 20
-482.740
 30
3816.000
 70
    32
  0
VERTEX
  8
E15LXLIFT
 62
1
 10
-708.039
 20
-465.647
 30
3816.000
 70
    32
  0
VERTEX
  8
E15LXLIFT
 62
1
 10
-698.083
 20
-432.493
 30
3816.000
 70
    32
  0
VERTEX
  8
E15LXLIFT
 62
1
 10
-689.070
 20
-417.484
 30
3816.000
 70
    32
  0
VERTEX
  8
E15LXLIFT
 62
1
 10
-687.429
 20
-414.365
 30
3816.000
 70
    32
  0
VERTEX
  8
E15LXLIFT
 62
1
 10
-693.013
 20
-394.693
 30
3816.000
 70
    32
  0
VERTEX
  8
E15LXLIFT
 62
1
 10
-695.075
 20
-390.738
 30
3816.000
 70
    32
  0
VERTEX
  8
E15LXLIFT
 62
1
 10
-694.035
 20
-367.864
 30
3816.000
 70
    32
  0
VERTEX
  8
E15LXLIFT
 62
1
 10
-691.213
 20
-353.417
 30
3816.000
 70
    32
  0
VERTEX
  8
E15LXLIFT
 62
1
 10
-705.003
 20
-349.338
 30
3816.000
 70
    32
  0
VERTEX
  8
E15LXLIFT
 62
1
 10
-718.480
 20
-366.775
 30
3816.000
 70
    32
  0
VERTEX
  8
E15LXLIFT
 62
1
 10
-723.015
 20
-384.781
 30
3816.000
 70
    32
  0
VERTEX
  8
E15LXLIFT
 62
1
 10
-724.561
 20
-410.735
 30
3816.000
 70
    32
  0
VERTEX
  8
E15LXLIFT
 62
1
 10
-733.401
 20
-435.713
 30
3816.000
 70
    32
  0
VERTEX
  8
E15LXLIFT
 62
1
 10
-737.133
 20
-466.730
 30
3816.000
 70
    32
  0
SEQEND
  8
E15LXLIFT
  0
POLYLINE
  8
E15LXLIFT
 62
3
 66
     1
 70
     9
  0
VERTEX
  8
E15LXLIFT
 62
3
 10
-2655.812
 20
972.242
 30
3724.000
 70
    32
  0
VERTEX
  8
E15LXLIFT
 62
3
 10
-2650.751
 20
976.185
 30
3724.000
 70
    32
  0
VERTEX
  8
E15LXLIFT
 62
3
 10
-2639.897
 20
972.935
 30
3724.000
 70
    32
  0
VERTEX
  8
E15LXLIFT
 62
3
 10
-2630.053
 20
969.286
 30
3724.000
 70
    32
  0
VERTEX
  8
E15LXLIFT
 62
3
 10
-2626.388
 20
969.748
 30
3724.000
 70
    32
  0
VERTEX
  8
E15LXLIFT
 62
3
 10
-2613.451
 20
964.641
 30
3724.000
 70
    32
  0
VERTEX
  8
E15LXLIFT
 62
3
 10
-2601.943
 20
960.778
 30
3724.000
 70
    32
  0
VERTEX
  8
E15LXLIFT
 62
3
 10
-2598.128
 20
965.558
 30
3724.000
 70
    32
  0
VERTEX
  8
E15LXLIFT
 62
3
 10
-2586.193
 20
964.269
 30
3724.000
 70
    32
  0
VERTEX
  8
E15LXLIFT
 62
3
 10
-2575.464
 20
965.572
 30
3724.000
 70
    32
  0
VERTEX
  8
E15LXLIFT
 62
3
 10
-2568.201
 20
975.193
 30
3724.000
 70
    32
  0
VERTEX
  8
E15LXLIFT
 62
3
 10
-2561.109
 20
980.373
 30
3724.000
 70
    32
  0
VERTEX
  8
E15LXLIFT
 62
3
 10
-2557.121
 20
986.572
 30
3724.000
 70
    32
  0
VERTEX
  8
E15LXLIFT
 62
3
 10
-2551.816
 20
992.741
 30
3724.000
 70
    32
  0
VERTEX
  8
E15LXLIFT
 62
3
 10
-2543.182
 20
997.728
 30
3724.000
 70
    32
  0
VERTEX
  8
E15LXLIFT
 62
3
 10
-2536.408
 20
1005.920
 30
3724.000
 70
    32
  0
VERTEX
  8
E15LXLIFT
 62
3
 10
-2537.424
 20
1014.587
 30
3724.000
 70
    32
  0
VERTEX
  8
E15LXLIFT
 62
3
 10
-2544.059
 20
1013.296
 30
3724.000
 70
    32
  0
VERTEX
  8
E15LXLIFT
 62
3
 10
-2553.039
 20
1006.982
 30
3724.000
 70
    32
  0
VERTEX
  8
E15LXLIFT
 62
3
 10
-2560.317
 20
1005.232
 30
3724.000
 70
    32
  0
VERTEX
  8
E15LXLIFT
 62
3
 10
-2565.783
 20
1012.875
 30
3724.000
 70
    32
  0
VERTEX
  8
E15LXLIFT
 62
3
 10
-2573.077
 20
1019.752
 30
3724.000
 70
    32
  0
VERTEX
  8
E15LXLIFT
 62
3
 10
-2578.113
 20
1025.435
 30
3724.000
 70
    32
  0
VERTEX
  8
E15LXLIFT
 62
3
 10
-2587.649
 20
1026.389
 30
3724.000
 70
    32
  0
VERTEX
  8
E15LXLIFT
 62
3
 10
-2592.453
 20
1019.822
 30
3724.000
 70
    32
  0
VERTEX
  8
E15LXLIFT
 62
3
 10
-2595.826
 20
1009.744
 30
3724.000
 70
    32
  0
VERTEX
  8
E15LXLIFT
 62
3
 10
-2595.800
 20
999.290
 30
3724.000
 70
    32
  0
VERTEX
  8
E15LXLIFT
 62
3
 10
-2599.949
 20
989.844
 30
3724.000
 70
    32
  0
VERTEX
  8
E15LXLIFT
 62
3
 10
-2608.665
 20
985.123
 30
3724.000
 70
    32
  0
VERTEX
  8
E15LXLIFT
 62
3
 10
-2618.381
 20
981.197
 30
3724.000
 70
    32
  0
VERTEX
  8
E15LXLIFT
 62
3
 10
-2628.397
 20
983.426
 30
3724.000
 70
    32
  0
VERTEX
  8
E15LXLIFT
 62
3
 10
-2639.692
 20
989.708
 30
3724.000
 70
    32
  0
VERTEX
  8
E15LXLIFT
 62
3
 10
-2650.017
 20
996.144
 30
3724.000
 70
    32
  0
VERTEX
  8
E15LXLIFT
 62
3
 10
-2658.577
 20
1004.490
 30
3724.000
 70
    32
  0
VERTEX
  8
E15LXLIFT
 62
3
 10
-2663.390
 20
1011.521
 30
3724.000
 70
    32
  0
VERTEX
  8
E15LXLIFT
 62
3
 10
-2664.375
 20
1020.749
 30
3724.000
 70
    32
  0
VERTEX
  8
E15LXLIFT
 62
3
 10
-2671.217
 20
1023.522
 30
3724.000
 70
    32
  0
VERTEX
  8
E15LXLIFT
 62
3
 10
-2674.714
 20
1015.731
 30
3724.000
 70
    32
  0
VERTEX
  8
E15LXLIFT
 62
3
 10
-2674.820
 20
1005.613
 30
3724.000
 70
    32
  0
VERTEX
  8
E15LXLIFT
 62
3
 10
-2681.156
 20
999.678
 30
3724.000
 70
    32
  0
VERTEX
  8
E15LXLIFT
 62
3
 10
-2673.510
 20
982.042
 30
3724.000
 70
    32
  0
VERTEX
  8
E15LXLIFT
 62
3
 10
-2667.539
 20
967.202
 30
3724.000
 70
    32
  0
SEQEND
  8
E15LXLIFT
  0
POLYLINE
  8
E15LXLIFT
 62
3
 66
     1
 70
     9
  0
VERTEX
  8
E15LXLIFT
 62
3
 10
-2639.362
 20
959.664
 30
3712.000
 70
    32
  0
VERTEX
  8
E15LXLIFT
 62
3
 10
-2636.653
 20
975.145
 30
3712.000
 70
    32
  0
VERTEX
  8
E15LXLIFT
 62
3
 10
-2624.285
 20
970.447
 30
3712.000
 70
    32
  0
VERTEX
  8
E15LXLIFT
 62
3
 10
-2612.884
 20
966.356
 30
3712.000
 70
    32
  0
VERTEX
  8
E15LXLIFT
 62
3
 10
-2606.647
 20
965.605
 30
3712.000
 70
    32
  0
VERTEX
  8
E15LXLIFT
 62
3
 10
-2600.004
 20
966.865
 30
3712.000
 70
    32
  0
VERTEX
  8
E15LXLIFT
 62
3
 10
-2588.711
 20
963.989
 30
3712.000
 70
    32
  0
VERTEX
  8
E15LXLIFT
 62
3
 10
-2583.789
 20
973.610
 30
3712.000
 70
    32
  0
VERTEX
  8
E15LXLIFT
 62
3
 10
-2579.758
 20
982.815
 30
3712.000
 70
    32
  0
VERTEX
  8
E15LXLIFT
 62
3
 10
-2572.290
 20
985.950
 30
3712.000
 70
    32
  0
VERTEX
  8
E15LXLIFT
 62
3
 10
-2577.169
 20
996.489
 30
3712.000
 70
    32
  0
VERTEX
  8
E15LXLIFT
 62
3
 10
-2580.292
 20
1006.980
 30
3712.000
 70
    32
  0
VERTEX
  8
E15LXLIFT
 62
3
 10
-2584.649
 20
1012.829
 30
3712.000
 70
    32
  0
VERTEX
  8
E15LXLIFT
 62
3
 10
-2595.579
 20
1009.718
 30
3712.000
 70
    32
  0
VERTEX
  8
E15LXLIFT
 62
3
 10
-2602.223
 20
1003.291
 30
3712.000
 70
    32
  0
VERTEX
  8
E15LXLIFT
 62
3
 10
-2607.759
 20
998.188
 30
3712.000
 70
    32
  0
VERTEX
  8
E15LXLIFT
 62
3
 10
-2618.001
 20
998.363
 30
3712.000
 70
    32
  0
VERTEX
  8
E15LXLIFT
 62
3
 10
-2626.531
 20
1005.240
 30
3712.000
 70
    32
  0
VERTEX
  8
E15LXLIFT
 62
3
 10
-2631.590
 20
1009.193
 30
3712.000
 70
    32
  0
VERTEX
  8
E15LXLIFT
 62
3
 10
-2637.575
 20
1011.413
 30
3712.000
 70
    32
  0
VERTEX
  8
E15LXLIFT
 62
3
 10
-2644.199
 20
1019.856
 30
3712.000
 70
    32
  0
VERTEX
  8
E15LXLIFT
 62
3
 10
-2653.055
 20
1024.457
 30
3712.000
 70
    32
  0
VERTEX
  8
E15LXLIFT
 62
3
 10
-2663.126
 20
1028.951
 30
3712.000
 70
    32
  0
VERTEX
  8
E15LXLIFT
 62
3
 10
-2670.934
 20
1030.097
 30
3712.000
 70
    32
  0
VERTEX
  8
E15LXLIFT
 62
3
 10
-2680.905
 20
1029.280
 30
3712.000
 70
    32
  0
VERTEX
  8
E15LXLIFT
 62
3
 10
-2686.451
 20
1031.488
 30
3712.000
 70
    32
  0
VERTEX
  8
E15LXLIFT
 62
3
 10
-2688.942
 20
1034.246
 30
3712.000
 70
    32
  0
VERTEX
  8
E15LXLIFT
 62
3
 10
-2686.114
 20
1043.783
 30
3712.000
 70
    32
  0
VERTEX
  8
E15LXLIFT
 62
3
 10
-2682.265
 20
1053.397
 30
3712.000
 70
    32
  0
VERTEX
  8
E15LXLIFT
 62
3
 10
-2681.754
 20
1058.603
 30
3712.000
 70
    32
  0
VERTEX
  8
E15LXLIFT
 62
3
 10
-2689.663
 20
1059.892
 30
3712.000
 70
    32
  0
VERTEX
  8
E15LXLIFT
 62
3
 10
-2694.708
 20
1062.456
 30
3712.000
 70
    32
  0
VERTEX
  8
E15LXLIFT
 62
3
 10
-2696.871
 20
1055.326
 30
3712.000
 70
    32
  0
VERTEX
  8
E15LXLIFT
 62
3
 10
-2705.472
 20
1049.990
 30
3712.000
 70
    32
  0
VERTEX
  8
E15LXLIFT
 62
3
 10
-2716.456
 20
1043.612
 30
3712.000
 70
    32
  0
VERTEX
  8
E15LXLIFT
 62
3
 10
-2723.074
 20
1036.235
 30
3712.000
 70
    32
  0
VERTEX
  8
E15LXLIFT
 62
3
 10
-2725.068
 20
1023.090
 30
3712.000
 70
    32
  0
VERTEX
  8
E15LXLIFT
 62
3
 10
-2727.074
 20
1014.673
 30
3712.000
 70
    32
  0
VERTEX
  8
E15LXLIFT
 62
3
 10
-2718.493
 20
1010.307
 30
3712.000
 70
    32
  0
VERTEX
  8
E15LXLIFT
 62
3
 10
-2711.989
 20
1002.641
 30
3712.000
 70
    32
  0
VERTEX
  8
E15LXLIFT
 62
3
 10
-2707.473
 20
998.088
 30
3712.000
 70
    32
  0
VERTEX
  8
E15LXLIFT
 62
3
 10
-2699.267
 20
1001.854
 30
3712.000
 70
    32
  0
VERTEX
  8
E15LXLIFT
 62
3
 10
-2693.689
 20
995.039
 30
3712.000
 70
    32
  0
VERTEX
  8
E15LXLIFT
 62
3
 10
-2687.384
 20
991.000
 30
3712.000
 70
    32
  0
VERTEX
  8
E15LXLIFT
 62
3
 10
-2688.365
 20
983.416
 30
3712.000
 70
    32
  0
VERTEX
  8
E15LXLIFT
 62
3
 10
-2686.446
 20
973.257
 30
3712.000
 70
    32
  0
VERTEX
  8
E15LXLIFT
 62
3
 10
-2680.453
 20
962.969
 30
3712.000
 70
    32
  0
VERTEX
  8
E15LXLIFT
 62
3
 10
-2674.429
 20
960.238
 30
3712.000
 70
    32
  0
VERTEX
  8
E15LXLIFT
 62
3
 10
-2663.443
 20
959.620
 30
3712.000
 70
    32
  0
VERTEX
  8
E15LXLIFT
 62
3
 10
-2655.557
 20
957.453
 30
3712.000
 70
    32
  0
VERTEX
  8
E15LXLIFT
 62
3
 10
-2649.429
 20
952.751
 30
3712.000
 70
    32
  0
SEQEND
  8
E15LXLIFT
  0
POLYLINE
  8
E15LXLIFT
 62
1
 66
     1
 70
     9
  0
VERTEX
  8
E15LXLIFT
 62
1
 10
-613.402
 20
-642.535
 30
3808.324
 70
    32
  0
VERTEX
  8
E15LXLIFT
 62
1
 10
-614.484
 20
-625.619
 30
3810.000
 70
    32
  0
VERTEX
  8
E15LXLIFT
 62
1
 10
-616.111
 20
-618.273
 30
3810.000
 70
    32
  0
VERTEX
  8
E15LXLIFT
 62
1
 10
-623.392
 20
-607.418
 30
3810.000
 70
    32
  0
VERTEX
  8
E15LXLIFT
 62
1
 10
-630.020
 20
-599.050
 30
3810.000
 70
    32
  0
VERTEX
  8
E15LXLIFT
 62
1
 10
-635.771
 20
-591.789
 30
3810.000
 70
    32
  0
VERTEX
  8
E15LXLIFT
 62
1
 10
-632.186
 20
-581.390
 30
3810.000
 70
    32
  0
VERTEX
  8
E15LXLIFT
 62
1
 10
-624.025
 20
-567.885
 30
3810.000
 70
    32
  0
VERTEX
  8
E15LXLIFT
 62
1
 10
-617.709
 20
-565.122
 30
3810.000
 70
    32
  0
VERTEX
  8
E15LXLIFT
 62
1
 10
-618.398
 20
-557.069
 30
3810.000
 70
    32
  0
VERTEX
  8
E15LXLIFT
 62
1
 10
-625.220
 20
-541.259
 30
3809.460
 70
    32
  0
VERTEX
  8
E15LXLIFT
 62
1
 10
-631.825
 20
-527.102
 30
3809.074
 70
    32
  0
VERTEX
  8
E15LXLIFT
 62
1
 10
-639.318
 20
-517.133
 30
3809.742
 70
    32
  0
VERTEX
  8
E15LXLIFT
 62
1
 10
-647.628
 20
-503.414
 30
3811.054
 70
    32
  0
VERTEX
  8
E15LXLIFT
 62
1
 10
-654.157
 20
-491.517
 30
3812.325
 70
    32
  0
VERTEX
  8
E15LXLIFT
 62
1
 10
-661.716
 20
-481.498
 30
3812.600
 70
    32
  0
VERTEX
  8
E15LXLIFT
 62
1
 10
-669.043
 20
-472.196
 30
3812.600
 70
    32
  0
VERTEX
  8
E15LXLIFT
 62
1
 10
-665.691
 20
-461.692
 30
3812.600
 70
    32
  0
VERTEX
  8
E15LXLIFT
 62
1
 10
-669.089
 20
-455.749
 30
3810.231
 70
    32
  0
VERTEX
  8
E15LXLIFT
 62
1
 10
-666.152
 20
-448.933
 30
3813.500
 70
    32
  0
VERTEX
  8
E15LXLIFT
 62
1
 10
-668.127
 20
-445.632
 30
3813.500
 70
    32
  0
VERTEX
  8
E15LXLIFT
 62
1
 10
-673.127
 20
-443.382
 30
3813.500
 70
    32
  0
VERTEX
  8
E15LXLIFT
 62
1
 10
-687.284
 20
-428.870
 30
3813.500
 70
    32
  0
VERTEX
  8
E15LXLIFT
 62
1
 10
-679.771
 20
-421.983
 30
3813.501
 70
    32
  0
VERTEX
  8
E15LXLIFT
 62
1
 10
-669.405
 20
-417.316
 30
3813.501
 70
    32
  0
VERTEX
  8
E15LXLIFT
 62
1
 10
-669.596
 20
-409.088
 30
3813.501
 70
    32
  0
VERTEX
  8
E15LXLIFT
 62
1
 10
-660.575
 20
-408.342
 30
3813.501
 70
    32
  0
VERTEX
  8
E15LXLIFT
 62
1
 10
-650.188
 20
-445.572
 30
3813.483
 70
    32
  0
VERTEX
  8
E15LXLIFT
 62
1
 10
-642.660
 20
-448.025
 30
3813.167
 70
    32
  0
VERTEX
  8
E15LXLIFT
 62
1
 10
-634.096
 20
-457.954
 30
3812.311
 70
    32
  0
VERTEX
  8
E15LXLIFT
 62
1
 10
-637.535
 20
-492.163
 30
3810.001
 70
    32
  0
VERTEX
  8
E15LXLIFT
 62
1
 10
-609.314
 20
-537.384
 30
3808.125
 70
    32
  0
VERTEX
  8
E15LXLIFT
 62
1
 10
-603.412
 20
-555.964
 30
3809.791
 70
    32
  0
VERTEX
  8
E15LXLIFT
 62
1
 10
-599.382
 20
-563.836
 30
3810.000
 70
    32
  0
VERTEX
  8
E15LXLIFT
 62
1
 10
-595.136
 20
-578.523
 30
3810.000
 70
    32
  0
VERTEX
  8
E15LXLIFT
 62
1
 10
-586.520
 20
-583.008
 30
3810.000
 70
    32
  0
VERTEX
  8
E15LXLIFT
 62
1
 10
-564.948
 20
-616.254
 30
3810.000
 70
    32
  0
VERTEX
  8
E15LXLIFT
 62
1
 10
-559.155
 20
-630.929
 30
3810.000
 70
    32
  0
VERTEX
  8
E15LXLIFT
 62
1
 10
-569.223
 20
-635.643
 30
3810.000
 70
    32
  0
VERTEX
  8
E15LXLIFT
 62
1
 10
-584.843
 20
-627.589
 30
3810.000
 70
    32
  0
VERTEX
  8
E15LXLIFT
 62
1
 10
-602.799
 20
-637.198
 30
3810.000
 70
    32
  0
VERTEX
  8
E15LXLIFT
 62
1
 10
-602.258
 20
-649.003
 30
3810.000
 70
    32
  0
VERTEX
  8
E15LXLIFT
 62
1
 10
-609.376
 20
-650.596
 30
3810.000
 70
    32
  0
SEQEND
  8
E15LXLIFT
  0
POLYLINE
  8
E15LXLIFT
 62
1
 66
     1
 70
     9
  0
VERTEX
  8
E15LXLIFT
 62
1
 10
-519.701
 20
-600.717
 30
3810.000
 70
    32
  0
VERTEX
  8
E15LXLIFT
 62
1
 10
-519.356
 20
-597.873
 30
3810.000
 70
    32
  0
VERTEX
  8
E15LXLIFT
 62
1
 10
-525.748
 20
-585.288
 30
3810.000
 70
    32
  0
VERTEX
  8
E15LXLIFT
 62
1
 10
-518.492
 20
-580.892
 30
3810.000
 70
    32
  0
VERTEX
  8
E15LXLIFT
 62
1
 10
-511.150
 20
-593.994
 30
3810.000
 70
    32
  0
VERTEX
  8
E15LXLIFT
 62
1
 10
-505.276
 20
-597.701
 30
3810.000
 70
    32
  0
VERTEX
  8
E15LXLIFT
 62
1
 10
-501.994
 20
-603.045
 30
3810.000
 70
    32
  0
VERTEX
  8
E15LXLIFT
 62
1
 10
-498.107
 20
-606.062
 30
3810.000
 70
    32
  0
VERTEX
  8
E15LXLIFT
 62
1
 10
-496.552
 20
-612.354
 30
3810.000
 70
    32
  0
VERTEX
  8
E15LXLIFT
 62
1
 10
-490.333
 20
-622.784
 30
3810.000
 70
    32
  0
VERTEX
  8
E15LXLIFT
 62
1
 10
-493.874
 20
-628.387
 30
3810.000
 70
    32
  0
VERTEX
  8
E15LXLIFT
 62
1
 10
-491.887
 20
-635.283
 30
3810.000
 70
    32
  0
VERTEX
  8
E15LXLIFT
 62
1
 10
-485.236
 20
-643.127
 30
3810.000
 70
    32
  0
VERTEX
  8
E15LXLIFT
 62
1
 10
-483.854
 20
-647.351
 30
3810.000
 70
    32
  0
VERTEX
  8
E15LXLIFT
 62
1
 10
-484.632
 20
-648.558
 30
3810.000
 70
    32
  0
VERTEX
  8
E15LXLIFT
 62
1
 10
-484.286
 20
-651.316
 30
3810.000
 70
    32
  0
VERTEX
  8
E15LXLIFT
 62
1
 10
-480.918
 20
-657.177
 30
3810.000
 70
    32
  0
VERTEX
  8
E15LXLIFT
 62
1
 10
-489.814
 20
-662.436
 30
3810.000
 70
    32
  0
VERTEX
  8
E15LXLIFT
 62
1
 10
-495.688
 20
-654.333
 30
3810.000
 70
    32
  0
VERTEX
  8
E15LXLIFT
 62
1
 10
-502.685
 20
-653.644
 30
3810.000
 70
    32
  0
VERTEX
  8
E15LXLIFT
 62
1
 10
-502.166
 20
-649.161
 30
3810.000
 70
    32
  0
VERTEX
  8
E15LXLIFT
 62
1
 10
-509.854
 20
-624.767
 30
3810.000
 70
    32
  0
SEQEND
  8
E15LXLIFT
  0
POLYLINE
  8
E15LXLIFT
 62
7
 66
     1
 70
     8
  0
VERTEX
  8
E15LXLIFT
 62
7
 10
-564.778
 20
-616.472
 30
3810.000
 70
    32
  0
VERTEX
  8
E15LXLIFT
 62
7
 10
-550.198
 20
-614.820
 30
3810.000
 70
    32
  0
VERTEX
  8
E15LXLIFT
 62
7
 10
-531.880
 20
-612.479
 30
3810.000
 70
    32
  0
VERTEX
  8
E15LXLIFT
 62
7
 10
-529.894
 20
-610.975
 30
3810.000
 70
    32
  0
VERTEX
  8
E15LXLIFT
 62
7
 10
-525.488
 20
-606.752
 30
3810.000
 70
    32
  0
VERTEX
  8
E15LXLIFT
 62
7
 10
-519.701
 20
-600.717
 30
3810.000
 70
    32
  0
SEQEND
  8
E15LXLIFT
  0
POLYLINE
  8
E15LXLIFT
 62
7
 66
     1
 70
     8
  0
VERTEX
  8
E15LXLIFT
 62
7
 10
-509.854
 20
-624.767
 30
3810.000
 70
    32
  0
VERTEX
  8
E15LXLIFT
 62
7
 10
-518.578
 20
-621.233
 30
3810.000
 70
    32
  0
VERTEX
  8
E15LXLIFT
 62
7
 10
-520.911
 20
-621.578
 30
3810.000
 70
    32
  0
VERTEX
  8
E15LXLIFT
 62
7
 10
-526.352
 20
-622.353
 30
3810.000
 70
    32
  0
VERTEX
  8
E15LXLIFT
 62
7
 10
-528.291
 20
-622.785
 30
3810.000
 70
    32
  0
VERTEX
  8
E15LXLIFT
 62
7
 10
-540.316
 20
-624.566
 30
3810.000
 70
    32
  0
VERTEX
  8
E15LXLIFT
 62
7
 10
-554.749
 20
-627.353
 30
3810.000
 70
    32
  0
VERTEX
  8
E15LXLIFT
 62
7
 10
-561.718
 20
-633.009
 30
3810.000
 70
    32
  0
SEQEND
  8
E15LXLIFT
  0
POLYLINE
  8
E15LXLIFT
 62
1
 66
     1
 70
     8
  0
VERTEX
  8
E15LXLIFT
 62
1
 10
-164.499
 20
-1284.776
 30
3746.000
 70
    32
  0
VERTEX
  8
E15LXLIFT
 62
1
 10
-158.051
 20
-1291.742
 30
3746.000
 70
    32
  0
VERTEX
  8
E15LXLIFT
 62
1
 10
-158.618
 20
-1302.052
 30
3746.000
 70
    32
  0
VERTEX
  8
E15LXLIFT
 62
1
 10
-149.334
 20
-1312.296
 30
3746.000
 70
    32
  0
VERTEX
  8
E15LXLIFT
 62
1
 10
-141.779
 20
-1324.505
 30
3746.000
 70
    32
  0
VERTEX
  8
E15LXLIFT
 62
1
 10
-142.045
 20
-1344.985
 30
3746.000
 70
    32
  0
VERTEX
  8
E15LXLIFT
 62
1
 10
-144.684
 20
-1373.930
 30
3746.000
 70
    32
  0
VERTEX
  8
E15LXLIFT
 62
1
 10
-167.929
 20
-1378.536
 30
3746.000
 70
    32
  0
VERTEX
  8
E15LXLIFT
 62
1
 10
-172.494
 20
-1341.235
 30
3746.000
 70
    32
  0
VERTEX
  8
E15LXLIFT
 62
1
 10
-175.881
 20
-1336.179
 30
3746.000
 70
    32
  0
VERTEX
  8
E15LXLIFT
 62
1
 10
-172.575
 20
-1318.590
 30
3746.000
 70
    32
  0
VERTEX
  8
E15LXLIFT
 62
1
 10
-173.087
 20
-1305.432
 30
3746.000
 70
    32
  0
VERTEX
  8
E15LXLIFT
 62
1
 10
-182.106
 20
-1291.857
 30
3746.000
 70
    32
  0
VERTEX
  8
E15LXLIFT
 62
1
 10
-177.499
 20
-1283.479
 30
3746.000
 70
    32
  0
VERTEX
  8
E15LXLIFT
 62
1
 10
-164.572
 20
-1285.108
 30
3746.000
 70
    32
  0
SEQEND
  8
E15LXLIFT
  0
POLYLINE
  8
E15LXLIFT
 62
1
 66
     1
 70
     9
  0
VERTEX
  8
E15LXLIFT
 62
1
 10
-170.505
 20
-1283.375
 30
3756.000
 70
    32
  0
VERTEX
  8
E15LXLIFT
 62
1
 10
-182.142
 20
-1286.166
 30
3756.000
 70
    32
  0
VERTEX
  8
E15LXLIFT
 62
1
 10
-181.906
 20
-1294.590
 30
3756.000
 70
    32
  0
VERTEX
  8
E15LXLIFT
 62
1
 10
-176.974
 20
-1310.260
 30
3756.000
 70
    32
  0
VERTEX
  8
E15LXLIFT
 62
1
 10
-176.563
 20
-1340.044
 30
3756.000
 70
    32
  0
VERTEX
  8
E15LXLIFT
 62
1
 10
-172.547
 20
-1352.327
 30
3756.000
 70
    32
  0
VERTEX
  8
E15LXLIFT
 62
1
 10
-170.942
 20
-1364.066
 30
3756.000
 70
    32
  0
VERTEX
  8
E15LXLIFT
 62
1
 10
-168.497
 20
-1378.006
 30
3756.000
 70
    32
  0
VERTEX
  8
E15LXLIFT
 62
1
 10
-147.719
 20
-1372.375
 30
3756.000
 70
    32
  0
VERTEX
  8
E15LXLIFT
 62
1
 10
-146.635
 20
-1352.181
 30
3756.000
 70
    32
  0
VERTEX
  8
E15LXLIFT
 62
1
 10
-145.279
 20
-1332.251
 30
3756.000
 70
    32
  0
VERTEX
  8
E15LXLIFT
 62
1
 10
-145.635
 20
-1323.660
 30
3756.000
 70
    32
  0
VERTEX
  8
E15LXLIFT
 62
1
 10
-152.088
 20
-1310.093
 30
3756.000
 70
    32
  0
SEQEND
  8
E15LXLIFT
  0
POLYLINE
  8
E15LXLIFT
 62
1
 66
     1
 70
     9
  0
VERTEX
  8
E15LXLIFT
 62
1
 10
-178.064
 20
-1285.514
 30
3766.000
 70
    32
  0
VERTEX
  8
E15LXLIFT
 62
1
 10
-186.387
 20
-1286.938
 30
3766.000
 70
    32
  0
VERTEX
  8
E15LXLIFT
 62
1
 10
-182.703
 20
-1309.317
 30
3766.000
 70
    32
  0
VERTEX
  8
E15LXLIFT
 62
1
 10
-179.957
 20
-1319.478
 30
3766.000
 70
    32
  0
VERTEX
  8
E15LXLIFT
 62
1
 10
-179.736
 20
-1340.551
 30
3766.000
 70
    32
  0
VERTEX
  8
E15LXLIFT
 62
1
 10
-175.489
 20
-1349.636
 30
3766.000
 70
    32
  0
VERTEX
  8
E15LXLIFT
 62
1
 10
-173.776
 20
-1366.100
 30
3766.000
 70
    32
  0
VERTEX
  8
E15LXLIFT
 62
1
 10
-169.350
 20
-1377.865
 30
3766.000
 70
    32
  0
VERTEX
  8
E15LXLIFT
 62
1
 10
-150.422
 20
-1371.054
 30
3766.000
 70
    32
  0
VERTEX
  8
E15LXLIFT
 62
1
 10
-150.892
 20
-1357.512
 30
3766.000
 70
    32
  0
VERTEX
  8
E15LXLIFT
 62
1
 10
-149.769
 20
-1348.870
 30
3766.000
 70
    32
  0
VERTEX
  8
E15LXLIFT
 62
1
 10
-152.100
 20
-1342.455
 30
3766.000
 70
    32
  0
VERTEX
  8
E15LXLIFT
 62
1
 10
-147.206
 20
-1334.140
 30
3766.000
 70
    32
  0
VERTEX
  8
E15LXLIFT
 62
1
 10
-153.138
 20
-1319.188
 30
3766.000
 70
    32
  0
VERTEX
  8
E15LXLIFT
 62
1
 10
-156.564
 20
-1314.063
 30
3766.000
 70
    32
  0
VERTEX
  8
E15LXLIFT
 62
1
 10
-159.878
 20
-1305.574
 30
3766.000
 70
    32
  0
VERTEX
  8
E15LXLIFT
 62
1
 10
-170.128
 20
-1290.940
 30
3766.000
 70
    32
  0
VERTEX
  8
E15LXLIFT
 62
1
 10
-172.738
 20
-1289.265
 30
3766.000
 70
    32
  0
SEQEND
  8
E15LXLIFT
  0
POLYLINE
  8
E15LXLIFT
 62
1
 66
     1
 70
     9
  0
VERTEX
  8
E15LXLIFT
 62
1
 10
-180.376
 20
-1286.163
 30
3776.000
 70
    32
  0
VERTEX
  8
E15LXLIFT
 62
1
 10
-185.673
 20
-1286.173
 30
3776.000
 70
    32
  0
VERTEX
  8
E15LXLIFT
 62
1
 10
-191.201
 20
-1289.382
 30
3776.000
 70
    32
  0
VERTEX
  8
E15LXLIFT
 62
1
 10
-185.678
 20
-1312.210
 30
3776.000
 70
    32
  0
VERTEX
  8
E15LXLIFT
 62
1
 10
-183.602
 20
-1330.941
 30
3776.000
 70
    32
  0
VERTEX
  8
E15LXLIFT
 62
1
 10
-183.126
 20
-1339.699
 30
3776.000
 70
    32
  0
VERTEX
  8
E15LXLIFT
 62
1
 10
-181.244
 20
-1347.952
 30
3776.000
 70
    32
  0
VERTEX
  8
E15LXLIFT
 62
1
 10
-179.828
 20
-1350.981
 30
3776.000
 70
    32
  0
VERTEX
  8
E15LXLIFT
 62
1
 10
-177.368
 20
-1361.095
 30
3776.000
 70
    32
  0
VERTEX
  8
E15LXLIFT
 62
1
 10
-177.146
 20
-1364.221
 30
3776.000
 70
    32
  0
VERTEX
  8
E15LXLIFT
 62
1
 10
-171.026
 20
-1378.027
 30
3776.000
 70
    32
  0
VERTEX
  8
E15LXLIFT
 62
1
 10
-152.126
 20
-1369.518
 30
3776.000
 70
    32
  0
VERTEX
  8
E15LXLIFT
 62
1
 10
-151.905
 20
-1362.788
 30
3776.000
 70
    32
  0
VERTEX
  8
E15LXLIFT
 62
1
 10
-154.878
 20
-1347.734
 30
3776.000
 70
    32
  0
VERTEX
  8
E15LXLIFT
 62
1
 10
-153.392
 20
-1341.359
 30
3776.000
 70
    32
  0
VERTEX
  8
E15LXLIFT
 62
1
 10
-151.250
 20
-1339.064
 30
3776.000
 70
    32
  0
VERTEX
  8
E15LXLIFT
 62
1
 10
-151.233
 20
-1336.272
 30
3776.000
 70
    32
  0
VERTEX
  8
E15LXLIFT
 62
1
 10
-156.489
 20
-1324.373
 30
3776.000
 70
    32
  0
VERTEX
  8
E15LXLIFT
 62
1
 10
-161.830
 20
-1316.579
 30
3776.000
 70
    32
  0
VERTEX
  8
E15LXLIFT
 62
1
 10
-173.728
 20
-1292.259
 30
3776.000
 70
    32
  0
SEQEND
  8
E15LXLIFT
  0
POLYLINE
  8
E15LXLIFT
 62
1
 66
     1
 70
     9
  0
VERTEX
  8
E15LXLIFT
 62
1
 10
-181.299
 20
-1289.100
 30
3786.000
 70
    32
  0
VERTEX
  8
E15LXLIFT
 62
1
 10
-186.242
 20
-1287.845
 30
3786.000
 70
    32
  0
VERTEX
  8
E15LXLIFT
 62
1
 10
-195.305
 20
-1289.294
 30
3786.000
 70
    32
  0
VERTEX
  8
E15LXLIFT
 62
1
 10
-189.222
 20
-1316.775
 30
3786.000
 70
    32
  0
VERTEX
  8
E15LXLIFT
 62
1
 10
-185.134
 20
-1347.459
 30
3786.000
 70
    32
  0
VERTEX
  8
E15LXLIFT
 62
1
 10
-177.076
 20
-1372.765
 30
3786.000
 70
    32
  0
VERTEX
  8
E15LXLIFT
 62
1
 10
-173.681
 20
-1375.383
 30
3786.000
 70
    32
  0
VERTEX
  8
E15LXLIFT
 62
1
 10
-158.936
 20
-1375.164
 30
3786.000
 70
    32
  0
VERTEX
  8
E15LXLIFT
 62
1
 10
-155.132
 20
-1369.906
 30
3786.000
 70
    32
  0
VERTEX
  8
E15LXLIFT
 62
1
 10
-159.160
 20
-1362.181
 30
3786.000
 70
    32
  0
VERTEX
  8
E15LXLIFT
 62
1
 10
-161.007
 20
-1330.396
 30
3786.000
 70
    32
  0
VERTEX
  8
E15LXLIFT
 62
1
 10
-163.972
 20
-1318.875
 30
3786.000
 70
    32
  0
VERTEX
  8
E15LXLIFT
 62
1
 10
-169.313
 20
-1311.081
 30
3786.000
 70
    32
  0
VERTEX
  8
E15LXLIFT
 62
1
 10
-171.238
 20
-1304.880
 30
3786.000
 70
    32
  0
SEQEND
  8
E15LXLIFT
  0
POLYLINE
  8
E15LXLIFT
 62
1
 66
     1
 70
     9
  0
VERTEX
  8
E15LXLIFT
 62
1
 10
-727.353
 20
-400.280
 30
3824.000
 70
    32
  0
VERTEX
  8
E15LXLIFT
 62
1
 10
-727.348
 20
-400.346
 30
3824.000
 70
    32
  0
VERTEX
  8
E15LXLIFT
 62
1
 10
-727.277
 20
-407.939
 30
3824.000
 70
    32
  0
VERTEX
  8
E15LXLIFT
 62
1
 10
-732.722
 20
-421.048
 30
3824.000
 70
    32
  0
VERTEX
  8
E15LXLIFT
 62
1
 10
-736.639
 20
-443.676
 30
3824.000
 70
    32
  0
VERTEX
  8
E15LXLIFT
 62
1
 10
-738.091
 20
-463.826
 30
3824.000
 70
    32
  0
VERTEX
  8
E15LXLIFT
 62
1
 10
-732.947
 20
-476.413
 30
3824.000
 70
    32
  0
VERTEX
  8
E15LXLIFT
 62
1
 10
-727.997
 20
-478.876
 30
3824.000
 70
    32
  0
VERTEX
  8
E15LXLIFT
 62
1
 10
-726.081
 20
-483.517
 30
3824.000
 70
    32
  0
VERTEX
  8
E15LXLIFT
 62
1
 10
-723.375
 20
-483.344
 30
3824.000
 70
    32
  0
VERTEX
  8
E15LXLIFT
 62
1
 10
-719.367
 20
-470.205
 30
3824.000
 70
    32
  0
VERTEX
  8
E15LXLIFT
 62
1
 10
-710.510
 20
-458.895
 30
3824.000
 70
    32
  0
VERTEX
  8
E15LXLIFT
 62
1
 10
-711.032
 20
-450.776
 30
3824.000
 70
    32
  0
VERTEX
  8
E15LXLIFT
 62
1
 10
-708.424
 20
-438.643
 30
3824.000
 70
    32
  0
VERTEX
  8
E15LXLIFT
 62
1
 10
-697.940
 20
-423.687
 30
3824.000
 70
    32
  0
VERTEX
  8
E15LXLIFT
 62
1
 10
-695.625
 20
-414.594
 30
3824.000
 70
    32
  0
VERTEX
  8
E15LXLIFT
 62
1
 10
-700.314
 20
-396.727
 30
3824.000
 70
    32
  0
VERTEX
  8
E15LXLIFT
 62
1
 10
-698.986
 20
-393.651
 30
3824.000
 70
    32
  0
VERTEX
  8
E15LXLIFT
 62
1
 10
-700.353
 20
-381.892
 30
3824.000
 70
    32
  0
VERTEX
  8
E15LXLIFT
 62
1
 10
-700.420
 20
-368.494
 30
3824.000
 70
    32
  0
VERTEX
  8
E15LXLIFT
 62
1
 10
-704.308
 20
-350.759
 30
3824.000
 70
    32
  0
VERTEX
  8
E15LXLIFT
 62
1
 10
-715.938
 20
-348.843
 30
3824.000
 70
    32
  0
VERTEX
  8
E15LXLIFT
 62
1
 10
-717.355
 20
-356.230
 30
3824.000
 70
    32
  0
VERTEX
  8
E15LXLIFT
 62
1
 10
-721.257
 20
-358.677
 30
3824.000
 70
    32
  0
VERTEX
  8
E15LXLIFT
 62
1
 10
-723.555
 20
-361.388
 30
3824.000
 70
    32
  0
VERTEX
  8
E15LXLIFT
 62
1
 10
-726.982
 20
-379.772
 30
3824.000
 70
    32
  0
VERTEX
  8
E15LXLIFT
 62
1
 10
-728.137
 20
-385.554
 30
3824.000
 70
    32
  0
VERTEX
  8
E15LXLIFT
 62
1
 10
-725.537
 20
-396.074
 30
3824.000
 70
    32
  0
SEQEND
  8
E15LXLIFT
  0
POLYLINE
  8
E15LXLIFT
 62
1
 66
     1
 70
     9
  0
VERTEX
  8
E15LXLIFT
 62
1
 10
-183.180
 20
-1208.618
 30
3757.000
 70
    32
  0
VERTEX
  8
E15LXLIFT
 62
1
 10
-192.839
 20
-1209.444
 30
3757.000
 70
    32
  0
VERTEX
  8
E15LXLIFT
 62
1
 10
-194.267
 20
-1214.255
 30
3757.000
 70
    32
  0
VERTEX
  8
E15LXLIFT
 62
1
 10
-194.510
 20
-1223.099
 30
3757.000
 70
    32
  0
VERTEX
  8
E15LXLIFT
 62
1
 10
-194.484
 20
-1228.576
 30
3757.000
 70
    32
  0
VERTEX
  8
E15LXLIFT
 62
1
 10
-196.747
 20
-1236.306
 30
3757.000
 70
    32
  0
VERTEX
  8
E15LXLIFT
 62
1
 10
-196.784
 20
-1239.996
 30
3757.000
 70
    32
  0
VERTEX
  8
E15LXLIFT
 62
1
 10
-195.756
 20
-1244.998
 30
3757.000
 70
    32
  0
VERTEX
  8
E15LXLIFT
 62
1
 10
-189.523
 20
-1252.492
 30
3757.000
 70
    32
  0
VERTEX
  8
E15LXLIFT
 62
1
 10
-186.043
 20
-1252.070
 30
3757.000
 70
    32
  0
VERTEX
  8
E15LXLIFT
 62
1
 10
-183.742
 20
-1250.175
 30
3757.000
 70
    32
  0
VERTEX
  8
E15LXLIFT
 62
1
 10
-184.209
 20
-1247.824
 30
3757.000
 70
    32
  0
VERTEX
  8
E15LXLIFT
 62
1
 10
-180.608
 20
-1240.598
 30
3757.000
 70
    32
  0
VERTEX
  8
E15LXLIFT
 62
1
 10
-179.698
 20
-1235.915
 30
3757.000
 70
    32
  0
VERTEX
  8
E15LXLIFT
 62
1
 10
-179.926
 20
-1227.775
 30
3757.000
 70
    32
  0
VERTEX
  8
E15LXLIFT
 62
1
 10
-180.781
 20
-1218.253
 30
3757.000
 70
    32
  0
SEQEND
  8
E15LXLIFT
  0
POLYLINE
  8
E15LXLIFT
 62
1
 66
     1
 70
     9
  0
VERTEX
  8
E15LXLIFT
 62
1
 10
-181.753
 20
-1225.911
 30
3764.000
 70
    32
  0
VERTEX
  8
E15LXLIFT
 62
1
 10
-183.165
 20
-1214.591
 30
3764.000
 70
    32
  0
VERTEX
  8
E15LXLIFT
 62
1
 10
-185.754
 20
-1212.174
 30
3764.000
 70
    32
  0
VERTEX
  8
E15LXLIFT
 62
1
 10
-188.094
 20
-1212.144
 30
3764.000
 70
    32
  0
VERTEX
  8
E15LXLIFT
 62
1
 10
-190.717
 20
-1209.509
 30
3764.000
 70
    32
  0
VERTEX
  8
E15LXLIFT
 62
1
 10
-197.007
 20
-1211.458
 30
3764.000
 70
    32
  0
VERTEX
  8
E15LXLIFT
 62
1
 10
-197.505
 20
-1224.027
 30
3764.000
 70
    32
  0
VERTEX
  8
E15LXLIFT
 62
1
 10
-198.790
 20
-1235.330
 30
3764.000
 70
    32
  0
VERTEX
  8
E15LXLIFT
 62
1
 10
-199.378
 20
-1239.781
 30
3764.000
 70
    32
  0
VERTEX
  8
E15LXLIFT
 62
1
 10
-198.069
 20
-1246.536
 30
3764.000
 70
    32
  0
VERTEX
  8
E15LXLIFT
 62
1
 10
-192.357
 20
-1253.305
 30
3764.000
 70
    32
  0
VERTEX
  8
E15LXLIFT
 62
1
 10
-185.814
 20
-1251.539
 30
3764.000
 70
    32
  0
VERTEX
  8
E15LXLIFT
 62
1
 10
-184.718
 20
-1247.456
 30
3764.000
 70
    32
  0
VERTEX
  8
E15LXLIFT
 62
1
 10
-180.327
 20
-1242.351
 30
3764.000
 70
    32
  0
VERTEX
  8
E15LXLIFT
 62
1
 10
-181.452
 20
-1235.342
 30
3764.000
 70
    32
  0
VERTEX
  8
E15LXLIFT
 62
1
 10
-180.690
 20
-1231.132
 30
3764.000
 70
    32
  0
SEQEND
  8
E15LXLIFT
  0
POLYLINE
  8
E15LXLIFT
 62
1
 66
     1
 70
     8
  0
VERTEX
  8
E15LXLIFT
 62
1
 10
-185.848
 20
-1215.783
 30
3772.000
 70
    32
  0
VERTEX
  8
E15LXLIFT
 62
1
 10
-192.467
 20
-1210.642
 30
3772.000
 70
    32
  0
VERTEX
  8
E15LXLIFT
 62
1
 10
-199.841
 20
-1212.271
 30
3772.000
 70
    32
  0
VERTEX
  8
E15LXLIFT
 62
1
 10
-201.039
 20
-1221.313
 30
3772.000
 70
    32
  0
VERTEX
  8
E15LXLIFT
 62
1
 10
-200.515
 20
-1232.416
 30
3772.000
 70
    32
  0
VERTEX
  8
E15LXLIFT
 62
1
 10
-201.664
 20
-1242.888
 30
3772.000
 70
    32
  0
VERTEX
  8
E15LXLIFT
 62
1
 10
-201.426
 20
-1245.770
 30
3772.000
 70
    32
  0
VERTEX
  8
E15LXLIFT
 62
1
 10
-193.991
 20
-1254.599
 30
3772.000
 70
    32
  0
VERTEX
  8
E15LXLIFT
 62
1
 10
-187.485
 20
-1251.762
 30
3772.000
 70
    32
  0
VERTEX
  8
E15LXLIFT
 62
1
 10
-180.959
 20
-1243.170
 30
3772.000
 70
    32
  0
VERTEX
  8
E15LXLIFT
 62
1
 10
-181.685
 20
-1238.929
 30
3772.000
 70
    32
  0
VERTEX
  8
E15LXLIFT
 62
1
 10
-183.905
 20
-1222.571
 30
3772.000
 70
    32
  0
VERTEX
  8
E15LXLIFT
 62
1
 10
-185.856
 20
-1215.761
 30
3772.000
 70
    32
  0
SEQEND
  8
E15LXLIFT
  0
POLYLINE
  8
E15LXLIFT
 62
1
 66
     1
 70
     9
  0
VERTEX
  8
E15LXLIFT
 62
1
 10
-190.221
 20
-1214.281
 30
3780.000
 70
    32
  0
VERTEX
  8
E15LXLIFT
 62
1
 10
-195.024
 20
-1211.500
 30
3780.000
 70
    32
  0
VERTEX
  8
E15LXLIFT
 62
1
 10
-198.079
 20
-1211.495
 30
3780.000
 70
    32
  0
VERTEX
  8
E15LXLIFT
 62
1
 10
-203.389
 20
-1213.108
 30
3780.000
 70
    32
  0
VERTEX
  8
E15LXLIFT
 62
1
 10
-203.575
 20
-1225.941
 30
3780.000
 70
    32
  0
VERTEX
  8
E15LXLIFT
 62
1
 10
-202.826
 20
-1234.807
 30
3780.000
 70
    32
  0
VERTEX
  8
E15LXLIFT
 62
1
 10
-204.318
 20
-1246.502
 30
3780.000
 70
    32
  0
VERTEX
  8
E15LXLIFT
 62
1
 10
-195.269
 20
-1255.028
 30
3780.000
 70
    32
  0
VERTEX
  8
E15LXLIFT
 62
1
 10
-190.535
 20
-1253.463
 30
3780.000
 70
    32
  0
VERTEX
  8
E15LXLIFT
 62
1
 10
-186.756
 20
-1248.186
 30
3780.000
 70
    32
  0
VERTEX
  8
E15LXLIFT
 62
1
 10
-182.646
 20
-1246.091
 30
3780.000
 70
    32
  0
VERTEX
  8
E15LXLIFT
 62
1
 10
-183.064
 20
-1240.407
 30
3780.000
 70
    32
  0
VERTEX
  8
E15LXLIFT
 62
1
 10
-185.172
 20
-1232.029
 30
3780.000
 70
    32
  0
VERTEX
  8
E15LXLIFT
 62
1
 10
-187.444
 20
-1218.150
 30
3780.000
 70
    32
  0
SEQEND
  8
E15LXLIFT
  0
POLYLINE
  8
E15LXLIFT
 62
1
 66
     1
 70
     9
  0
VERTEX
  8
E15LXLIFT
 62
1
 10
-191.868
 20
-1215.335
 30
3787.000
 70
    32
  0
VERTEX
  8
E15LXLIFT
 62
1
 10
-196.094
 20
-1212.781
 30
3787.000
 70
    32
  0
VERTEX
  8
E15LXLIFT
 62
1
 10
-198.633
 20
-1212.208
 30
3787.000
 70
    32
  0
VERTEX
  8
E15LXLIFT
 62
1
 10
-206.315
 20
-1213.730
 30
3787.000
 70
    32
  0
VERTEX
  8
E15LXLIFT
 62
1
 10
-206.128
 20
-1227.699
 30
3787.000
 70
    32
  0
VERTEX
  8
E15LXLIFT
 62
1
 10
-204.930
 20
-1234.555
 30
3787.000
 70
    32
  0
VERTEX
  8
E15LXLIFT
 62
1
 10
-205.497
 20
-1238.953
 30
3787.000
 70
    32
  0
VERTEX
  8
E15LXLIFT
 62
1
 10
-202.835
 20
-1248.219
 30
3787.000
 70
    32
  0
VERTEX
  8
E15LXLIFT
 62
1
 10
-195.962
 20
-1254.462
 30
3787.000
 70
    32
  0
VERTEX
  8
E15LXLIFT
 62
1
 10
-190.917
 20
-1252.970
 30
3787.000
 70
    32
  0
VERTEX
  8
E15LXLIFT
 62
1
 10
-190.652
 20
-1248.522
 30
3787.000
 70
    32
  0
VERTEX
  8
E15LXLIFT
 62
1
 10
-185.859
 20
-1246.679
 30
3787.000
 70
    32
  0
VERTEX
  8
E15LXLIFT
 62
1
 10
-185.216
 20
-1242.758
 30
3787.000
 70
    32
  0
VERTEX
  8
E15LXLIFT
 62
1
 10
-187.936
 20
-1230.076
 30
3787.000
 70
    32
  0
SEQEND
  8
E15LXLIFT
  0
POLYLINE
  8
E15LXLIFT
 62
1
 66
     1
 70
     9
  0
VERTEX
  8
E15LXLIFT
 62
1
 10
-198.955
 20
-1212.601
 30
3802.000
 70
    32
  0
VERTEX
  8
E15LXLIFT
 62
1
 10
-210.078
 20
-1214.946
 30
3802.000
 70
    32
  0
VERTEX
  8
E15LXLIFT
 62
1
 10
-208.212
 20
-1225.395
 30
3802.000
 70
    32
  0
VERTEX
  8
E15LXLIFT
 62
1
 10
-203.621
 20
-1232.863
 30
3802.000
 70
    32
  0
VERTEX
  8
E15LXLIFT
 62
1
 10
-199.129
 20
-1239.122
 30
3802.000
 70
    32
  0
VERTEX
  8
E15LXLIFT
 62
1
 10
-192.319
 20
-1243.972
 30
3802.000
 70
    32
  0
VERTEX
  8
E15LXLIFT
 62
1
 10
-189.488
 20
-1243.991
 30
3802.000
 70
    32
  0
VERTEX
  8
E15LXLIFT
 62
1
 10
-191.718
 20
-1233.034
 30
3802.000
 70
    32
  0
VERTEX
  8
E15LXLIFT
 62
1
 10
-191.706
 20
-1228.412
 30
3802.000
 70
    32
  0
VERTEX
  8
E15LXLIFT
 62
1
 10
-192.972
 20
-1225.221
 30
3802.000
 70
    32
  0
VERTEX
  8
E15LXLIFT
 62
1
 10
-193.714
 20
-1218.834
 30
3802.000
 70
    32
  0
SEQEND
  8
E15LXLIFT
  0
POLYLINE
  8
E15LXLIFT
 62
1
 66
     1
 70
     8
  0
VERTEX
  8
E15LXLIFT
 62
1
 10
-138.830
 20
-1459.888
 30
3742.000
 70
    32
  0
VERTEX
  8
E15LXLIFT
 62
1
 10
-138.581
 20
-1481.973
 30
3742.000
 70
    32
  0
VERTEX
  8
E15LXLIFT
 62
1
 10
-138.978
 20
-1490.836
 30
3742.000
 70
    32
  0
VERTEX
  8
E15LXLIFT
 62
1
 10
-137.840
 20
-1500.681
 30
3742.000
 70
    32
  0
VERTEX
  8
E15LXLIFT
 62
1
 10
-132.595
 20
-1502.211
 30
3742.000
 70
    32
  0
VERTEX
  8
E15LXLIFT
 62
1
 10
-126.826
 20
-1499.240
 30
3742.000
 70
    32
  0
VERTEX
  8
E15LXLIFT
 62
1
 10
-126.694
 20
-1490.985
 30
3742.000
 70
    32
  0
VERTEX
  8
E15LXLIFT
 62
1
 10
-117.659
 20
-1485.725
 30
3742.000
 70
    32
  0
VERTEX
  8
E15LXLIFT
 62
1
 10
-118.056
 20
-1476.352
 30
3743.000
 70
    32
  0
VERTEX
  8
E15LXLIFT
 62
1
 10
-115.770
 20
-1474.693
 30
3743.000
 70
    32
  0
VERTEX
  8
E15LXLIFT
 62
1
 10
-107.404
 20
-1479.682
 30
3744.000
 70
    32
  0
VERTEX
  8
E15LXLIFT
 62
1
 10
-105.421
 20
-1480.734
 30
3747.000
 70
    32
  0
VERTEX
  8
E15LXLIFT
 62
1
 10
-105.050
 20
-1480.939
 30
3747.000
 70
    32
  0
VERTEX
  8
E15LXLIFT
 62
1
 10
-104.076
 20
-1491.143
 30
3747.000
 70
    32
  0
VERTEX
  8
E15LXLIFT
 62
1
 10
-100.886
 20
-1505.368
 30
3747.500
 70
    32
  0
VERTEX
  8
E15LXLIFT
 62
1
 10
-101.234
 20
-1521.417
 30
3748.000
 70
    32
  0
VERTEX
  8
E15LXLIFT
 62
1
 10
-99.706
 20
-1534.948
 30
3748.000
 70
    32
  0
VERTEX
  8
E15LXLIFT
 62
1
 10
-85.002
 20
-1536.424
 30
3748.000
 70
    32
  0
VERTEX
  8
E15LXLIFT
 62
1
 10
-75.444
 20
-1528.875
 30
3748.000
 70
    32
  0
VERTEX
  8
E15LXLIFT
 62
1
 10
-76.331
 20
-1516.782
 30
3748.000
 70
    32
  0
VERTEX
  8
E15LXLIFT
 62
1
 10
-84.298
 20
-1508.439
 30
3747.750
 70
    32
  0
VERTEX
  8
E15LXLIFT
 62
1
 10
-88.423
 20
-1494.147
 30
3747.500
 70
    32
  0
VERTEX
  8
E15LXLIFT
 62
1
 10
-88.231
 20
-1486.270
 30
3747.250
 70
    32
  0
VERTEX
  8
E15LXLIFT
 62
1
 10
-88.389
 20
-1476.573
 30
3747.000
 70
    32
  0
VERTEX
  8
E15LXLIFT
 62
1
 10
-92.607
 20
-1462.197
 30
3747.000
 70
    32
  0
VERTEX
  8
E15LXLIFT
 62
1
 10
-91.029
 20
-1453.165
 30
3746.500
 70
    32
  0
VERTEX
  8
E15LXLIFT
 62
1
 10
-93.125
 20
-1448.927
 30
3746.500
 70
    32
  0
VERTEX
  8
E15LXLIFT
 62
1
 10
-95.986
 20
-1440.050
 30
3747.000
 70
    32
  0
VERTEX
  8
E15LXLIFT
 62
1
 10
-104.606
 20
-1444.571
 30
3747.000
 70
    32
  0
VERTEX
  8
E15LXLIFT
 62
1
 10
-104.775
 20
-1450.727
 30
3747.000
 70
    32
  0
VERTEX
  8
E15LXLIFT
 62
1
 10
-108.448
 20
-1456.499
 30
3747.000
 70
    32
  0
VERTEX
  8
E15LXLIFT
 62
1
 10
-111.938
 20
-1464.962
 30
3747.000
 70
    32
  0
VERTEX
  8
E15LXLIFT
 62
1
 10
-112.409
 20
-1465.429
 30
3744.000
 70
    32
  0
VERTEX
  8
E15LXLIFT
 62
1
 10
-122.338
 20
-1460.943
 30
3742.000
 70
    32
  0
VERTEX
  8
E15LXLIFT
 62
1
 10
-130.855
 20
-1453.754
 30
3742.000
 70
    32
  0
SEQEND
  8
E15LXLIFT
  0
LINE
  8
E15LXLIFT
 62
6
 10
-653.557
 20
-396.751
 30
3802.000
 11
-657.057
 21
-400.251
 31
3802.000
  0
POLYLINE
  8
E15LXLIFT
 62
6
 66
     1
 70
     9
  0
VERTEX
  8
E15LXLIFT
 62
6
 10
-657.057
 20
-400.251
 30
3802.000
 70
    32
  0
VERTEX
  8
E15LXLIFT
 62
6
 10
-650.057
 20
-400.251
 30
3802.000
 70
    32
  0
VERTEX
  8
E15LXLIFT
 62
6
 10
-650.057
 20
-393.251
 30
3802.000
 70
    32
  0
VERTEX
  8
E15LXLIFT
 62
6
 10
-657.057
 20
-393.251
 30
3802.000
 70
    32
  0
SEQEND
  8
E15LXLIFT
  0
LINE
  8
E15LXLIFT
 62
6
 10
-657.057
 20
-393.251
 30
3802.000
 11
-650.057
 21
-400.251
 31
3802.000
  0
POLYLINE
  8
E15LXLIFT
 62
7
 66
     1
 70
     9
  0
VERTEX
  8
E15LXLIFT
 62
7
 10
-731.319
 20
-476.971
 30
3810.000
 70
    32
  0
VERTEX
  8
E15LXLIFT
 62
7
 10
-724.319
 20
-476.971
 30
3810.000
 70
    32
  0
VERTEX
  8
E15LXLIFT
 62
7
 10
-724.319
 20
-469.971
 30
3810.000
 70
    32
  0
VERTEX
  8
E15LXLIFT
 62
7
 10
-731.319
 20
-469.971
 30
3810.000
 70
    32
  0
SEQEND
  8
E15LXLIFT
  0
LINE
  8
E15LXLIFT
 62
7
 10
-724.319
 20
-469.971
 30
3810.000
 11
-731.319
 21
-476.971
 31
3810.000
  0
ENDSEC
  0
EOF
