999
********************************
999
*   DXF File - Entities Only   *
999
*        3D Data Format        *
999
*     Output from ENVISAGE     *
999
*     31-Dec-2007 14:01:38     *
999
********************************
  0
SECTION 
  2
HEADER
  9
$ACADVER
  1
AC1009
  9
$EXTMIN
 10
-290000.000
 20
-250000.000
 30
-4000.000
  9
$EXTMAX
 10
320000.000
 20
160000.000
 30
6000.000
  0
ENDSEC
  0
SECTION
  2
ENTITIES
  0
POLYLINE
  8
E15XLIFTS
 62
6
 66
     1
 70
     9
  0
VERTEX
  8
E15XLIFTS
 62
6
 10
-1618.308
 20
-1349.281
 30
3725.900
 70
    32
  0
VERTEX
  8
E15XLIFTS
 62
6
 10
-1608.235
 20
-1365.416
 30
3725.900
 70
    32
  0
VERTEX
  8
E15XLIFTS
 62
6
 10
-1605.721
 20
-1364.930
 30
3725.900
 70
    32
  0
VERTEX
  8
E15XLIFTS
 62
6
 10
-1591.486
 20
-1390.761
 30
3725.900
 70
    32
  0
VERTEX
  8
E15XLIFTS
 62
6
 10
-1581.902
 20
-1390.393
 30
3725.900
 70
    32
  0
VERTEX
  8
E15XLIFTS
 62
6
 10
-1575.943
 20
-1399.756
 30
3725.900
 70
    32
  0
VERTEX
  8
E15XLIFTS
 62
6
 10
-1562.725
 20
-1392.575
 30
3725.900
 70
    32
  0
VERTEX
  8
E15XLIFTS
 62
6
 10
-1572.802
 20
-1379.191
 30
3725.900
 70
    32
  0
VERTEX
  8
E15XLIFTS
 62
6
 10
-1573.580
 20
-1371.590
 30
3725.900
 70
    32
  0
VERTEX
  8
E15XLIFTS
 62
6
 10
-1585.214
 20
-1356.432
 30
3725.900
 70
    32
  0
VERTEX
  8
E15XLIFTS
 62
6
 10
-1597.655
 20
-1348.672
 30
3725.900
 70
    32
  0
VERTEX
  8
E15XLIFTS
 62
6
 10
-1598.269
 20
-1345.883
 30
3725.900
 70
    32
  0
VERTEX
  8
E15XLIFTS
 62
6
 10
-1604.859
 20
-1339.915
 30
3725.900
 70
    32
  0
VERTEX
  8
E15XLIFTS
 62
6
 10
-1604.698
 20
-1336.161
 30
3725.900
 70
    32
  0
VERTEX
  8
E15XLIFTS
 62
6
 10
-1603.177
 20
-1334.992
 30
3725.900
 70
    32
  0
VERTEX
  8
E15XLIFTS
 62
6
 10
-1603.567
 20
-1325.520
 30
3725.898
 70
    32
  0
VERTEX
  8
E15XLIFTS
 62
6
 10
-1596.947
 20
-1320.516
 30
3725.896
 70
    32
  0
VERTEX
  8
E15XLIFTS
 62
6
 10
-1596.325
 20
-1314.205
 30
3725.897
 70
    32
  0
VERTEX
  8
E15XLIFTS
 62
6
 10
-1601.557
 20
-1305.804
 30
3725.898
 70
    32
  0
VERTEX
  8
E15XLIFTS
 62
6
 10
-1600.477
 20
-1295.139
 30
3725.872
 70
    32
  0
VERTEX
  8
E15XLIFTS
 62
6
 10
-1609.258
 20
-1284.871
 30
3725.916
 70
    32
  0
VERTEX
  8
E15XLIFTS
 62
6
 10
-1625.800
 20
-1276.643
 30
3725.922
 70
    32
  0
VERTEX
  8
E15XLIFTS
 62
6
 10
-1634.279
 20
-1275.412
 30
3725.900
 70
    32
  0
VERTEX
  8
E15XLIFTS
 62
6
 10
-1649.007
 20
-1252.061
 30
3725.900
 70
    32
  0
VERTEX
  8
E15XLIFTS
 62
6
 10
-1661.803
 20
-1235.529
 30
3725.900
 70
    32
  0
VERTEX
  8
E15XLIFTS
 62
6
 10
-1680.077
 20
-1239.903
 30
3725.900
 70
    32
  0
VERTEX
  8
E15XLIFTS
 62
6
 10
-1691.412
 20
-1230.434
 30
3725.900
 70
    32
  0
VERTEX
  8
E15XLIFTS
 62
6
 10
-1700.104
 20
-1237.444
 30
3725.900
 70
    32
  0
VERTEX
  8
E15XLIFTS
 62
6
 10
-1698.184
 20
-1239.879
 30
3725.900
 70
    32
  0
VERTEX
  8
E15XLIFTS
 62
6
 10
-1700.564
 20
-1250.287
 30
3725.900
 70
    32
  0
VERTEX
  8
E15XLIFTS
 62
6
 10
-1693.073
 20
-1256.729
 30
3725.900
 70
    32
  0
VERTEX
  8
E15XLIFTS
 62
6
 10
-1692.192
 20
-1263.821
 30
3725.900
 70
    32
  0
VERTEX
  8
E15XLIFTS
 62
6
 10
-1681.182
 20
-1286.056
 30
3725.900
 70
    32
  0
VERTEX
  8
E15XLIFTS
 62
6
 10
-1666.345
 20
-1294.964
 30
3725.900
 70
    32
  0
VERTEX
  8
E15XLIFTS
 62
6
 10
-1663.353
 20
-1302.235
 30
3725.900
 70
    32
  0
VERTEX
  8
E15XLIFTS
 62
6
 10
-1655.762
 20
-1303.477
 30
3725.900
 70
    32
  0
VERTEX
  8
E15XLIFTS
 62
6
 10
-1653.012
 20
-1305.789
 30
3725.900
 70
    32
  0
VERTEX
  8
E15XLIFTS
 62
6
 10
-1652.095
 20
-1315.298
 30
3725.900
 70
    32
  0
VERTEX
  8
E15XLIFTS
 62
6
 10
-1648.990
 20
-1322.578
 30
3725.900
 70
    32
  0
VERTEX
  8
E15XLIFTS
 62
6
 10
-1628.781
 20
-1328.859
 30
3725.900
 70
    32
  0
VERTEX
  8
E15XLIFTS
 62
6
 10
-1627.501
 20
-1344.484
 30
3725.900
 70
    32
  0
SEQEND
  8
E15XLIFTS
  0
POLYLINE
  8
E15XLIFTS
 62
6
 66
     1
 70
     9
  0
VERTEX
  8
E15XLIFTS
 62
6
 10
-487.574
 20
-659.381
 30
3718.795
 70
    32
  0
VERTEX
  8
E15XLIFTS
 62
6
 10
-488.741
 20
-683.931
 30
3718.982
 70
    32
  0
VERTEX
  8
E15XLIFTS
 62
6
 10
-500.782
 20
-696.937
 30
3719.478
 70
    32
  0
VERTEX
  8
E15XLIFTS
 62
6
 10
-498.294
 20
-710.923
 30
3719.930
 70
    32
  0
VERTEX
  8
E15XLIFTS
 62
6
 10
-503.000
 20
-719.492
 30
3720.081
 70
    32
  0
VERTEX
  8
E15XLIFTS
 62
6
 10
-498.566
 20
-726.509
 30
3720.326
 70
    32
  0
VERTEX
  8
E15XLIFTS
 62
6
 10
-497.701
 20
-731.929
 30
3720.464
 70
    32
  0
VERTEX
  8
E15XLIFTS
 62
6
 10
-494.752
 20
-750.419
 30
3724.945
 70
    32
  0
VERTEX
  8
E15XLIFTS
 62
6
 10
-491.815
 20
-750.092
 30
3725.057
 70
    32
  0
VERTEX
  8
E15XLIFTS
 62
6
 10
-480.278
 20
-766.558
 30
3729.714
 70
    32
  0
VERTEX
  8
E15XLIFTS
 62
6
 10
-474.736
 20
-787.796
 30
3735.139
 70
    32
  0
VERTEX
  8
E15XLIFTS
 62
6
 10
-480.046
 20
-795.327
 30
3736.652
 70
    32
  0
VERTEX
  8
E15XLIFTS
 62
6
 10
-481.076
 20
-800.471
 30
3737.835
 70
    32
  0
VERTEX
  8
E15XLIFTS
 62
6
 10
-489.245
 20
-811.523
 30
3740.069
 70
    32
  0
VERTEX
  8
E15XLIFTS
 62
6
 10
-481.603
 20
-822.545
 30
3741.124
 70
    32
  0
VERTEX
  8
E15XLIFTS
 62
6
 10
-472.419
 20
-831.320
 30
3741.124
 70
    32
  0
VERTEX
  8
E15XLIFTS
 62
6
 10
-461.696
 20
-832.273
 30
3741.124
 70
    32
  0
VERTEX
  8
E15XLIFTS
 62
6
 10
-459.803
 20
-809.394
 30
3741.124
 70
    32
  0
VERTEX
  8
E15XLIFTS
 62
6
 10
-459.098
 20
-801.814
 30
3739.357
 70
    32
  0
VERTEX
  8
E15XLIFTS
 62
6
 10
-461.102
 20
-792.466
 30
3737.021
 70
    32
  0
VERTEX
  8
E15XLIFTS
 62
6
 10
-469.848
 20
-773.421
 30
3732.022
 70
    32
  0
VERTEX
  8
E15XLIFTS
 62
6
 10
-466.705
 20
-771.566
 30
3731.782
 70
    32
  0
VERTEX
  8
E15XLIFTS
 62
6
 10
-473.919
 20
-754.788
 30
3727.427
 70
    32
  0
VERTEX
  8
E15XLIFTS
 62
6
 10
-474.523
 20
-744.144
 30
3724.882
 70
    32
  0
VERTEX
  8
E15XLIFTS
 62
6
 10
-469.989
 20
-741.517
 30
3724.601
 70
    32
  0
VERTEX
  8
E15XLIFTS
 62
6
 10
-476.732
 20
-727.483
 30
3720.819
 70
    32
  0
VERTEX
  8
E15XLIFTS
 62
6
 10
-480.179
 20
-720.308
 30
3720.486
 70
    32
  0
VERTEX
  8
E15XLIFTS
 62
6
 10
-482.727
 20
-702.702
 30
3719.597
 70
    32
  0
VERTEX
  8
E15XLIFTS
 62
6
 10
-478.654
 20
-697.543
 30
3719.387
 70
    32
  0
VERTEX
  8
E15XLIFTS
 62
6
 10
-474.690
 20
-681.890
 30
3717.679
 70
    32
  0
VERTEX
  8
E15XLIFTS
 62
6
 10
-471.442
 20
-681.667
 30
3717.267
 70
    32
  0
VERTEX
  8
E15XLIFTS
 62
6
 10
-467.056
 20
-676.466
 30
3716.724
 70
    32
  0
SEQEND
  8
E15XLIFTS
  0
POLYLINE
  8
E15XLIFTS
 62
5
 66
     1
 70
     9
  0
VERTEX
  8
E15XLIFTS
 62
5
 10
-116.338
 20
-1434.908
 30
3723.656
 70
    32
  0
VERTEX
  8
E15XLIFTS
 62
5
 10
-114.347
 20
-1438.870
 30
3723.546
 70
    32
  0
VERTEX
  8
E15XLIFTS
 62
5
 10
-107.040
 20
-1453.412
 30
3729.456
 70
    32
  0
VERTEX
  8
E15XLIFTS
 62
5
 10
-101.585
 20
-1457.596
 30
3731.889
 70
    32
  0
VERTEX
  8
E15XLIFTS
 62
5
 10
-96.802
 20
-1473.449
 30
3736.990
 70
    32
  0
VERTEX
  8
E15XLIFTS
 62
5
 10
-93.869
 20
-1489.983
 30
3736.508
 70
    32
  0
VERTEX
  8
E15XLIFTS
 62
5
 10
-82.290
 20
-1530.750
 30
3736.461
 70
    32
  0
VERTEX
  8
E15XLIFTS
 62
5
 10
-71.972
 20
-1535.123
 30
3736.460
 70
    32
  0
VERTEX
  8
E15XLIFTS
 62
5
 10
-69.881
 20
-1539.752
 30
3736.459
 70
    32
  0
VERTEX
  8
E15XLIFTS
 62
5
 10
-56.744
 20
-1534.421
 30
3736.459
 70
    32
  0
VERTEX
  8
E15XLIFTS
 62
5
 10
-49.675
 20
-1528.071
 30
3736.459
 70
    32
  0
VERTEX
  8
E15XLIFTS
 62
5
 10
-53.837
 20
-1523.242
 30
3736.459
 70
    32
  0
VERTEX
  8
E15XLIFTS
 62
5
 10
-52.200
 20
-1518.481
 30
3736.459
 70
    32
  0
VERTEX
  8
E15XLIFTS
 62
5
 10
-80.733
 20
-1495.153
 30
3736.459
 70
    32
  0
VERTEX
  8
E15XLIFTS
 62
5
 10
-85.555
 20
-1479.523
 30
3736.437
 70
    32
  0
VERTEX
  8
E15XLIFTS
 62
5
 10
-82.426
 20
-1474.505
 30
3736.397
 70
    32
  0
VERTEX
  8
E15XLIFTS
 62
5
 10
-85.176
 20
-1469.082
 30
3734.560
 70
    32
  0
VERTEX
  8
E15XLIFTS
 62
5
 10
-83.379
 20
-1461.177
 30
3731.266
 70
    32
  0
VERTEX
  8
E15XLIFTS
 62
5
 10
-88.925
 20
-1456.659
 30
3728.593
 70
    32
  0
VERTEX
  8
E15XLIFTS
 62
5
 10
-93.104
 20
-1447.997
 30
3726.323
 70
    32
  0
VERTEX
  8
E15XLIFTS
 62
5
 10
-82.396
 20
-1439.756
 30
3722.097
 70
    32
  0
VERTEX
  8
E15XLIFTS
 62
5
 10
-93.130
 20
-1427.611
 30
3721.495
 70
    32
  0
VERTEX
  8
E15XLIFTS
 62
5
 10
-100.270
 20
-1413.396
 30
3722.555
 70
    32
  0
VERTEX
  8
E15XLIFTS
 62
5
 10
-103.529
 20
-1404.099
 30
3722.841
 70
    32
  0
VERTEX
  8
E15XLIFTS
 62
5
 10
-109.668
 20
-1404.310
 30
3723.225
 70
    32
  0
VERTEX
  8
E15XLIFTS
 62
5
 10
-113.597
 20
-1407.665
 30
3723.443
 70
    32
  0
VERTEX
  8
E15XLIFTS
 62
5
 10
-111.989
 20
-1412.744
 30
3723.298
 70
    32
  0
VERTEX
  8
E15XLIFTS
 62
5
 10
-116.181
 20
-1417.893
 30
3723.437
 70
    32
  0
SEQEND
  8
E15XLIFTS
  0
POLYLINE
  8
E15XLIFTS
 62
5
 66
     1
 70
     9
  0
VERTEX
  8
E15XLIFTS
 62
5
 10
-129.328
 20
-1453.514
 30
3730.681
 70
    32
  0
VERTEX
  8
E15XLIFTS
 62
5
 10
-124.258
 20
-1454.389
 30
3731.735
 70
    32
  0
VERTEX
  8
E15XLIFTS
 62
5
 10
-116.980
 20
-1462.605
 30
3732.230
 70
    32
  0
VERTEX
  8
E15XLIFTS
 62
5
 10
-114.020
 20
-1469.868
 30
3732.230
 70
    32
  0
VERTEX
  8
E15XLIFTS
 62
5
 10
-116.332
 20
-1474.032
 30
3732.230
 70
    32
  0
VERTEX
  8
E15XLIFTS
 62
5
 10
-115.235
 20
-1475.827
 30
3732.230
 70
    32
  0
VERTEX
  8
E15XLIFTS
 62
5
 10
-123.079
 20
-1485.265
 30
3732.230
 70
    32
  0
VERTEX
  8
E15XLIFTS
 62
5
 10
-127.544
 20
-1476.496
 30
3732.230
 70
    32
  0
VERTEX
  8
E15XLIFTS
 62
5
 10
-130.756
 20
-1473.887
 30
3732.230
 70
    32
  0
VERTEX
  8
E15XLIFTS
 62
5
 10
-138.345
 20
-1476.932
 30
3731.438
 70
    32
  0
VERTEX
  8
E15XLIFTS
 62
5
 10
-141.467
 20
-1461.741
 30
3729.100
 70
    32
  0
VERTEX
  8
E15XLIFTS
 62
5
 10
-143.574
 20
-1452.561
 30
3729.037
 70
    32
  0
SEQEND
  8
E15XLIFTS
  0
POLYLINE
  8
E15XLIFTS
 62
3
 66
     1
 70
     9
  0
VERTEX
  8
E15XLIFTS
 62
3
 10
-722.637
 20
-154.177
 30
3704.760
 70
    32
  0
VERTEX
  8
E15XLIFTS
 62
3
 10
-726.906
 20
-142.059
 30
3704.760
 70
    32
  0
VERTEX
  8
E15XLIFTS
 62
3
 10
-708.136
 20
-127.627
 30
3704.760
 70
    32
  0
VERTEX
  8
E15XLIFTS
 62
3
 10
-705.443
 20
-117.042
 30
3704.760
 70
    32
  0
VERTEX
  8
E15XLIFTS
 62
3
 10
-689.734
 20
-112.709
 30
3704.760
 70
    32
  0
VERTEX
  8
E15XLIFTS
 62
3
 10
-687.016
 20
-98.253
 30
3704.760
 70
    32
  0
VERTEX
  8
E15XLIFTS
 62
3
 10
-696.180
 20
-74.479
 30
3704.760
 70
    32
  0
VERTEX
  8
E15XLIFTS
 62
3
 10
-704.025
 20
-50.643
 30
3704.760
 70
    32
  0
VERTEX
  8
E15XLIFTS
 62
3
 10
-685.026
 20
-50.825
 30
3704.760
 70
    32
  0
VERTEX
  8
E15XLIFTS
 62
3
 10
-678.254
 20
-68.663
 30
3704.760
 70
    32
  0
VERTEX
  8
E15XLIFTS
 62
3
 10
-676.298
 20
-92.721
 30
3704.760
 70
    32
  0
VERTEX
  8
E15XLIFTS
 62
3
 10
-675.535
 20
-106.264
 30
3704.760
 70
    32
  0
VERTEX
  8
E15XLIFTS
 62
3
 10
-679.322
 20
-120.320
 30
3704.760
 70
    32
  0
VERTEX
  8
E15XLIFTS
 62
3
 10
-683.350
 20
-135.104
 30
3704.760
 70
    32
  0
VERTEX
  8
E15XLIFTS
 62
3
 10
-682.710
 20
-177.382
 30
3704.760
 70
    32
  0
VERTEX
  8
E15XLIFTS
 62
3
 10
-686.069
 20
-192.725
 30
3704.760
 70
    32
  0
VERTEX
  8
E15XLIFTS
 62
3
 10
-683.754
 20
-199.725
 30
3704.760
 70
    32
  0
VERTEX
  8
E15XLIFTS
 62
3
 10
-684.203
 20
-216.576
 30
3704.760
 70
    32
  0
VERTEX
  8
E15XLIFTS
 62
3
 10
-698.219
 20
-217.990
 30
3704.760
 70
    32
  0
VERTEX
  8
E15XLIFTS
 62
3
 10
-700.067
 20
-210.691
 30
3704.760
 70
    32
  0
VERTEX
  8
E15XLIFTS
 62
3
 10
-714.251
 20
-206.817
 30
3704.760
 70
    32
  0
VERTEX
  8
E15XLIFTS
 62
3
 10
-716.089
 20
-201.628
 30
3704.760
 70
    32
  0
VERTEX
  8
E15XLIFTS
 62
3
 10
-721.240
 20
-192.383
 30
3704.760
 70
    32
  0
VERTEX
  8
E15XLIFTS
 62
3
 10
-722.863
 20
-189.408
 30
3704.760
 70
    32
  0
VERTEX
  8
E15XLIFTS
 62
3
 10
-718.455
 20
-184.745
 30
3704.760
 70
    32
  0
VERTEX
  8
E15XLIFTS
 62
3
 10
-721.244
 20
-180.772
 30
3704.760
 70
    32
  0
VERTEX
  8
E15XLIFTS
 62
3
 10
-720.474
 20
-176.415
 30
3704.760
 70
    32
  0
VERTEX
  8
E15XLIFTS
 62
3
 10
-722.727
 20
-174.360
 30
3704.760
 70
    32
  0
SEQEND
  8
E15XLIFTS
  0
POLYLINE
  8
E15XLIFTS
 62
5
 66
     1
 70
     9
  0
VERTEX
  8
E15XLIFTS
 62
5
 10
-723.544
 20
-153.776
 30
3710.000
 70
    32
  0
VERTEX
  8
E15XLIFTS
 62
5
 10
-727.739
 20
-142.139
 30
3710.000
 70
    32
  0
VERTEX
  8
E15XLIFTS
 62
5
 10
-715.071
 20
-127.592
 30
3710.000
 70
    32
  0
VERTEX
  8
E15XLIFTS
 62
5
 10
-713.092
 20
-120.198
 30
3710.000
 70
    32
  0
VERTEX
  8
E15XLIFTS
 62
5
 10
-709.423
 20
-117.706
 30
3710.000
 70
    32
  0
VERTEX
  8
E15XLIFTS
 62
5
 10
-697.066
 20
-120.179
 30
3710.000
 70
    32
  0
VERTEX
  8
E15XLIFTS
 62
5
 10
-689.231
 20
-125.253
 30
3710.000
 70
    32
  0
VERTEX
  8
E15XLIFTS
 62
5
 10
-681.250
 20
-121.674
 30
3710.000
 70
    32
  0
VERTEX
  8
E15XLIFTS
 62
5
 10
-680.348
 20
-118.773
 30
3710.000
 70
    32
  0
VERTEX
  8
E15XLIFTS
 62
5
 10
-683.911
 20
-93.606
 30
3710.000
 70
    32
  0
VERTEX
  8
E15XLIFTS
 62
5
 10
-689.220
 20
-73.846
 30
3710.000
 70
    32
  0
VERTEX
  8
E15XLIFTS
 62
5
 10
-681.183
 20
-70.278
 30
3710.000
 70
    32
  0
VERTEX
  8
E15XLIFTS
 62
5
 10
-671.470
 20
-70.488
 30
3710.000
 70
    32
  0
VERTEX
  8
E15XLIFTS
 62
5
 10
-669.637
 20
-79.325
 30
3710.000
 70
    32
  0
VERTEX
  8
E15XLIFTS
 62
5
 10
-667.549
 20
-85.308
 30
3710.000
 70
    32
  0
VERTEX
  8
E15XLIFTS
 62
5
 10
-668.507
 20
-92.414
 30
3710.000
 70
    32
  0
VERTEX
  8
E15XLIFTS
 62
5
 10
-668.728
 20
-101.131
 30
3710.000
 70
    32
  0
VERTEX
  8
E15XLIFTS
 62
5
 10
-667.848
 20
-111.923
 30
3710.000
 70
    32
  0
VERTEX
  8
E15XLIFTS
 62
5
 10
-670.381
 20
-122.972
 30
3710.000
 70
    32
  0
VERTEX
  8
E15XLIFTS
 62
5
 10
-670.944
 20
-132.332
 30
3710.000
 70
    32
  0
VERTEX
  8
E15XLIFTS
 62
5
 10
-668.868
 20
-134.574
 30
3710.000
 70
    32
  0
VERTEX
  8
E15XLIFTS
 62
5
 10
-666.969
 20
-157.822
 30
3710.000
 70
    32
  0
VERTEX
  8
E15XLIFTS
 62
5
 10
-679.739
 20
-175.250
 30
3710.000
 70
    32
  0
VERTEX
  8
E15XLIFTS
 62
5
 10
-679.312
 20
-186.250
 30
3710.000
 70
    32
  0
VERTEX
  8
E15XLIFTS
 62
5
 10
-675.725
 20
-203.664
 30
3710.000
 70
    32
  0
VERTEX
  8
E15XLIFTS
 62
5
 10
-691.233
 20
-210.036
 30
3710.000
 70
    32
  0
VERTEX
  8
E15XLIFTS
 62
5
 10
-692.317
 20
-199.896
 30
3710.000
 70
    32
  0
VERTEX
  8
E15XLIFTS
 62
5
 10
-702.110
 20
-177.973
 30
3710.000
 70
    32
  0
VERTEX
  8
E15XLIFTS
 62
5
 10
-713.993
 20
-167.609
 30
3710.000
 70
    32
  0
SEQEND
  8
E15XLIFTS
  0
POLYLINE
  8
E15XLIFTS
 62
1
 66
     1
 70
     9
  0
VERTEX
  8
E15XLIFTS
 62
1
 10
-607.157
 20
-637.744
 30
3810.486
 70
    32
  0
VERTEX
  8
E15XLIFTS
 62
1
 10
-603.622
 20
-634.403
 30
3810.486
 70
    32
  0
VERTEX
  8
E15XLIFTS
 62
1
 10
-599.715
 20
-633.311
 30
3810.486
 70
    32
  0
VERTEX
  8
E15XLIFTS
 62
1
 10
-595.790
 20
-631.270
 30
3810.486
 70
    32
  0
VERTEX
  8
E15XLIFTS
 62
1
 10
-592.645
 20
-627.422
 30
3810.486
 70
    32
  0
VERTEX
  8
E15XLIFTS
 62
1
 10
-590.510
 20
-622.269
 30
3810.486
 70
    32
  0
VERTEX
  8
E15XLIFTS
 62
1
 10
-589.110
 20
-616.052
 30
3810.486
 70
    32
  0
VERTEX
  8
E15XLIFTS
 62
1
 10
-587.580
 20
-609.443
 30
3810.486
 70
    32
  0
VERTEX
  8
E15XLIFTS
 62
1
 10
-586.902
 20
-602.257
 30
3810.486
 70
    32
  0
VERTEX
  8
E15XLIFTS
 62
1
 10
-589.489
 20
-596.487
 30
3810.486
 70
    32
  0
VERTEX
  8
E15XLIFTS
 62
1
 10
-591.455
 20
-590.925
 30
3810.486
 70
    32
  0
VERTEX
  8
E15XLIFTS
 62
1
 10
-593.356
 20
-583.406
 30
3810.486
 70
    32
  0
VERTEX
  8
E15XLIFTS
 62
1
 10
-599.600
 20
-572.666
 30
3810.486
 70
    32
  0
VERTEX
  8
E15XLIFTS
 62
1
 10
-606.141
 20
-563.417
 30
3810.486
 70
    32
  0
VERTEX
  8
E15XLIFTS
 62
1
 10
-608.943
 20
-555.607
 30
3810.486
 70
    32
  0
VERTEX
  8
E15XLIFTS
 62
1
 10
-616.552
 20
-562.594
 30
3810.486
 70
    32
  0
VERTEX
  8
E15XLIFTS
 62
1
 10
-624.457
 20
-570.854
 30
3810.486
 70
    32
  0
VERTEX
  8
E15XLIFTS
 62
1
 10
-630.607
 20
-576.520
 30
3810.486
 70
    32
  0
VERTEX
  8
E15XLIFTS
 62
1
 10
-633.762
 20
-584.693
 30
3810.486
 70
    32
  0
VERTEX
  8
E15XLIFTS
 62
1
 10
-635.372
 20
-588.192
 30
3810.486
 70
    32
  0
VERTEX
  8
E15XLIFTS
 62
1
 10
-635.676
 20
-592.587
 30
3810.486
 70
    32
  0
VERTEX
  8
E15XLIFTS
 62
1
 10
-629.730
 20
-598.577
 30
3810.486
 70
    32
  0
VERTEX
  8
E15XLIFTS
 62
1
 10
-620.933
 20
-614.111
 30
3810.486
 70
    32
  0
VERTEX
  8
E15XLIFTS
 62
1
 10
-616.856
 20
-620.284
 30
3810.486
 70
    32
  0
VERTEX
  8
E15XLIFTS
 62
1
 10
-616.895
 20
-625.816
 30
3810.486
 70
    32
  0
SEQEND
  8
E15XLIFTS
  0
POLYLINE
  8
E15XLIFTS
 62
1
 66
     1
 70
     9
  0
VERTEX
  8
E15XLIFTS
 62
1
 10
-606.453
 20
-635.079
 30
3815.046
 70
    32
  0
VERTEX
  8
E15XLIFTS
 62
1
 10
-595.326
 20
-629.214
 30
3815.046
 70
    32
  0
VERTEX
  8
E15XLIFTS
 62
1
 10
-592.728
 20
-621.904
 30
3815.046
 70
    32
  0
VERTEX
  8
E15XLIFTS
 62
1
 10
-594.135
 20
-618.458
 30
3815.046
 70
    32
  0
VERTEX
  8
E15XLIFTS
 62
1
 10
-589.724
 20
-613.626
 30
3815.046
 70
    32
  0
VERTEX
  8
E15XLIFTS
 62
1
 10
-584.493
 20
-605.859
 30
3815.046
 70
    32
  0
VERTEX
  8
E15XLIFTS
 62
1
 10
-582.875
 20
-599.988
 30
3815.046
 70
    32
  0
VERTEX
  8
E15XLIFTS
 62
1
 10
-586.936
 20
-592.778
 30
3815.046
 70
    32
  0
VERTEX
  8
E15XLIFTS
 62
1
 10
-591.022
 20
-586.780
 30
3815.046
 70
    32
  0
VERTEX
  8
E15XLIFTS
 62
1
 10
-594.034
 20
-580.242
 30
3815.046
 70
    32
  0
VERTEX
  8
E15XLIFTS
 62
1
 10
-597.918
 20
-577.401
 30
3815.046
 70
    32
  0
VERTEX
  8
E15XLIFTS
 62
1
 10
-603.791
 20
-570.240
 30
3815.046
 70
    32
  0
VERTEX
  8
E15XLIFTS
 62
1
 10
-605.659
 20
-565.715
 30
3815.046
 70
    32
  0
VERTEX
  8
E15XLIFTS
 62
1
 10
-611.222
 20
-564.422
 30
3815.046
 70
    32
  0
VERTEX
  8
E15XLIFTS
 62
1
 10
-627.496
 20
-573.673
 30
3815.046
 70
    32
  0
VERTEX
  8
E15XLIFTS
 62
1
 10
-635.224
 20
-579.618
 30
3815.046
 70
    32
  0
VERTEX
  8
E15XLIFTS
 62
1
 10
-636.383
 20
-584.973
 30
3815.046
 70
    32
  0
VERTEX
  8
E15XLIFTS
 62
1
 10
-636.813
 20
-591.404
 30
3815.046
 70
    32
  0
VERTEX
  8
E15XLIFTS
 62
1
 10
-630.247
 20
-598.925
 30
3815.046
 70
    32
  0
VERTEX
  8
E15XLIFTS
 62
1
 10
-625.912
 20
-607.628
 30
3815.046
 70
    32
  0
VERTEX
  8
E15XLIFTS
 62
1
 10
-620.248
 20
-619.015
 30
3815.046
 70
    32
  0
VERTEX
  8
E15XLIFTS
 62
1
 10
-618.582
 20
-624.503
 30
3815.046
 70
    32
  0
VERTEX
  8
E15XLIFTS
 62
1
 10
-614.569
 20
-631.731
 30
3815.046
 70
    32
  0
VERTEX
  8
E15XLIFTS
 62
1
 10
-610.601
 20
-634.672
 30
3815.046
 70
    32
  0
SEQEND
  8
E15XLIFTS
  0
POLYLINE
  8
E15XLIFTS
 62
1
 66
     1
 70
     9
  0
VERTEX
  8
E15XLIFTS
 62
1
 10
-606.533
 20
-635.311
 30
3819.605
 70
    32
  0
VERTEX
  8
E15XLIFTS
 62
1
 10
-595.086
 20
-629.574
 30
3819.605
 70
    32
  0
VERTEX
  8
E15XLIFTS
 62
1
 10
-594.682
 20
-620.706
 30
3819.605
 70
    32
  0
VERTEX
  8
E15XLIFTS
 62
1
 10
-592.946
 20
-615.341
 30
3819.605
 70
    32
  0
VERTEX
  8
E15XLIFTS
 62
1
 10
-587.340
 20
-608.264
 30
3819.605
 70
    32
  0
VERTEX
  8
E15XLIFTS
 62
1
 10
-585.068
 20
-600.420
 30
3819.605
 70
    32
  0
VERTEX
  8
E15XLIFTS
 62
1
 10
-595.561
 20
-585.547
 30
3819.605
 70
    32
  0
VERTEX
  8
E15XLIFTS
 62
1
 10
-601.218
 20
-576.277
 30
3819.605
 70
    32
  0
VERTEX
  8
E15XLIFTS
 62
1
 10
-606.254
 20
-569.557
 30
3819.605
 70
    32
  0
VERTEX
  8
E15XLIFTS
 62
1
 10
-609.234
 20
-567.006
 30
3819.605
 70
    32
  0
VERTEX
  8
E15XLIFTS
 62
1
 10
-613.344
 20
-567.890
 30
3819.605
 70
    32
  0
VERTEX
  8
E15XLIFTS
 62
1
 10
-618.209
 20
-568.173
 30
3819.605
 70
    32
  0
VERTEX
  8
E15XLIFTS
 62
1
 10
-632.925
 20
-576.285
 30
3819.605
 70
    32
  0
VERTEX
  8
E15XLIFTS
 62
1
 10
-636.648
 20
-577.590
 30
3819.605
 70
    32
  0
VERTEX
  8
E15XLIFTS
 62
1
 10
-639.210
 20
-583.442
 30
3819.605
 70
    32
  0
VERTEX
  8
E15XLIFTS
 62
1
 10
-639.340
 20
-589.998
 30
3819.605
 70
    32
  0
VERTEX
  8
E15XLIFTS
 62
1
 10
-629.559
 20
-606.316
 30
3819.605
 70
    32
  0
VERTEX
  8
E15XLIFTS
 62
1
 10
-623.530
 20
-616.504
 30
3819.605
 70
    32
  0
VERTEX
  8
E15XLIFTS
 62
1
 10
-621.677
 20
-623.961
 30
3819.605
 70
    32
  0
VERTEX
  8
E15XLIFTS
 62
1
 10
-615.079
 20
-633.488
 30
3819.605
 70
    32
  0
SEQEND
  8
E15XLIFTS
  0
POLYLINE
  8
E15XLIFTS
 62
1
 66
     1
 70
     9
  0
VERTEX
  8
E15XLIFTS
 62
1
 10
-608.750
 20
-635.472
 30
3824.164
 70
    32
  0
VERTEX
  8
E15XLIFTS
 62
1
 10
-604.072
 20
-634.574
 30
3824.164
 70
    32
  0
VERTEX
  8
E15XLIFTS
 62
1
 10
-599.762
 20
-632.555
 30
3824.164
 70
    32
  0
VERTEX
  8
E15XLIFTS
 62
1
 10
-595.843
 20
-630.238
 30
3824.164
 70
    32
  0
VERTEX
  8
E15XLIFTS
 62
1
 10
-595.460
 20
-627.103
 30
3824.164
 70
    32
  0
VERTEX
  8
E15XLIFTS
 62
1
 10
-596.193
 20
-622.021
 30
3824.164
 70
    32
  0
VERTEX
  8
E15XLIFTS
 62
1
 10
-592.793
 20
-609.951
 30
3824.164
 70
    32
  0
VERTEX
  8
E15XLIFTS
 62
1
 10
-589.224
 20
-606.220
 30
3824.164
 70
    32
  0
VERTEX
  8
E15XLIFTS
 62
1
 10
-586.887
 20
-602.848
 30
3824.164
 70
    32
  0
VERTEX
  8
E15XLIFTS
 62
1
 10
-588.724
 20
-598.766
 30
3824.164
 70
    32
  0
VERTEX
  8
E15XLIFTS
 62
1
 10
-599.304
 20
-584.904
 30
3824.164
 70
    32
  0
VERTEX
  8
E15XLIFTS
 62
1
 10
-602.613
 20
-579.113
 30
3824.164
 70
    32
  0
VERTEX
  8
E15XLIFTS
 62
1
 10
-606.814
 20
-573.434
 30
3824.164
 70
    32
  0
VERTEX
  8
E15XLIFTS
 62
1
 10
-611.981
 20
-569.783
 30
3824.164
 70
    32
  0
VERTEX
  8
E15XLIFTS
 62
1
 10
-616.228
 20
-569.502
 30
3824.164
 70
    32
  0
VERTEX
  8
E15XLIFTS
 62
1
 10
-621.041
 20
-572.215
 30
3824.164
 70
    32
  0
VERTEX
  8
E15XLIFTS
 62
1
 10
-627.376
 20
-573.304
 30
3824.164
 70
    32
  0
VERTEX
  8
E15XLIFTS
 62
1
 10
-636.364
 20
-576.822
 30
3824.164
 70
    32
  0
VERTEX
  8
E15XLIFTS
 62
1
 10
-640.396
 20
-579.105
 30
3824.164
 70
    32
  0
VERTEX
  8
E15XLIFTS
 62
1
 10
-642.113
 20
-585.262
 30
3824.164
 70
    32
  0
VERTEX
  8
E15XLIFTS
 62
1
 10
-641.466
 20
-591.283
 30
3824.164
 70
    32
  0
VERTEX
  8
E15XLIFTS
 62
1
 10
-635.320
 20
-601.019
 30
3824.164
 70
    32
  0
VERTEX
  8
E15XLIFTS
 62
1
 10
-629.670
 20
-610.500
 30
3824.164
 70
    32
  0
VERTEX
  8
E15XLIFTS
 62
1
 10
-625.004
 20
-618.715
 30
3824.164
 70
    32
  0
VERTEX
  8
E15XLIFTS
 62
1
 10
-622.467
 20
-626.863
 30
3824.164
 70
    32
  0
VERTEX
  8
E15XLIFTS
 62
1
 10
-618.282
 20
-631.312
 30
3824.164
 70
    32
  0
VERTEX
  8
E15XLIFTS
 62
1
 10
-615.548
 20
-634.329
 30
3824.164
 70
    32
  0
SEQEND
  8
E15XLIFTS
  0
POLYLINE
  8
E15XLIFTS
 62
1
 66
     1
 70
     9
  0
VERTEX
  8
E15XLIFTS
 62
1
 10
-606.826
 20
-636.014
 30
3828.723
 70
    32
  0
VERTEX
  8
E15XLIFTS
 62
1
 10
-596.479
 20
-631.170
 30
3828.723
 70
    32
  0
VERTEX
  8
E15XLIFTS
 62
1
 10
-596.199
 20
-628.128
 30
3828.723
 70
    32
  0
VERTEX
  8
E15XLIFTS
 62
1
 10
-597.731
 20
-621.747
 30
3828.723
 70
    32
  0
VERTEX
  8
E15XLIFTS
 62
1
 10
-593.094
 20
-615.902
 30
3828.723
 70
    32
  0
VERTEX
  8
E15XLIFTS
 62
1
 10
-591.215
 20
-607.416
 30
3828.723
 70
    32
  0
VERTEX
  8
E15XLIFTS
 62
1
 10
-588.717
 20
-603.180
 30
3828.723
 70
    32
  0
VERTEX
  8
E15XLIFTS
 62
1
 10
-596.682
 20
-594.371
 30
3828.723
 70
    32
  0
VERTEX
  8
E15XLIFTS
 62
1
 10
-601.481
 20
-588.289
 30
3828.723
 70
    32
  0
VERTEX
  8
E15XLIFTS
 62
1
 10
-606.476
 20
-579.209
 30
3828.723
 70
    32
  0
VERTEX
  8
E15XLIFTS
 62
1
 10
-610.105
 20
-575.131
 30
3828.723
 70
    32
  0
VERTEX
  8
E15XLIFTS
 62
1
 10
-615.823
 20
-572.963
 30
3828.723
 70
    32
  0
VERTEX
  8
E15XLIFTS
 62
1
 10
-627.276
 20
-574.040
 30
3828.723
 70
    32
  0
VERTEX
  8
E15XLIFTS
 62
1
 10
-642.857
 20
-579.004
 30
3828.723
 70
    32
  0
VERTEX
  8
E15XLIFTS
 62
1
 10
-646.221
 20
-581.725
 30
3828.723
 70
    32
  0
VERTEX
  8
E15XLIFTS
 62
1
 10
-644.847
 20
-589.375
 30
3828.723
 70
    32
  0
VERTEX
  8
E15XLIFTS
 62
1
 10
-642.210
 20
-595.864
 30
3828.723
 70
    32
  0
VERTEX
  8
E15XLIFTS
 62
1
 10
-636.242
 20
-602.957
 30
3828.723
 70
    32
  0
VERTEX
  8
E15XLIFTS
 62
1
 10
-632.516
 20
-609.448
 30
3828.723
 70
    32
  0
VERTEX
  8
E15XLIFTS
 62
1
 10
-627.959
 20
-617.260
 30
3828.723
 70
    32
  0
VERTEX
  8
E15XLIFTS
 62
1
 10
-625.848
 20
-624.533
 30
3828.723
 70
    32
  0
VERTEX
  8
E15XLIFTS
 62
1
 10
-624.692
 20
-627.891
 30
3828.723
 70
    32
  0
VERTEX
  8
E15XLIFTS
 62
1
 10
-620.224
 20
-630.937
 30
3828.723
 70
    32
  0
VERTEX
  8
E15XLIFTS
 62
1
 10
-615.744
 20
-634.941
 30
3828.723
 70
    32
  0
SEQEND
  8
E15XLIFTS
  0
POLYLINE
  8
E15XLIFTS
 62
1
 66
     1
 70
     9
  0
VERTEX
  8
E15XLIFTS
 62
1
 10
-608.728
 20
-637.089
 30
3833.283
 70
    32
  0
VERTEX
  8
E15XLIFTS
 62
1
 10
-596.083
 20
-630.558
 30
3833.283
 70
    32
  0
VERTEX
  8
E15XLIFTS
 62
1
 10
-597.992
 20
-626.379
 30
3833.283
 70
    32
  0
VERTEX
  8
E15XLIFTS
 62
1
 10
-598.170
 20
-620.473
 30
3833.283
 70
    32
  0
VERTEX
  8
E15XLIFTS
 62
1
 10
-593.899
 20
-615.930
 30
3833.283
 70
    32
  0
VERTEX
  8
E15XLIFTS
 62
1
 10
-590.502
 20
-608.902
 30
3833.283
 70
    32
  0
VERTEX
  8
E15XLIFTS
 62
1
 10
-591.088
 20
-604.803
 30
3833.283
 70
    32
  0
VERTEX
  8
E15XLIFTS
 62
1
 10
-596.178
 20
-598.127
 30
3833.283
 70
    32
  0
VERTEX
  8
E15XLIFTS
 62
1
 10
-602.626
 20
-590.017
 30
3833.283
 70
    32
  0
VERTEX
  8
E15XLIFTS
 62
1
 10
-612.974
 20
-576.855
 30
3833.283
 70
    32
  0
VERTEX
  8
E15XLIFTS
 62
1
 10
-619.227
 20
-575.868
 30
3833.283
 70
    32
  0
VERTEX
  8
E15XLIFTS
 62
1
 10
-629.611
 20
-574.382
 30
3833.283
 70
    32
  0
VERTEX
  8
E15XLIFTS
 62
1
 10
-649.578
 20
-582.439
 30
3833.283
 70
    32
  0
VERTEX
  8
E15XLIFTS
 62
1
 10
-649.889
 20
-585.694
 30
3833.283
 70
    32
  0
VERTEX
  8
E15XLIFTS
 62
1
 10
-645.554
 20
-596.151
 30
3833.283
 70
    32
  0
VERTEX
  8
E15XLIFTS
 62
1
 10
-638.798
 20
-601.870
 30
3833.283
 70
    32
  0
VERTEX
  8
E15XLIFTS
 62
1
 10
-633.020
 20
-612.964
 30
3833.283
 70
    32
  0
VERTEX
  8
E15XLIFTS
 62
1
 10
-629.165
 20
-622.145
 30
3833.283
 70
    32
  0
VERTEX
  8
E15XLIFTS
 62
1
 10
-627.495
 20
-628.387
 30
3833.283
 70
    32
  0
VERTEX
  8
E15XLIFTS
 62
1
 10
-623.613
 20
-629.510
 30
3833.283
 70
    32
  0
VERTEX
  8
E15XLIFTS
 62
1
 10
-618.327
 20
-634.546
 30
3833.283
 70
    32
  0
SEQEND
  8
E15XLIFTS
  0
POLYLINE
  8
E15XLIFTS
 62
1
 66
     1
 70
     9
  0
VERTEX
  8
E15XLIFTS
 62
1
 10
-609.831
 20
-637.429
 30
3837.842
 70
    32
  0
VERTEX
  8
E15XLIFTS
 62
1
 10
-600.736
 20
-633.107
 30
3837.842
 70
    32
  0
VERTEX
  8
E15XLIFTS
 62
1
 10
-597.042
 20
-631.419
 30
3837.842
 70
    32
  0
VERTEX
  8
E15XLIFTS
 62
1
 10
-598.729
 20
-625.711
 30
3837.842
 70
    32
  0
VERTEX
  8
E15XLIFTS
 62
1
 10
-599.024
 20
-620.498
 30
3837.842
 70
    32
  0
VERTEX
  8
E15XLIFTS
 62
1
 10
-595.586
 20
-615.946
 30
3837.842
 70
    32
  0
VERTEX
  8
E15XLIFTS
 62
1
 10
-593.790
 20
-606.709
 30
3837.842
 70
    32
  0
VERTEX
  8
E15XLIFTS
 62
1
 10
-603.995
 20
-593.967
 30
3837.842
 70
    32
  0
VERTEX
  8
E15XLIFTS
 62
1
 10
-606.205
 20
-588.227
 30
3837.842
 70
    32
  0
VERTEX
  8
E15XLIFTS
 62
1
 10
-613.196
 20
-579.661
 30
3837.842
 70
    32
  0
VERTEX
  8
E15XLIFTS
 62
1
 10
-615.799
 20
-577.113
 30
3837.842
 70
    32
  0
VERTEX
  8
E15XLIFTS
 62
1
 10
-620.987
 20
-578.595
 30
3837.842
 70
    32
  0
VERTEX
  8
E15XLIFTS
 62
1
 10
-631.716
 20
-574.958
 30
3837.842
 70
    32
  0
VERTEX
  8
E15XLIFTS
 62
1
 10
-653.169
 20
-583.587
 30
3837.842
 70
    32
  0
VERTEX
  8
E15XLIFTS
 62
1
 10
-650.917
 20
-590.167
 30
3837.842
 70
    32
  0
VERTEX
  8
E15XLIFTS
 62
1
 10
-646.028
 20
-596.911
 30
3837.842
 70
    32
  0
VERTEX
  8
E15XLIFTS
 62
1
 10
-641.533
 20
-602.854
 30
3837.842
 70
    32
  0
VERTEX
  8
E15XLIFTS
 62
1
 10
-635.461
 20
-612.611
 30
3837.842
 70
    32
  0
VERTEX
  8
E15XLIFTS
 62
1
 10
-631.368
 20
-621.875
 30
3837.842
 70
    32
  0
VERTEX
  8
E15XLIFTS
 62
1
 10
-627.855
 20
-628.774
 30
3837.842
 70
    32
  0
VERTEX
  8
E15XLIFTS
 62
1
 10
-623.576
 20
-629.519
 30
3837.842
 70
    32
  0
VERTEX
  8
E15XLIFTS
 62
1
 10
-619.314
 20
-634.984
 30
3837.842
 70
    32
  0
VERTEX
  8
E15XLIFTS
 62
1
 10
-614.517
 20
-636.672
 30
3837.842
 70
    32
  0
SEQEND
  8
E15XLIFTS
  0
POLYLINE
  8
E15XLIFTS
 62
1
 66
     1
 70
     9
  0
VERTEX
  8
E15XLIFTS
 62
1
 10
-603.600
 20
-632.656
 30
3842.401
 70
    32
  0
VERTEX
  8
E15XLIFTS
 62
1
 10
-600.475
 20
-628.420
 30
3842.401
 70
    32
  0
VERTEX
  8
E15XLIFTS
 62
1
 10
-602.728
 20
-618.985
 30
3842.401
 70
    32
  0
VERTEX
  8
E15XLIFTS
 62
1
 10
-604.143
 20
-614.267
 30
3842.401
 70
    32
  0
VERTEX
  8
E15XLIFTS
 62
1
 10
-600.777
 20
-605.004
 30
3842.401
 70
    32
  0
VERTEX
  8
E15XLIFTS
 62
1
 10
-601.408
 20
-601.372
 30
3842.401
 70
    32
  0
VERTEX
  8
E15XLIFTS
 62
1
 10
-607.838
 20
-593.969
 30
3842.401
 70
    32
  0
VERTEX
  8
E15XLIFTS
 62
1
 10
-612.699
 20
-584.207
 30
3842.401
 70
    32
  0
VERTEX
  8
E15XLIFTS
 62
1
 10
-615.795
 20
-583.802
 30
3842.401
 70
    32
  0
VERTEX
  8
E15XLIFTS
 62
1
 10
-621.908
 20
-580.273
 30
3842.401
 70
    32
  0
VERTEX
  8
E15XLIFTS
 62
1
 10
-633.445
 20
-575.200
 30
3842.401
 70
    32
  0
VERTEX
  8
E15XLIFTS
 62
1
 10
-640.795
 20
-578.197
 30
3842.401
 70
    32
  0
VERTEX
  8
E15XLIFTS
 62
1
 10
-647.391
 20
-582.031
 30
3842.401
 70
    32
  0
VERTEX
  8
E15XLIFTS
 62
1
 10
-650.771
 20
-586.377
 30
3842.401
 70
    32
  0
VERTEX
  8
E15XLIFTS
 62
1
 10
-651.851
 20
-593.217
 30
3842.401
 70
    32
  0
VERTEX
  8
E15XLIFTS
 62
1
 10
-646.090
 20
-598.860
 30
3842.401
 70
    32
  0
VERTEX
  8
E15XLIFTS
 62
1
 10
-640.802
 20
-603.963
 30
3842.401
 70
    32
  0
VERTEX
  8
E15XLIFTS
 62
1
 10
-637.870
 20
-613.268
 30
3842.401
 70
    32
  0
VERTEX
  8
E15XLIFTS
 62
1
 10
-633.396
 20
-620.456
 30
3842.401
 70
    32
  0
VERTEX
  8
E15XLIFTS
 62
1
 10
-629.445
 20
-625.144
 30
3842.401
 70
    32
  0
VERTEX
  8
E15XLIFTS
 62
1
 10
-624.402
 20
-625.682
 30
3842.401
 70
    32
  0
VERTEX
  8
E15XLIFTS
 62
1
 10
-614.618
 20
-631.698
 30
3842.401
 70
    32
  0
VERTEX
  8
E15XLIFTS
 62
1
 10
-608.544
 20
-633.674
 30
3842.401
 70
    32
  0
SEQEND
  8
E15XLIFTS
  0
POLYLINE
  8
E15XLIFTS
 62
1
 66
     1
 70
     9
  0
VERTEX
  8
E15XLIFTS
 62
1
 10
-623.896
 20
-617.442
 30
3846.961
 70
    32
  0
VERTEX
  8
E15XLIFTS
 62
1
 10
-617.055
 20
-610.004
 30
3846.961
 70
    32
  0
VERTEX
  8
E15XLIFTS
 62
1
 10
-613.205
 20
-610.364
 30
3846.961
 70
    32
  0
VERTEX
  8
E15XLIFTS
 62
1
 10
-610.923
 20
-611.488
 30
3846.961
 70
    32
  0
VERTEX
  8
E15XLIFTS
 62
1
 10
-607.260
 20
-607.809
 30
3846.961
 70
    32
  0
VERTEX
  8
E15XLIFTS
 62
1
 10
-606.333
 20
-605.256
 30
3846.961
 70
    32
  0
VERTEX
  8
E15XLIFTS
 62
1
 10
-608.998
 20
-599.155
 30
3846.961
 70
    32
  0
VERTEX
  8
E15XLIFTS
 62
1
 10
-616.772
 20
-588.158
 30
3846.961
 70
    32
  0
VERTEX
  8
E15XLIFTS
 62
1
 10
-621.945
 20
-583.079
 30
3846.961
 70
    32
  0
VERTEX
  8
E15XLIFTS
 62
1
 10
-626.957
 20
-580.163
 30
3846.961
 70
    32
  0
VERTEX
  8
E15XLIFTS
 62
1
 10
-630.998
 20
-580.122
 30
3846.961
 70
    32
  0
VERTEX
  8
E15XLIFTS
 62
1
 10
-632.558
 20
-576.706
 30
3846.961
 70
    32
  0
VERTEX
  8
E15XLIFTS
 62
1
 10
-634.994
 20
-576.197
 30
3846.961
 70
    32
  0
VERTEX
  8
E15XLIFTS
 62
1
 10
-639.701
 20
-578.412
 30
3846.961
 70
    32
  0
VERTEX
  8
E15XLIFTS
 62
1
 10
-643.520
 20
-580.946
 30
3846.961
 70
    32
  0
VERTEX
  8
E15XLIFTS
 62
1
 10
-646.117
 20
-585.763
 30
3846.961
 70
    32
  0
VERTEX
  8
E15XLIFTS
 62
1
 10
-651.513
 20
-590.959
 30
3846.961
 70
    32
  0
VERTEX
  8
E15XLIFTS
 62
1
 10
-650.084
 20
-595.571
 30
3846.961
 70
    32
  0
VERTEX
  8
E15XLIFTS
 62
1
 10
-649.182
 20
-599.431
 30
3846.961
 70
    32
  0
VERTEX
  8
E15XLIFTS
 62
1
 10
-645.343
 20
-600.072
 30
3846.961
 70
    32
  0
VERTEX
  8
E15XLIFTS
 62
1
 10
-642.000
 20
-600.926
 30
3846.961
 70
    32
  0
VERTEX
  8
E15XLIFTS
 62
1
 10
-638.297
 20
-607.406
 30
3846.961
 70
    32
  0
VERTEX
  8
E15XLIFTS
 62
1
 10
-634.100
 20
-610.251
 30
3846.961
 70
    32
  0
VERTEX
  8
E15XLIFTS
 62
1
 10
-627.853
 20
-616.568
 30
3846.961
 70
    32
  0
SEQEND
  8
E15XLIFTS
  0
POLYLINE
  8
E15XLIFTS
 62
1
 66
     1
 70
     9
  0
VERTEX
  8
E15XLIFTS
 62
1
 10
-1618.308
 20
-1349.281
 30
3742.000
 70
    32
  0
VERTEX
  8
E15XLIFTS
 62
1
 10
-1608.235
 20
-1365.416
 30
3742.000
 70
    32
  0
VERTEX
  8
E15XLIFTS
 62
1
 10
-1605.721
 20
-1364.930
 30
3742.000
 70
    32
  0
VERTEX
  8
E15XLIFTS
 62
1
 10
-1591.486
 20
-1390.761
 30
3742.000
 70
    32
  0
VERTEX
  8
E15XLIFTS
 62
1
 10
-1581.902
 20
-1390.393
 30
3742.000
 70
    32
  0
VERTEX
  8
E15XLIFTS
 62
1
 10
-1575.943
 20
-1399.756
 30
3742.000
 70
    32
  0
VERTEX
  8
E15XLIFTS
 62
1
 10
-1562.725
 20
-1392.575
 30
3742.000
 70
    32
  0
VERTEX
  8
E15XLIFTS
 62
1
 10
-1572.802
 20
-1379.191
 30
3742.000
 70
    32
  0
VERTEX
  8
E15XLIFTS
 62
1
 10
-1573.580
 20
-1371.590
 30
3742.000
 70
    32
  0
VERTEX
  8
E15XLIFTS
 62
1
 10
-1585.214
 20
-1356.432
 30
3742.000
 70
    32
  0
VERTEX
  8
E15XLIFTS
 62
1
 10
-1597.655
 20
-1348.672
 30
3742.000
 70
    32
  0
VERTEX
  8
E15XLIFTS
 62
1
 10
-1598.269
 20
-1345.883
 30
3742.000
 70
    32
  0
VERTEX
  8
E15XLIFTS
 62
1
 10
-1604.859
 20
-1339.915
 30
3742.000
 70
    32
  0
VERTEX
  8
E15XLIFTS
 62
1
 10
-1604.698
 20
-1336.161
 30
3742.000
 70
    32
  0
VERTEX
  8
E15XLIFTS
 62
1
 10
-1603.177
 20
-1334.992
 30
3742.000
 70
    32
  0
VERTEX
  8
E15XLIFTS
 62
1
 10
-1603.567
 20
-1325.520
 30
3741.998
 70
    32
  0
VERTEX
  8
E15XLIFTS
 62
1
 10
-1596.947
 20
-1320.516
 30
3741.996
 70
    32
  0
VERTEX
  8
E15XLIFTS
 62
1
 10
-1596.325
 20
-1314.205
 30
3741.997
 70
    32
  0
VERTEX
  8
E15XLIFTS
 62
1
 10
-1601.557
 20
-1305.804
 30
3741.998
 70
    32
  0
VERTEX
  8
E15XLIFTS
 62
1
 10
-1600.477
 20
-1295.139
 30
3741.972
 70
    32
  0
VERTEX
  8
E15XLIFTS
 62
1
 10
-1609.258
 20
-1284.871
 30
3742.016
 70
    32
  0
VERTEX
  8
E15XLIFTS
 62
1
 10
-1625.800
 20
-1276.643
 30
3742.022
 70
    32
  0
VERTEX
  8
E15XLIFTS
 62
1
 10
-1634.279
 20
-1275.412
 30
3742.000
 70
    32
  0
VERTEX
  8
E15XLIFTS
 62
1
 10
-1649.007
 20
-1252.061
 30
3742.000
 70
    32
  0
VERTEX
  8
E15XLIFTS
 62
1
 10
-1661.803
 20
-1235.529
 30
3742.000
 70
    32
  0
VERTEX
  8
E15XLIFTS
 62
1
 10
-1680.077
 20
-1239.903
 30
3742.000
 70
    32
  0
VERTEX
  8
E15XLIFTS
 62
1
 10
-1691.412
 20
-1230.434
 30
3742.000
 70
    32
  0
VERTEX
  8
E15XLIFTS
 62
1
 10
-1700.104
 20
-1237.444
 30
3742.000
 70
    32
  0
VERTEX
  8
E15XLIFTS
 62
1
 10
-1698.184
 20
-1239.879
 30
3742.000
 70
    32
  0
VERTEX
  8
E15XLIFTS
 62
1
 10
-1700.564
 20
-1250.287
 30
3742.000
 70
    32
  0
VERTEX
  8
E15XLIFTS
 62
1
 10
-1693.073
 20
-1256.729
 30
3742.000
 70
    32
  0
VERTEX
  8
E15XLIFTS
 62
1
 10
-1692.192
 20
-1263.821
 30
3742.000
 70
    32
  0
VERTEX
  8
E15XLIFTS
 62
1
 10
-1681.182
 20
-1286.056
 30
3742.000
 70
    32
  0
VERTEX
  8
E15XLIFTS
 62
1
 10
-1666.345
 20
-1294.964
 30
3742.000
 70
    32
  0
VERTEX
  8
E15XLIFTS
 62
1
 10
-1663.353
 20
-1302.235
 30
3742.000
 70
    32
  0
VERTEX
  8
E15XLIFTS
 62
1
 10
-1655.762
 20
-1303.477
 30
3742.000
 70
    32
  0
VERTEX
  8
E15XLIFTS
 62
1
 10
-1653.012
 20
-1305.789
 30
3742.000
 70
    32
  0
VERTEX
  8
E15XLIFTS
 62
1
 10
-1652.095
 20
-1315.298
 30
3742.000
 70
    32
  0
VERTEX
  8
E15XLIFTS
 62
1
 10
-1648.990
 20
-1322.578
 30
3742.000
 70
    32
  0
VERTEX
  8
E15XLIFTS
 62
1
 10
-1628.781
 20
-1328.859
 30
3742.000
 70
    32
  0
VERTEX
  8
E15XLIFTS
 62
1
 10
-1627.501
 20
-1344.484
 30
3742.000
 70
    32
  0
SEQEND
  8
E15XLIFTS
  0
ENDSEC
  0
EOF
