999
********************************
999
*   DXF File - Entities Only   *
999
*        3D Data Format        *
999
*     Output from ENVISAGE     *
999
*     31-Dec-2007 14:02:34     *
999
********************************
  0
SECTION 
  2
HEADER
  9
$ACADVER
  1
AC1009
  9
$EXTMIN
 10
-290000.000
 20
-250000.000
 30
-4000.000
  9
$EXTMAX
 10
320000.000
 20
160000.000
 30
6000.000
  0
ENDSEC
  0
SECTION
  2
ENTITIES
  0
POLYLINE
  8
E17LXLIFT
 62
13
 66
     1
 70
     9
  0
VERTEX
  8
E17LXLIFT
 62
13
 10
-22.153
 20
-1392.705
 30
3605.000
 70
    32
  0
VERTEX
  8
E17LXLIFT
 62
13
 10
-26.283
 20
-1380.166
 30
3605.000
 70
    32
  0
VERTEX
  8
E17LXLIFT
 62
13
 10
-22.926
 20
-1374.649
 30
3605.000
 70
    32
  0
VERTEX
  8
E17LXLIFT
 62
13
 10
-13.422
 20
-1370.943
 30
3605.000
 70
    32
  0
VERTEX
  8
E17LXLIFT
 62
13
 10
4.645
 20
-1387.553
 30
3605.000
 70
    32
  0
VERTEX
  8
E17LXLIFT
 62
13
 10
9.843
 20
-1393.095
 30
3605.000
 70
    32
  0
VERTEX
  8
E17LXLIFT
 62
13
 10
10.946
 20
-1400.577
 30
3605.000
 70
    32
  0
VERTEX
  8
E17LXLIFT
 62
13
 10
6.734
 20
-1412.479
 30
3605.000
 70
    32
  0
VERTEX
  8
E17LXLIFT
 62
13
 10
11.837
 20
-1416.780
 30
3605.000
 70
    32
  0
VERTEX
  8
E17LXLIFT
 62
13
 10
8.927
 20
-1423.561
 30
3605.000
 70
    32
  0
VERTEX
  8
E17LXLIFT
 62
13
 10
1.174
 20
-1427.469
 30
3605.000
 70
    32
  0
VERTEX
  8
E17LXLIFT
 62
13
 10
-11.469
 20
-1413.805
 30
3605.000
 70
    32
  0
VERTEX
  8
E17LXLIFT
 62
13
 10
-13.539
 20
-1410.610
 30
3605.000
 70
    32
  0
VERTEX
  8
E17LXLIFT
 62
13
 10
-27.992
 20
-1404.850
 30
3605.000
 70
    32
  0
VERTEX
  8
E17LXLIFT
 62
13
 10
-26.373
 20
-1394.943
 30
3605.000
 70
    32
  0
VERTEX
  8
E17LXLIFT
 62
13
 10
-25.419
 20
-1393.514
 30
3605.000
 70
    32
  0
VERTEX
  8
E17LXLIFT
 62
13
 10
-22.476
 20
-1392.785
 30
3605.000
 70
    32
  0
SEQEND
  8
E17LXLIFT
  0
POLYLINE
  8
E17LXLIFT
 62
5
 66
     1
 70
     9
  0
VERTEX
  8
E17LXLIFT
 62
5
 10
-108.083
 20
-1321.634
 30
3620.000
 70
    32
  0
VERTEX
  8
E17LXLIFT
 62
5
 10
-108.424
 20
-1318.083
 30
3620.000
 70
    32
  0
VERTEX
  8
E17LXLIFT
 62
5
 10
-114.750
 20
-1310.327
 30
3620.000
 70
    32
  0
VERTEX
  8
E17LXLIFT
 62
5
 10
-97.389
 20
-1303.673
 30
3620.000
 70
    32
  0
VERTEX
  8
E17LXLIFT
 62
5
 10
-92.692
 20
-1311.018
 30
3620.000
 70
    32
  0
VERTEX
  8
E17LXLIFT
 62
5
 10
-84.545
 20
-1312.259
 30
3620.000
 70
    32
  0
VERTEX
  8
E17LXLIFT
 62
5
 10
-81.998
 20
-1318.144
 30
3620.000
 70
    32
  0
VERTEX
  8
E17LXLIFT
 62
5
 10
-80.675
 20
-1324.841
 30
3620.000
 70
    32
  0
VERTEX
  8
E17LXLIFT
 62
5
 10
-76.607
 20
-1327.761
 30
3620.000
 70
    32
  0
VERTEX
  8
E17LXLIFT
 62
5
 10
-75.623
 20
-1330.266
 30
3620.000
 70
    32
  0
VERTEX
  8
E17LXLIFT
 62
5
 10
-75.181
 20
-1340.454
 30
3620.000
 70
    32
  0
VERTEX
  8
E17LXLIFT
 62
5
 10
-81.258
 20
-1350.160
 30
3620.000
 70
    32
  0
VERTEX
  8
E17LXLIFT
 62
5
 10
-67.565
 20
-1369.342
 30
3620.000
 70
    32
  0
VERTEX
  8
E17LXLIFT
 62
5
 10
-51.984
 20
-1377.120
 30
3620.000
 70
    32
  0
VERTEX
  8
E17LXLIFT
 62
5
 10
-66.043
 20
-1390.417
 30
3620.000
 70
    32
  0
VERTEX
  8
E17LXLIFT
 62
5
 10
-77.965
 20
-1385.849
 30
3620.000
 70
    32
  0
VERTEX
  8
E17LXLIFT
 62
5
 10
-87.722
 20
-1376.746
 30
3620.000
 70
    32
  0
VERTEX
  8
E17LXLIFT
 62
5
 10
-99.902
 20
-1358.091
 30
3620.000
 70
    32
  0
VERTEX
  8
E17LXLIFT
 62
5
 10
-107.372
 20
-1341.497
 30
3620.000
 70
    32
  0
VERTEX
  8
E17LXLIFT
 62
5
 10
-111.771
 20
-1338.657
 30
3620.000
 70
    32
  0
SEQEND
  8
E17LXLIFT
  0
POLYLINE
  8
E17LXLIFT
 62
5
 66
     1
 70
     9
  0
VERTEX
  8
E17LXLIFT
 62
5
 10
-118.302
 20
-1361.381
 30
3601.000
 70
    32
  0
VERTEX
  8
E17LXLIFT
 62
5
 10
-109.125
 20
-1354.383
 30
3601.000
 70
    32
  0
VERTEX
  8
E17LXLIFT
 62
5
 10
-101.140
 20
-1346.384
 30
3601.000
 70
    32
  0
VERTEX
  8
E17LXLIFT
 62
5
 10
-99.387
 20
-1341.041
 30
3601.000
 70
    32
  0
VERTEX
  8
E17LXLIFT
 62
5
 10
-106.359
 20
-1322.975
 30
3601.000
 70
    32
  0
VERTEX
  8
E17LXLIFT
 62
5
 10
-99.435
 20
-1312.166
 30
3601.000
 70
    32
  0
VERTEX
  8
E17LXLIFT
 62
5
 10
-90.448
 20
-1309.671
 30
3601.000
 70
    32
  0
VERTEX
  8
E17LXLIFT
 62
5
 10
-88.888
 20
-1312.779
 30
3601.000
 70
    32
  0
VERTEX
  8
E17LXLIFT
 62
5
 10
-85.848
 20
-1313.437
 30
3601.000
 70
    32
  0
VERTEX
  8
E17LXLIFT
 62
5
 10
-86.027
 20
-1316.828
 30
3601.000
 70
    32
  0
VERTEX
  8
E17LXLIFT
 62
5
 10
-76.079
 20
-1333.504
 30
3601.000
 70
    32
  0
VERTEX
  8
E17LXLIFT
 62
5
 10
-75.047
 20
-1344.374
 30
3601.000
 70
    32
  0
VERTEX
  8
E17LXLIFT
 62
5
 10
-79.577
 20
-1350.497
 30
3601.000
 70
    32
  0
VERTEX
  8
E17LXLIFT
 62
5
 10
-79.053
 20
-1356.701
 30
3601.000
 70
    32
  0
VERTEX
  8
E17LXLIFT
 62
5
 10
-73.658
 20
-1366.094
 30
3601.000
 70
    32
  0
VERTEX
  8
E17LXLIFT
 62
5
 10
-67.624
 20
-1373.436
 30
3601.000
 70
    32
  0
VERTEX
  8
E17LXLIFT
 62
5
 10
-73.291
 20
-1379.613
 30
3601.000
 70
    32
  0
VERTEX
  8
E17LXLIFT
 62
5
 10
-80.511
 20
-1375.362
 30
3601.000
 70
    32
  0
VERTEX
  8
E17LXLIFT
 62
5
 10
-88.879
 20
-1370.865
 30
3601.000
 70
    32
  0
VERTEX
  8
E17LXLIFT
 62
5
 10
-95.119
 20
-1362.846
 30
3601.000
 70
    32
  0
VERTEX
  8
E17LXLIFT
 62
5
 10
-99.285
 20
-1361.751
 30
3601.000
 70
    32
  0
VERTEX
  8
E17LXLIFT
 62
5
 10
-106.818
 20
-1366.863
 30
3601.000
 70
    32
  0
SEQEND
  8
E17LXLIFT
  0
POLYLINE
  8
E17LXLIFT
 62
3
 66
     1
 70
     9
  0
VERTEX
  8
E17LXLIFT
 62
3
 10
-770.198
 20
-270.296
 30
3556.000
 70
    32
  0
VERTEX
  8
E17LXLIFT
 62
3
 10
-779.875
 20
-275.702
 30
3556.000
 70
    32
  0
VERTEX
  8
E17LXLIFT
 62
3
 10
-786.620
 20
-279.453
 30
3556.000
 70
    32
  0
VERTEX
  8
E17LXLIFT
 62
3
 10
-790.921
 20
-283.676
 30
3556.000
 70
    32
  0
VERTEX
  8
E17LXLIFT
 62
3
 10
-792.532
 20
-289.724
 30
3556.000
 70
    32
  0
VERTEX
  8
E17LXLIFT
 62
3
 10
-796.392
 20
-294.825
 30
3556.000
 70
    32
  0
VERTEX
  8
E17LXLIFT
 62
3
 10
-798.512
 20
-300.926
 30
3556.000
 70
    32
  0
VERTEX
  8
E17LXLIFT
 62
3
 10
-798.366
 20
-305.654
 30
3556.000
 70
    32
  0
VERTEX
  8
E17LXLIFT
 62
3
 10
-806.944
 20
-304.627
 30
3556.000
 70
    32
  0
VERTEX
  8
E17LXLIFT
 62
3
 10
-810.764
 20
-298.813
 30
3556.000
 70
    32
  0
VERTEX
  8
E17LXLIFT
 62
3
 10
-818.043
 20
-296.590
 30
3556.000
 70
    32
  0
VERTEX
  8
E17LXLIFT
 62
3
 10
-822.950
 20
-293.572
 30
3556.000
 70
    32
  0
VERTEX
  8
E17LXLIFT
 62
3
 10
-823.096
 20
-288.405
 30
3556.000
 70
    32
  0
VERTEX
  8
E17LXLIFT
 62
3
 10
-820.710
 20
-285.292
 30
3556.000
 70
    32
  0
VERTEX
  8
E17LXLIFT
 62
3
 10
-815.421
 20
-283.845
 30
3556.000
 70
    32
  0
VERTEX
  8
E17LXLIFT
 62
3
 10
-809.695
 20
-280.639
 30
3556.000
 70
    32
  0
VERTEX
  8
E17LXLIFT
 62
3
 10
-811.022
 20
-272.732
 30
3556.000
 70
    32
  0
VERTEX
  8
E17LXLIFT
 62
3
 10
-813.421
 20
-264.861
 30
3556.000
 70
    32
  0
VERTEX
  8
E17LXLIFT
 62
3
 10
-816.132
 20
-261.402
 30
3556.000
 70
    32
  0
VERTEX
  8
E17LXLIFT
 62
3
 10
-823.190
 20
-267.807
 30
3556.000
 70
    32
  0
VERTEX
  8
E17LXLIFT
 62
3
 10
-833.102
 20
-268.222
 30
3556.000
 70
    32
  0
VERTEX
  8
E17LXLIFT
 62
3
 10
-845.779
 20
-263.790
 30
3556.000
 70
    32
  0
VERTEX
  8
E17LXLIFT
 62
3
 10
-854.905
 20
-259.547
 30
3556.000
 70
    32
  0
VERTEX
  8
E17LXLIFT
 62
3
 10
-864.786
 20
-256.201
 30
3556.000
 70
    32
  0
VERTEX
  8
E17LXLIFT
 62
3
 10
-867.342
 20
-249.877
 30
3556.000
 70
    32
  0
VERTEX
  8
E17LXLIFT
 62
3
 10
-861.567
 20
-242.788
 30
3556.000
 70
    32
  0
VERTEX
  8
E17LXLIFT
 62
3
 10
-853.414
 20
-241.056
 30
3556.000
 70
    32
  0
VERTEX
  8
E17LXLIFT
 62
3
 10
-847.511
 20
-239.257
 30
3556.000
 70
    32
  0
VERTEX
  8
E17LXLIFT
 62
3
 10
-843.892
 20
-237.636
 30
3556.000
 70
    32
  0
VERTEX
  8
E17LXLIFT
 62
3
 10
-845.503
 20
-227.743
 30
3556.000
 70
    32
  0
VERTEX
  8
E17LXLIFT
 62
3
 10
-847.034
 20
-210.204
 30
3556.000
 70
    32
  0
VERTEX
  8
E17LXLIFT
 62
3
 10
-844.271
 20
-198.233
 30
3556.000
 70
    32
  0
VERTEX
  8
E17LXLIFT
 62
3
 10
-836.014
 20
-194.884
 30
3556.000
 70
    32
  0
VERTEX
  8
E17LXLIFT
 62
3
 10
-831.915
 20
-198.289
 30
3556.000
 70
    32
  0
VERTEX
  8
E17LXLIFT
 62
3
 10
-825.554
 20
-197.684
 30
3556.000
 70
    32
  0
VERTEX
  8
E17LXLIFT
 62
3
 10
-822.084
 20
-204.201
 30
3556.000
 70
    32
  0
VERTEX
  8
E17LXLIFT
 62
3
 10
-822.572
 20
-208.085
 30
3556.000
 70
    32
  0
VERTEX
  8
E17LXLIFT
 62
3
 10
-829.005
 20
-206.985
 30
3556.000
 70
    32
  0
VERTEX
  8
E17LXLIFT
 62
3
 10
-832.484
 20
-208.501
 30
3556.000
 70
    32
  0
VERTEX
  8
E17LXLIFT
 62
3
 10
-830.439
 20
-214.000
 30
3556.000
 70
    32
  0
VERTEX
  8
E17LXLIFT
 62
3
 10
-829.906
 20
-218.656
 30
3556.000
 70
    32
  0
VERTEX
  8
E17LXLIFT
 62
3
 10
-833.115
 20
-225.796
 30
3556.000
 70
    32
  0
VERTEX
  8
E17LXLIFT
 62
3
 10
-833.457
 20
-233.969
 30
3556.000
 70
    32
  0
VERTEX
  8
E17LXLIFT
 62
3
 10
-831.479
 20
-242.596
 30
3556.000
 70
    32
  0
VERTEX
  8
E17LXLIFT
 62
3
 10
-825.375
 20
-247.352
 30
3556.000
 70
    32
  0
VERTEX
  8
E17LXLIFT
 62
3
 10
-818.149
 20
-249.066
 30
3556.000
 70
    32
  0
VERTEX
  8
E17LXLIFT
 62
3
 10
-810.541
 20
-247.195
 30
3556.000
 70
    32
  0
VERTEX
  8
E17LXLIFT
 62
3
 10
-804.537
 20
-241.581
 30
3556.000
 70
    32
  0
VERTEX
  8
E17LXLIFT
 62
3
 10
-804.404
 20
-234.446
 30
3556.000
 70
    32
  0
VERTEX
  8
E17LXLIFT
 62
3
 10
-795.444
 20
-231.887
 30
3556.000
 70
    32
  0
VERTEX
  8
E17LXLIFT
 62
3
 10
-785.271
 20
-244.688
 30
3556.000
 70
    32
  0
VERTEX
  8
E17LXLIFT
 62
3
 10
-776.786
 20
-256.559
 30
3556.000
 70
    32
  0
VERTEX
  8
E17LXLIFT
 62
3
 10
-773.356
 20
-259.368
 30
3556.000
 70
    32
  0
SEQEND
  8
E17LXLIFT
  0
POLYLINE
  8
E17LXLIFT
 62
3
 66
     1
 70
     9
  0
VERTEX
  8
E17LXLIFT
 62
3
 10
-792.312
 20
-276.878
 30
3565.000
 70
    32
  0
VERTEX
  8
E17LXLIFT
 62
3
 10
-795.401
 20
-281.870
 30
3565.000
 70
    32
  0
VERTEX
  8
E17LXLIFT
 62
3
 10
-795.354
 20
-289.353
 30
3565.000
 70
    32
  0
VERTEX
  8
E17LXLIFT
 62
3
 10
-794.899
 20
-298.281
 30
3565.000
 70
    32
  0
VERTEX
  8
E17LXLIFT
 62
3
 10
-798.635
 20
-302.986
 30
3565.000
 70
    32
  0
VERTEX
  8
E17LXLIFT
 62
3
 10
-807.207
 20
-306.447
 30
3565.000
 70
    32
  0
VERTEX
  8
E17LXLIFT
 62
3
 10
-815.884
 20
-313.474
 30
3565.000
 70
    32
  0
VERTEX
  8
E17LXLIFT
 62
3
 10
-821.216
 20
-317.934
 30
3565.000
 70
    32
  0
VERTEX
  8
E17LXLIFT
 62
3
 10
-829.254
 20
-315.447
 30
3565.000
 70
    32
  0
VERTEX
  8
E17LXLIFT
 62
3
 10
-826.784
 20
-309.166
 30
3565.000
 70
    32
  0
VERTEX
  8
E17LXLIFT
 62
3
 10
-821.476
 20
-303.634
 30
3565.000
 70
    32
  0
VERTEX
  8
E17LXLIFT
 62
3
 10
-823.893
 20
-297.672
 30
3565.000
 70
    32
  0
VERTEX
  8
E17LXLIFT
 62
3
 10
-827.444
 20
-289.276
 30
3565.000
 70
    32
  0
VERTEX
  8
E17LXLIFT
 62
3
 10
-828.026
 20
-280.769
 30
3565.000
 70
    32
  0
VERTEX
  8
E17LXLIFT
 62
3
 10
-834.658
 20
-274.853
 30
3565.000
 70
    32
  0
VERTEX
  8
E17LXLIFT
 62
3
 10
-844.056
 20
-271.403
 30
3565.000
 70
    32
  0
VERTEX
  8
E17LXLIFT
 62
3
 10
-853.611
 20
-264.474
 30
3565.000
 70
    32
  0
VERTEX
  8
E17LXLIFT
 62
3
 10
-861.864
 20
-257.242
 30
3565.000
 70
    32
  0
VERTEX
  8
E17LXLIFT
 62
3
 10
-870.091
 20
-254.348
 30
3565.000
 70
    32
  0
VERTEX
  8
E17LXLIFT
 62
3
 10
-876.608
 20
-250.963
 30
3565.000
 70
    32
  0
VERTEX
  8
E17LXLIFT
 62
3
 10
-882.022
 20
-246.113
 30
3565.000
 70
    32
  0
VERTEX
  8
E17LXLIFT
 62
3
 10
-886.843
 20
-238.213
 30
3565.000
 70
    32
  0
VERTEX
  8
E17LXLIFT
 62
3
 10
-892.418
 20
-231.957
 30
3565.000
 70
    32
  0
VERTEX
  8
E17LXLIFT
 62
3
 10
-898.849
 20
-223.496
 30
3565.000
 70
    32
  0
VERTEX
  8
E17LXLIFT
 62
3
 10
-904.649
 20
-213.373
 30
3565.000
 70
    32
  0
VERTEX
  8
E17LXLIFT
 62
3
 10
-907.218
 20
-205.126
 30
3565.000
 70
    32
  0
VERTEX
  8
E17LXLIFT
 62
3
 10
-901.217
 20
-198.758
 30
3565.000
 70
    32
  0
VERTEX
  8
E17LXLIFT
 62
3
 10
-894.329
 20
-198.494
 30
3565.000
 70
    32
  0
VERTEX
  8
E17LXLIFT
 62
3
 10
-888.388
 20
-201.540
 30
3565.000
 70
    32
  0
VERTEX
  8
E17LXLIFT
 62
3
 10
-885.056
 20
-212.604
 30
3565.000
 70
    32
  0
VERTEX
  8
E17LXLIFT
 62
3
 10
-878.647
 20
-223.260
 30
3565.000
 70
    32
  0
VERTEX
  8
E17LXLIFT
 62
3
 10
-872.263
 20
-232.845
 30
3565.000
 70
    32
  0
VERTEX
  8
E17LXLIFT
 62
3
 10
-865.233
 20
-239.450
 30
3565.000
 70
    32
  0
VERTEX
  8
E17LXLIFT
 62
3
 10
-858.093
 20
-242.051
 30
3565.000
 70
    32
  0
VERTEX
  8
E17LXLIFT
 62
3
 10
-852.972
 20
-239.380
 30
3565.000
 70
    32
  0
VERTEX
  8
E17LXLIFT
 62
3
 10
-846.065
 20
-238.993
 30
3565.000
 70
    32
  0
VERTEX
  8
E17LXLIFT
 62
3
 10
-845.636
 20
-231.269
 30
3565.000
 70
    32
  0
VERTEX
  8
E17LXLIFT
 62
3
 10
-847.467
 20
-217.796
 30
3565.000
 70
    32
  0
VERTEX
  8
E17LXLIFT
 62
3
 10
-851.791
 20
-205.826
 30
3565.000
 70
    32
  0
VERTEX
  8
E17LXLIFT
 62
3
 10
-851.119
 20
-200.212
 30
3565.000
 70
    32
  0
VERTEX
  8
E17LXLIFT
 62
3
 10
-845.148
 20
-191.577
 30
3565.000
 70
    32
  0
VERTEX
  8
E17LXLIFT
 62
3
 10
-837.282
 20
-184.929
 30
3565.000
 70
    32
  0
VERTEX
  8
E17LXLIFT
 62
3
 10
-825.486
 20
-189.123
 30
3565.000
 70
    32
  0
VERTEX
  8
E17LXLIFT
 62
3
 10
-823.712
 20
-194.358
 30
3565.000
 70
    32
  0
VERTEX
  8
E17LXLIFT
 62
3
 10
-828.580
 20
-199.895
 30
3565.000
 70
    32
  0
VERTEX
  8
E17LXLIFT
 62
3
 10
-827.480
 20
-207.476
 30
3565.000
 70
    32
  0
VERTEX
  8
E17LXLIFT
 62
3
 10
-830.442
 20
-212.048
 30
3565.000
 70
    32
  0
VERTEX
  8
E17LXLIFT
 62
3
 10
-830.150
 20
-217.935
 30
3565.000
 70
    32
  0
VERTEX
  8
E17LXLIFT
 62
3
 10
-833.567
 20
-225.893
 30
3565.000
 70
    32
  0
VERTEX
  8
E17LXLIFT
 62
3
 10
-832.460
 20
-236.302
 30
3565.000
 70
    32
  0
VERTEX
  8
E17LXLIFT
 62
3
 10
-829.632
 20
-243.269
 30
3565.000
 70
    32
  0
VERTEX
  8
E17LXLIFT
 62
3
 10
-823.737
 20
-249.072
 30
3565.000
 70
    32
  0
VERTEX
  8
E17LXLIFT
 62
3
 10
-817.659
 20
-243.846
 30
3565.000
 70
    32
  0
VERTEX
  8
E17LXLIFT
 62
3
 10
-813.744
 20
-238.792
 30
3565.000
 70
    32
  0
VERTEX
  8
E17LXLIFT
 62
3
 10
-803.605
 20
-241.915
 30
3565.000
 70
    32
  0
VERTEX
  8
E17LXLIFT
 62
3
 10
-797.125
 20
-245.546
 30
3565.000
 70
    32
  0
VERTEX
  8
E17LXLIFT
 62
3
 10
-796.370
 20
-252.510
 30
3565.000
 70
    32
  0
VERTEX
  8
E17LXLIFT
 62
3
 10
-791.609
 20
-255.877
 30
3565.000
 70
    32
  0
SEQEND
  8
E17LXLIFT
  0
POLYLINE
  8
E17LXLIFT
 62
6
 66
     1
 70
     9
  0
VERTEX
  8
E17LXLIFT
 62
6
 10
-792.120
 20
13.958
 30
3577.000
 70
    32
  0
VERTEX
  8
E17LXLIFT
 62
6
 10
-795.106
 20
24.404
 30
3577.000
 70
    32
  0
VERTEX
  8
E17LXLIFT
 62
6
 10
-804.430
 20
29.979
 30
3577.000
 70
    32
  0
VERTEX
  8
E17LXLIFT
 62
6
 10
-801.555
 20
38.082
 30
3577.000
 70
    32
  0
VERTEX
  8
E17LXLIFT
 62
6
 10
-795.152
 20
35.594
 30
3577.000
 70
    32
  0
VERTEX
  8
E17LXLIFT
 62
6
 10
-793.799
 20
39.093
 30
3577.000
 70
    32
  0
VERTEX
  8
E17LXLIFT
 62
6
 10
-790.329
 20
46.980
 30
3577.000
 70
    32
  0
VERTEX
  8
E17LXLIFT
 62
6
 10
-792.653
 20
55.188
 30
3577.000
 70
    32
  0
VERTEX
  8
E17LXLIFT
 62
6
 10
-792.219
 20
63.352
 30
3577.000
 70
    32
  0
VERTEX
  8
E17LXLIFT
 62
6
 10
-786.040
 20
64.730
 30
3577.000
 70
    32
  0
VERTEX
  8
E17LXLIFT
 62
6
 10
-782.027
 20
56.890
 30
3577.000
 70
    32
  0
VERTEX
  8
E17LXLIFT
 62
6
 10
-775.880
 20
49.855
 30
3577.000
 70
    32
  0
VERTEX
  8
E17LXLIFT
 62
6
 10
-769.372
 20
40.252
 30
3577.000
 70
    32
  0
VERTEX
  8
E17LXLIFT
 62
6
 10
-762.095
 20
30.342
 30
3577.000
 70
    32
  0
VERTEX
  8
E17LXLIFT
 62
6
 10
-759.374
 20
21.445
 30
3577.000
 70
    32
  0
VERTEX
  8
E17LXLIFT
 62
6
 10
-765.698
 20
17.890
 30
3577.000
 70
    32
  0
VERTEX
  8
E17LXLIFT
 62
6
 10
-773.822
 20
15.302
 30
3577.000
 70
    32
  0
VERTEX
  8
E17LXLIFT
 62
6
 10
-776.873
 20
10.555
 30
3577.000
 70
    32
  0
VERTEX
  8
E17LXLIFT
 62
6
 10
-781.220
 20
8.017
 30
3577.000
 70
    32
  0
SEQEND
  8
E17LXLIFT
  0
POLYLINE
  8
E17LXLIFT
 62
6
 66
     1
 70
     9
  0
VERTEX
  8
E17LXLIFT
 62
6
 10
-783.227
 20
-0.540
 30
3584.000
 70
    32
  0
VERTEX
  8
E17LXLIFT
 62
6
 10
-775.587
 20
2.133
 30
3584.000
 70
    32
  0
VERTEX
  8
E17LXLIFT
 62
6
 10
-768.648
 20
5.165
 30
3584.000
 70
    32
  0
VERTEX
  8
E17LXLIFT
 62
6
 10
-761.090
 20
8.543
 30
3584.000
 70
    32
  0
VERTEX
  8
E17LXLIFT
 62
6
 10
-763.727
 20
20.140
 30
3584.000
 70
    32
  0
VERTEX
  8
E17LXLIFT
 62
6
 10
-767.216
 20
34.822
 30
3584.000
 70
    32
  0
VERTEX
  8
E17LXLIFT
 62
6
 10
-774.465
 20
47.937
 30
3584.000
 70
    32
  0
VERTEX
  8
E17LXLIFT
 62
6
 10
-781.284
 20
58.095
 30
3584.000
 70
    32
  0
VERTEX
  8
E17LXLIFT
 62
6
 10
-784.635
 20
66.655
 30
3584.000
 70
    32
  0
VERTEX
  8
E17LXLIFT
 62
6
 10
-793.189
 20
62.108
 30
3584.000
 70
    32
  0
VERTEX
  8
E17LXLIFT
 62
6
 10
-796.707
 20
65.851
 30
3584.000
 70
    32
  0
VERTEX
  8
E17LXLIFT
 62
6
 10
-798.292
 20
75.275
 30
3584.000
 70
    32
  0
VERTEX
  8
E17LXLIFT
 62
6
 10
-804.966
 20
72.328
 30
3584.000
 70
    32
  0
VERTEX
  8
E17LXLIFT
 62
6
 10
-809.990
 20
71.143
 30
3584.000
 70
    32
  0
VERTEX
  8
E17LXLIFT
 62
6
 10
-807.224
 20
62.043
 30
3584.000
 70
    32
  0
VERTEX
  8
E17LXLIFT
 62
6
 10
-806.522
 20
52.188
 30
3584.000
 70
    32
  0
VERTEX
  8
E17LXLIFT
 62
6
 10
-805.665
 20
47.906
 30
3584.000
 70
    32
  0
VERTEX
  8
E17LXLIFT
 62
6
 10
-809.416
 20
43.509
 30
3584.000
 70
    32
  0
VERTEX
  8
E17LXLIFT
 62
6
 10
-812.428
 20
41.074
 30
3584.000
 70
    32
  0
VERTEX
  8
E17LXLIFT
 62
6
 10
-808.994
 20
33.885
 30
3584.000
 70
    32
  0
VERTEX
  8
E17LXLIFT
 62
6
 10
-807.098
 20
27.747
 30
3584.000
 70
    32
  0
VERTEX
  8
E17LXLIFT
 62
6
 10
-801.831
 20
24.744
 30
3584.000
 70
    32
  0
VERTEX
  8
E17LXLIFT
 62
6
 10
-797.874
 20
15.211
 30
3584.000
 70
    32
  0
VERTEX
  8
E17LXLIFT
 62
6
 10
-793.284
 20
3.632
 30
3584.000
 70
    32
  0
SEQEND
  8
E17LXLIFT
  0
POLYLINE
  8
E17LXLIFT
 62
3
 66
     1
 70
     9
  0
VERTEX
  8
E17LXLIFT
 62
3
 10
-790.953
 20
-237.666
 30
3591.000
 70
    32
  0
VERTEX
  8
E17LXLIFT
 62
3
 10
-793.264
 20
-244.170
 30
3591.000
 70
    32
  0
VERTEX
  8
E17LXLIFT
 62
3
 10
-796.217
 20
-253.658
 30
3591.000
 70
    32
  0
VERTEX
  8
E17LXLIFT
 62
3
 10
-800.439
 20
-259.493
 30
3591.000
 70
    32
  0
VERTEX
  8
E17LXLIFT
 62
3
 10
-805.964
 20
-265.633
 30
3591.000
 70
    32
  0
VERTEX
  8
E17LXLIFT
 62
3
 10
-804.325
 20
-270.977
 30
3591.000
 70
    32
  0
VERTEX
  8
E17LXLIFT
 62
3
 10
-808.809
 20
-274.823
 30
3591.000
 70
    32
  0
VERTEX
  8
E17LXLIFT
 62
3
 10
-814.569
 20
-273.820
 30
3591.000
 70
    32
  0
VERTEX
  8
E17LXLIFT
 62
3
 10
-819.840
 20
-267.546
 30
3591.000
 70
    32
  0
VERTEX
  8
E17LXLIFT
 62
3
 10
-827.943
 20
-261.282
 30
3591.000
 70
    32
  0
VERTEX
  8
E17LXLIFT
 62
3
 10
-837.001
 20
-255.501
 30
3591.000
 70
    32
  0
VERTEX
  8
E17LXLIFT
 62
3
 10
-836.962
 20
-247.393
 30
3591.000
 70
    32
  0
VERTEX
  8
E17LXLIFT
 62
3
 10
-832.048
 20
-237.009
 30
3591.000
 70
    32
  0
VERTEX
  8
E17LXLIFT
 62
3
 10
-829.660
 20
-225.863
 30
3591.000
 70
    32
  0
VERTEX
  8
E17LXLIFT
 62
3
 10
-830.855
 20
-220.084
 30
3591.000
 70
    32
  0
VERTEX
  8
E17LXLIFT
 62
3
 10
-841.430
 20
-220.550
 30
3591.000
 70
    32
  0
VERTEX
  8
E17LXLIFT
 62
3
 10
-850.630
 20
-222.734
 30
3591.000
 70
    32
  0
VERTEX
  8
E17LXLIFT
 62
3
 10
-856.570
 20
-224.157
 30
3591.000
 70
    32
  0
VERTEX
  8
E17LXLIFT
 62
3
 10
-858.597
 20
-230.453
 30
3591.000
 70
    32
  0
VERTEX
  8
E17LXLIFT
 62
3
 10
-864.719
 20
-230.590
 30
3591.000
 70
    32
  0
VERTEX
  8
E17LXLIFT
 62
3
 10
-869.577
 20
-225.322
 30
3591.000
 70
    32
  0
VERTEX
  8
E17LXLIFT
 62
3
 10
-876.179
 20
-229.852
 30
3591.000
 70
    32
  0
VERTEX
  8
E17LXLIFT
 62
3
 10
-876.155
 20
-238.786
 30
3591.000
 70
    32
  0
VERTEX
  8
E17LXLIFT
 62
3
 10
-873.650
 20
-247.533
 30
3591.000
 70
    32
  0
VERTEX
  8
E17LXLIFT
 62
3
 10
-871.349
 20
-255.556
 30
3591.000
 70
    32
  0
VERTEX
  8
E17LXLIFT
 62
3
 10
-872.076
 20
-261.986
 30
3591.000
 70
    32
  0
VERTEX
  8
E17LXLIFT
 62
3
 10
-879.718
 20
-263.024
 30
3591.000
 70
    32
  0
VERTEX
  8
E17LXLIFT
 62
3
 10
-884.496
 20
-254.750
 30
3591.000
 70
    32
  0
VERTEX
  8
E17LXLIFT
 62
3
 10
-894.003
 20
-246.133
 30
3591.000
 70
    32
  0
VERTEX
  8
E17LXLIFT
 62
3
 10
-902.448
 20
-238.810
 30
3591.000
 70
    32
  0
VERTEX
  8
E17LXLIFT
 62
3
 10
-910.431
 20
-230.928
 30
3591.000
 70
    32
  0
VERTEX
  8
E17LXLIFT
 62
3
 10
-915.607
 20
-221.964
 30
3591.000
 70
    32
  0
VERTEX
  8
E17LXLIFT
 62
3
 10
-914.543
 20
-213.321
 30
3591.000
 70
    32
  0
VERTEX
  8
E17LXLIFT
 62
3
 10
-915.636
 20
-203.972
 30
3591.000
 70
    32
  0
VERTEX
  8
E17LXLIFT
 62
3
 10
-912.974
 20
-195.573
 30
3591.000
 70
    32
  0
VERTEX
  8
E17LXLIFT
 62
3
 10
-909.575
 20
-183.574
 30
3591.000
 70
    32
  0
VERTEX
  8
E17LXLIFT
 62
3
 10
-904.600
 20
-176.092
 30
3591.000
 70
    32
  0
VERTEX
  8
E17LXLIFT
 62
3
 10
-898.345
 20
-170.944
 30
3591.000
 70
    32
  0
VERTEX
  8
E17LXLIFT
 62
3
 10
-892.047
 20
-168.821
 30
3591.000
 70
    32
  0
VERTEX
  8
E17LXLIFT
 62
3
 10
-886.383
 20
-178.299
 30
3591.000
 70
    32
  0
VERTEX
  8
E17LXLIFT
 62
3
 10
-882.778
 20
-191.804
 30
3591.000
 70
    32
  0
VERTEX
  8
E17LXLIFT
 62
3
 10
-875.868
 20
-199.711
 30
3591.000
 70
    32
  0
VERTEX
  8
E17LXLIFT
 62
3
 10
-869.578
 20
-204.253
 30
3591.000
 70
    32
  0
VERTEX
  8
E17LXLIFT
 62
3
 10
-864.196
 20
-211.865
 30
3591.000
 70
    32
  0
VERTEX
  8
E17LXLIFT
 62
3
 10
-855.436
 20
-211.751
 30
3591.000
 70
    32
  0
VERTEX
  8
E17LXLIFT
 62
3
 10
-848.851
 20
-208.980
 30
3591.000
 70
    32
  0
VERTEX
  8
E17LXLIFT
 62
3
 10
-843.435
 20
-205.213
 30
3591.000
 70
    32
  0
VERTEX
  8
E17LXLIFT
 62
3
 10
-836.283
 20
-207.811
 30
3591.000
 70
    32
  0
VERTEX
  8
E17LXLIFT
 62
3
 10
-828.654
 20
-210.167
 30
3591.000
 70
    32
  0
VERTEX
  8
E17LXLIFT
 62
3
 10
-821.445
 20
-204.535
 30
3591.000
 70
    32
  0
VERTEX
  8
E17LXLIFT
 62
3
 10
-815.190
 20
-210.959
 30
3591.000
 70
    32
  0
VERTEX
  8
E17LXLIFT
 62
3
 10
-809.278
 20
-218.399
 30
3591.000
 70
    32
  0
VERTEX
  8
E17LXLIFT
 62
3
 10
-803.901
 20
-222.740
 30
3591.000
 70
    32
  0
VERTEX
  8
E17LXLIFT
 62
3
 10
-798.076
 20
-226.205
 30
3591.000
 70
    32
  0
VERTEX
  8
E17LXLIFT
 62
3
 10
-792.411
 20
-227.822
 30
3591.000
 70
    32
  0
SEQEND
  8
E17LXLIFT
  0
POLYLINE
  8
E17LXLIFT
 62
1
 66
     1
 70
     9
  0
VERTEX
  8
E17LXLIFT
 62
1
 10
-782.227
 20
0.460
 30
3594.000
 70
    32
  0
VERTEX
  8
E17LXLIFT
 62
1
 10
-774.587
 20
3.133
 30
3594.000
 70
    32
  0
VERTEX
  8
E17LXLIFT
 62
1
 10
-767.648
 20
6.165
 30
3594.000
 70
    32
  0
VERTEX
  8
E17LXLIFT
 62
1
 10
-760.090
 20
9.543
 30
3594.000
 70
    32
  0
VERTEX
  8
E17LXLIFT
 62
1
 10
-762.727
 20
21.140
 30
3594.000
 70
    32
  0
VERTEX
  8
E17LXLIFT
 62
1
 10
-766.216
 20
35.822
 30
3594.000
 70
    32
  0
VERTEX
  8
E17LXLIFT
 62
1
 10
-773.465
 20
48.937
 30
3594.000
 70
    32
  0
VERTEX
  8
E17LXLIFT
 62
1
 10
-780.284
 20
59.095
 30
3594.000
 70
    32
  0
VERTEX
  8
E17LXLIFT
 62
1
 10
-783.635
 20
67.655
 30
3594.000
 70
    32
  0
VERTEX
  8
E17LXLIFT
 62
1
 10
-792.189
 20
63.108
 30
3594.000
 70
    32
  0
VERTEX
  8
E17LXLIFT
 62
1
 10
-795.707
 20
66.851
 30
3594.000
 70
    32
  0
VERTEX
  8
E17LXLIFT
 62
1
 10
-797.292
 20
76.275
 30
3594.000
 70
    32
  0
VERTEX
  8
E17LXLIFT
 62
1
 10
-803.966
 20
73.328
 30
3594.000
 70
    32
  0
VERTEX
  8
E17LXLIFT
 62
1
 10
-808.990
 20
72.143
 30
3594.000
 70
    32
  0
VERTEX
  8
E17LXLIFT
 62
1
 10
-806.224
 20
63.043
 30
3594.000
 70
    32
  0
VERTEX
  8
E17LXLIFT
 62
1
 10
-805.522
 20
53.188
 30
3594.000
 70
    32
  0
VERTEX
  8
E17LXLIFT
 62
1
 10
-804.665
 20
48.906
 30
3594.000
 70
    32
  0
VERTEX
  8
E17LXLIFT
 62
1
 10
-808.416
 20
44.509
 30
3594.000
 70
    32
  0
VERTEX
  8
E17LXLIFT
 62
1
 10
-811.428
 20
42.074
 30
3594.000
 70
    32
  0
VERTEX
  8
E17LXLIFT
 62
1
 10
-807.994
 20
34.885
 30
3594.000
 70
    32
  0
VERTEX
  8
E17LXLIFT
 62
1
 10
-806.098
 20
28.747
 30
3594.000
 70
    32
  0
VERTEX
  8
E17LXLIFT
 62
1
 10
-800.831
 20
25.744
 30
3594.000
 70
    32
  0
VERTEX
  8
E17LXLIFT
 62
1
 10
-796.874
 20
16.211
 30
3594.000
 70
    32
  0
VERTEX
  8
E17LXLIFT
 62
1
 10
-792.284
 20
4.632
 30
3594.000
 70
    32
  0
SEQEND
  8
E17LXLIFT
  0
POLYLINE
  8
E17LXLIFT
 62
3
 66
     1
 70
     9
  0
VERTEX
  8
E17LXLIFT
 62
3
 10
-777.044
 20
-237.452
 30
3605.000
 70
    32
  0
VERTEX
  8
E17LXLIFT
 62
3
 10
-784.067
 20
-239.051
 30
3605.000
 70
    32
  0
VERTEX
  8
E17LXLIFT
 62
3
 10
-791.918
 20
-241.156
 30
3605.000
 70
    32
  0
VERTEX
  8
E17LXLIFT
 62
3
 10
-797.744
 20
-246.137
 30
3605.000
 70
    32
  0
VERTEX
  8
E17LXLIFT
 62
3
 10
-803.404
 20
-252.964
 30
3605.000
 70
    32
  0
VERTEX
  8
E17LXLIFT
 62
3
 10
-806.311
 20
-261.142
 30
3605.000
 70
    32
  0
VERTEX
  8
E17LXLIFT
 62
3
 10
-806.267
 20
-269.756
 30
3605.000
 70
    32
  0
VERTEX
  8
E17LXLIFT
 62
3
 10
-806.984
 20
-272.477
 30
3605.000
 70
    32
  0
VERTEX
  8
E17LXLIFT
 62
3
 10
-810.648
 20
-273.883
 30
3605.000
 70
    32
  0
VERTEX
  8
E17LXLIFT
 62
3
 10
-817.731
 20
-277.169
 30
3605.000
 70
    32
  0
VERTEX
  8
E17LXLIFT
 62
3
 10
-822.517
 20
-281.487
 30
3605.000
 70
    32
  0
VERTEX
  8
E17LXLIFT
 62
3
 10
-823.976
 20
-284.978
 30
3605.000
 70
    32
  0
VERTEX
  8
E17LXLIFT
 62
3
 10
-824.277
 20
-288.703
 30
3605.000
 70
    32
  0
VERTEX
  8
E17LXLIFT
 62
3
 10
-827.653
 20
-292.413
 30
3605.000
 70
    32
  0
VERTEX
  8
E17LXLIFT
 62
3
 10
-833.086
 20
-296.007
 30
3605.000
 70
    32
  0
VERTEX
  8
E17LXLIFT
 62
3
 10
-838.480
 20
-298.916
 30
3605.000
 70
    32
  0
VERTEX
  8
E17LXLIFT
 62
3
 10
-841.807
 20
-299.743
 30
3605.000
 70
    32
  0
VERTEX
  8
E17LXLIFT
 62
3
 10
-845.912
 20
-298.192
 30
3605.000
 70
    32
  0
VERTEX
  8
E17LXLIFT
 62
3
 10
-847.248
 20
-305.094
 30
3605.000
 70
    32
  0
VERTEX
  8
E17LXLIFT
 62
3
 10
-849.493
 20
-310.920
 30
3605.000
 70
    32
  0
VERTEX
  8
E17LXLIFT
 62
3
 10
-848.100
 20
-320.613
 30
3605.000
 70
    32
  0
VERTEX
  8
E17LXLIFT
 62
3
 10
-843.402
 20
-326.649
 30
3605.000
 70
    32
  0
VERTEX
  8
E17LXLIFT
 62
3
 10
-845.408
 20
-330.436
 30
3605.000
 70
    32
  0
VERTEX
  8
E17LXLIFT
 62
3
 10
-853.414
 20
-331.890
 30
3605.000
 70
    32
  0
VERTEX
  8
E17LXLIFT
 62
3
 10
-862.566
 20
-330.472
 30
3605.000
 70
    32
  0
VERTEX
  8
E17LXLIFT
 62
3
 10
-867.152
 20
-326.652
 30
3605.000
 70
    32
  0
VERTEX
  8
E17LXLIFT
 62
3
 10
-870.466
 20
-318.056
 30
3605.000
 70
    32
  0
VERTEX
  8
E17LXLIFT
 62
3
 10
-870.159
 20
-313.012
 30
3605.000
 70
    32
  0
VERTEX
  8
E17LXLIFT
 62
3
 10
-870.522
 20
-308.246
 30
3605.000
 70
    32
  0
VERTEX
  8
E17LXLIFT
 62
3
 10
-871.761
 20
-303.037
 30
3605.000
 70
    32
  0
VERTEX
  8
E17LXLIFT
 62
3
 10
-868.633
 20
-299.730
 30
3605.000
 70
    32
  0
VERTEX
  8
E17LXLIFT
 62
3
 10
-868.101
 20
-291.892
 30
3605.000
 70
    32
  0
VERTEX
  8
E17LXLIFT
 62
3
 10
-870.327
 20
-283.583
 30
3605.000
 70
    32
  0
VERTEX
  8
E17LXLIFT
 62
3
 10
-874.119
 20
-275.671
 30
3605.000
 70
    32
  0
VERTEX
  8
E17LXLIFT
 62
3
 10
-876.736
 20
-268.309
 30
3605.000
 70
    32
  0
VERTEX
  8
E17LXLIFT
 62
3
 10
-880.132
 20
-261.963
 30
3605.000
 70
    32
  0
VERTEX
  8
E17LXLIFT
 62
3
 10
-886.779
 20
-258.906
 30
3605.000
 70
    32
  0
VERTEX
  8
E17LXLIFT
 62
3
 10
-893.985
 20
-251.556
 30
3605.000
 70
    32
  0
VERTEX
  8
E17LXLIFT
 62
3
 10
-898.602
 20
-243.271
 30
3605.000
 70
    32
  0
VERTEX
  8
E17LXLIFT
 62
3
 10
-903.311
 20
-239.432
 30
3605.000
 70
    32
  0
VERTEX
  8
E17LXLIFT
 62
3
 10
-903.822
 20
-232.696
 30
3605.000
 70
    32
  0
VERTEX
  8
E17LXLIFT
 62
3
 10
-907.735
 20
-224.326
 30
3605.000
 70
    32
  0
VERTEX
  8
E17LXLIFT
 62
3
 10
-907.752
 20
-220.617
 30
3605.000
 70
    32
  0
VERTEX
  8
E17LXLIFT
 62
3
 10
-905.586
 20
-216.602
 30
3605.000
 70
    32
  0
VERTEX
  8
E17LXLIFT
 62
3
 10
-905.792
 20
-208.655
 30
3605.000
 70
    32
  0
VERTEX
  8
E17LXLIFT
 62
3
 10
-909.899
 20
-200.319
 30
3605.000
 70
    32
  0
VERTEX
  8
E17LXLIFT
 62
3
 10
-912.350
 20
-191.411
 30
3605.000
 70
    32
  0
VERTEX
  8
E17LXLIFT
 62
3
 10
-915.753
 20
-182.991
 30
3605.000
 70
    32
  0
VERTEX
  8
E17LXLIFT
 62
3
 10
-921.055
 20
-174.667
 30
3605.000
 70
    32
  0
VERTEX
  8
E17LXLIFT
 62
3
 10
-920.742
 20
-168.304
 30
3605.000
 70
    32
  0
VERTEX
  8
E17LXLIFT
 62
3
 10
-914.624
 20
-164.749
 30
3605.000
 70
    32
  0
VERTEX
  8
E17LXLIFT
 62
3
 10
-907.560
 20
-162.025
 30
3605.000
 70
    32
  0
VERTEX
  8
E17LXLIFT
 62
3
 10
-903.186
 20
-166.002
 30
3605.000
 70
    32
  0
VERTEX
  8
E17LXLIFT
 62
3
 10
-900.685
 20
-172.027
 30
3605.000
 70
    32
  0
VERTEX
  8
E17LXLIFT
 62
3
 10
-897.763
 20
-174.785
 30
3605.000
 70
    32
  0
VERTEX
  8
E17LXLIFT
 62
3
 10
-893.058
 20
-176.109
 30
3605.000
 70
    32
  0
VERTEX
  8
E17LXLIFT
 62
3
 10
-888.152
 20
-182.867
 30
3605.000
 70
    32
  0
VERTEX
  8
E17LXLIFT
 62
3
 10
-882.272
 20
-188.136
 30
3605.000
 70
    32
  0
VERTEX
  8
E17LXLIFT
 62
3
 10
-880.147
 20
-195.424
 30
3605.000
 70
    32
  0
VERTEX
  8
E17LXLIFT
 62
3
 10
-876.724
 20
-199.889
 30
3605.000
 70
    32
  0
VERTEX
  8
E17LXLIFT
 62
3
 10
-869.200
 20
-203.391
 30
3605.000
 70
    32
  0
VERTEX
  8
E17LXLIFT
 62
3
 10
-863.905
 20
-206.248
 30
3605.000
 70
    32
  0
VERTEX
  8
E17LXLIFT
 62
3
 10
-855.758
 20
-208.082
 30
3605.000
 70
    32
  0
VERTEX
  8
E17LXLIFT
 62
3
 10
-849.266
 20
-207.095
 30
3605.000
 70
    32
  0
VERTEX
  8
E17LXLIFT
 62
3
 10
-844.330
 20
-204.308
 30
3605.000
 70
    32
  0
VERTEX
  8
E17LXLIFT
 62
3
 10
-838.173
 20
-200.067
 30
3605.000
 70
    32
  0
VERTEX
  8
E17LXLIFT
 62
3
 10
-837.827
 20
-194.338
 30
3605.000
 70
    32
  0
VERTEX
  8
E17LXLIFT
 62
3
 10
-841.318
 20
-192.878
 30
3605.000
 70
    32
  0
VERTEX
  8
E17LXLIFT
 62
3
 10
-847.020
 20
-194.045
 30
3605.000
 70
    32
  0
VERTEX
  8
E17LXLIFT
 62
3
 10
-851.183
 20
-189.910
 30
3605.000
 70
    32
  0
VERTEX
  8
E17LXLIFT
 62
3
 10
-849.836
 20
-184.204
 30
3605.000
 70
    32
  0
VERTEX
  8
E17LXLIFT
 62
3
 10
-843.130
 20
-182.620
 30
3605.000
 70
    32
  0
VERTEX
  8
E17LXLIFT
 62
3
 10
-837.644
 20
-182.490
 30
3605.000
 70
    32
  0
VERTEX
  8
E17LXLIFT
 62
3
 10
-832.954
 20
-179.666
 30
3605.000
 70
    32
  0
VERTEX
  8
E17LXLIFT
 62
3
 10
-827.862
 20
-180.922
 30
3605.000
 70
    32
  0
VERTEX
  8
E17LXLIFT
 62
3
 10
-825.329
 20
-190.973
 30
3605.000
 70
    32
  0
VERTEX
  8
E17LXLIFT
 62
3
 10
-822.048
 20
-202.768
 30
3605.000
 70
    32
  0
VERTEX
  8
E17LXLIFT
 62
3
 10
-815.829
 20
-210.411
 30
3605.000
 70
    32
  0
VERTEX
  8
E17LXLIFT
 62
3
 10
-810.345
 20
-217.506
 30
3605.000
 70
    32
  0
VERTEX
  8
E17LXLIFT
 62
3
 10
-805.184
 20
-222.542
 30
3605.000
 70
    32
  0
VERTEX
  8
E17LXLIFT
 62
3
 10
-801.174
 20
-222.194
 30
3605.000
 70
    32
  0
VERTEX
  8
E17LXLIFT
 62
3
 10
-794.156
 20
-224.866
 30
3605.000
 70
    32
  0
VERTEX
  8
E17LXLIFT
 62
3
 10
-784.321
 20
-226.762
 30
3605.000
 70
    32
  0
VERTEX
  8
E17LXLIFT
 62
3
 10
-779.436
 20
-227.296
 30
3605.000
 70
    32
  0
SEQEND
  8
E17LXLIFT
  0
POLYLINE
  8
E17LXLIFT
 62
3
 66
     1
 70
     9
  0
VERTEX
  8
E17LXLIFT
 62
3
 10
-910.052
 20
-231.734
 30
3618.000
 70
    32
  0
VERTEX
  8
E17LXLIFT
 62
3
 10
-905.402
 20
-237.912
 30
3618.000
 70
    32
  0
VERTEX
  8
E17LXLIFT
 62
3
 10
-898.668
 20
-240.431
 30
3618.000
 70
    32
  0
VERTEX
  8
E17LXLIFT
 62
3
 10
-887.983
 20
-241.187
 30
3618.000
 70
    32
  0
VERTEX
  8
E17LXLIFT
 62
3
 10
-879.404
 20
-243.528
 30
3618.000
 70
    32
  0
VERTEX
  8
E17LXLIFT
 62
3
 10
-875.021
 20
-248.036
 30
3618.000
 70
    32
  0
VERTEX
  8
E17LXLIFT
 62
3
 10
-875.202
 20
-255.101
 30
3618.000
 70
    32
  0
VERTEX
  8
E17LXLIFT
 62
3
 10
-875.244
 20
-262.059
 30
3618.000
 70
    32
  0
VERTEX
  8
E17LXLIFT
 62
3
 10
-875.314
 20
-262.112
 30
3618.000
 70
    32
  0
VERTEX
  8
E17LXLIFT
 62
3
 10
-877.500
 20
-268.705
 30
3618.000
 70
    32
  0
VERTEX
  8
E17LXLIFT
 62
3
 10
-879.743
 20
-272.153
 30
3618.000
 70
    32
  0
VERTEX
  8
E17LXLIFT
 62
3
 10
-877.006
 20
-280.320
 30
3618.000
 70
    32
  0
VERTEX
  8
E17LXLIFT
 62
3
 10
-868.904
 20
-280.711
 30
3618.000
 70
    32
  0
VERTEX
  8
E17LXLIFT
 62
3
 10
-859.659
 20
-281.890
 30
3618.000
 70
    32
  0
VERTEX
  8
E17LXLIFT
 62
3
 10
-855.235
 20
-279.440
 30
3618.000
 70
    32
  0
VERTEX
  8
E17LXLIFT
 62
3
 10
-851.604
 20
-275.498
 30
3618.000
 70
    32
  0
VERTEX
  8
E17LXLIFT
 62
3
 10
-849.590
 20
-271.453
 30
3618.000
 70
    32
  0
VERTEX
  8
E17LXLIFT
 62
3
 10
-851.657
 20
-265.201
 30
3618.000
 70
    32
  0
VERTEX
  8
E17LXLIFT
 62
3
 10
-854.477
 20
-259.846
 30
3618.000
 70
    32
  0
VERTEX
  8
E17LXLIFT
 62
3
 10
-851.480
 20
-255.061
 30
3618.000
 70
    32
  0
VERTEX
  8
E17LXLIFT
 62
3
 10
-845.126
 20
-250.939
 30
3618.000
 70
    32
  0
VERTEX
  8
E17LXLIFT
 62
3
 10
-838.728
 20
-251.842
 30
3618.000
 70
    32
  0
VERTEX
  8
E17LXLIFT
 62
3
 10
-831.606
 20
-254.730
 30
3618.000
 70
    32
  0
VERTEX
  8
E17LXLIFT
 62
3
 10
-825.610
 20
-257.584
 30
3618.000
 70
    32
  0
VERTEX
  8
E17LXLIFT
 62
3
 10
-819.520
 20
-263.338
 30
3618.000
 70
    32
  0
VERTEX
  8
E17LXLIFT
 62
3
 10
-811.724
 20
-270.336
 30
3618.000
 70
    32
  0
VERTEX
  8
E17LXLIFT
 62
3
 10
-807.756
 20
-268.450
 30
3618.000
 70
    32
  0
VERTEX
  8
E17LXLIFT
 62
3
 10
-802.022
 20
-271.392
 30
3618.000
 70
    32
  0
VERTEX
  8
E17LXLIFT
 62
3
 10
-797.802
 20
-273.494
 30
3618.000
 70
    32
  0
VERTEX
  8
E17LXLIFT
 62
3
 10
-795.630
 20
-268.781
 30
3618.000
 70
    32
  0
VERTEX
  8
E17LXLIFT
 62
3
 10
-798.500
 20
-265.552
 30
3618.000
 70
    32
  0
VERTEX
  8
E17LXLIFT
 62
3
 10
-806.219
 20
-262.455
 30
3618.000
 70
    32
  0
VERTEX
  8
E17LXLIFT
 62
3
 10
-811.374
 20
-258.967
 30
3618.000
 70
    32
  0
VERTEX
  8
E17LXLIFT
 62
3
 10
-813.401
 20
-255.104
 30
3618.000
 70
    32
  0
VERTEX
  8
E17LXLIFT
 62
3
 10
-817.727
 20
-252.862
 30
3618.000
 70
    32
  0
VERTEX
  8
E17LXLIFT
 62
3
 10
-820.019
 20
-248.648
 30
3618.000
 70
    32
  0
VERTEX
  8
E17LXLIFT
 62
3
 10
-826.860
 20
-245.110
 30
3618.000
 70
    32
  0
VERTEX
  8
E17LXLIFT
 62
3
 10
-834.404
 20
-241.661
 30
3618.000
 70
    32
  0
VERTEX
  8
E17LXLIFT
 62
3
 10
-840.223
 20
-240.212
 30
3618.000
 70
    32
  0
VERTEX
  8
E17LXLIFT
 62
3
 10
-846.250
 20
-240.679
 30
3618.000
 70
    32
  0
VERTEX
  8
E17LXLIFT
 62
3
 10
-852.122
 20
-238.720
 30
3618.000
 70
    32
  0
VERTEX
  8
E17LXLIFT
 62
3
 10
-856.732
 20
-234.932
 30
3618.000
 70
    32
  0
VERTEX
  8
E17LXLIFT
 62
3
 10
-856.143
 20
-229.871
 30
3618.000
 70
    32
  0
VERTEX
  8
E17LXLIFT
 62
3
 10
-851.621
 20
-223.168
 30
3618.000
 70
    32
  0
VERTEX
  8
E17LXLIFT
 62
3
 10
-846.937
 20
-218.433
 30
3618.000
 70
    32
  0
VERTEX
  8
E17LXLIFT
 62
3
 10
-840.081
 20
-219.652
 30
3618.000
 70
    32
  0
VERTEX
  8
E17LXLIFT
 62
3
 10
-834.084
 20
-222.946
 30
3618.000
 70
    32
  0
VERTEX
  8
E17LXLIFT
 62
3
 10
-828.684
 20
-226.030
 30
3618.000
 70
    32
  0
VERTEX
  8
E17LXLIFT
 62
3
 10
-824.700
 20
-223.141
 30
3618.000
 70
    32
  0
VERTEX
  8
E17LXLIFT
 62
3
 10
-822.846
 20
-217.568
 30
3618.000
 70
    32
  0
VERTEX
  8
E17LXLIFT
 62
3
 10
-824.861
 20
-210.507
 30
3618.000
 70
    32
  0
VERTEX
  8
E17LXLIFT
 62
3
 10
-823.751
 20
-202.194
 30
3618.000
 70
    32
  0
VERTEX
  8
E17LXLIFT
 62
3
 10
-824.219
 20
-195.288
 30
3618.000
 70
    32
  0
VERTEX
  8
E17LXLIFT
 62
3
 10
-826.463
 20
-187.631
 30
3618.000
 70
    32
  0
VERTEX
  8
E17LXLIFT
 62
3
 10
-828.141
 20
-182.625
 30
3618.000
 70
    32
  0
VERTEX
  8
E17LXLIFT
 62
3
 10
-833.838
 20
-180.315
 30
3618.000
 70
    32
  0
VERTEX
  8
E17LXLIFT
 62
3
 10
-836.909
 20
-182.956
 30
3618.000
 70
    32
  0
VERTEX
  8
E17LXLIFT
 62
3
 10
-843.531
 20
-184.531
 30
3618.000
 70
    32
  0
VERTEX
  8
E17LXLIFT
 62
3
 10
-850.029
 20
-186.563
 30
3618.000
 70
    32
  0
VERTEX
  8
E17LXLIFT
 62
3
 10
-851.058
 20
-191.186
 30
3618.000
 70
    32
  0
VERTEX
  8
E17LXLIFT
 62
3
 10
-844.850
 20
-194.321
 30
3618.000
 70
    32
  0
VERTEX
  8
E17LXLIFT
 62
3
 10
-836.694
 20
-196.100
 30
3618.000
 70
    32
  0
VERTEX
  8
E17LXLIFT
 62
3
 10
-837.530
 20
-200.248
 30
3618.000
 70
    32
  0
VERTEX
  8
E17LXLIFT
 62
3
 10
-846.172
 20
-202.354
 30
3618.000
 70
    32
  0
VERTEX
  8
E17LXLIFT
 62
3
 10
-857.816
 20
-206.168
 30
3618.000
 70
    32
  0
VERTEX
  8
E17LXLIFT
 62
3
 10
-865.612
 20
-210.276
 30
3618.000
 70
    32
  0
VERTEX
  8
E17LXLIFT
 62
3
 10
-871.388
 20
-213.413
 30
3618.000
 70
    32
  0
VERTEX
  8
E17LXLIFT
 62
3
 10
-874.470
 20
-209.025
 30
3618.000
 70
    32
  0
VERTEX
  8
E17LXLIFT
 62
3
 10
-880.089
 20
-200.828
 30
3618.000
 70
    32
  0
VERTEX
  8
E17LXLIFT
 62
3
 10
-885.027
 20
-201.135
 30
3618.000
 70
    32
  0
VERTEX
  8
E17LXLIFT
 62
3
 10
-889.692
 20
-206.625
 30
3618.000
 70
    32
  0
VERTEX
  8
E17LXLIFT
 62
3
 10
-896.924
 20
-211.188
 30
3618.000
 70
    32
  0
VERTEX
  8
E17LXLIFT
 62
3
 10
-901.625
 20
-216.485
 30
3618.000
 70
    32
  0
VERTEX
  8
E17LXLIFT
 62
3
 10
-907.104
 20
-218.410
 30
3618.000
 70
    32
  0
SEQEND
  8
E17LXLIFT
  0
POLYLINE
  8
E17LXLIFT
 62
13
 66
     1
 70
     9
  0
VERTEX
  8
E17LXLIFT
 62
13
 10
-737.256
 20
-98.392
 30
3615.000
 70
    32
  0
VERTEX
  8
E17LXLIFT
 62
13
 10
-733.734
 20
-92.113
 30
3615.000
 70
    32
  0
VERTEX
  8
E17LXLIFT
 62
13
 10
-735.120
 20
-82.820
 30
3615.000
 70
    32
  0
VERTEX
  8
E17LXLIFT
 62
13
 10
-738.365
 20
-76.025
 30
3615.000
 70
    32
  0
VERTEX
  8
E17LXLIFT
 62
13
 10
-745.873
 20
-72.769
 30
3615.000
 70
    32
  0
VERTEX
  8
E17LXLIFT
 62
13
 10
-752.019
 20
-64.748
 30
3615.000
 70
    32
  0
VERTEX
  8
E17LXLIFT
 62
13
 10
-756.145
 20
-56.197
 30
3615.000
 70
    32
  0
VERTEX
  8
E17LXLIFT
 62
13
 10
-749.599
 20
-51.161
 30
3615.000
 70
    32
  0
VERTEX
  8
E17LXLIFT
 62
13
 10
-740.851
 20
-49.635
 30
3615.000
 70
    32
  0
VERTEX
  8
E17LXLIFT
 62
13
 10
-736.270
 20
-56.744
 30
3615.000
 70
    32
  0
VERTEX
  8
E17LXLIFT
 62
13
 10
-731.707
 20
-63.977
 30
3615.000
 70
    32
  0
VERTEX
  8
E17LXLIFT
 62
13
 10
-727.755
 20
-73.758
 30
3615.000
 70
    32
  0
VERTEX
  8
E17LXLIFT
 62
13
 10
-724.138
 20
-82.362
 30
3615.000
 70
    32
  0
VERTEX
  8
E17LXLIFT
 62
13
 10
-717.450
 20
-88.765
 30
3615.000
 70
    32
  0
VERTEX
  8
E17LXLIFT
 62
13
 10
-710.819
 20
-92.901
 30
3615.000
 70
    32
  0
VERTEX
  8
E17LXLIFT
 62
13
 10
-704.812
 20
-90.800
 30
3615.000
 70
    32
  0
VERTEX
  8
E17LXLIFT
 62
13
 10
-698.080
 20
-92.001
 30
3615.000
 70
    32
  0
VERTEX
  8
E17LXLIFT
 62
13
 10
-699.441
 20
-98.084
 30
3615.000
 70
    32
  0
VERTEX
  8
E17LXLIFT
 62
13
 10
-707.382
 20
-98.782
 30
3615.000
 70
    32
  0
VERTEX
  8
E17LXLIFT
 62
13
 10
-709.111
 20
-105.691
 30
3615.000
 70
    32
  0
VERTEX
  8
E17LXLIFT
 62
13
 10
-704.264
 20
-114.469
 30
3615.000
 70
    32
  0
VERTEX
  8
E17LXLIFT
 62
13
 10
-696.900
 20
-125.861
 30
3615.000
 70
    32
  0
VERTEX
  8
E17LXLIFT
 62
13
 10
-690.667
 20
-133.266
 30
3615.000
 70
    32
  0
VERTEX
  8
E17LXLIFT
 62
13
 10
-694.947
 20
-137.807
 30
3615.000
 70
    32
  0
VERTEX
  8
E17LXLIFT
 62
13
 10
-701.002
 20
-142.034
 30
3615.000
 70
    32
  0
VERTEX
  8
E17LXLIFT
 62
13
 10
-707.865
 20
-136.423
 30
3615.000
 70
    32
  0
VERTEX
  8
E17LXLIFT
 62
13
 10
-715.395
 20
-130.654
 30
3615.000
 70
    32
  0
VERTEX
  8
E17LXLIFT
 62
13
 10
-720.397
 20
-134.528
 30
3615.000
 70
    32
  0
VERTEX
  8
E17LXLIFT
 62
13
 10
-724.902
 20
-130.880
 30
3615.000
 70
    32
  0
VERTEX
  8
E17LXLIFT
 62
13
 10
-729.129
 20
-124.825
 30
3615.000
 70
    32
  0
VERTEX
  8
E17LXLIFT
 62
13
 10
-726.960
 20
-118.794
 30
3615.000
 70
    32
  0
VERTEX
  8
E17LXLIFT
 62
13
 10
-728.237
 20
-111.838
 30
3615.000
 70
    32
  0
VERTEX
  8
E17LXLIFT
 62
13
 10
-734.835
 20
-106.577
 30
3615.000
 70
    32
  0
SEQEND
  8
E17LXLIFT
  0
POLYLINE
  8
E17LXLIFT
 62
13
 66
     1
 70
     9
  0
VERTEX
  8
E17LXLIFT
 62
13
 10
-732.483
 20
-106.629
 30
3635.000
 70
    32
  0
VERTEX
  8
E17LXLIFT
 62
13
 10
-729.838
 20
-110.578
 30
3635.000
 70
    32
  0
VERTEX
  8
E17LXLIFT
 62
13
 10
-730.156
 20
-117.749
 30
3635.000
 70
    32
  0
VERTEX
  8
E17LXLIFT
 62
13
 10
-730.297
 20
-125.008
 30
3635.000
 70
    32
  0
VERTEX
  8
E17LXLIFT
 62
13
 10
-726.576
 20
-130.677
 30
3635.000
 70
    32
  0
VERTEX
  8
E17LXLIFT
 62
13
 10
-726.242
 20
-138.568
 30
3635.000
 70
    32
  0
VERTEX
  8
E17LXLIFT
 62
13
 10
-728.597
 20
-146.394
 30
3635.000
 70
    32
  0
VERTEX
  8
E17LXLIFT
 62
13
 10
-733.611
 20
-152.153
 30
3635.000
 70
    32
  0
VERTEX
  8
E17LXLIFT
 62
13
 10
-736.732
 20
-155.605
 30
3635.000
 70
    32
  0
VERTEX
  8
E17LXLIFT
 62
13
 10
-745.005
 20
-157.768
 30
3635.000
 70
    32
  0
VERTEX
  8
E17LXLIFT
 62
13
 10
-749.119
 20
-157.127
 30
3635.000
 70
    32
  0
VERTEX
  8
E17LXLIFT
 62
13
 10
-751.536
 20
-160.929
 30
3635.000
 70
    32
  0
VERTEX
  8
E17LXLIFT
 62
13
 10
-752.752
 20
-167.347
 30
3635.000
 70
    32
  0
VERTEX
  8
E17LXLIFT
 62
13
 10
-744.493
 20
-166.625
 30
3635.000
 70
    32
  0
VERTEX
  8
E17LXLIFT
 62
13
 10
-739.409
 20
-168.846
 30
3635.000
 70
    32
  0
VERTEX
  8
E17LXLIFT
 62
13
 10
-734.667
 20
-174.846
 30
3635.000
 70
    32
  0
VERTEX
  8
E17LXLIFT
 62
13
 10
-730.819
 20
-182.290
 30
3635.000
 70
    32
  0
VERTEX
  8
E17LXLIFT
 62
13
 10
-727.270
 20
-189.628
 30
3635.000
 70
    32
  0
VERTEX
  8
E17LXLIFT
 62
13
 10
-723.356
 20
-194.822
 30
3635.000
 70
    32
  0
VERTEX
  8
E17LXLIFT
 62
13
 10
-715.217
 20
-187.808
 30
3635.000
 70
    32
  0
VERTEX
  8
E17LXLIFT
 62
13
 10
-720.616
 20
-178.453
 30
3635.000
 70
    32
  0
VERTEX
  8
E17LXLIFT
 62
13
 10
-723.728
 20
-170.234
 30
3635.000
 70
    32
  0
VERTEX
  8
E17LXLIFT
 62
13
 10
-721.943
 20
-166.469
 30
3635.000
 70
    32
  0
VERTEX
  8
E17LXLIFT
 62
13
 10
-722.840
 20
-158.562
 30
3635.000
 70
    32
  0
VERTEX
  8
E17LXLIFT
 62
13
 10
-722.379
 20
-152.602
 30
3635.000
 70
    32
  0
VERTEX
  8
E17LXLIFT
 62
13
 10
-719.073
 20
-145.600
 30
3635.000
 70
    32
  0
VERTEX
  8
E17LXLIFT
 62
13
 10
-715.400
 20
-137.331
 30
3635.000
 70
    32
  0
VERTEX
  8
E17LXLIFT
 62
13
 10
-708.143
 20
-144.626
 30
3635.000
 70
    32
  0
VERTEX
  8
E17LXLIFT
 62
13
 10
-700.973
 20
-151.658
 30
3635.000
 70
    32
  0
VERTEX
  8
E17LXLIFT
 62
13
 10
-696.055
 20
-158.185
 30
3635.000
 70
    32
  0
VERTEX
  8
E17LXLIFT
 62
13
 10
-692.157
 20
-164.381
 30
3635.000
 70
    32
  0
VERTEX
  8
E17LXLIFT
 62
13
 10
-695.612
 20
-167.534
 30
3635.000
 70
    32
  0
VERTEX
  8
E17LXLIFT
 62
13
 10
-698.365
 20
-170.599
 30
3635.000
 70
    32
  0
VERTEX
  8
E17LXLIFT
 62
13
 10
-692.859
 20
-180.534
 30
3635.000
 70
    32
  0
VERTEX
  8
E17LXLIFT
 62
13
 10
-686.418
 20
-191.856
 30
3635.000
 70
    32
  0
VERTEX
  8
E17LXLIFT
 62
13
 10
-681.587
 20
-198.560
 30
3635.000
 70
    32
  0
VERTEX
  8
E17LXLIFT
 62
13
 10
-674.149
 20
-200.107
 30
3635.000
 70
    32
  0
VERTEX
  8
E17LXLIFT
 62
13
 10
-667.230
 20
-197.314
 30
3635.000
 70
    32
  0
VERTEX
  8
E17LXLIFT
 62
13
 10
-663.814
 20
-192.649
 30
3635.000
 70
    32
  0
VERTEX
  8
E17LXLIFT
 62
13
 10
-664.640
 20
-184.689
 30
3635.000
 70
    32
  0
VERTEX
  8
E17LXLIFT
 62
13
 10
-665.643
 20
-176.202
 30
3635.000
 70
    32
  0
VERTEX
  8
E17LXLIFT
 62
13
 10
-660.993
 20
-173.028
 30
3635.000
 70
    32
  0
VERTEX
  8
E17LXLIFT
 62
13
 10
-656.212
 20
-172.947
 30
3635.000
 70
    32
  0
VERTEX
  8
E17LXLIFT
 62
13
 10
-651.464
 20
-174.430
 30
3635.000
 70
    32
  0
VERTEX
  8
E17LXLIFT
 62
13
 10
-646.509
 20
-173.558
 30
3635.000
 70
    32
  0
VERTEX
  8
E17LXLIFT
 62
13
 10
-644.957
 20
-168.317
 30
3635.000
 70
    32
  0
VERTEX
  8
E17LXLIFT
 62
13
 10
-649.615
 20
-160.383
 30
3635.000
 70
    32
  0
VERTEX
  8
E17LXLIFT
 62
13
 10
-654.481
 20
-153.487
 30
3635.000
 70
    32
  0
VERTEX
  8
E17LXLIFT
 62
13
 10
-659.171
 20
-147.117
 30
3635.000
 70
    32
  0
VERTEX
  8
E17LXLIFT
 62
13
 10
-660.630
 20
-139.194
 30
3635.000
 70
    32
  0
VERTEX
  8
E17LXLIFT
 62
13
 10
-665.740
 20
-133.141
 30
3635.000
 70
    32
  0
VERTEX
  8
E17LXLIFT
 62
13
 10
-665.158
 20
-126.321
 30
3635.000
 70
    32
  0
VERTEX
  8
E17LXLIFT
 62
13
 10
-676.084
 20
-129.052
 30
3635.000
 70
    32
  0
VERTEX
  8
E17LXLIFT
 62
13
 10
-674.215
 20
-139.418
 30
3635.000
 70
    32
  0
VERTEX
  8
E17LXLIFT
 62
13
 10
-673.149
 20
-144.776
 30
3635.000
 70
    32
  0
VERTEX
  8
E17LXLIFT
 62
13
 10
-679.669
 20
-144.738
 30
3635.000
 70
    32
  0
VERTEX
  8
E17LXLIFT
 62
13
 10
-685.935
 20
-141.096
 30
3635.000
 70
    32
  0
VERTEX
  8
E17LXLIFT
 62
13
 10
-692.969
 20
-139.354
 30
3635.000
 70
    32
  0
VERTEX
  8
E17LXLIFT
 62
13
 10
-695.508
 20
-135.546
 30
3635.000
 70
    32
  0
VERTEX
  8
E17LXLIFT
 62
13
 10
-693.130
 20
-130.233
 30
3635.000
 70
    32
  0
VERTEX
  8
E17LXLIFT
 62
13
 10
-695.644
 20
-122.224
 30
3635.000
 70
    32
  0
VERTEX
  8
E17LXLIFT
 62
13
 10
-703.152
 20
-113.136
 30
3635.000
 70
    32
  0
VERTEX
  8
E17LXLIFT
 62
13
 10
-709.857
 20
-101.463
 30
3635.000
 70
    32
  0
VERTEX
  8
E17LXLIFT
 62
13
 10
-719.133
 20
-87.547
 30
3635.000
 70
    32
  0
VERTEX
  8
E17LXLIFT
 62
13
 10
-726.170
 20
-76.894
 30
3635.000
 70
    32
  0
VERTEX
  8
E17LXLIFT
 62
13
 10
-733.698
 20
-66.611
 30
3635.000
 70
    32
  0
VERTEX
  8
E17LXLIFT
 62
13
 10
-732.966
 20
-63.639
 30
3635.000
 70
    32
  0
VERTEX
  8
E17LXLIFT
 62
13
 10
-734.907
 20
-60.480
 30
3635.000
 70
    32
  0
VERTEX
  8
E17LXLIFT
 62
13
 10
-732.753
 20
-56.767
 30
3635.000
 70
    32
  0
VERTEX
  8
E17LXLIFT
 62
13
 10
-731.864
 20
-53.566
 30
3635.000
 70
    32
  0
VERTEX
  8
E17LXLIFT
 62
13
 10
-737.974
 20
-48.816
 30
3635.000
 70
    32
  0
VERTEX
  8
E17LXLIFT
 62
13
 10
-740.780
 20
-43.778
 30
3635.000
 70
    32
  0
VERTEX
  8
E17LXLIFT
 62
13
 10
-740.358
 20
-35.868
 30
3635.000
 70
    32
  0
VERTEX
  8
E17LXLIFT
 62
13
 10
-739.336
 20
-29.047
 30
3635.000
 70
    32
  0
VERTEX
  8
E17LXLIFT
 62
13
 10
-742.247
 20
-24.308
 30
3635.000
 70
    32
  0
VERTEX
  8
E17LXLIFT
 62
13
 10
-741.120
 20
-17.626
 30
3635.000
 70
    32
  0
VERTEX
  8
E17LXLIFT
 62
13
 10
-741.112
 20
-13.109
 30
3635.000
 70
    32
  0
VERTEX
  8
E17LXLIFT
 62
13
 10
-749.755
 20
-7.188
 30
3635.000
 70
    32
  0
VERTEX
  8
E17LXLIFT
 62
13
 10
-754.006
 20
-16.003
 30
3635.000
 70
    32
  0
VERTEX
  8
E17LXLIFT
 62
13
 10
-757.609
 20
-24.219
 30
3635.000
 70
    32
  0
VERTEX
  8
E17LXLIFT
 62
13
 10
-756.271
 20
-33.004
 30
3635.000
 70
    32
  0
VERTEX
  8
E17LXLIFT
 62
13
 10
-757.592
 20
-39.282
 30
3635.000
 70
    32
  0
VERTEX
  8
E17LXLIFT
 62
13
 10
-755.837
 20
-45.992
 30
3635.000
 70
    32
  0
VERTEX
  8
E17LXLIFT
 62
13
 10
-754.809
 20
-49.839
 30
3635.000
 70
    32
  0
VERTEX
  8
E17LXLIFT
 62
13
 10
-757.577
 20
-53.905
 30
3635.000
 70
    32
  0
VERTEX
  8
E17LXLIFT
 62
13
 10
-752.230
 20
-63.630
 30
3635.000
 70
    32
  0
VERTEX
  8
E17LXLIFT
 62
13
 10
-747.804
 20
-70.088
 30
3635.000
 70
    32
  0
VERTEX
  8
E17LXLIFT
 62
13
 10
-740.817
 20
-73.956
 30
3635.000
 70
    32
  0
VERTEX
  8
E17LXLIFT
 62
13
 10
-737.197
 20
-81.682
 30
3635.000
 70
    32
  0
VERTEX
  8
E17LXLIFT
 62
13
 10
-736.413
 20
-86.373
 30
3635.000
 70
    32
  0
VERTEX
  8
E17LXLIFT
 62
13
 10
-741.373
 20
-92.641
 30
3635.000
 70
    32
  0
SEQEND
  8
E17LXLIFT
  0
POLYLINE
  8
E17LXLIFT
 62
8
 66
     1
 70
     9
  0
VERTEX
  8
E17LXLIFT
 62
8
 10
-527.832
 20
-581.931
 30
3650.000
 70
    32
  0
VERTEX
  8
E17LXLIFT
 62
8
 10
-533.323
 20
-562.962
 30
3650.000
 70
    32
  0
VERTEX
  8
E17LXLIFT
 62
8
 10
-536.504
 20
-547.203
 30
3650.000
 70
    32
  0
VERTEX
  8
E17LXLIFT
 62
8
 10
-539.308
 20
-535.451
 30
3650.000
 70
    32
  0
VERTEX
  8
E17LXLIFT
 62
8
 10
-551.461
 20
-524.142
 30
3650.000
 70
    32
  0
VERTEX
  8
E17LXLIFT
 62
8
 10
-564.742
 20
-511.043
 30
3650.000
 70
    32
  0
VERTEX
  8
E17LXLIFT
 62
8
 10
-579.714
 20
-497.016
 30
3650.000
 70
    32
  0
VERTEX
  8
E17LXLIFT
 62
8
 10
-583.701
 20
-482.524
 30
3650.000
 70
    32
  0
VERTEX
  8
E17LXLIFT
 62
8
 10
-587.167
 20
-472.813
 30
3650.000
 70
    32
  0
VERTEX
  8
E17LXLIFT
 62
8
 10
-597.165
 20
-466.262
 30
3650.000
 70
    32
  0
VERTEX
  8
E17LXLIFT
 62
8
 10
-602.451
 20
-452.529
 30
3650.000
 70
    32
  0
VERTEX
  8
E17LXLIFT
 62
8
 10
-614.177
 20
-443.539
 30
3650.000
 70
    32
  0
VERTEX
  8
E17LXLIFT
 62
8
 10
-618.508
 20
-432.388
 30
3650.000
 70
    32
  0
VERTEX
  8
E17LXLIFT
 62
8
 10
-618.669
 20
-415.674
 30
3650.000
 70
    32
  0
VERTEX
  8
E17LXLIFT
 62
8
 10
-616.309
 20
-402.012
 30
3650.000
 70
    32
  0
VERTEX
  8
E17LXLIFT
 62
8
 10
-611.962
 20
-388.944
 30
3650.000
 70
    32
  0
VERTEX
  8
E17LXLIFT
 62
8
 10
-607.702
 20
-376.490
 30
3650.000
 70
    32
  0
VERTEX
  8
E17LXLIFT
 62
8
 10
-609.164
 20
-367.249
 30
3650.000
 70
    32
  0
VERTEX
  8
E17LXLIFT
 62
8
 10
-605.186
 20
-354.128
 30
3650.000
 70
    32
  0
VERTEX
  8
E17LXLIFT
 62
8
 10
-604.979
 20
-352.651
 30
3650.000
 70
    32
  0
VERTEX
  8
E17LXLIFT
 62
8
 10
-605.840
 20
-344.937
 30
3650.000
 70
    32
  0
VERTEX
  8
E17LXLIFT
 62
8
 10
-608.631
 20
-338.458
 30
3650.000
 70
    32
  0
VERTEX
  8
E17LXLIFT
 62
8
 10
-606.862
 20
-328.102
 30
3650.000
 70
    32
  0
VERTEX
  8
E17LXLIFT
 62
8
 10
-603.376
 20
-314.912
 30
3650.000
 70
    32
  0
VERTEX
  8
E17LXLIFT
 62
8
 10
-607.438
 20
-306.309
 30
3650.000
 70
    32
  0
VERTEX
  8
E17LXLIFT
 62
8
 10
-606.679
 20
-291.983
 30
3650.000
 70
    32
  0
VERTEX
  8
E17LXLIFT
 62
8
 10
-613.514
 20
-277.217
 30
3650.000
 70
    32
  0
VERTEX
  8
E17LXLIFT
 62
8
 10
-624.540
 20
-266.819
 30
3650.000
 70
    32
  0
VERTEX
  8
E17LXLIFT
 62
8
 10
-635.358
 20
-255.384
 30
3650.000
 70
    32
  0
VERTEX
  8
E17LXLIFT
 62
8
 10
-644.806
 20
-243.137
 30
3650.000
 70
    32
  0
VERTEX
  8
E17LXLIFT
 62
8
 10
-653.135
 20
-228.287
 30
3650.000
 70
    32
  0
VERTEX
  8
E17LXLIFT
 62
8
 10
-661.450
 20
-235.652
 30
3650.000
 70
    32
  0
VERTEX
  8
E17LXLIFT
 62
8
 10
-669.907
 20
-241.805
 30
3650.000
 70
    32
  0
VERTEX
  8
E17LXLIFT
 62
8
 10
-673.213
 20
-248.808
 30
3650.000
 70
    32
  0
VERTEX
  8
E17LXLIFT
 62
8
 10
-670.857
 20
-257.046
 30
3650.000
 70
    32
  0
VERTEX
  8
E17LXLIFT
 62
8
 10
-672.176
 20
-264.641
 30
3650.000
 70
    32
  0
VERTEX
  8
E17LXLIFT
 62
8
 10
-664.347
 20
-275.908
 30
3650.000
 70
    32
  0
VERTEX
  8
E17LXLIFT
 62
8
 10
-652.480
 20
-285.231
 30
3650.000
 70
    32
  0
VERTEX
  8
E17LXLIFT
 62
8
 10
-644.008
 20
-293.262
 30
3650.000
 70
    32
  0
VERTEX
  8
E17LXLIFT
 62
8
 10
-641.703
 20
-301.869
 30
3650.000
 70
    32
  0
VERTEX
  8
E17LXLIFT
 62
8
 10
-647.591
 20
-309.827
 30
3650.000
 70
    32
  0
VERTEX
  8
E17LXLIFT
 62
8
 10
-643.842
 20
-320.205
 30
3650.000
 70
    32
  0
VERTEX
  8
E17LXLIFT
 62
8
 10
-638.557
 20
-333.499
 30
3650.000
 70
    32
  0
VERTEX
  8
E17LXLIFT
 62
8
 10
-630.708
 20
-345.520
 30
3650.000
 70
    32
  0
VERTEX
  8
E17LXLIFT
 62
8
 10
-630.850
 20
-360.812
 30
3650.000
 70
    32
  0
VERTEX
  8
E17LXLIFT
 62
8
 10
-632.383
 20
-374.401
 30
3650.000
 70
    32
  0
VERTEX
  8
E17LXLIFT
 62
8
 10
-629.656
 20
-391.163
 30
3650.000
 70
    32
  0
VERTEX
  8
E17LXLIFT
 62
8
 10
-631.064
 20
-406.088
 30
3650.000
 70
    32
  0
VERTEX
  8
E17LXLIFT
 62
8
 10
-633.721
 20
-412.491
 30
3650.000
 70
    32
  0
VERTEX
  8
E17LXLIFT
 62
8
 10
-638.161
 20
-415.507
 30
3650.000
 70
    32
  0
VERTEX
  8
E17LXLIFT
 62
8
 10
-636.265
 20
-422.551
 30
3650.000
 70
    32
  0
VERTEX
  8
E17LXLIFT
 62
8
 10
-640.728
 20
-430.646
 30
3650.000
 70
    32
  0
VERTEX
  8
E17LXLIFT
 62
8
 10
-633.728
 20
-440.666
 30
3650.000
 70
    32
  0
VERTEX
  8
E17LXLIFT
 62
8
 10
-617.533
 20
-459.822
 30
3650.000
 70
    32
  0
VERTEX
  8
E17LXLIFT
 62
8
 10
-609.294
 20
-473.530
 30
3650.000
 70
    32
  0
VERTEX
  8
E17LXLIFT
 62
8
 10
-600.478
 20
-485.814
 30
3650.000
 70
    32
  0
VERTEX
  8
E17LXLIFT
 62
8
 10
-595.609
 20
-494.028
 30
3650.000
 70
    32
  0
VERTEX
  8
E17LXLIFT
 62
8
 10
-587.764
 20
-504.732
 30
3650.000
 70
    32
  0
VERTEX
  8
E17LXLIFT
 62
8
 10
-575.645
 20
-516.287
 30
3650.000
 70
    32
  0
VERTEX
  8
E17LXLIFT
 62
8
 10
-560.714
 20
-528.364
 30
3650.000
 70
    32
  0
VERTEX
  8
E17LXLIFT
 62
8
 10
-552.877
 20
-535.113
 30
3650.000
 70
    32
  0
VERTEX
  8
E17LXLIFT
 62
8
 10
-549.878
 20
-548.147
 30
3650.000
 70
    32
  0
VERTEX
  8
E17LXLIFT
 62
8
 10
-544.711
 20
-563.620
 30
3650.000
 70
    32
  0
VERTEX
  8
E17LXLIFT
 62
8
 10
-539.688
 20
-585.034
 30
3650.000
 70
    32
  0
SEQEND
  8
E17LXLIFT
  0
POLYLINE
  8
E17LXLIFT
 62
11
 66
     1
 70
     9
  0
VERTEX
  8
E17LXLIFT
 62
11
 10
-1050.702
 20
79.030
 30
3655.000
 70
    32
  0
VERTEX
  8
E17LXLIFT
 62
11
 10
-1059.546
 20
85.302
 30
3655.000
 70
    32
  0
VERTEX
  8
E17LXLIFT
 62
11
 10
-1068.765
 20
91.191
 30
3655.000
 70
    32
  0
VERTEX
  8
E17LXLIFT
 62
11
 10
-1077.391
 20
98.058
 30
3655.000
 70
    32
  0
VERTEX
  8
E17LXLIFT
 62
11
 10
-1076.849
 20
105.648
 30
3655.000
 70
    32
  0
VERTEX
  8
E17LXLIFT
 62
11
 10
-1077.491
 20
115.748
 30
3655.000
 70
    32
  0
VERTEX
  8
E17LXLIFT
 62
11
 10
-1074.753
 20
118.408
 30
3655.000
 70
    32
  0
VERTEX
  8
E17LXLIFT
 62
11
 10
-1073.182
 20
122.065
 30
3655.000
 70
    32
  0
VERTEX
  8
E17LXLIFT
 62
11
 10
-1074.104
 20
130.762
 30
3655.000
 70
    32
  0
VERTEX
  8
E17LXLIFT
 62
11
 10
-1065.866
 20
131.566
 30
3655.000
 70
    32
  0
VERTEX
  8
E17LXLIFT
 62
11
 10
-1064.474
 20
127.137
 30
3655.000
 70
    32
  0
VERTEX
  8
E17LXLIFT
 62
11
 10
-1064.034
 20
119.395
 30
3655.000
 70
    32
  0
VERTEX
  8
E17LXLIFT
 62
11
 10
-1058.359
 20
115.814
 30
3655.000
 70
    32
  0
VERTEX
  8
E17LXLIFT
 62
11
 10
-1056.537
 20
110.501
 30
3655.000
 70
    32
  0
VERTEX
  8
E17LXLIFT
 62
11
 10
-1054.023
 20
101.118
 30
3655.000
 70
    32
  0
VERTEX
  8
E17LXLIFT
 62
11
 10
-1049.419
 20
93.048
 30
3655.000
 70
    32
  0
VERTEX
  8
E17LXLIFT
 62
11
 10
-1046.448
 20
88.249
 30
3655.000
 70
    32
  0
SEQEND
  8
E17LXLIFT
  0
POLYLINE
  8
E17LXLIFT
 62
1
 66
     1
 70
     9
  0
VERTEX
  8
E17LXLIFT
 62
1
 10
-1049.702
 20
80.030
 30
3665.000
 70
    32
  0
VERTEX
  8
E17LXLIFT
 62
1
 10
-1058.546
 20
86.302
 30
3665.000
 70
    32
  0
VERTEX
  8
E17LXLIFT
 62
1
 10
-1067.765
 20
92.191
 30
3665.000
 70
    32
  0
VERTEX
  8
E17LXLIFT
 62
1
 10
-1076.391
 20
99.058
 30
3665.000
 70
    32
  0
VERTEX
  8
E17LXLIFT
 62
1
 10
-1075.849
 20
106.648
 30
3665.000
 70
    32
  0
VERTEX
  8
E17LXLIFT
 62
1
 10
-1076.491
 20
116.748
 30
3665.000
 70
    32
  0
VERTEX
  8
E17LXLIFT
 62
1
 10
-1073.753
 20
119.408
 30
3665.000
 70
    32
  0
VERTEX
  8
E17LXLIFT
 62
1
 10
-1072.182
 20
123.065
 30
3665.000
 70
    32
  0
VERTEX
  8
E17LXLIFT
 62
1
 10
-1073.104
 20
131.762
 30
3665.000
 70
    32
  0
VERTEX
  8
E17LXLIFT
 62
1
 10
-1064.866
 20
132.566
 30
3665.000
 70
    32
  0
VERTEX
  8
E17LXLIFT
 62
1
 10
-1063.474
 20
128.137
 30
3665.000
 70
    32
  0
VERTEX
  8
E17LXLIFT
 62
1
 10
-1063.034
 20
120.395
 30
3665.000
 70
    32
  0
VERTEX
  8
E17LXLIFT
 62
1
 10
-1057.359
 20
116.814
 30
3665.000
 70
    32
  0
VERTEX
  8
E17LXLIFT
 62
1
 10
-1055.537
 20
111.501
 30
3665.000
 70
    32
  0
VERTEX
  8
E17LXLIFT
 62
1
 10
-1053.023
 20
102.118
 30
3665.000
 70
    32
  0
VERTEX
  8
E17LXLIFT
 62
1
 10
-1048.419
 20
94.048
 30
3665.000
 70
    32
  0
VERTEX
  8
E17LXLIFT
 62
1
 10
-1045.448
 20
89.249
 30
3665.000
 70
    32
  0
SEQEND
  8
E17LXLIFT
  0
POLYLINE
  8
E17LXLIFT
 62
1
 66
     1
 70
     9
  0
VERTEX
  8
E17LXLIFT
 62
1
 10
-740.373
 20
-91.641
 30
3645.000
 70
    32
  0
VERTEX
  8
E17LXLIFT
 62
1
 10
-735.413
 20
-85.373
 30
3645.000
 70
    32
  0
VERTEX
  8
E17LXLIFT
 62
1
 10
-736.197
 20
-80.682
 30
3645.000
 70
    32
  0
VERTEX
  8
E17LXLIFT
 62
1
 10
-739.817
 20
-72.956
 30
3645.000
 70
    32
  0
VERTEX
  8
E17LXLIFT
 62
1
 10
-746.804
 20
-69.088
 30
3645.000
 70
    32
  0
VERTEX
  8
E17LXLIFT
 62
1
 10
-751.230
 20
-62.630
 30
3645.000
 70
    32
  0
VERTEX
  8
E17LXLIFT
 62
1
 10
-756.577
 20
-52.905
 30
3645.000
 70
    32
  0
VERTEX
  8
E17LXLIFT
 62
1
 10
-753.809
 20
-48.839
 30
3645.000
 70
    32
  0
VERTEX
  8
E17LXLIFT
 62
1
 10
-754.837
 20
-44.992
 30
3645.000
 70
    32
  0
VERTEX
  8
E17LXLIFT
 62
1
 10
-756.592
 20
-38.282
 30
3645.000
 70
    32
  0
VERTEX
  8
E17LXLIFT
 62
1
 10
-755.271
 20
-32.004
 30
3645.000
 70
    32
  0
VERTEX
  8
E17LXLIFT
 62
1
 10
-756.609
 20
-23.219
 30
3645.000
 70
    32
  0
VERTEX
  8
E17LXLIFT
 62
1
 10
-753.006
 20
-15.003
 30
3645.000
 70
    32
  0
VERTEX
  8
E17LXLIFT
 62
1
 10
-748.755
 20
-6.188
 30
3645.000
 70
    32
  0
VERTEX
  8
E17LXLIFT
 62
1
 10
-740.112
 20
-12.109
 30
3645.000
 70
    32
  0
VERTEX
  8
E17LXLIFT
 62
1
 10
-740.120
 20
-16.626
 30
3645.000
 70
    32
  0
VERTEX
  8
E17LXLIFT
 62
1
 10
-741.247
 20
-23.308
 30
3645.000
 70
    32
  0
VERTEX
  8
E17LXLIFT
 62
1
 10
-738.336
 20
-28.047
 30
3645.000
 70
    32
  0
VERTEX
  8
E17LXLIFT
 62
1
 10
-739.358
 20
-34.868
 30
3645.000
 70
    32
  0
VERTEX
  8
E17LXLIFT
 62
1
 10
-739.780
 20
-42.778
 30
3645.000
 70
    32
  0
VERTEX
  8
E17LXLIFT
 62
1
 10
-736.974
 20
-47.816
 30
3645.000
 70
    32
  0
VERTEX
  8
E17LXLIFT
 62
1
 10
-730.864
 20
-52.566
 30
3645.000
 70
    32
  0
VERTEX
  8
E17LXLIFT
 62
1
 10
-731.753
 20
-55.767
 30
3645.000
 70
    32
  0
VERTEX
  8
E17LXLIFT
 62
1
 10
-733.907
 20
-59.480
 30
3645.000
 70
    32
  0
VERTEX
  8
E17LXLIFT
 62
1
 10
-731.966
 20
-62.639
 30
3645.000
 70
    32
  0
VERTEX
  8
E17LXLIFT
 62
1
 10
-732.698
 20
-65.611
 30
3645.000
 70
    32
  0
VERTEX
  8
E17LXLIFT
 62
1
 10
-725.170
 20
-75.894
 30
3645.000
 70
    32
  0
VERTEX
  8
E17LXLIFT
 62
1
 10
-718.133
 20
-86.547
 30
3645.000
 70
    32
  0
VERTEX
  8
E17LXLIFT
 62
1
 10
-708.857
 20
-100.463
 30
3645.000
 70
    32
  0
VERTEX
  8
E17LXLIFT
 62
1
 10
-702.152
 20
-112.136
 30
3645.000
 70
    32
  0
VERTEX
  8
E17LXLIFT
 62
1
 10
-694.644
 20
-121.224
 30
3645.000
 70
    32
  0
VERTEX
  8
E17LXLIFT
 62
1
 10
-692.130
 20
-129.233
 30
3645.000
 70
    32
  0
VERTEX
  8
E17LXLIFT
 62
1
 10
-694.508
 20
-134.546
 30
3645.000
 70
    32
  0
VERTEX
  8
E17LXLIFT
 62
1
 10
-691.969
 20
-138.354
 30
3645.000
 70
    32
  0
VERTEX
  8
E17LXLIFT
 62
1
 10
-684.935
 20
-140.096
 30
3645.000
 70
    32
  0
VERTEX
  8
E17LXLIFT
 62
1
 10
-678.669
 20
-143.738
 30
3645.000
 70
    32
  0
VERTEX
  8
E17LXLIFT
 62
1
 10
-672.149
 20
-143.776
 30
3645.000
 70
    32
  0
VERTEX
  8
E17LXLIFT
 62
1
 10
-673.215
 20
-138.418
 30
3645.000
 70
    32
  0
VERTEX
  8
E17LXLIFT
 62
1
 10
-675.084
 20
-128.052
 30
3645.000
 70
    32
  0
VERTEX
  8
E17LXLIFT
 62
1
 10
-664.158
 20
-125.321
 30
3645.000
 70
    32
  0
VERTEX
  8
E17LXLIFT
 62
1
 10
-664.740
 20
-132.141
 30
3645.000
 70
    32
  0
VERTEX
  8
E17LXLIFT
 62
1
 10
-659.630
 20
-138.194
 30
3645.000
 70
    32
  0
VERTEX
  8
E17LXLIFT
 62
1
 10
-658.171
 20
-146.117
 30
3645.000
 70
    32
  0
VERTEX
  8
E17LXLIFT
 62
1
 10
-653.481
 20
-152.487
 30
3645.000
 70
    32
  0
VERTEX
  8
E17LXLIFT
 62
1
 10
-648.615
 20
-159.383
 30
3645.000
 70
    32
  0
VERTEX
  8
E17LXLIFT
 62
1
 10
-643.957
 20
-167.317
 30
3645.000
 70
    32
  0
VERTEX
  8
E17LXLIFT
 62
1
 10
-645.509
 20
-172.558
 30
3645.000
 70
    32
  0
VERTEX
  8
E17LXLIFT
 62
1
 10
-650.464
 20
-173.430
 30
3645.000
 70
    32
  0
VERTEX
  8
E17LXLIFT
 62
1
 10
-655.212
 20
-171.947
 30
3645.000
 70
    32
  0
VERTEX
  8
E17LXLIFT
 62
1
 10
-659.993
 20
-172.028
 30
3645.000
 70
    32
  0
VERTEX
  8
E17LXLIFT
 62
1
 10
-664.643
 20
-175.202
 30
3645.000
 70
    32
  0
VERTEX
  8
E17LXLIFT
 62
1
 10
-663.640
 20
-183.689
 30
3645.000
 70
    32
  0
VERTEX
  8
E17LXLIFT
 62
1
 10
-662.814
 20
-191.649
 30
3645.000
 70
    32
  0
VERTEX
  8
E17LXLIFT
 62
1
 10
-666.230
 20
-196.314
 30
3645.000
 70
    32
  0
VERTEX
  8
E17LXLIFT
 62
1
 10
-673.149
 20
-199.107
 30
3645.000
 70
    32
  0
VERTEX
  8
E17LXLIFT
 62
1
 10
-680.587
 20
-197.560
 30
3645.000
 70
    32
  0
VERTEX
  8
E17LXLIFT
 62
1
 10
-685.418
 20
-190.856
 30
3645.000
 70
    32
  0
VERTEX
  8
E17LXLIFT
 62
1
 10
-691.859
 20
-179.534
 30
3645.000
 70
    32
  0
VERTEX
  8
E17LXLIFT
 62
1
 10
-697.365
 20
-169.599
 30
3645.000
 70
    32
  0
VERTEX
  8
E17LXLIFT
 62
1
 10
-694.612
 20
-166.534
 30
3645.000
 70
    32
  0
VERTEX
  8
E17LXLIFT
 62
1
 10
-691.157
 20
-163.381
 30
3645.000
 70
    32
  0
VERTEX
  8
E17LXLIFT
 62
1
 10
-695.055
 20
-157.185
 30
3645.000
 70
    32
  0
VERTEX
  8
E17LXLIFT
 62
1
 10
-699.973
 20
-150.658
 30
3645.000
 70
    32
  0
VERTEX
  8
E17LXLIFT
 62
1
 10
-707.143
 20
-143.626
 30
3645.000
 70
    32
  0
VERTEX
  8
E17LXLIFT
 62
1
 10
-714.400
 20
-136.331
 30
3645.000
 70
    32
  0
VERTEX
  8
E17LXLIFT
 62
1
 10
-718.073
 20
-144.600
 30
3645.000
 70
    32
  0
VERTEX
  8
E17LXLIFT
 62
1
 10
-721.379
 20
-151.602
 30
3645.000
 70
    32
  0
VERTEX
  8
E17LXLIFT
 62
1
 10
-721.840
 20
-157.562
 30
3645.000
 70
    32
  0
VERTEX
  8
E17LXLIFT
 62
1
 10
-720.943
 20
-165.469
 30
3645.000
 70
    32
  0
VERTEX
  8
E17LXLIFT
 62
1
 10
-722.728
 20
-169.234
 30
3645.000
 70
    32
  0
VERTEX
  8
E17LXLIFT
 62
1
 10
-719.616
 20
-177.453
 30
3645.000
 70
    32
  0
VERTEX
  8
E17LXLIFT
 62
1
 10
-714.217
 20
-186.808
 30
3645.000
 70
    32
  0
VERTEX
  8
E17LXLIFT
 62
1
 10
-722.356
 20
-193.822
 30
3645.000
 70
    32
  0
VERTEX
  8
E17LXLIFT
 62
1
 10
-726.270
 20
-188.628
 30
3645.000
 70
    32
  0
VERTEX
  8
E17LXLIFT
 62
1
 10
-729.819
 20
-181.290
 30
3645.000
 70
    32
  0
VERTEX
  8
E17LXLIFT
 62
1
 10
-733.667
 20
-173.846
 30
3645.000
 70
    32
  0
VERTEX
  8
E17LXLIFT
 62
1
 10
-738.409
 20
-167.846
 30
3645.000
 70
    32
  0
VERTEX
  8
E17LXLIFT
 62
1
 10
-743.493
 20
-165.625
 30
3645.000
 70
    32
  0
VERTEX
  8
E17LXLIFT
 62
1
 10
-751.752
 20
-166.347
 30
3645.000
 70
    32
  0
VERTEX
  8
E17LXLIFT
 62
1
 10
-750.536
 20
-159.929
 30
3645.000
 70
    32
  0
VERTEX
  8
E17LXLIFT
 62
1
 10
-748.119
 20
-156.127
 30
3645.000
 70
    32
  0
VERTEX
  8
E17LXLIFT
 62
1
 10
-744.005
 20
-156.768
 30
3645.000
 70
    32
  0
VERTEX
  8
E17LXLIFT
 62
1
 10
-735.732
 20
-154.605
 30
3645.000
 70
    32
  0
VERTEX
  8
E17LXLIFT
 62
1
 10
-732.611
 20
-151.153
 30
3645.000
 70
    32
  0
VERTEX
  8
E17LXLIFT
 62
1
 10
-727.597
 20
-145.394
 30
3645.000
 70
    32
  0
VERTEX
  8
E17LXLIFT
 62
1
 10
-725.242
 20
-137.568
 30
3645.000
 70
    32
  0
VERTEX
  8
E17LXLIFT
 62
1
 10
-725.576
 20
-129.677
 30
3645.000
 70
    32
  0
VERTEX
  8
E17LXLIFT
 62
1
 10
-729.297
 20
-124.008
 30
3645.000
 70
    32
  0
VERTEX
  8
E17LXLIFT
 62
1
 10
-729.156
 20
-116.749
 30
3645.000
 70
    32
  0
VERTEX
  8
E17LXLIFT
 62
1
 10
-728.838
 20
-109.578
 30
3645.000
 70
    32
  0
VERTEX
  8
E17LXLIFT
 62
1
 10
-731.483
 20
-105.629
 30
3645.000
 70
    32
  0
SEQEND
  8
E17LXLIFT
  0
POLYLINE
  8
E17LXLIFT
 62
1
 66
     1
 70
     9
  0
VERTEX
  8
E17LXLIFT
 62
1
 10
-906.104
 20
-217.410
 30
3628.000
 70
    32
  0
VERTEX
  8
E17LXLIFT
 62
1
 10
-900.625
 20
-215.485
 30
3628.000
 70
    32
  0
VERTEX
  8
E17LXLIFT
 62
1
 10
-895.924
 20
-210.188
 30
3628.000
 70
    32
  0
VERTEX
  8
E17LXLIFT
 62
1
 10
-888.692
 20
-205.625
 30
3628.000
 70
    32
  0
VERTEX
  8
E17LXLIFT
 62
1
 10
-884.027
 20
-200.135
 30
3628.000
 70
    32
  0
VERTEX
  8
E17LXLIFT
 62
1
 10
-879.089
 20
-199.828
 30
3628.000
 70
    32
  0
VERTEX
  8
E17LXLIFT
 62
1
 10
-873.470
 20
-208.025
 30
3628.000
 70
    32
  0
VERTEX
  8
E17LXLIFT
 62
1
 10
-870.388
 20
-212.413
 30
3628.000
 70
    32
  0
VERTEX
  8
E17LXLIFT
 62
1
 10
-864.612
 20
-209.276
 30
3628.000
 70
    32
  0
VERTEX
  8
E17LXLIFT
 62
1
 10
-856.816
 20
-205.168
 30
3628.000
 70
    32
  0
VERTEX
  8
E17LXLIFT
 62
1
 10
-845.172
 20
-201.354
 30
3628.000
 70
    32
  0
VERTEX
  8
E17LXLIFT
 62
1
 10
-836.530
 20
-199.248
 30
3628.000
 70
    32
  0
VERTEX
  8
E17LXLIFT
 62
1
 10
-835.694
 20
-195.100
 30
3628.000
 70
    32
  0
VERTEX
  8
E17LXLIFT
 62
1
 10
-843.850
 20
-193.321
 30
3628.000
 70
    32
  0
VERTEX
  8
E17LXLIFT
 62
1
 10
-850.058
 20
-190.186
 30
3628.000
 70
    32
  0
VERTEX
  8
E17LXLIFT
 62
1
 10
-849.029
 20
-185.563
 30
3628.000
 70
    32
  0
VERTEX
  8
E17LXLIFT
 62
1
 10
-842.531
 20
-183.531
 30
3628.000
 70
    32
  0
VERTEX
  8
E17LXLIFT
 62
1
 10
-835.909
 20
-181.956
 30
3628.000
 70
    32
  0
VERTEX
  8
E17LXLIFT
 62
1
 10
-832.838
 20
-179.315
 30
3628.000
 70
    32
  0
VERTEX
  8
E17LXLIFT
 62
1
 10
-827.141
 20
-181.625
 30
3628.000
 70
    32
  0
VERTEX
  8
E17LXLIFT
 62
1
 10
-825.463
 20
-186.631
 30
3628.000
 70
    32
  0
VERTEX
  8
E17LXLIFT
 62
1
 10
-823.219
 20
-194.288
 30
3628.000
 70
    32
  0
VERTEX
  8
E17LXLIFT
 62
1
 10
-822.751
 20
-201.194
 30
3628.000
 70
    32
  0
VERTEX
  8
E17LXLIFT
 62
1
 10
-823.861
 20
-209.507
 30
3628.000
 70
    32
  0
VERTEX
  8
E17LXLIFT
 62
1
 10
-821.846
 20
-216.568
 30
3628.000
 70
    32
  0
VERTEX
  8
E17LXLIFT
 62
1
 10
-823.700
 20
-222.141
 30
3628.000
 70
    32
  0
VERTEX
  8
E17LXLIFT
 62
1
 10
-827.684
 20
-225.030
 30
3628.000
 70
    32
  0
VERTEX
  8
E17LXLIFT
 62
1
 10
-833.084
 20
-221.946
 30
3628.000
 70
    32
  0
VERTEX
  8
E17LXLIFT
 62
1
 10
-839.081
 20
-218.652
 30
3628.000
 70
    32
  0
VERTEX
  8
E17LXLIFT
 62
1
 10
-845.937
 20
-217.433
 30
3628.000
 70
    32
  0
VERTEX
  8
E17LXLIFT
 62
1
 10
-850.621
 20
-222.168
 30
3628.000
 70
    32
  0
VERTEX
  8
E17LXLIFT
 62
1
 10
-855.143
 20
-228.871
 30
3628.000
 70
    32
  0
VERTEX
  8
E17LXLIFT
 62
1
 10
-855.732
 20
-233.932
 30
3628.000
 70
    32
  0
VERTEX
  8
E17LXLIFT
 62
1
 10
-851.122
 20
-237.720
 30
3628.000
 70
    32
  0
VERTEX
  8
E17LXLIFT
 62
1
 10
-845.250
 20
-239.679
 30
3628.000
 70
    32
  0
VERTEX
  8
E17LXLIFT
 62
1
 10
-839.223
 20
-239.212
 30
3628.000
 70
    32
  0
VERTEX
  8
E17LXLIFT
 62
1
 10
-833.404
 20
-240.661
 30
3628.000
 70
    32
  0
VERTEX
  8
E17LXLIFT
 62
1
 10
-825.860
 20
-244.110
 30
3628.000
 70
    32
  0
VERTEX
  8
E17LXLIFT
 62
1
 10
-819.019
 20
-247.648
 30
3628.000
 70
    32
  0
VERTEX
  8
E17LXLIFT
 62
1
 10
-816.727
 20
-251.862
 30
3628.000
 70
    32
  0
VERTEX
  8
E17LXLIFT
 62
1
 10
-812.401
 20
-254.104
 30
3628.000
 70
    32
  0
VERTEX
  8
E17LXLIFT
 62
1
 10
-810.374
 20
-257.967
 30
3628.000
 70
    32
  0
VERTEX
  8
E17LXLIFT
 62
1
 10
-805.219
 20
-261.455
 30
3628.000
 70
    32
  0
VERTEX
  8
E17LXLIFT
 62
1
 10
-797.500
 20
-264.552
 30
3628.000
 70
    32
  0
VERTEX
  8
E17LXLIFT
 62
1
 10
-794.630
 20
-267.781
 30
3628.000
 70
    32
  0
VERTEX
  8
E17LXLIFT
 62
1
 10
-796.802
 20
-272.494
 30
3628.000
 70
    32
  0
VERTEX
  8
E17LXLIFT
 62
1
 10
-801.022
 20
-270.392
 30
3628.000
 70
    32
  0
VERTEX
  8
E17LXLIFT
 62
1
 10
-806.756
 20
-267.450
 30
3628.000
 70
    32
  0
VERTEX
  8
E17LXLIFT
 62
1
 10
-810.724
 20
-269.336
 30
3628.000
 70
    32
  0
VERTEX
  8
E17LXLIFT
 62
1
 10
-818.520
 20
-262.338
 30
3628.000
 70
    32
  0
VERTEX
  8
E17LXLIFT
 62
1
 10
-824.610
 20
-256.584
 30
3628.000
 70
    32
  0
VERTEX
  8
E17LXLIFT
 62
1
 10
-830.606
 20
-253.730
 30
3628.000
 70
    32
  0
VERTEX
  8
E17LXLIFT
 62
1
 10
-837.728
 20
-250.842
 30
3628.000
 70
    32
  0
VERTEX
  8
E17LXLIFT
 62
1
 10
-844.126
 20
-249.939
 30
3628.000
 70
    32
  0
VERTEX
  8
E17LXLIFT
 62
1
 10
-850.480
 20
-254.061
 30
3628.000
 70
    32
  0
VERTEX
  8
E17LXLIFT
 62
1
 10
-853.477
 20
-258.846
 30
3628.000
 70
    32
  0
VERTEX
  8
E17LXLIFT
 62
1
 10
-850.657
 20
-264.201
 30
3628.000
 70
    32
  0
VERTEX
  8
E17LXLIFT
 62
1
 10
-848.590
 20
-270.453
 30
3628.000
 70
    32
  0
VERTEX
  8
E17LXLIFT
 62
1
 10
-850.604
 20
-274.498
 30
3628.000
 70
    32
  0
VERTEX
  8
E17LXLIFT
 62
1
 10
-854.235
 20
-278.440
 30
3628.000
 70
    32
  0
VERTEX
  8
E17LXLIFT
 62
1
 10
-858.659
 20
-280.890
 30
3628.000
 70
    32
  0
VERTEX
  8
E17LXLIFT
 62
1
 10
-867.904
 20
-279.711
 30
3628.000
 70
    32
  0
VERTEX
  8
E17LXLIFT
 62
1
 10
-876.006
 20
-279.320
 30
3628.000
 70
    32
  0
VERTEX
  8
E17LXLIFT
 62
1
 10
-878.743
 20
-271.153
 30
3628.000
 70
    32
  0
VERTEX
  8
E17LXLIFT
 62
1
 10
-876.500
 20
-267.705
 30
3628.000
 70
    32
  0
VERTEX
  8
E17LXLIFT
 62
1
 10
-874.314
 20
-261.112
 30
3628.000
 70
    32
  0
VERTEX
  8
E17LXLIFT
 62
1
 10
-874.244
 20
-261.059
 30
3628.000
 70
    32
  0
VERTEX
  8
E17LXLIFT
 62
1
 10
-874.202
 20
-254.101
 30
3628.000
 70
    32
  0
VERTEX
  8
E17LXLIFT
 62
1
 10
-874.021
 20
-247.036
 30
3628.000
 70
    32
  0
VERTEX
  8
E17LXLIFT
 62
1
 10
-878.404
 20
-242.528
 30
3628.000
 70
    32
  0
VERTEX
  8
E17LXLIFT
 62
1
 10
-886.983
 20
-240.187
 30
3628.000
 70
    32
  0
VERTEX
  8
E17LXLIFT
 62
1
 10
-897.668
 20
-239.431
 30
3628.000
 70
    32
  0
VERTEX
  8
E17LXLIFT
 62
1
 10
-904.402
 20
-236.912
 30
3628.000
 70
    32
  0
VERTEX
  8
E17LXLIFT
 62
1
 10
-909.052
 20
-230.734
 30
3628.000
 70
    32
  0
SEQEND
  8
E17LXLIFT
  0
POLYLINE
  8
E17LXLIFT
 62
7
 66
     1
 70
     9
  0
VERTEX
  8
E17LXLIFT
 62
7
 10
-413.385
 20
-700.205
 30
3536.000
 70
    32
  0
VERTEX
  8
E17LXLIFT
 62
7
 10
-403.982
 20
-694.310
 30
3536.000
 70
    32
  0
VERTEX
  8
E17LXLIFT
 62
7
 10
-398.485
 20
-687.652
 30
3536.000
 70
    32
  0
VERTEX
  8
E17LXLIFT
 62
7
 10
-401.223
 20
-681.284
 30
3536.000
 70
    32
  0
VERTEX
  8
E17LXLIFT
 62
7
 10
-406.624
 20
-672.717
 30
3536.000
 70
    32
  0
VERTEX
  8
E17LXLIFT
 62
7
 10
-412.312
 20
-667.064
 30
3536.000
 70
    32
  0
VERTEX
  8
E17LXLIFT
 62
7
 10
-415.873
 20
-658.798
 30
3536.000
 70
    32
  0
VERTEX
  8
E17LXLIFT
 62
7
 10
-414.169
 20
-648.370
 30
3536.000
 70
    32
  0
VERTEX
  8
E17LXLIFT
 62
7
 10
-413.826
 20
-643.577
 30
3536.000
 70
    32
  0
VERTEX
  8
E17LXLIFT
 62
7
 10
-422.945
 20
-638.874
 30
3536.000
 70
    32
  0
VERTEX
  8
E17LXLIFT
 62
7
 10
-430.763
 20
-635.076
 30
3536.000
 70
    32
  0
VERTEX
  8
E17LXLIFT
 62
7
 10
-436.758
 20
-626.286
 30
3536.000
 70
    32
  0
VERTEX
  8
E17LXLIFT
 62
7
 10
-440.975
 20
-617.410
 30
3536.000
 70
    32
  0
VERTEX
  8
E17LXLIFT
 62
7
 10
-447.988
 20
-609.461
 30
3536.000
 70
    32
  0
VERTEX
  8
E17LXLIFT
 62
7
 10
-452.862
 20
-613.073
 30
3536.000
 70
    32
  0
VERTEX
  8
E17LXLIFT
 62
7
 10
-454.858
 20
-615.266
 30
3536.000
 70
    32
  0
VERTEX
  8
E17LXLIFT
 62
7
 10
-450.309
 20
-622.496
 30
3536.000
 70
    32
  0
VERTEX
  8
E17LXLIFT
 62
7
 10
-447.350
 20
-630.979
 30
3536.000
 70
    32
  0
VERTEX
  8
E17LXLIFT
 62
7
 10
-447.449
 20
-638.520
 30
3536.000
 70
    32
  0
VERTEX
  8
E17LXLIFT
 62
7
 10
-445.956
 20
-645.566
 30
3536.000
 70
    32
  0
VERTEX
  8
E17LXLIFT
 62
7
 10
-440.631
 20
-652.672
 30
3536.000
 70
    32
  0
VERTEX
  8
E17LXLIFT
 62
7
 10
-432.943
 20
-660.353
 30
3536.000
 70
    32
  0
VERTEX
  8
E17LXLIFT
 62
7
 10
-427.821
 20
-671.393
 30
3536.000
 70
    32
  0
VERTEX
  8
E17LXLIFT
 62
7
 10
-422.698
 20
-682.433
 30
3536.000
 70
    32
  0
SEQEND
  8
E17LXLIFT
  0
POLYLINE
  8
E17LXLIFT
 62
6
 66
     1
 70
     9
  0
VERTEX
  8
E17LXLIFT
 62
6
 10
-227.860
 20
-1128.258
 30
3533.000
 70
    32
  0
VERTEX
  8
E17LXLIFT
 62
6
 10
-237.971
 20
-1123.078
 30
3533.000
 70
    32
  0
VERTEX
  8
E17LXLIFT
 62
6
 10
-241.838
 20
-1115.140
 30
3533.000
 70
    32
  0
VERTEX
  8
E17LXLIFT
 62
6
 10
-237.556
 20
-1108.597
 30
3533.000
 70
    32
  0
VERTEX
  8
E17LXLIFT
 62
6
 10
-234.954
 20
-1104.236
 30
3533.000
 70
    32
  0
VERTEX
  8
E17LXLIFT
 62
6
 10
-239.637
 20
-1096.669
 30
3533.000
 70
    32
  0
VERTEX
  8
E17LXLIFT
 62
6
 10
-241.879
 20
-1095.357
 30
3533.000
 70
    32
  0
VERTEX
  8
E17LXLIFT
 62
6
 10
-246.007
 20
-1098.650
 30
3533.000
 70
    32
  0
VERTEX
  8
E17LXLIFT
 62
6
 10
-250.660
 20
-1093.985
 30
3533.000
 70
    32
  0
VERTEX
  8
E17LXLIFT
 62
6
 10
-255.628
 20
-1090.086
 30
3533.000
 70
    32
  0
VERTEX
  8
E17LXLIFT
 62
6
 10
-263.073
 20
-1091.325
 30
3533.000
 70
    32
  0
VERTEX
  8
E17LXLIFT
 62
6
 10
-268.393
 20
-1096.124
 30
3533.000
 70
    32
  0
VERTEX
  8
E17LXLIFT
 62
6
 10
-273.718
 20
-1102.118
 30
3533.000
 70
    32
  0
VERTEX
  8
E17LXLIFT
 62
6
 10
-273.262
 20
-1110.884
 30
3533.000
 70
    32
  0
VERTEX
  8
E17LXLIFT
 62
6
 10
-270.899
 20
-1118.387
 30
3533.000
 70
    32
  0
VERTEX
  8
E17LXLIFT
 62
6
 10
-264.505
 20
-1127.431
 30
3533.000
 70
    32
  0
VERTEX
  8
E17LXLIFT
 62
6
 10
-255.330
 20
-1130.253
 30
3533.000
 70
    32
  0
VERTEX
  8
E17LXLIFT
 62
6
 10
-248.907
 20
-1129.099
 30
3533.000
 70
    32
  0
VERTEX
  8
E17LXLIFT
 62
6
 10
-246.414
 20
-1135.427
 30
3533.000
 70
    32
  0
VERTEX
  8
E17LXLIFT
 62
6
 10
-243.465
 20
-1140.885
 30
3533.000
 70
    32
  0
VERTEX
  8
E17LXLIFT
 62
6
 10
-237.755
 20
-1140.244
 30
3533.000
 70
    32
  0
VERTEX
  8
E17LXLIFT
 62
6
 10
-234.965
 20
-1137.047
 30
3533.000
 70
    32
  0
SEQEND
  8
E17LXLIFT
  0
POLYLINE
  8
E17LXLIFT
 62
8
 66
     1
 70
     9
  0
VERTEX
  8
E17LXLIFT
 62
8
 10
-591.849
 20
-408.513
 30
3543.000
 70
    32
  0
VERTEX
  8
E17LXLIFT
 62
8
 10
-592.802
 20
-398.310
 30
3543.000
 70
    32
  0
VERTEX
  8
E17LXLIFT
 62
8
 10
-596.169
 20
-388.682
 30
3543.000
 70
    32
  0
VERTEX
  8
E17LXLIFT
 62
8
 10
-599.395
 20
-371.972
 30
3543.000
 70
    32
  0
VERTEX
  8
E17LXLIFT
 62
8
 10
-603.065
 20
-361.040
 30
3543.000
 70
    32
  0
VERTEX
  8
E17LXLIFT
 62
8
 10
-601.829
 20
-353.372
 30
3543.000
 70
    32
  0
VERTEX
  8
E17LXLIFT
 62
8
 10
-604.763
 20
-342.552
 30
3543.000
 70
    32
  0
VERTEX
  8
E17LXLIFT
 62
8
 10
-605.774
 20
-331.084
 30
3543.000
 70
    32
  0
VERTEX
  8
E17LXLIFT
 62
8
 10
-607.868
 20
-317.250
 30
3543.000
 70
    32
  0
VERTEX
  8
E17LXLIFT
 62
8
 10
-613.955
 20
-308.965
 30
3543.000
 70
    32
  0
VERTEX
  8
E17LXLIFT
 62
8
 10
-619.845
 20
-298.573
 30
3543.000
 70
    32
  0
VERTEX
  8
E17LXLIFT
 62
8
 10
-623.163
 20
-284.112
 30
3543.000
 70
    32
  0
VERTEX
  8
E17LXLIFT
 62
8
 10
-621.069
 20
-274.941
 30
3543.000
 70
    32
  0
VERTEX
  8
E17LXLIFT
 62
8
 10
-622.913
 20
-267.683
 30
3543.000
 70
    32
  0
VERTEX
  8
E17LXLIFT
 62
8
 10
-614.495
 20
-262.371
 30
3543.000
 70
    32
  0
VERTEX
  8
E17LXLIFT
 62
8
 10
-610.584
 20
-266.803
 30
3543.000
 70
    32
  0
VERTEX
  8
E17LXLIFT
 62
8
 10
-608.437
 20
-275.365
 30
3543.000
 70
    32
  0
VERTEX
  8
E17LXLIFT
 62
8
 10
-602.991
 20
-275.507
 30
3543.000
 70
    32
  0
VERTEX
  8
E17LXLIFT
 62
8
 10
-599.970
 20
-284.518
 30
3543.000
 70
    32
  0
VERTEX
  8
E17LXLIFT
 62
8
 10
-600.815
 20
-295.388
 30
3543.000
 70
    32
  0
VERTEX
  8
E17LXLIFT
 62
8
 10
-600.556
 20
-306.427
 30
3543.000
 70
    32
  0
VERTEX
  8
E17LXLIFT
 62
8
 10
-597.018
 20
-311.242
 30
3543.000
 70
    32
  0
VERTEX
  8
E17LXLIFT
 62
8
 10
-589.430
 20
-308.066
 30
3543.000
 70
    32
  0
VERTEX
  8
E17LXLIFT
 62
8
 10
-584.005
 20
-310.404
 30
3543.000
 70
    32
  0
VERTEX
  8
E17LXLIFT
 62
8
 10
-579.868
 20
-320.339
 30
3543.000
 70
    32
  0
VERTEX
  8
E17LXLIFT
 62
8
 10
-575.814
 20
-327.936
 30
3543.000
 70
    32
  0
VERTEX
  8
E17LXLIFT
 62
8
 10
-572.800
 20
-334.117
 30
3543.000
 70
    32
  0
VERTEX
  8
E17LXLIFT
 62
8
 10
-567.937
 20
-331.090
 30
3543.000
 70
    32
  0
VERTEX
  8
E17LXLIFT
 62
8
 10
-561.941
 20
-332.573
 30
3543.000
 70
    32
  0
VERTEX
  8
E17LXLIFT
 62
8
 10
-557.369
 20
-342.952
 30
3543.000
 70
    32
  0
VERTEX
  8
E17LXLIFT
 62
8
 10
-551.161
 20
-349.621
 30
3543.000
 70
    32
  0
VERTEX
  8
E17LXLIFT
 62
8
 10
-551.948
 20
-358.049
 30
3543.000
 70
    32
  0
VERTEX
  8
E17LXLIFT
 62
8
 10
-552.369
 20
-363.264
 30
3543.000
 70
    32
  0
VERTEX
  8
E17LXLIFT
 62
8
 10
-548.200
 20
-371.759
 30
3543.000
 70
    32
  0
VERTEX
  8
E17LXLIFT
 62
8
 10
-554.955
 20
-377.702
 30
3543.000
 70
    32
  0
VERTEX
  8
E17LXLIFT
 62
8
 10
-560.858
 20
-384.656
 30
3543.000
 70
    32
  0
VERTEX
  8
E17LXLIFT
 62
8
 10
-566.724
 20
-391.364
 30
3543.000
 70
    32
  0
VERTEX
  8
E17LXLIFT
 62
8
 10
-572.500
 20
-397.897
 30
3543.000
 70
    32
  0
VERTEX
  8
E17LXLIFT
 62
8
 10
-578.241
 20
-407.892
 30
3543.000
 70
    32
  0
SEQEND
  8
E17LXLIFT
  0
POLYLINE
  8
E17LXLIFT
 62
7
 66
     1
 70
     9
  0
VERTEX
  8
E17LXLIFT
 62
7
 10
-399.167
 20
-692.170
 30
3547.000
 70
    32
  0
VERTEX
  8
E17LXLIFT
 62
7
 10
-402.543
 20
-681.786
 30
3547.000
 70
    32
  0
VERTEX
  8
E17LXLIFT
 62
7
 10
-403.724
 20
-671.423
 30
3547.000
 70
    32
  0
VERTEX
  8
E17LXLIFT
 62
7
 10
-406.109
 20
-665.652
 30
3547.000
 70
    32
  0
VERTEX
  8
E17LXLIFT
 62
7
 10
-411.667
 20
-657.197
 30
3547.000
 70
    32
  0
VERTEX
  8
E17LXLIFT
 62
7
 10
-413.185
 20
-649.045
 30
3547.000
 70
    32
  0
VERTEX
  8
E17LXLIFT
 62
7
 10
-418.582
 20
-640.363
 30
3547.000
 70
    32
  0
VERTEX
  8
E17LXLIFT
 62
7
 10
-427.265
 20
-633.440
 30
3547.000
 70
    32
  0
VERTEX
  8
E17LXLIFT
 62
7
 10
-436.836
 20
-627.388
 30
3547.000
 70
    32
  0
VERTEX
  8
E17LXLIFT
 62
7
 10
-444.780
 20
-623.847
 30
3547.000
 70
    32
  0
VERTEX
  8
E17LXLIFT
 62
7
 10
-452.488
 20
-624.931
 30
3547.000
 70
    32
  0
VERTEX
  8
E17LXLIFT
 62
7
 10
-457.910
 20
-625.861
 30
3547.000
 70
    32
  0
VERTEX
  8
E17LXLIFT
 62
7
 10
-457.464
 20
-634.037
 30
3547.000
 70
    32
  0
VERTEX
  8
E17LXLIFT
 62
7
 10
-453.051
 20
-640.935
 30
3547.000
 70
    32
  0
VERTEX
  8
E17LXLIFT
 62
7
 10
-445.633
 20
-647.915
 30
3547.000
 70
    32
  0
VERTEX
  8
E17LXLIFT
 62
7
 10
-437.359
 20
-657.100
 30
3547.000
 70
    32
  0
VERTEX
  8
E17LXLIFT
 62
7
 10
-431.150
 20
-665.404
 30
3547.000
 70
    32
  0
VERTEX
  8
E17LXLIFT
 62
7
 10
-424.486
 20
-675.663
 30
3547.000
 70
    32
  0
VERTEX
  8
E17LXLIFT
 62
7
 10
-419.380
 20
-685.432
 30
3547.000
 70
    32
  0
VERTEX
  8
E17LXLIFT
 62
7
 10
-416.110
 20
-692.406
 30
3547.000
 70
    32
  0
VERTEX
  8
E17LXLIFT
 62
7
 10
-412.138
 20
-697.665
 30
3547.000
 70
    32
  0
SEQEND
  8
E17LXLIFT
  0
POLYLINE
  8
E17LXLIFT
 62
8
 66
     1
 70
     9
  0
VERTEX
  8
E17LXLIFT
 62
8
 10
-590.737
 20
-408.524
 30
3554.000
 70
    32
  0
VERTEX
  8
E17LXLIFT
 62
8
 10
-595.528
 20
-391.514
 30
3554.000
 70
    32
  0
VERTEX
  8
E17LXLIFT
 62
8
 10
-595.677
 20
-385.450
 30
3554.000
 70
    32
  0
VERTEX
  8
E17LXLIFT
 62
8
 10
-599.302
 20
-378.319
 30
3554.000
 70
    32
  0
VERTEX
  8
E17LXLIFT
 62
8
 10
-604.489
 20
-361.811
 30
3554.000
 70
    32
  0
VERTEX
  8
E17LXLIFT
 62
8
 10
-602.348
 20
-351.714
 30
3554.000
 70
    32
  0
VERTEX
  8
E17LXLIFT
 62
8
 10
-603.738
 20
-339.723
 30
3554.000
 70
    32
  0
VERTEX
  8
E17LXLIFT
 62
8
 10
-603.838
 20
-328.319
 30
3554.000
 70
    32
  0
VERTEX
  8
E17LXLIFT
 62
8
 10
-604.222
 20
-319.826
 30
3554.000
 70
    32
  0
VERTEX
  8
E17LXLIFT
 62
8
 10
-605.606
 20
-309.346
 30
3554.000
 70
    32
  0
VERTEX
  8
E17LXLIFT
 62
8
 10
-611.022
 20
-301.232
 30
3554.000
 70
    32
  0
VERTEX
  8
E17LXLIFT
 62
8
 10
-617.085
 20
-292.070
 30
3554.000
 70
    32
  0
VERTEX
  8
E17LXLIFT
 62
8
 10
-616.182
 20
-281.457
 30
3554.000
 70
    32
  0
VERTEX
  8
E17LXLIFT
 62
8
 10
-613.045
 20
-272.592
 30
3554.000
 70
    32
  0
VERTEX
  8
E17LXLIFT
 62
8
 10
-614.697
 20
-266.095
 30
3554.000
 70
    32
  0
VERTEX
  8
E17LXLIFT
 62
8
 10
-607.529
 20
-261.469
 30
3554.000
 70
    32
  0
VERTEX
  8
E17LXLIFT
 62
8
 10
-602.903
 20
-268.637
 30
3554.000
 70
    32
  0
VERTEX
  8
E17LXLIFT
 62
8
 10
-597.767
 20
-275.762
 30
3554.000
 70
    32
  0
VERTEX
  8
E17LXLIFT
 62
8
 10
-592.601
 20
-280.375
 30
3554.000
 70
    32
  0
VERTEX
  8
E17LXLIFT
 62
8
 10
-588.102
 20
-286.767
 30
3554.000
 70
    32
  0
VERTEX
  8
E17LXLIFT
 62
8
 10
-591.124
 20
-296.092
 30
3554.000
 70
    32
  0
VERTEX
  8
E17LXLIFT
 62
8
 10
-592.054
 20
-305.316
 30
3554.000
 70
    32
  0
VERTEX
  8
E17LXLIFT
 62
8
 10
-589.981
 20
-314.649
 30
3554.000
 70
    32
  0
VERTEX
  8
E17LXLIFT
 62
8
 10
-583.198
 20
-320.153
 30
3554.000
 70
    32
  0
VERTEX
  8
E17LXLIFT
 62
8
 10
-578.422
 20
-326.779
 30
3554.000
 70
    32
  0
VERTEX
  8
E17LXLIFT
 62
8
 10
-578.694
 20
-334.663
 30
3554.000
 70
    32
  0
VERTEX
  8
E17LXLIFT
 62
8
 10
-575.934
 20
-340.144
 30
3554.000
 70
    32
  0
VERTEX
  8
E17LXLIFT
 62
8
 10
-567.452
 20
-334.787
 30
3554.000
 70
    32
  0
VERTEX
  8
E17LXLIFT
 62
8
 10
-561.048
 20
-335.260
 30
3554.000
 70
    32
  0
VERTEX
  8
E17LXLIFT
 62
8
 10
-560.682
 20
-341.925
 30
3554.000
 70
    32
  0
VERTEX
  8
E17LXLIFT
 62
8
 10
-556.852
 20
-349.342
 30
3554.000
 70
    32
  0
VERTEX
  8
E17LXLIFT
 62
8
 10
-551.280
 20
-355.719
 30
3554.000
 70
    32
  0
VERTEX
  8
E17LXLIFT
 62
8
 10
-553.524
 20
-361.018
 30
3554.000
 70
    32
  0
VERTEX
  8
E17LXLIFT
 62
8
 10
-553.358
 20
-366.204
 30
3554.000
 70
    32
  0
VERTEX
  8
E17LXLIFT
 62
8
 10
-550.724
 20
-370.909
 30
3554.000
 70
    32
  0
VERTEX
  8
E17LXLIFT
 62
8
 10
-554.639
 20
-379.146
 30
3554.000
 70
    32
  0
VERTEX
  8
E17LXLIFT
 62
8
 10
-560.685
 20
-385.778
 30
3554.000
 70
    32
  0
VERTEX
  8
E17LXLIFT
 62
8
 10
-563.946
 20
-391.918
 30
3554.000
 70
    32
  0
VERTEX
  8
E17LXLIFT
 62
8
 10
-571.217
 20
-396.401
 30
3554.000
 70
    32
  0
VERTEX
  8
E17LXLIFT
 62
8
 10
-576.465
 20
-403.541
 30
3554.000
 70
    32
  0
SEQEND
  8
E17LXLIFT
  0
POLYLINE
  8
E17LXLIFT
 62
1
 66
     1
 70
     9
  0
VERTEX
  8
E17LXLIFT
 62
1
 10
-589.737
 20
-407.524
 30
3564.000
 70
    32
  0
VERTEX
  8
E17LXLIFT
 62
1
 10
-594.528
 20
-390.514
 30
3564.000
 70
    32
  0
VERTEX
  8
E17LXLIFT
 62
1
 10
-594.677
 20
-384.450
 30
3564.000
 70
    32
  0
VERTEX
  8
E17LXLIFT
 62
1
 10
-598.302
 20
-377.319
 30
3564.000
 70
    32
  0
VERTEX
  8
E17LXLIFT
 62
1
 10
-603.489
 20
-360.811
 30
3564.000
 70
    32
  0
VERTEX
  8
E17LXLIFT
 62
1
 10
-601.348
 20
-350.714
 30
3564.000
 70
    32
  0
VERTEX
  8
E17LXLIFT
 62
1
 10
-602.738
 20
-338.723
 30
3564.000
 70
    32
  0
VERTEX
  8
E17LXLIFT
 62
1
 10
-602.838
 20
-327.319
 30
3564.000
 70
    32
  0
VERTEX
  8
E17LXLIFT
 62
1
 10
-603.222
 20
-318.826
 30
3564.000
 70
    32
  0
VERTEX
  8
E17LXLIFT
 62
1
 10
-604.606
 20
-308.346
 30
3564.000
 70
    32
  0
VERTEX
  8
E17LXLIFT
 62
1
 10
-610.022
 20
-300.232
 30
3564.000
 70
    32
  0
VERTEX
  8
E17LXLIFT
 62
1
 10
-616.085
 20
-291.070
 30
3564.000
 70
    32
  0
VERTEX
  8
E17LXLIFT
 62
1
 10
-615.182
 20
-280.457
 30
3564.000
 70
    32
  0
VERTEX
  8
E17LXLIFT
 62
1
 10
-612.045
 20
-271.592
 30
3564.000
 70
    32
  0
VERTEX
  8
E17LXLIFT
 62
1
 10
-613.697
 20
-265.095
 30
3564.000
 70
    32
  0
VERTEX
  8
E17LXLIFT
 62
1
 10
-606.529
 20
-260.469
 30
3564.000
 70
    32
  0
VERTEX
  8
E17LXLIFT
 62
1
 10
-601.903
 20
-267.637
 30
3564.000
 70
    32
  0
VERTEX
  8
E17LXLIFT
 62
1
 10
-596.767
 20
-274.762
 30
3564.000
 70
    32
  0
VERTEX
  8
E17LXLIFT
 62
1
 10
-591.601
 20
-279.375
 30
3564.000
 70
    32
  0
VERTEX
  8
E17LXLIFT
 62
1
 10
-587.102
 20
-285.767
 30
3564.000
 70
    32
  0
VERTEX
  8
E17LXLIFT
 62
1
 10
-590.124
 20
-295.092
 30
3564.000
 70
    32
  0
VERTEX
  8
E17LXLIFT
 62
1
 10
-591.054
 20
-304.316
 30
3564.000
 70
    32
  0
VERTEX
  8
E17LXLIFT
 62
1
 10
-588.981
 20
-313.649
 30
3564.000
 70
    32
  0
VERTEX
  8
E17LXLIFT
 62
1
 10
-582.198
 20
-319.153
 30
3564.000
 70
    32
  0
VERTEX
  8
E17LXLIFT
 62
1
 10
-577.422
 20
-325.779
 30
3564.000
 70
    32
  0
VERTEX
  8
E17LXLIFT
 62
1
 10
-577.694
 20
-333.663
 30
3564.000
 70
    32
  0
VERTEX
  8
E17LXLIFT
 62
1
 10
-574.934
 20
-339.144
 30
3564.000
 70
    32
  0
VERTEX
  8
E17LXLIFT
 62
1
 10
-566.452
 20
-333.787
 30
3564.000
 70
    32
  0
VERTEX
  8
E17LXLIFT
 62
1
 10
-560.048
 20
-334.260
 30
3564.000
 70
    32
  0
VERTEX
  8
E17LXLIFT
 62
1
 10
-559.682
 20
-340.925
 30
3564.000
 70
    32
  0
VERTEX
  8
E17LXLIFT
 62
1
 10
-555.852
 20
-348.342
 30
3564.000
 70
    32
  0
VERTEX
  8
E17LXLIFT
 62
1
 10
-550.280
 20
-354.719
 30
3564.000
 70
    32
  0
VERTEX
  8
E17LXLIFT
 62
1
 10
-552.524
 20
-360.018
 30
3564.000
 70
    32
  0
VERTEX
  8
E17LXLIFT
 62
1
 10
-552.358
 20
-365.204
 30
3564.000
 70
    32
  0
VERTEX
  8
E17LXLIFT
 62
1
 10
-549.724
 20
-369.909
 30
3564.000
 70
    32
  0
VERTEX
  8
E17LXLIFT
 62
1
 10
-553.639
 20
-378.146
 30
3564.000
 70
    32
  0
VERTEX
  8
E17LXLIFT
 62
1
 10
-559.685
 20
-384.778
 30
3564.000
 70
    32
  0
VERTEX
  8
E17LXLIFT
 62
1
 10
-562.946
 20
-390.918
 30
3564.000
 70
    32
  0
VERTEX
  8
E17LXLIFT
 62
1
 10
-570.217
 20
-395.401
 30
3564.000
 70
    32
  0
VERTEX
  8
E17LXLIFT
 62
1
 10
-575.465
 20
-402.541
 30
3564.000
 70
    32
  0
SEQEND
  8
E17LXLIFT
  0
POLYLINE
  8
E17LXLIFT
 62
7
 66
     1
 70
     9
  0
VERTEX
  8
E17LXLIFT
 62
7
 10
-436.653
 20
-681.597
 30
3557.000
 70
    32
  0
VERTEX
  8
E17LXLIFT
 62
7
 10
-441.956
 20
-671.237
 30
3557.000
 70
    32
  0
VERTEX
  8
E17LXLIFT
 62
7
 10
-443.185
 20
-660.971
 30
3557.000
 70
    32
  0
VERTEX
  8
E17LXLIFT
 62
7
 10
-448.457
 20
-650.804
 30
3557.000
 70
    32
  0
VERTEX
  8
E17LXLIFT
 62
7
 10
-448.455
 20
-639.542
 30
3557.000
 70
    32
  0
VERTEX
  8
E17LXLIFT
 62
7
 10
-442.748
 20
-632.289
 30
3557.000
 70
    32
  0
VERTEX
  8
E17LXLIFT
 62
7
 10
-434.628
 20
-633.039
 30
3557.000
 70
    32
  0
VERTEX
  8
E17LXLIFT
 62
7
 10
-424.389
 20
-644.389
 30
3557.000
 70
    32
  0
VERTEX
  8
E17LXLIFT
 62
7
 10
-417.071
 20
-653.189
 30
3557.000
 70
    32
  0
VERTEX
  8
E17LXLIFT
 62
7
 10
-410.586
 20
-660.533
 30
3557.000
 70
    32
  0
VERTEX
  8
E17LXLIFT
 62
7
 10
-406.022
 20
-670.019
 30
3557.000
 70
    32
  0
VERTEX
  8
E17LXLIFT
 62
7
 10
-402.037
 20
-677.649
 30
3557.000
 70
    32
  0
VERTEX
  8
E17LXLIFT
 62
7
 10
-396.059
 20
-681.135
 30
3557.000
 70
    32
  0
VERTEX
  8
E17LXLIFT
 62
7
 10
-395.481
 20
-689.597
 30
3557.000
 70
    32
  0
VERTEX
  8
E17LXLIFT
 62
7
 10
-399.839
 20
-697.069
 30
3557.000
 70
    32
  0
VERTEX
  8
E17LXLIFT
 62
7
 10
-405.693
 20
-700.964
 30
3557.000
 70
    32
  0
VERTEX
  8
E17LXLIFT
 62
7
 10
-412.642
 20
-699.585
 30
3557.000
 70
    32
  0
VERTEX
  8
E17LXLIFT
 62
7
 10
-417.342
 20
-691.713
 30
3557.000
 70
    32
  0
VERTEX
  8
E17LXLIFT
 62
7
 10
-422.376
 20
-684.731
 30
3557.000
 70
    32
  0
VERTEX
  8
E17LXLIFT
 62
7
 10
-428.127
 20
-684.113
 30
3557.000
 70
    32
  0
SEQEND
  8
E17LXLIFT
  0
POLYLINE
  8
E17LXLIFT
 62
7
 66
     1
 70
     9
  0
VERTEX
  8
E17LXLIFT
 62
7
 10
-431.666
 20
-676.405
 30
3567.000
 70
    32
  0
VERTEX
  8
E17LXLIFT
 62
7
 10
-422.181
 20
-684.259
 30
3567.000
 70
    32
  0
VERTEX
  8
E17LXLIFT
 62
7
 10
-413.485
 20
-694.310
 30
3567.000
 70
    32
  0
VERTEX
  8
E17LXLIFT
 62
7
 10
-406.905
 20
-705.028
 30
3567.000
 70
    32
  0
VERTEX
  8
E17LXLIFT
 62
7
 10
-402.486
 20
-712.765
 30
3567.000
 70
    32
  0
VERTEX
  8
E17LXLIFT
 62
7
 10
-400.469
 20
-722.567
 30
3567.000
 70
    32
  0
VERTEX
  8
E17LXLIFT
 62
7
 10
-399.219
 20
-732.060
 30
3567.000
 70
    32
  0
VERTEX
  8
E17LXLIFT
 62
7
 10
-399.670
 20
-740.402
 30
3567.000
 70
    32
  0
VERTEX
  8
E17LXLIFT
 62
7
 10
-396.370
 20
-745.700
 30
3567.000
 70
    32
  0
VERTEX
  8
E17LXLIFT
 62
7
 10
-390.042
 20
-748.152
 30
3567.000
 70
    32
  0
VERTEX
  8
E17LXLIFT
 62
7
 10
-386.514
 20
-742.561
 30
3567.000
 70
    32
  0
VERTEX
  8
E17LXLIFT
 62
7
 10
-387.965
 20
-729.207
 30
3567.000
 70
    32
  0
VERTEX
  8
E17LXLIFT
 62
7
 10
-390.419
 20
-713.872
 30
3567.000
 70
    32
  0
VERTEX
  8
E17LXLIFT
 62
7
 10
-392.766
 20
-700.625
 30
3567.000
 70
    32
  0
VERTEX
  8
E17LXLIFT
 62
7
 10
-397.314
 20
-688.975
 30
3567.000
 70
    32
  0
VERTEX
  8
E17LXLIFT
 62
7
 10
-403.354
 20
-679.599
 30
3567.000
 70
    32
  0
VERTEX
  8
E17LXLIFT
 62
7
 10
-411.645
 20
-674.887
 30
3567.000
 70
    32
  0
VERTEX
  8
E17LXLIFT
 62
7
 10
-416.876
 20
-671.855
 30
3567.000
 70
    32
  0
SEQEND
  8
E17LXLIFT
  0
POLYLINE
  8
E17LXLIFT
 62
7
 66
     1
 70
     9
  0
VERTEX
  8
E17LXLIFT
 62
7
 10
-68.122
 20
-1356.154
 30
3553.000
 70
    32
  0
VERTEX
  8
E17LXLIFT
 62
7
 10
-68.196
 20
-1348.733
 30
3553.000
 70
    32
  0
VERTEX
  8
E17LXLIFT
 62
7
 10
-70.734
 20
-1338.659
 30
3553.000
 70
    32
  0
VERTEX
  8
E17LXLIFT
 62
7
 10
-74.549
 20
-1328.318
 30
3553.000
 70
    32
  0
VERTEX
  8
E17LXLIFT
 62
7
 10
-65.011
 20
-1326.385
 30
3553.000
 70
    32
  0
VERTEX
  8
E17LXLIFT
 62
7
 10
-60.579
 20
-1333.244
 30
3553.000
 70
    32
  0
VERTEX
  8
E17LXLIFT
 62
7
 10
-52.156
 20
-1336.345
 30
3553.000
 70
    32
  0
VERTEX
  8
E17LXLIFT
 62
7
 10
-47.570
 20
-1339.085
 30
3553.000
 70
    32
  0
VERTEX
  8
E17LXLIFT
 62
7
 10
-42.280
 20
-1346.081
 30
3553.000
 70
    32
  0
VERTEX
  8
E17LXLIFT
 62
7
 10
-42.746
 20
-1356.493
 30
3553.000
 70
    32
  0
VERTEX
  8
E17LXLIFT
 62
7
 10
-43.221
 20
-1368.536
 30
3553.000
 70
    32
  0
VERTEX
  8
E17LXLIFT
 62
7
 10
-46.421
 20
-1378.763
 30
3553.000
 70
    32
  0
VERTEX
  8
E17LXLIFT
 62
7
 10
-44.715
 20
-1385.000
 30
3553.000
 70
    32
  0
VERTEX
  8
E17LXLIFT
 62
7
 10
-40.519
 20
-1394.522
 30
3553.000
 70
    32
  0
VERTEX
  8
E17LXLIFT
 62
7
 10
-37.972
 20
-1408.491
 30
3553.000
 70
    32
  0
VERTEX
  8
E17LXLIFT
 62
7
 10
-46.792
 20
-1412.611
 30
3553.000
 70
    32
  0
VERTEX
  8
E17LXLIFT
 62
7
 10
-53.648
 20
-1414.658
 30
3553.000
 70
    32
  0
VERTEX
  8
E17LXLIFT
 62
7
 10
-57.069
 20
-1403.815
 30
3553.000
 70
    32
  0
VERTEX
  8
E17LXLIFT
 62
7
 10
-59.594
 20
-1388.531
 30
3553.000
 70
    32
  0
VERTEX
  8
E17LXLIFT
 62
7
 10
-64.312
 20
-1378.738
 30
3553.000
 70
    32
  0
SEQEND
  8
E17LXLIFT
  0
POLYLINE
  8
E17LXLIFT
 62
7
 66
     1
 70
     9
  0
VERTEX
  8
E17LXLIFT
 62
7
 10
-398.556
 20
-750.635
 30
3580.000
 70
    32
  0
VERTEX
  8
E17LXLIFT
 62
7
 10
-402.759
 20
-749.015
 30
3580.000
 70
    32
  0
VERTEX
  8
E17LXLIFT
 62
7
 10
-406.341
 20
-743.155
 30
3580.000
 70
    32
  0
VERTEX
  8
E17LXLIFT
 62
7
 10
-406.887
 20
-736.402
 30
3580.000
 70
    32
  0
VERTEX
  8
E17LXLIFT
 62
7
 10
-411.731
 20
-729.396
 30
3580.000
 70
    32
  0
VERTEX
  8
E17LXLIFT
 62
7
 10
-416.464
 20
-724.043
 30
3580.000
 70
    32
  0
VERTEX
  8
E17LXLIFT
 62
7
 10
-420.213
 20
-719.604
 30
3580.000
 70
    32
  0
VERTEX
  8
E17LXLIFT
 62
7
 10
-418.924
 20
-712.392
 30
3580.000
 70
    32
  0
VERTEX
  8
E17LXLIFT
 62
7
 10
-420.989
 20
-708.035
 30
3580.000
 70
    32
  0
VERTEX
  8
E17LXLIFT
 62
7
 10
-419.044
 20
-701.432
 30
3580.000
 70
    32
  0
VERTEX
  8
E17LXLIFT
 62
7
 10
-416.692
 20
-694.643
 30
3580.000
 70
    32
  0
VERTEX
  8
E17LXLIFT
 62
7
 10
-418.610
 20
-688.989
 30
3580.000
 70
    32
  0
VERTEX
  8
E17LXLIFT
 62
7
 10
-424.181
 20
-683.375
 30
3580.000
 70
    32
  0
VERTEX
  8
E17LXLIFT
 62
7
 10
-430.172
 20
-675.682
 30
3580.000
 70
    32
  0
VERTEX
  8
E17LXLIFT
 62
7
 10
-427.001
 20
-669.276
 30
3580.000
 70
    32
  0
VERTEX
  8
E17LXLIFT
 62
7
 10
-421.229
 20
-662.724
 30
3580.000
 70
    32
  0
VERTEX
  8
E17LXLIFT
 62
7
 10
-416.512
 20
-667.006
 30
3580.000
 70
    32
  0
VERTEX
  8
E17LXLIFT
 62
7
 10
-414.104
 20
-672.739
 30
3580.000
 70
    32
  0
VERTEX
  8
E17LXLIFT
 62
7
 10
-410.964
 20
-679.784
 30
3580.000
 70
    32
  0
VERTEX
  8
E17LXLIFT
 62
7
 10
-405.582
 20
-684.236
 30
3580.000
 70
    32
  0
VERTEX
  8
E17LXLIFT
 62
7
 10
-399.212
 20
-692.305
 30
3580.000
 70
    32
  0
VERTEX
  8
E17LXLIFT
 62
7
 10
-394.040
 20
-701.564
 30
3580.000
 70
    32
  0
VERTEX
  8
E17LXLIFT
 62
7
 10
-392.723
 20
-711.334
 30
3580.000
 70
    32
  0
VERTEX
  8
E17LXLIFT
 62
7
 10
-393.655
 20
-720.238
 30
3580.000
 70
    32
  0
VERTEX
  8
E17LXLIFT
 62
7
 10
-393.892
 20
-729.506
 30
3580.000
 70
    32
  0
VERTEX
  8
E17LXLIFT
 62
7
 10
-395.117
 20
-739.054
 30
3580.000
 70
    32
  0
SEQEND
  8
E17LXLIFT
  0
POLYLINE
  8
E17LXLIFT
 62
3
 66
     1
 70
     9
  0
VERTEX
  8
E17LXLIFT
 62
3
 10
-521.761
 20
-510.566
 30
3591.000
 70
    32
  0
VERTEX
  8
E17LXLIFT
 62
3
 10
-522.050
 20
-500.610
 30
3591.000
 70
    32
  0
VERTEX
  8
E17LXLIFT
 62
3
 10
-524.238
 20
-491.166
 30
3591.000
 70
    32
  0
VERTEX
  8
E17LXLIFT
 62
3
 10
-530.067
 20
-485.654
 30
3591.000
 70
    32
  0
VERTEX
  8
E17LXLIFT
 62
3
 10
-537.278
 20
-485.253
 30
3591.000
 70
    32
  0
VERTEX
  8
E17LXLIFT
 62
3
 10
-543.685
 20
-491.189
 30
3591.000
 70
    32
  0
VERTEX
  8
E17LXLIFT
 62
3
 10
-548.656
 20
-494.031
 30
3591.000
 70
    32
  0
VERTEX
  8
E17LXLIFT
 62
3
 10
-554.397
 20
-495.809
 30
3591.000
 70
    32
  0
VERTEX
  8
E17LXLIFT
 62
3
 10
-556.374
 20
-501.890
 30
3591.000
 70
    32
  0
VERTEX
  8
E17LXLIFT
 62
3
 10
-559.077
 20
-507.416
 30
3591.000
 70
    32
  0
VERTEX
  8
E17LXLIFT
 62
3
 10
-563.691
 20
-511.946
 30
3591.000
 70
    32
  0
VERTEX
  8
E17LXLIFT
 62
3
 10
-569.251
 20
-516.512
 30
3591.000
 70
    32
  0
VERTEX
  8
E17LXLIFT
 62
3
 10
-564.604
 20
-520.392
 30
3591.000
 70
    32
  0
VERTEX
  8
E17LXLIFT
 62
3
 10
-561.715
 20
-524.680
 30
3591.000
 70
    32
  0
VERTEX
  8
E17LXLIFT
 62
3
 10
-563.274
 20
-530.891
 30
3591.000
 70
    32
  0
VERTEX
  8
E17LXLIFT
 62
3
 10
-557.721
 20
-536.170
 30
3591.000
 70
    32
  0
VERTEX
  8
E17LXLIFT
 62
3
 10
-551.591
 20
-539.409
 30
3591.000
 70
    32
  0
VERTEX
  8
E17LXLIFT
 62
3
 10
-545.192
 20
-540.182
 30
3591.000
 70
    32
  0
VERTEX
  8
E17LXLIFT
 62
3
 10
-539.821
 20
-545.809
 30
3591.000
 70
    32
  0
VERTEX
  8
E17LXLIFT
 62
3
 10
-531.478
 20
-552.852
 30
3591.000
 70
    32
  0
VERTEX
  8
E17LXLIFT
 62
3
 10
-525.304
 20
-553.464
 30
3591.000
 70
    32
  0
VERTEX
  8
E17LXLIFT
 62
3
 10
-520.830
 20
-557.253
 30
3591.000
 70
    32
  0
VERTEX
  8
E17LXLIFT
 62
3
 10
-516.359
 20
-562.234
 30
3591.000
 70
    32
  0
VERTEX
  8
E17LXLIFT
 62
3
 10
-513.852
 20
-573.611
 30
3591.000
 70
    32
  0
VERTEX
  8
E17LXLIFT
 62
3
 10
-510.692
 20
-580.514
 30
3591.000
 70
    32
  0
VERTEX
  8
E17LXLIFT
 62
3
 10
-502.500
 20
-583.017
 30
3591.000
 70
    32
  0
VERTEX
  8
E17LXLIFT
 62
3
 10
-496.991
 20
-584.651
 30
3591.000
 70
    32
  0
VERTEX
  8
E17LXLIFT
 62
3
 10
-490.267
 20
-580.647
 30
3591.000
 70
    32
  0
VERTEX
  8
E17LXLIFT
 62
3
 10
-490.518
 20
-574.774
 30
3591.000
 70
    32
  0
VERTEX
  8
E17LXLIFT
 62
3
 10
-497.497
 20
-567.824
 30
3591.000
 70
    32
  0
VERTEX
  8
E17LXLIFT
 62
3
 10
-505.351
 20
-557.724
 30
3591.000
 70
    32
  0
VERTEX
  8
E17LXLIFT
 62
3
 10
-512.241
 20
-548.655
 30
3591.000
 70
    32
  0
VERTEX
  8
E17LXLIFT
 62
3
 10
-518.551
 20
-539.492
 30
3591.000
 70
    32
  0
VERTEX
  8
E17LXLIFT
 62
3
 10
-525.809
 20
-530.365
 30
3591.000
 70
    32
  0
VERTEX
  8
E17LXLIFT
 62
3
 10
-525.180
 20
-525.260
 30
3591.000
 70
    32
  0
VERTEX
  8
E17LXLIFT
 62
3
 10
-519.247
 20
-521.505
 30
3591.000
 70
    32
  0
SEQEND
  8
E17LXLIFT
  0
POLYLINE
  8
E17LXLIFT
 62
1
 66
     1
 70
     9
  0
VERTEX
  8
E17LXLIFT
 62
1
 10
-520.761
 20
-509.566
 30
3601.000
 70
    32
  0
VERTEX
  8
E17LXLIFT
 62
1
 10
-521.050
 20
-499.610
 30
3601.000
 70
    32
  0
VERTEX
  8
E17LXLIFT
 62
1
 10
-523.238
 20
-490.166
 30
3601.000
 70
    32
  0
VERTEX
  8
E17LXLIFT
 62
1
 10
-529.067
 20
-484.654
 30
3601.000
 70
    32
  0
VERTEX
  8
E17LXLIFT
 62
1
 10
-536.278
 20
-484.253
 30
3601.000
 70
    32
  0
VERTEX
  8
E17LXLIFT
 62
1
 10
-542.685
 20
-490.189
 30
3601.000
 70
    32
  0
VERTEX
  8
E17LXLIFT
 62
1
 10
-547.656
 20
-493.031
 30
3601.000
 70
    32
  0
VERTEX
  8
E17LXLIFT
 62
1
 10
-553.397
 20
-494.809
 30
3601.000
 70
    32
  0
VERTEX
  8
E17LXLIFT
 62
1
 10
-555.374
 20
-500.890
 30
3601.000
 70
    32
  0
VERTEX
  8
E17LXLIFT
 62
1
 10
-558.077
 20
-506.416
 30
3601.000
 70
    32
  0
VERTEX
  8
E17LXLIFT
 62
1
 10
-562.691
 20
-510.946
 30
3601.000
 70
    32
  0
VERTEX
  8
E17LXLIFT
 62
1
 10
-568.251
 20
-515.512
 30
3601.000
 70
    32
  0
VERTEX
  8
E17LXLIFT
 62
1
 10
-563.604
 20
-519.392
 30
3601.000
 70
    32
  0
VERTEX
  8
E17LXLIFT
 62
1
 10
-560.715
 20
-523.680
 30
3601.000
 70
    32
  0
VERTEX
  8
E17LXLIFT
 62
1
 10
-562.274
 20
-529.891
 30
3601.000
 70
    32
  0
VERTEX
  8
E17LXLIFT
 62
1
 10
-556.721
 20
-535.170
 30
3601.000
 70
    32
  0
VERTEX
  8
E17LXLIFT
 62
1
 10
-550.591
 20
-538.409
 30
3601.000
 70
    32
  0
VERTEX
  8
E17LXLIFT
 62
1
 10
-544.192
 20
-539.182
 30
3601.000
 70
    32
  0
VERTEX
  8
E17LXLIFT
 62
1
 10
-538.821
 20
-544.809
 30
3601.000
 70
    32
  0
VERTEX
  8
E17LXLIFT
 62
1
 10
-530.478
 20
-551.852
 30
3601.000
 70
    32
  0
VERTEX
  8
E17LXLIFT
 62
1
 10
-524.304
 20
-552.464
 30
3601.000
 70
    32
  0
VERTEX
  8
E17LXLIFT
 62
1
 10
-519.830
 20
-556.253
 30
3601.000
 70
    32
  0
VERTEX
  8
E17LXLIFT
 62
1
 10
-515.359
 20
-561.234
 30
3601.000
 70
    32
  0
VERTEX
  8
E17LXLIFT
 62
1
 10
-512.852
 20
-572.611
 30
3601.000
 70
    32
  0
VERTEX
  8
E17LXLIFT
 62
1
 10
-509.692
 20
-579.514
 30
3601.000
 70
    32
  0
VERTEX
  8
E17LXLIFT
 62
1
 10
-501.500
 20
-582.017
 30
3601.000
 70
    32
  0
VERTEX
  8
E17LXLIFT
 62
1
 10
-495.991
 20
-583.651
 30
3601.000
 70
    32
  0
VERTEX
  8
E17LXLIFT
 62
1
 10
-489.267
 20
-579.647
 30
3601.000
 70
    32
  0
VERTEX
  8
E17LXLIFT
 62
1
 10
-489.518
 20
-573.774
 30
3601.000
 70
    32
  0
VERTEX
  8
E17LXLIFT
 62
1
 10
-496.497
 20
-566.824
 30
3601.000
 70
    32
  0
VERTEX
  8
E17LXLIFT
 62
1
 10
-504.351
 20
-556.724
 30
3601.000
 70
    32
  0
VERTEX
  8
E17LXLIFT
 62
1
 10
-511.241
 20
-547.655
 30
3601.000
 70
    32
  0
VERTEX
  8
E17LXLIFT
 62
1
 10
-517.551
 20
-538.492
 30
3601.000
 70
    32
  0
VERTEX
  8
E17LXLIFT
 62
1
 10
-524.809
 20
-529.365
 30
3601.000
 70
    32
  0
VERTEX
  8
E17LXLIFT
 62
1
 10
-524.180
 20
-524.260
 30
3601.000
 70
    32
  0
VERTEX
  8
E17LXLIFT
 62
1
 10
-518.247
 20
-520.505
 30
3601.000
 70
    32
  0
SEQEND
  8
E17LXLIFT
  0
POLYLINE
  8
E17LXLIFT
 62
7
 66
     1
 70
     9
  0
VERTEX
  8
E17LXLIFT
 62
7
 10
-419.744
 20
-733.305
 30
3590.000
 70
    32
  0
VERTEX
  8
E17LXLIFT
 62
7
 10
-413.756
 20
-739.783
 30
3590.000
 70
    32
  0
VERTEX
  8
E17LXLIFT
 62
7
 10
-409.429
 20
-749.193
 30
3590.000
 70
    32
  0
VERTEX
  8
E17LXLIFT
 62
7
 10
-405.851
 20
-756.226
 30
3590.000
 70
    32
  0
VERTEX
  8
E17LXLIFT
 62
7
 10
-401.566
 20
-760.801
 30
3590.000
 70
    32
  0
VERTEX
  8
E17LXLIFT
 62
7
 10
-394.518
 20
-759.483
 30
3590.000
 70
    32
  0
VERTEX
  8
E17LXLIFT
 62
7
 10
-389.269
 20
-755.682
 30
3590.000
 70
    32
  0
VERTEX
  8
E17LXLIFT
 62
7
 10
-392.468
 20
-749.023
 30
3590.000
 70
    32
  0
VERTEX
  8
E17LXLIFT
 62
7
 10
-393.118
 20
-739.762
 30
3590.000
 70
    32
  0
VERTEX
  8
E17LXLIFT
 62
7
 10
-393.110
 20
-729.916
 30
3590.000
 70
    32
  0
VERTEX
  8
E17LXLIFT
 62
7
 10
-395.888
 20
-722.196
 30
3590.000
 70
    32
  0
VERTEX
  8
E17LXLIFT
 62
7
 10
-398.327
 20
-715.095
 30
3590.000
 70
    32
  0
VERTEX
  8
E17LXLIFT
 62
7
 10
-394.400
 20
-706.629
 30
3590.000
 70
    32
  0
VERTEX
  8
E17LXLIFT
 62
7
 10
-396.354
 20
-695.717
 30
3590.000
 70
    32
  0
VERTEX
  8
E17LXLIFT
 62
7
 10
-400.434
 20
-688.290
 30
3590.000
 70
    32
  0
VERTEX
  8
E17LXLIFT
 62
7
 10
-408.263
 20
-681.956
 30
3590.000
 70
    32
  0
VERTEX
  8
E17LXLIFT
 62
7
 10
-412.145
 20
-672.115
 30
3590.000
 70
    32
  0
VERTEX
  8
E17LXLIFT
 62
7
 10
-417.118
 20
-666.741
 30
3590.000
 70
    32
  0
VERTEX
  8
E17LXLIFT
 62
7
 10
-423.529
 20
-671.924
 30
3590.000
 70
    32
  0
VERTEX
  8
E17LXLIFT
 62
7
 10
-427.529
 20
-675.360
 30
3590.000
 70
    32
  0
VERTEX
  8
E17LXLIFT
 62
7
 10
-426.632
 20
-689.741
 30
3590.000
 70
    32
  0
VERTEX
  8
E17LXLIFT
 62
7
 10
-423.685
 20
-699.935
 30
3590.000
 70
    32
  0
VERTEX
  8
E17LXLIFT
 62
7
 10
-418.600
 20
-706.958
 30
3590.000
 70
    32
  0
VERTEX
  8
E17LXLIFT
 62
7
 10
-414.640
 20
-716.309
 30
3590.000
 70
    32
  0
VERTEX
  8
E17LXLIFT
 62
7
 10
-415.812
 20
-725.593
 30
3590.000
 70
    32
  0
SEQEND
  8
E17LXLIFT
  0
POLYLINE
  8
E17LXLIFT
 62
11
 66
     1
 70
     9
  0
VERTEX
  8
E17LXLIFT
 62
11
 10
-344.939
 20
-1078.256
 30
3589.000
 70
    32
  0
VERTEX
  8
E17LXLIFT
 62
11
 10
-340.511
 20
-1067.048
 30
3589.000
 70
    32
  0
VERTEX
  8
E17LXLIFT
 62
11
 10
-337.658
 20
-1054.710
 30
3589.000
 70
    32
  0
VERTEX
  8
E17LXLIFT
 62
11
 10
-336.860
 20
-1042.670
 30
3589.000
 70
    32
  0
VERTEX
  8
E17LXLIFT
 62
11
 10
-339.337
 20
-1035.814
 30
3589.000
 70
    32
  0
VERTEX
  8
E17LXLIFT
 62
11
 10
-348.615
 20
-1032.259
 30
3589.000
 70
    32
  0
VERTEX
  8
E17LXLIFT
 62
11
 10
-353.840
 20
-1027.283
 30
3589.000
 70
    32
  0
VERTEX
  8
E17LXLIFT
 62
11
 10
-360.685
 20
-1033.212
 30
3589.000
 70
    32
  0
VERTEX
  8
E17LXLIFT
 62
11
 10
-366.595
 20
-1038.789
 30
3589.000
 70
    32
  0
VERTEX
  8
E17LXLIFT
 62
11
 10
-372.666
 20
-1038.319
 30
3589.000
 70
    32
  0
VERTEX
  8
E17LXLIFT
 62
11
 10
-380.198
 20
-1034.040
 30
3589.000
 70
    32
  0
VERTEX
  8
E17LXLIFT
 62
11
 10
-383.925
 20
-1027.548
 30
3589.000
 70
    32
  0
VERTEX
  8
E17LXLIFT
 62
11
 10
-390.400
 20
-1029.208
 30
3589.000
 70
    32
  0
VERTEX
  8
E17LXLIFT
 62
11
 10
-396.393
 20
-1021.977
 30
3589.000
 70
    32
  0
VERTEX
  8
E17LXLIFT
 62
11
 10
-406.521
 20
-1006.495
 30
3589.000
 70
    32
  0
VERTEX
  8
E17LXLIFT
 62
11
 10
-413.947
 20
-994.895
 30
3589.000
 70
    32
  0
VERTEX
  8
E17LXLIFT
 62
11
 10
-420.490
 20
-986.008
 30
3589.000
 70
    32
  0
VERTEX
  8
E17LXLIFT
 62
11
 10
-424.780
 20
-980.680
 30
3589.000
 70
    32
  0
VERTEX
  8
E17LXLIFT
 62
11
 10
-434.506
 20
-978.747
 30
3589.000
 70
    32
  0
VERTEX
  8
E17LXLIFT
 62
11
 10
-437.034
 20
-965.547
 30
3589.000
 70
    32
  0
VERTEX
  8
E17LXLIFT
 62
11
 10
-442.112
 20
-958.086
 30
3589.000
 70
    32
  0
VERTEX
  8
E17LXLIFT
 62
11
 10
-450.573
 20
-948.641
 30
3589.000
 70
    32
  0
VERTEX
  8
E17LXLIFT
 62
11
 10
-454.709
 20
-940.390
 30
3589.000
 70
    32
  0
VERTEX
  8
E17LXLIFT
 62
11
 10
-453.160
 20
-932.673
 30
3589.000
 70
    32
  0
VERTEX
  8
E17LXLIFT
 62
11
 10
-460.067
 20
-922.536
 30
3589.000
 70
    32
  0
VERTEX
  8
E17LXLIFT
 62
11
 10
-465.482
 20
-913.264
 30
3589.000
 70
    32
  0
VERTEX
  8
E17LXLIFT
 62
11
 10
-470.112
 20
-901.046
 30
3589.000
 70
    32
  0
VERTEX
  8
E17LXLIFT
 62
11
 10
-476.137
 20
-893.621
 30
3589.000
 70
    32
  0
VERTEX
  8
E17LXLIFT
 62
11
 10
-483.611
 20
-883.895
 30
3589.000
 70
    32
  0
VERTEX
  8
E17LXLIFT
 62
11
 10
-489.276
 20
-873.831
 30
3589.000
 70
    32
  0
VERTEX
  8
E17LXLIFT
 62
11
 10
-490.232
 20
-866.089
 30
3589.000
 70
    32
  0
VERTEX
  8
E17LXLIFT
 62
11
 10
-496.567
 20
-856.295
 30
3589.000
 70
    32
  0
VERTEX
  8
E17LXLIFT
 62
11
 10
-501.097
 20
-848.545
 30
3589.000
 70
    32
  0
VERTEX
  8
E17LXLIFT
 62
11
 10
-500.742
 20
-842.016
 30
3589.000
 70
    32
  0
VERTEX
  8
E17LXLIFT
 62
11
 10
-506.964
 20
-833.870
 30
3589.000
 70
    32
  0
VERTEX
  8
E17LXLIFT
 62
11
 10
-500.090
 20
-826.190
 30
3589.000
 70
    32
  0
VERTEX
  8
E17LXLIFT
 62
11
 10
-491.570
 20
-819.588
 30
3589.000
 70
    32
  0
VERTEX
  8
E17LXLIFT
 62
11
 10
-491.078
 20
-818.475
 30
3589.000
 70
    32
  0
VERTEX
  8
E17LXLIFT
 62
11
 10
-487.335
 20
-811.548
 30
3589.000
 70
    32
  0
VERTEX
  8
E17LXLIFT
 62
11
 10
-480.838
 20
-802.302
 30
3589.000
 70
    32
  0
VERTEX
  8
E17LXLIFT
 62
11
 10
-475.446
 20
-798.398
 30
3589.000
 70
    32
  0
VERTEX
  8
E17LXLIFT
 62
11
 10
-466.510
 20
-796.254
 30
3589.000
 70
    32
  0
VERTEX
  8
E17LXLIFT
 62
11
 10
-461.036
 20
-795.750
 30
3589.000
 70
    32
  0
VERTEX
  8
E17LXLIFT
 62
11
 10
-451.775
 20
-804.508
 30
3589.000
 70
    32
  0
VERTEX
  8
E17LXLIFT
 62
11
 10
-446.228
 20
-812.169
 30
3589.000
 70
    32
  0
VERTEX
  8
E17LXLIFT
 62
11
 10
-440.289
 20
-814.249
 30
3589.000
 70
    32
  0
VERTEX
  8
E17LXLIFT
 62
11
 10
-429.942
 20
-814.651
 30
3589.000
 70
    32
  0
VERTEX
  8
E17LXLIFT
 62
11
 10
-420.656
 20
-817.768
 30
3589.000
 70
    32
  0
VERTEX
  8
E17LXLIFT
 62
11
 10
-420.045
 20
-830.409
 30
3589.000
 70
    32
  0
VERTEX
  8
E17LXLIFT
 62
11
 10
-419.337
 20
-845.575
 30
3589.000
 70
    32
  0
VERTEX
  8
E17LXLIFT
 62
11
 10
-420.363
 20
-861.781
 30
3589.000
 70
    32
  0
VERTEX
  8
E17LXLIFT
 62
11
 10
-417.673
 20
-881.027
 30
3589.000
 70
    32
  0
VERTEX
  8
E17LXLIFT
 62
11
 10
-414.668
 20
-897.125
 30
3589.000
 70
    32
  0
VERTEX
  8
E17LXLIFT
 62
11
 10
-408.223
 20
-912.896
 30
3589.000
 70
    32
  0
VERTEX
  8
E17LXLIFT
 62
11
 10
-401.647
 20
-930.193
 30
3589.000
 70
    32
  0
VERTEX
  8
E17LXLIFT
 62
11
 10
-390.070
 20
-946.032
 30
3589.000
 70
    32
  0
VERTEX
  8
E17LXLIFT
 62
11
 10
-379.871
 20
-964.599
 30
3589.000
 70
    32
  0
VERTEX
  8
E17LXLIFT
 62
11
 10
-369.177
 20
-977.726
 30
3589.000
 70
    32
  0
VERTEX
  8
E17LXLIFT
 62
11
 10
-362.927
 20
-985.312
 30
3589.000
 70
    32
  0
VERTEX
  8
E17LXLIFT
 62
11
 10
-351.719
 20
-983.468
 30
3589.000
 70
    32
  0
VERTEX
  8
E17LXLIFT
 62
11
 10
-338.219
 20
-978.667
 30
3589.000
 70
    32
  0
VERTEX
  8
E17LXLIFT
 62
11
 10
-335.626
 20
-989.117
 30
3589.000
 70
    32
  0
VERTEX
  8
E17LXLIFT
 62
11
 10
-333.169
 20
-1005.504
 30
3589.000
 70
    32
  0
VERTEX
  8
E17LXLIFT
 62
11
 10
-330.369
 20
-1018.182
 30
3589.000
 70
    32
  0
VERTEX
  8
E17LXLIFT
 62
11
 10
-324.579
 20
-1027.074
 30
3589.000
 70
    32
  0
VERTEX
  8
E17LXLIFT
 62
11
 10
-317.958
 20
-1032.336
 30
3589.000
 70
    32
  0
VERTEX
  8
E17LXLIFT
 62
11
 10
-310.240
 20
-1027.613
 30
3589.000
 70
    32
  0
VERTEX
  8
E17LXLIFT
 62
11
 10
-305.536
 20
-1026.046
 30
3589.000
 70
    32
  0
VERTEX
  8
E17LXLIFT
 62
11
 10
-301.522
 20
-1031.141
 30
3589.000
 70
    32
  0
VERTEX
  8
E17LXLIFT
 62
11
 10
-307.936
 20
-1037.515
 30
3589.000
 70
    32
  0
VERTEX
  8
E17LXLIFT
 62
11
 10
-317.071
 20
-1048.346
 30
3589.000
 70
    32
  0
VERTEX
  8
E17LXLIFT
 62
11
 10
-324.934
 20
-1060.635
 30
3589.000
 70
    32
  0
VERTEX
  8
E17LXLIFT
 62
11
 10
-330.829
 20
-1071.608
 30
3589.000
 70
    32
  0
VERTEX
  8
E17LXLIFT
 62
11
 10
-334.169
 20
-1079.541
 30
3589.000
 70
    32
  0
VERTEX
  8
E17LXLIFT
 62
11
 10
-336.899
 20
-1085.627
 30
3589.000
 70
    32
  0
SEQEND
  8
E17LXLIFT
  0
POLYLINE
  8
E17LXLIFT
 62
4
 66
     1
 70
     9
  0
VERTEX
  8
E17LXLIFT
 62
4
 10
-386.217
 20
-653.676
 30
3593.000
 70
    32
  0
VERTEX
  8
E17LXLIFT
 62
4
 10
-374.511
 20
-666.307
 30
3593.000
 70
    32
  0
VERTEX
  8
E17LXLIFT
 62
4
 10
-364.978
 20
-678.357
 30
3593.000
 70
    32
  0
VERTEX
  8
E17LXLIFT
 62
4
 10
-357.824
 20
-687.474
 30
3593.000
 70
    32
  0
VERTEX
  8
E17LXLIFT
 62
4
 10
-353.068
 20
-693.780
 30
3593.000
 70
    32
  0
VERTEX
  8
E17LXLIFT
 62
4
 10
-359.244
 20
-699.748
 30
3593.000
 70
    32
  0
VERTEX
  8
E17LXLIFT
 62
4
 10
-367.316
 20
-703.734
 30
3593.000
 70
    32
  0
VERTEX
  8
E17LXLIFT
 62
4
 10
-353.543
 20
-733.372
 30
3593.000
 70
    32
  0
VERTEX
  8
E17LXLIFT
 62
4
 10
-349.981
 20
-747.969
 30
3593.000
 70
    32
  0
VERTEX
  8
E17LXLIFT
 62
4
 10
-344.853
 20
-758.035
 30
3593.000
 70
    32
  0
VERTEX
  8
E17LXLIFT
 62
4
 10
-335.855
 20
-764.921
 30
3593.000
 70
    32
  0
VERTEX
  8
E17LXLIFT
 62
4
 10
-330.293
 20
-777.499
 30
3593.000
 70
    32
  0
VERTEX
  8
E17LXLIFT
 62
4
 10
-323.339
 20
-785.456
 30
3593.000
 70
    32
  0
VERTEX
  8
E17LXLIFT
 62
4
 10
-321.387
 20
-787.070
 30
3593.000
 70
    32
  0
VERTEX
  8
E17LXLIFT
 62
4
 10
-332.133
 20
-793.789
 30
3593.000
 70
    32
  0
VERTEX
  8
E17LXLIFT
 62
4
 10
-337.948
 20
-784.122
 30
3593.000
 70
    32
  0
VERTEX
  8
E17LXLIFT
 62
4
 10
-345.939
 20
-776.384
 30
3593.000
 70
    32
  0
VERTEX
  8
E17LXLIFT
 62
4
 10
-353.974
 20
-769.769
 30
3593.000
 70
    32
  0
VERTEX
  8
E17LXLIFT
 62
4
 10
-358.749
 20
-755.302
 30
3593.000
 70
    32
  0
VERTEX
  8
E17LXLIFT
 62
4
 10
-363.806
 20
-741.043
 30
3593.000
 70
    32
  0
VERTEX
  8
E17LXLIFT
 62
4
 10
-368.792
 20
-726.731
 30
3593.000
 70
    32
  0
VERTEX
  8
E17LXLIFT
 62
4
 10
-373.470
 20
-715.354
 30
3593.000
 70
    32
  0
VERTEX
  8
E17LXLIFT
 62
4
 10
-381.486
 20
-706.545
 30
3593.000
 70
    32
  0
VERTEX
  8
E17LXLIFT
 62
4
 10
-384.375
 20
-699.518
 30
3593.000
 70
    32
  0
VERTEX
  8
E17LXLIFT
 62
4
 10
-381.758
 20
-690.940
 30
3593.000
 70
    32
  0
VERTEX
  8
E17LXLIFT
 62
4
 10
-383.822
 20
-679.707
 30
3593.000
 70
    32
  0
VERTEX
  8
E17LXLIFT
 62
4
 10
-388.451
 20
-668.839
 30
3593.000
 70
    32
  0
VERTEX
  8
E17LXLIFT
 62
4
 10
-393.999
 20
-660.718
 30
3593.000
 70
    32
  0
SEQEND
  8
E17LXLIFT
  0
POLYLINE
  8
E17LXLIFT
 62
8
 66
     1
 70
     9
  0
VERTEX
  8
E17LXLIFT
 62
8
 10
-223.710
 20
-1043.741
 30
3591.000
 70
    32
  0
VERTEX
  8
E17LXLIFT
 62
8
 10
-228.830
 20
-1047.295
 30
3591.000
 70
    32
  0
VERTEX
  8
E17LXLIFT
 62
8
 10
-233.838
 20
-1050.114
 30
3591.000
 70
    32
  0
VERTEX
  8
E17LXLIFT
 62
8
 10
-239.877
 20
-1041.919
 30
3591.000
 70
    32
  0
VERTEX
  8
E17LXLIFT
 62
8
 10
-246.409
 20
-1042.373
 30
3591.000
 70
    32
  0
VERTEX
  8
E17LXLIFT
 62
8
 10
-250.444
 20
-1042.075
 30
3591.000
 70
    32
  0
VERTEX
  8
E17LXLIFT
 62
8
 10
-257.103
 20
-1034.665
 30
3591.000
 70
    32
  0
VERTEX
  8
E17LXLIFT
 62
8
 10
-276.289
 20
-1018.391
 30
3591.000
 70
    32
  0
VERTEX
  8
E17LXLIFT
 62
8
 10
-283.644
 20
-1012.256
 30
3591.000
 70
    32
  0
VERTEX
  8
E17LXLIFT
 62
8
 10
-280.450
 20
-1004.016
 30
3591.000
 70
    32
  0
VERTEX
  8
E17LXLIFT
 62
8
 10
-279.521
 20
-997.881
 30
3591.000
 70
    32
  0
VERTEX
  8
E17LXLIFT
 62
8
 10
-284.935
 20
-994.676
 30
3591.000
 70
    32
  0
VERTEX
  8
E17LXLIFT
 62
8
 10
-289.668
 20
-989.880
 30
3591.000
 70
    32
  0
VERTEX
  8
E17LXLIFT
 62
8
 10
-299.302
 20
-981.391
 30
3591.000
 70
    32
  0
VERTEX
  8
E17LXLIFT
 62
8
 10
-306.121
 20
-976.279
 30
3591.000
 70
    32
  0
VERTEX
  8
E17LXLIFT
 62
8
 10
-311.591
 20
-969.300
 30
3591.000
 70
    32
  0
VERTEX
  8
E17LXLIFT
 62
8
 10
-319.199
 20
-959.863
 30
3591.000
 70
    32
  0
VERTEX
  8
E17LXLIFT
 62
8
 10
-324.036
 20
-954.925
 30
3591.000
 70
    32
  0
VERTEX
  8
E17LXLIFT
 62
8
 10
-328.390
 20
-948.868
 30
3591.000
 70
    32
  0
VERTEX
  8
E17LXLIFT
 62
8
 10
-330.666
 20
-939.863
 30
3591.000
 70
    32
  0
VERTEX
  8
E17LXLIFT
 62
8
 10
-323.572
 20
-933.218
 30
3591.000
 70
    32
  0
VERTEX
  8
E17LXLIFT
 62
8
 10
-316.968
 20
-926.499
 30
3591.000
 70
    32
  0
VERTEX
  8
E17LXLIFT
 62
8
 10
-312.581
 20
-924.465
 30
3591.000
 70
    32
  0
VERTEX
  8
E17LXLIFT
 62
8
 10
-309.900
 20
-931.210
 30
3591.000
 70
    32
  0
VERTEX
  8
E17LXLIFT
 62
8
 10
-302.571
 20
-942.487
 30
3591.000
 70
    32
  0
VERTEX
  8
E17LXLIFT
 62
8
 10
-292.788
 20
-958.279
 30
3591.000
 70
    32
  0
VERTEX
  8
E17LXLIFT
 62
8
 10
-285.530
 20
-969.608
 30
3591.000
 70
    32
  0
VERTEX
  8
E17LXLIFT
 62
8
 10
-276.383
 20
-979.654
 30
3591.000
 70
    32
  0
VERTEX
  8
E17LXLIFT
 62
8
 10
-267.972
 20
-985.447
 30
3591.000
 70
    32
  0
VERTEX
  8
E17LXLIFT
 62
8
 10
-260.852
 20
-994.371
 30
3591.000
 70
    32
  0
VERTEX
  8
E17LXLIFT
 62
8
 10
-255.628
 20
-997.171
 30
3591.000
 70
    32
  0
VERTEX
  8
E17LXLIFT
 62
8
 10
-246.618
 20
-998.598
 30
3591.000
 70
    32
  0
VERTEX
  8
E17LXLIFT
 62
8
 10
-240.941
 20
-999.647
 30
3591.000
 70
    32
  0
VERTEX
  8
E17LXLIFT
 62
8
 10
-233.601
 20
-1007.537
 30
3591.000
 70
    32
  0
VERTEX
  8
E17LXLIFT
 62
8
 10
-233.173
 20
-1019.212
 30
3591.000
 70
    32
  0
VERTEX
  8
E17LXLIFT
 62
8
 10
-233.812
 20
-1028.403
 30
3591.000
 70
    32
  0
SEQEND
  8
E17LXLIFT
  0
POLYLINE
  8
E17LXLIFT
 62
3
 66
     1
 70
     9
  0
VERTEX
  8
E17LXLIFT
 62
3
 10
-112.116
 20
-1325.265
 30
3607.000
 70
    32
  0
VERTEX
  8
E17LXLIFT
 62
3
 10
-107.979
 20
-1321.819
 30
3607.000
 70
    32
  0
VERTEX
  8
E17LXLIFT
 62
3
 10
-116.037
 20
-1313.739
 30
3607.000
 70
    32
  0
VERTEX
  8
E17LXLIFT
 62
3
 10
-105.995
 20
-1307.630
 30
3607.000
 70
    32
  0
VERTEX
  8
E17LXLIFT
 62
3
 10
-98.289
 20
-1305.944
 30
3607.000
 70
    32
  0
VERTEX
  8
E17LXLIFT
 62
3
 10
-91.928
 20
-1311.991
 30
3607.000
 70
    32
  0
VERTEX
  8
E17LXLIFT
 62
3
 10
-85.147
 20
-1313.375
 30
3607.000
 70
    32
  0
VERTEX
  8
E17LXLIFT
 62
3
 10
-81.861
 20
-1324.927
 30
3607.000
 70
    32
  0
VERTEX
  8
E17LXLIFT
 62
3
 10
-77.922
 20
-1331.538
 30
3607.000
 70
    32
  0
VERTEX
  8
E17LXLIFT
 62
3
 10
-78.139
 20
-1345.312
 30
3607.000
 70
    32
  0
VERTEX
  8
E17LXLIFT
 62
3
 10
-80.546
 20
-1353.382
 30
3607.000
 70
    32
  0
VERTEX
  8
E17LXLIFT
 62
3
 10
-74.061
 20
-1361.844
 30
3607.000
 70
    32
  0
VERTEX
  8
E17LXLIFT
 62
3
 10
-67.862
 20
-1370.514
 30
3607.000
 70
    32
  0
VERTEX
  8
E17LXLIFT
 62
3
 10
-60.621
 20
-1374.177
 30
3607.000
 70
    32
  0
VERTEX
  8
E17LXLIFT
 62
3
 10
-53.321
 20
-1378.669
 30
3607.000
 70
    32
  0
VERTEX
  8
E17LXLIFT
 62
3
 10
-59.575
 20
-1384.745
 30
3607.000
 70
    32
  0
VERTEX
  8
E17LXLIFT
 62
3
 10
-63.951
 20
-1391.307
 30
3607.000
 70
    32
  0
VERTEX
  8
E17LXLIFT
 62
3
 10
-70.900
 20
-1390.590
 30
3607.000
 70
    32
  0
VERTEX
  8
E17LXLIFT
 62
3
 10
-80.155
 20
-1384.906
 30
3607.000
 70
    32
  0
VERTEX
  8
E17LXLIFT
 62
3
 10
-90.565
 20
-1374.943
 30
3607.000
 70
    32
  0
VERTEX
  8
E17LXLIFT
 62
3
 10
-98.293
 20
-1363.573
 30
3607.000
 70
    32
  0
VERTEX
  8
E17LXLIFT
 62
3
 10
-102.881
 20
-1353.077
 30
3607.000
 70
    32
  0
VERTEX
  8
E17LXLIFT
 62
3
 10
-104.309
 20
-1340.935
 30
3607.000
 70
    32
  0
SEQEND
  8
E17LXLIFT
  0
POLYLINE
  8
E17LXLIFT
 62
13
 66
     1
 70
     9
  0
VERTEX
  8
E17LXLIFT
 62
13
 10
-523.776
 20
-860.675
 30
3629.000
 70
    32
  0
VERTEX
  8
E17LXLIFT
 62
13
 10
-521.660
 20
-854.150
 30
3629.000
 70
    32
  0
VERTEX
  8
E17LXLIFT
 62
13
 10
-520.587
 20
-842.735
 30
3629.000
 70
    32
  0
VERTEX
  8
E17LXLIFT
 62
13
 10
-521.233
 20
-834.193
 30
3629.000
 70
    32
  0
VERTEX
  8
E17LXLIFT
 62
13
 10
-524.117
 20
-822.711
 30
3629.000
 70
    32
  0
VERTEX
  8
E17LXLIFT
 62
13
 10
-528.741
 20
-809.124
 30
3629.000
 70
    32
  0
VERTEX
  8
E17LXLIFT
 62
13
 10
-532.936
 20
-797.180
 30
3629.000
 70
    32
  0
VERTEX
  8
E17LXLIFT
 62
13
 10
-539.641
 20
-785.967
 30
3629.000
 70
    32
  0
VERTEX
  8
E17LXLIFT
 62
13
 10
-543.856
 20
-774.146
 30
3629.000
 70
    32
  0
VERTEX
  8
E17LXLIFT
 62
13
 10
-551.820
 20
-762.542
 30
3629.000
 70
    32
  0
VERTEX
  8
E17LXLIFT
 62
13
 10
-560.622
 20
-749.482
 30
3629.000
 70
    32
  0
VERTEX
  8
E17LXLIFT
 62
13
 10
-572.840
 20
-734.553
 30
3629.000
 70
    32
  0
VERTEX
  8
E17LXLIFT
 62
13
 10
-579.970
 20
-722.453
 30
3629.000
 70
    32
  0
VERTEX
  8
E17LXLIFT
 62
13
 10
-577.007
 20
-718.898
 30
3629.000
 70
    32
  0
VERTEX
  8
E17LXLIFT
 62
13
 10
-569.437
 20
-713.309
 30
3629.000
 70
    32
  0
VERTEX
  8
E17LXLIFT
 62
13
 10
-564.615
 20
-719.372
 30
3629.000
 70
    32
  0
VERTEX
  8
E17LXLIFT
 62
13
 10
-553.725
 20
-721.368
 30
3629.000
 70
    32
  0
VERTEX
  8
E17LXLIFT
 62
13
 10
-546.384
 20
-719.962
 30
3629.000
 70
    32
  0
VERTEX
  8
E17LXLIFT
 62
13
 10
-544.562
 20
-717.231
 30
3629.000
 70
    32
  0
VERTEX
  8
E17LXLIFT
 62
13
 10
-541.874
 20
-712.246
 30
3629.000
 70
    32
  0
VERTEX
  8
E17LXLIFT
 62
13
 10
-534.466
 20
-710.033
 30
3629.000
 70
    32
  0
VERTEX
  8
E17LXLIFT
 62
13
 10
-531.137
 20
-715.982
 30
3629.000
 70
    32
  0
VERTEX
  8
E17LXLIFT
 62
13
 10
-528.188
 20
-729.804
 30
3629.000
 70
    32
  0
VERTEX
  8
E17LXLIFT
 62
13
 10
-522.731
 20
-744.091
 30
3629.000
 70
    32
  0
VERTEX
  8
E17LXLIFT
 62
13
 10
-517.667
 20
-757.686
 30
3629.000
 70
    32
  0
VERTEX
  8
E17LXLIFT
 62
13
 10
-513.782
 20
-769.203
 30
3629.000
 70
    32
  0
VERTEX
  8
E17LXLIFT
 62
13
 10
-507.247
 20
-772.831
 30
3629.000
 70
    32
  0
VERTEX
  8
E17LXLIFT
 62
13
 10
-507.300
 20
-779.057
 30
3629.000
 70
    32
  0
VERTEX
  8
E17LXLIFT
 62
13
 10
-507.967
 20
-785.185
 30
3629.000
 70
    32
  0
VERTEX
  8
E17LXLIFT
 62
13
 10
-502.452
 20
-790.854
 30
3629.000
 70
    32
  0
VERTEX
  8
E17LXLIFT
 62
13
 10
-495.610
 20
-796.106
 30
3629.000
 70
    32
  0
VERTEX
  8
E17LXLIFT
 62
13
 10
-495.212
 20
-805.805
 30
3629.000
 70
    32
  0
VERTEX
  8
E17LXLIFT
 62
13
 10
-495.251
 20
-814.300
 30
3629.000
 70
    32
  0
VERTEX
  8
E17LXLIFT
 62
13
 10
-491.379
 20
-823.547
 30
3629.000
 70
    32
  0
VERTEX
  8
E17LXLIFT
 62
13
 10
-486.059
 20
-832.397
 30
3629.000
 70
    32
  0
VERTEX
  8
E17LXLIFT
 62
13
 10
-490.026
 20
-837.114
 30
3629.000
 70
    32
  0
VERTEX
  8
E17LXLIFT
 62
13
 10
-497.233
 20
-842.005
 30
3629.000
 70
    32
  0
VERTEX
  8
E17LXLIFT
 62
13
 10
-504.168
 20
-849.521
 30
3629.000
 70
    32
  0
VERTEX
  8
E17LXLIFT
 62
13
 10
-509.518
 20
-856.976
 30
3629.000
 70
    32
  0
VERTEX
  8
E17LXLIFT
 62
13
 10
-514.773
 20
-865.014
 30
3629.000
 70
    32
  0
SEQEND
  8
E17LXLIFT
  0
POLYLINE
  8
E17LXLIFT
 62
11
 66
     1
 70
     9
  0
VERTEX
  8
E17LXLIFT
 62
11
 10
-435.607
 20
-957.038
 30
3615.000
 70
    32
  0
VERTEX
  8
E17LXLIFT
 62
11
 10
-437.735
 20
-953.044
 30
3615.000
 70
    32
  0
VERTEX
  8
E17LXLIFT
 62
11
 10
-444.732
 20
-948.015
 30
3615.000
 70
    32
  0
VERTEX
  8
E17LXLIFT
 62
11
 10
-454.485
 20
-941.723
 30
3615.000
 70
    32
  0
VERTEX
  8
E17LXLIFT
 62
11
 10
-457.394
 20
-933.197
 30
3615.000
 70
    32
  0
VERTEX
  8
E17LXLIFT
 62
11
 10
-460.674
 20
-927.759
 30
3615.000
 70
    32
  0
VERTEX
  8
E17LXLIFT
 62
11
 10
-468.122
 20
-926.308
 30
3615.000
 70
    32
  0
VERTEX
  8
E17LXLIFT
 62
11
 10
-472.008
 20
-920.332
 30
3615.000
 70
    32
  0
VERTEX
  8
E17LXLIFT
 62
11
 10
-475.869
 20
-914.989
 30
3615.000
 70
    32
  0
VERTEX
  8
E17LXLIFT
 62
11
 10
-473.992
 20
-907.232
 30
3615.000
 70
    32
  0
VERTEX
  8
E17LXLIFT
 62
11
 10
-472.973
 20
-899.338
 30
3615.000
 70
    32
  0
VERTEX
  8
E17LXLIFT
 62
11
 10
-475.740
 20
-890.708
 30
3615.000
 70
    32
  0
VERTEX
  8
E17LXLIFT
 62
11
 10
-480.253
 20
-880.413
 30
3615.000
 70
    32
  0
VERTEX
  8
E17LXLIFT
 62
11
 10
-486.028
 20
-870.921
 30
3615.000
 70
    32
  0
VERTEX
  8
E17LXLIFT
 62
11
 10
-489.737
 20
-863.840
 30
3615.000
 70
    32
  0
VERTEX
  8
E17LXLIFT
 62
11
 10
-496.694
 20
-858.565
 30
3615.000
 70
    32
  0
VERTEX
  8
E17LXLIFT
 62
11
 10
-501.601
 20
-854.628
 30
3615.000
 70
    32
  0
VERTEX
  8
E17LXLIFT
 62
11
 10
-494.425
 20
-849.550
 30
3615.000
 70
    32
  0
VERTEX
  8
E17LXLIFT
 62
11
 10
-487.360
 20
-844.769
 30
3615.000
 70
    32
  0
VERTEX
  8
E17LXLIFT
 62
11
 10
-479.691
 20
-836.622
 30
3615.000
 70
    32
  0
VERTEX
  8
E17LXLIFT
 62
11
 10
-469.715
 20
-835.269
 30
3615.000
 70
    32
  0
VERTEX
  8
E17LXLIFT
 62
11
 10
-458.349
 20
-833.887
 30
3615.000
 70
    32
  0
VERTEX
  8
E17LXLIFT
 62
11
 10
-447.502
 20
-831.036
 30
3615.000
 70
    32
  0
VERTEX
  8
E17LXLIFT
 62
11
 10
-440.382
 20
-838.037
 30
3615.000
 70
    32
  0
VERTEX
  8
E17LXLIFT
 62
11
 10
-436.421
 20
-842.767
 30
3615.000
 70
    32
  0
VERTEX
  8
E17LXLIFT
 62
11
 10
-432.180
 20
-846.534
 30
3615.000
 70
    32
  0
VERTEX
  8
E17LXLIFT
 62
11
 10
-432.419
 20
-851.154
 30
3615.000
 70
    32
  0
VERTEX
  8
E17LXLIFT
 62
11
 10
-439.695
 20
-852.942
 30
3615.000
 70
    32
  0
VERTEX
  8
E17LXLIFT
 62
11
 10
-443.782
 20
-862.295
 30
3615.000
 70
    32
  0
VERTEX
  8
E17LXLIFT
 62
11
 10
-447.117
 20
-868.935
 30
3615.000
 70
    32
  0
VERTEX
  8
E17LXLIFT
 62
11
 10
-445.910
 20
-876.307
 30
3615.000
 70
    32
  0
VERTEX
  8
E17LXLIFT
 62
11
 10
-443.264
 20
-881.769
 30
3615.000
 70
    32
  0
VERTEX
  8
E17LXLIFT
 62
11
 10
-435.438
 20
-888.694
 30
3615.000
 70
    32
  0
VERTEX
  8
E17LXLIFT
 62
11
 10
-427.391
 20
-896.977
 30
3615.000
 70
    32
  0
VERTEX
  8
E17LXLIFT
 62
11
 10
-422.160
 20
-909.466
 30
3615.000
 70
    32
  0
VERTEX
  8
E17LXLIFT
 62
11
 10
-419.206
 20
-922.407
 30
3615.000
 70
    32
  0
VERTEX
  8
E17LXLIFT
 62
11
 10
-415.841
 20
-933.966
 30
3615.000
 70
    32
  0
VERTEX
  8
E17LXLIFT
 62
11
 10
-413.756
 20
-939.401
 30
3615.000
 70
    32
  0
VERTEX
  8
E17LXLIFT
 62
11
 10
-417.209
 20
-948.729
 30
3615.000
 70
    32
  0
VERTEX
  8
E17LXLIFT
 62
11
 10
-417.963
 20
-954.589
 30
3615.000
 70
    32
  0
SEQEND
  8
E17LXLIFT
  0
POLYLINE
  8
E17LXLIFT
 62
13
 66
     1
 70
     9
  0
VERTEX
  8
E17LXLIFT
 62
13
 10
-536.266
 20
-804.728
 30
3653.000
 70
    32
  0
VERTEX
  8
E17LXLIFT
 62
13
 10
-527.428
 20
-818.386
 30
3653.000
 70
    32
  0
VERTEX
  8
E17LXLIFT
 62
13
 10
-520.534
 20
-831.610
 30
3653.000
 70
    32
  0
VERTEX
  8
E17LXLIFT
 62
13
 10
-514.858
 20
-840.618
 30
3653.000
 70
    32
  0
VERTEX
  8
E17LXLIFT
 62
13
 10
-511.374
 20
-844.816
 30
3653.000
 70
    32
  0
VERTEX
  8
E17LXLIFT
 62
13
 10
-506.149
 20
-839.609
 30
3653.000
 70
    32
  0
VERTEX
  8
E17LXLIFT
 62
13
 10
-500.331
 20
-837.011
 30
3653.000
 70
    32
  0
VERTEX
  8
E17LXLIFT
 62
13
 10
-496.235
 20
-829.802
 30
3653.000
 70
    32
  0
VERTEX
  8
E17LXLIFT
 62
13
 10
-499.129
 20
-821.486
 30
3653.000
 70
    32
  0
VERTEX
  8
E17LXLIFT
 62
13
 10
-501.209
 20
-811.601
 30
3653.000
 70
    32
  0
VERTEX
  8
E17LXLIFT
 62
13
 10
-503.760
 20
-801.516
 30
3653.000
 70
    32
  0
VERTEX
  8
E17LXLIFT
 62
13
 10
-499.812
 20
-793.656
 30
3653.000
 70
    32
  0
VERTEX
  8
E17LXLIFT
 62
13
 10
-501.983
 20
-783.945
 30
3653.000
 70
    32
  0
VERTEX
  8
E17LXLIFT
 62
13
 10
-507.536
 20
-774.957
 30
3653.000
 70
    32
  0
VERTEX
  8
E17LXLIFT
 62
13
 10
-512.488
 20
-763.360
 30
3653.000
 70
    32
  0
VERTEX
  8
E17LXLIFT
 62
13
 10
-518.386
 20
-757.334
 30
3653.000
 70
    32
  0
VERTEX
  8
E17LXLIFT
 62
13
 10
-523.986
 20
-750.224
 30
3653.000
 70
    32
  0
VERTEX
  8
E17LXLIFT
 62
13
 10
-523.046
 20
-742.703
 30
3653.000
 70
    32
  0
VERTEX
  8
E17LXLIFT
 62
13
 10
-522.332
 20
-735.022
 30
3653.000
 70
    32
  0
VERTEX
  8
E17LXLIFT
 62
13
 10
-525.605
 20
-722.748
 30
3653.000
 70
    32
  0
VERTEX
  8
E17LXLIFT
 62
13
 10
-525.884
 20
-712.206
 30
3653.000
 70
    32
  0
VERTEX
  8
E17LXLIFT
 62
13
 10
-532.405
 20
-702.184
 30
3653.000
 70
    32
  0
VERTEX
  8
E17LXLIFT
 62
13
 10
-535.344
 20
-692.163
 30
3653.000
 70
    32
  0
VERTEX
  8
E17LXLIFT
 62
13
 10
-536.739
 20
-681.130
 30
3653.000
 70
    32
  0
VERTEX
  8
E17LXLIFT
 62
13
 10
-539.394
 20
-670.903
 30
3653.000
 70
    32
  0
VERTEX
  8
E17LXLIFT
 62
13
 10
-545.901
 20
-671.507
 30
3653.000
 70
    32
  0
VERTEX
  8
E17LXLIFT
 62
13
 10
-551.547
 20
-665.081
 30
3653.000
 70
    32
  0
VERTEX
  8
E17LXLIFT
 62
13
 10
-558.769
 20
-663.056
 30
3653.000
 70
    32
  0
VERTEX
  8
E17LXLIFT
 62
13
 10
-563.476
 20
-664.197
 30
3653.000
 70
    32
  0
VERTEX
  8
E17LXLIFT
 62
13
 10
-563.267
 20
-672.402
 30
3653.000
 70
    32
  0
VERTEX
  8
E17LXLIFT
 62
13
 10
-566.626
 20
-677.339
 30
3653.000
 70
    32
  0
VERTEX
  8
E17LXLIFT
 62
13
 10
-567.611
 20
-684.349
 30
3653.000
 70
    32
  0
VERTEX
  8
E17LXLIFT
 62
13
 10
-570.364
 20
-689.822
 30
3653.000
 70
    32
  0
VERTEX
  8
E17LXLIFT
 62
13
 10
-565.954
 20
-700.075
 30
3653.000
 70
    32
  0
VERTEX
  8
E17LXLIFT
 62
13
 10
-563.590
 20
-712.142
 30
3653.000
 70
    32
  0
VERTEX
  8
E17LXLIFT
 62
13
 10
-561.355
 20
-722.239
 30
3653.000
 70
    32
  0
VERTEX
  8
E17LXLIFT
 62
13
 10
-558.572
 20
-732.047
 30
3653.000
 70
    32
  0
VERTEX
  8
E17LXLIFT
 62
13
 10
-557.994
 20
-737.922
 30
3653.000
 70
    32
  0
VERTEX
  8
E17LXLIFT
 62
13
 10
-562.641
 20
-737.500
 30
3653.000
 70
    32
  0
VERTEX
  8
E17LXLIFT
 62
13
 10
-571.765
 20
-728.825
 30
3653.000
 70
    32
  0
VERTEX
  8
E17LXLIFT
 62
13
 10
-578.301
 20
-722.069
 30
3653.000
 70
    32
  0
VERTEX
  8
E17LXLIFT
 62
13
 10
-585.307
 20
-725.423
 30
3653.000
 70
    32
  0
VERTEX
  8
E17LXLIFT
 62
13
 10
-588.946
 20
-733.710
 30
3653.000
 70
    32
  0
VERTEX
  8
E17LXLIFT
 62
13
 10
-588.079
 20
-742.522
 30
3653.000
 70
    32
  0
VERTEX
  8
E17LXLIFT
 62
13
 10
-575.489
 20
-753.128
 30
3653.000
 70
    32
  0
VERTEX
  8
E17LXLIFT
 62
13
 10
-566.469
 20
-761.661
 30
3653.000
 70
    32
  0
VERTEX
  8
E17LXLIFT
 62
13
 10
-556.771
 20
-771.872
 30
3653.000
 70
    32
  0
VERTEX
  8
E17LXLIFT
 62
13
 10
-547.966
 20
-784.142
 30
3653.000
 70
    32
  0
VERTEX
  8
E17LXLIFT
 62
13
 10
-544.484
 20
-791.922
 30
3653.000
 70
    32
  0
SEQEND
  8
E17LXLIFT
  0
POLYLINE
  8
E17LXLIFT
 62
1
 66
     1
 70
     9
  0
VERTEX
  8
E17LXLIFT
 62
1
 10
-543.484
 20
-790.922
 30
3663.000
 70
    32
  0
VERTEX
  8
E17LXLIFT
 62
1
 10
-546.966
 20
-783.142
 30
3663.000
 70
    32
  0
VERTEX
  8
E17LXLIFT
 62
1
 10
-555.771
 20
-770.872
 30
3663.000
 70
    32
  0
VERTEX
  8
E17LXLIFT
 62
1
 10
-565.469
 20
-760.661
 30
3663.000
 70
    32
  0
VERTEX
  8
E17LXLIFT
 62
1
 10
-574.489
 20
-752.128
 30
3663.000
 70
    32
  0
VERTEX
  8
E17LXLIFT
 62
1
 10
-587.079
 20
-741.522
 30
3663.000
 70
    32
  0
VERTEX
  8
E17LXLIFT
 62
1
 10
-587.946
 20
-732.710
 30
3663.000
 70
    32
  0
VERTEX
  8
E17LXLIFT
 62
1
 10
-584.307
 20
-724.423
 30
3663.000
 70
    32
  0
VERTEX
  8
E17LXLIFT
 62
1
 10
-577.301
 20
-721.069
 30
3663.000
 70
    32
  0
VERTEX
  8
E17LXLIFT
 62
1
 10
-570.765
 20
-727.825
 30
3663.000
 70
    32
  0
VERTEX
  8
E17LXLIFT
 62
1
 10
-561.641
 20
-736.500
 30
3663.000
 70
    32
  0
VERTEX
  8
E17LXLIFT
 62
1
 10
-556.994
 20
-736.922
 30
3663.000
 70
    32
  0
VERTEX
  8
E17LXLIFT
 62
1
 10
-557.572
 20
-731.047
 30
3663.000
 70
    32
  0
VERTEX
  8
E17LXLIFT
 62
1
 10
-560.355
 20
-721.239
 30
3663.000
 70
    32
  0
VERTEX
  8
E17LXLIFT
 62
1
 10
-562.590
 20
-711.142
 30
3663.000
 70
    32
  0
VERTEX
  8
E17LXLIFT
 62
1
 10
-564.954
 20
-699.075
 30
3663.000
 70
    32
  0
VERTEX
  8
E17LXLIFT
 62
1
 10
-569.364
 20
-688.822
 30
3663.000
 70
    32
  0
VERTEX
  8
E17LXLIFT
 62
1
 10
-566.611
 20
-683.349
 30
3663.000
 70
    32
  0
VERTEX
  8
E17LXLIFT
 62
1
 10
-565.626
 20
-676.339
 30
3663.000
 70
    32
  0
VERTEX
  8
E17LXLIFT
 62
1
 10
-562.267
 20
-671.402
 30
3663.000
 70
    32
  0
VERTEX
  8
E17LXLIFT
 62
1
 10
-562.476
 20
-663.197
 30
3663.000
 70
    32
  0
VERTEX
  8
E17LXLIFT
 62
1
 10
-557.769
 20
-662.056
 30
3663.000
 70
    32
  0
VERTEX
  8
E17LXLIFT
 62
1
 10
-550.547
 20
-664.081
 30
3663.000
 70
    32
  0
VERTEX
  8
E17LXLIFT
 62
1
 10
-544.901
 20
-670.507
 30
3663.000
 70
    32
  0
VERTEX
  8
E17LXLIFT
 62
1
 10
-538.394
 20
-669.903
 30
3663.000
 70
    32
  0
VERTEX
  8
E17LXLIFT
 62
1
 10
-535.739
 20
-680.130
 30
3663.000
 70
    32
  0
VERTEX
  8
E17LXLIFT
 62
1
 10
-534.344
 20
-691.163
 30
3663.000
 70
    32
  0
VERTEX
  8
E17LXLIFT
 62
1
 10
-531.405
 20
-701.184
 30
3663.000
 70
    32
  0
VERTEX
  8
E17LXLIFT
 62
1
 10
-524.884
 20
-711.206
 30
3663.000
 70
    32
  0
VERTEX
  8
E17LXLIFT
 62
1
 10
-524.605
 20
-721.748
 30
3663.000
 70
    32
  0
VERTEX
  8
E17LXLIFT
 62
1
 10
-521.332
 20
-734.022
 30
3663.000
 70
    32
  0
VERTEX
  8
E17LXLIFT
 62
1
 10
-522.046
 20
-741.703
 30
3663.000
 70
    32
  0
VERTEX
  8
E17LXLIFT
 62
1
 10
-522.986
 20
-749.224
 30
3663.000
 70
    32
  0
VERTEX
  8
E17LXLIFT
 62
1
 10
-517.386
 20
-756.334
 30
3663.000
 70
    32
  0
VERTEX
  8
E17LXLIFT
 62
1
 10
-511.488
 20
-762.360
 30
3663.000
 70
    32
  0
VERTEX
  8
E17LXLIFT
 62
1
 10
-506.536
 20
-773.957
 30
3663.000
 70
    32
  0
VERTEX
  8
E17LXLIFT
 62
1
 10
-500.983
 20
-782.945
 30
3663.000
 70
    32
  0
VERTEX
  8
E17LXLIFT
 62
1
 10
-498.812
 20
-792.656
 30
3663.000
 70
    32
  0
VERTEX
  8
E17LXLIFT
 62
1
 10
-502.760
 20
-800.516
 30
3663.000
 70
    32
  0
VERTEX
  8
E17LXLIFT
 62
1
 10
-500.209
 20
-810.601
 30
3663.000
 70
    32
  0
VERTEX
  8
E17LXLIFT
 62
1
 10
-498.129
 20
-820.486
 30
3663.000
 70
    32
  0
VERTEX
  8
E17LXLIFT
 62
1
 10
-495.235
 20
-828.802
 30
3663.000
 70
    32
  0
VERTEX
  8
E17LXLIFT
 62
1
 10
-499.331
 20
-836.011
 30
3663.000
 70
    32
  0
VERTEX
  8
E17LXLIFT
 62
1
 10
-505.149
 20
-838.609
 30
3663.000
 70
    32
  0
VERTEX
  8
E17LXLIFT
 62
1
 10
-510.374
 20
-843.816
 30
3663.000
 70
    32
  0
VERTEX
  8
E17LXLIFT
 62
1
 10
-513.858
 20
-839.618
 30
3663.000
 70
    32
  0
VERTEX
  8
E17LXLIFT
 62
1
 10
-519.534
 20
-830.610
 30
3663.000
 70
    32
  0
VERTEX
  8
E17LXLIFT
 62
1
 10
-526.428
 20
-817.386
 30
3663.000
 70
    32
  0
VERTEX
  8
E17LXLIFT
 62
1
 10
-535.266
 20
-803.728
 30
3663.000
 70
    32
  0
SEQEND
  8
E17LXLIFT
  0
POLYLINE
  8
E17LXLIFT
 62
1
 66
     1
 70
     9
  0
VERTEX
  8
E17LXLIFT
 62
1
 10
-414.812
 20
-724.593
 30
3600.000
 70
    32
  0
VERTEX
  8
E17LXLIFT
 62
1
 10
-413.640
 20
-715.309
 30
3600.000
 70
    32
  0
VERTEX
  8
E17LXLIFT
 62
1
 10
-417.600
 20
-705.958
 30
3600.000
 70
    32
  0
VERTEX
  8
E17LXLIFT
 62
1
 10
-422.685
 20
-698.935
 30
3600.000
 70
    32
  0
VERTEX
  8
E17LXLIFT
 62
1
 10
-425.632
 20
-688.741
 30
3600.000
 70
    32
  0
VERTEX
  8
E17LXLIFT
 62
1
 10
-426.529
 20
-674.360
 30
3600.000
 70
    32
  0
VERTEX
  8
E17LXLIFT
 62
1
 10
-422.529
 20
-670.924
 30
3600.000
 70
    32
  0
VERTEX
  8
E17LXLIFT
 62
1
 10
-416.118
 20
-665.741
 30
3600.000
 70
    32
  0
VERTEX
  8
E17LXLIFT
 62
1
 10
-411.145
 20
-671.115
 30
3600.000
 70
    32
  0
VERTEX
  8
E17LXLIFT
 62
1
 10
-407.263
 20
-680.956
 30
3600.000
 70
    32
  0
VERTEX
  8
E17LXLIFT
 62
1
 10
-399.434
 20
-687.290
 30
3600.000
 70
    32
  0
VERTEX
  8
E17LXLIFT
 62
1
 10
-395.354
 20
-694.717
 30
3600.000
 70
    32
  0
VERTEX
  8
E17LXLIFT
 62
1
 10
-393.400
 20
-705.629
 30
3600.000
 70
    32
  0
VERTEX
  8
E17LXLIFT
 62
1
 10
-397.327
 20
-714.095
 30
3600.000
 70
    32
  0
VERTEX
  8
E17LXLIFT
 62
1
 10
-394.888
 20
-721.196
 30
3600.000
 70
    32
  0
VERTEX
  8
E17LXLIFT
 62
1
 10
-392.110
 20
-728.916
 30
3600.000
 70
    32
  0
VERTEX
  8
E17LXLIFT
 62
1
 10
-392.118
 20
-738.762
 30
3600.000
 70
    32
  0
VERTEX
  8
E17LXLIFT
 62
1
 10
-391.468
 20
-748.023
 30
3600.000
 70
    32
  0
VERTEX
  8
E17LXLIFT
 62
1
 10
-388.269
 20
-754.682
 30
3600.000
 70
    32
  0
VERTEX
  8
E17LXLIFT
 62
1
 10
-393.518
 20
-758.483
 30
3600.000
 70
    32
  0
VERTEX
  8
E17LXLIFT
 62
1
 10
-400.566
 20
-759.801
 30
3600.000
 70
    32
  0
VERTEX
  8
E17LXLIFT
 62
1
 10
-404.851
 20
-755.226
 30
3600.000
 70
    32
  0
VERTEX
  8
E17LXLIFT
 62
1
 10
-408.429
 20
-748.193
 30
3600.000
 70
    32
  0
VERTEX
  8
E17LXLIFT
 62
1
 10
-412.756
 20
-738.783
 30
3600.000
 70
    32
  0
VERTEX
  8
E17LXLIFT
 62
1
 10
-418.744
 20
-732.305
 30
3600.000
 70
    32
  0
SEQEND
  8
E17LXLIFT
  0
POLYLINE
  8
E17LXLIFT
 62
1
 66
     1
 70
     9
  0
VERTEX
  8
E17LXLIFT
 62
1
 10
-434.607
 20
-956.038
 30
3625.000
 70
    32
  0
VERTEX
  8
E17LXLIFT
 62
1
 10
-436.735
 20
-952.044
 30
3625.000
 70
    32
  0
VERTEX
  8
E17LXLIFT
 62
1
 10
-443.732
 20
-947.015
 30
3625.000
 70
    32
  0
VERTEX
  8
E17LXLIFT
 62
1
 10
-453.485
 20
-940.723
 30
3625.000
 70
    32
  0
VERTEX
  8
E17LXLIFT
 62
1
 10
-456.394
 20
-932.197
 30
3625.000
 70
    32
  0
VERTEX
  8
E17LXLIFT
 62
1
 10
-459.674
 20
-926.759
 30
3625.000
 70
    32
  0
VERTEX
  8
E17LXLIFT
 62
1
 10
-467.122
 20
-925.308
 30
3625.000
 70
    32
  0
VERTEX
  8
E17LXLIFT
 62
1
 10
-471.008
 20
-919.332
 30
3625.000
 70
    32
  0
VERTEX
  8
E17LXLIFT
 62
1
 10
-474.869
 20
-913.989
 30
3625.000
 70
    32
  0
VERTEX
  8
E17LXLIFT
 62
1
 10
-472.992
 20
-906.232
 30
3625.000
 70
    32
  0
VERTEX
  8
E17LXLIFT
 62
1
 10
-471.973
 20
-898.338
 30
3625.000
 70
    32
  0
VERTEX
  8
E17LXLIFT
 62
1
 10
-474.740
 20
-889.708
 30
3625.000
 70
    32
  0
VERTEX
  8
E17LXLIFT
 62
1
 10
-479.253
 20
-879.413
 30
3625.000
 70
    32
  0
VERTEX
  8
E17LXLIFT
 62
1
 10
-485.028
 20
-869.921
 30
3625.000
 70
    32
  0
VERTEX
  8
E17LXLIFT
 62
1
 10
-488.737
 20
-862.840
 30
3625.000
 70
    32
  0
VERTEX
  8
E17LXLIFT
 62
1
 10
-495.694
 20
-857.565
 30
3625.000
 70
    32
  0
VERTEX
  8
E17LXLIFT
 62
1
 10
-500.601
 20
-853.628
 30
3625.000
 70
    32
  0
VERTEX
  8
E17LXLIFT
 62
1
 10
-493.425
 20
-848.550
 30
3625.000
 70
    32
  0
VERTEX
  8
E17LXLIFT
 62
1
 10
-486.360
 20
-843.769
 30
3625.000
 70
    32
  0
VERTEX
  8
E17LXLIFT
 62
1
 10
-478.691
 20
-835.622
 30
3625.000
 70
    32
  0
VERTEX
  8
E17LXLIFT
 62
1
 10
-468.715
 20
-834.269
 30
3625.000
 70
    32
  0
VERTEX
  8
E17LXLIFT
 62
1
 10
-457.349
 20
-832.887
 30
3625.000
 70
    32
  0
VERTEX
  8
E17LXLIFT
 62
1
 10
-446.502
 20
-830.036
 30
3625.000
 70
    32
  0
VERTEX
  8
E17LXLIFT
 62
1
 10
-439.382
 20
-837.037
 30
3625.000
 70
    32
  0
VERTEX
  8
E17LXLIFT
 62
1
 10
-435.421
 20
-841.767
 30
3625.000
 70
    32
  0
VERTEX
  8
E17LXLIFT
 62
1
 10
-431.180
 20
-845.534
 30
3625.000
 70
    32
  0
VERTEX
  8
E17LXLIFT
 62
1
 10
-431.419
 20
-850.154
 30
3625.000
 70
    32
  0
VERTEX
  8
E17LXLIFT
 62
1
 10
-438.695
 20
-851.942
 30
3625.000
 70
    32
  0
VERTEX
  8
E17LXLIFT
 62
1
 10
-442.782
 20
-861.295
 30
3625.000
 70
    32
  0
VERTEX
  8
E17LXLIFT
 62
1
 10
-446.117
 20
-867.935
 30
3625.000
 70
    32
  0
VERTEX
  8
E17LXLIFT
 62
1
 10
-444.910
 20
-875.307
 30
3625.000
 70
    32
  0
VERTEX
  8
E17LXLIFT
 62
1
 10
-442.264
 20
-880.769
 30
3625.000
 70
    32
  0
VERTEX
  8
E17LXLIFT
 62
1
 10
-434.438
 20
-887.694
 30
3625.000
 70
    32
  0
VERTEX
  8
E17LXLIFT
 62
1
 10
-426.391
 20
-895.977
 30
3625.000
 70
    32
  0
VERTEX
  8
E17LXLIFT
 62
1
 10
-421.160
 20
-908.466
 30
3625.000
 70
    32
  0
VERTEX
  8
E17LXLIFT
 62
1
 10
-418.206
 20
-921.407
 30
3625.000
 70
    32
  0
VERTEX
  8
E17LXLIFT
 62
1
 10
-414.841
 20
-932.966
 30
3625.000
 70
    32
  0
VERTEX
  8
E17LXLIFT
 62
1
 10
-412.756
 20
-938.401
 30
3625.000
 70
    32
  0
VERTEX
  8
E17LXLIFT
 62
1
 10
-416.209
 20
-947.729
 30
3625.000
 70
    32
  0
VERTEX
  8
E17LXLIFT
 62
1
 10
-416.963
 20
-953.589
 30
3625.000
 70
    32
  0
SEQEND
  8
E17LXLIFT
  0
POLYLINE
  8
E17LXLIFT
 62
1
 66
     1
 70
     9
  0
VERTEX
  8
E17LXLIFT
 62
1
 10
-385.217
 20
-652.676
 30
3603.000
 70
    32
  0
VERTEX
  8
E17LXLIFT
 62
1
 10
-373.511
 20
-665.307
 30
3603.000
 70
    32
  0
VERTEX
  8
E17LXLIFT
 62
1
 10
-363.978
 20
-677.357
 30
3603.000
 70
    32
  0
VERTEX
  8
E17LXLIFT
 62
1
 10
-356.824
 20
-686.474
 30
3603.000
 70
    32
  0
VERTEX
  8
E17LXLIFT
 62
1
 10
-352.068
 20
-692.780
 30
3603.000
 70
    32
  0
VERTEX
  8
E17LXLIFT
 62
1
 10
-358.244
 20
-698.748
 30
3603.000
 70
    32
  0
VERTEX
  8
E17LXLIFT
 62
1
 10
-366.316
 20
-702.734
 30
3603.000
 70
    32
  0
VERTEX
  8
E17LXLIFT
 62
1
 10
-352.543
 20
-732.372
 30
3603.000
 70
    32
  0
VERTEX
  8
E17LXLIFT
 62
1
 10
-348.981
 20
-746.969
 30
3603.000
 70
    32
  0
VERTEX
  8
E17LXLIFT
 62
1
 10
-343.853
 20
-757.035
 30
3603.000
 70
    32
  0
VERTEX
  8
E17LXLIFT
 62
1
 10
-334.855
 20
-763.921
 30
3603.000
 70
    32
  0
VERTEX
  8
E17LXLIFT
 62
1
 10
-329.293
 20
-776.499
 30
3603.000
 70
    32
  0
VERTEX
  8
E17LXLIFT
 62
1
 10
-322.339
 20
-784.456
 30
3603.000
 70
    32
  0
VERTEX
  8
E17LXLIFT
 62
1
 10
-320.387
 20
-786.070
 30
3603.000
 70
    32
  0
VERTEX
  8
E17LXLIFT
 62
1
 10
-331.133
 20
-792.789
 30
3603.000
 70
    32
  0
VERTEX
  8
E17LXLIFT
 62
1
 10
-336.948
 20
-783.122
 30
3603.000
 70
    32
  0
VERTEX
  8
E17LXLIFT
 62
1
 10
-344.939
 20
-775.384
 30
3603.000
 70
    32
  0
VERTEX
  8
E17LXLIFT
 62
1
 10
-352.974
 20
-768.769
 30
3603.000
 70
    32
  0
VERTEX
  8
E17LXLIFT
 62
1
 10
-357.749
 20
-754.302
 30
3603.000
 70
    32
  0
VERTEX
  8
E17LXLIFT
 62
1
 10
-362.806
 20
-740.043
 30
3603.000
 70
    32
  0
VERTEX
  8
E17LXLIFT
 62
1
 10
-367.792
 20
-725.731
 30
3603.000
 70
    32
  0
VERTEX
  8
E17LXLIFT
 62
1
 10
-372.470
 20
-714.354
 30
3603.000
 70
    32
  0
VERTEX
  8
E17LXLIFT
 62
1
 10
-380.486
 20
-705.545
 30
3603.000
 70
    32
  0
VERTEX
  8
E17LXLIFT
 62
1
 10
-383.375
 20
-698.518
 30
3603.000
 70
    32
  0
VERTEX
  8
E17LXLIFT
 62
1
 10
-380.758
 20
-689.940
 30
3603.000
 70
    32
  0
VERTEX
  8
E17LXLIFT
 62
1
 10
-382.822
 20
-678.707
 30
3603.000
 70
    32
  0
VERTEX
  8
E17LXLIFT
 62
1
 10
-387.451
 20
-667.839
 30
3603.000
 70
    32
  0
VERTEX
  8
E17LXLIFT
 62
1
 10
-392.999
 20
-659.718
 30
3603.000
 70
    32
  0
SEQEND
  8
E17LXLIFT
  0
POLYLINE
  8
E17LXLIFT
 62
1
 66
     1
 70
     9
  0
VERTEX
  8
E17LXLIFT
 62
1
 10
-233.965
 20
-1136.047
 30
3543.000
 70
    32
  0
VERTEX
  8
E17LXLIFT
 62
1
 10
-236.755
 20
-1139.244
 30
3543.000
 70
    32
  0
VERTEX
  8
E17LXLIFT
 62
1
 10
-242.465
 20
-1139.885
 30
3543.000
 70
    32
  0
VERTEX
  8
E17LXLIFT
 62
1
 10
-245.414
 20
-1134.427
 30
3543.000
 70
    32
  0
VERTEX
  8
E17LXLIFT
 62
1
 10
-247.907
 20
-1128.099
 30
3543.000
 70
    32
  0
VERTEX
  8
E17LXLIFT
 62
1
 10
-254.330
 20
-1129.253
 30
3543.000
 70
    32
  0
VERTEX
  8
E17LXLIFT
 62
1
 10
-263.505
 20
-1126.431
 30
3543.000
 70
    32
  0
VERTEX
  8
E17LXLIFT
 62
1
 10
-269.899
 20
-1117.387
 30
3543.000
 70
    32
  0
VERTEX
  8
E17LXLIFT
 62
1
 10
-272.262
 20
-1109.884
 30
3543.000
 70
    32
  0
VERTEX
  8
E17LXLIFT
 62
1
 10
-272.718
 20
-1101.118
 30
3543.000
 70
    32
  0
VERTEX
  8
E17LXLIFT
 62
1
 10
-267.393
 20
-1095.124
 30
3543.000
 70
    32
  0
VERTEX
  8
E17LXLIFT
 62
1
 10
-262.073
 20
-1090.325
 30
3543.000
 70
    32
  0
VERTEX
  8
E17LXLIFT
 62
1
 10
-254.628
 20
-1089.086
 30
3543.000
 70
    32
  0
VERTEX
  8
E17LXLIFT
 62
1
 10
-249.660
 20
-1092.985
 30
3543.000
 70
    32
  0
VERTEX
  8
E17LXLIFT
 62
1
 10
-245.007
 20
-1097.650
 30
3543.000
 70
    32
  0
VERTEX
  8
E17LXLIFT
 62
1
 10
-240.879
 20
-1094.357
 30
3543.000
 70
    32
  0
VERTEX
  8
E17LXLIFT
 62
1
 10
-238.637
 20
-1095.669
 30
3543.000
 70
    32
  0
VERTEX
  8
E17LXLIFT
 62
1
 10
-233.954
 20
-1103.236
 30
3543.000
 70
    32
  0
VERTEX
  8
E17LXLIFT
 62
1
 10
-236.556
 20
-1107.597
 30
3543.000
 70
    32
  0
VERTEX
  8
E17LXLIFT
 62
1
 10
-240.838
 20
-1114.140
 30
3543.000
 70
    32
  0
VERTEX
  8
E17LXLIFT
 62
1
 10
-236.971
 20
-1122.078
 30
3543.000
 70
    32
  0
VERTEX
  8
E17LXLIFT
 62
1
 10
-226.860
 20
-1127.258
 30
3543.000
 70
    32
  0
SEQEND
  8
E17LXLIFT
  0
POLYLINE
  8
E17LXLIFT
 62
1
 66
     1
 70
     9
  0
VERTEX
  8
E17LXLIFT
 62
1
 10
-111.116
 20
-1324.265
 30
3617.000
 70
    32
  0
VERTEX
  8
E17LXLIFT
 62
1
 10
-106.979
 20
-1320.819
 30
3617.000
 70
    32
  0
VERTEX
  8
E17LXLIFT
 62
1
 10
-115.037
 20
-1312.739
 30
3617.000
 70
    32
  0
VERTEX
  8
E17LXLIFT
 62
1
 10
-104.995
 20
-1306.630
 30
3617.000
 70
    32
  0
VERTEX
  8
E17LXLIFT
 62
1
 10
-97.289
 20
-1304.944
 30
3617.000
 70
    32
  0
VERTEX
  8
E17LXLIFT
 62
1
 10
-90.928
 20
-1310.991
 30
3617.000
 70
    32
  0
VERTEX
  8
E17LXLIFT
 62
1
 10
-84.147
 20
-1312.375
 30
3617.000
 70
    32
  0
VERTEX
  8
E17LXLIFT
 62
1
 10
-80.861
 20
-1323.927
 30
3617.000
 70
    32
  0
VERTEX
  8
E17LXLIFT
 62
1
 10
-76.922
 20
-1330.538
 30
3617.000
 70
    32
  0
VERTEX
  8
E17LXLIFT
 62
1
 10
-77.139
 20
-1344.312
 30
3617.000
 70
    32
  0
VERTEX
  8
E17LXLIFT
 62
1
 10
-79.546
 20
-1352.382
 30
3617.000
 70
    32
  0
VERTEX
  8
E17LXLIFT
 62
1
 10
-73.061
 20
-1360.844
 30
3617.000
 70
    32
  0
VERTEX
  8
E17LXLIFT
 62
1
 10
-66.862
 20
-1369.514
 30
3617.000
 70
    32
  0
VERTEX
  8
E17LXLIFT
 62
1
 10
-59.621
 20
-1373.177
 30
3617.000
 70
    32
  0
VERTEX
  8
E17LXLIFT
 62
1
 10
-52.321
 20
-1377.669
 30
3617.000
 70
    32
  0
VERTEX
  8
E17LXLIFT
 62
1
 10
-58.575
 20
-1383.745
 30
3617.000
 70
    32
  0
VERTEX
  8
E17LXLIFT
 62
1
 10
-62.951
 20
-1390.307
 30
3617.000
 70
    32
  0
VERTEX
  8
E17LXLIFT
 62
1
 10
-69.900
 20
-1389.590
 30
3617.000
 70
    32
  0
VERTEX
  8
E17LXLIFT
 62
1
 10
-79.155
 20
-1383.906
 30
3617.000
 70
    32
  0
VERTEX
  8
E17LXLIFT
 62
1
 10
-89.565
 20
-1373.943
 30
3617.000
 70
    32
  0
VERTEX
  8
E17LXLIFT
 62
1
 10
-97.293
 20
-1362.573
 30
3617.000
 70
    32
  0
VERTEX
  8
E17LXLIFT
 62
1
 10
-101.881
 20
-1352.077
 30
3617.000
 70
    32
  0
VERTEX
  8
E17LXLIFT
 62
1
 10
-103.309
 20
-1339.935
 30
3617.000
 70
    32
  0
SEQEND
  8
E17LXLIFT
  0
POLYLINE
  8
E17LXLIFT
 62
1
 66
     1
 70
     9
  0
VERTEX
  8
E17LXLIFT
 62
1
 10
-67.122
 20
-1355.154
 30
3563.000
 70
    32
  0
VERTEX
  8
E17LXLIFT
 62
1
 10
-67.196
 20
-1347.733
 30
3563.000
 70
    32
  0
VERTEX
  8
E17LXLIFT
 62
1
 10
-69.734
 20
-1337.659
 30
3563.000
 70
    32
  0
VERTEX
  8
E17LXLIFT
 62
1
 10
-73.549
 20
-1327.318
 30
3563.000
 70
    32
  0
VERTEX
  8
E17LXLIFT
 62
1
 10
-64.011
 20
-1325.385
 30
3563.000
 70
    32
  0
VERTEX
  8
E17LXLIFT
 62
1
 10
-59.579
 20
-1332.244
 30
3563.000
 70
    32
  0
VERTEX
  8
E17LXLIFT
 62
1
 10
-51.156
 20
-1335.345
 30
3563.000
 70
    32
  0
VERTEX
  8
E17LXLIFT
 62
1
 10
-46.570
 20
-1338.085
 30
3563.000
 70
    32
  0
VERTEX
  8
E17LXLIFT
 62
1
 10
-41.280
 20
-1345.081
 30
3563.000
 70
    32
  0
VERTEX
  8
E17LXLIFT
 62
1
 10
-41.746
 20
-1355.493
 30
3563.000
 70
    32
  0
VERTEX
  8
E17LXLIFT
 62
1
 10
-42.221
 20
-1367.536
 30
3563.000
 70
    32
  0
VERTEX
  8
E17LXLIFT
 62
1
 10
-45.421
 20
-1377.763
 30
3563.000
 70
    32
  0
VERTEX
  8
E17LXLIFT
 62
1
 10
-43.715
 20
-1384.000
 30
3563.000
 70
    32
  0
VERTEX
  8
E17LXLIFT
 62
1
 10
-39.519
 20
-1393.522
 30
3563.000
 70
    32
  0
VERTEX
  8
E17LXLIFT
 62
1
 10
-36.972
 20
-1407.491
 30
3563.000
 70
    32
  0
VERTEX
  8
E17LXLIFT
 62
1
 10
-45.792
 20
-1411.611
 30
3563.000
 70
    32
  0
VERTEX
  8
E17LXLIFT
 62
1
 10
-52.648
 20
-1413.658
 30
3563.000
 70
    32
  0
VERTEX
  8
E17LXLIFT
 62
1
 10
-56.069
 20
-1402.815
 30
3563.000
 70
    32
  0
VERTEX
  8
E17LXLIFT
 62
1
 10
-58.594
 20
-1387.531
 30
3563.000
 70
    32
  0
VERTEX
  8
E17LXLIFT
 62
1
 10
-63.312
 20
-1377.738
 30
3563.000
 70
    32
  0
SEQEND
  8
E17LXLIFT
  0
POLYLINE
  8
E17LXLIFT
 62
6
 66
     1
 70
     9
  0
VERTEX
  8
E17LXLIFT
 62
6
 10
-2547.299
 20
766.955
 30
3517.000
 70
    32
  0
VERTEX
  8
E17LXLIFT
 62
6
 10
-2556.131
 20
770.254
 30
3517.000
 70
    32
  0
VERTEX
  8
E17LXLIFT
 62
6
 10
-2566.036
 20
774.299
 30
3517.000
 70
    32
  0
VERTEX
  8
E17LXLIFT
 62
6
 10
-2565.556
 20
779.823
 30
3517.000
 70
    32
  0
VERTEX
  8
E17LXLIFT
 62
6
 10
-2566.832
 20
787.656
 30
3517.000
 70
    32
  0
VERTEX
  8
E17LXLIFT
 62
6
 10
-2575.327
 20
794.866
 30
3517.000
 70
    32
  0
VERTEX
  8
E17LXLIFT
 62
6
 10
-2584.568
 20
801.004
 30
3517.000
 70
    32
  0
VERTEX
  8
E17LXLIFT
 62
6
 10
-2594.708
 20
807.795
 30
3517.000
 70
    32
  0
VERTEX
  8
E17LXLIFT
 62
6
 10
-2603.111
 20
812.156
 30
3517.000
 70
    32
  0
VERTEX
  8
E17LXLIFT
 62
6
 10
-2606.726
 20
821.449
 30
3517.000
 70
    32
  0
VERTEX
  8
E17LXLIFT
 62
6
 10
-2612.628
 20
826.086
 30
3517.000
 70
    32
  0
VERTEX
  8
E17LXLIFT
 62
6
 10
-2620.081
 20
832.744
 30
3517.000
 70
    32
  0
VERTEX
  8
E17LXLIFT
 62
6
 10
-2624.758
 20
838.688
 30
3517.000
 70
    32
  0
VERTEX
  8
E17LXLIFT
 62
6
 10
-2624.829
 20
848.460
 30
3517.000
 70
    32
  0
VERTEX
  8
E17LXLIFT
 62
6
 10
-2626.973
 20
852.218
 30
3517.000
 70
    32
  0
VERTEX
  8
E17LXLIFT
 62
6
 10
-2630.526
 20
859.612
 30
3517.000
 70
    32
  0
VERTEX
  8
E17LXLIFT
 62
6
 10
-2630.862
 20
870.058
 30
3517.000
 70
    32
  0
VERTEX
  8
E17LXLIFT
 62
6
 10
-2630.800
 20
877.982
 30
3517.000
 70
    32
  0
VERTEX
  8
E17LXLIFT
 62
6
 10
-2634.384
 20
882.547
 30
3517.000
 70
    32
  0
VERTEX
  8
E17LXLIFT
 62
6
 10
-2639.714
 20
891.370
 30
3517.000
 70
    32
  0
VERTEX
  8
E17LXLIFT
 62
6
 10
-2647.872
 20
903.247
 30
3517.000
 70
    32
  0
VERTEX
  8
E17LXLIFT
 62
6
 10
-2657.439
 20
913.470
 30
3517.000
 70
    32
  0
VERTEX
  8
E17LXLIFT
 62
6
 10
-2655.519
 20
918.187
 30
3517.000
 70
    32
  0
VERTEX
  8
E17LXLIFT
 62
6
 10
-2651.423
 20
926.509
 30
3517.000
 70
    32
  0
VERTEX
  8
E17LXLIFT
 62
6
 10
-2647.819
 20
925.090
 30
3517.000
 70
    32
  0
VERTEX
  8
E17LXLIFT
 62
6
 10
-2638.690
 20
922.434
 30
3517.000
 70
    32
  0
VERTEX
  8
E17LXLIFT
 62
6
 10
-2636.781
 20
917.645
 30
3517.000
 70
    32
  0
VERTEX
  8
E17LXLIFT
 62
6
 10
-2632.584
 20
912.222
 30
3517.000
 70
    32
  0
VERTEX
  8
E17LXLIFT
 62
6
 10
-2626.386
 20
905.206
 30
3517.000
 70
    32
  0
VERTEX
  8
E17LXLIFT
 62
6
 10
-2619.810
 20
903.102
 30
3517.000
 70
    32
  0
VERTEX
  8
E17LXLIFT
 62
6
 10
-2608.435
 20
897.301
 30
3517.000
 70
    32
  0
VERTEX
  8
E17LXLIFT
 62
6
 10
-2594.323
 20
891.295
 30
3517.000
 70
    32
  0
VERTEX
  8
E17LXLIFT
 62
6
 10
-2578.751
 20
884.605
 30
3517.000
 70
    32
  0
VERTEX
  8
E17LXLIFT
 62
6
 10
-2572.787
 20
890.160
 30
3517.000
 70
    32
  0
VERTEX
  8
E17LXLIFT
 62
6
 10
-2566.670
 20
886.432
 30
3517.000
 70
    32
  0
VERTEX
  8
E17LXLIFT
 62
6
 10
-2557.195
 20
882.081
 30
3517.000
 70
    32
  0
VERTEX
  8
E17LXLIFT
 62
6
 10
-2547.259
 20
879.354
 30
3517.000
 70
    32
  0
VERTEX
  8
E17LXLIFT
 62
6
 10
-2539.733
 20
879.547
 30
3517.000
 70
    32
  0
VERTEX
  8
E17LXLIFT
 62
6
 10
-2534.955
 20
871.950
 30
3517.000
 70
    32
  0
VERTEX
  8
E17LXLIFT
 62
6
 10
-2530.299
 20
862.861
 30
3517.000
 70
    32
  0
VERTEX
  8
E17LXLIFT
 62
6
 10
-2523.162
 20
854.681
 30
3517.000
 70
    32
  0
VERTEX
  8
E17LXLIFT
 62
6
 10
-2516.218
 20
853.271
 30
3517.000
 70
    32
  0
VERTEX
  8
E17LXLIFT
 62
6
 10
-2513.308
 20
847.685
 30
3517.000
 70
    32
  0
VERTEX
  8
E17LXLIFT
 62
6
 10
-2512.379
 20
837.770
 30
3517.000
 70
    32
  0
VERTEX
  8
E17LXLIFT
 62
6
 10
-2517.955
 20
833.032
 30
3517.000
 70
    32
  0
VERTEX
  8
E17LXLIFT
 62
6
 10
-2520.764
 20
827.140
 30
3517.000
 70
    32
  0
VERTEX
  8
E17LXLIFT
 62
6
 10
-2523.910
 20
818.848
 30
3517.000
 70
    32
  0
VERTEX
  8
E17LXLIFT
 62
6
 10
-2519.152
 20
815.662
 30
3517.000
 70
    32
  0
VERTEX
  8
E17LXLIFT
 62
6
 10
-2513.352
 20
814.191
 30
3517.000
 70
    32
  0
VERTEX
  8
E17LXLIFT
 62
6
 10
-2508.910
 20
811.750
 30
3517.000
 70
    32
  0
VERTEX
  8
E17LXLIFT
 62
6
 10
-2509.686
 20
804.071
 30
3517.000
 70
    32
  0
VERTEX
  8
E17LXLIFT
 62
6
 10
-2514.476
 20
799.139
 30
3517.000
 70
    32
  0
VERTEX
  8
E17LXLIFT
 62
6
 10
-2520.767
 20
795.402
 30
3517.000
 70
    32
  0
VERTEX
  8
E17LXLIFT
 62
6
 10
-2521.553
 20
790.307
 30
3517.000
 70
    32
  0
VERTEX
  8
E17LXLIFT
 62
6
 10
-2519.614
 20
785.323
 30
3517.000
 70
    32
  0
VERTEX
  8
E17LXLIFT
 62
6
 10
-2524.219
 20
780.739
 30
3517.000
 70
    32
  0
VERTEX
  8
E17LXLIFT
 62
6
 10
-2529.846
 20
778.340
 30
3517.000
 70
    32
  0
VERTEX
  8
E17LXLIFT
 62
6
 10
-2533.084
 20
770.630
 30
3517.000
 70
    32
  0
VERTEX
  8
E17LXLIFT
 62
6
 10
-2535.045
 20
763.400
 30
3517.000
 70
    32
  0
SEQEND
  8
E17LXLIFT
  0
POLYLINE
  8
E17LXLIFT
 62
6
 66
     1
 70
     9
  0
VERTEX
  8
E17LXLIFT
 62
6
 10
-2532.254
 20
774.040
 30
3533.000
 70
    32
  0
VERTEX
  8
E17LXLIFT
 62
6
 10
-2527.450
 20
780.025
 30
3533.000
 70
    32
  0
VERTEX
  8
E17LXLIFT
 62
6
 10
-2525.566
 20
788.463
 30
3533.000
 70
    32
  0
VERTEX
  8
E17LXLIFT
 62
6
 10
-2524.239
 20
795.862
 30
3533.000
 70
    32
  0
VERTEX
  8
E17LXLIFT
 62
6
 10
-2521.612
 20
801.274
 30
3533.000
 70
    32
  0
VERTEX
  8
E17LXLIFT
 62
6
 10
-2518.140
 20
808.684
 30
3533.000
 70
    32
  0
VERTEX
  8
E17LXLIFT
 62
6
 10
-2518.716
 20
815.273
 30
3533.000
 70
    32
  0
VERTEX
  8
E17LXLIFT
 62
6
 10
-2516.432
 20
821.626
 30
3533.000
 70
    32
  0
VERTEX
  8
E17LXLIFT
 62
6
 10
-2514.740
 20
830.790
 30
3533.000
 70
    32
  0
VERTEX
  8
E17LXLIFT
 62
6
 10
-2516.642
 20
835.148
 30
3533.000
 70
    32
  0
VERTEX
  8
E17LXLIFT
 62
6
 10
-2521.519
 20
838.692
 30
3533.000
 70
    32
  0
VERTEX
  8
E17LXLIFT
 62
6
 10
-2527.388
 20
841.963
 30
3533.000
 70
    32
  0
VERTEX
  8
E17LXLIFT
 62
6
 10
-2533.363
 20
839.455
 30
3533.000
 70
    32
  0
VERTEX
  8
E17LXLIFT
 62
6
 10
-2536.139
 20
832.431
 30
3533.000
 70
    32
  0
VERTEX
  8
E17LXLIFT
 62
6
 10
-2536.564
 20
823.302
 30
3533.000
 70
    32
  0
VERTEX
  8
E17LXLIFT
 62
6
 10
-2536.653
 20
814.306
 30
3533.000
 70
    32
  0
VERTEX
  8
E17LXLIFT
 62
6
 10
-2538.329
 20
808.920
 30
3533.000
 70
    32
  0
VERTEX
  8
E17LXLIFT
 62
6
 10
-2541.182
 20
805.501
 30
3533.000
 70
    32
  0
VERTEX
  8
E17LXLIFT
 62
6
 10
-2546.545
 20
815.051
 30
3533.000
 70
    32
  0
VERTEX
  8
E17LXLIFT
 62
6
 10
-2551.108
 20
823.015
 30
3533.000
 70
    32
  0
VERTEX
  8
E17LXLIFT
 62
6
 10
-2556.477
 20
831.054
 30
3533.000
 70
    32
  0
VERTEX
  8
E17LXLIFT
 62
6
 10
-2557.975
 20
839.251
 30
3533.000
 70
    32
  0
VERTEX
  8
E17LXLIFT
 62
6
 10
-2564.672
 20
842.475
 30
3533.000
 70
    32
  0
VERTEX
  8
E17LXLIFT
 62
6
 10
-2574.080
 20
846.793
 30
3533.000
 70
    32
  0
VERTEX
  8
E17LXLIFT
 62
6
 10
-2582.672
 20
853.303
 30
3533.000
 70
    32
  0
VERTEX
  8
E17LXLIFT
 62
6
 10
-2589.908
 20
861.850
 30
3533.000
 70
    32
  0
VERTEX
  8
E17LXLIFT
 62
6
 10
-2597.951
 20
867.888
 30
3533.000
 70
    32
  0
VERTEX
  8
E17LXLIFT
 62
6
 10
-2606.918
 20
870.366
 30
3533.000
 70
    32
  0
VERTEX
  8
E17LXLIFT
 62
6
 10
-2612.443
 20
872.696
 30
3533.000
 70
    32
  0
VERTEX
  8
E17LXLIFT
 62
6
 10
-2615.958
 20
877.204
 30
3533.000
 70
    32
  0
VERTEX
  8
E17LXLIFT
 62
6
 10
-2623.805
 20
876.277
 30
3533.000
 70
    32
  0
VERTEX
  8
E17LXLIFT
 62
6
 10
-2629.269
 20
871.224
 30
3533.000
 70
    32
  0
VERTEX
  8
E17LXLIFT
 62
6
 10
-2629.924
 20
865.916
 30
3533.000
 70
    32
  0
VERTEX
  8
E17LXLIFT
 62
6
 10
-2627.565
 20
860.912
 30
3533.000
 70
    32
  0
VERTEX
  8
E17LXLIFT
 62
6
 10
-2627.576
 20
853.478
 30
3533.000
 70
    32
  0
VERTEX
  8
E17LXLIFT
 62
6
 10
-2623.491
 20
843.453
 30
3533.000
 70
    32
  0
VERTEX
  8
E17LXLIFT
 62
6
 10
-2617.339
 20
834.461
 30
3533.000
 70
    32
  0
VERTEX
  8
E17LXLIFT
 62
6
 10
-2609.948
 20
826.454
 30
3533.000
 70
    32
  0
VERTEX
  8
E17LXLIFT
 62
6
 10
-2604.274
 20
820.569
 30
3533.000
 70
    32
  0
VERTEX
  8
E17LXLIFT
 62
6
 10
-2596.169
 20
812.315
 30
3533.000
 70
    32
  0
VERTEX
  8
E17LXLIFT
 62
6
 10
-2587.989
 20
802.283
 30
3533.000
 70
    32
  0
VERTEX
  8
E17LXLIFT
 62
6
 10
-2583.970
 20
796.302
 30
3533.000
 70
    32
  0
VERTEX
  8
E17LXLIFT
 62
6
 10
-2572.259
 20
790.709
 30
3533.000
 70
    32
  0
VERTEX
  8
E17LXLIFT
 62
6
 10
-2566.247
 20
784.955
 30
3533.000
 70
    32
  0
VERTEX
  8
E17LXLIFT
 62
6
 10
-2561.081
 20
777.203
 30
3533.000
 70
    32
  0
VERTEX
  8
E17LXLIFT
 62
6
 10
-2553.937
 20
771.066
 30
3533.000
 70
    32
  0
VERTEX
  8
E17LXLIFT
 62
6
 10
-2546.796
 20
766.758
 30
3533.000
 70
    32
  0
VERTEX
  8
E17LXLIFT
 62
6
 10
-2543.983
 20
762.937
 30
3533.000
 70
    32
  0
SEQEND
  8
E17LXLIFT
  0
POLYLINE
  8
E17LXLIFT
 62
7
 66
     1
 70
     9
  0
VERTEX
  8
E17LXLIFT
 62
7
 10
-2610.757
 20
970.035
 30
3635.000
 70
    32
  0
VERTEX
  8
E17LXLIFT
 62
7
 10
-2614.412
 20
972.382
 30
3635.000
 70
    32
  0
VERTEX
  8
E17LXLIFT
 62
7
 10
-2621.268
 20
970.456
 30
3635.000
 70
    32
  0
VERTEX
  8
E17LXLIFT
 62
7
 10
-2624.673
 20
964.515
 30
3635.000
 70
    32
  0
VERTEX
  8
E17LXLIFT
 62
7
 10
-2632.600
 20
963.767
 30
3635.000
 70
    32
  0
VERTEX
  8
E17LXLIFT
 62
7
 10
-2640.955
 20
965.857
 30
3635.000
 70
    32
  0
VERTEX
  8
E17LXLIFT
 62
7
 10
-2648.258
 20
963.498
 30
3635.000
 70
    32
  0
VERTEX
  8
E17LXLIFT
 62
7
 10
-2655.830
 20
963.008
 30
3635.000
 70
    32
  0
VERTEX
  8
E17LXLIFT
 62
7
 10
-2661.663
 20
968.663
 30
3635.000
 70
    32
  0
VERTEX
  8
E17LXLIFT
 62
7
 10
-2663.622
 20
975.713
 30
3635.000
 70
    32
  0
VERTEX
  8
E17LXLIFT
 62
7
 10
-2665.553
 20
983.325
 30
3635.000
 70
    32
  0
VERTEX
  8
E17LXLIFT
 62
7
 10
-2668.215
 20
991.495
 30
3635.000
 70
    32
  0
VERTEX
  8
E17LXLIFT
 62
7
 10
-2675.742
 20
993.643
 30
3635.000
 70
    32
  0
VERTEX
  8
E17LXLIFT
 62
7
 10
-2686.321
 20
992.059
 30
3635.000
 70
    32
  0
VERTEX
  8
E17LXLIFT
 62
7
 10
-2695.947
 20
988.560
 30
3635.000
 70
    32
  0
VERTEX
  8
E17LXLIFT
 62
7
 10
-2704.561
 20
983.514
 30
3635.000
 70
    32
  0
VERTEX
  8
E17LXLIFT
 62
7
 10
-2713.309
 20
983.149
 30
3635.000
 70
    32
  0
VERTEX
  8
E17LXLIFT
 62
7
 10
-2720.904
 20
983.293
 30
3635.000
 70
    32
  0
VERTEX
  8
E17LXLIFT
 62
7
 10
-2728.749
 20
985.428
 30
3635.000
 70
    32
  0
VERTEX
  8
E17LXLIFT
 62
7
 10
-2734.349
 20
991.360
 30
3635.000
 70
    32
  0
VERTEX
  8
E17LXLIFT
 62
7
 10
-2732.769
 20
999.671
 30
3635.000
 70
    32
  0
VERTEX
  8
E17LXLIFT
 62
7
 10
-2728.793
 20
1010.369
 30
3635.000
 70
    32
  0
VERTEX
  8
E17LXLIFT
 62
7
 10
-2726.166
 20
1018.134
 30
3635.000
 70
    32
  0
VERTEX
  8
E17LXLIFT
 62
7
 10
-2720.326
 20
1026.709
 30
3635.000
 70
    32
  0
VERTEX
  8
E17LXLIFT
 62
7
 10
-2715.255
 20
1031.250
 30
3635.000
 70
    32
  0
VERTEX
  8
E17LXLIFT
 62
7
 10
-2708.343
 20
1032.349
 30
3635.000
 70
    32
  0
VERTEX
  8
E17LXLIFT
 62
7
 10
-2704.753
 20
1036.687
 30
3635.000
 70
    32
  0
VERTEX
  8
E17LXLIFT
 62
7
 10
-2701.974
 20
1043.043
 30
3635.000
 70
    32
  0
VERTEX
  8
E17LXLIFT
 62
7
 10
-2698.330
 20
1042.209
 30
3635.000
 70
    32
  0
VERTEX
  8
E17LXLIFT
 62
7
 10
-2690.648
 20
1039.848
 30
3635.000
 70
    32
  0
VERTEX
  8
E17LXLIFT
 62
7
 10
-2690.934
 20
1035.297
 30
3635.000
 70
    32
  0
VERTEX
  8
E17LXLIFT
 62
7
 10
-2692.223
 20
1030.781
 30
3635.000
 70
    32
  0
VERTEX
  8
E17LXLIFT
 62
7
 10
-2687.862
 20
1025.362
 30
3635.000
 70
    32
  0
VERTEX
  8
E17LXLIFT
 62
7
 10
-2688.407
 20
1021.167
 30
3635.000
 70
    32
  0
VERTEX
  8
E17LXLIFT
 62
7
 10
-2693.917
 20
1016.633
 30
3635.000
 70
    32
  0
VERTEX
  8
E17LXLIFT
 62
7
 10
-2700.215
 20
1012.287
 30
3635.000
 70
    32
  0
VERTEX
  8
E17LXLIFT
 62
7
 10
-2700.342
 20
1006.767
 30
3635.000
 70
    32
  0
VERTEX
  8
E17LXLIFT
 62
7
 10
-2696.508
 20
1006.721
 30
3635.000
 70
    32
  0
VERTEX
  8
E17LXLIFT
 62
7
 10
-2690.977
 20
1005.081
 30
3635.000
 70
    32
  0
VERTEX
  8
E17LXLIFT
 62
7
 10
-2681.835
 20
1005.950
 30
3635.000
 70
    32
  0
VERTEX
  8
E17LXLIFT
 62
7
 10
-2676.047
 20
1010.251
 30
3635.000
 70
    32
  0
VERTEX
  8
E17LXLIFT
 62
7
 10
-2673.617
 20
1016.789
 30
3635.000
 70
    32
  0
VERTEX
  8
E17LXLIFT
 62
7
 10
-2672.278
 20
1024.382
 30
3635.000
 70
    32
  0
VERTEX
  8
E17LXLIFT
 62
7
 10
-2666.621
 20
1028.264
 30
3635.000
 70
    32
  0
VERTEX
  8
E17LXLIFT
 62
7
 10
-2661.269
 20
1024.323
 30
3635.000
 70
    32
  0
VERTEX
  8
E17LXLIFT
 62
7
 10
-2655.502
 20
1021.009
 30
3635.000
 70
    32
  0
VERTEX
  8
E17LXLIFT
 62
7
 10
-2651.730
 20
1022.547
 30
3635.000
 70
    32
  0
VERTEX
  8
E17LXLIFT
 62
7
 10
-2648.643
 20
1020.983
 30
3635.000
 70
    32
  0
VERTEX
  8
E17LXLIFT
 62
7
 10
-2644.291
 20
1021.421
 30
3635.000
 70
    32
  0
VERTEX
  8
E17LXLIFT
 62
7
 10
-2643.033
 20
1027.328
 30
3635.000
 70
    32
  0
VERTEX
  8
E17LXLIFT
 62
7
 10
-2636.987
 20
1031.273
 30
3635.000
 70
    32
  0
VERTEX
  8
E17LXLIFT
 62
7
 10
-2631.270
 20
1029.226
 30
3635.000
 70
    32
  0
VERTEX
  8
E17LXLIFT
 62
7
 10
-2627.614
 20
1020.582
 30
3635.000
 70
    32
  0
VERTEX
  8
E17LXLIFT
 62
7
 10
-2621.424
 20
1015.185
 30
3635.000
 70
    32
  0
VERTEX
  8
E17LXLIFT
 62
7
 10
-2613.303
 20
1015.965
 30
3635.000
 70
    32
  0
VERTEX
  8
E17LXLIFT
 62
7
 10
-2603.902
 20
1016.478
 30
3635.000
 70
    32
  0
VERTEX
  8
E17LXLIFT
 62
7
 10
-2594.781
 20
1012.880
 30
3635.000
 70
    32
  0
VERTEX
  8
E17LXLIFT
 62
7
 10
-2590.359
 20
1005.877
 30
3635.000
 70
    32
  0
VERTEX
  8
E17LXLIFT
 62
7
 10
-2588.023
 20
1000.403
 30
3635.000
 70
    32
  0
VERTEX
  8
E17LXLIFT
 62
7
 10
-2592.061
 20
994.437
 30
3635.000
 70
    32
  0
VERTEX
  8
E17LXLIFT
 62
7
 10
-2592.777
 20
988.381
 30
3635.000
 70
    32
  0
VERTEX
  8
E17LXLIFT
 62
7
 10
-2594.549
 20
981.234
 30
3635.000
 70
    32
  0
VERTEX
  8
E17LXLIFT
 62
7
 10
-2601.317
 20
978.286
 30
3635.000
 70
    32
  0
SEQEND
  8
E17LXLIFT
  0
POLYLINE
  8
E17LXLIFT
 62
7
 66
     1
 70
     9
  0
VERTEX
  8
E17LXLIFT
 62
7
 10
-2641.176
 20
963.106
 30
3671.000
 70
    32
  0
VERTEX
  8
E17LXLIFT
 62
7
 10
-2633.405
 20
971.239
 30
3671.000
 70
    32
  0
VERTEX
  8
E17LXLIFT
 62
7
 10
-2624.521
 20
969.267
 30
3671.000
 70
    32
  0
VERTEX
  8
E17LXLIFT
 62
7
 10
-2616.420
 20
970.432
 30
3671.000
 70
    32
  0
VERTEX
  8
E17LXLIFT
 62
7
 10
-2605.540
 20
971.680
 30
3671.000
 70
    32
  0
VERTEX
  8
E17LXLIFT
 62
7
 10
-2596.668
 20
972.540
 30
3671.000
 70
    32
  0
VERTEX
  8
E17LXLIFT
 62
7
 10
-2589.980
 20
975.177
 30
3671.000
 70
    32
  0
VERTEX
  8
E17LXLIFT
 62
7
 10
-2587.023
 20
981.837
 30
3671.000
 70
    32
  0
VERTEX
  8
E17LXLIFT
 62
7
 10
-2583.728
 20
991.150
 30
3671.000
 70
    32
  0
VERTEX
  8
E17LXLIFT
 62
7
 10
-2577.761
 20
998.172
 30
3671.000
 70
    32
  0
VERTEX
  8
E17LXLIFT
 62
7
 10
-2571.744
 20
1002.608
 30
3671.000
 70
    32
  0
VERTEX
  8
E17LXLIFT
 62
7
 10
-2573.065
 20
1008.846
 30
3671.000
 70
    32
  0
VERTEX
  8
E17LXLIFT
 62
7
 10
-2576.689
 20
1015.243
 30
3671.000
 70
    32
  0
VERTEX
  8
E17LXLIFT
 62
7
 10
-2584.246
 20
1013.932
 30
3671.000
 70
    32
  0
VERTEX
  8
E17LXLIFT
 62
7
 10
-2593.437
 20
1010.542
 30
3671.000
 70
    32
  0
VERTEX
  8
E17LXLIFT
 62
7
 10
-2601.020
 20
1008.230
 30
3671.000
 70
    32
  0
VERTEX
  8
E17LXLIFT
 62
7
 10
-2606.166
 20
1009.134
 30
3671.000
 70
    32
  0
VERTEX
  8
E17LXLIFT
 62
7
 10
-2609.226
 20
1009.282
 30
3671.000
 70
    32
  0
VERTEX
  8
E17LXLIFT
 62
7
 10
-2616.815
 20
1006.090
 30
3671.000
 70
    32
  0
VERTEX
  8
E17LXLIFT
 62
7
 10
-2622.339
 20
1010.321
 30
3671.000
 70
    32
  0
VERTEX
  8
E17LXLIFT
 62
7
 10
-2626.786
 20
1015.018
 30
3671.000
 70
    32
  0
VERTEX
  8
E17LXLIFT
 62
7
 10
-2631.412
 20
1021.441
 30
3671.000
 70
    32
  0
VERTEX
  8
E17LXLIFT
 62
7
 10
-2637.688
 20
1024.025
 30
3671.000
 70
    32
  0
VERTEX
  8
E17LXLIFT
 62
7
 10
-2644.389
 20
1026.296
 30
3671.000
 70
    32
  0
VERTEX
  8
E17LXLIFT
 62
7
 10
-2649.898
 20
1032.287
 30
3671.000
 70
    32
  0
VERTEX
  8
E17LXLIFT
 62
7
 10
-2654.420
 20
1038.568
 30
3671.000
 70
    32
  0
VERTEX
  8
E17LXLIFT
 62
7
 10
-2659.183
 20
1041.175
 30
3671.000
 70
    32
  0
VERTEX
  8
E17LXLIFT
 62
7
 10
-2663.066
 20
1041.699
 30
3671.000
 70
    32
  0
VERTEX
  8
E17LXLIFT
 62
7
 10
-2669.463
 20
1038.075
 30
3671.000
 70
    32
  0
VERTEX
  8
E17LXLIFT
 62
7
 10
-2677.496
 20
1034.447
 30
3671.000
 70
    32
  0
VERTEX
  8
E17LXLIFT
 62
7
 10
-2683.450
 20
1031.259
 30
3671.000
 70
    32
  0
VERTEX
  8
E17LXLIFT
 62
7
 10
-2691.194
 20
1034.945
 30
3671.000
 70
    32
  0
VERTEX
  8
E17LXLIFT
 62
7
 10
-2702.670
 20
1040.580
 30
3671.000
 70
    32
  0
VERTEX
  8
E17LXLIFT
 62
7
 10
-2712.279
 20
1048.573
 30
3671.000
 70
    32
  0
VERTEX
  8
E17LXLIFT
 62
7
 10
-2718.183
 20
1042.799
 30
3671.000
 70
    32
  0
VERTEX
  8
E17LXLIFT
 62
7
 10
-2724.337
 20
1036.623
 30
3671.000
 70
    32
  0
VERTEX
  8
E17LXLIFT
 62
7
 10
-2725.728
 20
1027.840
 30
3671.000
 70
    32
  0
VERTEX
  8
E17LXLIFT
 62
7
 10
-2728.192
 20
1019.030
 30
3671.000
 70
    32
  0
VERTEX
  8
E17LXLIFT
 62
7
 10
-2727.518
 20
1008.928
 30
3671.000
 70
    32
  0
VERTEX
  8
E17LXLIFT
 62
7
 10
-2718.239
 20
1007.902
 30
3671.000
 70
    32
  0
VERTEX
  8
E17LXLIFT
 62
7
 10
-2709.295
 20
1004.663
 30
3671.000
 70
    32
  0
VERTEX
  8
E17LXLIFT
 62
7
 10
-2702.702
 20
1000.019
 30
3671.000
 70
    32
  0
VERTEX
  8
E17LXLIFT
 62
7
 10
-2697.453
 20
992.307
 30
3671.000
 70
    32
  0
VERTEX
  8
E17LXLIFT
 62
7
 10
-2690.796
 20
988.910
 30
3671.000
 70
    32
  0
VERTEX
  8
E17LXLIFT
 62
7
 10
-2684.434
 20
986.062
 30
3671.000
 70
    32
  0
VERTEX
  8
E17LXLIFT
 62
7
 10
-2686.810
 20
979.503
 30
3671.000
 70
    32
  0
VERTEX
  8
E17LXLIFT
 62
7
 10
-2687.692
 20
974.919
 30
3671.000
 70
    32
  0
VERTEX
  8
E17LXLIFT
 62
7
 10
-2678.162
 20
972.220
 30
3671.000
 70
    32
  0
VERTEX
  8
E17LXLIFT
 62
7
 10
-2672.177
 20
970.624
 30
3671.000
 70
    32
  0
VERTEX
  8
E17LXLIFT
 62
7
 10
-2670.808
 20
963.876
 30
3671.000
 70
    32
  0
VERTEX
  8
E17LXLIFT
 62
7
 10
-2668.523
 20
961.518
 30
3671.000
 70
    32
  0
VERTEX
  8
E17LXLIFT
 62
7
 10
-2659.031
 20
958.573
 30
3671.000
 70
    32
  0
VERTEX
  8
E17LXLIFT
 62
7
 10
-2649.595
 20
955.259
 30
3671.000
 70
    32
  0
SEQEND
  8
E17LXLIFT
  0
POLYLINE
  8
E17LXLIFT
 62
27
 66
     1
 70
     9
  0
VERTEX
  8
E17LXLIFT
 62
27
 10
-2413.536
 20
826.864
 30
3640.000
 70
    32
  0
VERTEX
  8
E17LXLIFT
 62
27
 10
-2403.840
 20
827.348
 30
3640.000
 70
    32
  0
VERTEX
  8
E17LXLIFT
 62
27
 10
-2393.522
 20
828.618
 30
3640.000
 70
    32
  0
VERTEX
  8
E17LXLIFT
 62
27
 10
-2385.997
 20
834.713
 30
3640.000
 70
    32
  0
VERTEX
  8
E17LXLIFT
 62
27
 10
-2381.319
 20
843.188
 30
3640.000
 70
    32
  0
VERTEX
  8
E17LXLIFT
 62
27
 10
-2380.348
 20
847.947
 30
3640.000
 70
    32
  0
VERTEX
  8
E17LXLIFT
 62
27
 10
-2387.097
 20
850.728
 30
3640.000
 70
    32
  0
VERTEX
  8
E17LXLIFT
 62
27
 10
-2385.244
 20
857.995
 30
3640.000
 70
    32
  0
VERTEX
  8
E17LXLIFT
 62
27
 10
-2384.989
 20
863.428
 30
3640.000
 70
    32
  0
VERTEX
  8
E17LXLIFT
 62
27
 10
-2391.765
 20
869.359
 30
3640.000
 70
    32
  0
VERTEX
  8
E17LXLIFT
 62
27
 10
-2397.826
 20
876.690
 30
3640.000
 70
    32
  0
VERTEX
  8
E17LXLIFT
 62
27
 10
-2402.229
 20
884.589
 30
3640.000
 70
    32
  0
VERTEX
  8
E17LXLIFT
 62
27
 10
-2408.167
 20
887.750
 30
3640.000
 70
    32
  0
VERTEX
  8
E17LXLIFT
 62
27
 10
-2410.832
 20
890.921
 30
3640.000
 70
    32
  0
VERTEX
  8
E17LXLIFT
 62
27
 10
-2418.527
 20
892.021
 30
3640.000
 70
    32
  0
VERTEX
  8
E17LXLIFT
 62
27
 10
-2424.898
 20
887.324
 30
3640.000
 70
    32
  0
VERTEX
  8
E17LXLIFT
 62
27
 10
-2429.833
 20
881.718
 30
3640.000
 70
    32
  0
VERTEX
  8
E17LXLIFT
 62
27
 10
-2435.974
 20
879.376
 30
3640.000
 70
    32
  0
VERTEX
  8
E17LXLIFT
 62
27
 10
-2440.113
 20
876.543
 30
3640.000
 70
    32
  0
VERTEX
  8
E17LXLIFT
 62
27
 10
-2445.154
 20
875.230
 30
3640.000
 70
    32
  0
VERTEX
  8
E17LXLIFT
 62
27
 10
-2454.112
 20
874.634
 30
3640.000
 70
    32
  0
VERTEX
  8
E17LXLIFT
 62
27
 10
-2464.397
 20
875.246
 30
3640.000
 70
    32
  0
VERTEX
  8
E17LXLIFT
 62
27
 10
-2468.392
 20
866.290
 30
3640.000
 70
    32
  0
VERTEX
  8
E17LXLIFT
 62
27
 10
-2469.627
 20
859.370
 30
3640.000
 70
    32
  0
VERTEX
  8
E17LXLIFT
 62
27
 10
-2466.018
 20
851.214
 30
3640.000
 70
    32
  0
VERTEX
  8
E17LXLIFT
 62
27
 10
-2465.590
 20
843.225
 30
3640.000
 70
    32
  0
VERTEX
  8
E17LXLIFT
 62
27
 10
-2460.202
 20
841.844
 30
3640.000
 70
    32
  0
VERTEX
  8
E17LXLIFT
 62
27
 10
-2449.764
 20
842.656
 30
3640.000
 70
    32
  0
VERTEX
  8
E17LXLIFT
 62
27
 10
-2444.047
 20
838.458
 30
3640.000
 70
    32
  0
VERTEX
  8
E17LXLIFT
 62
27
 10
-2438.486
 20
834.473
 30
3640.000
 70
    32
  0
VERTEX
  8
E17LXLIFT
 62
27
 10
-2430.005
 20
834.826
 30
3640.000
 70
    32
  0
VERTEX
  8
E17LXLIFT
 62
27
 10
-2426.941
 20
830.966
 30
3640.000
 70
    32
  0
VERTEX
  8
E17LXLIFT
 62
27
 10
-2424.077
 20
826.194
 30
3640.000
 70
    32
  0
SEQEND
  8
E17LXLIFT
  0
POLYLINE
  8
E17LXLIFT
 62
7
 66
     1
 70
     9
  0
VERTEX
  8
E17LXLIFT
 62
7
 10
-2601.215
 20
984.155
 30
3654.000
 70
    32
  0
VERTEX
  8
E17LXLIFT
 62
7
 10
-2601.907
 20
1000.189
 30
3654.000
 70
    32
  0
VERTEX
  8
E17LXLIFT
 62
7
 10
-2601.896
 20
1011.324
 30
3654.000
 70
    32
  0
VERTEX
  8
E17LXLIFT
 62
7
 10
-2603.976
 20
1015.883
 30
3654.000
 70
    32
  0
VERTEX
  8
E17LXLIFT
 62
7
 10
-2616.251
 20
1019.291
 30
3654.000
 70
    32
  0
VERTEX
  8
E17LXLIFT
 62
7
 10
-2626.615
 20
1021.692
 30
3654.000
 70
    32
  0
VERTEX
  8
E17LXLIFT
 62
7
 10
-2638.439
 20
1024.019
 30
3654.000
 70
    32
  0
VERTEX
  8
E17LXLIFT
 62
7
 10
-2649.159
 20
1025.409
 30
3654.000
 70
    32
  0
VERTEX
  8
E17LXLIFT
 62
7
 10
-2658.918
 20
1026.514
 30
3654.000
 70
    32
  0
VERTEX
  8
E17LXLIFT
 62
7
 10
-2664.573
 20
1032.292
 30
3654.000
 70
    32
  0
VERTEX
  8
E17LXLIFT
 62
7
 10
-2670.850
 20
1032.005
 30
3654.000
 70
    32
  0
VERTEX
  8
E17LXLIFT
 62
7
 10
-2677.022
 20
1024.339
 30
3654.000
 70
    32
  0
VERTEX
  8
E17LXLIFT
 62
7
 10
-2681.359
 20
1017.881
 30
3654.000
 70
    32
  0
VERTEX
  8
E17LXLIFT
 62
7
 10
-2686.005
 20
1013.361
 30
3654.000
 70
    32
  0
VERTEX
  8
E17LXLIFT
 62
7
 10
-2692.635
 20
1010.553
 30
3654.000
 70
    32
  0
VERTEX
  8
E17LXLIFT
 62
7
 10
-2700.329
 20
1009.682
 30
3654.000
 70
    32
  0
VERTEX
  8
E17LXLIFT
 62
7
 10
-2702.332
 20
1004.789
 30
3654.000
 70
    32
  0
VERTEX
  8
E17LXLIFT
 62
7
 10
-2699.216
 20
997.731
 30
3654.000
 70
    32
  0
VERTEX
  8
E17LXLIFT
 62
7
 10
-2692.286
 20
998.162
 30
3654.000
 70
    32
  0
VERTEX
  8
E17LXLIFT
 62
7
 10
-2684.895
 20
1002.921
 30
3654.000
 70
    32
  0
VERTEX
  8
E17LXLIFT
 62
7
 10
-2675.842
 20
1003.254
 30
3654.000
 70
    32
  0
VERTEX
  8
E17LXLIFT
 62
7
 10
-2669.177
 20
997.876
 30
3654.000
 70
    32
  0
VERTEX
  8
E17LXLIFT
 62
7
 10
-2666.151
 20
989.134
 30
3654.000
 70
    32
  0
VERTEX
  8
E17LXLIFT
 62
7
 10
-2663.644
 20
979.911
 30
3654.000
 70
    32
  0
VERTEX
  8
E17LXLIFT
 62
7
 10
-2656.212
 20
973.463
 30
3654.000
 70
    32
  0
VERTEX
  8
E17LXLIFT
 62
7
 10
-2644.972
 20
971.799
 30
3654.000
 70
    32
  0
VERTEX
  8
E17LXLIFT
 62
7
 10
-2637.595
 20
973.414
 30
3654.000
 70
    32
  0
VERTEX
  8
E17LXLIFT
 62
7
 10
-2628.073
 20
974.298
 30
3654.000
 70
    32
  0
VERTEX
  8
E17LXLIFT
 62
7
 10
-2624.173
 20
979.256
 30
3654.000
 70
    32
  0
VERTEX
  8
E17LXLIFT
 62
7
 10
-2618.718
 20
982.950
 30
3654.000
 70
    32
  0
VERTEX
  8
E17LXLIFT
 62
7
 10
-2612.844
 20
980.031
 30
3654.000
 70
    32
  0
VERTEX
  8
E17LXLIFT
 62
7
 10
-2611.397
 20
975.451
 30
3654.000
 70
    32
  0
SEQEND
  8
E17LXLIFT
  0
POLYLINE
  8
E17LXLIFT
 62
1
 66
     1
 70
     9
  0
VERTEX
  8
E17LXLIFT
 62
1
 10
-2648.595
 20
956.259
 30
3681.000
 70
    32
  0
VERTEX
  8
E17LXLIFT
 62
1
 10
-2658.031
 20
959.573
 30
3681.000
 70
    32
  0
VERTEX
  8
E17LXLIFT
 62
1
 10
-2667.523
 20
962.518
 30
3681.000
 70
    32
  0
VERTEX
  8
E17LXLIFT
 62
1
 10
-2669.808
 20
964.876
 30
3681.000
 70
    32
  0
VERTEX
  8
E17LXLIFT
 62
1
 10
-2671.177
 20
971.624
 30
3681.000
 70
    32
  0
VERTEX
  8
E17LXLIFT
 62
1
 10
-2677.162
 20
973.220
 30
3681.000
 70
    32
  0
VERTEX
  8
E17LXLIFT
 62
1
 10
-2686.692
 20
975.919
 30
3681.000
 70
    32
  0
VERTEX
  8
E17LXLIFT
 62
1
 10
-2685.810
 20
980.503
 30
3681.000
 70
    32
  0
VERTEX
  8
E17LXLIFT
 62
1
 10
-2683.434
 20
987.062
 30
3681.000
 70
    32
  0
VERTEX
  8
E17LXLIFT
 62
1
 10
-2689.796
 20
989.910
 30
3681.000
 70
    32
  0
VERTEX
  8
E17LXLIFT
 62
1
 10
-2696.453
 20
993.307
 30
3681.000
 70
    32
  0
VERTEX
  8
E17LXLIFT
 62
1
 10
-2701.702
 20
1001.019
 30
3681.000
 70
    32
  0
VERTEX
  8
E17LXLIFT
 62
1
 10
-2708.295
 20
1005.663
 30
3681.000
 70
    32
  0
VERTEX
  8
E17LXLIFT
 62
1
 10
-2717.239
 20
1008.902
 30
3681.000
 70
    32
  0
VERTEX
  8
E17LXLIFT
 62
1
 10
-2726.518
 20
1009.928
 30
3681.000
 70
    32
  0
VERTEX
  8
E17LXLIFT
 62
1
 10
-2727.192
 20
1020.030
 30
3681.000
 70
    32
  0
VERTEX
  8
E17LXLIFT
 62
1
 10
-2724.728
 20
1028.840
 30
3681.000
 70
    32
  0
VERTEX
  8
E17LXLIFT
 62
1
 10
-2723.337
 20
1037.623
 30
3681.000
 70
    32
  0
VERTEX
  8
E17LXLIFT
 62
1
 10
-2717.183
 20
1043.799
 30
3681.000
 70
    32
  0
VERTEX
  8
E17LXLIFT
 62
1
 10
-2711.279
 20
1049.573
 30
3681.000
 70
    32
  0
VERTEX
  8
E17LXLIFT
 62
1
 10
-2701.670
 20
1041.580
 30
3681.000
 70
    32
  0
VERTEX
  8
E17LXLIFT
 62
1
 10
-2690.194
 20
1035.945
 30
3681.000
 70
    32
  0
VERTEX
  8
E17LXLIFT
 62
1
 10
-2682.450
 20
1032.259
 30
3681.000
 70
    32
  0
VERTEX
  8
E17LXLIFT
 62
1
 10
-2676.496
 20
1035.447
 30
3681.000
 70
    32
  0
VERTEX
  8
E17LXLIFT
 62
1
 10
-2668.463
 20
1039.075
 30
3681.000
 70
    32
  0
VERTEX
  8
E17LXLIFT
 62
1
 10
-2662.066
 20
1042.699
 30
3681.000
 70
    32
  0
VERTEX
  8
E17LXLIFT
 62
1
 10
-2658.183
 20
1042.175
 30
3681.000
 70
    32
  0
VERTEX
  8
E17LXLIFT
 62
1
 10
-2653.420
 20
1039.568
 30
3681.000
 70
    32
  0
VERTEX
  8
E17LXLIFT
 62
1
 10
-2648.898
 20
1033.287
 30
3681.000
 70
    32
  0
VERTEX
  8
E17LXLIFT
 62
1
 10
-2643.389
 20
1027.296
 30
3681.000
 70
    32
  0
VERTEX
  8
E17LXLIFT
 62
1
 10
-2636.688
 20
1025.025
 30
3681.000
 70
    32
  0
VERTEX
  8
E17LXLIFT
 62
1
 10
-2630.412
 20
1022.441
 30
3681.000
 70
    32
  0
VERTEX
  8
E17LXLIFT
 62
1
 10
-2625.786
 20
1016.018
 30
3681.000
 70
    32
  0
VERTEX
  8
E17LXLIFT
 62
1
 10
-2621.339
 20
1011.321
 30
3681.000
 70
    32
  0
VERTEX
  8
E17LXLIFT
 62
1
 10
-2615.815
 20
1007.090
 30
3681.000
 70
    32
  0
VERTEX
  8
E17LXLIFT
 62
1
 10
-2608.226
 20
1010.282
 30
3681.000
 70
    32
  0
VERTEX
  8
E17LXLIFT
 62
1
 10
-2605.166
 20
1010.134
 30
3681.000
 70
    32
  0
VERTEX
  8
E17LXLIFT
 62
1
 10
-2600.020
 20
1009.230
 30
3681.000
 70
    32
  0
VERTEX
  8
E17LXLIFT
 62
1
 10
-2592.437
 20
1011.542
 30
3681.000
 70
    32
  0
VERTEX
  8
E17LXLIFT
 62
1
 10
-2583.246
 20
1014.932
 30
3681.000
 70
    32
  0
VERTEX
  8
E17LXLIFT
 62
1
 10
-2575.689
 20
1016.243
 30
3681.000
 70
    32
  0
VERTEX
  8
E17LXLIFT
 62
1
 10
-2572.065
 20
1009.846
 30
3681.000
 70
    32
  0
VERTEX
  8
E17LXLIFT
 62
1
 10
-2570.744
 20
1003.608
 30
3681.000
 70
    32
  0
VERTEX
  8
E17LXLIFT
 62
1
 10
-2576.761
 20
999.172
 30
3681.000
 70
    32
  0
VERTEX
  8
E17LXLIFT
 62
1
 10
-2582.728
 20
992.150
 30
3681.000
 70
    32
  0
VERTEX
  8
E17LXLIFT
 62
1
 10
-2586.023
 20
982.837
 30
3681.000
 70
    32
  0
VERTEX
  8
E17LXLIFT
 62
1
 10
-2588.980
 20
976.177
 30
3681.000
 70
    32
  0
VERTEX
  8
E17LXLIFT
 62
1
 10
-2595.668
 20
973.540
 30
3681.000
 70
    32
  0
VERTEX
  8
E17LXLIFT
 62
1
 10
-2604.540
 20
972.680
 30
3681.000
 70
    32
  0
VERTEX
  8
E17LXLIFT
 62
1
 10
-2615.420
 20
971.432
 30
3681.000
 70
    32
  0
VERTEX
  8
E17LXLIFT
 62
1
 10
-2623.521
 20
970.267
 30
3681.000
 70
    32
  0
VERTEX
  8
E17LXLIFT
 62
1
 10
-2632.405
 20
972.239
 30
3681.000
 70
    32
  0
VERTEX
  8
E17LXLIFT
 62
1
 10
-2640.176
 20
964.106
 30
3681.000
 70
    32
  0
SEQEND
  8
E17LXLIFT
  0
POLYLINE
  8
E17LXLIFT
 62
1
 66
     1
 70
     9
  0
VERTEX
  8
E17LXLIFT
 62
1
 10
-2542.983
 20
763.937
 30
3543.000
 70
    32
  0
VERTEX
  8
E17LXLIFT
 62
1
 10
-2545.796
 20
767.758
 30
3543.000
 70
    32
  0
VERTEX
  8
E17LXLIFT
 62
1
 10
-2552.937
 20
772.066
 30
3543.000
 70
    32
  0
VERTEX
  8
E17LXLIFT
 62
1
 10
-2560.081
 20
778.203
 30
3543.000
 70
    32
  0
VERTEX
  8
E17LXLIFT
 62
1
 10
-2565.247
 20
785.955
 30
3543.000
 70
    32
  0
VERTEX
  8
E17LXLIFT
 62
1
 10
-2571.259
 20
791.709
 30
3543.000
 70
    32
  0
VERTEX
  8
E17LXLIFT
 62
1
 10
-2582.970
 20
797.302
 30
3543.000
 70
    32
  0
VERTEX
  8
E17LXLIFT
 62
1
 10
-2586.989
 20
803.283
 30
3543.000
 70
    32
  0
VERTEX
  8
E17LXLIFT
 62
1
 10
-2595.169
 20
813.315
 30
3543.000
 70
    32
  0
VERTEX
  8
E17LXLIFT
 62
1
 10
-2603.274
 20
821.569
 30
3543.000
 70
    32
  0
VERTEX
  8
E17LXLIFT
 62
1
 10
-2608.948
 20
827.454
 30
3543.000
 70
    32
  0
VERTEX
  8
E17LXLIFT
 62
1
 10
-2616.339
 20
835.461
 30
3543.000
 70
    32
  0
VERTEX
  8
E17LXLIFT
 62
1
 10
-2622.491
 20
844.453
 30
3543.000
 70
    32
  0
VERTEX
  8
E17LXLIFT
 62
1
 10
-2626.576
 20
854.478
 30
3543.000
 70
    32
  0
VERTEX
  8
E17LXLIFT
 62
1
 10
-2626.565
 20
861.912
 30
3543.000
 70
    32
  0
VERTEX
  8
E17LXLIFT
 62
1
 10
-2628.924
 20
866.916
 30
3543.000
 70
    32
  0
VERTEX
  8
E17LXLIFT
 62
1
 10
-2628.269
 20
872.224
 30
3543.000
 70
    32
  0
VERTEX
  8
E17LXLIFT
 62
1
 10
-2622.805
 20
877.277
 30
3543.000
 70
    32
  0
VERTEX
  8
E17LXLIFT
 62
1
 10
-2614.958
 20
878.204
 30
3543.000
 70
    32
  0
VERTEX
  8
E17LXLIFT
 62
1
 10
-2611.443
 20
873.696
 30
3543.000
 70
    32
  0
VERTEX
  8
E17LXLIFT
 62
1
 10
-2605.918
 20
871.366
 30
3543.000
 70
    32
  0
VERTEX
  8
E17LXLIFT
 62
1
 10
-2596.951
 20
868.888
 30
3543.000
 70
    32
  0
VERTEX
  8
E17LXLIFT
 62
1
 10
-2588.908
 20
862.850
 30
3543.000
 70
    32
  0
VERTEX
  8
E17LXLIFT
 62
1
 10
-2581.672
 20
854.303
 30
3543.000
 70
    32
  0
VERTEX
  8
E17LXLIFT
 62
1
 10
-2573.080
 20
847.793
 30
3543.000
 70
    32
  0
VERTEX
  8
E17LXLIFT
 62
1
 10
-2563.672
 20
843.475
 30
3543.000
 70
    32
  0
VERTEX
  8
E17LXLIFT
 62
1
 10
-2556.975
 20
840.251
 30
3543.000
 70
    32
  0
VERTEX
  8
E17LXLIFT
 62
1
 10
-2555.477
 20
832.054
 30
3543.000
 70
    32
  0
VERTEX
  8
E17LXLIFT
 62
1
 10
-2550.108
 20
824.015
 30
3543.000
 70
    32
  0
VERTEX
  8
E17LXLIFT
 62
1
 10
-2545.545
 20
816.051
 30
3543.000
 70
    32
  0
VERTEX
  8
E17LXLIFT
 62
1
 10
-2540.182
 20
806.501
 30
3543.000
 70
    32
  0
VERTEX
  8
E17LXLIFT
 62
1
 10
-2537.329
 20
809.920
 30
3543.000
 70
    32
  0
VERTEX
  8
E17LXLIFT
 62
1
 10
-2535.653
 20
815.306
 30
3543.000
 70
    32
  0
VERTEX
  8
E17LXLIFT
 62
1
 10
-2535.564
 20
824.302
 30
3543.000
 70
    32
  0
VERTEX
  8
E17LXLIFT
 62
1
 10
-2535.139
 20
833.431
 30
3543.000
 70
    32
  0
VERTEX
  8
E17LXLIFT
 62
1
 10
-2532.363
 20
840.455
 30
3543.000
 70
    32
  0
VERTEX
  8
E17LXLIFT
 62
1
 10
-2526.388
 20
842.963
 30
3543.000
 70
    32
  0
VERTEX
  8
E17LXLIFT
 62
1
 10
-2520.519
 20
839.692
 30
3543.000
 70
    32
  0
VERTEX
  8
E17LXLIFT
 62
1
 10
-2515.642
 20
836.148
 30
3543.000
 70
    32
  0
VERTEX
  8
E17LXLIFT
 62
1
 10
-2513.740
 20
831.790
 30
3543.000
 70
    32
  0
VERTEX
  8
E17LXLIFT
 62
1
 10
-2515.432
 20
822.626
 30
3543.000
 70
    32
  0
VERTEX
  8
E17LXLIFT
 62
1
 10
-2517.716
 20
816.273
 30
3543.000
 70
    32
  0
VERTEX
  8
E17LXLIFT
 62
1
 10
-2517.140
 20
809.684
 30
3543.000
 70
    32
  0
VERTEX
  8
E17LXLIFT
 62
1
 10
-2520.612
 20
802.274
 30
3543.000
 70
    32
  0
VERTEX
  8
E17LXLIFT
 62
1
 10
-2523.239
 20
796.862
 30
3543.000
 70
    32
  0
VERTEX
  8
E17LXLIFT
 62
1
 10
-2524.566
 20
789.463
 30
3543.000
 70
    32
  0
VERTEX
  8
E17LXLIFT
 62
1
 10
-2526.450
 20
781.025
 30
3543.000
 70
    32
  0
VERTEX
  8
E17LXLIFT
 62
1
 10
-2531.254
 20
775.040
 30
3543.000
 70
    32
  0
SEQEND
  8
E17LXLIFT
  0
POLYLINE
  8
E17LXLIFT
 62
3
 66
     1
 70
     9
  0
VERTEX
  8
E17LXLIFT
 62
3
 10
-1930.071
 20
160.446
 30
3614.000
 70
    32
  0
VERTEX
  8
E17LXLIFT
 62
3
 10
-1916.310
 20
156.035
 30
3614.000
 70
    32
  0
VERTEX
  8
E17LXLIFT
 62
3
 10
-1903.515
 20
149.200
 30
3614.000
 70
    32
  0
VERTEX
  8
E17LXLIFT
 62
3
 10
-1886.225
 20
137.151
 30
3614.000
 70
    32
  0
VERTEX
  8
E17LXLIFT
 62
3
 10
-1866.352
 20
120.140
 30
3614.000
 70
    32
  0
VERTEX
  8
E17LXLIFT
 62
3
 10
-1855.881
 20
109.909
 30
3614.000
 70
    32
  0
VERTEX
  8
E17LXLIFT
 62
3
 10
-1869.312
 20
106.014
 30
3614.000
 70
    32
  0
VERTEX
  8
E17LXLIFT
 62
3
 10
-1900.547
 20
134.347
 30
3614.000
 70
    32
  0
VERTEX
  8
E17LXLIFT
 62
3
 10
-1943.581
 20
148.815
 30
3614.000
 70
    32
  0
SEQEND
  8
E17LXLIFT
  0
POLYLINE
  8
E17LXLIFT
 62
13
 66
     1
 70
     9
  0
VERTEX
  8
E17LXLIFT
 62
13
 10
-1775.883
 20
165.625
 30
3633.000
 70
    32
  0
VERTEX
  8
E17LXLIFT
 62
13
 10
-1779.259
 20
171.208
 30
3633.000
 70
    32
  0
VERTEX
  8
E17LXLIFT
 62
13
 10
-1791.690
 20
182.287
 30
3633.000
 70
    32
  0
VERTEX
  8
E17LXLIFT
 62
13
 10
-1799.545
 20
184.315
 30
3633.000
 70
    32
  0
VERTEX
  8
E17LXLIFT
 62
13
 10
-1800.918
 20
189.825
 30
3633.000
 70
    32
  0
VERTEX
  8
E17LXLIFT
 62
13
 10
-1811.135
 20
203.693
 30
3633.000
 70
    32
  0
VERTEX
  8
E17LXLIFT
 62
13
 10
-1816.049
 20
217.267
 30
3633.000
 70
    32
  0
VERTEX
  8
E17LXLIFT
 62
13
 10
-1819.852
 20
233.810
 30
3633.000
 70
    32
  0
VERTEX
  8
E17LXLIFT
 62
13
 10
-1825.607
 20
255.012
 30
3633.000
 70
    32
  0
VERTEX
  8
E17LXLIFT
 62
13
 10
-1828.512
 20
282.928
 30
3633.000
 70
    32
  0
VERTEX
  8
E17LXLIFT
 62
13
 10
-1832.835
 20
303.646
 30
3633.000
 70
    32
  0
VERTEX
  8
E17LXLIFT
 62
13
 10
-1833.004
 20
304.932
 30
3633.000
 70
    32
  0
VERTEX
  8
E17LXLIFT
 62
13
 10
-1836.948
 20
329.932
 30
3633.000
 70
    32
  0
VERTEX
  8
E17LXLIFT
 62
13
 10
-1823.452
 20
329.697
 30
3633.000
 70
    32
  0
VERTEX
  8
E17LXLIFT
 62
13
 10
-1820.389
 20
307.420
 30
3633.000
 70
    32
  0
VERTEX
  8
E17LXLIFT
 62
13
 10
-1818.999
 20
291.521
 30
3633.000
 70
    32
  0
VERTEX
  8
E17LXLIFT
 62
13
 10
-1815.402
 20
275.264
 30
3633.000
 70
    32
  0
VERTEX
  8
E17LXLIFT
 62
13
 10
-1810.305
 20
284.573
 30
3633.000
 70
    32
  0
VERTEX
  8
E17LXLIFT
 62
13
 10
-1803.755
 20
284.204
 30
3633.000
 70
    32
  0
VERTEX
  8
E17LXLIFT
 62
13
 10
-1797.738
 20
275.109
 30
3633.000
 70
    32
  0
VERTEX
  8
E17LXLIFT
 62
13
 10
-1788.230
 20
266.581
 30
3633.000
 70
    32
  0
VERTEX
  8
E17LXLIFT
 62
13
 10
-1781.756
 20
253.698
 30
3633.000
 70
    32
  0
VERTEX
  8
E17LXLIFT
 62
13
 10
-1776.342
 20
237.776
 30
3633.000
 70
    32
  0
VERTEX
  8
E17LXLIFT
 62
13
 10
-1775.080
 20
220.701
 30
3633.000
 70
    32
  0
VERTEX
  8
E17LXLIFT
 62
13
 10
-1772.195
 20
203.930
 30
3633.000
 70
    32
  0
VERTEX
  8
E17LXLIFT
 62
13
 10
-1768.688
 20
187.499
 30
3633.000
 70
    32
  0
VERTEX
  8
E17LXLIFT
 62
13
 10
-1767.473
 20
171.690
 30
3633.000
 70
    32
  0
SEQEND
  8
E17LXLIFT
  0
POLYLINE
  8
E17LXLIFT
 62
13
 66
     1
 70
     9
  0
VERTEX
  8
E17LXLIFT
 62
13
 10
-1804.699
 20
226.319
 30
3633.000
 70
    32
  0
VERTEX
  8
E17LXLIFT
 62
13
 10
-1808.171
 20
237.142
 30
3633.000
 70
    32
  0
VERTEX
  8
E17LXLIFT
 62
13
 10
-1811.833
 20
251.835
 30
3633.000
 70
    32
  0
VERTEX
  8
E17LXLIFT
 62
13
 10
-1813.857
 20
265.760
 30
3633.000
 70
    32
  0
VERTEX
  8
E17LXLIFT
 62
13
 10
-1810.091
 20
268.801
 30
3633.000
 70
    32
  0
VERTEX
  8
E17LXLIFT
 62
13
 10
-1805.382
 20
262.121
 30
3633.000
 70
    32
  0
VERTEX
  8
E17LXLIFT
 62
13
 10
-1798.798
 20
254.193
 30
3633.000
 70
    32
  0
VERTEX
  8
E17LXLIFT
 62
13
 10
-1792.171
 20
245.754
 30
3633.000
 70
    32
  0
VERTEX
  8
E17LXLIFT
 62
13
 10
-1788.665
 20
233.981
 30
3633.000
 70
    32
  0
VERTEX
  8
E17LXLIFT
 62
13
 10
-1786.406
 20
222.284
 30
3633.000
 70
    32
  0
VERTEX
  8
E17LXLIFT
 62
13
 10
-1794.558
 20
217.814
 30
3633.000
 70
    32
  0
VERTEX
  8
E17LXLIFT
 62
13
 10
-1802.207
 20
219.557
 30
3633.000
 70
    32
  0
SEQEND
  8
E17LXLIFT
  0
POLYLINE
  8
E17LXLIFT
 62
13
 66
     1
 70
     9
  0
VERTEX
  8
E17LXLIFT
 62
13
 10
-1739.694
 20
118.330
 30
3662.000
 70
    32
  0
VERTEX
  8
E17LXLIFT
 62
13
 10
-1732.683
 20
112.990
 30
3662.000
 70
    32
  0
VERTEX
  8
E17LXLIFT
 62
13
 10
-1726.508
 20
109.106
 30
3662.000
 70
    32
  0
VERTEX
  8
E17LXLIFT
 62
13
 10
-1718.419
 20
97.929
 30
3662.000
 70
    32
  0
VERTEX
  8
E17LXLIFT
 62
13
 10
-1708.897
 20
91.369
 30
3662.000
 70
    32
  0
VERTEX
  8
E17LXLIFT
 62
13
 10
-1697.869
 20
93.818
 30
3662.000
 70
    32
  0
VERTEX
  8
E17LXLIFT
 62
13
 10
-1701.971
 20
102.783
 30
3662.000
 70
    32
  0
VERTEX
  8
E17LXLIFT
 62
13
 10
-1707.081
 20
114.489
 30
3662.000
 70
    32
  0
VERTEX
  8
E17LXLIFT
 62
13
 10
-1715.380
 20
121.608
 30
3662.000
 70
    32
  0
VERTEX
  8
E17LXLIFT
 62
13
 10
-1728.943
 20
132.403
 30
3662.000
 70
    32
  0
VERTEX
  8
E17LXLIFT
 62
13
 10
-1739.099
 20
144.037
 30
3662.000
 70
    32
  0
VERTEX
  8
E17LXLIFT
 62
13
 10
-1748.067
 20
155.228
 30
3662.000
 70
    32
  0
VERTEX
  8
E17LXLIFT
 62
13
 10
-1755.122
 20
164.225
 30
3662.000
 70
    32
  0
VERTEX
  8
E17LXLIFT
 62
13
 10
-1763.339
 20
173.031
 30
3662.000
 70
    32
  0
VERTEX
  8
E17LXLIFT
 62
13
 10
-1769.156
 20
186.612
 30
3662.000
 70
    32
  0
VERTEX
  8
E17LXLIFT
 62
13
 10
-1772.425
 20
198.024
 30
3662.000
 70
    32
  0
VERTEX
  8
E17LXLIFT
 62
13
 10
-1773.948
 20
212.868
 30
3662.000
 70
    32
  0
VERTEX
  8
E17LXLIFT
 62
13
 10
-1774.816
 20
229.055
 30
3662.000
 70
    32
  0
VERTEX
  8
E17LXLIFT
 62
13
 10
-1778.009
 20
242.908
 30
3662.000
 70
    32
  0
VERTEX
  8
E17LXLIFT
 62
13
 10
-1782.843
 20
256.332
 30
3662.000
 70
    32
  0
VERTEX
  8
E17LXLIFT
 62
13
 10
-1786.709
 20
266.769
 30
3662.000
 70
    32
  0
VERTEX
  8
E17LXLIFT
 62
13
 10
-1790.895
 20
272.852
 30
3662.000
 70
    32
  0
VERTEX
  8
E17LXLIFT
 62
13
 10
-1801.202
 20
277.650
 30
3662.000
 70
    32
  0
VERTEX
  8
E17LXLIFT
 62
13
 10
-1811.223
 20
288.947
 30
3662.000
 70
    32
  0
VERTEX
  8
E17LXLIFT
 62
13
 10
-1818.474
 20
299.864
 30
3662.000
 70
    32
  0
VERTEX
  8
E17LXLIFT
 62
13
 10
-1821.405
 20
309.459
 30
3662.000
 70
    32
  0
VERTEX
  8
E17LXLIFT
 62
13
 10
-1825.865
 20
316.970
 30
3662.000
 70
    32
  0
VERTEX
  8
E17LXLIFT
 62
13
 10
-1833.089
 20
325.302
 30
3662.000
 70
    32
  0
VERTEX
  8
E17LXLIFT
 62
13
 10
-1837.755
 20
321.707
 30
3662.000
 70
    32
  0
VERTEX
  8
E17LXLIFT
 62
13
 10
-1839.583
 20
316.588
 30
3662.000
 70
    32
  0
VERTEX
  8
E17LXLIFT
 62
13
 10
-1832.726
 20
303.217
 30
3662.000
 70
    32
  0
VERTEX
  8
E17LXLIFT
 62
13
 10
-1824.933
 20
292.151
 30
3662.000
 70
    32
  0
VERTEX
  8
E17LXLIFT
 62
13
 10
-1816.887
 20
281.485
 30
3662.000
 70
    32
  0
VERTEX
  8
E17LXLIFT
 62
13
 10
-1805.134
 20
267.644
 30
3662.000
 70
    32
  0
VERTEX
  8
E17LXLIFT
 62
13
 10
-1797.211
 20
256.998
 30
3662.000
 70
    32
  0
VERTEX
  8
E17LXLIFT
 62
13
 10
-1792.475
 20
251.205
 30
3662.000
 70
    32
  0
VERTEX
  8
E17LXLIFT
 62
13
 10
-1789.108
 20
240.407
 30
3662.000
 70
    32
  0
VERTEX
  8
E17LXLIFT
 62
13
 10
-1787.618
 20
230.854
 30
3662.000
 70
    32
  0
VERTEX
  8
E17LXLIFT
 62
13
 10
-1791.549
 20
223.995
 30
3662.000
 70
    32
  0
VERTEX
  8
E17LXLIFT
 62
13
 10
-1796.893
 20
217.740
 30
3662.000
 70
    32
  0
VERTEX
  8
E17LXLIFT
 62
13
 10
-1799.044
 20
215.316
 30
3662.000
 70
    32
  0
VERTEX
  8
E17LXLIFT
 62
13
 10
-1802.329
 20
211.311
 30
3662.000
 70
    32
  0
VERTEX
  8
E17LXLIFT
 62
13
 10
-1799.832
 20
204.114
 30
3662.000
 70
    32
  0
VERTEX
  8
E17LXLIFT
 62
13
 10
-1792.721
 20
194.290
 30
3662.000
 70
    32
  0
VERTEX
  8
E17LXLIFT
 62
13
 10
-1787.056
 20
185.264
 30
3662.000
 70
    32
  0
VERTEX
  8
E17LXLIFT
 62
13
 10
-1779.022
 20
178.061
 30
3662.000
 70
    32
  0
VERTEX
  8
E17LXLIFT
 62
13
 10
-1773.084
 20
169.558
 30
3662.000
 70
    32
  0
VERTEX
  8
E17LXLIFT
 62
13
 10
-1765.249
 20
159.932
 30
3662.000
 70
    32
  0
VERTEX
  8
E17LXLIFT
 62
13
 10
-1758.910
 20
149.225
 30
3662.000
 70
    32
  0
VERTEX
  8
E17LXLIFT
 62
13
 10
-1754.571
 20
144.880
 30
3662.000
 70
    32
  0
VERTEX
  8
E17LXLIFT
 62
13
 10
-1759.073
 20
131.315
 30
3662.000
 70
    32
  0
SEQEND
  8
E17LXLIFT
  0
POLYLINE
  8
E17LXLIFT
 62
1
 66
     1
 70
     9
  0
VERTEX
  8
E17LXLIFT
 62
1
 10
-1929.071
 20
161.446
 30
3624.000
 70
    32
  0
VERTEX
  8
E17LXLIFT
 62
1
 10
-1915.310
 20
157.035
 30
3624.000
 70
    32
  0
VERTEX
  8
E17LXLIFT
 62
1
 10
-1902.515
 20
150.200
 30
3624.000
 70
    32
  0
VERTEX
  8
E17LXLIFT
 62
1
 10
-1885.225
 20
138.151
 30
3624.000
 70
    32
  0
VERTEX
  8
E17LXLIFT
 62
1
 10
-1865.352
 20
121.140
 30
3624.000
 70
    32
  0
VERTEX
  8
E17LXLIFT
 62
1
 10
-1854.881
 20
110.909
 30
3624.000
 70
    32
  0
VERTEX
  8
E17LXLIFT
 62
1
 10
-1868.312
 20
107.014
 30
3624.000
 70
    32
  0
VERTEX
  8
E17LXLIFT
 62
1
 10
-1899.547
 20
135.347
 30
3624.000
 70
    32
  0
VERTEX
  8
E17LXLIFT
 62
1
 10
-1942.581
 20
149.815
 30
3624.000
 70
    32
  0
SEQEND
  8
E17LXLIFT
  0
POLYLINE
  8
E17LXLIFT
 62
1
 66
     1
 70
     9
  0
VERTEX
  8
E17LXLIFT
 62
1
 10
-1758.073
 20
132.315
 30
3672.000
 70
    32
  0
VERTEX
  8
E17LXLIFT
 62
1
 10
-1753.571
 20
145.880
 30
3672.000
 70
    32
  0
VERTEX
  8
E17LXLIFT
 62
1
 10
-1757.910
 20
150.225
 30
3672.000
 70
    32
  0
VERTEX
  8
E17LXLIFT
 62
1
 10
-1764.249
 20
160.932
 30
3672.000
 70
    32
  0
VERTEX
  8
E17LXLIFT
 62
1
 10
-1772.084
 20
170.558
 30
3672.000
 70
    32
  0
VERTEX
  8
E17LXLIFT
 62
1
 10
-1778.022
 20
179.061
 30
3672.000
 70
    32
  0
VERTEX
  8
E17LXLIFT
 62
1
 10
-1786.056
 20
186.264
 30
3672.000
 70
    32
  0
VERTEX
  8
E17LXLIFT
 62
1
 10
-1791.721
 20
195.290
 30
3672.000
 70
    32
  0
VERTEX
  8
E17LXLIFT
 62
1
 10
-1798.832
 20
205.114
 30
3672.000
 70
    32
  0
VERTEX
  8
E17LXLIFT
 62
1
 10
-1801.329
 20
212.311
 30
3672.000
 70
    32
  0
VERTEX
  8
E17LXLIFT
 62
1
 10
-1798.044
 20
216.316
 30
3672.000
 70
    32
  0
VERTEX
  8
E17LXLIFT
 62
1
 10
-1795.893
 20
218.740
 30
3672.000
 70
    32
  0
VERTEX
  8
E17LXLIFT
 62
1
 10
-1790.549
 20
224.995
 30
3672.000
 70
    32
  0
VERTEX
  8
E17LXLIFT
 62
1
 10
-1786.618
 20
231.854
 30
3672.000
 70
    32
  0
VERTEX
  8
E17LXLIFT
 62
1
 10
-1788.108
 20
241.407
 30
3672.000
 70
    32
  0
VERTEX
  8
E17LXLIFT
 62
1
 10
-1791.475
 20
252.205
 30
3672.000
 70
    32
  0
VERTEX
  8
E17LXLIFT
 62
1
 10
-1796.211
 20
257.998
 30
3672.000
 70
    32
  0
VERTEX
  8
E17LXLIFT
 62
1
 10
-1804.134
 20
268.644
 30
3672.000
 70
    32
  0
VERTEX
  8
E17LXLIFT
 62
1
 10
-1815.887
 20
282.485
 30
3672.000
 70
    32
  0
VERTEX
  8
E17LXLIFT
 62
1
 10
-1823.933
 20
293.151
 30
3672.000
 70
    32
  0
VERTEX
  8
E17LXLIFT
 62
1
 10
-1831.726
 20
304.217
 30
3672.000
 70
    32
  0
VERTEX
  8
E17LXLIFT
 62
1
 10
-1838.583
 20
317.588
 30
3672.000
 70
    32
  0
VERTEX
  8
E17LXLIFT
 62
1
 10
-1836.755
 20
322.707
 30
3672.000
 70
    32
  0
VERTEX
  8
E17LXLIFT
 62
1
 10
-1832.089
 20
326.302
 30
3672.000
 70
    32
  0
VERTEX
  8
E17LXLIFT
 62
1
 10
-1824.865
 20
317.970
 30
3672.000
 70
    32
  0
VERTEX
  8
E17LXLIFT
 62
1
 10
-1820.405
 20
310.459
 30
3672.000
 70
    32
  0
VERTEX
  8
E17LXLIFT
 62
1
 10
-1817.474
 20
300.864
 30
3672.000
 70
    32
  0
VERTEX
  8
E17LXLIFT
 62
1
 10
-1810.223
 20
289.947
 30
3672.000
 70
    32
  0
VERTEX
  8
E17LXLIFT
 62
1
 10
-1800.202
 20
278.650
 30
3672.000
 70
    32
  0
VERTEX
  8
E17LXLIFT
 62
1
 10
-1789.895
 20
273.852
 30
3672.000
 70
    32
  0
VERTEX
  8
E17LXLIFT
 62
1
 10
-1785.709
 20
267.769
 30
3672.000
 70
    32
  0
VERTEX
  8
E17LXLIFT
 62
1
 10
-1781.843
 20
257.332
 30
3672.000
 70
    32
  0
VERTEX
  8
E17LXLIFT
 62
1
 10
-1777.009
 20
243.908
 30
3672.000
 70
    32
  0
VERTEX
  8
E17LXLIFT
 62
1
 10
-1773.816
 20
230.055
 30
3672.000
 70
    32
  0
VERTEX
  8
E17LXLIFT
 62
1
 10
-1772.948
 20
213.868
 30
3672.000
 70
    32
  0
VERTEX
  8
E17LXLIFT
 62
1
 10
-1771.425
 20
199.024
 30
3672.000
 70
    32
  0
VERTEX
  8
E17LXLIFT
 62
1
 10
-1768.156
 20
187.612
 30
3672.000
 70
    32
  0
VERTEX
  8
E17LXLIFT
 62
1
 10
-1762.339
 20
174.031
 30
3672.000
 70
    32
  0
VERTEX
  8
E17LXLIFT
 62
1
 10
-1754.122
 20
165.225
 30
3672.000
 70
    32
  0
VERTEX
  8
E17LXLIFT
 62
1
 10
-1747.067
 20
156.228
 30
3672.000
 70
    32
  0
VERTEX
  8
E17LXLIFT
 62
1
 10
-1738.099
 20
145.037
 30
3672.000
 70
    32
  0
VERTEX
  8
E17LXLIFT
 62
1
 10
-1727.943
 20
133.403
 30
3672.000
 70
    32
  0
VERTEX
  8
E17LXLIFT
 62
1
 10
-1714.380
 20
122.608
 30
3672.000
 70
    32
  0
VERTEX
  8
E17LXLIFT
 62
1
 10
-1706.081
 20
115.489
 30
3672.000
 70
    32
  0
VERTEX
  8
E17LXLIFT
 62
1
 10
-1700.971
 20
103.783
 30
3672.000
 70
    32
  0
VERTEX
  8
E17LXLIFT
 62
1
 10
-1696.869
 20
94.818
 30
3672.000
 70
    32
  0
VERTEX
  8
E17LXLIFT
 62
1
 10
-1707.897
 20
92.369
 30
3672.000
 70
    32
  0
VERTEX
  8
E17LXLIFT
 62
1
 10
-1717.419
 20
98.929
 30
3672.000
 70
    32
  0
VERTEX
  8
E17LXLIFT
 62
1
 10
-1725.508
 20
110.106
 30
3672.000
 70
    32
  0
VERTEX
  8
E17LXLIFT
 62
1
 10
-1731.683
 20
113.990
 30
3672.000
 70
    32
  0
VERTEX
  8
E17LXLIFT
 62
1
 10
-1738.694
 20
119.330
 30
3672.000
 70
    32
  0
SEQEND
  8
E17LXLIFT
  0
POLYLINE
  8
E17LXLIFT
 62
8
 66
     1
 70
     9
  0
VERTEX
  8
E17LXLIFT
 62
8
 10
-1502.394
 20
-1431.270
 30
3673.000
 70
    32
  0
VERTEX
  8
E17LXLIFT
 62
8
 10
-1509.377
 20
-1437.091
 30
3673.000
 70
    32
  0
VERTEX
  8
E17LXLIFT
 62
8
 10
-1517.223
 20
-1440.819
 30
3673.000
 70
    32
  0
VERTEX
  8
E17LXLIFT
 62
8
 10
-1523.650
 20
-1443.954
 30
3673.000
 70
    32
  0
VERTEX
  8
E17LXLIFT
 62
8
 10
-1529.168
 20
-1437.840
 30
3673.000
 70
    32
  0
VERTEX
  8
E17LXLIFT
 62
8
 10
-1534.972
 20
-1431.933
 30
3673.000
 70
    32
  0
VERTEX
  8
E17LXLIFT
 62
8
 10
-1541.713
 20
-1429.532
 30
3673.000
 70
    32
  0
VERTEX
  8
E17LXLIFT
 62
8
 10
-1545.947
 20
-1425.641
 30
3673.000
 70
    32
  0
VERTEX
  8
E17LXLIFT
 62
8
 10
-1545.821
 20
-1420.112
 30
3673.000
 70
    32
  0
VERTEX
  8
E17LXLIFT
 62
8
 10
-1548.098
 20
-1415.020
 30
3673.000
 70
    32
  0
VERTEX
  8
E17LXLIFT
 62
8
 10
-1554.049
 20
-1408.458
 30
3673.000
 70
    32
  0
VERTEX
  8
E17LXLIFT
 62
8
 10
-1559.487
 20
-1400.654
 30
3673.000
 70
    32
  0
VERTEX
  8
E17LXLIFT
 62
8
 10
-1564.530
 20
-1393.544
 30
3673.000
 70
    32
  0
VERTEX
  8
E17LXLIFT
 62
8
 10
-1569.673
 20
-1387.048
 30
3673.000
 70
    32
  0
VERTEX
  8
E17LXLIFT
 62
8
 10
-1575.303
 20
-1382.429
 30
3673.000
 70
    32
  0
VERTEX
  8
E17LXLIFT
 62
8
 10
-1577.425
 20
-1377.551
 30
3673.000
 70
    32
  0
VERTEX
  8
E17LXLIFT
 62
8
 10
-1577.208
 20
-1371.848
 30
3673.000
 70
    32
  0
VERTEX
  8
E17LXLIFT
 62
8
 10
-1582.886
 20
-1364.762
 30
3673.000
 70
    32
  0
VERTEX
  8
E17LXLIFT
 62
8
 10
-1589.196
 20
-1359.657
 30
3673.000
 70
    32
  0
VERTEX
  8
E17LXLIFT
 62
8
 10
-1594.575
 20
-1351.484
 30
3673.000
 70
    32
  0
VERTEX
  8
E17LXLIFT
 62
8
 10
-1597.662
 20
-1343.173
 30
3673.000
 70
    32
  0
VERTEX
  8
E17LXLIFT
 62
8
 10
-1605.949
 20
-1336.238
 30
3673.000
 70
    32
  0
VERTEX
  8
E17LXLIFT
 62
8
 10
-1615.648
 20
-1329.456
 30
3673.000
 70
    32
  0
VERTEX
  8
E17LXLIFT
 62
8
 10
-1621.944
 20
-1323.470
 30
3673.000
 70
    32
  0
VERTEX
  8
E17LXLIFT
 62
8
 10
-1623.885
 20
-1319.440
 30
3673.000
 70
    32
  0
VERTEX
  8
E17LXLIFT
 62
8
 10
-1620.024
 20
-1313.815
 30
3673.000
 70
    32
  0
VERTEX
  8
E17LXLIFT
 62
8
 10
-1617.378
 20
-1307.112
 30
3673.000
 70
    32
  0
VERTEX
  8
E17LXLIFT
 62
8
 10
-1614.885
 20
-1303.349
 30
3673.000
 70
    32
  0
VERTEX
  8
E17LXLIFT
 62
8
 10
-1611.128
 20
-1301.931
 30
3673.000
 70
    32
  0
VERTEX
  8
E17LXLIFT
 62
8
 10
-1609.083
 20
-1298.600
 30
3673.000
 70
    32
  0
VERTEX
  8
E17LXLIFT
 62
8
 10
-1603.811
 20
-1297.172
 30
3673.000
 70
    32
  0
VERTEX
  8
E17LXLIFT
 62
8
 10
-1601.301
 20
-1294.483
 30
3673.000
 70
    32
  0
VERTEX
  8
E17LXLIFT
 62
8
 10
-1602.333
 20
-1288.707
 30
3673.000
 70
    32
  0
VERTEX
  8
E17LXLIFT
 62
8
 10
-1597.797
 20
-1285.963
 30
3673.000
 70
    32
  0
VERTEX
  8
E17LXLIFT
 62
8
 10
-1592.203
 20
-1282.127
 30
3673.000
 70
    32
  0
VERTEX
  8
E17LXLIFT
 62
8
 10
-1585.239
 20
-1282.735
 30
3673.000
 70
    32
  0
VERTEX
  8
E17LXLIFT
 62
8
 10
-1582.242
 20
-1286.870
 30
3673.000
 70
    32
  0
VERTEX
  8
E17LXLIFT
 62
8
 10
-1581.673
 20
-1295.158
 30
3673.000
 70
    32
  0
VERTEX
  8
E17LXLIFT
 62
8
 10
-1582.071
 20
-1304.363
 30
3673.000
 70
    32
  0
VERTEX
  8
E17LXLIFT
 62
8
 10
-1580.553
 20
-1313.811
 30
3673.000
 70
    32
  0
VERTEX
  8
E17LXLIFT
 62
8
 10
-1577.035
 20
-1316.264
 30
3673.000
 70
    32
  0
VERTEX
  8
E17LXLIFT
 62
8
 10
-1571.719
 20
-1315.347
 30
3673.000
 70
    32
  0
VERTEX
  8
E17LXLIFT
 62
8
 10
-1568.205
 20
-1320.196
 30
3673.000
 70
    32
  0
VERTEX
  8
E17LXLIFT
 62
8
 10
-1566.855
 20
-1329.113
 30
3673.000
 70
    32
  0
VERTEX
  8
E17LXLIFT
 62
8
 10
-1563.813
 20
-1341.263
 30
3673.000
 70
    32
  0
VERTEX
  8
E17LXLIFT
 62
8
 10
-1560.784
 20
-1353.095
 30
3673.000
 70
    32
  0
VERTEX
  8
E17LXLIFT
 62
8
 10
-1552.903
 20
-1366.523
 30
3673.000
 70
    32
  0
VERTEX
  8
E17LXLIFT
 62
8
 10
-1545.108
 20
-1377.729
 30
3673.000
 70
    32
  0
VERTEX
  8
E17LXLIFT
 62
8
 10
-1539.221
 20
-1383.902
 30
3673.000
 70
    32
  0
VERTEX
  8
E17LXLIFT
 62
8
 10
-1534.620
 20
-1389.051
 30
3673.000
 70
    32
  0
VERTEX
  8
E17LXLIFT
 62
8
 10
-1531.088
 20
-1398.126
 30
3673.000
 70
    32
  0
VERTEX
  8
E17LXLIFT
 62
8
 10
-1523.604
 20
-1405.752
 30
3673.000
 70
    32
  0
VERTEX
  8
E17LXLIFT
 62
8
 10
-1515.219
 20
-1412.072
 30
3673.000
 70
    32
  0
VERTEX
  8
E17LXLIFT
 62
8
 10
-1506.056
 20
-1418.264
 30
3673.000
 70
    32
  0
VERTEX
  8
E17LXLIFT
 62
8
 10
-1500.084
 20
-1420.352
 30
3673.000
 70
    32
  0
SEQEND
  8
E17LXLIFT
  0
POLYLINE
  8
E17LXLIFT
 62
1
 66
     1
 70
     9
  0
VERTEX
  8
E17LXLIFT
 62
1
 10
-1501.394
 20
-1430.270
 30
3683.000
 70
    32
  0
VERTEX
  8
E17LXLIFT
 62
1
 10
-1508.377
 20
-1436.091
 30
3683.000
 70
    32
  0
VERTEX
  8
E17LXLIFT
 62
1
 10
-1516.223
 20
-1439.819
 30
3683.000
 70
    32
  0
VERTEX
  8
E17LXLIFT
 62
1
 10
-1522.650
 20
-1442.954
 30
3683.000
 70
    32
  0
VERTEX
  8
E17LXLIFT
 62
1
 10
-1528.168
 20
-1436.840
 30
3683.000
 70
    32
  0
VERTEX
  8
E17LXLIFT
 62
1
 10
-1533.972
 20
-1430.933
 30
3683.000
 70
    32
  0
VERTEX
  8
E17LXLIFT
 62
1
 10
-1540.713
 20
-1428.532
 30
3683.000
 70
    32
  0
VERTEX
  8
E17LXLIFT
 62
1
 10
-1544.947
 20
-1424.641
 30
3683.000
 70
    32
  0
VERTEX
  8
E17LXLIFT
 62
1
 10
-1544.821
 20
-1419.112
 30
3683.000
 70
    32
  0
VERTEX
  8
E17LXLIFT
 62
1
 10
-1547.098
 20
-1414.020
 30
3683.000
 70
    32
  0
VERTEX
  8
E17LXLIFT
 62
1
 10
-1553.049
 20
-1407.458
 30
3683.000
 70
    32
  0
VERTEX
  8
E17LXLIFT
 62
1
 10
-1558.487
 20
-1399.654
 30
3683.000
 70
    32
  0
VERTEX
  8
E17LXLIFT
 62
1
 10
-1563.530
 20
-1392.544
 30
3683.000
 70
    32
  0
VERTEX
  8
E17LXLIFT
 62
1
 10
-1568.673
 20
-1386.048
 30
3683.000
 70
    32
  0
VERTEX
  8
E17LXLIFT
 62
1
 10
-1574.303
 20
-1381.429
 30
3683.000
 70
    32
  0
VERTEX
  8
E17LXLIFT
 62
1
 10
-1576.425
 20
-1376.551
 30
3683.000
 70
    32
  0
VERTEX
  8
E17LXLIFT
 62
1
 10
-1576.208
 20
-1370.848
 30
3683.000
 70
    32
  0
VERTEX
  8
E17LXLIFT
 62
1
 10
-1581.886
 20
-1363.762
 30
3683.000
 70
    32
  0
VERTEX
  8
E17LXLIFT
 62
1
 10
-1588.196
 20
-1358.657
 30
3683.000
 70
    32
  0
VERTEX
  8
E17LXLIFT
 62
1
 10
-1593.575
 20
-1350.484
 30
3683.000
 70
    32
  0
VERTEX
  8
E17LXLIFT
 62
1
 10
-1596.662
 20
-1342.173
 30
3683.000
 70
    32
  0
VERTEX
  8
E17LXLIFT
 62
1
 10
-1604.949
 20
-1335.238
 30
3683.000
 70
    32
  0
VERTEX
  8
E17LXLIFT
 62
1
 10
-1614.648
 20
-1328.456
 30
3683.000
 70
    32
  0
VERTEX
  8
E17LXLIFT
 62
1
 10
-1620.944
 20
-1322.470
 30
3683.000
 70
    32
  0
VERTEX
  8
E17LXLIFT
 62
1
 10
-1622.885
 20
-1318.440
 30
3683.000
 70
    32
  0
VERTEX
  8
E17LXLIFT
 62
1
 10
-1619.024
 20
-1312.815
 30
3683.000
 70
    32
  0
VERTEX
  8
E17LXLIFT
 62
1
 10
-1616.378
 20
-1306.112
 30
3683.000
 70
    32
  0
VERTEX
  8
E17LXLIFT
 62
1
 10
-1613.885
 20
-1302.349
 30
3683.000
 70
    32
  0
VERTEX
  8
E17LXLIFT
 62
1
 10
-1610.128
 20
-1300.931
 30
3683.000
 70
    32
  0
VERTEX
  8
E17LXLIFT
 62
1
 10
-1608.083
 20
-1297.600
 30
3683.000
 70
    32
  0
VERTEX
  8
E17LXLIFT
 62
1
 10
-1602.811
 20
-1296.172
 30
3683.000
 70
    32
  0
VERTEX
  8
E17LXLIFT
 62
1
 10
-1600.301
 20
-1293.483
 30
3683.000
 70
    32
  0
VERTEX
  8
E17LXLIFT
 62
1
 10
-1601.333
 20
-1287.707
 30
3683.000
 70
    32
  0
VERTEX
  8
E17LXLIFT
 62
1
 10
-1596.797
 20
-1284.963
 30
3683.000
 70
    32
  0
VERTEX
  8
E17LXLIFT
 62
1
 10
-1591.203
 20
-1281.127
 30
3683.000
 70
    32
  0
VERTEX
  8
E17LXLIFT
 62
1
 10
-1584.239
 20
-1281.735
 30
3683.000
 70
    32
  0
VERTEX
  8
E17LXLIFT
 62
1
 10
-1581.242
 20
-1285.870
 30
3683.000
 70
    32
  0
VERTEX
  8
E17LXLIFT
 62
1
 10
-1580.673
 20
-1294.158
 30
3683.000
 70
    32
  0
VERTEX
  8
E17LXLIFT
 62
1
 10
-1581.071
 20
-1303.363
 30
3683.000
 70
    32
  0
VERTEX
  8
E17LXLIFT
 62
1
 10
-1579.553
 20
-1312.811
 30
3683.000
 70
    32
  0
VERTEX
  8
E17LXLIFT
 62
1
 10
-1576.035
 20
-1315.264
 30
3683.000
 70
    32
  0
VERTEX
  8
E17LXLIFT
 62
1
 10
-1570.719
 20
-1314.347
 30
3683.000
 70
    32
  0
VERTEX
  8
E17LXLIFT
 62
1
 10
-1567.205
 20
-1319.196
 30
3683.000
 70
    32
  0
VERTEX
  8
E17LXLIFT
 62
1
 10
-1565.855
 20
-1328.113
 30
3683.000
 70
    32
  0
VERTEX
  8
E17LXLIFT
 62
1
 10
-1562.813
 20
-1340.263
 30
3683.000
 70
    32
  0
VERTEX
  8
E17LXLIFT
 62
1
 10
-1559.784
 20
-1352.095
 30
3683.000
 70
    32
  0
VERTEX
  8
E17LXLIFT
 62
1
 10
-1551.903
 20
-1365.523
 30
3683.000
 70
    32
  0
VERTEX
  8
E17LXLIFT
 62
1
 10
-1544.108
 20
-1376.729
 30
3683.000
 70
    32
  0
VERTEX
  8
E17LXLIFT
 62
1
 10
-1538.221
 20
-1382.902
 30
3683.000
 70
    32
  0
VERTEX
  8
E17LXLIFT
 62
1
 10
-1533.620
 20
-1388.051
 30
3683.000
 70
    32
  0
VERTEX
  8
E17LXLIFT
 62
1
 10
-1530.088
 20
-1397.126
 30
3683.000
 70
    32
  0
VERTEX
  8
E17LXLIFT
 62
1
 10
-1522.604
 20
-1404.752
 30
3683.000
 70
    32
  0
VERTEX
  8
E17LXLIFT
 62
1
 10
-1514.219
 20
-1411.072
 30
3683.000
 70
    32
  0
VERTEX
  8
E17LXLIFT
 62
1
 10
-1505.056
 20
-1417.264
 30
3683.000
 70
    32
  0
VERTEX
  8
E17LXLIFT
 62
1
 10
-1499.084
 20
-1419.352
 30
3683.000
 70
    32
  0
SEQEND
  8
E17LXLIFT
  0
POLYLINE
  8
E17LXLIFT
 62
1
 66
     1
 70
     9
  0
VERTEX
  8
E17LXLIFT
 62
1
 10
164.200
 20
-3980.218
 30
3525.106
 70
    32
  0
VERTEX
  8
E17LXLIFT
 62
1
 10
147.305
 20
-3964.034
 30
3525.159
 70
    32
  0
VERTEX
  8
E17LXLIFT
 62
1
 10
126.136
 20
-3933.836
 30
3525.239
 70
    32
  0
VERTEX
  8
E17LXLIFT
 62
1
 10
113.035
 20
-3917.553
 30
3525.285
 70
    32
  0
VERTEX
  8
E17LXLIFT
 62
1
 10
96.504
 20
-3905.426
 30
3525.333
 70
    32
  0
VERTEX
  8
E17LXLIFT
 62
1
 10
79.052
 20
-3879.011
 30
3525.400
 70
    32
  0
VERTEX
  8
E17LXLIFT
 62
1
 10
-2.954
 20
-3797.468
 30
3525.664
 70
    32
  0
VERTEX
  8
E17LXLIFT
 62
1
 10
-8.249
 20
-3796.512
 30
3525.675
 70
    32
  0
VERTEX
  8
E17LXLIFT
 62
1
 10
-9.059
 20
-3790.869
 30
3525.684
 70
    32
  0
VERTEX
  8
E17LXLIFT
 62
1
 10
-40.374
 20
-3759.994
 30
3525.784
 70
    32
  0
VERTEX
  8
E17LXLIFT
 62
1
 10
-46.284
 20
-3760.275
 30
3525.796
 70
    32
  0
VERTEX
  8
E17LXLIFT
 62
1
 10
-45.594
 20
-3754.716
 30
3525.801
 70
    32
  0
VERTEX
  8
E17LXLIFT
 62
1
 10
-75.761
 20
-3724.102
 30
3525.899
 70
    32
  0
VERTEX
  8
E17LXLIFT
 62
1
 10
-80.885
 20
-3721.647
 30
3525.912
 70
    32
  0
VERTEX
  8
E17LXLIFT
 62
1
 10
-81.246
 20
-3718.649
 30
3525.917
 70
    32
  0
VERTEX
  8
E17LXLIFT
 62
1
 10
-87.085
 20
-3712.755
 30
3525.936
 70
    32
  0
VERTEX
  8
E17LXLIFT
 62
1
 10
-128.444
 20
-3654.826
 30
3526.089
 70
    32
  0
VERTEX
  8
E17LXLIFT
 62
1
 10
-128.533
 20
-3623.422
 30
3526.127
 70
    32
  0
VERTEX
  8
E17LXLIFT
 62
1
 10
-129.978
 20
-3611.517
 30
3526.144
 70
    32
  0
VERTEX
  8
E17LXLIFT
 62
1
 10
-131.574
 20
-3608.611
 30
3526.151
 70
    32
  0
VERTEX
  8
E17LXLIFT
 62
1
 10
-244.233
 20
-3449.172
 30
3526.149
 70
    32
  0
VERTEX
  8
E17LXLIFT
 62
1
 10
-247.495
 20
-3447.839
 30
3526.137
 70
    32
  0
VERTEX
  8
E17LXLIFT
 62
1
 10
-250.721
 20
-3442.273
 30
3526.125
 70
    32
  0
VERTEX
  8
E17LXLIFT
 62
1
 10
-255.960
 20
-3419.347
 30
3526.104
 70
    32
  0
VERTEX
  8
E17LXLIFT
 62
1
 10
-262.467
 20
-3402.666
 30
3526.079
 70
    32
  0
VERTEX
  8
E17LXLIFT
 62
1
 10
-290.023
 20
-3356.099
 30
3525.976
 70
    32
  0
VERTEX
  8
E17LXLIFT
 62
1
 10
-309.315
 20
-3326.927
 30
3525.903
 70
    32
  0
VERTEX
  8
E17LXLIFT
 62
1
 10
-312.869
 20
-3317.308
 30
3525.890
 70
    32
  0
VERTEX
  8
E17LXLIFT
 62
1
 10
-313.964
 20
-3308.760
 30
3525.885
 70
    32
  0
VERTEX
  8
E17LXLIFT
 62
1
 10
-314.618
 20
-3284.892
 30
3525.880
 70
    32
  0
VERTEX
  8
E17LXLIFT
 62
1
 10
-321.647
 20
-3267.063
 30
3525.853
 70
    32
  0
VERTEX
  8
E17LXLIFT
 62
1
 10
-322.813
 20
-3255.521
 30
3525.848
 70
    32
  0
VERTEX
  8
E17LXLIFT
 62
1
 10
-326.945
 20
-3239.206
 30
3525.831
 70
    32
  0
VERTEX
  8
E17LXLIFT
 62
1
 10
-348.685
 20
-3207.114
 30
3525.750
 70
    32
  0
VERTEX
  8
E17LXLIFT
 62
1
 10
-353.000
 20
-3191.943
 30
3525.733
 70
    32
  0
VERTEX
  8
E17LXLIFT
 62
1
 10
-354.022
 20
-3186.037
 30
3525.729
 70
    32
  0
VERTEX
  8
E17LXLIFT
 62
1
 10
-351.165
 20
-3148.892
 30
3525.735
 70
    32
  0
VERTEX
  8
E17LXLIFT
 62
1
 10
-344.297
 20
-3149.109
 30
3525.760
 70
    32
  0
VERTEX
  8
E17LXLIFT
 62
1
 10
-346.108
 20
-3187.844
 30
3525.757
 70
    32
  0
VERTEX
  8
E17LXLIFT
 62
1
 10
-343.461
 20
-3202.125
 30
3525.768
 70
    32
  0
VERTEX
  8
E17LXLIFT
 62
1
 10
-319.366
 20
-3238.193
 30
3525.858
 70
    32
  0
VERTEX
  8
E17LXLIFT
 62
1
 10
-312.589
 20
-3269.053
 30
3525.886
 70
    32
  0
VERTEX
  8
E17LXLIFT
 62
1
 10
-306.786
 20
-3285.730
 30
3525.908
 70
    32
  0
VERTEX
  8
E17LXLIFT
 62
1
 10
-304.754
 20
-3314.890
 30
3525.918
 70
    32
  0
VERTEX
  8
E17LXLIFT
 62
1
 10
-298.412
 20
-3329.808
 30
3525.943
 70
    32
  0
VERTEX
  8
E17LXLIFT
 62
1
 10
-283.060
 20
-3354.906
 30
3526.000
 70
    32
  0
VERTEX
  8
E17LXLIFT
 62
1
 10
-275.021
 20
-3365.784
 30
3526.030
 70
    32
  0
VERTEX
  8
E17LXLIFT
 62
1
 10
-253.148
 20
-3405.274
 30
3526.113
 70
    32
  0
VERTEX
  8
E17LXLIFT
 62
1
 10
-246.755
 20
-3426.533
 30
3526.138
 70
    32
  0
VERTEX
  8
E17LXLIFT
 62
1
 10
-245.061
 20
-3438.079
 30
3526.145
 70
    32
  0
VERTEX
  8
E17LXLIFT
 62
1
 10
-239.838
 20
-3443.779
 30
3526.164
 70
    32
  0
VERTEX
  8
E17LXLIFT
 62
1
 10
-127.890
 20
-3601.278
 30
3526.152
 70
    32
  0
VERTEX
  8
E17LXLIFT
 62
1
 10
-122.646
 20
-3615.113
 30
3526.125
 70
    32
  0
VERTEX
  8
E17LXLIFT
 62
1
 10
-121.192
 20
-3630.282
 30
3526.104
 70
    32
  0
VERTEX
  8
E17LXLIFT
 62
1
 10
-121.841
 20
-3650.309
 30
3526.081
 70
    32
  0
VERTEX
  8
E17LXLIFT
 62
1
 10
-75.436
 20
-3714.310
 30
3525.910
 70
    32
  0
VERTEX
  8
E17LXLIFT
 62
1
 10
-70.404
 20
-3715.707
 30
3525.898
 70
    32
  0
VERTEX
  8
E17LXLIFT
 62
1
 10
-70.656
 20
-3720.118
 30
3525.893
 70
    32
  0
VERTEX
  8
E17LXLIFT
 62
1
 10
-38.636
 20
-3750.727
 30
3525.792
 70
    32
  0
VERTEX
  8
E17LXLIFT
 62
1
 10
-33.960
 20
-3750.978
 30
3525.782
 70
    32
  0
VERTEX
  8
E17LXLIFT
 62
1
 10
-34.476
 20
-3755.478
 30
3525.778
 70
    32
  0
VERTEX
  8
E17LXLIFT
 62
1
 10
-5.372
 20
-3784.507
 30
3525.684
 70
    32
  0
VERTEX
  8
E17LXLIFT
 62
1
 10
1.602
 20
-3786.340
 30
3525.668
 70
    32
  0
VERTEX
  8
E17LXLIFT
 62
1
 10
4.979
 20
-3795.064
 30
3525.650
 70
    32
  0
VERTEX
  8
E17LXLIFT
 62
1
 10
72.830
 20
-3862.533
 30
3525.432
 70
    32
  0
VERTEX
  8
E17LXLIFT
 62
1
 10
87.699
 20
-3879.957
 30
3525.381
 70
    32
  0
VERTEX
  8
E17LXLIFT
 62
1
 10
97.977
 20
-3895.895
 30
3525.341
 70
    32
  0
VERTEX
  8
E17LXLIFT
 62
1
 10
115.572
 20
-3910.048
 30
3525.288
 70
    32
  0
VERTEX
  8
E17LXLIFT
 62
1
 10
124.507
 20
-3919.109
 30
3525.260
 70
    32
  0
VERTEX
  8
E17LXLIFT
 62
1
 10
149.399
 20
-3955.912
 30
3525.165
 70
    32
  0
VERTEX
  8
E17LXLIFT
 62
1
 10
163.465
 20
-3969.810
 30
3525.120
 70
    32
  0
VERTEX
  8
E17LXLIFT
 62
1
 10
167.881
 20
-3971.739
 30
3525.109
 70
    32
  0
SEQEND
  8
E17LXLIFT
  0
POLYLINE
  8
E17LXLIFT
 62
5
 66
     1
 70
     9
  0
VERTEX
  8
E17LXLIFT
 62
5
 10
733.430
 20
-3184.808
 30
3524.906
 70
    32
  0
VERTEX
  8
E17LXLIFT
 62
5
 10
736.471
 20
-3181.837
 30
3524.903
 70
    32
  0
VERTEX
  8
E17LXLIFT
 62
5
 10
743.051
 20
-3192.133
 30
3524.877
 70
    32
  0
VERTEX
  8
E17LXLIFT
 62
5
 10
745.117
 20
-3191.620
 30
3524.874
 70
    32
  0
VERTEX
  8
E17LXLIFT
 62
5
 10
750.115
 20
-3193.392
 30
3524.861
 70
    32
  0
VERTEX
  8
E17LXLIFT
 62
5
 10
761.999
 20
-3204.993
 30
3524.823
 70
    32
  0
VERTEX
  8
E17LXLIFT
 62
5
 10
764.813
 20
-3206.135
 30
3524.816
 70
    32
  0
VERTEX
  8
E17LXLIFT
 62
5
 10
765.288
 20
-3207.444
 30
3524.814
 70
    32
  0
VERTEX
  8
E17LXLIFT
 62
5
 10
772.405
 20
-3209.336
 30
3524.797
 70
    32
  0
VERTEX
  8
E17LXLIFT
 62
5
 10
774.644
 20
-3212.731
 30
3524.789
 70
    32
  0
VERTEX
  8
E17LXLIFT
 62
5
 10
776.581
 20
-3218.725
 30
3524.777
 70
    32
  0
VERTEX
  8
E17LXLIFT
 62
5
 10
780.461
 20
-3224.192
 30
3524.763
 70
    32
  0
VERTEX
  8
E17LXLIFT
 62
5
 10
780.704
 20
-3228.045
 30
3524.758
 70
    32
  0
VERTEX
  8
E17LXLIFT
 62
5
 10
792.021
 20
-3242.903
 30
3524.717
 70
    32
  0
VERTEX
  8
E17LXLIFT
 62
5
 10
784.402
 20
-3250.734
 30
3524.723
 70
    32
  0
VERTEX
  8
E17LXLIFT
 62
5
 10
795.875
 20
-3270.188
 30
3524.677
 70
    32
  0
VERTEX
  8
E17LXLIFT
 62
5
 10
805.358
 20
-3263.577
 30
3524.665
 70
    32
  0
VERTEX
  8
E17LXLIFT
 62
5
 10
815.362
 20
-3274.081
 30
3524.633
 70
    32
  0
VERTEX
  8
E17LXLIFT
 62
5
 10
821.451
 20
-3305.890
 30
3524.582
 70
    32
  0
VERTEX
  8
E17LXLIFT
 62
5
 10
827.620
 20
-3324.038
 30
3524.548
 70
    32
  0
VERTEX
  8
E17LXLIFT
 62
5
 10
841.934
 20
-3347.646
 30
3524.491
 70
    32
  0
VERTEX
  8
E17LXLIFT
 62
5
 10
853.173
 20
-3363.313
 30
3524.449
 70
    32
  0
VERTEX
  8
E17LXLIFT
 62
5
 10
850.752
 20
-3375.382
 30
3524.439
 70
    32
  0
VERTEX
  8
E17LXLIFT
 62
5
 10
840.997
 20
-3375.691
 30
3524.459
 70
    32
  0
VERTEX
  8
E17LXLIFT
 62
5
 10
840.872
 20
-3387.026
 30
3524.445
 70
    32
  0
VERTEX
  8
E17LXLIFT
 62
5
 10
841.520
 20
-3389.547
 30
3524.441
 70
    32
  0
VERTEX
  8
E17LXLIFT
 62
5
 10
840.566
 20
-3396.145
 30
3524.435
 70
    32
  0
VERTEX
  8
E17LXLIFT
 62
5
 10
838.842
 20
-3399.645
 30
3524.434
 70
    32
  0
VERTEX
  8
E17LXLIFT
 62
5
 10
830.081
 20
-3407.594
 30
3524.443
 70
    32
  0
VERTEX
  8
E17LXLIFT
 62
5
 10
828.032
 20
-3407.419
 30
3524.447
 70
    32
  0
VERTEX
  8
E17LXLIFT
 62
5
 10
826.180
 20
-3412.032
 30
3524.445
 70
    32
  0
VERTEX
  8
E17LXLIFT
 62
5
 10
819.312
 20
-3401.515
 30
3524.472
 70
    32
  0
VERTEX
  8
E17LXLIFT
 62
5
 10
822.894
 20
-3397.667
 30
3524.469
 70
    32
  0
VERTEX
  8
E17LXLIFT
 62
5
 10
824.873
 20
-3387.112
 30
3524.478
 70
    32
  0
VERTEX
  8
E17LXLIFT
 62
5
 10
820.214
 20
-3369.453
 30
3524.508
 70
    32
  0
VERTEX
  8
E17LXLIFT
 62
5
 10
804.092
 20
-3341.433
 30
3524.575
 70
    32
  0
VERTEX
  8
E17LXLIFT
 62
5
 10
761.521
 20
-3282.000
 30
3524.732
 70
    32
  0
VERTEX
  8
E17LXLIFT
 62
5
 10
770.849
 20
-3273.490
 30
3524.723
 70
    32
  0
VERTEX
  8
E17LXLIFT
 62
5
 10
776.476
 20
-3262.292
 30
3524.725
 70
    32
  0
VERTEX
  8
E17LXLIFT
 62
5
 10
768.633
 20
-3251.537
 30
3524.754
 70
    32
  0
VERTEX
  8
E17LXLIFT
 62
5
 10
749.580
 20
-3254.152
 30
3524.790
 70
    32
  0
VERTEX
  8
E17LXLIFT
 62
5
 10
748.586
 20
-3253.234
 30
3524.793
 70
    32
  0
VERTEX
  8
E17LXLIFT
 62
5
 10
744.601
 20
-3245.736
 30
3524.810
 70
    32
  0
VERTEX
  8
E17LXLIFT
 62
5
 10
739.570
 20
-3239.383
 30
3524.828
 70
    32
  0
VERTEX
  8
E17LXLIFT
 62
5
 10
717.556
 20
-3195.693
 30
3524.925
 70
    32
  0
VERTEX
  8
E17LXLIFT
 62
5
 10
728.348
 20
-3188.607
 30
3524.911
 70
    32
  0
SEQEND
  8
E17LXLIFT
  0
POLYLINE
  8
E17LXLIFT
 62
5
 66
     1
 70
     9
  0
VERTEX
  8
E17LXLIFT
 62
5
 10
705.302
 20
-3247.756
 30
3524.887
 70
    32
  0
VERTEX
  8
E17LXLIFT
 62
5
 10
707.809
 20
-3249.929
 30
3524.879
 70
    32
  0
VERTEX
  8
E17LXLIFT
 62
5
 10
717.987
 20
-3250.295
 30
3524.858
 70
    32
  0
VERTEX
  8
E17LXLIFT
 62
5
 10
722.471
 20
-3253.262
 30
3524.846
 70
    32
  0
VERTEX
  8
E17LXLIFT
 62
5
 10
731.886
 20
-3254.794
 30
3524.825
 70
    32
  0
VERTEX
  8
E17LXLIFT
 62
5
 10
734.811
 20
-3261.467
 30
3524.811
 70
    32
  0
VERTEX
  8
E17LXLIFT
 62
5
 10
735.718
 20
-3267.153
 30
3524.802
 70
    32
  0
VERTEX
  8
E17LXLIFT
 62
5
 10
733.236
 20
-3276.646
 30
3524.796
 70
    32
  0
VERTEX
  8
E17LXLIFT
 62
5
 10
728.368
 20
-3279.153
 30
3524.803
 70
    32
  0
VERTEX
  8
E17LXLIFT
 62
5
 10
726.040
 20
-3282.457
 30
3524.803
 70
    32
  0
VERTEX
  8
E17LXLIFT
 62
5
 10
723.697
 20
-3294.538
 30
3524.794
 70
    32
  0
VERTEX
  8
E17LXLIFT
 62
5
 10
735.105
 20
-3321.571
 30
3524.738
 70
    32
  0
VERTEX
  8
E17LXLIFT
 62
5
 10
739.565
 20
-3337.702
 30
3524.710
 70
    32
  0
VERTEX
  8
E17LXLIFT
 62
5
 10
745.200
 20
-3346.947
 30
3524.687
 70
    32
  0
VERTEX
  8
E17LXLIFT
 62
5
 10
753.776
 20
-3351.392
 30
3524.665
 70
    32
  0
VERTEX
  8
E17LXLIFT
 62
5
 10
762.088
 20
-3359.192
 30
3524.638
 70
    32
  0
VERTEX
  8
E17LXLIFT
 62
5
 10
763.907
 20
-3364.043
 30
3524.629
 70
    32
  0
VERTEX
  8
E17LXLIFT
 62
5
 10
763.540
 20
-3368.828
 30
3524.624
 70
    32
  0
VERTEX
  8
E17LXLIFT
 62
5
 10
760.772
 20
-3372.144
 30
3524.626
 70
    32
  0
VERTEX
  8
E17LXLIFT
 62
5
 10
758.951
 20
-3378.642
 30
3524.622
 70
    32
  0
VERTEX
  8
E17LXLIFT
 62
5
 10
761.085
 20
-3386.727
 30
3524.608
 70
    32
  0
VERTEX
  8
E17LXLIFT
 62
5
 10
771.278
 20
-3409.105
 30
3524.560
 70
    32
  0
VERTEX
  8
E17LXLIFT
 62
5
 10
775.005
 20
-3414.805
 30
3524.546
 70
    32
  0
VERTEX
  8
E17LXLIFT
 62
5
 10
786.771
 20
-3408.521
 30
3524.529
 70
    32
  0
VERTEX
  8
E17LXLIFT
 62
5
 10
792.817
 20
-3412.610
 30
3524.512
 70
    32
  0
VERTEX
  8
E17LXLIFT
 62
5
 10
809.088
 20
-3438.264
 30
3524.448
 70
    32
  0
VERTEX
  8
E17LXLIFT
 62
5
 10
809.978
 20
-3444.638
 30
3524.439
 70
    32
  0
VERTEX
  8
E17LXLIFT
 62
5
 10
808.615
 20
-3453.132
 30
3524.432
 70
    32
  0
VERTEX
  8
E17LXLIFT
 62
5
 10
811.060
 20
-3462.320
 30
3524.416
 70
    32
  0
VERTEX
  8
E17LXLIFT
 62
5
 10
803.826
 20
-3467.374
 30
3524.424
 70
    32
  0
VERTEX
  8
E17LXLIFT
 62
5
 10
797.961
 20
-3462.806
 30
3524.442
 70
    32
  0
VERTEX
  8
E17LXLIFT
 62
5
 10
791.763
 20
-3461.647
 30
3524.456
 70
    32
  0
VERTEX
  8
E17LXLIFT
 62
5
 10
787.803
 20
-3461.187
 30
3524.464
 70
    32
  0
VERTEX
  8
E17LXLIFT
 62
5
 10
783.901
 20
-3462.929
 30
3524.470
 70
    32
  0
VERTEX
  8
E17LXLIFT
 62
5
 10
778.035
 20
-3469.709
 30
3524.474
 70
    32
  0
VERTEX
  8
E17LXLIFT
 62
5
 10
772.130
 20
-3473.036
 30
3524.482
 70
    32
  0
VERTEX
  8
E17LXLIFT
 62
5
 10
765.888
 20
-3469.553
 30
3524.499
 70
    32
  0
VERTEX
  8
E17LXLIFT
 62
5
 10
758.313
 20
-3460.271
 30
3524.525
 70
    32
  0
VERTEX
  8
E17LXLIFT
 62
5
 10
747.881
 20
-3436.172
 30
3524.575
 70
    32
  0
VERTEX
  8
E17LXLIFT
 62
5
 10
750.522
 20
-3433.407
 30
3524.573
 70
    32
  0
VERTEX
  8
E17LXLIFT
 62
5
 10
756.363
 20
-3429.006
 30
3524.566
 70
    32
  0
VERTEX
  8
E17LXLIFT
 62
5
 10
760.843
 20
-3424.447
 30
3524.563
 70
    32
  0
VERTEX
  8
E17LXLIFT
 62
5
 10
764.287
 20
-3418.012
 30
3524.564
 70
    32
  0
VERTEX
  8
E17LXLIFT
 62
5
 10
756.295
 20
-3398.273
 30
3524.603
 70
    32
  0
VERTEX
  8
E17LXLIFT
 62
5
 10
751.027
 20
-3381.546
 30
3524.634
 70
    32
  0
VERTEX
  8
E17LXLIFT
 62
5
 10
742.012
 20
-3368.460
 30
3524.668
 70
    32
  0
VERTEX
  8
E17LXLIFT
 62
5
 10
739.269
 20
-3361.307
 30
3524.682
 70
    32
  0
VERTEX
  8
E17LXLIFT
 62
5
 10
732.749
 20
-3349.953
 30
3524.709
 70
    32
  0
VERTEX
  8
E17LXLIFT
 62
5
 10
733.416
 20
-3345.829
 30
3524.713
 70
    32
  0
VERTEX
  8
E17LXLIFT
 62
5
 10
727.072
 20
-3332.426
 30
3524.742
 70
    32
  0
VERTEX
  8
E17LXLIFT
 62
5
 10
725.176
 20
-3317.973
 30
3524.763
 70
    32
  0
VERTEX
  8
E17LXLIFT
 62
5
 10
717.085
 20
-3299.100
 30
3524.802
 70
    32
  0
VERTEX
  8
E17LXLIFT
 62
5
 10
714.266
 20
-3287.736
 30
3524.821
 70
    32
  0
VERTEX
  8
E17LXLIFT
 62
5
 10
711.837
 20
-3283.817
 30
3524.831
 70
    32
  0
VERTEX
  8
E17LXLIFT
 62
5
 10
702.400
 20
-3275.448
 30
3524.860
 70
    32
  0
VERTEX
  8
E17LXLIFT
 62
5
 10
699.372
 20
-3270.205
 30
3524.872
 70
    32
  0
VERTEX
  8
E17LXLIFT
 62
5
 10
699.014
 20
-3264.646
 30
3524.880
 70
    32
  0
VERTEX
  8
E17LXLIFT
 62
5
 10
698.446
 20
-3257.118
 30
3524.890
 70
    32
  0
VERTEX
  8
E17LXLIFT
 62
5
 10
698.379
 20
-3251.216
 30
3524.897
 70
    32
  0
SEQEND
  8
E17LXLIFT
  0
POLYLINE
  8
E17LXLIFT
 62
11
 66
     1
 70
     9
  0
VERTEX
  8
E17LXLIFT
 62
11
 10
-7.537
 20
-1283.150
 30
3526.577
 70
    32
  0
VERTEX
  8
E17LXLIFT
 62
11
 10
-2.402
 20
-1286.074
 30
3526.569
 70
    32
  0
VERTEX
  8
E17LXLIFT
 62
11
 10
8.292
 20
-1289.156
 30
3526.548
 70
    32
  0
VERTEX
  8
E17LXLIFT
 62
11
 10
10.764
 20
-1292.800
 30
3526.548
 70
    32
  0
VERTEX
  8
E17LXLIFT
 62
11
 10
13.301
 20
-1308.486
 30
3526.568
 70
    32
  0
VERTEX
  8
E17LXLIFT
 62
11
 10
17.515
 20
-1324.767
 30
3526.586
 70
    32
  0
VERTEX
  8
E17LXLIFT
 62
11
 10
29.095
 20
-1320.067
 30
3526.549
 70
    32
  0
VERTEX
  8
E17LXLIFT
 62
11
 10
29.769
 20
-1317.772
 30
3526.544
 70
    32
  0
VERTEX
  8
E17LXLIFT
 62
11
 10
35.170
 20
-1313.836
 30
3526.523
 70
    32
  0
VERTEX
  8
E17LXLIFT
 62
11
 10
41.488
 20
-1311.524
 30
3526.504
 70
    32
  0
VERTEX
  8
E17LXLIFT
 62
11
 10
47.649
 20
-1305.116
 30
3526.478
 70
    32
  0
VERTEX
  8
E17LXLIFT
 62
11
 10
50.846
 20
-1299.326
 30
3526.460
 70
    32
  0
VERTEX
  8
E17LXLIFT
 62
11
 10
47.183
 20
-1293.272
 30
3526.459
 70
    32
  0
VERTEX
  8
E17LXLIFT
 62
11
 10
40.696
 20
-1276.633
 30
3526.447
 70
    32
  0
VERTEX
  8
E17LXLIFT
 62
11
 10
36.298
 20
-1269.480
 30
3526.446
 70
    32
  0
VERTEX
  8
E17LXLIFT
 62
11
 10
34.059
 20
-1260.664
 30
3526.436
 70
    32
  0
VERTEX
  8
E17LXLIFT
 62
11
 10
26.028
 20
-1243.918
 30
3526.428
 70
    32
  0
VERTEX
  8
E17LXLIFT
 62
11
 10
18.803
 20
-1212.190
 30
3526.392
 70
    32
  0
VERTEX
  8
E17LXLIFT
 62
11
 10
19.917
 20
-1200.031
 30
3526.368
 70
    32
  0
VERTEX
  8
E17LXLIFT
 62
11
 10
12.161
 20
-1189.712
 30
3526.370
 70
    32
  0
VERTEX
  8
E17LXLIFT
 62
11
 10
7.195
 20
-1180.188
 30
3526.366
 70
    32
  0
VERTEX
  8
E17LXLIFT
 62
11
 10
3.971
 20
-1178.065
 30
3526.370
 70
    32
  0
VERTEX
  8
E17LXLIFT
 62
11
 10
1.197
 20
-1168.678
 30
3526.361
 70
    32
  0
VERTEX
  8
E17LXLIFT
 62
11
 10
-17.602
 20
-1156.969
 30
3526.388
 70
    32
  0
VERTEX
  8
E17LXLIFT
 62
11
 10
-57.457
 20
-1138.525
 30
3526.455
 70
    32
  0
VERTEX
  8
E17LXLIFT
 62
11
 10
-66.590
 20
-1140.011
 30
3526.480
 70
    32
  0
VERTEX
  8
E17LXLIFT
 62
11
 10
-68.528
 20
-1144.968
 30
3526.494
 70
    32
  0
VERTEX
  8
E17LXLIFT
 62
11
 10
-58.025
 20
-1157.212
 30
3526.488
 70
    32
  0
VERTEX
  8
E17LXLIFT
 62
11
 10
-56.724
 20
-1164.611
 30
3526.498
 70
    32
  0
VERTEX
  8
E17LXLIFT
 62
11
 10
-54.629
 20
-1169.220
 30
3526.500
 70
    32
  0
VERTEX
  8
E17LXLIFT
 62
11
 10
-55.565
 20
-1175.085
 30
3526.513
 70
    32
  0
VERTEX
  8
E17LXLIFT
 62
11
 10
-46.935
 20
-1205.443
 30
3526.543
 70
    32
  0
VERTEX
  8
E17LXLIFT
 62
11
 10
-43.961
 20
-1210.941
 30
3526.545
 70
    32
  0
VERTEX
  8
E17LXLIFT
 62
11
 10
-37.230
 20
-1214.977
 30
3526.535
 70
    32
  0
VERTEX
  8
E17LXLIFT
 62
11
 10
-29.205
 20
-1212.442
 30
3526.511
 70
    32
  0
VERTEX
  8
E17LXLIFT
 62
11
 10
-18.404
 20
-1215.882
 30
3526.490
 70
    32
  0
VERTEX
  8
E17LXLIFT
 62
11
 10
-2.066
 20
-1255.602
 30
3526.517
 70
    32
  0
VERTEX
  8
E17LXLIFT
 62
11
 10
-3.199
 20
-1261.943
 30
3526.530
 70
    32
  0
VERTEX
  8
E17LXLIFT
 62
11
 10
-9.323
 20
-1269.122
 30
3526.558
 70
    32
  0
VERTEX
  8
E17LXLIFT
 62
11
 10
-10.449
 20
-1275.773
 30
3526.572
 70
    32
  0
SEQEND
  8
E17LXLIFT
  0
POLYLINE
  8
E17LXLIFT
 62
1
 66
     1
 70
     9
  0
VERTEX
  8
E17LXLIFT
 62
1
 10
-6.537
 20
-1282.150
 30
3536.577
 70
    32
  0
VERTEX
  8
E17LXLIFT
 62
1
 10
-1.402
 20
-1285.074
 30
3536.569
 70
    32
  0
VERTEX
  8
E17LXLIFT
 62
1
 10
9.292
 20
-1288.156
 30
3536.548
 70
    32
  0
VERTEX
  8
E17LXLIFT
 62
1
 10
11.764
 20
-1291.800
 30
3536.548
 70
    32
  0
VERTEX
  8
E17LXLIFT
 62
1
 10
14.301
 20
-1307.486
 30
3536.568
 70
    32
  0
VERTEX
  8
E17LXLIFT
 62
1
 10
18.515
 20
-1323.767
 30
3536.586
 70
    32
  0
VERTEX
  8
E17LXLIFT
 62
1
 10
30.095
 20
-1319.067
 30
3536.549
 70
    32
  0
VERTEX
  8
E17LXLIFT
 62
1
 10
30.769
 20
-1316.772
 30
3536.544
 70
    32
  0
VERTEX
  8
E17LXLIFT
 62
1
 10
36.170
 20
-1312.836
 30
3536.523
 70
    32
  0
VERTEX
  8
E17LXLIFT
 62
1
 10
42.488
 20
-1310.524
 30
3536.504
 70
    32
  0
VERTEX
  8
E17LXLIFT
 62
1
 10
48.649
 20
-1304.116
 30
3536.478
 70
    32
  0
VERTEX
  8
E17LXLIFT
 62
1
 10
51.846
 20
-1298.326
 30
3536.460
 70
    32
  0
VERTEX
  8
E17LXLIFT
 62
1
 10
48.183
 20
-1292.272
 30
3536.459
 70
    32
  0
VERTEX
  8
E17LXLIFT
 62
1
 10
41.696
 20
-1275.633
 30
3536.447
 70
    32
  0
VERTEX
  8
E17LXLIFT
 62
1
 10
37.298
 20
-1268.480
 30
3536.446
 70
    32
  0
VERTEX
  8
E17LXLIFT
 62
1
 10
35.059
 20
-1259.664
 30
3536.436
 70
    32
  0
VERTEX
  8
E17LXLIFT
 62
1
 10
27.028
 20
-1242.918
 30
3536.428
 70
    32
  0
VERTEX
  8
E17LXLIFT
 62
1
 10
19.803
 20
-1211.190
 30
3536.392
 70
    32
  0
VERTEX
  8
E17LXLIFT
 62
1
 10
20.917
 20
-1199.031
 30
3536.368
 70
    32
  0
VERTEX
  8
E17LXLIFT
 62
1
 10
13.161
 20
-1188.712
 30
3536.370
 70
    32
  0
VERTEX
  8
E17LXLIFT
 62
1
 10
8.195
 20
-1179.188
 30
3536.366
 70
    32
  0
VERTEX
  8
E17LXLIFT
 62
1
 10
4.971
 20
-1177.065
 30
3536.370
 70
    32
  0
VERTEX
  8
E17LXLIFT
 62
1
 10
2.197
 20
-1167.678
 30
3536.361
 70
    32
  0
VERTEX
  8
E17LXLIFT
 62
1
 10
-16.602
 20
-1155.969
 30
3536.388
 70
    32
  0
VERTEX
  8
E17LXLIFT
 62
1
 10
-56.457
 20
-1137.525
 30
3536.455
 70
    32
  0
VERTEX
  8
E17LXLIFT
 62
1
 10
-65.590
 20
-1139.011
 30
3536.480
 70
    32
  0
VERTEX
  8
E17LXLIFT
 62
1
 10
-67.528
 20
-1143.968
 30
3536.494
 70
    32
  0
VERTEX
  8
E17LXLIFT
 62
1
 10
-57.025
 20
-1156.212
 30
3536.488
 70
    32
  0
VERTEX
  8
E17LXLIFT
 62
1
 10
-55.724
 20
-1163.611
 30
3536.498
 70
    32
  0
VERTEX
  8
E17LXLIFT
 62
1
 10
-53.629
 20
-1168.220
 30
3536.500
 70
    32
  0
VERTEX
  8
E17LXLIFT
 62
1
 10
-54.565
 20
-1174.085
 30
3536.513
 70
    32
  0
VERTEX
  8
E17LXLIFT
 62
1
 10
-45.935
 20
-1204.443
 30
3536.543
 70
    32
  0
VERTEX
  8
E17LXLIFT
 62
1
 10
-42.961
 20
-1209.941
 30
3536.545
 70
    32
  0
VERTEX
  8
E17LXLIFT
 62
1
 10
-36.230
 20
-1213.977
 30
3536.535
 70
    32
  0
VERTEX
  8
E17LXLIFT
 62
1
 10
-28.205
 20
-1211.442
 30
3536.511
 70
    32
  0
VERTEX
  8
E17LXLIFT
 62
1
 10
-17.404
 20
-1214.882
 30
3536.490
 70
    32
  0
VERTEX
  8
E17LXLIFT
 62
1
 10
-1.066
 20
-1254.602
 30
3536.517
 70
    32
  0
VERTEX
  8
E17LXLIFT
 62
1
 10
-2.199
 20
-1260.943
 30
3536.530
 70
    32
  0
VERTEX
  8
E17LXLIFT
 62
1
 10
-8.323
 20
-1268.122
 30
3536.558
 70
    32
  0
VERTEX
  8
E17LXLIFT
 62
1
 10
-9.449
 20
-1274.773
 30
3536.572
 70
    32
  0
SEQEND
  8
E17LXLIFT
  0
POINT
  8
E17LXLIFT
 62
1
 10
-19.249
 20
-1188.979
 30
3526.381
  0
LINE
  8
E17LXLIFT
 62
11
 10
-19.249
 20
-1188.979
 30
3526.381
 11
18.457
 21
-1135.846
 31
3371.113
  0
POINT
  8
E17LXLIFT
 62
1
 10
18.457
 20
-1135.846
 30
3371.113
  0
POINT
  8
E17LXLIFT
 62
1
 10
-422.900
 20
-952.727
 30
3589.000
  0
LINE
  8
E17LXLIFT
 62
11
 10
-422.900
 20
-952.727
 30
3589.000
 11
-398.617
 21
-949.162
 31
3441.000
  0
POINT
  8
E17LXLIFT
 62
1
 10
-398.617
 20
-949.162
 30
3441.000
  0
POLYLINE
  8
E17LXLIFT
 62
8
 66
     1
 70
     9
  0
VERTEX
  8
E17LXLIFT
 62
8
 10
-307.074
 20
-888.077
 30
3526.513
 70
    32
  0
VERTEX
  8
E17LXLIFT
 62
8
 10
-291.891
 20
-898.173
 30
3526.525
 70
    32
  0
VERTEX
  8
E17LXLIFT
 62
8
 10
-289.223
 20
-898.506
 30
3526.524
 70
    32
  0
VERTEX
  8
E17LXLIFT
 62
8
 10
-282.598
 20
-893.488
 30
3526.504
 70
    32
  0
VERTEX
  8
E17LXLIFT
 62
8
 10
-281.933
 20
-891.564
 30
3526.498
 70
    32
  0
VERTEX
  8
E17LXLIFT
 62
8
 10
-282.823
 20
-889.473
 30
3526.493
 70
    32
  0
VERTEX
  8
E17LXLIFT
 62
8
 10
-293.428
 20
-879.615
 30
3526.478
 70
    32
  0
VERTEX
  8
E17LXLIFT
 62
8
 10
-297.357
 20
-871.193
 30
3526.459
 70
    32
  0
VERTEX
  8
E17LXLIFT
 62
8
 10
-312.898
 20
-849.478
 30
3526.417
 70
    32
  0
VERTEX
  8
E17LXLIFT
 62
8
 10
-316.635
 20
-841.464
 30
3526.400
 70
    32
  0
VERTEX
  8
E17LXLIFT
 62
8
 10
-313.094
 20
-837.630
 30
3526.386
 70
    32
  0
VERTEX
  8
E17LXLIFT
 62
8
 10
-315.256
 20
-826.247
 30
3526.358
 70
    32
  0
VERTEX
  8
E17LXLIFT
 62
8
 10
-324.163
 20
-820.056
 30
3526.351
 70
    32
  0
VERTEX
  8
E17LXLIFT
 62
8
 10
-328.446
 20
-813.793
 30
3526.338
 70
    32
  0
VERTEX
  8
E17LXLIFT
 62
8
 10
-329.570
 20
-791.189
 30
3526.280
 70
    32
  0
VERTEX
  8
E17LXLIFT
 62
8
 10
-335.551
 20
-788.909
 30
3526.279
 70
    32
  0
VERTEX
  8
E17LXLIFT
 62
8
 10
-337.643
 20
-786.828
 30
3526.276
 70
    32
  0
VERTEX
  8
E17LXLIFT
 62
8
 10
-341.034
 20
-776.906
 30
3526.253
 70
    32
  0
VERTEX
  8
E17LXLIFT
 62
8
 10
-345.742
 20
-768.621
 30
3526.236
 70
    32
  0
VERTEX
  8
E17LXLIFT
 62
8
 10
-359.885
 20
-768.097
 30
3526.248
 70
    32
  0
VERTEX
  8
E17LXLIFT
 62
8
 10
-374.057
 20
-751.199
 30
3526.218
 70
    32
  0
VERTEX
  8
E17LXLIFT
 62
8
 10
-381.973
 20
-759.375
 30
3526.247
 70
    32
  0
VERTEX
  8
E17LXLIFT
 62
8
 10
-384.439
 20
-770.006
 30
3526.277
 70
    32
  0
VERTEX
  8
E17LXLIFT
 62
8
 10
-367.179
 20
-797.160
 30
3526.332
 70
    32
  0
SEQEND
  8
E17LXLIFT
  0
POLYLINE
  8
E17LXLIFT
 62
1
 66
     1
 70
     9
  0
VERTEX
  8
E17LXLIFT
 62
1
 10
-306.074
 20
-887.077
 30
3536.513
 70
    32
  0
VERTEX
  8
E17LXLIFT
 62
1
 10
-290.891
 20
-897.173
 30
3536.525
 70
    32
  0
VERTEX
  8
E17LXLIFT
 62
1
 10
-288.223
 20
-897.506
 30
3536.524
 70
    32
  0
VERTEX
  8
E17LXLIFT
 62
1
 10
-281.598
 20
-892.488
 30
3536.504
 70
    32
  0
VERTEX
  8
E17LXLIFT
 62
1
 10
-280.933
 20
-890.564
 30
3536.498
 70
    32
  0
VERTEX
  8
E17LXLIFT
 62
1
 10
-281.823
 20
-888.473
 30
3536.493
 70
    32
  0
VERTEX
  8
E17LXLIFT
 62
1
 10
-292.428
 20
-878.615
 30
3536.478
 70
    32
  0
VERTEX
  8
E17LXLIFT
 62
1
 10
-296.357
 20
-870.193
 30
3536.459
 70
    32
  0
VERTEX
  8
E17LXLIFT
 62
1
 10
-311.898
 20
-848.478
 30
3536.417
 70
    32
  0
VERTEX
  8
E17LXLIFT
 62
1
 10
-315.635
 20
-840.464
 30
3536.400
 70
    32
  0
VERTEX
  8
E17LXLIFT
 62
1
 10
-312.094
 20
-836.630
 30
3536.386
 70
    32
  0
VERTEX
  8
E17LXLIFT
 62
1
 10
-314.256
 20
-825.247
 30
3536.358
 70
    32
  0
VERTEX
  8
E17LXLIFT
 62
1
 10
-323.163
 20
-819.056
 30
3536.351
 70
    32
  0
VERTEX
  8
E17LXLIFT
 62
1
 10
-327.446
 20
-812.793
 30
3536.338
 70
    32
  0
VERTEX
  8
E17LXLIFT
 62
1
 10
-328.570
 20
-790.189
 30
3536.280
 70
    32
  0
VERTEX
  8
E17LXLIFT
 62
1
 10
-334.551
 20
-787.909
 30
3536.279
 70
    32
  0
VERTEX
  8
E17LXLIFT
 62
1
 10
-336.643
 20
-785.828
 30
3536.276
 70
    32
  0
VERTEX
  8
E17LXLIFT
 62
1
 10
-340.034
 20
-775.906
 30
3536.253
 70
    32
  0
VERTEX
  8
E17LXLIFT
 62
1
 10
-344.742
 20
-767.621
 30
3536.236
 70
    32
  0
VERTEX
  8
E17LXLIFT
 62
1
 10
-358.885
 20
-767.097
 30
3536.248
 70
    32
  0
VERTEX
  8
E17LXLIFT
 62
1
 10
-373.057
 20
-750.199
 30
3536.218
 70
    32
  0
VERTEX
  8
E17LXLIFT
 62
1
 10
-380.973
 20
-758.375
 30
3536.247
 70
    32
  0
VERTEX
  8
E17LXLIFT
 62
1
 10
-383.439
 20
-769.006
 30
3536.277
 70
    32
  0
VERTEX
  8
E17LXLIFT
 62
1
 10
-366.179
 20
-796.160
 30
3536.332
 70
    32
  0
SEQEND
  8
E17LXLIFT
  0
POINT
  8
E17LXLIFT
 62
1
 10
-330.179
 20
-827.121
 30
3526.276
  0
LINE
  8
E17LXLIFT
 62
8
 10
-330.179
 20
-827.121
 30
3526.276
 11
-295.066
 21
-811.787
 31
3433.000
  0
POINT
  8
E17LXLIFT
 62
1
 10
-338.673
 20
-818.739
 30
3536.352
  0
POINT
  8
E17LXLIFT
 62
1
 10
-295.066
 20
-811.787
 30
3433.000
  0
POINT
  8
E17LXLIFT
 62
1
 10
-537.113
 20
-515.552
 30
3591.000
  0
LINE
  8
E17LXLIFT
 62
3
 10
-537.113
 20
-515.552
 30
3591.000
 11
-486.438
 21
-499.636
 31
3509.000
  0
POINT
  8
E17LXLIFT
 62
1
 10
-486.438
 20
-499.636
 30
3509.000
  0
POLYLINE
  8
E17LXLIFT
 62
11
 66
     1
 70
     9
  0
VERTEX
  8
E17LXLIFT
 62
11
 10
-1307.916
 20
-1392.085
 30
3526.626
 70
    32
  0
VERTEX
  8
E17LXLIFT
 62
11
 10
-1311.887
 20
-1389.820
 30
3526.607
 70
    32
  0
VERTEX
  8
E17LXLIFT
 62
11
 10
-1329.517
 20
-1370.343
 30
3526.528
 70
    32
  0
VERTEX
  8
E17LXLIFT
 62
11
 10
-1331.172
 20
-1367.844
 30
3526.521
 70
    32
  0
VERTEX
  8
E17LXLIFT
 62
11
 10
-1330.634
 20
-1365.092
 30
3526.524
 70
    32
  0
VERTEX
  8
E17LXLIFT
 62
11
 10
-1356.647
 20
-1335.571
 30
3526.407
 70
    32
  0
VERTEX
  8
E17LXLIFT
 62
11
 10
-1359.390
 20
-1335.351
 30
3526.394
 70
    32
  0
VERTEX
  8
E17LXLIFT
 62
11
 10
-1360.872
 20
-1336.613
 30
3526.387
 70
    32
  0
VERTEX
  8
E17LXLIFT
 62
11
 10
-1361.156
 20
-1341.558
 30
3526.384
 70
    32
  0
VERTEX
  8
E17LXLIFT
 62
11
 10
-1369.299
 20
-1352.482
 30
3526.343
 70
    32
  0
VERTEX
  8
E17LXLIFT
 62
11
 10
-1370.557
 20
-1361.242
 30
3526.334
 70
    32
  0
VERTEX
  8
E17LXLIFT
 62
11
 10
-1365.989
 20
-1368.478
 30
3526.354
 70
    32
  0
VERTEX
  8
E17LXLIFT
 62
11
 10
-1364.583
 20
-1375.358
 30
3526.359
 70
    32
  0
VERTEX
  8
E17LXLIFT
 62
11
 10
-1364.825
 20
-1380.058
 30
3526.357
 70
    32
  0
VERTEX
  8
E17LXLIFT
 62
11
 10
-1369.737
 20
-1386.544
 30
3526.332
 70
    32
  0
VERTEX
  8
E17LXLIFT
 62
11
 10
-1370.313
 20
-1390.617
 30
3526.328
 70
    32
  0
VERTEX
  8
E17LXLIFT
 62
11
 10
-1364.170
 20
-1401.918
 30
3526.354
 70
    32
  0
VERTEX
  8
E17LXLIFT
 62
11
 10
-1368.637
 20
-1405.826
 30
3526.332
 70
    32
  0
VERTEX
  8
E17LXLIFT
 62
11
 10
-1372.914
 20
-1423.296
 30
3526.307
 70
    32
  0
VERTEX
  8
E17LXLIFT
 62
11
 10
-1389.135
 20
-1426.441
 30
3526.229
 70
    32
  0
VERTEX
  8
E17LXLIFT
 62
11
 10
-1391.480
 20
-1430.145
 30
3526.216
 70
    32
  0
VERTEX
  8
E17LXLIFT
 62
11
 10
-1387.005
 20
-1433.889
 30
3526.237
 70
    32
  0
VERTEX
  8
E17LXLIFT
 62
11
 10
-1367.249
 20
-1435.905
 30
3526.331
 70
    32
  0
VERTEX
  8
E17LXLIFT
 62
11
 10
-1357.253
 20
-1441.359
 30
3526.377
 70
    32
  0
VERTEX
  8
E17LXLIFT
 62
11
 10
-1344.923
 20
-1441.715
 30
3526.436
 70
    32
  0
VERTEX
  8
E17LXLIFT
 62
11
 10
-1334.694
 20
-1443.985
 30
3526.484
 70
    32
  0
VERTEX
  8
E17LXLIFT
 62
11
 10
-1332.670
 20
-1446.547
 30
3526.493
 70
    32
  0
VERTEX
  8
E17LXLIFT
 62
11
 10
-1331.498
 20
-1456.611
 30
3526.496
 70
    32
  0
VERTEX
  8
E17LXLIFT
 62
11
 10
-1334.149
 20
-1463.551
 30
3526.482
 70
    32
  0
VERTEX
  8
E17LXLIFT
 62
11
 10
-1342.215
 20
-1466.332
 30
3526.443
 70
    32
  0
VERTEX
  8
E17LXLIFT
 62
11
 10
-1360.400
 20
-1465.472
 30
3526.356
 70
    32
  0
VERTEX
  8
E17LXLIFT
 62
11
 10
-1363.432
 20
-1467.288
 30
3526.341
 70
    32
  0
VERTEX
  8
E17LXLIFT
 62
11
 10
-1364.554
 20
-1470.129
 30
3526.335
 70
    32
  0
VERTEX
  8
E17LXLIFT
 62
11
 10
-1363.754
 20
-1479.054
 30
3526.336
 70
    32
  0
VERTEX
  8
E17LXLIFT
 62
11
 10
-1354.274
 20
-1481.637
 30
3526.381
 70
    32
  0
VERTEX
  8
E17LXLIFT
 62
11
 10
-1348.918
 20
-1481.739
 30
3526.406
 70
    32
  0
VERTEX
  8
E17LXLIFT
 62
11
 10
-1337.731
 20
-1474.059
 30
3526.462
 70
    32
  0
VERTEX
  8
E17LXLIFT
 62
11
 10
-1320.092
 20
-1471.854
 30
3526.498
 70
    32
  0
VERTEX
  8
E17LXLIFT
 62
11
 10
-1312.526
 20
-1474.170
 30
3526.480
 70
    32
  0
VERTEX
  8
E17LXLIFT
 62
11
 10
-1309.397
 20
-1478.756
 30
3526.464
 70
    32
  0
VERTEX
  8
E17LXLIFT
 62
11
 10
-1306.781
 20
-1479.713
 30
3526.457
 70
    32
  0
VERTEX
  8
E17LXLIFT
 62
11
 10
-1299.570
 20
-1479.692
 30
3526.446
 70
    32
  0
VERTEX
  8
E17LXLIFT
 62
11
 10
-1296.970
 20
-1478.181
 30
3526.446
 70
    32
  0
VERTEX
  8
E17LXLIFT
 62
11
 10
-1301.558
 20
-1443.567
 30
3526.540
 70
    32
  0
VERTEX
  8
E17LXLIFT
 62
11
 10
-1301.067
 20
-1439.985
 30
3526.548
 70
    32
  0
VERTEX
  8
E17LXLIFT
 62
11
 10
-1292.759
 20
-1421.504
 30
3526.581
 70
    32
  0
VERTEX
  8
E17LXLIFT
 62
11
 10
-1294.389
 20
-1414.459
 30
3526.601
 70
    32
  0
VERTEX
  8
E17LXLIFT
 62
11
 10
-1294.215
 20
-1407.218
 30
3526.619
 70
    32
  0
VERTEX
  8
E17LXLIFT
 62
11
 10
-1295.426
 20
-1402.142
 30
3526.634
 70
    32
  0
VERTEX
  8
E17LXLIFT
 62
11
 10
-1300.629
 20
-1394.923
 30
3526.660
 70
    32
  0
SEQEND
  8
E17LXLIFT
  0
POLYLINE
  8
E17LXLIFT
 62
1
 66
     1
 70
     9
  0
VERTEX
  8
E17LXLIFT
 62
1
 10
-1306.916
 20
-1391.085
 30
3536.626
 70
    32
  0
VERTEX
  8
E17LXLIFT
 62
1
 10
-1310.887
 20
-1388.820
 30
3536.607
 70
    32
  0
VERTEX
  8
E17LXLIFT
 62
1
 10
-1328.517
 20
-1369.343
 30
3536.528
 70
    32
  0
VERTEX
  8
E17LXLIFT
 62
1
 10
-1330.172
 20
-1366.844
 30
3536.521
 70
    32
  0
VERTEX
  8
E17LXLIFT
 62
1
 10
-1329.634
 20
-1364.092
 30
3536.524
 70
    32
  0
VERTEX
  8
E17LXLIFT
 62
1
 10
-1355.647
 20
-1334.571
 30
3536.407
 70
    32
  0
VERTEX
  8
E17LXLIFT
 62
1
 10
-1358.390
 20
-1334.351
 30
3536.394
 70
    32
  0
VERTEX
  8
E17LXLIFT
 62
1
 10
-1359.872
 20
-1335.613
 30
3536.387
 70
    32
  0
VERTEX
  8
E17LXLIFT
 62
1
 10
-1360.156
 20
-1340.558
 30
3536.384
 70
    32
  0
VERTEX
  8
E17LXLIFT
 62
1
 10
-1368.299
 20
-1351.482
 30
3536.343
 70
    32
  0
VERTEX
  8
E17LXLIFT
 62
1
 10
-1369.557
 20
-1360.242
 30
3536.334
 70
    32
  0
VERTEX
  8
E17LXLIFT
 62
1
 10
-1364.989
 20
-1367.478
 30
3536.354
 70
    32
  0
VERTEX
  8
E17LXLIFT
 62
1
 10
-1363.583
 20
-1374.358
 30
3536.359
 70
    32
  0
VERTEX
  8
E17LXLIFT
 62
1
 10
-1363.825
 20
-1379.058
 30
3536.357
 70
    32
  0
VERTEX
  8
E17LXLIFT
 62
1
 10
-1368.737
 20
-1385.544
 30
3536.332
 70
    32
  0
VERTEX
  8
E17LXLIFT
 62
1
 10
-1369.313
 20
-1389.617
 30
3536.328
 70
    32
  0
VERTEX
  8
E17LXLIFT
 62
1
 10
-1363.170
 20
-1400.918
 30
3536.354
 70
    32
  0
VERTEX
  8
E17LXLIFT
 62
1
 10
-1367.637
 20
-1404.826
 30
3536.332
 70
    32
  0
VERTEX
  8
E17LXLIFT
 62
1
 10
-1371.914
 20
-1422.296
 30
3536.307
 70
    32
  0
VERTEX
  8
E17LXLIFT
 62
1
 10
-1388.135
 20
-1425.441
 30
3536.229
 70
    32
  0
VERTEX
  8
E17LXLIFT
 62
1
 10
-1390.480
 20
-1429.145
 30
3536.216
 70
    32
  0
VERTEX
  8
E17LXLIFT
 62
1
 10
-1386.005
 20
-1432.889
 30
3536.237
 70
    32
  0
VERTEX
  8
E17LXLIFT
 62
1
 10
-1366.249
 20
-1434.905
 30
3536.331
 70
    32
  0
VERTEX
  8
E17LXLIFT
 62
1
 10
-1356.253
 20
-1440.359
 30
3536.377
 70
    32
  0
VERTEX
  8
E17LXLIFT
 62
1
 10
-1343.923
 20
-1440.715
 30
3536.436
 70
    32
  0
VERTEX
  8
E17LXLIFT
 62
1
 10
-1333.694
 20
-1442.985
 30
3536.484
 70
    32
  0
VERTEX
  8
E17LXLIFT
 62
1
 10
-1331.670
 20
-1445.547
 30
3536.493
 70
    32
  0
VERTEX
  8
E17LXLIFT
 62
1
 10
-1330.498
 20
-1455.611
 30
3536.496
 70
    32
  0
VERTEX
  8
E17LXLIFT
 62
1
 10
-1333.149
 20
-1462.551
 30
3536.482
 70
    32
  0
VERTEX
  8
E17LXLIFT
 62
1
 10
-1341.215
 20
-1465.332
 30
3536.443
 70
    32
  0
VERTEX
  8
E17LXLIFT
 62
1
 10
-1359.400
 20
-1464.472
 30
3536.356
 70
    32
  0
VERTEX
  8
E17LXLIFT
 62
1
 10
-1362.432
 20
-1466.288
 30
3536.341
 70
    32
  0
VERTEX
  8
E17LXLIFT
 62
1
 10
-1363.554
 20
-1469.129
 30
3536.335
 70
    32
  0
VERTEX
  8
E17LXLIFT
 62
1
 10
-1362.754
 20
-1478.054
 30
3536.336
 70
    32
  0
VERTEX
  8
E17LXLIFT
 62
1
 10
-1353.274
 20
-1480.637
 30
3536.381
 70
    32
  0
VERTEX
  8
E17LXLIFT
 62
1
 10
-1347.918
 20
-1480.739
 30
3536.406
 70
    32
  0
VERTEX
  8
E17LXLIFT
 62
1
 10
-1336.731
 20
-1473.059
 30
3536.462
 70
    32
  0
VERTEX
  8
E17LXLIFT
 62
1
 10
-1319.092
 20
-1470.854
 30
3536.498
 70
    32
  0
VERTEX
  8
E17LXLIFT
 62
1
 10
-1311.526
 20
-1473.170
 30
3536.480
 70
    32
  0
VERTEX
  8
E17LXLIFT
 62
1
 10
-1308.397
 20
-1477.756
 30
3536.464
 70
    32
  0
VERTEX
  8
E17LXLIFT
 62
1
 10
-1305.781
 20
-1478.713
 30
3536.457
 70
    32
  0
VERTEX
  8
E17LXLIFT
 62
1
 10
-1298.570
 20
-1478.692
 30
3536.446
 70
    32
  0
VERTEX
  8
E17LXLIFT
 62
1
 10
-1295.970
 20
-1477.181
 30
3536.446
 70
    32
  0
VERTEX
  8
E17LXLIFT
 62
1
 10
-1300.558
 20
-1442.567
 30
3536.540
 70
    32
  0
VERTEX
  8
E17LXLIFT
 62
1
 10
-1300.067
 20
-1438.985
 30
3536.548
 70
    32
  0
VERTEX
  8
E17LXLIFT
 62
1
 10
-1291.759
 20
-1420.504
 30
3536.581
 70
    32
  0
VERTEX
  8
E17LXLIFT
 62
1
 10
-1293.389
 20
-1413.459
 30
3536.601
 70
    32
  0
VERTEX
  8
E17LXLIFT
 62
1
 10
-1293.215
 20
-1406.218
 30
3536.619
 70
    32
  0
VERTEX
  8
E17LXLIFT
 62
1
 10
-1294.426
 20
-1401.142
 30
3536.634
 70
    32
  0
VERTEX
  8
E17LXLIFT
 62
1
 10
-1299.629
 20
-1393.923
 30
3536.660
 70
    32
  0
SEQEND
  8
E17LXLIFT
  0
POINT
  8
E17LXLIFT
 62
1
 10
-1317.031
 20
-1438.335
 30
3526.642
  0
POINT
  8
E17LXLIFT
 62
1
 10
-1336.262
 20
-1404.854
 30
3536.346
  0
LINE
  8
E17LXLIFT
 62
11
 10
-1317.031
 20
-1438.335
 30
3526.642
 11
-1194.488
 21
-1505.868
 31
3384.505
  0
POINT
  8
E17LXLIFT
 62
1
 10
-1194.488
 20
-1505.868
 30
3384.505
  0
POLYLINE
  8
E17LXLIFT
 62
6
 66
     1
 70
     9
  0
VERTEX
  8
E17LXLIFT
 62
6
 10
-231.820
 20
-1107.843
 30
3526.639
 70
    32
  0
VERTEX
  8
E17LXLIFT
 62
6
 10
-232.593
 20
-1113.037
 30
3526.631
 70
    32
  0
VERTEX
  8
E17LXLIFT
 62
6
 10
-240.254
 20
-1119.924
 30
3526.604
 70
    32
  0
VERTEX
  8
E17LXLIFT
 62
6
 10
-254.506
 20
-1126.083
 30
3526.560
 70
    32
  0
VERTEX
  8
E17LXLIFT
 62
6
 10
-263.666
 20
-1126.048
 30
3526.536
 70
    32
  0
VERTEX
  8
E17LXLIFT
 62
6
 10
-268.397
 20
-1124.712
 30
3526.526
 70
    32
  0
VERTEX
  8
E17LXLIFT
 62
6
 10
-273.584
 20
-1116.672
 30
3526.522
 70
    32
  0
VERTEX
  8
E17LXLIFT
 62
6
 10
-271.922
 20
-1110.599
 30
3526.533
 70
    32
  0
VERTEX
  8
E17LXLIFT
 62
6
 10
-273.512
 20
-1107.265
 30
3526.533
 70
    32
  0
VERTEX
  8
E17LXLIFT
 62
6
 10
-282.292
 20
-1108.930
 30
3526.509
 70
    32
  0
VERTEX
  8
E17LXLIFT
 62
6
 10
-292.102
 20
-1102.224
 30
3526.491
 70
    32
  0
VERTEX
  8
E17LXLIFT
 62
6
 10
-293.973
 20
-1098.659
 30
3526.491
 70
    32
  0
VERTEX
  8
E17LXLIFT
 62
6
 10
-298.810
 20
-1094.211
 30
3526.484
 70
    32
  0
VERTEX
  8
E17LXLIFT
 62
6
 10
-287.244
 20
-1069.576
 30
3526.542
 70
    32
  0
VERTEX
  8
E17LXLIFT
 62
6
 10
-280.921
 20
-1073.803
 30
3526.554
 70
    32
  0
VERTEX
  8
E17LXLIFT
 62
6
 10
-276.751
 20
-1074.234
 30
3526.564
 70
    32
  0
VERTEX
  8
E17LXLIFT
 62
6
 10
-269.515
 20
-1070.633
 30
3526.587
 70
    32
  0
VERTEX
  8
E17LXLIFT
 62
6
 10
-260.596
 20
-1069.306
 30
3526.611
 70
    32
  0
VERTEX
  8
E17LXLIFT
 62
6
 10
-256.610
 20
-1080.327
 30
3526.608
 70
    32
  0
VERTEX
  8
E17LXLIFT
 62
6
 10
-247.630
 20
-1096.010
 30
3526.613
 70
    32
  0
VERTEX
  8
E17LXLIFT
 62
6
 10
-239.721
 20
-1095.102
 30
3526.634
 70
    32
  0
SEQEND
  8
E17LXLIFT
  0
POLYLINE
  8
E17LXLIFT
 62
7
 66
     1
 70
     9
  0
VERTEX
  8
E17LXLIFT
 62
7
 10
-414.263
 20
-691.655
 30
3526.100
 70
    32
  0
VERTEX
  8
E17LXLIFT
 62
7
 10
-419.640
 20
-680.772
 30
3526.076
 70
    32
  0
VERTEX
  8
E17LXLIFT
 62
7
 10
-442.625
 20
-647.077
 30
3526.010
 70
    32
  0
VERTEX
  8
E17LXLIFT
 62
7
 10
-446.731
 20
-638.566
 30
3525.991
 70
    32
  0
VERTEX
  8
E17LXLIFT
 62
7
 10
-447.867
 20
-627.084
 30
3525.962
 70
    32
  0
VERTEX
  8
E17LXLIFT
 62
7
 10
-438.400
 20
-628.872
 30
3525.958
 70
    32
  0
VERTEX
  8
E17LXLIFT
 62
7
 10
-425.207
 20
-631.530
 30
3525.952
 70
    32
  0
VERTEX
  8
E17LXLIFT
 62
7
 10
-419.831
 20
-634.478
 30
3525.954
 70
    32
  0
VERTEX
  8
E17LXLIFT
 62
7
 10
-415.333
 20
-639.509
 30
3525.963
 70
    32
  0
VERTEX
  8
E17LXLIFT
 62
7
 10
-409.614
 20
-650.346
 30
3525.986
 70
    32
  0
VERTEX
  8
E17LXLIFT
 62
7
 10
-405.278
 20
-664.959
 30
3526.020
 70
    32
  0
VERTEX
  8
E17LXLIFT
 62
7
 10
-403.210
 20
-683.342
 30
3526.067
 70
    32
  0
VERTEX
  8
E17LXLIFT
 62
7
 10
-408.324
 20
-687.132
 30
3526.082
 70
    32
  0
SEQEND
  8
E17LXLIFT
  0
POINT
  8
E17LXLIFT
 62
1
 10
-589.408
 20
-336.187
 30
3564.000
  0
POINT
  8
E17LXLIFT
 62
1
 10
-647.437
 20
-343.235
 30
3721.000
  0
LINE
  8
E17LXLIFT
 62
8
 10
-647.437
 20
-343.235
 30
3721.000
 11
-589.408
 21
-336.187
 31
3564.000
  0
POINT
  8
E17LXLIFT
 62
1
 10
-791.035
 20
39.003
 30
3594.000
  0
POINT
  8
E17LXLIFT
 62
1
 10
-815.843
 20
35.400
 30
3678.936
  0
LINE
  8
E17LXLIFT
 62
6
 10
-815.843
 20
35.400
 30
3678.936
 11
-791.035
 21
39.003
 31
3594.000
  0
POLYLINE
  8
E17LXLIFT
 62
1
 66
     1
 70
     9
  0
VERTEX
  8
E17LXLIFT
 62
1
 10
-1445.380
 20
-1394.763
 30
3675.000
 70
    32
  0
VERTEX
  8
E17LXLIFT
 62
1
 10
-1440.991
 20
-1399.096
 30
3675.000
 70
    32
  0
VERTEX
  8
E17LXLIFT
 62
1
 10
-1438.804
 20
-1405.650
 30
3675.000
 70
    32
  0
VERTEX
  8
E17LXLIFT
 62
1
 10
-1435.083
 20
-1413.597
 30
3675.000
 70
    32
  0
VERTEX
  8
E17LXLIFT
 62
1
 10
-1431.637
 20
-1419.793
 30
3675.000
 70
    32
  0
VERTEX
  8
E17LXLIFT
 62
1
 10
-1425.054
 20
-1420.073
 30
3675.000
 70
    32
  0
VERTEX
  8
E17LXLIFT
 62
1
 10
-1420.443
 20
-1414.404
 30
3675.000
 70
    32
  0
VERTEX
  8
E17LXLIFT
 62
1
 10
-1417.757
 20
-1407.403
 30
3675.000
 70
    32
  0
VERTEX
  8
E17LXLIFT
 62
1
 10
-1412.368
 20
-1401.612
 30
3675.000
 70
    32
  0
VERTEX
  8
E17LXLIFT
 62
1
 10
-1407.930
 20
-1409.048
 30
3675.000
 70
    32
  0
VERTEX
  8
E17LXLIFT
 62
1
 10
-1401.259
 20
-1415.973
 30
3675.000
 70
    32
  0
VERTEX
  8
E17LXLIFT
 62
1
 10
-1396.480
 20
-1419.487
 30
3675.000
 70
    32
  0
VERTEX
  8
E17LXLIFT
 62
1
 10
-1388.862
 20
-1433.200
 30
3675.000
 70
    32
  0
VERTEX
  8
E17LXLIFT
 62
1
 10
-1382.798
 20
-1444.128
 30
3675.000
 70
    32
  0
VERTEX
  8
E17LXLIFT
 62
1
 10
-1378.207
 20
-1453.294
 30
3675.000
 70
    32
  0
VERTEX
  8
E17LXLIFT
 62
1
 10
-1368.788
 20
-1453.607
 30
3675.000
 70
    32
  0
VERTEX
  8
E17LXLIFT
 62
1
 10
-1365.487
 20
-1445.951
 30
3675.000
 70
    32
  0
VERTEX
  8
E17LXLIFT
 62
1
 10
-1368.931
 20
-1436.725
 30
3675.000
 70
    32
  0
VERTEX
  8
E17LXLIFT
 62
1
 10
-1372.078
 20
-1426.853
 30
3675.000
 70
    32
  0
VERTEX
  8
E17LXLIFT
 62
1
 10
-1377.549
 20
-1416.152
 30
3675.000
 70
    32
  0
VERTEX
  8
E17LXLIFT
 62
1
 10
-1386.088
 20
-1402.663
 30
3675.000
 70
    32
  0
VERTEX
  8
E17LXLIFT
 62
1
 10
-1392.489
 20
-1390.353
 30
3675.000
 70
    32
  0
VERTEX
  8
E17LXLIFT
 62
1
 10
-1392.189
 20
-1385.163
 30
3675.000
 70
    32
  0
VERTEX
  8
E17LXLIFT
 62
1
 10
-1395.594
 20
-1377.964
 30
3675.000
 70
    32
  0
VERTEX
  8
E17LXLIFT
 62
1
 10
-1401.508
 20
-1373.312
 30
3675.000
 70
    32
  0
VERTEX
  8
E17LXLIFT
 62
1
 10
-1408.003
 20
-1362.691
 30
3675.000
 70
    32
  0
VERTEX
  8
E17LXLIFT
 62
1
 10
-1411.172
 20
-1355.973
 30
3675.000
 70
    32
  0
VERTEX
  8
E17LXLIFT
 62
1
 10
-1418.341
 20
-1359.573
 30
3675.000
 70
    32
  0
VERTEX
  8
E17LXLIFT
 62
1
 10
-1423.688
 20
-1365.118
 30
3675.000
 70
    32
  0
VERTEX
  8
E17LXLIFT
 62
1
 10
-1422.270
 20
-1372.869
 30
3675.000
 70
    32
  0
VERTEX
  8
E17LXLIFT
 62
1
 10
-1419.235
 20
-1380.764
 30
3675.000
 70
    32
  0
VERTEX
  8
E17LXLIFT
 62
1
 10
-1426.977
 20
-1385.530
 30
3675.000
 70
    32
  0
VERTEX
  8
E17LXLIFT
 62
1
 10
-1435.099
 20
-1389.917
 30
3675.000
 70
    32
  0
VERTEX
  8
E17LXLIFT
 62
1
 10
-1440.250
 20
-1392.401
 30
3675.000
 70
    32
  0
SEQEND
  8
E17LXLIFT
  0
POLYLINE
  8
E17LXLIFT
 62
11
 66
     1
 70
     9
  0
VERTEX
  8
E17LXLIFT
 62
11
 10
-1446.380
 20
-1395.763
 30
3665.000
 70
    32
  0
VERTEX
  8
E17LXLIFT
 62
11
 10
-1441.991
 20
-1400.096
 30
3665.000
 70
    32
  0
VERTEX
  8
E17LXLIFT
 62
11
 10
-1439.804
 20
-1406.650
 30
3665.000
 70
    32
  0
VERTEX
  8
E17LXLIFT
 62
11
 10
-1436.083
 20
-1414.597
 30
3665.000
 70
    32
  0
VERTEX
  8
E17LXLIFT
 62
11
 10
-1432.637
 20
-1420.793
 30
3665.000
 70
    32
  0
VERTEX
  8
E17LXLIFT
 62
11
 10
-1426.054
 20
-1421.073
 30
3665.000
 70
    32
  0
VERTEX
  8
E17LXLIFT
 62
11
 10
-1421.443
 20
-1415.404
 30
3665.000
 70
    32
  0
VERTEX
  8
E17LXLIFT
 62
11
 10
-1418.757
 20
-1408.403
 30
3665.000
 70
    32
  0
VERTEX
  8
E17LXLIFT
 62
11
 10
-1413.368
 20
-1402.612
 30
3665.000
 70
    32
  0
VERTEX
  8
E17LXLIFT
 62
11
 10
-1408.930
 20
-1410.048
 30
3665.000
 70
    32
  0
VERTEX
  8
E17LXLIFT
 62
11
 10
-1402.259
 20
-1416.973
 30
3665.000
 70
    32
  0
VERTEX
  8
E17LXLIFT
 62
11
 10
-1397.480
 20
-1420.487
 30
3665.000
 70
    32
  0
VERTEX
  8
E17LXLIFT
 62
11
 10
-1389.862
 20
-1434.200
 30
3665.000
 70
    32
  0
VERTEX
  8
E17LXLIFT
 62
11
 10
-1383.798
 20
-1445.128
 30
3665.000
 70
    32
  0
VERTEX
  8
E17LXLIFT
 62
11
 10
-1379.207
 20
-1454.294
 30
3665.000
 70
    32
  0
VERTEX
  8
E17LXLIFT
 62
11
 10
-1369.788
 20
-1454.607
 30
3665.000
 70
    32
  0
VERTEX
  8
E17LXLIFT
 62
11
 10
-1366.487
 20
-1446.951
 30
3665.000
 70
    32
  0
VERTEX
  8
E17LXLIFT
 62
11
 10
-1369.931
 20
-1437.725
 30
3665.000
 70
    32
  0
VERTEX
  8
E17LXLIFT
 62
11
 10
-1373.078
 20
-1427.853
 30
3665.000
 70
    32
  0
VERTEX
  8
E17LXLIFT
 62
11
 10
-1378.549
 20
-1417.152
 30
3665.000
 70
    32
  0
VERTEX
  8
E17LXLIFT
 62
11
 10
-1387.088
 20
-1403.663
 30
3665.000
 70
    32
  0
VERTEX
  8
E17LXLIFT
 62
11
 10
-1393.489
 20
-1391.353
 30
3665.000
 70
    32
  0
VERTEX
  8
E17LXLIFT
 62
11
 10
-1393.189
 20
-1386.163
 30
3665.000
 70
    32
  0
VERTEX
  8
E17LXLIFT
 62
11
 10
-1396.594
 20
-1378.964
 30
3665.000
 70
    32
  0
VERTEX
  8
E17LXLIFT
 62
11
 10
-1402.508
 20
-1374.312
 30
3665.000
 70
    32
  0
VERTEX
  8
E17LXLIFT
 62
11
 10
-1409.003
 20
-1363.691
 30
3665.000
 70
    32
  0
VERTEX
  8
E17LXLIFT
 62
11
 10
-1412.172
 20
-1356.973
 30
3665.000
 70
    32
  0
VERTEX
  8
E17LXLIFT
 62
11
 10
-1419.341
 20
-1360.573
 30
3665.000
 70
    32
  0
VERTEX
  8
E17LXLIFT
 62
11
 10
-1424.688
 20
-1366.118
 30
3665.000
 70
    32
  0
VERTEX
  8
E17LXLIFT
 62
11
 10
-1423.270
 20
-1373.869
 30
3665.000
 70
    32
  0
VERTEX
  8
E17LXLIFT
 62
11
 10
-1420.235
 20
-1381.764
 30
3665.000
 70
    32
  0
VERTEX
  8
E17LXLIFT
 62
11
 10
-1427.977
 20
-1386.530
 30
3665.000
 70
    32
  0
VERTEX
  8
E17LXLIFT
 62
11
 10
-1436.099
 20
-1390.917
 30
3665.000
 70
    32
  0
VERTEX
  8
E17LXLIFT
 62
11
 10
-1441.250
 20
-1393.401
 30
3665.000
 70
    32
  0
SEQEND
  8
E17LXLIFT
  0
POINT
  8
E17LXLIFT
 62
1
 10
-1394.405
 20
-1406.818
 30
3665.000
  0
LINE
  8
E17LXLIFT
 62
11
 10
-1394.405
 20
-1406.818
 30
3665.000
 11
-1336.262
 21
-1404.854
 31
3536.346
  0
POLYLINE
  8
E17LXLIFT
 62
11
 66
     1
 70
     9
  0
VERTEX
  8
E17LXLIFT
 62
11
 10
-2428.189
 20
809.884
 30
3525.098
 70
    32
  0
VERTEX
  8
E17LXLIFT
 62
11
 10
-2432.636
 20
812.707
 30
3525.097
 70
    32
  0
VERTEX
  8
E17LXLIFT
 62
11
 10
-2436.775
 20
818.633
 30
3525.095
 70
    32
  0
VERTEX
  8
E17LXLIFT
 62
11
 10
-2446.495
 20
817.038
 30
3525.095
 70
    32
  0
VERTEX
  8
E17LXLIFT
 62
11
 10
-2451.867
 20
822.695
 30
3525.093
 70
    32
  0
VERTEX
  8
E17LXLIFT
 62
11
 10
-2464.847
 20
827.909
 30
3525.091
 70
    32
  0
VERTEX
  8
E17LXLIFT
 62
11
 10
-2463.234
 20
836.740
 30
3525.089
 70
    32
  0
VERTEX
  8
E17LXLIFT
 62
11
 10
-2478.913
 20
855.475
 30
3525.082
 70
    32
  0
VERTEX
  8
E17LXLIFT
 62
11
 10
-2484.615
 20
872.249
 30
3525.077
 70
    32
  0
VERTEX
  8
E17LXLIFT
 62
11
 10
-2486.374
 20
883.941
 30
3525.074
 70
    32
  0
VERTEX
  8
E17LXLIFT
 62
11
 10
-2494.631
 20
913.462
 30
3525.065
 70
    32
  0
VERTEX
  8
E17LXLIFT
 62
11
 10
-2488.394
 20
913.092
 30
3525.065
 70
    32
  0
VERTEX
  8
E17LXLIFT
 62
11
 10
-2480.065
 20
920.920
 30
3525.063
 70
    32
  0
VERTEX
  8
E17LXLIFT
 62
11
 10
-2447.988
 20
909.699
 30
3525.068
 70
    32
  0
VERTEX
  8
E17LXLIFT
 62
11
 10
-2437.838
 20
902.681
 30
3525.070
 70
    32
  0
VERTEX
  8
E17LXLIFT
 62
11
 10
-2431.941
 20
885.503
 30
3525.075
 70
    32
  0
VERTEX
  8
E17LXLIFT
 62
11
 10
-2423.765
 20
878.321
 30
3525.078
 70
    32
  0
VERTEX
  8
E17LXLIFT
 62
11
 10
-2419.161
 20
876.167
 30
3525.079
 70
    32
  0
VERTEX
  8
E17LXLIFT
 62
11
 10
-2412.286
 20
862.374
 30
3525.083
 70
    32
  0
VERTEX
  8
E17LXLIFT
 62
11
 10
-2403.873
 20
858.681
 30
3525.084
 70
    32
  0
VERTEX
  8
E17LXLIFT
 62
11
 10
-2397.548
 20
852.198
 30
3525.087
 70
    32
  0
VERTEX
  8
E17LXLIFT
 62
11
 10
-2393.473
 20
837.728
 30
3525.091
 70
    32
  0
VERTEX
  8
E17LXLIFT
 62
11
 10
-2394.943
 20
828.122
 30
3525.094
 70
    32
  0
VERTEX
  8
E17LXLIFT
 62
11
 10
-2398.826
 20
817.911
 30
3525.097
 70
    32
  0
VERTEX
  8
E17LXLIFT
 62
11
 10
-2403.281
 20
810.799
 30
3525.099
 70
    32
  0
VERTEX
  8
E17LXLIFT
 62
11
 10
-2409.553
 20
804.633
 30
3525.100
 70
    32
  0
VERTEX
  8
E17LXLIFT
 62
11
 10
-2416.844
 20
803.767
 30
3525.100
 70
    32
  0
VERTEX
  8
E17LXLIFT
 62
11
 10
-2420.546
 20
804.725
 30
3525.100
 70
    32
  0
SEQEND
  8
E17LXLIFT
  0
POLYLINE
  8
E17LXLIFT
 62
1
 66
     1
 70
     9
  0
VERTEX
  8
E17LXLIFT
 62
1
 10
-2419.546
 20
805.725
 30
3535.100
 70
    32
  0
VERTEX
  8
E17LXLIFT
 62
1
 10
-2415.844
 20
804.767
 30
3535.100
 70
    32
  0
VERTEX
  8
E17LXLIFT
 62
1
 10
-2408.553
 20
805.633
 30
3535.100
 70
    32
  0
VERTEX
  8
E17LXLIFT
 62
1
 10
-2402.281
 20
811.799
 30
3535.099
 70
    32
  0
VERTEX
  8
E17LXLIFT
 62
1
 10
-2397.826
 20
818.911
 30
3535.097
 70
    32
  0
VERTEX
  8
E17LXLIFT
 62
1
 10
-2393.943
 20
829.122
 30
3535.094
 70
    32
  0
VERTEX
  8
E17LXLIFT
 62
1
 10
-2392.473
 20
838.728
 30
3535.091
 70
    32
  0
VERTEX
  8
E17LXLIFT
 62
1
 10
-2396.548
 20
853.198
 30
3535.087
 70
    32
  0
VERTEX
  8
E17LXLIFT
 62
1
 10
-2402.873
 20
859.681
 30
3535.084
 70
    32
  0
VERTEX
  8
E17LXLIFT
 62
1
 10
-2411.286
 20
863.374
 30
3535.083
 70
    32
  0
VERTEX
  8
E17LXLIFT
 62
1
 10
-2418.161
 20
877.167
 30
3535.079
 70
    32
  0
VERTEX
  8
E17LXLIFT
 62
1
 10
-2422.765
 20
879.321
 30
3535.078
 70
    32
  0
VERTEX
  8
E17LXLIFT
 62
1
 10
-2430.941
 20
886.503
 30
3535.075
 70
    32
  0
VERTEX
  8
E17LXLIFT
 62
1
 10
-2436.838
 20
903.681
 30
3535.070
 70
    32
  0
VERTEX
  8
E17LXLIFT
 62
1
 10
-2446.988
 20
910.699
 30
3535.068
 70
    32
  0
VERTEX
  8
E17LXLIFT
 62
1
 10
-2479.065
 20
921.920
 30
3535.063
 70
    32
  0
VERTEX
  8
E17LXLIFT
 62
1
 10
-2487.394
 20
914.092
 30
3535.065
 70
    32
  0
VERTEX
  8
E17LXLIFT
 62
1
 10
-2493.631
 20
914.462
 30
3535.065
 70
    32
  0
VERTEX
  8
E17LXLIFT
 62
1
 10
-2485.374
 20
884.941
 30
3535.074
 70
    32
  0
VERTEX
  8
E17LXLIFT
 62
1
 10
-2483.615
 20
873.249
 30
3535.077
 70
    32
  0
VERTEX
  8
E17LXLIFT
 62
1
 10
-2477.913
 20
856.475
 30
3535.082
 70
    32
  0
VERTEX
  8
E17LXLIFT
 62
1
 10
-2462.234
 20
837.740
 30
3535.089
 70
    32
  0
VERTEX
  8
E17LXLIFT
 62
1
 10
-2463.847
 20
828.909
 30
3535.091
 70
    32
  0
VERTEX
  8
E17LXLIFT
 62
1
 10
-2450.867
 20
823.695
 30
3535.093
 70
    32
  0
VERTEX
  8
E17LXLIFT
 62
1
 10
-2445.495
 20
818.038
 30
3535.095
 70
    32
  0
VERTEX
  8
E17LXLIFT
 62
1
 10
-2435.775
 20
819.633
 30
3535.095
 70
    32
  0
VERTEX
  8
E17LXLIFT
 62
1
 10
-2431.636
 20
813.707
 30
3535.097
 70
    32
  0
VERTEX
  8
E17LXLIFT
 62
1
 10
-2427.189
 20
810.884
 30
3535.098
 70
    32
  0
SEQEND
  8
E17LXLIFT
  0
POINT
  8
E17LXLIFT
 62
1
 10
-2425.707
 20
852.961
 30
3535.080
  0
POINT
  8
E17LXLIFT
 62
1
 10
-2435.049
 20
855.010
 30
3690.434
  0
LINE
  8
E17LXLIFT
 62
11
 10
-2435.049
 20
855.010
 30
3690.434
 11
-2425.707
 21
852.961
 31
3535.080
  0
POINT
  8
E17LXLIFT
 62
1
 10
-374.030
 20
-920.151
 30
3680.408
  0
LINE
  8
E17LXLIFT
 62
8
 10
-374.030
 20
-920.151
 30
3680.408
 11
-338.673
 21
-818.739
 31
3536.352
  0
POINT
  8
E17LXLIFT
 62
1
 10
-309.203
 20
-1012.294
 30
3680.382
  0
POLYLINE
  8
E17LXLIFT
 62
1
 66
     1
 70
     9
  0
VERTEX
  8
E17LXLIFT
 62
1
 10
-222.710
 20
-1042.741
 30
3601.000
 70
    32
  0
VERTEX
  8
E17LXLIFT
 62
1
 10
-227.830
 20
-1046.295
 30
3601.000
 70
    32
  0
VERTEX
  8
E17LXLIFT
 62
1
 10
-232.838
 20
-1049.114
 30
3601.000
 70
    32
  0
VERTEX
  8
E17LXLIFT
 62
1
 10
-238.877
 20
-1040.919
 30
3601.000
 70
    32
  0
VERTEX
  8
E17LXLIFT
 62
1
 10
-245.409
 20
-1041.373
 30
3601.000
 70
    32
  0
VERTEX
  8
E17LXLIFT
 62
1
 10
-249.444
 20
-1041.075
 30
3601.000
 70
    32
  0
VERTEX
  8
E17LXLIFT
 62
1
 10
-256.103
 20
-1033.665
 30
3601.000
 70
    32
  0
VERTEX
  8
E17LXLIFT
 62
1
 10
-275.289
 20
-1017.391
 30
3601.000
 70
    32
  0
VERTEX
  8
E17LXLIFT
 62
1
 10
-282.644
 20
-1011.256
 30
3601.000
 70
    32
  0
VERTEX
  8
E17LXLIFT
 62
1
 10
-279.450
 20
-1003.016
 30
3601.000
 70
    32
  0
VERTEX
  8
E17LXLIFT
 62
1
 10
-278.521
 20
-996.881
 30
3601.000
 70
    32
  0
VERTEX
  8
E17LXLIFT
 62
1
 10
-283.935
 20
-993.676
 30
3601.000
 70
    32
  0
VERTEX
  8
E17LXLIFT
 62
1
 10
-288.668
 20
-988.880
 30
3601.000
 70
    32
  0
VERTEX
  8
E17LXLIFT
 62
1
 10
-298.302
 20
-980.391
 30
3601.000
 70
    32
  0
VERTEX
  8
E17LXLIFT
 62
1
 10
-305.121
 20
-975.279
 30
3601.000
 70
    32
  0
VERTEX
  8
E17LXLIFT
 62
1
 10
-310.591
 20
-968.300
 30
3601.000
 70
    32
  0
VERTEX
  8
E17LXLIFT
 62
1
 10
-318.199
 20
-958.863
 30
3601.000
 70
    32
  0
VERTEX
  8
E17LXLIFT
 62
1
 10
-323.036
 20
-953.925
 30
3601.000
 70
    32
  0
VERTEX
  8
E17LXLIFT
 62
1
 10
-327.390
 20
-947.868
 30
3601.000
 70
    32
  0
VERTEX
  8
E17LXLIFT
 62
1
 10
-329.666
 20
-938.863
 30
3601.000
 70
    32
  0
VERTEX
  8
E17LXLIFT
 62
1
 10
-322.572
 20
-932.218
 30
3601.000
 70
    32
  0
VERTEX
  8
E17LXLIFT
 62
1
 10
-315.968
 20
-925.499
 30
3601.000
 70
    32
  0
VERTEX
  8
E17LXLIFT
 62
1
 10
-311.581
 20
-923.465
 30
3601.000
 70
    32
  0
VERTEX
  8
E17LXLIFT
 62
1
 10
-308.900
 20
-930.210
 30
3601.000
 70
    32
  0
VERTEX
  8
E17LXLIFT
 62
1
 10
-301.571
 20
-941.487
 30
3601.000
 70
    32
  0
VERTEX
  8
E17LXLIFT
 62
1
 10
-291.788
 20
-957.279
 30
3601.000
 70
    32
  0
VERTEX
  8
E17LXLIFT
 62
1
 10
-284.530
 20
-968.608
 30
3601.000
 70
    32
  0
VERTEX
  8
E17LXLIFT
 62
1
 10
-275.383
 20
-978.654
 30
3601.000
 70
    32
  0
VERTEX
  8
E17LXLIFT
 62
1
 10
-266.972
 20
-984.447
 30
3601.000
 70
    32
  0
VERTEX
  8
E17LXLIFT
 62
1
 10
-259.852
 20
-993.371
 30
3601.000
 70
    32
  0
VERTEX
  8
E17LXLIFT
 62
1
 10
-254.628
 20
-996.171
 30
3601.000
 70
    32
  0
VERTEX
  8
E17LXLIFT
 62
1
 10
-245.618
 20
-997.598
 30
3601.000
 70
    32
  0
VERTEX
  8
E17LXLIFT
 62
1
 10
-239.941
 20
-998.647
 30
3601.000
 70
    32
  0
VERTEX
  8
E17LXLIFT
 62
1
 10
-232.601
 20
-1006.537
 30
3601.000
 70
    32
  0
VERTEX
  8
E17LXLIFT
 62
1
 10
-232.173
 20
-1018.212
 30
3601.000
 70
    32
  0
VERTEX
  8
E17LXLIFT
 62
1
 10
-232.812
 20
-1027.403
 30
3601.000
 70
    32
  0
SEQEND
  8
E17LXLIFT
  0
POINT
  8
E17LXLIFT
 62
1
 10
-277.613
 20
-988.880
 30
3601.000
  0
LINE
  8
E17LXLIFT
 62
8
 10
-309.203
 20
-1012.294
 30
3680.382
 11
-277.613
 21
-988.880
 31
3601.000
  0
POLYLINE
  8
E17LXLIFT
 62
8
 66
     1
 70
     9
  0
VERTEX
  8
E17LXLIFT
 62
8
 10
-245.890
 20
-898.342
 30
3526.612
 70
    32
  0
VERTEX
  8
E17LXLIFT
 62
8
 10
-249.986
 20
-893.607
 30
3526.612
 70
    32
  0
VERTEX
  8
E17LXLIFT
 62
8
 10
-254.168
 20
-886.216
 30
3526.612
 70
    32
  0
VERTEX
  8
E17LXLIFT
 62
8
 10
-261.282
 20
-879.872
 30
3526.612
 70
    32
  0
VERTEX
  8
E17LXLIFT
 62
8
 10
-266.807
 20
-874.219
 30
3526.612
 70
    32
  0
VERTEX
  8
E17LXLIFT
 62
8
 10
-267.642
 20
-862.764
 30
3526.612
 70
    32
  0
VERTEX
  8
E17LXLIFT
 62
8
 10
-268.231
 20
-848.957
 30
3526.612
 70
    32
  0
VERTEX
  8
E17LXLIFT
 62
8
 10
-269.131
 20
-835.918
 30
3526.612
 70
    32
  0
VERTEX
  8
E17LXLIFT
 62
8
 10
-270.418
 20
-821.749
 30
3526.612
 70
    32
  0
VERTEX
  8
E17LXLIFT
 62
8
 10
-272.867
 20
-819.727
 30
3526.612
 70
    32
  0
VERTEX
  8
E17LXLIFT
 62
8
 10
-278.921
 20
-819.024
 30
3526.612
 70
    32
  0
VERTEX
  8
E17LXLIFT
 62
8
 10
-283.458
 20
-809.501
 30
3526.612
 70
    32
  0
VERTEX
  8
E17LXLIFT
 62
8
 10
-282.095
 20
-801.663
 30
3526.612
 70
    32
  0
VERTEX
  8
E17LXLIFT
 62
8
 10
-281.121
 20
-795.086
 30
3526.612
 70
    32
  0
VERTEX
  8
E17LXLIFT
 62
8
 10
-286.859
 20
-790.784
 30
3526.612
 70
    32
  0
VERTEX
  8
E17LXLIFT
 62
8
 10
-292.919
 20
-791.715
 30
3526.612
 70
    32
  0
VERTEX
  8
E17LXLIFT
 62
8
 10
-299.741
 20
-795.482
 30
3526.612
 70
    32
  0
VERTEX
  8
E17LXLIFT
 62
8
 10
-307.875
 20
-797.596
 30
3526.612
 70
    32
  0
VERTEX
  8
E17LXLIFT
 62
8
 10
-305.898
 20
-804.199
 30
3526.612
 70
    32
  0
VERTEX
  8
E17LXLIFT
 62
8
 10
-310.039
 20
-806.125
 30
3526.612
 70
    32
  0
VERTEX
  8
E17LXLIFT
 62
8
 10
-308.545
 20
-818.187
 30
3526.612
 70
    32
  0
VERTEX
  8
E17LXLIFT
 62
8
 10
-305.888
 20
-830.056
 30
3526.612
 70
    32
  0
VERTEX
  8
E17LXLIFT
 62
8
 10
-307.225
 20
-837.331
 30
3526.612
 70
    32
  0
VERTEX
  8
E17LXLIFT
 62
8
 10
-298.197
 20
-849.890
 30
3526.612
 70
    32
  0
VERTEX
  8
E17LXLIFT
 62
8
 10
-290.650
 20
-860.266
 30
3526.612
 70
    32
  0
VERTEX
  8
E17LXLIFT
 62
8
 10
-281.292
 20
-873.129
 30
3526.612
 70
    32
  0
VERTEX
  8
E17LXLIFT
 62
8
 10
-273.906
 20
-884.926
 30
3526.612
 70
    32
  0
VERTEX
  8
E17LXLIFT
 62
8
 10
-270.345
 20
-893.855
 30
3526.612
 70
    32
  0
VERTEX
  8
E17LXLIFT
 62
8
 10
-266.461
 20
-903.526
 30
3526.612
 70
    32
  0
VERTEX
  8
E17LXLIFT
 62
8
 10
-261.840
 20
-914.509
 30
3526.612
 70
    32
  0
VERTEX
  8
E17LXLIFT
 62
8
 10
-258.208
 20
-925.777
 30
3526.612
 70
    32
  0
VERTEX
  8
E17LXLIFT
 62
8
 10
-256.773
 20
-931.036
 30
3526.612
 70
    32
  0
SEQEND
  8
E17LXLIFT
  0
POLYLINE
  8
E17LXLIFT
 62
1
 66
     1
 70
     9
  0
VERTEX
  8
E17LXLIFT
 62
1
 10
-244.890
 20
-897.342
 30
3536.612
 70
    32
  0
VERTEX
  8
E17LXLIFT
 62
1
 10
-248.986
 20
-892.607
 30
3536.612
 70
    32
  0
VERTEX
  8
E17LXLIFT
 62
1
 10
-253.168
 20
-885.216
 30
3536.612
 70
    32
  0
VERTEX
  8
E17LXLIFT
 62
1
 10
-260.282
 20
-878.872
 30
3536.612
 70
    32
  0
VERTEX
  8
E17LXLIFT
 62
1
 10
-265.807
 20
-873.219
 30
3536.612
 70
    32
  0
VERTEX
  8
E17LXLIFT
 62
1
 10
-266.642
 20
-861.764
 30
3536.612
 70
    32
  0
VERTEX
  8
E17LXLIFT
 62
1
 10
-267.231
 20
-847.957
 30
3536.612
 70
    32
  0
VERTEX
  8
E17LXLIFT
 62
1
 10
-268.131
 20
-834.918
 30
3536.612
 70
    32
  0
VERTEX
  8
E17LXLIFT
 62
1
 10
-269.418
 20
-820.749
 30
3536.612
 70
    32
  0
VERTEX
  8
E17LXLIFT
 62
1
 10
-271.867
 20
-818.727
 30
3536.612
 70
    32
  0
VERTEX
  8
E17LXLIFT
 62
1
 10
-277.921
 20
-818.024
 30
3536.612
 70
    32
  0
VERTEX
  8
E17LXLIFT
 62
1
 10
-282.458
 20
-808.501
 30
3536.612
 70
    32
  0
VERTEX
  8
E17LXLIFT
 62
1
 10
-281.095
 20
-800.663
 30
3536.612
 70
    32
  0
VERTEX
  8
E17LXLIFT
 62
1
 10
-280.121
 20
-794.086
 30
3536.612
 70
    32
  0
VERTEX
  8
E17LXLIFT
 62
1
 10
-285.859
 20
-789.784
 30
3536.612
 70
    32
  0
VERTEX
  8
E17LXLIFT
 62
1
 10
-291.919
 20
-790.715
 30
3536.612
 70
    32
  0
VERTEX
  8
E17LXLIFT
 62
1
 10
-298.741
 20
-794.482
 30
3536.612
 70
    32
  0
VERTEX
  8
E17LXLIFT
 62
1
 10
-306.875
 20
-796.596
 30
3536.612
 70
    32
  0
VERTEX
  8
E17LXLIFT
 62
1
 10
-304.898
 20
-803.199
 30
3536.612
 70
    32
  0
VERTEX
  8
E17LXLIFT
 62
1
 10
-309.039
 20
-805.125
 30
3536.612
 70
    32
  0
VERTEX
  8
E17LXLIFT
 62
1
 10
-307.545
 20
-817.187
 30
3536.612
 70
    32
  0
VERTEX
  8
E17LXLIFT
 62
1
 10
-304.888
 20
-829.056
 30
3536.612
 70
    32
  0
VERTEX
  8
E17LXLIFT
 62
1
 10
-306.225
 20
-836.331
 30
3536.612
 70
    32
  0
VERTEX
  8
E17LXLIFT
 62
1
 10
-297.197
 20
-848.890
 30
3536.612
 70
    32
  0
VERTEX
  8
E17LXLIFT
 62
1
 10
-289.650
 20
-859.266
 30
3536.612
 70
    32
  0
VERTEX
  8
E17LXLIFT
 62
1
 10
-280.292
 20
-872.129
 30
3536.612
 70
    32
  0
VERTEX
  8
E17LXLIFT
 62
1
 10
-272.906
 20
-883.926
 30
3536.612
 70
    32
  0
VERTEX
  8
E17LXLIFT
 62
1
 10
-269.345
 20
-892.855
 30
3536.612
 70
    32
  0
VERTEX
  8
E17LXLIFT
 62
1
 10
-265.461
 20
-902.526
 30
3536.612
 70
    32
  0
VERTEX
  8
E17LXLIFT
 62
1
 10
-260.840
 20
-913.509
 30
3536.612
 70
    32
  0
VERTEX
  8
E17LXLIFT
 62
1
 10
-257.208
 20
-924.777
 30
3536.612
 70
    32
  0
VERTEX
  8
E17LXLIFT
 62
1
 10
-255.773
 20
-930.036
 30
3536.612
 70
    32
  0
SEQEND
  8
E17LXLIFT
  0
POINT
  8
E17LXLIFT
 62
1
 10
-289.742
 20
-828.047
 30
3526.612
  0
LINE
  8
E17LXLIFT
 62
8
 10
-289.742
 20
-828.047
 30
3526.612
 11
-295.066
 21
-811.787
 31
3433.000
  0
POLYLINE
  8
E17LXLIFT
 62
1
 66
     1
 70
     9
  0
VERTEX
  8
E17LXLIFT
 62
1
 10
163.351
 20
-1619.911
 30
3559.012
 70
    32
  0
VERTEX
  8
E17LXLIFT
 62
1
 10
171.750
 20
-1613.540
 30
3558.888
 70
    32
  0
VERTEX
  8
E17LXLIFT
 62
1
 10
151.342
 20
-1586.071
 30
3560.936
 70
    32
  0
VERTEX
  8
E17LXLIFT
 62
1
 10
147.581
 20
-1576.424
 30
3561.110
 70
    32
  0
VERTEX
  8
E17LXLIFT
 62
1
 10
138.839
 20
-1579.216
 30
3561.124
 70
    32
  0
VERTEX
  8
E17LXLIFT
 62
1
 10
140.429
 20
-1587.657
 30
3561.245
 70
    32
  0
VERTEX
  8
E17LXLIFT
 62
1
 10
135.798
 20
-1599.841
 30
3561.294
 70
    32
  0
VERTEX
  8
E17LXLIFT
 62
1
 10
135.539
 20
-1609.174
 30
3561.795
 70
    32
  0
VERTEX
  8
E17LXLIFT
 62
1
 10
141.727
 20
-1618.010
 30
3563.061
 70
    32
  0
VERTEX
  8
E17LXLIFT
 62
1
 10
150.581
 20
-1622.308
 30
3562.097
 70
    32
  0
VERTEX
  8
E17LXLIFT
 62
1
 10
150.393
 20
-1617.215
 30
3561.917
 70
    32
  0
VERTEX
  8
E17LXLIFT
 62
1
 10
154.558
 20
-1615.770
 30
3560.882
 70
    32
  0
SEQEND
  8
E17LXLIFT
  0
POLYLINE
  8
E17LXLIFT
 62
1
 66
     1
 70
     9
  0
VERTEX
  8
E17LXLIFT
 62
1
 10
241.821
 20
-1723.133
 30
3538.148
 70
    32
  0
VERTEX
  8
E17LXLIFT
 62
1
 10
250.017
 20
-1728.065
 30
3538.029
 70
    32
  0
VERTEX
  8
E17LXLIFT
 62
1
 10
262.037
 20
-1737.928
 30
3537.461
 70
    32
  0
VERTEX
  8
E17LXLIFT
 62
1
 10
269.687
 20
-1757.105
 30
3537.111
 70
    32
  0
VERTEX
  8
E17LXLIFT
 62
1
 10
270.233
 20
-1763.133
 30
3537.113
 70
    32
  0
VERTEX
  8
E17LXLIFT
 62
1
 10
270.233
 20
-1777.928
 30
3537.150
 70
    32
  0
VERTEX
  8
E17LXLIFT
 62
1
 10
257.119
 20
-1777.928
 30
3537.199
 70
    32
  0
VERTEX
  8
E17LXLIFT
 62
1
 10
252.202
 20
-1772.998
 30
3537.226
 70
    32
  0
VERTEX
  8
E17LXLIFT
 62
1
 10
246.192
 20
-1764.778
 30
3537.549
 70
    32
  0
VERTEX
  8
E17LXLIFT
 62
1
 10
242.913
 20
-1754.914
 30
3537.830
 70
    32
  0
VERTEX
  8
E17LXLIFT
 62
1
 10
246.739
 20
-1745.600
 30
3537.855
 70
    32
  0
VERTEX
  8
E17LXLIFT
 62
1
 10
244.552
 20
-1741.215
 30
3537.912
 70
    32
  0
VERTEX
  8
E17LXLIFT
 62
1
 10
236.357
 20
-1727.516
 30
3538.084
 70
    32
  0
SEQEND
  8
E17LXLIFT
  0
POLYLINE
  8
E17LXLIFT
 62
11
 66
     1
 70
     9
  0
VERTEX
  8
E17LXLIFT
 62
11
 10
203.106
 20
-1797.285
 30
3564.000
 70
    32
  0
VERTEX
  8
E17LXLIFT
 62
11
 10
210.118
 20
-1808.306
 30
3564.000
 70
    32
  0
VERTEX
  8
E17LXLIFT
 62
11
 10
216.001
 20
-1804.513
 30
3564.000
 70
    32
  0
VERTEX
  8
E17LXLIFT
 62
11
 10
211.583
 20
-1794.245
 30
3564.000
 70
    32
  0
VERTEX
  8
E17LXLIFT
 62
11
 10
204.232
 20
-1778.654
 30
3564.000
 70
    32
  0
VERTEX
  8
E17LXLIFT
 62
11
 10
203.999
 20
-1774.470
 30
3564.000
 70
    32
  0
VERTEX
  8
E17LXLIFT
 62
11
 10
207.855
 20
-1769.635
 30
3564.000
 70
    32
  0
VERTEX
  8
E17LXLIFT
 62
11
 10
202.781
 20
-1763.118
 30
3564.000
 70
    32
  0
VERTEX
  8
E17LXLIFT
 62
11
 10
196.039
 20
-1755.732
 30
3564.000
 70
    32
  0
VERTEX
  8
E17LXLIFT
 62
11
 10
188.368
 20
-1746.482
 30
3564.000
 70
    32
  0
VERTEX
  8
E17LXLIFT
 62
11
 10
167.489
 20
-1716.001
 30
3564.000
 70
    32
  0
VERTEX
  8
E17LXLIFT
 62
11
 10
166.299
 20
-1707.840
 30
3564.000
 70
    32
  0
VERTEX
  8
E17LXLIFT
 62
11
 10
165.911
 20
-1701.632
 30
3564.000
 70
    32
  0
VERTEX
  8
E17LXLIFT
 62
11
 10
166.618
 20
-1685.679
 30
3564.000
 70
    32
  0
VERTEX
  8
E17LXLIFT
 62
11
 10
179.989
 20
-1660.974
 30
3564.000
 70
    32
  0
VERTEX
  8
E17LXLIFT
 62
11
 10
168.619
 20
-1659.345
 30
3564.000
 70
    32
  0
VERTEX
  8
E17LXLIFT
 62
11
 10
161.829
 20
-1673.739
 30
3564.000
 70
    32
  0
VERTEX
  8
E17LXLIFT
 62
11
 10
157.756
 20
-1674.941
 30
3564.000
 70
    32
  0
VERTEX
  8
E17LXLIFT
 62
11
 10
156.465
 20
-1675.524
 30
3564.000
 70
    32
  0
VERTEX
  8
E17LXLIFT
 62
11
 10
151.856
 20
-1673.101
 30
3564.000
 70
    32
  0
VERTEX
  8
E17LXLIFT
 62
11
 10
143.975
 20
-1677.094
 30
3564.000
 70
    32
  0
VERTEX
  8
E17LXLIFT
 62
11
 10
145.918
 20
-1686.519
 30
3564.000
 70
    32
  0
VERTEX
  8
E17LXLIFT
 62
11
 10
145.465
 20
-1695.596
 30
3564.000
 70
    32
  0
VERTEX
  8
E17LXLIFT
 62
11
 10
150.265
 20
-1701.214
 30
3564.000
 70
    32
  0
VERTEX
  8
E17LXLIFT
 62
11
 10
148.709
 20
-1711.645
 30
3564.000
 70
    32
  0
VERTEX
  8
E17LXLIFT
 62
11
 10
150.792
 20
-1712.209
 30
3564.000
 70
    32
  0
VERTEX
  8
E17LXLIFT
 62
11
 10
151.263
 20
-1715.295
 30
3564.000
 70
    32
  0
VERTEX
  8
E17LXLIFT
 62
11
 10
154.218
 20
-1717.638
 30
3564.000
 70
    32
  0
VERTEX
  8
E17LXLIFT
 62
11
 10
158.499
 20
-1718.689
 30
3564.000
 70
    32
  0
VERTEX
  8
E17LXLIFT
 62
11
 10
169.595
 20
-1741.193
 30
3564.000
 70
    32
  0
VERTEX
  8
E17LXLIFT
 62
11
 10
181.924
 20
-1753.845
 30
3564.000
 70
    32
  0
VERTEX
  8
E17LXLIFT
 62
11
 10
186.245
 20
-1760.614
 30
3564.000
 70
    32
  0
VERTEX
  8
E17LXLIFT
 62
11
 10
191.738
 20
-1780.820
 30
3564.000
 70
    32
  0
VERTEX
  8
E17LXLIFT
 62
11
 10
199.724
 20
-1799.419
 30
3564.000
 70
    32
  0
SEQEND
  8
E17LXLIFT
  0
POLYLINE
  8
E17LXLIFT
 62
11
 66
     1
 70
     9
  0
VERTEX
  8
E17LXLIFT
 62
11
 10
143.287
 20
-1668.031
 30
3574.000
 70
    32
  0
VERTEX
  8
E17LXLIFT
 62
11
 10
151.742
 20
-1653.760
 30
3574.000
 70
    32
  0
VERTEX
  8
E17LXLIFT
 62
11
 10
156.347
 20
-1691.268
 30
3574.000
 70
    32
  0
VERTEX
  8
E17LXLIFT
 62
11
 10
158.927
 20
-1702.457
 30
3574.000
 70
    32
  0
VERTEX
  8
E17LXLIFT
 62
11
 10
160.954
 20
-1709.968
 30
3574.000
 70
    32
  0
VERTEX
  8
E17LXLIFT
 62
11
 10
175.435
 20
-1720.538
 30
3574.000
 70
    32
  0
VERTEX
  8
E17LXLIFT
 62
11
 10
183.279
 20
-1726.447
 30
3574.000
 70
    32
  0
VERTEX
  8
E17LXLIFT
 62
11
 10
190.836
 20
-1728.797
 30
3574.000
 70
    32
  0
VERTEX
  8
E17LXLIFT
 62
11
 10
200.194
 20
-1749.693
 30
3574.000
 70
    32
  0
VERTEX
  8
E17LXLIFT
 62
11
 10
198.624
 20
-1755.066
 30
3574.000
 70
    32
  0
VERTEX
  8
E17LXLIFT
 62
11
 10
204.581
 20
-1761.064
 30
3574.000
 70
    32
  0
VERTEX
  8
E17LXLIFT
 62
11
 10
204.718
 20
-1763.878
 30
3574.000
 70
    32
  0
VERTEX
  8
E17LXLIFT
 62
11
 10
209.472
 20
-1770.104
 30
3574.000
 70
    32
  0
VERTEX
  8
E17LXLIFT
 62
11
 10
201.410
 20
-1775.829
 30
3574.000
 70
    32
  0
VERTEX
  8
E17LXLIFT
 62
11
 10
188.813
 20
-1761.689
 30
3574.000
 70
    32
  0
VERTEX
  8
E17LXLIFT
 62
11
 10
179.899
 20
-1759.677
 30
3574.000
 70
    32
  0
VERTEX
  8
E17LXLIFT
 62
11
 10
173.247
 20
-1750.464
 30
3574.000
 70
    32
  0
VERTEX
  8
E17LXLIFT
 62
11
 10
164.951
 20
-1736.068
 30
3574.000
 70
    32
  0
VERTEX
  8
E17LXLIFT
 62
11
 10
156.349
 20
-1734.038
 30
3574.000
 70
    32
  0
VERTEX
  8
E17LXLIFT
 62
11
 10
150.793
 20
-1711.502
 30
3574.000
 70
    32
  0
VERTEX
  8
E17LXLIFT
 62
11
 10
148.301
 20
-1703.224
 30
3574.000
 70
    32
  0
VERTEX
  8
E17LXLIFT
 62
11
 10
144.998
 20
-1701.871
 30
3574.000
 70
    32
  0
VERTEX
  8
E17LXLIFT
 62
11
 10
141.387
 20
-1677.051
 30
3574.000
 70
    32
  0
SEQEND
  8
E17LXLIFT
  0
POLYLINE
  8
E17LXLIFT
 62
1
 66
     1
 70
     9
  0
VERTEX
  8
E17LXLIFT
 62
1
 10
201.724
 20
-1799.419
 30
3554.000
 70
    32
  0
VERTEX
  8
E17LXLIFT
 62
1
 10
193.738
 20
-1780.820
 30
3554.000
 70
    32
  0
VERTEX
  8
E17LXLIFT
 62
1
 10
188.245
 20
-1760.614
 30
3554.000
 70
    32
  0
VERTEX
  8
E17LXLIFT
 62
1
 10
183.924
 20
-1753.845
 30
3554.000
 70
    32
  0
VERTEX
  8
E17LXLIFT
 62
1
 10
171.595
 20
-1741.193
 30
3554.000
 70
    32
  0
VERTEX
  8
E17LXLIFT
 62
1
 10
160.499
 20
-1718.689
 30
3554.000
 70
    32
  0
VERTEX
  8
E17LXLIFT
 62
1
 10
156.218
 20
-1717.638
 30
3554.000
 70
    32
  0
VERTEX
  8
E17LXLIFT
 62
1
 10
153.263
 20
-1715.295
 30
3554.000
 70
    32
  0
VERTEX
  8
E17LXLIFT
 62
1
 10
152.792
 20
-1712.209
 30
3554.000
 70
    32
  0
VERTEX
  8
E17LXLIFT
 62
1
 10
150.709
 20
-1711.645
 30
3554.000
 70
    32
  0
VERTEX
  8
E17LXLIFT
 62
1
 10
152.265
 20
-1701.214
 30
3554.000
 70
    32
  0
VERTEX
  8
E17LXLIFT
 62
1
 10
147.465
 20
-1695.596
 30
3554.000
 70
    32
  0
VERTEX
  8
E17LXLIFT
 62
1
 10
147.918
 20
-1686.519
 30
3554.000
 70
    32
  0
VERTEX
  8
E17LXLIFT
 62
1
 10
145.975
 20
-1677.094
 30
3554.000
 70
    32
  0
VERTEX
  8
E17LXLIFT
 62
1
 10
153.856
 20
-1673.101
 30
3554.000
 70
    32
  0
VERTEX
  8
E17LXLIFT
 62
1
 10
158.465
 20
-1675.524
 30
3554.000
 70
    32
  0
VERTEX
  8
E17LXLIFT
 62
1
 10
159.756
 20
-1674.941
 30
3554.000
 70
    32
  0
VERTEX
  8
E17LXLIFT
 62
1
 10
163.829
 20
-1673.739
 30
3554.000
 70
    32
  0
VERTEX
  8
E17LXLIFT
 62
1
 10
170.619
 20
-1659.345
 30
3554.000
 70
    32
  0
VERTEX
  8
E17LXLIFT
 62
1
 10
181.989
 20
-1660.974
 30
3554.000
 70
    32
  0
VERTEX
  8
E17LXLIFT
 62
1
 10
168.618
 20
-1685.679
 30
3554.000
 70
    32
  0
VERTEX
  8
E17LXLIFT
 62
1
 10
167.911
 20
-1701.632
 30
3554.000
 70
    32
  0
VERTEX
  8
E17LXLIFT
 62
1
 10
168.299
 20
-1707.840
 30
3554.000
 70
    32
  0
VERTEX
  8
E17LXLIFT
 62
1
 10
169.489
 20
-1716.001
 30
3554.000
 70
    32
  0
VERTEX
  8
E17LXLIFT
 62
1
 10
190.368
 20
-1746.482
 30
3554.000
 70
    32
  0
VERTEX
  8
E17LXLIFT
 62
1
 10
198.039
 20
-1755.732
 30
3554.000
 70
    32
  0
VERTEX
  8
E17LXLIFT
 62
1
 10
204.781
 20
-1763.118
 30
3554.000
 70
    32
  0
VERTEX
  8
E17LXLIFT
 62
1
 10
209.855
 20
-1769.635
 30
3554.000
 70
    32
  0
VERTEX
  8
E17LXLIFT
 62
1
 10
205.999
 20
-1774.470
 30
3554.000
 70
    32
  0
VERTEX
  8
E17LXLIFT
 62
1
 10
206.232
 20
-1778.654
 30
3554.000
 70
    32
  0
VERTEX
  8
E17LXLIFT
 62
1
 10
213.583
 20
-1794.245
 30
3554.000
 70
    32
  0
VERTEX
  8
E17LXLIFT
 62
1
 10
218.001
 20
-1804.513
 30
3554.000
 70
    32
  0
VERTEX
  8
E17LXLIFT
 62
1
 10
212.118
 20
-1808.306
 30
3554.000
 70
    32
  0
VERTEX
  8
E17LXLIFT
 62
1
 10
205.106
 20
-1797.285
 30
3554.000
 70
    32
  0
SEQEND
  8
E17LXLIFT
  0
POLYLINE
  8
E17LXLIFT
 62
13
 66
     1
 70
     9
  0
VERTEX
  8
E17LXLIFT
 62
13
 10
-22.153
 20
-1392.705
 30
3613.770
 70
    32
  0
VERTEX
  8
E17LXLIFT
 62
13
 10
-26.283
 20
-1380.166
 30
3613.511
 70
    32
  0
VERTEX
  8
E17LXLIFT
 62
13
 10
-22.926
 20
-1374.649
 30
3614.065
 70
    32
  0
VERTEX
  8
E17LXLIFT
 62
13
 10
-13.422
 20
-1370.943
 30
3615.000
 70
    32
  0
VERTEX
  8
E17LXLIFT
 62
13
 10
9.843
 20
-1393.095
 30
3615.000
 70
    32
  0
VERTEX
  8
E17LXLIFT
 62
13
 10
10.946
 20
-1400.577
 30
3615.000
 70
    32
  0
VERTEX
  8
E17LXLIFT
 62
13
 10
6.734
 20
-1412.479
 30
3614.770
 70
    32
  0
VERTEX
  8
E17LXLIFT
 62
13
 10
11.837
 20
-1416.780
 30
3615.038
 70
    32
  0
VERTEX
  8
E17LXLIFT
 62
13
 10
8.927
 20
-1423.561
 30
3614.763
 70
    32
  0
VERTEX
  8
E17LXLIFT
 62
13
 10
1.174
 20
-1427.469
 30
3614.213
 70
    32
  0
VERTEX
  8
E17LXLIFT
 62
13
 10
-13.539
 20
-1410.610
 30
3613.525
 70
    32
  0
SEQEND
  8
E17LXLIFT
  0
POLYLINE
  8
E17LXLIFT
 62
1
 66
     1
 70
     9
  0
VERTEX
  8
E17LXLIFT
 62
1
 10
-26.750
 20
-1395.123
 30
3588.000
 70
    32
  0
VERTEX
  8
E17LXLIFT
 62
1
 10
-23.336
 20
-1392.192
 30
3588.000
 70
    32
  0
VERTEX
  8
E17LXLIFT
 62
1
 10
-24.533
 20
-1386.529
 30
3588.000
 70
    32
  0
VERTEX
  8
E17LXLIFT
 62
1
 10
-26.904
 20
-1379.110
 30
3588.000
 70
    32
  0
VERTEX
  8
E17LXLIFT
 62
1
 10
-21.299
 20
-1375.450
 30
3588.000
 70
    32
  0
VERTEX
  8
E17LXLIFT
 62
1
 10
-13.277
 20
-1371.220
 30
3588.000
 70
    32
  0
VERTEX
  8
E17LXLIFT
 62
1
 10
-8.130
 20
-1376.175
 30
3588.000
 70
    32
  0
VERTEX
  8
E17LXLIFT
 62
1
 10
-2.030
 20
-1382.285
 30
3588.000
 70
    32
  0
VERTEX
  8
E17LXLIFT
 62
1
 10
6.291
 20
-1389.496
 30
3588.000
 70
    32
  0
VERTEX
  8
E17LXLIFT
 62
1
 10
10.624
 20
-1397.661
 30
3588.000
 70
    32
  0
VERTEX
  8
E17LXLIFT
 62
1
 10
9.284
 20
-1405.069
 30
3588.000
 70
    32
  0
VERTEX
  8
E17LXLIFT
 62
1
 10
6.028
 20
-1412.243
 30
3588.000
 70
    32
  0
VERTEX
  8
E17LXLIFT
 62
1
 10
11.295
 20
-1416.020
 30
3588.000
 70
    32
  0
VERTEX
  8
E17LXLIFT
 62
1
 10
13.273
 20
-1421.112
 30
3588.000
 70
    32
  0
VERTEX
  8
E17LXLIFT
 62
1
 10
19.425
 20
-1430.126
 30
3588.000
 70
    32
  0
VERTEX
  8
E17LXLIFT
 62
1
 10
27.167
 20
-1441.464
 30
3588.000
 70
    32
  0
VERTEX
  8
E17LXLIFT
 62
1
 10
19.446
 20
-1446.999
 30
3588.000
 70
    32
  0
VERTEX
  8
E17LXLIFT
 62
1
 10
12.843
 20
-1438.859
 30
3588.000
 70
    32
  0
VERTEX
  8
E17LXLIFT
 62
1
 10
2.860
 20
-1429.376
 30
3588.000
 70
    32
  0
VERTEX
  8
E17LXLIFT
 62
1
 10
-2.393
 20
-1425.915
 30
3588.000
 70
    32
  0
VERTEX
  8
E17LXLIFT
 62
1
 10
-9.435
 20
-1417.770
 30
3588.000
 70
    32
  0
VERTEX
  8
E17LXLIFT
 62
1
 10
-17.303
 20
-1408.049
 30
3588.000
 70
    32
  0
SEQEND
  8
E17LXLIFT
  0
POLYLINE
  8
E17LXLIFT
 62
13
 66
     1
 70
     9
  0
VERTEX
  8
E17LXLIFT
 62
13
 10
-26.750
 20
-1395.123
 30
3598.000
 70
    32
  0
VERTEX
  8
E17LXLIFT
 62
13
 10
-23.336
 20
-1392.192
 30
3598.000
 70
    32
  0
VERTEX
  8
E17LXLIFT
 62
13
 10
-24.533
 20
-1386.529
 30
3598.000
 70
    32
  0
VERTEX
  8
E17LXLIFT
 62
13
 10
-26.904
 20
-1379.110
 30
3598.000
 70
    32
  0
VERTEX
  8
E17LXLIFT
 62
13
 10
-21.299
 20
-1375.450
 30
3598.000
 70
    32
  0
VERTEX
  8
E17LXLIFT
 62
13
 10
-13.277
 20
-1371.220
 30
3598.000
 70
    32
  0
VERTEX
  8
E17LXLIFT
 62
13
 10
-8.130
 20
-1376.175
 30
3598.000
 70
    32
  0
VERTEX
  8
E17LXLIFT
 62
13
 10
-2.030
 20
-1382.285
 30
3598.000
 70
    32
  0
VERTEX
  8
E17LXLIFT
 62
13
 10
6.291
 20
-1389.496
 30
3598.000
 70
    32
  0
VERTEX
  8
E17LXLIFT
 62
13
 10
10.624
 20
-1397.661
 30
3598.000
 70
    32
  0
VERTEX
  8
E17LXLIFT
 62
13
 10
9.284
 20
-1405.069
 30
3598.000
 70
    32
  0
VERTEX
  8
E17LXLIFT
 62
13
 10
6.028
 20
-1412.243
 30
3598.000
 70
    32
  0
VERTEX
  8
E17LXLIFT
 62
13
 10
11.295
 20
-1416.020
 30
3598.000
 70
    32
  0
VERTEX
  8
E17LXLIFT
 62
13
 10
13.273
 20
-1421.112
 30
3598.000
 70
    32
  0
VERTEX
  8
E17LXLIFT
 62
13
 10
19.425
 20
-1430.126
 30
3598.000
 70
    32
  0
VERTEX
  8
E17LXLIFT
 62
13
 10
27.167
 20
-1441.464
 30
3598.000
 70
    32
  0
VERTEX
  8
E17LXLIFT
 62
13
 10
19.446
 20
-1446.999
 30
3598.000
 70
    32
  0
VERTEX
  8
E17LXLIFT
 62
13
 10
12.843
 20
-1438.859
 30
3598.000
 70
    32
  0
VERTEX
  8
E17LXLIFT
 62
13
 10
2.860
 20
-1429.376
 30
3598.000
 70
    32
  0
VERTEX
  8
E17LXLIFT
 62
13
 10
-2.393
 20
-1425.915
 30
3598.000
 70
    32
  0
VERTEX
  8
E17LXLIFT
 62
13
 10
-9.435
 20
-1417.770
 30
3598.000
 70
    32
  0
VERTEX
  8
E17LXLIFT
 62
13
 10
-17.303
 20
-1408.049
 30
3598.000
 70
    32
  0
SEQEND
  8
E17LXLIFT
  0
ENDSEC
  0
EOF
