999
********************************
999
*   DXF File - Entities Only   *
999
*        3D Data Format        *
999
*     Output from ENVISAGE     *
999
*     31-Dec-2007 14:03:07     *
999
********************************
  0
SECTION 
  2
HEADER
  9
$ACADVER
  1
AC1009
  9
$EXTMIN
 10
-290000.000
 20
-250000.000
 30
-4000.000
  9
$EXTMAX
 10
320000.000
 20
160000.000
 30
6000.000
  0
ENDSEC
  0
SECTION
  2
ENTITIES
  0
POLYLINE
  8
E17XLIFTS
 62
7
 66
     1
 70
     9
  0
VERTEX
  8
E17XLIFTS
 62
7
 10
-1500.936
 20
-1419.779
 30
3660.602
 70
    32
  0
VERTEX
  8
E17XLIFTS
 62
7
 10
-1509.146
 20
-1416.150
 30
3658.930
 70
    32
  0
VERTEX
  8
E17XLIFTS
 62
7
 10
-1525.234
 20
-1403.730
 30
3658.733
 70
    32
  0
VERTEX
  8
E17XLIFTS
 62
7
 10
-1535.438
 20
-1390.386
 30
3658.542
 70
    32
  0
VERTEX
  8
E17XLIFTS
 62
7
 10
-1558.681
 20
-1355.366
 30
3658.452
 70
    32
  0
VERTEX
  8
E17XLIFTS
 62
7
 10
-1564.519
 20
-1342.806
 30
3658.452
 70
    32
  0
VERTEX
  8
E17XLIFTS
 62
7
 10
-1569.478
 20
-1315.007
 30
3658.452
 70
    32
  0
VERTEX
  8
E17XLIFTS
 62
7
 10
-1581.975
 20
-1314.569
 30
3658.452
 70
    32
  0
VERTEX
  8
E17XLIFTS
 62
7
 10
-1583.930
 20
-1284.660
 30
3658.452
 70
    32
  0
VERTEX
  8
E17XLIFTS
 62
7
 10
-1590.916
 20
-1283.307
 30
3658.452
 70
    32
  0
VERTEX
  8
E17XLIFTS
 62
7
 10
-1600.127
 20
-1285.662
 30
3658.452
 70
    32
  0
VERTEX
  8
E17XLIFTS
 62
7
 10
-1602.321
 20
-1287.818
 30
3658.452
 70
    32
  0
VERTEX
  8
E17XLIFTS
 62
7
 10
-1600.825
 20
-1294.375
 30
3658.452
 70
    32
  0
VERTEX
  8
E17XLIFTS
 62
7
 10
-1602.513
 20
-1297.017
 30
3658.452
 70
    32
  0
VERTEX
  8
E17XLIFTS
 62
7
 10
-1603.667
 20
-1298.345
 30
3658.452
 70
    32
  0
VERTEX
  8
E17XLIFTS
 62
7
 10
-1610.726
 20
-1299.602
 30
3658.452
 70
    32
  0
VERTEX
  8
E17XLIFTS
 62
7
 10
-1616.130
 20
-1305.984
 30
3658.452
 70
    32
  0
VERTEX
  8
E17XLIFTS
 62
7
 10
-1624.658
 20
-1320.939
 30
3658.452
 70
    32
  0
VERTEX
  8
E17XLIFTS
 62
7
 10
-1617.558
 20
-1328.130
 30
3658.452
 70
    32
  0
VERTEX
  8
E17XLIFTS
 62
7
 10
-1603.453
 20
-1337.670
 30
3658.452
 70
    32
  0
VERTEX
  8
E17XLIFTS
 62
7
 10
-1594.352
 20
-1351.781
 30
3658.452
 70
    32
  0
VERTEX
  8
E17XLIFTS
 62
7
 10
-1577.109
 20
-1372.380
 30
3658.452
 70
    32
  0
VERTEX
  8
E17XLIFTS
 62
7
 10
-1576.432
 20
-1375.225
 30
3658.452
 70
    32
  0
VERTEX
  8
E17XLIFTS
 62
7
 10
-1577.416
 20
-1378.910
 30
3658.452
 70
    32
  0
VERTEX
  8
E17XLIFTS
 62
7
 10
-1566.121
 20
-1390.865
 30
3658.452
 70
    32
  0
VERTEX
  8
E17XLIFTS
 62
7
 10
-1555.313
 20
-1409.665
 30
3658.452
 70
    32
  0
VERTEX
  8
E17XLIFTS
 62
7
 10
-1547.470
 20
-1416.718
 30
3658.448
 70
    32
  0
VERTEX
  8
E17XLIFTS
 62
7
 10
-1546.315
 20
-1428.065
 30
3658.446
 70
    32
  0
VERTEX
  8
E17XLIFTS
 62
7
 10
-1540.959
 20
-1428.705
 30
3658.440
 70
    32
  0
VERTEX
  8
E17XLIFTS
 62
7
 10
-1536.935
 20
-1431.112
 30
3658.439
 70
    32
  0
VERTEX
  8
E17XLIFTS
 62
7
 10
-1530.140
 20
-1438.620
 30
3658.443
 70
    32
  0
VERTEX
  8
E17XLIFTS
 62
7
 10
-1523.894
 20
-1443.406
 30
3658.430
 70
    32
  0
VERTEX
  8
E17XLIFTS
 62
7
 10
-1516.079
 20
-1439.357
 30
3658.407
 70
    32
  0
VERTEX
  8
E17XLIFTS
 62
7
 10
-1500.830
 20
-1431.457
 30
3661.083
 70
    32
  0
SEQEND
  8
E17XLIFTS
  0
POLYLINE
  8
E17XLIFTS
 62
7
 66
     1
 70
     9
  0
VERTEX
  8
E17XLIFTS
 62
7
 10
-1379.993
 20
-1412.933
 30
3680.848
 70
    32
  0
VERTEX
  8
E17XLIFTS
 62
7
 10
-1371.299
 20
-1428.742
 30
3680.668
 70
    32
  0
VERTEX
  8
E17XLIFTS
 62
7
 10
-1365.791
 20
-1446.214
 30
3680.490
 70
    32
  0
VERTEX
  8
E17XLIFTS
 62
7
 10
-1369.566
 20
-1452.622
 30
3680.490
 70
    32
  0
VERTEX
  8
E17XLIFTS
 62
7
 10
-1379.184
 20
-1452.907
 30
3680.476
 70
    32
  0
VERTEX
  8
E17XLIFTS
 62
7
 10
-1399.926
 20
-1418.293
 30
3679.896
 70
    32
  0
VERTEX
  8
E17XLIFTS
 62
7
 10
-1404.024
 20
-1417.124
 30
3679.711
 70
    32
  0
VERTEX
  8
E17XLIFTS
 62
7
 10
-1411.366
 20
-1404.817
 30
3679.620
 70
    32
  0
VERTEX
  8
E17XLIFTS
 62
7
 10
-1414.410
 20
-1403.512
 30
3678.932
 70
    32
  0
VERTEX
  8
E17XLIFTS
 62
7
 10
-1419.244
 20
-1382.128
 30
3681.005
 70
    32
  0
VERTEX
  8
E17XLIFTS
 62
7
 10
-1424.649
 20
-1367.948
 30
3682.082
 70
    32
  0
VERTEX
  8
E17XLIFTS
 62
7
 10
-1420.430
 20
-1361.475
 30
3682.082
 70
    32
  0
VERTEX
  8
E17XLIFTS
 62
7
 10
-1412.180
 20
-1357.065
 30
3682.082
 70
    32
  0
VERTEX
  8
E17XLIFTS
 62
7
 10
-1403.708
 20
-1373.227
 30
3683.130
 70
    32
  0
VERTEX
  8
E17XLIFTS
 62
7
 10
-1397.487
 20
-1379.053
 30
3683.465
 70
    32
  0
SEQEND
  8
E17XLIFTS
  0
POLYLINE
  8
E17XLIFTS
 62
2
 66
     1
 70
     9
  0
VERTEX
  8
E17XLIFTS
 62
2
 10
-107.372
 20
-1341.497
 30
3632.287
 70
    32
  0
VERTEX
  8
E17XLIFTS
 62
2
 10
-105.793
 20
-1345.004
 30
3632.680
 70
    32
  0
VERTEX
  8
E17XLIFTS
 62
2
 10
-103.549
 20
-1349.991
 30
3636.856
 70
    32
  0
VERTEX
  8
E17XLIFTS
 62
2
 10
-99.902
 20
-1358.091
 30
3636.907
 70
    32
  0
VERTEX
  8
E17XLIFTS
 62
2
 10
-87.722
 20
-1376.746
 30
3637.000
 70
    32
  0
VERTEX
  8
E17XLIFTS
 62
2
 10
-77.965
 20
-1385.849
 30
3637.000
 70
    32
  0
VERTEX
  8
E17XLIFTS
 62
2
 10
-66.043
 20
-1390.417
 30
3637.000
 70
    32
  0
VERTEX
  8
E17XLIFTS
 62
2
 10
-51.984
 20
-1377.120
 30
3637.000
 70
    32
  0
VERTEX
  8
E17XLIFTS
 62
2
 10
-67.565
 20
-1369.342
 30
3637.000
 70
    32
  0
VERTEX
  8
E17XLIFTS
 62
2
 10
-81.258
 20
-1350.160
 30
3637.000
 70
    32
  0
VERTEX
  8
E17XLIFTS
 62
2
 10
-75.181
 20
-1340.454
 30
3637.121
 70
    32
  0
VERTEX
  8
E17XLIFTS
 62
2
 10
-75.623
 20
-1330.266
 30
3637.673
 70
    32
  0
VERTEX
  8
E17XLIFTS
 62
2
 10
-76.607
 20
-1327.761
 30
3637.801
 70
    32
  0
VERTEX
  8
E17XLIFTS
 62
2
 10
-80.675
 20
-1324.841
 30
3637.849
 70
    32
  0
VERTEX
  8
E17XLIFTS
 62
2
 10
-81.998
 20
-1318.144
 30
3638.371
 70
    32
  0
VERTEX
  8
E17XLIFTS
 62
2
 10
-84.545
 20
-1312.259
 30
3637.713
 70
    32
  0
VERTEX
  8
E17XLIFTS
 62
2
 10
-92.692
 20
-1311.018
 30
3637.162
 70
    32
  0
VERTEX
  8
E17XLIFTS
 62
2
 10
-97.389
 20
-1303.673
 30
3637.008
 70
    32
  0
VERTEX
  8
E17XLIFTS
 62
2
 10
-114.750
 20
-1310.327
 30
3636.454
 70
    32
  0
VERTEX
  8
E17XLIFTS
 62
2
 10
-108.424
 20
-1318.083
 30
3635.298
 70
    32
  0
VERTEX
  8
E17XLIFTS
 62
2
 10
-108.083
 20
-1321.634
 30
3634.946
 70
    32
  0
VERTEX
  8
E17XLIFTS
 62
2
 10
-109.340
 20
-1323.936
 30
3634.130
 70
    32
  0
SEQEND
  8
E17XLIFTS
  0
POLYLINE
  8
E17XLIFTS
 62
19
 66
     1
 70
     9
  0
VERTEX
  8
E17XLIFTS
 62
19
 10
-791.761
 20
-256.048
 30
3569.325
 70
    32
  0
VERTEX
  8
E17XLIFTS
 62
19
 10
-795.394
 20
-252.477
 30
3569.361
 70
    32
  0
VERTEX
  8
E17XLIFTS
 62
19
 10
-800.034
 20
-241.838
 30
3569.339
 70
    32
  0
VERTEX
  8
E17XLIFTS
 62
19
 10
-806.242
 20
-239.011
 30
3569.312
 70
    32
  0
VERTEX
  8
E17XLIFTS
 62
19
 10
-813.424
 20
-241.024
 30
3569.285
 70
    32
  0
VERTEX
  8
E17XLIFTS
 62
19
 10
-821.386
 20
-247.718
 30
3569.259
 70
    32
  0
VERTEX
  8
E17XLIFTS
 62
19
 10
-827.486
 20
-243.737
 30
3569.240
 70
    32
  0
VERTEX
  8
E17XLIFTS
 62
19
 10
-847.182
 20
-244.253
 30
3569.240
 70
    32
  0
VERTEX
  8
E17XLIFTS
 62
19
 10
-866.124
 20
-240.739
 30
3569.240
 70
    32
  0
VERTEX
  8
E17XLIFTS
 62
19
 10
-877.777
 20
-220.247
 30
3569.240
 70
    32
  0
VERTEX
  8
E17XLIFTS
 62
19
 10
-887.319
 20
-198.678
 30
3569.240
 70
    32
  0
VERTEX
  8
E17XLIFTS
 62
19
 10
-896.055
 20
-197.845
 30
3569.240
 70
    32
  0
VERTEX
  8
E17XLIFTS
 62
19
 10
-902.204
 20
-200.771
 30
3569.240
 70
    32
  0
VERTEX
  8
E17XLIFTS
 62
19
 10
-905.156
 20
-206.282
 30
3569.240
 70
    32
  0
VERTEX
  8
E17XLIFTS
 62
19
 10
-896.521
 20
-224.932
 30
3569.240
 70
    32
  0
VERTEX
  8
E17XLIFTS
 62
19
 10
-881.942
 20
-240.564
 30
3569.240
 70
    32
  0
VERTEX
  8
E17XLIFTS
 62
19
 10
-881.002
 20
-245.784
 30
3569.240
 70
    32
  0
VERTEX
  8
E17XLIFTS
 62
19
 10
-878.785
 20
-248.956
 30
3569.240
 70
    32
  0
VERTEX
  8
E17XLIFTS
 62
19
 10
-860.073
 20
-257.132
 30
3569.240
 70
    32
  0
VERTEX
  8
E17XLIFTS
 62
19
 10
-857.960
 20
-260.207
 30
3569.240
 70
    32
  0
VERTEX
  8
E17XLIFTS
 62
19
 10
-831.327
 20
-275.701
 30
3569.240
 70
    32
  0
VERTEX
  8
E17XLIFTS
 62
19
 10
-820.115
 20
-303.314
 30
3569.240
 70
    32
  0
VERTEX
  8
E17XLIFTS
 62
19
 10
-825.578
 20
-314.070
 30
3569.240
 70
    32
  0
VERTEX
  8
E17XLIFTS
 62
19
 10
-822.105
 20
-318.748
 30
3569.240
 70
    32
  0
VERTEX
  8
E17XLIFTS
 62
19
 10
-818.380
 20
-319.363
 30
3569.240
 70
    32
  0
VERTEX
  8
E17XLIFTS
 62
19
 10
-816.187
 20
-313.629
 30
3569.240
 70
    32
  0
VERTEX
  8
E17XLIFTS
 62
19
 10
-795.397
 20
-301.914
 30
3569.240
 70
    32
  0
VERTEX
  8
E17XLIFTS
 62
19
 10
-793.220
 20
-290.226
 30
3569.240
 70
    32
  0
VERTEX
  8
E17XLIFTS
 62
19
 10
-793.679
 20
-284.489
 30
3569.240
 70
    32
  0
VERTEX
  8
E17XLIFTS
 62
19
 10
-791.591
 20
-275.856
 30
3569.240
 70
    32
  0
SEQEND
  8
E17XLIFTS
  0
POLYLINE
  8
E17XLIFTS
 62
19
 66
     1
 70
     9
  0
VERTEX
  8
E17XLIFTS
 62
19
 10
-577.226
 20
-458.733
 30
3566.564
 70
    32
  0
VERTEX
  8
E17XLIFTS
 62
19
 10
-582.869
 20
-441.123
 30
3567.302
 70
    32
  0
VERTEX
  8
E17XLIFTS
 62
19
 10
-589.118
 20
-406.651
 30
3566.514
 70
    32
  0
VERTEX
  8
E17XLIFTS
 62
19
 10
-594.641
 20
-387.991
 30
3567.068
 70
    32
  0
VERTEX
  8
E17XLIFTS
 62
19
 10
-596.329
 20
-377.367
 30
3567.167
 70
    32
  0
VERTEX
  8
E17XLIFTS
 62
19
 10
-601.547
 20
-362.035
 30
3567.888
 70
    32
  0
VERTEX
  8
E17XLIFTS
 62
19
 10
-599.354
 20
-352.650
 30
3567.158
 70
    32
  0
VERTEX
  8
E17XLIFTS
 62
19
 10
-601.210
 20
-343.005
 30
3567.302
 70
    32
  0
VERTEX
  8
E17XLIFTS
 62
19
 10
-602.381
 20
-320.311
 30
3566.945
 70
    32
  0
VERTEX
  8
E17XLIFTS
 62
19
 10
-608.475
 20
-308.895
 30
3567.932
 70
    32
  0
VERTEX
  8
E17XLIFTS
 62
19
 10
-610.267
 20
-302.879
 30
3567.964
 70
    32
  0
VERTEX
  8
E17XLIFTS
 62
19
 10
-617.523
 20
-292.948
 30
3569.015
 70
    32
  0
VERTEX
  8
E17XLIFTS
 62
19
 10
-618.405
 20
-289.185
 30
3568.980
 70
    32
  0
VERTEX
  8
E17XLIFTS
 62
19
 10
-615.221
 20
-273.886
 30
3567.275
 70
    32
  0
VERTEX
  8
E17XLIFTS
 62
19
 10
-617.116
 20
-267.263
 30
3566.372
 70
    32
  0
VERTEX
  8
E17XLIFTS
 62
19
 10
-611.974
 20
-262.974
 30
3565.540
 70
    32
  0
VERTEX
  8
E17XLIFTS
 62
19
 10
-606.814
 20
-261.901
 30
3565.540
 70
    32
  0
VERTEX
  8
E17XLIFTS
 62
19
 10
-596.431
 20
-278.226
 30
3565.540
 70
    32
  0
VERTEX
  8
E17XLIFTS
 62
19
 10
-590.111
 20
-281.068
 30
3565.540
 70
    32
  0
VERTEX
  8
E17XLIFTS
 62
19
 10
-589.471
 20
-287.288
 30
3565.540
 70
    32
  0
VERTEX
  8
E17XLIFTS
 62
19
 10
-593.709
 20
-306.222
 30
3565.540
 70
    32
  0
VERTEX
  8
E17XLIFTS
 62
19
 10
-590.234
 20
-316.139
 30
3565.540
 70
    32
  0
VERTEX
  8
E17XLIFTS
 62
19
 10
-581.740
 20
-319.163
 30
3565.540
 70
    32
  0
VERTEX
  8
E17XLIFTS
 62
19
 10
-575.168
 20
-338.508
 30
3565.540
 70
    32
  0
VERTEX
  8
E17XLIFTS
 62
19
 10
-570.510
 20
-337.803
 30
3565.540
 70
    32
  0
VERTEX
  8
E17XLIFTS
 62
19
 10
-568.131
 20
-332.798
 30
3565.540
 70
    32
  0
VERTEX
  8
E17XLIFTS
 62
19
 10
-564.579
 20
-332.657
 30
3565.540
 70
    32
  0
VERTEX
  8
E17XLIFTS
 62
19
 10
-557.903
 20
-335.578
 30
3565.540
 70
    32
  0
VERTEX
  8
E17XLIFTS
 62
19
 10
-560.515
 20
-341.929
 30
3565.540
 70
    32
  0
VERTEX
  8
E17XLIFTS
 62
19
 10
-549.127
 20
-354.739
 30
3565.540
 70
    32
  0
VERTEX
  8
E17XLIFTS
 62
19
 10
-552.630
 20
-361.502
 30
3565.540
 70
    32
  0
VERTEX
  8
E17XLIFTS
 62
19
 10
-548.276
 20
-371.644
 30
3565.540
 70
    32
  0
VERTEX
  8
E17XLIFTS
 62
19
 10
-578.356
 20
-407.444
 30
3565.540
 70
    32
  0
VERTEX
  8
E17XLIFTS
 62
19
 10
-575.208
 20
-420.905
 30
3565.540
 70
    32
  0
VERTEX
  8
E17XLIFTS
 62
19
 10
-564.812
 20
-440.535
 30
3565.503
 70
    32
  0
VERTEX
  8
E17XLIFTS
 62
19
 10
-559.471
 20
-444.611
 30
3565.464
 70
    32
  0
VERTEX
  8
E17XLIFTS
 62
19
 10
-551.515
 20
-461.235
 30
3565.413
 70
    32
  0
VERTEX
  8
E17XLIFTS
 62
19
 10
-551.180
 20
-474.208
 30
3566.895
 70
    32
  0
VERTEX
  8
E17XLIFTS
 62
19
 10
-554.563
 20
-478.095
 30
3567.849
 70
    32
  0
VERTEX
  8
E17XLIFTS
 62
19
 10
-559.040
 20
-474.484
 30
3567.493
 70
    32
  0
VERTEX
  8
E17XLIFTS
 62
19
 10
-567.026
 20
-464.217
 30
3566.069
 70
    32
  0
SEQEND
  8
E17XLIFTS
  0
POLYLINE
  8
E17XLIFTS
 62
19
 66
     1
 70
     9
  0
VERTEX
  8
E17XLIFTS
 62
19
 10
-411.872
 20
-741.714
 30
3588.564
 70
    32
  0
VERTEX
  8
E17XLIFTS
 62
19
 10
-405.064
 20
-747.871
 30
3588.880
 70
    32
  0
VERTEX
  8
E17XLIFTS
 62
19
 10
-401.097
 20
-756.244
 30
3588.880
 70
    32
  0
VERTEX
  8
E17XLIFTS
 62
19
 10
-392.138
 20
-753.261
 30
3588.880
 70
    32
  0
VERTEX
  8
E17XLIFTS
 62
19
 10
-390.719
 20
-746.891
 30
3588.880
 70
    32
  0
VERTEX
  8
E17XLIFTS
 62
19
 10
-391.579
 20
-736.221
 30
3588.641
 70
    32
  0
VERTEX
  8
E17XLIFTS
 62
19
 10
-401.823
 20
-691.355
 30
3586.284
 70
    32
  0
VERTEX
  8
E17XLIFTS
 62
19
 10
-406.417
 20
-680.416
 30
3585.674
 70
    32
  0
VERTEX
  8
E17XLIFTS
 62
19
 10
-407.427
 20
-662.979
 30
3584.808
 70
    32
  0
VERTEX
  8
E17XLIFTS
 62
19
 10
-433.819
 20
-647.318
 30
3584.196
 70
    32
  0
VERTEX
  8
E17XLIFTS
 62
19
 10
-440.856
 20
-646.477
 30
3584.138
 70
    32
  0
VERTEX
  8
E17XLIFTS
 62
19
 10
-449.757
 20
-635.673
 30
3583.840
 70
    32
  0
VERTEX
  8
E17XLIFTS
 62
19
 10
-451.595
 20
-639.009
 30
3583.906
 70
    32
  0
VERTEX
  8
E17XLIFTS
 62
19
 10
-466.638
 20
-632.748
 30
3583.512
 70
    32
  0
VERTEX
  8
E17XLIFTS
 62
19
 10
-471.434
 20
-642.249
 30
3583.742
 70
    32
  0
VERTEX
  8
E17XLIFTS
 62
19
 10
-460.233
 20
-647.781
 30
3584.058
 70
    32
  0
VERTEX
  8
E17XLIFTS
 62
19
 10
-455.624
 20
-654.628
 30
3584.241
 70
    32
  0
VERTEX
  8
E17XLIFTS
 62
19
 10
-434.045
 20
-669.707
 30
3584.806
 70
    32
  0
VERTEX
  8
E17XLIFTS
 62
19
 10
-418.417
 20
-713.679
 30
3587.089
 70
    32
  0
VERTEX
  8
E17XLIFTS
 62
19
 10
-416.706
 20
-725.253
 30
3587.681
 70
    32
  0
SEQEND
  8
E17XLIFTS
  0
POLYLINE
  8
E17XLIFTS
 62
19
 66
     1
 70
     9
  0
VERTEX
  8
E17XLIFTS
 62
19
 10
-783.144
 20
-0.344
 30
3581.695
 70
    32
  0
VERTEX
  8
E17XLIFTS
 62
19
 10
-762.684
 20
13.300
 30
3582.047
 70
    32
  0
VERTEX
  8
E17XLIFTS
 62
19
 10
-762.599
 20
22.631
 30
3582.227
 70
    32
  0
VERTEX
  8
E17XLIFTS
 62
19
 10
-769.657
 20
44.209
 30
3582.613
 70
    32
  0
VERTEX
  8
E17XLIFTS
 62
19
 10
-784.106
 20
68.165
 30
3582.699
 70
    32
  0
VERTEX
  8
E17XLIFTS
 62
19
 10
-786.110
 20
68.599
 30
3582.699
 70
    32
  0
VERTEX
  8
E17XLIFTS
 62
19
 10
-791.791
 20
65.545
 30
3582.699
 70
    32
  0
VERTEX
  8
E17XLIFTS
 62
19
 10
-796.301
 20
70.864
 30
3582.699
 70
    32
  0
VERTEX
  8
E17XLIFTS
 62
19
 10
-797.586
 20
75.522
 30
3582.699
 70
    32
  0
VERTEX
  8
E17XLIFTS
 62
19
 10
-806.346
 20
73.228
 30
3582.699
 70
    32
  0
VERTEX
  8
E17XLIFTS
 62
19
 10
-807.422
 20
66.733
 30
3582.699
 70
    32
  0
VERTEX
  8
E17XLIFTS
 62
19
 10
-806.384
 20
48.795
 30
3582.531
 70
    32
  0
VERTEX
  8
E17XLIFTS
 62
19
 10
-811.517
 20
43.240
 30
3582.389
 70
    32
  0
VERTEX
  8
E17XLIFTS
 62
19
 10
-792.267
 20
7.344
 30
3581.755
 70
    32
  0
SEQEND
  8
E17XLIFTS
  0
POLYLINE
  8
E17XLIFTS
 62
7
 66
     1
 70
     9
  0
VERTEX
  8
E17XLIFTS
 62
7
 10
-905.702
 20
-220.485
 30
3633.867
 70
    32
  0
VERTEX
  8
E17XLIFTS
 62
7
 10
-898.727
 20
-212.152
 30
3632.433
 70
    32
  0
VERTEX
  8
E17XLIFTS
 62
7
 10
-890.476
 20
-208.190
 30
3630.992
 70
    32
  0
VERTEX
  8
E17XLIFTS
 62
7
 10
-881.408
 20
-198.741
 30
3629.730
 70
    32
  0
VERTEX
  8
E17XLIFTS
 62
7
 10
-869.358
 20
-216.680
 30
3629.280
 70
    32
  0
VERTEX
  8
E17XLIFTS
 62
7
 10
-862.868
 20
-211.679
 30
3629.280
 70
    32
  0
VERTEX
  8
E17XLIFTS
 62
7
 10
-847.843
 20
-205.881
 30
3629.280
 70
    32
  0
VERTEX
  8
E17XLIFTS
 62
7
 10
-846.791
 20
-194.955
 30
3629.280
 70
    32
  0
VERTEX
  8
E17XLIFTS
 62
7
 10
-839.379
 20
-189.511
 30
3629.280
 70
    32
  0
VERTEX
  8
E17XLIFTS
 62
7
 10
-828.089
 20
-194.693
 30
3629.280
 70
    32
  0
VERTEX
  8
E17XLIFTS
 62
7
 10
-825.040
 20
-197.771
 30
3629.280
 70
    32
  0
VERTEX
  8
E17XLIFTS
 62
7
 10
-822.423
 20
-203.623
 30
3629.280
 70
    32
  0
VERTEX
  8
E17XLIFTS
 62
7
 10
-823.357
 20
-213.467
 30
3629.280
 70
    32
  0
VERTEX
  8
E17XLIFTS
 62
7
 10
-820.219
 20
-219.750
 30
3629.280
 70
    32
  0
VERTEX
  8
E17XLIFTS
 62
7
 10
-828.348
 20
-228.210
 30
3629.280
 70
    32
  0
VERTEX
  8
E17XLIFTS
 62
7
 10
-846.455
 20
-217.813
 30
3629.280
 70
    32
  0
VERTEX
  8
E17XLIFTS
 62
7
 10
-850.465
 20
-220.185
 30
3629.280
 70
    32
  0
VERTEX
  8
E17XLIFTS
 62
7
 10
-853.988
 20
-224.297
 30
3629.280
 70
    32
  0
VERTEX
  8
E17XLIFTS
 62
7
 10
-856.531
 20
-236.918
 30
3629.280
 70
    32
  0
VERTEX
  8
E17XLIFTS
 62
7
 10
-849.413
 20
-239.756
 30
3629.280
 70
    32
  0
VERTEX
  8
E17XLIFTS
 62
7
 10
-838.799
 20
-239.792
 30
3629.280
 70
    32
  0
VERTEX
  8
E17XLIFTS
 62
7
 10
-819.541
 20
-249.700
 30
3629.280
 70
    32
  0
VERTEX
  8
E17XLIFTS
 62
7
 10
-818.151
 20
-252.245
 30
3629.280
 70
    32
  0
VERTEX
  8
E17XLIFTS
 62
7
 10
-813.659
 20
-255.320
 30
3629.280
 70
    32
  0
VERTEX
  8
E17XLIFTS
 62
7
 10
-811.966
 20
-258.908
 30
3629.280
 70
    32
  0
VERTEX
  8
E17XLIFTS
 62
7
 10
-806.760
 20
-262.558
 30
3629.280
 70
    32
  0
VERTEX
  8
E17XLIFTS
 62
7
 10
-797.703
 20
-264.514
 30
3629.280
 70
    32
  0
VERTEX
  8
E17XLIFTS
 62
7
 10
-796.344
 20
-270.475
 30
3629.280
 70
    32
  0
VERTEX
  8
E17XLIFTS
 62
7
 10
-798.871
 20
-273.302
 30
3629.280
 70
    32
  0
VERTEX
  8
E17XLIFTS
 62
7
 10
-806.717
 20
-268.704
 30
3629.280
 70
    32
  0
VERTEX
  8
E17XLIFTS
 62
7
 10
-811.967
 20
-271.199
 30
3629.280
 70
    32
  0
VERTEX
  8
E17XLIFTS
 62
7
 10
-829.164
 20
-255.185
 30
3629.280
 70
    32
  0
VERTEX
  8
E17XLIFTS
 62
7
 10
-832.758
 20
-255.553
 30
3629.280
 70
    32
  0
VERTEX
  8
E17XLIFTS
 62
7
 10
-842.076
 20
-251.563
 30
3629.280
 70
    32
  0
VERTEX
  8
E17XLIFTS
 62
7
 10
-847.940
 20
-254.223
 30
3629.291
 70
    32
  0
VERTEX
  8
E17XLIFTS
 62
7
 10
-854.405
 20
-259.976
 30
3629.292
 70
    32
  0
VERTEX
  8
E17XLIFTS
 62
7
 10
-849.843
 20
-267.841
 30
3629.291
 70
    32
  0
VERTEX
  8
E17XLIFTS
 62
7
 10
-851.287
 20
-275.814
 30
3629.283
 70
    32
  0
VERTEX
  8
E17XLIFTS
 62
7
 10
-859.916
 20
-282.444
 30
3629.280
 70
    32
  0
VERTEX
  8
E17XLIFTS
 62
7
 10
-875.877
 20
-280.434
 30
3629.280
 70
    32
  0
VERTEX
  8
E17XLIFTS
 62
7
 10
-878.095
 20
-270.645
 30
3629.292
 70
    32
  0
VERTEX
  8
E17XLIFTS
 62
7
 10
-874.011
 20
-256.914
 30
3629.408
 70
    32
  0
VERTEX
  8
E17XLIFTS
 62
7
 10
-874.236
 20
-245.129
 30
3629.574
 70
    32
  0
VERTEX
  8
E17XLIFTS
 62
7
 10
-895.582
 20
-239.831
 30
3631.975
 70
    32
  0
VERTEX
  8
E17XLIFTS
 62
7
 10
-914.048
 20
-229.618
 30
3634.721
 70
    32
  0
SEQEND
  8
E17XLIFTS
  0
POLYLINE
  8
E17XLIFTS
 62
7
 66
     1
 70
     9
  0
VERTEX
  8
E17XLIFTS
 62
7
 10
-661.018
 20
-130.671
 30
3638.500
 70
    32
  0
VERTEX
  8
E17XLIFTS
 62
7
 10
-658.452
 20
-135.531
 30
3638.500
 70
    32
  0
VERTEX
  8
E17XLIFTS
 62
7
 10
-661.716
 20
-147.198
 30
3638.500
 70
    32
  0
VERTEX
  8
E17XLIFTS
 62
7
 10
-660.830
 20
-152.621
 30
3638.500
 70
    32
  0
VERTEX
  8
E17XLIFTS
 62
7
 10
-665.256
 20
-159.799
 30
3638.500
 70
    32
  0
VERTEX
  8
E17XLIFTS
 62
7
 10
-668.905
 20
-182.307
 30
3638.500
 70
    32
  0
VERTEX
  8
E17XLIFTS
 62
7
 10
-668.644
 20
-197.006
 30
3638.500
 70
    32
  0
VERTEX
  8
E17XLIFTS
 62
7
 10
-661.289
 20
-212.365
 30
3638.500
 70
    32
  0
VERTEX
  8
E17XLIFTS
 62
7
 10
-661.867
 20
-216.492
 30
3638.500
 70
    32
  0
VERTEX
  8
E17XLIFTS
 62
7
 10
-665.249
 20
-218.932
 30
3638.500
 70
    32
  0
VERTEX
  8
E17XLIFTS
 62
7
 10
-670.537
 20
-218.511
 30
3638.500
 70
    32
  0
VERTEX
  8
E17XLIFTS
 62
7
 10
-674.095
 20
-213.136
 30
3638.500
 70
    32
  0
VERTEX
  8
E17XLIFTS
 62
7
 10
-682.182
 20
-211.414
 30
3638.500
 70
    32
  0
VERTEX
  8
E17XLIFTS
 62
7
 10
-685.668
 20
-208.785
 30
3638.500
 70
    32
  0
VERTEX
  8
E17XLIFTS
 62
7
 10
-683.651
 20
-199.110
 30
3638.500
 70
    32
  0
VERTEX
  8
E17XLIFTS
 62
7
 10
-684.829
 20
-197.859
 30
3638.500
 70
    32
  0
VERTEX
  8
E17XLIFTS
 62
7
 10
-685.791
 20
-191.850
 30
3638.500
 70
    32
  0
VERTEX
  8
E17XLIFTS
 62
7
 10
-688.804
 20
-190.377
 30
3638.500
 70
    32
  0
VERTEX
  8
E17XLIFTS
 62
7
 10
-692.970
 20
-179.678
 30
3638.500
 70
    32
  0
VERTEX
  8
E17XLIFTS
 62
7
 10
-684.279
 20
-147.913
 30
3638.500
 70
    32
  0
VERTEX
  8
E17XLIFTS
 62
7
 10
-677.641
 20
-145.701
 30
3638.500
 70
    32
  0
VERTEX
  8
E17XLIFTS
 62
7
 10
-673.661
 20
-138.342
 30
3638.500
 70
    32
  0
VERTEX
  8
E17XLIFTS
 62
7
 10
-675.109
 20
-127.587
 30
3638.500
 70
    32
  0
VERTEX
  8
E17XLIFTS
 62
7
 10
-680.436
 20
-119.032
 30
3638.500
 70
    32
  0
VERTEX
  8
E17XLIFTS
 62
7
 10
-670.350
 20
-114.952
 30
3638.500
 70
    32
  0
VERTEX
  8
E17XLIFTS
 62
7
 10
-661.758
 20
-122.829
 30
3638.500
 70
    32
  0
SEQEND
  8
E17XLIFTS
  0
POLYLINE
  8
E17XLIFTS
 62
5
 66
     1
 70
     9
  0
VERTEX
  8
E17XLIFTS
 62
5
 10
-522.577
 20
-534.919
 30
3601.465
 70
    32
  0
VERTEX
  8
E17XLIFTS
 62
5
 10
-522.091
 20
-524.482
 30
3604.354
 70
    32
  0
VERTEX
  8
E17XLIFTS
 62
5
 10
-521.507
 20
-511.291
 30
3604.331
 70
    32
  0
VERTEX
  8
E17XLIFTS
 62
5
 10
-520.606
 20
-509.368
 30
3604.326
 70
    32
  0
VERTEX
  8
E17XLIFTS
 62
5
 10
-522.561
 20
-495.925
 30
3604.458
 70
    32
  0
VERTEX
  8
E17XLIFTS
 62
5
 10
-524.802
 20
-492.135
 30
3604.589
 70
    32
  0
VERTEX
  8
E17XLIFTS
 62
5
 10
-535.036
 20
-485.384
 30
3604.988
 70
    32
  0
VERTEX
  8
E17XLIFTS
 62
5
 10
-548.051
 20
-495.414
 30
3605.431
 70
    32
  0
VERTEX
  8
E17XLIFTS
 62
5
 10
-553.536
 20
-496.165
 30
3605.705
 70
    32
  0
VERTEX
  8
E17XLIFTS
 62
5
 10
-553.635
 20
-503.645
 30
3605.610
 70
    32
  0
VERTEX
  8
E17XLIFTS
 62
5
 10
-564.870
 20
-514.676
 30
3605.269
 70
    32
  0
VERTEX
  8
E17XLIFTS
 62
5
 10
-565.602
 20
-517.447
 30
3605.036
 70
    32
  0
VERTEX
  8
E17XLIFTS
 62
5
 10
-562.488
 20
-522.018
 30
3604.506
 70
    32
  0
VERTEX
  8
E17XLIFTS
 62
5
 10
-561.442
 20
-532.343
 30
3603.425
 70
    32
  0
VERTEX
  8
E17XLIFTS
 62
5
 10
-554.225
 20
-538.318
 30
3602.604
 70
    32
  0
VERTEX
  8
E17XLIFTS
 62
5
 10
-547.624
 20
-540.218
 30
3602.199
 70
    32
  0
VERTEX
  8
E17XLIFTS
 62
5
 10
-537.133
 20
-546.572
 30
3600.672
 70
    32
  0
VERTEX
  8
E17XLIFTS
 62
5
 10
-528.444
 20
-553.873
 30
3599.144
 70
    32
  0
VERTEX
  8
E17XLIFTS
 62
5
 10
-523.323
 20
-554.131
 30
3598.661
 70
    32
  0
SEQEND
  8
E17XLIFTS
  0
POLYLINE
  8
E17XLIFTS
 62
6
 66
     1
 70
     9
  0
VERTEX
  8
E17XLIFTS
 62
6
 10
-498.482
 20
-819.065
 30
3614.254
 70
    32
  0
VERTEX
  8
E17XLIFTS
 62
6
 10
-499.677
 20
-826.519
 30
3615.425
 70
    32
  0
VERTEX
  8
E17XLIFTS
 62
6
 10
-501.847
 20
-830.618
 30
3615.690
 70
    32
  0
VERTEX
  8
E17XLIFTS
 62
6
 10
-507.184
 20
-832.737
 30
3615.693
 70
    32
  0
VERTEX
  8
E17XLIFTS
 62
6
 10
-499.845
 20
-841.165
 30
3615.808
 70
    32
  0
VERTEX
  8
E17XLIFTS
 62
6
 10
-499.346
 20
-843.172
 30
3615.804
 70
    32
  0
VERTEX
  8
E17XLIFTS
 62
6
 10
-501.209
 20
-846.073
 30
3615.794
 70
    32
  0
VERTEX
  8
E17XLIFTS
 62
6
 10
-497.497
 20
-852.476
 30
3615.788
 70
    32
  0
VERTEX
  8
E17XLIFTS
 62
6
 10
-495.395
 20
-859.733
 30
3615.783
 70
    32
  0
VERTEX
  8
E17XLIFTS
 62
6
 10
-489.355
 20
-866.203
 30
3615.783
 70
    32
  0
VERTEX
  8
E17XLIFTS
 62
6
 10
-489.457
 20
-873.579
 30
3615.783
 70
    32
  0
VERTEX
  8
E17XLIFTS
 62
6
 10
-482.825
 20
-884.868
 30
3615.783
 70
    32
  0
VERTEX
  8
E17XLIFTS
 62
6
 10
-469.279
 20
-900.301
 30
3615.783
 70
    32
  0
VERTEX
  8
E17XLIFTS
 62
6
 10
-468.359
 20
-908.610
 30
3615.783
 70
    32
  0
VERTEX
  8
E17XLIFTS
 62
6
 10
-464.353
 20
-916.591
 30
3615.783
 70
    32
  0
VERTEX
  8
E17XLIFTS
 62
6
 10
-451.159
 20
-934.084
 30
3615.783
 70
    32
  0
VERTEX
  8
E17XLIFTS
 62
6
 10
-452.944
 20
-941.717
 30
3615.783
 70
    32
  0
VERTEX
  8
E17XLIFTS
 62
6
 10
-408.613
 20
-912.164
 30
3615.783
 70
    32
  0
VERTEX
  8
E17XLIFTS
 62
6
 10
-414.742
 20
-892.239
 30
3615.783
 70
    32
  0
VERTEX
  8
E17XLIFTS
 62
6
 10
-415.359
 20
-884.346
 30
3615.783
 70
    32
  0
VERTEX
  8
E17XLIFTS
 62
6
 10
-418.822
 20
-875.038
 30
3615.783
 70
    32
  0
VERTEX
  8
E17XLIFTS
 62
6
 10
-419.665
 20
-824.254
 30
3615.783
 70
    32
  0
VERTEX
  8
E17XLIFTS
 62
6
 10
-421.081
 20
-818.477
 30
3615.783
 70
    32
  0
VERTEX
  8
E17XLIFTS
 62
6
 10
-424.099
 20
-815.670
 30
3615.783
 70
    32
  0
VERTEX
  8
E17XLIFTS
 62
6
 10
-430.876
 20
-814.284
 30
3615.783
 70
    32
  0
VERTEX
  8
E17XLIFTS
 62
6
 10
-438.728
 20
-816.055
 30
3615.783
 70
    32
  0
VERTEX
  8
E17XLIFTS
 62
6
 10
-447.286
 20
-814.534
 30
3615.783
 70
    32
  0
VERTEX
  8
E17XLIFTS
 62
6
 10
-449.362
 20
-812.419
 30
3615.772
 70
    32
  0
VERTEX
  8
E17XLIFTS
 62
6
 10
-451.956
 20
-806.081
 30
3615.727
 70
    32
  0
VERTEX
  8
E17XLIFTS
 62
6
 10
-455.484
 20
-803.639
 30
3615.710
 70
    32
  0
VERTEX
  8
E17XLIFTS
 62
6
 10
-458.610
 20
-796.257
 30
3615.713
 70
    32
  0
VERTEX
  8
E17XLIFTS
 62
6
 10
-463.529
 20
-796.861
 30
3615.676
 70
    32
  0
VERTEX
  8
E17XLIFTS
 62
6
 10
-464.824
 20
-795.759
 30
3615.670
 70
    32
  0
VERTEX
  8
E17XLIFTS
 62
6
 10
-479.949
 20
-801.955
 30
3615.544
 70
    32
  0
VERTEX
  8
E17XLIFTS
 62
6
 10
-483.092
 20
-808.393
 30
3615.594
 70
    32
  0
VERTEX
  8
E17XLIFTS
 62
6
 10
-488.907
 20
-809.914
 30
3615.089
 70
    32
  0
SEQEND
  8
E17XLIFTS
  0
POLYLINE
  8
E17XLIFTS
 62
6
 66
     1
 70
     9
  0
VERTEX
  8
E17XLIFTS
 62
6
 10
-493.504
 20
-802.079
 30
3613.377
 70
    32
  0
VERTEX
  8
E17XLIFTS
 62
6
 10
-486.132
 20
-796.503
 30
3613.890
 70
    32
  0
VERTEX
  8
E17XLIFTS
 62
6
 10
-465.173
 20
-790.303
 30
3614.405
 70
    32
  0
VERTEX
  8
E17XLIFTS
 62
6
 10
-464.026
 20
-783.687
 30
3613.477
 70
    32
  0
VERTEX
  8
E17XLIFTS
 62
6
 10
-459.331
 20
-778.940
 30
3613.080
 70
    32
  0
VERTEX
  8
E17XLIFTS
 62
6
 10
-459.838
 20
-770.810
 30
3611.805
 70
    32
  0
VERTEX
  8
E17XLIFTS
 62
6
 10
-465.005
 20
-764.352
 30
3610.461
 70
    32
  0
VERTEX
  8
E17XLIFTS
 62
6
 10
-476.710
 20
-770.094
 30
3610.520
 70
    32
  0
VERTEX
  8
E17XLIFTS
 62
6
 10
-481.459
 20
-768.669
 30
3609.972
 70
    32
  0
VERTEX
  8
E17XLIFTS
 62
6
 10
-493.865
 20
-758.577
 30
3607.569
 70
    32
  0
VERTEX
  8
E17XLIFTS
 62
6
 10
-512.778
 20
-760.843
 30
3606.356
 70
    32
  0
SEQEND
  8
E17XLIFTS
  0
POLYLINE
  8
E17XLIFTS
 62
2
 66
     1
 70
     9
  0
VERTEX
  8
E17XLIFTS
 62
2
 10
-871.089
 20
-281.984
 30
3601.010
 70
    32
  0
VERTEX
  8
E17XLIFTS
 62
2
 10
-868.563
 20
-300.802
 30
3601.010
 70
    32
  0
VERTEX
  8
E17XLIFTS
 62
2
 10
-871.785
 20
-303.830
 30
3601.010
 70
    32
  0
VERTEX
  8
E17XLIFTS
 62
2
 10
-869.827
 20
-309.620
 30
3601.010
 70
    32
  0
VERTEX
  8
E17XLIFTS
 62
2
 10
-870.456
 20
-318.220
 30
3601.010
 70
    32
  0
VERTEX
  8
E17XLIFTS
 62
2
 10
-868.891
 20
-318.924
 30
3601.010
 70
    32
  0
VERTEX
  8
E17XLIFTS
 62
2
 10
-868.036
 20
-327.880
 30
3601.010
 70
    32
  0
VERTEX
  8
E17XLIFTS
 62
2
 10
-850.291
 20
-335.067
 30
3601.010
 70
    32
  0
VERTEX
  8
E17XLIFTS
 62
2
 10
-845.750
 20
-332.275
 30
3601.010
 70
    32
  0
VERTEX
  8
E17XLIFTS
 62
2
 10
-844.577
 20
-326.647
 30
3601.010
 70
    32
  0
VERTEX
  8
E17XLIFTS
 62
2
 10
-851.171
 20
-315.044
 30
3601.010
 70
    32
  0
VERTEX
  8
E17XLIFTS
 62
2
 10
-845.869
 20
-296.220
 30
3601.010
 70
    32
  0
VERTEX
  8
E17XLIFTS
 62
2
 10
-842.256
 20
-299.355
 30
3601.010
 70
    32
  0
VERTEX
  8
E17XLIFTS
 62
2
 10
-823.070
 20
-287.778
 30
3601.010
 70
    32
  0
VERTEX
  8
E17XLIFTS
 62
2
 10
-822.560
 20
-279.812
 30
3601.010
 70
    32
  0
VERTEX
  8
E17XLIFTS
 62
2
 10
-807.427
 20
-271.537
 30
3601.010
 70
    32
  0
VERTEX
  8
E17XLIFTS
 62
2
 10
-807.322
 20
-256.696
 30
3601.010
 70
    32
  0
VERTEX
  8
E17XLIFTS
 62
2
 10
-791.772
 20
-240.751
 30
3601.010
 70
    32
  0
VERTEX
  8
E17XLIFTS
 62
2
 10
-794.225
 20
-224.810
 30
3601.282
 70
    32
  0
VERTEX
  8
E17XLIFTS
 62
2
 10
-800.649
 20
-220.814
 30
3601.010
 70
    32
  0
VERTEX
  8
E17XLIFTS
 62
2
 10
-802.914
 20
-223.153
 30
3601.010
 70
    32
  0
VERTEX
  8
E17XLIFTS
 62
2
 10
-806.186
 20
-221.578
 30
3601.010
 70
    32
  0
VERTEX
  8
E17XLIFTS
 62
2
 10
-823.761
 20
-198.709
 30
3601.010
 70
    32
  0
VERTEX
  8
E17XLIFTS
 62
2
 10
-828.278
 20
-179.985
 30
3601.010
 70
    32
  0
VERTEX
  8
E17XLIFTS
 62
2
 10
-835.352
 20
-179.553
 30
3601.010
 70
    32
  0
VERTEX
  8
E17XLIFTS
 62
2
 10
-837.806
 20
-183.220
 30
3601.010
 70
    32
  0
VERTEX
  8
E17XLIFTS
 62
2
 10
-848.052
 20
-184.640
 30
3601.010
 70
    32
  0
VERTEX
  8
E17XLIFTS
 62
2
 10
-851.393
 20
-186.199
 30
3601.010
 70
    32
  0
VERTEX
  8
E17XLIFTS
 62
2
 10
-849.630
 20
-193.839
 30
3601.010
 70
    32
  0
VERTEX
  8
E17XLIFTS
 62
2
 10
-838.041
 20
-194.942
 30
3601.010
 70
    32
  0
VERTEX
  8
E17XLIFTS
 62
2
 10
-836.786
 20
-198.973
 30
3601.010
 70
    32
  0
VERTEX
  8
E17XLIFTS
 62
2
 10
-842.627
 20
-203.616
 30
3601.010
 70
    32
  0
VERTEX
  8
E17XLIFTS
 62
2
 10
-858.044
 20
-208.126
 30
3601.010
 70
    32
  0
VERTEX
  8
E17XLIFTS
 62
2
 10
-875.979
 20
-199.233
 30
3601.010
 70
    32
  0
VERTEX
  8
E17XLIFTS
 62
2
 10
-884.137
 20
-184.792
 30
3601.010
 70
    32
  0
VERTEX
  8
E17XLIFTS
 62
2
 10
-891.768
 20
-176.739
 30
3601.010
 70
    32
  0
VERTEX
  8
E17XLIFTS
 62
2
 10
-896.933
 20
-176.184
 30
3601.010
 70
    32
  0
VERTEX
  8
E17XLIFTS
 62
2
 10
-900.224
 20
-172.943
 30
3601.010
 70
    32
  0
VERTEX
  8
E17XLIFTS
 62
2
 10
-905.416
 20
-163.123
 30
3601.010
 70
    32
  0
VERTEX
  8
E17XLIFTS
 62
2
 10
-915.321
 20
-163.457
 30
3601.010
 70
    32
  0
VERTEX
  8
E17XLIFTS
 62
2
 10
-920.645
 20
-167.478
 30
3601.010
 70
    32
  0
VERTEX
  8
E17XLIFTS
 62
2
 10
-921.848
 20
-174.271
 30
3601.010
 70
    32
  0
VERTEX
  8
E17XLIFTS
 62
2
 10
-915.990
 20
-183.434
 30
3601.010
 70
    32
  0
VERTEX
  8
E17XLIFTS
 62
2
 10
-907.048
 20
-204.319
 30
3601.010
 70
    32
  0
VERTEX
  8
E17XLIFTS
 62
2
 10
-903.038
 20
-217.898
 30
3601.010
 70
    32
  0
VERTEX
  8
E17XLIFTS
 62
2
 10
-908.357
 20
-223.063
 30
3601.010
 70
    32
  0
VERTEX
  8
E17XLIFTS
 62
2
 10
-904.120
 20
-232.776
 30
3601.010
 70
    32
  0
VERTEX
  8
E17XLIFTS
 62
2
 10
-902.619
 20
-242.357
 30
3601.010
 70
    32
  0
VERTEX
  8
E17XLIFTS
 62
2
 10
-896.166
 20
-247.711
 30
3601.010
 70
    32
  0
VERTEX
  8
E17XLIFTS
 62
2
 10
-892.250
 20
-255.104
 30
3601.010
 70
    32
  0
VERTEX
  8
E17XLIFTS
 62
2
 10
-883.440
 20
-264.512
 30
3601.010
 70
    32
  0
VERTEX
  8
E17XLIFTS
 62
2
 10
-880.236
 20
-263.937
 30
3601.010
 70
    32
  0
SEQEND
  8
E17XLIFTS
  0
POLYLINE
  8
E17XLIFTS
 62
2
 66
     1
 70
     9
  0
VERTEX
  8
E17XLIFTS
 62
2
 10
-841.000
 20
-218.047
 30
3601.010
 70
    32
  0
VERTEX
  8
E17XLIFTS
 62
2
 10
-842.948
 20
-219.633
 30
3601.010
 70
    32
  0
VERTEX
  8
E17XLIFTS
 62
2
 10
-845.710
 20
-227.125
 30
3601.010
 70
    32
  0
VERTEX
  8
E17XLIFTS
 62
2
 10
-851.329
 20
-235.198
 30
3601.010
 70
    32
  0
VERTEX
  8
E17XLIFTS
 62
2
 10
-840.470
 20
-237.970
 30
3601.010
 70
    32
  0
VERTEX
  8
E17XLIFTS
 62
2
 10
-834.486
 20
-234.839
 30
3601.010
 70
    32
  0
VERTEX
  8
E17XLIFTS
 62
2
 10
-829.841
 20
-237.719
 30
3601.010
 70
    32
  0
VERTEX
  8
E17XLIFTS
 62
2
 10
-824.524
 20
-236.025
 30
3601.010
 70
    32
  0
VERTEX
  8
E17XLIFTS
 62
2
 10
-821.037
 20
-230.058
 30
3601.010
 70
    32
  0
VERTEX
  8
E17XLIFTS
 62
2
 10
-832.205
 20
-219.500
 30
3601.010
 70
    32
  0
SEQEND
  8
E17XLIFTS
  0
ENDSEC
  0
EOF
