999
********************************
999
*   DXF File - Entities Only   *
999
*        3D Data Format        *
999
*     Output from ENVISAGE     *
999
*     31-Dec-2007 14:05:16     *
999
********************************
  0
SECTION 
  2
HEADER
  9
$ACADVER
  1
AC1009
  9
$EXTMIN
 10
-290000.000
 20
-250000.000
 30
-4000.000
  9
$EXTMAX
 10
320000.000
 20
160000.000
 30
6000.000
  0
ENDSEC
  0
SECTION
  2
ENTITIES
  0
POLYLINE
  8
E18LXLIFT
 62
5
 66
     1
 70
     8
  0
VERTEX
  8
E18LXLIFT
 62
5
 10
-304.121
 20
-959.505
 30
3483.000
 70
    32
  0
VERTEX
  8
E18LXLIFT
 62
5
 10
-309.428
 20
-969.388
 30
3483.000
 70
    32
  0
VERTEX
  8
E18LXLIFT
 62
5
 10
-298.092
 20
-981.681
 30
3483.000
 70
    32
  0
VERTEX
  8
E18LXLIFT
 62
5
 10
-293.268
 20
-982.646
 30
3483.000
 70
    32
  0
VERTEX
  8
E18LXLIFT
 62
5
 10
-281.449
 20
-978.548
 30
3483.000
 70
    32
  0
VERTEX
  8
E18LXLIFT
 62
5
 10
-273.490
 20
-972.280
 30
3483.000
 70
    32
  0
VERTEX
  8
E18LXLIFT
 62
5
 10
-285.308
 20
-963.361
 30
3483.000
 70
    32
  0
VERTEX
  8
E18LXLIFT
 62
5
 10
-289.891
 20
-964.085
 30
3483.000
 70
    32
  0
VERTEX
  8
E18LXLIFT
 62
5
 10
-304.121
 20
-959.264
 30
3483.000
 70
    32
  0
VERTEX
  8
E18LXLIFT
 62
5
 10
-309.428
 20
-969.388
 30
3483.000
 70
    32
  0
SEQEND
  8
E18LXLIFT
  0
POLYLINE
  8
E18LXLIFT
 62
5
 66
     1
 70
     9
  0
VERTEX
  8
E18LXLIFT
 62
5
 10
-143.870
 20
-1230.378
 30
3477.000
 70
    32
  0
VERTEX
  8
E18LXLIFT
 62
5
 10
-139.204
 20
-1221.053
 30
3477.000
 70
    32
  0
VERTEX
  8
E18LXLIFT
 62
5
 10
-130.541
 20
-1221.719
 30
3477.000
 70
    32
  0
VERTEX
  8
E18LXLIFT
 62
5
 10
-127.875
 20
-1229.046
 30
3477.000
 70
    32
  0
VERTEX
  8
E18LXLIFT
 62
5
 10
-111.214
 20
-1253.024
 30
3477.000
 70
    32
  0
VERTEX
  8
E18LXLIFT
 62
5
 10
-98.551
 20
-1282.331
 30
3477.000
 70
    32
  0
VERTEX
  8
E18LXLIFT
 62
5
 10
-93.886
 20
-1292.988
 30
3477.000
 70
    32
  0
VERTEX
  8
E18LXLIFT
 62
5
 10
-89.221
 20
-1294.320
 30
3477.000
 70
    32
  0
VERTEX
  8
E18LXLIFT
 62
5
 10
-75.892
 20
-1321.629
 30
3477.000
 70
    32
  0
VERTEX
  8
E18LXLIFT
 62
5
 10
-71.893
 20
-1334.950
 30
3477.000
 70
    32
  0
VERTEX
  8
E18LXLIFT
 62
5
 10
-57.898
 20
-1370.918
 30
3477.000
 70
    32
  0
VERTEX
  8
E18LXLIFT
 62
5
 10
-53.233
 20
-1372.250
 30
3477.000
 70
    32
  0
VERTEX
  8
E18LXLIFT
 62
5
 10
-50.567
 20
-1375.580
 30
3477.000
 70
    32
  0
VERTEX
  8
E18LXLIFT
 62
5
 10
-42.570
 20
-1402.223
 30
3477.000
 70
    32
  0
VERTEX
  8
E18LXLIFT
 62
5
 10
-27.241
 20
-1394.896
 30
3477.000
 70
    32
  0
VERTEX
  8
E18LXLIFT
 62
5
 10
-45.902
 20
-1348.937
 30
3477.000
 70
    32
  0
VERTEX
  8
E18LXLIFT
 62
5
 10
-47.235
 20
-1337.614
 30
3477.000
 70
    32
  0
VERTEX
  8
E18LXLIFT
 62
5
 10
-61.230
 20
-1311.638
 30
3477.000
 70
    32
  0
VERTEX
  8
E18LXLIFT
 62
5
 10
-73.226
 20
-1289.658
 30
3477.000
 70
    32
  0
VERTEX
  8
E18LXLIFT
 62
5
 10
-84.556
 20
-1271.674
 30
3477.000
 70
    32
  0
VERTEX
  8
E18LXLIFT
 62
5
 10
-81.890
 20
-1264.347
 30
3477.000
 70
    32
  0
VERTEX
  8
E18LXLIFT
 62
5
 10
-85.222
 20
-1257.020
 30
3477.000
 70
    32
  0
VERTEX
  8
E18LXLIFT
 62
5
 10
-85.889
 20
-1251.692
 30
3477.000
 70
    32
  0
VERTEX
  8
E18LXLIFT
 62
5
 10
-99.030
 20
-1220.420
 30
3477.000
 70
    32
  0
VERTEX
  8
E18LXLIFT
 62
5
 10
-109.679
 20
-1210.590
 30
3477.000
 70
    32
  0
VERTEX
  8
E18LXLIFT
 62
5
 10
-116.387
 20
-1194.211
 30
3477.000
 70
    32
  0
VERTEX
  8
E18LXLIFT
 62
5
 10
-133.206
 20
-1151.782
 30
3477.000
 70
    32
  0
VERTEX
  8
E18LXLIFT
 62
5
 10
-147.868
 20
-1116.480
 30
3477.000
 70
    32
  0
VERTEX
  8
E18LXLIFT
 62
5
 10
-158.531
 20
-1113.816
 30
3477.000
 70
    32
  0
VERTEX
  8
E18LXLIFT
 62
5
 10
-167.047
 20
-1085.702
 30
3477.000
 70
    32
  0
VERTEX
  8
E18LXLIFT
 62
5
 10
-176.278
 20
-1083.452
 30
3477.000
 70
    32
  0
VERTEX
  8
E18LXLIFT
 62
5
 10
-190.237
 20
-1067.025
 30
3477.000
 70
    32
  0
VERTEX
  8
E18LXLIFT
 62
5
 10
-203.971
 20
-1054.424
 30
3477.000
 70
    32
  0
VERTEX
  8
E18LXLIFT
 62
5
 10
-210.276
 20
-1042.723
 30
3477.000
 70
    32
  0
VERTEX
  8
E18LXLIFT
 62
5
 10
-217.030
 20
-1037.997
 30
3477.000
 70
    32
  0
VERTEX
  8
E18LXLIFT
 62
5
 10
-227.182
 20
-1021.937
 30
3477.000
 70
    32
  0
VERTEX
  8
E18LXLIFT
 62
5
 10
-238.035
 20
-1024.348
 30
3477.000
 70
    32
  0
VERTEX
  8
E18LXLIFT
 62
5
 10
-244.306
 20
-1007.956
 30
3477.000
 70
    32
  0
VERTEX
  8
E18LXLIFT
 62
5
 10
-252.024
 20
-1001.207
 30
3477.000
 70
    32
  0
VERTEX
  8
E18LXLIFT
 62
5
 10
-253.713
 20
-994.457
 30
3477.000
 70
    32
  0
VERTEX
  8
E18LXLIFT
 62
5
 10
-258.054
 20
-993.011
 30
3477.000
 70
    32
  0
VERTEX
  8
E18LXLIFT
 62
5
 10
-272.043
 20
-973.245
 30
3477.000
 70
    32
  0
VERTEX
  8
E18LXLIFT
 62
5
 10
-275.902
 20
-971.316
 30
3477.000
 70
    32
  0
VERTEX
  8
E18LXLIFT
 62
5
 10
-288.203
 20
-960.710
 30
3477.000
 70
    32
  0
VERTEX
  8
E18LXLIFT
 62
5
 10
-293.991
 20
-958.299
 30
3477.000
 70
    32
  0
VERTEX
  8
E18LXLIFT
 62
5
 10
-299.539
 20
-959.746
 30
3477.000
 70
    32
  0
VERTEX
  8
E18LXLIFT
 62
5
 10
-314.975
 20
-953.960
 30
3477.000
 70
    32
  0
VERTEX
  8
E18LXLIFT
 62
5
 10
-321.728
 20
-955.166
 30
3477.000
 70
    32
  0
VERTEX
  8
E18LXLIFT
 62
5
 10
-328.240
 20
-951.791
 30
3477.000
 70
    32
  0
VERTEX
  8
E18LXLIFT
 62
5
 10
-345.124
 20
-944.077
 30
3477.000
 70
    32
  0
VERTEX
  8
E18LXLIFT
 62
5
 10
-350.189
 20
-958.781
 30
3477.000
 70
    32
  0
VERTEX
  8
E18LXLIFT
 62
5
 10
-338.853
 20
-968.665
 30
3477.000
 70
    32
  0
VERTEX
  8
E18LXLIFT
 62
5
 10
-323.658
 20
-974.691
 30
3477.000
 70
    32
  0
VERTEX
  8
E18LXLIFT
 62
5
 10
-315.698
 20
-974.209
 30
3477.000
 70
    32
  0
VERTEX
  8
E18LXLIFT
 62
5
 10
-308.704
 20
-972.521
 30
3477.000
 70
    32
  0
VERTEX
  8
E18LXLIFT
 62
5
 10
-299.056
 20
-982.164
 30
3477.000
 70
    32
  0
VERTEX
  8
E18LXLIFT
 62
5
 10
-294.956
 20
-983.369
 30
3477.000
 70
    32
  0
VERTEX
  8
E18LXLIFT
 62
5
 10
-281.691
 20
-979.030
 30
3477.000
 70
    32
  0
VERTEX
  8
E18LXLIFT
 62
5
 10
-275.902
 20
-983.369
 30
3477.000
 70
    32
  0
VERTEX
  8
E18LXLIFT
 62
5
 10
-270.355
 20
-991.082
 30
3477.000
 70
    32
  0
VERTEX
  8
E18LXLIFT
 62
5
 10
-271.319
 20
-997.350
 30
3477.000
 70
    32
  0
VERTEX
  8
E18LXLIFT
 62
5
 10
-263.843
 20
-1004.822
 30
3477.000
 70
    32
  0
VERTEX
  8
E18LXLIFT
 62
5
 10
-261.672
 20
-1009.402
 30
3477.000
 70
    32
  0
VERTEX
  8
E18LXLIFT
 62
5
 10
-267.219
 20
-1017.116
 30
3477.000
 70
    32
  0
VERTEX
  8
E18LXLIFT
 62
5
 10
-260.225
 20
-1024.830
 30
3477.000
 70
    32
  0
VERTEX
  8
E18LXLIFT
 62
5
 10
-259.260
 20
-1031.579
 30
3477.000
 70
    32
  0
VERTEX
  8
E18LXLIFT
 62
5
 10
-253.713
 20
-1033.990
 30
3477.000
 70
    32
  0
VERTEX
  8
E18LXLIFT
 62
5
 10
-248.648
 20
-1039.293
 30
3477.000
 70
    32
  0
VERTEX
  8
E18LXLIFT
 62
5
 10
-229.111
 20
-1045.560
 30
3477.000
 70
    32
  0
VERTEX
  8
E18LXLIFT
 62
5
 10
-219.222
 20
-1059.059
 30
3477.000
 70
    32
  0
VERTEX
  8
E18LXLIFT
 62
5
 10
-214.881
 20
-1067.978
 30
3477.000
 70
    32
  0
VERTEX
  8
E18LXLIFT
 62
5
 10
-203.786
 20
-1077.138
 30
3477.000
 70
    32
  0
VERTEX
  8
E18LXLIFT
 62
5
 10
-189.074
 20
-1087.021
 30
3477.000
 70
    32
  0
VERTEX
  8
E18LXLIFT
 62
5
 10
-182.320
 20
-1094.012
 30
3477.000
 70
    32
  0
VERTEX
  8
E18LXLIFT
 62
5
 10
-171.949
 20
-1120.287
 30
3477.000
 70
    32
  0
VERTEX
  8
E18LXLIFT
 62
5
 10
-177.014
 20
-1124.143
 30
3477.000
 70
    32
  0
VERTEX
  8
E18LXLIFT
 62
5
 10
-163.508
 20
-1151.623
 30
3477.000
 70
    32
  0
VERTEX
  8
E18LXLIFT
 62
5
 10
-157.478
 20
-1160.060
 30
3477.000
 70
    32
  0
VERTEX
  8
E18LXLIFT
 62
5
 10
-158.201
 20
-1167.051
 30
3477.000
 70
    32
  0
VERTEX
  8
E18LXLIFT
 62
5
 10
-150.483
 20
-1183.442
 30
3477.000
 70
    32
  0
VERTEX
  8
E18LXLIFT
 62
5
 10
-148.554
 20
-1210.440
 30
3477.000
 70
    32
  0
VERTEX
  8
E18LXLIFT
 62
5
 10
-155.548
 20
-1229.001
 30
3477.000
 70
    32
  0
SEQEND
  8
E18LXLIFT
  0
POLYLINE
  8
E18LXLIFT
 62
5
 66
     1
 70
     9
  0
VERTEX
  8
E18LXLIFT
 62
5
 10
-298.192
 20
-799.024
 30
3400.000
 70
    32
  0
VERTEX
  8
E18LXLIFT
 62
5
 10
-294.521
 20
-798.112
 30
3400.000
 70
    32
  0
VERTEX
  8
E18LXLIFT
 62
5
 10
-292.548
 20
-798.748
 30
3400.000
 70
    32
  0
VERTEX
  8
E18LXLIFT
 62
5
 10
-276.628
 20
-805.684
 30
3400.000
 70
    32
  0
VERTEX
  8
E18LXLIFT
 62
5
 10
-266.118
 20
-809.913
 30
3400.000
 70
    32
  0
VERTEX
  8
E18LXLIFT
 62
5
 10
-258.010
 20
-810.353
 30
3400.000
 70
    32
  0
VERTEX
  8
E18LXLIFT
 62
5
 10
-252.839
 20
-809.120
 30
3400.000
 70
    32
  0
VERTEX
  8
E18LXLIFT
 62
5
 10
-251.196
 20
-805.990
 30
3400.000
 70
    32
  0
VERTEX
  8
E18LXLIFT
 62
5
 10
-251.823
 20
-802.113
 30
3400.000
 70
    32
  0
VERTEX
  8
E18LXLIFT
 62
5
 10
-254.855
 20
-796.396
 30
3400.000
 70
    32
  0
VERTEX
  8
E18LXLIFT
 62
5
 10
-275.733
 20
-770.848
 30
3400.000
 70
    32
  0
VERTEX
  8
E18LXLIFT
 62
5
 10
-280.102
 20
-765.228
 30
3400.000
 70
    32
  0
VERTEX
  8
E18LXLIFT
 62
5
 10
-285.441
 20
-759.765
 30
3400.000
 70
    32
  0
VERTEX
  8
E18LXLIFT
 62
5
 10
-288.809
 20
-757.039
 30
3400.000
 70
    32
  0
VERTEX
  8
E18LXLIFT
 62
5
 10
-294.558
 20
-749.278
 30
3400.000
 70
    32
  0
VERTEX
  8
E18LXLIFT
 62
5
 10
-293.518
 20
-740.077
 30
3400.000
 70
    32
  0
VERTEX
  8
E18LXLIFT
 62
5
 10
-290.557
 20
-731.436
 30
3400.000
 70
    32
  0
VERTEX
  8
E18LXLIFT
 62
5
 10
-287.518
 20
-727.397
 30
3400.000
 70
    32
  0
VERTEX
  8
E18LXLIFT
 62
5
 10
-289.799
 20
-719.297
 30
3400.000
 70
    32
  0
VERTEX
  8
E18LXLIFT
 62
5
 10
-297.898
 20
-707.494
 30
3400.000
 70
    32
  0
VERTEX
  8
E18LXLIFT
 62
5
 10
-304.639
 20
-699.367
 30
3400.000
 70
    32
  0
VERTEX
  8
E18LXLIFT
 62
5
 10
-294.611
 20
-693.632
 30
3400.000
 70
    32
  0
VERTEX
  8
E18LXLIFT
 62
5
 10
-276.890
 20
-726.215
 30
3400.000
 70
    32
  0
VERTEX
  8
E18LXLIFT
 62
5
 10
-270.995
 20
-726.793
 30
3400.000
 70
    32
  0
VERTEX
  8
E18LXLIFT
 62
5
 10
-270.090
 20
-727.725
 30
3400.000
 70
    32
  0
VERTEX
  8
E18LXLIFT
 62
5
 10
-266.527
 20
-730.571
 30
3400.000
 70
    32
  0
VERTEX
  8
E18LXLIFT
 62
5
 10
-264.634
 20
-731.697
 30
3400.000
 70
    32
  0
VERTEX
  8
E18LXLIFT
 62
5
 10
-262.153
 20
-735.144
 30
3400.000
 70
    32
  0
VERTEX
  8
E18LXLIFT
 62
5
 10
-259.157
 20
-744.418
 30
3400.000
 70
    32
  0
VERTEX
  8
E18LXLIFT
 62
5
 10
-253.589
 20
-759.671
 30
3400.000
 70
    32
  0
VERTEX
  8
E18LXLIFT
 62
5
 10
-249.209
 20
-771.017
 30
3400.000
 70
    32
  0
VERTEX
  8
E18LXLIFT
 62
5
 10
-246.474
 20
-782.033
 30
3400.000
 70
    32
  0
VERTEX
  8
E18LXLIFT
 62
5
 10
-241.066
 20
-798.266
 30
3400.000
 70
    32
  0
VERTEX
  8
E18LXLIFT
 62
5
 10
-235.259
 20
-814.753
 30
3400.000
 70
    32
  0
VERTEX
  8
E18LXLIFT
 62
5
 10
-227.711
 20
-835.613
 30
3400.000
 70
    32
  0
VERTEX
  8
E18LXLIFT
 62
5
 10
-243.524
 20
-838.447
 30
3400.000
 70
    32
  0
VERTEX
  8
E18LXLIFT
 62
5
 10
-250.256
 20
-828.793
 30
3400.000
 70
    32
  0
VERTEX
  8
E18LXLIFT
 62
5
 10
-257.958
 20
-824.707
 30
3400.000
 70
    32
  0
VERTEX
  8
E18LXLIFT
 62
5
 10
-265.310
 20
-821.558
 30
3400.000
 70
    32
  0
VERTEX
  8
E18LXLIFT
 62
5
 10
-273.821
 20
-816.648
 30
3400.000
 70
    32
  0
VERTEX
  8
E18LXLIFT
 62
5
 10
-284.294
 20
-811.418
 30
3400.000
 70
    32
  0
VERTEX
  8
E18LXLIFT
 62
5
 10
-291.977
 20
-809.914
 30
3400.000
 70
    32
  0
VERTEX
  8
E18LXLIFT
 62
5
 10
-296.988
 20
-807.462
 30
3400.000
 70
    32
  0
VERTEX
  8
E18LXLIFT
 62
5
 10
-300.260
 20
-805.922
 30
3400.000
 70
    32
  0
VERTEX
  8
E18LXLIFT
 62
5
 10
-300.699
 20
-803.208
 30
3400.000
 70
    32
  0
SEQEND
  8
E18LXLIFT
  0
POLYLINE
  8
E18LXLIFT
 62
3
 66
     1
 70
     9
  0
VERTEX
  8
E18LXLIFT
 62
3
 10
-109.502
 20
-1222.889
 30
3385.000
 70
    32
  0
VERTEX
  8
E18LXLIFT
 62
3
 10
-125.697
 20
-1207.363
 30
3385.000
 70
    32
  0
VERTEX
  8
E18LXLIFT
 62
3
 10
-137.072
 20
-1198.013
 30
3385.000
 70
    32
  0
VERTEX
  8
E18LXLIFT
 62
3
 10
-139.235
 20
-1189.358
 30
3385.000
 70
    32
  0
VERTEX
  8
E18LXLIFT
 62
3
 10
-144.192
 20
-1181.649
 30
3385.000
 70
    32
  0
VERTEX
  8
E18LXLIFT
 62
3
 10
-151.180
 20
-1176.833
 30
3385.000
 70
    32
  0
VERTEX
  8
E18LXLIFT
 62
3
 10
-153.472
 20
-1168.599
 30
3385.000
 70
    32
  0
VERTEX
  8
E18LXLIFT
 62
3
 10
-154.309
 20
-1161.917
 30
3385.000
 70
    32
  0
VERTEX
  8
E18LXLIFT
 62
3
 10
-153.719
 20
-1146.580
 30
3385.000
 70
    32
  0
VERTEX
  8
E18LXLIFT
 62
3
 10
-157.417
 20
-1129.685
 30
3385.000
 70
    32
  0
VERTEX
  8
E18LXLIFT
 62
3
 10
-166.372
 20
-1122.165
 30
3385.000
 70
    32
  0
VERTEX
  8
E18LXLIFT
 62
3
 10
-168.069
 20
-1116.544
 30
3385.000
 70
    32
  0
VERTEX
  8
E18LXLIFT
 62
3
 10
-172.118
 20
-1097.075
 30
3385.000
 70
    32
  0
VERTEX
  8
E18LXLIFT
 62
3
 10
-174.750
 20
-1078.207
 30
3385.000
 70
    32
  0
VERTEX
  8
E18LXLIFT
 62
3
 10
-183.531
 20
-1068.384
 30
3385.000
 70
    32
  0
VERTEX
  8
E18LXLIFT
 62
3
 10
-190.573
 20
-1052.726
 30
3385.000
 70
    32
  0
VERTEX
  8
E18LXLIFT
 62
3
 10
-196.481
 20
-1047.450
 30
3385.000
 70
    32
  0
VERTEX
  8
E18LXLIFT
 62
3
 10
-204.089
 20
-1044.172
 30
3385.000
 70
    32
  0
VERTEX
  8
E18LXLIFT
 62
3
 10
-209.072
 20
-1035.830
 30
3385.000
 70
    32
  0
VERTEX
  8
E18LXLIFT
 62
3
 10
-216.456
 20
-1024.337
 30
3385.000
 70
    32
  0
VERTEX
  8
E18LXLIFT
 62
3
 10
-223.957
 20
-1013.582
 30
3385.000
 70
    32
  0
VERTEX
  8
E18LXLIFT
 62
3
 10
-217.174
 20
-1004.511
 30
3385.000
 70
    32
  0
VERTEX
  8
E18LXLIFT
 62
3
 10
-211.984
 20
-1010.745
 30
3385.000
 70
    32
  0
VERTEX
  8
E18LXLIFT
 62
3
 10
-203.461
 20
-1022.606
 30
3385.000
 70
    32
  0
VERTEX
  8
E18LXLIFT
 62
3
 10
-193.477
 20
-1033.186
 30
3385.000
 70
    32
  0
VERTEX
  8
E18LXLIFT
 62
3
 10
-186.547
 20
-1041.961
 30
3385.000
 70
    32
  0
VERTEX
  8
E18LXLIFT
 62
3
 10
-180.783
 20
-1042.555
 30
3385.000
 70
    32
  0
VERTEX
  8
E18LXLIFT
 62
3
 10
-170.860
 20
-1042.733
 30
3385.000
 70
    32
  0
VERTEX
  8
E18LXLIFT
 62
3
 10
-169.507
 20
-1046.536
 30
3385.000
 70
    32
  0
VERTEX
  8
E18LXLIFT
 62
3
 10
-166.243
 20
-1059.394
 30
3385.000
 70
    32
  0
VERTEX
  8
E18LXLIFT
 62
3
 10
-162.623
 20
-1070.797
 30
3385.000
 70
    32
  0
VERTEX
  8
E18LXLIFT
 62
3
 10
-158.014
 20
-1083.112
 30
3385.000
 70
    32
  0
VERTEX
  8
E18LXLIFT
 62
3
 10
-152.323
 20
-1098.557
 30
3385.000
 70
    32
  0
VERTEX
  8
E18LXLIFT
 62
3
 10
-143.414
 20
-1104.369
 30
3385.000
 70
    32
  0
VERTEX
  8
E18LXLIFT
 62
3
 10
-134.518
 20
-1112.258
 30
3385.000
 70
    32
  0
VERTEX
  8
E18LXLIFT
 62
3
 10
-140.796
 20
-1120.527
 30
3385.000
 70
    32
  0
VERTEX
  8
E18LXLIFT
 62
3
 10
-134.925
 20
-1134.426
 30
3385.000
 70
    32
  0
VERTEX
  8
E18LXLIFT
 62
3
 10
-135.127
 20
-1148.502
 30
3385.000
 70
    32
  0
VERTEX
  8
E18LXLIFT
 62
3
 10
-127.665
 20
-1161.896
 30
3385.000
 70
    32
  0
VERTEX
  8
E18LXLIFT
 62
3
 10
-118.113
 20
-1176.816
 30
3385.000
 70
    32
  0
VERTEX
  8
E18LXLIFT
 62
3
 10
-108.633
 20
-1188.198
 30
3385.000
 70
    32
  0
VERTEX
  8
E18LXLIFT
 62
3
 10
-100.441
 20
-1197.361
 30
3385.000
 70
    32
  0
VERTEX
  8
E18LXLIFT
 62
3
 10
-90.722
 20
-1206.828
 30
3385.000
 70
    32
  0
SEQEND
  8
E18LXLIFT
  0
POLYLINE
  8
E18LXLIFT
 62
3
 66
     1
 70
     9
  0
VERTEX
  8
E18LXLIFT
 62
3
 10
-206.145
 20
-1024.450
 30
3395.000
 70
    32
  0
VERTEX
  8
E18LXLIFT
 62
3
 10
-216.627
 20
-1016.627
 30
3395.000
 70
    32
  0
VERTEX
  8
E18LXLIFT
 62
3
 10
-225.569
 20
-1009.424
 30
3395.000
 70
    32
  0
VERTEX
  8
E18LXLIFT
 62
3
 10
-233.120
 20
-1000.991
 30
3395.000
 70
    32
  0
VERTEX
  8
E18LXLIFT
 62
3
 10
-238.524
 20
-992.519
 30
3395.000
 70
    32
  0
VERTEX
  8
E18LXLIFT
 62
3
 10
-244.212
 20
-984.254
 30
3395.000
 70
    32
  0
VERTEX
  8
E18LXLIFT
 62
3
 10
-255.166
 20
-975.033
 30
3395.000
 70
    32
  0
VERTEX
  8
E18LXLIFT
 62
3
 10
-259.121
 20
-967.356
 30
3395.000
 70
    32
  0
VERTEX
  8
E18LXLIFT
 62
3
 10
-262.344
 20
-963.825
 30
3395.000
 70
    32
  0
VERTEX
  8
E18LXLIFT
 62
3
 10
-269.270
 20
-967.016
 30
3395.000
 70
    32
  0
VERTEX
  8
E18LXLIFT
 62
3
 10
-275.408
 20
-971.592
 30
3395.000
 70
    32
  0
VERTEX
  8
E18LXLIFT
 62
3
 10
-279.928
 20
-973.902
 30
3395.000
 70
    32
  0
VERTEX
  8
E18LXLIFT
 62
3
 10
-285.168
 20
-974.777
 30
3395.000
 70
    32
  0
VERTEX
  8
E18LXLIFT
 62
3
 10
-288.807
 20
-981.887
 30
3395.000
 70
    32
  0
VERTEX
  8
E18LXLIFT
 62
3
 10
-292.441
 20
-987.361
 30
3395.000
 70
    32
  0
VERTEX
  8
E18LXLIFT
 62
3
 10
-283.965
 20
-995.120
 30
3395.000
 70
    32
  0
VERTEX
  8
E18LXLIFT
 62
3
 10
-279.998
 20
-1000.721
 30
3395.000
 70
    32
  0
VERTEX
  8
E18LXLIFT
 62
3
 10
-270.326
 20
-1006.087
 30
3395.000
 70
    32
  0
VERTEX
  8
E18LXLIFT
 62
3
 10
-260.951
 20
-1010.146
 30
3395.000
 70
    32
  0
VERTEX
  8
E18LXLIFT
 62
3
 10
-253.498
 20
-1015.603
 30
3395.000
 70
    32
  0
VERTEX
  8
E18LXLIFT
 62
3
 10
-251.445
 20
-1023.358
 30
3395.000
 70
    32
  0
VERTEX
  8
E18LXLIFT
 62
3
 10
-249.781
 20
-1028.785
 30
3395.000
 70
    32
  0
VERTEX
  8
E18LXLIFT
 62
3
 10
-239.670
 20
-1029.371
 30
3395.000
 70
    32
  0
VERTEX
  8
E18LXLIFT
 62
3
 10
-229.889
 20
-1030.849
 30
3395.000
 70
    32
  0
VERTEX
  8
E18LXLIFT
 62
3
 10
-219.481
 20
-1032.741
 30
3395.000
 70
    32
  0
VERTEX
  8
E18LXLIFT
 62
3
 10
-208.819
 20
-1039.018
 30
3395.000
 70
    32
  0
SEQEND
  8
E18LXLIFT
  0
POLYLINE
  8
E18LXLIFT
 62
7
 66
     1
 70
     9
  0
VERTEX
  8
E18LXLIFT
 62
7
 10
-610.825
 20
-606.986
 30
3393.000
 70
    32
  0
VERTEX
  8
E18LXLIFT
 62
7
 10
-608.870
 20
-592.178
 30
3393.000
 70
    32
  0
VERTEX
  8
E18LXLIFT
 62
7
 10
-608.356
 20
-578.530
 30
3393.000
 70
    32
  0
VERTEX
  8
E18LXLIFT
 62
7
 10
-607.564
 20
-566.310
 30
3393.000
 70
    32
  0
VERTEX
  8
E18LXLIFT
 62
7
 10
-604.256
 20
-554.110
 30
3393.000
 70
    32
  0
VERTEX
  8
E18LXLIFT
 62
7
 10
-599.960
 20
-538.034
 30
3393.000
 70
    32
  0
VERTEX
  8
E18LXLIFT
 62
7
 10
-608.408
 20
-538.088
 30
3393.000
 70
    32
  0
VERTEX
  8
E18LXLIFT
 62
7
 10
-610.422
 20
-528.891
 30
3393.000
 70
    32
  0
VERTEX
  8
E18LXLIFT
 62
7
 10
-619.378
 20
-518.977
 30
3393.000
 70
    32
  0
VERTEX
  8
E18LXLIFT
 62
7
 10
-623.968
 20
-506.539
 30
3393.000
 70
    32
  0
VERTEX
  8
E18LXLIFT
 62
7
 10
-625.806
 20
-502.219
 30
3393.000
 70
    32
  0
VERTEX
  8
E18LXLIFT
 62
7
 10
-636.168
 20
-504.428
 30
3393.000
 70
    32
  0
VERTEX
  8
E18LXLIFT
 62
7
 10
-633.331
 20
-517.597
 30
3393.000
 70
    32
  0
VERTEX
  8
E18LXLIFT
 62
7
 10
-636.251
 20
-529.733
 30
3393.000
 70
    32
  0
VERTEX
  8
E18LXLIFT
 62
7
 10
-629.539
 20
-542.694
 30
3393.000
 70
    32
  0
VERTEX
  8
E18LXLIFT
 62
7
 10
-628.095
 20
-547.519
 30
3393.000
 70
    32
  0
VERTEX
  8
E18LXLIFT
 62
7
 10
-630.960
 20
-549.713
 30
3393.000
 70
    32
  0
VERTEX
  8
E18LXLIFT
 62
7
 10
-626.734
 20
-555.669
 30
3393.000
 70
    32
  0
VERTEX
  8
E18LXLIFT
 62
7
 10
-626.486
 20
-561.691
 30
3393.000
 70
    32
  0
VERTEX
  8
E18LXLIFT
 62
7
 10
-633.852
 20
-569.663
 30
3393.000
 70
    32
  0
VERTEX
  8
E18LXLIFT
 62
7
 10
-629.226
 20
-572.281
 30
3393.000
 70
    32
  0
VERTEX
  8
E18LXLIFT
 62
7
 10
-625.793
 20
-585.670
 30
3393.000
 70
    32
  0
VERTEX
  8
E18LXLIFT
 62
7
 10
-622.691
 20
-598.755
 30
3393.000
 70
    32
  0
VERTEX
  8
E18LXLIFT
 62
7
 10
-621.318
 20
-604.828
 30
3393.000
 70
    32
  0
VERTEX
  8
E18LXLIFT
 62
7
 10
-623.307
 20
-613.458
 30
3393.000
 70
    32
  0
SEQEND
  8
E18LXLIFT
  0
POLYLINE
  8
E18LXLIFT
 62
27
 66
     1
 70
     9
  0
VERTEX
  8
E18LXLIFT
 62
27
 10
-412.790
 20
-574.881
 30
3403.000
 70
    32
  0
VERTEX
  8
E18LXLIFT
 62
27
 10
-408.778
 20
-565.235
 30
3403.000
 70
    32
  0
VERTEX
  8
E18LXLIFT
 62
27
 10
-406.289
 20
-551.465
 30
3403.000
 70
    32
  0
VERTEX
  8
E18LXLIFT
 62
27
 10
-407.638
 20
-538.569
 30
3403.000
 70
    32
  0
VERTEX
  8
E18LXLIFT
 62
27
 10
-410.635
 20
-524.926
 30
3403.000
 70
    32
  0
VERTEX
  8
E18LXLIFT
 62
27
 10
-404.707
 20
-524.362
 30
3403.000
 70
    32
  0
VERTEX
  8
E18LXLIFT
 62
27
 10
-399.042
 20
-523.886
 30
3403.000
 70
    32
  0
VERTEX
  8
E18LXLIFT
 62
27
 10
-395.917
 20
-533.715
 30
3403.000
 70
    32
  0
VERTEX
  8
E18LXLIFT
 62
27
 10
-388.790
 20
-538.609
 30
3403.000
 70
    32
  0
VERTEX
  8
E18LXLIFT
 62
27
 10
-387.049
 20
-547.604
 30
3403.000
 70
    32
  0
VERTEX
  8
E18LXLIFT
 62
27
 10
-385.235
 20
-559.060
 30
3403.000
 70
    32
  0
VERTEX
  8
E18LXLIFT
 62
27
 10
-380.245
 20
-565.647
 30
3403.000
 70
    32
  0
VERTEX
  8
E18LXLIFT
 62
27
 10
-375.050
 20
-573.396
 30
3403.000
 70
    32
  0
VERTEX
  8
E18LXLIFT
 62
27
 10
-375.654
 20
-580.408
 30
3403.000
 70
    32
  0
VERTEX
  8
E18LXLIFT
 62
27
 10
-377.861
 20
-588.061
 30
3403.000
 70
    32
  0
VERTEX
  8
E18LXLIFT
 62
27
 10
-381.898
 20
-592.802
 30
3403.000
 70
    32
  0
VERTEX
  8
E18LXLIFT
 62
27
 10
-385.507
 20
-599.744
 30
3403.000
 70
    32
  0
VERTEX
  8
E18LXLIFT
 62
27
 10
-388.205
 20
-600.976
 30
3403.000
 70
    32
  0
VERTEX
  8
E18LXLIFT
 62
27
 10
-392.390
 20
-604.187
 30
3403.000
 70
    32
  0
VERTEX
  8
E18LXLIFT
 62
27
 10
-397.981
 20
-610.079
 30
3403.000
 70
    32
  0
VERTEX
  8
E18LXLIFT
 62
27
 10
-405.782
 20
-612.249
 30
3403.000
 70
    32
  0
VERTEX
  8
E18LXLIFT
 62
27
 10
-408.237
 20
-605.096
 30
3403.000
 70
    32
  0
VERTEX
  8
E18LXLIFT
 62
27
 10
-413.225
 20
-598.070
 30
3403.000
 70
    32
  0
VERTEX
  8
E18LXLIFT
 62
27
 10
-421.234
 20
-587.702
 30
3403.000
 70
    32
  0
SEQEND
  8
E18LXLIFT
  0
POLYLINE
  8
E18LXLIFT
 62
3
 66
     1
 70
     9
  0
VERTEX
  8
E18LXLIFT
 62
3
 10
-165.716
 20
-1120.577
 30
3410.000
 70
    32
  0
VERTEX
  8
E18LXLIFT
 62
3
 10
-160.450
 20
-1130.234
 30
3410.000
 70
    32
  0
VERTEX
  8
E18LXLIFT
 62
3
 10
-156.499
 20
-1139.440
 30
3410.000
 70
    32
  0
VERTEX
  8
E18LXLIFT
 62
3
 10
-158.541
 20
-1152.958
 30
3410.000
 70
    32
  0
VERTEX
  8
E18LXLIFT
 62
3
 10
-155.635
 20
-1165.338
 30
3410.000
 70
    32
  0
VERTEX
  8
E18LXLIFT
 62
3
 10
-156.470
 20
-1172.942
 30
3410.000
 70
    32
  0
VERTEX
  8
E18LXLIFT
 62
3
 10
-154.401
 20
-1177.968
 30
3410.000
 70
    32
  0
VERTEX
  8
E18LXLIFT
 62
3
 10
-146.342
 20
-1181.196
 30
3410.000
 70
    32
  0
VERTEX
  8
E18LXLIFT
 62
3
 10
-143.380
 20
-1186.546
 30
3410.000
 70
    32
  0
VERTEX
  8
E18LXLIFT
 62
3
 10
-139.830
 20
-1197.577
 30
3410.000
 70
    32
  0
VERTEX
  8
E18LXLIFT
 62
3
 10
-133.888
 20
-1204.005
 30
3410.000
 70
    32
  0
VERTEX
  8
E18LXLIFT
 62
3
 10
-129.951
 20
-1208.308
 30
3410.000
 70
    32
  0
VERTEX
  8
E18LXLIFT
 62
3
 10
-125.437
 20
-1208.801
 30
3410.000
 70
    32
  0
VERTEX
  8
E18LXLIFT
 62
3
 10
-122.476
 20
-1212.077
 30
3410.000
 70
    32
  0
VERTEX
  8
E18LXLIFT
 62
3
 10
-117.168
 20
-1216.461
 30
3410.000
 70
    32
  0
VERTEX
  8
E18LXLIFT
 62
3
 10
-119.017
 20
-1227.871
 30
3410.000
 70
    32
  0
VERTEX
  8
E18LXLIFT
 62
3
 10
-118.104
 20
-1238.881
 30
3410.000
 70
    32
  0
VERTEX
  8
E18LXLIFT
 62
3
 10
-117.649
 20
-1250.011
 30
3410.000
 70
    32
  0
VERTEX
  8
E18LXLIFT
 62
3
 10
-111.843
 20
-1251.516
 30
3410.000
 70
    32
  0
VERTEX
  8
E18LXLIFT
 62
3
 10
-109.228
 20
-1254.174
 30
3410.000
 70
    32
  0
VERTEX
  8
E18LXLIFT
 62
3
 10
-108.371
 20
-1263.479
 30
3410.000
 70
    32
  0
VERTEX
  8
E18LXLIFT
 62
3
 10
-106.151
 20
-1273.744
 30
3410.000
 70
    32
  0
VERTEX
  8
E18LXLIFT
 62
3
 10
-107.527
 20
-1278.689
 30
3410.000
 70
    32
  0
VERTEX
  8
E18LXLIFT
 62
3
 10
-102.289
 20
-1285.200
 30
3410.000
 70
    32
  0
VERTEX
  8
E18LXLIFT
 62
3
 10
-96.828
 20
-1290.235
 30
3410.000
 70
    32
  0
VERTEX
  8
E18LXLIFT
 62
3
 10
-90.309
 20
-1305.738
 30
3410.000
 70
    32
  0
VERTEX
  8
E18LXLIFT
 62
3
 10
-84.769
 20
-1320.652
 30
3410.000
 70
    32
  0
VERTEX
  8
E18LXLIFT
 62
3
 10
-78.307
 20
-1323.639
 30
3410.000
 70
    32
  0
VERTEX
  8
E18LXLIFT
 62
3
 10
-73.610
 20
-1318.756
 30
3410.000
 70
    32
  0
VERTEX
  8
E18LXLIFT
 62
3
 10
-75.800
 20
-1309.124
 30
3410.000
 70
    32
  0
VERTEX
  8
E18LXLIFT
 62
3
 10
-82.694
 20
-1296.519
 30
3410.000
 70
    32
  0
VERTEX
  8
E18LXLIFT
 62
3
 10
-86.862
 20
-1285.834
 30
3410.000
 70
    32
  0
VERTEX
  8
E18LXLIFT
 62
3
 10
-80.948
 20
-1278.306
 30
3410.000
 70
    32
  0
VERTEX
  8
E18LXLIFT
 62
3
 10
-77.758
 20
-1275.080
 30
3410.000
 70
    32
  0
VERTEX
  8
E18LXLIFT
 62
3
 10
-83.747
 20
-1263.554
 30
3410.000
 70
    32
  0
VERTEX
  8
E18LXLIFT
 62
3
 10
-90.481
 20
-1250.722
 30
3410.000
 70
    32
  0
VERTEX
  8
E18LXLIFT
 62
3
 10
-97.846
 20
-1242.067
 30
3410.000
 70
    32
  0
VERTEX
  8
E18LXLIFT
 62
3
 10
-94.957
 20
-1232.512
 30
3410.000
 70
    32
  0
VERTEX
  8
E18LXLIFT
 62
3
 10
-98.422
 20
-1219.670
 30
3410.000
 70
    32
  0
VERTEX
  8
E18LXLIFT
 62
3
 10
-84.768
 20
-1217.900
 30
3410.000
 70
    32
  0
VERTEX
  8
E18LXLIFT
 62
3
 10
-86.856
 20
-1210.922
 30
3410.000
 70
    32
  0
VERTEX
  8
E18LXLIFT
 62
3
 10
-97.165
 20
-1198.870
 30
3410.000
 70
    32
  0
VERTEX
  8
E18LXLIFT
 62
3
 10
-107.390
 20
-1189.595
 30
3410.000
 70
    32
  0
VERTEX
  8
E18LXLIFT
 62
3
 10
-116.304
 20
-1181.209
 30
3410.000
 70
    32
  0
VERTEX
  8
E18LXLIFT
 62
3
 10
-120.777
 20
-1177.957
 30
3410.000
 70
    32
  0
VERTEX
  8
E18LXLIFT
 62
3
 10
-121.950
 20
-1170.741
 30
3410.000
 70
    32
  0
VERTEX
  8
E18LXLIFT
 62
3
 10
-127.280
 20
-1166.919
 30
3410.000
 70
    32
  0
VERTEX
  8
E18LXLIFT
 62
3
 10
-131.578
 20
-1163.756
 30
3410.000
 70
    32
  0
VERTEX
  8
E18LXLIFT
 62
3
 10
-134.917
 20
-1157.156
 30
3410.000
 70
    32
  0
VERTEX
  8
E18LXLIFT
 62
3
 10
-138.483
 20
-1143.734
 30
3410.000
 70
    32
  0
VERTEX
  8
E18LXLIFT
 62
3
 10
-142.346
 20
-1130.204
 30
3410.000
 70
    32
  0
VERTEX
  8
E18LXLIFT
 62
3
 10
-141.545
 20
-1122.406
 30
3410.000
 70
    32
  0
VERTEX
  8
E18LXLIFT
 62
3
 10
-134.537
 20
-1114.289
 30
3410.000
 70
    32
  0
VERTEX
  8
E18LXLIFT
 62
3
 10
-140.145
 20
-1103.575
 30
3410.000
 70
    32
  0
VERTEX
  8
E18LXLIFT
 62
3
 10
-144.170
 20
-1096.934
 30
3410.000
 70
    32
  0
VERTEX
  8
E18LXLIFT
 62
3
 10
-149.918
 20
-1099.208
 30
3410.000
 70
    32
  0
VERTEX
  8
E18LXLIFT
 62
3
 10
-156.507
 20
-1094.567
 30
3410.000
 70
    32
  0
VERTEX
  8
E18LXLIFT
 62
3
 10
-162.302
 20
-1083.008
 30
3410.000
 70
    32
  0
VERTEX
  8
E18LXLIFT
 62
3
 10
-165.339
 20
-1069.415
 30
3410.000
 70
    32
  0
VERTEX
  8
E18LXLIFT
 62
3
 10
-167.181
 20
-1053.739
 30
3410.000
 70
    32
  0
VERTEX
  8
E18LXLIFT
 62
3
 10
-170.677
 20
-1046.926
 30
3410.000
 70
    32
  0
VERTEX
  8
E18LXLIFT
 62
3
 10
-180.017
 20
-1043.441
 30
3410.000
 70
    32
  0
VERTEX
  8
E18LXLIFT
 62
3
 10
-191.775
 20
-1036.826
 30
3410.000
 70
    32
  0
VERTEX
  8
E18LXLIFT
 62
3
 10
-203.419
 20
-1029.034
 30
3410.000
 70
    32
  0
VERTEX
  8
E18LXLIFT
 62
3
 10
-213.536
 20
-1019.461
 30
3410.000
 70
    32
  0
VERTEX
  8
E18LXLIFT
 62
3
 10
-224.513
 20
-1009.758
 30
3410.000
 70
    32
  0
VERTEX
  8
E18LXLIFT
 62
3
 10
-233.873
 20
-995.586
 30
3410.000
 70
    32
  0
VERTEX
  8
E18LXLIFT
 62
3
 10
-238.416
 20
-987.798
 30
3410.000
 70
    32
  0
VERTEX
  8
E18LXLIFT
 62
3
 10
-247.754
 20
-979.726
 30
3410.000
 70
    32
  0
VERTEX
  8
E18LXLIFT
 62
3
 10
-256.013
 20
-970.748
 30
3410.000
 70
    32
  0
VERTEX
  8
E18LXLIFT
 62
3
 10
-262.147
 20
-959.766
 30
3410.000
 70
    32
  0
VERTEX
  8
E18LXLIFT
 62
3
 10
-266.625
 20
-963.615
 30
3410.000
 70
    32
  0
VERTEX
  8
E18LXLIFT
 62
3
 10
-273.969
 20
-969.795
 30
3410.000
 70
    32
  0
VERTEX
  8
E18LXLIFT
 62
3
 10
-281.928
 20
-973.809
 30
3410.000
 70
    32
  0
VERTEX
  8
E18LXLIFT
 62
3
 10
-289.031
 20
-978.392
 30
3410.000
 70
    32
  0
VERTEX
  8
E18LXLIFT
 62
3
 10
-289.750
 20
-984.819
 30
3410.000
 70
    32
  0
VERTEX
  8
E18LXLIFT
 62
3
 10
-283.384
 20
-990.934
 30
3410.000
 70
    32
  0
VERTEX
  8
E18LXLIFT
 62
3
 10
-281.512
 20
-996.433
 30
3410.000
 70
    32
  0
VERTEX
  8
E18LXLIFT
 62
3
 10
-272.529
 20
-1000.618
 30
3410.000
 70
    32
  0
VERTEX
  8
E18LXLIFT
 62
3
 10
-265.604
 20
-1007.195
 30
3410.000
 70
    32
  0
VERTEX
  8
E18LXLIFT
 62
3
 10
-256.949
 20
-1010.639
 30
3410.000
 70
    32
  0
VERTEX
  8
E18LXLIFT
 62
3
 10
-251.027
 20
-1015.116
 30
3410.000
 70
    32
  0
VERTEX
  8
E18LXLIFT
 62
3
 10
-249.638
 20
-1023.810
 30
3410.000
 70
    32
  0
VERTEX
  8
E18LXLIFT
 62
3
 10
-244.054
 20
-1028.865
 30
3410.000
 70
    32
  0
VERTEX
  8
E18LXLIFT
 62
3
 10
-235.650
 20
-1028.563
 30
3410.000
 70
    32
  0
VERTEX
  8
E18LXLIFT
 62
3
 10
-224.002
 20
-1031.329
 30
3410.000
 70
    32
  0
VERTEX
  8
E18LXLIFT
 62
3
 10
-211.886
 20
-1037.244
 30
3410.000
 70
    32
  0
VERTEX
  8
E18LXLIFT
 62
3
 10
-200.955
 20
-1043.923
 30
3410.000
 70
    32
  0
VERTEX
  8
E18LXLIFT
 62
3
 10
-190.801
 20
-1051.176
 30
3410.000
 70
    32
  0
VERTEX
  8
E18LXLIFT
 62
3
 10
-185.982
 20
-1061.708
 30
3410.000
 70
    32
  0
VERTEX
  8
E18LXLIFT
 62
3
 10
-178.013
 20
-1071.773
 30
3410.000
 70
    32
  0
VERTEX
  8
E18LXLIFT
 62
3
 10
-174.534
 20
-1082.857
 30
3410.000
 70
    32
  0
VERTEX
  8
E18LXLIFT
 62
3
 10
-175.592
 20
-1091.936
 30
3410.000
 70
    32
  0
VERTEX
  8
E18LXLIFT
 62
3
 10
-171.919
 20
-1102.986
 30
3410.000
 70
    32
  0
VERTEX
  8
E18LXLIFT
 62
3
 10
-172.100
 20
-1105.849
 30
3410.000
 70
    32
  0
SEQEND
  8
E18LXLIFT
  0
POLYLINE
  8
E18LXLIFT
 62
1
 66
     1
 70
     9
  0
VERTEX
  8
E18LXLIFT
 62
1
 10
-420.234
 20
-586.702
 30
3413.000
 70
    32
  0
VERTEX
  8
E18LXLIFT
 62
1
 10
-412.225
 20
-597.070
 30
3413.000
 70
    32
  0
VERTEX
  8
E18LXLIFT
 62
1
 10
-407.237
 20
-604.096
 30
3413.000
 70
    32
  0
VERTEX
  8
E18LXLIFT
 62
1
 10
-404.782
 20
-611.249
 30
3413.000
 70
    32
  0
VERTEX
  8
E18LXLIFT
 62
1
 10
-396.981
 20
-609.079
 30
3413.000
 70
    32
  0
VERTEX
  8
E18LXLIFT
 62
1
 10
-391.390
 20
-603.187
 30
3413.000
 70
    32
  0
VERTEX
  8
E18LXLIFT
 62
1
 10
-387.205
 20
-599.976
 30
3413.000
 70
    32
  0
VERTEX
  8
E18LXLIFT
 62
1
 10
-384.507
 20
-598.744
 30
3413.000
 70
    32
  0
VERTEX
  8
E18LXLIFT
 62
1
 10
-380.898
 20
-591.802
 30
3413.000
 70
    32
  0
VERTEX
  8
E18LXLIFT
 62
1
 10
-376.861
 20
-587.061
 30
3413.000
 70
    32
  0
VERTEX
  8
E18LXLIFT
 62
1
 10
-374.654
 20
-579.408
 30
3413.000
 70
    32
  0
VERTEX
  8
E18LXLIFT
 62
1
 10
-374.050
 20
-572.396
 30
3413.000
 70
    32
  0
VERTEX
  8
E18LXLIFT
 62
1
 10
-379.245
 20
-564.647
 30
3413.000
 70
    32
  0
VERTEX
  8
E18LXLIFT
 62
1
 10
-384.235
 20
-558.060
 30
3413.000
 70
    32
  0
VERTEX
  8
E18LXLIFT
 62
1
 10
-386.049
 20
-546.604
 30
3413.000
 70
    32
  0
VERTEX
  8
E18LXLIFT
 62
1
 10
-387.790
 20
-537.609
 30
3413.000
 70
    32
  0
VERTEX
  8
E18LXLIFT
 62
1
 10
-394.917
 20
-532.715
 30
3413.000
 70
    32
  0
VERTEX
  8
E18LXLIFT
 62
1
 10
-398.042
 20
-522.886
 30
3413.000
 70
    32
  0
VERTEX
  8
E18LXLIFT
 62
1
 10
-403.707
 20
-523.362
 30
3413.000
 70
    32
  0
VERTEX
  8
E18LXLIFT
 62
1
 10
-409.635
 20
-523.926
 30
3413.000
 70
    32
  0
VERTEX
  8
E18LXLIFT
 62
1
 10
-406.638
 20
-537.569
 30
3413.000
 70
    32
  0
VERTEX
  8
E18LXLIFT
 62
1
 10
-405.289
 20
-550.465
 30
3413.000
 70
    32
  0
VERTEX
  8
E18LXLIFT
 62
1
 10
-407.778
 20
-564.235
 30
3413.000
 70
    32
  0
VERTEX
  8
E18LXLIFT
 62
1
 10
-411.790
 20
-573.881
 30
3413.000
 70
    32
  0
SEQEND
  8
E18LXLIFT
  0
POLYLINE
  8
E18LXLIFT
 62
13
 66
     1
 70
     9
  0
VERTEX
  8
E18LXLIFT
 62
13
 10
-516.486
 20
-425.677
 30
3400.000
 70
    32
  0
VERTEX
  8
E18LXLIFT
 62
13
 10
-510.089
 20
-434.499
 30
3400.000
 70
    32
  0
VERTEX
  8
E18LXLIFT
 62
13
 10
-502.523
 20
-442.241
 30
3400.000
 70
    32
  0
VERTEX
  8
E18LXLIFT
 62
13
 10
-501.899
 20
-456.412
 30
3400.000
 70
    32
  0
VERTEX
  8
E18LXLIFT
 62
13
 10
-502.639
 20
-467.550
 30
3400.000
 70
    32
  0
VERTEX
  8
E18LXLIFT
 62
13
 10
-502.866
 20
-476.126
 30
3400.000
 70
    32
  0
VERTEX
  8
E18LXLIFT
 62
13
 10
-502.128
 20
-487.047
 30
3400.000
 70
    32
  0
VERTEX
  8
E18LXLIFT
 62
13
 10
-501.666
 20
-495.223
 30
3400.000
 70
    32
  0
VERTEX
  8
E18LXLIFT
 62
13
 10
-493.808
 20
-499.364
 30
3400.000
 70
    32
  0
VERTEX
  8
E18LXLIFT
 62
13
 10
-486.382
 20
-493.888
 30
3400.000
 70
    32
  0
VERTEX
  8
E18LXLIFT
 62
13
 10
-480.107
 20
-485.220
 30
3400.000
 70
    32
  0
VERTEX
  8
E18LXLIFT
 62
13
 10
-473.612
 20
-479.665
 30
3400.000
 70
    32
  0
VERTEX
  8
E18LXLIFT
 62
13
 10
-468.587
 20
-475.523
 30
3400.000
 70
    32
  0
VERTEX
  8
E18LXLIFT
 62
13
 10
-470.471
 20
-467.194
 30
3400.000
 70
    32
  0
VERTEX
  8
E18LXLIFT
 62
13
 10
-466.646
 20
-459.350
 30
3400.000
 70
    32
  0
VERTEX
  8
E18LXLIFT
 62
13
 10
-468.383
 20
-447.964
 30
3400.000
 70
    32
  0
VERTEX
  8
E18LXLIFT
 62
13
 10
-473.347
 20
-437.976
 30
3400.000
 70
    32
  0
VERTEX
  8
E18LXLIFT
 62
13
 10
-478.922
 20
-427.456
 30
3400.000
 70
    32
  0
VERTEX
  8
E18LXLIFT
 62
13
 10
-480.558
 20
-423.312
 30
3400.000
 70
    32
  0
VERTEX
  8
E18LXLIFT
 62
13
 10
-476.636
 20
-418.563
 30
3400.000
 70
    32
  0
VERTEX
  8
E18LXLIFT
 62
13
 10
-466.622
 20
-419.258
 30
3400.000
 70
    32
  0
VERTEX
  8
E18LXLIFT
 62
13
 10
-458.978
 20
-419.408
 30
3400.000
 70
    32
  0
VERTEX
  8
E18LXLIFT
 62
13
 10
-459.503
 20
-410.404
 30
3400.000
 70
    32
  0
VERTEX
  8
E18LXLIFT
 62
13
 10
-468.933
 20
-407.094
 30
3400.000
 70
    32
  0
VERTEX
  8
E18LXLIFT
 62
13
 10
-478.882
 20
-407.225
 30
3400.000
 70
    32
  0
VERTEX
  8
E18LXLIFT
 62
13
 10
-483.507
 20
-396.660
 30
3400.000
 70
    32
  0
VERTEX
  8
E18LXLIFT
 62
13
 10
-492.807
 20
-392.489
 30
3400.000
 70
    32
  0
VERTEX
  8
E18LXLIFT
 62
13
 10
-497.150
 20
-390.451
 30
3400.000
 70
    32
  0
VERTEX
  8
E18LXLIFT
 62
13
 10
-493.601
 20
-381.937
 30
3400.000
 70
    32
  0
VERTEX
  8
E18LXLIFT
 62
13
 10
-493.583
 20
-371.005
 30
3400.000
 70
    32
  0
VERTEX
  8
E18LXLIFT
 62
13
 10
-494.293
 20
-365.304
 30
3400.000
 70
    32
  0
VERTEX
  8
E18LXLIFT
 62
13
 10
-500.662
 20
-361.702
 30
3400.000
 70
    32
  0
VERTEX
  8
E18LXLIFT
 62
13
 10
-503.374
 20
-358.025
 30
3400.000
 70
    32
  0
VERTEX
  8
E18LXLIFT
 62
13
 10
-509.353
 20
-360.578
 30
3400.000
 70
    32
  0
VERTEX
  8
E18LXLIFT
 62
13
 10
-516.236
 20
-366.200
 30
3400.000
 70
    32
  0
VERTEX
  8
E18LXLIFT
 62
13
 10
-514.604
 20
-377.444
 30
3400.000
 70
    32
  0
VERTEX
  8
E18LXLIFT
 62
13
 10
-516.715
 20
-386.426
 30
3400.000
 70
    32
  0
VERTEX
  8
E18LXLIFT
 62
13
 10
-521.030
 20
-396.270
 30
3400.000
 70
    32
  0
VERTEX
  8
E18LXLIFT
 62
13
 10
-528.882
 20
-391.250
 30
3400.000
 70
    32
  0
VERTEX
  8
E18LXLIFT
 62
13
 10
-538.109
 20
-382.440
 30
3400.000
 70
    32
  0
VERTEX
  8
E18LXLIFT
 62
13
 10
-543.228
 20
-391.785
 30
3400.000
 70
    32
  0
VERTEX
  8
E18LXLIFT
 62
13
 10
-525.475
 20
-415.709
 30
3400.000
 70
    32
  0
SEQEND
  8
E18LXLIFT
  0
POLYLINE
  8
E18LXLIFT
 62
7
 66
     1
 70
     9
  0
VERTEX
  8
E18LXLIFT
 62
7
 10
-617.052
 20
-516.441
 30
3406.000
 70
    32
  0
VERTEX
  8
E18LXLIFT
 62
7
 10
-621.654
 20
-533.594
 30
3406.000
 70
    32
  0
VERTEX
  8
E18LXLIFT
 62
7
 10
-622.488
 20
-552.007
 30
3406.000
 70
    32
  0
VERTEX
  8
E18LXLIFT
 62
7
 10
-620.089
 20
-570.658
 30
3406.000
 70
    32
  0
VERTEX
  8
E18LXLIFT
 62
7
 10
-613.312
 20
-589.027
 30
3406.000
 70
    32
  0
VERTEX
  8
E18LXLIFT
 62
7
 10
-604.798
 20
-610.047
 30
3406.000
 70
    32
  0
VERTEX
  8
E18LXLIFT
 62
7
 10
-608.608
 20
-618.207
 30
3406.000
 70
    32
  0
VERTEX
  8
E18LXLIFT
 62
7
 10
-603.870
 20
-630.109
 30
3406.000
 70
    32
  0
VERTEX
  8
E18LXLIFT
 62
7
 10
-599.223
 20
-640.112
 30
3406.000
 70
    32
  0
VERTEX
  8
E18LXLIFT
 62
7
 10
-607.629
 20
-642.927
 30
3406.000
 70
    32
  0
VERTEX
  8
E18LXLIFT
 62
7
 10
-617.641
 20
-646.380
 30
3406.000
 70
    32
  0
VERTEX
  8
E18LXLIFT
 62
7
 10
-629.351
 20
-638.200
 30
3406.000
 70
    32
  0
VERTEX
  8
E18LXLIFT
 62
7
 10
-636.570
 20
-622.341
 30
3406.000
 70
    32
  0
VERTEX
  8
E18LXLIFT
 62
7
 10
-647.215
 20
-617.087
 30
3406.000
 70
    32
  0
VERTEX
  8
E18LXLIFT
 62
7
 10
-652.195
 20
-602.635
 30
3406.000
 70
    32
  0
VERTEX
  8
E18LXLIFT
 62
7
 10
-646.927
 20
-592.307
 30
3406.000
 70
    32
  0
VERTEX
  8
E18LXLIFT
 62
7
 10
-643.910
 20
-577.743
 30
3406.000
 70
    32
  0
VERTEX
  8
E18LXLIFT
 62
7
 10
-641.038
 20
-561.648
 30
3406.000
 70
    32
  0
VERTEX
  8
E18LXLIFT
 62
7
 10
-641.726
 20
-546.650
 30
3406.000
 70
    32
  0
VERTEX
  8
E18LXLIFT
 62
7
 10
-654.885
 20
-539.320
 30
3406.000
 70
    32
  0
VERTEX
  8
E18LXLIFT
 62
7
 10
-660.982
 20
-526.018
 30
3406.000
 70
    32
  0
VERTEX
  8
E18LXLIFT
 62
7
 10
-660.086
 20
-515.093
 30
3406.000
 70
    32
  0
VERTEX
  8
E18LXLIFT
 62
7
 10
-656.167
 20
-510.783
 30
3406.000
 70
    32
  0
VERTEX
  8
E18LXLIFT
 62
7
 10
-642.426
 20
-511.350
 30
3406.000
 70
    32
  0
VERTEX
  8
E18LXLIFT
 62
7
 10
-628.840
 20
-509.192
 30
3406.000
 70
    32
  0
VERTEX
  8
E18LXLIFT
 62
7
 10
-621.459
 20
-502.766
 30
3406.000
 70
    32
  0
SEQEND
  8
E18LXLIFT
  0
POLYLINE
  8
E18LXLIFT
 62
3
 66
     1
 70
     9
  0
VERTEX
  8
E18LXLIFT
 62
3
 10
-149.818
 20
-1127.927
 30
3429.000
 70
    32
  0
VERTEX
  8
E18LXLIFT
 62
3
 10
-152.974
 20
-1116.475
 30
3429.000
 70
    32
  0
VERTEX
  8
E18LXLIFT
 62
3
 10
-153.915
 20
-1103.130
 30
3429.000
 70
    32
  0
VERTEX
  8
E18LXLIFT
 62
3
 10
-154.341
 20
-1094.162
 30
3429.000
 70
    32
  0
VERTEX
  8
E18LXLIFT
 62
3
 10
-163.684
 20
-1083.106
 30
3429.000
 70
    32
  0
VERTEX
  8
E18LXLIFT
 62
3
 10
-173.200
 20
-1071.957
 30
3429.000
 70
    32
  0
VERTEX
  8
E18LXLIFT
 62
3
 10
-184.799
 20
-1054.523
 30
3429.000
 70
    32
  0
VERTEX
  8
E18LXLIFT
 62
3
 10
-193.138
 20
-1040.169
 30
3429.000
 70
    32
  0
VERTEX
  8
E18LXLIFT
 62
3
 10
-196.703
 20
-1031.486
 30
3429.000
 70
    32
  0
VERTEX
  8
E18LXLIFT
 62
3
 10
-202.475
 20
-1025.013
 30
3429.000
 70
    32
  0
VERTEX
  8
E18LXLIFT
 62
3
 10
-208.634
 20
-1028.946
 30
3429.000
 70
    32
  0
VERTEX
  8
E18LXLIFT
 62
3
 10
-217.575
 20
-1025.150
 30
3429.000
 70
    32
  0
VERTEX
  8
E18LXLIFT
 62
3
 10
-227.672
 20
-1015.921
 30
3429.000
 70
    32
  0
VERTEX
  8
E18LXLIFT
 62
3
 10
-235.653
 20
-1012.415
 30
3429.000
 70
    32
  0
VERTEX
  8
E18LXLIFT
 62
3
 10
-243.163
 20
-1019.460
 30
3429.000
 70
    32
  0
VERTEX
  8
E18LXLIFT
 62
3
 10
-248.645
 20
-1030.890
 30
3429.000
 70
    32
  0
VERTEX
  8
E18LXLIFT
 62
3
 10
-248.246
 20
-1041.493
 30
3429.000
 70
    32
  0
VERTEX
  8
E18LXLIFT
 62
3
 10
-239.247
 20
-1051.607
 30
3429.000
 70
    32
  0
VERTEX
  8
E18LXLIFT
 62
3
 10
-229.226
 20
-1056.471
 30
3429.000
 70
    32
  0
VERTEX
  8
E18LXLIFT
 62
3
 10
-214.921
 20
-1060.993
 30
3429.000
 70
    32
  0
VERTEX
  8
E18LXLIFT
 62
3
 10
-199.816
 20
-1070.445
 30
3429.000
 70
    32
  0
VERTEX
  8
E18LXLIFT
 62
3
 10
-189.298
 20
-1081.639
 30
3429.000
 70
    32
  0
VERTEX
  8
E18LXLIFT
 62
3
 10
-179.725
 20
-1088.760
 30
3429.000
 70
    32
  0
VERTEX
  8
E18LXLIFT
 62
3
 10
-170.523
 20
-1101.748
 30
3429.000
 70
    32
  0
VERTEX
  8
E18LXLIFT
 62
3
 10
-166.084
 20
-1109.381
 30
3429.000
 70
    32
  0
VERTEX
  8
E18LXLIFT
 62
3
 10
-168.380
 20
-1116.181
 30
3429.000
 70
    32
  0
VERTEX
  8
E18LXLIFT
 62
3
 10
-174.852
 20
-1121.953
 30
3429.000
 70
    32
  0
SEQEND
  8
E18LXLIFT
  0
POLYLINE
  8
E18LXLIFT
 62
13
 66
     1
 70
     9
  0
VERTEX
  8
E18LXLIFT
 62
13
 10
-513.604
 20
-405.199
 30
3417.000
 70
    32
  0
VERTEX
  8
E18LXLIFT
 62
13
 10
-507.904
 20
-414.309
 30
3417.000
 70
    32
  0
VERTEX
  8
E18LXLIFT
 62
13
 10
-509.552
 20
-428.411
 30
3417.000
 70
    32
  0
VERTEX
  8
E18LXLIFT
 62
13
 10
-510.944
 20
-442.115
 30
3417.000
 70
    32
  0
VERTEX
  8
E18LXLIFT
 62
13
 10
-512.344
 20
-455.502
 30
3417.000
 70
    32
  0
VERTEX
  8
E18LXLIFT
 62
13
 10
-511.532
 20
-467.753
 30
3417.000
 70
    32
  0
VERTEX
  8
E18LXLIFT
 62
13
 10
-507.139
 20
-468.628
 30
3417.000
 70
    32
  0
VERTEX
  8
E18LXLIFT
 62
13
 10
-502.348
 20
-477.520
 30
3417.000
 70
    32
  0
VERTEX
  8
E18LXLIFT
 62
13
 10
-497.000
 20
-485.372
 30
3417.000
 70
    32
  0
VERTEX
  8
E18LXLIFT
 62
13
 10
-490.548
 20
-482.309
 30
3417.000
 70
    32
  0
VERTEX
  8
E18LXLIFT
 62
13
 10
-487.746
 20
-479.569
 30
3417.000
 70
    32
  0
VERTEX
  8
E18LXLIFT
 62
13
 10
-493.121
 20
-468.181
 30
3417.000
 70
    32
  0
VERTEX
  8
E18LXLIFT
 62
13
 10
-497.396
 20
-457.737
 30
3417.000
 70
    32
  0
VERTEX
  8
E18LXLIFT
 62
13
 10
-496.066
 20
-452.160
 30
3417.000
 70
    32
  0
VERTEX
  8
E18LXLIFT
 62
13
 10
-490.122
 20
-448.379
 30
3417.000
 70
    32
  0
VERTEX
  8
E18LXLIFT
 62
13
 10
-486.209
 20
-443.559
 30
3417.000
 70
    32
  0
VERTEX
  8
E18LXLIFT
 62
13
 10
-487.858
 20
-433.626
 30
3417.000
 70
    32
  0
VERTEX
  8
E18LXLIFT
 62
13
 10
-484.537
 20
-425.991
 30
3417.000
 70
    32
  0
VERTEX
  8
E18LXLIFT
 62
13
 10
-486.446
 20
-419.799
 30
3417.000
 70
    32
  0
VERTEX
  8
E18LXLIFT
 62
13
 10
-490.220
 20
-412.342
 30
3417.000
 70
    32
  0
VERTEX
  8
E18LXLIFT
 62
13
 10
-490.673
 20
-405.010
 30
3417.000
 70
    32
  0
VERTEX
  8
E18LXLIFT
 62
13
 10
-489.555
 20
-401.416
 30
3417.000
 70
    32
  0
VERTEX
  8
E18LXLIFT
 62
13
 10
-499.600
 20
-397.431
 30
3417.000
 70
    32
  0
VERTEX
  8
E18LXLIFT
 62
13
 10
-507.174
 20
-394.499
 30
3417.000
 70
    32
  0
SEQEND
  8
E18LXLIFT
  0
POLYLINE
  8
E18LXLIFT
 62
8
 66
     1
 70
     9
  0
VERTEX
  8
E18LXLIFT
 62
8
 10
-327.817
 20
-777.478
 30
3423.000
 70
    32
  0
VERTEX
  8
E18LXLIFT
 62
8
 10
-334.115
 20
-774.752
 30
3423.000
 70
    32
  0
VERTEX
  8
E18LXLIFT
 62
8
 10
-341.662
 20
-771.949
 30
3423.000
 70
    32
  0
VERTEX
  8
E18LXLIFT
 62
8
 10
-346.507
 20
-766.876
 30
3423.000
 70
    32
  0
VERTEX
  8
E18LXLIFT
 62
8
 10
-346.534
 20
-757.357
 30
3423.000
 70
    32
  0
VERTEX
  8
E18LXLIFT
 62
8
 10
-348.294
 20
-746.484
 30
3423.000
 70
    32
  0
VERTEX
  8
E18LXLIFT
 62
8
 10
-350.304
 20
-742.187
 30
3423.000
 70
    32
  0
VERTEX
  8
E18LXLIFT
 62
8
 10
-356.052
 20
-739.173
 30
3423.000
 70
    32
  0
VERTEX
  8
E18LXLIFT
 62
8
 10
-356.666
 20
-733.654
 30
3423.000
 70
    32
  0
VERTEX
  8
E18LXLIFT
 62
8
 10
-355.570
 20
-728.854
 30
3423.000
 70
    32
  0
VERTEX
  8
E18LXLIFT
 62
8
 10
-360.530
 20
-723.321
 30
3423.000
 70
    32
  0
VERTEX
  8
E18LXLIFT
 62
8
 10
-361.450
 20
-718.131
 30
3423.000
 70
    32
  0
VERTEX
  8
E18LXLIFT
 62
8
 10
-358.553
 20
-713.876
 30
3423.000
 70
    32
  0
VERTEX
  8
E18LXLIFT
 62
8
 10
-354.850
 20
-711.643
 30
3423.000
 70
    32
  0
VERTEX
  8
E18LXLIFT
 62
8
 10
-351.649
 20
-714.432
 30
3423.000
 70
    32
  0
VERTEX
  8
E18LXLIFT
 62
8
 10
-343.622
 20
-719.708
 30
3423.000
 70
    32
  0
VERTEX
  8
E18LXLIFT
 62
8
 10
-333.961
 20
-716.869
 30
3423.000
 70
    32
  0
VERTEX
  8
E18LXLIFT
 62
8
 10
-327.163
 20
-716.526
 30
3423.000
 70
    32
  0
VERTEX
  8
E18LXLIFT
 62
8
 10
-320.135
 20
-722.521
 30
3423.000
 70
    32
  0
VERTEX
  8
E18LXLIFT
 62
8
 10
-311.481
 20
-728.970
 30
3423.000
 70
    32
  0
VERTEX
  8
E18LXLIFT
 62
8
 10
-304.003
 20
-735.291
 30
3423.000
 70
    32
  0
VERTEX
  8
E18LXLIFT
 62
8
 10
-300.781
 20
-743.376
 30
3423.000
 70
    32
  0
VERTEX
  8
E18LXLIFT
 62
8
 10
-295.912
 20
-754.503
 30
3423.000
 70
    32
  0
VERTEX
  8
E18LXLIFT
 62
8
 10
-294.392
 20
-764.139
 30
3423.000
 70
    32
  0
VERTEX
  8
E18LXLIFT
 62
8
 10
-288.282
 20
-771.119
 30
3423.000
 70
    32
  0
VERTEX
  8
E18LXLIFT
 62
8
 10
-285.897
 20
-779.698
 30
3423.000
 70
    32
  0
VERTEX
  8
E18LXLIFT
 62
8
 10
-284.700
 20
-787.833
 30
3423.000
 70
    32
  0
VERTEX
  8
E18LXLIFT
 62
8
 10
-275.334
 20
-795.721
 30
3423.000
 70
    32
  0
VERTEX
  8
E18LXLIFT
 62
8
 10
-267.539
 20
-804.739
 30
3423.000
 70
    32
  0
VERTEX
  8
E18LXLIFT
 62
8
 10
-265.804
 20
-819.640
 30
3423.000
 70
    32
  0
VERTEX
  8
E18LXLIFT
 62
8
 10
-258.317
 20
-825.521
 30
3423.000
 70
    32
  0
VERTEX
  8
E18LXLIFT
 62
8
 10
-247.590
 20
-831.236
 30
3423.000
 70
    32
  0
VERTEX
  8
E18LXLIFT
 62
8
 10
-242.930
 20
-833.192
 30
3423.000
 70
    32
  0
VERTEX
  8
E18LXLIFT
 62
8
 10
-238.752
 20
-848.175
 30
3423.000
 70
    32
  0
VERTEX
  8
E18LXLIFT
 62
8
 10
-237.192
 20
-857.566
 30
3423.000
 70
    32
  0
VERTEX
  8
E18LXLIFT
 62
8
 10
-239.772
 20
-864.518
 30
3423.000
 70
    32
  0
VERTEX
  8
E18LXLIFT
 62
8
 10
-240.451
 20
-871.402
 30
3423.000
 70
    32
  0
VERTEX
  8
E18LXLIFT
 62
8
 10
-237.630
 20
-876.524
 30
3423.000
 70
    32
  0
VERTEX
  8
E18LXLIFT
 62
8
 10
-230.857
 20
-885.629
 30
3423.000
 70
    32
  0
VERTEX
  8
E18LXLIFT
 62
8
 10
-236.815
 20
-891.654
 30
3423.000
 70
    32
  0
VERTEX
  8
E18LXLIFT
 62
8
 10
-239.327
 20
-897.798
 30
3423.000
 70
    32
  0
VERTEX
  8
E18LXLIFT
 62
8
 10
-238.087
 20
-901.024
 30
3423.000
 70
    32
  0
VERTEX
  8
E18LXLIFT
 62
8
 10
-245.501
 20
-908.640
 30
3423.000
 70
    32
  0
VERTEX
  8
E18LXLIFT
 62
8
 10
-254.212
 20
-914.154
 30
3423.000
 70
    32
  0
VERTEX
  8
E18LXLIFT
 62
8
 10
-260.884
 20
-917.983
 30
3423.000
 70
    32
  0
VERTEX
  8
E18LXLIFT
 62
8
 10
-270.861
 20
-910.752
 30
3423.000
 70
    32
  0
VERTEX
  8
E18LXLIFT
 62
8
 10
-279.190
 20
-901.142
 30
3423.000
 70
    32
  0
VERTEX
  8
E18LXLIFT
 62
8
 10
-286.026
 20
-891.650
 30
3423.000
 70
    32
  0
VERTEX
  8
E18LXLIFT
 62
8
 10
-293.236
 20
-883.293
 30
3423.000
 70
    32
  0
VERTEX
  8
E18LXLIFT
 62
8
 10
-298.350
 20
-880.256
 30
3423.000
 70
    32
  0
VERTEX
  8
E18LXLIFT
 62
8
 10
-303.176
 20
-880.479
 30
3423.000
 70
    32
  0
VERTEX
  8
E18LXLIFT
 62
8
 10
-307.494
 20
-869.064
 30
3423.000
 70
    32
  0
VERTEX
  8
E18LXLIFT
 62
8
 10
-312.414
 20
-857.867
 30
3423.000
 70
    32
  0
VERTEX
  8
E18LXLIFT
 62
8
 10
-319.813
 20
-842.926
 30
3423.000
 70
    32
  0
VERTEX
  8
E18LXLIFT
 62
8
 10
-323.472
 20
-830.170
 30
3423.000
 70
    32
  0
VERTEX
  8
E18LXLIFT
 62
8
 10
-326.054
 20
-815.446
 30
3423.000
 70
    32
  0
VERTEX
  8
E18LXLIFT
 62
8
 10
-330.058
 20
-805.973
 30
3423.000
 70
    32
  0
VERTEX
  8
E18LXLIFT
 62
8
 10
-328.518
 20
-791.857
 30
3423.000
 70
    32
  0
SEQEND
  8
E18LXLIFT
  0
POLYLINE
  8
E18LXLIFT
 62
7
 66
     1
 70
     9
  0
VERTEX
  8
E18LXLIFT
 62
7
 10
-651.320
 20
-514.889
 30
3423.000
 70
    32
  0
VERTEX
  8
E18LXLIFT
 62
7
 10
-639.870
 20
-519.651
 30
3423.000
 70
    32
  0
VERTEX
  8
E18LXLIFT
 62
7
 10
-628.752
 20
-523.350
 30
3423.000
 70
    32
  0
VERTEX
  8
E18LXLIFT
 62
7
 10
-624.029
 20
-528.403
 30
3423.000
 70
    32
  0
VERTEX
  8
E18LXLIFT
 62
7
 10
-620.025
 20
-532.457
 30
3423.000
 70
    32
  0
VERTEX
  8
E18LXLIFT
 62
7
 10
-620.842
 20
-538.247
 30
3423.000
 70
    32
  0
VERTEX
  8
E18LXLIFT
 62
7
 10
-615.051
 20
-544.483
 30
3423.000
 70
    32
  0
VERTEX
  8
E18LXLIFT
 62
7
 10
-603.121
 20
-551.717
 30
3423.000
 70
    32
  0
VERTEX
  8
E18LXLIFT
 62
7
 10
-591.463
 20
-557.520
 30
3423.000
 70
    32
  0
VERTEX
  8
E18LXLIFT
 62
7
 10
-578.688
 20
-563.820
 30
3423.000
 70
    32
  0
VERTEX
  8
E18LXLIFT
 62
7
 10
-567.624
 20
-569.401
 30
3423.000
 70
    32
  0
VERTEX
  8
E18LXLIFT
 62
7
 10
-556.971
 20
-571.701
 30
3423.000
 70
    32
  0
VERTEX
  8
E18LXLIFT
 62
7
 10
-552.631
 20
-575.621
 30
3423.000
 70
    32
  0
VERTEX
  8
E18LXLIFT
 62
7
 10
-552.430
 20
-582.522
 30
3423.000
 70
    32
  0
VERTEX
  8
E18LXLIFT
 62
7
 10
-543.853
 20
-592.928
 30
3423.000
 70
    32
  0
VERTEX
  8
E18LXLIFT
 62
7
 10
-540.409
 20
-600.420
 30
3423.000
 70
    32
  0
VERTEX
  8
E18LXLIFT
 62
7
 10
-541.287
 20
-605.822
 30
3423.000
 70
    32
  0
VERTEX
  8
E18LXLIFT
 62
7
 10
-542.346
 20
-615.039
 30
3423.000
 70
    32
  0
VERTEX
  8
E18LXLIFT
 62
7
 10
-550.100
 20
-616.613
 30
3423.000
 70
    32
  0
VERTEX
  8
E18LXLIFT
 62
7
 10
-556.348
 20
-616.667
 30
3423.000
 70
    32
  0
VERTEX
  8
E18LXLIFT
 62
7
 10
-557.484
 20
-610.874
 30
3423.000
 70
    32
  0
VERTEX
  8
E18LXLIFT
 62
7
 10
-558.279
 20
-601.041
 30
3423.000
 70
    32
  0
VERTEX
  8
E18LXLIFT
 62
7
 10
-563.942
 20
-590.920
 30
3423.000
 70
    32
  0
VERTEX
  8
E18LXLIFT
 62
7
 10
-571.258
 20
-581.664
 30
3423.000
 70
    32
  0
VERTEX
  8
E18LXLIFT
 62
7
 10
-581.026
 20
-575.475
 30
3423.000
 70
    32
  0
VERTEX
  8
E18LXLIFT
 62
7
 10
-592.858
 20
-569.580
 30
3423.000
 70
    32
  0
VERTEX
  8
E18LXLIFT
 62
7
 10
-603.734
 20
-565.164
 30
3423.000
 70
    32
  0
VERTEX
  8
E18LXLIFT
 62
7
 10
-613.339
 20
-561.459
 30
3423.000
 70
    32
  0
VERTEX
  8
E18LXLIFT
 62
7
 10
-617.404
 20
-565.146
 30
3423.000
 70
    32
  0
VERTEX
  8
E18LXLIFT
 62
7
 10
-617.812
 20
-573.460
 30
3423.000
 70
    32
  0
VERTEX
  8
E18LXLIFT
 62
7
 10
-619.941
 20
-580.738
 30
3423.000
 70
    32
  0
VERTEX
  8
E18LXLIFT
 62
7
 10
-617.291
 20
-589.235
 30
3423.000
 70
    32
  0
VERTEX
  8
E18LXLIFT
 62
7
 10
-616.567
 20
-599.119
 30
3423.000
 70
    32
  0
VERTEX
  8
E18LXLIFT
 62
7
 10
-614.214
 20
-607.505
 30
3423.000
 70
    32
  0
VERTEX
  8
E18LXLIFT
 62
7
 10
-615.404
 20
-617.141
 30
3423.000
 70
    32
  0
VERTEX
  8
E18LXLIFT
 62
7
 10
-619.809
 20
-625.624
 30
3423.000
 70
    32
  0
VERTEX
  8
E18LXLIFT
 62
7
 10
-625.521
 20
-628.979
 30
3423.000
 70
    32
  0
VERTEX
  8
E18LXLIFT
 62
7
 10
-634.863
 20
-629.854
 30
3423.000
 70
    32
  0
VERTEX
  8
E18LXLIFT
 62
7
 10
-638.296
 20
-622.679
 30
3423.000
 70
    32
  0
VERTEX
  8
E18LXLIFT
 62
7
 10
-641.023
 20
-615.430
 30
3423.000
 70
    32
  0
VERTEX
  8
E18LXLIFT
 62
7
 10
-648.339
 20
-606.174
 30
3423.000
 70
    32
  0
VERTEX
  8
E18LXLIFT
 62
7
 10
-652.292
 20
-596.773
 30
3423.000
 70
    32
  0
VERTEX
  8
E18LXLIFT
 62
7
 10
-656.347
 20
-587.228
 30
3423.000
 70
    32
  0
VERTEX
  8
E18LXLIFT
 62
7
 10
-655.988
 20
-579.599
 30
3423.000
 70
    32
  0
VERTEX
  8
E18LXLIFT
 62
7
 10
-653.696
 20
-569.386
 30
3423.000
 70
    32
  0
VERTEX
  8
E18LXLIFT
 62
7
 10
-649.523
 20
-556.517
 30
3423.000
 70
    32
  0
VERTEX
  8
E18LXLIFT
 62
7
 10
-645.004
 20
-548.494
 30
3423.000
 70
    32
  0
VERTEX
  8
E18LXLIFT
 62
7
 10
-647.363
 20
-538.595
 30
3423.000
 70
    32
  0
VERTEX
  8
E18LXLIFT
 62
7
 10
-653.760
 20
-529.111
 30
3423.000
 70
    32
  0
VERTEX
  8
E18LXLIFT
 62
7
 10
-658.428
 20
-524.886
 30
3423.000
 70
    32
  0
SEQEND
  8
E18LXLIFT
  0
POLYLINE
  8
E18LXLIFT
 62
1
 66
     1
 70
     9
  0
VERTEX
  8
E18LXLIFT
 62
1
 10
-326.817
 20
-776.478
 30
3433.000
 70
    32
  0
VERTEX
  8
E18LXLIFT
 62
1
 10
-333.115
 20
-773.752
 30
3433.000
 70
    32
  0
VERTEX
  8
E18LXLIFT
 62
1
 10
-340.662
 20
-770.949
 30
3433.000
 70
    32
  0
VERTEX
  8
E18LXLIFT
 62
1
 10
-345.507
 20
-765.876
 30
3433.000
 70
    32
  0
VERTEX
  8
E18LXLIFT
 62
1
 10
-345.534
 20
-756.357
 30
3433.000
 70
    32
  0
VERTEX
  8
E18LXLIFT
 62
1
 10
-347.294
 20
-745.484
 30
3433.000
 70
    32
  0
VERTEX
  8
E18LXLIFT
 62
1
 10
-349.304
 20
-741.187
 30
3433.000
 70
    32
  0
VERTEX
  8
E18LXLIFT
 62
1
 10
-355.052
 20
-738.173
 30
3433.000
 70
    32
  0
VERTEX
  8
E18LXLIFT
 62
1
 10
-355.666
 20
-732.654
 30
3433.000
 70
    32
  0
VERTEX
  8
E18LXLIFT
 62
1
 10
-354.570
 20
-727.854
 30
3433.000
 70
    32
  0
VERTEX
  8
E18LXLIFT
 62
1
 10
-359.530
 20
-722.321
 30
3433.000
 70
    32
  0
VERTEX
  8
E18LXLIFT
 62
1
 10
-360.450
 20
-717.131
 30
3433.000
 70
    32
  0
VERTEX
  8
E18LXLIFT
 62
1
 10
-357.553
 20
-712.876
 30
3433.000
 70
    32
  0
VERTEX
  8
E18LXLIFT
 62
1
 10
-353.850
 20
-710.643
 30
3433.000
 70
    32
  0
VERTEX
  8
E18LXLIFT
 62
1
 10
-350.649
 20
-713.432
 30
3433.000
 70
    32
  0
VERTEX
  8
E18LXLIFT
 62
1
 10
-342.622
 20
-718.708
 30
3433.000
 70
    32
  0
VERTEX
  8
E18LXLIFT
 62
1
 10
-332.961
 20
-715.869
 30
3433.000
 70
    32
  0
VERTEX
  8
E18LXLIFT
 62
1
 10
-326.163
 20
-715.526
 30
3433.000
 70
    32
  0
VERTEX
  8
E18LXLIFT
 62
1
 10
-319.135
 20
-721.521
 30
3433.000
 70
    32
  0
VERTEX
  8
E18LXLIFT
 62
1
 10
-310.481
 20
-727.970
 30
3433.000
 70
    32
  0
VERTEX
  8
E18LXLIFT
 62
1
 10
-303.003
 20
-734.291
 30
3433.000
 70
    32
  0
VERTEX
  8
E18LXLIFT
 62
1
 10
-299.781
 20
-742.376
 30
3433.000
 70
    32
  0
VERTEX
  8
E18LXLIFT
 62
1
 10
-294.912
 20
-753.503
 30
3433.000
 70
    32
  0
VERTEX
  8
E18LXLIFT
 62
1
 10
-293.392
 20
-763.139
 30
3433.000
 70
    32
  0
VERTEX
  8
E18LXLIFT
 62
1
 10
-287.282
 20
-770.119
 30
3433.000
 70
    32
  0
VERTEX
  8
E18LXLIFT
 62
1
 10
-284.897
 20
-778.698
 30
3433.000
 70
    32
  0
VERTEX
  8
E18LXLIFT
 62
1
 10
-283.700
 20
-786.833
 30
3433.000
 70
    32
  0
VERTEX
  8
E18LXLIFT
 62
1
 10
-274.334
 20
-794.721
 30
3433.000
 70
    32
  0
VERTEX
  8
E18LXLIFT
 62
1
 10
-266.539
 20
-803.739
 30
3433.000
 70
    32
  0
VERTEX
  8
E18LXLIFT
 62
1
 10
-264.804
 20
-818.640
 30
3433.000
 70
    32
  0
VERTEX
  8
E18LXLIFT
 62
1
 10
-257.317
 20
-824.521
 30
3433.000
 70
    32
  0
VERTEX
  8
E18LXLIFT
 62
1
 10
-246.590
 20
-830.236
 30
3433.000
 70
    32
  0
VERTEX
  8
E18LXLIFT
 62
1
 10
-241.930
 20
-832.192
 30
3433.000
 70
    32
  0
VERTEX
  8
E18LXLIFT
 62
1
 10
-237.752
 20
-847.175
 30
3433.000
 70
    32
  0
VERTEX
  8
E18LXLIFT
 62
1
 10
-236.192
 20
-856.566
 30
3433.000
 70
    32
  0
VERTEX
  8
E18LXLIFT
 62
1
 10
-238.772
 20
-863.518
 30
3433.000
 70
    32
  0
VERTEX
  8
E18LXLIFT
 62
1
 10
-239.451
 20
-870.402
 30
3433.000
 70
    32
  0
VERTEX
  8
E18LXLIFT
 62
1
 10
-236.630
 20
-875.524
 30
3433.000
 70
    32
  0
VERTEX
  8
E18LXLIFT
 62
1
 10
-229.857
 20
-884.629
 30
3433.000
 70
    32
  0
VERTEX
  8
E18LXLIFT
 62
1
 10
-235.815
 20
-890.654
 30
3433.000
 70
    32
  0
VERTEX
  8
E18LXLIFT
 62
1
 10
-238.327
 20
-896.798
 30
3433.000
 70
    32
  0
VERTEX
  8
E18LXLIFT
 62
1
 10
-237.087
 20
-900.024
 30
3433.000
 70
    32
  0
VERTEX
  8
E18LXLIFT
 62
1
 10
-244.501
 20
-907.640
 30
3433.000
 70
    32
  0
VERTEX
  8
E18LXLIFT
 62
1
 10
-253.212
 20
-913.154
 30
3433.000
 70
    32
  0
VERTEX
  8
E18LXLIFT
 62
1
 10
-259.884
 20
-916.983
 30
3433.000
 70
    32
  0
VERTEX
  8
E18LXLIFT
 62
1
 10
-269.861
 20
-909.752
 30
3433.000
 70
    32
  0
VERTEX
  8
E18LXLIFT
 62
1
 10
-278.190
 20
-900.142
 30
3433.000
 70
    32
  0
VERTEX
  8
E18LXLIFT
 62
1
 10
-285.026
 20
-890.650
 30
3433.000
 70
    32
  0
VERTEX
  8
E18LXLIFT
 62
1
 10
-292.236
 20
-882.293
 30
3433.000
 70
    32
  0
VERTEX
  8
E18LXLIFT
 62
1
 10
-297.350
 20
-879.256
 30
3433.000
 70
    32
  0
VERTEX
  8
E18LXLIFT
 62
1
 10
-302.176
 20
-879.479
 30
3433.000
 70
    32
  0
VERTEX
  8
E18LXLIFT
 62
1
 10
-306.494
 20
-868.064
 30
3433.000
 70
    32
  0
VERTEX
  8
E18LXLIFT
 62
1
 10
-311.414
 20
-856.867
 30
3433.000
 70
    32
  0
VERTEX
  8
E18LXLIFT
 62
1
 10
-318.813
 20
-841.926
 30
3433.000
 70
    32
  0
VERTEX
  8
E18LXLIFT
 62
1
 10
-322.472
 20
-829.170
 30
3433.000
 70
    32
  0
VERTEX
  8
E18LXLIFT
 62
1
 10
-325.054
 20
-814.446
 30
3433.000
 70
    32
  0
VERTEX
  8
E18LXLIFT
 62
1
 10
-329.058
 20
-804.973
 30
3433.000
 70
    32
  0
VERTEX
  8
E18LXLIFT
 62
1
 10
-327.518
 20
-790.857
 30
3433.000
 70
    32
  0
SEQEND
  8
E18LXLIFT
  0
POLYLINE
  8
E18LXLIFT
 62
13
 66
     1
 70
     9
  0
VERTEX
  8
E18LXLIFT
 62
13
 10
-517.000
 20
-386.142
 30
3444.000
 70
    32
  0
VERTEX
  8
E18LXLIFT
 62
13
 10
-510.146
 20
-384.467
 30
3444.000
 70
    32
  0
VERTEX
  8
E18LXLIFT
 62
13
 10
-504.608
 20
-384.858
 30
3444.000
 70
    32
  0
VERTEX
  8
E18LXLIFT
 62
13
 10
-497.803
 20
-387.702
 30
3444.000
 70
    32
  0
VERTEX
  8
E18LXLIFT
 62
13
 10
-496.456
 20
-393.816
 30
3444.000
 70
    32
  0
VERTEX
  8
E18LXLIFT
 62
13
 10
-491.508
 20
-398.142
 30
3444.000
 70
    32
  0
VERTEX
  8
E18LXLIFT
 62
13
 10
-491.586
 20
-404.105
 30
3444.000
 70
    32
  0
VERTEX
  8
E18LXLIFT
 62
13
 10
-495.968
 20
-411.937
 30
3444.000
 70
    32
  0
VERTEX
  8
E18LXLIFT
 62
13
 10
-499.037
 20
-420.658
 30
3444.000
 70
    32
  0
VERTEX
  8
E18LXLIFT
 62
13
 10
-500.830
 20
-427.998
 30
3444.000
 70
    32
  0
VERTEX
  8
E18LXLIFT
 62
13
 10
-500.646
 20
-436.829
 30
3444.000
 70
    32
  0
VERTEX
  8
E18LXLIFT
 62
13
 10
-502.488
 20
-441.143
 30
3444.000
 70
    32
  0
VERTEX
  8
E18LXLIFT
 62
13
 10
-502.864
 20
-449.514
 30
3444.000
 70
    32
  0
VERTEX
  8
E18LXLIFT
 62
13
 10
-502.240
 20
-458.348
 30
3444.000
 70
    32
  0
VERTEX
  8
E18LXLIFT
 62
13
 10
-501.127
 20
-467.697
 30
3444.000
 70
    32
  0
VERTEX
  8
E18LXLIFT
 62
13
 10
-496.912
 20
-476.064
 30
3444.000
 70
    32
  0
VERTEX
  8
E18LXLIFT
 62
13
 10
-490.488
 20
-485.643
 30
3444.000
 70
    32
  0
VERTEX
  8
E18LXLIFT
 62
13
 10
-483.093
 20
-489.582
 30
3444.000
 70
    32
  0
VERTEX
  8
E18LXLIFT
 62
13
 10
-478.690
 20
-493.765
 30
3444.000
 70
    32
  0
VERTEX
  8
E18LXLIFT
 62
13
 10
-471.786
 20
-497.630
 30
3444.000
 70
    32
  0
VERTEX
  8
E18LXLIFT
 62
13
 10
-466.387
 20
-500.201
 30
3444.000
 70
    32
  0
VERTEX
  8
E18LXLIFT
 62
13
 10
-463.669
 20
-506.395
 30
3444.000
 70
    32
  0
VERTEX
  8
E18LXLIFT
 62
13
 10
-455.757
 20
-514.436
 30
3444.000
 70
    32
  0
VERTEX
  8
E18LXLIFT
 62
13
 10
-454.376
 20
-523.259
 30
3444.000
 70
    32
  0
VERTEX
  8
E18LXLIFT
 62
13
 10
-453.282
 20
-530.214
 30
3444.000
 70
    32
  0
VERTEX
  8
E18LXLIFT
 62
13
 10
-457.135
 20
-535.359
 30
3444.000
 70
    32
  0
VERTEX
  8
E18LXLIFT
 62
13
 10
-459.891
 20
-541.988
 30
3444.000
 70
    32
  0
VERTEX
  8
E18LXLIFT
 62
13
 10
-459.863
 20
-548.092
 30
3444.000
 70
    32
  0
VERTEX
  8
E18LXLIFT
 62
13
 10
-463.846
 20
-556.613
 30
3444.000
 70
    32
  0
VERTEX
  8
E18LXLIFT
 62
13
 10
-464.839
 20
-560.300
 30
3444.000
 70
    32
  0
VERTEX
  8
E18LXLIFT
 62
13
 10
-473.164
 20
-560.875
 30
3444.000
 70
    32
  0
VERTEX
  8
E18LXLIFT
 62
13
 10
-476.660
 20
-557.772
 30
3444.000
 70
    32
  0
VERTEX
  8
E18LXLIFT
 62
13
 10
-480.756
 20
-554.894
 30
3444.000
 70
    32
  0
VERTEX
  8
E18LXLIFT
 62
13
 10
-482.668
 20
-544.168
 30
3444.000
 70
    32
  0
VERTEX
  8
E18LXLIFT
 62
13
 10
-481.484
 20
-540.887
 30
3444.000
 70
    32
  0
VERTEX
  8
E18LXLIFT
 62
13
 10
-477.034
 20
-538.473
 30
3444.000
 70
    32
  0
VERTEX
  8
E18LXLIFT
 62
13
 10
-474.211
 20
-529.715
 30
3444.000
 70
    32
  0
VERTEX
  8
E18LXLIFT
 62
13
 10
-478.512
 20
-521.083
 30
3444.000
 70
    32
  0
VERTEX
  8
E18LXLIFT
 62
13
 10
-481.372
 20
-512.479
 30
3444.000
 70
    32
  0
VERTEX
  8
E18LXLIFT
 62
13
 10
-487.141
 20
-509.853
 30
3444.000
 70
    32
  0
VERTEX
  8
E18LXLIFT
 62
13
 10
-491.485
 20
-504.862
 30
3444.000
 70
    32
  0
VERTEX
  8
E18LXLIFT
 62
13
 10
-496.987
 20
-501.710
 30
3444.000
 70
    32
  0
VERTEX
  8
E18LXLIFT
 62
13
 10
-502.647
 20
-496.270
 30
3444.000
 70
    32
  0
VERTEX
  8
E18LXLIFT
 62
13
 10
-509.299
 20
-494.077
 30
3444.000
 70
    32
  0
VERTEX
  8
E18LXLIFT
 62
13
 10
-517.180
 20
-486.669
 30
3444.000
 70
    32
  0
VERTEX
  8
E18LXLIFT
 62
13
 10
-520.992
 20
-476.035
 30
3444.000
 70
    32
  0
VERTEX
  8
E18LXLIFT
 62
13
 10
-520.112
 20
-463.464
 30
3444.000
 70
    32
  0
VERTEX
  8
E18LXLIFT
 62
13
 10
-520.352
 20
-455.002
 30
3444.000
 70
    32
  0
VERTEX
  8
E18LXLIFT
 62
13
 10
-522.338
 20
-444.768
 30
3444.000
 70
    32
  0
VERTEX
  8
E18LXLIFT
 62
13
 10
-526.394
 20
-438.689
 30
3444.000
 70
    32
  0
VERTEX
  8
E18LXLIFT
 62
13
 10
-524.250
 20
-431.527
 30
3444.000
 70
    32
  0
VERTEX
  8
E18LXLIFT
 62
13
 10
-520.301
 20
-422.812
 30
3444.000
 70
    32
  0
VERTEX
  8
E18LXLIFT
 62
13
 10
-516.614
 20
-416.260
 30
3444.000
 70
    32
  0
VERTEX
  8
E18LXLIFT
 62
13
 10
-518.975
 20
-406.850
 30
3444.000
 70
    32
  0
VERTEX
  8
E18LXLIFT
 62
13
 10
-524.086
 20
-398.159
 30
3444.000
 70
    32
  0
VERTEX
  8
E18LXLIFT
 62
13
 10
-528.547
 20
-394.786
 30
3444.000
 70
    32
  0
SEQEND
  8
E18LXLIFT
  0
POLYLINE
  8
E18LXLIFT
 62
11
 66
     1
 70
     9
  0
VERTEX
  8
E18LXLIFT
 62
11
 10
-388.914
 20
-996.859
 30
3431.000
 70
    32
  0
VERTEX
  8
E18LXLIFT
 62
11
 10
-401.166
 20
-965.779
 30
3431.000
 70
    32
  0
VERTEX
  8
E18LXLIFT
 62
11
 10
-415.292
 20
-933.349
 30
3431.000
 70
    32
  0
VERTEX
  8
E18LXLIFT
 62
11
 10
-422.533
 20
-909.938
 30
3431.000
 70
    32
  0
VERTEX
  8
E18LXLIFT
 62
11
 10
-429.235
 20
-885.036
 30
3431.000
 70
    32
  0
VERTEX
  8
E18LXLIFT
 62
11
 10
-414.760
 20
-872.807
 30
3431.000
 70
    32
  0
VERTEX
  8
E18LXLIFT
 62
11
 10
-408.371
 20
-897.285
 30
3431.000
 70
    32
  0
VERTEX
  8
E18LXLIFT
 62
11
 10
-400.959
 20
-923.740
 30
3431.000
 70
    32
  0
VERTEX
  8
E18LXLIFT
 62
11
 10
-390.391
 20
-946.769
 30
3431.000
 70
    32
  0
VERTEX
  8
E18LXLIFT
 62
11
 10
-379.660
 20
-966.616
 30
3431.000
 70
    32
  0
VERTEX
  8
E18LXLIFT
 62
11
 10
-370.613
 20
-983.443
 30
3431.000
 70
    32
  0
SEQEND
  8
E18LXLIFT
  0
POLYLINE
  8
E18LXLIFT
 62
1
 66
     1
 70
     9
  0
VERTEX
  8
E18LXLIFT
 62
1
 10
-369.613
 20
-982.443
 30
3441.000
 70
    32
  0
VERTEX
  8
E18LXLIFT
 62
1
 10
-378.660
 20
-965.616
 30
3441.000
 70
    32
  0
VERTEX
  8
E18LXLIFT
 62
1
 10
-389.391
 20
-945.769
 30
3441.000
 70
    32
  0
VERTEX
  8
E18LXLIFT
 62
1
 10
-399.959
 20
-922.740
 30
3441.000
 70
    32
  0
VERTEX
  8
E18LXLIFT
 62
1
 10
-407.371
 20
-896.285
 30
3441.000
 70
    32
  0
VERTEX
  8
E18LXLIFT
 62
1
 10
-413.760
 20
-871.807
 30
3441.000
 70
    32
  0
VERTEX
  8
E18LXLIFT
 62
1
 10
-428.235
 20
-884.036
 30
3441.000
 70
    32
  0
VERTEX
  8
E18LXLIFT
 62
1
 10
-421.533
 20
-908.938
 30
3441.000
 70
    32
  0
VERTEX
  8
E18LXLIFT
 62
1
 10
-414.292
 20
-932.349
 30
3441.000
 70
    32
  0
VERTEX
  8
E18LXLIFT
 62
1
 10
-400.166
 20
-964.779
 30
3441.000
 70
    32
  0
VERTEX
  8
E18LXLIFT
 62
1
 10
-387.914
 20
-995.859
 30
3441.000
 70
    32
  0
SEQEND
  8
E18LXLIFT
  0
POLYLINE
  8
E18LXLIFT
 62
3
 66
     1
 70
     9
  0
VERTEX
  8
E18LXLIFT
 62
3
 10
-132.361
 20
-1143.631
 30
3454.000
 70
    32
  0
VERTEX
  8
E18LXLIFT
 62
3
 10
-137.980
 20
-1138.559
 30
3454.000
 70
    32
  0
VERTEX
  8
E18LXLIFT
 62
3
 10
-140.325
 20
-1128.839
 30
3454.000
 70
    32
  0
VERTEX
  8
E18LXLIFT
 62
3
 10
-145.401
 20
-1118.048
 30
3454.000
 70
    32
  0
VERTEX
  8
E18LXLIFT
 62
3
 10
-154.477
 20
-1114.059
 30
3454.000
 70
    32
  0
VERTEX
  8
E18LXLIFT
 62
3
 10
-161.001
 20
-1100.510
 30
3454.000
 70
    32
  0
VERTEX
  8
E18LXLIFT
 62
3
 10
-164.981
 20
-1087.624
 30
3454.000
 70
    32
  0
VERTEX
  8
E18LXLIFT
 62
3
 10
-167.505
 20
-1080.968
 30
3454.000
 70
    32
  0
VERTEX
  8
E18LXLIFT
 62
3
 10
-175.089
 20
-1080.249
 30
3454.000
 70
    32
  0
VERTEX
  8
E18LXLIFT
 62
3
 10
-185.320
 20
-1070.899
 30
3454.000
 70
    32
  0
VERTEX
  8
E18LXLIFT
 62
3
 10
-198.175
 20
-1059.421
 30
3454.000
 70
    32
  0
VERTEX
  8
E18LXLIFT
 62
3
 10
-203.739
 20
-1051.265
 30
3454.000
 70
    32
  0
VERTEX
  8
E18LXLIFT
 62
3
 10
-206.727
 20
-1043.967
 30
3454.000
 70
    32
  0
VERTEX
  8
E18LXLIFT
 62
3
 10
-214.112
 20
-1038.105
 30
3454.000
 70
    32
  0
VERTEX
  8
E18LXLIFT
 62
3
 10
-218.184
 20
-1027.349
 30
3454.000
 70
    32
  0
VERTEX
  8
E18LXLIFT
 62
3
 10
-220.537
 20
-1014.157
 30
3454.000
 70
    32
  0
VERTEX
  8
E18LXLIFT
 62
3
 10
-228.367
 20
-1013.399
 30
3454.000
 70
    32
  0
VERTEX
  8
E18LXLIFT
 62
3
 10
-235.233
 20
-1012.923
 30
3454.000
 70
    32
  0
VERTEX
  8
E18LXLIFT
 62
3
 10
-242.698
 20
-1023.205
 30
3454.000
 70
    32
  0
VERTEX
  8
E18LXLIFT
 62
3
 10
-250.886
 20
-1030.531
 30
3454.000
 70
    32
  0
VERTEX
  8
E18LXLIFT
 62
3
 10
-251.787
 20
-1036.508
 30
3454.000
 70
    32
  0
VERTEX
  8
E18LXLIFT
 62
3
 10
-248.378
 20
-1045.894
 30
3454.000
 70
    32
  0
VERTEX
  8
E18LXLIFT
 62
3
 10
-238.996
 20
-1047.597
 30
3454.000
 70
    32
  0
VERTEX
  8
E18LXLIFT
 62
3
 10
-230.769
 20
-1049.808
 30
3454.000
 70
    32
  0
VERTEX
  8
E18LXLIFT
 62
3
 10
-227.777
 20
-1055.908
 30
3454.000
 70
    32
  0
VERTEX
  8
E18LXLIFT
 62
3
 10
-222.943
 20
-1061.547
 30
3454.000
 70
    32
  0
VERTEX
  8
E18LXLIFT
 62
3
 10
-217.375
 20
-1062.635
 30
3454.000
 70
    32
  0
VERTEX
  8
E18LXLIFT
 62
3
 10
-212.561
 20
-1064.485
 30
3454.000
 70
    32
  0
VERTEX
  8
E18LXLIFT
 62
3
 10
-206.704
 20
-1071.994
 30
3454.000
 70
    32
  0
VERTEX
  8
E18LXLIFT
 62
3
 10
-201.497
 20
-1078.451
 30
3454.000
 70
    32
  0
VERTEX
  8
E18LXLIFT
 62
3
 10
-193.127
 20
-1084.472
 30
3454.000
 70
    32
  0
VERTEX
  8
E18LXLIFT
 62
3
 10
-186.174
 20
-1089.885
 30
3454.000
 70
    32
  0
VERTEX
  8
E18LXLIFT
 62
3
 10
-178.797
 20
-1096.188
 30
3454.000
 70
    32
  0
VERTEX
  8
E18LXLIFT
 62
3
 10
-175.590
 20
-1108.002
 30
3454.000
 70
    32
  0
VERTEX
  8
E18LXLIFT
 62
3
 10
-172.118
 20
-1121.691
 30
3454.000
 70
    32
  0
VERTEX
  8
E18LXLIFT
 62
3
 10
-169.063
 20
-1134.049
 30
3454.000
 70
    32
  0
VERTEX
  8
E18LXLIFT
 62
3
 10
-163.816
 20
-1144.174
 30
3454.000
 70
    32
  0
VERTEX
  8
E18LXLIFT
 62
3
 10
-153.034
 20
-1159.104
 30
3454.000
 70
    32
  0
SEQEND
  8
E18LXLIFT
  0
POLYLINE
  8
E18LXLIFT
 62
2
 66
     1
 70
     9
  0
VERTEX
  8
E18LXLIFT
 62
2
 10
-245.766
 20
-1018.355
 30
3456.000
 70
    32
  0
VERTEX
  8
E18LXLIFT
 62
2
 10
-252.933
 20
-1009.183
 30
3456.000
 70
    32
  0
VERTEX
  8
E18LXLIFT
 62
2
 10
-263.247
 20
-995.654
 30
3456.000
 70
    32
  0
VERTEX
  8
E18LXLIFT
 62
2
 10
-271.609
 20
-987.236
 30
3456.000
 70
    32
  0
VERTEX
  8
E18LXLIFT
 62
2
 10
-282.205
 20
-978.584
 30
3456.000
 70
    32
  0
VERTEX
  8
E18LXLIFT
 62
2
 10
-294.238
 20
-977.274
 30
3456.000
 70
    32
  0
VERTEX
  8
E18LXLIFT
 62
2
 10
-301.918
 20
-977.928
 30
3456.000
 70
    32
  0
VERTEX
  8
E18LXLIFT
 62
2
 10
-310.705
 20
-984.274
 30
3456.000
 70
    32
  0
VERTEX
  8
E18LXLIFT
 62
2
 10
-319.293
 20
-987.433
 30
3456.000
 70
    32
  0
VERTEX
  8
E18LXLIFT
 62
2
 10
-327.036
 20
-981.829
 30
3456.000
 70
    32
  0
VERTEX
  8
E18LXLIFT
 62
2
 10
-330.393
 20
-976.427
 30
3456.000
 70
    32
  0
VERTEX
  8
E18LXLIFT
 62
2
 10
-337.656
 20
-974.498
 30
3456.000
 70
    32
  0
VERTEX
  8
E18LXLIFT
 62
2
 10
-345.077
 20
-971.597
 30
3456.000
 70
    32
  0
VERTEX
  8
E18LXLIFT
 62
2
 10
-352.225
 20
-968.172
 30
3456.000
 70
    32
  0
VERTEX
  8
E18LXLIFT
 62
2
 10
-360.190
 20
-963.163
 30
3456.000
 70
    32
  0
VERTEX
  8
E18LXLIFT
 62
2
 10
-365.658
 20
-959.504
 30
3456.000
 70
    32
  0
VERTEX
  8
E18LXLIFT
 62
2
 10
-371.099
 20
-953.324
 30
3456.000
 70
    32
  0
VERTEX
  8
E18LXLIFT
 62
2
 10
-377.116
 20
-946.800
 30
3456.000
 70
    32
  0
VERTEX
  8
E18LXLIFT
 62
2
 10
-386.950
 20
-938.902
 30
3456.000
 70
    32
  0
VERTEX
  8
E18LXLIFT
 62
2
 10
-385.807
 20
-930.250
 30
3456.000
 70
    32
  0
VERTEX
  8
E18LXLIFT
 62
2
 10
-383.794
 20
-921.297
 30
3456.000
 70
    32
  0
VERTEX
  8
E18LXLIFT
 62
2
 10
-388.314
 20
-912.930
 30
3456.000
 70
    32
  0
VERTEX
  8
E18LXLIFT
 62
2
 10
-393.997
 20
-903.556
 30
3456.000
 70
    32
  0
VERTEX
  8
E18LXLIFT
 62
2
 10
-393.203
 20
-894.722
 30
3456.000
 70
    32
  0
VERTEX
  8
E18LXLIFT
 62
2
 10
-388.722
 20
-887.682
 30
3456.000
 70
    32
  0
VERTEX
  8
E18LXLIFT
 62
2
 10
-389.627
 20
-879.204
 30
3456.000
 70
    32
  0
VERTEX
  8
E18LXLIFT
 62
2
 10
-386.241
 20
-872.303
 30
3456.000
 70
    32
  0
VERTEX
  8
E18LXLIFT
 62
2
 10
-386.638
 20
-863.024
 30
3456.000
 70
    32
  0
VERTEX
  8
E18LXLIFT
 62
2
 10
-376.958
 20
-862.882
 30
3456.000
 70
    32
  0
VERTEX
  8
E18LXLIFT
 62
2
 10
-375.208
 20
-870.422
 30
3456.000
 70
    32
  0
VERTEX
  8
E18LXLIFT
 62
2
 10
-371.827
 20
-882.328
 30
3456.000
 70
    32
  0
VERTEX
  8
E18LXLIFT
 62
2
 10
-367.633
 20
-895.060
 30
3456.000
 70
    32
  0
VERTEX
  8
E18LXLIFT
 62
2
 10
-361.827
 20
-904.454
 30
3456.000
 70
    32
  0
VERTEX
  8
E18LXLIFT
 62
2
 10
-356.176
 20
-913.634
 30
3456.000
 70
    32
  0
VERTEX
  8
E18LXLIFT
 62
2
 10
-351.100
 20
-924.425
 30
3456.000
 70
    32
  0
VERTEX
  8
E18LXLIFT
 62
2
 10
-347.540
 20
-933.267
 30
3456.000
 70
    32
  0
VERTEX
  8
E18LXLIFT
 62
2
 10
-339.127
 20
-939.800
 30
3456.000
 70
    32
  0
VERTEX
  8
E18LXLIFT
 62
2
 10
-331.531
 20
-942.793
 30
3456.000
 70
    32
  0
VERTEX
  8
E18LXLIFT
 62
2
 10
-318.387
 20
-948.952
 30
3456.000
 70
    32
  0
VERTEX
  8
E18LXLIFT
 62
2
 10
-308.763
 20
-951.894
 30
3456.000
 70
    32
  0
VERTEX
  8
E18LXLIFT
 62
2
 10
-305.997
 20
-950.005
 30
3456.000
 70
    32
  0
VERTEX
  8
E18LXLIFT
 62
2
 10
-302.024
 20
-945.722
 30
3456.000
 70
    32
  0
VERTEX
  8
E18LXLIFT
 62
2
 10
-297.039
 20
-948.862
 30
3456.000
 70
    32
  0
VERTEX
  8
E18LXLIFT
 62
2
 10
-293.146
 20
-948.985
 30
3456.000
 70
    32
  0
VERTEX
  8
E18LXLIFT
 62
2
 10
-288.308
 20
-951.470
 30
3456.000
 70
    32
  0
VERTEX
  8
E18LXLIFT
 62
2
 10
-283.371
 20
-959.209
 30
3456.000
 70
    32
  0
VERTEX
  8
E18LXLIFT
 62
2
 10
-273.593
 20
-962.364
 30
3456.000
 70
    32
  0
VERTEX
  8
E18LXLIFT
 62
2
 10
-262.282
 20
-972.457
 30
3456.000
 70
    32
  0
VERTEX
  8
E18LXLIFT
 62
2
 10
-252.452
 20
-983.510
 30
3456.000
 70
    32
  0
VERTEX
  8
E18LXLIFT
 62
2
 10
-241.483
 20
-998.849
 30
3456.000
 70
    32
  0
VERTEX
  8
E18LXLIFT
 62
2
 10
-233.106
 20
-1010.299
 30
3456.000
 70
    32
  0
SEQEND
  8
E18LXLIFT
  0
POLYLINE
  8
E18LXLIFT
 62
2
 66
     1
 70
     9
  0
VERTEX
  8
E18LXLIFT
 62
2
 10
-391.226
 20
-864.796
 30
3471.000
 70
    32
  0
VERTEX
  8
E18LXLIFT
 62
2
 10
-385.935
 20
-874.106
 30
3471.000
 70
    32
  0
VERTEX
  8
E18LXLIFT
 62
2
 10
-375.928
 20
-884.286
 30
3471.000
 70
    32
  0
VERTEX
  8
E18LXLIFT
 62
2
 10
-365.139
 20
-893.590
 30
3471.000
 70
    32
  0
VERTEX
  8
E18LXLIFT
 62
2
 10
-360.121
 20
-900.073
 30
3471.000
 70
    32
  0
VERTEX
  8
E18LXLIFT
 62
2
 10
-357.020
 20
-911.471
 30
3471.000
 70
    32
  0
VERTEX
  8
E18LXLIFT
 62
2
 10
-355.262
 20
-921.123
 30
3471.000
 70
    32
  0
VERTEX
  8
E18LXLIFT
 62
2
 10
-352.403
 20
-927.299
 30
3471.000
 70
    32
  0
VERTEX
  8
E18LXLIFT
 62
2
 10
-352.269
 20
-933.892
 30
3471.000
 70
    32
  0
VERTEX
  8
E18LXLIFT
 62
2
 10
-359.203
 20
-936.748
 30
3471.000
 70
    32
  0
VERTEX
  8
E18LXLIFT
 62
2
 10
-365.340
 20
-940.119
 30
3471.000
 70
    32
  0
VERTEX
  8
E18LXLIFT
 62
2
 10
-373.947
 20
-941.677
 30
3471.000
 70
    32
  0
VERTEX
  8
E18LXLIFT
 62
2
 10
-385.452
 20
-939.137
 30
3471.000
 70
    32
  0
VERTEX
  8
E18LXLIFT
 62
2
 10
-383.317
 20
-928.888
 30
3471.000
 70
    32
  0
VERTEX
  8
E18LXLIFT
 62
2
 10
-382.734
 20
-915.531
 30
3471.000
 70
    32
  0
VERTEX
  8
E18LXLIFT
 62
2
 10
-386.490
 20
-901.683
 30
3471.000
 70
    32
  0
VERTEX
  8
E18LXLIFT
 62
2
 10
-390.493
 20
-890.383
 30
3471.000
 70
    32
  0
VERTEX
  8
E18LXLIFT
 62
2
 10
-397.284
 20
-879.869
 30
3471.000
 70
    32
  0
VERTEX
  8
E18LXLIFT
 62
2
 10
-403.162
 20
-871.407
 30
3471.000
 70
    32
  0
VERTEX
  8
E18LXLIFT
 62
2
 10
-406.928
 20
-864.254
 30
3471.000
 70
    32
  0
SEQEND
  8
E18LXLIFT
  0
POLYLINE
  8
E18LXLIFT
 62
2
 66
     1
 70
     9
  0
VERTEX
  8
E18LXLIFT
 62
2
 10
-273.287
 20
-972.191
 30
3471.000
 70
    32
  0
VERTEX
  8
E18LXLIFT
 62
2
 10
-283.569
 20
-966.197
 30
3471.000
 70
    32
  0
VERTEX
  8
E18LXLIFT
 62
2
 10
-288.451
 20
-959.295
 30
3471.000
 70
    32
  0
VERTEX
  8
E18LXLIFT
 62
2
 10
-292.837
 20
-957.975
 30
3471.000
 70
    32
  0
VERTEX
  8
E18LXLIFT
 62
2
 10
-298.401
 20
-959.106
 30
3471.000
 70
    32
  0
VERTEX
  8
E18LXLIFT
 62
2
 10
-303.108
 20
-958.553
 30
3471.000
 70
    32
  0
VERTEX
  8
E18LXLIFT
 62
2
 10
-306.139
 20
-965.552
 30
3471.000
 70
    32
  0
VERTEX
  8
E18LXLIFT
 62
2
 10
-306.544
 20
-971.232
 30
3471.000
 70
    32
  0
VERTEX
  8
E18LXLIFT
 62
2
 10
-300.718
 20
-977.790
 30
3471.000
 70
    32
  0
VERTEX
  8
E18LXLIFT
 62
2
 10
-295.271
 20
-982.135
 30
3471.000
 70
    32
  0
VERTEX
  8
E18LXLIFT
 62
2
 10
-289.309
 20
-981.261
 30
3471.000
 70
    32
  0
VERTEX
  8
E18LXLIFT
 62
2
 10
-283.750
 20
-979.054
 30
3471.000
 70
    32
  0
VERTEX
  8
E18LXLIFT
 62
2
 10
-278.686
 20
-977.521
 30
3471.000
 70
    32
  0
SEQEND
  8
E18LXLIFT
  0
POLYLINE
  8
E18LXLIFT
 62
11
 66
     1
 70
     9
  0
VERTEX
  8
E18LXLIFT
 62
11
 10
-302.262
 20
-1031.417
 30
3483.000
 70
    32
  0
VERTEX
  8
E18LXLIFT
 62
11
 10
-325.632
 20
-990.453
 30
3483.000
 70
    32
  0
VERTEX
  8
E18LXLIFT
 62
11
 10
-403.331
 20
-928.808
 30
3483.000
 70
    32
  0
VERTEX
  8
E18LXLIFT
 62
11
 10
-407.247
 20
-871.275
 30
3483.000
 70
    32
  0
VERTEX
  8
E18LXLIFT
 62
11
 10
-433.542
 20
-829.684
 30
3483.000
 70
    32
  0
VERTEX
  8
E18LXLIFT
 62
11
 10
-449.655
 20
-840.759
 30
3483.000
 70
    32
  0
VERTEX
  8
E18LXLIFT
 62
11
 10
-430.885
 20
-889.401
 30
3483.000
 70
    32
  0
VERTEX
  8
E18LXLIFT
 62
11
 10
-421.238
 20
-940.397
 30
3483.000
 70
    32
  0
VERTEX
  8
E18LXLIFT
 62
11
 10
-397.526
 20
-980.472
 30
3483.000
 70
    32
  0
VERTEX
  8
E18LXLIFT
 62
11
 10
-376.447
 20
-1027.804
 30
3483.000
 70
    32
  0
VERTEX
  8
E18LXLIFT
 62
11
 10
-357.573
 20
-1071.409
 30
3483.000
 70
    32
  0
VERTEX
  8
E18LXLIFT
 62
11
 10
-328.524
 20
-1050.104
 30
3483.000
 70
    32
  0
SEQEND
  8
E18LXLIFT
  0
POLYLINE
  8
E18LXLIFT
 62
3
 66
     1
 70
     9
  0
VERTEX
  8
E18LXLIFT
 62
3
 10
-509.027
 20
-545.608
 30
3499.000
 70
    32
  0
VERTEX
  8
E18LXLIFT
 62
3
 10
-504.563
 20
-535.641
 30
3499.000
 70
    32
  0
VERTEX
  8
E18LXLIFT
 62
3
 10
-500.420
 20
-524.052
 30
3499.000
 70
    32
  0
VERTEX
  8
E18LXLIFT
 62
3
 10
-498.908
 20
-513.199
 30
3499.000
 70
    32
  0
VERTEX
  8
E18LXLIFT
 62
3
 10
-502.221
 20
-504.702
 30
3499.000
 70
    32
  0
VERTEX
  8
E18LXLIFT
 62
3
 10
-509.622
 20
-485.325
 30
3499.000
 70
    32
  0
VERTEX
  8
E18LXLIFT
 62
3
 10
-509.655
 20
-478.457
 30
3499.000
 70
    32
  0
VERTEX
  8
E18LXLIFT
 62
3
 10
-512.827
 20
-469.855
 30
3499.000
 70
    32
  0
VERTEX
  8
E18LXLIFT
 62
3
 10
-505.176
 20
-460.055
 30
3499.000
 70
    32
  0
VERTEX
  8
E18LXLIFT
 62
3
 10
-497.349
 20
-461.173
 30
3499.000
 70
    32
  0
VERTEX
  8
E18LXLIFT
 62
3
 10
-492.605
 20
-464.786
 30
3499.000
 70
    32
  0
VERTEX
  8
E18LXLIFT
 62
3
 10
-490.191
 20
-473.399
 30
3499.000
 70
    32
  0
VERTEX
  8
E18LXLIFT
 62
3
 10
-477.801
 20
-480.999
 30
3499.000
 70
    32
  0
VERTEX
  8
E18LXLIFT
 62
3
 10
-468.259
 20
-485.777
 30
3499.000
 70
    32
  0
VERTEX
  8
E18LXLIFT
 62
3
 10
-458.072
 20
-491.282
 30
3499.000
 70
    32
  0
VERTEX
  8
E18LXLIFT
 62
3
 10
-458.945
 20
-497.069
 30
3499.000
 70
    32
  0
VERTEX
  8
E18LXLIFT
 62
3
 10
-459.184
 20
-504.903
 30
3499.000
 70
    32
  0
VERTEX
  8
E18LXLIFT
 62
3
 10
-454.044
 20
-509.646
 30
3499.000
 70
    32
  0
VERTEX
  8
E18LXLIFT
 62
3
 10
-452.040
 20
-518.890
 30
3499.000
 70
    32
  0
VERTEX
  8
E18LXLIFT
 62
3
 10
-455.424
 20
-525.872
 30
3499.000
 70
    32
  0
VERTEX
  8
E18LXLIFT
 62
3
 10
-454.767
 20
-534.030
 30
3499.000
 70
    32
  0
VERTEX
  8
E18LXLIFT
 62
3
 10
-458.038
 20
-542.351
 30
3499.000
 70
    32
  0
VERTEX
  8
E18LXLIFT
 62
3
 10
-466.602
 20
-545.277
 30
3499.000
 70
    32
  0
VERTEX
  8
E18LXLIFT
 62
3
 10
-477.490
 20
-548.166
 30
3499.000
 70
    32
  0
VERTEX
  8
E18LXLIFT
 62
3
 10
-488.890
 20
-551.105
 30
3499.000
 70
    32
  0
VERTEX
  8
E18LXLIFT
 62
3
 10
-498.177
 20
-556.314
 30
3499.000
 70
    32
  0
SEQEND
  8
E18LXLIFT
  0
POLYLINE
  8
E18LXLIFT
 62
1
 66
     1
 70
     9
  0
VERTEX
  8
E18LXLIFT
 62
1
 10
-508.027
 20
-544.608
 30
3509.000
 70
    32
  0
VERTEX
  8
E18LXLIFT
 62
1
 10
-503.563
 20
-534.641
 30
3509.000
 70
    32
  0
VERTEX
  8
E18LXLIFT
 62
1
 10
-499.420
 20
-523.052
 30
3509.000
 70
    32
  0
VERTEX
  8
E18LXLIFT
 62
1
 10
-497.908
 20
-512.199
 30
3509.000
 70
    32
  0
VERTEX
  8
E18LXLIFT
 62
1
 10
-501.221
 20
-503.702
 30
3509.000
 70
    32
  0
VERTEX
  8
E18LXLIFT
 62
1
 10
-508.622
 20
-484.325
 30
3509.000
 70
    32
  0
VERTEX
  8
E18LXLIFT
 62
1
 10
-508.655
 20
-477.457
 30
3509.000
 70
    32
  0
VERTEX
  8
E18LXLIFT
 62
1
 10
-511.827
 20
-468.855
 30
3509.000
 70
    32
  0
VERTEX
  8
E18LXLIFT
 62
1
 10
-504.176
 20
-459.055
 30
3509.000
 70
    32
  0
VERTEX
  8
E18LXLIFT
 62
1
 10
-496.349
 20
-460.173
 30
3509.000
 70
    32
  0
VERTEX
  8
E18LXLIFT
 62
1
 10
-491.605
 20
-463.786
 30
3509.000
 70
    32
  0
VERTEX
  8
E18LXLIFT
 62
1
 10
-489.191
 20
-472.399
 30
3509.000
 70
    32
  0
VERTEX
  8
E18LXLIFT
 62
1
 10
-476.801
 20
-479.999
 30
3509.000
 70
    32
  0
VERTEX
  8
E18LXLIFT
 62
1
 10
-467.259
 20
-484.777
 30
3509.000
 70
    32
  0
VERTEX
  8
E18LXLIFT
 62
1
 10
-457.072
 20
-490.282
 30
3509.000
 70
    32
  0
VERTEX
  8
E18LXLIFT
 62
1
 10
-457.945
 20
-496.069
 30
3509.000
 70
    32
  0
VERTEX
  8
E18LXLIFT
 62
1
 10
-458.184
 20
-503.903
 30
3509.000
 70
    32
  0
VERTEX
  8
E18LXLIFT
 62
1
 10
-453.044
 20
-508.646
 30
3509.000
 70
    32
  0
VERTEX
  8
E18LXLIFT
 62
1
 10
-451.040
 20
-517.890
 30
3509.000
 70
    32
  0
VERTEX
  8
E18LXLIFT
 62
1
 10
-454.424
 20
-524.872
 30
3509.000
 70
    32
  0
VERTEX
  8
E18LXLIFT
 62
1
 10
-453.767
 20
-533.030
 30
3509.000
 70
    32
  0
VERTEX
  8
E18LXLIFT
 62
1
 10
-457.038
 20
-541.351
 30
3509.000
 70
    32
  0
VERTEX
  8
E18LXLIFT
 62
1
 10
-465.602
 20
-544.277
 30
3509.000
 70
    32
  0
VERTEX
  8
E18LXLIFT
 62
1
 10
-476.490
 20
-547.166
 30
3509.000
 70
    32
  0
VERTEX
  8
E18LXLIFT
 62
1
 10
-487.890
 20
-550.105
 30
3509.000
 70
    32
  0
VERTEX
  8
E18LXLIFT
 62
1
 10
-497.177
 20
-555.314
 30
3509.000
 70
    32
  0
SEQEND
  8
E18LXLIFT
  0
POLYLINE
  8
E18LXLIFT
 62
27
 66
     1
 70
     9
  0
VERTEX
  8
E18LXLIFT
 62
27
 10
-439.772
 20
-652.401
 30
3501.000
 70
    32
  0
VERTEX
  8
E18LXLIFT
 62
27
 10
-434.891
 20
-660.945
 30
3501.000
 70
    32
  0
VERTEX
  8
E18LXLIFT
 62
27
 10
-432.525
 20
-671.125
 30
3501.000
 70
    32
  0
VERTEX
  8
E18LXLIFT
 62
27
 10
-427.829
 20
-676.304
 30
3501.000
 70
    32
  0
VERTEX
  8
E18LXLIFT
 62
27
 10
-420.275
 20
-682.986
 30
3501.000
 70
    32
  0
VERTEX
  8
E18LXLIFT
 62
27
 10
-414.941
 20
-681.021
 30
3501.000
 70
    32
  0
VERTEX
  8
E18LXLIFT
 62
27
 10
-410.135
 20
-674.631
 30
3501.000
 70
    32
  0
VERTEX
  8
E18LXLIFT
 62
27
 10
-408.564
 20
-667.565
 30
3501.000
 70
    32
  0
VERTEX
  8
E18LXLIFT
 62
27
 10
-411.878
 20
-659.068
 30
3501.000
 70
    32
  0
VERTEX
  8
E18LXLIFT
 62
27
 10
-410.011
 20
-647.953
 30
3501.000
 70
    32
  0
VERTEX
  8
E18LXLIFT
 62
27
 10
-407.399
 20
-640.666
 30
3501.000
 70
    32
  0
VERTEX
  8
E18LXLIFT
 62
27
 10
-402.158
 20
-639.316
 30
3501.000
 70
    32
  0
VERTEX
  8
E18LXLIFT
 62
27
 10
-394.427
 20
-641.491
 30
3501.000
 70
    32
  0
VERTEX
  8
E18LXLIFT
 62
27
 10
-388.252
 20
-635.623
 30
3501.000
 70
    32
  0
VERTEX
  8
E18LXLIFT
 62
27
 10
-385.798
 20
-628.123
 30
3501.000
 70
    32
  0
VERTEX
  8
E18LXLIFT
 62
27
 10
-386.281
 20
-617.976
 30
3501.000
 70
    32
  0
VERTEX
  8
E18LXLIFT
 62
27
 10
-389.067
 20
-611.826
 30
3501.000
 70
    32
  0
VERTEX
  8
E18LXLIFT
 62
27
 10
-394.080
 20
-613.336
 30
3501.000
 70
    32
  0
VERTEX
  8
E18LXLIFT
 62
27
 10
-401.880
 20
-608.695
 30
3501.000
 70
    32
  0
VERTEX
  8
E18LXLIFT
 62
27
 10
-411.081
 20
-605.417
 30
3501.000
 70
    32
  0
VERTEX
  8
E18LXLIFT
 62
27
 10
-415.759
 20
-598.036
 30
3501.000
 70
    32
  0
VERTEX
  8
E18LXLIFT
 62
27
 10
-421.160
 20
-592.939
 30
3501.000
 70
    32
  0
VERTEX
  8
E18LXLIFT
 62
27
 10
-428.808
 20
-586.873
 30
3501.000
 70
    32
  0
VERTEX
  8
E18LXLIFT
 62
27
 10
-436.498
 20
-584.012
 30
3501.000
 70
    32
  0
VERTEX
  8
E18LXLIFT
 62
27
 10
-442.036
 20
-580.657
 30
3501.000
 70
    32
  0
VERTEX
  8
E18LXLIFT
 62
27
 10
-450.339
 20
-583.937
 30
3501.000
 70
    32
  0
VERTEX
  8
E18LXLIFT
 62
27
 10
-453.956
 20
-587.043
 30
3501.000
 70
    32
  0
VERTEX
  8
E18LXLIFT
 62
27
 10
-451.596
 20
-591.429
 30
3501.000
 70
    32
  0
VERTEX
  8
E18LXLIFT
 62
27
 10
-453.911
 20
-594.668
 30
3501.000
 70
    32
  0
VERTEX
  8
E18LXLIFT
 62
27
 10
-458.394
 20
-598.084
 30
3501.000
 70
    32
  0
VERTEX
  8
E18LXLIFT
 62
27
 10
-458.029
 20
-609.851
 30
3501.000
 70
    32
  0
VERTEX
  8
E18LXLIFT
 62
27
 10
-451.776
 20
-618.476
 30
3501.000
 70
    32
  0
VERTEX
  8
E18LXLIFT
 62
27
 10
-446.273
 20
-626.233
 30
3501.000
 70
    32
  0
VERTEX
  8
E18LXLIFT
 62
27
 10
-446.455
 20
-635.776
 30
3501.000
 70
    32
  0
VERTEX
  8
E18LXLIFT
 62
27
 10
-450.362
 20
-639.972
 30
3501.000
 70
    32
  0
SEQEND
  8
E18LXLIFT
  0
POLYLINE
  8
E18LXLIFT
 62
1
 66
     1
 70
     9
  0
VERTEX
  8
E18LXLIFT
 62
1
 10
-438.772
 20
-651.401
 30
3511.000
 70
    32
  0
VERTEX
  8
E18LXLIFT
 62
1
 10
-433.891
 20
-659.945
 30
3511.000
 70
    32
  0
VERTEX
  8
E18LXLIFT
 62
1
 10
-431.525
 20
-670.125
 30
3511.000
 70
    32
  0
VERTEX
  8
E18LXLIFT
 62
1
 10
-426.829
 20
-675.304
 30
3511.000
 70
    32
  0
VERTEX
  8
E18LXLIFT
 62
1
 10
-419.275
 20
-681.986
 30
3511.000
 70
    32
  0
VERTEX
  8
E18LXLIFT
 62
1
 10
-413.941
 20
-680.021
 30
3511.000
 70
    32
  0
VERTEX
  8
E18LXLIFT
 62
1
 10
-409.135
 20
-673.631
 30
3511.000
 70
    32
  0
VERTEX
  8
E18LXLIFT
 62
1
 10
-407.564
 20
-666.565
 30
3511.000
 70
    32
  0
VERTEX
  8
E18LXLIFT
 62
1
 10
-410.878
 20
-658.068
 30
3511.000
 70
    32
  0
VERTEX
  8
E18LXLIFT
 62
1
 10
-409.011
 20
-646.953
 30
3511.000
 70
    32
  0
VERTEX
  8
E18LXLIFT
 62
1
 10
-406.399
 20
-639.666
 30
3511.000
 70
    32
  0
VERTEX
  8
E18LXLIFT
 62
1
 10
-401.158
 20
-638.316
 30
3511.000
 70
    32
  0
VERTEX
  8
E18LXLIFT
 62
1
 10
-393.427
 20
-640.491
 30
3511.000
 70
    32
  0
VERTEX
  8
E18LXLIFT
 62
1
 10
-387.252
 20
-634.623
 30
3511.000
 70
    32
  0
VERTEX
  8
E18LXLIFT
 62
1
 10
-384.798
 20
-627.123
 30
3511.000
 70
    32
  0
VERTEX
  8
E18LXLIFT
 62
1
 10
-385.281
 20
-616.976
 30
3511.000
 70
    32
  0
VERTEX
  8
E18LXLIFT
 62
1
 10
-388.067
 20
-610.826
 30
3511.000
 70
    32
  0
VERTEX
  8
E18LXLIFT
 62
1
 10
-393.080
 20
-612.336
 30
3511.000
 70
    32
  0
VERTEX
  8
E18LXLIFT
 62
1
 10
-400.880
 20
-607.695
 30
3511.000
 70
    32
  0
VERTEX
  8
E18LXLIFT
 62
1
 10
-410.081
 20
-604.417
 30
3511.000
 70
    32
  0
VERTEX
  8
E18LXLIFT
 62
1
 10
-414.759
 20
-597.036
 30
3511.000
 70
    32
  0
VERTEX
  8
E18LXLIFT
 62
1
 10
-420.160
 20
-591.939
 30
3511.000
 70
    32
  0
VERTEX
  8
E18LXLIFT
 62
1
 10
-427.808
 20
-585.873
 30
3511.000
 70
    32
  0
VERTEX
  8
E18LXLIFT
 62
1
 10
-435.498
 20
-583.012
 30
3511.000
 70
    32
  0
VERTEX
  8
E18LXLIFT
 62
1
 10
-441.036
 20
-579.657
 30
3511.000
 70
    32
  0
VERTEX
  8
E18LXLIFT
 62
1
 10
-449.339
 20
-582.937
 30
3511.000
 70
    32
  0
VERTEX
  8
E18LXLIFT
 62
1
 10
-452.956
 20
-586.043
 30
3511.000
 70
    32
  0
VERTEX
  8
E18LXLIFT
 62
1
 10
-450.596
 20
-590.429
 30
3511.000
 70
    32
  0
VERTEX
  8
E18LXLIFT
 62
1
 10
-452.911
 20
-593.668
 30
3511.000
 70
    32
  0
VERTEX
  8
E18LXLIFT
 62
1
 10
-457.394
 20
-597.084
 30
3511.000
 70
    32
  0
VERTEX
  8
E18LXLIFT
 62
1
 10
-457.029
 20
-608.851
 30
3511.000
 70
    32
  0
VERTEX
  8
E18LXLIFT
 62
1
 10
-450.776
 20
-617.476
 30
3511.000
 70
    32
  0
VERTEX
  8
E18LXLIFT
 62
1
 10
-445.273
 20
-625.233
 30
3511.000
 70
    32
  0
VERTEX
  8
E18LXLIFT
 62
1
 10
-445.455
 20
-634.776
 30
3511.000
 70
    32
  0
VERTEX
  8
E18LXLIFT
 62
1
 10
-449.362
 20
-638.972
 30
3511.000
 70
    32
  0
SEQEND
  8
E18LXLIFT
  0
POLYLINE
  8
E18LXLIFT
 62
7
 66
     1
 70
     9
  0
VERTEX
  8
E18LXLIFT
 62
7
 10
-412.297
 20
-678.524
 30
3483.000
 70
    32
  0
VERTEX
  8
E18LXLIFT
 62
7
 10
-409.822
 20
-675.057
 30
3483.000
 70
    32
  0
VERTEX
  8
E18LXLIFT
 62
7
 10
-408.022
 20
-670.228
 30
3483.000
 70
    32
  0
VERTEX
  8
E18LXLIFT
 62
7
 10
-403.276
 20
-671.322
 30
3483.000
 70
    32
  0
VERTEX
  8
E18LXLIFT
 62
7
 10
-398.693
 20
-675.163
 30
3483.000
 70
    32
  0
VERTEX
  8
E18LXLIFT
 62
7
 10
-389.506
 20
-678.124
 30
3483.000
 70
    32
  0
VERTEX
  8
E18LXLIFT
 62
7
 10
-379.201
 20
-679.932
 30
3483.000
 70
    32
  0
VERTEX
  8
E18LXLIFT
 62
7
 10
-368.491
 20
-679.471
 30
3483.000
 70
    32
  0
VERTEX
  8
E18LXLIFT
 62
7
 10
-358.326
 20
-676.787
 30
3483.000
 70
    32
  0
VERTEX
  8
E18LXLIFT
 62
7
 10
-354.811
 20
-677.696
 30
3483.000
 70
    32
  0
VERTEX
  8
E18LXLIFT
 62
7
 10
-354.588
 20
-684.970
 30
3483.000
 70
    32
  0
VERTEX
  8
E18LXLIFT
 62
7
 10
-349.349
 20
-686.139
 30
3483.000
 70
    32
  0
VERTEX
  8
E18LXLIFT
 62
7
 10
-341.265
 20
-685.975
 30
3483.000
 70
    32
  0
VERTEX
  8
E18LXLIFT
 62
7
 10
-331.496
 20
-688.835
 30
3483.000
 70
    32
  0
VERTEX
  8
E18LXLIFT
 62
7
 10
-327.125
 20
-694.910
 30
3483.000
 70
    32
  0
VERTEX
  8
E18LXLIFT
 62
7
 10
-331.004
 20
-702.257
 30
3483.000
 70
    32
  0
VERTEX
  8
E18LXLIFT
 62
7
 10
-337.317
 20
-701.115
 30
3483.000
 70
    32
  0
VERTEX
  8
E18LXLIFT
 62
7
 10
-345.536
 20
-700.504
 30
3483.000
 70
    32
  0
VERTEX
  8
E18LXLIFT
 62
7
 10
-347.861
 20
-707.142
 30
3483.000
 70
    32
  0
VERTEX
  8
E18LXLIFT
 62
7
 10
-355.478
 20
-708.385
 30
3483.000
 70
    32
  0
VERTEX
  8
E18LXLIFT
 62
7
 10
-363.651
 20
-704.128
 30
3483.000
 70
    32
  0
VERTEX
  8
E18LXLIFT
 62
7
 10
-373.593
 20
-696.583
 30
3483.000
 70
    32
  0
VERTEX
  8
E18LXLIFT
 62
7
 10
-384.519
 20
-690.966
 30
3483.000
 70
    32
  0
VERTEX
  8
E18LXLIFT
 62
7
 10
-395.556
 20
-688.166
 30
3483.000
 70
    32
  0
VERTEX
  8
E18LXLIFT
 62
7
 10
-406.037
 20
-686.269
 30
3483.000
 70
    32
  0
VERTEX
  8
E18LXLIFT
 62
7
 10
-414.638
 20
-682.767
 30
3483.000
 70
    32
  0
SEQEND
  8
E18LXLIFT
  0
POLYLINE
  8
E18LXLIFT
 62
11
 66
     1
 70
     9
  0
VERTEX
  8
E18LXLIFT
 62
11
 10
-449.635
 20
-841.369
 30
3503.000
 70
    32
  0
VERTEX
  8
E18LXLIFT
 62
11
 10
-434.710
 20
-890.516
 30
3503.000
 70
    32
  0
VERTEX
  8
E18LXLIFT
 62
11
 10
-423.585
 20
-943.271
 30
3503.000
 70
    32
  0
VERTEX
  8
E18LXLIFT
 62
11
 10
-398.103
 20
-984.480
 30
3503.000
 70
    32
  0
VERTEX
  8
E18LXLIFT
 62
11
 10
-376.146
 20
-1026.820
 30
3503.000
 70
    32
  0
VERTEX
  8
E18LXLIFT
 62
11
 10
-371.902
 20
-1051.218
 30
3503.000
 70
    32
  0
VERTEX
  8
E18LXLIFT
 62
11
 10
-309.568
 20
-1008.224
 30
3503.000
 70
    32
  0
VERTEX
  8
E18LXLIFT
 62
11
 10
-312.240
 20
-980.738
 30
3503.000
 70
    32
  0
VERTEX
  8
E18LXLIFT
 62
11
 10
-360.881
 20
-957.532
 30
3503.000
 70
    32
  0
VERTEX
  8
E18LXLIFT
 62
11
 10
-402.290
 20
-927.047
 30
3503.000
 70
    32
  0
VERTEX
  8
E18LXLIFT
 62
11
 10
-407.076
 20
-870.590
 30
3503.000
 70
    32
  0
VERTEX
  8
E18LXLIFT
 62
11
 10
-432.645
 20
-828.358
 30
3503.000
 70
    32
  0
SEQEND
  8
E18LXLIFT
  0
POLYLINE
  8
E18LXLIFT
 62
13
 66
     1
 70
     9
  0
VERTEX
  8
E18LXLIFT
 62
13
 10
-300.690
 20
-1024.364
 30
3513.000
 70
    32
  0
VERTEX
  8
E18LXLIFT
 62
13
 10
-298.213
 20
-1021.480
 30
3513.000
 70
    32
  0
VERTEX
  8
E18LXLIFT
 62
13
 10
-293.067
 20
-1016.878
 30
3513.000
 70
    32
  0
VERTEX
  8
E18LXLIFT
 62
13
 10
-284.980
 20
-1019.931
 30
3513.000
 70
    32
  0
VERTEX
  8
E18LXLIFT
 62
13
 10
-279.229
 20
-1018.262
 30
3513.000
 70
    32
  0
VERTEX
  8
E18LXLIFT
 62
13
 10
-272.912
 20
-1014.224
 30
3513.000
 70
    32
  0
VERTEX
  8
E18LXLIFT
 62
13
 10
-265.212
 20
-1011.794
 30
3513.000
 70
    32
  0
VERTEX
  8
E18LXLIFT
 62
13
 10
-258.140
 20
-1014.496
 30
3513.000
 70
    32
  0
VERTEX
  8
E18LXLIFT
 62
13
 10
-252.256
 20
-1019.909
 30
3513.000
 70
    32
  0
VERTEX
  8
E18LXLIFT
 62
13
 10
-248.102
 20
-1021.138
 30
3513.000
 70
    32
  0
VERTEX
  8
E18LXLIFT
 62
13
 10
-248.664
 20
-1025.462
 30
3513.000
 70
    32
  0
VERTEX
  8
E18LXLIFT
 62
13
 10
-253.891
 20
-1027.403
 30
3513.000
 70
    32
  0
VERTEX
  8
E18LXLIFT
 62
13
 10
-260.560
 20
-1028.107
 30
3513.000
 70
    32
  0
VERTEX
  8
E18LXLIFT
 62
13
 10
-269.935
 20
-1029.577
 30
3513.000
 70
    32
  0
VERTEX
  8
E18LXLIFT
 62
13
 10
-278.473
 20
-1029.352
 30
3513.000
 70
    32
  0
VERTEX
  8
E18LXLIFT
 62
13
 10
-286.299
 20
-1034.158
 30
3513.000
 70
    32
  0
VERTEX
  8
E18LXLIFT
 62
13
 10
-292.374
 20
-1036.279
 30
3513.000
 70
    32
  0
SEQEND
  8
E18LXLIFT
  0
POLYLINE
  8
E18LXLIFT
 62
1
 66
     1
 70
     9
  0
VERTEX
  8
E18LXLIFT
 62
1
 10
-299.690
 20
-1023.364
 30
3523.000
 70
    32
  0
VERTEX
  8
E18LXLIFT
 62
1
 10
-297.213
 20
-1020.480
 30
3523.000
 70
    32
  0
VERTEX
  8
E18LXLIFT
 62
1
 10
-292.067
 20
-1015.878
 30
3523.000
 70
    32
  0
VERTEX
  8
E18LXLIFT
 62
1
 10
-283.980
 20
-1018.931
 30
3523.000
 70
    32
  0
VERTEX
  8
E18LXLIFT
 62
1
 10
-278.229
 20
-1017.262
 30
3523.000
 70
    32
  0
VERTEX
  8
E18LXLIFT
 62
1
 10
-271.912
 20
-1013.224
 30
3523.000
 70
    32
  0
VERTEX
  8
E18LXLIFT
 62
1
 10
-264.212
 20
-1010.794
 30
3523.000
 70
    32
  0
VERTEX
  8
E18LXLIFT
 62
1
 10
-257.140
 20
-1013.496
 30
3523.000
 70
    32
  0
VERTEX
  8
E18LXLIFT
 62
1
 10
-251.256
 20
-1018.909
 30
3523.000
 70
    32
  0
VERTEX
  8
E18LXLIFT
 62
1
 10
-247.102
 20
-1020.138
 30
3523.000
 70
    32
  0
VERTEX
  8
E18LXLIFT
 62
1
 10
-247.664
 20
-1024.462
 30
3523.000
 70
    32
  0
VERTEX
  8
E18LXLIFT
 62
1
 10
-252.891
 20
-1026.403
 30
3523.000
 70
    32
  0
VERTEX
  8
E18LXLIFT
 62
1
 10
-259.560
 20
-1027.107
 30
3523.000
 70
    32
  0
VERTEX
  8
E18LXLIFT
 62
1
 10
-268.935
 20
-1028.577
 30
3523.000
 70
    32
  0
VERTEX
  8
E18LXLIFT
 62
1
 10
-277.473
 20
-1028.352
 30
3523.000
 70
    32
  0
VERTEX
  8
E18LXLIFT
 62
1
 10
-285.299
 20
-1033.158
 30
3523.000
 70
    32
  0
VERTEX
  8
E18LXLIFT
 62
1
 10
-291.374
 20
-1035.279
 30
3523.000
 70
    32
  0
SEQEND
  8
E18LXLIFT
  0
POLYLINE
  8
E18LXLIFT
 62
1
 66
     1
 70
     9
  0
VERTEX
  8
E18LXLIFT
 62
1
 10
-411.297
 20
-677.524
 30
3493.000
 70
    32
  0
VERTEX
  8
E18LXLIFT
 62
1
 10
-408.822
 20
-674.057
 30
3493.000
 70
    32
  0
VERTEX
  8
E18LXLIFT
 62
1
 10
-407.022
 20
-669.228
 30
3493.000
 70
    32
  0
VERTEX
  8
E18LXLIFT
 62
1
 10
-402.276
 20
-670.322
 30
3493.000
 70
    32
  0
VERTEX
  8
E18LXLIFT
 62
1
 10
-397.693
 20
-674.163
 30
3493.000
 70
    32
  0
VERTEX
  8
E18LXLIFT
 62
1
 10
-388.506
 20
-677.124
 30
3493.000
 70
    32
  0
VERTEX
  8
E18LXLIFT
 62
1
 10
-378.201
 20
-678.932
 30
3493.000
 70
    32
  0
VERTEX
  8
E18LXLIFT
 62
1
 10
-367.491
 20
-678.471
 30
3493.000
 70
    32
  0
VERTEX
  8
E18LXLIFT
 62
1
 10
-357.326
 20
-675.787
 30
3493.000
 70
    32
  0
VERTEX
  8
E18LXLIFT
 62
1
 10
-353.811
 20
-676.696
 30
3493.000
 70
    32
  0
VERTEX
  8
E18LXLIFT
 62
1
 10
-353.588
 20
-683.970
 30
3493.000
 70
    32
  0
VERTEX
  8
E18LXLIFT
 62
1
 10
-348.349
 20
-685.139
 30
3493.000
 70
    32
  0
VERTEX
  8
E18LXLIFT
 62
1
 10
-340.265
 20
-684.975
 30
3493.000
 70
    32
  0
VERTEX
  8
E18LXLIFT
 62
1
 10
-330.496
 20
-687.835
 30
3493.000
 70
    32
  0
VERTEX
  8
E18LXLIFT
 62
1
 10
-326.125
 20
-693.910
 30
3493.000
 70
    32
  0
VERTEX
  8
E18LXLIFT
 62
1
 10
-330.004
 20
-701.257
 30
3493.000
 70
    32
  0
VERTEX
  8
E18LXLIFT
 62
1
 10
-336.317
 20
-700.115
 30
3493.000
 70
    32
  0
VERTEX
  8
E18LXLIFT
 62
1
 10
-344.536
 20
-699.504
 30
3493.000
 70
    32
  0
VERTEX
  8
E18LXLIFT
 62
1
 10
-346.861
 20
-706.142
 30
3493.000
 70
    32
  0
VERTEX
  8
E18LXLIFT
 62
1
 10
-354.478
 20
-707.385
 30
3493.000
 70
    32
  0
VERTEX
  8
E18LXLIFT
 62
1
 10
-362.651
 20
-703.128
 30
3493.000
 70
    32
  0
VERTEX
  8
E18LXLIFT
 62
1
 10
-372.593
 20
-695.583
 30
3493.000
 70
    32
  0
VERTEX
  8
E18LXLIFT
 62
1
 10
-383.519
 20
-689.966
 30
3493.000
 70
    32
  0
VERTEX
  8
E18LXLIFT
 62
1
 10
-394.556
 20
-687.166
 30
3493.000
 70
    32
  0
VERTEX
  8
E18LXLIFT
 62
1
 10
-405.037
 20
-685.269
 30
3493.000
 70
    32
  0
VERTEX
  8
E18LXLIFT
 62
1
 10
-413.638
 20
-681.767
 30
3493.000
 70
    32
  0
SEQEND
  8
E18LXLIFT
  0
POLYLINE
  8
E18LXLIFT
 62
1
 66
     1
 70
     9
  0
VERTEX
  8
E18LXLIFT
 62
1
 10
-390.226
 20
-863.796
 30
3481.000
 70
    32
  0
VERTEX
  8
E18LXLIFT
 62
1
 10
-384.935
 20
-873.106
 30
3481.000
 70
    32
  0
VERTEX
  8
E18LXLIFT
 62
1
 10
-374.928
 20
-883.286
 30
3481.000
 70
    32
  0
VERTEX
  8
E18LXLIFT
 62
1
 10
-364.139
 20
-892.590
 30
3481.000
 70
    32
  0
VERTEX
  8
E18LXLIFT
 62
1
 10
-359.121
 20
-899.073
 30
3481.000
 70
    32
  0
VERTEX
  8
E18LXLIFT
 62
1
 10
-356.020
 20
-910.471
 30
3481.000
 70
    32
  0
VERTEX
  8
E18LXLIFT
 62
1
 10
-354.262
 20
-920.123
 30
3481.000
 70
    32
  0
VERTEX
  8
E18LXLIFT
 62
1
 10
-351.403
 20
-926.299
 30
3481.000
 70
    32
  0
VERTEX
  8
E18LXLIFT
 62
1
 10
-351.269
 20
-932.892
 30
3481.000
 70
    32
  0
VERTEX
  8
E18LXLIFT
 62
1
 10
-358.203
 20
-935.748
 30
3481.000
 70
    32
  0
VERTEX
  8
E18LXLIFT
 62
1
 10
-364.340
 20
-939.119
 30
3481.000
 70
    32
  0
VERTEX
  8
E18LXLIFT
 62
1
 10
-372.947
 20
-940.677
 30
3481.000
 70
    32
  0
VERTEX
  8
E18LXLIFT
 62
1
 10
-384.452
 20
-938.137
 30
3481.000
 70
    32
  0
VERTEX
  8
E18LXLIFT
 62
1
 10
-382.317
 20
-927.888
 30
3481.000
 70
    32
  0
VERTEX
  8
E18LXLIFT
 62
1
 10
-381.734
 20
-914.531
 30
3481.000
 70
    32
  0
VERTEX
  8
E18LXLIFT
 62
1
 10
-385.490
 20
-900.683
 30
3481.000
 70
    32
  0
VERTEX
  8
E18LXLIFT
 62
1
 10
-389.493
 20
-889.383
 30
3481.000
 70
    32
  0
VERTEX
  8
E18LXLIFT
 62
1
 10
-396.284
 20
-878.869
 30
3481.000
 70
    32
  0
VERTEX
  8
E18LXLIFT
 62
1
 10
-402.162
 20
-870.407
 30
3481.000
 70
    32
  0
VERTEX
  8
E18LXLIFT
 62
1
 10
-405.928
 20
-863.254
 30
3481.000
 70
    32
  0
SEQEND
  8
E18LXLIFT
  0
POLYLINE
  8
E18LXLIFT
 62
1
 66
     1
 70
     9
  0
VERTEX
  8
E18LXLIFT
 62
1
 10
-277.686
 20
-976.521
 30
3481.000
 70
    32
  0
VERTEX
  8
E18LXLIFT
 62
1
 10
-282.750
 20
-978.054
 30
3481.000
 70
    32
  0
VERTEX
  8
E18LXLIFT
 62
1
 10
-288.309
 20
-980.261
 30
3481.000
 70
    32
  0
VERTEX
  8
E18LXLIFT
 62
1
 10
-294.271
 20
-981.135
 30
3481.000
 70
    32
  0
VERTEX
  8
E18LXLIFT
 62
1
 10
-299.718
 20
-976.790
 30
3481.000
 70
    32
  0
VERTEX
  8
E18LXLIFT
 62
1
 10
-305.544
 20
-970.232
 30
3481.000
 70
    32
  0
VERTEX
  8
E18LXLIFT
 62
1
 10
-305.139
 20
-964.552
 30
3481.000
 70
    32
  0
VERTEX
  8
E18LXLIFT
 62
1
 10
-302.108
 20
-957.553
 30
3481.000
 70
    32
  0
VERTEX
  8
E18LXLIFT
 62
1
 10
-297.401
 20
-958.106
 30
3481.000
 70
    32
  0
VERTEX
  8
E18LXLIFT
 62
1
 10
-291.837
 20
-956.975
 30
3481.000
 70
    32
  0
VERTEX
  8
E18LXLIFT
 62
1
 10
-287.451
 20
-958.295
 30
3481.000
 70
    32
  0
VERTEX
  8
E18LXLIFT
 62
1
 10
-282.569
 20
-965.197
 30
3481.000
 70
    32
  0
VERTEX
  8
E18LXLIFT
 62
1
 10
-272.287
 20
-971.191
 30
3481.000
 70
    32
  0
SEQEND
  8
E18LXLIFT
  0
POLYLINE
  8
E18LXLIFT
 62
1
 66
     1
 70
     9
  0
VERTEX
  8
E18LXLIFT
 62
1
 10
-516.000
 20
-385.142
 30
3454.000
 70
    32
  0
VERTEX
  8
E18LXLIFT
 62
1
 10
-509.146
 20
-383.467
 30
3454.000
 70
    32
  0
VERTEX
  8
E18LXLIFT
 62
1
 10
-503.608
 20
-383.858
 30
3454.000
 70
    32
  0
VERTEX
  8
E18LXLIFT
 62
1
 10
-496.803
 20
-386.702
 30
3454.000
 70
    32
  0
VERTEX
  8
E18LXLIFT
 62
1
 10
-495.456
 20
-392.816
 30
3454.000
 70
    32
  0
VERTEX
  8
E18LXLIFT
 62
1
 10
-490.508
 20
-397.142
 30
3454.000
 70
    32
  0
VERTEX
  8
E18LXLIFT
 62
1
 10
-490.586
 20
-403.105
 30
3454.000
 70
    32
  0
VERTEX
  8
E18LXLIFT
 62
1
 10
-494.968
 20
-410.937
 30
3454.000
 70
    32
  0
VERTEX
  8
E18LXLIFT
 62
1
 10
-498.037
 20
-419.658
 30
3454.000
 70
    32
  0
VERTEX
  8
E18LXLIFT
 62
1
 10
-499.830
 20
-426.998
 30
3454.000
 70
    32
  0
VERTEX
  8
E18LXLIFT
 62
1
 10
-499.646
 20
-435.829
 30
3454.000
 70
    32
  0
VERTEX
  8
E18LXLIFT
 62
1
 10
-501.488
 20
-440.143
 30
3454.000
 70
    32
  0
VERTEX
  8
E18LXLIFT
 62
1
 10
-501.864
 20
-448.514
 30
3454.000
 70
    32
  0
VERTEX
  8
E18LXLIFT
 62
1
 10
-501.240
 20
-457.348
 30
3454.000
 70
    32
  0
VERTEX
  8
E18LXLIFT
 62
1
 10
-500.127
 20
-466.697
 30
3454.000
 70
    32
  0
VERTEX
  8
E18LXLIFT
 62
1
 10
-495.912
 20
-475.064
 30
3454.000
 70
    32
  0
VERTEX
  8
E18LXLIFT
 62
1
 10
-489.488
 20
-484.643
 30
3454.000
 70
    32
  0
VERTEX
  8
E18LXLIFT
 62
1
 10
-482.093
 20
-488.582
 30
3454.000
 70
    32
  0
VERTEX
  8
E18LXLIFT
 62
1
 10
-477.690
 20
-492.765
 30
3454.000
 70
    32
  0
VERTEX
  8
E18LXLIFT
 62
1
 10
-470.786
 20
-496.630
 30
3454.000
 70
    32
  0
VERTEX
  8
E18LXLIFT
 62
1
 10
-465.387
 20
-499.201
 30
3454.000
 70
    32
  0
VERTEX
  8
E18LXLIFT
 62
1
 10
-462.669
 20
-505.395
 30
3454.000
 70
    32
  0
VERTEX
  8
E18LXLIFT
 62
1
 10
-454.757
 20
-513.436
 30
3454.000
 70
    32
  0
VERTEX
  8
E18LXLIFT
 62
1
 10
-453.376
 20
-522.259
 30
3454.000
 70
    32
  0
VERTEX
  8
E18LXLIFT
 62
1
 10
-452.282
 20
-529.214
 30
3454.000
 70
    32
  0
VERTEX
  8
E18LXLIFT
 62
1
 10
-456.135
 20
-534.359
 30
3454.000
 70
    32
  0
VERTEX
  8
E18LXLIFT
 62
1
 10
-458.891
 20
-540.988
 30
3454.000
 70
    32
  0
VERTEX
  8
E18LXLIFT
 62
1
 10
-458.863
 20
-547.092
 30
3454.000
 70
    32
  0
VERTEX
  8
E18LXLIFT
 62
1
 10
-462.846
 20
-555.613
 30
3454.000
 70
    32
  0
VERTEX
  8
E18LXLIFT
 62
1
 10
-463.839
 20
-559.300
 30
3454.000
 70
    32
  0
VERTEX
  8
E18LXLIFT
 62
1
 10
-472.164
 20
-559.875
 30
3454.000
 70
    32
  0
VERTEX
  8
E18LXLIFT
 62
1
 10
-475.660
 20
-556.772
 30
3454.000
 70
    32
  0
VERTEX
  8
E18LXLIFT
 62
1
 10
-479.756
 20
-553.894
 30
3454.000
 70
    32
  0
VERTEX
  8
E18LXLIFT
 62
1
 10
-481.668
 20
-543.168
 30
3454.000
 70
    32
  0
VERTEX
  8
E18LXLIFT
 62
1
 10
-480.484
 20
-539.887
 30
3454.000
 70
    32
  0
VERTEX
  8
E18LXLIFT
 62
1
 10
-476.034
 20
-537.473
 30
3454.000
 70
    32
  0
VERTEX
  8
E18LXLIFT
 62
1
 10
-473.211
 20
-528.715
 30
3454.000
 70
    32
  0
VERTEX
  8
E18LXLIFT
 62
1
 10
-477.512
 20
-520.083
 30
3454.000
 70
    32
  0
VERTEX
  8
E18LXLIFT
 62
1
 10
-480.372
 20
-511.479
 30
3454.000
 70
    32
  0
VERTEX
  8
E18LXLIFT
 62
1
 10
-486.141
 20
-508.853
 30
3454.000
 70
    32
  0
VERTEX
  8
E18LXLIFT
 62
1
 10
-490.485
 20
-503.862
 30
3454.000
 70
    32
  0
VERTEX
  8
E18LXLIFT
 62
1
 10
-495.987
 20
-500.710
 30
3454.000
 70
    32
  0
VERTEX
  8
E18LXLIFT
 62
1
 10
-501.647
 20
-495.270
 30
3454.000
 70
    32
  0
VERTEX
  8
E18LXLIFT
 62
1
 10
-508.299
 20
-493.077
 30
3454.000
 70
    32
  0
VERTEX
  8
E18LXLIFT
 62
1
 10
-516.180
 20
-485.669
 30
3454.000
 70
    32
  0
VERTEX
  8
E18LXLIFT
 62
1
 10
-519.992
 20
-475.035
 30
3454.000
 70
    32
  0
VERTEX
  8
E18LXLIFT
 62
1
 10
-519.112
 20
-462.464
 30
3454.000
 70
    32
  0
VERTEX
  8
E18LXLIFT
 62
1
 10
-519.352
 20
-454.002
 30
3454.000
 70
    32
  0
VERTEX
  8
E18LXLIFT
 62
1
 10
-521.338
 20
-443.768
 30
3454.000
 70
    32
  0
VERTEX
  8
E18LXLIFT
 62
1
 10
-525.394
 20
-437.689
 30
3454.000
 70
    32
  0
VERTEX
  8
E18LXLIFT
 62
1
 10
-523.250
 20
-430.527
 30
3454.000
 70
    32
  0
VERTEX
  8
E18LXLIFT
 62
1
 10
-519.301
 20
-421.812
 30
3454.000
 70
    32
  0
VERTEX
  8
E18LXLIFT
 62
1
 10
-515.614
 20
-415.260
 30
3454.000
 70
    32
  0
VERTEX
  8
E18LXLIFT
 62
1
 10
-517.975
 20
-405.850
 30
3454.000
 70
    32
  0
VERTEX
  8
E18LXLIFT
 62
1
 10
-523.086
 20
-397.159
 30
3454.000
 70
    32
  0
VERTEX
  8
E18LXLIFT
 62
1
 10
-527.547
 20
-393.786
 30
3454.000
 70
    32
  0
SEQEND
  8
E18LXLIFT
  0
POLYLINE
  8
E18LXLIFT
 62
1
 66
     1
 70
     9
  0
VERTEX
  8
E18LXLIFT
 62
1
 10
-650.320
 20
-513.889
 30
3433.000
 70
    32
  0
VERTEX
  8
E18LXLIFT
 62
1
 10
-638.870
 20
-518.651
 30
3433.000
 70
    32
  0
VERTEX
  8
E18LXLIFT
 62
1
 10
-627.752
 20
-522.350
 30
3433.000
 70
    32
  0
VERTEX
  8
E18LXLIFT
 62
1
 10
-623.029
 20
-527.403
 30
3433.000
 70
    32
  0
VERTEX
  8
E18LXLIFT
 62
1
 10
-619.025
 20
-531.457
 30
3433.000
 70
    32
  0
VERTEX
  8
E18LXLIFT
 62
1
 10
-619.842
 20
-537.247
 30
3433.000
 70
    32
  0
VERTEX
  8
E18LXLIFT
 62
1
 10
-614.051
 20
-543.483
 30
3433.000
 70
    32
  0
VERTEX
  8
E18LXLIFT
 62
1
 10
-602.121
 20
-550.717
 30
3433.000
 70
    32
  0
VERTEX
  8
E18LXLIFT
 62
1
 10
-590.463
 20
-556.520
 30
3433.000
 70
    32
  0
VERTEX
  8
E18LXLIFT
 62
1
 10
-577.688
 20
-562.820
 30
3433.000
 70
    32
  0
VERTEX
  8
E18LXLIFT
 62
1
 10
-566.624
 20
-568.401
 30
3433.000
 70
    32
  0
VERTEX
  8
E18LXLIFT
 62
1
 10
-555.971
 20
-570.701
 30
3433.000
 70
    32
  0
VERTEX
  8
E18LXLIFT
 62
1
 10
-551.631
 20
-574.621
 30
3433.000
 70
    32
  0
VERTEX
  8
E18LXLIFT
 62
1
 10
-551.430
 20
-581.522
 30
3433.000
 70
    32
  0
VERTEX
  8
E18LXLIFT
 62
1
 10
-542.853
 20
-591.928
 30
3433.000
 70
    32
  0
VERTEX
  8
E18LXLIFT
 62
1
 10
-539.409
 20
-599.420
 30
3433.000
 70
    32
  0
VERTEX
  8
E18LXLIFT
 62
1
 10
-540.287
 20
-604.822
 30
3433.000
 70
    32
  0
VERTEX
  8
E18LXLIFT
 62
1
 10
-541.346
 20
-614.039
 30
3433.000
 70
    32
  0
VERTEX
  8
E18LXLIFT
 62
1
 10
-549.100
 20
-615.613
 30
3433.000
 70
    32
  0
VERTEX
  8
E18LXLIFT
 62
1
 10
-555.348
 20
-615.667
 30
3433.000
 70
    32
  0
VERTEX
  8
E18LXLIFT
 62
1
 10
-556.484
 20
-609.874
 30
3433.000
 70
    32
  0
VERTEX
  8
E18LXLIFT
 62
1
 10
-557.279
 20
-600.041
 30
3433.000
 70
    32
  0
VERTEX
  8
E18LXLIFT
 62
1
 10
-562.942
 20
-589.920
 30
3433.000
 70
    32
  0
VERTEX
  8
E18LXLIFT
 62
1
 10
-570.258
 20
-580.664
 30
3433.000
 70
    32
  0
VERTEX
  8
E18LXLIFT
 62
1
 10
-580.026
 20
-574.475
 30
3433.000
 70
    32
  0
VERTEX
  8
E18LXLIFT
 62
1
 10
-591.858
 20
-568.580
 30
3433.000
 70
    32
  0
VERTEX
  8
E18LXLIFT
 62
1
 10
-602.734
 20
-564.164
 30
3433.000
 70
    32
  0
VERTEX
  8
E18LXLIFT
 62
1
 10
-612.339
 20
-560.459
 30
3433.000
 70
    32
  0
VERTEX
  8
E18LXLIFT
 62
1
 10
-616.404
 20
-564.146
 30
3433.000
 70
    32
  0
VERTEX
  8
E18LXLIFT
 62
1
 10
-616.812
 20
-572.460
 30
3433.000
 70
    32
  0
VERTEX
  8
E18LXLIFT
 62
1
 10
-618.941
 20
-579.738
 30
3433.000
 70
    32
  0
VERTEX
  8
E18LXLIFT
 62
1
 10
-616.291
 20
-588.235
 30
3433.000
 70
    32
  0
VERTEX
  8
E18LXLIFT
 62
1
 10
-615.567
 20
-598.119
 30
3433.000
 70
    32
  0
VERTEX
  8
E18LXLIFT
 62
1
 10
-613.214
 20
-606.505
 30
3433.000
 70
    32
  0
VERTEX
  8
E18LXLIFT
 62
1
 10
-614.404
 20
-616.141
 30
3433.000
 70
    32
  0
VERTEX
  8
E18LXLIFT
 62
1
 10
-618.809
 20
-624.624
 30
3433.000
 70
    32
  0
VERTEX
  8
E18LXLIFT
 62
1
 10
-624.521
 20
-627.979
 30
3433.000
 70
    32
  0
VERTEX
  8
E18LXLIFT
 62
1
 10
-633.863
 20
-628.854
 30
3433.000
 70
    32
  0
VERTEX
  8
E18LXLIFT
 62
1
 10
-637.296
 20
-621.679
 30
3433.000
 70
    32
  0
VERTEX
  8
E18LXLIFT
 62
1
 10
-640.023
 20
-614.430
 30
3433.000
 70
    32
  0
VERTEX
  8
E18LXLIFT
 62
1
 10
-647.339
 20
-605.174
 30
3433.000
 70
    32
  0
VERTEX
  8
E18LXLIFT
 62
1
 10
-651.292
 20
-595.773
 30
3433.000
 70
    32
  0
VERTEX
  8
E18LXLIFT
 62
1
 10
-655.347
 20
-586.228
 30
3433.000
 70
    32
  0
VERTEX
  8
E18LXLIFT
 62
1
 10
-654.988
 20
-578.599
 30
3433.000
 70
    32
  0
VERTEX
  8
E18LXLIFT
 62
1
 10
-652.696
 20
-568.386
 30
3433.000
 70
    32
  0
VERTEX
  8
E18LXLIFT
 62
1
 10
-648.523
 20
-555.517
 30
3433.000
 70
    32
  0
VERTEX
  8
E18LXLIFT
 62
1
 10
-644.004
 20
-547.494
 30
3433.000
 70
    32
  0
VERTEX
  8
E18LXLIFT
 62
1
 10
-646.363
 20
-537.595
 30
3433.000
 70
    32
  0
VERTEX
  8
E18LXLIFT
 62
1
 10
-652.760
 20
-528.111
 30
3433.000
 70
    32
  0
VERTEX
  8
E18LXLIFT
 62
1
 10
-657.428
 20
-523.886
 30
3433.000
 70
    32
  0
SEQEND
  8
E18LXLIFT
  0
POLYLINE
  8
E18LXLIFT
 62
1
 66
     1
 70
     9
  0
VERTEX
  8
E18LXLIFT
 62
1
 10
-276.974
 20
-724.978
 30
3400.000
 70
    32
  0
VERTEX
  8
E18LXLIFT
 62
1
 10
-267.928
 20
-729.655
 30
3400.000
 70
    32
  0
VERTEX
  8
E18LXLIFT
 62
1
 10
-261.881
 20
-741.804
 30
3400.000
 70
    32
  0
VERTEX
  8
E18LXLIFT
 62
1
 10
-256.772
 20
-761.104
 30
3400.000
 70
    32
  0
VERTEX
  8
E18LXLIFT
 62
1
 10
-249.583
 20
-776.565
 30
3400.000
 70
    32
  0
VERTEX
  8
E18LXLIFT
 62
1
 10
-241.339
 20
-798.028
 30
3400.000
 70
    32
  0
VERTEX
  8
E18LXLIFT
 62
1
 10
-233.197
 20
-818.911
 30
3400.000
 70
    32
  0
VERTEX
  8
E18LXLIFT
 62
1
 10
-229.403
 20
-830.462
 30
3400.000
 70
    32
  0
VERTEX
  8
E18LXLIFT
 62
1
 10
-248.451
 20
-832.729
 30
3400.000
 70
    32
  0
VERTEX
  8
E18LXLIFT
 62
1
 10
-254.569
 20
-805.424
 30
3400.000
 70
    32
  0
VERTEX
  8
E18LXLIFT
 62
1
 10
-253.235
 20
-799.840
 30
3400.000
 70
    32
  0
VERTEX
  8
E18LXLIFT
 62
1
 10
-264.989
 20
-786.339
 30
3400.000
 70
    32
  0
VERTEX
  8
E18LXLIFT
 62
1
 10
-278.020
 20
-771.705
 30
3400.000
 70
    32
  0
VERTEX
  8
E18LXLIFT
 62
1
 10
-288.531
 20
-759.143
 30
3400.000
 70
    32
  0
VERTEX
  8
E18LXLIFT
 62
1
 10
-296.402
 20
-746.156
 30
3400.000
 70
    32
  0
VERTEX
  8
E18LXLIFT
 62
1
 10
-293.617
 20
-735.887
 30
3400.000
 70
    32
  0
VERTEX
  8
E18LXLIFT
 62
1
 10
-288.909
 20
-724.521
 30
3400.000
 70
    32
  0
SEQEND
  8
E18LXLIFT
  0
POLYLINE
  8
E18LXLIFT
 62
6
 66
     1
 70
     9
  0
VERTEX
  8
E18LXLIFT
 62
6
 10
164.047
 20
-1401.285
 30
3387.000
 70
    32
  0
VERTEX
  8
E18LXLIFT
 62
6
 10
158.925
 20
-1408.273
 30
3387.000
 70
    32
  0
VERTEX
  8
E18LXLIFT
 62
6
 10
154.752
 20
-1414.028
 30
3387.000
 70
    32
  0
VERTEX
  8
E18LXLIFT
 62
6
 10
147.123
 20
-1416.977
 30
3387.000
 70
    32
  0
VERTEX
  8
E18LXLIFT
 62
6
 10
136.912
 20
-1421.154
 30
3387.000
 70
    32
  0
VERTEX
  8
E18LXLIFT
 62
6
 10
129.606
 20
-1424.844
 30
3387.000
 70
    32
  0
VERTEX
  8
E18LXLIFT
 62
6
 10
122.228
 20
-1425.004
 30
3387.000
 70
    32
  0
VERTEX
  8
E18LXLIFT
 62
6
 10
120.720
 20
-1419.801
 30
3387.000
 70
    32
  0
VERTEX
  8
E18LXLIFT
 62
6
 10
121.555
 20
-1412.893
 30
3387.000
 70
    32
  0
VERTEX
  8
E18LXLIFT
 62
6
 10
118.105
 20
-1408.454
 30
3387.000
 70
    32
  0
VERTEX
  8
E18LXLIFT
 62
6
 10
120.252
 20
-1404.392
 30
3387.000
 70
    32
  0
VERTEX
  8
E18LXLIFT
 62
6
 10
125.543
 20
-1400.321
 30
3387.000
 70
    32
  0
VERTEX
  8
E18LXLIFT
 62
6
 10
132.261
 20
-1394.778
 30
3387.000
 70
    32
  0
VERTEX
  8
E18LXLIFT
 62
6
 10
137.982
 20
-1387.570
 30
3387.000
 70
    32
  0
VERTEX
  8
E18LXLIFT
 62
6
 10
145.892
 20
-1379.637
 30
3387.000
 70
    32
  0
VERTEX
  8
E18LXLIFT
 62
6
 10
156.736
 20
-1375.434
 30
3387.000
 70
    32
  0
VERTEX
  8
E18LXLIFT
 62
6
 10
165.880
 20
-1379.637
 30
3387.000
 70
    32
  0
VERTEX
  8
E18LXLIFT
 62
6
 10
173.432
 20
-1388.368
 30
3387.000
 70
    32
  0
SEQEND
  8
E18LXLIFT
  0
POLYLINE
  8
E18LXLIFT
 62
11
 66
     1
 70
     9
  0
VERTEX
  8
E18LXLIFT
 62
11
 10
247.489
 20
-1568.524
 30
3392.000
 70
    32
  0
VERTEX
  8
E18LXLIFT
 62
11
 10
237.235
 20
-1574.580
 30
3392.000
 70
    32
  0
VERTEX
  8
E18LXLIFT
 62
11
 10
228.368
 20
-1580.602
 30
3392.000
 70
    32
  0
VERTEX
  8
E18LXLIFT
 62
11
 10
222.016
 20
-1581.426
 30
3392.000
 70
    32
  0
VERTEX
  8
E18LXLIFT
 62
11
 10
211.661
 20
-1582.123
 30
3392.000
 70
    32
  0
VERTEX
  8
E18LXLIFT
 62
11
 10
204.153
 20
-1581.508
 30
3392.000
 70
    32
  0
VERTEX
  8
E18LXLIFT
 62
11
 10
199.355
 20
-1569.251
 30
3392.000
 70
    32
  0
VERTEX
  8
E18LXLIFT
 62
11
 10
195.061
 20
-1557.388
 30
3392.000
 70
    32
  0
VERTEX
  8
E18LXLIFT
 62
11
 10
186.146
 20
-1548.129
 30
3392.000
 70
    32
  0
VERTEX
  8
E18LXLIFT
 62
11
 10
184.023
 20
-1539.247
 30
3392.000
 70
    32
  0
VERTEX
  8
E18LXLIFT
 62
11
 10
186.663
 20
-1528.852
 30
3392.000
 70
    32
  0
VERTEX
  8
E18LXLIFT
 62
11
 10
187.856
 20
-1515.274
 30
3392.000
 70
    32
  0
VERTEX
  8
E18LXLIFT
 62
11
 10
186.939
 20
-1505.514
 30
3392.000
 70
    32
  0
VERTEX
  8
E18LXLIFT
 62
11
 10
187.965
 20
-1493.796
 30
3392.000
 70
    32
  0
VERTEX
  8
E18LXLIFT
 62
11
 10
188.322
 20
-1487.127
 30
3392.000
 70
    32
  0
VERTEX
  8
E18LXLIFT
 62
11
 10
183.295
 20
-1478.731
 30
3392.000
 70
    32
  0
VERTEX
  8
E18LXLIFT
 62
11
 10
184.471
 20
-1471.247
 30
3392.000
 70
    32
  0
VERTEX
  8
E18LXLIFT
 62
11
 10
193.520
 20
-1467.265
 30
3392.000
 70
    32
  0
VERTEX
  8
E18LXLIFT
 62
11
 10
203.528
 20
-1469.970
 30
3392.000
 70
    32
  0
VERTEX
  8
E18LXLIFT
 62
11
 10
208.807
 20
-1476.772
 30
3392.000
 70
    32
  0
VERTEX
  8
E18LXLIFT
 62
11
 10
215.840
 20
-1491.202
 30
3392.000
 70
    32
  0
VERTEX
  8
E18LXLIFT
 62
11
 10
223.448
 20
-1507.170
 30
3392.000
 70
    32
  0
VERTEX
  8
E18LXLIFT
 62
11
 10
231.520
 20
-1520.192
 30
3392.000
 70
    32
  0
VERTEX
  8
E18LXLIFT
 62
11
 10
233.472
 20
-1534.956
 30
3392.000
 70
    32
  0
VERTEX
  8
E18LXLIFT
 62
11
 10
236.826
 20
-1550.002
 30
3392.000
 70
    32
  0
VERTEX
  8
E18LXLIFT
 62
11
 10
241.775
 20
-1557.695
 30
3392.000
 70
    32
  0
SEQEND
  8
E18LXLIFT
  0
POLYLINE
  8
E18LXLIFT
 62
6
 66
     1
 70
     9
  0
VERTEX
  8
E18LXLIFT
 62
6
 10
139.727
 20
-1387.889
 30
3409.000
 70
    32
  0
VERTEX
  8
E18LXLIFT
 62
6
 10
143.043
 20
-1392.761
 30
3409.000
 70
    32
  0
VERTEX
  8
E18LXLIFT
 62
6
 10
139.845
 20
-1397.036
 30
3409.000
 70
    32
  0
VERTEX
  8
E18LXLIFT
 62
6
 10
134.875
 20
-1400.967
 30
3409.000
 70
    32
  0
VERTEX
  8
E18LXLIFT
 62
6
 10
131.644
 20
-1405.049
 30
3409.000
 70
    32
  0
VERTEX
  8
E18LXLIFT
 62
6
 10
130.790
 20
-1411.209
 30
3409.000
 70
    32
  0
VERTEX
  8
E18LXLIFT
 62
6
 10
129.109
 20
-1416.229
 30
3409.000
 70
    32
  0
VERTEX
  8
E18LXLIFT
 62
6
 10
123.407
 20
-1421.995
 30
3409.000
 70
    32
  0
VERTEX
  8
E18LXLIFT
 62
6
 10
118.423
 20
-1426.805
 30
3409.000
 70
    32
  0
VERTEX
  8
E18LXLIFT
 62
6
 10
116.303
 20
-1431.819
 30
3409.000
 70
    32
  0
VERTEX
  8
E18LXLIFT
 62
6
 10
109.567
 20
-1437.357
 30
3409.000
 70
    32
  0
VERTEX
  8
E18LXLIFT
 62
6
 10
105.670
 20
-1431.386
 30
3409.000
 70
    32
  0
VERTEX
  8
E18LXLIFT
 62
6
 10
109.683
 20
-1426.736
 30
3409.000
 70
    32
  0
VERTEX
  8
E18LXLIFT
 62
6
 10
113.499
 20
-1420.167
 30
3409.000
 70
    32
  0
VERTEX
  8
E18LXLIFT
 62
6
 10
116.712
 20
-1415.012
 30
3409.000
 70
    32
  0
VERTEX
  8
E18LXLIFT
 62
6
 10
112.312
 20
-1412.989
 30
3409.000
 70
    32
  0
VERTEX
  8
E18LXLIFT
 62
6
 10
110.544
 20
-1410.253
 30
3409.000
 70
    32
  0
VERTEX
  8
E18LXLIFT
 62
6
 10
115.039
 20
-1408.513
 30
3409.000
 70
    32
  0
VERTEX
  8
E18LXLIFT
 62
6
 10
120.398
 20
-1403.322
 30
3409.000
 70
    32
  0
VERTEX
  8
E18LXLIFT
 62
6
 10
124.440
 20
-1396.914
 30
3409.000
 70
    32
  0
VERTEX
  8
E18LXLIFT
 62
6
 10
125.876
 20
-1390.658
 30
3409.000
 70
    32
  0
VERTEX
  8
E18LXLIFT
 62
6
 10
126.058
 20
-1384.769
 30
3409.000
 70
    32
  0
VERTEX
  8
E18LXLIFT
 62
6
 10
128.821
 20
-1382.439
 30
3409.000
 70
    32
  0
SEQEND
  8
E18LXLIFT
  0
POLYLINE
  8
E18LXLIFT
 62
11
 66
     1
 70
     9
  0
VERTEX
  8
E18LXLIFT
 62
11
 10
240.857
 20
-1604.123
 30
3403.000
 70
    32
  0
VERTEX
  8
E18LXLIFT
 62
11
 10
232.927
 20
-1602.924
 30
3403.000
 70
    32
  0
VERTEX
  8
E18LXLIFT
 62
11
 10
224.869
 20
-1599.753
 30
3403.000
 70
    32
  0
VERTEX
  8
E18LXLIFT
 62
11
 10
216.901
 20
-1597.603
 30
3403.000
 70
    32
  0
VERTEX
  8
E18LXLIFT
 62
11
 10
212.429
 20
-1591.288
 30
3403.000
 70
    32
  0
VERTEX
  8
E18LXLIFT
 62
11
 10
206.714
 20
-1581.313
 30
3403.000
 70
    32
  0
VERTEX
  8
E18LXLIFT
 62
11
 10
200.054
 20
-1572.131
 30
3403.000
 70
    32
  0
VERTEX
  8
E18LXLIFT
 62
11
 10
191.902
 20
-1561.642
 30
3403.000
 70
    32
  0
VERTEX
  8
E18LXLIFT
 62
11
 10
185.556
 20
-1549.300
 30
3403.000
 70
    32
  0
VERTEX
  8
E18LXLIFT
 62
11
 10
185.074
 20
-1536.506
 30
3403.000
 70
    32
  0
VERTEX
  8
E18LXLIFT
 62
11
 10
186.104
 20
-1523.701
 30
3403.000
 70
    32
  0
VERTEX
  8
E18LXLIFT
 62
11
 10
189.651
 20
-1509.723
 30
3403.000
 70
    32
  0
VERTEX
  8
E18LXLIFT
 62
11
 10
190.841
 20
-1499.084
 30
3403.000
 70
    32
  0
VERTEX
  8
E18LXLIFT
 62
11
 10
188.126
 20
-1488.453
 30
3403.000
 70
    32
  0
VERTEX
  8
E18LXLIFT
 62
11
 10
183.221
 20
-1481.691
 30
3403.000
 70
    32
  0
VERTEX
  8
E18LXLIFT
 62
11
 10
187.331
 20
-1472.083
 30
3403.000
 70
    32
  0
VERTEX
  8
E18LXLIFT
 62
11
 10
186.662
 20
-1464.422
 30
3403.000
 70
    32
  0
VERTEX
  8
E18LXLIFT
 62
11
 10
191.883
 20
-1461.287
 30
3403.000
 70
    32
  0
VERTEX
  8
E18LXLIFT
 62
11
 10
198.494
 20
-1468.005
 30
3403.000
 70
    32
  0
VERTEX
  8
E18LXLIFT
 62
11
 10
209.313
 20
-1481.122
 30
3403.000
 70
    32
  0
VERTEX
  8
E18LXLIFT
 62
11
 10
220.242
 20
-1503.826
 30
3403.000
 70
    32
  0
VERTEX
  8
E18LXLIFT
 62
11
 10
227.189
 20
-1521.489
 30
3403.000
 70
    32
  0
VERTEX
  8
E18LXLIFT
 62
11
 10
234.349
 20
-1534.653
 30
3403.000
 70
    32
  0
VERTEX
  8
E18LXLIFT
 62
11
 10
237.581
 20
-1550.340
 30
3403.000
 70
    32
  0
VERTEX
  8
E18LXLIFT
 62
11
 10
244.976
 20
-1566.375
 30
3403.000
 70
    32
  0
VERTEX
  8
E18LXLIFT
 62
11
 10
245.991
 20
-1582.150
 30
3403.000
 70
    32
  0
VERTEX
  8
E18LXLIFT
 62
11
 10
248.224
 20
-1591.067
 30
3403.000
 70
    32
  0
SEQEND
  8
E18LXLIFT
  0
POLYLINE
  8
E18LXLIFT
 62
11
 66
     1
 70
     9
  0
VERTEX
  8
E18LXLIFT
 62
11
 10
199.606
 20
-1469.345
 30
3412.000
 70
    32
  0
VERTEX
  8
E18LXLIFT
 62
11
 10
205.753
 20
-1486.620
 30
3412.000
 70
    32
  0
VERTEX
  8
E18LXLIFT
 62
11
 10
211.498
 20
-1502.446
 30
3412.000
 70
    32
  0
VERTEX
  8
E18LXLIFT
 62
11
 10
216.818
 20
-1513.799
 30
3412.000
 70
    32
  0
VERTEX
  8
E18LXLIFT
 62
11
 10
220.540
 20
-1527.292
 30
3412.000
 70
    32
  0
VERTEX
  8
E18LXLIFT
 62
11
 10
224.689
 20
-1541.670
 30
3412.000
 70
    32
  0
VERTEX
  8
E18LXLIFT
 62
11
 10
227.234
 20
-1562.216
 30
3412.000
 70
    32
  0
VERTEX
  8
E18LXLIFT
 62
11
 10
232.682
 20
-1581.520
 30
3412.000
 70
    32
  0
VERTEX
  8
E18LXLIFT
 62
11
 10
235.247
 20
-1595.963
 30
3412.000
 70
    32
  0
VERTEX
  8
E18LXLIFT
 62
11
 10
234.179
 20
-1609.895
 30
3412.000
 70
    32
  0
VERTEX
  8
E18LXLIFT
 62
11
 10
229.802
 20
-1614.491
 30
3412.000
 70
    32
  0
VERTEX
  8
E18LXLIFT
 62
11
 10
225.315
 20
-1611.012
 30
3412.000
 70
    32
  0
VERTEX
  8
E18LXLIFT
 62
11
 10
219.161
 20
-1606.137
 30
3412.000
 70
    32
  0
VERTEX
  8
E18LXLIFT
 62
11
 10
210.983
 20
-1604.908
 30
3412.000
 70
    32
  0
VERTEX
  8
E18LXLIFT
 62
11
 10
202.883
 20
-1604.383
 30
3412.000
 70
    32
  0
VERTEX
  8
E18LXLIFT
 62
11
 10
194.913
 20
-1596.263
 30
3412.000
 70
    32
  0
VERTEX
  8
E18LXLIFT
 62
11
 10
188.688
 20
-1587.851
 30
3412.000
 70
    32
  0
VERTEX
  8
E18LXLIFT
 62
11
 10
185.890
 20
-1573.686
 30
3412.000
 70
    32
  0
VERTEX
  8
E18LXLIFT
 62
11
 10
182.763
 20
-1558.022
 30
3412.000
 70
    32
  0
VERTEX
  8
E18LXLIFT
 62
11
 10
177.152
 20
-1547.315
 30
3412.000
 70
    32
  0
VERTEX
  8
E18LXLIFT
 62
11
 10
179.532
 20
-1535.039
 30
3412.000
 70
    32
  0
VERTEX
  8
E18LXLIFT
 62
11
 10
183.161
 20
-1521.637
 30
3412.000
 70
    32
  0
VERTEX
  8
E18LXLIFT
 62
11
 10
187.118
 20
-1508.540
 30
3412.000
 70
    32
  0
VERTEX
  8
E18LXLIFT
 62
11
 10
183.305
 20
-1498.810
 30
3412.000
 70
    32
  0
VERTEX
  8
E18LXLIFT
 62
11
 10
180.300
 20
-1489.145
 30
3412.000
 70
    32
  0
VERTEX
  8
E18LXLIFT
 62
11
 10
180.637
 20
-1480.637
 30
3412.000
 70
    32
  0
VERTEX
  8
E18LXLIFT
 62
11
 10
187.639
 20
-1472.175
 30
3412.000
 70
    32
  0
SEQEND
  8
E18LXLIFT
  0
POLYLINE
  8
E18LXLIFT
 62
11
 66
     1
 70
     9
  0
VERTEX
  8
E18LXLIFT
 62
11
 10
241.962
 20
-1610.055
 30
3423.000
 70
    32
  0
VERTEX
  8
E18LXLIFT
 62
11
 10
235.291
 20
-1598.186
 30
3423.000
 70
    32
  0
VERTEX
  8
E18LXLIFT
 62
11
 10
232.129
 20
-1583.368
 30
3423.000
 70
    32
  0
VERTEX
  8
E18LXLIFT
 62
11
 10
229.827
 20
-1569.447
 30
3423.000
 70
    32
  0
VERTEX
  8
E18LXLIFT
 62
11
 10
225.989
 20
-1554.140
 30
3423.000
 70
    32
  0
VERTEX
  8
E18LXLIFT
 62
11
 10
224.493
 20
-1539.534
 30
3423.000
 70
    32
  0
VERTEX
  8
E18LXLIFT
 62
11
 10
221.386
 20
-1527.056
 30
3423.000
 70
    32
  0
VERTEX
  8
E18LXLIFT
 62
11
 10
217.909
 20
-1513.004
 30
3423.000
 70
    32
  0
VERTEX
  8
E18LXLIFT
 62
11
 10
213.431
 20
-1499.670
 30
3423.000
 70
    32
  0
VERTEX
  8
E18LXLIFT
 62
11
 10
207.107
 20
-1487.228
 30
3423.000
 70
    32
  0
VERTEX
  8
E18LXLIFT
 62
11
 10
197.602
 20
-1473.065
 30
3423.000
 70
    32
  0
VERTEX
  8
E18LXLIFT
 62
11
 10
190.946
 20
-1475.998
 30
3423.000
 70
    32
  0
VERTEX
  8
E18LXLIFT
 62
11
 10
182.293
 20
-1481.877
 30
3423.000
 70
    32
  0
VERTEX
  8
E18LXLIFT
 62
11
 10
187.413
 20
-1489.019
 30
3423.000
 70
    32
  0
VERTEX
  8
E18LXLIFT
 62
11
 10
186.673
 20
-1503.823
 30
3423.000
 70
    32
  0
VERTEX
  8
E18LXLIFT
 62
11
 10
184.536
 20
-1520.602
 30
3423.000
 70
    32
  0
VERTEX
  8
E18LXLIFT
 62
11
 10
183.409
 20
-1536.224
 30
3423.000
 70
    32
  0
VERTEX
  8
E18LXLIFT
 62
11
 10
181.434
 20
-1552.021
 30
3423.000
 70
    32
  0
VERTEX
  8
E18LXLIFT
 62
11
 10
179.056
 20
-1565.296
 30
3423.000
 70
    32
  0
VERTEX
  8
E18LXLIFT
 62
11
 10
177.024
 20
-1571.511
 30
3423.000
 70
    32
  0
VERTEX
  8
E18LXLIFT
 62
11
 10
182.933
 20
-1579.602
 30
3423.000
 70
    32
  0
VERTEX
  8
E18LXLIFT
 62
11
 10
193.695
 20
-1588.430
 30
3423.000
 70
    32
  0
VERTEX
  8
E18LXLIFT
 62
11
 10
202.072
 20
-1600.266
 30
3423.000
 70
    32
  0
VERTEX
  8
E18LXLIFT
 62
11
 10
209.374
 20
-1610.602
 30
3423.000
 70
    32
  0
VERTEX
  8
E18LXLIFT
 62
11
 10
215.562
 20
-1620.440
 30
3423.000
 70
    32
  0
VERTEX
  8
E18LXLIFT
 62
11
 10
228.028
 20
-1616.260
 30
3423.000
 70
    32
  0
SEQEND
  8
E18LXLIFT
  0
POLYLINE
  8
E18LXLIFT
 62
11
 66
     1
 70
     9
  0
VERTEX
  8
E18LXLIFT
 62
11
 10
225.967
 20
-1611.952
 30
3434.000
 70
    32
  0
VERTEX
  8
E18LXLIFT
 62
11
 10
232.062
 20
-1608.262
 30
3434.000
 70
    32
  0
VERTEX
  8
E18LXLIFT
 62
11
 10
228.493
 20
-1597.343
 30
3434.000
 70
    32
  0
VERTEX
  8
E18LXLIFT
 62
11
 10
228.979
 20
-1582.893
 30
3434.000
 70
    32
  0
VERTEX
  8
E18LXLIFT
 62
11
 10
225.682
 20
-1568.119
 30
3434.000
 70
    32
  0
VERTEX
  8
E18LXLIFT
 62
11
 10
224.430
 20
-1555.767
 30
3434.000
 70
    32
  0
VERTEX
  8
E18LXLIFT
 62
11
 10
222.588
 20
-1543.189
 30
3434.000
 70
    32
  0
VERTEX
  8
E18LXLIFT
 62
11
 10
223.541
 20
-1529.699
 30
3434.000
 70
    32
  0
VERTEX
  8
E18LXLIFT
 62
11
 10
225.078
 20
-1520.207
 30
3434.000
 70
    32
  0
VERTEX
  8
E18LXLIFT
 62
11
 10
218.851
 20
-1507.519
 30
3434.000
 70
    32
  0
VERTEX
  8
E18LXLIFT
 62
11
 10
211.582
 20
-1495.033
 30
3434.000
 70
    32
  0
VERTEX
  8
E18LXLIFT
 62
11
 10
205.212
 20
-1482.446
 30
3434.000
 70
    32
  0
VERTEX
  8
E18LXLIFT
 62
11
 10
197.708
 20
-1470.235
 30
3434.000
 70
    32
  0
VERTEX
  8
E18LXLIFT
 62
11
 10
190.827
 20
-1463.287
 30
3434.000
 70
    32
  0
VERTEX
  8
E18LXLIFT
 62
11
 10
182.459
 20
-1461.059
 30
3434.000
 70
    32
  0
VERTEX
  8
E18LXLIFT
 62
11
 10
175.008
 20
-1464.206
 30
3434.000
 70
    32
  0
VERTEX
  8
E18LXLIFT
 62
11
 10
173.931
 20
-1472.832
 30
3434.000
 70
    32
  0
VERTEX
  8
E18LXLIFT
 62
11
 10
179.374
 20
-1479.726
 30
3434.000
 70
    32
  0
VERTEX
  8
E18LXLIFT
 62
11
 10
183.869
 20
-1492.248
 30
3434.000
 70
    32
  0
VERTEX
  8
E18LXLIFT
 62
11
 10
188.393
 20
-1504.963
 30
3434.000
 70
    32
  0
VERTEX
  8
E18LXLIFT
 62
11
 10
188.012
 20
-1518.047
 30
3434.000
 70
    32
  0
VERTEX
  8
E18LXLIFT
 62
11
 10
187.896
 20
-1525.450
 30
3434.000
 70
    32
  0
VERTEX
  8
E18LXLIFT
 62
11
 10
194.172
 20
-1539.719
 30
3434.000
 70
    32
  0
VERTEX
  8
E18LXLIFT
 62
11
 10
195.866
 20
-1555.418
 30
3434.000
 70
    32
  0
VERTEX
  8
E18LXLIFT
 62
11
 10
199.037
 20
-1571.680
 30
3434.000
 70
    32
  0
VERTEX
  8
E18LXLIFT
 62
11
 10
200.847
 20
-1585.573
 30
3434.000
 70
    32
  0
VERTEX
  8
E18LXLIFT
 62
11
 10
207.732
 20
-1595.856
 30
3434.000
 70
    32
  0
VERTEX
  8
E18LXLIFT
 62
11
 10
217.256
 20
-1607.275
 30
3434.000
 70
    32
  0
SEQEND
  8
E18LXLIFT
  0
POLYLINE
  8
E18LXLIFT
 62
11
 66
     1
 70
     9
  0
VERTEX
  8
E18LXLIFT
 62
11
 10
231.224
 20
-1589.569
 30
3447.000
 70
    32
  0
VERTEX
  8
E18LXLIFT
 62
11
 10
228.377
 20
-1570.670
 30
3447.000
 70
    32
  0
VERTEX
  8
E18LXLIFT
 62
11
 10
223.146
 20
-1561.886
 30
3447.000
 70
    32
  0
VERTEX
  8
E18LXLIFT
 62
11
 10
215.238
 20
-1550.930
 30
3447.000
 70
    32
  0
VERTEX
  8
E18LXLIFT
 62
11
 10
207.654
 20
-1536.256
 30
3447.000
 70
    32
  0
VERTEX
  8
E18LXLIFT
 62
11
 10
204.454
 20
-1524.899
 30
3447.000
 70
    32
  0
VERTEX
  8
E18LXLIFT
 62
11
 10
200.363
 20
-1513.215
 30
3447.000
 70
    32
  0
VERTEX
  8
E18LXLIFT
 62
11
 10
194.609
 20
-1499.705
 30
3447.000
 70
    32
  0
VERTEX
  8
E18LXLIFT
 62
11
 10
193.588
 20
-1488.057
 30
3447.000
 70
    32
  0
VERTEX
  8
E18LXLIFT
 62
11
 10
192.374
 20
-1476.443
 30
3447.000
 70
    32
  0
VERTEX
  8
E18LXLIFT
 62
11
 10
182.888
 20
-1463.923
 30
3447.000
 70
    32
  0
VERTEX
  8
E18LXLIFT
 62
11
 10
176.971
 20
-1452.271
 30
3447.000
 70
    32
  0
VERTEX
  8
E18LXLIFT
 62
11
 10
171.614
 20
-1446.732
 30
3447.000
 70
    32
  0
VERTEX
  8
E18LXLIFT
 62
11
 10
169.035
 20
-1449.597
 30
3447.000
 70
    32
  0
VERTEX
  8
E18LXLIFT
 62
11
 10
170.282
 20
-1461.405
 30
3447.000
 70
    32
  0
VERTEX
  8
E18LXLIFT
 62
11
 10
177.311
 20
-1478.441
 30
3447.000
 70
    32
  0
VERTEX
  8
E18LXLIFT
 62
11
 10
184.901
 20
-1495.501
 30
3447.000
 70
    32
  0
VERTEX
  8
E18LXLIFT
 62
11
 10
190.875
 20
-1511.243
 30
3447.000
 70
    32
  0
VERTEX
  8
E18LXLIFT
 62
11
 10
194.047
 20
-1530.883
 30
3447.000
 70
    32
  0
VERTEX
  8
E18LXLIFT
 62
11
 10
198.572
 20
-1547.468
 30
3447.000
 70
    32
  0
VERTEX
  8
E18LXLIFT
 62
11
 10
201.860
 20
-1560.283
 30
3447.000
 70
    32
  0
VERTEX
  8
E18LXLIFT
 62
11
 10
201.277
 20
-1575.386
 30
3447.000
 70
    32
  0
VERTEX
  8
E18LXLIFT
 62
11
 10
201.906
 20
-1587.538
 30
3447.000
 70
    32
  0
VERTEX
  8
E18LXLIFT
 62
11
 10
210.075
 20
-1592.759
 30
3447.000
 70
    32
  0
VERTEX
  8
E18LXLIFT
 62
11
 10
220.365
 20
-1595.232
 30
3447.000
 70
    32
  0
SEQEND
  8
E18LXLIFT
  0
POLYLINE
  8
E18LXLIFT
 62
3
 66
     1
 70
     9
  0
VERTEX
  8
E18LXLIFT
 62
3
 10
-158.168
 20
-1163.410
 30
3448.000
 70
    32
  0
VERTEX
  8
E18LXLIFT
 62
3
 10
-169.459
 20
-1150.002
 30
3448.000
 70
    32
  0
VERTEX
  8
E18LXLIFT
 62
3
 10
-176.841
 20
-1138.529
 30
3448.000
 70
    32
  0
VERTEX
  8
E18LXLIFT
 62
3
 10
-178.588
 20
-1127.625
 30
3448.000
 70
    32
  0
VERTEX
  8
E18LXLIFT
 62
3
 10
-177.097
 20
-1118.929
 30
3448.000
 70
    32
  0
VERTEX
  8
E18LXLIFT
 62
3
 10
-171.236
 20
-1113.245
 30
3448.000
 70
    32
  0
VERTEX
  8
E18LXLIFT
 62
3
 10
-173.644
 20
-1100.540
 30
3448.000
 70
    32
  0
VERTEX
  8
E18LXLIFT
 62
3
 10
-180.185
 20
-1090.519
 30
3448.000
 70
    32
  0
VERTEX
  8
E18LXLIFT
 62
3
 10
-185.629
 20
-1085.136
 30
3448.000
 70
    32
  0
VERTEX
  8
E18LXLIFT
 62
3
 10
-193.675
 20
-1074.691
 30
3448.000
 70
    32
  0
VERTEX
  8
E18LXLIFT
 62
3
 10
-203.668
 20
-1067.839
 30
3448.000
 70
    32
  0
VERTEX
  8
E18LXLIFT
 62
3
 10
-217.253
 20
-1061.430
 30
3448.000
 70
    32
  0
VERTEX
  8
E18LXLIFT
 62
3
 10
-230.431
 20
-1056.028
 30
3448.000
 70
    32
  0
VERTEX
  8
E18LXLIFT
 62
3
 10
-242.288
 20
-1053.035
 30
3448.000
 70
    32
  0
VERTEX
  8
E18LXLIFT
 62
3
 10
-245.853
 20
-1046.500
 30
3448.000
 70
    32
  0
VERTEX
  8
E18LXLIFT
 62
3
 10
-250.461
 20
-1037.789
 30
3448.000
 70
    32
  0
VERTEX
  8
E18LXLIFT
 62
3
 10
-249.723
 20
-1031.490
 30
3448.000
 70
    32
  0
VERTEX
  8
E18LXLIFT
 62
3
 10
-245.647
 20
-1023.954
 30
3448.000
 70
    32
  0
VERTEX
  8
E18LXLIFT
 62
3
 10
-241.525
 20
-1016.928
 30
3448.000
 70
    32
  0
VERTEX
  8
E18LXLIFT
 62
3
 10
-233.447
 20
-1013.542
 30
3448.000
 70
    32
  0
VERTEX
  8
E18LXLIFT
 62
3
 10
-226.168
 20
-1018.458
 30
3448.000
 70
    32
  0
VERTEX
  8
E18LXLIFT
 62
3
 10
-213.498
 20
-1027.491
 30
3448.000
 70
    32
  0
VERTEX
  8
E18LXLIFT
 62
3
 10
-207.558
 20
-1031.317
 30
3448.000
 70
    32
  0
VERTEX
  8
E18LXLIFT
 62
3
 10
-201.759
 20
-1028.831
 30
3448.000
 70
    32
  0
VERTEX
  8
E18LXLIFT
 62
3
 10
-196.114
 20
-1041.352
 30
3448.000
 70
    32
  0
VERTEX
  8
E18LXLIFT
 62
3
 10
-186.135
 20
-1054.302
 30
3448.000
 70
    32
  0
VERTEX
  8
E18LXLIFT
 62
3
 10
-175.244
 20
-1067.459
 30
3448.000
 70
    32
  0
VERTEX
  8
E18LXLIFT
 62
3
 10
-169.076
 20
-1080.251
 30
3448.000
 70
    32
  0
VERTEX
  8
E18LXLIFT
 62
3
 10
-162.439
 20
-1089.657
 30
3448.000
 70
    32
  0
VERTEX
  8
E18LXLIFT
 62
3
 10
-157.026
 20
-1096.042
 30
3448.000
 70
    32
  0
VERTEX
  8
E18LXLIFT
 62
3
 10
-155.051
 20
-1109.496
 30
3448.000
 70
    32
  0
VERTEX
  8
E18LXLIFT
 62
3
 10
-151.306
 20
-1128.512
 30
3448.000
 70
    32
  0
VERTEX
  8
E18LXLIFT
 62
3
 10
-147.436
 20
-1143.522
 30
3448.000
 70
    32
  0
VERTEX
  8
E18LXLIFT
 62
3
 10
-139.307
 20
-1153.037
 30
3448.000
 70
    32
  0
VERTEX
  8
E18LXLIFT
 62
3
 10
-131.265
 20
-1158.702
 30
3448.000
 70
    32
  0
VERTEX
  8
E18LXLIFT
 62
3
 10
-124.160
 20
-1172.333
 30
3448.000
 70
    32
  0
VERTEX
  8
E18LXLIFT
 62
3
 10
-110.580
 20
-1187.987
 30
3448.000
 70
    32
  0
VERTEX
  8
E18LXLIFT
 62
3
 10
-105.798
 20
-1196.788
 30
3448.000
 70
    32
  0
VERTEX
  8
E18LXLIFT
 62
3
 10
-100.348
 20
-1215.757
 30
3448.000
 70
    32
  0
VERTEX
  8
E18LXLIFT
 62
3
 10
-95.824
 20
-1231.813
 30
3448.000
 70
    32
  0
VERTEX
  8
E18LXLIFT
 62
3
 10
-87.924
 20
-1245.191
 30
3448.000
 70
    32
  0
VERTEX
  8
E18LXLIFT
 62
3
 10
-85.807
 20
-1257.347
 30
3448.000
 70
    32
  0
VERTEX
  8
E18LXLIFT
 62
3
 10
-86.357
 20
-1264.054
 30
3448.000
 70
    32
  0
VERTEX
  8
E18LXLIFT
 62
3
 10
-87.725
 20
-1272.770
 30
3448.000
 70
    32
  0
VERTEX
  8
E18LXLIFT
 62
3
 10
-85.305
 20
-1284.596
 30
3448.000
 70
    32
  0
VERTEX
  8
E18LXLIFT
 62
3
 10
-75.200
 20
-1301.151
 30
3448.000
 70
    32
  0
VERTEX
  8
E18LXLIFT
 62
3
 10
-65.158
 20
-1310.903
 30
3448.000
 70
    32
  0
VERTEX
  8
E18LXLIFT
 62
3
 10
-54.949
 20
-1319.990
 30
3448.000
 70
    32
  0
VERTEX
  8
E18LXLIFT
 62
3
 10
-48.217
 20
-1328.783
 30
3448.000
 70
    32
  0
VERTEX
  8
E18LXLIFT
 62
3
 10
-47.706
 20
-1336.348
 30
3448.000
 70
    32
  0
VERTEX
  8
E18LXLIFT
 62
3
 10
-47.977
 20
-1343.286
 30
3448.000
 70
    32
  0
VERTEX
  8
E18LXLIFT
 62
3
 10
-45.142
 20
-1350.461
 30
3448.000
 70
    32
  0
VERTEX
  8
E18LXLIFT
 62
3
 10
-44.120
 20
-1359.175
 30
3448.000
 70
    32
  0
VERTEX
  8
E18LXLIFT
 62
3
 10
-40.272
 20
-1370.722
 30
3448.000
 70
    32
  0
VERTEX
  8
E18LXLIFT
 62
3
 10
-38.403
 20
-1380.449
 30
3448.000
 70
    32
  0
VERTEX
  8
E18LXLIFT
 62
3
 10
-33.804
 20
-1393.624
 30
3448.000
 70
    32
  0
VERTEX
  8
E18LXLIFT
 62
3
 10
-32.231
 20
-1404.437
 30
3448.000
 70
    32
  0
VERTEX
  8
E18LXLIFT
 62
3
 10
-37.674
 20
-1407.859
 30
3448.000
 70
    32
  0
VERTEX
  8
E18LXLIFT
 62
3
 10
-44.198
 20
-1409.351
 30
3448.000
 70
    32
  0
VERTEX
  8
E18LXLIFT
 62
3
 10
-46.092
 20
-1400.186
 30
3448.000
 70
    32
  0
VERTEX
  8
E18LXLIFT
 62
3
 10
-53.381
 20
-1383.318
 30
3448.000
 70
    32
  0
VERTEX
  8
E18LXLIFT
 62
3
 10
-61.249
 20
-1370.134
 30
3448.000
 70
    32
  0
VERTEX
  8
E18LXLIFT
 62
3
 10
-67.502
 20
-1363.492
 30
3448.000
 70
    32
  0
VERTEX
  8
E18LXLIFT
 62
3
 10
-77.314
 20
-1357.486
 30
3448.000
 70
    32
  0
VERTEX
  8
E18LXLIFT
 62
3
 10
-81.785
 20
-1349.111
 30
3448.000
 70
    32
  0
VERTEX
  8
E18LXLIFT
 62
3
 10
-81.378
 20
-1334.898
 30
3448.000
 70
    32
  0
VERTEX
  8
E18LXLIFT
 62
3
 10
-83.787
 20
-1320.998
 30
3448.000
 70
    32
  0
VERTEX
  8
E18LXLIFT
 62
3
 10
-90.984
 20
-1306.346
 30
3448.000
 70
    32
  0
VERTEX
  8
E18LXLIFT
 62
3
 10
-95.912
 20
-1292.868
 30
3448.000
 70
    32
  0
VERTEX
  8
E18LXLIFT
 62
3
 10
-102.023
 20
-1286.123
 30
3448.000
 70
    32
  0
VERTEX
  8
E18LXLIFT
 62
3
 10
-106.841
 20
-1279.958
 30
3448.000
 70
    32
  0
VERTEX
  8
E18LXLIFT
 62
3
 10
-106.690
 20
-1267.780
 30
3448.000
 70
    32
  0
VERTEX
  8
E18LXLIFT
 62
3
 10
-108.936
 20
-1256.044
 30
3448.000
 70
    32
  0
VERTEX
  8
E18LXLIFT
 62
3
 10
-115.846
 20
-1251.185
 30
3448.000
 70
    32
  0
VERTEX
  8
E18LXLIFT
 62
3
 10
-116.977
 20
-1243.964
 30
3448.000
 70
    32
  0
VERTEX
  8
E18LXLIFT
 62
3
 10
-118.171
 20
-1231.135
 30
3448.000
 70
    32
  0
VERTEX
  8
E18LXLIFT
 62
3
 10
-120.620
 20
-1215.090
 30
3448.000
 70
    32
  0
VERTEX
  8
E18LXLIFT
 62
3
 10
-126.415
 20
-1200.721
 30
3448.000
 70
    32
  0
VERTEX
  8
E18LXLIFT
 62
3
 10
-136.760
 20
-1191.299
 30
3448.000
 70
    32
  0
VERTEX
  8
E18LXLIFT
 62
3
 10
-152.613
 20
-1183.716
 30
3448.000
 70
    32
  0
VERTEX
  8
E18LXLIFT
 62
3
 10
-170.518
 20
-1179.584
 30
3448.000
 70
    32
  0
SEQEND
  8
E18LXLIFT
  0
POLYLINE
  8
E18LXLIFT
 62
3
 66
     1
 70
     9
  0
VERTEX
  8
E18LXLIFT
 62
3
 10
-139.474
 20
-1219.458
 30
3464.000
 70
    32
  0
VERTEX
  8
E18LXLIFT
 62
3
 10
-135.423
 20
-1218.612
 30
3464.000
 70
    32
  0
VERTEX
  8
E18LXLIFT
 62
3
 10
-127.308
 20
-1224.493
 30
3464.000
 70
    32
  0
VERTEX
  8
E18LXLIFT
 62
3
 10
-121.091
 20
-1233.468
 30
3464.000
 70
    32
  0
VERTEX
  8
E18LXLIFT
 62
3
 10
-113.353
 20
-1246.227
 30
3464.000
 70
    32
  0
VERTEX
  8
E18LXLIFT
 62
3
 10
-107.572
 20
-1257.464
 30
3464.000
 70
    32
  0
VERTEX
  8
E18LXLIFT
 62
3
 10
-103.431
 20
-1272.910
 30
3464.000
 70
    32
  0
VERTEX
  8
E18LXLIFT
 62
3
 10
-100.302
 20
-1283.774
 30
3464.000
 70
    32
  0
VERTEX
  8
E18LXLIFT
 62
3
 10
-97.264
 20
-1294.811
 30
3464.000
 70
    32
  0
VERTEX
  8
E18LXLIFT
 62
3
 10
-89.667
 20
-1296.947
 30
3464.000
 70
    32
  0
VERTEX
  8
E18LXLIFT
 62
3
 10
-83.985
 20
-1310.313
 30
3464.000
 70
    32
  0
VERTEX
  8
E18LXLIFT
 62
3
 10
-75.622
 20
-1329.232
 30
3464.000
 70
    32
  0
VERTEX
  8
E18LXLIFT
 62
3
 10
-64.933
 20
-1350.490
 30
3464.000
 70
    32
  0
VERTEX
  8
E18LXLIFT
 62
3
 10
-59.858
 20
-1367.541
 30
3464.000
 70
    32
  0
VERTEX
  8
E18LXLIFT
 62
3
 10
-55.910
 20
-1372.293
 30
3464.000
 70
    32
  0
VERTEX
  8
E18LXLIFT
 62
3
 10
-52.113
 20
-1372.604
 30
3464.000
 70
    32
  0
VERTEX
  8
E18LXLIFT
 62
3
 10
-47.836
 20
-1384.161
 30
3464.000
 70
    32
  0
VERTEX
  8
E18LXLIFT
 62
3
 10
-44.297
 20
-1394.840
 30
3464.000
 70
    32
  0
VERTEX
  8
E18LXLIFT
 62
3
 10
-42.571
 20
-1398.910
 30
3464.000
 70
    32
  0
VERTEX
  8
E18LXLIFT
 62
3
 10
-35.716
 20
-1397.895
 30
3464.000
 70
    32
  0
VERTEX
  8
E18LXLIFT
 62
3
 10
-30.135
 20
-1393.894
 30
3464.000
 70
    32
  0
VERTEX
  8
E18LXLIFT
 62
3
 10
-35.943
 20
-1384.735
 30
3464.000
 70
    32
  0
VERTEX
  8
E18LXLIFT
 62
3
 10
-40.302
 20
-1372.912
 30
3464.000
 70
    32
  0
VERTEX
  8
E18LXLIFT
 62
3
 10
-45.211
 20
-1357.149
 30
3464.000
 70
    32
  0
VERTEX
  8
E18LXLIFT
 62
3
 10
-46.994
 20
-1343.480
 30
3464.000
 70
    32
  0
VERTEX
  8
E18LXLIFT
 62
3
 10
-50.975
 20
-1331.278
 30
3464.000
 70
    32
  0
VERTEX
  8
E18LXLIFT
 62
3
 10
-61.728
 20
-1315.372
 30
3464.000
 70
    32
  0
VERTEX
  8
E18LXLIFT
 62
3
 10
-73.658
 20
-1298.578
 30
3464.000
 70
    32
  0
VERTEX
  8
E18LXLIFT
 62
3
 10
-81.759
 20
-1277.305
 30
3464.000
 70
    32
  0
VERTEX
  8
E18LXLIFT
 62
3
 10
-86.193
 20
-1263.261
 30
3464.000
 70
    32
  0
VERTEX
  8
E18LXLIFT
 62
3
 10
-86.276
 20
-1256.497
 30
3464.000
 70
    32
  0
VERTEX
  8
E18LXLIFT
 62
3
 10
-84.038
 20
-1249.043
 30
3464.000
 70
    32
  0
VERTEX
  8
E18LXLIFT
 62
3
 10
-93.689
 20
-1236.789
 30
3464.000
 70
    32
  0
VERTEX
  8
E18LXLIFT
 62
3
 10
-99.963
 20
-1230.454
 30
3464.000
 70
    32
  0
VERTEX
  8
E18LXLIFT
 62
3
 10
-97.806
 20
-1222.734
 30
3464.000
 70
    32
  0
VERTEX
  8
E18LXLIFT
 62
3
 10
-104.949
 20
-1210.957
 30
3464.000
 70
    32
  0
VERTEX
  8
E18LXLIFT
 62
3
 10
-114.789
 20
-1201.763
 30
3464.000
 70
    32
  0
VERTEX
  8
E18LXLIFT
 62
3
 10
-120.030
 20
-1189.164
 30
3464.000
 70
    32
  0
VERTEX
  8
E18LXLIFT
 62
3
 10
-126.445
 20
-1177.948
 30
3464.000
 70
    32
  0
VERTEX
  8
E18LXLIFT
 62
3
 10
-132.606
 20
-1159.834
 30
3464.000
 70
    32
  0
VERTEX
  8
E18LXLIFT
 62
3
 10
-134.208
 20
-1150.800
 30
3464.000
 70
    32
  0
VERTEX
  8
E18LXLIFT
 62
3
 10
-134.886
 20
-1143.054
 30
3464.000
 70
    32
  0
VERTEX
  8
E18LXLIFT
 62
3
 10
-141.931
 20
-1134.889
 30
3464.000
 70
    32
  0
VERTEX
  8
E18LXLIFT
 62
3
 10
-142.767
 20
-1124.657
 30
3464.000
 70
    32
  0
VERTEX
  8
E18LXLIFT
 62
3
 10
-145.944
 20
-1115.994
 30
3464.000
 70
    32
  0
VERTEX
  8
E18LXLIFT
 62
3
 10
-158.178
 20
-1113.282
 30
3464.000
 70
    32
  0
VERTEX
  8
E18LXLIFT
 62
3
 10
-165.683
 20
-1110.972
 30
3464.000
 70
    32
  0
VERTEX
  8
E18LXLIFT
 62
3
 10
-173.243
 20
-1094.836
 30
3464.000
 70
    32
  0
VERTEX
  8
E18LXLIFT
 62
3
 10
-182.056
 20
-1082.089
 30
3464.000
 70
    32
  0
VERTEX
  8
E18LXLIFT
 62
3
 10
-190.785
 20
-1070.365
 30
3464.000
 70
    32
  0
VERTEX
  8
E18LXLIFT
 62
3
 10
-199.228
 20
-1064.178
 30
3464.000
 70
    32
  0
VERTEX
  8
E18LXLIFT
 62
3
 10
-204.078
 20
-1058.772
 30
3464.000
 70
    32
  0
VERTEX
  8
E18LXLIFT
 62
3
 10
-213.953
 20
-1065.093
 30
3464.000
 70
    32
  0
VERTEX
  8
E18LXLIFT
 62
3
 10
-202.359
 20
-1076.280
 30
3464.000
 70
    32
  0
VERTEX
  8
E18LXLIFT
 62
3
 10
-192.601
 20
-1085.208
 30
3464.000
 70
    32
  0
VERTEX
  8
E18LXLIFT
 62
3
 10
-185.744
 20
-1091.449
 30
3464.000
 70
    32
  0
VERTEX
  8
E18LXLIFT
 62
3
 10
-178.095
 20
-1105.896
 30
3464.000
 70
    32
  0
VERTEX
  8
E18LXLIFT
 62
3
 10
-170.746
 20
-1118.717
 30
3464.000
 70
    32
  0
VERTEX
  8
E18LXLIFT
 62
3
 10
-172.863
 20
-1125.434
 30
3464.000
 70
    32
  0
VERTEX
  8
E18LXLIFT
 62
3
 10
-166.876
 20
-1137.715
 30
3464.000
 70
    32
  0
VERTEX
  8
E18LXLIFT
 62
3
 10
-159.845
 20
-1149.790
 30
3464.000
 70
    32
  0
VERTEX
  8
E18LXLIFT
 62
3
 10
-153.963
 20
-1160.413
 30
3464.000
 70
    32
  0
VERTEX
  8
E18LXLIFT
 62
3
 10
-157.728
 20
-1167.552
 30
3464.000
 70
    32
  0
VERTEX
  8
E18LXLIFT
 62
3
 10
-153.261
 20
-1176.049
 30
3464.000
 70
    32
  0
VERTEX
  8
E18LXLIFT
 62
3
 10
-150.538
 20
-1182.870
 30
3464.000
 70
    32
  0
VERTEX
  8
E18LXLIFT
 62
3
 10
-153.688
 20
-1195.852
 30
3464.000
 70
    32
  0
VERTEX
  8
E18LXLIFT
 62
3
 10
-155.123
 20
-1206.846
 30
3464.000
 70
    32
  0
VERTEX
  8
E18LXLIFT
 62
3
 10
-148.489
 20
-1207.940
 30
3464.000
 70
    32
  0
VERTEX
  8
E18LXLIFT
 62
3
 10
-145.628
 20
-1211.630
 30
3464.000
 70
    32
  0
SEQEND
  8
E18LXLIFT
  0
POLYLINE
  8
E18LXLIFT
 62
13
 66
     1
 70
     9
  0
VERTEX
  8
E18LXLIFT
 62
13
 10
126.434
 20
-1423.880
 30
3473.000
 70
    32
  0
VERTEX
  8
E18LXLIFT
 62
13
 10
114.366
 20
-1428.956
 30
3473.000
 70
    32
  0
VERTEX
  8
E18LXLIFT
 62
13
 10
104.157
 20
-1431.184
 30
3473.000
 70
    32
  0
VERTEX
  8
E18LXLIFT
 62
13
 10
98.693
 20
-1419.936
 30
3473.000
 70
    32
  0
VERTEX
  8
E18LXLIFT
 62
13
 10
93.741
 20
-1408.646
 30
3473.000
 70
    32
  0
VERTEX
  8
E18LXLIFT
 62
13
 10
93.473
 20
-1401.472
 30
3473.000
 70
    32
  0
VERTEX
  8
E18LXLIFT
 62
13
 10
87.997
 20
-1394.891
 30
3473.000
 70
    32
  0
VERTEX
  8
E18LXLIFT
 62
13
 10
83.356
 20
-1392.044
 30
3473.000
 70
    32
  0
VERTEX
  8
E18LXLIFT
 62
13
 10
82.008
 20
-1399.834
 30
3473.000
 70
    32
  0
VERTEX
  8
E18LXLIFT
 62
13
 10
84.880
 20
-1409.582
 30
3473.000
 70
    32
  0
VERTEX
  8
E18LXLIFT
 62
13
 10
85.694
 20
-1412.682
 30
3473.000
 70
    32
  0
VERTEX
  8
E18LXLIFT
 62
13
 10
84.116
 20
-1417.279
 30
3473.000
 70
    32
  0
VERTEX
  8
E18LXLIFT
 62
13
 10
88.317
 20
-1426.616
 30
3473.000
 70
    32
  0
VERTEX
  8
E18LXLIFT
 62
13
 10
93.908
 20
-1434.415
 30
3473.000
 70
    32
  0
VERTEX
  8
E18LXLIFT
 62
13
 10
99.018
 20
-1442.450
 30
3473.000
 70
    32
  0
VERTEX
  8
E18LXLIFT
 62
13
 10
97.353
 20
-1450.251
 30
3473.000
 70
    32
  0
VERTEX
  8
E18LXLIFT
 62
13
 10
99.010
 20
-1455.887
 30
3473.000
 70
    32
  0
VERTEX
  8
E18LXLIFT
 62
13
 10
95.594
 20
-1463.210
 30
3473.000
 70
    32
  0
VERTEX
  8
E18LXLIFT
 62
13
 10
87.191
 20
-1462.518
 30
3473.000
 70
    32
  0
VERTEX
  8
E18LXLIFT
 62
13
 10
79.156
 20
-1461.887
 30
3473.000
 70
    32
  0
VERTEX
  8
E18LXLIFT
 62
13
 10
78.267
 20
-1456.567
 30
3473.000
 70
    32
  0
VERTEX
  8
E18LXLIFT
 62
13
 10
70.675
 20
-1451.719
 30
3473.000
 70
    32
  0
VERTEX
  8
E18LXLIFT
 62
13
 10
62.385
 20
-1444.989
 30
3473.000
 70
    32
  0
VERTEX
  8
E18LXLIFT
 62
13
 10
61.642
 20
-1435.340
 30
3473.000
 70
    32
  0
VERTEX
  8
E18LXLIFT
 62
13
 10
60.160
 20
-1424.811
 30
3473.000
 70
    32
  0
VERTEX
  8
E18LXLIFT
 62
13
 10
56.599
 20
-1418.483
 30
3473.000
 70
    32
  0
VERTEX
  8
E18LXLIFT
 62
13
 10
46.063
 20
-1421.919
 30
3473.000
 70
    32
  0
VERTEX
  8
E18LXLIFT
 62
13
 10
44.759
 20
-1407.256
 30
3473.000
 70
    32
  0
VERTEX
  8
E18LXLIFT
 62
13
 10
37.887
 20
-1398.425
 30
3473.000
 70
    32
  0
VERTEX
  8
E18LXLIFT
 62
13
 10
29.290
 20
-1392.023
 30
3473.000
 70
    32
  0
VERTEX
  8
E18LXLIFT
 62
13
 10
23.088
 20
-1385.637
 30
3473.000
 70
    32
  0
VERTEX
  8
E18LXLIFT
 62
13
 10
12.642
 20
-1375.145
 30
3473.000
 70
    32
  0
VERTEX
  8
E18LXLIFT
 62
13
 10
17.482
 20
-1368.751
 30
3473.000
 70
    32
  0
VERTEX
  8
E18LXLIFT
 62
13
 10
20.516
 20
-1359.535
 30
3473.000
 70
    32
  0
VERTEX
  8
E18LXLIFT
 62
13
 10
14.208
 20
-1351.492
 30
3473.000
 70
    32
  0
VERTEX
  8
E18LXLIFT
 62
13
 10
16.556
 20
-1347.967
 30
3473.000
 70
    32
  0
VERTEX
  8
E18LXLIFT
 62
13
 10
12.268
 20
-1341.834
 30
3473.000
 70
    32
  0
VERTEX
  8
E18LXLIFT
 62
13
 10
16.301
 20
-1336.127
 30
3473.000
 70
    32
  0
VERTEX
  8
E18LXLIFT
 62
13
 10
24.046
 20
-1328.950
 30
3473.000
 70
    32
  0
VERTEX
  8
E18LXLIFT
 62
13
 10
29.135
 20
-1324.868
 30
3473.000
 70
    32
  0
VERTEX
  8
E18LXLIFT
 62
13
 10
32.919
 20
-1329.088
 30
3473.000
 70
    32
  0
VERTEX
  8
E18LXLIFT
 62
13
 10
41.031
 20
-1344.937
 30
3473.000
 70
    32
  0
VERTEX
  8
E18LXLIFT
 62
13
 10
45.008
 20
-1354.868
 30
3473.000
 70
    32
  0
VERTEX
  8
E18LXLIFT
 62
13
 10
50.732
 20
-1363.004
 30
3473.000
 70
    32
  0
VERTEX
  8
E18LXLIFT
 62
13
 10
55.913
 20
-1370.231
 30
3473.000
 70
    32
  0
VERTEX
  8
E18LXLIFT
 62
13
 10
62.082
 20
-1369.166
 30
3473.000
 70
    32
  0
VERTEX
  8
E18LXLIFT
 62
13
 10
67.730
 20
-1368.583
 30
3473.000
 70
    32
  0
VERTEX
  8
E18LXLIFT
 62
13
 10
74.351
 20
-1374.344
 30
3473.000
 70
    32
  0
VERTEX
  8
E18LXLIFT
 62
13
 10
80.622
 20
-1379.164
 30
3473.000
 70
    32
  0
VERTEX
  8
E18LXLIFT
 62
13
 10
84.440
 20
-1379.352
 30
3473.000
 70
    32
  0
VERTEX
  8
E18LXLIFT
 62
13
 10
86.191
 20
-1374.089
 30
3473.000
 70
    32
  0
VERTEX
  8
E18LXLIFT
 62
13
 10
83.291
 20
-1365.661
 30
3473.000
 70
    32
  0
VERTEX
  8
E18LXLIFT
 62
13
 10
73.531
 20
-1355.218
 30
3473.000
 70
    32
  0
VERTEX
  8
E18LXLIFT
 62
13
 10
64.702
 20
-1344.866
 30
3473.000
 70
    32
  0
VERTEX
  8
E18LXLIFT
 62
13
 10
57.328
 20
-1335.638
 30
3473.000
 70
    32
  0
VERTEX
  8
E18LXLIFT
 62
13
 10
67.048
 20
-1328.345
 30
3473.000
 70
    32
  0
VERTEX
  8
E18LXLIFT
 62
13
 10
76.541
 20
-1325.872
 30
3473.000
 70
    32
  0
VERTEX
  8
E18LXLIFT
 62
13
 10
81.306
 20
-1329.497
 30
3473.000
 70
    32
  0
VERTEX
  8
E18LXLIFT
 62
13
 10
88.063
 20
-1337.110
 30
3473.000
 70
    32
  0
VERTEX
  8
E18LXLIFT
 62
13
 10
98.097
 20
-1346.273
 30
3473.000
 70
    32
  0
VERTEX
  8
E18LXLIFT
 62
13
 10
104.444
 20
-1353.313
 30
3473.000
 70
    32
  0
VERTEX
  8
E18LXLIFT
 62
13
 10
110.883
 20
-1360.180
 30
3473.000
 70
    32
  0
VERTEX
  8
E18LXLIFT
 62
13
 10
116.149
 20
-1369.944
 30
3473.000
 70
    32
  0
VERTEX
  8
E18LXLIFT
 62
13
 10
115.851
 20
-1381.315
 30
3473.000
 70
    32
  0
VERTEX
  8
E18LXLIFT
 62
13
 10
116.597
 20
-1392.479
 30
3473.000
 70
    32
  0
VERTEX
  8
E18LXLIFT
 62
13
 10
119.007
 20
-1401.583
 30
3473.000
 70
    32
  0
SEQEND
  8
E18LXLIFT
  0
POLYLINE
  8
E18LXLIFT
 62
1
 66
     1
 70
     9
  0
VERTEX
  8
E18LXLIFT
 62
1
 10
127.434
 20
-1422.880
 30
3483.000
 70
    32
  0
VERTEX
  8
E18LXLIFT
 62
1
 10
115.366
 20
-1427.956
 30
3483.000
 70
    32
  0
VERTEX
  8
E18LXLIFT
 62
1
 10
105.157
 20
-1430.184
 30
3483.000
 70
    32
  0
VERTEX
  8
E18LXLIFT
 62
1
 10
99.693
 20
-1418.936
 30
3483.000
 70
    32
  0
VERTEX
  8
E18LXLIFT
 62
1
 10
94.741
 20
-1407.646
 30
3483.000
 70
    32
  0
VERTEX
  8
E18LXLIFT
 62
1
 10
94.473
 20
-1400.472
 30
3483.000
 70
    32
  0
VERTEX
  8
E18LXLIFT
 62
1
 10
88.997
 20
-1393.891
 30
3483.000
 70
    32
  0
VERTEX
  8
E18LXLIFT
 62
1
 10
84.356
 20
-1391.044
 30
3483.000
 70
    32
  0
VERTEX
  8
E18LXLIFT
 62
1
 10
83.008
 20
-1398.834
 30
3483.000
 70
    32
  0
VERTEX
  8
E18LXLIFT
 62
1
 10
85.880
 20
-1408.582
 30
3483.000
 70
    32
  0
VERTEX
  8
E18LXLIFT
 62
1
 10
86.694
 20
-1411.682
 30
3483.000
 70
    32
  0
VERTEX
  8
E18LXLIFT
 62
1
 10
85.116
 20
-1416.279
 30
3483.000
 70
    32
  0
VERTEX
  8
E18LXLIFT
 62
1
 10
89.317
 20
-1425.616
 30
3483.000
 70
    32
  0
VERTEX
  8
E18LXLIFT
 62
1
 10
94.908
 20
-1433.415
 30
3483.000
 70
    32
  0
VERTEX
  8
E18LXLIFT
 62
1
 10
100.018
 20
-1441.450
 30
3483.000
 70
    32
  0
VERTEX
  8
E18LXLIFT
 62
1
 10
98.353
 20
-1449.251
 30
3483.000
 70
    32
  0
VERTEX
  8
E18LXLIFT
 62
1
 10
100.010
 20
-1454.887
 30
3483.000
 70
    32
  0
VERTEX
  8
E18LXLIFT
 62
1
 10
96.594
 20
-1462.210
 30
3483.000
 70
    32
  0
VERTEX
  8
E18LXLIFT
 62
1
 10
88.191
 20
-1461.518
 30
3483.000
 70
    32
  0
VERTEX
  8
E18LXLIFT
 62
1
 10
80.156
 20
-1460.887
 30
3483.000
 70
    32
  0
VERTEX
  8
E18LXLIFT
 62
1
 10
79.267
 20
-1455.567
 30
3483.000
 70
    32
  0
VERTEX
  8
E18LXLIFT
 62
1
 10
71.675
 20
-1450.719
 30
3483.000
 70
    32
  0
VERTEX
  8
E18LXLIFT
 62
1
 10
63.385
 20
-1443.989
 30
3483.000
 70
    32
  0
VERTEX
  8
E18LXLIFT
 62
1
 10
62.642
 20
-1434.340
 30
3483.000
 70
    32
  0
VERTEX
  8
E18LXLIFT
 62
1
 10
61.160
 20
-1423.811
 30
3483.000
 70
    32
  0
VERTEX
  8
E18LXLIFT
 62
1
 10
57.599
 20
-1417.483
 30
3483.000
 70
    32
  0
VERTEX
  8
E18LXLIFT
 62
1
 10
47.063
 20
-1420.919
 30
3483.000
 70
    32
  0
VERTEX
  8
E18LXLIFT
 62
1
 10
45.759
 20
-1406.256
 30
3483.000
 70
    32
  0
VERTEX
  8
E18LXLIFT
 62
1
 10
38.887
 20
-1397.425
 30
3483.000
 70
    32
  0
VERTEX
  8
E18LXLIFT
 62
1
 10
30.290
 20
-1391.023
 30
3483.000
 70
    32
  0
VERTEX
  8
E18LXLIFT
 62
1
 10
24.088
 20
-1384.637
 30
3483.000
 70
    32
  0
VERTEX
  8
E18LXLIFT
 62
1
 10
13.642
 20
-1374.145
 30
3483.000
 70
    32
  0
VERTEX
  8
E18LXLIFT
 62
1
 10
18.482
 20
-1367.751
 30
3483.000
 70
    32
  0
VERTEX
  8
E18LXLIFT
 62
1
 10
21.516
 20
-1358.535
 30
3483.000
 70
    32
  0
VERTEX
  8
E18LXLIFT
 62
1
 10
15.208
 20
-1350.492
 30
3483.000
 70
    32
  0
VERTEX
  8
E18LXLIFT
 62
1
 10
17.556
 20
-1346.967
 30
3483.000
 70
    32
  0
VERTEX
  8
E18LXLIFT
 62
1
 10
13.268
 20
-1340.834
 30
3483.000
 70
    32
  0
VERTEX
  8
E18LXLIFT
 62
1
 10
17.301
 20
-1335.127
 30
3483.000
 70
    32
  0
VERTEX
  8
E18LXLIFT
 62
1
 10
25.046
 20
-1327.950
 30
3483.000
 70
    32
  0
VERTEX
  8
E18LXLIFT
 62
1
 10
30.135
 20
-1323.868
 30
3483.000
 70
    32
  0
VERTEX
  8
E18LXLIFT
 62
1
 10
33.919
 20
-1328.088
 30
3483.000
 70
    32
  0
VERTEX
  8
E18LXLIFT
 62
1
 10
42.031
 20
-1343.937
 30
3483.000
 70
    32
  0
VERTEX
  8
E18LXLIFT
 62
1
 10
46.008
 20
-1353.868
 30
3483.000
 70
    32
  0
VERTEX
  8
E18LXLIFT
 62
1
 10
51.732
 20
-1362.004
 30
3483.000
 70
    32
  0
VERTEX
  8
E18LXLIFT
 62
1
 10
56.913
 20
-1369.231
 30
3483.000
 70
    32
  0
VERTEX
  8
E18LXLIFT
 62
1
 10
63.082
 20
-1368.166
 30
3483.000
 70
    32
  0
VERTEX
  8
E18LXLIFT
 62
1
 10
68.730
 20
-1367.583
 30
3483.000
 70
    32
  0
VERTEX
  8
E18LXLIFT
 62
1
 10
75.351
 20
-1373.344
 30
3483.000
 70
    32
  0
VERTEX
  8
E18LXLIFT
 62
1
 10
81.622
 20
-1378.164
 30
3483.000
 70
    32
  0
VERTEX
  8
E18LXLIFT
 62
1
 10
85.440
 20
-1378.352
 30
3483.000
 70
    32
  0
VERTEX
  8
E18LXLIFT
 62
1
 10
87.191
 20
-1373.089
 30
3483.000
 70
    32
  0
VERTEX
  8
E18LXLIFT
 62
1
 10
84.291
 20
-1364.661
 30
3483.000
 70
    32
  0
VERTEX
  8
E18LXLIFT
 62
1
 10
74.531
 20
-1354.218
 30
3483.000
 70
    32
  0
VERTEX
  8
E18LXLIFT
 62
1
 10
65.702
 20
-1343.866
 30
3483.000
 70
    32
  0
VERTEX
  8
E18LXLIFT
 62
1
 10
58.328
 20
-1334.638
 30
3483.000
 70
    32
  0
VERTEX
  8
E18LXLIFT
 62
1
 10
68.048
 20
-1327.345
 30
3483.000
 70
    32
  0
VERTEX
  8
E18LXLIFT
 62
1
 10
77.541
 20
-1324.872
 30
3483.000
 70
    32
  0
VERTEX
  8
E18LXLIFT
 62
1
 10
82.306
 20
-1328.497
 30
3483.000
 70
    32
  0
VERTEX
  8
E18LXLIFT
 62
1
 10
89.063
 20
-1336.110
 30
3483.000
 70
    32
  0
VERTEX
  8
E18LXLIFT
 62
1
 10
99.097
 20
-1345.273
 30
3483.000
 70
    32
  0
VERTEX
  8
E18LXLIFT
 62
1
 10
105.444
 20
-1352.313
 30
3483.000
 70
    32
  0
VERTEX
  8
E18LXLIFT
 62
1
 10
111.883
 20
-1359.180
 30
3483.000
 70
    32
  0
VERTEX
  8
E18LXLIFT
 62
1
 10
117.149
 20
-1368.944
 30
3483.000
 70
    32
  0
VERTEX
  8
E18LXLIFT
 62
1
 10
116.851
 20
-1380.315
 30
3483.000
 70
    32
  0
VERTEX
  8
E18LXLIFT
 62
1
 10
117.597
 20
-1391.479
 30
3483.000
 70
    32
  0
VERTEX
  8
E18LXLIFT
 62
1
 10
120.007
 20
-1400.583
 30
3483.000
 70
    32
  0
SEQEND
  8
E18LXLIFT
  0
POLYLINE
  8
E18LXLIFT
 62
7
 66
     1
 70
     9
  0
VERTEX
  8
E18LXLIFT
 62
7
 10
9.013
 20
-1504.262
 30
3467.000
 70
    32
  0
VERTEX
  8
E18LXLIFT
 62
7
 10
15.644
 20
-1509.583
 30
3467.000
 70
    32
  0
VERTEX
  8
E18LXLIFT
 62
7
 10
27.245
 20
-1513.074
 30
3467.000
 70
    32
  0
VERTEX
  8
E18LXLIFT
 62
7
 10
36.966
 20
-1518.778
 30
3467.000
 70
    32
  0
VERTEX
  8
E18LXLIFT
 62
7
 10
44.345
 20
-1531.036
 30
3467.000
 70
    32
  0
VERTEX
  8
E18LXLIFT
 62
7
 10
52.774
 20
-1546.874
 30
3467.000
 70
    32
  0
VERTEX
  8
E18LXLIFT
 62
7
 10
59.377
 20
-1560.013
 30
3467.000
 70
    32
  0
VERTEX
  8
E18LXLIFT
 62
7
 10
62.331
 20
-1570.027
 30
3467.000
 70
    32
  0
VERTEX
  8
E18LXLIFT
 62
7
 10
64.915
 20
-1579.223
 30
3467.000
 70
    32
  0
VERTEX
  8
E18LXLIFT
 62
7
 10
67.933
 20
-1584.642
 30
3467.000
 70
    32
  0
VERTEX
  8
E18LXLIFT
 62
7
 10
75.322
 20
-1590.719
 30
3467.000
 70
    32
  0
VERTEX
  8
E18LXLIFT
 62
7
 10
82.161
 20
-1597.840
 30
3467.000
 70
    32
  0
VERTEX
  8
E18LXLIFT
 62
7
 10
84.054
 20
-1603.957
 30
3467.000
 70
    32
  0
VERTEX
  8
E18LXLIFT
 62
7
 10
81.139
 20
-1610.921
 30
3467.000
 70
    32
  0
VERTEX
  8
E18LXLIFT
 62
7
 10
84.447
 20
-1618.407
 30
3467.000
 70
    32
  0
VERTEX
  8
E18LXLIFT
 62
7
 10
80.632
 20
-1625.474
 30
3467.000
 70
    32
  0
VERTEX
  8
E18LXLIFT
 62
7
 10
84.280
 20
-1634.341
 30
3467.000
 70
    32
  0
VERTEX
  8
E18LXLIFT
 62
7
 10
86.424
 20
-1643.528
 30
3467.000
 70
    32
  0
VERTEX
  8
E18LXLIFT
 62
7
 10
82.309
 20
-1648.969
 30
3467.000
 70
    32
  0
VERTEX
  8
E18LXLIFT
 62
7
 10
83.442
 20
-1659.313
 30
3467.000
 70
    32
  0
VERTEX
  8
E18LXLIFT
 62
7
 10
83.679
 20
-1666.293
 30
3467.000
 70
    32
  0
VERTEX
  8
E18LXLIFT
 62
7
 10
79.197
 20
-1672.430
 30
3467.000
 70
    32
  0
VERTEX
  8
E18LXLIFT
 62
7
 10
79.782
 20
-1679.593
 30
3467.000
 70
    32
  0
VERTEX
  8
E18LXLIFT
 62
7
 10
78.635
 20
-1685.398
 30
3467.000
 70
    32
  0
VERTEX
  8
E18LXLIFT
 62
7
 10
76.298
 20
-1689.239
 30
3467.000
 70
    32
  0
VERTEX
  8
E18LXLIFT
 62
7
 10
77.625
 20
-1705.294
 30
3467.000
 70
    32
  0
VERTEX
  8
E18LXLIFT
 62
7
 10
80.157
 20
-1719.402
 30
3467.000
 70
    32
  0
VERTEX
  8
E18LXLIFT
 62
7
 10
83.806
 20
-1734.768
 30
3467.000
 70
    32
  0
VERTEX
  8
E18LXLIFT
 62
7
 10
88.644
 20
-1751.338
 30
3467.000
 70
    32
  0
VERTEX
  8
E18LXLIFT
 62
7
 10
91.591
 20
-1763.307
 30
3467.000
 70
    32
  0
VERTEX
  8
E18LXLIFT
 62
7
 10
95.355
 20
-1774.149
 30
3467.000
 70
    32
  0
VERTEX
  8
E18LXLIFT
 62
7
 10
88.740
 20
-1777.916
 30
3467.000
 70
    32
  0
VERTEX
  8
E18LXLIFT
 62
7
 10
80.615
 20
-1778.216
 30
3467.000
 70
    32
  0
VERTEX
  8
E18LXLIFT
 62
7
 10
70.768
 20
-1777.476
 30
3467.000
 70
    32
  0
VERTEX
  8
E18LXLIFT
 62
7
 10
65.060
 20
-1760.446
 30
3467.000
 70
    32
  0
VERTEX
  8
E18LXLIFT
 62
7
 10
59.975
 20
-1743.077
 30
3467.000
 70
    32
  0
VERTEX
  8
E18LXLIFT
 62
7
 10
56.011
 20
-1729.237
 30
3467.000
 70
    32
  0
VERTEX
  8
E18LXLIFT
 62
7
 10
53.256
 20
-1715.723
 30
3467.000
 70
    32
  0
VERTEX
  8
E18LXLIFT
 62
7
 10
45.702
 20
-1709.114
 30
3467.000
 70
    32
  0
VERTEX
  8
E18LXLIFT
 62
7
 10
42.124
 20
-1699.439
 30
3467.000
 70
    32
  0
VERTEX
  8
E18LXLIFT
 62
7
 10
38.739
 20
-1694.717
 30
3467.000
 70
    32
  0
VERTEX
  8
E18LXLIFT
 62
7
 10
39.279
 20
-1687.614
 30
3467.000
 70
    32
  0
VERTEX
  8
E18LXLIFT
 62
7
 10
31.650
 20
-1678.784
 30
3467.000
 70
    32
  0
VERTEX
  8
E18LXLIFT
 62
7
 10
32.247
 20
-1668.283
 30
3467.000
 70
    32
  0
VERTEX
  8
E18LXLIFT
 62
7
 10
26.764
 20
-1652.174
 30
3467.000
 70
    32
  0
VERTEX
  8
E18LXLIFT
 62
7
 10
28.189
 20
-1635.122
 30
3467.000
 70
    32
  0
VERTEX
  8
E18LXLIFT
 62
7
 10
30.548
 20
-1620.432
 30
3467.000
 70
    32
  0
VERTEX
  8
E18LXLIFT
 62
7
 10
24.496
 20
-1611.989
 30
3467.000
 70
    32
  0
VERTEX
  8
E18LXLIFT
 62
7
 10
22.243
 20
-1593.132
 30
3467.000
 70
    32
  0
VERTEX
  8
E18LXLIFT
 62
7
 10
24.419
 20
-1578.791
 30
3467.000
 70
    32
  0
VERTEX
  8
E18LXLIFT
 62
7
 10
19.938
 20
-1567.705
 30
3467.000
 70
    32
  0
VERTEX
  8
E18LXLIFT
 62
7
 10
17.104
 20
-1556.196
 30
3467.000
 70
    32
  0
VERTEX
  8
E18LXLIFT
 62
7
 10
3.544
 20
-1538.187
 30
3467.000
 70
    32
  0
VERTEX
  8
E18LXLIFT
 62
7
 10
-10.023
 20
-1515.634
 30
3467.000
 70
    32
  0
SEQEND
  8
E18LXLIFT
  0
POLYLINE
  8
E18LXLIFT
 62
7
 66
     1
 70
     9
  0
VERTEX
  8
E18LXLIFT
 62
7
 10
32.027
 20
-1593.917
 30
3497.000
 70
    32
  0
VERTEX
  8
E18LXLIFT
 62
7
 10
37.477
 20
-1599.411
 30
3497.000
 70
    32
  0
VERTEX
  8
E18LXLIFT
 62
7
 10
40.269
 20
-1603.365
 30
3497.000
 70
    32
  0
VERTEX
  8
E18LXLIFT
 62
7
 10
36.137
 20
-1609.779
 30
3497.000
 70
    32
  0
VERTEX
  8
E18LXLIFT
 62
7
 10
35.848
 20
-1610.427
 30
3497.000
 70
    32
  0
VERTEX
  8
E18LXLIFT
 62
7
 10
33.466
 20
-1617.740
 30
3497.000
 70
    32
  0
VERTEX
  8
E18LXLIFT
 62
7
 10
36.496
 20
-1627.521
 30
3497.000
 70
    32
  0
VERTEX
  8
E18LXLIFT
 62
7
 10
40.963
 20
-1636.137
 30
3497.000
 70
    32
  0
VERTEX
  8
E18LXLIFT
 62
7
 10
45.146
 20
-1641.689
 30
3497.000
 70
    32
  0
VERTEX
  8
E18LXLIFT
 62
7
 10
48.415
 20
-1645.401
 30
3497.000
 70
    32
  0
VERTEX
  8
E18LXLIFT
 62
7
 10
46.842
 20
-1652.775
 30
3497.000
 70
    32
  0
VERTEX
  8
E18LXLIFT
 62
7
 10
47.767
 20
-1661.918
 30
3497.000
 70
    32
  0
VERTEX
  8
E18LXLIFT
 62
7
 10
53.737
 20
-1666.485
 30
3497.000
 70
    32
  0
VERTEX
  8
E18LXLIFT
 62
7
 10
59.644
 20
-1663.679
 30
3497.000
 70
    32
  0
VERTEX
  8
E18LXLIFT
 62
7
 10
66.024
 20
-1662.708
 30
3497.000
 70
    32
  0
VERTEX
  8
E18LXLIFT
 62
7
 10
68.329
 20
-1650.977
 30
3497.000
 70
    32
  0
VERTEX
  8
E18LXLIFT
 62
7
 10
67.701
 20
-1635.397
 30
3497.000
 70
    32
  0
VERTEX
  8
E18LXLIFT
 62
7
 10
69.807
 20
-1624.140
 30
3497.000
 70
    32
  0
VERTEX
  8
E18LXLIFT
 62
7
 10
73.673
 20
-1609.627
 30
3497.000
 70
    32
  0
VERTEX
  8
E18LXLIFT
 62
7
 10
70.785
 20
-1601.379
 30
3497.000
 70
    32
  0
VERTEX
  8
E18LXLIFT
 62
7
 10
67.737
 20
-1591.722
 30
3497.000
 70
    32
  0
VERTEX
  8
E18LXLIFT
 62
7
 10
58.482
 20
-1581.489
 30
3497.000
 70
    32
  0
VERTEX
  8
E18LXLIFT
 62
7
 10
54.819
 20
-1573.374
 30
3497.000
 70
    32
  0
VERTEX
  8
E18LXLIFT
 62
7
 10
49.828
 20
-1567.761
 30
3497.000
 70
    32
  0
VERTEX
  8
E18LXLIFT
 62
7
 10
42.865
 20
-1565.558
 30
3497.000
 70
    32
  0
VERTEX
  8
E18LXLIFT
 62
7
 10
42.314
 20
-1574.474
 30
3497.000
 70
    32
  0
VERTEX
  8
E18LXLIFT
 62
7
 10
45.783
 20
-1580.986
 30
3497.000
 70
    32
  0
VERTEX
  8
E18LXLIFT
 62
7
 10
45.093
 20
-1586.293
 30
3497.000
 70
    32
  0
VERTEX
  8
E18LXLIFT
 62
7
 10
38.046
 20
-1587.099
 30
3497.000
 70
    32
  0
SEQEND
  8
E18LXLIFT
  0
POLYLINE
  8
E18LXLIFT
 62
1
 66
     1
 70
     9
  0
VERTEX
  8
E18LXLIFT
 62
1
 10
39.046
 20
-1586.099
 30
3507.000
 70
    32
  0
VERTEX
  8
E18LXLIFT
 62
1
 10
46.093
 20
-1585.293
 30
3507.000
 70
    32
  0
VERTEX
  8
E18LXLIFT
 62
1
 10
46.783
 20
-1579.986
 30
3507.000
 70
    32
  0
VERTEX
  8
E18LXLIFT
 62
1
 10
43.314
 20
-1573.474
 30
3507.000
 70
    32
  0
VERTEX
  8
E18LXLIFT
 62
1
 10
43.865
 20
-1564.558
 30
3507.000
 70
    32
  0
VERTEX
  8
E18LXLIFT
 62
1
 10
50.828
 20
-1566.761
 30
3507.000
 70
    32
  0
VERTEX
  8
E18LXLIFT
 62
1
 10
55.819
 20
-1572.374
 30
3507.000
 70
    32
  0
VERTEX
  8
E18LXLIFT
 62
1
 10
59.482
 20
-1580.489
 30
3507.000
 70
    32
  0
VERTEX
  8
E18LXLIFT
 62
1
 10
68.737
 20
-1590.722
 30
3507.000
 70
    32
  0
VERTEX
  8
E18LXLIFT
 62
1
 10
71.785
 20
-1600.379
 30
3507.000
 70
    32
  0
VERTEX
  8
E18LXLIFT
 62
1
 10
74.673
 20
-1608.627
 30
3507.000
 70
    32
  0
VERTEX
  8
E18LXLIFT
 62
1
 10
70.807
 20
-1623.140
 30
3507.000
 70
    32
  0
VERTEX
  8
E18LXLIFT
 62
1
 10
68.701
 20
-1634.397
 30
3507.000
 70
    32
  0
VERTEX
  8
E18LXLIFT
 62
1
 10
69.329
 20
-1649.977
 30
3507.000
 70
    32
  0
VERTEX
  8
E18LXLIFT
 62
1
 10
67.024
 20
-1661.708
 30
3507.000
 70
    32
  0
VERTEX
  8
E18LXLIFT
 62
1
 10
60.644
 20
-1662.679
 30
3507.000
 70
    32
  0
VERTEX
  8
E18LXLIFT
 62
1
 10
54.737
 20
-1665.485
 30
3507.000
 70
    32
  0
VERTEX
  8
E18LXLIFT
 62
1
 10
48.767
 20
-1660.918
 30
3507.000
 70
    32
  0
VERTEX
  8
E18LXLIFT
 62
1
 10
47.842
 20
-1651.775
 30
3507.000
 70
    32
  0
VERTEX
  8
E18LXLIFT
 62
1
 10
49.415
 20
-1644.401
 30
3507.000
 70
    32
  0
VERTEX
  8
E18LXLIFT
 62
1
 10
46.146
 20
-1640.689
 30
3507.000
 70
    32
  0
VERTEX
  8
E18LXLIFT
 62
1
 10
41.963
 20
-1635.137
 30
3507.000
 70
    32
  0
VERTEX
  8
E18LXLIFT
 62
1
 10
37.496
 20
-1626.521
 30
3507.000
 70
    32
  0
VERTEX
  8
E18LXLIFT
 62
1
 10
34.466
 20
-1616.740
 30
3507.000
 70
    32
  0
VERTEX
  8
E18LXLIFT
 62
1
 10
36.848
 20
-1609.427
 30
3507.000
 70
    32
  0
VERTEX
  8
E18LXLIFT
 62
1
 10
37.137
 20
-1608.779
 30
3507.000
 70
    32
  0
VERTEX
  8
E18LXLIFT
 62
1
 10
41.269
 20
-1602.365
 30
3507.000
 70
    32
  0
VERTEX
  8
E18LXLIFT
 62
1
 10
38.477
 20
-1598.411
 30
3507.000
 70
    32
  0
VERTEX
  8
E18LXLIFT
 62
1
 10
33.027
 20
-1592.917
 30
3507.000
 70
    32
  0
SEQEND
  8
E18LXLIFT
  0
POLYLINE
  8
E18LXLIFT
 62
1
 66
     1
 70
     9
  0
VERTEX
  8
E18LXLIFT
 62
1
 10
221.365
 20
-1594.232
 30
3457.000
 70
    32
  0
VERTEX
  8
E18LXLIFT
 62
1
 10
211.075
 20
-1591.759
 30
3457.000
 70
    32
  0
VERTEX
  8
E18LXLIFT
 62
1
 10
202.906
 20
-1586.538
 30
3457.000
 70
    32
  0
VERTEX
  8
E18LXLIFT
 62
1
 10
202.277
 20
-1574.386
 30
3457.000
 70
    32
  0
VERTEX
  8
E18LXLIFT
 62
1
 10
202.860
 20
-1559.283
 30
3457.000
 70
    32
  0
VERTEX
  8
E18LXLIFT
 62
1
 10
199.572
 20
-1546.468
 30
3457.000
 70
    32
  0
VERTEX
  8
E18LXLIFT
 62
1
 10
195.047
 20
-1529.883
 30
3457.000
 70
    32
  0
VERTEX
  8
E18LXLIFT
 62
1
 10
191.875
 20
-1510.243
 30
3457.000
 70
    32
  0
VERTEX
  8
E18LXLIFT
 62
1
 10
185.901
 20
-1494.501
 30
3457.000
 70
    32
  0
VERTEX
  8
E18LXLIFT
 62
1
 10
178.311
 20
-1477.441
 30
3457.000
 70
    32
  0
VERTEX
  8
E18LXLIFT
 62
1
 10
171.282
 20
-1460.405
 30
3457.000
 70
    32
  0
VERTEX
  8
E18LXLIFT
 62
1
 10
170.035
 20
-1448.597
 30
3457.000
 70
    32
  0
VERTEX
  8
E18LXLIFT
 62
1
 10
172.614
 20
-1445.732
 30
3457.000
 70
    32
  0
VERTEX
  8
E18LXLIFT
 62
1
 10
177.971
 20
-1451.271
 30
3457.000
 70
    32
  0
VERTEX
  8
E18LXLIFT
 62
1
 10
183.888
 20
-1462.923
 30
3457.000
 70
    32
  0
VERTEX
  8
E18LXLIFT
 62
1
 10
193.374
 20
-1475.443
 30
3457.000
 70
    32
  0
VERTEX
  8
E18LXLIFT
 62
1
 10
194.588
 20
-1487.057
 30
3457.000
 70
    32
  0
VERTEX
  8
E18LXLIFT
 62
1
 10
195.609
 20
-1498.705
 30
3457.000
 70
    32
  0
VERTEX
  8
E18LXLIFT
 62
1
 10
201.363
 20
-1512.215
 30
3457.000
 70
    32
  0
VERTEX
  8
E18LXLIFT
 62
1
 10
205.454
 20
-1523.899
 30
3457.000
 70
    32
  0
VERTEX
  8
E18LXLIFT
 62
1
 10
208.654
 20
-1535.256
 30
3457.000
 70
    32
  0
VERTEX
  8
E18LXLIFT
 62
1
 10
216.238
 20
-1549.930
 30
3457.000
 70
    32
  0
VERTEX
  8
E18LXLIFT
 62
1
 10
224.146
 20
-1560.886
 30
3457.000
 70
    32
  0
VERTEX
  8
E18LXLIFT
 62
1
 10
229.377
 20
-1569.670
 30
3457.000
 70
    32
  0
VERTEX
  8
E18LXLIFT
 62
1
 10
232.224
 20
-1588.569
 30
3457.000
 70
    32
  0
SEQEND
  8
E18LXLIFT
  0
POLYLINE
  8
E18LXLIFT
 62
1
 66
     1
 70
     9
  0
VERTEX
  8
E18LXLIFT
 62
1
 10
140.727
 20
-1386.889
 30
3419.000
 70
    32
  0
VERTEX
  8
E18LXLIFT
 62
1
 10
144.043
 20
-1391.761
 30
3419.000
 70
    32
  0
VERTEX
  8
E18LXLIFT
 62
1
 10
140.845
 20
-1396.036
 30
3419.000
 70
    32
  0
VERTEX
  8
E18LXLIFT
 62
1
 10
135.875
 20
-1399.967
 30
3419.000
 70
    32
  0
VERTEX
  8
E18LXLIFT
 62
1
 10
132.644
 20
-1404.049
 30
3419.000
 70
    32
  0
VERTEX
  8
E18LXLIFT
 62
1
 10
131.790
 20
-1410.209
 30
3419.000
 70
    32
  0
VERTEX
  8
E18LXLIFT
 62
1
 10
130.109
 20
-1415.229
 30
3419.000
 70
    32
  0
VERTEX
  8
E18LXLIFT
 62
1
 10
124.407
 20
-1420.995
 30
3419.000
 70
    32
  0
VERTEX
  8
E18LXLIFT
 62
1
 10
119.423
 20
-1425.805
 30
3419.000
 70
    32
  0
VERTEX
  8
E18LXLIFT
 62
1
 10
117.303
 20
-1430.819
 30
3419.000
 70
    32
  0
VERTEX
  8
E18LXLIFT
 62
1
 10
110.567
 20
-1436.357
 30
3419.000
 70
    32
  0
VERTEX
  8
E18LXLIFT
 62
1
 10
106.670
 20
-1430.386
 30
3419.000
 70
    32
  0
VERTEX
  8
E18LXLIFT
 62
1
 10
110.683
 20
-1425.736
 30
3419.000
 70
    32
  0
VERTEX
  8
E18LXLIFT
 62
1
 10
114.499
 20
-1419.167
 30
3419.000
 70
    32
  0
VERTEX
  8
E18LXLIFT
 62
1
 10
117.712
 20
-1414.012
 30
3419.000
 70
    32
  0
VERTEX
  8
E18LXLIFT
 62
1
 10
113.312
 20
-1411.989
 30
3419.000
 70
    32
  0
VERTEX
  8
E18LXLIFT
 62
1
 10
111.544
 20
-1409.253
 30
3419.000
 70
    32
  0
VERTEX
  8
E18LXLIFT
 62
1
 10
116.039
 20
-1407.513
 30
3419.000
 70
    32
  0
VERTEX
  8
E18LXLIFT
 62
1
 10
121.398
 20
-1402.322
 30
3419.000
 70
    32
  0
VERTEX
  8
E18LXLIFT
 62
1
 10
125.440
 20
-1395.914
 30
3419.000
 70
    32
  0
VERTEX
  8
E18LXLIFT
 62
1
 10
126.876
 20
-1389.658
 30
3419.000
 70
    32
  0
VERTEX
  8
E18LXLIFT
 62
1
 10
127.058
 20
-1383.769
 30
3419.000
 70
    32
  0
VERTEX
  8
E18LXLIFT
 62
1
 10
129.821
 20
-1381.439
 30
3419.000
 70
    32
  0
SEQEND
  8
E18LXLIFT
  0
POLYLINE
  8
E18LXLIFT
 62
3
 66
     1
 70
     9
  0
VERTEX
  8
E18LXLIFT
 62
3
 10
-2436.952
 20
682.781
 30
3380.000
 70
    32
  0
VERTEX
  8
E18LXLIFT
 62
3
 10
-2443.473
 20
692.940
 30
3380.000
 70
    32
  0
VERTEX
  8
E18LXLIFT
 62
3
 10
-2446.794
 20
700.543
 30
3380.000
 70
    32
  0
VERTEX
  8
E18LXLIFT
 62
3
 10
-2451.659
 20
706.241
 30
3380.000
 70
    32
  0
VERTEX
  8
E18LXLIFT
 62
3
 10
-2457.000
 20
714.210
 30
3380.000
 70
    32
  0
VERTEX
  8
E18LXLIFT
 62
3
 10
-2458.815
 20
720.959
 30
3380.000
 70
    32
  0
VERTEX
  8
E18LXLIFT
 62
3
 10
-2462.883
 20
727.354
 30
3380.000
 70
    32
  0
VERTEX
  8
E18LXLIFT
 62
3
 10
-2469.864
 20
732.364
 30
3380.000
 70
    32
  0
VERTEX
  8
E18LXLIFT
 62
3
 10
-2470.308
 20
739.032
 30
3380.000
 70
    32
  0
VERTEX
  8
E18LXLIFT
 62
3
 10
-2470.684
 20
747.827
 30
3380.000
 70
    32
  0
VERTEX
  8
E18LXLIFT
 62
3
 10
-2472.314
 20
755.805
 30
3380.000
 70
    32
  0
VERTEX
  8
E18LXLIFT
 62
3
 10
-2463.580
 20
757.447
 30
3380.000
 70
    32
  0
VERTEX
  8
E18LXLIFT
 62
3
 10
-2460.737
 20
754.191
 30
3380.000
 70
    32
  0
VERTEX
  8
E18LXLIFT
 62
3
 10
-2457.284
 20
745.373
 30
3380.000
 70
    32
  0
VERTEX
  8
E18LXLIFT
 62
3
 10
-2452.266
 20
736.509
 30
3380.000
 70
    32
  0
VERTEX
  8
E18LXLIFT
 62
3
 10
-2445.752
 20
735.090
 30
3380.000
 70
    32
  0
VERTEX
  8
E18LXLIFT
 62
3
 10
-2439.302
 20
737.013
 30
3380.000
 70
    32
  0
VERTEX
  8
E18LXLIFT
 62
3
 10
-2433.076
 20
742.050
 30
3380.000
 70
    32
  0
VERTEX
  8
E18LXLIFT
 62
3
 10
-2426.329
 20
748.455
 30
3380.000
 70
    32
  0
VERTEX
  8
E18LXLIFT
 62
3
 10
-2420.803
 20
756.364
 30
3380.000
 70
    32
  0
VERTEX
  8
E18LXLIFT
 62
3
 10
-2413.601
 20
764.963
 30
3380.000
 70
    32
  0
VERTEX
  8
E18LXLIFT
 62
3
 10
-2408.518
 20
772.435
 30
3380.000
 70
    32
  0
VERTEX
  8
E18LXLIFT
 62
3
 10
-2403.716
 20
772.594
 30
3380.000
 70
    32
  0
VERTEX
  8
E18LXLIFT
 62
3
 10
-2399.316
 20
775.516
 30
3380.000
 70
    32
  0
VERTEX
  8
E18LXLIFT
 62
3
 10
-2392.875
 20
778.635
 30
3380.000
 70
    32
  0
VERTEX
  8
E18LXLIFT
 62
3
 10
-2389.340
 20
776.218
 30
3380.000
 70
    32
  0
VERTEX
  8
E18LXLIFT
 62
3
 10
-2381.127
 20
768.948
 30
3380.000
 70
    32
  0
VERTEX
  8
E18LXLIFT
 62
3
 10
-2380.735
 20
764.866
 30
3380.000
 70
    32
  0
VERTEX
  8
E18LXLIFT
 62
3
 10
-2376.217
 20
759.786
 30
3380.000
 70
    32
  0
VERTEX
  8
E18LXLIFT
 62
3
 10
-2378.552
 20
753.033
 30
3380.000
 70
    32
  0
VERTEX
  8
E18LXLIFT
 62
3
 10
-2383.264
 20
745.945
 30
3380.000
 70
    32
  0
VERTEX
  8
E18LXLIFT
 62
3
 10
-2388.579
 20
745.298
 30
3380.000
 70
    32
  0
VERTEX
  8
E18LXLIFT
 62
3
 10
-2394.024
 20
743.790
 30
3380.000
 70
    32
  0
VERTEX
  8
E18LXLIFT
 62
3
 10
-2398.796
 20
737.968
 30
3380.000
 70
    32
  0
VERTEX
  8
E18LXLIFT
 62
3
 10
-2399.235
 20
728.352
 30
3380.000
 70
    32
  0
VERTEX
  8
E18LXLIFT
 62
3
 10
-2405.993
 20
727.733
 30
3380.000
 70
    32
  0
VERTEX
  8
E18LXLIFT
 62
3
 10
-2414.776
 20
726.601
 30
3380.000
 70
    32
  0
VERTEX
  8
E18LXLIFT
 62
3
 10
-2420.261
 20
724.407
 30
3380.000
 70
    32
  0
VERTEX
  8
E18LXLIFT
 62
3
 10
-2422.590
 20
716.018
 30
3380.000
 70
    32
  0
VERTEX
  8
E18LXLIFT
 62
3
 10
-2424.547
 20
698.395
 30
3380.000
 70
    32
  0
VERTEX
  8
E18LXLIFT
 62
3
 10
-2426.316
 20
679.925
 30
3380.000
 70
    32
  0
SEQEND
  8
E18LXLIFT
  0
POLYLINE
  8
E18LXLIFT
 62
6
 66
     1
 70
     9
  0
VERTEX
  8
E18LXLIFT
 62
6
 10
-2224.927
 20
600.702
 30
3417.000
 70
    32
  0
VERTEX
  8
E18LXLIFT
 62
6
 10
-2234.383
 20
614.261
 30
3417.000
 70
    32
  0
VERTEX
  8
E18LXLIFT
 62
6
 10
-2243.026
 20
627.335
 30
3417.000
 70
    32
  0
VERTEX
  8
E18LXLIFT
 62
6
 10
-2250.174
 20
638.014
 30
3417.000
 70
    32
  0
VERTEX
  8
E18LXLIFT
 62
6
 10
-2259.454
 20
647.288
 30
3417.000
 70
    32
  0
VERTEX
  8
E18LXLIFT
 62
6
 10
-2268.903
 20
644.612
 30
3417.000
 70
    32
  0
VERTEX
  8
E18LXLIFT
 62
6
 10
-2274.105
 20
646.943
 30
3417.000
 70
    32
  0
VERTEX
  8
E18LXLIFT
 62
6
 10
-2280.442
 20
650.617
 30
3417.000
 70
    32
  0
VERTEX
  8
E18LXLIFT
 62
6
 10
-2288.542
 20
661.675
 30
3417.000
 70
    32
  0
VERTEX
  8
E18LXLIFT
 62
6
 10
-2288.015
 20
668.374
 30
3417.000
 70
    32
  0
VERTEX
  8
E18LXLIFT
 62
6
 10
-2294.260
 20
673.665
 30
3417.000
 70
    32
  0
VERTEX
  8
E18LXLIFT
 62
6
 10
-2302.383
 20
676.641
 30
3417.000
 70
    32
  0
VERTEX
  8
E18LXLIFT
 62
6
 10
-2306.449
 20
684.146
 30
3417.000
 70
    32
  0
VERTEX
  8
E18LXLIFT
 62
6
 10
-2306.486
 20
693.177
 30
3417.000
 70
    32
  0
VERTEX
  8
E18LXLIFT
 62
6
 10
-2312.883
 20
697.800
 30
3417.000
 70
    32
  0
VERTEX
  8
E18LXLIFT
 62
6
 10
-2311.073
 20
708.901
 30
3417.000
 70
    32
  0
VERTEX
  8
E18LXLIFT
 62
6
 10
-2313.570
 20
720.144
 30
3417.000
 70
    32
  0
VERTEX
  8
E18LXLIFT
 62
6
 10
-2320.830
 20
729.521
 30
3417.000
 70
    32
  0
VERTEX
  8
E18LXLIFT
 62
6
 10
-2329.935
 20
741.028
 30
3417.000
 70
    32
  0
VERTEX
  8
E18LXLIFT
 62
6
 10
-2340.294
 20
748.817
 30
3417.000
 70
    32
  0
VERTEX
  8
E18LXLIFT
 62
6
 10
-2351.159
 20
751.911
 30
3417.000
 70
    32
  0
VERTEX
  8
E18LXLIFT
 62
6
 10
-2358.179
 20
757.496
 30
3417.000
 70
    32
  0
VERTEX
  8
E18LXLIFT
 62
6
 10
-2365.228
 20
762.394
 30
3417.000
 70
    32
  0
VERTEX
  8
E18LXLIFT
 62
6
 10
-2363.451
 20
770.930
 30
3417.000
 70
    32
  0
VERTEX
  8
E18LXLIFT
 62
6
 10
-2370.279
 20
778.870
 30
3417.000
 70
    32
  0
VERTEX
  8
E18LXLIFT
 62
6
 10
-2369.527
 20
788.171
 30
3417.000
 70
    32
  0
VERTEX
  8
E18LXLIFT
 62
6
 10
-2363.835
 20
792.732
 30
3417.000
 70
    32
  0
VERTEX
  8
E18LXLIFT
 62
6
 10
-2357.794
 20
788.721
 30
3417.000
 70
    32
  0
VERTEX
  8
E18LXLIFT
 62
6
 10
-2348.204
 20
786.865
 30
3417.000
 70
    32
  0
VERTEX
  8
E18LXLIFT
 62
6
 10
-2340.924
 20
788.328
 30
3417.000
 70
    32
  0
VERTEX
  8
E18LXLIFT
 62
6
 10
-2338.205
 20
780.127
 30
3417.000
 70
    32
  0
VERTEX
  8
E18LXLIFT
 62
6
 10
-2328.904
 20
768.218
 30
3417.000
 70
    32
  0
VERTEX
  8
E18LXLIFT
 62
6
 10
-2318.291
 20
754.878
 30
3417.000
 70
    32
  0
VERTEX
  8
E18LXLIFT
 62
6
 10
-2310.922
 20
740.722
 30
3417.000
 70
    32
  0
VERTEX
  8
E18LXLIFT
 62
6
 10
-2301.154
 20
727.622
 30
3417.000
 70
    32
  0
VERTEX
  8
E18LXLIFT
 62
6
 10
-2296.219
 20
716.803
 30
3417.000
 70
    32
  0
VERTEX
  8
E18LXLIFT
 62
6
 10
-2284.168
 20
703.896
 30
3417.000
 70
    32
  0
VERTEX
  8
E18LXLIFT
 62
6
 10
-2269.898
 20
690.252
 30
3417.000
 70
    32
  0
VERTEX
  8
E18LXLIFT
 62
6
 10
-2262.541
 20
679.733
 30
3417.000
 70
    32
  0
VERTEX
  8
E18LXLIFT
 62
6
 10
-2257.900
 20
675.096
 30
3417.000
 70
    32
  0
VERTEX
  8
E18LXLIFT
 62
6
 10
-2256.157
 20
665.710
 30
3417.000
 70
    32
  0
VERTEX
  8
E18LXLIFT
 62
6
 10
-2246.785
 20
653.854
 30
3417.000
 70
    32
  0
VERTEX
  8
E18LXLIFT
 62
6
 10
-2240.012
 20
648.303
 30
3417.000
 70
    32
  0
VERTEX
  8
E18LXLIFT
 62
6
 10
-2235.932
 20
639.041
 30
3417.000
 70
    32
  0
VERTEX
  8
E18LXLIFT
 62
6
 10
-2229.098
 20
632.541
 30
3417.000
 70
    32
  0
VERTEX
  8
E18LXLIFT
 62
6
 10
-2222.070
 20
621.440
 30
3417.000
 70
    32
  0
VERTEX
  8
E18LXLIFT
 62
6
 10
-2214.672
 20
610.289
 30
3417.000
 70
    32
  0
SEQEND
  8
E18LXLIFT
  0
POLYLINE
  8
E18LXLIFT
 62
1
 66
     1
 70
     9
  0
VERTEX
  8
E18LXLIFT
 62
1
 10
-2223.927
 20
601.702
 30
3427.000
 70
    32
  0
VERTEX
  8
E18LXLIFT
 62
1
 10
-2233.383
 20
615.261
 30
3427.000
 70
    32
  0
VERTEX
  8
E18LXLIFT
 62
1
 10
-2242.026
 20
628.335
 30
3427.000
 70
    32
  0
VERTEX
  8
E18LXLIFT
 62
1
 10
-2249.174
 20
639.014
 30
3427.000
 70
    32
  0
VERTEX
  8
E18LXLIFT
 62
1
 10
-2258.454
 20
648.288
 30
3427.000
 70
    32
  0
VERTEX
  8
E18LXLIFT
 62
1
 10
-2267.903
 20
645.612
 30
3427.000
 70
    32
  0
VERTEX
  8
E18LXLIFT
 62
1
 10
-2273.105
 20
647.943
 30
3427.000
 70
    32
  0
VERTEX
  8
E18LXLIFT
 62
1
 10
-2279.442
 20
651.617
 30
3427.000
 70
    32
  0
VERTEX
  8
E18LXLIFT
 62
1
 10
-2287.542
 20
662.675
 30
3427.000
 70
    32
  0
VERTEX
  8
E18LXLIFT
 62
1
 10
-2287.015
 20
669.374
 30
3427.000
 70
    32
  0
VERTEX
  8
E18LXLIFT
 62
1
 10
-2293.260
 20
674.665
 30
3427.000
 70
    32
  0
VERTEX
  8
E18LXLIFT
 62
1
 10
-2301.383
 20
677.641
 30
3427.000
 70
    32
  0
VERTEX
  8
E18LXLIFT
 62
1
 10
-2305.449
 20
685.146
 30
3427.000
 70
    32
  0
VERTEX
  8
E18LXLIFT
 62
1
 10
-2305.486
 20
694.177
 30
3427.000
 70
    32
  0
VERTEX
  8
E18LXLIFT
 62
1
 10
-2311.883
 20
698.800
 30
3427.000
 70
    32
  0
VERTEX
  8
E18LXLIFT
 62
1
 10
-2310.073
 20
709.901
 30
3427.000
 70
    32
  0
VERTEX
  8
E18LXLIFT
 62
1
 10
-2312.570
 20
721.144
 30
3427.000
 70
    32
  0
VERTEX
  8
E18LXLIFT
 62
1
 10
-2319.830
 20
730.521
 30
3427.000
 70
    32
  0
VERTEX
  8
E18LXLIFT
 62
1
 10
-2328.935
 20
742.028
 30
3427.000
 70
    32
  0
VERTEX
  8
E18LXLIFT
 62
1
 10
-2339.294
 20
749.817
 30
3427.000
 70
    32
  0
VERTEX
  8
E18LXLIFT
 62
1
 10
-2350.159
 20
752.911
 30
3427.000
 70
    32
  0
VERTEX
  8
E18LXLIFT
 62
1
 10
-2357.179
 20
758.496
 30
3427.000
 70
    32
  0
VERTEX
  8
E18LXLIFT
 62
1
 10
-2364.228
 20
763.394
 30
3427.000
 70
    32
  0
VERTEX
  8
E18LXLIFT
 62
1
 10
-2362.451
 20
771.930
 30
3427.000
 70
    32
  0
VERTEX
  8
E18LXLIFT
 62
1
 10
-2369.279
 20
779.870
 30
3427.000
 70
    32
  0
VERTEX
  8
E18LXLIFT
 62
1
 10
-2368.527
 20
789.171
 30
3427.000
 70
    32
  0
VERTEX
  8
E18LXLIFT
 62
1
 10
-2362.835
 20
793.732
 30
3427.000
 70
    32
  0
VERTEX
  8
E18LXLIFT
 62
1
 10
-2356.794
 20
789.721
 30
3427.000
 70
    32
  0
VERTEX
  8
E18LXLIFT
 62
1
 10
-2347.204
 20
787.865
 30
3427.000
 70
    32
  0
VERTEX
  8
E18LXLIFT
 62
1
 10
-2339.924
 20
789.328
 30
3427.000
 70
    32
  0
VERTEX
  8
E18LXLIFT
 62
1
 10
-2337.205
 20
781.127
 30
3427.000
 70
    32
  0
VERTEX
  8
E18LXLIFT
 62
1
 10
-2327.904
 20
769.218
 30
3427.000
 70
    32
  0
VERTEX
  8
E18LXLIFT
 62
1
 10
-2317.291
 20
755.878
 30
3427.000
 70
    32
  0
VERTEX
  8
E18LXLIFT
 62
1
 10
-2309.922
 20
741.722
 30
3427.000
 70
    32
  0
VERTEX
  8
E18LXLIFT
 62
1
 10
-2300.154
 20
728.622
 30
3427.000
 70
    32
  0
VERTEX
  8
E18LXLIFT
 62
1
 10
-2295.219
 20
717.803
 30
3427.000
 70
    32
  0
VERTEX
  8
E18LXLIFT
 62
1
 10
-2283.168
 20
704.896
 30
3427.000
 70
    32
  0
VERTEX
  8
E18LXLIFT
 62
1
 10
-2268.898
 20
691.252
 30
3427.000
 70
    32
  0
VERTEX
  8
E18LXLIFT
 62
1
 10
-2261.541
 20
680.733
 30
3427.000
 70
    32
  0
VERTEX
  8
E18LXLIFT
 62
1
 10
-2256.900
 20
676.096
 30
3427.000
 70
    32
  0
VERTEX
  8
E18LXLIFT
 62
1
 10
-2255.157
 20
666.710
 30
3427.000
 70
    32
  0
VERTEX
  8
E18LXLIFT
 62
1
 10
-2245.785
 20
654.854
 30
3427.000
 70
    32
  0
VERTEX
  8
E18LXLIFT
 62
1
 10
-2239.012
 20
649.303
 30
3427.000
 70
    32
  0
VERTEX
  8
E18LXLIFT
 62
1
 10
-2234.932
 20
640.041
 30
3427.000
 70
    32
  0
VERTEX
  8
E18LXLIFT
 62
1
 10
-2228.098
 20
633.541
 30
3427.000
 70
    32
  0
VERTEX
  8
E18LXLIFT
 62
1
 10
-2221.070
 20
622.440
 30
3427.000
 70
    32
  0
VERTEX
  8
E18LXLIFT
 62
1
 10
-2213.672
 20
611.289
 30
3427.000
 70
    32
  0
SEQEND
  8
E18LXLIFT
  0
POLYLINE
  8
E18LXLIFT
 62
13
 66
     1
 70
     9
  0
VERTEX
  8
E18LXLIFT
 62
13
 10
-2416.377
 20
644.880
 30
3430.000
 70
    32
  0
VERTEX
  8
E18LXLIFT
 62
13
 10
-2408.852
 20
651.261
 30
3430.000
 70
    32
  0
VERTEX
  8
E18LXLIFT
 62
13
 10
-2401.495
 20
653.708
 30
3430.000
 70
    32
  0
VERTEX
  8
E18LXLIFT
 62
13
 10
-2392.651
 20
655.610
 30
3430.000
 70
    32
  0
VERTEX
  8
E18LXLIFT
 62
13
 10
-2383.630
 20
660.692
 30
3430.000
 70
    32
  0
VERTEX
  8
E18LXLIFT
 62
13
 10
-2372.379
 20
659.456
 30
3430.000
 70
    32
  0
VERTEX
  8
E18LXLIFT
 62
13
 10
-2362.729
 20
658.028
 30
3430.000
 70
    32
  0
VERTEX
  8
E18LXLIFT
 62
13
 10
-2358.751
 20
652.446
 30
3430.000
 70
    32
  0
VERTEX
  8
E18LXLIFT
 62
13
 10
-2355.881
 20
642.132
 30
3430.000
 70
    32
  0
VERTEX
  8
E18LXLIFT
 62
13
 10
-2352.354
 20
632.408
 30
3430.000
 70
    32
  0
VERTEX
  8
E18LXLIFT
 62
13
 10
-2354.144
 20
624.889
 30
3430.000
 70
    32
  0
VERTEX
  8
E18LXLIFT
 62
13
 10
-2353.746
 20
619.735
 30
3430.000
 70
    32
  0
VERTEX
  8
E18LXLIFT
 62
13
 10
-2348.955
 20
608.433
 30
3430.000
 70
    32
  0
VERTEX
  8
E18LXLIFT
 62
13
 10
-2346.179
 20
599.139
 30
3430.000
 70
    32
  0
VERTEX
  8
E18LXLIFT
 62
13
 10
-2345.200
 20
592.450
 30
3430.000
 70
    32
  0
VERTEX
  8
E18LXLIFT
 62
13
 10
-2349.237
 20
588.295
 30
3430.000
 70
    32
  0
VERTEX
  8
E18LXLIFT
 62
13
 10
-2357.331
 20
585.962
 30
3430.000
 70
    32
  0
VERTEX
  8
E18LXLIFT
 62
13
 10
-2363.840
 20
586.968
 30
3430.000
 70
    32
  0
VERTEX
  8
E18LXLIFT
 62
13
 10
-2371.962
 20
591.367
 30
3430.000
 70
    32
  0
VERTEX
  8
E18LXLIFT
 62
13
 10
-2377.371
 20
597.861
 30
3430.000
 70
    32
  0
VERTEX
  8
E18LXLIFT
 62
13
 10
-2386.159
 20
602.425
 30
3430.000
 70
    32
  0
VERTEX
  8
E18LXLIFT
 62
13
 10
-2394.399
 20
605.648
 30
3430.000
 70
    32
  0
VERTEX
  8
E18LXLIFT
 62
13
 10
-2401.569
 20
614.992
 30
3430.000
 70
    32
  0
VERTEX
  8
E18LXLIFT
 62
13
 10
-2404.903
 20
623.114
 30
3430.000
 70
    32
  0
VERTEX
  8
E18LXLIFT
 62
13
 10
-2408.544
 20
632.101
 30
3430.000
 70
    32
  0
SEQEND
  8
E18LXLIFT
  0
POLYLINE
  8
E18LXLIFT
 62
6
 66
     1
 70
     9
  0
VERTEX
  8
E18LXLIFT
 62
6
 10
-2378.571
 20
760.389
 30
3501.000
 70
    32
  0
VERTEX
  8
E18LXLIFT
 62
6
 10
-2369.965
 20
756.491
 30
3501.000
 70
    32
  0
VERTEX
  8
E18LXLIFT
 62
6
 10
-2363.719
 20
751.932
 30
3501.000
 70
    32
  0
VERTEX
  8
E18LXLIFT
 62
6
 10
-2364.541
 20
742.877
 30
3501.000
 70
    32
  0
VERTEX
  8
E18LXLIFT
 62
6
 10
-2360.305
 20
737.041
 30
3501.000
 70
    32
  0
VERTEX
  8
E18LXLIFT
 62
6
 10
-2353.338
 20
732.251
 30
3501.000
 70
    32
  0
VERTEX
  8
E18LXLIFT
 62
6
 10
-2348.048
 20
725.883
 30
3501.000
 70
    32
  0
VERTEX
  8
E18LXLIFT
 62
6
 10
-2346.138
 20
718.754
 30
3501.000
 70
    32
  0
VERTEX
  8
E18LXLIFT
 62
6
 10
-2337.013
 20
717.544
 30
3501.000
 70
    32
  0
VERTEX
  8
E18LXLIFT
 62
6
 10
-2326.258
 20
715.028
 30
3501.000
 70
    32
  0
VERTEX
  8
E18LXLIFT
 62
6
 10
-2321.125
 20
708.873
 30
3501.000
 70
    32
  0
VERTEX
  8
E18LXLIFT
 62
6
 10
-2318.083
 20
698.309
 30
3501.000
 70
    32
  0
VERTEX
  8
E18LXLIFT
 62
6
 10
-2309.908
 20
691.897
 30
3501.000
 70
    32
  0
VERTEX
  8
E18LXLIFT
 62
6
 10
-2301.418
 20
690.655
 30
3501.000
 70
    32
  0
VERTEX
  8
E18LXLIFT
 62
6
 10
-2295.083
 20
691.425
 30
3501.000
 70
    32
  0
VERTEX
  8
E18LXLIFT
 62
6
 10
-2287.584
 20
688.128
 30
3501.000
 70
    32
  0
VERTEX
  8
E18LXLIFT
 62
6
 10
-2283.251
 20
679.513
 30
3501.000
 70
    32
  0
VERTEX
  8
E18LXLIFT
 62
6
 10
-2274.861
 20
669.424
 30
3501.000
 70
    32
  0
VERTEX
  8
E18LXLIFT
 62
6
 10
-2266.992
 20
660.920
 30
3501.000
 70
    32
  0
VERTEX
  8
E18LXLIFT
 62
6
 10
-2260.284
 20
652.648
 30
3501.000
 70
    32
  0
VERTEX
  8
E18LXLIFT
 62
6
 10
-2250.907
 20
642.855
 30
3501.000
 70
    32
  0
VERTEX
  8
E18LXLIFT
 62
6
 10
-2244.182
 20
634.267
 30
3501.000
 70
    32
  0
VERTEX
  8
E18LXLIFT
 62
6
 10
-2238.939
 20
629.729
 30
3501.000
 70
    32
  0
VERTEX
  8
E18LXLIFT
 62
6
 10
-2232.870
 20
629.972
 30
3501.000
 70
    32
  0
VERTEX
  8
E18LXLIFT
 62
6
 10
-2228.677
 20
631.998
 30
3501.000
 70
    32
  0
VERTEX
  8
E18LXLIFT
 62
6
 10
-2229.130
 20
638.349
 30
3501.000
 70
    32
  0
VERTEX
  8
E18LXLIFT
 62
6
 10
-2230.651
 20
646.428
 30
3501.000
 70
    32
  0
VERTEX
  8
E18LXLIFT
 62
6
 10
-2234.814
 20
653.196
 30
3501.000
 70
    32
  0
VERTEX
  8
E18LXLIFT
 62
6
 10
-2244.223
 20
653.315
 30
3501.000
 70
    32
  0
VERTEX
  8
E18LXLIFT
 62
6
 10
-2251.172
 20
658.228
 30
3501.000
 70
    32
  0
VERTEX
  8
E18LXLIFT
 62
6
 10
-2260.686
 20
668.796
 30
3501.000
 70
    32
  0
VERTEX
  8
E18LXLIFT
 62
6
 10
-2262.453
 20
676.910
 30
3501.000
 70
    32
  0
VERTEX
  8
E18LXLIFT
 62
6
 10
-2263.277
 20
682.875
 30
3501.000
 70
    32
  0
VERTEX
  8
E18LXLIFT
 62
6
 10
-2273.605
 20
687.026
 30
3501.000
 70
    32
  0
VERTEX
  8
E18LXLIFT
 62
6
 10
-2280.908
 20
696.390
 30
3501.000
 70
    32
  0
VERTEX
  8
E18LXLIFT
 62
6
 10
-2286.542
 20
699.979
 30
3501.000
 70
    32
  0
VERTEX
  8
E18LXLIFT
 62
6
 10
-2293.101
 20
705.401
 30
3501.000
 70
    32
  0
VERTEX
  8
E18LXLIFT
 62
6
 10
-2295.417
 20
712.339
 30
3501.000
 70
    32
  0
VERTEX
  8
E18LXLIFT
 62
6
 10
-2296.264
 20
722.015
 30
3501.000
 70
    32
  0
VERTEX
  8
E18LXLIFT
 62
6
 10
-2307.261
 20
731.040
 30
3501.000
 70
    32
  0
VERTEX
  8
E18LXLIFT
 62
6
 10
-2314.878
 20
741.267
 30
3501.000
 70
    32
  0
VERTEX
  8
E18LXLIFT
 62
6
 10
-2323.039
 20
751.636
 30
3501.000
 70
    32
  0
VERTEX
  8
E18LXLIFT
 62
6
 10
-2323.636
 20
757.003
 30
3501.000
 70
    32
  0
VERTEX
  8
E18LXLIFT
 62
6
 10
-2332.103
 20
765.280
 30
3501.000
 70
    32
  0
VERTEX
  8
E18LXLIFT
 62
6
 10
-2338.325
 20
771.721
 30
3501.000
 70
    32
  0
VERTEX
  8
E18LXLIFT
 62
6
 10
-2341.975
 20
779.419
 30
3501.000
 70
    32
  0
VERTEX
  8
E18LXLIFT
 62
6
 10
-2347.528
 20
791.292
 30
3501.000
 70
    32
  0
VERTEX
  8
E18LXLIFT
 62
6
 10
-2356.672
 20
802.246
 30
3501.000
 70
    32
  0
VERTEX
  8
E18LXLIFT
 62
6
 10
-2363.453
 20
810.025
 30
3501.000
 70
    32
  0
VERTEX
  8
E18LXLIFT
 62
6
 10
-2373.002
 20
810.479
 30
3501.000
 70
    32
  0
VERTEX
  8
E18LXLIFT
 62
6
 10
-2381.216
 20
805.020
 30
3501.000
 70
    32
  0
VERTEX
  8
E18LXLIFT
 62
6
 10
-2387.492
 20
795.631
 30
3501.000
 70
    32
  0
VERTEX
  8
E18LXLIFT
 62
6
 10
-2392.618
 20
788.085
 30
3501.000
 70
    32
  0
VERTEX
  8
E18LXLIFT
 62
6
 10
-2389.514
 20
780.090
 30
3501.000
 70
    32
  0
VERTEX
  8
E18LXLIFT
 62
6
 10
-2382.081
 20
772.906
 30
3501.000
 70
    32
  0
SEQEND
  8
E18LXLIFT
  0
POLYLINE
  8
E18LXLIFT
 62
1
 66
     1
 70
     9
  0
VERTEX
  8
E18LXLIFT
 62
1
 10
-2377.571
 20
761.389
 30
3514.000
 70
    32
  0
VERTEX
  8
E18LXLIFT
 62
1
 10
-2368.965
 20
757.491
 30
3514.000
 70
    32
  0
VERTEX
  8
E18LXLIFT
 62
1
 10
-2362.719
 20
752.932
 30
3514.000
 70
    32
  0
VERTEX
  8
E18LXLIFT
 62
1
 10
-2363.541
 20
743.877
 30
3514.000
 70
    32
  0
VERTEX
  8
E18LXLIFT
 62
1
 10
-2359.305
 20
738.041
 30
3514.000
 70
    32
  0
VERTEX
  8
E18LXLIFT
 62
1
 10
-2352.338
 20
733.251
 30
3514.000
 70
    32
  0
VERTEX
  8
E18LXLIFT
 62
1
 10
-2347.048
 20
726.883
 30
3514.000
 70
    32
  0
VERTEX
  8
E18LXLIFT
 62
1
 10
-2345.138
 20
719.754
 30
3514.000
 70
    32
  0
VERTEX
  8
E18LXLIFT
 62
1
 10
-2336.013
 20
718.544
 30
3514.000
 70
    32
  0
VERTEX
  8
E18LXLIFT
 62
1
 10
-2325.258
 20
716.028
 30
3514.000
 70
    32
  0
VERTEX
  8
E18LXLIFT
 62
1
 10
-2320.125
 20
709.873
 30
3514.000
 70
    32
  0
VERTEX
  8
E18LXLIFT
 62
1
 10
-2317.083
 20
699.309
 30
3514.000
 70
    32
  0
VERTEX
  8
E18LXLIFT
 62
1
 10
-2308.908
 20
692.897
 30
3514.000
 70
    32
  0
VERTEX
  8
E18LXLIFT
 62
1
 10
-2300.418
 20
691.655
 30
3514.000
 70
    32
  0
VERTEX
  8
E18LXLIFT
 62
1
 10
-2294.083
 20
692.425
 30
3514.000
 70
    32
  0
VERTEX
  8
E18LXLIFT
 62
1
 10
-2286.584
 20
689.128
 30
3514.000
 70
    32
  0
VERTEX
  8
E18LXLIFT
 62
1
 10
-2282.251
 20
680.513
 30
3514.000
 70
    32
  0
VERTEX
  8
E18LXLIFT
 62
1
 10
-2273.861
 20
670.424
 30
3514.000
 70
    32
  0
VERTEX
  8
E18LXLIFT
 62
1
 10
-2265.992
 20
661.920
 30
3514.000
 70
    32
  0
VERTEX
  8
E18LXLIFT
 62
1
 10
-2259.284
 20
653.648
 30
3514.000
 70
    32
  0
VERTEX
  8
E18LXLIFT
 62
1
 10
-2249.907
 20
643.855
 30
3514.000
 70
    32
  0
VERTEX
  8
E18LXLIFT
 62
1
 10
-2243.182
 20
635.267
 30
3514.000
 70
    32
  0
VERTEX
  8
E18LXLIFT
 62
1
 10
-2237.939
 20
630.729
 30
3514.000
 70
    32
  0
VERTEX
  8
E18LXLIFT
 62
1
 10
-2231.870
 20
630.972
 30
3514.000
 70
    32
  0
VERTEX
  8
E18LXLIFT
 62
1
 10
-2227.677
 20
632.998
 30
3514.000
 70
    32
  0
VERTEX
  8
E18LXLIFT
 62
1
 10
-2228.130
 20
639.349
 30
3514.000
 70
    32
  0
VERTEX
  8
E18LXLIFT
 62
1
 10
-2229.651
 20
647.428
 30
3514.000
 70
    32
  0
VERTEX
  8
E18LXLIFT
 62
1
 10
-2233.814
 20
654.196
 30
3514.000
 70
    32
  0
VERTEX
  8
E18LXLIFT
 62
1
 10
-2243.223
 20
654.315
 30
3514.000
 70
    32
  0
VERTEX
  8
E18LXLIFT
 62
1
 10
-2250.172
 20
659.228
 30
3514.000
 70
    32
  0
VERTEX
  8
E18LXLIFT
 62
1
 10
-2259.686
 20
669.796
 30
3514.000
 70
    32
  0
VERTEX
  8
E18LXLIFT
 62
1
 10
-2261.453
 20
677.910
 30
3514.000
 70
    32
  0
VERTEX
  8
E18LXLIFT
 62
1
 10
-2262.277
 20
683.875
 30
3514.000
 70
    32
  0
VERTEX
  8
E18LXLIFT
 62
1
 10
-2272.605
 20
688.026
 30
3514.000
 70
    32
  0
VERTEX
  8
E18LXLIFT
 62
1
 10
-2279.908
 20
697.390
 30
3514.000
 70
    32
  0
VERTEX
  8
E18LXLIFT
 62
1
 10
-2285.542
 20
700.979
 30
3514.000
 70
    32
  0
VERTEX
  8
E18LXLIFT
 62
1
 10
-2292.101
 20
706.401
 30
3514.000
 70
    32
  0
VERTEX
  8
E18LXLIFT
 62
1
 10
-2294.417
 20
713.339
 30
3514.000
 70
    32
  0
VERTEX
  8
E18LXLIFT
 62
1
 10
-2295.264
 20
723.015
 30
3514.000
 70
    32
  0
VERTEX
  8
E18LXLIFT
 62
1
 10
-2306.261
 20
732.040
 30
3514.000
 70
    32
  0
VERTEX
  8
E18LXLIFT
 62
1
 10
-2313.878
 20
742.267
 30
3514.000
 70
    32
  0
VERTEX
  8
E18LXLIFT
 62
1
 10
-2322.039
 20
752.636
 30
3514.000
 70
    32
  0
VERTEX
  8
E18LXLIFT
 62
1
 10
-2322.636
 20
758.003
 30
3514.000
 70
    32
  0
VERTEX
  8
E18LXLIFT
 62
1
 10
-2331.103
 20
766.280
 30
3514.000
 70
    32
  0
VERTEX
  8
E18LXLIFT
 62
1
 10
-2337.325
 20
772.721
 30
3514.000
 70
    32
  0
VERTEX
  8
E18LXLIFT
 62
1
 10
-2340.975
 20
780.419
 30
3514.000
 70
    32
  0
VERTEX
  8
E18LXLIFT
 62
1
 10
-2346.528
 20
792.292
 30
3514.000
 70
    32
  0
VERTEX
  8
E18LXLIFT
 62
1
 10
-2355.672
 20
803.246
 30
3514.000
 70
    32
  0
VERTEX
  8
E18LXLIFT
 62
1
 10
-2362.453
 20
811.025
 30
3514.000
 70
    32
  0
VERTEX
  8
E18LXLIFT
 62
1
 10
-2372.002
 20
811.479
 30
3514.000
 70
    32
  0
VERTEX
  8
E18LXLIFT
 62
1
 10
-2380.216
 20
806.020
 30
3514.000
 70
    32
  0
VERTEX
  8
E18LXLIFT
 62
1
 10
-2386.492
 20
796.631
 30
3514.000
 70
    32
  0
VERTEX
  8
E18LXLIFT
 62
1
 10
-2391.618
 20
789.085
 30
3514.000
 70
    32
  0
VERTEX
  8
E18LXLIFT
 62
1
 10
-2388.514
 20
781.090
 30
3514.000
 70
    32
  0
VERTEX
  8
E18LXLIFT
 62
1
 10
-2381.081
 20
773.906
 30
3514.000
 70
    32
  0
SEQEND
  8
E18LXLIFT
  0
POLYLINE
  8
E18LXLIFT
 62
7
 66
     1
 70
     9
  0
VERTEX
  8
E18LXLIFT
 62
7
 10
-2464.039
 20
813.318
 30
3510.000
 70
    32
  0
VERTEX
  8
E18LXLIFT
 62
7
 10
-2464.933
 20
815.280
 30
3510.000
 70
    32
  0
VERTEX
  8
E18LXLIFT
 62
7
 10
-2462.845
 20
821.504
 30
3510.000
 70
    32
  0
VERTEX
  8
E18LXLIFT
 62
7
 10
-2460.374
 20
827.354
 30
3510.000
 70
    32
  0
VERTEX
  8
E18LXLIFT
 62
7
 10
-2453.992
 20
835.310
 30
3510.000
 70
    32
  0
VERTEX
  8
E18LXLIFT
 62
7
 10
-2446.456
 20
840.949
 30
3510.000
 70
    32
  0
VERTEX
  8
E18LXLIFT
 62
7
 10
-2439.512
 20
848.881
 30
3510.000
 70
    32
  0
VERTEX
  8
E18LXLIFT
 62
7
 10
-2436.645
 20
858.949
 30
3510.000
 70
    32
  0
VERTEX
  8
E18LXLIFT
 62
7
 10
-2435.702
 20
866.732
 30
3510.000
 70
    32
  0
VERTEX
  8
E18LXLIFT
 62
7
 10
-2443.548
 20
871.776
 30
3510.000
 70
    32
  0
VERTEX
  8
E18LXLIFT
 62
7
 10
-2450.638
 20
876.828
 30
3510.000
 70
    32
  0
VERTEX
  8
E18LXLIFT
 62
7
 10
-2448.478
 20
879.832
 30
3510.000
 70
    32
  0
VERTEX
  8
E18LXLIFT
 62
7
 10
-2443.259
 20
885.952
 30
3510.000
 70
    32
  0
VERTEX
  8
E18LXLIFT
 62
7
 10
-2435.916
 20
888.286
 30
3510.000
 70
    32
  0
VERTEX
  8
E18LXLIFT
 62
7
 10
-2430.770
 20
882.462
 30
3510.000
 70
    32
  0
VERTEX
  8
E18LXLIFT
 62
7
 10
-2421.793
 20
876.175
 30
3510.000
 70
    32
  0
VERTEX
  8
E18LXLIFT
 62
7
 10
-2415.336
 20
867.821
 30
3510.000
 70
    32
  0
VERTEX
  8
E18LXLIFT
 62
7
 10
-2408.622
 20
857.037
 30
3510.000
 70
    32
  0
VERTEX
  8
E18LXLIFT
 62
7
 10
-2406.105
 20
850.484
 30
3510.000
 70
    32
  0
VERTEX
  8
E18LXLIFT
 62
7
 10
-2403.733
 20
841.751
 30
3510.000
 70
    32
  0
VERTEX
  8
E18LXLIFT
 62
7
 10
-2405.188
 20
837.192
 30
3510.000
 70
    32
  0
VERTEX
  8
E18LXLIFT
 62
7
 10
-2410.180
 20
830.911
 30
3510.000
 70
    32
  0
VERTEX
  8
E18LXLIFT
 62
7
 10
-2416.364
 20
826.701
 30
3510.000
 70
    32
  0
VERTEX
  8
E18LXLIFT
 62
7
 10
-2422.908
 20
826.699
 30
3510.000
 70
    32
  0
VERTEX
  8
E18LXLIFT
 62
7
 10
-2431.225
 20
825.396
 30
3510.000
 70
    32
  0
VERTEX
  8
E18LXLIFT
 62
7
 10
-2439.216
 20
821.714
 30
3510.000
 70
    32
  0
VERTEX
  8
E18LXLIFT
 62
7
 10
-2447.154
 20
817.962
 30
3510.000
 70
    32
  0
VERTEX
  8
E18LXLIFT
 62
7
 10
-2453.588
 20
813.350
 30
3510.000
 70
    32
  0
SEQEND
  8
E18LXLIFT
  0
POLYLINE
  8
E18LXLIFT
 62
7
 66
     1
 70
     9
  0
VERTEX
  8
E18LXLIFT
 62
7
 10
-2452.911
 20
813.257
 30
3520.000
 70
    32
  0
VERTEX
  8
E18LXLIFT
 62
7
 10
-2444.647
 20
818.781
 30
3520.000
 70
    32
  0
VERTEX
  8
E18LXLIFT
 62
7
 10
-2436.907
 20
822.939
 30
3520.000
 70
    32
  0
VERTEX
  8
E18LXLIFT
 62
7
 10
-2429.563
 20
826.151
 30
3520.000
 70
    32
  0
VERTEX
  8
E18LXLIFT
 62
7
 10
-2425.307
 20
819.465
 30
3520.000
 70
    32
  0
VERTEX
  8
E18LXLIFT
 62
7
 10
-2416.436
 20
813.769
 30
3520.000
 70
    32
  0
VERTEX
  8
E18LXLIFT
 62
7
 10
-2409.240
 20
812.730
 30
3520.000
 70
    32
  0
VERTEX
  8
E18LXLIFT
 62
7
 10
-2402.268
 20
820.903
 30
3520.000
 70
    32
  0
VERTEX
  8
E18LXLIFT
 62
7
 10
-2398.892
 20
829.815
 30
3520.000
 70
    32
  0
VERTEX
  8
E18LXLIFT
 62
7
 10
-2400.307
 20
841.096
 30
3520.000
 70
    32
  0
VERTEX
  8
E18LXLIFT
 62
7
 10
-2402.196
 20
852.574
 30
3520.000
 70
    32
  0
VERTEX
  8
E18LXLIFT
 62
7
 10
-2411.309
 20
860.382
 30
3520.000
 70
    32
  0
VERTEX
  8
E18LXLIFT
 62
7
 10
-2415.869
 20
868.372
 30
3520.000
 70
    32
  0
VERTEX
  8
E18LXLIFT
 62
7
 10
-2425.328
 20
876.798
 30
3520.000
 70
    32
  0
VERTEX
  8
E18LXLIFT
 62
7
 10
-2433.848
 20
886.023
 30
3520.000
 70
    32
  0
VERTEX
  8
E18LXLIFT
 62
7
 10
-2440.953
 20
892.580
 30
3520.000
 70
    32
  0
VERTEX
  8
E18LXLIFT
 62
7
 10
-2449.079
 20
900.676
 30
3520.000
 70
    32
  0
VERTEX
  8
E18LXLIFT
 62
7
 10
-2457.340
 20
904.204
 30
3520.000
 70
    32
  0
VERTEX
  8
E18LXLIFT
 62
7
 10
-2469.934
 20
910.219
 30
3520.000
 70
    32
  0
VERTEX
  8
E18LXLIFT
 62
7
 10
-2477.626
 20
912.528
 30
3520.000
 70
    32
  0
VERTEX
  8
E18LXLIFT
 62
7
 10
-2482.205
 20
899.463
 30
3520.000
 70
    32
  0
VERTEX
  8
E18LXLIFT
 62
7
 10
-2484.517
 20
889.696
 30
3520.000
 70
    32
  0
VERTEX
  8
E18LXLIFT
 62
7
 10
-2474.208
 20
881.894
 30
3520.000
 70
    32
  0
VERTEX
  8
E18LXLIFT
 62
7
 10
-2465.288
 20
874.053
 30
3520.000
 70
    32
  0
VERTEX
  8
E18LXLIFT
 62
7
 10
-2460.366
 20
874.180
 30
3520.000
 70
    32
  0
VERTEX
  8
E18LXLIFT
 62
7
 10
-2454.942
 20
866.497
 30
3520.000
 70
    32
  0
VERTEX
  8
E18LXLIFT
 62
7
 10
-2446.733
 20
863.040
 30
3520.000
 70
    32
  0
VERTEX
  8
E18LXLIFT
 62
7
 10
-2442.630
 20
858.640
 30
3520.000
 70
    32
  0
VERTEX
  8
E18LXLIFT
 62
7
 10
-2448.600
 20
850.439
 30
3520.000
 70
    32
  0
VERTEX
  8
E18LXLIFT
 62
7
 10
-2456.239
 20
844.066
 30
3520.000
 70
    32
  0
VERTEX
  8
E18LXLIFT
 62
7
 10
-2459.735
 20
837.246
 30
3520.000
 70
    32
  0
VERTEX
  8
E18LXLIFT
 62
7
 10
-2459.891
 20
830.481
 30
3520.000
 70
    32
  0
VERTEX
  8
E18LXLIFT
 62
7
 10
-2460.898
 20
824.726
 30
3520.000
 70
    32
  0
VERTEX
  8
E18LXLIFT
 62
7
 10
-2464.082
 20
817.482
 30
3520.000
 70
    32
  0
SEQEND
  8
E18LXLIFT
  0
POLYLINE
  8
E18LXLIFT
 62
8
 66
     1
 70
     9
  0
VERTEX
  8
E18LXLIFT
 62
8
 10
-2520.723
 20
774.358
 30
3511.000
 70
    32
  0
VERTEX
  8
E18LXLIFT
 62
8
 10
-2526.656
 20
773.380
 30
3511.000
 70
    32
  0
VERTEX
  8
E18LXLIFT
 62
8
 10
-2534.493
 20
771.877
 30
3511.000
 70
    32
  0
VERTEX
  8
E18LXLIFT
 62
8
 10
-2540.574
 20
773.626
 30
3511.000
 70
    32
  0
VERTEX
  8
E18LXLIFT
 62
8
 10
-2546.409
 20
775.337
 30
3511.000
 70
    32
  0
VERTEX
  8
E18LXLIFT
 62
8
 10
-2553.121
 20
773.787
 30
3511.000
 70
    32
  0
VERTEX
  8
E18LXLIFT
 62
8
 10
-2560.583
 20
776.375
 30
3511.000
 70
    32
  0
VERTEX
  8
E18LXLIFT
 62
8
 10
-2566.983
 20
781.379
 30
3511.000
 70
    32
  0
VERTEX
  8
E18LXLIFT
 62
8
 10
-2571.571
 20
790.002
 30
3511.000
 70
    32
  0
VERTEX
  8
E18LXLIFT
 62
8
 10
-2580.655
 20
795.542
 30
3511.000
 70
    32
  0
VERTEX
  8
E18LXLIFT
 62
8
 10
-2588.285
 20
802.367
 30
3511.000
 70
    32
  0
VERTEX
  8
E18LXLIFT
 62
8
 10
-2595.255
 20
811.858
 30
3511.000
 70
    32
  0
VERTEX
  8
E18LXLIFT
 62
8
 10
-2601.768
 20
823.102
 30
3511.000
 70
    32
  0
VERTEX
  8
E18LXLIFT
 62
8
 10
-2611.914
 20
834.839
 30
3511.000
 70
    32
  0
VERTEX
  8
E18LXLIFT
 62
8
 10
-2619.933
 20
844.868
 30
3511.000
 70
    32
  0
VERTEX
  8
E18LXLIFT
 62
8
 10
-2626.403
 20
855.162
 30
3511.000
 70
    32
  0
VERTEX
  8
E18LXLIFT
 62
8
 10
-2623.326
 20
858.840
 30
3511.000
 70
    32
  0
VERTEX
  8
E18LXLIFT
 62
8
 10
-2619.488
 20
862.967
 30
3511.000
 70
    32
  0
VERTEX
  8
E18LXLIFT
 62
8
 10
-2615.595
 20
862.119
 30
3511.000
 70
    32
  0
VERTEX
  8
E18LXLIFT
 62
8
 10
-2610.799
 20
854.847
 30
3511.000
 70
    32
  0
VERTEX
  8
E18LXLIFT
 62
8
 10
-2604.391
 20
845.379
 30
3511.000
 70
    32
  0
VERTEX
  8
E18LXLIFT
 62
8
 10
-2598.783
 20
838.486
 30
3511.000
 70
    32
  0
VERTEX
  8
E18LXLIFT
 62
8
 10
-2594.659
 20
837.917
 30
3511.000
 70
    32
  0
VERTEX
  8
E18LXLIFT
 62
8
 10
-2589.762
 20
833.773
 30
3511.000
 70
    32
  0
VERTEX
  8
E18LXLIFT
 62
8
 10
-2586.337
 20
828.220
 30
3511.000
 70
    32
  0
VERTEX
  8
E18LXLIFT
 62
8
 10
-2581.665
 20
820.967
 30
3511.000
 70
    32
  0
VERTEX
  8
E18LXLIFT
 62
8
 10
-2573.988
 20
813.630
 30
3511.000
 70
    32
  0
VERTEX
  8
E18LXLIFT
 62
8
 10
-2565.321
 20
810.292
 30
3511.000
 70
    32
  0
VERTEX
  8
E18LXLIFT
 62
8
 10
-2553.067
 20
810.678
 30
3511.000
 70
    32
  0
VERTEX
  8
E18LXLIFT
 62
8
 10
-2544.970
 20
811.827
 30
3511.000
 70
    32
  0
VERTEX
  8
E18LXLIFT
 62
8
 10
-2538.643
 20
810.041
 30
3511.000
 70
    32
  0
VERTEX
  8
E18LXLIFT
 62
8
 10
-2537.317
 20
817.884
 30
3511.000
 70
    32
  0
VERTEX
  8
E18LXLIFT
 62
8
 10
-2538.083
 20
825.608
 30
3511.000
 70
    32
  0
VERTEX
  8
E18LXLIFT
 62
8
 10
-2537.951
 20
826.468
 30
3511.000
 70
    32
  0
VERTEX
  8
E18LXLIFT
 62
8
 10
-2542.467
 20
838.851
 30
3511.000
 70
    32
  0
VERTEX
  8
E18LXLIFT
 62
8
 10
-2546.753
 20
847.806
 30
3511.000
 70
    32
  0
VERTEX
  8
E18LXLIFT
 62
8
 10
-2541.397
 20
849.123
 30
3511.000
 70
    32
  0
VERTEX
  8
E18LXLIFT
 62
8
 10
-2533.125
 20
850.182
 30
3511.000
 70
    32
  0
VERTEX
  8
E18LXLIFT
 62
8
 10
-2523.484
 20
851.157
 30
3511.000
 70
    32
  0
VERTEX
  8
E18LXLIFT
 62
8
 10
-2519.505
 20
857.023
 30
3511.000
 70
    32
  0
VERTEX
  8
E18LXLIFT
 62
8
 10
-2513.857
 20
859.426
 30
3511.000
 70
    32
  0
VERTEX
  8
E18LXLIFT
 62
8
 10
-2504.525
 20
857.557
 30
3511.000
 70
    32
  0
VERTEX
  8
E18LXLIFT
 62
8
 10
-2503.468
 20
852.555
 30
3511.000
 70
    32
  0
VERTEX
  8
E18LXLIFT
 62
8
 10
-2507.395
 20
846.619
 30
3511.000
 70
    32
  0
VERTEX
  8
E18LXLIFT
 62
8
 10
-2513.566
 20
841.215
 30
3511.000
 70
    32
  0
VERTEX
  8
E18LXLIFT
 62
8
 10
-2516.593
 20
833.758
 30
3511.000
 70
    32
  0
VERTEX
  8
E18LXLIFT
 62
8
 10
-2521.704
 20
825.426
 30
3511.000
 70
    32
  0
VERTEX
  8
E18LXLIFT
 62
8
 10
-2525.519
 20
816.518
 30
3511.000
 70
    32
  0
VERTEX
  8
E18LXLIFT
 62
8
 10
-2521.407
 20
812.996
 30
3511.000
 70
    32
  0
VERTEX
  8
E18LXLIFT
 62
8
 10
-2513.865
 20
816.682
 30
3511.000
 70
    32
  0
VERTEX
  8
E18LXLIFT
 62
8
 10
-2505.554
 20
821.695
 30
3511.000
 70
    32
  0
VERTEX
  8
E18LXLIFT
 62
8
 10
-2497.991
 20
829.212
 30
3511.000
 70
    32
  0
VERTEX
  8
E18LXLIFT
 62
8
 10
-2497.670
 20
836.643
 30
3511.000
 70
    32
  0
VERTEX
  8
E18LXLIFT
 62
8
 10
-2489.393
 20
836.508
 30
3511.000
 70
    32
  0
VERTEX
  8
E18LXLIFT
 62
8
 10
-2489.137
 20
828.736
 30
3511.000
 70
    32
  0
VERTEX
  8
E18LXLIFT
 62
8
 10
-2490.830
 20
817.681
 30
3511.000
 70
    32
  0
VERTEX
  8
E18LXLIFT
 62
8
 10
-2494.804
 20
805.277
 30
3511.000
 70
    32
  0
VERTEX
  8
E18LXLIFT
 62
8
 10
-2501.826
 20
800.883
 30
3511.000
 70
    32
  0
VERTEX
  8
E18LXLIFT
 62
8
 10
-2509.111
 20
794.770
 30
3511.000
 70
    32
  0
VERTEX
  8
E18LXLIFT
 62
8
 10
-2513.398
 20
784.425
 30
3511.000
 70
    32
  0
SEQEND
  8
E18LXLIFT
  0
POLYLINE
  8
E18LXLIFT
 62
7
 66
     1
 70
     9
  0
VERTEX
  8
E18LXLIFT
 62
7
 10
-1303.703
 20
-1494.747
 30
3383.000
 70
    32
  0
VERTEX
  8
E18LXLIFT
 62
7
 10
-1301.108
 20
-1504.091
 30
3383.000
 70
    32
  0
VERTEX
  8
E18LXLIFT
 62
7
 10
-1299.585
 20
-1513.907
 30
3383.000
 70
    32
  0
VERTEX
  8
E18LXLIFT
 62
7
 10
-1296.568
 20
-1522.936
 30
3383.000
 70
    32
  0
VERTEX
  8
E18LXLIFT
 62
7
 10
-1290.571
 20
-1525.688
 30
3383.000
 70
    32
  0
VERTEX
  8
E18LXLIFT
 62
7
 10
-1283.479
 20
-1525.651
 30
3383.000
 70
    32
  0
VERTEX
  8
E18LXLIFT
 62
7
 10
-1282.572
 20
-1536.255
 30
3383.000
 70
    32
  0
VERTEX
  8
E18LXLIFT
 62
7
 10
-1288.246
 20
-1545.968
 30
3383.000
 70
    32
  0
VERTEX
  8
E18LXLIFT
 62
7
 10
-1295.150
 20
-1548.603
 30
3383.000
 70
    32
  0
VERTEX
  8
E18LXLIFT
 62
7
 10
-1300.161
 20
-1560.230
 30
3383.000
 70
    32
  0
VERTEX
  8
E18LXLIFT
 62
7
 10
-1308.217
 20
-1567.339
 30
3383.000
 70
    32
  0
VERTEX
  8
E18LXLIFT
 62
7
 10
-1316.440
 20
-1571.288
 30
3383.000
 70
    32
  0
VERTEX
  8
E18LXLIFT
 62
7
 10
-1323.511
 20
-1577.662
 30
3383.000
 70
    32
  0
VERTEX
  8
E18LXLIFT
 62
7
 10
-1333.969
 20
-1583.607
 30
3383.000
 70
    32
  0
VERTEX
  8
E18LXLIFT
 62
7
 10
-1339.546
 20
-1581.418
 30
3383.000
 70
    32
  0
VERTEX
  8
E18LXLIFT
 62
7
 10
-1345.491
 20
-1570.960
 30
3383.000
 70
    32
  0
VERTEX
  8
E18LXLIFT
 62
7
 10
-1347.386
 20
-1562.407
 30
3383.000
 70
    32
  0
VERTEX
  8
E18LXLIFT
 62
7
 10
-1341.476
 20
-1557.119
 30
3383.000
 70
    32
  0
VERTEX
  8
E18LXLIFT
 62
7
 10
-1336.810
 20
-1550.898
 30
3383.000
 70
    32
  0
VERTEX
  8
E18LXLIFT
 62
7
 10
-1337.019
 20
-1541.963
 30
3383.000
 70
    32
  0
VERTEX
  8
E18LXLIFT
 62
7
 10
-1335.141
 20
-1534.208
 30
3383.000
 70
    32
  0
VERTEX
  8
E18LXLIFT
 62
7
 10
-1329.277
 20
-1533.554
 30
3383.000
 70
    32
  0
VERTEX
  8
E18LXLIFT
 62
7
 10
-1324.197
 20
-1530.529
 30
3383.000
 70
    32
  0
VERTEX
  8
E18LXLIFT
 62
7
 10
-1328.092
 20
-1521.936
 30
3383.000
 70
    32
  0
VERTEX
  8
E18LXLIFT
 62
7
 10
-1330.460
 20
-1513.189
 30
3383.000
 70
    32
  0
VERTEX
  8
E18LXLIFT
 62
7
 10
-1323.796
 20
-1507.885
 30
3383.000
 70
    32
  0
VERTEX
  8
E18LXLIFT
 62
7
 10
-1317.298
 20
-1498.543
 30
3383.000
 70
    32
  0
VERTEX
  8
E18LXLIFT
 62
7
 10
-1313.345
 20
-1489.020
 30
3383.000
 70
    32
  0
SEQEND
  8
E18LXLIFT
  0
POLYLINE
  8
E18LXLIFT
 62
3
 66
     1
 70
     9
  0
VERTEX
  8
E18LXLIFT
 62
3
 10
-1301.285
 20
-1469.503
 30
3388.000
 70
    32
  0
VERTEX
  8
E18LXLIFT
 62
3
 10
-1296.290
 20
-1475.749
 30
3388.000
 70
    32
  0
VERTEX
  8
E18LXLIFT
 62
3
 10
-1291.420
 20
-1477.954
 30
3388.000
 70
    32
  0
VERTEX
  8
E18LXLIFT
 62
3
 10
-1286.619
 20
-1477.384
 30
3388.000
 70
    32
  0
VERTEX
  8
E18LXLIFT
 62
3
 10
-1282.512
 20
-1481.669
 30
3388.000
 70
    32
  0
VERTEX
  8
E18LXLIFT
 62
3
 10
-1276.479
 20
-1476.830
 30
3388.000
 70
    32
  0
VERTEX
  8
E18LXLIFT
 62
3
 10
-1268.638
 20
-1476.106
 30
3388.000
 70
    32
  0
VERTEX
  8
E18LXLIFT
 62
3
 10
-1259.503
 20
-1477.155
 30
3388.000
 70
    32
  0
VERTEX
  8
E18LXLIFT
 62
3
 10
-1250.313
 20
-1472.620
 30
3388.000
 70
    32
  0
VERTEX
  8
E18LXLIFT
 62
3
 10
-1245.923
 20
-1465.828
 30
3388.000
 70
    32
  0
VERTEX
  8
E18LXLIFT
 62
3
 10
-1248.685
 20
-1459.366
 30
3388.000
 70
    32
  0
VERTEX
  8
E18LXLIFT
 62
3
 10
-1253.375
 20
-1449.963
 30
3388.000
 70
    32
  0
VERTEX
  8
E18LXLIFT
 62
3
 10
-1256.579
 20
-1441.107
 30
3388.000
 70
    32
  0
VERTEX
  8
E18LXLIFT
 62
3
 10
-1263.139
 20
-1432.418
 30
3388.000
 70
    32
  0
VERTEX
  8
E18LXLIFT
 62
3
 10
-1268.241
 20
-1423.642
 30
3388.000
 70
    32
  0
VERTEX
  8
E18LXLIFT
 62
3
 10
-1270.362
 20
-1417.908
 30
3388.000
 70
    32
  0
VERTEX
  8
E18LXLIFT
 62
3
 10
-1281.109
 20
-1417.927
 30
3388.000
 70
    32
  0
VERTEX
  8
E18LXLIFT
 62
3
 10
-1289.278
 20
-1419.542
 30
3388.000
 70
    32
  0
VERTEX
  8
E18LXLIFT
 62
3
 10
-1295.912
 20
-1416.559
 30
3388.000
 70
    32
  0
VERTEX
  8
E18LXLIFT
 62
3
 10
-1310.197
 20
-1415.900
 30
3388.000
 70
    32
  0
VERTEX
  8
E18LXLIFT
 62
3
 10
-1310.040
 20
-1428.177
 30
3388.000
 70
    32
  0
VERTEX
  8
E18LXLIFT
 62
3
 10
-1310.967
 20
-1440.158
 30
3388.000
 70
    32
  0
VERTEX
  8
E18LXLIFT
 62
3
 10
-1311.209
 20
-1449.356
 30
3388.000
 70
    32
  0
VERTEX
  8
E18LXLIFT
 62
3
 10
-1310.993
 20
-1458.438
 30
3388.000
 70
    32
  0
SEQEND
  8
E18LXLIFT
  0
POLYLINE
  8
E18LXLIFT
 62
1
 66
     1
 70
     9
  0
VERTEX
  8
E18LXLIFT
 62
1
 10
-2519.723
 20
775.358
 30
3521.000
 70
    32
  0
VERTEX
  8
E18LXLIFT
 62
1
 10
-2525.656
 20
774.380
 30
3521.000
 70
    32
  0
VERTEX
  8
E18LXLIFT
 62
1
 10
-2533.493
 20
772.877
 30
3521.000
 70
    32
  0
VERTEX
  8
E18LXLIFT
 62
1
 10
-2539.574
 20
774.626
 30
3521.000
 70
    32
  0
VERTEX
  8
E18LXLIFT
 62
1
 10
-2545.409
 20
776.337
 30
3521.000
 70
    32
  0
VERTEX
  8
E18LXLIFT
 62
1
 10
-2552.121
 20
774.787
 30
3521.000
 70
    32
  0
VERTEX
  8
E18LXLIFT
 62
1
 10
-2559.583
 20
777.375
 30
3521.000
 70
    32
  0
VERTEX
  8
E18LXLIFT
 62
1
 10
-2565.983
 20
782.379
 30
3521.000
 70
    32
  0
VERTEX
  8
E18LXLIFT
 62
1
 10
-2570.571
 20
791.002
 30
3521.000
 70
    32
  0
VERTEX
  8
E18LXLIFT
 62
1
 10
-2579.655
 20
796.542
 30
3521.000
 70
    32
  0
VERTEX
  8
E18LXLIFT
 62
1
 10
-2587.285
 20
803.367
 30
3521.000
 70
    32
  0
VERTEX
  8
E18LXLIFT
 62
1
 10
-2594.255
 20
812.858
 30
3521.000
 70
    32
  0
VERTEX
  8
E18LXLIFT
 62
1
 10
-2600.768
 20
824.102
 30
3521.000
 70
    32
  0
VERTEX
  8
E18LXLIFT
 62
1
 10
-2610.914
 20
835.839
 30
3521.000
 70
    32
  0
VERTEX
  8
E18LXLIFT
 62
1
 10
-2618.933
 20
845.868
 30
3521.000
 70
    32
  0
VERTEX
  8
E18LXLIFT
 62
1
 10
-2625.403
 20
856.162
 30
3521.000
 70
    32
  0
VERTEX
  8
E18LXLIFT
 62
1
 10
-2622.326
 20
859.840
 30
3521.000
 70
    32
  0
VERTEX
  8
E18LXLIFT
 62
1
 10
-2618.488
 20
863.967
 30
3521.000
 70
    32
  0
VERTEX
  8
E18LXLIFT
 62
1
 10
-2614.595
 20
863.119
 30
3521.000
 70
    32
  0
VERTEX
  8
E18LXLIFT
 62
1
 10
-2609.799
 20
855.847
 30
3521.000
 70
    32
  0
VERTEX
  8
E18LXLIFT
 62
1
 10
-2603.391
 20
846.379
 30
3521.000
 70
    32
  0
VERTEX
  8
E18LXLIFT
 62
1
 10
-2597.783
 20
839.486
 30
3521.000
 70
    32
  0
VERTEX
  8
E18LXLIFT
 62
1
 10
-2593.659
 20
838.917
 30
3521.000
 70
    32
  0
VERTEX
  8
E18LXLIFT
 62
1
 10
-2588.762
 20
834.773
 30
3521.000
 70
    32
  0
VERTEX
  8
E18LXLIFT
 62
1
 10
-2585.337
 20
829.220
 30
3521.000
 70
    32
  0
VERTEX
  8
E18LXLIFT
 62
1
 10
-2580.665
 20
821.967
 30
3521.000
 70
    32
  0
VERTEX
  8
E18LXLIFT
 62
1
 10
-2572.988
 20
814.630
 30
3521.000
 70
    32
  0
VERTEX
  8
E18LXLIFT
 62
1
 10
-2564.321
 20
811.292
 30
3521.000
 70
    32
  0
VERTEX
  8
E18LXLIFT
 62
1
 10
-2552.067
 20
811.678
 30
3521.000
 70
    32
  0
VERTEX
  8
E18LXLIFT
 62
1
 10
-2543.970
 20
812.827
 30
3521.000
 70
    32
  0
VERTEX
  8
E18LXLIFT
 62
1
 10
-2537.643
 20
811.041
 30
3521.000
 70
    32
  0
VERTEX
  8
E18LXLIFT
 62
1
 10
-2536.317
 20
818.884
 30
3521.000
 70
    32
  0
VERTEX
  8
E18LXLIFT
 62
1
 10
-2537.083
 20
826.608
 30
3521.000
 70
    32
  0
VERTEX
  8
E18LXLIFT
 62
1
 10
-2536.951
 20
827.468
 30
3521.000
 70
    32
  0
VERTEX
  8
E18LXLIFT
 62
1
 10
-2541.467
 20
839.851
 30
3521.000
 70
    32
  0
VERTEX
  8
E18LXLIFT
 62
1
 10
-2545.753
 20
848.806
 30
3521.000
 70
    32
  0
VERTEX
  8
E18LXLIFT
 62
1
 10
-2540.397
 20
850.123
 30
3521.000
 70
    32
  0
VERTEX
  8
E18LXLIFT
 62
1
 10
-2532.125
 20
851.182
 30
3521.000
 70
    32
  0
VERTEX
  8
E18LXLIFT
 62
1
 10
-2522.484
 20
852.157
 30
3521.000
 70
    32
  0
VERTEX
  8
E18LXLIFT
 62
1
 10
-2518.505
 20
858.023
 30
3521.000
 70
    32
  0
VERTEX
  8
E18LXLIFT
 62
1
 10
-2512.857
 20
860.426
 30
3521.000
 70
    32
  0
VERTEX
  8
E18LXLIFT
 62
1
 10
-2503.525
 20
858.557
 30
3521.000
 70
    32
  0
VERTEX
  8
E18LXLIFT
 62
1
 10
-2502.468
 20
853.555
 30
3521.000
 70
    32
  0
VERTEX
  8
E18LXLIFT
 62
1
 10
-2506.395
 20
847.619
 30
3521.000
 70
    32
  0
VERTEX
  8
E18LXLIFT
 62
1
 10
-2512.566
 20
842.215
 30
3521.000
 70
    32
  0
VERTEX
  8
E18LXLIFT
 62
1
 10
-2515.593
 20
834.758
 30
3521.000
 70
    32
  0
VERTEX
  8
E18LXLIFT
 62
1
 10
-2520.704
 20
826.426
 30
3521.000
 70
    32
  0
VERTEX
  8
E18LXLIFT
 62
1
 10
-2524.519
 20
817.518
 30
3521.000
 70
    32
  0
VERTEX
  8
E18LXLIFT
 62
1
 10
-2520.407
 20
813.996
 30
3521.000
 70
    32
  0
VERTEX
  8
E18LXLIFT
 62
1
 10
-2512.865
 20
817.682
 30
3521.000
 70
    32
  0
VERTEX
  8
E18LXLIFT
 62
1
 10
-2504.554
 20
822.695
 30
3521.000
 70
    32
  0
VERTEX
  8
E18LXLIFT
 62
1
 10
-2496.991
 20
830.212
 30
3521.000
 70
    32
  0
VERTEX
  8
E18LXLIFT
 62
1
 10
-2496.670
 20
837.643
 30
3521.000
 70
    32
  0
VERTEX
  8
E18LXLIFT
 62
1
 10
-2488.393
 20
837.508
 30
3521.000
 70
    32
  0
VERTEX
  8
E18LXLIFT
 62
1
 10
-2488.137
 20
829.736
 30
3521.000
 70
    32
  0
VERTEX
  8
E18LXLIFT
 62
1
 10
-2489.830
 20
818.681
 30
3521.000
 70
    32
  0
VERTEX
  8
E18LXLIFT
 62
1
 10
-2493.804
 20
806.277
 30
3521.000
 70
    32
  0
VERTEX
  8
E18LXLIFT
 62
1
 10
-2500.826
 20
801.883
 30
3521.000
 70
    32
  0
VERTEX
  8
E18LXLIFT
 62
1
 10
-2508.111
 20
795.770
 30
3521.000
 70
    32
  0
VERTEX
  8
E18LXLIFT
 62
1
 10
-2512.398
 20
785.425
 30
3521.000
 70
    32
  0
SEQEND
  8
E18LXLIFT
  0
POLYLINE
  8
E18LXLIFT
 62
1
 66
     1
 70
     9
  0
VERTEX
  8
E18LXLIFT
 62
1
 10
-2463.082
 20
818.482
 30
3530.000
 70
    32
  0
VERTEX
  8
E18LXLIFT
 62
1
 10
-2459.898
 20
825.726
 30
3530.000
 70
    32
  0
VERTEX
  8
E18LXLIFT
 62
1
 10
-2458.891
 20
831.481
 30
3530.000
 70
    32
  0
VERTEX
  8
E18LXLIFT
 62
1
 10
-2458.735
 20
838.246
 30
3530.000
 70
    32
  0
VERTEX
  8
E18LXLIFT
 62
1
 10
-2455.239
 20
845.066
 30
3530.000
 70
    32
  0
VERTEX
  8
E18LXLIFT
 62
1
 10
-2447.600
 20
851.439
 30
3530.000
 70
    32
  0
VERTEX
  8
E18LXLIFT
 62
1
 10
-2441.630
 20
859.640
 30
3530.000
 70
    32
  0
VERTEX
  8
E18LXLIFT
 62
1
 10
-2445.733
 20
864.040
 30
3530.000
 70
    32
  0
VERTEX
  8
E18LXLIFT
 62
1
 10
-2453.942
 20
867.497
 30
3530.000
 70
    32
  0
VERTEX
  8
E18LXLIFT
 62
1
 10
-2459.366
 20
875.180
 30
3530.000
 70
    32
  0
VERTEX
  8
E18LXLIFT
 62
1
 10
-2464.288
 20
875.053
 30
3530.000
 70
    32
  0
VERTEX
  8
E18LXLIFT
 62
1
 10
-2473.208
 20
882.894
 30
3530.000
 70
    32
  0
VERTEX
  8
E18LXLIFT
 62
1
 10
-2483.517
 20
890.696
 30
3530.000
 70
    32
  0
VERTEX
  8
E18LXLIFT
 62
1
 10
-2481.205
 20
900.463
 30
3530.000
 70
    32
  0
VERTEX
  8
E18LXLIFT
 62
1
 10
-2476.626
 20
913.528
 30
3530.000
 70
    32
  0
VERTEX
  8
E18LXLIFT
 62
1
 10
-2468.934
 20
911.219
 30
3530.000
 70
    32
  0
VERTEX
  8
E18LXLIFT
 62
1
 10
-2456.340
 20
905.204
 30
3530.000
 70
    32
  0
VERTEX
  8
E18LXLIFT
 62
1
 10
-2448.079
 20
901.676
 30
3530.000
 70
    32
  0
VERTEX
  8
E18LXLIFT
 62
1
 10
-2439.953
 20
893.580
 30
3530.000
 70
    32
  0
VERTEX
  8
E18LXLIFT
 62
1
 10
-2432.848
 20
887.023
 30
3530.000
 70
    32
  0
VERTEX
  8
E18LXLIFT
 62
1
 10
-2424.328
 20
877.798
 30
3530.000
 70
    32
  0
VERTEX
  8
E18LXLIFT
 62
1
 10
-2414.869
 20
869.372
 30
3530.000
 70
    32
  0
VERTEX
  8
E18LXLIFT
 62
1
 10
-2410.309
 20
861.382
 30
3530.000
 70
    32
  0
VERTEX
  8
E18LXLIFT
 62
1
 10
-2401.196
 20
853.574
 30
3530.000
 70
    32
  0
VERTEX
  8
E18LXLIFT
 62
1
 10
-2399.307
 20
842.096
 30
3530.000
 70
    32
  0
VERTEX
  8
E18LXLIFT
 62
1
 10
-2397.892
 20
830.815
 30
3530.000
 70
    32
  0
VERTEX
  8
E18LXLIFT
 62
1
 10
-2401.268
 20
821.903
 30
3530.000
 70
    32
  0
VERTEX
  8
E18LXLIFT
 62
1
 10
-2408.240
 20
813.730
 30
3530.000
 70
    32
  0
VERTEX
  8
E18LXLIFT
 62
1
 10
-2415.436
 20
814.769
 30
3530.000
 70
    32
  0
VERTEX
  8
E18LXLIFT
 62
1
 10
-2424.307
 20
820.465
 30
3530.000
 70
    32
  0
VERTEX
  8
E18LXLIFT
 62
1
 10
-2428.563
 20
827.151
 30
3530.000
 70
    32
  0
VERTEX
  8
E18LXLIFT
 62
1
 10
-2435.907
 20
823.939
 30
3530.000
 70
    32
  0
VERTEX
  8
E18LXLIFT
 62
1
 10
-2443.647
 20
819.781
 30
3530.000
 70
    32
  0
VERTEX
  8
E18LXLIFT
 62
1
 10
-2451.911
 20
814.257
 30
3530.000
 70
    32
  0
SEQEND
  8
E18LXLIFT
  0
POLYLINE
  8
E18LXLIFT
 62
1
 66
     1
 70
     9
  0
VERTEX
  8
E18LXLIFT
 62
1
 10
-2435.952
 20
683.781
 30
3390.000
 70
    32
  0
VERTEX
  8
E18LXLIFT
 62
1
 10
-2442.473
 20
693.940
 30
3390.000
 70
    32
  0
VERTEX
  8
E18LXLIFT
 62
1
 10
-2445.794
 20
701.543
 30
3390.000
 70
    32
  0
VERTEX
  8
E18LXLIFT
 62
1
 10
-2450.659
 20
707.241
 30
3390.000
 70
    32
  0
VERTEX
  8
E18LXLIFT
 62
1
 10
-2456.000
 20
715.210
 30
3390.000
 70
    32
  0
VERTEX
  8
E18LXLIFT
 62
1
 10
-2457.815
 20
721.959
 30
3390.000
 70
    32
  0
VERTEX
  8
E18LXLIFT
 62
1
 10
-2461.883
 20
728.354
 30
3390.000
 70
    32
  0
VERTEX
  8
E18LXLIFT
 62
1
 10
-2468.864
 20
733.364
 30
3390.000
 70
    32
  0
VERTEX
  8
E18LXLIFT
 62
1
 10
-2469.308
 20
740.032
 30
3390.000
 70
    32
  0
VERTEX
  8
E18LXLIFT
 62
1
 10
-2469.684
 20
748.827
 30
3390.000
 70
    32
  0
VERTEX
  8
E18LXLIFT
 62
1
 10
-2471.314
 20
756.805
 30
3390.000
 70
    32
  0
VERTEX
  8
E18LXLIFT
 62
1
 10
-2462.580
 20
758.447
 30
3390.000
 70
    32
  0
VERTEX
  8
E18LXLIFT
 62
1
 10
-2459.737
 20
755.191
 30
3390.000
 70
    32
  0
VERTEX
  8
E18LXLIFT
 62
1
 10
-2456.284
 20
746.373
 30
3390.000
 70
    32
  0
VERTEX
  8
E18LXLIFT
 62
1
 10
-2451.266
 20
737.509
 30
3390.000
 70
    32
  0
VERTEX
  8
E18LXLIFT
 62
1
 10
-2444.752
 20
736.090
 30
3390.000
 70
    32
  0
VERTEX
  8
E18LXLIFT
 62
1
 10
-2438.302
 20
738.013
 30
3390.000
 70
    32
  0
VERTEX
  8
E18LXLIFT
 62
1
 10
-2432.076
 20
743.050
 30
3390.000
 70
    32
  0
VERTEX
  8
E18LXLIFT
 62
1
 10
-2425.329
 20
749.455
 30
3390.000
 70
    32
  0
VERTEX
  8
E18LXLIFT
 62
1
 10
-2419.803
 20
757.364
 30
3390.000
 70
    32
  0
VERTEX
  8
E18LXLIFT
 62
1
 10
-2412.601
 20
765.963
 30
3390.000
 70
    32
  0
VERTEX
  8
E18LXLIFT
 62
1
 10
-2407.518
 20
773.435
 30
3390.000
 70
    32
  0
VERTEX
  8
E18LXLIFT
 62
1
 10
-2402.716
 20
773.594
 30
3390.000
 70
    32
  0
VERTEX
  8
E18LXLIFT
 62
1
 10
-2398.316
 20
776.516
 30
3390.000
 70
    32
  0
VERTEX
  8
E18LXLIFT
 62
1
 10
-2391.875
 20
779.635
 30
3390.000
 70
    32
  0
VERTEX
  8
E18LXLIFT
 62
1
 10
-2388.340
 20
777.218
 30
3390.000
 70
    32
  0
VERTEX
  8
E18LXLIFT
 62
1
 10
-2380.127
 20
769.948
 30
3390.000
 70
    32
  0
VERTEX
  8
E18LXLIFT
 62
1
 10
-2379.735
 20
765.866
 30
3390.000
 70
    32
  0
VERTEX
  8
E18LXLIFT
 62
1
 10
-2375.217
 20
760.786
 30
3390.000
 70
    32
  0
VERTEX
  8
E18LXLIFT
 62
1
 10
-2377.552
 20
754.033
 30
3390.000
 70
    32
  0
VERTEX
  8
E18LXLIFT
 62
1
 10
-2382.264
 20
746.945
 30
3390.000
 70
    32
  0
VERTEX
  8
E18LXLIFT
 62
1
 10
-2387.579
 20
746.298
 30
3390.000
 70
    32
  0
VERTEX
  8
E18LXLIFT
 62
1
 10
-2393.024
 20
744.790
 30
3390.000
 70
    32
  0
VERTEX
  8
E18LXLIFT
 62
1
 10
-2397.796
 20
738.968
 30
3390.000
 70
    32
  0
VERTEX
  8
E18LXLIFT
 62
1
 10
-2398.235
 20
729.352
 30
3390.000
 70
    32
  0
VERTEX
  8
E18LXLIFT
 62
1
 10
-2404.993
 20
728.733
 30
3390.000
 70
    32
  0
VERTEX
  8
E18LXLIFT
 62
1
 10
-2413.776
 20
727.601
 30
3390.000
 70
    32
  0
VERTEX
  8
E18LXLIFT
 62
1
 10
-2419.261
 20
725.407
 30
3390.000
 70
    32
  0
VERTEX
  8
E18LXLIFT
 62
1
 10
-2421.590
 20
717.018
 30
3390.000
 70
    32
  0
VERTEX
  8
E18LXLIFT
 62
1
 10
-2423.547
 20
699.395
 30
3390.000
 70
    32
  0
VERTEX
  8
E18LXLIFT
 62
1
 10
-2425.316
 20
680.925
 30
3390.000
 70
    32
  0
SEQEND
  8
E18LXLIFT
  0
POLYLINE
  8
E18LXLIFT
 62
1
 66
     1
 70
     9
  0
VERTEX
  8
E18LXLIFT
 62
1
 10
-2415.377
 20
645.880
 30
3440.000
 70
    32
  0
VERTEX
  8
E18LXLIFT
 62
1
 10
-2407.852
 20
652.261
 30
3440.000
 70
    32
  0
VERTEX
  8
E18LXLIFT
 62
1
 10
-2400.495
 20
654.708
 30
3440.000
 70
    32
  0
VERTEX
  8
E18LXLIFT
 62
1
 10
-2391.651
 20
656.610
 30
3440.000
 70
    32
  0
VERTEX
  8
E18LXLIFT
 62
1
 10
-2382.630
 20
661.692
 30
3440.000
 70
    32
  0
VERTEX
  8
E18LXLIFT
 62
1
 10
-2371.379
 20
660.456
 30
3440.000
 70
    32
  0
VERTEX
  8
E18LXLIFT
 62
1
 10
-2361.729
 20
659.028
 30
3440.000
 70
    32
  0
VERTEX
  8
E18LXLIFT
 62
1
 10
-2357.751
 20
653.446
 30
3440.000
 70
    32
  0
VERTEX
  8
E18LXLIFT
 62
1
 10
-2354.881
 20
643.132
 30
3440.000
 70
    32
  0
VERTEX
  8
E18LXLIFT
 62
1
 10
-2351.354
 20
633.408
 30
3440.000
 70
    32
  0
VERTEX
  8
E18LXLIFT
 62
1
 10
-2353.144
 20
625.889
 30
3440.000
 70
    32
  0
VERTEX
  8
E18LXLIFT
 62
1
 10
-2352.746
 20
620.735
 30
3440.000
 70
    32
  0
VERTEX
  8
E18LXLIFT
 62
1
 10
-2347.955
 20
609.433
 30
3440.000
 70
    32
  0
VERTEX
  8
E18LXLIFT
 62
1
 10
-2345.179
 20
600.139
 30
3440.000
 70
    32
  0
VERTEX
  8
E18LXLIFT
 62
1
 10
-2344.200
 20
593.450
 30
3440.000
 70
    32
  0
VERTEX
  8
E18LXLIFT
 62
1
 10
-2348.237
 20
589.295
 30
3440.000
 70
    32
  0
VERTEX
  8
E18LXLIFT
 62
1
 10
-2356.331
 20
586.962
 30
3440.000
 70
    32
  0
VERTEX
  8
E18LXLIFT
 62
1
 10
-2362.840
 20
587.968
 30
3440.000
 70
    32
  0
VERTEX
  8
E18LXLIFT
 62
1
 10
-2370.962
 20
592.367
 30
3440.000
 70
    32
  0
VERTEX
  8
E18LXLIFT
 62
1
 10
-2376.371
 20
598.861
 30
3440.000
 70
    32
  0
VERTEX
  8
E18LXLIFT
 62
1
 10
-2385.159
 20
603.425
 30
3440.000
 70
    32
  0
VERTEX
  8
E18LXLIFT
 62
1
 10
-2393.399
 20
606.648
 30
3440.000
 70
    32
  0
VERTEX
  8
E18LXLIFT
 62
1
 10
-2400.569
 20
615.992
 30
3440.000
 70
    32
  0
VERTEX
  8
E18LXLIFT
 62
1
 10
-2403.903
 20
624.114
 30
3440.000
 70
    32
  0
VERTEX
  8
E18LXLIFT
 62
1
 10
-2407.544
 20
633.101
 30
3440.000
 70
    32
  0
SEQEND
  8
E18LXLIFT
  0
POLYLINE
  8
E18LXLIFT
 62
1
 66
     1
 70
     9
  0
VERTEX
  8
E18LXLIFT
 62
1
 10
-1309.993
 20
-1457.438
 30
3398.000
 70
    32
  0
VERTEX
  8
E18LXLIFT
 62
1
 10
-1310.209
 20
-1448.356
 30
3398.000
 70
    32
  0
VERTEX
  8
E18LXLIFT
 62
1
 10
-1309.967
 20
-1439.158
 30
3398.000
 70
    32
  0
VERTEX
  8
E18LXLIFT
 62
1
 10
-1309.040
 20
-1427.177
 30
3398.000
 70
    32
  0
VERTEX
  8
E18LXLIFT
 62
1
 10
-1309.197
 20
-1414.900
 30
3398.000
 70
    32
  0
VERTEX
  8
E18LXLIFT
 62
1
 10
-1294.912
 20
-1415.559
 30
3398.000
 70
    32
  0
VERTEX
  8
E18LXLIFT
 62
1
 10
-1288.278
 20
-1418.542
 30
3398.000
 70
    32
  0
VERTEX
  8
E18LXLIFT
 62
1
 10
-1280.109
 20
-1416.927
 30
3398.000
 70
    32
  0
VERTEX
  8
E18LXLIFT
 62
1
 10
-1269.362
 20
-1416.908
 30
3398.000
 70
    32
  0
VERTEX
  8
E18LXLIFT
 62
1
 10
-1267.241
 20
-1422.642
 30
3398.000
 70
    32
  0
VERTEX
  8
E18LXLIFT
 62
1
 10
-1262.139
 20
-1431.418
 30
3398.000
 70
    32
  0
VERTEX
  8
E18LXLIFT
 62
1
 10
-1255.579
 20
-1440.107
 30
3398.000
 70
    32
  0
VERTEX
  8
E18LXLIFT
 62
1
 10
-1252.375
 20
-1448.963
 30
3398.000
 70
    32
  0
VERTEX
  8
E18LXLIFT
 62
1
 10
-1247.685
 20
-1458.366
 30
3398.000
 70
    32
  0
VERTEX
  8
E18LXLIFT
 62
1
 10
-1244.923
 20
-1464.828
 30
3398.000
 70
    32
  0
VERTEX
  8
E18LXLIFT
 62
1
 10
-1249.313
 20
-1471.620
 30
3398.000
 70
    32
  0
VERTEX
  8
E18LXLIFT
 62
1
 10
-1258.503
 20
-1476.155
 30
3398.000
 70
    32
  0
VERTEX
  8
E18LXLIFT
 62
1
 10
-1267.638
 20
-1475.106
 30
3398.000
 70
    32
  0
VERTEX
  8
E18LXLIFT
 62
1
 10
-1275.479
 20
-1475.830
 30
3398.000
 70
    32
  0
VERTEX
  8
E18LXLIFT
 62
1
 10
-1281.512
 20
-1480.669
 30
3398.000
 70
    32
  0
VERTEX
  8
E18LXLIFT
 62
1
 10
-1285.619
 20
-1476.384
 30
3398.000
 70
    32
  0
VERTEX
  8
E18LXLIFT
 62
1
 10
-1290.420
 20
-1476.954
 30
3398.000
 70
    32
  0
VERTEX
  8
E18LXLIFT
 62
1
 10
-1295.290
 20
-1474.749
 30
3398.000
 70
    32
  0
VERTEX
  8
E18LXLIFT
 62
1
 10
-1300.285
 20
-1468.503
 30
3398.000
 70
    32
  0
SEQEND
  8
E18LXLIFT
  0
POLYLINE
  8
E18LXLIFT
 62
1
 66
     1
 70
     9
  0
VERTEX
  8
E18LXLIFT
 62
1
 10
-1302.703
 20
-1493.747
 30
3393.000
 70
    32
  0
VERTEX
  8
E18LXLIFT
 62
1
 10
-1300.108
 20
-1503.091
 30
3393.000
 70
    32
  0
VERTEX
  8
E18LXLIFT
 62
1
 10
-1298.585
 20
-1512.907
 30
3393.000
 70
    32
  0
VERTEX
  8
E18LXLIFT
 62
1
 10
-1295.568
 20
-1521.936
 30
3393.000
 70
    32
  0
VERTEX
  8
E18LXLIFT
 62
1
 10
-1289.571
 20
-1524.688
 30
3393.000
 70
    32
  0
VERTEX
  8
E18LXLIFT
 62
1
 10
-1282.479
 20
-1524.651
 30
3393.000
 70
    32
  0
VERTEX
  8
E18LXLIFT
 62
1
 10
-1281.572
 20
-1535.255
 30
3393.000
 70
    32
  0
VERTEX
  8
E18LXLIFT
 62
1
 10
-1287.246
 20
-1544.968
 30
3393.000
 70
    32
  0
VERTEX
  8
E18LXLIFT
 62
1
 10
-1294.150
 20
-1547.603
 30
3393.000
 70
    32
  0
VERTEX
  8
E18LXLIFT
 62
1
 10
-1299.161
 20
-1559.230
 30
3393.000
 70
    32
  0
VERTEX
  8
E18LXLIFT
 62
1
 10
-1307.217
 20
-1566.339
 30
3393.000
 70
    32
  0
VERTEX
  8
E18LXLIFT
 62
1
 10
-1315.440
 20
-1570.288
 30
3393.000
 70
    32
  0
VERTEX
  8
E18LXLIFT
 62
1
 10
-1322.511
 20
-1576.662
 30
3393.000
 70
    32
  0
VERTEX
  8
E18LXLIFT
 62
1
 10
-1332.969
 20
-1582.607
 30
3393.000
 70
    32
  0
VERTEX
  8
E18LXLIFT
 62
1
 10
-1338.546
 20
-1580.418
 30
3393.000
 70
    32
  0
VERTEX
  8
E18LXLIFT
 62
1
 10
-1344.491
 20
-1569.960
 30
3393.000
 70
    32
  0
VERTEX
  8
E18LXLIFT
 62
1
 10
-1346.386
 20
-1561.407
 30
3393.000
 70
    32
  0
VERTEX
  8
E18LXLIFT
 62
1
 10
-1340.476
 20
-1556.119
 30
3393.000
 70
    32
  0
VERTEX
  8
E18LXLIFT
 62
1
 10
-1335.810
 20
-1549.898
 30
3393.000
 70
    32
  0
VERTEX
  8
E18LXLIFT
 62
1
 10
-1336.019
 20
-1540.963
 30
3393.000
 70
    32
  0
VERTEX
  8
E18LXLIFT
 62
1
 10
-1334.141
 20
-1533.208
 30
3393.000
 70
    32
  0
VERTEX
  8
E18LXLIFT
 62
1
 10
-1328.277
 20
-1532.554
 30
3393.000
 70
    32
  0
VERTEX
  8
E18LXLIFT
 62
1
 10
-1323.197
 20
-1529.529
 30
3393.000
 70
    32
  0
VERTEX
  8
E18LXLIFT
 62
1
 10
-1327.092
 20
-1520.936
 30
3393.000
 70
    32
  0
VERTEX
  8
E18LXLIFT
 62
1
 10
-1329.460
 20
-1512.189
 30
3393.000
 70
    32
  0
VERTEX
  8
E18LXLIFT
 62
1
 10
-1322.796
 20
-1506.885
 30
3393.000
 70
    32
  0
VERTEX
  8
E18LXLIFT
 62
1
 10
-1316.298
 20
-1497.543
 30
3393.000
 70
    32
  0
VERTEX
  8
E18LXLIFT
 62
1
 10
-1312.345
 20
-1488.020
 30
3393.000
 70
    32
  0
SEQEND
  8
E18LXLIFT
  0
POLYLINE
  8
E18LXLIFT
 62
3
 66
     1
 70
     9
  0
VERTEX
  8
E18LXLIFT
 62
3
 10
362.134
 20
-1913.749
 30
3386.027
 70
    32
  0
VERTEX
  8
E18LXLIFT
 62
3
 10
362.984
 20
-1903.752
 30
3385.109
 70
    32
  0
VERTEX
  8
E18LXLIFT
 62
3
 10
364.419
 20
-1898.122
 30
3384.489
 70
    32
  0
VERTEX
  8
E18LXLIFT
 62
3
 10
366.276
 20
-1894.674
 30
3383.255
 70
    32
  0
VERTEX
  8
E18LXLIFT
 62
3
 10
371.699
 20
-1885.594
 30
3382.570
 70
    32
  0
VERTEX
  8
E18LXLIFT
 62
3
 10
378.427
 20
-1879.901
 30
3381.950
 70
    32
  0
VERTEX
  8
E18LXLIFT
 62
3
 10
374.436
 20
-1871.925
 30
3381.850
 70
    32
  0
VERTEX
  8
E18LXLIFT
 62
3
 10
375.482
 20
-1869.633
 30
3381.696
 70
    32
  0
VERTEX
  8
E18LXLIFT
 62
3
 10
371.411
 20
-1860.952
 30
3381.571
 70
    32
  0
VERTEX
  8
E18LXLIFT
 62
3
 10
366.375
 20
-1853.633
 30
3381.557
 70
    32
  0
VERTEX
  8
E18LXLIFT
 62
3
 10
366.200
 20
-1851.908
 30
3381.496
 70
    32
  0
VERTEX
  8
E18LXLIFT
 62
3
 10
367.217
 20
-1850.618
 30
3381.385
 70
    32
  0
VERTEX
  8
E18LXLIFT
 62
3
 10
364.298
 20
-1845.889
 30
3381.357
 70
    32
  0
VERTEX
  8
E18LXLIFT
 62
3
 10
359.481
 20
-1834.704
 30
3381.172
 70
    32
  0
VERTEX
  8
E18LXLIFT
 62
3
 10
348.474
 20
-1829.797
 30
3381.600
 70
    32
  0
VERTEX
  8
E18LXLIFT
 62
3
 10
343.674
 20
-1823.395
 30
3381.610
 70
    32
  0
VERTEX
  8
E18LXLIFT
 62
3
 10
331.897
 20
-1814.910
 30
3381.935
 70
    32
  0
VERTEX
  8
E18LXLIFT
 62
3
 10
326.444
 20
-1811.930
 30
3382.124
 70
    32
  0
VERTEX
  8
E18LXLIFT
 62
3
 10
318.049
 20
-1810.887
 30
3382.562
 70
    32
  0
VERTEX
  8
E18LXLIFT
 62
3
 10
311.877
 20
-1807.670
 30
3382.783
 70
    32
  0
VERTEX
  8
E18LXLIFT
 62
3
 10
308.715
 20
-1807.371
 30
3382.952
 70
    32
  0
VERTEX
  8
E18LXLIFT
 62
3
 10
305.031
 20
-1809.634
 30
3383.256
 70
    32
  0
VERTEX
  8
E18LXLIFT
 62
3
 10
298.083
 20
-1809.820
 30
3383.661
 70
    32
  0
VERTEX
  8
E18LXLIFT
 62
3
 10
291.220
 20
-1807.000
 30
3383.938
 70
    32
  0
VERTEX
  8
E18LXLIFT
 62
3
 10
286.369
 20
-1798.891
 30
3383.882
 70
    32
  0
VERTEX
  8
E18LXLIFT
 62
3
 10
279.343
 20
-1791.831
 30
3383.993
 70
    32
  0
VERTEX
  8
E18LXLIFT
 62
3
 10
271.226
 20
-1780.011
 30
3383.970
 70
    32
  0
VERTEX
  8
E18LXLIFT
 62
3
 10
257.284
 20
-1762.321
 30
3384.039
 70
    32
  0
VERTEX
  8
E18LXLIFT
 62
3
 10
254.016
 20
-1754.142
 30
3383.889
 70
    32
  0
VERTEX
  8
E18LXLIFT
 62
3
 10
250.454
 20
-1748.686
 30
3383.868
 70
    32
  0
VERTEX
  8
E18LXLIFT
 62
3
 10
243.717
 20
-1740.978
 30
3383.936
 70
    32
  0
VERTEX
  8
E18LXLIFT
 62
3
 10
240.753
 20
-1740.207
 30
3384.074
 70
    32
  0
VERTEX
  8
E18LXLIFT
 62
3
 10
237.581
 20
-1740.787
 30
3384.279
 70
    32
  0
VERTEX
  8
E18LXLIFT
 62
3
 10
230.993
 20
-1746.547
 30
3384.713
 70
    32
  0
VERTEX
  8
E18LXLIFT
 62
3
 10
234.613
 20
-1751.464
 30
3384.811
 70
    32
  0
VERTEX
  8
E18LXLIFT
 62
3
 10
230.679
 20
-1755.764
 30
3385.141
 70
    32
  0
VERTEX
  8
E18LXLIFT
 62
3
 10
234.681
 20
-1759.590
 30
3385.228
 70
    32
  0
VERTEX
  8
E18LXLIFT
 62
3
 10
240.344
 20
-1759.582
 30
3385.071
 70
    32
  0
VERTEX
  8
E18LXLIFT
 62
3
 10
259.657
 20
-1786.090
 30
3385.569
 70
    32
  0
VERTEX
  8
E18LXLIFT
 62
3
 10
261.190
 20
-1795.322
 30
3385.501
 70
    32
  0
VERTEX
  8
E18LXLIFT
 62
3
 10
262.173
 20
-1795.474
 30
3385.524
 70
    32
  0
VERTEX
  8
E18LXLIFT
 62
3
 10
268.031
 20
-1826.825
 30
3385.307
 70
    32
  0
VERTEX
  8
E18LXLIFT
 62
3
 10
271.414
 20
-1830.996
 30
3385.344
 70
    32
  0
VERTEX
  8
E18LXLIFT
 62
3
 10
275.914
 20
-1843.831
 30
3385.309
 70
    32
  0
VERTEX
  8
E18LXLIFT
 62
3
 10
281.178
 20
-1848.040
 30
3385.394
 70
    32
  0
VERTEX
  8
E18LXLIFT
 62
3
 10
283.657
 20
-1854.399
 30
3385.383
 70
    32
  0
VERTEX
  8
E18LXLIFT
 62
3
 10
285.070
 20
-1855.435
 30
3385.407
 70
    32
  0
VERTEX
  8
E18LXLIFT
 62
3
 10
293.503
 20
-1856.232
 30
3385.613
 70
    32
  0
VERTEX
  8
E18LXLIFT
 62
3
 10
296.305
 20
-1857.231
 30
3385.673
 70
    32
  0
VERTEX
  8
E18LXLIFT
 62
3
 10
300.312
 20
-1862.252
 30
3385.717
 70
    32
  0
VERTEX
  8
E18LXLIFT
 62
3
 10
304.666
 20
-1872.360
 30
3385.710
 70
    32
  0
VERTEX
  8
E18LXLIFT
 62
3
 10
317.429
 20
-1872.819
 30
3386.031
 70
    32
  0
VERTEX
  8
E18LXLIFT
 62
3
 10
324.258
 20
-1875.445
 30
3386.174
 70
    32
  0
VERTEX
  8
E18LXLIFT
 62
3
 10
356.828
 20
-1920.453
 30
3386.298
 70
    32
  0
SEQEND
  8
E18LXLIFT
  0
POLYLINE
  8
E18LXLIFT
 62
1
 66
     1
 70
     9
  0
VERTEX
  8
E18LXLIFT
 62
1
 10
363.134
 20
-1912.749
 30
3396.027
 70
    32
  0
VERTEX
  8
E18LXLIFT
 62
1
 10
363.984
 20
-1902.752
 30
3395.109
 70
    32
  0
VERTEX
  8
E18LXLIFT
 62
1
 10
365.419
 20
-1897.122
 30
3394.489
 70
    32
  0
VERTEX
  8
E18LXLIFT
 62
1
 10
367.276
 20
-1893.674
 30
3393.255
 70
    32
  0
VERTEX
  8
E18LXLIFT
 62
1
 10
372.699
 20
-1884.594
 30
3392.570
 70
    32
  0
VERTEX
  8
E18LXLIFT
 62
1
 10
379.427
 20
-1878.901
 30
3391.950
 70
    32
  0
VERTEX
  8
E18LXLIFT
 62
1
 10
375.436
 20
-1870.925
 30
3391.850
 70
    32
  0
VERTEX
  8
E18LXLIFT
 62
1
 10
376.482
 20
-1868.633
 30
3391.696
 70
    32
  0
VERTEX
  8
E18LXLIFT
 62
1
 10
372.411
 20
-1859.952
 30
3391.571
 70
    32
  0
VERTEX
  8
E18LXLIFT
 62
1
 10
367.375
 20
-1852.633
 30
3391.557
 70
    32
  0
VERTEX
  8
E18LXLIFT
 62
1
 10
367.200
 20
-1850.908
 30
3391.496
 70
    32
  0
VERTEX
  8
E18LXLIFT
 62
1
 10
368.217
 20
-1849.618
 30
3391.385
 70
    32
  0
VERTEX
  8
E18LXLIFT
 62
1
 10
365.298
 20
-1844.889
 30
3391.357
 70
    32
  0
VERTEX
  8
E18LXLIFT
 62
1
 10
360.481
 20
-1833.704
 30
3391.172
 70
    32
  0
VERTEX
  8
E18LXLIFT
 62
1
 10
349.474
 20
-1828.797
 30
3391.600
 70
    32
  0
VERTEX
  8
E18LXLIFT
 62
1
 10
344.674
 20
-1822.395
 30
3391.610
 70
    32
  0
VERTEX
  8
E18LXLIFT
 62
1
 10
332.897
 20
-1813.910
 30
3391.935
 70
    32
  0
VERTEX
  8
E18LXLIFT
 62
1
 10
327.444
 20
-1810.930
 30
3392.124
 70
    32
  0
VERTEX
  8
E18LXLIFT
 62
1
 10
319.049
 20
-1809.887
 30
3392.562
 70
    32
  0
VERTEX
  8
E18LXLIFT
 62
1
 10
312.877
 20
-1806.670
 30
3392.783
 70
    32
  0
VERTEX
  8
E18LXLIFT
 62
1
 10
309.715
 20
-1806.371
 30
3392.952
 70
    32
  0
VERTEX
  8
E18LXLIFT
 62
1
 10
306.031
 20
-1808.634
 30
3393.256
 70
    32
  0
VERTEX
  8
E18LXLIFT
 62
1
 10
299.083
 20
-1808.820
 30
3393.661
 70
    32
  0
VERTEX
  8
E18LXLIFT
 62
1
 10
292.220
 20
-1806.000
 30
3393.938
 70
    32
  0
VERTEX
  8
E18LXLIFT
 62
1
 10
287.369
 20
-1797.891
 30
3393.882
 70
    32
  0
VERTEX
  8
E18LXLIFT
 62
1
 10
280.343
 20
-1790.831
 30
3393.993
 70
    32
  0
VERTEX
  8
E18LXLIFT
 62
1
 10
272.226
 20
-1779.011
 30
3393.970
 70
    32
  0
VERTEX
  8
E18LXLIFT
 62
1
 10
258.284
 20
-1761.321
 30
3394.039
 70
    32
  0
VERTEX
  8
E18LXLIFT
 62
1
 10
255.016
 20
-1753.142
 30
3393.889
 70
    32
  0
VERTEX
  8
E18LXLIFT
 62
1
 10
251.454
 20
-1747.686
 30
3393.868
 70
    32
  0
VERTEX
  8
E18LXLIFT
 62
1
 10
244.717
 20
-1739.978
 30
3393.936
 70
    32
  0
VERTEX
  8
E18LXLIFT
 62
1
 10
241.753
 20
-1739.207
 30
3394.074
 70
    32
  0
VERTEX
  8
E18LXLIFT
 62
1
 10
238.581
 20
-1739.787
 30
3394.279
 70
    32
  0
VERTEX
  8
E18LXLIFT
 62
1
 10
231.993
 20
-1745.547
 30
3394.713
 70
    32
  0
VERTEX
  8
E18LXLIFT
 62
1
 10
235.613
 20
-1750.464
 30
3394.811
 70
    32
  0
VERTEX
  8
E18LXLIFT
 62
1
 10
231.679
 20
-1754.764
 30
3395.141
 70
    32
  0
VERTEX
  8
E18LXLIFT
 62
1
 10
235.681
 20
-1758.590
 30
3395.228
 70
    32
  0
VERTEX
  8
E18LXLIFT
 62
1
 10
241.344
 20
-1758.582
 30
3395.071
 70
    32
  0
VERTEX
  8
E18LXLIFT
 62
1
 10
260.657
 20
-1785.090
 30
3395.569
 70
    32
  0
VERTEX
  8
E18LXLIFT
 62
1
 10
262.190
 20
-1794.322
 30
3395.501
 70
    32
  0
VERTEX
  8
E18LXLIFT
 62
1
 10
263.173
 20
-1794.474
 30
3395.524
 70
    32
  0
VERTEX
  8
E18LXLIFT
 62
1
 10
269.031
 20
-1825.825
 30
3395.307
 70
    32
  0
VERTEX
  8
E18LXLIFT
 62
1
 10
272.414
 20
-1829.996
 30
3395.344
 70
    32
  0
VERTEX
  8
E18LXLIFT
 62
1
 10
276.914
 20
-1842.831
 30
3395.309
 70
    32
  0
VERTEX
  8
E18LXLIFT
 62
1
 10
282.178
 20
-1847.040
 30
3395.394
 70
    32
  0
VERTEX
  8
E18LXLIFT
 62
1
 10
284.657
 20
-1853.399
 30
3395.383
 70
    32
  0
VERTEX
  8
E18LXLIFT
 62
1
 10
286.070
 20
-1854.435
 30
3395.407
 70
    32
  0
VERTEX
  8
E18LXLIFT
 62
1
 10
294.503
 20
-1855.232
 30
3395.613
 70
    32
  0
VERTEX
  8
E18LXLIFT
 62
1
 10
297.305
 20
-1856.231
 30
3395.673
 70
    32
  0
VERTEX
  8
E18LXLIFT
 62
1
 10
301.312
 20
-1861.252
 30
3395.717
 70
    32
  0
VERTEX
  8
E18LXLIFT
 62
1
 10
305.666
 20
-1871.360
 30
3395.710
 70
    32
  0
VERTEX
  8
E18LXLIFT
 62
1
 10
318.429
 20
-1871.819
 30
3396.031
 70
    32
  0
VERTEX
  8
E18LXLIFT
 62
1
 10
325.258
 20
-1874.445
 30
3396.174
 70
    32
  0
VERTEX
  8
E18LXLIFT
 62
1
 10
357.828
 20
-1919.453
 30
3396.298
 70
    32
  0
SEQEND
  8
E18LXLIFT
  0
POINT
  8
E18LXLIFT
 62
1
 10
334.965
 20
-1856.952
 30
3381.600
  0
LINE
  8
E18LXLIFT
 62
3
 10
334.965
 20
-1856.952
 30
3381.600
 11
352.726
 21
-1857.119
 31
3234.989
  0
POINT
  8
E18LXLIFT
 62
1
 10
352.726
 20
-1857.119
 30
3234.989
  0
POINT
  8
E18LXLIFT
 62
1
 10
56.536
 20
-1618.242
 30
3467.000
  0
LINE
  8
E18LXLIFT
 62
7
 10
56.536
 20
-1618.242
 30
3467.000
 11
72.111
 21
-1616.121
 31
3293.000
  0
POINT
  8
E18LXLIFT
 62
1
 10
72.111
 20
-1616.121
 30
3293.000
  0
POLYLINE
  8
E18LXLIFT
 62
3
 66
     1
 70
     9
  0
VERTEX
  8
E18LXLIFT
 62
3
 10
-2347.704
 20
635.358
 30
3381.262
 70
    32
  0
VERTEX
  8
E18LXLIFT
 62
3
 10
-2333.810
 20
644.660
 30
3381.480
 70
    32
  0
VERTEX
  8
E18LXLIFT
 62
3
 10
-2325.060
 20
648.594
 30
3381.612
 70
    32
  0
VERTEX
  8
E18LXLIFT
 62
3
 10
-2321.387
 20
649.039
 30
3381.673
 70
    32
  0
VERTEX
  8
E18LXLIFT
 62
3
 10
-2314.815
 20
647.980
 30
3381.791
 70
    32
  0
VERTEX
  8
E18LXLIFT
 62
3
 10
-2312.294
 20
639.093
 30
3381.887
 70
    32
  0
VERTEX
  8
E18LXLIFT
 62
3
 10
-2310.341
 20
636.488
 30
3382.022
 70
    32
  0
VERTEX
  8
E18LXLIFT
 62
3
 10
-2308.205
 20
636.060
 30
3382.094
 70
    32
  0
VERTEX
  8
E18LXLIFT
 62
3
 10
-2306.156
 20
634.385
 30
3382.203
 70
    32
  0
VERTEX
  8
E18LXLIFT
 62
3
 10
-2301.655
 20
627.116
 30
3382.440
 70
    32
  0
VERTEX
  8
E18LXLIFT
 62
3
 10
-2304.455
 20
625.133
 30
3382.538
 70
    32
  0
VERTEX
  8
E18LXLIFT
 62
3
 10
-2316.037
 20
621.242
 30
3382.340
 70
    32
  0
VERTEX
  8
E18LXLIFT
 62
3
 10
-2329.357
 20
612.346
 30
3382.210
 70
    32
  0
VERTEX
  8
E18LXLIFT
 62
3
 10
-2324.134
 20
608.930
 30
3382.500
 70
    32
  0
VERTEX
  8
E18LXLIFT
 62
3
 10
-2316.594
 20
609.851
 30
3382.679
 70
    32
  0
VERTEX
  8
E18LXLIFT
 62
3
 10
-2311.721
 20
614.025
 30
3382.684
 70
    32
  0
VERTEX
  8
E18LXLIFT
 62
3
 10
-2306.486
 20
608.062
 30
3383.014
 70
    32
  0
VERTEX
  8
E18LXLIFT
 62
3
 10
-2315.733
 20
600.112
 30
3383.006
 70
    32
  0
VERTEX
  8
E18LXLIFT
 62
3
 10
-2313.669
 20
597.046
 30
3383.159
 70
    32
  0
VERTEX
  8
E18LXLIFT
 62
3
 10
-2312.580
 20
598.248
 30
3383.151
 70
    32
  0
VERTEX
  8
E18LXLIFT
 62
3
 10
-2297.866
 20
589.804
 30
3383.602
 70
    32
  0
VERTEX
  8
E18LXLIFT
 62
3
 10
-2272.271
 20
571.170
 30
3383.786
 70
    32
  0
VERTEX
  8
E18LXLIFT
 62
3
 10
-2278.667
 20
557.369
 30
3383.448
 70
    32
  0
VERTEX
  8
E18LXLIFT
 62
3
 10
-2265.423
 20
544.758
 30
3383.224
 70
    32
  0
VERTEX
  8
E18LXLIFT
 62
3
 10
-2264.489
 20
542.832
 30
3383.169
 70
    32
  0
VERTEX
  8
E18LXLIFT
 62
3
 10
-2257.798
 20
535.820
 30
3383.032
 70
    32
  0
VERTEX
  8
E18LXLIFT
 62
3
 10
-2251.146
 20
531.907
 30
3383.012
 70
    32
  0
VERTEX
  8
E18LXLIFT
 62
3
 10
-2249.121
 20
526.765
 30
3382.855
 70
    32
  0
VERTEX
  8
E18LXLIFT
 62
3
 10
-2247.431
 20
524.836
 30
3382.815
 70
    32
  0
VERTEX
  8
E18LXLIFT
 62
3
 10
-2247.351
 20
521.982
 30
3382.708
 70
    32
  0
VERTEX
  8
E18LXLIFT
 62
3
 10
-2238.452
 20
506.831
 30
3381.627
 70
    32
  0
VERTEX
  8
E18LXLIFT
 62
3
 10
-2231.381
 20
500.197
 30
3380.841
 70
    32
  0
VERTEX
  8
E18LXLIFT
 62
3
 10
-2232.416
 20
497.092
 30
3380.626
 70
    32
  0
VERTEX
  8
E18LXLIFT
 62
3
 10
-2231.106
 20
494.786
 30
3380.394
 70
    32
  0
VERTEX
  8
E18LXLIFT
 62
3
 10
-2226.249
 20
489.602
 30
3379.803
 70
    32
  0
VERTEX
  8
E18LXLIFT
 62
3
 10
-2218.708
 20
474.998
 30
3378.355
 70
    32
  0
VERTEX
  8
E18LXLIFT
 62
3
 10
-2211.060
 20
466.940
 30
3377.433
 70
    32
  0
VERTEX
  8
E18LXLIFT
 62
3
 10
-2217.076
 20
461.278
 30
3377.188
 70
    32
  0
VERTEX
  8
E18LXLIFT
 62
3
 10
-2233.132
 20
476.641
 30
3378.999
 70
    32
  0
VERTEX
  8
E18LXLIFT
 62
3
 10
-2235.145
 20
477.048
 30
3379.103
 70
    32
  0
VERTEX
  8
E18LXLIFT
 62
3
 10
-2237.822
 20
475.044
 30
3379.036
 70
    32
  0
VERTEX
  8
E18LXLIFT
 62
3
 10
-2261.281
 20
506.186
 30
3381.837
 70
    32
  0
VERTEX
  8
E18LXLIFT
 62
3
 10
-2270.470
 20
517.789
 30
3382.101
 70
    32
  0
VERTEX
  8
E18LXLIFT
 62
3
 10
-2287.390
 20
536.961
 30
3382.503
 70
    32
  0
VERTEX
  8
E18LXLIFT
 62
3
 10
-2299.848
 20
546.787
 30
3382.635
 70
    32
  0
VERTEX
  8
E18LXLIFT
 62
3
 10
-2332.419
 20
565.223
 30
3382.127
 70
    32
  0
VERTEX
  8
E18LXLIFT
 62
3
 10
-2344.263
 20
574.945
 30
3381.988
 70
    32
  0
VERTEX
  8
E18LXLIFT
 62
3
 10
-2353.979
 20
585.313
 30
3381.276
 70
    32
  0
VERTEX
  8
E18LXLIFT
 62
3
 10
-2364.172
 20
591.029
 30
3380.688
 70
    32
  0
VERTEX
  8
E18LXLIFT
 62
3
 10
-2366.801
 20
595.959
 30
3380.496
 70
    32
  0
VERTEX
  8
E18LXLIFT
 62
3
 10
-2367.307
 20
600.021
 30
3380.423
 70
    32
  0
VERTEX
  8
E18LXLIFT
 62
3
 10
-2367.265
 20
602.854
 30
3380.392
 70
    32
  0
VERTEX
  8
E18LXLIFT
 62
3
 10
-2363.998
 20
611.636
 30
3380.455
 70
    32
  0
SEQEND
  8
E18LXLIFT
  0
POLYLINE
  8
E18LXLIFT
 62
1
 66
     1
 70
     9
  0
VERTEX
  8
E18LXLIFT
 62
1
 10
-2346.704
 20
636.358
 30
3391.262
 70
    32
  0
VERTEX
  8
E18LXLIFT
 62
1
 10
-2332.810
 20
645.660
 30
3391.480
 70
    32
  0
VERTEX
  8
E18LXLIFT
 62
1
 10
-2324.060
 20
649.594
 30
3391.612
 70
    32
  0
VERTEX
  8
E18LXLIFT
 62
1
 10
-2320.387
 20
650.039
 30
3391.673
 70
    32
  0
VERTEX
  8
E18LXLIFT
 62
1
 10
-2313.815
 20
648.980
 30
3391.791
 70
    32
  0
VERTEX
  8
E18LXLIFT
 62
1
 10
-2311.294
 20
640.093
 30
3391.887
 70
    32
  0
VERTEX
  8
E18LXLIFT
 62
1
 10
-2309.341
 20
637.488
 30
3392.022
 70
    32
  0
VERTEX
  8
E18LXLIFT
 62
1
 10
-2307.205
 20
637.060
 30
3392.094
 70
    32
  0
VERTEX
  8
E18LXLIFT
 62
1
 10
-2305.156
 20
635.385
 30
3392.203
 70
    32
  0
VERTEX
  8
E18LXLIFT
 62
1
 10
-2300.655
 20
628.116
 30
3392.440
 70
    32
  0
VERTEX
  8
E18LXLIFT
 62
1
 10
-2303.455
 20
626.133
 30
3392.538
 70
    32
  0
VERTEX
  8
E18LXLIFT
 62
1
 10
-2315.037
 20
622.242
 30
3392.340
 70
    32
  0
VERTEX
  8
E18LXLIFT
 62
1
 10
-2328.357
 20
613.346
 30
3392.210
 70
    32
  0
VERTEX
  8
E18LXLIFT
 62
1
 10
-2323.134
 20
609.930
 30
3392.500
 70
    32
  0
VERTEX
  8
E18LXLIFT
 62
1
 10
-2315.594
 20
610.851
 30
3392.679
 70
    32
  0
VERTEX
  8
E18LXLIFT
 62
1
 10
-2310.721
 20
615.025
 30
3392.684
 70
    32
  0
VERTEX
  8
E18LXLIFT
 62
1
 10
-2305.486
 20
609.062
 30
3393.014
 70
    32
  0
VERTEX
  8
E18LXLIFT
 62
1
 10
-2314.733
 20
601.112
 30
3393.006
 70
    32
  0
VERTEX
  8
E18LXLIFT
 62
1
 10
-2312.669
 20
598.046
 30
3393.159
 70
    32
  0
VERTEX
  8
E18LXLIFT
 62
1
 10
-2311.580
 20
599.248
 30
3393.151
 70
    32
  0
VERTEX
  8
E18LXLIFT
 62
1
 10
-2296.866
 20
590.804
 30
3393.602
 70
    32
  0
VERTEX
  8
E18LXLIFT
 62
1
 10
-2271.271
 20
572.170
 30
3393.786
 70
    32
  0
VERTEX
  8
E18LXLIFT
 62
1
 10
-2277.667
 20
558.369
 30
3393.448
 70
    32
  0
VERTEX
  8
E18LXLIFT
 62
1
 10
-2264.423
 20
545.758
 30
3393.224
 70
    32
  0
VERTEX
  8
E18LXLIFT
 62
1
 10
-2263.489
 20
543.832
 30
3393.169
 70
    32
  0
VERTEX
  8
E18LXLIFT
 62
1
 10
-2256.798
 20
536.820
 30
3393.032
 70
    32
  0
VERTEX
  8
E18LXLIFT
 62
1
 10
-2250.146
 20
532.907
 30
3393.012
 70
    32
  0
VERTEX
  8
E18LXLIFT
 62
1
 10
-2248.121
 20
527.765
 30
3392.855
 70
    32
  0
VERTEX
  8
E18LXLIFT
 62
1
 10
-2246.431
 20
525.836
 30
3392.815
 70
    32
  0
VERTEX
  8
E18LXLIFT
 62
1
 10
-2246.351
 20
522.982
 30
3392.708
 70
    32
  0
VERTEX
  8
E18LXLIFT
 62
1
 10
-2237.452
 20
507.831
 30
3391.627
 70
    32
  0
VERTEX
  8
E18LXLIFT
 62
1
 10
-2230.381
 20
501.197
 30
3390.841
 70
    32
  0
VERTEX
  8
E18LXLIFT
 62
1
 10
-2231.416
 20
498.092
 30
3390.626
 70
    32
  0
VERTEX
  8
E18LXLIFT
 62
1
 10
-2230.106
 20
495.786
 30
3390.394
 70
    32
  0
VERTEX
  8
E18LXLIFT
 62
1
 10
-2225.249
 20
490.602
 30
3389.803
 70
    32
  0
VERTEX
  8
E18LXLIFT
 62
1
 10
-2217.708
 20
475.998
 30
3388.355
 70
    32
  0
VERTEX
  8
E18LXLIFT
 62
1
 10
-2210.060
 20
467.940
 30
3387.433
 70
    32
  0
VERTEX
  8
E18LXLIFT
 62
1
 10
-2216.076
 20
462.278
 30
3387.188
 70
    32
  0
VERTEX
  8
E18LXLIFT
 62
1
 10
-2232.132
 20
477.641
 30
3388.999
 70
    32
  0
VERTEX
  8
E18LXLIFT
 62
1
 10
-2234.145
 20
478.048
 30
3389.103
 70
    32
  0
VERTEX
  8
E18LXLIFT
 62
1
 10
-2236.822
 20
476.044
 30
3389.036
 70
    32
  0
VERTEX
  8
E18LXLIFT
 62
1
 10
-2260.281
 20
507.186
 30
3391.837
 70
    32
  0
VERTEX
  8
E18LXLIFT
 62
1
 10
-2269.470
 20
518.789
 30
3392.101
 70
    32
  0
VERTEX
  8
E18LXLIFT
 62
1
 10
-2286.390
 20
537.961
 30
3392.503
 70
    32
  0
VERTEX
  8
E18LXLIFT
 62
1
 10
-2298.848
 20
547.787
 30
3392.635
 70
    32
  0
VERTEX
  8
E18LXLIFT
 62
1
 10
-2331.419
 20
566.223
 30
3392.127
 70
    32
  0
VERTEX
  8
E18LXLIFT
 62
1
 10
-2343.263
 20
575.945
 30
3391.988
 70
    32
  0
VERTEX
  8
E18LXLIFT
 62
1
 10
-2352.979
 20
586.313
 30
3391.276
 70
    32
  0
VERTEX
  8
E18LXLIFT
 62
1
 10
-2363.172
 20
592.029
 30
3390.688
 70
    32
  0
VERTEX
  8
E18LXLIFT
 62
1
 10
-2365.801
 20
596.959
 30
3390.496
 70
    32
  0
VERTEX
  8
E18LXLIFT
 62
1
 10
-2366.307
 20
601.021
 30
3390.423
 70
    32
  0
VERTEX
  8
E18LXLIFT
 62
1
 10
-2366.265
 20
603.854
 30
3390.392
 70
    32
  0
VERTEX
  8
E18LXLIFT
 62
1
 10
-2362.998
 20
612.636
 30
3390.455
 70
    32
  0
SEQEND
  8
E18LXLIFT
  0
POINT
  8
E18LXLIFT
 62
1
 10
-2263.556
 20
529.395
 30
3383.057
  0
LINE
  8
E18LXLIFT
 62
3
 10
-2263.556
 20
529.395
 30
3383.057
 11
-2207.155
 21
516.137
 31
3236.487
  0
POINT
  8
E18LXLIFT
 62
1
 10
-2207.155
 20
516.137
 30
3236.487
  0
POINT
  8
E18LXLIFT
 62
1
 10
18.457
 20
-1135.846
 30
3371.113
  0
LINE
  8
E18LXLIFT
 62
11
 10
-19.249
 20
-1188.979
 30
3526.381
 11
18.457
 21
-1135.846
 31
3371.113
  0
POINT
  8
E18LXLIFT
 62
1
 10
-19.249
 20
-1188.979
 30
3526.381
  0
POINT
  8
E18LXLIFT
 62
1
 10
100.566
 20
-1377.596
 30
3473.000
  0
POINT
  8
E18LXLIFT
 62
1
 10
80.768
 20
-1358.105
 30
3367.000
  0
LINE
  8
E18LXLIFT
 62
13
 10
80.768
 20
-1358.105
 30
3367.000
 11
100.566
 21
-1377.596
 31
3473.000
  0
POLYLINE
  8
E18LXLIFT
 62
3
 66
     1
 70
     9
  0
VERTEX
  8
E18LXLIFT
 62
3
 10
-288.664
 20
-983.438
 30
3380.200
 70
    32
  0
VERTEX
  8
E18LXLIFT
 62
3
 10
-283.113
 20
-985.862
 30
3380.219
 70
    32
  0
VERTEX
  8
E18LXLIFT
 62
3
 10
-278.247
 20
-986.933
 30
3380.237
 70
    32
  0
VERTEX
  8
E18LXLIFT
 62
3
 10
-266.970
 20
-987.916
 30
3380.277
 70
    32
  0
VERTEX
  8
E18LXLIFT
 62
3
 10
-259.996
 20
-986.528
 30
3380.301
 70
    32
  0
VERTEX
  8
E18LXLIFT
 62
3
 10
-255.974
 20
-984.279
 30
3380.316
 70
    32
  0
VERTEX
  8
E18LXLIFT
 62
3
 10
-254.867
 20
-984.437
 30
3380.320
 70
    32
  0
VERTEX
  8
E18LXLIFT
 62
3
 10
-253.268
 20
-986.422
 30
3380.325
 70
    32
  0
VERTEX
  8
E18LXLIFT
 62
3
 10
-235.878
 20
-985.015
 30
3380.387
 70
    32
  0
VERTEX
  8
E18LXLIFT
 62
3
 10
-235.157
 20
-992.709
 30
3380.389
 70
    32
  0
VERTEX
  8
E18LXLIFT
 62
3
 10
-217.749
 20
-999.963
 30
3380.451
 70
    32
  0
VERTEX
  8
E18LXLIFT
 62
3
 10
-217.661
 20
-1004.618
 30
3380.451
 70
    32
  0
VERTEX
  8
E18LXLIFT
 62
3
 10
-219.821
 20
-1010.081
 30
3380.443
 70
    32
  0
VERTEX
  8
E18LXLIFT
 62
3
 10
-225.494
 20
-1018.179
 30
3380.422
 70
    32
  0
VERTEX
  8
E18LXLIFT
 62
3
 10
-237.967
 20
-1010.187
 30
3380.378
 70
    32
  0
VERTEX
  8
E18LXLIFT
 62
3
 10
-252.635
 20
-1004.392
 30
3380.326
 70
    32
  0
VERTEX
  8
E18LXLIFT
 62
3
 10
-269.024
 20
-1000.107
 30
3380.268
 70
    32
  0
VERTEX
  8
E18LXLIFT
 62
3
 10
-287.170
 20
-997.139
 30
3380.204
 70
    32
  0
VERTEX
  8
E18LXLIFT
 62
3
 10
-289.524
 20
-997.807
 30
3380.196
 70
    32
  0
SEQEND
  8
E18LXLIFT
  0
POLYLINE
  8
E18LXLIFT
 62
1
 66
     1
 70
     9
  0
VERTEX
  8
E18LXLIFT
 62
1
 10
-144.628
 20
-1210.630
 30
3474.000
 70
    32
  0
VERTEX
  8
E18LXLIFT
 62
1
 10
-147.489
 20
-1206.940
 30
3474.000
 70
    32
  0
VERTEX
  8
E18LXLIFT
 62
1
 10
-154.123
 20
-1205.846
 30
3474.000
 70
    32
  0
VERTEX
  8
E18LXLIFT
 62
1
 10
-152.688
 20
-1194.852
 30
3474.000
 70
    32
  0
VERTEX
  8
E18LXLIFT
 62
1
 10
-149.538
 20
-1181.870
 30
3474.000
 70
    32
  0
VERTEX
  8
E18LXLIFT
 62
1
 10
-152.261
 20
-1175.049
 30
3474.000
 70
    32
  0
VERTEX
  8
E18LXLIFT
 62
1
 10
-156.728
 20
-1166.552
 30
3474.000
 70
    32
  0
VERTEX
  8
E18LXLIFT
 62
1
 10
-152.963
 20
-1159.413
 30
3474.000
 70
    32
  0
VERTEX
  8
E18LXLIFT
 62
1
 10
-158.845
 20
-1148.790
 30
3474.000
 70
    32
  0
VERTEX
  8
E18LXLIFT
 62
1
 10
-165.876
 20
-1136.715
 30
3474.000
 70
    32
  0
VERTEX
  8
E18LXLIFT
 62
1
 10
-171.863
 20
-1124.434
 30
3474.000
 70
    32
  0
VERTEX
  8
E18LXLIFT
 62
1
 10
-169.746
 20
-1117.717
 30
3474.000
 70
    32
  0
VERTEX
  8
E18LXLIFT
 62
1
 10
-177.095
 20
-1104.896
 30
3474.000
 70
    32
  0
VERTEX
  8
E18LXLIFT
 62
1
 10
-184.744
 20
-1090.449
 30
3474.000
 70
    32
  0
VERTEX
  8
E18LXLIFT
 62
1
 10
-191.601
 20
-1084.208
 30
3474.000
 70
    32
  0
VERTEX
  8
E18LXLIFT
 62
1
 10
-201.359
 20
-1075.280
 30
3474.000
 70
    32
  0
VERTEX
  8
E18LXLIFT
 62
1
 10
-212.953
 20
-1064.093
 30
3474.000
 70
    32
  0
VERTEX
  8
E18LXLIFT
 62
1
 10
-203.078
 20
-1057.772
 30
3474.000
 70
    32
  0
VERTEX
  8
E18LXLIFT
 62
1
 10
-198.228
 20
-1063.178
 30
3474.000
 70
    32
  0
VERTEX
  8
E18LXLIFT
 62
1
 10
-189.785
 20
-1069.365
 30
3474.000
 70
    32
  0
VERTEX
  8
E18LXLIFT
 62
1
 10
-181.056
 20
-1081.089
 30
3474.000
 70
    32
  0
VERTEX
  8
E18LXLIFT
 62
1
 10
-172.243
 20
-1093.836
 30
3474.000
 70
    32
  0
VERTEX
  8
E18LXLIFT
 62
1
 10
-164.683
 20
-1109.972
 30
3474.000
 70
    32
  0
VERTEX
  8
E18LXLIFT
 62
1
 10
-157.178
 20
-1112.282
 30
3474.000
 70
    32
  0
VERTEX
  8
E18LXLIFT
 62
1
 10
-144.944
 20
-1114.994
 30
3474.000
 70
    32
  0
VERTEX
  8
E18LXLIFT
 62
1
 10
-141.767
 20
-1123.657
 30
3474.000
 70
    32
  0
VERTEX
  8
E18LXLIFT
 62
1
 10
-140.931
 20
-1133.889
 30
3474.000
 70
    32
  0
VERTEX
  8
E18LXLIFT
 62
1
 10
-133.886
 20
-1142.054
 30
3474.000
 70
    32
  0
VERTEX
  8
E18LXLIFT
 62
1
 10
-133.208
 20
-1149.800
 30
3474.000
 70
    32
  0
VERTEX
  8
E18LXLIFT
 62
1
 10
-131.606
 20
-1158.834
 30
3474.000
 70
    32
  0
VERTEX
  8
E18LXLIFT
 62
1
 10
-125.445
 20
-1176.948
 30
3474.000
 70
    32
  0
VERTEX
  8
E18LXLIFT
 62
1
 10
-119.030
 20
-1188.164
 30
3474.000
 70
    32
  0
VERTEX
  8
E18LXLIFT
 62
1
 10
-113.789
 20
-1200.763
 30
3474.000
 70
    32
  0
VERTEX
  8
E18LXLIFT
 62
1
 10
-103.949
 20
-1209.957
 30
3474.000
 70
    32
  0
VERTEX
  8
E18LXLIFT
 62
1
 10
-96.806
 20
-1221.734
 30
3474.000
 70
    32
  0
VERTEX
  8
E18LXLIFT
 62
1
 10
-98.963
 20
-1229.454
 30
3474.000
 70
    32
  0
VERTEX
  8
E18LXLIFT
 62
1
 10
-92.689
 20
-1235.789
 30
3474.000
 70
    32
  0
VERTEX
  8
E18LXLIFT
 62
1
 10
-83.038
 20
-1248.043
 30
3474.000
 70
    32
  0
VERTEX
  8
E18LXLIFT
 62
1
 10
-85.276
 20
-1255.497
 30
3474.000
 70
    32
  0
VERTEX
  8
E18LXLIFT
 62
1
 10
-85.193
 20
-1262.261
 30
3474.000
 70
    32
  0
VERTEX
  8
E18LXLIFT
 62
1
 10
-80.759
 20
-1276.305
 30
3474.000
 70
    32
  0
VERTEX
  8
E18LXLIFT
 62
1
 10
-72.658
 20
-1297.578
 30
3474.000
 70
    32
  0
VERTEX
  8
E18LXLIFT
 62
1
 10
-60.728
 20
-1314.372
 30
3474.000
 70
    32
  0
VERTEX
  8
E18LXLIFT
 62
1
 10
-49.975
 20
-1330.278
 30
3474.000
 70
    32
  0
VERTEX
  8
E18LXLIFT
 62
1
 10
-45.994
 20
-1342.480
 30
3474.000
 70
    32
  0
VERTEX
  8
E18LXLIFT
 62
1
 10
-44.211
 20
-1356.149
 30
3474.000
 70
    32
  0
VERTEX
  8
E18LXLIFT
 62
1
 10
-39.302
 20
-1371.912
 30
3474.000
 70
    32
  0
VERTEX
  8
E18LXLIFT
 62
1
 10
-34.943
 20
-1383.735
 30
3474.000
 70
    32
  0
VERTEX
  8
E18LXLIFT
 62
1
 10
-29.135
 20
-1392.894
 30
3474.000
 70
    32
  0
VERTEX
  8
E18LXLIFT
 62
1
 10
-34.716
 20
-1396.895
 30
3474.000
 70
    32
  0
VERTEX
  8
E18LXLIFT
 62
1
 10
-41.571
 20
-1397.910
 30
3474.000
 70
    32
  0
VERTEX
  8
E18LXLIFT
 62
1
 10
-43.297
 20
-1393.840
 30
3474.000
 70
    32
  0
VERTEX
  8
E18LXLIFT
 62
1
 10
-46.836
 20
-1383.161
 30
3474.000
 70
    32
  0
VERTEX
  8
E18LXLIFT
 62
1
 10
-51.113
 20
-1371.604
 30
3474.000
 70
    32
  0
VERTEX
  8
E18LXLIFT
 62
1
 10
-54.910
 20
-1371.293
 30
3474.000
 70
    32
  0
VERTEX
  8
E18LXLIFT
 62
1
 10
-58.858
 20
-1366.541
 30
3474.000
 70
    32
  0
VERTEX
  8
E18LXLIFT
 62
1
 10
-63.933
 20
-1349.490
 30
3474.000
 70
    32
  0
VERTEX
  8
E18LXLIFT
 62
1
 10
-74.622
 20
-1328.232
 30
3474.000
 70
    32
  0
VERTEX
  8
E18LXLIFT
 62
1
 10
-82.985
 20
-1309.313
 30
3474.000
 70
    32
  0
VERTEX
  8
E18LXLIFT
 62
1
 10
-88.667
 20
-1295.947
 30
3474.000
 70
    32
  0
VERTEX
  8
E18LXLIFT
 62
1
 10
-96.264
 20
-1293.811
 30
3474.000
 70
    32
  0
VERTEX
  8
E18LXLIFT
 62
1
 10
-99.302
 20
-1282.774
 30
3474.000
 70
    32
  0
VERTEX
  8
E18LXLIFT
 62
1
 10
-102.431
 20
-1271.910
 30
3474.000
 70
    32
  0
VERTEX
  8
E18LXLIFT
 62
1
 10
-106.572
 20
-1256.464
 30
3474.000
 70
    32
  0
VERTEX
  8
E18LXLIFT
 62
1
 10
-112.353
 20
-1245.227
 30
3474.000
 70
    32
  0
VERTEX
  8
E18LXLIFT
 62
1
 10
-120.091
 20
-1232.468
 30
3474.000
 70
    32
  0
VERTEX
  8
E18LXLIFT
 62
1
 10
-126.308
 20
-1223.493
 30
3474.000
 70
    32
  0
VERTEX
  8
E18LXLIFT
 62
1
 10
-134.423
 20
-1217.612
 30
3474.000
 70
    32
  0
VERTEX
  8
E18LXLIFT
 62
1
 10
-138.474
 20
-1218.458
 30
3474.000
 70
    32
  0
SEQEND
  8
E18LXLIFT
  0
POLYLINE
  8
E18LXLIFT
 62
6
 66
     1
 70
     9
  0
VERTEX
  8
E18LXLIFT
 62
6
 10
-277.974
 20
-725.978
 30
3390.000
 70
    32
  0
VERTEX
  8
E18LXLIFT
 62
6
 10
-268.928
 20
-730.655
 30
3390.000
 70
    32
  0
VERTEX
  8
E18LXLIFT
 62
6
 10
-262.881
 20
-742.804
 30
3390.000
 70
    32
  0
VERTEX
  8
E18LXLIFT
 62
6
 10
-257.772
 20
-762.104
 30
3390.000
 70
    32
  0
VERTEX
  8
E18LXLIFT
 62
6
 10
-250.583
 20
-777.565
 30
3390.000
 70
    32
  0
VERTEX
  8
E18LXLIFT
 62
6
 10
-242.339
 20
-799.028
 30
3390.000
 70
    32
  0
VERTEX
  8
E18LXLIFT
 62
6
 10
-234.197
 20
-819.911
 30
3390.000
 70
    32
  0
VERTEX
  8
E18LXLIFT
 62
6
 10
-230.403
 20
-831.462
 30
3390.000
 70
    32
  0
VERTEX
  8
E18LXLIFT
 62
6
 10
-249.451
 20
-833.729
 30
3390.000
 70
    32
  0
VERTEX
  8
E18LXLIFT
 62
6
 10
-255.569
 20
-806.424
 30
3390.000
 70
    32
  0
VERTEX
  8
E18LXLIFT
 62
6
 10
-254.235
 20
-800.840
 30
3390.000
 70
    32
  0
VERTEX
  8
E18LXLIFT
 62
6
 10
-265.989
 20
-787.339
 30
3390.000
 70
    32
  0
VERTEX
  8
E18LXLIFT
 62
6
 10
-279.020
 20
-772.705
 30
3390.000
 70
    32
  0
VERTEX
  8
E18LXLIFT
 62
6
 10
-289.531
 20
-760.143
 30
3390.000
 70
    32
  0
VERTEX
  8
E18LXLIFT
 62
6
 10
-297.402
 20
-747.156
 30
3390.000
 70
    32
  0
VERTEX
  8
E18LXLIFT
 62
6
 10
-294.617
 20
-736.887
 30
3390.000
 70
    32
  0
VERTEX
  8
E18LXLIFT
 62
6
 10
-289.909
 20
-725.521
 30
3390.000
 70
    32
  0
SEQEND
  8
E18LXLIFT
  0
POINT
  8
E18LXLIFT
 62
1
 10
-398.617
 20
-949.162
 30
3441.000
  0
POINT
  8
E18LXLIFT
 62
1
 10
-422.900
 20
-952.727
 30
3589.000
  0
LINE
  8
E18LXLIFT
 62
11
 10
-422.900
 20
-952.727
 30
3589.000
 11
-398.617
 21
-949.162
 31
3441.000
  0
POINT
  8
E18LXLIFT
 62
1
 10
-295.066
 20
-811.787
 30
3433.000
  0
POINT
  8
E18LXLIFT
 62
1
 10
-330.179
 20
-827.121
 30
3526.276
  0
LINE
  8
E18LXLIFT
 62
8
 10
-330.179
 20
-827.121
 30
3526.276
 11
-295.066
 21
-811.787
 31
3433.000
  0
POLYLINE
  8
E18LXLIFT
 62
7
 66
     1
 70
     9
  0
VERTEX
  8
E18LXLIFT
 62
7
 10
-598.695
 20
-617.840
 30
3385.146
 70
    32
  0
VERTEX
  8
E18LXLIFT
 62
7
 10
-593.144
 20
-628.168
 30
3384.940
 70
    32
  0
VERTEX
  8
E18LXLIFT
 62
7
 10
-589.420
 20
-630.645
 30
3384.878
 70
    32
  0
VERTEX
  8
E18LXLIFT
 62
7
 10
-584.009
 20
-632.735
 30
3384.815
 70
    32
  0
VERTEX
  8
E18LXLIFT
 62
7
 10
-578.581
 20
-639.093
 30
3384.678
 70
    32
  0
VERTEX
  8
E18LXLIFT
 62
7
 10
-586.713
 20
-649.476
 30
3384.541
 70
    32
  0
VERTEX
  8
E18LXLIFT
 62
7
 10
-589.928
 20
-651.338
 30
3384.525
 70
    32
  0
VERTEX
  8
E18LXLIFT
 62
7
 10
-596.567
 20
-652.146
 30
3384.545
 70
    32
  0
VERTEX
  8
E18LXLIFT
 62
7
 10
-600.029
 20
-640.360
 30
3384.765
 70
    32
  0
VERTEX
  8
E18LXLIFT
 62
7
 10
-607.601
 20
-628.802
 30
3385.002
 70
    32
  0
VERTEX
  8
E18LXLIFT
 62
7
 10
-610.236
 20
-626.606
 30
3385.053
 70
    32
  0
VERTEX
  8
E18LXLIFT
 62
7
 10
-627.930
 20
-640.389
 30
3384.904
 70
    32
  0
VERTEX
  8
E18LXLIFT
 62
7
 10
-633.456
 20
-632.176
 30
3385.069
 70
    32
  0
VERTEX
  8
E18LXLIFT
 62
7
 10
-640.977
 20
-620.021
 30
3385.206
 70
    32
  0
VERTEX
  8
E18LXLIFT
 62
7
 10
-646.774
 20
-618.441
 30
3385.219
 70
    32
  0
VERTEX
  8
E18LXLIFT
 62
7
 10
-648.179
 20
-617.299
 30
3385.232
 70
    32
  0
VERTEX
  8
E18LXLIFT
 62
7
 10
-651.746
 20
-606.250
 30
3385.359
 70
    32
  0
VERTEX
  8
E18LXLIFT
 62
7
 10
-647.829
 20
-596.395
 30
3385.479
 70
    32
  0
VERTEX
  8
E18LXLIFT
 62
7
 10
-643.439
 20
-580.586
 30
3385.669
 70
    32
  0
VERTEX
  8
E18LXLIFT
 62
7
 10
-642.122
 20
-566.533
 30
3385.836
 70
    32
  0
VERTEX
  8
E18LXLIFT
 62
7
 10
-639.752
 20
-553.885
 30
3385.988
 70
    32
  0
VERTEX
  8
E18LXLIFT
 62
7
 10
-640.542
 20
-549.757
 30
3386.036
 70
    32
  0
VERTEX
  8
E18LXLIFT
 62
7
 10
-655.018
 20
-537.778
 30
3386.164
 70
    32
  0
VERTEX
  8
E18LXLIFT
 62
7
 10
-662.115
 20
-527.291
 30
3386.127
 70
    32
  0
VERTEX
  8
E18LXLIFT
 62
7
 10
-661.853
 20
-513.590
 30
3386.096
 70
    32
  0
VERTEX
  8
E18LXLIFT
 62
7
 10
-656.074
 20
-511.341
 30
3386.109
 70
    32
  0
VERTEX
  8
E18LXLIFT
 62
7
 10
-657.690
 20
-509.040
 30
3386.099
 70
    32
  0
VERTEX
  8
E18LXLIFT
 62
7
 10
-640.968
 20
-499.571
 30
3386.131
 70
    32
  0
VERTEX
  8
E18LXLIFT
 62
7
 10
-631.939
 20
-496.092
 30
3386.152
 70
    32
  0
VERTEX
  8
E18LXLIFT
 62
7
 10
-623.856
 20
-505.302
 30
3386.200
 70
    32
  0
VERTEX
  8
E18LXLIFT
 62
7
 10
-617.672
 20
-515.902
 30
3386.245
 70
    32
  0
VERTEX
  8
E18LXLIFT
 62
7
 10
-616.707
 20
-522.106
 30
3386.263
 70
    32
  0
VERTEX
  8
E18LXLIFT
 62
7
 10
-613.229
 20
-525.426
 30
3386.282
 70
    32
  0
VERTEX
  8
E18LXLIFT
 62
7
 10
-610.190
 20
-530.502
 30
3386.290
 70
    32
  0
VERTEX
  8
E18LXLIFT
 62
7
 10
-609.012
 20
-538.073
 30
3386.202
 70
    32
  0
VERTEX
  8
E18LXLIFT
 62
7
 10
-599.860
 20
-539.004
 30
3386.199
 70
    32
  0
VERTEX
  8
E18LXLIFT
 62
7
 10
-606.464
 20
-559.767
 30
3385.948
 70
    32
  0
VERTEX
  8
E18LXLIFT
 62
7
 10
-608.446
 20
-589.911
 30
3385.591
 70
    32
  0
VERTEX
  8
E18LXLIFT
 62
7
 10
-609.763
 20
-599.572
 30
3385.476
 70
    32
  0
VERTEX
  8
E18LXLIFT
 62
7
 10
-610.571
 20
-606.546
 30
3385.393
 70
    32
  0
VERTEX
  8
E18LXLIFT
 62
7
 10
-602.824
 20
-608.091
 30
3385.334
 70
    32
  0
SEQEND
  8
E18LXLIFT
  0
POLYLINE
  8
E18LXLIFT
 62
7
 66
     1
 70
     9
  0
VERTEX
  8
E18LXLIFT
 62
7
 10
-627.750
 20
-616.138
 30
3385.264
 70
    32
  0
VERTEX
  8
E18LXLIFT
 62
7
 10
-629.244
 20
-598.484
 30
3385.471
 70
    32
  0
VERTEX
  8
E18LXLIFT
 62
7
 10
-628.314
 20
-584.063
 30
3385.642
 70
    32
  0
VERTEX
  8
E18LXLIFT
 62
7
 10
-625.908
 20
-583.026
 30
3385.656
 70
    32
  0
VERTEX
  8
E18LXLIFT
 62
7
 10
-624.766
 20
-585.573
 30
3385.627
 70
    32
  0
VERTEX
  8
E18LXLIFT
 62
7
 10
-624.361
 20
-590.210
 30
3385.573
 70
    32
  0
VERTEX
  8
E18LXLIFT
 62
7
 10
-622.903
 20
-597.570
 30
3385.487
 70
    32
  0
VERTEX
  8
E18LXLIFT
 62
7
 10
-623.990
 20
-619.247
 30
3385.231
 70
    32
  0
VERTEX
  8
E18LXLIFT
 62
7
 10
-624.939
 20
-622.813
 30
3385.188
 70
    32
  0
SEQEND
  8
E18LXLIFT
  0
POINT
  8
E18LXLIFT
 62
1
 10
-402.085
 20
-591.440
 30
3413.000
  0
POINT
  8
E18LXLIFT
 62
1
 10
-413.927
 20
-611.506
 30
3501.000
  0
LINE
  8
E18LXLIFT
 62
11
 10
-413.927
 20
-611.506
 30
3501.000
 11
-402.085
 21
-591.440
 31
3413.000
  0
POLYLINE
  8
E18LXLIFT
 62
13
 66
     1
 70
     9
  0
VERTEX
  8
E18LXLIFT
 62
13
 10
-477.813
 20
-511.135
 30
3386.596
 70
    32
  0
VERTEX
  8
E18LXLIFT
 62
13
 10
-475.372
 20
-508.096
 30
3386.596
 70
    32
  0
VERTEX
  8
E18LXLIFT
 62
13
 10
-500.459
 20
-464.552
 30
3386.505
 70
    32
  0
VERTEX
  8
E18LXLIFT
 62
13
 10
-499.564
 20
-451.693
 30
3386.477
 70
    32
  0
VERTEX
  8
E18LXLIFT
 62
13
 10
-496.543
 20
-450.305
 30
3386.484
 70
    32
  0
VERTEX
  8
E18LXLIFT
 62
13
 10
-495.542
 20
-449.005
 30
3386.484
 70
    32
  0
VERTEX
  8
E18LXLIFT
 62
13
 10
-494.067
 20
-443.068
 30
3386.475
 70
    32
  0
VERTEX
  8
E18LXLIFT
 62
13
 10
-493.839
 20
-437.956
 30
3386.463
 70
    32
  0
VERTEX
  8
E18LXLIFT
 62
13
 10
-496.879
 20
-417.510
 30
3386.405
 70
    32
  0
VERTEX
  8
E18LXLIFT
 62
13
 10
-496.177
 20
-409.956
 30
3386.389
 70
    32
  0
VERTEX
  8
E18LXLIFT
 62
13
 10
-499.023
 20
-398.257
 30
3386.352
 70
    32
  0
VERTEX
  8
E18LXLIFT
 62
13
 10
-499.129
 20
-395.043
 30
3386.344
 70
    32
  0
VERTEX
  8
E18LXLIFT
 62
13
 10
-499.041
 20
-391.793
 30
3386.337
 70
    32
  0
VERTEX
  8
E18LXLIFT
 62
13
 10
-486.747
 20
-372.030
 30
3386.330
 70
    32
  0
VERTEX
  8
E18LXLIFT
 62
13
 10
-485.482
 20
-364.934
 30
3386.317
 70
    32
  0
VERTEX
  8
E18LXLIFT
 62
13
 10
-474.398
 20
-365.513
 30
3386.355
 70
    32
  0
VERTEX
  8
E18LXLIFT
 62
13
 10
-476.523
 20
-372.926
 30
3386.366
 70
    32
  0
VERTEX
  8
E18LXLIFT
 62
13
 10
-479.895
 20
-379.408
 30
3386.370
 70
    32
  0
VERTEX
  8
E18LXLIFT
 62
13
 10
-480.668
 20
-383.061
 30
3386.376
 70
    32
  0
VERTEX
  8
E18LXLIFT
 62
13
 10
-480.545
 20
-389.227
 30
3386.391
 70
    32
  0
VERTEX
  8
E18LXLIFT
 62
13
 10
-484.793
 20
-424.254
 30
3386.460
 70
    32
  0
VERTEX
  8
E18LXLIFT
 62
13
 10
-476.395
 20
-443.207
 30
3386.533
 70
    32
  0
VERTEX
  8
E18LXLIFT
 62
13
 10
-473.443
 20
-462.512
 30
3386.558
 70
    32
  0
VERTEX
  8
E18LXLIFT
 62
13
 10
-461.954
 20
-469.485
 30
3386.578
 70
    32
  0
VERTEX
  8
E18LXLIFT
 62
13
 10
-458.107
 20
-470.662
 30
3386.584
 70
    32
  0
VERTEX
  8
E18LXLIFT
 62
13
 10
-452.381
 20
-468.343
 30
3386.589
 70
    32
  0
VERTEX
  8
E18LXLIFT
 62
13
 10
-447.498
 20
-463.582
 30
3386.591
 70
    32
  0
VERTEX
  8
E18LXLIFT
 62
13
 10
-441.297
 20
-460.139
 30
3386.595
 70
    32
  0
VERTEX
  8
E18LXLIFT
 62
13
 10
-436.133
 20
-452.532
 30
3386.595
 70
    32
  0
VERTEX
  8
E18LXLIFT
 62
13
 10
-426.173
 20
-457.028
 30
3386.611
 70
    32
  0
VERTEX
  8
E18LXLIFT
 62
13
 10
-435.341
 20
-479.057
 30
3386.619
 70
    32
  0
VERTEX
  8
E18LXLIFT
 62
13
 10
-431.212
 20
-487.049
 30
3386.631
 70
    32
  0
VERTEX
  8
E18LXLIFT
 62
13
 10
-445.756
 20
-500.593
 30
3386.626
 70
    32
  0
VERTEX
  8
E18LXLIFT
 62
13
 10
-445.966
 20
-513.926
 30
3386.637
 70
    32
  0
VERTEX
  8
E18LXLIFT
 62
13
 10
-453.695
 20
-515.771
 30
3386.629
 70
    32
  0
VERTEX
  8
E18LXLIFT
 62
13
 10
-452.159
 20
-522.875
 30
3386.638
 70
    32
  0
VERTEX
  8
E18LXLIFT
 62
13
 10
-446.930
 20
-535.228
 30
3386.655
 70
    32
  0
VERTEX
  8
E18LXLIFT
 62
13
 10
-449.478
 20
-540.211
 30
3386.656
 70
    32
  0
VERTEX
  8
E18LXLIFT
 62
13
 10
-452.589
 20
-543.988
 30
3386.656
 70
    32
  0
VERTEX
  8
E18LXLIFT
 62
13
 10
-452.847
 20
-546.964
 30
3386.658
 70
    32
  0
VERTEX
  8
E18LXLIFT
 62
13
 10
-461.825
 20
-550.693
 30
3386.650
 70
    32
  0
VERTEX
  8
E18LXLIFT
 62
13
 10
-463.747
 20
-546.855
 30
3386.645
 70
    32
  0
VERTEX
  8
E18LXLIFT
 62
13
 10
-463.776
 20
-543.315
 30
3386.641
 70
    32
  0
VERTEX
  8
E18LXLIFT
 62
13
 10
-466.147
 20
-542.789
 30
3386.638
 70
    32
  0
VERTEX
  8
E18LXLIFT
 62
13
 10
-468.642
 20
-537.853
 30
3386.631
 70
    32
  0
VERTEX
  8
E18LXLIFT
 62
13
 10
-470.610
 20
-532.302
 30
3386.623
 70
    32
  0
VERTEX
  8
E18LXLIFT
 62
13
 10
-470.487
 20
-530.124
 30
3386.622
 70
    32
  0
VERTEX
  8
E18LXLIFT
 62
13
 10
-473.509
 20
-525.803
 30
3386.614
 70
    32
  0
VERTEX
  8
E18LXLIFT
 62
13
 10
-477.303
 20
-523.379
 30
3386.607
 70
    32
  0
SEQEND
  8
E18LXLIFT
  0
POINT
  8
E18LXLIFT
 62
1
 10
-486.438
 20
-499.636
 30
3509.000
  0
POINT
  8
E18LXLIFT
 62
1
 10
-537.113
 20
-515.552
 30
3591.000
  0
LINE
  8
E18LXLIFT
 62
3
 10
-537.113
 20
-515.552
 30
3591.000
 11
-486.438
 21
-499.636
 31
3509.000
  0
POLYLINE
  8
E18LXLIFT
 62
3
 66
     1
 70
     9
  0
VERTEX
  8
E18LXLIFT
 62
3
 10
-1308.349
 20
-1449.906
 30
3372.911
 70
    32
  0
VERTEX
  8
E18LXLIFT
 62
3
 10
-1310.007
 20
-1437.268
 30
3372.834
 70
    32
  0
VERTEX
  8
E18LXLIFT
 62
3
 10
-1307.674
 20
-1425.324
 30
3372.812
 70
    32
  0
VERTEX
  8
E18LXLIFT
 62
3
 10
-1308.748
 20
-1418.144
 30
3372.759
 70
    32
  0
VERTEX
  8
E18LXLIFT
 62
3
 10
-1293.782
 20
-1415.150
 30
3372.948
 70
    32
  0
VERTEX
  8
E18LXLIFT
 62
3
 10
-1292.699
 20
-1416.989
 30
3372.970
 70
    32
  0
VERTEX
  8
E18LXLIFT
 62
3
 10
-1285.878
 20
-1421.647
 30
3373.079
 70
    32
  0
VERTEX
  8
E18LXLIFT
 62
3
 10
-1272.753
 20
-1425.234
 30
3373.266
 70
    32
  0
VERTEX
  8
E18LXLIFT
 62
3
 10
-1267.126
 20
-1430.367
 30
3373.362
 70
    32
  0
VERTEX
  8
E18LXLIFT
 62
3
 10
-1266.628
 20
-1433.326
 30
3373.381
 70
    32
  0
VERTEX
  8
E18LXLIFT
 62
3
 10
-1268.969
 20
-1449.947
 30
3373.424
 70
    32
  0
VERTEX
  8
E18LXLIFT
 62
3
 10
-1273.032
 20
-1460.432
 30
3373.417
 70
    32
  0
VERTEX
  8
E18LXLIFT
 62
3
 10
-1275.327
 20
-1463.092
 30
3373.399
 70
    32
  0
VERTEX
  8
E18LXLIFT
 62
3
 10
-1281.279
 20
-1466.788
 30
3373.338
 70
    32
  0
VERTEX
  8
E18LXLIFT
 62
3
 10
-1285.352
 20
-1467.141
 30
3373.287
 70
    32
  0
VERTEX
  8
E18LXLIFT
 62
3
 10
-1288.512
 20
-1458.993
 30
3373.209
 70
    32
  0
VERTEX
  8
E18LXLIFT
 62
3
 10
-1291.008
 20
-1459.803
 30
3373.181
 70
    32
  0
VERTEX
  8
E18LXLIFT
 62
3
 10
-1293.069
 20
-1453.370
 30
3373.125
 70
    32
  0
VERTEX
  8
E18LXLIFT
 62
3
 10
-1295.572
 20
-1452.291
 30
3373.088
 70
    32
  0
VERTEX
  8
E18LXLIFT
 62
3
 10
-1297.379
 20
-1453.127
 30
3373.068
 70
    32
  0
SEQEND
  8
E18LXLIFT
  0
POLYLINE
  8
E18LXLIFT
 62
11
 66
     1
 70
     9
  0
VERTEX
  8
E18LXLIFT
 62
11
 10
-1187.143
 20
-1494.392
 30
3374.685
 70
    32
  0
VERTEX
  8
E18LXLIFT
 62
11
 10
-1194.696
 20
-1501.215
 30
3374.617
 70
    32
  0
VERTEX
  8
E18LXLIFT
 62
11
 10
-1197.740
 20
-1491.195
 30
3374.533
 70
    32
  0
VERTEX
  8
E18LXLIFT
 62
11
 10
-1197.480
 20
-1481.413
 30
3374.493
 70
    32
  0
VERTEX
  8
E18LXLIFT
 62
11
 10
-1194.709
 20
-1481.395
 30
3374.529
 70
    32
  0
VERTEX
  8
E18LXLIFT
 62
11
 10
-1188.255
 20
-1484.999
 30
3374.629
 70
    32
  0
SEQEND
  8
E18LXLIFT
  0
POLYLINE
  8
E18LXLIFT
 62
11
 66
     1
 70
     9
  0
VERTEX
  8
E18LXLIFT
 62
11
 10
-1173.959
 20
-1474.204
 30
3374.768
 70
    32
  0
VERTEX
  8
E18LXLIFT
 62
11
 10
-1171.508
 20
-1478.107
 30
3374.817
 70
    32
  0
VERTEX
  8
E18LXLIFT
 62
11
 10
-1176.023
 20
-1482.367
 30
3374.777
 70
    32
  0
VERTEX
  8
E18LXLIFT
 62
11
 10
-1183.648
 20
-1475.655
 30
3374.648
 70
    32
  0
SEQEND
  8
E18LXLIFT
  0
POLYLINE
  8
E18LXLIFT
 62
1
 66
     1
 70
     9
  0
VERTEX
  8
E18LXLIFT
 62
1
 10
-1187.255
 20
-1483.999
 30
3384.629
 70
    32
  0
VERTEX
  8
E18LXLIFT
 62
1
 10
-1193.709
 20
-1480.395
 30
3384.529
 70
    32
  0
VERTEX
  8
E18LXLIFT
 62
1
 10
-1196.480
 20
-1480.413
 30
3384.493
 70
    32
  0
VERTEX
  8
E18LXLIFT
 62
1
 10
-1196.740
 20
-1490.195
 30
3384.533
 70
    32
  0
VERTEX
  8
E18LXLIFT
 62
1
 10
-1193.696
 20
-1500.215
 30
3384.617
 70
    32
  0
VERTEX
  8
E18LXLIFT
 62
1
 10
-1186.143
 20
-1493.392
 30
3384.685
 70
    32
  0
SEQEND
  8
E18LXLIFT
  0
POLYLINE
  8
E18LXLIFT
 62
1
 66
     1
 70
     9
  0
VERTEX
  8
E18LXLIFT
 62
1
 10
-1182.648
 20
-1474.655
 30
3384.648
 70
    32
  0
VERTEX
  8
E18LXLIFT
 62
1
 10
-1175.023
 20
-1481.367
 30
3384.777
 70
    32
  0
VERTEX
  8
E18LXLIFT
 62
1
 10
-1170.508
 20
-1477.107
 30
3384.817
 70
    32
  0
VERTEX
  8
E18LXLIFT
 62
1
 10
-1172.959
 20
-1473.204
 30
3384.768
 70
    32
  0
SEQEND
  8
E18LXLIFT
  0
POINT
  8
E18LXLIFT
 62
1
 10
-1194.488
 20
-1505.868
 30
3384.505
  0
POINT
  8
E18LXLIFT
 62
1
 10
-1317.031
 20
-1438.335
 30
3526.642
  0
LINE
  8
E18LXLIFT
 62
11
 10
-1317.031
 20
-1438.335
 30
3526.642
 11
-1194.488
 21
-1505.868
 31
3384.505
  0
POINT
  8
E18LXLIFT
 62
1
 10
-2299.509
 20
705.467
 30
3427.000
  0
POINT
  8
E18LXLIFT
 62
1
 10
-2305.845
 20
709.818
 30
3501.000
  0
LINE
  8
E18LXLIFT
 62
6
 10
-2305.845
 20
709.818
 30
3501.000
 11
-2299.509
 21
705.467
 31
3427.000
  0
LINE
  8
E18LXLIFT
 62
8
 10
-289.742
 20
-828.047
 30
3526.612
 11
-295.066
 21
-811.787
 31
3433.000
  0
POINT
  8
E18LXLIFT
 62
1
 10
-289.742
 20
-828.047
 30
3526.612
  0
POLYLINE
  8
E18LXLIFT
 62
11
 66
     1
 70
     9
  0
VERTEX
  8
E18LXLIFT
 62
11
 10
-1196.801
 20
-1529.130
 30
3374.713
 70
    32
  0
VERTEX
  8
E18LXLIFT
 62
11
 10
-1210.360
 20
-1509.946
 30
3374.451
 70
    32
  0
VERTEX
  8
E18LXLIFT
 62
11
 10
-1203.495
 20
-1504.543
 30
3374.517
 70
    32
  0
VERTEX
  8
E18LXLIFT
 62
11
 10
-1219.809
 20
-1466.629
 30
3374.090
 70
    32
  0
VERTEX
  8
E18LXLIFT
 62
11
 10
-1211.523
 20
-1463.048
 30
3374.230
 70
    32
  0
VERTEX
  8
E18LXLIFT
 62
11
 10
-1208.865
 20
-1463.896
 30
3374.268
 70
    32
  0
VERTEX
  8
E18LXLIFT
 62
11
 10
-1203.633
 20
-1460.420
 30
3374.321
 70
    32
  0
VERTEX
  8
E18LXLIFT
 62
11
 10
-1194.868
 20
-1461.241
 30
3374.439
 70
    32
  0
VERTEX
  8
E18LXLIFT
 62
11
 10
-1189.953
 20
-1459.235
 30
3374.494
 70
    32
  0
VERTEX
  8
E18LXLIFT
 62
11
 10
-1182.871
 20
-1466.255
 30
3374.617
 70
    32
  0
VERTEX
  8
E18LXLIFT
 62
11
 10
-1168.082
 20
-1465.448
 30
3374.678
 70
    32
  0
VERTEX
  8
E18LXLIFT
 62
11
 10
-1161.384
 20
-1481.557
 30
3374.964
 70
    32
  0
VERTEX
  8
E18LXLIFT
 62
11
 10
-1190.523
 20
-1511.256
 30
3374.716
 70
    32
  0
VERTEX
  8
E18LXLIFT
 62
11
 10
-1183.703
 20
-1519.815
 30
3374.842
 70
    32
  0
VERTEX
  8
E18LXLIFT
 62
11
 10
-1184.491
 20
-1522.985
 30
3374.846
 70
    32
  0
SEQEND
  8
E18LXLIFT
  0
POLYLINE
  8
E18LXLIFT
 62
8
 66
     1
 70
     9
  0
VERTEX
  8
E18LXLIFT
 62
8
 10
-1171.136
 20
-1558.815
 30
3375.167
 70
    32
  0
VERTEX
  8
E18LXLIFT
 62
8
 10
-1180.354
 20
-1557.118
 30
3375.050
 70
    32
  0
VERTEX
  8
E18LXLIFT
 62
8
 10
-1197.589
 20
-1569.038
 30
3374.878
 70
    32
  0
VERTEX
  8
E18LXLIFT
 62
8
 10
-1202.884
 20
-1564.489
 30
3374.789
 70
    32
  0
VERTEX
  8
E18LXLIFT
 62
8
 10
-1210.286
 20
-1554.563
 30
3374.649
 70
    32
  0
VERTEX
  8
E18LXLIFT
 62
8
 10
-1210.912
 20
-1552.595
 30
3374.632
 70
    32
  0
VERTEX
  8
E18LXLIFT
 62
8
 10
-1206.496
 20
-1551.531
 30
3374.685
 70
    32
  0
VERTEX
  8
E18LXLIFT
 62
8
 10
-1201.458
 20
-1548.094
 30
3374.735
 70
    32
  0
VERTEX
  8
E18LXLIFT
 62
8
 10
-1199.811
 20
-1543.148
 30
3374.735
 70
    32
  0
VERTEX
  8
E18LXLIFT
 62
8
 10
-1194.879
 20
-1535.670
 30
3374.766
 70
    32
  0
VERTEX
  8
E18LXLIFT
 62
8
 10
-1196.801
 20
-1529.130
 30
3374.713
 70
    32
  0
VERTEX
  8
E18LXLIFT
 62
8
 10
-1184.491
 20
-1522.985
 30
3374.846
 70
    32
  0
VERTEX
  8
E18LXLIFT
 62
8
 10
-1179.508
 20
-1530.173
 30
3374.942
 70
    32
  0
VERTEX
  8
E18LXLIFT
 62
8
 10
-1175.434
 20
-1531.267
 30
3375.000
 70
    32
  0
VERTEX
  8
E18LXLIFT
 62
8
 10
-1168.821
 20
-1537.534
 30
3375.114
 70
    32
  0
VERTEX
  8
E18LXLIFT
 62
8
 10
-1165.562
 20
-1542.486
 30
3375.150
 70
    32
  0
VERTEX
  8
E18LXLIFT
 62
8
 10
-1167.656
 20
-1546.997
 30
3375.158
 70
    32
  0
SEQEND
  8
E18LXLIFT
  0
POLYLINE
  8
E18LXLIFT
 62
1
 66
     1
 70
     9
  0
VERTEX
  8
E18LXLIFT
 62
1
 10
-1195.801
 20
-1528.130
 30
3384.713
 70
    32
  0
VERTEX
  8
E18LXLIFT
 62
1
 10
-1209.360
 20
-1508.946
 30
3384.451
 70
    32
  0
VERTEX
  8
E18LXLIFT
 62
1
 10
-1202.495
 20
-1503.543
 30
3384.517
 70
    32
  0
VERTEX
  8
E18LXLIFT
 62
1
 10
-1218.809
 20
-1465.629
 30
3384.090
 70
    32
  0
VERTEX
  8
E18LXLIFT
 62
1
 10
-1210.523
 20
-1462.048
 30
3384.230
 70
    32
  0
VERTEX
  8
E18LXLIFT
 62
1
 10
-1207.865
 20
-1462.896
 30
3384.268
 70
    32
  0
VERTEX
  8
E18LXLIFT
 62
1
 10
-1202.633
 20
-1459.420
 30
3384.321
 70
    32
  0
VERTEX
  8
E18LXLIFT
 62
1
 10
-1193.868
 20
-1460.241
 30
3384.439
 70
    32
  0
VERTEX
  8
E18LXLIFT
 62
1
 10
-1188.953
 20
-1458.235
 30
3384.494
 70
    32
  0
VERTEX
  8
E18LXLIFT
 62
1
 10
-1181.871
 20
-1465.255
 30
3384.617
 70
    32
  0
VERTEX
  8
E18LXLIFT
 62
1
 10
-1167.082
 20
-1464.448
 30
3384.678
 70
    32
  0
VERTEX
  8
E18LXLIFT
 62
1
 10
-1160.384
 20
-1480.557
 30
3384.964
 70
    32
  0
VERTEX
  8
E18LXLIFT
 62
1
 10
-1189.523
 20
-1510.256
 30
3384.716
 70
    32
  0
VERTEX
  8
E18LXLIFT
 62
1
 10
-1182.703
 20
-1518.815
 30
3384.842
 70
    32
  0
VERTEX
  8
E18LXLIFT
 62
1
 10
-1183.491
 20
-1521.985
 30
3384.846
 70
    32
  0
SEQEND
  8
E18LXLIFT
  0
POLYLINE
  8
E18LXLIFT
 62
1
 66
     1
 70
     9
  0
VERTEX
  8
E18LXLIFT
 62
1
 10
-1170.136
 20
-1557.815
 30
3385.167
 70
    32
  0
VERTEX
  8
E18LXLIFT
 62
1
 10
-1179.354
 20
-1556.118
 30
3385.050
 70
    32
  0
VERTEX
  8
E18LXLIFT
 62
1
 10
-1196.589
 20
-1568.038
 30
3384.878
 70
    32
  0
VERTEX
  8
E18LXLIFT
 62
1
 10
-1201.884
 20
-1563.489
 30
3384.789
 70
    32
  0
VERTEX
  8
E18LXLIFT
 62
1
 10
-1209.286
 20
-1553.563
 30
3384.649
 70
    32
  0
VERTEX
  8
E18LXLIFT
 62
1
 10
-1209.912
 20
-1551.595
 30
3384.632
 70
    32
  0
VERTEX
  8
E18LXLIFT
 62
1
 10
-1205.496
 20
-1550.531
 30
3384.685
 70
    32
  0
VERTEX
  8
E18LXLIFT
 62
1
 10
-1200.458
 20
-1547.094
 30
3384.735
 70
    32
  0
VERTEX
  8
E18LXLIFT
 62
1
 10
-1198.811
 20
-1542.148
 30
3384.735
 70
    32
  0
VERTEX
  8
E18LXLIFT
 62
1
 10
-1193.879
 20
-1534.670
 30
3384.766
 70
    32
  0
VERTEX
  8
E18LXLIFT
 62
1
 10
-1195.801
 20
-1528.130
 30
3384.713
 70
    32
  0
VERTEX
  8
E18LXLIFT
 62
1
 10
-1183.491
 20
-1521.985
 30
3384.846
 70
    32
  0
VERTEX
  8
E18LXLIFT
 62
1
 10
-1178.508
 20
-1529.173
 30
3384.942
 70
    32
  0
VERTEX
  8
E18LXLIFT
 62
1
 10
-1174.434
 20
-1530.267
 30
3385.000
 70
    32
  0
VERTEX
  8
E18LXLIFT
 62
1
 10
-1167.821
 20
-1536.534
 30
3385.114
 70
    32
  0
VERTEX
  8
E18LXLIFT
 62
1
 10
-1164.562
 20
-1541.486
 30
3385.150
 70
    32
  0
VERTEX
  8
E18LXLIFT
 62
1
 10
-1166.656
 20
-1545.997
 30
3385.158
 70
    32
  0
SEQEND
  8
E18LXLIFT
  0
POINT
  8
E18LXLIFT
 62
1
 10
-1184.018
 20
-1543.644
 30
3375.051
  0
LINE
  8
E18LXLIFT
 62
8
 10
-1184.018
 20
-1543.644
 30
3375.051
 11
-1141.447
 21
-1514.349
 31
3235.458
  0
POINT
  8
E18LXLIFT
 62
1
 10
-1141.173
 20
-1514.412
 30
3237.368
  0
LINE
  8
E18LXLIFT
 62
1
 10
-507.749
 20
-482.707
 30
3501.000
 11
-509.133
 21
-508.604
 31
3501.000
  0
LINE
  8
E18LXLIFT
 62
1
 10
-508.691
 20
-546.076
 30
3501.000
 11
-493.994
 21
-554.359
 31
3501.000
  0
POLYLINE
  8
E18LXLIFT
 62
1
 66
     1
 70
     8
  0
VERTEX
  8
E18LXLIFT
 62
1
 10
-507.981
 20
-482.732
 30
3501.000
 70
    32
  0
VERTEX
  8
E18LXLIFT
 62
1
 10
-511.716
 20
-469.914
 30
3501.000
 70
    32
  0
VERTEX
  8
E18LXLIFT
 62
1
 10
-503.820
 20
-460.235
 30
3501.000
 70
    32
  0
VERTEX
  8
E18LXLIFT
 62
1
 10
-491.935
 20
-461.872
 30
3501.000
 70
    32
  0
VERTEX
  8
E18LXLIFT
 62
1
 10
-490.185
 20
-467.495
 30
3501.000
 70
    32
  0
VERTEX
  8
E18LXLIFT
 62
1
 10
-482.518
 20
-475.703
 30
3501.000
 70
    32
  0
VERTEX
  8
E18LXLIFT
 62
1
 10
-473.105
 20
-482.486
 30
3501.000
 70
    32
  0
VERTEX
  8
E18LXLIFT
 62
1
 10
-463.181
 20
-486.769
 30
3501.000
 70
    32
  0
VERTEX
  8
E18LXLIFT
 62
1
 10
-457.268
 20
-490.105
 30
3501.000
 70
    32
  0
VERTEX
  8
E18LXLIFT
 62
1
 10
-459.655
 20
-499.055
 30
3501.000
 70
    32
  0
VERTEX
  8
E18LXLIFT
 62
1
 10
-460.454
 20
-503.766
 30
3501.000
 70
    32
  0
VERTEX
  8
E18LXLIFT
 62
1
 10
-456.138
 20
-508.478
 30
3501.000
 70
    32
  0
VERTEX
  8
E18LXLIFT
 62
1
 10
-452.000
 20
-515.381
 30
3501.000
 70
    32
  0
VERTEX
  8
E18LXLIFT
 62
1
 10
-454.208
 20
-524.572
 30
3501.000
 70
    32
  0
VERTEX
  8
E18LXLIFT
 62
1
 10
-454.679
 20
-532.408
 30
3501.000
 70
    32
  0
VERTEX
  8
E18LXLIFT
 62
1
 10
-454.664
 20
-541.567
 30
3501.000
 70
    32
  0
VERTEX
  8
E18LXLIFT
 62
1
 10
-463.862
 20
-543.794
 30
3501.000
 70
    32
  0
VERTEX
  8
E18LXLIFT
 62
1
 10
-469.201
 20
-544.584
 30
3501.000
 70
    32
  0
VERTEX
  8
E18LXLIFT
 62
1
 10
-475.693
 20
-546.171
 30
3501.000
 70
    32
  0
VERTEX
  8
E18LXLIFT
 62
1
 10
-480.757
 20
-548.253
 30
3501.000
 70
    32
  0
VERTEX
  8
E18LXLIFT
 62
1
 10
-487.303
 20
-550.691
 30
3501.000
 70
    32
  0
VERTEX
  8
E18LXLIFT
 62
1
 10
-490.794
 20
-552.789
 30
3501.000
 70
    32
  0
VERTEX
  8
E18LXLIFT
 62
1
 10
-493.994
 20
-554.359
 30
3501.000
 70
    32
  0
SEQEND
  8
E18LXLIFT
  0
POLYLINE
  8
E18LXLIFT
 62
1
 66
     1
 70
     8
  0
VERTEX
  8
E18LXLIFT
 62
1
 10
-509.133
 20
-508.604
 30
3501.000
 70
    32
  0
VERTEX
  8
E18LXLIFT
 62
1
 10
-502.150
 20
-504.656
 30
3501.000
 70
    32
  0
VERTEX
  8
E18LXLIFT
 62
1
 10
-500.041
 20
-508.078
 30
3501.000
 70
    32
  0
VERTEX
  8
E18LXLIFT
 62
1
 10
-498.471
 20
-516.142
 30
3501.000
 70
    32
  0
VERTEX
  8
E18LXLIFT
 62
1
 10
-498.473
 20
-524.441
 30
3501.000
 70
    32
  0
VERTEX
  8
E18LXLIFT
 62
1
 10
-508.377
 20
-546.345
 30
3501.000
 70
    32
  0
SEQEND
  8
E18LXLIFT
  0
POLYLINE
  8
E18LXLIFT
 62
1
 66
     1
 70
     9
  0
VERTEX
  8
E18LXLIFT
 62
1
 10
-452.738
 20
-644.190
 30
3491.000
 70
    32
  0
VERTEX
  8
E18LXLIFT
 62
1
 10
-449.509
 20
-639.978
 30
3491.000
 70
    32
  0
VERTEX
  8
E18LXLIFT
 62
1
 10
-445.457
 20
-632.846
 30
3491.000
 70
    32
  0
VERTEX
  8
E18LXLIFT
 62
1
 10
-445.192
 20
-626.410
 30
3491.000
 70
    32
  0
VERTEX
  8
E18LXLIFT
 62
1
 10
-448.593
 20
-620.581
 30
3491.000
 70
    32
  0
VERTEX
  8
E18LXLIFT
 62
1
 10
-452.527
 20
-615.461
 30
3491.000
 70
    32
  0
VERTEX
  8
E18LXLIFT
 62
1
 10
-454.978
 20
-609.736
 30
3491.000
 70
    32
  0
VERTEX
  8
E18LXLIFT
 62
1
 10
-457.067
 20
-606.424
 30
3491.000
 70
    32
  0
VERTEX
  8
E18LXLIFT
 62
1
 10
-457.602
 20
-602.518
 30
3491.000
 70
    32
  0
VERTEX
  8
E18LXLIFT
 62
1
 10
-456.964
 20
-597.926
 30
3491.000
 70
    32
  0
VERTEX
  8
E18LXLIFT
 62
1
 10
-453.665
 20
-593.975
 30
3491.000
 70
    32
  0
VERTEX
  8
E18LXLIFT
 62
1
 10
-451.594
 20
-591.560
 30
3491.000
 70
    32
  0
VERTEX
  8
E18LXLIFT
 62
1
 10
-452.061
 20
-588.165
 30
3491.000
 70
    32
  0
VERTEX
  8
E18LXLIFT
 62
1
 10
-450.574
 20
-584.127
 30
3491.000
 70
    32
  0
VERTEX
  8
E18LXLIFT
 62
1
 10
-443.696
 20
-581.130
 30
3491.000
 70
    32
  0
VERTEX
  8
E18LXLIFT
 62
1
 10
-438.325
 20
-582.312
 30
3491.000
 70
    32
  0
VERTEX
  8
E18LXLIFT
 62
1
 10
-433.374
 20
-586.115
 30
3491.000
 70
    32
  0
VERTEX
  8
E18LXLIFT
 62
1
 10
-426.297
 20
-588.585
 30
3491.000
 70
    32
  0
VERTEX
  8
E18LXLIFT
 62
1
 10
-419.156
 20
-592.817
 30
3491.000
 70
    32
  0
VERTEX
  8
E18LXLIFT
 62
1
 10
-413.623
 20
-598.744
 30
3491.000
 70
    32
  0
VERTEX
  8
E18LXLIFT
 62
1
 10
-409.861
 20
-604.304
 30
3491.000
 70
    32
  0
VERTEX
  8
E18LXLIFT
 62
1
 10
-405.853
 20
-606.002
 30
3491.000
 70
    32
  0
VERTEX
  8
E18LXLIFT
 62
1
 10
-399.789
 20
-609.038
 30
3491.000
 70
    32
  0
VERTEX
  8
E18LXLIFT
 62
1
 10
-392.897
 20
-613.019
 30
3491.000
 70
    32
  0
VERTEX
  8
E18LXLIFT
 62
1
 10
-388.193
 20
-613.137
 30
3491.000
 70
    32
  0
VERTEX
  8
E18LXLIFT
 62
1
 10
-383.442
 20
-621.954
 30
3491.000
 70
    32
  0
VERTEX
  8
E18LXLIFT
 62
1
 10
-382.364
 20
-630.447
 30
3491.000
 70
    32
  0
VERTEX
  8
E18LXLIFT
 62
1
 10
-385.208
 20
-633.499
 30
3491.000
 70
    32
  0
VERTEX
  8
E18LXLIFT
 62
1
 10
-389.636
 20
-636.856
 30
3491.000
 70
    32
  0
VERTEX
  8
E18LXLIFT
 62
1
 10
-393.480
 20
-639.654
 30
3491.000
 70
    32
  0
VERTEX
  8
E18LXLIFT
 62
1
 10
-397.549
 20
-640.809
 30
3491.000
 70
    32
  0
VERTEX
  8
E18LXLIFT
 62
1
 10
-402.405
 20
-640.991
 30
3491.000
 70
    32
  0
VERTEX
  8
E18LXLIFT
 62
1
 10
-406.273
 20
-641.997
 30
3491.000
 70
    32
  0
VERTEX
  8
E18LXLIFT
 62
1
 10
-407.931
 20
-646.225
 30
3491.000
 70
    32
  0
VERTEX
  8
E18LXLIFT
 62
1
 10
-409.888
 20
-650.301
 30
3491.000
 70
    32
  0
VERTEX
  8
E18LXLIFT
 62
1
 10
-411.584
 20
-653.808
 30
3491.000
 70
    32
  0
VERTEX
  8
E18LXLIFT
 62
1
 10
-411.149
 20
-657.914
 30
3491.000
 70
    32
  0
VERTEX
  8
E18LXLIFT
 62
1
 10
-407.630
 20
-664.404
 30
3491.000
 70
    32
  0
VERTEX
  8
E18LXLIFT
 62
1
 10
-403.863
 20
-668.713
 30
3491.000
 70
    32
  0
VERTEX
  8
E18LXLIFT
 62
1
 10
-400.311
 20
-671.560
 30
3491.000
 70
    32
  0
VERTEX
  8
E18LXLIFT
 62
1
 10
-392.979
 20
-675.712
 30
3491.000
 70
    32
  0
VERTEX
  8
E18LXLIFT
 62
1
 10
-386.443
 20
-678.460
 30
3491.000
 70
    32
  0
VERTEX
  8
E18LXLIFT
 62
1
 10
-382.772
 20
-679.285
 30
3491.000
 70
    32
  0
VERTEX
  8
E18LXLIFT
 62
1
 10
-377.319
 20
-679.907
 30
3491.000
 70
    32
  0
VERTEX
  8
E18LXLIFT
 62
1
 10
-373.195
 20
-679.833
 30
3491.000
 70
    32
  0
VERTEX
  8
E18LXLIFT
 62
1
 10
-366.793
 20
-678.376
 30
3491.000
 70
    32
  0
VERTEX
  8
E18LXLIFT
 62
1
 10
-359.672
 20
-677.383
 30
3491.000
 70
    32
  0
VERTEX
  8
E18LXLIFT
 62
1
 10
-356.206
 20
-676.926
 30
3491.000
 70
    32
  0
VERTEX
  8
E18LXLIFT
 62
1
 10
-353.152
 20
-679.270
 30
3491.000
 70
    32
  0
VERTEX
  8
E18LXLIFT
 62
1
 10
-352.037
 20
-686.051
 30
3491.000
 70
    32
  0
VERTEX
  8
E18LXLIFT
 62
1
 10
-351.231
 20
-694.933
 30
3491.000
 70
    32
  0
VERTEX
  8
E18LXLIFT
 62
1
 10
-351.943
 20
-700.516
 30
3491.000
 70
    32
  0
VERTEX
  8
E18LXLIFT
 62
1
 10
-353.389
 20
-704.274
 30
3491.000
 70
    32
  0
VERTEX
  8
E18LXLIFT
 62
1
 10
-355.261
 20
-706.790
 30
3491.000
 70
    32
  0
VERTEX
  8
E18LXLIFT
 62
1
 10
-357.915
 20
-707.330
 30
3491.000
 70
    32
  0
VERTEX
  8
E18LXLIFT
 62
1
 10
-360.685
 20
-706.458
 30
3491.000
 70
    32
  0
VERTEX
  8
E18LXLIFT
 62
1
 10
-364.847
 20
-703.379
 30
3491.000
 70
    32
  0
VERTEX
  8
E18LXLIFT
 62
1
 10
-370.179
 20
-699.735
 30
3491.000
 70
    32
  0
VERTEX
  8
E18LXLIFT
 62
1
 10
-373.950
 20
-696.427
 30
3491.000
 70
    32
  0
VERTEX
  8
E18LXLIFT
 62
1
 10
-380.642
 20
-692.797
 30
3491.000
 70
    32
  0
VERTEX
  8
E18LXLIFT
 62
1
 10
-386.673
 20
-691.233
 30
3491.000
 70
    32
  0
VERTEX
  8
E18LXLIFT
 62
1
 10
-392.891
 20
-689.246
 30
3491.000
 70
    32
  0
VERTEX
  8
E18LXLIFT
 62
1
 10
-397.069
 20
-687.489
 30
3491.000
 70
    32
  0
VERTEX
  8
E18LXLIFT
 62
1
 10
-401.827
 20
-685.788
 30
3491.000
 70
    32
  0
VERTEX
  8
E18LXLIFT
 62
1
 10
-405.244
 20
-684.214
 30
3491.000
 70
    32
  0
VERTEX
  8
E18LXLIFT
 62
1
 10
-407.813
 20
-683.193
 30
3491.000
 70
    32
  0
VERTEX
  8
E18LXLIFT
 62
1
 10
-412.534
 20
-682.213
 30
3491.000
 70
    32
  0
VERTEX
  8
E18LXLIFT
 62
1
 10
-418.883
 20
-682.820
 30
3491.000
 70
    32
  0
VERTEX
  8
E18LXLIFT
 62
1
 10
-424.987
 20
-679.563
 30
3491.000
 70
    32
  0
VERTEX
  8
E18LXLIFT
 62
1
 10
-428.592
 20
-674.884
 30
3491.000
 70
    32
  0
VERTEX
  8
E18LXLIFT
 62
1
 10
-431.226
 20
-669.919
 30
3491.000
 70
    32
  0
VERTEX
  8
E18LXLIFT
 62
1
 10
-433.753
 20
-663.252
 30
3491.000
 70
    32
  0
VERTEX
  8
E18LXLIFT
 62
1
 10
-434.575
 20
-658.374
 30
3491.000
 70
    32
  0
VERTEX
  8
E18LXLIFT
 62
1
 10
-437.460
 20
-653.908
 30
3491.000
 70
    32
  0
VERTEX
  8
E18LXLIFT
 62
1
 10
-440.029
 20
-652.887
 30
3491.000
 70
    32
  0
SEQEND
  8
E18LXLIFT
  0
POLYLINE
  8
E18LXLIFT
 62
7
 66
     1
 70
     9
  0
VERTEX
  8
E18LXLIFT
 62
7
 10
-532.308
 20
-459.969
 30
3506.000
 70
    32
  0
VERTEX
  8
E18LXLIFT
 62
7
 10
-544.327
 20
-425.240
 30
3505.000
 70
    32
  0
VERTEX
  8
E18LXLIFT
 62
7
 10
-539.588
 20
-415.686
 30
3505.000
 70
    32
  0
VERTEX
  8
E18LXLIFT
 62
7
 10
-547.031
 20
-407.253
 30
3505.000
 70
    32
  0
VERTEX
  8
E18LXLIFT
 62
7
 10
-550.633
 20
-400.719
 30
3505.000
 70
    32
  0
VERTEX
  8
E18LXLIFT
 62
7
 10
-549.792
 20
-393.278
 30
3505.000
 70
    32
  0
VERTEX
  8
E18LXLIFT
 62
7
 10
-554.007
 20
-382.359
 30
3505.000
 70
    32
  0
VERTEX
  8
E18LXLIFT
 62
7
 10
-557.972
 20
-375.015
 30
3505.000
 70
    32
  0
VERTEX
  8
E18LXLIFT
 62
7
 10
-558.068
 20
-374.882
 30
3505.000
 70
    32
  0
VERTEX
  8
E18LXLIFT
 62
7
 10
-577.522
 20
-369.366
 30
3505.000
 70
    32
  0
VERTEX
  8
E18LXLIFT
 62
7
 10
-588.510
 20
-366.522
 30
3505.000
 70
    32
  0
VERTEX
  8
E18LXLIFT
 62
7
 10
-589.373
 20
-364.729
 30
3505.000
 70
    32
  0
VERTEX
  8
E18LXLIFT
 62
7
 10
-586.252
 20
-355.354
 30
3505.000
 70
    32
  0
VERTEX
  8
E18LXLIFT
 62
7
 10
-590.830
 20
-346.008
 30
3505.000
 70
    32
  0
VERTEX
  8
E18LXLIFT
 62
7
 10
-599.377
 20
-331.330
 30
3505.000
 70
    32
  0
VERTEX
  8
E18LXLIFT
 62
7
 10
-592.463
 20
-326.833
 30
3505.000
 70
    32
  0
VERTEX
  8
E18LXLIFT
 62
7
 10
-576.416
 20
-354.649
 30
3505.000
 70
    32
  0
VERTEX
  8
E18LXLIFT
 62
7
 10
-569.462
 20
-359.496
 30
3505.000
 70
    32
  0
VERTEX
  8
E18LXLIFT
 62
7
 10
-565.682
 20
-362.547
 30
3505.000
 70
    32
  0
VERTEX
  8
E18LXLIFT
 62
7
 10
-556.500
 20
-366.262
 30
3505.000
 70
    32
  0
VERTEX
  8
E18LXLIFT
 62
7
 10
-545.698
 20
-363.355
 30
3505.000
 70
    32
  0
VERTEX
  8
E18LXLIFT
 62
7
 10
-543.260
 20
-363.892
 30
3505.000
 70
    32
  0
VERTEX
  8
E18LXLIFT
 62
7
 10
-537.972
 20
-370.889
 30
3505.000
 70
    32
  0
VERTEX
  8
E18LXLIFT
 62
7
 10
-531.103
 20
-372.904
 30
3505.000
 70
    32
  0
VERTEX
  8
E18LXLIFT
 62
7
 10
-527.467
 20
-376.981
 30
3505.000
 70
    32
  0
VERTEX
  8
E18LXLIFT
 62
7
 10
-514.360
 20
-381.901
 30
3505.000
 70
    32
  0
VERTEX
  8
E18LXLIFT
 62
7
 10
-497.164
 20
-394.844
 30
3505.000
 70
    32
  0
VERTEX
  8
E18LXLIFT
 62
7
 10
-490.331
 20
-403.145
 30
3505.000
 70
    32
  0
VERTEX
  8
E18LXLIFT
 62
7
 10
-494.011
 20
-405.260
 30
3505.000
 70
    32
  0
VERTEX
  8
E18LXLIFT
 62
7
 10
-500.451
 20
-419.144
 30
3505.000
 70
    32
  0
VERTEX
  8
E18LXLIFT
 62
7
 10
-500.644
 20
-419.560
 30
3505.000
 70
    32
  0
VERTEX
  8
E18LXLIFT
 62
7
 10
-503.693
 20
-434.864
 30
3505.000
 70
    32
  0
VERTEX
  8
E18LXLIFT
 62
7
 10
-503.309
 20
-441.872
 30
3505.000
 70
    32
  0
VERTEX
  8
E18LXLIFT
 62
7
 10
-510.846
 20
-450.419
 30
3505.000
 70
    32
  0
VERTEX
  8
E18LXLIFT
 62
7
 10
-516.860
 20
-462.636
 30
3505.000
 70
    32
  0
VERTEX
  8
E18LXLIFT
 62
7
 10
-524.058
 20
-468.502
 30
3506.000
 70
    32
  0
SEQEND
  8
E18LXLIFT
  0
POLYLINE
  8
E18LXLIFT
 62
4
 66
     1
 70
     9
  0
VERTEX
  8
E18LXLIFT
 62
4
 10
-676.173
 20
-613.965
 30
3511.000
 70
    32
  0
VERTEX
  8
E18LXLIFT
 62
4
 10
-678.684
 20
-625.819
 30
3511.000
 70
    32
  0
VERTEX
  8
E18LXLIFT
 62
4
 10
-670.564
 20
-632.129
 30
3511.000
 70
    32
  0
VERTEX
  8
E18LXLIFT
 62
4
 10
-661.712
 20
-624.828
 30
3511.000
 70
    32
  0
VERTEX
  8
E18LXLIFT
 62
4
 10
-660.554
 20
-625.828
 30
3511.000
 70
    32
  0
VERTEX
  8
E18LXLIFT
 62
4
 10
-657.933
 20
-629.002
 30
3511.000
 70
    32
  0
VERTEX
  8
E18LXLIFT
 62
4
 10
-654.599
 20
-629.307
 30
3511.000
 70
    32
  0
VERTEX
  8
E18LXLIFT
 62
4
 10
-646.763
 20
-624.871
 30
3511.000
 70
    32
  0
VERTEX
  8
E18LXLIFT
 62
4
 10
-649.096
 20
-615.201
 30
3511.000
 70
    32
  0
VERTEX
  8
E18LXLIFT
 62
4
 10
-655.379
 20
-599.494
 30
3511.000
 70
    32
  0
VERTEX
  8
E18LXLIFT
 62
4
 10
-655.290
 20
-599.262
 30
3511.000
 70
    32
  0
VERTEX
  8
E18LXLIFT
 62
4
 10
-660.147
 20
-598.121
 30
3511.000
 70
    32
  0
VERTEX
  8
E18LXLIFT
 62
4
 10
-660.723
 20
-595.521
 30
3511.000
 70
    32
  0
VERTEX
  8
E18LXLIFT
 62
4
 10
-659.942
 20
-579.398
 30
3511.000
 70
    32
  0
VERTEX
  8
E18LXLIFT
 62
4
 10
-661.569
 20
-577.859
 30
3511.000
 70
    32
  0
VERTEX
  8
E18LXLIFT
 62
4
 10
-662.558
 20
-574.622
 30
3511.000
 70
    32
  0
VERTEX
  8
E18LXLIFT
 62
4
 10
-661.810
 20
-569.611
 30
3511.000
 70
    32
  0
VERTEX
  8
E18LXLIFT
 62
4
 10
-670.450
 20
-565.441
 30
3511.000
 70
    32
  0
VERTEX
  8
E18LXLIFT
 62
4
 10
-677.046
 20
-549.907
 30
3511.000
 70
    32
  0
VERTEX
  8
E18LXLIFT
 62
4
 10
-686.775
 20
-554.381
 30
3511.000
 70
    32
  0
VERTEX
  8
E18LXLIFT
 62
4
 10
-674.988
 20
-582.964
 30
3511.000
 70
    32
  0
VERTEX
  8
E18LXLIFT
 62
4
 10
-674.025
 20
-594.038
 30
3511.000
 70
    32
  0
VERTEX
  8
E18LXLIFT
 62
4
 10
-678.408
 20
-601.289
 30
3511.000
 70
    32
  0
VERTEX
  8
E18LXLIFT
 62
4
 10
-674.159
 20
-604.282
 30
3511.000
 70
    32
  0
VERTEX
  8
E18LXLIFT
 62
4
 10
-672.765
 20
-607.907
 30
3511.000
 70
    32
  0
SEQEND
  8
E18LXLIFT
  0
POLYLINE
  8
E18LXLIFT
 62
4
 66
     1
 70
     9
  0
VERTEX
  8
E18LXLIFT
 62
4
 10
-1429.654
 20
-412.944
 30
3398.000
 70
    32
  0
VERTEX
  8
E18LXLIFT
 62
4
 10
-1446.073
 20
-409.443
 30
3398.000
 70
    32
  0
VERTEX
  8
E18LXLIFT
 62
4
 10
-1459.119
 20
-408.201
 30
3398.000
 70
    32
  0
VERTEX
  8
E18LXLIFT
 62
4
 10
-1467.792
 20
-407.366
 30
3398.000
 70
    32
  0
VERTEX
  8
E18LXLIFT
 62
4
 10
-1470.609
 20
-429.280
 30
3398.000
 70
    32
  0
VERTEX
  8
E18LXLIFT
 62
4
 10
-1468.938
 20
-437.746
 30
3398.000
 70
    32
  0
VERTEX
  8
E18LXLIFT
 62
4
 10
-1468.218
 20
-439.443
 30
3398.000
 70
    32
  0
VERTEX
  8
E18LXLIFT
 62
4
 10
-1463.488
 20
-448.596
 30
3398.000
 70
    32
  0
VERTEX
  8
E18LXLIFT
 62
4
 10
-1471.893
 20
-456.938
 30
3398.000
 70
    32
  0
VERTEX
  8
E18LXLIFT
 62
4
 10
-1496.760
 20
-442.364
 30
3398.000
 70
    32
  0
VERTEX
  8
E18LXLIFT
 62
4
 10
-1507.837
 20
-432.439
 30
3398.000
 70
    32
  0
VERTEX
  8
E18LXLIFT
 62
4
 10
-1510.520
 20
-432.371
 30
3398.000
 70
    32
  0
VERTEX
  8
E18LXLIFT
 62
4
 10
-1512.787
 20
-433.425
 30
3398.000
 70
    32
  0
VERTEX
  8
E18LXLIFT
 62
4
 10
-1512.335
 20
-438.154
 30
3398.000
 70
    32
  0
VERTEX
  8
E18LXLIFT
 62
4
 10
-1516.467
 20
-450.830
 30
3398.000
 70
    32
  0
VERTEX
  8
E18LXLIFT
 62
4
 10
-1516.984
 20
-466.042
 30
3398.000
 70
    32
  0
VERTEX
  8
E18LXLIFT
 62
4
 10
-1516.151
 20
-469.021
 30
3398.000
 70
    32
  0
VERTEX
  8
E18LXLIFT
 62
4
 10
-1512.445
 20
-477.344
 30
3398.000
 70
    32
  0
VERTEX
  8
E18LXLIFT
 62
4
 10
-1502.878
 20
-488.432
 30
3398.000
 70
    32
  0
VERTEX
  8
E18LXLIFT
 62
4
 10
-1511.745
 20
-495.234
 30
3398.000
 70
    32
  0
VERTEX
  8
E18LXLIFT
 62
4
 10
-1523.867
 20
-488.821
 30
3398.000
 70
    32
  0
VERTEX
  8
E18LXLIFT
 62
4
 10
-1526.880
 20
-484.546
 30
3398.000
 70
    32
  0
VERTEX
  8
E18LXLIFT
 62
4
 10
-1525.002
 20
-478.517
 30
3398.000
 70
    32
  0
VERTEX
  8
E18LXLIFT
 62
4
 10
-1536.322
 20
-452.214
 30
3398.000
 70
    32
  0
VERTEX
  8
E18LXLIFT
 62
4
 10
-1529.676
 20
-445.456
 30
3398.000
 70
    32
  0
VERTEX
  8
E18LXLIFT
 62
4
 10
-1531.402
 20
-430.741
 30
3398.000
 70
    32
  0
VERTEX
  8
E18LXLIFT
 62
4
 10
-1527.303
 20
-426.969
 30
3398.000
 70
    32
  0
VERTEX
  8
E18LXLIFT
 62
4
 10
-1525.823
 20
-416.435
 30
3398.000
 70
    32
  0
VERTEX
  8
E18LXLIFT
 62
4
 10
-1525.792
 20
-407.924
 30
3398.000
 70
    32
  0
VERTEX
  8
E18LXLIFT
 62
4
 10
-1526.398
 20
-397.354
 30
3398.000
 70
    32
  0
VERTEX
  8
E18LXLIFT
 62
4
 10
-1525.088
 20
-392.649
 30
3398.000
 70
    32
  0
VERTEX
  8
E18LXLIFT
 62
4
 10
-1522.845
 20
-391.464
 30
3398.000
 70
    32
  0
VERTEX
  8
E18LXLIFT
 62
4
 10
-1515.569
 20
-367.116
 30
3398.000
 70
    32
  0
VERTEX
  8
E18LXLIFT
 62
4
 10
-1510.655
 20
-365.165
 30
3398.000
 70
    32
  0
VERTEX
  8
E18LXLIFT
 62
4
 10
-1511.388
 20
-360.100
 30
3398.000
 70
    32
  0
VERTEX
  8
E18LXLIFT
 62
4
 10
-1518.850
 20
-352.449
 30
3398.000
 70
    32
  0
VERTEX
  8
E18LXLIFT
 62
4
 10
-1530.503
 20
-336.291
 30
3398.000
 70
    32
  0
VERTEX
  8
E18LXLIFT
 62
4
 10
-1539.034
 20
-328.022
 30
3398.000
 70
    32
  0
VERTEX
  8
E18LXLIFT
 62
4
 10
-1543.188
 20
-319.852
 30
3398.000
 70
    32
  0
VERTEX
  8
E18LXLIFT
 62
4
 10
-1548.984
 20
-310.673
 30
3398.000
 70
    32
  0
VERTEX
  8
E18LXLIFT
 62
4
 10
-1543.746
 20
-306.743
 30
3398.000
 70
    32
  0
VERTEX
  8
E18LXLIFT
 62
4
 10
-1538.403
 20
-303.410
 30
3398.000
 70
    32
  0
VERTEX
  8
E18LXLIFT
 62
4
 10
-1538.116
 20
-293.318
 30
3398.000
 70
    32
  0
VERTEX
  8
E18LXLIFT
 62
4
 10
-1545.480
 20
-282.645
 30
3398.000
 70
    32
  0
VERTEX
  8
E18LXLIFT
 62
4
 10
-1535.686
 20
-274.366
 30
3398.000
 70
    32
  0
VERTEX
  8
E18LXLIFT
 62
4
 10
-1530.995
 20
-280.470
 30
3398.000
 70
    32
  0
VERTEX
  8
E18LXLIFT
 62
4
 10
-1528.584
 20
-281.001
 30
3398.000
 70
    32
  0
VERTEX
  8
E18LXLIFT
 62
4
 10
-1524.154
 20
-289.230
 30
3398.000
 70
    32
  0
VERTEX
  8
E18LXLIFT
 62
4
 10
-1517.735
 20
-288.997
 30
3398.000
 70
    32
  0
VERTEX
  8
E18LXLIFT
 62
4
 10
-1516.707
 20
-296.183
 30
3398.000
 70
    32
  0
VERTEX
  8
E18LXLIFT
 62
4
 10
-1509.422
 20
-297.975
 30
3398.000
 70
    32
  0
VERTEX
  8
E18LXLIFT
 62
4
 10
-1508.060
 20
-309.963
 30
3398.000
 70
    32
  0
VERTEX
  8
E18LXLIFT
 62
4
 10
-1504.699
 20
-311.032
 30
3398.000
 70
    32
  0
VERTEX
  8
E18LXLIFT
 62
4
 10
-1506.475
 20
-320.525
 30
3398.000
 70
    32
  0
VERTEX
  8
E18LXLIFT
 62
4
 10
-1499.294
 20
-330.086
 30
3398.000
 70
    32
  0
VERTEX
  8
E18LXLIFT
 62
4
 10
-1498.260
 20
-334.078
 30
3398.000
 70
    32
  0
VERTEX
  8
E18LXLIFT
 62
4
 10
-1504.632
 20
-345.381
 30
3398.000
 70
    32
  0
VERTEX
  8
E18LXLIFT
 62
4
 10
-1495.845
 20
-359.086
 30
3398.000
 70
    32
  0
VERTEX
  8
E18LXLIFT
 62
4
 10
-1489.161
 20
-358.661
 30
3398.000
 70
    32
  0
VERTEX
  8
E18LXLIFT
 62
4
 10
-1483.102
 20
-368.218
 30
3398.000
 70
    32
  0
VERTEX
  8
E18LXLIFT
 62
4
 10
-1479.143
 20
-376.159
 30
3398.000
 70
    32
  0
VERTEX
  8
E18LXLIFT
 62
4
 10
-1475.779
 20
-378.854
 30
3398.000
 70
    32
  0
VERTEX
  8
E18LXLIFT
 62
4
 10
-1471.847
 20
-388.362
 30
3398.000
 70
    32
  0
VERTEX
  8
E18LXLIFT
 62
4
 10
-1471.699
 20
-394.720
 30
3398.000
 70
    32
  0
VERTEX
  8
E18LXLIFT
 62
4
 10
-1457.103
 20
-397.230
 30
3398.000
 70
    32
  0
VERTEX
  8
E18LXLIFT
 62
4
 10
-1433.530
 20
-400.894
 30
3398.000
 70
    32
  0
SEQEND
  8
E18LXLIFT
  0
LINE
  8
E18LXLIFT
 62
6
 10
-295.620
 20
-919.531
 30
3493.741
 11
-287.569
 21
-914.130
 31
3492.122
  0
POLYLINE
  8
E18LXLIFT
 62
24
 66
     1
 70
     9
  0
VERTEX
  8
E18LXLIFT
 62
24
 10
36.342
 20
-1583.428
 30
3517.000
 70
    32
  0
VERTEX
  8
E18LXLIFT
 62
24
 10
57.061
 20
-1584.092
 30
3517.000
 70
    32
  0
VERTEX
  8
E18LXLIFT
 62
24
 10
67.197
 20
-1606.439
 30
3517.000
 70
    32
  0
VERTEX
  8
E18LXLIFT
 62
24
 10
71.587
 20
-1623.955
 30
3517.000
 70
    32
  0
VERTEX
  8
E18LXLIFT
 62
24
 10
67.436
 20
-1647.220
 30
3517.000
 70
    32
  0
VERTEX
  8
E18LXLIFT
 62
24
 10
67.552
 20
-1654.343
 30
3517.000
 70
    32
  0
VERTEX
  8
E18LXLIFT
 62
24
 10
51.399
 20
-1653.469
 30
3517.000
 70
    32
  0
VERTEX
  8
E18LXLIFT
 62
24
 10
47.091
 20
-1638.732
 30
3517.000
 70
    32
  0
VERTEX
  8
E18LXLIFT
 62
24
 10
38.275
 20
-1622.621
 30
3517.000
 70
    32
  0
VERTEX
  8
E18LXLIFT
 62
24
 10
39.053
 20
-1611.672
 30
3517.000
 70
    32
  0
VERTEX
  8
E18LXLIFT
 62
24
 10
25.803
 20
-1591.621
 30
3517.000
 70
    32
  0
SEQEND
  8
E18LXLIFT
  0
POLYLINE
  8
E18LXLIFT
 62
1
 66
     1
 70
     9
  0
VERTEX
  8
E18LXLIFT
 62
1
 10
-654.711
 20
-537.905
 30
3442.271
 70
    32
  0
VERTEX
  8
E18LXLIFT
 62
1
 10
-656.112
 20
-548.559
 30
3442.283
 70
    32
  0
VERTEX
  8
E18LXLIFT
 62
1
 10
-659.084
 20
-555.853
 30
3441.827
 70
    32
  0
VERTEX
  8
E18LXLIFT
 62
1
 10
-653.137
 20
-567.882
 30
3441.399
 70
    32
  0
VERTEX
  8
E18LXLIFT
 62
1
 10
-653.413
 20
-578.924
 30
3441.389
 70
    32
  0
VERTEX
  8
E18LXLIFT
 62
1
 10
-643.411
 20
-591.497
 30
3441.372
 70
    32
  0
VERTEX
  8
E18LXLIFT
 62
1
 10
-635.819
 20
-592.784
 30
3441.372
 70
    32
  0
VERTEX
  8
E18LXLIFT
 62
1
 10
-630.803
 20
-590.529
 30
3441.372
 70
    32
  0
VERTEX
  8
E18LXLIFT
 62
1
 10
-625.018
 20
-582.272
 30
3441.372
 70
    32
  0
VERTEX
  8
E18LXLIFT
 62
1
 10
-629.783
 20
-570.782
 30
3441.363
 70
    32
  0
VERTEX
  8
E18LXLIFT
 62
1
 10
-637.527
 20
-563.949
 30
3441.372
 70
    32
  0
VERTEX
  8
E18LXLIFT
 62
1
 10
-634.286
 20
-552.168
 30
3441.415
 70
    32
  0
VERTEX
  8
E18LXLIFT
 62
1
 10
-630.088
 20
-548.551
 30
3441.542
 70
    32
  0
SEQEND
  8
E18LXLIFT
  0
ENDSEC
  0
EOF
