999
********************************
999
*   DXF File - Entities Only   *
999
*        3D Data Format        *
999
*     Output from ENVISAGE     *
999
*     31-Dec-2007 14:06:41     *
999
********************************
  0
SECTION 
  2
HEADER
  9
$ACADVER
  1
AC1009
  9
$EXTMIN
 10
-290000.000
 20
-250000.000
 30
-4000.000
  9
$EXTMAX
 10
320000.000
 20
160000.000
 30
6000.000
  0
ENDSEC
  0
SECTION
  2
ENTITIES
  0
POLYLINE
  8
E20LXLIFT
 62
3
 66
     1
 70
     9
  0
VERTEX
  8
E20LXLIFT
 62
3
 10
-258.670
 20
-890.465
 30
3320.000
 70
    32
  0
VERTEX
  8
E20LXLIFT
 62
3
 10
-260.920
 20
-895.005
 30
3320.000
 70
    32
  0
VERTEX
  8
E20LXLIFT
 62
3
 10
-269.472
 20
-876.058
 30
3320.000
 70
    32
  0
VERTEX
  8
E20LXLIFT
 62
3
 10
-263.862
 20
-877.539
 30
3320.000
 70
    32
  0
VERTEX
  8
E20LXLIFT
 62
3
 10
-260.706
 20
-875.159
 30
3320.000
 70
    32
  0
VERTEX
  8
E20LXLIFT
 62
3
 10
-256.377
 20
-866.741
 30
3320.000
 70
    32
  0
VERTEX
  8
E20LXLIFT
 62
3
 10
-253.361
 20
-865.219
 30
3320.000
 70
    32
  0
VERTEX
  8
E20LXLIFT
 62
3
 10
-251.286
 20
-865.998
 30
3320.000
 70
    32
  0
VERTEX
  8
E20LXLIFT
 62
3
 10
-247.574
 20
-864.841
 30
3320.000
 70
    32
  0
VERTEX
  8
E20LXLIFT
 62
3
 10
-229.404
 20
-852.954
 30
3320.000
 70
    32
  0
VERTEX
  8
E20LXLIFT
 62
3
 10
-224.401
 20
-853.140
 30
3320.000
 70
    32
  0
VERTEX
  8
E20LXLIFT
 62
3
 10
-219.965
 20
-851.786
 30
3320.000
 70
    32
  0
VERTEX
  8
E20LXLIFT
 62
3
 10
-217.214
 20
-850.347
 30
3320.000
 70
    32
  0
VERTEX
  8
E20LXLIFT
 62
3
 10
-215.187
 20
-849.104
 30
3320.000
 70
    32
  0
VERTEX
  8
E20LXLIFT
 62
3
 10
-213.516
 20
-848.118
 30
3320.000
 70
    32
  0
VERTEX
  8
E20LXLIFT
 62
3
 10
-212.681
 20
-847.625
 30
3320.000
 70
    32
  0
VERTEX
  8
E20LXLIFT
 62
3
 10
-203.975
 20
-852.504
 30
3320.000
 70
    32
  0
VERTEX
  8
E20LXLIFT
 62
3
 10
-199.623
 20
-853.591
 30
3320.000
 70
    32
  0
VERTEX
  8
E20LXLIFT
 62
3
 10
-196.367
 20
-853.304
 30
3320.000
 70
    32
  0
VERTEX
  8
E20LXLIFT
 62
3
 10
-194.243
 20
-853.398
 30
3320.000
 70
    32
  0
VERTEX
  8
E20LXLIFT
 62
3
 10
-192.005
 20
-853.952
 30
3320.000
 70
    32
  0
VERTEX
  8
E20LXLIFT
 62
3
 10
-190.421
 20
-854.650
 30
3320.000
 70
    32
  0
VERTEX
  8
E20LXLIFT
 62
3
 10
-181.980
 20
-873.894
 30
3320.000
 70
    32
  0
VERTEX
  8
E20LXLIFT
 62
3
 10
-183.347
 20
-882.668
 30
3320.000
 70
    32
  0
VERTEX
  8
E20LXLIFT
 62
3
 10
-194.543
 20
-891.917
 30
3320.000
 70
    32
  0
VERTEX
  8
E20LXLIFT
 62
3
 10
-210.068
 20
-892.596
 30
3320.000
 70
    32
  0
VERTEX
  8
E20LXLIFT
 62
3
 10
-212.745
 20
-892.034
 30
3320.000
 70
    32
  0
VERTEX
  8
E20LXLIFT
 62
3
 10
-222.786
 20
-898.829
 30
3320.000
 70
    32
  0
VERTEX
  8
E20LXLIFT
 62
3
 10
-228.870
 20
-901.801
 30
3320.000
 70
    32
  0
VERTEX
  8
E20LXLIFT
 62
3
 10
-256.937
 20
-889.866
 30
3320.000
 70
    32
  0
SEQEND
  8
E20LXLIFT
  0
POLYLINE
  8
E20LXLIFT
 62
1
 66
     1
 70
     9
  0
VERTEX
  8
E20LXLIFT
 62
1
 10
324.659
 20
-2322.150
 30
3239.000
 70
    32
  0
VERTEX
  8
E20LXLIFT
 62
1
 10
315.515
 20
-2316.564
 30
3239.000
 70
    32
  0
VERTEX
  8
E20LXLIFT
 62
1
 10
307.580
 20
-2310.549
 30
3239.000
 70
    32
  0
VERTEX
  8
E20LXLIFT
 62
1
 10
299.189
 20
-2307.650
 30
3239.000
 70
    32
  0
VERTEX
  8
E20LXLIFT
 62
1
 10
288.732
 20
-2305.203
 30
3239.000
 70
    32
  0
VERTEX
  8
E20LXLIFT
 62
1
 10
279.678
 20
-2302.128
 30
3239.000
 70
    32
  0
VERTEX
  8
E20LXLIFT
 62
1
 10
269.849
 20
-2301.163
 30
3239.000
 70
    32
  0
VERTEX
  8
E20LXLIFT
 62
1
 10
261.508
 20
-2303.109
 30
3239.000
 70
    32
  0
VERTEX
  8
E20LXLIFT
 62
1
 10
250.150
 20
-2308.757
 30
3239.000
 70
    32
  0
VERTEX
  8
E20LXLIFT
 62
1
 10
223.410
 20
-2330.458
 30
3239.000
 70
    32
  0
VERTEX
  8
E20LXLIFT
 62
1
 10
207.084
 20
-2342.730
 30
3239.000
 70
    32
  0
VERTEX
  8
E20LXLIFT
 62
1
 10
184.599
 20
-2357.981
 30
3239.000
 70
    32
  0
VERTEX
  8
E20LXLIFT
 62
1
 10
175.955
 20
-2365.125
 30
3239.000
 70
    32
  0
VERTEX
  8
E20LXLIFT
 62
1
 10
176.979
 20
-2369.021
 30
3239.000
 70
    32
  0
VERTEX
  8
E20LXLIFT
 62
1
 10
179.435
 20
-2379.232
 30
3239.000
 70
    32
  0
VERTEX
  8
E20LXLIFT
 62
1
 10
169.662
 20
-2384.520
 30
3239.000
 70
    32
  0
VERTEX
  8
E20LXLIFT
 62
1
 10
160.150
 20
-2389.263
 30
3239.000
 70
    32
  0
VERTEX
  8
E20LXLIFT
 62
1
 10
150.573
 20
-2379.914
 30
3239.000
 70
    32
  0
VERTEX
  8
E20LXLIFT
 62
1
 10
146.428
 20
-2370.304
 30
3239.000
 70
    32
  0
VERTEX
  8
E20LXLIFT
 62
1
 10
147.819
 20
-2369.448
 30
3239.000
 70
    32
  0
VERTEX
  8
E20LXLIFT
 62
1
 10
158.405
 20
-2362.275
 30
3239.000
 70
    32
  0
VERTEX
  8
E20LXLIFT
 62
1
 10
153.235
 20
-2355.817
 30
3239.000
 70
    32
  0
VERTEX
  8
E20LXLIFT
 62
1
 10
136.635
 20
-2348.516
 30
3239.000
 70
    32
  0
VERTEX
  8
E20LXLIFT
 62
1
 10
125.953
 20
-2329.175
 30
3239.000
 70
    32
  0
VERTEX
  8
E20LXLIFT
 62
1
 10
127.453
 20
-2325.469
 30
3239.000
 70
    32
  0
VERTEX
  8
E20LXLIFT
 62
1
 10
126.820
 20
-2319.312
 30
3239.000
 70
    32
  0
VERTEX
  8
E20LXLIFT
 62
1
 10
122.872
 20
-2316.212
 30
3239.000
 70
    32
  0
VERTEX
  8
E20LXLIFT
 62
1
 10
111.860
 20
-2313.475
 30
3239.000
 70
    32
  0
VERTEX
  8
E20LXLIFT
 62
1
 10
99.877
 20
-2311.946
 30
3239.000
 70
    32
  0
VERTEX
  8
E20LXLIFT
 62
1
 10
76.317
 20
-2311.218
 30
3239.000
 70
    32
  0
VERTEX
  8
E20LXLIFT
 62
1
 10
67.198
 20
-2315.618
 30
3239.000
 70
    32
  0
VERTEX
  8
E20LXLIFT
 62
1
 10
64.345
 20
-2313.892
 30
3239.000
 70
    32
  0
VERTEX
  8
E20LXLIFT
 62
1
 10
55.064
 20
-2309.045
 30
3239.000
 70
    32
  0
VERTEX
  8
E20LXLIFT
 62
1
 10
50.314
 20
-2308.889
 30
3239.000
 70
    32
  0
VERTEX
  8
E20LXLIFT
 62
1
 10
48.415
 20
-2302.178
 30
3239.000
 70
    32
  0
VERTEX
  8
E20LXLIFT
 62
1
 10
54.554
 20
-2283.619
 30
3239.000
 70
    32
  0
VERTEX
  8
E20LXLIFT
 62
1
 10
66.880
 20
-2274.776
 30
3239.000
 70
    32
  0
VERTEX
  8
E20LXLIFT
 62
1
 10
71.155
 20
-2282.160
 30
3239.000
 70
    32
  0
VERTEX
  8
E20LXLIFT
 62
1
 10
80.703
 20
-2291.573
 30
3239.000
 70
    32
  0
VERTEX
  8
E20LXLIFT
 62
1
 10
82.513
 20
-2292.919
 30
3239.000
 70
    32
  0
VERTEX
  8
E20LXLIFT
 62
1
 10
83.512
 20
-2294.250
 30
3239.000
 70
    32
  0
VERTEX
  8
E20LXLIFT
 62
1
 10
86.898
 20
-2297.487
 30
3239.000
 70
    32
  0
VERTEX
  8
E20LXLIFT
 62
1
 10
99.960
 20
-2301.964
 30
3239.000
 70
    32
  0
VERTEX
  8
E20LXLIFT
 62
1
 10
111.808
 20
-2304.093
 30
3239.000
 70
    32
  0
VERTEX
  8
E20LXLIFT
 62
1
 10
119.767
 20
-2303.240
 30
3239.000
 70
    32
  0
VERTEX
  8
E20LXLIFT
 62
1
 10
127.247
 20
-2300.040
 30
3239.000
 70
    32
  0
VERTEX
  8
E20LXLIFT
 62
1
 10
133.297
 20
-2304.617
 30
3239.000
 70
    32
  0
VERTEX
  8
E20LXLIFT
 62
1
 10
137.815
 20
-2307.759
 30
3239.000
 70
    32
  0
VERTEX
  8
E20LXLIFT
 62
1
 10
144.325
 20
-2309.010
 30
3239.000
 70
    32
  0
VERTEX
  8
E20LXLIFT
 62
1
 10
156.048
 20
-2309.320
 30
3239.000
 70
    32
  0
VERTEX
  8
E20LXLIFT
 62
1
 10
157.442
 20
-2307.458
 30
3239.000
 70
    32
  0
VERTEX
  8
E20LXLIFT
 62
1
 10
153.354
 20
-2302.288
 30
3239.000
 70
    32
  0
VERTEX
  8
E20LXLIFT
 62
1
 10
152.781
 20
-2300.236
 30
3239.000
 70
    32
  0
VERTEX
  8
E20LXLIFT
 62
1
 10
136.918
 20
-2277.861
 30
3239.000
 70
    32
  0
VERTEX
  8
E20LXLIFT
 62
1
 10
118.025
 20
-2252.344
 30
3239.000
 70
    32
  0
VERTEX
  8
E20LXLIFT
 62
1
 10
130.319
 20
-2245.660
 30
3239.000
 70
    32
  0
VERTEX
  8
E20LXLIFT
 62
1
 10
142.188
 20
-2258.577
 30
3239.000
 70
    32
  0
VERTEX
  8
E20LXLIFT
 62
1
 10
148.322
 20
-2269.120
 30
3239.000
 70
    32
  0
VERTEX
  8
E20LXLIFT
 62
1
 10
157.792
 20
-2278.503
 30
3239.000
 70
    32
  0
VERTEX
  8
E20LXLIFT
 62
1
 10
164.615
 20
-2288.013
 30
3239.000
 70
    32
  0
VERTEX
  8
E20LXLIFT
 62
1
 10
165.481
 20
-2289.508
 30
3239.000
 70
    32
  0
VERTEX
  8
E20LXLIFT
 62
1
 10
165.459
 20
-2289.618
 30
3239.000
 70
    32
  0
VERTEX
  8
E20LXLIFT
 62
1
 10
166.048
 20
-2293.245
 30
3239.000
 70
    32
  0
VERTEX
  8
E20LXLIFT
 62
1
 10
181.002
 20
-2311.452
 30
3239.000
 70
    32
  0
VERTEX
  8
E20LXLIFT
 62
1
 10
187.228
 20
-2316.826
 30
3239.000
 70
    32
  0
VERTEX
  8
E20LXLIFT
 62
1
 10
194.170
 20
-2318.941
 30
3239.000
 70
    32
  0
VERTEX
  8
E20LXLIFT
 62
1
 10
203.060
 20
-2320.284
 30
3239.000
 70
    32
  0
VERTEX
  8
E20LXLIFT
 62
1
 10
212.108
 20
-2321.545
 30
3239.000
 70
    32
  0
VERTEX
  8
E20LXLIFT
 62
1
 10
219.407
 20
-2320.688
 30
3239.000
 70
    32
  0
VERTEX
  8
E20LXLIFT
 62
1
 10
245.502
 20
-2301.139
 30
3239.000
 70
    32
  0
VERTEX
  8
E20LXLIFT
 62
1
 10
256.115
 20
-2293.579
 30
3239.000
 70
    32
  0
VERTEX
  8
E20LXLIFT
 62
1
 10
260.256
 20
-2290.458
 30
3239.000
 70
    32
  0
VERTEX
  8
E20LXLIFT
 62
1
 10
270.541
 20
-2289.885
 30
3239.000
 70
    32
  0
VERTEX
  8
E20LXLIFT
 62
1
 10
283.955
 20
-2293.252
 30
3239.000
 70
    32
  0
VERTEX
  8
E20LXLIFT
 62
1
 10
292.857
 20
-2293.522
 30
3239.000
 70
    32
  0
VERTEX
  8
E20LXLIFT
 62
1
 10
297.165
 20
-2293.581
 30
3239.000
 70
    32
  0
VERTEX
  8
E20LXLIFT
 62
1
 10
300.890
 20
-2288.639
 30
3239.000
 70
    32
  0
SEQEND
  8
E20LXLIFT
  0
POLYLINE
  8
E20LXLIFT
 62
6
 66
     1
 70
     9
  0
VERTEX
  8
E20LXLIFT
 62
6
 10
-140.338
 20
-883.589
 30
3192.000
 70
    32
  0
VERTEX
  8
E20LXLIFT
 62
6
 10
-138.774
 20
-886.748
 30
3192.000
 70
    32
  0
VERTEX
  8
E20LXLIFT
 62
6
 10
-128.138
 20
-914.014
 30
3192.000
 70
    32
  0
VERTEX
  8
E20LXLIFT
 62
6
 10
-123.118
 20
-934.284
 30
3192.000
 70
    32
  0
VERTEX
  8
E20LXLIFT
 62
6
 10
-113.716
 20
-959.933
 30
3192.000
 70
    32
  0
VERTEX
  8
E20LXLIFT
 62
6
 10
-115.972
 20
-987.716
 30
3192.000
 70
    32
  0
VERTEX
  8
E20LXLIFT
 62
6
 10
-117.004
 20
-988.993
 30
3192.000
 70
    32
  0
VERTEX
  8
E20LXLIFT
 62
6
 10
-126.876
 20
-996.012
 30
3192.000
 70
    32
  0
VERTEX
  8
E20LXLIFT
 62
6
 10
-134.663
 20
-997.715
 30
3192.000
 70
    32
  0
VERTEX
  8
E20LXLIFT
 62
6
 10
-140.903
 20
-994.954
 30
3192.000
 70
    32
  0
VERTEX
  8
E20LXLIFT
 62
6
 10
-148.245
 20
-989.948
 30
3192.000
 70
    32
  0
VERTEX
  8
E20LXLIFT
 62
6
 10
-163.088
 20
-996.073
 30
3192.000
 70
    32
  0
VERTEX
  8
E20LXLIFT
 62
6
 10
-146.552
 20
-1003.390
 30
3192.000
 70
    32
  0
VERTEX
  8
E20LXLIFT
 62
6
 10
-145.125
 20
-1006.079
 30
3192.000
 70
    32
  0
VERTEX
  8
E20LXLIFT
 62
6
 10
-139.348
 20
-1016.920
 30
3192.000
 70
    32
  0
VERTEX
  8
E20LXLIFT
 62
6
 10
-143.694
 20
-1027.614
 30
3192.000
 70
    32
  0
VERTEX
  8
E20LXLIFT
 62
6
 10
-146.124
 20
-1033.955
 30
3192.000
 70
    32
  0
VERTEX
  8
E20LXLIFT
 62
6
 10
-138.624
 20
-1041.011
 30
3192.000
 70
    32
  0
VERTEX
  8
E20LXLIFT
 62
6
 10
-126.482
 20
-1046.933
 30
3192.000
 70
    32
  0
VERTEX
  8
E20LXLIFT
 62
6
 10
-123.601
 20
-1041.867
 30
3192.000
 70
    32
  0
VERTEX
  8
E20LXLIFT
 62
6
 10
-123.401
 20
-1042.046
 30
3192.000
 70
    32
  0
VERTEX
  8
E20LXLIFT
 62
6
 10
-115.742
 20
-1040.579
 30
3192.000
 70
    32
  0
VERTEX
  8
E20LXLIFT
 62
6
 10
-115.204
 20
-1029.673
 30
3192.000
 70
    32
  0
VERTEX
  8
E20LXLIFT
 62
6
 10
-113.164
 20
-1026.153
 30
3192.000
 70
    32
  0
VERTEX
  8
E20LXLIFT
 62
6
 10
-115.889
 20
-1020.132
 30
3192.000
 70
    32
  0
VERTEX
  8
E20LXLIFT
 62
6
 10
-112.859
 20
-1014.164
 30
3192.000
 70
    32
  0
VERTEX
  8
E20LXLIFT
 62
6
 10
-112.164
 20
-1007.390
 30
3192.000
 70
    32
  0
VERTEX
  8
E20LXLIFT
 62
6
 10
-97.508
 20
-999.961
 30
3192.000
 70
    32
  0
VERTEX
  8
E20LXLIFT
 62
6
 10
-97.432
 20
-1000.009
 30
3192.000
 70
    32
  0
VERTEX
  8
E20LXLIFT
 62
6
 10
-78.130
 20
-985.464
 30
3192.000
 70
    32
  0
VERTEX
  8
E20LXLIFT
 62
6
 10
-78.122
 20
-983.530
 30
3192.000
 70
    32
  0
VERTEX
  8
E20LXLIFT
 62
6
 10
-78.230
 20
-983.522
 30
3192.000
 70
    32
  0
VERTEX
  8
E20LXLIFT
 62
6
 10
-60.203
 20
-963.501
 30
3192.000
 70
    32
  0
VERTEX
  8
E20LXLIFT
 62
6
 10
-66.585
 20
-956.541
 30
3192.000
 70
    32
  0
VERTEX
  8
E20LXLIFT
 62
6
 10
-69.747
 20
-956.696
 30
3192.000
 70
    32
  0
VERTEX
  8
E20LXLIFT
 62
6
 10
-75.230
 20
-951.989
 30
3192.000
 70
    32
  0
VERTEX
  8
E20LXLIFT
 62
6
 10
-87.215
 20
-953.350
 30
3192.000
 70
    32
  0
VERTEX
  8
E20LXLIFT
 62
6
 10
-94.483
 20
-953.162
 30
3192.000
 70
    32
  0
VERTEX
  8
E20LXLIFT
 62
6
 10
-100.570
 20
-960.111
 30
3192.000
 70
    32
  0
VERTEX
  8
E20LXLIFT
 62
6
 10
-103.428
 20
-960.342
 30
3192.000
 70
    32
  0
VERTEX
  8
E20LXLIFT
 62
6
 10
-111.870
 20
-930.978
 30
3192.000
 70
    32
  0
VERTEX
  8
E20LXLIFT
 62
6
 10
-115.873
 20
-918.712
 30
3192.000
 70
    32
  0
SEQEND
  8
E20LXLIFT
  0
POLYLINE
  8
E20LXLIFT
 62
3
 66
     1
 70
     9
  0
VERTEX
  8
E20LXLIFT
 62
3
 10
-2217.671
 20
552.494
 30
3245.000
 70
    32
  0
VERTEX
  8
E20LXLIFT
 62
3
 10
-2213.175
 20
547.756
 30
3245.000
 70
    32
  0
VERTEX
  8
E20LXLIFT
 62
3
 10
-2208.203
 20
536.960
 30
3245.000
 70
    32
  0
VERTEX
  8
E20LXLIFT
 62
3
 10
-2201.707
 20
526.375
 30
3245.000
 70
    32
  0
VERTEX
  8
E20LXLIFT
 62
3
 10
-2194.707
 20
516.988
 30
3245.000
 70
    32
  0
VERTEX
  8
E20LXLIFT
 62
3
 10
-2186.958
 20
509.335
 30
3245.000
 70
    32
  0
VERTEX
  8
E20LXLIFT
 62
3
 10
-2177.771
 20
506.908
 30
3245.000
 70
    32
  0
VERTEX
  8
E20LXLIFT
 62
3
 10
-2171.897
 20
505.088
 30
3245.000
 70
    32
  0
VERTEX
  8
E20LXLIFT
 62
3
 10
-2165.893
 20
497.497
 30
3245.000
 70
    32
  0
VERTEX
  8
E20LXLIFT
 62
3
 10
-2160.381
 20
489.397
 30
3245.000
 70
    32
  0
VERTEX
  8
E20LXLIFT
 62
3
 10
-2159.779
 20
482.199
 30
3245.000
 70
    32
  0
VERTEX
  8
E20LXLIFT
 62
3
 10
-2156.019
 20
475.850
 30
3245.000
 70
    32
  0
VERTEX
  8
E20LXLIFT
 62
3
 10
-2150.008
 20
466.570
 30
3245.000
 70
    32
  0
VERTEX
  8
E20LXLIFT
 62
3
 10
-2150.728
 20
460.452
 30
3245.000
 70
    32
  0
VERTEX
  8
E20LXLIFT
 62
3
 10
-2155.166
 20
456.424
 30
3245.000
 70
    32
  0
VERTEX
  8
E20LXLIFT
 62
3
 10
-2162.801
 20
451.176
 30
3245.000
 70
    32
  0
VERTEX
  8
E20LXLIFT
 62
3
 10
-2182.383
 20
451.779
 30
3245.000
 70
    32
  0
VERTEX
  8
E20LXLIFT
 62
3
 10
-2190.911
 20
462.081
 30
3245.000
 70
    32
  0
VERTEX
  8
E20LXLIFT
 62
3
 10
-2196.869
 20
475.924
 30
3245.000
 70
    32
  0
VERTEX
  8
E20LXLIFT
 62
3
 10
-2205.171
 20
488.330
 30
3245.000
 70
    32
  0
VERTEX
  8
E20LXLIFT
 62
3
 10
-2212.249
 20
496.411
 30
3245.000
 70
    32
  0
VERTEX
  8
E20LXLIFT
 62
3
 10
-2215.893
 20
500.933
 30
3245.000
 70
    32
  0
VERTEX
  8
E20LXLIFT
 62
3
 10
-2220.341
 20
511.359
 30
3245.000
 70
    32
  0
VERTEX
  8
E20LXLIFT
 62
3
 10
-2228.952
 20
517.979
 30
3245.000
 70
    32
  0
VERTEX
  8
E20LXLIFT
 62
3
 10
-2233.091
 20
526.621
 30
3245.000
 70
    32
  0
VERTEX
  8
E20LXLIFT
 62
3
 10
-2237.012
 20
535.552
 30
3245.000
 70
    32
  0
VERTEX
  8
E20LXLIFT
 62
3
 10
-2239.768
 20
537.850
 30
3245.000
 70
    32
  0
VERTEX
  8
E20LXLIFT
 62
3
 10
-2240.909
 20
541.790
 30
3245.000
 70
    32
  0
SEQEND
  8
E20LXLIFT
  0
POLYLINE
  8
E20LXLIFT
 62
6
 66
     1
 70
     9
  0
VERTEX
  8
E20LXLIFT
 62
6
 10
-2115.376
 20
583.858
 30
3229.000
 70
    32
  0
VERTEX
  8
E20LXLIFT
 62
6
 10
-2109.337
 20
585.899
 30
3229.000
 70
    32
  0
VERTEX
  8
E20LXLIFT
 62
6
 10
-2106.244
 20
593.138
 30
3229.000
 70
    32
  0
VERTEX
  8
E20LXLIFT
 62
6
 10
-2104.584
 20
601.594
 30
3229.000
 70
    32
  0
VERTEX
  8
E20LXLIFT
 62
6
 10
-2101.555
 20
607.651
 30
3229.000
 70
    32
  0
VERTEX
  8
E20LXLIFT
 62
6
 10
-2101.118
 20
612.296
 30
3229.000
 70
    32
  0
VERTEX
  8
E20LXLIFT
 62
6
 10
-2098.987
 20
611.754
 30
3229.000
 70
    32
  0
VERTEX
  8
E20LXLIFT
 62
6
 10
-2095.860
 20
613.483
 30
3229.000
 70
    32
  0
VERTEX
  8
E20LXLIFT
 62
6
 10
-2090.285
 20
610.631
 30
3229.000
 70
    32
  0
VERTEX
  8
E20LXLIFT
 62
6
 10
-2091.268
 20
604.980
 30
3229.000
 70
    32
  0
VERTEX
  8
E20LXLIFT
 62
6
 10
-2093.204
 20
596.867
 30
3229.000
 70
    32
  0
VERTEX
  8
E20LXLIFT
 62
6
 10
-2087.261
 20
591.035
 30
3229.000
 70
    32
  0
VERTEX
  8
E20LXLIFT
 62
6
 10
-2082.160
 20
582.602
 30
3229.000
 70
    32
  0
VERTEX
  8
E20LXLIFT
 62
6
 10
-2076.830
 20
575.147
 30
3229.000
 70
    32
  0
VERTEX
  8
E20LXLIFT
 62
6
 10
-2079.498
 20
564.296
 30
3229.000
 70
    32
  0
VERTEX
  8
E20LXLIFT
 62
6
 10
-2091.555
 20
562.151
 30
3229.000
 70
    32
  0
VERTEX
  8
E20LXLIFT
 62
6
 10
-2104.782
 20
553.186
 30
3229.000
 70
    32
  0
VERTEX
  8
E20LXLIFT
 62
6
 10
-2096.408
 20
536.205
 30
3229.000
 70
    32
  0
VERTEX
  8
E20LXLIFT
 62
6
 10
-2104.344
 20
530.488
 30
3229.000
 70
    32
  0
VERTEX
  8
E20LXLIFT
 62
6
 10
-2110.211
 20
530.618
 30
3229.000
 70
    32
  0
VERTEX
  8
E20LXLIFT
 62
6
 10
-2112.816
 20
536.655
 30
3229.000
 70
    32
  0
VERTEX
  8
E20LXLIFT
 62
6
 10
-2116.974
 20
542.796
 30
3229.000
 70
    32
  0
VERTEX
  8
E20LXLIFT
 62
6
 10
-2122.082
 20
549.414
 30
3229.000
 70
    32
  0
VERTEX
  8
E20LXLIFT
 62
6
 10
-2121.007
 20
552.427
 30
3229.000
 70
    32
  0
VERTEX
  8
E20LXLIFT
 62
6
 10
-2121.359
 20
554.968
 30
3229.000
 70
    32
  0
VERTEX
  8
E20LXLIFT
 62
6
 10
-2125.102
 20
560.313
 30
3229.000
 70
    32
  0
VERTEX
  8
E20LXLIFT
 62
6
 10
-2122.951
 20
565.776
 30
3229.000
 70
    32
  0
VERTEX
  8
E20LXLIFT
 62
6
 10
-2123.031
 20
569.101
 30
3229.000
 70
    32
  0
VERTEX
  8
E20LXLIFT
 62
6
 10
-2123.931
 20
574.704
 30
3229.000
 70
    32
  0
SEQEND
  8
E20LXLIFT
  0
POLYLINE
  8
E20LXLIFT
 62
13
 66
     1
 70
     9
  0
VERTEX
  8
E20LXLIFT
 62
13
 10
-2429.730
 20
743.524
 30
3365.000
 70
    32
  0
VERTEX
  8
E20LXLIFT
 62
13
 10
-2428.007
 20
757.738
 30
3365.000
 70
    32
  0
VERTEX
  8
E20LXLIFT
 62
13
 10
-2422.005
 20
764.291
 30
3365.000
 70
    32
  0
VERTEX
  8
E20LXLIFT
 62
13
 10
-2416.414
 20
778.277
 30
3365.000
 70
    32
  0
VERTEX
  8
E20LXLIFT
 62
13
 10
-2404.424
 20
776.021
 30
3365.000
 70
    32
  0
VERTEX
  8
E20LXLIFT
 62
13
 10
-2398.057
 20
779.683
 30
3365.000
 70
    32
  0
VERTEX
  8
E20LXLIFT
 62
13
 10
-2389.566
 20
776.401
 30
3365.000
 70
    32
  0
VERTEX
  8
E20LXLIFT
 62
13
 10
-2381.095
 20
778.222
 30
3365.000
 70
    32
  0
VERTEX
  8
E20LXLIFT
 62
13
 10
-2373.651
 20
769.058
 30
3365.000
 70
    32
  0
VERTEX
  8
E20LXLIFT
 62
13
 10
-2377.194
 20
762.120
 30
3365.000
 70
    32
  0
VERTEX
  8
E20LXLIFT
 62
13
 10
-2375.364
 20
751.694
 30
3365.000
 70
    32
  0
VERTEX
  8
E20LXLIFT
 62
13
 10
-2392.526
 20
746.260
 30
3365.000
 70
    32
  0
VERTEX
  8
E20LXLIFT
 62
13
 10
-2394.393
 20
739.562
 30
3365.000
 70
    32
  0
VERTEX
  8
E20LXLIFT
 62
13
 10
-2392.775
 20
733.012
 30
3365.000
 70
    32
  0
VERTEX
  8
E20LXLIFT
 62
13
 10
-2401.771
 20
726.235
 30
3365.000
 70
    32
  0
VERTEX
  8
E20LXLIFT
 62
13
 10
-2418.934
 20
732.450
 30
3365.000
 70
    32
  0
SEQEND
  8
E20LXLIFT
  0
POLYLINE
  8
E20LXLIFT
 62
1
 66
     1
 70
     9
  0
VERTEX
  8
E20LXLIFT
 62
1
 10
-2428.730
 20
744.524
 30
3375.000
 70
    32
  0
VERTEX
  8
E20LXLIFT
 62
1
 10
-2427.007
 20
758.738
 30
3375.000
 70
    32
  0
VERTEX
  8
E20LXLIFT
 62
1
 10
-2421.005
 20
765.291
 30
3375.000
 70
    32
  0
VERTEX
  8
E20LXLIFT
 62
1
 10
-2415.414
 20
779.277
 30
3375.000
 70
    32
  0
VERTEX
  8
E20LXLIFT
 62
1
 10
-2403.424
 20
777.021
 30
3375.000
 70
    32
  0
VERTEX
  8
E20LXLIFT
 62
1
 10
-2397.057
 20
780.683
 30
3375.000
 70
    32
  0
VERTEX
  8
E20LXLIFT
 62
1
 10
-2388.566
 20
777.401
 30
3375.000
 70
    32
  0
VERTEX
  8
E20LXLIFT
 62
1
 10
-2380.095
 20
779.222
 30
3375.000
 70
    32
  0
VERTEX
  8
E20LXLIFT
 62
1
 10
-2372.651
 20
770.058
 30
3375.000
 70
    32
  0
VERTEX
  8
E20LXLIFT
 62
1
 10
-2376.194
 20
763.120
 30
3375.000
 70
    32
  0
VERTEX
  8
E20LXLIFT
 62
1
 10
-2374.364
 20
752.694
 30
3375.000
 70
    32
  0
VERTEX
  8
E20LXLIFT
 62
1
 10
-2391.526
 20
747.260
 30
3375.000
 70
    32
  0
VERTEX
  8
E20LXLIFT
 62
1
 10
-2393.393
 20
740.562
 30
3375.000
 70
    32
  0
VERTEX
  8
E20LXLIFT
 62
1
 10
-2391.775
 20
734.012
 30
3375.000
 70
    32
  0
VERTEX
  8
E20LXLIFT
 62
1
 10
-2400.771
 20
727.235
 30
3375.000
 70
    32
  0
VERTEX
  8
E20LXLIFT
 62
1
 10
-2417.934
 20
733.450
 30
3375.000
 70
    32
  0
SEQEND
  8
E20LXLIFT
  0
POLYLINE
  8
E20LXLIFT
 62
1
 66
     1
 70
     9
  0
VERTEX
  8
E20LXLIFT
 62
1
 10
-2114.376
 20
584.858
 30
3239.000
 70
    32
  0
VERTEX
  8
E20LXLIFT
 62
1
 10
-2108.337
 20
586.899
 30
3239.000
 70
    32
  0
VERTEX
  8
E20LXLIFT
 62
1
 10
-2105.244
 20
594.138
 30
3239.000
 70
    32
  0
VERTEX
  8
E20LXLIFT
 62
1
 10
-2103.584
 20
602.594
 30
3239.000
 70
    32
  0
VERTEX
  8
E20LXLIFT
 62
1
 10
-2100.555
 20
608.651
 30
3239.000
 70
    32
  0
VERTEX
  8
E20LXLIFT
 62
1
 10
-2100.118
 20
613.296
 30
3239.000
 70
    32
  0
VERTEX
  8
E20LXLIFT
 62
1
 10
-2097.987
 20
612.754
 30
3239.000
 70
    32
  0
VERTEX
  8
E20LXLIFT
 62
1
 10
-2094.860
 20
614.483
 30
3239.000
 70
    32
  0
VERTEX
  8
E20LXLIFT
 62
1
 10
-2089.285
 20
611.631
 30
3239.000
 70
    32
  0
VERTEX
  8
E20LXLIFT
 62
1
 10
-2090.268
 20
605.980
 30
3239.000
 70
    32
  0
VERTEX
  8
E20LXLIFT
 62
1
 10
-2092.204
 20
597.867
 30
3239.000
 70
    32
  0
VERTEX
  8
E20LXLIFT
 62
1
 10
-2086.261
 20
592.035
 30
3239.000
 70
    32
  0
VERTEX
  8
E20LXLIFT
 62
1
 10
-2081.160
 20
583.602
 30
3239.000
 70
    32
  0
VERTEX
  8
E20LXLIFT
 62
1
 10
-2075.830
 20
576.147
 30
3239.000
 70
    32
  0
VERTEX
  8
E20LXLIFT
 62
1
 10
-2078.498
 20
565.296
 30
3239.000
 70
    32
  0
VERTEX
  8
E20LXLIFT
 62
1
 10
-2090.555
 20
563.151
 30
3239.000
 70
    32
  0
VERTEX
  8
E20LXLIFT
 62
1
 10
-2103.782
 20
554.186
 30
3239.000
 70
    32
  0
VERTEX
  8
E20LXLIFT
 62
1
 10
-2095.408
 20
537.205
 30
3239.000
 70
    32
  0
VERTEX
  8
E20LXLIFT
 62
1
 10
-2103.344
 20
531.488
 30
3239.000
 70
    32
  0
VERTEX
  8
E20LXLIFT
 62
1
 10
-2109.211
 20
531.618
 30
3239.000
 70
    32
  0
VERTEX
  8
E20LXLIFT
 62
1
 10
-2111.816
 20
537.655
 30
3239.000
 70
    32
  0
VERTEX
  8
E20LXLIFT
 62
1
 10
-2115.974
 20
543.796
 30
3239.000
 70
    32
  0
VERTEX
  8
E20LXLIFT
 62
1
 10
-2121.082
 20
550.414
 30
3239.000
 70
    32
  0
VERTEX
  8
E20LXLIFT
 62
1
 10
-2120.007
 20
553.427
 30
3239.000
 70
    32
  0
VERTEX
  8
E20LXLIFT
 62
1
 10
-2120.359
 20
555.968
 30
3239.000
 70
    32
  0
VERTEX
  8
E20LXLIFT
 62
1
 10
-2124.102
 20
561.313
 30
3239.000
 70
    32
  0
VERTEX
  8
E20LXLIFT
 62
1
 10
-2121.951
 20
566.776
 30
3239.000
 70
    32
  0
VERTEX
  8
E20LXLIFT
 62
1
 10
-2122.031
 20
570.101
 30
3239.000
 70
    32
  0
VERTEX
  8
E20LXLIFT
 62
1
 10
-2122.931
 20
575.704
 30
3239.000
 70
    32
  0
SEQEND
  8
E20LXLIFT
  0
POLYLINE
  8
E20LXLIFT
 62
7
 66
     1
 70
     9
  0
VERTEX
  8
E20LXLIFT
 62
7
 10
-1158.114
 20
-1337.247
 30
3245.000
 70
    32
  0
VERTEX
  8
E20LXLIFT
 62
7
 10
-1149.952
 20
-1337.140
 30
3245.000
 70
    32
  0
VERTEX
  8
E20LXLIFT
 62
7
 10
-1145.581
 20
-1347.016
 30
3245.000
 70
    32
  0
VERTEX
  8
E20LXLIFT
 62
7
 10
-1143.266
 20
-1358.257
 30
3245.000
 70
    32
  0
VERTEX
  8
E20LXLIFT
 62
7
 10
-1140.591
 20
-1365.012
 30
3245.000
 70
    32
  0
VERTEX
  8
E20LXLIFT
 62
7
 10
-1132.422
 20
-1362.949
 30
3245.000
 70
    32
  0
VERTEX
  8
E20LXLIFT
 62
7
 10
-1125.099
 20
-1362.577
 30
3245.000
 70
    32
  0
VERTEX
  8
E20LXLIFT
 62
7
 10
-1123.465
 20
-1354.575
 30
3245.000
 70
    32
  0
VERTEX
  8
E20LXLIFT
 62
7
 10
-1122.482
 20
-1343.245
 30
3245.000
 70
    32
  0
VERTEX
  8
E20LXLIFT
 62
7
 10
-1123.832
 20
-1333.047
 30
3245.000
 70
    32
  0
VERTEX
  8
E20LXLIFT
 62
7
 10
-1126.087
 20
-1326.425
 30
3245.000
 70
    32
  0
VERTEX
  8
E20LXLIFT
 62
7
 10
-1132.242
 20
-1320.864
 30
3245.000
 70
    32
  0
VERTEX
  8
E20LXLIFT
 62
7
 10
-1133.784
 20
-1312.213
 30
3245.000
 70
    32
  0
VERTEX
  8
E20LXLIFT
 62
7
 10
-1136.550
 20
-1300.644
 30
3245.000
 70
    32
  0
VERTEX
  8
E20LXLIFT
 62
7
 10
-1139.094
 20
-1292.711
 30
3245.000
 70
    32
  0
VERTEX
  8
E20LXLIFT
 62
7
 10
-1138.425
 20
-1283.667
 30
3245.000
 70
    32
  0
VERTEX
  8
E20LXLIFT
 62
7
 10
-1143.647
 20
-1273.209
 30
3245.000
 70
    32
  0
VERTEX
  8
E20LXLIFT
 62
7
 10
-1151.499
 20
-1263.770
 30
3245.000
 70
    32
  0
VERTEX
  8
E20LXLIFT
 62
7
 10
-1158.122
 20
-1254.534
 30
3245.000
 70
    32
  0
VERTEX
  8
E20LXLIFT
 62
7
 10
-1163.360
 20
-1246.472
 30
3245.000
 70
    32
  0
VERTEX
  8
E20LXLIFT
 62
7
 10
-1167.439
 20
-1233.678
 30
3245.000
 70
    32
  0
VERTEX
  8
E20LXLIFT
 62
7
 10
-1169.243
 20
-1227.382
 30
3245.000
 70
    32
  0
VERTEX
  8
E20LXLIFT
 62
7
 10
-1178.081
 20
-1227.757
 30
3245.000
 70
    32
  0
VERTEX
  8
E20LXLIFT
 62
7
 10
-1184.968
 20
-1230.852
 30
3245.000
 70
    32
  0
VERTEX
  8
E20LXLIFT
 62
7
 10
-1183.287
 20
-1242.873
 30
3245.000
 70
    32
  0
VERTEX
  8
E20LXLIFT
 62
7
 10
-1180.868
 20
-1255.015
 30
3245.000
 70
    32
  0
VERTEX
  8
E20LXLIFT
 62
7
 10
-1182.567
 20
-1261.112
 30
3245.000
 70
    32
  0
VERTEX
  8
E20LXLIFT
 62
7
 10
-1182.155
 20
-1268.189
 30
3245.000
 70
    32
  0
VERTEX
  8
E20LXLIFT
 62
7
 10
-1179.387
 20
-1275.527
 30
3245.000
 70
    32
  0
VERTEX
  8
E20LXLIFT
 62
7
 10
-1172.385
 20
-1290.130
 30
3245.000
 70
    32
  0
VERTEX
  8
E20LXLIFT
 62
7
 10
-1171.309
 20
-1301.609
 30
3245.000
 70
    32
  0
VERTEX
  8
E20LXLIFT
 62
7
 10
-1166.897
 20
-1311.996
 30
3245.000
 70
    32
  0
VERTEX
  8
E20LXLIFT
 62
7
 10
-1167.946
 20
-1326.409
 30
3245.000
 70
    32
  0
VERTEX
  8
E20LXLIFT
 62
7
 10
-1168.229
 20
-1339.621
 30
3245.000
 70
    32
  0
SEQEND
  8
E20LXLIFT
  0
POLYLINE
  8
E20LXLIFT
 62
7
 66
     1
 70
     9
  0
VERTEX
  8
E20LXLIFT
 62
7
 10
-1145.151
 20
-1359.826
 30
3265.000
 70
    32
  0
VERTEX
  8
E20LXLIFT
 62
7
 10
-1147.042
 20
-1348.056
 30
3265.000
 70
    32
  0
VERTEX
  8
E20LXLIFT
 62
7
 10
-1151.388
 20
-1337.844
 30
3265.000
 70
    32
  0
VERTEX
  8
E20LXLIFT
 62
7
 10
-1155.943
 20
-1328.544
 30
3265.000
 70
    32
  0
VERTEX
  8
E20LXLIFT
 62
7
 10
-1157.873
 20
-1317.020
 30
3265.000
 70
    32
  0
VERTEX
  8
E20LXLIFT
 62
7
 10
-1157.057
 20
-1306.440
 30
3265.000
 70
    32
  0
VERTEX
  8
E20LXLIFT
 62
7
 10
-1155.061
 20
-1294.790
 30
3265.000
 70
    32
  0
VERTEX
  8
E20LXLIFT
 62
7
 10
-1159.200
 20
-1279.760
 30
3265.000
 70
    32
  0
VERTEX
  8
E20LXLIFT
 62
7
 10
-1165.020
 20
-1264.209
 30
3265.000
 70
    32
  0
VERTEX
  8
E20LXLIFT
 62
7
 10
-1173.037
 20
-1252.527
 30
3265.000
 70
    32
  0
VERTEX
  8
E20LXLIFT
 62
7
 10
-1180.326
 20
-1242.599
 30
3265.000
 70
    32
  0
VERTEX
  8
E20LXLIFT
 62
7
 10
-1189.538
 20
-1232.867
 30
3265.000
 70
    32
  0
VERTEX
  8
E20LXLIFT
 62
7
 10
-1190.276
 20
-1225.692
 30
3265.000
 70
    32
  0
VERTEX
  8
E20LXLIFT
 62
7
 10
-1197.751
 20
-1222.412
 30
3265.000
 70
    32
  0
VERTEX
  8
E20LXLIFT
 62
7
 10
-1198.855
 20
-1219.085
 30
3265.000
 70
    32
  0
VERTEX
  8
E20LXLIFT
 62
7
 10
-1197.108
 20
-1213.695
 30
3265.000
 70
    32
  0
VERTEX
  8
E20LXLIFT
 62
7
 10
-1199.023
 20
-1211.498
 30
3265.000
 70
    32
  0
VERTEX
  8
E20LXLIFT
 62
7
 10
-1202.921
 20
-1213.014
 30
3265.000
 70
    32
  0
VERTEX
  8
E20LXLIFT
 62
7
 10
-1205.828
 20
-1209.145
 30
3265.000
 70
    32
  0
VERTEX
  8
E20LXLIFT
 62
7
 10
-1208.559
 20
-1207.321
 30
3265.000
 70
    32
  0
VERTEX
  8
E20LXLIFT
 62
7
 10
-1214.420
 20
-1212.428
 30
3265.000
 70
    32
  0
VERTEX
  8
E20LXLIFT
 62
7
 10
-1224.880
 20
-1223.035
 30
3265.000
 70
    32
  0
VERTEX
  8
E20LXLIFT
 62
7
 10
-1230.493
 20
-1230.135
 30
3265.000
 70
    32
  0
VERTEX
  8
E20LXLIFT
 62
7
 10
-1222.713
 20
-1233.085
 30
3265.000
 70
    32
  0
VERTEX
  8
E20LXLIFT
 62
7
 10
-1213.456
 20
-1240.179
 30
3265.000
 70
    32
  0
VERTEX
  8
E20LXLIFT
 62
7
 10
-1213.497
 20
-1243.574
 30
3265.000
 70
    32
  0
VERTEX
  8
E20LXLIFT
 62
7
 10
-1208.775
 20
-1253.405
 30
3265.000
 70
    32
  0
VERTEX
  8
E20LXLIFT
 62
7
 10
-1201.737
 20
-1265.686
 30
3265.000
 70
    32
  0
VERTEX
  8
E20LXLIFT
 62
7
 10
-1203.580
 20
-1270.494
 30
3265.000
 70
    32
  0
VERTEX
  8
E20LXLIFT
 62
7
 10
-1194.376
 20
-1280.666
 30
3265.000
 70
    32
  0
VERTEX
  8
E20LXLIFT
 62
7
 10
-1185.773
 20
-1282.803
 30
3265.000
 70
    32
  0
VERTEX
  8
E20LXLIFT
 62
7
 10
-1178.763
 20
-1288.591
 30
3265.000
 70
    32
  0
VERTEX
  8
E20LXLIFT
 62
7
 10
-1177.628
 20
-1297.216
 30
3265.000
 70
    32
  0
VERTEX
  8
E20LXLIFT
 62
7
 10
-1177.307
 20
-1308.167
 30
3265.000
 70
    32
  0
VERTEX
  8
E20LXLIFT
 62
7
 10
-1174.333
 20
-1316.331
 30
3265.000
 70
    32
  0
VERTEX
  8
E20LXLIFT
 62
7
 10
-1173.640
 20
-1326.144
 30
3265.000
 70
    32
  0
VERTEX
  8
E20LXLIFT
 62
7
 10
-1172.644
 20
-1343.882
 30
3265.000
 70
    32
  0
VERTEX
  8
E20LXLIFT
 62
7
 10
-1167.861
 20
-1350.195
 30
3265.000
 70
    32
  0
VERTEX
  8
E20LXLIFT
 62
7
 10
-1160.063
 20
-1356.172
 30
3265.000
 70
    32
  0
VERTEX
  8
E20LXLIFT
 62
7
 10
-1158.065
 20
-1363.738
 30
3265.000
 70
    32
  0
VERTEX
  8
E20LXLIFT
 62
7
 10
-1155.092
 20
-1364.845
 30
3265.000
 70
    32
  0
SEQEND
  8
E20LXLIFT
  0
POLYLINE
  8
E20LXLIFT
 62
7
 66
     1
 70
     9
  0
VERTEX
  8
E20LXLIFT
 62
7
 10
-1230.075
 20
-1249.146
 30
3287.000
 70
    32
  0
VERTEX
  8
E20LXLIFT
 62
7
 10
-1223.048
 20
-1252.432
 30
3287.000
 70
    32
  0
VERTEX
  8
E20LXLIFT
 62
7
 10
-1216.921
 20
-1253.113
 30
3287.000
 70
    32
  0
VERTEX
  8
E20LXLIFT
 62
7
 10
-1215.724
 20
-1258.538
 30
3287.000
 70
    32
  0
VERTEX
  8
E20LXLIFT
 62
7
 10
-1209.100
 20
-1263.523
 30
3287.000
 70
    32
  0
VERTEX
  8
E20LXLIFT
 62
7
 10
-1205.028
 20
-1272.188
 30
3287.000
 70
    32
  0
VERTEX
  8
E20LXLIFT
 62
7
 10
-1202.874
 20
-1279.091
 30
3287.000
 70
    32
  0
VERTEX
  8
E20LXLIFT
 62
7
 10
-1201.423
 20
-1284.116
 30
3287.000
 70
    32
  0
VERTEX
  8
E20LXLIFT
 62
7
 10
-1195.313
 20
-1291.097
 30
3287.000
 70
    32
  0
VERTEX
  8
E20LXLIFT
 62
7
 10
-1190.666
 20
-1300.107
 30
3287.000
 70
    32
  0
VERTEX
  8
E20LXLIFT
 62
7
 10
-1188.436
 20
-1308.473
 30
3287.000
 70
    32
  0
VERTEX
  8
E20LXLIFT
 62
7
 10
-1184.546
 20
-1317.486
 30
3287.000
 70
    32
  0
VERTEX
  8
E20LXLIFT
 62
7
 10
-1177.354
 20
-1313.174
 30
3287.000
 70
    32
  0
VERTEX
  8
E20LXLIFT
 62
7
 10
-1180.182
 20
-1303.829
 30
3287.000
 70
    32
  0
VERTEX
  8
E20LXLIFT
 62
7
 10
-1182.313
 20
-1294.850
 30
3287.000
 70
    32
  0
VERTEX
  8
E20LXLIFT
 62
7
 10
-1184.129
 20
-1285.103
 30
3287.000
 70
    32
  0
VERTEX
  8
E20LXLIFT
 62
7
 10
-1181.549
 20
-1278.150
 30
3287.000
 70
    32
  0
VERTEX
  8
E20LXLIFT
 62
7
 10
-1185.059
 20
-1272.223
 30
3287.000
 70
    32
  0
VERTEX
  8
E20LXLIFT
 62
7
 10
-1193.328
 20
-1267.664
 30
3287.000
 70
    32
  0
VERTEX
  8
E20LXLIFT
 62
7
 10
-1196.052
 20
-1258.462
 30
3287.000
 70
    32
  0
VERTEX
  8
E20LXLIFT
 62
7
 10
-1199.402
 20
-1246.134
 30
3287.000
 70
    32
  0
VERTEX
  8
E20LXLIFT
 62
7
 10
-1202.870
 20
-1232.589
 30
3287.000
 70
    32
  0
VERTEX
  8
E20LXLIFT
 62
7
 10
-1204.438
 20
-1223.638
 30
3287.000
 70
    32
  0
VERTEX
  8
E20LXLIFT
 62
7
 10
-1203.842
 20
-1213.779
 30
3287.000
 70
    32
  0
VERTEX
  8
E20LXLIFT
 62
7
 10
-1202.313
 20
-1207.475
 30
3287.000
 70
    32
  0
VERTEX
  8
E20LXLIFT
 62
7
 10
-1210.059
 20
-1205.900
 30
3287.000
 70
    32
  0
VERTEX
  8
E20LXLIFT
 62
7
 10
-1216.197
 20
-1204.901
 30
3287.000
 70
    32
  0
VERTEX
  8
E20LXLIFT
 62
7
 10
-1218.895
 20
-1213.347
 30
3287.000
 70
    32
  0
VERTEX
  8
E20LXLIFT
 62
7
 10
-1224.153
 20
-1220.494
 30
3287.000
 70
    32
  0
VERTEX
  8
E20LXLIFT
 62
7
 10
-1232.033
 20
-1224.001
 30
3287.000
 70
    32
  0
VERTEX
  8
E20LXLIFT
 62
7
 10
-1236.587
 20
-1231.073
 30
3287.000
 70
    32
  0
VERTEX
  8
E20LXLIFT
 62
7
 10
-1237.323
 20
-1239.082
 30
3287.000
 70
    32
  0
SEQEND
  8
E20LXLIFT
  0
POLYLINE
  8
E20LXLIFT
 62
27
 66
     1
 70
     9
  0
VERTEX
  8
E20LXLIFT
 62
27
 10
-1215.097
 20
-1413.203
 30
3292.000
 70
    32
  0
VERTEX
  8
E20LXLIFT
 62
27
 10
-1198.329
 20
-1400.495
 30
3292.000
 70
    32
  0
VERTEX
  8
E20LXLIFT
 62
27
 10
-1191.090
 20
-1393.822
 30
3292.000
 70
    32
  0
VERTEX
  8
E20LXLIFT
 62
27
 10
-1181.234
 20
-1399.008
 30
3292.000
 70
    32
  0
VERTEX
  8
E20LXLIFT
 62
27
 10
-1179.430
 20
-1405.178
 30
3292.000
 70
    32
  0
VERTEX
  8
E20LXLIFT
 62
27
 10
-1178.261
 20
-1412.882
 30
3292.000
 70
    32
  0
VERTEX
  8
E20LXLIFT
 62
27
 10
-1172.021
 20
-1422.698
 30
3292.000
 70
    32
  0
VERTEX
  8
E20LXLIFT
 62
27
 10
-1169.999
 20
-1436.602
 30
3292.000
 70
    32
  0
VERTEX
  8
E20LXLIFT
 62
27
 10
-1164.253
 20
-1449.364
 30
3292.000
 70
    32
  0
VERTEX
  8
E20LXLIFT
 62
27
 10
-1159.886
 20
-1460.948
 30
3292.000
 70
    32
  0
VERTEX
  8
E20LXLIFT
 62
27
 10
-1156.826
 20
-1469.789
 30
3292.000
 70
    32
  0
VERTEX
  8
E20LXLIFT
 62
27
 10
-1164.651
 20
-1479.581
 30
3292.000
 70
    32
  0
VERTEX
  8
E20LXLIFT
 62
27
 10
-1176.210
 20
-1488.684
 30
3292.000
 70
    32
  0
VERTEX
  8
E20LXLIFT
 62
27
 10
-1181.678
 20
-1484.801
 30
3292.000
 70
    32
  0
VERTEX
  8
E20LXLIFT
 62
27
 10
-1195.883
 20
-1481.094
 30
3292.000
 70
    32
  0
VERTEX
  8
E20LXLIFT
 62
27
 10
-1208.161
 20
-1483.578
 30
3292.000
 70
    32
  0
VERTEX
  8
E20LXLIFT
 62
27
 10
-1218.881
 20
-1483.547
 30
3292.000
 70
    32
  0
VERTEX
  8
E20LXLIFT
 62
27
 10
-1228.797
 20
-1477.215
 30
3292.000
 70
    32
  0
VERTEX
  8
E20LXLIFT
 62
27
 10
-1235.143
 20
-1470.283
 30
3292.000
 70
    32
  0
VERTEX
  8
E20LXLIFT
 62
27
 10
-1234.060
 20
-1461.191
 30
3292.000
 70
    32
  0
VERTEX
  8
E20LXLIFT
 62
27
 10
-1229.579
 20
-1450.649
 30
3292.000
 70
    32
  0
VERTEX
  8
E20LXLIFT
 62
27
 10
-1225.263
 20
-1441.845
 30
3292.000
 70
    32
  0
VERTEX
  8
E20LXLIFT
 62
27
 10
-1220.661
 20
-1432.838
 30
3292.000
 70
    32
  0
VERTEX
  8
E20LXLIFT
 62
27
 10
-1217.860
 20
-1424.033
 30
3292.000
 70
    32
  0
SEQEND
  8
E20LXLIFT
  0
POLYLINE
  8
E20LXLIFT
 62
7
 66
     1
 70
     9
  0
VERTEX
  8
E20LXLIFT
 62
7
 10
-1186.296
 20
-1295.636
 30
3298.000
 70
    32
  0
VERTEX
  8
E20LXLIFT
 62
7
 10
-1192.907
 20
-1298.186
 30
3298.000
 70
    32
  0
VERTEX
  8
E20LXLIFT
 62
7
 10
-1197.327
 20
-1288.802
 30
3298.000
 70
    32
  0
VERTEX
  8
E20LXLIFT
 62
7
 10
-1203.774
 20
-1280.970
 30
3298.000
 70
    32
  0
VERTEX
  8
E20LXLIFT
 62
7
 10
-1207.967
 20
-1270.235
 30
3298.000
 70
    32
  0
VERTEX
  8
E20LXLIFT
 62
7
 10
-1216.139
 20
-1258.013
 30
3298.000
 70
    32
  0
VERTEX
  8
E20LXLIFT
 62
7
 10
-1219.951
 20
-1254.787
 30
3298.000
 70
    32
  0
VERTEX
  8
E20LXLIFT
 62
7
 10
-1227.629
 20
-1250.534
 30
3298.000
 70
    32
  0
VERTEX
  8
E20LXLIFT
 62
7
 10
-1234.750
 20
-1242.210
 30
3298.000
 70
    32
  0
VERTEX
  8
E20LXLIFT
 62
7
 10
-1237.266
 20
-1231.252
 30
3298.000
 70
    32
  0
VERTEX
  8
E20LXLIFT
 62
7
 10
-1232.163
 20
-1222.644
 30
3298.000
 70
    32
  0
VERTEX
  8
E20LXLIFT
 62
7
 10
-1223.422
 20
-1217.170
 30
3298.000
 70
    32
  0
VERTEX
  8
E20LXLIFT
 62
7
 10
-1218.310
 20
-1209.636
 30
3298.000
 70
    32
  0
VERTEX
  8
E20LXLIFT
 62
7
 10
-1212.711
 20
-1205.969
 30
3298.000
 70
    32
  0
VERTEX
  8
E20LXLIFT
 62
7
 10
-1206.824
 20
-1210.742
 30
3298.000
 70
    32
  0
VERTEX
  8
E20LXLIFT
 62
7
 10
-1207.704
 20
-1221.636
 30
3298.000
 70
    32
  0
VERTEX
  8
E20LXLIFT
 62
7
 10
-1204.642
 20
-1238.364
 30
3298.000
 70
    32
  0
VERTEX
  8
E20LXLIFT
 62
7
 10
-1201.189
 20
-1253.517
 30
3298.000
 70
    32
  0
VERTEX
  8
E20LXLIFT
 62
7
 10
-1194.925
 20
-1270.340
 30
3298.000
 70
    32
  0
VERTEX
  8
E20LXLIFT
 62
7
 10
-1190.355
 20
-1282.968
 30
3298.000
 70
    32
  0
SEQEND
  8
E20LXLIFT
  0
POLYLINE
  8
E20LXLIFT
 62
27
 66
     1
 70
     9
  0
VERTEX
  8
E20LXLIFT
 62
27
 10
-1156.672
 20
-1468.575
 30
3300.000
 70
    32
  0
VERTEX
  8
E20LXLIFT
 62
27
 10
-1166.528
 20
-1475.813
 30
3300.000
 70
    32
  0
VERTEX
  8
E20LXLIFT
 62
27
 10
-1173.406
 20
-1480.864
 30
3300.000
 70
    32
  0
VERTEX
  8
E20LXLIFT
 62
27
 10
-1181.199
 20
-1482.439
 30
3300.000
 70
    32
  0
VERTEX
  8
E20LXLIFT
 62
27
 10
-1191.094
 20
-1481.301
 30
3300.000
 70
    32
  0
VERTEX
  8
E20LXLIFT
 62
27
 10
-1200.275
 20
-1480.839
 30
3300.000
 70
    32
  0
VERTEX
  8
E20LXLIFT
 62
27
 10
-1205.661
 20
-1481.084
 30
3300.000
 70
    32
  0
VERTEX
  8
E20LXLIFT
 62
27
 10
-1212.741
 20
-1474.713
 30
3300.000
 70
    32
  0
VERTEX
  8
E20LXLIFT
 62
27
 10
-1219.235
 20
-1466.166
 30
3300.000
 70
    32
  0
VERTEX
  8
E20LXLIFT
 62
27
 10
-1223.860
 20
-1460.612
 30
3300.000
 70
    32
  0
VERTEX
  8
E20LXLIFT
 62
27
 10
-1230.318
 20
-1457.168
 30
3300.000
 70
    32
  0
VERTEX
  8
E20LXLIFT
 62
27
 10
-1233.577
 20
-1455.851
 30
3300.000
 70
    32
  0
VERTEX
  8
E20LXLIFT
 62
27
 10
-1232.318
 20
-1449.688
 30
3300.000
 70
    32
  0
VERTEX
  8
E20LXLIFT
 62
27
 10
-1228.788
 20
-1445.131
 30
3300.000
 70
    32
  0
VERTEX
  8
E20LXLIFT
 62
27
 10
-1226.680
 20
-1436.706
 30
3300.000
 70
    32
  0
VERTEX
  8
E20LXLIFT
 62
27
 10
-1226.299
 20
-1433.807
 30
3300.000
 70
    32
  0
VERTEX
  8
E20LXLIFT
 62
27
 10
-1228.954
 20
-1430.190
 30
3300.000
 70
    32
  0
VERTEX
  8
E20LXLIFT
 62
27
 10
-1225.233
 20
-1422.328
 30
3300.000
 70
    32
  0
VERTEX
  8
E20LXLIFT
 62
27
 10
-1221.175
 20
-1414.327
 30
3300.000
 70
    32
  0
VERTEX
  8
E20LXLIFT
 62
27
 10
-1216.209
 20
-1406.970
 30
3300.000
 70
    32
  0
VERTEX
  8
E20LXLIFT
 62
27
 10
-1212.010
 20
-1398.865
 30
3300.000
 70
    32
  0
VERTEX
  8
E20LXLIFT
 62
27
 10
-1205.502
 20
-1392.121
 30
3300.000
 70
    32
  0
VERTEX
  8
E20LXLIFT
 62
27
 10
-1195.083
 20
-1384.907
 30
3300.000
 70
    32
  0
VERTEX
  8
E20LXLIFT
 62
27
 10
-1186.913
 20
-1387.857
 30
3300.000
 70
    32
  0
VERTEX
  8
E20LXLIFT
 62
27
 10
-1182.005
 20
-1393.203
 30
3300.000
 70
    32
  0
VERTEX
  8
E20LXLIFT
 62
27
 10
-1175.790
 20
-1401.518
 30
3300.000
 70
    32
  0
VERTEX
  8
E20LXLIFT
 62
27
 10
-1170.483
 20
-1409.191
 30
3300.000
 70
    32
  0
VERTEX
  8
E20LXLIFT
 62
27
 10
-1166.769
 20
-1417.815
 30
3300.000
 70
    32
  0
VERTEX
  8
E20LXLIFT
 62
27
 10
-1167.229
 20
-1430.268
 30
3300.000
 70
    32
  0
VERTEX
  8
E20LXLIFT
 62
27
 10
-1166.611
 20
-1442.257
 30
3300.000
 70
    32
  0
VERTEX
  8
E20LXLIFT
 62
27
 10
-1165.021
 20
-1452.004
 30
3300.000
 70
    32
  0
VERTEX
  8
E20LXLIFT
 62
27
 10
-1161.564
 20
-1458.197
 30
3300.000
 70
    32
  0
SEQEND
  8
E20LXLIFT
  0
POLYLINE
  8
E20LXLIFT
 62
27
 66
     1
 70
     9
  0
VERTEX
  8
E20LXLIFT
 62
27
 10
-1245.233
 20
-1403.233
 30
3327.000
 70
    32
  0
VERTEX
  8
E20LXLIFT
 62
27
 10
-1244.755
 20
-1414.903
 30
3327.000
 70
    32
  0
VERTEX
  8
E20LXLIFT
 62
27
 10
-1247.122
 20
-1424.720
 30
3327.000
 70
    32
  0
VERTEX
  8
E20LXLIFT
 62
27
 10
-1252.577
 20
-1434.155
 30
3327.000
 70
    32
  0
VERTEX
  8
E20LXLIFT
 62
27
 10
-1260.885
 20
-1438.713
 30
3327.000
 70
    32
  0
VERTEX
  8
E20LXLIFT
 62
27
 10
-1271.200
 20
-1441.682
 30
3327.000
 70
    32
  0
VERTEX
  8
E20LXLIFT
 62
27
 10
-1274.012
 20
-1445.000
 30
3327.000
 70
    32
  0
VERTEX
  8
E20LXLIFT
 62
27
 10
-1268.173
 20
-1450.872
 30
3327.000
 70
    32
  0
VERTEX
  8
E20LXLIFT
 62
27
 10
-1260.707
 20
-1448.759
 30
3327.000
 70
    32
  0
VERTEX
  8
E20LXLIFT
 62
27
 10
-1254.137
 20
-1448.262
 30
3327.000
 70
    32
  0
VERTEX
  8
E20LXLIFT
 62
27
 10
-1250.557
 20
-1449.480
 30
3327.000
 70
    32
  0
VERTEX
  8
E20LXLIFT
 62
27
 10
-1241.559
 20
-1447.241
 30
3327.000
 70
    32
  0
VERTEX
  8
E20LXLIFT
 62
27
 10
-1231.096
 20
-1446.438
 30
3327.000
 70
    32
  0
VERTEX
  8
E20LXLIFT
 62
27
 10
-1226.148
 20
-1451.219
 30
3327.000
 70
    32
  0
VERTEX
  8
E20LXLIFT
 62
27
 10
-1222.598
 20
-1457.220
 30
3327.000
 70
    32
  0
VERTEX
  8
E20LXLIFT
 62
27
 10
-1217.309
 20
-1459.159
 30
3327.000
 70
    32
  0
VERTEX
  8
E20LXLIFT
 62
27
 10
-1219.053
 20
-1465.173
 30
3327.000
 70
    32
  0
VERTEX
  8
E20LXLIFT
 62
27
 10
-1216.571
 20
-1472.698
 30
3327.000
 70
    32
  0
VERTEX
  8
E20LXLIFT
 62
27
 10
-1214.041
 20
-1479.540
 30
3327.000
 70
    32
  0
VERTEX
  8
E20LXLIFT
 62
27
 10
-1213.987
 20
-1484.588
 30
3327.000
 70
    32
  0
VERTEX
  8
E20LXLIFT
 62
27
 10
-1210.624
 20
-1489.424
 30
3327.000
 70
    32
  0
VERTEX
  8
E20LXLIFT
 62
27
 10
-1207.697
 20
-1490.786
 30
3327.000
 70
    32
  0
VERTEX
  8
E20LXLIFT
 62
27
 10
-1200.126
 20
-1486.108
 30
3327.000
 70
    32
  0
VERTEX
  8
E20LXLIFT
 62
27
 10
-1192.137
 20
-1480.805
 30
3327.000
 70
    32
  0
VERTEX
  8
E20LXLIFT
 62
27
 10
-1186.942
 20
-1477.941
 30
3327.000
 70
    32
  0
VERTEX
  8
E20LXLIFT
 62
27
 10
-1182.399
 20
-1484.419
 30
3327.000
 70
    32
  0
VERTEX
  8
E20LXLIFT
 62
27
 10
-1179.447
 20
-1487.928
 30
3327.000
 70
    32
  0
VERTEX
  8
E20LXLIFT
 62
27
 10
-1172.743
 20
-1487.768
 30
3327.000
 70
    32
  0
VERTEX
  8
E20LXLIFT
 62
27
 10
-1165.911
 20
-1485.677
 30
3327.000
 70
    32
  0
VERTEX
  8
E20LXLIFT
 62
27
 10
-1166.091
 20
-1474.875
 30
3327.000
 70
    32
  0
VERTEX
  8
E20LXLIFT
 62
27
 10
-1168.074
 20
-1466.234
 30
3327.000
 70
    32
  0
VERTEX
  8
E20LXLIFT
 62
27
 10
-1167.856
 20
-1454.931
 30
3327.000
 70
    32
  0
VERTEX
  8
E20LXLIFT
 62
27
 10
-1171.520
 20
-1444.250
 30
3327.000
 70
    32
  0
VERTEX
  8
E20LXLIFT
 62
27
 10
-1178.180
 20
-1433.014
 30
3327.000
 70
    32
  0
VERTEX
  8
E20LXLIFT
 62
27
 10
-1189.273
 20
-1422.688
 30
3327.000
 70
    32
  0
VERTEX
  8
E20LXLIFT
 62
27
 10
-1201.824
 20
-1413.950
 30
3327.000
 70
    32
  0
VERTEX
  8
E20LXLIFT
 62
27
 10
-1208.841
 20
-1407.192
 30
3327.000
 70
    32
  0
VERTEX
  8
E20LXLIFT
 62
27
 10
-1211.038
 20
-1394.484
 30
3327.000
 70
    32
  0
VERTEX
  8
E20LXLIFT
 62
27
 10
-1215.322
 20
-1381.433
 30
3327.000
 70
    32
  0
VERTEX
  8
E20LXLIFT
 62
27
 10
-1218.885
 20
-1370.139
 30
3327.000
 70
    32
  0
VERTEX
  8
E20LXLIFT
 62
27
 10
-1225.935
 20
-1358.209
 30
3327.000
 70
    32
  0
VERTEX
  8
E20LXLIFT
 62
27
 10
-1231.641
 20
-1348.453
 30
3327.000
 70
    32
  0
VERTEX
  8
E20LXLIFT
 62
27
 10
-1239.099
 20
-1336.708
 30
3327.000
 70
    32
  0
VERTEX
  8
E20LXLIFT
 62
27
 10
-1242.983
 20
-1323.912
 30
3327.000
 70
    32
  0
VERTEX
  8
E20LXLIFT
 62
27
 10
-1251.172
 20
-1322.757
 30
3327.000
 70
    32
  0
VERTEX
  8
E20LXLIFT
 62
27
 10
-1251.862
 20
-1333.101
 30
3327.000
 70
    32
  0
VERTEX
  8
E20LXLIFT
 62
27
 10
-1248.517
 20
-1347.258
 30
3327.000
 70
    32
  0
VERTEX
  8
E20LXLIFT
 62
27
 10
-1244.457
 20
-1360.901
 30
3327.000
 70
    32
  0
VERTEX
  8
E20LXLIFT
 62
27
 10
-1241.591
 20
-1371.073
 30
3327.000
 70
    32
  0
VERTEX
  8
E20LXLIFT
 62
27
 10
-1240.078
 20
-1379.511
 30
3327.000
 70
    32
  0
SEQEND
  8
E20LXLIFT
  0
POLYLINE
  8
E20LXLIFT
 62
27
 66
     1
 70
     9
  0
VERTEX
  8
E20LXLIFT
 62
27
 10
-1281.289
 20
-1448.257
 30
3342.000
 70
    32
  0
VERTEX
  8
E20LXLIFT
 62
27
 10
-1275.645
 20
-1454.395
 30
3342.000
 70
    32
  0
VERTEX
  8
E20LXLIFT
 62
27
 10
-1268.692
 20
-1455.884
 30
3342.000
 70
    32
  0
VERTEX
  8
E20LXLIFT
 62
27
 10
-1257.519
 20
-1452.685
 30
3342.000
 70
    32
  0
VERTEX
  8
E20LXLIFT
 62
27
 10
-1246.859
 20
-1449.530
 30
3342.000
 70
    32
  0
VERTEX
  8
E20LXLIFT
 62
27
 10
-1234.799
 20
-1445.905
 30
3342.000
 70
    32
  0
VERTEX
  8
E20LXLIFT
 62
27
 10
-1224.680
 20
-1452.064
 30
3342.000
 70
    32
  0
VERTEX
  8
E20LXLIFT
 62
27
 10
-1217.990
 20
-1459.945
 30
3342.000
 70
    32
  0
VERTEX
  8
E20LXLIFT
 62
27
 10
-1215.921
 20
-1469.107
 30
3342.000
 70
    32
  0
VERTEX
  8
E20LXLIFT
 62
27
 10
-1215.453
 20
-1479.212
 30
3342.000
 70
    32
  0
VERTEX
  8
E20LXLIFT
 62
27
 10
-1214.379
 20
-1486.702
 30
3342.000
 70
    32
  0
VERTEX
  8
E20LXLIFT
 62
27
 10
-1207.875
 20
-1489.822
 30
3342.000
 70
    32
  0
VERTEX
  8
E20LXLIFT
 62
27
 10
-1198.330
 20
-1483.777
 30
3342.000
 70
    32
  0
VERTEX
  8
E20LXLIFT
 62
27
 10
-1190.386
 20
-1478.674
 30
3342.000
 70
    32
  0
VERTEX
  8
E20LXLIFT
 62
27
 10
-1185.566
 20
-1478.119
 30
3342.000
 70
    32
  0
VERTEX
  8
E20LXLIFT
 62
27
 10
-1181.251
 20
-1484.675
 30
3342.000
 70
    32
  0
VERTEX
  8
E20LXLIFT
 62
27
 10
-1175.102
 20
-1486.856
 30
3342.000
 70
    32
  0
VERTEX
  8
E20LXLIFT
 62
27
 10
-1170.538
 20
-1487.900
 30
3342.000
 70
    32
  0
VERTEX
  8
E20LXLIFT
 62
27
 10
-1162.256
 20
-1485.817
 30
3342.000
 70
    32
  0
VERTEX
  8
E20LXLIFT
 62
27
 10
-1157.855
 20
-1483.933
 30
3342.000
 70
    32
  0
VERTEX
  8
E20LXLIFT
 62
27
 10
-1155.940
 20
-1477.868
 30
3342.000
 70
    32
  0
VERTEX
  8
E20LXLIFT
 62
27
 10
-1157.409
 20
-1469.685
 30
3342.000
 70
    32
  0
VERTEX
  8
E20LXLIFT
 62
27
 10
-1164.127
 20
-1463.565
 30
3342.000
 70
    32
  0
VERTEX
  8
E20LXLIFT
 62
27
 10
-1166.093
 20
-1454.545
 30
3342.000
 70
    32
  0
VERTEX
  8
E20LXLIFT
 62
27
 10
-1167.375
 20
-1443.616
 30
3342.000
 70
    32
  0
VERTEX
  8
E20LXLIFT
 62
27
 10
-1172.017
 20
-1438.711
 30
3342.000
 70
    32
  0
VERTEX
  8
E20LXLIFT
 62
27
 10
-1182.270
 20
-1431.018
 30
3342.000
 70
    32
  0
VERTEX
  8
E20LXLIFT
 62
27
 10
-1192.758
 20
-1424.801
 30
3342.000
 70
    32
  0
VERTEX
  8
E20LXLIFT
 62
27
 10
-1199.988
 20
-1418.725
 30
3342.000
 70
    32
  0
VERTEX
  8
E20LXLIFT
 62
27
 10
-1204.944
 20
-1408.282
 30
3342.000
 70
    32
  0
VERTEX
  8
E20LXLIFT
 62
27
 10
-1210.032
 20
-1399.457
 30
3342.000
 70
    32
  0
VERTEX
  8
E20LXLIFT
 62
27
 10
-1212.913
 20
-1391.427
 30
3342.000
 70
    32
  0
VERTEX
  8
E20LXLIFT
 62
27
 10
-1214.930
 20
-1382.336
 30
3342.000
 70
    32
  0
VERTEX
  8
E20LXLIFT
 62
27
 10
-1217.866
 20
-1372.279
 30
3342.000
 70
    32
  0
VERTEX
  8
E20LXLIFT
 62
27
 10
-1220.922
 20
-1361.003
 30
3342.000
 70
    32
  0
VERTEX
  8
E20LXLIFT
 62
27
 10
-1226.465
 20
-1356.207
 30
3342.000
 70
    32
  0
VERTEX
  8
E20LXLIFT
 62
27
 10
-1230.747
 20
-1353.000
 30
3342.000
 70
    32
  0
VERTEX
  8
E20LXLIFT
 62
27
 10
-1234.314
 20
-1344.923
 30
3342.000
 70
    32
  0
VERTEX
  8
E20LXLIFT
 62
27
 10
-1239.197
 20
-1340.736
 30
3342.000
 70
    32
  0
VERTEX
  8
E20LXLIFT
 62
27
 10
-1245.313
 20
-1341.904
 30
3342.000
 70
    32
  0
VERTEX
  8
E20LXLIFT
 62
27
 10
-1246.633
 20
-1348.191
 30
3342.000
 70
    32
  0
VERTEX
  8
E20LXLIFT
 62
27
 10
-1242.577
 20
-1358.743
 30
3342.000
 70
    32
  0
VERTEX
  8
E20LXLIFT
 62
27
 10
-1239.103
 20
-1368.193
 30
3342.000
 70
    32
  0
VERTEX
  8
E20LXLIFT
 62
27
 10
-1239.866
 20
-1378.101
 30
3342.000
 70
    32
  0
VERTEX
  8
E20LXLIFT
 62
27
 10
-1243.481
 20
-1385.725
 30
3342.000
 70
    32
  0
VERTEX
  8
E20LXLIFT
 62
27
 10
-1244.880
 20
-1396.856
 30
3342.000
 70
    32
  0
VERTEX
  8
E20LXLIFT
 62
27
 10
-1244.718
 20
-1404.137
 30
3342.000
 70
    32
  0
VERTEX
  8
E20LXLIFT
 62
27
 10
-1246.011
 20
-1409.860
 30
3342.000
 70
    32
  0
VERTEX
  8
E20LXLIFT
 62
27
 10
-1252.906
 20
-1415.509
 30
3342.000
 70
    32
  0
VERTEX
  8
E20LXLIFT
 62
27
 10
-1258.625
 20
-1422.481
 30
3342.000
 70
    32
  0
VERTEX
  8
E20LXLIFT
 62
27
 10
-1264.563
 20
-1428.850
 30
3342.000
 70
    32
  0
VERTEX
  8
E20LXLIFT
 62
27
 10
-1270.877
 20
-1435.601
 30
3342.000
 70
    32
  0
VERTEX
  8
E20LXLIFT
 62
27
 10
-1276.402
 20
-1439.386
 30
3342.000
 70
    32
  0
SEQEND
  8
E20LXLIFT
  0
POLYLINE
  8
E20LXLIFT
 62
27
 66
     1
 70
     9
  0
VERTEX
  8
E20LXLIFT
 62
27
 10
-1280.917
 20
-1451.811
 30
3357.000
 70
    32
  0
VERTEX
  8
E20LXLIFT
 62
27
 10
-1274.354
 20
-1457.781
 30
3357.000
 70
    32
  0
VERTEX
  8
E20LXLIFT
 62
27
 10
-1270.611
 20
-1462.879
 30
3357.000
 70
    32
  0
VERTEX
  8
E20LXLIFT
 62
27
 10
-1265.197
 20
-1466.096
 30
3357.000
 70
    32
  0
VERTEX
  8
E20LXLIFT
 62
27
 10
-1256.110
 20
-1467.488
 30
3357.000
 70
    32
  0
VERTEX
  8
E20LXLIFT
 62
27
 10
-1248.880
 20
-1468.281
 30
3357.000
 70
    32
  0
VERTEX
  8
E20LXLIFT
 62
27
 10
-1241.839
 20
-1467.035
 30
3357.000
 70
    32
  0
VERTEX
  8
E20LXLIFT
 62
27
 10
-1236.005
 20
-1463.405
 30
3357.000
 70
    32
  0
VERTEX
  8
E20LXLIFT
 62
27
 10
-1236.274
 20
-1455.320
 30
3357.000
 70
    32
  0
VERTEX
  8
E20LXLIFT
 62
27
 10
-1235.129
 20
-1444.562
 30
3357.000
 70
    32
  0
VERTEX
  8
E20LXLIFT
 62
27
 10
-1234.634
 20
-1435.589
 30
3357.000
 70
    32
  0
VERTEX
  8
E20LXLIFT
 62
27
 10
-1237.953
 20
-1421.570
 30
3357.000
 70
    32
  0
VERTEX
  8
E20LXLIFT
 62
27
 10
-1248.582
 20
-1416.297
 30
3357.000
 70
    32
  0
VERTEX
  8
E20LXLIFT
 62
27
 10
-1254.010
 20
-1412.764
 30
3357.000
 70
    32
  0
VERTEX
  8
E20LXLIFT
 62
27
 10
-1265.475
 20
-1413.772
 30
3357.000
 70
    32
  0
VERTEX
  8
E20LXLIFT
 62
27
 10
-1270.072
 20
-1418.346
 30
3357.000
 70
    32
  0
VERTEX
  8
E20LXLIFT
 62
27
 10
-1272.343
 20
-1427.424
 30
3357.000
 70
    32
  0
VERTEX
  8
E20LXLIFT
 62
27
 10
-1276.819
 20
-1435.724
 30
3357.000
 70
    32
  0
VERTEX
  8
E20LXLIFT
 62
27
 10
-1281.545
 20
-1437.451
 30
3357.000
 70
    32
  0
SEQEND
  8
E20LXLIFT
  0
POLYLINE
  8
E20LXLIFT
 62
6
 66
     1
 70
     9
  0
VERTEX
  8
E20LXLIFT
 62
6
 10
-1336.734
 20
-1476.124
 30
3360.000
 70
    32
  0
VERTEX
  8
E20LXLIFT
 62
6
 10
-1331.133
 20
-1476.480
 30
3360.000
 70
    32
  0
VERTEX
  8
E20LXLIFT
 62
6
 10
-1326.637
 20
-1478.300
 30
3360.000
 70
    32
  0
VERTEX
  8
E20LXLIFT
 62
6
 10
-1323.704
 20
-1485.410
 30
3360.000
 70
    32
  0
VERTEX
  8
E20LXLIFT
 62
6
 10
-1319.398
 20
-1492.165
 30
3360.000
 70
    32
  0
VERTEX
  8
E20LXLIFT
 62
6
 10
-1315.896
 20
-1496.786
 30
3360.000
 70
    32
  0
VERTEX
  8
E20LXLIFT
 62
6
 10
-1310.242
 20
-1498.846
 30
3360.000
 70
    32
  0
VERTEX
  8
E20LXLIFT
 62
6
 10
-1303.883
 20
-1502.459
 30
3360.000
 70
    32
  0
VERTEX
  8
E20LXLIFT
 62
6
 10
-1293.970
 20
-1503.789
 30
3360.000
 70
    32
  0
VERTEX
  8
E20LXLIFT
 62
6
 10
-1289.155
 20
-1508.863
 30
3360.000
 70
    32
  0
VERTEX
  8
E20LXLIFT
 62
6
 10
-1281.541
 20
-1510.029
 30
3360.000
 70
    32
  0
VERTEX
  8
E20LXLIFT
 62
6
 10
-1276.390
 20
-1516.599
 30
3360.000
 70
    32
  0
VERTEX
  8
E20LXLIFT
 62
6
 10
-1273.236
 20
-1522.675
 30
3360.000
 70
    32
  0
VERTEX
  8
E20LXLIFT
 62
6
 10
-1272.619
 20
-1527.671
 30
3360.000
 70
    32
  0
VERTEX
  8
E20LXLIFT
 62
6
 10
-1275.767
 20
-1531.399
 30
3360.000
 70
    32
  0
VERTEX
  8
E20LXLIFT
 62
6
 10
-1279.349
 20
-1534.683
 30
3360.000
 70
    32
  0
VERTEX
  8
E20LXLIFT
 62
6
 10
-1276.229
 20
-1538.931
 30
3360.000
 70
    32
  0
VERTEX
  8
E20LXLIFT
 62
6
 10
-1276.769
 20
-1543.687
 30
3360.000
 70
    32
  0
VERTEX
  8
E20LXLIFT
 62
6
 10
-1274.848
 20
-1550.014
 30
3360.000
 70
    32
  0
VERTEX
  8
E20LXLIFT
 62
6
 10
-1275.270
 20
-1555.228
 30
3360.000
 70
    32
  0
VERTEX
  8
E20LXLIFT
 62
6
 10
-1279.136
 20
-1557.086
 30
3360.000
 70
    32
  0
VERTEX
  8
E20LXLIFT
 62
6
 10
-1284.201
 20
-1561.023
 30
3360.000
 70
    32
  0
VERTEX
  8
E20LXLIFT
 62
6
 10
-1290.698
 20
-1562.415
 30
3360.000
 70
    32
  0
VERTEX
  8
E20LXLIFT
 62
6
 10
-1295.566
 20
-1564.246
 30
3360.000
 70
    32
  0
VERTEX
  8
E20LXLIFT
 62
6
 10
-1301.746
 20
-1565.624
 30
3360.000
 70
    32
  0
VERTEX
  8
E20LXLIFT
 62
6
 10
-1306.788
 20
-1560.390
 30
3360.000
 70
    32
  0
VERTEX
  8
E20LXLIFT
 62
6
 10
-1312.944
 20
-1557.499
 30
3360.000
 70
    32
  0
VERTEX
  8
E20LXLIFT
 62
6
 10
-1318.475
 20
-1555.458
 30
3360.000
 70
    32
  0
VERTEX
  8
E20LXLIFT
 62
6
 10
-1322.840
 20
-1559.753
 30
3360.000
 70
    32
  0
VERTEX
  8
E20LXLIFT
 62
6
 10
-1327.962
 20
-1562.425
 30
3360.000
 70
    32
  0
VERTEX
  8
E20LXLIFT
 62
6
 10
-1334.883
 20
-1565.763
 30
3360.000
 70
    32
  0
VERTEX
  8
E20LXLIFT
 62
6
 10
-1338.735
 20
-1567.938
 30
3360.000
 70
    32
  0
VERTEX
  8
E20LXLIFT
 62
6
 10
-1344.282
 20
-1563.946
 30
3360.000
 70
    32
  0
VERTEX
  8
E20LXLIFT
 62
6
 10
-1344.979
 20
-1559.881
 30
3360.000
 70
    32
  0
VERTEX
  8
E20LXLIFT
 62
6
 10
-1338.742
 20
-1549.525
 30
3360.000
 70
    32
  0
VERTEX
  8
E20LXLIFT
 62
6
 10
-1333.954
 20
-1541.650
 30
3360.000
 70
    32
  0
VERTEX
  8
E20LXLIFT
 62
6
 10
-1327.645
 20
-1534.511
 30
3360.000
 70
    32
  0
VERTEX
  8
E20LXLIFT
 62
6
 10
-1324.774
 20
-1526.844
 30
3360.000
 70
    32
  0
VERTEX
  8
E20LXLIFT
 62
6
 10
-1327.801
 20
-1518.714
 30
3360.000
 70
    32
  0
VERTEX
  8
E20LXLIFT
 62
6
 10
-1333.508
 20
-1507.975
 30
3360.000
 70
    32
  0
VERTEX
  8
E20LXLIFT
 62
6
 10
-1337.259
 20
-1498.414
 30
3360.000
 70
    32
  0
VERTEX
  8
E20LXLIFT
 62
6
 10
-1342.398
 20
-1488.892
 30
3360.000
 70
    32
  0
VERTEX
  8
E20LXLIFT
 62
6
 10
-1345.400
 20
-1483.468
 30
3360.000
 70
    32
  0
SEQEND
  8
E20LXLIFT
  0
POLYLINE
  8
E20LXLIFT
 62
1
 66
     1
 70
     9
  0
VERTEX
  8
E20LXLIFT
 62
1
 10
-1280.545
 20
-1436.451
 30
3367.000
 70
    32
  0
VERTEX
  8
E20LXLIFT
 62
1
 10
-1275.819
 20
-1434.724
 30
3367.000
 70
    32
  0
VERTEX
  8
E20LXLIFT
 62
1
 10
-1271.343
 20
-1426.424
 30
3367.000
 70
    32
  0
VERTEX
  8
E20LXLIFT
 62
1
 10
-1269.072
 20
-1417.346
 30
3367.000
 70
    32
  0
VERTEX
  8
E20LXLIFT
 62
1
 10
-1264.475
 20
-1412.772
 30
3367.000
 70
    32
  0
VERTEX
  8
E20LXLIFT
 62
1
 10
-1253.010
 20
-1411.764
 30
3367.000
 70
    32
  0
VERTEX
  8
E20LXLIFT
 62
1
 10
-1247.582
 20
-1415.297
 30
3367.000
 70
    32
  0
VERTEX
  8
E20LXLIFT
 62
1
 10
-1236.953
 20
-1420.570
 30
3367.000
 70
    32
  0
VERTEX
  8
E20LXLIFT
 62
1
 10
-1233.634
 20
-1434.589
 30
3367.000
 70
    32
  0
VERTEX
  8
E20LXLIFT
 62
1
 10
-1234.129
 20
-1443.562
 30
3367.000
 70
    32
  0
VERTEX
  8
E20LXLIFT
 62
1
 10
-1235.274
 20
-1454.320
 30
3367.000
 70
    32
  0
VERTEX
  8
E20LXLIFT
 62
1
 10
-1235.005
 20
-1462.405
 30
3367.000
 70
    32
  0
VERTEX
  8
E20LXLIFT
 62
1
 10
-1240.839
 20
-1466.035
 30
3367.000
 70
    32
  0
VERTEX
  8
E20LXLIFT
 62
1
 10
-1247.880
 20
-1467.281
 30
3367.000
 70
    32
  0
VERTEX
  8
E20LXLIFT
 62
1
 10
-1255.110
 20
-1466.488
 30
3367.000
 70
    32
  0
VERTEX
  8
E20LXLIFT
 62
1
 10
-1264.197
 20
-1465.096
 30
3367.000
 70
    32
  0
VERTEX
  8
E20LXLIFT
 62
1
 10
-1269.611
 20
-1461.879
 30
3367.000
 70
    32
  0
VERTEX
  8
E20LXLIFT
 62
1
 10
-1273.354
 20
-1456.781
 30
3367.000
 70
    32
  0
VERTEX
  8
E20LXLIFT
 62
1
 10
-1279.917
 20
-1450.811
 30
3367.000
 70
    32
  0
SEQEND
  8
E20LXLIFT
  0
POLYLINE
  8
E20LXLIFT
 62
1
 66
     1
 70
     9
  0
VERTEX
  8
E20LXLIFT
 62
1
 10
-1335.734
 20
-1475.124
 30
3370.000
 70
    32
  0
VERTEX
  8
E20LXLIFT
 62
1
 10
-1330.133
 20
-1475.480
 30
3370.000
 70
    32
  0
VERTEX
  8
E20LXLIFT
 62
1
 10
-1325.637
 20
-1477.300
 30
3370.000
 70
    32
  0
VERTEX
  8
E20LXLIFT
 62
1
 10
-1322.704
 20
-1484.410
 30
3370.000
 70
    32
  0
VERTEX
  8
E20LXLIFT
 62
1
 10
-1318.398
 20
-1491.165
 30
3370.000
 70
    32
  0
VERTEX
  8
E20LXLIFT
 62
1
 10
-1314.896
 20
-1495.786
 30
3370.000
 70
    32
  0
VERTEX
  8
E20LXLIFT
 62
1
 10
-1309.242
 20
-1497.846
 30
3370.000
 70
    32
  0
VERTEX
  8
E20LXLIFT
 62
1
 10
-1302.883
 20
-1501.459
 30
3370.000
 70
    32
  0
VERTEX
  8
E20LXLIFT
 62
1
 10
-1292.970
 20
-1502.789
 30
3370.000
 70
    32
  0
VERTEX
  8
E20LXLIFT
 62
1
 10
-1288.155
 20
-1507.863
 30
3370.000
 70
    32
  0
VERTEX
  8
E20LXLIFT
 62
1
 10
-1280.541
 20
-1509.029
 30
3370.000
 70
    32
  0
VERTEX
  8
E20LXLIFT
 62
1
 10
-1275.390
 20
-1515.599
 30
3370.000
 70
    32
  0
VERTEX
  8
E20LXLIFT
 62
1
 10
-1272.236
 20
-1521.675
 30
3370.000
 70
    32
  0
VERTEX
  8
E20LXLIFT
 62
1
 10
-1271.619
 20
-1526.671
 30
3370.000
 70
    32
  0
VERTEX
  8
E20LXLIFT
 62
1
 10
-1274.767
 20
-1530.399
 30
3370.000
 70
    32
  0
VERTEX
  8
E20LXLIFT
 62
1
 10
-1278.349
 20
-1533.683
 30
3370.000
 70
    32
  0
VERTEX
  8
E20LXLIFT
 62
1
 10
-1275.229
 20
-1537.931
 30
3370.000
 70
    32
  0
VERTEX
  8
E20LXLIFT
 62
1
 10
-1275.769
 20
-1542.687
 30
3370.000
 70
    32
  0
VERTEX
  8
E20LXLIFT
 62
1
 10
-1273.848
 20
-1549.014
 30
3370.000
 70
    32
  0
VERTEX
  8
E20LXLIFT
 62
1
 10
-1274.270
 20
-1554.228
 30
3370.000
 70
    32
  0
VERTEX
  8
E20LXLIFT
 62
1
 10
-1278.136
 20
-1556.086
 30
3370.000
 70
    32
  0
VERTEX
  8
E20LXLIFT
 62
1
 10
-1283.201
 20
-1560.023
 30
3370.000
 70
    32
  0
VERTEX
  8
E20LXLIFT
 62
1
 10
-1289.698
 20
-1561.415
 30
3370.000
 70
    32
  0
VERTEX
  8
E20LXLIFT
 62
1
 10
-1294.566
 20
-1563.246
 30
3370.000
 70
    32
  0
VERTEX
  8
E20LXLIFT
 62
1
 10
-1300.746
 20
-1564.624
 30
3370.000
 70
    32
  0
VERTEX
  8
E20LXLIFT
 62
1
 10
-1305.788
 20
-1559.390
 30
3370.000
 70
    32
  0
VERTEX
  8
E20LXLIFT
 62
1
 10
-1311.944
 20
-1556.499
 30
3370.000
 70
    32
  0
VERTEX
  8
E20LXLIFT
 62
1
 10
-1317.475
 20
-1554.458
 30
3370.000
 70
    32
  0
VERTEX
  8
E20LXLIFT
 62
1
 10
-1321.840
 20
-1558.753
 30
3370.000
 70
    32
  0
VERTEX
  8
E20LXLIFT
 62
1
 10
-1326.962
 20
-1561.425
 30
3370.000
 70
    32
  0
VERTEX
  8
E20LXLIFT
 62
1
 10
-1333.883
 20
-1564.763
 30
3370.000
 70
    32
  0
VERTEX
  8
E20LXLIFT
 62
1
 10
-1337.735
 20
-1566.938
 30
3370.000
 70
    32
  0
VERTEX
  8
E20LXLIFT
 62
1
 10
-1343.282
 20
-1562.946
 30
3370.000
 70
    32
  0
VERTEX
  8
E20LXLIFT
 62
1
 10
-1343.979
 20
-1558.881
 30
3370.000
 70
    32
  0
VERTEX
  8
E20LXLIFT
 62
1
 10
-1337.742
 20
-1548.525
 30
3370.000
 70
    32
  0
VERTEX
  8
E20LXLIFT
 62
1
 10
-1332.954
 20
-1540.650
 30
3370.000
 70
    32
  0
VERTEX
  8
E20LXLIFT
 62
1
 10
-1326.645
 20
-1533.511
 30
3370.000
 70
    32
  0
VERTEX
  8
E20LXLIFT
 62
1
 10
-1323.774
 20
-1525.844
 30
3370.000
 70
    32
  0
VERTEX
  8
E20LXLIFT
 62
1
 10
-1326.801
 20
-1517.714
 30
3370.000
 70
    32
  0
VERTEX
  8
E20LXLIFT
 62
1
 10
-1332.508
 20
-1506.975
 30
3370.000
 70
    32
  0
VERTEX
  8
E20LXLIFT
 62
1
 10
-1336.259
 20
-1497.414
 30
3370.000
 70
    32
  0
VERTEX
  8
E20LXLIFT
 62
1
 10
-1341.398
 20
-1487.892
 30
3370.000
 70
    32
  0
VERTEX
  8
E20LXLIFT
 62
1
 10
-1344.400
 20
-1482.468
 30
3370.000
 70
    32
  0
SEQEND
  8
E20LXLIFT
  0
POLYLINE
  8
E20LXLIFT
 62
1
 66
     1
 70
     9
  0
VERTEX
  8
E20LXLIFT
 62
1
 10
-1185.296
 20
-1294.636
 30
3308.000
 70
    32
  0
VERTEX
  8
E20LXLIFT
 62
1
 10
-1191.907
 20
-1297.186
 30
3308.000
 70
    32
  0
VERTEX
  8
E20LXLIFT
 62
1
 10
-1196.327
 20
-1287.802
 30
3308.000
 70
    32
  0
VERTEX
  8
E20LXLIFT
 62
1
 10
-1202.774
 20
-1279.970
 30
3308.000
 70
    32
  0
VERTEX
  8
E20LXLIFT
 62
1
 10
-1206.967
 20
-1269.235
 30
3308.000
 70
    32
  0
VERTEX
  8
E20LXLIFT
 62
1
 10
-1215.139
 20
-1257.013
 30
3308.000
 70
    32
  0
VERTEX
  8
E20LXLIFT
 62
1
 10
-1218.951
 20
-1253.787
 30
3308.000
 70
    32
  0
VERTEX
  8
E20LXLIFT
 62
1
 10
-1226.629
 20
-1249.534
 30
3308.000
 70
    32
  0
VERTEX
  8
E20LXLIFT
 62
1
 10
-1233.750
 20
-1241.210
 30
3308.000
 70
    32
  0
VERTEX
  8
E20LXLIFT
 62
1
 10
-1236.266
 20
-1230.252
 30
3308.000
 70
    32
  0
VERTEX
  8
E20LXLIFT
 62
1
 10
-1231.163
 20
-1221.644
 30
3308.000
 70
    32
  0
VERTEX
  8
E20LXLIFT
 62
1
 10
-1222.422
 20
-1216.170
 30
3308.000
 70
    32
  0
VERTEX
  8
E20LXLIFT
 62
1
 10
-1217.310
 20
-1208.636
 30
3308.000
 70
    32
  0
VERTEX
  8
E20LXLIFT
 62
1
 10
-1211.711
 20
-1204.969
 30
3308.000
 70
    32
  0
VERTEX
  8
E20LXLIFT
 62
1
 10
-1205.824
 20
-1209.742
 30
3308.000
 70
    32
  0
VERTEX
  8
E20LXLIFT
 62
1
 10
-1206.704
 20
-1220.636
 30
3308.000
 70
    32
  0
VERTEX
  8
E20LXLIFT
 62
1
 10
-1203.642
 20
-1237.364
 30
3308.000
 70
    32
  0
VERTEX
  8
E20LXLIFT
 62
1
 10
-1200.189
 20
-1252.517
 30
3308.000
 70
    32
  0
VERTEX
  8
E20LXLIFT
 62
1
 10
-1193.925
 20
-1269.340
 30
3308.000
 70
    32
  0
VERTEX
  8
E20LXLIFT
 62
1
 10
-1189.355
 20
-1281.968
 30
3308.000
 70
    32
  0
SEQEND
  8
E20LXLIFT
  0
POLYLINE
  8
E20LXLIFT
 62
11
 66
     1
 70
     9
  0
VERTEX
  8
E20LXLIFT
 62
11
 10
273.172
 20
-1541.130
 30
3236.000
 70
    32
  0
VERTEX
  8
E20LXLIFT
 62
11
 10
261.212
 20
-1527.587
 30
3236.000
 70
    32
  0
VERTEX
  8
E20LXLIFT
 62
11
 10
255.381
 20
-1520.647
 30
3236.000
 70
    32
  0
VERTEX
  8
E20LXLIFT
 62
11
 10
241.429
 20
-1521.762
 30
3236.000
 70
    32
  0
VERTEX
  8
E20LXLIFT
 62
11
 10
233.016
 20
-1525.512
 30
3236.000
 70
    32
  0
VERTEX
  8
E20LXLIFT
 62
11
 10
229.291
 20
-1533.537
 30
3236.000
 70
    32
  0
VERTEX
  8
E20LXLIFT
 62
11
 10
235.823
 20
-1547.785
 30
3236.000
 70
    32
  0
VERTEX
  8
E20LXLIFT
 62
11
 10
247.066
 20
-1559.224
 30
3236.000
 70
    32
  0
VERTEX
  8
E20LXLIFT
 62
11
 10
256.641
 20
-1578.778
 30
3236.000
 70
    32
  0
VERTEX
  8
E20LXLIFT
 62
11
 10
258.988
 20
-1587.816
 30
3236.000
 70
    32
  0
VERTEX
  8
E20LXLIFT
 62
11
 10
251.568
 20
-1600.420
 30
3236.000
 70
    32
  0
VERTEX
  8
E20LXLIFT
 62
11
 10
245.320
 20
-1612.242
 30
3236.000
 70
    32
  0
VERTEX
  8
E20LXLIFT
 62
11
 10
256.857
 20
-1625.665
 30
3236.000
 70
    32
  0
VERTEX
  8
E20LXLIFT
 62
11
 10
271.623
 20
-1635.638
 30
3236.000
 70
    32
  0
VERTEX
  8
E20LXLIFT
 62
11
 10
282.946
 20
-1635.859
 30
3236.000
 70
    32
  0
VERTEX
  8
E20LXLIFT
 62
11
 10
291.761
 20
-1629.153
 30
3236.000
 70
    32
  0
VERTEX
  8
E20LXLIFT
 62
11
 10
289.055
 20
-1613.982
 30
3236.000
 70
    32
  0
VERTEX
  8
E20LXLIFT
 62
11
 10
280.204
 20
-1597.411
 30
3236.000
 70
    32
  0
VERTEX
  8
E20LXLIFT
 62
11
 10
271.214
 20
-1583.707
 30
3236.000
 70
    32
  0
VERTEX
  8
E20LXLIFT
 62
11
 10
265.626
 20
-1566.199
 30
3236.000
 70
    32
  0
VERTEX
  8
E20LXLIFT
 62
11
 10
259.166
 20
-1549.577
 30
3236.000
 70
    32
  0
SEQEND
  8
E20LXLIFT
  0
POLYLINE
  8
E20LXLIFT
 62
13
 66
     1
 70
     9
  0
VERTEX
  8
E20LXLIFT
 62
13
 10
215.860
 20
-2338.763
 30
3227.000
 70
    32
  0
VERTEX
  8
E20LXLIFT
 62
13
 10
183.985
 20
-2359.146
 30
3227.000
 70
    32
  0
VERTEX
  8
E20LXLIFT
 62
13
 10
177.482
 20
-2364.536
 30
3227.000
 70
    32
  0
VERTEX
  8
E20LXLIFT
 62
13
 10
179.162
 20
-2376.180
 30
3227.000
 70
    32
  0
VERTEX
  8
E20LXLIFT
 62
13
 10
178.425
 20
-2381.600
 30
3227.000
 70
    32
  0
VERTEX
  8
E20LXLIFT
 62
13
 10
168.187
 20
-2385.855
 30
3227.000
 70
    32
  0
VERTEX
  8
E20LXLIFT
 62
13
 10
161.333
 20
-2388.750
 30
3227.000
 70
    32
  0
VERTEX
  8
E20LXLIFT
 62
13
 10
153.065
 20
-2380.350
 30
3227.000
 70
    32
  0
VERTEX
  8
E20LXLIFT
 62
13
 10
146.599
 20
-2370.690
 30
3227.000
 70
    32
  0
VERTEX
  8
E20LXLIFT
 62
13
 10
152.912
 20
-2365.776
 30
3227.000
 70
    32
  0
VERTEX
  8
E20LXLIFT
 62
13
 10
158.310
 20
-2360.676
 30
3227.000
 70
    32
  0
VERTEX
  8
E20LXLIFT
 62
13
 10
153.769
 20
-2354.853
 30
3227.000
 70
    32
  0
VERTEX
  8
E20LXLIFT
 62
13
 10
144.958
 20
-2351.837
 30
3227.000
 70
    32
  0
VERTEX
  8
E20LXLIFT
 62
13
 10
136.591
 20
-2346.936
 30
3227.000
 70
    32
  0
VERTEX
  8
E20LXLIFT
 62
13
 10
129.864
 20
-2335.045
 30
3227.000
 70
    32
  0
VERTEX
  8
E20LXLIFT
 62
13
 10
126.980
 20
-2327.188
 30
3227.000
 70
    32
  0
VERTEX
  8
E20LXLIFT
 62
13
 10
127.461
 20
-2320.416
 30
3227.000
 70
    32
  0
VERTEX
  8
E20LXLIFT
 62
13
 10
120.286
 20
-2315.051
 30
3227.000
 70
    32
  0
VERTEX
  8
E20LXLIFT
 62
13
 10
100.075
 20
-2310.988
 30
3227.000
 70
    32
  0
VERTEX
  8
E20LXLIFT
 62
13
 10
84.200
 20
-2311.026
 30
3227.000
 70
    32
  0
VERTEX
  8
E20LXLIFT
 62
13
 10
75.259
 20
-2312.195
 30
3227.000
 70
    32
  0
VERTEX
  8
E20LXLIFT
 62
13
 10
68.904
 20
-2316.036
 30
3227.000
 70
    32
  0
VERTEX
  8
E20LXLIFT
 62
13
 10
60.703
 20
-2312.224
 30
3227.000
 70
    32
  0
VERTEX
  8
E20LXLIFT
 62
13
 10
56.308
 20
-2307.174
 30
3227.000
 70
    32
  0
VERTEX
  8
E20LXLIFT
 62
13
 10
53.114
 20
-2308.057
 30
3227.000
 70
    32
  0
VERTEX
  8
E20LXLIFT
 62
13
 10
50.163
 20
-2305.774
 30
3227.000
 70
    32
  0
VERTEX
  8
E20LXLIFT
 62
13
 10
51.476
 20
-2294.724
 30
3227.000
 70
    32
  0
VERTEX
  8
E20LXLIFT
 62
13
 10
54.497
 20
-2284.032
 30
3227.000
 70
    32
  0
VERTEX
  8
E20LXLIFT
 62
13
 10
66.336
 20
-2274.914
 30
3227.000
 70
    32
  0
VERTEX
  8
E20LXLIFT
 62
13
 10
70.744
 20
-2276.642
 30
3227.000
 70
    32
  0
VERTEX
  8
E20LXLIFT
 62
13
 10
76.543
 20
-2286.588
 30
3227.000
 70
    32
  0
VERTEX
  8
E20LXLIFT
 62
13
 10
88.636
 20
-2296.386
 30
3227.000
 70
    32
  0
VERTEX
  8
E20LXLIFT
 62
13
 10
99.302
 20
-2303.292
 30
3227.000
 70
    32
  0
VERTEX
  8
E20LXLIFT
 62
13
 10
112.642
 20
-2305.293
 30
3227.000
 70
    32
  0
VERTEX
  8
E20LXLIFT
 62
13
 10
129.234
 20
-2299.518
 30
3227.000
 70
    32
  0
VERTEX
  8
E20LXLIFT
 62
13
 10
139.054
 20
-2306.184
 30
3227.000
 70
    32
  0
VERTEX
  8
E20LXLIFT
 62
13
 10
147.852
 20
-2309.763
 30
3227.000
 70
    32
  0
VERTEX
  8
E20LXLIFT
 62
13
 10
156.493
 20
-2308.491
 30
3227.000
 70
    32
  0
VERTEX
  8
E20LXLIFT
 62
13
 10
153.067
 20
-2298.616
 30
3227.000
 70
    32
  0
VERTEX
  8
E20LXLIFT
 62
13
 10
142.195
 20
-2282.147
 30
3227.000
 70
    32
  0
VERTEX
  8
E20LXLIFT
 62
13
 10
132.788
 20
-2269.202
 30
3227.000
 70
    32
  0
VERTEX
  8
E20LXLIFT
 62
13
 10
120.412
 20
-2251.337
 30
3227.000
 70
    32
  0
VERTEX
  8
E20LXLIFT
 62
13
 10
132.908
 20
-2245.696
 30
3227.000
 70
    32
  0
VERTEX
  8
E20LXLIFT
 62
13
 10
139.541
 20
-2254.124
 30
3227.000
 70
    32
  0
VERTEX
  8
E20LXLIFT
 62
13
 10
146.397
 20
-2259.070
 30
3227.000
 70
    32
  0
VERTEX
  8
E20LXLIFT
 62
13
 10
148.642
 20
-2266.087
 30
3227.000
 70
    32
  0
VERTEX
  8
E20LXLIFT
 62
13
 10
153.352
 20
-2273.439
 30
3227.000
 70
    32
  0
VERTEX
  8
E20LXLIFT
 62
13
 10
159.465
 20
-2277.845
 30
3227.000
 70
    32
  0
VERTEX
  8
E20LXLIFT
 62
13
 10
164.433
 20
-2286.988
 30
3227.000
 70
    32
  0
VERTEX
  8
E20LXLIFT
 62
13
 10
169.919
 20
-2297.393
 30
3227.000
 70
    32
  0
VERTEX
  8
E20LXLIFT
 62
13
 10
178.594
 20
-2308.797
 30
3227.000
 70
    32
  0
VERTEX
  8
E20LXLIFT
 62
13
 10
188.617
 20
-2316.745
 30
3227.000
 70
    32
  0
VERTEX
  8
E20LXLIFT
 62
13
 10
206.180
 20
-2321.828
 30
3227.000
 70
    32
  0
VERTEX
  8
E20LXLIFT
 62
13
 10
212.829
 20
-2322.292
 30
3227.000
 70
    32
  0
SEQEND
  8
E20LXLIFT
  0
POLYLINE
  8
E20LXLIFT
 62
7
 66
     1
 70
     9
  0
VERTEX
  8
E20LXLIFT
 62
7
 10
-127.044
 20
-1000.669
 30
3222.000
 70
    32
  0
VERTEX
  8
E20LXLIFT
 62
7
 10
-127.449
 20
-996.067
 30
3222.000
 70
    32
  0
VERTEX
  8
E20LXLIFT
 62
7
 10
-131.187
 20
-989.424
 30
3222.000
 70
    32
  0
VERTEX
  8
E20LXLIFT
 62
7
 10
-138.573
 20
-979.555
 30
3222.000
 70
    32
  0
VERTEX
  8
E20LXLIFT
 62
7
 10
-135.565
 20
-970.515
 30
3222.000
 70
    32
  0
VERTEX
  8
E20LXLIFT
 62
7
 10
-139.981
 20
-962.189
 30
3222.000
 70
    32
  0
VERTEX
  8
E20LXLIFT
 62
7
 10
-135.692
 20
-953.414
 30
3222.000
 70
    32
  0
VERTEX
  8
E20LXLIFT
 62
7
 10
-136.561
 20
-944.579
 30
3222.000
 70
    32
  0
VERTEX
  8
E20LXLIFT
 62
7
 10
-133.022
 20
-936.568
 30
3222.000
 70
    32
  0
VERTEX
  8
E20LXLIFT
 62
7
 10
-122.780
 20
-932.392
 30
3222.000
 70
    32
  0
VERTEX
  8
E20LXLIFT
 62
7
 10
-111.182
 20
-933.978
 30
3222.000
 70
    32
  0
VERTEX
  8
E20LXLIFT
 62
7
 10
-99.243
 20
-938.580
 30
3222.000
 70
    32
  0
VERTEX
  8
E20LXLIFT
 62
7
 10
-89.674
 20
-945.012
 30
3222.000
 70
    32
  0
VERTEX
  8
E20LXLIFT
 62
7
 10
-83.331
 20
-958.686
 30
3222.000
 70
    32
  0
VERTEX
  8
E20LXLIFT
 62
7
 10
-90.382
 20
-962.611
 30
3222.000
 70
    32
  0
VERTEX
  8
E20LXLIFT
 62
7
 10
-97.570
 20
-968.594
 30
3222.000
 70
    32
  0
VERTEX
  8
E20LXLIFT
 62
7
 10
-104.375
 20
-973.755
 30
3222.000
 70
    32
  0
VERTEX
  8
E20LXLIFT
 62
7
 10
-103.680
 20
-980.105
 30
3222.000
 70
    32
  0
VERTEX
  8
E20LXLIFT
 62
7
 10
-101.433
 20
-989.789
 30
3222.000
 70
    32
  0
VERTEX
  8
E20LXLIFT
 62
7
 10
-108.488
 20
-1002.096
 30
3222.000
 70
    32
  0
VERTEX
  8
E20LXLIFT
 62
7
 10
-114.466
 20
-1008.397
 30
3222.000
 70
    32
  0
SEQEND
  8
E20LXLIFT
  0
POLYLINE
  8
E20LXLIFT
 62
27
 66
     1
 70
     9
  0
VERTEX
  8
E20LXLIFT
 62
27
 10
-192.504
 20
-911.007
 30
3235.000
 70
    32
  0
VERTEX
  8
E20LXLIFT
 62
27
 10
-193.096
 20
-903.603
 30
3235.000
 70
    32
  0
VERTEX
  8
E20LXLIFT
 62
27
 10
-205.916
 20
-900.184
 30
3235.000
 70
    32
  0
VERTEX
  8
E20LXLIFT
 62
27
 10
-215.015
 20
-897.545
 30
3235.000
 70
    32
  0
VERTEX
  8
E20LXLIFT
 62
27
 10
-215.153
 20
-889.267
 30
3235.000
 70
    32
  0
VERTEX
  8
E20LXLIFT
 62
27
 10
-212.643
 20
-879.391
 30
3235.000
 70
    32
  0
VERTEX
  8
E20LXLIFT
 62
27
 10
-205.344
 20
-883.447
 30
3235.000
 70
    32
  0
VERTEX
  8
E20LXLIFT
 62
27
 10
-200.115
 20
-885.851
 30
3235.000
 70
    32
  0
VERTEX
  8
E20LXLIFT
 62
27
 10
-197.823
 20
-883.315
 30
3235.000
 70
    32
  0
VERTEX
  8
E20LXLIFT
 62
27
 10
-193.640
 20
-880.385
 30
3235.000
 70
    32
  0
VERTEX
  8
E20LXLIFT
 62
27
 10
-191.416
 20
-874.309
 30
3235.000
 70
    32
  0
VERTEX
  8
E20LXLIFT
 62
27
 10
-186.699
 20
-865.224
 30
3235.000
 70
    32
  0
VERTEX
  8
E20LXLIFT
 62
27
 10
-179.960
 20
-863.266
 30
3235.000
 70
    32
  0
VERTEX
  8
E20LXLIFT
 62
27
 10
-168.801
 20
-862.450
 30
3235.000
 70
    32
  0
VERTEX
  8
E20LXLIFT
 62
27
 10
-159.171
 20
-863.724
 30
3235.000
 70
    32
  0
VERTEX
  8
E20LXLIFT
 62
27
 10
-147.929
 20
-854.034
 30
3235.000
 70
    32
  0
VERTEX
  8
E20LXLIFT
 62
27
 10
-136.592
 20
-858.856
 30
3235.000
 70
    32
  0
VERTEX
  8
E20LXLIFT
 62
27
 10
-113.087
 20
-890.312
 30
3235.000
 70
    32
  0
VERTEX
  8
E20LXLIFT
 62
27
 10
-105.203
 20
-901.016
 30
3235.000
 70
    32
  0
VERTEX
  8
E20LXLIFT
 62
27
 10
-105.571
 20
-911.294
 30
3235.000
 70
    32
  0
VERTEX
  8
E20LXLIFT
 62
27
 10
-112.605
 20
-919.886
 30
3235.000
 70
    32
  0
VERTEX
  8
E20LXLIFT
 62
27
 10
-121.633
 20
-917.195
 30
3235.000
 70
    32
  0
VERTEX
  8
E20LXLIFT
 62
27
 10
-125.127
 20
-926.915
 30
3235.000
 70
    32
  0
VERTEX
  8
E20LXLIFT
 62
27
 10
-130.197
 20
-931.469
 30
3235.000
 70
    32
  0
VERTEX
  8
E20LXLIFT
 62
27
 10
-139.376
 20
-931.716
 30
3235.000
 70
    32
  0
VERTEX
  8
E20LXLIFT
 62
27
 10
-149.915
 20
-924.248
 30
3235.000
 70
    32
  0
VERTEX
  8
E20LXLIFT
 62
27
 10
-156.388
 20
-924.924
 30
3235.000
 70
    32
  0
VERTEX
  8
E20LXLIFT
 62
27
 10
-167.007
 20
-930.679
 30
3235.000
 70
    32
  0
VERTEX
  8
E20LXLIFT
 62
27
 10
-183.374
 20
-916.236
 30
3235.000
 70
    32
  0
SEQEND
  8
E20LXLIFT
  0
POLYLINE
  8
E20LXLIFT
 62
8
 66
     1
 70
     9
  0
VERTEX
  8
E20LXLIFT
 62
8
 10
-259.793
 20
-779.584
 30
3235.000
 70
    32
  0
VERTEX
  8
E20LXLIFT
 62
8
 10
-259.120
 20
-767.778
 30
3235.000
 70
    32
  0
VERTEX
  8
E20LXLIFT
 62
8
 10
-258.557
 20
-756.271
 30
3235.000
 70
    32
  0
VERTEX
  8
E20LXLIFT
 62
8
 10
-260.974
 20
-749.648
 30
3235.000
 70
    32
  0
VERTEX
  8
E20LXLIFT
 62
8
 10
-257.488
 20
-742.763
 30
3235.000
 70
    32
  0
VERTEX
  8
E20LXLIFT
 62
8
 10
-254.231
 20
-740.506
 30
3235.000
 70
    32
  0
VERTEX
  8
E20LXLIFT
 62
8
 10
-247.856
 20
-740.444
 30
3235.000
 70
    32
  0
VERTEX
  8
E20LXLIFT
 62
8
 10
-244.091
 20
-732.595
 30
3235.000
 70
    32
  0
VERTEX
  8
E20LXLIFT
 62
8
 10
-241.167
 20
-723.289
 30
3235.000
 70
    32
  0
VERTEX
  8
E20LXLIFT
 62
8
 10
-230.442
 20
-724.421
 30
3235.000
 70
    32
  0
VERTEX
  8
E20LXLIFT
 62
8
 10
-230.523
 20
-730.900
 30
3235.000
 70
    32
  0
VERTEX
  8
E20LXLIFT
 62
8
 10
-222.741
 20
-739.066
 30
3235.000
 70
    32
  0
VERTEX
  8
E20LXLIFT
 62
8
 10
-218.939
 20
-746.098
 30
3235.000
 70
    32
  0
VERTEX
  8
E20LXLIFT
 62
8
 10
-217.573
 20
-756.966
 30
3235.000
 70
    32
  0
VERTEX
  8
E20LXLIFT
 62
8
 10
-216.214
 20
-769.472
 30
3235.000
 70
    32
  0
VERTEX
  8
E20LXLIFT
 62
8
 10
-220.249
 20
-774.253
 30
3235.000
 70
    32
  0
VERTEX
  8
E20LXLIFT
 62
8
 10
-221.326
 20
-779.061
 30
3235.000
 70
    32
  0
VERTEX
  8
E20LXLIFT
 62
8
 10
-217.808
 20
-783.905
 30
3235.000
 70
    32
  0
VERTEX
  8
E20LXLIFT
 62
8
 10
-215.734
 20
-791.103
 30
3235.000
 70
    32
  0
VERTEX
  8
E20LXLIFT
 62
8
 10
-220.507
 20
-795.767
 30
3235.000
 70
    32
  0
VERTEX
  8
E20LXLIFT
 62
8
 10
-225.990
 20
-798.554
 30
3235.000
 70
    32
  0
VERTEX
  8
E20LXLIFT
 62
8
 10
-233.639
 20
-794.317
 30
3235.000
 70
    32
  0
VERTEX
  8
E20LXLIFT
 62
8
 10
-237.723
 20
-782.703
 30
3235.000
 70
    32
  0
VERTEX
  8
E20LXLIFT
 62
8
 10
-245.846
 20
-781.857
 30
3235.000
 70
    32
  0
SEQEND
  8
E20LXLIFT
  0
POLYLINE
  8
E20LXLIFT
 62
6
 66
     1
 70
     9
  0
VERTEX
  8
E20LXLIFT
 62
6
 10
-263.063
 20
-877.007
 30
3307.000
 70
    32
  0
VERTEX
  8
E20LXLIFT
 62
6
 10
-259.621
 20
-874.706
 30
3307.000
 70
    32
  0
VERTEX
  8
E20LXLIFT
 62
6
 10
-256.841
 20
-867.328
 30
3307.000
 70
    32
  0
VERTEX
  8
E20LXLIFT
 62
6
 10
-250.646
 20
-865.958
 30
3307.000
 70
    32
  0
VERTEX
  8
E20LXLIFT
 62
6
 10
-241.227
 20
-862.883
 30
3307.000
 70
    32
  0
VERTEX
  8
E20LXLIFT
 62
6
 10
-233.242
 20
-854.422
 30
3307.000
 70
    32
  0
VERTEX
  8
E20LXLIFT
 62
6
 10
-226.275
 20
-851.723
 30
3307.000
 70
    32
  0
VERTEX
  8
E20LXLIFT
 62
6
 10
-215.649
 20
-847.765
 30
3307.000
 70
    32
  0
VERTEX
  8
E20LXLIFT
 62
6
 10
-203.084
 20
-849.585
 30
3307.000
 70
    32
  0
VERTEX
  8
E20LXLIFT
 62
6
 10
-195.364
 20
-850.151
 30
3307.000
 70
    32
  0
VERTEX
  8
E20LXLIFT
 62
6
 10
-186.665
 20
-861.889
 30
3307.000
 70
    32
  0
VERTEX
  8
E20LXLIFT
 62
6
 10
-189.740
 20
-865.884
 30
3307.000
 70
    32
  0
VERTEX
  8
E20LXLIFT
 62
6
 10
-197.201
 20
-870.144
 30
3307.000
 70
    32
  0
VERTEX
  8
E20LXLIFT
 62
6
 10
-198.933
 20
-879.699
 30
3307.000
 70
    32
  0
VERTEX
  8
E20LXLIFT
 62
6
 10
-200.012
 20
-889.104
 30
3307.000
 70
    32
  0
VERTEX
  8
E20LXLIFT
 62
6
 10
-209.523
 20
-893.991
 30
3307.000
 70
    32
  0
VERTEX
  8
E20LXLIFT
 62
6
 10
-219.946
 20
-898.673
 30
3307.000
 70
    32
  0
VERTEX
  8
E20LXLIFT
 62
6
 10
-231.420
 20
-899.981
 30
3307.000
 70
    32
  0
VERTEX
  8
E20LXLIFT
 62
6
 10
-243.060
 20
-895.848
 30
3307.000
 70
    32
  0
VERTEX
  8
E20LXLIFT
 62
6
 10
-256.381
 20
-889.566
 30
3307.000
 70
    32
  0
SEQEND
  8
E20LXLIFT
  0
POLYLINE
  8
E20LXLIFT
 62
11
 66
     1
 70
     9
  0
VERTEX
  8
E20LXLIFT
 62
11
 10
219.709
 20
-1543.295
 30
3247.000
 70
    32
  0
VERTEX
  8
E20LXLIFT
 62
11
 10
226.476
 20
-1545.824
 30
3247.000
 70
    32
  0
VERTEX
  8
E20LXLIFT
 62
11
 10
228.392
 20
-1543.104
 30
3247.000
 70
    32
  0
VERTEX
  8
E20LXLIFT
 62
11
 10
222.451
 20
-1536.372
 30
3247.000
 70
    32
  0
VERTEX
  8
E20LXLIFT
 62
11
 10
221.536
 20
-1528.332
 30
3247.000
 70
    32
  0
VERTEX
  8
E20LXLIFT
 62
11
 10
231.760
 20
-1524.173
 30
3247.000
 70
    32
  0
VERTEX
  8
E20LXLIFT
 62
11
 10
237.701
 20
-1522.627
 30
3247.000
 70
    32
  0
VERTEX
  8
E20LXLIFT
 62
11
 10
245.995
 20
-1531.220
 30
3247.000
 70
    32
  0
VERTEX
  8
E20LXLIFT
 62
11
 10
252.443
 20
-1542.481
 30
3247.000
 70
    32
  0
VERTEX
  8
E20LXLIFT
 62
11
 10
256.289
 20
-1552.282
 30
3247.000
 70
    32
  0
VERTEX
  8
E20LXLIFT
 62
11
 10
246.611
 20
-1556.147
 30
3247.000
 70
    32
  0
VERTEX
  8
E20LXLIFT
 62
11
 10
237.823
 20
-1549.988
 30
3247.000
 70
    32
  0
VERTEX
  8
E20LXLIFT
 62
11
 10
234.131
 20
-1555.324
 30
3247.000
 70
    32
  0
VERTEX
  8
E20LXLIFT
 62
11
 10
239.813
 20
-1565.842
 30
3247.000
 70
    32
  0
VERTEX
  8
E20LXLIFT
 62
11
 10
251.191
 20
-1578.915
 30
3247.000
 70
    32
  0
VERTEX
  8
E20LXLIFT
 62
11
 10
263.547
 20
-1592.575
 30
3247.000
 70
    32
  0
VERTEX
  8
E20LXLIFT
 62
11
 10
272.897
 20
-1602.896
 30
3247.000
 70
    32
  0
VERTEX
  8
E20LXLIFT
 62
11
 10
282.881
 20
-1612.748
 30
3247.000
 70
    32
  0
VERTEX
  8
E20LXLIFT
 62
11
 10
288.107
 20
-1623.385
 30
3247.000
 70
    32
  0
VERTEX
  8
E20LXLIFT
 62
11
 10
281.796
 20
-1635.661
 30
3247.000
 70
    32
  0
VERTEX
  8
E20LXLIFT
 62
11
 10
271.118
 20
-1643.640
 30
3247.000
 70
    32
  0
VERTEX
  8
E20LXLIFT
 62
11
 10
260.540
 20
-1639.781
 30
3247.000
 70
    32
  0
VERTEX
  8
E20LXLIFT
 62
11
 10
251.859
 20
-1627.116
 30
3247.000
 70
    32
  0
VERTEX
  8
E20LXLIFT
 62
11
 10
244.508
 20
-1612.708
 30
3247.000
 70
    32
  0
VERTEX
  8
E20LXLIFT
 62
11
 10
234.511
 20
-1595.893
 30
3247.000
 70
    32
  0
VERTEX
  8
E20LXLIFT
 62
11
 10
224.904
 20
-1578.573
 30
3247.000
 70
    32
  0
VERTEX
  8
E20LXLIFT
 62
11
 10
216.220
 20
-1564.277
 30
3247.000
 70
    32
  0
VERTEX
  8
E20LXLIFT
 62
11
 10
210.511
 20
-1552.689
 30
3247.000
 70
    32
  0
VERTEX
  8
E20LXLIFT
 62
11
 10
209.180
 20
-1548.223
 30
3247.000
 70
    32
  0
SEQEND
  8
E20LXLIFT
  0
POLYLINE
  8
E20LXLIFT
 62
6
 66
     1
 70
     9
  0
VERTEX
  8
E20LXLIFT
 62
6
 10
331.975
 20
-1738.329
 30
3242.000
 70
    32
  0
VERTEX
  8
E20LXLIFT
 62
6
 10
331.480
 20
-1730.415
 30
3242.000
 70
    32
  0
VERTEX
  8
E20LXLIFT
 62
6
 10
327.666
 20
-1718.737
 30
3242.000
 70
    32
  0
VERTEX
  8
E20LXLIFT
 62
6
 10
317.220
 20
-1703.234
 30
3242.000
 70
    32
  0
VERTEX
  8
E20LXLIFT
 62
6
 10
307.844
 20
-1685.635
 30
3242.000
 70
    32
  0
VERTEX
  8
E20LXLIFT
 62
6
 10
297.951
 20
-1671.031
 30
3242.000
 70
    32
  0
VERTEX
  8
E20LXLIFT
 62
6
 10
288.312
 20
-1659.726
 30
3242.000
 70
    32
  0
VERTEX
  8
E20LXLIFT
 62
6
 10
296.262
 20
-1648.638
 30
3242.000
 70
    32
  0
VERTEX
  8
E20LXLIFT
 62
6
 10
303.021
 20
-1652.044
 30
3242.000
 70
    32
  0
VERTEX
  8
E20LXLIFT
 62
6
 10
310.467
 20
-1659.192
 30
3242.000
 70
    32
  0
VERTEX
  8
E20LXLIFT
 62
6
 10
321.619
 20
-1672.105
 30
3242.000
 70
    32
  0
VERTEX
  8
E20LXLIFT
 62
6
 10
338.222
 20
-1685.468
 30
3242.000
 70
    32
  0
VERTEX
  8
E20LXLIFT
 62
6
 10
344.963
 20
-1695.205
 30
3242.000
 70
    32
  0
VERTEX
  8
E20LXLIFT
 62
6
 10
348.936
 20
-1708.725
 30
3242.000
 70
    32
  0
VERTEX
  8
E20LXLIFT
 62
6
 10
357.695
 20
-1722.531
 30
3242.000
 70
    32
  0
VERTEX
  8
E20LXLIFT
 62
6
 10
369.869
 20
-1734.909
 30
3242.000
 70
    32
  0
VERTEX
  8
E20LXLIFT
 62
6
 10
381.146
 20
-1741.194
 30
3242.000
 70
    32
  0
VERTEX
  8
E20LXLIFT
 62
6
 10
384.730
 20
-1755.220
 30
3242.000
 70
    32
  0
VERTEX
  8
E20LXLIFT
 62
6
 10
389.966
 20
-1766.611
 30
3242.000
 70
    32
  0
VERTEX
  8
E20LXLIFT
 62
6
 10
385.007
 20
-1770.375
 30
3242.000
 70
    32
  0
VERTEX
  8
E20LXLIFT
 62
6
 10
375.963
 20
-1771.703
 30
3242.000
 70
    32
  0
VERTEX
  8
E20LXLIFT
 62
6
 10
365.693
 20
-1766.636
 30
3242.000
 70
    32
  0
VERTEX
  8
E20LXLIFT
 62
6
 10
354.052
 20
-1766.066
 30
3242.000
 70
    32
  0
VERTEX
  8
E20LXLIFT
 62
6
 10
346.279
 20
-1760.248
 30
3242.000
 70
    32
  0
VERTEX
  8
E20LXLIFT
 62
6
 10
333.021
 20
-1751.719
 30
3242.000
 70
    32
  0
SEQEND
  8
E20LXLIFT
  0
POLYLINE
  8
E20LXLIFT
 62
27
 66
     1
 70
     9
  0
VERTEX
  8
E20LXLIFT
 62
27
 10
515.599
 20
-2102.010
 30
3244.000
 70
    32
  0
VERTEX
  8
E20LXLIFT
 62
27
 10
527.630
 20
-2102.076
 30
3244.000
 70
    32
  0
VERTEX
  8
E20LXLIFT
 62
27
 10
541.627
 20
-2108.208
 30
3244.000
 70
    32
  0
VERTEX
  8
E20LXLIFT
 62
27
 10
549.352
 20
-2109.378
 30
3244.000
 70
    32
  0
VERTEX
  8
E20LXLIFT
 62
27
 10
548.886
 20
-2100.026
 30
3244.000
 70
    32
  0
VERTEX
  8
E20LXLIFT
 62
27
 10
546.422
 20
-2092.692
 30
3244.000
 70
    32
  0
VERTEX
  8
E20LXLIFT
 62
27
 10
546.733
 20
-2086.907
 30
3244.000
 70
    32
  0
VERTEX
  8
E20LXLIFT
 62
27
 10
552.978
 20
-2082.522
 30
3244.000
 70
    32
  0
VERTEX
  8
E20LXLIFT
 62
27
 10
563.402
 20
-2092.377
 30
3244.000
 70
    32
  0
VERTEX
  8
E20LXLIFT
 62
27
 10
571.294
 20
-2100.721
 30
3244.000
 70
    32
  0
VERTEX
  8
E20LXLIFT
 62
27
 10
570.059
 20
-2118.407
 30
3244.000
 70
    32
  0
VERTEX
  8
E20LXLIFT
 62
27
 10
570.158
 20
-2131.842
 30
3244.000
 70
    32
  0
VERTEX
  8
E20LXLIFT
 62
27
 10
563.653
 20
-2142.083
 30
3244.000
 70
    32
  0
VERTEX
  8
E20LXLIFT
 62
27
 10
554.696
 20
-2149.883
 30
3244.000
 70
    32
  0
VERTEX
  8
E20LXLIFT
 62
27
 10
547.714
 20
-2147.948
 30
3244.000
 70
    32
  0
VERTEX
  8
E20LXLIFT
 62
27
 10
531.655
 20
-2143.009
 30
3244.000
 70
    32
  0
VERTEX
  8
E20LXLIFT
 62
27
 10
520.360
 20
-2138.916
 30
3244.000
 70
    32
  0
VERTEX
  8
E20LXLIFT
 62
27
 10
514.730
 20
-2132.607
 30
3244.000
 70
    32
  0
VERTEX
  8
E20LXLIFT
 62
27
 10
514.204
 20
-2117.853
 30
3244.000
 70
    32
  0
SEQEND
  8
E20LXLIFT
  0
POLYLINE
  8
E20LXLIFT
 62
11
 66
     1
 70
     9
  0
VERTEX
  8
E20LXLIFT
 62
11
 10
292.404
 20
-1624.087
 30
3258.000
 70
    32
  0
VERTEX
  8
E20LXLIFT
 62
11
 10
282.973
 20
-1604.105
 30
3258.000
 70
    32
  0
VERTEX
  8
E20LXLIFT
 62
11
 10
272.874
 20
-1597.465
 30
3258.000
 70
    32
  0
VERTEX
  8
E20LXLIFT
 62
11
 10
265.016
 20
-1588.091
 30
3258.000
 70
    32
  0
VERTEX
  8
E20LXLIFT
 62
11
 10
258.376
 20
-1574.883
 30
3258.000
 70
    32
  0
VERTEX
  8
E20LXLIFT
 62
11
 10
255.589
 20
-1562.770
 30
3258.000
 70
    32
  0
VERTEX
  8
E20LXLIFT
 62
11
 10
254.610
 20
-1550.746
 30
3258.000
 70
    32
  0
VERTEX
  8
E20LXLIFT
 62
11
 10
248.343
 20
-1538.789
 30
3258.000
 70
    32
  0
VERTEX
  8
E20LXLIFT
 62
11
 10
243.317
 20
-1522.437
 30
3258.000
 70
    32
  0
VERTEX
  8
E20LXLIFT
 62
11
 10
230.085
 20
-1524.738
 30
3258.000
 70
    32
  0
VERTEX
  8
E20LXLIFT
 62
11
 10
218.732
 20
-1530.344
 30
3258.000
 70
    32
  0
VERTEX
  8
E20LXLIFT
 62
11
 10
206.876
 20
-1518.785
 30
3258.000
 70
    32
  0
VERTEX
  8
E20LXLIFT
 62
11
 10
202.415
 20
-1522.057
 30
3258.000
 70
    32
  0
VERTEX
  8
E20LXLIFT
 62
11
 10
198.501
 20
-1541.810
 30
3258.000
 70
    32
  0
VERTEX
  8
E20LXLIFT
 62
11
 10
207.076
 20
-1554.687
 30
3258.000
 70
    32
  0
VERTEX
  8
E20LXLIFT
 62
11
 10
217.328
 20
-1570.146
 30
3258.000
 70
    32
  0
VERTEX
  8
E20LXLIFT
 62
11
 10
230.020
 20
-1587.299
 30
3258.000
 70
    32
  0
VERTEX
  8
E20LXLIFT
 62
11
 10
244.026
 20
-1606.539
 30
3258.000
 70
    32
  0
VERTEX
  8
E20LXLIFT
 62
11
 10
255.558
 20
-1625.524
 30
3258.000
 70
    32
  0
VERTEX
  8
E20LXLIFT
 62
11
 10
268.269
 20
-1640.921
 30
3258.000
 70
    32
  0
SEQEND
  8
E20LXLIFT
  0
POLYLINE
  8
E20LXLIFT
 62
6
 66
     1
 70
     9
  0
VERTEX
  8
E20LXLIFT
 62
6
 10
291.992
 20
-1643.122
 30
3246.000
 70
    32
  0
VERTEX
  8
E20LXLIFT
 62
6
 10
302.554
 20
-1654.105
 30
3246.000
 70
    32
  0
VERTEX
  8
E20LXLIFT
 62
6
 10
312.532
 20
-1668.894
 30
3246.000
 70
    32
  0
VERTEX
  8
E20LXLIFT
 62
6
 10
326.616
 20
-1679.037
 30
3246.000
 70
    32
  0
VERTEX
  8
E20LXLIFT
 62
6
 10
336.654
 20
-1688.118
 30
3246.000
 70
    32
  0
VERTEX
  8
E20LXLIFT
 62
6
 10
344.111
 20
-1702.142
 30
3246.000
 70
    32
  0
VERTEX
  8
E20LXLIFT
 62
6
 10
345.511
 20
-1717.560
 30
3246.000
 70
    32
  0
VERTEX
  8
E20LXLIFT
 62
6
 10
344.050
 20
-1727.890
 30
3246.000
 70
    32
  0
VERTEX
  8
E20LXLIFT
 62
6
 10
343.729
 20
-1728.343
 30
3246.000
 70
    32
  0
VERTEX
  8
E20LXLIFT
 62
6
 10
334.581
 20
-1734.727
 30
3246.000
 70
    32
  0
VERTEX
  8
E20LXLIFT
 62
6
 10
328.041
 20
-1727.000
 30
3246.000
 70
    32
  0
VERTEX
  8
E20LXLIFT
 62
6
 10
319.801
 20
-1712.353
 30
3246.000
 70
    32
  0
VERTEX
  8
E20LXLIFT
 62
6
 10
313.231
 20
-1699.093
 30
3246.000
 70
    32
  0
VERTEX
  8
E20LXLIFT
 62
6
 10
303.146
 20
-1689.502
 30
3246.000
 70
    32
  0
VERTEX
  8
E20LXLIFT
 62
6
 10
293.589
 20
-1678.108
 30
3246.000
 70
    32
  0
VERTEX
  8
E20LXLIFT
 62
6
 10
290.168
 20
-1662.756
 30
3246.000
 70
    32
  0
VERTEX
  8
E20LXLIFT
 62
6
 10
283.137
 20
-1651.687
 30
3246.000
 70
    32
  0
SEQEND
  8
E20LXLIFT
  0
POLYLINE
  8
E20LXLIFT
 62
8
 66
     1
 70
     9
  0
VERTEX
  8
E20LXLIFT
 62
8
 10
215.195
 20
-1657.204
 30
3253.000
 70
    32
  0
VERTEX
  8
E20LXLIFT
 62
8
 10
221.964
 20
-1676.525
 30
3253.000
 70
    32
  0
VERTEX
  8
E20LXLIFT
 62
8
 10
227.551
 20
-1691.267
 30
3253.000
 70
    32
  0
VERTEX
  8
E20LXLIFT
 62
8
 10
236.165
 20
-1707.165
 30
3253.000
 70
    32
  0
VERTEX
  8
E20LXLIFT
 62
8
 10
239.401
 20
-1720.039
 30
3253.000
 70
    32
  0
VERTEX
  8
E20LXLIFT
 62
8
 10
248.335
 20
-1732.217
 30
3253.000
 70
    32
  0
VERTEX
  8
E20LXLIFT
 62
8
 10
240.794
 20
-1747.769
 30
3253.000
 70
    32
  0
VERTEX
  8
E20LXLIFT
 62
8
 10
252.600
 20
-1769.058
 30
3253.000
 70
    32
  0
VERTEX
  8
E20LXLIFT
 62
8
 10
243.513
 20
-1771.368
 30
3253.000
 70
    32
  0
VERTEX
  8
E20LXLIFT
 62
8
 10
240.264
 20
-1764.712
 30
3253.000
 70
    32
  0
VERTEX
  8
E20LXLIFT
 62
8
 10
232.389
 20
-1761.994
 30
3253.000
 70
    32
  0
VERTEX
  8
E20LXLIFT
 62
8
 10
228.081
 20
-1749.145
 30
3253.000
 70
    32
  0
VERTEX
  8
E20LXLIFT
 62
8
 10
224.509
 20
-1734.775
 30
3253.000
 70
    32
  0
VERTEX
  8
E20LXLIFT
 62
8
 10
219.136
 20
-1728.044
 30
3253.000
 70
    32
  0
VERTEX
  8
E20LXLIFT
 62
8
 10
209.218
 20
-1732.488
 30
3253.000
 70
    32
  0
VERTEX
  8
E20LXLIFT
 62
8
 10
198.649
 20
-1737.084
 30
3253.000
 70
    32
  0
VERTEX
  8
E20LXLIFT
 62
8
 10
193.365
 20
-1728.544
 30
3253.000
 70
    32
  0
VERTEX
  8
E20LXLIFT
 62
8
 10
195.614
 20
-1715.132
 30
3253.000
 70
    32
  0
VERTEX
  8
E20LXLIFT
 62
8
 10
202.202
 20
-1703.329
 30
3253.000
 70
    32
  0
VERTEX
  8
E20LXLIFT
 62
8
 10
204.584
 20
-1692.324
 30
3253.000
 70
    32
  0
VERTEX
  8
E20LXLIFT
 62
8
 10
198.186
 20
-1681.226
 30
3253.000
 70
    32
  0
VERTEX
  8
E20LXLIFT
 62
8
 10
195.913
 20
-1671.894
 30
3253.000
 70
    32
  0
SEQEND
  8
E20LXLIFT
  0
POLYLINE
  8
E20LXLIFT
 62
27
 66
     1
 70
     9
  0
VERTEX
  8
E20LXLIFT
 62
27
 10
520.125
 20
-2129.867
 30
3253.000
 70
    32
  0
VERTEX
  8
E20LXLIFT
 62
27
 10
514.330
 20
-2119.742
 30
3253.000
 70
    32
  0
VERTEX
  8
E20LXLIFT
 62
27
 10
514.591
 20
-2100.056
 30
3253.000
 70
    32
  0
VERTEX
  8
E20LXLIFT
 62
27
 10
513.304
 20
-2082.268
 30
3253.000
 70
    32
  0
VERTEX
  8
E20LXLIFT
 62
27
 10
511.460
 20
-2065.651
 30
3253.000
 70
    32
  0
VERTEX
  8
E20LXLIFT
 62
27
 10
512.727
 20
-2048.821
 30
3253.000
 70
    32
  0
VERTEX
  8
E20LXLIFT
 62
27
 10
506.427
 20
-2035.037
 30
3253.000
 70
    32
  0
VERTEX
  8
E20LXLIFT
 62
27
 10
500.985
 20
-2019.752
 30
3253.000
 70
    32
  0
VERTEX
  8
E20LXLIFT
 62
27
 10
492.178
 20
-2003.887
 30
3253.000
 70
    32
  0
VERTEX
  8
E20LXLIFT
 62
27
 10
483.668
 20
-1988.130
 30
3253.000
 70
    32
  0
VERTEX
  8
E20LXLIFT
 62
27
 10
476.325
 20
-1973.369
 30
3253.000
 70
    32
  0
VERTEX
  8
E20LXLIFT
 62
27
 10
469.346
 20
-1965.638
 30
3253.000
 70
    32
  0
VERTEX
  8
E20LXLIFT
 62
27
 10
471.497
 20
-1958.178
 30
3253.000
 70
    32
  0
VERTEX
  8
E20LXLIFT
 62
27
 10
467.162
 20
-1947.963
 30
3253.000
 70
    32
  0
VERTEX
  8
E20LXLIFT
 62
27
 10
461.655
 20
-1937.191
 30
3253.000
 70
    32
  0
VERTEX
  8
E20LXLIFT
 62
27
 10
457.452
 20
-1927.750
 30
3253.000
 70
    32
  0
VERTEX
  8
E20LXLIFT
 62
27
 10
463.461
 20
-1922.580
 30
3253.000
 70
    32
  0
VERTEX
  8
E20LXLIFT
 62
27
 10
472.876
 20
-1930.811
 30
3253.000
 70
    32
  0
VERTEX
  8
E20LXLIFT
 62
27
 10
476.786
 20
-1941.338
 30
3253.000
 70
    32
  0
VERTEX
  8
E20LXLIFT
 62
27
 10
480.559
 20
-1941.729
 30
3253.000
 70
    32
  0
VERTEX
  8
E20LXLIFT
 62
27
 10
483.539
 20
-1952.176
 30
3253.000
 70
    32
  0
VERTEX
  8
E20LXLIFT
 62
27
 10
485.113
 20
-1964.417
 30
3253.000
 70
    32
  0
VERTEX
  8
E20LXLIFT
 62
27
 10
489.988
 20
-1980.118
 30
3253.000
 70
    32
  0
VERTEX
  8
E20LXLIFT
 62
27
 10
498.083
 20
-1998.575
 30
3253.000
 70
    32
  0
VERTEX
  8
E20LXLIFT
 62
27
 10
509.818
 20
-2018.282
 30
3253.000
 70
    32
  0
VERTEX
  8
E20LXLIFT
 62
27
 10
515.882
 20
-2032.783
 30
3253.000
 70
    32
  0
VERTEX
  8
E20LXLIFT
 62
27
 10
523.504
 20
-2046.142
 30
3253.000
 70
    32
  0
VERTEX
  8
E20LXLIFT
 62
27
 10
528.297
 20
-2051.339
 30
3253.000
 70
    32
  0
VERTEX
  8
E20LXLIFT
 62
27
 10
533.753
 20
-2048.534
 30
3253.000
 70
    32
  0
VERTEX
  8
E20LXLIFT
 62
27
 10
524.200
 20
-2031.800
 30
3253.000
 70
    32
  0
VERTEX
  8
E20LXLIFT
 62
27
 10
532.173
 20
-2028.565
 30
3253.000
 70
    32
  0
VERTEX
  8
E20LXLIFT
 62
27
 10
539.430
 20
-2036.528
 30
3253.000
 70
    32
  0
VERTEX
  8
E20LXLIFT
 62
27
 10
546.452
 20
-2043.575
 30
3253.000
 70
    32
  0
VERTEX
  8
E20LXLIFT
 62
27
 10
543.924
 20
-2060.023
 30
3253.000
 70
    32
  0
VERTEX
  8
E20LXLIFT
 62
27
 10
545.286
 20
-2074.053
 30
3253.000
 70
    32
  0
VERTEX
  8
E20LXLIFT
 62
27
 10
548.688
 20
-2089.527
 30
3253.000
 70
    32
  0
VERTEX
  8
E20LXLIFT
 62
27
 10
559.303
 20
-2103.848
 30
3253.000
 70
    32
  0
VERTEX
  8
E20LXLIFT
 62
27
 10
564.655
 20
-2120.941
 30
3253.000
 70
    32
  0
VERTEX
  8
E20LXLIFT
 62
27
 10
567.834
 20
-2132.549
 30
3253.000
 70
    32
  0
VERTEX
  8
E20LXLIFT
 62
27
 10
555.849
 20
-2136.550
 30
3253.000
 70
    32
  0
VERTEX
  8
E20LXLIFT
 62
27
 10
538.447
 20
-2132.871
 30
3253.000
 70
    32
  0
SEQEND
  8
E20LXLIFT
  0
POLYLINE
  8
E20LXLIFT
 62
11
 66
     1
 70
     9
  0
VERTEX
  8
E20LXLIFT
 62
11
 10
132.135
 20
-1367.944
 30
3267.000
 70
    32
  0
VERTEX
  8
E20LXLIFT
 62
11
 10
138.562
 20
-1374.233
 30
3267.000
 70
    32
  0
VERTEX
  8
E20LXLIFT
 62
11
 10
151.529
 20
-1372.812
 30
3267.000
 70
    32
  0
VERTEX
  8
E20LXLIFT
 62
11
 10
167.115
 20
-1367.692
 30
3267.000
 70
    32
  0
VERTEX
  8
E20LXLIFT
 62
11
 10
175.119
 20
-1367.112
 30
3267.000
 70
    32
  0
VERTEX
  8
E20LXLIFT
 62
11
 10
176.471
 20
-1379.691
 30
3267.000
 70
    32
  0
VERTEX
  8
E20LXLIFT
 62
11
 10
173.290
 20
-1387.204
 30
3267.000
 70
    32
  0
VERTEX
  8
E20LXLIFT
 62
11
 10
164.864
 20
-1391.933
 30
3267.000
 70
    32
  0
VERTEX
  8
E20LXLIFT
 62
11
 10
160.298
 20
-1394.340
 30
3267.000
 70
    32
  0
VERTEX
  8
E20LXLIFT
 62
11
 10
166.966
 20
-1405.818
 30
3267.000
 70
    32
  0
VERTEX
  8
E20LXLIFT
 62
11
 10
173.751
 20
-1418.632
 30
3267.000
 70
    32
  0
VERTEX
  8
E20LXLIFT
 62
11
 10
175.614
 20
-1434.995
 30
3267.000
 70
    32
  0
VERTEX
  8
E20LXLIFT
 62
11
 10
177.214
 20
-1447.171
 30
3267.000
 70
    32
  0
VERTEX
  8
E20LXLIFT
 62
11
 10
168.212
 20
-1450.684
 30
3267.000
 70
    32
  0
VERTEX
  8
E20LXLIFT
 62
11
 10
164.019
 20
-1436.492
 30
3267.000
 70
    32
  0
VERTEX
  8
E20LXLIFT
 62
11
 10
156.705
 20
-1423.851
 30
3267.000
 70
    32
  0
VERTEX
  8
E20LXLIFT
 62
11
 10
143.659
 20
-1415.142
 30
3267.000
 70
    32
  0
VERTEX
  8
E20LXLIFT
 62
11
 10
131.031
 20
-1407.437
 30
3267.000
 70
    32
  0
VERTEX
  8
E20LXLIFT
 62
11
 10
123.525
 20
-1398.664
 30
3267.000
 70
    32
  0
VERTEX
  8
E20LXLIFT
 62
11
 10
120.495
 20
-1383.826
 30
3267.000
 70
    32
  0
VERTEX
  8
E20LXLIFT
 62
11
 10
117.367
 20
-1375.195
 30
3267.000
 70
    32
  0
SEQEND
  8
E20LXLIFT
  0
POLYLINE
  8
E20LXLIFT
 62
11
 66
     1
 70
     9
  0
VERTEX
  8
E20LXLIFT
 62
11
 10
266.407
 20
-1641.180
 30
3268.000
 70
    32
  0
VERTEX
  8
E20LXLIFT
 62
11
 10
277.815
 20
-1638.399
 30
3268.000
 70
    32
  0
VERTEX
  8
E20LXLIFT
 62
11
 10
289.969
 20
-1625.860
 30
3268.000
 70
    32
  0
VERTEX
  8
E20LXLIFT
 62
11
 10
299.606
 20
-1621.875
 30
3268.000
 70
    32
  0
VERTEX
  8
E20LXLIFT
 62
11
 10
302.553
 20
-1615.522
 30
3268.000
 70
    32
  0
VERTEX
  8
E20LXLIFT
 62
11
 10
294.304
 20
-1603.686
 30
3268.000
 70
    32
  0
VERTEX
  8
E20LXLIFT
 62
11
 10
291.634
 20
-1586.827
 30
3268.000
 70
    32
  0
VERTEX
  8
E20LXLIFT
 62
11
 10
281.798
 20
-1575.951
 30
3268.000
 70
    32
  0
VERTEX
  8
E20LXLIFT
 62
11
 10
266.783
 20
-1563.118
 30
3268.000
 70
    32
  0
VERTEX
  8
E20LXLIFT
 62
11
 10
259.090
 20
-1548.788
 30
3268.000
 70
    32
  0
VERTEX
  8
E20LXLIFT
 62
11
 10
253.242
 20
-1530.895
 30
3268.000
 70
    32
  0
VERTEX
  8
E20LXLIFT
 62
11
 10
246.313
 20
-1522.898
 30
3268.000
 70
    32
  0
VERTEX
  8
E20LXLIFT
 62
11
 10
231.682
 20
-1522.817
 30
3268.000
 70
    32
  0
VERTEX
  8
E20LXLIFT
 62
11
 10
218.453
 20
-1515.778
 30
3268.000
 70
    32
  0
VERTEX
  8
E20LXLIFT
 62
11
 10
212.896
 20
-1503.584
 30
3268.000
 70
    32
  0
VERTEX
  8
E20LXLIFT
 62
11
 10
199.350
 20
-1504.668
 30
3268.000
 70
    32
  0
VERTEX
  8
E20LXLIFT
 62
11
 10
191.952
 20
-1511.371
 30
3268.000
 70
    32
  0
VERTEX
  8
E20LXLIFT
 62
11
 10
203.584
 20
-1525.842
 30
3268.000
 70
    32
  0
VERTEX
  8
E20LXLIFT
 62
11
 10
202.341
 20
-1540.679
 30
3268.000
 70
    32
  0
VERTEX
  8
E20LXLIFT
 62
11
 10
205.536
 20
-1553.970
 30
3268.000
 70
    32
  0
VERTEX
  8
E20LXLIFT
 62
11
 10
219.269
 20
-1566.551
 30
3268.000
 70
    32
  0
VERTEX
  8
E20LXLIFT
 62
11
 10
228.842
 20
-1585.181
 30
3268.000
 70
    32
  0
VERTEX
  8
E20LXLIFT
 62
11
 10
238.993
 20
-1600.314
 30
3268.000
 70
    32
  0
VERTEX
  8
E20LXLIFT
 62
11
 10
249.201
 20
-1614.638
 30
3268.000
 70
    32
  0
VERTEX
  8
E20LXLIFT
 62
11
 10
256.042
 20
-1626.644
 30
3268.000
 70
    32
  0
SEQEND
  8
E20LXLIFT
  0
POLYLINE
  8
E20LXLIFT
 62
6
 66
     1
 70
     9
  0
VERTEX
  8
E20LXLIFT
 62
6
 10
275.524
 20
-1639.444
 30
3258.000
 70
    32
  0
VERTEX
  8
E20LXLIFT
 62
6
 10
282.388
 20
-1654.281
 30
3258.000
 70
    32
  0
VERTEX
  8
E20LXLIFT
 62
6
 10
290.098
 20
-1668.928
 30
3258.000
 70
    32
  0
VERTEX
  8
E20LXLIFT
 62
6
 10
301.664
 20
-1682.133
 30
3258.000
 70
    32
  0
VERTEX
  8
E20LXLIFT
 62
6
 10
316.678
 20
-1699.239
 30
3258.000
 70
    32
  0
VERTEX
  8
E20LXLIFT
 62
6
 10
327.308
 20
-1709.415
 30
3258.000
 70
    32
  0
VERTEX
  8
E20LXLIFT
 62
6
 10
333.565
 20
-1714.296
 30
3258.000
 70
    32
  0
VERTEX
  8
E20LXLIFT
 62
6
 10
337.876
 20
-1701.671
 30
3258.000
 70
    32
  0
VERTEX
  8
E20LXLIFT
 62
6
 10
337.198
 20
-1691.767
 30
3258.000
 70
    32
  0
VERTEX
  8
E20LXLIFT
 62
6
 10
322.730
 20
-1678.637
 30
3258.000
 70
    32
  0
VERTEX
  8
E20LXLIFT
 62
6
 10
306.957
 20
-1661.985
 30
3258.000
 70
    32
  0
VERTEX
  8
E20LXLIFT
 62
6
 10
294.159
 20
-1649.039
 30
3258.000
 70
    32
  0
VERTEX
  8
E20LXLIFT
 62
6
 10
288.203
 20
-1639.552
 30
3258.000
 70
    32
  0
VERTEX
  8
E20LXLIFT
 62
6
 10
286.128
 20
-1631.453
 30
3258.000
 70
    32
  0
SEQEND
  8
E20LXLIFT
  0
POLYLINE
  8
E20LXLIFT
 62
8
 66
     1
 70
     9
  0
VERTEX
  8
E20LXLIFT
 62
8
 10
225.294
 20
-1753.462
 30
3264.000
 70
    32
  0
VERTEX
  8
E20LXLIFT
 62
8
 10
223.852
 20
-1761.545
 30
3264.000
 70
    32
  0
VERTEX
  8
E20LXLIFT
 62
8
 10
232.961
 20
-1765.841
 30
3264.000
 70
    32
  0
VERTEX
  8
E20LXLIFT
 62
8
 10
238.577
 20
-1772.513
 30
3264.000
 70
    32
  0
VERTEX
  8
E20LXLIFT
 62
8
 10
243.949
 20
-1770.602
 30
3264.000
 70
    32
  0
VERTEX
  8
E20LXLIFT
 62
8
 10
237.749
 20
-1760.639
 30
3264.000
 70
    32
  0
VERTEX
  8
E20LXLIFT
 62
8
 10
237.529
 20
-1750.614
 30
3264.000
 70
    32
  0
VERTEX
  8
E20LXLIFT
 62
8
 10
244.791
 20
-1742.697
 30
3264.000
 70
    32
  0
VERTEX
  8
E20LXLIFT
 62
8
 10
240.177
 20
-1732.213
 30
3264.000
 70
    32
  0
VERTEX
  8
E20LXLIFT
 62
8
 10
236.209
 20
-1718.620
 30
3264.000
 70
    32
  0
VERTEX
  8
E20LXLIFT
 62
8
 10
228.256
 20
-1703.496
 30
3264.000
 70
    32
  0
VERTEX
  8
E20LXLIFT
 62
8
 10
226.568
 20
-1687.222
 30
3264.000
 70
    32
  0
VERTEX
  8
E20LXLIFT
 62
8
 10
223.592
 20
-1672.015
 30
3264.000
 70
    32
  0
VERTEX
  8
E20LXLIFT
 62
8
 10
216.888
 20
-1660.783
 30
3264.000
 70
    32
  0
VERTEX
  8
E20LXLIFT
 62
8
 10
206.932
 20
-1661.391
 30
3264.000
 70
    32
  0
VERTEX
  8
E20LXLIFT
 62
8
 10
191.815
 20
-1671.859
 30
3264.000
 70
    32
  0
VERTEX
  8
E20LXLIFT
 62
8
 10
201.421
 20
-1683.015
 30
3264.000
 70
    32
  0
VERTEX
  8
E20LXLIFT
 62
8
 10
206.219
 20
-1691.829
 30
3264.000
 70
    32
  0
VERTEX
  8
E20LXLIFT
 62
8
 10
203.162
 20
-1703.193
 30
3264.000
 70
    32
  0
VERTEX
  8
E20LXLIFT
 62
8
 10
194.997
 20
-1716.382
 30
3264.000
 70
    32
  0
VERTEX
  8
E20LXLIFT
 62
8
 10
189.465
 20
-1730.902
 30
3264.000
 70
    32
  0
VERTEX
  8
E20LXLIFT
 62
8
 10
194.457
 20
-1735.408
 30
3264.000
 70
    32
  0
VERTEX
  8
E20LXLIFT
 62
8
 10
205.882
 20
-1728.669
 30
3264.000
 70
    32
  0
VERTEX
  8
E20LXLIFT
 62
8
 10
214.314
 20
-1726.895
 30
3264.000
 70
    32
  0
SEQEND
  8
E20LXLIFT
  0
POLYLINE
  8
E20LXLIFT
 62
27
 66
     1
 70
     9
  0
VERTEX
  8
E20LXLIFT
 62
27
 10
503.826
 20
-2074.282
 30
3267.000
 70
    32
  0
VERTEX
  8
E20LXLIFT
 62
27
 10
514.453
 20
-2069.123
 30
3267.000
 70
    32
  0
VERTEX
  8
E20LXLIFT
 62
27
 10
507.853
 20
-2054.199
 30
3267.000
 70
    32
  0
VERTEX
  8
E20LXLIFT
 62
27
 10
498.224
 20
-2040.211
 30
3267.000
 70
    32
  0
VERTEX
  8
E20LXLIFT
 62
27
 10
493.140
 20
-2028.653
 30
3267.000
 70
    32
  0
VERTEX
  8
E20LXLIFT
 62
27
 10
482.942
 20
-2012.130
 30
3267.000
 70
    32
  0
VERTEX
  8
E20LXLIFT
 62
27
 10
474.269
 20
-1992.502
 30
3267.000
 70
    32
  0
VERTEX
  8
E20LXLIFT
 62
27
 10
464.309
 20
-1973.940
 30
3267.000
 70
    32
  0
VERTEX
  8
E20LXLIFT
 62
27
 10
459.112
 20
-1955.892
 30
3267.000
 70
    32
  0
VERTEX
  8
E20LXLIFT
 62
27
 10
451.790
 20
-1941.176
 30
3267.000
 70
    32
  0
VERTEX
  8
E20LXLIFT
 62
27
 10
444.199
 20
-1931.700
 30
3267.000
 70
    32
  0
VERTEX
  8
E20LXLIFT
 62
27
 10
436.278
 20
-1925.316
 30
3267.000
 70
    32
  0
VERTEX
  8
E20LXLIFT
 62
27
 10
432.350
 20
-1918.705
 30
3267.000
 70
    32
  0
VERTEX
  8
E20LXLIFT
 62
27
 10
426.252
 20
-1921.703
 30
3267.000
 70
    32
  0
VERTEX
  8
E20LXLIFT
 62
27
 10
427.209
 20
-1932.276
 30
3267.000
 70
    32
  0
VERTEX
  8
E20LXLIFT
 62
27
 10
428.959
 20
-1942.149
 30
3267.000
 70
    32
  0
VERTEX
  8
E20LXLIFT
 62
27
 10
437.985
 20
-1957.242
 30
3267.000
 70
    32
  0
VERTEX
  8
E20LXLIFT
 62
27
 10
450.150
 20
-1974.494
 30
3267.000
 70
    32
  0
VERTEX
  8
E20LXLIFT
 62
27
 10
461.381
 20
-1992.111
 30
3267.000
 70
    32
  0
VERTEX
  8
E20LXLIFT
 62
27
 10
471.980
 20
-2009.321
 30
3267.000
 70
    32
  0
VERTEX
  8
E20LXLIFT
 62
27
 10
480.293
 20
-2026.697
 30
3267.000
 70
    32
  0
VERTEX
  8
E20LXLIFT
 62
27
 10
490.870
 20
-2041.076
 30
3267.000
 70
    32
  0
VERTEX
  8
E20LXLIFT
 62
27
 10
495.786
 20
-2058.894
 30
3267.000
 70
    32
  0
SEQEND
  8
E20LXLIFT
  0
POLYLINE
  8
E20LXLIFT
 62
11
 66
     1
 70
     9
  0
VERTEX
  8
E20LXLIFT
 62
11
 10
138.773
 20
-1412.137
 30
3277.000
 70
    32
  0
VERTEX
  8
E20LXLIFT
 62
11
 10
148.058
 20
-1415.474
 30
3277.000
 70
    32
  0
VERTEX
  8
E20LXLIFT
 62
11
 10
155.941
 20
-1423.748
 30
3277.000
 70
    32
  0
VERTEX
  8
E20LXLIFT
 62
11
 10
163.781
 20
-1432.706
 30
3277.000
 70
    32
  0
VERTEX
  8
E20LXLIFT
 62
11
 10
169.991
 20
-1440.026
 30
3277.000
 70
    32
  0
VERTEX
  8
E20LXLIFT
 62
11
 10
175.990
 20
-1444.673
 30
3277.000
 70
    32
  0
VERTEX
  8
E20LXLIFT
 62
11
 10
178.031
 20
-1440.467
 30
3277.000
 70
    32
  0
VERTEX
  8
E20LXLIFT
 62
11
 10
179.397
 20
-1434.143
 30
3277.000
 70
    32
  0
VERTEX
  8
E20LXLIFT
 62
11
 10
177.518
 20
-1424.859
 30
3277.000
 70
    32
  0
VERTEX
  8
E20LXLIFT
 62
11
 10
173.477
 20
-1416.935
 30
3277.000
 70
    32
  0
VERTEX
  8
E20LXLIFT
 62
11
 10
165.803
 20
-1411.335
 30
3277.000
 70
    32
  0
VERTEX
  8
E20LXLIFT
 62
11
 10
161.143
 20
-1403.754
 30
3277.000
 70
    32
  0
VERTEX
  8
E20LXLIFT
 62
11
 10
154.026
 20
-1394.595
 30
3277.000
 70
    32
  0
VERTEX
  8
E20LXLIFT
 62
11
 10
151.285
 20
-1388.006
 30
3277.000
 70
    32
  0
VERTEX
  8
E20LXLIFT
 62
11
 10
155.227
 20
-1380.890
 30
3277.000
 70
    32
  0
VERTEX
  8
E20LXLIFT
 62
11
 10
150.802
 20
-1371.398
 30
3277.000
 70
    32
  0
VERTEX
  8
E20LXLIFT
 62
11
 10
141.335
 20
-1371.237
 30
3277.000
 70
    32
  0
VERTEX
  8
E20LXLIFT
 62
11
 10
133.674
 20
-1364.759
 30
3277.000
 70
    32
  0
VERTEX
  8
E20LXLIFT
 62
11
 10
125.610
 20
-1370.098
 30
3277.000
 70
    32
  0
VERTEX
  8
E20LXLIFT
 62
11
 10
121.844
 20
-1378.498
 30
3277.000
 70
    32
  0
VERTEX
  8
E20LXLIFT
 62
11
 10
125.789
 20
-1391.059
 30
3277.000
 70
    32
  0
SEQEND
  8
E20LXLIFT
  0
POLYLINE
  8
E20LXLIFT
 62
11
 66
     1
 70
     9
  0
VERTEX
  8
E20LXLIFT
 62
11
 10
196.027
 20
-1457.236
 30
3278.000
 70
    32
  0
VERTEX
  8
E20LXLIFT
 62
11
 10
183.276
 20
-1467.626
 30
3278.000
 70
    32
  0
VERTEX
  8
E20LXLIFT
 62
11
 10
173.314
 20
-1478.263
 30
3278.000
 70
    32
  0
VERTEX
  8
E20LXLIFT
 62
11
 10
164.761
 20
-1484.720
 30
3278.000
 70
    32
  0
VERTEX
  8
E20LXLIFT
 62
11
 10
172.107
 20
-1496.430
 30
3278.000
 70
    32
  0
VERTEX
  8
E20LXLIFT
 62
11
 10
180.480
 20
-1494.345
 30
3278.000
 70
    32
  0
VERTEX
  8
E20LXLIFT
 62
11
 10
187.511
 20
-1498.022
 30
3278.000
 70
    32
  0
VERTEX
  8
E20LXLIFT
 62
11
 10
193.294
 20
-1509.675
 30
3278.000
 70
    32
  0
VERTEX
  8
E20LXLIFT
 62
11
 10
201.099
 20
-1521.268
 30
3278.000
 70
    32
  0
VERTEX
  8
E20LXLIFT
 62
11
 10
189.601
 20
-1527.265
 30
3278.000
 70
    32
  0
VERTEX
  8
E20LXLIFT
 62
11
 10
192.120
 20
-1541.300
 30
3278.000
 70
    32
  0
VERTEX
  8
E20LXLIFT
 62
11
 10
199.710
 20
-1555.876
 30
3278.000
 70
    32
  0
VERTEX
  8
E20LXLIFT
 62
11
 10
206.116
 20
-1569.576
 30
3278.000
 70
    32
  0
VERTEX
  8
E20LXLIFT
 62
11
 10
210.151
 20
-1581.962
 30
3278.000
 70
    32
  0
VERTEX
  8
E20LXLIFT
 62
11
 10
217.633
 20
-1594.008
 30
3278.000
 70
    32
  0
VERTEX
  8
E20LXLIFT
 62
11
 10
224.312
 20
-1604.356
 30
3278.000
 70
    32
  0
VERTEX
  8
E20LXLIFT
 62
11
 10
231.525
 20
-1616.924
 30
3278.000
 70
    32
  0
VERTEX
  8
E20LXLIFT
 62
11
 10
244.503
 20
-1629.201
 30
3278.000
 70
    32
  0
VERTEX
  8
E20LXLIFT
 62
11
 10
257.226
 20
-1639.488
 30
3278.000
 70
    32
  0
VERTEX
  8
E20LXLIFT
 62
11
 10
264.420
 20
-1648.157
 30
3278.000
 70
    32
  0
VERTEX
  8
E20LXLIFT
 62
11
 10
273.396
 20
-1644.217
 30
3278.000
 70
    32
  0
VERTEX
  8
E20LXLIFT
 62
11
 10
280.775
 20
-1633.616
 30
3278.000
 70
    32
  0
VERTEX
  8
E20LXLIFT
 62
11
 10
285.512
 20
-1627.442
 30
3278.000
 70
    32
  0
VERTEX
  8
E20LXLIFT
 62
11
 10
283.067
 20
-1611.722
 30
3278.000
 70
    32
  0
VERTEX
  8
E20LXLIFT
 62
11
 10
278.691
 20
-1599.911
 30
3278.000
 70
    32
  0
VERTEX
  8
E20LXLIFT
 62
11
 10
273.990
 20
-1586.163
 30
3278.000
 70
    32
  0
VERTEX
  8
E20LXLIFT
 62
11
 10
272.625
 20
-1571.177
 30
3278.000
 70
    32
  0
VERTEX
  8
E20LXLIFT
 62
11
 10
268.886
 20
-1566.947
 30
3278.000
 70
    32
  0
VERTEX
  8
E20LXLIFT
 62
11
 10
264.669
 20
-1566.979
 30
3278.000
 70
    32
  0
VERTEX
  8
E20LXLIFT
 62
11
 10
259.793
 20
-1553.141
 30
3278.000
 70
    32
  0
VERTEX
  8
E20LXLIFT
 62
11
 10
253.277
 20
-1539.738
 30
3278.000
 70
    32
  0
VERTEX
  8
E20LXLIFT
 62
11
 10
249.559
 20
-1527.339
 30
3278.000
 70
    32
  0
VERTEX
  8
E20LXLIFT
 62
11
 10
248.820
 20
-1516.788
 30
3278.000
 70
    32
  0
VERTEX
  8
E20LXLIFT
 62
11
 10
242.634
 20
-1507.711
 30
3278.000
 70
    32
  0
VERTEX
  8
E20LXLIFT
 62
11
 10
228.387
 20
-1498.317
 30
3278.000
 70
    32
  0
VERTEX
  8
E20LXLIFT
 62
11
 10
215.718
 20
-1485.272
 30
3278.000
 70
    32
  0
VERTEX
  8
E20LXLIFT
 62
11
 10
206.476
 20
-1470.814
 30
3278.000
 70
    32
  0
SEQEND
  8
E20LXLIFT
  0
POLYLINE
  8
E20LXLIFT
 62
6
 66
     1
 70
     9
  0
VERTEX
  8
E20LXLIFT
 62
6
 10
272.210
 20
-1636.929
 30
3268.000
 70
    32
  0
VERTEX
  8
E20LXLIFT
 62
6
 10
278.830
 20
-1646.450
 30
3268.000
 70
    32
  0
VERTEX
  8
E20LXLIFT
 62
6
 10
284.591
 20
-1655.837
 30
3268.000
 70
    32
  0
VERTEX
  8
E20LXLIFT
 62
6
 10
291.622
 20
-1659.514
 30
3268.000
 70
    32
  0
VERTEX
  8
E20LXLIFT
 62
6
 10
293.549
 20
-1674.525
 30
3268.000
 70
    32
  0
VERTEX
  8
E20LXLIFT
 62
6
 10
298.633
 20
-1684.624
 30
3268.000
 70
    32
  0
VERTEX
  8
E20LXLIFT
 62
6
 10
312.032
 20
-1693.006
 30
3268.000
 70
    32
  0
VERTEX
  8
E20LXLIFT
 62
6
 10
321.354
 20
-1700.121
 30
3268.000
 70
    32
  0
VERTEX
  8
E20LXLIFT
 62
6
 10
324.906
 20
-1709.163
 30
3268.000
 70
    32
  0
VERTEX
  8
E20LXLIFT
 62
6
 10
333.530
 20
-1715.918
 30
3268.000
 70
    32
  0
VERTEX
  8
E20LXLIFT
 62
6
 10
338.423
 20
-1709.957
 30
3268.000
 70
    32
  0
VERTEX
  8
E20LXLIFT
 62
6
 10
338.344
 20
-1700.012
 30
3268.000
 70
    32
  0
VERTEX
  8
E20LXLIFT
 62
6
 10
334.430
 20
-1686.451
 30
3268.000
 70
    32
  0
VERTEX
  8
E20LXLIFT
 62
6
 10
331.667
 20
-1673.572
 30
3268.000
 70
    32
  0
VERTEX
  8
E20LXLIFT
 62
6
 10
328.247
 20
-1662.477
 30
3268.000
 70
    32
  0
VERTEX
  8
E20LXLIFT
 62
6
 10
320.224
 20
-1660.719
 30
3268.000
 70
    32
  0
VERTEX
  8
E20LXLIFT
 62
6
 10
309.414
 20
-1655.885
 30
3268.000
 70
    32
  0
VERTEX
  8
E20LXLIFT
 62
6
 10
300.767
 20
-1646.864
 30
3268.000
 70
    32
  0
VERTEX
  8
E20LXLIFT
 62
6
 10
296.186
 20
-1635.964
 30
3268.000
 70
    32
  0
VERTEX
  8
E20LXLIFT
 62
6
 10
290.342
 20
-1627.506
 30
3268.000
 70
    32
  0
VERTEX
  8
E20LXLIFT
 62
6
 10
286.072
 20
-1626.273
 30
3268.000
 70
    32
  0
SEQEND
  8
E20LXLIFT
  0
POLYLINE
  8
E20LXLIFT
 62
8
 66
     1
 70
     9
  0
VERTEX
  8
E20LXLIFT
 62
8
 10
240.427
 20
-1743.285
 30
3275.000
 70
    32
  0
VERTEX
  8
E20LXLIFT
 62
8
 10
249.126
 20
-1735.091
 30
3275.000
 70
    32
  0
VERTEX
  8
E20LXLIFT
 62
8
 10
244.034
 20
-1728.260
 30
3275.000
 70
    32
  0
VERTEX
  8
E20LXLIFT
 62
8
 10
241.942
 20
-1715.109
 30
3275.000
 70
    32
  0
VERTEX
  8
E20LXLIFT
 62
8
 10
236.950
 20
-1702.007
 30
3275.000
 70
    32
  0
VERTEX
  8
E20LXLIFT
 62
8
 10
229.255
 20
-1690.117
 30
3275.000
 70
    32
  0
VERTEX
  8
E20LXLIFT
 62
8
 10
226.924
 20
-1672.466
 30
3275.000
 70
    32
  0
VERTEX
  8
E20LXLIFT
 62
8
 10
221.143
 20
-1657.984
 30
3275.000
 70
    32
  0
VERTEX
  8
E20LXLIFT
 62
8
 10
212.522
 20
-1649.595
 30
3275.000
 70
    32
  0
VERTEX
  8
E20LXLIFT
 62
8
 10
207.431
 20
-1652.005
 30
3275.000
 70
    32
  0
VERTEX
  8
E20LXLIFT
 62
8
 10
203.111
 20
-1661.135
 30
3275.000
 70
    32
  0
VERTEX
  8
E20LXLIFT
 62
8
 10
194.146
 20
-1668.219
 30
3275.000
 70
    32
  0
VERTEX
  8
E20LXLIFT
 62
8
 10
200.402
 20
-1676.050
 30
3275.000
 70
    32
  0
VERTEX
  8
E20LXLIFT
 62
8
 10
208.834
 20
-1684.032
 30
3275.000
 70
    32
  0
VERTEX
  8
E20LXLIFT
 62
8
 10
212.612
 20
-1693.235
 30
3275.000
 70
    32
  0
VERTEX
  8
E20LXLIFT
 62
8
 10
203.494
 20
-1706.518
 30
3275.000
 70
    32
  0
VERTEX
  8
E20LXLIFT
 62
8
 10
201.781
 20
-1713.857
 30
3275.000
 70
    32
  0
VERTEX
  8
E20LXLIFT
 62
8
 10
211.019
 20
-1716.684
 30
3275.000
 70
    32
  0
VERTEX
  8
E20LXLIFT
 62
8
 10
223.379
 20
-1717.235
 30
3275.000
 70
    32
  0
VERTEX
  8
E20LXLIFT
 62
8
 10
228.998
 20
-1726.725
 30
3275.000
 70
    32
  0
SEQEND
  8
E20LXLIFT
  0
POLYLINE
  8
E20LXLIFT
 62
7
 66
     1
 70
     9
  0
VERTEX
  8
E20LXLIFT
 62
7
 10
125.191
 20
-1729.286
 30
3283.000
 70
    32
  0
VERTEX
  8
E20LXLIFT
 62
7
 10
120.283
 20
-1720.472
 30
3283.000
 70
    32
  0
VERTEX
  8
E20LXLIFT
 62
7
 10
115.644
 20
-1713.963
 30
3283.000
 70
    32
  0
VERTEX
  8
E20LXLIFT
 62
7
 10
107.036
 20
-1709.914
 30
3283.000
 70
    32
  0
VERTEX
  8
E20LXLIFT
 62
7
 10
100.074
 20
-1709.013
 30
3283.000
 70
    32
  0
VERTEX
  8
E20LXLIFT
 62
7
 10
95.747
 20
-1704.125
 30
3283.000
 70
    32
  0
VERTEX
  8
E20LXLIFT
 62
7
 10
92.285
 20
-1694.909
 30
3283.000
 70
    32
  0
VERTEX
  8
E20LXLIFT
 62
7
 10
83.726
 20
-1688.541
 30
3283.000
 70
    32
  0
VERTEX
  8
E20LXLIFT
 62
7
 10
77.785
 20
-1675.480
 30
3283.000
 70
    32
  0
VERTEX
  8
E20LXLIFT
 62
7
 10
69.468
 20
-1666.761
 30
3283.000
 70
    32
  0
VERTEX
  8
E20LXLIFT
 62
7
 10
60.565
 20
-1654.557
 30
3283.000
 70
    32
  0
VERTEX
  8
E20LXLIFT
 62
7
 10
50.171
 20
-1643.439
 30
3283.000
 70
    32
  0
VERTEX
  8
E20LXLIFT
 62
7
 10
45.206
 20
-1634.993
 30
3283.000
 70
    32
  0
VERTEX
  8
E20LXLIFT
 62
7
 10
46.458
 20
-1625.383
 30
3283.000
 70
    32
  0
VERTEX
  8
E20LXLIFT
 62
7
 10
51.182
 20
-1618.892
 30
3283.000
 70
    32
  0
VERTEX
  8
E20LXLIFT
 62
7
 10
53.311
 20
-1609.293
 30
3283.000
 70
    32
  0
VERTEX
  8
E20LXLIFT
 62
7
 10
50.264
 20
-1600.645
 30
3283.000
 70
    32
  0
VERTEX
  8
E20LXLIFT
 62
7
 10
49.406
 20
-1592.464
 30
3283.000
 70
    32
  0
VERTEX
  8
E20LXLIFT
 62
7
 10
45.058
 20
-1586.504
 30
3283.000
 70
    32
  0
VERTEX
  8
E20LXLIFT
 62
7
 10
37.280
 20
-1575.544
 30
3283.000
 70
    32
  0
VERTEX
  8
E20LXLIFT
 62
7
 10
25.888
 20
-1561.567
 30
3283.000
 70
    32
  0
VERTEX
  8
E20LXLIFT
 62
7
 10
18.572
 20
-1548.856
 30
3283.000
 70
    32
  0
VERTEX
  8
E20LXLIFT
 62
7
 10
11.030
 20
-1540.008
 30
3283.000
 70
    32
  0
VERTEX
  8
E20LXLIFT
 62
7
 10
6.433
 20
-1531.620
 30
3283.000
 70
    32
  0
VERTEX
  8
E20LXLIFT
 62
7
 10
12.259
 20
-1528.130
 30
3283.000
 70
    32
  0
VERTEX
  8
E20LXLIFT
 62
7
 10
19.977
 20
-1525.000
 30
3283.000
 70
    32
  0
VERTEX
  8
E20LXLIFT
 62
7
 10
28.831
 20
-1521.042
 30
3283.000
 70
    32
  0
VERTEX
  8
E20LXLIFT
 62
7
 10
36.725
 20
-1513.979
 30
3283.000
 70
    32
  0
VERTEX
  8
E20LXLIFT
 62
7
 10
42.505
 20
-1509.979
 30
3283.000
 70
    32
  0
VERTEX
  8
E20LXLIFT
 62
7
 10
51.542
 20
-1512.084
 30
3283.000
 70
    32
  0
VERTEX
  8
E20LXLIFT
 62
7
 10
58.600
 20
-1520.417
 30
3283.000
 70
    32
  0
VERTEX
  8
E20LXLIFT
 62
7
 10
66.750
 20
-1529.801
 30
3283.000
 70
    32
  0
VERTEX
  8
E20LXLIFT
 62
7
 10
69.617
 20
-1538.799
 30
3283.000
 70
    32
  0
VERTEX
  8
E20LXLIFT
 62
7
 10
67.805
 20
-1549.579
 30
3283.000
 70
    32
  0
VERTEX
  8
E20LXLIFT
 62
7
 10
71.174
 20
-1556.580
 30
3283.000
 70
    32
  0
VERTEX
  8
E20LXLIFT
 62
7
 10
76.413
 20
-1566.892
 30
3283.000
 70
    32
  0
VERTEX
  8
E20LXLIFT
 62
7
 10
76.542
 20
-1575.713
 30
3283.000
 70
    32
  0
VERTEX
  8
E20LXLIFT
 62
7
 10
77.056
 20
-1587.297
 30
3283.000
 70
    32
  0
VERTEX
  8
E20LXLIFT
 62
7
 10
77.695
 20
-1600.095
 30
3283.000
 70
    32
  0
VERTEX
  8
E20LXLIFT
 62
7
 10
80.789
 20
-1605.230
 30
3283.000
 70
    32
  0
VERTEX
  8
E20LXLIFT
 62
7
 10
87.470
 20
-1612.750
 30
3283.000
 70
    32
  0
VERTEX
  8
E20LXLIFT
 62
7
 10
90.202
 20
-1621.412
 30
3283.000
 70
    32
  0
VERTEX
  8
E20LXLIFT
 62
7
 10
94.906
 20
-1628.308
 30
3283.000
 70
    32
  0
VERTEX
  8
E20LXLIFT
 62
7
 10
102.085
 20
-1631.443
 30
3283.000
 70
    32
  0
VERTEX
  8
E20LXLIFT
 62
7
 10
106.464
 20
-1636.402
 30
3283.000
 70
    32
  0
VERTEX
  8
E20LXLIFT
 62
7
 10
113.538
 20
-1638.200
 30
3283.000
 70
    32
  0
VERTEX
  8
E20LXLIFT
 62
7
 10
120.945
 20
-1642.690
 30
3283.000
 70
    32
  0
VERTEX
  8
E20LXLIFT
 62
7
 10
130.298
 20
-1644.781
 30
3283.000
 70
    32
  0
VERTEX
  8
E20LXLIFT
 62
7
 10
134.236
 20
-1652.563
 30
3283.000
 70
    32
  0
VERTEX
  8
E20LXLIFT
 62
7
 10
135.313
 20
-1665.367
 30
3283.000
 70
    32
  0
VERTEX
  8
E20LXLIFT
 62
7
 10
136.502
 20
-1679.068
 30
3283.000
 70
    32
  0
VERTEX
  8
E20LXLIFT
 62
7
 10
140.616
 20
-1688.135
 30
3283.000
 70
    32
  0
VERTEX
  8
E20LXLIFT
 62
7
 10
140.677
 20
-1694.179
 30
3283.000
 70
    32
  0
VERTEX
  8
E20LXLIFT
 62
7
 10
144.864
 20
-1700.366
 30
3283.000
 70
    32
  0
VERTEX
  8
E20LXLIFT
 62
7
 10
150.364
 20
-1708.204
 30
3283.000
 70
    32
  0
VERTEX
  8
E20LXLIFT
 62
7
 10
151.387
 20
-1714.524
 30
3283.000
 70
    32
  0
VERTEX
  8
E20LXLIFT
 62
7
 10
157.210
 20
-1721.910
 30
3283.000
 70
    32
  0
VERTEX
  8
E20LXLIFT
 62
7
 10
157.372
 20
-1726.901
 30
3283.000
 70
    32
  0
VERTEX
  8
E20LXLIFT
 62
7
 10
153.004
 20
-1734.327
 30
3283.000
 70
    32
  0
VERTEX
  8
E20LXLIFT
 62
7
 10
144.722
 20
-1736.238
 30
3283.000
 70
    32
  0
VERTEX
  8
E20LXLIFT
 62
7
 10
133.699
 20
-1740.800
 30
3283.000
 70
    32
  0
SEQEND
  8
E20LXLIFT
  0
POLYLINE
  8
E20LXLIFT
 62
1
 66
     1
 70
     9
  0
VERTEX
  8
E20LXLIFT
 62
1
 10
134.699
 20
-1739.800
 30
3293.000
 70
    32
  0
VERTEX
  8
E20LXLIFT
 62
1
 10
145.722
 20
-1735.238
 30
3293.000
 70
    32
  0
VERTEX
  8
E20LXLIFT
 62
1
 10
154.004
 20
-1733.327
 30
3293.000
 70
    32
  0
VERTEX
  8
E20LXLIFT
 62
1
 10
158.372
 20
-1725.901
 30
3293.000
 70
    32
  0
VERTEX
  8
E20LXLIFT
 62
1
 10
158.210
 20
-1720.910
 30
3293.000
 70
    32
  0
VERTEX
  8
E20LXLIFT
 62
1
 10
152.387
 20
-1713.524
 30
3293.000
 70
    32
  0
VERTEX
  8
E20LXLIFT
 62
1
 10
151.364
 20
-1707.204
 30
3293.000
 70
    32
  0
VERTEX
  8
E20LXLIFT
 62
1
 10
145.864
 20
-1699.366
 30
3293.000
 70
    32
  0
VERTEX
  8
E20LXLIFT
 62
1
 10
141.677
 20
-1693.179
 30
3293.000
 70
    32
  0
VERTEX
  8
E20LXLIFT
 62
1
 10
141.616
 20
-1687.135
 30
3293.000
 70
    32
  0
VERTEX
  8
E20LXLIFT
 62
1
 10
137.502
 20
-1678.068
 30
3293.000
 70
    32
  0
VERTEX
  8
E20LXLIFT
 62
1
 10
136.313
 20
-1664.367
 30
3293.000
 70
    32
  0
VERTEX
  8
E20LXLIFT
 62
1
 10
135.236
 20
-1651.563
 30
3293.000
 70
    32
  0
VERTEX
  8
E20LXLIFT
 62
1
 10
131.298
 20
-1643.781
 30
3293.000
 70
    32
  0
VERTEX
  8
E20LXLIFT
 62
1
 10
121.945
 20
-1641.690
 30
3293.000
 70
    32
  0
VERTEX
  8
E20LXLIFT
 62
1
 10
114.538
 20
-1637.200
 30
3293.000
 70
    32
  0
VERTEX
  8
E20LXLIFT
 62
1
 10
107.464
 20
-1635.402
 30
3293.000
 70
    32
  0
VERTEX
  8
E20LXLIFT
 62
1
 10
103.085
 20
-1630.443
 30
3293.000
 70
    32
  0
VERTEX
  8
E20LXLIFT
 62
1
 10
95.906
 20
-1627.308
 30
3293.000
 70
    32
  0
VERTEX
  8
E20LXLIFT
 62
1
 10
91.202
 20
-1620.412
 30
3293.000
 70
    32
  0
VERTEX
  8
E20LXLIFT
 62
1
 10
88.470
 20
-1611.750
 30
3293.000
 70
    32
  0
VERTEX
  8
E20LXLIFT
 62
1
 10
81.789
 20
-1604.230
 30
3293.000
 70
    32
  0
VERTEX
  8
E20LXLIFT
 62
1
 10
78.695
 20
-1599.095
 30
3293.000
 70
    32
  0
VERTEX
  8
E20LXLIFT
 62
1
 10
78.056
 20
-1586.297
 30
3293.000
 70
    32
  0
VERTEX
  8
E20LXLIFT
 62
1
 10
77.542
 20
-1574.713
 30
3293.000
 70
    32
  0
VERTEX
  8
E20LXLIFT
 62
1
 10
77.413
 20
-1565.892
 30
3293.000
 70
    32
  0
VERTEX
  8
E20LXLIFT
 62
1
 10
72.174
 20
-1555.580
 30
3293.000
 70
    32
  0
VERTEX
  8
E20LXLIFT
 62
1
 10
68.805
 20
-1548.579
 30
3293.000
 70
    32
  0
VERTEX
  8
E20LXLIFT
 62
1
 10
70.617
 20
-1537.799
 30
3293.000
 70
    32
  0
VERTEX
  8
E20LXLIFT
 62
1
 10
67.750
 20
-1528.801
 30
3293.000
 70
    32
  0
VERTEX
  8
E20LXLIFT
 62
1
 10
59.600
 20
-1519.417
 30
3293.000
 70
    32
  0
VERTEX
  8
E20LXLIFT
 62
1
 10
52.542
 20
-1511.084
 30
3293.000
 70
    32
  0
VERTEX
  8
E20LXLIFT
 62
1
 10
43.505
 20
-1508.979
 30
3293.000
 70
    32
  0
VERTEX
  8
E20LXLIFT
 62
1
 10
37.725
 20
-1512.979
 30
3293.000
 70
    32
  0
VERTEX
  8
E20LXLIFT
 62
1
 10
29.831
 20
-1520.042
 30
3293.000
 70
    32
  0
VERTEX
  8
E20LXLIFT
 62
1
 10
20.977
 20
-1524.000
 30
3293.000
 70
    32
  0
VERTEX
  8
E20LXLIFT
 62
1
 10
13.259
 20
-1527.130
 30
3293.000
 70
    32
  0
VERTEX
  8
E20LXLIFT
 62
1
 10
7.433
 20
-1530.620
 30
3293.000
 70
    32
  0
VERTEX
  8
E20LXLIFT
 62
1
 10
12.030
 20
-1539.008
 30
3293.000
 70
    32
  0
VERTEX
  8
E20LXLIFT
 62
1
 10
19.572
 20
-1547.856
 30
3293.000
 70
    32
  0
VERTEX
  8
E20LXLIFT
 62
1
 10
26.888
 20
-1560.567
 30
3293.000
 70
    32
  0
VERTEX
  8
E20LXLIFT
 62
1
 10
38.280
 20
-1574.544
 30
3293.000
 70
    32
  0
VERTEX
  8
E20LXLIFT
 62
1
 10
46.058
 20
-1585.504
 30
3293.000
 70
    32
  0
VERTEX
  8
E20LXLIFT
 62
1
 10
50.406
 20
-1591.464
 30
3293.000
 70
    32
  0
VERTEX
  8
E20LXLIFT
 62
1
 10
51.264
 20
-1599.645
 30
3293.000
 70
    32
  0
VERTEX
  8
E20LXLIFT
 62
1
 10
54.311
 20
-1608.293
 30
3293.000
 70
    32
  0
VERTEX
  8
E20LXLIFT
 62
1
 10
52.182
 20
-1617.892
 30
3293.000
 70
    32
  0
VERTEX
  8
E20LXLIFT
 62
1
 10
47.458
 20
-1624.383
 30
3293.000
 70
    32
  0
VERTEX
  8
E20LXLIFT
 62
1
 10
46.206
 20
-1633.993
 30
3293.000
 70
    32
  0
VERTEX
  8
E20LXLIFT
 62
1
 10
51.171
 20
-1642.439
 30
3293.000
 70
    32
  0
VERTEX
  8
E20LXLIFT
 62
1
 10
61.565
 20
-1653.557
 30
3293.000
 70
    32
  0
VERTEX
  8
E20LXLIFT
 62
1
 10
70.468
 20
-1665.761
 30
3293.000
 70
    32
  0
VERTEX
  8
E20LXLIFT
 62
1
 10
78.785
 20
-1674.480
 30
3293.000
 70
    32
  0
VERTEX
  8
E20LXLIFT
 62
1
 10
84.726
 20
-1687.541
 30
3293.000
 70
    32
  0
VERTEX
  8
E20LXLIFT
 62
1
 10
93.285
 20
-1693.909
 30
3293.000
 70
    32
  0
VERTEX
  8
E20LXLIFT
 62
1
 10
96.747
 20
-1703.125
 30
3293.000
 70
    32
  0
VERTEX
  8
E20LXLIFT
 62
1
 10
101.074
 20
-1708.013
 30
3293.000
 70
    32
  0
VERTEX
  8
E20LXLIFT
 62
1
 10
108.036
 20
-1708.914
 30
3293.000
 70
    32
  0
VERTEX
  8
E20LXLIFT
 62
1
 10
116.644
 20
-1712.963
 30
3293.000
 70
    32
  0
VERTEX
  8
E20LXLIFT
 62
1
 10
121.283
 20
-1719.472
 30
3293.000
 70
    32
  0
VERTEX
  8
E20LXLIFT
 62
1
 10
126.191
 20
-1728.286
 30
3293.000
 70
    32
  0
SEQEND
  8
E20LXLIFT
  0
POLYLINE
  8
E20LXLIFT
 62
27
 66
     1
 70
     9
  0
VERTEX
  8
E20LXLIFT
 62
27
 10
463.330
 20
-1988.482
 30
3277.000
 70
    32
  0
VERTEX
  8
E20LXLIFT
 62
27
 10
467.186
 20
-2002.411
 30
3277.000
 70
    32
  0
VERTEX
  8
E20LXLIFT
 62
27
 10
472.579
 20
-2015.764
 30
3277.000
 70
    32
  0
VERTEX
  8
E20LXLIFT
 62
27
 10
477.983
 20
-2024.216
 30
3277.000
 70
    32
  0
VERTEX
  8
E20LXLIFT
 62
27
 10
484.547
 20
-2022.036
 30
3277.000
 70
    32
  0
VERTEX
  8
E20LXLIFT
 62
27
 10
489.467
 20
-2012.685
 30
3277.000
 70
    32
  0
VERTEX
  8
E20LXLIFT
 62
27
 10
491.365
 20
-2003.364
 30
3277.000
 70
    32
  0
VERTEX
  8
E20LXLIFT
 62
27
 10
482.735
 20
-1993.025
 30
3277.000
 70
    32
  0
VERTEX
  8
E20LXLIFT
 62
27
 10
467.652
 20
-1976.522
 30
3277.000
 70
    32
  0
VERTEX
  8
E20LXLIFT
 62
27
 10
458.031
 20
-1958.862
 30
3277.000
 70
    32
  0
VERTEX
  8
E20LXLIFT
 62
27
 10
449.592
 20
-1942.078
 30
3277.000
 70
    32
  0
VERTEX
  8
E20LXLIFT
 62
27
 10
442.670
 20
-1928.864
 30
3277.000
 70
    32
  0
VERTEX
  8
E20LXLIFT
 62
27
 10
434.554
 20
-1920.868
 30
3277.000
 70
    32
  0
VERTEX
  8
E20LXLIFT
 62
27
 10
424.873
 20
-1915.645
 30
3277.000
 70
    32
  0
VERTEX
  8
E20LXLIFT
 62
27
 10
421.023
 20
-1910.517
 30
3277.000
 70
    32
  0
VERTEX
  8
E20LXLIFT
 62
27
 10
416.805
 20
-1918.595
 30
3277.000
 70
    32
  0
VERTEX
  8
E20LXLIFT
 62
27
 10
423.058
 20
-1933.277
 30
3277.000
 70
    32
  0
VERTEX
  8
E20LXLIFT
 62
27
 10
429.847
 20
-1943.328
 30
3277.000
 70
    32
  0
VERTEX
  8
E20LXLIFT
 62
27
 10
440.248
 20
-1955.201
 30
3277.000
 70
    32
  0
VERTEX
  8
E20LXLIFT
 62
27
 10
452.052
 20
-1972.574
 30
3277.000
 70
    32
  0
SEQEND
  8
E20LXLIFT
  0
POLYLINE
  8
E20LXLIFT
 62
11
 66
     1
 70
     9
  0
VERTEX
  8
E20LXLIFT
 62
11
 10
166.827
 20
-1374.397
 30
3289.000
 70
    32
  0
VERTEX
  8
E20LXLIFT
 62
11
 10
159.416
 20
-1381.696
 30
3289.000
 70
    32
  0
VERTEX
  8
E20LXLIFT
 62
11
 10
154.048
 20
-1388.821
 30
3289.000
 70
    32
  0
VERTEX
  8
E20LXLIFT
 62
11
 10
150.897
 20
-1400.523
 30
3289.000
 70
    32
  0
VERTEX
  8
E20LXLIFT
 62
11
 10
155.912
 20
-1410.774
 30
3289.000
 70
    32
  0
VERTEX
  8
E20LXLIFT
 62
11
 10
166.140
 20
-1417.589
 30
3289.000
 70
    32
  0
VERTEX
  8
E20LXLIFT
 62
11
 10
174.989
 20
-1418.138
 30
3289.000
 70
    32
  0
VERTEX
  8
E20LXLIFT
 62
11
 10
183.770
 20
-1419.494
 30
3289.000
 70
    32
  0
VERTEX
  8
E20LXLIFT
 62
11
 10
194.671
 20
-1426.039
 30
3289.000
 70
    32
  0
VERTEX
  8
E20LXLIFT
 62
11
 10
204.880
 20
-1429.074
 30
3289.000
 70
    32
  0
VERTEX
  8
E20LXLIFT
 62
11
 10
213.938
 20
-1432.615
 30
3289.000
 70
    32
  0
VERTEX
  8
E20LXLIFT
 62
11
 10
218.687
 20
-1442.950
 30
3289.000
 70
    32
  0
VERTEX
  8
E20LXLIFT
 62
11
 10
220.313
 20
-1457.815
 30
3289.000
 70
    32
  0
VERTEX
  8
E20LXLIFT
 62
11
 10
221.880
 20
-1471.097
 30
3289.000
 70
    32
  0
VERTEX
  8
E20LXLIFT
 62
11
 10
217.421
 20
-1478.433
 30
3289.000
 70
    32
  0
VERTEX
  8
E20LXLIFT
 62
11
 10
210.997
 20
-1470.282
 30
3289.000
 70
    32
  0
VERTEX
  8
E20LXLIFT
 62
11
 10
207.398
 20
-1463.343
 30
3289.000
 70
    32
  0
VERTEX
  8
E20LXLIFT
 62
11
 10
205.924
 20
-1456.496
 30
3289.000
 70
    32
  0
VERTEX
  8
E20LXLIFT
 62
11
 10
194.666
 20
-1452.159
 30
3289.000
 70
    32
  0
VERTEX
  8
E20LXLIFT
 62
11
 10
179.937
 20
-1450.219
 30
3289.000
 70
    32
  0
VERTEX
  8
E20LXLIFT
 62
11
 10
174.736
 20
-1452.022
 30
3289.000
 70
    32
  0
VERTEX
  8
E20LXLIFT
 62
11
 10
170.255
 20
-1454.822
 30
3289.000
 70
    32
  0
VERTEX
  8
E20LXLIFT
 62
11
 10
163.337
 20
-1443.885
 30
3289.000
 70
    32
  0
VERTEX
  8
E20LXLIFT
 62
11
 10
160.290
 20
-1430.805
 30
3289.000
 70
    32
  0
VERTEX
  8
E20LXLIFT
 62
11
 10
154.131
 20
-1424.522
 30
3289.000
 70
    32
  0
VERTEX
  8
E20LXLIFT
 62
11
 10
139.753
 20
-1413.009
 30
3289.000
 70
    32
  0
VERTEX
  8
E20LXLIFT
 62
11
 10
128.153
 20
-1401.441
 30
3289.000
 70
    32
  0
VERTEX
  8
E20LXLIFT
 62
11
 10
122.827
 20
-1388.055
 30
3289.000
 70
    32
  0
VERTEX
  8
E20LXLIFT
 62
11
 10
114.720
 20
-1370.066
 30
3289.000
 70
    32
  0
VERTEX
  8
E20LXLIFT
 62
11
 10
112.777
 20
-1357.163
 30
3289.000
 70
    32
  0
VERTEX
  8
E20LXLIFT
 62
11
 10
123.633
 20
-1356.589
 30
3289.000
 70
    32
  0
VERTEX
  8
E20LXLIFT
 62
11
 10
131.487
 20
-1360.565
 30
3289.000
 70
    32
  0
VERTEX
  8
E20LXLIFT
 62
11
 10
140.403
 20
-1362.258
 30
3289.000
 70
    32
  0
VERTEX
  8
E20LXLIFT
 62
11
 10
149.087
 20
-1358.375
 30
3289.000
 70
    32
  0
VERTEX
  8
E20LXLIFT
 62
11
 10
158.960
 20
-1361.544
 30
3289.000
 70
    32
  0
SEQEND
  8
E20LXLIFT
  0
POLYLINE
  8
E20LXLIFT
 62
11
 66
     1
 70
     9
  0
VERTEX
  8
E20LXLIFT
 62
11
 10
201.540
 20
-1454.025
 30
3289.000
 70
    32
  0
VERTEX
  8
E20LXLIFT
 62
11
 10
206.790
 20
-1458.147
 30
3289.000
 70
    32
  0
VERTEX
  8
E20LXLIFT
 62
11
 10
208.034
 20
-1466.027
 30
3289.000
 70
    32
  0
VERTEX
  8
E20LXLIFT
 62
11
 10
213.825
 20
-1474.201
 30
3289.000
 70
    32
  0
VERTEX
  8
E20LXLIFT
 62
11
 10
222.251
 20
-1484.374
 30
3289.000
 70
    32
  0
VERTEX
  8
E20LXLIFT
 62
11
 10
232.164
 20
-1497.810
 30
3289.000
 70
    32
  0
VERTEX
  8
E20LXLIFT
 62
11
 10
239.573
 20
-1508.826
 30
3289.000
 70
    32
  0
VERTEX
  8
E20LXLIFT
 62
11
 10
245.845
 20
-1523.372
 30
3289.000
 70
    32
  0
VERTEX
  8
E20LXLIFT
 62
11
 10
252.338
 20
-1539.275
 30
3289.000
 70
    32
  0
VERTEX
  8
E20LXLIFT
 62
11
 10
255.668
 20
-1556.052
 30
3289.000
 70
    32
  0
VERTEX
  8
E20LXLIFT
 62
11
 10
257.083
 20
-1573.778
 30
3289.000
 70
    32
  0
VERTEX
  8
E20LXLIFT
 62
11
 10
253.714
 20
-1588.780
 30
3289.000
 70
    32
  0
VERTEX
  8
E20LXLIFT
 62
11
 10
251.993
 20
-1600.209
 30
3289.000
 70
    32
  0
VERTEX
  8
E20LXLIFT
 62
11
 10
255.228
 20
-1605.893
 30
3289.000
 70
    32
  0
VERTEX
  8
E20LXLIFT
 62
11
 10
265.464
 20
-1599.806
 30
3289.000
 70
    32
  0
VERTEX
  8
E20LXLIFT
 62
11
 10
269.778
 20
-1610.888
 30
3289.000
 70
    32
  0
VERTEX
  8
E20LXLIFT
 62
11
 10
273.843
 20
-1623.126
 30
3289.000
 70
    32
  0
VERTEX
  8
E20LXLIFT
 62
11
 10
275.562
 20
-1630.013
 30
3289.000
 70
    32
  0
VERTEX
  8
E20LXLIFT
 62
11
 10
265.445
 20
-1633.413
 30
3289.000
 70
    32
  0
VERTEX
  8
E20LXLIFT
 62
11
 10
261.408
 20
-1636.977
 30
3289.000
 70
    32
  0
VERTEX
  8
E20LXLIFT
 62
11
 10
252.287
 20
-1631.097
 30
3289.000
 70
    32
  0
VERTEX
  8
E20LXLIFT
 62
11
 10
243.061
 20
-1622.368
 30
3289.000
 70
    32
  0
VERTEX
  8
E20LXLIFT
 62
11
 10
238.700
 20
-1611.970
 30
3289.000
 70
    32
  0
VERTEX
  8
E20LXLIFT
 62
11
 10
231.706
 20
-1602.280
 30
3289.000
 70
    32
  0
VERTEX
  8
E20LXLIFT
 62
11
 10
222.524
 20
-1592.110
 30
3289.000
 70
    32
  0
VERTEX
  8
E20LXLIFT
 62
11
 10
215.353
 20
-1579.622
 30
3289.000
 70
    32
  0
VERTEX
  8
E20LXLIFT
 62
11
 10
206.106
 20
-1562.455
 30
3289.000
 70
    32
  0
VERTEX
  8
E20LXLIFT
 62
11
 10
201.393
 20
-1551.119
 30
3289.000
 70
    32
  0
VERTEX
  8
E20LXLIFT
 62
11
 10
200.577
 20
-1539.028
 30
3289.000
 70
    32
  0
VERTEX
  8
E20LXLIFT
 62
11
 10
197.245
 20
-1528.105
 30
3289.000
 70
    32
  0
VERTEX
  8
E20LXLIFT
 62
11
 10
184.723
 20
-1517.961
 30
3289.000
 70
    32
  0
VERTEX
  8
E20LXLIFT
 62
11
 10
170.583
 20
-1504.976
 30
3289.000
 70
    32
  0
VERTEX
  8
E20LXLIFT
 62
11
 10
166.496
 20
-1488.203
 30
3289.000
 70
    32
  0
VERTEX
  8
E20LXLIFT
 62
11
 10
163.573
 20
-1473.191
 30
3289.000
 70
    32
  0
VERTEX
  8
E20LXLIFT
 62
11
 10
165.995
 20
-1460.931
 30
3289.000
 70
    32
  0
VERTEX
  8
E20LXLIFT
 62
11
 10
172.932
 20
-1450.723
 30
3289.000
 70
    32
  0
VERTEX
  8
E20LXLIFT
 62
11
 10
180.807
 20
-1450.674
 30
3289.000
 70
    32
  0
SEQEND
  8
E20LXLIFT
  0
POLYLINE
  8
E20LXLIFT
 62
11
 66
     1
 70
     9
  0
VERTEX
  8
E20LXLIFT
 62
11
 10
120.927
 20
-1346.477
 30
3299.000
 70
    32
  0
VERTEX
  8
E20LXLIFT
 62
11
 10
113.784
 20
-1348.147
 30
3299.000
 70
    32
  0
VERTEX
  8
E20LXLIFT
 62
11
 10
112.560
 20
-1358.347
 30
3299.000
 70
    32
  0
VERTEX
  8
E20LXLIFT
 62
11
 10
115.290
 20
-1364.402
 30
3299.000
 70
    32
  0
VERTEX
  8
E20LXLIFT
 62
11
 10
115.668
 20
-1376.376
 30
3299.000
 70
    32
  0
VERTEX
  8
E20LXLIFT
 62
11
 10
114.110
 20
-1387.467
 30
3299.000
 70
    32
  0
VERTEX
  8
E20LXLIFT
 62
11
 10
118.560
 20
-1397.269
 30
3299.000
 70
    32
  0
VERTEX
  8
E20LXLIFT
 62
11
 10
130.713
 20
-1404.673
 30
3299.000
 70
    32
  0
VERTEX
  8
E20LXLIFT
 62
11
 10
145.202
 20
-1413.215
 30
3299.000
 70
    32
  0
VERTEX
  8
E20LXLIFT
 62
11
 10
157.866
 20
-1420.577
 30
3299.000
 70
    32
  0
VERTEX
  8
E20LXLIFT
 62
11
 10
170.179
 20
-1429.709
 30
3299.000
 70
    32
  0
VERTEX
  8
E20LXLIFT
 62
11
 10
177.491
 20
-1438.970
 30
3299.000
 70
    32
  0
VERTEX
  8
E20LXLIFT
 62
11
 10
181.262
 20
-1453.704
 30
3299.000
 70
    32
  0
VERTEX
  8
E20LXLIFT
 62
11
 10
181.615
 20
-1464.287
 30
3299.000
 70
    32
  0
VERTEX
  8
E20LXLIFT
 62
11
 10
178.138
 20
-1473.615
 30
3299.000
 70
    32
  0
VERTEX
  8
E20LXLIFT
 62
11
 10
175.597
 20
-1484.545
 30
3299.000
 70
    32
  0
VERTEX
  8
E20LXLIFT
 62
11
 10
175.314
 20
-1497.861
 30
3299.000
 70
    32
  0
VERTEX
  8
E20LXLIFT
 62
11
 10
178.963
 20
-1506.398
 30
3299.000
 70
    32
  0
VERTEX
  8
E20LXLIFT
 62
11
 10
177.172
 20
-1515.056
 30
3299.000
 70
    32
  0
VERTEX
  8
E20LXLIFT
 62
11
 10
181.897
 20
-1524.336
 30
3299.000
 70
    32
  0
VERTEX
  8
E20LXLIFT
 62
11
 10
189.857
 20
-1525.761
 30
3299.000
 70
    32
  0
VERTEX
  8
E20LXLIFT
 62
11
 10
195.738
 20
-1538.003
 30
3299.000
 70
    32
  0
VERTEX
  8
E20LXLIFT
 62
11
 10
201.511
 20
-1552.056
 30
3299.000
 70
    32
  0
VERTEX
  8
E20LXLIFT
 62
11
 10
213.156
 20
-1566.436
 30
3299.000
 70
    32
  0
VERTEX
  8
E20LXLIFT
 62
11
 10
222.518
 20
-1577.040
 30
3299.000
 70
    32
  0
VERTEX
  8
E20LXLIFT
 62
11
 10
228.948
 20
-1585.527
 30
3299.000
 70
    32
  0
VERTEX
  8
E20LXLIFT
 62
11
 10
238.150
 20
-1582.050
 30
3299.000
 70
    32
  0
VERTEX
  8
E20LXLIFT
 62
11
 10
245.885
 20
-1570.959
 30
3299.000
 70
    32
  0
VERTEX
  8
E20LXLIFT
 62
11
 10
245.690
 20
-1561.347
 30
3299.000
 70
    32
  0
VERTEX
  8
E20LXLIFT
 62
11
 10
238.762
 20
-1553.977
 30
3299.000
 70
    32
  0
VERTEX
  8
E20LXLIFT
 62
11
 10
242.295
 20
-1540.057
 30
3299.000
 70
    32
  0
VERTEX
  8
E20LXLIFT
 62
11
 10
246.038
 20
-1527.936
 30
3299.000
 70
    32
  0
VERTEX
  8
E20LXLIFT
 62
11
 10
247.236
 20
-1519.056
 30
3299.000
 70
    32
  0
VERTEX
  8
E20LXLIFT
 62
11
 10
254.599
 20
-1516.035
 30
3299.000
 70
    32
  0
VERTEX
  8
E20LXLIFT
 62
11
 10
258.158
 20
-1506.973
 30
3299.000
 70
    32
  0
VERTEX
  8
E20LXLIFT
 62
11
 10
255.541
 20
-1497.911
 30
3299.000
 70
    32
  0
VERTEX
  8
E20LXLIFT
 62
11
 10
255.457
 20
-1481.825
 30
3299.000
 70
    32
  0
VERTEX
  8
E20LXLIFT
 62
11
 10
246.420
 20
-1464.593
 30
3299.000
 70
    32
  0
VERTEX
  8
E20LXLIFT
 62
11
 10
241.938
 20
-1448.419
 30
3299.000
 70
    32
  0
VERTEX
  8
E20LXLIFT
 62
11
 10
229.493
 20
-1436.240
 30
3299.000
 70
    32
  0
VERTEX
  8
E20LXLIFT
 62
11
 10
213.665
 20
-1421.618
 30
3299.000
 70
    32
  0
VERTEX
  8
E20LXLIFT
 62
11
 10
193.022
 20
-1407.534
 30
3299.000
 70
    32
  0
VERTEX
  8
E20LXLIFT
 62
11
 10
174.959
 20
-1391.160
 30
3299.000
 70
    32
  0
VERTEX
  8
E20LXLIFT
 62
11
 10
159.676
 20
-1377.446
 30
3299.000
 70
    32
  0
VERTEX
  8
E20LXLIFT
 62
11
 10
141.666
 20
-1368.077
 30
3299.000
 70
    32
  0
VERTEX
  8
E20LXLIFT
 62
11
 10
128.622
 20
-1360.339
 30
3299.000
 70
    32
  0
VERTEX
  8
E20LXLIFT
 62
11
 10
124.790
 20
-1354.860
 30
3299.000
 70
    32
  0
SEQEND
  8
E20LXLIFT
  0
POLYLINE
  8
E20LXLIFT
 62
11
 66
     1
 70
     9
  0
VERTEX
  8
E20LXLIFT
 62
11
 10
93.551
 20
-1321.732
 30
3311.000
 70
    32
  0
VERTEX
  8
E20LXLIFT
 62
11
 10
103.419
 20
-1319.028
 30
3311.000
 70
    32
  0
VERTEX
  8
E20LXLIFT
 62
11
 10
107.677
 20
-1326.250
 30
3311.000
 70
    32
  0
VERTEX
  8
E20LXLIFT
 62
11
 10
116.451
 20
-1341.049
 30
3311.000
 70
    32
  0
VERTEX
  8
E20LXLIFT
 62
11
 10
121.316
 20
-1356.294
 30
3311.000
 70
    32
  0
VERTEX
  8
E20LXLIFT
 62
11
 10
125.586
 20
-1368.173
 30
3311.000
 70
    32
  0
VERTEX
  8
E20LXLIFT
 62
11
 10
129.431
 20
-1374.826
 30
3311.000
 70
    32
  0
VERTEX
  8
E20LXLIFT
 62
11
 10
139.967
 20
-1378.583
 30
3311.000
 70
    32
  0
VERTEX
  8
E20LXLIFT
 62
11
 10
153.155
 20
-1383.455
 30
3311.000
 70
    32
  0
VERTEX
  8
E20LXLIFT
 62
11
 10
171.678
 20
-1388.801
 30
3311.000
 70
    32
  0
VERTEX
  8
E20LXLIFT
 62
11
 10
187.268
 20
-1390.847
 30
3311.000
 70
    32
  0
VERTEX
  8
E20LXLIFT
 62
11
 10
195.977
 20
-1393.432
 30
3311.000
 70
    32
  0
VERTEX
  8
E20LXLIFT
 62
11
 10
202.580
 20
-1404.488
 30
3311.000
 70
    32
  0
VERTEX
  8
E20LXLIFT
 62
11
 10
203.438
 20
-1413.306
 30
3311.000
 70
    32
  0
VERTEX
  8
E20LXLIFT
 62
11
 10
199.749
 20
-1421.840
 30
3311.000
 70
    32
  0
VERTEX
  8
E20LXLIFT
 62
11
 10
203.041
 20
-1431.172
 30
3311.000
 70
    32
  0
VERTEX
  8
E20LXLIFT
 62
11
 10
211.519
 20
-1441.521
 30
3311.000
 70
    32
  0
VERTEX
  8
E20LXLIFT
 62
11
 10
215.569
 20
-1449.653
 30
3311.000
 70
    32
  0
VERTEX
  8
E20LXLIFT
 62
11
 10
212.927
 20
-1461.876
 30
3311.000
 70
    32
  0
VERTEX
  8
E20LXLIFT
 62
11
 10
219.572
 20
-1474.637
 30
3311.000
 70
    32
  0
VERTEX
  8
E20LXLIFT
 62
11
 10
223.019
 20
-1484.183
 30
3311.000
 70
    32
  0
VERTEX
  8
E20LXLIFT
 62
11
 10
226.056
 20
-1499.451
 30
3311.000
 70
    32
  0
VERTEX
  8
E20LXLIFT
 62
11
 10
233.799
 20
-1512.828
 30
3311.000
 70
    32
  0
VERTEX
  8
E20LXLIFT
 62
11
 10
240.550
 20
-1520.196
 30
3311.000
 70
    32
  0
VERTEX
  8
E20LXLIFT
 62
11
 10
248.444
 20
-1527.495
 30
3311.000
 70
    32
  0
VERTEX
  8
E20LXLIFT
 62
11
 10
248.271
 20
-1539.231
 30
3311.000
 70
    32
  0
VERTEX
  8
E20LXLIFT
 62
11
 10
245.636
 20
-1551.015
 30
3311.000
 70
    32
  0
VERTEX
  8
E20LXLIFT
 62
11
 10
235.460
 20
-1556.437
 30
3311.000
 70
    32
  0
VERTEX
  8
E20LXLIFT
 62
11
 10
226.087
 20
-1561.170
 30
3311.000
 70
    32
  0
VERTEX
  8
E20LXLIFT
 62
11
 10
218.513
 20
-1551.469
 30
3311.000
 70
    32
  0
VERTEX
  8
E20LXLIFT
 62
11
 10
212.770
 20
-1539.355
 30
3311.000
 70
    32
  0
VERTEX
  8
E20LXLIFT
 62
11
 10
206.383
 20
-1526.949
 30
3311.000
 70
    32
  0
VERTEX
  8
E20LXLIFT
 62
11
 10
195.736
 20
-1516.003
 30
3311.000
 70
    32
  0
VERTEX
  8
E20LXLIFT
 62
11
 10
187.323
 20
-1501.702
 30
3311.000
 70
    32
  0
VERTEX
  8
E20LXLIFT
 62
11
 10
181.716
 20
-1485.583
 30
3311.000
 70
    32
  0
VERTEX
  8
E20LXLIFT
 62
11
 10
185.919
 20
-1474.616
 30
3311.000
 70
    32
  0
VERTEX
  8
E20LXLIFT
 62
11
 10
192.961
 20
-1462.025
 30
3311.000
 70
    32
  0
VERTEX
  8
E20LXLIFT
 62
11
 10
196.776
 20
-1451.121
 30
3311.000
 70
    32
  0
VERTEX
  8
E20LXLIFT
 62
11
 10
188.984
 20
-1440.819
 30
3311.000
 70
    32
  0
VERTEX
  8
E20LXLIFT
 62
11
 10
181.614
 20
-1428.257
 30
3311.000
 70
    32
  0
VERTEX
  8
E20LXLIFT
 62
11
 10
172.937
 20
-1425.866
 30
3311.000
 70
    32
  0
VERTEX
  8
E20LXLIFT
 62
11
 10
162.557
 20
-1425.468
 30
3311.000
 70
    32
  0
VERTEX
  8
E20LXLIFT
 62
11
 10
153.507
 20
-1417.922
 30
3311.000
 70
    32
  0
VERTEX
  8
E20LXLIFT
 62
11
 10
143.064
 20
-1412.796
 30
3311.000
 70
    32
  0
VERTEX
  8
E20LXLIFT
 62
11
 10
132.631
 20
-1413.522
 30
3311.000
 70
    32
  0
VERTEX
  8
E20LXLIFT
 62
11
 10
128.477
 20
-1402.102
 30
3311.000
 70
    32
  0
VERTEX
  8
E20LXLIFT
 62
11
 10
122.210
 20
-1390.911
 30
3311.000
 70
    32
  0
VERTEX
  8
E20LXLIFT
 62
11
 10
116.441
 20
-1379.359
 30
3311.000
 70
    32
  0
VERTEX
  8
E20LXLIFT
 62
11
 10
109.580
 20
-1372.288
 30
3311.000
 70
    32
  0
VERTEX
  8
E20LXLIFT
 62
11
 10
100.659
 20
-1368.663
 30
3311.000
 70
    32
  0
VERTEX
  8
E20LXLIFT
 62
11
 10
100.523
 20
-1360.841
 30
3311.000
 70
    32
  0
VERTEX
  8
E20LXLIFT
 62
11
 10
105.525
 20
-1354.719
 30
3311.000
 70
    32
  0
VERTEX
  8
E20LXLIFT
 62
11
 10
101.051
 20
-1341.360
 30
3311.000
 70
    32
  0
SEQEND
  8
E20LXLIFT
  0
POLYLINE
  8
E20LXLIFT
 62
3
 66
     1
 70
     9
  0
VERTEX
  8
E20LXLIFT
 62
3
 10
88.045
 20
-1331.493
 30
3318.000
 70
    32
  0
VERTEX
  8
E20LXLIFT
 62
3
 10
86.680
 20
-1316.893
 30
3318.000
 70
    32
  0
VERTEX
  8
E20LXLIFT
 62
3
 10
83.945
 20
-1311.619
 30
3318.000
 70
    32
  0
VERTEX
  8
E20LXLIFT
 62
3
 10
78.459
 20
-1303.142
 30
3318.000
 70
    32
  0
VERTEX
  8
E20LXLIFT
 62
3
 10
76.868
 20
-1291.520
 30
3318.000
 70
    32
  0
VERTEX
  8
E20LXLIFT
 62
3
 10
77.676
 20
-1282.167
 30
3318.000
 70
    32
  0
VERTEX
  8
E20LXLIFT
 62
3
 10
83.178
 20
-1275.262
 30
3318.000
 70
    32
  0
VERTEX
  8
E20LXLIFT
 62
3
 10
80.905
 20
-1268.681
 30
3318.000
 70
    32
  0
VERTEX
  8
E20LXLIFT
 62
3
 10
84.570
 20
-1261.481
 30
3318.000
 70
    32
  0
VERTEX
  8
E20LXLIFT
 62
3
 10
79.841
 20
-1251.806
 30
3318.000
 70
    32
  0
VERTEX
  8
E20LXLIFT
 62
3
 10
77.129
 20
-1245.217
 30
3318.000
 70
    32
  0
VERTEX
  8
E20LXLIFT
 62
3
 10
86.016
 20
-1241.492
 30
3318.000
 70
    32
  0
VERTEX
  8
E20LXLIFT
 62
3
 10
88.637
 20
-1248.254
 30
3318.000
 70
    32
  0
VERTEX
  8
E20LXLIFT
 62
3
 10
95.385
 20
-1254.736
 30
3318.000
 70
    32
  0
VERTEX
  8
E20LXLIFT
 62
3
 10
103.086
 20
-1250.570
 30
3318.000
 70
    32
  0
VERTEX
  8
E20LXLIFT
 62
3
 10
112.012
 20
-1246.600
 30
3318.000
 70
    32
  0
VERTEX
  8
E20LXLIFT
 62
3
 10
121.329
 20
-1243.320
 30
3318.000
 70
    32
  0
VERTEX
  8
E20LXLIFT
 62
3
 10
125.569
 20
-1249.777
 30
3318.000
 70
    32
  0
VERTEX
  8
E20LXLIFT
 62
3
 10
131.813
 20
-1257.058
 30
3318.000
 70
    32
  0
VERTEX
  8
E20LXLIFT
 62
3
 10
137.851
 20
-1264.054
 30
3318.000
 70
    32
  0
VERTEX
  8
E20LXLIFT
 62
3
 10
147.009
 20
-1268.034
 30
3318.000
 70
    32
  0
VERTEX
  8
E20LXLIFT
 62
3
 10
146.264
 20
-1272.687
 30
3318.000
 70
    32
  0
VERTEX
  8
E20LXLIFT
 62
3
 10
149.097
 20
-1282.435
 30
3318.000
 70
    32
  0
VERTEX
  8
E20LXLIFT
 62
3
 10
154.031
 20
-1298.674
 30
3318.000
 70
    32
  0
VERTEX
  8
E20LXLIFT
 62
3
 10
152.823
 20
-1310.915
 30
3318.000
 70
    32
  0
VERTEX
  8
E20LXLIFT
 62
3
 10
145.788
 20
-1322.284
 30
3318.000
 70
    32
  0
VERTEX
  8
E20LXLIFT
 62
3
 10
138.505
 20
-1329.720
 30
3318.000
 70
    32
  0
VERTEX
  8
E20LXLIFT
 62
3
 10
131.462
 20
-1336.441
 30
3318.000
 70
    32
  0
VERTEX
  8
E20LXLIFT
 62
3
 10
119.616
 20
-1346.098
 30
3318.000
 70
    32
  0
VERTEX
  8
E20LXLIFT
 62
3
 10
113.887
 20
-1355.981
 30
3318.000
 70
    32
  0
VERTEX
  8
E20LXLIFT
 62
3
 10
107.394
 20
-1359.273
 30
3318.000
 70
    32
  0
VERTEX
  8
E20LXLIFT
 62
3
 10
98.357
 20
-1355.313
 30
3318.000
 70
    32
  0
VERTEX
  8
E20LXLIFT
 62
3
 10
92.131
 20
-1349.103
 30
3318.000
 70
    32
  0
SEQEND
  8
E20LXLIFT
  0
POLYLINE
  8
E20LXLIFT
 62
11
 66
     1
 70
     9
  0
VERTEX
  8
E20LXLIFT
 62
11
 10
182.919
 20
-1402.902
 30
3319.000
 70
    32
  0
VERTEX
  8
E20LXLIFT
 62
11
 10
183.922
 20
-1406.830
 30
3319.000
 70
    32
  0
VERTEX
  8
E20LXLIFT
 62
11
 10
168.480
 20
-1407.182
 30
3319.000
 70
    32
  0
VERTEX
  8
E20LXLIFT
 62
11
 10
158.753
 20
-1411.840
 30
3319.000
 70
    32
  0
VERTEX
  8
E20LXLIFT
 62
11
 10
148.446
 20
-1416.593
 30
3319.000
 70
    32
  0
VERTEX
  8
E20LXLIFT
 62
11
 10
136.247
 20
-1417.088
 30
3319.000
 70
    32
  0
VERTEX
  8
E20LXLIFT
 62
11
 10
131.061
 20
-1412.614
 30
3319.000
 70
    32
  0
VERTEX
  8
E20LXLIFT
 62
11
 10
132.210
 20
-1400.741
 30
3319.000
 70
    32
  0
VERTEX
  8
E20LXLIFT
 62
11
 10
127.375
 20
-1392.116
 30
3319.000
 70
    32
  0
VERTEX
  8
E20LXLIFT
 62
11
 10
114.328
 20
-1382.615
 30
3319.000
 70
    32
  0
VERTEX
  8
E20LXLIFT
 62
11
 10
105.316
 20
-1371.060
 30
3319.000
 70
    32
  0
VERTEX
  8
E20LXLIFT
 62
11
 10
97.428
 20
-1358.367
 30
3319.000
 70
    32
  0
VERTEX
  8
E20LXLIFT
 62
11
 10
92.070
 20
-1347.523
 30
3319.000
 70
    32
  0
VERTEX
  8
E20LXLIFT
 62
11
 10
104.236
 20
-1341.749
 30
3319.000
 70
    32
  0
VERTEX
  8
E20LXLIFT
 62
11
 10
108.412
 20
-1350.959
 30
3319.000
 70
    32
  0
VERTEX
  8
E20LXLIFT
 62
11
 10
108.664
 20
-1361.926
 30
3319.000
 70
    32
  0
VERTEX
  8
E20LXLIFT
 62
11
 10
110.281
 20
-1367.900
 30
3319.000
 70
    32
  0
VERTEX
  8
E20LXLIFT
 62
11
 10
120.289
 20
-1375.595
 30
3319.000
 70
    32
  0
VERTEX
  8
E20LXLIFT
 62
11
 10
131.610
 20
-1381.366
 30
3319.000
 70
    32
  0
VERTEX
  8
E20LXLIFT
 62
11
 10
138.254
 20
-1382.619
 30
3319.000
 70
    32
  0
VERTEX
  8
E20LXLIFT
 62
11
 10
148.072
 20
-1382.874
 30
3319.000
 70
    32
  0
VERTEX
  8
E20LXLIFT
 62
11
 10
161.211
 20
-1385.921
 30
3319.000
 70
    32
  0
VERTEX
  8
E20LXLIFT
 62
11
 10
170.966
 20
-1385.789
 30
3319.000
 70
    32
  0
VERTEX
  8
E20LXLIFT
 62
11
 10
177.471
 20
-1385.952
 30
3319.000
 70
    32
  0
SEQEND
  8
E20LXLIFT
  0
POLYLINE
  8
E20LXLIFT
 62
11
 66
     1
 70
     9
  0
VERTEX
  8
E20LXLIFT
 62
11
 10
214.351
 20
-1496.736
 30
3319.000
 70
    32
  0
VERTEX
  8
E20LXLIFT
 62
11
 10
222.450
 20
-1490.875
 30
3319.000
 70
    32
  0
VERTEX
  8
E20LXLIFT
 62
11
 10
229.193
 20
-1504.829
 30
3319.000
 70
    32
  0
VERTEX
  8
E20LXLIFT
 62
11
 10
234.055
 20
-1516.033
 30
3319.000
 70
    32
  0
VERTEX
  8
E20LXLIFT
 62
11
 10
230.806
 20
-1529.642
 30
3319.000
 70
    32
  0
VERTEX
  8
E20LXLIFT
 62
11
 10
226.013
 20
-1539.173
 30
3319.000
 70
    32
  0
VERTEX
  8
E20LXLIFT
 62
11
 10
222.859
 20
-1548.275
 30
3319.000
 70
    32
  0
VERTEX
  8
E20LXLIFT
 62
11
 10
221.714
 20
-1552.676
 30
3319.000
 70
    32
  0
VERTEX
  8
E20LXLIFT
 62
11
 10
214.794
 20
-1556.277
 30
3319.000
 70
    32
  0
VERTEX
  8
E20LXLIFT
 62
11
 10
204.561
 20
-1548.420
 30
3319.000
 70
    32
  0
VERTEX
  8
E20LXLIFT
 62
11
 10
200.297
 20
-1538.191
 30
3319.000
 70
    32
  0
VERTEX
  8
E20LXLIFT
 62
11
 10
198.760
 20
-1525.448
 30
3319.000
 70
    32
  0
VERTEX
  8
E20LXLIFT
 62
11
 10
194.177
 20
-1511.338
 30
3319.000
 70
    32
  0
VERTEX
  8
E20LXLIFT
 62
11
 10
188.811
 20
-1500.932
 30
3319.000
 70
    32
  0
VERTEX
  8
E20LXLIFT
 62
11
 10
182.822
 20
-1492.060
 30
3319.000
 70
    32
  0
VERTEX
  8
E20LXLIFT
 62
11
 10
188.385
 20
-1478.508
 30
3319.000
 70
    32
  0
VERTEX
  8
E20LXLIFT
 62
11
 10
196.758
 20
-1470.932
 30
3319.000
 70
    32
  0
VERTEX
  8
E20LXLIFT
 62
11
 10
204.511
 20
-1486.430
 30
3319.000
 70
    32
  0
SEQEND
  8
E20LXLIFT
  0
POLYLINE
  8
E20LXLIFT
 62
3
 66
     1
 70
     9
  0
VERTEX
  8
E20LXLIFT
 62
3
 10
80.518
 20
-1245.674
 30
3329.000
 70
    32
  0
VERTEX
  8
E20LXLIFT
 62
3
 10
85.909
 20
-1242.629
 30
3329.000
 70
    32
  0
VERTEX
  8
E20LXLIFT
 62
3
 10
93.449
 20
-1248.230
 30
3329.000
 70
    32
  0
VERTEX
  8
E20LXLIFT
 62
3
 10
99.738
 20
-1251.808
 30
3329.000
 70
    32
  0
VERTEX
  8
E20LXLIFT
 62
3
 10
107.331
 20
-1249.553
 30
3329.000
 70
    32
  0
VERTEX
  8
E20LXLIFT
 62
3
 10
110.897
 20
-1248.484
 30
3329.000
 70
    32
  0
VERTEX
  8
E20LXLIFT
 62
3
 10
119.837
 20
-1256.761
 30
3329.000
 70
    32
  0
VERTEX
  8
E20LXLIFT
 62
3
 10
129.847
 20
-1260.678
 30
3329.000
 70
    32
  0
VERTEX
  8
E20LXLIFT
 62
3
 10
134.846
 20
-1269.209
 30
3329.000
 70
    32
  0
VERTEX
  8
E20LXLIFT
 62
3
 10
142.589
 20
-1271.949
 30
3329.000
 70
    32
  0
VERTEX
  8
E20LXLIFT
 62
3
 10
146.308
 20
-1274.678
 30
3329.000
 70
    32
  0
VERTEX
  8
E20LXLIFT
 62
3
 10
145.370
 20
-1284.154
 30
3329.000
 70
    32
  0
VERTEX
  8
E20LXLIFT
 62
3
 10
146.088
 20
-1289.930
 30
3329.000
 70
    32
  0
VERTEX
  8
E20LXLIFT
 62
3
 10
150.045
 20
-1293.138
 30
3329.000
 70
    32
  0
VERTEX
  8
E20LXLIFT
 62
3
 10
147.557
 20
-1301.676
 30
3329.000
 70
    32
  0
VERTEX
  8
E20LXLIFT
 62
3
 10
140.750
 20
-1307.703
 30
3329.000
 70
    32
  0
VERTEX
  8
E20LXLIFT
 62
3
 10
136.913
 20
-1314.832
 30
3329.000
 70
    32
  0
VERTEX
  8
E20LXLIFT
 62
3
 10
136.243
 20
-1319.444
 30
3329.000
 70
    32
  0
VERTEX
  8
E20LXLIFT
 62
3
 10
133.883
 20
-1322.026
 30
3329.000
 70
    32
  0
VERTEX
  8
E20LXLIFT
 62
3
 10
133.861
 20
-1325.734
 30
3329.000
 70
    32
  0
VERTEX
  8
E20LXLIFT
 62
3
 10
129.245
 20
-1329.845
 30
3329.000
 70
    32
  0
VERTEX
  8
E20LXLIFT
 62
3
 10
118.662
 20
-1331.121
 30
3329.000
 70
    32
  0
VERTEX
  8
E20LXLIFT
 62
3
 10
104.231
 20
-1330.088
 30
3329.000
 70
    32
  0
VERTEX
  8
E20LXLIFT
 62
3
 10
98.401
 20
-1326.394
 30
3329.000
 70
    32
  0
VERTEX
  8
E20LXLIFT
 62
3
 10
93.813
 20
-1312.895
 30
3329.000
 70
    32
  0
VERTEX
  8
E20LXLIFT
 62
3
 10
87.073
 20
-1307.799
 30
3329.000
 70
    32
  0
VERTEX
  8
E20LXLIFT
 62
3
 10
81.815
 20
-1300.107
 30
3329.000
 70
    32
  0
VERTEX
  8
E20LXLIFT
 62
3
 10
79.978
 20
-1295.034
 30
3329.000
 70
    32
  0
VERTEX
  8
E20LXLIFT
 62
3
 10
86.292
 20
-1284.587
 30
3329.000
 70
    32
  0
VERTEX
  8
E20LXLIFT
 62
3
 10
87.780
 20
-1274.821
 30
3329.000
 70
    32
  0
VERTEX
  8
E20LXLIFT
 62
3
 10
86.077
 20
-1264.548
 30
3329.000
 70
    32
  0
VERTEX
  8
E20LXLIFT
 62
3
 10
83.677
 20
-1253.913
 30
3329.000
 70
    32
  0
SEQEND
  8
E20LXLIFT
  0
POLYLINE
  8
E20LXLIFT
 62
11
 66
     1
 70
     9
  0
VERTEX
  8
E20LXLIFT
 62
11
 10
179.460
 20
-1409.786
 30
3330.000
 70
    32
  0
VERTEX
  8
E20LXLIFT
 62
11
 10
164.779
 20
-1414.689
 30
3330.000
 70
    32
  0
VERTEX
  8
E20LXLIFT
 62
11
 10
151.300
 20
-1417.959
 30
3330.000
 70
    32
  0
VERTEX
  8
E20LXLIFT
 62
11
 10
140.917
 20
-1419.959
 30
3330.000
 70
    32
  0
VERTEX
  8
E20LXLIFT
 62
11
 10
134.198
 20
-1421.472
 30
3330.000
 70
    32
  0
VERTEX
  8
E20LXLIFT
 62
11
 10
127.111
 20
-1413.804
 30
3330.000
 70
    32
  0
VERTEX
  8
E20LXLIFT
 62
11
 10
125.739
 20
-1401.445
 30
3330.000
 70
    32
  0
VERTEX
  8
E20LXLIFT
 62
11
 10
124.239
 20
-1388.310
 30
3330.000
 70
    32
  0
VERTEX
  8
E20LXLIFT
 62
11
 10
119.943
 20
-1380.897
 30
3330.000
 70
    32
  0
VERTEX
  8
E20LXLIFT
 62
11
 10
126.363
 20
-1374.933
 30
3330.000
 70
    32
  0
VERTEX
  8
E20LXLIFT
 62
11
 10
135.130
 20
-1373.998
 30
3330.000
 70
    32
  0
VERTEX
  8
E20LXLIFT
 62
11
 10
146.632
 20
-1378.026
 30
3330.000
 70
    32
  0
VERTEX
  8
E20LXLIFT
 62
11
 10
154.567
 20
-1383.123
 30
3330.000
 70
    32
  0
VERTEX
  8
E20LXLIFT
 62
11
 10
159.986
 20
-1391.784
 30
3330.000
 70
    32
  0
VERTEX
  8
E20LXLIFT
 62
11
 10
163.508
 20
-1398.131
 30
3330.000
 70
    32
  0
VERTEX
  8
E20LXLIFT
 62
11
 10
171.240
 20
-1398.164
 30
3330.000
 70
    32
  0
VERTEX
  8
E20LXLIFT
 62
11
 10
174.808
 20
-1395.899
 30
3330.000
 70
    32
  0
SEQEND
  8
E20LXLIFT
  0
POLYLINE
  8
E20LXLIFT
 62
11
 66
     1
 70
     9
  0
VERTEX
  8
E20LXLIFT
 62
11
 10
197.046
 20
-1453.154
 30
3330.000
 70
    32
  0
VERTEX
  8
E20LXLIFT
 62
11
 10
189.154
 20
-1457.689
 30
3330.000
 70
    32
  0
VERTEX
  8
E20LXLIFT
 62
11
 10
180.191
 20
-1461.047
 30
3330.000
 70
    32
  0
VERTEX
  8
E20LXLIFT
 62
11
 10
177.114
 20
-1471.316
 30
3330.000
 70
    32
  0
VERTEX
  8
E20LXLIFT
 62
11
 10
172.913
 20
-1480.337
 30
3330.000
 70
    32
  0
VERTEX
  8
E20LXLIFT
 62
11
 10
159.819
 20
-1487.128
 30
3330.000
 70
    32
  0
VERTEX
  8
E20LXLIFT
 62
11
 10
155.956
 20
-1494.818
 30
3330.000
 70
    32
  0
VERTEX
  8
E20LXLIFT
 62
11
 10
162.053
 20
-1503.965
 30
3330.000
 70
    32
  0
VERTEX
  8
E20LXLIFT
 62
11
 10
176.770
 20
-1510.328
 30
3330.000
 70
    32
  0
VERTEX
  8
E20LXLIFT
 62
11
 10
187.961
 20
-1515.124
 30
3330.000
 70
    32
  0
VERTEX
  8
E20LXLIFT
 62
11
 10
198.208
 20
-1520.714
 30
3330.000
 70
    32
  0
VERTEX
  8
E20LXLIFT
 62
11
 10
204.698
 20
-1523.821
 30
3330.000
 70
    32
  0
VERTEX
  8
E20LXLIFT
 62
11
 10
214.902
 20
-1526.511
 30
3330.000
 70
    32
  0
VERTEX
  8
E20LXLIFT
 62
11
 10
222.862
 20
-1533.436
 30
3330.000
 70
    32
  0
VERTEX
  8
E20LXLIFT
 62
11
 10
229.307
 20
-1534.837
 30
3330.000
 70
    32
  0
VERTEX
  8
E20LXLIFT
 62
11
 10
212.034
 20
-1489.505
 30
3330.000
 70
    32
  0
SEQEND
  8
E20LXLIFT
  0
POLYLINE
  8
E20LXLIFT
 62
11
 66
     1
 70
     9
  0
VERTEX
  8
E20LXLIFT
 62
11
 10
125.428
 20
-1373.123
 30
3338.000
 70
    32
  0
VERTEX
  8
E20LXLIFT
 62
11
 10
131.610
 20
-1378.386
 30
3338.000
 70
    32
  0
VERTEX
  8
E20LXLIFT
 62
11
 10
140.621
 20
-1377.388
 30
3338.000
 70
    32
  0
VERTEX
  8
E20LXLIFT
 62
11
 10
150.113
 20
-1374.962
 30
3338.000
 70
    32
  0
VERTEX
  8
E20LXLIFT
 62
11
 10
153.884
 20
-1380.778
 30
3338.000
 70
    32
  0
VERTEX
  8
E20LXLIFT
 62
11
 10
154.381
 20
-1389.394
 30
3338.000
 70
    32
  0
VERTEX
  8
E20LXLIFT
 62
11
 10
148.549
 20
-1394.042
 30
3338.000
 70
    32
  0
VERTEX
  8
E20LXLIFT
 62
11
 10
149.862
 20
-1403.041
 30
3338.000
 70
    32
  0
VERTEX
  8
E20LXLIFT
 62
11
 10
149.301
 20
-1413.935
 30
3338.000
 70
    32
  0
VERTEX
  8
E20LXLIFT
 62
11
 10
141.566
 20
-1417.146
 30
3338.000
 70
    32
  0
VERTEX
  8
E20LXLIFT
 62
11
 10
129.633
 20
-1423.825
 30
3338.000
 70
    32
  0
VERTEX
  8
E20LXLIFT
 62
11
 10
122.017
 20
-1430.194
 30
3338.000
 70
    32
  0
VERTEX
  8
E20LXLIFT
 62
11
 10
115.791
 20
-1424.422
 30
3338.000
 70
    32
  0
VERTEX
  8
E20LXLIFT
 62
11
 10
118.032
 20
-1420.640
 30
3338.000
 70
    32
  0
VERTEX
  8
E20LXLIFT
 62
11
 10
124.054
 20
-1417.152
 30
3338.000
 70
    32
  0
VERTEX
  8
E20LXLIFT
 62
11
 10
121.812
 20
-1408.067
 30
3338.000
 70
    32
  0
VERTEX
  8
E20LXLIFT
 62
11
 10
123.921
 20
-1398.866
 30
3338.000
 70
    32
  0
VERTEX
  8
E20LXLIFT
 62
11
 10
123.323
 20
-1392.054
 30
3338.000
 70
    32
  0
VERTEX
  8
E20LXLIFT
 62
11
 10
120.482
 20
-1383.186
 30
3338.000
 70
    32
  0
SEQEND
  8
E20LXLIFT
  0
POLYLINE
  8
E20LXLIFT
 62
11
 66
     1
 70
     9
  0
VERTEX
  8
E20LXLIFT
 62
11
 10
175.452
 20
-1464.779
 30
3341.000
 70
    32
  0
VERTEX
  8
E20LXLIFT
 62
11
 10
184.470
 20
-1461.397
 30
3341.000
 70
    32
  0
VERTEX
  8
E20LXLIFT
 62
11
 10
194.424
 20
-1459.610
 30
3341.000
 70
    32
  0
VERTEX
  8
E20LXLIFT
 62
11
 10
202.017
 20
-1458.447
 30
3341.000
 70
    32
  0
VERTEX
  8
E20LXLIFT
 62
11
 10
204.801
 20
-1460.652
 30
3341.000
 70
    32
  0
VERTEX
  8
E20LXLIFT
 62
11
 10
199.490
 20
-1465.572
 30
3341.000
 70
    32
  0
VERTEX
  8
E20LXLIFT
 62
11
 10
196.228
 20
-1472.579
 30
3341.000
 70
    32
  0
VERTEX
  8
E20LXLIFT
 62
11
 10
197.936
 20
-1479.130
 30
3341.000
 70
    32
  0
VERTEX
  8
E20LXLIFT
 62
11
 10
202.497
 20
-1487.836
 30
3341.000
 70
    32
  0
VERTEX
  8
E20LXLIFT
 62
11
 10
203.274
 20
-1497.439
 30
3341.000
 70
    32
  0
VERTEX
  8
E20LXLIFT
 62
11
 10
202.065
 20
-1505.341
 30
3341.000
 70
    32
  0
VERTEX
  8
E20LXLIFT
 62
11
 10
194.685
 20
-1508.296
 30
3341.000
 70
    32
  0
VERTEX
  8
E20LXLIFT
 62
11
 10
187.237
 20
-1508.164
 30
3341.000
 70
    32
  0
VERTEX
  8
E20LXLIFT
 62
11
 10
182.167
 20
-1501.448
 30
3341.000
 70
    32
  0
VERTEX
  8
E20LXLIFT
 62
11
 10
185.176
 20
-1492.894
 30
3341.000
 70
    32
  0
VERTEX
  8
E20LXLIFT
 62
11
 10
181.864
 20
-1479.933
 30
3341.000
 70
    32
  0
SEQEND
  8
E20LXLIFT
  0
POLYLINE
  8
E20LXLIFT
 62
11
 66
     1
 70
     9
  0
VERTEX
  8
E20LXLIFT
 62
11
 10
208.505
 20
-1541.516
 30
3352.000
 70
    32
  0
VERTEX
  8
E20LXLIFT
 62
11
 10
205.444
 20
-1534.085
 30
3352.000
 70
    32
  0
VERTEX
  8
E20LXLIFT
 62
11
 10
204.976
 20
-1521.224
 30
3352.000
 70
    32
  0
VERTEX
  8
E20LXLIFT
 62
11
 10
206.794
 20
-1507.478
 30
3352.000
 70
    32
  0
VERTEX
  8
E20LXLIFT
 62
11
 10
205.802
 20
-1497.805
 30
3352.000
 70
    32
  0
VERTEX
  8
E20LXLIFT
 62
11
 10
203.761
 20
-1489.534
 30
3352.000
 70
    32
  0
VERTEX
  8
E20LXLIFT
 62
11
 10
203.933
 20
-1479.674
 30
3352.000
 70
    32
  0
VERTEX
  8
E20LXLIFT
 62
11
 10
196.865
 20
-1471.333
 30
3352.000
 70
    32
  0
VERTEX
  8
E20LXLIFT
 62
11
 10
195.797
 20
-1464.418
 30
3352.000
 70
    32
  0
VERTEX
  8
E20LXLIFT
 62
11
 10
197.078
 20
-1457.008
 30
3352.000
 70
    32
  0
VERTEX
  8
E20LXLIFT
 62
11
 10
193.299
 20
-1452.797
 30
3352.000
 70
    32
  0
VERTEX
  8
E20LXLIFT
 62
11
 10
188.280
 20
-1460.726
 30
3352.000
 70
    32
  0
VERTEX
  8
E20LXLIFT
 62
11
 10
185.555
 20
-1466.576
 30
3352.000
 70
    32
  0
VERTEX
  8
E20LXLIFT
 62
11
 10
186.979
 20
-1477.454
 30
3352.000
 70
    32
  0
VERTEX
  8
E20LXLIFT
 62
11
 10
189.182
 20
-1489.719
 30
3352.000
 70
    32
  0
VERTEX
  8
E20LXLIFT
 62
11
 10
190.230
 20
-1501.732
 30
3352.000
 70
    32
  0
VERTEX
  8
E20LXLIFT
 62
11
 10
187.567
 20
-1512.190
 30
3352.000
 70
    32
  0
VERTEX
  8
E20LXLIFT
 62
11
 10
182.451
 20
-1518.025
 30
3352.000
 70
    32
  0
VERTEX
  8
E20LXLIFT
 62
11
 10
181.391
 20
-1528.305
 30
3352.000
 70
    32
  0
VERTEX
  8
E20LXLIFT
 62
11
 10
185.061
 20
-1538.544
 30
3352.000
 70
    32
  0
VERTEX
  8
E20LXLIFT
 62
11
 10
189.777
 20
-1545.870
 30
3352.000
 70
    32
  0
VERTEX
  8
E20LXLIFT
 62
11
 10
193.706
 20
-1553.002
 30
3352.000
 70
    32
  0
VERTEX
  8
E20LXLIFT
 62
11
 10
200.838
 20
-1553.293
 30
3352.000
 70
    32
  0
SEQEND
  8
E20LXLIFT
  0
POLYLINE
  8
E20LXLIFT
 62
11
 66
     1
 70
     9
  0
VERTEX
  8
E20LXLIFT
 62
11
 10
126.461
 20
-1416.492
 30
3350.000
 70
    32
  0
VERTEX
  8
E20LXLIFT
 62
11
 10
136.383
 20
-1417.053
 30
3350.000
 70
    32
  0
VERTEX
  8
E20LXLIFT
 62
11
 10
141.612
 20
-1406.701
 30
3350.000
 70
    32
  0
VERTEX
  8
E20LXLIFT
 62
11
 10
143.540
 20
-1391.903
 30
3350.000
 70
    32
  0
VERTEX
  8
E20LXLIFT
 62
11
 10
146.133
 20
-1381.497
 30
3350.000
 70
    32
  0
VERTEX
  8
E20LXLIFT
 62
11
 10
152.168
 20
-1371.215
 30
3350.000
 70
    32
  0
VERTEX
  8
E20LXLIFT
 62
11
 10
158.600
 20
-1359.677
 30
3350.000
 70
    32
  0
VERTEX
  8
E20LXLIFT
 62
11
 10
153.286
 20
-1354.835
 30
3350.000
 70
    32
  0
VERTEX
  8
E20LXLIFT
 62
11
 10
143.979
 20
-1364.327
 30
3350.000
 70
    32
  0
VERTEX
  8
E20LXLIFT
 62
11
 10
133.110
 20
-1369.531
 30
3350.000
 70
    32
  0
VERTEX
  8
E20LXLIFT
 62
11
 10
123.625
 20
-1372.444
 30
3350.000
 70
    32
  0
VERTEX
  8
E20LXLIFT
 62
11
 10
117.354
 20
-1378.026
 30
3350.000
 70
    32
  0
VERTEX
  8
E20LXLIFT
 62
11
 10
120.368
 20
-1386.898
 30
3350.000
 70
    32
  0
VERTEX
  8
E20LXLIFT
 62
11
 10
125.337
 20
-1393.068
 30
3350.000
 70
    32
  0
VERTEX
  8
E20LXLIFT
 62
11
 10
124.207
 20
-1404.155
 30
3350.000
 70
    32
  0
SEQEND
  8
E20LXLIFT
  0
POLYLINE
  8
E20LXLIFT
 62
13
 66
     1
 70
     9
  0
VERTEX
  8
E20LXLIFT
 62
13
 10
61.143
 20
-1314.623
 30
3357.000
 70
    32
  0
VERTEX
  8
E20LXLIFT
 62
13
 10
65.731
 20
-1323.879
 30
3357.000
 70
    32
  0
VERTEX
  8
E20LXLIFT
 62
13
 10
74.581
 20
-1329.428
 30
3357.000
 70
    32
  0
VERTEX
  8
E20LXLIFT
 62
13
 10
90.180
 20
-1333.378
 30
3357.000
 70
    32
  0
VERTEX
  8
E20LXLIFT
 62
13
 10
101.577
 20
-1335.692
 30
3357.000
 70
    32
  0
VERTEX
  8
E20LXLIFT
 62
13
 10
102.673
 20
-1341.288
 30
3357.000
 70
    32
  0
VERTEX
  8
E20LXLIFT
 62
13
 10
100.306
 20
-1351.858
 30
3357.000
 70
    32
  0
VERTEX
  8
E20LXLIFT
 62
13
 10
97.966
 20
-1361.109
 30
3357.000
 70
    32
  0
VERTEX
  8
E20LXLIFT
 62
13
 10
96.649
 20
-1366.057
 30
3357.000
 70
    32
  0
VERTEX
  8
E20LXLIFT
 62
13
 10
101.793
 20
-1373.075
 30
3357.000
 70
    32
  0
VERTEX
  8
E20LXLIFT
 62
13
 10
110.826
 20
-1373.300
 30
3357.000
 70
    32
  0
VERTEX
  8
E20LXLIFT
 62
13
 10
117.254
 20
-1374.420
 30
3357.000
 70
    32
  0
VERTEX
  8
E20LXLIFT
 62
13
 10
118.690
 20
-1381.394
 30
3357.000
 70
    32
  0
VERTEX
  8
E20LXLIFT
 62
13
 10
114.564
 20
-1391.171
 30
3357.000
 70
    32
  0
VERTEX
  8
E20LXLIFT
 62
13
 10
109.902
 20
-1398.844
 30
3357.000
 70
    32
  0
VERTEX
  8
E20LXLIFT
 62
13
 10
109.677
 20
-1403.656
 30
3357.000
 70
    32
  0
VERTEX
  8
E20LXLIFT
 62
13
 10
111.583
 20
-1410.835
 30
3357.000
 70
    32
  0
VERTEX
  8
E20LXLIFT
 62
13
 10
110.450
 20
-1420.410
 30
3357.000
 70
    32
  0
VERTEX
  8
E20LXLIFT
 62
13
 10
111.827
 20
-1428.509
 30
3357.000
 70
    32
  0
VERTEX
  8
E20LXLIFT
 62
13
 10
118.064
 20
-1439.611
 30
3357.000
 70
    32
  0
VERTEX
  8
E20LXLIFT
 62
13
 10
115.326
 20
-1444.389
 30
3357.000
 70
    32
  0
VERTEX
  8
E20LXLIFT
 62
13
 10
104.198
 20
-1443.504
 30
3357.000
 70
    32
  0
VERTEX
  8
E20LXLIFT
 62
13
 10
100.986
 20
-1437.371
 30
3357.000
 70
    32
  0
VERTEX
  8
E20LXLIFT
 62
13
 10
101.939
 20
-1424.679
 30
3357.000
 70
    32
  0
VERTEX
  8
E20LXLIFT
 62
13
 10
101.179
 20
-1413.974
 30
3357.000
 70
    32
  0
VERTEX
  8
E20LXLIFT
 62
13
 10
99.110
 20
-1402.045
 30
3357.000
 70
    32
  0
VERTEX
  8
E20LXLIFT
 62
13
 10
95.796
 20
-1395.769
 30
3357.000
 70
    32
  0
VERTEX
  8
E20LXLIFT
 62
13
 10
94.875
 20
-1386.045
 30
3357.000
 70
    32
  0
VERTEX
  8
E20LXLIFT
 62
13
 10
90.008
 20
-1375.042
 30
3357.000
 70
    32
  0
VERTEX
  8
E20LXLIFT
 62
13
 10
80.939
 20
-1372.355
 30
3357.000
 70
    32
  0
VERTEX
  8
E20LXLIFT
 62
13
 10
70.374
 20
-1376.475
 30
3357.000
 70
    32
  0
VERTEX
  8
E20LXLIFT
 62
13
 10
70.317
 20
-1387.551
 30
3357.000
 70
    32
  0
VERTEX
  8
E20LXLIFT
 62
13
 10
73.875
 20
-1398.086
 30
3357.000
 70
    32
  0
VERTEX
  8
E20LXLIFT
 62
13
 10
69.543
 20
-1402.602
 30
3357.000
 70
    32
  0
VERTEX
  8
E20LXLIFT
 62
13
 10
60.180
 20
-1400.559
 30
3357.000
 70
    32
  0
VERTEX
  8
E20LXLIFT
 62
13
 10
57.164
 20
-1395.150
 30
3357.000
 70
    32
  0
VERTEX
  8
E20LXLIFT
 62
13
 10
56.177
 20
-1382.770
 30
3357.000
 70
    32
  0
VERTEX
  8
E20LXLIFT
 62
13
 10
56.927
 20
-1375.525
 30
3357.000
 70
    32
  0
VERTEX
  8
E20LXLIFT
 62
13
 10
56.047
 20
-1370.530
 30
3357.000
 70
    32
  0
VERTEX
  8
E20LXLIFT
 62
13
 10
56.642
 20
-1362.315
 30
3357.000
 70
    32
  0
VERTEX
  8
E20LXLIFT
 62
13
 10
51.642
 20
-1355.951
 30
3357.000
 70
    32
  0
VERTEX
  8
E20LXLIFT
 62
13
 10
48.342
 20
-1351.504
 30
3357.000
 70
    32
  0
VERTEX
  8
E20LXLIFT
 62
13
 10
48.439
 20
-1340.183
 30
3357.000
 70
    32
  0
VERTEX
  8
E20LXLIFT
 62
13
 10
50.552
 20
-1330.013
 30
3357.000
 70
    32
  0
VERTEX
  8
E20LXLIFT
 62
13
 10
51.178
 20
-1321.991
 30
3357.000
 70
    32
  0
SEQEND
  8
E20LXLIFT
  0
POLYLINE
  8
E20LXLIFT
 62
11
 66
     1
 70
     9
  0
VERTEX
  8
E20LXLIFT
 62
11
 10
208.305
 20
-1580.761
 30
3363.000
 70
    32
  0
VERTEX
  8
E20LXLIFT
 62
11
 10
204.389
 20
-1575.261
 30
3363.000
 70
    32
  0
VERTEX
  8
E20LXLIFT
 62
11
 10
196.332
 20
-1571.201
 30
3363.000
 70
    32
  0
VERTEX
  8
E20LXLIFT
 62
11
 10
189.443
 20
-1563.189
 30
3363.000
 70
    32
  0
VERTEX
  8
E20LXLIFT
 62
11
 10
182.414
 20
-1553.769
 30
3363.000
 70
    32
  0
VERTEX
  8
E20LXLIFT
 62
11
 10
178.328
 20
-1545.913
 30
3363.000
 70
    32
  0
VERTEX
  8
E20LXLIFT
 62
11
 10
175.390
 20
-1534.227
 30
3363.000
 70
    32
  0
VERTEX
  8
E20LXLIFT
 62
11
 10
179.486
 20
-1522.592
 30
3363.000
 70
    32
  0
VERTEX
  8
E20LXLIFT
 62
11
 10
181.930
 20
-1511.057
 30
3363.000
 70
    32
  0
VERTEX
  8
E20LXLIFT
 62
11
 10
175.855
 20
-1497.836
 30
3363.000
 70
    32
  0
VERTEX
  8
E20LXLIFT
 62
11
 10
183.057
 20
-1493.892
 30
3363.000
 70
    32
  0
VERTEX
  8
E20LXLIFT
 62
11
 10
183.663
 20
-1484.311
 30
3363.000
 70
    32
  0
VERTEX
  8
E20LXLIFT
 62
11
 10
180.333
 20
-1475.702
 30
3363.000
 70
    32
  0
VERTEX
  8
E20LXLIFT
 62
11
 10
188.577
 20
-1470.802
 30
3363.000
 70
    32
  0
VERTEX
  8
E20LXLIFT
 62
11
 10
197.319
 20
-1473.405
 30
3363.000
 70
    32
  0
VERTEX
  8
E20LXLIFT
 62
11
 10
202.912
 20
-1475.666
 30
3363.000
 70
    32
  0
VERTEX
  8
E20LXLIFT
 62
11
 10
205.464
 20
-1486.659
 30
3363.000
 70
    32
  0
VERTEX
  8
E20LXLIFT
 62
11
 10
211.858
 20
-1498.361
 30
3363.000
 70
    32
  0
VERTEX
  8
E20LXLIFT
 62
11
 10
218.955
 20
-1509.993
 30
3363.000
 70
    32
  0
VERTEX
  8
E20LXLIFT
 62
11
 10
218.027
 20
-1517.004
 30
3363.000
 70
    32
  0
VERTEX
  8
E20LXLIFT
 62
11
 10
217.970
 20
-1527.055
 30
3363.000
 70
    32
  0
VERTEX
  8
E20LXLIFT
 62
11
 10
217.645
 20
-1539.450
 30
3363.000
 70
    32
  0
VERTEX
  8
E20LXLIFT
 62
11
 10
217.508
 20
-1549.236
 30
3363.000
 70
    32
  0
VERTEX
  8
E20LXLIFT
 62
11
 10
221.240
 20
-1561.434
 30
3363.000
 70
    32
  0
VERTEX
  8
E20LXLIFT
 62
11
 10
224.920
 20
-1567.963
 30
3363.000
 70
    32
  0
VERTEX
  8
E20LXLIFT
 62
11
 10
225.129
 20
-1571.582
 30
3363.000
 70
    32
  0
SEQEND
  8
E20LXLIFT
  0
POLYLINE
  8
E20LXLIFT
 62
11
 66
     1
 70
     9
  0
VERTEX
  8
E20LXLIFT
 62
11
 10
122.993
 20
-1430.089
 30
3359.000
 70
    32
  0
VERTEX
  8
E20LXLIFT
 62
11
 10
119.773
 20
-1422.693
 30
3359.000
 70
    32
  0
VERTEX
  8
E20LXLIFT
 62
11
 10
126.978
 20
-1417.241
 30
3359.000
 70
    32
  0
VERTEX
  8
E20LXLIFT
 62
11
 10
124.778
 20
-1409.765
 30
3359.000
 70
    32
  0
VERTEX
  8
E20LXLIFT
 62
11
 10
119.946
 20
-1402.979
 30
3359.000
 70
    32
  0
VERTEX
  8
E20LXLIFT
 62
11
 10
127.411
 20
-1394.866
 30
3359.000
 70
    32
  0
VERTEX
  8
E20LXLIFT
 62
11
 10
138.673
 20
-1389.216
 30
3359.000
 70
    32
  0
VERTEX
  8
E20LXLIFT
 62
11
 10
153.171
 20
-1381.155
 30
3359.000
 70
    32
  0
VERTEX
  8
E20LXLIFT
 62
11
 10
166.991
 20
-1376.375
 30
3359.000
 70
    32
  0
VERTEX
  8
E20LXLIFT
 62
11
 10
172.257
 20
-1379.084
 30
3359.000
 70
    32
  0
VERTEX
  8
E20LXLIFT
 62
11
 10
172.757
 20
-1391.430
 30
3359.000
 70
    32
  0
VERTEX
  8
E20LXLIFT
 62
11
 10
173.139
 20
-1395.141
 30
3359.000
 70
    32
  0
VERTEX
  8
E20LXLIFT
 62
11
 10
166.101
 20
-1398.106
 30
3359.000
 70
    32
  0
VERTEX
  8
E20LXLIFT
 62
11
 10
157.171
 20
-1398.113
 30
3359.000
 70
    32
  0
VERTEX
  8
E20LXLIFT
 62
11
 10
149.090
 20
-1396.439
 30
3359.000
 70
    32
  0
VERTEX
  8
E20LXLIFT
 62
11
 10
143.916
 20
-1407.012
 30
3359.000
 70
    32
  0
VERTEX
  8
E20LXLIFT
 62
11
 10
139.925
 20
-1416.527
 30
3359.000
 70
    32
  0
VERTEX
  8
E20LXLIFT
 62
11
 10
134.137
 20
-1422.155
 30
3359.000
 70
    32
  0
SEQEND
  8
E20LXLIFT
  0
POLYLINE
  8
E20LXLIFT
 62
8
 66
     1
 70
     9
  0
VERTEX
  8
E20LXLIFT
 62
8
 10
-72.471
 20
-1325.331
 30
3364.000
 70
    32
  0
VERTEX
  8
E20LXLIFT
 62
8
 10
-77.104
 20
-1321.848
 30
3364.000
 70
    32
  0
VERTEX
  8
E20LXLIFT
 62
8
 10
-79.979
 20
-1309.040
 30
3364.000
 70
    32
  0
VERTEX
  8
E20LXLIFT
 62
8
 10
-85.375
 20
-1298.135
 30
3364.000
 70
    32
  0
VERTEX
  8
E20LXLIFT
 62
8
 10
-93.538
 20
-1289.845
 30
3364.000
 70
    32
  0
VERTEX
  8
E20LXLIFT
 62
8
 10
-103.897
 20
-1291.623
 30
3364.000
 70
    32
  0
VERTEX
  8
E20LXLIFT
 62
8
 10
-106.215
 20
-1287.460
 30
3364.000
 70
    32
  0
VERTEX
  8
E20LXLIFT
 62
8
 10
-106.170
 20
-1277.848
 30
3364.000
 70
    32
  0
VERTEX
  8
E20LXLIFT
 62
8
 10
-112.991
 20
-1272.801
 30
3364.000
 70
    32
  0
VERTEX
  8
E20LXLIFT
 62
8
 10
-117.072
 20
-1268.279
 30
3364.000
 70
    32
  0
VERTEX
  8
E20LXLIFT
 62
8
 10
-114.415
 20
-1263.696
 30
3364.000
 70
    32
  0
VERTEX
  8
E20LXLIFT
 62
8
 10
-114.987
 20
-1257.753
 30
3364.000
 70
    32
  0
VERTEX
  8
E20LXLIFT
 62
8
 10
-117.742
 20
-1246.474
 30
3364.000
 70
    32
  0
VERTEX
  8
E20LXLIFT
 62
8
 10
-121.391
 20
-1233.033
 30
3364.000
 70
    32
  0
VERTEX
  8
E20LXLIFT
 62
8
 10
-125.330
 20
-1216.462
 30
3364.000
 70
    32
  0
VERTEX
  8
E20LXLIFT
 62
8
 10
-124.634
 20
-1201.112
 30
3364.000
 70
    32
  0
VERTEX
  8
E20LXLIFT
 62
8
 10
-123.058
 20
-1190.625
 30
3364.000
 70
    32
  0
VERTEX
  8
E20LXLIFT
 62
8
 10
-129.854
 20
-1175.334
 30
3364.000
 70
    32
  0
VERTEX
  8
E20LXLIFT
 62
8
 10
-136.504
 20
-1158.433
 30
3364.000
 70
    32
  0
VERTEX
  8
E20LXLIFT
 62
8
 10
-141.805
 20
-1145.091
 30
3364.000
 70
    32
  0
VERTEX
  8
E20LXLIFT
 62
8
 10
-144.114
 20
-1135.648
 30
3364.000
 70
    32
  0
VERTEX
  8
E20LXLIFT
 62
8
 10
-151.885
 20
-1124.280
 30
3364.000
 70
    32
  0
VERTEX
  8
E20LXLIFT
 62
8
 10
-156.962
 20
-1111.857
 30
3364.000
 70
    32
  0
VERTEX
  8
E20LXLIFT
 62
8
 10
-160.701
 20
-1103.431
 30
3364.000
 70
    32
  0
VERTEX
  8
E20LXLIFT
 62
8
 10
-165.923
 20
-1092.618
 30
3364.000
 70
    32
  0
VERTEX
  8
E20LXLIFT
 62
8
 10
-170.406
 20
-1084.507
 30
3364.000
 70
    32
  0
VERTEX
  8
E20LXLIFT
 62
8
 10
-165.533
 20
-1077.593
 30
3364.000
 70
    32
  0
VERTEX
  8
E20LXLIFT
 62
8
 10
-156.415
 20
-1087.678
 30
3364.000
 70
    32
  0
VERTEX
  8
E20LXLIFT
 62
8
 10
-146.831
 20
-1093.126
 30
3364.000
 70
    32
  0
VERTEX
  8
E20LXLIFT
 62
8
 10
-142.589
 20
-1091.828
 30
3364.000
 70
    32
  0
VERTEX
  8
E20LXLIFT
 62
8
 10
-136.512
 20
-1090.838
 30
3364.000
 70
    32
  0
VERTEX
  8
E20LXLIFT
 62
8
 10
-132.510
 20
-1099.937
 30
3364.000
 70
    32
  0
VERTEX
  8
E20LXLIFT
 62
8
 10
-123.950
 20
-1108.483
 30
3364.000
 70
    32
  0
VERTEX
  8
E20LXLIFT
 62
8
 10
-116.388
 20
-1109.881
 30
3364.000
 70
    32
  0
VERTEX
  8
E20LXLIFT
 62
8
 10
-108.443
 20
-1113.481
 30
3364.000
 70
    32
  0
VERTEX
  8
E20LXLIFT
 62
8
 10
-102.100
 20
-1111.656
 30
3364.000
 70
    32
  0
VERTEX
  8
E20LXLIFT
 62
8
 10
-95.603
 20
-1116.396
 30
3364.000
 70
    32
  0
VERTEX
  8
E20LXLIFT
 62
8
 10
-88.451
 20
-1125.082
 30
3364.000
 70
    32
  0
VERTEX
  8
E20LXLIFT
 62
8
 10
-93.652
 20
-1133.198
 30
3364.000
 70
    32
  0
VERTEX
  8
E20LXLIFT
 62
8
 10
-94.367
 20
-1140.812
 30
3364.000
 70
    32
  0
VERTEX
  8
E20LXLIFT
 62
8
 10
-103.071
 20
-1146.578
 30
3364.000
 70
    32
  0
VERTEX
  8
E20LXLIFT
 62
8
 10
-105.261
 20
-1158.471
 30
3364.000
 70
    32
  0
VERTEX
  8
E20LXLIFT
 62
8
 10
-102.829
 20
-1161.584
 30
3364.000
 70
    32
  0
VERTEX
  8
E20LXLIFT
 62
8
 10
-97.615
 20
-1164.976
 30
3364.000
 70
    32
  0
VERTEX
  8
E20LXLIFT
 62
8
 10
-99.403
 20
-1174.107
 30
3364.000
 70
    32
  0
VERTEX
  8
E20LXLIFT
 62
8
 10
-99.905
 20
-1182.322
 30
3364.000
 70
    32
  0
VERTEX
  8
E20LXLIFT
 62
8
 10
-97.727
 20
-1197.779
 30
3364.000
 70
    32
  0
VERTEX
  8
E20LXLIFT
 62
8
 10
-91.046
 20
-1214.874
 30
3364.000
 70
    32
  0
VERTEX
  8
E20LXLIFT
 62
8
 10
-83.957
 20
-1224.681
 30
3364.000
 70
    32
  0
VERTEX
  8
E20LXLIFT
 62
8
 10
-88.450
 20
-1229.710
 30
3364.000
 70
    32
  0
VERTEX
  8
E20LXLIFT
 62
8
 10
-95.241
 20
-1237.559
 30
3364.000
 70
    32
  0
VERTEX
  8
E20LXLIFT
 62
8
 10
-93.752
 20
-1244.034
 30
3364.000
 70
    32
  0
VERTEX
  8
E20LXLIFT
 62
8
 10
-86.235
 20
-1247.940
 30
3364.000
 70
    32
  0
VERTEX
  8
E20LXLIFT
 62
8
 10
-80.980
 20
-1257.438
 30
3364.000
 70
    32
  0
VERTEX
  8
E20LXLIFT
 62
8
 10
-76.384
 20
-1265.254
 30
3364.000
 70
    32
  0
VERTEX
  8
E20LXLIFT
 62
8
 10
-67.626
 20
-1277.102
 30
3364.000
 70
    32
  0
VERTEX
  8
E20LXLIFT
 62
8
 10
-60.318
 20
-1284.494
 30
3364.000
 70
    32
  0
VERTEX
  8
E20LXLIFT
 62
8
 10
-59.168
 20
-1291.855
 30
3364.000
 70
    32
  0
VERTEX
  8
E20LXLIFT
 62
8
 10
-60.517
 20
-1300.997
 30
3364.000
 70
    32
  0
VERTEX
  8
E20LXLIFT
 62
8
 10
-55.661
 20
-1311.749
 30
3364.000
 70
    32
  0
VERTEX
  8
E20LXLIFT
 62
8
 10
-55.478
 20
-1318.507
 30
3364.000
 70
    32
  0
SEQEND
  8
E20LXLIFT
  0
POLYLINE
  8
E20LXLIFT
 62
1
 66
     1
 70
     9
  0
VERTEX
  8
E20LXLIFT
 62
1
 10
-71.471
 20
-1324.331
 30
3374.000
 70
    32
  0
VERTEX
  8
E20LXLIFT
 62
1
 10
-76.104
 20
-1320.848
 30
3374.000
 70
    32
  0
VERTEX
  8
E20LXLIFT
 62
1
 10
-78.979
 20
-1308.040
 30
3374.000
 70
    32
  0
VERTEX
  8
E20LXLIFT
 62
1
 10
-84.375
 20
-1297.135
 30
3374.000
 70
    32
  0
VERTEX
  8
E20LXLIFT
 62
1
 10
-92.538
 20
-1288.845
 30
3374.000
 70
    32
  0
VERTEX
  8
E20LXLIFT
 62
1
 10
-102.897
 20
-1290.623
 30
3374.000
 70
    32
  0
VERTEX
  8
E20LXLIFT
 62
1
 10
-105.215
 20
-1286.460
 30
3374.000
 70
    32
  0
VERTEX
  8
E20LXLIFT
 62
1
 10
-105.170
 20
-1276.848
 30
3374.000
 70
    32
  0
VERTEX
  8
E20LXLIFT
 62
1
 10
-111.991
 20
-1271.801
 30
3374.000
 70
    32
  0
VERTEX
  8
E20LXLIFT
 62
1
 10
-116.072
 20
-1267.279
 30
3374.000
 70
    32
  0
VERTEX
  8
E20LXLIFT
 62
1
 10
-113.415
 20
-1262.696
 30
3374.000
 70
    32
  0
VERTEX
  8
E20LXLIFT
 62
1
 10
-113.987
 20
-1256.753
 30
3374.000
 70
    32
  0
VERTEX
  8
E20LXLIFT
 62
1
 10
-116.742
 20
-1245.474
 30
3374.000
 70
    32
  0
VERTEX
  8
E20LXLIFT
 62
1
 10
-120.391
 20
-1232.033
 30
3374.000
 70
    32
  0
VERTEX
  8
E20LXLIFT
 62
1
 10
-124.330
 20
-1215.462
 30
3374.000
 70
    32
  0
VERTEX
  8
E20LXLIFT
 62
1
 10
-123.634
 20
-1200.112
 30
3374.000
 70
    32
  0
VERTEX
  8
E20LXLIFT
 62
1
 10
-122.058
 20
-1189.625
 30
3374.000
 70
    32
  0
VERTEX
  8
E20LXLIFT
 62
1
 10
-128.854
 20
-1174.334
 30
3374.000
 70
    32
  0
VERTEX
  8
E20LXLIFT
 62
1
 10
-135.504
 20
-1157.433
 30
3374.000
 70
    32
  0
VERTEX
  8
E20LXLIFT
 62
1
 10
-140.805
 20
-1144.091
 30
3374.000
 70
    32
  0
VERTEX
  8
E20LXLIFT
 62
1
 10
-143.114
 20
-1134.648
 30
3374.000
 70
    32
  0
VERTEX
  8
E20LXLIFT
 62
1
 10
-150.885
 20
-1123.280
 30
3374.000
 70
    32
  0
VERTEX
  8
E20LXLIFT
 62
1
 10
-155.962
 20
-1110.857
 30
3374.000
 70
    32
  0
VERTEX
  8
E20LXLIFT
 62
1
 10
-159.701
 20
-1102.431
 30
3374.000
 70
    32
  0
VERTEX
  8
E20LXLIFT
 62
1
 10
-164.923
 20
-1091.618
 30
3374.000
 70
    32
  0
VERTEX
  8
E20LXLIFT
 62
1
 10
-169.406
 20
-1083.507
 30
3374.000
 70
    32
  0
VERTEX
  8
E20LXLIFT
 62
1
 10
-164.533
 20
-1076.593
 30
3374.000
 70
    32
  0
VERTEX
  8
E20LXLIFT
 62
1
 10
-155.415
 20
-1086.678
 30
3374.000
 70
    32
  0
VERTEX
  8
E20LXLIFT
 62
1
 10
-145.831
 20
-1092.126
 30
3374.000
 70
    32
  0
VERTEX
  8
E20LXLIFT
 62
1
 10
-141.589
 20
-1090.828
 30
3374.000
 70
    32
  0
VERTEX
  8
E20LXLIFT
 62
1
 10
-135.512
 20
-1089.838
 30
3374.000
 70
    32
  0
VERTEX
  8
E20LXLIFT
 62
1
 10
-131.510
 20
-1098.937
 30
3374.000
 70
    32
  0
VERTEX
  8
E20LXLIFT
 62
1
 10
-122.950
 20
-1107.483
 30
3374.000
 70
    32
  0
VERTEX
  8
E20LXLIFT
 62
1
 10
-115.388
 20
-1108.881
 30
3374.000
 70
    32
  0
VERTEX
  8
E20LXLIFT
 62
1
 10
-107.443
 20
-1112.481
 30
3374.000
 70
    32
  0
VERTEX
  8
E20LXLIFT
 62
1
 10
-101.100
 20
-1110.656
 30
3374.000
 70
    32
  0
VERTEX
  8
E20LXLIFT
 62
1
 10
-94.603
 20
-1115.396
 30
3374.000
 70
    32
  0
VERTEX
  8
E20LXLIFT
 62
1
 10
-87.451
 20
-1124.082
 30
3374.000
 70
    32
  0
VERTEX
  8
E20LXLIFT
 62
1
 10
-92.652
 20
-1132.198
 30
3374.000
 70
    32
  0
VERTEX
  8
E20LXLIFT
 62
1
 10
-93.367
 20
-1139.812
 30
3374.000
 70
    32
  0
VERTEX
  8
E20LXLIFT
 62
1
 10
-102.071
 20
-1145.578
 30
3374.000
 70
    32
  0
VERTEX
  8
E20LXLIFT
 62
1
 10
-104.261
 20
-1157.471
 30
3374.000
 70
    32
  0
VERTEX
  8
E20LXLIFT
 62
1
 10
-101.829
 20
-1160.584
 30
3374.000
 70
    32
  0
VERTEX
  8
E20LXLIFT
 62
1
 10
-96.615
 20
-1163.976
 30
3374.000
 70
    32
  0
VERTEX
  8
E20LXLIFT
 62
1
 10
-98.403
 20
-1173.107
 30
3374.000
 70
    32
  0
VERTEX
  8
E20LXLIFT
 62
1
 10
-98.905
 20
-1181.322
 30
3374.000
 70
    32
  0
VERTEX
  8
E20LXLIFT
 62
1
 10
-96.727
 20
-1196.779
 30
3374.000
 70
    32
  0
VERTEX
  8
E20LXLIFT
 62
1
 10
-90.046
 20
-1213.874
 30
3374.000
 70
    32
  0
VERTEX
  8
E20LXLIFT
 62
1
 10
-82.957
 20
-1223.681
 30
3374.000
 70
    32
  0
VERTEX
  8
E20LXLIFT
 62
1
 10
-87.450
 20
-1228.710
 30
3374.000
 70
    32
  0
VERTEX
  8
E20LXLIFT
 62
1
 10
-94.241
 20
-1236.559
 30
3374.000
 70
    32
  0
VERTEX
  8
E20LXLIFT
 62
1
 10
-92.752
 20
-1243.034
 30
3374.000
 70
    32
  0
VERTEX
  8
E20LXLIFT
 62
1
 10
-85.235
 20
-1246.940
 30
3374.000
 70
    32
  0
VERTEX
  8
E20LXLIFT
 62
1
 10
-79.980
 20
-1256.438
 30
3374.000
 70
    32
  0
VERTEX
  8
E20LXLIFT
 62
1
 10
-75.384
 20
-1264.254
 30
3374.000
 70
    32
  0
VERTEX
  8
E20LXLIFT
 62
1
 10
-66.626
 20
-1276.102
 30
3374.000
 70
    32
  0
VERTEX
  8
E20LXLIFT
 62
1
 10
-59.318
 20
-1283.494
 30
3374.000
 70
    32
  0
VERTEX
  8
E20LXLIFT
 62
1
 10
-58.168
 20
-1290.855
 30
3374.000
 70
    32
  0
VERTEX
  8
E20LXLIFT
 62
1
 10
-59.517
 20
-1299.997
 30
3374.000
 70
    32
  0
VERTEX
  8
E20LXLIFT
 62
1
 10
-54.661
 20
-1310.749
 30
3374.000
 70
    32
  0
VERTEX
  8
E20LXLIFT
 62
1
 10
-54.478
 20
-1317.507
 30
3374.000
 70
    32
  0
SEQEND
  8
E20LXLIFT
  0
POLYLINE
  8
E20LXLIFT
 62
1
 66
     1
 70
     9
  0
VERTEX
  8
E20LXLIFT
 62
1
 10
123.993
 20
-1429.089
 30
3369.000
 70
    32
  0
VERTEX
  8
E20LXLIFT
 62
1
 10
120.773
 20
-1421.693
 30
3369.000
 70
    32
  0
VERTEX
  8
E20LXLIFT
 62
1
 10
127.978
 20
-1416.241
 30
3369.000
 70
    32
  0
VERTEX
  8
E20LXLIFT
 62
1
 10
125.778
 20
-1408.765
 30
3369.000
 70
    32
  0
VERTEX
  8
E20LXLIFT
 62
1
 10
120.946
 20
-1401.979
 30
3369.000
 70
    32
  0
VERTEX
  8
E20LXLIFT
 62
1
 10
128.411
 20
-1393.866
 30
3369.000
 70
    32
  0
VERTEX
  8
E20LXLIFT
 62
1
 10
139.673
 20
-1388.216
 30
3369.000
 70
    32
  0
VERTEX
  8
E20LXLIFT
 62
1
 10
154.171
 20
-1380.155
 30
3369.000
 70
    32
  0
VERTEX
  8
E20LXLIFT
 62
1
 10
167.991
 20
-1375.375
 30
3369.000
 70
    32
  0
VERTEX
  8
E20LXLIFT
 62
1
 10
173.257
 20
-1378.084
 30
3369.000
 70
    32
  0
VERTEX
  8
E20LXLIFT
 62
1
 10
173.757
 20
-1390.430
 30
3369.000
 70
    32
  0
VERTEX
  8
E20LXLIFT
 62
1
 10
174.139
 20
-1394.141
 30
3369.000
 70
    32
  0
VERTEX
  8
E20LXLIFT
 62
1
 10
167.101
 20
-1397.106
 30
3369.000
 70
    32
  0
VERTEX
  8
E20LXLIFT
 62
1
 10
158.171
 20
-1397.113
 30
3369.000
 70
    32
  0
VERTEX
  8
E20LXLIFT
 62
1
 10
150.090
 20
-1395.439
 30
3369.000
 70
    32
  0
VERTEX
  8
E20LXLIFT
 62
1
 10
144.916
 20
-1406.012
 30
3369.000
 70
    32
  0
VERTEX
  8
E20LXLIFT
 62
1
 10
140.925
 20
-1415.527
 30
3369.000
 70
    32
  0
VERTEX
  8
E20LXLIFT
 62
1
 10
135.137
 20
-1421.155
 30
3369.000
 70
    32
  0
SEQEND
  8
E20LXLIFT
  0
POLYLINE
  8
E20LXLIFT
 62
1
 66
     1
 70
     9
  0
VERTEX
  8
E20LXLIFT
 62
1
 10
209.305
 20
-1579.761
 30
3373.000
 70
    32
  0
VERTEX
  8
E20LXLIFT
 62
1
 10
205.389
 20
-1574.261
 30
3373.000
 70
    32
  0
VERTEX
  8
E20LXLIFT
 62
1
 10
197.332
 20
-1570.201
 30
3373.000
 70
    32
  0
VERTEX
  8
E20LXLIFT
 62
1
 10
190.443
 20
-1562.189
 30
3373.000
 70
    32
  0
VERTEX
  8
E20LXLIFT
 62
1
 10
183.414
 20
-1552.769
 30
3373.000
 70
    32
  0
VERTEX
  8
E20LXLIFT
 62
1
 10
179.328
 20
-1544.913
 30
3373.000
 70
    32
  0
VERTEX
  8
E20LXLIFT
 62
1
 10
176.390
 20
-1533.227
 30
3373.000
 70
    32
  0
VERTEX
  8
E20LXLIFT
 62
1
 10
180.486
 20
-1521.592
 30
3373.000
 70
    32
  0
VERTEX
  8
E20LXLIFT
 62
1
 10
182.930
 20
-1510.057
 30
3373.000
 70
    32
  0
VERTEX
  8
E20LXLIFT
 62
1
 10
176.855
 20
-1496.836
 30
3373.000
 70
    32
  0
VERTEX
  8
E20LXLIFT
 62
1
 10
184.057
 20
-1492.892
 30
3373.000
 70
    32
  0
VERTEX
  8
E20LXLIFT
 62
1
 10
184.663
 20
-1483.311
 30
3373.000
 70
    32
  0
VERTEX
  8
E20LXLIFT
 62
1
 10
181.333
 20
-1474.702
 30
3373.000
 70
    32
  0
VERTEX
  8
E20LXLIFT
 62
1
 10
189.577
 20
-1469.802
 30
3373.000
 70
    32
  0
VERTEX
  8
E20LXLIFT
 62
1
 10
198.319
 20
-1472.405
 30
3373.000
 70
    32
  0
VERTEX
  8
E20LXLIFT
 62
1
 10
203.912
 20
-1474.666
 30
3373.000
 70
    32
  0
VERTEX
  8
E20LXLIFT
 62
1
 10
206.464
 20
-1485.659
 30
3373.000
 70
    32
  0
VERTEX
  8
E20LXLIFT
 62
1
 10
212.858
 20
-1497.361
 30
3373.000
 70
    32
  0
VERTEX
  8
E20LXLIFT
 62
1
 10
219.955
 20
-1508.993
 30
3373.000
 70
    32
  0
VERTEX
  8
E20LXLIFT
 62
1
 10
219.027
 20
-1516.004
 30
3373.000
 70
    32
  0
VERTEX
  8
E20LXLIFT
 62
1
 10
218.970
 20
-1526.055
 30
3373.000
 70
    32
  0
VERTEX
  8
E20LXLIFT
 62
1
 10
218.645
 20
-1538.450
 30
3373.000
 70
    32
  0
VERTEX
  8
E20LXLIFT
 62
1
 10
218.508
 20
-1548.236
 30
3373.000
 70
    32
  0
VERTEX
  8
E20LXLIFT
 62
1
 10
222.240
 20
-1560.434
 30
3373.000
 70
    32
  0
VERTEX
  8
E20LXLIFT
 62
1
 10
225.920
 20
-1566.963
 30
3373.000
 70
    32
  0
VERTEX
  8
E20LXLIFT
 62
1
 10
226.129
 20
-1570.582
 30
3373.000
 70
    32
  0
SEQEND
  8
E20LXLIFT
  0
POLYLINE
  8
E20LXLIFT
 62
1
 66
     1
 70
     9
  0
VERTEX
  8
E20LXLIFT
 62
1
 10
62.143
 20
-1313.623
 30
3367.000
 70
    32
  0
VERTEX
  8
E20LXLIFT
 62
1
 10
66.731
 20
-1322.879
 30
3367.000
 70
    32
  0
VERTEX
  8
E20LXLIFT
 62
1
 10
75.581
 20
-1328.428
 30
3367.000
 70
    32
  0
VERTEX
  8
E20LXLIFT
 62
1
 10
91.180
 20
-1332.378
 30
3367.000
 70
    32
  0
VERTEX
  8
E20LXLIFT
 62
1
 10
102.577
 20
-1334.692
 30
3367.000
 70
    32
  0
VERTEX
  8
E20LXLIFT
 62
1
 10
103.673
 20
-1340.288
 30
3367.000
 70
    32
  0
VERTEX
  8
E20LXLIFT
 62
1
 10
101.306
 20
-1350.858
 30
3367.000
 70
    32
  0
VERTEX
  8
E20LXLIFT
 62
1
 10
98.966
 20
-1360.109
 30
3367.000
 70
    32
  0
VERTEX
  8
E20LXLIFT
 62
1
 10
97.649
 20
-1365.057
 30
3367.000
 70
    32
  0
VERTEX
  8
E20LXLIFT
 62
1
 10
102.793
 20
-1372.075
 30
3367.000
 70
    32
  0
VERTEX
  8
E20LXLIFT
 62
1
 10
111.826
 20
-1372.300
 30
3367.000
 70
    32
  0
VERTEX
  8
E20LXLIFT
 62
1
 10
118.254
 20
-1373.420
 30
3367.000
 70
    32
  0
VERTEX
  8
E20LXLIFT
 62
1
 10
119.690
 20
-1380.394
 30
3367.000
 70
    32
  0
VERTEX
  8
E20LXLIFT
 62
1
 10
115.564
 20
-1390.171
 30
3367.000
 70
    32
  0
VERTEX
  8
E20LXLIFT
 62
1
 10
110.902
 20
-1397.844
 30
3367.000
 70
    32
  0
VERTEX
  8
E20LXLIFT
 62
1
 10
110.677
 20
-1402.656
 30
3367.000
 70
    32
  0
VERTEX
  8
E20LXLIFT
 62
1
 10
112.583
 20
-1409.835
 30
3367.000
 70
    32
  0
VERTEX
  8
E20LXLIFT
 62
1
 10
111.450
 20
-1419.410
 30
3367.000
 70
    32
  0
VERTEX
  8
E20LXLIFT
 62
1
 10
112.827
 20
-1427.509
 30
3367.000
 70
    32
  0
VERTEX
  8
E20LXLIFT
 62
1
 10
119.064
 20
-1438.611
 30
3367.000
 70
    32
  0
VERTEX
  8
E20LXLIFT
 62
1
 10
116.326
 20
-1443.389
 30
3367.000
 70
    32
  0
VERTEX
  8
E20LXLIFT
 62
1
 10
105.198
 20
-1442.504
 30
3367.000
 70
    32
  0
VERTEX
  8
E20LXLIFT
 62
1
 10
101.986
 20
-1436.371
 30
3367.000
 70
    32
  0
VERTEX
  8
E20LXLIFT
 62
1
 10
102.939
 20
-1423.679
 30
3367.000
 70
    32
  0
VERTEX
  8
E20LXLIFT
 62
1
 10
102.179
 20
-1412.974
 30
3367.000
 70
    32
  0
VERTEX
  8
E20LXLIFT
 62
1
 10
100.110
 20
-1401.045
 30
3367.000
 70
    32
  0
VERTEX
  8
E20LXLIFT
 62
1
 10
96.796
 20
-1394.769
 30
3367.000
 70
    32
  0
VERTEX
  8
E20LXLIFT
 62
1
 10
95.875
 20
-1385.045
 30
3367.000
 70
    32
  0
VERTEX
  8
E20LXLIFT
 62
1
 10
91.008
 20
-1374.042
 30
3367.000
 70
    32
  0
VERTEX
  8
E20LXLIFT
 62
1
 10
81.939
 20
-1371.355
 30
3367.000
 70
    32
  0
VERTEX
  8
E20LXLIFT
 62
1
 10
71.374
 20
-1375.475
 30
3367.000
 70
    32
  0
VERTEX
  8
E20LXLIFT
 62
1
 10
71.317
 20
-1386.551
 30
3367.000
 70
    32
  0
VERTEX
  8
E20LXLIFT
 62
1
 10
74.875
 20
-1397.086
 30
3367.000
 70
    32
  0
VERTEX
  8
E20LXLIFT
 62
1
 10
70.543
 20
-1401.602
 30
3367.000
 70
    32
  0
VERTEX
  8
E20LXLIFT
 62
1
 10
61.180
 20
-1399.559
 30
3367.000
 70
    32
  0
VERTEX
  8
E20LXLIFT
 62
1
 10
58.164
 20
-1394.150
 30
3367.000
 70
    32
  0
VERTEX
  8
E20LXLIFT
 62
1
 10
57.177
 20
-1381.770
 30
3367.000
 70
    32
  0
VERTEX
  8
E20LXLIFT
 62
1
 10
57.927
 20
-1374.525
 30
3367.000
 70
    32
  0
VERTEX
  8
E20LXLIFT
 62
1
 10
57.047
 20
-1369.530
 30
3367.000
 70
    32
  0
VERTEX
  8
E20LXLIFT
 62
1
 10
57.642
 20
-1361.315
 30
3367.000
 70
    32
  0
VERTEX
  8
E20LXLIFT
 62
1
 10
52.642
 20
-1354.951
 30
3367.000
 70
    32
  0
VERTEX
  8
E20LXLIFT
 62
1
 10
49.342
 20
-1350.504
 30
3367.000
 70
    32
  0
VERTEX
  8
E20LXLIFT
 62
1
 10
49.439
 20
-1339.183
 30
3367.000
 70
    32
  0
VERTEX
  8
E20LXLIFT
 62
1
 10
51.552
 20
-1329.013
 30
3367.000
 70
    32
  0
VERTEX
  8
E20LXLIFT
 62
1
 10
52.178
 20
-1320.991
 30
3367.000
 70
    32
  0
SEQEND
  8
E20LXLIFT
  0
POLYLINE
  8
E20LXLIFT
 62
1
 66
     1
 70
     9
  0
VERTEX
  8
E20LXLIFT
 62
1
 10
81.518
 20
-1244.674
 30
3339.000
 70
    32
  0
VERTEX
  8
E20LXLIFT
 62
1
 10
86.909
 20
-1241.629
 30
3339.000
 70
    32
  0
VERTEX
  8
E20LXLIFT
 62
1
 10
94.449
 20
-1247.230
 30
3339.000
 70
    32
  0
VERTEX
  8
E20LXLIFT
 62
1
 10
100.738
 20
-1250.808
 30
3339.000
 70
    32
  0
VERTEX
  8
E20LXLIFT
 62
1
 10
108.331
 20
-1248.553
 30
3339.000
 70
    32
  0
VERTEX
  8
E20LXLIFT
 62
1
 10
111.897
 20
-1247.484
 30
3339.000
 70
    32
  0
VERTEX
  8
E20LXLIFT
 62
1
 10
120.837
 20
-1255.761
 30
3339.000
 70
    32
  0
VERTEX
  8
E20LXLIFT
 62
1
 10
130.847
 20
-1259.678
 30
3339.000
 70
    32
  0
VERTEX
  8
E20LXLIFT
 62
1
 10
135.846
 20
-1268.209
 30
3339.000
 70
    32
  0
VERTEX
  8
E20LXLIFT
 62
1
 10
143.589
 20
-1270.949
 30
3339.000
 70
    32
  0
VERTEX
  8
E20LXLIFT
 62
1
 10
147.308
 20
-1273.678
 30
3339.000
 70
    32
  0
VERTEX
  8
E20LXLIFT
 62
1
 10
146.370
 20
-1283.154
 30
3339.000
 70
    32
  0
VERTEX
  8
E20LXLIFT
 62
1
 10
147.088
 20
-1288.930
 30
3339.000
 70
    32
  0
VERTEX
  8
E20LXLIFT
 62
1
 10
151.045
 20
-1292.138
 30
3339.000
 70
    32
  0
VERTEX
  8
E20LXLIFT
 62
1
 10
148.557
 20
-1300.676
 30
3339.000
 70
    32
  0
VERTEX
  8
E20LXLIFT
 62
1
 10
141.750
 20
-1306.703
 30
3339.000
 70
    32
  0
VERTEX
  8
E20LXLIFT
 62
1
 10
137.913
 20
-1313.832
 30
3339.000
 70
    32
  0
VERTEX
  8
E20LXLIFT
 62
1
 10
137.243
 20
-1318.444
 30
3339.000
 70
    32
  0
VERTEX
  8
E20LXLIFT
 62
1
 10
134.883
 20
-1321.026
 30
3339.000
 70
    32
  0
VERTEX
  8
E20LXLIFT
 62
1
 10
134.861
 20
-1324.734
 30
3339.000
 70
    32
  0
VERTEX
  8
E20LXLIFT
 62
1
 10
130.245
 20
-1328.845
 30
3339.000
 70
    32
  0
VERTEX
  8
E20LXLIFT
 62
1
 10
119.662
 20
-1330.121
 30
3339.000
 70
    32
  0
VERTEX
  8
E20LXLIFT
 62
1
 10
105.231
 20
-1329.088
 30
3339.000
 70
    32
  0
VERTEX
  8
E20LXLIFT
 62
1
 10
99.401
 20
-1325.394
 30
3339.000
 70
    32
  0
VERTEX
  8
E20LXLIFT
 62
1
 10
94.813
 20
-1311.895
 30
3339.000
 70
    32
  0
VERTEX
  8
E20LXLIFT
 62
1
 10
88.073
 20
-1306.799
 30
3339.000
 70
    32
  0
VERTEX
  8
E20LXLIFT
 62
1
 10
82.815
 20
-1299.107
 30
3339.000
 70
    32
  0
VERTEX
  8
E20LXLIFT
 62
1
 10
80.978
 20
-1294.034
 30
3339.000
 70
    32
  0
VERTEX
  8
E20LXLIFT
 62
1
 10
87.292
 20
-1283.587
 30
3339.000
 70
    32
  0
VERTEX
  8
E20LXLIFT
 62
1
 10
88.780
 20
-1273.821
 30
3339.000
 70
    32
  0
VERTEX
  8
E20LXLIFT
 62
1
 10
87.077
 20
-1263.548
 30
3339.000
 70
    32
  0
VERTEX
  8
E20LXLIFT
 62
1
 10
84.677
 20
-1252.913
 30
3339.000
 70
    32
  0
SEQEND
  8
E20LXLIFT
  0
POLYLINE
  8
E20LXLIFT
 62
1
 66
     1
 70
     9
  0
VERTEX
  8
E20LXLIFT
 62
1
 10
229.998
 20
-1725.725
 30
3285.000
 70
    32
  0
VERTEX
  8
E20LXLIFT
 62
1
 10
224.379
 20
-1716.235
 30
3285.000
 70
    32
  0
VERTEX
  8
E20LXLIFT
 62
1
 10
212.019
 20
-1715.684
 30
3285.000
 70
    32
  0
VERTEX
  8
E20LXLIFT
 62
1
 10
202.781
 20
-1712.857
 30
3285.000
 70
    32
  0
VERTEX
  8
E20LXLIFT
 62
1
 10
204.494
 20
-1705.518
 30
3285.000
 70
    32
  0
VERTEX
  8
E20LXLIFT
 62
1
 10
213.612
 20
-1692.235
 30
3285.000
 70
    32
  0
VERTEX
  8
E20LXLIFT
 62
1
 10
209.834
 20
-1683.032
 30
3285.000
 70
    32
  0
VERTEX
  8
E20LXLIFT
 62
1
 10
201.402
 20
-1675.050
 30
3285.000
 70
    32
  0
VERTEX
  8
E20LXLIFT
 62
1
 10
195.146
 20
-1667.219
 30
3285.000
 70
    32
  0
VERTEX
  8
E20LXLIFT
 62
1
 10
204.111
 20
-1660.135
 30
3285.000
 70
    32
  0
VERTEX
  8
E20LXLIFT
 62
1
 10
208.431
 20
-1651.005
 30
3285.000
 70
    32
  0
VERTEX
  8
E20LXLIFT
 62
1
 10
213.522
 20
-1648.595
 30
3285.000
 70
    32
  0
VERTEX
  8
E20LXLIFT
 62
1
 10
222.143
 20
-1656.984
 30
3285.000
 70
    32
  0
VERTEX
  8
E20LXLIFT
 62
1
 10
227.924
 20
-1671.466
 30
3285.000
 70
    32
  0
VERTEX
  8
E20LXLIFT
 62
1
 10
230.255
 20
-1689.117
 30
3285.000
 70
    32
  0
VERTEX
  8
E20LXLIFT
 62
1
 10
237.950
 20
-1701.007
 30
3285.000
 70
    32
  0
VERTEX
  8
E20LXLIFT
 62
1
 10
242.942
 20
-1714.109
 30
3285.000
 70
    32
  0
VERTEX
  8
E20LXLIFT
 62
1
 10
245.034
 20
-1727.260
 30
3285.000
 70
    32
  0
VERTEX
  8
E20LXLIFT
 62
1
 10
250.126
 20
-1734.091
 30
3285.000
 70
    32
  0
VERTEX
  8
E20LXLIFT
 62
1
 10
241.427
 20
-1742.285
 30
3285.000
 70
    32
  0
SEQEND
  8
E20LXLIFT
  0
POLYLINE
  8
E20LXLIFT
 62
1
 66
     1
 70
     9
  0
VERTEX
  8
E20LXLIFT
 62
1
 10
287.072
 20
-1625.273
 30
3278.000
 70
    32
  0
VERTEX
  8
E20LXLIFT
 62
1
 10
291.342
 20
-1626.506
 30
3278.000
 70
    32
  0
VERTEX
  8
E20LXLIFT
 62
1
 10
297.186
 20
-1634.964
 30
3278.000
 70
    32
  0
VERTEX
  8
E20LXLIFT
 62
1
 10
301.767
 20
-1645.864
 30
3278.000
 70
    32
  0
VERTEX
  8
E20LXLIFT
 62
1
 10
310.414
 20
-1654.885
 30
3278.000
 70
    32
  0
VERTEX
  8
E20LXLIFT
 62
1
 10
321.224
 20
-1659.719
 30
3278.000
 70
    32
  0
VERTEX
  8
E20LXLIFT
 62
1
 10
329.247
 20
-1661.477
 30
3278.000
 70
    32
  0
VERTEX
  8
E20LXLIFT
 62
1
 10
332.667
 20
-1672.572
 30
3278.000
 70
    32
  0
VERTEX
  8
E20LXLIFT
 62
1
 10
335.430
 20
-1685.451
 30
3278.000
 70
    32
  0
VERTEX
  8
E20LXLIFT
 62
1
 10
339.344
 20
-1699.012
 30
3278.000
 70
    32
  0
VERTEX
  8
E20LXLIFT
 62
1
 10
339.423
 20
-1708.957
 30
3278.000
 70
    32
  0
VERTEX
  8
E20LXLIFT
 62
1
 10
334.530
 20
-1714.918
 30
3278.000
 70
    32
  0
VERTEX
  8
E20LXLIFT
 62
1
 10
325.906
 20
-1708.163
 30
3278.000
 70
    32
  0
VERTEX
  8
E20LXLIFT
 62
1
 10
322.354
 20
-1699.121
 30
3278.000
 70
    32
  0
VERTEX
  8
E20LXLIFT
 62
1
 10
313.032
 20
-1692.006
 30
3278.000
 70
    32
  0
VERTEX
  8
E20LXLIFT
 62
1
 10
299.633
 20
-1683.624
 30
3278.000
 70
    32
  0
VERTEX
  8
E20LXLIFT
 62
1
 10
294.549
 20
-1673.525
 30
3278.000
 70
    32
  0
VERTEX
  8
E20LXLIFT
 62
1
 10
292.622
 20
-1658.514
 30
3278.000
 70
    32
  0
VERTEX
  8
E20LXLIFT
 62
1
 10
285.591
 20
-1654.837
 30
3278.000
 70
    32
  0
VERTEX
  8
E20LXLIFT
 62
1
 10
279.830
 20
-1645.450
 30
3278.000
 70
    32
  0
VERTEX
  8
E20LXLIFT
 62
1
 10
273.210
 20
-1635.929
 30
3278.000
 70
    32
  0
SEQEND
  8
E20LXLIFT
  0
POLYLINE
  8
E20LXLIFT
 62
1
 66
     1
 70
     9
  0
VERTEX
  8
E20LXLIFT
 62
1
 10
453.052
 20
-1971.574
 30
3287.000
 70
    32
  0
VERTEX
  8
E20LXLIFT
 62
1
 10
441.248
 20
-1954.201
 30
3287.000
 70
    32
  0
VERTEX
  8
E20LXLIFT
 62
1
 10
430.847
 20
-1942.328
 30
3287.000
 70
    32
  0
VERTEX
  8
E20LXLIFT
 62
1
 10
424.058
 20
-1932.277
 30
3287.000
 70
    32
  0
VERTEX
  8
E20LXLIFT
 62
1
 10
417.805
 20
-1917.595
 30
3287.000
 70
    32
  0
VERTEX
  8
E20LXLIFT
 62
1
 10
422.023
 20
-1909.517
 30
3287.000
 70
    32
  0
VERTEX
  8
E20LXLIFT
 62
1
 10
425.873
 20
-1914.645
 30
3287.000
 70
    32
  0
VERTEX
  8
E20LXLIFT
 62
1
 10
435.554
 20
-1919.868
 30
3287.000
 70
    32
  0
VERTEX
  8
E20LXLIFT
 62
1
 10
443.670
 20
-1927.864
 30
3287.000
 70
    32
  0
VERTEX
  8
E20LXLIFT
 62
1
 10
450.592
 20
-1941.078
 30
3287.000
 70
    32
  0
VERTEX
  8
E20LXLIFT
 62
1
 10
459.031
 20
-1957.862
 30
3287.000
 70
    32
  0
VERTEX
  8
E20LXLIFT
 62
1
 10
468.652
 20
-1975.522
 30
3287.000
 70
    32
  0
VERTEX
  8
E20LXLIFT
 62
1
 10
483.735
 20
-1992.025
 30
3287.000
 70
    32
  0
VERTEX
  8
E20LXLIFT
 62
1
 10
492.365
 20
-2002.364
 30
3287.000
 70
    32
  0
VERTEX
  8
E20LXLIFT
 62
1
 10
490.467
 20
-2011.685
 30
3287.000
 70
    32
  0
VERTEX
  8
E20LXLIFT
 62
1
 10
485.547
 20
-2021.036
 30
3287.000
 70
    32
  0
VERTEX
  8
E20LXLIFT
 62
1
 10
478.983
 20
-2023.216
 30
3287.000
 70
    32
  0
VERTEX
  8
E20LXLIFT
 62
1
 10
473.579
 20
-2014.764
 30
3287.000
 70
    32
  0
VERTEX
  8
E20LXLIFT
 62
1
 10
468.186
 20
-2001.411
 30
3287.000
 70
    32
  0
VERTEX
  8
E20LXLIFT
 62
1
 10
464.330
 20
-1987.482
 30
3287.000
 70
    32
  0
SEQEND
  8
E20LXLIFT
  0
POLYLINE
  8
E20LXLIFT
 62
1
 66
     1
 70
     9
  0
VERTEX
  8
E20LXLIFT
 62
1
 10
-258.793
 20
-778.584
 30
3245.000
 70
    32
  0
VERTEX
  8
E20LXLIFT
 62
1
 10
-258.120
 20
-766.778
 30
3245.000
 70
    32
  0
VERTEX
  8
E20LXLIFT
 62
1
 10
-257.557
 20
-755.271
 30
3245.000
 70
    32
  0
VERTEX
  8
E20LXLIFT
 62
1
 10
-259.974
 20
-748.648
 30
3245.000
 70
    32
  0
VERTEX
  8
E20LXLIFT
 62
1
 10
-256.488
 20
-741.763
 30
3245.000
 70
    32
  0
VERTEX
  8
E20LXLIFT
 62
1
 10
-253.231
 20
-739.506
 30
3245.000
 70
    32
  0
VERTEX
  8
E20LXLIFT
 62
1
 10
-246.856
 20
-739.444
 30
3245.000
 70
    32
  0
VERTEX
  8
E20LXLIFT
 62
1
 10
-243.091
 20
-731.595
 30
3245.000
 70
    32
  0
VERTEX
  8
E20LXLIFT
 62
1
 10
-240.167
 20
-722.289
 30
3245.000
 70
    32
  0
VERTEX
  8
E20LXLIFT
 62
1
 10
-229.442
 20
-723.421
 30
3245.000
 70
    32
  0
VERTEX
  8
E20LXLIFT
 62
1
 10
-229.523
 20
-729.900
 30
3245.000
 70
    32
  0
VERTEX
  8
E20LXLIFT
 62
1
 10
-221.741
 20
-738.066
 30
3245.000
 70
    32
  0
VERTEX
  8
E20LXLIFT
 62
1
 10
-217.939
 20
-745.098
 30
3245.000
 70
    32
  0
VERTEX
  8
E20LXLIFT
 62
1
 10
-216.573
 20
-755.966
 30
3245.000
 70
    32
  0
VERTEX
  8
E20LXLIFT
 62
1
 10
-215.214
 20
-768.472
 30
3245.000
 70
    32
  0
VERTEX
  8
E20LXLIFT
 62
1
 10
-219.249
 20
-773.253
 30
3245.000
 70
    32
  0
VERTEX
  8
E20LXLIFT
 62
1
 10
-220.326
 20
-778.061
 30
3245.000
 70
    32
  0
VERTEX
  8
E20LXLIFT
 62
1
 10
-216.808
 20
-782.905
 30
3245.000
 70
    32
  0
VERTEX
  8
E20LXLIFT
 62
1
 10
-214.734
 20
-790.103
 30
3245.000
 70
    32
  0
VERTEX
  8
E20LXLIFT
 62
1
 10
-219.507
 20
-794.767
 30
3245.000
 70
    32
  0
VERTEX
  8
E20LXLIFT
 62
1
 10
-224.990
 20
-797.554
 30
3245.000
 70
    32
  0
VERTEX
  8
E20LXLIFT
 62
1
 10
-232.639
 20
-793.317
 30
3245.000
 70
    32
  0
VERTEX
  8
E20LXLIFT
 62
1
 10
-236.723
 20
-781.703
 30
3245.000
 70
    32
  0
VERTEX
  8
E20LXLIFT
 62
1
 10
-244.846
 20
-780.857
 30
3245.000
 70
    32
  0
SEQEND
  8
E20LXLIFT
  0
POLYLINE
  8
E20LXLIFT
 62
1
 66
     1
 70
     9
  0
VERTEX
  8
E20LXLIFT
 62
1
 10
-191.504
 20
-910.007
 30
3245.000
 70
    32
  0
VERTEX
  8
E20LXLIFT
 62
1
 10
-192.096
 20
-902.603
 30
3245.000
 70
    32
  0
VERTEX
  8
E20LXLIFT
 62
1
 10
-204.916
 20
-899.184
 30
3245.000
 70
    32
  0
VERTEX
  8
E20LXLIFT
 62
1
 10
-214.015
 20
-896.545
 30
3245.000
 70
    32
  0
VERTEX
  8
E20LXLIFT
 62
1
 10
-214.153
 20
-888.267
 30
3245.000
 70
    32
  0
VERTEX
  8
E20LXLIFT
 62
1
 10
-211.643
 20
-878.391
 30
3245.000
 70
    32
  0
VERTEX
  8
E20LXLIFT
 62
1
 10
-204.344
 20
-882.447
 30
3245.000
 70
    32
  0
VERTEX
  8
E20LXLIFT
 62
1
 10
-199.115
 20
-884.851
 30
3245.000
 70
    32
  0
VERTEX
  8
E20LXLIFT
 62
1
 10
-196.823
 20
-882.315
 30
3245.000
 70
    32
  0
VERTEX
  8
E20LXLIFT
 62
1
 10
-192.640
 20
-879.385
 30
3245.000
 70
    32
  0
VERTEX
  8
E20LXLIFT
 62
1
 10
-190.416
 20
-873.309
 30
3245.000
 70
    32
  0
VERTEX
  8
E20LXLIFT
 62
1
 10
-185.699
 20
-864.224
 30
3245.000
 70
    32
  0
VERTEX
  8
E20LXLIFT
 62
1
 10
-178.960
 20
-862.266
 30
3245.000
 70
    32
  0
VERTEX
  8
E20LXLIFT
 62
1
 10
-167.801
 20
-861.450
 30
3245.000
 70
    32
  0
VERTEX
  8
E20LXLIFT
 62
1
 10
-158.171
 20
-862.724
 30
3245.000
 70
    32
  0
VERTEX
  8
E20LXLIFT
 62
1
 10
-146.929
 20
-853.034
 30
3245.000
 70
    32
  0
VERTEX
  8
E20LXLIFT
 62
1
 10
-135.592
 20
-857.856
 30
3245.000
 70
    32
  0
VERTEX
  8
E20LXLIFT
 62
1
 10
-112.087
 20
-889.312
 30
3245.000
 70
    32
  0
VERTEX
  8
E20LXLIFT
 62
1
 10
-104.203
 20
-900.016
 30
3245.000
 70
    32
  0
VERTEX
  8
E20LXLIFT
 62
1
 10
-104.571
 20
-910.294
 30
3245.000
 70
    32
  0
VERTEX
  8
E20LXLIFT
 62
1
 10
-111.605
 20
-918.886
 30
3245.000
 70
    32
  0
VERTEX
  8
E20LXLIFT
 62
1
 10
-120.633
 20
-916.195
 30
3245.000
 70
    32
  0
VERTEX
  8
E20LXLIFT
 62
1
 10
-124.127
 20
-925.915
 30
3245.000
 70
    32
  0
VERTEX
  8
E20LXLIFT
 62
1
 10
-129.197
 20
-930.469
 30
3245.000
 70
    32
  0
VERTEX
  8
E20LXLIFT
 62
1
 10
-138.376
 20
-930.716
 30
3245.000
 70
    32
  0
VERTEX
  8
E20LXLIFT
 62
1
 10
-148.915
 20
-923.248
 30
3245.000
 70
    32
  0
VERTEX
  8
E20LXLIFT
 62
1
 10
-155.388
 20
-923.924
 30
3245.000
 70
    32
  0
VERTEX
  8
E20LXLIFT
 62
1
 10
-166.007
 20
-929.679
 30
3245.000
 70
    32
  0
VERTEX
  8
E20LXLIFT
 62
1
 10
-182.374
 20
-915.236
 30
3245.000
 70
    32
  0
SEQEND
  8
E20LXLIFT
  0
POLYLINE
  8
E20LXLIFT
 62
3
 66
     1
 70
     9
  0
VERTEX
  8
E20LXLIFT
 62
3
 10
-1097.497
 20
-1599.445
 30
3225.458
 70
    32
  0
VERTEX
  8
E20LXLIFT
 62
3
 10
-1083.484
 20
-1623.832
 30
3225.461
 70
    32
  0
VERTEX
  8
E20LXLIFT
 62
3
 10
-1093.847
 20
-1637.977
 30
3225.471
 70
    32
  0
VERTEX
  8
E20LXLIFT
 62
3
 10
-1096.670
 20
-1637.545
 30
3225.471
 70
    32
  0
VERTEX
  8
E20LXLIFT
 62
3
 10
-1123.331
 20
-1657.474
 30
3225.487
 70
    32
  0
VERTEX
  8
E20LXLIFT
 62
3
 10
-1126.150
 20
-1658.541
 30
3225.488
 70
    32
  0
VERTEX
  8
E20LXLIFT
 62
3
 10
-1134.736
 20
-1648.867
 30
3225.482
 70
    32
  0
VERTEX
  8
E20LXLIFT
 62
3
 10
-1137.866
 20
-1635.470
 30
3225.475
 70
    32
  0
VERTEX
  8
E20LXLIFT
 62
3
 10
-1144.310
 20
-1633.815
 30
3225.476
 70
    32
  0
VERTEX
  8
E20LXLIFT
 62
3
 10
-1148.476
 20
-1627.213
 30
3225.476
 70
    32
  0
VERTEX
  8
E20LXLIFT
 62
3
 10
-1150.344
 20
-1622.368
 30
3225.476
 70
    32
  0
VERTEX
  8
E20LXLIFT
 62
3
 10
-1150.489
 20
-1604.376
 30
3225.472
 70
    32
  0
VERTEX
  8
E20LXLIFT
 62
3
 10
-1147.781
 20
-1596.077
 30
3225.469
 70
    32
  0
VERTEX
  8
E20LXLIFT
 62
3
 10
-1138.002
 20
-1592.518
 30
3225.466
 70
    32
  0
VERTEX
  8
E20LXLIFT
 62
3
 10
-1113.705
 20
-1578.064
 30
3225.457
 70
    32
  0
VERTEX
  8
E20LXLIFT
 62
3
 10
-1101.130
 20
-1594.077
 30
3225.457
 70
    32
  0
SEQEND
  8
E20LXLIFT
  0
POLYLINE
  8
E20LXLIFT
 62
1
 66
     1
 70
     9
  0
VERTEX
  8
E20LXLIFT
 62
1
 10
-1096.497
 20
-1598.445
 30
3235.458
 70
    32
  0
VERTEX
  8
E20LXLIFT
 62
1
 10
-1082.484
 20
-1622.832
 30
3235.461
 70
    32
  0
VERTEX
  8
E20LXLIFT
 62
1
 10
-1092.847
 20
-1636.977
 30
3235.471
 70
    32
  0
VERTEX
  8
E20LXLIFT
 62
1
 10
-1095.670
 20
-1636.545
 30
3235.471
 70
    32
  0
VERTEX
  8
E20LXLIFT
 62
1
 10
-1122.331
 20
-1656.474
 30
3235.487
 70
    32
  0
VERTEX
  8
E20LXLIFT
 62
1
 10
-1125.150
 20
-1657.541
 30
3235.488
 70
    32
  0
VERTEX
  8
E20LXLIFT
 62
1
 10
-1133.736
 20
-1647.867
 30
3235.482
 70
    32
  0
VERTEX
  8
E20LXLIFT
 62
1
 10
-1136.866
 20
-1634.470
 30
3235.475
 70
    32
  0
VERTEX
  8
E20LXLIFT
 62
1
 10
-1143.310
 20
-1632.815
 30
3235.476
 70
    32
  0
VERTEX
  8
E20LXLIFT
 62
1
 10
-1147.476
 20
-1626.213
 30
3235.476
 70
    32
  0
VERTEX
  8
E20LXLIFT
 62
1
 10
-1149.344
 20
-1621.368
 30
3235.476
 70
    32
  0
VERTEX
  8
E20LXLIFT
 62
1
 10
-1149.489
 20
-1603.376
 30
3235.472
 70
    32
  0
VERTEX
  8
E20LXLIFT
 62
1
 10
-1146.781
 20
-1595.077
 30
3235.469
 70
    32
  0
VERTEX
  8
E20LXLIFT
 62
1
 10
-1137.002
 20
-1591.518
 30
3235.466
 70
    32
  0
VERTEX
  8
E20LXLIFT
 62
1
 10
-1112.705
 20
-1577.064
 30
3235.457
 70
    32
  0
VERTEX
  8
E20LXLIFT
 62
1
 10
-1100.130
 20
-1593.077
 30
3235.457
 70
    32
  0
SEQEND
  8
E20LXLIFT
  0
POLYLINE
  8
E20LXLIFT
 62
7
 66
     1
 70
     9
  0
VERTEX
  8
E20LXLIFT
 62
7
 10
-1181.333
 20
-1223.366
 30
3225.544
 70
    32
  0
VERTEX
  8
E20LXLIFT
 62
7
 10
-1154.154
 20
-1227.778
 30
3225.501
 70
    32
  0
VERTEX
  8
E20LXLIFT
 62
7
 10
-1148.925
 20
-1235.876
 30
3225.476
 70
    32
  0
VERTEX
  8
E20LXLIFT
 62
7
 10
-1139.378
 20
-1270.420
 30
3225.414
 70
    32
  0
VERTEX
  8
E20LXLIFT
 62
7
 10
-1139.095
 20
-1276.063
 30
3225.410
 70
    32
  0
VERTEX
  8
E20LXLIFT
 62
7
 10
-1132.712
 20
-1286.539
 30
3225.403
 70
    32
  0
VERTEX
  8
E20LXLIFT
 62
7
 10
-1130.747
 20
-1294.030
 30
3225.402
 70
    32
  0
VERTEX
  8
E20LXLIFT
 62
7
 10
-1125.595
 20
-1305.655
 30
3225.403
 70
    32
  0
VERTEX
  8
E20LXLIFT
 62
7
 10
-1118.439
 20
-1309.249
 30
3225.402
 70
    32
  0
VERTEX
  8
E20LXLIFT
 62
7
 10
-1101.244
 20
-1336.095
 30
3225.403
 70
    32
  0
VERTEX
  8
E20LXLIFT
 62
7
 10
-1098.555
 20
-1349.669
 30
3225.406
 70
    32
  0
VERTEX
  8
E20LXLIFT
 62
7
 10
-1078.386
 20
-1396.174
 30
3225.410
 70
    32
  0
VERTEX
  8
E20LXLIFT
 62
7
 10
-1076.965
 20
-1399.080
 30
3225.411
 70
    32
  0
VERTEX
  8
E20LXLIFT
 62
7
 10
-1072.283
 20
-1401.623
 30
3225.410
 70
    32
  0
VERTEX
  8
E20LXLIFT
 62
7
 10
-1059.075
 20
-1422.484
 30
3225.411
 70
    32
  0
VERTEX
  8
E20LXLIFT
 62
7
 10
-1051.027
 20
-1429.250
 30
3225.410
 70
    32
  0
VERTEX
  8
E20LXLIFT
 62
7
 10
-1048.350
 20
-1436.998
 30
3225.411
 70
    32
  0
VERTEX
  8
E20LXLIFT
 62
7
 10
-1060.236
 20
-1445.772
 30
3225.416
 70
    32
  0
VERTEX
  8
E20LXLIFT
 62
7
 10
-1064.542
 20
-1450.637
 30
3225.418
 70
    32
  0
VERTEX
  8
E20LXLIFT
 62
7
 10
-1079.101
 20
-1448.655
 30
3225.421
 70
    32
  0
VERTEX
  8
E20LXLIFT
 62
7
 10
-1093.506
 20
-1427.140
 30
3225.421
 70
    32
  0
VERTEX
  8
E20LXLIFT
 62
7
 10
-1101.136
 20
-1415.745
 30
3225.420
 70
    32
  0
VERTEX
  8
E20LXLIFT
 62
7
 10
-1116.933
 20
-1383.684
 30
3225.417
 70
    32
  0
VERTEX
  8
E20LXLIFT
 62
7
 10
-1157.897
 20
-1299.055
 30
3225.410
 70
    32
  0
VERTEX
  8
E20LXLIFT
 62
7
 10
-1161.975
 20
-1292.453
 30
3225.409
 70
    32
  0
VERTEX
  8
E20LXLIFT
 62
7
 10
-1192.682
 20
-1229.249
 30
3225.579
 70
    32
  0
SEQEND
  8
E20LXLIFT
  0
POINT
  8
E20LXLIFT
 62
1
 10
-1108.255
 20
-1363.135
 30
3225.406
  0
LINE
  8
E20LXLIFT
 62
7
 10
-1108.255
 20
-1363.135
 30
3225.406
 11
-1029.009
 21
-1338.277
 31
3084.910
  0
POINT
  8
E20LXLIFT
 62
1
 10
-1029.009
 20
-1338.277
 30
3084.910
  0
POLYLINE
  8
E20LXLIFT
 62
11
 66
     1
 70
     9
  0
VERTEX
  8
E20LXLIFT
 62
11
 10
568.186
 20
-2104.697
 30
3224.770
 70
    32
  0
VERTEX
  8
E20LXLIFT
 62
11
 10
581.942
 20
-2122.579
 30
3224.748
 70
    32
  0
VERTEX
  8
E20LXLIFT
 62
11
 10
597.371
 20
-2137.378
 30
3224.728
 70
    32
  0
VERTEX
  8
E20LXLIFT
 62
11
 10
596.665
 20
-2139.097
 30
3224.727
 70
    32
  0
VERTEX
  8
E20LXLIFT
 62
11
 10
594.243
 20
-2141.308
 30
3224.728
 70
    32
  0
VERTEX
  8
E20LXLIFT
 62
11
 10
583.732
 20
-2134.265
 30
3224.740
 70
    32
  0
VERTEX
  8
E20LXLIFT
 62
11
 10
575.543
 20
-2133.820
 30
3224.746
 70
    32
  0
VERTEX
  8
E20LXLIFT
 62
11
 10
569.334
 20
-2131.161
 30
3224.752
 70
    32
  0
VERTEX
  8
E20LXLIFT
 62
11
 10
560.806
 20
-2146.801
 30
3224.748
 70
    32
  0
VERTEX
  8
E20LXLIFT
 62
11
 10
556.812
 20
-2151.038
 30
3224.748
 70
    32
  0
VERTEX
  8
E20LXLIFT
 62
11
 10
552.364
 20
-2151.676
 30
3224.750
 70
    32
  0
VERTEX
  8
E20LXLIFT
 62
11
 10
539.696
 20
-2146.758
 30
3224.762
 70
    32
  0
VERTEX
  8
E20LXLIFT
 62
11
 10
526.733
 20
-2144.569
 30
3224.773
 70
    32
  0
VERTEX
  8
E20LXLIFT
 62
11
 10
519.109
 20
-2140.871
 30
3224.781
 70
    32
  0
VERTEX
  8
E20LXLIFT
 62
11
 10
514.295
 20
-2134.896
 30
3224.788
 70
    32
  0
VERTEX
  8
E20LXLIFT
 62
11
 10
512.929
 20
-2129.453
 30
3224.792
 70
    32
  0
VERTEX
  8
E20LXLIFT
 62
11
 10
513.346
 20
-2107.960
 30
3224.806
 70
    32
  0
VERTEX
  8
E20LXLIFT
 62
11
 10
513.916
 20
-2104.265
 30
3224.808
 70
    32
  0
VERTEX
  8
E20LXLIFT
 62
11
 10
516.389
 20
-2102.126
 30
3224.808
 70
    32
  0
VERTEX
  8
E20LXLIFT
 62
11
 10
518.535
 20
-2100.881
 30
3224.807
 70
    32
  0
VERTEX
  8
E20LXLIFT
 62
11
 10
525.715
 20
-2101.737
 30
3224.801
 70
    32
  0
VERTEX
  8
E20LXLIFT
 62
11
 10
537.596
 20
-2109.306
 30
3224.788
 70
    32
  0
VERTEX
  8
E20LXLIFT
 62
11
 10
544.520
 20
-2111.005
 30
3224.782
 70
    32
  0
VERTEX
  8
E20LXLIFT
 62
11
 10
545.723
 20
-2110.560
 30
3224.781
 70
    32
  0
VERTEX
  8
E20LXLIFT
 62
11
 10
547.759
 20
-2101.860
 30
3224.786
 70
    32
  0
VERTEX
  8
E20LXLIFT
 62
11
 10
544.234
 20
-2092.429
 30
3224.794
 70
    32
  0
VERTEX
  8
E20LXLIFT
 62
11
 10
544.398
 20
-2087.285
 30
3224.797
 70
    32
  0
VERTEX
  8
E20LXLIFT
 62
11
 10
541.875
 20
-2084.437
 30
3224.801
 70
    32
  0
VERTEX
  8
E20LXLIFT
 62
11
 10
545.964
 20
-2081.223
 30
3224.800
 70
    32
  0
VERTEX
  8
E20LXLIFT
 62
11
 10
550.240
 20
-2083.332
 30
3224.796
 70
    32
  0
VERTEX
  8
E20LXLIFT
 62
11
 10
563.210
 20
-2098.950
 30
3224.777
 70
    32
  0
SEQEND
  8
E20LXLIFT
  0
POLYLINE
  8
E20LXLIFT
 62
3
 66
     1
 70
     9
  0
VERTEX
  8
E20LXLIFT
 62
3
 10
469.196
 20
-2069.314
 30
3224.862
 70
    32
  0
VERTEX
  8
E20LXLIFT
 62
3
 10
447.222
 20
-2050.353
 30
3224.889
 70
    32
  0
VERTEX
  8
E20LXLIFT
 62
3
 10
443.557
 20
-2037.748
 30
3224.900
 70
    32
  0
VERTEX
  8
E20LXLIFT
 62
3
 10
431.331
 20
-2010.773
 30
3224.926
 70
    32
  0
VERTEX
  8
E20LXLIFT
 62
3
 10
429.866
 20
-2003.108
 30
3224.932
 70
    32
  0
VERTEX
  8
E20LXLIFT
 62
3
 10
430.459
 20
-2000.489
 30
3224.933
 70
    32
  0
VERTEX
  8
E20LXLIFT
 62
3
 10
390.889
 20
-1932.167
 30
3225.005
 70
    32
  0
VERTEX
  8
E20LXLIFT
 62
3
 10
381.094
 20
-1930.277
 30
3225.002
 70
    32
  0
VERTEX
  8
E20LXLIFT
 62
3
 10
375.683
 20
-1924.084
 30
3225.004
 70
    32
  0
VERTEX
  8
E20LXLIFT
 62
3
 10
370.119
 20
-1922.154
 30
3225.002
 70
    32
  0
VERTEX
  8
E20LXLIFT
 62
3
 10
360.060
 20
-1909.318
 30
3225.007
 70
    32
  0
VERTEX
  8
E20LXLIFT
 62
3
 10
358.625
 20
-1899.011
 30
3225.017
 70
    32
  0
VERTEX
  8
E20LXLIFT
 62
3
 10
358.875
 20
-1895.014
 30
3225.022
 70
    32
  0
VERTEX
  8
E20LXLIFT
 62
3
 10
358.968
 20
-1893.517
 30
3225.024
 70
    32
  0
VERTEX
  8
E20LXLIFT
 62
3
 10
358.799
 20
-1892.305
 30
3225.025
 70
    32
  0
VERTEX
  8
E20LXLIFT
 62
3
 10
358.430
 20
-1889.652
 30
3225.027
 70
    32
  0
VERTEX
  8
E20LXLIFT
 62
3
 10
357.139
 20
-1885.355
 30
3225.031
 70
    32
  0
VERTEX
  8
E20LXLIFT
 62
3
 10
353.559
 20
-1882.199
 30
3225.032
 70
    32
  0
VERTEX
  8
E20LXLIFT
 62
3
 10
349.426
 20
-1878.555
 30
3225.032
 70
    32
  0
VERTEX
  8
E20LXLIFT
 62
3
 10
341.930
 20
-1865.043
 30
3225.041
 70
    32
  0
VERTEX
  8
E20LXLIFT
 62
3
 10
341.986
 20
-1855.281
 30
3225.051
 70
    32
  0
VERTEX
  8
E20LXLIFT
 62
3
 10
334.593
 20
-1843.550
 30
3225.058
 70
    32
  0
VERTEX
  8
E20LXLIFT
 62
3
 10
327.012
 20
-1829.773
 30
3225.067
 70
    32
  0
VERTEX
  8
E20LXLIFT
 62
3
 10
352.894
 20
-1834.839
 30
3225.083
 70
    32
  0
VERTEX
  8
E20LXLIFT
 62
3
 10
359.347
 20
-1840.815
 30
3225.081
 70
    32
  0
VERTEX
  8
E20LXLIFT
 62
3
 10
369.614
 20
-1864.966
 30
3225.063
 70
    32
  0
VERTEX
  8
E20LXLIFT
 62
3
 10
373.659
 20
-1865.716
 30
3225.060
 70
    32
  0
VERTEX
  8
E20LXLIFT
 62
3
 10
376.054
 20
-1868.985
 30
3225.056
 70
    32
  0
VERTEX
  8
E20LXLIFT
 62
3
 10
383.467
 20
-1888.346
 30
3225.039
 70
    32
  0
VERTEX
  8
E20LXLIFT
 62
3
 10
389.327
 20
-1898.580
 30
3225.028
 70
    32
  0
VERTEX
  8
E20LXLIFT
 62
3
 10
394.344
 20
-1905.280
 30
3225.020
 70
    32
  0
VERTEX
  8
E20LXLIFT
 62
3
 10
398.047
 20
-1908.246
 30
3225.015
 70
    32
  0
VERTEX
  8
E20LXLIFT
 62
3
 10
405.236
 20
-1909.860
 30
3225.009
 70
    32
  0
VERTEX
  8
E20LXLIFT
 62
3
 10
417.424
 20
-1927.689
 30
3224.989
 70
    32
  0
VERTEX
  8
E20LXLIFT
 62
3
 10
421.574
 20
-1936.335
 30
3224.981
 70
    32
  0
VERTEX
  8
E20LXLIFT
 62
3
 10
428.844
 20
-1959.078
 30
3224.961
 70
    32
  0
VERTEX
  8
E20LXLIFT
 62
3
 10
440.592
 20
-1965.870
 30
3224.949
 70
    32
  0
VERTEX
  8
E20LXLIFT
 62
3
 10
448.070
 20
-1966.835
 30
3224.943
 70
    32
  0
VERTEX
  8
E20LXLIFT
 62
3
 10
450.995
 20
-1971.573
 30
3224.938
 70
    32
  0
VERTEX
  8
E20LXLIFT
 62
3
 10
452.891
 20
-1978.485
 30
3224.932
 70
    32
  0
VERTEX
  8
E20LXLIFT
 62
3
 10
445.202
 20
-1993.183
 30
3224.928
 70
    32
  0
VERTEX
  8
E20LXLIFT
 62
3
 10
458.715
 20
-2024.895
 30
3224.898
 70
    32
  0
VERTEX
  8
E20LXLIFT
 62
3
 10
465.229
 20
-2031.700
 30
3224.889
 70
    32
  0
VERTEX
  8
E20LXLIFT
 62
3
 10
469.205
 20
-2038.617
 30
3224.882
 70
    32
  0
VERTEX
  8
E20LXLIFT
 62
3
 10
467.244
 20
-2048.463
 30
3224.877
 70
    32
  0
VERTEX
  8
E20LXLIFT
 62
3
 10
474.106
 20
-2062.003
 30
3224.863
 70
    32
  0
SEQEND
  8
E20LXLIFT
  0
POLYLINE
  8
E20LXLIFT
 62
1
 66
     1
 70
     9
  0
VERTEX
  8
E20LXLIFT
 62
1
 10
475.106
 20
-2061.003
 30
3234.863
 70
    32
  0
VERTEX
  8
E20LXLIFT
 62
1
 10
468.244
 20
-2047.463
 30
3234.877
 70
    32
  0
VERTEX
  8
E20LXLIFT
 62
1
 10
470.205
 20
-2037.617
 30
3234.882
 70
    32
  0
VERTEX
  8
E20LXLIFT
 62
1
 10
466.229
 20
-2030.700
 30
3234.889
 70
    32
  0
VERTEX
  8
E20LXLIFT
 62
1
 10
459.715
 20
-2023.895
 30
3234.898
 70
    32
  0
VERTEX
  8
E20LXLIFT
 62
1
 10
446.202
 20
-1992.183
 30
3234.928
 70
    32
  0
VERTEX
  8
E20LXLIFT
 62
1
 10
453.891
 20
-1977.485
 30
3234.932
 70
    32
  0
VERTEX
  8
E20LXLIFT
 62
1
 10
451.995
 20
-1970.573
 30
3234.938
 70
    32
  0
VERTEX
  8
E20LXLIFT
 62
1
 10
449.070
 20
-1965.835
 30
3234.943
 70
    32
  0
VERTEX
  8
E20LXLIFT
 62
1
 10
441.592
 20
-1964.870
 30
3234.949
 70
    32
  0
VERTEX
  8
E20LXLIFT
 62
1
 10
429.844
 20
-1958.078
 30
3234.961
 70
    32
  0
VERTEX
  8
E20LXLIFT
 62
1
 10
422.574
 20
-1935.335
 30
3234.981
 70
    32
  0
VERTEX
  8
E20LXLIFT
 62
1
 10
418.424
 20
-1926.689
 30
3234.989
 70
    32
  0
VERTEX
  8
E20LXLIFT
 62
1
 10
406.236
 20
-1908.860
 30
3235.009
 70
    32
  0
VERTEX
  8
E20LXLIFT
 62
1
 10
399.047
 20
-1907.246
 30
3235.015
 70
    32
  0
VERTEX
  8
E20LXLIFT
 62
1
 10
395.344
 20
-1904.280
 30
3235.020
 70
    32
  0
VERTEX
  8
E20LXLIFT
 62
1
 10
390.327
 20
-1897.580
 30
3235.028
 70
    32
  0
VERTEX
  8
E20LXLIFT
 62
1
 10
384.467
 20
-1887.346
 30
3235.039
 70
    32
  0
VERTEX
  8
E20LXLIFT
 62
1
 10
377.054
 20
-1867.985
 30
3235.056
 70
    32
  0
VERTEX
  8
E20LXLIFT
 62
1
 10
374.659
 20
-1864.716
 30
3235.060
 70
    32
  0
VERTEX
  8
E20LXLIFT
 62
1
 10
370.614
 20
-1863.966
 30
3235.063
 70
    32
  0
VERTEX
  8
E20LXLIFT
 62
1
 10
360.347
 20
-1839.815
 30
3235.081
 70
    32
  0
VERTEX
  8
E20LXLIFT
 62
1
 10
353.894
 20
-1833.839
 30
3235.083
 70
    32
  0
VERTEX
  8
E20LXLIFT
 62
1
 10
328.012
 20
-1828.773
 30
3235.067
 70
    32
  0
VERTEX
  8
E20LXLIFT
 62
1
 10
335.593
 20
-1842.550
 30
3235.058
 70
    32
  0
VERTEX
  8
E20LXLIFT
 62
1
 10
342.986
 20
-1854.281
 30
3235.051
 70
    32
  0
VERTEX
  8
E20LXLIFT
 62
1
 10
342.930
 20
-1864.043
 30
3235.041
 70
    32
  0
VERTEX
  8
E20LXLIFT
 62
1
 10
350.426
 20
-1877.555
 30
3235.032
 70
    32
  0
VERTEX
  8
E20LXLIFT
 62
1
 10
354.559
 20
-1881.199
 30
3235.032
 70
    32
  0
VERTEX
  8
E20LXLIFT
 62
1
 10
358.139
 20
-1884.355
 30
3235.031
 70
    32
  0
VERTEX
  8
E20LXLIFT
 62
1
 10
359.430
 20
-1888.652
 30
3235.027
 70
    32
  0
VERTEX
  8
E20LXLIFT
 62
1
 10
359.799
 20
-1891.305
 30
3235.025
 70
    32
  0
VERTEX
  8
E20LXLIFT
 62
1
 10
359.968
 20
-1892.517
 30
3235.024
 70
    32
  0
VERTEX
  8
E20LXLIFT
 62
1
 10
359.875
 20
-1894.014
 30
3235.022
 70
    32
  0
VERTEX
  8
E20LXLIFT
 62
1
 10
359.625
 20
-1898.011
 30
3235.017
 70
    32
  0
VERTEX
  8
E20LXLIFT
 62
1
 10
361.060
 20
-1908.318
 30
3235.007
 70
    32
  0
VERTEX
  8
E20LXLIFT
 62
1
 10
371.119
 20
-1921.154
 30
3235.002
 70
    32
  0
VERTEX
  8
E20LXLIFT
 62
1
 10
376.683
 20
-1923.084
 30
3235.004
 70
    32
  0
VERTEX
  8
E20LXLIFT
 62
1
 10
382.094
 20
-1929.277
 30
3235.002
 70
    32
  0
VERTEX
  8
E20LXLIFT
 62
1
 10
391.889
 20
-1931.167
 30
3235.005
 70
    32
  0
VERTEX
  8
E20LXLIFT
 62
1
 10
431.459
 20
-1999.489
 30
3234.933
 70
    32
  0
VERTEX
  8
E20LXLIFT
 62
1
 10
430.866
 20
-2002.108
 30
3234.932
 70
    32
  0
VERTEX
  8
E20LXLIFT
 62
1
 10
432.331
 20
-2009.773
 30
3234.926
 70
    32
  0
VERTEX
  8
E20LXLIFT
 62
1
 10
444.557
 20
-2036.748
 30
3234.900
 70
    32
  0
VERTEX
  8
E20LXLIFT
 62
1
 10
448.222
 20
-2049.353
 30
3234.889
 70
    32
  0
VERTEX
  8
E20LXLIFT
 62
1
 10
470.196
 20
-2068.314
 30
3234.862
 70
    32
  0
SEQEND
  8
E20LXLIFT
  0
POINT
  8
E20LXLIFT
 62
1
 10
352.726
 20
-1857.119
 30
3234.989
  0
POINT
  8
E20LXLIFT
 62
1
 10
334.965
 20
-1856.952
 30
3381.600
  0
LINE
  8
E20LXLIFT
 62
3
 10
334.965
 20
-1856.952
 30
3381.600
 11
352.726
 21
-1857.119
 31
3234.989
  0
POINT
  8
E20LXLIFT
 62
1
 10
72.111
 20
-1616.121
 30
3293.000
  0
POINT
  8
E20LXLIFT
 62
1
 10
56.536
 20
-1618.242
 30
3467.000
  0
LINE
  8
E20LXLIFT
 62
7
 10
56.536
 20
-1618.242
 30
3467.000
 11
72.111
 21
-1616.121
 31
3293.000
  0
POLYLINE
  8
E20LXLIFT
 62
11
 66
     1
 70
     9
  0
VERTEX
  8
E20LXLIFT
 62
11
 10
285.008
 20
-1634.247
 30
3225.602
 70
    32
  0
VERTEX
  8
E20LXLIFT
 62
11
 10
266.941
 20
-1639.402
 30
3225.662
 70
    32
  0
VERTEX
  8
E20LXLIFT
 62
11
 10
249.555
 20
-1624.616
 30
3225.748
 70
    32
  0
VERTEX
  8
E20LXLIFT
 62
11
 10
242.622
 20
-1611.128
 30
3225.754
 70
    32
  0
VERTEX
  8
E20LXLIFT
 62
11
 10
245.608
 20
-1607.303
 30
3225.776
 70
    32
  0
VERTEX
  8
E20LXLIFT
 62
11
 10
251.856
 20
-1606.439
 30
3225.785
 70
    32
  0
VERTEX
  8
E20LXLIFT
 62
11
 10
254.938
 20
-1608.112
 30
3225.769
 70
    32
  0
VERTEX
  8
E20LXLIFT
 62
11
 10
264.421
 20
-1617.329
 30
3225.716
 70
    32
  0
VERTEX
  8
E20LXLIFT
 62
11
 10
265.615
 20
-1617.765
 30
3225.709
 70
    32
  0
VERTEX
  8
E20LXLIFT
 62
11
 10
266.051
 20
-1616.572
 30
3225.708
 70
    32
  0
VERTEX
  8
E20LXLIFT
 62
11
 10
265.081
 20
-1613.459
 30
3225.715
 70
    32
  0
VERTEX
  8
E20LXLIFT
 62
11
 10
260.556
 20
-1608.475
 30
3225.741
 70
    32
  0
VERTEX
  8
E20LXLIFT
 62
11
 10
256.382
 20
-1600.392
 30
3225.766
 70
    32
  0
VERTEX
  8
E20LXLIFT
 62
11
 10
258.472
 20
-1586.847
 30
3225.764
 70
    32
  0
VERTEX
  8
E20LXLIFT
 62
11
 10
252.019
 20
-1580.871
 30
3225.800
 70
    32
  0
VERTEX
  8
E20LXLIFT
 62
11
 10
248.613
 20
-1570.260
 30
3225.824
 70
    32
  0
VERTEX
  8
E20LXLIFT
 62
11
 10
248.555
 20
-1562.876
 30
3225.829
 70
    32
  0
VERTEX
  8
E20LXLIFT
 62
11
 10
250.257
 20
-1560.428
 30
3225.822
 70
    32
  0
VERTEX
  8
E20LXLIFT
 62
11
 10
240.546
 20
-1541.658
 30
3225.882
 70
    32
  0
VERTEX
  8
E20LXLIFT
 62
11
 10
234.506
 20
-1544.445
 30
3225.882
 70
    32
  0
VERTEX
  8
E20LXLIFT
 62
11
 10
229.424
 20
-1532.440
 30
3225.890
 70
    32
  0
VERTEX
  8
E20LXLIFT
 62
11
 10
228.184
 20
-1520.461
 30
3225.920
 70
    32
  0
VERTEX
  8
E20LXLIFT
 62
11
 10
229.109
 20
-1516.507
 30
3225.949
 70
    32
  0
VERTEX
  8
E20LXLIFT
 62
11
 10
236.130
 20
-1513.571
 30
3225.973
 70
    32
  0
VERTEX
  8
E20LXLIFT
 62
11
 10
243.266
 20
-1528.525
 30
3225.914
 70
    32
  0
VERTEX
  8
E20LXLIFT
 62
11
 10
255.235
 20
-1539.197
 30
3225.883
 70
    32
  0
VERTEX
  8
E20LXLIFT
 62
11
 10
252.275
 20
-1548.573
 30
3225.852
 70
    32
  0
VERTEX
  8
E20LXLIFT
 62
11
 10
270.659
 20
-1585.891
 30
3225.735
 70
    32
  0
VERTEX
  8
E20LXLIFT
 62
11
 10
276.455
 20
-1589.181
 30
3225.727
 70
    32
  0
VERTEX
  8
E20LXLIFT
 62
11
 10
278.225
 20
-1593.236
 30
3225.714
 70
    32
  0
VERTEX
  8
E20LXLIFT
 62
11
 10
288.369
 20
-1606.337
 30
3225.674
 70
    32
  0
VERTEX
  8
E20LXLIFT
 62
11
 10
295.413
 20
-1625.641
 30
3225.613
 70
    32
  0
VERTEX
  8
E20LXLIFT
 62
11
 10
290.320
 20
-1628.826
 30
3225.601
 70
    32
  0
SEQEND
  8
E20LXLIFT
  0
POLYLINE
  8
E20LXLIFT
 62
11
 66
     1
 70
     9
  0
VERTEX
  8
E20LXLIFT
 62
11
 10
-33.998
 20
-1058.042
 30
3361.202
 70
    32
  0
VERTEX
  8
E20LXLIFT
 62
11
 10
88.895
 20
-1228.565
 30
3361.089
 70
    32
  0
VERTEX
  8
E20LXLIFT
 62
11
 10
84.073
 20
-1233.828
 30
3361.042
 70
    32
  0
VERTEX
  8
E20LXLIFT
 62
11
 10
-39.295
 20
-1062.957
 30
3361.165
 70
    32
  0
SEQEND
  8
E20LXLIFT
  0
POLYLINE
  8
E20LXLIFT
 62
1
 66
     1
 70
     9
  0
VERTEX
  8
E20LXLIFT
 62
1
 10
-32.998
 20
-1057.042
 30
3371.202
 70
    32
  0
VERTEX
  8
E20LXLIFT
 62
1
 10
89.895
 20
-1227.565
 30
3371.089
 70
    32
  0
VERTEX
  8
E20LXLIFT
 62
1
 10
85.073
 20
-1232.828
 30
3371.042
 70
    32
  0
VERTEX
  8
E20LXLIFT
 62
1
 10
-38.295
 20
-1061.957
 30
3371.165
 70
    32
  0
SEQEND
  8
E20LXLIFT
  0
POINT
  8
E20LXLIFT
 62
1
 10
18.457
 20
-1135.846
 30
3371.113
  0
POINT
  8
E20LXLIFT
 62
1
 10
-19.249
 20
-1188.979
 30
3526.381
  0
LINE
  8
E20LXLIFT
 62
11
 10
-19.249
 20
-1188.979
 30
3526.381
 11
18.457
 21
-1135.846
 31
3371.113
  0
POLYLINE
  8
E20LXLIFT
 62
8
 66
     1
 70
     9
  0
VERTEX
  8
E20LXLIFT
 62
8
 10
-1126.946
 20
-1518.925
 30
3225.448
 70
    32
  0
VERTEX
  8
E20LXLIFT
 62
8
 10
-1149.637
 20
-1539.371
 30
3225.458
 70
    32
  0
VERTEX
  8
E20LXLIFT
 62
8
 10
-1156.983
 20
-1531.192
 30
3225.458
 70
    32
  0
VERTEX
  8
E20LXLIFT
 62
8
 10
-1156.647
 20
-1525.899
 30
3225.457
 70
    32
  0
VERTEX
  8
E20LXLIFT
 62
8
 10
-1155.350
 20
-1517.692
 30
3225.455
 70
    32
  0
VERTEX
  8
E20LXLIFT
 62
8
 10
-1157.654
 20
-1514.260
 30
3225.455
 70
    32
  0
VERTEX
  8
E20LXLIFT
 62
8
 10
-1143.493
 20
-1502.220
 30
3225.449
 70
    32
  0
VERTEX
  8
E20LXLIFT
 62
8
 10
-1135.839
 20
-1495.933
 30
3225.445
 70
    32
  0
VERTEX
  8
E20LXLIFT
 62
8
 10
-1131.013
 20
-1488.068
 30
3225.443
 70
    32
  0
VERTEX
  8
E20LXLIFT
 62
8
 10
-1123.253
 20
-1487.691
 30
3225.441
 70
    32
  0
VERTEX
  8
E20LXLIFT
 62
8
 10
-1112.460
 20
-1498.152
 30
3225.440
 70
    32
  0
VERTEX
  8
E20LXLIFT
 62
8
 10
-1116.856
 20
-1502.400
 30
3225.442
 70
    32
  0
VERTEX
  8
E20LXLIFT
 62
8
 10
-1124.157
 20
-1508.685
 30
3225.445
 70
    32
  0
SEQEND
  8
E20LXLIFT
  0
POLYLINE
  8
E20LXLIFT
 62
1
 66
     1
 70
     9
  0
VERTEX
  8
E20LXLIFT
 62
1
 10
-1125.946
 20
-1517.925
 30
3235.448
 70
    32
  0
VERTEX
  8
E20LXLIFT
 62
1
 10
-1148.637
 20
-1538.371
 30
3235.458
 70
    32
  0
VERTEX
  8
E20LXLIFT
 62
1
 10
-1155.983
 20
-1530.192
 30
3235.458
 70
    32
  0
VERTEX
  8
E20LXLIFT
 62
1
 10
-1155.647
 20
-1524.899
 30
3235.457
 70
    32
  0
VERTEX
  8
E20LXLIFT
 62
1
 10
-1154.350
 20
-1516.692
 30
3235.455
 70
    32
  0
VERTEX
  8
E20LXLIFT
 62
1
 10
-1156.654
 20
-1513.260
 30
3235.455
 70
    32
  0
VERTEX
  8
E20LXLIFT
 62
1
 10
-1142.493
 20
-1501.220
 30
3235.449
 70
    32
  0
VERTEX
  8
E20LXLIFT
 62
1
 10
-1134.839
 20
-1494.933
 30
3235.445
 70
    32
  0
VERTEX
  8
E20LXLIFT
 62
1
 10
-1130.013
 20
-1487.068
 30
3235.443
 70
    32
  0
VERTEX
  8
E20LXLIFT
 62
1
 10
-1122.253
 20
-1486.691
 30
3235.441
 70
    32
  0
VERTEX
  8
E20LXLIFT
 62
1
 10
-1111.460
 20
-1497.152
 30
3235.440
 70
    32
  0
VERTEX
  8
E20LXLIFT
 62
1
 10
-1115.856
 20
-1501.400
 30
3235.442
 70
    32
  0
VERTEX
  8
E20LXLIFT
 62
1
 10
-1123.157
 20
-1507.685
 30
3235.445
 70
    32
  0
SEQEND
  8
E20LXLIFT
  0
POINT
  8
E20LXLIFT
 62
1
 10
-1141.447
 20
-1514.349
 30
3235.458
  0
POLYLINE
  8
E20LXLIFT
 62
3
 66
     1
 70
     9
  0
VERTEX
  8
E20LXLIFT
 62
3
 10
-2217.551
 20
507.540
 30
3226.469
 70
    32
  0
VERTEX
  8
E20LXLIFT
 62
3
 10
-2216.349
 20
508.431
 30
3226.470
 70
    32
  0
VERTEX
  8
E20LXLIFT
 62
3
 10
-2216.374
 20
513.341
 30
3226.474
 70
    32
  0
VERTEX
  8
E20LXLIFT
 62
3
 10
-2225.226
 20
519.815
 30
3226.487
 70
    32
  0
VERTEX
  8
E20LXLIFT
 62
3
 10
-2228.725
 20
520.398
 30
3226.495
 70
    32
  0
VERTEX
  8
E20LXLIFT
 62
3
 10
-2238.222
 20
528.037
 30
3226.527
 70
    32
  0
VERTEX
  8
E20LXLIFT
 62
3
 10
-2242.335
 20
538.462
 30
3226.552
 70
    32
  0
VERTEX
  8
E20LXLIFT
 62
3
 10
-2242.336
 20
541.419
 30
3226.557
 70
    32
  0
VERTEX
  8
E20LXLIFT
 62
3
 10
-2251.091
 20
555.742
 30
3226.597
 70
    32
  0
VERTEX
  8
E20LXLIFT
 62
3
 10
-2258.121
 20
566.852
 30
3226.629
 70
    32
  0
VERTEX
  8
E20LXLIFT
 62
3
 10
-2266.138
 20
581.065
 30
3226.668
 70
    32
  0
VERTEX
  8
E20LXLIFT
 62
3
 10
-2258.542
 20
591.202
 30
3226.670
 70
    32
  0
VERTEX
  8
E20LXLIFT
 62
3
 10
-2240.102
 20
581.852
 30
3226.618
 70
    32
  0
VERTEX
  8
E20LXLIFT
 62
3
 10
-2221.824
 20
564.730
 30
3226.553
 70
    32
  0
VERTEX
  8
E20LXLIFT
 62
3
 10
-2216.253
 20
550.566
 30
3226.519
 70
    32
  0
VERTEX
  8
E20LXLIFT
 62
3
 10
-2192.221
 20
511.199
 30
3226.476
 70
    32
  0
VERTEX
  8
E20LXLIFT
 62
3
 10
-2182.763
 20
509.228
 30
3226.475
 70
    32
  0
VERTEX
  8
E20LXLIFT
 62
3
 10
-2172.948
 20
505.002
 30
3226.473
 70
    32
  0
VERTEX
  8
E20LXLIFT
 62
3
 10
-2168.184
 20
497.688
 30
3226.468
 70
    32
  0
VERTEX
  8
E20LXLIFT
 62
3
 10
-2162.086
 20
493.007
 30
3226.464
 70
    32
  0
VERTEX
  8
E20LXLIFT
 62
3
 10
-2145.270
 20
488.055
 30
3226.462
 70
    32
  0
VERTEX
  8
E20LXLIFT
 62
3
 10
-2138.749
 20
489.603
 30
3226.465
 70
    32
  0
VERTEX
  8
E20LXLIFT
 62
3
 10
-2135.888
 20
478.798
 30
3226.456
 70
    32
  0
VERTEX
  8
E20LXLIFT
 62
3
 10
-2144.280
 20
473.125
 30
3226.450
 70
    32
  0
VERTEX
  8
E20LXLIFT
 62
3
 10
-2146.657
 20
469.829
 30
3226.447
 70
    32
  0
VERTEX
  8
E20LXLIFT
 62
3
 10
-2148.802
 20
460.900
 30
3226.439
 70
    32
  0
VERTEX
  8
E20LXLIFT
 62
3
 10
-2147.943
 20
453.978
 30
3226.434
 70
    32
  0
VERTEX
  8
E20LXLIFT
 62
3
 10
-2149.034
 20
450.869
 30
3226.431
 70
    32
  0
VERTEX
  8
E20LXLIFT
 62
3
 10
-2153.833
 20
445.669
 30
3226.426
 70
    32
  0
VERTEX
  8
E20LXLIFT
 62
3
 10
-2168.889
 20
444.257
 30
3226.423
 70
    32
  0
VERTEX
  8
E20LXLIFT
 62
3
 10
-2180.067
 20
450.322
 30
3226.426
 70
    32
  0
VERTEX
  8
E20LXLIFT
 62
3
 10
-2188.702
 20
460.790
 30
3226.434
 70
    32
  0
VERTEX
  8
E20LXLIFT
 62
3
 10
-2193.525
 20
470.251
 30
3226.441
 70
    32
  0
VERTEX
  8
E20LXLIFT
 62
3
 10
-2210.292
 20
493.313
 30
3226.458
 70
    32
  0
VERTEX
  8
E20LXLIFT
 62
3
 10
-2211.471
 20
496.382
 30
3226.461
 70
    32
  0
VERTEX
  8
E20LXLIFT
 62
3
 10
-2214.172
 20
498.105
 30
3226.462
 70
    32
  0
VERTEX
  8
E20LXLIFT
 62
3
 10
-2218.179
 20
499.078
 30
3226.462
 70
    32
  0
SEQEND
  8
E20LXLIFT
  0
POLYLINE
  8
E20LXLIFT
 62
1
 66
     1
 70
     9
  0
VERTEX
  8
E20LXLIFT
 62
1
 10
-2217.179
 20
500.078
 30
3236.462
 70
    32
  0
VERTEX
  8
E20LXLIFT
 62
1
 10
-2213.172
 20
499.105
 30
3236.462
 70
    32
  0
VERTEX
  8
E20LXLIFT
 62
1
 10
-2210.471
 20
497.382
 30
3236.461
 70
    32
  0
VERTEX
  8
E20LXLIFT
 62
1
 10
-2209.292
 20
494.313
 30
3236.458
 70
    32
  0
VERTEX
  8
E20LXLIFT
 62
1
 10
-2192.525
 20
471.251
 30
3236.441
 70
    32
  0
VERTEX
  8
E20LXLIFT
 62
1
 10
-2187.702
 20
461.790
 30
3236.434
 70
    32
  0
VERTEX
  8
E20LXLIFT
 62
1
 10
-2179.067
 20
451.322
 30
3236.426
 70
    32
  0
VERTEX
  8
E20LXLIFT
 62
1
 10
-2167.889
 20
445.257
 30
3236.423
 70
    32
  0
VERTEX
  8
E20LXLIFT
 62
1
 10
-2152.833
 20
446.669
 30
3236.426
 70
    32
  0
VERTEX
  8
E20LXLIFT
 62
1
 10
-2148.034
 20
451.869
 30
3236.431
 70
    32
  0
VERTEX
  8
E20LXLIFT
 62
1
 10
-2146.943
 20
454.978
 30
3236.434
 70
    32
  0
VERTEX
  8
E20LXLIFT
 62
1
 10
-2147.802
 20
461.900
 30
3236.439
 70
    32
  0
VERTEX
  8
E20LXLIFT
 62
1
 10
-2145.657
 20
470.829
 30
3236.447
 70
    32
  0
VERTEX
  8
E20LXLIFT
 62
1
 10
-2143.280
 20
474.125
 30
3236.450
 70
    32
  0
VERTEX
  8
E20LXLIFT
 62
1
 10
-2134.888
 20
479.798
 30
3236.456
 70
    32
  0
VERTEX
  8
E20LXLIFT
 62
1
 10
-2137.749
 20
490.603
 30
3236.465
 70
    32
  0
VERTEX
  8
E20LXLIFT
 62
1
 10
-2144.270
 20
489.055
 30
3236.462
 70
    32
  0
VERTEX
  8
E20LXLIFT
 62
1
 10
-2161.086
 20
494.007
 30
3236.464
 70
    32
  0
VERTEX
  8
E20LXLIFT
 62
1
 10
-2167.184
 20
498.688
 30
3236.468
 70
    32
  0
VERTEX
  8
E20LXLIFT
 62
1
 10
-2171.948
 20
506.002
 30
3236.473
 70
    32
  0
VERTEX
  8
E20LXLIFT
 62
1
 10
-2181.763
 20
510.228
 30
3236.475
 70
    32
  0
VERTEX
  8
E20LXLIFT
 62
1
 10
-2191.221
 20
512.199
 30
3236.476
 70
    32
  0
VERTEX
  8
E20LXLIFT
 62
1
 10
-2215.253
 20
551.566
 30
3236.519
 70
    32
  0
VERTEX
  8
E20LXLIFT
 62
1
 10
-2220.824
 20
565.730
 30
3236.553
 70
    32
  0
VERTEX
  8
E20LXLIFT
 62
1
 10
-2239.102
 20
582.852
 30
3236.618
 70
    32
  0
VERTEX
  8
E20LXLIFT
 62
1
 10
-2257.542
 20
592.202
 30
3236.670
 70
    32
  0
VERTEX
  8
E20LXLIFT
 62
1
 10
-2265.138
 20
582.065
 30
3236.668
 70
    32
  0
VERTEX
  8
E20LXLIFT
 62
1
 10
-2257.121
 20
567.852
 30
3236.629
 70
    32
  0
VERTEX
  8
E20LXLIFT
 62
1
 10
-2250.091
 20
556.742
 30
3236.597
 70
    32
  0
VERTEX
  8
E20LXLIFT
 62
1
 10
-2241.336
 20
542.419
 30
3236.557
 70
    32
  0
VERTEX
  8
E20LXLIFT
 62
1
 10
-2241.335
 20
539.462
 30
3236.552
 70
    32
  0
VERTEX
  8
E20LXLIFT
 62
1
 10
-2237.222
 20
529.037
 30
3236.527
 70
    32
  0
VERTEX
  8
E20LXLIFT
 62
1
 10
-2227.725
 20
521.398
 30
3236.495
 70
    32
  0
VERTEX
  8
E20LXLIFT
 62
1
 10
-2224.226
 20
520.815
 30
3236.487
 70
    32
  0
VERTEX
  8
E20LXLIFT
 62
1
 10
-2215.374
 20
514.341
 30
3236.474
 70
    32
  0
VERTEX
  8
E20LXLIFT
 62
1
 10
-2215.349
 20
509.431
 30
3236.470
 70
    32
  0
VERTEX
  8
E20LXLIFT
 62
1
 10
-2216.551
 20
508.540
 30
3236.469
 70
    32
  0
SEQEND
  8
E20LXLIFT
  0
POINT
  8
E20LXLIFT
 62
1
 10
-2207.155
 20
516.137
 30
3236.487
  0
POINT
  8
E20LXLIFT
 62
1
 10
-2263.556
 20
529.395
 30
3383.057
  0
LINE
  8
E20LXLIFT
 62
3
 10
-2263.556
 20
529.395
 30
3383.057
 11
-2207.155
 21
516.137
 31
3236.487
  0
LINE
  8
E20LXLIFT
 62
13
 10
80.768
 20
-1358.105
 30
3367.000
 11
100.566
 21
-1377.596
 31
3473.000
  0
POINT
  8
E20LXLIFT
 62
1
 10
80.768
 20
-1358.105
 30
3367.000
  0
POINT
  8
E20LXLIFT
 62
1
 10
100.566
 20
-1377.596
 30
3473.000
  0
LINE
  8
E20LXLIFT
 62
8
 10
-1141.447
 20
-1514.349
 30
3235.458
 11
-1184.018
 21
-1543.644
 31
3375.051
  0
POINT
  8
E20LXLIFT
 62
1
 10
-1184.341
 20
-1543.807
 30
3375.000
  0
POLYLINE
  8
E20LXLIFT
 62
1
 66
     1
 70
     9
  0
VERTEX
  8
E20LXLIFT
 62
1
 10
-126.044
 20
-999.669
 30
3232.000
 70
    32
  0
VERTEX
  8
E20LXLIFT
 62
1
 10
-126.449
 20
-995.067
 30
3232.000
 70
    32
  0
VERTEX
  8
E20LXLIFT
 62
1
 10
-130.187
 20
-988.424
 30
3232.000
 70
    32
  0
VERTEX
  8
E20LXLIFT
 62
1
 10
-137.573
 20
-978.555
 30
3232.000
 70
    32
  0
VERTEX
  8
E20LXLIFT
 62
1
 10
-134.565
 20
-969.515
 30
3232.000
 70
    32
  0
VERTEX
  8
E20LXLIFT
 62
1
 10
-138.981
 20
-961.189
 30
3232.000
 70
    32
  0
VERTEX
  8
E20LXLIFT
 62
1
 10
-134.692
 20
-952.414
 30
3232.000
 70
    32
  0
VERTEX
  8
E20LXLIFT
 62
1
 10
-135.561
 20
-943.579
 30
3232.000
 70
    32
  0
VERTEX
  8
E20LXLIFT
 62
1
 10
-132.022
 20
-935.568
 30
3232.000
 70
    32
  0
VERTEX
  8
E20LXLIFT
 62
1
 10
-121.780
 20
-931.392
 30
3232.000
 70
    32
  0
VERTEX
  8
E20LXLIFT
 62
1
 10
-110.182
 20
-932.978
 30
3232.000
 70
    32
  0
VERTEX
  8
E20LXLIFT
 62
1
 10
-98.243
 20
-937.580
 30
3232.000
 70
    32
  0
VERTEX
  8
E20LXLIFT
 62
1
 10
-88.674
 20
-944.012
 30
3232.000
 70
    32
  0
VERTEX
  8
E20LXLIFT
 62
1
 10
-82.331
 20
-957.686
 30
3232.000
 70
    32
  0
VERTEX
  8
E20LXLIFT
 62
1
 10
-89.382
 20
-961.611
 30
3232.000
 70
    32
  0
VERTEX
  8
E20LXLIFT
 62
1
 10
-99.348
 20
-969.701
 30
3232.000
 70
    32
  0
VERTEX
  8
E20LXLIFT
 62
1
 10
-95.705
 20
-975.284
 30
3233.000
 70
    32
  0
VERTEX
  8
E20LXLIFT
 62
1
 10
-89.689
 20
-974.472
 30
3233.000
 70
    32
  0
VERTEX
  8
E20LXLIFT
 62
1
 10
-83.225
 20
-976.556
 30
3233.000
 70
    32
  0
VERTEX
  8
E20LXLIFT
 62
1
 10
-76.926
 20
-979.538
 30
3234.000
 70
    32
  0
VERTEX
  8
E20LXLIFT
 62
1
 10
-69.186
 20
-981.991
 30
3234.000
 70
    32
  0
VERTEX
  8
E20LXLIFT
 62
1
 10
-69.436
 20
-992.804
 30
3234.000
 70
    32
  0
VERTEX
  8
E20LXLIFT
 62
1
 10
-77.525
 20
-1002.227
 30
3234.000
 70
    32
  0
VERTEX
  8
E20LXLIFT
 62
1
 10
-83.177
 20
-1003.768
 30
3234.000
 70
    32
  0
VERTEX
  8
E20LXLIFT
 62
1
 10
-86.059
 20
-1003.167
 30
3234.000
 70
    32
  0
VERTEX
  8
E20LXLIFT
 62
1
 10
-104.638
 20
-1019.216
 30
3234.000
 70
    32
  0
VERTEX
  8
E20LXLIFT
 62
1
 10
-109.530
 20
-1015.486
 30
3234.000
 70
    32
  0
VERTEX
  8
E20LXLIFT
 62
1
 10
-114.813
 20
-1017.952
 30
3234.000
 70
    32
  0
VERTEX
  8
E20LXLIFT
 62
1
 10
-113.466
 20
-1007.397
 30
3232.000
 70
    32
  0
SEQEND
  8
E20LXLIFT
  0
POLYLINE
  8
E20LXLIFT
 62
1
 66
     1
 70
     9
  0
VERTEX
  8
E20LXLIFT
 62
1
 10
-159.265
 20
-1017.722
 30
3233.000
 70
    32
  0
VERTEX
  8
E20LXLIFT
 62
1
 10
-189.157
 20
-979.058
 30
3233.000
 70
    32
  0
VERTEX
  8
E20LXLIFT
 62
1
 10
-187.791
 20
-985.408
 30
3233.000
 70
    32
  0
VERTEX
  8
E20LXLIFT
 62
1
 10
-192.374
 20
-993.700
 30
3234.000
 70
    32
  0
VERTEX
  8
E20LXLIFT
 62
1
 10
-193.952
 20
-995.752
 30
3234.000
 70
    32
  0
VERTEX
  8
E20LXLIFT
 62
1
 10
-198.389
 20
-999.763
 30
3234.000
 70
    32
  0
VERTEX
  8
E20LXLIFT
 62
1
 10
-205.045
 20
-999.814
 30
3234.000
 70
    32
  0
VERTEX
  8
E20LXLIFT
 62
1
 10
-208.296
 20
-1007.469
 30
3234.000
 70
    32
  0
VERTEX
  8
E20LXLIFT
 62
1
 10
-207.121
 20
-1013.353
 30
3234.000
 70
    32
  0
VERTEX
  8
E20LXLIFT
 62
1
 10
-201.496
 20
-1018.955
 30
3234.000
 70
    32
  0
VERTEX
  8
E20LXLIFT
 62
1
 10
-192.998
 20
-1015.511
 30
3234.000
 70
    32
  0
VERTEX
  8
E20LXLIFT
 62
1
 10
-190.187
 20
-1016.267
 30
3234.000
 70
    32
  0
VERTEX
  8
E20LXLIFT
 62
1
 10
-182.130
 20
-1019.952
 30
3234.000
 70
    32
  0
VERTEX
  8
E20LXLIFT
 62
1
 10
-180.186
 20
-1029.954
 30
3234.000
 70
    32
  0
VERTEX
  8
E20LXLIFT
 62
1
 10
-181.073
 20
-1038.331
 30
3234.000
 70
    32
  0
VERTEX
  8
E20LXLIFT
 62
1
 10
-172.082
 20
-1038.043
 30
3234.000
 70
    32
  0
VERTEX
  8
E20LXLIFT
 62
1
 10
-170.876
 20
-1028.775
 30
3234.000
 70
    32
  0
VERTEX
  8
E20LXLIFT
 62
1
 10
-166.741
 20
-1024.466
 30
3233.500
 70
    32
  0
VERTEX
  8
E20LXLIFT
 62
1
 10
-167.097
 20
-1017.690
 30
3233.000
 70
    32
  0
VERTEX
  8
E20LXLIFT
 62
1
 10
-163.426
 20
-1016.734
 30
3233.000
 70
    32
  0
VERTEX
  8
E20LXLIFT
 62
1
 10
-162.258
 20
-1015.765
 30
3233.000
 70
    32
  0
SEQEND
  8
E20LXLIFT
  0
POLYLINE
  8
E20LXLIFT
 62
3
 66
     1
 70
     9
  0
VERTEX
  8
E20LXLIFT
 62
3
 10
-346.242
 20
-657.802
 30
3336.000
 70
    32
  0
VERTEX
  8
E20LXLIFT
 62
3
 10
-330.883
 20
-655.306
 30
3336.000
 70
    32
  0
VERTEX
  8
E20LXLIFT
 62
3
 10
-321.100
 20
-651.402
 30
3336.000
 70
    32
  0
VERTEX
  8
E20LXLIFT
 62
3
 10
-314.300
 20
-656.163
 30
3336.000
 70
    32
  0
VERTEX
  8
E20LXLIFT
 62
3
 10
-304.504
 20
-659.959
 30
3336.000
 70
    32
  0
VERTEX
  8
E20LXLIFT
 62
3
 10
-292.996
 20
-661.761
 30
3336.000
 70
    32
  0
VERTEX
  8
E20LXLIFT
 62
3
 10
-287.607
 20
-664.716
 30
3336.000
 70
    32
  0
VERTEX
  8
E20LXLIFT
 62
3
 10
-288.392
 20
-669.953
 30
3336.000
 70
    32
  0
VERTEX
  8
E20LXLIFT
 62
3
 10
-282.913
 20
-674.690
 30
3336.000
 70
    32
  0
VERTEX
  8
E20LXLIFT
 62
3
 10
-286.213
 20
-678.698
 30
3336.000
 70
    32
  0
VERTEX
  8
E20LXLIFT
 62
3
 10
-288.906
 20
-683.246
 30
3336.000
 70
    32
  0
VERTEX
  8
E20LXLIFT
 62
3
 10
-297.288
 20
-677.345
 30
3336.000
 70
    32
  0
VERTEX
  8
E20LXLIFT
 62
3
 10
-301.374
 20
-677.251
 30
3336.000
 70
    32
  0
VERTEX
  8
E20LXLIFT
 62
3
 10
-311.269
 20
-672.114
 30
3336.000
 70
    32
  0
VERTEX
  8
E20LXLIFT
 62
3
 10
-319.849
 20
-676.781
 30
3336.000
 70
    32
  0
VERTEX
  8
E20LXLIFT
 62
3
 10
-330.114
 20
-673.540
 30
3336.000
 70
    32
  0
VERTEX
  8
E20LXLIFT
 62
3
 10
-343.758
 20
-668.175
 30
3336.000
 70
    32
  0
SEQEND
  8
E20LXLIFT
  0
POLYLINE
  8
E20LXLIFT
 62
1
 66
     1
 70
     9
  0
VERTEX
  8
E20LXLIFT
 62
1
 10
-224.395
 20
-908.392
 30
3235.000
 70
    32
  0
VERTEX
  8
E20LXLIFT
 62
1
 10
-211.072
 20
-939.209
 30
3235.000
 70
    32
  0
VERTEX
  8
E20LXLIFT
 62
1
 10
-211.416
 20
-938.770
 30
3235.000
 70
    32
  0
VERTEX
  8
E20LXLIFT
 62
1
 10
-222.002
 20
-933.285
 30
3235.000
 70
    32
  0
VERTEX
  8
E20LXLIFT
 62
1
 10
-229.591
 20
-933.275
 30
3235.000
 70
    32
  0
VERTEX
  8
E20LXLIFT
 62
1
 10
-236.735
 20
-941.683
 30
3235.000
 70
    32
  0
VERTEX
  8
E20LXLIFT
 62
1
 10
-252.188
 20
-933.643
 30
3235.000
 70
    32
  0
VERTEX
  8
E20LXLIFT
 62
1
 10
-255.020
 20
-922.215
 30
3235.000
 70
    32
  0
VERTEX
  8
E20LXLIFT
 62
1
 10
-247.656
 20
-912.658
 30
3235.000
 70
    32
  0
VERTEX
  8
E20LXLIFT
 62
1
 10
-228.486
 20
-918.387
 30
3235.000
 70
    32
  0
VERTEX
  8
E20LXLIFT
 62
1
 10
-223.802
 20
-914.052
 30
3235.000
 70
    32
  0
SEQEND
  8
E20LXLIFT
  0
POLYLINE
  8
E20LXLIFT
 62
1
 66
     1
 70
     9
  0
VERTEX
  8
E20LXLIFT
 62
1
 10
-345.242
 20
-656.802
 30
3346.000
 70
    32
  0
VERTEX
  8
E20LXLIFT
 62
1
 10
-340.936
 20
-650.783
 30
3346.000
 70
    32
  0
VERTEX
  8
E20LXLIFT
 62
1
 10
-336.824
 20
-646.529
 30
3346.000
 70
    32
  0
VERTEX
  8
E20LXLIFT
 62
1
 10
-329.180
 20
-643.867
 30
3346.000
 70
    32
  0
VERTEX
  8
E20LXLIFT
 62
1
 10
-320.100
 20
-650.402
 30
3346.000
 70
    32
  0
VERTEX
  8
E20LXLIFT
 62
1
 10
-313.300
 20
-655.163
 30
3346.000
 70
    32
  0
VERTEX
  8
E20LXLIFT
 62
1
 10
-303.504
 20
-658.959
 30
3346.000
 70
    32
  0
VERTEX
  8
E20LXLIFT
 62
1
 10
-291.996
 20
-660.761
 30
3346.000
 70
    32
  0
VERTEX
  8
E20LXLIFT
 62
1
 10
-286.607
 20
-663.716
 30
3346.000
 70
    32
  0
VERTEX
  8
E20LXLIFT
 62
1
 10
-287.392
 20
-668.953
 30
3346.000
 70
    32
  0
VERTEX
  8
E20LXLIFT
 62
1
 10
-281.913
 20
-673.690
 30
3346.000
 70
    32
  0
VERTEX
  8
E20LXLIFT
 62
1
 10
-285.213
 20
-677.698
 30
3346.000
 70
    32
  0
VERTEX
  8
E20LXLIFT
 62
1
 10
-287.906
 20
-682.246
 30
3346.000
 70
    32
  0
VERTEX
  8
E20LXLIFT
 62
1
 10
-296.288
 20
-676.345
 30
3346.000
 70
    32
  0
VERTEX
  8
E20LXLIFT
 62
1
 10
-300.374
 20
-676.251
 30
3346.000
 70
    32
  0
VERTEX
  8
E20LXLIFT
 62
1
 10
-310.269
 20
-671.114
 30
3346.000
 70
    32
  0
VERTEX
  8
E20LXLIFT
 62
1
 10
-318.849
 20
-675.781
 30
3346.000
 70
    32
  0
VERTEX
  8
E20LXLIFT
 62
1
 10
-329.114
 20
-672.540
 30
3346.000
 70
    32
  0
VERTEX
  8
E20LXLIFT
 62
1
 10
-342.758
 20
-667.175
 30
3346.000
 70
    32
  0
SEQEND
  8
E20LXLIFT
  0
POLYLINE
  8
E20LXLIFT
 62
3
 66
     1
 70
     9
  0
VERTEX
  8
E20LXLIFT
 62
3
 10
-322.378
 20
-792.155
 30
3331.000
 70
    32
  0
VERTEX
  8
E20LXLIFT
 62
3
 10
-310.531
 20
-796.794
 30
3331.000
 70
    32
  0
VERTEX
  8
E20LXLIFT
 62
3
 10
-299.799
 20
-785.657
 30
3331.000
 70
    32
  0
VERTEX
  8
E20LXLIFT
 62
3
 10
-294.615
 20
-779.224
 30
3331.000
 70
    32
  0
VERTEX
  8
E20LXLIFT
 62
3
 10
-294.422
 20
-773.663
 30
3331.000
 70
    32
  0
VERTEX
  8
E20LXLIFT
 62
3
 10
-288.140
 20
-769.389
 30
3331.000
 70
    32
  0
VERTEX
  8
E20LXLIFT
 62
3
 10
-284.794
 20
-780.288
 30
3331.000
 70
    32
  0
VERTEX
  8
E20LXLIFT
 62
3
 10
-279.258
 20
-783.957
 30
3331.000
 70
    32
  0
VERTEX
  8
E20LXLIFT
 62
3
 10
-275.329
 20
-785.316
 30
3331.000
 70
    32
  0
VERTEX
  8
E20LXLIFT
 62
3
 10
-271.716
 20
-792.166
 30
3331.000
 70
    32
  0
VERTEX
  8
E20LXLIFT
 62
3
 10
-280.744
 20
-799.471
 30
3331.000
 70
    32
  0
VERTEX
  8
E20LXLIFT
 62
3
 10
-282.538
 20
-805.536
 30
3331.000
 70
    32
  0
VERTEX
  8
E20LXLIFT
 62
3
 10
-288.921
 20
-808.554
 30
3331.000
 70
    32
  0
VERTEX
  8
E20LXLIFT
 62
3
 10
-296.479
 20
-806.378
 30
3331.000
 70
    32
  0
VERTEX
  8
E20LXLIFT
 62
3
 10
-300.460
 20
-806.530
 30
3331.000
 70
    32
  0
VERTEX
  8
E20LXLIFT
 62
3
 10
-307.344
 20
-813.596
 30
3331.000
 70
    32
  0
VERTEX
  8
E20LXLIFT
 62
3
 10
-306.124
 20
-817.936
 30
3331.000
 70
    32
  0
SEQEND
  8
E20LXLIFT
  0
POLYLINE
  8
E20LXLIFT
 62
3
 66
     1
 70
     9
  0
VERTEX
  8
E20LXLIFT
 62
3
 10
-288.133
 20
-770.921
 30
3340.000
 70
    32
  0
VERTEX
  8
E20LXLIFT
 62
3
 10
-293.770
 20
-773.543
 30
3340.000
 70
    32
  0
VERTEX
  8
E20LXLIFT
 62
3
 10
-293.966
 20
-779.783
 30
3340.000
 70
    32
  0
VERTEX
  8
E20LXLIFT
 62
3
 10
-296.878
 20
-789.600
 30
3340.000
 70
    32
  0
VERTEX
  8
E20LXLIFT
 62
3
 10
-295.040
 20
-802.920
 30
3340.000
 70
    32
  0
VERTEX
  8
E20LXLIFT
 62
3
 10
-289.413
 20
-803.965
 30
3340.000
 70
    32
  0
VERTEX
  8
E20LXLIFT
 62
3
 10
-284.560
 20
-802.515
 30
3340.000
 70
    32
  0
VERTEX
  8
E20LXLIFT
 62
3
 10
-281.964
 20
-796.789
 30
3340.000
 70
    32
  0
VERTEX
  8
E20LXLIFT
 62
3
 10
-281.672
 20
-790.683
 30
3340.000
 70
    32
  0
VERTEX
  8
E20LXLIFT
 62
3
 10
-282.705
 20
-784.714
 30
3340.000
 70
    32
  0
VERTEX
  8
E20LXLIFT
 62
3
 10
-285.037
 20
-780.898
 30
3340.000
 70
    32
  0
SEQEND
  8
E20LXLIFT
  0
POLYLINE
  8
E20LXLIFT
 62
3
 66
     1
 70
     8
  0
VERTEX
  8
E20LXLIFT
 62
3
 10
-318.115
 20
-675.848
 30
3357.880
 70
    32
  0
VERTEX
  8
E20LXLIFT
 62
3
 10
-322.122
 20
-677.533
 30
3357.880
 70
    32
  0
VERTEX
  8
E20LXLIFT
 62
3
 10
-337.418
 20
-671.013
 30
3357.880
 70
    32
  0
VERTEX
  8
E20LXLIFT
 62
3
 10
-347.153
 20
-669.364
 30
3357.855
 70
    32
  0
VERTEX
  8
E20LXLIFT
 62
3
 10
-343.577
 20
-658.999
 30
3357.880
 70
    32
  0
VERTEX
  8
E20LXLIFT
 62
3
 10
-333.065
 20
-655.113
 30
3357.880
 70
    32
  0
VERTEX
  8
E20LXLIFT
 62
3
 10
-322.691
 20
-652.839
 30
3357.880
 70
    32
  0
VERTEX
  8
E20LXLIFT
 62
3
 10
-310.867
 20
-659.045
 30
3357.880
 70
    32
  0
VERTEX
  8
E20LXLIFT
 62
3
 10
-291.109
 20
-662.893
 30
3357.880
 70
    32
  0
VERTEX
  8
E20LXLIFT
 62
3
 10
-287.894
 20
-665.556
 30
3357.880
 70
    32
  0
VERTEX
  8
E20LXLIFT
 62
3
 10
-288.950
 20
-670.103
 30
3357.880
 70
    32
  0
VERTEX
  8
E20LXLIFT
 62
3
 10
-284.757
 20
-674.876
 30
3357.880
 70
    32
  0
VERTEX
  8
E20LXLIFT
 62
3
 10
-288.270
 20
-682.923
 30
3357.880
 70
    32
  0
VERTEX
  8
E20LXLIFT
 62
3
 10
-291.067
 20
-683.097
 30
3357.880
 70
    32
  0
VERTEX
  8
E20LXLIFT
 62
3
 10
-311.166
 20
-672.460
 30
3357.880
 70
    32
  0
VERTEX
  8
E20LXLIFT
 62
3
 10
-313.116
 20
-672.457
 30
3357.880
 70
    32
  0
VERTEX
  8
E20LXLIFT
 62
3
 10
-317.043
 20
-675.121
 30
3357.880
 70
    32
  0
SEQEND
  8
E20LXLIFT
  0
POLYLINE
  8
E20LXLIFT
 62
1
 66
     1
 70
     9
  0
VERTEX
  8
E20LXLIFT
 62
1
 10
-126.277
 20
-887.630
 30
3252.020
 70
    32
  0
VERTEX
  8
E20LXLIFT
 62
1
 10
-129.042
 20
-880.277
 30
3252.020
 70
    32
  0
VERTEX
  8
E20LXLIFT
 62
1
 10
-139.369
 20
-871.888
 30
3252.020
 70
    32
  0
VERTEX
  8
E20LXLIFT
 62
1
 10
-154.373
 20
-863.983
 30
3252.020
 70
    32
  0
VERTEX
  8
E20LXLIFT
 62
1
 10
-168.994
 20
-860.112
 30
3252.020
 70
    32
  0
VERTEX
  8
E20LXLIFT
 62
1
 10
-184.398
 20
-854.649
 30
3252.020
 70
    32
  0
VERTEX
  8
E20LXLIFT
 62
1
 10
-194.596
 20
-856.940
 30
3252.020
 70
    32
  0
VERTEX
  8
E20LXLIFT
 62
1
 10
-198.186
 20
-858.439
 30
3252.020
 70
    32
  0
VERTEX
  8
E20LXLIFT
 62
1
 10
-207.423
 20
-865.069
 30
3252.020
 70
    32
  0
VERTEX
  8
E20LXLIFT
 62
1
 10
-205.526
 20
-877.712
 30
3252.020
 70
    32
  0
VERTEX
  8
E20LXLIFT
 62
1
 10
-214.157
 20
-883.188
 30
3252.020
 70
    32
  0
VERTEX
  8
E20LXLIFT
 62
1
 10
-213.147
 20
-893.596
 30
3252.020
 70
    32
  0
VERTEX
  8
E20LXLIFT
 62
1
 10
-190.848
 20
-904.166
 30
3252.020
 70
    32
  0
VERTEX
  8
E20LXLIFT
 62
1
 10
-187.652
 20
-907.618
 30
3252.020
 70
    32
  0
VERTEX
  8
E20LXLIFT
 62
1
 10
-182.756
 20
-913.441
 30
3252.020
 70
    32
  0
VERTEX
  8
E20LXLIFT
 62
1
 10
-173.692
 20
-918.068
 30
3252.020
 70
    32
  0
VERTEX
  8
E20LXLIFT
 62
1
 10
-170.947
 20
-917.893
 30
3252.020
 70
    32
  0
VERTEX
  8
E20LXLIFT
 62
1
 10
-165.979
 20
-911.814
 30
3252.020
 70
    32
  0
VERTEX
  8
E20LXLIFT
 62
1
 10
-147.448
 20
-907.133
 30
3252.020
 70
    32
  0
VERTEX
  8
E20LXLIFT
 62
1
 10
-136.856
 20
-899.891
 30
3252.020
 70
    32
  0
VERTEX
  8
E20LXLIFT
 62
1
 10
-129.800
 20
-888.722
 30
3252.020
 70
    32
  0
SEQEND
  8
E20LXLIFT
  0
POLYLINE
  8
E20LXLIFT
 62
1
 66
     1
 70
     9
  0
VERTEX
  8
E20LXLIFT
 62
1
 10
-226.305
 20
-878.261
 30
3252.020
 70
    32
  0
VERTEX
  8
E20LXLIFT
 62
1
 10
-220.795
 20
-885.439
 30
3252.020
 70
    32
  0
VERTEX
  8
E20LXLIFT
 62
1
 10
-223.668
 20
-888.937
 30
3252.020
 70
    32
  0
VERTEX
  8
E20LXLIFT
 62
1
 10
-230.586
 20
-887.797
 30
3252.020
 70
    32
  0
VERTEX
  8
E20LXLIFT
 62
1
 10
-233.575
 20
-885.633
 30
3252.020
 70
    32
  0
VERTEX
  8
E20LXLIFT
 62
1
 10
-232.500
 20
-881.630
 30
3252.020
 70
    32
  0
SEQEND
  8
E20LXLIFT
  0
POLYLINE
  8
E20LXLIFT
 62
1
 66
     1
 70
     9
  0
VERTEX
  8
E20LXLIFT
 62
1
 10
-137.151
 20
-877.479
 30
3261.570
 70
    32
  0
VERTEX
  8
E20LXLIFT
 62
1
 10
-152.088
 20
-869.166
 30
3261.570
 70
    32
  0
VERTEX
  8
E20LXLIFT
 62
1
 10
-158.503
 20
-866.229
 30
3261.570
 70
    32
  0
VERTEX
  8
E20LXLIFT
 62
1
 10
-167.499
 20
-861.194
 30
3261.570
 70
    32
  0
VERTEX
  8
E20LXLIFT
 62
1
 10
-178.457
 20
-857.926
 30
3261.570
 70
    32
  0
VERTEX
  8
E20LXLIFT
 62
1
 10
-185.412
 20
-855.736
 30
3261.570
 70
    32
  0
VERTEX
  8
E20LXLIFT
 62
1
 10
-188.772
 20
-854.555
 30
3261.570
 70
    32
  0
VERTEX
  8
E20LXLIFT
 62
1
 10
-198.836
 20
-856.033
 30
3261.570
 70
    32
  0
VERTEX
  8
E20LXLIFT
 62
1
 10
-213.862
 20
-866.098
 30
3261.570
 70
    32
  0
VERTEX
  8
E20LXLIFT
 62
1
 10
-212.141
 20
-875.996
 30
3261.570
 70
    32
  0
VERTEX
  8
E20LXLIFT
 62
1
 10
-216.271
 20
-878.242
 30
3261.570
 70
    32
  0
VERTEX
  8
E20LXLIFT
 62
1
 10
-222.692
 20
-872.795
 30
3261.570
 70
    32
  0
VERTEX
  8
E20LXLIFT
 62
1
 10
-230.121
 20
-870.945
 30
3261.570
 70
    32
  0
VERTEX
  8
E20LXLIFT
 62
1
 10
-233.504
 20
-873.732
 30
3261.570
 70
    32
  0
VERTEX
  8
E20LXLIFT
 62
1
 10
-237.244
 20
-882.521
 30
3261.570
 70
    32
  0
VERTEX
  8
E20LXLIFT
 62
1
 10
-236.320
 20
-885.808
 30
3261.570
 70
    32
  0
VERTEX
  8
E20LXLIFT
 62
1
 10
-218.067
 20
-891.740
 30
3261.570
 70
    32
  0
VERTEX
  8
E20LXLIFT
 62
1
 10
-211.519
 20
-893.864
 30
3261.570
 70
    32
  0
VERTEX
  8
E20LXLIFT
 62
1
 10
-196.782
 20
-903.397
 30
3261.570
 70
    32
  0
VERTEX
  8
E20LXLIFT
 62
1
 10
-191.478
 20
-909.287
 30
3261.570
 70
    32
  0
VERTEX
  8
E20LXLIFT
 62
1
 10
-182.039
 20
-915.440
 30
3261.570
 70
    32
  0
VERTEX
  8
E20LXLIFT
 62
1
 10
-171.214
 20
-919.522
 30
3261.570
 70
    32
  0
VERTEX
  8
E20LXLIFT
 62
1
 10
-158.107
 20
-914.783
 30
3261.570
 70
    32
  0
VERTEX
  8
E20LXLIFT
 62
1
 10
-143.064
 20
-898.241
 30
3261.570
 70
    32
  0
VERTEX
  8
E20LXLIFT
 62
1
 10
-132.795
 20
-884.048
 30
3261.570
 70
    32
  0
SEQEND
  8
E20LXLIFT
  0
POLYLINE
  8
E20LXLIFT
 62
1
 66
     1
 70
     9
  0
VERTEX
  8
E20LXLIFT
 62
1
 10
-225.216
 20
-864.683
 30
3271.300
 70
    32
  0
VERTEX
  8
E20LXLIFT
 62
1
 10
-234.320
 20
-868.069
 30
3271.300
 70
    32
  0
VERTEX
  8
E20LXLIFT
 62
1
 10
-238.019
 20
-873.872
 30
3271.300
 70
    32
  0
VERTEX
  8
E20LXLIFT
 62
1
 10
-241.239
 20
-883.265
 30
3271.300
 70
    32
  0
VERTEX
  8
E20LXLIFT
 62
1
 10
-240.245
 20
-884.650
 30
3271.300
 70
    32
  0
VERTEX
  8
E20LXLIFT
 62
1
 10
-225.571
 20
-890.121
 30
3271.300
 70
    32
  0
VERTEX
  8
E20LXLIFT
 62
1
 10
-216.999
 20
-891.838
 30
3271.300
 70
    32
  0
VERTEX
  8
E20LXLIFT
 62
1
 10
-207.028
 20
-898.060
 30
3271.300
 70
    32
  0
VERTEX
  8
E20LXLIFT
 62
1
 10
-200.474
 20
-904.636
 30
3271.300
 70
    32
  0
VERTEX
  8
E20LXLIFT
 62
1
 10
-190.104
 20
-912.145
 30
3271.300
 70
    32
  0
VERTEX
  8
E20LXLIFT
 62
1
 10
-183.311
 20
-915.402
 30
3271.300
 70
    32
  0
VERTEX
  8
E20LXLIFT
 62
1
 10
-166.650
 20
-913.413
 30
3271.300
 70
    32
  0
VERTEX
  8
E20LXLIFT
 62
1
 10
-164.827
 20
-909.743
 30
3271.300
 70
    32
  0
VERTEX
  8
E20LXLIFT
 62
1
 10
-154.180
 20
-899.741
 30
3271.300
 70
    32
  0
VERTEX
  8
E20LXLIFT
 62
1
 10
-152.384
 20
-895.304
 30
3271.300
 70
    32
  0
VERTEX
  8
E20LXLIFT
 62
1
 10
-140.948
 20
-884.211
 30
3271.300
 70
    32
  0
VERTEX
  8
E20LXLIFT
 62
1
 10
-143.735
 20
-878.866
 30
3271.300
 70
    32
  0
VERTEX
  8
E20LXLIFT
 62
1
 10
-160.849
 20
-867.803
 30
3271.300
 70
    32
  0
VERTEX
  8
E20LXLIFT
 62
1
 10
-167.945
 20
-862.665
 30
3271.300
 70
    32
  0
VERTEX
  8
E20LXLIFT
 62
1
 10
-180.586
 20
-857.835
 30
3271.300
 70
    32
  0
VERTEX
  8
E20LXLIFT
 62
1
 10
-184.078
 20
-857.718
 30
3271.300
 70
    32
  0
VERTEX
  8
E20LXLIFT
 62
1
 10
-195.460
 20
-851.721
 30
3271.300
 70
    32
  0
VERTEX
  8
E20LXLIFT
 62
1
 10
-208.645
 20
-856.725
 30
3271.300
 70
    32
  0
VERTEX
  8
E20LXLIFT
 62
1
 10
-215.122
 20
-860.849
 30
3271.300
 70
    32
  0
VERTEX
  8
E20LXLIFT
 62
1
 10
-218.853
 20
-864.052
 30
3271.300
 70
    32
  0
VERTEX
  8
E20LXLIFT
 62
1
 10
-219.292
 20
-866.727
 30
3271.300
 70
    32
  0
VERTEX
  8
E20LXLIFT
 62
1
 10
-220.379
 20
-867.770
 30
3271.300
 70
    32
  0
VERTEX
  8
E20LXLIFT
 62
1
 10
-222.687
 20
-866.016
 30
3271.300
 70
    32
  0
SEQEND
  8
E20LXLIFT
  0
POLYLINE
  8
E20LXLIFT
 62
1
 66
     1
 70
     9
  0
VERTEX
  8
E20LXLIFT
 62
1
 10
-238.332
 20
-869.160
 30
3280.690
 70
    32
  0
VERTEX
  8
E20LXLIFT
 62
1
 10
-239.952
 20
-872.240
 30
3280.690
 70
    32
  0
VERTEX
  8
E20LXLIFT
 62
1
 10
-243.967
 20
-876.319
 30
3280.690
 70
    32
  0
VERTEX
  8
E20LXLIFT
 62
1
 10
-243.767
 20
-883.602
 30
3280.690
 70
    32
  0
VERTEX
  8
E20LXLIFT
 62
1
 10
-234.488
 20
-886.525
 30
3280.690
 70
    32
  0
VERTEX
  8
E20LXLIFT
 62
1
 10
-226.359
 20
-890.512
 30
3280.690
 70
    32
  0
VERTEX
  8
E20LXLIFT
 62
1
 10
-220.297
 20
-890.953
 30
3280.690
 70
    32
  0
VERTEX
  8
E20LXLIFT
 62
1
 10
-214.883
 20
-894.494
 30
3280.690
 70
    32
  0
VERTEX
  8
E20LXLIFT
 62
1
 10
-211.524
 20
-899.509
 30
3280.690
 70
    32
  0
VERTEX
  8
E20LXLIFT
 62
1
 10
-203.938
 20
-903.407
 30
3280.690
 70
    32
  0
VERTEX
  8
E20LXLIFT
 62
1
 10
-200.667
 20
-908.965
 30
3280.690
 70
    32
  0
VERTEX
  8
E20LXLIFT
 62
1
 10
-186.007
 20
-911.380
 30
3280.690
 70
    32
  0
VERTEX
  8
E20LXLIFT
 62
1
 10
-181.810
 20
-907.888
 30
3280.690
 70
    32
  0
VERTEX
  8
E20LXLIFT
 62
1
 10
-170.513
 20
-903.614
 30
3280.690
 70
    32
  0
VERTEX
  8
E20LXLIFT
 62
1
 10
-166.746
 20
-900.191
 30
3280.690
 70
    32
  0
VERTEX
  8
E20LXLIFT
 62
1
 10
-167.382
 20
-898.971
 30
3280.690
 70
    32
  0
VERTEX
  8
E20LXLIFT
 62
1
 10
-159.713
 20
-891.311
 30
3280.690
 70
    32
  0
VERTEX
  8
E20LXLIFT
 62
1
 10
-152.324
 20
-880.259
 30
3280.690
 70
    32
  0
VERTEX
  8
E20LXLIFT
 62
1
 10
-153.872
 20
-876.100
 30
3280.690
 70
    32
  0
VERTEX
  8
E20LXLIFT
 62
1
 10
-157.001
 20
-873.075
 30
3280.690
 70
    32
  0
VERTEX
  8
E20LXLIFT
 62
1
 10
-163.200
 20
-871.775
 30
3280.690
 70
    32
  0
VERTEX
  8
E20LXLIFT
 62
1
 10
-166.949
 20
-864.883
 30
3280.690
 70
    32
  0
VERTEX
  8
E20LXLIFT
 62
1
 10
-194.456
 20
-853.242
 30
3280.690
 70
    32
  0
VERTEX
  8
E20LXLIFT
 62
1
 10
-200.473
 20
-852.530
 30
3280.690
 70
    32
  0
VERTEX
  8
E20LXLIFT
 62
1
 10
-203.272
 20
-854.300
 30
3280.690
 70
    32
  0
VERTEX
  8
E20LXLIFT
 62
1
 10
-220.290
 20
-858.608
 30
3280.690
 70
    32
  0
VERTEX
  8
E20LXLIFT
 62
1
 10
-234.671
 20
-867.454
 30
3280.690
 70
    32
  0
SEQEND
  8
E20LXLIFT
  0
POLYLINE
  8
E20LXLIFT
 62
1
 66
     1
 70
     9
  0
VERTEX
  8
E20LXLIFT
 62
1
 10
-241.249
 20
-869.098
 30
3280.690
 70
    32
  0
VERTEX
  8
E20LXLIFT
 62
1
 10
-241.966
 20
-871.769
 30
3280.690
 70
    32
  0
VERTEX
  8
E20LXLIFT
 62
1
 10
-247.516
 20
-876.710
 30
3280.690
 70
    32
  0
VERTEX
  8
E20LXLIFT
 62
1
 10
-246.689
 20
-881.866
 30
3280.690
 70
    32
  0
VERTEX
  8
E20LXLIFT
 62
1
 10
-226.922
 20
-891.396
 30
3280.690
 70
    32
  0
VERTEX
  8
E20LXLIFT
 62
1
 10
-224.187
 20
-890.870
 30
3280.690
 70
    32
  0
VERTEX
  8
E20LXLIFT
 62
1
 10
-215.778
 20
-898.250
 30
3280.690
 70
    32
  0
VERTEX
  8
E20LXLIFT
 62
1
 10
-207.187
 20
-906.218
 30
3280.690
 70
    32
  0
VERTEX
  8
E20LXLIFT
 62
1
 10
-197.256
 20
-907.715
 30
3280.690
 70
    32
  0
VERTEX
  8
E20LXLIFT
 62
1
 10
-192.940
 20
-906.055
 30
3280.690
 70
    32
  0
VERTEX
  8
E20LXLIFT
 62
1
 10
-188.995
 20
-901.546
 30
3280.690
 70
    32
  0
VERTEX
  8
E20LXLIFT
 62
1
 10
-177.018
 20
-898.221
 30
3280.690
 70
    32
  0
VERTEX
  8
E20LXLIFT
 62
1
 10
-161.955
 20
-881.182
 30
3280.690
 70
    32
  0
VERTEX
  8
E20LXLIFT
 62
1
 10
-163.221
 20
-872.748
 30
3280.690
 70
    32
  0
VERTEX
  8
E20LXLIFT
 62
1
 10
-168.461
 20
-866.447
 30
3280.690
 70
    32
  0
VERTEX
  8
E20LXLIFT
 62
1
 10
-185.897
 20
-857.162
 30
3280.690
 70
    32
  0
VERTEX
  8
E20LXLIFT
 62
1
 10
-196.332
 20
-853.631
 30
3280.690
 70
    32
  0
VERTEX
  8
E20LXLIFT
 62
1
 10
-209.399
 20
-855.103
 30
3280.690
 70
    32
  0
VERTEX
  8
E20LXLIFT
 62
1
 10
-225.221
 20
-858.074
 30
3280.690
 70
    32
  0
VERTEX
  8
E20LXLIFT
 62
1
 10
-229.102
 20
-861.339
 30
3280.690
 70
    32
  0
VERTEX
  8
E20LXLIFT
 62
1
 10
-231.837
 20
-861.865
 30
3280.690
 70
    32
  0
VERTEX
  8
E20LXLIFT
 62
1
 10
-237.285
 20
-866.253
 30
3280.690
 70
    32
  0
SEQEND
  8
E20LXLIFT
  0
POLYLINE
  8
E20LXLIFT
 62
1
 66
     1
 70
     9
  0
VERTEX
  8
E20LXLIFT
 62
1
 10
-250.657
 20
-874.123
 30
3299.800
 70
    32
  0
VERTEX
  8
E20LXLIFT
 62
1
 10
-250.435
 20
-880.517
 30
3299.800
 70
    32
  0
VERTEX
  8
E20LXLIFT
 62
1
 10
-238.706
 20
-886.517
 30
3299.800
 70
    32
  0
VERTEX
  8
E20LXLIFT
 62
1
 10
-234.439
 20
-886.076
 30
3299.800
 70
    32
  0
VERTEX
  8
E20LXLIFT
 62
1
 10
-225.807
 20
-890.803
 30
3299.800
 70
    32
  0
VERTEX
  8
E20LXLIFT
 62
1
 10
-217.281
 20
-902.379
 30
3299.800
 70
    32
  0
VERTEX
  8
E20LXLIFT
 62
1
 10
-206.181
 20
-904.461
 30
3299.800
 70
    32
  0
VERTEX
  8
E20LXLIFT
 62
1
 10
-192.950
 20
-901.300
 30
3299.800
 70
    32
  0
VERTEX
  8
E20LXLIFT
 62
1
 10
-193.903
 20
-899.363
 30
3299.800
 70
    32
  0
VERTEX
  8
E20LXLIFT
 62
1
 10
-181.932
 20
-895.359
 30
3299.800
 70
    32
  0
VERTEX
  8
E20LXLIFT
 62
1
 10
-179.379
 20
-893.745
 30
3299.800
 70
    32
  0
VERTEX
  8
E20LXLIFT
 62
1
 10
-173.586
 20
-893.301
 30
3299.800
 70
    32
  0
VERTEX
  8
E20LXLIFT
 62
1
 10
-172.070
 20
-873.208
 30
3299.800
 70
    32
  0
VERTEX
  8
E20LXLIFT
 62
1
 10
-176.650
 20
-864.698
 30
3299.800
 70
    32
  0
VERTEX
  8
E20LXLIFT
 62
1
 10
-187.163
 20
-858.263
 30
3299.800
 70
    32
  0
VERTEX
  8
E20LXLIFT
 62
1
 10
-194.239
 20
-857.224
 30
3299.800
 70
    32
  0
VERTEX
  8
E20LXLIFT
 62
1
 10
-201.610
 20
-853.340
 30
3299.800
 70
    32
  0
VERTEX
  8
E20LXLIFT
 62
1
 10
-220.657
 20
-856.306
 30
3299.800
 70
    32
  0
VERTEX
  8
E20LXLIFT
 62
1
 10
-233.781
 20
-861.137
 30
3299.800
 70
    32
  0
VERTEX
  8
E20LXLIFT
 62
1
 10
-235.987
 20
-861.410
 30
3299.800
 70
    32
  0
VERTEX
  8
E20LXLIFT
 62
1
 10
-240.147
 20
-863.522
 30
3299.800
 70
    32
  0
VERTEX
  8
E20LXLIFT
 62
1
 10
-242.530
 20
-867.198
 30
3299.800
 70
    32
  0
VERTEX
  8
E20LXLIFT
 62
1
 10
-245.182
 20
-870.194
 30
3299.800
 70
    32
  0
VERTEX
  8
E20LXLIFT
 62
1
 10
-246.010
 20
-870.991
 30
3299.800
 70
    32
  0
SEQEND
  8
E20LXLIFT
  0
POLYLINE
  8
E20LXLIFT
 62
1
 66
     1
 70
     9
  0
VERTEX
  8
E20LXLIFT
 62
1
 10
-247.984
 20
-887.278
 30
3309.350
 70
    32
  0
VERTEX
  8
E20LXLIFT
 62
1
 10
-243.217
 20
-888.444
 30
3309.350
 70
    32
  0
VERTEX
  8
E20LXLIFT
 62
1
 10
-241.160
 20
-886.749
 30
3309.350
 70
    32
  0
VERTEX
  8
E20LXLIFT
 62
1
 10
-238.355
 20
-886.702
 30
3309.350
 70
    32
  0
VERTEX
  8
E20LXLIFT
 62
1
 10
-236.884
 20
-889.360
 30
3309.350
 70
    32
  0
VERTEX
  8
E20LXLIFT
 62
1
 10
-224.586
 20
-900.413
 30
3309.350
 70
    32
  0
VERTEX
  8
E20LXLIFT
 62
1
 10
-215.020
 20
-899.445
 30
3309.350
 70
    32
  0
VERTEX
  8
E20LXLIFT
 62
1
 10
-210.889
 20
-902.160
 30
3309.350
 70
    32
  0
VERTEX
  8
E20LXLIFT
 62
1
 10
-209.178
 20
-901.806
 30
3309.350
 70
    32
  0
VERTEX
  8
E20LXLIFT
 62
1
 10
-202.532
 20
-896.162
 30
3309.350
 70
    32
  0
VERTEX
  8
E20LXLIFT
 62
1
 10
-194.370
 20
-894.455
 30
3309.350
 70
    32
  0
VERTEX
  8
E20LXLIFT
 62
1
 10
-192.748
 20
-891.544
 30
3309.350
 70
    32
  0
VERTEX
  8
E20LXLIFT
 62
1
 10
-186.319
 20
-889.551
 30
3309.350
 70
    32
  0
VERTEX
  8
E20LXLIFT
 62
1
 10
-186.457
 20
-884.188
 30
3309.350
 70
    32
  0
VERTEX
  8
E20LXLIFT
 62
1
 10
-181.831
 20
-878.466
 30
3309.350
 70
    32
  0
VERTEX
  8
E20LXLIFT
 62
1
 10
-183.995
 20
-862.980
 30
3309.350
 70
    32
  0
VERTEX
  8
E20LXLIFT
 62
1
 10
-194.449
 20
-855.410
 30
3309.350
 70
    32
  0
VERTEX
  8
E20LXLIFT
 62
1
 10
-197.047
 20
-855.745
 30
3309.350
 70
    32
  0
VERTEX
  8
E20LXLIFT
 62
1
 10
-206.336
 20
-851.926
 30
3309.350
 70
    32
  0
VERTEX
  8
E20LXLIFT
 62
1
 10
-218.001
 20
-854.836
 30
3309.350
 70
    32
  0
VERTEX
  8
E20LXLIFT
 62
1
 10
-220.580
 20
-854.284
 30
3309.350
 70
    32
  0
VERTEX
  8
E20LXLIFT
 62
1
 10
-232.474
 20
-856.267
 30
3309.350
 70
    32
  0
VERTEX
  8
E20LXLIFT
 62
1
 10
-247.355
 20
-867.166
 30
3309.350
 70
    32
  0
VERTEX
  8
E20LXLIFT
 62
1
 10
-250.259
 20
-868.595
 30
3309.350
 70
    32
  0
VERTEX
  8
E20LXLIFT
 62
1
 10
-250.392
 20
-873.277
 30
3309.350
 70
    32
  0
SEQEND
  8
E20LXLIFT
  0
POLYLINE
  8
E20LXLIFT
 62
8
 66
     1
 70
     9
  0
VERTEX
  8
E20LXLIFT
 62
8
 10
-362.883
 20
-868.080
 30
3284.309
 70
    32
  0
VERTEX
  8
E20LXLIFT
 62
8
 10
-360.885
 20
-881.340
 30
3282.000
 70
    32
  0
VERTEX
  8
E20LXLIFT
 62
8
 10
-361.851
 20
-883.296
 30
3282.000
 70
    32
  0
VERTEX
  8
E20LXLIFT
 62
8
 10
-361.707
 20
-889.816
 30
3282.000
 70
    32
  0
VERTEX
  8
E20LXLIFT
 62
8
 10
-360.275
 20
-894.470
 30
3282.000
 70
    32
  0
VERTEX
  8
E20LXLIFT
 62
8
 10
-349.276
 20
-901.525
 30
3282.000
 70
    32
  0
VERTEX
  8
E20LXLIFT
 62
8
 10
-338.641
 20
-923.862
 30
3282.000
 70
    32
  0
VERTEX
  8
E20LXLIFT
 62
8
 10
-330.577
 20
-948.651
 30
3282.000
 70
    32
  0
VERTEX
  8
E20LXLIFT
 62
8
 10
-332.649
 20
-951.590
 30
3282.000
 70
    32
  0
VERTEX
  8
E20LXLIFT
 62
8
 10
-329.439
 20
-967.381
 30
3282.000
 70
    32
  0
VERTEX
  8
E20LXLIFT
 62
8
 10
-333.829
 20
-969.846
 30
3282.000
 70
    32
  0
VERTEX
  8
E20LXLIFT
 62
8
 10
-337.160
 20
-970.874
 30
3282.000
 70
    32
  0
VERTEX
  8
E20LXLIFT
 62
8
 10
-340.167
 20
-976.734
 30
3282.000
 70
    32
  0
VERTEX
  8
E20LXLIFT
 62
8
 10
-344.464
 20
-985.819
 30
3282.000
 70
    32
  0
VERTEX
  8
E20LXLIFT
 62
8
 10
-349.572
 20
-986.327
 30
3282.000
 70
    32
  0
VERTEX
  8
E20LXLIFT
 62
8
 10
-354.897
 20
-981.748
 30
3282.000
 70
    32
  0
VERTEX
  8
E20LXLIFT
 62
8
 10
-353.685
 20
-977.945
 30
3282.000
 70
    32
  0
VERTEX
  8
E20LXLIFT
 62
8
 10
-348.470
 20
-969.473
 30
3282.000
 70
    32
  0
VERTEX
  8
E20LXLIFT
 62
8
 10
-345.440
 20
-962.342
 30
3282.000
 70
    32
  0
VERTEX
  8
E20LXLIFT
 62
8
 10
-343.852
 20
-955.377
 30
3282.000
 70
    32
  0
VERTEX
  8
E20LXLIFT
 62
8
 10
-344.753
 20
-950.946
 30
3282.000
 70
    32
  0
VERTEX
  8
E20LXLIFT
 62
8
 10
-346.425
 20
-943.594
 30
3282.000
 70
    32
  0
VERTEX
  8
E20LXLIFT
 62
8
 10
-348.648
 20
-943.346
 30
3282.000
 70
    32
  0
VERTEX
  8
E20LXLIFT
 62
8
 10
-356.921
 20
-921.761
 30
3282.000
 70
    32
  0
VERTEX
  8
E20LXLIFT
 62
8
 10
-365.752
 20
-908.918
 30
3282.000
 70
    32
  0
VERTEX
  8
E20LXLIFT
 62
8
 10
-366.927
 20
-904.175
 30
3282.000
 70
    32
  0
VERTEX
  8
E20LXLIFT
 62
8
 10
-370.228
 20
-896.016
 30
3277.792
 70
    32
  0
SEQEND
  8
E20LXLIFT
  0
POLYLINE
  8
E20LXLIFT
 62
8
 66
     1
 70
     9
  0
VERTEX
  8
E20LXLIFT
 62
8
 10
-356.913
 20
-1027.757
 30
3270.500
 70
    32
  0
VERTEX
  8
E20LXLIFT
 62
8
 10
-370.169
 20
-1021.856
 30
3271.000
 70
    32
  0
VERTEX
  8
E20LXLIFT
 62
8
 10
-378.913
 20
-1013.313
 30
3271.000
 70
    32
  0
VERTEX
  8
E20LXLIFT
 62
8
 10
-382.031
 20
-998.353
 30
3271.500
 70
    32
  0
VERTEX
  8
E20LXLIFT
 62
8
 10
-385.431
 20
-979.788
 30
3272.000
 70
    32
  0
VERTEX
  8
E20LXLIFT
 62
8
 10
-385.848
 20
-965.663
 30
3272.000
 70
    32
  0
VERTEX
  8
E20LXLIFT
 62
8
 10
-400.744
 20
-963.925
 30
3272.000
 70
    32
  0
VERTEX
  8
E20LXLIFT
 62
8
 10
-410.712
 20
-945.173
 30
3272.000
 70
    32
  0
VERTEX
  8
E20LXLIFT
 62
8
 10
-421.252
 20
-950.510
 30
3272.000
 70
    32
  0
VERTEX
  8
E20LXLIFT
 62
8
 10
-413.788
 20
-968.606
 30
3272.000
 70
    32
  0
VERTEX
  8
E20LXLIFT
 62
8
 10
-408.089
 20
-985.115
 30
3272.000
 70
    32
  0
VERTEX
  8
E20LXLIFT
 62
8
 10
-401.278
 20
-1001.705
 30
3271.500
 70
    32
  0
VERTEX
  8
E20LXLIFT
 62
8
 10
-387.118
 20
-1024.814
 30
3271.000
 70
    32
  0
VERTEX
  8
E20LXLIFT
 62
8
 10
-375.202
 20
-1032.401
 30
3271.000
 70
    32
  0
VERTEX
  8
E20LXLIFT
 62
8
 10
-357.807
 20
-1039.757
 30
3270.500
 70
    32
  0
SEQEND
  8
E20LXLIFT
  0
POLYLINE
  8
E20LXLIFT
 62
8
 66
     1
 70
     9
  0
VERTEX
  8
E20LXLIFT
 62
8
 10
-359.110
 20
-979.452
 30
3270.457
 70
    32
  0
VERTEX
  8
E20LXLIFT
 62
8
 10
-352.701
 20
-971.475
 30
3265.176
 70
    32
  0
VERTEX
  8
E20LXLIFT
 62
8
 10
-346.414
 20
-963.801
 30
3263.227
 70
    32
  0
VERTEX
  8
E20LXLIFT
 62
8
 10
-344.641
 20
-954.868
 30
3261.095
 70
    32
  0
VERTEX
  8
E20LXLIFT
 62
8
 10
-344.397
 20
-953.638
 30
3260.801
 70
    32
  0
VERTEX
  8
E20LXLIFT
 62
8
 10
-345.178
 20
-950.466
 30
3260.079
 70
    32
  0
VERTEX
  8
E20LXLIFT
 62
8
 10
-346.026
 20
-947.141
 30
3259.802
 70
    32
  0
VERTEX
  8
E20LXLIFT
 62
8
 10
-349.205
 20
-937.310
 30
3259.001
 70
    32
  0
VERTEX
  8
E20LXLIFT
 62
8
 10
-352.329
 20
-928.915
 30
3258.328
 70
    32
  0
VERTEX
  8
E20LXLIFT
 62
8
 10
-356.229
 20
-922.086
 30
3257.819
 70
    32
  0
VERTEX
  8
E20LXLIFT
 62
8
 10
-365.242
 20
-906.588
 30
3255.010
 70
    32
  0
VERTEX
  8
E20LXLIFT
 62
8
 10
-367.551
 20
-903.413
 30
3254.405
 70
    32
  0
VERTEX
  8
E20LXLIFT
 62
8
 10
-363.402
 20
-898.975
 30
3254.037
 70
    32
  0
VERTEX
  8
E20LXLIFT
 62
8
 10
-362.826
 20
-898.355
 30
3254.000
 70
    32
  0
VERTEX
  8
E20LXLIFT
 62
8
 10
-359.897
 20
-894.721
 30
3254.000
 70
    32
  0
VERTEX
  8
E20LXLIFT
 62
8
 10
-337.768
 20
-919.463
 30
3257.062
 70
    32
  0
VERTEX
  8
E20LXLIFT
 62
8
 10
-332.422
 20
-936.388
 30
3258.444
 70
    32
  0
VERTEX
  8
E20LXLIFT
 62
8
 10
-333.387
 20
-947.952
 30
3259.519
 70
    32
  0
VERTEX
  8
E20LXLIFT
 62
8
 10
-333.009
 20
-950.173
 30
3259.710
 70
    32
  0
VERTEX
  8
E20LXLIFT
 62
8
 10
-332.770
 20
-951.294
 30
3259.966
 70
    32
  0
VERTEX
  8
E20LXLIFT
 62
8
 10
-333.408
 20
-961.015
 30
3262.255
 70
    32
  0
VERTEX
  8
E20LXLIFT
 62
8
 10
-334.067
 20
-966.118
 30
3263.464
 70
    32
  0
VERTEX
  8
E20LXLIFT
 62
8
 10
-334.255
 20
-967.577
 30
3263.809
 70
    32
  0
VERTEX
  8
E20LXLIFT
 62
8
 10
-338.469
 20
-971.056
 30
3264.727
 70
    32
  0
VERTEX
  8
E20LXLIFT
 62
8
 10
-340.828
 20
-978.638
 30
3266.558
 70
    32
  0
VERTEX
  8
E20LXLIFT
 62
8
 10
-342.868
 20
-981.420
 30
3267.259
 70
    32
  0
VERTEX
  8
E20LXLIFT
 62
8
 10
-342.885
 20
-981.442
 30
3267.264
 70
    32
  0
VERTEX
  8
E20LXLIFT
 62
8
 10
-348.512
 20
-989.251
 30
3270.707
 70
    32
  0
VERTEX
  8
E20LXLIFT
 62
8
 10
-350.712
 20
-993.210
 30
3270.921
 70
    32
  0
SEQEND
  8
E20LXLIFT
  0
POLYLINE
  8
E20LXLIFT
 62
8
 66
     1
 70
     9
  0
VERTEX
  8
E20LXLIFT
 62
8
 10
-376.749
 20
-875.714
 30
3283.000
 70
    32
  0
VERTEX
  8
E20LXLIFT
 62
8
 10
-379.008
 20
-867.704
 30
3283.000
 70
    32
  0
VERTEX
  8
E20LXLIFT
 62
8
 10
-380.928
 20
-862.021
 30
3283.000
 70
    32
  0
VERTEX
  8
E20LXLIFT
 62
8
 10
-387.576
 20
-851.289
 30
3283.000
 70
    32
  0
VERTEX
  8
E20LXLIFT
 62
8
 10
-397.484
 20
-834.456
 30
3283.000
 70
    32
  0
VERTEX
  8
E20LXLIFT
 62
8
 10
-390.184
 20
-829.172
 30
3283.000
 70
    32
  0
VERTEX
  8
E20LXLIFT
 62
8
 10
-382.938
 20
-841.464
 30
3283.000
 70
    32
  0
VERTEX
  8
E20LXLIFT
 62
8
 10
-380.445
 20
-847.533
 30
3283.000
 70
    32
  0
VERTEX
  8
E20LXLIFT
 62
8
 10
-375.327
 20
-855.070
 30
3283.000
 70
    32
  0
VERTEX
  8
E20LXLIFT
 62
8
 10
-371.844
 20
-857.277
 30
3283.000
 70
    32
  0
SEQEND
  8
E20LXLIFT
  0
POLYLINE
  8
E20LXLIFT
 62
8
 66
     1
 70
     9
  0
VERTEX
  8
E20LXLIFT
 62
8
 10
-383.593
 20
-870.617
 30
3315.000
 70
    32
  0
VERTEX
  8
E20LXLIFT
 62
8
 10
-407.406
 20
-879.957
 30
3315.000
 70
    32
  0
VERTEX
  8
E20LXLIFT
 62
8
 10
-408.136
 20
-883.314
 30
3315.000
 70
    32
  0
VERTEX
  8
E20LXLIFT
 62
8
 10
-414.710
 20
-887.984
 30
3315.000
 70
    32
  0
VERTEX
  8
E20LXLIFT
 62
8
 10
-426.543
 20
-906.518
 30
3315.000
 70
    32
  0
VERTEX
  8
E20LXLIFT
 62
8
 10
-426.105
 20
-916.296
 30
3315.000
 70
    32
  0
VERTEX
  8
E20LXLIFT
 62
8
 10
-423.768
 20
-914.982
 30
3315.000
 70
    32
  0
VERTEX
  8
E20LXLIFT
 62
8
 10
-415.441
 20
-918.193
 30
3315.000
 70
    32
  0
VERTEX
  8
E20LXLIFT
 62
8
 10
-408.136
 20
-907.248
 30
3315.000
 70
    32
  0
VERTEX
  8
E20LXLIFT
 62
8
 10
-406.529
 20
-897.178
 30
3315.000
 70
    32
  0
VERTEX
  8
E20LXLIFT
 62
8
 10
-398.348
 20
-889.735
 30
3315.000
 70
    32
  0
VERTEX
  8
E20LXLIFT
 62
8
 10
-385.054
 20
-884.335
 30
3315.000
 70
    32
  0
VERTEX
  8
E20LXLIFT
 62
8
 10
-380.087
 20
-888.130
 30
3315.000
 70
    32
  0
VERTEX
  8
E20LXLIFT
 62
8
 10
-379.795
 20
-887.108
 30
3315.000
 70
    32
  0
VERTEX
  8
E20LXLIFT
 62
8
 10
-383.008
 20
-871.930
 30
3315.000
 70
    32
  0
SEQEND
  8
E20LXLIFT
  0
POLYLINE
  8
E20LXLIFT
 62
8
 66
     1
 70
     9
  0
VERTEX
  8
E20LXLIFT
 62
8
 10
-351.599
 20
-870.179
 30
3312.000
 70
    32
  0
VERTEX
  8
E20LXLIFT
 62
8
 10
-358.173
 20
-865.947
 30
3312.000
 70
    32
  0
VERTEX
  8
E20LXLIFT
 62
8
 10
-366.646
 20
-868.720
 30
3312.000
 70
    32
  0
VERTEX
  8
E20LXLIFT
 62
8
 10
-365.039
 20
-870.471
 30
3312.000
 70
    32
  0
VERTEX
  8
E20LXLIFT
 62
8
 10
-361.095
 20
-884.919
 30
3312.000
 70
    32
  0
VERTEX
  8
E20LXLIFT
 62
8
 10
-356.274
 20
-882.438
 30
3312.000
 70
    32
  0
SEQEND
  8
E20LXLIFT
  0
POLYLINE
  8
E20LXLIFT
 62
8
 66
     1
 70
     9
  0
VERTEX
  8
E20LXLIFT
 62
8
 10
-324.187
 20
-948.116
 30
3317.755
 70
    32
  0
VERTEX
  8
E20LXLIFT
 62
8
 10
-333.967
 20
-952.214
 30
3322.407
 70
    32
  0
VERTEX
  8
E20LXLIFT
 62
8
 10
-341.065
 20
-955.189
 30
3324.339
 70
    32
  0
VERTEX
  8
E20LXLIFT
 62
8
 10
-343.563
 20
-956.236
 30
3324.463
 70
    32
  0
VERTEX
  8
E20LXLIFT
 62
8
 10
-351.790
 20
-960.875
 30
3324.000
 70
    32
  0
VERTEX
  8
E20LXLIFT
 62
8
 10
-336.496
 20
-973.545
 30
3324.000
 70
    32
  0
VERTEX
  8
E20LXLIFT
 62
8
 10
-347.989
 20
-982.239
 30
3324.000
 70
    32
  0
VERTEX
  8
E20LXLIFT
 62
8
 10
-360.149
 20
-968.501
 30
3325.000
 70
    32
  0
VERTEX
  8
E20LXLIFT
 62
8
 10
-368.783
 20
-973.024
 30
3325.500
 70
    32
  0
VERTEX
  8
E20LXLIFT
 62
8
 10
-364.657
 20
-980.520
 30
3326.000
 70
    32
  0
VERTEX
  8
E20LXLIFT
 62
8
 10
-372.865
 20
-984.819
 30
3326.000
 70
    32
  0
VERTEX
  8
E20LXLIFT
 62
8
 10
-379.289
 20
-976.379
 30
3326.500
 70
    32
  0
VERTEX
  8
E20LXLIFT
 62
8
 10
-383.207
 20
-978.678
 30
3327.274
 70
    32
  0
VERTEX
  8
E20LXLIFT
 62
8
 10
-383.728
 20
-980.341
 30
3327.500
 70
    32
  0
VERTEX
  8
E20LXLIFT
 62
8
 10
-385.228
 20
-987.649
 30
3327.500
 70
    32
  0
VERTEX
  8
E20LXLIFT
 62
8
 10
-376.667
 20
-990.993
 30
3327.700
 70
    32
  0
VERTEX
  8
E20LXLIFT
 62
8
 10
-377.479
 20
-996.234
 30
3327.800
 70
    32
  0
VERTEX
  8
E20LXLIFT
 62
8
 10
-373.584
 20
-1002.439
 30
3328.000
 70
    32
  0
VERTEX
  8
E20LXLIFT
 62
8
 10
-368.219
 20
-1009.186
 30
3329.000
 70
    32
  0
VERTEX
  8
E20LXLIFT
 62
8
 10
-368.163
 20
-1013.494
 30
3329.400
 70
    32
  0
VERTEX
  8
E20LXLIFT
 62
8
 10
-363.798
 20
-1019.306
 30
3330.000
 70
    32
  0
VERTEX
  8
E20LXLIFT
 62
8
 10
-379.958
 20
-1029.463
 30
3330.000
 70
    32
  0
VERTEX
  8
E20LXLIFT
 62
8
 10
-390.277
 20
-1013.874
 30
3328.200
 70
    32
  0
VERTEX
  8
E20LXLIFT
 62
8
 10
-393.461
 20
-1012.214
 30
3328.000
 70
    32
  0
VERTEX
  8
E20LXLIFT
 62
8
 10
-399.027
 20
-1002.740
 30
3327.800
 70
    32
  0
VERTEX
  8
E20LXLIFT
 62
8
 10
-413.600
 20
-980.883
 30
3327.500
 70
    32
  0
VERTEX
  8
E20LXLIFT
 62
8
 10
-417.023
 20
-975.971
 30
3327.500
 70
    32
  0
VERTEX
  8
E20LXLIFT
 62
8
 10
-426.796
 20
-970.111
 30
3327.500
 70
    32
  0
VERTEX
  8
E20LXLIFT
 62
8
 10
-435.340
 20
-961.671
 30
3327.500
 70
    32
  0
VERTEX
  8
E20LXLIFT
 62
8
 10
-433.195
 20
-955.741
 30
3327.500
 70
    32
  0
VERTEX
  8
E20LXLIFT
 62
8
 10
-448.040
 20
-929.405
 30
3327.500
 70
    32
  0
VERTEX
  8
E20LXLIFT
 62
8
 10
-423.613
 20
-914.862
 30
3327.500
 70
    32
  0
VERTEX
  8
E20LXLIFT
 62
8
 10
-415.353
 20
-918.146
 30
3327.500
 70
    32
  0
VERTEX
  8
E20LXLIFT
 62
8
 10
-409.704
 20
-935.272
 30
3327.500
 70
    32
  0
VERTEX
  8
E20LXLIFT
 62
8
 10
-410.212
 20
-947.682
 30
3327.500
 70
    32
  0
VERTEX
  8
E20LXLIFT
 62
8
 10
-399.010
 20
-957.472
 30
3327.500
 70
    32
  0
VERTEX
  8
E20LXLIFT
 62
8
 10
-394.103
 20
-967.497
 30
3327.000
 70
    32
  0
VERTEX
  8
E20LXLIFT
 62
8
 10
-385.743
 20
-965.101
 30
3326.425
 70
    32
  0
VERTEX
  8
E20LXLIFT
 62
8
 10
-384.945
 20
-964.482
 30
3326.425
 70
    32
  0
VERTEX
  8
E20LXLIFT
 62
8
 10
-384.685
 20
-961.448
 30
3326.000
 70
    32
  0
VERTEX
  8
E20LXLIFT
 62
8
 10
-389.090
 20
-959.208
 30
3326.000
 70
    32
  0
VERTEX
  8
E20LXLIFT
 62
8
 10
-389.800
 20
-950.297
 30
3326.000
 70
    32
  0
VERTEX
  8
E20LXLIFT
 62
8
 10
-393.402
 20
-942.338
 30
3326.000
 70
    32
  0
VERTEX
  8
E20LXLIFT
 62
8
 10
-398.024
 20
-936.068
 30
3326.000
 70
    32
  0
VERTEX
  8
E20LXLIFT
 62
8
 10
-402.737
 20
-934.131
 30
3326.000
 70
    32
  0
VERTEX
  8
E20LXLIFT
 62
8
 10
-411.095
 20
-930.834
 30
3327.500
 70
    32
  0
VERTEX
  8
E20LXLIFT
 62
8
 10
-415.243
 20
-918.146
 30
3326.000
 70
    32
  0
VERTEX
  8
E20LXLIFT
 62
8
 10
-411.434
 20
-917.141
 30
3326.000
 70
    32
  0
VERTEX
  8
E20LXLIFT
 62
8
 10
-408.528
 20
-914.429
 30
3326.000
 70
    32
  0
VERTEX
  8
E20LXLIFT
 62
8
 10
-400.987
 20
-919.335
 30
3326.000
 70
    32
  0
VERTEX
  8
E20LXLIFT
 62
8
 10
-388.514
 20
-918.189
 30
3326.000
 70
    32
  0
VERTEX
  8
E20LXLIFT
 62
8
 10
-388.260
 20
-918.591
 30
3326.000
 70
    32
  0
VERTEX
  8
E20LXLIFT
 62
8
 10
-382.100
 20
-927.270
 30
3326.000
 70
    32
  0
VERTEX
  8
E20LXLIFT
 62
8
 10
-374.062
 20
-934.206
 30
3326.000
 70
    32
  0
VERTEX
  8
E20LXLIFT
 62
8
 10
-371.929
 20
-937.713
 30
3326.000
 70
    32
  0
VERTEX
  8
E20LXLIFT
 62
8
 10
-368.137
 20
-940.161
 30
3326.000
 70
    32
  0
VERTEX
  8
E20LXLIFT
 62
8
 10
-359.542
 20
-952.970
 30
3326.000
 70
    32
  0
VERTEX
  8
E20LXLIFT
 62
8
 10
-352.222
 20
-949.502
 30
3324.739
 70
    32
  0
VERTEX
  8
E20LXLIFT
 62
8
 10
-352.402
 20
-944.145
 30
3324.333
 70
    32
  0
VERTEX
  8
E20LXLIFT
 62
8
 10
-356.791
 20
-941.724
 30
3324.492
 70
    32
  0
VERTEX
  8
E20LXLIFT
 62
8
 10
-359.135
 20
-940.431
 30
3324.577
 70
    32
  0
VERTEX
  8
E20LXLIFT
 62
8
 10
-357.742
 20
-936.211
 30
3324.688
 70
    32
  0
VERTEX
  8
E20LXLIFT
 62
8
 10
-364.589
 20
-929.299
 30
3324.800
 70
    32
  0
VERTEX
  8
E20LXLIFT
 62
8
 10
-363.059
 20
-926.447
 30
3324.900
 70
    32
  0
VERTEX
  8
E20LXLIFT
 62
8
 10
-364.924
 20
-923.830
 30
3325.000
 70
    32
  0
VERTEX
  8
E20LXLIFT
 62
8
 10
-375.964
 20
-910.618
 30
3325.000
 70
    32
  0
VERTEX
  8
E20LXLIFT
 62
8
 10
-373.635
 20
-905.757
 30
3325.000
 70
    32
  0
VERTEX
  8
E20LXLIFT
 62
8
 10
-381.644
 20
-891.369
 30
3325.300
 70
    32
  0
VERTEX
  8
E20LXLIFT
 62
8
 10
-379.566
 20
-887.668
 30
3325.500
 70
    32
  0
VERTEX
  8
E20LXLIFT
 62
8
 10
-382.835
 20
-872.604
 30
3326.000
 70
    32
  0
VERTEX
  8
E20LXLIFT
 62
8
 10
-387.119
 20
-858.836
 30
3326.500
 70
    32
  0
VERTEX
  8
E20LXLIFT
 62
8
 10
-373.225
 20
-854.373
 30
3326.500
 70
    32
  0
VERTEX
  8
E20LXLIFT
 62
8
 10
-369.436
 20
-863.699
 30
3326.000
 70
    32
  0
VERTEX
  8
E20LXLIFT
 62
8
 10
-364.874
 20
-870.615
 30
3326.000
 70
    32
  0
VERTEX
  8
E20LXLIFT
 62
8
 10
-358.043
 20
-895.987
 30
3325.000
 70
    32
  0
VERTEX
  8
E20LXLIFT
 62
8
 10
-351.871
 20
-918.962
 30
3325.000
 70
    32
  0
VERTEX
  8
E20LXLIFT
 62
8
 10
-351.696
 20
-927.034
 30
3324.876
 70
    32
  0
VERTEX
  8
E20LXLIFT
 62
8
 10
-344.028
 20
-936.885
 30
3324.416
 70
    32
  0
VERTEX
  8
E20LXLIFT
 62
8
 10
-336.409
 20
-939.499
 30
3324.192
 70
    32
  0
VERTEX
  8
E20LXLIFT
 62
8
 10
-326.606
 20
-935.689
 30
3319.082
 70
    32
  0
VERTEX
  8
E20LXLIFT
 62
8
 10
-321.689
 20
-933.778
 30
3317.728
 70
    32
  0
VERTEX
  8
E20LXLIFT
 62
8
 10
-311.659
 20
-929.957
 30
3317.691
 70
    32
  0
SEQEND
  8
E20LXLIFT
  0
POLYLINE
  8
E20LXLIFT
 62
8
 66
     1
 70
     9
  0
VERTEX
  8
E20LXLIFT
 62
8
 10
-381.977
 20
-844.012
 30
3347.239
 70
    32
  0
VERTEX
  8
E20LXLIFT
 62
8
 10
-375.680
 20
-858.849
 30
3347.239
 70
    32
  0
VERTEX
  8
E20LXLIFT
 62
8
 10
-371.477
 20
-868.173
 30
3347.239
 70
    32
  0
VERTEX
  8
E20LXLIFT
 62
8
 10
-369.660
 20
-868.634
 30
3347.239
 70
    32
  0
VERTEX
  8
E20LXLIFT
 62
8
 10
-366.467
 20
-883.432
 30
3347.239
 70
    32
  0
VERTEX
  8
E20LXLIFT
 62
8
 10
-366.101
 20
-890.895
 30
3347.239
 70
    32
  0
VERTEX
  8
E20LXLIFT
 62
8
 10
-363.031
 20
-890.973
 30
3347.239
 70
    32
  0
VERTEX
  8
E20LXLIFT
 62
8
 10
-362.871
 20
-901.955
 30
3347.239
 70
    32
  0
VERTEX
  8
E20LXLIFT
 62
8
 10
-363.193
 20
-907.071
 30
3347.239
 70
    32
  0
VERTEX
  8
E20LXLIFT
 62
8
 10
-363.853
 20
-917.821
 30
3347.239
 70
    32
  0
VERTEX
  8
E20LXLIFT
 62
8
 10
-371.999
 20
-918.172
 30
3347.239
 70
    32
  0
VERTEX
  8
E20LXLIFT
 62
8
 10
-375.024
 20
-917.383
 30
3347.239
 70
    32
  0
VERTEX
  8
E20LXLIFT
 62
8
 10
-376.263
 20
-907.425
 30
3347.239
 70
    32
  0
VERTEX
  8
E20LXLIFT
 62
8
 10
-378.986
 20
-888.887
 30
3347.239
 70
    32
  0
VERTEX
  8
E20LXLIFT
 62
8
 10
-381.414
 20
-882.239
 30
3347.239
 70
    32
  0
VERTEX
  8
E20LXLIFT
 62
8
 10
-381.904
 20
-877.886
 30
3347.239
 70
    32
  0
VERTEX
  8
E20LXLIFT
 62
8
 10
-385.603
 20
-871.455
 30
3347.239
 70
    32
  0
VERTEX
  8
E20LXLIFT
 62
8
 10
-386.826
 20
-864.237
 30
3347.239
 70
    32
  0
VERTEX
  8
E20LXLIFT
 62
8
 10
-390.788
 20
-851.359
 30
3347.239
 70
    32
  0
VERTEX
  8
E20LXLIFT
 62
8
 10
-394.402
 20
-845.250
 30
3347.239
 70
    32
  0
SEQEND
  8
E20LXLIFT
  0
POLYLINE
  8
E20LXLIFT
 62
8
 66
     1
 70
     9
  0
VERTEX
  8
E20LXLIFT
 62
8
 10
-402.515
 20
-864.660
 30
3346.000
 70
    32
  0
VERTEX
  8
E20LXLIFT
 62
8
 10
-408.257
 20
-884.856
 30
3347.000
 70
    32
  0
VERTEX
  8
E20LXLIFT
 62
8
 10
-412.628
 20
-902.954
 30
3348.500
 70
    32
  0
VERTEX
  8
E20LXLIFT
 62
8
 10
-413.148
 20
-905.503
 30
3349.000
 70
    32
  0
VERTEX
  8
E20LXLIFT
 62
8
 10
-414.527
 20
-913.464
 30
3349.000
 70
    32
  0
VERTEX
  8
E20LXLIFT
 62
8
 10
-415.769
 20
-919.915
 30
3349.000
 70
    32
  0
VERTEX
  8
E20LXLIFT
 62
8
 10
-416.350
 20
-928.312
 30
3349.000
 70
    32
  0
VERTEX
  8
E20LXLIFT
 62
8
 10
-414.769
 20
-935.407
 30
3349.000
 70
    32
  0
VERTEX
  8
E20LXLIFT
 62
8
 10
-408.904
 20
-952.761
 30
3349.000
 70
    32
  0
VERTEX
  8
E20LXLIFT
 62
8
 10
-414.512
 20
-957.974
 30
3349.000
 70
    32
  0
VERTEX
  8
E20LXLIFT
 62
8
 10
-414.626
 20
-969.172
 30
3349.000
 70
    32
  0
VERTEX
  8
E20LXLIFT
 62
8
 10
-412.604
 20
-980.261
 30
3349.000
 70
    32
  0
VERTEX
  8
E20LXLIFT
 62
8
 10
-425.392
 20
-985.915
 30
3349.000
 70
    32
  0
VERTEX
  8
E20LXLIFT
 62
8
 10
-429.562
 20
-977.149
 30
3349.000
 70
    32
  0
VERTEX
  8
E20LXLIFT
 62
8
 10
-437.221
 20
-961.415
 30
3349.000
 70
    32
  0
VERTEX
  8
E20LXLIFT
 62
8
 10
-445.129
 20
-945.422
 30
3349.000
 70
    32
  0
VERTEX
  8
E20LXLIFT
 62
8
 10
-446.858
 20
-944.895
 30
3349.000
 70
    32
  0
VERTEX
  8
E20LXLIFT
 62
8
 10
-452.469
 20
-929.091
 30
3349.000
 70
    32
  0
VERTEX
  8
E20LXLIFT
 62
8
 10
-461.075
 20
-914.025
 30
3349.000
 70
    32
  0
VERTEX
  8
E20LXLIFT
 62
8
 10
-457.789
 20
-908.041
 30
3349.000
 70
    32
  0
VERTEX
  8
E20LXLIFT
 62
8
 10
-455.298
 20
-905.282
 30
3349.000
 70
    32
  0
VERTEX
  8
E20LXLIFT
 62
8
 10
-461.046
 20
-896.418
 30
3349.000
 70
    32
  0
VERTEX
  8
E20LXLIFT
 62
8
 10
-459.655
 20
-890.654
 30
3349.000
 70
    32
  0
VERTEX
  8
E20LXLIFT
 62
8
 10
-464.599
 20
-883.794
 30
3349.000
 70
    32
  0
VERTEX
  8
E20LXLIFT
 62
8
 10
-470.342
 20
-876.988
 30
3349.000
 70
    32
  0
VERTEX
  8
E20LXLIFT
 62
8
 10
-476.454
 20
-868.701
 30
3349.000
 70
    32
  0
VERTEX
  8
E20LXLIFT
 62
8
 10
-470.346
 20
-864.411
 30
3349.000
 70
    32
  0
VERTEX
  8
E20LXLIFT
 62
8
 10
-464.733
 20
-862.788
 30
3349.000
 70
    32
  0
VERTEX
  8
E20LXLIFT
 62
8
 10
-457.779
 20
-869.456
 30
3349.000
 70
    32
  0
VERTEX
  8
E20LXLIFT
 62
8
 10
-447.132
 20
-883.362
 30
3349.000
 70
    32
  0
VERTEX
  8
E20LXLIFT
 62
8
 10
-441.696
 20
-884.099
 30
3349.000
 70
    32
  0
VERTEX
  8
E20LXLIFT
 62
8
 10
-435.709
 20
-891.887
 30
3349.000
 70
    32
  0
VERTEX
  8
E20LXLIFT
 62
8
 10
-432.031
 20
-891.708
 30
3349.000
 70
    32
  0
VERTEX
  8
E20LXLIFT
 62
8
 10
-428.471
 20
-888.861
 30
3349.000
 70
    32
  0
VERTEX
  8
E20LXLIFT
 62
8
 10
-427.455
 20
-886.600
 30
3348.000
 70
    32
  0
VERTEX
  8
E20LXLIFT
 62
8
 10
-425.514
 20
-876.389
 30
3347.000
 70
    32
  0
VERTEX
  8
E20LXLIFT
 62
8
 10
-416.015
 20
-868.507
 30
3346.000
 70
    32
  0
VERTEX
  8
E20LXLIFT
 62
8
 10
-413.166
 20
-859.068
 30
3346.000
 70
    32
  0
SEQEND
  8
E20LXLIFT
  0
POLYLINE
  8
E20LXLIFT
 62
3
 66
     1
 70
     9
  0
VERTEX
  8
E20LXLIFT
 62
3
 10
-230.643
 20
-974.863
 30
3324.500
 70
    32
  0
VERTEX
  8
E20LXLIFT
 62
3
 10
-248.188
 20
-955.153
 30
3324.500
 70
    32
  0
VERTEX
  8
E20LXLIFT
 62
3
 10
-231.912
 20
-954.370
 30
3324.500
 70
    32
  0
VERTEX
  8
E20LXLIFT
 62
3
 10
-218.716
 20
-950.544
 30
3324.500
 70
    32
  0
VERTEX
  8
E20LXLIFT
 62
3
 10
-216.849
 20
-946.911
 30
3324.500
 70
    32
  0
VERTEX
  8
E20LXLIFT
 62
3
 10
-223.771
 20
-941.332
 30
3324.500
 70
    32
  0
VERTEX
  8
E20LXLIFT
 62
3
 10
-207.748
 20
-924.156
 30
3324.500
 70
    32
  0
VERTEX
  8
E20LXLIFT
 62
3
 10
-204.297
 20
-928.407
 30
3324.500
 70
    32
  0
VERTEX
  8
E20LXLIFT
 62
3
 10
-200.319
 20
-926.338
 30
3324.500
 70
    32
  0
VERTEX
  8
E20LXLIFT
 62
3
 10
-198.157
 20
-921.149
 30
3324.500
 70
    32
  0
VERTEX
  8
E20LXLIFT
 62
3
 10
-196.496
 20
-912.083
 30
3324.500
 70
    32
  0
VERTEX
  8
E20LXLIFT
 62
3
 10
-187.210
 20
-913.154
 30
3324.500
 70
    32
  0
VERTEX
  8
E20LXLIFT
 62
3
 10
-180.296
 20
-914.296
 30
3324.500
 70
    32
  0
VERTEX
  8
E20LXLIFT
 62
3
 10
-176.209
 20
-917.707
 30
3324.500
 70
    32
  0
VERTEX
  8
E20LXLIFT
 62
3
 10
-178.123
 20
-925.302
 30
3324.500
 70
    32
  0
VERTEX
  8
E20LXLIFT
 62
3
 10
-176.439
 20
-931.345
 30
3324.500
 70
    32
  0
VERTEX
  8
E20LXLIFT
 62
3
 10
-181.599
 20
-935.918
 30
3324.500
 70
    32
  0
VERTEX
  8
E20LXLIFT
 62
3
 10
-180.434
 20
-942.194
 30
3324.500
 70
    32
  0
VERTEX
  8
E20LXLIFT
 62
3
 10
-191.139
 20
-953.467
 30
3324.500
 70
    32
  0
VERTEX
  8
E20LXLIFT
 62
3
 10
-190.861
 20
-957.623
 30
3324.500
 70
    32
  0
VERTEX
  8
E20LXLIFT
 62
3
 10
-193.219
 20
-970.394
 30
3324.500
 70
    32
  0
VERTEX
  8
E20LXLIFT
 62
3
 10
-195.339
 20
-973.214
 30
3324.500
 70
    32
  0
VERTEX
  8
E20LXLIFT
 62
3
 10
-207.596
 20
-984.590
 30
3324.500
 70
    32
  0
VERTEX
  8
E20LXLIFT
 62
3
 10
-219.134
 20
-978.917
 30
3324.500
 70
    32
  0
SEQEND
  8
E20LXLIFT
  0
ENDSEC
  0
EOF
