999
********************************
999
*   DXF File - Entities Only   *
999
*        3D Data Format        *
999
*     Output from ENVISAGE     *
999
*     31-Dec-2007 14:12:30     *
999
********************************
  0
SECTION 
  2
HEADER
  9
$ACADVER
  1
AC1009
  9
$EXTMIN
 10
-290000.000
 20
-250000.000
 30
-4000.000
  9
$EXTMAX
 10
320000.000
 20
160000.000
 30
6000.000
  0
ENDSEC
  0
SECTION
  2
ENTITIES
  0
LINE
  8
E21LALIFT
 62
8
 10
-2167.032
 20
584.611
 30
3163.500
 11
-2166.640
 21
584.675
 31
3163.500
  0
POLYLINE
  8
E21LALIFT
 62
8
 66
     1
 70
     8
  0
VERTEX
  8
E21LALIFT
 62
8
 10
-2167.032
 20
584.611
 30
3163.500
 70
    32
  0
VERTEX
  8
E21LALIFT
 62
8
 10
-2173.790
 20
570.437
 30
3163.500
 70
    32
  0
VERTEX
  8
E21LALIFT
 62
8
 10
-2169.114
 20
562.720
 30
3163.500
 70
    32
  0
VERTEX
  8
E21LALIFT
 62
8
 10
-2159.531
 20
556.022
 30
3163.500
 70
    32
  0
VERTEX
  8
E21LALIFT
 62
8
 10
-2148.985
 20
561.424
 30
3163.500
 70
    32
  0
VERTEX
  8
E21LALIFT
 62
8
 10
-2146.312
 20
569.643
 30
3163.500
 70
    32
  0
VERTEX
  8
E21LALIFT
 62
8
 10
-2150.661
 20
584.633
 30
3163.500
 70
    32
  0
VERTEX
  8
E21LALIFT
 62
8
 10
-2166.640
 20
584.675
 30
3163.500
 70
    32
  0
SEQEND
  8
E21LALIFT
  0
POLYLINE
  8
E21LALIFT
 62
8
 66
     1
 70
     9
  0
VERTEX
  8
E21LALIFT
 62
8
 10
-2181.616
 20
636.442
 30
3160.000
 70
    32
  0
VERTEX
  8
E21LALIFT
 62
8
 10
-2193.533
 20
629.587
 30
3160.000
 70
    32
  0
VERTEX
  8
E21LALIFT
 62
8
 10
-2195.909
 20
623.313
 30
3160.000
 70
    32
  0
VERTEX
  8
E21LALIFT
 62
8
 10
-2178.035
 20
608.176
 30
3159.000
 70
    32
  0
VERTEX
  8
E21LALIFT
 62
8
 10
-2177.971
 20
607.289
 30
3159.000
 70
    32
  0
VERTEX
  8
E21LALIFT
 62
8
 10
-2168.655
 20
590.585
 30
3160.000
 70
    32
  0
VERTEX
  8
E21LALIFT
 62
8
 10
-2169.967
 20
580.688
 30
3161.000
 70
    32
  0
VERTEX
  8
E21LALIFT
 62
8
 10
-2175.669
 20
570.581
 30
3162.000
 70
    32
  0
VERTEX
  8
E21LALIFT
 62
8
 10
-2172.238
 20
561.148
 30
3163.000
 70
    32
  0
VERTEX
  8
E21LALIFT
 62
8
 10
-2172.209
 20
560.119
 30
3163.000
 70
    32
  0
VERTEX
  8
E21LALIFT
 62
8
 10
-2165.433
 20
558.978
 30
3163.000
 70
    32
  0
VERTEX
  8
E21LALIFT
 62
8
 10
-2161.277
 20
544.885
 30
3160.000
 70
    32
  0
VERTEX
  8
E21LALIFT
 62
8
 10
-2148.607
 20
539.428
 30
3160.000
 70
    32
  0
VERTEX
  8
E21LALIFT
 62
8
 10
-2138.810
 20
528.823
 30
3161.000
 70
    32
  0
VERTEX
  8
E21LALIFT
 62
8
 10
-2129.095
 20
514.300
 30
3161.000
 70
    32
  0
VERTEX
  8
E21LALIFT
 62
8
 10
-2125.460
 20
506.138
 30
3162.000
 70
    32
  0
VERTEX
  8
E21LALIFT
 62
8
 10
-2118.509
 20
502.619
 30
3162.000
 70
    32
  0
VERTEX
  8
E21LALIFT
 62
8
 10
-2116.129
 20
500.455
 30
3162.000
 70
    32
  0
VERTEX
  8
E21LALIFT
 62
8
 10
-2107.392
 20
502.065
 30
3161.500
 70
    32
  0
VERTEX
  8
E21LALIFT
 62
8
 10
-2101.106
 20
490.366
 30
3161.000
 70
    32
  0
VERTEX
  8
E21LALIFT
 62
8
 10
-2095.957
 20
483.867
 30
3160.000
 70
    32
  0
VERTEX
  8
E21LALIFT
 62
8
 10
-2096.868
 20
479.844
 30
3160.000
 70
    32
  0
VERTEX
  8
E21LALIFT
 62
8
 10
-2092.188
 20
475.377
 30
3160.000
 70
    32
  0
VERTEX
  8
E21LALIFT
 62
8
 10
-2084.280
 20
473.689
 30
3160.000
 70
    32
  0
VERTEX
  8
E21LALIFT
 62
8
 10
-2076.946
 20
468.643
 30
3160.000
 70
    32
  0
VERTEX
  8
E21LALIFT
 62
8
 10
-2065.521
 20
450.731
 30
3167.600
 70
    32
  0
VERTEX
  8
E21LALIFT
 62
8
 10
-2054.078
 20
432.774
 30
3170.000
 70
    32
  0
VERTEX
  8
E21LALIFT
 62
8
 10
-2048.487
 20
429.489
 30
3171.000
 70
    32
  0
VERTEX
  8
E21LALIFT
 62
8
 10
-2043.569
 20
423.842
 30
3172.000
 70
    32
  0
VERTEX
  8
E21LALIFT
 62
8
 10
-2032.774
 20
413.765
 30
3175.000
 70
    32
  0
VERTEX
  8
E21LALIFT
 62
8
 10
-2036.058
 20
411.481
 30
3174.000
 70
    32
  0
VERTEX
  8
E21LALIFT
 62
8
 10
-2021.274
 20
398.089
 30
3182.000
 70
    32
  0
VERTEX
  8
E21LALIFT
 62
8
 10
-2022.018
 20
403.237
 30
3179.000
 70
    32
  0
VERTEX
  8
E21LALIFT
 62
8
 10
-2017.690
 20
408.705
 30
3178.900
 70
    32
  0
VERTEX
  8
E21LALIFT
 62
8
 10
-2027.703
 20
421.407
 30
3174.000
 70
    32
  0
VERTEX
  8
E21LALIFT
 62
8
 10
-2038.879
 20
436.822
 30
3170.000
 70
    32
  0
VERTEX
  8
E21LALIFT
 62
8
 10
-2056.431
 20
458.399
 30
3166.600
 70
    32
  0
VERTEX
  8
E21LALIFT
 62
8
 10
-2056.254
 20
458.574
 30
3166.000
 70
    32
  0
VERTEX
  8
E21LALIFT
 62
8
 10
-2068.275
 20
474.745
 30
3160.000
 70
    32
  0
VERTEX
  8
E21LALIFT
 62
8
 10
-2063.538
 20
483.008
 30
3160.000
 70
    32
  0
VERTEX
  8
E21LALIFT
 62
8
 10
-2054.367
 20
483.787
 30
3160.000
 70
    32
  0
VERTEX
  8
E21LALIFT
 62
8
 10
-2042.525
 20
480.336
 30
3160.000
 70
    32
  0
VERTEX
  8
E21LALIFT
 62
8
 10
-2037.444
 20
479.868
 30
3160.800
 70
    32
  0
VERTEX
  8
E21LALIFT
 62
8
 10
-2020.842
 20
473.788
 30
3160.800
 70
    32
  0
VERTEX
  8
E21LALIFT
 62
8
 10
-2018.100
 20
483.861
 30
3160.800
 70
    32
  0
VERTEX
  8
E21LALIFT
 62
8
 10
-2034.399
 20
489.265
 30
3160.800
 70
    32
  0
VERTEX
  8
E21LALIFT
 62
8
 10
-2036.563
 20
490.929
 30
3160.000
 70
    32
  0
VERTEX
  8
E21LALIFT
 62
8
 10
-2040.461
 20
495.096
 30
3160.000
 70
    32
  0
VERTEX
  8
E21LALIFT
 62
8
 10
-2048.052
 20
505.625
 30
3160.500
 70
    32
  0
VERTEX
  8
E21LALIFT
 62
8
 10
-2062.230
 20
511.426
 30
3160.000
 70
    32
  0
VERTEX
  8
E21LALIFT
 62
8
 10
-2070.189
 20
513.559
 30
3161.000
 70
    32
  0
VERTEX
  8
E21LALIFT
 62
8
 10
-2084.742
 20
521.429
 30
3162.000
 70
    32
  0
VERTEX
  8
E21LALIFT
 62
8
 10
-2085.847
 20
522.325
 30
3162.000
 70
    32
  0
VERTEX
  8
E21LALIFT
 62
8
 10
-2097.715
 20
534.670
 30
3161.000
 70
    32
  0
VERTEX
  8
E21LALIFT
 62
8
 10
-2105.024
 20
545.719
 30
3160.000
 70
    32
  0
VERTEX
  8
E21LALIFT
 62
8
 10
-2117.954
 20
542.926
 30
3161.000
 70
    32
  0
VERTEX
  8
E21LALIFT
 62
8
 10
-2129.010
 20
555.865
 30
3160.000
 70
    32
  0
VERTEX
  8
E21LALIFT
 62
8
 10
-2136.047
 20
572.677
 30
3160.000
 70
    32
  0
VERTEX
  8
E21LALIFT
 62
8
 10
-2137.239
 20
583.372
 30
3161.000
 70
    32
  0
VERTEX
  8
E21LALIFT
 62
8
 10
-2140.749
 20
598.985
 30
3160.000
 70
    32
  0
VERTEX
  8
E21LALIFT
 62
8
 10
-2141.695
 20
607.553
 30
3159.000
 70
    32
  0
VERTEX
  8
E21LALIFT
 62
8
 10
-2147.206
 20
610.754
 30
3159.000
 70
    32
  0
VERTEX
  8
E21LALIFT
 62
8
 10
-2151.531
 20
614.778
 30
3159.000
 70
    32
  0
VERTEX
  8
E21LALIFT
 62
8
 10
-2151.685
 20
627.990
 30
3159.000
 70
    32
  0
VERTEX
  8
E21LALIFT
 62
8
 10
-2160.024
 20
630.624
 30
3159.000
 70
    32
  0
VERTEX
  8
E21LALIFT
 62
8
 10
-2169.129
 20
625.915
 30
3160.000
 70
    32
  0
VERTEX
  8
E21LALIFT
 62
8
 10
-2181.616
 20
636.442
 30
3160.000
 70
    32
  0
VERTEX
  8
E21LALIFT
 62
8
 10
-2193.465
 20
629.626
 30
3160.000
 70
    32
  0
SEQEND
  8
E21LALIFT
  0
POLYLINE
  8
E21LALIFT
 62
1
 66
     1
 70
     9
  0
VERTEX
  8
E21LALIFT
 62
1
 10
-108.996
 20
-1051.995
 30
3222.000
 70
    32
  0
VERTEX
  8
E21LALIFT
 62
1
 10
-133.054
 20
-1039.443
 30
3217.500
 70
    32
  0
VERTEX
  8
E21LALIFT
 62
1
 10
-159.749
 20
-1017.402
 30
3212.000
 70
    32
  0
VERTEX
  8
E21LALIFT
 62
1
 10
-164.184
 20
-1020.611
 30
3212.000
 70
    32
  0
VERTEX
  8
E21LALIFT
 62
1
 10
-164.874
 20
-1024.970
 30
3212.000
 70
    32
  0
VERTEX
  8
E21LALIFT
 62
1
 10
-177.063
 20
-1033.359
 30
3212.000
 70
    32
  0
VERTEX
  8
E21LALIFT
 62
1
 10
-180.163
 20
-1029.045
 30
3212.000
 70
    32
  0
VERTEX
  8
E21LALIFT
 62
1
 10
-180.980
 20
-1023.723
 30
3212.000
 70
    32
  0
VERTEX
  8
E21LALIFT
 62
1
 10
-192.141
 20
-1016.483
 30
3212.000
 70
    32
  0
VERTEX
  8
E21LALIFT
 62
1
 10
-204.353
 20
-1020.468
 30
3212.000
 70
    32
  0
VERTEX
  8
E21LALIFT
 62
1
 10
-206.037
 20
-1000.399
 30
3212.250
 70
    32
  0
VERTEX
  8
E21LALIFT
 62
1
 10
-200.110
 20
-999.476
 30
3212.250
 70
    32
  0
VERTEX
  8
E21LALIFT
 62
1
 10
-189.185
 20
-994.340
 30
3212.400
 70
    32
  0
VERTEX
  8
E21LALIFT
 62
1
 10
-187.258
 20
-985.058
 30
3212.500
 70
    32
  0
VERTEX
  8
E21LALIFT
 62
1
 10
-186.708
 20
-980.054
 30
3212.500
 70
    32
  0
VERTEX
  8
E21LALIFT
 62
1
 10
-179.440
 20
-974.058
 30
3212.500
 70
    32
  0
VERTEX
  8
E21LALIFT
 62
1
 10
-172.396
 20
-986.711
 30
3212.400
 70
    32
  0
VERTEX
  8
E21LALIFT
 62
1
 10
-168.469
 20
-994.756
 30
3212.300
 70
    32
  0
VERTEX
  8
E21LALIFT
 62
1
 10
-154.490
 20
-1008.607
 30
3212.000
 70
    32
  0
VERTEX
  8
E21LALIFT
 62
1
 10
-139.185
 20
-1021.269
 30
3215.500
 70
    32
  0
VERTEX
  8
E21LALIFT
 62
1
 10
-103.595
 20
-1042.866
 30
3222.000
 70
    32
  0
SEQEND
  8
E21LALIFT
  0
POLYLINE
  8
E21LALIFT
 62
1
 66
     1
 70
     9
  0
VERTEX
  8
E21LALIFT
 62
1
 10
416.639
 20
-1586.651
 30
3174.000
 70
    32
  0
VERTEX
  8
E21LALIFT
 62
1
 10
410.575
 20
-1584.412
 30
3174.000
 70
    32
  0
VERTEX
  8
E21LALIFT
 62
1
 10
407.153
 20
-1584.284
 30
3174.000
 70
    32
  0
VERTEX
  8
E21LALIFT
 62
1
 10
402.145
 20
-1584.015
 30
3174.000
 70
    32
  0
VERTEX
  8
E21LALIFT
 62
1
 10
395.032
 20
-1586.388
 30
3174.000
 70
    32
  0
VERTEX
  8
E21LALIFT
 62
1
 10
391.342
 20
-1591.256
 30
3174.000
 70
    32
  0
VERTEX
  8
E21LALIFT
 62
1
 10
392.135
 20
-1597.966
 30
3174.000
 70
    32
  0
VERTEX
  8
E21LALIFT
 62
1
 10
393.849
 20
-1603.627
 30
3174.000
 70
    32
  0
VERTEX
  8
E21LALIFT
 62
1
 10
398.723
 20
-1610.733
 30
3174.000
 70
    32
  0
VERTEX
  8
E21LALIFT
 62
1
 10
403.200
 20
-1617.712
 30
3174.000
 70
    32
  0
VERTEX
  8
E21LALIFT
 62
1
 10
410.972
 20
-1626.264
 30
3174.000
 70
    32
  0
VERTEX
  8
E21LALIFT
 62
1
 10
424.276
 20
-1643.240
 30
3174.000
 70
    32
  0
VERTEX
  8
E21LALIFT
 62
1
 10
430.601
 20
-1651.268
 30
3174.000
 70
    32
  0
VERTEX
  8
E21LALIFT
 62
1
 10
437.848
 20
-1651.006
 30
3174.000
 70
    32
  0
VERTEX
  8
E21LALIFT
 62
1
 10
443.247
 20
-1645.479
 30
3174.000
 70
    32
  0
VERTEX
  8
E21LALIFT
 62
1
 10
440.483
 20
-1635.085
 30
3174.000
 70
    32
  0
VERTEX
  8
E21LALIFT
 62
1
 10
431.785
 20
-1618.499
 30
3174.000
 70
    32
  0
VERTEX
  8
E21LALIFT
 62
1
 10
423.751
 20
-1607.311
 30
3174.000
 70
    32
  0
VERTEX
  8
E21LALIFT
 62
1
 10
420.719
 20
-1599.943
 30
3174.000
 70
    32
  0
VERTEX
  8
E21LALIFT
 62
1
 10
417.297
 20
-1588.231
 30
3174.000
 70
    32
  0
SEQEND
  8
E21LALIFT
  0
POLYLINE
  8
E21LALIFT
 62
1
 66
     1
 70
     9
  0
VERTEX
  8
E21LALIFT
 62
1
 10
213.033
 20
-1476.870
 30
3165.514
 70
    32
  0
VERTEX
  8
E21LALIFT
 62
1
 10
213.513
 20
-1477.779
 30
3165.000
 70
    32
  0
VERTEX
  8
E21LALIFT
 62
1
 10
221.286
 20
-1489.462
 30
3165.000
 70
    32
  0
VERTEX
  8
E21LALIFT
 62
1
 10
229.236
 20
-1504.082
 30
3165.000
 70
    32
  0
VERTEX
  8
E21LALIFT
 62
1
 10
228.140
 20
-1509.254
 30
3165.000
 70
    32
  0
VERTEX
  8
E21LALIFT
 62
1
 10
222.302
 20
-1515.115
 30
3165.000
 70
    32
  0
VERTEX
  8
E21LALIFT
 62
1
 10
230.873
 20
-1530.220
 30
3165.000
 70
    32
  0
VERTEX
  8
E21LALIFT
 62
1
 10
239.301
 20
-1544.087
 30
3165.000
 70
    32
  0
VERTEX
  8
E21LALIFT
 62
1
 10
248.156
 20
-1548.343
 30
3165.000
 70
    32
  0
VERTEX
  8
E21LALIFT
 62
1
 10
249.269
 20
-1549.326
 30
3165.000
 70
    32
  0
VERTEX
  8
E21LALIFT
 62
1
 10
255.804
 20
-1552.512
 30
3165.000
 70
    32
  0
VERTEX
  8
E21LALIFT
 62
1
 10
261.259
 20
-1560.744
 30
3165.000
 70
    32
  0
VERTEX
  8
E21LALIFT
 62
1
 10
268.821
 20
-1570.238
 30
3165.530
 70
    32
  0
VERTEX
  8
E21LALIFT
 62
1
 10
272.769
 20
-1579.887
 30
3166.001
 70
    32
  0
VERTEX
  8
E21LALIFT
 62
1
 10
277.926
 20
-1588.410
 30
3166.001
 70
    32
  0
VERTEX
  8
E21LALIFT
 62
1
 10
289.955
 20
-1586.379
 30
3166.001
 70
    32
  0
VERTEX
  8
E21LALIFT
 62
1
 10
300.676
 20
-1572.354
 30
3166.001
 70
    32
  0
VERTEX
  8
E21LALIFT
 62
1
 10
293.424
 20
-1563.775
 30
3166.001
 70
    32
  0
VERTEX
  8
E21LALIFT
 62
1
 10
279.004
 20
-1557.907
 30
3165.501
 70
    32
  0
VERTEX
  8
E21LALIFT
 62
1
 10
277.443
 20
-1558.255
 30
3165.000
 70
    32
  0
VERTEX
  8
E21LALIFT
 62
1
 10
265.275
 20
-1542.853
 30
3165.000
 70
    32
  0
VERTEX
  8
E21LALIFT
 62
1
 10
261.526
 20
-1540.212
 30
3165.000
 70
    32
  0
VERTEX
  8
E21LALIFT
 62
1
 10
264.514
 20
-1531.314
 30
3165.000
 70
    32
  0
VERTEX
  8
E21LALIFT
 62
1
 10
269.160
 20
-1525.470
 30
3165.000
 70
    32
  0
VERTEX
  8
E21LALIFT
 62
1
 10
275.066
 20
-1521.022
 30
3165.000
 70
    32
  0
VERTEX
  8
E21LALIFT
 62
1
 10
273.581
 20
-1510.685
 30
3165.000
 70
    32
  0
VERTEX
  8
E21LALIFT
 62
1
 10
278.207
 20
-1505.552
 30
3165.000
 70
    32
  0
VERTEX
  8
E21LALIFT
 62
1
 10
288.935
 20
-1498.445
 30
3165.000
 70
    32
  0
VERTEX
  8
E21LALIFT
 62
1
 10
293.492
 20
-1499.671
 30
3165.482
 70
    32
  0
VERTEX
  8
E21LALIFT
 62
1
 10
303.179
 20
-1502.546
 30
3165.842
 70
    32
  0
VERTEX
  8
E21LALIFT
 62
1
 10
310.575
 20
-1501.461
 30
3166.750
 70
    32
  0
VERTEX
  8
E21LALIFT
 62
1
 10
320.831
 20
-1505.972
 30
3169.375
 70
    32
  0
VERTEX
  8
E21LALIFT
 62
1
 10
327.054
 20
-1521.436
 30
3170.183
 70
    32
  0
VERTEX
  8
E21LALIFT
 62
1
 10
329.387
 20
-1533.281
 30
3170.768
 70
    32
  0
VERTEX
  8
E21LALIFT
 62
1
 10
332.381
 20
-1545.980
 30
3171.400
 70
    32
  0
VERTEX
  8
E21LALIFT
 62
1
 10
337.022
 20
-1560.006
 30
3173.503
 70
    32
  0
VERTEX
  8
E21LALIFT
 62
1
 10
347.299
 20
-1576.270
 30
3173.069
 70
    32
  0
VERTEX
  8
E21LALIFT
 62
1
 10
356.000
 20
-1587.032
 30
3172.757
 70
    32
  0
VERTEX
  8
E21LALIFT
 62
1
 10
362.166
 20
-1600.870
 30
3172.415
 70
    32
  0
VERTEX
  8
E21LALIFT
 62
1
 10
364.316
 20
-1609.008
 30
3172.225
 70
    32
  0
VERTEX
  8
E21LALIFT
 62
1
 10
370.509
 20
-1622.483
 30
3172.300
 70
    32
  0
VERTEX
  8
E21LALIFT
 62
1
 10
395.144
 20
-1611.594
 30
3172.300
 70
    32
  0
VERTEX
  8
E21LALIFT
 62
1
 10
386.972
 20
-1599.252
 30
3173.000
 70
    32
  0
VERTEX
  8
E21LALIFT
 62
1
 10
380.972
 20
-1587.153
 30
3173.139
 70
    32
  0
VERTEX
  8
E21LALIFT
 62
1
 10
373.999
 20
-1573.400
 30
3173.298
 70
    32
  0
VERTEX
  8
E21LALIFT
 62
1
 10
371.834
 20
-1568.534
 30
3173.353
 70
    32
  0
VERTEX
  8
E21LALIFT
 62
1
 10
371.566
 20
-1560.884
 30
3173.431
 70
    32
  0
VERTEX
  8
E21LALIFT
 62
1
 10
369.400
 20
-1554.589
 30
3173.500
 70
    32
  0
VERTEX
  8
E21LALIFT
 62
1
 10
366.515
 20
-1548.135
 30
3172.994
 70
    32
  0
VERTEX
  8
E21LALIFT
 62
1
 10
362.507
 20
-1538.943
 30
3172.276
 70
    32
  0
VERTEX
  8
E21LALIFT
 62
1
 10
358.585
 20
-1538.699
 30
3171.994
 70
    32
  0
VERTEX
  8
E21LALIFT
 62
1
 10
350.545
 20
-1540.742
 30
3171.400
 70
    32
  0
VERTEX
  8
E21LALIFT
 62
1
 10
346.481
 20
-1528.088
 30
3170.684
 70
    32
  0
VERTEX
  8
E21LALIFT
 62
1
 10
340.626
 20
-1516.513
 30
3169.986
 70
    32
  0
VERTEX
  8
E21LALIFT
 62
1
 10
335.471
 20
-1503.666
 30
3169.240
 70
    32
  0
VERTEX
  8
E21LALIFT
 62
1
 10
328.374
 20
-1483.333
 30
3167.923
 70
    32
  0
VERTEX
  8
E21LALIFT
 62
1
 10
325.538
 20
-1473.620
 30
3169.017
 70
    32
  0
VERTEX
  8
E21LALIFT
 62
1
 10
324.976
 20
-1463.489
 30
3169.017
 70
    32
  0
VERTEX
  8
E21LALIFT
 62
1
 10
319.126
 20
-1462.182
 30
3169.017
 70
    32
  0
VERTEX
  8
E21LALIFT
 62
1
 10
311.926
 20
-1465.900
 30
3169.017
 70
    32
  0
VERTEX
  8
E21LALIFT
 62
1
 10
311.149
 20
-1475.198
 30
3169.017
 70
    32
  0
VERTEX
  8
E21LALIFT
 62
1
 10
307.693
 20
-1481.651
 30
3169.017
 70
    32
  0
VERTEX
  8
E21LALIFT
 62
1
 10
297.340
 20
-1474.124
 30
3165.555
 70
    32
  0
VERTEX
  8
E21LALIFT
 62
1
 10
278.574
 20
-1465.758
 30
3164.987
 70
    32
  0
VERTEX
  8
E21LALIFT
 62
1
 10
273.418
 20
-1471.184
 30
3165.209
 70
    32
  0
VERTEX
  8
E21LALIFT
 62
1
 10
262.284
 20
-1479.187
 30
3165.015
 70
    32
  0
VERTEX
  8
E21LALIFT
 62
1
 10
259.368
 20
-1481.346
 30
3165.000
 70
    32
  0
VERTEX
  8
E21LALIFT
 62
1
 10
255.352
 20
-1467.594
 30
3165.000
 70
    32
  0
VERTEX
  8
E21LALIFT
 62
1
 10
254.392
 20
-1466.151
 30
3165.514
 70
    32
  0
VERTEX
  8
E21LALIFT
 62
1
 10
242.360
 20
-1451.463
 30
3166.000
 70
    32
  0
VERTEX
  8
E21LALIFT
 62
1
 10
237.304
 20
-1440.923
 30
3166.000
 70
    32
  0
VERTEX
  8
E21LALIFT
 62
1
 10
234.968
 20
-1438.964
 30
3166.017
 70
    32
  0
VERTEX
  8
E21LALIFT
 62
1
 10
231.407
 20
-1427.917
 30
3166.017
 70
    32
  0
VERTEX
  8
E21LALIFT
 62
1
 10
235.378
 20
-1401.849
 30
3166.017
 70
    32
  0
VERTEX
  8
E21LALIFT
 62
1
 10
236.499
 20
-1397.185
 30
3166.017
 70
    32
  0
VERTEX
  8
E21LALIFT
 62
1
 10
236.847
 20
-1397.258
 30
3166.095
 70
    32
  0
VERTEX
  8
E21LALIFT
 62
1
 10
238.927
 20
-1397.118
 30
3166.095
 70
    32
  0
VERTEX
  8
E21LALIFT
 62
1
 10
242.953
 20
-1397.465
 30
3166.095
 70
    32
  0
VERTEX
  8
E21LALIFT
 62
1
 10
245.454
 20
-1398.441
 30
3166.095
 70
    32
  0
VERTEX
  8
E21LALIFT
 62
1
 10
270.867
 20
-1408.244
 30
3166.095
 70
    32
  0
VERTEX
  8
E21LALIFT
 62
1
 10
272.018
 20
-1391.820
 30
3166.095
 70
    32
  0
VERTEX
  8
E21LALIFT
 62
1
 10
269.473
 20
-1390.650
 30
3166.095
 70
    32
  0
VERTEX
  8
E21LALIFT
 62
1
 10
263.198
 20
-1381.270
 30
3166.095
 70
    32
  0
VERTEX
  8
E21LALIFT
 62
1
 10
252.419
 20
-1380.585
 30
3166.095
 70
    32
  0
VERTEX
  8
E21LALIFT
 62
1
 10
241.916
 20
-1373.925
 30
3166.095
 70
    32
  0
VERTEX
  8
E21LALIFT
 62
1
 10
240.946
 20
-1373.911
 30
3166.017
 70
    32
  0
VERTEX
  8
E21LALIFT
 62
1
 10
230.842
 20
-1372.014
 30
3166.017
 70
    32
  0
VERTEX
  8
E21LALIFT
 62
1
 10
224.952
 20
-1371.933
 30
3166.017
 70
    32
  0
VERTEX
  8
E21LALIFT
 62
1
 10
219.823
 20
-1381.408
 30
3166.017
 70
    32
  0
VERTEX
  8
E21LALIFT
 62
1
 10
212.147
 20
-1385.822
 30
3166.017
 70
    32
  0
VERTEX
  8
E21LALIFT
 62
1
 10
214.325
 20
-1405.283
 30
3166.017
 70
    32
  0
VERTEX
  8
E21LALIFT
 62
1
 10
212.206
 20
-1411.182
 30
3166.017
 70
    32
  0
VERTEX
  8
E21LALIFT
 62
1
 10
212.793
 20
-1418.089
 30
3166.017
 70
    32
  0
VERTEX
  8
E21LALIFT
 62
1
 10
209.552
 20
-1423.192
 30
3166.017
 70
    32
  0
VERTEX
  8
E21LALIFT
 62
1
 10
213.667
 20
-1451.719
 30
3166.017
 70
    32
  0
VERTEX
  8
E21LALIFT
 62
1
 10
213.350
 20
-1452.791
 30
3166.000
 70
    32
  0
VERTEX
  8
E21LALIFT
 62
1
 10
217.162
 20
-1464.658
 30
3166.000
 70
    32
  0
VERTEX
  8
E21LALIFT
 62
1
 10
209.275
 20
-1464.814
 30
3165.514
 70
    32
  0
SEQEND
  8
E21LALIFT
  0
POLYLINE
  8
E21LALIFT
 62
1
 66
     1
 70
     9
  0
VERTEX
  8
E21LALIFT
 62
1
 10
221.786
 20
-1483.866
 30
3175.000
 70
    32
  0
VERTEX
  8
E21LALIFT
 62
1
 10
255.153
 20
-1484.354
 30
3175.000
 70
    32
  0
VERTEX
  8
E21LALIFT
 62
1
 10
261.534
 20
-1499.463
 30
3175.000
 70
    32
  0
VERTEX
  8
E21LALIFT
 62
1
 10
261.534
 20
-1530.409
 30
3175.000
 70
    32
  0
VERTEX
  8
E21LALIFT
 62
1
 10
258.831
 20
-1540.156
 30
3175.000
 70
    32
  0
VERTEX
  8
E21LALIFT
 62
1
 10
244.606
 20
-1544.298
 30
3175.000
 70
    32
  0
VERTEX
  8
E21LALIFT
 62
1
 10
231.845
 20
-1504.581
 30
3175.000
 70
    32
  0
SEQEND
  8
E21LALIFT
  0
POLYLINE
  8
E21LALIFT
 62
1
 66
     1
 70
     9
  0
VERTEX
  8
E21LALIFT
 62
1
 10
372.212
 20
-1616.223
 30
3181.000
 70
    32
  0
VERTEX
  8
E21LALIFT
 62
1
 10
387.426
 20
-1610.374
 30
3181.000
 70
    32
  0
VERTEX
  8
E21LALIFT
 62
1
 10
351.850
 20
-1548.965
 30
3181.000
 70
    32
  0
VERTEX
  8
E21LALIFT
 62
1
 10
326.578
 20
-1483.414
 30
3181.000
 70
    32
  0
VERTEX
  8
E21LALIFT
 62
1
 10
315.781
 20
-1486.336
 30
3181.000
 70
    32
  0
VERTEX
  8
E21LALIFT
 62
1
 10
337.863
 20
-1549.697
 30
3181.000
 70
    32
  0
SEQEND
  8
E21LALIFT
  0
POLYLINE
  8
E21LALIFT
 62
13
 66
     1
 70
     9
  0
VERTEX
  8
E21LALIFT
 62
13
 10
271.222
 20
-1592.996
 30
3205.000
 70
    32
  0
VERTEX
  8
E21LALIFT
 62
13
 10
272.524
 20
-1590.205
 30
3205.000
 70
    32
  0
VERTEX
  8
E21LALIFT
 62
13
 10
268.476
 20
-1578.326
 30
3205.000
 70
    32
  0
VERTEX
  8
E21LALIFT
 62
13
 10
274.127
 20
-1573.528
 30
3205.000
 70
    32
  0
VERTEX
  8
E21LALIFT
 62
13
 10
276.824
 20
-1570.437
 30
3205.000
 70
    32
  0
VERTEX
  8
E21LALIFT
 62
13
 10
295.164
 20
-1559.101
 30
3205.000
 70
    32
  0
VERTEX
  8
E21LALIFT
 62
13
 10
299.262
 20
-1558.606
 30
3205.000
 70
    32
  0
VERTEX
  8
E21LALIFT
 62
13
 10
304.875
 20
-1559.063
 30
3203.605
 70
    32
  0
VERTEX
  8
E21LALIFT
 62
13
 10
314.208
 20
-1574.798
 30
3202.632
 70
    32
  0
VERTEX
  8
E21LALIFT
 62
13
 10
311.490
 20
-1593.827
 30
3199.851
 70
    32
  0
VERTEX
  8
E21LALIFT
 62
13
 10
301.493
 20
-1613.892
 30
3196.370
 70
    32
  0
VERTEX
  8
E21LALIFT
 62
13
 10
296.573
 20
-1624.721
 30
3196.389
 70
    32
  0
VERTEX
  8
E21LALIFT
 62
13
 10
295.278
 20
-1627.472
 30
3196.000
 70
    32
  0
VERTEX
  8
E21LALIFT
 62
13
 10
293.083
 20
-1626.720
 30
3196.500
 70
    32
  0
VERTEX
  8
E21LALIFT
 62
13
 10
289.125
 20
-1621.199
 30
3199.000
 70
    32
  0
VERTEX
  8
E21LALIFT
 62
13
 10
286.585
 20
-1610.906
 30
3202.000
 70
    32
  0
VERTEX
  8
E21LALIFT
 62
13
 10
277.548
 20
-1606.641
 30
3203.000
 70
    32
  0
VERTEX
  8
E21LALIFT
 62
13
 10
272.912
 20
-1597.532
 30
3204.000
 70
    32
  0
SEQEND
  8
E21LALIFT
  0
POLYLINE
  8
E21LALIFT
 62
13
 66
     1
 70
     9
  0
VERTEX
  8
E21LALIFT
 62
13
 10
201.726
 20
-1460.341
 30
3208.000
 70
    32
  0
VERTEX
  8
E21LALIFT
 62
13
 10
196.680
 20
-1440.745
 30
3208.500
 70
    32
  0
VERTEX
  8
E21LALIFT
 62
13
 10
196.718
 20
-1438.890
 30
3208.000
 70
    32
  0
VERTEX
  8
E21LALIFT
 62
13
 10
196.895
 20
-1424.939
 30
3208.000
 70
    32
  0
VERTEX
  8
E21LALIFT
 62
13
 10
196.899
 20
-1422.876
 30
3207.000
 70
    32
  0
VERTEX
  8
E21LALIFT
 62
13
 10
217.937
 20
-1430.261
 30
3206.000
 70
    32
  0
VERTEX
  8
E21LALIFT
 62
13
 10
218.986
 20
-1430.588
 30
3205.540
 70
    32
  0
VERTEX
  8
E21LALIFT
 62
13
 10
262.432
 20
-1491.601
 30
3205.535
 70
    32
  0
VERTEX
  8
E21LALIFT
 62
13
 10
268.855
 20
-1507.598
 30
3205.532
 70
    32
  0
VERTEX
  8
E21LALIFT
 62
13
 10
278.536
 20
-1519.370
 30
3205.533
 70
    32
  0
VERTEX
  8
E21LALIFT
 62
13
 10
277.181
 20
-1521.719
 30
3205.531
 70
    32
  0
VERTEX
  8
E21LALIFT
 62
13
 10
283.629
 20
-1527.065
 30
3205.533
 70
    32
  0
VERTEX
  8
E21LALIFT
 62
13
 10
283.714
 20
-1529.476
 30
3205.531
 70
    32
  0
VERTEX
  8
E21LALIFT
 62
13
 10
291.586
 20
-1534.355
 30
3205.162
 70
    32
  0
VERTEX
  8
E21LALIFT
 62
13
 10
287.021
 20
-1533.766
 30
3204.500
 70
    32
  0
VERTEX
  8
E21LALIFT
 62
13
 10
278.073
 20
-1530.487
 30
3205.000
 70
    32
  0
VERTEX
  8
E21LALIFT
 62
13
 10
276.472
 20
-1533.066
 30
3205.000
 70
    32
  0
VERTEX
  8
E21LALIFT
 62
13
 10
254.463
 20
-1528.219
 30
3205.000
 70
    32
  0
VERTEX
  8
E21LALIFT
 62
13
 10
251.797
 20
-1526.947
 30
3205.500
 70
    32
  0
VERTEX
  8
E21LALIFT
 62
13
 10
237.076
 20
-1520.007
 30
3206.750
 70
    32
  0
VERTEX
  8
E21LALIFT
 62
13
 10
231.223
 20
-1517.157
 30
3207.000
 70
    32
  0
VERTEX
  8
E21LALIFT
 62
13
 10
206.497
 20
-1496.865
 30
3208.000
 70
    32
  0
VERTEX
  8
E21LALIFT
 62
13
 10
206.075
 20
-1495.887
 30
3208.000
 70
    32
  0
VERTEX
  8
E21LALIFT
 62
13
 10
201.455
 20
-1487.750
 30
3209.000
 70
    32
  0
VERTEX
  8
E21LALIFT
 62
13
 10
202.087
 20
-1482.717
 30
3209.000
 70
    32
  0
SEQEND
  8
E21LALIFT
  0
POLYLINE
  8
E21LALIFT
 62
13
 66
     1
 70
     9
  0
VERTEX
  8
E21LALIFT
 62
13
 10
326.100
 20
-1496.515
 30
3206.500
 70
    32
  0
VERTEX
  8
E21LALIFT
 62
13
 10
331.269
 20
-1504.920
 30
3204.000
 70
    32
  0
VERTEX
  8
E21LALIFT
 62
13
 10
341.921
 20
-1522.505
 30
3203.000
 70
    32
  0
VERTEX
  8
E21LALIFT
 62
13
 10
344.492
 20
-1533.169
 30
3203.000
 70
    32
  0
VERTEX
  8
E21LALIFT
 62
13
 10
335.096
 20
-1545.094
 30
3202.700
 70
    32
  0
VERTEX
  8
E21LALIFT
 62
13
 10
325.584
 20
-1563.175
 30
3202.000
 70
    32
  0
VERTEX
  8
E21LALIFT
 62
13
 10
324.174
 20
-1566.209
 30
3202.000
 70
    32
  0
VERTEX
  8
E21LALIFT
 62
13
 10
322.215
 20
-1565.868
 30
3203.452
 70
    32
  0
VERTEX
  8
E21LALIFT
 62
13
 10
320.866
 20
-1564.562
 30
3203.511
 70
    32
  0
VERTEX
  8
E21LALIFT
 62
13
 10
315.698
 20
-1542.956
 30
3204.564
 70
    32
  0
VERTEX
  8
E21LALIFT
 62
13
 10
301.737
 20
-1529.880
 30
3205.238
 70
    32
  0
VERTEX
  8
E21LALIFT
 62
13
 10
294.182
 20
-1516.416
 30
3205.552
 70
    32
  0
VERTEX
  8
E21LALIFT
 62
13
 10
293.165
 20
-1515.735
 30
3205.551
 70
    32
  0
VERTEX
  8
E21LALIFT
 62
13
 10
290.728
 20
-1516.698
 30
3205.546
 70
    32
  0
VERTEX
  8
E21LALIFT
 62
13
 10
284.219
 20
-1506.991
 30
3205.546
 70
    32
  0
VERTEX
  8
E21LALIFT
 62
13
 10
277.649
 20
-1501.624
 30
3205.542
 70
    32
  0
VERTEX
  8
E21LALIFT
 62
13
 10
270.449
 20
-1485.744
 30
3205.546
 70
    32
  0
VERTEX
  8
E21LALIFT
 62
13
 10
263.406
 20
-1475.864
 30
3205.546
 70
    32
  0
VERTEX
  8
E21LALIFT
 62
13
 10
263.222
 20
-1425.902
 30
3207.000
 70
    32
  0
VERTEX
  8
E21LALIFT
 62
13
 10
263.176
 20
-1425.612
 30
3206.000
 70
    32
  0
VERTEX
  8
E21LALIFT
 62
13
 10
263.815
 20
-1416.551
 30
3206.000
 70
    32
  0
VERTEX
  8
E21LALIFT
 62
13
 10
271.561
 20
-1401.496
 30
3207.500
 70
    32
  0
VERTEX
  8
E21LALIFT
 62
13
 10
273.233
 20
-1400.610
 30
3208.000
 70
    32
  0
VERTEX
  8
E21LALIFT
 62
13
 10
284.234
 20
-1409.082
 30
3208.000
 70
    32
  0
VERTEX
  8
E21LALIFT
 62
13
 10
292.528
 20
-1421.429
 30
3208.000
 70
    32
  0
VERTEX
  8
E21LALIFT
 62
13
 10
296.874
 20
-1425.915
 30
3208.500
 70
    32
  0
VERTEX
  8
E21LALIFT
 62
13
 10
309.033
 20
-1463.514
 30
3207.000
 70
    32
  0
VERTEX
  8
E21LALIFT
 62
13
 10
317.531
 20
-1484.302
 30
3207.000
 70
    32
  0
VERTEX
  8
E21LALIFT
 62
13
 10
325.227
 20
-1495.315
 30
3207.000
 70
    32
  0
SEQEND
  8
E21LALIFT
  0
POLYLINE
  8
E21LALIFT
 62
13
 66
     1
 70
     9
  0
VERTEX
  8
E21LALIFT
 62
13
 10
373.610
 20
-1567.007
 30
3203.000
 70
    32
  0
VERTEX
  8
E21LALIFT
 62
13
 10
381.111
 20
-1581.191
 30
3203.000
 70
    32
  0
VERTEX
  8
E21LALIFT
 62
13
 10
384.409
 20
-1594.026
 30
3203.000
 70
    32
  0
VERTEX
  8
E21LALIFT
 62
13
 10
375.066
 20
-1596.587
 30
3203.000
 70
    32
  0
VERTEX
  8
E21LALIFT
 62
13
 10
355.275
 20
-1599.108
 30
3202.250
 70
    32
  0
VERTEX
  8
E21LALIFT
 62
13
 10
352.396
 20
-1598.985
 30
3202.000
 70
    32
  0
VERTEX
  8
E21LALIFT
 62
13
 10
341.816
 20
-1598.911
 30
3201.000
 70
    32
  0
VERTEX
  8
E21LALIFT
 62
13
 10
336.867
 20
-1599.816
 30
3200.500
 70
    32
  0
VERTEX
  8
E21LALIFT
 62
13
 10
327.011
 20
-1604.281
 30
3200.000
 70
    32
  0
VERTEX
  8
E21LALIFT
 62
13
 10
322.876
 20
-1599.779
 30
3200.000
 70
    32
  0
VERTEX
  8
E21LALIFT
 62
13
 10
320.260
 20
-1598.504
 30
3200.000
 70
    32
  0
VERTEX
  8
E21LALIFT
 62
13
 10
320.508
 20
-1596.719
 30
3200.500
 70
    32
  0
VERTEX
  8
E21LALIFT
 62
13
 10
322.926
 20
-1594.050
 30
3201.000
 70
    32
  0
VERTEX
  8
E21LALIFT
 62
13
 10
325.350
 20
-1587.725
 30
3202.000
 70
    32
  0
VERTEX
  8
E21LALIFT
 62
13
 10
344.370
 20
-1549.418
 30
3203.000
 70
    32
  0
VERTEX
  8
E21LALIFT
 62
13
 10
354.054
 20
-1539.303
 30
3203.000
 70
    32
  0
VERTEX
  8
E21LALIFT
 62
13
 10
357.555
 20
-1540.926
 30
3203.000
 70
    32
  0
VERTEX
  8
E21LALIFT
 62
13
 10
368.026
 20
-1554.072
 30
3203.000
 70
    32
  0
VERTEX
  8
E21LALIFT
 62
13
 10
372.121
 20
-1556.269
 30
3203.000
 70
    32
  0
VERTEX
  8
E21LALIFT
 62
13
 10
374.217
 20
-1559.712
 30
3203.000
 70
    32
  0
VERTEX
  8
E21LALIFT
 62
13
 10
372.509
 20
-1560.752
 30
3203.000
 70
    32
  0
VERTEX
  8
E21LALIFT
 62
13
 10
373.576
 20
-1566.813
 30
3203.000
 70
    32
  0
SEQEND
  8
E21LALIFT
  0
POLYLINE
  8
E21LALIFT
 62
13
 66
     1
 70
     9
  0
VERTEX
  8
E21LALIFT
 62
13
 10
282.380
 20
-1661.148
 30
3197.228
 70
    32
  0
VERTEX
  8
E21LALIFT
 62
13
 10
288.615
 20
-1662.350
 30
3196.176
 70
    32
  0
VERTEX
  8
E21LALIFT
 62
13
 10
308.979
 20
-1666.278
 30
3196.078
 70
    32
  0
VERTEX
  8
E21LALIFT
 62
13
 10
318.569
 20
-1670.594
 30
3196.099
 70
    32
  0
VERTEX
  8
E21LALIFT
 62
13
 10
332.107
 20
-1659.455
 30
3196.023
 70
    32
  0
VERTEX
  8
E21LALIFT
 62
13
 10
347.261
 20
-1661.144
 30
3195.990
 70
    32
  0
VERTEX
  8
E21LALIFT
 62
13
 10
349.483
 20
-1648.731
 30
3195.990
 70
    32
  0
VERTEX
  8
E21LALIFT
 62
13
 10
331.487
 20
-1647.430
 30
3195.992
 70
    32
  0
VERTEX
  8
E21LALIFT
 62
13
 10
326.466
 20
-1642.585
 30
3195.993
 70
    32
  0
VERTEX
  8
E21LALIFT
 62
13
 10
315.838
 20
-1641.649
 30
3195.996
 70
    32
  0
VERTEX
  8
E21LALIFT
 62
13
 10
314.862
 20
-1641.622
 30
3196.000
 70
    32
  0
VERTEX
  8
E21LALIFT
 62
13
 10
310.582
 20
-1633.461
 30
3196.000
 70
    32
  0
VERTEX
  8
E21LALIFT
 62
13
 10
307.208
 20
-1626.457
 30
3196.000
 70
    32
  0
VERTEX
  8
E21LALIFT
 62
13
 10
308.175
 20
-1623.767
 30
3197.000
 70
    32
  0
VERTEX
  8
E21LALIFT
 62
13
 10
316.139
 20
-1619.666
 30
3198.000
 70
    32
  0
VERTEX
  8
E21LALIFT
 62
13
 10
328.757
 20
-1614.547
 30
3200.000
 70
    32
  0
VERTEX
  8
E21LALIFT
 62
13
 10
339.472
 20
-1611.303
 30
3201.000
 70
    32
  0
VERTEX
  8
E21LALIFT
 62
13
 10
356.938
 20
-1608.035
 30
3202.000
 70
    32
  0
VERTEX
  8
E21LALIFT
 62
13
 10
375.990
 20
-1605.932
 30
3203.000
 70
    32
  0
VERTEX
  8
E21LALIFT
 62
13
 10
386.580
 20
-1608.974
 30
3202.500
 70
    32
  0
VERTEX
  8
E21LALIFT
 62
13
 10
393.982
 20
-1612.836
 30
3202.500
 70
    32
  0
VERTEX
  8
E21LALIFT
 62
13
 10
406.251
 20
-1620.624
 30
3202.500
 70
    32
  0
VERTEX
  8
E21LALIFT
 62
13
 10
418.844
 20
-1635.539
 30
3202.000
 70
    32
  0
VERTEX
  8
E21LALIFT
 62
13
 10
426.842
 20
-1644.706
 30
3202.000
 70
    32
  0
VERTEX
  8
E21LALIFT
 62
13
 10
435.193
 20
-1639.175
 30
3202.000
 70
    32
  0
VERTEX
  8
E21LALIFT
 62
13
 10
424.055
 20
-1624.676
 30
3202.500
 70
    32
  0
VERTEX
  8
E21LALIFT
 62
13
 10
412.410
 20
-1610.551
 30
3203.000
 70
    32
  0
VERTEX
  8
E21LALIFT
 62
13
 10
413.042
 20
-1604.688
 30
3203.000
 70
    32
  0
VERTEX
  8
E21LALIFT
 62
13
 10
413.072
 20
-1595.453
 30
3203.000
 70
    32
  0
VERTEX
  8
E21LALIFT
 62
13
 10
403.057
 20
-1596.217
 30
3203.000
 70
    32
  0
VERTEX
  8
E21LALIFT
 62
13
 10
400.903
 20
-1592.440
 30
3203.000
 70
    32
  0
VERTEX
  8
E21LALIFT
 62
13
 10
394.707
 20
-1575.109
 30
3203.000
 70
    32
  0
VERTEX
  8
E21LALIFT
 62
13
 10
386.948
 20
-1562.937
 30
3203.000
 70
    32
  0
VERTEX
  8
E21LALIFT
 62
13
 10
378.519
 20
-1545.224
 30
3203.000
 70
    32
  0
VERTEX
  8
E21LALIFT
 62
13
 10
366.990
 20
-1533.710
 30
3203.000
 70
    32
  0
VERTEX
  8
E21LALIFT
 62
13
 10
364.675
 20
-1528.641
 30
3203.000
 70
    32
  0
VERTEX
  8
E21LALIFT
 62
13
 10
365.692
 20
-1524.098
 30
3203.000
 70
    32
  0
VERTEX
  8
E21LALIFT
 62
13
 10
361.112
 20
-1518.736
 30
3203.000
 70
    32
  0
VERTEX
  8
E21LALIFT
 62
13
 10
356.409
 20
-1515.669
 30
3203.000
 70
    32
  0
VERTEX
  8
E21LALIFT
 62
13
 10
346.548
 20
-1505.104
 30
3204.000
 70
    32
  0
VERTEX
  8
E21LALIFT
 62
13
 10
335.088
 20
-1490.895
 30
3206.500
 70
    32
  0
VERTEX
  8
E21LALIFT
 62
13
 10
333.948
 20
-1488.915
 30
3207.000
 70
    32
  0
VERTEX
  8
E21LALIFT
 62
13
 10
319.627
 20
-1464.041
 30
3207.000
 70
    32
  0
VERTEX
  8
E21LALIFT
 62
13
 10
319.249
 20
-1463.385
 30
3208.000
 70
    32
  0
VERTEX
  8
E21LALIFT
 62
13
 10
318.923
 20
-1456.718
 30
3208.000
 70
    32
  0
VERTEX
  8
E21LALIFT
 62
13
 10
309.762
 20
-1424.940
 30
3208.000
 70
    32
  0
VERTEX
  8
E21LALIFT
 62
13
 10
300.887
 20
-1415.214
 30
3208.000
 70
    32
  0
VERTEX
  8
E21LALIFT
 62
13
 10
293.307
 20
-1401.385
 30
3208.000
 70
    32
  0
VERTEX
  8
E21LALIFT
 62
13
 10
294.185
 20
-1397.000
 30
3208.000
 70
    32
  0
VERTEX
  8
E21LALIFT
 62
13
 10
281.362
 20
-1386.986
 30
3208.000
 70
    32
  0
VERTEX
  8
E21LALIFT
 62
13
 10
271.577
 20
-1379.733
 30
3208.000
 70
    32
  0
VERTEX
  8
E21LALIFT
 62
13
 10
264.837
 20
-1374.949
 30
3208.000
 70
    32
  0
VERTEX
  8
E21LALIFT
 62
13
 10
265.296
 20
-1367.612
 30
3209.000
 70
    32
  0
VERTEX
  8
E21LALIFT
 62
13
 10
260.427
 20
-1366.474
 30
3208.500
 70
    32
  0
VERTEX
  8
E21LALIFT
 62
13
 10
249.930
 20
-1358.236
 30
3208.000
 70
    32
  0
VERTEX
  8
E21LALIFT
 62
13
 10
243.443
 20
-1350.650
 30
3208.000
 70
    32
  0
VERTEX
  8
E21LALIFT
 62
13
 10
233.030
 20
-1355.528
 30
3208.000
 70
    32
  0
VERTEX
  8
E21LALIFT
 62
13
 10
228.490
 20
-1362.642
 30
3208.000
 70
    32
  0
VERTEX
  8
E21LALIFT
 62
13
 10
207.675
 20
-1368.549
 30
3208.000
 70
    32
  0
VERTEX
  8
E21LALIFT
 62
13
 10
201.722
 20
-1368.894
 30
3208.000
 70
    32
  0
VERTEX
  8
E21LALIFT
 62
13
 10
202.805
 20
-1362.059
 30
3208.000
 70
    32
  0
VERTEX
  8
E21LALIFT
 62
13
 10
203.696
 20
-1356.437
 30
3208.000
 70
    32
  0
VERTEX
  8
E21LALIFT
 62
13
 10
208.350
 20
-1343.829
 30
3209.000
 70
    32
  0
VERTEX
  8
E21LALIFT
 62
13
 10
214.990
 20
-1329.623
 30
3210.000
 70
    32
  0
VERTEX
  8
E21LALIFT
 62
13
 10
203.186
 20
-1327.461
 30
3210.000
 70
    32
  0
VERTEX
  8
E21LALIFT
 62
13
 10
197.876
 20
-1338.143
 30
3209.000
 70
    32
  0
VERTEX
  8
E21LALIFT
 62
13
 10
195.266
 20
-1346.864
 30
3209.000
 70
    32
  0
VERTEX
  8
E21LALIFT
 62
13
 10
189.034
 20
-1365.675
 30
3207.500
 70
    32
  0
VERTEX
  8
E21LALIFT
 62
13
 10
187.329
 20
-1370.322
 30
3207.000
 70
    32
  0
VERTEX
  8
E21LALIFT
 62
13
 10
177.842
 20
-1383.289
 30
3207.000
 70
    32
  0
VERTEX
  8
E21LALIFT
 62
13
 10
183.190
 20
-1397.447
 30
3207.000
 70
    32
  0
VERTEX
  8
E21LALIFT
 62
13
 10
183.209
 20
-1420.096
 30
3207.000
 70
    32
  0
VERTEX
  8
E21LALIFT
 62
13
 10
184.478
 20
-1423.552
 30
3207.000
 70
    32
  0
VERTEX
  8
E21LALIFT
 62
13
 10
185.403
 20
-1440.777
 30
3208.000
 70
    32
  0
VERTEX
  8
E21LALIFT
 62
13
 10
185.682
 20
-1441.119
 30
3208.500
 70
    32
  0
VERTEX
  8
E21LALIFT
 62
13
 10
188.497
 20
-1456.121
 30
3209.000
 70
    32
  0
VERTEX
  8
E21LALIFT
 62
13
 10
189.007
 20
-1484.970
 30
3209.500
 70
    32
  0
VERTEX
  8
E21LALIFT
 62
13
 10
189.373
 20
-1498.907
 30
3209.000
 70
    32
  0
VERTEX
  8
E21LALIFT
 62
13
 10
195.027
 20
-1508.030
 30
3208.000
 70
    32
  0
VERTEX
  8
E21LALIFT
 62
13
 10
197.729
 20
-1509.891
 30
3208.000
 70
    32
  0
VERTEX
  8
E21LALIFT
 62
13
 10
205.958
 20
-1515.561
 30
3208.000
 70
    32
  0
VERTEX
  8
E21LALIFT
 62
13
 10
219.393
 20
-1522.578
 30
3207.000
 70
    32
  0
VERTEX
  8
E21LALIFT
 62
13
 10
231.385
 20
-1533.356
 30
3206.000
 70
    32
  0
VERTEX
  8
E21LALIFT
 62
13
 10
223.962
 20
-1539.221
 30
3207.000
 70
    32
  0
VERTEX
  8
E21LALIFT
 62
13
 10
223.891
 20
-1542.421
 30
3207.000
 70
    32
  0
VERTEX
  8
E21LALIFT
 62
13
 10
223.600
 20
-1548.747
 30
3207.000
 70
    32
  0
VERTEX
  8
E21LALIFT
 62
13
 10
235.457
 20
-1547.204
 30
3206.000
 70
    32
  0
VERTEX
  8
E21LALIFT
 62
13
 10
242.133
 20
-1553.974
 30
3205.000
 70
    32
  0
VERTEX
  8
E21LALIFT
 62
13
 10
244.338
 20
-1556.210
 30
3205.000
 70
    32
  0
VERTEX
  8
E21LALIFT
 62
13
 10
238.454
 20
-1561.058
 30
3205.000
 70
    32
  0
VERTEX
  8
E21LALIFT
 62
13
 10
241.021
 20
-1570.200
 30
3205.000
 70
    32
  0
VERTEX
  8
E21LALIFT
 62
13
 10
246.032
 20
-1569.048
 30
3205.000
 70
    32
  0
VERTEX
  8
E21LALIFT
 62
13
 10
250.183
 20
-1575.279
 30
3205.000
 70
    32
  0
VERTEX
  8
E21LALIFT
 62
13
 10
255.889
 20
-1584.399
 30
3205.000
 70
    32
  0
VERTEX
  8
E21LALIFT
 62
13
 10
262.598
 20
-1601.694
 30
3202.500
 70
    32
  0
VERTEX
  8
E21LALIFT
 62
13
 10
264.223
 20
-1608.876
 30
3203.000
 70
    32
  0
VERTEX
  8
E21LALIFT
 62
13
 10
271.709
 20
-1629.952
 30
3199.000
 70
    32
  0
VERTEX
  8
E21LALIFT
 62
13
 10
270.670
 20
-1651.987
 30
3198.062
 70
    32
  0
SEQEND
  8
E21LALIFT
  0
POLYLINE
  8
E21LALIFT
 62
13
 66
     1
 70
     9
  0
VERTEX
  8
E21LALIFT
 62
13
 10
245.520
 20
-1412.328
 30
3207.000
 70
    32
  0
VERTEX
  8
E21LALIFT
 62
13
 10
251.831
 20
-1447.063
 30
3205.545
 70
    32
  0
VERTEX
  8
E21LALIFT
 62
13
 10
249.373
 20
-1448.376
 30
3205.545
 70
    32
  0
VERTEX
  8
E21LALIFT
 62
13
 10
226.202
 20
-1416.510
 30
3205.540
 70
    32
  0
VERTEX
  8
E21LALIFT
 62
13
 10
224.761
 20
-1414.287
 30
3206.000
 70
    32
  0
VERTEX
  8
E21LALIFT
 62
13
 10
214.758
 20
-1417.308
 30
3206.000
 70
    32
  0
VERTEX
  8
E21LALIFT
 62
13
 10
207.153
 20
-1413.879
 30
3206.500
 70
    32
  0
VERTEX
  8
E21LALIFT
 62
13
 10
198.685
 20
-1405.448
 30
3206.750
 70
    32
  0
VERTEX
  8
E21LALIFT
 62
13
 10
196.121
 20
-1399.065
 30
3207.000
 70
    32
  0
VERTEX
  8
E21LALIFT
 62
13
 10
194.549
 20
-1388.146
 30
3207.000
 70
    32
  0
VERTEX
  8
E21LALIFT
 62
13
 10
194.413
 20
-1387.204
 30
3207.000
 70
    32
  0
VERTEX
  8
E21LALIFT
 62
13
 10
198.951
 20
-1382.224
 30
3207.000
 70
    32
  0
VERTEX
  8
E21LALIFT
 62
13
 10
215.708
 20
-1380.199
 30
3207.000
 70
    32
  0
VERTEX
  8
E21LALIFT
 62
13
 10
228.683
 20
-1379.489
 30
3207.000
 70
    32
  0
VERTEX
  8
E21LALIFT
 62
13
 10
240.664
 20
-1380.540
 30
3208.000
 70
    32
  0
VERTEX
  8
E21LALIFT
 62
13
 10
246.161
 20
-1386.438
 30
3208.000
 70
    32
  0
VERTEX
  8
E21LALIFT
 62
13
 10
249.850
 20
-1395.312
 30
3208.000
 70
    32
  0
VERTEX
  8
E21LALIFT
 62
13
 10
249.469
 20
-1400.959
 30
3208.000
 70
    32
  0
VERTEX
  8
E21LALIFT
 62
13
 10
252.866
 20
-1404.784
 30
3208.000
 70
    32
  0
VERTEX
  8
E21LALIFT
 62
13
 10
252.750
 20
-1409.481
 30
3208.000
 70
    32
  0
VERTEX
  8
E21LALIFT
 62
13
 10
248.138
 20
-1411.421
 30
3208.000
 70
    32
  0
SEQEND
  8
E21LALIFT
  0
POINT
  8
E21LALIFT
 62
3
 10
188.357
 20
-1376.973
 30
3207.223
  0
POINT
  8
E21LALIFT
 62
3
 10
188.357
 20
-1376.973
 30
3207.223
  0
POLYLINE
  8
E21LALIFT
 62
3
 66
     1
 70
     9
  0
VERTEX
  8
E21LALIFT
 62
3
 10
188.357
 20
-1374.763
 30
3207.223
 70
    32
  0
VERTEX
  8
E21LALIFT
 62
3
 10
190.106
 20
-1377.943
 30
3207.223
 70
    32
  0
VERTEX
  8
E21LALIFT
 62
3
 10
186.607
 20
-1377.941
 30
3207.223
 70
    32
  0
SEQEND
  8
E21LALIFT
  0
POLYLINE
  8
E21LALIFT
 62
3
 66
     1
 70
     9
  0
VERTEX
  8
E21LALIFT
 62
3
 10
188.357
 20
-1374.763
 30
3207.223
 70
    32
  0
VERTEX
  8
E21LALIFT
 62
3
 10
190.106
 20
-1377.943
 30
3207.223
 70
    32
  0
VERTEX
  8
E21LALIFT
 62
3
 10
186.607
 20
-1377.941
 30
3207.223
 70
    32
  0
SEQEND
  8
E21LALIFT
  0
POINT
  8
E21LALIFT
 62
3
 10
184.317
 20
-1391.554
 30
3207.304
  0
POLYLINE
  8
E21LALIFT
 62
3
 66
     1
 70
     9
  0
VERTEX
  8
E21LALIFT
 62
3
 10
184.317
 20
-1389.344
 30
3207.304
 70
    32
  0
VERTEX
  8
E21LALIFT
 62
3
 10
186.066
 20
-1392.524
 30
3207.304
 70
    32
  0
VERTEX
  8
E21LALIFT
 62
3
 10
182.567
 20
-1392.522
 30
3207.304
 70
    32
  0
SEQEND
  8
E21LALIFT
  0
TEXT
  8
E21LALIFT
 62
27
 10
221.474
 20
-1373.326
 30
3220.192
 40
1.575
  1
3220.1917
 41
 1.0 
  0
POLYLINE
  8
E21LALIFT
 62
27
 66
     1
 70
     9
  0
VERTEX
  8
E21LALIFT
 62
27
 10
239.159
 20
-1377.889
 30
3221.608
 70
    32
  0
VERTEX
  8
E21LALIFT
 62
27
 10
237.159
 20
-1381.355
 30
3221.608
 70
    32
  0
VERTEX
  8
E21LALIFT
 62
27
 10
241.159
 20
-1381.355
 30
3221.608
 70
    32
  0
SEQEND
  8
E21LALIFT
  0
POINT
  8
E21LALIFT
 62
27
 10
239.159
 20
-1379.622
 30
3221.608
  0
TEXT
  8
E21LALIFT
 62
27
 10
240.159
 20
-1379.622
 30
3221.608
 40
1.575
  1
ST-867S
 41
 1.0 
  0
TEXT
  8
E21LALIFT
 62
27
 10
241.257
 20
-1381.690
 30
3221.608
 40
1.575
  1
3221.608
 41
 1.0 
  0
TEXT
  8
E21LALIFT
 62
11
 10
255.095
 20
-1383.087
 30
3219.743
 40
1.575
  1
3219.7429
 41
 1.0 
  0
TEXT
  8
E21LALIFT
 62
27
 10
252.995
 20
-1385.753
 30
3220.119
 40
1.575
  1
ST-867T
 41
 1.0 
  0
TEXT
  8
E21LALIFT
 62
27
 10
254.582
 20
-1388.431
 30
3220.119
 40
1.575
  1
3220.1194
 41
 1.0 
  0
POLYLINE
  8
E21LALIFT
 62
27
 66
     1
 70
     9
  0
VERTEX
  8
E21LALIFT
 62
27
 10
251.995
 20
-1384.020
 30
3220.119
 70
    32
  0
VERTEX
  8
E21LALIFT
 62
27
 10
249.995
 20
-1387.486
 30
3220.119
 70
    32
  0
VERTEX
  8
E21LALIFT
 62
27
 10
253.995
 20
-1387.486
 30
3220.119
 70
    32
  0
SEQEND
  8
E21LALIFT
  0
POINT
  8
E21LALIFT
 62
27
 10
251.995
 20
-1385.753
 30
3220.119
  0
TEXT
  8
E21LALIFT
 62
27
 10
239.781
 20
-1431.688
 30
3212.036
 40
1.575
  1
3212.0361
 41
 1.0 
  0
TEXT
  8
E21LALIFT
 62
27
 10
240.588
 20
-1434.146
 30
3212.036
 40
1.575
  1
ST-862S
 41
 1.0 
  0
POINT
  8
E21LALIFT
 62
27
 10
257.266
 20
-1432.077
 30
3212.036
  0
POLYLINE
  8
E21LALIFT
 62
27
 66
     1
 70
     9
  0
VERTEX
  8
E21LALIFT
 62
27
 10
257.266
 20
-1430.344
 30
3212.036
 70
    32
  0
VERTEX
  8
E21LALIFT
 62
27
 10
255.266
 20
-1433.810
 30
3212.036
 70
    32
  0
VERTEX
  8
E21LALIFT
 62
27
 10
259.266
 20
-1433.810
 30
3212.036
 70
    32
  0
SEQEND
  8
E21LALIFT
  0
POINT
  8
E21LALIFT
 62
27
 10
259.255
 20
-1478.930
 30
3208.063
  0
POLYLINE
  8
E21LALIFT
 62
27
 66
     1
 70
     9
  0
VERTEX
  8
E21LALIFT
 62
27
 10
259.203
 20
-1476.979
 30
3208.063
 70
    32
  0
VERTEX
  8
E21LALIFT
 62
27
 10
260.952
 20
-1480.159
 30
3208.063
 70
    32
  0
VERTEX
  8
E21LALIFT
 62
27
 10
257.453
 20
-1480.158
 30
3208.063
 70
    32
  0
SEQEND
  8
E21LALIFT
  0
TEXT
  8
E21LALIFT
 62
27
 10
262.281
 20
-1480.639
 30
3207.899
 40
1.575
  1
3205.489
 41
 1.0 
  0
TEXT
  8
E21LALIFT
 62
27
 10
261.736
 20
-1478.320
 30
3207.899
 40
1.575
  1
ST-50R
 41
 1.0 
  0
POLYLINE
  8
E21LALIFT
 62
3
 66
     1
 70
     9
  0
VERTEX
  8
E21LALIFT
 62
3
 10
218.210
 20
-1511.863
 30
3209.376
 70
    32
  0
VERTEX
  8
E21LALIFT
 62
3
 10
219.959
 20
-1515.043
 30
3209.376
 70
    32
  0
VERTEX
  8
E21LALIFT
 62
3
 10
216.460
 20
-1515.041
 30
3209.376
 70
    32
  0
SEQEND
  8
E21LALIFT
  0
POLYLINE
  8
E21LALIFT
 62
3
 66
     1
 70
     9
  0
VERTEX
  8
E21LALIFT
 62
3
 10
213.528
 20
-1508.922
 30
3208.355
 70
    32
  0
VERTEX
  8
E21LALIFT
 62
3
 10
215.277
 20
-1512.102
 30
3208.355
 70
    32
  0
VERTEX
  8
E21LALIFT
 62
3
 10
211.778
 20
-1512.100
 30
3208.355
 70
    32
  0
SEQEND
  8
E21LALIFT
  0
POINT
  8
E21LALIFT
 62
3
 10
213.528
 20
-1511.132
 30
3208.355
  0
POINT
  8
E21LALIFT
 62
3
 10
218.210
 20
-1514.073
 30
3209.376
  0
POINT
  8
E21LALIFT
 62
3
 10
249.637
 20
-1549.123
 30
3204.520
  0
POLYLINE
  8
E21LALIFT
 62
3
 66
     1
 70
     9
  0
VERTEX
  8
E21LALIFT
 62
3
 10
249.637
 20
-1546.913
 30
3204.520
 70
    32
  0
VERTEX
  8
E21LALIFT
 62
3
 10
251.386
 20
-1550.093
 30
3204.520
 70
    32
  0
VERTEX
  8
E21LALIFT
 62
3
 10
247.887
 20
-1550.091
 30
3204.520
 70
    32
  0
SEQEND
  8
E21LALIFT
  0
POLYLINE
  8
E21LALIFT
 62
3
 66
     1
 70
     9
  0
VERTEX
  8
E21LALIFT
 62
3
 10
253.839
 20
-1556.340
 30
3204.425
 70
    32
  0
VERTEX
  8
E21LALIFT
 62
3
 10
255.588
 20
-1559.520
 30
3204.425
 70
    32
  0
VERTEX
  8
E21LALIFT
 62
3
 10
252.089
 20
-1559.518
 30
3204.425
 70
    32
  0
SEQEND
  8
E21LALIFT
  0
POINT
  8
E21LALIFT
 62
3
 10
253.839
 20
-1558.550
 30
3204.425
  0
POINT
  8
E21LALIFT
 62
3
 10
350.823
 20
-1532.948
 30
3203.151
  0
POLYLINE
  8
E21LALIFT
 62
3
 66
     1
 70
     9
  0
VERTEX
  8
E21LALIFT
 62
3
 10
350.823
 20
-1530.738
 30
3203.151
 70
    32
  0
VERTEX
  8
E21LALIFT
 62
3
 10
352.572
 20
-1533.918
 30
3203.151
 70
    32
  0
VERTEX
  8
E21LALIFT
 62
3
 10
349.073
 20
-1533.916
 30
3203.151
 70
    32
  0
SEQEND
  8
E21LALIFT
  0
POINT
  8
E21LALIFT
 62
3
 10
353.920
 20
-1526.374
 30
3203.371
  0
POINT
  8
E21LALIFT
 62
3
 10
351.676
 20
-1522.701
 30
3203.959
  0
POLYLINE
  8
E21LALIFT
 62
3
 66
     1
 70
     9
  0
VERTEX
  8
E21LALIFT
 62
3
 10
351.676
 20
-1520.491
 30
3203.959
 70
    32
  0
VERTEX
  8
E21LALIFT
 62
3
 10
353.425
 20
-1523.671
 30
3203.959
 70
    32
  0
VERTEX
  8
E21LALIFT
 62
3
 10
349.926
 20
-1523.669
 30
3203.959
 70
    32
  0
SEQEND
  8
E21LALIFT
  0
TEXT
  8
E21LALIFT
 62
1
 10
371.176
 20
-1617.195
 30
3203.133
 40
1.575
  1
3203.133
 50
29.946
 41
 1.0 
  0
TEXT
  8
E21LALIFT
 62
1
 10
368.963
 20
-1613.854
 30
3203.133
 40
1.575
  1
ST-979P
 50
29.946
 41
 1.0 
  0
POLYLINE
  8
E21LALIFT
 62
3
 66
     1
 70
     9
  0
VERTEX
  8
E21LALIFT
 62
3
 10
398.155
 20
-1606.798
 30
3202.543
 70
    32
  0
VERTEX
  8
E21LALIFT
 62
3
 10
399.904
 20
-1609.978
 30
3202.543
 70
    32
  0
VERTEX
  8
E21LALIFT
 62
3
 10
396.405
 20
-1609.976
 30
3202.543
 70
    32
  0
SEQEND
  8
E21LALIFT
  0
POINT
  8
E21LALIFT
 62
3
 10
398.155
 20
-1609.008
 30
3202.543
  0
POLYLINE
  8
E21LALIFT
 62
3
 66
     1
 70
     9
  0
VERTEX
  8
E21LALIFT
 62
3
 10
395.266
 20
-1595.804
 30
3203.133
 70
    32
  0
VERTEX
  8
E21LALIFT
 62
3
 10
397.015
 20
-1598.984
 30
3203.133
 70
    32
  0
VERTEX
  8
E21LALIFT
 62
3
 10
393.516
 20
-1598.982
 30
3203.133
 70
    32
  0
SEQEND
  8
E21LALIFT
  0
POINT
  8
E21LALIFT
 62
3
 10
395.266
 20
-1598.014
 30
3203.133
  0
POLYLINE
  8
E21LALIFT
 62
3
 66
     1
 70
     9
  0
VERTEX
  8
E21LALIFT
 62
3
 10
391.819
 20
-1589.954
 30
3203.205
 70
    32
  0
VERTEX
  8
E21LALIFT
 62
3
 10
393.568
 20
-1593.134
 30
3203.205
 70
    32
  0
VERTEX
  8
E21LALIFT
 62
3
 10
390.069
 20
-1593.132
 30
3203.205
 70
    32
  0
SEQEND
  8
E21LALIFT
  0
POINT
  8
E21LALIFT
 62
3
 10
391.819
 20
-1592.164
 30
3203.205
  0
TEXT
  8
E21LALIFT
 62
1
 10
396.810
 20
-1587.692
 30
3203.205
 40
1.575
  1
3203.205
 50
33.544
 41
 1.0 
  0
TEXT
  8
E21LALIFT
 62
1
 10
395.433
 20
-1583.805
 30
3203.205
 40
1.575
  1
ST-118R
 50
33.544
 41
 1.0 
  0
TEXT
  8
E21LALIFT
 62
1
 10
404.708
 20
-1609.740
 30
3202.543
 40
1.575
  1
3202.543
 41
 1.0 
  0
TEXT
  8
E21LALIFT
 62
1
 10
405.958
 20
-1605.740
 30
3202.543
 40
1.575
  1
ST-118Q
 41
 1.0 
  0
POINT
  8
E21LALIFT
 62
3
 10
187.311
 20
-1414.126
 30
3206.551
  0
POINT
  8
E21LALIFT
 62
3
 10
186.336
 20
-1411.255
 30
3206.111
  0
POLYLINE
  8
E21LALIFT
 62
3
 66
     1
 70
     9
  0
VERTEX
  8
E21LALIFT
 62
3
 10
187.311
 20
-1411.916
 30
3206.551
 70
    32
  0
VERTEX
  8
E21LALIFT
 62
3
 10
189.060
 20
-1415.096
 30
3206.551
 70
    32
  0
VERTEX
  8
E21LALIFT
 62
3
 10
185.561
 20
-1415.094
 30
3206.551
 70
    32
  0
SEQEND
  8
E21LALIFT
  0
POLYLINE
  8
E21LALIFT
 62
3
 66
     1
 70
     9
  0
VERTEX
  8
E21LALIFT
 62
3
 10
186.336
 20
-1409.045
 30
3206.111
 70
    32
  0
VERTEX
  8
E21LALIFT
 62
3
 10
188.085
 20
-1412.225
 30
3206.111
 70
    32
  0
VERTEX
  8
E21LALIFT
 62
3
 10
184.586
 20
-1412.223
 30
3206.111
 70
    32
  0
SEQEND
  8
E21LALIFT
  0
POLYLINE
  8
E21LALIFT
 62
1
 66
     1
 70
     9
  0
VERTEX
  8
E21LALIFT
 62
1
 10
251.963
 20
-1447.138
 30
3207.500
 70
    32
  0
VERTEX
  8
E21LALIFT
 62
1
 10
250.243
 20
-1436.261
 30
3211.000
 70
    32
  0
VERTEX
  8
E21LALIFT
 62
1
 10
248.095
 20
-1424.470
 30
3216.900
 70
    32
  0
VERTEX
  8
E21LALIFT
 62
1
 10
250.100
 20
-1417.544
 30
3219.179
 70
    32
  0
VERTEX
  8
E21LALIFT
 62
1
 10
249.817
 20
-1401.875
 30
3219.822
 70
    32
  0
VERTEX
  8
E21LALIFT
 62
1
 10
249.098
 20
-1398.434
 30
3219.822
 70
    32
  0
VERTEX
  8
E21LALIFT
 62
1
 10
231.476
 20
-1381.638
 30
3221.000
 70
    32
  0
VERTEX
  8
E21LALIFT
 62
1
 10
218.345
 20
-1381.761
 30
3221.000
 70
    32
  0
VERTEX
  8
E21LALIFT
 62
1
 10
207.171
 20
-1383.161
 30
3221.000
 70
    32
  0
VERTEX
  8
E21LALIFT
 62
1
 10
196.062
 20
-1384.728
 30
3221.000
 70
    32
  0
VERTEX
  8
E21LALIFT
 62
1
 10
194.507
 20
-1377.030
 30
3221.000
 70
    32
  0
VERTEX
  8
E21LALIFT
 62
1
 10
194.745
 20
-1369.332
 30
3221.000
 70
    32
  0
VERTEX
  8
E21LALIFT
 62
1
 10
217.687
 20
-1368.368
 30
3221.000
 70
    32
  0
VERTEX
  8
E21LALIFT
 62
1
 10
222.075
 20
-1364.093
 30
3221.000
 70
    32
  0
VERTEX
  8
E21LALIFT
 62
1
 10
229.412
 20
-1367.388
 30
3221.000
 70
    32
  0
VERTEX
  8
E21LALIFT
 62
1
 10
235.262
 20
-1363.859
 30
3221.000
 70
    32
  0
VERTEX
  8
E21LALIFT
 62
1
 10
245.252
 20
-1360.024
 30
3221.000
 70
    32
  0
VERTEX
  8
E21LALIFT
 62
1
 10
265.157
 20
-1378.421
 30
3221.000
 70
    32
  0
VERTEX
  8
E21LALIFT
 62
1
 10
267.492
 20
-1383.559
 30
3219.822
 70
    32
  0
VERTEX
  8
E21LALIFT
 62
1
 10
266.179
 20
-1394.489
 30
3219.822
 70
    32
  0
VERTEX
  8
E21LALIFT
 62
1
 10
267.607
 20
-1404.130
 30
3219.822
 70
    32
  0
VERTEX
  8
E21LALIFT
 62
1
 10
263.406
 20
-1415.515
 30
3219.822
 70
    32
  0
VERTEX
  8
E21LALIFT
 62
1
 10
262.870
 20
-1427.142
 30
3216.317
 70
    32
  0
VERTEX
  8
E21LALIFT
 62
1
 10
263.083
 20
-1436.902
 30
3211.000
 70
    32
  0
VERTEX
  8
E21LALIFT
 62
1
 10
263.248
 20
-1451.566
 30
3207.500
 70
    32
  0
SEQEND
  8
E21LALIFT
  0
TEXT
  8
E21LALIFT
 62
1
 10
167.488
 20
-1378.890
 30
3207.223
 40
1.575
  1
3207.223
 41
 1.0 
  0
TEXT
  8
E21LALIFT
 62
1
 10
167.457
 20
-1376.659
 30
3207.223
 40
1.575
  1
ST-203R
 41
 1.0 
  0
TEXT
  8
E21LALIFT
 62
1
 10
166.530
 20
-1392.316
 30
3207.304
 40
1.575
  1
ST-203Q
 41
 1.0 
  0
TEXT
  8
E21LALIFT
 62
1
 10
166.457
 20
-1394.541
 30
3207.304
 40
1.575
  1
3207.304
 41
 1.0 
  0
TEXT
  8
E21LALIFT
 62
1
 10
168.551
 20
-1419.833
 30
3206.551
 40
1.575
  1
3206.551
 50
3.931
 41
 1.0 
  0
TEXT
  8
E21LALIFT
 62
1
 10
168.387
 20
-1417.629
 30
3206.551
 40
1.575
  1
ST-248Q
 50
3.931
 41
 1.0 
  0
TEXT
  8
E21LALIFT
 62
1
 10
165.818
 20
-1413.713
 30
3206.111
 40
1.575
  1
3206.111
 50
3.931
 41
 1.0 
  0
TEXT
  8
E21LALIFT
 62
1
 10
165.731
 20
-1411.754
 30
3206.111
 40
1.575
  1
ST-248R
 50
3.931
 41
 1.0 
  0
TEXT
  8
E21LALIFT
 62
1
 10
197.036
 20
-1526.241
 30
3208.355
 40
1.575
  1
ST-610Q
 50
48.283
 41
 1.0 
  0
TEXT
  8
E21LALIFT
 62
1
 10
198.820
 20
-1527.621
 30
3208.355
 40
1.575
  1
3208.355
 50
48.283
 41
 1.0 
  0
TEXT
  8
E21LALIFT
 62
1
 10
205.692
 20
-1531.606
 30
3209.376
 40
1.575
  1
ST-610R
 50
48.283
 41
 1.0 
  0
TEXT
  8
E21LALIFT
 62
1
 10
207.292
 20
-1532.885
 30
3209.376
 40
1.575
  1
3209.376
 50
48.283
 41
 1.0 
  0
TEXT
  8
E21LALIFT
 62
1
 10
257.582
 20
-1557.707
 30
3204.425
 40
1.575
  1
ST-224Q
 41
 1.0 
  0
TEXT
  8
E21LALIFT
 62
1
 10
257.509
 20
-1559.932
 30
3204.425
 40
1.575
  1
3204.425
 41
 1.0 
  0
TEXT
  8
E21LALIFT
 62
1
 10
253.032
 20
-1549.954
 30
3204.520
 40
1.575
  1
3204.520
 41
 1.0 
  0
TEXT
  8
E21LALIFT
 62
1
 10
253.026
 20
-1547.900
 30
3204.520
 40
1.575
  1
ST-224R
 41
 1.0 
  0
POLYLINE
  8
E21LALIFT
 62
3
 66
     1
 70
     9
  0
VERTEX
  8
E21LALIFT
 62
3
 10
353.964
 20
-1524.262
 30
3203.371
 70
    32
  0
VERTEX
  8
E21LALIFT
 62
3
 10
355.713
 20
-1527.441
 30
3203.371
 70
    32
  0
VERTEX
  8
E21LALIFT
 62
3
 10
352.214
 20
-1527.440
 30
3203.371
 70
    32
  0
SEQEND
  8
E21LALIFT
  0
TEXT
  8
E21LALIFT
 62
1
 10
327.904
 20
-1535.785
 30
3203.151
 40
1.575
  1
3203.151
 41
 1.0 
  0
TEXT
  8
E21LALIFT
 62
1
 10
327.923
 20
-1533.914
 30
3203.151
 40
1.575
  1
ST-119Q
 41
 1.0 
  0
TEXT
  8
E21LALIFT
 62
1
 10
365.126
 20
-1522.357
 30
3203.371
 40
1.575
  1
ST-120Q
 50
32.161
 41
 1.0 
  0
TEXT
  8
E21LALIFT
 62
1
 10
366.070
 20
-1523.960
 30
3203.371
 40
1.575
  1
3203.371
 50
32.161
 41
 1.0 
  0
TEXT
  8
E21LALIFT
 62
1
 10
359.743
 20
-1516.388
 30
3203.959
 40
1.575
  1
3203.959
 50
32.161
 41
 1.0 
  0
TEXT
  8
E21LALIFT
 62
1
 10
358.540
 20
-1514.757
 30
3203.959
 40
1.575
  1
ST-120R
 50
32.161
 41
 1.0 
  0
POINT
  8
E21LALIFT
 62
3
 10
324.630
 20
-1577.240
 30
3202.700
  0
POINT
  8
E21LALIFT
 62
3
 10
327.170
 20
-1581.140
 30
3200.000
  0
TEXT
  8
E21LALIFT
 62
1
 10
329.531
 20
-1584.550
 30
3200.000
 40
1.575
  1
810-H
 50
351.879
 41
 1.0 
  0
TEXT
  8
E21LALIFT
 62
1
 10
332.382
 20
-1579.296
 30
3202.700
 40
1.575
  1
3202.70
 50
351.879
 41
 1.0 
  0
TEXT
  8
E21LALIFT
 62
1
 10
333.286
 20
-1577.127
 30
3202.700
 40
1.575
  1
810-G
 50
351.879
 41
 1.0 
  0
POINT
  8
E21LALIFT
 62
3
 10
305.820
 20
-1615.610
 30
3196.370
  0
POINT
  8
E21LALIFT
 62
3
 10
310.890
 20
-1614.630
 30
3197.000
  0
TEXT
  8
E21LALIFT
 62
1
 10
313.203
 20
-1625.742
 30
3196.370
 40
1.575
  1
3196.37
 50
337.581
 41
 1.0 
  0
TEXT
  8
E21LALIFT
 62
1
 10
314.811
 20
-1623.884
 30
3196.370
 40
1.575
  1
793-E
 50
337.581
 41
 1.0 
  0
TEXT
  8
E21LALIFT
 62
1
 10
320.827
 20
-1620.166
 30
3197.000
 40
1.575
  1
793-F
 50
337.581
 41
 1.0 
  0
TEXT
  8
E21LALIFT
 62
1
 10
312.168
 20
-1627.900
 30
3186.100
 40
1.575
  1
3186.1s
 50
337.581
 41
 1.0 
  0
POINT
  8
E21LALIFT
 62
3
 10
287.710
 20
-1652.860
 30
3195.990
  0
POINT
  8
E21LALIFT
 62
3
 10
290.660
 20
-1646.790
 30
3196.000
  0
TEXT
  8
E21LALIFT
 62
1
 10
292.317
 20
-1656.496
 30
3195.990
 40
1.575
  1
668-E
 50
328.242
 41
 1.0 
  0
TEXT
  8
E21LALIFT
 62
1
 10
291.173
 20
-1658.386
 30
3195.990
 40
1.575
  1
3195.99
 50
328.242
 41
 1.0 
  0
TEXT
  8
E21LALIFT
 62
1
 10
296.348
 20
-1650.219
 30
3196.000
 40
1.575
  1
668-F
 50
328.242
 41
 1.0 
  0
POINT
  8
E21LALIFT
 62
3
 10
294.330
 20
-1526.940
 30
3205.540
  0
TEXT
  8
E21LALIFT
 62
1
 10
301.035
 20
-1523.808
 30
3205.540
 40
1.575
  1
3205.54
 50
34.860
 41
 1.0 
  0
TEXT
  8
E21LALIFT
 62
1
 10
299.788
 20
-1521.828
 30
3205.540
 40
1.575
  1
47-I
 50
34.860
 41
 1.0 
  0
POINT
  8
E21LALIFT
 62
3
 10
303.500
 20
-1540.090
 30
3205.000
  0
TEXT
  8
E21LALIFT
 62
1
 10
311.277
 20
-1536.869
 30
3205.000
 40
1.575
  1
47-J
 50
34.860
 41
 1.0 
  0
POLYLINE
  8
E21LALIFT
 62
1
 66
     1
 70
     9
  0
VERTEX
  8
E21LALIFT
 62
1
 10
253.897
 20
-1578.306
 30
3215.000
 70
    32
  0
VERTEX
  8
E21LALIFT
 62
1
 10
264.260
 20
-1573.749
 30
3215.000
 70
    32
  0
VERTEX
  8
E21LALIFT
 62
1
 10
270.775
 20
-1593.440
 30
3214.000
 70
    32
  0
VERTEX
  8
E21LALIFT
 62
1
 10
280.541
 20
-1614.162
 30
3213.000
 70
    32
  0
VERTEX
  8
E21LALIFT
 62
1
 10
268.848
 20
-1619.011
 30
3213.000
 70
    32
  0
VERTEX
  8
E21LALIFT
 62
1
 10
261.595
 20
-1597.411
 30
3214.000
 70
    32
  0
SEQEND
  8
E21LALIFT
  0
TEXT
  8
E21LALIFT
 62
4
 10
229.573
 20
-1399.940
 30
3166.258
 40
1.575
  1
ST-868T
 41
 1.0 
  0
TEXT
  8
E21LALIFT
 62
4
 10
229.872
 20
-1402.203
 30
3166.258
 40
1.575
  1
3166.2583
 41
 1.0 
  0
POLYLINE
  8
E21LALIFT
 62
4
 66
     1
 70
     9
  0
VERTEX
  8
E21LALIFT
 62
4
 10
227.310
 20
-1397.578
 30
3166.258
 70
    32
  0
VERTEX
  8
E21LALIFT
 62
4
 10
225.310
 20
-1401.045
 30
3166.258
 70
    32
  0
VERTEX
  8
E21LALIFT
 62
4
 10
229.310
 20
-1401.045
 30
3166.258
 70
    32
  0
SEQEND
  8
E21LALIFT
  0
POINT
  8
E21LALIFT
 62
4
 10
227.310
 20
-1399.312
 30
3166.258
  0
TEXT
  8
E21LALIFT
 62
4
 10
223.419
 20
-1411.688
 30
3165.512
 40
1.575
  1
3165.5122
 41
 1.0 
  0
TEXT
  8
E21LALIFT
 62
4
 10
221.735
 20
-1409.175
 30
3165.512
 40
1.575
  1
ST-868S
 41
 1.0 
  0
POLYLINE
  8
E21LALIFT
 62
4
 66
     1
 70
     9
  0
VERTEX
  8
E21LALIFT
 62
4
 10
220.735
 20
-1407.441
 30
3165.512
 70
    32
  0
VERTEX
  8
E21LALIFT
 62
4
 10
218.735
 20
-1410.908
 30
3165.512
 70
    32
  0
VERTEX
  8
E21LALIFT
 62
4
 10
222.735
 20
-1410.908
 30
3165.512
 70
    32
  0
SEQEND
  8
E21LALIFT
  0
POINT
  8
E21LALIFT
 62
4
 10
220.735
 20
-1409.175
 30
3165.512
  0
TEXT
  8
E21LALIFT
 62
4
 10
242.274
 20
-1467.422
 30
3165.695
 40
1.575
  1
3165.6954
 50
2.782
 41
 1.0 
  0
TEXT
  8
E21LALIFT
 62
4
 10
243.965
 20
-1471.416
 30
3165.596
 40
1.575
  1
3165.5957
 50
2.782
 41
 1.0 
  0
TEXT
  8
E21LALIFT
 62
4
 10
243.730
 20
-1469.354
 30
3165.596
 40
1.575
  1
ST-842S
 50
2.782
 41
 1.0 
  0
TEXT
  8
E21LALIFT
 62
4
 10
241.010
 20
-1465.232
 30
3165.695
 40
1.575
  1
ST-842T
 50
2.782
 41
 1.0 
  0
POINT
  8
E21LALIFT
 62
4
 10
239.496
 20
-1465.876
 30
3165.695
  0
POLYLINE
  8
E21LALIFT
 62
4
 66
     1
 70
     9
  0
VERTEX
  8
E21LALIFT
 62
4
 10
239.496
 20
-1464.143
 30
3165.695
 70
    32
  0
VERTEX
  8
E21LALIFT
 62
4
 10
237.496
 20
-1467.609
 30
3165.695
 70
    32
  0
VERTEX
  8
E21LALIFT
 62
4
 10
241.496
 20
-1467.609
 30
3165.695
 70
    32
  0
SEQEND
  8
E21LALIFT
  0
POINT
  8
E21LALIFT
 62
4
 10
241.059
 20
-1469.097
 30
3165.596
  0
POLYLINE
  8
E21LALIFT
 62
4
 66
     1
 70
     9
  0
VERTEX
  8
E21LALIFT
 62
4
 10
241.059
 20
-1467.364
 30
3165.596
 70
    32
  0
VERTEX
  8
E21LALIFT
 62
4
 10
239.059
 20
-1470.830
 30
3165.596
 70
    32
  0
VERTEX
  8
E21LALIFT
 62
4
 10
243.059
 20
-1470.830
 30
3165.596
 70
    32
  0
SEQEND
  8
E21LALIFT
  0
TEXT
  8
E21LALIFT
 62
4
 10
246.999
 20
-1501.574
 30
3164.409
 40
1.575
  1
ST-848S
 41
 1.0 
  0
TEXT
  8
E21LALIFT
 62
4
 10
248.072
 20
-1503.474
 30
3164.409
 40
1.575
  1
3164.4091
 41
 1.0 
  0
TEXT
  8
E21LALIFT
 62
4
 10
248.500
 20
-1505.677
 30
3164.720
 40
1.575
  1
ST-848T
 41
 1.0 
  0
TEXT
  8
E21LALIFT
 62
4
 10
250.249
 20
-1507.848
 30
3164.720
 40
1.575
  1
3164.7205
 41
 1.0 
  0
POINT
  8
E21LALIFT
 62
4
 10
247.500
 20
-1505.677
 30
3164.720
  0
POLYLINE
  8
E21LALIFT
 62
4
 66
     1
 70
     9
  0
VERTEX
  8
E21LALIFT
 62
4
 10
247.500
 20
-1503.944
 30
3164.720
 70
    32
  0
VERTEX
  8
E21LALIFT
 62
4
 10
245.500
 20
-1507.410
 30
3164.720
 70
    32
  0
VERTEX
  8
E21LALIFT
 62
4
 10
249.500
 20
-1507.410
 30
3164.720
 70
    32
  0
SEQEND
  8
E21LALIFT
  0
POINT
  8
E21LALIFT
 62
4
 10
245.999
 20
-1501.574
 30
3164.409
  0
POLYLINE
  8
E21LALIFT
 62
4
 66
     1
 70
     9
  0
VERTEX
  8
E21LALIFT
 62
4
 10
245.999
 20
-1499.840
 30
3164.409
 70
    32
  0
VERTEX
  8
E21LALIFT
 62
4
 10
243.999
 20
-1503.307
 30
3164.409
 70
    32
  0
VERTEX
  8
E21LALIFT
 62
4
 10
247.999
 20
-1503.307
 30
3164.409
 70
    32
  0
SEQEND
  8
E21LALIFT
  0
POLYLINE
  8
E21LALIFT
 62
1
 66
     1
 70
     9
  0
VERTEX
  8
E21LALIFT
 62
1
 10
17.707
 20
-1152.139
 30
3153.086
 70
    32
  0
VERTEX
  8
E21LALIFT
 62
1
 10
13.284
 20
-1138.577
 30
3155.347
 70
    32
  0
VERTEX
  8
E21LALIFT
 62
1
 10
12.207
 20
-1133.565
 30
3158.690
 70
    32
  0
VERTEX
  8
E21LALIFT
 62
1
 10
2.685
 20
-1124.650
 30
3161.000
 70
    32
  0
VERTEX
  8
E21LALIFT
 62
1
 10
2.592
 20
-1123.252
 30
3161.000
 70
    32
  0
VERTEX
  8
E21LALIFT
 62
1
 10
-2.100
 20
-1114.332
 30
3162.500
 70
    32
  0
VERTEX
  8
E21LALIFT
 62
1
 10
-6.493
 20
-1114.317
 30
3162.500
 70
    32
  0
VERTEX
  8
E21LALIFT
 62
1
 10
-10.069
 20
-1108.679
 30
3163.000
 70
    32
  0
VERTEX
  8
E21LALIFT
 62
1
 10
-16.475
 20
-1097.147
 30
3165.546
 70
    32
  0
VERTEX
  8
E21LALIFT
 62
1
 10
-30.856
 20
-1082.571
 30
3165.546
 70
    32
  0
VERTEX
  8
E21LALIFT
 62
1
 10
-41.938
 20
-1065.360
 30
3165.026
 70
    32
  0
VERTEX
  8
E21LALIFT
 62
1
 10
-47.846
 20
-1052.620
 30
3165.026
 70
    32
  0
VERTEX
  8
E21LALIFT
 62
1
 10
-51.970
 20
-1051.190
 30
3165.026
 70
    32
  0
VERTEX
  8
E21LALIFT
 62
1
 10
-56.513
 20
-1044.463
 30
3165.026
 70
    32
  0
VERTEX
  8
E21LALIFT
 62
1
 10
-67.720
 20
-1044.963
 30
3165.026
 70
    32
  0
VERTEX
  8
E21LALIFT
 62
1
 10
-75.015
 20
-1029.928
 30
3165.026
 70
    32
  0
VERTEX
  8
E21LALIFT
 62
1
 10
-78.636
 20
-1015.707
 30
3165.026
 70
    32
  0
VERTEX
  8
E21LALIFT
 62
1
 10
-91.423
 20
-1025.041
 30
3165.026
 70
    32
  0
VERTEX
  8
E21LALIFT
 62
1
 10
-88.838
 20
-1036.541
 30
3165.026
 70
    32
  0
VERTEX
  8
E21LALIFT
 62
1
 10
-95.371
 20
-1044.916
 30
3165.026
 70
    32
  0
VERTEX
  8
E21LALIFT
 62
1
 10
-90.618
 20
-1054.160
 30
3165.026
 70
    32
  0
VERTEX
  8
E21LALIFT
 62
1
 10
-91.101
 20
-1057.945
 30
3165.026
 70
    32
  0
VERTEX
  8
E21LALIFT
 62
1
 10
-86.665
 20
-1066.082
 30
3165.026
 70
    32
  0
VERTEX
  8
E21LALIFT
 62
1
 10
-88.700
 20
-1074.528
 30
3165.026
 70
    32
  0
VERTEX
  8
E21LALIFT
 62
1
 10
-74.513
 20
-1086.748
 30
3165.026
 70
    32
  0
VERTEX
  8
E21LALIFT
 62
1
 10
-62.049
 20
-1095.750
 30
3165.546
 70
    32
  0
VERTEX
  8
E21LALIFT
 62
1
 10
-56.267
 20
-1103.006
 30
3165.546
 70
    32
  0
VERTEX
  8
E21LALIFT
 62
1
 10
-57.386
 20
-1109.433
 30
3165.546
 70
    32
  0
VERTEX
  8
E21LALIFT
 62
1
 10
-42.012
 20
-1125.556
 30
3163.546
 70
    32
  0
VERTEX
  8
E21LALIFT
 62
1
 10
-27.467
 20
-1141.914
 30
3161.546
 70
    32
  0
VERTEX
  8
E21LALIFT
 62
1
 10
-21.762
 20
-1140.959
 30
3160.546
 70
    32
  0
VERTEX
  8
E21LALIFT
 62
1
 10
-18.005
 20
-1142.186
 30
3160.546
 70
    32
  0
VERTEX
  8
E21LALIFT
 62
1
 10
-5.019
 20
-1156.752
 30
3154.028
 70
    32
  0
VERTEX
  8
E21LALIFT
 62
1
 10
0.783
 20
-1162.441
 30
3153.034
 70
    32
  0
SEQEND
  8
E21LALIFT
  0
POINT
  8
E21LALIFT
 62
8
 10
-16.520
 20
-1127.026
 30
3161.603
  0
POLYLINE
  8
E21LALIFT
 62
8
 66
     1
 70
     9
  0
VERTEX
  8
E21LALIFT
 62
8
 10
-16.520
 20
-1125.293
 30
3161.603
 70
    32
  0
VERTEX
  8
E21LALIFT
 62
8
 10
-18.520
 20
-1128.759
 30
3161.603
 70
    32
  0
VERTEX
  8
E21LALIFT
 62
8
 10
-14.520
 20
-1128.759
 30
3161.603
 70
    32
  0
SEQEND
  8
E21LALIFT
  0
POINT
  8
E21LALIFT
 62
8
 10
-10.304
 20
-1135.079
 30
3160.424
  0
POLYLINE
  8
E21LALIFT
 62
8
 66
     1
 70
     9
  0
VERTEX
  8
E21LALIFT
 62
8
 10
-10.304
 20
-1133.346
 30
3160.424
 70
    32
  0
VERTEX
  8
E21LALIFT
 62
8
 10
-12.304
 20
-1136.812
 30
3160.424
 70
    32
  0
VERTEX
  8
E21LALIFT
 62
8
 10
-8.304
 20
-1136.812
 30
3160.424
 70
    32
  0
SEQEND
  8
E21LALIFT
  0
POLYLINE
  8
E21LALIFT
 62
8
 66
     1
 70
     9
  0
VERTEX
  8
E21LALIFT
 62
8
 10
23.909
 20
-1171.818
 30
3153.295
 70
    32
  0
VERTEX
  8
E21LALIFT
 62
8
 10
21.909
 20
-1175.284
 30
3153.295
 70
    32
  0
VERTEX
  8
E21LALIFT
 62
8
 10
25.909
 20
-1175.284
 30
3153.295
 70
    32
  0
SEQEND
  8
E21LALIFT
  0
POINT
  8
E21LALIFT
 62
8
 10
23.909
 20
-1173.551
 30
3153.295
  0
POLYLINE
  8
E21LALIFT
 62
8
 66
     1
 70
     9
  0
VERTEX
  8
E21LALIFT
 62
8
 10
19.974
 20
-1167.830
 30
3152.596
 70
    32
  0
VERTEX
  8
E21LALIFT
 62
8
 10
17.974
 20
-1171.297
 30
3152.596
 70
    32
  0
VERTEX
  8
E21LALIFT
 62
8
 10
21.974
 20
-1171.297
 30
3152.596
 70
    32
  0
SEQEND
  8
E21LALIFT
  0
POINT
  8
E21LALIFT
 62
8
 10
19.974
 20
-1169.564
 30
3152.596
  0
POINT
  8
E21LALIFT
 62
8
 10
83.525
 20
-1230.294
 30
3139.659
  0
POLYLINE
  8
E21LALIFT
 62
8
 66
     1
 70
     9
  0
VERTEX
  8
E21LALIFT
 62
8
 10
83.525
 20
-1228.561
 30
3139.659
 70
    32
  0
VERTEX
  8
E21LALIFT
 62
8
 10
81.525
 20
-1232.027
 30
3139.659
 70
    32
  0
VERTEX
  8
E21LALIFT
 62
8
 10
85.525
 20
-1232.027
 30
3139.659
 70
    32
  0
SEQEND
  8
E21LALIFT
  0
TEXT
  8
E21LALIFT
 62
8
 10
-13.581
 20
-1125.830
 30
3161.603
 40
1.575
  1
ST-861T
 50
35.533
 41
 1.0 
  0
TEXT
  8
E21LALIFT
 62
8
 10
-12.428
 20
-1127.675
 30
3161.603
 40
1.575
  1
3161.6028
 50
35.533
 41
 1.0 
  0
TEXT
  8
E21LALIFT
 62
8
 10
-8.109
 20
-1134.481
 30
3160.424
 40
1.575
  1
ST-861S
 50
35.533
 41
 1.0 
  0
TEXT
  8
E21LALIFT
 62
8
 10
-6.788
 20
-1136.233
 30
3160.424
 40
1.575
  1
3160.4242
 50
35.533
 41
 1.0 
  0
TEXT
  8
E21LALIFT
 62
8
 10
22.551
 20
-1168.181
 30
3152.596
 40
1.575
  1
ST-826S
 50
35.533
 41
 1.0 
  0
TEXT
  8
E21LALIFT
 62
8
 10
23.958
 20
-1169.982
 30
3152.596
 40
1.575
  1
3152.5961
 50
35.533
 41
 1.0 
  0
TEXT
  8
E21LALIFT
 62
8
 10
25.987
 20
-1173.061
 30
3153.295
 40
1.575
  1
ST-826T
 50
35.533
 41
 1.0 
  0
TEXT
  8
E21LALIFT
 62
8
 10
27.424
 20
-1174.750
 30
3153.295
 40
1.575
  1
3153.2952
 50
35.533
 41
 1.0 
  0
TEXT
  8
E21LALIFT
 62
8
 10
85.275
 20
-1229.544
 30
3139.659
 40
1.575
  1
ST-824T
 50
35.533
 41
 1.0 
  0
TEXT
  8
E21LALIFT
 62
8
 10
86.723
 20
-1231.135
 30
3139.659
 40
1.575
  1
3139.6591
 50
35.533
 41
 1.0 
  0
ENDSEC
  0
EOF
