999
********************************
999
*   DXF File - Entities Only   *
999
*        3D Data Format        *
999
*     Output from ENVISAGE     *
999
*     31-Dec-2007 14:13:14     *
999
********************************
  0
SECTION 
  2
HEADER
  9
$ACADVER
  1
AC1009
  9
$EXTMIN
 10
-290000.000
 20
-250000.000
 30
-4000.000
  9
$EXTMAX
 10
320000.000
 20
160000.000
 30
6000.000
  0
ENDSEC
  0
SECTION
  2
ENTITIES
  0
POLYLINE
  8
E21XLIFTS
 62
5
 66
     1
 70
     9
  0
VERTEX
  8
E21XLIFTS
 62
5
 10
-2199.414
 20
638.685
 30
3127.859
 70
    32
  0
VERTEX
  8
E21XLIFTS
 62
5
 10
-2192.643
 20
633.939
 30
3127.599
 70
    32
  0
VERTEX
  8
E21XLIFTS
 62
5
 10
-2186.321
 20
620.634
 30
3127.345
 70
    32
  0
VERTEX
  8
E21XLIFTS
 62
5
 10
-2179.189
 20
608.675
 30
3128.574
 70
    32
  0
VERTEX
  8
E21XLIFTS
 62
5
 10
-2175.738
 20
604.920
 30
3129.527
 70
    32
  0
VERTEX
  8
E21XLIFTS
 62
5
 10
-2173.973
 20
600.834
 30
3130.527
 70
    32
  0
VERTEX
  8
E21XLIFTS
 62
5
 10
-2172.255
 20
588.402
 30
3133.504
 70
    32
  0
VERTEX
  8
E21XLIFTS
 62
5
 10
-2165.763
 20
573.079
 30
3137.427
 70
    32
  0
VERTEX
  8
E21XLIFTS
 62
5
 10
-2165.204
 20
562.417
 30
3138.265
 70
    32
  0
VERTEX
  8
E21XLIFTS
 62
5
 10
-2166.201
 20
557.510
 30
3138.548
 70
    32
  0
VERTEX
  8
E21XLIFTS
 62
5
 10
-2159.192
 20
550.249
 30
3139.522
 70
    32
  0
VERTEX
  8
E21XLIFTS
 62
5
 10
-2158.049
 20
539.972
 30
3140.126
 70
    32
  0
VERTEX
  8
E21XLIFTS
 62
5
 10
-2126.825
 20
519.033
 30
3142.816
 70
    32
  0
VERTEX
  8
E21XLIFTS
 62
5
 10
-2122.095
 20
511.738
 30
3143.429
 70
    32
  0
VERTEX
  8
E21XLIFTS
 62
5
 10
-2113.735
 20
504.129
 30
3144.258
 70
    32
  0
VERTEX
  8
E21XLIFTS
 62
5
 10
-2105.655
 20
501.340
 30
3144.940
 70
    32
  0
VERTEX
  8
E21XLIFTS
 62
5
 10
-2092.768
 20
491.702
 30
3146.032
 70
    32
  0
VERTEX
  8
E21XLIFTS
 62
5
 10
-2088.793
 20
492.722
 30
3146.322
 70
    32
  0
VERTEX
  8
E21XLIFTS
 62
5
 10
-2081.818
 20
487.046
 30
3146.874
 70
    32
  0
VERTEX
  8
E21XLIFTS
 62
5
 10
-2066.884
 20
496.638
 30
3147.842
 70
    32
  0
VERTEX
  8
E21XLIFTS
 62
5
 10
-2057.851
 20
495.224
 30
3148.467
 70
    32
  0
VERTEX
  8
E21XLIFTS
 62
5
 10
-2047.419
 20
518.593
 30
3148.790
 70
    32
  0
VERTEX
  8
E21XLIFTS
 62
5
 10
-2052.032
 20
547.733
 30
3148.866
 70
    32
  0
VERTEX
  8
E21XLIFTS
 62
5
 10
-2065.390
 20
558.149
 30
3148.862
 70
    32
  0
VERTEX
  8
E21XLIFTS
 62
5
 10
-2073.237
 20
562.210
 30
3148.862
 70
    32
  0
VERTEX
  8
E21XLIFTS
 62
5
 10
-2092.773
 20
546.416
 30
3144.805
 70
    32
  0
VERTEX
  8
E21XLIFTS
 62
5
 10
-2096.463
 20
541.586
 30
3144.515
 70
    32
  0
VERTEX
  8
E21XLIFTS
 62
5
 10
-2098.600
 20
533.426
 30
3144.500
 70
    32
  0
VERTEX
  8
E21XLIFTS
 62
5
 10
-2104.352
 20
529.421
 30
3143.946
 70
    32
  0
VERTEX
  8
E21XLIFTS
 62
5
 10
-2115.807
 20
533.617
 30
3142.830
 70
    32
  0
VERTEX
  8
E21XLIFTS
 62
5
 10
-2120.715
 20
544.671
 30
3141.819
 70
    32
  0
VERTEX
  8
E21XLIFTS
 62
5
 10
-2124.815
 20
558.059
 30
3140.746
 70
    32
  0
VERTEX
  8
E21XLIFTS
 62
5
 10
-2138.305
 20
559.591
 30
3139.976
 70
    32
  0
VERTEX
  8
E21XLIFTS
 62
5
 10
-2140.777
 20
567.803
 30
3139.401
 70
    32
  0
VERTEX
  8
E21XLIFTS
 62
5
 10
-2140.955
 20
574.028
 30
3137.455
 70
    32
  0
VERTEX
  8
E21XLIFTS
 62
5
 10
-2134.871
 20
590.478
 30
3131.714
 70
    32
  0
VERTEX
  8
E21XLIFTS
 62
5
 10
-2138.831
 20
596.458
 30
3129.494
 70
    32
  0
VERTEX
  8
E21XLIFTS
 62
5
 10
-2139.151
 20
605.409
 30
3126.905
 70
    32
  0
VERTEX
  8
E21XLIFTS
 62
5
 10
-2151.613
 20
612.210
 30
3126.172
 70
    32
  0
VERTEX
  8
E21XLIFTS
 62
5
 10
-2151.594
 20
615.632
 30
3126.013
 70
    32
  0
VERTEX
  8
E21XLIFTS
 62
5
 10
-2156.328
 20
625.045
 30
3126.285
 70
    32
  0
VERTEX
  8
E21XLIFTS
 62
5
 10
-2168.447
 20
629.058
 30
3126.750
 70
    32
  0
VERTEX
  8
E21XLIFTS
 62
5
 10
-2172.295
 20
633.760
 30
3126.891
 70
    32
  0
VERTEX
  8
E21XLIFTS
 62
5
 10
-2167.366
 20
645.968
 30
3126.964
 70
    32
  0
VERTEX
  8
E21XLIFTS
 62
5
 10
-2173.494
 20
655.378
 30
3127.218
 70
    32
  0
VERTEX
  8
E21XLIFTS
 62
5
 10
-2193.696
 20
653.476
 30
3127.683
 70
    32
  0
SEQEND
  8
E21XLIFTS
  0
POLYLINE
  8
E21XLIFTS
 62
3
 66
     1
 70
     9
  0
VERTEX
  8
E21XLIFTS
 62
3
 10
-2172.209
 20
560.119
 30
3164.177
 70
    32
  0
VERTEX
  8
E21XLIFTS
 62
3
 10
-2165.433
 20
558.978
 30
3163.661
 70
    32
  0
VERTEX
  8
E21XLIFTS
 62
3
 10
-2161.277
 20
544.885
 30
3162.286
 70
    32
  0
VERTEX
  8
E21XLIFTS
 62
3
 10
-2148.607
 20
539.428
 30
3161.186
 70
    32
  0
VERTEX
  8
E21XLIFTS
 62
3
 10
-2138.810
 20
528.823
 30
3160.949
 70
    32
  0
VERTEX
  8
E21XLIFTS
 62
3
 10
-2129.095
 20
514.300
 30
3161.402
 70
    32
  0
VERTEX
  8
E21XLIFTS
 62
3
 10
-2125.460
 20
506.138
 30
3161.645
 70
    32
  0
VERTEX
  8
E21XLIFTS
 62
3
 10
-2116.129
 20
500.455
 30
3161.928
 70
    32
  0
VERTEX
  8
E21XLIFTS
 62
3
 10
-2102.664
 20
501.002
 30
3161.653
 70
    32
  0
VERTEX
  8
E21XLIFTS
 62
3
 10
-2095.064
 20
495.768
 30
3161.131
 70
    32
  0
VERTEX
  8
E21XLIFTS
 62
3
 10
-2092.067
 20
486.495
 30
3160.722
 70
    32
  0
VERTEX
  8
E21XLIFTS
 62
3
 10
-2095.956
 20
480.426
 30
3160.518
 70
    32
  0
VERTEX
  8
E21XLIFTS
 62
3
 10
-2091.389
 20
476.065
 30
3160.074
 70
    32
  0
VERTEX
  8
E21XLIFTS
 62
3
 10
-2083.481
 20
474.142
 30
3159.488
 70
    32
  0
VERTEX
  8
E21XLIFTS
 62
3
 10
-2079.461
 20
480.367
 30
3159.645
 70
    32
  0
VERTEX
  8
E21XLIFTS
 62
3
 10
-2067.201
 20
484.827
 30
3158.791
 70
    32
  0
VERTEX
  8
E21XLIFTS
 62
3
 10
-2046.851
 20
482.244
 30
3157.349
 70
    32
  0
VERTEX
  8
E21XLIFTS
 62
3
 10
-2043.429
 20
488.893
 30
3157.349
 70
    32
  0
VERTEX
  8
E21XLIFTS
 62
3
 10
-2048.052
 20
505.625
 30
3157.993
 70
    32
  0
VERTEX
  8
E21XLIFTS
 62
3
 10
-2070.189
 20
513.559
 30
3159.812
 70
    32
  0
VERTEX
  8
E21XLIFTS
 62
3
 10
-2084.742
 20
521.429
 30
3161.111
 70
    32
  0
VERTEX
  8
E21XLIFTS
 62
3
 10
-2097.715
 20
534.670
 30
3161.746
 70
    32
  0
VERTEX
  8
E21XLIFTS
 62
3
 10
-2105.024
 20
545.719
 30
3161.353
 70
    32
  0
VERTEX
  8
E21XLIFTS
 62
3
 10
-2117.954
 20
542.926
 30
3161.046
 70
    32
  0
VERTEX
  8
E21XLIFTS
 62
3
 10
-2129.010
 20
555.865
 30
3160.491
 70
    32
  0
VERTEX
  8
E21XLIFTS
 62
3
 10
-2136.047
 20
572.677
 30
3159.872
 70
    32
  0
VERTEX
  8
E21XLIFTS
 62
3
 10
-2141.695
 20
607.553
 30
3159.741
 70
    32
  0
VERTEX
  8
E21XLIFTS
 62
3
 10
-2151.531
 20
614.778
 30
3159.783
 70
    32
  0
VERTEX
  8
E21XLIFTS
 62
3
 10
-2151.685
 20
627.990
 30
3159.823
 70
    32
  0
VERTEX
  8
E21XLIFTS
 62
3
 10
-2160.024
 20
630.624
 30
3159.865
 70
    32
  0
VERTEX
  8
E21XLIFTS
 62
3
 10
-2169.129
 20
625.915
 30
3159.884
 70
    32
  0
VERTEX
  8
E21XLIFTS
 62
3
 10
-2181.616
 20
636.442
 30
3160.025
 70
    32
  0
VERTEX
  8
E21XLIFTS
 62
3
 10
-2193.533
 20
629.587
 30
3160.025
 70
    32
  0
VERTEX
  8
E21XLIFTS
 62
3
 10
-2195.909
 20
623.313
 30
3160.025
 70
    32
  0
VERTEX
  8
E21XLIFTS
 62
3
 10
-2178.035
 20
608.176
 30
3159.825
 70
    32
  0
VERTEX
  8
E21XLIFTS
 62
3
 10
-2168.650
 20
591.092
 30
3159.738
 70
    32
  0
VERTEX
  8
E21XLIFTS
 62
3
 10
-2169.784
 20
580.496
 30
3162.265
 70
    32
  0
VERTEX
  8
E21XLIFTS
 62
3
 10
-2176.037
 20
570.958
 30
3164.449
 70
    32
  0
SEQEND
  8
E21XLIFTS
  0
POLYLINE
  8
E21XLIFTS
 62
7
 66
     1
 70
     9
  0
VERTEX
  8
E21XLIFTS
 62
7
 10
-2106.466
 20
546.531
 30
3202.081
 70
    32
  0
VERTEX
  8
E21XLIFTS
 62
7
 10
-2101.208
 20
552.196
 30
3202.039
 70
    32
  0
VERTEX
  8
E21XLIFTS
 62
7
 10
-2093.382
 20
557.813
 30
3202.000
 70
    32
  0
VERTEX
  8
E21XLIFTS
 62
7
 10
-2085.739
 20
554.625
 30
3202.000
 70
    32
  0
VERTEX
  8
E21XLIFTS
 62
7
 10
-2088.401
 20
545.476
 30
3201.879
 70
    32
  0
VERTEX
  8
E21XLIFTS
 62
7
 10
-2088.403
 20
540.649
 30
3201.761
 70
    32
  0
VERTEX
  8
E21XLIFTS
 62
7
 10
-2095.949
 20
530.892
 30
3201.654
 70
    32
  0
VERTEX
  8
E21XLIFTS
 62
7
 10
-2104.316
 20
535.040
 30
3201.654
 70
    32
  0
SEQEND
  8
E21XLIFTS
  0
POLYLINE
  8
E21XLIFTS
 62
3
 66
     1
 70
     9
  0
VERTEX
  8
E21XLIFTS
 62
3
 10
-2158.184
 20
498.143
 30
3185.028
 70
    32
  0
VERTEX
  8
E21XLIFTS
 62
3
 10
-2165.089
 20
503.466
 30
3184.886
 70
    32
  0
VERTEX
  8
E21XLIFTS
 62
3
 10
-2170.698
 20
511.440
 30
3183.822
 70
    32
  0
VERTEX
  8
E21XLIFTS
 62
3
 10
-2173.065
 20
521.511
 30
3183.969
 70
    32
  0
VERTEX
  8
E21XLIFTS
 62
3
 10
-2185.095
 20
520.518
 30
3182.541
 70
    32
  0
VERTEX
  8
E21XLIFTS
 62
3
 10
-2179.969
 20
508.364
 30
3182.507
 70
    32
  0
VERTEX
  8
E21XLIFTS
 62
3
 10
-2181.297
 20
501.456
 30
3181.964
 70
    32
  0
VERTEX
  8
E21XLIFTS
 62
3
 10
-2180.421
 20
491.470
 30
3182.034
 70
    32
  0
VERTEX
  8
E21XLIFTS
 62
3
 10
-2182.479
 20
488.177
 30
3181.884
 70
    32
  0
VERTEX
  8
E21XLIFTS
 62
3
 10
-2173.536
 20
480.788
 30
3183.679
 70
    32
  0
VERTEX
  8
E21XLIFTS
 62
3
 10
-2164.030
 20
478.277
 30
3184.179
 70
    32
  0
VERTEX
  8
E21XLIFTS
 62
3
 10
-2149.960
 20
463.323
 30
3185.114
 70
    32
  0
VERTEX
  8
E21XLIFTS
 62
3
 10
-2147.618
 20
466.648
 30
3185.192
 70
    32
  0
VERTEX
  8
E21XLIFTS
 62
3
 10
-2145.581
 20
466.794
 30
3185.322
 70
    32
  0
VERTEX
  8
E21XLIFTS
 62
3
 10
-2122.487
 20
461.834
 30
3186.936
 70
    32
  0
VERTEX
  8
E21XLIFTS
 62
3
 10
-2122.577
 20
451.702
 30
3187.194
 70
    32
  0
VERTEX
  8
E21XLIFTS
 62
3
 10
-2109.232
 20
444.484
 30
3187.293
 70
    32
  0
VERTEX
  8
E21XLIFTS
 62
3
 10
-2102.882
 20
443.486
 30
3187.314
 70
    32
  0
VERTEX
  8
E21XLIFTS
 62
3
 10
-2097.994
 20
440.678
 30
3187.314
 70
    32
  0
VERTEX
  8
E21XLIFTS
 62
3
 10
-2081.177
 20
417.180
 30
3187.312
 70
    32
  0
VERTEX
  8
E21XLIFTS
 62
3
 10
-2073.081
 20
394.371
 30
3187.311
 70
    32
  0
VERTEX
  8
E21XLIFTS
 62
3
 10
-2071.762
 20
375.138
 30
3187.310
 70
    32
  0
VERTEX
  8
E21XLIFTS
 62
3
 10
-2057.511
 20
375.190
 30
3187.310
 70
    32
  0
VERTEX
  8
E21XLIFTS
 62
3
 10
-2052.251
 20
367.121
 30
3187.310
 70
    32
  0
VERTEX
  8
E21XLIFTS
 62
3
 10
-2047.097
 20
366.358
 30
3187.310
 70
    32
  0
VERTEX
  8
E21XLIFTS
 62
3
 10
-2042.164
 20
360.767
 30
3187.310
 70
    32
  0
VERTEX
  8
E21XLIFTS
 62
3
 10
-2035.209
 20
363.386
 30
3187.310
 70
    32
  0
VERTEX
  8
E21XLIFTS
 62
3
 10
-2026.627
 20
349.195
 30
3187.310
 70
    32
  0
VERTEX
  8
E21XLIFTS
 62
3
 10
-2025.509
 20
342.072
 30
3187.310
 70
    32
  0
VERTEX
  8
E21XLIFTS
 62
3
 10
-2017.155
 20
338.695
 30
3187.310
 70
    32
  0
VERTEX
  8
E21XLIFTS
 62
3
 10
-2010.823
 20
317.447
 30
3187.310
 70
    32
  0
VERTEX
  8
E21XLIFTS
 62
3
 10
-2001.589
 20
325.600
 30
3187.310
 70
    32
  0
VERTEX
  8
E21XLIFTS
 62
3
 10
-1995.667
 20
317.664
 30
3187.310
 70
    32
  0
VERTEX
  8
E21XLIFTS
 62
3
 10
-1988.723
 20
322.824
 30
3187.310
 70
    32
  0
VERTEX
  8
E21XLIFTS
 62
3
 10
-1985.631
 20
328.808
 30
3187.310
 70
    32
  0
VERTEX
  8
E21XLIFTS
 62
3
 10
-1990.873
 20
338.837
 30
3187.310
 70
    32
  0
VERTEX
  8
E21XLIFTS
 62
3
 10
-1988.871
 20
340.890
 30
3187.310
 70
    32
  0
VERTEX
  8
E21XLIFTS
 62
3
 10
-1997.132
 20
347.786
 30
3187.310
 70
    32
  0
VERTEX
  8
E21XLIFTS
 62
3
 10
-2008.895
 20
366.734
 30
3187.310
 70
    32
  0
VERTEX
  8
E21XLIFTS
 62
3
 10
-2011.182
 20
374.323
 30
3187.310
 70
    32
  0
VERTEX
  8
E21XLIFTS
 62
3
 10
-2012.576
 20
392.194
 30
3187.310
 70
    32
  0
VERTEX
  8
E21XLIFTS
 62
3
 10
-2024.476
 20
400.579
 30
3187.310
 70
    32
  0
VERTEX
  8
E21XLIFTS
 62
3
 10
-2034.823
 20
398.294
 30
3187.310
 70
    32
  0
VERTEX
  8
E21XLIFTS
 62
3
 10
-2050.805
 20
402.587
 30
3187.310
 70
    32
  0
VERTEX
  8
E21XLIFTS
 62
3
 10
-2058.523
 20
408.833
 30
3187.310
 70
    32
  0
VERTEX
  8
E21XLIFTS
 62
3
 10
-2066.633
 20
424.990
 30
3187.310
 70
    32
  0
VERTEX
  8
E21XLIFTS
 62
3
 10
-2087.595
 20
453.729
 30
3187.310
 70
    32
  0
VERTEX
  8
E21XLIFTS
 62
3
 10
-2090.234
 20
453.305
 30
3187.310
 70
    32
  0
VERTEX
  8
E21XLIFTS
 62
3
 10
-2095.340
 20
455.667
 30
3187.310
 70
    32
  0
VERTEX
  8
E21XLIFTS
 62
3
 10
-2096.692
 20
460.385
 30
3187.327
 70
    32
  0
VERTEX
  8
E21XLIFTS
 62
3
 10
-2118.900
 20
473.110
 30
3186.892
 70
    32
  0
VERTEX
  8
E21XLIFTS
 62
3
 10
-2132.663
 20
473.432
 30
3185.981
 70
    32
  0
VERTEX
  8
E21XLIFTS
 62
3
 10
-2140.444
 20
474.995
 30
3185.440
 70
    32
  0
VERTEX
  8
E21XLIFTS
 62
3
 10
-2145.559
 20
478.283
 30
3185.025
 70
    32
  0
VERTEX
  8
E21XLIFTS
 62
3
 10
-2153.396
 20
480.976
 30
3185.114
 70
    32
  0
VERTEX
  8
E21XLIFTS
 62
3
 10
-2155.640
 20
483.662
 30
3185.522
 70
    32
  0
VERTEX
  8
E21XLIFTS
 62
3
 10
-2155.307
 20
487.916
 30
3185.711
 70
    32
  0
VERTEX
  8
E21XLIFTS
 62
3
 10
-2157.571
 20
495.965
 30
3185.313
 70
    32
  0
SEQEND
  8
E21XLIFTS
  0
POLYLINE
  8
E21XLIFTS
 62
3
 66
     1
 70
     9
  0
VERTEX
  8
E21XLIFTS
 62
3
 10
-992.928
 20
-662.694
 30
3164.696
 70
    32
  0
VERTEX
  8
E21XLIFTS
 62
3
 10
-981.886
 20
-676.805
 30
3161.653
 70
    32
  0
VERTEX
  8
E21XLIFTS
 62
3
 10
-969.514
 20
-692.613
 30
3161.696
 70
    32
  0
VERTEX
  8
E21XLIFTS
 62
3
 10
-955.792
 20
-737.906
 30
3161.781
 70
    32
  0
VERTEX
  8
E21XLIFTS
 62
3
 10
-961.973
 20
-760.122
 30
3161.781
 70
    32
  0
VERTEX
  8
E21XLIFTS
 62
3
 10
-967.375
 20
-762.591
 30
3161.781
 70
    32
  0
VERTEX
  8
E21XLIFTS
 62
3
 10
-967.145
 20
-772.263
 30
3161.781
 70
    32
  0
VERTEX
  8
E21XLIFTS
 62
3
 10
-979.926
 20
-767.979
 30
3161.781
 70
    32
  0
VERTEX
  8
E21XLIFTS
 62
3
 10
-992.553
 20
-761.869
 30
3161.781
 70
    32
  0
VERTEX
  8
E21XLIFTS
 62
3
 10
-990.032
 20
-744.073
 30
3161.780
 70
    32
  0
VERTEX
  8
E21XLIFTS
 62
3
 10
-997.713
 20
-733.962
 30
3161.777
 70
    32
  0
VERTEX
  8
E21XLIFTS
 62
3
 10
-1011.458
 20
-730.965
 30
3161.773
 70
    32
  0
VERTEX
  8
E21XLIFTS
 62
3
 10
-1004.214
 20
-706.981
 30
3161.860
 70
    32
  0
VERTEX
  8
E21XLIFTS
 62
3
 10
-1005.249
 20
-688.369
 30
3161.909
 70
    32
  0
VERTEX
  8
E21XLIFTS
 62
3
 10
-1005.897
 20
-676.408
 30
3164.094
 70
    32
  0
VERTEX
  8
E21XLIFTS
 62
3
 10
-1008.709
 20
-666.655
 30
3166.014
 70
    32
  0
SEQEND
  8
E21XLIFTS
  0
POLYLINE
  8
E21XLIFTS
 62
3
 66
     1
 70
     9
  0
VERTEX
  8
E21XLIFTS
 62
3
 10
-966.199
 20
-925.271
 30
3123.056
 70
    32
  0
VERTEX
  8
E21XLIFTS
 62
3
 10
-976.071
 20
-931.145
 30
3123.010
 70
    32
  0
VERTEX
  8
E21XLIFTS
 62
3
 10
-985.643
 20
-915.140
 30
3123.596
 70
    32
  0
VERTEX
  8
E21XLIFTS
 62
3
 10
-994.282
 20
-910.723
 30
3124.099
 70
    32
  0
VERTEX
  8
E21XLIFTS
 62
3
 10
-997.674
 20
-902.937
 30
3124.476
 70
    32
  0
VERTEX
  8
E21XLIFTS
 62
3
 10
-1011.026
 20
-897.102
 30
3125.224
 70
    32
  0
VERTEX
  8
E21XLIFTS
 62
3
 10
-1006.529
 20
-890.582
 30
3125.261
 70
    32
  0
VERTEX
  8
E21XLIFTS
 62
3
 10
-1023.233
 20
-878.059
 30
3126.359
 70
    32
  0
VERTEX
  8
E21XLIFTS
 62
3
 10
-1023.971
 20
-866.518
 30
3126.868
 70
    32
  0
VERTEX
  8
E21XLIFTS
 62
3
 10
-1036.835
 20
-852.320
 30
3127.905
 70
    32
  0
VERTEX
  8
E21XLIFTS
 62
3
 10
-1056.154
 20
-838.965
 30
3129.127
 70
    32
  0
VERTEX
  8
E21XLIFTS
 62
3
 10
-1085.338
 20
-832.163
 30
3130.411
 70
    32
  0
VERTEX
  8
E21XLIFTS
 62
3
 10
-1087.434
 20
-828.498
 30
3130.426
 70
    32
  0
VERTEX
  8
E21XLIFTS
 62
3
 10
-1086.386
 20
-813.136
 30
3130.423
 70
    32
  0
VERTEX
  8
E21XLIFTS
 62
3
 10
-1090.159
 20
-807.622
 30
3130.423
 70
    32
  0
VERTEX
  8
E21XLIFTS
 62
3
 10
-1101.580
 20
-799.497
 30
3130.424
 70
    32
  0
VERTEX
  8
E21XLIFTS
 62
3
 10
-1100.670
 20
-774.838
 30
3130.420
 70
    32
  0
VERTEX
  8
E21XLIFTS
 62
3
 10
-1149.942
 20
-716.984
 30
3130.420
 70
    32
  0
VERTEX
  8
E21XLIFTS
 62
3
 10
-1162.599
 20
-710.805
 30
3130.420
 70
    32
  0
VERTEX
  8
E21XLIFTS
 62
3
 10
-1175.671
 20
-706.573
 30
3130.420
 70
    32
  0
VERTEX
  8
E21XLIFTS
 62
3
 10
-1193.766
 20
-690.198
 30
3130.420
 70
    32
  0
VERTEX
  8
E21XLIFTS
 62
3
 10
-1199.607
 20
-686.217
 30
3130.420
 70
    32
  0
VERTEX
  8
E21XLIFTS
 62
3
 10
-1216.275
 20
-645.548
 30
3130.420
 70
    32
  0
VERTEX
  8
E21XLIFTS
 62
3
 10
-1213.966
 20
-637.931
 30
3130.420
 70
    32
  0
VERTEX
  8
E21XLIFTS
 62
3
 10
-1220.489
 20
-628.524
 30
3130.420
 70
    32
  0
VERTEX
  8
E21XLIFTS
 62
3
 10
-1210.780
 20
-622.912
 30
3130.420
 70
    32
  0
VERTEX
  8
E21XLIFTS
 62
3
 10
-1204.097
 20
-632.021
 30
3130.420
 70
    32
  0
VERTEX
  8
E21XLIFTS
 62
3
 10
-1201.692
 20
-631.202
 30
3130.420
 70
    32
  0
VERTEX
  8
E21XLIFTS
 62
3
 10
-1196.390
 20
-638.808
 30
3130.420
 70
    32
  0
VERTEX
  8
E21XLIFTS
 62
3
 10
-1190.892
 20
-639.444
 30
3130.420
 70
    32
  0
VERTEX
  8
E21XLIFTS
 62
3
 10
-1181.336
 20
-655.234
 30
3130.420
 70
    32
  0
VERTEX
  8
E21XLIFTS
 62
3
 10
-1169.580
 20
-665.747
 30
3130.420
 70
    32
  0
VERTEX
  8
E21XLIFTS
 62
3
 10
-1160.913
 20
-670.050
 30
3130.420
 70
    32
  0
VERTEX
  8
E21XLIFTS
 62
3
 10
-1137.582
 20
-696.112
 30
3130.420
 70
    32
  0
VERTEX
  8
E21XLIFTS
 62
3
 10
-1135.140
 20
-696.070
 30
3130.420
 70
    32
  0
VERTEX
  8
E21XLIFTS
 62
3
 10
-1128.638
 20
-705.845
 30
3130.420
 70
    32
  0
VERTEX
  8
E21XLIFTS
 62
3
 10
-1117.516
 20
-712.586
 30
3130.420
 70
    32
  0
VERTEX
  8
E21XLIFTS
 62
3
 10
-1106.525
 20
-730.701
 30
3130.419
 70
    32
  0
VERTEX
  8
E21XLIFTS
 62
3
 10
-1092.696
 20
-744.341
 30
3130.418
 70
    32
  0
VERTEX
  8
E21XLIFTS
 62
3
 10
-1086.372
 20
-743.114
 30
3130.418
 70
    32
  0
VERTEX
  8
E21XLIFTS
 62
3
 10
-1080.539
 20
-763.800
 30
3130.419
 70
    32
  0
VERTEX
  8
E21XLIFTS
 62
3
 10
-1075.728
 20
-774.165
 30
3130.419
 70
    32
  0
VERTEX
  8
E21XLIFTS
 62
3
 10
-1058.576
 20
-791.374
 30
3130.415
 70
    32
  0
VERTEX
  8
E21XLIFTS
 62
3
 10
-1059.888
 20
-801.103
 30
3130.418
 70
    32
  0
VERTEX
  8
E21XLIFTS
 62
3
 10
-1040.549
 20
-823.482
 30
3129.215
 70
    32
  0
VERTEX
  8
E21XLIFTS
 62
3
 10
-1012.564
 20
-848.085
 30
3127.174
 70
    32
  0
VERTEX
  8
E21XLIFTS
 62
3
 10
-1003.714
 20
-858.493
 30
3126.424
 70
    32
  0
VERTEX
  8
E21XLIFTS
 62
3
 10
-998.446
 20
-866.745
 30
3125.904
 70
    32
  0
VERTEX
  8
E21XLIFTS
 62
3
 10
-991.933
 20
-880.740
 30
3125.117
 70
    32
  0
VERTEX
  8
E21XLIFTS
 62
3
 10
-982.878
 20
-886.898
 30
3124.481
 70
    32
  0
VERTEX
  8
E21XLIFTS
 62
3
 10
-970.256
 20
-908.619
 30
3123.249
 70
    32
  0
SEQEND
  8
E21XLIFTS
  0
POLYLINE
  8
E21XLIFTS
 62
6
 66
     1
 70
     9
  0
VERTEX
  8
E21XLIFTS
 62
6
 10
-115.742
 20
-1040.579
 30
3192.090
 70
    32
  0
VERTEX
  8
E21XLIFTS
 62
6
 10
-115.204
 20
-1029.673
 30
3192.063
 70
    32
  0
VERTEX
  8
E21XLIFTS
 62
6
 10
-113.164
 20
-1026.153
 30
3192.041
 70
    32
  0
VERTEX
  8
E21XLIFTS
 62
6
 10
-115.889
 20
-1020.132
 30
3192.012
 70
    32
  0
VERTEX
  8
E21XLIFTS
 62
6
 10
-112.859
 20
-1014.164
 30
3191.944
 70
    32
  0
VERTEX
  8
E21XLIFTS
 62
6
 10
-112.164
 20
-1007.390
 30
3191.843
 70
    32
  0
VERTEX
  8
E21XLIFTS
 62
6
 10
-97.508
 20
-999.961
 30
3192.506
 70
    32
  0
VERTEX
  8
E21XLIFTS
 62
6
 10
-78.130
 20
-985.464
 30
3192.820
 70
    32
  0
VERTEX
  8
E21XLIFTS
 62
6
 10
-78.230
 20
-983.522
 30
3192.815
 70
    32
  0
VERTEX
  8
E21XLIFTS
 62
6
 10
-60.203
 20
-963.501
 30
3192.740
 70
    32
  0
VERTEX
  8
E21XLIFTS
 62
6
 10
-66.585
 20
-956.541
 30
3192.740
 70
    32
  0
VERTEX
  8
E21XLIFTS
 62
6
 10
-69.747
 20
-956.696
 30
3192.740
 70
    32
  0
VERTEX
  8
E21XLIFTS
 62
6
 10
-75.230
 20
-951.989
 30
3192.740
 70
    32
  0
VERTEX
  8
E21XLIFTS
 62
6
 10
-94.483
 20
-953.162
 30
3192.889
 70
    32
  0
VERTEX
  8
E21XLIFTS
 62
6
 10
-100.570
 20
-960.111
 30
3192.941
 70
    32
  0
VERTEX
  8
E21XLIFTS
 62
6
 10
-103.428
 20
-960.342
 30
3192.979
 70
    32
  0
VERTEX
  8
E21XLIFTS
 62
6
 10
-113.817
 20
-961.183
 30
3192.955
 70
    32
  0
VERTEX
  8
E21XLIFTS
 62
6
 10
-115.972
 20
-987.716
 30
3192.084
 70
    32
  0
VERTEX
  8
E21XLIFTS
 62
6
 10
-117.004
 20
-988.993
 30
3191.985
 70
    32
  0
VERTEX
  8
E21XLIFTS
 62
6
 10
-126.965
 20
-996.075
 30
3191.968
 70
    32
  0
VERTEX
  8
E21XLIFTS
 62
6
 10
-134.663
 20
-997.715
 30
3192.133
 70
    32
  0
VERTEX
  8
E21XLIFTS
 62
6
 10
-146.552
 20
-1003.390
 30
3191.741
 70
    32
  0
VERTEX
  8
E21XLIFTS
 62
6
 10
-139.348
 20
-1016.920
 30
3192.021
 70
    32
  0
VERTEX
  8
E21XLIFTS
 62
6
 10
-146.124
 20
-1033.955
 30
3192.068
 70
    32
  0
VERTEX
  8
E21XLIFTS
 62
6
 10
-138.624
 20
-1041.011
 30
3192.090
 70
    32
  0
VERTEX
  8
E21XLIFTS
 62
6
 10
-126.482
 20
-1046.933
 30
3192.090
 70
    32
  0
VERTEX
  8
E21XLIFTS
 62
6
 10
-123.601
 20
-1041.867
 30
3192.090
 70
    32
  0
VERTEX
  8
E21XLIFTS
 62
6
 10
-117.116
 20
-1040.804
 30
3192.090
 70
    32
  0
SEQEND
  8
E21XLIFTS
  0
POLYLINE
  8
E21XLIFTS
 62
6
 66
     1
 70
     9
  0
VERTEX
  8
E21XLIFTS
 62
6
 10
-245.928
 20
-781.811
 30
3234.919
 70
    32
  0
VERTEX
  8
E21XLIFTS
 62
6
 10
-237.604
 20
-782.552
 30
3234.917
 70
    32
  0
VERTEX
  8
E21XLIFTS
 62
6
 10
-233.997
 20
-793.274
 30
3234.910
 70
    32
  0
VERTEX
  8
E21XLIFTS
 62
6
 10
-227.160
 20
-797.917
 30
3234.910
 70
    32
  0
VERTEX
  8
E21XLIFTS
 62
6
 10
-218.652
 20
-794.950
 30
3234.910
 70
    32
  0
VERTEX
  8
E21XLIFTS
 62
6
 10
-215.024
 20
-790.199
 30
3234.910
 70
    32
  0
VERTEX
  8
E21XLIFTS
 62
6
 10
-221.328
 20
-778.591
 30
3234.910
 70
    32
  0
VERTEX
  8
E21XLIFTS
 62
6
 10
-220.137
 20
-773.601
 30
3234.910
 70
    32
  0
VERTEX
  8
E21XLIFTS
 62
6
 10
-215.703
 20
-768.995
 30
3234.910
 70
    32
  0
VERTEX
  8
E21XLIFTS
 62
6
 10
-218.911
 20
-743.912
 30
3234.910
 70
    32
  0
VERTEX
  8
E21XLIFTS
 62
6
 10
-229.236
 20
-730.645
 30
3234.910
 70
    32
  0
VERTEX
  8
E21XLIFTS
 62
6
 10
-229.894
 20
-724.453
 30
3234.910
 70
    32
  0
VERTEX
  8
E21XLIFTS
 62
6
 10
-239.902
 20
-723.195
 30
3234.910
 70
    32
  0
VERTEX
  8
E21XLIFTS
 62
6
 10
-247.161
 20
-739.401
 30
3234.909
 70
    32
  0
VERTEX
  8
E21XLIFTS
 62
6
 10
-255.422
 20
-740.808
 30
3234.909
 70
    32
  0
VERTEX
  8
E21XLIFTS
 62
6
 10
-259.550
 20
-748.672
 30
3234.909
 70
    32
  0
VERTEX
  8
E21XLIFTS
 62
6
 10
-258.266
 20
-752.797
 30
3234.910
 70
    32
  0
VERTEX
  8
E21XLIFTS
 62
6
 10
-258.185
 20
-768.734
 30
3234.922
 70
    32
  0
SEQEND
  8
E21XLIFTS
  0
POLYLINE
  8
E21XLIFTS
 62
1
 66
     1
 70
     9
  0
VERTEX
  8
E21XLIFTS
 62
1
 10
-776.837
 20
-2170.267
 30
0.000
 70
    32
  0
VERTEX
  8
E21XLIFTS
 62
1
 10
-756.847
 20
-2207.484
 30
0.000
 70
    32
  0
VERTEX
  8
E21XLIFTS
 62
1
 10
-759.264
 20
-2214.648
 30
0.000
 70
    32
  0
VERTEX
  8
E21XLIFTS
 62
1
 10
-743.218
 20
-2224.938
 30
0.000
 70
    32
  0
VERTEX
  8
E21XLIFTS
 62
1
 10
-733.770
 20
-2226.102
 30
0.000
 70
    32
  0
VERTEX
  8
E21XLIFTS
 62
1
 10
-716.440
 20
-2219.444
 30
0.000
 70
    32
  0
VERTEX
  8
E21XLIFTS
 62
1
 10
-717.523
 20
-2204.454
 30
0.000
 70
    32
  0
VERTEX
  8
E21XLIFTS
 62
1
 10
-714.109
 20
-2189.078
 30
0.000
 70
    32
  0
VERTEX
  8
E21XLIFTS
 62
1
 10
-732.330
 20
-2163.079
 30
0.000
 70
    32
  0
VERTEX
  8
E21XLIFTS
 62
1
 10
-732.129
 20
-2162.279
 30
0.000
 70
    32
  0
VERTEX
  8
E21XLIFTS
 62
1
 10
-736.834
 20
-2152.839
 30
0.000
 70
    32
  0
VERTEX
  8
E21XLIFTS
 62
1
 10
-742.596
 20
-2146.627
 30
0.000
 70
    32
  0
VERTEX
  8
E21XLIFTS
 62
1
 10
-749.335
 20
-2137.803
 30
0.000
 70
    32
  0
VERTEX
  8
E21XLIFTS
 62
1
 10
-763.672
 20
-2135.999
 30
0.000
 70
    32
  0
VERTEX
  8
E21XLIFTS
 62
1
 10
-764.308
 20
-2135.531
 30
0.000
 70
    32
  0
VERTEX
  8
E21XLIFTS
 62
1
 10
-773.886
 20
-2119.284
 30
0.000
 70
    32
  0
VERTEX
  8
E21XLIFTS
 62
1
 10
-771.325
 20
-2116.215
 30
0.000
 70
    32
  0
VERTEX
  8
E21XLIFTS
 62
1
 10
-783.901
 20
-2102.999
 30
0.000
 70
    32
  0
VERTEX
  8
E21XLIFTS
 62
1
 10
-802.242
 20
-2111.674
 30
0.000
 70
    32
  0
VERTEX
  8
E21XLIFTS
 62
1
 10
-800.902
 20
-2121.747
 30
0.000
 70
    32
  0
VERTEX
  8
E21XLIFTS
 62
1
 10
-797.642
 20
-2127.394
 30
0.000
 70
    32
  0
VERTEX
  8
E21XLIFTS
 62
1
 10
-796.719
 20
-2127.689
 30
0.000
 70
    32
  0
VERTEX
  8
E21XLIFTS
 62
1
 10
-788.790
 20
-2139.363
 30
0.000
 70
    32
  0
VERTEX
  8
E21XLIFTS
 62
1
 10
-788.465
 20
-2147.213
 30
0.000
 70
    32
  0
VERTEX
  8
E21XLIFTS
 62
1
 10
-783.079
 20
-2152.316
 30
0.000
 70
    32
  0
VERTEX
  8
E21XLIFTS
 62
1
 10
-777.342
 20
-2170.199
 30
0.000
 70
    32
  0
SEQEND
  8
E21XLIFTS
  0
POLYLINE
  8
E21XLIFTS
 62
3
 66
     1
 70
     9
  0
VERTEX
  8
E21XLIFTS
 62
3
 10
-1234.484
 20
-1237.283
 30
3305.983
 70
    32
  0
VERTEX
  8
E21XLIFTS
 62
3
 10
-1232.851
 20
-1230.429
 30
3305.983
 70
    32
  0
VERTEX
  8
E21XLIFTS
 62
3
 10
-1225.390
 20
-1230.303
 30
3305.983
 70
    32
  0
VERTEX
  8
E21XLIFTS
 62
3
 10
-1218.925
 20
-1224.303
 30
3305.983
 70
    32
  0
VERTEX
  8
E21XLIFTS
 62
3
 10
-1202.320
 20
-1227.467
 30
3305.983
 70
    32
  0
VERTEX
  8
E21XLIFTS
 62
3
 10
-1202.274
 20
-1236.771
 30
3305.983
 70
    32
  0
VERTEX
  8
E21XLIFTS
 62
3
 10
-1198.446
 20
-1247.460
 30
3305.983
 70
    32
  0
VERTEX
  8
E21XLIFTS
 62
3
 10
-1201.749
 20
-1253.972
 30
3305.983
 70
    32
  0
VERTEX
  8
E21XLIFTS
 62
3
 10
-1230.732
 20
-1250.343
 30
3305.983
 70
    32
  0
SEQEND
  8
E21XLIFTS
  0
POLYLINE
  8
E21XLIFTS
 62
3
 66
     1
 70
     9
  0
VERTEX
  8
E21XLIFTS
 62
3
 10
-1167.082
 20
-1307.040
 30
3259.186
 70
    32
  0
VERTEX
  8
E21XLIFTS
 62
3
 10
-1172.538
 20
-1301.617
 30
3259.697
 70
    32
  0
VERTEX
  8
E21XLIFTS
 62
3
 10
-1172.705
 20
-1293.535
 30
3260.508
 70
    32
  0
VERTEX
  8
E21XLIFTS
 62
3
 10
-1168.163
 20
-1288.523
 30
3261.034
 70
    32
  0
VERTEX
  8
E21XLIFTS
 62
3
 10
-1169.749
 20
-1284.458
 30
3261.340
 70
    32
  0
VERTEX
  8
E21XLIFTS
 62
3
 10
-1162.463
 20
-1275.867
 30
3261.340
 70
    32
  0
VERTEX
  8
E21XLIFTS
 62
3
 10
-1151.129
 20
-1273.509
 30
3261.340
 70
    32
  0
VERTEX
  8
E21XLIFTS
 62
3
 10
-1138.147
 20
-1281.837
 30
3261.340
 70
    32
  0
VERTEX
  8
E21XLIFTS
 62
3
 10
-1143.296
 20
-1290.719
 30
3261.340
 70
    32
  0
VERTEX
  8
E21XLIFTS
 62
3
 10
-1136.388
 20
-1299.196
 30
3261.340
 70
    32
  0
VERTEX
  8
E21XLIFTS
 62
3
 10
-1133.986
 20
-1319.706
 30
3261.340
 70
    32
  0
VERTEX
  8
E21XLIFTS
 62
3
 10
-1125.139
 20
-1333.725
 30
3261.340
 70
    32
  0
VERTEX
  8
E21XLIFTS
 62
3
 10
-1119.725
 20
-1361.001
 30
3261.340
 70
    32
  0
VERTEX
  8
E21XLIFTS
 62
3
 10
-1124.376
 20
-1369.164
 30
3261.340
 70
    32
  0
VERTEX
  8
E21XLIFTS
 62
3
 10
-1130.175
 20
-1374.996
 30
3261.340
 70
    32
  0
VERTEX
  8
E21XLIFTS
 62
3
 10
-1135.956
 20
-1378.273
 30
3261.340
 70
    32
  0
VERTEX
  8
E21XLIFTS
 62
3
 10
-1143.091
 20
-1367.926
 30
3261.274
 70
    32
  0
VERTEX
  8
E21XLIFTS
 62
3
 10
-1149.427
 20
-1337.933
 30
3258.920
 70
    32
  0
SEQEND
  8
E21XLIFTS
  0
POLYLINE
  8
E21XLIFTS
 62
6
 66
     1
 70
     9
  0
VERTEX
  8
E21XLIFTS
 62
6
 10
-1247.912
 20
-1293.982
 30
3306.064
 70
    32
  0
VERTEX
  8
E21XLIFTS
 62
6
 10
-1232.385
 20
-1288.444
 30
3306.075
 70
    32
  0
VERTEX
  8
E21XLIFTS
 62
6
 10
-1234.236
 20
-1269.319
 30
3306.060
 70
    32
  0
VERTEX
  8
E21XLIFTS
 62
6
 10
-1239.460
 20
-1260.305
 30
3306.060
 70
    32
  0
VERTEX
  8
E21XLIFTS
 62
6
 10
-1242.841
 20
-1251.105
 30
3306.060
 70
    32
  0
VERTEX
  8
E21XLIFTS
 62
6
 10
-1252.869
 20
-1249.320
 30
3305.993
 70
    32
  0
VERTEX
  8
E21XLIFTS
 62
6
 10
-1251.483
 20
-1260.540
 30
3306.060
 70
    32
  0
VERTEX
  8
E21XLIFTS
 62
6
 10
-1248.550
 20
-1267.899
 30
3306.060
 70
    32
  0
VERTEX
  8
E21XLIFTS
 62
6
 10
-1251.568
 20
-1278.797
 30
3306.060
 70
    32
  0
VERTEX
  8
E21XLIFTS
 62
6
 10
-1255.391
 20
-1286.026
 30
3306.042
 70
    32
  0
SEQEND
  8
E21XLIFTS
  0
POLYLINE
  8
E21XLIFTS
 62
6
 66
     1
 70
     9
  0
VERTEX
  8
E21XLIFTS
 62
6
 10
-1180.223
 20
-1486.375
 30
3332.470
 70
    32
  0
VERTEX
  8
E21XLIFTS
 62
6
 10
-1175.656
 20
-1486.791
 30
3332.470
 70
    32
  0
VERTEX
  8
E21XLIFTS
 62
6
 10
-1165.572
 20
-1484.810
 30
3332.470
 70
    32
  0
VERTEX
  8
E21XLIFTS
 62
6
 10
-1165.150
 20
-1481.472
 30
3332.470
 70
    32
  0
VERTEX
  8
E21XLIFTS
 62
6
 10
-1169.417
 20
-1453.231
 30
3332.470
 70
    32
  0
VERTEX
  8
E21XLIFTS
 62
6
 10
-1177.934
 20
-1435.104
 30
3332.470
 70
    32
  0
VERTEX
  8
E21XLIFTS
 62
6
 10
-1192.933
 20
-1419.468
 30
3332.470
 70
    32
  0
VERTEX
  8
E21XLIFTS
 62
6
 10
-1207.907
 20
-1409.098
 30
3332.470
 70
    32
  0
VERTEX
  8
E21XLIFTS
 62
6
 10
-1212.621
 20
-1396.658
 30
3332.470
 70
    32
  0
VERTEX
  8
E21XLIFTS
 62
6
 10
-1215.789
 20
-1377.451
 30
3332.470
 70
    32
  0
VERTEX
  8
E21XLIFTS
 62
6
 10
-1226.339
 20
-1356.438
 30
3332.470
 70
    32
  0
VERTEX
  8
E21XLIFTS
 62
6
 10
-1231.988
 20
-1350.235
 30
3332.470
 70
    32
  0
VERTEX
  8
E21XLIFTS
 62
6
 10
-1241.104
 20
-1335.183
 30
3332.470
 70
    32
  0
VERTEX
  8
E21XLIFTS
 62
6
 10
-1243.896
 20
-1320.890
 30
3332.470
 70
    32
  0
VERTEX
  8
E21XLIFTS
 62
6
 10
-1252.836
 20
-1323.480
 30
3332.470
 70
    32
  0
VERTEX
  8
E21XLIFTS
 62
6
 10
-1252.356
 20
-1331.641
 30
3332.470
 70
    32
  0
VERTEX
  8
E21XLIFTS
 62
6
 10
-1253.649
 20
-1336.475
 30
3332.470
 70
    32
  0
VERTEX
  8
E21XLIFTS
 62
6
 10
-1248.495
 20
-1349.001
 30
3332.470
 70
    32
  0
VERTEX
  8
E21XLIFTS
 62
6
 10
-1239.905
 20
-1381.873
 30
3332.470
 70
    32
  0
VERTEX
  8
E21XLIFTS
 62
6
 10
-1245.328
 20
-1403.229
 30
3332.470
 70
    32
  0
VERTEX
  8
E21XLIFTS
 62
6
 10
-1244.236
 20
-1410.947
 30
3332.470
 70
    32
  0
VERTEX
  8
E21XLIFTS
 62
6
 10
-1246.297
 20
-1419.910
 30
3332.470
 70
    32
  0
VERTEX
  8
E21XLIFTS
 62
6
 10
-1255.160
 20
-1437.948
 30
3332.470
 70
    32
  0
VERTEX
  8
E21XLIFTS
 62
6
 10
-1275.324
 20
-1442.613
 30
3332.470
 70
    32
  0
VERTEX
  8
E21XLIFTS
 62
6
 10
-1270.929
 20
-1452.372
 30
3332.470
 70
    32
  0
VERTEX
  8
E21XLIFTS
 62
6
 10
-1253.802
 20
-1446.968
 30
3332.470
 70
    32
  0
VERTEX
  8
E21XLIFTS
 62
6
 10
-1247.899
 20
-1449.853
 30
3332.470
 70
    32
  0
VERTEX
  8
E21XLIFTS
 62
6
 10
-1238.257
 20
-1444.656
 30
3332.470
 70
    32
  0
VERTEX
  8
E21XLIFTS
 62
6
 10
-1225.427
 20
-1450.965
 30
3332.470
 70
    32
  0
VERTEX
  8
E21XLIFTS
 62
6
 10
-1224.452
 20
-1454.472
 30
3332.470
 70
    32
  0
VERTEX
  8
E21XLIFTS
 62
6
 10
-1218.815
 20
-1456.813
 30
3332.470
 70
    32
  0
VERTEX
  8
E21XLIFTS
 62
6
 10
-1214.752
 20
-1479.438
 30
3332.470
 70
    32
  0
VERTEX
  8
E21XLIFTS
 62
6
 10
-1215.073
 20
-1485.584
 30
3332.470
 70
    32
  0
VERTEX
  8
E21XLIFTS
 62
6
 10
-1213.744
 20
-1487.947
 30
3332.470
 70
    32
  0
VERTEX
  8
E21XLIFTS
 62
6
 10
-1209.516
 20
-1490.998
 30
3332.470
 70
    32
  0
VERTEX
  8
E21XLIFTS
 62
6
 10
-1190.698
 20
-1480.371
 30
3332.470
 70
    32
  0
VERTEX
  8
E21XLIFTS
 62
6
 10
-1188.432
 20
-1477.025
 30
3332.470
 70
    32
  0
VERTEX
  8
E21XLIFTS
 62
6
 10
-1185.080
 20
-1480.343
 30
3332.470
 70
    32
  0
SEQEND
  8
E21XLIFTS
  0
POLYLINE
  8
E21XLIFTS
 62
3
 66
     1
 70
     9
  0
VERTEX
  8
E21XLIFTS
 62
3
 10
-1218.506
 20
-1411.507
 30
3289.540
 70
    32
  0
VERTEX
  8
E21XLIFTS
 62
3
 10
-1213.924
 20
-1399.831
 30
3289.540
 70
    32
  0
VERTEX
  8
E21XLIFTS
 62
3
 10
-1204.382
 20
-1393.495
 30
3289.540
 70
    32
  0
VERTEX
  8
E21XLIFTS
 62
3
 10
-1198.239
 20
-1387.786
 30
3289.540
 70
    32
  0
VERTEX
  8
E21XLIFTS
 62
3
 10
-1174.760
 20
-1402.622
 30
3289.540
 70
    32
  0
VERTEX
  8
E21XLIFTS
 62
3
 10
-1167.196
 20
-1418.612
 30
3289.540
 70
    32
  0
VERTEX
  8
E21XLIFTS
 62
3
 10
-1167.335
 20
-1440.407
 30
3289.540
 70
    32
  0
VERTEX
  8
E21XLIFTS
 62
3
 10
-1162.763
 20
-1456.148
 30
3289.540
 70
    32
  0
VERTEX
  8
E21XLIFTS
 62
3
 10
-1158.170
 20
-1465.525
 30
3289.540
 70
    32
  0
VERTEX
  8
E21XLIFTS
 62
3
 10
-1157.928
 20
-1470.202
 30
3289.540
 70
    32
  0
VERTEX
  8
E21XLIFTS
 62
3
 10
-1182.127
 20
-1487.448
 30
3289.540
 70
    32
  0
VERTEX
  8
E21XLIFTS
 62
3
 10
-1194.672
 20
-1482.358
 30
3289.540
 70
    32
  0
VERTEX
  8
E21XLIFTS
 62
3
 10
-1210.280
 20
-1481.876
 30
3289.540
 70
    32
  0
VERTEX
  8
E21XLIFTS
 62
3
 10
-1218.467
 20
-1489.705
 30
3289.540
 70
    32
  0
VERTEX
  8
E21XLIFTS
 62
3
 10
-1236.373
 20
-1481.553
 30
3289.540
 70
    32
  0
VERTEX
  8
E21XLIFTS
 62
3
 10
-1240.476
 20
-1473.863
 30
3289.540
 70
    32
  0
VERTEX
  8
E21XLIFTS
 62
3
 10
-1233.456
 20
-1454.879
 30
3289.540
 70
    32
  0
VERTEX
  8
E21XLIFTS
 62
3
 10
-1233.897
 20
-1450.188
 30
3289.540
 70
    32
  0
VERTEX
  8
E21XLIFTS
 62
3
 10
-1232.937
 20
-1447.796
 30
3289.540
 70
    32
  0
VERTEX
  8
E21XLIFTS
 62
3
 10
-1227.791
 20
-1445.028
 30
3289.541
 70
    32
  0
VERTEX
  8
E21XLIFTS
 62
3
 10
-1225.274
 20
-1435.771
 30
3289.542
 70
    32
  0
VERTEX
  8
E21XLIFTS
 62
3
 10
-1229.060
 20
-1429.355
 30
3289.542
 70
    32
  0
VERTEX
  8
E21XLIFTS
 62
3
 10
-1225.751
 20
-1419.499
 30
3289.541
 70
    32
  0
SEQEND
  8
E21XLIFTS
  0
POLYLINE
  8
E21XLIFTS
 62
5
 66
     1
 70
     9
  0
VERTEX
  8
E21XLIFTS
 62
5
 10
-1261.502
 20
-1462.285
 30
3359.980
 70
    32
  0
VERTEX
  8
E21XLIFTS
 62
5
 10
-1247.587
 20
-1458.691
 30
3359.980
 70
    32
  0
VERTEX
  8
E21XLIFTS
 62
5
 10
-1238.674
 20
-1449.171
 30
3359.980
 70
    32
  0
VERTEX
  8
E21XLIFTS
 62
5
 10
-1240.155
 20
-1435.426
 30
3359.980
 70
    32
  0
VERTEX
  8
E21XLIFTS
 62
5
 10
-1256.208
 20
-1416.872
 30
3360.023
 70
    32
  0
VERTEX
  8
E21XLIFTS
 62
5
 10
-1267.185
 20
-1418.718
 30
3360.055
 70
    32
  0
VERTEX
  8
E21XLIFTS
 62
5
 10
-1271.265
 20
-1427.436
 30
3360.066
 70
    32
  0
VERTEX
  8
E21XLIFTS
 62
5
 10
-1282.800
 20
-1438.389
 30
3360.021
 70
    32
  0
VERTEX
  8
E21XLIFTS
 62
5
 10
-1283.091
 20
-1451.843
 30
3359.980
 70
    32
  0
VERTEX
  8
E21XLIFTS
 62
5
 10
-1278.307
 20
-1463.597
 30
3359.980
 70
    32
  0
SEQEND
  8
E21XLIFTS
  0
POLYLINE
  8
E21XLIFTS
 62
5
 66
     1
 70
     9
  0
VERTEX
  8
E21XLIFTS
 62
5
 10
-1332.123
 20
-1506.314
 30
3369.490
 70
    32
  0
VERTEX
  8
E21XLIFTS
 62
5
 10
-1327.582
 20
-1518.651
 30
3369.490
 70
    32
  0
VERTEX
  8
E21XLIFTS
 62
5
 10
-1330.885
 20
-1538.006
 30
3369.490
 70
    32
  0
VERTEX
  8
E21XLIFTS
 62
5
 10
-1330.253
 20
-1548.425
 30
3369.490
 70
    32
  0
VERTEX
  8
E21XLIFTS
 62
5
 10
-1336.422
 20
-1555.904
 30
3369.490
 70
    32
  0
VERTEX
  8
E21XLIFTS
 62
5
 10
-1316.921
 20
-1566.371
 30
3369.490
 70
    32
  0
VERTEX
  8
E21XLIFTS
 62
5
 10
-1311.165
 20
-1560.640
 30
3369.490
 70
    32
  0
VERTEX
  8
E21XLIFTS
 62
5
 10
-1303.564
 20
-1555.783
 30
3369.490
 70
    32
  0
VERTEX
  8
E21XLIFTS
 62
5
 10
-1296.205
 20
-1553.403
 30
3369.490
 70
    32
  0
VERTEX
  8
E21XLIFTS
 62
5
 10
-1288.094
 20
-1554.204
 30
3369.490
 70
    32
  0
VERTEX
  8
E21XLIFTS
 62
5
 10
-1279.910
 20
-1548.012
 30
3369.490
 70
    32
  0
VERTEX
  8
E21XLIFTS
 62
5
 10
-1277.360
 20
-1544.417
 30
3369.490
 70
    32
  0
VERTEX
  8
E21XLIFTS
 62
5
 10
-1275.320
 20
-1537.690
 30
3369.490
 70
    32
  0
VERTEX
  8
E21XLIFTS
 62
5
 10
-1277.287
 20
-1535.845
 30
3369.490
 70
    32
  0
VERTEX
  8
E21XLIFTS
 62
5
 10
-1270.050
 20
-1522.075
 30
3369.490
 70
    32
  0
VERTEX
  8
E21XLIFTS
 62
5
 10
-1259.778
 20
-1511.123
 30
3369.490
 70
    32
  0
VERTEX
  8
E21XLIFTS
 62
5
 10
-1267.015
 20
-1494.269
 30
3369.490
 70
    32
  0
VERTEX
  8
E21XLIFTS
 62
5
 10
-1271.847
 20
-1485.915
 30
3369.490
 70
    32
  0
VERTEX
  8
E21XLIFTS
 62
5
 10
-1284.354
 20
-1487.517
 30
3369.487
 70
    32
  0
VERTEX
  8
E21XLIFTS
 62
5
 10
-1294.068
 20
-1483.680
 30
3369.447
 70
    32
  0
VERTEX
  8
E21XLIFTS
 62
5
 10
-1304.195
 20
-1490.116
 30
3369.426
 70
    32
  0
VERTEX
  8
E21XLIFTS
 62
5
 10
-1312.549
 20
-1492.107
 30
3369.402
 70
    32
  0
VERTEX
  8
E21XLIFTS
 62
5
 10
-1321.073
 20
-1490.845
 30
3369.371
 70
    32
  0
SEQEND
  8
E21XLIFTS
  0
POLYLINE
  8
E21XLIFTS
 62
3
 66
     1
 70
     9
  0
VERTEX
  8
E21XLIFTS
 62
3
 10
-318.115
 20
-675.848
 30
3357.880
 70
    32
  0
VERTEX
  8
E21XLIFTS
 62
3
 10
-322.122
 20
-677.533
 30
3357.880
 70
    32
  0
VERTEX
  8
E21XLIFTS
 62
3
 10
-337.418
 20
-671.013
 30
3357.880
 70
    32
  0
VERTEX
  8
E21XLIFTS
 62
3
 10
-347.153
 20
-669.364
 30
3357.855
 70
    32
  0
VERTEX
  8
E21XLIFTS
 62
3
 10
-343.577
 20
-658.999
 30
3357.880
 70
    32
  0
VERTEX
  8
E21XLIFTS
 62
3
 10
-333.065
 20
-655.113
 30
3357.880
 70
    32
  0
VERTEX
  8
E21XLIFTS
 62
3
 10
-322.691
 20
-652.839
 30
3357.880
 70
    32
  0
VERTEX
  8
E21XLIFTS
 62
3
 10
-310.867
 20
-659.045
 30
3357.880
 70
    32
  0
VERTEX
  8
E21XLIFTS
 62
3
 10
-291.109
 20
-662.893
 30
3357.880
 70
    32
  0
VERTEX
  8
E21XLIFTS
 62
3
 10
-287.894
 20
-665.556
 30
3357.880
 70
    32
  0
VERTEX
  8
E21XLIFTS
 62
3
 10
-288.950
 20
-670.103
 30
3357.880
 70
    32
  0
VERTEX
  8
E21XLIFTS
 62
3
 10
-284.757
 20
-674.876
 30
3357.880
 70
    32
  0
VERTEX
  8
E21XLIFTS
 62
3
 10
-288.270
 20
-682.923
 30
3357.880
 70
    32
  0
VERTEX
  8
E21XLIFTS
 62
3
 10
-291.067
 20
-683.097
 30
3357.880
 70
    32
  0
VERTEX
  8
E21XLIFTS
 62
3
 10
-311.166
 20
-672.460
 30
3357.880
 70
    32
  0
VERTEX
  8
E21XLIFTS
 62
3
 10
-313.116
 20
-672.457
 30
3357.880
 70
    32
  0
VERTEX
  8
E21XLIFTS
 62
3
 10
-317.043
 20
-675.121
 30
3357.880
 70
    32
  0
SEQEND
  8
E21XLIFTS
  0
POLYLINE
  8
E21XLIFTS
 62
4
 66
     1
 70
     9
  0
VERTEX
  8
E21XLIFTS
 62
4
 10
-112.072
 20
-1027.145
 30
3232.068
 70
    32
  0
VERTEX
  8
E21XLIFTS
 62
4
 10
-114.864
 20
-1017.998
 30
3232.085
 70
    32
  0
VERTEX
  8
E21XLIFTS
 62
4
 10
-114.913
 20
-1007.093
 30
3232.081
 70
    32
  0
VERTEX
  8
E21XLIFTS
 62
4
 10
-99.319
 20
-986.410
 30
3232.117
 70
    32
  0
VERTEX
  8
E21XLIFTS
 62
4
 10
-107.546
 20
-975.589
 30
3232.117
 70
    32
  0
VERTEX
  8
E21XLIFTS
 62
4
 10
-93.262
 20
-962.373
 30
3232.117
 70
    32
  0
VERTEX
  8
E21XLIFTS
 62
4
 10
-83.791
 20
-958.374
 30
3232.117
 70
    32
  0
VERTEX
  8
E21XLIFTS
 62
4
 10
-91.605
 20
-942.550
 30
3232.117
 70
    32
  0
VERTEX
  8
E21XLIFTS
 62
4
 10
-100.811
 20
-937.585
 30
3232.117
 70
    32
  0
VERTEX
  8
E21XLIFTS
 62
4
 10
-122.109
 20
-931.668
 30
3232.117
 70
    32
  0
VERTEX
  8
E21XLIFTS
 62
4
 10
-124.747
 20
-920.795
 30
3232.117
 70
    32
  0
VERTEX
  8
E21XLIFTS
 62
4
 10
-123.391
 20
-917.586
 30
3232.117
 70
    32
  0
VERTEX
  8
E21XLIFTS
 62
4
 10
-113.671
 20
-919.250
 30
3232.117
 70
    32
  0
VERTEX
  8
E21XLIFTS
 62
4
 10
-104.269
 20
-908.018
 30
3232.117
 70
    32
  0
VERTEX
  8
E21XLIFTS
 62
4
 10
-105.531
 20
-898.173
 30
3232.117
 70
    32
  0
VERTEX
  8
E21XLIFTS
 62
4
 10
-136.459
 20
-858.442
 30
3232.004
 70
    32
  0
VERTEX
  8
E21XLIFTS
 62
4
 10
-147.241
 20
-853.378
 30
3232.016
 70
    32
  0
VERTEX
  8
E21XLIFTS
 62
4
 10
-158.582
 20
-864.334
 30
3232.043
 70
    32
  0
VERTEX
  8
E21XLIFTS
 62
4
 10
-163.295
 20
-862.207
 30
3232.041
 70
    32
  0
VERTEX
  8
E21XLIFTS
 62
4
 10
-172.810
 20
-861.002
 30
3232.051
 70
    32
  0
VERTEX
  8
E21XLIFTS
 62
4
 10
-184.523
 20
-863.221
 30
3232.079
 70
    32
  0
VERTEX
  8
E21XLIFTS
 62
4
 10
-188.594
 20
-867.189
 30
3232.322
 70
    32
  0
VERTEX
  8
E21XLIFTS
 62
4
 10
-192.971
 20
-879.075
 30
3232.804
 70
    32
  0
VERTEX
  8
E21XLIFTS
 62
4
 10
-193.063
 20
-879.652
 30
3232.828
 70
    32
  0
VERTEX
  8
E21XLIFTS
 62
4
 10
-198.596
 20
-882.814
 30
3233.022
 70
    32
  0
VERTEX
  8
E21XLIFTS
 62
4
 10
-198.045
 20
-884.485
 30
3233.078
 70
    32
  0
VERTEX
  8
E21XLIFTS
 62
4
 10
-212.495
 20
-879.385
 30
3233.017
 70
    32
  0
VERTEX
  8
E21XLIFTS
 62
4
 10
-215.144
 20
-889.236
 30
3233.398
 70
    32
  0
VERTEX
  8
E21XLIFTS
 62
4
 10
-214.469
 20
-897.271
 30
3233.685
 70
    32
  0
VERTEX
  8
E21XLIFTS
 62
4
 10
-193.440
 20
-902.469
 30
3233.659
 70
    32
  0
VERTEX
  8
E21XLIFTS
 62
4
 10
-193.128
 20
-911.648
 30
3233.945
 70
    32
  0
VERTEX
  8
E21XLIFTS
 62
4
 10
-182.926
 20
-915.765
 30
3233.668
 70
    32
  0
VERTEX
  8
E21XLIFTS
 62
4
 10
-166.310
 20
-930.808
 30
3233.641
 70
    32
  0
VERTEX
  8
E21XLIFTS
 62
4
 10
-157.480
 20
-925.233
 30
3233.215
 70
    32
  0
VERTEX
  8
E21XLIFTS
 62
4
 10
-150.822
 20
-923.716
 30
3232.939
 70
    32
  0
VERTEX
  8
E21XLIFTS
 62
4
 10
-139.130
 20
-931.361
 30
3232.624
 70
    32
  0
VERTEX
  8
E21XLIFTS
 62
4
 10
-132.098
 20
-929.241
 30
3232.324
 70
    32
  0
VERTEX
  8
E21XLIFTS
 62
4
 10
-129.590
 20
-934.306
 30
3232.313
 70
    32
  0
VERTEX
  8
E21XLIFTS
 62
4
 10
-136.066
 20
-941.727
 30
3232.680
 70
    32
  0
VERTEX
  8
E21XLIFTS
 62
4
 10
-143.372
 20
-953.060
 30
3233.144
 70
    32
  0
VERTEX
  8
E21XLIFTS
 62
4
 10
-137.888
 20
-963.334
 30
3232.834
 70
    32
  0
VERTEX
  8
E21XLIFTS
 62
4
 10
-139.659
 20
-972.330
 30
3232.671
 70
    32
  0
VERTEX
  8
E21XLIFTS
 62
4
 10
-133.320
 20
-985.352
 30
3232.365
 70
    32
  0
VERTEX
  8
E21XLIFTS
 62
4
 10
-126.820
 20
-995.515
 30
3232.214
 70
    32
  0
VERTEX
  8
E21XLIFTS
 62
4
 10
-127.568
 20
-997.786
 30
3232.229
 70
    32
  0
VERTEX
  8
E21XLIFTS
 62
4
 10
-125.905
 20
-1002.655
 30
3232.210
 70
    32
  0
VERTEX
  8
E21XLIFTS
 62
4
 10
-123.562
 20
-1026.532
 30
3232.208
 70
    32
  0
SEQEND
  8
E21XLIFTS
  0
POLYLINE
  8
E21XLIFTS
 62
24
 66
     1
 70
     9
  0
VERTEX
  8
E21XLIFTS
 62
24
 10
147.292
 20
-1326.498
 30
3336.000
 70
    32
  0
VERTEX
  8
E21XLIFTS
 62
24
 10
145.349
 20
-1330.413
 30
3336.000
 70
    32
  0
VERTEX
  8
E21XLIFTS
 62
24
 10
137.859
 20
-1332.896
 30
3336.000
 70
    32
  0
VERTEX
  8
E21XLIFTS
 62
24
 10
131.975
 20
-1341.846
 30
3336.000
 70
    32
  0
VERTEX
  8
E21XLIFTS
 62
24
 10
126.559
 20
-1343.166
 30
3336.000
 70
    32
  0
VERTEX
  8
E21XLIFTS
 62
24
 10
122.624
 20
-1344.969
 30
3336.000
 70
    32
  0
VERTEX
  8
E21XLIFTS
 62
24
 10
118.612
 20
-1346.814
 30
3336.000
 70
    32
  0
VERTEX
  8
E21XLIFTS
 62
24
 10
115.230
 20
-1350.324
 30
3336.000
 70
    32
  0
VERTEX
  8
E21XLIFTS
 62
24
 10
113.926
 20
-1353.579
 30
3336.000
 70
    32
  0
VERTEX
  8
E21XLIFTS
 62
24
 10
113.657
 20
-1357.060
 30
3336.000
 70
    32
  0
VERTEX
  8
E21XLIFTS
 62
24
 10
113.553
 20
-1359.036
 30
3336.000
 70
    32
  0
VERTEX
  8
E21XLIFTS
 62
24
 10
99.579
 20
-1358.593
 30
3336.000
 70
    32
  0
VERTEX
  8
E21XLIFTS
 62
24
 10
98.649
 20
-1354.774
 30
3336.000
 70
    32
  0
VERTEX
  8
E21XLIFTS
 62
24
 10
97.047
 20
-1351.736
 30
3336.000
 70
    32
  0
VERTEX
  8
E21XLIFTS
 62
24
 10
94.607
 20
-1350.984
 30
3336.000
 70
    32
  0
VERTEX
  8
E21XLIFTS
 62
24
 10
92.435
 20
-1350.890
 30
3336.000
 70
    32
  0
VERTEX
  8
E21XLIFTS
 62
24
 10
91.150
 20
-1350.399
 30
3336.000
 70
    32
  0
VERTEX
  8
E21XLIFTS
 62
24
 10
86.722
 20
-1341.779
 30
3336.000
 70
    32
  0
VERTEX
  8
E21XLIFTS
 62
24
 10
88.057
 20
-1337.498
 30
3336.000
 70
    32
  0
VERTEX
  8
E21XLIFTS
 62
24
 10
88.599
 20
-1333.965
 30
3336.000
 70
    32
  0
VERTEX
  8
E21XLIFTS
 62
24
 10
88.649
 20
-1329.193
 30
3336.000
 70
    32
  0
VERTEX
  8
E21XLIFTS
 62
24
 10
88.489
 20
-1327.466
 30
3336.000
 70
    32
  0
VERTEX
  8
E21XLIFTS
 62
24
 10
86.569
 20
-1321.881
 30
3336.000
 70
    32
  0
VERTEX
  8
E21XLIFTS
 62
24
 10
85.259
 20
-1319.184
 30
3336.000
 70
    32
  0
VERTEX
  8
E21XLIFTS
 62
24
 10
84.982
 20
-1318.330
 30
3336.000
 70
    32
  0
VERTEX
  8
E21XLIFTS
 62
24
 10
85.676
 20
-1316.326
 30
3336.000
 70
    32
  0
VERTEX
  8
E21XLIFTS
 62
24
 10
86.148
 20
-1314.648
 30
3336.000
 70
    32
  0
VERTEX
  8
E21XLIFTS
 62
24
 10
84.504
 20
-1307.394
 30
3336.000
 70
    32
  0
VERTEX
  8
E21XLIFTS
 62
24
 10
81.524
 20
-1299.376
 30
3336.000
 70
    32
  0
VERTEX
  8
E21XLIFTS
 62
24
 10
78.673
 20
-1294.111
 30
3336.000
 70
    32
  0
VERTEX
  8
E21XLIFTS
 62
24
 10
77.276
 20
-1288.737
 30
3336.000
 70
    32
  0
VERTEX
  8
E21XLIFTS
 62
24
 10
76.002
 20
-1284.304
 30
3336.000
 70
    32
  0
VERTEX
  8
E21XLIFTS
 62
24
 10
79.650
 20
-1278.929
 30
3336.000
 70
    32
  0
VERTEX
  8
E21XLIFTS
 62
24
 10
81.437
 20
-1276.716
 30
3336.000
 70
    32
  0
VERTEX
  8
E21XLIFTS
 62
24
 10
81.633
 20
-1274.184
 30
3336.000
 70
    32
  0
VERTEX
  8
E21XLIFTS
 62
24
 10
81.003
 20
-1268.380
 30
3336.000
 70
    32
  0
VERTEX
  8
E21XLIFTS
 62
24
 10
80.437
 20
-1265.569
 30
3336.000
 70
    32
  0
VERTEX
  8
E21XLIFTS
 62
24
 10
80.685
 20
-1263.310
 30
3336.000
 70
    32
  0
VERTEX
  8
E21XLIFTS
 62
24
 10
82.275
 20
-1261.106
 30
3336.000
 70
    32
  0
VERTEX
  8
E21XLIFTS
 62
24
 10
82.843
 20
-1259.779
 30
3336.000
 70
    32
  0
VERTEX
  8
E21XLIFTS
 62
24
 10
79.912
 20
-1244.466
 30
3336.000
 70
    32
  0
VERTEX
  8
E21XLIFTS
 62
24
 10
86.307
 20
-1239.670
 30
3336.000
 70
    32
  0
VERTEX
  8
E21XLIFTS
 62
24
 10
94.459
 20
-1256.194
 30
3336.000
 70
    32
  0
VERTEX
  8
E21XLIFTS
 62
24
 10
98.487
 20
-1253.836
 30
3336.000
 70
    32
  0
VERTEX
  8
E21XLIFTS
 62
24
 10
101.024
 20
-1253.322
 30
3336.000
 70
    32
  0
VERTEX
  8
E21XLIFTS
 62
24
 10
103.371
 20
-1252.107
 30
3336.000
 70
    32
  0
VERTEX
  8
E21XLIFTS
 62
24
 10
111.969
 20
-1246.379
 30
3336.000
 70
    32
  0
VERTEX
  8
E21XLIFTS
 62
24
 10
115.982
 20
-1247.056
 30
3336.000
 70
    32
  0
VERTEX
  8
E21XLIFTS
 62
24
 10
123.118
 20
-1243.763
 30
3336.000
 70
    32
  0
VERTEX
  8
E21XLIFTS
 62
24
 10
130.898
 20
-1256.560
 30
3336.000
 70
    32
  0
VERTEX
  8
E21XLIFTS
 62
24
 10
134.919
 20
-1261.573
 30
3336.000
 70
    32
  0
VERTEX
  8
E21XLIFTS
 62
24
 10
136.923
 20
-1264.789
 30
3336.000
 70
    32
  0
VERTEX
  8
E21XLIFTS
 62
24
 10
140.397
 20
-1267.384
 30
3336.000
 70
    32
  0
VERTEX
  8
E21XLIFTS
 62
24
 10
143.168
 20
-1267.647
 30
3336.000
 70
    32
  0
VERTEX
  8
E21XLIFTS
 62
24
 10
145.245
 20
-1267.391
 30
3336.000
 70
    32
  0
VERTEX
  8
E21XLIFTS
 62
24
 10
150.038
 20
-1272.880
 30
3336.000
 70
    32
  0
VERTEX
  8
E21XLIFTS
 62
24
 10
148.285
 20
-1277.495
 30
3336.000
 70
    32
  0
VERTEX
  8
E21XLIFTS
 62
24
 10
147.625
 20
-1279.379
 30
3336.000
 70
    32
  0
VERTEX
  8
E21XLIFTS
 62
24
 10
149.826
 20
-1289.247
 30
3336.000
 70
    32
  0
VERTEX
  8
E21XLIFTS
 62
24
 10
151.885
 20
-1295.260
 30
3336.000
 70
    32
  0
VERTEX
  8
E21XLIFTS
 62
24
 10
152.567
 20
-1303.860
 30
3336.000
 70
    32
  0
VERTEX
  8
E21XLIFTS
 62
24
 10
154.639
 20
-1313.498
 30
3336.000
 70
    32
  0
VERTEX
  8
E21XLIFTS
 62
24
 10
154.926
 20
-1317.071
 30
3336.000
 70
    32
  0
VERTEX
  8
E21XLIFTS
 62
24
 10
151.990
 20
-1318.313
 30
3336.000
 70
    32
  0
SEQEND
  8
E21XLIFTS
  0
ENDSEC
  0
EOF
