999
********************************
999
*   DXF File - Entities Only   *
999
*        3D Data Format        *
999
*     Output from ENVISAGE     *
999
*     31-Dec-2007 14:14:49     *
999
********************************
  0
SECTION 
  2
HEADER
  9
$ACADVER
  1
AC1009
  9
$EXTMIN
 10
-290000.000
 20
-250000.000
 30
-4000.000
  9
$EXTMAX
 10
320000.000
 20
160000.000
 30
6000.000
  0
ENDSEC
  0
SECTION
  2
ENTITIES
  0
POLYLINE
  8
E23XLIFTS
 62
2
 66
     1
 70
     9
  0
VERTEX
  8
E23XLIFTS
 62
2
 10
-1312.595
 20
-696.212
 30
3063.496
 70
    32
  0
VERTEX
  8
E23XLIFTS
 62
2
 10
-1300.245
 20
-689.298
 30
3062.564
 70
    32
  0
VERTEX
  8
E23XLIFTS
 62
2
 10
-1299.296
 20
-670.786
 30
3059.732
 70
    32
  0
VERTEX
  8
E23XLIFTS
 62
2
 10
-1301.092
 20
-667.545
 30
3059.545
 70
    32
  0
VERTEX
  8
E23XLIFTS
 62
2
 10
-1307.394
 20
-663.118
 30
3059.827
 70
    32
  0
VERTEX
  8
E23XLIFTS
 62
2
 10
-1321.763
 20
-662.389
 30
3061.223
 70
    32
  0
VERTEX
  8
E23XLIFTS
 62
2
 10
-1337.493
 20
-674.625
 30
3063.198
 70
    32
  0
VERTEX
  8
E23XLIFTS
 62
2
 10
-1345.995
 20
-695.508
 30
3064.999
 70
    32
  0
VERTEX
  8
E23XLIFTS
 62
2
 10
-1353.963
 20
-708.456
 30
3066.937
 70
    32
  0
VERTEX
  8
E23XLIFTS
 62
2
 10
-1356.436
 20
-732.887
 30
3070.320
 70
    32
  0
VERTEX
  8
E23XLIFTS
 62
2
 10
-1351.752
 20
-742.618
 30
3072.313
 70
    32
  0
VERTEX
  8
E23XLIFTS
 62
2
 10
-1331.586
 20
-741.700
 30
3074.475
 70
    32
  0
VERTEX
  8
E23XLIFTS
 62
2
 10
-1326.559
 20
-733.805
 30
3073.864
 70
    32
  0
VERTEX
  8
E23XLIFTS
 62
2
 10
-1320.014
 20
-731.107
 30
3073.360
 70
    32
  0
VERTEX
  8
E23XLIFTS
 62
2
 10
-1312.957
 20
-730.959
 30
3074.093
 70
    32
  0
SEQEND
  8
E23XLIFTS
  0
POLYLINE
  8
E23XLIFTS
 62
8
 66
     1
 70
     9
  0
VERTEX
  8
E23XLIFTS
 62
8
 10
-1031.000
 20
-1440.000
 30
3008.930
 70
    32
  0
VERTEX
  8
E23XLIFTS
 62
8
 10
-1036.000
 20
-1444.000
 30
3008.958
 70
    32
  0
VERTEX
  8
E23XLIFTS
 62
8
 10
-1044.000
 20
-1445.000
 30
3009.011
 70
    32
  0
VERTEX
  8
E23XLIFTS
 62
8
 10
-1045.000
 20
-1448.000
 30
3009.015
 70
    32
  0
VERTEX
  8
E23XLIFTS
 62
8
 10
-1049.000
 20
-1452.000
 30
3009.041
 70
    32
  0
VERTEX
  8
E23XLIFTS
 62
8
 10
-1058.000
 20
-1451.000
 30
3009.112
 70
    32
  0
VERTEX
  8
E23XLIFTS
 62
8
 10
-1063.000
 20
-1449.000
 30
3009.154
 70
    32
  0
VERTEX
  8
E23XLIFTS
 62
8
 10
-1062.000
 20
-1443.000
 30
3009.153
 70
    32
  0
VERTEX
  8
E23XLIFTS
 62
8
 10
-1064.000
 20
-1440.000
 30
3009.179
 70
    32
  0
VERTEX
  8
E23XLIFTS
 62
8
 10
-1085.000
 20
-1427.000
 30
3009.564
 70
    32
  0
VERTEX
  8
E23XLIFTS
 62
8
 10
-1094.000
 20
-1417.000
 30
3009.760
 70
    32
  0
VERTEX
  8
E23XLIFTS
 62
8
 10
-1094.000
 20
-1414.000
 30
3009.632
 70
    32
  0
VERTEX
  8
E23XLIFTS
 62
8
 10
-1079.000
 20
-1400.000
 30
3009.891
 70
    32
  0
VERTEX
  8
E23XLIFTS
 62
8
 10
-1075.000
 20
-1400.000
 30
3009.835
 70
    32
  0
VERTEX
  8
E23XLIFTS
 62
8
 10
-1064.000
 20
-1410.000
 30
3009.503
 70
    32
  0
VERTEX
  8
E23XLIFTS
 62
8
 10
-1040.000
 20
-1423.000
 30
3009.101
 70
    32
  0
SEQEND
  8
E23XLIFTS
  0
POLYLINE
  8
E23XLIFTS
 62
8
 66
     1
 70
     9
  0
VERTEX
  8
E23XLIFTS
 62
8
 10
-905.332
 20
-1528.128
 30
3004.516
 70
    32
  0
VERTEX
  8
E23XLIFTS
 62
8
 10
-902.061
 20
-1526.562
 30
3004.522
 70
    32
  0
VERTEX
  8
E23XLIFTS
 62
8
 10
-901.700
 20
-1506.540
 30
3003.051
 70
    32
  0
VERTEX
  8
E23XLIFTS
 62
8
 10
-904.271
 20
-1482.893
 30
3000.335
 70
    32
  0
VERTEX
  8
E23XLIFTS
 62
8
 10
-901.095
 20
-1476.908
 30
3000.539
 70
    32
  0
VERTEX
  8
E23XLIFTS
 62
8
 10
-898.910
 20
-1450.711
 30
3004.415
 70
    32
  0
VERTEX
  8
E23XLIFTS
 62
8
 10
-898.836
 20
-1447.122
 30
3004.079
 70
    32
  0
VERTEX
  8
E23XLIFTS
 62
8
 10
-892.285
 20
-1446.006
 30
3003.431
 70
    32
  0
VERTEX
  8
E23XLIFTS
 62
8
 10
-884.156
 20
-1448.661
 30
3002.607
 70
    32
  0
VERTEX
  8
E23XLIFTS
 62
8
 10
-874.296
 20
-1455.080
 30
3001.124
 70
    32
  0
VERTEX
  8
E23XLIFTS
 62
8
 10
-872.969
 20
-1452.574
 30
3001.218
 70
    32
  0
VERTEX
  8
E23XLIFTS
 62
8
 10
-870.964
 20
-1452.819
 30
3001.300
 70
    32
  0
VERTEX
  8
E23XLIFTS
 62
8
 10
-865.363
 20
-1455.428
 30
3004.770
 70
    32
  0
VERTEX
  8
E23XLIFTS
 62
8
 10
-859.820
 20
-1459.642
 30
3004.781
 70
    32
  0
VERTEX
  8
E23XLIFTS
 62
8
 10
-857.250
 20
-1464.537
 30
3004.797
 70
    32
  0
VERTEX
  8
E23XLIFTS
 62
8
 10
-877.408
 20
-1488.061
 30
3004.230
 70
    32
  0
VERTEX
  8
E23XLIFTS
 62
8
 10
-880.642
 20
-1493.796
 30
3004.431
 70
    32
  0
VERTEX
  8
E23XLIFTS
 62
8
 10
-880.879
 20
-1514.568
 30
3004.952
 70
    32
  0
VERTEX
  8
E23XLIFTS
 62
8
 10
-889.495
 20
-1520.225
 30
3004.781
 70
    32
  0
VERTEX
  8
E23XLIFTS
 62
8
 10
-889.216
 20
-1530.472
 30
3004.892
 70
    32
  0
VERTEX
  8
E23XLIFTS
 62
8
 10
-886.470
 20
-1534.557
 30
3005.003
 70
    32
  0
VERTEX
  8
E23XLIFTS
 62
8
 10
-888.722
 20
-1546.738
 30
3004.960
 70
    32
  0
SEQEND
  8
E23XLIFTS
  0
POLYLINE
  8
E23XLIFTS
 62
8
 66
     1
 70
     9
  0
VERTEX
  8
E23XLIFTS
 62
8
 10
-941.000
 20
-1439.000
 30
3007.631
 70
    32
  0
VERTEX
  8
E23XLIFTS
 62
8
 10
-939.000
 20
-1430.000
 30
3007.750
 70
    32
  0
VERTEX
  8
E23XLIFTS
 62
8
 10
-932.000
 20
-1426.000
 30
3007.756
 70
    32
  0
VERTEX
  8
E23XLIFTS
 62
8
 10
-926.000
 20
-1426.000
 30
3007.741
 70
    32
  0
VERTEX
  8
E23XLIFTS
 62
8
 10
-919.000
 20
-1422.000
 30
3007.699
 70
    32
  0
VERTEX
  8
E23XLIFTS
 62
8
 10
-908.000
 20
-1427.000
 30
3007.008
 70
    32
  0
VERTEX
  8
E23XLIFTS
 62
8
 10
-906.000
 20
-1438.000
 30
3006.905
 70
    32
  0
VERTEX
  8
E23XLIFTS
 62
8
 10
-904.000
 20
-1437.000
 30
3006.466
 70
    32
  0
VERTEX
  8
E23XLIFTS
 62
8
 10
-901.000
 20
-1439.000
 30
3005.855
 70
    32
  0
VERTEX
  8
E23XLIFTS
 62
8
 10
-900.000
 20
-1446.000
 30
3004.967
 70
    32
  0
VERTEX
  8
E23XLIFTS
 62
8
 10
-902.000
 20
-1448.000
 30
3004.914
 70
    32
  0
VERTEX
  8
E23XLIFTS
 62
8
 10
-905.821
 20
-1448.000
 30
3007.002
 70
    32
  0
VERTEX
  8
E23XLIFTS
 62
8
 10
-932.000
 20
-1446.000
 30
3007.239
 70
    32
  0
SEQEND
  8
E23XLIFTS
  0
POLYLINE
  8
E23XLIFTS
 62
6
 66
     1
 70
     9
  0
VERTEX
  8
E23XLIFTS
 62
6
 10
-922.704
 20
-1471.497
 30
3060.712
 70
    32
  0
VERTEX
  8
E23XLIFTS
 62
6
 10
-929.848
 20
-1471.022
 30
3059.847
 70
    32
  0
VERTEX
  8
E23XLIFTS
 62
6
 10
-932.753
 20
-1468.366
 30
3059.186
 70
    32
  0
VERTEX
  8
E23XLIFTS
 62
6
 10
-936.848
 20
-1460.235
 30
3057.684
 70
    32
  0
VERTEX
  8
E23XLIFTS
 62
6
 10
-942.027
 20
-1453.262
 30
3056.167
 70
    32
  0
VERTEX
  8
E23XLIFTS
 62
6
 10
-952.388
 20
-1449.677
 30
3054.417
 70
    32
  0
VERTEX
  8
E23XLIFTS
 62
6
 10
-969.664
 20
-1452.789
 30
3052.562
 70
    32
  0
VERTEX
  8
E23XLIFTS
 62
6
 10
-974.601
 20
-1461.348
 30
3052.744
 70
    32
  0
VERTEX
  8
E23XLIFTS
 62
6
 10
-983.721
 20
-1465.586
 30
3051.881
 70
    32
  0
VERTEX
  8
E23XLIFTS
 62
6
 10
-985.354
 20
-1463.799
 30
3051.481
 70
    32
  0
VERTEX
  8
E23XLIFTS
 62
6
 10
-986.127
 20
-1454.359
 30
3050.463
 70
    32
  0
VERTEX
  8
E23XLIFTS
 62
6
 10
-989.225
 20
-1445.800
 30
3049.207
 70
    32
  0
VERTEX
  8
E23XLIFTS
 62
6
 10
-987.180
 20
-1435.941
 30
3048.542
 70
    32
  0
VERTEX
  8
E23XLIFTS
 62
6
 10
-982.773
 20
-1433.588
 30
3048.542
 70
    32
  0
VERTEX
  8
E23XLIFTS
 62
6
 10
-981.712
 20
-1425.340
 30
3048.223
 70
    32
  0
VERTEX
  8
E23XLIFTS
 62
6
 10
-973.621
 20
-1415.664
 30
3048.228
 70
    32
  0
VERTEX
  8
E23XLIFTS
 62
6
 10
-963.271
 20
-1410.560
 30
3048.290
 70
    32
  0
VERTEX
  8
E23XLIFTS
 62
6
 10
-959.642
 20
-1406.480
 30
3048.321
 70
    32
  0
VERTEX
  8
E23XLIFTS
 62
6
 10
-950.786
 20
-1404.055
 30
3048.282
 70
    32
  0
VERTEX
  8
E23XLIFTS
 62
6
 10
-936.476
 20
-1428.272
 30
3048.260
 70
    32
  0
VERTEX
  8
E23XLIFTS
 62
6
 10
-932.163
 20
-1438.007
 30
3048.260
 70
    32
  0
VERTEX
  8
E23XLIFTS
 62
6
 10
-912.472
 20
-1458.178
 30
3060.215
 70
    32
  0
SEQEND
  8
E23XLIFTS
  0
POLYLINE
  8
E23XLIFTS
 62
7
 66
     1
 70
     9
  0
VERTEX
  8
E23XLIFTS
 62
7
 10
-967.000
 20
-1627.000
 30
2956.622
 70
    32
  0
VERTEX
  8
E23XLIFTS
 62
7
 10
-960.000
 20
-1628.000
 30
2956.621
 70
    32
  0
VERTEX
  8
E23XLIFTS
 62
7
 10
-954.000
 20
-1625.000
 30
2956.599
 70
    32
  0
VERTEX
  8
E23XLIFTS
 62
7
 10
-950.000
 20
-1621.000
 30
2956.607
 70
    32
  0
VERTEX
  8
E23XLIFTS
 62
7
 10
-948.000
 20
-1614.000
 30
2956.624
 70
    32
  0
VERTEX
  8
E23XLIFTS
 62
7
 10
-942.000
 20
-1611.000
 30
2956.630
 70
    32
  0
VERTEX
  8
E23XLIFTS
 62
7
 10
-942.000
 20
-1607.000
 30
2956.640
 70
    32
  0
VERTEX
  8
E23XLIFTS
 62
7
 10
-945.000
 20
-1602.000
 30
2956.654
 70
    32
  0
VERTEX
  8
E23XLIFTS
 62
7
 10
-950.000
 20
-1599.000
 30
2956.663
 70
    32
  0
VERTEX
  8
E23XLIFTS
 62
7
 10
-956.000
 20
-1584.000
 30
2956.753
 70
    32
  0
VERTEX
  8
E23XLIFTS
 62
7
 10
-965.000
 20
-1580.000
 30
2956.852
 70
    32
  0
VERTEX
  8
E23XLIFTS
 62
7
 10
-967.000
 20
-1572.000
 30
2956.880
 70
    32
  0
VERTEX
  8
E23XLIFTS
 62
7
 10
-975.000
 20
-1576.000
 30
2956.961
 70
    32
  0
VERTEX
  8
E23XLIFTS
 62
7
 10
-972.000
 20
-1587.000
 30
2956.920
 70
    32
  0
VERTEX
  8
E23XLIFTS
 62
7
 10
-972.000
 20
-1591.000
 30
2956.911
 70
    32
  0
VERTEX
  8
E23XLIFTS
 62
7
 10
-974.000
 20
-1593.000
 30
2956.908
 70
    32
  0
VERTEX
  8
E23XLIFTS
 62
7
 10
-978.000
 20
-1593.000
 30
2956.920
 70
    32
  0
SEQEND
  8
E23XLIFTS
  0
POLYLINE
  8
E23XLIFTS
 62
8
 66
     1
 70
     9
  0
VERTEX
  8
E23XLIFTS
 62
8
 10
-799.604
 20
-1693.758
 30
3015.590
 70
    32
  0
VERTEX
  8
E23XLIFTS
 62
8
 10
-800.563
 20
-1704.652
 30
3010.888
 70
    32
  0
VERTEX
  8
E23XLIFTS
 62
8
 10
-803.395
 20
-1736.830
 30
3007.757
 70
    32
  0
VERTEX
  8
E23XLIFTS
 62
8
 10
-813.499
 20
-1756.633
 30
3005.609
 70
    32
  0
VERTEX
  8
E23XLIFTS
 62
8
 10
-819.557
 20
-1761.364
 30
3005.021
 70
    32
  0
VERTEX
  8
E23XLIFTS
 62
8
 10
-830.388
 20
-1761.237
 30
3004.721
 70
    32
  0
VERTEX
  8
E23XLIFTS
 62
8
 10
-835.174
 20
-1765.960
 30
3004.443
 70
    32
  0
VERTEX
  8
E23XLIFTS
 62
8
 10
-845.313
 20
-1755.365
 30
3004.538
 70
    32
  0
VERTEX
  8
E23XLIFTS
 62
8
 10
-839.520
 20
-1747.407
 30
3005.414
 70
    32
  0
VERTEX
  8
E23XLIFTS
 62
8
 10
-837.404
 20
-1702.680
 30
3009.227
 70
    32
  0
VERTEX
  8
E23XLIFTS
 62
8
 10
-825.341
 20
-1696.195
 30
3010.213
 70
    32
  0
VERTEX
  8
E23XLIFTS
 62
8
 10
-819.690
 20
-1693.157
 30
3011.932
 70
    32
  0
VERTEX
  8
E23XLIFTS
 62
8
 10
-811.463
 20
-1691.580
 30
3013.618
 70
    32
  0
SEQEND
  8
E23XLIFTS
  0
POLYLINE
  8
E23XLIFTS
 62
7
 66
     1
 70
     9
  0
VERTEX
  8
E23XLIFTS
 62
7
 10
-832.000
 20
-1706.000
 30
2960.359
 70
    32
  0
VERTEX
  8
E23XLIFTS
 62
7
 10
-802.000
 20
-1750.000
 30
2961.733
 70
    32
  0
VERTEX
  8
E23XLIFTS
 62
7
 10
-787.000
 20
-1749.000
 30
2962.011
 70
    32
  0
VERTEX
  8
E23XLIFTS
 62
7
 10
-777.000
 20
-1759.000
 30
2962.393
 70
    32
  0
VERTEX
  8
E23XLIFTS
 62
7
 10
-769.000
 20
-1778.000
 30
2962.878
 70
    32
  0
VERTEX
  8
E23XLIFTS
 62
7
 10
-762.000
 20
-1780.000
 30
2963.014
 70
    32
  0
VERTEX
  8
E23XLIFTS
 62
7
 10
-753.000
 20
-1796.000
 30
2963.424
 70
    32
  0
VERTEX
  8
E23XLIFTS
 62
7
 10
-735.000
 20
-1788.000
 30
2963.424
 70
    32
  0
VERTEX
  8
E23XLIFTS
 62
7
 10
-743.000
 20
-1767.000
 30
2962.992
 70
    32
  0
VERTEX
  8
E23XLIFTS
 62
7
 10
-741.000
 20
-1766.000
 30
2962.998
 70
    32
  0
VERTEX
  8
E23XLIFTS
 62
7
 10
-744.000
 20
-1752.000
 30
2962.678
 70
    32
  0
VERTEX
  8
E23XLIFTS
 62
7
 10
-743.000
 20
-1742.000
 30
2962.527
 70
    32
  0
VERTEX
  8
E23XLIFTS
 62
7
 10
-751.000
 20
-1739.000
 30
2962.376
 70
    32
  0
VERTEX
  8
E23XLIFTS
 62
7
 10
-765.000
 20
-1726.000
 30
2961.973
 70
    32
  0
VERTEX
  8
E23XLIFTS
 62
7
 10
-772.000
 20
-1725.000
 30
2961.861
 70
    32
  0
VERTEX
  8
E23XLIFTS
 62
7
 10
-782.000
 20
-1717.000
 30
2961.511
 70
    32
  0
VERTEX
  8
E23XLIFTS
 62
7
 10
-782.000
 20
-1714.000
 30
2961.470
 70
    32
  0
VERTEX
  8
E23XLIFTS
 62
7
 10
-800.000
 20
-1702.000
 30
2960.958
 70
    32
  0
VERTEX
  8
E23XLIFTS
 62
7
 10
-823.000
 20
-1698.000
 30
2960.443
 70
    32
  0
SEQEND
  8
E23XLIFTS
  0
POLYLINE
  8
E23XLIFTS
 62
8
 66
     1
 70
     9
  0
VERTEX
  8
E23XLIFTS
 62
8
 10
-712.770
 20
-1724.996
 30
3034.084
 70
    32
  0
VERTEX
  8
E23XLIFTS
 62
8
 10
-714.423
 20
-1731.434
 30
3034.237
 70
    32
  0
VERTEX
  8
E23XLIFTS
 62
8
 10
-709.345
 20
-1737.706
 30
3033.764
 70
    32
  0
VERTEX
  8
E23XLIFTS
 62
8
 10
-712.211
 20
-1742.374
 30
3033.588
 70
    32
  0
VERTEX
  8
E23XLIFTS
 62
8
 10
-705.375
 20
-1757.941
 30
3032.149
 70
    32
  0
VERTEX
  8
E23XLIFTS
 62
8
 10
-710.690
 20
-1764.648
 30
3032.156
 70
    32
  0
VERTEX
  8
E23XLIFTS
 62
8
 10
-717.427
 20
-1789.651
 30
3033.031
 70
    32
  0
VERTEX
  8
E23XLIFTS
 62
8
 10
-709.752
 20
-1790.661
 30
3033.309
 70
    32
  0
VERTEX
  8
E23XLIFTS
 62
8
 10
-698.531
 20
-1789.395
 30
3033.596
 70
    32
  0
VERTEX
  8
E23XLIFTS
 62
8
 10
-690.103
 20
-1790.380
 30
3033.989
 70
    32
  0
VERTEX
  8
E23XLIFTS
 62
8
 10
-680.942
 20
-1801.649
 30
3034.615
 70
    32
  0
VERTEX
  8
E23XLIFTS
 62
8
 10
-661.348
 20
-1816.856
 30
3035.807
 70
    32
  0
VERTEX
  8
E23XLIFTS
 62
8
 10
-638.904
 20
-1850.322
 30
3038.445
 70
    32
  0
VERTEX
  8
E23XLIFTS
 62
8
 10
-639.050
 20
-1855.153
 30
3038.838
 70
    32
  0
VERTEX
  8
E23XLIFTS
 62
8
 10
-634.587
 20
-1859.484
 30
3039.312
 70
    32
  0
VERTEX
  8
E23XLIFTS
 62
8
 10
-630.871
 20
-1871.833
 30
3040.252
 70
    32
  0
VERTEX
  8
E23XLIFTS
 62
8
 10
-629.929
 20
-1882.361
 30
3041.278
 70
    32
  0
VERTEX
  8
E23XLIFTS
 62
8
 10
-595.717
 20
-1891.256
 30
3041.733
 70
    32
  0
VERTEX
  8
E23XLIFTS
 62
8
 10
-583.915
 20
-1870.724
 30
3039.795
 70
    32
  0
VERTEX
  8
E23XLIFTS
 62
8
 10
-580.861
 20
-1860.374
 30
3038.869
 70
    32
  0
VERTEX
  8
E23XLIFTS
 62
8
 10
-582.185
 20
-1854.552
 30
3038.596
 70
    32
  0
VERTEX
  8
E23XLIFTS
 62
8
 10
-587.328
 20
-1846.159
 30
3038.238
 70
    32
  0
VERTEX
  8
E23XLIFTS
 62
8
 10
-588.847
 20
-1841.525
 30
3038.025
 70
    32
  0
VERTEX
  8
E23XLIFTS
 62
8
 10
-591.673
 20
-1824.409
 30
3037.118
 70
    32
  0
VERTEX
  8
E23XLIFTS
 62
8
 10
-610.921
 20
-1807.675
 30
3035.962
 70
    32
  0
VERTEX
  8
E23XLIFTS
 62
8
 10
-621.948
 20
-1795.436
 30
3035.535
 70
    32
  0
VERTEX
  8
E23XLIFTS
 62
8
 10
-640.106
 20
-1769.016
 30
3034.732
 70
    32
  0
VERTEX
  8
E23XLIFTS
 62
8
 10
-654.531
 20
-1761.408
 30
3034.309
 70
    32
  0
VERTEX
  8
E23XLIFTS
 62
8
 10
-681.300
 20
-1727.902
 30
3032.949
 70
    32
  0
VERTEX
  8
E23XLIFTS
 62
8
 10
-675.032
 20
-1720.306
 30
3033.163
 70
    32
  0
VERTEX
  8
E23XLIFTS
 62
8
 10
-670.381
 20
-1712.128
 30
3033.186
 70
    32
  0
VERTEX
  8
E23XLIFTS
 62
8
 10
-675.857
 20
-1703.241
 30
3033.239
 70
    32
  0
VERTEX
  8
E23XLIFTS
 62
8
 10
-678.314
 20
-1690.305
 30
3033.547
 70
    32
  0
VERTEX
  8
E23XLIFTS
 62
8
 10
-673.208
 20
-1683.026
 30
3033.630
 70
    32
  0
VERTEX
  8
E23XLIFTS
 62
8
 10
-673.943
 20
-1677.685
 30
3033.753
 70
    32
  0
VERTEX
  8
E23XLIFTS
 62
8
 10
-679.424
 20
-1670.693
 30
3033.983
 70
    32
  0
VERTEX
  8
E23XLIFTS
 62
8
 10
-672.640
 20
-1661.176
 30
3033.922
 70
    32
  0
VERTEX
  8
E23XLIFTS
 62
8
 10
-687.076
 20
-1634.412
 30
3034.309
 70
    32
  0
VERTEX
  8
E23XLIFTS
 62
8
 10
-692.223
 20
-1630.937
 30
3034.295
 70
    32
  0
VERTEX
  8
E23XLIFTS
 62
8
 10
-693.357
 20
-1623.824
 30
3034.473
 70
    32
  0
VERTEX
  8
E23XLIFTS
 62
8
 10
-701.590
 20
-1626.091
 30
3034.248
 70
    32
  0
VERTEX
  8
E23XLIFTS
 62
8
 10
-710.504
 20
-1625.064
 30
3033.981
 70
    32
  0
VERTEX
  8
E23XLIFTS
 62
8
 10
-722.012
 20
-1636.360
 30
3032.921
 70
    32
  0
VERTEX
  8
E23XLIFTS
 62
8
 10
-729.268
 20
-1637.706
 30
3032.528
 70
    32
  0
VERTEX
  8
E23XLIFTS
 62
8
 10
-727.916
 20
-1643.066
 30
3032.334
 70
    32
  0
VERTEX
  8
E23XLIFTS
 62
8
 10
-729.612
 20
-1654.934
 30
3031.918
 70
    32
  0
VERTEX
  8
E23XLIFTS
 62
8
 10
-723.320
 20
-1665.726
 30
3033.104
 70
    32
  0
VERTEX
  8
E23XLIFTS
 62
8
 10
-723.230
 20
-1668.487
 30
3033.377
 70
    32
  0
VERTEX
  8
E23XLIFTS
 62
8
 10
-713.703
 20
-1689.532
 30
3033.377
 70
    32
  0
SEQEND
  8
E23XLIFTS
  0
POLYLINE
  8
E23XLIFTS
 62
8
 66
     1
 70
     9
  0
VERTEX
  8
E23XLIFTS
 62
8
 10
-477.201
 20
-2057.361
 30
3003.950
 70
    32
  0
VERTEX
  8
E23XLIFTS
 62
8
 10
-487.171
 20
-2042.608
 30
3004.251
 70
    32
  0
VERTEX
  8
E23XLIFTS
 62
8
 10
-486.135
 20
-2032.334
 30
3005.317
 70
    32
  0
VERTEX
  8
E23XLIFTS
 62
8
 10
-489.712
 20
-2023.261
 30
3005.601
 70
    32
  0
VERTEX
  8
E23XLIFTS
 62
8
 10
-502.763
 20
-2023.783
 30
3003.644
 70
    32
  0
VERTEX
  8
E23XLIFTS
 62
8
 10
-507.123
 20
-2038.112
 30
3001.730
 70
    32
  0
VERTEX
  8
E23XLIFTS
 62
8
 10
-504.843
 20
-2050.933
 30
3000.971
 70
    32
  0
VERTEX
  8
E23XLIFTS
 62
8
 10
-514.999
 20
-2053.221
 30
2999.859
 70
    32
  0
VERTEX
  8
E23XLIFTS
 62
8
 10
-528.127
 20
-2064.965
 30
2998.224
 70
    32
  0
VERTEX
  8
E23XLIFTS
 62
8
 10
-522.222
 20
-2082.677
 30
2997.415
 70
    32
  0
VERTEX
  8
E23XLIFTS
 62
8
 10
-528.489
 20
-2089.145
 30
2996.549
 70
    32
  0
VERTEX
  8
E23XLIFTS
 62
8
 10
-526.167
 20
-2096.832
 30
2996.708
 70
    32
  0
VERTEX
  8
E23XLIFTS
 62
8
 10
-528.293
 20
-2104.864
 30
2996.039
 70
    32
  0
VERTEX
  8
E23XLIFTS
 62
8
 10
-509.402
 20
-2119.439
 30
2995.118
 70
    32
  0
VERTEX
  8
E23XLIFTS
 62
8
 10
-509.145
 20
-2125.329
 30
2994.680
 70
    32
  0
VERTEX
  8
E23XLIFTS
 62
8
 10
-501.827
 20
-2126.555
 30
2994.681
 70
    32
  0
VERTEX
  8
E23XLIFTS
 62
8
 10
-491.926
 20
-2134.438
 30
2994.347
 70
    32
  0
VERTEX
  8
E23XLIFTS
 62
8
 10
-491.418
 20
-2157.073
 30
2992.925
 70
    32
  0
VERTEX
  8
E23XLIFTS
 62
8
 10
-521.287
 20
-2169.704
 30
2992.271
 70
    32
  0
VERTEX
  8
E23XLIFTS
 62
8
 10
-509.867
 20
-2189.753
 30
2991.013
 70
    32
  0
VERTEX
  8
E23XLIFTS
 62
8
 10
-510.918
 20
-2217.165
 30
2989.499
 70
    32
  0
VERTEX
  8
E23XLIFTS
 62
8
 10
-495.763
 20
-2228.414
 30
2989.037
 70
    32
  0
VERTEX
  8
E23XLIFTS
 62
8
 10
-494.003
 20
-2263.607
 30
2988.906
 70
    32
  0
VERTEX
  8
E23XLIFTS
 62
8
 10
-468.492
 20
-2257.751
 30
2988.773
 70
    32
  0
VERTEX
  8
E23XLIFTS
 62
8
 10
-474.880
 20
-2240.898
 30
2988.936
 70
    32
  0
VERTEX
  8
E23XLIFTS
 62
8
 10
-473.389
 20
-2209.571
 30
2990.020
 70
    32
  0
VERTEX
  8
E23XLIFTS
 62
8
 10
-480.705
 20
-2196.856
 30
2990.683
 70
    32
  0
VERTEX
  8
E23XLIFTS
 62
8
 10
-479.359
 20
-2146.265
 30
2994.309
 70
    32
  0
VERTEX
  8
E23XLIFTS
 62
8
 10
-453.151
 20
-2146.322
 30
2994.795
 70
    32
  0
VERTEX
  8
E23XLIFTS
 62
8
 10
-456.076
 20
-2104.681
 30
2997.752
 70
    32
  0
VERTEX
  8
E23XLIFTS
 62
8
 10
-461.227
 20
-2098.162
 30
2998.567
 70
    32
  0
VERTEX
  8
E23XLIFTS
 62
8
 10
-465.601
 20
-2086.650
 30
3000.146
 70
    32
  0
VERTEX
  8
E23XLIFTS
 62
8
 10
-469.222
 20
-2066.650
 30
3002.879
 70
    32
  0
SEQEND
  8
E23XLIFTS
  0
POLYLINE
  8
E23XLIFTS
 62
8
 66
     1
 70
     9
  0
VERTEX
  8
E23XLIFTS
 62
8
 10
-631.776
 20
-2038.958
 30
3047.974
 70
    32
  0
VERTEX
  8
E23XLIFTS
 62
8
 10
-633.723
 20
-2040.954
 30
3047.949
 70
    32
  0
VERTEX
  8
E23XLIFTS
 62
8
 10
-637.563
 20
-2041.971
 30
3047.814
 70
    32
  0
VERTEX
  8
E23XLIFTS
 62
8
 10
-644.976
 20
-2040.251
 30
3047.445
 70
    32
  0
VERTEX
  8
E23XLIFTS
 62
8
 10
-647.077
 20
-2045.225
 30
3047.502
 70
    32
  0
VERTEX
  8
E23XLIFTS
 62
8
 10
-644.448
 20
-2052.517
 30
3047.694
 70
    32
  0
VERTEX
  8
E23XLIFTS
 62
8
 10
-645.044
 20
-2061.870
 30
3047.556
 70
    32
  0
VERTEX
  8
E23XLIFTS
 62
8
 10
-631.508
 20
-2080.076
 30
3047.700
 70
    32
  0
VERTEX
  8
E23XLIFTS
 62
8
 10
-625.866
 20
-2083.218
 30
3047.671
 70
    32
  0
VERTEX
  8
E23XLIFTS
 62
8
 10
-612.485
 20
-2098.409
 30
3047.757
 70
    32
  0
VERTEX
  8
E23XLIFTS
 62
8
 10
-606.185
 20
-2113.349
 30
3047.954
 70
    32
  0
VERTEX
  8
E23XLIFTS
 62
8
 10
-596.841
 20
-2127.724
 30
3048.102
 70
    32
  0
VERTEX
  8
E23XLIFTS
 62
8
 10
-593.436
 20
-2135.181
 30
3048.265
 70
    32
  0
VERTEX
  8
E23XLIFTS
 62
8
 10
-580.584
 20
-2141.077
 30
3048.014
 70
    32
  0
VERTEX
  8
E23XLIFTS
 62
8
 10
-576.755
 20
-2144.824
 30
3047.909
 70
    32
  0
VERTEX
  8
E23XLIFTS
 62
8
 10
-559.522
 20
-2133.285
 30
3048.067
 70
    32
  0
VERTEX
  8
E23XLIFTS
 62
8
 10
-558.718
 20
-2130.990
 30
3048.085
 70
    32
  0
VERTEX
  8
E23XLIFTS
 62
8
 10
-564.589
 20
-2121.405
 30
3048.116
 70
    32
  0
VERTEX
  8
E23XLIFTS
 62
8
 10
-560.051
 20
-2113.028
 30
3048.155
 70
    32
  0
VERTEX
  8
E23XLIFTS
 62
8
 10
-560.812
 20
-2111.172
 30
3048.112
 70
    32
  0
VERTEX
  8
E23XLIFTS
 62
8
 10
-577.893
 20
-2100.729
 30
3047.745
 70
    32
  0
VERTEX
  8
E23XLIFTS
 62
8
 10
-586.446
 20
-2072.843
 30
3047.114
 70
    32
  0
VERTEX
  8
E23XLIFTS
 62
8
 10
-589.015
 20
-2069.697
 30
3047.028
 70
    32
  0
VERTEX
  8
E23XLIFTS
 62
8
 10
-595.462
 20
-2052.869
 30
3046.635
 70
    32
  0
VERTEX
  8
E23XLIFTS
 62
8
 10
-598.788
 20
-2047.969
 30
3046.515
 70
    32
  0
VERTEX
  8
E23XLIFTS
 62
8
 10
-602.618
 20
-2045.195
 30
3046.556
 70
    32
  0
VERTEX
  8
E23XLIFTS
 62
8
 10
-613.058
 20
-2045.373
 30
3047.184
 70
    32
  0
VERTEX
  8
E23XLIFTS
 62
8
 10
-616.493
 20
-2042.322
 30
3047.706
 70
    32
  0
VERTEX
  8
E23XLIFTS
 62
8
 10
-620.313
 20
-2035.757
 30
3048.372
 70
    32
  0
SEQEND
  8
E23XLIFTS
  0
POLYLINE
  8
E23XLIFTS
 62
8
 66
     1
 70
     9
  0
VERTEX
  8
E23XLIFTS
 62
8
 10
-61.968
 20
-2251.687
 30
2908.574
 70
    32
  0
VERTEX
  8
E23XLIFTS
 62
8
 10
-59.873
 20
-2266.120
 30
2907.196
 70
    32
  0
VERTEX
  8
E23XLIFTS
 62
8
 10
-53.546
 20
-2274.701
 30
2906.060
 70
    32
  0
VERTEX
  8
E23XLIFTS
 62
8
 10
-43.524
 20
-2284.863
 30
2904.550
 70
    32
  0
VERTEX
  8
E23XLIFTS
 62
8
 10
-35.406
 20
-2301.630
 30
2902.633
 70
    32
  0
VERTEX
  8
E23XLIFTS
 62
8
 10
-23.881
 20
-2294.444
 30
2902.697
 70
    32
  0
VERTEX
  8
E23XLIFTS
 62
8
 10
-22.478
 20
-2287.621
 30
2903.196
 70
    32
  0
VERTEX
  8
E23XLIFTS
 62
8
 10
-28.892
 20
-2276.588
 30
2904.401
 70
    32
  0
VERTEX
  8
E23XLIFTS
 62
8
 10
-36.408
 20
-2259.966
 30
2906.178
 70
    32
  0
VERTEX
  8
E23XLIFTS
 62
8
 10
-37.859
 20
-2259.158
 30
2906.341
 70
    32
  0
VERTEX
  8
E23XLIFTS
 62
8
 10
-43.845
 20
-2241.892
 30
2908.179
 70
    32
  0
VERTEX
  8
E23XLIFTS
 62
8
 10
-51.492
 20
-2241.043
 30
2908.796
 70
    32
  0
SEQEND
  8
E23XLIFTS
  0
POLYLINE
  8
E23XLIFTS
 62
20
 66
     1
 70
     9
  0
VERTEX
  8
E23XLIFTS
 62
20
 10
586.433
 20
-2817.785
 30
2970.570
 70
    32
  0
VERTEX
  8
E23XLIFTS
 62
20
 10
588.803
 20
-2815.589
 30
2970.570
 70
    32
  0
VERTEX
  8
E23XLIFTS
 62
20
 10
586.377
 20
-2801.156
 30
2970.570
 70
    32
  0
VERTEX
  8
E23XLIFTS
 62
20
 10
575.336
 20
-2793.052
 30
2970.570
 70
    32
  0
VERTEX
  8
E23XLIFTS
 62
20
 10
558.610
 20
-2790.249
 30
2970.570
 70
    32
  0
VERTEX
  8
E23XLIFTS
 62
20
 10
558.536
 20
-2798.849
 30
2970.570
 70
    32
  0
VERTEX
  8
E23XLIFTS
 62
20
 10
553.131
 20
-2801.151
 30
2970.570
 70
    32
  0
VERTEX
  8
E23XLIFTS
 62
20
 10
553.844
 20
-2806.377
 30
2970.570
 70
    32
  0
VERTEX
  8
E23XLIFTS
 62
20
 10
551.561
 20
-2816.321
 30
2970.570
 70
    32
  0
VERTEX
  8
E23XLIFTS
 62
20
 10
555.388
 20
-2820.929
 30
2970.570
 70
    32
  0
VERTEX
  8
E23XLIFTS
 62
20
 10
558.511
 20
-2841.382
 30
2970.570
 70
    32
  0
VERTEX
  8
E23XLIFTS
 62
20
 10
565.370
 20
-2856.310
 30
2970.570
 70
    32
  0
VERTEX
  8
E23XLIFTS
 62
20
 10
566.316
 20
-2856.345
 30
2970.570
 70
    32
  0
VERTEX
  8
E23XLIFTS
 62
20
 10
568.611
 20
-2869.646
 30
2970.570
 70
    32
  0
VERTEX
  8
E23XLIFTS
 62
20
 10
571.644
 20
-2873.546
 30
2970.570
 70
    32
  0
VERTEX
  8
E23XLIFTS
 62
20
 10
584.109
 20
-2866.741
 30
2970.570
 70
    32
  0
VERTEX
  8
E23XLIFTS
 62
20
 10
582.445
 20
-2858.199
 30
2970.570
 70
    32
  0
VERTEX
  8
E23XLIFTS
 62
20
 10
582.281
 20
-2846.697
 30
2970.570
 70
    32
  0
VERTEX
  8
E23XLIFTS
 62
20
 10
591.550
 20
-2839.398
 30
2970.570
 70
    32
  0
VERTEX
  8
E23XLIFTS
 62
20
 10
588.455
 20
-2827.841
 30
2970.570
 70
    32
  0
SEQEND
  8
E23XLIFTS
  0
POLYLINE
  8
E23XLIFTS
 62
29
 66
     1
 70
     9
  0
VERTEX
  8
E23XLIFTS
 62
29
 10
1106.266
 20
-2956.427
 30
2993.969
 70
    32
  0
VERTEX
  8
E23XLIFTS
 62
29
 10
1112.714
 20
-2955.903
 30
2994.369
 70
    32
  0
VERTEX
  8
E23XLIFTS
 62
29
 10
1131.195
 20
-2970.640
 30
2996.102
 70
    32
  0
VERTEX
  8
E23XLIFTS
 62
29
 10
1135.047
 20
-2970.407
 30
2996.333
 70
    32
  0
VERTEX
  8
E23XLIFTS
 62
29
 10
1138.345
 20
-2972.953
 30
2996.638
 70
    32
  0
VERTEX
  8
E23XLIFTS
 62
29
 10
1149.592
 20
-2976.989
 30
2997.487
 70
    32
  0
VERTEX
  8
E23XLIFTS
 62
29
 10
1163.434
 20
-2989.882
 30
2998.860
 70
    32
  0
VERTEX
  8
E23XLIFTS
 62
29
 10
1185.153
 20
-3007.368
 30
3000.829
 70
    32
  0
VERTEX
  8
E23XLIFTS
 62
29
 10
1183.311
 20
-3010.912
 30
3000.940
 70
    32
  0
VERTEX
  8
E23XLIFTS
 62
29
 10
1193.290
 20
-3025.897
 30
3002.209
 70
    32
  0
VERTEX
  8
E23XLIFTS
 62
29
 10
1200.085
 20
-3030.414
 30
3002.761
 70
    32
  0
VERTEX
  8
E23XLIFTS
 62
29
 10
1219.949
 20
-3060.679
 30
3005.373
 70
    32
  0
VERTEX
  8
E23XLIFTS
 62
29
 10
1234.101
 20
-3085.299
 30
3007.428
 70
    32
  0
VERTEX
  8
E23XLIFTS
 62
29
 10
1235.811
 20
-3092.512
 30
3007.858
 70
    32
  0
VERTEX
  8
E23XLIFTS
 62
29
 10
1234.805
 20
-3112.091
 30
3008.944
 70
    32
  0
VERTEX
  8
E23XLIFTS
 62
29
 10
1232.730
 20
-3113.381
 30
3009.004
 70
    32
  0
VERTEX
  8
E23XLIFTS
 62
29
 10
1231.536
 20
-3119.086
 30
3009.297
 70
    32
  0
VERTEX
  8
E23XLIFTS
 62
29
 10
1229.672
 20
-3122.496
 30
3009.468
 70
    32
  0
VERTEX
  8
E23XLIFTS
 62
29
 10
1227.363
 20
-3123.679
 30
3009.522
 70
    32
  0
VERTEX
  8
E23XLIFTS
 62
29
 10
1226.946
 20
-3125.779
 30
3009.630
 70
    32
  0
VERTEX
  8
E23XLIFTS
 62
29
 10
1228.312
 20
-3129.566
 30
3009.813
 70
    32
  0
VERTEX
  8
E23XLIFTS
 62
29
 10
1231.974
 20
-3132.011
 30
3009.971
 70
    32
  0
VERTEX
  8
E23XLIFTS
 62
29
 10
1232.256
 20
-3139.079
 30
3010.194
 70
    32
  0
VERTEX
  8
E23XLIFTS
 62
29
 10
1228.432
 20
-3142.257
 30
3010.206
 70
    32
  0
VERTEX
  8
E23XLIFTS
 62
29
 10
1232.139
 20
-3160.295
 30
3010.826
 70
    32
  0
VERTEX
  8
E23XLIFTS
 62
29
 10
1228.450
 20
-3164.180
 30
3010.860
 70
    32
  0
VERTEX
  8
E23XLIFTS
 62
29
 10
1221.840
 20
-3163.924
 30
3010.706
 70
    32
  0
VERTEX
  8
E23XLIFTS
 62
29
 10
1219.119
 20
-3158.918
 30
3010.496
 70
    32
  0
VERTEX
  8
E23XLIFTS
 62
29
 10
1214.260
 20
-3155.201
 30
3010.277
 70
    32
  0
VERTEX
  8
E23XLIFTS
 62
29
 10
1209.199
 20
-3148.596
 30
3009.968
 70
    32
  0
VERTEX
  8
E23XLIFTS
 62
29
 10
1204.692
 20
-3140.980
 30
3009.614
 70
    32
  0
VERTEX
  8
E23XLIFTS
 62
29
 10
1201.589
 20
-3132.717
 30
3009.299
 70
    32
  0
VERTEX
  8
E23XLIFTS
 62
29
 10
1204.112
 20
-3128.051
 30
3009.191
 70
    32
  0
VERTEX
  8
E23XLIFTS
 62
29
 10
1204.926
 20
-3120.166
 30
3009.001
 70
    32
  0
VERTEX
  8
E23XLIFTS
 62
29
 10
1210.441
 20
-3114.049
 30
3008.938
 70
    32
  0
VERTEX
  8
E23XLIFTS
 62
29
 10
1217.656
 20
-3115.768
 30
3009.199
 70
    32
  0
VERTEX
  8
E23XLIFTS
 62
29
 10
1222.065
 20
-3115.340
 30
3009.171
 70
    32
  0
VERTEX
  8
E23XLIFTS
 62
29
 10
1223.386
 20
-3113.561
 30
3009.061
 70
    32
  0
VERTEX
  8
E23XLIFTS
 62
29
 10
1226.866
 20
-3104.394
 30
3008.536
 70
    32
  0
VERTEX
  8
E23XLIFTS
 62
29
 10
1227.218
 20
-3090.326
 30
3007.591
 70
    32
  0
VERTEX
  8
E23XLIFTS
 62
29
 10
1223.044
 20
-3086.321
 30
3007.246
 70
    32
  0
VERTEX
  8
E23XLIFTS
 62
29
 10
1221.023
 20
-3087.495
 30
3007.329
 70
    32
  0
VERTEX
  8
E23XLIFTS
 62
29
 10
1210.358
 20
-3077.412
 30
3005.958
 70
    32
  0
VERTEX
  8
E23XLIFTS
 62
29
 10
1205.704
 20
-3076.682
 30
3005.716
 70
    32
  0
VERTEX
  8
E23XLIFTS
 62
29
 10
1198.579
 20
-3062.488
 30
3004.557
 70
    32
  0
VERTEX
  8
E23XLIFTS
 62
29
 10
1189.017
 20
-3059.180
 30
3003.988
 70
    32
  0
VERTEX
  8
E23XLIFTS
 62
29
 10
1182.235
 20
-3046.570
 30
3002.974
 70
    32
  0
VERTEX
  8
E23XLIFTS
 62
29
 10
1181.301
 20
-3040.939
 30
3002.605
 70
    32
  0
VERTEX
  8
E23XLIFTS
 62
29
 10
1178.398
 20
-3041.362
 30
3002.513
 70
    32
  0
VERTEX
  8
E23XLIFTS
 62
29
 10
1174.468
 20
-3037.032
 30
3002.100
 70
    32
  0
VERTEX
  8
E23XLIFTS
 62
29
 10
1176.642
 20
-3030.735
 30
3001.818
 70
    32
  0
VERTEX
  8
E23XLIFTS
 62
29
 10
1173.717
 20
-3014.152
 30
3000.692
 70
    32
  0
VERTEX
  8
E23XLIFTS
 62
29
 10
1163.800
 20
-3003.892
 30
2999.603
 70
    32
  0
VERTEX
  8
E23XLIFTS
 62
29
 10
1146.051
 20
-2993.563
 30
2997.939
 70
    32
  0
VERTEX
  8
E23XLIFTS
 62
29
 10
1143.838
 20
-2995.709
 30
2997.888
 70
    32
  0
VERTEX
  8
E23XLIFTS
 62
29
 10
1132.864
 20
-2987.584
 30
2996.879
 70
    32
  0
VERTEX
  8
E23XLIFTS
 62
29
 10
1127.375
 20
-2986.839
 30
2996.505
 70
    32
  0
VERTEX
  8
E23XLIFTS
 62
29
 10
1107.327
 20
-2964.591
 30
2994.308
 70
    32
  0
SEQEND
  8
E23XLIFTS
  0
POLYLINE
  8
E23XLIFTS
 62
3
 66
     1
 70
     9
  0
VERTEX
  8
E23XLIFTS
 62
3
 10
1244.279
 20
-3249.753
 30
2965.068
 70
    32
  0
VERTEX
  8
E23XLIFTS
 62
3
 10
1263.486
 20
-3254.550
 30
2966.003
 70
    32
  0
VERTEX
  8
E23XLIFTS
 62
3
 10
1268.354
 20
-3258.798
 30
2966.385
 70
    32
  0
VERTEX
  8
E23XLIFTS
 62
3
 10
1276.534
 20
-3256.496
 30
2966.685
 70
    32
  0
VERTEX
  8
E23XLIFTS
 62
3
 10
1281.177
 20
-3258.146
 30
2967.026
 70
    32
  0
VERTEX
  8
E23XLIFTS
 62
3
 10
1284.669
 20
-3273.208
 30
2968.199
 70
    32
  0
VERTEX
  8
E23XLIFTS
 62
3
 10
1289.355
 20
-3281.522
 30
2968.193
 70
    32
  0
VERTEX
  8
E23XLIFTS
 62
3
 10
1292.853
 20
-3281.404
 30
2968.185
 70
    32
  0
VERTEX
  8
E23XLIFTS
 62
3
 10
1296.828
 20
-3284.541
 30
2968.184
 70
    32
  0
VERTEX
  8
E23XLIFTS
 62
3
 10
1297.819
 20
-3290.965
 30
2968.188
 70
    32
  0
VERTEX
  8
E23XLIFTS
 62
3
 10
1308.267
 20
-3297.534
 30
2968.177
 70
    32
  0
VERTEX
  8
E23XLIFTS
 62
3
 10
1321.054
 20
-3295.461
 30
2968.173
 70
    32
  0
VERTEX
  8
E23XLIFTS
 62
3
 10
1328.644
 20
-3287.760
 30
2968.173
 70
    32
  0
VERTEX
  8
E23XLIFTS
 62
3
 10
1323.685
 20
-3282.817
 30
2968.170
 70
    32
  0
VERTEX
  8
E23XLIFTS
 62
3
 10
1317.438
 20
-3273.287
 30
2968.158
 70
    32
  0
VERTEX
  8
E23XLIFTS
 62
3
 10
1305.408
 20
-3260.952
 30
2968.140
 70
    32
  0
VERTEX
  8
E23XLIFTS
 62
3
 10
1305.657
 20
-3258.335
 30
2968.139
 70
    32
  0
VERTEX
  8
E23XLIFTS
 62
3
 10
1298.658
 20
-3254.141
 30
2968.136
 70
    32
  0
VERTEX
  8
E23XLIFTS
 62
3
 10
1291.918
 20
-3240.421
 30
2966.798
 70
    32
  0
VERTEX
  8
E23XLIFTS
 62
3
 10
1280.732
 20
-3233.207
 30
2966.273
 70
    32
  0
VERTEX
  8
E23XLIFTS
 62
3
 10
1269.063
 20
-3217.614
 30
2964.864
 70
    32
  0
VERTEX
  8
E23XLIFTS
 62
3
 10
1246.042
 20
-3186.908
 30
2964.864
 70
    32
  0
VERTEX
  8
E23XLIFTS
 62
3
 10
1236.383
 20
-3178.401
 30
2964.864
 70
    32
  0
VERTEX
  8
E23XLIFTS
 62
3
 10
1222.919
 20
-3169.185
 30
2964.864
 70
    32
  0
VERTEX
  8
E23XLIFTS
 62
3
 10
1215.684
 20
-3173.972
 30
2964.864
 70
    32
  0
VERTEX
  8
E23XLIFTS
 62
3
 10
1207.732
 20
-3172.333
 30
2964.864
 70
    32
  0
VERTEX
  8
E23XLIFTS
 62
3
 10
1204.275
 20
-3184.439
 30
2964.864
 70
    32
  0
VERTEX
  8
E23XLIFTS
 62
3
 10
1197.675
 20
-3192.100
 30
2964.864
 70
    32
  0
VERTEX
  8
E23XLIFTS
 62
3
 10
1201.861
 20
-3203.105
 30
2964.864
 70
    32
  0
VERTEX
  8
E23XLIFTS
 62
3
 10
1208.638
 20
-3207.894
 30
2964.864
 70
    32
  0
VERTEX
  8
E23XLIFTS
 62
3
 10
1213.266
 20
-3206.598
 30
2964.864
 70
    32
  0
VERTEX
  8
E23XLIFTS
 62
3
 10
1216.697
 20
-3214.658
 30
2964.864
 70
    32
  0
VERTEX
  8
E23XLIFTS
 62
3
 10
1222.807
 20
-3217.038
 30
2964.864
 70
    32
  0
VERTEX
  8
E23XLIFTS
 62
3
 10
1228.027
 20
-3230.151
 30
2964.864
 70
    32
  0
SEQEND
  8
E23XLIFTS
  0
POLYLINE
  8
E23XLIFTS
 62
29
 66
     1
 70
     9
  0
VERTEX
  8
E23XLIFTS
 62
29
 10
1178.484
 20
-3156.261
 30
3021.902
 70
    32
  0
VERTEX
  8
E23XLIFTS
 62
29
 10
1178.632
 20
-3174.168
 30
3021.653
 70
    32
  0
VERTEX
  8
E23XLIFTS
 62
29
 10
1167.668
 20
-3174.081
 30
3021.713
 70
    32
  0
VERTEX
  8
E23XLIFTS
 62
29
 10
1166.571
 20
-3169.898
 30
3021.650
 70
    32
  0
VERTEX
  8
E23XLIFTS
 62
29
 10
1161.805
 20
-3169.674
 30
3021.686
 70
    32
  0
VERTEX
  8
E23XLIFTS
 62
29
 10
1156.923
 20
-3174.127
 30
3021.769
 70
    32
  0
VERTEX
  8
E23XLIFTS
 62
29
 10
1149.794
 20
-3174.555
 30
3021.803
 70
    32
  0
VERTEX
  8
E23XLIFTS
 62
29
 10
1143.511
 20
-3179.843
 30
3021.803
 70
    32
  0
VERTEX
  8
E23XLIFTS
 62
29
 10
1132.913
 20
-3164.266
 30
3021.803
 70
    32
  0
VERTEX
  8
E23XLIFTS
 62
29
 10
1152.295
 20
-3156.373
 30
3021.591
 70
    32
  0
VERTEX
  8
E23XLIFTS
 62
29
 10
1153.020
 20
-3148.680
 30
3021.493
 70
    32
  0
VERTEX
  8
E23XLIFTS
 62
29
 10
1127.912
 20
-3149.625
 30
3021.570
 70
    32
  0
VERTEX
  8
E23XLIFTS
 62
29
 10
1127.493
 20
-3136.860
 30
3021.570
 70
    32
  0
VERTEX
  8
E23XLIFTS
 62
29
 10
1133.727
 20
-3129.946
 30
3021.570
 70
    32
  0
VERTEX
  8
E23XLIFTS
 62
29
 10
1137.025
 20
-3128.715
 30
3021.570
 70
    32
  0
VERTEX
  8
E23XLIFTS
 62
29
 10
1143.756
 20
-3123.470
 30
3021.261
 70
    32
  0
VERTEX
  8
E23XLIFTS
 62
29
 10
1149.214
 20
-3128.873
 30
3020.041
 70
    32
  0
VERTEX
  8
E23XLIFTS
 62
29
 10
1159.740
 20
-3128.501
 30
3020.935
 70
    32
  0
VERTEX
  8
E23XLIFTS
 62
29
 10
1163.953
 20
-3134.119
 30
3020.606
 70
    32
  0
VERTEX
  8
E23XLIFTS
 62
29
 10
1167.070
 20
-3134.851
 30
3020.896
 70
    32
  0
SEQEND
  8
E23XLIFTS
  0
POLYLINE
  8
E23XLIFTS
 62
3
 66
     1
 70
     9
  0
VERTEX
  8
E23XLIFTS
 62
3
 10
1169.073
 20
-3281.377
 30
2974.782
 70
    32
  0
VERTEX
  8
E23XLIFTS
 62
3
 10
1157.337
 20
-3289.273
 30
2974.784
 70
    32
  0
VERTEX
  8
E23XLIFTS
 62
3
 10
1146.262
 20
-3294.815
 30
2974.781
 70
    32
  0
VERTEX
  8
E23XLIFTS
 62
3
 10
1143.400
 20
-3290.287
 30
2974.781
 70
    32
  0
VERTEX
  8
E23XLIFTS
 62
3
 10
1121.105
 20
-3297.525
 30
2974.780
 70
    32
  0
VERTEX
  8
E23XLIFTS
 62
3
 10
1112.361
 20
-3294.169
 30
2974.780
 70
    32
  0
VERTEX
  8
E23XLIFTS
 62
3
 10
1106.240
 20
-3298.889
 30
2974.780
 70
    32
  0
VERTEX
  8
E23XLIFTS
 62
3
 10
1104.987
 20
-3306.558
 30
2974.780
 70
    32
  0
VERTEX
  8
E23XLIFTS
 62
3
 10
1112.920
 20
-3309.725
 30
2974.780
 70
    32
  0
VERTEX
  8
E23XLIFTS
 62
3
 10
1120.658
 20
-3314.740
 30
2974.780
 70
    32
  0
VERTEX
  8
E23XLIFTS
 62
3
 10
1119.188
 20
-3324.309
 30
2974.780
 70
    32
  0
VERTEX
  8
E23XLIFTS
 62
3
 10
1128.039
 20
-3327.280
 30
2974.780
 70
    32
  0
VERTEX
  8
E23XLIFTS
 62
3
 10
1129.400
 20
-3329.682
 30
2974.780
 70
    32
  0
VERTEX
  8
E23XLIFTS
 62
3
 10
1138.853
 20
-3331.092
 30
2974.780
 70
    32
  0
VERTEX
  8
E23XLIFTS
 62
3
 10
1155.246
 20
-3351.662
 30
2974.780
 70
    32
  0
VERTEX
  8
E23XLIFTS
 62
3
 10
1166.643
 20
-3347.055
 30
2974.780
 70
    32
  0
VERTEX
  8
E23XLIFTS
 62
3
 10
1172.047
 20
-3338.762
 30
2974.780
 70
    32
  0
VERTEX
  8
E23XLIFTS
 62
3
 10
1170.250
 20
-3321.824
 30
2974.780
 70
    32
  0
VERTEX
  8
E23XLIFTS
 62
3
 10
1173.060
 20
-3311.984
 30
2974.780
 70
    32
  0
VERTEX
  8
E23XLIFTS
 62
3
 10
1175.031
 20
-3312.360
 30
2974.780
 70
    32
  0
VERTEX
  8
E23XLIFTS
 62
3
 10
1175.157
 20
-3299.169
 30
2974.780
 70
    32
  0
VERTEX
  8
E23XLIFTS
 62
3
 10
1177.900
 20
-3294.151
 30
2974.780
 70
    32
  0
SEQEND
  8
E23XLIFTS
  0
POLYLINE
  8
E23XLIFTS
 62
3
 66
     1
 70
     9
  0
VERTEX
  8
E23XLIFTS
 62
3
 10
1372.222
 20
-3374.200
 30
2930.888
 70
    32
  0
VERTEX
  8
E23XLIFTS
 62
3
 10
1383.193
 20
-3372.663
 30
2930.907
 70
    32
  0
VERTEX
  8
E23XLIFTS
 62
3
 10
1389.272
 20
-3376.238
 30
2930.889
 70
    32
  0
VERTEX
  8
E23XLIFTS
 62
3
 10
1405.715
 20
-3390.840
 30
2930.870
 70
    32
  0
VERTEX
  8
E23XLIFTS
 62
3
 10
1413.700
 20
-3400.792
 30
2930.870
 70
    32
  0
VERTEX
  8
E23XLIFTS
 62
3
 10
1419.983
 20
-3399.858
 30
2930.870
 70
    32
  0
VERTEX
  8
E23XLIFTS
 62
3
 10
1423.555
 20
-3394.222
 30
2930.870
 70
    32
  0
VERTEX
  8
E23XLIFTS
 62
3
 10
1420.100
 20
-3381.026
 30
2930.870
 70
    32
  0
VERTEX
  8
E23XLIFTS
 62
3
 10
1423.335
 20
-3372.647
 30
2930.870
 70
    32
  0
VERTEX
  8
E23XLIFTS
 62
3
 10
1424.078
 20
-3366.904
 30
2930.870
 70
    32
  0
VERTEX
  8
E23XLIFTS
 62
3
 10
1421.473
 20
-3359.107
 30
2930.870
 70
    32
  0
VERTEX
  8
E23XLIFTS
 62
3
 10
1417.413
 20
-3358.021
 30
2930.870
 70
    32
  0
VERTEX
  8
E23XLIFTS
 62
3
 10
1413.074
 20
-3359.055
 30
2930.870
 70
    32
  0
VERTEX
  8
E23XLIFTS
 62
3
 10
1401.055
 20
-3358.185
 30
2930.870
 70
    32
  0
VERTEX
  8
E23XLIFTS
 62
3
 10
1397.708
 20
-3356.042
 30
2930.870
 70
    32
  0
VERTEX
  8
E23XLIFTS
 62
3
 10
1395.902
 20
-3347.808
 30
2930.870
 70
    32
  0
VERTEX
  8
E23XLIFTS
 62
3
 10
1392.645
 20
-3345.489
 30
2930.870
 70
    32
  0
VERTEX
  8
E23XLIFTS
 62
3
 10
1384.259
 20
-3343.227
 30
2930.870
 70
    32
  0
VERTEX
  8
E23XLIFTS
 62
3
 10
1377.622
 20
-3344.159
 30
2930.885
 70
    32
  0
VERTEX
  8
E23XLIFTS
 62
3
 10
1375.352
 20
-3353.782
 30
2930.911
 70
    32
  0
VERTEX
  8
E23XLIFTS
 62
3
 10
1368.102
 20
-3362.812
 30
2930.948
 70
    32
  0
SEQEND
  8
E23XLIFTS
  0
POLYLINE
  8
E23XLIFTS
 62
2
 66
     1
 70
     9
  0
VERTEX
  8
E23XLIFTS
 62
2
 10
-977.034
 20
-1357.156
 30
3051.111
 70
    32
  0
VERTEX
  8
E23XLIFTS
 62
2
 10
-968.609
 20
-1356.051
 30
3050.908
 70
    32
  0
VERTEX
  8
E23XLIFTS
 62
2
 10
-950.897
 20
-1359.913
 30
3051.105
 70
    32
  0
VERTEX
  8
E23XLIFTS
 62
2
 10
-946.540
 20
-1351.419
 30
3051.180
 70
    32
  0
VERTEX
  8
E23XLIFTS
 62
2
 10
-933.887
 20
-1343.684
 30
3051.180
 70
    32
  0
VERTEX
  8
E23XLIFTS
 62
2
 10
-932.949
 20
-1330.398
 30
3051.180
 70
    32
  0
VERTEX
  8
E23XLIFTS
 62
2
 10
-935.914
 20
-1319.525
 30
3051.180
 70
    32
  0
VERTEX
  8
E23XLIFTS
 62
2
 10
-932.262
 20
-1313.443
 30
3051.180
 70
    32
  0
VERTEX
  8
E23XLIFTS
 62
2
 10
-933.896
 20
-1304.758
 30
3051.180
 70
    32
  0
VERTEX
  8
E23XLIFTS
 62
2
 10
-932.739
 20
-1298.585
 30
3051.180
 70
    32
  0
VERTEX
  8
E23XLIFTS
 62
2
 10
-937.233
 20
-1296.153
 30
3051.180
 70
    32
  0
VERTEX
  8
E23XLIFTS
 62
2
 10
-950.111
 20
-1310.126
 30
3051.180
 70
    32
  0
VERTEX
  8
E23XLIFTS
 62
2
 10
-969.014
 20
-1312.683
 30
3051.180
 70
    32
  0
VERTEX
  8
E23XLIFTS
 62
2
 10
-976.430
 20
-1326.588
 30
3051.100
 70
    32
  0
VERTEX
  8
E23XLIFTS
 62
2
 10
-979.035
 20
-1340.147
 30
3050.948
 70
    32
  0
SEQEND
  8
E23XLIFTS
  0
POLYLINE
  8
E23XLIFTS
 62
6
 66
     1
 70
     9
  0
VERTEX
  8
E23XLIFTS
 62
6
 10
1185.282
 20
-3199.165
 30
2984.813
 70
    32
  0
VERTEX
  8
E23XLIFTS
 62
6
 10
1189.132
 20
-3195.927
 30
2984.800
 70
    32
  0
VERTEX
  8
E23XLIFTS
 62
6
 10
1187.178
 20
-3185.932
 30
2984.733
 70
    32
  0
VERTEX
  8
E23XLIFTS
 62
6
 10
1188.516
 20
-3179.517
 30
2984.738
 70
    32
  0
VERTEX
  8
E23XLIFTS
 62
6
 10
1182.001
 20
-3175.399
 30
2984.545
 70
    32
  0
VERTEX
  8
E23XLIFTS
 62
6
 10
1177.158
 20
-3176.260
 30
2984.246
 70
    32
  0
VERTEX
  8
E23XLIFTS
 62
6
 10
1175.412
 20
-3178.464
 30
2984.069
 70
    32
  0
VERTEX
  8
E23XLIFTS
 62
6
 10
1170.114
 20
-3180.207
 30
2981.924
 70
    32
  0
VERTEX
  8
E23XLIFTS
 62
6
 10
1165.532
 20
-3170.364
 30
2983.305
 70
    32
  0
VERTEX
  8
E23XLIFTS
 62
6
 10
1160.765
 20
-3160.280
 30
2985.166
 70
    32
  0
VERTEX
  8
E23XLIFTS
 62
6
 10
1166.028
 20
-3164.069
 30
2983.789
 70
    32
  0
VERTEX
  8
E23XLIFTS
 62
6
 10
1170.282
 20
-3160.065
 30
2983.954
 70
    32
  0
VERTEX
  8
E23XLIFTS
 62
6
 10
1176.273
 20
-3144.606
 30
2984.250
 70
    32
  0
VERTEX
  8
E23XLIFTS
 62
6
 10
1174.145
 20
-3137.340
 30
2984.313
 70
    32
  0
VERTEX
  8
E23XLIFTS
 62
6
 10
1185.463
 20
-3133.257
 30
2984.767
 70
    32
  0
VERTEX
  8
E23XLIFTS
 62
6
 10
1187.636
 20
-3141.906
 30
2984.710
 70
    32
  0
VERTEX
  8
E23XLIFTS
 62
6
 10
1194.470
 20
-3139.854
 30
2984.792
 70
    32
  0
VERTEX
  8
E23XLIFTS
 62
6
 10
1203.544
 20
-3146.877
 30
2984.915
 70
    32
  0
VERTEX
  8
E23XLIFTS
 62
6
 10
1206.531
 20
-3157.318
 30
2985.029
 70
    32
  0
VERTEX
  8
E23XLIFTS
 62
6
 10
1209.182
 20
-3159.694
 30
2985.093
 70
    32
  0
VERTEX
  8
E23XLIFTS
 62
6
 10
1208.008
 20
-3167.655
 30
2985.153
 70
    32
  0
VERTEX
  8
E23XLIFTS
 62
6
 10
1212.989
 20
-3167.646
 30
2985.491
 70
    32
  0
VERTEX
  8
E23XLIFTS
 62
6
 10
1220.038
 20
-3160.923
 30
2986.492
 70
    32
  0
VERTEX
  8
E23XLIFTS
 62
6
 10
1219.855
 20
-3123.299
 30
2987.739
 70
    32
  0
VERTEX
  8
E23XLIFTS
 62
6
 10
1231.097
 20
-3109.526
 30
2988.300
 70
    32
  0
VERTEX
  8
E23XLIFTS
 62
6
 10
1240.474
 20
-3109.689
 30
2988.300
 70
    32
  0
VERTEX
  8
E23XLIFTS
 62
6
 10
1239.871
 20
-3103.229
 30
2988.300
 70
    32
  0
VERTEX
  8
E23XLIFTS
 62
6
 10
1256.236
 20
-3099.565
 30
2988.300
 70
    32
  0
VERTEX
  8
E23XLIFTS
 62
6
 10
1261.178
 20
-3112.406
 30
2988.300
 70
    32
  0
VERTEX
  8
E23XLIFTS
 62
6
 10
1260.731
 20
-3122.698
 30
2988.300
 70
    32
  0
VERTEX
  8
E23XLIFTS
 62
6
 10
1262.399
 20
-3126.016
 30
2988.300
 70
    32
  0
VERTEX
  8
E23XLIFTS
 62
6
 10
1271.777
 20
-3120.225
 30
2988.300
 70
    32
  0
VERTEX
  8
E23XLIFTS
 62
6
 10
1276.735
 20
-3130.440
 30
2988.300
 70
    32
  0
VERTEX
  8
E23XLIFTS
 62
6
 10
1261.987
 20
-3141.976
 30
2988.211
 70
    32
  0
VERTEX
  8
E23XLIFTS
 62
6
 10
1265.697
 20
-3145.492
 30
2988.197
 70
    32
  0
VERTEX
  8
E23XLIFTS
 62
6
 10
1271.891
 20
-3146.514
 30
2988.348
 70
    32
  0
VERTEX
  8
E23XLIFTS
 62
6
 10
1288.824
 20
-3139.718
 30
2989.148
 70
    32
  0
VERTEX
  8
E23XLIFTS
 62
6
 10
1291.284
 20
-3150.920
 30
2988.773
 70
    32
  0
VERTEX
  8
E23XLIFTS
 62
6
 10
1254.050
 20
-3160.031
 30
2987.250
 70
    32
  0
VERTEX
  8
E23XLIFTS
 62
6
 10
1249.761
 20
-3158.355
 30
2987.183
 70
    32
  0
VERTEX
  8
E23XLIFTS
 62
6
 10
1238.714
 20
-3197.871
 30
2986.100
 70
    32
  0
VERTEX
  8
E23XLIFTS
 62
6
 10
1233.985
 20
-3197.225
 30
2985.890
 70
    32
  0
VERTEX
  8
E23XLIFTS
 62
6
 10
1224.705
 20
-3199.845
 30
2985.306
 70
    32
  0
VERTEX
  8
E23XLIFTS
 62
6
 10
1213.240
 20
-3196.438
 30
2985.105
 70
    32
  0
VERTEX
  8
E23XLIFTS
 62
6
 10
1190.486
 20
-3208.728
 30
2984.954
 70
    32
  0
VERTEX
  8
E23XLIFTS
 62
6
 10
1188.115
 20
-3204.370
 30
2984.883
 70
    32
  0
SEQEND
  8
E23XLIFTS
  0
LINE
  8
E23XLIFTS
 62
18
 10
1240.073
 20
-3105.394
 30
2974.859
 11
1257.169
 21
-3101.990
 31
2974.859
  0
POINT
  8
E23XLIFTS
 62
8
 10
1252.727
 20
-3130.456
 30
2988.300
  0
POINT
  8
E23XLIFTS
 62
8
 10
1158.705
 20
-3173.347
 30
2983.300
  0
ENDSEC
  0
EOF
