999
********************************
999
*   DXF File - Entities Only   *
999
*        3D Data Format        *
999
*     Output from ENVISAGE     *
999
*     31-Dec-2007 14:18:54     *
999
********************************
  0
SECTION 
  2
HEADER
  9
$ACADVER
  1
AC1009
  9
$EXTMIN
 10
-290000.000
 20
-250000.000
 30
-4000.000
  9
$EXTMAX
 10
320000.000
 20
160000.000
 30
6000.000
  0
ENDSEC
  0
SECTION
  2
ENTITIES
  0
POLYLINE
  8
E30LXLIFT
 62
3
 66
     1
 70
     9
  0
VERTEX
  8
E30LXLIFT
 62
3
 10
1260.333
 20
-3687.565
 30
2214.000
 70
    32
  0
VERTEX
  8
E30LXLIFT
 62
3
 10
1238.966
 20
-3653.370
 30
2214.000
 70
    32
  0
VERTEX
  8
E30LXLIFT
 62
3
 10
1223.872
 20
-3623.627
 30
2214.000
 70
    32
  0
VERTEX
  8
E30LXLIFT
 62
3
 10
1219.309
 20
-3607.184
 30
2214.000
 70
    32
  0
VERTEX
  8
E30LXLIFT
 62
3
 10
1208.336
 20
-3576.836
 30
2214.000
 70
    32
  0
VERTEX
  8
E30LXLIFT
 62
3
 10
1196.920
 20
-3552.455
 30
2214.000
 70
    32
  0
VERTEX
  8
E30LXLIFT
 62
3
 10
1189.074
 20
-3553.161
 30
2214.000
 70
    32
  0
VERTEX
  8
E30LXLIFT
 62
3
 10
1184.151
 20
-3546.533
 30
2214.000
 70
    32
  0
VERTEX
  8
E30LXLIFT
 62
3
 10
1186.605
 20
-3534.221
 30
2214.000
 70
    32
  0
VERTEX
  8
E30LXLIFT
 62
3
 10
1182.383
 20
-3519.593
 30
2214.000
 70
    32
  0
VERTEX
  8
E30LXLIFT
 62
3
 10
1169.530
 20
-3491.588
 30
2214.000
 70
    32
  0
VERTEX
  8
E30LXLIFT
 62
3
 10
1160.477
 20
-3466.575
 30
2214.000
 70
    32
  0
VERTEX
  8
E30LXLIFT
 62
3
 10
1168.836
 20
-3461.045
 30
2214.000
 70
    32
  0
VERTEX
  8
E30LXLIFT
 62
3
 10
1183.070
 20
-3479.146
 30
2214.000
 70
    32
  0
VERTEX
  8
E30LXLIFT
 62
3
 10
1201.039
 20
-3505.824
 30
2214.000
 70
    32
  0
VERTEX
  8
E30LXLIFT
 62
3
 10
1214.500
 20
-3533.170
 30
2214.000
 70
    32
  0
VERTEX
  8
E30LXLIFT
 62
3
 10
1231.952
 20
-3560.332
 30
2214.000
 70
    32
  0
VERTEX
  8
E30LXLIFT
 62
3
 10
1244.809
 20
-3582.364
 30
2214.000
 70
    32
  0
VERTEX
  8
E30LXLIFT
 62
3
 10
1255.344
 20
-3600.004
 30
2214.000
 70
    32
  0
VERTEX
  8
E30LXLIFT
 62
3
 10
1260.280
 20
-3618.455
 30
2214.000
 70
    32
  0
VERTEX
  8
E30LXLIFT
 62
3
 10
1265.911
 20
-3640.851
 30
2214.000
 70
    32
  0
VERTEX
  8
E30LXLIFT
 62
3
 10
1268.431
 20
-3662.251
 30
2214.000
 70
    32
  0
VERTEX
  8
E30LXLIFT
 62
3
 10
1274.904
 20
-3681.323
 30
2214.000
 70
    32
  0
SEQEND
  8
E30LXLIFT
  0
POLYLINE
  8
E30LXLIFT
 62
1
 66
     1
 70
     9
  0
VERTEX
  8
E30LXLIFT
 62
1
 10
1261.333
 20
-3686.565
 30
2224.000
 70
    32
  0
VERTEX
  8
E30LXLIFT
 62
1
 10
1239.966
 20
-3652.370
 30
2224.000
 70
    32
  0
VERTEX
  8
E30LXLIFT
 62
1
 10
1224.872
 20
-3622.627
 30
2224.000
 70
    32
  0
VERTEX
  8
E30LXLIFT
 62
1
 10
1220.309
 20
-3606.184
 30
2224.000
 70
    32
  0
VERTEX
  8
E30LXLIFT
 62
1
 10
1209.336
 20
-3575.836
 30
2224.000
 70
    32
  0
VERTEX
  8
E30LXLIFT
 62
1
 10
1197.920
 20
-3551.455
 30
2224.000
 70
    32
  0
VERTEX
  8
E30LXLIFT
 62
1
 10
1190.074
 20
-3552.161
 30
2224.000
 70
    32
  0
VERTEX
  8
E30LXLIFT
 62
1
 10
1185.151
 20
-3545.533
 30
2224.000
 70
    32
  0
VERTEX
  8
E30LXLIFT
 62
1
 10
1187.605
 20
-3533.221
 30
2224.000
 70
    32
  0
VERTEX
  8
E30LXLIFT
 62
1
 10
1183.383
 20
-3518.593
 30
2224.000
 70
    32
  0
VERTEX
  8
E30LXLIFT
 62
1
 10
1170.530
 20
-3490.588
 30
2224.000
 70
    32
  0
VERTEX
  8
E30LXLIFT
 62
1
 10
1161.477
 20
-3465.575
 30
2224.000
 70
    32
  0
VERTEX
  8
E30LXLIFT
 62
1
 10
1169.836
 20
-3460.045
 30
2224.000
 70
    32
  0
VERTEX
  8
E30LXLIFT
 62
1
 10
1184.070
 20
-3478.146
 30
2224.000
 70
    32
  0
VERTEX
  8
E30LXLIFT
 62
1
 10
1202.039
 20
-3504.824
 30
2224.000
 70
    32
  0
VERTEX
  8
E30LXLIFT
 62
1
 10
1215.500
 20
-3532.170
 30
2224.000
 70
    32
  0
VERTEX
  8
E30LXLIFT
 62
1
 10
1232.952
 20
-3559.332
 30
2224.000
 70
    32
  0
VERTEX
  8
E30LXLIFT
 62
1
 10
1245.809
 20
-3581.364
 30
2224.000
 70
    32
  0
VERTEX
  8
E30LXLIFT
 62
1
 10
1256.344
 20
-3599.004
 30
2224.000
 70
    32
  0
VERTEX
  8
E30LXLIFT
 62
1
 10
1261.280
 20
-3617.455
 30
2224.000
 70
    32
  0
VERTEX
  8
E30LXLIFT
 62
1
 10
1266.911
 20
-3639.851
 30
2224.000
 70
    32
  0
VERTEX
  8
E30LXLIFT
 62
1
 10
1269.431
 20
-3661.251
 30
2224.000
 70
    32
  0
VERTEX
  8
E30LXLIFT
 62
1
 10
1275.904
 20
-3680.323
 30
2224.000
 70
    32
  0
SEQEND
  8
E30LXLIFT
  0
POLYLINE
  8
E30LXLIFT
 62
6
 66
     1
 70
     9
  0
VERTEX
  8
E30LXLIFT
 62
6
 10
1517.106
 20
-4023.053
 30
2196.000
 70
    32
  0
VERTEX
  8
E30LXLIFT
 62
6
 10
1499.336
 20
-4002.220
 30
2196.000
 70
    32
  0
VERTEX
  8
E30LXLIFT
 62
6
 10
1492.569
 20
-3978.156
 30
2196.000
 70
    32
  0
VERTEX
  8
E30LXLIFT
 62
6
 10
1488.631
 20
-3961.261
 30
2196.000
 70
    32
  0
VERTEX
  8
E30LXLIFT
 62
6
 10
1484.626
 20
-3952.776
 30
2196.000
 70
    32
  0
VERTEX
  8
E30LXLIFT
 62
6
 10
1488.795
 20
-3935.084
 30
2196.000
 70
    32
  0
VERTEX
  8
E30LXLIFT
 62
6
 10
1486.042
 20
-3927.424
 30
2196.000
 70
    32
  0
VERTEX
  8
E30LXLIFT
 62
6
 10
1491.132
 20
-3922.633
 30
2196.000
 70
    32
  0
VERTEX
  8
E30LXLIFT
 62
6
 10
1500.250
 20
-3934.563
 30
2196.000
 70
    32
  0
VERTEX
  8
E30LXLIFT
 62
6
 10
1508.323
 20
-3947.145
 30
2196.000
 70
    32
  0
VERTEX
  8
E30LXLIFT
 62
6
 10
1510.625
 20
-3958.064
 30
2196.000
 70
    32
  0
VERTEX
  8
E30LXLIFT
 62
6
 10
1520.930
 20
-3968.044
 30
2196.000
 70
    32
  0
VERTEX
  8
E30LXLIFT
 62
6
 10
1527.092
 20
-3980.388
 30
2196.000
 70
    32
  0
VERTEX
  8
E30LXLIFT
 62
6
 10
1533.532
 20
-3992.964
 30
2196.000
 70
    32
  0
VERTEX
  8
E30LXLIFT
 62
6
 10
1538.118
 20
-4001.353
 30
2196.000
 70
    32
  0
VERTEX
  8
E30LXLIFT
 62
6
 10
1535.127
 20
-4010.370
 30
2196.000
 70
    32
  0
SEQEND
  8
E30LXLIFT
  0
POLYLINE
  8
E30LXLIFT
 62
7
 66
     1
 70
     9
  0
VERTEX
  8
E30LXLIFT
 62
7
 10
1714.780
 20
-4303.270
 30
2196.000
 70
    32
  0
VERTEX
  8
E30LXLIFT
 62
7
 10
1719.309
 20
-4299.647
 30
2196.000
 70
    32
  0
VERTEX
  8
E30LXLIFT
 62
7
 10
1713.212
 20
-4290.079
 30
2196.000
 70
    32
  0
VERTEX
  8
E30LXLIFT
 62
7
 10
1711.261
 20
-4285.310
 30
2196.000
 70
    32
  0
VERTEX
  8
E30LXLIFT
 62
7
 10
1714.784
 20
-4282.094
 30
2196.000
 70
    32
  0
VERTEX
  8
E30LXLIFT
 62
7
 10
1705.028
 20
-4273.018
 30
2196.000
 70
    32
  0
VERTEX
  8
E30LXLIFT
 62
7
 10
1717.084
 20
-4273.471
 30
2196.000
 70
    32
  0
VERTEX
  8
E30LXLIFT
 62
7
 10
1732.559
 20
-4268.179
 30
2196.000
 70
    32
  0
VERTEX
  8
E30LXLIFT
 62
7
 10
1737.930
 20
-4270.784
 30
2196.000
 70
    32
  0
VERTEX
  8
E30LXLIFT
 62
7
 10
1739.917
 20
-4254.570
 30
2196.000
 70
    32
  0
VERTEX
  8
E30LXLIFT
 62
7
 10
1739.021
 20
-4239.914
 30
2196.000
 70
    32
  0
VERTEX
  8
E30LXLIFT
 62
7
 10
1732.726
 20
-4234.398
 30
2196.000
 70
    32
  0
VERTEX
  8
E30LXLIFT
 62
7
 10
1723.558
 20
-4225.979
 30
2196.000
 70
    32
  0
VERTEX
  8
E30LXLIFT
 62
7
 10
1716.672
 20
-4212.642
 30
2196.000
 70
    32
  0
VERTEX
  8
E30LXLIFT
 62
7
 10
1708.282
 20
-4197.685
 30
2196.000
 70
    32
  0
VERTEX
  8
E30LXLIFT
 62
7
 10
1701.292
 20
-4181.817
 30
2196.000
 70
    32
  0
VERTEX
  8
E30LXLIFT
 62
7
 10
1691.316
 20
-4184.519
 30
2196.000
 70
    32
  0
VERTEX
  8
E30LXLIFT
 62
7
 10
1683.192
 20
-4190.215
 30
2196.000
 70
    32
  0
VERTEX
  8
E30LXLIFT
 62
7
 10
1694.735
 20
-4198.316
 30
2196.000
 70
    32
  0
VERTEX
  8
E30LXLIFT
 62
7
 10
1697.431
 20
-4208.732
 30
2196.000
 70
    32
  0
VERTEX
  8
E30LXLIFT
 62
7
 10
1697.488
 20
-4220.743
 30
2196.000
 70
    32
  0
VERTEX
  8
E30LXLIFT
 62
7
 10
1686.852
 20
-4221.644
 30
2196.000
 70
    32
  0
VERTEX
  8
E30LXLIFT
 62
7
 10
1676.013
 20
-4214.659
 30
2196.000
 70
    32
  0
VERTEX
  8
E30LXLIFT
 62
7
 10
1666.938
 20
-4213.230
 30
2196.000
 70
    32
  0
VERTEX
  8
E30LXLIFT
 62
7
 10
1661.763
 20
-4217.757
 30
2196.000
 70
    32
  0
VERTEX
  8
E30LXLIFT
 62
7
 10
1661.062
 20
-4222.610
 30
2196.000
 70
    32
  0
VERTEX
  8
E30LXLIFT
 62
7
 10
1676.238
 20
-4229.587
 30
2196.000
 70
    32
  0
VERTEX
  8
E30LXLIFT
 62
7
 10
1680.740
 20
-4237.711
 30
2196.000
 70
    32
  0
VERTEX
  8
E30LXLIFT
 62
7
 10
1687.473
 20
-4242.039
 30
2196.000
 70
    32
  0
VERTEX
  8
E30LXLIFT
 62
7
 10
1684.019
 20
-4255.194
 30
2196.000
 70
    32
  0
VERTEX
  8
E30LXLIFT
 62
7
 10
1683.297
 20
-4271.355
 30
2196.000
 70
    32
  0
VERTEX
  8
E30LXLIFT
 62
7
 10
1683.830
 20
-4281.933
 30
2196.000
 70
    32
  0
VERTEX
  8
E30LXLIFT
 62
7
 10
1700.991
 20
-4295.066
 30
2196.000
 70
    32
  0
SEQEND
  8
E30LXLIFT
  0
POLYLINE
  8
E30LXLIFT
 62
13
 66
     1
 70
     9
  0
VERTEX
  8
E30LXLIFT
 62
13
 10
1906.967
 20
-4488.240
 30
2196.000
 70
    32
  0
VERTEX
  8
E30LXLIFT
 62
13
 10
1910.757
 20
-4508.066
 30
2196.000
 70
    32
  0
VERTEX
  8
E30LXLIFT
 62
13
 10
1918.256
 20
-4505.539
 30
2196.000
 70
    32
  0
VERTEX
  8
E30LXLIFT
 62
13
 10
1924.455
 20
-4514.056
 30
2196.000
 70
    32
  0
VERTEX
  8
E30LXLIFT
 62
13
 10
1915.196
 20
-4520.578
 30
2196.000
 70
    32
  0
VERTEX
  8
E30LXLIFT
 62
13
 10
1906.967
 20
-4520.162
 30
2196.000
 70
    32
  0
VERTEX
  8
E30LXLIFT
 62
13
 10
1898.779
 20
-4509.510
 30
2196.000
 70
    32
  0
VERTEX
  8
E30LXLIFT
 62
13
 10
1891.500
 20
-4497.870
 30
2196.000
 70
    32
  0
VERTEX
  8
E30LXLIFT
 62
13
 10
1882.144
 20
-4487.851
 30
2196.000
 70
    32
  0
VERTEX
  8
E30LXLIFT
 62
13
 10
1872.801
 20
-4476.954
 30
2196.000
 70
    32
  0
VERTEX
  8
E30LXLIFT
 62
13
 10
1862.197
 20
-4462.088
 30
2196.000
 70
    32
  0
VERTEX
  8
E30LXLIFT
 62
13
 10
1872.684
 20
-4459.341
 30
2196.000
 70
    32
  0
VERTEX
  8
E30LXLIFT
 62
13
 10
1881.634
 20
-4470.741
 30
2196.000
 70
    32
  0
VERTEX
  8
E30LXLIFT
 62
13
 10
1894.836
 20
-4478.287
 30
2196.000
 70
    32
  0
SEQEND
  8
E30LXLIFT
  0
POLYLINE
  8
E30LXLIFT
 62
3
 66
     1
 70
     9
  0
VERTEX
  8
E30LXLIFT
 62
3
 10
2113.974
 20
-4911.500
 30
2196.000
 70
    32
  0
VERTEX
  8
E30LXLIFT
 62
3
 10
2123.031
 20
-4901.867
 30
2196.000
 70
    32
  0
VERTEX
  8
E30LXLIFT
 62
3
 10
2122.725
 20
-4893.839
 30
2196.000
 70
    32
  0
VERTEX
  8
E30LXLIFT
 62
3
 10
2128.613
 20
-4884.775
 30
2196.000
 70
    32
  0
VERTEX
  8
E30LXLIFT
 62
3
 10
2138.539
 20
-4883.196
 30
2196.000
 70
    32
  0
VERTEX
  8
E30LXLIFT
 62
3
 10
2142.233
 20
-4888.867
 30
2196.000
 70
    32
  0
VERTEX
  8
E30LXLIFT
 62
3
 10
2142.067
 20
-4909.075
 30
2196.000
 70
    32
  0
VERTEX
  8
E30LXLIFT
 62
3
 10
2146.659
 20
-4915.831
 30
2196.000
 70
    32
  0
VERTEX
  8
E30LXLIFT
 62
3
 10
2140.130
 20
-4921.777
 30
2196.000
 70
    32
  0
VERTEX
  8
E30LXLIFT
 62
3
 10
2133.600
 20
-4925.336
 30
2196.000
 70
    32
  0
VERTEX
  8
E30LXLIFT
 62
3
 10
2124.342
 20
-4919.480
 30
2196.000
 70
    32
  0
SEQEND
  8
E30LXLIFT
  0
POLYLINE
  8
E30LXLIFT
 62
7
 66
     1
 70
     9
  0
VERTEX
  8
E30LXLIFT
 62
7
 10
1700.320
 20
-4290.229
 30
2207.000
 70
    32
  0
VERTEX
  8
E30LXLIFT
 62
7
 10
1686.787
 20
-4284.060
 30
2207.000
 70
    32
  0
VERTEX
  8
E30LXLIFT
 62
7
 10
1673.651
 20
-4270.866
 30
2207.000
 70
    32
  0
VERTEX
  8
E30LXLIFT
 62
7
 10
1669.109
 20
-4264.958
 30
2207.000
 70
    32
  0
VERTEX
  8
E30LXLIFT
 62
7
 10
1671.799
 20
-4253.647
 30
2207.000
 70
    32
  0
VERTEX
  8
E30LXLIFT
 62
7
 10
1663.039
 20
-4242.572
 30
2207.000
 70
    32
  0
VERTEX
  8
E30LXLIFT
 62
7
 10
1664.047
 20
-4237.272
 30
2207.000
 70
    32
  0
VERTEX
  8
E30LXLIFT
 62
7
 10
1663.246
 20
-4230.689
 30
2207.000
 70
    32
  0
VERTEX
  8
E30LXLIFT
 62
7
 10
1672.403
 20
-4222.573
 30
2207.000
 70
    32
  0
VERTEX
  8
E30LXLIFT
 62
7
 10
1686.570
 20
-4217.740
 30
2207.000
 70
    32
  0
VERTEX
  8
E30LXLIFT
 62
7
 10
1691.762
 20
-4212.962
 30
2207.000
 70
    32
  0
VERTEX
  8
E30LXLIFT
 62
7
 10
1685.682
 20
-4203.618
 30
2207.000
 70
    32
  0
VERTEX
  8
E30LXLIFT
 62
7
 10
1680.347
 20
-4197.964
 30
2207.000
 70
    32
  0
VERTEX
  8
E30LXLIFT
 62
7
 10
1681.090
 20
-4188.296
 30
2207.000
 70
    32
  0
VERTEX
  8
E30LXLIFT
 62
7
 10
1693.520
 20
-4182.128
 30
2207.000
 70
    32
  0
VERTEX
  8
E30LXLIFT
 62
7
 10
1703.462
 20
-4194.076
 30
2207.000
 70
    32
  0
VERTEX
  8
E30LXLIFT
 62
7
 10
1707.874
 20
-4203.664
 30
2207.000
 70
    32
  0
VERTEX
  8
E30LXLIFT
 62
7
 10
1716.059
 20
-4209.946
 30
2207.000
 70
    32
  0
VERTEX
  8
E30LXLIFT
 62
7
 10
1721.134
 20
-4221.329
 30
2207.000
 70
    32
  0
VERTEX
  8
E30LXLIFT
 62
7
 10
1730.512
 20
-4232.061
 30
2207.000
 70
    32
  0
VERTEX
  8
E30LXLIFT
 62
7
 10
1731.702
 20
-4239.770
 30
2207.000
 70
    32
  0
VERTEX
  8
E30LXLIFT
 62
7
 10
1726.299
 20
-4244.704
 30
2207.000
 70
    32
  0
VERTEX
  8
E30LXLIFT
 62
7
 10
1725.882
 20
-4253.482
 30
2207.000
 70
    32
  0
VERTEX
  8
E30LXLIFT
 62
7
 10
1728.447
 20
-4257.579
 30
2207.000
 70
    32
  0
VERTEX
  8
E30LXLIFT
 62
7
 10
1724.311
 20
-4268.102
 30
2207.000
 70
    32
  0
VERTEX
  8
E30LXLIFT
 62
7
 10
1713.641
 20
-4264.508
 30
2207.000
 70
    32
  0
VERTEX
  8
E30LXLIFT
 62
7
 10
1707.255
 20
-4260.385
 30
2207.000
 70
    32
  0
VERTEX
  8
E30LXLIFT
 62
7
 10
1699.106
 20
-4269.284
 30
2207.000
 70
    32
  0
VERTEX
  8
E30LXLIFT
 62
7
 10
1700.029
 20
-4281.969
 30
2207.000
 70
    32
  0
SEQEND
  8
E30LXLIFT
  0
POLYLINE
  8
E30LXLIFT
 62
13
 66
     1
 70
     9
  0
VERTEX
  8
E30LXLIFT
 62
13
 10
1920.168
 20
-4516.627
 30
2206.000
 70
    32
  0
VERTEX
  8
E30LXLIFT
 62
13
 10
1910.457
 20
-4522.651
 30
2206.000
 70
    32
  0
VERTEX
  8
E30LXLIFT
 62
13
 10
1904.967
 20
-4516.785
 30
2206.000
 70
    32
  0
VERTEX
  8
E30LXLIFT
 62
13
 10
1899.646
 20
-4519.160
 30
2206.000
 70
    32
  0
VERTEX
  8
E30LXLIFT
 62
13
 10
1893.724
 20
-4511.221
 30
2206.000
 70
    32
  0
VERTEX
  8
E30LXLIFT
 62
13
 10
1887.830
 20
-4499.460
 30
2206.000
 70
    32
  0
VERTEX
  8
E30LXLIFT
 62
13
 10
1882.801
 20
-4488.586
 30
2206.000
 70
    32
  0
VERTEX
  8
E30LXLIFT
 62
13
 10
1874.307
 20
-4480.248
 30
2206.000
 70
    32
  0
VERTEX
  8
E30LXLIFT
 62
13
 10
1862.932
 20
-4469.459
 30
2206.000
 70
    32
  0
VERTEX
  8
E30LXLIFT
 62
13
 10
1856.518
 20
-4458.621
 30
2206.000
 70
    32
  0
VERTEX
  8
E30LXLIFT
 62
13
 10
1851.343
 20
-4448.289
 30
2206.000
 70
    32
  0
VERTEX
  8
E30LXLIFT
 62
13
 10
1856.316
 20
-4445.734
 30
2206.000
 70
    32
  0
VERTEX
  8
E30LXLIFT
 62
13
 10
1861.743
 20
-4454.036
 30
2206.000
 70
    32
  0
VERTEX
  8
E30LXLIFT
 62
13
 10
1870.653
 20
-4459.678
 30
2206.000
 70
    32
  0
VERTEX
  8
E30LXLIFT
 62
13
 10
1878.835
 20
-4469.222
 30
2206.000
 70
    32
  0
VERTEX
  8
E30LXLIFT
 62
13
 10
1887.989
 20
-4476.532
 30
2206.000
 70
    32
  0
VERTEX
  8
E30LXLIFT
 62
13
 10
1896.855
 20
-4484.488
 30
2206.000
 70
    32
  0
VERTEX
  8
E30LXLIFT
 62
13
 10
1890.070
 20
-4490.650
 30
2206.000
 70
    32
  0
VERTEX
  8
E30LXLIFT
 62
13
 10
1893.855
 20
-4495.375
 30
2206.000
 70
    32
  0
VERTEX
  8
E30LXLIFT
 62
13
 10
1907.172
 20
-4504.960
 30
2206.000
 70
    32
  0
SEQEND
  8
E30LXLIFT
  0
POLYLINE
  8
E30LXLIFT
 62
3
 66
     1
 70
     9
  0
VERTEX
  8
E30LXLIFT
 62
3
 10
2144.436
 20
-4887.193
 30
2204.000
 70
    32
  0
VERTEX
  8
E30LXLIFT
 62
3
 10
2141.889
 20
-4902.853
 30
2204.000
 70
    32
  0
VERTEX
  8
E30LXLIFT
 62
3
 10
2144.463
 20
-4919.870
 30
2204.000
 70
    32
  0
VERTEX
  8
E30LXLIFT
 62
3
 10
2140.154
 20
-4928.673
 30
2204.000
 70
    32
  0
VERTEX
  8
E30LXLIFT
 62
3
 10
2129.485
 20
-4929.532
 30
2204.000
 70
    32
  0
VERTEX
  8
E30LXLIFT
 62
3
 10
2121.257
 20
-4925.562
 30
2204.000
 70
    32
  0
VERTEX
  8
E30LXLIFT
 62
3
 10
2115.050
 20
-4915.008
 30
2204.000
 70
    32
  0
VERTEX
  8
E30LXLIFT
 62
3
 10
2115.766
 20
-4903.078
 30
2204.000
 70
    32
  0
VERTEX
  8
E30LXLIFT
 62
3
 10
2121.046
 20
-4899.755
 30
2204.000
 70
    32
  0
VERTEX
  8
E30LXLIFT
 62
3
 10
2121.589
 20
-4892.189
 30
2204.000
 70
    32
  0
VERTEX
  8
E30LXLIFT
 62
3
 10
2133.753
 20
-4883.283
 30
2204.000
 70
    32
  0
SEQEND
  8
E30LXLIFT
  0
POLYLINE
  8
E30LXLIFT
 62
7
 66
     1
 70
     9
  0
VERTEX
  8
E30LXLIFT
 62
7
 10
1690.626
 20
-4183.372
 30
2218.000
 70
    32
  0
VERTEX
  8
E30LXLIFT
 62
7
 10
1694.246
 20
-4191.161
 30
2218.000
 70
    32
  0
VERTEX
  8
E30LXLIFT
 62
7
 10
1701.851
 20
-4201.583
 30
2218.000
 70
    32
  0
VERTEX
  8
E30LXLIFT
 62
7
 10
1706.878
 20
-4206.389
 30
2218.000
 70
    32
  0
VERTEX
  8
E30LXLIFT
 62
7
 10
1712.029
 20
-4211.214
 30
2218.000
 70
    32
  0
VERTEX
  8
E30LXLIFT
 62
7
 10
1714.751
 20
-4223.135
 30
2218.000
 70
    32
  0
VERTEX
  8
E30LXLIFT
 62
7
 10
1713.751
 20
-4235.164
 30
2218.000
 70
    32
  0
VERTEX
  8
E30LXLIFT
 62
7
 10
1713.273
 20
-4243.444
 30
2218.000
 70
    32
  0
VERTEX
  8
E30LXLIFT
 62
7
 10
1712.181
 20
-4258.474
 30
2218.000
 70
    32
  0
VERTEX
  8
E30LXLIFT
 62
7
 10
1710.193
 20
-4270.789
 30
2218.000
 70
    32
  0
VERTEX
  8
E30LXLIFT
 62
7
 10
1699.622
 20
-4261.662
 30
2218.000
 70
    32
  0
VERTEX
  8
E30LXLIFT
 62
7
 10
1692.084
 20
-4248.801
 30
2218.000
 70
    32
  0
VERTEX
  8
E30LXLIFT
 62
7
 10
1688.611
 20
-4239.275
 30
2218.000
 70
    32
  0
VERTEX
  8
E30LXLIFT
 62
7
 10
1680.594
 20
-4229.480
 30
2218.000
 70
    32
  0
VERTEX
  8
E30LXLIFT
 62
7
 10
1682.270
 20
-4240.860
 30
2218.000
 70
    32
  0
VERTEX
  8
E30LXLIFT
 62
7
 10
1680.791
 20
-4247.915
 30
2218.000
 70
    32
  0
VERTEX
  8
E30LXLIFT
 62
7
 10
1679.700
 20
-4252.079
 30
2218.000
 70
    32
  0
VERTEX
  8
E30LXLIFT
 62
7
 10
1673.469
 20
-4253.366
 30
2218.000
 70
    32
  0
VERTEX
  8
E30LXLIFT
 62
7
 10
1660.508
 20
-4247.069
 30
2218.000
 70
    32
  0
VERTEX
  8
E30LXLIFT
 62
7
 10
1656.762
 20
-4240.894
 30
2218.000
 70
    32
  0
VERTEX
  8
E30LXLIFT
 62
7
 10
1661.946
 20
-4233.852
 30
2218.000
 70
    32
  0
VERTEX
  8
E30LXLIFT
 62
7
 10
1664.424
 20
-4225.634
 30
2218.000
 70
    32
  0
VERTEX
  8
E30LXLIFT
 62
7
 10
1677.080
 20
-4219.006
 30
2218.000
 70
    32
  0
VERTEX
  8
E30LXLIFT
 62
7
 10
1691.761
 20
-4219.919
 30
2218.000
 70
    32
  0
VERTEX
  8
E30LXLIFT
 62
7
 10
1693.933
 20
-4213.662
 30
2218.000
 70
    32
  0
VERTEX
  8
E30LXLIFT
 62
7
 10
1681.325
 20
-4201.893
 30
2218.000
 70
    32
  0
VERTEX
  8
E30LXLIFT
 62
7
 10
1675.485
 20
-4193.443
 30
2218.000
 70
    32
  0
SEQEND
  8
E30LXLIFT
  0
POLYLINE
  8
E30LXLIFT
 62
13
 66
     1
 70
     9
  0
VERTEX
  8
E30LXLIFT
 62
13
 10
1842.970
 20
-4437.268
 30
2216.000
 70
    32
  0
VERTEX
  8
E30LXLIFT
 62
13
 10
1847.873
 20
-4432.821
 30
2216.000
 70
    32
  0
VERTEX
  8
E30LXLIFT
 62
13
 10
1863.206
 20
-4445.644
 30
2216.000
 70
    32
  0
VERTEX
  8
E30LXLIFT
 62
13
 10
1876.902
 20
-4460.096
 30
2216.000
 70
    32
  0
VERTEX
  8
E30LXLIFT
 62
13
 10
1884.371
 20
-4474.203
 30
2216.000
 70
    32
  0
VERTEX
  8
E30LXLIFT
 62
13
 10
1884.988
 20
-4480.707
 30
2216.000
 70
    32
  0
VERTEX
  8
E30LXLIFT
 62
13
 10
1879.454
 20
-4486.374
 30
2216.000
 70
    32
  0
VERTEX
  8
E30LXLIFT
 62
13
 10
1884.552
 20
-4495.149
 30
2216.000
 70
    32
  0
VERTEX
  8
E30LXLIFT
 62
13
 10
1891.002
 20
-4497.287
 30
2216.000
 70
    32
  0
VERTEX
  8
E30LXLIFT
 62
13
 10
1899.170
 20
-4508.928
 30
2216.000
 70
    32
  0
VERTEX
  8
E30LXLIFT
 62
13
 10
1908.143
 20
-4511.398
 30
2216.000
 70
    32
  0
VERTEX
  8
E30LXLIFT
 62
13
 10
1915.313
 20
-4520.182
 30
2216.000
 70
    32
  0
VERTEX
  8
E30LXLIFT
 62
13
 10
1906.964
 20
-4524.970
 30
2216.000
 70
    32
  0
VERTEX
  8
E30LXLIFT
 62
13
 10
1898.376
 20
-4517.221
 30
2216.000
 70
    32
  0
VERTEX
  8
E30LXLIFT
 62
13
 10
1889.761
 20
-4516.880
 30
2216.000
 70
    32
  0
VERTEX
  8
E30LXLIFT
 62
13
 10
1878.983
 20
-4507.469
 30
2216.000
 70
    32
  0
VERTEX
  8
E30LXLIFT
 62
13
 10
1868.418
 20
-4497.904
 30
2216.000
 70
    32
  0
VERTEX
  8
E30LXLIFT
 62
13
 10
1858.527
 20
-4490.453
 30
2216.000
 70
    32
  0
VERTEX
  8
E30LXLIFT
 62
13
 10
1858.834
 20
-4484.471
 30
2216.000
 70
    32
  0
VERTEX
  8
E30LXLIFT
 62
13
 10
1865.910
 20
-4478.981
 30
2216.000
 70
    32
  0
VERTEX
  8
E30LXLIFT
 62
13
 10
1867.143
 20
-4466.674
 30
2216.000
 70
    32
  0
VERTEX
  8
E30LXLIFT
 62
13
 10
1859.481
 20
-4456.620
 30
2216.000
 70
    32
  0
VERTEX
  8
E30LXLIFT
 62
13
 10
1853.075
 20
-4449.777
 30
2216.000
 70
    32
  0
SEQEND
  8
E30LXLIFT
  0
POLYLINE
  8
E30LXLIFT
 62
3
 66
     1
 70
     9
  0
VERTEX
  8
E30LXLIFT
 62
3
 10
2097.752
 20
-4892.601
 30
2214.000
 70
    32
  0
VERTEX
  8
E30LXLIFT
 62
3
 10
2114.664
 20
-4884.063
 30
2214.000
 70
    32
  0
VERTEX
  8
E30LXLIFT
 62
3
 10
2121.537
 20
-4884.698
 30
2214.000
 70
    32
  0
VERTEX
  8
E30LXLIFT
 62
3
 10
2128.809
 20
-4880.369
 30
2214.000
 70
    32
  0
VERTEX
  8
E30LXLIFT
 62
3
 10
2138.047
 20
-4890.795
 30
2214.000
 70
    32
  0
VERTEX
  8
E30LXLIFT
 62
3
 10
2134.626
 20
-4906.655
 30
2214.000
 70
    32
  0
VERTEX
  8
E30LXLIFT
 62
3
 10
2126.417
 20
-4918.186
 30
2214.000
 70
    32
  0
VERTEX
  8
E30LXLIFT
 62
3
 10
2115.776
 20
-4922.365
 30
2214.000
 70
    32
  0
VERTEX
  8
E30LXLIFT
 62
3
 10
2106.989
 20
-4915.087
 30
2214.000
 70
    32
  0
SEQEND
  8
E30LXLIFT
  0
POLYLINE
  8
E30LXLIFT
 62
7
 66
     1
 70
     9
  0
VERTEX
  8
E30LXLIFT
 62
7
 10
1699.319
 20
-4287.803
 30
2229.000
 70
    32
  0
VERTEX
  8
E30LXLIFT
 62
7
 10
1704.867
 20
-4284.526
 30
2229.000
 70
    32
  0
VERTEX
  8
E30LXLIFT
 62
7
 10
1702.984
 20
-4273.725
 30
2229.000
 70
    32
  0
VERTEX
  8
E30LXLIFT
 62
7
 10
1704.869
 20
-4264.964
 30
2229.000
 70
    32
  0
VERTEX
  8
E30LXLIFT
 62
7
 10
1701.801
 20
-4244.918
 30
2229.000
 70
    32
  0
VERTEX
  8
E30LXLIFT
 62
7
 10
1703.704
 20
-4232.449
 30
2229.000
 70
    32
  0
VERTEX
  8
E30LXLIFT
 62
7
 10
1707.396
 20
-4219.004
 30
2229.000
 70
    32
  0
VERTEX
  8
E30LXLIFT
 62
7
 10
1703.820
 20
-4207.370
 30
2229.000
 70
    32
  0
VERTEX
  8
E30LXLIFT
 62
7
 10
1695.049
 20
-4192.779
 30
2229.000
 70
    32
  0
VERTEX
  8
E30LXLIFT
 62
7
 10
1686.667
 20
-4180.513
 30
2229.000
 70
    32
  0
VERTEX
  8
E30LXLIFT
 62
7
 10
1677.274
 20
-4182.240
 30
2229.000
 70
    32
  0
VERTEX
  8
E30LXLIFT
 62
7
 10
1668.749
 20
-4192.030
 30
2229.000
 70
    32
  0
VERTEX
  8
E30LXLIFT
 62
7
 10
1679.386
 20
-4203.959
 30
2229.000
 70
    32
  0
VERTEX
  8
E30LXLIFT
 62
7
 10
1688.058
 20
-4213.189
 30
2229.000
 70
    32
  0
VERTEX
  8
E30LXLIFT
 62
7
 10
1690.678
 20
-4226.496
 30
2229.000
 70
    32
  0
VERTEX
  8
E30LXLIFT
 62
7
 10
1691.121
 20
-4240.845
 30
2229.000
 70
    32
  0
VERTEX
  8
E30LXLIFT
 62
7
 10
1682.196
 20
-4251.578
 30
2229.000
 70
    32
  0
VERTEX
  8
E30LXLIFT
 62
7
 10
1687.960
 20
-4258.902
 30
2229.000
 70
    32
  0
VERTEX
  8
E30LXLIFT
 62
7
 10
1691.220
 20
-4275.330
 30
2229.000
 70
    32
  0
SEQEND
  8
E30LXLIFT
  0
POLYLINE
  8
E30LXLIFT
 62
8
 66
     1
 70
     9
  0
VERTEX
  8
E30LXLIFT
 62
8
 10
1785.557
 20
-4383.168
 30
2224.000
 70
    32
  0
VERTEX
  8
E30LXLIFT
 62
8
 10
1782.738
 20
-4375.113
 30
2224.000
 70
    32
  0
VERTEX
  8
E30LXLIFT
 62
8
 10
1780.177
 20
-4366.217
 30
2224.000
 70
    32
  0
VERTEX
  8
E30LXLIFT
 62
8
 10
1781.848
 20
-4357.612
 30
2224.000
 70
    32
  0
VERTEX
  8
E30LXLIFT
 62
8
 10
1789.567
 20
-4352.538
 30
2224.000
 70
    32
  0
VERTEX
  8
E30LXLIFT
 62
8
 10
1794.305
 20
-4360.393
 30
2224.000
 70
    32
  0
VERTEX
  8
E30LXLIFT
 62
8
 10
1799.921
 20
-4369.455
 30
2224.000
 70
    32
  0
VERTEX
  8
E30LXLIFT
 62
8
 10
1806.345
 20
-4378.582
 30
2224.000
 70
    32
  0
VERTEX
  8
E30LXLIFT
 62
8
 10
1804.938
 20
-4383.518
 30
2224.000
 70
    32
  0
VERTEX
  8
E30LXLIFT
 62
8
 10
1810.638
 20
-4391.650
 30
2224.000
 70
    32
  0
VERTEX
  8
E30LXLIFT
 62
8
 10
1806.562
 20
-4395.159
 30
2224.000
 70
    32
  0
VERTEX
  8
E30LXLIFT
 62
8
 10
1802.111
 20
-4393.074
 30
2224.000
 70
    32
  0
VERTEX
  8
E30LXLIFT
 62
8
 10
1796.631
 20
-4387.933
 30
2224.000
 70
    32
  0
VERTEX
  8
E30LXLIFT
 62
8
 10
1790.811
 20
-4391.733
 30
2224.000
 70
    32
  0
SEQEND
  8
E30LXLIFT
  0
POLYLINE
  8
E30LXLIFT
 62
13
 66
     1
 70
     9
  0
VERTEX
  8
E30LXLIFT
 62
13
 10
1851.903
 20
-4427.152
 30
2228.000
 70
    32
  0
VERTEX
  8
E30LXLIFT
 62
13
 10
1860.660
 20
-4440.232
 30
2228.000
 70
    32
  0
VERTEX
  8
E30LXLIFT
 62
13
 10
1860.436
 20
-4447.242
 30
2228.000
 70
    32
  0
VERTEX
  8
E30LXLIFT
 62
13
 10
1856.638
 20
-4450.983
 30
2228.000
 70
    32
  0
VERTEX
  8
E30LXLIFT
 62
13
 10
1867.539
 20
-4460.439
 30
2228.000
 70
    32
  0
VERTEX
  8
E30LXLIFT
 62
13
 10
1872.413
 20
-4469.824
 30
2228.000
 70
    32
  0
VERTEX
  8
E30LXLIFT
 62
13
 10
1873.520
 20
-4478.365
 30
2228.000
 70
    32
  0
VERTEX
  8
E30LXLIFT
 62
13
 10
1882.889
 20
-4484.370
 30
2228.000
 70
    32
  0
VERTEX
  8
E30LXLIFT
 62
13
 10
1892.814
 20
-4493.231
 30
2228.000
 70
    32
  0
VERTEX
  8
E30LXLIFT
 62
13
 10
1897.656
 20
-4503.618
 30
2228.000
 70
    32
  0
VERTEX
  8
E30LXLIFT
 62
13
 10
1904.680
 20
-4511.330
 30
2228.000
 70
    32
  0
VERTEX
  8
E30LXLIFT
 62
13
 10
1916.002
 20
-4522.110
 30
2228.000
 70
    32
  0
VERTEX
  8
E30LXLIFT
 62
13
 10
1912.082
 20
-4529.417
 30
2228.000
 70
    32
  0
VERTEX
  8
E30LXLIFT
 62
13
 10
1903.675
 20
-4522.494
 30
2228.000
 70
    32
  0
VERTEX
  8
E30LXLIFT
 62
13
 10
1892.432
 20
-4514.809
 30
2228.000
 70
    32
  0
VERTEX
  8
E30LXLIFT
 62
13
 10
1884.092
 20
-4516.640
 30
2228.000
 70
    32
  0
VERTEX
  8
E30LXLIFT
 62
13
 10
1883.701
 20
-4527.900
 30
2228.000
 70
    32
  0
VERTEX
  8
E30LXLIFT
 62
13
 10
1890.437
 20
-4542.234
 30
2228.000
 70
    32
  0
VERTEX
  8
E30LXLIFT
 62
13
 10
1887.996
 20
-4549.334
 30
2228.000
 70
    32
  0
VERTEX
  8
E30LXLIFT
 62
13
 10
1881.574
 20
-4547.379
 30
2228.000
 70
    32
  0
VERTEX
  8
E30LXLIFT
 62
13
 10
1877.637
 20
-4534.052
 30
2228.000
 70
    32
  0
VERTEX
  8
E30LXLIFT
 62
13
 10
1874.266
 20
-4516.726
 30
2228.000
 70
    32
  0
VERTEX
  8
E30LXLIFT
 62
13
 10
1870.813
 20
-4502.721
 30
2228.000
 70
    32
  0
VERTEX
  8
E30LXLIFT
 62
13
 10
1863.529
 20
-4489.873
 30
2228.000
 70
    32
  0
VERTEX
  8
E30LXLIFT
 62
13
 10
1860.992
 20
-4475.635
 30
2228.000
 70
    32
  0
VERTEX
  8
E30LXLIFT
 62
13
 10
1856.423
 20
-4467.115
 30
2228.000
 70
    32
  0
VERTEX
  8
E30LXLIFT
 62
13
 10
1847.360
 20
-4472.731
 30
2228.000
 70
    32
  0
VERTEX
  8
E30LXLIFT
 62
13
 10
1840.096
 20
-4462.151
 30
2228.000
 70
    32
  0
VERTEX
  8
E30LXLIFT
 62
13
 10
1843.820
 20
-4446.510
 30
2228.000
 70
    32
  0
VERTEX
  8
E30LXLIFT
 62
13
 10
1844.671
 20
-4438.718
 30
2228.000
 70
    32
  0
VERTEX
  8
E30LXLIFT
 62
13
 10
1841.193
 20
-4430.056
 30
2228.000
 70
    32
  0
SEQEND
  8
E30LXLIFT
  0
POLYLINE
  8
E30LXLIFT
 62
3
 66
     1
 70
     9
  0
VERTEX
  8
E30LXLIFT
 62
3
 10
2108.657
 20
-4926.802
 30
2225.000
 70
    32
  0
VERTEX
  8
E30LXLIFT
 62
3
 10
2118.884
 20
-4928.162
 30
2225.000
 70
    32
  0
VERTEX
  8
E30LXLIFT
 62
3
 10
2126.544
 20
-4917.481
 30
2225.000
 70
    32
  0
VERTEX
  8
E30LXLIFT
 62
3
 10
2137.581
 20
-4905.320
 30
2225.000
 70
    32
  0
VERTEX
  8
E30LXLIFT
 62
3
 10
2152.676
 20
-4894.553
 30
2225.000
 70
    32
  0
VERTEX
  8
E30LXLIFT
 62
3
 10
2144.631
 20
-4884.542
 30
2225.000
 70
    32
  0
VERTEX
  8
E30LXLIFT
 62
3
 10
2140.196
 20
-4875.162
 30
2225.000
 70
    32
  0
VERTEX
  8
E30LXLIFT
 62
3
 10
2124.269
 20
-4866.865
 30
2225.000
 70
    32
  0
VERTEX
  8
E30LXLIFT
 62
3
 10
2111.200
 20
-4865.182
 30
2225.000
 70
    32
  0
VERTEX
  8
E30LXLIFT
 62
3
 10
2099.927
 20
-4868.060
 30
2225.000
 70
    32
  0
VERTEX
  8
E30LXLIFT
 62
3
 10
2094.135
 20
-4877.274
 30
2225.000
 70
    32
  0
VERTEX
  8
E30LXLIFT
 62
3
 10
2092.950
 20
-4892.372
 30
2225.000
 70
    32
  0
VERTEX
  8
E30LXLIFT
 62
3
 10
2094.006
 20
-4905.622
 30
2225.000
 70
    32
  0
VERTEX
  8
E30LXLIFT
 62
3
 10
2097.471
 20
-4912.773
 30
2225.000
 70
    32
  0
SEQEND
  8
E30LXLIFT
  0
POLYLINE
  8
E30LXLIFT
 62
7
 66
     1
 70
     9
  0
VERTEX
  8
E30LXLIFT
 62
7
 10
1667.043
 20
-4190.463
 30
2237.000
 70
    32
  0
VERTEX
  8
E30LXLIFT
 62
7
 10
1678.490
 20
-4208.365
 30
2237.000
 70
    32
  0
VERTEX
  8
E30LXLIFT
 62
7
 10
1680.231
 20
-4229.868
 30
2237.000
 70
    32
  0
VERTEX
  8
E30LXLIFT
 62
7
 10
1681.740
 20
-4239.268
 30
2237.000
 70
    32
  0
VERTEX
  8
E30LXLIFT
 62
7
 10
1687.275
 20
-4249.071
 30
2237.000
 70
    32
  0
VERTEX
  8
E30LXLIFT
 62
7
 10
1691.730
 20
-4264.939
 30
2237.000
 70
    32
  0
VERTEX
  8
E30LXLIFT
 62
7
 10
1689.204
 20
-4271.859
 30
2237.000
 70
    32
  0
VERTEX
  8
E30LXLIFT
 62
7
 10
1698.860
 20
-4272.022
 30
2237.000
 70
    32
  0
VERTEX
  8
E30LXLIFT
 62
7
 10
1704.027
 20
-4264.673
 30
2237.000
 70
    32
  0
VERTEX
  8
E30LXLIFT
 62
7
 10
1700.741
 20
-4251.115
 30
2237.000
 70
    32
  0
VERTEX
  8
E30LXLIFT
 62
7
 10
1706.954
 20
-4241.782
 30
2237.000
 70
    32
  0
VERTEX
  8
E30LXLIFT
 62
7
 10
1698.748
 20
-4231.335
 30
2237.000
 70
    32
  0
VERTEX
  8
E30LXLIFT
 62
7
 10
1698.779
 20
-4219.584
 30
2237.000
 70
    32
  0
VERTEX
  8
E30LXLIFT
 62
7
 10
1700.775
 20
-4204.728
 30
2237.000
 70
    32
  0
VERTEX
  8
E30LXLIFT
 62
7
 10
1695.548
 20
-4192.833
 30
2237.000
 70
    32
  0
VERTEX
  8
E30LXLIFT
 62
7
 10
1688.273
 20
-4178.185
 30
2237.000
 70
    32
  0
VERTEX
  8
E30LXLIFT
 62
7
 10
1676.970
 20
-4163.572
 30
2237.000
 70
    32
  0
VERTEX
  8
E30LXLIFT
 62
7
 10
1673.320
 20
-4165.739
 30
2237.000
 70
    32
  0
VERTEX
  8
E30LXLIFT
 62
7
 10
1668.819
 20
-4165.139
 30
2237.000
 70
    32
  0
VERTEX
  8
E30LXLIFT
 62
7
 10
1665.496
 20
-4168.925
 30
2237.000
 70
    32
  0
VERTEX
  8
E30LXLIFT
 62
7
 10
1674.152
 20
-4177.176
 30
2237.000
 70
    32
  0
SEQEND
  8
E30LXLIFT
  0
POLYLINE
  8
E30LXLIFT
 62
13
 66
     1
 70
     9
  0
VERTEX
  8
E30LXLIFT
 62
13
 10
1836.956
 20
-4435.346
 30
2240.000
 70
    32
  0
VERTEX
  8
E30LXLIFT
 62
13
 10
1828.719
 20
-4440.483
 30
2240.000
 70
    32
  0
VERTEX
  8
E30LXLIFT
 62
13
 10
1833.732
 20
-4449.141
 30
2240.000
 70
    32
  0
VERTEX
  8
E30LXLIFT
 62
13
 10
1834.162
 20
-4464.165
 30
2240.000
 70
    32
  0
VERTEX
  8
E30LXLIFT
 62
13
 10
1840.463
 20
-4476.030
 30
2240.000
 70
    32
  0
VERTEX
  8
E30LXLIFT
 62
13
 10
1849.528
 20
-4487.484
 30
2240.000
 70
    32
  0
VERTEX
  8
E30LXLIFT
 62
13
 10
1856.385
 20
-4492.579
 30
2240.000
 70
    32
  0
VERTEX
  8
E30LXLIFT
 62
13
 10
1862.859
 20
-4504.972
 30
2240.000
 70
    32
  0
VERTEX
  8
E30LXLIFT
 62
13
 10
1863.221
 20
-4519.609
 30
2240.000
 70
    32
  0
VERTEX
  8
E30LXLIFT
 62
13
 10
1863.805
 20
-4531.450
 30
2240.000
 70
    32
  0
VERTEX
  8
E30LXLIFT
 62
13
 10
1871.778
 20
-4534.509
 30
2240.000
 70
    32
  0
VERTEX
  8
E30LXLIFT
 62
13
 10
1886.055
 20
-4553.267
 30
2240.000
 70
    32
  0
VERTEX
  8
E30LXLIFT
 62
13
 10
1891.225
 20
-4549.313
 30
2240.000
 70
    32
  0
VERTEX
  8
E30LXLIFT
 62
13
 10
1883.474
 20
-4539.183
 30
2240.000
 70
    32
  0
VERTEX
  8
E30LXLIFT
 62
13
 10
1877.629
 20
-4527.637
 30
2240.000
 70
    32
  0
VERTEX
  8
E30LXLIFT
 62
13
 10
1885.976
 20
-4521.322
 30
2240.000
 70
    32
  0
VERTEX
  8
E30LXLIFT
 62
13
 10
1896.806
 20
-4518.640
 30
2240.000
 70
    32
  0
VERTEX
  8
E30LXLIFT
 62
13
 10
1903.239
 20
-4524.049
 30
2240.000
 70
    32
  0
VERTEX
  8
E30LXLIFT
 62
13
 10
1905.979
 20
-4529.356
 30
2240.000
 70
    32
  0
VERTEX
  8
E30LXLIFT
 62
13
 10
1911.489
 20
-4523.943
 30
2240.000
 70
    32
  0
VERTEX
  8
E30LXLIFT
 62
13
 10
1907.479
 20
-4515.307
 30
2240.000
 70
    32
  0
VERTEX
  8
E30LXLIFT
 62
13
 10
1894.426
 20
-4507.038
 30
2240.000
 70
    32
  0
VERTEX
  8
E30LXLIFT
 62
13
 10
1883.894
 20
-4501.717
 30
2240.000
 70
    32
  0
VERTEX
  8
E30LXLIFT
 62
13
 10
1874.762
 20
-4493.710
 30
2240.000
 70
    32
  0
VERTEX
  8
E30LXLIFT
 62
13
 10
1863.636
 20
-4483.022
 30
2240.000
 70
    32
  0
VERTEX
  8
E30LXLIFT
 62
13
 10
1856.458
 20
-4474.988
 30
2240.000
 70
    32
  0
VERTEX
  8
E30LXLIFT
 62
13
 10
1849.581
 20
-4474.731
 30
2240.000
 70
    32
  0
VERTEX
  8
E30LXLIFT
 62
13
 10
1846.874
 20
-4470.058
 30
2240.000
 70
    32
  0
VERTEX
  8
E30LXLIFT
 62
13
 10
1846.711
 20
-4462.617
 30
2240.000
 70
    32
  0
SEQEND
  8
E30LXLIFT
  0
POLYLINE
  8
E30LXLIFT
 62
3
 66
     1
 70
     9
  0
VERTEX
  8
E30LXLIFT
 62
3
 10
2091.266
 20
-4859.037
 30
2236.000
 70
    32
  0
VERTEX
  8
E30LXLIFT
 62
3
 10
2096.157
 20
-4867.237
 30
2236.000
 70
    32
  0
VERTEX
  8
E30LXLIFT
 62
3
 10
2106.123
 20
-4860.594
 30
2236.000
 70
    32
  0
VERTEX
  8
E30LXLIFT
 62
3
 10
2118.815
 20
-4862.775
 30
2236.000
 70
    32
  0
VERTEX
  8
E30LXLIFT
 62
3
 10
2130.972
 20
-4870.724
 30
2236.000
 70
    32
  0
VERTEX
  8
E30LXLIFT
 62
3
 10
2136.453
 20
-4885.171
 30
2236.000
 70
    32
  0
VERTEX
  8
E30LXLIFT
 62
3
 10
2139.153
 20
-4900.152
 30
2236.000
 70
    32
  0
VERTEX
  8
E30LXLIFT
 62
3
 10
2139.540
 20
-4912.907
 30
2236.000
 70
    32
  0
VERTEX
  8
E30LXLIFT
 62
3
 10
2133.388
 20
-4915.837
 30
2236.000
 70
    32
  0
VERTEX
  8
E30LXLIFT
 62
3
 10
2124.450
 20
-4912.070
 30
2236.000
 70
    32
  0
VERTEX
  8
E30LXLIFT
 62
3
 10
2119.908
 20
-4921.586
 30
2236.000
 70
    32
  0
VERTEX
  8
E30LXLIFT
 62
3
 10
2109.663
 20
-4927.559
 30
2236.000
 70
    32
  0
VERTEX
  8
E30LXLIFT
 62
3
 10
2101.313
 20
-4921.931
 30
2236.000
 70
    32
  0
VERTEX
  8
E30LXLIFT
 62
3
 10
2094.872
 20
-4909.731
 30
2236.000
 70
    32
  0
VERTEX
  8
E30LXLIFT
 62
3
 10
2086.839
 20
-4899.812
 30
2236.000
 70
    32
  0
VERTEX
  8
E30LXLIFT
 62
3
 10
2086.099
 20
-4891.594
 30
2236.000
 70
    32
  0
VERTEX
  8
E30LXLIFT
 62
3
 10
2078.714
 20
-4882.398
 30
2236.000
 70
    32
  0
VERTEX
  8
E30LXLIFT
 62
3
 10
2075.428
 20
-4873.114
 30
2236.000
 70
    32
  0
SEQEND
  8
E30LXLIFT
  0
POLYLINE
  8
E30LXLIFT
 62
7
 66
     1
 70
     9
  0
VERTEX
  8
E30LXLIFT
 62
7
 10
1672.238
 20
-4165.071
 30
2249.000
 70
    32
  0
VERTEX
  8
E30LXLIFT
 62
7
 10
1664.146
 20
-4168.574
 30
2249.000
 70
    32
  0
VERTEX
  8
E30LXLIFT
 62
7
 10
1654.265
 20
-4178.269
 30
2249.000
 70
    32
  0
VERTEX
  8
E30LXLIFT
 62
7
 10
1659.313
 20
-4188.928
 30
2249.000
 70
    32
  0
VERTEX
  8
E30LXLIFT
 62
7
 10
1665.845
 20
-4198.941
 30
2249.000
 70
    32
  0
VERTEX
  8
E30LXLIFT
 62
7
 10
1671.255
 20
-4201.299
 30
2249.000
 70
    32
  0
VERTEX
  8
E30LXLIFT
 62
7
 10
1675.450
 20
-4211.385
 30
2249.000
 70
    32
  0
VERTEX
  8
E30LXLIFT
 62
7
 10
1675.066
 20
-4225.023
 30
2249.000
 70
    32
  0
VERTEX
  8
E30LXLIFT
 62
7
 10
1670.211
 20
-4233.120
 30
2249.000
 70
    32
  0
VERTEX
  8
E30LXLIFT
 62
7
 10
1669.941
 20
-4244.828
 30
2249.000
 70
    32
  0
VERTEX
  8
E30LXLIFT
 62
7
 10
1671.477
 20
-4254.244
 30
2249.000
 70
    32
  0
VERTEX
  8
E30LXLIFT
 62
7
 10
1680.773
 20
-4257.465
 30
2249.000
 70
    32
  0
VERTEX
  8
E30LXLIFT
 62
7
 10
1689.941
 20
-4261.105
 30
2249.000
 70
    32
  0
VERTEX
  8
E30LXLIFT
 62
7
 10
1700.691
 20
-4257.077
 30
2249.000
 70
    32
  0
VERTEX
  8
E30LXLIFT
 62
7
 10
1705.260
 20
-4246.799
 30
2249.000
 70
    32
  0
VERTEX
  8
E30LXLIFT
 62
7
 10
1698.419
 20
-4237.555
 30
2249.000
 70
    32
  0
VERTEX
  8
E30LXLIFT
 62
7
 10
1692.594
 20
-4232.240
 30
2249.000
 70
    32
  0
VERTEX
  8
E30LXLIFT
 62
7
 10
1691.410
 20
-4218.984
 30
2249.000
 70
    32
  0
VERTEX
  8
E30LXLIFT
 62
7
 10
1691.387
 20
-4203.145
 30
2249.000
 70
    32
  0
VERTEX
  8
E30LXLIFT
 62
7
 10
1688.061
 20
-4189.929
 30
2249.000
 70
    32
  0
SEQEND
  8
E30LXLIFT
  0
POLYLINE
  8
E30LXLIFT
 62
8
 66
     1
 70
     9
  0
VERTEX
  8
E30LXLIFT
 62
8
 10
1779.973
 20
-4390.693
 30
2241.000
 70
    32
  0
VERTEX
  8
E30LXLIFT
 62
8
 10
1796.660
 20
-4395.265
 30
2241.000
 70
    32
  0
VERTEX
  8
E30LXLIFT
 62
8
 10
1804.000
 20
-4397.738
 30
2241.000
 70
    32
  0
VERTEX
  8
E30LXLIFT
 62
8
 10
1807.915
 20
-4394.018
 30
2241.000
 70
    32
  0
VERTEX
  8
E30LXLIFT
 62
8
 10
1803.045
 20
-4378.234
 30
2241.000
 70
    32
  0
VERTEX
  8
E30LXLIFT
 62
8
 10
1796.723
 20
-4363.290
 30
2241.000
 70
    32
  0
VERTEX
  8
E30LXLIFT
 62
8
 10
1788.945
 20
-4353.207
 30
2241.000
 70
    32
  0
VERTEX
  8
E30LXLIFT
 62
8
 10
1784.373
 20
-4358.709
 30
2241.000
 70
    32
  0
VERTEX
  8
E30LXLIFT
 62
8
 10
1781.485
 20
-4374.279
 30
2241.000
 70
    32
  0
SEQEND
  8
E30LXLIFT
  0
POLYLINE
  8
E30LXLIFT
 62
13
 66
     1
 70
     9
  0
VERTEX
  8
E30LXLIFT
 62
13
 10
1916.757
 20
-4525.872
 30
2250.000
 70
    32
  0
VERTEX
  8
E30LXLIFT
 62
13
 10
1909.492
 20
-4530.511
 30
2250.000
 70
    32
  0
VERTEX
  8
E30LXLIFT
 62
13
 10
1902.621
 20
-4524.655
 30
2250.000
 70
    32
  0
VERTEX
  8
E30LXLIFT
 62
13
 10
1895.737
 20
-4518.483
 30
2250.000
 70
    32
  0
VERTEX
  8
E30LXLIFT
 62
13
 10
1883.528
 20
-4512.604
 30
2250.000
 70
    32
  0
VERTEX
  8
E30LXLIFT
 62
13
 10
1873.311
 20
-4512.443
 30
2250.000
 70
    32
  0
VERTEX
  8
E30LXLIFT
 62
13
 10
1863.624
 20
-4514.502
 30
2250.000
 70
    32
  0
VERTEX
  8
E30LXLIFT
 62
13
 10
1852.691
 20
-4515.297
 30
2250.000
 70
    32
  0
VERTEX
  8
E30LXLIFT
 62
13
 10
1842.959
 20
-4506.855
 30
2250.000
 70
    32
  0
VERTEX
  8
E30LXLIFT
 62
13
 10
1856.243
 20
-4498.701
 30
2250.000
 70
    32
  0
VERTEX
  8
E30LXLIFT
 62
13
 10
1847.993
 20
-4486.030
 30
2250.000
 70
    32
  0
VERTEX
  8
E30LXLIFT
 62
13
 10
1853.518
 20
-4476.467
 30
2250.000
 70
    32
  0
VERTEX
  8
E30LXLIFT
 62
13
 10
1852.842
 20
-4460.777
 30
2250.000
 70
    32
  0
VERTEX
  8
E30LXLIFT
 62
13
 10
1854.699
 20
-4447.371
 30
2250.000
 70
    32
  0
VERTEX
  8
E30LXLIFT
 62
13
 10
1861.344
 20
-4443.074
 30
2250.000
 70
    32
  0
VERTEX
  8
E30LXLIFT
 62
13
 10
1863.580
 20
-4457.627
 30
2250.000
 70
    32
  0
VERTEX
  8
E30LXLIFT
 62
13
 10
1865.881
 20
-4471.373
 30
2250.000
 70
    32
  0
VERTEX
  8
E30LXLIFT
 62
13
 10
1867.357
 20
-4478.769
 30
2250.000
 70
    32
  0
VERTEX
  8
E30LXLIFT
 62
13
 10
1876.985
 20
-4485.875
 30
2250.000
 70
    32
  0
VERTEX
  8
E30LXLIFT
 62
13
 10
1877.403
 20
-4493.607
 30
2250.000
 70
    32
  0
VERTEX
  8
E30LXLIFT
 62
13
 10
1877.782
 20
-4500.390
 30
2250.000
 70
    32
  0
VERTEX
  8
E30LXLIFT
 62
13
 10
1889.016
 20
-4505.675
 30
2250.000
 70
    32
  0
VERTEX
  8
E30LXLIFT
 62
13
 10
1899.667
 20
-4507.476
 30
2250.000
 70
    32
  0
VERTEX
  8
E30LXLIFT
 62
13
 10
1905.911
 20
-4511.725
 30
2250.000
 70
    32
  0
SEQEND
  8
E30LXLIFT
  0
POLYLINE
  8
E30LXLIFT
 62
3
 66
     1
 70
     9
  0
VERTEX
  8
E30LXLIFT
 62
3
 10
2141.387
 20
-4911.257
 30
2249.000
 70
    32
  0
VERTEX
  8
E30LXLIFT
 62
3
 10
2125.187
 20
-4920.775
 30
2249.000
 70
    32
  0
VERTEX
  8
E30LXLIFT
 62
3
 10
2114.287
 20
-4912.966
 30
2249.000
 70
    32
  0
VERTEX
  8
E30LXLIFT
 62
3
 10
2104.757
 20
-4908.829
 30
2249.000
 70
    32
  0
VERTEX
  8
E30LXLIFT
 62
3
 10
2099.160
 20
-4906.064
 30
2249.000
 70
    32
  0
VERTEX
  8
E30LXLIFT
 62
3
 10
2094.489
 20
-4899.800
 30
2249.000
 70
    32
  0
VERTEX
  8
E30LXLIFT
 62
3
 10
2082.967
 20
-4897.548
 30
2249.000
 70
    32
  0
VERTEX
  8
E30LXLIFT
 62
3
 10
2071.905
 20
-4878.780
 30
2249.000
 70
    32
  0
VERTEX
  8
E30LXLIFT
 62
3
 10
2063.767
 20
-4860.597
 30
2249.000
 70
    32
  0
VERTEX
  8
E30LXLIFT
 62
3
 10
2059.868
 20
-4849.427
 30
2249.000
 70
    32
  0
VERTEX
  8
E30LXLIFT
 62
3
 10
2054.058
 20
-4848.011
 30
2249.000
 70
    32
  0
VERTEX
  8
E30LXLIFT
 62
3
 10
2049.244
 20
-4830.665
 30
2249.000
 70
    32
  0
VERTEX
  8
E30LXLIFT
 62
3
 10
2046.569
 20
-4816.106
 30
2249.000
 70
    32
  0
VERTEX
  8
E30LXLIFT
 62
3
 10
2062.988
 20
-4804.801
 30
2249.000
 70
    32
  0
VERTEX
  8
E30LXLIFT
 62
3
 10
2074.749
 20
-4797.538
 30
2249.000
 70
    32
  0
VERTEX
  8
E30LXLIFT
 62
3
 10
2080.431
 20
-4800.568
 30
2249.000
 70
    32
  0
VERTEX
  8
E30LXLIFT
 62
3
 10
2089.180
 20
-4796.477
 30
2249.000
 70
    32
  0
VERTEX
  8
E30LXLIFT
 62
3
 10
2098.646
 20
-4802.615
 30
2249.000
 70
    32
  0
VERTEX
  8
E30LXLIFT
 62
3
 10
2109.870
 20
-4802.369
 30
2249.000
 70
    32
  0
VERTEX
  8
E30LXLIFT
 62
3
 10
2126.391
 20
-4798.808
 30
2249.000
 70
    32
  0
VERTEX
  8
E30LXLIFT
 62
3
 10
2134.595
 20
-4809.775
 30
2249.000
 70
    32
  0
VERTEX
  8
E30LXLIFT
 62
3
 10
2129.696
 20
-4819.750
 30
2249.000
 70
    32
  0
VERTEX
  8
E30LXLIFT
 62
3
 10
2129.759
 20
-4826.546
 30
2249.000
 70
    32
  0
VERTEX
  8
E30LXLIFT
 62
3
 10
2133.763
 20
-4830.255
 30
2249.000
 70
    32
  0
VERTEX
  8
E30LXLIFT
 62
3
 10
2144.957
 20
-4823.406
 30
2249.000
 70
    32
  0
VERTEX
  8
E30LXLIFT
 62
3
 10
2149.937
 20
-4840.087
 30
2249.000
 70
    32
  0
VERTEX
  8
E30LXLIFT
 62
3
 10
2149.455
 20
-4853.144
 30
2249.000
 70
    32
  0
VERTEX
  8
E30LXLIFT
 62
3
 10
2146.392
 20
-4876.227
 30
2249.000
 70
    32
  0
VERTEX
  8
E30LXLIFT
 62
3
 10
2135.159
 20
-4882.127
 30
2249.000
 70
    32
  0
VERTEX
  8
E30LXLIFT
 62
3
 10
2123.937
 20
-4874.770
 30
2249.000
 70
    32
  0
VERTEX
  8
E30LXLIFT
 62
3
 10
2111.296
 20
-4869.641
 30
2249.000
 70
    32
  0
VERTEX
  8
E30LXLIFT
 62
3
 10
2105.681
 20
-4870.580
 30
2249.000
 70
    32
  0
VERTEX
  8
E30LXLIFT
 62
3
 10
2112.012
 20
-4878.676
 30
2249.000
 70
    32
  0
VERTEX
  8
E30LXLIFT
 62
3
 10
2119.427
 20
-4888.262
 30
2249.000
 70
    32
  0
VERTEX
  8
E30LXLIFT
 62
3
 10
2125.668
 20
-4886.541
 30
2249.000
 70
    32
  0
VERTEX
  8
E30LXLIFT
 62
3
 10
2133.265
 20
-4896.973
 30
2249.000
 70
    32
  0
SEQEND
  8
E30LXLIFT
  0
POLYLINE
  8
E30LXLIFT
 62
7
 66
     1
 70
     9
  0
VERTEX
  8
E30LXLIFT
 62
7
 10
1703.130
 20
-4252.792
 30
2260.000
 70
    32
  0
VERTEX
  8
E30LXLIFT
 62
7
 10
1696.584
 20
-4240.103
 30
2260.000
 70
    32
  0
VERTEX
  8
E30LXLIFT
 62
7
 10
1687.354
 20
-4245.291
 30
2260.000
 70
    32
  0
VERTEX
  8
E30LXLIFT
 62
7
 10
1687.096
 20
-4229.915
 30
2260.000
 70
    32
  0
VERTEX
  8
E30LXLIFT
 62
7
 10
1685.282
 20
-4211.550
 30
2260.000
 70
    32
  0
VERTEX
  8
E30LXLIFT
 62
7
 10
1683.674
 20
-4198.914
 30
2260.000
 70
    32
  0
VERTEX
  8
E30LXLIFT
 62
7
 10
1674.693
 20
-4191.180
 30
2260.000
 70
    32
  0
VERTEX
  8
E30LXLIFT
 62
7
 10
1664.449
 20
-4176.434
 30
2260.000
 70
    32
  0
VERTEX
  8
E30LXLIFT
 62
7
 10
1650.774
 20
-4159.106
 30
2260.000
 70
    32
  0
VERTEX
  8
E30LXLIFT
 62
7
 10
1640.910
 20
-4167.266
 30
2260.000
 70
    32
  0
VERTEX
  8
E30LXLIFT
 62
7
 10
1639.100
 20
-4178.074
 30
2260.000
 70
    32
  0
VERTEX
  8
E30LXLIFT
 62
7
 10
1644.511
 20
-4185.397
 30
2260.000
 70
    32
  0
VERTEX
  8
E30LXLIFT
 62
7
 10
1654.379
 20
-4196.394
 30
2260.000
 70
    32
  0
VERTEX
  8
E30LXLIFT
 62
7
 10
1663.267
 20
-4209.748
 30
2260.000
 70
    32
  0
VERTEX
  8
E30LXLIFT
 62
7
 10
1671.028
 20
-4226.438
 30
2260.000
 70
    32
  0
VERTEX
  8
E30LXLIFT
 62
7
 10
1675.960
 20
-4244.457
 30
2260.000
 70
    32
  0
VERTEX
  8
E30LXLIFT
 62
7
 10
1669.590
 20
-4248.947
 30
2260.000
 70
    32
  0
VERTEX
  8
E30LXLIFT
 62
7
 10
1665.484
 20
-4255.029
 30
2260.000
 70
    32
  0
VERTEX
  8
E30LXLIFT
 62
7
 10
1674.836
 20
-4257.372
 30
2260.000
 70
    32
  0
VERTEX
  8
E30LXLIFT
 62
7
 10
1679.390
 20
-4264.566
 30
2260.000
 70
    32
  0
VERTEX
  8
E30LXLIFT
 62
7
 10
1684.483
 20
-4269.838
 30
2260.000
 70
    32
  0
SEQEND
  8
E30LXLIFT
  0
POLYLINE
  8
E30LXLIFT
 62
8
 66
     1
 70
     9
  0
VERTEX
  8
E30LXLIFT
 62
8
 10
1774.611
 20
-4363.373
 30
2262.000
 70
    32
  0
VERTEX
  8
E30LXLIFT
 62
8
 10
1792.142
 20
-4387.540
 30
2262.000
 70
    32
  0
VERTEX
  8
E30LXLIFT
 62
8
 10
1794.806
 20
-4384.809
 30
2262.000
 70
    32
  0
VERTEX
  8
E30LXLIFT
 62
8
 10
1791.923
 20
-4376.489
 30
2262.000
 70
    32
  0
VERTEX
  8
E30LXLIFT
 62
8
 10
1795.518
 20
-4365.885
 30
2262.000
 70
    32
  0
VERTEX
  8
E30LXLIFT
 62
8
 10
1797.075
 20
-4353.849
 30
2262.000
 70
    32
  0
VERTEX
  8
E30LXLIFT
 62
8
 10
1791.293
 20
-4349.413
 30
2262.000
 70
    32
  0
SEQEND
  8
E30LXLIFT
  0
POLYLINE
  8
E30LXLIFT
 62
13
 66
     1
 70
     9
  0
VERTEX
  8
E30LXLIFT
 62
13
 10
1906.760
 20
-4531.452
 30
2260.000
 70
    32
  0
VERTEX
  8
E30LXLIFT
 62
13
 10
1892.472
 20
-4519.040
 30
2260.000
 70
    32
  0
VERTEX
  8
E30LXLIFT
 62
13
 10
1877.099
 20
-4513.853
 30
2260.000
 70
    32
  0
VERTEX
  8
E30LXLIFT
 62
13
 10
1862.338
 20
-4516.269
 30
2260.000
 70
    32
  0
VERTEX
  8
E30LXLIFT
 62
13
 10
1844.730
 20
-4520.137
 30
2260.000
 70
    32
  0
VERTEX
  8
E30LXLIFT
 62
13
 10
1837.761
 20
-4510.264
 30
2260.000
 70
    32
  0
VERTEX
  8
E30LXLIFT
 62
13
 10
1837.930
 20
-4498.708
 30
2260.000
 70
    32
  0
VERTEX
  8
E30LXLIFT
 62
13
 10
1832.327
 20
-4483.906
 30
2260.000
 70
    32
  0
VERTEX
  8
E30LXLIFT
 62
13
 10
1832.196
 20
-4477.689
 30
2260.000
 70
    32
  0
VERTEX
  8
E30LXLIFT
 62
13
 10
1837.361
 20
-4472.893
 30
2260.000
 70
    32
  0
VERTEX
  8
E30LXLIFT
 62
13
 10
1844.395
 20
-4473.573
 30
2260.000
 70
    32
  0
VERTEX
  8
E30LXLIFT
 62
13
 10
1849.865
 20
-4482.595
 30
2260.000
 70
    32
  0
VERTEX
  8
E30LXLIFT
 62
13
 10
1851.134
 20
-4491.237
 30
2260.000
 70
    32
  0
VERTEX
  8
E30LXLIFT
 62
13
 10
1861.391
 20
-4499.225
 30
2260.000
 70
    32
  0
VERTEX
  8
E30LXLIFT
 62
13
 10
1868.428
 20
-4504.475
 30
2260.000
 70
    32
  0
VERTEX
  8
E30LXLIFT
 62
13
 10
1879.221
 20
-4505.971
 30
2260.000
 70
    32
  0
VERTEX
  8
E30LXLIFT
 62
13
 10
1879.693
 20
-4506.166
 30
2260.000
 70
    32
  0
VERTEX
  8
E30LXLIFT
 62
13
 10
1892.638
 20
-4512.930
 30
2260.000
 70
    32
  0
VERTEX
  8
E30LXLIFT
 62
13
 10
1902.795
 20
-4510.323
 30
2260.000
 70
    32
  0
VERTEX
  8
E30LXLIFT
 62
13
 10
1908.769
 20
-4517.230
 30
2260.000
 70
    32
  0
VERTEX
  8
E30LXLIFT
 62
13
 10
1912.374
 20
-4527.412
 30
2260.000
 70
    32
  0
SEQEND
  8
E30LXLIFT
  0
POLYLINE
  8
E30LXLIFT
 62
3
 66
     1
 70
     9
  0
VERTEX
  8
E30LXLIFT
 62
3
 10
2140.698
 20
-4862.176
 30
2260.000
 70
    32
  0
VERTEX
  8
E30LXLIFT
 62
3
 10
2134.737
 20
-4865.600
 30
2260.000
 70
    32
  0
VERTEX
  8
E30LXLIFT
 62
3
 10
2126.821
 20
-4865.789
 30
2260.000
 70
    32
  0
VERTEX
  8
E30LXLIFT
 62
3
 10
2113.635
 20
-4853.543
 30
2260.000
 70
    32
  0
VERTEX
  8
E30LXLIFT
 62
3
 10
2100.363
 20
-4843.538
 30
2260.000
 70
    32
  0
VERTEX
  8
E30LXLIFT
 62
3
 10
2092.855
 20
-4838.091
 30
2260.000
 70
    32
  0
VERTEX
  8
E30LXLIFT
 62
3
 10
2088.661
 20
-4831.827
 30
2260.000
 70
    32
  0
VERTEX
  8
E30LXLIFT
 62
3
 10
2079.525
 20
-4823.883
 30
2260.000
 70
    32
  0
VERTEX
  8
E30LXLIFT
 62
3
 10
2069.769
 20
-4819.225
 30
2260.000
 70
    32
  0
VERTEX
  8
E30LXLIFT
 62
3
 10
2067.032
 20
-4829.958
 30
2260.000
 70
    32
  0
VERTEX
  8
E30LXLIFT
 62
3
 10
2069.071
 20
-4845.977
 30
2260.000
 70
    32
  0
VERTEX
  8
E30LXLIFT
 62
3
 10
2071.878
 20
-4852.721
 30
2260.000
 70
    32
  0
VERTEX
  8
E30LXLIFT
 62
3
 10
2082.263
 20
-4862.356
 30
2260.000
 70
    32
  0
VERTEX
  8
E30LXLIFT
 62
3
 10
2090.995
 20
-4872.994
 30
2260.000
 70
    32
  0
VERTEX
  8
E30LXLIFT
 62
3
 10
2104.981
 20
-4883.670
 30
2260.000
 70
    32
  0
VERTEX
  8
E30LXLIFT
 62
3
 10
2117.442
 20
-4889.485
 30
2260.000
 70
    32
  0
VERTEX
  8
E30LXLIFT
 62
3
 10
2127.268
 20
-4894.090
 30
2260.000
 70
    32
  0
VERTEX
  8
E30LXLIFT
 62
3
 10
2131.249
 20
-4905.517
 30
2260.000
 70
    32
  0
VERTEX
  8
E30LXLIFT
 62
3
 10
2130.877
 20
-4915.916
 30
2260.000
 70
    32
  0
VERTEX
  8
E30LXLIFT
 62
3
 10
2122.854
 20
-4916.402
 30
2260.000
 70
    32
  0
VERTEX
  8
E30LXLIFT
 62
3
 10
2114.832
 20
-4906.872
 30
2260.000
 70
    32
  0
VERTEX
  8
E30LXLIFT
 62
3
 10
2103.552
 20
-4897.353
 30
2260.000
 70
    32
  0
VERTEX
  8
E30LXLIFT
 62
3
 10
2092.285
 20
-4891.092
 30
2260.000
 70
    32
  0
VERTEX
  8
E30LXLIFT
 62
3
 10
2079.744
 20
-4886.642
 30
2260.000
 70
    32
  0
VERTEX
  8
E30LXLIFT
 62
3
 10
2068.254
 20
-4874.776
 30
2260.000
 70
    32
  0
VERTEX
  8
E30LXLIFT
 62
3
 10
2053.902
 20
-4861.541
 30
2260.000
 70
    32
  0
VERTEX
  8
E30LXLIFT
 62
3
 10
2045.724
 20
-4846.791
 30
2260.000
 70
    32
  0
VERTEX
  8
E30LXLIFT
 62
3
 10
2040.813
 20
-4830.717
 30
2260.000
 70
    32
  0
VERTEX
  8
E30LXLIFT
 62
3
 10
2041.292
 20
-4815.013
 30
2260.000
 70
    32
  0
VERTEX
  8
E30LXLIFT
 62
3
 10
2054.053
 20
-4800.903
 30
2260.000
 70
    32
  0
VERTEX
  8
E30LXLIFT
 62
3
 10
2069.537
 20
-4787.827
 30
2260.000
 70
    32
  0
VERTEX
  8
E30LXLIFT
 62
3
 10
2084.204
 20
-4778.948
 30
2260.000
 70
    32
  0
VERTEX
  8
E30LXLIFT
 62
3
 10
2101.282
 20
-4785.706
 30
2260.000
 70
    32
  0
VERTEX
  8
E30LXLIFT
 62
3
 10
2114.551
 20
-4793.646
 30
2260.000
 70
    32
  0
VERTEX
  8
E30LXLIFT
 62
3
 10
2121.673
 20
-4806.672
 30
2260.000
 70
    32
  0
VERTEX
  8
E30LXLIFT
 62
3
 10
2124.693
 20
-4817.830
 30
2260.000
 70
    32
  0
VERTEX
  8
E30LXLIFT
 62
3
 10
2125.466
 20
-4832.282
 30
2260.000
 70
    32
  0
VERTEX
  8
E30LXLIFT
 62
3
 10
2135.621
 20
-4847.203
 30
2260.000
 70
    32
  0
SEQEND
  8
E30LXLIFT
  0
POLYLINE
  8
E30LXLIFT
 62
3
 66
     1
 70
     9
  0
VERTEX
  8
E30LXLIFT
 62
3
 10
2102.348
 20
-4805.711
 30
2260.000
 70
    32
  0
VERTEX
  8
E30LXLIFT
 62
3
 10
2099.124
 20
-4805.916
 30
2260.000
 70
    32
  0
VERTEX
  8
E30LXLIFT
 62
3
 10
2098.787
 20
-4814.003
 30
2260.000
 70
    32
  0
VERTEX
  8
E30LXLIFT
 62
3
 10
2100.469
 20
-4823.646
 30
2260.000
 70
    32
  0
VERTEX
  8
E30LXLIFT
 62
3
 10
2102.822
 20
-4832.576
 30
2260.000
 70
    32
  0
VERTEX
  8
E30LXLIFT
 62
3
 10
2106.274
 20
-4839.605
 30
2260.000
 70
    32
  0
VERTEX
  8
E30LXLIFT
 62
3
 10
2108.761
 20
-4834.719
 30
2260.000
 70
    32
  0
VERTEX
  8
E30LXLIFT
 62
3
 10
2107.430
 20
-4827.320
 30
2260.000
 70
    32
  0
VERTEX
  8
E30LXLIFT
 62
3
 10
2105.824
 20
-4819.254
 30
2260.000
 70
    32
  0
SEQEND
  8
E30LXLIFT
  0
POLYLINE
  8
E30LXLIFT
 62
7
 66
     1
 70
     9
  0
VERTEX
  8
E30LXLIFT
 62
7
 10
1708.000
 20
-4260.939
 30
2268.000
 70
    32
  0
VERTEX
  8
E30LXLIFT
 62
7
 10
1696.185
 20
-4247.176
 30
2268.000
 70
    32
  0
VERTEX
  8
E30LXLIFT
 62
7
 10
1683.092
 20
-4247.477
 30
2268.000
 70
    32
  0
VERTEX
  8
E30LXLIFT
 62
7
 10
1679.044
 20
-4233.359
 30
2268.000
 70
    32
  0
VERTEX
  8
E30LXLIFT
 62
7
 10
1678.715
 20
-4222.709
 30
2268.000
 70
    32
  0
VERTEX
  8
E30LXLIFT
 62
7
 10
1672.325
 20
-4219.054
 30
2268.000
 70
    32
  0
VERTEX
  8
E30LXLIFT
 62
7
 10
1674.399
 20
-4206.921
 30
2268.000
 70
    32
  0
VERTEX
  8
E30LXLIFT
 62
7
 10
1672.692
 20
-4200.283
 30
2268.000
 70
    32
  0
VERTEX
  8
E30LXLIFT
 62
7
 10
1664.121
 20
-4202.346
 30
2268.000
 70
    32
  0
VERTEX
  8
E30LXLIFT
 62
7
 10
1660.153
 20
-4191.250
 30
2268.000
 70
    32
  0
VERTEX
  8
E30LXLIFT
 62
7
 10
1655.765
 20
-4187.185
 30
2268.000
 70
    32
  0
VERTEX
  8
E30LXLIFT
 62
7
 10
1649.759
 20
-4183.019
 30
2268.000
 70
    32
  0
VERTEX
  8
E30LXLIFT
 62
7
 10
1645.857
 20
-4176.827
 30
2268.000
 70
    32
  0
VERTEX
  8
E30LXLIFT
 62
7
 10
1637.818
 20
-4174.196
 30
2268.000
 70
    32
  0
VERTEX
  8
E30LXLIFT
 62
7
 10
1632.381
 20
-4178.078
 30
2268.000
 70
    32
  0
VERTEX
  8
E30LXLIFT
 62
7
 10
1627.369
 20
-4177.126
 30
2268.000
 70
    32
  0
VERTEX
  8
E30LXLIFT
 62
7
 10
1624.039
 20
-4168.190
 30
2268.000
 70
    32
  0
VERTEX
  8
E30LXLIFT
 62
7
 10
1622.261
 20
-4154.890
 30
2268.000
 70
    32
  0
VERTEX
  8
E30LXLIFT
 62
7
 10
1620.556
 20
-4148.691
 30
2268.000
 70
    32
  0
VERTEX
  8
E30LXLIFT
 62
7
 10
1616.016
 20
-4140.778
 30
2268.000
 70
    32
  0
VERTEX
  8
E30LXLIFT
 62
7
 10
1604.084
 20
-4135.030
 30
2268.000
 70
    32
  0
VERTEX
  8
E30LXLIFT
 62
7
 10
1588.863
 20
-4146.955
 30
2268.000
 70
    32
  0
VERTEX
  8
E30LXLIFT
 62
7
 10
1592.743
 20
-4157.787
 30
2268.000
 70
    32
  0
VERTEX
  8
E30LXLIFT
 62
7
 10
1597.529
 20
-4165.735
 30
2268.000
 70
    32
  0
VERTEX
  8
E30LXLIFT
 62
7
 10
1593.267
 20
-4168.841
 30
2268.000
 70
    32
  0
VERTEX
  8
E30LXLIFT
 62
7
 10
1596.674
 20
-4174.086
 30
2268.000
 70
    32
  0
VERTEX
  8
E30LXLIFT
 62
7
 10
1609.601
 20
-4183.487
 30
2268.000
 70
    32
  0
VERTEX
  8
E30LXLIFT
 62
7
 10
1621.577
 20
-4192.064
 30
2268.000
 70
    32
  0
VERTEX
  8
E30LXLIFT
 62
7
 10
1628.935
 20
-4202.254
 30
2268.000
 70
    32
  0
VERTEX
  8
E30LXLIFT
 62
7
 10
1641.538
 20
-4208.598
 30
2268.000
 70
    32
  0
VERTEX
  8
E30LXLIFT
 62
7
 10
1650.455
 20
-4217.061
 30
2268.000
 70
    32
  0
VERTEX
  8
E30LXLIFT
 62
7
 10
1656.532
 20
-4221.613
 30
2268.000
 70
    32
  0
VERTEX
  8
E30LXLIFT
 62
7
 10
1663.635
 20
-4222.418
 30
2268.000
 70
    32
  0
VERTEX
  8
E30LXLIFT
 62
7
 10
1672.605
 20
-4230.952
 30
2268.000
 70
    32
  0
VERTEX
  8
E30LXLIFT
 62
7
 10
1671.844
 20
-4241.323
 30
2268.000
 70
    32
  0
VERTEX
  8
E30LXLIFT
 62
7
 10
1669.090
 20
-4249.346
 30
2268.000
 70
    32
  0
VERTEX
  8
E30LXLIFT
 62
7
 10
1662.457
 20
-4252.810
 30
2268.000
 70
    32
  0
VERTEX
  8
E30LXLIFT
 62
7
 10
1668.191
 20
-4260.702
 30
2268.000
 70
    32
  0
VERTEX
  8
E30LXLIFT
 62
7
 10
1698.075
 20
-4268.648
 30
2268.000
 70
    32
  0
SEQEND
  8
E30LXLIFT
  0
POLYLINE
  8
E30LXLIFT
 62
3
 66
     1
 70
     9
  0
VERTEX
  8
E30LXLIFT
 62
3
 10
2084.827
 20
-4789.695
 30
2271.000
 70
    32
  0
VERTEX
  8
E30LXLIFT
 62
3
 10
2091.413
 20
-4806.303
 30
2271.000
 70
    32
  0
VERTEX
  8
E30LXLIFT
 62
3
 10
2098.229
 20
-4823.507
 30
2271.000
 70
    32
  0
VERTEX
  8
E30LXLIFT
 62
3
 10
2099.918
 20
-4842.378
 30
2271.000
 70
    32
  0
VERTEX
  8
E30LXLIFT
 62
3
 10
2098.315
 20
-4859.220
 30
2271.000
 70
    32
  0
VERTEX
  8
E30LXLIFT
 62
3
 10
2104.470
 20
-4872.629
 30
2271.000
 70
    32
  0
VERTEX
  8
E30LXLIFT
 62
3
 10
2099.713
 20
-4874.787
 30
2271.000
 70
    32
  0
VERTEX
  8
E30LXLIFT
 62
3
 10
2087.174
 20
-4859.920
 30
2271.000
 70
    32
  0
VERTEX
  8
E30LXLIFT
 62
3
 10
2076.389
 20
-4843.729
 30
2271.000
 70
    32
  0
VERTEX
  8
E30LXLIFT
 62
3
 10
2066.273
 20
-4828.133
 30
2271.000
 70
    32
  0
VERTEX
  8
E30LXLIFT
 62
3
 10
2061.001
 20
-4816.039
 30
2271.000
 70
    32
  0
VERTEX
  8
E30LXLIFT
 62
3
 10
2053.224
 20
-4819.155
 30
2271.000
 70
    32
  0
VERTEX
  8
E30LXLIFT
 62
3
 10
2054.287
 20
-4828.150
 30
2271.000
 70
    32
  0
VERTEX
  8
E30LXLIFT
 62
3
 10
2061.013
 20
-4844.652
 30
2271.000
 70
    32
  0
VERTEX
  8
E30LXLIFT
 62
3
 10
2067.944
 20
-4865.072
 30
2271.000
 70
    32
  0
VERTEX
  8
E30LXLIFT
 62
3
 10
2080.089
 20
-4883.649
 30
2271.000
 70
    32
  0
VERTEX
  8
E30LXLIFT
 62
3
 10
2094.269
 20
-4900.691
 30
2271.000
 70
    32
  0
VERTEX
  8
E30LXLIFT
 62
3
 10
2105.927
 20
-4908.848
 30
2271.000
 70
    32
  0
VERTEX
  8
E30LXLIFT
 62
3
 10
2116.065
 20
-4913.968
 30
2271.000
 70
    32
  0
VERTEX
  8
E30LXLIFT
 62
3
 10
2128.369
 20
-4926.482
 30
2271.000
 70
    32
  0
VERTEX
  8
E30LXLIFT
 62
3
 10
2134.765
 20
-4931.894
 30
2271.000
 70
    32
  0
VERTEX
  8
E30LXLIFT
 62
3
 10
2142.624
 20
-4926.845
 30
2271.000
 70
    32
  0
VERTEX
  8
E30LXLIFT
 62
3
 10
2137.427
 20
-4916.455
 30
2271.000
 70
    32
  0
VERTEX
  8
E30LXLIFT
 62
3
 10
2127.329
 20
-4907.011
 30
2271.000
 70
    32
  0
VERTEX
  8
E30LXLIFT
 62
3
 10
2121.755
 20
-4893.934
 30
2271.000
 70
    32
  0
VERTEX
  8
E30LXLIFT
 62
3
 10
2119.876
 20
-4876.416
 30
2271.000
 70
    32
  0
VERTEX
  8
E30LXLIFT
 62
3
 10
2118.767
 20
-4863.273
 30
2271.000
 70
    32
  0
VERTEX
  8
E30LXLIFT
 62
3
 10
2120.676
 20
-4855.007
 30
2271.000
 70
    32
  0
VERTEX
  8
E30LXLIFT
 62
3
 10
2128.135
 20
-4851.471
 30
2271.000
 70
    32
  0
VERTEX
  8
E30LXLIFT
 62
3
 10
2141.131
 20
-4841.995
 30
2271.000
 70
    32
  0
VERTEX
  8
E30LXLIFT
 62
3
 10
2155.914
 20
-4830.511
 30
2271.000
 70
    32
  0
VERTEX
  8
E30LXLIFT
 62
3
 10
2167.498
 20
-4819.019
 30
2271.000
 70
    32
  0
VERTEX
  8
E30LXLIFT
 62
3
 10
2175.502
 20
-4809.347
 30
2271.000
 70
    32
  0
VERTEX
  8
E30LXLIFT
 62
3
 10
2171.840
 20
-4800.992
 30
2271.000
 70
    32
  0
VERTEX
  8
E30LXLIFT
 62
3
 10
2164.120
 20
-4805.496
 30
2271.000
 70
    32
  0
VERTEX
  8
E30LXLIFT
 62
3
 10
2155.182
 20
-4814.221
 30
2271.000
 70
    32
  0
VERTEX
  8
E30LXLIFT
 62
3
 10
2147.221
 20
-4820.448
 30
2271.000
 70
    32
  0
VERTEX
  8
E30LXLIFT
 62
3
 10
2134.395
 20
-4821.979
 30
2271.000
 70
    32
  0
VERTEX
  8
E30LXLIFT
 62
3
 10
2123.729
 20
-4822.871
 30
2271.000
 70
    32
  0
VERTEX
  8
E30LXLIFT
 62
3
 10
2128.825
 20
-4816.494
 30
2271.000
 70
    32
  0
VERTEX
  8
E30LXLIFT
 62
3
 10
2138.558
 20
-4808.821
 30
2271.000
 70
    32
  0
VERTEX
  8
E30LXLIFT
 62
3
 10
2144.508
 20
-4799.928
 30
2271.000
 70
    32
  0
VERTEX
  8
E30LXLIFT
 62
3
 10
2146.121
 20
-4786.601
 30
2271.000
 70
    32
  0
VERTEX
  8
E30LXLIFT
 62
3
 10
2135.700
 20
-4780.814
 30
2271.000
 70
    32
  0
VERTEX
  8
E30LXLIFT
 62
3
 10
2123.154
 20
-4775.859
 30
2271.000
 70
    32
  0
VERTEX
  8
E30LXLIFT
 62
3
 10
2110.332
 20
-4772.433
 30
2271.000
 70
    32
  0
VERTEX
  8
E30LXLIFT
 62
3
 10
2099.009
 20
-4770.849
 30
2271.000
 70
    32
  0
SEQEND
  8
E30LXLIFT
  0
POLYLINE
  8
E30LXLIFT
 62
7
 66
     1
 70
     9
  0
VERTEX
  8
E30LXLIFT
 62
7
 10
1698.083
 20
-4265.318
 30
2279.000
 70
    32
  0
VERTEX
  8
E30LXLIFT
 62
7
 10
1692.201
 20
-4258.742
 30
2279.000
 70
    32
  0
VERTEX
  8
E30LXLIFT
 62
7
 10
1685.205
 20
-4254.201
 30
2279.000
 70
    32
  0
VERTEX
  8
E30LXLIFT
 62
7
 10
1678.557
 20
-4255.426
 30
2279.000
 70
    32
  0
VERTEX
  8
E30LXLIFT
 62
7
 10
1676.165
 20
-4246.032
 30
2279.000
 70
    32
  0
VERTEX
  8
E30LXLIFT
 62
7
 10
1675.677
 20
-4234.783
 30
2279.000
 70
    32
  0
VERTEX
  8
E30LXLIFT
 62
7
 10
1669.416
 20
-4216.219
 30
2279.000
 70
    32
  0
VERTEX
  8
E30LXLIFT
 62
7
 10
1659.179
 20
-4198.644
 30
2279.000
 70
    32
  0
VERTEX
  8
E30LXLIFT
 62
7
 10
1649.323
 20
-4187.467
 30
2279.000
 70
    32
  0
VERTEX
  8
E30LXLIFT
 62
7
 10
1642.577
 20
-4176.933
 30
2279.000
 70
    32
  0
VERTEX
  8
E30LXLIFT
 62
7
 10
1632.176
 20
-4181.062
 30
2279.000
 70
    32
  0
VERTEX
  8
E30LXLIFT
 62
7
 10
1626.539
 20
-4179.671
 30
2279.000
 70
    32
  0
VERTEX
  8
E30LXLIFT
 62
7
 10
1624.766
 20
-4169.050
 30
2279.000
 70
    32
  0
VERTEX
  8
E30LXLIFT
 62
7
 10
1625.382
 20
-4158.841
 30
2279.000
 70
    32
  0
VERTEX
  8
E30LXLIFT
 62
7
 10
1620.758
 20
-4149.247
 30
2279.000
 70
    32
  0
VERTEX
  8
E30LXLIFT
 62
7
 10
1612.690
 20
-4139.588
 30
2279.000
 70
    32
  0
VERTEX
  8
E30LXLIFT
 62
7
 10
1601.152
 20
-4132.183
 30
2279.000
 70
    32
  0
VERTEX
  8
E30LXLIFT
 62
7
 10
1588.357
 20
-4132.507
 30
2279.000
 70
    32
  0
VERTEX
  8
E30LXLIFT
 62
7
 10
1585.142
 20
-4142.022
 30
2279.000
 70
    32
  0
VERTEX
  8
E30LXLIFT
 62
7
 10
1580.976
 20
-4152.464
 30
2279.000
 70
    32
  0
VERTEX
  8
E30LXLIFT
 62
7
 10
1590.055
 20
-4164.218
 30
2279.000
 70
    32
  0
VERTEX
  8
E30LXLIFT
 62
7
 10
1597.694
 20
-4175.950
 30
2279.000
 70
    32
  0
VERTEX
  8
E30LXLIFT
 62
7
 10
1605.905
 20
-4185.065
 30
2279.000
 70
    32
  0
VERTEX
  8
E30LXLIFT
 62
7
 10
1610.472
 20
-4185.608
 30
2279.000
 70
    32
  0
VERTEX
  8
E30LXLIFT
 62
7
 10
1618.495
 20
-4183.141
 30
2279.000
 70
    32
  0
VERTEX
  8
E30LXLIFT
 62
7
 10
1622.749
 20
-4187.971
 30
2279.000
 70
    32
  0
VERTEX
  8
E30LXLIFT
 62
7
 10
1626.206
 20
-4199.530
 30
2279.000
 70
    32
  0
VERTEX
  8
E30LXLIFT
 62
7
 10
1632.270
 20
-4209.147
 30
2279.000
 70
    32
  0
VERTEX
  8
E30LXLIFT
 62
7
 10
1643.447
 20
-4214.300
 30
2279.000
 70
    32
  0
VERTEX
  8
E30LXLIFT
 62
7
 10
1652.815
 20
-4224.087
 30
2279.000
 70
    32
  0
VERTEX
  8
E30LXLIFT
 62
7
 10
1649.331
 20
-4230.296
 30
2279.000
 70
    32
  0
VERTEX
  8
E30LXLIFT
 62
7
 10
1652.854
 20
-4243.121
 30
2279.000
 70
    32
  0
VERTEX
  8
E30LXLIFT
 62
7
 10
1659.826
 20
-4249.542
 30
2279.000
 70
    32
  0
VERTEX
  8
E30LXLIFT
 62
7
 10
1669.773
 20
-4254.516
 30
2279.000
 70
    32
  0
VERTEX
  8
E30LXLIFT
 62
7
 10
1666.721
 20
-4257.774
 30
2279.000
 70
    32
  0
VERTEX
  8
E30LXLIFT
 62
7
 10
1675.320
 20
-4266.381
 30
2279.000
 70
    32
  0
VERTEX
  8
E30LXLIFT
 62
7
 10
1682.785
 20
-4277.584
 30
2279.000
 70
    32
  0
SEQEND
  8
E30LXLIFT
  0
POLYLINE
  8
E30LXLIFT
 62
8
 66
     1
 70
     9
  0
VERTEX
  8
E30LXLIFT
 62
8
 10
1793.178
 20
-4360.820
 30
2272.000
 70
    32
  0
VERTEX
  8
E30LXLIFT
 62
8
 10
1791.334
 20
-4370.409
 30
2272.000
 70
    32
  0
VERTEX
  8
E30LXLIFT
 62
8
 10
1787.893
 20
-4379.325
 30
2272.000
 70
    32
  0
VERTEX
  8
E30LXLIFT
 62
8
 10
1789.944
 20
-4385.905
 30
2272.000
 70
    32
  0
VERTEX
  8
E30LXLIFT
 62
8
 10
1784.302
 20
-4390.982
 30
2272.000
 70
    32
  0
VERTEX
  8
E30LXLIFT
 62
8
 10
1779.060
 20
-4392.475
 30
2272.000
 70
    32
  0
VERTEX
  8
E30LXLIFT
 62
8
 10
1775.437
 20
-4388.051
 30
2272.000
 70
    32
  0
VERTEX
  8
E30LXLIFT
 62
8
 10
1769.102
 20
-4385.427
 30
2272.000
 70
    32
  0
VERTEX
  8
E30LXLIFT
 62
8
 10
1767.708
 20
-4376.934
 30
2272.000
 70
    32
  0
VERTEX
  8
E30LXLIFT
 62
8
 10
1772.555
 20
-4363.137
 30
2272.000
 70
    32
  0
VERTEX
  8
E30LXLIFT
 62
8
 10
1779.689
 20
-4358.593
 30
2272.000
 70
    32
  0
VERTEX
  8
E30LXLIFT
 62
8
 10
1788.385
 20
-4354.529
 30
2272.000
 70
    32
  0
SEQEND
  8
E30LXLIFT
  0
POLYLINE
  8
E30LXLIFT
 62
3
 66
     1
 70
     9
  0
VERTEX
  8
E30LXLIFT
 62
3
 10
2120.051
 20
-4750.563
 30
2281.000
 70
    32
  0
VERTEX
  8
E30LXLIFT
 62
3
 10
2127.674
 20
-4766.688
 30
2281.000
 70
    32
  0
VERTEX
  8
E30LXLIFT
 62
3
 10
2123.267
 20
-4780.486
 30
2281.000
 70
    32
  0
VERTEX
  8
E30LXLIFT
 62
3
 10
2115.238
 20
-4789.860
 30
2281.000
 70
    32
  0
VERTEX
  8
E30LXLIFT
 62
3
 10
2109.944
 20
-4795.993
 30
2281.000
 70
    32
  0
VERTEX
  8
E30LXLIFT
 62
3
 10
2111.412
 20
-4808.265
 30
2281.000
 70
    32
  0
VERTEX
  8
E30LXLIFT
 62
3
 10
2114.555
 20
-4818.962
 30
2281.000
 70
    32
  0
VERTEX
  8
E30LXLIFT
 62
3
 10
2133.533
 20
-4824.881
 30
2281.000
 70
    32
  0
VERTEX
  8
E30LXLIFT
 62
3
 10
2128.490
 20
-4829.731
 30
2281.000
 70
    32
  0
VERTEX
  8
E30LXLIFT
 62
3
 10
2123.456
 20
-4836.655
 30
2281.000
 70
    32
  0
VERTEX
  8
E30LXLIFT
 62
3
 10
2108.898
 20
-4828.432
 30
2281.000
 70
    32
  0
VERTEX
  8
E30LXLIFT
 62
3
 10
2106.264
 20
-4837.843
 30
2281.000
 70
    32
  0
VERTEX
  8
E30LXLIFT
 62
3
 10
2097.496
 20
-4842.399
 30
2281.000
 70
    32
  0
VERTEX
  8
E30LXLIFT
 62
3
 10
2102.138
 20
-4851.870
 30
2281.000
 70
    32
  0
VERTEX
  8
E30LXLIFT
 62
3
 10
2106.071
 20
-4862.745
 30
2281.000
 70
    32
  0
VERTEX
  8
E30LXLIFT
 62
3
 10
2109.556
 20
-4881.404
 30
2281.000
 70
    32
  0
VERTEX
  8
E30LXLIFT
 62
3
 10
2120.260
 20
-4900.932
 30
2281.000
 70
    32
  0
VERTEX
  8
E30LXLIFT
 62
3
 10
2132.192
 20
-4916.370
 30
2281.000
 70
    32
  0
VERTEX
  8
E30LXLIFT
 62
3
 10
2140.988
 20
-4928.773
 30
2281.000
 70
    32
  0
VERTEX
  8
E30LXLIFT
 62
3
 10
2140.794
 20
-4929.247
 30
2281.000
 70
    32
  0
VERTEX
  8
E30LXLIFT
 62
3
 10
2130.745
 20
-4933.113
 30
2281.000
 70
    32
  0
VERTEX
  8
E30LXLIFT
 62
3
 10
2118.430
 20
-4921.576
 30
2281.000
 70
    32
  0
VERTEX
  8
E30LXLIFT
 62
3
 10
2108.613
 20
-4909.714
 30
2281.000
 70
    32
  0
VERTEX
  8
E30LXLIFT
 62
3
 10
2099.280
 20
-4894.971
 30
2281.000
 70
    32
  0
VERTEX
  8
E30LXLIFT
 62
3
 10
2088.026
 20
-4891.628
 30
2281.000
 70
    32
  0
VERTEX
  8
E30LXLIFT
 62
3
 10
2080.246
 20
-4885.150
 30
2281.000
 70
    32
  0
VERTEX
  8
E30LXLIFT
 62
3
 10
2067.588
 20
-4871.239
 30
2281.000
 70
    32
  0
VERTEX
  8
E30LXLIFT
 62
3
 10
2056.736
 20
-4853.574
 30
2281.000
 70
    32
  0
VERTEX
  8
E30LXLIFT
 62
3
 10
2046.857
 20
-4839.128
 30
2281.000
 70
    32
  0
VERTEX
  8
E30LXLIFT
 62
3
 10
2038.395
 20
-4826.585
 30
2281.000
 70
    32
  0
VERTEX
  8
E30LXLIFT
 62
3
 10
2033.139
 20
-4817.023
 30
2281.000
 70
    32
  0
VERTEX
  8
E30LXLIFT
 62
3
 10
2041.504
 20
-4812.220
 30
2281.000
 70
    32
  0
VERTEX
  8
E30LXLIFT
 62
3
 10
2056.998
 20
-4829.058
 30
2281.000
 70
    32
  0
VERTEX
  8
E30LXLIFT
 62
3
 10
2074.881
 20
-4846.309
 30
2281.000
 70
    32
  0
VERTEX
  8
E30LXLIFT
 62
3
 10
2083.002
 20
-4850.889
 30
2281.000
 70
    32
  0
VERTEX
  8
E30LXLIFT
 62
3
 10
2075.130
 20
-4835.607
 30
2281.000
 70
    32
  0
VERTEX
  8
E30LXLIFT
 62
3
 10
2071.414
 20
-4822.817
 30
2281.000
 70
    32
  0
VERTEX
  8
E30LXLIFT
 62
3
 10
2064.712
 20
-4814.551
 30
2281.000
 70
    32
  0
VERTEX
  8
E30LXLIFT
 62
3
 10
2061.524
 20
-4806.297
 30
2281.000
 70
    32
  0
VERTEX
  8
E30LXLIFT
 62
3
 10
2057.072
 20
-4798.109
 30
2281.000
 70
    32
  0
VERTEX
  8
E30LXLIFT
 62
3
 10
2067.667
 20
-4788.797
 30
2281.000
 70
    32
  0
VERTEX
  8
E30LXLIFT
 62
3
 10
2088.492
 20
-4773.949
 30
2281.000
 70
    32
  0
SEQEND
  8
E30LXLIFT
  0
POLYLINE
  8
E30LXLIFT
 62
2
 66
     1
 70
     9
  0
VERTEX
  8
E30LXLIFT
 62
2
 10
1553.246
 20
-4118.950
 30
2287.000
 70
    32
  0
VERTEX
  8
E30LXLIFT
 62
2
 10
1545.727
 20
-4102.904
 30
2287.000
 70
    32
  0
VERTEX
  8
E30LXLIFT
 62
2
 10
1541.716
 20
-4082.435
 30
2287.000
 70
    32
  0
VERTEX
  8
E30LXLIFT
 62
2
 10
1531.237
 20
-4063.986
 30
2287.000
 70
    32
  0
VERTEX
  8
E30LXLIFT
 62
2
 10
1519.692
 20
-4046.755
 30
2287.000
 70
    32
  0
VERTEX
  8
E30LXLIFT
 62
2
 10
1511.724
 20
-4028.315
 30
2287.000
 70
    32
  0
VERTEX
  8
E30LXLIFT
 62
2
 10
1501.996
 20
-4008.663
 30
2287.000
 70
    32
  0
VERTEX
  8
E30LXLIFT
 62
2
 10
1497.224
 20
-4000.075
 30
2287.000
 70
    32
  0
VERTEX
  8
E30LXLIFT
 62
2
 10
1489.767
 20
-3984.855
 30
2287.000
 70
    32
  0
VERTEX
  8
E30LXLIFT
 62
2
 10
1489.649
 20
-3984.397
 30
2287.000
 70
    32
  0
VERTEX
  8
E30LXLIFT
 62
2
 10
1488.474
 20
-3976.113
 30
2287.000
 70
    32
  0
VERTEX
  8
E30LXLIFT
 62
2
 10
1492.043
 20
-3974.149
 30
2287.000
 70
    32
  0
VERTEX
  8
E30LXLIFT
 62
2
 10
1499.997
 20
-3977.572
 30
2287.000
 70
    32
  0
VERTEX
  8
E30LXLIFT
 62
2
 10
1504.835
 20
-3988.180
 30
2287.000
 70
    32
  0
VERTEX
  8
E30LXLIFT
 62
2
 10
1510.877
 20
-3997.905
 30
2287.000
 70
    32
  0
VERTEX
  8
E30LXLIFT
 62
2
 10
1517.442
 20
-4014.432
 30
2287.000
 70
    32
  0
VERTEX
  8
E30LXLIFT
 62
2
 10
1523.663
 20
-4033.608
 30
2287.000
 70
    32
  0
VERTEX
  8
E30LXLIFT
 62
2
 10
1533.254
 20
-4049.659
 30
2287.000
 70
    32
  0
VERTEX
  8
E30LXLIFT
 62
2
 10
1540.782
 20
-4063.194
 30
2287.000
 70
    32
  0
VERTEX
  8
E30LXLIFT
 62
2
 10
1547.085
 20
-4060.206
 30
2287.000
 70
    32
  0
VERTEX
  8
E30LXLIFT
 62
2
 10
1556.701
 20
-4054.461
 30
2287.000
 70
    32
  0
VERTEX
  8
E30LXLIFT
 62
2
 10
1560.869
 20
-4063.710
 30
2287.000
 70
    32
  0
VERTEX
  8
E30LXLIFT
 62
2
 10
1558.064
 20
-4077.853
 30
2287.000
 70
    32
  0
VERTEX
  8
E30LXLIFT
 62
2
 10
1557.350
 20
-4098.411
 30
2287.000
 70
    32
  0
VERTEX
  8
E30LXLIFT
 62
2
 10
1563.382
 20
-4115.547
 30
2287.000
 70
    32
  0
SEQEND
  8
E30LXLIFT
  0
POLYLINE
  8
E30LXLIFT
 62
7
 66
     1
 70
     9
  0
VERTEX
  8
E30LXLIFT
 62
7
 10
1670.911
 20
-4226.708
 30
2290.000
 70
    32
  0
VERTEX
  8
E30LXLIFT
 62
7
 10
1666.639
 20
-4230.385
 30
2290.000
 70
    32
  0
VERTEX
  8
E30LXLIFT
 62
7
 10
1664.476
 20
-4235.455
 30
2290.000
 70
    32
  0
VERTEX
  8
E30LXLIFT
 62
7
 10
1679.143
 20
-4245.062
 30
2290.000
 70
    32
  0
VERTEX
  8
E30LXLIFT
 62
7
 10
1690.283
 20
-4254.315
 30
2290.000
 70
    32
  0
VERTEX
  8
E30LXLIFT
 62
7
 10
1694.257
 20
-4263.597
 30
2290.000
 70
    32
  0
VERTEX
  8
E30LXLIFT
 62
7
 10
1691.056
 20
-4268.884
 30
2290.000
 70
    32
  0
VERTEX
  8
E30LXLIFT
 62
7
 10
1682.441
 20
-4269.756
 30
2290.000
 70
    32
  0
VERTEX
  8
E30LXLIFT
 62
7
 10
1673.921
 20
-4260.215
 30
2290.000
 70
    32
  0
VERTEX
  8
E30LXLIFT
 62
7
 10
1668.936
 20
-4253.417
 30
2290.000
 70
    32
  0
VERTEX
  8
E30LXLIFT
 62
7
 10
1669.971
 20
-4245.472
 30
2290.000
 70
    32
  0
VERTEX
  8
E30LXLIFT
 62
7
 10
1661.318
 20
-4241.690
 30
2290.000
 70
    32
  0
VERTEX
  8
E30LXLIFT
 62
7
 10
1650.692
 20
-4235.218
 30
2290.000
 70
    32
  0
VERTEX
  8
E30LXLIFT
 62
7
 10
1642.139
 20
-4225.483
 30
2290.000
 70
    32
  0
VERTEX
  8
E30LXLIFT
 62
7
 10
1627.713
 20
-4214.719
 30
2290.000
 70
    32
  0
VERTEX
  8
E30LXLIFT
 62
7
 10
1615.964
 20
-4204.932
 30
2290.000
 70
    32
  0
VERTEX
  8
E30LXLIFT
 62
7
 10
1611.154
 20
-4199.857
 30
2290.000
 70
    32
  0
VERTEX
  8
E30LXLIFT
 62
7
 10
1596.445
 20
-4192.568
 30
2290.000
 70
    32
  0
VERTEX
  8
E30LXLIFT
 62
7
 10
1584.469
 20
-4184.254
 30
2290.000
 70
    32
  0
VERTEX
  8
E30LXLIFT
 62
7
 10
1573.603
 20
-4174.037
 30
2290.000
 70
    32
  0
VERTEX
  8
E30LXLIFT
 62
7
 10
1566.442
 20
-4163.826
 30
2290.000
 70
    32
  0
VERTEX
  8
E30LXLIFT
 62
7
 10
1562.850
 20
-4153.285
 30
2290.000
 70
    32
  0
VERTEX
  8
E30LXLIFT
 62
7
 10
1568.596
 20
-4143.301
 30
2290.000
 70
    32
  0
VERTEX
  8
E30LXLIFT
 62
7
 10
1563.262
 20
-4136.323
 30
2290.000
 70
    32
  0
VERTEX
  8
E30LXLIFT
 62
7
 10
1564.750
 20
-4131.966
 30
2290.000
 70
    32
  0
VERTEX
  8
E30LXLIFT
 62
7
 10
1581.338
 20
-4139.294
 30
2290.000
 70
    32
  0
VERTEX
  8
E30LXLIFT
 62
7
 10
1602.712
 20
-4153.891
 30
2290.000
 70
    32
  0
VERTEX
  8
E30LXLIFT
 62
7
 10
1620.692
 20
-4170.542
 30
2290.000
 70
    32
  0
VERTEX
  8
E30LXLIFT
 62
7
 10
1630.972
 20
-4184.564
 30
2290.000
 70
    32
  0
VERTEX
  8
E30LXLIFT
 62
7
 10
1644.043
 20
-4200.459
 30
2290.000
 70
    32
  0
VERTEX
  8
E30LXLIFT
 62
7
 10
1650.193
 20
-4209.887
 30
2290.000
 70
    32
  0
VERTEX
  8
E30LXLIFT
 62
7
 10
1662.533
 20
-4208.896
 30
2290.000
 70
    32
  0
SEQEND
  8
E30LXLIFT
  0
POLYLINE
  8
E30LXLIFT
 62
8
 66
     1
 70
     9
  0
VERTEX
  8
E30LXLIFT
 62
8
 10
1791.166
 20
-4369.478
 30
2283.000
 70
    32
  0
VERTEX
  8
E30LXLIFT
 62
8
 10
1784.405
 20
-4377.484
 30
2283.000
 70
    32
  0
VERTEX
  8
E30LXLIFT
 62
8
 10
1781.860
 20
-4387.081
 30
2283.000
 70
    32
  0
VERTEX
  8
E30LXLIFT
 62
8
 10
1780.136
 20
-4401.956
 30
2283.000
 70
    32
  0
VERTEX
  8
E30LXLIFT
 62
8
 10
1766.399
 20
-4405.495
 30
2283.000
 70
    32
  0
VERTEX
  8
E30LXLIFT
 62
8
 10
1759.658
 20
-4395.412
 30
2283.000
 70
    32
  0
VERTEX
  8
E30LXLIFT
 62
8
 10
1762.189
 20
-4385.498
 30
2283.000
 70
    32
  0
VERTEX
  8
E30LXLIFT
 62
8
 10
1762.563
 20
-4378.583
 30
2283.000
 70
    32
  0
VERTEX
  8
E30LXLIFT
 62
8
 10
1761.274
 20
-4374.301
 30
2283.000
 70
    32
  0
VERTEX
  8
E30LXLIFT
 62
8
 10
1770.050
 20
-4368.302
 30
2283.000
 70
    32
  0
VERTEX
  8
E30LXLIFT
 62
8
 10
1783.179
 20
-4359.328
 30
2283.000
 70
    32
  0
SEQEND
  8
E30LXLIFT
  0
POLYLINE
  8
E30LXLIFT
 62
6
 66
     1
 70
     9
  0
VERTEX
  8
E30LXLIFT
 62
6
 10
2038.407
 20
-4081.486
 30
2289.000
 70
    32
  0
VERTEX
  8
E30LXLIFT
 62
6
 10
2043.217
 20
-4089.828
 30
2289.000
 70
    32
  0
VERTEX
  8
E30LXLIFT
 62
6
 10
2049.216
 20
-4103.504
 30
2289.000
 70
    32
  0
VERTEX
  8
E30LXLIFT
 62
6
 10
2047.982
 20
-4120.088
 30
2289.000
 70
    32
  0
VERTEX
  8
E30LXLIFT
 62
6
 10
2042.454
 20
-4126.210
 30
2289.000
 70
    32
  0
VERTEX
  8
E30LXLIFT
 62
6
 10
2035.703
 20
-4134.971
 30
2289.000
 70
    32
  0
VERTEX
  8
E30LXLIFT
 62
6
 10
2032.610
 20
-4146.494
 30
2289.000
 70
    32
  0
VERTEX
  8
E30LXLIFT
 62
6
 10
2028.168
 20
-4146.376
 30
2289.000
 70
    32
  0
VERTEX
  8
E30LXLIFT
 62
6
 10
2027.068
 20
-4142.500
 30
2289.000
 70
    32
  0
VERTEX
  8
E30LXLIFT
 62
6
 10
2016.976
 20
-4140.319
 30
2289.000
 70
    32
  0
VERTEX
  8
E30LXLIFT
 62
6
 10
2016.297
 20
-4130.037
 30
2289.000
 70
    32
  0
VERTEX
  8
E30LXLIFT
 62
6
 10
2016.288
 20
-4116.215
 30
2289.000
 70
    32
  0
VERTEX
  8
E30LXLIFT
 62
6
 10
2023.091
 20
-4114.058
 30
2289.000
 70
    32
  0
VERTEX
  8
E30LXLIFT
 62
6
 10
2025.862
 20
-4106.255
 30
2289.000
 70
    32
  0
VERTEX
  8
E30LXLIFT
 62
6
 10
2028.497
 20
-4093.216
 30
2289.000
 70
    32
  0
VERTEX
  8
E30LXLIFT
 62
6
 10
2025.278
 20
-4085.559
 30
2289.000
 70
    32
  0
VERTEX
  8
E30LXLIFT
 62
6
 10
2022.711
 20
-4074.484
 30
2289.000
 70
    32
  0
VERTEX
  8
E30LXLIFT
 62
6
 10
2027.149
 20
-4068.508
 30
2289.000
 70
    32
  0
SEQEND
  8
E30LXLIFT
  0
POLYLINE
  8
E30LXLIFT
 62
3
 66
     1
 70
     9
  0
VERTEX
  8
E30LXLIFT
 62
3
 10
2008.933
 20
-4839.922
 30
2292.000
 70
    32
  0
VERTEX
  8
E30LXLIFT
 62
3
 10
2024.388
 20
-4844.814
 30
2292.000
 70
    32
  0
VERTEX
  8
E30LXLIFT
 62
3
 10
2035.268
 20
-4853.713
 30
2292.000
 70
    32
  0
VERTEX
  8
E30LXLIFT
 62
3
 10
2045.459
 20
-4869.542
 30
2292.000
 70
    32
  0
VERTEX
  8
E30LXLIFT
 62
3
 10
2061.145
 20
-4880.689
 30
2292.000
 70
    32
  0
VERTEX
  8
E30LXLIFT
 62
3
 10
2076.860
 20
-4890.835
 30
2292.000
 70
    32
  0
VERTEX
  8
E30LXLIFT
 62
3
 10
2091.158
 20
-4897.119
 30
2292.000
 70
    32
  0
VERTEX
  8
E30LXLIFT
 62
3
 10
2105.810
 20
-4912.944
 30
2292.000
 70
    32
  0
VERTEX
  8
E30LXLIFT
 62
3
 10
2115.654
 20
-4902.460
 30
2292.000
 70
    32
  0
VERTEX
  8
E30LXLIFT
 62
3
 10
2103.862
 20
-4888.457
 30
2292.000
 70
    32
  0
VERTEX
  8
E30LXLIFT
 62
3
 10
2093.232
 20
-4872.623
 30
2292.000
 70
    32
  0
VERTEX
  8
E30LXLIFT
 62
3
 10
2087.489
 20
-4853.207
 30
2292.000
 70
    32
  0
VERTEX
  8
E30LXLIFT
 62
3
 10
2085.039
 20
-4839.323
 30
2292.000
 70
    32
  0
VERTEX
  8
E30LXLIFT
 62
3
 10
2081.925
 20
-4820.374
 30
2292.000
 70
    32
  0
VERTEX
  8
E30LXLIFT
 62
3
 10
2080.184
 20
-4804.338
 30
2292.000
 70
    32
  0
VERTEX
  8
E30LXLIFT
 62
3
 10
2070.815
 20
-4785.620
 30
2292.000
 70
    32
  0
VERTEX
  8
E30LXLIFT
 62
3
 10
2037.065
 20
-4814.286
 30
2292.000
 70
    32
  0
SEQEND
  8
E30LXLIFT
  0
POLYLINE
  8
E30LXLIFT
 62
7
 66
     1
 70
     9
  0
VERTEX
  8
E30LXLIFT
 62
7
 10
1581.800
 20
-4120.386
 30
2301.000
 70
    32
  0
VERTEX
  8
E30LXLIFT
 62
7
 10
1599.285
 20
-4138.733
 30
2301.000
 70
    32
  0
VERTEX
  8
E30LXLIFT
 62
7
 10
1611.294
 20
-4151.431
 30
2301.000
 70
    32
  0
VERTEX
  8
E30LXLIFT
 62
7
 10
1619.912
 20
-4162.841
 30
2301.000
 70
    32
  0
VERTEX
  8
E30LXLIFT
 62
7
 10
1612.614
 20
-4168.463
 30
2301.000
 70
    32
  0
VERTEX
  8
E30LXLIFT
 62
7
 10
1627.865
 20
-4190.256
 30
2301.000
 70
    32
  0
VERTEX
  8
E30LXLIFT
 62
7
 10
1646.571
 20
-4216.915
 30
2301.000
 70
    32
  0
VERTEX
  8
E30LXLIFT
 62
7
 10
1656.129
 20
-4210.356
 30
2301.000
 70
    32
  0
VERTEX
  8
E30LXLIFT
 62
7
 10
1666.673
 20
-4225.918
 30
2301.000
 70
    32
  0
VERTEX
  8
E30LXLIFT
 62
7
 10
1675.387
 20
-4244.733
 30
2301.000
 70
    32
  0
VERTEX
  8
E30LXLIFT
 62
7
 10
1684.644
 20
-4263.686
 30
2301.000
 70
    32
  0
VERTEX
  8
E30LXLIFT
 62
7
 10
1692.651
 20
-4275.889
 30
2301.000
 70
    32
  0
VERTEX
  8
E30LXLIFT
 62
7
 10
1689.575
 20
-4289.866
 30
2301.000
 70
    32
  0
VERTEX
  8
E30LXLIFT
 62
7
 10
1682.982
 20
-4296.274
 30
2301.000
 70
    32
  0
VERTEX
  8
E30LXLIFT
 62
7
 10
1672.463
 20
-4283.221
 30
2301.000
 70
    32
  0
VERTEX
  8
E30LXLIFT
 62
7
 10
1668.900
 20
-4267.003
 30
2301.000
 70
    32
  0
VERTEX
  8
E30LXLIFT
 62
7
 10
1661.944
 20
-4254.446
 30
2301.000
 70
    32
  0
VERTEX
  8
E30LXLIFT
 62
7
 10
1650.940
 20
-4243.079
 30
2301.000
 70
    32
  0
VERTEX
  8
E30LXLIFT
 62
7
 10
1640.653
 20
-4231.059
 30
2301.000
 70
    32
  0
VERTEX
  8
E30LXLIFT
 62
7
 10
1631.066
 20
-4218.511
 30
2301.000
 70
    32
  0
VERTEX
  8
E30LXLIFT
 62
7
 10
1619.353
 20
-4200.093
 30
2301.000
 70
    32
  0
VERTEX
  8
E30LXLIFT
 62
7
 10
1609.757
 20
-4184.913
 30
2301.000
 70
    32
  0
VERTEX
  8
E30LXLIFT
 62
7
 10
1604.435
 20
-4188.493
 30
2301.000
 70
    32
  0
VERTEX
  8
E30LXLIFT
 62
7
 10
1597.788
 20
-4178.672
 30
2301.000
 70
    32
  0
VERTEX
  8
E30LXLIFT
 62
7
 10
1592.609
 20
-4183.023
 30
2301.000
 70
    32
  0
VERTEX
  8
E30LXLIFT
 62
7
 10
1560.216
 20
-4135.039
 30
2301.000
 70
    32
  0
SEQEND
  8
E30LXLIFT
  0
POLYLINE
  8
E30LXLIFT
 62
8
 66
     1
 70
     9
  0
VERTEX
  8
E30LXLIFT
 62
8
 10
1788.426
 20
-4357.136
 30
2294.000
 70
    32
  0
VERTEX
  8
E30LXLIFT
 62
8
 10
1792.815
 20
-4362.947
 30
2294.000
 70
    32
  0
VERTEX
  8
E30LXLIFT
 62
8
 10
1787.860
 20
-4366.139
 30
2294.000
 70
    32
  0
VERTEX
  8
E30LXLIFT
 62
8
 10
1787.891
 20
-4375.350
 30
2294.000
 70
    32
  0
VERTEX
  8
E30LXLIFT
 62
8
 10
1780.800
 20
-4384.884
 30
2294.000
 70
    32
  0
VERTEX
  8
E30LXLIFT
 62
8
 10
1782.755
 20
-4392.422
 30
2294.000
 70
    32
  0
VERTEX
  8
E30LXLIFT
 62
8
 10
1779.886
 20
-4399.977
 30
2294.000
 70
    32
  0
VERTEX
  8
E30LXLIFT
 62
8
 10
1768.560
 20
-4402.594
 30
2294.000
 70
    32
  0
VERTEX
  8
E30LXLIFT
 62
8
 10
1760.616
 20
-4393.532
 30
2294.000
 70
    32
  0
VERTEX
  8
E30LXLIFT
 62
8
 10
1762.847
 20
-4383.822
 30
2294.000
 70
    32
  0
VERTEX
  8
E30LXLIFT
 62
8
 10
1761.422
 20
-4377.422
 30
2294.000
 70
    32
  0
VERTEX
  8
E30LXLIFT
 62
8
 10
1769.416
 20
-4370.395
 30
2294.000
 70
    32
  0
SEQEND
  8
E30LXLIFT
  0
POLYLINE
  8
E30LXLIFT
 62
6
 66
     1
 70
     9
  0
VERTEX
  8
E30LXLIFT
 62
6
 10
2032.513
 20
-4073.179
 30
2299.000
 70
    32
  0
VERTEX
  8
E30LXLIFT
 62
6
 10
2040.128
 20
-4083.698
 30
2299.000
 70
    32
  0
VERTEX
  8
E30LXLIFT
 62
6
 10
2046.220
 20
-4095.258
 30
2299.000
 70
    32
  0
VERTEX
  8
E30LXLIFT
 62
6
 10
2049.077
 20
-4109.811
 30
2299.000
 70
    32
  0
VERTEX
  8
E30LXLIFT
 62
6
 10
2048.748
 20
-4121.603
 30
2299.000
 70
    32
  0
VERTEX
  8
E30LXLIFT
 62
6
 10
2042.932
 20
-4129.623
 30
2299.000
 70
    32
  0
VERTEX
  8
E30LXLIFT
 62
6
 10
2041.695
 20
-4142.541
 30
2299.000
 70
    32
  0
VERTEX
  8
E30LXLIFT
 62
6
 10
2034.402
 20
-4149.479
 30
2299.000
 70
    32
  0
VERTEX
  8
E30LXLIFT
 62
6
 10
2028.806
 20
-4144.690
 30
2299.000
 70
    32
  0
VERTEX
  8
E30LXLIFT
 62
6
 10
2019.797
 20
-4142.369
 30
2299.000
 70
    32
  0
VERTEX
  8
E30LXLIFT
 62
6
 10
2016.533
 20
-4131.642
 30
2299.000
 70
    32
  0
VERTEX
  8
E30LXLIFT
 62
6
 10
2019.512
 20
-4120.157
 30
2299.000
 70
    32
  0
VERTEX
  8
E30LXLIFT
 62
6
 10
2024.844
 20
-4114.262
 30
2299.000
 70
    32
  0
VERTEX
  8
E30LXLIFT
 62
6
 10
2023.321
 20
-4104.968
 30
2299.000
 70
    32
  0
VERTEX
  8
E30LXLIFT
 62
6
 10
2028.335
 20
-4098.652
 30
2299.000
 70
    32
  0
VERTEX
  8
E30LXLIFT
 62
6
 10
2028.785
 20
-4086.438
 30
2299.000
 70
    32
  0
VERTEX
  8
E30LXLIFT
 62
6
 10
2022.378
 20
-4080.284
 30
2299.000
 70
    32
  0
SEQEND
  8
E30LXLIFT
  0
POLYLINE
  8
E30LXLIFT
 62
3
 66
     1
 70
     9
  0
VERTEX
  8
E30LXLIFT
 62
3
 10
2059.548
 20
-4801.550
 30
2303.000
 70
    32
  0
VERTEX
  8
E30LXLIFT
 62
3
 10
2071.141
 20
-4810.495
 30
2303.000
 70
    32
  0
VERTEX
  8
E30LXLIFT
 62
3
 10
2076.571
 20
-4828.601
 30
2303.000
 70
    32
  0
VERTEX
  8
E30LXLIFT
 62
3
 10
2088.158
 20
-4851.512
 30
2303.000
 70
    32
  0
VERTEX
  8
E30LXLIFT
 62
3
 10
2086.330
 20
-4861.028
 30
2303.000
 70
    32
  0
VERTEX
  8
E30LXLIFT
 62
3
 10
2094.559
 20
-4876.581
 30
2303.000
 70
    32
  0
VERTEX
  8
E30LXLIFT
 62
3
 10
2098.728
 20
-4874.531
 30
2303.000
 70
    32
  0
VERTEX
  8
E30LXLIFT
 62
3
 10
2106.973
 20
-4879.188
 30
2303.000
 70
    32
  0
VERTEX
  8
E30LXLIFT
 62
3
 10
2113.414
 20
-4895.432
 30
2303.000
 70
    32
  0
VERTEX
  8
E30LXLIFT
 62
3
 10
2116.821
 20
-4911.878
 30
2303.000
 70
    32
  0
VERTEX
  8
E30LXLIFT
 62
3
 10
2122.654
 20
-4919.456
 30
2303.000
 70
    32
  0
VERTEX
  8
E30LXLIFT
 62
3
 10
2117.899
 20
-4924.805
 30
2303.000
 70
    32
  0
VERTEX
  8
E30LXLIFT
 62
3
 10
2096.017
 20
-4908.351
 30
2303.000
 70
    32
  0
VERTEX
  8
E30LXLIFT
 62
3
 10
2082.759
 20
-4889.341
 30
2303.000
 70
    32
  0
VERTEX
  8
E30LXLIFT
 62
3
 10
2069.942
 20
-4881.541
 30
2303.000
 70
    32
  0
VERTEX
  8
E30LXLIFT
 62
3
 10
2056.918
 20
-4864.443
 30
2303.000
 70
    32
  0
VERTEX
  8
E30LXLIFT
 62
3
 10
2050.012
 20
-4851.079
 30
2303.000
 70
    32
  0
VERTEX
  8
E30LXLIFT
 62
3
 10
2041.405
 20
-4837.791
 30
2303.000
 70
    32
  0
VERTEX
  8
E30LXLIFT
 62
3
 10
2036.152
 20
-4825.158
 30
2303.000
 70
    32
  0
VERTEX
  8
E30LXLIFT
 62
3
 10
2034.426
 20
-4812.829
 30
2303.000
 70
    32
  0
VERTEX
  8
E30LXLIFT
 62
3
 10
2043.878
 20
-4806.130
 30
2303.000
 70
    32
  0
SEQEND
  8
E30LXLIFT
  0
POLYLINE
  8
E30LXLIFT
 62
6
 66
     1
 70
     9
  0
VERTEX
  8
E30LXLIFT
 62
6
 10
2034.470
 20
-4134.913
 30
2311.000
 70
    32
  0
VERTEX
  8
E30LXLIFT
 62
6
 10
2037.906
 20
-4116.310
 30
2311.000
 70
    32
  0
VERTEX
  8
E30LXLIFT
 62
6
 10
2042.473
 20
-4099.378
 30
2311.000
 70
    32
  0
VERTEX
  8
E30LXLIFT
 62
6
 10
2048.910
 20
-4079.964
 30
2311.000
 70
    32
  0
VERTEX
  8
E30LXLIFT
 62
6
 10
2040.927
 20
-4066.129
 30
2311.000
 70
    32
  0
VERTEX
  8
E30LXLIFT
 62
6
 10
2033.782
 20
-4060.626
 30
2311.000
 70
    32
  0
VERTEX
  8
E30LXLIFT
 62
6
 10
2022.409
 20
-4055.752
 30
2311.000
 70
    32
  0
VERTEX
  8
E30LXLIFT
 62
6
 10
2016.107
 20
-4046.237
 30
2311.000
 70
    32
  0
VERTEX
  8
E30LXLIFT
 62
6
 10
2005.793
 20
-4043.524
 30
2311.000
 70
    32
  0
VERTEX
  8
E30LXLIFT
 62
6
 10
2001.724
 20
-4040.104
 30
2311.000
 70
    32
  0
VERTEX
  8
E30LXLIFT
 62
6
 10
1994.671
 20
-4045.015
 30
2311.000
 70
    32
  0
VERTEX
  8
E30LXLIFT
 62
6
 10
2000.352
 20
-4052.370
 30
2311.000
 70
    32
  0
VERTEX
  8
E30LXLIFT
 62
6
 10
2013.110
 20
-4061.021
 30
2311.000
 70
    32
  0
VERTEX
  8
E30LXLIFT
 62
6
 10
2022.788
 20
-4068.464
 30
2311.000
 70
    32
  0
VERTEX
  8
E30LXLIFT
 62
6
 10
2027.922
 20
-4084.197
 30
2311.000
 70
    32
  0
VERTEX
  8
E30LXLIFT
 62
6
 10
2030.097
 20
-4091.536
 30
2311.000
 70
    32
  0
VERTEX
  8
E30LXLIFT
 62
6
 10
2026.841
 20
-4105.529
 30
2311.000
 70
    32
  0
VERTEX
  8
E30LXLIFT
 62
6
 10
2025.748
 20
-4118.024
 30
2311.000
 70
    32
  0
VERTEX
  8
E30LXLIFT
 62
6
 10
2023.875
 20
-4132.409
 30
2311.000
 70
    32
  0
SEQEND
  8
E30LXLIFT
  0
POLYLINE
  8
E30LXLIFT
 62
3
 66
     1
 70
     9
  0
VERTEX
  8
E30LXLIFT
 62
3
 10
2057.950
 20
-4803.103
 30
2308.000
 70
    32
  0
VERTEX
  8
E30LXLIFT
 62
3
 10
2069.249
 20
-4816.551
 30
2308.000
 70
    32
  0
VERTEX
  8
E30LXLIFT
 62
3
 10
2066.919
 20
-4838.701
 30
2308.000
 70
    32
  0
VERTEX
  8
E30LXLIFT
 62
3
 10
2081.194
 20
-4852.775
 30
2308.000
 70
    32
  0
VERTEX
  8
E30LXLIFT
 62
3
 10
2084.935
 20
-4862.663
 30
2308.000
 70
    32
  0
VERTEX
  8
E30LXLIFT
 62
3
 10
2092.888
 20
-4871.607
 30
2308.000
 70
    32
  0
VERTEX
  8
E30LXLIFT
 62
3
 10
2098.428
 20
-4890.532
 30
2308.000
 70
    32
  0
VERTEX
  8
E30LXLIFT
 62
3
 10
2108.932
 20
-4901.293
 30
2308.000
 70
    32
  0
VERTEX
  8
E30LXLIFT
 62
3
 10
2116.412
 20
-4913.864
 30
2308.000
 70
    32
  0
VERTEX
  8
E30LXLIFT
 62
3
 10
2110.246
 20
-4916.588
 30
2308.000
 70
    32
  0
VERTEX
  8
E30LXLIFT
 62
3
 10
2113.313
 20
-4924.246
 30
2308.000
 70
    32
  0
VERTEX
  8
E30LXLIFT
 62
3
 10
2101.245
 20
-4932.991
 30
2308.000
 70
    32
  0
VERTEX
  8
E30LXLIFT
 62
3
 10
2086.540
 20
-4913.339
 30
2308.000
 70
    32
  0
VERTEX
  8
E30LXLIFT
 62
3
 10
2084.907
 20
-4895.115
 30
2308.000
 70
    32
  0
VERTEX
  8
E30LXLIFT
 62
3
 10
2078.609
 20
-4877.080
 30
2308.000
 70
    32
  0
VERTEX
  8
E30LXLIFT
 62
3
 10
2072.773
 20
-4872.898
 30
2308.000
 70
    32
  0
VERTEX
  8
E30LXLIFT
 62
3
 10
2064.301
 20
-4858.552
 30
2308.000
 70
    32
  0
VERTEX
  8
E30LXLIFT
 62
3
 10
2051.294
 20
-4846.920
 30
2308.000
 70
    32
  0
VERTEX
  8
E30LXLIFT
 62
3
 10
2038.146
 20
-4839.215
 30
2308.000
 70
    32
  0
VERTEX
  8
E30LXLIFT
 62
3
 10
2030.125
 20
-4826.064
 30
2308.000
 70
    32
  0
VERTEX
  8
E30LXLIFT
 62
3
 10
2034.963
 20
-4814.936
 30
2308.000
 70
    32
  0
SEQEND
  8
E30LXLIFT
  0
POLYLINE
  8
E30LXLIFT
 62
3
 66
     1
 70
     9
  0
VERTEX
  8
E30LXLIFT
 62
3
 10
2096.778
 20
-4878.411
 30
2314.000
 70
    32
  0
VERTEX
  8
E30LXLIFT
 62
3
 10
2103.637
 20
-4884.253
 30
2314.000
 70
    32
  0
VERTEX
  8
E30LXLIFT
 62
3
 10
2110.044
 20
-4894.979
 30
2314.000
 70
    32
  0
VERTEX
  8
E30LXLIFT
 62
3
 10
2121.416
 20
-4910.434
 30
2314.000
 70
    32
  0
VERTEX
  8
E30LXLIFT
 62
3
 10
2112.538
 20
-4922.650
 30
2314.000
 70
    32
  0
VERTEX
  8
E30LXLIFT
 62
3
 10
2122.347
 20
-4934.473
 30
2314.000
 70
    32
  0
VERTEX
  8
E30LXLIFT
 62
3
 10
2120.592
 20
-4938.462
 30
2314.000
 70
    32
  0
VERTEX
  8
E30LXLIFT
 62
3
 10
2109.612
 20
-4948.090
 30
2314.000
 70
    32
  0
VERTEX
  8
E30LXLIFT
 62
3
 10
2105.417
 20
-4946.052
 30
2314.000
 70
    32
  0
VERTEX
  8
E30LXLIFT
 62
3
 10
2102.635
 20
-4934.203
 30
2314.000
 70
    32
  0
VERTEX
  8
E30LXLIFT
 62
3
 10
2096.470
 20
-4919.940
 30
2314.000
 70
    32
  0
VERTEX
  8
E30LXLIFT
 62
3
 10
2085.167
 20
-4908.446
 30
2314.000
 70
    32
  0
VERTEX
  8
E30LXLIFT
 62
3
 10
2073.701
 20
-4895.987
 30
2314.000
 70
    32
  0
VERTEX
  8
E30LXLIFT
 62
3
 10
2085.634
 20
-4885.881
 30
2314.000
 70
    32
  0
SEQEND
  8
E30LXLIFT
  0
POLYLINE
  8
E30LXLIFT
 62
1
 66
     1
 70
     9
  0
VERTEX
  8
E30LXLIFT
 62
1
 10
2097.778
 20
-4877.411
 30
2324.000
 70
    32
  0
VERTEX
  8
E30LXLIFT
 62
1
 10
2104.637
 20
-4883.253
 30
2324.000
 70
    32
  0
VERTEX
  8
E30LXLIFT
 62
1
 10
2111.044
 20
-4893.979
 30
2324.000
 70
    32
  0
VERTEX
  8
E30LXLIFT
 62
1
 10
2122.416
 20
-4909.434
 30
2324.000
 70
    32
  0
VERTEX
  8
E30LXLIFT
 62
1
 10
2113.538
 20
-4921.650
 30
2324.000
 70
    32
  0
VERTEX
  8
E30LXLIFT
 62
1
 10
2123.347
 20
-4933.473
 30
2324.000
 70
    32
  0
VERTEX
  8
E30LXLIFT
 62
1
 10
2121.592
 20
-4937.462
 30
2324.000
 70
    32
  0
VERTEX
  8
E30LXLIFT
 62
1
 10
2110.612
 20
-4947.090
 30
2324.000
 70
    32
  0
VERTEX
  8
E30LXLIFT
 62
1
 10
2106.417
 20
-4945.052
 30
2324.000
 70
    32
  0
VERTEX
  8
E30LXLIFT
 62
1
 10
2103.635
 20
-4933.203
 30
2324.000
 70
    32
  0
VERTEX
  8
E30LXLIFT
 62
1
 10
2097.470
 20
-4918.940
 30
2324.000
 70
    32
  0
VERTEX
  8
E30LXLIFT
 62
1
 10
2086.167
 20
-4907.446
 30
2324.000
 70
    32
  0
VERTEX
  8
E30LXLIFT
 62
1
 10
2074.701
 20
-4894.987
 30
2324.000
 70
    32
  0
VERTEX
  8
E30LXLIFT
 62
1
 10
2086.634
 20
-4884.881
 30
2324.000
 70
    32
  0
SEQEND
  8
E30LXLIFT
  0
POLYLINE
  8
E30LXLIFT
 62
1
 66
     1
 70
     9
  0
VERTEX
  8
E30LXLIFT
 62
1
 10
2024.875
 20
-4131.409
 30
2321.000
 70
    32
  0
VERTEX
  8
E30LXLIFT
 62
1
 10
2026.748
 20
-4117.024
 30
2321.000
 70
    32
  0
VERTEX
  8
E30LXLIFT
 62
1
 10
2027.841
 20
-4104.529
 30
2321.000
 70
    32
  0
VERTEX
  8
E30LXLIFT
 62
1
 10
2031.097
 20
-4090.536
 30
2321.000
 70
    32
  0
VERTEX
  8
E30LXLIFT
 62
1
 10
2028.922
 20
-4083.197
 30
2321.000
 70
    32
  0
VERTEX
  8
E30LXLIFT
 62
1
 10
2023.788
 20
-4067.464
 30
2321.000
 70
    32
  0
VERTEX
  8
E30LXLIFT
 62
1
 10
2014.110
 20
-4060.021
 30
2321.000
 70
    32
  0
VERTEX
  8
E30LXLIFT
 62
1
 10
2001.352
 20
-4051.370
 30
2321.000
 70
    32
  0
VERTEX
  8
E30LXLIFT
 62
1
 10
1995.671
 20
-4044.015
 30
2321.000
 70
    32
  0
VERTEX
  8
E30LXLIFT
 62
1
 10
2002.724
 20
-4039.104
 30
2321.000
 70
    32
  0
VERTEX
  8
E30LXLIFT
 62
1
 10
2006.793
 20
-4042.524
 30
2321.000
 70
    32
  0
VERTEX
  8
E30LXLIFT
 62
1
 10
2017.107
 20
-4045.237
 30
2321.000
 70
    32
  0
VERTEX
  8
E30LXLIFT
 62
1
 10
2023.409
 20
-4054.752
 30
2321.000
 70
    32
  0
VERTEX
  8
E30LXLIFT
 62
1
 10
2034.782
 20
-4059.626
 30
2321.000
 70
    32
  0
VERTEX
  8
E30LXLIFT
 62
1
 10
2041.927
 20
-4065.129
 30
2321.000
 70
    32
  0
VERTEX
  8
E30LXLIFT
 62
1
 10
2049.910
 20
-4078.964
 30
2321.000
 70
    32
  0
VERTEX
  8
E30LXLIFT
 62
1
 10
2043.473
 20
-4098.378
 30
2321.000
 70
    32
  0
VERTEX
  8
E30LXLIFT
 62
1
 10
2038.906
 20
-4115.310
 30
2321.000
 70
    32
  0
VERTEX
  8
E30LXLIFT
 62
1
 10
2035.470
 20
-4133.913
 30
2321.000
 70
    32
  0
SEQEND
  8
E30LXLIFT
  0
POLYLINE
  8
E30LXLIFT
 62
1
 66
     1
 70
     9
  0
VERTEX
  8
E30LXLIFT
 62
1
 10
1582.800
 20
-4119.386
 30
2311.000
 70
    32
  0
VERTEX
  8
E30LXLIFT
 62
1
 10
1600.285
 20
-4137.733
 30
2311.000
 70
    32
  0
VERTEX
  8
E30LXLIFT
 62
1
 10
1612.294
 20
-4150.431
 30
2311.000
 70
    32
  0
VERTEX
  8
E30LXLIFT
 62
1
 10
1620.912
 20
-4161.841
 30
2311.000
 70
    32
  0
VERTEX
  8
E30LXLIFT
 62
1
 10
1613.614
 20
-4167.463
 30
2311.000
 70
    32
  0
VERTEX
  8
E30LXLIFT
 62
1
 10
1628.865
 20
-4189.256
 30
2311.000
 70
    32
  0
VERTEX
  8
E30LXLIFT
 62
1
 10
1647.571
 20
-4215.915
 30
2311.000
 70
    32
  0
VERTEX
  8
E30LXLIFT
 62
1
 10
1657.129
 20
-4209.356
 30
2311.000
 70
    32
  0
VERTEX
  8
E30LXLIFT
 62
1
 10
1667.673
 20
-4224.918
 30
2311.000
 70
    32
  0
VERTEX
  8
E30LXLIFT
 62
1
 10
1676.387
 20
-4243.733
 30
2311.000
 70
    32
  0
VERTEX
  8
E30LXLIFT
 62
1
 10
1685.644
 20
-4262.686
 30
2311.000
 70
    32
  0
VERTEX
  8
E30LXLIFT
 62
1
 10
1693.651
 20
-4274.889
 30
2311.000
 70
    32
  0
VERTEX
  8
E30LXLIFT
 62
1
 10
1690.575
 20
-4288.866
 30
2311.000
 70
    32
  0
VERTEX
  8
E30LXLIFT
 62
1
 10
1683.982
 20
-4295.274
 30
2311.000
 70
    32
  0
VERTEX
  8
E30LXLIFT
 62
1
 10
1673.463
 20
-4282.221
 30
2311.000
 70
    32
  0
VERTEX
  8
E30LXLIFT
 62
1
 10
1669.900
 20
-4266.003
 30
2311.000
 70
    32
  0
VERTEX
  8
E30LXLIFT
 62
1
 10
1662.944
 20
-4253.446
 30
2311.000
 70
    32
  0
VERTEX
  8
E30LXLIFT
 62
1
 10
1651.940
 20
-4242.079
 30
2311.000
 70
    32
  0
VERTEX
  8
E30LXLIFT
 62
1
 10
1641.653
 20
-4230.059
 30
2311.000
 70
    32
  0
VERTEX
  8
E30LXLIFT
 62
1
 10
1632.066
 20
-4217.511
 30
2311.000
 70
    32
  0
VERTEX
  8
E30LXLIFT
 62
1
 10
1620.353
 20
-4199.093
 30
2311.000
 70
    32
  0
VERTEX
  8
E30LXLIFT
 62
1
 10
1610.757
 20
-4183.913
 30
2311.000
 70
    32
  0
VERTEX
  8
E30LXLIFT
 62
1
 10
1605.435
 20
-4187.493
 30
2311.000
 70
    32
  0
VERTEX
  8
E30LXLIFT
 62
1
 10
1598.788
 20
-4177.672
 30
2311.000
 70
    32
  0
VERTEX
  8
E30LXLIFT
 62
1
 10
1593.609
 20
-4182.023
 30
2311.000
 70
    32
  0
VERTEX
  8
E30LXLIFT
 62
1
 10
1561.216
 20
-4134.039
 30
2311.000
 70
    32
  0
SEQEND
  8
E30LXLIFT
  0
POLYLINE
  8
E30LXLIFT
 62
1
 66
     1
 70
     9
  0
VERTEX
  8
E30LXLIFT
 62
1
 10
1789.426
 20
-4356.136
 30
2304.000
 70
    32
  0
VERTEX
  8
E30LXLIFT
 62
1
 10
1793.815
 20
-4361.947
 30
2304.000
 70
    32
  0
VERTEX
  8
E30LXLIFT
 62
1
 10
1788.860
 20
-4365.139
 30
2304.000
 70
    32
  0
VERTEX
  8
E30LXLIFT
 62
1
 10
1788.891
 20
-4374.350
 30
2304.000
 70
    32
  0
VERTEX
  8
E30LXLIFT
 62
1
 10
1781.800
 20
-4383.884
 30
2304.000
 70
    32
  0
VERTEX
  8
E30LXLIFT
 62
1
 10
1783.755
 20
-4391.422
 30
2304.000
 70
    32
  0
VERTEX
  8
E30LXLIFT
 62
1
 10
1780.886
 20
-4398.977
 30
2304.000
 70
    32
  0
VERTEX
  8
E30LXLIFT
 62
1
 10
1769.560
 20
-4401.594
 30
2304.000
 70
    32
  0
VERTEX
  8
E30LXLIFT
 62
1
 10
1761.616
 20
-4392.532
 30
2304.000
 70
    32
  0
VERTEX
  8
E30LXLIFT
 62
1
 10
1763.847
 20
-4382.822
 30
2304.000
 70
    32
  0
VERTEX
  8
E30LXLIFT
 62
1
 10
1762.422
 20
-4376.422
 30
2304.000
 70
    32
  0
VERTEX
  8
E30LXLIFT
 62
1
 10
1770.416
 20
-4369.395
 30
2304.000
 70
    32
  0
SEQEND
  8
E30LXLIFT
  0
POLYLINE
  8
E30LXLIFT
 62
1
 66
     1
 70
     9
  0
VERTEX
  8
E30LXLIFT
 62
1
 10
1554.246
 20
-4117.950
 30
2297.000
 70
    32
  0
VERTEX
  8
E30LXLIFT
 62
1
 10
1546.727
 20
-4101.904
 30
2297.000
 70
    32
  0
VERTEX
  8
E30LXLIFT
 62
1
 10
1542.716
 20
-4081.435
 30
2297.000
 70
    32
  0
VERTEX
  8
E30LXLIFT
 62
1
 10
1532.237
 20
-4062.986
 30
2297.000
 70
    32
  0
VERTEX
  8
E30LXLIFT
 62
1
 10
1520.692
 20
-4045.755
 30
2297.000
 70
    32
  0
VERTEX
  8
E30LXLIFT
 62
1
 10
1512.724
 20
-4027.315
 30
2297.000
 70
    32
  0
VERTEX
  8
E30LXLIFT
 62
1
 10
1502.996
 20
-4007.663
 30
2297.000
 70
    32
  0
VERTEX
  8
E30LXLIFT
 62
1
 10
1498.224
 20
-3999.075
 30
2297.000
 70
    32
  0
VERTEX
  8
E30LXLIFT
 62
1
 10
1490.767
 20
-3983.855
 30
2297.000
 70
    32
  0
VERTEX
  8
E30LXLIFT
 62
1
 10
1490.649
 20
-3983.397
 30
2297.000
 70
    32
  0
VERTEX
  8
E30LXLIFT
 62
1
 10
1489.474
 20
-3975.113
 30
2297.000
 70
    32
  0
VERTEX
  8
E30LXLIFT
 62
1
 10
1493.043
 20
-3973.149
 30
2297.000
 70
    32
  0
VERTEX
  8
E30LXLIFT
 62
1
 10
1500.997
 20
-3976.572
 30
2297.000
 70
    32
  0
VERTEX
  8
E30LXLIFT
 62
1
 10
1505.835
 20
-3987.180
 30
2297.000
 70
    32
  0
VERTEX
  8
E30LXLIFT
 62
1
 10
1511.877
 20
-3996.905
 30
2297.000
 70
    32
  0
VERTEX
  8
E30LXLIFT
 62
1
 10
1518.442
 20
-4013.432
 30
2297.000
 70
    32
  0
VERTEX
  8
E30LXLIFT
 62
1
 10
1524.663
 20
-4032.608
 30
2297.000
 70
    32
  0
VERTEX
  8
E30LXLIFT
 62
1
 10
1534.254
 20
-4048.659
 30
2297.000
 70
    32
  0
VERTEX
  8
E30LXLIFT
 62
1
 10
1541.782
 20
-4062.194
 30
2297.000
 70
    32
  0
VERTEX
  8
E30LXLIFT
 62
1
 10
1548.085
 20
-4059.206
 30
2297.000
 70
    32
  0
VERTEX
  8
E30LXLIFT
 62
1
 10
1557.701
 20
-4053.461
 30
2297.000
 70
    32
  0
VERTEX
  8
E30LXLIFT
 62
1
 10
1561.869
 20
-4062.710
 30
2297.000
 70
    32
  0
VERTEX
  8
E30LXLIFT
 62
1
 10
1559.064
 20
-4076.853
 30
2297.000
 70
    32
  0
VERTEX
  8
E30LXLIFT
 62
1
 10
1558.350
 20
-4097.411
 30
2297.000
 70
    32
  0
VERTEX
  8
E30LXLIFT
 62
1
 10
1564.382
 20
-4114.547
 30
2297.000
 70
    32
  0
SEQEND
  8
E30LXLIFT
  0
POLYLINE
  8
E30LXLIFT
 62
1
 66
     1
 70
     9
  0
VERTEX
  8
E30LXLIFT
 62
1
 10
1907.760
 20
-4530.452
 30
2270.000
 70
    32
  0
VERTEX
  8
E30LXLIFT
 62
1
 10
1893.472
 20
-4518.040
 30
2270.000
 70
    32
  0
VERTEX
  8
E30LXLIFT
 62
1
 10
1878.099
 20
-4512.853
 30
2270.000
 70
    32
  0
VERTEX
  8
E30LXLIFT
 62
1
 10
1863.338
 20
-4515.269
 30
2270.000
 70
    32
  0
VERTEX
  8
E30LXLIFT
 62
1
 10
1845.730
 20
-4519.137
 30
2270.000
 70
    32
  0
VERTEX
  8
E30LXLIFT
 62
1
 10
1838.761
 20
-4509.264
 30
2270.000
 70
    32
  0
VERTEX
  8
E30LXLIFT
 62
1
 10
1838.930
 20
-4497.708
 30
2270.000
 70
    32
  0
VERTEX
  8
E30LXLIFT
 62
1
 10
1833.327
 20
-4482.906
 30
2270.000
 70
    32
  0
VERTEX
  8
E30LXLIFT
 62
1
 10
1833.196
 20
-4476.689
 30
2270.000
 70
    32
  0
VERTEX
  8
E30LXLIFT
 62
1
 10
1838.361
 20
-4471.893
 30
2270.000
 70
    32
  0
VERTEX
  8
E30LXLIFT
 62
1
 10
1845.395
 20
-4472.573
 30
2270.000
 70
    32
  0
VERTEX
  8
E30LXLIFT
 62
1
 10
1850.865
 20
-4481.595
 30
2270.000
 70
    32
  0
VERTEX
  8
E30LXLIFT
 62
1
 10
1852.134
 20
-4490.237
 30
2270.000
 70
    32
  0
VERTEX
  8
E30LXLIFT
 62
1
 10
1862.391
 20
-4498.225
 30
2270.000
 70
    32
  0
VERTEX
  8
E30LXLIFT
 62
1
 10
1869.428
 20
-4503.475
 30
2270.000
 70
    32
  0
VERTEX
  8
E30LXLIFT
 62
1
 10
1880.221
 20
-4504.971
 30
2270.000
 70
    32
  0
VERTEX
  8
E30LXLIFT
 62
1
 10
1880.693
 20
-4505.166
 30
2270.000
 70
    32
  0
VERTEX
  8
E30LXLIFT
 62
1
 10
1893.638
 20
-4511.930
 30
2270.000
 70
    32
  0
VERTEX
  8
E30LXLIFT
 62
1
 10
1903.795
 20
-4509.323
 30
2270.000
 70
    32
  0
VERTEX
  8
E30LXLIFT
 62
1
 10
1909.769
 20
-4516.230
 30
2270.000
 70
    32
  0
VERTEX
  8
E30LXLIFT
 62
1
 10
1913.374
 20
-4526.412
 30
2270.000
 70
    32
  0
SEQEND
  8
E30LXLIFT
  0
POLYLINE
  8
E30LXLIFT
 62
1
 66
     1
 70
     9
  0
VERTEX
  8
E30LXLIFT
 62
1
 10
1518.106
 20
-4022.053
 30
2206.000
 70
    32
  0
VERTEX
  8
E30LXLIFT
 62
1
 10
1500.336
 20
-4001.220
 30
2206.000
 70
    32
  0
VERTEX
  8
E30LXLIFT
 62
1
 10
1493.569
 20
-3977.156
 30
2206.000
 70
    32
  0
VERTEX
  8
E30LXLIFT
 62
1
 10
1489.631
 20
-3960.261
 30
2206.000
 70
    32
  0
VERTEX
  8
E30LXLIFT
 62
1
 10
1485.626
 20
-3951.776
 30
2206.000
 70
    32
  0
VERTEX
  8
E30LXLIFT
 62
1
 10
1489.795
 20
-3934.084
 30
2206.000
 70
    32
  0
VERTEX
  8
E30LXLIFT
 62
1
 10
1487.042
 20
-3926.424
 30
2206.000
 70
    32
  0
VERTEX
  8
E30LXLIFT
 62
1
 10
1492.132
 20
-3921.633
 30
2206.000
 70
    32
  0
VERTEX
  8
E30LXLIFT
 62
1
 10
1501.250
 20
-3933.563
 30
2206.000
 70
    32
  0
VERTEX
  8
E30LXLIFT
 62
1
 10
1509.323
 20
-3946.145
 30
2206.000
 70
    32
  0
VERTEX
  8
E30LXLIFT
 62
1
 10
1511.625
 20
-3957.064
 30
2206.000
 70
    32
  0
VERTEX
  8
E30LXLIFT
 62
1
 10
1521.930
 20
-3967.044
 30
2206.000
 70
    32
  0
VERTEX
  8
E30LXLIFT
 62
1
 10
1528.092
 20
-3979.388
 30
2206.000
 70
    32
  0
VERTEX
  8
E30LXLIFT
 62
1
 10
1534.532
 20
-3991.964
 30
2206.000
 70
    32
  0
VERTEX
  8
E30LXLIFT
 62
1
 10
1539.118
 20
-4000.353
 30
2206.000
 70
    32
  0
VERTEX
  8
E30LXLIFT
 62
1
 10
1536.127
 20
-4009.370
 30
2206.000
 70
    32
  0
SEQEND
  8
E30LXLIFT
  0
POLYLINE
  8
E30LXLIFT
 62
4
 66
     1
 70
     9
  0
VERTEX
  8
E30LXLIFT
 62
4
 10
2213.666
 20
-4903.615
 30
2185.000
 70
    32
  0
VERTEX
  8
E30LXLIFT
 62
4
 10
2220.311
 20
-4916.376
 30
2185.000
 70
    32
  0
VERTEX
  8
E30LXLIFT
 62
4
 10
2231.897
 20
-4925.773
 30
2185.000
 70
    32
  0
VERTEX
  8
E30LXLIFT
 62
4
 10
2241.804
 20
-4938.992
 30
2185.000
 70
    32
  0
VERTEX
  8
E30LXLIFT
 62
4
 10
2253.835
 20
-4956.639
 30
2185.000
 70
    32
  0
VERTEX
  8
E30LXLIFT
 62
4
 10
2259.825
 20
-4967.597
 30
2185.000
 70
    32
  0
VERTEX
  8
E30LXLIFT
 62
4
 10
2255.648
 20
-4978.002
 30
2185.000
 70
    32
  0
VERTEX
  8
E30LXLIFT
 62
4
 10
2263.505
 20
-4993.033
 30
2185.000
 70
    32
  0
VERTEX
  8
E30LXLIFT
 62
4
 10
2263.491
 20
-5005.738
 30
2185.000
 70
    32
  0
VERTEX
  8
E30LXLIFT
 62
4
 10
2268.552
 20
-5015.416
 30
2185.000
 70
    32
  0
VERTEX
  8
E30LXLIFT
 62
4
 10
2278.089
 20
-5029.771
 30
2185.000
 70
    32
  0
VERTEX
  8
E30LXLIFT
 62
4
 10
2284.034
 20
-5044.559
 30
2185.000
 70
    32
  0
VERTEX
  8
E30LXLIFT
 62
4
 10
2282.489
 20
-5057.398
 30
2185.000
 70
    32
  0
VERTEX
  8
E30LXLIFT
 62
4
 10
2284.127
 20
-5071.184
 30
2185.000
 70
    32
  0
VERTEX
  8
E30LXLIFT
 62
4
 10
2298.180
 20
-5084.435
 30
2185.000
 70
    32
  0
VERTEX
  8
E30LXLIFT
 62
4
 10
2310.726
 20
-5079.139
 30
2185.000
 70
    32
  0
VERTEX
  8
E30LXLIFT
 62
4
 10
2323.066
 20
-5069.218
 30
2185.000
 70
    32
  0
VERTEX
  8
E30LXLIFT
 62
4
 10
2335.717
 20
-5067.210
 30
2185.000
 70
    32
  0
VERTEX
  8
E30LXLIFT
 62
4
 10
2352.439
 20
-5072.017
 30
2185.000
 70
    32
  0
VERTEX
  8
E30LXLIFT
 62
4
 10
2354.711
 20
-5056.590
 30
2185.000
 70
    32
  0
VERTEX
  8
E30LXLIFT
 62
4
 10
2366.422
 20
-5048.644
 30
2185.000
 70
    32
  0
VERTEX
  8
E30LXLIFT
 62
4
 10
2386.279
 20
-5051.938
 30
2185.000
 70
    32
  0
VERTEX
  8
E30LXLIFT
 62
4
 10
2394.261
 20
-5068.938
 30
2185.000
 70
    32
  0
VERTEX
  8
E30LXLIFT
 62
4
 10
2395.562
 20
-5087.201
 30
2185.000
 70
    32
  0
VERTEX
  8
E30LXLIFT
 62
4
 10
2409.047
 20
-5100.865
 30
2185.000
 70
    32
  0
VERTEX
  8
E30LXLIFT
 62
4
 10
2416.949
 20
-5103.383
 30
2185.000
 70
    32
  0
VERTEX
  8
E30LXLIFT
 62
4
 10
2426.569
 20
-5106.176
 30
2185.000
 70
    32
  0
VERTEX
  8
E30LXLIFT
 62
4
 10
2427.989
 20
-5115.021
 30
2185.000
 70
    32
  0
VERTEX
  8
E30LXLIFT
 62
4
 10
2406.092
 20
-5122.537
 30
2185.000
 70
    32
  0
VERTEX
  8
E30LXLIFT
 62
4
 10
2389.163
 20
-5126.127
 30
2185.000
 70
    32
  0
VERTEX
  8
E30LXLIFT
 62
4
 10
2378.999
 20
-5108.212
 30
2185.000
 70
    32
  0
VERTEX
  8
E30LXLIFT
 62
4
 10
2362.150
 20
-5098.290
 30
2185.000
 70
    32
  0
VERTEX
  8
E30LXLIFT
 62
4
 10
2344.061
 20
-5092.195
 30
2185.000
 70
    32
  0
VERTEX
  8
E30LXLIFT
 62
4
 10
2326.821
 20
-5092.213
 30
2185.000
 70
    32
  0
VERTEX
  8
E30LXLIFT
 62
4
 10
2313.400
 20
-5099.445
 30
2185.000
 70
    32
  0
VERTEX
  8
E30LXLIFT
 62
4
 10
2298.702
 20
-5105.216
 30
2185.000
 70
    32
  0
VERTEX
  8
E30LXLIFT
 62
4
 10
2280.878
 20
-5103.379
 30
2185.000
 70
    32
  0
VERTEX
  8
E30LXLIFT
 62
4
 10
2269.206
 20
-5099.252
 30
2185.000
 70
    32
  0
VERTEX
  8
E30LXLIFT
 62
4
 10
2261.844
 20
-5081.910
 30
2185.000
 70
    32
  0
VERTEX
  8
E30LXLIFT
 62
4
 10
2258.653
 20
-5073.914
 30
2185.000
 70
    32
  0
VERTEX
  8
E30LXLIFT
 62
4
 10
2247.822
 20
-5073.193
 30
2185.000
 70
    32
  0
VERTEX
  8
E30LXLIFT
 62
4
 10
2238.628
 20
-5062.605
 30
2185.000
 70
    32
  0
VERTEX
  8
E30LXLIFT
 62
4
 10
2235.167
 20
-5053.937
 30
2185.000
 70
    32
  0
VERTEX
  8
E30LXLIFT
 62
4
 10
2244.210
 20
-5050.095
 30
2185.000
 70
    32
  0
VERTEX
  8
E30LXLIFT
 62
4
 10
2245.822
 20
-5043.936
 30
2185.000
 70
    32
  0
VERTEX
  8
E30LXLIFT
 62
4
 10
2255.629
 20
-5038.455
 30
2185.000
 70
    32
  0
VERTEX
  8
E30LXLIFT
 62
4
 10
2256.758
 20
-5027.437
 30
2185.000
 70
    32
  0
VERTEX
  8
E30LXLIFT
 62
4
 10
2246.305
 20
-5012.118
 30
2185.000
 70
    32
  0
VERTEX
  8
E30LXLIFT
 62
4
 10
2232.022
 20
-5001.095
 30
2185.000
 70
    32
  0
VERTEX
  8
E30LXLIFT
 62
4
 10
2227.592
 20
-4988.247
 30
2185.000
 70
    32
  0
VERTEX
  8
E30LXLIFT
 62
4
 10
2220.673
 20
-4972.863
 30
2185.000
 70
    32
  0
VERTEX
  8
E30LXLIFT
 62
4
 10
2213.249
 20
-4958.279
 30
2185.000
 70
    32
  0
VERTEX
  8
E30LXLIFT
 62
4
 10
2205.207
 20
-4945.987
 30
2185.000
 70
    32
  0
VERTEX
  8
E30LXLIFT
 62
4
 10
2192.037
 20
-4937.846
 30
2185.000
 70
    32
  0
VERTEX
  8
E30LXLIFT
 62
4
 10
2185.171
 20
-4925.679
 30
2185.000
 70
    32
  0
VERTEX
  8
E30LXLIFT
 62
4
 10
2183.980
 20
-4918.947
 30
2185.000
 70
    32
  0
VERTEX
  8
E30LXLIFT
 62
4
 10
2186.595
 20
-4911.626
 30
2185.000
 70
    32
  0
SEQEND
  8
E30LXLIFT
  0
POLYLINE
  8
E30LXLIFT
 62
4
 66
     1
 70
     9
  0
VERTEX
  8
E30LXLIFT
 62
4
 10
2236.225
 20
-4986.010
 30
2196.000
 70
    32
  0
VERTEX
  8
E30LXLIFT
 62
4
 10
2245.165
 20
-4995.152
 30
2196.000
 70
    32
  0
VERTEX
  8
E30LXLIFT
 62
4
 10
2253.497
 20
-5003.757
 30
2196.000
 70
    32
  0
VERTEX
  8
E30LXLIFT
 62
4
 10
2260.296
 20
-5018.915
 30
2196.000
 70
    32
  0
VERTEX
  8
E30LXLIFT
 62
4
 10
2263.967
 20
-5030.372
 30
2196.000
 70
    32
  0
VERTEX
  8
E30LXLIFT
 62
4
 10
2273.873
 20
-5035.766
 30
2196.000
 70
    32
  0
VERTEX
  8
E30LXLIFT
 62
4
 10
2278.515
 20
-5041.842
 30
2196.000
 70
    32
  0
VERTEX
  8
E30LXLIFT
 62
4
 10
2279.646
 20
-5051.454
 30
2196.000
 70
    32
  0
VERTEX
  8
E30LXLIFT
 62
4
 10
2277.945
 20
-5058.671
 30
2196.000
 70
    32
  0
VERTEX
  8
E30LXLIFT
 62
4
 10
2264.382
 20
-5063.331
 30
2196.000
 70
    32
  0
VERTEX
  8
E30LXLIFT
 62
4
 10
2253.578
 20
-5069.242
 30
2196.000
 70
    32
  0
VERTEX
  8
E30LXLIFT
 62
4
 10
2243.248
 20
-5067.743
 30
2196.000
 70
    32
  0
VERTEX
  8
E30LXLIFT
 62
4
 10
2236.480
 20
-5060.390
 30
2196.000
 70
    32
  0
VERTEX
  8
E30LXLIFT
 62
4
 10
2239.367
 20
-5050.026
 30
2196.000
 70
    32
  0
VERTEX
  8
E30LXLIFT
 62
4
 10
2236.574
 20
-5036.191
 30
2196.000
 70
    32
  0
VERTEX
  8
E30LXLIFT
 62
4
 10
2235.557
 20
-5022.257
 30
2196.000
 70
    32
  0
VERTEX
  8
E30LXLIFT
 62
4
 10
2233.416
 20
-5008.273
 30
2196.000
 70
    32
  0
VERTEX
  8
E30LXLIFT
 62
4
 10
2227.074
 20
-4990.609
 30
2196.000
 70
    32
  0
SEQEND
  8
E30LXLIFT
  0
POLYLINE
  8
E30LXLIFT
 62
4
 66
     1
 70
     9
  0
VERTEX
  8
E30LXLIFT
 62
4
 10
2388.741
 20
-5120.808
 30
2196.000
 70
    32
  0
VERTEX
  8
E30LXLIFT
 62
4
 10
2409.169
 20
-5124.083
 30
2196.000
 70
    32
  0
VERTEX
  8
E30LXLIFT
 62
4
 10
2418.495
 20
-5119.575
 30
2196.000
 70
    32
  0
VERTEX
  8
E30LXLIFT
 62
4
 10
2422.660
 20
-5108.280
 30
2196.000
 70
    32
  0
VERTEX
  8
E30LXLIFT
 62
4
 10
2420.555
 20
-5099.270
 30
2196.000
 70
    32
  0
VERTEX
  8
E30LXLIFT
 62
4
 10
2409.209
 20
-5095.033
 30
2196.000
 70
    32
  0
VERTEX
  8
E30LXLIFT
 62
4
 10
2399.219
 20
-5090.569
 30
2196.000
 70
    32
  0
VERTEX
  8
E30LXLIFT
 62
4
 10
2393.344
 20
-5075.935
 30
2196.000
 70
    32
  0
VERTEX
  8
E30LXLIFT
 62
4
 10
2380.277
 20
-5069.037
 30
2196.000
 70
    32
  0
VERTEX
  8
E30LXLIFT
 62
4
 10
2366.123
 20
-5058.258
 30
2196.000
 70
    32
  0
VERTEX
  8
E30LXLIFT
 62
4
 10
2354.321
 20
-5048.918
 30
2196.000
 70
    32
  0
VERTEX
  8
E30LXLIFT
 62
4
 10
2341.407
 20
-5038.649
 30
2196.000
 70
    32
  0
VERTEX
  8
E30LXLIFT
 62
4
 10
2334.444
 20
-5048.938
 30
2196.000
 70
    32
  0
VERTEX
  8
E30LXLIFT
 62
4
 10
2332.057
 20
-5063.720
 30
2196.000
 70
    32
  0
VERTEX
  8
E30LXLIFT
 62
4
 10
2337.200
 20
-5075.409
 30
2196.000
 70
    32
  0
VERTEX
  8
E30LXLIFT
 62
4
 10
2347.451
 20
-5063.813
 30
2196.000
 70
    32
  0
VERTEX
  8
E30LXLIFT
 62
4
 10
2349.948
 20
-5069.929
 30
2196.000
 70
    32
  0
VERTEX
  8
E30LXLIFT
 62
4
 10
2345.593
 20
-5078.427
 30
2196.000
 70
    32
  0
VERTEX
  8
E30LXLIFT
 62
4
 10
2335.024
 20
-5086.450
 30
2196.000
 70
    32
  0
VERTEX
  8
E30LXLIFT
 62
4
 10
2319.971
 20
-5094.587
 30
2196.000
 70
    32
  0
VERTEX
  8
E30LXLIFT
 62
4
 10
2305.446
 20
-5100.164
 30
2196.000
 70
    32
  0
VERTEX
  8
E30LXLIFT
 62
4
 10
2313.481
 20
-5108.661
 30
2196.000
 70
    32
  0
VERTEX
  8
E30LXLIFT
 62
4
 10
2327.700
 20
-5099.827
 30
2196.000
 70
    32
  0
VERTEX
  8
E30LXLIFT
 62
4
 10
2342.464
 20
-5093.532
 30
2196.000
 70
    32
  0
VERTEX
  8
E30LXLIFT
 62
4
 10
2349.635
 20
-5104.722
 30
2196.000
 70
    32
  0
VERTEX
  8
E30LXLIFT
 62
4
 10
2365.902
 20
-5096.463
 30
2196.000
 70
    32
  0
VERTEX
  8
E30LXLIFT
 62
4
 10
2371.289
 20
-5094.605
 30
2196.000
 70
    32
  0
VERTEX
  8
E30LXLIFT
 62
4
 10
2379.332
 20
-5106.247
 30
2196.000
 70
    32
  0
SEQEND
  8
E30LXLIFT
  0
POLYLINE
  8
E30LXLIFT
 62
4
 66
     1
 70
     9
  0
VERTEX
  8
E30LXLIFT
 62
4
 10
2238.156
 20
-4984.214
 30
2207.000
 70
    32
  0
VERTEX
  8
E30LXLIFT
 62
4
 10
2247.325
 20
-5003.335
 30
2207.000
 70
    32
  0
VERTEX
  8
E30LXLIFT
 62
4
 10
2258.196
 20
-5022.840
 30
2207.000
 70
    32
  0
VERTEX
  8
E30LXLIFT
 62
4
 10
2267.563
 20
-5039.413
 30
2207.000
 70
    32
  0
VERTEX
  8
E30LXLIFT
 62
4
 10
2276.767
 20
-5052.503
 30
2207.000
 70
    32
  0
VERTEX
  8
E30LXLIFT
 62
4
 10
2277.365
 20
-5060.578
 30
2207.000
 70
    32
  0
VERTEX
  8
E30LXLIFT
 62
4
 10
2264.240
 20
-5071.663
 30
2207.000
 70
    32
  0
VERTEX
  8
E30LXLIFT
 62
4
 10
2249.313
 20
-5067.700
 30
2207.000
 70
    32
  0
VERTEX
  8
E30LXLIFT
 62
4
 10
2239.016
 20
-5060.982
 30
2207.000
 70
    32
  0
VERTEX
  8
E30LXLIFT
 62
4
 10
2234.545
 20
-5051.502
 30
2207.000
 70
    32
  0
VERTEX
  8
E30LXLIFT
 62
4
 10
2243.664
 20
-5046.096
 30
2207.000
 70
    32
  0
VERTEX
  8
E30LXLIFT
 62
4
 10
2243.373
 20
-5035.176
 30
2207.000
 70
    32
  0
VERTEX
  8
E30LXLIFT
 62
4
 10
2237.098
 20
-5014.797
 30
2207.000
 70
    32
  0
VERTEX
  8
E30LXLIFT
 62
4
 10
2228.288
 20
-4990.827
 30
2207.000
 70
    32
  0
SEQEND
  8
E30LXLIFT
  0
POLYLINE
  8
E30LXLIFT
 62
4
 66
     1
 70
     9
  0
VERTEX
  8
E30LXLIFT
 62
4
 10
2328.137
 20
-5022.641
 30
2208.000
 70
    32
  0
VERTEX
  8
E30LXLIFT
 62
4
 10
2336.491
 20
-5038.431
 30
2208.000
 70
    32
  0
VERTEX
  8
E30LXLIFT
 62
4
 10
2354.160
 20
-5054.567
 30
2208.000
 70
    32
  0
VERTEX
  8
E30LXLIFT
 62
4
 10
2374.053
 20
-5071.795
 30
2208.000
 70
    32
  0
VERTEX
  8
E30LXLIFT
 62
4
 10
2387.820
 20
-5085.892
 30
2208.000
 70
    32
  0
VERTEX
  8
E30LXLIFT
 62
4
 10
2400.993
 20
-5101.408
 30
2208.000
 70
    32
  0
VERTEX
  8
E30LXLIFT
 62
4
 10
2401.571
 20
-5113.755
 30
2208.000
 70
    32
  0
VERTEX
  8
E30LXLIFT
 62
4
 10
2406.699
 20
-5120.569
 30
2208.000
 70
    32
  0
VERTEX
  8
E30LXLIFT
 62
4
 10
2395.109
 20
-5128.995
 30
2208.000
 70
    32
  0
VERTEX
  8
E30LXLIFT
 62
4
 10
2383.179
 20
-5113.982
 30
2208.000
 70
    32
  0
VERTEX
  8
E30LXLIFT
 62
4
 10
2373.365
 20
-5098.284
 30
2208.000
 70
    32
  0
VERTEX
  8
E30LXLIFT
 62
4
 10
2363.786
 20
-5093.875
 30
2208.000
 70
    32
  0
VERTEX
  8
E30LXLIFT
 62
4
 10
2357.613
 20
-5100.168
 30
2208.000
 70
    32
  0
VERTEX
  8
E30LXLIFT
 62
4
 10
2350.404
 20
-5094.233
 30
2208.000
 70
    32
  0
VERTEX
  8
E30LXLIFT
 62
4
 10
2339.815
 20
-5092.752
 30
2208.000
 70
    32
  0
VERTEX
  8
E30LXLIFT
 62
4
 10
2335.109
 20
-5083.991
 30
2208.000
 70
    32
  0
VERTEX
  8
E30LXLIFT
 62
4
 10
2332.087
 20
-5075.736
 30
2208.000
 70
    32
  0
VERTEX
  8
E30LXLIFT
 62
4
 10
2331.651
 20
-5061.210
 30
2208.000
 70
    32
  0
VERTEX
  8
E30LXLIFT
 62
4
 10
2320.176
 20
-5044.443
 30
2208.000
 70
    32
  0
VERTEX
  8
E30LXLIFT
 62
4
 10
2313.139
 20
-5032.813
 30
2208.000
 70
    32
  0
SEQEND
  8
E30LXLIFT
  0
POLYLINE
  8
E30LXLIFT
 62
4
 66
     1
 70
     9
  0
VERTEX
  8
E30LXLIFT
 62
4
 10
2323.094
 20
-5025.159
 30
2216.000
 70
    32
  0
VERTEX
  8
E30LXLIFT
 62
4
 10
2328.341
 20
-5035.595
 30
2216.000
 70
    32
  0
VERTEX
  8
E30LXLIFT
 62
4
 10
2335.331
 20
-5037.996
 30
2216.000
 70
    32
  0
VERTEX
  8
E30LXLIFT
 62
4
 10
2343.159
 20
-5048.831
 30
2216.000
 70
    32
  0
VERTEX
  8
E30LXLIFT
 62
4
 10
2353.252
 20
-5058.442
 30
2216.000
 70
    32
  0
VERTEX
  8
E30LXLIFT
 62
4
 10
2361.069
 20
-5070.156
 30
2216.000
 70
    32
  0
VERTEX
  8
E30LXLIFT
 62
4
 10
2373.610
 20
-5081.027
 30
2216.000
 70
    32
  0
VERTEX
  8
E30LXLIFT
 62
4
 10
2379.479
 20
-5095.586
 30
2216.000
 70
    32
  0
VERTEX
  8
E30LXLIFT
 62
4
 10
2384.833
 20
-5107.360
 30
2216.000
 70
    32
  0
VERTEX
  8
E30LXLIFT
 62
4
 10
2389.505
 20
-5114.184
 30
2216.000
 70
    32
  0
VERTEX
  8
E30LXLIFT
 62
4
 10
2381.664
 20
-5118.510
 30
2216.000
 70
    32
  0
VERTEX
  8
E30LXLIFT
 62
4
 10
2370.227
 20
-5104.979
 30
2216.000
 70
    32
  0
VERTEX
  8
E30LXLIFT
 62
4
 10
2361.624
 20
-5094.276
 30
2216.000
 70
    32
  0
VERTEX
  8
E30LXLIFT
 62
4
 10
2346.405
 20
-5104.006
 30
2216.000
 70
    32
  0
VERTEX
  8
E30LXLIFT
 62
4
 10
2342.386
 20
-5097.031
 30
2216.000
 70
    32
  0
VERTEX
  8
E30LXLIFT
 62
4
 10
2352.466
 20
-5085.941
 30
2216.000
 70
    32
  0
VERTEX
  8
E30LXLIFT
 62
4
 10
2358.265
 20
-5080.168
 30
2216.000
 70
    32
  0
VERTEX
  8
E30LXLIFT
 62
4
 10
2346.948
 20
-5071.562
 30
2216.000
 70
    32
  0
VERTEX
  8
E30LXLIFT
 62
4
 10
2327.933
 20
-5063.908
 30
2216.000
 70
    32
  0
VERTEX
  8
E30LXLIFT
 62
4
 10
2318.154
 20
-5060.825
 30
2216.000
 70
    32
  0
VERTEX
  8
E30LXLIFT
 62
4
 10
2304.324
 20
-5055.040
 30
2216.000
 70
    32
  0
VERTEX
  8
E30LXLIFT
 62
4
 10
2289.817
 20
-5060.980
 30
2216.000
 70
    32
  0
VERTEX
  8
E30LXLIFT
 62
4
 10
2272.313
 20
-5067.589
 30
2216.000
 70
    32
  0
VERTEX
  8
E30LXLIFT
 62
4
 10
2258.974
 20
-5072.890
 30
2216.000
 70
    32
  0
VERTEX
  8
E30LXLIFT
 62
4
 10
2248.778
 20
-5078.615
 30
2216.000
 70
    32
  0
VERTEX
  8
E30LXLIFT
 62
4
 10
2237.386
 20
-5067.230
 30
2216.000
 70
    32
  0
VERTEX
  8
E30LXLIFT
 62
4
 10
2227.140
 20
-5054.134
 30
2216.000
 70
    32
  0
VERTEX
  8
E30LXLIFT
 62
4
 10
2223.877
 20
-5047.149
 30
2216.000
 70
    32
  0
VERTEX
  8
E30LXLIFT
 62
4
 10
2230.222
 20
-5044.354
 30
2216.000
 70
    32
  0
VERTEX
  8
E30LXLIFT
 62
4
 10
2241.375
 20
-5042.616
 30
2216.000
 70
    32
  0
VERTEX
  8
E30LXLIFT
 62
4
 10
2247.188
 20
-5037.159
 30
2216.000
 70
    32
  0
VERTEX
  8
E30LXLIFT
 62
4
 10
2242.742
 20
-5024.392
 30
2216.000
 70
    32
  0
VERTEX
  8
E30LXLIFT
 62
4
 10
2237.909
 20
-5017.795
 30
2216.000
 70
    32
  0
VERTEX
  8
E30LXLIFT
 62
4
 10
2230.869
 20
-5019.791
 30
2216.000
 70
    32
  0
VERTEX
  8
E30LXLIFT
 62
4
 10
2226.438
 20
-5005.705
 30
2216.000
 70
    32
  0
VERTEX
  8
E30LXLIFT
 62
4
 10
2220.140
 20
-4990.262
 30
2216.000
 70
    32
  0
VERTEX
  8
E30LXLIFT
 62
4
 10
2208.228
 20
-4970.428
 30
2216.000
 70
    32
  0
VERTEX
  8
E30LXLIFT
 62
4
 10
2202.163
 20
-4960.810
 30
2216.000
 70
    32
  0
VERTEX
  8
E30LXLIFT
 62
4
 10
2209.277
 20
-4952.219
 30
2216.000
 70
    32
  0
VERTEX
  8
E30LXLIFT
 62
4
 10
2217.755
 20
-4958.435
 30
2216.000
 70
    32
  0
VERTEX
  8
E30LXLIFT
 62
4
 10
2225.534
 20
-4962.656
 30
2216.000
 70
    32
  0
VERTEX
  8
E30LXLIFT
 62
4
 10
2231.347
 20
-4974.313
 30
2216.000
 70
    32
  0
VERTEX
  8
E30LXLIFT
 62
4
 10
2240.302
 20
-4989.663
 30
2216.000
 70
    32
  0
VERTEX
  8
E30LXLIFT
 62
4
 10
2248.902
 20
-5006.909
 30
2216.000
 70
    32
  0
VERTEX
  8
E30LXLIFT
 62
4
 10
2259.672
 20
-5023.546
 30
2216.000
 70
    32
  0
VERTEX
  8
E30LXLIFT
 62
4
 10
2273.007
 20
-5034.161
 30
2216.000
 70
    32
  0
VERTEX
  8
E30LXLIFT
 62
4
 10
2280.018
 20
-5042.542
 30
2216.000
 70
    32
  0
VERTEX
  8
E30LXLIFT
 62
4
 10
2286.351
 20
-5053.272
 30
2216.000
 70
    32
  0
VERTEX
  8
E30LXLIFT
 62
4
 10
2300.492
 20
-5044.004
 30
2216.000
 70
    32
  0
VERTEX
  8
E30LXLIFT
 62
4
 10
2312.084
 20
-5034.532
 30
2216.000
 70
    32
  0
SEQEND
  8
E30LXLIFT
  0
POLYLINE
  8
E30LXLIFT
 62
4
 66
     1
 70
     9
  0
VERTEX
  8
E30LXLIFT
 62
4
 10
2325.676
 20
-5024.298
 30
2226.000
 70
    32
  0
VERTEX
  8
E30LXLIFT
 62
4
 10
2343.764
 20
-5042.261
 30
2226.000
 70
    32
  0
VERTEX
  8
E30LXLIFT
 62
4
 10
2353.363
 20
-5056.128
 30
2226.000
 70
    32
  0
VERTEX
  8
E30LXLIFT
 62
4
 10
2364.805
 20
-5072.782
 30
2226.000
 70
    32
  0
VERTEX
  8
E30LXLIFT
 62
4
 10
2357.698
 20
-5085.026
 30
2226.000
 70
    32
  0
VERTEX
  8
E30LXLIFT
 62
4
 10
2350.887
 20
-5087.333
 30
2226.000
 70
    32
  0
VERTEX
  8
E30LXLIFT
 62
4
 10
2346.308
 20
-5078.926
 30
2226.000
 70
    32
  0
VERTEX
  8
E30LXLIFT
 62
4
 10
2342.749
 20
-5072.931
 30
2226.000
 70
    32
  0
VERTEX
  8
E30LXLIFT
 62
4
 10
2344.737
 20
-5067.203
 30
2226.000
 70
    32
  0
VERTEX
  8
E30LXLIFT
 62
4
 10
2343.529
 20
-5061.435
 30
2226.000
 70
    32
  0
VERTEX
  8
E30LXLIFT
 62
4
 10
2335.006
 20
-5054.634
 30
2226.000
 70
    32
  0
VERTEX
  8
E30LXLIFT
 62
4
 10
2336.199
 20
-5049.603
 30
2226.000
 70
    32
  0
VERTEX
  8
E30LXLIFT
 62
4
 10
2318.977
 20
-5046.395
 30
2226.000
 70
    32
  0
VERTEX
  8
E30LXLIFT
 62
4
 10
2312.157
 20
-5052.530
 30
2226.000
 70
    32
  0
VERTEX
  8
E30LXLIFT
 62
4
 10
2301.826
 20
-5058.641
 30
2226.000
 70
    32
  0
VERTEX
  8
E30LXLIFT
 62
4
 10
2289.758
 20
-5059.157
 30
2226.000
 70
    32
  0
VERTEX
  8
E30LXLIFT
 62
4
 10
2278.748
 20
-5061.839
 30
2226.000
 70
    32
  0
VERTEX
  8
E30LXLIFT
 62
4
 10
2271.980
 20
-5068.044
 30
2226.000
 70
    32
  0
VERTEX
  8
E30LXLIFT
 62
4
 10
2269.946
 20
-5059.830
 30
2226.000
 70
    32
  0
VERTEX
  8
E30LXLIFT
 62
4
 10
2261.873
 20
-5059.248
 30
2226.000
 70
    32
  0
VERTEX
  8
E30LXLIFT
 62
4
 10
2250.273
 20
-5063.349
 30
2226.000
 70
    32
  0
VERTEX
  8
E30LXLIFT
 62
4
 10
2240.125
 20
-5068.232
 30
2226.000
 70
    32
  0
VERTEX
  8
E30LXLIFT
 62
4
 10
2235.177
 20
-5067.742
 30
2226.000
 70
    32
  0
VERTEX
  8
E30LXLIFT
 62
4
 10
2237.444
 20
-5059.733
 30
2226.000
 70
    32
  0
VERTEX
  8
E30LXLIFT
 62
4
 10
2234.390
 20
-5049.106
 30
2226.000
 70
    32
  0
VERTEX
  8
E30LXLIFT
 62
4
 10
2240.811
 20
-5042.283
 30
2226.000
 70
    32
  0
VERTEX
  8
E30LXLIFT
 62
4
 10
2249.183
 20
-5035.000
 30
2226.000
 70
    32
  0
VERTEX
  8
E30LXLIFT
 62
4
 10
2247.968
 20
-5022.577
 30
2226.000
 70
    32
  0
VERTEX
  8
E30LXLIFT
 62
4
 10
2238.578
 20
-5008.992
 30
2226.000
 70
    32
  0
VERTEX
  8
E30LXLIFT
 62
4
 10
2230.262
 20
-4994.941
 30
2226.000
 70
    32
  0
VERTEX
  8
E30LXLIFT
 62
4
 10
2220.285
 20
-4979.824
 30
2226.000
 70
    32
  0
VERTEX
  8
E30LXLIFT
 62
4
 10
2212.015
 20
-4966.721
 30
2226.000
 70
    32
  0
VERTEX
  8
E30LXLIFT
 62
4
 10
2219.679
 20
-4960.399
 30
2226.000
 70
    32
  0
VERTEX
  8
E30LXLIFT
 62
4
 10
2227.554
 20
-4964.403
 30
2226.000
 70
    32
  0
VERTEX
  8
E30LXLIFT
 62
4
 10
2234.424
 20
-4979.305
 30
2226.000
 70
    32
  0
VERTEX
  8
E30LXLIFT
 62
4
 10
2245.138
 20
-4994.532
 30
2226.000
 70
    32
  0
VERTEX
  8
E30LXLIFT
 62
4
 10
2254.296
 20
-5011.346
 30
2226.000
 70
    32
  0
VERTEX
  8
E30LXLIFT
 62
4
 10
2261.968
 20
-5029.696
 30
2226.000
 70
    32
  0
VERTEX
  8
E30LXLIFT
 62
4
 10
2273.730
 20
-5040.434
 30
2226.000
 70
    32
  0
VERTEX
  8
E30LXLIFT
 62
4
 10
2285.031
 20
-5044.199
 30
2226.000
 70
    32
  0
VERTEX
  8
E30LXLIFT
 62
4
 10
2289.782
 20
-5040.139
 30
2226.000
 70
    32
  0
VERTEX
  8
E30LXLIFT
 62
4
 10
2297.095
 20
-5028.617
 30
2226.000
 70
    32
  0
VERTEX
  8
E30LXLIFT
 62
4
 10
2311.538
 20
-5027.328
 30
2226.000
 70
    32
  0
SEQEND
  8
E30LXLIFT
  0
POLYLINE
  8
E30LXLIFT
 62
1
 66
     1
 70
     9
  0
VERTEX
  8
E30LXLIFT
 62
1
 10
2326.676
 20
-5023.298
 30
2236.000
 70
    32
  0
VERTEX
  8
E30LXLIFT
 62
1
 10
2344.764
 20
-5041.261
 30
2236.000
 70
    32
  0
VERTEX
  8
E30LXLIFT
 62
1
 10
2354.363
 20
-5055.128
 30
2236.000
 70
    32
  0
VERTEX
  8
E30LXLIFT
 62
1
 10
2365.805
 20
-5071.782
 30
2236.000
 70
    32
  0
VERTEX
  8
E30LXLIFT
 62
1
 10
2358.698
 20
-5084.026
 30
2236.000
 70
    32
  0
VERTEX
  8
E30LXLIFT
 62
1
 10
2351.887
 20
-5086.333
 30
2236.000
 70
    32
  0
VERTEX
  8
E30LXLIFT
 62
1
 10
2347.308
 20
-5077.926
 30
2236.000
 70
    32
  0
VERTEX
  8
E30LXLIFT
 62
1
 10
2343.749
 20
-5071.931
 30
2236.000
 70
    32
  0
VERTEX
  8
E30LXLIFT
 62
1
 10
2345.737
 20
-5066.203
 30
2236.000
 70
    32
  0
VERTEX
  8
E30LXLIFT
 62
1
 10
2344.529
 20
-5060.435
 30
2236.000
 70
    32
  0
VERTEX
  8
E30LXLIFT
 62
1
 10
2336.006
 20
-5053.634
 30
2236.000
 70
    32
  0
VERTEX
  8
E30LXLIFT
 62
1
 10
2337.199
 20
-5048.603
 30
2236.000
 70
    32
  0
VERTEX
  8
E30LXLIFT
 62
1
 10
2319.977
 20
-5045.395
 30
2236.000
 70
    32
  0
VERTEX
  8
E30LXLIFT
 62
1
 10
2313.157
 20
-5051.530
 30
2236.000
 70
    32
  0
VERTEX
  8
E30LXLIFT
 62
1
 10
2302.826
 20
-5057.641
 30
2236.000
 70
    32
  0
VERTEX
  8
E30LXLIFT
 62
1
 10
2290.758
 20
-5058.157
 30
2236.000
 70
    32
  0
VERTEX
  8
E30LXLIFT
 62
1
 10
2279.748
 20
-5060.839
 30
2236.000
 70
    32
  0
VERTEX
  8
E30LXLIFT
 62
1
 10
2272.980
 20
-5067.044
 30
2236.000
 70
    32
  0
VERTEX
  8
E30LXLIFT
 62
1
 10
2270.946
 20
-5058.830
 30
2236.000
 70
    32
  0
VERTEX
  8
E30LXLIFT
 62
1
 10
2262.873
 20
-5058.248
 30
2236.000
 70
    32
  0
VERTEX
  8
E30LXLIFT
 62
1
 10
2251.273
 20
-5062.349
 30
2236.000
 70
    32
  0
VERTEX
  8
E30LXLIFT
 62
1
 10
2241.125
 20
-5067.232
 30
2236.000
 70
    32
  0
VERTEX
  8
E30LXLIFT
 62
1
 10
2236.177
 20
-5066.742
 30
2236.000
 70
    32
  0
VERTEX
  8
E30LXLIFT
 62
1
 10
2238.444
 20
-5058.733
 30
2236.000
 70
    32
  0
VERTEX
  8
E30LXLIFT
 62
1
 10
2235.390
 20
-5048.106
 30
2236.000
 70
    32
  0
VERTEX
  8
E30LXLIFT
 62
1
 10
2241.811
 20
-5041.283
 30
2236.000
 70
    32
  0
VERTEX
  8
E30LXLIFT
 62
1
 10
2250.183
 20
-5034.000
 30
2236.000
 70
    32
  0
VERTEX
  8
E30LXLIFT
 62
1
 10
2248.968
 20
-5021.577
 30
2236.000
 70
    32
  0
VERTEX
  8
E30LXLIFT
 62
1
 10
2239.578
 20
-5007.992
 30
2236.000
 70
    32
  0
VERTEX
  8
E30LXLIFT
 62
1
 10
2231.262
 20
-4993.941
 30
2236.000
 70
    32
  0
VERTEX
  8
E30LXLIFT
 62
1
 10
2221.285
 20
-4978.824
 30
2236.000
 70
    32
  0
VERTEX
  8
E30LXLIFT
 62
1
 10
2213.015
 20
-4965.721
 30
2236.000
 70
    32
  0
VERTEX
  8
E30LXLIFT
 62
1
 10
2220.679
 20
-4959.399
 30
2236.000
 70
    32
  0
VERTEX
  8
E30LXLIFT
 62
1
 10
2228.554
 20
-4963.403
 30
2236.000
 70
    32
  0
VERTEX
  8
E30LXLIFT
 62
1
 10
2235.424
 20
-4978.305
 30
2236.000
 70
    32
  0
VERTEX
  8
E30LXLIFT
 62
1
 10
2246.138
 20
-4993.532
 30
2236.000
 70
    32
  0
VERTEX
  8
E30LXLIFT
 62
1
 10
2255.296
 20
-5010.346
 30
2236.000
 70
    32
  0
VERTEX
  8
E30LXLIFT
 62
1
 10
2262.968
 20
-5028.696
 30
2236.000
 70
    32
  0
VERTEX
  8
E30LXLIFT
 62
1
 10
2274.730
 20
-5039.434
 30
2236.000
 70
    32
  0
VERTEX
  8
E30LXLIFT
 62
1
 10
2286.031
 20
-5043.199
 30
2236.000
 70
    32
  0
VERTEX
  8
E30LXLIFT
 62
1
 10
2290.782
 20
-5039.139
 30
2236.000
 70
    32
  0
VERTEX
  8
E30LXLIFT
 62
1
 10
2298.095
 20
-5027.617
 30
2236.000
 70
    32
  0
VERTEX
  8
E30LXLIFT
 62
1
 10
2312.538
 20
-5026.328
 30
2236.000
 70
    32
  0
SEQEND
  8
E30LXLIFT
  0
POLYLINE
  8
E30LXLIFT
 62
7
 66
     1
 70
     9
  0
VERTEX
  8
E30LXLIFT
 62
7
 10
1733.614
 20
-4311.327
 30
2174.280
 70
    32
  0
VERTEX
  8
E30LXLIFT
 62
7
 10
1732.188
 20
-4309.689
 30
2174.284
 70
    32
  0
VERTEX
  8
E30LXLIFT
 62
7
 10
1722.886
 20
-4304.325
 30
2174.300
 70
    32
  0
VERTEX
  8
E30LXLIFT
 62
7
 10
1716.739
 20
-4298.557
 30
2174.309
 70
    32
  0
VERTEX
  8
E30LXLIFT
 62
7
 10
1714.353
 20
-4298.527
 30
2174.314
 70
    32
  0
VERTEX
  8
E30LXLIFT
 62
7
 10
1694.928
 20
-4280.806
 30
2174.343
 70
    32
  0
VERTEX
  8
E30LXLIFT
 62
7
 10
1686.660
 20
-4271.380
 30
2174.355
 70
    32
  0
VERTEX
  8
E30LXLIFT
 62
7
 10
1683.959
 20
-4269.326
 30
2174.359
 70
    32
  0
VERTEX
  8
E30LXLIFT
 62
7
 10
1676.761
 20
-4267.559
 30
2174.372
 70
    32
  0
VERTEX
  8
E30LXLIFT
 62
7
 10
1670.924
 20
-4263.639
 30
2174.382
 70
    32
  0
VERTEX
  8
E30LXLIFT
 62
7
 10
1668.273
 20
-4256.372
 30
2174.384
 70
    32
  0
VERTEX
  8
E30LXLIFT
 62
7
 10
1661.679
 20
-4250.439
 30
2174.394
 70
    32
  0
VERTEX
  8
E30LXLIFT
 62
7
 10
1645.099
 20
-4240.686
 30
2174.422
 70
    32
  0
VERTEX
  8
E30LXLIFT
 62
7
 10
1633.937
 20
-4228.505
 30
2174.438
 70
    32
  0
VERTEX
  8
E30LXLIFT
 62
7
 10
1627.358
 20
-4219.567
 30
2174.446
 70
    32
  0
VERTEX
  8
E30LXLIFT
 62
7
 10
1622.060
 20
-4205.211
 30
2174.450
 70
    32
  0
VERTEX
  8
E30LXLIFT
 62
7
 10
1614.756
 20
-4195.496
 30
2174.460
 70
    32
  0
VERTEX
  8
E30LXLIFT
 62
7
 10
1598.261
 20
-4167.545
 30
2174.479
 70
    32
  0
VERTEX
  8
E30LXLIFT
 62
7
 10
1598.668
 20
-4166.122
 30
2174.478
 70
    32
  0
VERTEX
  8
E30LXLIFT
 62
7
 10
1604.003
 20
-4163.700
 30
2174.467
 70
    32
  0
VERTEX
  8
E30LXLIFT
 62
7
 10
1610.686
 20
-4158.393
 30
2174.470
 70
    32
  0
VERTEX
  8
E30LXLIFT
 62
7
 10
1614.814
 20
-4163.143
 30
2174.464
 70
    32
  0
VERTEX
  8
E30LXLIFT
 62
7
 10
1618.782
 20
-4165.100
 30
2174.468
 70
    32
  0
VERTEX
  8
E30LXLIFT
 62
7
 10
1625.985
 20
-4167.044
 30
2174.481
 70
    32
  0
VERTEX
  8
E30LXLIFT
 62
7
 10
1627.989
 20
-4165.935
 30
2174.490
 70
    32
  0
VERTEX
  8
E30LXLIFT
 62
7
 10
1622.849
 20
-4158.022
 30
2174.505
 70
    32
  0
VERTEX
  8
E30LXLIFT
 62
7
 10
1623.256
 20
-4156.599
 30
2174.511
 70
    32
  0
VERTEX
  8
E30LXLIFT
 62
7
 10
1625.448
 20
-4155.927
 30
2174.519
 70
    32
  0
VERTEX
  8
E30LXLIFT
 62
7
 10
1626.184
 20
-4153.524
 30
2174.530
 70
    32
  0
VERTEX
  8
E30LXLIFT
 62
7
 10
1618.282
 20
-4133.843
 30
2174.579
 70
    32
  0
VERTEX
  8
E30LXLIFT
 62
7
 10
1624.741
 20
-4127.060
 30
2174.621
 70
    32
  0
VERTEX
  8
E30LXLIFT
 62
7
 10
1632.463
 20
-4128.549
 30
2174.637
 70
    32
  0
VERTEX
  8
E30LXLIFT
 62
7
 10
1636.672
 20
-4130.920
 30
2174.640
 70
    32
  0
VERTEX
  8
E30LXLIFT
 62
7
 10
1652.810
 20
-4155.081
 30
2174.597
 70
    32
  0
VERTEX
  8
E30LXLIFT
 62
7
 10
1656.520
 20
-4158.700
 30
2174.594
 70
    32
  0
VERTEX
  8
E30LXLIFT
 62
7
 10
1658.079
 20
-4164.669
 30
2174.577
 70
    32
  0
VERTEX
  8
E30LXLIFT
 62
7
 10
1659.829
 20
-4185.649
 30
2174.506
 70
    32
  0
VERTEX
  8
E30LXLIFT
 62
7
 10
1661.565
 20
-4191.613
 30
2174.490
 70
    32
  0
VERTEX
  8
E30LXLIFT
 62
7
 10
1669.707
 20
-4206.695
 30
2174.458
 70
    32
  0
VERTEX
  8
E30LXLIFT
 62
7
 10
1672.861
 20
-4208.999
 30
2174.458
 70
    32
  0
VERTEX
  8
E30LXLIFT
 62
7
 10
1679.141
 20
-4213.073
 30
2174.461
 70
    32
  0
VERTEX
  8
E30LXLIFT
 62
7
 10
1703.689
 20
-4223.706
 30
2174.490
 70
    32
  0
VERTEX
  8
E30LXLIFT
 62
7
 10
1707.252
 20
-4217.701
 30
2174.521
 70
    32
  0
VERTEX
  8
E30LXLIFT
 62
7
 10
1707.534
 20
-4214.779
 30
2174.532
 70
    32
  0
VERTEX
  8
E30LXLIFT
 62
7
 10
1709.114
 20
-4214.387
 30
2174.538
 70
    32
  0
VERTEX
  8
E30LXLIFT
 62
7
 10
1706.121
 20
-4207.570
 30
2174.554
 70
    32
  0
VERTEX
  8
E30LXLIFT
 62
7
 10
1701.407
 20
-4202.651
 30
2174.559
 70
    32
  0
VERTEX
  8
E30LXLIFT
 62
7
 10
1699.330
 20
-4200.758
 30
2174.560
 70
    32
  0
VERTEX
  8
E30LXLIFT
 62
7
 10
1698.047
 20
-4199.750
 30
2174.560
 70
    32
  0
VERTEX
  8
E30LXLIFT
 62
7
 10
1708.684
 20
-4192.300
 30
2174.616
 70
    32
  0
VERTEX
  8
E30LXLIFT
 62
7
 10
1713.698
 20
-4203.145
 30
2174.591
 70
    32
  0
VERTEX
  8
E30LXLIFT
 62
7
 10
1718.013
 20
-4209.841
 30
2174.579
 70
    32
  0
VERTEX
  8
E30LXLIFT
 62
7
 10
1719.886
 20
-4210.590
 30
2174.581
 70
    32
  0
VERTEX
  8
E30LXLIFT
 62
7
 10
1729.738
 20
-4226.955
 30
2174.549
 70
    32
  0
VERTEX
  8
E30LXLIFT
 62
7
 10
1747.495
 20
-4248.692
 30
2174.520
 70
    32
  0
VERTEX
  8
E30LXLIFT
 62
7
 10
1754.099
 20
-4255.067
 30
2174.515
 70
    32
  0
VERTEX
  8
E30LXLIFT
 62
7
 10
1757.210
 20
-4255.874
 30
2174.520
 70
    32
  0
VERTEX
  8
E30LXLIFT
 62
7
 10
1761.682
 20
-4254.528
 30
2174.538
 70
    32
  0
VERTEX
  8
E30LXLIFT
 62
7
 10
1762.130
 20
-4258.404
 30
2174.525
 70
    32
  0
VERTEX
  8
E30LXLIFT
 62
7
 10
1764.236
 20
-4261.444
 30
2174.520
 70
    32
  0
VERTEX
  8
E30LXLIFT
 62
7
 10
1759.343
 20
-4267.217
 30
2174.485
 70
    32
  0
VERTEX
  8
E30LXLIFT
 62
7
 10
1758.279
 20
-4270.688
 30
2174.470
 70
    32
  0
VERTEX
  8
E30LXLIFT
 62
7
 10
1759.560
 20
-4286.909
 30
2174.415
 70
    32
  0
VERTEX
  8
E30LXLIFT
 62
7
 10
1754.946
 20
-4289.672
 30
2174.392
 70
    32
  0
VERTEX
  8
E30LXLIFT
 62
7
 10
1754.903
 20
-4291.528
 30
2174.386
 70
    32
  0
VERTEX
  8
E30LXLIFT
 62
7
 10
1749.725
 20
-4296.513
 30
2174.353
 70
    32
  0
VERTEX
  8
E30LXLIFT
 62
7
 10
1747.268
 20
-4289.948
 30
2174.370
 70
    32
  0
VERTEX
  8
E30LXLIFT
 62
7
 10
1745.480
 20
-4278.244
 30
2174.408
 70
    32
  0
VERTEX
  8
E30LXLIFT
 62
7
 10
1740.577
 20
-4280.042
 30
2174.388
 70
    32
  0
VERTEX
  8
E30LXLIFT
 62
7
 10
1735.681
 20
-4289.349
 30
2174.341
 70
    32
  0
VERTEX
  8
E30LXLIFT
 62
7
 10
1737.015
 20
-4293.291
 30
2174.330
 70
    32
  0
VERTEX
  8
E30LXLIFT
 62
7
 10
1737.787
 20
-4304.658
 30
2174.291
 70
    32
  0
SEQEND
  8
E30LXLIFT
  0
POLYLINE
  8
E30LXLIFT
 62
7
 66
     1
 70
     9
  0
VERTEX
  8
E30LXLIFT
 62
7
 10
685.543
 20
-3137.574
 30
2295.000
 70
    32
  0
VERTEX
  8
E30LXLIFT
 62
7
 10
673.457
 20
-3119.186
 30
2295.000
 70
    32
  0
VERTEX
  8
E30LXLIFT
 62
7
 10
668.331
 20
-3106.266
 30
2295.000
 70
    32
  0
VERTEX
  8
E30LXLIFT
 62
7
 10
670.785
 20
-3094.758
 30
2295.000
 70
    32
  0
VERTEX
  8
E30LXLIFT
 62
7
 10
663.089
 20
-3082.198
 30
2295.000
 70
    32
  0
VERTEX
  8
E30LXLIFT
 62
7
 10
653.596
 20
-3075.211
 30
2295.000
 70
    32
  0
VERTEX
  8
E30LXLIFT
 62
7
 10
641.186
 20
-3073.310
 30
2295.000
 70
    32
  0
VERTEX
  8
E30LXLIFT
 62
7
 10
636.699
 20
-3070.171
 30
2295.000
 70
    32
  0
VERTEX
  8
E30LXLIFT
 62
7
 10
631.692
 20
-3073.302
 30
2295.000
 70
    32
  0
VERTEX
  8
E30LXLIFT
 62
7
 10
628.609
 20
-3084.400
 30
2295.000
 70
    32
  0
VERTEX
  8
E30LXLIFT
 62
7
 10
640.407
 20
-3089.476
 30
2295.000
 70
    32
  0
VERTEX
  8
E30LXLIFT
 62
7
 10
650.012
 20
-3094.091
 30
2295.000
 70
    32
  0
VERTEX
  8
E30LXLIFT
 62
7
 10
657.876
 20
-3109.255
 30
2295.000
 70
    32
  0
VERTEX
  8
E30LXLIFT
 62
7
 10
660.650
 20
-3123.575
 30
2295.000
 70
    32
  0
VERTEX
  8
E30LXLIFT
 62
7
 10
660.613
 20
-3139.415
 30
2295.000
 70
    32
  0
VERTEX
  8
E30LXLIFT
 62
7
 10
662.406
 20
-3149.876
 30
2295.000
 70
    32
  0
SEQEND
  8
E30LXLIFT
  0
POLYLINE
  8
E30LXLIFT
 62
7
 66
     1
 70
     9
  0
VERTEX
  8
E30LXLIFT
 62
7
 10
642.060
 20
-3070.073
 30
2285.000
 70
    32
  0
VERTEX
  8
E30LXLIFT
 62
7
 10
650.623
 20
-3071.508
 30
2285.000
 70
    32
  0
VERTEX
  8
E30LXLIFT
 62
7
 10
657.819
 20
-3073.593
 30
2285.000
 70
    32
  0
VERTEX
  8
E30LXLIFT
 62
7
 10
666.011
 20
-3078.738
 30
2285.000
 70
    32
  0
VERTEX
  8
E30LXLIFT
 62
7
 10
671.002
 20
-3084.982
 30
2285.000
 70
    32
  0
VERTEX
  8
E30LXLIFT
 62
7
 10
671.311
 20
-3092.516
 30
2285.000
 70
    32
  0
VERTEX
  8
E30LXLIFT
 62
7
 10
676.718
 20
-3101.155
 30
2285.000
 70
    32
  0
VERTEX
  8
E30LXLIFT
 62
7
 10
678.078
 20
-3108.803
 30
2285.000
 70
    32
  0
VERTEX
  8
E30LXLIFT
 62
7
 10
681.385
 20
-3116.462
 30
2285.000
 70
    32
  0
VERTEX
  8
E30LXLIFT
 62
7
 10
686.394
 20
-3124.846
 30
2285.000
 70
    32
  0
VERTEX
  8
E30LXLIFT
 62
7
 10
691.353
 20
-3132.405
 30
2285.000
 70
    32
  0
VERTEX
  8
E30LXLIFT
 62
7
 10
694.558
 20
-3139.921
 30
2285.000
 70
    32
  0
VERTEX
  8
E30LXLIFT
 62
7
 10
685.032
 20
-3144.236
 30
2285.000
 70
    32
  0
VERTEX
  8
E30LXLIFT
 62
7
 10
673.783
 20
-3149.457
 30
2285.000
 70
    32
  0
VERTEX
  8
E30LXLIFT
 62
7
 10
664.568
 20
-3148.165
 30
2285.000
 70
    32
  0
VERTEX
  8
E30LXLIFT
 62
7
 10
666.736
 20
-3139.725
 30
2285.000
 70
    32
  0
VERTEX
  8
E30LXLIFT
 62
7
 10
665.491
 20
-3129.519
 30
2285.000
 70
    32
  0
VERTEX
  8
E30LXLIFT
 62
7
 10
661.218
 20
-3118.240
 30
2285.000
 70
    32
  0
VERTEX
  8
E30LXLIFT
 62
7
 10
657.466
 20
-3106.482
 30
2285.000
 70
    32
  0
VERTEX
  8
E30LXLIFT
 62
7
 10
652.810
 20
-3101.615
 30
2285.000
 70
    32
  0
VERTEX
  8
E30LXLIFT
 62
7
 10
642.098
 20
-3099.129
 30
2285.000
 70
    32
  0
VERTEX
  8
E30LXLIFT
 62
7
 10
635.723
 20
-3089.887
 30
2285.000
 70
    32
  0
VERTEX
  8
E30LXLIFT
 62
7
 10
631.663
 20
-3080.719
 30
2285.000
 70
    32
  0
SEQEND
  8
E30LXLIFT
  0
POLYLINE
  8
E30LXLIFT
 62
7
 66
     1
 70
     9
  0
VERTEX
  8
E30LXLIFT
 62
7
 10
679.003
 20
-3154.309
 30
2275.000
 70
    32
  0
VERTEX
  8
E30LXLIFT
 62
7
 10
685.503
 20
-3149.223
 30
2275.000
 70
    32
  0
VERTEX
  8
E30LXLIFT
 62
7
 10
689.726
 20
-3140.805
 30
2275.000
 70
    32
  0
VERTEX
  8
E30LXLIFT
 62
7
 10
693.542
 20
-3133.325
 30
2275.000
 70
    32
  0
VERTEX
  8
E30LXLIFT
 62
7
 10
687.844
 20
-3126.723
 30
2275.000
 70
    32
  0
VERTEX
  8
E30LXLIFT
 62
7
 10
689.465
 20
-3117.686
 30
2275.000
 70
    32
  0
VERTEX
  8
E30LXLIFT
 62
7
 10
686.773
 20
-3109.255
 30
2275.000
 70
    32
  0
VERTEX
  8
E30LXLIFT
 62
7
 10
681.890
 20
-3101.530
 30
2275.000
 70
    32
  0
VERTEX
  8
E30LXLIFT
 62
7
 10
674.334
 20
-3093.992
 30
2275.000
 70
    32
  0
VERTEX
  8
E30LXLIFT
 62
7
 10
670.102
 20
-3084.614
 30
2275.000
 70
    32
  0
VERTEX
  8
E30LXLIFT
 62
7
 10
661.942
 20
-3083.767
 30
2275.000
 70
    32
  0
VERTEX
  8
E30LXLIFT
 62
7
 10
656.905
 20
-3075.828
 30
2275.000
 70
    32
  0
VERTEX
  8
E30LXLIFT
 62
7
 10
649.619
 20
-3080.722
 30
2275.000
 70
    32
  0
VERTEX
  8
E30LXLIFT
 62
7
 10
645.147
 20
-3076.586
 30
2275.000
 70
    32
  0
VERTEX
  8
E30LXLIFT
 62
7
 10
640.789
 20
-3073.664
 30
2275.000
 70
    32
  0
VERTEX
  8
E30LXLIFT
 62
7
 10
636.576
 20
-3080.890
 30
2275.000
 70
    32
  0
VERTEX
  8
E30LXLIFT
 62
7
 10
633.743
 20
-3092.305
 30
2275.000
 70
    32
  0
VERTEX
  8
E30LXLIFT
 62
7
 10
628.503
 20
-3102.315
 30
2275.000
 70
    32
  0
VERTEX
  8
E30LXLIFT
 62
7
 10
633.700
 20
-3107.765
 30
2275.000
 70
    32
  0
VERTEX
  8
E30LXLIFT
 62
7
 10
645.047
 20
-3104.927
 30
2275.000
 70
    32
  0
VERTEX
  8
E30LXLIFT
 62
7
 10
656.388
 20
-3105.547
 30
2275.000
 70
    32
  0
VERTEX
  8
E30LXLIFT
 62
7
 10
660.716
 20
-3108.275
 30
2275.000
 70
    32
  0
VERTEX
  8
E30LXLIFT
 62
7
 10
662.685
 20
-3118.410
 30
2275.000
 70
    32
  0
VERTEX
  8
E30LXLIFT
 62
7
 10
664.052
 20
-3127.250
 30
2275.000
 70
    32
  0
VERTEX
  8
E30LXLIFT
 62
7
 10
670.313
 20
-3135.391
 30
2275.000
 70
    32
  0
VERTEX
  8
E30LXLIFT
 62
7
 10
671.682
 20
-3146.496
 30
2275.000
 70
    32
  0
SEQEND
  8
E30LXLIFT
  0
POLYLINE
  8
E30LXLIFT
 62
7
 66
     1
 70
     9
  0
VERTEX
  8
E30LXLIFT
 62
7
 10
644.990
 20
-3122.533
 30
2268.000
 70
    32
  0
VERTEX
  8
E30LXLIFT
 62
7
 10
648.403
 20
-3129.378
 30
2268.000
 70
    32
  0
VERTEX
  8
E30LXLIFT
 62
7
 10
654.993
 20
-3137.180
 30
2268.000
 70
    32
  0
VERTEX
  8
E30LXLIFT
 62
7
 10
665.305
 20
-3141.438
 30
2268.000
 70
    32
  0
VERTEX
  8
E30LXLIFT
 62
7
 10
675.884
 20
-3143.664
 30
2268.000
 70
    32
  0
VERTEX
  8
E30LXLIFT
 62
7
 10
684.225
 20
-3139.174
 30
2268.000
 70
    32
  0
VERTEX
  8
E30LXLIFT
 62
7
 10
690.129
 20
-3132.652
 30
2268.000
 70
    32
  0
VERTEX
  8
E30LXLIFT
 62
7
 10
691.246
 20
-3125.791
 30
2268.000
 70
    32
  0
VERTEX
  8
E30LXLIFT
 62
7
 10
687.304
 20
-3116.408
 30
2268.000
 70
    32
  0
VERTEX
  8
E30LXLIFT
 62
7
 10
680.330
 20
-3104.015
 30
2268.000
 70
    32
  0
VERTEX
  8
E30LXLIFT
 62
7
 10
674.201
 20
-3094.151
 30
2268.000
 70
    32
  0
VERTEX
  8
E30LXLIFT
 62
7
 10
667.059
 20
-3085.881
 30
2268.000
 70
    32
  0
VERTEX
  8
E30LXLIFT
 62
7
 10
660.263
 20
-3083.202
 30
2268.000
 70
    32
  0
VERTEX
  8
E30LXLIFT
 62
7
 10
650.980
 20
-3083.828
 30
2268.000
 70
    32
  0
VERTEX
  8
E30LXLIFT
 62
7
 10
643.021
 20
-3089.449
 30
2268.000
 70
    32
  0
VERTEX
  8
E30LXLIFT
 62
7
 10
637.308
 20
-3095.185
 30
2268.000
 70
    32
  0
VERTEX
  8
E30LXLIFT
 62
7
 10
641.829
 20
-3101.015
 30
2268.000
 70
    32
  0
VERTEX
  8
E30LXLIFT
 62
7
 10
643.145
 20
-3109.153
 30
2268.000
 70
    32
  0
VERTEX
  8
E30LXLIFT
 62
7
 10
641.478
 20
-3116.302
 30
2268.000
 70
    32
  0
VERTEX
  8
E30LXLIFT
 62
7
 10
645.977
 20
-3118.795
 30
2268.000
 70
    32
  0
VERTEX
  8
E30LXLIFT
 62
7
 10
649.641
 20
-3113.669
 30
2268.000
 70
    32
  0
VERTEX
  8
E30LXLIFT
 62
7
 10
653.788
 20
-3103.654
 30
2268.000
 70
    32
  0
VERTEX
  8
E30LXLIFT
 62
7
 10
656.179
 20
-3096.309
 30
2268.000
 70
    32
  0
VERTEX
  8
E30LXLIFT
 62
7
 10
660.116
 20
-3101.478
 30
2268.000
 70
    32
  0
VERTEX
  8
E30LXLIFT
 62
7
 10
660.532
 20
-3108.966
 30
2268.000
 70
    32
  0
VERTEX
  8
E30LXLIFT
 62
7
 10
658.124
 20
-3114.485
 30
2268.000
 70
    32
  0
VERTEX
  8
E30LXLIFT
 62
7
 10
650.427
 20
-3119.268
 30
2268.000
 70
    32
  0
SEQEND
  8
E30LXLIFT
  0
POLYLINE
  8
E30LXLIFT
 62
1
 66
     1
 70
     9
  0
VERTEX
  8
E30LXLIFT
 62
1
 10
686.543
 20
-3136.574
 30
2305.000
 70
    32
  0
VERTEX
  8
E30LXLIFT
 62
1
 10
674.457
 20
-3118.186
 30
2305.000
 70
    32
  0
VERTEX
  8
E30LXLIFT
 62
1
 10
669.331
 20
-3105.266
 30
2305.000
 70
    32
  0
VERTEX
  8
E30LXLIFT
 62
1
 10
671.785
 20
-3093.758
 30
2305.000
 70
    32
  0
VERTEX
  8
E30LXLIFT
 62
1
 10
664.089
 20
-3081.198
 30
2305.000
 70
    32
  0
VERTEX
  8
E30LXLIFT
 62
1
 10
654.596
 20
-3074.211
 30
2305.000
 70
    32
  0
VERTEX
  8
E30LXLIFT
 62
1
 10
642.186
 20
-3072.310
 30
2305.000
 70
    32
  0
VERTEX
  8
E30LXLIFT
 62
1
 10
637.699
 20
-3069.171
 30
2305.000
 70
    32
  0
VERTEX
  8
E30LXLIFT
 62
1
 10
632.692
 20
-3072.302
 30
2305.000
 70
    32
  0
VERTEX
  8
E30LXLIFT
 62
1
 10
629.609
 20
-3083.400
 30
2305.000
 70
    32
  0
VERTEX
  8
E30LXLIFT
 62
1
 10
641.407
 20
-3088.476
 30
2305.000
 70
    32
  0
VERTEX
  8
E30LXLIFT
 62
1
 10
651.012
 20
-3093.091
 30
2305.000
 70
    32
  0
VERTEX
  8
E30LXLIFT
 62
1
 10
658.876
 20
-3108.255
 30
2305.000
 70
    32
  0
VERTEX
  8
E30LXLIFT
 62
1
 10
661.650
 20
-3122.575
 30
2305.000
 70
    32
  0
VERTEX
  8
E30LXLIFT
 62
1
 10
661.613
 20
-3138.415
 30
2305.000
 70
    32
  0
VERTEX
  8
E30LXLIFT
 62
1
 10
663.406
 20
-3148.876
 30
2305.000
 70
    32
  0
SEQEND
  8
E30LXLIFT
  0
POLYLINE
  8
E30LXLIFT
 62
11
 66
     1
 70
     9
  0
VERTEX
  8
E30LXLIFT
 62
11
 10
1016.134
 20
-3473.862
 30
2294.000
 70
    32
  0
VERTEX
  8
E30LXLIFT
 62
11
 10
1020.163
 20
-3456.498
 30
2294.000
 70
    32
  0
VERTEX
  8
E30LXLIFT
 62
11
 10
1016.678
 20
-3444.797
 30
2294.000
 70
    32
  0
VERTEX
  8
E30LXLIFT
 62
11
 10
1001.618
 20
-3431.060
 30
2294.000
 70
    32
  0
VERTEX
  8
E30LXLIFT
 62
11
 10
1005.405
 20
-3380.097
 30
2294.000
 70
    32
  0
VERTEX
  8
E30LXLIFT
 62
11
 10
997.608
 20
-3364.245
 30
2294.000
 70
    32
  0
VERTEX
  8
E30LXLIFT
 62
11
 10
987.887
 20
-3342.294
 30
2294.000
 70
    32
  0
VERTEX
  8
E30LXLIFT
 62
11
 10
987.567
 20
-3340.354
 30
2294.000
 70
    32
  0
VERTEX
  8
E30LXLIFT
 62
11
 10
976.935
 20
-3310.701
 30
2294.000
 70
    32
  0
VERTEX
  8
E30LXLIFT
 62
11
 10
964.393
 20
-3294.596
 30
2294.000
 70
    32
  0
VERTEX
  8
E30LXLIFT
 62
11
 10
949.976
 20
-3274.854
 30
2294.000
 70
    32
  0
VERTEX
  8
E30LXLIFT
 62
11
 10
930.119
 20
-3248.956
 30
2294.000
 70
    32
  0
VERTEX
  8
E30LXLIFT
 62
11
 10
919.907
 20
-3231.271
 30
2294.000
 70
    32
  0
VERTEX
  8
E30LXLIFT
 62
11
 10
910.019
 20
-3208.789
 30
2294.000
 70
    32
  0
VERTEX
  8
E30LXLIFT
 62
11
 10
883.246
 20
-3193.876
 30
2294.000
 70
    32
  0
VERTEX
  8
E30LXLIFT
 62
11
 10
870.563
 20
-3173.530
 30
2294.000
 70
    32
  0
VERTEX
  8
E30LXLIFT
 62
11
 10
855.842
 20
-3157.266
 30
2294.000
 70
    32
  0
VERTEX
  8
E30LXLIFT
 62
11
 10
832.816
 20
-3135.837
 30
2294.000
 70
    32
  0
VERTEX
  8
E30LXLIFT
 62
11
 10
813.792
 20
-3094.456
 30
2294.000
 70
    32
  0
VERTEX
  8
E30LXLIFT
 62
11
 10
795.780
 20
-3070.804
 30
2294.000
 70
    32
  0
VERTEX
  8
E30LXLIFT
 62
11
 10
797.264
 20
-3060.714
 30
2294.000
 70
    32
  0
VERTEX
  8
E30LXLIFT
 62
11
 10
801.850
 20
-3051.309
 30
2294.000
 70
    32
  0
VERTEX
  8
E30LXLIFT
 62
11
 10
792.447
 20
-3041.183
 30
2294.000
 70
    32
  0
VERTEX
  8
E30LXLIFT
 62
11
 10
776.355
 20
-3045.352
 30
2294.000
 70
    32
  0
VERTEX
  8
E30LXLIFT
 62
11
 10
768.575
 20
-3051.100
 30
2294.000
 70
    32
  0
VERTEX
  8
E30LXLIFT
 62
11
 10
753.047
 20
-3050.952
 30
2294.000
 70
    32
  0
VERTEX
  8
E30LXLIFT
 62
11
 10
739.481
 20
-3040.476
 30
2294.000
 70
    32
  0
VERTEX
  8
E30LXLIFT
 62
11
 10
732.358
 20
-3039.340
 30
2294.000
 70
    32
  0
VERTEX
  8
E30LXLIFT
 62
11
 10
722.148
 20
-3048.478
 30
2294.000
 70
    32
  0
VERTEX
  8
E30LXLIFT
 62
11
 10
642.221
 20
-3069.159
 30
2294.000
 70
    32
  0
VERTEX
  8
E30LXLIFT
 62
11
 10
631.930
 20
-3079.984
 30
2294.000
 70
    32
  0
VERTEX
  8
E30LXLIFT
 62
11
 10
562.245
 20
-3091.722
 30
2294.000
 70
    32
  0
VERTEX
  8
E30LXLIFT
 62
11
 10
553.664
 20
-3096.964
 30
2294.000
 70
    32
  0
VERTEX
  8
E30LXLIFT
 62
11
 10
542.275
 20
-3095.336
 30
2294.000
 70
    32
  0
VERTEX
  8
E30LXLIFT
 62
11
 10
531.839
 20
-3104.312
 30
2294.000
 70
    32
  0
VERTEX
  8
E30LXLIFT
 62
11
 10
528.173
 20
-3116.635
 30
2294.000
 70
    32
  0
VERTEX
  8
E30LXLIFT
 62
11
 10
511.275
 20
-3128.231
 30
2294.000
 70
    32
  0
VERTEX
  8
E30LXLIFT
 62
11
 10
472.758
 20
-3154.953
 30
2294.000
 70
    32
  0
VERTEX
  8
E30LXLIFT
 62
11
 10
390.922
 20
-3212.857
 30
2294.000
 70
    32
  0
VERTEX
  8
E30LXLIFT
 62
11
 10
344.780
 20
-3245.540
 30
2294.000
 70
    32
  0
VERTEX
  8
E30LXLIFT
 62
11
 10
293.831
 20
-3280.731
 30
2294.000
 70
    32
  0
VERTEX
  8
E30LXLIFT
 62
11
 10
314.511
 20
-3305.816
 30
2294.000
 70
    32
  0
VERTEX
  8
E30LXLIFT
 62
11
 10
325.141
 20
-3312.990
 30
2294.000
 70
    32
  0
VERTEX
  8
E30LXLIFT
 62
11
 10
341.880
 20
-3340.280
 30
2294.000
 70
    32
  0
VERTEX
  8
E30LXLIFT
 62
11
 10
341.183
 20
-3359.247
 30
2294.000
 70
    32
  0
VERTEX
  8
E30LXLIFT
 62
11
 10
360.781
 20
-3381.641
 30
2294.000
 70
    32
  0
VERTEX
  8
E30LXLIFT
 62
11
 10
374.875
 20
-3409.327
 30
2294.000
 70
    32
  0
VERTEX
  8
E30LXLIFT
 62
11
 10
390.406
 20
-3431.954
 30
2294.000
 70
    32
  0
VERTEX
  8
E30LXLIFT
 62
11
 10
398.164
 20
-3448.051
 30
2294.000
 70
    32
  0
VERTEX
  8
E30LXLIFT
 62
11
 10
420.802
 20
-3469.545
 30
2294.000
 70
    32
  0
VERTEX
  8
E30LXLIFT
 62
11
 10
437.732
 20
-3490.506
 30
2294.000
 70
    32
  0
VERTEX
  8
E30LXLIFT
 62
11
 10
450.639
 20
-3504.717
 30
2294.000
 70
    32
  0
VERTEX
  8
E30LXLIFT
 62
11
 10
489.650
 20
-3475.681
 30
2294.000
 70
    32
  0
VERTEX
  8
E30LXLIFT
 62
11
 10
526.472
 20
-3449.319
 30
2294.000
 70
    32
  0
VERTEX
  8
E30LXLIFT
 62
11
 10
542.478
 20
-3474.099
 30
2294.000
 70
    32
  0
VERTEX
  8
E30LXLIFT
 62
11
 10
544.410
 20
-3490.400
 30
2294.000
 70
    32
  0
VERTEX
  8
E30LXLIFT
 62
11
 10
552.345
 20
-3505.392
 30
2294.000
 70
    32
  0
VERTEX
  8
E30LXLIFT
 62
11
 10
563.186
 20
-3513.607
 30
2294.000
 70
    32
  0
VERTEX
  8
E30LXLIFT
 62
11
 10
580.309
 20
-3543.225
 30
2294.000
 70
    32
  0
VERTEX
  8
E30LXLIFT
 62
11
 10
593.058
 20
-3555.271
 30
2294.000
 70
    32
  0
VERTEX
  8
E30LXLIFT
 62
11
 10
599.826
 20
-3571.651
 30
2294.000
 70
    32
  0
VERTEX
  8
E30LXLIFT
 62
11
 10
615.660
 20
-3606.982
 30
2294.000
 70
    32
  0
VERTEX
  8
E30LXLIFT
 62
11
 10
596.148
 20
-3623.513
 30
2294.000
 70
    32
  0
VERTEX
  8
E30LXLIFT
 62
11
 10
603.425
 20
-3636.701
 30
2294.000
 70
    32
  0
VERTEX
  8
E30LXLIFT
 62
11
 10
615.113
 20
-3641.588
 30
2294.000
 70
    32
  0
VERTEX
  8
E30LXLIFT
 62
11
 10
621.636
 20
-3649.240
 30
2294.000
 70
    32
  0
VERTEX
  8
E30LXLIFT
 62
11
 10
625.964
 20
-3655.660
 30
2294.000
 70
    32
  0
VERTEX
  8
E30LXLIFT
 62
11
 10
646.535
 20
-3639.990
 30
2294.000
 70
    32
  0
VERTEX
  8
E30LXLIFT
 62
11
 10
666.596
 20
-3627.513
 30
2294.000
 70
    32
  0
VERTEX
  8
E30LXLIFT
 62
11
 10
715.430
 20
-3589.403
 30
2294.000
 70
    32
  0
VERTEX
  8
E30LXLIFT
 62
11
 10
705.854
 20
-3577.990
 30
2294.000
 70
    32
  0
VERTEX
  8
E30LXLIFT
 62
11
 10
694.349
 20
-3552.228
 30
2294.000
 70
    32
  0
VERTEX
  8
E30LXLIFT
 62
11
 10
698.357
 20
-3512.507
 30
2294.000
 70
    32
  0
VERTEX
  8
E30LXLIFT
 62
11
 10
702.354
 20
-3503.637
 30
2294.000
 70
    32
  0
VERTEX
  8
E30LXLIFT
 62
11
 10
691.763
 20
-3484.380
 30
2294.000
 70
    32
  0
VERTEX
  8
E30LXLIFT
 62
11
 10
673.610
 20
-3468.324
 30
2294.000
 70
    32
  0
VERTEX
  8
E30LXLIFT
 62
11
 10
669.819
 20
-3437.623
 30
2294.000
 70
    32
  0
VERTEX
  8
E30LXLIFT
 62
11
 10
717.604
 20
-3400.164
 30
2294.000
 70
    32
  0
VERTEX
  8
E30LXLIFT
 62
11
 10
815.342
 20
-3331.386
 30
2294.000
 70
    32
  0
VERTEX
  8
E30LXLIFT
 62
11
 10
846.275
 20
-3356.533
 30
2294.000
 70
    32
  0
VERTEX
  8
E30LXLIFT
 62
11
 10
865.260
 20
-3374.485
 30
2294.000
 70
    32
  0
VERTEX
  8
E30LXLIFT
 62
11
 10
896.038
 20
-3411.256
 30
2294.000
 70
    32
  0
VERTEX
  8
E30LXLIFT
 62
11
 10
889.315
 20
-3442.736
 30
2294.000
 70
    32
  0
VERTEX
  8
E30LXLIFT
 62
11
 10
905.143
 20
-3453.635
 30
2294.000
 70
    32
  0
VERTEX
  8
E30LXLIFT
 62
11
 10
955.630
 20
-3468.302
 30
2294.000
 70
    32
  0
VERTEX
  8
E30LXLIFT
 62
11
 10
972.528
 20
-3469.738
 30
2294.000
 70
    32
  0
VERTEX
  8
E30LXLIFT
 62
11
 10
989.610
 20
-3480.272
 30
2294.000
 70
    32
  0
VERTEX
  8
E30LXLIFT
 62
11
 10
997.265
 20
-3480.045
 30
2294.000
 70
    32
  0
SEQEND
  8
E30LXLIFT
  0
POLYLINE
  8
E30LXLIFT
 62
11
 66
     1
 70
     9
  0
VERTEX
  8
E30LXLIFT
 62
11
 10
1038.838
 20
-3510.795
 30
2274.000
 70
    32
  0
VERTEX
  8
E30LXLIFT
 62
11
 10
1027.196
 20
-3494.171
 30
2274.000
 70
    32
  0
VERTEX
  8
E30LXLIFT
 62
11
 10
996.158
 20
-3388.347
 30
2274.000
 70
    32
  0
VERTEX
  8
E30LXLIFT
 62
11
 10
985.189
 20
-3368.748
 30
2274.000
 70
    32
  0
VERTEX
  8
E30LXLIFT
 62
11
 10
970.891
 20
-3352.195
 30
2274.000
 70
    32
  0
VERTEX
  8
E30LXLIFT
 62
11
 10
991.986
 20
-3300.746
 30
2274.000
 70
    32
  0
VERTEX
  8
E30LXLIFT
 62
11
 10
974.047
 20
-3274.473
 30
2274.000
 70
    32
  0
VERTEX
  8
E30LXLIFT
 62
11
 10
966.300
 20
-3264.463
 30
2274.000
 70
    32
  0
VERTEX
  8
E30LXLIFT
 62
11
 10
943.476
 20
-3242.681
 30
2274.000
 70
    32
  0
VERTEX
  8
E30LXLIFT
 62
11
 10
933.348
 20
-3193.574
 30
2274.000
 70
    32
  0
VERTEX
  8
E30LXLIFT
 62
11
 10
900.418
 20
-3184.371
 30
2274.000
 70
    32
  0
VERTEX
  8
E30LXLIFT
 62
11
 10
879.887
 20
-3166.676
 30
2274.000
 70
    32
  0
VERTEX
  8
E30LXLIFT
 62
11
 10
867.229
 20
-3151.648
 30
2274.000
 70
    32
  0
VERTEX
  8
E30LXLIFT
 62
11
 10
860.847
 20
-3121.278
 30
2274.000
 70
    32
  0
VERTEX
  8
E30LXLIFT
 62
11
 10
846.239
 20
-3098.129
 30
2274.000
 70
    32
  0
VERTEX
  8
E30LXLIFT
 62
11
 10
834.348
 20
-3083.415
 30
2274.000
 70
    32
  0
VERTEX
  8
E30LXLIFT
 62
11
 10
800.122
 20
-3068.650
 30
2274.000
 70
    32
  0
VERTEX
  8
E30LXLIFT
 62
11
 10
790.059
 20
-3048.507
 30
2274.000
 70
    32
  0
VERTEX
  8
E30LXLIFT
 62
11
 10
776.884
 20
-3050.955
 30
2274.000
 70
    32
  0
VERTEX
  8
E30LXLIFT
 62
11
 10
656.244
 20
-3057.802
 30
2274.000
 70
    32
  0
VERTEX
  8
E30LXLIFT
 62
11
 10
639.738
 20
-3054.421
 30
2274.000
 70
    32
  0
VERTEX
  8
E30LXLIFT
 62
11
 10
628.527
 20
-3063.358
 30
2274.000
 70
    32
  0
VERTEX
  8
E30LXLIFT
 62
11
 10
616.745
 20
-3067.292
 30
2274.000
 70
    32
  0
VERTEX
  8
E30LXLIFT
 62
11
 10
599.911
 20
-3063.606
 30
2274.000
 70
    32
  0
VERTEX
  8
E30LXLIFT
 62
11
 10
562.213
 20
-3090.635
 30
2274.000
 70
    32
  0
VERTEX
  8
E30LXLIFT
 62
11
 10
548.664
 20
-3088.806
 30
2274.000
 70
    32
  0
VERTEX
  8
E30LXLIFT
 62
11
 10
540.667
 20
-3094.238
 30
2274.000
 70
    32
  0
VERTEX
  8
E30LXLIFT
 62
11
 10
534.106
 20
-3107.079
 30
2274.000
 70
    32
  0
VERTEX
  8
E30LXLIFT
 62
11
 10
530.612
 20
-3115.007
 30
2274.000
 70
    32
  0
VERTEX
  8
E30LXLIFT
 62
11
 10
521.454
 20
-3121.382
 30
2274.000
 70
    32
  0
VERTEX
  8
E30LXLIFT
 62
11
 10
487.646
 20
-3142.688
 30
2274.000
 70
    32
  0
VERTEX
  8
E30LXLIFT
 62
11
 10
444.258
 20
-3174.895
 30
2274.000
 70
    32
  0
VERTEX
  8
E30LXLIFT
 62
11
 10
366.879
 20
-3231.463
 30
2274.000
 70
    32
  0
VERTEX
  8
E30LXLIFT
 62
11
 10
326.406
 20
-3259.299
 30
2274.000
 70
    32
  0
VERTEX
  8
E30LXLIFT
 62
11
 10
328.055
 20
-3274.673
 30
2274.000
 70
    32
  0
VERTEX
  8
E30LXLIFT
 62
11
 10
328.034
 20
-3288.328
 30
2274.000
 70
    32
  0
VERTEX
  8
E30LXLIFT
 62
11
 10
335.257
 20
-3300.015
 30
2274.000
 70
    32
  0
VERTEX
  8
E30LXLIFT
 62
11
 10
342.780
 20
-3304.451
 30
2274.000
 70
    32
  0
VERTEX
  8
E30LXLIFT
 62
11
 10
387.167
 20
-3410.624
 30
2274.000
 70
    32
  0
VERTEX
  8
E30LXLIFT
 62
11
 10
399.017
 20
-3430.995
 30
2274.000
 70
    32
  0
VERTEX
  8
E30LXLIFT
 62
11
 10
429.069
 20
-3471.389
 30
2274.000
 70
    32
  0
VERTEX
  8
E30LXLIFT
 62
11
 10
438.505
 20
-3482.241
 30
2274.000
 70
    32
  0
VERTEX
  8
E30LXLIFT
 62
11
 10
452.976
 20
-3498.886
 30
2274.000
 70
    32
  0
VERTEX
  8
E30LXLIFT
 62
11
 10
554.444
 20
-3569.165
 30
2274.000
 70
    32
  0
VERTEX
  8
E30LXLIFT
 62
11
 10
592.804
 20
-3625.011
 30
2274.000
 70
    32
  0
VERTEX
  8
E30LXLIFT
 62
11
 10
622.731
 20
-3603.577
 30
2274.000
 70
    32
  0
VERTEX
  8
E30LXLIFT
 62
11
 10
631.133
 20
-3597.204
 30
2274.000
 70
    32
  0
VERTEX
  8
E30LXLIFT
 62
11
 10
637.268
 20
-3613.246
 30
2274.000
 70
    32
  0
VERTEX
  8
E30LXLIFT
 62
11
 10
649.122
 20
-3626.254
 30
2274.000
 70
    32
  0
VERTEX
  8
E30LXLIFT
 62
11
 10
658.296
 20
-3632.532
 30
2274.000
 70
    32
  0
VERTEX
  8
E30LXLIFT
 62
11
 10
677.144
 20
-3656.310
 30
2274.000
 70
    32
  0
VERTEX
  8
E30LXLIFT
 62
11
 10
683.495
 20
-3664.079
 30
2274.000
 70
    32
  0
VERTEX
  8
E30LXLIFT
 62
11
 10
695.934
 20
-3664.217
 30
2274.000
 70
    32
  0
VERTEX
  8
E30LXLIFT
 62
11
 10
711.664
 20
-3675.843
 30
2274.000
 70
    32
  0
VERTEX
  8
E30LXLIFT
 62
11
 10
718.834
 20
-3675.877
 30
2274.000
 70
    32
  0
VERTEX
  8
E30LXLIFT
 62
11
 10
744.054
 20
-3657.831
 30
2274.000
 70
    32
  0
VERTEX
  8
E30LXLIFT
 62
11
 10
749.149
 20
-3646.261
 30
2274.000
 70
    32
  0
VERTEX
  8
E30LXLIFT
 62
11
 10
761.168
 20
-3629.274
 30
2274.000
 70
    32
  0
VERTEX
  8
E30LXLIFT
 62
11
 10
751.684
 20
-3613.693
 30
2274.000
 70
    32
  0
VERTEX
  8
E30LXLIFT
 62
11
 10
751.608
 20
-3606.820
 30
2274.000
 70
    32
  0
VERTEX
  8
E30LXLIFT
 62
11
 10
745.571
 20
-3606.403
 30
2274.000
 70
    32
  0
VERTEX
  8
E30LXLIFT
 62
11
 10
741.427
 20
-3601.700
 30
2274.000
 70
    32
  0
VERTEX
  8
E30LXLIFT
 62
11
 10
729.440
 20
-3580.236
 30
2274.000
 70
    32
  0
VERTEX
  8
E30LXLIFT
 62
11
 10
722.546
 20
-3566.147
 30
2274.000
 70
    32
  0
VERTEX
  8
E30LXLIFT
 62
11
 10
714.659
 20
-3554.289
 30
2274.000
 70
    32
  0
VERTEX
  8
E30LXLIFT
 62
11
 10
700.725
 20
-3547.865
 30
2274.000
 70
    32
  0
VERTEX
  8
E30LXLIFT
 62
11
 10
682.545
 20
-3522.308
 30
2274.000
 70
    32
  0
VERTEX
  8
E30LXLIFT
 62
11
 10
700.855
 20
-3508.045
 30
2274.000
 70
    32
  0
VERTEX
  8
E30LXLIFT
 62
11
 10
701.142
 20
-3491.601
 30
2274.000
 70
    32
  0
VERTEX
  8
E30LXLIFT
 62
11
 10
693.367
 20
-3471.326
 30
2274.000
 70
    32
  0
VERTEX
  8
E30LXLIFT
 62
11
 10
687.798
 20
-3462.237
 30
2274.000
 70
    32
  0
VERTEX
  8
E30LXLIFT
 62
11
 10
694.886
 20
-3420.655
 30
2274.000
 70
    32
  0
VERTEX
  8
E30LXLIFT
 62
11
 10
715.189
 20
-3406.905
 30
2274.000
 70
    32
  0
VERTEX
  8
E30LXLIFT
 62
11
 10
744.725
 20
-3384.778
 30
2274.000
 70
    32
  0
VERTEX
  8
E30LXLIFT
 62
11
 10
839.954
 20
-3352.707
 30
2274.000
 70
    32
  0
VERTEX
  8
E30LXLIFT
 62
11
 10
845.355
 20
-3360.510
 30
2274.000
 70
    32
  0
VERTEX
  8
E30LXLIFT
 62
11
 10
859.973
 20
-3369.688
 30
2274.000
 70
    32
  0
VERTEX
  8
E30LXLIFT
 62
11
 10
868.923
 20
-3381.972
 30
2274.000
 70
    32
  0
VERTEX
  8
E30LXLIFT
 62
11
 10
911.109
 20
-3405.838
 30
2274.000
 70
    32
  0
VERTEX
  8
E30LXLIFT
 62
11
 10
917.821
 20
-3417.568
 30
2274.000
 70
    32
  0
VERTEX
  8
E30LXLIFT
 62
11
 10
948.494
 20
-3460.329
 30
2274.000
 70
    32
  0
VERTEX
  8
E30LXLIFT
 62
11
 10
966.857
 20
-3485.538
 30
2274.000
 70
    32
  0
VERTEX
  8
E30LXLIFT
 62
11
 10
977.807
 20
-3497.140
 30
2274.000
 70
    32
  0
VERTEX
  8
E30LXLIFT
 62
11
 10
990.076
 20
-3523.056
 30
2274.000
 70
    32
  0
VERTEX
  8
E30LXLIFT
 62
11
 10
1001.413
 20
-3540.009
 30
2274.000
 70
    32
  0
VERTEX
  8
E30LXLIFT
 62
11
 10
1022.778
 20
-3525.928
 30
2274.000
 70
    32
  0
SEQEND
  8
E30LXLIFT
  0
POLYLINE
  8
E30LXLIFT
 62
11
 66
     1
 70
     9
  0
VERTEX
  8
E30LXLIFT
 62
11
 10
855.631
 20
-3128.516
 30
2254.000
 70
    32
  0
VERTEX
  8
E30LXLIFT
 62
11
 10
840.536
 20
-3108.864
 30
2254.000
 70
    32
  0
VERTEX
  8
E30LXLIFT
 62
11
 10
824.265
 20
-3089.099
 30
2254.000
 70
    32
  0
VERTEX
  8
E30LXLIFT
 62
11
 10
776.229
 20
-3051.528
 30
2254.000
 70
    32
  0
VERTEX
  8
E30LXLIFT
 62
11
 10
764.224
 20
-3054.949
 30
2254.000
 70
    32
  0
VERTEX
  8
E30LXLIFT
 62
11
 10
760.101
 20
-3059.422
 30
2254.000
 70
    32
  0
VERTEX
  8
E30LXLIFT
 62
11
 10
676.301
 20
-3078.825
 30
2254.000
 70
    32
  0
VERTEX
  8
E30LXLIFT
 62
11
 10
663.695
 20
-3071.541
 30
2254.000
 70
    32
  0
VERTEX
  8
E30LXLIFT
 62
11
 10
657.067
 20
-3060.816
 30
2254.000
 70
    32
  0
VERTEX
  8
E30LXLIFT
 62
11
 10
645.119
 20
-3055.013
 30
2254.000
 70
    32
  0
VERTEX
  8
E30LXLIFT
 62
11
 10
638.443
 20
-3054.707
 30
2254.000
 70
    32
  0
VERTEX
  8
E30LXLIFT
 62
11
 10
626.039
 20
-3062.906
 30
2254.000
 70
    32
  0
VERTEX
  8
E30LXLIFT
 62
11
 10
619.004
 20
-3066.693
 30
2254.000
 70
    32
  0
VERTEX
  8
E30LXLIFT
 62
11
 10
608.890
 20
-3065.435
 30
2254.000
 70
    32
  0
VERTEX
  8
E30LXLIFT
 62
11
 10
601.399
 20
-3063.437
 30
2254.000
 70
    32
  0
VERTEX
  8
E30LXLIFT
 62
11
 10
586.047
 20
-3073.709
 30
2254.000
 70
    32
  0
VERTEX
  8
E30LXLIFT
 62
11
 10
572.421
 20
-3083.359
 30
2254.000
 70
    32
  0
VERTEX
  8
E30LXLIFT
 62
11
 10
561.917
 20
-3091.025
 30
2254.000
 70
    32
  0
VERTEX
  8
E30LXLIFT
 62
11
 10
549.633
 20
-3091.264
 30
2254.000
 70
    32
  0
VERTEX
  8
E30LXLIFT
 62
11
 10
542.892
 20
-3090.133
 30
2254.000
 70
    32
  0
VERTEX
  8
E30LXLIFT
 62
11
 10
536.333
 20
-3102.093
 30
2254.000
 70
    32
  0
VERTEX
  8
E30LXLIFT
 62
11
 10
531.997
 20
-3112.627
 30
2254.000
 70
    32
  0
VERTEX
  8
E30LXLIFT
 62
11
 10
522.806
 20
-3121.180
 30
2254.000
 70
    32
  0
VERTEX
  8
E30LXLIFT
 62
11
 10
530.614
 20
-3131.579
 30
2254.000
 70
    32
  0
VERTEX
  8
E30LXLIFT
 62
11
 10
536.852
 20
-3142.812
 30
2254.000
 70
    32
  0
VERTEX
  8
E30LXLIFT
 62
11
 10
545.209
 20
-3157.941
 30
2254.000
 70
    32
  0
VERTEX
  8
E30LXLIFT
 62
11
 10
559.275
 20
-3148.294
 30
2254.000
 70
    32
  0
VERTEX
  8
E30LXLIFT
 62
11
 10
565.320
 20
-3156.608
 30
2254.000
 70
    32
  0
VERTEX
  8
E30LXLIFT
 62
11
 10
574.466
 20
-3169.405
 30
2254.000
 70
    32
  0
VERTEX
  8
E30LXLIFT
 62
11
 10
573.771
 20
-3176.588
 30
2254.000
 70
    32
  0
VERTEX
  8
E30LXLIFT
 62
11
 10
579.846
 20
-3196.904
 30
2254.000
 70
    32
  0
VERTEX
  8
E30LXLIFT
 62
11
 10
586.307
 20
-3209.175
 30
2254.000
 70
    32
  0
VERTEX
  8
E30LXLIFT
 62
11
 10
590.574
 20
-3209.623
 30
2254.000
 70
    32
  0
VERTEX
  8
E30LXLIFT
 62
11
 10
595.684
 20
-3207.371
 30
2254.000
 70
    32
  0
VERTEX
  8
E30LXLIFT
 62
11
 10
616.392
 20
-3236.969
 30
2254.000
 70
    32
  0
VERTEX
  8
E30LXLIFT
 62
11
 10
615.285
 20
-3239.756
 30
2254.000
 70
    32
  0
VERTEX
  8
E30LXLIFT
 62
11
 10
628.274
 20
-3253.315
 30
2254.000
 70
    32
  0
VERTEX
  8
E30LXLIFT
 62
11
 10
637.231
 20
-3268.220
 30
2254.000
 70
    32
  0
VERTEX
  8
E30LXLIFT
 62
11
 10
648.961
 20
-3283.476
 30
2254.000
 70
    32
  0
VERTEX
  8
E30LXLIFT
 62
11
 10
652.890
 20
-3279.037
 30
2254.000
 70
    32
  0
VERTEX
  8
E30LXLIFT
 62
11
 10
647.990
 20
-3270.203
 30
2254.000
 70
    32
  0
VERTEX
  8
E30LXLIFT
 62
11
 10
668.706
 20
-3256.397
 30
2254.000
 70
    32
  0
VERTEX
  8
E30LXLIFT
 62
11
 10
661.430
 20
-3245.387
 30
2254.000
 70
    32
  0
VERTEX
  8
E30LXLIFT
 62
11
 10
654.608
 20
-3234.695
 30
2254.000
 70
    32
  0
VERTEX
  8
E30LXLIFT
 62
11
 10
649.677
 20
-3225.228
 30
2254.000
 70
    32
  0
VERTEX
  8
E30LXLIFT
 62
11
 10
660.869
 20
-3222.627
 30
2254.000
 70
    32
  0
VERTEX
  8
E30LXLIFT
 62
11
 10
658.254
 20
-3208.166
 30
2254.000
 70
    32
  0
VERTEX
  8
E30LXLIFT
 62
11
 10
667.947
 20
-3147.427
 30
2254.000
 70
    32
  0
VERTEX
  8
E30LXLIFT
 62
11
 10
679.146
 20
-3138.043
 30
2254.000
 70
    32
  0
VERTEX
  8
E30LXLIFT
 62
11
 10
689.202
 20
-3131.692
 30
2254.000
 70
    32
  0
VERTEX
  8
E30LXLIFT
 62
11
 10
703.782
 20
-3115.652
 30
2254.000
 70
    32
  0
VERTEX
  8
E30LXLIFT
 62
11
 10
790.652
 20
-3113.982
 30
2254.000
 70
    32
  0
VERTEX
  8
E30LXLIFT
 62
11
 10
798.071
 20
-3135.818
 30
2254.000
 70
    32
  0
VERTEX
  8
E30LXLIFT
 62
11
 10
802.389
 20
-3150.658
 30
2254.000
 70
    32
  0
VERTEX
  8
E30LXLIFT
 62
11
 10
807.475
 20
-3157.824
 30
2254.000
 70
    32
  0
VERTEX
  8
E30LXLIFT
 62
11
 10
830.591
 20
-3148.146
 30
2254.000
 70
    32
  0
VERTEX
  8
E30LXLIFT
 62
11
 10
843.550
 20
-3138.334
 30
2254.000
 70
    32
  0
SEQEND
  8
E30LXLIFT
  0
POLYLINE
  8
E30LXLIFT
 62
11
 66
     1
 70
     9
  0
VERTEX
  8
E30LXLIFT
 62
11
 10
1102.858
 20
-3576.706
 30
2249.000
 70
    32
  0
VERTEX
  8
E30LXLIFT
 62
11
 10
1095.972
 20
-3560.856
 30
2249.000
 70
    32
  0
VERTEX
  8
E30LXLIFT
 62
11
 10
1078.910
 20
-3531.206
 30
2249.000
 70
    32
  0
VERTEX
  8
E30LXLIFT
 62
11
 10
1030.865
 20
-3358.118
 30
2249.000
 70
    32
  0
VERTEX
  8
E30LXLIFT
 62
11
 10
1022.976
 20
-3346.137
 30
2249.000
 70
    32
  0
VERTEX
  8
E30LXLIFT
 62
11
 10
1007.376
 20
-3324.973
 30
2249.000
 70
    32
  0
VERTEX
  8
E30LXLIFT
 62
11
 10
995.022
 20
-3296.588
 30
2249.000
 70
    32
  0
VERTEX
  8
E30LXLIFT
 62
11
 10
969.531
 20
-3259.467
 30
2249.000
 70
    32
  0
VERTEX
  8
E30LXLIFT
 62
11
 10
976.866
 20
-3217.196
 30
2249.000
 70
    32
  0
VERTEX
  8
E30LXLIFT
 62
11
 10
962.634
 20
-3201.985
 30
2249.000
 70
    32
  0
VERTEX
  8
E30LXLIFT
 62
11
 10
946.700
 20
-3185.617
 30
2249.000
 70
    32
  0
VERTEX
  8
E30LXLIFT
 62
11
 10
901.970
 20
-3179.081
 30
2249.000
 70
    32
  0
VERTEX
  8
E30LXLIFT
 62
11
 10
886.410
 20
-3157.673
 30
2249.000
 70
    32
  0
VERTEX
  8
E30LXLIFT
 62
11
 10
875.496
 20
-3143.754
 30
2249.000
 70
    32
  0
VERTEX
  8
E30LXLIFT
 62
11
 10
855.059
 20
-3130.311
 30
2249.000
 70
    32
  0
VERTEX
  8
E30LXLIFT
 62
11
 10
840.948
 20
-3108.507
 30
2249.000
 70
    32
  0
VERTEX
  8
E30LXLIFT
 62
11
 10
823.780
 20
-3088.476
 30
2249.000
 70
    32
  0
VERTEX
  8
E30LXLIFT
 62
11
 10
776.433
 20
-3050.972
 30
2249.000
 70
    32
  0
VERTEX
  8
E30LXLIFT
 62
11
 10
764.109
 20
-3053.577
 30
2249.000
 70
    32
  0
VERTEX
  8
E30LXLIFT
 62
11
 10
648.875
 20
-3058.132
 30
2249.000
 70
    32
  0
VERTEX
  8
E30LXLIFT
 62
11
 10
632.628
 20
-3055.002
 30
2249.000
 70
    32
  0
VERTEX
  8
E30LXLIFT
 62
11
 10
615.698
 20
-3056.486
 30
2249.000
 70
    32
  0
VERTEX
  8
E30LXLIFT
 62
11
 10
605.030
 20
-3057.029
 30
2249.000
 70
    32
  0
VERTEX
  8
E30LXLIFT
 62
11
 10
533.124
 20
-3109.144
 30
2249.000
 70
    32
  0
VERTEX
  8
E30LXLIFT
 62
11
 10
487.035
 20
-3142.192
 30
2249.000
 70
    32
  0
VERTEX
  8
E30LXLIFT
 62
11
 10
466.192
 20
-3156.585
 30
2249.000
 70
    32
  0
VERTEX
  8
E30LXLIFT
 62
11
 10
366.861
 20
-3227.193
 30
2249.000
 70
    32
  0
VERTEX
  8
E30LXLIFT
 62
11
 10
336.846
 20
-3248.857
 30
2249.000
 70
    32
  0
VERTEX
  8
E30LXLIFT
 62
11
 10
340.082
 20
-3256.497
 30
2249.000
 70
    32
  0
VERTEX
  8
E30LXLIFT
 62
11
 10
341.513
 20
-3264.789
 30
2249.000
 70
    32
  0
VERTEX
  8
E30LXLIFT
 62
11
 10
351.078
 20
-3274.585
 30
2249.000
 70
    32
  0
VERTEX
  8
E30LXLIFT
 62
11
 10
357.978
 20
-3282.943
 30
2249.000
 70
    32
  0
VERTEX
  8
E30LXLIFT
 62
11
 10
360.376
 20
-3288.369
 30
2249.000
 70
    32
  0
VERTEX
  8
E30LXLIFT
 62
11
 10
433.745
 20
-3462.589
 30
2249.000
 70
    32
  0
VERTEX
  8
E30LXLIFT
 62
11
 10
444.344
 20
-3481.181
 30
2249.000
 70
    32
  0
VERTEX
  8
E30LXLIFT
 62
11
 10
454.165
 20
-3493.285
 30
2249.000
 70
    32
  0
VERTEX
  8
E30LXLIFT
 62
11
 10
461.469
 20
-3498.749
 30
2249.000
 70
    32
  0
VERTEX
  8
E30LXLIFT
 62
11
 10
473.202
 20
-3488.112
 30
2249.000
 70
    32
  0
VERTEX
  8
E30LXLIFT
 62
11
 10
480.416
 20
-3479.327
 30
2249.000
 70
    32
  0
VERTEX
  8
E30LXLIFT
 62
11
 10
533.309
 20
-3445.489
 30
2249.000
 70
    32
  0
VERTEX
  8
E30LXLIFT
 62
11
 10
557.709
 20
-3462.469
 30
2249.000
 70
    32
  0
VERTEX
  8
E30LXLIFT
 62
11
 10
568.416
 20
-3480.007
 30
2249.000
 70
    32
  0
VERTEX
  8
E30LXLIFT
 62
11
 10
585.545
 20
-3498.332
 30
2249.000
 70
    32
  0
VERTEX
  8
E30LXLIFT
 62
11
 10
596.953
 20
-3527.509
 30
2249.000
 70
    32
  0
VERTEX
  8
E30LXLIFT
 62
11
 10
595.705
 20
-3541.855
 30
2249.000
 70
    32
  0
VERTEX
  8
E30LXLIFT
 62
11
 10
599.742
 20
-3548.050
 30
2249.000
 70
    32
  0
VERTEX
  8
E30LXLIFT
 62
11
 10
614.146
 20
-3608.571
 30
2249.000
 70
    32
  0
VERTEX
  8
E30LXLIFT
 62
11
 10
612.814
 20
-3624.605
 30
2249.000
 70
    32
  0
VERTEX
  8
E30LXLIFT
 62
11
 10
620.672
 20
-3632.488
 30
2249.000
 70
    32
  0
VERTEX
  8
E30LXLIFT
 62
11
 10
632.063
 20
-3639.556
 30
2249.000
 70
    32
  0
VERTEX
  8
E30LXLIFT
 62
11
 10
638.987
 20
-3646.595
 30
2249.000
 70
    32
  0
VERTEX
  8
E30LXLIFT
 62
11
 10
651.362
 20
-3672.906
 30
2249.000
 70
    32
  0
VERTEX
  8
E30LXLIFT
 62
11
 10
661.781
 20
-3684.036
 30
2249.000
 70
    32
  0
VERTEX
  8
E30LXLIFT
 62
11
 10
668.061
 20
-3699.348
 30
2249.000
 70
    32
  0
VERTEX
  8
E30LXLIFT
 62
11
 10
679.340
 20
-3708.665
 30
2249.000
 70
    32
  0
VERTEX
  8
E30LXLIFT
 62
11
 10
723.689
 20
-3760.044
 30
2249.000
 70
    32
  0
VERTEX
  8
E30LXLIFT
 62
11
 10
728.568
 20
-3771.162
 30
2249.000
 70
    32
  0
VERTEX
  8
E30LXLIFT
 62
11
 10
731.006
 20
-3788.812
 30
2249.000
 70
    32
  0
VERTEX
  8
E30LXLIFT
 62
11
 10
736.788
 20
-3800.579
 30
2249.000
 70
    32
  0
VERTEX
  8
E30LXLIFT
 62
11
 10
745.573
 20
-3820.263
 30
2249.000
 70
    32
  0
VERTEX
  8
E30LXLIFT
 62
11
 10
774.230
 20
-3914.956
 30
2249.000
 70
    32
  0
VERTEX
  8
E30LXLIFT
 62
11
 10
782.642
 20
-3935.777
 30
2249.000
 70
    32
  0
VERTEX
  8
E30LXLIFT
 62
11
 10
798.128
 20
-3956.480
 30
2249.000
 70
    32
  0
VERTEX
  8
E30LXLIFT
 62
11
 10
808.349
 20
-3968.839
 30
2249.000
 70
    32
  0
VERTEX
  8
E30LXLIFT
 62
11
 10
812.454
 20
-3959.803
 30
2249.000
 70
    32
  0
VERTEX
  8
E30LXLIFT
 62
11
 10
810.411
 20
-3945.555
 30
2249.000
 70
    32
  0
VERTEX
  8
E30LXLIFT
 62
11
 10
800.150
 20
-3920.972
 30
2249.000
 70
    32
  0
VERTEX
  8
E30LXLIFT
 62
11
 10
791.611
 20
-3901.327
 30
2249.000
 70
    32
  0
VERTEX
  8
E30LXLIFT
 62
11
 10
802.434
 20
-3797.332
 30
2249.000
 70
    32
  0
VERTEX
  8
E30LXLIFT
 62
11
 10
801.077
 20
-3781.179
 30
2249.000
 70
    32
  0
VERTEX
  8
E30LXLIFT
 62
11
 10
796.884
 20
-3766.205
 30
2249.000
 70
    32
  0
VERTEX
  8
E30LXLIFT
 62
11
 10
793.381
 20
-3746.178
 30
2249.000
 70
    32
  0
VERTEX
  8
E30LXLIFT
 62
11
 10
786.196
 20
-3725.556
 30
2249.000
 70
    32
  0
VERTEX
  8
E30LXLIFT
 62
11
 10
786.585
 20
-3709.118
 30
2249.000
 70
    32
  0
VERTEX
  8
E30LXLIFT
 62
11
 10
775.729
 20
-3638.337
 30
2249.000
 70
    32
  0
VERTEX
  8
E30LXLIFT
 62
11
 10
762.342
 20
-3620.240
 30
2249.000
 70
    32
  0
VERTEX
  8
E30LXLIFT
 62
11
 10
751.754
 20
-3601.965
 30
2249.000
 70
    32
  0
VERTEX
  8
E30LXLIFT
 62
11
 10
749.271
 20
-3564.720
 30
2249.000
 70
    32
  0
VERTEX
  8
E30LXLIFT
 62
11
 10
746.203
 20
-3549.802
 30
2249.000
 70
    32
  0
VERTEX
  8
E30LXLIFT
 62
11
 10
740.604
 20
-3535.734
 30
2249.000
 70
    32
  0
VERTEX
  8
E30LXLIFT
 62
11
 10
728.315
 20
-3524.868
 30
2249.000
 70
    32
  0
VERTEX
  8
E30LXLIFT
 62
11
 10
710.059
 20
-3499.875
 30
2249.000
 70
    32
  0
VERTEX
  8
E30LXLIFT
 62
11
 10
764.268
 20
-3461.400
 30
2249.000
 70
    32
  0
VERTEX
  8
E30LXLIFT
 62
11
 10
782.385
 20
-3447.890
 30
2249.000
 70
    32
  0
VERTEX
  8
E30LXLIFT
 62
11
 10
790.178
 20
-3436.302
 30
2249.000
 70
    32
  0
VERTEX
  8
E30LXLIFT
 62
11
 10
869.358
 20
-3375.033
 30
2249.000
 70
    32
  0
VERTEX
  8
E30LXLIFT
 62
11
 10
941.820
 20
-3471.074
 30
2249.000
 70
    32
  0
VERTEX
  8
E30LXLIFT
 62
11
 10
949.417
 20
-3479.796
 30
2249.000
 70
    32
  0
VERTEX
  8
E30LXLIFT
 62
11
 10
954.340
 20
-3491.424
 30
2249.000
 70
    32
  0
VERTEX
  8
E30LXLIFT
 62
11
 10
958.721
 20
-3498.997
 30
2249.000
 70
    32
  0
VERTEX
  8
E30LXLIFT
 62
11
 10
962.375
 20
-3502.107
 30
2249.000
 70
    32
  0
VERTEX
  8
E30LXLIFT
 62
11
 10
985.859
 20
-3523.978
 30
2249.000
 70
    32
  0
VERTEX
  8
E30LXLIFT
 62
11
 10
1002.989
 20
-3540.350
 30
2249.000
 70
    32
  0
VERTEX
  8
E30LXLIFT
 62
11
 10
1019.779
 20
-3556.100
 30
2249.000
 70
    32
  0
VERTEX
  8
E30LXLIFT
 62
11
 10
1083.072
 20
-3568.974
 30
2249.000
 70
    32
  0
VERTEX
  8
E30LXLIFT
 62
11
 10
1095.871
 20
-3581.749
 30
2249.000
 70
    32
  0
SEQEND
  8
E30LXLIFT
  0
POLYLINE
  8
E30LXLIFT
 62
11
 66
     1
 70
     9
  0
VERTEX
  8
E30LXLIFT
 62
11
 10
565.924
 20
-3084.199
 30
2234.000
 70
    32
  0
VERTEX
  8
E30LXLIFT
 62
11
 10
593.792
 20
-3121.476
 30
2234.000
 70
    32
  0
VERTEX
  8
E30LXLIFT
 62
11
 10
596.885
 20
-3129.363
 30
2234.000
 70
    32
  0
VERTEX
  8
E30LXLIFT
 62
11
 10
563.885
 20
-3152.212
 30
2234.000
 70
    32
  0
VERTEX
  8
E30LXLIFT
 62
11
 10
574.495
 20
-3167.016
 30
2234.000
 70
    32
  0
VERTEX
  8
E30LXLIFT
 62
11
 10
572.124
 20
-3176.097
 30
2234.000
 70
    32
  0
VERTEX
  8
E30LXLIFT
 62
11
 10
577.335
 20
-3190.405
 30
2234.000
 70
    32
  0
VERTEX
  8
E30LXLIFT
 62
11
 10
581.718
 20
-3204.777
 30
2234.000
 70
    32
  0
VERTEX
  8
E30LXLIFT
 62
11
 10
589.149
 20
-3208.913
 30
2234.000
 70
    32
  0
VERTEX
  8
E30LXLIFT
 62
11
 10
597.858
 20
-3206.636
 30
2234.000
 70
    32
  0
VERTEX
  8
E30LXLIFT
 62
11
 10
612.050
 20
-3227.326
 30
2234.000
 70
    32
  0
VERTEX
  8
E30LXLIFT
 62
11
 10
622.587
 20
-3220.416
 30
2234.000
 70
    32
  0
VERTEX
  8
E30LXLIFT
 62
11
 10
625.564
 20
-3224.890
 30
2234.000
 70
    32
  0
VERTEX
  8
E30LXLIFT
 62
11
 10
634.778
 20
-3218.410
 30
2234.000
 70
    32
  0
VERTEX
  8
E30LXLIFT
 62
11
 10
631.789
 20
-3213.180
 30
2234.000
 70
    32
  0
VERTEX
  8
E30LXLIFT
 62
11
 10
636.851
 20
-3209.222
 30
2234.000
 70
    32
  0
VERTEX
  8
E30LXLIFT
 62
11
 10
625.629
 20
-3193.885
 30
2234.000
 70
    32
  0
VERTEX
  8
E30LXLIFT
 62
11
 10
629.118
 20
-3190.761
 30
2234.000
 70
    32
  0
VERTEX
  8
E30LXLIFT
 62
11
 10
626.335
 20
-3186.254
 30
2234.000
 70
    32
  0
VERTEX
  8
E30LXLIFT
 62
11
 10
665.086
 20
-3154.015
 30
2234.000
 70
    32
  0
VERTEX
  8
E30LXLIFT
 62
11
 10
680.152
 20
-3146.276
 30
2234.000
 70
    32
  0
VERTEX
  8
E30LXLIFT
 62
11
 10
684.970
 20
-3127.183
 30
2234.000
 70
    32
  0
VERTEX
  8
E30LXLIFT
 62
11
 10
683.602
 20
-3112.006
 30
2234.000
 70
    32
  0
VERTEX
  8
E30LXLIFT
 62
11
 10
677.278
 20
-3105.520
 30
2234.000
 70
    32
  0
VERTEX
  8
E30LXLIFT
 62
11
 10
671.235
 20
-3101.781
 30
2234.000
 70
    32
  0
VERTEX
  8
E30LXLIFT
 62
11
 10
673.226
 20
-3096.481
 30
2234.000
 70
    32
  0
VERTEX
  8
E30LXLIFT
 62
11
 10
670.748
 20
-3091.202
 30
2234.000
 70
    32
  0
VERTEX
  8
E30LXLIFT
 62
11
 10
667.156
 20
-3086.636
 30
2234.000
 70
    32
  0
VERTEX
  8
E30LXLIFT
 62
11
 10
654.063
 20
-3079.574
 30
2234.000
 70
    32
  0
VERTEX
  8
E30LXLIFT
 62
11
 10
642.043
 20
-3069.967
 30
2234.000
 70
    32
  0
VERTEX
  8
E30LXLIFT
 62
11
 10
629.966
 20
-3058.654
 30
2234.000
 70
    32
  0
VERTEX
  8
E30LXLIFT
 62
11
 10
608.784
 20
-3055.597
 30
2234.000
 70
    32
  0
SEQEND
  8
E30LXLIFT
  0
POLYLINE
  8
E30LXLIFT
 62
11
 66
     1
 70
     9
  0
VERTEX
  8
E30LXLIFT
 62
11
 10
686.910
 20
-3244.593
 30
2214.000
 70
    32
  0
VERTEX
  8
E30LXLIFT
 62
11
 10
689.377
 20
-3232.597
 30
2214.000
 70
    32
  0
VERTEX
  8
E30LXLIFT
 62
11
 10
696.075
 20
-3217.311
 30
2214.000
 70
    32
  0
VERTEX
  8
E30LXLIFT
 62
11
 10
694.093
 20
-3204.421
 30
2214.000
 70
    32
  0
VERTEX
  8
E30LXLIFT
 62
11
 10
684.441
 20
-3189.939
 30
2214.000
 70
    32
  0
VERTEX
  8
E30LXLIFT
 62
11
 10
709.496
 20
-3128.642
 30
2214.000
 70
    32
  0
VERTEX
  8
E30LXLIFT
 62
11
 10
695.879
 20
-3113.784
 30
2214.000
 70
    32
  0
VERTEX
  8
E30LXLIFT
 62
11
 10
681.430
 20
-3098.227
 30
2214.000
 70
    32
  0
VERTEX
  8
E30LXLIFT
 62
11
 10
669.775
 20
-3087.263
 30
2214.000
 70
    32
  0
VERTEX
  8
E30LXLIFT
 62
11
 10
651.512
 20
-3078.710
 30
2214.000
 70
    32
  0
VERTEX
  8
E30LXLIFT
 62
11
 10
642.574
 20
-3069.246
 30
2214.000
 70
    32
  0
VERTEX
  8
E30LXLIFT
 62
11
 10
623.108
 20
-3065.910
 30
2214.000
 70
    32
  0
VERTEX
  8
E30LXLIFT
 62
11
 10
617.183
 20
-3071.951
 30
2214.000
 70
    32
  0
VERTEX
  8
E30LXLIFT
 62
11
 10
609.517
 20
-3074.697
 30
2214.000
 70
    32
  0
VERTEX
  8
E30LXLIFT
 62
11
 10
606.654
 20
-3080.468
 30
2214.000
 70
    32
  0
VERTEX
  8
E30LXLIFT
 62
11
 10
593.621
 20
-3084.942
 30
2214.000
 70
    32
  0
VERTEX
  8
E30LXLIFT
 62
11
 10
585.915
 20
-3089.129
 30
2214.000
 70
    32
  0
VERTEX
  8
E30LXLIFT
 62
11
 10
577.074
 20
-3103.259
 30
2214.000
 70
    32
  0
VERTEX
  8
E30LXLIFT
 62
11
 10
569.080
 20
-3116.014
 30
2214.000
 70
    32
  0
VERTEX
  8
E30LXLIFT
 62
11
 10
563.182
 20
-3121.493
 30
2214.000
 70
    32
  0
VERTEX
  8
E30LXLIFT
 62
11
 10
566.975
 20
-3127.312
 30
2214.000
 70
    32
  0
VERTEX
  8
E30LXLIFT
 62
11
 10
573.532
 20
-3146.649
 30
2214.000
 70
    32
  0
VERTEX
  8
E30LXLIFT
 62
11
 10
574.594
 20
-3163.354
 30
2214.000
 70
    32
  0
VERTEX
  8
E30LXLIFT
 62
11
 10
586.672
 20
-3181.175
 30
2214.000
 70
    32
  0
VERTEX
  8
E30LXLIFT
 62
11
 10
579.095
 20
-3223.046
 30
2214.000
 70
    32
  0
VERTEX
  8
E30LXLIFT
 62
11
 10
569.374
 20
-3228.045
 30
2214.000
 70
    32
  0
VERTEX
  8
E30LXLIFT
 62
11
 10
564.527
 20
-3224.510
 30
2214.000
 70
    32
  0
VERTEX
  8
E30LXLIFT
 62
11
 10
561.691
 20
-3227.330
 30
2214.000
 70
    32
  0
VERTEX
  8
E30LXLIFT
 62
11
 10
567.251
 20
-3237.077
 30
2214.000
 70
    32
  0
VERTEX
  8
E30LXLIFT
 62
11
 10
563.144
 20
-3239.193
 30
2214.000
 70
    32
  0
VERTEX
  8
E30LXLIFT
 62
11
 10
566.536
 20
-3245.955
 30
2214.000
 70
    32
  0
VERTEX
  8
E30LXLIFT
 62
11
 10
562.124
 20
-3249.595
 30
2214.000
 70
    32
  0
VERTEX
  8
E30LXLIFT
 62
11
 10
565.660
 20
-3255.059
 30
2214.000
 70
    32
  0
VERTEX
  8
E30LXLIFT
 62
11
 10
554.634
 20
-3261.549
 30
2214.000
 70
    32
  0
VERTEX
  8
E30LXLIFT
 62
11
 10
562.055
 20
-3270.270
 30
2214.000
 70
    32
  0
VERTEX
  8
E30LXLIFT
 62
11
 10
567.351
 20
-3267.400
 30
2214.000
 70
    32
  0
VERTEX
  8
E30LXLIFT
 62
11
 10
570.525
 20
-3272.367
 30
2214.000
 70
    32
  0
VERTEX
  8
E30LXLIFT
 62
11
 10
591.034
 20
-3258.011
 30
2214.000
 70
    32
  0
VERTEX
  8
E30LXLIFT
 62
11
 10
605.937
 20
-3246.099
 30
2214.000
 70
    32
  0
VERTEX
  8
E30LXLIFT
 62
11
 10
615.220
 20
-3238.704
 30
2214.000
 70
    32
  0
VERTEX
  8
E30LXLIFT
 62
11
 10
632.494
 20
-3248.735
 30
2214.000
 70
    32
  0
VERTEX
  8
E30LXLIFT
 62
11
 10
642.776
 20
-3257.658
 30
2214.000
 70
    32
  0
VERTEX
  8
E30LXLIFT
 62
11
 10
652.468
 20
-3269.506
 30
2214.000
 70
    32
  0
VERTEX
  8
E30LXLIFT
 62
11
 10
665.478
 20
-3259.620
 30
2214.000
 70
    32
  0
SEQEND
  8
E30LXLIFT
  0
POLYLINE
  8
E30LXLIFT
 62
11
 66
     1
 70
     9
  0
VERTEX
  8
E30LXLIFT
 62
11
 10
1254.850
 20
-3758.874
 30
2199.000
 70
    32
  0
VERTEX
  8
E30LXLIFT
 62
11
 10
1244.131
 20
-3742.415
 30
2199.000
 70
    32
  0
VERTEX
  8
E30LXLIFT
 62
11
 10
1229.467
 20
-3723.391
 30
2199.000
 70
    32
  0
VERTEX
  8
E30LXLIFT
 62
11
 10
1216.115
 20
-3703.628
 30
2199.000
 70
    32
  0
VERTEX
  8
E30LXLIFT
 62
11
 10
1210.153
 20
-3686.524
 30
2199.000
 70
    32
  0
VERTEX
  8
E30LXLIFT
 62
11
 10
1199.431
 20
-3671.701
 30
2199.000
 70
    32
  0
VERTEX
  8
E30LXLIFT
 62
11
 10
1186.518
 20
-3660.440
 30
2199.000
 70
    32
  0
VERTEX
  8
E30LXLIFT
 62
11
 10
1147.578
 20
-3652.619
 30
2199.000
 70
    32
  0
VERTEX
  8
E30LXLIFT
 62
11
 10
1129.553
 20
-3622.436
 30
2199.000
 70
    32
  0
VERTEX
  8
E30LXLIFT
 62
11
 10
1113.973
 20
-3580.988
 30
2199.000
 70
    32
  0
VERTEX
  8
E30LXLIFT
 62
11
 10
1099.293
 20
-3554.787
 30
2199.000
 70
    32
  0
VERTEX
  8
E30LXLIFT
 62
11
 10
1091.395
 20
-3542.040
 30
2199.000
 70
    32
  0
VERTEX
  8
E30LXLIFT
 62
11
 10
1106.059
 20
-3532.740
 30
2199.000
 70
    32
  0
VERTEX
  8
E30LXLIFT
 62
11
 10
1097.093
 20
-3522.408
 30
2199.000
 70
    32
  0
VERTEX
  8
E30LXLIFT
 62
11
 10
1108.944
 20
-3515.818
 30
2199.000
 70
    32
  0
VERTEX
  8
E30LXLIFT
 62
11
 10
1101.512
 20
-3506.542
 30
2199.000
 70
    32
  0
VERTEX
  8
E30LXLIFT
 62
11
 10
1110.488
 20
-3492.140
 30
2199.000
 70
    32
  0
VERTEX
  8
E30LXLIFT
 62
11
 10
1099.451
 20
-3472.863
 30
2199.000
 70
    32
  0
VERTEX
  8
E30LXLIFT
 62
11
 10
1086.845
 20
-3453.970
 30
2199.000
 70
    32
  0
VERTEX
  8
E30LXLIFT
 62
11
 10
1079.679
 20
-3424.784
 30
2199.000
 70
    32
  0
VERTEX
  8
E30LXLIFT
 62
11
 10
1067.984
 20
-3411.761
 30
2199.000
 70
    32
  0
VERTEX
  8
E30LXLIFT
 62
11
 10
1058.160
 20
-3396.826
 30
2199.000
 70
    32
  0
VERTEX
  8
E30LXLIFT
 62
11
 10
1053.504
 20
-3385.087
 30
2199.000
 70
    32
  0
VERTEX
  8
E30LXLIFT
 62
11
 10
1031.127
 20
-3352.527
 30
2199.000
 70
    32
  0
VERTEX
  8
E30LXLIFT
 62
11
 10
1022.361
 20
-3336.057
 30
2199.000
 70
    32
  0
VERTEX
  8
E30LXLIFT
 62
11
 10
1037.793
 20
-3328.702
 30
2199.000
 70
    32
  0
VERTEX
  8
E30LXLIFT
 62
11
 10
1043.302
 20
-3325.657
 30
2199.000
 70
    32
  0
VERTEX
  8
E30LXLIFT
 62
11
 10
1036.206
 20
-3310.580
 30
2199.000
 70
    32
  0
VERTEX
  8
E30LXLIFT
 62
11
 10
1057.794
 20
-3323.129
 30
2199.000
 70
    32
  0
VERTEX
  8
E30LXLIFT
 62
11
 10
1076.748
 20
-3335.204
 30
2199.000
 70
    32
  0
VERTEX
  8
E30LXLIFT
 62
11
 10
1086.569
 20
-3346.110
 30
2199.000
 70
    32
  0
VERTEX
  8
E30LXLIFT
 62
11
 10
1088.714
 20
-3344.870
 30
2199.000
 70
    32
  0
VERTEX
  8
E30LXLIFT
 62
11
 10
1106.630
 20
-3361.190
 30
2199.000
 70
    32
  0
VERTEX
  8
E30LXLIFT
 62
11
 10
1121.067
 20
-3377.220
 30
2199.000
 70
    32
  0
VERTEX
  8
E30LXLIFT
 62
11
 10
1134.859
 20
-3394.157
 30
2199.000
 70
    32
  0
VERTEX
  8
E30LXLIFT
 62
11
 10
1139.232
 20
-3389.110
 30
2199.000
 70
    32
  0
VERTEX
  8
E30LXLIFT
 62
11
 10
1126.210
 20
-3372.482
 30
2199.000
 70
    32
  0
VERTEX
  8
E30LXLIFT
 62
11
 10
1107.543
 20
-3352.898
 30
2199.000
 70
    32
  0
VERTEX
  8
E30LXLIFT
 62
11
 10
1092.243
 20
-3329.873
 30
2199.000
 70
    32
  0
VERTEX
  8
E30LXLIFT
 62
11
 10
1065.900
 20
-3310.669
 30
2199.000
 70
    32
  0
VERTEX
  8
E30LXLIFT
 62
11
 10
1040.817
 20
-3296.318
 30
2199.000
 70
    32
  0
VERTEX
  8
E30LXLIFT
 62
11
 10
1015.982
 20
-3280.369
 30
2199.000
 70
    32
  0
VERTEX
  8
E30LXLIFT
 62
11
 10
999.549
 20
-3270.700
 30
2199.000
 70
    32
  0
VERTEX
  8
E30LXLIFT
 62
11
 10
979.182
 20
-3254.754
 30
2199.000
 70
    32
  0
VERTEX
  8
E30LXLIFT
 62
11
 10
960.996
 20
-3216.300
 30
2199.000
 70
    32
  0
VERTEX
  8
E30LXLIFT
 62
11
 10
947.851
 20
-3196.821
 30
2199.000
 70
    32
  0
VERTEX
  8
E30LXLIFT
 62
11
 10
916.085
 20
-3172.430
 30
2199.000
 70
    32
  0
VERTEX
  8
E30LXLIFT
 62
11
 10
908.045
 20
-3151.289
 30
2199.000
 70
    32
  0
VERTEX
  8
E30LXLIFT
 62
11
 10
890.707
 20
-3133.675
 30
2199.000
 70
    32
  0
VERTEX
  8
E30LXLIFT
 62
11
 10
858.967
 20
-3135.408
 30
2199.000
 70
    32
  0
VERTEX
  8
E30LXLIFT
 62
11
 10
649.900
 20
-3077.829
 30
2199.000
 70
    32
  0
VERTEX
  8
E30LXLIFT
 62
11
 10
642.053
 20
-3067.986
 30
2199.000
 70
    32
  0
VERTEX
  8
E30LXLIFT
 62
11
 10
621.593
 20
-3062.348
 30
2199.000
 70
    32
  0
VERTEX
  8
E30LXLIFT
 62
11
 10
617.515
 20
-3071.972
 30
2199.000
 70
    32
  0
VERTEX
  8
E30LXLIFT
 62
11
 10
610.622
 20
-3071.781
 30
2199.000
 70
    32
  0
VERTEX
  8
E30LXLIFT
 62
11
 10
606.170
 20
-3078.956
 30
2199.000
 70
    32
  0
VERTEX
  8
E30LXLIFT
 62
11
 10
595.793
 20
-3082.943
 30
2199.000
 70
    32
  0
VERTEX
  8
E30LXLIFT
 62
11
 10
586.821
 20
-3090.044
 30
2199.000
 70
    32
  0
VERTEX
  8
E30LXLIFT
 62
11
 10
575.936
 20
-3103.771
 30
2199.000
 70
    32
  0
VERTEX
  8
E30LXLIFT
 62
11
 10
566.224
 20
-3118.058
 30
2199.000
 70
    32
  0
VERTEX
  8
E30LXLIFT
 62
11
 10
570.782
 20
-3126.383
 30
2199.000
 70
    32
  0
VERTEX
  8
E30LXLIFT
 62
11
 10
579.076
 20
-3131.324
 30
2199.000
 70
    32
  0
VERTEX
  8
E30LXLIFT
 62
11
 10
627.881
 20
-3229.867
 30
2199.000
 70
    32
  0
VERTEX
  8
E30LXLIFT
 62
11
 10
576.919
 20
-3276.255
 30
2199.000
 70
    32
  0
VERTEX
  8
E30LXLIFT
 62
11
 10
572.533
 20
-3286.650
 30
2199.000
 70
    32
  0
VERTEX
  8
E30LXLIFT
 62
11
 10
568.897
 20
-3300.309
 30
2199.000
 70
    32
  0
VERTEX
  8
E30LXLIFT
 62
11
 10
575.536
 20
-3316.700
 30
2199.000
 70
    32
  0
VERTEX
  8
E30LXLIFT
 62
11
 10
483.948
 20
-3424.366
 30
2199.000
 70
    32
  0
VERTEX
  8
E30LXLIFT
 62
11
 10
453.704
 20
-3444.396
 30
2199.000
 70
    32
  0
VERTEX
  8
E30LXLIFT
 62
11
 10
459.904
 20
-3457.948
 30
2199.000
 70
    32
  0
VERTEX
  8
E30LXLIFT
 62
11
 10
461.785
 20
-3472.151
 30
2199.000
 70
    32
  0
VERTEX
  8
E30LXLIFT
 62
11
 10
471.183
 20
-3490.229
 30
2199.000
 70
    32
  0
VERTEX
  8
E30LXLIFT
 62
11
 10
534.174
 20
-3571.216
 30
2199.000
 70
    32
  0
VERTEX
  8
E30LXLIFT
 62
11
 10
542.892
 20
-3585.979
 30
2199.000
 70
    32
  0
VERTEX
  8
E30LXLIFT
 62
11
 10
549.097
 20
-3587.762
 30
2199.000
 70
    32
  0
VERTEX
  8
E30LXLIFT
 62
11
 10
570.619
 20
-3591.426
 30
2199.000
 70
    32
  0
VERTEX
  8
E30LXLIFT
 62
11
 10
584.661
 20
-3589.771
 30
2199.000
 70
    32
  0
VERTEX
  8
E30LXLIFT
 62
11
 10
621.633
 20
-3617.112
 30
2199.000
 70
    32
  0
VERTEX
  8
E30LXLIFT
 62
11
 10
627.925
 20
-3634.519
 30
2199.000
 70
    32
  0
VERTEX
  8
E30LXLIFT
 62
11
 10
635.957
 20
-3643.573
 30
2199.000
 70
    32
  0
VERTEX
  8
E30LXLIFT
 62
11
 10
652.051
 20
-3780.833
 30
2199.000
 70
    32
  0
VERTEX
  8
E30LXLIFT
 62
11
 10
645.883
 20
-3792.965
 30
2199.000
 70
    32
  0
VERTEX
  8
E30LXLIFT
 62
11
 10
645.380
 20
-3810.762
 30
2199.000
 70
    32
  0
VERTEX
  8
E30LXLIFT
 62
11
 10
649.870
 20
-3823.167
 30
2199.000
 70
    32
  0
VERTEX
  8
E30LXLIFT
 62
11
 10
666.702
 20
-3829.059
 30
2199.000
 70
    32
  0
VERTEX
  8
E30LXLIFT
 62
11
 10
670.373
 20
-3825.287
 30
2199.000
 70
    32
  0
VERTEX
  8
E30LXLIFT
 62
11
 10
675.385
 20
-3825.438
 30
2199.000
 70
    32
  0
VERTEX
  8
E30LXLIFT
 62
11
 10
679.375
 20
-3828.513
 30
2199.000
 70
    32
  0
VERTEX
  8
E30LXLIFT
 62
11
 10
818.746
 20
-3919.810
 30
2199.000
 70
    32
  0
VERTEX
  8
E30LXLIFT
 62
11
 10
827.848
 20
-3938.975
 30
2199.000
 70
    32
  0
VERTEX
  8
E30LXLIFT
 62
11
 10
839.690
 20
-3957.119
 30
2199.000
 70
    32
  0
VERTEX
  8
E30LXLIFT
 62
11
 10
848.616
 20
-3966.502
 30
2199.000
 70
    32
  0
VERTEX
  8
E30LXLIFT
 62
11
 10
859.972
 20
-3967.136
 30
2199.000
 70
    32
  0
VERTEX
  8
E30LXLIFT
 62
11
 10
858.561
 20
-3954.769
 30
2199.000
 70
    32
  0
VERTEX
  8
E30LXLIFT
 62
11
 10
847.194
 20
-3938.020
 30
2199.000
 70
    32
  0
VERTEX
  8
E30LXLIFT
 62
11
 10
842.617
 20
-3921.321
 30
2199.000
 70
    32
  0
VERTEX
  8
E30LXLIFT
 62
11
 10
833.784
 20
-3912.960
 30
2199.000
 70
    32
  0
VERTEX
  8
E30LXLIFT
 62
11
 10
775.759
 20
-3725.622
 30
2199.000
 70
    32
  0
VERTEX
  8
E30LXLIFT
 62
11
 10
782.727
 20
-3715.628
 30
2199.000
 70
    32
  0
VERTEX
  8
E30LXLIFT
 62
11
 10
785.622
 20
-3706.323
 30
2199.000
 70
    32
  0
VERTEX
  8
E30LXLIFT
 62
11
 10
770.727
 20
-3684.746
 30
2199.000
 70
    32
  0
VERTEX
  8
E30LXLIFT
 62
11
 10
794.343
 20
-3624.787
 30
2199.000
 70
    32
  0
VERTEX
  8
E30LXLIFT
 62
11
 10
790.946
 20
-3615.069
 30
2199.000
 70
    32
  0
VERTEX
  8
E30LXLIFT
 62
11
 10
793.951
 20
-3608.298
 30
2199.000
 70
    32
  0
VERTEX
  8
E30LXLIFT
 62
11
 10
799.214
 20
-3599.550
 30
2199.000
 70
    32
  0
VERTEX
  8
E30LXLIFT
 62
11
 10
796.049
 20
-3592.386
 30
2199.000
 70
    32
  0
VERTEX
  8
E30LXLIFT
 62
11
 10
787.598
 20
-3590.064
 30
2199.000
 70
    32
  0
VERTEX
  8
E30LXLIFT
 62
11
 10
783.010
 20
-3579.909
 30
2199.000
 70
    32
  0
VERTEX
  8
E30LXLIFT
 62
11
 10
767.803
 20
-3552.241
 30
2199.000
 70
    32
  0
VERTEX
  8
E30LXLIFT
 62
11
 10
816.784
 20
-3516.559
 30
2199.000
 70
    32
  0
VERTEX
  8
E30LXLIFT
 62
11
 10
844.346
 20
-3497.182
 30
2199.000
 70
    32
  0
VERTEX
  8
E30LXLIFT
 62
11
 10
933.102
 20
-3470.017
 30
2199.000
 70
    32
  0
VERTEX
  8
E30LXLIFT
 62
11
 10
939.033
 20
-3485.290
 30
2199.000
 70
    32
  0
VERTEX
  8
E30LXLIFT
 62
11
 10
952.086
 20
-3500.916
 30
2199.000
 70
    32
  0
VERTEX
  8
E30LXLIFT
 62
11
 10
964.232
 20
-3493.239
 30
2199.000
 70
    32
  0
VERTEX
  8
E30LXLIFT
 62
11
 10
973.723
 20
-3501.010
 30
2199.000
 70
    32
  0
VERTEX
  8
E30LXLIFT
 62
11
 10
992.032
 20
-3522.489
 30
2199.000
 70
    32
  0
VERTEX
  8
E30LXLIFT
 62
11
 10
1010.489
 20
-3543.425
 30
2199.000
 70
    32
  0
VERTEX
  8
E30LXLIFT
 62
11
 10
1020.575
 20
-3557.078
 30
2199.000
 70
    32
  0
VERTEX
  8
E30LXLIFT
 62
11
 10
1049.351
 20
-3574.396
 30
2199.000
 70
    32
  0
VERTEX
  8
E30LXLIFT
 62
11
 10
1062.808
 20
-3594.301
 30
2199.000
 70
    32
  0
VERTEX
  8
E30LXLIFT
 62
11
 10
1074.317
 20
-3610.946
 30
2199.000
 70
    32
  0
VERTEX
  8
E30LXLIFT
 62
11
 10
1096.149
 20
-3634.862
 30
2199.000
 70
    32
  0
VERTEX
  8
E30LXLIFT
 62
11
 10
1115.290
 20
-3651.812
 30
2199.000
 70
    32
  0
VERTEX
  8
E30LXLIFT
 62
11
 10
1130.540
 20
-3664.633
 30
2199.000
 70
    32
  0
VERTEX
  8
E30LXLIFT
 62
11
 10
1167.920
 20
-3677.625
 30
2199.000
 70
    32
  0
VERTEX
  8
E30LXLIFT
 62
11
 10
1187.538
 20
-3694.335
 30
2199.000
 70
    32
  0
VERTEX
  8
E30LXLIFT
 62
11
 10
1200.009
 20
-3707.227
 30
2199.000
 70
    32
  0
VERTEX
  8
E30LXLIFT
 62
11
 10
1222.246
 20
-3732.590
 30
2199.000
 70
    32
  0
VERTEX
  8
E30LXLIFT
 62
11
 10
1247.145
 20
-3768.753
 30
2199.000
 70
    32
  0
SEQEND
  8
E30LXLIFT
  0
POLYLINE
  8
E30LXLIFT
 62
7
 66
     1
 70
     9
  0
VERTEX
  8
E30LXLIFT
 62
7
 10
517.854
 20
-3205.233
 30
2252.000
 70
    32
  0
VERTEX
  8
E30LXLIFT
 62
7
 10
528.194
 20
-3202.020
 30
2252.000
 70
    32
  0
VERTEX
  8
E30LXLIFT
 62
7
 10
534.000
 20
-3204.983
 30
2252.000
 70
    32
  0
VERTEX
  8
E30LXLIFT
 62
7
 10
543.453
 20
-3202.190
 30
2252.000
 70
    32
  0
VERTEX
  8
E30LXLIFT
 62
7
 10
553.615
 20
-3193.915
 30
2252.000
 70
    32
  0
VERTEX
  8
E30LXLIFT
 62
7
 10
564.099
 20
-3187.894
 30
2252.000
 70
    32
  0
VERTEX
  8
E30LXLIFT
 62
7
 10
574.163
 20
-3180.986
 30
2252.000
 70
    32
  0
VERTEX
  8
E30LXLIFT
 62
7
 10
577.468
 20
-3176.558
 30
2252.000
 70
    32
  0
VERTEX
  8
E30LXLIFT
 62
7
 10
570.152
 20
-3170.139
 30
2252.000
 70
    32
  0
VERTEX
  8
E30LXLIFT
 62
7
 10
561.479
 20
-3167.398
 30
2252.000
 70
    32
  0
VERTEX
  8
E30LXLIFT
 62
7
 10
550.641
 20
-3164.050
 30
2252.000
 70
    32
  0
VERTEX
  8
E30LXLIFT
 62
7
 10
545.415
 20
-3163.698
 30
2252.000
 70
    32
  0
VERTEX
  8
E30LXLIFT
 62
7
 10
533.254
 20
-3169.193
 30
2252.000
 70
    32
  0
VERTEX
  8
E30LXLIFT
 62
7
 10
521.841
 20
-3175.124
 30
2252.000
 70
    32
  0
VERTEX
  8
E30LXLIFT
 62
7
 10
512.378
 20
-3181.816
 30
2252.000
 70
    32
  0
VERTEX
  8
E30LXLIFT
 62
7
 10
505.578
 20
-3188.000
 30
2252.000
 70
    32
  0
VERTEX
  8
E30LXLIFT
 62
7
 10
512.167
 20
-3197.319
 30
2252.000
 70
    32
  0
SEQEND
  8
E30LXLIFT
  0
POLYLINE
  8
E30LXLIFT
 62
7
 66
     1
 70
     9
  0
VERTEX
  8
E30LXLIFT
 62
7
 10
584.166
 20
-3548.106
 30
2282.000
 70
    32
  0
VERTEX
  8
E30LXLIFT
 62
7
 10
622.163
 20
-3602.843
 30
2282.000
 70
    32
  0
VERTEX
  8
E30LXLIFT
 62
7
 10
592.477
 20
-3624.105
 30
2282.000
 70
    32
  0
VERTEX
  8
E30LXLIFT
 62
7
 10
554.346
 20
-3569.033
 30
2282.000
 70
    32
  0
SEQEND
  8
E30LXLIFT
  0
POLYLINE
  8
E30LXLIFT
 62
7
 66
     1
 70
     9
  0
VERTEX
  8
E30LXLIFT
 62
7
 10
859.592
 20
-3956.644
 30
2201.000
 70
    32
  0
VERTEX
  8
E30LXLIFT
 62
7
 10
861.123
 20
-3963.127
 30
2201.000
 70
    32
  0
VERTEX
  8
E30LXLIFT
 62
7
 10
858.931
 20
-3966.550
 30
2201.000
 70
    32
  0
VERTEX
  8
E30LXLIFT
 62
7
 10
851.288
 20
-3967.075
 30
2201.000
 70
    32
  0
VERTEX
  8
E30LXLIFT
 62
7
 10
846.677
 20
-3964.438
 30
2201.000
 70
    32
  0
VERTEX
  8
E30LXLIFT
 62
7
 10
837.665
 20
-3953.593
 30
2201.000
 70
    32
  0
VERTEX
  8
E30LXLIFT
 62
7
 10
831.629
 20
-3945.372
 30
2201.000
 70
    32
  0
VERTEX
  8
E30LXLIFT
 62
7
 10
826.066
 20
-3935.401
 30
2201.000
 70
    32
  0
VERTEX
  8
E30LXLIFT
 62
7
 10
821.267
 20
-3924.987
 30
2201.000
 70
    32
  0
VERTEX
  8
E30LXLIFT
 62
7
 10
818.781
 20
-3919.734
 30
2201.000
 70
    32
  0
VERTEX
  8
E30LXLIFT
 62
7
 10
820.635
 20
-3913.737
 30
2201.000
 70
    32
  0
VERTEX
  8
E30LXLIFT
 62
7
 10
827.515
 20
-3911.703
 30
2201.000
 70
    32
  0
VERTEX
  8
E30LXLIFT
 62
7
 10
836.378
 20
-3914.526
 30
2201.000
 70
    32
  0
VERTEX
  8
E30LXLIFT
 62
7
 10
841.233
 20
-3919.154
 30
2201.000
 70
    32
  0
VERTEX
  8
E30LXLIFT
 62
7
 10
843.932
 20
-3926.205
 30
2201.000
 70
    32
  0
VERTEX
  8
E30LXLIFT
 62
7
 10
846.019
 20
-3935.864
 30
2201.000
 70
    32
  0
VERTEX
  8
E30LXLIFT
 62
7
 10
849.603
 20
-3944.444
 30
2201.000
 70
    32
  0
VERTEX
  8
E30LXLIFT
 62
7
 10
856.407
 20
-3952.978
 30
2201.000
 70
    32
  0
SEQEND
  8
E30LXLIFT
  0
POLYLINE
  8
E30LXLIFT
 62
11
 66
     1
 70
     9
  0
VERTEX
  8
E30LXLIFT
 62
11
 10
779.275
 20
-3694.572
 30
2236.000
 70
    32
  0
VERTEX
  8
E30LXLIFT
 62
11
 10
792.683
 20
-3714.200
 30
2236.000
 70
    32
  0
VERTEX
  8
E30LXLIFT
 62
11
 10
802.315
 20
-3725.461
 30
2236.000
 70
    32
  0
VERTEX
  8
E30LXLIFT
 62
11
 10
805.701
 20
-3741.445
 30
2236.000
 70
    32
  0
VERTEX
  8
E30LXLIFT
 62
11
 10
791.096
 20
-3753.657
 30
2236.000
 70
    32
  0
VERTEX
  8
E30LXLIFT
 62
11
 10
790.790
 20
-3761.978
 30
2236.000
 70
    32
  0
VERTEX
  8
E30LXLIFT
 62
11
 10
781.475
 20
-3765.360
 30
2236.000
 70
    32
  0
VERTEX
  8
E30LXLIFT
 62
11
 10
774.331
 20
-3755.542
 30
2236.000
 70
    32
  0
VERTEX
  8
E30LXLIFT
 62
11
 10
767.927
 20
-3740.803
 30
2236.000
 70
    32
  0
VERTEX
  8
E30LXLIFT
 62
11
 10
762.524
 20
-3731.122
 30
2236.000
 70
    32
  0
VERTEX
  8
E30LXLIFT
 62
11
 10
752.841
 20
-3729.415
 30
2236.000
 70
    32
  0
VERTEX
  8
E30LXLIFT
 62
11
 10
748.490
 20
-3734.927
 30
2236.000
 70
    32
  0
VERTEX
  8
E30LXLIFT
 62
11
 10
746.421
 20
-3743.675
 30
2236.000
 70
    32
  0
VERTEX
  8
E30LXLIFT
 62
11
 10
741.758
 20
-3755.871
 30
2236.000
 70
    32
  0
VERTEX
  8
E30LXLIFT
 62
11
 10
745.418
 20
-3772.965
 30
2236.000
 70
    32
  0
VERTEX
  8
E30LXLIFT
 62
11
 10
748.593
 20
-3781.558
 30
2236.000
 70
    32
  0
VERTEX
  8
E30LXLIFT
 62
11
 10
750.702
 20
-3786.781
 30
2236.000
 70
    32
  0
VERTEX
  8
E30LXLIFT
 62
11
 10
756.783
 20
-3792.790
 30
2236.000
 70
    32
  0
VERTEX
  8
E30LXLIFT
 62
11
 10
760.035
 20
-3800.451
 30
2236.000
 70
    32
  0
VERTEX
  8
E30LXLIFT
 62
11
 10
795.143
 20
-3897.572
 30
2236.000
 70
    32
  0
VERTEX
  8
E30LXLIFT
 62
11
 10
805.815
 20
-3923.269
 30
2236.000
 70
    32
  0
VERTEX
  8
E30LXLIFT
 62
11
 10
815.910
 20
-3941.079
 30
2236.000
 70
    32
  0
VERTEX
  8
E30LXLIFT
 62
11
 10
819.500
 20
-3953.194
 30
2236.000
 70
    32
  0
VERTEX
  8
E30LXLIFT
 62
11
 10
820.675
 20
-3965.889
 30
2236.000
 70
    32
  0
VERTEX
  8
E30LXLIFT
 62
11
 10
811.503
 20
-3964.134
 30
2236.000
 70
    32
  0
VERTEX
  8
E30LXLIFT
 62
11
 10
799.288
 20
-3949.968
 30
2236.000
 70
    32
  0
VERTEX
  8
E30LXLIFT
 62
11
 10
787.682
 20
-3931.743
 30
2236.000
 70
    32
  0
VERTEX
  8
E30LXLIFT
 62
11
 10
785.974
 20
-3922.176
 30
2236.000
 70
    32
  0
VERTEX
  8
E30LXLIFT
 62
11
 10
778.613
 20
-3908.362
 30
2236.000
 70
    32
  0
VERTEX
  8
E30LXLIFT
 62
11
 10
737.031
 20
-3803.663
 30
2236.000
 70
    32
  0
VERTEX
  8
E30LXLIFT
 62
11
 10
732.465
 20
-3797.630
 30
2236.000
 70
    32
  0
VERTEX
  8
E30LXLIFT
 62
11
 10
725.119
 20
-3796.275
 30
2236.000
 70
    32
  0
VERTEX
  8
E30LXLIFT
 62
11
 10
715.183
 20
-3785.786
 30
2236.000
 70
    32
  0
VERTEX
  8
E30LXLIFT
 62
11
 10
709.756
 20
-3774.591
 30
2236.000
 70
    32
  0
VERTEX
  8
E30LXLIFT
 62
11
 10
718.149
 20
-3767.296
 30
2236.000
 70
    32
  0
VERTEX
  8
E30LXLIFT
 62
11
 10
724.921
 20
-3762.840
 30
2236.000
 70
    32
  0
VERTEX
  8
E30LXLIFT
 62
11
 10
722.834
 20
-3752.021
 30
2236.000
 70
    32
  0
VERTEX
  8
E30LXLIFT
 62
11
 10
724.293
 20
-3747.333
 30
2236.000
 70
    32
  0
VERTEX
  8
E30LXLIFT
 62
11
 10
722.124
 20
-3738.326
 30
2236.000
 70
    32
  0
VERTEX
  8
E30LXLIFT
 62
11
 10
734.215
 20
-3728.190
 30
2236.000
 70
    32
  0
VERTEX
  8
E30LXLIFT
 62
11
 10
738.292
 20
-3721.568
 30
2236.000
 70
    32
  0
VERTEX
  8
E30LXLIFT
 62
11
 10
741.413
 20
-3713.355
 30
2236.000
 70
    32
  0
VERTEX
  8
E30LXLIFT
 62
11
 10
746.084
 20
-3709.905
 30
2236.000
 70
    32
  0
VERTEX
  8
E30LXLIFT
 62
11
 10
764.084
 20
-3702.732
 30
2236.000
 70
    32
  0
SEQEND
  8
E30LXLIFT
  0
POLYLINE
  8
E30LXLIFT
 62
7
 66
     1
 70
     9
  0
VERTEX
  8
E30LXLIFT
 62
7
 10
806.191
 20
-3969.210
 30
2246.000
 70
    32
  0
VERTEX
  8
E30LXLIFT
 62
7
 10
810.922
 20
-3963.757
 30
2246.000
 70
    32
  0
VERTEX
  8
E30LXLIFT
 62
7
 10
813.043
 20
-3956.178
 30
2246.000
 70
    32
  0
VERTEX
  8
E30LXLIFT
 62
7
 10
812.153
 20
-3948.169
 30
2246.000
 70
    32
  0
VERTEX
  8
E30LXLIFT
 62
7
 10
806.918
 20
-3937.876
 30
2246.000
 70
    32
  0
VERTEX
  8
E30LXLIFT
 62
7
 10
800.512
 20
-3924.749
 30
2246.000
 70
    32
  0
VERTEX
  8
E30LXLIFT
 62
7
 10
795.209
 20
-3915.262
 30
2246.000
 70
    32
  0
VERTEX
  8
E30LXLIFT
 62
7
 10
792.456
 20
-3905.564
 30
2246.000
 70
    32
  0
VERTEX
  8
E30LXLIFT
 62
7
 10
788.758
 20
-3900.869
 30
2246.000
 70
    32
  0
VERTEX
  8
E30LXLIFT
 62
7
 10
781.783
 20
-3902.747
 30
2246.000
 70
    32
  0
VERTEX
  8
E30LXLIFT
 62
7
 10
777.104
 20
-3904.812
 30
2246.000
 70
    32
  0
VERTEX
  8
E30LXLIFT
 62
7
 10
776.453
 20
-3912.631
 30
2246.000
 70
    32
  0
VERTEX
  8
E30LXLIFT
 62
7
 10
772.210
 20
-3917.410
 30
2246.000
 70
    32
  0
VERTEX
  8
E30LXLIFT
 62
7
 10
776.425
 20
-3927.787
 30
2246.000
 70
    32
  0
VERTEX
  8
E30LXLIFT
 62
7
 10
786.123
 20
-3939.629
 30
2246.000
 70
    32
  0
VERTEX
  8
E30LXLIFT
 62
7
 10
794.430
 20
-3953.445
 30
2246.000
 70
    32
  0
VERTEX
  8
E30LXLIFT
 62
7
 10
802.182
 20
-3962.578
 30
2246.000
 70
    32
  0
SEQEND
  8
E30LXLIFT
  0
POLYLINE
  8
E30LXLIFT
 62
7
 66
     1
 70
     9
  0
VERTEX
  8
E30LXLIFT
 62
7
 10
779.002
 20
-3907.964
 30
2239.000
 70
    32
  0
VERTEX
  8
E30LXLIFT
 62
7
 10
782.538
 20
-3916.771
 30
2239.000
 70
    32
  0
VERTEX
  8
E30LXLIFT
 62
7
 10
786.445
 20
-3926.392
 30
2239.000
 70
    32
  0
VERTEX
  8
E30LXLIFT
 62
7
 10
788.669
 20
-3935.928
 30
2239.000
 70
    32
  0
VERTEX
  8
E30LXLIFT
 62
7
 10
796.884
 20
-3944.174
 30
2239.000
 70
    32
  0
VERTEX
  8
E30LXLIFT
 62
7
 10
804.118
 20
-3954.209
 30
2239.000
 70
    32
  0
VERTEX
  8
E30LXLIFT
 62
7
 10
812.669
 20
-3962.321
 30
2239.000
 70
    32
  0
VERTEX
  8
E30LXLIFT
 62
7
 10
818.582
 20
-3964.223
 30
2239.000
 70
    32
  0
VERTEX
  8
E30LXLIFT
 62
7
 10
818.703
 20
-3956.889
 30
2239.000
 70
    32
  0
VERTEX
  8
E30LXLIFT
 62
7
 10
816.781
 20
-3946.270
 30
2239.000
 70
    32
  0
VERTEX
  8
E30LXLIFT
 62
7
 10
813.751
 20
-3936.666
 30
2239.000
 70
    32
  0
VERTEX
  8
E30LXLIFT
 62
7
 10
808.286
 20
-3927.735
 30
2239.000
 70
    32
  0
VERTEX
  8
E30LXLIFT
 62
7
 10
801.538
 20
-3914.322
 30
2239.000
 70
    32
  0
VERTEX
  8
E30LXLIFT
 62
7
 10
797.058
 20
-3904.357
 30
2239.000
 70
    32
  0
VERTEX
  8
E30LXLIFT
 62
7
 10
794.662
 20
-3897.432
 30
2239.000
 70
    32
  0
VERTEX
  8
E30LXLIFT
 62
7
 10
790.453
 20
-3898.195
 30
2239.000
 70
    32
  0
VERTEX
  8
E30LXLIFT
 62
7
 10
786.178
 20
-3902.466
 30
2239.000
 70
    32
  0
SEQEND
  8
E30LXLIFT
  0
POLYLINE
  8
E30LXLIFT
 62
7
 66
     1
 70
     9
  0
VERTEX
  8
E30LXLIFT
 62
7
 10
707.952
 20
-3127.569
 30
2207.000
 70
    32
  0
VERTEX
  8
E30LXLIFT
 62
7
 10
701.574
 20
-3122.086
 30
2207.000
 70
    32
  0
VERTEX
  8
E30LXLIFT
 62
7
 10
695.875
 20
-3114.074
 30
2207.000
 70
    32
  0
VERTEX
  8
E30LXLIFT
 62
7
 10
688.839
 20
-3106.150
 30
2207.000
 70
    32
  0
VERTEX
  8
E30LXLIFT
 62
7
 10
681.343
 20
-3098.338
 30
2207.000
 70
    32
  0
VERTEX
  8
E30LXLIFT
 62
7
 10
674.722
 20
-3092.058
 30
2207.000
 70
    32
  0
VERTEX
  8
E30LXLIFT
 62
7
 10
667.570
 20
-3085.941
 30
2207.000
 70
    32
  0
VERTEX
  8
E30LXLIFT
 62
7
 10
661.633
 20
-3089.409
 30
2207.000
 70
    32
  0
VERTEX
  8
E30LXLIFT
 62
7
 10
660.203
 20
-3095.275
 30
2207.000
 70
    32
  0
VERTEX
  8
E30LXLIFT
 62
7
 10
665.123
 20
-3100.071
 30
2207.000
 70
    32
  0
VERTEX
  8
E30LXLIFT
 62
7
 10
671.504
 20
-3108.891
 30
2207.000
 70
    32
  0
VERTEX
  8
E30LXLIFT
 62
7
 10
674.876
 20
-3117.267
 30
2207.000
 70
    32
  0
VERTEX
  8
E30LXLIFT
 62
7
 10
669.693
 20
-3126.340
 30
2207.000
 70
    32
  0
VERTEX
  8
E30LXLIFT
 62
7
 10
663.002
 20
-3129.806
 30
2207.000
 70
    32
  0
VERTEX
  8
E30LXLIFT
 62
7
 10
659.765
 20
-3135.556
 30
2207.000
 70
    32
  0
VERTEX
  8
E30LXLIFT
 62
7
 10
653.675
 20
-3139.565
 30
2207.000
 70
    32
  0
VERTEX
  8
E30LXLIFT
 62
7
 10
651.111
 20
-3145.806
 30
2207.000
 70
    32
  0
VERTEX
  8
E30LXLIFT
 62
7
 10
648.717
 20
-3153.649
 30
2207.000
 70
    32
  0
VERTEX
  8
E30LXLIFT
 62
7
 10
640.951
 20
-3158.634
 30
2207.000
 70
    32
  0
VERTEX
  8
E30LXLIFT
 62
7
 10
640.530
 20
-3164.859
 30
2207.000
 70
    32
  0
VERTEX
  8
E30LXLIFT
 62
7
 10
644.714
 20
-3170.287
 30
2207.000
 70
    32
  0
VERTEX
  8
E30LXLIFT
 62
7
 10
651.612
 20
-3170.443
 30
2207.000
 70
    32
  0
VERTEX
  8
E30LXLIFT
 62
7
 10
663.342
 20
-3163.608
 30
2207.000
 70
    32
  0
VERTEX
  8
E30LXLIFT
 62
7
 10
673.461
 20
-3155.872
 30
2207.000
 70
    32
  0
VERTEX
  8
E30LXLIFT
 62
7
 10
681.305
 20
-3147.815
 30
2207.000
 70
    32
  0
VERTEX
  8
E30LXLIFT
 62
7
 10
692.056
 20
-3140.815
 30
2207.000
 70
    32
  0
VERTEX
  8
E30LXLIFT
 62
7
 10
702.798
 20
-3132.744
 30
2207.000
 70
    32
  0
SEQEND
  8
E30LXLIFT
  0
POLYLINE
  8
E30LXLIFT
 62
7
 66
     1
 70
     9
  0
VERTEX
  8
E30LXLIFT
 62
7
 10
664.233
 20
-3081.507
 30
2224.000
 70
    32
  0
VERTEX
  8
E30LXLIFT
 62
7
 10
669.995
 20
-3086.772
 30
2224.000
 70
    32
  0
VERTEX
  8
E30LXLIFT
 62
7
 10
674.857
 20
-3093.339
 30
2224.000
 70
    32
  0
VERTEX
  8
E30LXLIFT
 62
7
 10
678.051
 20
-3102.848
 30
2224.000
 70
    32
  0
VERTEX
  8
E30LXLIFT
 62
7
 10
682.811
 20
-3111.225
 30
2224.000
 70
    32
  0
VERTEX
  8
E30LXLIFT
 62
7
 10
690.243
 20
-3120.595
 30
2224.000
 70
    32
  0
VERTEX
  8
E30LXLIFT
 62
7
 10
695.250
 20
-3130.961
 30
2224.000
 70
    32
  0
VERTEX
  8
E30LXLIFT
 62
7
 10
694.321
 20
-3135.971
 30
2224.000
 70
    32
  0
VERTEX
  8
E30LXLIFT
 62
7
 10
688.984
 20
-3144.931
 30
2224.000
 70
    32
  0
VERTEX
  8
E30LXLIFT
 62
7
 10
683.118
 20
-3150.911
 30
2224.000
 70
    32
  0
VERTEX
  8
E30LXLIFT
 62
7
 10
673.541
 20
-3158.059
 30
2224.000
 70
    32
  0
VERTEX
  8
E30LXLIFT
 62
7
 10
668.915
 20
-3161.407
 30
2224.000
 70
    32
  0
VERTEX
  8
E30LXLIFT
 62
7
 10
660.432
 20
-3153.881
 30
2224.000
 70
    32
  0
VERTEX
  8
E30LXLIFT
 62
7
 10
654.330
 20
-3144.849
 30
2224.000
 70
    32
  0
VERTEX
  8
E30LXLIFT
 62
7
 10
651.286
 20
-3134.798
 30
2224.000
 70
    32
  0
VERTEX
  8
E30LXLIFT
 62
7
 10
651.717
 20
-3127.002
 30
2224.000
 70
    32
  0
VERTEX
  8
E30LXLIFT
 62
7
 10
655.052
 20
-3117.974
 30
2224.000
 70
    32
  0
VERTEX
  8
E30LXLIFT
 62
7
 10
655.716
 20
-3107.950
 30
2224.000
 70
    32
  0
VERTEX
  8
E30LXLIFT
 62
7
 10
656.905
 20
-3102.101
 30
2224.000
 70
    32
  0
VERTEX
  8
E30LXLIFT
 62
7
 10
653.172
 20
-3096.343
 30
2224.000
 70
    32
  0
VERTEX
  8
E30LXLIFT
 62
7
 10
654.286
 20
-3089.790
 30
2224.000
 70
    32
  0
SEQEND
  8
E30LXLIFT
  0
POLYLINE
  8
E30LXLIFT
 62
7
 66
     1
 70
     9
  0
VERTEX
  8
E30LXLIFT
 62
7
 10
670.573
 20
-3091.398
 30
2233.000
 70
    32
  0
VERTEX
  8
E30LXLIFT
 62
7
 10
672.179
 20
-3097.377
 30
2233.000
 70
    32
  0
VERTEX
  8
E30LXLIFT
 62
7
 10
671.721
 20
-3102.142
 30
2233.000
 70
    32
  0
VERTEX
  8
E30LXLIFT
 62
7
 10
673.349
 20
-3106.051
 30
2233.000
 70
    32
  0
VERTEX
  8
E30LXLIFT
 62
7
 10
679.585
 20
-3109.451
 30
2233.000
 70
    32
  0
VERTEX
  8
E30LXLIFT
 62
7
 10
682.364
 20
-3112.856
 30
2233.000
 70
    32
  0
VERTEX
  8
E30LXLIFT
 62
7
 10
682.211
 20
-3119.996
 30
2233.000
 70
    32
  0
VERTEX
  8
E30LXLIFT
 62
7
 10
684.701
 20
-3127.501
 30
2233.000
 70
    32
  0
VERTEX
  8
E30LXLIFT
 62
7
 10
683.902
 20
-3133.594
 30
2233.000
 70
    32
  0
VERTEX
  8
E30LXLIFT
 62
7
 10
682.326
 20
-3141.759
 30
2233.000
 70
    32
  0
VERTEX
  8
E30LXLIFT
 62
7
 10
679.819
 20
-3147.135
 30
2233.000
 70
    32
  0
VERTEX
  8
E30LXLIFT
 62
7
 10
672.759
 20
-3151.143
 30
2233.000
 70
    32
  0
VERTEX
  8
E30LXLIFT
 62
7
 10
663.537
 20
-3155.303
 30
2233.000
 70
    32
  0
VERTEX
  8
E30LXLIFT
 62
7
 10
663.802
 20
-3150.570
 30
2233.000
 70
    32
  0
VERTEX
  8
E30LXLIFT
 62
7
 10
660.798
 20
-3142.352
 30
2233.000
 70
    32
  0
VERTEX
  8
E30LXLIFT
 62
7
 10
655.902
 20
-3134.959
 30
2233.000
 70
    32
  0
VERTEX
  8
E30LXLIFT
 62
7
 10
651.839
 20
-3127.072
 30
2233.000
 70
    32
  0
VERTEX
  8
E30LXLIFT
 62
7
 10
656.108
 20
-3121.292
 30
2233.000
 70
    32
  0
VERTEX
  8
E30LXLIFT
 62
7
 10
656.052
 20
-3117.763
 30
2233.000
 70
    32
  0
VERTEX
  8
E30LXLIFT
 62
7
 10
660.075
 20
-3111.943
 30
2233.000
 70
    32
  0
VERTEX
  8
E30LXLIFT
 62
7
 10
659.880
 20
-3104.621
 30
2233.000
 70
    32
  0
VERTEX
  8
E30LXLIFT
 62
7
 10
660.225
 20
-3099.397
 30
2233.000
 70
    32
  0
SEQEND
  8
E30LXLIFT
  0
POLYLINE
  8
E30LXLIFT
 62
7
 66
     1
 70
     9
  0
VERTEX
  8
E30LXLIFT
 62
7
 10
650.372
 20
-3098.978
 30
2242.000
 70
    32
  0
VERTEX
  8
E30LXLIFT
 62
7
 10
657.326
 20
-3096.468
 30
2242.000
 70
    32
  0
VERTEX
  8
E30LXLIFT
 62
7
 10
662.470
 20
-3100.015
 30
2242.000
 70
    32
  0
VERTEX
  8
E30LXLIFT
 62
7
 10
664.730
 20
-3105.418
 30
2242.000
 70
    32
  0
VERTEX
  8
E30LXLIFT
 62
7
 10
663.451
 20
-3111.310
 30
2242.000
 70
    32
  0
VERTEX
  8
E30LXLIFT
 62
7
 10
660.844
 20
-3116.859
 30
2242.000
 70
    32
  0
VERTEX
  8
E30LXLIFT
 62
7
 10
658.934
 20
-3123.529
 30
2242.000
 70
    32
  0
VERTEX
  8
E30LXLIFT
 62
7
 10
656.989
 20
-3128.495
 30
2242.000
 70
    32
  0
VERTEX
  8
E30LXLIFT
 62
7
 10
658.289
 20
-3133.615
 30
2242.000
 70
    32
  0
VERTEX
  8
E30LXLIFT
 62
7
 10
656.359
 20
-3140.407
 30
2242.000
 70
    32
  0
VERTEX
  8
E30LXLIFT
 62
7
 10
658.007
 20
-3145.710
 30
2242.000
 70
    32
  0
VERTEX
  8
E30LXLIFT
 62
7
 10
667.172
 20
-3149.286
 30
2242.000
 70
    32
  0
VERTEX
  8
E30LXLIFT
 62
7
 10
671.488
 20
-3145.212
 30
2242.000
 70
    32
  0
VERTEX
  8
E30LXLIFT
 62
7
 10
676.733
 20
-3137.767
 30
2242.000
 70
    32
  0
VERTEX
  8
E30LXLIFT
 62
7
 10
683.653
 20
-3134.308
 30
2242.000
 70
    32
  0
VERTEX
  8
E30LXLIFT
 62
7
 10
689.769
 20
-3131.535
 30
2242.000
 70
    32
  0
VERTEX
  8
E30LXLIFT
 62
7
 10
690.237
 20
-3130.982
 30
2242.000
 70
    32
  0
VERTEX
  8
E30LXLIFT
 62
7
 10
691.772
 20
-3125.446
 30
2242.000
 70
    32
  0
VERTEX
  8
E30LXLIFT
 62
7
 10
685.533
 20
-3120.524
 30
2242.000
 70
    32
  0
VERTEX
  8
E30LXLIFT
 62
7
 10
679.505
 20
-3114.694
 30
2242.000
 70
    32
  0
VERTEX
  8
E30LXLIFT
 62
7
 10
676.553
 20
-3106.976
 30
2242.000
 70
    32
  0
VERTEX
  8
E30LXLIFT
 62
7
 10
671.181
 20
-3098.296
 30
2242.000
 70
    32
  0
VERTEX
  8
E30LXLIFT
 62
7
 10
668.403
 20
-3090.670
 30
2242.000
 70
    32
  0
VERTEX
  8
E30LXLIFT
 62
7
 10
664.853
 20
-3083.923
 30
2242.000
 70
    32
  0
VERTEX
  8
E30LXLIFT
 62
7
 10
661.197
 20
-3086.659
 30
2242.000
 70
    32
  0
VERTEX
  8
E30LXLIFT
 62
7
 10
657.175
 20
-3090.089
 30
2242.000
 70
    32
  0
VERTEX
  8
E30LXLIFT
 62
7
 10
650.458
 20
-3093.078
 30
2242.000
 70
    32
  0
SEQEND
  8
E30LXLIFT
  0
POLYLINE
  8
E30LXLIFT
 62
7
 66
     1
 70
     9
  0
VERTEX
  8
E30LXLIFT
 62
7
 10
703.799
 20
-3115.301
 30
2251.000
 70
    32
  0
VERTEX
  8
E30LXLIFT
 62
7
 10
697.264
 20
-3110.037
 30
2251.000
 70
    32
  0
VERTEX
  8
E30LXLIFT
 62
7
 10
692.518
 20
-3103.502
 30
2251.000
 70
    32
  0
VERTEX
  8
E30LXLIFT
 62
7
 10
688.373
 20
-3100.847
 30
2251.000
 70
    32
  0
VERTEX
  8
E30LXLIFT
 62
7
 10
683.560
 20
-3092.853
 30
2251.000
 70
    32
  0
VERTEX
  8
E30LXLIFT
 62
7
 10
677.465
 20
-3080.172
 30
2251.000
 70
    32
  0
VERTEX
  8
E30LXLIFT
 62
7
 10
674.306
 20
-3078.754
 30
2251.000
 70
    32
  0
VERTEX
  8
E30LXLIFT
 62
7
 10
663.541
 20
-3078.753
 30
2251.000
 70
    32
  0
VERTEX
  8
E30LXLIFT
 62
7
 10
657.934
 20
-3080.256
 30
2251.000
 70
    32
  0
VERTEX
  8
E30LXLIFT
 62
7
 10
651.407
 20
-3086.074
 30
2251.000
 70
    32
  0
VERTEX
  8
E30LXLIFT
 62
7
 10
648.990
 20
-3095.862
 30
2251.000
 70
    32
  0
VERTEX
  8
E30LXLIFT
 62
7
 10
655.807
 20
-3102.434
 30
2251.000
 70
    32
  0
VERTEX
  8
E30LXLIFT
 62
7
 10
660.264
 20
-3099.916
 30
2251.000
 70
    32
  0
VERTEX
  8
E30LXLIFT
 62
7
 10
664.356
 20
-3106.592
 30
2251.000
 70
    32
  0
VERTEX
  8
E30LXLIFT
 62
7
 10
662.442
 20
-3115.270
 30
2251.000
 70
    32
  0
VERTEX
  8
E30LXLIFT
 62
7
 10
656.645
 20
-3126.059
 30
2251.000
 70
    32
  0
VERTEX
  8
E30LXLIFT
 62
7
 10
652.796
 20
-3133.527
 30
2251.000
 70
    32
  0
VERTEX
  8
E30LXLIFT
 62
7
 10
656.376
 20
-3140.997
 30
2251.000
 70
    32
  0
VERTEX
  8
E30LXLIFT
 62
7
 10
667.513
 20
-3146.224
 30
2251.000
 70
    32
  0
VERTEX
  8
E30LXLIFT
 62
7
 10
674.226
 20
-3140.060
 30
2251.000
 70
    32
  0
VERTEX
  8
E30LXLIFT
 62
7
 10
683.894
 20
-3135.028
 30
2251.000
 70
    32
  0
VERTEX
  8
E30LXLIFT
 62
7
 10
692.335
 20
-3127.206
 30
2251.000
 70
    32
  0
SEQEND
  8
E30LXLIFT
  0
POLYLINE
  8
E30LXLIFT
 62
7
 66
     1
 70
     9
  0
VERTEX
  8
E30LXLIFT
 62
7
 10
1156.352
 20
-3453.723
 30
2215.000
 70
    32
  0
VERTEX
  8
E30LXLIFT
 62
7
 10
1152.375
 20
-3451.835
 30
2215.000
 70
    32
  0
VERTEX
  8
E30LXLIFT
 62
7
 10
1143.535
 20
-3440.563
 30
2215.000
 70
    32
  0
VERTEX
  8
E30LXLIFT
 62
7
 10
1140.855
 20
-3429.700
 30
2215.000
 70
    32
  0
VERTEX
  8
E30LXLIFT
 62
7
 10
1131.756
 20
-3419.267
 30
2215.000
 70
    32
  0
VERTEX
  8
E30LXLIFT
 62
7
 10
1121.824
 20
-3409.331
 30
2215.000
 70
    32
  0
VERTEX
  8
E30LXLIFT
 62
7
 10
1119.454
 20
-3397.700
 30
2215.000
 70
    32
  0
VERTEX
  8
E30LXLIFT
 62
7
 10
1112.767
 20
-3381.173
 30
2215.000
 70
    32
  0
VERTEX
  8
E30LXLIFT
 62
7
 10
1108.067
 20
-3366.784
 30
2215.000
 70
    32
  0
VERTEX
  8
E30LXLIFT
 62
7
 10
1098.956
 20
-3356.034
 30
2215.000
 70
    32
  0
VERTEX
  8
E30LXLIFT
 62
7
 10
1087.159
 20
-3343.979
 30
2215.000
 70
    32
  0
VERTEX
  8
E30LXLIFT
 62
7
 10
1078.715
 20
-3328.619
 30
2215.000
 70
    32
  0
VERTEX
  8
E30LXLIFT
 62
7
 10
1072.813
 20
-3317.058
 30
2215.000
 70
    32
  0
VERTEX
  8
E30LXLIFT
 62
7
 10
1060.034
 20
-3304.847
 30
2215.000
 70
    32
  0
VERTEX
  8
E30LXLIFT
 62
7
 10
1049.697
 20
-3292.708
 30
2215.000
 70
    32
  0
VERTEX
  8
E30LXLIFT
 62
7
 10
1044.355
 20
-3296.263
 30
2215.000
 70
    32
  0
VERTEX
  8
E30LXLIFT
 62
7
 10
1053.090
 20
-3309.783
 30
2215.000
 70
    32
  0
VERTEX
  8
E30LXLIFT
 62
7
 10
1062.748
 20
-3326.215
 30
2215.000
 70
    32
  0
VERTEX
  8
E30LXLIFT
 62
7
 10
1076.683
 20
-3348.984
 30
2215.000
 70
    32
  0
VERTEX
  8
E30LXLIFT
 62
7
 10
1090.684
 20
-3368.557
 30
2215.000
 70
    32
  0
VERTEX
  8
E30LXLIFT
 62
7
 10
1091.306
 20
-3376.138
 30
2215.000
 70
    32
  0
VERTEX
  8
E30LXLIFT
 62
7
 10
1100.812
 20
-3386.384
 30
2215.000
 70
    32
  0
VERTEX
  8
E30LXLIFT
 62
7
 10
1117.799
 20
-3412.906
 30
2215.000
 70
    32
  0
VERTEX
  8
E30LXLIFT
 62
7
 10
1125.313
 20
-3429.376
 30
2215.000
 70
    32
  0
VERTEX
  8
E30LXLIFT
 62
7
 10
1138.009
 20
-3438.932
 30
2215.000
 70
    32
  0
VERTEX
  8
E30LXLIFT
 62
7
 10
1145.007
 20
-3453.497
 30
2215.000
 70
    32
  0
VERTEX
  8
E30LXLIFT
 62
7
 10
1147.481
 20
-3462.881
 30
2215.000
 70
    32
  0
SEQEND
  8
E30LXLIFT
  0
POLYLINE
  8
E30LXLIFT
 62
7
 66
     1
 70
     9
  0
VERTEX
  8
E30LXLIFT
 62
7
 10
1067.351
 20
-3329.093
 30
2225.000
 70
    32
  0
VERTEX
  8
E30LXLIFT
 62
7
 10
1070.121
 20
-3337.717
 30
2225.000
 70
    32
  0
VERTEX
  8
E30LXLIFT
 62
7
 10
1074.052
 20
-3344.198
 30
2225.000
 70
    32
  0
VERTEX
  8
E30LXLIFT
 62
7
 10
1076.342
 20
-3351.109
 30
2225.000
 70
    32
  0
VERTEX
  8
E30LXLIFT
 62
7
 10
1077.110
 20
-3359.662
 30
2225.000
 70
    32
  0
VERTEX
  8
E30LXLIFT
 62
7
 10
1083.084
 20
-3367.919
 30
2225.000
 70
    32
  0
VERTEX
  8
E30LXLIFT
 62
7
 10
1088.939
 20
-3374.960
 30
2225.000
 70
    32
  0
VERTEX
  8
E30LXLIFT
 62
7
 10
1092.669
 20
-3381.913
 30
2225.000
 70
    32
  0
VERTEX
  8
E30LXLIFT
 62
7
 10
1101.049
 20
-3389.296
 30
2225.000
 70
    32
  0
VERTEX
  8
E30LXLIFT
 62
7
 10
1108.529
 20
-3394.837
 30
2225.000
 70
    32
  0
VERTEX
  8
E30LXLIFT
 62
7
 10
1112.443
 20
-3400.246
 30
2225.000
 70
    32
  0
VERTEX
  8
E30LXLIFT
 62
7
 10
1113.263
 20
-3408.871
 30
2225.000
 70
    32
  0
VERTEX
  8
E30LXLIFT
 62
7
 10
1118.580
 20
-3416.518
 30
2225.000
 70
    32
  0
VERTEX
  8
E30LXLIFT
 62
7
 10
1123.292
 20
-3423.628
 30
2225.000
 70
    32
  0
VERTEX
  8
E30LXLIFT
 62
7
 10
1127.161
 20
-3431.673
 30
2225.000
 70
    32
  0
VERTEX
  8
E30LXLIFT
 62
7
 10
1135.869
 20
-3439.360
 30
2225.000
 70
    32
  0
VERTEX
  8
E30LXLIFT
 62
7
 10
1138.458
 20
-3448.332
 30
2225.000
 70
    32
  0
VERTEX
  8
E30LXLIFT
 62
7
 10
1146.643
 20
-3458.893
 30
2225.000
 70
    32
  0
VERTEX
  8
E30LXLIFT
 62
7
 10
1150.154
 20
-3468.390
 30
2225.000
 70
    32
  0
VERTEX
  8
E30LXLIFT
 62
7
 10
1156.393
 20
-3479.709
 30
2225.000
 70
    32
  0
VERTEX
  8
E30LXLIFT
 62
7
 10
1162.212
 20
-3482.655
 30
2225.000
 70
    32
  0
VERTEX
  8
E30LXLIFT
 62
7
 10
1168.951
 20
-3479.079
 30
2225.000
 70
    32
  0
VERTEX
  8
E30LXLIFT
 62
7
 10
1171.743
 20
-3473.046
 30
2225.000
 70
    32
  0
VERTEX
  8
E30LXLIFT
 62
7
 10
1166.314
 20
-3468.842
 30
2225.000
 70
    32
  0
VERTEX
  8
E30LXLIFT
 62
7
 10
1158.884
 20
-3461.422
 30
2225.000
 70
    32
  0
VERTEX
  8
E30LXLIFT
 62
7
 10
1153.446
 20
-3452.560
 30
2225.000
 70
    32
  0
VERTEX
  8
E30LXLIFT
 62
7
 10
1150.363
 20
-3442.753
 30
2225.000
 70
    32
  0
VERTEX
  8
E30LXLIFT
 62
7
 10
1141.623
 20
-3431.726
 30
2225.000
 70
    32
  0
VERTEX
  8
E30LXLIFT
 62
7
 10
1131.062
 20
-3418.331
 30
2225.000
 70
    32
  0
VERTEX
  8
E30LXLIFT
 62
7
 10
1122.436
 20
-3405.811
 30
2225.000
 70
    32
  0
VERTEX
  8
E30LXLIFT
 62
7
 10
1115.718
 20
-3394.731
 30
2225.000
 70
    32
  0
VERTEX
  8
E30LXLIFT
 62
7
 10
1109.899
 20
-3383.542
 30
2225.000
 70
    32
  0
VERTEX
  8
E30LXLIFT
 62
7
 10
1108.581
 20
-3375.278
 30
2225.000
 70
    32
  0
VERTEX
  8
E30LXLIFT
 62
7
 10
1101.716
 20
-3366.690
 30
2225.000
 70
    32
  0
VERTEX
  8
E30LXLIFT
 62
7
 10
1100.117
 20
-3354.291
 30
2225.000
 70
    32
  0
VERTEX
  8
E30LXLIFT
 62
7
 10
1094.344
 20
-3345.564
 30
2225.000
 70
    32
  0
VERTEX
  8
E30LXLIFT
 62
7
 10
1084.422
 20
-3334.850
 30
2225.000
 70
    32
  0
VERTEX
  8
E30LXLIFT
 62
7
 10
1077.969
 20
-3326.832
 30
2225.000
 70
    32
  0
VERTEX
  8
E30LXLIFT
 62
7
 10
1074.654
 20
-3324.350
 30
2225.000
 70
    32
  0
SEQEND
  8
E30LXLIFT
  0
POLYLINE
  8
E30LXLIFT
 62
7
 66
     1
 70
     9
  0
VERTEX
  8
E30LXLIFT
 62
7
 10
671.408
 20
-3147.953
 30
2260.000
 70
    32
  0
VERTEX
  8
E30LXLIFT
 62
7
 10
665.063
 20
-3142.444
 30
2260.000
 70
    32
  0
VERTEX
  8
E30LXLIFT
 62
7
 10
658.053
 20
-3135.685
 30
2260.000
 70
    32
  0
VERTEX
  8
E30LXLIFT
 62
7
 10
651.412
 20
-3127.165
 30
2260.000
 70
    32
  0
VERTEX
  8
E30LXLIFT
 62
7
 10
644.313
 20
-3116.929
 30
2260.000
 70
    32
  0
VERTEX
  8
E30LXLIFT
 62
7
 10
648.989
 20
-3113.209
 30
2260.000
 70
    32
  0
VERTEX
  8
E30LXLIFT
 62
7
 10
655.473
 20
-3119.372
 30
2260.000
 70
    32
  0
VERTEX
  8
E30LXLIFT
 62
7
 10
659.623
 20
-3115.057
 30
2260.000
 70
    32
  0
VERTEX
  8
E30LXLIFT
 62
7
 10
663.415
 20
-3106.272
 30
2260.000
 70
    32
  0
VERTEX
  8
E30LXLIFT
 62
7
 10
662.551
 20
-3100.015
 30
2260.000
 70
    32
  0
VERTEX
  8
E30LXLIFT
 62
7
 10
655.347
 20
-3093.286
 30
2260.000
 70
    32
  0
VERTEX
  8
E30LXLIFT
 62
7
 10
650.207
 20
-3087.357
 30
2260.000
 70
    32
  0
VERTEX
  8
E30LXLIFT
 62
7
 10
657.266
 20
-3082.602
 30
2260.000
 70
    32
  0
VERTEX
  8
E30LXLIFT
 62
7
 10
659.894
 20
-3081.611
 30
2260.000
 70
    32
  0
VERTEX
  8
E30LXLIFT
 62
7
 10
667.591
 20
-3078.982
 30
2260.000
 70
    32
  0
VERTEX
  8
E30LXLIFT
 62
7
 10
673.125
 20
-3079.377
 30
2260.000
 70
    32
  0
VERTEX
  8
E30LXLIFT
 62
7
 10
677.399
 20
-3086.667
 30
2260.000
 70
    32
  0
VERTEX
  8
E30LXLIFT
 62
7
 10
685.392
 20
-3095.737
 30
2260.000
 70
    32
  0
VERTEX
  8
E30LXLIFT
 62
7
 10
693.167
 20
-3103.887
 30
2260.000
 70
    32
  0
VERTEX
  8
E30LXLIFT
 62
7
 10
698.007
 20
-3110.457
 30
2260.000
 70
    32
  0
VERTEX
  8
E30LXLIFT
 62
7
 10
702.663
 20
-3121.339
 30
2260.000
 70
    32
  0
VERTEX
  8
E30LXLIFT
 62
7
 10
695.711
 20
-3128.378
 30
2260.000
 70
    32
  0
VERTEX
  8
E30LXLIFT
 62
7
 10
683.073
 20
-3137.704
 30
2260.000
 70
    32
  0
SEQEND
  8
E30LXLIFT
  0
POLYLINE
  8
E30LXLIFT
 62
11
 66
     1
 70
     9
  0
VERTEX
  8
E30LXLIFT
 62
11
 10
550.739
 20
-3097.681
 30
2224.000
 70
    32
  0
VERTEX
  8
E30LXLIFT
 62
11
 10
500.959
 20
-3159.160
 30
2224.000
 70
    32
  0
VERTEX
  8
E30LXLIFT
 62
11
 10
406.487
 20
-3204.742
 30
2224.000
 70
    32
  0
VERTEX
  8
E30LXLIFT
 62
11
 10
393.369
 20
-3209.272
 30
2224.000
 70
    32
  0
VERTEX
  8
E30LXLIFT
 62
11
 10
401.543
 20
-3224.417
 30
2224.000
 70
    32
  0
VERTEX
  8
E30LXLIFT
 62
11
 10
397.767
 20
-3237.919
 30
2224.000
 70
    32
  0
VERTEX
  8
E30LXLIFT
 62
11
 10
387.393
 20
-3245.780
 30
2224.000
 70
    32
  0
VERTEX
  8
E30LXLIFT
 62
11
 10
485.063
 20
-3421.087
 30
2224.000
 70
    32
  0
VERTEX
  8
E30LXLIFT
 62
11
 10
460.539
 20
-3438.791
 30
2224.000
 70
    32
  0
VERTEX
  8
E30LXLIFT
 62
11
 10
439.300
 20
-3455.631
 30
2224.000
 70
    32
  0
VERTEX
  8
E30LXLIFT
 62
11
 10
442.468
 20
-3465.827
 30
2224.000
 70
    32
  0
VERTEX
  8
E30LXLIFT
 62
11
 10
452.989
 20
-3481.658
 30
2224.000
 70
    32
  0
VERTEX
  8
E30LXLIFT
 62
11
 10
466.319
 20
-3492.081
 30
2224.000
 70
    32
  0
VERTEX
  8
E30LXLIFT
 62
11
 10
561.975
 20
-3553.006
 30
2224.000
 70
    32
  0
VERTEX
  8
E30LXLIFT
 62
11
 10
568.220
 20
-3562.053
 30
2224.000
 70
    32
  0
VERTEX
  8
E30LXLIFT
 62
11
 10
571.642
 20
-3569.457
 30
2224.000
 70
    32
  0
VERTEX
  8
E30LXLIFT
 62
11
 10
575.700
 20
-3583.571
 30
2224.000
 70
    32
  0
VERTEX
  8
E30LXLIFT
 62
11
 10
586.239
 20
-3591.348
 30
2224.000
 70
    32
  0
VERTEX
  8
E30LXLIFT
 62
11
 10
603.180
 20
-3616.317
 30
2224.000
 70
    32
  0
VERTEX
  8
E30LXLIFT
 62
11
 10
619.275
 20
-3628.751
 30
2224.000
 70
    32
  0
VERTEX
  8
E30LXLIFT
 62
11
 10
638.749
 20
-3645.686
 30
2224.000
 70
    32
  0
VERTEX
  8
E30LXLIFT
 62
11
 10
668.567
 20
-3658.911
 30
2224.000
 70
    32
  0
VERTEX
  8
E30LXLIFT
 62
11
 10
674.201
 20
-3665.469
 30
2224.000
 70
    32
  0
VERTEX
  8
E30LXLIFT
 62
11
 10
683.954
 20
-3668.274
 30
2224.000
 70
    32
  0
VERTEX
  8
E30LXLIFT
 62
11
 10
697.741
 20
-3680.971
 30
2224.000
 70
    32
  0
VERTEX
  8
E30LXLIFT
 62
11
 10
703.871
 20
-3689.560
 30
2224.000
 70
    32
  0
VERTEX
  8
E30LXLIFT
 62
11
 10
700.057
 20
-3733.082
 30
2224.000
 70
    32
  0
VERTEX
  8
E30LXLIFT
 62
11
 10
706.704
 20
-3741.186
 30
2224.000
 70
    32
  0
VERTEX
  8
E30LXLIFT
 62
11
 10
706.995
 20
-3750.863
 30
2224.000
 70
    32
  0
VERTEX
  8
E30LXLIFT
 62
11
 10
706.710
 20
-3763.785
 30
2224.000
 70
    32
  0
VERTEX
  8
E30LXLIFT
 62
11
 10
712.445
 20
-3772.878
 30
2224.000
 70
    32
  0
VERTEX
  8
E30LXLIFT
 62
11
 10
788.217
 20
-3908.015
 30
2224.000
 70
    32
  0
VERTEX
  8
E30LXLIFT
 62
11
 10
800.301
 20
-3937.817
 30
2224.000
 70
    32
  0
VERTEX
  8
E30LXLIFT
 62
11
 10
797.859
 20
-3945.676
 30
2224.000
 70
    32
  0
VERTEX
  8
E30LXLIFT
 62
11
 10
808.064
 20
-3970.647
 30
2224.000
 70
    32
  0
VERTEX
  8
E30LXLIFT
 62
11
 10
816.332
 20
-3982.030
 30
2224.000
 70
    32
  0
VERTEX
  8
E30LXLIFT
 62
11
 10
828.936
 20
-3973.200
 30
2224.000
 70
    32
  0
VERTEX
  8
E30LXLIFT
 62
11
 10
827.031
 20
-3959.805
 30
2224.000
 70
    32
  0
VERTEX
  8
E30LXLIFT
 62
11
 10
821.061
 20
-3943.059
 30
2224.000
 70
    32
  0
VERTEX
  8
E30LXLIFT
 62
11
 10
813.179
 20
-3924.876
 30
2224.000
 70
    32
  0
VERTEX
  8
E30LXLIFT
 62
11
 10
806.471
 20
-3910.405
 30
2224.000
 70
    32
  0
VERTEX
  8
E30LXLIFT
 62
11
 10
800.880
 20
-3888.494
 30
2224.000
 70
    32
  0
VERTEX
  8
E30LXLIFT
 62
11
 10
785.416
 20
-3802.573
 30
2224.000
 70
    32
  0
VERTEX
  8
E30LXLIFT
 62
11
 10
779.647
 20
-3786.551
 30
2224.000
 70
    32
  0
VERTEX
  8
E30LXLIFT
 62
11
 10
777.759
 20
-3763.905
 30
2224.000
 70
    32
  0
VERTEX
  8
E30LXLIFT
 62
11
 10
780.551
 20
-3755.031
 30
2224.000
 70
    32
  0
VERTEX
  8
E30LXLIFT
 62
11
 10
793.251
 20
-3758.303
 30
2224.000
 70
    32
  0
VERTEX
  8
E30LXLIFT
 62
11
 10
799.017
 20
-3749.334
 30
2224.000
 70
    32
  0
VERTEX
  8
E30LXLIFT
 62
11
 10
799.367
 20
-3735.604
 30
2224.000
 70
    32
  0
VERTEX
  8
E30LXLIFT
 62
11
 10
795.001
 20
-3728.995
 30
2224.000
 70
    32
  0
VERTEX
  8
E30LXLIFT
 62
11
 10
796.826
 20
-3725.822
 30
2224.000
 70
    32
  0
VERTEX
  8
E30LXLIFT
 62
11
 10
784.767
 20
-3709.369
 30
2224.000
 70
    32
  0
VERTEX
  8
E30LXLIFT
 62
11
 10
770.230
 20
-3696.238
 30
2224.000
 70
    32
  0
VERTEX
  8
E30LXLIFT
 62
11
 10
760.286
 20
-3688.682
 30
2224.000
 70
    32
  0
VERTEX
  8
E30LXLIFT
 62
11
 10
743.735
 20
-3660.061
 30
2224.000
 70
    32
  0
VERTEX
  8
E30LXLIFT
 62
11
 10
793.098
 20
-3624.639
 30
2224.000
 70
    32
  0
VERTEX
  8
E30LXLIFT
 62
11
 10
790.671
 20
-3608.580
 30
2224.000
 70
    32
  0
VERTEX
  8
E30LXLIFT
 62
11
 10
781.754
 20
-3591.367
 30
2224.000
 70
    32
  0
VERTEX
  8
E30LXLIFT
 62
11
 10
772.430
 20
-3583.468
 30
2224.000
 70
    32
  0
VERTEX
  8
E30LXLIFT
 62
11
 10
761.522
 20
-3554.986
 30
2224.000
 70
    32
  0
VERTEX
  8
E30LXLIFT
 62
11
 10
808.701
 20
-3519.848
 30
2224.000
 70
    32
  0
VERTEX
  8
E30LXLIFT
 62
11
 10
819.044
 20
-3508.206
 30
2224.000
 70
    32
  0
VERTEX
  8
E30LXLIFT
 62
11
 10
828.232
 20
-3505.444
 30
2224.000
 70
    32
  0
VERTEX
  8
E30LXLIFT
 62
11
 10
834.002
 20
-3498.427
 30
2224.000
 70
    32
  0
VERTEX
  8
E30LXLIFT
 62
11
 10
934.786
 20
-3470.212
 30
2224.000
 70
    32
  0
VERTEX
  8
E30LXLIFT
 62
11
 10
944.284
 20
-3478.201
 30
2224.000
 70
    32
  0
VERTEX
  8
E30LXLIFT
 62
11
 10
948.612
 20
-3492.988
 30
2224.000
 70
    32
  0
VERTEX
  8
E30LXLIFT
 62
11
 10
959.218
 20
-3507.888
 30
2224.000
 70
    32
  0
VERTEX
  8
E30LXLIFT
 62
11
 10
986.283
 20
-3521.809
 30
2224.000
 70
    32
  0
VERTEX
  8
E30LXLIFT
 62
11
 10
1005.231
 20
-3540.864
 30
2224.000
 70
    32
  0
VERTEX
  8
E30LXLIFT
 62
11
 10
1024.146
 20
-3551.794
 30
2224.000
 70
    32
  0
VERTEX
  8
E30LXLIFT
 62
11
 10
1051.951
 20
-3571.372
 30
2224.000
 70
    32
  0
VERTEX
  8
E30LXLIFT
 62
11
 10
1063.136
 20
-3589.763
 30
2224.000
 70
    32
  0
VERTEX
  8
E30LXLIFT
 62
11
 10
1072.871
 20
-3600.623
 30
2224.000
 70
    32
  0
VERTEX
  8
E30LXLIFT
 62
11
 10
1080.868
 20
-3599.813
 30
2224.000
 70
    32
  0
VERTEX
  8
E30LXLIFT
 62
11
 10
1088.508
 20
-3601.653
 30
2224.000
 70
    32
  0
VERTEX
  8
E30LXLIFT
 62
11
 10
1099.370
 20
-3588.330
 30
2224.000
 70
    32
  0
VERTEX
  8
E30LXLIFT
 62
11
 10
1105.612
 20
-3580.318
 30
2224.000
 70
    32
  0
VERTEX
  8
E30LXLIFT
 62
11
 10
1120.558
 20
-3570.223
 30
2224.000
 70
    32
  0
VERTEX
  8
E30LXLIFT
 62
11
 10
1103.772
 20
-3533.948
 30
2224.000
 70
    32
  0
VERTEX
  8
E30LXLIFT
 62
11
 10
1161.050
 20
-3483.541
 30
2224.000
 70
    32
  0
VERTEX
  8
E30LXLIFT
 62
11
 10
1171.762
 20
-3471.956
 30
2224.000
 70
    32
  0
VERTEX
  8
E30LXLIFT
 62
11
 10
1161.536
 20
-3461.019
 30
2224.000
 70
    32
  0
VERTEX
  8
E30LXLIFT
 62
11
 10
1150.280
 20
-3441.483
 30
2224.000
 70
    32
  0
VERTEX
  8
E30LXLIFT
 62
11
 10
1137.756
 20
-3424.391
 30
2224.000
 70
    32
  0
VERTEX
  8
E30LXLIFT
 62
11
 10
1122.919
 20
-3403.217
 30
2224.000
 70
    32
  0
VERTEX
  8
E30LXLIFT
 62
11
 10
1112.380
 20
-3385.117
 30
2224.000
 70
    32
  0
VERTEX
  8
E30LXLIFT
 62
11
 10
1109.747
 20
-3377.902
 30
2224.000
 70
    32
  0
VERTEX
  8
E30LXLIFT
 62
11
 10
1101.175
 20
-3368.045
 30
2224.000
 70
    32
  0
VERTEX
  8
E30LXLIFT
 62
11
 10
1100.679
 20
-3353.299
 30
2224.000
 70
    32
  0
VERTEX
  8
E30LXLIFT
 62
11
 10
1090.054
 20
-3339.718
 30
2224.000
 70
    32
  0
VERTEX
  8
E30LXLIFT
 62
11
 10
1075.641
 20
-3324.214
 30
2224.000
 70
    32
  0
VERTEX
  8
E30LXLIFT
 62
11
 10
1067.331
 20
-3329.381
 30
2224.000
 70
    32
  0
VERTEX
  8
E30LXLIFT
 62
11
 10
1009.240
 20
-3322.565
 30
2224.000
 70
    32
  0
VERTEX
  8
E30LXLIFT
 62
11
 10
996.689
 20
-3295.711
 30
2224.000
 70
    32
  0
VERTEX
  8
E30LXLIFT
 62
11
 10
984.590
 20
-3280.700
 30
2224.000
 70
    32
  0
VERTEX
  8
E30LXLIFT
 62
11
 10
973.387
 20
-3270.363
 30
2224.000
 70
    32
  0
VERTEX
  8
E30LXLIFT
 62
11
 10
967.038
 20
-3261.173
 30
2224.000
 70
    32
  0
VERTEX
  8
E30LXLIFT
 62
11
 10
975.358
 20
-3216.225
 30
2224.000
 70
    32
  0
VERTEX
  8
E30LXLIFT
 62
11
 10
962.709
 20
-3203.897
 30
2224.000
 70
    32
  0
VERTEX
  8
E30LXLIFT
 62
11
 10
944.192
 20
-3186.483
 30
2224.000
 70
    32
  0
VERTEX
  8
E30LXLIFT
 62
11
 10
910.146
 20
-3172.526
 30
2224.000
 70
    32
  0
VERTEX
  8
E30LXLIFT
 62
11
 10
901.591
 20
-3154.615
 30
2224.000
 70
    32
  0
VERTEX
  8
E30LXLIFT
 62
11
 10
886.160
 20
-3134.417
 30
2224.000
 70
    32
  0
VERTEX
  8
E30LXLIFT
 62
11
 10
860.431
 20
-3113.658
 30
2224.000
 70
    32
  0
VERTEX
  8
E30LXLIFT
 62
11
 10
846.808
 20
-3097.146
 30
2224.000
 70
    32
  0
VERTEX
  8
E30LXLIFT
 62
11
 10
839.501
 20
-3089.630
 30
2224.000
 70
    32
  0
VERTEX
  8
E30LXLIFT
 62
11
 10
803.416
 20
-3112.363
 30
2224.000
 70
    32
  0
VERTEX
  8
E30LXLIFT
 62
11
 10
697.202
 20
-3131.157
 30
2224.000
 70
    32
  0
VERTEX
  8
E30LXLIFT
 62
11
 10
685.117
 20
-3114.071
 30
2224.000
 70
    32
  0
VERTEX
  8
E30LXLIFT
 62
11
 10
676.315
 20
-3098.512
 30
2224.000
 70
    32
  0
VERTEX
  8
E30LXLIFT
 62
11
 10
671.720
 20
-3086.201
 30
2224.000
 70
    32
  0
VERTEX
  8
E30LXLIFT
 62
11
 10
664.858
 20
-3081.840
 30
2224.000
 70
    32
  0
VERTEX
  8
E30LXLIFT
 62
11
 10
654.439
 20
-3089.190
 30
2224.000
 70
    32
  0
VERTEX
  8
E30LXLIFT
 62
11
 10
647.667
 20
-3084.655
 30
2224.000
 70
    32
  0
VERTEX
  8
E30LXLIFT
 62
11
 10
641.878
 20
-3068.755
 30
2224.000
 70
    32
  0
VERTEX
  8
E30LXLIFT
 62
11
 10
627.948
 20
-3067.681
 30
2224.000
 70
    32
  0
VERTEX
  8
E30LXLIFT
 62
11
 10
615.720
 20
-3063.413
 30
2224.000
 70
    32
  0
VERTEX
  8
E30LXLIFT
 62
11
 10
608.083
 20
-3056.789
 30
2224.000
 70
    32
  0
SEQEND
  8
E30LXLIFT
  0
POLYLINE
  8
E30LXLIFT
 62
7
 66
     1
 70
     9
  0
VERTEX
  8
E30LXLIFT
 62
7
 10
830.183
 20
-3973.342
 30
2230.000
 70
    32
  0
VERTEX
  8
E30LXLIFT
 62
7
 10
828.728
 20
-3962.791
 30
2230.000
 70
    32
  0
VERTEX
  8
E30LXLIFT
 62
7
 10
825.873
 20
-3951.952
 30
2230.000
 70
    32
  0
VERTEX
  8
E30LXLIFT
 62
7
 10
821.349
 20
-3942.104
 30
2230.000
 70
    32
  0
VERTEX
  8
E30LXLIFT
 62
7
 10
816.045
 20
-3931.627
 30
2230.000
 70
    32
  0
VERTEX
  8
E30LXLIFT
 62
7
 10
812.031
 20
-3921.735
 30
2230.000
 70
    32
  0
VERTEX
  8
E30LXLIFT
 62
7
 10
806.730
 20
-3906.918
 30
2230.000
 70
    32
  0
VERTEX
  8
E30LXLIFT
 62
7
 10
804.916
 20
-3895.868
 30
2230.000
 70
    32
  0
VERTEX
  8
E30LXLIFT
 62
7
 10
801.196
 20
-3887.281
 30
2230.000
 70
    32
  0
VERTEX
  8
E30LXLIFT
 62
7
 10
794.348
 20
-3893.104
 30
2230.000
 70
    32
  0
VERTEX
  8
E30LXLIFT
 62
7
 10
796.383
 20
-3898.464
 30
2230.000
 70
    32
  0
VERTEX
  8
E30LXLIFT
 62
7
 10
788.281
 20
-3907.798
 30
2230.000
 70
    32
  0
VERTEX
  8
E30LXLIFT
 62
7
 10
791.669
 20
-3917.275
 30
2230.000
 70
    32
  0
VERTEX
  8
E30LXLIFT
 62
7
 10
796.916
 20
-3930.071
 30
2230.000
 70
    32
  0
VERTEX
  8
E30LXLIFT
 62
7
 10
799.563
 20
-3938.674
 30
2230.000
 70
    32
  0
VERTEX
  8
E30LXLIFT
 62
7
 10
799.104
 20
-3947.031
 30
2230.000
 70
    32
  0
VERTEX
  8
E30LXLIFT
 62
7
 10
803.350
 20
-3959.792
 30
2230.000
 70
    32
  0
VERTEX
  8
E30LXLIFT
 62
7
 10
809.785
 20
-3973.030
 30
2230.000
 70
    32
  0
VERTEX
  8
E30LXLIFT
 62
7
 10
815.848
 20
-3982.307
 30
2230.000
 70
    32
  0
SEQEND
  8
E30LXLIFT
  0
POLYLINE
  8
E30LXLIFT
 62
11
 66
     1
 70
     9
  0
VERTEX
  8
E30LXLIFT
 62
11
 10
552.519
 20
-3161.081
 30
2284.000
 70
    32
  0
VERTEX
  8
E30LXLIFT
 62
11
 10
563.492
 20
-3155.116
 30
2284.000
 70
    32
  0
VERTEX
  8
E30LXLIFT
 62
11
 10
559.382
 20
-3149.203
 30
2284.000
 70
    32
  0
VERTEX
  8
E30LXLIFT
 62
11
 10
579.089
 20
-3135.105
 30
2284.000
 70
    32
  0
VERTEX
  8
E30LXLIFT
 62
11
 10
583.348
 20
-3138.842
 30
2284.000
 70
    32
  0
VERTEX
  8
E30LXLIFT
 62
11
 10
588.075
 20
-3135.491
 30
2284.000
 70
    32
  0
VERTEX
  8
E30LXLIFT
 62
11
 10
629.116
 20
-3103.275
 30
2284.000
 70
    32
  0
VERTEX
  8
E30LXLIFT
 62
11
 10
637.298
 20
-3079.228
 30
2284.000
 70
    32
  0
VERTEX
  8
E30LXLIFT
 62
11
 10
642.682
 20
-3075.287
 30
2284.000
 70
    32
  0
VERTEX
  8
E30LXLIFT
 62
11
 10
648.103
 20
-3081.654
 30
2284.000
 70
    32
  0
VERTEX
  8
E30LXLIFT
 62
11
 10
657.708
 20
-3075.603
 30
2284.000
 70
    32
  0
VERTEX
  8
E30LXLIFT
 62
11
 10
662.446
 20
-3086.386
 30
2284.000
 70
    32
  0
VERTEX
  8
E30LXLIFT
 62
11
 10
670.428
 20
-3085.549
 30
2284.000
 70
    32
  0
VERTEX
  8
E30LXLIFT
 62
11
 10
677.307
 20
-3097.920
 30
2284.000
 70
    32
  0
VERTEX
  8
E30LXLIFT
 62
11
 10
686.313
 20
-3107.103
 30
2284.000
 70
    32
  0
VERTEX
  8
E30LXLIFT
 62
11
 10
757.171
 20
-3065.683
 30
2284.000
 70
    32
  0
VERTEX
  8
E30LXLIFT
 62
11
 10
778.244
 20
-3048.844
 30
2284.000
 70
    32
  0
VERTEX
  8
E30LXLIFT
 62
11
 10
800.856
 20
-3011.514
 30
2284.000
 70
    32
  0
VERTEX
  8
E30LXLIFT
 62
11
 10
806.696
 20
-3009.089
 30
2284.000
 70
    32
  0
VERTEX
  8
E30LXLIFT
 62
11
 10
812.585
 20
-3010.001
 30
2284.000
 70
    32
  0
VERTEX
  8
E30LXLIFT
 62
11
 10
827.324
 20
-3025.975
 30
2284.000
 70
    32
  0
VERTEX
  8
E30LXLIFT
 62
11
 10
831.292
 20
-3027.532
 30
2284.000
 70
    32
  0
VERTEX
  8
E30LXLIFT
 62
11
 10
841.353
 20
-3044.101
 30
2284.000
 70
    32
  0
VERTEX
  8
E30LXLIFT
 62
11
 10
852.372
 20
-3055.292
 30
2284.000
 70
    32
  0
VERTEX
  8
E30LXLIFT
 62
11
 10
862.399
 20
-3073.301
 30
2284.000
 70
    32
  0
VERTEX
  8
E30LXLIFT
 62
11
 10
875.843
 20
-3090.332
 30
2284.000
 70
    32
  0
VERTEX
  8
E30LXLIFT
 62
11
 10
888.397
 20
-3105.403
 30
2284.000
 70
    32
  0
VERTEX
  8
E30LXLIFT
 62
11
 10
900.462
 20
-3118.765
 30
2284.000
 70
    32
  0
VERTEX
  8
E30LXLIFT
 62
11
 10
907.414
 20
-3129.452
 30
2284.000
 70
    32
  0
VERTEX
  8
E30LXLIFT
 62
11
 10
912.429
 20
-3131.547
 30
2284.000
 70
    32
  0
VERTEX
  8
E30LXLIFT
 62
11
 10
919.662
 20
-3139.199
 30
2284.000
 70
    32
  0
VERTEX
  8
E30LXLIFT
 62
11
 10
933.176
 20
-3162.270
 30
2284.000
 70
    32
  0
VERTEX
  8
E30LXLIFT
 62
11
 10
939.382
 20
-3178.181
 30
2284.000
 70
    32
  0
VERTEX
  8
E30LXLIFT
 62
11
 10
945.958
 20
-3196.975
 30
2284.000
 70
    32
  0
VERTEX
  8
E30LXLIFT
 62
11
 10
952.026
 20
-3214.183
 30
2284.000
 70
    32
  0
VERTEX
  8
E30LXLIFT
 62
11
 10
944.370
 20
-3215.762
 30
2284.000
 70
    32
  0
VERTEX
  8
E30LXLIFT
 62
11
 10
933.473
 20
-3204.590
 30
2284.000
 70
    32
  0
VERTEX
  8
E30LXLIFT
 62
11
 10
919.824
 20
-3184.010
 30
2284.000
 70
    32
  0
VERTEX
  8
E30LXLIFT
 62
11
 10
905.783
 20
-3163.935
 30
2284.000
 70
    32
  0
VERTEX
  8
E30LXLIFT
 62
11
 10
896.494
 20
-3148.867
 30
2284.000
 70
    32
  0
VERTEX
  8
E30LXLIFT
 62
11
 10
890.367
 20
-3145.846
 30
2284.000
 70
    32
  0
VERTEX
  8
E30LXLIFT
 62
11
 10
882.753
 20
-3136.187
 30
2284.000
 70
    32
  0
VERTEX
  8
E30LXLIFT
 62
11
 10
872.202
 20
-3134.554
 30
2284.000
 70
    32
  0
VERTEX
  8
E30LXLIFT
 62
11
 10
862.377
 20
-3138.373
 30
2284.000
 70
    32
  0
VERTEX
  8
E30LXLIFT
 62
11
 10
841.096
 20
-3154.929
 30
2284.000
 70
    32
  0
VERTEX
  8
E30LXLIFT
 62
11
 10
835.562
 20
-3158.218
 30
2284.000
 70
    32
  0
VERTEX
  8
E30LXLIFT
 62
11
 10
824.225
 20
-3144.214
 30
2284.000
 70
    32
  0
VERTEX
  8
E30LXLIFT
 62
11
 10
804.681
 20
-3154.820
 30
2284.000
 70
    32
  0
VERTEX
  8
E30LXLIFT
 62
11
 10
789.930
 20
-3136.896
 30
2284.000
 70
    32
  0
VERTEX
  8
E30LXLIFT
 62
11
 10
780.652
 20
-3120.950
 30
2284.000
 70
    32
  0
VERTEX
  8
E30LXLIFT
 62
11
 10
679.130
 20
-3153.918
 30
2284.000
 70
    32
  0
VERTEX
  8
E30LXLIFT
 62
11
 10
624.482
 20
-3196.528
 30
2284.000
 70
    32
  0
VERTEX
  8
E30LXLIFT
 62
11
 10
595.773
 20
-3217.650
 30
2284.000
 70
    32
  0
VERTEX
  8
E30LXLIFT
 62
11
 10
588.331
 20
-3206.887
 30
2284.000
 70
    32
  0
VERTEX
  8
E30LXLIFT
 62
11
 10
581.143
 20
-3196.918
 30
2284.000
 70
    32
  0
VERTEX
  8
E30LXLIFT
 62
11
 10
567.519
 20
-3180.237
 30
2284.000
 70
    32
  0
SEQEND
  8
E30LXLIFT
  0
ENDSEC
  0
EOF
