999
********************************
999
*   DXF File - Entities Only   *
999
*        3D Data Format        *
999
*     Output from ENVISAGE     *
999
*     31-Dec-2007 14:19:37     *
999
********************************
  0
SECTION 
  2
HEADER
  9
$ACADVER
  1
AC1009
  9
$EXTMIN
 10
-290000.000
 20
-250000.000
 30
-4000.000
  9
$EXTMAX
 10
320000.000
 20
160000.000
 30
6000.000
  0
ENDSEC
  0
SECTION
  2
ENTITIES
  0
POLYLINE
  8
E32LALIFT
 62
11
 66
     1
 70
     9
  0
VERTEX
  8
E32LALIFT
 62
11
 10
1831.495
 20
-4375.925
 30
2072.178
 70
    32
  0
VERTEX
  8
E32LALIFT
 62
11
 10
1823.117
 20
-4363.538
 30
2069.028
 70
    32
  0
VERTEX
  8
E32LALIFT
 62
11
 10
1816.727
 20
-4352.435
 30
2066.391
 70
    32
  0
VERTEX
  8
E32LALIFT
 62
11
 10
1811.398
 20
-4354.241
 30
2065.926
 70
    32
  0
VERTEX
  8
E32LALIFT
 62
11
 10
1806.062
 20
-4344.272
 30
2065.198
 70
    32
  0
VERTEX
  8
E32LALIFT
 62
11
 10
1801.475
 20
-4337.339
 30
2065.179
 70
    32
  0
VERTEX
  8
E32LALIFT
 62
11
 10
1801.522
 20
-4331.117
 30
2065.102
 70
    32
  0
VERTEX
  8
E32LALIFT
 62
11
 10
1811.273
 20
-4323.164
 30
2065.133
 70
    32
  0
VERTEX
  8
E32LALIFT
 62
11
 10
1821.543
 20
-4338.221
 30
2065.172
 70
    32
  0
VERTEX
  8
E32LALIFT
 62
11
 10
1831.736
 20
-4353.771
 30
2068.007
 70
    32
  0
VERTEX
  8
E32LALIFT
 62
11
 10
1841.732
 20
-4368.089
 30
2072.170
 70
    32
  0
SEQEND
  8
E32LALIFT
  0
POLYLINE
  8
E32LALIFT
 62
7
 66
     1
 70
     9
  0
VERTEX
  8
E32LALIFT
 62
7
 10
1866.676
 20
-4418.704
 30
2140.000
 70
    32
  0
VERTEX
  8
E32LALIFT
 62
7
 10
1874.953
 20
-4431.782
 30
2140.000
 70
    32
  0
VERTEX
  8
E32LALIFT
 62
7
 10
1883.774
 20
-4440.164
 30
2140.000
 70
    32
  0
VERTEX
  8
E32LALIFT
 62
7
 10
1891.551
 20
-4450.631
 30
2140.000
 70
    32
  0
VERTEX
  8
E32LALIFT
 62
7
 10
1899.323
 20
-4462.569
 30
2140.000
 70
    32
  0
VERTEX
  8
E32LALIFT
 62
7
 10
1906.679
 20
-4471.786
 30
2140.000
 70
    32
  0
VERTEX
  8
E32LALIFT
 62
7
 10
1913.188
 20
-4479.533
 30
2140.000
 70
    32
  0
VERTEX
  8
E32LALIFT
 62
7
 10
1919.422
 20
-4486.481
 30
2140.000
 70
    32
  0
VERTEX
  8
E32LALIFT
 62
7
 10
1923.436
 20
-4493.837
 30
2140.000
 70
    32
  0
VERTEX
  8
E32LALIFT
 62
7
 10
1924.918
 20
-4501.334
 30
2140.000
 70
    32
  0
VERTEX
  8
E32LALIFT
 62
7
 10
1926.998
 20
-4508.984
 30
2140.000
 70
    32
  0
VERTEX
  8
E32LALIFT
 62
7
 10
1928.042
 20
-4516.926
 30
2140.000
 70
    32
  0
VERTEX
  8
E32LALIFT
 62
7
 10
1910.638
 20
-4520.757
 30
2140.000
 70
    32
  0
VERTEX
  8
E32LALIFT
 62
7
 10
1910.193
 20
-4515.901
 30
2140.000
 70
    32
  0
VERTEX
  8
E32LALIFT
 62
7
 10
1908.412
 20
-4508.111
 30
2140.000
 70
    32
  0
VERTEX
  8
E32LALIFT
 62
7
 10
1904.996
 20
-4498.693
 30
2140.000
 70
    32
  0
VERTEX
  8
E32LALIFT
 62
7
 10
1896.846
 20
-4484.956
 30
2140.000
 70
    32
  0
VERTEX
  8
E32LALIFT
 62
7
 10
1888.892
 20
-4476.062
 30
2140.000
 70
    32
  0
VERTEX
  8
E32LALIFT
 62
7
 10
1883.585
 20
-4464.198
 30
2140.000
 70
    32
  0
VERTEX
  8
E32LALIFT
 62
7
 10
1878.125
 20
-4454.993
 30
2140.000
 70
    32
  0
VERTEX
  8
E32LALIFT
 62
7
 10
1873.288
 20
-4449.216
 30
2140.000
 70
    32
  0
VERTEX
  8
E32LALIFT
 62
7
 10
1868.140
 20
-4444.220
 30
2140.000
 70
    32
  0
VERTEX
  8
E32LALIFT
 62
7
 10
1863.613
 20
-4437.040
 30
2140.000
 70
    32
  0
VERTEX
  8
E32LALIFT
 62
7
 10
1856.275
 20
-4425.615
 30
2140.000
 70
    32
  0
SEQEND
  8
E32LALIFT
  0
POLYLINE
  8
E32LALIFT
 62
7
 66
     1
 70
     8
  0
VERTEX
  8
E32LALIFT
 62
7
 10
1978.535
 20
-4517.688
 30
2053.837
 70
    32
  0
VERTEX
  8
E32LALIFT
 62
7
 10
1957.193
 20
-4495.977
 30
2062.585
 70
    32
  0
VERTEX
  8
E32LALIFT
 62
7
 10
1938.043
 20
-4476.116
 30
2068.072
 70
    32
  0
VERTEX
  8
E32LALIFT
 62
7
 10
1919.634
 20
-4458.330
 30
2071.047
 70
    32
  0
VERTEX
  8
E32LALIFT
 62
7
 10
1910.345
 20
-4446.190
 30
2070.987
 70
    32
  0
VERTEX
  8
E32LALIFT
 62
7
 10
1904.868
 20
-4433.875
 30
2071.114
 70
    32
  0
VERTEX
  8
E32LALIFT
 62
7
 10
1897.534
 20
-4425.135
 30
2071.222
 70
    32
  0
VERTEX
  8
E32LALIFT
 62
7
 10
1888.933
 20
-4412.284
 30
2071.367
 70
    32
  0
VERTEX
  8
E32LALIFT
 62
7
 10
1879.214
 20
-4402.122
 30
2071.500
 70
    32
  0
VERTEX
  8
E32LALIFT
 62
7
 10
1869.225
 20
-4393.673
 30
2072.771
 70
    32
  0
VERTEX
  8
E32LALIFT
 62
7
 10
1850.987
 20
-4379.249
 30
2075.113
 70
    32
  0
VERTEX
  8
E32LALIFT
 62
7
 10
1832.865
 20
-4355.667
 30
2077.672
 70
    32
  0
VERTEX
  8
E32LALIFT
 62
7
 10
1820.831
 20
-4338.998
 30
2078.300
 70
    32
  0
VERTEX
  8
E32LALIFT
 62
7
 10
1812.339
 20
-4322.946
 30
2079.500
 70
    32
  0
VERTEX
  8
E32LALIFT
 62
7
 10
1806.028
 20
-4316.580
 30
2079.500
 70
    32
  0
VERTEX
  8
E32LALIFT
 62
7
 10
1794.506
 20
-4302.389
 30
2078.001
 70
    32
  0
VERTEX
  8
E32LALIFT
 62
7
 10
1790.992
 20
-4298.083
 30
2078.001
 70
    32
  0
VERTEX
  8
E32LALIFT
 62
7
 10
1783.088
 20
-4292.032
 30
2078.001
 70
    32
  0
VERTEX
  8
E32LALIFT
 62
7
 10
1774.368
 20
-4285.774
 30
2078.001
 70
    32
  0
VERTEX
  8
E32LALIFT
 62
7
 10
1760.097
 20
-4266.823
 30
2078.001
 70
    32
  0
VERTEX
  8
E32LALIFT
 62
7
 10
1748.830
 20
-4251.826
 30
2078.001
 70
    32
  0
VERTEX
  8
E32LALIFT
 62
7
 10
1752.342
 20
-4241.136
 30
2078.100
 70
    32
  0
VERTEX
  8
E32LALIFT
 62
7
 10
1740.010
 20
-4232.364
 30
2078.300
 70
    32
  0
VERTEX
  8
E32LALIFT
 62
7
 10
1731.431
 20
-4232.459
 30
2078.500
 70
    32
  0
VERTEX
  8
E32LALIFT
 62
7
 10
1726.638
 20
-4236.083
 30
2078.500
 70
    32
  0
VERTEX
  8
E32LALIFT
 62
7
 10
1730.186
 20
-4242.784
 30
2078.300
 70
    32
  0
VERTEX
  8
E32LALIFT
 62
7
 10
1727.005
 20
-4248.600
 30
2078.100
 70
    32
  0
VERTEX
  8
E32LALIFT
 62
7
 10
1741.150
 20
-4265.796
 30
2078.001
 70
    32
  0
VERTEX
  8
E32LALIFT
 62
7
 10
1755.745
 20
-4284.071
 30
2078.001
 70
    32
  0
VERTEX
  8
E32LALIFT
 62
7
 10
1771.933
 20
-4304.429
 30
2078.001
 70
    32
  0
VERTEX
  8
E32LALIFT
 62
7
 10
1779.122
 20
-4312.619
 30
2078.001
 70
    32
  0
VERTEX
  8
E32LALIFT
 62
7
 10
1782.862
 20
-4315.541
 30
2079.500
 70
    32
  0
VERTEX
  8
E32LALIFT
 62
7
 10
1784.508
 20
-4319.018
 30
2079.500
 70
    32
  0
VERTEX
  8
E32LALIFT
 62
7
 10
1790.507
 20
-4330.570
 30
2079.500
 70
    32
  0
VERTEX
  8
E32LALIFT
 62
7
 10
1799.438
 20
-4347.039
 30
2078.350
 70
    32
  0
VERTEX
  8
E32LALIFT
 62
7
 10
1805.549
 20
-4351.368
 30
2078.300
 70
    32
  0
VERTEX
  8
E32LALIFT
 62
7
 10
1824.221
 20
-4366.319
 30
2077.524
 70
    32
  0
VERTEX
  8
E32LALIFT
 62
7
 10
1842.039
 20
-4389.002
 30
2075.282
 70
    32
  0
VERTEX
  8
E32LALIFT
 62
7
 10
1854.940
 20
-4396.782
 30
2073.487
 70
    32
  0
VERTEX
  8
E32LALIFT
 62
7
 10
1857.946
 20
-4403.485
 30
2072.682
 70
    32
  0
VERTEX
  8
E32LALIFT
 62
7
 10
1863.218
 20
-4406.781
 30
2072.000
 70
    32
  0
VERTEX
  8
E32LALIFT
 62
7
 10
1870.684
 20
-4415.914
 30
2071.775
 70
    32
  0
VERTEX
  8
E32LALIFT
 62
7
 10
1870.865
 20
-4422.392
 30
2071.652
 70
    32
  0
VERTEX
  8
E32LALIFT
 62
7
 10
1880.815
 20
-4438.081
 30
2071.333
 70
    32
  0
VERTEX
  8
E32LALIFT
 62
7
 10
1887.956
 20
-4439.658
 30
2071.219
 70
    32
  0
VERTEX
  8
E32LALIFT
 62
7
 10
1902.439
 20
-4454.197
 30
2070.927
 70
    32
  0
VERTEX
  8
E32LALIFT
 62
7
 10
1901.314
 20
-4457.747
 30
2071.163
 70
    32
  0
VERTEX
  8
E32LALIFT
 62
7
 10
1913.497
 20
-4471.169
 30
2070.473
 70
    32
  0
VERTEX
  8
E32LALIFT
 62
7
 10
1926.826
 20
-4482.681
 30
2068.433
 70
    32
  0
VERTEX
  8
E32LALIFT
 62
7
 10
1954.360
 20
-4509.549
 30
2060.263
 70
    32
  0
VERTEX
  8
E32LALIFT
 62
7
 10
1968.320
 20
-4524.507
 30
2054.381
 70
    32
  0
SEQEND
  8
E32LALIFT
  0
POLYLINE
  8
E32LALIFT
 62
6
 66
     1
 70
     8
  0
VERTEX
  8
E32LALIFT
 62
6
 10
1960.535
 20
-4534.836
 30
2125.000
 70
    32
  0
VERTEX
  8
E32LALIFT
 62
6
 10
1955.866
 20
-4532.084
 30
2125.000
 70
    32
  0
VERTEX
  8
E32LALIFT
 62
6
 10
1943.336
 20
-4517.159
 30
2125.500
 70
    32
  0
VERTEX
  8
E32LALIFT
 62
6
 10
1934.602
 20
-4510.829
 30
2126.000
 70
    32
  0
VERTEX
  8
E32LALIFT
 62
6
 10
1928.334
 20
-4510.981
 30
2126.000
 70
    32
  0
VERTEX
  8
E32LALIFT
 62
6
 10
1929.201
 20
-4527.985
 30
2126.000
 70
    32
  0
VERTEX
  8
E32LALIFT
 62
6
 10
1929.396
 20
-4531.165
 30
2126.000
 70
    32
  0
VERTEX
  8
E32LALIFT
 62
6
 10
1930.125
 20
-4542.091
 30
2126.000
 70
    32
  0
VERTEX
  8
E32LALIFT
 62
6
 10
1932.041
 20
-4549.070
 30
2126.000
 70
    32
  0
VERTEX
  8
E32LALIFT
 62
6
 10
1920.271
 20
-4549.473
 30
2126.000
 70
    32
  0
VERTEX
  8
E32LALIFT
 62
6
 10
1918.883
 20
-4543.661
 30
2126.000
 70
    32
  0
VERTEX
  8
E32LALIFT
 62
6
 10
1913.151
 20
-4541.277
 30
2126.000
 70
    32
  0
VERTEX
  8
E32LALIFT
 62
6
 10
1911.203
 20
-4533.392
 30
2126.000
 70
    32
  0
VERTEX
  8
E32LALIFT
 62
6
 10
1908.537
 20
-4508.601
 30
2126.500
 70
    32
  0
VERTEX
  8
E32LALIFT
 62
6
 10
1904.871
 20
-4498.653
 30
2126.500
 70
    32
  0
VERTEX
  8
E32LALIFT
 62
6
 10
1897.627
 20
-4485.400
 30
2127.190
 70
    32
  0
VERTEX
  8
E32LALIFT
 62
6
 10
1887.425
 20
-4475.608
 30
2127.500
 70
    32
  0
VERTEX
  8
E32LALIFT
 62
6
 10
1887.205
 20
-4471.562
 30
2127.500
 70
    32
  0
VERTEX
  8
E32LALIFT
 62
6
 10
1878.894
 20
-4456.393
 30
2128.000
 70
    32
  0
VERTEX
  8
E32LALIFT
 62
6
 10
1878.262
 20
-4451.444
 30
2128.000
 70
    32
  0
VERTEX
  8
E32LALIFT
 62
6
 10
1875.673
 20
-4447.527
 30
2128.000
 70
    32
  0
VERTEX
  8
E32LALIFT
 62
6
 10
1867.661
 20
-4445.404
 30
2127.500
 70
    32
  0
VERTEX
  8
E32LALIFT
 62
6
 10
1863.304
 20
-4440.859
 30
2127.500
 70
    32
  0
VERTEX
  8
E32LALIFT
 62
6
 10
1862.032
 20
-4435.287
 30
2127.500
 70
    32
  0
VERTEX
  8
E32LALIFT
 62
6
 10
1848.368
 20
-4416.407
 30
2127.500
 70
    32
  0
VERTEX
  8
E32LALIFT
 62
6
 10
1836.740
 20
-4399.321
 30
2128.000
 70
    32
  0
VERTEX
  8
E32LALIFT
 62
6
 10
1819.118
 20
-4377.211
 30
2127.000
 70
    32
  0
VERTEX
  8
E32LALIFT
 62
6
 10
1807.953
 20
-4364.247
 30
2127.000
 70
    32
  0
VERTEX
  8
E32LALIFT
 62
6
 10
1778.066
 20
-4349.661
 30
2127.503
 70
    32
  0
VERTEX
  8
E32LALIFT
 62
6
 10
1763.237
 20
-4342.397
 30
2127.563
 70
    32
  0
VERTEX
  8
E32LALIFT
 62
6
 10
1769.709
 20
-4332.344
 30
2127.618
 70
    32
  0
VERTEX
  8
E32LALIFT
 62
6
 10
1760.700
 20
-4312.332
 30
2128.000
 70
    32
  0
VERTEX
  8
E32LALIFT
 62
6
 10
1750.070
 20
-4303.722
 30
2129.514
 70
    32
  0
VERTEX
  8
E32LALIFT
 62
6
 10
1747.454
 20
-4292.072
 30
2130.321
 70
    32
  0
VERTEX
  8
E32LALIFT
 62
6
 10
1744.413
 20
-4288.172
 30
2130.321
 70
    32
  0
VERTEX
  8
E32LALIFT
 62
6
 10
1740.503
 20
-4287.283
 30
2130.321
 70
    32
  0
VERTEX
  8
E32LALIFT
 62
6
 10
1733.993
 20
-4287.220
 30
2130.321
 70
    32
  0
VERTEX
  8
E32LALIFT
 62
6
 10
1724.253
 20
-4278.092
 30
2130.321
 70
    32
  0
VERTEX
  8
E32LALIFT
 62
6
 10
1717.898
 20
-4270.398
 30
2130.321
 70
    32
  0
VERTEX
  8
E32LALIFT
 62
6
 10
1710.420
 20
-4264.545
 30
2130.321
 70
    32
  0
VERTEX
  8
E32LALIFT
 62
6
 10
1704.801
 20
-4263.706
 30
2130.321
 70
    32
  0
VERTEX
  8
E32LALIFT
 62
6
 10
1699.783
 20
-4255.992
 30
2130.321
 70
    32
  0
VERTEX
  8
E32LALIFT
 62
6
 10
1702.085
 20
-4249.824
 30
2130.321
 70
    32
  0
VERTEX
  8
E32LALIFT
 62
6
 10
1707.994
 20
-4241.780
 30
2130.321
 70
    32
  0
VERTEX
  8
E32LALIFT
 62
6
 10
1712.829
 20
-4238.185
 30
2130.321
 70
    32
  0
VERTEX
  8
E32LALIFT
 62
6
 10
1719.580
 20
-4246.360
 30
2130.321
 70
    32
  0
VERTEX
  8
E32LALIFT
 62
6
 10
1725.746
 20
-4252.151
 30
2130.321
 70
    32
  0
VERTEX
  8
E32LALIFT
 62
6
 10
1728.700
 20
-4251.924
 30
2130.321
 70
    32
  0
VERTEX
  8
E32LALIFT
 62
6
 10
1734.413
 20
-4257.627
 30
2130.321
 70
    32
  0
VERTEX
  8
E32LALIFT
 62
6
 10
1742.196
 20
-4264.426
 30
2130.321
 70
    32
  0
VERTEX
  8
E32LALIFT
 62
6
 10
1746.261
 20
-4265.213
 30
2130.321
 70
    32
  0
VERTEX
  8
E32LALIFT
 62
6
 10
1751.620
 20
-4264.117
 30
2130.321
 70
    32
  0
VERTEX
  8
E32LALIFT
 62
6
 10
1755.833
 20
-4270.565
 30
2130.321
 70
    32
  0
VERTEX
  8
E32LALIFT
 62
6
 10
1761.852
 20
-4270.438
 30
2130.321
 70
    32
  0
VERTEX
  8
E32LALIFT
 62
6
 10
1764.696
 20
-4278.587
 30
2130.965
 70
    32
  0
VERTEX
  8
E32LALIFT
 62
6
 10
1770.873
 20
-4283.798
 30
2130.850
 70
    32
  0
VERTEX
  8
E32LALIFT
 62
6
 10
1770.025
 20
-4289.732
 30
2130.152
 70
    32
  0
VERTEX
  8
E32LALIFT
 62
6
 10
1770.501
 20
-4296.019
 30
2129.417
 70
    32
  0
VERTEX
  8
E32LALIFT
 62
6
 10
1776.178
 20
-4306.775
 30
2128.000
 70
    32
  0
VERTEX
  8
E32LALIFT
 62
6
 10
1782.698
 20
-4314.508
 30
2127.855
 70
    32
  0
VERTEX
  8
E32LALIFT
 62
6
 10
1780.043
 20
-4326.695
 30
2127.677
 70
    32
  0
VERTEX
  8
E32LALIFT
 62
6
 10
1781.652
 20
-4331.848
 30
2127.600
 70
    32
  0
VERTEX
  8
E32LALIFT
 62
6
 10
1806.278
 20
-4349.469
 30
2127.393
 70
    32
  0
VERTEX
  8
E32LALIFT
 62
6
 10
1811.165
 20
-4344.499
 30
2127.000
 70
    32
  0
VERTEX
  8
E32LALIFT
 62
6
 10
1810.370
 20
-4336.730
 30
2127.000
 70
    32
  0
VERTEX
  8
E32LALIFT
 62
6
 10
1818.830
 20
-4327.628
 30
2127.000
 70
    32
  0
VERTEX
  8
E32LALIFT
 62
6
 10
1826.169
 20
-4329.524
 30
2127.000
 70
    32
  0
VERTEX
  8
E32LALIFT
 62
6
 10
1831.543
 20
-4335.025
 30
2127.000
 70
    32
  0
VERTEX
  8
E32LALIFT
 62
6
 10
1824.788
 20
-4344.649
 30
2127.000
 70
    32
  0
VERTEX
  8
E32LALIFT
 62
6
 10
1823.256
 20
-4351.923
 30
2127.000
 70
    32
  0
VERTEX
  8
E32LALIFT
 62
6
 10
1826.665
 20
-4370.906
 30
2128.000
 70
    32
  0
VERTEX
  8
E32LALIFT
 62
6
 10
1832.891
 20
-4378.505
 30
2129.000
 70
    32
  0
VERTEX
  8
E32LALIFT
 62
6
 10
1838.715
 20
-4375.501
 30
2129.000
 70
    32
  0
VERTEX
  8
E32LALIFT
 62
6
 10
1845.243
 20
-4375.000
 30
2129.000
 70
    32
  0
VERTEX
  8
E32LALIFT
 62
6
 10
1855.042
 20
-4385.500
 30
2129.000
 70
    32
  0
VERTEX
  8
E32LALIFT
 62
6
 10
1857.370
 20
-4398.136
 30
2129.000
 70
    32
  0
VERTEX
  8
E32LALIFT
 62
6
 10
1871.439
 20
-4426.057
 30
2128.250
 70
    32
  0
VERTEX
  8
E32LALIFT
 62
6
 10
1875.120
 20
-4430.417
 30
2128.000
 70
    32
  0
VERTEX
  8
E32LALIFT
 62
6
 10
1883.683
 20
-4428.390
 30
2128.000
 70
    32
  0
VERTEX
  8
E32LALIFT
 62
6
 10
1891.265
 20
-4442.372
 30
2128.000
 70
    32
  0
VERTEX
  8
E32LALIFT
 62
6
 10
1900.416
 20
-4462.088
 30
2127.500
 70
    32
  0
VERTEX
  8
E32LALIFT
 62
6
 10
1914.985
 20
-4479.685
 30
2127.000
 70
    32
  0
VERTEX
  8
E32LALIFT
 62
6
 10
1923.598
 20
-4487.766
 30
2126.500
 70
    32
  0
VERTEX
  8
E32LALIFT
 62
6
 10
1938.166
 20
-4497.779
 30
2126.000
 70
    32
  0
VERTEX
  8
E32LALIFT
 62
6
 10
1963.242
 20
-4522.585
 30
2125.000
 70
    32
  0
VERTEX
  8
E32LALIFT
 62
6
 10
1966.966
 20
-4526.201
 30
2125.000
 70
    32
  0
SEQEND
  8
E32LALIFT
  0
POLYLINE
  8
E32LALIFT
 62
7
 66
     1
 70
     9
  0
VERTEX
  8
E32LALIFT
 62
7
 10
1768.973
 20
-4330.849
 30
2128.000
 70
    32
  0
VERTEX
  8
E32LALIFT
 62
7
 10
1762.051
 20
-4320.301
 30
2128.000
 70
    32
  0
VERTEX
  8
E32LALIFT
 62
7
 10
1763.101
 20
-4315.723
 30
2128.000
 70
    32
  0
VERTEX
  8
E32LALIFT
 62
7
 10
1761.246
 20
-4311.507
 30
2128.000
 70
    32
  0
VERTEX
  8
E32LALIFT
 62
7
 10
1750.389
 20
-4299.472
 30
2128.000
 70
    32
  0
VERTEX
  8
E32LALIFT
 62
7
 10
1743.573
 20
-4290.044
 30
2128.000
 70
    32
  0
VERTEX
  8
E32LALIFT
 62
7
 10
1743.549
 20
-4288.953
 30
2128.000
 70
    32
  0
VERTEX
  8
E32LALIFT
 62
7
 10
1730.593
 20
-4282.774
 30
2128.000
 70
    32
  0
VERTEX
  8
E32LALIFT
 62
7
 10
1718.891
 20
-4279.257
 30
2128.000
 70
    32
  0
VERTEX
  8
E32LALIFT
 62
7
 10
1712.685
 20
-4277.952
 30
2128.000
 70
    32
  0
VERTEX
  8
E32LALIFT
 62
7
 10
1714.249
 20
-4265.881
 30
2128.000
 70
    32
  0
VERTEX
  8
E32LALIFT
 62
7
 10
1719.180
 20
-4258.852
 30
2128.000
 70
    32
  0
VERTEX
  8
E32LALIFT
 62
7
 10
1724.725
 20
-4262.881
 30
2128.000
 70
    32
  0
VERTEX
  8
E32LALIFT
 62
7
 10
1730.644
 20
-4261.781
 30
2128.000
 70
    32
  0
VERTEX
  8
E32LALIFT
 62
7
 10
1736.289
 20
-4267.680
 30
2128.000
 70
    32
  0
VERTEX
  8
E32LALIFT
 62
7
 10
1745.536
 20
-4268.107
 30
2128.000
 70
    32
  0
VERTEX
  8
E32LALIFT
 62
7
 10
1752.250
 20
-4271.163
 30
2128.000
 70
    32
  0
VERTEX
  8
E32LALIFT
 62
7
 10
1758.477
 20
-4270.072
 30
2128.000
 70
    32
  0
VERTEX
  8
E32LALIFT
 62
7
 10
1763.177
 20
-4282.131
 30
2128.000
 70
    32
  0
VERTEX
  8
E32LALIFT
 62
7
 10
1763.454
 20
-4282.852
 30
2128.000
 70
    32
  0
VERTEX
  8
E32LALIFT
 62
7
 10
1770.334
 20
-4288.403
 30
2128.000
 70
    32
  0
VERTEX
  8
E32LALIFT
 62
7
 10
1770.020
 20
-4291.940
 30
2128.000
 70
    32
  0
VERTEX
  8
E32LALIFT
 62
7
 10
1776.996
 20
-4306.172
 30
2128.000
 70
    32
  0
VERTEX
  8
E32LALIFT
 62
7
 10
1783.134
 20
-4316.189
 30
2128.000
 70
    32
  0
VERTEX
  8
E32LALIFT
 62
7
 10
1780.010
 20
-4327.113
 30
2128.000
 70
    32
  0
SEQEND
  8
E32LALIFT
  0
POLYLINE
  8
E32LALIFT
 62
7
 66
     1
 70
     9
  0
VERTEX
  8
E32LALIFT
 62
7
 10
1768.973
 20
-4330.849
 30
2128.000
 70
    32
  0
VERTEX
  8
E32LALIFT
 62
7
 10
1762.051
 20
-4320.301
 30
2134.537
 70
    32
  0
VERTEX
  8
E32LALIFT
 62
7
 10
1763.101
 20
-4315.723
 30
2133.981
 70
    32
  0
VERTEX
  8
E32LALIFT
 62
7
 10
1761.246
 20
-4311.507
 30
2134.978
 70
    32
  0
VERTEX
  8
E32LALIFT
 62
7
 10
1750.389
 20
-4299.472
 30
2138.829
 70
    32
  0
VERTEX
  8
E32LALIFT
 62
7
 10
1743.573
 20
-4290.044
 30
2140.495
 70
    32
  0
VERTEX
  8
E32LALIFT
 62
7
 10
1730.593
 20
-4282.774
 30
2142.255
 70
    32
  0
VERTEX
  8
E32LALIFT
 62
7
 10
1718.891
 20
-4279.257
 30
2144.155
 70
    32
  0
VERTEX
  8
E32LALIFT
 62
7
 10
1712.685
 20
-4277.952
 30
2144.255
 70
    32
  0
VERTEX
  8
E32LALIFT
 62
7
 10
1714.249
 20
-4265.881
 30
2144.255
 70
    32
  0
VERTEX
  8
E32LALIFT
 62
7
 10
1719.180
 20
-4258.852
 30
2144.255
 70
    32
  0
VERTEX
  8
E32LALIFT
 62
7
 10
1724.725
 20
-4262.881
 30
2144.155
 70
    32
  0
VERTEX
  8
E32LALIFT
 62
7
 10
1730.644
 20
-4261.781
 30
2143.755
 70
    32
  0
VERTEX
  8
E32LALIFT
 62
7
 10
1736.289
 20
-4267.680
 30
2143.255
 70
    32
  0
VERTEX
  8
E32LALIFT
 62
7
 10
1745.536
 20
-4268.107
 30
2142.255
 70
    32
  0
VERTEX
  8
E32LALIFT
 62
7
 10
1752.250
 20
-4271.163
 30
2142.255
 70
    32
  0
VERTEX
  8
E32LALIFT
 62
7
 10
1758.477
 20
-4270.072
 30
2141.255
 70
    32
  0
VERTEX
  8
E32LALIFT
 62
7
 10
1763.177
 20
-4282.131
 30
2140.255
 70
    32
  0
VERTEX
  8
E32LALIFT
 62
7
 10
1770.334
 20
-4288.403
 30
2140.208
 70
    32
  0
VERTEX
  8
E32LALIFT
 62
7
 10
1770.020
 20
-4291.940
 30
2138.938
 70
    32
  0
VERTEX
  8
E32LALIFT
 62
7
 10
1776.996
 20
-4306.172
 30
2135.000
 70
    32
  0
VERTEX
  8
E32LALIFT
 62
7
 10
1783.134
 20
-4316.189
 30
2133.632
 70
    32
  0
VERTEX
  8
E32LALIFT
 62
7
 10
1780.010
 20
-4327.113
 30
2128.000
 70
    32
  0
SEQEND
  8
E32LALIFT
  0
TEXT
  8
E32LALIFT
 62
7
 10
1880.580
 20
-4400.844
 30
2071.503
 40
1.575
  1
ST-856T
 50
43.910
 41
 1.0 
  0
TEXT
  8
E32LALIFT
 62
7
 10
1881.956
 20
-4402.308
 30
2071.503
 40
1.575
  1
2071.5032
 50
43.910
 41
 1.0 
  0
POINT
  8
E32LALIFT
 62
7
 10
1871.710
 20
-4406.784
 30
2071.503
  0
POLYLINE
  8
E32LALIFT
 62
7
 66
     1
 70
     9
  0
VERTEX
  8
E32LALIFT
 62
7
 10
1871.614
 20
-4404.384
 30
2071.503
 70
    32
  0
VERTEX
  8
E32LALIFT
 62
7
 10
1869.614
 20
-4407.850
 30
2071.503
 70
    32
  0
VERTEX
  8
E32LALIFT
 62
7
 10
1873.614
 20
-4407.850
 30
2071.503
 70
    32
  0
SEQEND
  8
E32LALIFT
  0
POINT
  8
E32LALIFT
 62
7
 10
1888.073
 20
-4421.229
 30
2071.442
  0
POLYLINE
  8
E32LALIFT
 62
7
 66
     1
 70
     9
  0
VERTEX
  8
E32LALIFT
 62
7
 10
1888.073
 20
-4419.017
 30
2071.442
 70
    32
  0
VERTEX
  8
E32LALIFT
 62
7
 10
1886.073
 20
-4422.484
 30
2071.442
 70
    32
  0
VERTEX
  8
E32LALIFT
 62
7
 10
1890.073
 20
-4422.484
 30
2071.442
 70
    32
  0
SEQEND
  8
E32LALIFT
  0
TEXT
  8
E32LALIFT
 62
7
 10
1895.511
 20
-4419.328
 30
2071.442
 40
1.575
  1
ST-856S
 50
27.800
 41
 1.0 
  0
TEXT
  8
E32LALIFT
 62
7
 10
1896.431
 20
-4420.897
 30
2071.442
 40
1.575
  1
2071.4424
 50
27.800
 41
 1.0 
  0
TEXT
  8
E32LALIFT
 62
7
 10
1888.177
 20
-4460.717
 30
2070.848
 40
1.575
  1
2070.848
 50
27.800
 41
 1.0 
  0
TEXT
  8
E32LALIFT
 62
7
 10
1887.095
 20
-4459.052
 30
2070.848
 40
1.575
  1
ST-547Q
 50
27.800
 41
 1.0 
  0
TEXT
  8
E32LALIFT
 62
7
 10
1892.261
 20
-4466.021
 30
2071.829
 40
1.575
  1
ST-547R
 50
27.800
 41
 1.0 
  0
TEXT
  8
E32LALIFT
 62
7
 10
1893.080
 20
-4467.925
 30
2071.829
 40
1.575
  1
2071.829
 50
27.800
 41
 1.0 
  0
POINT
  8
E32LALIFT
 62
7
 10
1905.966
 20
-4450.441
 30
2070.848
  0
POLYLINE
  8
E32LALIFT
 62
7
 66
     1
 70
     9
  0
VERTEX
  8
E32LALIFT
 62
7
 10
1905.966
 20
-4448.231
 30
2070.848
 70
    32
  0
VERTEX
  8
E32LALIFT
 62
7
 10
1907.715
 20
-4451.411
 30
2070.848
 70
    32
  0
VERTEX
  8
E32LALIFT
 62
7
 10
1904.216
 20
-4451.409
 30
2070.848
 70
    32
  0
SEQEND
  8
E32LALIFT
  0
POINT
  8
E32LALIFT
 62
7
 10
1911.327
 20
-4457.020
 30
2071.829
  0
POLYLINE
  8
E32LALIFT
 62
7
 66
     1
 70
     9
  0
VERTEX
  8
E32LALIFT
 62
7
 10
1911.327
 20
-4454.810
 30
2071.829
 70
    32
  0
VERTEX
  8
E32LALIFT
 62
7
 10
1913.076
 20
-4457.990
 30
2071.829
 70
    32
  0
VERTEX
  8
E32LALIFT
 62
7
 10
1909.577
 20
-4457.988
 30
2071.829
 70
    32
  0
SEQEND
  8
E32LALIFT
  0
TEXT
  8
E32LALIFT
 62
7
 10
1927.430
 20
-4501.255
 30
2066.444
 40
1.575
  1
2066.444
 50
27.800
 41
 1.0 
  0
TEXT
  8
E32LALIFT
 62
7
 10
1926.238
 20
-4499.318
 30
2066.444
 40
1.575
  1
ST-501Q
 50
27.800
 41
 1.0 
  0
POINT
  8
E32LALIFT
 62
7
 10
1943.590
 20
-4490.249
 30
2066.444
  0
POLYLINE
  8
E32LALIFT
 62
7
 66
     1
 70
     9
  0
VERTEX
  8
E32LALIFT
 62
7
 10
1943.590
 20
-4488.039
 30
2066.444
 70
    32
  0
VERTEX
  8
E32LALIFT
 62
7
 10
1945.339
 20
-4491.219
 30
2066.444
 70
    32
  0
VERTEX
  8
E32LALIFT
 62
7
 10
1941.840
 20
-4491.217
 30
2066.444
 70
    32
  0
SEQEND
  8
E32LALIFT
  0
TEXT
  8
E32LALIFT
 62
7
 10
1938.536
 20
-4512.310
 30
2062.379
 40
1.575
  1
2062.379
 50
27.800
 41
 1.0 
  0
TEXT
  8
E32LALIFT
 62
7
 10
1937.560
 20
-4510.644
 30
2062.379
 40
1.575
  1
ST-501R
 50
27.800
 41
 1.0 
  0
POINT
  8
E32LALIFT
 62
7
 10
1954.179
 20
-4500.659
 30
2062.379
  0
POLYLINE
  8
E32LALIFT
 62
7
 66
     1
 70
     9
  0
VERTEX
  8
E32LALIFT
 62
7
 10
1954.179
 20
-4498.449
 30
2062.379
 70
    32
  0
VERTEX
  8
E32LALIFT
 62
7
 10
1955.928
 20
-4501.629
 30
2062.379
 70
    32
  0
VERTEX
  8
E32LALIFT
 62
7
 10
1952.429
 20
-4501.627
 30
2062.379
 70
    32
  0
SEQEND
  8
E32LALIFT
  0
TEXT
  8
E32LALIFT
 62
7
 10
1966.055
 20
-4513.939
 30
2056.686
 40
1.575
  1
BK  2056.686
 50
27.800
 41
 1.0 
  0
TEXT
  8
E32LALIFT
 62
3
 10
1955.819
 20
-4558.540
 30
2115.000
 40
1.575
  1
2115s
 50
45.140
 41
 1.0 
  0
TEXT
  8
E32LALIFT
 62
3
 10
1952.678
 20
-4555.836
 30
2125.524
 40
1.575
  1
ST-309Q
 50
45.140
 41
 1.0 
  0
TEXT
  8
E32LALIFT
 62
3
 10
1954.148
 20
-4556.957
 30
2125.524
 40
1.575
  1
2125.524
 50
45.140
 41
 1.0 
  0
POINT
  8
E32LALIFT
 62
3
 10
1973.640
 20
-4543.817
 30
2125.524
  0
POLYLINE
  8
E32LALIFT
 62
3
 66
     1
 70
     9
  0
VERTEX
  8
E32LALIFT
 62
3
 10
1973.640
 20
-4541.607
 30
2125.524
 70
    32
  0
VERTEX
  8
E32LALIFT
 62
3
 10
1975.389
 20
-4544.787
 30
2125.524
 70
    32
  0
VERTEX
  8
E32LALIFT
 62
3
 10
1971.890
 20
-4544.785
 30
2125.524
 70
    32
  0
SEQEND
  8
E32LALIFT
  0
ENDSEC
  0
EOF
