999
********************************
999
*   DXF File - Entities Only   *
999
*        3D Data Format        *
999
*     Output from ENVISAGE     *
999
*     31-Dec-2007 14:26:56     *
999
********************************
  0
SECTION 
  2
HEADER
  9
$ACADVER
  1
AC1009
  9
$EXTMIN
 10
-290000.000
 20
-250000.000
 30
-4000.000
  9
$EXTMAX
 10
320000.000
 20
160000.000
 30
6000.000
  0
ENDSEC
  0
SECTION
  2
ENTITIES
  0
LINE
  8
E36LALIFT
 62
1
 10
1673.492
 20
-5213.526
 30
1634.614
 11
1679.711
 21
-5222.255
 31
1635.426
  0
POLYLINE
  8
E36LALIFT
 62
8
 66
     1
 70
     8
  0
VERTEX
  8
E36LALIFT
 62
8
 10
1634.387
 20
-5210.865
 30
1709.283
 70
    32
  0
VERTEX
  8
E36LALIFT
 62
8
 10
1637.681
 20
-5208.686
 30
1709.213
 70
    32
  0
VERTEX
  8
E36LALIFT
 62
8
 10
1645.143
 20
-5209.795
 30
1708.915
 70
    32
  0
VERTEX
  8
E36LALIFT
 62
8
 10
1653.644
 20
-5212.185
 30
1708.549
 70
    32
  0
VERTEX
  8
E36LALIFT
 62
8
 10
1667.469
 20
-5223.045
 30
1707.792
 70
    32
  0
VERTEX
  8
E36LALIFT
 62
8
 10
1667.926
 20
-5225.752
 30
1707.713
 70
    32
  0
VERTEX
  8
E36LALIFT
 62
8
 10
1667.795
 20
-5231.796
 30
1707.578
 70
    32
  0
VERTEX
  8
E36LALIFT
 62
8
 10
1663.788
 20
-5233.061
 30
1707.695
 70
    32
  0
VERTEX
  8
E36LALIFT
 62
8
 10
1658.232
 20
-5224.285
 30
1708.101
 70
    32
  0
VERTEX
  8
E36LALIFT
 62
8
 10
1651.231
 20
-5224.482
 30
1708.352
 70
    32
  0
VERTEX
  8
E36LALIFT
 62
8
 10
1634.387
 20
-5210.865
 30
1709.283
 70
    32
  0
SEQEND
  8
E36LALIFT
  0
POLYLINE
  8
E36LALIFT
 62
13
 66
     1
 70
     8
  0
VERTEX
  8
E36LALIFT
 62
13
 10
1581.407
 20
-5296.111
 30
1638.245
 70
    32
  0
VERTEX
  8
E36LALIFT
 62
13
 10
1571.382
 20
-5299.433
 30
1638.245
 70
    32
  0
VERTEX
  8
E36LALIFT
 62
13
 10
1564.866
 20
-5288.447
 30
1638.245
 70
    32
  0
VERTEX
  8
E36LALIFT
 62
13
 10
1575.886
 20
-5271.268
 30
1638.245
 70
    32
  0
SEQEND
  8
E36LALIFT
  0
POLYLINE
  8
E36LALIFT
 62
8
 66
     1
 70
     8
  0
VERTEX
  8
E36LALIFT
 62
8
 10
1609.208
 20
-5213.270
 30
1709.215
 70
    32
  0
VERTEX
  8
E36LALIFT
 62
8
 10
1606.612
 20
-5207.832
 30
1709.215
 70
    32
  0
VERTEX
  8
E36LALIFT
 62
8
 10
1606.636
 20
-5207.115
 30
1709.000
 70
    32
  0
VERTEX
  8
E36LALIFT
 62
8
 10
1605.680
 20
-5201.399
 30
1709.000
 70
    32
  0
VERTEX
  8
E36LALIFT
 62
8
 10
1609.275
 20
-5193.465
 30
1709.000
 70
    32
  0
VERTEX
  8
E36LALIFT
 62
8
 10
1625.662
 20
-5196.040
 30
1709.000
 70
    32
  0
VERTEX
  8
E36LALIFT
 62
8
 10
1630.859
 20
-5192.237
 30
1709.000
 70
    32
  0
VERTEX
  8
E36LALIFT
 62
8
 10
1638.282
 20
-5195.809
 30
1709.000
 70
    32
  0
VERTEX
  8
E36LALIFT
 62
8
 10
1645.374
 20
-5190.512
 30
1709.000
 70
    32
  0
VERTEX
  8
E36LALIFT
 62
8
 10
1654.330
 20
-5192.568
 30
1709.000
 70
    32
  0
VERTEX
  8
E36LALIFT
 62
8
 10
1656.083
 20
-5197.162
 30
1711.000
 70
    32
  0
VERTEX
  8
E36LALIFT
 62
8
 10
1660.859
 20
-5200.879
 30
1711.500
 70
    32
  0
VERTEX
  8
E36LALIFT
 62
8
 10
1687.472
 20
-5200.395
 30
1713.000
 70
    32
  0
VERTEX
  8
E36LALIFT
 62
8
 10
1689.698
 20
-5200.298
 30
1713.300
 70
    32
  0
VERTEX
  8
E36LALIFT
 62
8
 10
1691.343
 20
-5211.336
 30
1713.000
 70
    32
  0
VERTEX
  8
E36LALIFT
 62
8
 10
1682.053
 20
-5212.207
 30
1711.000
 70
    32
  0
VERTEX
  8
E36LALIFT
 62
8
 10
1678.819
 20
-5215.767
 30
1707.762
 70
    32
  0
VERTEX
  8
E36LALIFT
 62
8
 10
1680.166
 20
-5220.970
 30
1707.500
 70
    32
  0
VERTEX
  8
E36LALIFT
 62
8
 10
1682.071
 20
-5228.019
 30
1707.500
 70
    32
  0
VERTEX
  8
E36LALIFT
 62
8
 10
1685.356
 20
-5229.308
 30
1708.000
 70
    32
  0
VERTEX
  8
E36LALIFT
 62
8
 10
1687.588
 20
-5228.635
 30
1708.000
 70
    32
  0
VERTEX
  8
E36LALIFT
 62
8
 10
1691.939
 20
-5238.640
 30
1707.767
 70
    32
  0
VERTEX
  8
E36LALIFT
 62
8
 10
1691.269
 20
-5239.253
 30
1707.777
 70
    32
  0
VERTEX
  8
E36LALIFT
 62
8
 10
1693.286
 20
-5244.012
 30
1708.146
 70
    32
  0
VERTEX
  8
E36LALIFT
 62
8
 10
1702.704
 20
-5254.329
 30
1709.152
 70
    32
  0
VERTEX
  8
E36LALIFT
 62
8
 10
1700.789
 20
-5263.330
 30
1709.618
 70
    32
  0
VERTEX
  8
E36LALIFT
 62
8
 10
1706.887
 20
-5271.433
 30
1710.355
 70
    32
  0
VERTEX
  8
E36LALIFT
 62
8
 10
1700.829
 20
-5278.271
 30
1710.521
 70
    32
  0
VERTEX
  8
E36LALIFT
 62
8
 10
1695.042
 20
-5281.039
 30
1710.453
 70
    32
  0
VERTEX
  8
E36LALIFT
 62
8
 10
1690.470
 20
-5276.435
 30
1709.989
 70
    32
  0
VERTEX
  8
E36LALIFT
 62
8
 10
1684.979
 20
-5275.513
 30
1709.710
 70
    32
  0
VERTEX
  8
E36LALIFT
 62
8
 10
1681.960
 20
-5272.314
 30
1709.394
 70
    32
  0
VERTEX
  8
E36LALIFT
 62
8
 10
1678.350
 20
-5271.538
 30
1709.201
 70
    32
  0
VERTEX
  8
E36LALIFT
 62
8
 10
1676.886
 20
-5273.326
 30
1709.000
 70
    32
  0
VERTEX
  8
E36LALIFT
 62
8
 10
1677.225
 20
-5282.138
 30
1709.000
 70
    32
  0
VERTEX
  8
E36LALIFT
 62
8
 10
1675.735
 20
-5284.969
 30
1709.000
 70
    32
  0
VERTEX
  8
E36LALIFT
 62
8
 10
1675.393
 20
-5293.712
 30
1708.500
 70
    32
  0
VERTEX
  8
E36LALIFT
 62
8
 10
1682.480
 20
-5303.112
 30
1708.000
 70
    32
  0
VERTEX
  8
E36LALIFT
 62
8
 10
1684.968
 20
-5318.581
 30
1708.000
 70
    32
  0
VERTEX
  8
E36LALIFT
 62
8
 10
1685.350
 20
-5330.986
 30
1707.500
 70
    32
  0
VERTEX
  8
E36LALIFT
 62
8
 10
1685.465
 20
-5340.279
 30
1707.500
 70
    32
  0
VERTEX
  8
E36LALIFT
 62
8
 10
1693.068
 20
-5353.419
 30
1707.500
 70
    32
  0
VERTEX
  8
E36LALIFT
 62
8
 10
1696.261
 20
-5366.589
 30
1707.250
 70
    32
  0
VERTEX
  8
E36LALIFT
 62
8
 10
1700.744
 20
-5380.291
 30
1707.100
 70
    32
  0
VERTEX
  8
E36LALIFT
 62
8
 10
1700.814
 20
-5380.506
 30
1707.100
 70
    32
  0
VERTEX
  8
E36LALIFT
 62
8
 10
1703.883
 20
-5389.886
 30
1707.100
 70
    32
  0
VERTEX
  8
E36LALIFT
 62
8
 10
1708.341
 20
-5403.917
 30
1707.500
 70
    32
  0
VERTEX
  8
E36LALIFT
 62
8
 10
1714.507
 20
-5415.975
 30
1708.000
 70
    32
  0
VERTEX
  8
E36LALIFT
 62
8
 10
1729.250
 20
-5435.164
 30
1708.000
 70
    32
  0
VERTEX
  8
E36LALIFT
 62
8
 10
1736.204
 20
-5451.503
 30
1709.000
 70
    32
  0
VERTEX
  8
E36LALIFT
 62
8
 10
1726.002
 20
-5457.526
 30
1709.000
 70
    32
  0
VERTEX
  8
E36LALIFT
 62
8
 10
1722.928
 20
-5447.896
 30
1709.000
 70
    32
  0
VERTEX
  8
E36LALIFT
 62
8
 10
1719.101
 20
-5441.949
 30
1709.000
 70
    32
  0
VERTEX
  8
E36LALIFT
 62
8
 10
1711.803
 20
-5436.545
 30
1708.500
 70
    32
  0
VERTEX
  8
E36LALIFT
 62
8
 10
1703.146
 20
-5437.709
 30
1708.000
 70
    32
  0
VERTEX
  8
E36LALIFT
 62
8
 10
1704.649
 20
-5443.823
 30
1708.000
 70
    32
  0
VERTEX
  8
E36LALIFT
 62
8
 10
1716.004
 20
-5463.474
 30
1708.000
 70
    32
  0
VERTEX
  8
E36LALIFT
 62
8
 10
1721.347
 20
-5484.280
 30
1708.000
 70
    32
  0
VERTEX
  8
E36LALIFT
 62
8
 10
1721.347
 20
-5484.280
 30
1708.765
 70
    32
  0
VERTEX
  8
E36LALIFT
 62
8
 10
1741.140
 20
-5506.206
 30
1709.215
 70
    32
  0
VERTEX
  8
E36LALIFT
 62
8
 10
1745.950
 20
-5516.912
 30
1709.404
 70
    32
  0
VERTEX
  8
E36LALIFT
 62
8
 10
1743.005
 20
-5524.401
 30
1709.494
 70
    32
  0
VERTEX
  8
E36LALIFT
 62
8
 10
1751.007
 20
-5538.652
 30
1709.756
 70
    32
  0
VERTEX
  8
E36LALIFT
 62
8
 10
1746.266
 20
-5542.756
 30
1709.785
 70
    32
  0
VERTEX
  8
E36LALIFT
 62
8
 10
1732.358
 20
-5543.592
 30
1709.706
 70
    32
  0
VERTEX
  8
E36LALIFT
 62
8
 10
1729.510
 20
-5544.536
 30
1709.702
 70
    32
  0
VERTEX
  8
E36LALIFT
 62
8
 10
1725.927
 20
-5551.953
 30
1709.787
 70
    32
  0
VERTEX
  8
E36LALIFT
 62
8
 10
1721.500
 20
-5551.323
 30
1709.749
 70
    32
  0
VERTEX
  8
E36LALIFT
 62
8
 10
1718.336
 20
-5548.162
 30
1709.682
 70
    32
  0
VERTEX
  8
E36LALIFT
 62
8
 10
1715.382
 20
-5540.620
 30
1709.552
 70
    32
  0
VERTEX
  8
E36LALIFT
 62
8
 10
1712.541
 20
-5511.869
 30
1709.112
 70
    32
  0
VERTEX
  8
E36LALIFT
 62
8
 10
1709.152
 20
-5502.291
 30
1708.949
 70
    32
  0
VERTEX
  8
E36LALIFT
 62
8
 10
1711.377
 20
-5493.854
 30
1708.095
 70
    32
  0
VERTEX
  8
E36LALIFT
 62
8
 10
1708.379
 20
-5483.315
 30
1708.000
 70
    32
  0
VERTEX
  8
E36LALIFT
 62
8
 10
1702.511
 20
-5473.691
 30
1708.000
 70
    32
  0
VERTEX
  8
E36LALIFT
 62
8
 10
1697.611
 20
-5455.748
 30
1708.000
 70
    32
  0
VERTEX
  8
E36LALIFT
 62
8
 10
1690.311
 20
-5451.547
 30
1708.000
 70
    32
  0
VERTEX
  8
E36LALIFT
 62
8
 10
1690.768
 20
-5443.992
 30
1708.000
 70
    32
  0
VERTEX
  8
E36LALIFT
 62
8
 10
1684.975
 20
-5437.482
 30
1708.000
 70
    32
  0
VERTEX
  8
E36LALIFT
 62
8
 10
1688.593
 20
-5427.861
 30
1708.000
 70
    32
  0
VERTEX
  8
E36LALIFT
 62
8
 10
1683.107
 20
-5410.361
 30
1707.500
 70
    32
  0
VERTEX
  8
E36LALIFT
 62
8
 10
1687.389
 20
-5405.055
 30
1707.500
 70
    32
  0
VERTEX
  8
E36LALIFT
 62
8
 10
1690.363
 20
-5398.875
 30
1707.291
 70
    32
  0
VERTEX
  8
E36LALIFT
 62
8
 10
1688.447
 20
-5393.942
 30
1707.104
 70
    32
  0
VERTEX
  8
E36LALIFT
 62
8
 10
1686.607
 20
-5388.231
 30
1707.104
 70
    32
  0
VERTEX
  8
E36LALIFT
 62
8
 10
1681.944
 20
-5380.277
 30
1707.104
 70
    32
  0
VERTEX
  8
E36LALIFT
 62
8
 10
1677.862
 20
-5377.390
 30
1707.104
 70
    32
  0
VERTEX
  8
E36LALIFT
 62
8
 10
1679.185
 20
-5371.711
 30
1707.104
 70
    32
  0
VERTEX
  8
E36LALIFT
 62
8
 10
1680.508
 20
-5366.032
 30
1707.104
 70
    32
  0
VERTEX
  8
E36LALIFT
 62
8
 10
1681.766
 20
-5363.708
 30
1707.380
 70
    32
  0
VERTEX
  8
E36LALIFT
 62
8
 10
1679.110
 20
-5358.762
 30
1707.500
 70
    32
  0
VERTEX
  8
E36LALIFT
 62
8
 10
1668.610
 20
-5355.893
 30
1707.500
 70
    32
  0
VERTEX
  8
E36LALIFT
 62
8
 10
1664.409
 20
-5327.963
 30
1708.000
 70
    32
  0
VERTEX
  8
E36LALIFT
 62
8
 10
1663.020
 20
-5303.869
 30
1708.000
 70
    32
  0
VERTEX
  8
E36LALIFT
 62
8
 10
1661.570
 20
-5272.762
 30
1709.000
 70
    32
  0
VERTEX
  8
E36LALIFT
 62
8
 10
1656.150
 20
-5267.369
 30
1709.500
 70
    32
  0
VERTEX
  8
E36LALIFT
 62
8
 10
1653.273
 20
-5264.993
 30
1710.000
 70
    32
  0
VERTEX
  8
E36LALIFT
 62
8
 10
1651.622
 20
-5263.630
 30
1710.000
 70
    32
  0
VERTEX
  8
E36LALIFT
 62
8
 10
1647.274
 20
-5262.946
 30
1710.000
 70
    32
  0
VERTEX
  8
E36LALIFT
 62
8
 10
1646.110
 20
-5265.268
 30
1711.001
 70
    32
  0
VERTEX
  8
E36LALIFT
 62
8
 10
1641.460
 20
-5275.321
 30
1711.001
 70
    32
  0
VERTEX
  8
E36LALIFT
 62
8
 10
1636.953
 20
-5281.389
 30
1711.001
 70
    32
  0
VERTEX
  8
E36LALIFT
 62
8
 10
1631.528
 20
-5282.660
 30
1711.001
 70
    32
  0
VERTEX
  8
E36LALIFT
 62
8
 10
1623.606
 20
-5274.548
 30
1711.000
 70
    32
  0
VERTEX
  8
E36LALIFT
 62
8
 10
1619.960
 20
-5263.087
 30
1711.000
 70
    32
  0
VERTEX
  8
E36LALIFT
 62
8
 10
1627.539
 20
-5260.222
 30
1711.000
 70
    32
  0
VERTEX
  8
E36LALIFT
 62
8
 10
1636.621
 20
-5254.477
 30
1710.750
 70
    32
  0
VERTEX
  8
E36LALIFT
 62
8
 10
1644.394
 20
-5249.881
 30
1710.500
 70
    32
  0
VERTEX
  8
E36LALIFT
 62
8
 10
1649.104
 20
-5243.184
 30
1710.000
 70
    32
  0
VERTEX
  8
E36LALIFT
 62
8
 10
1649.669
 20
-5239.629
 30
1710.000
 70
    32
  0
VERTEX
  8
E36LALIFT
 62
8
 10
1636.942
 20
-5229.118
 30
1709.000
 70
    32
  0
VERTEX
  8
E36LALIFT
 62
8
 10
1627.529
 20
-5223.562
 30
1709.000
 70
    32
  0
VERTEX
  8
E36LALIFT
 62
8
 10
1623.240
 20
-5223.102
 30
1709.215
 70
    32
  0
VERTEX
  8
E36LALIFT
 62
8
 10
1616.880
 20
-5222.149
 30
1709.215
 70
    32
  0
SEQEND
  8
E36LALIFT
  0
POLYLINE
  8
E36LALIFT
 62
7
 66
     1
 70
     8
  0
VERTEX
  8
E36LALIFT
 62
7
 10
1609.208
 20
-5213.270
 30
1709.215
 70
    32
  0
VERTEX
  8
E36LALIFT
 62
7
 10
1597.936
 20
-5222.144
 30
1709.215
 70
    32
  0
VERTEX
  8
E36LALIFT
 62
7
 10
1592.699
 20
-5227.213
 30
1707.472
 70
    32
  0
VERTEX
  8
E36LALIFT
 62
7
 10
1583.612
 20
-5238.621
 30
1703.984
 70
    32
  0
VERTEX
  8
E36LALIFT
 62
7
 10
1579.760
 20
-5247.142
 30
1701.748
 70
    32
  0
VERTEX
  8
E36LALIFT
 62
7
 10
1570.460
 20
-5264.686
 30
1697.000
 70
    32
  0
VERTEX
  8
E36LALIFT
 62
7
 10
1570.745
 20
-5269.358
 30
1696.000
 70
    32
  0
VERTEX
  8
E36LALIFT
 62
7
 10
1568.001
 20
-5279.426
 30
1693.700
 70
    32
  0
VERTEX
  8
E36LALIFT
 62
7
 10
1566.467
 20
-5286.525
 30
1692.100
 70
    32
  0
VERTEX
  8
E36LALIFT
 62
7
 10
1565.668
 20
-5300.908
 30
1690.044
 70
    32
  0
VERTEX
  8
E36LALIFT
 62
7
 10
1567.262
 20
-5315.830
 30
1687.358
 70
    32
  0
VERTEX
  8
E36LALIFT
 62
7
 10
1570.829
 20
-5327.715
 30
1684.581
 70
    32
  0
VERTEX
  8
E36LALIFT
 62
7
 10
1573.990
 20
-5336.054
 30
1684.008
 70
    32
  0
VERTEX
  8
E36LALIFT
 62
7
 10
1574.599
 20
-5336.980
 30
1684.057
 70
    32
  0
VERTEX
  8
E36LALIFT
 62
7
 10
1582.743
 20
-5346.299
 30
1681.609
 70
    32
  0
VERTEX
  8
E36LALIFT
 62
7
 10
1591.321
 20
-5352.568
 30
1680.760
 70
    32
  0
VERTEX
  8
E36LALIFT
 62
7
 10
1600.590
 20
-5355.961
 30
1679.661
 70
    32
  0
VERTEX
  8
E36LALIFT
 62
7
 10
1616.627
 20
-5362.964
 30
1678.410
 70
    32
  0
VERTEX
  8
E36LALIFT
 62
7
 10
1620.779
 20
-5360.674
 30
1677.552
 70
    32
  0
VERTEX
  8
E36LALIFT
 62
7
 10
1629.850
 20
-5360.003
 30
1676.005
 70
    32
  0
VERTEX
  8
E36LALIFT
 62
7
 10
1631.038
 20
-5359.698
 30
1676.529
 70
    32
  0
VERTEX
  8
E36LALIFT
 62
7
 10
1641.023
 20
-5358.513
 30
1674.038
 70
    32
  0
VERTEX
  8
E36LALIFT
 62
7
 10
1656.541
 20
-5358.576
 30
1671.076
 70
    32
  0
VERTEX
  8
E36LALIFT
 62
7
 10
1664.119
 20
-5357.686
 30
1670.135
 70
    32
  0
VERTEX
  8
E36LALIFT
 62
7
 10
1678.308
 20
-5357.257
 30
1670.183
 70
    32
  0
VERTEX
  8
E36LALIFT
 62
7
 10
1684.657
 20
-5361.345
 30
1670.171
 70
    32
  0
VERTEX
  8
E36LALIFT
 62
7
 10
1688.869
 20
-5364.266
 30
1670.163
 70
    32
  0
VERTEX
  8
E36LALIFT
 62
7
 10
1692.309
 20
-5373.208
 30
1670.148
 70
    32
  0
VERTEX
  8
E36LALIFT
 62
7
 10
1692.206
 20
-5374.591
 30
1669.041
 70
    32
  0
VERTEX
  8
E36LALIFT
 62
7
 10
1688.817
 20
-5391.017
 30
1669.041
 70
    32
  0
VERTEX
  8
E36LALIFT
 62
7
 10
1692.677
 20
-5397.351
 30
1669.041
 70
    32
  0
VERTEX
  8
E36LALIFT
 62
7
 10
1699.988
 20
-5408.553
 30
1669.041
 70
    32
  0
VERTEX
  8
E36LALIFT
 62
7
 10
1704.083
 20
-5423.608
 30
1669.041
 70
    32
  0
VERTEX
  8
E36LALIFT
 62
7
 10
1708.524
 20
-5422.772
 30
1669.041
 70
    32
  0
VERTEX
  8
E36LALIFT
 62
7
 10
1713.076
 20
-5422.073
 30
1669.041
 70
    32
  0
VERTEX
  8
E36LALIFT
 62
7
 10
1716.124
 20
-5430.501
 30
1669.041
 70
    32
  0
VERTEX
  8
E36LALIFT
 62
7
 10
1718.266
 20
-5429.753
 30
1669.041
 70
    32
  0
VERTEX
  8
E36LALIFT
 62
7
 10
1722.982
 20
-5437.130
 30
1668.330
 70
    32
  0
VERTEX
  8
E36LALIFT
 62
7
 10
1728.416
 20
-5447.718
 30
1668.001
 70
    32
  0
VERTEX
  8
E36LALIFT
 62
7
 10
1729.579
 20
-5449.522
 30
1668.001
 70
    32
  0
VERTEX
  8
E36LALIFT
 62
7
 10
1734.627
 20
-5456.641
 30
1668.001
 70
    32
  0
VERTEX
  8
E36LALIFT
 62
7
 10
1735.564
 20
-5457.713
 30
1668.995
 70
    32
  0
VERTEX
  8
E36LALIFT
 62
7
 10
1742.852
 20
-5473.979
 30
1668.995
 70
    32
  0
VERTEX
  8
E36LALIFT
 62
7
 10
1745.623
 20
-5486.238
 30
1668.995
 70
    32
  0
VERTEX
  8
E36LALIFT
 62
7
 10
1760.386
 20
-5479.963
 30
1668.995
 70
    32
  0
VERTEX
  8
E36LALIFT
 62
7
 10
1760.265
 20
-5480.138
 30
1669.000
 70
    32
  0
VERTEX
  8
E36LALIFT
 62
7
 10
1762.799
 20
-5474.858
 30
1669.000
 70
    32
  0
VERTEX
  8
E36LALIFT
 62
7
 10
1762.800
 20
-5475.084
 30
1668.755
 70
    32
  0
VERTEX
  8
E36LALIFT
 62
7
 10
1765.309
 20
-5474.126
 30
1668.755
 70
    32
  0
VERTEX
  8
E36LALIFT
 62
7
 10
1772.081
 20
-5479.233
 30
1668.755
 70
    32
  0
VERTEX
  8
E36LALIFT
 62
7
 10
1781.232
 20
-5486.326
 30
1668.755
 70
    32
  0
VERTEX
  8
E36LALIFT
 62
7
 10
1787.168
 20
-5483.392
 30
1668.755
 70
    32
  0
VERTEX
  8
E36LALIFT
 62
7
 10
1788.809
 20
-5475.475
 30
1668.755
 70
    32
  0
VERTEX
  8
E36LALIFT
 62
7
 10
1782.715
 20
-5471.323
 30
1668.755
 70
    32
  0
VERTEX
  8
E36LALIFT
 62
7
 10
1782.056
 20
-5465.018
 30
1668.755
 70
    32
  0
VERTEX
  8
E36LALIFT
 62
7
 10
1781.794
 20
-5464.085
 30
1669.000
 70
    32
  0
VERTEX
  8
E36LALIFT
 62
7
 10
1778.778
 20
-5459.083
 30
1669.000
 70
    32
  0
VERTEX
  8
E36LALIFT
 62
7
 10
1765.431
 20
-5459.867
 30
1669.000
 70
    32
  0
VERTEX
  8
E36LALIFT
 62
7
 10
1758.688
 20
-5459.761
 30
1669.000
 70
    32
  0
VERTEX
  8
E36LALIFT
 62
7
 10
1758.366
 20
-5460.055
 30
1668.995
 70
    32
  0
VERTEX
  8
E36LALIFT
 62
7
 10
1747.533
 20
-5452.993
 30
1668.995
 70
    32
  0
VERTEX
  8
E36LALIFT
 62
7
 10
1745.330
 20
-5451.045
 30
1668.001
 70
    32
  0
VERTEX
  8
E36LALIFT
 62
7
 10
1739.000
 20
-5442.567
 30
1668.001
 70
    32
  0
VERTEX
  8
E36LALIFT
 62
7
 10
1735.998
 20
-5435.572
 30
1668.001
 70
    32
  0
VERTEX
  8
E36LALIFT
 62
7
 10
1734.854
 20
-5433.754
 30
1668.330
 70
    32
  0
VERTEX
  8
E36LALIFT
 62
7
 10
1729.548
 20
-5424.711
 30
1668.330
 70
    32
  0
VERTEX
  8
E36LALIFT
 62
7
 10
1730.834
 20
-5421.793
 30
1669.041
 70
    32
  0
VERTEX
  8
E36LALIFT
 62
7
 10
1723.724
 20
-5414.630
 30
1669.041
 70
    32
  0
VERTEX
  8
E36LALIFT
 62
7
 10
1719.168
 20
-5406.801
 30
1669.041
 70
    32
  0
VERTEX
  8
E36LALIFT
 62
7
 10
1716.814
 20
-5400.027
 30
1669.041
 70
    32
  0
VERTEX
  8
E36LALIFT
 62
7
 10
1708.288
 20
-5382.580
 30
1669.041
 70
    32
  0
VERTEX
  8
E36LALIFT
 62
7
 10
1707.255
 20
-5368.969
 30
1669.041
 70
    32
  0
VERTEX
  8
E36LALIFT
 62
7
 10
1707.453
 20
-5367.645
 30
1670.107
 70
    32
  0
VERTEX
  8
E36LALIFT
 62
7
 10
1706.688
 20
-5365.573
 30
1670.300
 70
    32
  0
VERTEX
  8
E36LALIFT
 62
7
 10
1707.904
 20
-5361.845
 30
1670.642
 70
    32
  0
VERTEX
  8
E36LALIFT
 62
7
 10
1717.790
 20
-5356.436
 30
1671.626
 70
    32
  0
VERTEX
  8
E36LALIFT
 62
7
 10
1719.731
 20
-5350.310
 30
1671.620
 70
    32
  0
VERTEX
  8
E36LALIFT
 62
7
 10
1714.367
 20
-5334.023
 30
1671.603
 70
    32
  0
VERTEX
  8
E36LALIFT
 62
7
 10
1712.047
 20
-5332.087
 30
1671.537
 70
    32
  0
VERTEX
  8
E36LALIFT
 62
7
 10
1704.343
 20
-5320.174
 30
1671.537
 70
    32
  0
VERTEX
  8
E36LALIFT
 62
7
 10
1700.994
 20
-5315.751
 30
1671.537
 70
    32
  0
VERTEX
  8
E36LALIFT
 62
7
 10
1697.255
 20
-5305.104
 30
1671.537
 70
    32
  0
VERTEX
  8
E36LALIFT
 62
7
 10
1695.095
 20
-5297.268
 30
1671.537
 70
    32
  0
VERTEX
  8
E36LALIFT
 62
7
 10
1695.461
 20
-5296.292
 30
1668.513
 70
    32
  0
VERTEX
  8
E36LALIFT
 62
7
 10
1696.442
 20
-5285.958
 30
1668.513
 70
    32
  0
VERTEX
  8
E36LALIFT
 62
7
 10
1692.421
 20
-5279.070
 30
1668.513
 70
    32
  0
VERTEX
  8
E36LALIFT
 62
7
 10
1688.033
 20
-5276.519
 30
1668.513
 70
    32
  0
VERTEX
  8
E36LALIFT
 62
7
 10
1683.729
 20
-5278.275
 30
1668.513
 70
    32
  0
VERTEX
  8
E36LALIFT
 62
7
 10
1684.002
 20
-5284.974
 30
1668.513
 70
    32
  0
VERTEX
  8
E36LALIFT
 62
7
 10
1680.736
 20
-5287.650
 30
1668.513
 70
    32
  0
VERTEX
  8
E36LALIFT
 62
7
 10
1674.902
 20
-5288.332
 30
1668.513
 70
    32
  0
VERTEX
  8
E36LALIFT
 62
7
 10
1668.007
 20
-5285.946
 30
1668.513
 70
    32
  0
VERTEX
  8
E36LALIFT
 62
7
 10
1667.071
 20
-5285.782
 30
1666.841
 70
    32
  0
VERTEX
  8
E36LALIFT
 62
7
 10
1663.766
 20
-5278.514
 30
1666.000
 70
    32
  0
VERTEX
  8
E36LALIFT
 62
7
 10
1664.181
 20
-5264.514
 30
1666.429
 70
    32
  0
VERTEX
  8
E36LALIFT
 62
7
 10
1664.164
 20
-5253.919
 30
1666.429
 70
    32
  0
VERTEX
  8
E36LALIFT
 62
7
 10
1663.990
 20
-5253.662
 30
1667.598
 70
    32
  0
VERTEX
  8
E36LALIFT
 62
7
 10
1662.277
 20
-5245.687
 30
1667.598
 70
    32
  0
VERTEX
  8
E36LALIFT
 62
7
 10
1662.468
 20
-5244.978
 30
1667.456
 70
    32
  0
VERTEX
  8
E36LALIFT
 62
7
 10
1666.177
 20
-5236.784
 30
1667.456
 70
    32
  0
VERTEX
  8
E36LALIFT
 62
7
 10
1662.882
 20
-5231.829
 30
1667.456
 70
    32
  0
VERTEX
  8
E36LALIFT
 62
7
 10
1663.018
 20
-5223.992
 30
1667.456
 70
    32
  0
VERTEX
  8
E36LALIFT
 62
7
 10
1653.515
 20
-5219.342
 30
1667.456
 70
    32
  0
VERTEX
  8
E36LALIFT
 62
7
 10
1644.876
 20
-5223.669
 30
1667.456
 70
    32
  0
VERTEX
  8
E36LALIFT
 62
7
 10
1645.716
 20
-5228.995
 30
1667.456
 70
    32
  0
VERTEX
  8
E36LALIFT
 62
7
 10
1643.971
 20
-5234.109
 30
1667.456
 70
    32
  0
VERTEX
  8
E36LALIFT
 62
7
 10
1649.303
 20
-5244.404
 30
1667.456
 70
    32
  0
VERTEX
  8
E36LALIFT
 62
7
 10
1649.342
 20
-5245.249
 30
1667.598
 70
    32
  0
VERTEX
  8
E36LALIFT
 62
7
 10
1650.357
 20
-5262.842
 30
1667.598
 70
    32
  0
VERTEX
  8
E36LALIFT
 62
7
 10
1649.741
 20
-5264.664
 30
1666.474
 70
    32
  0
VERTEX
  8
E36LALIFT
 62
7
 10
1645.784
 20
-5267.426
 30
1666.474
 70
    32
  0
VERTEX
  8
E36LALIFT
 62
7
 10
1649.073
 20
-5275.351
 30
1666.474
 70
    32
  0
VERTEX
  8
E36LALIFT
 62
7
 10
1653.272
 20
-5283.654
 30
1666.474
 70
    32
  0
VERTEX
  8
E36LALIFT
 62
7
 10
1653.666
 20
-5283.825
 30
1666.000
 70
    32
  0
VERTEX
  8
E36LALIFT
 62
7
 10
1657.843
 20
-5292.301
 30
1666.934
 70
    32
  0
VERTEX
  8
E36LALIFT
 62
7
 10
1662.777
 20
-5300.215
 30
1667.856
 70
    32
  0
VERTEX
  8
E36LALIFT
 62
7
 10
1663.664
 20
-5301.540
 30
1668.014
 70
    32
  0
VERTEX
  8
E36LALIFT
 62
7
 10
1666.794
 20
-5308.628
 30
1668.780
 70
    32
  0
VERTEX
  8
E36LALIFT
 62
7
 10
1669.565
 20
-5321.436
 30
1670.076
 70
    32
  0
VERTEX
  8
E36LALIFT
 62
7
 10
1665.849
 20
-5323.835
 30
1670.076
 70
    32
  0
VERTEX
  8
E36LALIFT
 62
7
 10
1669.744
 20
-5329.633
 30
1670.076
 70
    32
  0
VERTEX
  8
E36LALIFT
 62
7
 10
1675.107
 20
-5339.588
 30
1670.076
 70
    32
  0
VERTEX
  8
E36LALIFT
 62
7
 10
1673.321
 20
-5342.783
 30
1670.076
 70
    32
  0
VERTEX
  8
E36LALIFT
 62
7
 10
1671.772
 20
-5344.785
 30
1670.117
 70
    32
  0
VERTEX
  8
E36LALIFT
 62
7
 10
1664.498
 20
-5346.602
 30
1669.871
 70
    32
  0
VERTEX
  8
E36LALIFT
 62
7
 10
1633.217
 20
-5347.716
 30
1676.223
 70
    32
  0
VERTEX
  8
E36LALIFT
 62
7
 10
1630.543
 20
-5347.868
 30
1676.205
 70
    32
  0
VERTEX
  8
E36LALIFT
 62
7
 10
1623.397
 20
-5349.288
 30
1677.589
 70
    32
  0
VERTEX
  8
E36LALIFT
 62
7
 10
1616.409
 20
-5348.793
 30
1678.510
 70
    32
  0
VERTEX
  8
E36LALIFT
 62
7
 10
1609.053
 20
-5346.963
 30
1679.031
 70
    32
  0
VERTEX
  8
E36LALIFT
 62
7
 10
1599.791
 20
-5343.752
 30
1680.600
 70
    32
  0
VERTEX
  8
E36LALIFT
 62
7
 10
1586.228
 20
-5335.353
 30
1683.606
 70
    32
  0
VERTEX
  8
E36LALIFT
 62
7
 10
1584.043
 20
-5333.547
 30
1684.066
 70
    32
  0
VERTEX
  8
E36LALIFT
 62
7
 10
1583.410
 20
-5332.955
 30
1684.030
 70
    32
  0
VERTEX
  8
E36LALIFT
 62
7
 10
1578.240
 20
-5320.039
 30
1685.905
 70
    32
  0
VERTEX
  8
E36LALIFT
 62
7
 10
1576.056
 20
-5309.015
 30
1688.836
 70
    32
  0
VERTEX
  8
E36LALIFT
 62
7
 10
1577.160
 20
-5289.296
 30
1692.100
 70
    32
  0
VERTEX
  8
E36LALIFT
 62
7
 10
1579.278
 20
-5279.902
 30
1694.332
 70
    32
  0
VERTEX
  8
E36LALIFT
 62
7
 10
1582.337
 20
-5268.801
 30
1697.000
 70
    32
  0
VERTEX
  8
E36LALIFT
 62
7
 10
1588.424
 20
-5254.547
 30
1701.306
 70
    32
  0
VERTEX
  8
E36LALIFT
 62
7
 10
1594.575
 20
-5244.376
 30
1704.608
 70
    32
  0
VERTEX
  8
E36LALIFT
 62
7
 10
1600.168
 20
-5235.806
 30
1707.450
 70
    32
  0
VERTEX
  8
E36LALIFT
 62
7
 10
1603.840
 20
-5230.623
 30
1709.215
 70
    32
  0
VERTEX
  8
E36LALIFT
 62
7
 10
1608.449
 20
-5226.682
 30
1709.215
 70
    32
  0
VERTEX
  8
E36LALIFT
 62
7
 10
1610.860
 20
-5225.405
 30
1709.215
 70
    32
  0
VERTEX
  8
E36LALIFT
 62
7
 10
1616.880
 20
-5222.149
 30
1709.215
 70
    32
  0
SEQEND
  8
E36LALIFT
  0
POLYLINE
  8
E36LALIFT
 62
6
 66
     1
 70
     8
  0
VERTEX
  8
E36LALIFT
 62
6
 10
1679.711
 20
-5222.255
 30
1635.426
 70
    32
  0
VERTEX
  8
E36LALIFT
 62
6
 10
1679.033
 20
-5225.403
 30
1635.560
 70
    32
  0
VERTEX
  8
E36LALIFT
 62
6
 10
1678.041
 20
-5228.468
 30
1635.673
 70
    32
  0
VERTEX
  8
E36LALIFT
 62
6
 10
1686.177
 20
-5242.612
 30
1636.884
 70
    32
  0
VERTEX
  8
E36LALIFT
 62
6
 10
1695.604
 20
-5252.094
 30
1637.911
 70
    32
  0
VERTEX
  8
E36LALIFT
 62
6
 10
1697.466
 20
-5254.222
 30
1638.016
 70
    32
  0
VERTEX
  8
E36LALIFT
 62
6
 10
1705.690
 20
-5264.187
 30
1638.016
 70
    32
  0
VERTEX
  8
E36LALIFT
 62
6
 10
1707.491
 20
-5262.792
 30
1638.016
 70
    32
  0
VERTEX
  8
E36LALIFT
 62
6
 10
1713.847
 20
-5271.086
 30
1638.016
 70
    32
  0
VERTEX
  8
E36LALIFT
 62
6
 10
1718.901
 20
-5279.419
 30
1638.016
 70
    32
  0
VERTEX
  8
E36LALIFT
 62
6
 10
1724.987
 20
-5292.640
 30
1638.016
 70
    32
  0
VERTEX
  8
E36LALIFT
 62
6
 10
1723.706
 20
-5304.108
 30
1638.016
 70
    32
  0
VERTEX
  8
E36LALIFT
 62
6
 10
1724.927
 20
-5313.459
 30
1638.016
 70
    32
  0
VERTEX
  8
E36LALIFT
 62
6
 10
1728.517
 20
-5324.261
 30
1636.001
 70
    32
  0
VERTEX
  8
E36LALIFT
 62
6
 10
1732.409
 20
-5331.161
 30
1636.001
 70
    32
  0
VERTEX
  8
E36LALIFT
 62
6
 10
1726.599
 20
-5337.503
 30
1636.001
 70
    32
  0
VERTEX
  8
E36LALIFT
 62
6
 10
1725.403
 20
-5347.417
 30
1636.001
 70
    32
  0
VERTEX
  8
E36LALIFT
 62
6
 10
1729.929
 20
-5360.278
 30
1636.001
 70
    32
  0
VERTEX
  8
E36LALIFT
 62
6
 10
1734.175
 20
-5366.145
 30
1636.001
 70
    32
  0
VERTEX
  8
E36LALIFT
 62
6
 10
1748.812
 20
-5375.460
 30
1636.001
 70
    32
  0
VERTEX
  8
E36LALIFT
 62
6
 10
1755.247
 20
-5382.119
 30
1636.001
 70
    32
  0
VERTEX
  8
E36LALIFT
 62
6
 10
1756.504
 20
-5383.621
 30
1636.001
 70
    32
  0
VERTEX
  8
E36LALIFT
 62
6
 10
1783.222
 20
-5400.137
 30
1636.001
 70
    32
  0
VERTEX
  8
E36LALIFT
 62
6
 10
1793.436
 20
-5413.825
 30
1636.001
 70
    32
  0
VERTEX
  8
E36LALIFT
 62
6
 10
1797.933
 20
-5429.329
 30
1636.001
 70
    32
  0
VERTEX
  8
E36LALIFT
 62
6
 10
1805.538
 20
-5443.144
 30
1636.001
 70
    32
  0
VERTEX
  8
E36LALIFT
 62
6
 10
1812.446
 20
-5458.119
 30
1636.001
 70
    32
  0
VERTEX
  8
E36LALIFT
 62
6
 10
1817.851
 20
-5469.270
 30
1636.001
 70
    32
  0
VERTEX
  8
E36LALIFT
 62
6
 10
1814.624
 20
-5471.186
 30
1636.001
 70
    32
  0
VERTEX
  8
E36LALIFT
 62
6
 10
1819.455
 20
-5479.945
 30
1636.001
 70
    32
  0
VERTEX
  8
E36LALIFT
 62
6
 10
1805.913
 20
-5486.271
 30
1636.001
 70
    32
  0
VERTEX
  8
E36LALIFT
 62
6
 10
1801.967
 20
-5477.109
 30
1636.001
 70
    32
  0
VERTEX
  8
E36LALIFT
 62
6
 10
1799.039
 20
-5478.127
 30
1636.001
 70
    32
  0
VERTEX
  8
E36LALIFT
 62
6
 10
1786.559
 20
-5456.156
 30
1636.001
 70
    32
  0
VERTEX
  8
E36LALIFT
 62
6
 10
1780.629
 20
-5448.242
 30
1636.001
 70
    32
  0
VERTEX
  8
E36LALIFT
 62
6
 10
1776.500
 20
-5436.727
 30
1636.001
 70
    32
  0
VERTEX
  8
E36LALIFT
 62
6
 10
1761.129
 20
-5434.038
 30
1636.001
 70
    32
  0
VERTEX
  8
E36LALIFT
 62
6
 10
1753.190
 20
-5420.749
 30
1636.001
 70
    32
  0
VERTEX
  8
E36LALIFT
 62
6
 10
1741.698
 20
-5405.254
 30
1636.001
 70
    32
  0
VERTEX
  8
E36LALIFT
 62
6
 10
1739.375
 20
-5399.279
 30
1636.001
 70
    32
  0
VERTEX
  8
E36LALIFT
 62
6
 10
1738.501
 20
-5398.044
 30
1636.001
 70
    32
  0
VERTEX
  8
E36LALIFT
 62
6
 10
1732.760
 20
-5387.082
 30
1636.001
 70
    32
  0
VERTEX
  8
E36LALIFT
 62
6
 10
1726.634
 20
-5380.091
 30
1636.001
 70
    32
  0
VERTEX
  8
E36LALIFT
 62
6
 10
1715.826
 20
-5379.016
 30
1636.001
 70
    32
  0
VERTEX
  8
E36LALIFT
 62
6
 10
1711.925
 20
-5375.564
 30
1636.001
 70
    32
  0
VERTEX
  8
E36LALIFT
 62
6
 10
1711.888
 20
-5363.001
 30
1636.001
 70
    32
  0
VERTEX
  8
E36LALIFT
 62
6
 10
1709.659
 20
-5352.053
 30
1636.001
 70
    32
  0
VERTEX
  8
E36LALIFT
 62
6
 10
1707.908
 20
-5339.483
 30
1636.001
 70
    32
  0
VERTEX
  8
E36LALIFT
 62
6
 10
1703.891
 20
-5323.936
 30
1636.001
 70
    32
  0
VERTEX
  8
E36LALIFT
 62
6
 10
1706.551
 20
-5318.240
 30
1636.001
 70
    32
  0
VERTEX
  8
E36LALIFT
 62
6
 10
1705.258
 20
-5300.645
 30
1638.016
 70
    32
  0
VERTEX
  8
E36LALIFT
 62
6
 10
1696.335
 20
-5293.772
 30
1638.016
 70
    32
  0
VERTEX
  8
E36LALIFT
 62
6
 10
1689.039
 20
-5279.393
 30
1638.016
 70
    32
  0
VERTEX
  8
E36LALIFT
 62
6
 10
1684.566
 20
-5270.001
 30
1638.016
 70
    32
  0
VERTEX
  8
E36LALIFT
 62
6
 10
1684.472
 20
-5268.545
 30
1638.202
 70
    32
  0
VERTEX
  8
E36LALIFT
 62
6
 10
1675.089
 20
-5257.048
 30
1637.068
 70
    32
  0
VERTEX
  8
E36LALIFT
 62
6
 10
1662.986
 20
-5247.125
 30
1635.873
 70
    32
  0
VERTEX
  8
E36LALIFT
 62
6
 10
1656.262
 20
-5241.072
 30
1635.092
 70
    32
  0
VERTEX
  8
E36LALIFT
 62
6
 10
1655.236
 20
-5241.159
 30
1634.350
 70
    32
  0
VERTEX
  8
E36LALIFT
 62
6
 10
1645.116
 20
-5246.463
 30
1633.935
 70
    32
  0
VERTEX
  8
E36LALIFT
 62
6
 10
1645.285
 20
-5246.855
 30
1631.705
 70
    32
  0
VERTEX
  8
E36LALIFT
 62
6
 10
1642.442
 20
-5254.110
 30
1632.180
 70
    32
  0
VERTEX
  8
E36LALIFT
 62
6
 10
1642.171
 20
-5263.987
 30
1632.530
 70
    32
  0
VERTEX
  8
E36LALIFT
 62
6
 10
1643.949
 20
-5275.319
 30
1631.850
 70
    32
  0
VERTEX
  8
E36LALIFT
 62
6
 10
1645.600
 20
-5281.244
 30
1630.815
 70
    32
  0
VERTEX
  8
E36LALIFT
 62
6
 10
1647.582
 20
-5286.179
 30
1629.541
 70
    32
  0
VERTEX
  8
E36LALIFT
 62
6
 10
1652.243
 20
-5292.596
 30
1628.069
 70
    32
  0
VERTEX
  8
E36LALIFT
 62
6
 10
1654.498
 20
-5295.808
 30
1628.089
 70
    32
  0
VERTEX
  8
E36LALIFT
 62
6
 10
1658.587
 20
-5298.297
 30
1626.751
 70
    32
  0
VERTEX
  8
E36LALIFT
 62
6
 10
1665.351
 20
-5303.696
 30
1625.340
 70
    32
  0
VERTEX
  8
E36LALIFT
 62
6
 10
1669.881
 20
-5307.437
 30
1625.036
 70
    32
  0
VERTEX
  8
E36LALIFT
 62
6
 10
1677.621
 20
-5311.696
 30
1624.363
 70
    32
  0
VERTEX
  8
E36LALIFT
 62
6
 10
1678.397
 20
-5312.355
 30
1623.918
 70
    32
  0
VERTEX
  8
E36LALIFT
 62
6
 10
1684.229
 20
-5316.413
 30
1622.616
 70
    32
  0
VERTEX
  8
E36LALIFT
 62
6
 10
1689.012
 20
-5318.630
 30
1621.376
 70
    32
  0
VERTEX
  8
E36LALIFT
 62
6
 10
1697.507
 20
-5320.686
 30
1620.391
 70
    32
  0
VERTEX
  8
E36LALIFT
 62
6
 10
1702.525
 20
-5322.858
 30
1619.090
 70
    32
  0
SEQEND
  8
E36LALIFT
  0
POLYLINE
  8
E36LALIFT
 62
6
 66
     1
 70
     8
  0
VERTEX
  8
E36LALIFT
 62
6
 10
1702.622
 20
-5335.499
 30
1618.017
 70
    32
  0
VERTEX
  8
E36LALIFT
 62
6
 10
1694.394
 20
-5333.651
 30
1619.072
 70
    32
  0
VERTEX
  8
E36LALIFT
 62
6
 10
1687.092
 20
-5331.258
 30
1620.170
 70
    32
  0
VERTEX
  8
E36LALIFT
 62
6
 10
1680.853
 20
-5328.099
 30
1621.064
 70
    32
  0
VERTEX
  8
E36LALIFT
 62
6
 10
1672.964
 20
-5323.976
 30
1623.625
 70
    32
  0
VERTEX
  8
E36LALIFT
 62
6
 10
1670.213
 20
-5323.791
 30
1624.224
 70
    32
  0
VERTEX
  8
E36LALIFT
 62
6
 10
1665.927
 20
-5319.635
 30
1624.847
 70
    32
  0
VERTEX
  8
E36LALIFT
 62
6
 10
1664.413
 20
-5318.009
 30
1624.321
 70
    32
  0
VERTEX
  8
E36LALIFT
 62
6
 10
1658.812
 20
-5314.692
 30
1624.873
 70
    32
  0
VERTEX
  8
E36LALIFT
 62
6
 10
1652.792
 20
-5310.632
 30
1625.028
 70
    32
  0
VERTEX
  8
E36LALIFT
 62
6
 10
1649.717
 20
-5309.121
 30
1625.065
 70
    32
  0
VERTEX
  8
E36LALIFT
 62
6
 10
1645.585
 20
-5305.804
 30
1626.591
 70
    32
  0
VERTEX
  8
E36LALIFT
 62
6
 10
1642.766
 20
-5299.589
 30
1628.072
 70
    32
  0
VERTEX
  8
E36LALIFT
 62
6
 10
1640.762
 20
-5297.526
 30
1628.373
 70
    32
  0
VERTEX
  8
E36LALIFT
 62
6
 10
1636.221
 20
-5287.803
 30
1629.501
 70
    32
  0
VERTEX
  8
E36LALIFT
 62
6
 10
1634.230
 20
-5280.474
 30
1630.965
 70
    32
  0
VERTEX
  8
E36LALIFT
 62
6
 10
1629.733
 20
-5270.180
 30
1629.284
 70
    32
  0
VERTEX
  8
E36LALIFT
 62
6
 10
1621.250
 20
-5267.879
 30
1628.951
 70
    32
  0
VERTEX
  8
E36LALIFT
 62
6
 10
1615.080
 20
-5272.978
 30
1629.000
 70
    32
  0
VERTEX
  8
E36LALIFT
 62
6
 10
1614.435
 20
-5273.825
 30
1627.527
 70
    32
  0
VERTEX
  8
E36LALIFT
 62
6
 10
1605.462
 20
-5278.712
 30
1627.527
 70
    32
  0
VERTEX
  8
E36LALIFT
 62
6
 10
1600.300
 20
-5285.240
 30
1627.527
 70
    32
  0
VERTEX
  8
E36LALIFT
 62
6
 10
1591.129
 20
-5289.082
 30
1627.527
 70
    32
  0
VERTEX
  8
E36LALIFT
 62
6
 10
1588.857
 20
-5288.996
 30
1627.527
 70
    32
  0
VERTEX
  8
E36LALIFT
 62
6
 10
1581.130
 20
-5296.615
 30
1628.023
 70
    32
  0
VERTEX
  8
E36LALIFT
 62
6
 10
1576.009
 20
-5294.702
 30
1628.023
 70
    32
  0
VERTEX
  8
E36LALIFT
 62
6
 10
1572.389
 20
-5290.305
 30
1628.023
 70
    32
  0
VERTEX
  8
E36LALIFT
 62
6
 10
1570.474
 20
-5286.455
 30
1628.023
 70
    32
  0
VERTEX
  8
E36LALIFT
 62
6
 10
1575.295
 20
-5280.895
 30
1628.023
 70
    32
  0
VERTEX
  8
E36LALIFT
 62
6
 10
1575.785
 20
-5274.456
 30
1628.023
 70
    32
  0
VERTEX
  8
E36LALIFT
 62
6
 10
1576.465
 20
-5273.817
 30
1627.527
 70
    32
  0
VERTEX
  8
E36LALIFT
 62
6
 10
1576.186
 20
-5271.404
 30
1627.527
 70
    32
  0
VERTEX
  8
E36LALIFT
 62
6
 10
1582.952
 20
-5268.018
 30
1627.527
 70
    32
  0
VERTEX
  8
E36LALIFT
 62
6
 10
1585.876
 20
-5258.094
 30
1627.527
 70
    32
  0
VERTEX
  8
E36LALIFT
 62
6
 10
1592.567
 20
-5257.707
 30
1627.527
 70
    32
  0
VERTEX
  8
E36LALIFT
 62
6
 10
1598.602
 20
-5251.401
 30
1627.527
 70
    32
  0
VERTEX
  8
E36LALIFT
 62
6
 10
1610.622
 20
-5255.939
 30
1627.527
 70
    32
  0
VERTEX
  8
E36LALIFT
 62
6
 10
1612.300
 20
-5255.939
 30
1629.069
 70
    32
  0
VERTEX
  8
E36LALIFT
 62
6
 10
1618.276
 20
-5251.665
 30
1631.946
 70
    32
  0
VERTEX
  8
E36LALIFT
 62
6
 10
1632.909
 20
-5241.659
 30
1632.964
 70
    32
  0
VERTEX
  8
E36LALIFT
 62
6
 10
1648.830
 20
-5230.715
 30
1634.585
 70
    32
  0
VERTEX
  8
E36LALIFT
 62
6
 10
1649.841
 20
-5230.003
 30
1634.518
 70
    32
  0
VERTEX
  8
E36LALIFT
 62
6
 10
1649.858
 20
-5225.175
 30
1633.967
 70
    32
  0
VERTEX
  8
E36LALIFT
 62
6
 10
1642.737
 20
-5216.741
 30
1633.122
 70
    32
  0
VERTEX
  8
E36LALIFT
 62
6
 10
1645.186
 20
-5210.895
 30
1632.937
 70
    32
  0
VERTEX
  8
E36LALIFT
 62
6
 10
1650.596
 20
-5209.007
 30
1633.128
 70
    32
  0
VERTEX
  8
E36LALIFT
 62
6
 10
1661.326
 20
-5219.827
 30
1634.298
 70
    32
  0
VERTEX
  8
E36LALIFT
 62
6
 10
1667.705
 20
-5218.981
 30
1634.597
 70
    32
  0
VERTEX
  8
E36LALIFT
 62
6
 10
1673.492
 20
-5213.526
 30
1634.614
 70
    32
  0
SEQEND
  8
E36LALIFT
  0
POLYLINE
  8
E36LALIFT
 62
7
 66
     1
 70
     9
  0
VERTEX
  8
E36LALIFT
 62
7
 10
1891.245
 20
-5201.382
 30
1630.000
 70
    32
  0
VERTEX
  8
E36LALIFT
 62
7
 10
1894.456
 20
-5205.179
 30
1630.567
 70
    32
  0
VERTEX
  8
E36LALIFT
 62
7
 10
1899.267
 20
-5207.658
 30
1631.000
 70
    32
  0
VERTEX
  8
E36LALIFT
 62
7
 10
1905.388
 20
-5212.250
 30
1632.000
 70
    32
  0
VERTEX
  8
E36LALIFT
 62
7
 10
1913.304
 20
-5214.162
 30
1634.000
 70
    32
  0
VERTEX
  8
E36LALIFT
 62
7
 10
1923.203
 20
-5217.313
 30
1635.000
 70
    32
  0
VERTEX
  8
E36LALIFT
 62
7
 10
1929.490
 20
-5218.331
 30
1636.698
 70
    32
  0
VERTEX
  8
E36LALIFT
 62
7
 10
1938.464
 20
-5220.075
 30
1638.720
 70
    32
  0
VERTEX
  8
E36LALIFT
 62
7
 10
1947.425
 20
-5220.972
 30
1640.000
 70
    32
  0
VERTEX
  8
E36LALIFT
 62
7
 10
1957.932
 20
-5222.196
 30
1640.000
 70
    32
  0
VERTEX
  8
E36LALIFT
 62
7
 10
1961.330
 20
-5220.449
 30
1640.000
 70
    32
  0
VERTEX
  8
E36LALIFT
 62
7
 10
1972.768
 20
-5217.539
 30
1640.000
 70
    32
  0
VERTEX
  8
E36LALIFT
 62
7
 10
1985.402
 20
-5212.348
 30
1641.000
 70
    32
  0
VERTEX
  8
E36LALIFT
 62
7
 10
2010.882
 20
-5201.268
 30
1642.000
 70
    32
  0
VERTEX
  8
E36LALIFT
 62
7
 10
2021.520
 20
-5192.523
 30
1642.593
 70
    32
  0
VERTEX
  8
E36LALIFT
 62
7
 10
2036.562
 20
-5185.353
 30
1641.176
 70
    32
  0
VERTEX
  8
E36LALIFT
 62
7
 10
2045.601
 20
-5190.158
 30
1640.000
 70
    32
  0
VERTEX
  8
E36LALIFT
 62
7
 10
2057.766
 20
-5206.537
 30
1638.720
 70
    32
  0
VERTEX
  8
E36LALIFT
 62
7
 10
2056.285
 20
-5210.369
 30
1638.000
 70
    32
  0
VERTEX
  8
E36LALIFT
 62
7
 10
2057.677
 20
-5217.275
 30
1637.120
 70
    32
  0
VERTEX
  8
E36LALIFT
 62
7
 10
2054.963
 20
-5226.232
 30
1636.000
 70
    32
  0
VERTEX
  8
E36LALIFT
 62
7
 10
2059.316
 20
-5241.326
 30
1634.880
 70
    32
  0
VERTEX
  8
E36LALIFT
 62
7
 10
2057.808
 20
-5268.285
 30
1632.289
 70
    32
  0
VERTEX
  8
E36LALIFT
 62
7
 10
2059.190
 20
-5270.309
 30
1632.289
 70
    32
  0
VERTEX
  8
E36LALIFT
 62
7
 10
2064.700
 20
-5274.123
 30
1632.642
 70
    32
  0
VERTEX
  8
E36LALIFT
 62
7
 10
2071.089
 20
-5278.054
 30
1633.000
 70
    32
  0
VERTEX
  8
E36LALIFT
 62
7
 10
2076.125
 20
-5276.962
 30
1633.000
 70
    32
  0
VERTEX
  8
E36LALIFT
 62
7
 10
2087.491
 20
-5289.535
 30
1633.600
 70
    32
  0
VERTEX
  8
E36LALIFT
 62
7
 10
2093.997
 20
-5294.668
 30
1633.779
 70
    32
  0
VERTEX
  8
E36LALIFT
 62
7
 10
2100.648
 20
-5296.673
 30
1635.000
 70
    32
  0
VERTEX
  8
E36LALIFT
 62
7
 10
2102.127
 20
-5298.013
 30
1635.000
 70
    32
  0
VERTEX
  8
E36LALIFT
 62
7
 10
2102.247
 20
-5298.063
 30
1635.000
 70
    32
  0
VERTEX
  8
E36LALIFT
 62
7
 10
2117.474
 20
-5309.612
 30
1638.000
 70
    32
  0
VERTEX
  8
E36LALIFT
 62
7
 10
2119.069
 20
-5310.121
 30
1638.000
 70
    32
  0
VERTEX
  8
E36LALIFT
 62
7
 10
2133.480
 20
-5321.942
 30
1639.000
 70
    32
  0
VERTEX
  8
E36LALIFT
 62
7
 10
2143.826
 20
-5330.451
 30
1639.000
 70
    32
  0
VERTEX
  8
E36LALIFT
 62
7
 10
2151.941
 20
-5344.110
 30
1639.500
 70
    32
  0
VERTEX
  8
E36LALIFT
 62
7
 10
2154.195
 20
-5355.386
 30
1639.500
 70
    32
  0
VERTEX
  8
E36LALIFT
 62
7
 10
2164.190
 20
-5363.109
 30
1639.700
 70
    32
  0
VERTEX
  8
E36LALIFT
 62
7
 10
2173.435
 20
-5363.198
 30
1639.819
 70
    32
  0
VERTEX
  8
E36LALIFT
 62
7
 10
2180.215
 20
-5357.170
 30
1639.819
 70
    32
  0
VERTEX
  8
E36LALIFT
 62
7
 10
2172.422
 20
-5346.068
 30
1639.500
 70
    32
  0
VERTEX
  8
E36LALIFT
 62
7
 10
2157.715
 20
-5329.328
 30
1639.000
 70
    32
  0
VERTEX
  8
E36LALIFT
 62
7
 10
2131.456
 20
-5304.058
 30
1638.792
 70
    32
  0
VERTEX
  8
E36LALIFT
 62
7
 10
2131.241
 20
-5303.830
 30
1638.792
 70
    32
  0
VERTEX
  8
E36LALIFT
 62
7
 10
2124.490
 20
-5299.297
 30
1637.443
 70
    32
  0
VERTEX
  8
E36LALIFT
 62
7
 10
2117.519
 20
-5289.496
 30
1635.000
 70
    32
  0
VERTEX
  8
E36LALIFT
 62
7
 10
2117.657
 20
-5289.268
 30
1635.000
 70
    32
  0
VERTEX
  8
E36LALIFT
 62
7
 10
2118.003
 20
-5284.617
 30
1635.000
 70
    32
  0
VERTEX
  8
E36LALIFT
 62
7
 10
2114.737
 20
-5280.188
 30
1634.500
 70
    32
  0
VERTEX
  8
E36LALIFT
 62
7
 10
2108.359
 20
-5276.558
 30
1634.000
 70
    32
  0
VERTEX
  8
E36LALIFT
 62
7
 10
2101.207
 20
-5277.965
 30
1633.779
 70
    32
  0
VERTEX
  8
E36LALIFT
 62
7
 10
2087.867
 20
-5274.160
 30
1633.000
 70
    32
  0
VERTEX
  8
E36LALIFT
 62
7
 10
2081.571
 20
-5267.417
 30
1633.000
 70
    32
  0
VERTEX
  8
E36LALIFT
 62
7
 10
2077.838
 20
-5266.941
 30
1632.642
 70
    32
  0
VERTEX
  8
E36LALIFT
 62
7
 10
2068.464
 20
-5255.116
 30
1633.000
 70
    32
  0
VERTEX
  8
E36LALIFT
 62
7
 10
2068.236
 20
-5254.529
 30
1633.000
 70
    32
  0
VERTEX
  8
E36LALIFT
 62
7
 10
2068.161
 20
-5207.725
 30
1638.000
 70
    32
  0
VERTEX
  8
E36LALIFT
 62
7
 10
2069.436
 20
-5206.964
 30
1638.327
 70
    32
  0
VERTEX
  8
E36LALIFT
 62
7
 10
2073.645
 20
-5207.723
 30
1638.204
 70
    32
  0
VERTEX
  8
E36LALIFT
 62
7
 10
2079.971
 20
-5213.462
 30
1638.200
 70
    32
  0
VERTEX
  8
E36LALIFT
 62
7
 10
2093.927
 20
-5228.329
 30
1638.992
 70
    32
  0
VERTEX
  8
E36LALIFT
 62
7
 10
2118.643
 20
-5254.671
 30
1640.394
 70
    32
  0
VERTEX
  8
E36LALIFT
 62
7
 10
2122.718
 20
-5258.073
 30
1640.600
 70
    32
  0
VERTEX
  8
E36LALIFT
 62
7
 10
2122.697
 20
-5258.049
 30
1640.563
 70
    32
  0
VERTEX
  8
E36LALIFT
 62
7
 10
2129.644
 20
-5255.418
 30
1640.563
 70
    32
  0
VERTEX
  8
E36LALIFT
 62
7
 10
2139.702
 20
-5257.848
 30
1640.563
 70
    32
  0
VERTEX
  8
E36LALIFT
 62
7
 10
2145.848
 20
-5260.472
 30
1640.563
 70
    32
  0
VERTEX
  8
E36LALIFT
 62
7
 10
2135.320
 20
-5242.338
 30
1641.001
 70
    32
  0
VERTEX
  8
E36LALIFT
 62
7
 10
2145.848
 20
-5260.472
 30
1640.563
 70
    32
  0
VERTEX
  8
E36LALIFT
 62
7
 10
2135.320
 20
-5242.338
 30
1641.001
 70
    32
  0
VERTEX
  8
E36LALIFT
 62
7
 10
2130.652
 20
-5242.483
 30
1641.001
 70
    32
  0
VERTEX
  8
E36LALIFT
 62
7
 10
2124.462
 20
-5240.428
 30
1640.183
 70
    32
  0
VERTEX
  8
E36LALIFT
 62
7
 10
2113.989
 20
-5232.357
 30
1639.555
 70
    32
  0
VERTEX
  8
E36LALIFT
 62
7
 10
2100.368
 20
-5217.583
 30
1638.600
 70
    32
  0
VERTEX
  8
E36LALIFT
 62
7
 10
2099.953
 20
-5215.086
 30
1638.786
 70
    32
  0
VERTEX
  8
E36LALIFT
 62
7
 10
2108.800
 20
-5214.997
 30
1639.545
 70
    32
  0
VERTEX
  8
E36LALIFT
 62
7
 10
2093.374
 20
-5193.618
 30
1639.726
 70
    32
  0
VERTEX
  8
E36LALIFT
 62
7
 10
2083.011
 20
-5195.905
 30
1639.236
 70
    32
  0
VERTEX
  8
E36LALIFT
 62
7
 10
2079.249
 20
-5195.892
 30
1639.217
 70
    32
  0
VERTEX
  8
E36LALIFT
 62
7
 10
2068.762
 20
-5189.692
 30
1639.400
 70
    32
  0
VERTEX
  8
E36LALIFT
 62
7
 10
2068.513
 20
-5182.914
 30
1640.000
 70
    32
  0
VERTEX
  8
E36LALIFT
 62
7
 10
2053.580
 20
-5170.008
 30
1640.000
 70
    32
  0
VERTEX
  8
E36LALIFT
 62
7
 10
2045.196
 20
-5160.836
 30
1640.000
 70
    32
  0
VERTEX
  8
E36LALIFT
 62
7
 10
2036.352
 20
-5165.883
 30
1640.000
 70
    32
  0
VERTEX
  8
E36LALIFT
 62
7
 10
2039.286
 20
-5169.904
 30
1640.000
 70
    32
  0
VERTEX
  8
E36LALIFT
 62
7
 10
2039.664
 20
-5173.265
 30
1640.000
 70
    32
  0
VERTEX
  8
E36LALIFT
 62
7
 10
2028.597
 20
-5176.345
 30
1641.500
 70
    32
  0
VERTEX
  8
E36LALIFT
 62
7
 10
2023.477
 20
-5179.737
 30
1641.869
 70
    32
  0
VERTEX
  8
E36LALIFT
 62
7
 10
2014.664
 20
-5184.091
 30
1642.500
 70
    32
  0
VERTEX
  8
E36LALIFT
 62
7
 10
2007.044
 20
-5187.769
 30
1642.000
 70
    32
  0
VERTEX
  8
E36LALIFT
 62
7
 10
2000.080
 20
-5193.133
 30
1641.853
 70
    32
  0
VERTEX
  8
E36LALIFT
 62
7
 10
1987.877
 20
-5198.027
 30
1641.000
 70
    32
  0
VERTEX
  8
E36LALIFT
 62
7
 10
1974.012
 20
-5203.190
 30
1641.000
 70
    32
  0
VERTEX
  8
E36LALIFT
 62
7
 10
1961.248
 20
-5209.213
 30
1640.500
 70
    32
  0
VERTEX
  8
E36LALIFT
 62
7
 10
1958.135
 20
-5210.192
 30
1640.000
 70
    32
  0
VERTEX
  8
E36LALIFT
 62
7
 10
1952.582
 20
-5212.122
 30
1640.000
 70
    32
  0
VERTEX
  8
E36LALIFT
 62
7
 10
1947.370
 20
-5211.032
 30
1640.000
 70
    32
  0
VERTEX
  8
E36LALIFT
 62
7
 10
1940.229
 20
-5211.577
 30
1638.720
 70
    32
  0
VERTEX
  8
E36LALIFT
 62
7
 10
1928.843
 20
-5207.423
 30
1636.698
 70
    32
  0
VERTEX
  8
E36LALIFT
 62
7
 10
1921.945
 20
-5205.681
 30
1634.000
 70
    32
  0
VERTEX
  8
E36LALIFT
 62
7
 10
1912.645
 20
-5202.515
 30
1633.000
 70
    32
  0
VERTEX
  8
E36LALIFT
 62
7
 10
1902.010
 20
-5197.864
 30
1630.567
 70
    32
  0
VERTEX
  8
E36LALIFT
 62
7
 10
1892.928
 20
-5189.990
 30
1630.000
 70
    32
  0
SEQEND
  8
E36LALIFT
  0
POLYLINE
  8
E36LALIFT
 62
7
 66
     1
 70
     9
  0
VERTEX
  8
E36LALIFT
 62
7
 10
2145.848
 20
-5260.472
 30
1640.563
 70
    32
  0
VERTEX
  8
E36LALIFT
 62
7
 10
2153.013
 20
-5267.729
 30
1640.563
 70
    32
  0
VERTEX
  8
E36LALIFT
 62
7
 10
2158.869
 20
-5268.317
 30
1640.563
 70
    32
  0
VERTEX
  8
E36LALIFT
 62
7
 10
2164.819
 20
-5272.411
 30
1640.563
 70
    32
  0
VERTEX
  8
E36LALIFT
 62
7
 10
2166.516
 20
-5276.528
 30
1641.000
 70
    32
  0
VERTEX
  8
E36LALIFT
 62
7
 10
2165.595
 20
-5283.941
 30
1641.000
 70
    32
  0
VERTEX
  8
E36LALIFT
 62
7
 10
2177.681
 20
-5300.213
 30
1641.000
 70
    32
  0
VERTEX
  8
E36LALIFT
 62
7
 10
2187.270
 20
-5308.868
 30
1641.000
 70
    32
  0
VERTEX
  8
E36LALIFT
 62
7
 10
2195.435
 20
-5319.885
 30
1641.000
 70
    32
  0
VERTEX
  8
E36LALIFT
 62
7
 10
2206.345
 20
-5315.352
 30
1641.000
 70
    32
  0
VERTEX
  8
E36LALIFT
 62
7
 10
2209.717
 20
-5314.743
 30
1641.665
 70
    32
  0
VERTEX
  8
E36LALIFT
 62
7
 10
2216.925
 20
-5317.673
 30
1642.136
 70
    32
  0
VERTEX
  8
E36LALIFT
 62
7
 10
2225.952
 20
-5321.805
 30
1642.582
 70
    32
  0
VERTEX
  8
E36LALIFT
 62
7
 10
2229.336
 20
-5320.949
 30
1642.426
 70
    32
  0
VERTEX
  8
E36LALIFT
 62
7
 10
2238.126
 20
-5330.864
 30
1643.453
 70
    32
  0
VERTEX
  8
E36LALIFT
 62
7
 10
2241.393
 20
-5326.386
 30
1643.364
 70
    32
  0
VERTEX
  8
E36LALIFT
 62
7
 10
2250.666
 20
-5334.846
 30
1643.984
 70
    32
  0
VERTEX
  8
E36LALIFT
 62
7
 10
2254.727
 20
-5341.493
 30
1644.001
 70
    32
  0
VERTEX
  8
E36LALIFT
 62
7
 10
2260.157
 20
-5350.252
 30
1644.001
 70
    32
  0
VERTEX
  8
E36LALIFT
 62
7
 10
2264.912
 20
-5361.814
 30
1644.001
 70
    32
  0
VERTEX
  8
E36LALIFT
 62
7
 10
2265.573
 20
-5368.430
 30
1644.001
 70
    32
  0
VERTEX
  8
E36LALIFT
 62
7
 10
2264.711
 20
-5371.920
 30
1644.001
 70
    32
  0
VERTEX
  8
E36LALIFT
 62
7
 10
2267.231
 20
-5375.816
 30
1644.001
 70
    32
  0
VERTEX
  8
E36LALIFT
 62
7
 10
2271.486
 20
-5377.988
 30
1644.001
 70
    32
  0
VERTEX
  8
E36LALIFT
 62
7
 10
2275.333
 20
-5385.660
 30
1644.001
 70
    32
  0
VERTEX
  8
E36LALIFT
 62
7
 10
2281.562
 20
-5385.131
 30
1644.001
 70
    32
  0
VERTEX
  8
E36LALIFT
 62
7
 10
2286.776
 20
-5380.008
 30
1644.001
 70
    32
  0
VERTEX
  8
E36LALIFT
 62
7
 10
2282.886
 20
-5374.022
 30
1644.001
 70
    32
  0
VERTEX
  8
E36LALIFT
 62
7
 10
2283.287
 20
-5368.569
 30
1644.001
 70
    32
  0
VERTEX
  8
E36LALIFT
 62
7
 10
2275.518
 20
-5357.875
 30
1644.001
 70
    32
  0
VERTEX
  8
E36LALIFT
 62
7
 10
2273.511
 20
-5346.797
 30
1644.001
 70
    32
  0
VERTEX
  8
E36LALIFT
 62
7
 10
2265.372
 20
-5334.393
 30
1644.001
 70
    32
  0
VERTEX
  8
E36LALIFT
 62
7
 10
2253.594
 20
-5314.933
 30
1643.309
 70
    32
  0
VERTEX
  8
E36LALIFT
 62
7
 10
2251.728
 20
-5308.885
 30
1643.385
 70
    32
  0
VERTEX
  8
E36LALIFT
 62
7
 10
2244.511
 20
-5303.252
 30
1643.182
 70
    32
  0
VERTEX
  8
E36LALIFT
 62
7
 10
2238.007
 20
-5293.886
 30
1642.352
 70
    32
  0
VERTEX
  8
E36LALIFT
 62
7
 10
2231.393
 20
-5285.716
 30
1642.093
 70
    32
  0
VERTEX
  8
E36LALIFT
 62
7
 10
2222.846
 20
-5289.498
 30
1642.093
 70
    32
  0
VERTEX
  8
E36LALIFT
 62
7
 10
2225.709
 20
-5296.035
 30
1642.093
 70
    32
  0
VERTEX
  8
E36LALIFT
 62
7
 10
2220.131
 20
-5299.535
 30
1642.093
 70
    32
  0
VERTEX
  8
E36LALIFT
 62
7
 10
2207.329
 20
-5296.919
 30
1641.065
 70
    32
  0
VERTEX
  8
E36LALIFT
 62
7
 10
2199.393
 20
-5290.169
 30
1641.000
 70
    32
  0
VERTEX
  8
E36LALIFT
 62
7
 10
2186.157
 20
-5274.877
 30
1640.563
 70
    32
  0
VERTEX
  8
E36LALIFT
 62
7
 10
2173.934
 20
-5263.677
 30
1640.563
 70
    32
  0
VERTEX
  8
E36LALIFT
 62
7
 10
2172.631
 20
-5258.097
 30
1640.563
 70
    32
  0
VERTEX
  8
E36LALIFT
 62
7
 10
2168.578
 20
-5255.539
 30
1640.563
 70
    32
  0
VERTEX
  8
E36LALIFT
 62
7
 10
2166.608
 20
-5256.486
 30
1640.563
 70
    32
  0
VERTEX
  8
E36LALIFT
 62
7
 10
2163.520
 20
-5253.381
 30
1640.563
 70
    32
  0
VERTEX
  8
E36LALIFT
 62
7
 10
2161.324
 20
-5247.242
 30
1641.001
 70
    32
  0
VERTEX
  8
E36LALIFT
 62
7
 10
2158.957
 20
-5246.785
 30
1641.001
 70
    32
  0
VERTEX
  8
E36LALIFT
 62
7
 10
2155.398
 20
-5245.005
 30
1641.001
 70
    32
  0
VERTEX
  8
E36LALIFT
 62
7
 10
2154.359
 20
-5241.807
 30
1641.001
 70
    32
  0
VERTEX
  8
E36LALIFT
 62
7
 10
2152.462
 20
-5237.903
 30
1641.001
 70
    32
  0
VERTEX
  8
E36LALIFT
 62
7
 10
2151.661
 20
-5236.738
 30
1642.622
 70
    32
  0
VERTEX
  8
E36LALIFT
 62
7
 10
2143.773
 20
-5226.390
 30
1642.622
 70
    32
  0
VERTEX
  8
E36LALIFT
 62
7
 10
2137.646
 20
-5218.315
 30
1642.622
 70
    32
  0
VERTEX
  8
E36LALIFT
 62
7
 10
2133.711
 20
-5209.050
 30
1642.622
 70
    32
  0
VERTEX
  8
E36LALIFT
 62
7
 10
2125.139
 20
-5197.777
 30
1642.622
 70
    32
  0
VERTEX
  8
E36LALIFT
 62
7
 10
2114.500
 20
-5206.934
 30
1642.622
 70
    32
  0
VERTEX
  8
E36LALIFT
 62
7
 10
2122.013
 20
-5216.074
 30
1642.622
 70
    32
  0
VERTEX
  8
E36LALIFT
 62
7
 10
2128.335
 20
-5227.569
 30
1642.622
 70
    32
  0
VERTEX
  8
E36LALIFT
 62
7
 10
2135.320
 20
-5242.338
 30
1641.001
 70
    32
  0
SEQEND
  8
E36LALIFT
  0
POINT
  8
E36LALIFT
 62
1
 10
1661.340
 20
-5231.241
 30
1634.467
  0
TEXT
  8
E36LALIFT
 62
1
 10
1664.354
 20
-5230.468
 30
1634.467
 40
1.575
  1
ST-563Q
 41
 1.0 
  0
TEXT
  8
E36LALIFT
 62
1
 10
1663.977
 20
-5232.768
 30
1634.467
 40
1.575
  1
1634.467
 41
 1.0 
  0
TEXT
  8
E36LALIFT
 62
1
 10
1661.585
 20
-5225.936
 30
1634.399
 40
1.575
  1
1634.399
 41
 1.0 
  0
TEXT
  8
E36LALIFT
 62
1
 10
1661.961
 20
-5223.827
 30
1634.399
 40
1.575
  1
ST-563R
 41
 1.0 
  0
POINT
  8
E36LALIFT
 62
1
 10
1657.090
 20
-5225.909
 30
1634.399
  0
POLYLINE
  8
E36LALIFT
 62
1
 66
     1
 70
     9
  0
VERTEX
  8
E36LALIFT
 62
1
 10
1657.090
 20
-5223.699
 30
1634.399
 70
    32
  0
VERTEX
  8
E36LALIFT
 62
1
 10
1658.839
 20
-5226.879
 30
1634.399
 70
    32
  0
VERTEX
  8
E36LALIFT
 62
1
 10
1655.340
 20
-5226.877
 30
1634.399
 70
    32
  0
SEQEND
  8
E36LALIFT
  0
TEXT
  8
E36LALIFT
 62
1
 10
1638.271
 20
-5241.717
 30
1634.437
 40
1.575
  1
ST-634T
 41
 1.0 
  0
TEXT
  8
E36LALIFT
 62
1
 10
1638.896
 20
-5243.639
 30
1634.437
 40
1.575
  1
1634.4371
 41
 1.0 
  0
TEXT
  8
E36LALIFT
 62
1
 10
1638.472
 20
-5247.031
 30
1633.926
 40
1.575
  1
ST-634S
 41
 1.0 
  0
TEXT
  8
E36LALIFT
 62
1
 10
1639.548
 20
-5249.404
 30
1633.926
 40
1.575
  1
1633.926
 41
 1.0 
  0
POLYLINE
  8
E36LALIFT
 62
1
 66
     1
 70
     9
  0
VERTEX
  8
E36LALIFT
 62
1
 10
1637.472
 20
-5245.297
 30
1633.926
 70
    32
  0
VERTEX
  8
E36LALIFT
 62
1
 10
1635.472
 20
-5248.764
 30
1633.926
 70
    32
  0
VERTEX
  8
E36LALIFT
 62
1
 10
1639.472
 20
-5248.764
 30
1633.926
 70
    32
  0
SEQEND
  8
E36LALIFT
  0
POINT
  8
E36LALIFT
 62
1
 10
1637.472
 20
-5247.031
 30
1633.926
  0
POINT
  8
E36LALIFT
 62
1
 10
1637.271
 20
-5241.717
 30
1634.437
  0
POLYLINE
  8
E36LALIFT
 62
1
 66
     1
 70
     9
  0
VERTEX
  8
E36LALIFT
 62
1
 10
1637.271
 20
-5239.984
 30
1634.437
 70
    32
  0
VERTEX
  8
E36LALIFT
 62
1
 10
1635.271
 20
-5243.450
 30
1634.437
 70
    32
  0
VERTEX
  8
E36LALIFT
 62
1
 10
1639.271
 20
-5243.450
 30
1634.437
 70
    32
  0
SEQEND
  8
E36LALIFT
  0
TEXT
  8
E36LALIFT
 62
1
 10
1644.983
 20
-5276.804
 30
1631.826
 40
1.575
  1
ST-639S
 41
 1.0 
  0
TEXT
  8
E36LALIFT
 62
1
 10
1646.162
 20
-5280.872
 30
1630.941
 40
1.575
  1
ST-639T
 41
 1.0 
  0
TEXT
  8
E36LALIFT
 62
1
 10
1645.996
 20
-5282.796
 30
1630.941
 40
1.575
  1
1630.9407
 41
 1.0 
  0
TEXT
  8
E36LALIFT
 62
1
 10
1644.676
 20
-5278.679
 30
1631.826
 40
1.575
  1
1631.8257
 41
 1.0 
  0
POINT
  8
E36LALIFT
 62
1
 10
1640.374
 20
-5281.068
 30
1630.941
  0
POLYLINE
  8
E36LALIFT
 62
1
 66
     1
 70
     9
  0
VERTEX
  8
E36LALIFT
 62
1
 10
1640.374
 20
-5279.334
 30
1630.941
 70
    32
  0
VERTEX
  8
E36LALIFT
 62
1
 10
1638.374
 20
-5282.801
 30
1630.941
 70
    32
  0
VERTEX
  8
E36LALIFT
 62
1
 10
1642.374
 20
-5282.801
 30
1630.941
 70
    32
  0
SEQEND
  8
E36LALIFT
  0
POINT
  8
E36LALIFT
 62
1
 10
1637.932
 20
-5277.523
 30
1631.826
  0
POLYLINE
  8
E36LALIFT
 62
1
 66
     1
 70
     9
  0
VERTEX
  8
E36LALIFT
 62
1
 10
1637.932
 20
-5275.790
 30
1631.826
 70
    32
  0
VERTEX
  8
E36LALIFT
 62
1
 10
1635.932
 20
-5279.257
 30
1631.826
 70
    32
  0
VERTEX
  8
E36LALIFT
 62
1
 10
1639.932
 20
-5279.257
 30
1631.826
 70
    32
  0
SEQEND
  8
E36LALIFT
  0
POLYLINE
  8
E36LALIFT
 62
1
 66
     1
 70
     9
  0
VERTEX
  8
E36LALIFT
 62
1
 10
1651.887
 20
-5304.719
 30
1625.119
 70
    32
  0
VERTEX
  8
E36LALIFT
 62
1
 10
1649.887
 20
-5308.185
 30
1625.119
 70
    32
  0
VERTEX
  8
E36LALIFT
 62
1
 10
1653.887
 20
-5308.185
 30
1625.119
 70
    32
  0
SEQEND
  8
E36LALIFT
  0
POINT
  8
E36LALIFT
 62
1
 10
1651.887
 20
-5306.452
 30
1625.119
  0
TEXT
  8
E36LALIFT
 62
1
 10
1651.458
 20
-5308.815
 30
1625.119
 40
1.575
  1
ST-616S
 50
251.119
 41
 1.0 
  0
TEXT
  8
E36LALIFT
 62
1
 10
1657.644
 20
-5311.501
 30
1624.879
 40
1.575
  1
1624.879
 50
251.119
 41
 1.0 
  0
TEXT
  8
E36LALIFT
 62
1
 10
1659.841
 20
-5312.469
 30
1624.879
 40
1.575
  1
ST-616T
 50
251.119
 41
 1.0 
  0
POINT
  8
E36LALIFT
 62
1
 10
1659.248
 20
-5309.848
 30
1624.879
  0
POLYLINE
  8
E36LALIFT
 62
1
 66
     1
 70
     9
  0
VERTEX
  8
E36LALIFT
 62
1
 10
1659.248
 20
-5308.114
 30
1624.879
 70
    32
  0
VERTEX
  8
E36LALIFT
 62
1
 10
1657.248
 20
-5311.581
 30
1624.879
 70
    32
  0
VERTEX
  8
E36LALIFT
 62
1
 10
1661.248
 20
-5311.581
 30
1624.879
 70
    32
  0
SEQEND
  8
E36LALIFT
  0
TEXT
  8
E36LALIFT
 62
1
 10
1649.520
 20
-5307.844
 30
1625.119
 40
1.575
  1
1625.1188
 50
251.119
 41
 1.0 
  0
POINT
  8
E36LALIFT
 62
7
 10
1603.509
 20
-5350.556
 30
1679.640
  0
POLYLINE
  8
E36LALIFT
 62
7
 66
     1
 70
     9
  0
VERTEX
  8
E36LALIFT
 62
7
 10
1603.509
 20
-5348.823
 30
1679.640
 70
    32
  0
VERTEX
  8
E36LALIFT
 62
7
 10
1601.509
 20
-5352.289
 30
1679.640
 70
    32
  0
VERTEX
  8
E36LALIFT
 62
7
 10
1605.509
 20
-5352.289
 30
1679.640
 70
    32
  0
SEQEND
  8
E36LALIFT
  0
TEXT
  8
E36LALIFT
 62
7
 10
1607.123
 20
-5345.185
 30
1679.640
 40
1.575
  1
1679.640
 50
73.366
 41
 1.0 
  0
TEXT
  8
E36LALIFT
 62
7
 10
1597.656
 20
-5341.095
 30
1680.715
 40
1.575
  1
1680.715
 50
73.366
 41
 1.0 
  0
TEXT
  8
E36LALIFT
 62
7
 10
1599.919
 20
-5341.772
 30
1680.715
 40
1.575
  1
1669.9s
 50
73.366
 41
 1.0 
  0
TEXT
  8
E36LALIFT
 62
7
 10
1595.541
 20
-5339.863
 30
1680.715
 40
1.575
  1
ST-825S
 50
73.366
 41
 1.0 
  0
TEXT
  8
E36LALIFT
 62
7
 10
1604.904
 20
-5343.928
 30
1679.640
 40
1.575
  1
ST-825T
 50
73.366
 41
 1.0 
  0
POLYLINE
  8
E36LALIFT
 62
7
 66
     1
 70
     9
  0
VERTEX
  8
E36LALIFT
 62
7
 10
1592.965
 20
-5347.895
 30
1680.715
 70
    32
  0
VERTEX
  8
E36LALIFT
 62
7
 10
1590.965
 20
-5351.362
 30
1680.715
 70
    32
  0
VERTEX
  8
E36LALIFT
 62
7
 10
1594.965
 20
-5351.362
 30
1680.715
 70
    32
  0
SEQEND
  8
E36LALIFT
  0
POINT
  8
E36LALIFT
 62
7
 10
1592.965
 20
-5349.628
 30
1680.715
  0
TEXT
  8
E36LALIFT
 62
7
 10
1577.095
 20
-5311.652
 30
1688.004
 40
1.575
  1
1688.004
 41
 1.0 
  0
TEXT
  8
E36LALIFT
 62
7
 10
1577.739
 20
-5309.524
 30
1688.004
 40
1.575
  1
ST-818T
 41
 1.0 
  0
TEXT
  8
E36LALIFT
 62
7
 10
1577.852
 20
-5304.547
 30
1688.786
 40
1.575
  1
ST-818S
 41
 1.0 
  0
TEXT
  8
E36LALIFT
 62
7
 10
1577.543
 20
-5306.542
 30
1688.786
 40
1.575
  1
1688.786
 41
 1.0 
  0
POLYLINE
  8
E36LALIFT
 62
7
 66
     1
 70
     9
  0
VERTEX
  8
E36LALIFT
 62
7
 10
1570.707
 20
-5307.568
 30
1688.004
 70
    32
  0
VERTEX
  8
E36LALIFT
 62
7
 10
1568.707
 20
-5311.034
 30
1688.004
 70
    32
  0
VERTEX
  8
E36LALIFT
 62
7
 10
1572.707
 20
-5311.034
 30
1688.004
 70
    32
  0
SEQEND
  8
E36LALIFT
  0
POINT
  8
E36LALIFT
 62
7
 10
1570.707
 20
-5309.301
 30
1688.004
  0
POINT
  8
E36LALIFT
 62
7
 10
1568.810
 20
-5305.552
 30
1688.786
  0
POLYLINE
  8
E36LALIFT
 62
7
 66
     1
 70
     9
  0
VERTEX
  8
E36LALIFT
 62
7
 10
1568.810
 20
-5303.819
 30
1688.786
 70
    32
  0
VERTEX
  8
E36LALIFT
 62
7
 10
1566.810
 20
-5307.285
 30
1688.786
 70
    32
  0
VERTEX
  8
E36LALIFT
 62
7
 10
1570.810
 20
-5307.285
 30
1688.786
 70
    32
  0
SEQEND
  8
E36LALIFT
  0
TEXT
  8
E36LALIFT
 62
7
 10
1553.418
 20
-5264.942
 30
1696.037
 40
1.575
  1
1696.037
 50
-22.470
 41
 1.0 
  0
TEXT
  8
E36LALIFT
 62
7
 10
1552.515
 20
-5267.124
 30
1696.037
 40
1.575
  1
1684.1s
 50
-22.470
 41
 1.0 
  0
TEXT
  8
E36LALIFT
 62
7
 10
1554.683
 20
-5263.178
 30
1696.037
 40
1.575
  1
ST-813T
 50
-22.470
 41
 1.0 
  0
TEXT
  8
E36LALIFT
 62
7
 10
1558.429
 20
-5256.059
 30
1698.139
 40
1.575
  1
1698.140
 50
-22.470
 41
 1.0 
  0
TEXT
  8
E36LALIFT
 62
7
 10
1559.967
 20
-5254.295
 30
1698.139
 40
1.575
  1
ST-813S
 50
-22.470
 41
 1.0 
  0
POINT
  8
E36LALIFT
 62
7
 10
1576.065
 20
-5269.961
 30
1696.037
  0
POLYLINE
  8
E36LALIFT
 62
7
 66
     1
 70
     9
  0
VERTEX
  8
E36LALIFT
 62
7
 10
1576.065
 20
-5267.617
 30
1696.037
 70
    32
  0
VERTEX
  8
E36LALIFT
 62
7
 10
1574.065
 20
-5271.083
 30
1696.037
 70
    32
  0
VERTEX
  8
E36LALIFT
 62
7
 10
1578.065
 20
-5271.083
 30
1696.037
 70
    32
  0
SEQEND
  8
E36LALIFT
  0
POINT
  8
E36LALIFT
 62
7
 10
1576.846
 20
-5261.214
 30
1698.139
  0
POLYLINE
  8
E36LALIFT
 62
7
 66
     1
 70
     9
  0
VERTEX
  8
E36LALIFT
 62
7
 10
1576.743
 20
-5258.971
 30
1698.139
 70
    32
  0
VERTEX
  8
E36LALIFT
 62
7
 10
1574.743
 20
-5262.438
 30
1698.139
 70
    32
  0
VERTEX
  8
E36LALIFT
 62
7
 10
1578.743
 20
-5262.438
 30
1698.139
 70
    32
  0
SEQEND
  8
E36LALIFT
  0
TEXT
  8
E36LALIFT
 62
7
 10
1612.407
 20
-5196.779
 30
1709.737
 40
1.575
  1
1709.737
 50
-56.270
 41
 1.0 
  0
TEXT
  8
E36LALIFT
 62
7
 10
1610.443
 20
-5198.091
 30
1709.737
 40
1.575
  1
1697.6s
 50
-56.270
 41
 1.0 
  0
TEXT
  8
E36LALIFT
 62
7
 10
1614.450
 20
-5195.886
 30
1709.737
 40
1.575
  1
ST-805S
 50
-56.270
 41
 1.0 
  0
POINT
  8
E36LALIFT
 62
7
 10
1620.668
 20
-5209.484
 30
1709.737
  0
POLYLINE
  8
E36LALIFT
 62
7
 66
     1
 70
     9
  0
VERTEX
  8
E36LALIFT
 62
7
 10
1618.796
 20
-5209.978
 30
1709.207
 70
    32
  0
VERTEX
  8
E36LALIFT
 62
7
 10
1616.796
 20
-5213.444
 30
1709.207
 70
    32
  0
VERTEX
  8
E36LALIFT
 62
7
 10
1620.796
 20
-5213.444
 30
1709.207
 70
    32
  0
SEQEND
  8
E36LALIFT
  0
POLYLINE
  8
E36LALIFT
 62
7
 66
     1
 70
     9
  0
VERTEX
  8
E36LALIFT
 62
7
 10
1620.668
 20
-5207.750
 30
1709.737
 70
    32
  0
VERTEX
  8
E36LALIFT
 62
7
 10
1618.668
 20
-5211.217
 30
1709.737
 70
    32
  0
VERTEX
  8
E36LALIFT
 62
7
 10
1622.668
 20
-5211.217
 30
1709.737
 70
    32
  0
SEQEND
  8
E36LALIFT
  0
POINT
  8
E36LALIFT
 62
7
 10
1618.796
 20
-5211.711
 30
1709.207
  0
TEXT
  8
E36LALIFT
 62
7
 10
1606.688
 20
-5201.390
 30
1709.207
 40
1.575
  1
1709.207
 50
-56.270
 41
 1.0 
  0
TEXT
  8
E36LALIFT
 62
7
 10
1608.398
 20
-5200.430
 30
1709.207
 40
1.575
  1
ST-805T
 50
-56.270
 41
 1.0 
  0
POLYLINE
  8
E36LALIFT
 62
1
 66
     1
 70
     9
  0
VERTEX
  8
E36LALIFT
 62
1
 10
1661.340
 20
-5229.031
 30
1634.467
 70
    32
  0
VERTEX
  8
E36LALIFT
 62
1
 10
1663.089
 20
-5232.211
 30
1634.467
 70
    32
  0
VERTEX
  8
E36LALIFT
 62
1
 10
1659.590
 20
-5232.209
 30
1634.467
 70
    32
  0
SEQEND
  8
E36LALIFT
  0
TEXT
  8
E36LALIFT
 62
7
 10
1890.616
 20
-5207.005
 30
1630.567
 40
1.575
  1
1630.567
 50
248.650
 41
 1.0 
  0
TEXT
  8
E36LALIFT
 62
7
 10
1892.884
 20
-5207.999
 30
1630.567
 40
1.575
  1
ST-631O
 50
248.650
 41
 1.0 
  0
POINT
  8
E36LALIFT
 62
7
 10
1895.281
 20
-5198.956
 30
1630.567
  0
POLYLINE
  8
E36LALIFT
 62
7
 66
     1
 70
     9
  0
VERTEX
  8
E36LALIFT
 62
7
 10
1895.281
 20
-5196.746
 30
1630.567
 70
    32
  0
VERTEX
  8
E36LALIFT
 62
7
 10
1897.030
 20
-5199.926
 30
1630.567
 70
    32
  0
VERTEX
  8
E36LALIFT
 62
7
 10
1893.531
 20
-5199.924
 30
1630.567
 70
    32
  0
SEQEND
  8
E36LALIFT
  0
TEXT
  8
E36LALIFT
 62
7
 10
1943.684
 20
-5223.013
 30
1640.093
 40
1.575
  1
1640.093
 50
256.400
 41
 1.0 
  0
TEXT
  8
E36LALIFT
 62
7
 10
1946.091
 20
-5223.883
 30
1640.093
 40
1.575
  1
ST-624O
 50
256.400
 41
 1.0 
  0
TEXT
  8
E36LALIFT
 62
7
 10
1953.292
 20
-5223.031
 30
1640.103
 40
1.575
  1
1640.103
 50
256.400
 41
 1.0 
  0
TEXT
  8
E36LALIFT
 62
7
 10
1955.582
 20
-5223.964
 30
1640.103
 40
1.575
  1
ST-624P
 50
256.400
 41
 1.0 
  0
POLYLINE
  8
E36LALIFT
 62
7
 66
     1
 70
     9
  0
VERTEX
  8
E36LALIFT
 62
7
 10
1954.642
 20
-5212.133
 30
1640.103
 70
    32
  0
VERTEX
  8
E36LALIFT
 62
7
 10
1956.391
 20
-5215.313
 30
1640.103
 70
    32
  0
VERTEX
  8
E36LALIFT
 62
7
 10
1952.892
 20
-5215.311
 30
1640.103
 70
    32
  0
SEQEND
  8
E36LALIFT
  0
POINT
  8
E36LALIFT
 62
7
 10
1954.642
 20
-5214.343
 30
1640.103
  0
POLYLINE
  8
E36LALIFT
 62
7
 66
     1
 70
     9
  0
VERTEX
  8
E36LALIFT
 62
7
 10
1947.526
 20
-5213.669
 30
1640.093
 70
    32
  0
VERTEX
  8
E36LALIFT
 62
7
 10
1949.275
 20
-5216.849
 30
1640.093
 70
    32
  0
VERTEX
  8
E36LALIFT
 62
7
 10
1945.776
 20
-5216.847
 30
1640.093
 70
    32
  0
SEQEND
  8
E36LALIFT
  0
POINT
  8
E36LALIFT
 62
7
 10
1947.526
 20
-5215.879
 30
1640.093
  0
TEXT
  8
E36LALIFT
 62
7
 10
2009.613
 20
-5203.076
 30
1642.443
 40
1.575
  1
1642.443
 50
297.600
 41
 1.0 
  0
TEXT
  8
E36LALIFT
 62
7
 10
2011.805
 20
-5201.803
 30
1642.443
 40
1.575
  1
ST-633P
 50
297.600
 41
 1.0 
  0
TEXT
  8
E36LALIFT
 62
7
 10
2017.972
 20
-5196.046
 30
1642.593
 40
1.575
  1
1642.593
 50
297.600
 41
 1.0 
  0
TEXT
  8
E36LALIFT
 62
7
 10
2020.535
 20
-5195.260
 30
1642.593
 40
1.575
  1
ST-633O
 50
297.600
 41
 1.0 
  0
POINT
  8
E36LALIFT
 62
7
 10
2016.884
 20
-5188.342
 30
1642.593
  0
POLYLINE
  8
E36LALIFT
 62
7
 66
     1
 70
     9
  0
VERTEX
  8
E36LALIFT
 62
7
 10
2016.884
 20
-5186.132
 30
1642.593
 70
    32
  0
VERTEX
  8
E36LALIFT
 62
7
 10
2018.633
 20
-5189.312
 30
1642.593
 70
    32
  0
VERTEX
  8
E36LALIFT
 62
7
 10
2015.134
 20
-5189.310
 30
1642.593
 70
    32
  0
SEQEND
  8
E36LALIFT
  0
POLYLINE
  8
E36LALIFT
 62
7
 66
     1
 70
     9
  0
VERTEX
  8
E36LALIFT
 62
7
 10
2010.612
 20
-5187.056
 30
1642.443
 70
    32
  0
VERTEX
  8
E36LALIFT
 62
7
 10
2012.361
 20
-5190.236
 30
1642.443
 70
    32
  0
VERTEX
  8
E36LALIFT
 62
7
 10
2008.862
 20
-5190.234
 30
1642.443
 70
    32
  0
SEQEND
  8
E36LALIFT
  0
POINT
  8
E36LALIFT
 62
7
 10
2010.612
 20
-5189.266
 30
1642.443
  0
TEXT
  8
E36LALIFT
 62
7
 10
2044.941
 20
-5210.296
 30
1639.217
 40
1.575
  1
1639.217
 50
37.010
 41
 1.0 
  0
TEXT
  8
E36LALIFT
 62
7
 10
2044.026
 20
-5208.456
 30
1639.217
 40
1.575
  1
ST-696O
 50
37.010
 41
 1.0 
  0
POLYLINE
  8
E36LALIFT
 62
7
 66
     1
 70
     9
  0
VERTEX
  8
E36LALIFT
 62
7
 10
2057.601
 20
-5196.384
 30
1639.217
 70
    32
  0
VERTEX
  8
E36LALIFT
 62
7
 10
2059.350
 20
-5199.564
 30
1639.217
 70
    32
  0
VERTEX
  8
E36LALIFT
 62
7
 10
2055.851
 20
-5199.562
 30
1639.217
 70
    32
  0
SEQEND
  8
E36LALIFT
  0
POINT
  8
E36LALIFT
 62
7
 10
2057.601
 20
-5198.594
 30
1639.217
  0
POINT
  8
E36LALIFT
 62
7
 10
2054.749
 20
-5182.614
 30
1638.685
  0
POLYLINE
  8
E36LALIFT
 62
7
 66
     1
 70
     9
  0
VERTEX
  8
E36LALIFT
 62
7
 10
2054.749
 20
-5180.404
 30
1638.685
 70
    32
  0
VERTEX
  8
E36LALIFT
 62
7
 10
2056.498
 20
-5183.584
 30
1638.685
 70
    32
  0
VERTEX
  8
E36LALIFT
 62
7
 10
2052.999
 20
-5183.582
 30
1638.685
 70
    32
  0
SEQEND
  8
E36LALIFT
  0
POLYLINE
  8
E36LALIFT
 62
7
 66
     1
 70
     9
  0
VERTEX
  8
E36LALIFT
 62
7
 10
2046.225
 20
-5178.132
 30
1639.827
 70
    32
  0
VERTEX
  8
E36LALIFT
 62
7
 10
2047.974
 20
-5181.312
 30
1639.827
 70
    32
  0
VERTEX
  8
E36LALIFT
 62
7
 10
2044.475
 20
-5181.310
 30
1639.827
 70
    32
  0
SEQEND
  8
E36LALIFT
  0
POINT
  8
E36LALIFT
 62
7
 10
2046.225
 20
-5180.342
 30
1639.827
  0
TEXT
  8
E36LALIFT
 62
7
 10
2054.629
 20
-5170.548
 30
1639.827
 40
1.575
  1
1639.827
 50
37.010
 41
 1.0 
  0
TEXT
  8
E36LALIFT
 62
7
 10
2053.805
 20
-5168.305
 30
1639.827
 40
1.575
  1
ST-696P
 50
37.010
 41
 1.0 
  0
TEXT
  8
E36LALIFT
 62
7
 10
2060.365
 20
-5173.544
 30
1638.685
 40
1.575
  1
ST-690O
 50
37.010
 41
 1.0 
  0
TEXT
  8
E36LALIFT
 62
7
 10
2061.107
 20
-5175.814
 30
1638.685
 40
1.575
  1
1638.685
 50
37.010
 41
 1.0 
  0
POLYLINE
  8
E36LALIFT
 62
12
 66
     1
 70
     9
  0
VERTEX
  8
E36LALIFT
 62
12
 10
1739.445
 20
-5096.118
 30
1734.000
 70
    32
  0
VERTEX
  8
E36LALIFT
 62
12
 10
1743.215
 20
-5102.945
 30
1734.000
 70
    32
  0
VERTEX
  8
E36LALIFT
 62
12
 10
1748.596
 20
-5113.212
 30
1734.000
 70
    32
  0
VERTEX
  8
E36LALIFT
 62
12
 10
1754.040
 20
-5118.977
 30
1734.000
 70
    32
  0
VERTEX
  8
E36LALIFT
 62
12
 10
1760.666
 20
-5127.620
 30
1732.500
 70
    32
  0
VERTEX
  8
E36LALIFT
 62
12
 10
1768.358
 20
-5158.857
 30
1728.000
 70
    32
  0
VERTEX
  8
E36LALIFT
 62
12
 10
1762.756
 20
-5176.414
 30
1726.000
 70
    32
  0
VERTEX
  8
E36LALIFT
 62
12
 10
1760.850
 20
-5178.355
 30
1725.000
 70
    32
  0
VERTEX
  8
E36LALIFT
 62
12
 10
1749.045
 20
-5189.127
 30
1722.500
 70
    32
  0
VERTEX
  8
E36LALIFT
 62
12
 10
1738.403
 20
-5195.270
 30
1718.659
 70
    32
  0
VERTEX
  8
E36LALIFT
 62
12
 10
1729.106
 20
-5197.950
 30
1718.084
 70
    32
  0
VERTEX
  8
E36LALIFT
 62
12
 10
1704.070
 20
-5198.742
 30
1715.937
 70
    32
  0
VERTEX
  8
E36LALIFT
 62
12
 10
1690.694
 20
-5199.202
 30
1715.430
 70
    32
  0
VERTEX
  8
E36LALIFT
 62
12
 10
1684.571
 20
-5200.133
 30
1715.430
 70
    32
  0
VERTEX
  8
E36LALIFT
 62
12
 10
1683.225
 20
-5212.039
 30
1715.430
 70
    32
  0
VERTEX
  8
E36LALIFT
 62
12
 10
1687.715
 20
-5211.086
 30
1715.430
 70
    32
  0
VERTEX
  8
E36LALIFT
 62
12
 10
1700.749
 20
-5210.631
 30
1715.716
 70
    32
  0
VERTEX
  8
E36LALIFT
 62
12
 10
1703.339
 20
-5215.511
 30
1709.500
 70
    32
  0
VERTEX
  8
E36LALIFT
 62
12
 10
1703.339
 20
-5215.511
 30
1709.500
 70
    32
  0
VERTEX
  8
E36LALIFT
 62
12
 10
1691.161
 20
-5225.834
 30
1708.000
 70
    32
  0
VERTEX
  8
E36LALIFT
 62
12
 10
1688.062
 20
-5228.461
 30
1708.000
 70
    32
  0
VERTEX
  8
E36LALIFT
 62
12
 10
1685.633
 20
-5229.351
 30
1708.000
 70
    32
  0
VERTEX
  8
E36LALIFT
 62
12
 10
1691.939
 20
-5238.640
 30
1708.000
 70
    32
  0
VERTEX
  8
E36LALIFT
 62
12
 10
1697.049
 20
-5236.236
 30
1708.000
 70
    32
  0
VERTEX
  8
E36LALIFT
 62
12
 10
1704.018
 20
-5230.902
 30
1709.000
 70
    32
  0
VERTEX
  8
E36LALIFT
 62
12
 10
1746.628
 20
-5203.606
 30
1720.000
 70
    32
  0
VERTEX
  8
E36LALIFT
 62
12
 10
1756.278
 20
-5196.263
 30
1722.000
 70
    32
  0
VERTEX
  8
E36LALIFT
 62
12
 10
1766.772
 20
-5188.382
 30
1724.000
 70
    32
  0
VERTEX
  8
E36LALIFT
 62
12
 10
1772.144
 20
-5179.786
 30
1726.000
 70
    32
  0
VERTEX
  8
E36LALIFT
 62
12
 10
1775.424
 20
-5174.504
 30
1726.000
 70
    32
  0
VERTEX
  8
E36LALIFT
 62
12
 10
1777.482
 20
-5166.352
 30
1727.000
 70
    32
  0
VERTEX
  8
E36LALIFT
 62
12
 10
1780.312
 20
-5160.518
 30
1727.000
 70
    32
  0
VERTEX
  8
E36LALIFT
 62
12
 10
1778.441
 20
-5155.292
 30
1728.000
 70
    32
  0
VERTEX
  8
E36LALIFT
 62
12
 10
1776.646
 20
-5144.407
 30
1729.000
 70
    32
  0
VERTEX
  8
E36LALIFT
 62
12
 10
1768.479
 20
-5124.412
 30
1732.500
 70
    32
  0
VERTEX
  8
E36LALIFT
 62
12
 10
1767.388
 20
-5118.655
 30
1734.000
 70
    32
  0
VERTEX
  8
E36LALIFT
 62
12
 10
1774.338
 20
-5114.291
 30
1734.000
 70
    32
  0
VERTEX
  8
E36LALIFT
 62
12
 10
1778.936
 20
-5112.310
 30
1734.000
 70
    32
  0
SEQEND
  8
E36LALIFT
  0
POINT
  8
E36LALIFT
 62
1
 10
1720.306
 20
-5206.097
 30
1716.705
  0
POLYLINE
  8
E36LALIFT
 62
1
 66
     1
 70
     9
  0
VERTEX
  8
E36LALIFT
 62
1
 10
1720.306
 20
-5203.887
 30
1716.705
 70
    32
  0
VERTEX
  8
E36LALIFT
 62
1
 10
1722.055
 20
-5207.067
 30
1716.705
 70
    32
  0
VERTEX
  8
E36LALIFT
 62
1
 10
1718.556
 20
-5207.065
 30
1716.705
 70
    32
  0
SEQEND
  8
E36LALIFT
  0
POLYLINE
  8
E36LALIFT
 62
1
 66
     1
 70
     9
  0
VERTEX
  8
E36LALIFT
 62
1
 10
1728.522
 20
-5204.631
 30
1718.058
 70
    32
  0
VERTEX
  8
E36LALIFT
 62
1
 10
1730.271
 20
-5207.811
 30
1718.058
 70
    32
  0
VERTEX
  8
E36LALIFT
 62
1
 10
1726.772
 20
-5207.809
 30
1718.058
 70
    32
  0
SEQEND
  8
E36LALIFT
  0
POINT
  8
E36LALIFT
 62
1
 10
1728.522
 20
-5206.841
 30
1718.058
  0
TEXT
  8
E36LALIFT
 62
1
 10
1728.783
 20
-5228.320
 30
1716.705
 40
3.000
  1
1716.705
 50
325.000
 41
 1.0 
  0
TEXT
  8
E36LALIFT
 62
1
 10
1731.803
 20
-5224.736
 30
1716.705
 40
3.000
  1
ST-502R
 50
325.000
 41
 1.0 
  0
TEXT
  8
E36LALIFT
 62
1
 10
1740.238
 20
-5218.696
 30
1718.058
 40
3.000
  1
ST-502Q
 50
325.000
 41
 1.0 
  0
TEXT
  8
E36LALIFT
 62
1
 10
1742.829
 20
-5215.105
 30
1718.058
 40
3.000
  1
1718.058
 50
325.000
 41
 1.0 
  0
TEXT
  8
E36LALIFT
 62
1
 10
1776.708
 20
-5191.823
 30
1725.705
 40
3.000
  1
ST-64R
 50
307.575
 41
 1.0 
  0
TEXT
  8
E36LALIFT
 62
1
 10
1783.690
 20
-5179.758
 30
1727.108
 40
3.000
  1
ST-64Q
 50
307.575
 41
 1.0 
  0
TEXT
  8
E36LALIFT
 62
1
 10
1785.641
 20
-5176.411
 30
1727.108
 40
3.000
  1
1727.108
 50
307.575
 41
 1.0 
  0
TEXT
  8
E36LALIFT
 62
1
 10
1772.975
 20
-5194.469
 30
1725.705
 40
3.000
  1
1725.705
 50
307.575
 41
 1.0 
  0
POINT
  8
E36LALIFT
 62
1
 10
1765.074
 20
-5175.998
 30
1725.705
  0
POLYLINE
  8
E36LALIFT
 62
1
 66
     1
 70
     9
  0
VERTEX
  8
E36LALIFT
 62
1
 10
1764.751
 20
-5173.766
 30
1725.705
 70
    32
  0
VERTEX
  8
E36LALIFT
 62
1
 10
1766.500
 20
-5176.945
 30
1725.705
 70
    32
  0
VERTEX
  8
E36LALIFT
 62
1
 10
1763.001
 20
-5176.944
 30
1725.705
 70
    32
  0
SEQEND
  8
E36LALIFT
  0
POLYLINE
  8
E36LALIFT
 62
1
 66
     1
 70
     9
  0
VERTEX
  8
E36LALIFT
 62
1
 10
1774.191
 20
-5166.468
 30
1727.108
 70
    32
  0
VERTEX
  8
E36LALIFT
 62
1
 10
1775.941
 20
-5169.648
 30
1727.108
 70
    32
  0
VERTEX
  8
E36LALIFT
 62
1
 10
1772.441
 20
-5169.647
 30
1727.108
 70
    32
  0
SEQEND
  8
E36LALIFT
  0
POINT
  8
E36LALIFT
 62
1
 10
1773.762
 20
-5168.802
 30
1727.108
  0
POINT
  8
E36LALIFT
 62
1
 10
1773.831
 20
-5168.810
 30
1727.108
  0
POINT
  8
E36LALIFT
 62
1
 10
1759.841
 20
-5115.734
 30
1733.966
  0
POLYLINE
  8
E36LALIFT
 62
1
 66
     1
 70
     9
  0
VERTEX
  8
E36LALIFT
 62
1
 10
1759.841
 20
-5113.524
 30
1733.966
 70
    32
  0
VERTEX
  8
E36LALIFT
 62
1
 10
1761.590
 20
-5116.704
 30
1733.966
 70
    32
  0
VERTEX
  8
E36LALIFT
 62
1
 10
1758.091
 20
-5116.702
 30
1733.966
 70
    32
  0
SEQEND
  8
E36LALIFT
  0
POINT
  8
E36LALIFT
 62
1
 10
1756.875
 20
-5106.261
 30
1734.857
  0
POLYLINE
  8
E36LALIFT
 62
1
 66
     1
 70
     9
  0
VERTEX
  8
E36LALIFT
 62
1
 10
1756.751
 20
-5104.028
 30
1734.857
 70
    32
  0
VERTEX
  8
E36LALIFT
 62
1
 10
1758.500
 20
-5107.208
 30
1734.857
 70
    32
  0
VERTEX
  8
E36LALIFT
 62
1
 10
1755.001
 20
-5107.206
 30
1734.857
 70
    32
  0
SEQEND
  8
E36LALIFT
  0
TEXT
  8
E36LALIFT
 62
1
 10
1716.985
 20
-5128.178
 30
1733.966
 40
3.000
  1
1733.966
 50
6.027
 41
 1.0 
  0
TEXT
  8
E36LALIFT
 62
1
 10
1721.449
 20
-5123.122
 30
1733.966
 40
3.000
  1
ST-30Q
 50
6.027
 41
 1.0 
  0
TEXT
  8
E36LALIFT
 62
1
 10
1710.035
 20
-5117.647
 30
1734.857
 40
3.000
  1
1734.857
 50
6.027
 41
 1.0 
  0
TEXT
  8
E36LALIFT
 62
1
 10
1714.752
 20
-5112.654
 30
1734.857
 40
3.000
  1
ST-30R
 50
6.027
 41
 1.0 
  0
ENDSEC
  0
EOF
