999
********************************
999
*   DXF File - Entities Only   *
999
*        3D Data Format        *
999
*     Output from ENVISAGE     *
999
*     31-Dec-2007 14:29:10     *
999
********************************
  0
SECTION 
  2
HEADER
  9
$ACADVER
  1
AC1009
  9
$EXTMIN
 10
-290000.000
 20
-250000.000
 30
-4000.000
  9
$EXTMAX
 10
320000.000
 20
160000.000
 30
6000.000
  0
ENDSEC
  0
SECTION
  2
ENTITIES
  0
POLYLINE
  8
E39LALIFT
 62
3
 66
     1
 70
     9
  0
VERTEX
  8
E39LALIFT
 62
3
 10
3681.986
 20
-7038.808
 30
1292.000
 70
    32
  0
VERTEX
  8
E39LALIFT
 62
3
 10
3676.927
 20
-7042.481
 30
1292.500
 70
    32
  0
VERTEX
  8
E39LALIFT
 62
3
 10
3671.153
 20
-7061.977
 30
1295.000
 70
    32
  0
VERTEX
  8
E39LALIFT
 62
3
 10
3671.160
 20
-7071.587
 30
1296.000
 70
    32
  0
VERTEX
  8
E39LALIFT
 62
3
 10
3666.923
 20
-7082.199
 30
1296.200
 70
    32
  0
VERTEX
  8
E39LALIFT
 62
3
 10
3668.603
 20
-7090.897
 30
1296.500
 70
    32
  0
VERTEX
  8
E39LALIFT
 62
3
 10
3672.728
 20
-7095.780
 30
1296.750
 70
    32
  0
VERTEX
  8
E39LALIFT
 62
3
 10
3678.006
 20
-7104.357
 30
1297.000
 70
    32
  0
VERTEX
  8
E39LALIFT
 62
3
 10
3670.571
 20
-7111.037
 30
1297.000
 70
    32
  0
VERTEX
  8
E39LALIFT
 62
3
 10
3670.805
 20
-7117.752
 30
1297.500
 70
    32
  0
VERTEX
  8
E39LALIFT
 62
3
 10
3675.128
 20
-7137.834
 30
1298.000
 70
    32
  0
VERTEX
  8
E39LALIFT
 62
3
 10
3666.267
 20
-7140.189
 30
1298.000
 70
    32
  0
VERTEX
  8
E39LALIFT
 62
3
 10
3658.246
 20
-7114.185
 30
1297.250
 70
    32
  0
VERTEX
  8
E39LALIFT
 62
3
 10
3659.367
 20
-7104.154
 30
1297.000
 70
    32
  0
VERTEX
  8
E39LALIFT
 62
3
 10
3658.392
 20
-7093.594
 30
1296.500
 70
    32
  0
VERTEX
  8
E39LALIFT
 62
3
 10
3652.190
 20
-7080.305
 30
1296.500
 70
    32
  0
VERTEX
  8
E39LALIFT
 62
3
 10
3647.858
 20
-7078.543
 30
1296.000
 70
    32
  0
VERTEX
  8
E39LALIFT
 62
3
 10
3650.769
 20
-7062.887
 30
1295.000
 70
    32
  0
VERTEX
  8
E39LALIFT
 62
3
 10
3648.887
 20
-7060.308
 30
1295.000
 70
    32
  0
VERTEX
  8
E39LALIFT
 62
3
 10
3642.923
 20
-7061.851
 30
1295.000
 70
    32
  0
VERTEX
  8
E39LALIFT
 62
3
 10
3637.057
 20
-7051.316
 30
1295.000
 70
    32
  0
VERTEX
  8
E39LALIFT
 62
3
 10
3646.132
 20
-7047.092
 30
1296.000
 70
    32
  0
VERTEX
  8
E39LALIFT
 62
3
 10
3650.468
 20
-7043.505
 30
1296.000
 70
    32
  0
VERTEX
  8
E39LALIFT
 62
3
 10
3652.413
 20
-7038.697
 30
1295.000
 70
    32
  0
VERTEX
  8
E39LALIFT
 62
3
 10
3656.179
 20
-7035.612
 30
1295.000
 70
    32
  0
VERTEX
  8
E39LALIFT
 62
3
 10
3665.363
 20
-7037.393
 30
1294.000
 70
    32
  0
VERTEX
  8
E39LALIFT
 62
3
 10
3678.165
 20
-7027.224
 30
1292.000
 70
    32
  0
SEQEND
  8
E39LALIFT
  0
POLYLINE
  8
E39LALIFT
 62
11
 66
     1
 70
     8
  0
VERTEX
  8
E39LALIFT
 62
11
 10
2085.271
 20
-6280.843
 30
1407.384
 70
    32
  0
VERTEX
  8
E39LALIFT
 62
11
 10
2082.277
 20
-6272.746
 30
1404.706
 70
    32
  0
VERTEX
  8
E39LALIFT
 62
11
 10
2074.749
 20
-6265.890
 30
1404.338
 70
    32
  0
VERTEX
  8
E39LALIFT
 62
11
 10
2066.080
 20
-6258.919
 30
1403.938
 70
    32
  0
VERTEX
  8
E39LALIFT
 62
11
 10
2060.271
 20
-6255.299
 30
1403.697
 70
    32
  0
VERTEX
  8
E39LALIFT
 62
11
 10
2061.415
 20
-6249.679
 30
1403.708
 70
    32
  0
VERTEX
  8
E39LALIFT
 62
11
 10
2052.998
 20
-6232.543
 30
1402.319
 70
    32
  0
VERTEX
  8
E39LALIFT
 62
11
 10
2054.956
 20
-6227.387
 30
1401.266
 70
    32
  0
VERTEX
  8
E39LALIFT
 62
11
 10
2047.921
 20
-6214.326
 30
1400.769
 70
    32
  0
VERTEX
  8
E39LALIFT
 62
11
 10
2044.026
 20
-6201.218
 30
1400.944
 70
    32
  0
VERTEX
  8
E39LALIFT
 62
11
 10
2041.552
 20
-6193.291
 30
1402.030
 70
    32
  0
VERTEX
  8
E39LALIFT
 62
11
 10
2041.009
 20
-6192.658
 30
1403.000
 70
    32
  0
VERTEX
  8
E39LALIFT
 62
11
 10
2035.810
 20
-6182.621
 30
1403.000
 70
    32
  0
VERTEX
  8
E39LALIFT
 62
11
 10
2032.755
 20
-6177.185
 30
1403.000
 70
    32
  0
VERTEX
  8
E39LALIFT
 62
11
 10
2030.156
 20
-6169.989
 30
1403.000
 70
    32
  0
VERTEX
  8
E39LALIFT
 62
11
 10
2025.232
 20
-6164.295
 30
1403.000
 70
    32
  0
VERTEX
  8
E39LALIFT
 62
11
 10
2019.092
 20
-6159.877
 30
1403.000
 70
    32
  0
VERTEX
  8
E39LALIFT
 62
11
 10
2015.670
 20
-6158.537
 30
1403.349
 70
    32
  0
VERTEX
  8
E39LALIFT
 62
11
 10
2009.060
 20
-6154.170
 30
1404.100
 70
    32
  0
VERTEX
  8
E39LALIFT
 62
11
 10
2002.918
 20
-6148.311
 30
1404.906
 70
    32
  0
VERTEX
  8
E39LALIFT
 62
11
 10
2000.169
 20
-6145.974
 30
1405.248
 70
    32
  0
VERTEX
  8
E39LALIFT
 62
11
 10
1995.955
 20
-6139.267
 30
1406.000
 70
    32
  0
VERTEX
  8
E39LALIFT
 62
11
 10
1991.041
 20
-6131.800
 30
1406.848
 70
    32
  0
VERTEX
  8
E39LALIFT
 62
11
 10
1985.508
 20
-6122.527
 30
1407.872
 70
    32
  0
VERTEX
  8
E39LALIFT
 62
11
 10
1980.582
 20
-6116.042
 30
1408.671
 70
    32
  0
VERTEX
  8
E39LALIFT
 62
11
 10
1975.819
 20
-6104.120
 30
1409.930
 70
    32
  0
VERTEX
  8
E39LALIFT
 62
11
 10
1976.341
 20
-6101.810
 30
1410.162
 70
    32
  0
VERTEX
  8
E39LALIFT
 62
11
 10
1973.225
 20
-6092.890
 30
1411.089
 70
    32
  0
VERTEX
  8
E39LALIFT
 62
11
 10
1972.422
 20
-6082.113
 30
1412.149
 70
    32
  0
VERTEX
  8
E39LALIFT
 62
11
 10
1973.004
 20
-6078.622
 30
1412.496
 70
    32
  0
VERTEX
  8
E39LALIFT
 62
11
 10
1974.140
 20
-6068.181
 30
1413.526
 70
    32
  0
VERTEX
  8
E39LALIFT
 62
11
 10
1974.989
 20
-6049.722
 30
1415.339
 70
    32
  0
VERTEX
  8
E39LALIFT
 62
11
 10
1978.978
 20
-6049.870
 30
1415.339
 70
    32
  0
VERTEX
  8
E39LALIFT
 62
11
 10
1984.112
 20
-6050.348
 30
1415.339
 70
    32
  0
VERTEX
  8
E39LALIFT
 62
11
 10
1985.598
 20
-6066.840
 30
1413.734
 70
    32
  0
VERTEX
  8
E39LALIFT
 62
11
 10
1983.575
 20
-6076.650
 30
1412.764
 70
    32
  0
VERTEX
  8
E39LALIFT
 62
11
 10
1983.301
 20
-6086.111
 30
1411.847
 70
    32
  0
VERTEX
  8
E39LALIFT
 62
11
 10
1984.231
 20
-6092.376
 30
1411.233
 70
    32
  0
VERTEX
  8
E39LALIFT
 62
11
 10
1986.922
 20
-6102.698
 30
1410.200
 70
    32
  0
VERTEX
  8
E39LALIFT
 62
11
 10
1989.001
 20
-6106.917
 30
1409.744
 70
    32
  0
VERTEX
  8
E39LALIFT
 62
11
 10
1992.862
 20
-6115.240
 30
1408.855
 70
    32
  0
VERTEX
  8
E39LALIFT
 62
11
 10
1998.674
 20
-6122.022
 30
1408.039
 70
    32
  0
VERTEX
  8
E39LALIFT
 62
11
 10
2003.748
 20
-6127.306
 30
1407.369
 70
    32
  0
VERTEX
  8
E39LALIFT
 62
11
 10
2009.854
 20
-6135.543
 30
1406.432
 70
    32
  0
VERTEX
  8
E39LALIFT
 62
11
 10
2018.409
 20
-6144.838
 30
1405.278
 70
    32
  0
VERTEX
  8
E39LALIFT
 62
11
 10
2028.171
 20
-6151.717
 30
1404.187
 70
    32
  0
VERTEX
  8
E39LALIFT
 62
11
 10
2032.696
 20
-6151.196
 30
1403.770
 70
    32
  0
VERTEX
  8
E39LALIFT
 62
11
 10
2040.476
 20
-6147.949
 30
1403.000
 70
    32
  0
VERTEX
  8
E39LALIFT
 62
11
 10
2046.371
 20
-6154.613
 30
1403.000
 70
    32
  0
VERTEX
  8
E39LALIFT
 62
11
 10
2045.241
 20
-6160.724
 30
1403.000
 70
    32
  0
VERTEX
  8
E39LALIFT
 62
11
 10
2045.379
 20
-6166.242
 30
1403.000
 70
    32
  0
VERTEX
  8
E39LALIFT
 62
11
 10
2047.567
 20
-6173.298
 30
1403.000
 70
    32
  0
VERTEX
  8
E39LALIFT
 62
11
 10
2051.416
 20
-6183.544
 30
1403.000
 70
    32
  0
VERTEX
  8
E39LALIFT
 62
11
 10
2051.372
 20
-6184.126
 30
1402.887
 70
    32
  0
VERTEX
  8
E39LALIFT
 62
11
 10
2055.705
 20
-6193.521
 30
1401.122
 70
    32
  0
VERTEX
  8
E39LALIFT
 62
11
 10
2061.652
 20
-6195.978
 30
1400.767
 70
    32
  0
VERTEX
  8
E39LALIFT
 62
11
 10
2067.208
 20
-6197.978
 30
1400.499
 70
    32
  0
VERTEX
  8
E39LALIFT
 62
11
 10
2066.726
 20
-6204.161
 30
1400.153
 70
    32
  0
VERTEX
  8
E39LALIFT
 62
11
 10
2073.680
 20
-6212.568
 30
1401.125
 70
    32
  0
VERTEX
  8
E39LALIFT
 62
11
 10
2068.800
 20
-6223.280
 30
1401.294
 70
    32
  0
VERTEX
  8
E39LALIFT
 62
11
 10
2072.966
 20
-6235.362
 30
1403.121
 70
    32
  0
VERTEX
  8
E39LALIFT
 62
11
 10
2077.826
 20
-6246.476
 30
1403.929
 70
    32
  0
VERTEX
  8
E39LALIFT
 62
11
 10
2080.628
 20
-6251.462
 30
1404.127
 70
    32
  0
VERTEX
  8
E39LALIFT
 62
11
 10
2085.406
 20
-6252.449
 30
1404.276
 70
    32
  0
VERTEX
  8
E39LALIFT
 62
11
 10
2092.798
 20
-6263.912
 30
1404.756
 70
    32
  0
SEQEND
  8
E39LALIFT
  0
POLYLINE
  8
E39LALIFT
 62
7
 66
     1
 70
     8
  0
VERTEX
  8
E39LALIFT
 62
7
 10
1944.536
 20
-6282.046
 30
1409.210
 70
    32
  0
VERTEX
  8
E39LALIFT
 62
7
 10
1935.347
 20
-6274.075
 30
1409.463
 70
    32
  0
VERTEX
  8
E39LALIFT
 62
7
 10
1927.512
 20
-6273.375
 30
1409.650
 70
    32
  0
VERTEX
  8
E39LALIFT
 62
7
 10
1924.793
 20
-6261.294
 30
1410.556
 70
    32
  0
VERTEX
  8
E39LALIFT
 62
7
 10
1920.634
 20
-6256.501
 30
1411.020
 70
    32
  0
VERTEX
  8
E39LALIFT
 62
7
 10
1917.744
 20
-6245.966
 30
1411.819
 70
    32
  0
VERTEX
  8
E39LALIFT
 62
7
 10
1920.369
 20
-6235.432
 30
1412.614
 70
    32
  0
VERTEX
  8
E39LALIFT
 62
7
 10
1919.511
 20
-6227.948
 30
1412.333
 70
    32
  0
VERTEX
  8
E39LALIFT
 62
7
 10
1922.117
 20
-6221.102
 30
1412.223
 70
    32
  0
VERTEX
  8
E39LALIFT
 62
7
 10
1921.644
 20
-6214.775
 30
1412.128
 70
    32
  0
VERTEX
  8
E39LALIFT
 62
7
 10
1922.535
 20
-6210.324
 30
1412.060
 70
    32
  0
VERTEX
  8
E39LALIFT
 62
7
 10
1921.110
 20
-6208.684
 30
1412.028
 70
    32
  0
VERTEX
  8
E39LALIFT
 62
7
 10
1917.263
 20
-6201.830
 30
1411.910
 70
    32
  0
VERTEX
  8
E39LALIFT
 62
7
 10
1915.062
 20
-6193.789
 30
1411.785
 70
    32
  0
VERTEX
  8
E39LALIFT
 62
7
 10
1913.993
 20
-6190.020
 30
1411.726
 70
    32
  0
VERTEX
  8
E39LALIFT
 62
7
 10
1913.279
 20
-6185.395
 30
1411.656
 70
    32
  0
VERTEX
  8
E39LALIFT
 62
7
 10
1911.698
 20
-6184.220
 30
1411.627
 70
    32
  0
VERTEX
  8
E39LALIFT
 62
7
 10
1902.472
 20
-6183.307
 30
1411.488
 70
    32
  0
VERTEX
  8
E39LALIFT
 62
7
 10
1903.372
 20
-6173.787
 30
1412.573
 70
    32
  0
VERTEX
  8
E39LALIFT
 62
7
 10
1894.797
 20
-6173.143
 30
1412.893
 70
    32
  0
VERTEX
  8
E39LALIFT
 62
7
 10
1888.361
 20
-6167.916
 30
1413.100
 70
    32
  0
VERTEX
  8
E39LALIFT
 62
7
 10
1879.836
 20
-6166.638
 30
1412.914
 70
    32
  0
VERTEX
  8
E39LALIFT
 62
7
 10
1874.879
 20
-6157.483
 30
1412.573
 70
    32
  0
VERTEX
  8
E39LALIFT
 62
7
 10
1871.222
 20
-6149.068
 30
1412.677
 70
    32
  0
VERTEX
  8
E39LALIFT
 62
7
 10
1865.873
 20
-6149.240
 30
1412.738
 70
    32
  0
VERTEX
  8
E39LALIFT
 62
7
 10
1858.355
 20
-6143.349
 30
1412.847
 70
    32
  0
VERTEX
  8
E39LALIFT
 62
7
 10
1853.749
 20
-6144.311
 30
1412.900
 70
    32
  0
VERTEX
  8
E39LALIFT
 62
7
 10
1849.996
 20
-6149.566
 30
1412.809
 70
    32
  0
VERTEX
  8
E39LALIFT
 62
7
 10
1855.303
 20
-6155.773
 30
1412.693
 70
    32
  0
VERTEX
  8
E39LALIFT
 62
7
 10
1862.305
 20
-6164.290
 30
1412.537
 70
    32
  0
VERTEX
  8
E39LALIFT
 62
7
 10
1866.791
 20
-6173.225
 30
1412.864
 70
    32
  0
VERTEX
  8
E39LALIFT
 62
7
 10
1866.282
 20
-6176.120
 30
1412.935
 70
    32
  0
VERTEX
  8
E39LALIFT
 62
7
 10
1872.231
 20
-6189.452
 30
1412.000
 70
    32
  0
VERTEX
  8
E39LALIFT
 62
7
 10
1877.895
 20
-6196.246
 30
1412.265
 70
    32
  0
VERTEX
  8
E39LALIFT
 62
7
 10
1875.406
 20
-6198.951
 30
1412.375
 70
    32
  0
VERTEX
  8
E39LALIFT
 62
7
 10
1868.212
 20
-6204.817
 30
1412.654
 70
    32
  0
VERTEX
  8
E39LALIFT
 62
7
 10
1871.235
 20
-6211.607
 30
1412.876
 70
    32
  0
VERTEX
  8
E39LALIFT
 62
7
 10
1870.623
 20
-6215.062
 30
1412.981
 70
    32
  0
VERTEX
  8
E39LALIFT
 62
7
 10
1865.164
 20
-6222.190
 30
1413.251
 70
    32
  0
VERTEX
  8
E39LALIFT
 62
7
 10
1867.969
 20
-6228.500
 30
1413.338
 70
    32
  0
VERTEX
  8
E39LALIFT
 62
7
 10
1867.296
 20
-6230.446
 30
1413.364
 70
    32
  0
VERTEX
  8
E39LALIFT
 62
7
 10
1871.111
 20
-6240.069
 30
1413.496
 70
    32
  0
VERTEX
  8
E39LALIFT
 62
7
 10
1870.276
 20
-6245.413
 30
1413.130
 70
    32
  0
VERTEX
  8
E39LALIFT
 62
7
 10
1878.517
 20
-6260.023
 30
1411.995
 70
    32
  0
VERTEX
  8
E39LALIFT
 62
7
 10
1887.029
 20
-6271.110
 30
1411.049
 70
    32
  0
VERTEX
  8
E39LALIFT
 62
7
 10
1895.580
 20
-6281.140
 30
1410.157
 70
    32
  0
VERTEX
  8
E39LALIFT
 62
7
 10
1897.444
 20
-6281.734
 30
1410.025
 70
    32
  0
VERTEX
  8
E39LALIFT
 62
7
 10
1905.604
 20
-6285.652
 30
1409.055
 70
    32
  0
VERTEX
  8
E39LALIFT
 62
7
 10
1910.807
 20
-6289.237
 30
1410.729
 70
    32
  0
VERTEX
  8
E39LALIFT
 62
7
 10
1918.668
 20
-6300.726
 30
1407.911
 70
    32
  0
VERTEX
  8
E39LALIFT
 62
7
 10
1921.482
 20
-6314.748
 30
1407.958
 70
    32
  0
VERTEX
  8
E39LALIFT
 62
7
 10
1925.982
 20
-6322.566
 30
1407.997
 70
    32
  0
VERTEX
  8
E39LALIFT
 62
7
 10
1926.904
 20
-6334.130
 30
1408.059
 70
    32
  0
VERTEX
  8
E39LALIFT
 62
7
 10
1934.075
 20
-6340.919
 30
1408.467
 70
    32
  0
VERTEX
  8
E39LALIFT
 62
7
 10
1935.513
 20
-6343.158
 30
1408.579
 70
    32
  0
VERTEX
  8
E39LALIFT
 62
7
 10
1939.478
 20
-6345.146
 30
1408.745
 70
    32
  0
VERTEX
  8
E39LALIFT
 62
7
 10
1939.413
 20
-6345.501
 30
1411.047
 70
    32
  0
VERTEX
  8
E39LALIFT
 62
7
 10
1944.814
 20
-6374.016
 30
1411.047
 70
    32
  0
VERTEX
  8
E39LALIFT
 62
7
 10
1940.965
 20
-6386.326
 30
1411.047
 70
    32
  0
VERTEX
  8
E39LALIFT
 62
7
 10
1948.491
 20
-6401.279
 30
1411.047
 70
    32
  0
VERTEX
  8
E39LALIFT
 62
7
 10
1948.072
 20
-6408.198
 30
1411.047
 70
    32
  0
VERTEX
  8
E39LALIFT
 62
7
 10
1958.302
 20
-6410.462
 30
1411.047
 70
    32
  0
VERTEX
  8
E39LALIFT
 62
7
 10
1962.923
 20
-6409.246
 30
1411.047
 70
    32
  0
VERTEX
  8
E39LALIFT
 62
7
 10
1965.642
 20
-6401.699
 30
1411.047
 70
    32
  0
VERTEX
  8
E39LALIFT
 62
7
 10
1968.989
 20
-6400.441
 30
1411.047
 70
    32
  0
VERTEX
  8
E39LALIFT
 62
7
 10
1975.054
 20
-6411.343
 30
1411.047
 70
    32
  0
VERTEX
  8
E39LALIFT
 62
7
 10
1990.114
 20
-6430.212
 30
1411.047
 70
    32
  0
VERTEX
  8
E39LALIFT
 62
7
 10
1994.014
 20
-6445.860
 30
1411.047
 70
    32
  0
VERTEX
  8
E39LALIFT
 62
7
 10
1997.862
 20
-6448.109
 30
1411.047
 70
    32
  0
VERTEX
  8
E39LALIFT
 62
7
 10
2006.777
 20
-6459.252
 30
1411.047
 70
    32
  0
VERTEX
  8
E39LALIFT
 62
7
 10
2019.909
 20
-6455.590
 30
1411.047
 70
    32
  0
VERTEX
  8
E39LALIFT
 62
7
 10
2028.301
 20
-6443.970
 30
1411.047
 70
    32
  0
VERTEX
  8
E39LALIFT
 62
7
 10
2010.330
 20
-6426.370
 30
1411.047
 70
    32
  0
VERTEX
  8
E39LALIFT
 62
7
 10
2006.847
 20
-6418.891
 30
1411.047
 70
    32
  0
VERTEX
  8
E39LALIFT
 62
7
 10
1988.060
 20
-6403.057
 30
1411.047
 70
    32
  0
VERTEX
  8
E39LALIFT
 62
7
 10
1976.309
 20
-6385.765
 30
1411.047
 70
    32
  0
VERTEX
  8
E39LALIFT
 62
7
 10
1976.348
 20
-6372.331
 30
1411.047
 70
    32
  0
VERTEX
  8
E39LALIFT
 62
7
 10
1981.113
 20
-6366.088
 30
1411.047
 70
    32
  0
VERTEX
  8
E39LALIFT
 62
7
 10
1976.063
 20
-6357.070
 30
1411.047
 70
    32
  0
VERTEX
  8
E39LALIFT
 62
7
 10
1977.732
 20
-6350.147
 30
1411.047
 70
    32
  0
VERTEX
  8
E39LALIFT
 62
7
 10
1972.454
 20
-6345.328
 30
1411.047
 70
    32
  0
VERTEX
  8
E39LALIFT
 62
7
 10
1968.792
 20
-6339.579
 30
1411.047
 70
    32
  0
VERTEX
  8
E39LALIFT
 62
7
 10
1968.997
 20
-6336.797
 30
1411.047
 70
    32
  0
VERTEX
  8
E39LALIFT
 62
7
 10
1970.007
 20
-6333.595
 30
1411.047
 70
    32
  0
VERTEX
  8
E39LALIFT
 62
7
 10
1967.993
 20
-6326.908
 30
1411.047
 70
    32
  0
VERTEX
  8
E39LALIFT
 62
7
 10
1968.595
 20
-6324.380
 30
1411.047
 70
    32
  0
VERTEX
  8
E39LALIFT
 62
7
 10
1962.662
 20
-6318.050
 30
1411.047
 70
    32
  0
VERTEX
  8
E39LALIFT
 62
7
 10
1962.769
 20
-6315.825
 30
1411.047
 70
    32
  0
VERTEX
  8
E39LALIFT
 62
7
 10
1963.838
 20
-6314.467
 30
1411.047
 70
    32
  0
VERTEX
  8
E39LALIFT
 62
7
 10
1963.969
 20
-6313.013
 30
1409.828
 70
    32
  0
VERTEX
  8
E39LALIFT
 62
7
 10
1965.663
 20
-6296.604
 30
1410.645
 70
    32
  0
VERTEX
  8
E39LALIFT
 62
7
 10
1965.826
 20
-6296.244
 30
1410.661
 70
    32
  0
SEQEND
  8
E39LALIFT
  0
POLYLINE
  8
E39LALIFT
 62
1
 66
     1
 70
     9
  0
VERTEX
  8
E39LALIFT
 62
1
 10
2033.584
 20
-6195.091
 30
1411.000
 70
    32
  0
VERTEX
  8
E39LALIFT
 62
1
 10
2052.073
 20
-6189.766
 30
1411.000
 70
    32
  0
VERTEX
  8
E39LALIFT
 62
1
 10
2057.520
 20
-6199.416
 30
1411.000
 70
    32
  0
VERTEX
  8
E39LALIFT
 62
1
 10
2062.967
 20
-6211.567
 30
1411.000
 70
    32
  0
VERTEX
  8
E39LALIFT
 62
1
 10
2067.091
 20
-6223.047
 30
1411.000
 70
    32
  0
VERTEX
  8
E39LALIFT
 62
1
 10
2076.009
 20
-6250.009
 30
1413.000
 70
    32
  0
VERTEX
  8
E39LALIFT
 62
1
 10
2056.032
 20
-6257.500
 30
1413.000
 70
    32
  0
VERTEX
  8
E39LALIFT
 62
1
 10
2045.253
 20
-6228.049
 30
1411.000
 70
    32
  0
SEQEND
  8
E39LALIFT
  0
POLYLINE
  8
E39LALIFT
 62
3
 66
     1
 70
     8
  0
VERTEX
  8
E39LALIFT
 62
3
 10
3751.364
 20
-6985.387
 30
1282.000
 70
    32
  0
VERTEX
  8
E39LALIFT
 62
3
 10
3747.450
 20
-6990.355
 30
1282.752
 70
    32
  0
VERTEX
  8
E39LALIFT
 62
3
 10
3730.625
 20
-6998.352
 30
1284.969
 70
    32
  0
VERTEX
  8
E39LALIFT
 62
3
 10
3719.261
 20
-7005.029
 30
1286.537
 70
    32
  0
VERTEX
  8
E39LALIFT
 62
3
 10
3715.600
 20
-7009.494
 30
1287.223
 70
    32
  0
VERTEX
  8
E39LALIFT
 62
3
 10
3703.701
 20
-7016.919
 30
1288.892
 70
    32
  0
VERTEX
  8
E39LALIFT
 62
3
 10
3667.909
 20
-7040.637
 30
1294.000
 70
    32
  0
VERTEX
  8
E39LALIFT
 62
3
 10
3674.074
 20
-7052.603
 30
1294.000
 70
    32
  0
VERTEX
  8
E39LALIFT
 62
3
 10
3685.277
 20
-7045.117
 30
1292.438
 70
    32
  0
VERTEX
  8
E39LALIFT
 62
3
 10
3686.156
 20
-7041.136
 30
1291.965
 70
    32
  0
VERTEX
  8
E39LALIFT
 62
3
 10
3698.350
 20
-7035.163
 30
1290.391
 70
    32
  0
VERTEX
  8
E39LALIFT
 62
3
 10
3706.896
 20
-7025.150
 30
1288.865
 70
    32
  0
VERTEX
  8
E39LALIFT
 62
3
 10
3722.791
 20
-7013.841
 30
1286.604
 70
    32
  0
VERTEX
  8
E39LALIFT
 62
3
 10
3741.441
 20
-7005.026
 30
1284.212
 70
    32
  0
VERTEX
  8
E39LALIFT
 62
3
 10
3756.374
 20
-6998.249
 30
1282.311
 70
    32
  0
VERTEX
  8
E39LALIFT
 62
3
 10
3759.056
 20
-6998.394
 30
1282.000
 70
    32
  0
SEQEND
  8
E39LALIFT
  0
POLYLINE
  8
E39LALIFT
 62
1
 66
     1
 70
     9
  0
VERTEX
  8
E39LALIFT
 62
1
 10
3683.986
 20
-7038.808
 30
1281.000
 70
    32
  0
VERTEX
  8
E39LALIFT
 62
1
 10
3678.927
 20
-7042.481
 30
1281.500
 70
    32
  0
VERTEX
  8
E39LALIFT
 62
1
 10
3673.153
 20
-7061.977
 30
1284.000
 70
    32
  0
VERTEX
  8
E39LALIFT
 62
1
 10
3673.160
 20
-7071.587
 30
1285.000
 70
    32
  0
VERTEX
  8
E39LALIFT
 62
1
 10
3668.923
 20
-7082.199
 30
1285.200
 70
    32
  0
VERTEX
  8
E39LALIFT
 62
1
 10
3670.603
 20
-7090.897
 30
1285.500
 70
    32
  0
VERTEX
  8
E39LALIFT
 62
1
 10
3674.728
 20
-7095.780
 30
1285.750
 70
    32
  0
VERTEX
  8
E39LALIFT
 62
1
 10
3680.006
 20
-7104.357
 30
1286.000
 70
    32
  0
VERTEX
  8
E39LALIFT
 62
1
 10
3672.571
 20
-7111.037
 30
1286.000
 70
    32
  0
VERTEX
  8
E39LALIFT
 62
1
 10
3672.805
 20
-7117.752
 30
1286.500
 70
    32
  0
VERTEX
  8
E39LALIFT
 62
1
 10
3677.128
 20
-7137.834
 30
1287.000
 70
    32
  0
VERTEX
  8
E39LALIFT
 62
1
 10
3668.267
 20
-7140.189
 30
1287.000
 70
    32
  0
VERTEX
  8
E39LALIFT
 62
1
 10
3660.246
 20
-7114.185
 30
1286.250
 70
    32
  0
VERTEX
  8
E39LALIFT
 62
1
 10
3661.367
 20
-7104.154
 30
1286.000
 70
    32
  0
VERTEX
  8
E39LALIFT
 62
1
 10
3660.392
 20
-7093.594
 30
1285.500
 70
    32
  0
VERTEX
  8
E39LALIFT
 62
1
 10
3654.190
 20
-7080.305
 30
1285.500
 70
    32
  0
VERTEX
  8
E39LALIFT
 62
1
 10
3649.858
 20
-7078.543
 30
1285.000
 70
    32
  0
VERTEX
  8
E39LALIFT
 62
1
 10
3652.769
 20
-7062.887
 30
1284.000
 70
    32
  0
VERTEX
  8
E39LALIFT
 62
1
 10
3650.887
 20
-7060.308
 30
1284.000
 70
    32
  0
VERTEX
  8
E39LALIFT
 62
1
 10
3644.923
 20
-7061.851
 30
1284.000
 70
    32
  0
VERTEX
  8
E39LALIFT
 62
1
 10
3639.057
 20
-7051.316
 30
1284.000
 70
    32
  0
VERTEX
  8
E39LALIFT
 62
1
 10
3648.132
 20
-7047.092
 30
1285.000
 70
    32
  0
VERTEX
  8
E39LALIFT
 62
1
 10
3652.468
 20
-7043.505
 30
1285.000
 70
    32
  0
VERTEX
  8
E39LALIFT
 62
1
 10
3654.413
 20
-7038.697
 30
1284.000
 70
    32
  0
VERTEX
  8
E39LALIFT
 62
1
 10
3658.179
 20
-7035.612
 30
1284.000
 70
    32
  0
VERTEX
  8
E39LALIFT
 62
1
 10
3667.363
 20
-7037.393
 30
1283.000
 70
    32
  0
VERTEX
  8
E39LALIFT
 62
1
 10
3680.165
 20
-7027.224
 30
1281.000
 70
    32
  0
SEQEND
  8
E39LALIFT
  0
POLYLINE
  8
E39LALIFT
 62
3
 66
     1
 70
     9
  0
VERTEX
  8
E39LALIFT
 62
3
 10
3647.798
 20
-7060.594
 30
1296.000
 70
    32
  0
VERTEX
  8
E39LALIFT
 62
3
 10
3629.837
 20
-7059.641
 30
1295.000
 70
    32
  0
VERTEX
  8
E39LALIFT
 62
3
 10
3609.258
 20
-7062.909
 30
1294.500
 70
    32
  0
VERTEX
  8
E39LALIFT
 62
3
 10
3578.928
 20
-7063.100
 30
1293.300
 70
    32
  0
VERTEX
  8
E39LALIFT
 62
3
 10
3561.531
 20
-7063.314
 30
1291.000
 70
    32
  0
VERTEX
  8
E39LALIFT
 62
3
 10
3548.298
 20
-7060.202
 30
1290.000
 70
    32
  0
VERTEX
  8
E39LALIFT
 62
3
 10
3547.511
 20
-7050.555
 30
1290.000
 70
    32
  0
VERTEX
  8
E39LALIFT
 62
3
 10
3569.341
 20
-7054.425
 30
1292.000
 70
    32
  0
VERTEX
  8
E39LALIFT
 62
3
 10
3587.384
 20
-7052.932
 30
1293.700
 70
    32
  0
VERTEX
  8
E39LALIFT
 62
3
 10
3609.860
 20
-7051.176
 30
1294.700
 70
    32
  0
VERTEX
  8
E39LALIFT
 62
3
 10
3637.309
 20
-7047.427
 30
1296.000
 70
    32
  0
SEQEND
  8
E39LALIFT
  0
POINT
  8
E39LALIFT
 62
3
 10
3558.269
 20
-7058.204
 30
1291.078
  0
POLYLINE
  8
E39LALIFT
 62
3
 66
     1
 70
     9
  0
VERTEX
  8
E39LALIFT
 62
3
 10
3558.269
 20
-7055.994
 30
1291.078
 70
    32
  0
VERTEX
  8
E39LALIFT
 62
3
 10
3560.018
 20
-7059.174
 30
1291.078
 70
    32
  0
VERTEX
  8
E39LALIFT
 62
3
 10
3556.519
 20
-7059.172
 30
1291.078
 70
    32
  0
SEQEND
  8
E39LALIFT
  0
POLYLINE
  8
E39LALIFT
 62
3
 66
     1
 70
     9
  0
VERTEX
  8
E39LALIFT
 62
3
 10
3573.133
 20
-7059.709
 30
1292.770
 70
    32
  0
VERTEX
  8
E39LALIFT
 62
3
 10
3574.882
 20
-7062.889
 30
1292.770
 70
    32
  0
VERTEX
  8
E39LALIFT
 62
3
 10
3571.383
 20
-7062.887
 30
1292.770
 70
    32
  0
SEQEND
  8
E39LALIFT
  0
POINT
  8
E39LALIFT
 62
3
 10
3573.133
 20
-7061.919
 30
1292.770
  0
POINT
  8
E39LALIFT
 62
3
 10
3758.088
 20
-6990.458
 30
1283.150
  0
POLYLINE
  8
E39LALIFT
 62
3
 66
     1
 70
     9
  0
VERTEX
  8
E39LALIFT
 62
3
 10
3758.088
 20
-6988.248
 30
1283.150
 70
    32
  0
VERTEX
  8
E39LALIFT
 62
3
 10
3759.837
 20
-6991.428
 30
1283.150
 70
    32
  0
VERTEX
  8
E39LALIFT
 62
3
 10
3756.338
 20
-6991.426
 30
1283.150
 70
    32
  0
SEQEND
  8
E39LALIFT
  0
POINT
  8
E39LALIFT
 62
3
 10
3748.572
 20
-6994.732
 30
1281.440
  0
POLYLINE
  8
E39LALIFT
 62
3
 66
     1
 70
     9
  0
VERTEX
  8
E39LALIFT
 62
3
 10
3748.572
 20
-6992.522
 30
1281.440
 70
    32
  0
VERTEX
  8
E39LALIFT
 62
3
 10
3750.321
 20
-6995.702
 30
1281.440
 70
    32
  0
VERTEX
  8
E39LALIFT
 62
3
 10
3746.822
 20
-6995.700
 30
1281.440
 70
    32
  0
SEQEND
  8
E39LALIFT
  0
POINT
  8
E39LALIFT
 62
3
 10
3740.162
 20
-6997.541
 30
1280.374
  0
POLYLINE
  8
E39LALIFT
 62
3
 66
     1
 70
     9
  0
VERTEX
  8
E39LALIFT
 62
3
 10
3740.162
 20
-6995.331
 30
1280.374
 70
    32
  0
VERTEX
  8
E39LALIFT
 62
3
 10
3741.911
 20
-6998.511
 30
1280.374
 70
    32
  0
VERTEX
  8
E39LALIFT
 62
3
 10
3738.412
 20
-6998.509
 30
1280.374
 70
    32
  0
SEQEND
  8
E39LALIFT
  0
POINT
  8
E39LALIFT
 62
3
 10
3736.094
 20
-7001.269
 30
1280.438
  0
POLYLINE
  8
E39LALIFT
 62
3
 66
     1
 70
     9
  0
VERTEX
  8
E39LALIFT
 62
3
 10
3736.094
 20
-6999.059
 30
1280.438
 70
    32
  0
VERTEX
  8
E39LALIFT
 62
3
 10
3737.843
 20
-7002.239
 30
1280.438
 70
    32
  0
VERTEX
  8
E39LALIFT
 62
3
 10
3734.344
 20
-7002.237
 30
1280.438
 70
    32
  0
SEQEND
  8
E39LALIFT
  0
TEXT
  8
E39LALIFT
 62
3
 10
3573.995
 20
-7070.902
 30
1292.770
 40
3.000
  1
1292.770
 50
260.687
 41
 1.0 
  0
TEXT
  8
E39LALIFT
 62
3
 10
3569.686
 20
-7070.908
 30
1292.770
 40
3.000
  1
ST-633R
 50
260.687
 41
 1.0 
  0
TEXT
  8
E39LALIFT
 62
3
 10
3551.074
 20
-7066.759
 30
1291.078
 40
3.000
  1
1291.078
 50
260.687
 41
 1.0 
  0
TEXT
  8
E39LALIFT
 62
3
 10
3545.995
 20
-7065.356
 30
1279.248
 40
3.000
  1
1279.248 SOL
 50
262.977
 41
 1.0 
  0
TEXT
  8
E39LALIFT
 62
3
 10
3555.143
 20
-7068.834
 30
1291.078
 40
3.000
  1
ST-633Q
 50
260.687
 41
 1.0 
  0
TEXT
  8
E39LALIFT
 62
3
 10
3710.221
 20
-6986.200
 30
1280.438
 40
3.000
  1
1280.438
 50
313.329
 41
 1.0 
  0
TEXT
  8
E39LALIFT
 62
3
 10
3712.959
 20
-6983.273
 30
1280.438
 40
3.000
  1
ST-722O
 50
313.329
 41
 1.0 
  0
TEXT
  8
E39LALIFT
 62
3
 10
3718.680
 20
-6981.938
 30
1280.374
 40
3.000
  1
7-15-96
 50
312.506
 41
 1.0 
  0
TEXT
  8
E39LALIFT
 62
3
 10
3725.459
 20
-6976.164
 30
1280.374
 40
3.000
  1
1280.374
 50
312.931
 41
 1.0 
  0
TEXT
  8
E39LALIFT
 62
3
 10
3722.086
 20
-6978.979
 30
1280.374
 40
3.000
  1
ST-722P
 50
312.931
 41
 1.0 
  0
TEXT
  8
E39LALIFT
 62
3
 10
3730.665
 20
-6970.822
 30
1280.374
 40
3.000
  1
1281.440
 50
312.931
 41
 1.0 
  0
TEXT
  8
E39LALIFT
 62
3
 10
3734.138
 20
-6967.974
 30
1280.374
 40
3.000
  1
ST-701P
 50
312.931
 41
 1.0 
  0
TEXT
  8
E39LALIFT
 62
3
 10
3764.801
 20
-6998.470
 30
1280.374
 40
3.000
  1
1283.150
 50
312.931
 41
 1.0 
  0
TEXT
  8
E39LALIFT
 62
3
 10
3769.239
 20
-6995.578
 30
1280.374
 40
3.000
  1
ST-701Q
 50
312.931
 41
 1.0 
  0
POLYLINE
  8
E39LALIFT
 62
2
 66
     1
 70
     8
  0
VERTEX
  8
E39LALIFT
 62
2
 10
3966.643
 20
-6827.563
 30
1316.000
 70
    32
  0
VERTEX
  8
E39LALIFT
 62
2
 10
3972.212
 20
-6835.890
 30
1319.000
 70
    32
  0
VERTEX
  8
E39LALIFT
 62
2
 10
3978.718
 20
-6853.716
 30
1319.000
 70
    32
  0
VERTEX
  8
E39LALIFT
 62
2
 10
3981.951
 20
-6864.393
 30
1319.000
 70
    32
  0
VERTEX
  8
E39LALIFT
 62
2
 10
3982.190
 20
-6882.000
 30
1319.000
 70
    32
  0
VERTEX
  8
E39LALIFT
 62
2
 10
3986.442
 20
-6890.848
 30
1319.000
 70
    32
  0
VERTEX
  8
E39LALIFT
 62
2
 10
3994.366
 20
-6903.407
 30
1319.000
 70
    32
  0
VERTEX
  8
E39LALIFT
 62
2
 10
3998.987
 20
-6914.539
 30
1320.000
 70
    32
  0
VERTEX
  8
E39LALIFT
 62
2
 10
4005.310
 20
-6914.430
 30
1320.000
 70
    32
  0
VERTEX
  8
E39LALIFT
 62
2
 10
4008.759
 20
-6910.205
 30
1320.000
 70
    32
  0
VERTEX
  8
E39LALIFT
 62
2
 10
4005.379
 20
-6900.105
 30
1319.000
 70
    32
  0
VERTEX
  8
E39LALIFT
 62
2
 10
3997.110
 20
-6887.075
 30
1319.000
 70
    32
  0
VERTEX
  8
E39LALIFT
 62
2
 10
3992.898
 20
-6877.891
 30
1319.000
 70
    32
  0
VERTEX
  8
E39LALIFT
 62
2
 10
3993.852
 20
-6872.745
 30
1319.000
 70
    32
  0
VERTEX
  8
E39LALIFT
 62
2
 10
3988.748
 20
-6856.295
 30
1319.000
 70
    32
  0
VERTEX
  8
E39LALIFT
 62
2
 10
3988.392
 20
-6848.666
 30
1319.000
 70
    32
  0
VERTEX
  8
E39LALIFT
 62
2
 10
3981.799
 20
-6831.630
 30
1319.000
 70
    32
  0
VERTEX
  8
E39LALIFT
 62
2
 10
3972.815
 20
-6813.263
 30
1316.000
 70
    32
  0
SEQEND
  8
E39LALIFT
  0
POINT
  8
E39LALIFT
 62
3
 10
3977.734
 20
-6836.181
 30
1319.021
  0
POLYLINE
  8
E39LALIFT
 62
3
 66
     1
 70
     9
  0
VERTEX
  8
E39LALIFT
 62
3
 10
3977.734
 20
-6833.971
 30
1319.021
 70
    32
  0
VERTEX
  8
E39LALIFT
 62
3
 10
3979.483
 20
-6837.151
 30
1319.021
 70
    32
  0
VERTEX
  8
E39LALIFT
 62
3
 10
3975.984
 20
-6837.149
 30
1319.021
 70
    32
  0
SEQEND
  8
E39LALIFT
  0
POINT
  8
E39LALIFT
 62
3
 10
3980.560
 20
-6847.466
 30
1318.506
  0
POLYLINE
  8
E39LALIFT
 62
3
 66
     1
 70
     9
  0
VERTEX
  8
E39LALIFT
 62
3
 10
3980.560
 20
-6845.256
 30
1318.506
 70
    32
  0
VERTEX
  8
E39LALIFT
 62
3
 10
3982.309
 20
-6848.436
 30
1318.506
 70
    32
  0
VERTEX
  8
E39LALIFT
 62
3
 10
3978.810
 20
-6848.434
 30
1318.506
 70
    32
  0
SEQEND
  8
E39LALIFT
  0
TEXT
  8
E39LALIFT
 62
3
 10
3983.701
 20
-6850.007
 30
1318.506
 40
3.000
  1
1318.506
 41
 1.0 
  0
TEXT
  8
E39LALIFT
 62
3
 10
3983.451
 20
-6846.007
 30
1318.506
 40
3.000
  1
ST-213Q
 41
 1.0 
  0
TEXT
  8
E39LALIFT
 62
3
 10
3985.890
 20
-6837.104
 30
1319.021
 40
3.000
  1
1319.021
 41
 1.0 
  0
TEXT
  8
E39LALIFT
 62
3
 10
3985.140
 20
-6833.104
 30
1319.021
 40
3.000
  1
ST-213R
 41
 1.0 
  0
TEXT
  8
E39LALIFT
 62
1
 10
3661.282
 20
-7065.959
 30
1295.777
 40
3.000
  1
1295.777
 41
 1.0 
  0
TEXT
  8
E39LALIFT
 62
1
 10
3661.782
 20
-7061.959
 30
1295.777
 40
3.000
  1
ST-146R
 41
 1.0 
  0
TEXT
  8
E39LALIFT
 62
1
 10
3659.067
 20
-7051.170
 30
1296.789
 40
3.000
  1
1296.789
 41
 1.0 
  0
TEXT
  8
E39LALIFT
 62
1
 10
3659.567
 20
-7047.170
 30
1296.789
 40
3.000
  1
ST-146Q
 41
 1.0 
  0
POINT
  8
E39LALIFT
 62
3
 10
3653.700
 20
-7048.986
 30
1296.789
  0
POLYLINE
  8
E39LALIFT
 62
3
 66
     1
 70
     9
  0
VERTEX
  8
E39LALIFT
 62
3
 10
3653.700
 20
-7046.776
 30
1296.789
 70
    32
  0
VERTEX
  8
E39LALIFT
 62
3
 10
3655.449
 20
-7049.956
 30
1296.789
 70
    32
  0
VERTEX
  8
E39LALIFT
 62
3
 10
3651.950
 20
-7049.954
 30
1296.789
 70
    32
  0
SEQEND
  8
E39LALIFT
  0
POINT
  8
E39LALIFT
 62
3
 10
3654.199
 20
-7060.105
 30
1295.777
  0
POLYLINE
  8
E39LALIFT
 62
3
 66
     1
 70
     9
  0
VERTEX
  8
E39LALIFT
 62
3
 10
3654.199
 20
-7057.895
 30
1295.777
 70
    32
  0
VERTEX
  8
E39LALIFT
 62
3
 10
3655.948
 20
-7061.075
 30
1295.777
 70
    32
  0
VERTEX
  8
E39LALIFT
 62
3
 10
3652.449
 20
-7061.073
 30
1295.777
 70
    32
  0
SEQEND
  8
E39LALIFT
  0
ENDSEC
  0
EOF
