999
********************************
999
*   DXF File - Entities Only   *
999
*        3D Data Format        *
999
*     Output from ENVISAGE     *
999
*     31-Dec-2007 14:44:13     *
999
********************************
  0
SECTION 
  2
HEADER
  9
$ACADVER
  1
AC1009
  9
$EXTMIN
 10
-290000.000
 20
-250000.000
 30
-4000.000
  9
$EXTMAX
 10
320000.000
 20
160000.000
 30
6000.000
  0
ENDSEC
  0
SECTION
  2
ENTITIES
  0
POLYLINE
  8
E53LXLIFT
 62
3
 66
     1
 70
     9
  0
VERTEX
  8
E53LXLIFT
 62
3
 10
4385.211
 20
-8731.191
 30
-63.000
 70
    32
  0
VERTEX
  8
E53LXLIFT
 62
3
 10
4393.339
 20
-8742.781
 30
-63.000
 70
    32
  0
VERTEX
  8
E53LXLIFT
 62
3
 10
4401.551
 20
-8760.053
 30
-63.000
 70
    32
  0
VERTEX
  8
E53LXLIFT
 62
3
 10
4407.839
 20
-8779.469
 30
-63.000
 70
    32
  0
VERTEX
  8
E53LXLIFT
 62
3
 10
4410.531
 20
-8804.725
 30
-63.000
 70
    32
  0
VERTEX
  8
E53LXLIFT
 62
3
 10
4411.328
 20
-8815.311
 30
-63.000
 70
    32
  0
VERTEX
  8
E53LXLIFT
 62
3
 10
4419.901
 20
-8823.005
 30
-63.000
 70
    32
  0
VERTEX
  8
E53LXLIFT
 62
3
 10
4421.977
 20
-8833.862
 30
-63.000
 70
    32
  0
VERTEX
  8
E53LXLIFT
 62
3
 10
4423.301
 20
-8848.942
 30
-63.000
 70
    32
  0
VERTEX
  8
E53LXLIFT
 62
3
 10
4430.120
 20
-8857.359
 30
-63.000
 70
    32
  0
VERTEX
  8
E53LXLIFT
 62
3
 10
4423.599
 20
-8862.596
 30
-63.000
 70
    32
  0
VERTEX
  8
E53LXLIFT
 62
3
 10
4421.804
 20
-8877.106
 30
-63.000
 70
    32
  0
VERTEX
  8
E53LXLIFT
 62
3
 10
4413.684
 20
-8875.911
 30
-63.000
 70
    32
  0
VERTEX
  8
E53LXLIFT
 62
3
 10
4407.291
 20
-8869.138
 30
-63.000
 70
    32
  0
VERTEX
  8
E53LXLIFT
 62
3
 10
4402.436
 20
-8855.624
 30
-63.000
 70
    32
  0
VERTEX
  8
E53LXLIFT
 62
3
 10
4396.898
 20
-8842.818
 30
-63.000
 70
    32
  0
VERTEX
  8
E53LXLIFT
 62
3
 10
4386.518
 20
-8833.066
 30
-63.000
 70
    32
  0
VERTEX
  8
E53LXLIFT
 62
3
 10
4367.058
 20
-8814.467
 30
-63.000
 70
    32
  0
VERTEX
  8
E53LXLIFT
 62
3
 10
4347.011
 20
-8794.449
 30
-63.000
 70
    32
  0
VERTEX
  8
E53LXLIFT
 62
3
 10
4337.575
 20
-8783.150
 30
-63.000
 70
    32
  0
VERTEX
  8
E53LXLIFT
 62
3
 10
4334.135
 20
-8768.292
 30
-63.000
 70
    32
  0
VERTEX
  8
E53LXLIFT
 62
3
 10
4324.785
 20
-8758.015
 30
-63.000
 70
    32
  0
VERTEX
  8
E53LXLIFT
 62
3
 10
4325.390
 20
-8745.012
 30
-63.000
 70
    32
  0
VERTEX
  8
E53LXLIFT
 62
3
 10
4331.149
 20
-8740.973
 30
-63.000
 70
    32
  0
VERTEX
  8
E53LXLIFT
 62
3
 10
4343.508
 20
-8757.535
 30
-63.000
 70
    32
  0
VERTEX
  8
E53LXLIFT
 62
3
 10
4359.445
 20
-8774.553
 30
-63.000
 70
    32
  0
VERTEX
  8
E53LXLIFT
 62
3
 10
4374.321
 20
-8794.611
 30
-63.000
 70
    32
  0
VERTEX
  8
E53LXLIFT
 62
3
 10
4385.358
 20
-8791.431
 30
-63.000
 70
    32
  0
VERTEX
  8
E53LXLIFT
 62
3
 10
4383.402
 20
-8774.421
 30
-63.000
 70
    32
  0
VERTEX
  8
E53LXLIFT
 62
3
 10
4378.581
 20
-8753.732
 30
-63.000
 70
    32
  0
VERTEX
  8
E53LXLIFT
 62
3
 10
4381.278
 20
-8742.581
 30
-63.000
 70
    32
  0
VERTEX
  8
E53LXLIFT
 62
3
 10
4378.024
 20
-8733.548
 30
-63.000
 70
    32
  0
SEQEND
  8
E53LXLIFT
  0
POLYLINE
  8
E53LXLIFT
 62
8
 66
     1
 70
     9
  0
VERTEX
  8
E53LXLIFT
 62
8
 10
4205.513
 20
-8632.845
 30
-63.000
 70
    32
  0
VERTEX
  8
E53LXLIFT
 62
8
 10
4200.739
 20
-8643.217
 30
-63.000
 70
    32
  0
VERTEX
  8
E53LXLIFT
 62
8
 10
4206.182
 20
-8652.732
 30
-63.000
 70
    32
  0
VERTEX
  8
E53LXLIFT
 62
8
 10
4210.066
 20
-8655.569
 30
-63.000
 70
    32
  0
VERTEX
  8
E53LXLIFT
 62
8
 10
4218.217
 20
-8651.542
 30
-63.000
 70
    32
  0
VERTEX
  8
E53LXLIFT
 62
8
 10
4217.964
 20
-8668.192
 30
-63.000
 70
    32
  0
VERTEX
  8
E53LXLIFT
 62
8
 10
4209.693
 20
-8672.956
 30
-63.000
 70
    32
  0
VERTEX
  8
E53LXLIFT
 62
8
 10
4210.963
 20
-8695.334
 30
-63.000
 70
    32
  0
VERTEX
  8
E53LXLIFT
 62
8
 10
4215.910
 20
-8703.257
 30
-63.000
 70
    32
  0
VERTEX
  8
E53LXLIFT
 62
8
 10
4213.744
 20
-8714.243
 30
-63.000
 70
    32
  0
VERTEX
  8
E53LXLIFT
 62
8
 10
4218.713
 20
-8717.382
 30
-63.000
 70
    32
  0
VERTEX
  8
E53LXLIFT
 62
8
 10
4235.606
 20
-8703.376
 30
-63.000
 70
    32
  0
VERTEX
  8
E53LXLIFT
 62
8
 10
4251.825
 20
-8689.639
 30
-63.000
 70
    32
  0
VERTEX
  8
E53LXLIFT
 62
8
 10
4260.752
 20
-8682.778
 30
-63.000
 70
    32
  0
VERTEX
  8
E53LXLIFT
 62
8
 10
4269.914
 20
-8689.182
 30
-63.000
 70
    32
  0
VERTEX
  8
E53LXLIFT
 62
8
 10
4277.292
 20
-8691.454
 30
-63.000
 70
    32
  0
VERTEX
  8
E53LXLIFT
 62
8
 10
4280.865
 20
-8682.272
 30
-63.000
 70
    32
  0
VERTEX
  8
E53LXLIFT
 62
8
 10
4270.496
 20
-8675.546
 30
-63.000
 70
    32
  0
VERTEX
  8
E53LXLIFT
 62
8
 10
4265.033
 20
-8668.861
 30
-63.000
 70
    32
  0
VERTEX
  8
E53LXLIFT
 62
8
 10
4258.203
 20
-8654.711
 30
-63.000
 70
    32
  0
VERTEX
  8
E53LXLIFT
 62
8
 10
4251.370
 20
-8650.639
 30
-63.000
 70
    32
  0
VERTEX
  8
E53LXLIFT
 62
8
 10
4239.486
 20
-8653.995
 30
-63.000
 70
    32
  0
VERTEX
  8
E53LXLIFT
 62
8
 10
4233.595
 20
-8647.620
 30
-63.000
 70
    32
  0
VERTEX
  8
E53LXLIFT
 62
8
 10
4229.924
 20
-8633.795
 30
-63.000
 70
    32
  0
VERTEX
  8
E53LXLIFT
 62
8
 10
4223.057
 20
-8626.063
 30
-63.000
 70
    32
  0
SEQEND
  8
E53LXLIFT
  0
POLYLINE
  8
E53LXLIFT
 62
13
 66
     1
 70
     9
  0
VERTEX
  8
E53LXLIFT
 62
13
 10
4275.514
 20
-8613.752
 30
-57.000
 70
    32
  0
VERTEX
  8
E53LXLIFT
 62
13
 10
4264.355
 20
-8611.495
 30
-57.000
 70
    32
  0
VERTEX
  8
E53LXLIFT
 62
13
 10
4244.847
 20
-8601.706
 30
-57.000
 70
    32
  0
VERTEX
  8
E53LXLIFT
 62
13
 10
4224.286
 20
-8586.392
 30
-57.000
 70
    32
  0
VERTEX
  8
E53LXLIFT
 62
13
 10
4212.076
 20
-8576.657
 30
-57.000
 70
    32
  0
VERTEX
  8
E53LXLIFT
 62
13
 10
4207.412
 20
-8559.647
 30
-57.000
 70
    32
  0
VERTEX
  8
E53LXLIFT
 62
13
 10
4197.075
 20
-8566.657
 30
-57.000
 70
    32
  0
VERTEX
  8
E53LXLIFT
 62
13
 10
4198.425
 20
-8580.419
 30
-57.000
 70
    32
  0
VERTEX
  8
E53LXLIFT
 62
13
 10
4190.094
 20
-8582.842
 30
-57.000
 70
    32
  0
VERTEX
  8
E53LXLIFT
 62
13
 10
4174.696
 20
-8573.344
 30
-57.000
 70
    32
  0
VERTEX
  8
E53LXLIFT
 62
13
 10
4160.237
 20
-8566.204
 30
-57.000
 70
    32
  0
VERTEX
  8
E53LXLIFT
 62
13
 10
4151.110
 20
-8560.750
 30
-57.000
 70
    32
  0
VERTEX
  8
E53LXLIFT
 62
13
 10
4146.895
 20
-8562.269
 30
-57.000
 70
    32
  0
VERTEX
  8
E53LXLIFT
 62
13
 10
4143.630
 20
-8574.587
 30
-57.000
 70
    32
  0
VERTEX
  8
E53LXLIFT
 62
13
 10
4144.478
 20
-8582.535
 30
-57.000
 70
    32
  0
VERTEX
  8
E53LXLIFT
 62
13
 10
4160.706
 20
-8587.318
 30
-57.000
 70
    32
  0
VERTEX
  8
E53LXLIFT
 62
13
 10
4170.202
 20
-8590.124
 30
-57.000
 70
    32
  0
VERTEX
  8
E53LXLIFT
 62
13
 10
4179.734
 20
-8600.053
 30
-57.000
 70
    32
  0
VERTEX
  8
E53LXLIFT
 62
13
 10
4163.820
 20
-8608.044
 30
-57.000
 70
    32
  0
VERTEX
  8
E53LXLIFT
 62
13
 10
4152.030
 20
-8603.858
 30
-57.000
 70
    32
  0
VERTEX
  8
E53LXLIFT
 62
13
 10
4145.646
 20
-8607.480
 30
-57.000
 70
    32
  0
VERTEX
  8
E53LXLIFT
 62
13
 10
4143.326
 20
-8618.251
 30
-57.000
 70
    32
  0
VERTEX
  8
E53LXLIFT
 62
13
 10
4146.514
 20
-8634.265
 30
-57.000
 70
    32
  0
VERTEX
  8
E53LXLIFT
 62
13
 10
4147.237
 20
-8652.271
 30
-57.000
 70
    32
  0
VERTEX
  8
E53LXLIFT
 62
13
 10
4145.919
 20
-8665.788
 30
-57.000
 70
    32
  0
VERTEX
  8
E53LXLIFT
 62
13
 10
4147.665
 20
-8673.631
 30
-57.000
 70
    32
  0
VERTEX
  8
E53LXLIFT
 62
13
 10
4146.710
 20
-8685.695
 30
-57.000
 70
    32
  0
VERTEX
  8
E53LXLIFT
 62
13
 10
4147.241
 20
-8693.655
 30
-57.000
 70
    32
  0
VERTEX
  8
E53LXLIFT
 62
13
 10
4154.134
 20
-8708.194
 30
-57.000
 70
    32
  0
VERTEX
  8
E53LXLIFT
 62
13
 10
4148.828
 20
-8707.897
 30
-57.000
 70
    32
  0
VERTEX
  8
E53LXLIFT
 62
13
 10
4151.123
 20
-8714.695
 30
-57.000
 70
    32
  0
VERTEX
  8
E53LXLIFT
 62
13
 10
4156.172
 20
-8720.052
 30
-57.000
 70
    32
  0
VERTEX
  8
E53LXLIFT
 62
13
 10
4166.008
 20
-8747.856
 30
-57.000
 70
    32
  0
VERTEX
  8
E53LXLIFT
 62
13
 10
4169.228
 20
-8766.773
 30
-57.000
 70
    32
  0
VERTEX
  8
E53LXLIFT
 62
13
 10
4169.034
 20
-8780.347
 30
-57.000
 70
    32
  0
VERTEX
  8
E53LXLIFT
 62
13
 10
4175.961
 20
-8787.710
 30
-57.000
 70
    32
  0
VERTEX
  8
E53LXLIFT
 62
13
 10
4186.961
 20
-8785.532
 30
-57.000
 70
    32
  0
VERTEX
  8
E53LXLIFT
 62
13
 10
4193.245
 20
-8777.107
 30
-57.000
 70
    32
  0
VERTEX
  8
E53LXLIFT
 62
13
 10
4202.615
 20
-8773.719
 30
-57.000
 70
    32
  0
VERTEX
  8
E53LXLIFT
 62
13
 10
4210.243
 20
-8764.000
 30
-57.000
 70
    32
  0
VERTEX
  8
E53LXLIFT
 62
13
 10
4202.152
 20
-8751.408
 30
-57.000
 70
    32
  0
VERTEX
  8
E53LXLIFT
 62
13
 10
4198.798
 20
-8737.572
 30
-57.000
 70
    32
  0
VERTEX
  8
E53LXLIFT
 62
13
 10
4204.822
 20
-8722.617
 30
-57.000
 70
    32
  0
VERTEX
  8
E53LXLIFT
 62
13
 10
4207.516
 20
-8713.418
 30
-57.000
 70
    32
  0
VERTEX
  8
E53LXLIFT
 62
13
 10
4196.428
 20
-8708.401
 30
-57.000
 70
    32
  0
VERTEX
  8
E53LXLIFT
 62
13
 10
4192.404
 20
-8701.006
 30
-57.000
 70
    32
  0
VERTEX
  8
E53LXLIFT
 62
13
 10
4185.788
 20
-8686.702
 30
-57.000
 70
    32
  0
VERTEX
  8
E53LXLIFT
 62
13
 10
4183.430
 20
-8671.390
 30
-57.000
 70
    32
  0
VERTEX
  8
E53LXLIFT
 62
13
 10
4177.909
 20
-8654.996
 30
-57.000
 70
    32
  0
VERTEX
  8
E53LXLIFT
 62
13
 10
4178.954
 20
-8650.127
 30
-57.000
 70
    32
  0
VERTEX
  8
E53LXLIFT
 62
13
 10
4174.490
 20
-8637.307
 30
-57.000
 70
    32
  0
VERTEX
  8
E53LXLIFT
 62
13
 10
4173.202
 20
-8621.224
 30
-57.000
 70
    32
  0
VERTEX
  8
E53LXLIFT
 62
13
 10
4180.634
 20
-8613.489
 30
-57.000
 70
    32
  0
VERTEX
  8
E53LXLIFT
 62
13
 10
4191.551
 20
-8608.338
 30
-57.000
 70
    32
  0
VERTEX
  8
E53LXLIFT
 62
13
 10
4206.354
 20
-8601.362
 30
-57.000
 70
    32
  0
VERTEX
  8
E53LXLIFT
 62
13
 10
4213.010
 20
-8599.170
 30
-57.000
 70
    32
  0
VERTEX
  8
E53LXLIFT
 62
13
 10
4231.858
 20
-8604.883
 30
-57.000
 70
    32
  0
VERTEX
  8
E53LXLIFT
 62
13
 10
4246.083
 20
-8617.717
 30
-57.000
 70
    32
  0
VERTEX
  8
E53LXLIFT
 62
13
 10
4258.288
 20
-8625.939
 30
-57.000
 70
    32
  0
SEQEND
  8
E53LXLIFT
  0
POLYLINE
  8
E53LXLIFT
 62
3
 66
     1
 70
     9
  0
VERTEX
  8
E53LXLIFT
 62
3
 10
4398.545
 20
-8833.522
 30
-48.000
 70
    32
  0
VERTEX
  8
E53LXLIFT
 62
3
 10
4388.294
 20
-8827.774
 30
-48.000
 70
    32
  0
VERTEX
  8
E53LXLIFT
 62
3
 10
4375.529
 20
-8823.495
 30
-48.000
 70
    32
  0
VERTEX
  8
E53LXLIFT
 62
3
 10
4368.284
 20
-8814.092
 30
-48.000
 70
    32
  0
VERTEX
  8
E53LXLIFT
 62
3
 10
4369.443
 20
-8807.546
 30
-48.000
 70
    32
  0
VERTEX
  8
E53LXLIFT
 62
3
 10
4363.210
 20
-8796.990
 30
-48.000
 70
    32
  0
VERTEX
  8
E53LXLIFT
 62
3
 10
4353.002
 20
-8788.729
 30
-48.000
 70
    32
  0
VERTEX
  8
E53LXLIFT
 62
3
 10
4342.319
 20
-8774.656
 30
-48.000
 70
    32
  0
VERTEX
  8
E53LXLIFT
 62
3
 10
4331.672
 20
-8764.872
 30
-48.000
 70
    32
  0
VERTEX
  8
E53LXLIFT
 62
3
 10
4344.864
 20
-8758.703
 30
-48.000
 70
    32
  0
VERTEX
  8
E53LXLIFT
 62
3
 10
4350.537
 20
-8766.960
 30
-48.000
 70
    32
  0
VERTEX
  8
E53LXLIFT
 62
3
 10
4360.344
 20
-8777.989
 30
-48.000
 70
    32
  0
VERTEX
  8
E53LXLIFT
 62
3
 10
4373.160
 20
-8782.340
 30
-48.000
 70
    32
  0
VERTEX
  8
E53LXLIFT
 62
3
 10
4387.030
 20
-8797.702
 30
-48.000
 70
    32
  0
VERTEX
  8
E53LXLIFT
 62
3
 10
4392.479
 20
-8817.451
 30
-48.000
 70
    32
  0
VERTEX
  8
E53LXLIFT
 62
3
 10
4403.648
 20
-8824.486
 30
-48.000
 70
    32
  0
SEQEND
  8
E53LXLIFT
  0
POLYLINE
  8
E53LXLIFT
 62
8
 66
     1
 70
     9
  0
VERTEX
  8
E53LXLIFT
 62
8
 10
4221.325
 20
-8673.698
 30
-46.000
 70
    32
  0
VERTEX
  8
E53LXLIFT
 62
8
 10
4212.996
 20
-8692.588
 30
-46.000
 70
    32
  0
VERTEX
  8
E53LXLIFT
 62
8
 10
4214.764
 20
-8705.357
 30
-46.000
 70
    32
  0
VERTEX
  8
E53LXLIFT
 62
8
 10
4222.295
 20
-8714.556
 30
-46.000
 70
    32
  0
VERTEX
  8
E53LXLIFT
 62
8
 10
4235.104
 20
-8714.055
 30
-46.000
 70
    32
  0
VERTEX
  8
E53LXLIFT
 62
8
 10
4243.162
 20
-8729.137
 30
-46.000
 70
    32
  0
VERTEX
  8
E53LXLIFT
 62
8
 10
4259.979
 20
-8749.844
 30
-46.000
 70
    32
  0
VERTEX
  8
E53LXLIFT
 62
8
 10
4269.863
 20
-8754.775
 30
-46.000
 70
    32
  0
VERTEX
  8
E53LXLIFT
 62
8
 10
4284.340
 20
-8750.710
 30
-46.000
 70
    32
  0
VERTEX
  8
E53LXLIFT
 62
8
 10
4296.286
 20
-8743.702
 30
-46.000
 70
    32
  0
VERTEX
  8
E53LXLIFT
 62
8
 10
4286.462
 20
-8726.749
 30
-46.000
 70
    32
  0
VERTEX
  8
E53LXLIFT
 62
8
 10
4275.028
 20
-8705.117
 30
-46.000
 70
    32
  0
VERTEX
  8
E53LXLIFT
 62
8
 10
4268.690
 20
-8685.787
 30
-46.000
 70
    32
  0
VERTEX
  8
E53LXLIFT
 62
8
 10
4262.095
 20
-8667.610
 30
-46.000
 70
    32
  0
VERTEX
  8
E53LXLIFT
 62
8
 10
4243.080
 20
-8662.285
 30
-46.000
 70
    32
  0
VERTEX
  8
E53LXLIFT
 62
8
 10
4235.804
 20
-8652.688
 30
-46.000
 70
    32
  0
VERTEX
  8
E53LXLIFT
 62
8
 10
4230.546
 20
-8636.688
 30
-46.000
 70
    32
  0
VERTEX
  8
E53LXLIFT
 62
8
 10
4222.072
 20
-8630.860
 30
-46.000
 70
    32
  0
VERTEX
  8
E53LXLIFT
 62
8
 10
4217.021
 20
-8637.700
 30
-46.000
 70
    32
  0
VERTEX
  8
E53LXLIFT
 62
8
 10
4218.449
 20
-8653.625
 30
-46.000
 70
    32
  0
VERTEX
  8
E53LXLIFT
 62
8
 10
4221.098
 20
-8663.392
 30
-46.000
 70
    32
  0
VERTEX
  8
E53LXLIFT
 62
8
 10
4213.568
 20
-8665.848
 30
-46.000
 70
    32
  0
VERTEX
  8
E53LXLIFT
 62
8
 10
4212.899
 20
-8672.476
 30
-46.000
 70
    32
  0
SEQEND
  8
E53LXLIFT
  0
POLYLINE
  8
E53LXLIFT
 62
3
 66
     1
 70
     9
  0
VERTEX
  8
E53LXLIFT
 62
3
 10
4399.548
 20
-8826.344
 30
-38.000
 70
    32
  0
VERTEX
  8
E53LXLIFT
 62
3
 10
4398.278
 20
-8822.612
 30
-38.000
 70
    32
  0
VERTEX
  8
E53LXLIFT
 62
3
 10
4396.749
 20
-8816.257
 30
-38.000
 70
    32
  0
VERTEX
  8
E53LXLIFT
 62
3
 10
4379.558
 20
-8795.428
 30
-38.000
 70
    32
  0
VERTEX
  8
E53LXLIFT
 62
3
 10
4375.721
 20
-8787.812
 30
-38.000
 70
    32
  0
VERTEX
  8
E53LXLIFT
 62
3
 10
4363.866
 20
-8781.514
 30
-38.000
 70
    32
  0
VERTEX
  8
E53LXLIFT
 62
3
 10
4351.606
 20
-8769.676
 30
-38.000
 70
    32
  0
VERTEX
  8
E53LXLIFT
 62
3
 10
4347.384
 20
-8757.154
 30
-38.000
 70
    32
  0
VERTEX
  8
E53LXLIFT
 62
3
 10
4339.094
 20
-8760.502
 30
-38.000
 70
    32
  0
VERTEX
  8
E53LXLIFT
 62
3
 10
4332.315
 20
-8771.082
 30
-38.000
 70
    32
  0
VERTEX
  8
E53LXLIFT
 62
3
 10
4341.257
 20
-8781.302
 30
-38.000
 70
    32
  0
VERTEX
  8
E53LXLIFT
 62
3
 10
4353.881
 20
-8790.935
 30
-38.000
 70
    32
  0
VERTEX
  8
E53LXLIFT
 62
3
 10
4366.841
 20
-8806.914
 30
-38.000
 70
    32
  0
VERTEX
  8
E53LXLIFT
 62
3
 10
4378.829
 20
-8820.783
 30
-38.000
 70
    32
  0
VERTEX
  8
E53LXLIFT
 62
3
 10
4383.740
 20
-8829.897
 30
-38.000
 70
    32
  0
VERTEX
  8
E53LXLIFT
 62
3
 10
4389.160
 20
-8831.736
 30
-38.000
 70
    32
  0
VERTEX
  8
E53LXLIFT
 62
3
 10
4391.711
 20
-8832.283
 30
-38.000
 70
    32
  0
SEQEND
  8
E53LXLIFT
  0
POLYLINE
  8
E53LXLIFT
 62
8
 66
     1
 70
     9
  0
VERTEX
  8
E53LXLIFT
 62
8
 10
4273.328
 20
-8739.386
 30
-36.000
 70
    32
  0
VERTEX
  8
E53LXLIFT
 62
8
 10
4260.099
 20
-8742.170
 30
-36.000
 70
    32
  0
VERTEX
  8
E53LXLIFT
 62
8
 10
4250.785
 20
-8728.114
 30
-36.000
 70
    32
  0
VERTEX
  8
E53LXLIFT
 62
8
 10
4240.517
 20
-8718.304
 30
-36.000
 70
    32
  0
VERTEX
  8
E53LXLIFT
 62
8
 10
4224.944
 20
-8708.624
 30
-36.000
 70
    32
  0
VERTEX
  8
E53LXLIFT
 62
8
 10
4216.103
 20
-8691.313
 30
-36.000
 70
    32
  0
VERTEX
  8
E53LXLIFT
 62
8
 10
4216.683
 20
-8675.998
 30
-36.000
 70
    32
  0
VERTEX
  8
E53LXLIFT
 62
8
 10
4210.166
 20
-8663.284
 30
-36.000
 70
    32
  0
VERTEX
  8
E53LXLIFT
 62
8
 10
4203.614
 20
-8648.112
 30
-36.000
 70
    32
  0
VERTEX
  8
E53LXLIFT
 62
8
 10
4205.037
 20
-8630.358
 30
-36.000
 70
    32
  0
VERTEX
  8
E53LXLIFT
 62
8
 10
4204.242
 20
-8616.891
 30
-36.000
 70
    32
  0
VERTEX
  8
E53LXLIFT
 62
8
 10
4212.814
 20
-8611.074
 30
-36.000
 70
    32
  0
VERTEX
  8
E53LXLIFT
 62
8
 10
4226.088
 20
-8611.065
 30
-36.000
 70
    32
  0
VERTEX
  8
E53LXLIFT
 62
8
 10
4228.454
 20
-8617.683
 30
-36.000
 70
    32
  0
VERTEX
  8
E53LXLIFT
 62
8
 10
4233.748
 20
-8623.715
 30
-36.000
 70
    32
  0
VERTEX
  8
E53LXLIFT
 62
8
 10
4230.445
 20
-8639.901
 30
-36.000
 70
    32
  0
VERTEX
  8
E53LXLIFT
 62
8
 10
4239.163
 20
-8657.192
 30
-36.000
 70
    32
  0
VERTEX
  8
E53LXLIFT
 62
8
 10
4249.164
 20
-8665.574
 30
-36.000
 70
    32
  0
VERTEX
  8
E53LXLIFT
 62
8
 10
4257.356
 20
-8672.337
 30
-36.000
 70
    32
  0
VERTEX
  8
E53LXLIFT
 62
8
 10
4263.611
 20
-8687.397
 30
-36.000
 70
    32
  0
VERTEX
  8
E53LXLIFT
 62
8
 10
4272.581
 20
-8702.780
 30
-36.000
 70
    32
  0
VERTEX
  8
E53LXLIFT
 62
8
 10
4281.598
 20
-8728.927
 30
-36.000
 70
    32
  0
SEQEND
  8
E53LXLIFT
  0
POLYLINE
  8
E53LXLIFT
 62
6
 66
     1
 70
     9
  0
VERTEX
  8
E53LXLIFT
 62
6
 10
4340.580
 20
-8585.588
 30
-26.000
 70
    32
  0
VERTEX
  8
E53LXLIFT
 62
6
 10
4354.216
 20
-8591.714
 30
-26.000
 70
    32
  0
VERTEX
  8
E53LXLIFT
 62
6
 10
4359.274
 20
-8603.954
 30
-26.000
 70
    32
  0
VERTEX
  8
E53LXLIFT
 62
6
 10
4360.898
 20
-8620.903
 30
-26.000
 70
    32
  0
VERTEX
  8
E53LXLIFT
 62
6
 10
4367.480
 20
-8648.439
 30
-26.000
 70
    32
  0
VERTEX
  8
E53LXLIFT
 62
6
 10
4376.895
 20
-8651.215
 30
-26.000
 70
    32
  0
VERTEX
  8
E53LXLIFT
 62
6
 10
4384.327
 20
-8647.427
 30
-26.000
 70
    32
  0
VERTEX
  8
E53LXLIFT
 62
6
 10
4395.635
 20
-8635.920
 30
-26.000
 70
    32
  0
VERTEX
  8
E53LXLIFT
 62
6
 10
4405.770
 20
-8623.523
 30
-26.000
 70
    32
  0
VERTEX
  8
E53LXLIFT
 62
6
 10
4412.131
 20
-8610.368
 30
-26.000
 70
    32
  0
VERTEX
  8
E53LXLIFT
 62
6
 10
4425.465
 20
-8602.913
 30
-26.000
 70
    32
  0
VERTEX
  8
E53LXLIFT
 62
6
 10
4435.620
 20
-8609.903
 30
-26.000
 70
    32
  0
VERTEX
  8
E53LXLIFT
 62
6
 10
4439.856
 20
-8617.662
 30
-26.000
 70
    32
  0
VERTEX
  8
E53LXLIFT
 62
6
 10
4437.575
 20
-8632.761
 30
-26.000
 70
    32
  0
VERTEX
  8
E53LXLIFT
 62
6
 10
4434.820
 20
-8651.430
 30
-26.000
 70
    32
  0
VERTEX
  8
E53LXLIFT
 62
6
 10
4436.893
 20
-8668.707
 30
-26.000
 70
    32
  0
VERTEX
  8
E53LXLIFT
 62
6
 10
4443.773
 20
-8684.714
 30
-26.000
 70
    32
  0
VERTEX
  8
E53LXLIFT
 62
6
 10
4449.224
 20
-8700.984
 30
-26.000
 70
    32
  0
VERTEX
  8
E53LXLIFT
 62
6
 10
4439.861
 20
-8707.657
 30
-26.000
 70
    32
  0
VERTEX
  8
E53LXLIFT
 62
6
 10
4423.881
 20
-8709.129
 30
-26.000
 70
    32
  0
VERTEX
  8
E53LXLIFT
 62
6
 10
4401.986
 20
-8707.596
 30
-26.000
 70
    32
  0
VERTEX
  8
E53LXLIFT
 62
6
 10
4388.349
 20
-8711.601
 30
-26.000
 70
    32
  0
VERTEX
  8
E53LXLIFT
 62
6
 10
4375.186
 20
-8703.414
 30
-26.000
 70
    32
  0
VERTEX
  8
E53LXLIFT
 62
6
 10
4364.984
 20
-8692.577
 30
-26.000
 70
    32
  0
VERTEX
  8
E53LXLIFT
 62
6
 10
4357.519
 20
-8678.927
 30
-26.000
 70
    32
  0
VERTEX
  8
E53LXLIFT
 62
6
 10
4347.865
 20
-8670.825
 30
-26.000
 70
    32
  0
VERTEX
  8
E53LXLIFT
 62
6
 10
4335.075
 20
-8666.791
 30
-26.000
 70
    32
  0
VERTEX
  8
E53LXLIFT
 62
6
 10
4325.690
 20
-8654.833
 30
-26.000
 70
    32
  0
VERTEX
  8
E53LXLIFT
 62
6
 10
4323.326
 20
-8642.290
 30
-26.000
 70
    32
  0
VERTEX
  8
E53LXLIFT
 62
6
 10
4323.813
 20
-8636.015
 30
-26.000
 70
    32
  0
VERTEX
  8
E53LXLIFT
 62
6
 10
4334.371
 20
-8628.599
 30
-26.000
 70
    32
  0
VERTEX
  8
E53LXLIFT
 62
6
 10
4338.085
 20
-8619.593
 30
-26.000
 70
    32
  0
VERTEX
  8
E53LXLIFT
 62
6
 10
4332.739
 20
-8609.068
 30
-26.000
 70
    32
  0
VERTEX
  8
E53LXLIFT
 62
6
 10
4331.585
 20
-8600.944
 30
-26.000
 70
    32
  0
VERTEX
  8
E53LXLIFT
 62
6
 10
4325.582
 20
-8594.336
 30
-26.000
 70
    32
  0
VERTEX
  8
E53LXLIFT
 62
6
 10
4327.770
 20
-8590.298
 30
-26.000
 70
    32
  0
SEQEND
  8
E53LXLIFT
  0
POLYLINE
  8
E53LXLIFT
 62
8
 66
     1
 70
     9
  0
VERTEX
  8
E53LXLIFT
 62
8
 10
4283.303
 20
-8741.302
 30
-25.000
 70
    32
  0
VERTEX
  8
E53LXLIFT
 62
8
 10
4258.932
 20
-8746.275
 30
-25.000
 70
    32
  0
VERTEX
  8
E53LXLIFT
 62
8
 10
4250.142
 20
-8740.899
 30
-25.000
 70
    32
  0
VERTEX
  8
E53LXLIFT
 62
8
 10
4237.763
 20
-8714.907
 30
-25.000
 70
    32
  0
VERTEX
  8
E53LXLIFT
 62
8
 10
4209.335
 20
-8668.665
 30
-25.000
 70
    32
  0
VERTEX
  8
E53LXLIFT
 62
8
 10
4206.343
 20
-8671.121
 30
-25.000
 70
    32
  0
VERTEX
  8
E53LXLIFT
 62
8
 10
4202.482
 20
-8665.250
 30
-25.000
 70
    32
  0
VERTEX
  8
E53LXLIFT
 62
8
 10
4206.762
 20
-8661.122
 30
-25.000
 70
    32
  0
VERTEX
  8
E53LXLIFT
 62
8
 10
4198.023
 20
-8647.195
 30
-25.000
 70
    32
  0
VERTEX
  8
E53LXLIFT
 62
8
 10
4197.540
 20
-8621.563
 30
-25.000
 70
    32
  0
VERTEX
  8
E53LXLIFT
 62
8
 10
4195.147
 20
-8597.940
 30
-25.000
 70
    32
  0
VERTEX
  8
E53LXLIFT
 62
8
 10
4209.574
 20
-8589.599
 30
-25.000
 70
    32
  0
VERTEX
  8
E53LXLIFT
 62
8
 10
4220.926
 20
-8593.580
 30
-25.000
 70
    32
  0
VERTEX
  8
E53LXLIFT
 62
8
 10
4235.595
 20
-8625.053
 30
-25.000
 70
    32
  0
VERTEX
  8
E53LXLIFT
 62
8
 10
4245.495
 20
-8641.818
 30
-25.000
 70
    32
  0
VERTEX
  8
E53LXLIFT
 62
8
 10
4262.896
 20
-8647.632
 30
-25.000
 70
    32
  0
VERTEX
  8
E53LXLIFT
 62
8
 10
4268.563
 20
-8662.240
 30
-25.000
 70
    32
  0
VERTEX
  8
E53LXLIFT
 62
8
 10
4259.364
 20
-8667.934
 30
-25.000
 70
    32
  0
VERTEX
  8
E53LXLIFT
 62
8
 10
4251.853
 20
-8659.059
 30
-25.000
 70
    32
  0
VERTEX
  8
E53LXLIFT
 62
8
 10
4248.493
 20
-8662.208
 30
-25.000
 70
    32
  0
VERTEX
  8
E53LXLIFT
 62
8
 10
4248.335
 20
-8675.901
 30
-25.000
 70
    32
  0
VERTEX
  8
E53LXLIFT
 62
8
 10
4273.503
 20
-8708.191
 30
-25.000
 70
    32
  0
SEQEND
  8
E53LXLIFT
  0
POLYLINE
  8
E53LXLIFT
 62
6
 66
     1
 70
     9
  0
VERTEX
  8
E53LXLIFT
 62
6
 10
4428.753
 20
-8632.620
 30
-5.000
 70
    32
  0
VERTEX
  8
E53LXLIFT
 62
6
 10
4393.944
 20
-8654.439
 30
-5.000
 70
    32
  0
VERTEX
  8
E53LXLIFT
 62
6
 10
4394.215
 20
-8670.050
 30
-5.000
 70
    32
  0
VERTEX
  8
E53LXLIFT
 62
6
 10
4378.056
 20
-8687.673
 30
-5.000
 70
    32
  0
VERTEX
  8
E53LXLIFT
 62
6
 10
4359.365
 20
-8681.970
 30
-5.000
 70
    32
  0
VERTEX
  8
E53LXLIFT
 62
6
 10
4341.836
 20
-8678.555
 30
-5.000
 70
    32
  0
VERTEX
  8
E53LXLIFT
 62
6
 10
4338.510
 20
-8671.150
 30
-5.000
 70
    32
  0
VERTEX
  8
E53LXLIFT
 62
6
 10
4346.324
 20
-8658.573
 30
-5.000
 70
    32
  0
VERTEX
  8
E53LXLIFT
 62
6
 10
4343.609
 20
-8652.665
 30
-5.000
 70
    32
  0
VERTEX
  8
E53LXLIFT
 62
6
 10
4347.883
 20
-8647.136
 30
-5.000
 70
    32
  0
VERTEX
  8
E53LXLIFT
 62
6
 10
4343.563
 20
-8621.848
 30
-5.000
 70
    32
  0
VERTEX
  8
E53LXLIFT
 62
6
 10
4338.139
 20
-8605.118
 30
-5.000
 70
    32
  0
VERTEX
  8
E53LXLIFT
 62
6
 10
4329.162
 20
-8593.417
 30
-5.000
 70
    32
  0
VERTEX
  8
E53LXLIFT
 62
6
 10
4319.497
 20
-8586.570
 30
-5.000
 70
    32
  0
VERTEX
  8
E53LXLIFT
 62
6
 10
4322.263
 20
-8577.178
 30
-5.000
 70
    32
  0
VERTEX
  8
E53LXLIFT
 62
6
 10
4334.691
 20
-8580.932
 30
-5.000
 70
    32
  0
VERTEX
  8
E53LXLIFT
 62
6
 10
4345.675
 20
-8588.144
 30
-5.000
 70
    32
  0
VERTEX
  8
E53LXLIFT
 62
6
 10
4349.215
 20
-8597.855
 30
-5.000
 70
    32
  0
VERTEX
  8
E53LXLIFT
 62
6
 10
4356.223
 20
-8621.171
 30
-5.000
 70
    32
  0
VERTEX
  8
E53LXLIFT
 62
6
 10
4357.878
 20
-8635.393
 30
-5.000
 70
    32
  0
VERTEX
  8
E53LXLIFT
 62
6
 10
4365.615
 20
-8644.539
 30
-5.000
 70
    32
  0
VERTEX
  8
E53LXLIFT
 62
6
 10
4397.024
 20
-8626.895
 30
-5.000
 70
    32
  0
VERTEX
  8
E53LXLIFT
 62
6
 10
4418.354
 20
-8615.182
 30
-5.000
 70
    32
  0
SEQEND
  8
E53LXLIFT
  0
POLYLINE
  8
E53LXLIFT
 62
8
 66
     1
 70
     9
  0
VERTEX
  8
E53LXLIFT
 62
8
 10
4311.309
 20
-8638.583
 30
-6.000
 70
    32
  0
VERTEX
  8
E53LXLIFT
 62
8
 10
4309.534
 20
-8642.484
 30
-6.000
 70
    32
  0
VERTEX
  8
E53LXLIFT
 62
8
 10
4300.903
 20
-8645.274
 30
-6.000
 70
    32
  0
VERTEX
  8
E53LXLIFT
 62
8
 10
4282.526
 20
-8642.021
 30
-6.000
 70
    32
  0
VERTEX
  8
E53LXLIFT
 62
8
 10
4259.669
 20
-8660.452
 30
-6.000
 70
    32
  0
VERTEX
  8
E53LXLIFT
 62
8
 10
4273.724
 20
-8691.151
 30
-6.000
 70
    32
  0
VERTEX
  8
E53LXLIFT
 62
8
 10
4285.745
 20
-8694.013
 30
-6.000
 70
    32
  0
VERTEX
  8
E53LXLIFT
 62
8
 10
4290.270
 20
-8697.917
 30
-6.000
 70
    32
  0
VERTEX
  8
E53LXLIFT
 62
8
 10
4279.501
 20
-8715.001
 30
-6.000
 70
    32
  0
VERTEX
  8
E53LXLIFT
 62
8
 10
4279.802
 20
-8720.662
 30
-6.000
 70
    32
  0
VERTEX
  8
E53LXLIFT
 62
8
 10
4289.993
 20
-8739.953
 30
-6.000
 70
    32
  0
VERTEX
  8
E53LXLIFT
 62
8
 10
4278.495
 20
-8746.762
 30
-6.000
 70
    32
  0
VERTEX
  8
E53LXLIFT
 62
8
 10
4264.274
 20
-8736.888
 30
-6.000
 70
    32
  0
VERTEX
  8
E53LXLIFT
 62
8
 10
4255.223
 20
-8723.851
 30
-6.000
 70
    32
  0
VERTEX
  8
E53LXLIFT
 62
8
 10
4222.819
 20
-8703.009
 30
-6.000
 70
    32
  0
VERTEX
  8
E53LXLIFT
 62
8
 10
4209.783
 20
-8683.771
 30
-6.000
 70
    32
  0
VERTEX
  8
E53LXLIFT
 62
8
 10
4202.660
 20
-8677.509
 30
-6.000
 70
    32
  0
VERTEX
  8
E53LXLIFT
 62
8
 10
4202.112
 20
-8674.260
 30
-6.000
 70
    32
  0
VERTEX
  8
E53LXLIFT
 62
8
 10
4210.113
 20
-8669.025
 30
-6.000
 70
    32
  0
VERTEX
  8
E53LXLIFT
 62
8
 10
4210.273
 20
-8668.487
 30
-6.000
 70
    32
  0
VERTEX
  8
E53LXLIFT
 62
8
 10
4212.120
 20
-8664.536
 30
-6.000
 70
    32
  0
VERTEX
  8
E53LXLIFT
 62
8
 10
4203.652
 20
-8643.729
 30
-6.000
 70
    32
  0
VERTEX
  8
E53LXLIFT
 62
8
 10
4193.245
 20
-8624.588
 30
-6.000
 70
    32
  0
VERTEX
  8
E53LXLIFT
 62
8
 10
4192.152
 20
-8607.946
 30
-6.000
 70
    32
  0
VERTEX
  8
E53LXLIFT
 62
8
 10
4216.743
 20
-8600.161
 30
-6.000
 70
    32
  0
VERTEX
  8
E53LXLIFT
 62
8
 10
4231.948
 20
-8595.155
 30
-6.000
 70
    32
  0
VERTEX
  8
E53LXLIFT
 62
8
 10
4247.479
 20
-8609.991
 30
-6.000
 70
    32
  0
VERTEX
  8
E53LXLIFT
 62
8
 10
4252.218
 20
-8616.202
 30
-6.000
 70
    32
  0
VERTEX
  8
E53LXLIFT
 62
8
 10
4263.463
 20
-8602.417
 30
-6.000
 70
    32
  0
VERTEX
  8
E53LXLIFT
 62
8
 10
4288.623
 20
-8593.915
 30
-6.000
 70
    32
  0
VERTEX
  8
E53LXLIFT
 62
8
 10
4299.869
 20
-8605.962
 30
-6.000
 70
    32
  0
VERTEX
  8
E53LXLIFT
 62
8
 10
4292.867
 20
-8624.167
 30
-6.000
 70
    32
  0
SEQEND
  8
E53LXLIFT
  0
POLYLINE
  8
E53LXLIFT
 62
6
 66
     1
 70
     9
  0
VERTEX
  8
E53LXLIFT
 62
6
 10
4366.005
 20
-8678.385
 30
4.000
 70
    32
  0
VERTEX
  8
E53LXLIFT
 62
6
 10
4351.955
 20
-8672.913
 30
4.000
 70
    32
  0
VERTEX
  8
E53LXLIFT
 62
6
 10
4337.969
 20
-8667.075
 30
4.000
 70
    32
  0
VERTEX
  8
E53LXLIFT
 62
6
 10
4329.421
 20
-8660.417
 30
4.000
 70
    32
  0
VERTEX
  8
E53LXLIFT
 62
6
 10
4318.915
 20
-8647.620
 30
4.000
 70
    32
  0
VERTEX
  8
E53LXLIFT
 62
6
 10
4317.598
 20
-8634.910
 30
4.000
 70
    32
  0
VERTEX
  8
E53LXLIFT
 62
6
 10
4329.516
 20
-8620.406
 30
4.000
 70
    32
  0
VERTEX
  8
E53LXLIFT
 62
6
 10
4339.746
 20
-8610.526
 30
4.000
 70
    32
  0
VERTEX
  8
E53LXLIFT
 62
6
 10
4331.920
 20
-8595.736
 30
4.000
 70
    32
  0
VERTEX
  8
E53LXLIFT
 62
6
 10
4323.111
 20
-8585.504
 30
4.000
 70
    32
  0
VERTEX
  8
E53LXLIFT
 62
6
 10
4318.338
 20
-8577.802
 30
4.000
 70
    32
  0
VERTEX
  8
E53LXLIFT
 62
6
 10
4320.597
 20
-8571.703
 30
4.000
 70
    32
  0
VERTEX
  8
E53LXLIFT
 62
6
 10
4332.511
 20
-8577.496
 30
4.000
 70
    32
  0
VERTEX
  8
E53LXLIFT
 62
6
 10
4350.639
 20
-8595.024
 30
4.000
 70
    32
  0
VERTEX
  8
E53LXLIFT
 62
6
 10
4355.226
 20
-8605.972
 30
4.000
 70
    32
  0
VERTEX
  8
E53LXLIFT
 62
6
 10
4359.787
 20
-8624.668
 30
4.000
 70
    32
  0
VERTEX
  8
E53LXLIFT
 62
6
 10
4363.199
 20
-8631.503
 30
4.000
 70
    32
  0
VERTEX
  8
E53LXLIFT
 62
6
 10
4373.046
 20
-8623.825
 30
4.000
 70
    32
  0
VERTEX
  8
E53LXLIFT
 62
6
 10
4382.748
 20
-8606.477
 30
4.000
 70
    32
  0
VERTEX
  8
E53LXLIFT
 62
6
 10
4396.437
 20
-8592.660
 30
4.000
 70
    32
  0
VERTEX
  8
E53LXLIFT
 62
6
 10
4412.495
 20
-8582.975
 30
4.000
 70
    32
  0
VERTEX
  8
E53LXLIFT
 62
6
 10
4428.081
 20
-8599.178
 30
4.000
 70
    32
  0
VERTEX
  8
E53LXLIFT
 62
6
 10
4418.080
 20
-8618.239
 30
4.000
 70
    32
  0
VERTEX
  8
E53LXLIFT
 62
6
 10
4401.798
 20
-8643.329
 30
4.000
 70
    32
  0
VERTEX
  8
E53LXLIFT
 62
6
 10
4386.612
 20
-8656.696
 30
4.000
 70
    32
  0
VERTEX
  8
E53LXLIFT
 62
6
 10
4384.414
 20
-8671.127
 30
4.000
 70
    32
  0
SEQEND
  8
E53LXLIFT
  0
POLYLINE
  8
E53LXLIFT
 62
8
 66
     1
 70
     9
  0
VERTEX
  8
E53LXLIFT
 62
8
 10
4251.294
 20
-8605.527
 30
2.000
 70
    32
  0
VERTEX
  8
E53LXLIFT
 62
8
 10
4262.872
 20
-8602.752
 30
2.000
 70
    32
  0
VERTEX
  8
E53LXLIFT
 62
8
 10
4262.528
 20
-8590.967
 30
2.000
 70
    32
  0
VERTEX
  8
E53LXLIFT
 62
8
 10
4277.208
 20
-8582.681
 30
2.000
 70
    32
  0
VERTEX
  8
E53LXLIFT
 62
8
 10
4293.000
 20
-8594.444
 30
2.000
 70
    32
  0
VERTEX
  8
E53LXLIFT
 62
8
 10
4300.240
 20
-8598.478
 30
2.000
 70
    32
  0
VERTEX
  8
E53LXLIFT
 62
8
 10
4307.619
 20
-8610.038
 30
2.000
 70
    32
  0
VERTEX
  8
E53LXLIFT
 62
8
 10
4304.747
 20
-8618.930
 30
2.000
 70
    32
  0
VERTEX
  8
E53LXLIFT
 62
8
 10
4297.310
 20
-8629.423
 30
2.000
 70
    32
  0
VERTEX
  8
E53LXLIFT
 62
8
 10
4298.780
 20
-8639.450
 30
2.000
 70
    32
  0
VERTEX
  8
E53LXLIFT
 62
8
 10
4310.547
 20
-8659.842
 30
2.000
 70
    32
  0
VERTEX
  8
E53LXLIFT
 62
8
 10
4294.965
 20
-8670.051
 30
2.000
 70
    32
  0
VERTEX
  8
E53LXLIFT
 62
8
 10
4264.093
 20
-8661.272
 30
2.000
 70
    32
  0
VERTEX
  8
E53LXLIFT
 62
8
 10
4260.668
 20
-8664.647
 30
2.000
 70
    32
  0
VERTEX
  8
E53LXLIFT
 62
8
 10
4260.996
 20
-8678.698
 30
2.000
 70
    32
  0
VERTEX
  8
E53LXLIFT
 62
8
 10
4269.460
 20
-8695.616
 30
2.000
 70
    32
  0
VERTEX
  8
E53LXLIFT
 62
8
 10
4262.529
 20
-8713.698
 30
2.000
 70
    32
  0
VERTEX
  8
E53LXLIFT
 62
8
 10
4261.725
 20
-8733.162
 30
2.000
 70
    32
  0
VERTEX
  8
E53LXLIFT
 62
8
 10
4263.901
 20
-8747.094
 30
2.000
 70
    32
  0
VERTEX
  8
E53LXLIFT
 62
8
 10
4259.274
 20
-8753.033
 30
2.000
 70
    32
  0
VERTEX
  8
E53LXLIFT
 62
8
 10
4231.177
 20
-8755.832
 30
2.000
 70
    32
  0
VERTEX
  8
E53LXLIFT
 62
8
 10
4221.735
 20
-8745.615
 30
2.000
 70
    32
  0
VERTEX
  8
E53LXLIFT
 62
8
 10
4224.604
 20
-8725.880
 30
2.000
 70
    32
  0
VERTEX
  8
E53LXLIFT
 62
8
 10
4225.734
 20
-8713.595
 30
2.000
 70
    32
  0
VERTEX
  8
E53LXLIFT
 62
8
 10
4209.007
 20
-8701.417
 30
2.000
 70
    32
  0
VERTEX
  8
E53LXLIFT
 62
8
 10
4196.861
 20
-8700.941
 30
2.000
 70
    32
  0
VERTEX
  8
E53LXLIFT
 62
8
 10
4184.508
 20
-8695.134
 30
2.000
 70
    32
  0
VERTEX
  8
E53LXLIFT
 62
8
 10
4177.737
 20
-8685.509
 30
2.000
 70
    32
  0
VERTEX
  8
E53LXLIFT
 62
8
 10
4177.925
 20
-8676.464
 30
2.000
 70
    32
  0
VERTEX
  8
E53LXLIFT
 62
8
 10
4185.370
 20
-8666.288
 30
2.000
 70
    32
  0
VERTEX
  8
E53LXLIFT
 62
8
 10
4200.695
 20
-8666.246
 30
2.000
 70
    32
  0
VERTEX
  8
E53LXLIFT
 62
8
 10
4209.688
 20
-8659.491
 30
2.000
 70
    32
  0
VERTEX
  8
E53LXLIFT
 62
8
 10
4204.934
 20
-8644.795
 30
2.000
 70
    32
  0
VERTEX
  8
E53LXLIFT
 62
8
 10
4199.258
 20
-8626.346
 30
2.000
 70
    32
  0
VERTEX
  8
E53LXLIFT
 62
8
 10
4197.771
 20
-8614.614
 30
2.000
 70
    32
  0
VERTEX
  8
E53LXLIFT
 62
8
 10
4205.297
 20
-8598.905
 30
2.000
 70
    32
  0
VERTEX
  8
E53LXLIFT
 62
8
 10
4213.020
 20
-8591.110
 30
2.000
 70
    32
  0
VERTEX
  8
E53LXLIFT
 62
8
 10
4216.646
 20
-8578.251
 30
2.000
 70
    32
  0
VERTEX
  8
E53LXLIFT
 62
8
 10
4222.220
 20
-8558.546
 30
2.000
 70
    32
  0
VERTEX
  8
E53LXLIFT
 62
8
 10
4238.035
 20
-8540.119
 30
2.000
 70
    32
  0
VERTEX
  8
E53LXLIFT
 62
8
 10
4255.389
 20
-8561.736
 30
2.000
 70
    32
  0
VERTEX
  8
E53LXLIFT
 62
8
 10
4248.955
 20
-8567.550
 30
2.000
 70
    32
  0
VERTEX
  8
E53LXLIFT
 62
8
 10
4239.950
 20
-8587.414
 30
2.000
 70
    32
  0
SEQEND
  8
E53LXLIFT
  0
POLYLINE
  8
E53LXLIFT
 62
6
 66
     1
 70
     9
  0
VERTEX
  8
E53LXLIFT
 62
6
 10
4324.547
 20
-8629.999
 30
13.000
 70
    32
  0
VERTEX
  8
E53LXLIFT
 62
6
 10
4336.845
 20
-8621.983
 30
13.000
 70
    32
  0
VERTEX
  8
E53LXLIFT
 62
6
 10
4342.068
 20
-8612.972
 30
13.000
 70
    32
  0
VERTEX
  8
E53LXLIFT
 62
6
 10
4333.319
 20
-8597.529
 30
13.000
 70
    32
  0
VERTEX
  8
E53LXLIFT
 62
6
 10
4320.616
 20
-8586.525
 30
13.000
 70
    32
  0
VERTEX
  8
E53LXLIFT
 62
6
 10
4311.533
 20
-8580.598
 30
13.000
 70
    32
  0
VERTEX
  8
E53LXLIFT
 62
6
 10
4314.335
 20
-8573.637
 30
13.000
 70
    32
  0
VERTEX
  8
E53LXLIFT
 62
6
 10
4329.737
 20
-8579.804
 30
13.000
 70
    32
  0
VERTEX
  8
E53LXLIFT
 62
6
 10
4351.377
 20
-8600.615
 30
13.000
 70
    32
  0
VERTEX
  8
E53LXLIFT
 62
6
 10
4359.517
 20
-8610.666
 30
13.000
 70
    32
  0
VERTEX
  8
E53LXLIFT
 62
6
 10
4368.512
 20
-8609.212
 30
13.000
 70
    32
  0
VERTEX
  8
E53LXLIFT
 62
6
 10
4377.095
 20
-8613.986
 30
13.000
 70
    32
  0
VERTEX
  8
E53LXLIFT
 62
6
 10
4395.136
 20
-8597.234
 30
13.000
 70
    32
  0
VERTEX
  8
E53LXLIFT
 62
6
 10
4400.078
 20
-8596.298
 30
13.000
 70
    32
  0
VERTEX
  8
E53LXLIFT
 62
6
 10
4410.072
 20
-8612.579
 30
13.000
 70
    32
  0
VERTEX
  8
E53LXLIFT
 62
6
 10
4410.895
 20
-8619.327
 30
13.000
 70
    32
  0
VERTEX
  8
E53LXLIFT
 62
6
 10
4392.268
 20
-8641.459
 30
13.000
 70
    32
  0
VERTEX
  8
E53LXLIFT
 62
6
 10
4385.718
 20
-8650.122
 30
13.000
 70
    32
  0
VERTEX
  8
E53LXLIFT
 62
6
 10
4382.334
 20
-8657.174
 30
13.000
 70
    32
  0
VERTEX
  8
E53LXLIFT
 62
6
 10
4367.712
 20
-8661.024
 30
13.000
 70
    32
  0
VERTEX
  8
E53LXLIFT
 62
6
 10
4352.010
 20
-8660.788
 30
13.000
 70
    32
  0
VERTEX
  8
E53LXLIFT
 62
6
 10
4333.619
 20
-8651.792
 30
13.000
 70
    32
  0
VERTEX
  8
E53LXLIFT
 62
6
 10
4325.046
 20
-8647.335
 30
13.000
 70
    32
  0
SEQEND
  8
E53LXLIFT
  0
POLYLINE
  8
E53LXLIFT
 62
8
 66
     1
 70
     9
  0
VERTEX
  8
E53LXLIFT
 62
8
 10
4173.899
 20
-8674.992
 30
13.000
 70
    32
  0
VERTEX
  8
E53LXLIFT
 62
8
 10
4184.144
 20
-8683.003
 30
13.000
 70
    32
  0
VERTEX
  8
E53LXLIFT
 62
8
 10
4196.349
 20
-8690.587
 30
13.000
 70
    32
  0
VERTEX
  8
E53LXLIFT
 62
8
 10
4209.790
 20
-8697.936
 30
13.000
 70
    32
  0
VERTEX
  8
E53LXLIFT
 62
8
 10
4224.002
 20
-8696.537
 30
13.000
 70
    32
  0
VERTEX
  8
E53LXLIFT
 62
8
 10
4236.064
 20
-8690.307
 30
13.000
 70
    32
  0
VERTEX
  8
E53LXLIFT
 62
8
 10
4246.239
 20
-8680.676
 30
13.000
 70
    32
  0
VERTEX
  8
E53LXLIFT
 62
8
 10
4247.739
 20
-8665.690
 30
13.000
 70
    32
  0
VERTEX
  8
E53LXLIFT
 62
8
 10
4254.620
 20
-8651.289
 30
13.000
 70
    32
  0
VERTEX
  8
E53LXLIFT
 62
8
 10
4256.109
 20
-8638.253
 30
13.000
 70
    32
  0
VERTEX
  8
E53LXLIFT
 62
8
 10
4254.050
 20
-8633.249
 30
13.000
 70
    32
  0
VERTEX
  8
E53LXLIFT
 62
8
 10
4256.994
 20
-8627.697
 30
13.000
 70
    32
  0
VERTEX
  8
E53LXLIFT
 62
8
 10
4276.615
 20
-8629.344
 30
13.000
 70
    32
  0
VERTEX
  8
E53LXLIFT
 62
8
 10
4288.431
 20
-8623.829
 30
13.000
 70
    32
  0
VERTEX
  8
E53LXLIFT
 62
8
 10
4295.176
 20
-8614.380
 30
13.000
 70
    32
  0
VERTEX
  8
E53LXLIFT
 62
8
 10
4291.376
 20
-8602.095
 30
13.000
 70
    32
  0
VERTEX
  8
E53LXLIFT
 62
8
 10
4281.776
 20
-8591.359
 30
13.000
 70
    32
  0
VERTEX
  8
E53LXLIFT
 62
8
 10
4273.905
 20
-8590.608
 30
13.000
 70
    32
  0
VERTEX
  8
E53LXLIFT
 62
8
 10
4261.802
 20
-8598.594
 30
13.000
 70
    32
  0
VERTEX
  8
E53LXLIFT
 62
8
 10
4251.536
 20
-8606.132
 30
13.000
 70
    32
  0
VERTEX
  8
E53LXLIFT
 62
8
 10
4245.271
 20
-8601.431
 30
13.000
 70
    32
  0
VERTEX
  8
E53LXLIFT
 62
8
 10
4239.775
 20
-8591.004
 30
13.000
 70
    32
  0
VERTEX
  8
E53LXLIFT
 62
8
 10
4237.916
 20
-8577.659
 30
13.000
 70
    32
  0
VERTEX
  8
E53LXLIFT
 62
8
 10
4239.578
 20
-8566.226
 30
13.000
 70
    32
  0
VERTEX
  8
E53LXLIFT
 62
8
 10
4238.409
 20
-8558.537
 30
13.000
 70
    32
  0
VERTEX
  8
E53LXLIFT
 62
8
 10
4231.499
 20
-8555.051
 30
13.000
 70
    32
  0
VERTEX
  8
E53LXLIFT
 62
8
 10
4223.992
 20
-8559.651
 30
13.000
 70
    32
  0
VERTEX
  8
E53LXLIFT
 62
8
 10
4221.341
 20
-8570.603
 30
13.000
 70
    32
  0
VERTEX
  8
E53LXLIFT
 62
8
 10
4218.546
 20
-8582.414
 30
13.000
 70
    32
  0
VERTEX
  8
E53LXLIFT
 62
8
 10
4211.220
 20
-8590.443
 30
13.000
 70
    32
  0
VERTEX
  8
E53LXLIFT
 62
8
 10
4201.605
 20
-8602.372
 30
13.000
 70
    32
  0
VERTEX
  8
E53LXLIFT
 62
8
 10
4196.051
 20
-8618.631
 30
13.000
 70
    32
  0
VERTEX
  8
E53LXLIFT
 62
8
 10
4195.461
 20
-8630.811
 30
13.000
 70
    32
  0
VERTEX
  8
E53LXLIFT
 62
8
 10
4199.732
 20
-8640.278
 30
13.000
 70
    32
  0
VERTEX
  8
E53LXLIFT
 62
8
 10
4192.433
 20
-8654.545
 30
13.000
 70
    32
  0
VERTEX
  8
E53LXLIFT
 62
8
 10
4175.370
 20
-8659.812
 30
13.000
 70
    32
  0
SEQEND
  8
E53LXLIFT
  0
POLYLINE
  8
E53LXLIFT
 62
6
 66
     1
 70
     9
  0
VERTEX
  8
E53LXLIFT
 62
6
 10
4344.162
 20
-8633.557
 30
22.000
 70
    32
  0
VERTEX
  8
E53LXLIFT
 62
6
 10
4354.554
 20
-8640.475
 30
22.000
 70
    32
  0
VERTEX
  8
E53LXLIFT
 62
6
 10
4367.563
 20
-8639.447
 30
22.000
 70
    32
  0
VERTEX
  8
E53LXLIFT
 62
6
 10
4381.266
 20
-8632.615
 30
22.000
 70
    32
  0
VERTEX
  8
E53LXLIFT
 62
6
 10
4391.926
 20
-8625.916
 30
22.000
 70
    32
  0
VERTEX
  8
E53LXLIFT
 62
6
 10
4399.517
 20
-8612.549
 30
22.000
 70
    32
  0
VERTEX
  8
E53LXLIFT
 62
6
 10
4403.115
 20
-8602.056
 30
22.000
 70
    32
  0
VERTEX
  8
E53LXLIFT
 62
6
 10
4398.590
 20
-8582.686
 30
22.000
 70
    32
  0
VERTEX
  8
E53LXLIFT
 62
6
 10
4397.810
 20
-8575.886
 30
22.000
 70
    32
  0
VERTEX
  8
E53LXLIFT
 62
6
 10
4388.931
 20
-8575.132
 30
22.000
 70
    32
  0
VERTEX
  8
E53LXLIFT
 62
6
 10
4388.865
 20
-8601.812
 30
22.000
 70
    32
  0
VERTEX
  8
E53LXLIFT
 62
6
 10
4386.120
 20
-8610.933
 30
22.000
 70
    32
  0
VERTEX
  8
E53LXLIFT
 62
6
 10
4379.281
 20
-8611.959
 30
22.000
 70
    32
  0
VERTEX
  8
E53LXLIFT
 62
6
 10
4372.043
 20
-8601.904
 30
22.000
 70
    32
  0
VERTEX
  8
E53LXLIFT
 62
6
 10
4361.901
 20
-8593.831
 30
22.000
 70
    32
  0
VERTEX
  8
E53LXLIFT
 62
6
 10
4352.212
 20
-8594.959
 30
22.000
 70
    32
  0
VERTEX
  8
E53LXLIFT
 62
6
 10
4345.088
 20
-8588.071
 30
22.000
 70
    32
  0
VERTEX
  8
E53LXLIFT
 62
6
 10
4333.695
 20
-8575.702
 30
22.000
 70
    32
  0
VERTEX
  8
E53LXLIFT
 62
6
 10
4325.168
 20
-8570.473
 30
22.000
 70
    32
  0
VERTEX
  8
E53LXLIFT
 62
6
 10
4317.738
 20
-8569.326
 30
22.000
 70
    32
  0
VERTEX
  8
E53LXLIFT
 62
6
 10
4315.872
 20
-8573.050
 30
22.000
 70
    32
  0
VERTEX
  8
E53LXLIFT
 62
6
 10
4326.544
 20
-8583.665
 30
22.000
 70
    32
  0
VERTEX
  8
E53LXLIFT
 62
6
 10
4338.367
 20
-8599.188
 30
22.000
 70
    32
  0
VERTEX
  8
E53LXLIFT
 62
6
 10
4344.166
 20
-8618.073
 30
22.000
 70
    32
  0
SEQEND
  8
E53LXLIFT
  0
POLYLINE
  8
E53LXLIFT
 62
8
 66
     1
 70
     9
  0
VERTEX
  8
E53LXLIFT
 62
8
 10
4170.204
 20
-8677.797
 30
23.000
 70
    32
  0
VERTEX
  8
E53LXLIFT
 62
8
 10
4188.862
 20
-8682.662
 30
23.000
 70
    32
  0
VERTEX
  8
E53LXLIFT
 62
8
 10
4210.462
 20
-8681.838
 30
23.000
 70
    32
  0
VERTEX
  8
E53LXLIFT
 62
8
 10
4225.280
 20
-8675.502
 30
23.000
 70
    32
  0
VERTEX
  8
E53LXLIFT
 62
8
 10
4236.342
 20
-8664.400
 30
23.000
 70
    32
  0
VERTEX
  8
E53LXLIFT
 62
8
 10
4239.064
 20
-8657.352
 30
23.000
 70
    32
  0
VERTEX
  8
E53LXLIFT
 62
8
 10
4236.692
 20
-8651.049
 30
23.000
 70
    32
  0
VERTEX
  8
E53LXLIFT
 62
8
 10
4243.316
 20
-8638.594
 30
23.000
 70
    32
  0
VERTEX
  8
E53LXLIFT
 62
8
 10
4247.441
 20
-8629.887
 30
23.000
 70
    32
  0
VERTEX
  8
E53LXLIFT
 62
8
 10
4249.493
 20
-8621.156
 30
23.000
 70
    32
  0
VERTEX
  8
E53LXLIFT
 62
8
 10
4260.412
 20
-8618.277
 30
23.000
 70
    32
  0
VERTEX
  8
E53LXLIFT
 62
8
 10
4276.555
 20
-8616.941
 30
23.000
 70
    32
  0
VERTEX
  8
E53LXLIFT
 62
8
 10
4274.371
 20
-8611.801
 30
23.000
 70
    32
  0
VERTEX
  8
E53LXLIFT
 62
8
 10
4264.515
 20
-8600.816
 30
23.000
 70
    32
  0
VERTEX
  8
E53LXLIFT
 62
8
 10
4255.010
 20
-8588.063
 30
23.000
 70
    32
  0
VERTEX
  8
E53LXLIFT
 62
8
 10
4246.818
 20
-8573.824
 30
23.000
 70
    32
  0
VERTEX
  8
E53LXLIFT
 62
8
 10
4238.999
 20
-8558.449
 30
23.000
 70
    32
  0
VERTEX
  8
E53LXLIFT
 62
8
 10
4233.182
 20
-8543.150
 30
23.000
 70
    32
  0
VERTEX
  8
E53LXLIFT
 62
8
 10
4221.302
 20
-8545.747
 30
23.000
 70
    32
  0
VERTEX
  8
E53LXLIFT
 62
8
 10
4215.897
 20
-8548.013
 30
23.000
 70
    32
  0
VERTEX
  8
E53LXLIFT
 62
8
 10
4214.940
 20
-8562.776
 30
23.000
 70
    32
  0
VERTEX
  8
E53LXLIFT
 62
8
 10
4214.122
 20
-8579.387
 30
23.000
 70
    32
  0
VERTEX
  8
E53LXLIFT
 62
8
 10
4212.532
 20
-8588.760
 30
23.000
 70
    32
  0
VERTEX
  8
E53LXLIFT
 62
8
 10
4204.049
 20
-8598.331
 30
23.000
 70
    32
  0
VERTEX
  8
E53LXLIFT
 62
8
 10
4195.394
 20
-8605.859
 30
23.000
 70
    32
  0
VERTEX
  8
E53LXLIFT
 62
8
 10
4193.950
 20
-8613.178
 30
23.000
 70
    32
  0
VERTEX
  8
E53LXLIFT
 62
8
 10
4194.616
 20
-8624.932
 30
23.000
 70
    32
  0
VERTEX
  8
E53LXLIFT
 62
8
 10
4198.505
 20
-8640.862
 30
23.000
 70
    32
  0
VERTEX
  8
E53LXLIFT
 62
8
 10
4181.616
 20
-8650.637
 30
23.000
 70
    32
  0
VERTEX
  8
E53LXLIFT
 62
8
 10
4167.328
 20
-8662.221
 30
23.000
 70
    32
  0
SEQEND
  8
E53LXLIFT
  0
POLYLINE
  8
E53LXLIFT
 62
6
 66
     1
 70
     9
  0
VERTEX
  8
E53LXLIFT
 62
6
 10
4398.623
 20
-8590.431
 30
31.000
 70
    32
  0
VERTEX
  8
E53LXLIFT
 62
6
 10
4395.697
 20
-8604.854
 30
31.000
 70
    32
  0
VERTEX
  8
E53LXLIFT
 62
6
 10
4388.378
 20
-8603.091
 30
31.000
 70
    32
  0
VERTEX
  8
E53LXLIFT
 62
6
 10
4379.441
 20
-8589.305
 30
31.000
 70
    32
  0
VERTEX
  8
E53LXLIFT
 62
6
 10
4367.795
 20
-8590.543
 30
31.000
 70
    32
  0
VERTEX
  8
E53LXLIFT
 62
6
 10
4368.192
 20
-8607.334
 30
31.000
 70
    32
  0
VERTEX
  8
E53LXLIFT
 62
6
 10
4375.454
 20
-8620.594
 30
31.000
 70
    32
  0
VERTEX
  8
E53LXLIFT
 62
6
 10
4364.665
 20
-8628.889
 30
31.000
 70
    32
  0
VERTEX
  8
E53LXLIFT
 62
6
 10
4351.645
 20
-8634.682
 30
31.000
 70
    32
  0
VERTEX
  8
E53LXLIFT
 62
6
 10
4345.302
 20
-8611.574
 30
31.000
 70
    32
  0
VERTEX
  8
E53LXLIFT
 62
6
 10
4331.629
 20
-8589.845
 30
31.000
 70
    32
  0
VERTEX
  8
E53LXLIFT
 62
6
 10
4307.999
 20
-8568.248
 30
31.000
 70
    32
  0
VERTEX
  8
E53LXLIFT
 62
6
 10
4310.384
 20
-8564.048
 30
31.000
 70
    32
  0
VERTEX
  8
E53LXLIFT
 62
6
 10
4329.889
 20
-8570.886
 30
31.000
 70
    32
  0
VERTEX
  8
E53LXLIFT
 62
6
 10
4348.390
 20
-8576.176
 30
31.000
 70
    32
  0
VERTEX
  8
E53LXLIFT
 62
6
 10
4370.928
 20
-8580.618
 30
31.000
 70
    32
  0
VERTEX
  8
E53LXLIFT
 62
6
 10
4387.847
 20
-8575.590
 30
31.000
 70
    32
  0
SEQEND
  8
E53LXLIFT
  0
POLYLINE
  8
E53LXLIFT
 62
8
 66
     1
 70
     9
  0
VERTEX
  8
E53LXLIFT
 62
8
 10
4235.774
 20
-8629.998
 30
32.000
 70
    32
  0
VERTEX
  8
E53LXLIFT
 62
8
 10
4233.405
 20
-8646.398
 30
32.000
 70
    32
  0
VERTEX
  8
E53LXLIFT
 62
8
 10
4228.960
 20
-8650.890
 30
32.000
 70
    32
  0
VERTEX
  8
E53LXLIFT
 62
8
 10
4230.971
 20
-8658.198
 30
32.000
 70
    32
  0
VERTEX
  8
E53LXLIFT
 62
8
 10
4216.542
 20
-8677.216
 30
32.000
 70
    32
  0
VERTEX
  8
E53LXLIFT
 62
8
 10
4210.073
 20
-8680.245
 30
32.000
 70
    32
  0
VERTEX
  8
E53LXLIFT
 62
8
 10
4192.920
 20
-8682.091
 30
32.000
 70
    32
  0
VERTEX
  8
E53LXLIFT
 62
8
 10
4190.938
 20
-8684.596
 30
32.000
 70
    32
  0
VERTEX
  8
E53LXLIFT
 62
8
 10
4176.557
 20
-8685.639
 30
32.000
 70
    32
  0
VERTEX
  8
E53LXLIFT
 62
8
 10
4162.595
 20
-8683.355
 30
32.000
 70
    32
  0
VERTEX
  8
E53LXLIFT
 62
8
 10
4152.231
 20
-8680.213
 30
32.000
 70
    32
  0
VERTEX
  8
E53LXLIFT
 62
8
 10
4141.600
 20
-8669.482
 30
32.000
 70
    32
  0
VERTEX
  8
E53LXLIFT
 62
8
 10
4138.117
 20
-8664.637
 30
32.000
 70
    32
  0
VERTEX
  8
E53LXLIFT
 62
8
 10
4138.515
 20
-8654.516
 30
32.000
 70
    32
  0
VERTEX
  8
E53LXLIFT
 62
8
 10
4139.079
 20
-8644.925
 30
32.000
 70
    32
  0
VERTEX
  8
E53LXLIFT
 62
8
 10
4133.273
 20
-8630.833
 30
32.000
 70
    32
  0
VERTEX
  8
E53LXLIFT
 62
8
 10
4136.417
 20
-8621.225
 30
32.000
 70
    32
  0
VERTEX
  8
E53LXLIFT
 62
8
 10
4160.035
 20
-8625.214
 30
32.000
 70
    32
  0
VERTEX
  8
E53LXLIFT
 62
8
 10
4172.287
 20
-8642.561
 30
32.000
 70
    32
  0
VERTEX
  8
E53LXLIFT
 62
8
 10
4182.261
 20
-8634.636
 30
32.000
 70
    32
  0
VERTEX
  8
E53LXLIFT
 62
8
 10
4186.184
 20
-8622.953
 30
32.000
 70
    32
  0
VERTEX
  8
E53LXLIFT
 62
8
 10
4190.676
 20
-8613.565
 30
32.000
 70
    32
  0
VERTEX
  8
E53LXLIFT
 62
8
 10
4199.418
 20
-8603.174
 30
32.000
 70
    32
  0
VERTEX
  8
E53LXLIFT
 62
8
 10
4210.592
 20
-8590.604
 30
32.000
 70
    32
  0
VERTEX
  8
E53LXLIFT
 62
8
 10
4212.074
 20
-8567.707
 30
32.000
 70
    32
  0
VERTEX
  8
E53LXLIFT
 62
8
 10
4217.576
 20
-8555.215
 30
32.000
 70
    32
  0
VERTEX
  8
E53LXLIFT
 62
8
 10
4216.051
 20
-8546.477
 30
32.000
 70
    32
  0
VERTEX
  8
E53LXLIFT
 62
8
 10
4228.766
 20
-8544.470
 30
32.000
 70
    32
  0
VERTEX
  8
E53LXLIFT
 62
8
 10
4239.584
 20
-8566.738
 30
32.000
 70
    32
  0
VERTEX
  8
E53LXLIFT
 62
8
 10
4249.476
 20
-8586.213
 30
32.000
 70
    32
  0
VERTEX
  8
E53LXLIFT
 62
8
 10
4256.411
 20
-8606.085
 30
32.000
 70
    32
  0
VERTEX
  8
E53LXLIFT
 62
8
 10
4260.812
 20
-8624.537
 30
32.000
 70
    32
  0
SEQEND
  8
E53LXLIFT
  0
POLYLINE
  8
E53LXLIFT
 62
6
 66
     1
 70
     9
  0
VERTEX
  8
E53LXLIFT
 62
6
 10
4387.975
 20
-8522.830
 30
41.000
 70
    32
  0
VERTEX
  8
E53LXLIFT
 62
6
 10
4385.254
 20
-8536.873
 30
41.000
 70
    32
  0
VERTEX
  8
E53LXLIFT
 62
6
 10
4386.041
 20
-8546.625
 30
41.000
 70
    32
  0
VERTEX
  8
E53LXLIFT
 62
6
 10
4389.828
 20
-8552.131
 30
41.000
 70
    32
  0
VERTEX
  8
E53LXLIFT
 62
6
 10
4384.786
 20
-8575.687
 30
41.000
 70
    32
  0
VERTEX
  8
E53LXLIFT
 62
6
 10
4385.070
 20
-8589.827
 30
41.000
 70
    32
  0
VERTEX
  8
E53LXLIFT
 62
6
 10
4387.525
 20
-8602.170
 30
41.000
 70
    32
  0
VERTEX
  8
E53LXLIFT
 62
6
 10
4379.957
 20
-8608.652
 30
41.000
 70
    32
  0
VERTEX
  8
E53LXLIFT
 62
6
 10
4375.454
 20
-8599.320
 30
41.000
 70
    32
  0
VERTEX
  8
E53LXLIFT
 62
6
 10
4370.290
 20
-8597.749
 30
41.000
 70
    32
  0
VERTEX
  8
E53LXLIFT
 62
6
 10
4356.583
 20
-8603.261
 30
41.000
 70
    32
  0
VERTEX
  8
E53LXLIFT
 62
6
 10
4347.652
 20
-8605.626
 30
41.000
 70
    32
  0
VERTEX
  8
E53LXLIFT
 62
6
 10
4334.849
 20
-8603.415
 30
41.000
 70
    32
  0
VERTEX
  8
E53LXLIFT
 62
6
 10
4324.632
 20
-8609.541
 30
41.000
 70
    32
  0
VERTEX
  8
E53LXLIFT
 62
6
 10
4317.504
 20
-8599.291
 30
41.000
 70
    32
  0
VERTEX
  8
E53LXLIFT
 62
6
 10
4330.882
 20
-8591.084
 30
41.000
 70
    32
  0
VERTEX
  8
E53LXLIFT
 62
6
 10
4325.066
 20
-8576.511
 30
41.000
 70
    32
  0
VERTEX
  8
E53LXLIFT
 62
6
 10
4314.229
 20
-8566.242
 30
41.000
 70
    32
  0
VERTEX
  8
E53LXLIFT
 62
6
 10
4305.660
 20
-8560.735
 30
41.000
 70
    32
  0
VERTEX
  8
E53LXLIFT
 62
6
 10
4309.099
 20
-8552.910
 30
41.000
 70
    32
  0
VERTEX
  8
E53LXLIFT
 62
6
 10
4326.457
 20
-8556.154
 30
41.000
 70
    32
  0
VERTEX
  8
E53LXLIFT
 62
6
 10
4339.220
 20
-8561.002
 30
41.000
 70
    32
  0
VERTEX
  8
E53LXLIFT
 62
6
 10
4345.230
 20
-8564.783
 30
41.000
 70
    32
  0
VERTEX
  8
E53LXLIFT
 62
6
 10
4354.206
 20
-8564.124
 30
41.000
 70
    32
  0
VERTEX
  8
E53LXLIFT
 62
6
 10
4370.175
 20
-8566.206
 30
41.000
 70
    32
  0
VERTEX
  8
E53LXLIFT
 62
6
 10
4369.148
 20
-8552.389
 30
41.000
 70
    32
  0
VERTEX
  8
E53LXLIFT
 62
6
 10
4373.027
 20
-8535.005
 30
41.000
 70
    32
  0
VERTEX
  8
E53LXLIFT
 62
6
 10
4378.294
 20
-8521.175
 30
41.000
 70
    32
  0
SEQEND
  8
E53LXLIFT
  0
POLYLINE
  8
E53LXLIFT
 62
8
 66
     1
 70
     9
  0
VERTEX
  8
E53LXLIFT
 62
8
 10
4217.953
 20
-8533.983
 30
42.000
 70
    32
  0
VERTEX
  8
E53LXLIFT
 62
8
 10
4227.594
 20
-8546.644
 30
42.000
 70
    32
  0
VERTEX
  8
E53LXLIFT
 62
8
 10
4238.806
 20
-8567.292
 30
42.000
 70
    32
  0
VERTEX
  8
E53LXLIFT
 62
8
 10
4246.708
 20
-8586.977
 30
42.000
 70
    32
  0
VERTEX
  8
E53LXLIFT
 62
8
 10
4250.320
 20
-8601.957
 30
42.000
 70
    32
  0
VERTEX
  8
E53LXLIFT
 62
8
 10
4263.781
 20
-8620.318
 30
42.000
 70
    32
  0
VERTEX
  8
E53LXLIFT
 62
8
 10
4240.728
 20
-8634.799
 30
42.000
 70
    32
  0
VERTEX
  8
E53LXLIFT
 62
8
 10
4231.693
 20
-8640.609
 30
42.000
 70
    32
  0
VERTEX
  8
E53LXLIFT
 62
8
 10
4226.329
 20
-8652.661
 30
42.000
 70
    32
  0
VERTEX
  8
E53LXLIFT
 62
8
 10
4214.741
 20
-8665.870
 30
42.000
 70
    32
  0
VERTEX
  8
E53LXLIFT
 62
8
 10
4200.608
 20
-8666.909
 30
42.000
 70
    32
  0
VERTEX
  8
E53LXLIFT
 62
8
 10
4184.884
 20
-8673.236
 30
42.000
 70
    32
  0
VERTEX
  8
E53LXLIFT
 62
8
 10
4171.028
 20
-8679.290
 30
42.000
 70
    32
  0
VERTEX
  8
E53LXLIFT
 62
8
 10
4155.266
 20
-8682.275
 30
42.000
 70
    32
  0
VERTEX
  8
E53LXLIFT
 62
8
 10
4146.904
 20
-8679.444
 30
42.000
 70
    32
  0
VERTEX
  8
E53LXLIFT
 62
8
 10
4143.111
 20
-8663.617
 30
42.000
 70
    32
  0
VERTEX
  8
E53LXLIFT
 62
8
 10
4143.958
 20
-8646.699
 30
42.000
 70
    32
  0
VERTEX
  8
E53LXLIFT
 62
8
 10
4147.817
 20
-8633.024
 30
42.000
 70
    32
  0
VERTEX
  8
E53LXLIFT
 62
8
 10
4159.772
 20
-8637.807
 30
42.000
 70
    32
  0
VERTEX
  8
E53LXLIFT
 62
8
 10
4176.362
 20
-8640.742
 30
42.000
 70
    32
  0
VERTEX
  8
E53LXLIFT
 62
8
 10
4185.881
 20
-8634.254
 30
42.000
 70
    32
  0
VERTEX
  8
E53LXLIFT
 62
8
 10
4193.126
 20
-8622.247
 30
42.000
 70
    32
  0
VERTEX
  8
E53LXLIFT
 62
8
 10
4196.015
 20
-8615.907
 30
42.000
 70
    32
  0
VERTEX
  8
E53LXLIFT
 62
8
 10
4196.067
 20
-8608.805
 30
42.000
 70
    32
  0
VERTEX
  8
E53LXLIFT
 62
8
 10
4206.356
 20
-8587.085
 30
42.000
 70
    32
  0
VERTEX
  8
E53LXLIFT
 62
8
 10
4210.933
 20
-8572.454
 30
42.000
 70
    32
  0
VERTEX
  8
E53LXLIFT
 62
8
 10
4214.559
 20
-8549.493
 30
42.000
 70
    32
  0
VERTEX
  8
E53LXLIFT
 62
8
 10
4210.146
 20
-8539.987
 30
42.000
 70
    32
  0
SEQEND
  8
E53LXLIFT
  0
POLYLINE
  8
E53LXLIFT
 62
8
 66
     1
 70
     9
  0
VERTEX
  8
E53LXLIFT
 62
8
 10
4232.116
 20
-8514.779
 30
53.000
 70
    32
  0
VERTEX
  8
E53LXLIFT
 62
8
 10
4236.896
 20
-8529.661
 30
53.000
 70
    32
  0
VERTEX
  8
E53LXLIFT
 62
8
 10
4234.151
 20
-8546.509
 30
53.000
 70
    32
  0
VERTEX
  8
E53LXLIFT
 62
8
 10
4234.202
 20
-8556.347
 30
53.000
 70
    32
  0
VERTEX
  8
E53LXLIFT
 62
8
 10
4239.709
 20
-8565.244
 30
53.000
 70
    32
  0
VERTEX
  8
E53LXLIFT
 62
8
 10
4249.044
 20
-8590.874
 30
53.000
 70
    32
  0
VERTEX
  8
E53LXLIFT
 62
8
 10
4251.620
 20
-8604.302
 30
53.000
 70
    32
  0
VERTEX
  8
E53LXLIFT
 62
8
 10
4260.027
 20
-8614.271
 30
53.000
 70
    32
  0
VERTEX
  8
E53LXLIFT
 62
8
 10
4260.807
 20
-8624.992
 30
53.000
 70
    32
  0
VERTEX
  8
E53LXLIFT
 62
8
 10
4248.359
 20
-8631.708
 30
53.000
 70
    32
  0
VERTEX
  8
E53LXLIFT
 62
8
 10
4239.114
 20
-8635.957
 30
53.000
 70
    32
  0
VERTEX
  8
E53LXLIFT
 62
8
 10
4231.673
 20
-8643.230
 30
53.000
 70
    32
  0
VERTEX
  8
E53LXLIFT
 62
8
 10
4218.145
 20
-8665.194
 30
53.000
 70
    32
  0
VERTEX
  8
E53LXLIFT
 62
8
 10
4199.956
 20
-8667.255
 30
53.000
 70
    32
  0
VERTEX
  8
E53LXLIFT
 62
8
 10
4189.462
 20
-8669.271
 30
53.000
 70
    32
  0
VERTEX
  8
E53LXLIFT
 62
8
 10
4161.677
 20
-8683.019
 30
53.000
 70
    32
  0
VERTEX
  8
E53LXLIFT
 62
8
 10
4146.446
 20
-8676.775
 30
53.000
 70
    32
  0
VERTEX
  8
E53LXLIFT
 62
8
 10
4141.821
 20
-8660.282
 30
53.000
 70
    32
  0
VERTEX
  8
E53LXLIFT
 62
8
 10
4144.329
 20
-8643.708
 30
53.000
 70
    32
  0
VERTEX
  8
E53LXLIFT
 62
8
 10
4152.117
 20
-8630.825
 30
53.000
 70
    32
  0
VERTEX
  8
E53LXLIFT
 62
8
 10
4164.893
 20
-8639.224
 30
53.000
 70
    32
  0
VERTEX
  8
E53LXLIFT
 62
8
 10
4178.067
 20
-8642.085
 30
53.000
 70
    32
  0
VERTEX
  8
E53LXLIFT
 62
8
 10
4189.838
 20
-8625.864
 30
53.000
 70
    32
  0
VERTEX
  8
E53LXLIFT
 62
8
 10
4197.035
 20
-8618.549
 30
53.000
 70
    32
  0
VERTEX
  8
E53LXLIFT
 62
8
 10
4203.724
 20
-8593.882
 30
53.000
 70
    32
  0
VERTEX
  8
E53LXLIFT
 62
8
 10
4211.522
 20
-8572.621
 30
53.000
 70
    32
  0
VERTEX
  8
E53LXLIFT
 62
8
 10
4215.787
 20
-8544.508
 30
53.000
 70
    32
  0
VERTEX
  8
E53LXLIFT
 62
8
 10
4221.317
 20
-8522.160
 30
53.000
 70
    32
  0
VERTEX
  8
E53LXLIFT
 62
8
 10
4223.074
 20
-8513.519
 30
53.000
 70
    32
  0
SEQEND
  8
E53LXLIFT
  0
POLYLINE
  8
E53LXLIFT
 62
6
 66
     1
 70
     9
  0
VERTEX
  8
E53LXLIFT
 62
6
 10
4312.567
 20
-8521.322
 30
59.000
 70
    32
  0
VERTEX
  8
E53LXLIFT
 62
6
 10
4321.558
 20
-8519.831
 30
59.000
 70
    32
  0
VERTEX
  8
E53LXLIFT
 62
6
 10
4334.050
 20
-8518.095
 30
59.000
 70
    32
  0
VERTEX
  8
E53LXLIFT
 62
6
 10
4342.001
 20
-8516.812
 30
59.000
 70
    32
  0
VERTEX
  8
E53LXLIFT
 62
6
 10
4357.295
 20
-8516.414
 30
59.000
 70
    32
  0
VERTEX
  8
E53LXLIFT
 62
6
 10
4365.536
 20
-8516.438
 30
59.000
 70
    32
  0
VERTEX
  8
E53LXLIFT
 62
6
 10
4375.102
 20
-8522.216
 30
59.000
 70
    32
  0
VERTEX
  8
E53LXLIFT
 62
6
 10
4375.242
 20
-8539.860
 30
59.000
 70
    32
  0
VERTEX
  8
E53LXLIFT
 62
6
 10
4378.560
 20
-8561.170
 30
59.000
 70
    32
  0
VERTEX
  8
E53LXLIFT
 62
6
 10
4372.213
 20
-8574.608
 30
59.000
 70
    32
  0
VERTEX
  8
E53LXLIFT
 62
6
 10
4363.985
 20
-8599.571
 30
59.000
 70
    32
  0
VERTEX
  8
E53LXLIFT
 62
6
 10
4350.152
 20
-8606.815
 30
59.000
 70
    32
  0
VERTEX
  8
E53LXLIFT
 62
6
 10
4340.147
 20
-8607.196
 30
59.000
 70
    32
  0
VERTEX
  8
E53LXLIFT
 62
6
 10
4328.614
 20
-8605.754
 30
59.000
 70
    32
  0
VERTEX
  8
E53LXLIFT
 62
6
 10
4311.956
 20
-8601.398
 30
59.000
 70
    32
  0
VERTEX
  8
E53LXLIFT
 62
6
 10
4300.972
 20
-8590.039
 30
59.000
 70
    32
  0
VERTEX
  8
E53LXLIFT
 62
6
 10
4284.459
 20
-8577.463
 30
59.000
 70
    32
  0
VERTEX
  8
E53LXLIFT
 62
6
 10
4273.068
 20
-8560.122
 30
59.000
 70
    32
  0
VERTEX
  8
E53LXLIFT
 62
6
 10
4276.340
 20
-8549.328
 30
59.000
 70
    32
  0
VERTEX
  8
E53LXLIFT
 62
6
 10
4276.848
 20
-8548.530
 30
59.000
 70
    32
  0
VERTEX
  8
E53LXLIFT
 62
6
 10
4284.870
 20
-8544.490
 30
59.000
 70
    32
  0
VERTEX
  8
E53LXLIFT
 62
6
 10
4296.621
 20
-8543.829
 30
59.000
 70
    32
  0
VERTEX
  8
E53LXLIFT
 62
6
 10
4301.352
 20
-8535.664
 30
59.000
 70
    32
  0
SEQEND
  8
E53LXLIFT
  0
POLYLINE
  8
E53LXLIFT
 62
6
 66
     1
 70
     9
  0
VERTEX
  8
E53LXLIFT
 62
6
 10
4262.453
 20
-8543.501
 30
70.000
 70
    32
  0
VERTEX
  8
E53LXLIFT
 62
6
 10
4275.820
 20
-8563.325
 30
70.000
 70
    32
  0
VERTEX
  8
E53LXLIFT
 62
6
 10
4296.169
 20
-8584.348
 30
70.000
 70
    32
  0
VERTEX
  8
E53LXLIFT
 62
6
 10
4316.221
 20
-8597.187
 30
70.000
 70
    32
  0
VERTEX
  8
E53LXLIFT
 62
6
 10
4327.979
 20
-8603.620
 30
70.000
 70
    32
  0
VERTEX
  8
E53LXLIFT
 62
6
 10
4346.970
 20
-8601.712
 30
70.000
 70
    32
  0
VERTEX
  8
E53LXLIFT
 62
6
 10
4355.496
 20
-8588.044
 30
70.000
 70
    32
  0
VERTEX
  8
E53LXLIFT
 62
6
 10
4359.380
 20
-8565.066
 30
70.000
 70
    32
  0
VERTEX
  8
E53LXLIFT
 62
6
 10
4365.301
 20
-8532.792
 30
70.000
 70
    32
  0
VERTEX
  8
E53LXLIFT
 62
6
 10
4365.508
 20
-8519.839
 30
70.000
 70
    32
  0
VERTEX
  8
E53LXLIFT
 62
6
 10
4357.190
 20
-8522.382
 30
70.000
 70
    32
  0
VERTEX
  8
E53LXLIFT
 62
6
 10
4344.573
 20
-8520.215
 30
70.000
 70
    32
  0
VERTEX
  8
E53LXLIFT
 62
6
 10
4331.649
 20
-8524.616
 30
70.000
 70
    32
  0
VERTEX
  8
E53LXLIFT
 62
6
 10
4321.062
 20
-8527.148
 30
70.000
 70
    32
  0
VERTEX
  8
E53LXLIFT
 62
6
 10
4314.416
 20
-8528.403
 30
70.000
 70
    32
  0
VERTEX
  8
E53LXLIFT
 62
6
 10
4306.468
 20
-8536.496
 30
70.000
 70
    32
  0
VERTEX
  8
E53LXLIFT
 62
6
 10
4296.810
 20
-8543.538
 30
70.000
 70
    32
  0
VERTEX
  8
E53LXLIFT
 62
6
 10
4277.220
 20
-8528.004
 30
70.000
 70
    32
  0
SEQEND
  8
E53LXLIFT
  0
POLYLINE
  8
E53LXLIFT
 62
8
 66
     1
 70
     9
  0
VERTEX
  8
E53LXLIFT
 62
8
 10
4211.759
 20
-8508.627
 30
69.000
 70
    32
  0
VERTEX
  8
E53LXLIFT
 62
8
 10
4220.377
 20
-8511.684
 30
69.000
 70
    32
  0
VERTEX
  8
E53LXLIFT
 62
8
 10
4225.344
 20
-8519.473
 30
69.000
 70
    32
  0
VERTEX
  8
E53LXLIFT
 62
8
 10
4225.749
 20
-8532.531
 30
69.000
 70
    32
  0
VERTEX
  8
E53LXLIFT
 62
8
 10
4223.670
 20
-8543.902
 30
69.000
 70
    32
  0
VERTEX
  8
E53LXLIFT
 62
8
 10
4225.401
 20
-8555.485
 30
69.000
 70
    32
  0
VERTEX
  8
E53LXLIFT
 62
8
 10
4232.879
 20
-8565.912
 30
69.000
 70
    32
  0
VERTEX
  8
E53LXLIFT
 62
8
 10
4237.993
 20
-8579.085
 30
69.000
 70
    32
  0
VERTEX
  8
E53LXLIFT
 62
8
 10
4241.901
 20
-8588.269
 30
69.000
 70
    32
  0
VERTEX
  8
E53LXLIFT
 62
8
 10
4244.742
 20
-8598.529
 30
69.000
 70
    32
  0
VERTEX
  8
E53LXLIFT
 62
8
 10
4250.260
 20
-8608.620
 30
69.000
 70
    32
  0
VERTEX
  8
E53LXLIFT
 62
8
 10
4248.210
 20
-8620.184
 30
69.000
 70
    32
  0
VERTEX
  8
E53LXLIFT
 62
8
 10
4248.210
 20
-8620.184
 30
69.000
 70
    32
  0
VERTEX
  8
E53LXLIFT
 62
8
 10
4237.652
 20
-8627.324
 30
69.000
 70
    32
  0
VERTEX
  8
E53LXLIFT
 62
8
 10
4234.471
 20
-8632.264
 30
69.000
 70
    32
  0
VERTEX
  8
E53LXLIFT
 62
8
 10
4228.861
 20
-8636.659
 30
69.000
 70
    32
  0
VERTEX
  8
E53LXLIFT
 62
8
 10
4224.608
 20
-8649.674
 30
69.000
 70
    32
  0
VERTEX
  8
E53LXLIFT
 62
8
 10
4216.546
 20
-8662.476
 30
69.000
 70
    32
  0
VERTEX
  8
E53LXLIFT
 62
8
 10
4207.668
 20
-8662.402
 30
69.000
 70
    32
  0
VERTEX
  8
E53LXLIFT
 62
8
 10
4196.311
 20
-8661.712
 30
69.000
 70
    32
  0
VERTEX
  8
E53LXLIFT
 62
8
 10
4184.478
 20
-8668.570
 30
69.000
 70
    32
  0
VERTEX
  8
E53LXLIFT
 62
8
 10
4170.364
 20
-8675.856
 30
69.000
 70
    32
  0
VERTEX
  8
E53LXLIFT
 62
8
 10
4159.662
 20
-8683.097
 30
69.000
 70
    32
  0
VERTEX
  8
E53LXLIFT
 62
8
 10
4152.508
 20
-8683.634
 30
69.000
 70
    32
  0
VERTEX
  8
E53LXLIFT
 62
8
 10
4143.918
 20
-8677.114
 30
69.000
 70
    32
  0
VERTEX
  8
E53LXLIFT
 62
8
 10
4140.601
 20
-8668.159
 30
69.000
 70
    32
  0
VERTEX
  8
E53LXLIFT
 62
8
 10
4139.669
 20
-8656.334
 30
69.000
 70
    32
  0
VERTEX
  8
E53LXLIFT
 62
8
 10
4138.880
 20
-8644.408
 30
69.000
 70
    32
  0
VERTEX
  8
E53LXLIFT
 62
8
 10
4148.502
 20
-8634.270
 30
69.000
 70
    32
  0
VERTEX
  8
E53LXLIFT
 62
8
 10
4160.295
 20
-8641.970
 30
69.000
 70
    32
  0
VERTEX
  8
E53LXLIFT
 62
8
 10
4172.795
 20
-8640.775
 30
69.000
 70
    32
  0
VERTEX
  8
E53LXLIFT
 62
8
 10
4182.845
 20
-8631.089
 30
69.000
 70
    32
  0
VERTEX
  8
E53LXLIFT
 62
8
 10
4192.215
 20
-8616.179
 30
69.000
 70
    32
  0
VERTEX
  8
E53LXLIFT
 62
8
 10
4197.001
 20
-8598.590
 30
69.000
 70
    32
  0
VERTEX
  8
E53LXLIFT
 62
8
 10
4200.752
 20
-8579.688
 30
69.000
 70
    32
  0
VERTEX
  8
E53LXLIFT
 62
8
 10
4204.410
 20
-8560.959
 30
69.000
 70
    32
  0
VERTEX
  8
E53LXLIFT
 62
8
 10
4203.645
 20
-8546.326
 30
69.000
 70
    32
  0
VERTEX
  8
E53LXLIFT
 62
8
 10
4206.631
 20
-8533.346
 30
69.000
 70
    32
  0
VERTEX
  8
E53LXLIFT
 62
8
 10
4210.001
 20
-8527.304
 30
69.000
 70
    32
  0
SEQEND
  8
E53LXLIFT
  0
POLYLINE
  8
E53LXLIFT
 62
6
 66
     1
 70
     9
  0
VERTEX
  8
E53LXLIFT
 62
6
 10
4217.552
 20
-8393.650
 30
78.000
 70
    32
  0
VERTEX
  8
E53LXLIFT
 62
6
 10
4226.458
 20
-8387.798
 30
78.000
 70
    32
  0
VERTEX
  8
E53LXLIFT
 62
6
 10
4230.482
 20
-8380.576
 30
78.000
 70
    32
  0
VERTEX
  8
E53LXLIFT
 62
6
 10
4241.844
 20
-8396.252
 30
78.000
 70
    32
  0
VERTEX
  8
E53LXLIFT
 62
6
 10
4256.347
 20
-8420.830
 30
78.000
 70
    32
  0
VERTEX
  8
E53LXLIFT
 62
6
 10
4269.996
 20
-8421.432
 30
78.000
 70
    32
  0
VERTEX
  8
E53LXLIFT
 62
6
 10
4284.808
 20
-8425.315
 30
78.000
 70
    32
  0
VERTEX
  8
E53LXLIFT
 62
6
 10
4288.396
 20
-8433.030
 30
78.000
 70
    32
  0
VERTEX
  8
E53LXLIFT
 62
6
 10
4286.743
 20
-8443.100
 30
78.000
 70
    32
  0
VERTEX
  8
E53LXLIFT
 62
6
 10
4285.705
 20
-8454.028
 30
78.000
 70
    32
  0
VERTEX
  8
E53LXLIFT
 62
6
 10
4280.655
 20
-8464.045
 30
78.000
 70
    32
  0
VERTEX
  8
E53LXLIFT
 62
6
 10
4287.163
 20
-8477.789
 30
78.000
 70
    32
  0
VERTEX
  8
E53LXLIFT
 62
6
 10
4298.051
 20
-8491.747
 30
78.000
 70
    32
  0
VERTEX
  8
E53LXLIFT
 62
6
 10
4303.634
 20
-8503.447
 30
78.000
 70
    32
  0
VERTEX
  8
E53LXLIFT
 62
6
 10
4303.305
 20
-8515.816
 30
78.000
 70
    32
  0
VERTEX
  8
E53LXLIFT
 62
6
 10
4298.470
 20
-8529.904
 30
78.000
 70
    32
  0
VERTEX
  8
E53LXLIFT
 62
6
 10
4300.612
 20
-8540.282
 30
78.000
 70
    32
  0
VERTEX
  8
E53LXLIFT
 62
6
 10
4306.602
 20
-8546.815
 30
78.000
 70
    32
  0
VERTEX
  8
E53LXLIFT
 62
6
 10
4316.869
 20
-8540.744
 30
78.000
 70
    32
  0
VERTEX
  8
E53LXLIFT
 62
6
 10
4327.339
 20
-8529.978
 30
78.000
 70
    32
  0
VERTEX
  8
E53LXLIFT
 62
6
 10
4329.867
 20
-8521.880
 30
78.000
 70
    32
  0
VERTEX
  8
E53LXLIFT
 62
6
 10
4336.035
 20
-8513.119
 30
78.000
 70
    32
  0
VERTEX
  8
E53LXLIFT
 62
6
 10
4337.142
 20
-8501.382
 30
78.000
 70
    32
  0
VERTEX
  8
E53LXLIFT
 62
6
 10
4345.167
 20
-8490.529
 30
78.000
 70
    32
  0
VERTEX
  8
E53LXLIFT
 62
6
 10
4353.042
 20
-8485.201
 30
78.000
 70
    32
  0
VERTEX
  8
E53LXLIFT
 62
6
 10
4358.839
 20
-8488.297
 30
78.000
 70
    32
  0
VERTEX
  8
E53LXLIFT
 62
6
 10
4360.778
 20
-8494.922
 30
78.000
 70
    32
  0
VERTEX
  8
E53LXLIFT
 62
6
 10
4354.112
 20
-8509.024
 30
78.000
 70
    32
  0
VERTEX
  8
E53LXLIFT
 62
6
 10
4353.202
 20
-8530.693
 30
78.000
 70
    32
  0
VERTEX
  8
E53LXLIFT
 62
6
 10
4357.197
 20
-8550.141
 30
78.000
 70
    32
  0
VERTEX
  8
E53LXLIFT
 62
6
 10
4353.844
 20
-8585.156
 30
78.000
 70
    32
  0
VERTEX
  8
E53LXLIFT
 62
6
 10
4350.674
 20
-8594.473
 30
78.000
 70
    32
  0
VERTEX
  8
E53LXLIFT
 62
6
 10
4344.341
 20
-8602.703
 30
78.000
 70
    32
  0
VERTEX
  8
E53LXLIFT
 62
6
 10
4331.362
 20
-8603.788
 30
78.000
 70
    32
  0
VERTEX
  8
E53LXLIFT
 62
6
 10
4322.633
 20
-8602.796
 30
78.000
 70
    32
  0
VERTEX
  8
E53LXLIFT
 62
6
 10
4309.469
 20
-8595.022
 30
78.000
 70
    32
  0
VERTEX
  8
E53LXLIFT
 62
6
 10
4299.220
 20
-8586.781
 30
78.000
 70
    32
  0
VERTEX
  8
E53LXLIFT
 62
6
 10
4289.540
 20
-8577.372
 30
78.000
 70
    32
  0
VERTEX
  8
E53LXLIFT
 62
6
 10
4279.208
 20
-8573.090
 30
78.000
 70
    32
  0
VERTEX
  8
E53LXLIFT
 62
6
 10
4269.653
 20
-8564.458
 30
78.000
 70
    32
  0
VERTEX
  8
E53LXLIFT
 62
6
 10
4263.377
 20
-8553.905
 30
78.000
 70
    32
  0
VERTEX
  8
E53LXLIFT
 62
6
 10
4258.357
 20
-8546.460
 30
78.000
 70
    32
  0
VERTEX
  8
E53LXLIFT
 62
6
 10
4255.921
 20
-8537.484
 30
78.000
 70
    32
  0
VERTEX
  8
E53LXLIFT
 62
6
 10
4245.099
 20
-8525.428
 30
78.000
 70
    32
  0
VERTEX
  8
E53LXLIFT
 62
6
 10
4235.519
 20
-8518.873
 30
78.000
 70
    32
  0
VERTEX
  8
E53LXLIFT
 62
6
 10
4225.681
 20
-8507.736
 30
78.000
 70
    32
  0
VERTEX
  8
E53LXLIFT
 62
6
 10
4217.703
 20
-8491.039
 30
78.000
 70
    32
  0
VERTEX
  8
E53LXLIFT
 62
6
 10
4213.306
 20
-8474.804
 30
78.000
 70
    32
  0
VERTEX
  8
E53LXLIFT
 62
6
 10
4206.721
 20
-8463.066
 30
78.000
 70
    32
  0
VERTEX
  8
E53LXLIFT
 62
6
 10
4206.175
 20
-8457.175
 30
78.000
 70
    32
  0
VERTEX
  8
E53LXLIFT
 62
6
 10
4216.527
 20
-8452.884
 30
78.000
 70
    32
  0
VERTEX
  8
E53LXLIFT
 62
6
 10
4225.333
 20
-8451.871
 30
78.000
 70
    32
  0
VERTEX
  8
E53LXLIFT
 62
6
 10
4236.635
 20
-8459.465
 30
78.000
 70
    32
  0
VERTEX
  8
E53LXLIFT
 62
6
 10
4236.288
 20
-8451.589
 30
78.000
 70
    32
  0
VERTEX
  8
E53LXLIFT
 62
6
 10
4233.129
 20
-8435.116
 30
78.000
 70
    32
  0
VERTEX
  8
E53LXLIFT
 62
6
 10
4226.928
 20
-8417.576
 30
78.000
 70
    32
  0
SEQEND
  8
E53LXLIFT
  0
POLYLINE
  8
E53LXLIFT
 62
3
 66
     1
 70
     9
  0
VERTEX
  8
E53LXLIFT
 62
3
 10
5203.904
 20
-8756.334
 30
-56.000
 70
    32
  0
VERTEX
  8
E53LXLIFT
 62
3
 10
5185.293
 20
-8754.044
 30
-56.000
 70
    32
  0
VERTEX
  8
E53LXLIFT
 62
3
 10
5175.766
 20
-8749.401
 30
-56.000
 70
    32
  0
VERTEX
  8
E53LXLIFT
 62
3
 10
5165.960
 20
-8731.623
 30
-56.000
 70
    32
  0
VERTEX
  8
E53LXLIFT
 62
3
 10
5159.602
 20
-8707.638
 30
-56.000
 70
    32
  0
VERTEX
  8
E53LXLIFT
 62
3
 10
5156.335
 20
-8694.687
 30
-56.000
 70
    32
  0
VERTEX
  8
E53LXLIFT
 62
3
 10
5147.535
 20
-8680.604
 30
-56.000
 70
    32
  0
VERTEX
  8
E53LXLIFT
 62
3
 10
5115.876
 20
-8694.337
 30
-56.000
 70
    32
  0
VERTEX
  8
E53LXLIFT
 62
3
 10
5118.728
 20
-8714.893
 30
-56.000
 70
    32
  0
VERTEX
  8
E53LXLIFT
 62
3
 10
5128.274
 20
-8739.736
 30
-56.000
 70
    32
  0
VERTEX
  8
E53LXLIFT
 62
3
 10
5152.715
 20
-8773.912
 30
-56.000
 70
    32
  0
VERTEX
  8
E53LXLIFT
 62
3
 10
5164.663
 20
-8785.762
 30
-56.000
 70
    32
  0
VERTEX
  8
E53LXLIFT
 62
3
 10
5173.294
 20
-8804.158
 30
-56.000
 70
    32
  0
VERTEX
  8
E53LXLIFT
 62
3
 10
5201.241
 20
-8827.354
 30
-56.000
 70
    32
  0
VERTEX
  8
E53LXLIFT
 62
3
 10
5216.753
 20
-8837.861
 30
-56.000
 70
    32
  0
VERTEX
  8
E53LXLIFT
 62
3
 10
5227.600
 20
-8829.957
 30
-56.000
 70
    32
  0
VERTEX
  8
E53LXLIFT
 62
3
 10
5226.360
 20
-8814.709
 30
-56.000
 70
    32
  0
VERTEX
  8
E53LXLIFT
 62
3
 10
5223.780
 20
-8795.143
 30
-56.000
 70
    32
  0
VERTEX
  8
E53LXLIFT
 62
3
 10
5214.537
 20
-8776.643
 30
-56.000
 70
    32
  0
SEQEND
  8
E53LXLIFT
  0
POLYLINE
  8
E53LXLIFT
 62
6
 66
     1
 70
     9
  0
VERTEX
  8
E53LXLIFT
 62
6
 10
4400.378
 20
-8692.539
 30
-52.000
 70
    32
  0
VERTEX
  8
E53LXLIFT
 62
6
 10
4408.570
 20
-8665.874
 30
-52.000
 70
    32
  0
VERTEX
  8
E53LXLIFT
 62
6
 10
4417.990
 20
-8643.823
 30
-52.000
 70
    32
  0
VERTEX
  8
E53LXLIFT
 62
6
 10
4426.734
 20
-8633.861
 30
-52.000
 70
    32
  0
VERTEX
  8
E53LXLIFT
 62
6
 10
4446.381
 20
-8631.546
 30
-52.000
 70
    32
  0
VERTEX
  8
E53LXLIFT
 62
6
 10
4458.456
 20
-8639.329
 30
-52.000
 70
    32
  0
VERTEX
  8
E53LXLIFT
 62
6
 10
4469.205
 20
-8658.589
 30
-52.000
 70
    32
  0
VERTEX
  8
E53LXLIFT
 62
6
 10
4472.286
 20
-8669.306
 30
-52.000
 70
    32
  0
VERTEX
  8
E53LXLIFT
 62
6
 10
4469.768
 20
-8683.348
 30
-52.000
 70
    32
  0
VERTEX
  8
E53LXLIFT
 62
6
 10
4460.544
 20
-8693.542
 30
-52.000
 70
    32
  0
VERTEX
  8
E53LXLIFT
 62
6
 10
4458.248
 20
-8702.588
 30
-52.000
 70
    32
  0
VERTEX
  8
E53LXLIFT
 62
6
 10
4448.706
 20
-8707.632
 30
-52.000
 70
    32
  0
VERTEX
  8
E53LXLIFT
 62
6
 10
4447.223
 20
-8714.489
 30
-52.000
 70
    32
  0
VERTEX
  8
E53LXLIFT
 62
6
 10
4434.487
 20
-8720.183
 30
-52.000
 70
    32
  0
VERTEX
  8
E53LXLIFT
 62
6
 10
4426.135
 20
-8723.416
 30
-52.000
 70
    32
  0
VERTEX
  8
E53LXLIFT
 62
6
 10
4418.585
 20
-8718.984
 30
-52.000
 70
    32
  0
SEQEND
  8
E53LXLIFT
  0
POLYLINE
  8
E53LXLIFT
 62
7
 66
     1
 70
     9
  0
VERTEX
  8
E53LXLIFT
 62
7
 10
4254.852
 20
-8020.079
 30
-60.000
 70
    32
  0
VERTEX
  8
E53LXLIFT
 62
7
 10
4253.259
 20
-8034.971
 30
-60.000
 70
    32
  0
VERTEX
  8
E53LXLIFT
 62
7
 10
4252.245
 20
-8061.601
 30
-60.000
 70
    32
  0
VERTEX
  8
E53LXLIFT
 62
7
 10
4249.553
 20
-8081.464
 30
-60.000
 70
    32
  0
VERTEX
  8
E53LXLIFT
 62
7
 10
4250.181
 20
-8102.522
 30
-60.000
 70
    32
  0
VERTEX
  8
E53LXLIFT
 62
7
 10
4252.673
 20
-8109.679
 30
-60.000
 70
    32
  0
VERTEX
  8
E53LXLIFT
 62
7
 10
4268.835
 20
-8126.715
 30
-60.000
 70
    32
  0
VERTEX
  8
E53LXLIFT
 62
7
 10
4276.967
 20
-8142.131
 30
-60.000
 70
    32
  0
VERTEX
  8
E53LXLIFT
 62
7
 10
4292.803
 20
-8150.366
 30
-60.000
 70
    32
  0
VERTEX
  8
E53LXLIFT
 62
7
 10
4303.976
 20
-8145.348
 30
-60.000
 70
    32
  0
VERTEX
  8
E53LXLIFT
 62
7
 10
4320.172
 20
-8133.008
 30
-60.000
 70
    32
  0
VERTEX
  8
E53LXLIFT
 62
7
 10
4330.562
 20
-8121.880
 30
-60.000
 70
    32
  0
VERTEX
  8
E53LXLIFT
 62
7
 10
4331.864
 20
-8108.701
 30
-60.000
 70
    32
  0
VERTEX
  8
E53LXLIFT
 62
7
 10
4326.570
 20
-8100.626
 30
-60.000
 70
    32
  0
VERTEX
  8
E53LXLIFT
 62
7
 10
4329.165
 20
-8093.518
 30
-60.000
 70
    32
  0
VERTEX
  8
E53LXLIFT
 62
7
 10
4319.419
 20
-8093.116
 30
-60.000
 70
    32
  0
VERTEX
  8
E53LXLIFT
 62
7
 10
4307.232
 20
-8099.282
 30
-60.000
 70
    32
  0
VERTEX
  8
E53LXLIFT
 62
7
 10
4296.204
 20
-8083.876
 30
-60.000
 70
    32
  0
VERTEX
  8
E53LXLIFT
 62
7
 10
4287.026
 20
-8081.242
 30
-60.000
 70
    32
  0
VERTEX
  8
E53LXLIFT
 62
7
 10
4279.603
 20
-8072.742
 30
-60.000
 70
    32
  0
VERTEX
  8
E53LXLIFT
 62
7
 10
4278.240
 20
-8063.387
 30
-60.000
 70
    32
  0
VERTEX
  8
E53LXLIFT
 62
7
 10
4283.597
 20
-8048.193
 30
-60.000
 70
    32
  0
VERTEX
  8
E53LXLIFT
 62
7
 10
4284.102
 20
-8032.676
 30
-60.000
 70
    32
  0
VERTEX
  8
E53LXLIFT
 62
7
 10
4280.090
 20
-8022.618
 30
-60.000
 70
    32
  0
VERTEX
  8
E53LXLIFT
 62
7
 10
4267.912
 20
-8020.606
 30
-60.000
 70
    32
  0
SEQEND
  8
E53LXLIFT
  0
POLYLINE
  8
E53LXLIFT
 62
3
 66
     1
 70
     9
  0
VERTEX
  8
E53LXLIFT
 62
3
 10
5128.230
 20
-8665.272
 30
-46.000
 70
    32
  0
VERTEX
  8
E53LXLIFT
 62
3
 10
5136.201
 20
-8675.525
 30
-46.000
 70
    32
  0
VERTEX
  8
E53LXLIFT
 62
3
 10
5143.313
 20
-8689.348
 30
-46.000
 70
    32
  0
VERTEX
  8
E53LXLIFT
 62
3
 10
5150.125
 20
-8708.835
 30
-46.000
 70
    32
  0
VERTEX
  8
E53LXLIFT
 62
3
 10
5155.190
 20
-8722.094
 30
-46.000
 70
    32
  0
VERTEX
  8
E53LXLIFT
 62
3
 10
5170.424
 20
-8741.487
 30
-46.000
 70
    32
  0
VERTEX
  8
E53LXLIFT
 62
3
 10
5181.063
 20
-8758.923
 30
-46.000
 70
    32
  0
VERTEX
  8
E53LXLIFT
 62
3
 10
5192.532
 20
-8772.156
 30
-46.000
 70
    32
  0
VERTEX
  8
E53LXLIFT
 62
3
 10
5174.721
 20
-8788.949
 30
-46.000
 70
    32
  0
VERTEX
  8
E53LXLIFT
 62
3
 10
5168.390
 20
-8786.853
 30
-46.000
 70
    32
  0
VERTEX
  8
E53LXLIFT
 62
3
 10
5155.043
 20
-8771.952
 30
-46.000
 70
    32
  0
VERTEX
  8
E53LXLIFT
 62
3
 10
5138.832
 20
-8748.269
 30
-46.000
 70
    32
  0
VERTEX
  8
E53LXLIFT
 62
3
 10
5120.541
 20
-8727.532
 30
-46.000
 70
    32
  0
VERTEX
  8
E53LXLIFT
 62
3
 10
5107.610
 20
-8700.459
 30
-46.000
 70
    32
  0
VERTEX
  8
E53LXLIFT
 62
3
 10
5102.276
 20
-8678.689
 30
-46.000
 70
    32
  0
SEQEND
  8
E53LXLIFT
  0
POLYLINE
  8
E53LXLIFT
 62
6
 66
     1
 70
     9
  0
VERTEX
  8
E53LXLIFT
 62
6
 10
4399.158
 20
-8701.816
 30
-43.000
 70
    32
  0
VERTEX
  8
E53LXLIFT
 62
6
 10
4402.429
 20
-8679.164
 30
-43.000
 70
    32
  0
VERTEX
  8
E53LXLIFT
 62
6
 10
4403.676
 20
-8668.123
 30
-43.000
 70
    32
  0
VERTEX
  8
E53LXLIFT
 62
6
 10
4418.254
 20
-8644.562
 30
-43.000
 70
    32
  0
VERTEX
  8
E53LXLIFT
 62
6
 10
4430.292
 20
-8635.169
 30
-43.000
 70
    32
  0
VERTEX
  8
E53LXLIFT
 62
6
 10
4442.924
 20
-8629.695
 30
-43.000
 70
    32
  0
VERTEX
  8
E53LXLIFT
 62
6
 10
4461.752
 20
-8645.684
 30
-43.000
 70
    32
  0
VERTEX
  8
E53LXLIFT
 62
6
 10
4469.437
 20
-8665.617
 30
-43.000
 70
    32
  0
VERTEX
  8
E53LXLIFT
 62
6
 10
4459.421
 20
-8690.942
 30
-43.000
 70
    32
  0
VERTEX
  8
E53LXLIFT
 62
6
 10
4446.255
 20
-8708.131
 30
-43.000
 70
    32
  0
VERTEX
  8
E53LXLIFT
 62
6
 10
4434.279
 20
-8718.348
 30
-43.000
 70
    32
  0
VERTEX
  8
E53LXLIFT
 62
6
 10
4422.898
 20
-8716.046
 30
-43.000
 70
    32
  0
VERTEX
  8
E53LXLIFT
 62
6
 10
4409.012
 20
-8713.297
 30
-43.000
 70
    32
  0
SEQEND
  8
E53LXLIFT
  0
POLYLINE
  8
E53LXLIFT
 62
8
 66
     1
 70
     9
  0
VERTEX
  8
E53LXLIFT
 62
8
 10
4402.002
 20
-8207.019
 30
-49.000
 70
    32
  0
VERTEX
  8
E53LXLIFT
 62
8
 10
4408.430
 20
-8215.467
 30
-49.000
 70
    32
  0
VERTEX
  8
E53LXLIFT
 62
8
 10
4440.076
 20
-8244.895
 30
-49.000
 70
    32
  0
VERTEX
  8
E53LXLIFT
 62
8
 10
4444.407
 20
-8259.674
 30
-49.000
 70
    32
  0
VERTEX
  8
E53LXLIFT
 62
8
 10
4451.385
 20
-8280.127
 30
-49.000
 70
    32
  0
VERTEX
  8
E53LXLIFT
 62
8
 10
4450.646
 20
-8298.524
 30
-49.000
 70
    32
  0
VERTEX
  8
E53LXLIFT
 62
8
 10
4448.385
 20
-8305.520
 30
-49.000
 70
    32
  0
VERTEX
  8
E53LXLIFT
 62
8
 10
4451.067
 20
-8329.458
 30
-49.000
 70
    32
  0
VERTEX
  8
E53LXLIFT
 62
8
 10
4442.825
 20
-8334.536
 30
-49.000
 70
    32
  0
VERTEX
  8
E53LXLIFT
 62
8
 10
4434.243
 20
-8334.857
 30
-49.000
 70
    32
  0
VERTEX
  8
E53LXLIFT
 62
8
 10
4425.502
 20
-8328.000
 30
-49.000
 70
    32
  0
VERTEX
  8
E53LXLIFT
 62
8
 10
4420.478
 20
-8314.057
 30
-49.000
 70
    32
  0
VERTEX
  8
E53LXLIFT
 62
8
 10
4409.858
 20
-8296.499
 30
-49.000
 70
    32
  0
VERTEX
  8
E53LXLIFT
 62
8
 10
4403.233
 20
-8279.487
 30
-49.000
 70
    32
  0
VERTEX
  8
E53LXLIFT
 62
8
 10
4397.689
 20
-8259.504
 30
-49.000
 70
    32
  0
VERTEX
  8
E53LXLIFT
 62
8
 10
4400.753
 20
-8245.604
 30
-49.000
 70
    32
  0
VERTEX
  8
E53LXLIFT
 62
8
 10
4395.525
 20
-8238.343
 30
-49.000
 70
    32
  0
VERTEX
  8
E53LXLIFT
 62
8
 10
4400.789
 20
-8218.253
 30
-49.000
 70
    32
  0
VERTEX
  8
E53LXLIFT
 62
8
 10
4396.554
 20
-8209.826
 30
-49.000
 70
    32
  0
SEQEND
  8
E53LXLIFT
  0
POLYLINE
  8
E53LXLIFT
 62
7
 66
     1
 70
     9
  0
VERTEX
  8
E53LXLIFT
 62
7
 10
4235.835
 20
-8097.065
 30
-50.000
 70
    32
  0
VERTEX
  8
E53LXLIFT
 62
7
 10
4237.399
 20
-8082.308
 30
-50.000
 70
    32
  0
VERTEX
  8
E53LXLIFT
 62
7
 10
4238.089
 20
-8067.104
 30
-50.000
 70
    32
  0
VERTEX
  8
E53LXLIFT
 62
7
 10
4234.875
 20
-8051.179
 30
-50.000
 70
    32
  0
VERTEX
  8
E53LXLIFT
 62
7
 10
4235.798
 20
-8037.328
 30
-50.000
 70
    32
  0
VERTEX
  8
E53LXLIFT
 62
7
 10
4243.064
 20
-8024.258
 30
-50.000
 70
    32
  0
VERTEX
  8
E53LXLIFT
 62
7
 10
4259.821
 20
-8009.437
 30
-50.000
 70
    32
  0
VERTEX
  8
E53LXLIFT
 62
7
 10
4278.830
 20
-8013.971
 30
-50.000
 70
    32
  0
VERTEX
  8
E53LXLIFT
 62
7
 10
4280.737
 20
-8032.709
 30
-50.000
 70
    32
  0
VERTEX
  8
E53LXLIFT
 62
7
 10
4272.417
 20
-8044.050
 30
-50.000
 70
    32
  0
VERTEX
  8
E53LXLIFT
 62
7
 10
4271.575
 20
-8058.603
 30
-50.000
 70
    32
  0
VERTEX
  8
E53LXLIFT
 62
7
 10
4273.818
 20
-8069.800
 30
-50.000
 70
    32
  0
VERTEX
  8
E53LXLIFT
 62
7
 10
4285.773
 20
-8083.547
 30
-50.000
 70
    32
  0
VERTEX
  8
E53LXLIFT
 62
7
 10
4302.743
 20
-8095.676
 30
-50.000
 70
    32
  0
VERTEX
  8
E53LXLIFT
 62
7
 10
4316.044
 20
-8106.365
 30
-50.000
 70
    32
  0
VERTEX
  8
E53LXLIFT
 62
7
 10
4326.486
 20
-8116.870
 30
-50.000
 70
    32
  0
VERTEX
  8
E53LXLIFT
 62
7
 10
4325.763
 20
-8128.178
 30
-50.000
 70
    32
  0
VERTEX
  8
E53LXLIFT
 62
7
 10
4314.825
 20
-8138.178
 30
-50.000
 70
    32
  0
VERTEX
  8
E53LXLIFT
 62
7
 10
4301.488
 20
-8145.804
 30
-50.000
 70
    32
  0
VERTEX
  8
E53LXLIFT
 62
7
 10
4292.881
 20
-8145.054
 30
-50.000
 70
    32
  0
VERTEX
  8
E53LXLIFT
 62
7
 10
4286.864
 20
-8145.014
 30
-50.000
 70
    32
  0
VERTEX
  8
E53LXLIFT
 62
7
 10
4283.345
 20
-8147.927
 30
-50.000
 70
    32
  0
VERTEX
  8
E53LXLIFT
 62
7
 10
4274.426
 20
-8134.016
 30
-50.000
 70
    32
  0
VERTEX
  8
E53LXLIFT
 62
7
 10
4269.090
 20
-8123.351
 30
-50.000
 70
    32
  0
VERTEX
  8
E53LXLIFT
 62
7
 10
4260.988
 20
-8113.957
 30
-50.000
 70
    32
  0
VERTEX
  8
E53LXLIFT
 62
7
 10
4245.220
 20
-8106.278
 30
-50.000
 70
    32
  0
SEQEND
  8
E53LXLIFT
  0
POLYLINE
  8
E53LXLIFT
 62
3
 66
     1
 70
     9
  0
VERTEX
  8
E53LXLIFT
 62
3
 10
5162.453
 20
-8717.788
 30
-36.000
 70
    32
  0
VERTEX
  8
E53LXLIFT
 62
3
 10
5155.578
 20
-8708.691
 30
-36.000
 70
    32
  0
VERTEX
  8
E53LXLIFT
 62
3
 10
5156.989
 20
-8696.545
 30
-36.000
 70
    32
  0
VERTEX
  8
E53LXLIFT
 62
3
 10
5147.074
 20
-8686.828
 30
-36.000
 70
    32
  0
VERTEX
  8
E53LXLIFT
 62
3
 10
5145.689
 20
-8676.802
 30
-36.000
 70
    32
  0
VERTEX
  8
E53LXLIFT
 62
3
 10
5143.152
 20
-8669.228
 30
-36.000
 70
    32
  0
VERTEX
  8
E53LXLIFT
 62
3
 10
5133.223
 20
-8655.739
 30
-36.000
 70
    32
  0
VERTEX
  8
E53LXLIFT
 62
3
 10
5108.036
 20
-8656.478
 30
-36.000
 70
    32
  0
VERTEX
  8
E53LXLIFT
 62
3
 10
5096.805
 20
-8670.293
 30
-36.000
 70
    32
  0
VERTEX
  8
E53LXLIFT
 62
3
 10
5100.378
 20
-8674.204
 30
-36.000
 70
    32
  0
VERTEX
  8
E53LXLIFT
 62
3
 10
5098.839
 20
-8684.822
 30
-36.000
 70
    32
  0
VERTEX
  8
E53LXLIFT
 62
3
 10
5109.588
 20
-8696.748
 30
-36.000
 70
    32
  0
VERTEX
  8
E53LXLIFT
 62
3
 10
5116.985
 20
-8719.625
 30
-36.000
 70
    32
  0
VERTEX
  8
E53LXLIFT
 62
3
 10
5125.697
 20
-8731.722
 30
-36.000
 70
    32
  0
VERTEX
  8
E53LXLIFT
 62
3
 10
5136.961
 20
-8734.309
 30
-36.000
 70
    32
  0
SEQEND
  8
E53LXLIFT
  0
POLYLINE
  8
E53LXLIFT
 62
6
 66
     1
 70
     9
  0
VERTEX
  8
E53LXLIFT
 62
6
 10
4323.623
 20
-8589.407
 30
-33.000
 70
    32
  0
VERTEX
  8
E53LXLIFT
 62
6
 10
4328.552
 20
-8603.904
 30
-33.000
 70
    32
  0
VERTEX
  8
E53LXLIFT
 62
6
 10
4335.902
 20
-8612.011
 30
-33.000
 70
    32
  0
VERTEX
  8
E53LXLIFT
 62
6
 10
4344.679
 20
-8619.847
 30
-33.000
 70
    32
  0
VERTEX
  8
E53LXLIFT
 62
6
 10
4346.331
 20
-8633.245
 30
-33.000
 70
    32
  0
VERTEX
  8
E53LXLIFT
 62
6
 10
4349.458
 20
-8648.391
 30
-33.000
 70
    32
  0
VERTEX
  8
E53LXLIFT
 62
6
 10
4349.825
 20
-8656.555
 30
-33.000
 70
    32
  0
VERTEX
  8
E53LXLIFT
 62
6
 10
4344.235
 20
-8663.499
 30
-33.000
 70
    32
  0
VERTEX
  8
E53LXLIFT
 62
6
 10
4344.031
 20
-8674.019
 30
-33.000
 70
    32
  0
VERTEX
  8
E53LXLIFT
 62
6
 10
4347.704
 20
-8682.721
 30
-33.000
 70
    32
  0
VERTEX
  8
E53LXLIFT
 62
6
 10
4361.567
 20
-8690.568
 30
-33.000
 70
    32
  0
VERTEX
  8
E53LXLIFT
 62
6
 10
4371.303
 20
-8698.685
 30
-33.000
 70
    32
  0
VERTEX
  8
E53LXLIFT
 62
6
 10
4382.425
 20
-8704.076
 30
-33.000
 70
    32
  0
VERTEX
  8
E53LXLIFT
 62
6
 10
4394.258
 20
-8703.551
 30
-33.000
 70
    32
  0
VERTEX
  8
E53LXLIFT
 62
6
 10
4410.089
 20
-8713.980
 30
-33.000
 70
    32
  0
VERTEX
  8
E53LXLIFT
 62
6
 10
4428.261
 20
-8713.104
 30
-33.000
 70
    32
  0
VERTEX
  8
E53LXLIFT
 62
6
 10
4439.046
 20
-8710.525
 30
-33.000
 70
    32
  0
VERTEX
  8
E53LXLIFT
 62
6
 10
4455.530
 20
-8697.250
 30
-33.000
 70
    32
  0
VERTEX
  8
E53LXLIFT
 62
6
 10
4452.438
 20
-8685.753
 30
-33.000
 70
    32
  0
VERTEX
  8
E53LXLIFT
 62
6
 10
4443.444
 20
-8671.914
 30
-33.000
 70
    32
  0
VERTEX
  8
E53LXLIFT
 62
6
 10
4449.322
 20
-8665.520
 30
-33.000
 70
    32
  0
VERTEX
  8
E53LXLIFT
 62
6
 10
4451.475
 20
-8644.950
 30
-33.000
 70
    32
  0
VERTEX
  8
E53LXLIFT
 62
6
 10
4455.000
 20
-8625.986
 30
-33.000
 70
    32
  0
VERTEX
  8
E53LXLIFT
 62
6
 10
4453.815
 20
-8606.633
 30
-33.000
 70
    32
  0
VERTEX
  8
E53LXLIFT
 62
6
 10
4447.562
 20
-8592.548
 30
-33.000
 70
    32
  0
VERTEX
  8
E53LXLIFT
 62
6
 10
4443.941
 20
-8586.619
 30
-33.000
 70
    32
  0
VERTEX
  8
E53LXLIFT
 62
6
 10
4436.464
 20
-8593.193
 30
-33.000
 70
    32
  0
VERTEX
  8
E53LXLIFT
 62
6
 10
4438.233
 20
-8610.505
 30
-33.000
 70
    32
  0
VERTEX
  8
E53LXLIFT
 62
6
 10
4432.891
 20
-8626.347
 30
-33.000
 70
    32
  0
VERTEX
  8
E53LXLIFT
 62
6
 10
4421.344
 20
-8637.472
 30
-33.000
 70
    32
  0
VERTEX
  8
E53LXLIFT
 62
6
 10
4407.066
 20
-8649.158
 30
-33.000
 70
    32
  0
VERTEX
  8
E53LXLIFT
 62
6
 10
4395.721
 20
-8665.217
 30
-33.000
 70
    32
  0
VERTEX
  8
E53LXLIFT
 62
6
 10
4382.604
 20
-8663.208
 30
-33.000
 70
    32
  0
VERTEX
  8
E53LXLIFT
 62
6
 10
4368.991
 20
-8656.910
 30
-33.000
 70
    32
  0
VERTEX
  8
E53LXLIFT
 62
6
 10
4360.357
 20
-8651.673
 30
-33.000
 70
    32
  0
VERTEX
  8
E53LXLIFT
 62
6
 10
4356.343
 20
-8638.895
 30
-33.000
 70
    32
  0
VERTEX
  8
E53LXLIFT
 62
6
 10
4355.581
 20
-8615.778
 30
-33.000
 70
    32
  0
VERTEX
  8
E53LXLIFT
 62
6
 10
4356.917
 20
-8594.824
 30
-33.000
 70
    32
  0
VERTEX
  8
E53LXLIFT
 62
6
 10
4354.466
 20
-8588.269
 30
-33.000
 70
    32
  0
VERTEX
  8
E53LXLIFT
 62
6
 10
4343.390
 20
-8589.545
 30
-33.000
 70
    32
  0
VERTEX
  8
E53LXLIFT
 62
6
 10
4341.895
 20
-8585.218
 30
-33.000
 70
    32
  0
SEQEND
  8
E53LXLIFT
  0
POLYLINE
  8
E53LXLIFT
 62
8
 66
     1
 70
     9
  0
VERTEX
  8
E53LXLIFT
 62
8
 10
4419.448
 20
-8217.073
 30
-38.000
 70
    32
  0
VERTEX
  8
E53LXLIFT
 62
8
 10
4428.174
 20
-8232.942
 30
-38.000
 70
    32
  0
VERTEX
  8
E53LXLIFT
 62
8
 10
4443.633
 20
-8249.906
 30
-38.000
 70
    32
  0
VERTEX
  8
E53LXLIFT
 62
8
 10
4455.680
 20
-8265.436
 30
-38.000
 70
    32
  0
VERTEX
  8
E53LXLIFT
 62
8
 10
4458.317
 20
-8272.399
 30
-38.000
 70
    32
  0
VERTEX
  8
E53LXLIFT
 62
8
 10
4451.879
 20
-8289.570
 30
-38.000
 70
    32
  0
VERTEX
  8
E53LXLIFT
 62
8
 10
4451.837
 20
-8297.164
 30
-38.000
 70
    32
  0
VERTEX
  8
E53LXLIFT
 62
8
 10
4456.440
 20
-8332.968
 30
-38.000
 70
    32
  0
VERTEX
  8
E53LXLIFT
 62
8
 10
4449.732
 20
-8343.310
 30
-38.000
 70
    32
  0
VERTEX
  8
E53LXLIFT
 62
8
 10
4445.641
 20
-8347.984
 30
-38.000
 70
    32
  0
VERTEX
  8
E53LXLIFT
 62
8
 10
4447.818
 20
-8367.813
 30
-38.000
 70
    32
  0
VERTEX
  8
E53LXLIFT
 62
8
 10
4440.650
 20
-8367.463
 30
-38.000
 70
    32
  0
VERTEX
  8
E53LXLIFT
 62
8
 10
4438.781
 20
-8345.360
 30
-38.000
 70
    32
  0
VERTEX
  8
E53LXLIFT
 62
8
 10
4432.853
 20
-8322.722
 30
-38.000
 70
    32
  0
VERTEX
  8
E53LXLIFT
 62
8
 10
4415.775
 20
-8300.657
 30
-38.000
 70
    32
  0
VERTEX
  8
E53LXLIFT
 62
8
 10
4409.150
 20
-8287.706
 30
-38.000
 70
    32
  0
VERTEX
  8
E53LXLIFT
 62
8
 10
4402.677
 20
-8261.461
 30
-38.000
 70
    32
  0
VERTEX
  8
E53LXLIFT
 62
8
 10
4401.062
 20
-8247.063
 30
-38.000
 70
    32
  0
VERTEX
  8
E53LXLIFT
 62
8
 10
4393.470
 20
-8242.373
 30
-38.000
 70
    32
  0
VERTEX
  8
E53LXLIFT
 62
8
 10
4398.746
 20
-8228.091
 30
-38.000
 70
    32
  0
VERTEX
  8
E53LXLIFT
 62
8
 10
4403.169
 20
-8217.126
 30
-38.000
 70
    32
  0
VERTEX
  8
E53LXLIFT
 62
8
 10
4407.832
 20
-8215.497
 30
-38.000
 70
    32
  0
SEQEND
  8
E53LXLIFT
  0
POLYLINE
  8
E53LXLIFT
 62
3
 66
     1
 70
     9
  0
VERTEX
  8
E53LXLIFT
 62
3
 10
4295.268
 20
-8191.088
 30
-39.000
 70
    32
  0
VERTEX
  8
E53LXLIFT
 62
3
 10
4306.287
 20
-8188.232
 30
-39.000
 70
    32
  0
VERTEX
  8
E53LXLIFT
 62
3
 10
4317.464
 20
-8202.553
 30
-39.000
 70
    32
  0
VERTEX
  8
E53LXLIFT
 62
3
 10
4317.837
 20
-8209.524
 30
-39.000
 70
    32
  0
VERTEX
  8
E53LXLIFT
 62
3
 10
4323.653
 20
-8216.250
 30
-39.000
 70
    32
  0
VERTEX
  8
E53LXLIFT
 62
3
 10
4330.116
 20
-8224.023
 30
-39.000
 70
    32
  0
VERTEX
  8
E53LXLIFT
 62
3
 10
4325.616
 20
-8233.531
 30
-39.000
 70
    32
  0
VERTEX
  8
E53LXLIFT
 62
3
 10
4317.900
 20
-8244.274
 30
-39.000
 70
    32
  0
VERTEX
  8
E53LXLIFT
 62
3
 10
4309.618
 20
-8266.988
 30
-39.000
 70
    32
  0
VERTEX
  8
E53LXLIFT
 62
3
 10
4303.224
 20
-8287.370
 30
-39.000
 70
    32
  0
VERTEX
  8
E53LXLIFT
 62
3
 10
4286.273
 20
-8295.794
 30
-39.000
 70
    32
  0
VERTEX
  8
E53LXLIFT
 62
3
 10
4275.066
 20
-8294.787
 30
-39.000
 70
    32
  0
VERTEX
  8
E53LXLIFT
 62
3
 10
4267.439
 20
-8283.746
 30
-39.000
 70
    32
  0
VERTEX
  8
E53LXLIFT
 62
3
 10
4262.921
 20
-8269.818
 30
-39.000
 70
    32
  0
VERTEX
  8
E53LXLIFT
 62
3
 10
4266.378
 20
-8251.660
 30
-39.000
 70
    32
  0
VERTEX
  8
E53LXLIFT
 62
3
 10
4274.959
 20
-8235.214
 30
-39.000
 70
    32
  0
VERTEX
  8
E53LXLIFT
 62
3
 10
4278.441
 20
-8213.040
 30
-39.000
 70
    32
  0
VERTEX
  8
E53LXLIFT
 62
3
 10
4283.999
 20
-8197.799
 30
-39.000
 70
    32
  0
SEQEND
  8
E53LXLIFT
  0
POLYLINE
  8
E53LXLIFT
 62
7
 66
     1
 70
     9
  0
VERTEX
  8
E53LXLIFT
 62
7
 10
4271.225
 20
-8033.451
 30
-40.000
 70
    32
  0
VERTEX
  8
E53LXLIFT
 62
7
 10
4276.357
 20
-8032.024
 30
-40.000
 70
    32
  0
VERTEX
  8
E53LXLIFT
 62
7
 10
4274.361
 20
-8021.899
 30
-40.000
 70
    32
  0
VERTEX
  8
E53LXLIFT
 62
7
 10
4265.123
 20
-8013.423
 30
-40.000
 70
    32
  0
VERTEX
  8
E53LXLIFT
 62
7
 10
4252.120
 20
-8014.574
 30
-40.000
 70
    32
  0
VERTEX
  8
E53LXLIFT
 62
7
 10
4241.184
 20
-8020.396
 30
-40.000
 70
    32
  0
VERTEX
  8
E53LXLIFT
 62
7
 10
4236.070
 20
-8031.752
 30
-40.000
 70
    32
  0
VERTEX
  8
E53LXLIFT
 62
7
 10
4231.633
 20
-8044.348
 30
-40.000
 70
    32
  0
VERTEX
  8
E53LXLIFT
 62
7
 10
4230.977
 20
-8059.193
 30
-40.000
 70
    32
  0
VERTEX
  8
E53LXLIFT
 62
7
 10
4230.232
 20
-8066.861
 30
-40.000
 70
    32
  0
VERTEX
  8
E53LXLIFT
 62
7
 10
4235.043
 20
-8074.743
 30
-40.000
 70
    32
  0
VERTEX
  8
E53LXLIFT
 62
7
 10
4232.456
 20
-8086.007
 30
-40.000
 70
    32
  0
VERTEX
  8
E53LXLIFT
 62
7
 10
4237.686
 20
-8096.721
 30
-40.000
 70
    32
  0
VERTEX
  8
E53LXLIFT
 62
7
 10
4245.410
 20
-8103.695
 30
-40.000
 70
    32
  0
VERTEX
  8
E53LXLIFT
 62
7
 10
4255.703
 20
-8105.684
 30
-40.000
 70
    32
  0
VERTEX
  8
E53LXLIFT
 62
7
 10
4268.932
 20
-8118.202
 30
-40.000
 70
    32
  0
VERTEX
  8
E53LXLIFT
 62
7
 10
4277.364
 20
-8132.012
 30
-40.000
 70
    32
  0
VERTEX
  8
E53LXLIFT
 62
7
 10
4287.778
 20
-8144.072
 30
-40.000
 70
    32
  0
VERTEX
  8
E53LXLIFT
 62
7
 10
4299.981
 20
-8136.258
 30
-40.000
 70
    32
  0
VERTEX
  8
E53LXLIFT
 62
7
 10
4314.119
 20
-8125.428
 30
-40.000
 70
    32
  0
VERTEX
  8
E53LXLIFT
 62
7
 10
4318.259
 20
-8110.020
 30
-40.000
 70
    32
  0
VERTEX
  8
E53LXLIFT
 62
7
 10
4310.595
 20
-8097.276
 30
-40.000
 70
    32
  0
VERTEX
  8
E53LXLIFT
 62
7
 10
4292.391
 20
-8092.555
 30
-40.000
 70
    32
  0
VERTEX
  8
E53LXLIFT
 62
7
 10
4275.664
 20
-8084.933
 30
-40.000
 70
    32
  0
VERTEX
  8
E53LXLIFT
 62
7
 10
4262.888
 20
-8073.494
 30
-40.000
 70
    32
  0
VERTEX
  8
E53LXLIFT
 62
7
 10
4263.647
 20
-8061.493
 30
-40.000
 70
    32
  0
VERTEX
  8
E53LXLIFT
 62
7
 10
4260.532
 20
-8046.663
 30
-40.000
 70
    32
  0
SEQEND
  8
E53LXLIFT
  0
POLYLINE
  8
E53LXLIFT
 62
8
 66
     1
 70
     9
  0
VERTEX
  8
E53LXLIFT
 62
8
 10
4422.950
 20
-8378.831
 30
-28.000
 70
    32
  0
VERTEX
  8
E53LXLIFT
 62
8
 10
4436.190
 20
-8355.914
 30
-28.000
 70
    32
  0
VERTEX
  8
E53LXLIFT
 62
8
 10
4440.218
 20
-8325.928
 30
-28.000
 70
    32
  0
VERTEX
  8
E53LXLIFT
 62
8
 10
4440.140
 20
-8289.365
 30
-28.000
 70
    32
  0
VERTEX
  8
E53LXLIFT
 62
8
 10
4430.298
 20
-8254.381
 30
-28.000
 70
    32
  0
VERTEX
  8
E53LXLIFT
 62
8
 10
4401.653
 20
-8214.638
 30
-28.000
 70
    32
  0
VERTEX
  8
E53LXLIFT
 62
8
 10
4389.749
 20
-8230.075
 30
-28.000
 70
    32
  0
VERTEX
  8
E53LXLIFT
 62
8
 10
4384.730
 20
-8244.702
 30
-28.000
 70
    32
  0
VERTEX
  8
E53LXLIFT
 62
8
 10
4389.766
 20
-8251.716
 30
-28.000
 70
    32
  0
VERTEX
  8
E53LXLIFT
 62
8
 10
4396.346
 20
-8254.082
 30
-28.000
 70
    32
  0
VERTEX
  8
E53LXLIFT
 62
8
 10
4400.285
 20
-8261.515
 30
-28.000
 70
    32
  0
VERTEX
  8
E53LXLIFT
 62
8
 10
4399.198
 20
-8276.150
 30
-28.000
 70
    32
  0
VERTEX
  8
E53LXLIFT
 62
8
 10
4399.491
 20
-8293.784
 30
-28.000
 70
    32
  0
VERTEX
  8
E53LXLIFT
 62
8
 10
4402.349
 20
-8305.764
 30
-28.000
 70
    32
  0
VERTEX
  8
E53LXLIFT
 62
8
 10
4414.134
 20
-8320.443
 30
-28.000
 70
    32
  0
VERTEX
  8
E53LXLIFT
 62
8
 10
4414.862
 20
-8336.830
 30
-28.000
 70
    32
  0
VERTEX
  8
E53LXLIFT
 62
8
 10
4406.633
 20
-8355.207
 30
-28.000
 70
    32
  0
VERTEX
  8
E53LXLIFT
 62
8
 10
4409.908
 20
-8373.170
 30
-28.000
 70
    32
  0
SEQEND
  8
E53LXLIFT
  0
POLYLINE
  8
E53LXLIFT
 62
3
 66
     1
 70
     9
  0
VERTEX
  8
E53LXLIFT
 62
3
 10
4331.208
 20
-8225.409
 30
-27.000
 70
    32
  0
VERTEX
  8
E53LXLIFT
 62
3
 10
4323.543
 20
-8238.313
 30
-27.000
 70
    32
  0
VERTEX
  8
E53LXLIFT
 62
3
 10
4324.397
 20
-8261.513
 30
-27.000
 70
    32
  0
VERTEX
  8
E53LXLIFT
 62
3
 10
4329.871
 20
-8279.906
 30
-27.000
 70
    32
  0
VERTEX
  8
E53LXLIFT
 62
3
 10
4342.922
 20
-8311.140
 30
-27.000
 70
    32
  0
VERTEX
  8
E53LXLIFT
 62
3
 10
4356.321
 20
-8338.318
 30
-27.000
 70
    32
  0
VERTEX
  8
E53LXLIFT
 62
3
 10
4373.970
 20
-8365.186
 30
-27.000
 70
    32
  0
VERTEX
  8
E53LXLIFT
 62
3
 10
4375.917
 20
-8375.338
 30
-27.000
 70
    32
  0
VERTEX
  8
E53LXLIFT
 62
3
 10
4353.060
 20
-8388.061
 30
-27.000
 70
    32
  0
VERTEX
  8
E53LXLIFT
 62
3
 10
4343.063
 20
-8386.295
 30
-27.000
 70
    32
  0
VERTEX
  8
E53LXLIFT
 62
3
 10
4332.773
 20
-8355.220
 30
-27.000
 70
    32
  0
VERTEX
  8
E53LXLIFT
 62
3
 10
4317.043
 20
-8325.683
 30
-27.000
 70
    32
  0
VERTEX
  8
E53LXLIFT
 62
3
 10
4296.770
 20
-8302.173
 30
-27.000
 70
    32
  0
VERTEX
  8
E53LXLIFT
 62
3
 10
4282.182
 20
-8283.011
 30
-27.000
 70
    32
  0
VERTEX
  8
E53LXLIFT
 62
3
 10
4282.834
 20
-8251.793
 30
-27.000
 70
    32
  0
VERTEX
  8
E53LXLIFT
 62
3
 10
4271.488
 20
-8225.144
 30
-27.000
 70
    32
  0
VERTEX
  8
E53LXLIFT
 62
3
 10
4262.721
 20
-8196.017
 30
-27.000
 70
    32
  0
VERTEX
  8
E53LXLIFT
 62
3
 10
4257.734
 20
-8189.077
 30
-27.000
 70
    32
  0
VERTEX
  8
E53LXLIFT
 62
3
 10
4269.403
 20
-8175.815
 30
-27.000
 70
    32
  0
VERTEX
  8
E53LXLIFT
 62
3
 10
4282.126
 20
-8175.322
 30
-27.000
 70
    32
  0
VERTEX
  8
E53LXLIFT
 62
3
 10
4290.623
 20
-8174.701
 30
-27.000
 70
    32
  0
VERTEX
  8
E53LXLIFT
 62
3
 10
4298.319
 20
-8192.767
 30
-27.000
 70
    32
  0
VERTEX
  8
E53LXLIFT
 62
3
 10
4307.166
 20
-8211.758
 30
-27.000
 70
    32
  0
VERTEX
  8
E53LXLIFT
 62
3
 10
4312.419
 20
-8217.989
 30
-27.000
 70
    32
  0
VERTEX
  8
E53LXLIFT
 62
3
 10
4324.258
 20
-8216.181
 30
-27.000
 70
    32
  0
SEQEND
  8
E53LXLIFT
  0
POLYLINE
  8
E53LXLIFT
 62
7
 66
     1
 70
     9
  0
VERTEX
  8
E53LXLIFT
 62
7
 10
4263.131
 20
-8036.009
 30
-29.000
 70
    32
  0
VERTEX
  8
E53LXLIFT
 62
7
 10
4275.106
 20
-8025.725
 30
-29.000
 70
    32
  0
VERTEX
  8
E53LXLIFT
 62
7
 10
4281.473
 20
-8018.151
 30
-29.000
 70
    32
  0
VERTEX
  8
E53LXLIFT
 62
7
 10
4276.354
 20
-8008.647
 30
-29.000
 70
    32
  0
VERTEX
  8
E53LXLIFT
 62
7
 10
4261.541
 20
-8005.875
 30
-29.000
 70
    32
  0
VERTEX
  8
E53LXLIFT
 62
7
 10
4250.016
 20
-8006.729
 30
-29.000
 70
    32
  0
VERTEX
  8
E53LXLIFT
 62
7
 10
4244.696
 20
-8013.810
 30
-29.000
 70
    32
  0
VERTEX
  8
E53LXLIFT
 62
7
 10
4240.235
 20
-8021.693
 30
-29.000
 70
    32
  0
VERTEX
  8
E53LXLIFT
 62
7
 10
4228.557
 20
-8026.895
 30
-29.000
 70
    32
  0
VERTEX
  8
E53LXLIFT
 62
7
 10
4228.568
 20
-8035.590
 30
-29.000
 70
    32
  0
VERTEX
  8
E53LXLIFT
 62
7
 10
4227.027
 20
-8046.710
 30
-29.000
 70
    32
  0
VERTEX
  8
E53LXLIFT
 62
7
 10
4224.351
 20
-8061.034
 30
-29.000
 70
    32
  0
VERTEX
  8
E53LXLIFT
 62
7
 10
4222.435
 20
-8076.015
 30
-29.000
 70
    32
  0
VERTEX
  8
E53LXLIFT
 62
7
 10
4233.221
 20
-8085.422
 30
-29.000
 70
    32
  0
VERTEX
  8
E53LXLIFT
 62
7
 10
4240.016
 20
-8092.526
 30
-29.000
 70
    32
  0
VERTEX
  8
E53LXLIFT
 62
7
 10
4252.437
 20
-8095.845
 30
-29.000
 70
    32
  0
VERTEX
  8
E53LXLIFT
 62
7
 10
4259.539
 20
-8112.082
 30
-29.000
 70
    32
  0
VERTEX
  8
E53LXLIFT
 62
7
 10
4266.820
 20
-8124.484
 30
-29.000
 70
    32
  0
VERTEX
  8
E53LXLIFT
 62
7
 10
4275.780
 20
-8135.121
 30
-29.000
 70
    32
  0
VERTEX
  8
E53LXLIFT
 62
7
 10
4274.014
 20
-8145.118
 30
-29.000
 70
    32
  0
VERTEX
  8
E53LXLIFT
 62
7
 10
4259.376
 20
-8149.233
 30
-29.000
 70
    32
  0
VERTEX
  8
E53LXLIFT
 62
7
 10
4253.575
 20
-8158.123
 30
-29.000
 70
    32
  0
VERTEX
  8
E53LXLIFT
 62
7
 10
4255.674
 20
-8163.610
 30
-29.000
 70
    32
  0
VERTEX
  8
E53LXLIFT
 62
7
 10
4268.317
 20
-8155.424
 30
-29.000
 70
    32
  0
VERTEX
  8
E53LXLIFT
 62
7
 10
4278.933
 20
-8147.540
 30
-29.000
 70
    32
  0
VERTEX
  8
E53LXLIFT
 62
7
 10
4291.957
 20
-8137.081
 30
-29.000
 70
    32
  0
VERTEX
  8
E53LXLIFT
 62
7
 10
4304.852
 20
-8130.848
 30
-29.000
 70
    32
  0
VERTEX
  8
E53LXLIFT
 62
7
 10
4313.482
 20
-8126.953
 30
-29.000
 70
    32
  0
VERTEX
  8
E53LXLIFT
 62
7
 10
4313.093
 20
-8115.646
 30
-29.000
 70
    32
  0
VERTEX
  8
E53LXLIFT
 62
7
 10
4310.331
 20
-8109.331
 30
-29.000
 70
    32
  0
VERTEX
  8
E53LXLIFT
 62
7
 10
4296.381
 20
-8102.477
 30
-29.000
 70
    32
  0
VERTEX
  8
E53LXLIFT
 62
7
 10
4287.045
 20
-8095.384
 30
-29.000
 70
    32
  0
VERTEX
  8
E53LXLIFT
 62
7
 10
4278.677
 20
-8091.779
 30
-29.000
 70
    32
  0
VERTEX
  8
E53LXLIFT
 62
7
 10
4276.675
 20
-8086.121
 30
-29.000
 70
    32
  0
VERTEX
  8
E53LXLIFT
 62
7
 10
4266.490
 20
-8068.455
 30
-29.000
 70
    32
  0
VERTEX
  8
E53LXLIFT
 62
7
 10
4261.225
 20
-8065.204
 30
-29.000
 70
    32
  0
VERTEX
  8
E53LXLIFT
 62
7
 10
4261.467
 20
-8052.942
 30
-29.000
 70
    32
  0
SEQEND
  8
E53LXLIFT
  0
POLYLINE
  8
E53LXLIFT
 62
8
 66
     1
 70
     9
  0
VERTEX
  8
E53LXLIFT
 62
8
 10
4399.194
 20
-8221.463
 30
-18.000
 70
    32
  0
VERTEX
  8
E53LXLIFT
 62
8
 10
4405.693
 20
-8226.105
 30
-18.000
 70
    32
  0
VERTEX
  8
E53LXLIFT
 62
8
 10
4422.906
 20
-8260.021
 30
-18.000
 70
    32
  0
VERTEX
  8
E53LXLIFT
 62
8
 10
4429.001
 20
-8281.993
 30
-18.000
 70
    32
  0
VERTEX
  8
E53LXLIFT
 62
8
 10
4433.266
 20
-8300.077
 30
-18.000
 70
    32
  0
VERTEX
  8
E53LXLIFT
 62
8
 10
4436.675
 20
-8318.780
 30
-18.000
 70
    32
  0
VERTEX
  8
E53LXLIFT
 62
8
 10
4432.364
 20
-8338.064
 30
-18.000
 70
    32
  0
VERTEX
  8
E53LXLIFT
 62
8
 10
4422.135
 20
-8356.518
 30
-18.000
 70
    32
  0
VERTEX
  8
E53LXLIFT
 62
8
 10
4421.389
 20
-8364.654
 30
-18.000
 70
    32
  0
VERTEX
  8
E53LXLIFT
 62
8
 10
4414.842
 20
-8364.605
 30
-18.000
 70
    32
  0
VERTEX
  8
E53LXLIFT
 62
8
 10
4409.684
 20
-8354.003
 30
-18.000
 70
    32
  0
VERTEX
  8
E53LXLIFT
 62
8
 10
4408.812
 20
-8331.298
 30
-18.000
 70
    32
  0
VERTEX
  8
E53LXLIFT
 62
8
 10
4403.200
 20
-8313.753
 30
-18.000
 70
    32
  0
VERTEX
  8
E53LXLIFT
 62
8
 10
4397.201
 20
-8282.594
 30
-18.000
 70
    32
  0
VERTEX
  8
E53LXLIFT
 62
8
 10
4393.029
 20
-8254.566
 30
-18.000
 70
    32
  0
VERTEX
  8
E53LXLIFT
 62
8
 10
4379.005
 20
-8250.473
 30
-18.000
 70
    32
  0
VERTEX
  8
E53LXLIFT
 62
8
 10
4385.808
 20
-8236.445
 30
-18.000
 70
    32
  0
SEQEND
  8
E53LXLIFT
  0
POLYLINE
  8
E53LXLIFT
 62
3
 66
     1
 70
     9
  0
VERTEX
  8
E53LXLIFT
 62
3
 10
4321.494
 20
-8217.866
 30
-17.000
 70
    32
  0
VERTEX
  8
E53LXLIFT
 62
3
 10
4325.211
 20
-8222.563
 30
-17.000
 70
    32
  0
VERTEX
  8
E53LXLIFT
 62
3
 10
4318.547
 20
-8233.778
 30
-17.000
 70
    32
  0
VERTEX
  8
E53LXLIFT
 62
3
 10
4319.693
 20
-8252.052
 30
-17.000
 70
    32
  0
VERTEX
  8
E53LXLIFT
 62
3
 10
4327.449
 20
-8272.717
 30
-17.000
 70
    32
  0
VERTEX
  8
E53LXLIFT
 62
3
 10
4334.832
 20
-8292.565
 30
-17.000
 70
    32
  0
VERTEX
  8
E53LXLIFT
 62
3
 10
4338.099
 20
-8305.509
 30
-17.000
 70
    32
  0
VERTEX
  8
E53LXLIFT
 62
3
 10
4351.150
 20
-8329.298
 30
-17.000
 70
    32
  0
VERTEX
  8
E53LXLIFT
 62
3
 10
4360.852
 20
-8348.450
 30
-17.000
 70
    32
  0
VERTEX
  8
E53LXLIFT
 62
3
 10
4368.410
 20
-8366.436
 30
-17.000
 70
    32
  0
VERTEX
  8
E53LXLIFT
 62
3
 10
4353.445
 20
-8370.511
 30
-17.000
 70
    32
  0
VERTEX
  8
E53LXLIFT
 62
3
 10
4342.799
 20
-8375.158
 30
-17.000
 70
    32
  0
VERTEX
  8
E53LXLIFT
 62
3
 10
4329.495
 20
-8372.064
 30
-17.000
 70
    32
  0
VERTEX
  8
E53LXLIFT
 62
3
 10
4324.376
 20
-8346.782
 30
-17.000
 70
    32
  0
VERTEX
  8
E53LXLIFT
 62
3
 10
4319.080
 20
-8329.225
 30
-17.000
 70
    32
  0
VERTEX
  8
E53LXLIFT
 62
3
 10
4308.557
 20
-8315.550
 30
-17.000
 70
    32
  0
VERTEX
  8
E53LXLIFT
 62
3
 10
4297.789
 20
-8295.975
 30
-17.000
 70
    32
  0
VERTEX
  8
E53LXLIFT
 62
3
 10
4282.704
 20
-8278.538
 30
-17.000
 70
    32
  0
VERTEX
  8
E53LXLIFT
 62
3
 10
4269.490
 20
-8262.790
 30
-17.000
 70
    32
  0
VERTEX
  8
E53LXLIFT
 62
3
 10
4262.936
 20
-8235.071
 30
-17.000
 70
    32
  0
VERTEX
  8
E53LXLIFT
 62
3
 10
4258.140
 20
-8219.107
 30
-17.000
 70
    32
  0
VERTEX
  8
E53LXLIFT
 62
3
 10
4248.536
 20
-8203.249
 30
-17.000
 70
    32
  0
VERTEX
  8
E53LXLIFT
 62
3
 10
4237.851
 20
-8183.939
 30
-17.000
 70
    32
  0
VERTEX
  8
E53LXLIFT
 62
3
 10
4254.719
 20
-8177.839
 30
-17.000
 70
    32
  0
VERTEX
  8
E53LXLIFT
 62
3
 10
4265.774
 20
-8169.098
 30
-17.000
 70
    32
  0
VERTEX
  8
E53LXLIFT
 62
3
 10
4282.240
 20
-8170.560
 30
-17.000
 70
    32
  0
VERTEX
  8
E53LXLIFT
 62
3
 10
4295.584
 20
-8191.749
 30
-17.000
 70
    32
  0
VERTEX
  8
E53LXLIFT
 62
3
 10
4308.277
 20
-8217.749
 30
-17.000
 70
    32
  0
SEQEND
  8
E53LXLIFT
  0
POLYLINE
  8
E53LXLIFT
 62
7
 66
     1
 70
     9
  0
VERTEX
  8
E53LXLIFT
 62
7
 10
4265.591
 20
-8019.567
 30
-17.000
 70
    32
  0
VERTEX
  8
E53LXLIFT
 62
7
 10
4256.487
 20
-8023.643
 30
-17.000
 70
    32
  0
VERTEX
  8
E53LXLIFT
 62
7
 10
4253.541
 20
-8033.693
 30
-17.000
 70
    32
  0
VERTEX
  8
E53LXLIFT
 62
7
 10
4253.855
 20
-8047.358
 30
-17.000
 70
    32
  0
VERTEX
  8
E53LXLIFT
 62
7
 10
4259.115
 20
-8063.964
 30
-17.000
 70
    32
  0
VERTEX
  8
E53LXLIFT
 62
7
 10
4265.361
 20
-8085.394
 30
-17.000
 70
    32
  0
VERTEX
  8
E53LXLIFT
 62
7
 10
4270.815
 20
-8101.968
 30
-17.000
 70
    32
  0
VERTEX
  8
E53LXLIFT
 62
7
 10
4279.592
 20
-8112.020
 30
-17.000
 70
    32
  0
VERTEX
  8
E53LXLIFT
 62
7
 10
4287.973
 20
-8118.668
 30
-17.000
 70
    32
  0
VERTEX
  8
E53LXLIFT
 62
7
 10
4289.238
 20
-8132.297
 30
-17.000
 70
    32
  0
VERTEX
  8
E53LXLIFT
 62
7
 10
4281.596
 20
-8142.156
 30
-17.000
 70
    32
  0
VERTEX
  8
E53LXLIFT
 62
7
 10
4266.214
 20
-8146.857
 30
-17.000
 70
    32
  0
VERTEX
  8
E53LXLIFT
 62
7
 10
4258.034
 20
-8149.507
 30
-17.000
 70
    32
  0
VERTEX
  8
E53LXLIFT
 62
7
 10
4255.582
 20
-8144.006
 30
-17.000
 70
    32
  0
VERTEX
  8
E53LXLIFT
 62
7
 10
4264.009
 20
-8131.627
 30
-17.000
 70
    32
  0
VERTEX
  8
E53LXLIFT
 62
7
 10
4264.376
 20
-8119.207
 30
-17.000
 70
    32
  0
VERTEX
  8
E53LXLIFT
 62
7
 10
4260.438
 20
-8111.196
 30
-17.000
 70
    32
  0
VERTEX
  8
E53LXLIFT
 62
7
 10
4257.329
 20
-8099.223
 30
-17.000
 70
    32
  0
VERTEX
  8
E53LXLIFT
 62
7
 10
4250.986
 20
-8088.934
 30
-17.000
 70
    32
  0
VERTEX
  8
E53LXLIFT
 62
7
 10
4242.265
 20
-8083.618
 30
-17.000
 70
    32
  0
VERTEX
  8
E53LXLIFT
 62
7
 10
4230.993
 20
-8085.895
 30
-17.000
 70
    32
  0
VERTEX
  8
E53LXLIFT
 62
7
 10
4223.934
 20
-8091.751
 30
-17.000
 70
    32
  0
VERTEX
  8
E53LXLIFT
 62
7
 10
4216.071
 20
-8094.389
 30
-17.000
 70
    32
  0
VERTEX
  8
E53LXLIFT
 62
7
 10
4211.670
 20
-8081.829
 30
-17.000
 70
    32
  0
VERTEX
  8
E53LXLIFT
 62
7
 10
4209.548
 20
-8066.864
 30
-17.000
 70
    32
  0
VERTEX
  8
E53LXLIFT
 62
7
 10
4219.699
 20
-8061.381
 30
-17.000
 70
    32
  0
VERTEX
  8
E53LXLIFT
 62
7
 10
4233.511
 20
-8055.859
 30
-17.000
 70
    32
  0
VERTEX
  8
E53LXLIFT
 62
7
 10
4234.078
 20
-8054.690
 30
-17.000
 70
    32
  0
VERTEX
  8
E53LXLIFT
 62
7
 10
4239.414
 20
-8045.845
 30
-17.000
 70
    32
  0
VERTEX
  8
E53LXLIFT
 62
7
 10
4235.157
 20
-8029.275
 30
-17.000
 70
    32
  0
VERTEX
  8
E53LXLIFT
 62
7
 10
4231.423
 20
-8011.024
 30
-17.000
 70
    32
  0
VERTEX
  8
E53LXLIFT
 62
7
 10
4245.722
 20
-8008.732
 30
-17.000
 70
    32
  0
VERTEX
  8
E53LXLIFT
 62
7
 10
4259.067
 20
-8005.718
 30
-17.000
 70
    32
  0
SEQEND
  8
E53LXLIFT
  0
POLYLINE
  8
E53LXLIFT
 62
8
 66
     1
 70
     9
  0
VERTEX
  8
E53LXLIFT
 62
8
 10
4400.652
 20
-8225.080
 30
-9.000
 70
    32
  0
VERTEX
  8
E53LXLIFT
 62
8
 10
4389.910
 20
-8228.968
 30
-9.000
 70
    32
  0
VERTEX
  8
E53LXLIFT
 62
8
 10
4381.060
 20
-8239.291
 30
-9.000
 70
    32
  0
VERTEX
  8
E53LXLIFT
 62
8
 10
4376.138
 20
-8245.726
 30
-9.000
 70
    32
  0
VERTEX
  8
E53LXLIFT
 62
8
 10
4379.299
 20
-8266.505
 30
-9.000
 70
    32
  0
VERTEX
  8
E53LXLIFT
 62
8
 10
4383.831
 20
-8282.844
 30
-9.000
 70
    32
  0
VERTEX
  8
E53LXLIFT
 62
8
 10
4391.648
 20
-8294.242
 30
-9.000
 70
    32
  0
VERTEX
  8
E53LXLIFT
 62
8
 10
4402.533
 20
-8309.179
 30
-9.000
 70
    32
  0
VERTEX
  8
E53LXLIFT
 62
8
 10
4400.589
 20
-8323.871
 30
-9.000
 70
    32
  0
VERTEX
  8
E53LXLIFT
 62
8
 10
4400.496
 20
-8339.187
 30
-9.000
 70
    32
  0
VERTEX
  8
E53LXLIFT
 62
8
 10
4401.806
 20
-8344.957
 30
-9.000
 70
    32
  0
VERTEX
  8
E53LXLIFT
 62
8
 10
4413.807
 20
-8350.554
 30
-9.000
 70
    32
  0
VERTEX
  8
E53LXLIFT
 62
8
 10
4429.215
 20
-8336.845
 30
-9.000
 70
    32
  0
VERTEX
  8
E53LXLIFT
 62
8
 10
4430.781
 20
-8324.046
 30
-9.000
 70
    32
  0
VERTEX
  8
E53LXLIFT
 62
8
 10
4430.535
 20
-8309.620
 30
-9.000
 70
    32
  0
VERTEX
  8
E53LXLIFT
 62
8
 10
4426.392
 20
-8290.191
 30
-9.000
 70
    32
  0
VERTEX
  8
E53LXLIFT
 62
8
 10
4418.965
 20
-8264.347
 30
-9.000
 70
    32
  0
VERTEX
  8
E53LXLIFT
 62
8
 10
4411.660
 20
-8243.824
 30
-9.000
 70
    32
  0
VERTEX
  8
E53LXLIFT
 62
8
 10
4407.302
 20
-8236.662
 30
-9.000
 70
    32
  0
SEQEND
  8
E53LXLIFT
  0
POLYLINE
  8
E53LXLIFT
 62
3
 66
     1
 70
     9
  0
VERTEX
  8
E53LXLIFT
 62
3
 10
4352.574
 20
-8352.650
 30
-10.000
 70
    32
  0
VERTEX
  8
E53LXLIFT
 62
3
 10
4355.071
 20
-8344.486
 30
-10.000
 70
    32
  0
VERTEX
  8
E53LXLIFT
 62
3
 10
4349.700
 20
-8327.123
 30
-10.000
 70
    32
  0
VERTEX
  8
E53LXLIFT
 62
3
 10
4333.525
 20
-8296.604
 30
-10.000
 70
    32
  0
VERTEX
  8
E53LXLIFT
 62
3
 10
4319.264
 20
-8264.069
 30
-10.000
 70
    32
  0
VERTEX
  8
E53LXLIFT
 62
3
 10
4315.642
 20
-8249.459
 30
-10.000
 70
    32
  0
VERTEX
  8
E53LXLIFT
 62
3
 10
4317.474
 20
-8229.764
 30
-10.000
 70
    32
  0
VERTEX
  8
E53LXLIFT
 62
3
 10
4315.735
 20
-8222.787
 30
-10.000
 70
    32
  0
VERTEX
  8
E53LXLIFT
 62
3
 10
4303.335
 20
-8217.692
 30
-10.000
 70
    32
  0
VERTEX
  8
E53LXLIFT
 62
3
 10
4289.032
 20
-8203.572
 30
-10.000
 70
    32
  0
VERTEX
  8
E53LXLIFT
 62
3
 10
4280.234
 20
-8189.740
 30
-10.000
 70
    32
  0
VERTEX
  8
E53LXLIFT
 62
3
 10
4276.449
 20
-8181.412
 30
-10.000
 70
    32
  0
VERTEX
  8
E53LXLIFT
 62
3
 10
4261.818
 20
-8176.071
 30
-10.000
 70
    32
  0
VERTEX
  8
E53LXLIFT
 62
3
 10
4252.979
 20
-8182.168
 30
-10.000
 70
    32
  0
VERTEX
  8
E53LXLIFT
 62
3
 10
4252.937
 20
-8200.584
 30
-10.000
 70
    32
  0
VERTEX
  8
E53LXLIFT
 62
3
 10
4251.648
 20
-8218.918
 30
-10.000
 70
    32
  0
VERTEX
  8
E53LXLIFT
 62
3
 10
4263.464
 20
-8233.191
 30
-10.000
 70
    32
  0
VERTEX
  8
E53LXLIFT
 62
3
 10
4277.624
 20
-8254.226
 30
-10.000
 70
    32
  0
VERTEX
  8
E53LXLIFT
 62
3
 10
4292.693
 20
-8276.990
 30
-10.000
 70
    32
  0
VERTEX
  8
E53LXLIFT
 62
3
 10
4306.167
 20
-8293.432
 30
-10.000
 70
    32
  0
VERTEX
  8
E53LXLIFT
 62
3
 10
4315.293
 20
-8304.543
 30
-10.000
 70
    32
  0
VERTEX
  8
E53LXLIFT
 62
3
 10
4317.963
 20
-8323.726
 30
-10.000
 70
    32
  0
VERTEX
  8
E53LXLIFT
 62
3
 10
4319.160
 20
-8328.279
 30
-10.000
 70
    32
  0
VERTEX
  8
E53LXLIFT
 62
3
 10
4307.936
 20
-8339.973
 30
-10.000
 70
    32
  0
VERTEX
  8
E53LXLIFT
 62
3
 10
4313.727
 20
-8352.168
 30
-10.000
 70
    32
  0
VERTEX
  8
E53LXLIFT
 62
3
 10
4321.042
 20
-8358.624
 30
-10.000
 70
    32
  0
SEQEND
  8
E53LXLIFT
  0
POLYLINE
  8
E53LXLIFT
 62
7
 66
     1
 70
     9
  0
VERTEX
  8
E53LXLIFT
 62
7
 10
4256.809
 20
-8007.034
 30
-9.000
 70
    32
  0
VERTEX
  8
E53LXLIFT
 62
7
 10
4254.281
 20
-8019.546
 30
-9.000
 70
    32
  0
VERTEX
  8
E53LXLIFT
 62
7
 10
4248.674
 20
-8031.230
 30
-9.000
 70
    32
  0
VERTEX
  8
E53LXLIFT
 62
7
 10
4244.449
 20
-8037.277
 30
-9.000
 70
    32
  0
VERTEX
  8
E53LXLIFT
 62
7
 10
4245.646
 20
-8054.700
 30
-9.000
 70
    32
  0
VERTEX
  8
E53LXLIFT
 62
7
 10
4255.385
 20
-8077.270
 30
-9.000
 70
    32
  0
VERTEX
  8
E53LXLIFT
 62
7
 10
4265.012
 20
-8099.379
 30
-9.000
 70
    32
  0
VERTEX
  8
E53LXLIFT
 62
7
 10
4271.028
 20
-8110.224
 30
-9.000
 70
    32
  0
VERTEX
  8
E53LXLIFT
 62
7
 10
4281.238
 20
-8110.286
 30
-9.000
 70
    32
  0
VERTEX
  8
E53LXLIFT
 62
7
 10
4296.186
 20
-8110.317
 30
-9.000
 70
    32
  0
VERTEX
  8
E53LXLIFT
 62
7
 10
4303.030
 20
-8121.111
 30
-9.000
 70
    32
  0
VERTEX
  8
E53LXLIFT
 62
7
 10
4298.948
 20
-8125.541
 30
-9.000
 70
    32
  0
VERTEX
  8
E53LXLIFT
 62
7
 10
4284.051
 20
-8130.881
 30
-9.000
 70
    32
  0
VERTEX
  8
E53LXLIFT
 62
7
 10
4274.618
 20
-8139.025
 30
-9.000
 70
    32
  0
VERTEX
  8
E53LXLIFT
 62
7
 10
4269.165
 20
-8145.624
 30
-9.000
 70
    32
  0
VERTEX
  8
E53LXLIFT
 62
7
 10
4263.016
 20
-8157.154
 30
-9.000
 70
    32
  0
VERTEX
  8
E53LXLIFT
 62
7
 10
4253.317
 20
-8164.622
 30
-9.000
 70
    32
  0
VERTEX
  8
E53LXLIFT
 62
7
 10
4242.420
 20
-8169.052
 30
-9.000
 70
    32
  0
VERTEX
  8
E53LXLIFT
 62
7
 10
4239.883
 20
-8160.806
 30
-9.000
 70
    32
  0
VERTEX
  8
E53LXLIFT
 62
7
 10
4252.130
 20
-8155.087
 30
-9.000
 70
    32
  0
VERTEX
  8
E53LXLIFT
 62
7
 10
4261.747
 20
-8147.352
 30
-9.000
 70
    32
  0
VERTEX
  8
E53LXLIFT
 62
7
 10
4265.625
 20
-8135.822
 30
-9.000
 70
    32
  0
VERTEX
  8
E53LXLIFT
 62
7
 10
4258.218
 20
-8125.755
 30
-9.000
 70
    32
  0
VERTEX
  8
E53LXLIFT
 62
7
 10
4252.356
 20
-8109.825
 30
-9.000
 70
    32
  0
VERTEX
  8
E53LXLIFT
 62
7
 10
4246.791
 20
-8093.251
 30
-9.000
 70
    32
  0
VERTEX
  8
E53LXLIFT
 62
7
 10
4242.371
 20
-8081.157
 30
-9.000
 70
    32
  0
VERTEX
  8
E53LXLIFT
 62
7
 10
4236.867
 20
-8083.899
 30
-9.000
 70
    32
  0
VERTEX
  8
E53LXLIFT
 62
7
 10
4232.314
 20
-8096.453
 30
-9.000
 70
    32
  0
VERTEX
  8
E53LXLIFT
 62
7
 10
4229.254
 20
-8107.615
 30
-9.000
 70
    32
  0
VERTEX
  8
E53LXLIFT
 62
7
 10
4232.262
 20
-8111.523
 30
-9.000
 70
    32
  0
VERTEX
  8
E53LXLIFT
 62
7
 10
4224.343
 20
-8118.152
 30
-9.000
 70
    32
  0
VERTEX
  8
E53LXLIFT
 62
7
 10
4218.297
 20
-8104.085
 30
-9.000
 70
    32
  0
VERTEX
  8
E53LXLIFT
 62
7
 10
4213.243
 20
-8085.198
 30
-9.000
 70
    32
  0
VERTEX
  8
E53LXLIFT
 62
7
 10
4210.297
 20
-8069.565
 30
-9.000
 70
    32
  0
VERTEX
  8
E53LXLIFT
 62
7
 10
4222.851
 20
-8061.247
 30
-9.000
 70
    32
  0
VERTEX
  8
E53LXLIFT
 62
7
 10
4234.085
 20
-8051.385
 30
-9.000
 70
    32
  0
VERTEX
  8
E53LXLIFT
 62
7
 10
4234.443
 20
-8034.473
 30
-9.000
 70
    32
  0
VERTEX
  8
E53LXLIFT
 62
7
 10
4227.896
 20
-8015.464
 30
-9.000
 70
    32
  0
SEQEND
  8
E53LXLIFT
  0
POLYLINE
  8
E53LXLIFT
 62
8
 66
     1
 70
     9
  0
VERTEX
  8
E53LXLIFT
 62
8
 10
4370.360
 20
-8220.459
 30
0.000
 70
    32
  0
VERTEX
  8
E53LXLIFT
 62
8
 10
4379.474
 20
-8209.438
 30
0.000
 70
    32
  0
VERTEX
  8
E53LXLIFT
 62
8
 10
4413.768
 20
-8193.427
 30
0.000
 70
    32
  0
VERTEX
  8
E53LXLIFT
 62
8
 10
4415.083
 20
-8209.517
 30
0.000
 70
    32
  0
VERTEX
  8
E53LXLIFT
 62
8
 10
4416.921
 20
-8269.848
 30
0.000
 70
    32
  0
VERTEX
  8
E53LXLIFT
 62
8
 10
4418.071
 20
-8296.341
 30
0.000
 70
    32
  0
VERTEX
  8
E53LXLIFT
 62
8
 10
4419.431
 20
-8323.117
 30
0.000
 70
    32
  0
VERTEX
  8
E53LXLIFT
 62
8
 10
4413.454
 20
-8335.861
 30
0.000
 70
    32
  0
VERTEX
  8
E53LXLIFT
 62
8
 10
4405.459
 20
-8329.207
 30
0.000
 70
    32
  0
VERTEX
  8
E53LXLIFT
 62
8
 10
4396.079
 20
-8315.814
 30
0.000
 70
    32
  0
VERTEX
  8
E53LXLIFT
 62
8
 10
4386.636
 20
-8291.857
 30
0.000
 70
    32
  0
VERTEX
  8
E53LXLIFT
 62
8
 10
4379.306
 20
-8270.162
 30
0.000
 70
    32
  0
VERTEX
  8
E53LXLIFT
 62
8
 10
4369.853
 20
-8257.260
 30
0.000
 70
    32
  0
VERTEX
  8
E53LXLIFT
 62
8
 10
4369.755
 20
-8234.253
 30
0.000
 70
    32
  0
SEQEND
  8
E53LXLIFT
  0
POLYLINE
  8
E53LXLIFT
 62
3
 66
     1
 70
     9
  0
VERTEX
  8
E53LXLIFT
 62
3
 10
4326.287
 20
-8358.902
 30
-1.000
 70
    32
  0
VERTEX
  8
E53LXLIFT
 62
3
 10
4342.319
 20
-8349.097
 30
-1.000
 70
    32
  0
VERTEX
  8
E53LXLIFT
 62
3
 10
4346.871
 20
-8342.989
 30
-1.000
 70
    32
  0
VERTEX
  8
E53LXLIFT
 62
3
 10
4342.158
 20
-8324.824
 30
-1.000
 70
    32
  0
VERTEX
  8
E53LXLIFT
 62
3
 10
4330.346
 20
-8296.934
 30
-1.000
 70
    32
  0
VERTEX
  8
E53LXLIFT
 62
3
 10
4327.999
 20
-8283.141
 30
-1.000
 70
    32
  0
VERTEX
  8
E53LXLIFT
 62
3
 10
4316.074
 20
-8259.821
 30
-1.000
 70
    32
  0
VERTEX
  8
E53LXLIFT
 62
3
 10
4309.070
 20
-8242.698
 30
-1.000
 70
    32
  0
VERTEX
  8
E53LXLIFT
 62
3
 10
4311.071
 20
-8233.886
 30
-1.000
 70
    32
  0
VERTEX
  8
E53LXLIFT
 62
3
 10
4315.522
 20
-8223.805
 30
-1.000
 70
    32
  0
VERTEX
  8
E53LXLIFT
 62
3
 10
4307.743
 20
-8219.507
 30
-1.000
 70
    32
  0
VERTEX
  8
E53LXLIFT
 62
3
 10
4302.225
 20
-8222.394
 30
-1.000
 70
    32
  0
VERTEX
  8
E53LXLIFT
 62
3
 10
4294.202
 20
-8208.323
 30
-1.000
 70
    32
  0
VERTEX
  8
E53LXLIFT
 62
3
 10
4285.326
 20
-8192.806
 30
-1.000
 70
    32
  0
VERTEX
  8
E53LXLIFT
 62
3
 10
4247.584
 20
-8212.576
 30
-1.000
 70
    32
  0
VERTEX
  8
E53LXLIFT
 62
3
 10
4265.264
 20
-8231.412
 30
-1.000
 70
    32
  0
VERTEX
  8
E53LXLIFT
 62
3
 10
4272.902
 20
-8242.159
 30
-1.000
 70
    32
  0
VERTEX
  8
E53LXLIFT
 62
3
 10
4292.891
 20
-8259.830
 30
-1.000
 70
    32
  0
VERTEX
  8
E53LXLIFT
 62
3
 10
4303.222
 20
-8285.427
 30
-1.000
 70
    32
  0
VERTEX
  8
E53LXLIFT
 62
3
 10
4309.591
 20
-8305.974
 30
-1.000
 70
    32
  0
VERTEX
  8
E53LXLIFT
 62
3
 10
4308.246
 20
-8323.050
 30
-1.000
 70
    32
  0
VERTEX
  8
E53LXLIFT
 62
3
 10
4301.556
 20
-8340.588
 30
-1.000
 70
    32
  0
VERTEX
  8
E53LXLIFT
 62
3
 10
4307.747
 20
-8352.188
 30
-1.000
 70
    32
  0
SEQEND
  8
E53LXLIFT
  0
POLYLINE
  8
E53LXLIFT
 62
7
 66
     1
 70
     9
  0
VERTEX
  8
E53LXLIFT
 62
7
 10
4251.002
 20
-8173.946
 30
4.000
 70
    32
  0
VERTEX
  8
E53LXLIFT
 62
7
 10
4256.086
 20
-8163.833
 30
4.000
 70
    32
  0
VERTEX
  8
E53LXLIFT
 62
7
 10
4272.071
 20
-8156.032
 30
4.000
 70
    32
  0
VERTEX
  8
E53LXLIFT
 62
7
 10
4288.216
 20
-8148.003
 30
4.000
 70
    32
  0
VERTEX
  8
E53LXLIFT
 62
7
 10
4307.301
 20
-8142.171
 30
4.000
 70
    32
  0
VERTEX
  8
E53LXLIFT
 62
7
 10
4322.972
 20
-8130.993
 30
4.000
 70
    32
  0
VERTEX
  8
E53LXLIFT
 62
7
 10
4311.737
 20
-8122.476
 30
4.000
 70
    32
  0
VERTEX
  8
E53LXLIFT
 62
7
 10
4312.499
 20
-8108.894
 30
4.000
 70
    32
  0
VERTEX
  8
E53LXLIFT
 62
7
 10
4316.363
 20
-8096.841
 30
4.000
 70
    32
  0
VERTEX
  8
E53LXLIFT
 62
7
 10
4325.623
 20
-8081.884
 30
4.000
 70
    32
  0
VERTEX
  8
E53LXLIFT
 62
7
 10
4310.089
 20
-8087.490
 30
4.000
 70
    32
  0
VERTEX
  8
E53LXLIFT
 62
7
 10
4296.845
 20
-8089.103
 30
4.000
 70
    32
  0
VERTEX
  8
E53LXLIFT
 62
7
 10
4284.765
 20
-8099.369
 30
4.000
 70
    32
  0
VERTEX
  8
E53LXLIFT
 62
7
 10
4278.565
 20
-8101.777
 30
4.000
 70
    32
  0
VERTEX
  8
E53LXLIFT
 62
7
 10
4270.133
 20
-8091.728
 30
4.000
 70
    32
  0
VERTEX
  8
E53LXLIFT
 62
7
 10
4263.469
 20
-8073.588
 30
4.000
 70
    32
  0
VERTEX
  8
E53LXLIFT
 62
7
 10
4258.496
 20
-8060.975
 30
4.000
 70
    32
  0
VERTEX
  8
E53LXLIFT
 62
7
 10
4247.982
 20
-8052.251
 30
4.000
 70
    32
  0
VERTEX
  8
E53LXLIFT
 62
7
 10
4239.900
 20
-8042.380
 30
4.000
 70
    32
  0
VERTEX
  8
E53LXLIFT
 62
7
 10
4234.108
 20
-8028.515
 30
4.000
 70
    32
  0
VERTEX
  8
E53LXLIFT
 62
7
 10
4225.114
 20
-8018.446
 30
4.000
 70
    32
  0
VERTEX
  8
E53LXLIFT
 62
7
 10
4216.665
 20
-8023.723
 30
4.000
 70
    32
  0
VERTEX
  8
E53LXLIFT
 62
7
 10
4222.182
 20
-8036.480
 30
4.000
 70
    32
  0
VERTEX
  8
E53LXLIFT
 62
7
 10
4227.489
 20
-8046.001
 30
4.000
 70
    32
  0
VERTEX
  8
E53LXLIFT
 62
7
 10
4223.532
 20
-8055.715
 30
4.000
 70
    32
  0
VERTEX
  8
E53LXLIFT
 62
7
 10
4218.518
 20
-8056.478
 30
4.000
 70
    32
  0
VERTEX
  8
E53LXLIFT
 62
7
 10
4211.230
 20
-8042.956
 30
4.000
 70
    32
  0
VERTEX
  8
E53LXLIFT
 62
7
 10
4207.927
 20
-8033.481
 30
4.000
 70
    32
  0
VERTEX
  8
E53LXLIFT
 62
7
 10
4198.855
 20
-8034.080
 30
4.000
 70
    32
  0
VERTEX
  8
E53LXLIFT
 62
7
 10
4196.149
 20
-8040.023
 30
4.000
 70
    32
  0
VERTEX
  8
E53LXLIFT
 62
7
 10
4197.134
 20
-8052.420
 30
4.000
 70
    32
  0
VERTEX
  8
E53LXLIFT
 62
7
 10
4204.338
 20
-8068.191
 30
4.000
 70
    32
  0
VERTEX
  8
E53LXLIFT
 62
7
 10
4209.586
 20
-8081.912
 30
4.000
 70
    32
  0
VERTEX
  8
E53LXLIFT
 62
7
 10
4210.086
 20
-8099.263
 30
4.000
 70
    32
  0
VERTEX
  8
E53LXLIFT
 62
7
 10
4210.760
 20
-8116.702
 30
4.000
 70
    32
  0
VERTEX
  8
E53LXLIFT
 62
7
 10
4211.491
 20
-8127.427
 30
4.000
 70
    32
  0
VERTEX
  8
E53LXLIFT
 62
7
 10
4213.300
 20
-8143.150
 30
4.000
 70
    32
  0
VERTEX
  8
E53LXLIFT
 62
7
 10
4211.622
 20
-8156.973
 30
4.000
 70
    32
  0
SEQEND
  8
E53LXLIFT
  0
POLYLINE
  8
E53LXLIFT
 62
7
 66
     1
 70
     9
  0
VERTEX
  8
E53LXLIFT
 62
7
 10
4239.659
 20
-8075.703
 30
4.000
 70
    32
  0
VERTEX
  8
E53LXLIFT
 62
7
 10
4251.512
 20
-8096.123
 30
4.000
 70
    32
  0
VERTEX
  8
E53LXLIFT
 62
7
 10
4256.660
 20
-8124.466
 30
4.000
 70
    32
  0
VERTEX
  8
E53LXLIFT
 62
7
 10
4253.669
 20
-8146.701
 30
4.000
 70
    32
  0
VERTEX
  8
E53LXLIFT
 62
7
 10
4243.043
 20
-8154.796
 30
4.000
 70
    32
  0
VERTEX
  8
E53LXLIFT
 62
7
 10
4231.861
 20
-8152.254
 30
4.000
 70
    32
  0
VERTEX
  8
E53LXLIFT
 62
7
 10
4230.573
 20
-8137.677
 30
4.000
 70
    32
  0
VERTEX
  8
E53LXLIFT
 62
7
 10
4232.202
 20
-8119.952
 30
4.000
 70
    32
  0
VERTEX
  8
E53LXLIFT
 62
7
 10
4227.185
 20
-8099.605
 30
4.000
 70
    32
  0
VERTEX
  8
E53LXLIFT
 62
7
 10
4230.948
 20
-8080.627
 30
4.000
 70
    32
  0
SEQEND
  8
E53LXLIFT
  0
POLYLINE
  8
E53LXLIFT
 62
7
 66
     1
 70
     9
  0
VERTEX
  8
E53LXLIFT
 62
7
 10
5271.993
 20
-8923.864
 30
10.000
 70
    32
  0
VERTEX
  8
E53LXLIFT
 62
7
 10
5265.639
 20
-8916.680
 30
10.000
 70
    32
  0
VERTEX
  8
E53LXLIFT
 62
7
 10
5251.290
 20
-8914.598
 30
10.000
 70
    32
  0
VERTEX
  8
E53LXLIFT
 62
7
 10
5243.819
 20
-8910.189
 30
10.000
 70
    32
  0
VERTEX
  8
E53LXLIFT
 62
7
 10
5231.665
 20
-8896.283
 30
10.000
 70
    32
  0
VERTEX
  8
E53LXLIFT
 62
7
 10
5225.273
 20
-8877.935
 30
10.000
 70
    32
  0
VERTEX
  8
E53LXLIFT
 62
7
 10
5217.552
 20
-8860.887
 30
10.000
 70
    32
  0
VERTEX
  8
E53LXLIFT
 62
7
 10
5223.209
 20
-8854.674
 30
10.000
 70
    32
  0
VERTEX
  8
E53LXLIFT
 62
7
 10
5228.391
 20
-8860.110
 30
10.000
 70
    32
  0
VERTEX
  8
E53LXLIFT
 62
7
 10
5251.699
 20
-8858.555
 30
10.000
 70
    32
  0
VERTEX
  8
E53LXLIFT
 62
7
 10
5265.808
 20
-8868.311
 30
10.000
 70
    32
  0
VERTEX
  8
E53LXLIFT
 62
7
 10
5282.210
 20
-8883.121
 30
10.000
 70
    32
  0
VERTEX
  8
E53LXLIFT
 62
7
 10
5280.976
 20
-8901.737
 30
10.000
 70
    32
  0
VERTEX
  8
E53LXLIFT
 62
7
 10
5279.271
 20
-8908.747
 30
10.000
 70
    32
  0
VERTEX
  8
E53LXLIFT
 62
7
 10
5281.580
 20
-8919.007
 30
10.000
 70
    32
  0
SEQEND
  8
E53LXLIFT
  0
POLYLINE
  8
E53LXLIFT
 62
8
 66
     1
 70
     9
  0
VERTEX
  8
E53LXLIFT
 62
8
 10
4399.533
 20
-8220.314
 30
11.000
 70
    32
  0
VERTEX
  8
E53LXLIFT
 62
8
 10
4402.232
 20
-8208.881
 30
11.000
 70
    32
  0
VERTEX
  8
E53LXLIFT
 62
8
 10
4398.397
 20
-8192.243
 30
11.000
 70
    32
  0
VERTEX
  8
E53LXLIFT
 62
8
 10
4385.957
 20
-8198.542
 30
11.000
 70
    32
  0
VERTEX
  8
E53LXLIFT
 62
8
 10
4376.267
 20
-8211.407
 30
11.000
 70
    32
  0
VERTEX
  8
E53LXLIFT
 62
8
 10
4369.837
 20
-8224.272
 30
11.000
 70
    32
  0
VERTEX
  8
E53LXLIFT
 62
8
 10
4363.562
 20
-8242.238
 30
11.000
 70
    32
  0
VERTEX
  8
E53LXLIFT
 62
8
 10
4366.064
 20
-8252.465
 30
11.000
 70
    32
  0
VERTEX
  8
E53LXLIFT
 62
8
 10
4361.339
 20
-8268.100
 30
11.000
 70
    32
  0
VERTEX
  8
E53LXLIFT
 62
8
 10
4364.439
 20
-8281.365
 30
11.000
 70
    32
  0
VERTEX
  8
E53LXLIFT
 62
8
 10
4367.487
 20
-8288.040
 30
11.000
 70
    32
  0
VERTEX
  8
E53LXLIFT
 62
8
 10
4392.025
 20
-8307.424
 30
11.000
 70
    32
  0
VERTEX
  8
E53LXLIFT
 62
8
 10
4401.752
 20
-8304.094
 30
11.000
 70
    32
  0
VERTEX
  8
E53LXLIFT
 62
8
 10
4398.455
 20
-8286.410
 30
11.000
 70
    32
  0
VERTEX
  8
E53LXLIFT
 62
8
 10
4400.334
 20
-8264.821
 30
11.000
 70
    32
  0
VERTEX
  8
E53LXLIFT
 62
8
 10
4404.616
 20
-8246.360
 30
11.000
 70
    32
  0
VERTEX
  8
E53LXLIFT
 62
8
 10
4405.473
 20
-8235.082
 30
11.000
 70
    32
  0
SEQEND
  8
E53LXLIFT
  0
POLYLINE
  8
E53LXLIFT
 62
3
 66
     1
 70
     9
  0
VERTEX
  8
E53LXLIFT
 62
3
 10
4313.431
 20
-8223.368
 30
8.000
 70
    32
  0
VERTEX
  8
E53LXLIFT
 62
3
 10
4294.108
 20
-8224.282
 30
8.000
 70
    32
  0
VERTEX
  8
E53LXLIFT
 62
3
 10
4284.159
 20
-8228.644
 30
8.000
 70
    32
  0
VERTEX
  8
E53LXLIFT
 62
3
 10
4271.497
 20
-8227.824
 30
8.000
 70
    32
  0
VERTEX
  8
E53LXLIFT
 62
3
 10
4267.446
 20
-8231.339
 30
8.000
 70
    32
  0
VERTEX
  8
E53LXLIFT
 62
3
 10
4269.236
 20
-8234.372
 30
8.000
 70
    32
  0
VERTEX
  8
E53LXLIFT
 62
3
 10
4265.124
 20
-8238.692
 30
8.000
 70
    32
  0
VERTEX
  8
E53LXLIFT
 62
3
 10
4267.484
 20
-8253.912
 30
8.000
 70
    32
  0
VERTEX
  8
E53LXLIFT
 62
3
 10
4264.078
 20
-8265.863
 30
8.000
 70
    32
  0
VERTEX
  8
E53LXLIFT
 62
3
 10
4264.135
 20
-8273.645
 30
8.000
 70
    32
  0
VERTEX
  8
E53LXLIFT
 62
3
 10
4277.518
 20
-8295.451
 30
8.000
 70
    32
  0
VERTEX
  8
E53LXLIFT
 62
3
 10
4284.325
 20
-8307.844
 30
8.000
 70
    32
  0
VERTEX
  8
E53LXLIFT
 62
3
 10
4293.784
 20
-8314.816
 30
8.000
 70
    32
  0
VERTEX
  8
E53LXLIFT
 62
3
 10
4302.136
 20
-8326.946
 30
8.000
 70
    32
  0
VERTEX
  8
E53LXLIFT
 62
3
 10
4308.995
 20
-8334.521
 30
8.000
 70
    32
  0
VERTEX
  8
E53LXLIFT
 62
3
 10
4329.656
 20
-8349.359
 30
8.000
 70
    32
  0
VERTEX
  8
E53LXLIFT
 62
3
 10
4343.227
 20
-8345.491
 30
8.000
 70
    32
  0
VERTEX
  8
E53LXLIFT
 62
3
 10
4344.980
 20
-8335.731
 30
8.000
 70
    32
  0
VERTEX
  8
E53LXLIFT
 62
3
 10
4332.374
 20
-8310.096
 30
8.000
 70
    32
  0
VERTEX
  8
E53LXLIFT
 62
3
 10
4316.965
 20
-8277.823
 30
8.000
 70
    32
  0
VERTEX
  8
E53LXLIFT
 62
3
 10
4311.543
 20
-8262.132
 30
8.000
 70
    32
  0
VERTEX
  8
E53LXLIFT
 62
3
 10
4304.816
 20
-8242.290
 30
8.000
 70
    32
  0
VERTEX
  8
E53LXLIFT
 62
3
 10
4314.901
 20
-8233.373
 30
8.000
 70
    32
  0
SEQEND
  8
E53LXLIFT
  0
POLYLINE
  8
E53LXLIFT
 62
7
 66
     1
 70
     9
  0
VERTEX
  8
E53LXLIFT
 62
7
 10
4237.837
 20
-8024.865
 30
15.000
 70
    32
  0
VERTEX
  8
E53LXLIFT
 62
7
 10
4242.930
 20
-8043.515
 30
15.000
 70
    32
  0
VERTEX
  8
E53LXLIFT
 62
7
 10
4250.768
 20
-8059.390
 30
15.000
 70
    32
  0
VERTEX
  8
E53LXLIFT
 62
7
 10
4264.415
 20
-8077.851
 30
15.000
 70
    32
  0
VERTEX
  8
E53LXLIFT
 62
7
 10
4274.581
 20
-8092.454
 30
15.000
 70
    32
  0
VERTEX
  8
E53LXLIFT
 62
7
 10
4290.197
 20
-8095.671
 30
15.000
 70
    32
  0
VERTEX
  8
E53LXLIFT
 62
7
 10
4292.364
 20
-8114.184
 30
15.000
 70
    32
  0
VERTEX
  8
E53LXLIFT
 62
7
 10
4295.516
 20
-8122.630
 30
15.000
 70
    32
  0
VERTEX
  8
E53LXLIFT
 62
7
 10
4278.030
 20
-8141.756
 30
15.000
 70
    32
  0
VERTEX
  8
E53LXLIFT
 62
7
 10
4261.830
 20
-8157.004
 30
15.000
 70
    32
  0
VERTEX
  8
E53LXLIFT
 62
7
 10
4255.791
 20
-8174.255
 30
15.000
 70
    32
  0
VERTEX
  8
E53LXLIFT
 62
7
 10
4252.065
 20
-8199.697
 30
15.000
 70
    32
  0
VERTEX
  8
E53LXLIFT
 62
7
 10
4248.787
 20
-8214.489
 30
15.000
 70
    32
  0
VERTEX
  8
E53LXLIFT
 62
7
 10
4240.515
 20
-8220.989
 30
15.000
 70
    32
  0
VERTEX
  8
E53LXLIFT
 62
7
 10
4236.190
 20
-8217.315
 30
15.000
 70
    32
  0
VERTEX
  8
E53LXLIFT
 62
7
 10
4230.029
 20
-8200.319
 30
15.000
 70
    32
  0
VERTEX
  8
E53LXLIFT
 62
7
 10
4222.176
 20
-8167.830
 30
15.000
 70
    32
  0
VERTEX
  8
E53LXLIFT
 62
7
 10
4220.870
 20
-8127.822
 30
15.000
 70
    32
  0
VERTEX
  8
E53LXLIFT
 62
7
 10
4221.148
 20
-8106.864
 30
15.000
 70
    32
  0
VERTEX
  8
E53LXLIFT
 62
7
 10
4209.117
 20
-8075.048
 30
15.000
 70
    32
  0
VERTEX
  8
E53LXLIFT
 62
7
 10
4199.130
 20
-8050.318
 30
15.000
 70
    32
  0
VERTEX
  8
E53LXLIFT
 62
7
 10
4207.468
 20
-8044.203
 30
15.000
 70
    32
  0
VERTEX
  8
E53LXLIFT
 62
7
 10
4221.275
 20
-8060.808
 30
15.000
 70
    32
  0
VERTEX
  8
E53LXLIFT
 62
7
 10
4230.399
 20
-8056.507
 30
15.000
 70
    32
  0
VERTEX
  8
E53LXLIFT
 62
7
 10
4230.484
 20
-8038.842
 30
15.000
 70
    32
  0
VERTEX
  8
E53LXLIFT
 62
7
 10
4227.493
 20
-8026.910
 30
15.000
 70
    32
  0
SEQEND
  8
E53LXLIFT
  0
POLYLINE
  8
E53LXLIFT
 62
7
 66
     1
 70
     9
  0
VERTEX
  8
E53LXLIFT
 62
7
 10
4246.548
 20
-8077.045
 30
15.000
 70
    32
  0
VERTEX
  8
E53LXLIFT
 62
7
 10
4238.064
 20
-8082.072
 30
15.000
 70
    32
  0
VERTEX
  8
E53LXLIFT
 62
7
 10
4240.853
 20
-8088.393
 30
15.000
 70
    32
  0
VERTEX
  8
E53LXLIFT
 62
7
 10
4243.740
 20
-8098.554
 30
15.000
 70
    32
  0
VERTEX
  8
E53LXLIFT
 62
7
 10
4241.183
 20
-8114.773
 30
15.000
 70
    32
  0
VERTEX
  8
E53LXLIFT
 62
7
 10
4238.757
 20
-8133.395
 30
15.000
 70
    32
  0
VERTEX
  8
E53LXLIFT
 62
7
 10
4235.973
 20
-8147.823
 30
15.000
 70
    32
  0
VERTEX
  8
E53LXLIFT
 62
7
 10
4239.247
 20
-8156.288
 30
15.000
 70
    32
  0
VERTEX
  8
E53LXLIFT
 62
7
 10
4246.600
 20
-8156.981
 30
15.000
 70
    32
  0
VERTEX
  8
E53LXLIFT
 62
7
 10
4256.964
 20
-8146.664
 30
15.000
 70
    32
  0
VERTEX
  8
E53LXLIFT
 62
7
 10
4252.870
 20
-8136.193
 30
15.000
 70
    32
  0
VERTEX
  8
E53LXLIFT
 62
7
 10
4254.118
 20
-8121.151
 30
15.000
 70
    32
  0
VERTEX
  8
E53LXLIFT
 62
7
 10
4253.614
 20
-8102.832
 30
15.000
 70
    32
  0
SEQEND
  8
E53LXLIFT
  0
POLYLINE
  8
E53LXLIFT
 62
8
 66
     1
 70
     9
  0
VERTEX
  8
E53LXLIFT
 62
8
 10
4387.505
 20
-8183.715
 30
27.000
 70
    32
  0
VERTEX
  8
E53LXLIFT
 62
8
 10
4393.381
 20
-8195.238
 30
27.000
 70
    32
  0
VERTEX
  8
E53LXLIFT
 62
8
 10
4389.880
 20
-8215.100
 30
27.000
 70
    32
  0
VERTEX
  8
E53LXLIFT
 62
8
 10
4394.739
 20
-8228.356
 30
27.000
 70
    32
  0
VERTEX
  8
E53LXLIFT
 62
8
 10
4400.811
 20
-8237.328
 30
27.000
 70
    32
  0
VERTEX
  8
E53LXLIFT
 62
8
 10
4397.146
 20
-8244.516
 30
27.000
 70
    32
  0
VERTEX
  8
E53LXLIFT
 62
8
 10
4392.201
 20
-8248.930
 30
27.000
 70
    32
  0
VERTEX
  8
E53LXLIFT
 62
8
 10
4391.839
 20
-8268.007
 30
27.000
 70
    32
  0
VERTEX
  8
E53LXLIFT
 62
8
 10
4390.866
 20
-8281.957
 30
27.000
 70
    32
  0
VERTEX
  8
E53LXLIFT
 62
8
 10
4387.676
 20
-8291.419
 30
27.000
 70
    32
  0
VERTEX
  8
E53LXLIFT
 62
8
 10
4382.610
 20
-8293.298
 30
27.000
 70
    32
  0
VERTEX
  8
E53LXLIFT
 62
8
 10
4374.196
 20
-8291.084
 30
27.000
 70
    32
  0
VERTEX
  8
E53LXLIFT
 62
8
 10
4363.004
 20
-8275.172
 30
27.000
 70
    32
  0
VERTEX
  8
E53LXLIFT
 62
8
 10
4359.643
 20
-8266.169
 30
27.000
 70
    32
  0
VERTEX
  8
E53LXLIFT
 62
8
 10
4360.875
 20
-8250.496
 30
27.000
 70
    32
  0
VERTEX
  8
E53LXLIFT
 62
8
 10
4361.596
 20
-8239.466
 30
27.000
 70
    32
  0
VERTEX
  8
E53LXLIFT
 62
8
 10
4368.764
 20
-8216.570
 30
27.000
 70
    32
  0
VERTEX
  8
E53LXLIFT
 62
8
 10
4373.701
 20
-8197.617
 30
27.000
 70
    32
  0
VERTEX
  8
E53LXLIFT
 62
8
 10
4373.403
 20
-8190.838
 30
27.000
 70
    32
  0
VERTEX
  8
E53LXLIFT
 62
8
 10
4376.877
 20
-8183.244
 30
27.000
 70
    32
  0
SEQEND
  8
E53LXLIFT
  0
POLYLINE
  8
E53LXLIFT
 62
3
 66
     1
 70
     9
  0
VERTEX
  8
E53LXLIFT
 62
3
 10
4271.633
 20
-8268.872
 30
19.000
 70
    32
  0
VERTEX
  8
E53LXLIFT
 62
3
 10
4282.917
 20
-8264.156
 30
19.000
 70
    32
  0
VERTEX
  8
E53LXLIFT
 62
3
 10
4288.113
 20
-8279.351
 30
19.000
 70
    32
  0
VERTEX
  8
E53LXLIFT
 62
3
 10
4286.094
 20
-8289.808
 30
19.000
 70
    32
  0
VERTEX
  8
E53LXLIFT
 62
3
 10
4295.212
 20
-8303.204
 30
19.000
 70
    32
  0
VERTEX
  8
E53LXLIFT
 62
3
 10
4306.735
 20
-8310.670
 30
19.000
 70
    32
  0
VERTEX
  8
E53LXLIFT
 62
3
 10
4316.781
 20
-8324.584
 30
19.000
 70
    32
  0
VERTEX
  8
E53LXLIFT
 62
3
 10
4326.812
 20
-8338.181
 30
19.000
 70
    32
  0
VERTEX
  8
E53LXLIFT
 62
3
 10
4336.067
 20
-8331.900
 30
19.000
 70
    32
  0
VERTEX
  8
E53LXLIFT
 62
3
 10
4339.957
 20
-8320.718
 30
19.000
 70
    32
  0
VERTEX
  8
E53LXLIFT
 62
3
 10
4339.777
 20
-8312.321
 30
19.000
 70
    32
  0
VERTEX
  8
E53LXLIFT
 62
3
 10
4331.075
 20
-8295.338
 30
19.000
 70
    32
  0
VERTEX
  8
E53LXLIFT
 62
3
 10
4320.376
 20
-8274.906
 30
19.000
 70
    32
  0
VERTEX
  8
E53LXLIFT
 62
3
 10
4307.765
 20
-8255.885
 30
19.000
 70
    32
  0
VERTEX
  8
E53LXLIFT
 62
3
 10
4301.058
 20
-8244.867
 30
19.000
 70
    32
  0
VERTEX
  8
E53LXLIFT
 62
3
 10
4307.789
 20
-8232.793
 30
19.000
 70
    32
  0
VERTEX
  8
E53LXLIFT
 62
3
 10
4303.457
 20
-8228.552
 30
19.000
 70
    32
  0
VERTEX
  8
E53LXLIFT
 62
3
 10
4289.465
 20
-8232.860
 30
19.000
 70
    32
  0
VERTEX
  8
E53LXLIFT
 62
3
 10
4285.823
 20
-8234.890
 30
19.000
 70
    32
  0
VERTEX
  8
E53LXLIFT
 62
3
 10
4280.461
 20
-8227.473
 30
19.000
 70
    32
  0
VERTEX
  8
E53LXLIFT
 62
3
 10
4272.745
 20
-8226.057
 30
19.000
 70
    32
  0
VERTEX
  8
E53LXLIFT
 62
3
 10
4260.705
 20
-8232.862
 30
19.000
 70
    32
  0
VERTEX
  8
E53LXLIFT
 62
3
 10
4254.107
 20
-8236.963
 30
19.000
 70
    32
  0
VERTEX
  8
E53LXLIFT
 62
3
 10
4252.851
 20
-8244.452
 30
19.000
 70
    32
  0
VERTEX
  8
E53LXLIFT
 62
3
 10
4261.746
 20
-8252.654
 30
19.000
 70
    32
  0
SEQEND
  8
E53LXLIFT
  0
POLYLINE
  8
E53LXLIFT
 62
7
 66
     1
 70
     9
  0
VERTEX
  8
E53LXLIFT
 62
7
 10
4253.004
 20
-8200.485
 30
25.000
 70
    32
  0
VERTEX
  8
E53LXLIFT
 62
7
 10
4253.179
 20
-8173.891
 30
25.000
 70
    32
  0
VERTEX
  8
E53LXLIFT
 62
7
 10
4262.021
 20
-8150.744
 30
25.000
 70
    32
  0
VERTEX
  8
E53LXLIFT
 62
7
 10
4258.920
 20
-8146.689
 30
25.000
 70
    32
  0
VERTEX
  8
E53LXLIFT
 62
7
 10
4269.936
 20
-8129.157
 30
25.000
 70
    32
  0
VERTEX
  8
E53LXLIFT
 62
7
 10
4281.984
 20
-8116.878
 30
25.000
 70
    32
  0
VERTEX
  8
E53LXLIFT
 62
7
 10
4278.898
 20
-8106.469
 30
25.000
 70
    32
  0
VERTEX
  8
E53LXLIFT
 62
7
 10
4265.944
 20
-8099.731
 30
25.000
 70
    32
  0
VERTEX
  8
E53LXLIFT
 62
7
 10
4260.367
 20
-8097.065
 30
25.000
 70
    32
  0
VERTEX
  8
E53LXLIFT
 62
7
 10
4257.005
 20
-8085.985
 30
25.000
 70
    32
  0
VERTEX
  8
E53LXLIFT
 62
7
 10
4249.717
 20
-8077.144
 30
25.000
 70
    32
  0
VERTEX
  8
E53LXLIFT
 62
7
 10
4239.196
 20
-8054.285
 30
25.000
 70
    32
  0
VERTEX
  8
E53LXLIFT
 62
7
 10
4228.464
 20
-8029.066
 30
25.000
 70
    32
  0
VERTEX
  8
E53LXLIFT
 62
7
 10
4220.888
 20
-8030.062
 30
25.000
 70
    32
  0
VERTEX
  8
E53LXLIFT
 62
7
 10
4224.561
 20
-8048.678
 30
25.000
 70
    32
  0
VERTEX
  8
E53LXLIFT
 62
7
 10
4217.620
 20
-8058.392
 30
25.000
 70
    32
  0
VERTEX
  8
E53LXLIFT
 62
7
 10
4207.602
 20
-8054.300
 30
25.000
 70
    32
  0
VERTEX
  8
E53LXLIFT
 62
7
 10
4203.808
 20
-8057.755
 30
25.000
 70
    32
  0
VERTEX
  8
E53LXLIFT
 62
7
 10
4197.876
 20
-8046.602
 30
25.000
 70
    32
  0
VERTEX
  8
E53LXLIFT
 62
7
 10
4194.634
 20
-8038.057
 30
25.000
 70
    32
  0
VERTEX
  8
E53LXLIFT
 62
7
 10
4187.509
 20
-8039.814
 30
25.000
 70
    32
  0
VERTEX
  8
E53LXLIFT
 62
7
 10
4191.565
 20
-8056.726
 30
25.000
 70
    32
  0
VERTEX
  8
E53LXLIFT
 62
7
 10
4194.844
 20
-8078.366
 30
25.000
 70
    32
  0
VERTEX
  8
E53LXLIFT
 62
7
 10
4196.547
 20
-8087.937
 30
25.000
 70
    32
  0
VERTEX
  8
E53LXLIFT
 62
7
 10
4204.814
 20
-8095.289
 30
25.000
 70
    32
  0
VERTEX
  8
E53LXLIFT
 62
7
 10
4204.534
 20
-8119.665
 30
25.000
 70
    32
  0
VERTEX
  8
E53LXLIFT
 62
7
 10
4207.876
 20
-8140.056
 30
25.000
 70
    32
  0
VERTEX
  8
E53LXLIFT
 62
7
 10
4216.980
 20
-8150.618
 30
25.000
 70
    32
  0
VERTEX
  8
E53LXLIFT
 62
7
 10
4219.164
 20
-8154.912
 30
25.000
 70
    32
  0
VERTEX
  8
E53LXLIFT
 62
7
 10
4217.574
 20
-8164.616
 30
25.000
 70
    32
  0
VERTEX
  8
E53LXLIFT
 62
7
 10
4227.487
 20
-8186.502
 30
25.000
 70
    32
  0
VERTEX
  8
E53LXLIFT
 62
7
 10
4237.775
 20
-8198.816
 30
25.000
 70
    32
  0
VERTEX
  8
E53LXLIFT
 62
7
 10
4244.323
 20
-8205.468
 30
25.000
 70
    32
  0
SEQEND
  8
E53LXLIFT
  0
POLYLINE
  8
E53LXLIFT
 62
7
 66
     1
 70
     9
  0
VERTEX
  8
E53LXLIFT
 62
7
 10
4247.986
 20
-8158.255
 30
25.000
 70
    32
  0
VERTEX
  8
E53LXLIFT
 62
7
 10
4245.142
 20
-8139.575
 30
25.000
 70
    32
  0
VERTEX
  8
E53LXLIFT
 62
7
 10
4244.480
 20
-8118.519
 30
25.000
 70
    32
  0
VERTEX
  8
E53LXLIFT
 62
7
 10
4236.929
 20
-8091.828
 30
25.000
 70
    32
  0
VERTEX
  8
E53LXLIFT
 62
7
 10
4231.660
 20
-8079.202
 30
25.000
 70
    32
  0
VERTEX
  8
E53LXLIFT
 62
7
 10
4219.909
 20
-8082.841
 30
25.000
 70
    32
  0
VERTEX
  8
E53LXLIFT
 62
7
 10
4220.520
 20
-8101.309
 30
25.000
 70
    32
  0
VERTEX
  8
E53LXLIFT
 62
7
 10
4222.830
 20
-8123.118
 30
25.000
 70
    32
  0
VERTEX
  8
E53LXLIFT
 62
7
 10
4226.445
 20
-8140.026
 30
25.000
 70
    32
  0
VERTEX
  8
E53LXLIFT
 62
7
 10
4238.283
 20
-8163.336
 30
25.000
 70
    32
  0
SEQEND
  8
E53LXLIFT
  0
POLYLINE
  8
E53LXLIFT
 62
8
 66
     1
 70
     9
  0
VERTEX
  8
E53LXLIFT
 62
8
 10
4357.001
 20
-8201.148
 30
32.000
 70
    32
  0
VERTEX
  8
E53LXLIFT
 62
8
 10
4352.411
 20
-8224.681
 30
32.000
 70
    32
  0
VERTEX
  8
E53LXLIFT
 62
8
 10
4350.894
 20
-8241.385
 30
32.000
 70
    32
  0
VERTEX
  8
E53LXLIFT
 62
8
 10
4349.163
 20
-8258.246
 30
32.000
 70
    32
  0
VERTEX
  8
E53LXLIFT
 62
8
 10
4347.494
 20
-8266.992
 30
32.000
 70
    32
  0
VERTEX
  8
E53LXLIFT
 62
8
 10
4353.696
 20
-8285.900
 30
32.000
 70
    32
  0
VERTEX
  8
E53LXLIFT
 62
8
 10
4361.269
 20
-8291.481
 30
32.000
 70
    32
  0
VERTEX
  8
E53LXLIFT
 62
8
 10
4373.203
 20
-8290.055
 30
32.000
 70
    32
  0
VERTEX
  8
E53LXLIFT
 62
8
 10
4377.918
 20
-8278.317
 30
32.000
 70
    32
  0
VERTEX
  8
E53LXLIFT
 62
8
 10
4382.120
 20
-8259.321
 30
32.000
 70
    32
  0
VERTEX
  8
E53LXLIFT
 62
8
 10
4392.649
 20
-8244.201
 30
32.000
 70
    32
  0
VERTEX
  8
E53LXLIFT
 62
8
 10
4396.491
 20
-8234.847
 30
32.000
 70
    32
  0
VERTEX
  8
E53LXLIFT
 62
8
 10
4389.667
 20
-8222.392
 30
32.000
 70
    32
  0
VERTEX
  8
E53LXLIFT
 62
8
 10
4388.508
 20
-8204.265
 30
32.000
 70
    32
  0
VERTEX
  8
E53LXLIFT
 62
8
 10
4381.118
 20
-8186.118
 30
32.000
 70
    32
  0
VERTEX
  8
E53LXLIFT
 62
8
 10
4370.130
 20
-8192.413
 30
32.000
 70
    32
  0
SEQEND
  8
E53LXLIFT
  0
POLYLINE
  8
E53LXLIFT
 62
3
 66
     1
 70
     9
  0
VERTEX
  8
E53LXLIFT
 62
3
 10
4281.782
 20
-8220.855
 30
33.000
 70
    32
  0
VERTEX
  8
E53LXLIFT
 62
3
 10
4289.513
 20
-8229.484
 30
33.000
 70
    32
  0
VERTEX
  8
E53LXLIFT
 62
3
 10
4300.155
 20
-8228.676
 30
33.000
 70
    32
  0
VERTEX
  8
E53LXLIFT
 62
3
 10
4305.476
 20
-8238.632
 30
33.000
 70
    32
  0
VERTEX
  8
E53LXLIFT
 62
3
 10
4298.279
 20
-8244.444
 30
33.000
 70
    32
  0
VERTEX
  8
E53LXLIFT
 62
3
 10
4297.657
 20
-8264.310
 30
33.000
 70
    32
  0
VERTEX
  8
E53LXLIFT
 62
3
 10
4301.362
 20
-8296.496
 30
33.000
 70
    32
  0
VERTEX
  8
E53LXLIFT
 62
3
 10
4307.631
 20
-8309.683
 30
33.000
 70
    32
  0
VERTEX
  8
E53LXLIFT
 62
3
 10
4321.325
 20
-8326.162
 30
33.000
 70
    32
  0
VERTEX
  8
E53LXLIFT
 62
3
 10
4327.333
 20
-8336.161
 30
33.000
 70
    32
  0
VERTEX
  8
E53LXLIFT
 62
3
 10
4318.722
 20
-8340.935
 30
33.000
 70
    32
  0
VERTEX
  8
E53LXLIFT
 62
3
 10
4310.294
 20
-8342.086
 30
33.000
 70
    32
  0
VERTEX
  8
E53LXLIFT
 62
3
 10
4299.131
 20
-8325.936
 30
33.000
 70
    32
  0
VERTEX
  8
E53LXLIFT
 62
3
 10
4291.070
 20
-8315.367
 30
33.000
 70
    32
  0
VERTEX
  8
E53LXLIFT
 62
3
 10
4278.130
 20
-8306.625
 30
33.000
 70
    32
  0
VERTEX
  8
E53LXLIFT
 62
3
 10
4269.950
 20
-8297.234
 30
33.000
 70
    32
  0
VERTEX
  8
E53LXLIFT
 62
3
 10
4256.244
 20
-8269.859
 30
33.000
 70
    32
  0
VERTEX
  8
E53LXLIFT
 62
3
 10
4246.123
 20
-8247.384
 30
33.000
 70
    32
  0
VERTEX
  8
E53LXLIFT
 62
3
 10
4243.812
 20
-8240.351
 30
33.000
 70
    32
  0
VERTEX
  8
E53LXLIFT
 62
3
 10
4245.872
 20
-8225.431
 30
33.000
 70
    32
  0
VERTEX
  8
E53LXLIFT
 62
3
 10
4266.200
 20
-8222.661
 30
33.000
 70
    32
  0
SEQEND
  8
E53LXLIFT
  0
POLYLINE
  8
E53LXLIFT
 62
7
 66
     1
 70
     9
  0
VERTEX
  8
E53LXLIFT
 62
7
 10
4224.863
 20
-8059.015
 30
37.000
 70
    32
  0
VERTEX
  8
E53LXLIFT
 62
7
 10
4228.463
 20
-8073.175
 30
37.000
 70
    32
  0
VERTEX
  8
E53LXLIFT
 62
7
 10
4220.695
 20
-8081.040
 30
37.000
 70
    32
  0
VERTEX
  8
E53LXLIFT
 62
7
 10
4216.652
 20
-8092.504
 30
37.000
 70
    32
  0
VERTEX
  8
E53LXLIFT
 62
7
 10
4218.598
 20
-8118.561
 30
37.000
 70
    32
  0
VERTEX
  8
E53LXLIFT
 62
7
 10
4223.955
 20
-8140.487
 30
37.000
 70
    32
  0
VERTEX
  8
E53LXLIFT
 62
7
 10
4229.940
 20
-8153.882
 30
37.000
 70
    32
  0
VERTEX
  8
E53LXLIFT
 62
7
 10
4237.394
 20
-8156.171
 30
37.000
 70
    32
  0
VERTEX
  8
E53LXLIFT
 62
7
 10
4245.292
 20
-8150.719
 30
37.000
 70
    32
  0
VERTEX
  8
E53LXLIFT
 62
7
 10
4252.039
 20
-8141.311
 30
37.000
 70
    32
  0
VERTEX
  8
E53LXLIFT
 62
7
 10
4251.387
 20
-8121.940
 30
37.000
 70
    32
  0
VERTEX
  8
E53LXLIFT
 62
7
 10
4249.447
 20
-8113.327
 30
37.000
 70
    32
  0
VERTEX
  8
E53LXLIFT
 62
7
 10
4243.481
 20
-8104.280
 30
37.000
 70
    32
  0
VERTEX
  8
E53LXLIFT
 62
7
 10
4242.548
 20
-8090.785
 30
37.000
 70
    32
  0
VERTEX
  8
E53LXLIFT
 62
7
 10
4250.172
 20
-8093.604
 30
37.000
 70
    32
  0
VERTEX
  8
E53LXLIFT
 62
7
 10
4265.803
 20
-8095.143
 30
37.000
 70
    32
  0
VERTEX
  8
E53LXLIFT
 62
7
 10
4277.045
 20
-8103.056
 30
37.000
 70
    32
  0
VERTEX
  8
E53LXLIFT
 62
7
 10
4282.615
 20
-8106.942
 30
37.000
 70
    32
  0
VERTEX
  8
E53LXLIFT
 62
7
 10
4271.586
 20
-8116.757
 30
37.000
 70
    32
  0
VERTEX
  8
E53LXLIFT
 62
7
 10
4268.100
 20
-8128.686
 30
37.000
 70
    32
  0
VERTEX
  8
E53LXLIFT
 62
7
 10
4263.068
 20
-8140.438
 30
37.000
 70
    32
  0
VERTEX
  8
E53LXLIFT
 62
7
 10
4256.496
 20
-8154.407
 30
37.000
 70
    32
  0
VERTEX
  8
E53LXLIFT
 62
7
 10
4249.332
 20
-8169.355
 30
37.000
 70
    32
  0
VERTEX
  8
E53LXLIFT
 62
7
 10
4246.543
 20
-8184.918
 30
37.000
 70
    32
  0
VERTEX
  8
E53LXLIFT
 62
7
 10
4246.437
 20
-8195.355
 30
37.000
 70
    32
  0
VERTEX
  8
E53LXLIFT
 62
7
 10
4242.562
 20
-8200.044
 30
37.000
 70
    32
  0
VERTEX
  8
E53LXLIFT
 62
7
 10
4235.042
 20
-8197.368
 30
37.000
 70
    32
  0
VERTEX
  8
E53LXLIFT
 62
7
 10
4227.794
 20
-8179.117
 30
37.000
 70
    32
  0
VERTEX
  8
E53LXLIFT
 62
7
 10
4217.745
 20
-8156.590
 30
37.000
 70
    32
  0
VERTEX
  8
E53LXLIFT
 62
7
 10
4210.788
 20
-8131.583
 30
37.000
 70
    32
  0
VERTEX
  8
E53LXLIFT
 62
7
 10
4206.680
 20
-8109.725
 30
37.000
 70
    32
  0
VERTEX
  8
E53LXLIFT
 62
7
 10
4201.855
 20
-8081.522
 30
37.000
 70
    32
  0
VERTEX
  8
E53LXLIFT
 62
7
 10
4196.406
 20
-8052.466
 30
37.000
 70
    32
  0
VERTEX
  8
E53LXLIFT
 62
7
 10
4192.437
 20
-8033.778
 30
37.000
 70
    32
  0
VERTEX
  8
E53LXLIFT
 62
7
 10
4199.271
 20
-8031.940
 30
37.000
 70
    32
  0
VERTEX
  8
E53LXLIFT
 62
7
 10
4206.833
 20
-8048.980
 30
37.000
 70
    32
  0
VERTEX
  8
E53LXLIFT
 62
7
 10
4211.197
 20
-8061.054
 30
37.000
 70
    32
  0
SEQEND
  8
E53LXLIFT
  0
POLYLINE
  8
E53LXLIFT
 62
8
 66
     1
 70
     9
  0
VERTEX
  8
E53LXLIFT
 62
8
 10
4362.636
 20
-8167.569
 30
42.000
 70
    32
  0
VERTEX
  8
E53LXLIFT
 62
8
 10
4374.935
 20
-8189.820
 30
42.000
 70
    32
  0
VERTEX
  8
E53LXLIFT
 62
8
 10
4380.497
 20
-8217.343
 30
42.000
 70
    32
  0
VERTEX
  8
E53LXLIFT
 62
8
 10
4380.863
 20
-8228.281
 30
42.000
 70
    32
  0
VERTEX
  8
E53LXLIFT
 62
8
 10
4384.746
 20
-8233.194
 30
42.000
 70
    32
  0
VERTEX
  8
E53LXLIFT
 62
8
 10
4385.572
 20
-8246.931
 30
42.000
 70
    32
  0
VERTEX
  8
E53LXLIFT
 62
8
 10
4361.827
 20
-8259.095
 30
42.000
 70
    32
  0
VERTEX
  8
E53LXLIFT
 62
8
 10
4354.463
 20
-8264.700
 30
42.000
 70
    32
  0
VERTEX
  8
E53LXLIFT
 62
8
 10
4349.649
 20
-8259.687
 30
42.000
 70
    32
  0
VERTEX
  8
E53LXLIFT
 62
8
 10
4340.953
 20
-8254.818
 30
42.000
 70
    32
  0
VERTEX
  8
E53LXLIFT
 62
8
 10
4348.519
 20
-8233.570
 30
42.000
 70
    32
  0
VERTEX
  8
E53LXLIFT
 62
8
 10
4353.858
 20
-8213.134
 30
42.000
 70
    32
  0
VERTEX
  8
E53LXLIFT
 62
8
 10
4355.494
 20
-8192.178
 30
42.000
 70
    32
  0
VERTEX
  8
E53LXLIFT
 62
8
 10
4352.694
 20
-8171.649
 30
42.000
 70
    32
  0
SEQEND
  8
E53LXLIFT
  0
POLYLINE
  8
E53LXLIFT
 62
3
 66
     1
 70
     9
  0
VERTEX
  8
E53LXLIFT
 62
3
 10
4302.344
 20
-8238.783
 30
45.000
 70
    32
  0
VERTEX
  8
E53LXLIFT
 62
3
 10
4298.630
 20
-8251.727
 30
45.000
 70
    32
  0
VERTEX
  8
E53LXLIFT
 62
3
 10
4296.974
 20
-8277.863
 30
45.000
 70
    32
  0
VERTEX
  8
E53LXLIFT
 62
3
 10
4298.618
 20
-8305.019
 30
45.000
 70
    32
  0
VERTEX
  8
E53LXLIFT
 62
3
 10
4301.418
 20
-8317.582
 30
45.000
 70
    32
  0
VERTEX
  8
E53LXLIFT
 62
3
 10
4295.147
 20
-8328.878
 30
45.000
 70
    32
  0
VERTEX
  8
E53LXLIFT
 62
3
 10
4290.520
 20
-8331.484
 30
45.000
 70
    32
  0
VERTEX
  8
E53LXLIFT
 62
3
 10
4284.854
 20
-8318.673
 30
45.000
 70
    32
  0
VERTEX
  8
E53LXLIFT
 62
3
 10
4280.416
 20
-8298.110
 30
45.000
 70
    32
  0
VERTEX
  8
E53LXLIFT
 62
3
 10
4273.763
 20
-8285.885
 30
45.000
 70
    32
  0
VERTEX
  8
E53LXLIFT
 62
3
 10
4263.071
 20
-8270.363
 30
45.000
 70
    32
  0
VERTEX
  8
E53LXLIFT
 62
3
 10
4264.062
 20
-8259.979
 30
45.000
 70
    32
  0
VERTEX
  8
E53LXLIFT
 62
3
 10
4257.883
 20
-8246.129
 30
45.000
 70
    32
  0
VERTEX
  8
E53LXLIFT
 62
3
 10
4254.572
 20
-8222.729
 30
45.000
 70
    32
  0
VERTEX
  8
E53LXLIFT
 62
3
 10
4265.971
 20
-8214.288
 30
45.000
 70
    32
  0
VERTEX
  8
E53LXLIFT
 62
3
 10
4278.529
 20
-8212.245
 30
45.000
 70
    32
  0
VERTEX
  8
E53LXLIFT
 62
3
 10
4284.138
 20
-8225.742
 30
45.000
 70
    32
  0
VERTEX
  8
E53LXLIFT
 62
3
 10
4292.285
 20
-8230.136
 30
45.000
 70
    32
  0
VERTEX
  8
E53LXLIFT
 62
3
 10
4298.492
 20
-8231.157
 30
45.000
 70
    32
  0
SEQEND
  8
E53LXLIFT
  0
POLYLINE
  8
E53LXLIFT
 62
7
 66
     1
 70
     9
  0
VERTEX
  8
E53LXLIFT
 62
7
 10
4238.581
 20
-8113.729
 30
45.000
 70
    32
  0
VERTEX
  8
E53LXLIFT
 62
7
 10
4245.077
 20
-8126.495
 30
45.000
 70
    32
  0
VERTEX
  8
E53LXLIFT
 62
7
 10
4247.377
 20
-8137.581
 30
45.000
 70
    32
  0
VERTEX
  8
E53LXLIFT
 62
7
 10
4246.557
 20
-8146.984
 30
45.000
 70
    32
  0
VERTEX
  8
E53LXLIFT
 62
7
 10
4236.606
 20
-8154.729
 30
45.000
 70
    32
  0
VERTEX
  8
E53LXLIFT
 62
7
 10
4227.305
 20
-8158.036
 30
45.000
 70
    32
  0
VERTEX
  8
E53LXLIFT
 62
7
 10
4220.245
 20
-8144.160
 30
45.000
 70
    32
  0
VERTEX
  8
E53LXLIFT
 62
7
 10
4214.589
 20
-8124.775
 30
45.000
 70
    32
  0
VERTEX
  8
E53LXLIFT
 62
7
 10
4213.302
 20
-8107.165
 30
45.000
 70
    32
  0
VERTEX
  8
E53LXLIFT
 62
7
 10
4208.830
 20
-8088.241
 30
45.000
 70
    32
  0
VERTEX
  8
E53LXLIFT
 62
7
 10
4205.383
 20
-8073.225
 30
45.000
 70
    32
  0
VERTEX
  8
E53LXLIFT
 62
7
 10
4219.792
 20
-8064.930
 30
45.000
 70
    32
  0
VERTEX
  8
E53LXLIFT
 62
7
 10
4213.937
 20
-8055.373
 30
45.000
 70
    32
  0
VERTEX
  8
E53LXLIFT
 62
7
 10
4201.856
 20
-8045.994
 30
45.000
 70
    32
  0
VERTEX
  8
E53LXLIFT
 62
7
 10
4193.503
 20
-8031.196
 30
45.000
 70
    32
  0
VERTEX
  8
E53LXLIFT
 62
7
 10
4189.042
 20
-8017.647
 30
45.000
 70
    32
  0
VERTEX
  8
E53LXLIFT
 62
7
 10
4186.710
 20
-8013.257
 30
45.000
 70
    32
  0
VERTEX
  8
E53LXLIFT
 62
7
 10
4179.049
 20
-8021.655
 30
45.000
 70
    32
  0
VERTEX
  8
E53LXLIFT
 62
7
 10
4181.904
 20
-8036.441
 30
45.000
 70
    32
  0
VERTEX
  8
E53LXLIFT
 62
7
 10
4192.348
 20
-8062.793
 30
45.000
 70
    32
  0
VERTEX
  8
E53LXLIFT
 62
7
 10
4196.045
 20
-8083.985
 30
45.000
 70
    32
  0
VERTEX
  8
E53LXLIFT
 62
7
 10
4196.124
 20
-8084.252
 30
45.000
 70
    32
  0
VERTEX
  8
E53LXLIFT
 62
7
 10
4202.728
 20
-8109.428
 30
45.000
 70
    32
  0
VERTEX
  8
E53LXLIFT
 62
7
 10
4210.783
 20
-8142.950
 30
45.000
 70
    32
  0
VERTEX
  8
E53LXLIFT
 62
7
 10
4224.977
 20
-8175.710
 30
45.000
 70
    32
  0
VERTEX
  8
E53LXLIFT
 62
7
 10
4231.494
 20
-8188.354
 30
45.000
 70
    32
  0
VERTEX
  8
E53LXLIFT
 62
7
 10
4240.760
 20
-8185.610
 30
45.000
 70
    32
  0
VERTEX
  8
E53LXLIFT
 62
7
 10
4251.305
 20
-8159.255
 30
45.000
 70
    32
  0
VERTEX
  8
E53LXLIFT
 62
7
 10
4254.370
 20
-8154.733
 30
45.000
 70
    32
  0
VERTEX
  8
E53LXLIFT
 62
7
 10
4254.583
 20
-8132.517
 30
45.000
 70
    32
  0
VERTEX
  8
E53LXLIFT
 62
7
 10
4270.609
 20
-8117.488
 30
45.000
 70
    32
  0
VERTEX
  8
E53LXLIFT
 62
7
 10
4286.515
 20
-8103.512
 30
45.000
 70
    32
  0
VERTEX
  8
E53LXLIFT
 62
7
 10
4285.960
 20
-8095.829
 30
45.000
 70
    32
  0
VERTEX
  8
E53LXLIFT
 62
7
 10
4271.065
 20
-8094.240
 30
45.000
 70
    32
  0
VERTEX
  8
E53LXLIFT
 62
7
 10
4253.564
 20
-8103.954
 30
45.000
 70
    32
  0
SEQEND
  8
E53LXLIFT
  0
POLYLINE
  8
E53LXLIFT
 62
6
 66
     1
 70
     9
  0
VERTEX
  8
E53LXLIFT
 62
6
 10
5104.942
 20
-8461.650
 30
51.000
 70
    32
  0
VERTEX
  8
E53LXLIFT
 62
6
 10
5117.977
 20
-8471.735
 30
51.000
 70
    32
  0
VERTEX
  8
E53LXLIFT
 62
6
 10
5133.799
 20
-8486.859
 30
51.000
 70
    32
  0
VERTEX
  8
E53LXLIFT
 62
6
 10
5146.131
 20
-8497.908
 30
51.000
 70
    32
  0
VERTEX
  8
E53LXLIFT
 62
6
 10
5150.212
 20
-8510.093
 30
51.000
 70
    32
  0
VERTEX
  8
E53LXLIFT
 62
6
 10
5150.050
 20
-8516.465
 30
51.000
 70
    32
  0
VERTEX
  8
E53LXLIFT
 62
6
 10
5139.776
 20
-8524.269
 30
51.000
 70
    32
  0
VERTEX
  8
E53LXLIFT
 62
6
 10
5128.358
 20
-8535.670
 30
51.000
 70
    32
  0
VERTEX
  8
E53LXLIFT
 62
6
 10
5119.633
 20
-8537.051
 30
51.000
 70
    32
  0
VERTEX
  8
E53LXLIFT
 62
6
 10
5111.461
 20
-8527.163
 30
51.000
 70
    32
  0
VERTEX
  8
E53LXLIFT
 62
6
 10
5102.799
 20
-8512.816
 30
51.000
 70
    32
  0
VERTEX
  8
E53LXLIFT
 62
6
 10
5095.612
 20
-8499.119
 30
51.000
 70
    32
  0
VERTEX
  8
E53LXLIFT
 62
6
 10
5091.950
 20
-8490.568
 30
51.000
 70
    32
  0
VERTEX
  8
E53LXLIFT
 62
6
 10
5100.765
 20
-8485.063
 30
51.000
 70
    32
  0
VERTEX
  8
E53LXLIFT
 62
6
 10
5104.086
 20
-8479.834
 30
51.000
 70
    32
  0
VERTEX
  8
E53LXLIFT
 62
6
 10
5096.368
 20
-8472.895
 30
51.000
 70
    32
  0
SEQEND
  8
E53LXLIFT
  0
POLYLINE
  8
E53LXLIFT
 62
8
 66
     1
 70
     9
  0
VERTEX
  8
E53LXLIFT
 62
8
 10
4379.603
 20
-8250.802
 30
50.000
 70
    32
  0
VERTEX
  8
E53LXLIFT
 62
8
 10
4374.540
 20
-8236.282
 30
50.000
 70
    32
  0
VERTEX
  8
E53LXLIFT
 62
8
 10
4363.422
 20
-8220.705
 30
50.000
 70
    32
  0
VERTEX
  8
E53LXLIFT
 62
8
 10
4350.893
 20
-8215.395
 30
50.000
 70
    32
  0
VERTEX
  8
E53LXLIFT
 62
8
 10
4344.130
 20
-8223.201
 30
50.000
 70
    32
  0
VERTEX
  8
E53LXLIFT
 62
8
 10
4337.521
 20
-8235.168
 30
50.000
 70
    32
  0
VERTEX
  8
E53LXLIFT
 62
8
 10
4338.372
 20
-8248.456
 30
50.000
 70
    32
  0
VERTEX
  8
E53LXLIFT
 62
8
 10
4340.679
 20
-8262.518
 30
50.000
 70
    32
  0
VERTEX
  8
E53LXLIFT
 62
8
 10
4352.365
 20
-8268.459
 30
50.000
 70
    32
  0
VERTEX
  8
E53LXLIFT
 62
8
 10
4358.968
 20
-8264.391
 30
50.000
 70
    32
  0
SEQEND
  8
E53LXLIFT
  0
POLYLINE
  8
E53LXLIFT
 62
3
 66
     1
 70
     9
  0
VERTEX
  8
E53LXLIFT
 62
3
 10
4257.266
 20
-8188.912
 30
55.000
 70
    32
  0
VERTEX
  8
E53LXLIFT
 62
3
 10
4273.280
 20
-8205.317
 30
55.000
 70
    32
  0
VERTEX
  8
E53LXLIFT
 62
3
 10
4284.151
 20
-8222.615
 30
55.000
 70
    32
  0
VERTEX
  8
E53LXLIFT
 62
3
 10
4290.377
 20
-8230.781
 30
55.000
 70
    32
  0
VERTEX
  8
E53LXLIFT
 62
3
 10
4299.326
 20
-8234.386
 30
55.000
 70
    32
  0
VERTEX
  8
E53LXLIFT
 62
3
 10
4300.813
 20
-8241.935
 30
55.000
 70
    32
  0
VERTEX
  8
E53LXLIFT
 62
3
 10
4289.415
 20
-8250.581
 30
55.000
 70
    32
  0
VERTEX
  8
E53LXLIFT
 62
3
 10
4297.220
 20
-8259.977
 30
55.000
 70
    32
  0
VERTEX
  8
E53LXLIFT
 62
3
 10
4298.522
 20
-8280.603
 30
55.000
 70
    32
  0
VERTEX
  8
E53LXLIFT
 62
3
 10
4299.345
 20
-8307.179
 30
55.000
 70
    32
  0
VERTEX
  8
E53LXLIFT
 62
3
 10
4298.265
 20
-8320.378
 30
55.000
 70
    32
  0
VERTEX
  8
E53LXLIFT
 62
3
 10
4293.575
 20
-8325.535
 30
55.000
 70
    32
  0
VERTEX
  8
E53LXLIFT
 62
3
 10
4287.630
 20
-8318.036
 30
55.000
 70
    32
  0
VERTEX
  8
E53LXLIFT
 62
3
 10
4288.885
 20
-8306.241
 30
55.000
 70
    32
  0
VERTEX
  8
E53LXLIFT
 62
3
 10
4287.279
 20
-8293.409
 30
55.000
 70
    32
  0
VERTEX
  8
E53LXLIFT
 62
3
 10
4276.056
 20
-8277.691
 30
55.000
 70
    32
  0
VERTEX
  8
E53LXLIFT
 62
3
 10
4263.409
 20
-8265.342
 30
55.000
 70
    32
  0
VERTEX
  8
E53LXLIFT
 62
3
 10
4255.856
 20
-8247.204
 30
55.000
 70
    32
  0
VERTEX
  8
E53LXLIFT
 62
3
 10
4248.760
 20
-8228.505
 30
55.000
 70
    32
  0
VERTEX
  8
E53LXLIFT
 62
3
 10
4248.931
 20
-8210.724
 30
55.000
 70
    32
  0
VERTEX
  8
E53LXLIFT
 62
3
 10
4250.611
 20
-8192.909
 30
55.000
 70
    32
  0
SEQEND
  8
E53LXLIFT
  0
POLYLINE
  8
E53LXLIFT
 62
7
 66
     1
 70
     9
  0
VERTEX
  8
E53LXLIFT
 62
7
 10
4258.491
 20
-8169.025
 30
56.000
 70
    32
  0
VERTEX
  8
E53LXLIFT
 62
7
 10
4253.351
 20
-8165.089
 30
56.000
 70
    32
  0
VERTEX
  8
E53LXLIFT
 62
7
 10
4245.166
 20
-8171.877
 30
56.000
 70
    32
  0
VERTEX
  8
E53LXLIFT
 62
7
 10
4237.635
 20
-8172.802
 30
56.000
 70
    32
  0
VERTEX
  8
E53LXLIFT
 62
7
 10
4227.517
 20
-8158.559
 30
56.000
 70
    32
  0
VERTEX
  8
E53LXLIFT
 62
7
 10
4217.454
 20
-8140.437
 30
56.000
 70
    32
  0
VERTEX
  8
E53LXLIFT
 62
7
 10
4211.808
 20
-8133.043
 30
56.000
 70
    32
  0
VERTEX
  8
E53LXLIFT
 62
7
 10
4206.609
 20
-8136.498
 30
56.000
 70
    32
  0
VERTEX
  8
E53LXLIFT
 62
7
 10
4214.675
 20
-8149.756
 30
56.000
 70
    32
  0
VERTEX
  8
E53LXLIFT
 62
7
 10
4226.298
 20
-8169.669
 30
56.000
 70
    32
  0
VERTEX
  8
E53LXLIFT
 62
7
 10
4232.890
 20
-8181.838
 30
56.000
 70
    32
  0
VERTEX
  8
E53LXLIFT
 62
7
 10
4240.667
 20
-8180.071
 30
56.000
 70
    32
  0
SEQEND
  8
E53LXLIFT
  0
POLYLINE
  8
E53LXLIFT
 62
7
 66
     1
 70
     9
  0
VERTEX
  8
E53LXLIFT
 62
7
 10
4249.962
 20
-8116.640
 30
57.000
 70
    32
  0
VERTEX
  8
E53LXLIFT
 62
7
 10
4251.168
 20
-8123.522
 30
57.000
 70
    32
  0
VERTEX
  8
E53LXLIFT
 62
7
 10
4249.076
 20
-8128.049
 30
57.000
 70
    32
  0
VERTEX
  8
E53LXLIFT
 62
7
 10
4238.121
 20
-8131.868
 30
57.000
 70
    32
  0
VERTEX
  8
E53LXLIFT
 62
7
 10
4230.050
 20
-8125.631
 30
57.000
 70
    32
  0
VERTEX
  8
E53LXLIFT
 62
7
 10
4225.478
 20
-8112.937
 30
57.000
 70
    32
  0
VERTEX
  8
E53LXLIFT
 62
7
 10
4227.506
 20
-8099.686
 30
57.000
 70
    32
  0
VERTEX
  8
E53LXLIFT
 62
7
 10
4235.412
 20
-8089.159
 30
57.000
 70
    32
  0
VERTEX
  8
E53LXLIFT
 62
7
 10
4246.106
 20
-8083.234
 30
57.000
 70
    32
  0
VERTEX
  8
E53LXLIFT
 62
7
 10
4256.255
 20
-8078.923
 30
57.000
 70
    32
  0
VERTEX
  8
E53LXLIFT
 62
7
 10
4269.754
 20
-8078.353
 30
57.000
 70
    32
  0
VERTEX
  8
E53LXLIFT
 62
7
 10
4275.348
 20
-8085.677
 30
57.000
 70
    32
  0
VERTEX
  8
E53LXLIFT
 62
7
 10
4276.165
 20
-8097.456
 30
57.000
 70
    32
  0
VERTEX
  8
E53LXLIFT
 62
7
 10
4272.843
 20
-8103.562
 30
57.000
 70
    32
  0
SEQEND
  8
E53LXLIFT
  0
POLYLINE
  8
E53LXLIFT
 62
6
 66
     1
 70
     9
  0
VERTEX
  8
E53LXLIFT
 62
6
 10
5101.047
 20
-8516.763
 30
61.000
 70
    32
  0
VERTEX
  8
E53LXLIFT
 62
6
 10
5090.730
 20
-8510.188
 30
61.000
 70
    32
  0
VERTEX
  8
E53LXLIFT
 62
6
 10
5080.836
 20
-8491.617
 30
61.000
 70
    32
  0
VERTEX
  8
E53LXLIFT
 62
6
 10
5083.868
 20
-8480.642
 30
61.000
 70
    32
  0
VERTEX
  8
E53LXLIFT
 62
6
 10
5092.120
 20
-8471.708
 30
61.000
 70
    32
  0
VERTEX
  8
E53LXLIFT
 62
6
 10
5100.076
 20
-8474.349
 30
61.000
 70
    32
  0
VERTEX
  8
E53LXLIFT
 62
6
 10
5105.905
 20
-8465.239
 30
61.000
 70
    32
  0
VERTEX
  8
E53LXLIFT
 62
6
 10
5122.776
 20
-8459.548
 30
61.000
 70
    32
  0
VERTEX
  8
E53LXLIFT
 62
6
 10
5138.674
 20
-8471.611
 30
61.000
 70
    32
  0
VERTEX
  8
E53LXLIFT
 62
6
 10
5150.397
 20
-8478.021
 30
61.000
 70
    32
  0
VERTEX
  8
E53LXLIFT
 62
6
 10
5157.558
 20
-8488.456
 30
61.000
 70
    32
  0
VERTEX
  8
E53LXLIFT
 62
6
 10
5146.934
 20
-8499.797
 30
61.000
 70
    32
  0
VERTEX
  8
E53LXLIFT
 62
6
 10
5135.801
 20
-8518.283
 30
61.000
 70
    32
  0
VERTEX
  8
E53LXLIFT
 62
6
 10
5126.616
 20
-8534.677
 30
61.000
 70
    32
  0
VERTEX
  8
E53LXLIFT
 62
6
 10
5117.623
 20
-8539.354
 30
61.000
 70
    32
  0
VERTEX
  8
E53LXLIFT
 62
6
 10
5107.988
 20
-8533.257
 30
61.000
 70
    32
  0
SEQEND
  8
E53LXLIFT
  0
POLYLINE
  8
E53LXLIFT
 62
8
 66
     1
 70
     9
  0
VERTEX
  8
E53LXLIFT
 62
8
 10
4376.832
 20
-8237.290
 30
64.000
 70
    32
  0
VERTEX
  8
E53LXLIFT
 62
8
 10
4379.638
 20
-8249.959
 30
64.000
 70
    32
  0
VERTEX
  8
E53LXLIFT
 62
8
 10
4373.488
 20
-8254.938
 30
64.000
 70
    32
  0
VERTEX
  8
E53LXLIFT
 62
8
 10
4365.756
 20
-8262.506
 30
64.000
 70
    32
  0
VERTEX
  8
E53LXLIFT
 62
8
 10
4355.315
 20
-8268.033
 30
64.000
 70
    32
  0
VERTEX
  8
E53LXLIFT
 62
8
 10
4348.565
 20
-8275.748
 30
64.000
 70
    32
  0
VERTEX
  8
E53LXLIFT
 62
8
 10
4341.263
 20
-8275.027
 30
64.000
 70
    32
  0
VERTEX
  8
E53LXLIFT
 62
8
 10
4330.643
 20
-8266.710
 30
64.000
 70
    32
  0
VERTEX
  8
E53LXLIFT
 62
8
 10
4322.713
 20
-8258.044
 30
64.000
 70
    32
  0
VERTEX
  8
E53LXLIFT
 62
8
 10
4316.135
 20
-8239.972
 30
64.000
 70
    32
  0
VERTEX
  8
E53LXLIFT
 62
8
 10
4316.439
 20
-8225.007
 30
64.000
 70
    32
  0
VERTEX
  8
E53LXLIFT
 62
8
 10
4319.914
 20
-8218.181
 30
64.000
 70
    32
  0
VERTEX
  8
E53LXLIFT
 62
8
 10
4327.603
 20
-8211.737
 30
64.000
 70
    32
  0
VERTEX
  8
E53LXLIFT
 62
8
 10
4339.914
 20
-8207.559
 30
64.000
 70
    32
  0
VERTEX
  8
E53LXLIFT
 62
8
 10
4348.675
 20
-8217.795
 30
64.000
 70
    32
  0
VERTEX
  8
E53LXLIFT
 62
8
 10
4357.811
 20
-8227.208
 30
64.000
 70
    32
  0
VERTEX
  8
E53LXLIFT
 62
8
 10
4366.153
 20
-8232.293
 30
64.000
 70
    32
  0
SEQEND
  8
E53LXLIFT
  0
POLYLINE
  8
E53LXLIFT
 62
3
 66
     1
 70
     9
  0
VERTEX
  8
E53LXLIFT
 62
3
 10
4311.749
 20
-8260.792
 30
64.000
 70
    32
  0
VERTEX
  8
E53LXLIFT
 62
3
 10
4308.225
 20
-8254.986
 30
64.000
 70
    32
  0
VERTEX
  8
E53LXLIFT
 62
3
 10
4293.924
 20
-8243.164
 30
64.000
 70
    32
  0
VERTEX
  8
E53LXLIFT
 62
3
 10
4287.144
 20
-8233.540
 30
64.000
 70
    32
  0
VERTEX
  8
E53LXLIFT
 62
3
 10
4279.293
 20
-8218.919
 30
64.000
 70
    32
  0
VERTEX
  8
E53LXLIFT
 62
3
 10
4272.435
 20
-8212.738
 30
64.000
 70
    32
  0
VERTEX
  8
E53LXLIFT
 62
3
 10
4255.300
 20
-8199.296
 30
64.000
 70
    32
  0
VERTEX
  8
E53LXLIFT
 62
3
 10
4247.636
 20
-8185.520
 30
64.000
 70
    32
  0
VERTEX
  8
E53LXLIFT
 62
3
 10
4241.711
 20
-8181.488
 30
64.000
 70
    32
  0
VERTEX
  8
E53LXLIFT
 62
3
 10
4231.574
 20
-8188.757
 30
64.000
 70
    32
  0
VERTEX
  8
E53LXLIFT
 62
3
 10
4238.250
 20
-8198.240
 30
64.000
 70
    32
  0
VERTEX
  8
E53LXLIFT
 62
3
 10
4250.088
 20
-8208.059
 30
64.000
 70
    32
  0
VERTEX
  8
E53LXLIFT
 62
3
 10
4251.091
 20
-8222.278
 30
64.000
 70
    32
  0
VERTEX
  8
E53LXLIFT
 62
3
 10
4262.129
 20
-8235.745
 30
64.000
 70
    32
  0
VERTEX
  8
E53LXLIFT
 62
3
 10
4277.492
 20
-8251.370
 30
64.000
 70
    32
  0
VERTEX
  8
E53LXLIFT
 62
3
 10
4290.617
 20
-8270.176
 30
64.000
 70
    32
  0
SEQEND
  8
E53LXLIFT
  0
POLYLINE
  8
E53LXLIFT
 62
7
 66
     1
 70
     9
  0
VERTEX
  8
E53LXLIFT
 62
7
 10
4276.946
 20
-8081.649
 30
61.000
 70
    32
  0
VERTEX
  8
E53LXLIFT
 62
7
 10
4268.765
 20
-8090.530
 30
61.000
 70
    32
  0
VERTEX
  8
E53LXLIFT
 62
7
 10
4271.609
 20
-8107.539
 30
61.000
 70
    32
  0
VERTEX
  8
E53LXLIFT
 62
7
 10
4255.662
 20
-8121.282
 30
61.000
 70
    32
  0
VERTEX
  8
E53LXLIFT
 62
7
 10
4246.486
 20
-8129.261
 30
61.000
 70
    32
  0
VERTEX
  8
E53LXLIFT
 62
7
 10
4239.672
 20
-8145.759
 30
61.000
 70
    32
  0
VERTEX
  8
E53LXLIFT
 62
7
 10
4223.749
 20
-8153.916
 30
61.000
 70
    32
  0
VERTEX
  8
E53LXLIFT
 62
7
 10
4210.293
 20
-8139.395
 30
61.000
 70
    32
  0
VERTEX
  8
E53LXLIFT
 62
7
 10
4203.933
 20
-8122.800
 30
61.000
 70
    32
  0
VERTEX
  8
E53LXLIFT
 62
7
 10
4218.409
 20
-8108.395
 30
61.000
 70
    32
  0
VERTEX
  8
E53LXLIFT
 62
7
 10
4226.168
 20
-8094.803
 30
61.000
 70
    32
  0
VERTEX
  8
E53LXLIFT
 62
7
 10
4235.158
 20
-8083.467
 30
61.000
 70
    32
  0
VERTEX
  8
E53LXLIFT
 62
7
 10
4256.381
 20
-8075.981
 30
61.000
 70
    32
  0
VERTEX
  8
E53LXLIFT
 62
7
 10
4270.801
 20
-8071.555
 30
61.000
 70
    32
  0
SEQEND
  8
E53LXLIFT
  0
POLYLINE
  8
E53LXLIFT
 62
6
 66
     1
 70
     9
  0
VERTEX
  8
E53LXLIFT
 62
6
 10
5109.086
 20
-8481.769
 30
71.000
 70
    32
  0
VERTEX
  8
E53LXLIFT
 62
6
 10
5124.000
 20
-8475.555
 30
71.000
 70
    32
  0
VERTEX
  8
E53LXLIFT
 62
6
 10
5130.507
 20
-8471.177
 30
71.000
 70
    32
  0
VERTEX
  8
E53LXLIFT
 62
6
 10
5142.509
 20
-8482.223
 30
71.000
 70
    32
  0
VERTEX
  8
E53LXLIFT
 62
6
 10
5150.409
 20
-8492.498
 30
71.000
 70
    32
  0
VERTEX
  8
E53LXLIFT
 62
6
 10
5140.430
 20
-8496.845
 30
71.000
 70
    32
  0
VERTEX
  8
E53LXLIFT
 62
6
 10
5129.088
 20
-8503.233
 30
71.000
 70
    32
  0
VERTEX
  8
E53LXLIFT
 62
6
 10
5121.840
 20
-8511.908
 30
71.000
 70
    32
  0
VERTEX
  8
E53LXLIFT
 62
6
 10
5121.891
 20
-8524.812
 30
71.000
 70
    32
  0
VERTEX
  8
E53LXLIFT
 62
6
 10
5121.162
 20
-8536.001
 30
71.000
 70
    32
  0
VERTEX
  8
E53LXLIFT
 62
6
 10
5116.920
 20
-8536.407
 30
71.000
 70
    32
  0
VERTEX
  8
E53LXLIFT
 62
6
 10
5098.696
 20
-8521.128
 30
71.000
 70
    32
  0
VERTEX
  8
E53LXLIFT
 62
6
 10
5086.592
 20
-8508.105
 30
71.000
 70
    32
  0
VERTEX
  8
E53LXLIFT
 62
6
 10
5086.538
 20
-8495.959
 30
71.000
 70
    32
  0
VERTEX
  8
E53LXLIFT
 62
6
 10
5096.727
 20
-8499.549
 30
71.000
 70
    32
  0
SEQEND
  8
E53LXLIFT
  0
POLYLINE
  8
E53LXLIFT
 62
7
 66
     1
 70
     9
  0
VERTEX
  8
E53LXLIFT
 62
7
 10
4171.696
 20
-8124.550
 30
78.000
 70
    32
  0
VERTEX
  8
E53LXLIFT
 62
7
 10
4183.816
 20
-8130.876
 30
78.000
 70
    32
  0
VERTEX
  8
E53LXLIFT
 62
7
 10
4194.789
 20
-8140.922
 30
78.000
 70
    32
  0
VERTEX
  8
E53LXLIFT
 62
7
 10
4215.288
 20
-8148.881
 30
78.000
 70
    32
  0
VERTEX
  8
E53LXLIFT
 62
7
 10
4223.331
 20
-8146.223
 30
78.000
 70
    32
  0
VERTEX
  8
E53LXLIFT
 62
7
 10
4232.328
 20
-8143.539
 30
78.000
 70
    32
  0
VERTEX
  8
E53LXLIFT
 62
7
 10
4241.515
 20
-8126.919
 30
78.000
 70
    32
  0
VERTEX
  8
E53LXLIFT
 62
7
 10
4256.985
 20
-8105.756
 30
78.000
 70
    32
  0
VERTEX
  8
E53LXLIFT
 62
7
 10
4267.645
 20
-8085.723
 30
78.000
 70
    32
  0
VERTEX
  8
E53LXLIFT
 62
7
 10
4274.508
 20
-8076.350
 30
78.000
 70
    32
  0
VERTEX
  8
E53LXLIFT
 62
7
 10
4274.513
 20
-8066.427
 30
78.000
 70
    32
  0
VERTEX
  8
E53LXLIFT
 62
7
 10
4262.566
 20
-8062.028
 30
78.000
 70
    32
  0
VERTEX
  8
E53LXLIFT
 62
7
 10
4251.402
 20
-8065.918
 30
78.000
 70
    32
  0
VERTEX
  8
E53LXLIFT
 62
7
 10
4240.356
 20
-8072.420
 30
78.000
 70
    32
  0
VERTEX
  8
E53LXLIFT
 62
7
 10
4230.026
 20
-8082.839
 30
78.000
 70
    32
  0
VERTEX
  8
E53LXLIFT
 62
7
 10
4222.448
 20
-8097.461
 30
78.000
 70
    32
  0
VERTEX
  8
E53LXLIFT
 62
7
 10
4220.051
 20
-8112.092
 30
78.000
 70
    32
  0
VERTEX
  8
E53LXLIFT
 62
7
 10
4206.563
 20
-8112.232
 30
78.000
 70
    32
  0
VERTEX
  8
E53LXLIFT
 62
7
 10
4178.466
 20
-8109.852
 30
78.000
 70
    32
  0
SEQEND
  8
E53LXLIFT
  0
POLYLINE
  8
E53LXLIFT
 62
1
 66
     1
 70
     9
  0
VERTEX
  8
E53LXLIFT
 62
1
 10
4180.466
 20
-8107.852
 30
88.000
 70
    32
  0
VERTEX
  8
E53LXLIFT
 62
1
 10
4208.563
 20
-8110.232
 30
88.000
 70
    32
  0
VERTEX
  8
E53LXLIFT
 62
1
 10
4222.051
 20
-8110.092
 30
88.000
 70
    32
  0
VERTEX
  8
E53LXLIFT
 62
1
 10
4224.448
 20
-8095.461
 30
88.000
 70
    32
  0
VERTEX
  8
E53LXLIFT
 62
1
 10
4232.026
 20
-8080.839
 30
88.000
 70
    32
  0
VERTEX
  8
E53LXLIFT
 62
1
 10
4242.356
 20
-8070.420
 30
88.000
 70
    32
  0
VERTEX
  8
E53LXLIFT
 62
1
 10
4253.402
 20
-8063.918
 30
88.000
 70
    32
  0
VERTEX
  8
E53LXLIFT
 62
1
 10
4264.566
 20
-8060.028
 30
88.000
 70
    32
  0
VERTEX
  8
E53LXLIFT
 62
1
 10
4276.513
 20
-8064.427
 30
88.000
 70
    32
  0
VERTEX
  8
E53LXLIFT
 62
1
 10
4276.508
 20
-8074.350
 30
88.000
 70
    32
  0
VERTEX
  8
E53LXLIFT
 62
1
 10
4269.645
 20
-8083.723
 30
88.000
 70
    32
  0
VERTEX
  8
E53LXLIFT
 62
1
 10
4258.985
 20
-8103.756
 30
88.000
 70
    32
  0
VERTEX
  8
E53LXLIFT
 62
1
 10
4243.515
 20
-8124.919
 30
88.000
 70
    32
  0
VERTEX
  8
E53LXLIFT
 62
1
 10
4234.328
 20
-8141.539
 30
88.000
 70
    32
  0
VERTEX
  8
E53LXLIFT
 62
1
 10
4225.331
 20
-8144.223
 30
88.000
 70
    32
  0
VERTEX
  8
E53LXLIFT
 62
1
 10
4217.288
 20
-8146.881
 30
88.000
 70
    32
  0
VERTEX
  8
E53LXLIFT
 62
1
 10
4196.789
 20
-8138.922
 30
88.000
 70
    32
  0
VERTEX
  8
E53LXLIFT
 62
1
 10
4185.816
 20
-8128.876
 30
88.000
 70
    32
  0
VERTEX
  8
E53LXLIFT
 62
1
 10
4173.696
 20
-8122.550
 30
88.000
 70
    32
  0
SEQEND
  8
E53LXLIFT
  0
POLYLINE
  8
E53LXLIFT
 62
1
 66
     1
 70
     9
  0
VERTEX
  8
E53LXLIFT
 62
1
 10
4292.617
 20
-8268.176
 30
74.000
 70
    32
  0
VERTEX
  8
E53LXLIFT
 62
1
 10
4279.492
 20
-8249.370
 30
74.000
 70
    32
  0
VERTEX
  8
E53LXLIFT
 62
1
 10
4264.129
 20
-8233.745
 30
74.000
 70
    32
  0
VERTEX
  8
E53LXLIFT
 62
1
 10
4253.091
 20
-8220.278
 30
74.000
 70
    32
  0
VERTEX
  8
E53LXLIFT
 62
1
 10
4252.088
 20
-8206.059
 30
74.000
 70
    32
  0
VERTEX
  8
E53LXLIFT
 62
1
 10
4240.250
 20
-8196.240
 30
74.000
 70
    32
  0
VERTEX
  8
E53LXLIFT
 62
1
 10
4233.574
 20
-8186.757
 30
74.000
 70
    32
  0
VERTEX
  8
E53LXLIFT
 62
1
 10
4243.711
 20
-8179.488
 30
74.000
 70
    32
  0
VERTEX
  8
E53LXLIFT
 62
1
 10
4249.636
 20
-8183.520
 30
74.000
 70
    32
  0
VERTEX
  8
E53LXLIFT
 62
1
 10
4257.300
 20
-8197.296
 30
74.000
 70
    32
  0
VERTEX
  8
E53LXLIFT
 62
1
 10
4274.435
 20
-8210.738
 30
74.000
 70
    32
  0
VERTEX
  8
E53LXLIFT
 62
1
 10
4281.293
 20
-8216.919
 30
74.000
 70
    32
  0
VERTEX
  8
E53LXLIFT
 62
1
 10
4289.144
 20
-8231.540
 30
74.000
 70
    32
  0
VERTEX
  8
E53LXLIFT
 62
1
 10
4295.924
 20
-8241.164
 30
74.000
 70
    32
  0
VERTEX
  8
E53LXLIFT
 62
1
 10
4310.225
 20
-8252.986
 30
74.000
 70
    32
  0
VERTEX
  8
E53LXLIFT
 62
1
 10
4313.749
 20
-8258.792
 30
74.000
 70
    32
  0
SEQEND
  8
E53LXLIFT
  0
POLYLINE
  8
E53LXLIFT
 62
1
 66
     1
 70
     9
  0
VERTEX
  8
E53LXLIFT
 62
1
 10
4378.832
 20
-8235.290
 30
74.000
 70
    32
  0
VERTEX
  8
E53LXLIFT
 62
1
 10
4381.638
 20
-8247.959
 30
74.000
 70
    32
  0
VERTEX
  8
E53LXLIFT
 62
1
 10
4375.488
 20
-8252.938
 30
74.000
 70
    32
  0
VERTEX
  8
E53LXLIFT
 62
1
 10
4367.756
 20
-8260.506
 30
74.000
 70
    32
  0
VERTEX
  8
E53LXLIFT
 62
1
 10
4357.315
 20
-8266.033
 30
74.000
 70
    32
  0
VERTEX
  8
E53LXLIFT
 62
1
 10
4350.565
 20
-8273.748
 30
74.000
 70
    32
  0
VERTEX
  8
E53LXLIFT
 62
1
 10
4343.263
 20
-8273.027
 30
74.000
 70
    32
  0
VERTEX
  8
E53LXLIFT
 62
1
 10
4332.643
 20
-8264.710
 30
74.000
 70
    32
  0
VERTEX
  8
E53LXLIFT
 62
1
 10
4324.713
 20
-8256.044
 30
74.000
 70
    32
  0
VERTEX
  8
E53LXLIFT
 62
1
 10
4318.135
 20
-8237.972
 30
74.000
 70
    32
  0
VERTEX
  8
E53LXLIFT
 62
1
 10
4318.439
 20
-8223.007
 30
74.000
 70
    32
  0
VERTEX
  8
E53LXLIFT
 62
1
 10
4321.914
 20
-8216.181
 30
74.000
 70
    32
  0
VERTEX
  8
E53LXLIFT
 62
1
 10
4329.603
 20
-8209.737
 30
74.000
 70
    32
  0
VERTEX
  8
E53LXLIFT
 62
1
 10
4341.914
 20
-8205.559
 30
74.000
 70
    32
  0
VERTEX
  8
E53LXLIFT
 62
1
 10
4350.675
 20
-8215.795
 30
74.000
 70
    32
  0
VERTEX
  8
E53LXLIFT
 62
1
 10
4359.811
 20
-8225.208
 30
74.000
 70
    32
  0
VERTEX
  8
E53LXLIFT
 62
1
 10
4368.153
 20
-8230.293
 30
74.000
 70
    32
  0
SEQEND
  8
E53LXLIFT
  0
POLYLINE
  8
E53LXLIFT
 62
1
 66
     1
 70
     9
  0
VERTEX
  8
E53LXLIFT
 62
1
 10
4212.759
 20
-8507.627
 30
79.000
 70
    32
  0
VERTEX
  8
E53LXLIFT
 62
1
 10
4221.377
 20
-8510.684
 30
79.000
 70
    32
  0
VERTEX
  8
E53LXLIFT
 62
1
 10
4226.344
 20
-8518.473
 30
79.000
 70
    32
  0
VERTEX
  8
E53LXLIFT
 62
1
 10
4226.749
 20
-8531.531
 30
79.000
 70
    32
  0
VERTEX
  8
E53LXLIFT
 62
1
 10
4224.670
 20
-8542.902
 30
79.000
 70
    32
  0
VERTEX
  8
E53LXLIFT
 62
1
 10
4226.401
 20
-8554.485
 30
79.000
 70
    32
  0
VERTEX
  8
E53LXLIFT
 62
1
 10
4233.879
 20
-8564.912
 30
79.000
 70
    32
  0
VERTEX
  8
E53LXLIFT
 62
1
 10
4238.993
 20
-8578.085
 30
79.000
 70
    32
  0
VERTEX
  8
E53LXLIFT
 62
1
 10
4242.901
 20
-8587.269
 30
79.000
 70
    32
  0
VERTEX
  8
E53LXLIFT
 62
1
 10
4245.742
 20
-8597.529
 30
79.000
 70
    32
  0
VERTEX
  8
E53LXLIFT
 62
1
 10
4251.260
 20
-8607.620
 30
79.000
 70
    32
  0
VERTEX
  8
E53LXLIFT
 62
1
 10
4249.210
 20
-8619.184
 30
79.000
 70
    32
  0
VERTEX
  8
E53LXLIFT
 62
1
 10
4249.210
 20
-8619.184
 30
79.000
 70
    32
  0
VERTEX
  8
E53LXLIFT
 62
1
 10
4238.652
 20
-8626.324
 30
79.000
 70
    32
  0
VERTEX
  8
E53LXLIFT
 62
1
 10
4235.471
 20
-8631.264
 30
79.000
 70
    32
  0
VERTEX
  8
E53LXLIFT
 62
1
 10
4229.861
 20
-8635.659
 30
79.000
 70
    32
  0
VERTEX
  8
E53LXLIFT
 62
1
 10
4225.608
 20
-8648.674
 30
79.000
 70
    32
  0
VERTEX
  8
E53LXLIFT
 62
1
 10
4217.546
 20
-8661.476
 30
79.000
 70
    32
  0
VERTEX
  8
E53LXLIFT
 62
1
 10
4208.668
 20
-8661.402
 30
79.000
 70
    32
  0
VERTEX
  8
E53LXLIFT
 62
1
 10
4197.311
 20
-8660.712
 30
79.000
 70
    32
  0
VERTEX
  8
E53LXLIFT
 62
1
 10
4185.478
 20
-8667.570
 30
79.000
 70
    32
  0
VERTEX
  8
E53LXLIFT
 62
1
 10
4171.364
 20
-8674.856
 30
79.000
 70
    32
  0
VERTEX
  8
E53LXLIFT
 62
1
 10
4160.662
 20
-8682.097
 30
79.000
 70
    32
  0
VERTEX
  8
E53LXLIFT
 62
1
 10
4153.508
 20
-8682.634
 30
79.000
 70
    32
  0
VERTEX
  8
E53LXLIFT
 62
1
 10
4144.918
 20
-8676.114
 30
79.000
 70
    32
  0
VERTEX
  8
E53LXLIFT
 62
1
 10
4141.601
 20
-8667.159
 30
79.000
 70
    32
  0
VERTEX
  8
E53LXLIFT
 62
1
 10
4140.669
 20
-8655.334
 30
79.000
 70
    32
  0
VERTEX
  8
E53LXLIFT
 62
1
 10
4139.880
 20
-8643.408
 30
79.000
 70
    32
  0
VERTEX
  8
E53LXLIFT
 62
1
 10
4149.502
 20
-8633.270
 30
79.000
 70
    32
  0
VERTEX
  8
E53LXLIFT
 62
1
 10
4161.295
 20
-8640.970
 30
79.000
 70
    32
  0
VERTEX
  8
E53LXLIFT
 62
1
 10
4173.795
 20
-8639.775
 30
79.000
 70
    32
  0
VERTEX
  8
E53LXLIFT
 62
1
 10
4183.845
 20
-8630.089
 30
79.000
 70
    32
  0
VERTEX
  8
E53LXLIFT
 62
1
 10
4193.215
 20
-8615.179
 30
79.000
 70
    32
  0
VERTEX
  8
E53LXLIFT
 62
1
 10
4198.001
 20
-8597.590
 30
79.000
 70
    32
  0
VERTEX
  8
E53LXLIFT
 62
1
 10
4201.752
 20
-8578.688
 30
79.000
 70
    32
  0
VERTEX
  8
E53LXLIFT
 62
1
 10
4205.410
 20
-8559.959
 30
79.000
 70
    32
  0
VERTEX
  8
E53LXLIFT
 62
1
 10
4204.645
 20
-8545.326
 30
79.000
 70
    32
  0
VERTEX
  8
E53LXLIFT
 62
1
 10
4207.631
 20
-8532.346
 30
79.000
 70
    32
  0
VERTEX
  8
E53LXLIFT
 62
1
 10
4211.001
 20
-8526.304
 30
79.000
 70
    32
  0
SEQEND
  8
E53LXLIFT
  0
POLYLINE
  8
E53LXLIFT
 62
1
 66
     1
 70
     9
  0
VERTEX
  8
E53LXLIFT
 62
1
 10
4218.552
 20
-8392.650
 30
88.000
 70
    32
  0
VERTEX
  8
E53LXLIFT
 62
1
 10
4227.458
 20
-8386.798
 30
88.000
 70
    32
  0
VERTEX
  8
E53LXLIFT
 62
1
 10
4231.482
 20
-8379.576
 30
88.000
 70
    32
  0
VERTEX
  8
E53LXLIFT
 62
1
 10
4242.844
 20
-8395.252
 30
88.000
 70
    32
  0
VERTEX
  8
E53LXLIFT
 62
1
 10
4257.347
 20
-8419.830
 30
88.000
 70
    32
  0
VERTEX
  8
E53LXLIFT
 62
1
 10
4270.996
 20
-8420.432
 30
88.000
 70
    32
  0
VERTEX
  8
E53LXLIFT
 62
1
 10
4285.808
 20
-8424.315
 30
88.000
 70
    32
  0
VERTEX
  8
E53LXLIFT
 62
1
 10
4289.396
 20
-8432.030
 30
88.000
 70
    32
  0
VERTEX
  8
E53LXLIFT
 62
1
 10
4287.743
 20
-8442.100
 30
88.000
 70
    32
  0
VERTEX
  8
E53LXLIFT
 62
1
 10
4286.705
 20
-8453.028
 30
88.000
 70
    32
  0
VERTEX
  8
E53LXLIFT
 62
1
 10
4281.655
 20
-8463.045
 30
88.000
 70
    32
  0
VERTEX
  8
E53LXLIFT
 62
1
 10
4288.163
 20
-8476.789
 30
88.000
 70
    32
  0
VERTEX
  8
E53LXLIFT
 62
1
 10
4299.051
 20
-8490.747
 30
88.000
 70
    32
  0
VERTEX
  8
E53LXLIFT
 62
1
 10
4304.634
 20
-8502.447
 30
88.000
 70
    32
  0
VERTEX
  8
E53LXLIFT
 62
1
 10
4304.305
 20
-8514.816
 30
88.000
 70
    32
  0
VERTEX
  8
E53LXLIFT
 62
1
 10
4299.470
 20
-8528.904
 30
88.000
 70
    32
  0
VERTEX
  8
E53LXLIFT
 62
1
 10
4301.612
 20
-8539.282
 30
88.000
 70
    32
  0
VERTEX
  8
E53LXLIFT
 62
1
 10
4307.602
 20
-8545.815
 30
88.000
 70
    32
  0
VERTEX
  8
E53LXLIFT
 62
1
 10
4317.869
 20
-8539.744
 30
88.000
 70
    32
  0
VERTEX
  8
E53LXLIFT
 62
1
 10
4328.339
 20
-8528.978
 30
88.000
 70
    32
  0
VERTEX
  8
E53LXLIFT
 62
1
 10
4330.867
 20
-8520.880
 30
88.000
 70
    32
  0
VERTEX
  8
E53LXLIFT
 62
1
 10
4337.035
 20
-8512.119
 30
88.000
 70
    32
  0
VERTEX
  8
E53LXLIFT
 62
1
 10
4338.142
 20
-8500.382
 30
88.000
 70
    32
  0
VERTEX
  8
E53LXLIFT
 62
1
 10
4346.167
 20
-8489.529
 30
88.000
 70
    32
  0
VERTEX
  8
E53LXLIFT
 62
1
 10
4354.042
 20
-8484.201
 30
88.000
 70
    32
  0
VERTEX
  8
E53LXLIFT
 62
1
 10
4359.839
 20
-8487.297
 30
88.000
 70
    32
  0
VERTEX
  8
E53LXLIFT
 62
1
 10
4361.778
 20
-8493.922
 30
88.000
 70
    32
  0
VERTEX
  8
E53LXLIFT
 62
1
 10
4355.112
 20
-8508.024
 30
88.000
 70
    32
  0
VERTEX
  8
E53LXLIFT
 62
1
 10
4354.202
 20
-8529.693
 30
88.000
 70
    32
  0
VERTEX
  8
E53LXLIFT
 62
1
 10
4358.197
 20
-8549.141
 30
88.000
 70
    32
  0
VERTEX
  8
E53LXLIFT
 62
1
 10
4354.844
 20
-8584.156
 30
88.000
 70
    32
  0
VERTEX
  8
E53LXLIFT
 62
1
 10
4351.674
 20
-8593.473
 30
88.000
 70
    32
  0
VERTEX
  8
E53LXLIFT
 62
1
 10
4345.341
 20
-8601.703
 30
88.000
 70
    32
  0
VERTEX
  8
E53LXLIFT
 62
1
 10
4332.362
 20
-8602.788
 30
88.000
 70
    32
  0
VERTEX
  8
E53LXLIFT
 62
1
 10
4323.633
 20
-8601.796
 30
88.000
 70
    32
  0
VERTEX
  8
E53LXLIFT
 62
1
 10
4310.469
 20
-8594.022
 30
88.000
 70
    32
  0
VERTEX
  8
E53LXLIFT
 62
1
 10
4300.220
 20
-8585.781
 30
88.000
 70
    32
  0
VERTEX
  8
E53LXLIFT
 62
1
 10
4290.540
 20
-8576.372
 30
88.000
 70
    32
  0
VERTEX
  8
E53LXLIFT
 62
1
 10
4280.208
 20
-8572.090
 30
88.000
 70
    32
  0
VERTEX
  8
E53LXLIFT
 62
1
 10
4270.653
 20
-8563.458
 30
88.000
 70
    32
  0
VERTEX
  8
E53LXLIFT
 62
1
 10
4264.377
 20
-8552.905
 30
88.000
 70
    32
  0
VERTEX
  8
E53LXLIFT
 62
1
 10
4259.357
 20
-8545.460
 30
88.000
 70
    32
  0
VERTEX
  8
E53LXLIFT
 62
1
 10
4256.921
 20
-8536.484
 30
88.000
 70
    32
  0
VERTEX
  8
E53LXLIFT
 62
1
 10
4246.099
 20
-8524.428
 30
88.000
 70
    32
  0
VERTEX
  8
E53LXLIFT
 62
1
 10
4236.519
 20
-8517.873
 30
88.000
 70
    32
  0
VERTEX
  8
E53LXLIFT
 62
1
 10
4226.681
 20
-8506.736
 30
88.000
 70
    32
  0
VERTEX
  8
E53LXLIFT
 62
1
 10
4218.703
 20
-8490.039
 30
88.000
 70
    32
  0
VERTEX
  8
E53LXLIFT
 62
1
 10
4214.306
 20
-8473.804
 30
88.000
 70
    32
  0
VERTEX
  8
E53LXLIFT
 62
1
 10
4207.721
 20
-8462.066
 30
88.000
 70
    32
  0
VERTEX
  8
E53LXLIFT
 62
1
 10
4207.175
 20
-8456.175
 30
88.000
 70
    32
  0
VERTEX
  8
E53LXLIFT
 62
1
 10
4217.527
 20
-8451.884
 30
88.000
 70
    32
  0
VERTEX
  8
E53LXLIFT
 62
1
 10
4226.333
 20
-8450.871
 30
88.000
 70
    32
  0
VERTEX
  8
E53LXLIFT
 62
1
 10
4237.635
 20
-8458.465
 30
88.000
 70
    32
  0
VERTEX
  8
E53LXLIFT
 62
1
 10
4237.288
 20
-8450.589
 30
88.000
 70
    32
  0
VERTEX
  8
E53LXLIFT
 62
1
 10
4234.129
 20
-8434.116
 30
88.000
 70
    32
  0
VERTEX
  8
E53LXLIFT
 62
1
 10
4227.928
 20
-8416.576
 30
88.000
 70
    32
  0
SEQEND
  8
E53LXLIFT
  0
POLYLINE
  8
E53LXLIFT
 62
1
 66
     1
 70
     9
  0
VERTEX
  8
E53LXLIFT
 62
1
 10
4392.711
 20
-8831.283
 30
-28.000
 70
    32
  0
VERTEX
  8
E53LXLIFT
 62
1
 10
4390.160
 20
-8830.736
 30
-28.000
 70
    32
  0
VERTEX
  8
E53LXLIFT
 62
1
 10
4384.740
 20
-8828.897
 30
-28.000
 70
    32
  0
VERTEX
  8
E53LXLIFT
 62
1
 10
4379.829
 20
-8819.783
 30
-28.000
 70
    32
  0
VERTEX
  8
E53LXLIFT
 62
1
 10
4367.841
 20
-8805.914
 30
-28.000
 70
    32
  0
VERTEX
  8
E53LXLIFT
 62
1
 10
4354.881
 20
-8789.935
 30
-28.000
 70
    32
  0
VERTEX
  8
E53LXLIFT
 62
1
 10
4342.257
 20
-8780.302
 30
-28.000
 70
    32
  0
VERTEX
  8
E53LXLIFT
 62
1
 10
4333.315
 20
-8770.082
 30
-28.000
 70
    32
  0
VERTEX
  8
E53LXLIFT
 62
1
 10
4340.094
 20
-8759.502
 30
-28.000
 70
    32
  0
VERTEX
  8
E53LXLIFT
 62
1
 10
4348.384
 20
-8756.154
 30
-28.000
 70
    32
  0
VERTEX
  8
E53LXLIFT
 62
1
 10
4352.606
 20
-8768.676
 30
-28.000
 70
    32
  0
VERTEX
  8
E53LXLIFT
 62
1
 10
4364.866
 20
-8780.514
 30
-28.000
 70
    32
  0
VERTEX
  8
E53LXLIFT
 62
1
 10
4376.721
 20
-8786.812
 30
-28.000
 70
    32
  0
VERTEX
  8
E53LXLIFT
 62
1
 10
4380.558
 20
-8794.428
 30
-28.000
 70
    32
  0
VERTEX
  8
E53LXLIFT
 62
1
 10
4397.749
 20
-8815.257
 30
-28.000
 70
    32
  0
VERTEX
  8
E53LXLIFT
 62
1
 10
4399.278
 20
-8821.612
 30
-28.000
 70
    32
  0
VERTEX
  8
E53LXLIFT
 62
1
 10
4400.548
 20
-8825.344
 30
-28.000
 70
    32
  0
SEQEND
  8
E53LXLIFT
  0
POLYLINE
  8
E53LXLIFT
 62
1
 66
     1
 70
     9
  0
VERTEX
  8
E53LXLIFT
 62
1
 10
4259.288
 20
-8624.939
 30
-47.000
 70
    32
  0
VERTEX
  8
E53LXLIFT
 62
1
 10
4247.083
 20
-8616.717
 30
-47.000
 70
    32
  0
VERTEX
  8
E53LXLIFT
 62
1
 10
4232.858
 20
-8603.883
 30
-47.000
 70
    32
  0
VERTEX
  8
E53LXLIFT
 62
1
 10
4214.010
 20
-8598.170
 30
-47.000
 70
    32
  0
VERTEX
  8
E53LXLIFT
 62
1
 10
4207.354
 20
-8600.362
 30
-47.000
 70
    32
  0
VERTEX
  8
E53LXLIFT
 62
1
 10
4192.551
 20
-8607.338
 30
-47.000
 70
    32
  0
VERTEX
  8
E53LXLIFT
 62
1
 10
4181.634
 20
-8612.489
 30
-47.000
 70
    32
  0
VERTEX
  8
E53LXLIFT
 62
1
 10
4174.202
 20
-8620.224
 30
-47.000
 70
    32
  0
VERTEX
  8
E53LXLIFT
 62
1
 10
4175.490
 20
-8636.307
 30
-47.000
 70
    32
  0
VERTEX
  8
E53LXLIFT
 62
1
 10
4179.954
 20
-8649.127
 30
-47.000
 70
    32
  0
VERTEX
  8
E53LXLIFT
 62
1
 10
4178.909
 20
-8653.996
 30
-47.000
 70
    32
  0
VERTEX
  8
E53LXLIFT
 62
1
 10
4184.430
 20
-8670.390
 30
-47.000
 70
    32
  0
VERTEX
  8
E53LXLIFT
 62
1
 10
4186.788
 20
-8685.702
 30
-47.000
 70
    32
  0
VERTEX
  8
E53LXLIFT
 62
1
 10
4193.404
 20
-8700.006
 30
-47.000
 70
    32
  0
VERTEX
  8
E53LXLIFT
 62
1
 10
4197.428
 20
-8707.401
 30
-47.000
 70
    32
  0
VERTEX
  8
E53LXLIFT
 62
1
 10
4208.516
 20
-8712.418
 30
-47.000
 70
    32
  0
VERTEX
  8
E53LXLIFT
 62
1
 10
4205.822
 20
-8721.617
 30
-47.000
 70
    32
  0
VERTEX
  8
E53LXLIFT
 62
1
 10
4199.798
 20
-8736.572
 30
-47.000
 70
    32
  0
VERTEX
  8
E53LXLIFT
 62
1
 10
4203.152
 20
-8750.408
 30
-47.000
 70
    32
  0
VERTEX
  8
E53LXLIFT
 62
1
 10
4211.243
 20
-8763.000
 30
-47.000
 70
    32
  0
VERTEX
  8
E53LXLIFT
 62
1
 10
4203.615
 20
-8772.719
 30
-47.000
 70
    32
  0
VERTEX
  8
E53LXLIFT
 62
1
 10
4194.245
 20
-8776.107
 30
-47.000
 70
    32
  0
VERTEX
  8
E53LXLIFT
 62
1
 10
4187.961
 20
-8784.532
 30
-47.000
 70
    32
  0
VERTEX
  8
E53LXLIFT
 62
1
 10
4176.961
 20
-8786.710
 30
-47.000
 70
    32
  0
VERTEX
  8
E53LXLIFT
 62
1
 10
4170.034
 20
-8779.347
 30
-47.000
 70
    32
  0
VERTEX
  8
E53LXLIFT
 62
1
 10
4170.228
 20
-8765.773
 30
-47.000
 70
    32
  0
VERTEX
  8
E53LXLIFT
 62
1
 10
4167.008
 20
-8746.856
 30
-47.000
 70
    32
  0
VERTEX
  8
E53LXLIFT
 62
1
 10
4157.172
 20
-8719.052
 30
-47.000
 70
    32
  0
VERTEX
  8
E53LXLIFT
 62
1
 10
4152.123
 20
-8713.695
 30
-47.000
 70
    32
  0
VERTEX
  8
E53LXLIFT
 62
1
 10
4149.828
 20
-8706.897
 30
-47.000
 70
    32
  0
VERTEX
  8
E53LXLIFT
 62
1
 10
4155.134
 20
-8707.194
 30
-47.000
 70
    32
  0
VERTEX
  8
E53LXLIFT
 62
1
 10
4148.241
 20
-8692.655
 30
-47.000
 70
    32
  0
VERTEX
  8
E53LXLIFT
 62
1
 10
4147.710
 20
-8684.695
 30
-47.000
 70
    32
  0
VERTEX
  8
E53LXLIFT
 62
1
 10
4148.665
 20
-8672.631
 30
-47.000
 70
    32
  0
VERTEX
  8
E53LXLIFT
 62
1
 10
4146.919
 20
-8664.788
 30
-47.000
 70
    32
  0
VERTEX
  8
E53LXLIFT
 62
1
 10
4148.237
 20
-8651.271
 30
-47.000
 70
    32
  0
VERTEX
  8
E53LXLIFT
 62
1
 10
4147.514
 20
-8633.265
 30
-47.000
 70
    32
  0
VERTEX
  8
E53LXLIFT
 62
1
 10
4144.326
 20
-8617.251
 30
-47.000
 70
    32
  0
VERTEX
  8
E53LXLIFT
 62
1
 10
4146.646
 20
-8606.480
 30
-47.000
 70
    32
  0
VERTEX
  8
E53LXLIFT
 62
1
 10
4153.030
 20
-8602.858
 30
-47.000
 70
    32
  0
VERTEX
  8
E53LXLIFT
 62
1
 10
4164.820
 20
-8607.044
 30
-47.000
 70
    32
  0
VERTEX
  8
E53LXLIFT
 62
1
 10
4180.734
 20
-8599.053
 30
-47.000
 70
    32
  0
VERTEX
  8
E53LXLIFT
 62
1
 10
4171.202
 20
-8589.124
 30
-47.000
 70
    32
  0
VERTEX
  8
E53LXLIFT
 62
1
 10
4161.706
 20
-8586.318
 30
-47.000
 70
    32
  0
VERTEX
  8
E53LXLIFT
 62
1
 10
4145.478
 20
-8581.535
 30
-47.000
 70
    32
  0
VERTEX
  8
E53LXLIFT
 62
1
 10
4144.630
 20
-8573.587
 30
-47.000
 70
    32
  0
VERTEX
  8
E53LXLIFT
 62
1
 10
4147.895
 20
-8561.269
 30
-47.000
 70
    32
  0
VERTEX
  8
E53LXLIFT
 62
1
 10
4152.110
 20
-8559.750
 30
-47.000
 70
    32
  0
VERTEX
  8
E53LXLIFT
 62
1
 10
4161.237
 20
-8565.204
 30
-47.000
 70
    32
  0
VERTEX
  8
E53LXLIFT
 62
1
 10
4175.696
 20
-8572.344
 30
-47.000
 70
    32
  0
VERTEX
  8
E53LXLIFT
 62
1
 10
4191.094
 20
-8581.842
 30
-47.000
 70
    32
  0
VERTEX
  8
E53LXLIFT
 62
1
 10
4199.425
 20
-8579.419
 30
-47.000
 70
    32
  0
VERTEX
  8
E53LXLIFT
 62
1
 10
4198.075
 20
-8565.657
 30
-47.000
 70
    32
  0
VERTEX
  8
E53LXLIFT
 62
1
 10
4208.412
 20
-8558.647
 30
-47.000
 70
    32
  0
VERTEX
  8
E53LXLIFT
 62
1
 10
4213.076
 20
-8575.657
 30
-47.000
 70
    32
  0
VERTEX
  8
E53LXLIFT
 62
1
 10
4225.286
 20
-8585.392
 30
-47.000
 70
    32
  0
VERTEX
  8
E53LXLIFT
 62
1
 10
4245.847
 20
-8600.706
 30
-47.000
 70
    32
  0
VERTEX
  8
E53LXLIFT
 62
1
 10
4265.355
 20
-8610.495
 30
-47.000
 70
    32
  0
VERTEX
  8
E53LXLIFT
 62
1
 10
4276.514
 20
-8612.752
 30
-47.000
 70
    32
  0
SEQEND
  8
E53LXLIFT
  0
POLYLINE
  8
E53LXLIFT
 62
1
 66
     1
 70
     9
  0
VERTEX
  8
E53LXLIFT
 62
1
 10
5110.086
 20
-8480.769
 30
81.000
 70
    32
  0
VERTEX
  8
E53LXLIFT
 62
1
 10
5125.000
 20
-8474.555
 30
81.000
 70
    32
  0
VERTEX
  8
E53LXLIFT
 62
1
 10
5131.507
 20
-8470.177
 30
81.000
 70
    32
  0
VERTEX
  8
E53LXLIFT
 62
1
 10
5143.509
 20
-8481.223
 30
81.000
 70
    32
  0
VERTEX
  8
E53LXLIFT
 62
1
 10
5151.409
 20
-8491.498
 30
81.000
 70
    32
  0
VERTEX
  8
E53LXLIFT
 62
1
 10
5141.430
 20
-8495.845
 30
81.000
 70
    32
  0
VERTEX
  8
E53LXLIFT
 62
1
 10
5130.088
 20
-8502.233
 30
81.000
 70
    32
  0
VERTEX
  8
E53LXLIFT
 62
1
 10
5122.840
 20
-8510.908
 30
81.000
 70
    32
  0
VERTEX
  8
E53LXLIFT
 62
1
 10
5122.891
 20
-8523.812
 30
81.000
 70
    32
  0
VERTEX
  8
E53LXLIFT
 62
1
 10
5122.162
 20
-8535.001
 30
81.000
 70
    32
  0
VERTEX
  8
E53LXLIFT
 62
1
 10
5117.920
 20
-8535.407
 30
81.000
 70
    32
  0
VERTEX
  8
E53LXLIFT
 62
1
 10
5099.696
 20
-8520.128
 30
81.000
 70
    32
  0
VERTEX
  8
E53LXLIFT
 62
1
 10
5087.592
 20
-8507.105
 30
81.000
 70
    32
  0
VERTEX
  8
E53LXLIFT
 62
1
 10
5087.538
 20
-8494.959
 30
81.000
 70
    32
  0
VERTEX
  8
E53LXLIFT
 62
1
 10
5097.727
 20
-8498.549
 30
81.000
 70
    32
  0
SEQEND
  8
E53LXLIFT
  0
POLYLINE
  8
E53LXLIFT
 62
1
 66
     1
 70
     9
  0
VERTEX
  8
E53LXLIFT
 62
1
 10
5137.961
 20
-8733.309
 30
-26.000
 70
    32
  0
VERTEX
  8
E53LXLIFT
 62
1
 10
5126.697
 20
-8730.722
 30
-26.000
 70
    32
  0
VERTEX
  8
E53LXLIFT
 62
1
 10
5117.985
 20
-8718.625
 30
-26.000
 70
    32
  0
VERTEX
  8
E53LXLIFT
 62
1
 10
5110.588
 20
-8695.748
 30
-26.000
 70
    32
  0
VERTEX
  8
E53LXLIFT
 62
1
 10
5099.839
 20
-8683.822
 30
-26.000
 70
    32
  0
VERTEX
  8
E53LXLIFT
 62
1
 10
5101.378
 20
-8673.204
 30
-26.000
 70
    32
  0
VERTEX
  8
E53LXLIFT
 62
1
 10
5097.805
 20
-8669.293
 30
-26.000
 70
    32
  0
VERTEX
  8
E53LXLIFT
 62
1
 10
5109.036
 20
-8655.478
 30
-26.000
 70
    32
  0
VERTEX
  8
E53LXLIFT
 62
1
 10
5134.223
 20
-8654.739
 30
-26.000
 70
    32
  0
VERTEX
  8
E53LXLIFT
 62
1
 10
5144.152
 20
-8668.228
 30
-26.000
 70
    32
  0
VERTEX
  8
E53LXLIFT
 62
1
 10
5146.689
 20
-8675.802
 30
-26.000
 70
    32
  0
VERTEX
  8
E53LXLIFT
 62
1
 10
5148.074
 20
-8685.828
 30
-26.000
 70
    32
  0
VERTEX
  8
E53LXLIFT
 62
1
 10
5157.989
 20
-8695.545
 30
-26.000
 70
    32
  0
VERTEX
  8
E53LXLIFT
 62
1
 10
5156.578
 20
-8707.691
 30
-26.000
 70
    32
  0
VERTEX
  8
E53LXLIFT
 62
1
 10
5163.453
 20
-8716.788
 30
-26.000
 70
    32
  0
SEQEND
  8
E53LXLIFT
  0
POLYLINE
  8
E53LXLIFT
 62
1
 66
     1
 70
     9
  0
VERTEX
  8
E53LXLIFT
 62
1
 10
5272.993
 20
-8922.864
 30
20.000
 70
    32
  0
VERTEX
  8
E53LXLIFT
 62
1
 10
5266.639
 20
-8915.680
 30
20.000
 70
    32
  0
VERTEX
  8
E53LXLIFT
 62
1
 10
5252.290
 20
-8913.598
 30
20.000
 70
    32
  0
VERTEX
  8
E53LXLIFT
 62
1
 10
5244.819
 20
-8909.189
 30
20.000
 70
    32
  0
VERTEX
  8
E53LXLIFT
 62
1
 10
5232.665
 20
-8895.283
 30
20.000
 70
    32
  0
VERTEX
  8
E53LXLIFT
 62
1
 10
5226.273
 20
-8876.935
 30
20.000
 70
    32
  0
VERTEX
  8
E53LXLIFT
 62
1
 10
5218.552
 20
-8859.887
 30
20.000
 70
    32
  0
VERTEX
  8
E53LXLIFT
 62
1
 10
5224.209
 20
-8853.674
 30
20.000
 70
    32
  0
VERTEX
  8
E53LXLIFT
 62
1
 10
5229.391
 20
-8859.110
 30
20.000
 70
    32
  0
VERTEX
  8
E53LXLIFT
 62
1
 10
5252.699
 20
-8857.555
 30
20.000
 70
    32
  0
VERTEX
  8
E53LXLIFT
 62
1
 10
5266.808
 20
-8867.311
 30
20.000
 70
    32
  0
VERTEX
  8
E53LXLIFT
 62
1
 10
5283.210
 20
-8882.121
 30
20.000
 70
    32
  0
VERTEX
  8
E53LXLIFT
 62
1
 10
5281.976
 20
-8900.737
 30
20.000
 70
    32
  0
VERTEX
  8
E53LXLIFT
 62
1
 10
5280.271
 20
-8907.747
 30
20.000
 70
    32
  0
VERTEX
  8
E53LXLIFT
 62
1
 10
5282.580
 20
-8918.007
 30
20.000
 70
    32
  0
SEQEND
  8
E53LXLIFT
  0
POLYLINE
  8
E53LXLIFT
 62
3
 66
     1
 70
     9
  0
VERTEX
  8
E53LXLIFT
 62
3
 10
5216.583
 20
-8844.138
 30
-71.041
 70
    32
  0
VERTEX
  8
E53LXLIFT
 62
3
 10
5205.616
 20
-8829.597
 30
-71.043
 70
    32
  0
VERTEX
  8
E53LXLIFT
 62
3
 10
5172.426
 20
-8802.834
 30
-71.050
 70
    32
  0
VERTEX
  8
E53LXLIFT
 62
3
 10
5152.082
 20
-8769.578
 30
-71.053
 70
    32
  0
VERTEX
  8
E53LXLIFT
 62
3
 10
5132.962
 20
-8746.419
 30
-71.057
 70
    32
  0
VERTEX
  8
E53LXLIFT
 62
3
 10
5116.561
 20
-8720.438
 30
-71.060
 70
    32
  0
VERTEX
  8
E53LXLIFT
 62
3
 10
5115.510
 20
-8696.104
 30
-71.060
 70
    32
  0
VERTEX
  8
E53LXLIFT
 62
3
 10
5117.533
 20
-8683.007
 30
-71.060
 70
    32
  0
VERTEX
  8
E53LXLIFT
 62
3
 10
5120.756
 20
-8683.772
 30
-71.059
 70
    32
  0
VERTEX
  8
E53LXLIFT
 62
3
 10
5134.056
 20
-8676.275
 30
-71.057
 70
    32
  0
VERTEX
  8
E53LXLIFT
 62
3
 10
5138.717
 20
-8675.295
 30
-71.056
 70
    32
  0
VERTEX
  8
E53LXLIFT
 62
3
 10
5145.466
 20
-8678.690
 30
-71.055
 70
    32
  0
VERTEX
  8
E53LXLIFT
 62
3
 10
5152.008
 20
-8690.286
 30
-71.053
 70
    32
  0
VERTEX
  8
E53LXLIFT
 62
3
 10
5160.106
 20
-8717.680
 30
-71.052
 70
    32
  0
VERTEX
  8
E53LXLIFT
 62
3
 10
5182.103
 20
-8750.351
 30
-71.048
 70
    32
  0
VERTEX
  8
E53LXLIFT
 62
3
 10
5209.101
 20
-8764.813
 30
-71.043
 70
    32
  0
VERTEX
  8
E53LXLIFT
 62
3
 10
5216.732
 20
-8775.808
 30
-71.041
 70
    32
  0
VERTEX
  8
E53LXLIFT
 62
3
 10
5221.505
 20
-8790.172
 30
-71.041
 70
    32
  0
VERTEX
  8
E53LXLIFT
 62
3
 10
5222.383
 20
-8802.294
 30
-71.040
 70
    32
  0
VERTEX
  8
E53LXLIFT
 62
3
 10
5230.898
 20
-8814.606
 30
-71.039
 70
    32
  0
VERTEX
  8
E53LXLIFT
 62
3
 10
5229.825
 20
-8834.371
 30
-71.039
 70
    32
  0
SEQEND
  8
E53LXLIFT
  0
POLYLINE
  8
E53LXLIFT
 62
13
 66
     1
 70
     9
  0
VERTEX
  8
E53LXLIFT
 62
13
 10
4575.732
 20
-8511.197
 30
-71.160
 70
    32
  0
VERTEX
  8
E53LXLIFT
 62
13
 10
4568.527
 20
-8493.662
 30
-71.164
 70
    32
  0
VERTEX
  8
E53LXLIFT
 62
13
 10
4578.702
 20
-8481.394
 30
-71.163
 70
    32
  0
VERTEX
  8
E53LXLIFT
 62
13
 10
4586.175
 20
-8477.871
 30
-71.162
 70
    32
  0
VERTEX
  8
E53LXLIFT
 62
13
 10
4606.696
 20
-8483.101
 30
-71.158
 70
    32
  0
VERTEX
  8
E53LXLIFT
 62
13
 10
4611.599
 20
-8495.806
 30
-71.155
 70
    32
  0
VERTEX
  8
E53LXLIFT
 62
13
 10
4609.747
 20
-8498.430
 30
-71.155
 70
    32
  0
VERTEX
  8
E53LXLIFT
 62
13
 10
4600.737
 20
-8503.983
 30
-71.156
 70
    32
  0
VERTEX
  8
E53LXLIFT
 62
13
 10
4595.435
 20
-8505.419
 30
-71.157
 70
    32
  0
VERTEX
  8
E53LXLIFT
 62
13
 10
4593.338
 20
-8509.146
 30
-71.157
 70
    32
  0
SEQEND
  8
E53LXLIFT
  0
POLYLINE
  8
E53LXLIFT
 62
1
 66
     1
 70
     9
  0
VERTEX
  8
E53LXLIFT
 62
1
 10
4576.732
 20
-8510.197
 30
-61.160
 70
    32
  0
VERTEX
  8
E53LXLIFT
 62
1
 10
4569.527
 20
-8492.662
 30
-61.164
 70
    32
  0
VERTEX
  8
E53LXLIFT
 62
1
 10
4579.702
 20
-8480.394
 30
-61.163
 70
    32
  0
VERTEX
  8
E53LXLIFT
 62
1
 10
4587.175
 20
-8476.871
 30
-61.162
 70
    32
  0
VERTEX
  8
E53LXLIFT
 62
1
 10
4607.696
 20
-8482.101
 30
-61.158
 70
    32
  0
VERTEX
  8
E53LXLIFT
 62
1
 10
4612.599
 20
-8494.806
 30
-61.155
 70
    32
  0
VERTEX
  8
E53LXLIFT
 62
1
 10
4610.747
 20
-8497.430
 30
-61.155
 70
    32
  0
VERTEX
  8
E53LXLIFT
 62
1
 10
4601.737
 20
-8502.983
 30
-61.156
 70
    32
  0
VERTEX
  8
E53LXLIFT
 62
1
 10
4596.435
 20
-8504.419
 30
-61.157
 70
    32
  0
VERTEX
  8
E53LXLIFT
 62
1
 10
4594.338
 20
-8508.146
 30
-61.157
 70
    32
  0
SEQEND
  8
E53LXLIFT
  0
POLYLINE
  8
E53LXLIFT
 62
7
 66
     1
 70
     9
  0
VERTEX
  8
E53LXLIFT
 62
7
 10
4328.891
 20
-8117.114
 30
-68.915
 70
    32
  0
VERTEX
  8
E53LXLIFT
 62
7
 10
4324.309
 20
-8129.187
 30
-68.941
 70
    32
  0
VERTEX
  8
E53LXLIFT
 62
7
 10
4307.689
 20
-8143.018
 30
-68.985
 70
    32
  0
VERTEX
  8
E53LXLIFT
 62
7
 10
4299.865
 20
-8148.636
 30
-69.003
 70
    32
  0
VERTEX
  8
E53LXLIFT
 62
7
 10
4284.727
 20
-8149.011
 30
-68.984
 70
    32
  0
VERTEX
  8
E53LXLIFT
 62
7
 10
4277.609
 20
-8145.944
 30
-68.957
 70
    32
  0
VERTEX
  8
E53LXLIFT
 62
7
 10
4271.304
 20
-8132.433
 30
-68.880
 70
    32
  0
VERTEX
  8
E53LXLIFT
 62
7
 10
4251.571
 20
-8114.673
 30
-68.806
 70
    32
  0
VERTEX
  8
E53LXLIFT
 62
7
 10
4248.084
 20
-8109.778
 30
-68.788
 70
    32
  0
VERTEX
  8
E53LXLIFT
 62
7
 10
4246.226
 20
-8101.418
 30
-68.763
 70
    32
  0
VERTEX
  8
E53LXLIFT
 62
7
 10
4248.005
 20
-8072.992
 30
-68.689
 70
    32
  0
VERTEX
  8
E53LXLIFT
 62
7
 10
4250.467
 20
-8033.663
 30
-68.587
 70
    32
  0
VERTEX
  8
E53LXLIFT
 62
7
 10
4252.977
 20
-8021.448
 30
-68.557
 70
    32
  0
VERTEX
  8
E53LXLIFT
 62
7
 10
4254.979
 20
-8019.836
 30
-68.555
 70
    32
  0
VERTEX
  8
E53LXLIFT
 62
7
 10
4277.738
 20
-8021.794
 30
-68.591
 70
    32
  0
VERTEX
  8
E53LXLIFT
 62
7
 10
4283.041
 20
-8039.500
 30
-68.645
 70
    32
  0
VERTEX
  8
E53LXLIFT
 62
7
 10
4275.884
 20
-8064.321
 30
-68.703
 70
    32
  0
VERTEX
  8
E53LXLIFT
 62
7
 10
4281.735
 20
-8076.842
 30
-68.744
 70
    32
  0
VERTEX
  8
E53LXLIFT
 62
7
 10
4294.856
 20
-8082.323
 30
-68.776
 70
    32
  0
VERTEX
  8
E53LXLIFT
 62
7
 10
4306.333
 20
-8099.818
 30
-68.838
 70
    32
  0
VERTEX
  8
E53LXLIFT
 62
7
 10
4319.224
 20
-8092.614
 30
-68.836
 70
    32
  0
VERTEX
  8
E53LXLIFT
 62
7
 10
4326.581
 20
-8091.902
 30
-68.844
 70
    32
  0
VERTEX
  8
E53LXLIFT
 62
7
 10
4323.983
 20
-8098.525
 30
-68.858
 70
    32
  0
VERTEX
  8
E53LXLIFT
 62
7
 10
4329.956
 20
-8108.170
 30
-68.892
 70
    32
  0
SEQEND
  8
E53LXLIFT
  0
POLYLINE
  8
E53LXLIFT
 62
7
 66
     1
 70
     9
  0
VERTEX
  8
E53LXLIFT
 62
7
 10
4456.525
 20
-8738.738
 30
-70.354
 70
    32
  0
VERTEX
  8
E53LXLIFT
 62
7
 10
4464.125
 20
-8766.014
 30
-70.246
 70
    32
  0
VERTEX
  8
E53LXLIFT
 62
7
 10
4459.281
 20
-8773.354
 30
-70.196
 70
    32
  0
VERTEX
  8
E53LXLIFT
 62
7
 10
4445.135
 20
-8772.484
 30
-70.156
 70
    32
  0
VERTEX
  8
E53LXLIFT
 62
7
 10
4433.273
 20
-8767.824
 30
-70.141
 70
    32
  0
VERTEX
  8
E53LXLIFT
 62
7
 10
4421.653
 20
-8774.463
 30
-70.073
 70
    32
  0
VERTEX
  8
E53LXLIFT
 62
7
 10
4408.039
 20
-8769.319
 30
-70.055
 70
    32
  0
VERTEX
  8
E53LXLIFT
 62
7
 10
4405.233
 20
-8763.090
 30
-70.076
 70
    32
  0
VERTEX
  8
E53LXLIFT
 62
7
 10
4409.014
 20
-8759.427
 30
-70.106
 70
    32
  0
VERTEX
  8
E53LXLIFT
 62
7
 10
4392.074
 20
-8732.408
 30
-70.182
 70
    32
  0
VERTEX
  8
E53LXLIFT
 62
7
 10
4386.097
 20
-8732.221
 30
-70.165
 70
    32
  0
VERTEX
  8
E53LXLIFT
 62
7
 10
4374.020
 20
-8713.106
 30
-70.219
 70
    32
  0
VERTEX
  8
E53LXLIFT
 62
7
 10
4362.778
 20
-8720.884
 30
-70.146
 70
    32
  0
VERTEX
  8
E53LXLIFT
 62
7
 10
4361.511
 20
-8718.646
 30
-70.153
 70
    32
  0
VERTEX
  8
E53LXLIFT
 62
7
 10
4349.977
 20
-8709.426
 30
-70.161
 70
    32
  0
VERTEX
  8
E53LXLIFT
 62
7
 10
4338.041
 20
-8715.316
 30
-70.096
 70
    32
  0
VERTEX
  8
E53LXLIFT
 62
7
 10
4330.469
 20
-8713.341
 30
-70.081
 70
    32
  0
VERTEX
  8
E53LXLIFT
 62
7
 10
4321.640
 20
-8719.187
 30
-70.026
 70
    32
  0
VERTEX
  8
E53LXLIFT
 62
7
 10
4296.370
 20
-8735.985
 30
-69.866
 70
    32
  0
VERTEX
  8
E53LXLIFT
 62
7
 10
4296.370
 20
-8735.985
 30
-69.866
 70
    32
  0
VERTEX
  8
E53LXLIFT
 62
7
 10
4296.370
 20
-8735.985
 30
-69.866
 70
    32
  0
VERTEX
  8
E53LXLIFT
 62
7
 10
4284.806
 20
-8731.837
 30
-69.850
 70
    32
  0
VERTEX
  8
E53LXLIFT
 62
7
 10
4285.037
 20
-8716.105
 30
-69.926
 70
    32
  0
VERTEX
  8
E53LXLIFT
 62
7
 10
4297.334
 20
-8694.592
 30
-70.068
 70
    32
  0
VERTEX
  8
E53LXLIFT
 62
7
 10
4295.033
 20
-8677.507
 30
-70.143
 70
    32
  0
VERTEX
  8
E53LXLIFT
 62
7
 10
4302.659
 20
-8673.166
 30
-70.187
 70
    32
  0
VERTEX
  8
E53LXLIFT
 62
7
 10
4309.958
 20
-8692.865
 30
-70.116
 70
    32
  0
VERTEX
  8
E53LXLIFT
 62
7
 10
4315.733
 20
-8700.987
 30
-70.095
 70
    32
  0
VERTEX
  8
E53LXLIFT
 62
7
 10
4321.858
 20
-8703.666
 30
-70.101
 70
    32
  0
VERTEX
  8
E53LXLIFT
 62
7
 10
4331.921
 20
-8700.622
 30
-70.147
 70
    32
  0
VERTEX
  8
E53LXLIFT
 62
7
 10
4341.203
 20
-8694.347
 30
-70.206
 70
    32
  0
VERTEX
  8
E53LXLIFT
 62
7
 10
4345.301
 20
-8695.545
 30
-70.213
 70
    32
  0
VERTEX
  8
E53LXLIFT
 62
7
 10
4351.637
 20
-8700.346
 30
-70.210
 70
    32
  0
VERTEX
  8
E53LXLIFT
 62
7
 10
4362.623
 20
-8701.948
 30
-70.237
 70
    32
  0
VERTEX
  8
E53LXLIFT
 62
7
 10
4369.988
 20
-8700.283
 30
-70.268
 70
    32
  0
VERTEX
  8
E53LXLIFT
 62
7
 10
4375.699
 20
-8690.053
 30
-70.335
 70
    32
  0
VERTEX
  8
E53LXLIFT
 62
7
 10
4385.561
 20
-8704.683
 30
-70.295
 70
    32
  0
VERTEX
  8
E53LXLIFT
 62
7
 10
4393.084
 20
-8710.697
 30
-70.290
 70
    32
  0
VERTEX
  8
E53LXLIFT
 62
7
 10
4404.050
 20
-8717.291
 30
-70.292
 70
    32
  0
VERTEX
  8
E53LXLIFT
 62
7
 10
4412.938
 20
-8712.594
 30
-70.343
 70
    32
  0
VERTEX
  8
E53LXLIFT
 62
7
 10
4425.127
 20
-8727.301
 30
-70.310
 70
    32
  0
VERTEX
  8
E53LXLIFT
 62
7
 10
4431.517
 20
-8730.657
 30
-70.314
 70
    32
  0
VERTEX
  8
E53LXLIFT
 62
7
 10
4447.862
 20
-8728.990
 30
-70.373
 70
    32
  0
SEQEND
  8
E53LXLIFT
  0
POLYLINE
  8
E53LXLIFT
 62
1
 66
     1
 70
     9
  0
VERTEX
  8
E53LXLIFT
 62
1
 10
4457.525
 20
-8737.738
 30
-60.354
 70
    32
  0
VERTEX
  8
E53LXLIFT
 62
1
 10
4465.125
 20
-8765.014
 30
-60.246
 70
    32
  0
VERTEX
  8
E53LXLIFT
 62
1
 10
4460.281
 20
-8772.354
 30
-60.196
 70
    32
  0
VERTEX
  8
E53LXLIFT
 62
1
 10
4446.135
 20
-8771.484
 30
-60.156
 70
    32
  0
VERTEX
  8
E53LXLIFT
 62
1
 10
4434.273
 20
-8766.824
 30
-60.141
 70
    32
  0
VERTEX
  8
E53LXLIFT
 62
1
 10
4422.653
 20
-8773.463
 30
-60.073
 70
    32
  0
VERTEX
  8
E53LXLIFT
 62
1
 10
4409.039
 20
-8768.319
 30
-60.055
 70
    32
  0
VERTEX
  8
E53LXLIFT
 62
1
 10
4406.233
 20
-8762.090
 30
-60.076
 70
    32
  0
VERTEX
  8
E53LXLIFT
 62
1
 10
4410.014
 20
-8758.427
 30
-60.106
 70
    32
  0
VERTEX
  8
E53LXLIFT
 62
1
 10
4393.074
 20
-8731.408
 30
-60.182
 70
    32
  0
VERTEX
  8
E53LXLIFT
 62
1
 10
4387.097
 20
-8731.221
 30
-60.165
 70
    32
  0
VERTEX
  8
E53LXLIFT
 62
1
 10
4375.020
 20
-8712.106
 30
-60.219
 70
    32
  0
VERTEX
  8
E53LXLIFT
 62
1
 10
4363.778
 20
-8719.884
 30
-60.146
 70
    32
  0
VERTEX
  8
E53LXLIFT
 62
1
 10
4362.511
 20
-8717.646
 30
-60.153
 70
    32
  0
VERTEX
  8
E53LXLIFT
 62
1
 10
4350.977
 20
-8708.426
 30
-60.161
 70
    32
  0
VERTEX
  8
E53LXLIFT
 62
1
 10
4339.041
 20
-8714.316
 30
-60.096
 70
    32
  0
VERTEX
  8
E53LXLIFT
 62
1
 10
4331.469
 20
-8712.341
 30
-60.081
 70
    32
  0
VERTEX
  8
E53LXLIFT
 62
1
 10
4322.640
 20
-8718.187
 30
-60.026
 70
    32
  0
VERTEX
  8
E53LXLIFT
 62
1
 10
4297.370
 20
-8734.985
 30
-59.866
 70
    32
  0
VERTEX
  8
E53LXLIFT
 62
1
 10
4297.370
 20
-8734.985
 30
-59.866
 70
    32
  0
VERTEX
  8
E53LXLIFT
 62
1
 10
4297.370
 20
-8734.985
 30
-59.866
 70
    32
  0
VERTEX
  8
E53LXLIFT
 62
1
 10
4285.806
 20
-8730.837
 30
-59.850
 70
    32
  0
VERTEX
  8
E53LXLIFT
 62
1
 10
4286.037
 20
-8715.105
 30
-59.926
 70
    32
  0
VERTEX
  8
E53LXLIFT
 62
1
 10
4298.334
 20
-8693.592
 30
-60.068
 70
    32
  0
VERTEX
  8
E53LXLIFT
 62
1
 10
4296.033
 20
-8676.507
 30
-60.143
 70
    32
  0
VERTEX
  8
E53LXLIFT
 62
1
 10
4303.659
 20
-8672.166
 30
-60.187
 70
    32
  0
VERTEX
  8
E53LXLIFT
 62
1
 10
4310.958
 20
-8691.865
 30
-60.116
 70
    32
  0
VERTEX
  8
E53LXLIFT
 62
1
 10
4316.733
 20
-8699.987
 30
-60.095
 70
    32
  0
VERTEX
  8
E53LXLIFT
 62
1
 10
4322.858
 20
-8702.666
 30
-60.101
 70
    32
  0
VERTEX
  8
E53LXLIFT
 62
1
 10
4332.921
 20
-8699.622
 30
-60.147
 70
    32
  0
VERTEX
  8
E53LXLIFT
 62
1
 10
4342.203
 20
-8693.347
 30
-60.206
 70
    32
  0
VERTEX
  8
E53LXLIFT
 62
1
 10
4346.301
 20
-8694.545
 30
-60.213
 70
    32
  0
VERTEX
  8
E53LXLIFT
 62
1
 10
4352.637
 20
-8699.346
 30
-60.210
 70
    32
  0
VERTEX
  8
E53LXLIFT
 62
1
 10
4363.623
 20
-8700.948
 30
-60.237
 70
    32
  0
VERTEX
  8
E53LXLIFT
 62
1
 10
4370.988
 20
-8699.283
 30
-60.268
 70
    32
  0
VERTEX
  8
E53LXLIFT
 62
1
 10
4376.699
 20
-8689.053
 30
-60.335
 70
    32
  0
VERTEX
  8
E53LXLIFT
 62
1
 10
4386.561
 20
-8703.683
 30
-60.295
 70
    32
  0
VERTEX
  8
E53LXLIFT
 62
1
 10
4394.084
 20
-8709.697
 30
-60.290
 70
    32
  0
VERTEX
  8
E53LXLIFT
 62
1
 10
4405.050
 20
-8716.291
 30
-60.292
 70
    32
  0
VERTEX
  8
E53LXLIFT
 62
1
 10
4413.938
 20
-8711.594
 30
-60.343
 70
    32
  0
VERTEX
  8
E53LXLIFT
 62
1
 10
4426.127
 20
-8726.301
 30
-60.310
 70
    32
  0
VERTEX
  8
E53LXLIFT
 62
1
 10
4432.517
 20
-8729.657
 30
-60.314
 70
    32
  0
VERTEX
  8
E53LXLIFT
 62
1
 10
4448.862
 20
-8727.990
 30
-60.373
 70
    32
  0
SEQEND
  8
E53LXLIFT
  0
POLYLINE
  8
E53LXLIFT
 62
3
 66
     1
 70
     9
  0
VERTEX
  8
E53LXLIFT
 62
3
 10
4386.097
 20
-8732.221
 30
-70.165
 70
    32
  0
VERTEX
  8
E53LXLIFT
 62
3
 10
4393.396
 20
-8742.181
 30
-70.140
 70
    32
  0
VERTEX
  8
E53LXLIFT
 62
3
 10
4400.131
 20
-8756.979
 30
-70.090
 70
    32
  0
VERTEX
  8
E53LXLIFT
 62
3
 10
4409.698
 20
-8784.587
 30
-69.987
 70
    32
  0
VERTEX
  8
E53LXLIFT
 62
3
 10
4409.802
 20
-8803.451
 30
-69.897
 70
    32
  0
VERTEX
  8
E53LXLIFT
 62
3
 10
4411.846
 20
-8811.196
 30
-69.866
 70
    32
  0
VERTEX
  8
E53LXLIFT
 62
3
 10
4420.529
 20
-8825.690
 30
-69.823
 70
    32
  0
VERTEX
  8
E53LXLIFT
 62
3
 10
4423.476
 20
-8838.204
 30
-69.772
 70
    32
  0
VERTEX
  8
E53LXLIFT
 62
3
 10
4423.244
 20
-8845.944
 30
-69.735
 70
    32
  0
VERTEX
  8
E53LXLIFT
 62
3
 10
4432.108
 20
-8857.496
 30
-69.707
 70
    32
  0
VERTEX
  8
E53LXLIFT
 62
3
 10
4426.054
 20
-8859.636
 30
-69.678
 70
    32
  0
VERTEX
  8
E53LXLIFT
 62
3
 10
4419.482
 20
-8869.720
 30
-69.609
 70
    32
  0
VERTEX
  8
E53LXLIFT
 62
3
 10
4407.369
 20
-8867.295
 30
-69.582
 70
    32
  0
VERTEX
  8
E53LXLIFT
 62
3
 10
4403.773
 20
-8861.629
 30
-69.598
 70
    32
  0
VERTEX
  8
E53LXLIFT
 62
3
 10
4402.621
 20
-8853.466
 30
-69.634
 70
    32
  0
VERTEX
  8
E53LXLIFT
 62
3
 10
4396.540
 20
-8844.913
 30
-69.656
 70
    32
  0
VERTEX
  8
E53LXLIFT
 62
3
 10
4378.488
 20
-8824.852
 30
-69.696
 70
    32
  0
VERTEX
  8
E53LXLIFT
 62
3
 10
4363.333
 20
-8811.605
 30
-69.712
 70
    32
  0
VERTEX
  8
E53LXLIFT
 62
3
 10
4354.469
 20
-8800.053
 30
-69.740
 70
    32
  0
VERTEX
  8
E53LXLIFT
 62
3
 10
4345.071
 20
-8793.533
 30
-69.742
 70
    32
  0
VERTEX
  8
E53LXLIFT
 62
3
 10
4335.602
 20
-8777.325
 30
-69.790
 70
    32
  0
VERTEX
  8
E53LXLIFT
 62
3
 10
4333.876
 20
-8769.571
 30
-69.822
 70
    32
  0
VERTEX
  8
E53LXLIFT
 62
3
 10
4329.553
 20
-8764.463
 30
-69.833
 70
    32
  0
VERTEX
  8
E53LXLIFT
 62
3
 10
4341.963
 20
-8755.488
 30
-69.915
 70
    32
  0
VERTEX
  8
E53LXLIFT
 62
3
 10
4345.355
 20
-8761.516
 30
-69.897
 70
    32
  0
VERTEX
  8
E53LXLIFT
 62
3
 10
4359.833
 20
-8775.029
 30
-69.877
 70
    32
  0
VERTEX
  8
E53LXLIFT
 62
3
 10
4370.846
 20
-8792.952
 30
-69.825
 70
    32
  0
VERTEX
  8
E53LXLIFT
 62
3
 10
4376.276
 20
-8794.502
 30
-69.835
 70
    32
  0
VERTEX
  8
E53LXLIFT
 62
3
 10
4384.102
 20
-8792.724
 30
-69.868
 70
    32
  0
VERTEX
  8
E53LXLIFT
 62
3
 10
4384.869
 20
-8788.932
 30
-69.888
 70
    32
  0
VERTEX
  8
E53LXLIFT
 62
3
 10
4379.863
 20
-8751.912
 30
-70.051
 70
    32
  0
VERTEX
  8
E53LXLIFT
 62
3
 10
4381.023
 20
-8746.543
 30
-70.080
 70
    32
  0
VERTEX
  8
E53LXLIFT
 62
3
 10
4376.540
 20
-8728.520
 30
-70.153
 70
    32
  0
SEQEND
  8
E53LXLIFT
  0
POLYLINE
  8
E53LXLIFT
 62
13
 66
     1
 70
     9
  0
VERTEX
  8
E53LXLIFT
 62
13
 10
4190.375
 20
-8684.942
 30
-69.780
 70
    32
  0
VERTEX
  8
E53LXLIFT
 62
13
 10
4190.664
 20
-8693.718
 30
-69.738
 70
    32
  0
VERTEX
  8
E53LXLIFT
 62
13
 10
4196.185
 20
-8705.592
 30
-69.699
 70
    32
  0
VERTEX
  8
E53LXLIFT
 62
13
 10
4211.370
 20
-8714.164
 30
-69.705
 70
    32
  0
VERTEX
  8
E53LXLIFT
 62
13
 10
4213.632
 20
-8729.785
 30
-69.637
 70
    32
  0
VERTEX
  8
E53LXLIFT
 62
13
 10
4207.609
 20
-8730.258
 30
-69.616
 70
    32
  0
VERTEX
  8
E53LXLIFT
 62
13
 10
4204.632
 20
-8733.607
 30
-69.591
 70
    32
  0
VERTEX
  8
E53LXLIFT
 62
13
 10
4203.090
 20
-8748.058
 30
-69.516
 70
    32
  0
VERTEX
  8
E53LXLIFT
 62
13
 10
4213.146
 20
-8764.275
 30
-69.470
 70
    32
  0
VERTEX
  8
E53LXLIFT
 62
13
 10
4207.586
 20
-8773.471
 30
-69.408
 70
    32
  0
VERTEX
  8
E53LXLIFT
 62
13
 10
4197.089
 20
-8776.674
 30
-69.360
 70
    32
  0
VERTEX
  8
E53LXLIFT
 62
13
 10
4190.518
 20
-8786.440
 30
-69.293
 70
    32
  0
VERTEX
  8
E53LXLIFT
 62
13
 10
4181.086
 20
-8789.143
 30
-69.250
 70
    32
  0
VERTEX
  8
E53LXLIFT
 62
13
 10
4174.560
 20
-8782.268
 30
-69.263
 70
    32
  0
VERTEX
  8
E53LXLIFT
 62
13
 10
4170.078
 20
-8750.450
 30
-69.402
 70
    32
  0
VERTEX
  8
E53LXLIFT
 62
13
 10
4170.226
 20
-8747.641
 30
-69.416
 70
    32
  0
VERTEX
  8
E53LXLIFT
 62
13
 10
4174.624
 20
-8742.389
 30
-69.455
 70
    32
  0
VERTEX
  8
E53LXLIFT
 62
13
 10
4177.054
 20
-8733.635
 30
-69.504
 70
    32
  0
VERTEX
  8
E53LXLIFT
 62
13
 10
4177.637
 20
-8728.240
 30
-69.532
 70
    32
  0
VERTEX
  8
E53LXLIFT
 62
13
 10
4175.952
 20
-8727.096
 30
-69.532
 70
    32
  0
VERTEX
  8
E53LXLIFT
 62
13
 10
4174.522
 20
-8715.430
 30
-69.584
 70
    32
  0
VERTEX
  8
E53LXLIFT
 62
13
 10
4171.058
 20
-8711.309
 30
-69.593
 70
    32
  0
VERTEX
  8
E53LXLIFT
 62
13
 10
4171.421
 20
-8715.624
 30
-69.573
 70
    32
  0
VERTEX
  8
E53LXLIFT
 62
13
 10
4167.742
 20
-8723.789
 30
-69.522
 70
    32
  0
VERTEX
  8
E53LXLIFT
 62
13
 10
4159.415
 20
-8724.613
 30
-69.492
 70
    32
  0
VERTEX
  8
E53LXLIFT
 62
13
 10
4154.732
 20
-8718.085
 30
-69.509
 70
    32
  0
VERTEX
  8
E53LXLIFT
 62
13
 10
4146.726
 20
-8718.320
 30
-69.483
 70
    32
  0
VERTEX
  8
E53LXLIFT
 62
13
 10
4141.443
 20
-8711.248
 30
-69.500
 70
    32
  0
VERTEX
  8
E53LXLIFT
 62
13
 10
4168.249
 20
-8691.751
 30
-69.678
 70
    32
  0
VERTEX
  8
E53LXLIFT
 62
13
 10
4160.701
 20
-8680.295
 30
-69.709
 70
    32
  0
VERTEX
  8
E53LXLIFT
 62
13
 10
4156.381
 20
-8643.974
 30
-69.870
 70
    32
  0
VERTEX
  8
E53LXLIFT
 62
13
 10
4164.059
 20
-8641.752
 30
-69.905
 70
    32
  0
VERTEX
  8
E53LXLIFT
 62
13
 10
4169.350
 20
-8643.202
 30
-69.914
 70
    32
  0
VERTEX
  8
E53LXLIFT
 62
13
 10
4174.231
 20
-8645.985
 30
-69.916
 70
    32
  0
VERTEX
  8
E53LXLIFT
 62
13
 10
4177.165
 20
-8650.859
 30
-69.902
 70
    32
  0
VERTEX
  8
E53LXLIFT
 62
13
 10
4191.355
 20
-8640.937
 30
-69.994
 70
    32
  0
VERTEX
  8
E53LXLIFT
 62
13
 10
4198.243
 20
-8648.986
 30
-69.977
 70
    32
  0
VERTEX
  8
E53LXLIFT
 62
13
 10
4179.022
 20
-8665.780
 30
-69.836
 70
    32
  0
VERTEX
  8
E53LXLIFT
 62
13
 10
4181.912
 20
-8675.737
 30
-69.797
 70
    32
  0
VERTEX
  8
E53LXLIFT
 62
13
 10
4186.927
 20
-8678.975
 30
-69.798
 70
    32
  0
SEQEND
  8
E53LXLIFT
  0
POLYLINE
  8
E53LXLIFT
 62
8
 66
     1
 70
     9
  0
VERTEX
  8
E53LXLIFT
 62
8
 10
4217.449
 20
-8704.755
 30
-69.769
 70
    32
  0
VERTEX
  8
E53LXLIFT
 62
8
 10
4212.843
 20
-8696.451
 30
-69.795
 70
    32
  0
VERTEX
  8
E53LXLIFT
 62
8
 10
4210.686
 20
-8674.395
 30
-69.894
 70
    32
  0
VERTEX
  8
E53LXLIFT
 62
8
 10
4212.002
 20
-8672.593
 30
-69.907
 70
    32
  0
VERTEX
  8
E53LXLIFT
 62
8
 10
4219.317
 20
-8670.097
 30
-69.942
 70
    32
  0
VERTEX
  8
E53LXLIFT
 62
8
 10
4220.541
 20
-8663.600
 30
-69.977
 70
    32
  0
VERTEX
  8
E53LXLIFT
 62
8
 10
4220.082
 20
-8654.929
 30
-70.017
 70
    32
  0
VERTEX
  8
E53LXLIFT
 62
8
 10
4219.120
 20
-8652.993
 30
-70.023
 70
    32
  0
VERTEX
  8
E53LXLIFT
 62
8
 10
4216.668
 20
-8653.013
 30
-70.015
 70
    32
  0
VERTEX
  8
E53LXLIFT
 62
8
 10
4210.942
 20
-8655.720
 30
-69.984
 70
    32
  0
VERTEX
  8
E53LXLIFT
 62
8
 10
4205.680
 20
-8650.881
 30
-69.991
 70
    32
  0
VERTEX
  8
E53LXLIFT
 62
8
 10
4202.260
 20
-8646.389
 30
-70.002
 70
    32
  0
VERTEX
  8
E53LXLIFT
 62
8
 10
4201.218
 20
-8639.354
 30
-70.033
 70
    32
  0
VERTEX
  8
E53LXLIFT
 62
8
 10
4203.089
 20
-8634.742
 30
-70.061
 70
    32
  0
VERTEX
  8
E53LXLIFT
 62
8
 10
4223.983
 20
-8625.497
 30
-70.170
 70
    32
  0
VERTEX
  8
E53LXLIFT
 62
8
 10
4226.787
 20
-8626.210
 30
-70.176
 70
    32
  0
VERTEX
  8
E53LXLIFT
 62
8
 10
4234.560
 20
-8645.231
 30
-70.109
 70
    32
  0
VERTEX
  8
E53LXLIFT
 62
8
 10
4237.913
 20
-8651.355
 30
-70.090
 70
    32
  0
VERTEX
  8
E53LXLIFT
 62
8
 10
4238.177
 20
-8652.791
 30
-70.084
 70
    32
  0
VERTEX
  8
E53LXLIFT
 62
8
 10
4241.578
 20
-8653.618
 30
-70.090
 70
    32
  0
VERTEX
  8
E53LXLIFT
 62
8
 10
4253.905
 20
-8651.779
 30
-70.138
 70
    32
  0
VERTEX
  8
E53LXLIFT
 62
8
 10
4258.668
 20
-8653.911
 30
-70.142
 70
    32
  0
VERTEX
  8
E53LXLIFT
 62
8
 10
4265.617
 20
-8664.445
 30
-70.113
 70
    32
  0
VERTEX
  8
E53LXLIFT
 62
8
 10
4266.779
 20
-8672.167
 30
-70.080
 70
    32
  0
VERTEX
  8
E53LXLIFT
 62
8
 10
4270.154
 20
-8676.152
 30
-70.071
 70
    32
  0
VERTEX
  8
E53LXLIFT
 62
8
 10
4281.569
 20
-8683.834
 30
-70.070
 70
    32
  0
VERTEX
  8
E53LXLIFT
 62
8
 10
4282.179
 20
-8686.214
 30
-70.061
 70
    32
  0
VERTEX
  8
E53LXLIFT
 62
8
 10
4277.510
 20
-8692.888
 30
-70.014
 70
    32
  0
VERTEX
  8
E53LXLIFT
 62
8
 10
4262.467
 20
-8684.973
 30
-70.005
 70
    32
  0
VERTEX
  8
E53LXLIFT
 62
8
 10
4245.965
 20
-8697.681
 30
-69.892
 70
    32
  0
VERTEX
  8
E53LXLIFT
 62
8
 10
4243.237
 20
-8698.105
 30
-69.882
 70
    32
  0
VERTEX
  8
E53LXLIFT
 62
8
 10
4229.833
 20
-8709.692
 30
-69.784
 70
    32
  0
SEQEND
  8
E53LXLIFT
  0
ENDSEC
  0
EOF
