999
********************************
999
*   DXF File - Entities Only   *
999
*        3D Data Format        *
999
*     Output from ENVISAGE     *
999
*     31-Dec-2007 14:45:16     *
999
********************************
  0
SECTION 
  2
HEADER
  9
$ACADVER
  1
AC1009
  9
$EXTMIN
 10
-290000.000
 20
-250000.000
 30
-4000.000
  9
$EXTMAX
 10
320000.000
 20
160000.000
 30
6000.000
  0
ENDSEC
  0
SECTION
  2
ENTITIES
  0
POLYLINE
  8
E56LXLIFT
 62
3
 66
     1
 70
     9
  0
VERTEX
  8
E56LXLIFT
 62
3
 10
5191.876
 20
-9075.623
 30
-358.000
 70
    32
  0
VERTEX
  8
E56LXLIFT
 62
3
 10
5203.992
 20
-9084.551
 30
-358.000
 70
    32
  0
VERTEX
  8
E56LXLIFT
 62
3
 10
5215.184
 20
-9089.803
 30
-358.000
 70
    32
  0
VERTEX
  8
E56LXLIFT
 62
3
 10
5224.700
 20
-9095.291
 30
-358.000
 70
    32
  0
VERTEX
  8
E56LXLIFT
 62
3
 10
5229.970
 20
-9103.313
 30
-358.000
 70
    32
  0
VERTEX
  8
E56LXLIFT
 62
3
 10
5228.469
 20
-9114.286
 30
-358.000
 70
    32
  0
VERTEX
  8
E56LXLIFT
 62
3
 10
5233.066
 20
-9125.728
 30
-358.000
 70
    32
  0
VERTEX
  8
E56LXLIFT
 62
3
 10
5237.777
 20
-9141.975
 30
-358.000
 70
    32
  0
VERTEX
  8
E56LXLIFT
 62
3
 10
5236.325
 20
-9151.066
 30
-358.000
 70
    32
  0
VERTEX
  8
E56LXLIFT
 62
3
 10
5230.293
 20
-9157.283
 30
-358.000
 70
    32
  0
VERTEX
  8
E56LXLIFT
 62
3
 10
5221.477
 20
-9161.607
 30
-358.000
 70
    32
  0
VERTEX
  8
E56LXLIFT
 62
3
 10
5211.660
 20
-9164.700
 30
-358.000
 70
    32
  0
VERTEX
  8
E56LXLIFT
 62
3
 10
5204.331
 20
-9162.080
 30
-358.000
 70
    32
  0
VERTEX
  8
E56LXLIFT
 62
3
 10
5203.851
 20
-9156.019
 30
-358.000
 70
    32
  0
VERTEX
  8
E56LXLIFT
 62
3
 10
5198.576
 20
-9147.240
 30
-358.000
 70
    32
  0
VERTEX
  8
E56LXLIFT
 62
3
 10
5194.559
 20
-9133.749
 30
-358.000
 70
    32
  0
VERTEX
  8
E56LXLIFT
 62
3
 10
5199.958
 20
-9123.211
 30
-358.000
 70
    32
  0
VERTEX
  8
E56LXLIFT
 62
3
 10
5197.292
 20
-9109.935
 30
-358.000
 70
    32
  0
VERTEX
  8
E56LXLIFT
 62
3
 10
5192.939
 20
-9102.878
 30
-358.000
 70
    32
  0
VERTEX
  8
E56LXLIFT
 62
3
 10
5192.746
 20
-9098.564
 30
-358.000
 70
    32
  0
VERTEX
  8
E56LXLIFT
 62
3
 10
5183.963
 20
-9095.586
 30
-358.000
 70
    32
  0
VERTEX
  8
E56LXLIFT
 62
3
 10
5182.231
 20
-9087.499
 30
-358.000
 70
    32
  0
SEQEND
  8
E56LXLIFT
  0
POLYLINE
  8
E56LXLIFT
 62
6
 66
     1
 70
     9
  0
VERTEX
  8
E56LXLIFT
 62
6
 10
5139.018
 20
-9216.462
 30
-355.000
 70
    32
  0
VERTEX
  8
E56LXLIFT
 62
6
 10
5144.849
 20
-9228.857
 30
-355.000
 70
    32
  0
VERTEX
  8
E56LXLIFT
 62
6
 10
5150.346
 20
-9235.845
 30
-355.000
 70
    32
  0
VERTEX
  8
E56LXLIFT
 62
6
 10
5156.650
 20
-9236.600
 30
-355.000
 70
    32
  0
VERTEX
  8
E56LXLIFT
 62
6
 10
5161.396
 20
-9241.200
 30
-355.000
 70
    32
  0
VERTEX
  8
E56LXLIFT
 62
6
 10
5167.945
 20
-9241.995
 30
-355.000
 70
    32
  0
VERTEX
  8
E56LXLIFT
 62
6
 10
5169.223
 20
-9232.814
 30
-355.000
 70
    32
  0
VERTEX
  8
E56LXLIFT
 62
6
 10
5164.299
 20
-9219.870
 30
-355.000
 70
    32
  0
VERTEX
  8
E56LXLIFT
 62
6
 10
5158.182
 20
-9212.028
 30
-355.000
 70
    32
  0
VERTEX
  8
E56LXLIFT
 62
6
 10
5148.840
 20
-9206.630
 30
-355.000
 70
    32
  0
VERTEX
  8
E56LXLIFT
 62
6
 10
5141.368
 20
-9193.469
 30
-355.000
 70
    32
  0
VERTEX
  8
E56LXLIFT
 62
6
 10
5134.782
 20
-9176.733
 30
-355.000
 70
    32
  0
VERTEX
  8
E56LXLIFT
 62
6
 10
5120.373
 20
-9162.841
 30
-355.000
 70
    32
  0
VERTEX
  8
E56LXLIFT
 62
6
 10
5114.749
 20
-9153.880
 30
-355.000
 70
    32
  0
VERTEX
  8
E56LXLIFT
 62
6
 10
5111.724
 20
-9149.555
 30
-355.000
 70
    32
  0
VERTEX
  8
E56LXLIFT
 62
6
 10
5107.053
 20
-9146.856
 30
-355.000
 70
    32
  0
VERTEX
  8
E56LXLIFT
 62
6
 10
5104.166
 20
-9137.325
 30
-355.000
 70
    32
  0
VERTEX
  8
E56LXLIFT
 62
6
 10
5099.979
 20
-9131.995
 30
-355.000
 70
    32
  0
VERTEX
  8
E56LXLIFT
 62
6
 10
5095.692
 20
-9134.774
 30
-355.000
 70
    32
  0
VERTEX
  8
E56LXLIFT
 62
6
 10
5102.123
 20
-9151.297
 30
-355.000
 70
    32
  0
VERTEX
  8
E56LXLIFT
 62
6
 10
5108.085
 20
-9166.421
 30
-355.000
 70
    32
  0
VERTEX
  8
E56LXLIFT
 62
6
 10
5113.151
 20
-9176.112
 30
-355.000
 70
    32
  0
VERTEX
  8
E56LXLIFT
 62
6
 10
5114.133
 20
-9183.764
 30
-355.000
 70
    32
  0
VERTEX
  8
E56LXLIFT
 62
6
 10
5127.325
 20
-9202.123
 30
-355.000
 70
    32
  0
SEQEND
  8
E56LXLIFT
  0
POLYLINE
  8
E56LXLIFT
 62
13
 66
     1
 70
     9
  0
VERTEX
  8
E56LXLIFT
 62
13
 10
5003.597
 20
-9204.215
 30
-358.000
 70
    32
  0
VERTEX
  8
E56LXLIFT
 62
13
 10
4995.304
 20
-9205.662
 30
-358.000
 70
    32
  0
VERTEX
  8
E56LXLIFT
 62
13
 10
4988.555
 20
-9196.648
 30
-358.000
 70
    32
  0
VERTEX
  8
E56LXLIFT
 62
13
 10
4983.666
 20
-9185.851
 30
-358.000
 70
    32
  0
VERTEX
  8
E56LXLIFT
 62
13
 10
4977.541
 20
-9175.299
 30
-358.000
 70
    32
  0
VERTEX
  8
E56LXLIFT
 62
13
 10
4969.748
 20
-9164.543
 30
-358.000
 70
    32
  0
VERTEX
  8
E56LXLIFT
 62
13
 10
4960.756
 20
-9154.981
 30
-358.000
 70
    32
  0
VERTEX
  8
E56LXLIFT
 62
13
 10
4955.212
 20
-9145.529
 30
-358.000
 70
    32
  0
VERTEX
  8
E56LXLIFT
 62
13
 10
4949.238
 20
-9130.087
 30
-358.000
 70
    32
  0
VERTEX
  8
E56LXLIFT
 62
13
 10
4939.632
 20
-9109.782
 30
-358.000
 70
    32
  0
VERTEX
  8
E56LXLIFT
 62
13
 10
4930.093
 20
-9094.968
 30
-358.000
 70
    32
  0
VERTEX
  8
E56LXLIFT
 62
13
 10
4921.535
 20
-9081.508
 30
-358.000
 70
    32
  0
VERTEX
  8
E56LXLIFT
 62
13
 10
4915.705
 20
-9069.112
 30
-358.000
 70
    32
  0
VERTEX
  8
E56LXLIFT
 62
13
 10
4914.872
 20
-9060.917
 30
-358.000
 70
    32
  0
VERTEX
  8
E56LXLIFT
 62
13
 10
4922.429
 20
-9059.352
 30
-358.000
 70
    32
  0
VERTEX
  8
E56LXLIFT
 62
13
 10
4933.169
 20
-9074.925
 30
-358.000
 70
    32
  0
VERTEX
  8
E56LXLIFT
 62
13
 10
4942.686
 20
-9094.208
 30
-358.000
 70
    32
  0
VERTEX
  8
E56LXLIFT
 62
13
 10
4952.677
 20
-9109.347
 30
-358.000
 70
    32
  0
VERTEX
  8
E56LXLIFT
 62
13
 10
4962.946
 20
-9127.868
 30
-358.000
 70
    32
  0
VERTEX
  8
E56LXLIFT
 62
13
 10
4969.588
 20
-9142.282
 30
-358.000
 70
    32
  0
VERTEX
  8
E56LXLIFT
 62
13
 10
4978.316
 20
-9150.731
 30
-358.000
 70
    32
  0
VERTEX
  8
E56LXLIFT
 62
13
 10
4991.489
 20
-9140.427
 30
-358.000
 70
    32
  0
VERTEX
  8
E56LXLIFT
 62
13
 10
5002.503
 20
-9132.990
 30
-358.000
 70
    32
  0
VERTEX
  8
E56LXLIFT
 62
13
 10
5010.980
 20
-9137.493
 30
-358.000
 70
    32
  0
VERTEX
  8
E56LXLIFT
 62
13
 10
5014.971
 20
-9144.052
 30
-358.000
 70
    32
  0
VERTEX
  8
E56LXLIFT
 62
13
 10
5006.559
 20
-9153.731
 30
-358.000
 70
    32
  0
VERTEX
  8
E56LXLIFT
 62
13
 10
5007.022
 20
-9166.214
 30
-358.000
 70
    32
  0
VERTEX
  8
E56LXLIFT
 62
13
 10
5011.117
 20
-9183.560
 30
-358.000
 70
    32
  0
VERTEX
  8
E56LXLIFT
 62
13
 10
5012.290
 20
-9196.723
 30
-358.000
 70
    32
  0
SEQEND
  8
E56LXLIFT
  0
POLYLINE
  8
E56LXLIFT
 62
7
 66
     1
 70
     9
  0
VERTEX
  8
E56LXLIFT
 62
7
 10
4887.005
 20
-9348.542
 30
-358.000
 70
    32
  0
VERTEX
  8
E56LXLIFT
 62
7
 10
4880.062
 20
-9343.905
 30
-358.000
 70
    32
  0
VERTEX
  8
E56LXLIFT
 62
7
 10
4876.050
 20
-9334.320
 30
-358.000
 70
    32
  0
VERTEX
  8
E56LXLIFT
 62
7
 10
4879.396
 20
-9325.595
 30
-358.000
 70
    32
  0
VERTEX
  8
E56LXLIFT
 62
7
 10
4883.701
 20
-9319.543
 30
-358.000
 70
    32
  0
VERTEX
  8
E56LXLIFT
 62
7
 10
4887.711
 20
-9312.184
 30
-358.000
 70
    32
  0
VERTEX
  8
E56LXLIFT
 62
7
 10
4889.317
 20
-9307.654
 30
-358.000
 70
    32
  0
VERTEX
  8
E56LXLIFT
 62
7
 10
4883.297
 20
-9303.542
 30
-358.000
 70
    32
  0
VERTEX
  8
E56LXLIFT
 62
7
 10
4880.381
 20
-9295.770
 30
-358.000
 70
    32
  0
VERTEX
  8
E56LXLIFT
 62
7
 10
4878.655
 20
-9291.589
 30
-358.000
 70
    32
  0
VERTEX
  8
E56LXLIFT
 62
7
 10
4870.014
 20
-9296.004
 30
-358.000
 70
    32
  0
VERTEX
  8
E56LXLIFT
 62
7
 10
4862.094
 20
-9298.266
 30
-358.000
 70
    32
  0
VERTEX
  8
E56LXLIFT
 62
7
 10
4851.369
 20
-9295.608
 30
-358.000
 70
    32
  0
VERTEX
  8
E56LXLIFT
 62
7
 10
4840.398
 20
-9289.761
 30
-358.000
 70
    32
  0
VERTEX
  8
E56LXLIFT
 62
7
 10
4829.426
 20
-9288.261
 30
-358.000
 70
    32
  0
VERTEX
  8
E56LXLIFT
 62
7
 10
4822.599
 20
-9287.233
 30
-358.000
 70
    32
  0
VERTEX
  8
E56LXLIFT
 62
7
 10
4812.506
 20
-9293.242
 30
-358.000
 70
    32
  0
VERTEX
  8
E56LXLIFT
 62
7
 10
4805.978
 20
-9301.774
 30
-358.000
 70
    32
  0
VERTEX
  8
E56LXLIFT
 62
7
 10
4802.069
 20
-9310.472
 30
-358.000
 70
    32
  0
VERTEX
  8
E56LXLIFT
 62
7
 10
4807.664
 20
-9324.341
 30
-358.000
 70
    32
  0
VERTEX
  8
E56LXLIFT
 62
7
 10
4814.199
 20
-9336.660
 30
-358.000
 70
    32
  0
VERTEX
  8
E56LXLIFT
 62
7
 10
4824.272
 20
-9345.764
 30
-358.000
 70
    32
  0
VERTEX
  8
E56LXLIFT
 62
7
 10
4827.394
 20
-9353.822
 30
-358.000
 70
    32
  0
VERTEX
  8
E56LXLIFT
 62
7
 10
4833.200
 20
-9354.938
 30
-358.000
 70
    32
  0
VERTEX
  8
E56LXLIFT
 62
7
 10
4842.388
 20
-9355.776
 30
-358.000
 70
    32
  0
VERTEX
  8
E56LXLIFT
 62
7
 10
4849.190
 20
-9363.665
 30
-358.000
 70
    32
  0
VERTEX
  8
E56LXLIFT
 62
7
 10
4853.865
 20
-9371.466
 30
-358.000
 70
    32
  0
SEQEND
  8
E56LXLIFT
  0
POLYLINE
  8
E56LXLIFT
 62
3
 66
     1
 70
     9
  0
VERTEX
  8
E56LXLIFT
 62
3
 10
5195.743
 20
-9073.618
 30
-345.000
 70
    32
  0
VERTEX
  8
E56LXLIFT
 62
3
 10
5200.657
 20
-9072.130
 30
-345.000
 70
    32
  0
VERTEX
  8
E56LXLIFT
 62
3
 10
5203.704
 20
-9079.712
 30
-345.000
 70
    32
  0
VERTEX
  8
E56LXLIFT
 62
3
 10
5205.401
 20
-9086.662
 30
-345.000
 70
    32
  0
VERTEX
  8
E56LXLIFT
 62
3
 10
5209.932
 20
-9103.545
 30
-345.000
 70
    32
  0
VERTEX
  8
E56LXLIFT
 62
3
 10
5218.380
 20
-9115.852
 30
-345.000
 70
    32
  0
VERTEX
  8
E56LXLIFT
 62
3
 10
5224.091
 20
-9127.138
 30
-345.000
 70
    32
  0
VERTEX
  8
E56LXLIFT
 62
3
 10
5227.660
 20
-9140.687
 30
-345.000
 70
    32
  0
VERTEX
  8
E56LXLIFT
 62
3
 10
5218.614
 20
-9153.489
 30
-345.000
 70
    32
  0
VERTEX
  8
E56LXLIFT
 62
3
 10
5209.444
 20
-9144.901
 30
-345.000
 70
    32
  0
VERTEX
  8
E56LXLIFT
 62
3
 10
5198.397
 20
-9134.979
 30
-345.000
 70
    32
  0
VERTEX
  8
E56LXLIFT
 62
3
 10
5198.017
 20
-9128.030
 30
-345.000
 70
    32
  0
VERTEX
  8
E56LXLIFT
 62
3
 10
5193.044
 20
-9115.095
 30
-345.000
 70
    32
  0
VERTEX
  8
E56LXLIFT
 62
3
 10
5183.066
 20
-9106.893
 30
-345.000
 70
    32
  0
VERTEX
  8
E56LXLIFT
 62
3
 10
5175.226
 20
-9102.571
 30
-345.000
 70
    32
  0
VERTEX
  8
E56LXLIFT
 62
3
 10
5175.903
 20
-9089.569
 30
-345.000
 70
    32
  0
VERTEX
  8
E56LXLIFT
 62
3
 10
5171.019
 20
-9074.704
 30
-345.000
 70
    32
  0
VERTEX
  8
E56LXLIFT
 62
3
 10
5155.524
 20
-9053.864
 30
-345.000
 70
    32
  0
VERTEX
  8
E56LXLIFT
 62
3
 10
5163.769
 20
-9055.801
 30
-345.000
 70
    32
  0
VERTEX
  8
E56LXLIFT
 62
3
 10
5170.729
 20
-9064.071
 30
-345.000
 70
    32
  0
VERTEX
  8
E56LXLIFT
 62
3
 10
5176.714
 20
-9061.233
 30
-345.000
 70
    32
  0
VERTEX
  8
E56LXLIFT
 62
3
 10
5184.312
 20
-9061.572
 30
-345.000
 70
    32
  0
SEQEND
  8
E56LXLIFT
  0
POLYLINE
  8
E56LXLIFT
 62
3
 66
     1
 70
     9
  0
VERTEX
  8
E56LXLIFT
 62
3
 10
5147.930
 20
-9050.016
 30
-343.000
 70
    32
  0
VERTEX
  8
E56LXLIFT
 62
3
 10
5158.383
 20
-9055.341
 30
-343.000
 70
    32
  0
VERTEX
  8
E56LXLIFT
 62
3
 10
5167.298
 20
-9053.926
 30
-343.000
 70
    32
  0
VERTEX
  8
E56LXLIFT
 62
3
 10
5173.093
 20
-9047.175
 30
-343.000
 70
    32
  0
VERTEX
  8
E56LXLIFT
 62
3
 10
5171.750
 20
-9037.331
 30
-343.000
 70
    32
  0
VERTEX
  8
E56LXLIFT
 62
3
 10
5163.682
 20
-9032.850
 30
-343.000
 70
    32
  0
VERTEX
  8
E56LXLIFT
 62
3
 10
5159.723
 20
-9024.636
 30
-343.000
 70
    32
  0
VERTEX
  8
E56LXLIFT
 62
3
 10
5154.325
 20
-9015.963
 30
-343.000
 70
    32
  0
VERTEX
  8
E56LXLIFT
 62
3
 10
5147.291
 20
-9013.888
 30
-343.000
 70
    32
  0
VERTEX
  8
E56LXLIFT
 62
3
 10
5142.513
 20
-9020.973
 30
-343.000
 70
    32
  0
VERTEX
  8
E56LXLIFT
 62
3
 10
5141.997
 20
-9029.359
 30
-343.000
 70
    32
  0
VERTEX
  8
E56LXLIFT
 62
3
 10
5148.885
 20
-9039.875
 30
-343.000
 70
    32
  0
SEQEND
  8
E56LXLIFT
  0
POLYLINE
  8
E56LXLIFT
 62
6
 66
     1
 70
     9
  0
VERTEX
  8
E56LXLIFT
 62
6
 10
5122.057
 20
-9221.406
 30
-346.000
 70
    32
  0
VERTEX
  8
E56LXLIFT
 62
6
 10
5131.494
 20
-9224.642
 30
-346.000
 70
    32
  0
VERTEX
  8
E56LXLIFT
 62
6
 10
5146.324
 20
-9220.881
 30
-346.000
 70
    32
  0
VERTEX
  8
E56LXLIFT
 62
6
 10
5145.913
 20
-9207.159
 30
-346.000
 70
    32
  0
VERTEX
  8
E56LXLIFT
 62
6
 10
5147.094
 20
-9200.686
 30
-346.000
 70
    32
  0
VERTEX
  8
E56LXLIFT
 62
6
 10
5140.236
 20
-9197.382
 30
-346.000
 70
    32
  0
VERTEX
  8
E56LXLIFT
 62
6
 10
5135.471
 20
-9187.359
 30
-346.000
 70
    32
  0
VERTEX
  8
E56LXLIFT
 62
6
 10
5131.408
 20
-9176.810
 30
-346.000
 70
    32
  0
VERTEX
  8
E56LXLIFT
 62
6
 10
5125.536
 20
-9168.822
 30
-346.000
 70
    32
  0
VERTEX
  8
E56LXLIFT
 62
6
 10
5116.895
 20
-9156.989
 30
-346.000
 70
    32
  0
VERTEX
  8
E56LXLIFT
 62
6
 10
5111.406
 20
-9153.318
 30
-346.000
 70
    32
  0
VERTEX
  8
E56LXLIFT
 62
6
 10
5109.610
 20
-9138.332
 30
-346.000
 70
    32
  0
VERTEX
  8
E56LXLIFT
 62
6
 10
5104.944
 20
-9136.784
 30
-346.000
 70
    32
  0
VERTEX
  8
E56LXLIFT
 62
6
 10
5097.958
 20
-9140.481
 30
-346.000
 70
    32
  0
VERTEX
  8
E56LXLIFT
 62
6
 10
5096.306
 20
-9143.252
 30
-346.000
 70
    32
  0
VERTEX
  8
E56LXLIFT
 62
6
 10
5099.858
 20
-9156.046
 30
-346.000
 70
    32
  0
VERTEX
  8
E56LXLIFT
 62
6
 10
5106.305
 20
-9170.071
 30
-346.000
 70
    32
  0
VERTEX
  8
E56LXLIFT
 62
6
 10
5109.173
 20
-9182.391
 30
-346.000
 70
    32
  0
VERTEX
  8
E56LXLIFT
 62
6
 10
5114.658
 20
-9191.765
 30
-346.000
 70
    32
  0
VERTEX
  8
E56LXLIFT
 62
6
 10
5123.212
 20
-9202.457
 30
-346.000
 70
    32
  0
SEQEND
  8
E56LXLIFT
  0
POLYLINE
  8
E56LXLIFT
 62
13
 66
     1
 70
     9
  0
VERTEX
  8
E56LXLIFT
 62
13
 10
4921.324
 20
-9042.910
 30
-347.000
 70
    32
  0
VERTEX
  8
E56LXLIFT
 62
13
 10
4931.348
 20
-9059.955
 30
-347.000
 70
    32
  0
VERTEX
  8
E56LXLIFT
 62
13
 10
4937.595
 20
-9081.911
 30
-347.000
 70
    32
  0
VERTEX
  8
E56LXLIFT
 62
13
 10
4947.570
 20
-9093.183
 30
-347.000
 70
    32
  0
VERTEX
  8
E56LXLIFT
 62
13
 10
4956.310
 20
-9113.052
 30
-347.000
 70
    32
  0
VERTEX
  8
E56LXLIFT
 62
13
 10
4963.475
 20
-9128.183
 30
-347.000
 70
    32
  0
VERTEX
  8
E56LXLIFT
 62
13
 10
4975.497
 20
-9147.458
 30
-347.000
 70
    32
  0
VERTEX
  8
E56LXLIFT
 62
13
 10
4992.417
 20
-9139.610
 30
-347.000
 70
    32
  0
VERTEX
  8
E56LXLIFT
 62
13
 10
5005.653
 20
-9132.549
 30
-347.000
 70
    32
  0
VERTEX
  8
E56LXLIFT
 62
13
 10
5015.016
 20
-9141.102
 30
-347.000
 70
    32
  0
VERTEX
  8
E56LXLIFT
 62
13
 10
5005.551
 20
-9150.271
 30
-347.000
 70
    32
  0
VERTEX
  8
E56LXLIFT
 62
13
 10
4998.740
 20
-9154.933
 30
-347.000
 70
    32
  0
VERTEX
  8
E56LXLIFT
 62
13
 10
5001.079
 20
-9170.937
 30
-347.000
 70
    32
  0
VERTEX
  8
E56LXLIFT
 62
13
 10
5007.906
 20
-9191.033
 30
-347.000
 70
    32
  0
VERTEX
  8
E56LXLIFT
 62
13
 10
5010.989
 20
-9197.931
 30
-347.000
 70
    32
  0
VERTEX
  8
E56LXLIFT
 62
13
 10
4989.994
 20
-9210.583
 30
-347.000
 70
    32
  0
VERTEX
  8
E56LXLIFT
 62
13
 10
4980.245
 20
-9202.101
 30
-347.000
 70
    32
  0
VERTEX
  8
E56LXLIFT
 62
13
 10
4973.814
 20
-9190.585
 30
-347.000
 70
    32
  0
VERTEX
  8
E56LXLIFT
 62
13
 10
4968.843
 20
-9174.579
 30
-347.000
 70
    32
  0
VERTEX
  8
E56LXLIFT
 62
13
 10
4964.015
 20
-9156.275
 30
-347.000
 70
    32
  0
VERTEX
  8
E56LXLIFT
 62
13
 10
4956.991
 20
-9140.601
 30
-347.000
 70
    32
  0
VERTEX
  8
E56LXLIFT
 62
13
 10
4950.493
 20
-9125.629
 30
-347.000
 70
    32
  0
VERTEX
  8
E56LXLIFT
 62
13
 10
4940.556
 20
-9109.724
 30
-347.000
 70
    32
  0
VERTEX
  8
E56LXLIFT
 62
13
 10
4931.304
 20
-9093.416
 30
-347.000
 70
    32
  0
VERTEX
  8
E56LXLIFT
 62
13
 10
4921.053
 20
-9076.652
 30
-347.000
 70
    32
  0
VERTEX
  8
E56LXLIFT
 62
13
 10
4907.702
 20
-9050.918
 30
-347.000
 70
    32
  0
SEQEND
  8
E56LXLIFT
  0
POLYLINE
  8
E56LXLIFT
 62
7
 66
     1
 70
     9
  0
VERTEX
  8
E56LXLIFT
 62
7
 10
4837.862
 20
-9353.872
 30
-348.000
 70
    32
  0
VERTEX
  8
E56LXLIFT
 62
7
 10
4826.529
 20
-9351.617
 30
-348.000
 70
    32
  0
VERTEX
  8
E56LXLIFT
 62
7
 10
4812.736
 20
-9352.958
 30
-348.000
 70
    32
  0
VERTEX
  8
E56LXLIFT
 62
7
 10
4802.553
 20
-9338.334
 30
-348.000
 70
    32
  0
VERTEX
  8
E56LXLIFT
 62
7
 10
4803.689
 20
-9321.701
 30
-348.000
 70
    32
  0
VERTEX
  8
E56LXLIFT
 62
7
 10
4809.841
 20
-9307.230
 30
-348.000
 70
    32
  0
VERTEX
  8
E56LXLIFT
 62
7
 10
4814.816
 20
-9295.723
 30
-348.000
 70
    32
  0
VERTEX
  8
E56LXLIFT
 62
7
 10
4825.522
 20
-9292.310
 30
-348.000
 70
    32
  0
VERTEX
  8
E56LXLIFT
 62
7
 10
4841.363
 20
-9296.779
 30
-348.000
 70
    32
  0
VERTEX
  8
E56LXLIFT
 62
7
 10
4855.623
 20
-9303.089
 30
-348.000
 70
    32
  0
VERTEX
  8
E56LXLIFT
 62
7
 10
4869.547
 20
-9312.610
 30
-348.000
 70
    32
  0
VERTEX
  8
E56LXLIFT
 62
7
 10
4870.647
 20
-9320.664
 30
-348.000
 70
    32
  0
VERTEX
  8
E56LXLIFT
 62
7
 10
4872.555
 20
-9325.702
 30
-348.000
 70
    32
  0
VERTEX
  8
E56LXLIFT
 62
7
 10
4859.705
 20
-9333.570
 30
-348.000
 70
    32
  0
VERTEX
  8
E56LXLIFT
 62
7
 10
4853.455
 20
-9338.689
 30
-348.000
 70
    32
  0
VERTEX
  8
E56LXLIFT
 62
7
 10
4846.221
 20
-9344.982
 30
-348.000
 70
    32
  0
SEQEND
  8
E56LXLIFT
  0
POLYLINE
  8
E56LXLIFT
 62
3
 66
     1
 70
     9
  0
VERTEX
  8
E56LXLIFT
 62
3
 10
5208.774
 20
-9149.424
 30
-333.000
 70
    32
  0
VERTEX
  8
E56LXLIFT
 62
3
 10
5201.008
 20
-9145.127
 30
-333.000
 70
    32
  0
VERTEX
  8
E56LXLIFT
 62
3
 10
5190.161
 20
-9118.819
 30
-333.000
 70
    32
  0
VERTEX
  8
E56LXLIFT
 62
3
 10
5182.604
 20
-9107.818
 30
-333.000
 70
    32
  0
VERTEX
  8
E56LXLIFT
 62
3
 10
5179.192
 20
-9100.554
 30
-333.000
 70
    32
  0
VERTEX
  8
E56LXLIFT
 62
3
 10
5177.881
 20
-9085.462
 30
-333.000
 70
    32
  0
VERTEX
  8
E56LXLIFT
 62
3
 10
5170.069
 20
-9070.448
 30
-333.000
 70
    32
  0
VERTEX
  8
E56LXLIFT
 62
3
 10
5155.477
 20
-9047.969
 30
-333.000
 70
    32
  0
VERTEX
  8
E56LXLIFT
 62
3
 10
5148.432
 20
-9040.583
 30
-333.000
 70
    32
  0
VERTEX
  8
E56LXLIFT
 62
3
 10
5143.189
 20
-9026.012
 30
-333.000
 70
    32
  0
VERTEX
  8
E56LXLIFT
 62
3
 10
5155.373
 20
-9020.736
 30
-333.000
 70
    32
  0
VERTEX
  8
E56LXLIFT
 62
3
 10
5161.424
 20
-9021.084
 30
-333.000
 70
    32
  0
VERTEX
  8
E56LXLIFT
 62
3
 10
5165.349
 20
-9033.791
 30
-333.000
 70
    32
  0
VERTEX
  8
E56LXLIFT
 62
3
 10
5172.507
 20
-9039.054
 30
-333.000
 70
    32
  0
VERTEX
  8
E56LXLIFT
 62
3
 10
5169.334
 20
-9048.714
 30
-333.000
 70
    32
  0
VERTEX
  8
E56LXLIFT
 62
3
 10
5175.383
 20
-9065.188
 30
-333.000
 70
    32
  0
VERTEX
  8
E56LXLIFT
 62
3
 10
5183.126
 20
-9064.126
 30
-333.000
 70
    32
  0
VERTEX
  8
E56LXLIFT
 62
3
 10
5188.936
 20
-9065.503
 30
-333.000
 70
    32
  0
VERTEX
  8
E56LXLIFT
 62
3
 10
5197.345
 20
-9083.643
 30
-333.000
 70
    32
  0
VERTEX
  8
E56LXLIFT
 62
3
 10
5204.697
 20
-9108.657
 30
-333.000
 70
    32
  0
VERTEX
  8
E56LXLIFT
 62
3
 10
5214.521
 20
-9131.387
 30
-333.000
 70
    32
  0
SEQEND
  8
E56LXLIFT
  0
POLYLINE
  8
E56LXLIFT
 62
13
 66
     1
 70
     9
  0
VERTEX
  8
E56LXLIFT
 62
13
 10
4917.576
 20
-9046.301
 30
-336.000
 70
    32
  0
VERTEX
  8
E56LXLIFT
 62
13
 10
4925.766
 20
-9057.285
 30
-336.000
 70
    32
  0
VERTEX
  8
E56LXLIFT
 62
13
 10
4930.793
 20
-9070.182
 30
-336.000
 70
    32
  0
VERTEX
  8
E56LXLIFT
 62
13
 10
4940.147
 20
-9089.051
 30
-336.000
 70
    32
  0
VERTEX
  8
E56LXLIFT
 62
13
 10
4955.007
 20
-9116.931
 30
-336.000
 70
    32
  0
VERTEX
  8
E56LXLIFT
 62
13
 10
4970.860
 20
-9148.195
 30
-336.000
 70
    32
  0
VERTEX
  8
E56LXLIFT
 62
13
 10
4987.969
 20
-9126.002
 30
-336.000
 70
    32
  0
VERTEX
  8
E56LXLIFT
 62
13
 10
5002.031
 20
-9132.515
 30
-336.000
 70
    32
  0
VERTEX
  8
E56LXLIFT
 62
13
 10
5012.718
 20
-9142.165
 30
-336.000
 70
    32
  0
VERTEX
  8
E56LXLIFT
 62
13
 10
5001.688
 20
-9149.528
 30
-336.000
 70
    32
  0
VERTEX
  8
E56LXLIFT
 62
13
 10
4993.630
 20
-9164.143
 30
-336.000
 70
    32
  0
VERTEX
  8
E56LXLIFT
 62
13
 10
4990.626
 20
-9172.824
 30
-336.000
 70
    32
  0
VERTEX
  8
E56LXLIFT
 62
13
 10
4994.844
 20
-9190.054
 30
-336.000
 70
    32
  0
VERTEX
  8
E56LXLIFT
 62
13
 10
5001.962
 20
-9199.216
 30
-336.000
 70
    32
  0
VERTEX
  8
E56LXLIFT
 62
13
 10
4987.674
 20
-9208.665
 30
-336.000
 70
    32
  0
VERTEX
  8
E56LXLIFT
 62
13
 10
4975.132
 20
-9192.586
 30
-336.000
 70
    32
  0
VERTEX
  8
E56LXLIFT
 62
13
 10
4965.375
 20
-9178.624
 30
-336.000
 70
    32
  0
VERTEX
  8
E56LXLIFT
 62
13
 10
4965.918
 20
-9166.307
 30
-336.000
 70
    32
  0
VERTEX
  8
E56LXLIFT
 62
13
 10
4956.186
 20
-9151.467
 30
-336.000
 70
    32
  0
VERTEX
  8
E56LXLIFT
 62
13
 10
4949.858
 20
-9133.685
 30
-336.000
 70
    32
  0
VERTEX
  8
E56LXLIFT
 62
13
 10
4938.578
 20
-9112.090
 30
-336.000
 70
    32
  0
VERTEX
  8
E56LXLIFT
 62
13
 10
4920.615
 20
-9080.275
 30
-336.000
 70
    32
  0
VERTEX
  8
E56LXLIFT
 62
13
 10
4906.102
 20
-9054.407
 30
-336.000
 70
    32
  0
SEQEND
  8
E56LXLIFT
  0
POLYLINE
  8
E56LXLIFT
 62
7
 66
     1
 70
     9
  0
VERTEX
  8
E56LXLIFT
 62
7
 10
4800.054
 20
-9281.665
 30
-333.000
 70
    32
  0
VERTEX
  8
E56LXLIFT
 62
7
 10
4825.124
 20
-9277.283
 30
-333.000
 70
    32
  0
VERTEX
  8
E56LXLIFT
 62
7
 10
4844.769
 20
-9275.874
 30
-333.000
 70
    32
  0
VERTEX
  8
E56LXLIFT
 62
7
 10
4855.974
 20
-9280.321
 30
-333.000
 70
    32
  0
VERTEX
  8
E56LXLIFT
 62
7
 10
4855.646
 20
-9294.312
 30
-333.000
 70
    32
  0
VERTEX
  8
E56LXLIFT
 62
7
 10
4861.362
 20
-9300.272
 30
-333.000
 70
    32
  0
VERTEX
  8
E56LXLIFT
 62
7
 10
4863.518
 20
-9311.541
 30
-333.000
 70
    32
  0
VERTEX
  8
E56LXLIFT
 62
7
 10
4868.703
 20
-9319.488
 30
-333.000
 70
    32
  0
VERTEX
  8
E56LXLIFT
 62
7
 10
4862.981
 20
-9338.474
 30
-333.000
 70
    32
  0
VERTEX
  8
E56LXLIFT
 62
7
 10
4851.490
 20
-9344.120
 30
-333.000
 70
    32
  0
VERTEX
  8
E56LXLIFT
 62
7
 10
4841.320
 20
-9352.703
 30
-333.000
 70
    32
  0
VERTEX
  8
E56LXLIFT
 62
7
 10
4833.621
 20
-9355.347
 30
-333.000
 70
    32
  0
VERTEX
  8
E56LXLIFT
 62
7
 10
4816.676
 20
-9345.819
 30
-333.000
 70
    32
  0
VERTEX
  8
E56LXLIFT
 62
7
 10
4807.412
 20
-9341.076
 30
-333.000
 70
    32
  0
VERTEX
  8
E56LXLIFT
 62
7
 10
4799.973
 20
-9340.741
 30
-333.000
 70
    32
  0
VERTEX
  8
E56LXLIFT
 62
7
 10
4783.646
 20
-9334.216
 30
-333.000
 70
    32
  0
VERTEX
  8
E56LXLIFT
 62
7
 10
4778.154
 20
-9318.531
 30
-333.000
 70
    32
  0
VERTEX
  8
E56LXLIFT
 62
7
 10
4775.864
 20
-9311.333
 30
-333.000
 70
    32
  0
VERTEX
  8
E56LXLIFT
 62
7
 10
4792.273
 20
-9290.280
 30
-333.000
 70
    32
  0
SEQEND
  8
E56LXLIFT
  0
POLYLINE
  8
E56LXLIFT
 62
3
 66
     1
 70
     9
  0
VERTEX
  8
E56LXLIFT
 62
3
 10
5149.125
 20
-9023.389
 30
-323.000
 70
    32
  0
VERTEX
  8
E56LXLIFT
 62
3
 10
5157.407
 20
-9025.210
 30
-323.000
 70
    32
  0
VERTEX
  8
E56LXLIFT
 62
3
 10
5160.918
 20
-9034.844
 30
-323.000
 70
    32
  0
VERTEX
  8
E56LXLIFT
 62
3
 10
5169.019
 20
-9042.561
 30
-323.000
 70
    32
  0
VERTEX
  8
E56LXLIFT
 62
3
 10
5171.198
 20
-9045.113
 30
-323.000
 70
    32
  0
VERTEX
  8
E56LXLIFT
 62
3
 10
5173.760
 20
-9057.937
 30
-323.000
 70
    32
  0
VERTEX
  8
E56LXLIFT
 62
3
 10
5177.358
 20
-9065.442
 30
-323.000
 70
    32
  0
VERTEX
  8
E56LXLIFT
 62
3
 10
5185.589
 20
-9072.738
 30
-323.000
 70
    32
  0
VERTEX
  8
E56LXLIFT
 62
3
 10
5188.779
 20
-9085.976
 30
-323.000
 70
    32
  0
VERTEX
  8
E56LXLIFT
 62
3
 10
5193.633
 20
-9098.660
 30
-323.000
 70
    32
  0
VERTEX
  8
E56LXLIFT
 62
3
 10
5195.247
 20
-9109.127
 30
-323.000
 70
    32
  0
VERTEX
  8
E56LXLIFT
 62
3
 10
5202.030
 20
-9121.172
 30
-323.000
 70
    32
  0
VERTEX
  8
E56LXLIFT
 62
3
 10
5205.460
 20
-9133.693
 30
-323.000
 70
    32
  0
VERTEX
  8
E56LXLIFT
 62
3
 10
5204.852
 20
-9139.899
 30
-323.000
 70
    32
  0
VERTEX
  8
E56LXLIFT
 62
3
 10
5196.429
 20
-9142.531
 30
-323.000
 70
    32
  0
VERTEX
  8
E56LXLIFT
 62
3
 10
5189.613
 20
-9137.035
 30
-323.000
 70
    32
  0
VERTEX
  8
E56LXLIFT
 62
3
 10
5183.464
 20
-9124.965
 30
-323.000
 70
    32
  0
VERTEX
  8
E56LXLIFT
 62
3
 10
5177.392
 20
-9106.856
 30
-323.000
 70
    32
  0
VERTEX
  8
E56LXLIFT
 62
3
 10
5172.642
 20
-9094.315
 30
-323.000
 70
    32
  0
VERTEX
  8
E56LXLIFT
 62
3
 10
5164.795
 20
-9085.000
 30
-323.000
 70
    32
  0
VERTEX
  8
E56LXLIFT
 62
3
 10
5162.028
 20
-9069.497
 30
-323.000
 70
    32
  0
VERTEX
  8
E56LXLIFT
 62
3
 10
5153.887
 20
-9055.282
 30
-323.000
 70
    32
  0
VERTEX
  8
E56LXLIFT
 62
3
 10
5146.231
 20
-9042.783
 30
-323.000
 70
    32
  0
VERTEX
  8
E56LXLIFT
 62
3
 10
5138.993
 20
-9032.808
 30
-323.000
 70
    32
  0
VERTEX
  8
E56LXLIFT
 62
3
 10
5140.983
 20
-9029.406
 30
-323.000
 70
    32
  0
SEQEND
  8
E56LXLIFT
  0
POLYLINE
  8
E56LXLIFT
 62
13
 66
     1
 70
     9
  0
VERTEX
  8
E56LXLIFT
 62
13
 10
5012.309
 20
-9138.664
 30
-326.000
 70
    32
  0
VERTEX
  8
E56LXLIFT
 62
13
 10
5000.027
 20
-9149.317
 30
-326.000
 70
    32
  0
VERTEX
  8
E56LXLIFT
 62
13
 10
4987.037
 20
-9155.698
 30
-326.000
 70
    32
  0
VERTEX
  8
E56LXLIFT
 62
13
 10
4981.634
 20
-9161.142
 30
-326.000
 70
    32
  0
VERTEX
  8
E56LXLIFT
 62
13
 10
4988.821
 20
-9176.592
 30
-326.000
 70
    32
  0
VERTEX
  8
E56LXLIFT
 62
13
 10
4998.022
 20
-9197.215
 30
-326.000
 70
    32
  0
VERTEX
  8
E56LXLIFT
 62
13
 10
4992.185
 20
-9203.409
 30
-326.000
 70
    32
  0
VERTEX
  8
E56LXLIFT
 62
13
 10
4973.019
 20
-9180.446
 30
-326.000
 70
    32
  0
VERTEX
  8
E56LXLIFT
 62
13
 10
4964.928
 20
-9168.697
 30
-326.000
 70
    32
  0
VERTEX
  8
E56LXLIFT
 62
13
 10
4955.993
 20
-9153.537
 30
-326.000
 70
    32
  0
VERTEX
  8
E56LXLIFT
 62
13
 10
4946.084
 20
-9128.641
 30
-326.000
 70
    32
  0
VERTEX
  8
E56LXLIFT
 62
13
 10
4937.210
 20
-9110.717
 30
-326.000
 70
    32
  0
VERTEX
  8
E56LXLIFT
 62
13
 10
4928.279
 20
-9097.512
 30
-326.000
 70
    32
  0
VERTEX
  8
E56LXLIFT
 62
13
 10
4921.432
 20
-9085.078
 30
-326.000
 70
    32
  0
VERTEX
  8
E56LXLIFT
 62
13
 10
4934.195
 20
-9078.535
 30
-326.000
 70
    32
  0
VERTEX
  8
E56LXLIFT
 62
13
 10
4949.351
 20
-9098.970
 30
-326.000
 70
    32
  0
VERTEX
  8
E56LXLIFT
 62
13
 10
4957.500
 20
-9117.094
 30
-326.000
 70
    32
  0
VERTEX
  8
E56LXLIFT
 62
13
 10
4964.917
 20
-9135.858
 30
-326.000
 70
    32
  0
VERTEX
  8
E56LXLIFT
 62
13
 10
4970.950
 20
-9140.725
 30
-326.000
 70
    32
  0
VERTEX
  8
E56LXLIFT
 62
13
 10
4981.118
 20
-9127.907
 30
-326.000
 70
    32
  0
VERTEX
  8
E56LXLIFT
 62
13
 10
4989.461
 20
-9121.418
 30
-326.000
 70
    32
  0
VERTEX
  8
E56LXLIFT
 62
13
 10
5003.003
 20
-9131.386
 30
-326.000
 70
    32
  0
SEQEND
  8
E56LXLIFT
  0
POLYLINE
  8
E56LXLIFT
 62
7
 66
     1
 70
     9
  0
VERTEX
  8
E56LXLIFT
 62
7
 10
4767.872
 20
-9313.222
 30
-326.000
 70
    32
  0
VERTEX
  8
E56LXLIFT
 62
7
 10
4774.968
 20
-9323.299
 30
-326.000
 70
    32
  0
VERTEX
  8
E56LXLIFT
 62
7
 10
4784.904
 20
-9334.144
 30
-326.000
 70
    32
  0
VERTEX
  8
E56LXLIFT
 62
7
 10
4793.864
 20
-9337.648
 30
-326.000
 70
    32
  0
VERTEX
  8
E56LXLIFT
 62
7
 10
4806.603
 20
-9336.017
 30
-326.000
 70
    32
  0
VERTEX
  8
E56LXLIFT
 62
7
 10
4813.333
 20
-9336.898
 30
-326.000
 70
    32
  0
VERTEX
  8
E56LXLIFT
 62
7
 10
4826.161
 20
-9343.034
 30
-326.000
 70
    32
  0
VERTEX
  8
E56LXLIFT
 62
7
 10
4834.139
 20
-9345.185
 30
-326.000
 70
    32
  0
VERTEX
  8
E56LXLIFT
 62
7
 10
4843.651
 20
-9340.457
 30
-326.000
 70
    32
  0
VERTEX
  8
E56LXLIFT
 62
7
 10
4848.854
 20
-9328.741
 30
-326.000
 70
    32
  0
VERTEX
  8
E56LXLIFT
 62
7
 10
4850.244
 20
-9317.617
 30
-326.000
 70
    32
  0
VERTEX
  8
E56LXLIFT
 62
7
 10
4847.378
 20
-9303.926
 30
-326.000
 70
    32
  0
VERTEX
  8
E56LXLIFT
 62
7
 10
4844.786
 20
-9288.513
 30
-326.000
 70
    32
  0
VERTEX
  8
E56LXLIFT
 62
7
 10
4840.752
 20
-9277.409
 30
-326.000
 70
    32
  0
VERTEX
  8
E56LXLIFT
 62
7
 10
4830.008
 20
-9277.592
 30
-326.000
 70
    32
  0
VERTEX
  8
E56LXLIFT
 62
7
 10
4802.100
 20
-9284.249
 30
-326.000
 70
    32
  0
VERTEX
  8
E56LXLIFT
 62
7
 10
4788.170
 20
-9286.636
 30
-326.000
 70
    32
  0
VERTEX
  8
E56LXLIFT
 62
7
 10
4780.943
 20
-9290.466
 30
-326.000
 70
    32
  0
VERTEX
  8
E56LXLIFT
 62
7
 10
4771.534
 20
-9295.337
 30
-326.000
 70
    32
  0
SEQEND
  8
E56LXLIFT
  0
POLYLINE
  8
E56LXLIFT
 62
3
 66
     1
 70
     9
  0
VERTEX
  8
E56LXLIFT
 62
3
 10
5131.974
 20
-9029.133
 30
-313.000
 70
    32
  0
VERTEX
  8
E56LXLIFT
 62
3
 10
5144.264
 20
-9019.863
 30
-313.000
 70
    32
  0
VERTEX
  8
E56LXLIFT
 62
3
 10
5154.607
 20
-9015.567
 30
-313.000
 70
    32
  0
VERTEX
  8
E56LXLIFT
 62
3
 10
5163.184
 20
-9018.607
 30
-313.000
 70
    32
  0
VERTEX
  8
E56LXLIFT
 62
3
 10
5175.438
 20
-9030.377
 30
-313.000
 70
    32
  0
VERTEX
  8
E56LXLIFT
 62
3
 10
5183.909
 20
-9042.159
 30
-313.000
 70
    32
  0
VERTEX
  8
E56LXLIFT
 62
3
 10
5186.024
 20
-9051.578
 30
-313.000
 70
    32
  0
VERTEX
  8
E56LXLIFT
 62
3
 10
5184.757
 20
-9068.195
 30
-313.000
 70
    32
  0
VERTEX
  8
E56LXLIFT
 62
3
 10
5180.499
 20
-9079.598
 30
-313.000
 70
    32
  0
VERTEX
  8
E56LXLIFT
 62
3
 10
5187.773
 20
-9097.548
 30
-313.000
 70
    32
  0
VERTEX
  8
E56LXLIFT
 62
3
 10
5189.957
 20
-9115.800
 30
-313.000
 70
    32
  0
VERTEX
  8
E56LXLIFT
 62
3
 10
5187.960
 20
-9131.101
 30
-313.000
 70
    32
  0
VERTEX
  8
E56LXLIFT
 62
3
 10
5185.464
 20
-9137.120
 30
-313.000
 70
    32
  0
VERTEX
  8
E56LXLIFT
 62
3
 10
5185.625
 20
-9152.710
 30
-313.000
 70
    32
  0
VERTEX
  8
E56LXLIFT
 62
3
 10
5176.694
 20
-9154.149
 30
-313.000
 70
    32
  0
VERTEX
  8
E56LXLIFT
 62
3
 10
5169.025
 20
-9147.098
 30
-313.000
 70
    32
  0
VERTEX
  8
E56LXLIFT
 62
3
 10
5167.816
 20
-9136.378
 30
-313.000
 70
    32
  0
VERTEX
  8
E56LXLIFT
 62
3
 10
5167.298
 20
-9121.044
 30
-313.000
 70
    32
  0
VERTEX
  8
E56LXLIFT
 62
3
 10
5166.678
 20
-9102.858
 30
-313.000
 70
    32
  0
VERTEX
  8
E56LXLIFT
 62
3
 10
5167.344
 20
-9083.749
 30
-313.000
 70
    32
  0
VERTEX
  8
E56LXLIFT
 62
3
 10
5165.396
 20
-9068.685
 30
-313.000
 70
    32
  0
VERTEX
  8
E56LXLIFT
 62
3
 10
5155.527
 20
-9054.659
 30
-313.000
 70
    32
  0
VERTEX
  8
E56LXLIFT
 62
3
 10
5141.018
 20
-9037.795
 30
-313.000
 70
    32
  0
SEQEND
  8
E56LXLIFT
  0
POLYLINE
  8
E56LXLIFT
 62
13
 66
     1
 70
     9
  0
VERTEX
  8
E56LXLIFT
 62
13
 10
4919.281
 20
-9073.637
 30
-316.000
 70
    32
  0
VERTEX
  8
E56LXLIFT
 62
13
 10
4927.829
 20
-9067.599
 30
-316.000
 70
    32
  0
VERTEX
  8
E56LXLIFT
 62
13
 10
4931.611
 20
-9060.655
 30
-316.000
 70
    32
  0
VERTEX
  8
E56LXLIFT
 62
13
 10
4932.911
 20
-9054.629
 30
-316.000
 70
    32
  0
VERTEX
  8
E56LXLIFT
 62
13
 10
4938.561
 20
-9053.600
 30
-316.000
 70
    32
  0
VERTEX
  8
E56LXLIFT
 62
13
 10
4944.714
 20
-9066.074
 30
-316.000
 70
    32
  0
VERTEX
  8
E56LXLIFT
 62
13
 10
4952.022
 20
-9078.799
 30
-316.000
 70
    32
  0
VERTEX
  8
E56LXLIFT
 62
13
 10
4956.212
 20
-9084.777
 30
-316.000
 70
    32
  0
VERTEX
  8
E56LXLIFT
 62
13
 10
4958.953
 20
-9101.545
 30
-316.000
 70
    32
  0
VERTEX
  8
E56LXLIFT
 62
13
 10
4970.382
 20
-9140.338
 30
-316.000
 70
    32
  0
VERTEX
  8
E56LXLIFT
 62
13
 10
4985.134
 20
-9133.739
 30
-316.000
 70
    32
  0
VERTEX
  8
E56LXLIFT
 62
13
 10
4999.484
 20
-9132.304
 30
-316.000
 70
    32
  0
VERTEX
  8
E56LXLIFT
 62
13
 10
5006.597
 20
-9138.129
 30
-316.000
 70
    32
  0
VERTEX
  8
E56LXLIFT
 62
13
 10
5006.674
 20
-9146.523
 30
-316.000
 70
    32
  0
VERTEX
  8
E56LXLIFT
 62
13
 10
4997.184
 20
-9152.155
 30
-316.000
 70
    32
  0
VERTEX
  8
E56LXLIFT
 62
13
 10
4989.461
 20
-9157.383
 30
-316.000
 70
    32
  0
VERTEX
  8
E56LXLIFT
 62
13
 10
4981.310
 20
-9162.919
 30
-316.000
 70
    32
  0
VERTEX
  8
E56LXLIFT
 62
13
 10
4984.749
 20
-9177.343
 30
-316.000
 70
    32
  0
VERTEX
  8
E56LXLIFT
 62
13
 10
4990.416
 20
-9191.250
 30
-316.000
 70
    32
  0
VERTEX
  8
E56LXLIFT
 62
13
 10
4995.686
 20
-9199.484
 30
-316.000
 70
    32
  0
VERTEX
  8
E56LXLIFT
 62
13
 10
4987.953
 20
-9198.220
 30
-316.000
 70
    32
  0
VERTEX
  8
E56LXLIFT
 62
13
 10
4977.749
 20
-9191.259
 30
-316.000
 70
    32
  0
VERTEX
  8
E56LXLIFT
 62
13
 10
4968.803
 20
-9181.227
 30
-316.000
 70
    32
  0
VERTEX
  8
E56LXLIFT
 62
13
 10
4962.011
 20
-9167.263
 30
-316.000
 70
    32
  0
VERTEX
  8
E56LXLIFT
 62
13
 10
4958.815
 20
-9148.656
 30
-316.000
 70
    32
  0
VERTEX
  8
E56LXLIFT
 62
13
 10
4954.335
 20
-9131.729
 30
-316.000
 70
    32
  0
VERTEX
  8
E56LXLIFT
 62
13
 10
4950.701
 20
-9117.336
 30
-316.000
 70
    32
  0
VERTEX
  8
E56LXLIFT
 62
13
 10
4947.854
 20
-9105.843
 30
-316.000
 70
    32
  0
VERTEX
  8
E56LXLIFT
 62
13
 10
4943.430
 20
-9100.142
 30
-316.000
 70
    32
  0
VERTEX
  8
E56LXLIFT
 62
13
 10
4927.296
 20
-9083.580
 30
-316.000
 70
    32
  0
SEQEND
  8
E56LXLIFT
  0
POLYLINE
  8
E56LXLIFT
 62
7
 66
     1
 70
     9
  0
VERTEX
  8
E56LXLIFT
 62
7
 10
4821.220
 20
-9348.976
 30
-314.000
 70
    32
  0
VERTEX
  8
E56LXLIFT
 62
7
 10
4835.006
 20
-9353.686
 30
-314.000
 70
    32
  0
VERTEX
  8
E56LXLIFT
 62
7
 10
4841.641
 20
-9343.933
 30
-314.000
 70
    32
  0
VERTEX
  8
E56LXLIFT
 62
7
 10
4848.466
 20
-9322.994
 30
-314.000
 70
    32
  0
VERTEX
  8
E56LXLIFT
 62
7
 10
4849.356
 20
-9310.222
 30
-314.000
 70
    32
  0
VERTEX
  8
E56LXLIFT
 62
7
 10
4838.429
 20
-9294.574
 30
-314.000
 70
    32
  0
VERTEX
  8
E56LXLIFT
 62
7
 10
4831.334
 20
-9274.762
 30
-314.000
 70
    32
  0
VERTEX
  8
E56LXLIFT
 62
7
 10
4824.528
 20
-9269.365
 30
-314.000
 70
    32
  0
VERTEX
  8
E56LXLIFT
 62
7
 10
4809.941
 20
-9273.030
 30
-314.000
 70
    32
  0
VERTEX
  8
E56LXLIFT
 62
7
 10
4788.438
 20
-9281.992
 30
-314.000
 70
    32
  0
VERTEX
  8
E56LXLIFT
 62
7
 10
4770.696
 20
-9293.774
 30
-314.000
 70
    32
  0
VERTEX
  8
E56LXLIFT
 62
7
 10
4762.948
 20
-9303.786
 30
-314.000
 70
    32
  0
VERTEX
  8
E56LXLIFT
 62
7
 10
4763.927
 20
-9312.831
 30
-314.000
 70
    32
  0
VERTEX
  8
E56LXLIFT
 62
7
 10
4777.712
 20
-9327.182
 30
-314.000
 70
    32
  0
VERTEX
  8
E56LXLIFT
 62
7
 10
4797.290
 20
-9336.936
 30
-314.000
 70
    32
  0
VERTEX
  8
E56LXLIFT
 62
7
 10
4815.734
 20
-9337.430
 30
-314.000
 70
    32
  0
SEQEND
  8
E56LXLIFT
  0
POLYLINE
  8
E56LXLIFT
 62
3
 66
     1
 70
     9
  0
VERTEX
  8
E56LXLIFT
 62
3
 10
5142.201
 20
-9043.947
 30
-302.000
 70
    32
  0
VERTEX
  8
E56LXLIFT
 62
3
 10
5132.515
 20
-9043.132
 30
-302.000
 70
    32
  0
VERTEX
  8
E56LXLIFT
 62
3
 10
5123.163
 20
-9042.179
 30
-302.000
 70
    32
  0
VERTEX
  8
E56LXLIFT
 62
3
 10
5124.828
 20
-9034.380
 30
-302.000
 70
    32
  0
VERTEX
  8
E56LXLIFT
 62
3
 10
5130.377
 20
-9027.096
 30
-302.000
 70
    32
  0
VERTEX
  8
E56LXLIFT
 62
3
 10
5144.984
 20
-9025.689
 30
-302.000
 70
    32
  0
VERTEX
  8
E56LXLIFT
 62
3
 10
5155.587
 20
-9023.308
 30
-302.000
 70
    32
  0
VERTEX
  8
E56LXLIFT
 62
3
 10
5159.486
 20
-9024.141
 30
-302.000
 70
    32
  0
VERTEX
  8
E56LXLIFT
 62
3
 10
5165.819
 20
-9035.646
 30
-302.000
 70
    32
  0
VERTEX
  8
E56LXLIFT
 62
3
 10
5172.856
 20
-9047.068
 30
-302.000
 70
    32
  0
VERTEX
  8
E56LXLIFT
 62
3
 10
5174.473
 20
-9061.958
 30
-302.000
 70
    32
  0
VERTEX
  8
E56LXLIFT
 62
3
 10
5175.725
 20
-9075.913
 30
-302.000
 70
    32
  0
VERTEX
  8
E56LXLIFT
 62
3
 10
5177.378
 20
-9090.556
 30
-302.000
 70
    32
  0
VERTEX
  8
E56LXLIFT
 62
3
 10
5179.631
 20
-9102.020
 30
-302.000
 70
    32
  0
VERTEX
  8
E56LXLIFT
 62
3
 10
5177.003
 20
-9115.019
 30
-302.000
 70
    32
  0
VERTEX
  8
E56LXLIFT
 62
3
 10
5174.309
 20
-9124.237
 30
-302.000
 70
    32
  0
VERTEX
  8
E56LXLIFT
 62
3
 10
5167.423
 20
-9125.726
 30
-302.000
 70
    32
  0
VERTEX
  8
E56LXLIFT
 62
3
 10
5164.544
 20
-9118.884
 30
-302.000
 70
    32
  0
VERTEX
  8
E56LXLIFT
 62
3
 10
5166.809
 20
-9104.950
 30
-302.000
 70
    32
  0
VERTEX
  8
E56LXLIFT
 62
3
 10
5168.396
 20
-9089.658
 30
-302.000
 70
    32
  0
VERTEX
  8
E56LXLIFT
 62
3
 10
5162.422
 20
-9077.011
 30
-302.000
 70
    32
  0
VERTEX
  8
E56LXLIFT
 62
3
 10
5157.212
 20
-9065.987
 30
-302.000
 70
    32
  0
VERTEX
  8
E56LXLIFT
 62
3
 10
5151.101
 20
-9055.521
 30
-302.000
 70
    32
  0
SEQEND
  8
E56LXLIFT
  0
POLYLINE
  8
E56LXLIFT
 62
13
 66
     1
 70
     9
  0
VERTEX
  8
E56LXLIFT
 62
13
 10
5012.841
 20
-9186.812
 30
-306.000
 70
    32
  0
VERTEX
  8
E56LXLIFT
 62
13
 10
5011.047
 20
-9178.183
 30
-306.000
 70
    32
  0
VERTEX
  8
E56LXLIFT
 62
13
 10
5007.071
 20
-9172.373
 30
-306.000
 70
    32
  0
VERTEX
  8
E56LXLIFT
 62
13
 10
5005.305
 20
-9164.817
 30
-306.000
 70
    32
  0
VERTEX
  8
E56LXLIFT
 62
13
 10
4998.967
 20
-9154.190
 30
-306.000
 70
    32
  0
VERTEX
  8
E56LXLIFT
 62
13
 10
5002.527
 20
-9147.176
 30
-306.000
 70
    32
  0
VERTEX
  8
E56LXLIFT
 62
13
 10
5003.600
 20
-9141.238
 30
-306.000
 70
    32
  0
VERTEX
  8
E56LXLIFT
 62
13
 10
4999.238
 20
-9135.496
 30
-306.000
 70
    32
  0
VERTEX
  8
E56LXLIFT
 62
13
 10
4986.356
 20
-9139.675
 30
-306.000
 70
    32
  0
VERTEX
  8
E56LXLIFT
 62
13
 10
4977.266
 20
-9144.984
 30
-306.000
 70
    32
  0
VERTEX
  8
E56LXLIFT
 62
13
 10
4969.464
 20
-9140.804
 30
-306.000
 70
    32
  0
VERTEX
  8
E56LXLIFT
 62
13
 10
4962.550
 20
-9132.355
 30
-306.000
 70
    32
  0
VERTEX
  8
E56LXLIFT
 62
13
 10
4955.231
 20
-9109.323
 30
-306.000
 70
    32
  0
VERTEX
  8
E56LXLIFT
 62
13
 10
4950.793
 20
-9089.738
 30
-306.000
 70
    32
  0
VERTEX
  8
E56LXLIFT
 62
13
 10
4939.913
 20
-9065.296
 30
-306.000
 70
    32
  0
VERTEX
  8
E56LXLIFT
 62
13
 10
4929.738
 20
-9043.284
 30
-306.000
 70
    32
  0
VERTEX
  8
E56LXLIFT
 62
13
 10
4915.864
 20
-9042.726
 30
-306.000
 70
    32
  0
VERTEX
  8
E56LXLIFT
 62
13
 10
4904.280
 20
-9053.385
 30
-306.000
 70
    32
  0
VERTEX
  8
E56LXLIFT
 62
13
 10
4900.505
 20
-9063.951
 30
-306.000
 70
    32
  0
VERTEX
  8
E56LXLIFT
 62
13
 10
4917.930
 20
-9073.588
 30
-306.000
 70
    32
  0
VERTEX
  8
E56LXLIFT
 62
13
 10
4931.424
 20
-9087.670
 30
-306.000
 70
    32
  0
VERTEX
  8
E56LXLIFT
 62
13
 10
4940.902
 20
-9105.491
 30
-306.000
 70
    32
  0
VERTEX
  8
E56LXLIFT
 62
13
 10
4950.317
 20
-9133.865
 30
-306.000
 70
    32
  0
VERTEX
  8
E56LXLIFT
 62
13
 10
4956.529
 20
-9156.732
 30
-306.000
 70
    32
  0
VERTEX
  8
E56LXLIFT
 62
13
 10
4963.989
 20
-9179.659
 30
-306.000
 70
    32
  0
VERTEX
  8
E56LXLIFT
 62
13
 10
4980.950
 20
-9199.161
 30
-306.000
 70
    32
  0
VERTEX
  8
E56LXLIFT
 62
13
 10
4987.113
 20
-9203.788
 30
-306.000
 70
    32
  0
SEQEND
  8
E56LXLIFT
  0
POLYLINE
  8
E56LXLIFT
 62
7
 66
     1
 70
     9
  0
VERTEX
  8
E56LXLIFT
 62
7
 10
4755.482
 20
-9322.488
 30
-308.000
 70
    32
  0
VERTEX
  8
E56LXLIFT
 62
7
 10
4767.288
 20
-9327.642
 30
-308.000
 70
    32
  0
VERTEX
  8
E56LXLIFT
 62
7
 10
4775.082
 20
-9333.141
 30
-308.000
 70
    32
  0
VERTEX
  8
E56LXLIFT
 62
7
 10
4777.500
 20
-9346.453
 30
-308.000
 70
    32
  0
VERTEX
  8
E56LXLIFT
 62
7
 10
4776.620
 20
-9352.357
 30
-308.000
 70
    32
  0
VERTEX
  8
E56LXLIFT
 62
7
 10
4771.369
 20
-9356.793
 30
-308.000
 70
    32
  0
VERTEX
  8
E56LXLIFT
 62
7
 10
4771.170
 20
-9363.616
 30
-308.000
 70
    32
  0
VERTEX
  8
E56LXLIFT
 62
7
 10
4777.503
 20
-9369.212
 30
-308.000
 70
    32
  0
VERTEX
  8
E56LXLIFT
 62
7
 10
4784.507
 20
-9371.576
 30
-308.000
 70
    32
  0
VERTEX
  8
E56LXLIFT
 62
7
 10
4794.821
 20
-9370.283
 30
-308.000
 70
    32
  0
VERTEX
  8
E56LXLIFT
 62
7
 10
4800.179
 20
-9368.504
 30
-308.000
 70
    32
  0
VERTEX
  8
E56LXLIFT
 62
7
 10
4804.964
 20
-9353.688
 30
-308.000
 70
    32
  0
VERTEX
  8
E56LXLIFT
 62
7
 10
4810.343
 20
-9348.391
 30
-308.000
 70
    32
  0
VERTEX
  8
E56LXLIFT
 62
7
 10
4821.589
 20
-9344.220
 30
-308.000
 70
    32
  0
VERTEX
  8
E56LXLIFT
 62
7
 10
4831.823
 20
-9335.875
 30
-308.000
 70
    32
  0
VERTEX
  8
E56LXLIFT
 62
7
 10
4837.278
 20
-9326.691
 30
-308.000
 70
    32
  0
VERTEX
  8
E56LXLIFT
 62
7
 10
4839.875
 20
-9316.013
 30
-308.000
 70
    32
  0
VERTEX
  8
E56LXLIFT
 62
7
 10
4833.471
 20
-9301.605
 30
-308.000
 70
    32
  0
VERTEX
  8
E56LXLIFT
 62
7
 10
4829.751
 20
-9288.602
 30
-308.000
 70
    32
  0
VERTEX
  8
E56LXLIFT
 62
7
 10
4826.147
 20
-9276.498
 30
-308.000
 70
    32
  0
VERTEX
  8
E56LXLIFT
 62
7
 10
4813.729
 20
-9273.767
 30
-308.000
 70
    32
  0
VERTEX
  8
E56LXLIFT
 62
7
 10
4801.805
 20
-9279.535
 30
-308.000
 70
    32
  0
VERTEX
  8
E56LXLIFT
 62
7
 10
4786.575
 20
-9285.124
 30
-308.000
 70
    32
  0
VERTEX
  8
E56LXLIFT
 62
7
 10
4781.010
 20
-9292.091
 30
-308.000
 70
    32
  0
VERTEX
  8
E56LXLIFT
 62
7
 10
4769.107
 20
-9294.341
 30
-308.000
 70
    32
  0
VERTEX
  8
E56LXLIFT
 62
7
 10
4758.598
 20
-9298.622
 30
-308.000
 70
    32
  0
VERTEX
  8
E56LXLIFT
 62
7
 10
4757.606
 20
-9308.659
 30
-308.000
 70
    32
  0
SEQEND
  8
E56LXLIFT
  0
POLYLINE
  8
E56LXLIFT
 62
3
 66
     1
 70
     9
  0
VERTEX
  8
E56LXLIFT
 62
3
 10
5107.821
 20
-9024.797
 30
-291.000
 70
    32
  0
VERTEX
  8
E56LXLIFT
 62
3
 10
5113.535
 20
-9035.885
 30
-291.000
 70
    32
  0
VERTEX
  8
E56LXLIFT
 62
3
 10
5135.310
 20
-9049.513
 30
-291.000
 70
    32
  0
VERTEX
  8
E56LXLIFT
 62
3
 10
5151.010
 20
-9058.179
 30
-291.000
 70
    32
  0
VERTEX
  8
E56LXLIFT
 62
3
 10
5168.144
 20
-9078.629
 30
-291.000
 70
    32
  0
VERTEX
  8
E56LXLIFT
 62
3
 10
5180.242
 20
-9090.436
 30
-291.000
 70
    32
  0
VERTEX
  8
E56LXLIFT
 62
3
 10
5195.102
 20
-9096.884
 30
-291.000
 70
    32
  0
VERTEX
  8
E56LXLIFT
 62
3
 10
5199.971
 20
-9097.610
 30
-291.000
 70
    32
  0
VERTEX
  8
E56LXLIFT
 62
3
 10
5193.466
 20
-9083.617
 30
-291.000
 70
    32
  0
VERTEX
  8
E56LXLIFT
 62
3
 10
5186.956
 20
-9070.822
 30
-291.000
 70
    32
  0
VERTEX
  8
E56LXLIFT
 62
3
 10
5180.130
 20
-9056.083
 30
-291.000
 70
    32
  0
VERTEX
  8
E56LXLIFT
 62
3
 10
5174.695
 20
-9043.273
 30
-291.000
 70
    32
  0
VERTEX
  8
E56LXLIFT
 62
3
 10
5169.552
 20
-9033.729
 30
-291.000
 70
    32
  0
VERTEX
  8
E56LXLIFT
 62
3
 10
5158.192
 20
-9026.713
 30
-291.000
 70
    32
  0
VERTEX
  8
E56LXLIFT
 62
3
 10
5148.116
 20
-9018.011
 30
-291.000
 70
    32
  0
VERTEX
  8
E56LXLIFT
 62
3
 10
5136.826
 20
-9012.899
 30
-291.000
 70
    32
  0
VERTEX
  8
E56LXLIFT
 62
3
 10
5126.413
 20
-9009.002
 30
-291.000
 70
    32
  0
SEQEND
  8
E56LXLIFT
  0
POLYLINE
  8
E56LXLIFT
 62
13
 66
     1
 70
     9
  0
VERTEX
  8
E56LXLIFT
 62
13
 10
5010.982
 20
-9147.198
 30
-295.000
 70
    32
  0
VERTEX
  8
E56LXLIFT
 62
13
 10
4999.994
 20
-9156.967
 30
-295.000
 70
    32
  0
VERTEX
  8
E56LXLIFT
 62
13
 10
4999.819
 20
-9168.173
 30
-295.000
 70
    32
  0
VERTEX
  8
E56LXLIFT
 62
13
 10
5001.419
 20
-9187.115
 30
-295.000
 70
    32
  0
VERTEX
  8
E56LXLIFT
 62
13
 10
4999.891
 20
-9193.431
 30
-295.000
 70
    32
  0
VERTEX
  8
E56LXLIFT
 62
13
 10
4983.382
 20
-9205.335
 30
-295.000
 70
    32
  0
VERTEX
  8
E56LXLIFT
 62
13
 10
4982.301
 20
-9197.207
 30
-295.000
 70
    32
  0
VERTEX
  8
E56LXLIFT
 62
13
 10
4971.396
 20
-9186.603
 30
-295.000
 70
    32
  0
VERTEX
  8
E56LXLIFT
 62
13
 10
4961.731
 20
-9169.132
 30
-295.000
 70
    32
  0
VERTEX
  8
E56LXLIFT
 62
13
 10
4952.377
 20
-9150.133
 30
-295.000
 70
    32
  0
VERTEX
  8
E56LXLIFT
 62
13
 10
4949.671
 20
-9124.385
 30
-295.000
 70
    32
  0
VERTEX
  8
E56LXLIFT
 62
13
 10
4942.055
 20
-9109.455
 30
-295.000
 70
    32
  0
VERTEX
  8
E56LXLIFT
 62
13
 10
4936.472
 20
-9093.276
 30
-295.000
 70
    32
  0
VERTEX
  8
E56LXLIFT
 62
13
 10
4920.960
 20
-9073.720
 30
-295.000
 70
    32
  0
VERTEX
  8
E56LXLIFT
 62
13
 10
4905.057
 20
-9056.184
 30
-295.000
 70
    32
  0
VERTEX
  8
E56LXLIFT
 62
13
 10
4896.845
 20
-9042.988
 30
-295.000
 70
    32
  0
VERTEX
  8
E56LXLIFT
 62
13
 10
4896.214
 20
-9032.471
 30
-295.000
 70
    32
  0
VERTEX
  8
E56LXLIFT
 62
13
 10
4912.739
 20
-9030.984
 30
-295.000
 70
    32
  0
VERTEX
  8
E56LXLIFT
 62
13
 10
4918.066
 20
-9028.881
 30
-295.000
 70
    32
  0
VERTEX
  8
E56LXLIFT
 62
13
 10
4929.359
 20
-9044.092
 30
-295.000
 70
    32
  0
VERTEX
  8
E56LXLIFT
 62
13
 10
4941.506
 20
-9064.554
 30
-295.000
 70
    32
  0
VERTEX
  8
E56LXLIFT
 62
13
 10
4948.131
 20
-9077.809
 30
-295.000
 70
    32
  0
VERTEX
  8
E56LXLIFT
 62
13
 10
4961.088
 20
-9087.041
 30
-295.000
 70
    32
  0
VERTEX
  8
E56LXLIFT
 62
13
 10
4971.928
 20
-9103.882
 30
-295.000
 70
    32
  0
VERTEX
  8
E56LXLIFT
 62
13
 10
4977.979
 20
-9114.835
 30
-295.000
 70
    32
  0
VERTEX
  8
E56LXLIFT
 62
13
 10
4984.317
 20
-9109.614
 30
-295.000
 70
    32
  0
VERTEX
  8
E56LXLIFT
 62
13
 10
4985.540
 20
-9092.329
 30
-295.000
 70
    32
  0
VERTEX
  8
E56LXLIFT
 62
13
 10
4984.071
 20
-9072.967
 30
-295.000
 70
    32
  0
VERTEX
  8
E56LXLIFT
 62
13
 10
4987.419
 20
-9063.601
 30
-295.000
 70
    32
  0
VERTEX
  8
E56LXLIFT
 62
13
 10
5001.210
 20
-9057.568
 30
-295.000
 70
    32
  0
VERTEX
  8
E56LXLIFT
 62
13
 10
5009.787
 20
-9070.067
 30
-295.000
 70
    32
  0
VERTEX
  8
E56LXLIFT
 62
13
 10
5008.248
 20
-9085.406
 30
-295.000
 70
    32
  0
VERTEX
  8
E56LXLIFT
 62
13
 10
5005.484
 20
-9108.690
 30
-295.000
 70
    32
  0
VERTEX
  8
E56LXLIFT
 62
13
 10
4996.850
 20
-9122.628
 30
-295.000
 70
    32
  0
VERTEX
  8
E56LXLIFT
 62
13
 10
4988.868
 20
-9130.990
 30
-295.000
 70
    32
  0
VERTEX
  8
E56LXLIFT
 62
13
 10
4996.103
 20
-9138.917
 30
-295.000
 70
    32
  0
VERTEX
  8
E56LXLIFT
 62
13
 10
5003.690
 20
-9140.399
 30
-295.000
 70
    32
  0
SEQEND
  8
E56LXLIFT
  0
POLYLINE
  8
E56LXLIFT
 62
7
 66
     1
 70
     9
  0
VERTEX
  8
E56LXLIFT
 62
7
 10
4777.547
 20
-9333.548
 30
-296.000
 70
    32
  0
VERTEX
  8
E56LXLIFT
 62
7
 10
4784.086
 20
-9339.153
 30
-296.000
 70
    32
  0
VERTEX
  8
E56LXLIFT
 62
7
 10
4797.413
 20
-9341.818
 30
-296.000
 70
    32
  0
VERTEX
  8
E56LXLIFT
 62
7
 10
4811.092
 20
-9340.753
 30
-296.000
 70
    32
  0
VERTEX
  8
E56LXLIFT
 62
7
 10
4823.785
 20
-9332.143
 30
-296.000
 70
    32
  0
VERTEX
  8
E56LXLIFT
 62
7
 10
4825.861
 20
-9322.066
 30
-296.000
 70
    32
  0
VERTEX
  8
E56LXLIFT
 62
7
 10
4822.898
 20
-9298.675
 30
-296.000
 70
    32
  0
VERTEX
  8
E56LXLIFT
 62
7
 10
4820.278
 20
-9285.248
 30
-296.000
 70
    32
  0
VERTEX
  8
E56LXLIFT
 62
7
 10
4816.360
 20
-9277.102
 30
-296.000
 70
    32
  0
VERTEX
  8
E56LXLIFT
 62
7
 10
4804.575
 20
-9275.824
 30
-296.000
 70
    32
  0
VERTEX
  8
E56LXLIFT
 62
7
 10
4790.902
 20
-9278.404
 30
-296.000
 70
    32
  0
VERTEX
  8
E56LXLIFT
 62
7
 10
4771.655
 20
-9285.004
 30
-296.000
 70
    32
  0
VERTEX
  8
E56LXLIFT
 62
7
 10
4752.161
 20
-9288.851
 30
-296.000
 70
    32
  0
VERTEX
  8
E56LXLIFT
 62
7
 10
4747.406
 20
-9295.212
 30
-296.000
 70
    32
  0
VERTEX
  8
E56LXLIFT
 62
7
 10
4745.681
 20
-9308.187
 30
-296.000
 70
    32
  0
VERTEX
  8
E56LXLIFT
 62
7
 10
4749.129
 20
-9314.173
 30
-296.000
 70
    32
  0
SEQEND
  8
E56LXLIFT
  0
POLYLINE
  8
E56LXLIFT
 62
3
 66
     1
 70
     9
  0
VERTEX
  8
E56LXLIFT
 62
3
 10
5164.725
 20
-9043.156
 30
-281.000
 70
    32
  0
VERTEX
  8
E56LXLIFT
 62
3
 10
5148.611
 20
-9032.442
 30
-281.000
 70
    32
  0
VERTEX
  8
E56LXLIFT
 62
3
 10
5133.843
 20
-9024.553
 30
-281.000
 70
    32
  0
VERTEX
  8
E56LXLIFT
 62
3
 10
5125.262
 20
-9018.494
 30
-281.000
 70
    32
  0
VERTEX
  8
E56LXLIFT
 62
3
 10
5120.981
 20
-9007.357
 30
-281.000
 70
    32
  0
VERTEX
  8
E56LXLIFT
 62
3
 10
5114.716
 20
-9012.591
 30
-281.000
 70
    32
  0
VERTEX
  8
E56LXLIFT
 62
3
 10
5115.196
 20
-9020.988
 30
-281.000
 70
    32
  0
VERTEX
  8
E56LXLIFT
 62
3
 10
5113.988
 20
-9033.713
 30
-281.000
 70
    32
  0
VERTEX
  8
E56LXLIFT
 62
3
 10
5113.439
 20
-9037.955
 30
-281.000
 70
    32
  0
VERTEX
  8
E56LXLIFT
 62
3
 10
5124.177
 20
-9044.261
 30
-281.000
 70
    32
  0
VERTEX
  8
E56LXLIFT
 62
3
 10
5129.536
 20
-9048.353
 30
-281.000
 70
    32
  0
VERTEX
  8
E56LXLIFT
 62
3
 10
5138.332
 20
-9051.186
 30
-281.000
 70
    32
  0
VERTEX
  8
E56LXLIFT
 62
3
 10
5149.077
 20
-9065.697
 30
-281.000
 70
    32
  0
VERTEX
  8
E56LXLIFT
 62
3
 10
5160.611
 20
-9080.384
 30
-281.000
 70
    32
  0
VERTEX
  8
E56LXLIFT
 62
3
 10
5173.323
 20
-9092.110
 30
-281.000
 70
    32
  0
VERTEX
  8
E56LXLIFT
 62
3
 10
5184.294
 20
-9093.754
 30
-281.000
 70
    32
  0
VERTEX
  8
E56LXLIFT
 62
3
 10
5188.194
 20
-9087.115
 30
-281.000
 70
    32
  0
VERTEX
  8
E56LXLIFT
 62
3
 10
5178.595
 20
-9067.697
 30
-281.000
 70
    32
  0
SEQEND
  8
E56LXLIFT
  0
POLYLINE
  8
E56LXLIFT
 62
13
 66
     1
 70
     9
  0
VERTEX
  8
E56LXLIFT
 62
13
 10
4967.774
 20
-9185.774
 30
-285.000
 70
    32
  0
VERTEX
  8
E56LXLIFT
 62
13
 10
4966.191
 20
-9175.903
 30
-285.000
 70
    32
  0
VERTEX
  8
E56LXLIFT
 62
13
 10
4955.090
 20
-9138.235
 30
-285.000
 70
    32
  0
VERTEX
  8
E56LXLIFT
 62
13
 10
4943.821
 20
-9107.807
 30
-285.000
 70
    32
  0
VERTEX
  8
E56LXLIFT
 62
13
 10
4927.935
 20
-9083.350
 30
-285.000
 70
    32
  0
VERTEX
  8
E56LXLIFT
 62
13
 10
4913.527
 20
-9068.625
 30
-285.000
 70
    32
  0
VERTEX
  8
E56LXLIFT
 62
13
 10
4899.535
 20
-9057.090
 30
-285.000
 70
    32
  0
VERTEX
  8
E56LXLIFT
 62
13
 10
4891.624
 20
-9033.345
 30
-285.000
 70
    32
  0
VERTEX
  8
E56LXLIFT
 62
13
 10
4891.095
 20
-9021.810
 30
-285.000
 70
    32
  0
VERTEX
  8
E56LXLIFT
 62
13
 10
4896.165
 20
-9019.222
 30
-285.000
 70
    32
  0
VERTEX
  8
E56LXLIFT
 62
13
 10
4901.187
 20
-9026.082
 30
-285.000
 70
    32
  0
VERTEX
  8
E56LXLIFT
 62
13
 10
4914.126
 20
-9024.942
 30
-285.000
 70
    32
  0
VERTEX
  8
E56LXLIFT
 62
13
 10
4931.598
 20
-9042.301
 30
-285.000
 70
    32
  0
VERTEX
  8
E56LXLIFT
 62
13
 10
4942.846
 20
-9061.142
 30
-285.000
 70
    32
  0
VERTEX
  8
E56LXLIFT
 62
13
 10
4955.777
 20
-9080.037
 30
-285.000
 70
    32
  0
VERTEX
  8
E56LXLIFT
 62
13
 10
4966.185
 20
-9097.756
 30
-285.000
 70
    32
  0
VERTEX
  8
E56LXLIFT
 62
13
 10
4978.019
 20
-9110.357
 30
-285.000
 70
    32
  0
VERTEX
  8
E56LXLIFT
 62
13
 10
4983.653
 20
-9104.719
 30
-285.000
 70
    32
  0
VERTEX
  8
E56LXLIFT
 62
13
 10
4982.975
 20
-9085.962
 30
-285.000
 70
    32
  0
VERTEX
  8
E56LXLIFT
 62
13
 10
4979.993
 20
-9074.073
 30
-285.000
 70
    32
  0
VERTEX
  8
E56LXLIFT
 62
13
 10
4971.214
 20
-9057.216
 30
-285.000
 70
    32
  0
VERTEX
  8
E56LXLIFT
 62
13
 10
4968.208
 20
-9036.369
 30
-285.000
 70
    32
  0
VERTEX
  8
E56LXLIFT
 62
13
 10
4967.769
 20
-9009.005
 30
-285.000
 70
    32
  0
VERTEX
  8
E56LXLIFT
 62
13
 10
4973.021
 20
-9000.807
 30
-285.000
 70
    32
  0
VERTEX
  8
E56LXLIFT
 62
13
 10
4986.517
 20
-9016.215
 30
-285.000
 70
    32
  0
VERTEX
  8
E56LXLIFT
 62
13
 10
4990.821
 20
-9036.310
 30
-285.000
 70
    32
  0
VERTEX
  8
E56LXLIFT
 62
13
 10
4994.579
 20
-9045.430
 30
-285.000
 70
    32
  0
VERTEX
  8
E56LXLIFT
 62
13
 10
5010.918
 20
-9043.715
 30
-285.000
 70
    32
  0
VERTEX
  8
E56LXLIFT
 62
13
 10
5011.467
 20
-9053.813
 30
-285.000
 70
    32
  0
VERTEX
  8
E56LXLIFT
 62
13
 10
5004.813
 20
-9061.746
 30
-285.000
 70
    32
  0
VERTEX
  8
E56LXLIFT
 62
13
 10
5009.248
 20
-9075.284
 30
-285.000
 70
    32
  0
VERTEX
  8
E56LXLIFT
 62
13
 10
5003.931
 20
-9093.491
 30
-285.000
 70
    32
  0
VERTEX
  8
E56LXLIFT
 62
13
 10
5007.136
 20
-9110.359
 30
-285.000
 70
    32
  0
VERTEX
  8
E56LXLIFT
 62
13
 10
4991.003
 20
-9128.008
 30
-285.000
 70
    32
  0
VERTEX
  8
E56LXLIFT
 62
13
 10
4993.732
 20
-9132.972
 30
-285.000
 70
    32
  0
VERTEX
  8
E56LXLIFT
 62
13
 10
5011.738
 20
-9144.460
 30
-285.000
 70
    32
  0
VERTEX
  8
E56LXLIFT
 62
13
 10
5013.154
 20
-9147.669
 30
-285.000
 70
    32
  0
VERTEX
  8
E56LXLIFT
 62
13
 10
4998.139
 20
-9154.960
 30
-285.000
 70
    32
  0
VERTEX
  8
E56LXLIFT
 62
13
 10
5004.424
 20
-9175.653
 30
-285.000
 70
    32
  0
VERTEX
  8
E56LXLIFT
 62
13
 10
5003.496
 20
-9188.607
 30
-285.000
 70
    32
  0
VERTEX
  8
E56LXLIFT
 62
13
 10
4987.229
 20
-9201.979
 30
-285.000
 70
    32
  0
VERTEX
  8
E56LXLIFT
 62
13
 10
4974.916
 20
-9193.566
 30
-285.000
 70
    32
  0
SEQEND
  8
E56LXLIFT
  0
POLYLINE
  8
E56LXLIFT
 62
7
 66
     1
 70
     9
  0
VERTEX
  8
E56LXLIFT
 62
7
 10
4743.620
 20
-9283.833
 30
-285.000
 70
    32
  0
VERTEX
  8
E56LXLIFT
 62
7
 10
4737.474
 20
-9278.251
 30
-285.000
 70
    32
  0
VERTEX
  8
E56LXLIFT
 62
7
 10
4733.703
 20
-9280.525
 30
-285.000
 70
    32
  0
VERTEX
  8
E56LXLIFT
 62
7
 10
4734.163
 20
-9290.798
 30
-285.000
 70
    32
  0
VERTEX
  8
E56LXLIFT
 62
7
 10
4741.963
 20
-9305.322
 30
-285.000
 70
    32
  0
VERTEX
  8
E56LXLIFT
 62
7
 10
4752.550
 20
-9319.622
 30
-285.000
 70
    32
  0
VERTEX
  8
E56LXLIFT
 62
7
 10
4755.575
 20
-9326.007
 30
-285.000
 70
    32
  0
VERTEX
  8
E56LXLIFT
 62
7
 10
4749.254
 20
-9333.800
 30
-285.000
 70
    32
  0
VERTEX
  8
E56LXLIFT
 62
7
 10
4751.283
 20
-9337.974
 30
-285.000
 70
    32
  0
VERTEX
  8
E56LXLIFT
 62
7
 10
4759.117
 20
-9338.791
 30
-285.000
 70
    32
  0
VERTEX
  8
E56LXLIFT
 62
7
 10
4769.452
 20
-9330.950
 30
-285.000
 70
    32
  0
VERTEX
  8
E56LXLIFT
 62
7
 10
4779.504
 20
-9325.073
 30
-285.000
 70
    32
  0
VERTEX
  8
E56LXLIFT
 62
7
 10
4790.286
 20
-9324.561
 30
-285.000
 70
    32
  0
VERTEX
  8
E56LXLIFT
 62
7
 10
4803.190
 20
-9322.351
 30
-285.000
 70
    32
  0
VERTEX
  8
E56LXLIFT
 62
7
 10
4809.769
 20
-9317.977
 30
-285.000
 70
    32
  0
VERTEX
  8
E56LXLIFT
 62
7
 10
4810.204
 20
-9306.706
 30
-285.000
 70
    32
  0
VERTEX
  8
E56LXLIFT
 62
7
 10
4806.739
 20
-9288.172
 30
-285.000
 70
    32
  0
VERTEX
  8
E56LXLIFT
 62
7
 10
4804.740
 20
-9274.672
 30
-285.000
 70
    32
  0
VERTEX
  8
E56LXLIFT
 62
7
 10
4796.396
 20
-9274.784
 30
-285.000
 70
    32
  0
VERTEX
  8
E56LXLIFT
 62
7
 10
4784.661
 20
-9281.045
 30
-285.000
 70
    32
  0
VERTEX
  8
E56LXLIFT
 62
7
 10
4769.022
 20
-9283.111
 30
-285.000
 70
    32
  0
SEQEND
  8
E56LXLIFT
  0
POLYLINE
  8
E56LXLIFT
 62
8
 66
     1
 70
     9
  0
VERTEX
  8
E56LXLIFT
 62
8
 10
4660.744
 20
-8474.767
 30
-281.000
 70
    32
  0
VERTEX
  8
E56LXLIFT
 62
8
 10
4652.167
 20
-8464.765
 30
-281.000
 70
    32
  0
VERTEX
  8
E56LXLIFT
 62
8
 10
4637.755
 20
-8467.008
 30
-281.000
 70
    32
  0
VERTEX
  8
E56LXLIFT
 62
8
 10
4630.318
 20
-8456.919
 30
-281.000
 70
    32
  0
VERTEX
  8
E56LXLIFT
 62
8
 10
4623.543
 20
-8449.180
 30
-281.000
 70
    32
  0
VERTEX
  8
E56LXLIFT
 62
8
 10
4622.486
 20
-8426.109
 30
-281.000
 70
    32
  0
VERTEX
  8
E56LXLIFT
 62
8
 10
4610.121
 20
-8403.287
 30
-281.000
 70
    32
  0
VERTEX
  8
E56LXLIFT
 62
8
 10
4601.571
 20
-8400.051
 30
-281.000
 70
    32
  0
VERTEX
  8
E56LXLIFT
 62
8
 10
4596.394
 20
-8390.351
 30
-281.000
 70
    32
  0
VERTEX
  8
E56LXLIFT
 62
8
 10
4596.545
 20
-8381.919
 30
-281.000
 70
    32
  0
VERTEX
  8
E56LXLIFT
 62
8
 10
4590.998
 20
-8374.357
 30
-281.000
 70
    32
  0
VERTEX
  8
E56LXLIFT
 62
8
 10
4597.455
 20
-8369.088
 30
-281.000
 70
    32
  0
VERTEX
  8
E56LXLIFT
 62
8
 10
4608.709
 20
-8383.109
 30
-281.000
 70
    32
  0
VERTEX
  8
E56LXLIFT
 62
8
 10
4614.479
 20
-8380.872
 30
-281.000
 70
    32
  0
VERTEX
  8
E56LXLIFT
 62
8
 10
4625.398
 20
-8396.786
 30
-281.000
 70
    32
  0
VERTEX
  8
E56LXLIFT
 62
8
 10
4646.827
 20
-8432.310
 30
-281.000
 70
    32
  0
VERTEX
  8
E56LXLIFT
 62
8
 10
4653.744
 20
-8451.654
 30
-281.000
 70
    32
  0
VERTEX
  8
E56LXLIFT
 62
8
 10
4667.727
 20
-8469.763
 30
-281.000
 70
    32
  0
SEQEND
  8
E56LXLIFT
  0
POLYLINE
  8
E56LXLIFT
 62
3
 66
     1
 70
     9
  0
VERTEX
  8
E56LXLIFT
 62
3
 10
5136.833
 20
-9093.047
 30
-269.000
 70
    32
  0
VERTEX
  8
E56LXLIFT
 62
3
 10
5150.274
 20
-9072.457
 30
-269.000
 70
    32
  0
VERTEX
  8
E56LXLIFT
 62
3
 10
5150.496
 20
-9052.694
 30
-269.000
 70
    32
  0
VERTEX
  8
E56LXLIFT
 62
3
 10
5145.736
 20
-9031.490
 30
-269.000
 70
    32
  0
VERTEX
  8
E56LXLIFT
 62
3
 10
5136.141
 20
-9023.653
 30
-269.000
 70
    32
  0
VERTEX
  8
E56LXLIFT
 62
3
 10
5126.456
 20
-9027.644
 30
-269.000
 70
    32
  0
VERTEX
  8
E56LXLIFT
 62
3
 10
5122.320
 20
-9036.794
 30
-269.000
 70
    32
  0
VERTEX
  8
E56LXLIFT
 62
3
 10
5122.776
 20
-9045.821
 30
-269.000
 70
    32
  0
VERTEX
  8
E56LXLIFT
 62
3
 10
5131.859
 20
-9054.144
 30
-269.000
 70
    32
  0
VERTEX
  8
E56LXLIFT
 62
3
 10
5136.474
 20
-9064.676
 30
-269.000
 70
    32
  0
VERTEX
  8
E56LXLIFT
 62
3
 10
5132.218
 20
-9087.089
 30
-269.000
 70
    32
  0
SEQEND
  8
E56LXLIFT
  0
POLYLINE
  8
E56LXLIFT
 62
13
 66
     1
 70
     9
  0
VERTEX
  8
E56LXLIFT
 62
13
 10
4990.885
 20
-9182.250
 30
-275.000
 70
    32
  0
VERTEX
  8
E56LXLIFT
 62
13
 10
4987.238
 20
-9184.832
 30
-275.000
 70
    32
  0
VERTEX
  8
E56LXLIFT
 62
13
 10
4979.236
 20
-9186.383
 30
-275.000
 70
    32
  0
VERTEX
  8
E56LXLIFT
 62
13
 10
4979.254
 20
-9190.834
 30
-275.000
 70
    32
  0
VERTEX
  8
E56LXLIFT
 62
13
 10
4987.039
 20
-9201.530
 30
-275.000
 70
    32
  0
VERTEX
  8
E56LXLIFT
 62
13
 10
4976.508
 20
-9206.144
 30
-275.000
 70
    32
  0
VERTEX
  8
E56LXLIFT
 62
13
 10
4966.245
 20
-9198.583
 30
-275.000
 70
    32
  0
VERTEX
  8
E56LXLIFT
 62
13
 10
4961.374
 20
-9191.835
 30
-275.000
 70
    32
  0
VERTEX
  8
E56LXLIFT
 62
13
 10
4954.025
 20
-9174.501
 30
-275.000
 70
    32
  0
VERTEX
  8
E56LXLIFT
 62
13
 10
4949.721
 20
-9153.178
 30
-275.000
 70
    32
  0
VERTEX
  8
E56LXLIFT
 62
13
 10
4944.053
 20
-9133.842
 30
-275.000
 70
    32
  0
VERTEX
  8
E56LXLIFT
 62
13
 10
4935.553
 20
-9115.834
 30
-275.000
 70
    32
  0
VERTEX
  8
E56LXLIFT
 62
13
 10
4926.901
 20
-9097.176
 30
-275.000
 70
    32
  0
VERTEX
  8
E56LXLIFT
 62
13
 10
4922.536
 20
-9088.311
 30
-275.000
 70
    32
  0
VERTEX
  8
E56LXLIFT
 62
13
 10
4910.868
 20
-9076.779
 30
-275.000
 70
    32
  0
VERTEX
  8
E56LXLIFT
 62
13
 10
4898.859
 20
-9061.687
 30
-275.000
 70
    32
  0
VERTEX
  8
E56LXLIFT
 62
13
 10
4891.349
 20
-9037.939
 30
-275.000
 70
    32
  0
VERTEX
  8
E56LXLIFT
 62
13
 10
4893.152
 20
-9031.382
 30
-275.000
 70
    32
  0
VERTEX
  8
E56LXLIFT
 62
13
 10
4891.670
 20
-9025.834
 30
-275.000
 70
    32
  0
VERTEX
  8
E56LXLIFT
 62
13
 10
4899.203
 20
-9026.155
 30
-275.000
 70
    32
  0
VERTEX
  8
E56LXLIFT
 62
13
 10
4911.613
 20
-9036.921
 30
-275.000
 70
    32
  0
VERTEX
  8
E56LXLIFT
 62
13
 10
4929.212
 20
-9061.063
 30
-275.000
 70
    32
  0
VERTEX
  8
E56LXLIFT
 62
13
 10
4951.535
 20
-9097.506
 30
-275.000
 70
    32
  0
VERTEX
  8
E56LXLIFT
 62
13
 10
4961.639
 20
-9116.508
 30
-275.000
 70
    32
  0
VERTEX
  8
E56LXLIFT
 62
13
 10
4970.617
 20
-9124.690
 30
-275.000
 70
    32
  0
VERTEX
  8
E56LXLIFT
 62
13
 10
4980.068
 20
-9119.349
 30
-275.000
 70
    32
  0
VERTEX
  8
E56LXLIFT
 62
13
 10
4975.578
 20
-9101.757
 30
-275.000
 70
    32
  0
VERTEX
  8
E56LXLIFT
 62
13
 10
4966.908
 20
-9060.355
 30
-275.000
 70
    32
  0
VERTEX
  8
E56LXLIFT
 62
13
 10
4960.644
 20
-9029.590
 30
-275.000
 70
    32
  0
VERTEX
  8
E56LXLIFT
 62
13
 10
4959.156
 20
-9015.771
 30
-275.000
 70
    32
  0
VERTEX
  8
E56LXLIFT
 62
13
 10
4970.239
 20
-9007.918
 30
-275.000
 70
    32
  0
VERTEX
  8
E56LXLIFT
 62
13
 10
4977.505
 20
-9015.404
 30
-275.000
 70
    32
  0
VERTEX
  8
E56LXLIFT
 62
13
 10
4986.954
 20
-9042.076
 30
-275.000
 70
    32
  0
VERTEX
  8
E56LXLIFT
 62
13
 10
4990.603
 20
-9050.707
 30
-275.000
 70
    32
  0
VERTEX
  8
E56LXLIFT
 62
13
 10
5004.402
 20
-9047.274
 30
-275.000
 70
    32
  0
VERTEX
  8
E56LXLIFT
 62
13
 10
5013.683
 20
-9043.473
 30
-275.000
 70
    32
  0
VERTEX
  8
E56LXLIFT
 62
13
 10
5018.224
 20
-9054.495
 30
-275.000
 70
    32
  0
VERTEX
  8
E56LXLIFT
 62
13
 10
5006.208
 20
-9060.640
 30
-275.000
 70
    32
  0
VERTEX
  8
E56LXLIFT
 62
13
 10
4999.882
 20
-9074.346
 30
-275.000
 70
    32
  0
VERTEX
  8
E56LXLIFT
 62
13
 10
4998.375
 20
-9083.516
 30
-275.000
 70
    32
  0
VERTEX
  8
E56LXLIFT
 62
13
 10
5010.363
 20
-9119.530
 30
-275.000
 70
    32
  0
VERTEX
  8
E56LXLIFT
 62
13
 10
4997.602
 20
-9126.878
 30
-275.000
 70
    32
  0
VERTEX
  8
E56LXLIFT
 62
13
 10
4984.673
 20
-9131.194
 30
-275.000
 70
    32
  0
VERTEX
  8
E56LXLIFT
 62
13
 10
4980.737
 20
-9134.861
 30
-275.000
 70
    32
  0
VERTEX
  8
E56LXLIFT
 62
13
 10
4981.361
 20
-9140.280
 30
-275.000
 70
    32
  0
VERTEX
  8
E56LXLIFT
 62
13
 10
4992.790
 20
-9148.832
 30
-275.000
 70
    32
  0
VERTEX
  8
E56LXLIFT
 62
13
 10
5002.086
 20
-9154.493
 30
-275.000
 70
    32
  0
VERTEX
  8
E56LXLIFT
 62
13
 10
5001.852
 20
-9159.783
 30
-275.000
 70
    32
  0
VERTEX
  8
E56LXLIFT
 62
13
 10
4992.984
 20
-9160.012
 30
-275.000
 70
    32
  0
VERTEX
  8
E56LXLIFT
 62
13
 10
4984.685
 20
-9166.029
 30
-275.000
 70
    32
  0
SEQEND
  8
E56LXLIFT
  0
POLYLINE
  8
E56LXLIFT
 62
7
 66
     1
 70
     9
  0
VERTEX
  8
E56LXLIFT
 62
7
 10
4743.183
 20
-9308.113
 30
-273.000
 70
    32
  0
VERTEX
  8
E56LXLIFT
 62
7
 10
4741.548
 20
-9297.342
 30
-273.000
 70
    32
  0
VERTEX
  8
E56LXLIFT
 62
7
 10
4731.508
 20
-9283.737
 30
-273.000
 70
    32
  0
VERTEX
  8
E56LXLIFT
 62
7
 10
4725.312
 20
-9278.292
 30
-273.000
 70
    32
  0
VERTEX
  8
E56LXLIFT
 62
7
 10
4734.477
 20
-9269.023
 30
-273.000
 70
    32
  0
VERTEX
  8
E56LXLIFT
 62
7
 10
4743.565
 20
-9278.976
 30
-273.000
 70
    32
  0
VERTEX
  8
E56LXLIFT
 62
7
 10
4755.622
 20
-9283.362
 30
-273.000
 70
    32
  0
VERTEX
  8
E56LXLIFT
 62
7
 10
4767.585
 20
-9277.146
 30
-273.000
 70
    32
  0
VERTEX
  8
E56LXLIFT
 62
7
 10
4780.147
 20
-9268.202
 30
-273.000
 70
    32
  0
VERTEX
  8
E56LXLIFT
 62
7
 10
4790.392
 20
-9262.165
 30
-273.000
 70
    32
  0
VERTEX
  8
E56LXLIFT
 62
7
 10
4797.715
 20
-9266.778
 30
-273.000
 70
    32
  0
VERTEX
  8
E56LXLIFT
 62
7
 10
4798.438
 20
-9279.855
 30
-273.000
 70
    32
  0
VERTEX
  8
E56LXLIFT
 62
7
 10
4800.089
 20
-9302.156
 30
-273.000
 70
    32
  0
VERTEX
  8
E56LXLIFT
 62
7
 10
4790.371
 20
-9317.168
 30
-273.000
 70
    32
  0
SEQEND
  8
E56LXLIFT
  0
POLYLINE
  8
E56LXLIFT
 62
8
 66
     1
 70
     9
  0
VERTEX
  8
E56LXLIFT
 62
8
 10
4601.608
 20
-8368.717
 30
-270.000
 70
    32
  0
VERTEX
  8
E56LXLIFT
 62
8
 10
4608.510
 20
-8380.283
 30
-270.000
 70
    32
  0
VERTEX
  8
E56LXLIFT
 62
8
 10
4621.527
 20
-8387.445
 30
-270.000
 70
    32
  0
VERTEX
  8
E56LXLIFT
 62
8
 10
4633.809
 20
-8401.137
 30
-270.000
 70
    32
  0
VERTEX
  8
E56LXLIFT
 62
8
 10
4652.237
 20
-8426.844
 30
-270.000
 70
    32
  0
VERTEX
  8
E56LXLIFT
 62
8
 10
4656.612
 20
-8448.115
 30
-270.000
 70
    32
  0
VERTEX
  8
E56LXLIFT
 62
8
 10
4663.235
 20
-8468.597
 30
-270.000
 70
    32
  0
VERTEX
  8
E56LXLIFT
 62
8
 10
4667.120
 20
-8476.074
 30
-270.000
 70
    32
  0
VERTEX
  8
E56LXLIFT
 62
8
 10
4660.786
 20
-8479.442
 30
-270.000
 70
    32
  0
VERTEX
  8
E56LXLIFT
 62
8
 10
4650.987
 20
-8470.885
 30
-270.000
 70
    32
  0
VERTEX
  8
E56LXLIFT
 62
8
 10
4634.917
 20
-8466.521
 30
-270.000
 70
    32
  0
VERTEX
  8
E56LXLIFT
 62
8
 10
4626.879
 20
-8445.450
 30
-270.000
 70
    32
  0
VERTEX
  8
E56LXLIFT
 62
8
 10
4618.908
 20
-8424.765
 30
-270.000
 70
    32
  0
VERTEX
  8
E56LXLIFT
 62
8
 10
4616.719
 20
-8415.601
 30
-270.000
 70
    32
  0
VERTEX
  8
E56LXLIFT
 62
8
 10
4602.895
 20
-8401.740
 30
-270.000
 70
    32
  0
VERTEX
  8
E56LXLIFT
 62
8
 10
4596.784
 20
-8405.705
 30
-270.000
 70
    32
  0
VERTEX
  8
E56LXLIFT
 62
8
 10
4593.875
 20
-8401.320
 30
-270.000
 70
    32
  0
VERTEX
  8
E56LXLIFT
 62
8
 10
4602.166
 20
-8394.112
 30
-270.000
 70
    32
  0
VERTEX
  8
E56LXLIFT
 62
8
 10
4593.693
 20
-8377.172
 30
-270.000
 70
    32
  0
SEQEND
  8
E56LXLIFT
  0
POLYLINE
  8
E56LXLIFT
 62
13
 66
     1
 70
     9
  0
VERTEX
  8
E56LXLIFT
 62
13
 10
4990.154
 20
-8988.291
 30
-266.000
 70
    32
  0
VERTEX
  8
E56LXLIFT
 62
13
 10
5002.613
 20
-9007.822
 30
-266.000
 70
    32
  0
VERTEX
  8
E56LXLIFT
 62
13
 10
5024.298
 20
-9033.584
 30
-266.000
 70
    32
  0
VERTEX
  8
E56LXLIFT
 62
13
 10
5029.064
 20
-9052.987
 30
-266.000
 70
    32
  0
VERTEX
  8
E56LXLIFT
 62
13
 10
5032.784
 20
-9060.962
 30
-266.000
 70
    32
  0
VERTEX
  8
E56LXLIFT
 62
13
 10
5026.633
 20
-9064.182
 30
-266.000
 70
    32
  0
VERTEX
  8
E56LXLIFT
 62
13
 10
5020.756
 20
-9056.848
 30
-266.000
 70
    32
  0
VERTEX
  8
E56LXLIFT
 62
13
 10
5015.411
 20
-9055.166
 30
-266.000
 70
    32
  0
VERTEX
  8
E56LXLIFT
 62
13
 10
5001.319
 20
-9061.860
 30
-266.000
 70
    32
  0
VERTEX
  8
E56LXLIFT
 62
13
 10
4992.124
 20
-9068.043
 30
-266.000
 70
    32
  0
VERTEX
  8
E56LXLIFT
 62
13
 10
4995.558
 20
-9088.013
 30
-266.000
 70
    32
  0
VERTEX
  8
E56LXLIFT
 62
13
 10
4999.343
 20
-9107.719
 30
-266.000
 70
    32
  0
VERTEX
  8
E56LXLIFT
 62
13
 10
4999.623
 20
-9125.120
 30
-266.000
 70
    32
  0
VERTEX
  8
E56LXLIFT
 62
13
 10
5008.682
 20
-9133.460
 30
-266.000
 70
    32
  0
VERTEX
  8
E56LXLIFT
 62
13
 10
5001.365
 20
-9139.214
 30
-266.000
 70
    32
  0
VERTEX
  8
E56LXLIFT
 62
13
 10
4999.441
 20
-9149.916
 30
-266.000
 70
    32
  0
VERTEX
  8
E56LXLIFT
 62
13
 10
4989.471
 20
-9155.365
 30
-266.000
 70
    32
  0
VERTEX
  8
E56LXLIFT
 62
13
 10
4981.181
 20
-9155.029
 30
-266.000
 70
    32
  0
VERTEX
  8
E56LXLIFT
 62
13
 10
4971.049
 20
-9146.289
 30
-266.000
 70
    32
  0
VERTEX
  8
E56LXLIFT
 62
13
 10
4965.938
 20
-9132.982
 30
-266.000
 70
    32
  0
VERTEX
  8
E56LXLIFT
 62
13
 10
4967.643
 20
-9115.730
 30
-266.000
 70
    32
  0
VERTEX
  8
E56LXLIFT
 62
13
 10
4967.600
 20
-9096.168
 30
-266.000
 70
    32
  0
VERTEX
  8
E56LXLIFT
 62
13
 10
4967.271
 20
-9075.501
 30
-266.000
 70
    32
  0
VERTEX
  8
E56LXLIFT
 62
13
 10
4963.931
 20
-9057.111
 30
-266.000
 70
    32
  0
VERTEX
  8
E56LXLIFT
 62
13
 10
4958.169
 20
-9034.498
 30
-266.000
 70
    32
  0
VERTEX
  8
E56LXLIFT
 62
13
 10
4951.684
 20
-9020.248
 30
-266.000
 70
    32
  0
VERTEX
  8
E56LXLIFT
 62
13
 10
4955.397
 20
-9008.853
 30
-266.000
 70
    32
  0
VERTEX
  8
E56LXLIFT
 62
13
 10
4966.185
 20
-9006.088
 30
-266.000
 70
    32
  0
VERTEX
  8
E56LXLIFT
 62
13
 10
4973.506
 20
-8996.699
 30
-266.000
 70
    32
  0
VERTEX
  8
E56LXLIFT
 62
13
 10
4979.788
 20
-8991.178
 30
-266.000
 70
    32
  0
SEQEND
  8
E56LXLIFT
  0
POLYLINE
  8
E56LXLIFT
 62
7
 66
     1
 70
     9
  0
VERTEX
  8
E56LXLIFT
 62
7
 10
4717.484
 20
-9244.924
 30
-262.000
 70
    32
  0
VERTEX
  8
E56LXLIFT
 62
7
 10
4727.895
 20
-9253.012
 30
-262.000
 70
    32
  0
VERTEX
  8
E56LXLIFT
 62
7
 10
4741.141
 20
-9258.737
 30
-262.000
 70
    32
  0
VERTEX
  8
E56LXLIFT
 62
7
 10
4754.646
 20
-9258.981
 30
-262.000
 70
    32
  0
VERTEX
  8
E56LXLIFT
 62
7
 10
4770.141
 20
-9260.693
 30
-262.000
 70
    32
  0
VERTEX
  8
E56LXLIFT
 62
7
 10
4783.651
 20
-9262.254
 30
-262.000
 70
    32
  0
VERTEX
  8
E56LXLIFT
 62
7
 10
4792.341
 20
-9266.030
 30
-262.000
 70
    32
  0
VERTEX
  8
E56LXLIFT
 62
7
 10
4794.951
 20
-9277.487
 30
-262.000
 70
    32
  0
VERTEX
  8
E56LXLIFT
 62
7
 10
4794.865
 20
-9291.202
 30
-262.000
 70
    32
  0
VERTEX
  8
E56LXLIFT
 62
7
 10
4795.622
 20
-9304.720
 30
-262.000
 70
    32
  0
VERTEX
  8
E56LXLIFT
 62
7
 10
4795.592
 20
-9310.357
 30
-262.000
 70
    32
  0
VERTEX
  8
E56LXLIFT
 62
7
 10
4787.131
 20
-9311.252
 30
-262.000
 70
    32
  0
VERTEX
  8
E56LXLIFT
 62
7
 10
4776.304
 20
-9308.872
 30
-262.000
 70
    32
  0
VERTEX
  8
E56LXLIFT
 62
7
 10
4765.645
 20
-9308.897
 30
-262.000
 70
    32
  0
VERTEX
  8
E56LXLIFT
 62
7
 10
4754.396
 20
-9306.395
 30
-262.000
 70
    32
  0
VERTEX
  8
E56LXLIFT
 62
7
 10
4749.001
 20
-9301.008
 30
-262.000
 70
    32
  0
VERTEX
  8
E56LXLIFT
 62
7
 10
4740.263
 20
-9293.967
 30
-262.000
 70
    32
  0
VERTEX
  8
E56LXLIFT
 62
7
 10
4729.767
 20
-9281.980
 30
-262.000
 70
    32
  0
VERTEX
  8
E56LXLIFT
 62
7
 10
4724.596
 20
-9271.359
 30
-262.000
 70
    32
  0
VERTEX
  8
E56LXLIFT
 62
7
 10
4720.851
 20
-9261.312
 30
-262.000
 70
    32
  0
VERTEX
  8
E56LXLIFT
 62
7
 10
4713.785
 20
-9255.317
 30
-262.000
 70
    32
  0
VERTEX
  8
E56LXLIFT
 62
7
 10
4709.599
 20
-9249.345
 30
-262.000
 70
    32
  0
SEQEND
  8
E56LXLIFT
  0
POLYLINE
  8
E56LXLIFT
 62
8
 66
     1
 70
     9
  0
VERTEX
  8
E56LXLIFT
 62
8
 10
4628.198
 20
-8435.742
 30
-261.000
 70
    32
  0
VERTEX
  8
E56LXLIFT
 62
8
 10
4611.592
 20
-8415.386
 30
-261.000
 70
    32
  0
VERTEX
  8
E56LXLIFT
 62
8
 10
4599.356
 20
-8403.283
 30
-261.000
 70
    32
  0
VERTEX
  8
E56LXLIFT
 62
8
 10
4593.277
 20
-8406.890
 30
-261.000
 70
    32
  0
VERTEX
  8
E56LXLIFT
 62
8
 10
4590.785
 20
-8402.720
 30
-261.000
 70
    32
  0
VERTEX
  8
E56LXLIFT
 62
8
 10
4595.337
 20
-8399.278
 30
-261.000
 70
    32
  0
VERTEX
  8
E56LXLIFT
 62
8
 10
4585.535
 20
-8380.931
 30
-261.000
 70
    32
  0
VERTEX
  8
E56LXLIFT
 62
8
 10
4585.361
 20
-8368.183
 30
-261.000
 70
    32
  0
VERTEX
  8
E56LXLIFT
 62
8
 10
4578.110
 20
-8355.393
 30
-261.000
 70
    32
  0
VERTEX
  8
E56LXLIFT
 62
8
 10
4587.195
 20
-8348.192
 30
-261.000
 70
    32
  0
VERTEX
  8
E56LXLIFT
 62
8
 10
4609.332
 20
-8372.951
 30
-261.000
 70
    32
  0
VERTEX
  8
E56LXLIFT
 62
8
 10
4618.156
 20
-8392.478
 30
-261.000
 70
    32
  0
VERTEX
  8
E56LXLIFT
 62
8
 10
4634.040
 20
-8408.096
 30
-261.000
 70
    32
  0
VERTEX
  8
E56LXLIFT
 62
8
 10
4641.197
 20
-8423.819
 30
-261.000
 70
    32
  0
SEQEND
  8
E56LXLIFT
  0
POLYLINE
  8
E56LXLIFT
 62
13
 66
     1
 70
     9
  0
VERTEX
  8
E56LXLIFT
 62
13
 10
4977.339
 20
-8995.142
 30
-256.000
 70
    32
  0
VERTEX
  8
E56LXLIFT
 62
13
 10
4981.562
 20
-9001.862
 30
-256.000
 70
    32
  0
VERTEX
  8
E56LXLIFT
 62
13
 10
4988.125
 20
-9004.655
 30
-256.000
 70
    32
  0
VERTEX
  8
E56LXLIFT
 62
13
 10
4989.920
 20
-9011.645
 30
-256.000
 70
    32
  0
VERTEX
  8
E56LXLIFT
 62
13
 10
5004.804
 20
-9028.299
 30
-256.000
 70
    32
  0
VERTEX
  8
E56LXLIFT
 62
13
 10
5019.448
 20
-9043.599
 30
-256.000
 70
    32
  0
VERTEX
  8
E56LXLIFT
 62
13
 10
5031.870
 20
-9056.496
 30
-256.000
 70
    32
  0
VERTEX
  8
E56LXLIFT
 62
13
 10
5038.519
 20
-9063.386
 30
-256.000
 70
    32
  0
VERTEX
  8
E56LXLIFT
 62
13
 10
5034.888
 20
-9068.820
 30
-256.000
 70
    32
  0
VERTEX
  8
E56LXLIFT
 62
13
 10
5024.503
 20
-9059.994
 30
-256.000
 70
    32
  0
VERTEX
  8
E56LXLIFT
 62
13
 10
5013.218
 20
-9055.561
 30
-256.000
 70
    32
  0
VERTEX
  8
E56LXLIFT
 62
13
 10
5006.108
 20
-9060.292
 30
-256.000
 70
    32
  0
VERTEX
  8
E56LXLIFT
 62
13
 10
4997.220
 20
-9065.577
 30
-256.000
 70
    32
  0
VERTEX
  8
E56LXLIFT
 62
13
 10
4990.494
 20
-9067.285
 30
-256.000
 70
    32
  0
VERTEX
  8
E56LXLIFT
 62
13
 10
4982.309
 20
-9054.637
 30
-256.000
 70
    32
  0
VERTEX
  8
E56LXLIFT
 62
13
 10
4975.746
 20
-9048.011
 30
-256.000
 70
    32
  0
VERTEX
  8
E56LXLIFT
 62
13
 10
4973.911
 20
-9042.147
 30
-256.000
 70
    32
  0
VERTEX
  8
E56LXLIFT
 62
13
 10
4964.327
 20
-9045.758
 30
-256.000
 70
    32
  0
VERTEX
  8
E56LXLIFT
 62
13
 10
4959.727
 20
-9040.741
 30
-256.000
 70
    32
  0
VERTEX
  8
E56LXLIFT
 62
13
 10
4949.922
 20
-9035.647
 30
-256.000
 70
    32
  0
VERTEX
  8
E56LXLIFT
 62
13
 10
4942.899
 20
-9033.415
 30
-256.000
 70
    32
  0
VERTEX
  8
E56LXLIFT
 62
13
 10
4937.186
 20
-9032.948
 30
-256.000
 70
    32
  0
VERTEX
  8
E56LXLIFT
 62
13
 10
4936.784
 20
-9021.639
 30
-256.000
 70
    32
  0
VERTEX
  8
E56LXLIFT
 62
13
 10
4944.628
 20
-9014.063
 30
-256.000
 70
    32
  0
VERTEX
  8
E56LXLIFT
 62
13
 10
4955.876
 20
-9008.121
 30
-256.000
 70
    32
  0
VERTEX
  8
E56LXLIFT
 62
13
 10
4964.504
 20
-9002.043
 30
-256.000
 70
    32
  0
SEQEND
  8
E56LXLIFT
  0
POLYLINE
  8
E56LXLIFT
 62
13
 66
     1
 70
     9
  0
VERTEX
  8
E56LXLIFT
 62
13
 10
4981.681
 20
-9017.214
 30
-256.000
 70
    32
  0
VERTEX
  8
E56LXLIFT
 62
13
 10
4994.599
 20
-9025.911
 30
-256.000
 70
    32
  0
VERTEX
  8
E56LXLIFT
 62
13
 10
5002.181
 20
-9039.664
 30
-256.000
 70
    32
  0
VERTEX
  8
E56LXLIFT
 62
13
 10
4999.866
 20
-9049.377
 30
-256.000
 70
    32
  0
VERTEX
  8
E56LXLIFT
 62
13
 10
4994.992
 20
-9050.039
 30
-256.000
 70
    32
  0
VERTEX
  8
E56LXLIFT
 62
13
 10
4983.744
 20
-9041.526
 30
-256.000
 70
    32
  0
VERTEX
  8
E56LXLIFT
 62
13
 10
4982.837
 20
-9032.782
 30
-256.000
 70
    32
  0
VERTEX
  8
E56LXLIFT
 62
13
 10
4976.157
 20
-9021.425
 30
-256.000
 70
    32
  0
SEQEND
  8
E56LXLIFT
  0
POLYLINE
  8
E56LXLIFT
 62
7
 66
     1
 70
     9
  0
VERTEX
  8
E56LXLIFT
 62
7
 10
4716.690
 20
-9247.464
 30
-251.000
 70
    32
  0
VERTEX
  8
E56LXLIFT
 62
7
 10
4728.758
 20
-9257.230
 30
-251.000
 70
    32
  0
VERTEX
  8
E56LXLIFT
 62
7
 10
4739.995
 20
-9260.713
 30
-251.000
 70
    32
  0
VERTEX
  8
E56LXLIFT
 62
7
 10
4760.211
 20
-9262.130
 30
-251.000
 70
    32
  0
VERTEX
  8
E56LXLIFT
 62
7
 10
4779.264
 20
-9263.752
 30
-251.000
 70
    32
  0
VERTEX
  8
E56LXLIFT
 62
7
 10
4783.869
 20
-9267.890
 30
-251.000
 70
    32
  0
VERTEX
  8
E56LXLIFT
 62
7
 10
4787.661
 20
-9287.304
 30
-251.000
 70
    32
  0
VERTEX
  8
E56LXLIFT
 62
7
 10
4789.003
 20
-9296.929
 30
-251.000
 70
    32
  0
VERTEX
  8
E56LXLIFT
 62
7
 10
4794.676
 20
-9305.749
 30
-251.000
 70
    32
  0
VERTEX
  8
E56LXLIFT
 62
7
 10
4789.921
 20
-9310.702
 30
-251.000
 70
    32
  0
VERTEX
  8
E56LXLIFT
 62
7
 10
4770.601
 20
-9309.606
 30
-251.000
 70
    32
  0
VERTEX
  8
E56LXLIFT
 62
7
 10
4752.296
 20
-9305.895
 30
-251.000
 70
    32
  0
VERTEX
  8
E56LXLIFT
 62
7
 10
4742.177
 20
-9300.377
 30
-251.000
 70
    32
  0
VERTEX
  8
E56LXLIFT
 62
7
 10
4735.075
 20
-9288.895
 30
-251.000
 70
    32
  0
VERTEX
  8
E56LXLIFT
 62
7
 10
4721.225
 20
-9269.502
 30
-251.000
 70
    32
  0
VERTEX
  8
E56LXLIFT
 62
7
 10
4709.266
 20
-9251.772
 30
-251.000
 70
    32
  0
SEQEND
  8
E56LXLIFT
  0
POLYLINE
  8
E56LXLIFT
 62
11
 66
     1
 70
     9
  0
VERTEX
  8
E56LXLIFT
 62
11
 10
4609.359
 20
-8543.314
 30
-249.000
 70
    32
  0
VERTEX
  8
E56LXLIFT
 62
11
 10
4586.733
 20
-8524.195
 30
-249.000
 70
    32
  0
VERTEX
  8
E56LXLIFT
 62
11
 10
4581.139
 20
-8510.171
 30
-249.000
 70
    32
  0
VERTEX
  8
E56LXLIFT
 62
11
 10
4584.933
 20
-8489.176
 30
-249.000
 70
    32
  0
VERTEX
  8
E56LXLIFT
 62
11
 10
4591.431
 20
-8480.081
 30
-249.000
 70
    32
  0
VERTEX
  8
E56LXLIFT
 62
11
 10
4607.572
 20
-8476.748
 30
-249.000
 70
    32
  0
VERTEX
  8
E56LXLIFT
 62
11
 10
4616.736
 20
-8472.572
 30
-249.000
 70
    32
  0
VERTEX
  8
E56LXLIFT
 62
11
 10
4619.792
 20
-8476.983
 30
-249.000
 70
    32
  0
VERTEX
  8
E56LXLIFT
 62
11
 10
4613.285
 20
-8484.442
 30
-249.000
 70
    32
  0
VERTEX
  8
E56LXLIFT
 62
11
 10
4615.159
 20
-8496.849
 30
-249.000
 70
    32
  0
VERTEX
  8
E56LXLIFT
 62
11
 10
4612.949
 20
-8502.869
 30
-249.000
 70
    32
  0
VERTEX
  8
E56LXLIFT
 62
11
 10
4608.847
 20
-8507.668
 30
-249.000
 70
    32
  0
VERTEX
  8
E56LXLIFT
 62
11
 10
4617.988
 20
-8530.009
 30
-249.000
 70
    32
  0
SEQEND
  8
E56LXLIFT
  0
POLYLINE
  8
E56LXLIFT
 62
8
 66
     1
 70
     9
  0
VERTEX
  8
E56LXLIFT
 62
8
 10
4604.080
 20
-8420.865
 30
-250.000
 70
    32
  0
VERTEX
  8
E56LXLIFT
 62
8
 10
4597.996
 20
-8431.843
 30
-250.000
 70
    32
  0
VERTEX
  8
E56LXLIFT
 62
8
 10
4603.308
 20
-8449.471
 30
-250.000
 70
    32
  0
VERTEX
  8
E56LXLIFT
 62
8
 10
4610.442
 20
-8454.359
 30
-250.000
 70
    32
  0
VERTEX
  8
E56LXLIFT
 62
8
 10
4624.610
 20
-8429.932
 30
-250.000
 70
    32
  0
VERTEX
  8
E56LXLIFT
 62
8
 10
4625.983
 20
-8407.888
 30
-250.000
 70
    32
  0
VERTEX
  8
E56LXLIFT
 62
8
 10
4612.472
 20
-8387.477
 30
-250.000
 70
    32
  0
VERTEX
  8
E56LXLIFT
 62
8
 10
4593.181
 20
-8351.317
 30
-250.000
 70
    32
  0
VERTEX
  8
E56LXLIFT
 62
8
 10
4583.062
 20
-8331.345
 30
-250.000
 70
    32
  0
VERTEX
  8
E56LXLIFT
 62
8
 10
4572.581
 20
-8320.620
 30
-250.000
 70
    32
  0
VERTEX
  8
E56LXLIFT
 62
8
 10
4571.344
 20
-8314.530
 30
-250.000
 70
    32
  0
VERTEX
  8
E56LXLIFT
 62
8
 10
4561.824
 20
-8316.014
 30
-250.000
 70
    32
  0
VERTEX
  8
E56LXLIFT
 62
8
 10
4564.639
 20
-8330.130
 30
-250.000
 70
    32
  0
VERTEX
  8
E56LXLIFT
 62
8
 10
4568.002
 20
-8347.344
 30
-250.000
 70
    32
  0
VERTEX
  8
E56LXLIFT
 62
8
 10
4567.364
 20
-8359.316
 30
-250.000
 70
    32
  0
VERTEX
  8
E56LXLIFT
 62
8
 10
4582.115
 20
-8381.544
 30
-250.000
 70
    32
  0
VERTEX
  8
E56LXLIFT
 62
8
 10
4591.706
 20
-8394.463
 30
-250.000
 70
    32
  0
VERTEX
  8
E56LXLIFT
 62
8
 10
4591.000
 20
-8402.214
 30
-250.000
 70
    32
  0
VERTEX
  8
E56LXLIFT
 62
8
 10
4587.692
 20
-8406.313
 30
-250.000
 70
    32
  0
SEQEND
  8
E56LXLIFT
  0
POLYLINE
  8
E56LXLIFT
 62
27
 66
     1
 70
     9
  0
VERTEX
  8
E56LXLIFT
 62
27
 10
4593.602
 20
-8459.255
 30
-239.000
 70
    32
  0
VERTEX
  8
E56LXLIFT
 62
27
 10
4608.200
 20
-8471.675
 30
-239.000
 70
    32
  0
VERTEX
  8
E56LXLIFT
 62
27
 10
4611.019
 20
-8479.903
 30
-239.000
 70
    32
  0
VERTEX
  8
E56LXLIFT
 62
27
 10
4606.773
 20
-8494.811
 30
-239.000
 70
    32
  0
VERTEX
  8
E56LXLIFT
 62
27
 10
4602.451
 20
-8505.254
 30
-239.000
 70
    32
  0
VERTEX
  8
E56LXLIFT
 62
27
 10
4610.461
 20
-8524.984
 30
-239.000
 70
    32
  0
VERTEX
  8
E56LXLIFT
 62
27
 10
4617.606
 20
-8540.518
 30
-239.000
 70
    32
  0
VERTEX
  8
E56LXLIFT
 62
27
 10
4615.576
 20
-8552.532
 30
-239.000
 70
    32
  0
VERTEX
  8
E56LXLIFT
 62
27
 10
4603.441
 20
-8557.762
 30
-239.000
 70
    32
  0
VERTEX
  8
E56LXLIFT
 62
27
 10
4594.253
 20
-8544.769
 30
-239.000
 70
    32
  0
VERTEX
  8
E56LXLIFT
 62
27
 10
4588.084
 20
-8534.449
 30
-239.000
 70
    32
  0
VERTEX
  8
E56LXLIFT
 62
27
 10
4574.993
 20
-8527.944
 30
-239.000
 70
    32
  0
VERTEX
  8
E56LXLIFT
 62
27
 10
4563.658
 20
-8510.955
 30
-239.000
 70
    32
  0
VERTEX
  8
E56LXLIFT
 62
27
 10
4561.415
 20
-8498.541
 30
-239.000
 70
    32
  0
VERTEX
  8
E56LXLIFT
 62
27
 10
4570.872
 20
-8488.616
 30
-239.000
 70
    32
  0
VERTEX
  8
E56LXLIFT
 62
27
 10
4577.340
 20
-8485.367
 30
-239.000
 70
    32
  0
VERTEX
  8
E56LXLIFT
 62
27
 10
4575.349
 20
-8470.667
 30
-239.000
 70
    32
  0
SEQEND
  8
E56LXLIFT
  0
POLYLINE
  8
E56LXLIFT
 62
8
 66
     1
 70
     9
  0
VERTEX
  8
E56LXLIFT
 62
8
 10
4602.884
 20
-8418.698
 30
-239.000
 70
    32
  0
VERTEX
  8
E56LXLIFT
 62
8
 10
4591.172
 20
-8400.341
 30
-239.000
 70
    32
  0
VERTEX
  8
E56LXLIFT
 62
8
 10
4581.013
 20
-8383.012
 30
-239.000
 70
    32
  0
VERTEX
  8
E56LXLIFT
 62
8
 10
4569.571
 20
-8362.245
 30
-239.000
 70
    32
  0
VERTEX
  8
E56LXLIFT
 62
8
 10
4562.985
 20
-8342.649
 30
-239.000
 70
    32
  0
VERTEX
  8
E56LXLIFT
 62
8
 10
4553.196
 20
-8329.009
 30
-239.000
 70
    32
  0
VERTEX
  8
E56LXLIFT
 62
8
 10
4542.240
 20
-8317.466
 30
-239.000
 70
    32
  0
VERTEX
  8
E56LXLIFT
 62
8
 10
4534.931
 20
-8310.878
 30
-239.000
 70
    32
  0
VERTEX
  8
E56LXLIFT
 62
8
 10
4528.836
 20
-8315.057
 30
-239.000
 70
    32
  0
VERTEX
  8
E56LXLIFT
 62
8
 10
4536.241
 20
-8326.425
 30
-239.000
 70
    32
  0
VERTEX
  8
E56LXLIFT
 62
8
 10
4537.487
 20
-8339.704
 30
-239.000
 70
    32
  0
VERTEX
  8
E56LXLIFT
 62
8
 10
4541.781
 20
-8354.533
 30
-239.000
 70
    32
  0
VERTEX
  8
E56LXLIFT
 62
8
 10
4549.011
 20
-8376.288
 30
-239.000
 70
    32
  0
VERTEX
  8
E56LXLIFT
 62
8
 10
4564.327
 20
-8398.528
 30
-239.000
 70
    32
  0
VERTEX
  8
E56LXLIFT
 62
8
 10
4575.217
 20
-8411.003
 30
-239.000
 70
    32
  0
VERTEX
  8
E56LXLIFT
 62
8
 10
4568.117
 20
-8417.928
 30
-239.000
 70
    32
  0
VERTEX
  8
E56LXLIFT
 62
8
 10
4572.809
 20
-8421.208
 30
-239.000
 70
    32
  0
VERTEX
  8
E56LXLIFT
 62
8
 10
4580.627
 20
-8417.266
 30
-239.000
 70
    32
  0
VERTEX
  8
E56LXLIFT
 62
8
 10
4586.954
 20
-8424.158
 30
-239.000
 70
    32
  0
VERTEX
  8
E56LXLIFT
 62
8
 10
4591.851
 20
-8426.400
 30
-239.000
 70
    32
  0
SEQEND
  8
E56LXLIFT
  0
POLYLINE
  8
E56LXLIFT
 62
8
 66
     1
 70
     9
  0
VERTEX
  8
E56LXLIFT
 62
8
 10
4549.617
 20
-8420.368
 30
-227.000
 70
    32
  0
VERTEX
  8
E56LXLIFT
 62
8
 10
4548.466
 20
-8413.276
 30
-227.000
 70
    32
  0
VERTEX
  8
E56LXLIFT
 62
8
 10
4551.111
 20
-8400.809
 30
-227.000
 70
    32
  0
VERTEX
  8
E56LXLIFT
 62
8
 10
4550.274
 20
-8391.315
 30
-227.000
 70
    32
  0
VERTEX
  8
E56LXLIFT
 62
8
 10
4542.520
 20
-8367.415
 30
-227.000
 70
    32
  0
VERTEX
  8
E56LXLIFT
 62
8
 10
4532.201
 20
-8335.824
 30
-227.000
 70
    32
  0
VERTEX
  8
E56LXLIFT
 62
8
 10
4530.400
 20
-8330.075
 30
-227.000
 70
    32
  0
VERTEX
  8
E56LXLIFT
 62
8
 10
4548.008
 20
-8323.975
 30
-227.000
 70
    32
  0
VERTEX
  8
E56LXLIFT
 62
8
 10
4554.356
 20
-8337.600
 30
-227.000
 70
    32
  0
VERTEX
  8
E56LXLIFT
 62
8
 10
4570.944
 20
-8370.487
 30
-227.000
 70
    32
  0
VERTEX
  8
E56LXLIFT
 62
8
 10
4586.429
 20
-8392.771
 30
-227.000
 70
    32
  0
VERTEX
  8
E56LXLIFT
 62
8
 10
4593.339
 20
-8401.206
 30
-227.000
 70
    32
  0
VERTEX
  8
E56LXLIFT
 62
8
 10
4592.235
 20
-8417.873
 30
-227.000
 70
    32
  0
VERTEX
  8
E56LXLIFT
 62
8
 10
4584.009
 20
-8427.455
 30
-227.000
 70
    32
  0
VERTEX
  8
E56LXLIFT
 62
8
 10
4574.344
 20
-8430.590
 30
-227.000
 70
    32
  0
VERTEX
  8
E56LXLIFT
 62
8
 10
4561.619
 20
-8428.785
 30
-227.000
 70
    32
  0
SEQEND
  8
E56LXLIFT
  0
POLYLINE
  8
E56LXLIFT
 62
27
 66
     1
 70
     9
  0
VERTEX
  8
E56LXLIFT
 62
27
 10
4594.471
 20
-8465.352
 30
-228.000
 70
    32
  0
VERTEX
  8
E56LXLIFT
 62
27
 10
4607.721
 20
-8469.816
 30
-228.000
 70
    32
  0
VERTEX
  8
E56LXLIFT
 62
27
 10
4613.692
 20
-8475.025
 30
-228.000
 70
    32
  0
VERTEX
  8
E56LXLIFT
 62
27
 10
4609.197
 20
-8484.060
 30
-228.000
 70
    32
  0
VERTEX
  8
E56LXLIFT
 62
27
 10
4599.314
 20
-8495.393
 30
-228.000
 70
    32
  0
VERTEX
  8
E56LXLIFT
 62
27
 10
4594.412
 20
-8503.422
 30
-228.000
 70
    32
  0
VERTEX
  8
E56LXLIFT
 62
27
 10
4597.869
 20
-8512.636
 30
-228.000
 70
    32
  0
VERTEX
  8
E56LXLIFT
 62
27
 10
4598.573
 20
-8524.183
 30
-228.000
 70
    32
  0
VERTEX
  8
E56LXLIFT
 62
27
 10
4596.986
 20
-8531.097
 30
-228.000
 70
    32
  0
VERTEX
  8
E56LXLIFT
 62
27
 10
4588.923
 20
-8530.022
 30
-228.000
 70
    32
  0
VERTEX
  8
E56LXLIFT
 62
27
 10
4581.835
 20
-8529.540
 30
-228.000
 70
    32
  0
VERTEX
  8
E56LXLIFT
 62
27
 10
4573.392
 20
-8534.500
 30
-228.000
 70
    32
  0
VERTEX
  8
E56LXLIFT
 62
27
 10
4566.416
 20
-8530.894
 30
-228.000
 70
    32
  0
VERTEX
  8
E56LXLIFT
 62
27
 10
4556.516
 20
-8520.293
 30
-228.000
 70
    32
  0
VERTEX
  8
E56LXLIFT
 62
27
 10
4547.803
 20
-8510.131
 30
-228.000
 70
    32
  0
VERTEX
  8
E56LXLIFT
 62
27
 10
4543.414
 20
-8499.640
 30
-228.000
 70
    32
  0
VERTEX
  8
E56LXLIFT
 62
27
 10
4545.010
 20
-8489.459
 30
-228.000
 70
    32
  0
VERTEX
  8
E56LXLIFT
 62
27
 10
4552.416
 20
-8480.692
 30
-228.000
 70
    32
  0
VERTEX
  8
E56LXLIFT
 62
27
 10
4564.247
 20
-8474.565
 30
-228.000
 70
    32
  0
VERTEX
  8
E56LXLIFT
 62
27
 10
4569.996
 20
-8466.355
 30
-228.000
 70
    32
  0
VERTEX
  8
E56LXLIFT
 62
27
 10
4578.099
 20
-8463.163
 30
-228.000
 70
    32
  0
SEQEND
  8
E56LXLIFT
  0
POLYLINE
  8
E56LXLIFT
 62
3
 66
     1
 70
     9
  0
VERTEX
  8
E56LXLIFT
 62
3
 10
5757.664
 20
-10003.118
 30
-359.000
 70
    32
  0
VERTEX
  8
E56LXLIFT
 62
3
 10
5750.404
 20
-10016.089
 30
-359.000
 70
    32
  0
VERTEX
  8
E56LXLIFT
 62
3
 10
5748.247
 20
-10021.166
 30
-359.000
 70
    32
  0
VERTEX
  8
E56LXLIFT
 62
3
 10
5764.384
 20
-10048.455
 30
-359.000
 70
    32
  0
VERTEX
  8
E56LXLIFT
 62
3
 10
5768.452
 20
-10064.224
 30
-359.000
 70
    32
  0
VERTEX
  8
E56LXLIFT
 62
3
 10
5776.945
 20
-10087.644
 30
-359.000
 70
    32
  0
VERTEX
  8
E56LXLIFT
 62
3
 10
5781.454
 20
-10101.343
 30
-359.000
 70
    32
  0
VERTEX
  8
E56LXLIFT
 62
3
 10
5801.285
 20
-10097.016
 30
-359.000
 70
    32
  0
VERTEX
  8
E56LXLIFT
 62
3
 10
5798.167
 20
-10084.912
 30
-359.000
 70
    32
  0
VERTEX
  8
E56LXLIFT
 62
3
 10
5790.676
 20
-10070.570
 30
-359.000
 70
    32
  0
VERTEX
  8
E56LXLIFT
 62
3
 10
5786.567
 20
-10055.486
 30
-359.000
 70
    32
  0
VERTEX
  8
E56LXLIFT
 62
3
 10
5777.606
 20
-10040.479
 30
-359.000
 70
    32
  0
VERTEX
  8
E56LXLIFT
 62
3
 10
5773.722
 20
-10023.922
 30
-359.000
 70
    32
  0
VERTEX
  8
E56LXLIFT
 62
3
 10
5764.231
 20
-10000.035
 30
-359.000
 70
    32
  0
SEQEND
  8
E56LXLIFT
  0
POLYLINE
  8
E56LXLIFT
 62
6
 66
     1
 70
     9
  0
VERTEX
  8
E56LXLIFT
 62
6
 10
5851.231
 20
-9881.759
 30
-358.000
 70
    32
  0
VERTEX
  8
E56LXLIFT
 62
6
 10
5846.423
 20
-9858.901
 30
-358.000
 70
    32
  0
VERTEX
  8
E56LXLIFT
 62
6
 10
5845.268
 20
-9849.171
 30
-358.000
 70
    32
  0
VERTEX
  8
E56LXLIFT
 62
6
 10
5852.641
 20
-9840.805
 30
-358.000
 70
    32
  0
VERTEX
  8
E56LXLIFT
 62
6
 10
5861.781
 20
-9831.578
 30
-358.000
 70
    32
  0
VERTEX
  8
E56LXLIFT
 62
6
 10
5867.913
 20
-9816.926
 30
-358.000
 70
    32
  0
VERTEX
  8
E56LXLIFT
 62
6
 10
5864.302
 20
-9806.821
 30
-358.000
 70
    32
  0
VERTEX
  8
E56LXLIFT
 62
6
 10
5853.197
 20
-9808.332
 30
-358.000
 70
    32
  0
VERTEX
  8
E56LXLIFT
 62
6
 10
5848.045
 20
-9793.907
 30
-358.000
 70
    32
  0
VERTEX
  8
E56LXLIFT
 62
6
 10
5845.849
 20
-9786.469
 30
-358.000
 70
    32
  0
VERTEX
  8
E56LXLIFT
 62
6
 10
5833.723
 20
-9771.608
 30
-358.000
 70
    32
  0
VERTEX
  8
E56LXLIFT
 62
6
 10
5826.690
 20
-9768.272
 30
-358.000
 70
    32
  0
VERTEX
  8
E56LXLIFT
 62
6
 10
5816.168
 20
-9775.026
 30
-358.000
 70
    32
  0
VERTEX
  8
E56LXLIFT
 62
6
 10
5804.582
 20
-9788.342
 30
-358.000
 70
    32
  0
VERTEX
  8
E56LXLIFT
 62
6
 10
5807.986
 20
-9798.164
 30
-358.000
 70
    32
  0
VERTEX
  8
E56LXLIFT
 62
6
 10
5814.477
 20
-9810.405
 30
-358.000
 70
    32
  0
VERTEX
  8
E56LXLIFT
 62
6
 10
5823.766
 20
-9835.205
 30
-358.000
 70
    32
  0
VERTEX
  8
E56LXLIFT
 62
6
 10
5816.064
 20
-9844.903
 30
-358.000
 70
    32
  0
VERTEX
  8
E56LXLIFT
 62
6
 10
5826.277
 20
-9844.701
 30
-358.000
 70
    32
  0
VERTEX
  8
E56LXLIFT
 62
6
 10
5834.414
 20
-9870.456
 30
-358.000
 70
    32
  0
VERTEX
  8
E56LXLIFT
 62
6
 10
5838.001
 20
-9883.197
 30
-358.000
 70
    32
  0
SEQEND
  8
E56LXLIFT
  0
POLYLINE
  8
E56LXLIFT
 62
4
 66
     1
 70
     9
  0
VERTEX
  8
E56LXLIFT
 62
4
 10
5825.910
 20
-9568.278
 30
-354.000
 70
    32
  0
VERTEX
  8
E56LXLIFT
 62
4
 10
5815.643
 20
-9563.066
 30
-354.000
 70
    32
  0
VERTEX
  8
E56LXLIFT
 62
4
 10
5806.330
 20
-9557.371
 30
-354.000
 70
    32
  0
VERTEX
  8
E56LXLIFT
 62
4
 10
5798.540
 20
-9557.753
 30
-354.000
 70
    32
  0
VERTEX
  8
E56LXLIFT
 62
4
 10
5792.240
 20
-9551.261
 30
-354.000
 70
    32
  0
VERTEX
  8
E56LXLIFT
 62
4
 10
5800.146
 20
-9545.993
 30
-354.000
 70
    32
  0
VERTEX
  8
E56LXLIFT
 62
4
 10
5809.493
 20
-9544.466
 30
-354.000
 70
    32
  0
VERTEX
  8
E56LXLIFT
 62
4
 10
5807.324
 20
-9536.027
 30
-354.000
 70
    32
  0
VERTEX
  8
E56LXLIFT
 62
4
 10
5802.808
 20
-9528.549
 30
-354.000
 70
    32
  0
VERTEX
  8
E56LXLIFT
 62
4
 10
5809.161
 20
-9523.988
 30
-354.000
 70
    32
  0
VERTEX
  8
E56LXLIFT
 62
4
 10
5818.473
 20
-9524.340
 30
-354.000
 70
    32
  0
VERTEX
  8
E56LXLIFT
 62
4
 10
5822.999
 20
-9525.157
 30
-354.000
 70
    32
  0
VERTEX
  8
E56LXLIFT
 62
4
 10
5828.575
 20
-9526.510
 30
-354.000
 70
    32
  0
VERTEX
  8
E56LXLIFT
 62
4
 10
5833.339
 20
-9531.951
 30
-354.000
 70
    32
  0
VERTEX
  8
E56LXLIFT
 62
4
 10
5836.457
 20
-9544.055
 30
-354.000
 70
    32
  0
VERTEX
  8
E56LXLIFT
 62
4
 10
5835.224
 20
-9555.432
 30
-354.000
 70
    32
  0
VERTEX
  8
E56LXLIFT
 62
4
 10
5834.692
 20
-9561.385
 30
-354.000
 70
    32
  0
SEQEND
  8
E56LXLIFT
  0
POLYLINE
  8
E56LXLIFT
 62
6
 66
     1
 70
     9
  0
VERTEX
  8
E56LXLIFT
 62
6
 10
5841.058
 20
-9846.654
 30
-348.000
 70
    32
  0
VERTEX
  8
E56LXLIFT
 62
6
 10
5831.638
 20
-9844.915
 30
-348.000
 70
    32
  0
VERTEX
  8
E56LXLIFT
 62
6
 10
5824.399
 20
-9832.439
 30
-348.000
 70
    32
  0
VERTEX
  8
E56LXLIFT
 62
6
 10
5813.887
 20
-9810.887
 30
-348.000
 70
    32
  0
VERTEX
  8
E56LXLIFT
 62
6
 10
5807.218
 20
-9793.596
 30
-348.000
 70
    32
  0
VERTEX
  8
E56LXLIFT
 62
6
 10
5803.511
 20
-9781.882
 30
-348.000
 70
    32
  0
VERTEX
  8
E56LXLIFT
 62
6
 10
5806.475
 20
-9775.277
 30
-348.000
 70
    32
  0
VERTEX
  8
E56LXLIFT
 62
6
 10
5822.650
 20
-9763.737
 30
-348.000
 70
    32
  0
VERTEX
  8
E56LXLIFT
 62
6
 10
5820.729
 20
-9756.174
 30
-348.000
 70
    32
  0
VERTEX
  8
E56LXLIFT
 62
6
 10
5815.473
 20
-9745.178
 30
-348.000
 70
    32
  0
VERTEX
  8
E56LXLIFT
 62
6
 10
5813.303
 20
-9739.338
 30
-348.000
 70
    32
  0
VERTEX
  8
E56LXLIFT
 62
6
 10
5819.018
 20
-9738.469
 30
-348.000
 70
    32
  0
VERTEX
  8
E56LXLIFT
 62
6
 10
5823.769
 20
-9746.440
 30
-348.000
 70
    32
  0
VERTEX
  8
E56LXLIFT
 62
6
 10
5828.654
 20
-9757.822
 30
-348.000
 70
    32
  0
VERTEX
  8
E56LXLIFT
 62
6
 10
5826.813
 20
-9765.783
 30
-348.000
 70
    32
  0
VERTEX
  8
E56LXLIFT
 62
6
 10
5830.761
 20
-9780.609
 30
-348.000
 70
    32
  0
VERTEX
  8
E56LXLIFT
 62
6
 10
5833.214
 20
-9796.223
 30
-348.000
 70
    32
  0
VERTEX
  8
E56LXLIFT
 62
6
 10
5838.942
 20
-9808.292
 30
-348.000
 70
    32
  0
VERTEX
  8
E56LXLIFT
 62
6
 10
5844.595
 20
-9812.626
 30
-348.000
 70
    32
  0
VERTEX
  8
E56LXLIFT
 62
6
 10
5857.397
 20
-9810.081
 30
-348.000
 70
    32
  0
VERTEX
  8
E56LXLIFT
 62
6
 10
5863.322
 20
-9809.933
 30
-348.000
 70
    32
  0
VERTEX
  8
E56LXLIFT
 62
6
 10
5864.646
 20
-9816.843
 30
-348.000
 70
    32
  0
VERTEX
  8
E56LXLIFT
 62
6
 10
5859.382
 20
-9821.546
 30
-348.000
 70
    32
  0
VERTEX
  8
E56LXLIFT
 62
6
 10
5850.179
 20
-9826.998
 30
-348.000
 70
    32
  0
VERTEX
  8
E56LXLIFT
 62
6
 10
5844.934
 20
-9830.698
 30
-348.000
 70
    32
  0
VERTEX
  8
E56LXLIFT
 62
6
 10
5840.744
 20
-9834.488
 30
-348.000
 70
    32
  0
SEQEND
  8
E56LXLIFT
  0
POLYLINE
  8
E56LXLIFT
 62
4
 66
     1
 70
     9
  0
VERTEX
  8
E56LXLIFT
 62
4
 10
5800.032
 20
-9549.213
 30
-345.000
 70
    32
  0
VERTEX
  8
E56LXLIFT
 62
4
 10
5810.950
 20
-9558.830
 30
-345.000
 70
    32
  0
VERTEX
  8
E56LXLIFT
 62
4
 10
5820.954
 20
-9558.267
 30
-345.000
 70
    32
  0
VERTEX
  8
E56LXLIFT
 62
4
 10
5820.698
 20
-9563.944
 30
-345.000
 70
    32
  0
VERTEX
  8
E56LXLIFT
 62
4
 10
5824.066
 20
-9568.450
 30
-345.000
 70
    32
  0
VERTEX
  8
E56LXLIFT
 62
4
 10
5829.945
 20
-9563.837
 30
-345.000
 70
    32
  0
VERTEX
  8
E56LXLIFT
 62
4
 10
5829.824
 20
-9552.515
 30
-345.000
 70
    32
  0
VERTEX
  8
E56LXLIFT
 62
4
 10
5831.991
 20
-9538.825
 30
-345.000
 70
    32
  0
VERTEX
  8
E56LXLIFT
 62
4
 10
5830.185
 20
-9525.250
 30
-345.000
 70
    32
  0
VERTEX
  8
E56LXLIFT
 62
4
 10
5825.069
 20
-9515.028
 30
-345.000
 70
    32
  0
VERTEX
  8
E56LXLIFT
 62
4
 10
5818.256
 20
-9510.903
 30
-345.000
 70
    32
  0
VERTEX
  8
E56LXLIFT
 62
4
 10
5810.796
 20
-9514.284
 30
-345.000
 70
    32
  0
VERTEX
  8
E56LXLIFT
 62
4
 10
5803.034
 20
-9520.195
 30
-345.000
 70
    32
  0
VERTEX
  8
E56LXLIFT
 62
4
 10
5801.184
 20
-9533.429
 30
-345.000
 70
    32
  0
SEQEND
  8
E56LXLIFT
  0
POLYLINE
  8
E56LXLIFT
 62
6
 66
     1
 70
     9
  0
VERTEX
  8
E56LXLIFT
 62
6
 10
5820.041
 20
-9866.368
 30
-337.000
 70
    32
  0
VERTEX
  8
E56LXLIFT
 62
6
 10
5815.730
 20
-9863.665
 30
-337.000
 70
    32
  0
VERTEX
  8
E56LXLIFT
 62
6
 10
5813.556
 20
-9857.509
 30
-337.000
 70
    32
  0
VERTEX
  8
E56LXLIFT
 62
6
 10
5818.267
 20
-9841.629
 30
-337.000
 70
    32
  0
VERTEX
  8
E56LXLIFT
 62
6
 10
5823.586
 20
-9837.889
 30
-337.000
 70
    32
  0
VERTEX
  8
E56LXLIFT
 62
6
 10
5821.862
 20
-9828.661
 30
-337.000
 70
    32
  0
VERTEX
  8
E56LXLIFT
 62
6
 10
5823.785
 20
-9821.536
 30
-337.000
 70
    32
  0
VERTEX
  8
E56LXLIFT
 62
6
 10
5830.972
 20
-9815.747
 30
-337.000
 70
    32
  0
VERTEX
  8
E56LXLIFT
 62
6
 10
5840.263
 20
-9816.167
 30
-337.000
 70
    32
  0
VERTEX
  8
E56LXLIFT
 62
6
 10
5850.037
 20
-9814.147
 30
-337.000
 70
    32
  0
VERTEX
  8
E56LXLIFT
 62
6
 10
5859.689
 20
-9811.669
 30
-337.000
 70
    32
  0
VERTEX
  8
E56LXLIFT
 62
6
 10
5863.437
 20
-9814.792
 30
-337.000
 70
    32
  0
VERTEX
  8
E56LXLIFT
 62
6
 10
5858.547
 20
-9821.607
 30
-337.000
 70
    32
  0
VERTEX
  8
E56LXLIFT
 62
6
 10
5848.176
 20
-9828.562
 30
-337.000
 70
    32
  0
VERTEX
  8
E56LXLIFT
 62
6
 10
5840.664
 20
-9836.562
 30
-337.000
 70
    32
  0
VERTEX
  8
E56LXLIFT
 62
6
 10
5838.388
 20
-9844.388
 30
-337.000
 70
    32
  0
VERTEX
  8
E56LXLIFT
 62
6
 10
5837.824
 20
-9849.955
 30
-337.000
 70
    32
  0
VERTEX
  8
E56LXLIFT
 62
6
 10
5831.711
 20
-9854.834
 30
-337.000
 70
    32
  0
SEQEND
  8
E56LXLIFT
  0
POLYLINE
  8
E56LXLIFT
 62
4
 66
     1
 70
     9
  0
VERTEX
  8
E56LXLIFT
 62
4
 10
5794.569
 20
-9566.377
 30
-336.000
 70
    32
  0
VERTEX
  8
E56LXLIFT
 62
4
 10
5806.184
 20
-9560.359
 30
-336.000
 70
    32
  0
VERTEX
  8
E56LXLIFT
 62
4
 10
5811.753
 20
-9555.337
 30
-336.000
 70
    32
  0
VERTEX
  8
E56LXLIFT
 62
4
 10
5814.470
 20
-9556.928
 30
-336.000
 70
    32
  0
VERTEX
  8
E56LXLIFT
 62
4
 10
5813.260
 20
-9566.040
 30
-336.000
 70
    32
  0
VERTEX
  8
E56LXLIFT
 62
4
 10
5815.740
 20
-9570.107
 30
-336.000
 70
    32
  0
VERTEX
  8
E56LXLIFT
 62
4
 10
5823.698
 20
-9565.058
 30
-336.000
 70
    32
  0
VERTEX
  8
E56LXLIFT
 62
4
 10
5829.282
 20
-9555.646
 30
-336.000
 70
    32
  0
VERTEX
  8
E56LXLIFT
 62
4
 10
5828.467
 20
-9542.785
 30
-336.000
 70
    32
  0
VERTEX
  8
E56LXLIFT
 62
4
 10
5821.737
 20
-9528.743
 30
-336.000
 70
    32
  0
VERTEX
  8
E56LXLIFT
 62
4
 10
5818.300
 20
-9522.214
 30
-336.000
 70
    32
  0
VERTEX
  8
E56LXLIFT
 62
4
 10
5808.650
 20
-9519.105
 30
-336.000
 70
    32
  0
VERTEX
  8
E56LXLIFT
 62
4
 10
5795.402
 20
-9529.844
 30
-336.000
 70
    32
  0
VERTEX
  8
E56LXLIFT
 62
4
 10
5799.685
 20
-9540.451
 30
-336.000
 70
    32
  0
VERTEX
  8
E56LXLIFT
 62
4
 10
5798.914
 20
-9550.004
 30
-336.000
 70
    32
  0
VERTEX
  8
E56LXLIFT
 62
4
 10
5789.908
 20
-9558.351
 30
-336.000
 70
    32
  0
SEQEND
  8
E56LXLIFT
  0
POLYLINE
  8
E56LXLIFT
 62
6
 66
     1
 70
     9
  0
VERTEX
  8
E56LXLIFT
 62
6
 10
5818.309
 20
-9881.158
 30
-327.000
 70
    32
  0
VERTEX
  8
E56LXLIFT
 62
6
 10
5824.203
 20
-9870.386
 30
-327.000
 70
    32
  0
VERTEX
  8
E56LXLIFT
 62
6
 10
5828.740
 20
-9861.176
 30
-327.000
 70
    32
  0
VERTEX
  8
E56LXLIFT
 62
6
 10
5840.744
 20
-9846.826
 30
-327.000
 70
    32
  0
VERTEX
  8
E56LXLIFT
 62
6
 10
5841.004
 20
-9828.955
 30
-327.000
 70
    32
  0
VERTEX
  8
E56LXLIFT
 62
6
 10
5852.057
 20
-9825.527
 30
-327.000
 70
    32
  0
VERTEX
  8
E56LXLIFT
 62
6
 10
5859.560
 20
-9820.140
 30
-327.000
 70
    32
  0
VERTEX
  8
E56LXLIFT
 62
6
 10
5865.678
 20
-9812.165
 30
-327.000
 70
    32
  0
VERTEX
  8
E56LXLIFT
 62
6
 10
5860.446
 20
-9806.632
 30
-327.000
 70
    32
  0
VERTEX
  8
E56LXLIFT
 62
6
 10
5854.278
 20
-9813.218
 30
-327.000
 70
    32
  0
VERTEX
  8
E56LXLIFT
 62
6
 10
5845.193
 20
-9817.810
 30
-327.000
 70
    32
  0
VERTEX
  8
E56LXLIFT
 62
6
 10
5833.604
 20
-9816.260
 30
-327.000
 70
    32
  0
VERTEX
  8
E56LXLIFT
 62
6
 10
5821.542
 20
-9813.635
 30
-327.000
 70
    32
  0
VERTEX
  8
E56LXLIFT
 62
6
 10
5816.354
 20
-9812.571
 30
-327.000
 70
    32
  0
VERTEX
  8
E56LXLIFT
 62
6
 10
5814.461
 20
-9819.146
 30
-327.000
 70
    32
  0
VERTEX
  8
E56LXLIFT
 62
6
 10
5822.863
 20
-9822.309
 30
-327.000
 70
    32
  0
VERTEX
  8
E56LXLIFT
 62
6
 10
5818.058
 20
-9833.805
 30
-327.000
 70
    32
  0
VERTEX
  8
E56LXLIFT
 62
6
 10
5815.198
 20
-9850.106
 30
-327.000
 70
    32
  0
VERTEX
  8
E56LXLIFT
 62
6
 10
5812.016
 20
-9868.623
 30
-327.000
 70
    32
  0
VERTEX
  8
E56LXLIFT
 62
6
 10
5807.800
 20
-9875.616
 30
-327.000
 70
    32
  0
SEQEND
  8
E56LXLIFT
  0
POLYLINE
  8
E56LXLIFT
 62
4
 66
     1
 70
     9
  0
VERTEX
  8
E56LXLIFT
 62
4
 10
5813.923
 20
-9524.862
 30
-327.000
 70
    32
  0
VERTEX
  8
E56LXLIFT
 62
4
 10
5819.482
 20
-9534.212
 30
-327.000
 70
    32
  0
VERTEX
  8
E56LXLIFT
 62
4
 10
5826.084
 20
-9541.136
 30
-327.000
 70
    32
  0
VERTEX
  8
E56LXLIFT
 62
4
 10
5830.840
 20
-9557.345
 30
-327.000
 70
    32
  0
VERTEX
  8
E56LXLIFT
 62
4
 10
5829.228
 20
-9564.150
 30
-327.000
 70
    32
  0
VERTEX
  8
E56LXLIFT
 62
4
 10
5824.122
 20
-9566.867
 30
-327.000
 70
    32
  0
VERTEX
  8
E56LXLIFT
 62
4
 10
5817.224
 20
-9558.078
 30
-327.000
 70
    32
  0
VERTEX
  8
E56LXLIFT
 62
4
 10
5816.837
 20
-9558.147
 30
-327.000
 70
    32
  0
VERTEX
  8
E56LXLIFT
 62
4
 10
5806.421
 20
-9559.783
 30
-327.000
 70
    32
  0
VERTEX
  8
E56LXLIFT
 62
4
 10
5798.878
 20
-9557.623
 30
-327.000
 70
    32
  0
VERTEX
  8
E56LXLIFT
 62
4
 10
5793.580
 20
-9549.505
 30
-327.000
 70
    32
  0
VERTEX
  8
E56LXLIFT
 62
4
 10
5794.069
 20
-9541.784
 30
-327.000
 70
    32
  0
VERTEX
  8
E56LXLIFT
 62
4
 10
5796.642
 20
-9529.211
 30
-327.000
 70
    32
  0
VERTEX
  8
E56LXLIFT
 62
4
 10
5800.250
 20
-9527.723
 30
-327.000
 70
    32
  0
SEQEND
  8
E56LXLIFT
  0
POLYLINE
  8
E56LXLIFT
 62
6
 66
     1
 70
     9
  0
VERTEX
  8
E56LXLIFT
 62
6
 10
5814.386
 20
-9809.831
 30
-317.000
 70
    32
  0
VERTEX
  8
E56LXLIFT
 62
6
 10
5819.540
 20
-9826.644
 30
-317.000
 70
    32
  0
VERTEX
  8
E56LXLIFT
 62
6
 10
5820.534
 20
-9835.140
 30
-317.000
 70
    32
  0
VERTEX
  8
E56LXLIFT
 62
6
 10
5819.855
 20
-9860.738
 30
-317.000
 70
    32
  0
VERTEX
  8
E56LXLIFT
 62
6
 10
5820.222
 20
-9893.583
 30
-317.000
 70
    32
  0
VERTEX
  8
E56LXLIFT
 62
6
 10
5828.714
 20
-9888.192
 30
-317.000
 70
    32
  0
VERTEX
  8
E56LXLIFT
 62
6
 10
5831.200
 20
-9876.420
 30
-317.000
 70
    32
  0
VERTEX
  8
E56LXLIFT
 62
6
 10
5833.105
 20
-9863.435
 30
-317.000
 70
    32
  0
VERTEX
  8
E56LXLIFT
 62
6
 10
5838.670
 20
-9851.220
 30
-317.000
 70
    32
  0
VERTEX
  8
E56LXLIFT
 62
6
 10
5839.643
 20
-9839.485
 30
-317.000
 70
    32
  0
VERTEX
  8
E56LXLIFT
 62
6
 10
5851.809
 20
-9830.342
 30
-317.000
 70
    32
  0
VERTEX
  8
E56LXLIFT
 62
6
 10
5859.119
 20
-9821.767
 30
-317.000
 70
    32
  0
VERTEX
  8
E56LXLIFT
 62
6
 10
5860.359
 20
-9813.022
 30
-317.000
 70
    32
  0
VERTEX
  8
E56LXLIFT
 62
6
 10
5851.488
 20
-9808.246
 30
-317.000
 70
    32
  0
VERTEX
  8
E56LXLIFT
 62
6
 10
5840.421
 20
-9807.430
 30
-317.000
 70
    32
  0
VERTEX
  8
E56LXLIFT
 62
6
 10
5829.533
 20
-9808.901
 30
-317.000
 70
    32
  0
VERTEX
  8
E56LXLIFT
 62
6
 10
5820.926
 20
-9805.356
 30
-317.000
 70
    32
  0
SEQEND
  8
E56LXLIFT
  0
POLYLINE
  8
E56LXLIFT
 62
7
 66
     1
 70
     9
  0
VERTEX
  8
E56LXLIFT
 62
7
 10
5703.363
 20
-9778.062
 30
-318.000
 70
    32
  0
VERTEX
  8
E56LXLIFT
 62
7
 10
5704.271
 20
-9753.502
 30
-318.000
 70
    32
  0
VERTEX
  8
E56LXLIFT
 62
7
 10
5707.367
 20
-9734.780
 30
-318.000
 70
    32
  0
VERTEX
  8
E56LXLIFT
 62
7
 10
5715.228
 20
-9731.624
 30
-318.000
 70
    32
  0
VERTEX
  8
E56LXLIFT
 62
7
 10
5722.179
 20
-9733.552
 30
-318.000
 70
    32
  0
VERTEX
  8
E56LXLIFT
 62
7
 10
5726.795
 20
-9740.426
 30
-318.000
 70
    32
  0
VERTEX
  8
E56LXLIFT
 62
7
 10
5725.103
 20
-9755.452
 30
-318.000
 70
    32
  0
VERTEX
  8
E56LXLIFT
 62
7
 10
5729.925
 20
-9775.045
 30
-318.000
 70
    32
  0
VERTEX
  8
E56LXLIFT
 62
7
 10
5734.406
 20
-9805.459
 30
-318.000
 70
    32
  0
VERTEX
  8
E56LXLIFT
 62
7
 10
5730.044
 20
-9806.536
 30
-318.000
 70
    32
  0
VERTEX
  8
E56LXLIFT
 62
7
 10
5729.478
 20
-9803.000
 30
-318.000
 70
    32
  0
VERTEX
  8
E56LXLIFT
 62
7
 10
5722.809
 20
-9802.180
 30
-318.000
 70
    32
  0
VERTEX
  8
E56LXLIFT
 62
7
 10
5713.847
 20
-9794.941
 30
-318.000
 70
    32
  0
SEQEND
  8
E56LXLIFT
  0
POLYLINE
  8
E56LXLIFT
 62
4
 66
     1
 70
     9
  0
VERTEX
  8
E56LXLIFT
 62
4
 10
5819.551
 20
-9516.557
 30
-317.000
 70
    32
  0
VERTEX
  8
E56LXLIFT
 62
4
 10
5817.202
 20
-9525.144
 30
-317.000
 70
    32
  0
VERTEX
  8
E56LXLIFT
 62
4
 10
5820.254
 20
-9533.744
 30
-317.000
 70
    32
  0
VERTEX
  8
E56LXLIFT
 62
4
 10
5825.241
 20
-9542.430
 30
-317.000
 70
    32
  0
VERTEX
  8
E56LXLIFT
 62
4
 10
5827.014
 20
-9556.062
 30
-317.000
 70
    32
  0
VERTEX
  8
E56LXLIFT
 62
4
 10
5827.252
 20
-9565.017
 30
-317.000
 70
    32
  0
VERTEX
  8
E56LXLIFT
 62
4
 10
5822.471
 20
-9569.490
 30
-317.000
 70
    32
  0
VERTEX
  8
E56LXLIFT
 62
4
 10
5816.888
 20
-9563.672
 30
-317.000
 70
    32
  0
VERTEX
  8
E56LXLIFT
 62
4
 10
5810.112
 20
-9560.952
 30
-317.000
 70
    32
  0
VERTEX
  8
E56LXLIFT
 62
4
 10
5802.256
 20
-9550.351
 30
-317.000
 70
    32
  0
VERTEX
  8
E56LXLIFT
 62
4
 10
5794.191
 20
-9542.988
 30
-317.000
 70
    32
  0
VERTEX
  8
E56LXLIFT
 62
4
 10
5794.147
 20
-9533.558
 30
-317.000
 70
    32
  0
VERTEX
  8
E56LXLIFT
 62
4
 10
5795.387
 20
-9524.814
 30
-317.000
 70
    32
  0
VERTEX
  8
E56LXLIFT
 62
4
 10
5809.117
 20
-9514.825
 30
-317.000
 70
    32
  0
SEQEND
  8
E56LXLIFT
  0
POLYLINE
  8
E56LXLIFT
 62
6
 66
     1
 70
     9
  0
VERTEX
  8
E56LXLIFT
 62
6
 10
5855.965
 20
-9812.169
 30
-307.000
 70
    32
  0
VERTEX
  8
E56LXLIFT
 62
6
 10
5858.768
 20
-9818.526
 30
-307.000
 70
    32
  0
VERTEX
  8
E56LXLIFT
 62
6
 10
5853.041
 20
-9831.958
 30
-307.000
 70
    32
  0
VERTEX
  8
E56LXLIFT
 62
6
 10
5847.749
 20
-9842.316
 30
-307.000
 70
    32
  0
VERTEX
  8
E56LXLIFT
 62
6
 10
5844.214
 20
-9852.670
 30
-307.000
 70
    32
  0
VERTEX
  8
E56LXLIFT
 62
6
 10
5838.232
 20
-9859.918
 30
-307.000
 70
    32
  0
VERTEX
  8
E56LXLIFT
 62
6
 10
5832.687
 20
-9877.831
 30
-307.000
 70
    32
  0
VERTEX
  8
E56LXLIFT
 62
6
 10
5829.163
 20
-9895.654
 30
-307.000
 70
    32
  0
VERTEX
  8
E56LXLIFT
 62
6
 10
5826.538
 20
-9903.126
 30
-307.000
 70
    32
  0
VERTEX
  8
E56LXLIFT
 62
6
 10
5811.320
 20
-9902.479
 30
-307.000
 70
    32
  0
VERTEX
  8
E56LXLIFT
 62
6
 10
5813.723
 20
-9887.259
 30
-307.000
 70
    32
  0
VERTEX
  8
E56LXLIFT
 62
6
 10
5817.195
 20
-9869.366
 30
-307.000
 70
    32
  0
VERTEX
  8
E56LXLIFT
 62
6
 10
5819.898
 20
-9854.690
 30
-307.000
 70
    32
  0
VERTEX
  8
E56LXLIFT
 62
6
 10
5821.391
 20
-9842.353
 30
-307.000
 70
    32
  0
VERTEX
  8
E56LXLIFT
 62
6
 10
5820.214
 20
-9829.826
 30
-307.000
 70
    32
  0
VERTEX
  8
E56LXLIFT
 62
6
 10
5818.899
 20
-9819.162
 30
-307.000
 70
    32
  0
VERTEX
  8
E56LXLIFT
 62
6
 10
5824.807
 20
-9809.770
 30
-307.000
 70
    32
  0
VERTEX
  8
E56LXLIFT
 62
6
 10
5833.418
 20
-9810.109
 30
-307.000
 70
    32
  0
SEQEND
  8
E56LXLIFT
  0
POLYLINE
  8
E56LXLIFT
 62
1
 66
     1
 70
     9
  0
VERTEX
  8
E56LXLIFT
 62
1
 10
5758.305
 20
-9801.608
 30
-291.000
 70
    32
  0
VERTEX
  8
E56LXLIFT
 62
1
 10
5751.998
 20
-9839.993
 30
-291.000
 70
    32
  0
VERTEX
  8
E56LXLIFT
 62
1
 10
5750.859
 20
-9867.565
 30
-291.000
 70
    32
  0
VERTEX
  8
E56LXLIFT
 62
1
 10
5745.506
 20
-9896.987
 30
-291.000
 70
    32
  0
VERTEX
  8
E56LXLIFT
 62
1
 10
5745.442
 20
-9926.718
 30
-291.000
 70
    32
  0
VERTEX
  8
E56LXLIFT
 62
1
 10
5744.951
 20
-9939.950
 30
-291.000
 70
    32
  0
VERTEX
  8
E56LXLIFT
 62
1
 10
5742.482
 20
-9945.436
 30
-291.000
 70
    32
  0
VERTEX
  8
E56LXLIFT
 62
1
 10
5736.350
 20
-9946.200
 30
-291.000
 70
    32
  0
VERTEX
  8
E56LXLIFT
 62
1
 10
5728.838
 20
-9939.868
 30
-291.000
 70
    32
  0
VERTEX
  8
E56LXLIFT
 62
1
 10
5728.028
 20
-9926.075
 30
-291.000
 70
    32
  0
VERTEX
  8
E56LXLIFT
 62
1
 10
5725.638
 20
-9913.251
 30
-291.000
 70
    32
  0
VERTEX
  8
E56LXLIFT
 62
1
 10
5722.884
 20
-9903.889
 30
-291.000
 70
    32
  0
VERTEX
  8
E56LXLIFT
 62
1
 10
5725.214
 20
-9886.525
 30
-291.000
 70
    32
  0
VERTEX
  8
E56LXLIFT
 62
1
 10
5725.224
 20
-9868.708
 30
-291.000
 70
    32
  0
VERTEX
  8
E56LXLIFT
 62
1
 10
5720.010
 20
-9859.876
 30
-291.000
 70
    32
  0
VERTEX
  8
E56LXLIFT
 62
1
 10
5709.513
 20
-9842.267
 30
-291.000
 70
    32
  0
VERTEX
  8
E56LXLIFT
 62
1
 10
5705.085
 20
-9830.096
 30
-291.000
 70
    32
  0
VERTEX
  8
E56LXLIFT
 62
1
 10
5708.270
 20
-9820.445
 30
-291.000
 70
    32
  0
VERTEX
  8
E56LXLIFT
 62
1
 10
5725.136
 20
-9806.329
 30
-291.000
 70
    32
  0
VERTEX
  8
E56LXLIFT
 62
1
 10
5733.947
 20
-9799.042
 30
-291.000
 70
    32
  0
SEQEND
  8
E56LXLIFT
  0
POLYLINE
  8
E56LXLIFT
 62
13
 66
     1
 70
     9
  0
VERTEX
  8
E56LXLIFT
 62
13
 10
5757.305
 20
-9802.608
 30
-301.000
 70
    32
  0
VERTEX
  8
E56LXLIFT
 62
13
 10
5750.998
 20
-9840.993
 30
-301.000
 70
    32
  0
VERTEX
  8
E56LXLIFT
 62
13
 10
5749.859
 20
-9868.565
 30
-301.000
 70
    32
  0
VERTEX
  8
E56LXLIFT
 62
13
 10
5744.506
 20
-9897.987
 30
-301.000
 70
    32
  0
VERTEX
  8
E56LXLIFT
 62
13
 10
5744.442
 20
-9927.718
 30
-301.000
 70
    32
  0
VERTEX
  8
E56LXLIFT
 62
13
 10
5743.951
 20
-9940.950
 30
-301.000
 70
    32
  0
VERTEX
  8
E56LXLIFT
 62
13
 10
5741.482
 20
-9946.436
 30
-301.000
 70
    32
  0
VERTEX
  8
E56LXLIFT
 62
13
 10
5735.350
 20
-9947.200
 30
-301.000
 70
    32
  0
VERTEX
  8
E56LXLIFT
 62
13
 10
5727.838
 20
-9940.868
 30
-301.000
 70
    32
  0
VERTEX
  8
E56LXLIFT
 62
13
 10
5727.028
 20
-9927.075
 30
-301.000
 70
    32
  0
VERTEX
  8
E56LXLIFT
 62
13
 10
5724.638
 20
-9914.251
 30
-301.000
 70
    32
  0
VERTEX
  8
E56LXLIFT
 62
13
 10
5721.884
 20
-9904.889
 30
-301.000
 70
    32
  0
VERTEX
  8
E56LXLIFT
 62
13
 10
5724.214
 20
-9887.525
 30
-301.000
 70
    32
  0
VERTEX
  8
E56LXLIFT
 62
13
 10
5724.224
 20
-9869.708
 30
-301.000
 70
    32
  0
VERTEX
  8
E56LXLIFT
 62
13
 10
5719.010
 20
-9860.876
 30
-301.000
 70
    32
  0
VERTEX
  8
E56LXLIFT
 62
13
 10
5708.513
 20
-9843.267
 30
-301.000
 70
    32
  0
VERTEX
  8
E56LXLIFT
 62
13
 10
5704.085
 20
-9831.096
 30
-301.000
 70
    32
  0
VERTEX
  8
E56LXLIFT
 62
13
 10
5707.270
 20
-9821.445
 30
-301.000
 70
    32
  0
VERTEX
  8
E56LXLIFT
 62
13
 10
5724.136
 20
-9807.329
 30
-301.000
 70
    32
  0
VERTEX
  8
E56LXLIFT
 62
13
 10
5732.947
 20
-9800.042
 30
-301.000
 70
    32
  0
SEQEND
  8
E56LXLIFT
  0
POLYLINE
  8
E56LXLIFT
 62
7
 66
     1
 70
     9
  0
VERTEX
  8
E56LXLIFT
 62
7
 10
5700.629
 20
-9772.131
 30
-307.000
 70
    32
  0
VERTEX
  8
E56LXLIFT
 62
7
 10
5700.947
 20
-9761.007
 30
-307.000
 70
    32
  0
VERTEX
  8
E56LXLIFT
 62
7
 10
5692.230
 20
-9747.665
 30
-307.000
 70
    32
  0
VERTEX
  8
E56LXLIFT
 62
7
 10
5701.186
 20
-9730.924
 30
-307.000
 70
    32
  0
VERTEX
  8
E56LXLIFT
 62
7
 10
5723.745
 20
-9716.923
 30
-307.000
 70
    32
  0
VERTEX
  8
E56LXLIFT
 62
7
 10
5733.631
 20
-9724.219
 30
-307.000
 70
    32
  0
VERTEX
  8
E56LXLIFT
 62
7
 10
5729.318
 20
-9730.762
 30
-307.000
 70
    32
  0
VERTEX
  8
E56LXLIFT
 62
7
 10
5727.182
 20
-9749.408
 30
-307.000
 70
    32
  0
VERTEX
  8
E56LXLIFT
 62
7
 10
5726.885
 20
-9762.605
 30
-307.000
 70
    32
  0
VERTEX
  8
E56LXLIFT
 62
7
 10
5730.291
 20
-9773.565
 30
-307.000
 70
    32
  0
VERTEX
  8
E56LXLIFT
 62
7
 10
5728.652
 20
-9782.494
 30
-307.000
 70
    32
  0
VERTEX
  8
E56LXLIFT
 62
7
 10
5722.785
 20
-9783.609
 30
-307.000
 70
    32
  0
VERTEX
  8
E56LXLIFT
 62
7
 10
5715.858
 20
-9780.684
 30
-307.000
 70
    32
  0
SEQEND
  8
E56LXLIFT
  0
POLYLINE
  8
E56LXLIFT
 62
4
 66
     1
 70
     9
  0
VERTEX
  8
E56LXLIFT
 62
4
 10
5811.280
 20
-9612.161
 30
-308.000
 70
    32
  0
VERTEX
  8
E56LXLIFT
 62
4
 10
5817.267
 20
-9608.428
 30
-308.000
 70
    32
  0
VERTEX
  8
E56LXLIFT
 62
4
 10
5821.823
 20
-9599.284
 30
-308.000
 70
    32
  0
VERTEX
  8
E56LXLIFT
 62
4
 10
5822.124
 20
-9588.284
 30
-308.000
 70
    32
  0
VERTEX
  8
E56LXLIFT
 62
4
 10
5826.572
 20
-9577.682
 30
-308.000
 70
    32
  0
VERTEX
  8
E56LXLIFT
 62
4
 10
5824.251
 20
-9564.366
 30
-308.000
 70
    32
  0
VERTEX
  8
E56LXLIFT
 62
4
 10
5817.422
 20
-9543.887
 30
-308.000
 70
    32
  0
VERTEX
  8
E56LXLIFT
 62
4
 10
5812.950
 20
-9524.933
 30
-308.000
 70
    32
  0
VERTEX
  8
E56LXLIFT
 62
4
 10
5811.196
 20
-9514.709
 30
-308.000
 70
    32
  0
VERTEX
  8
E56LXLIFT
 62
4
 10
5799.755
 20
-9513.091
 30
-308.000
 70
    32
  0
VERTEX
  8
E56LXLIFT
 62
4
 10
5790.875
 20
-9521.310
 30
-308.000
 70
    32
  0
VERTEX
  8
E56LXLIFT
 62
4
 10
5784.193
 20
-9529.964
 30
-308.000
 70
    32
  0
VERTEX
  8
E56LXLIFT
 62
4
 10
5787.511
 20
-9540.661
 30
-308.000
 70
    32
  0
VERTEX
  8
E56LXLIFT
 62
4
 10
5791.340
 20
-9552.182
 30
-308.000
 70
    32
  0
VERTEX
  8
E56LXLIFT
 62
4
 10
5795.074
 20
-9558.169
 30
-308.000
 70
    32
  0
VERTEX
  8
E56LXLIFT
 62
4
 10
5808.328
 20
-9561.612
 30
-308.000
 70
    32
  0
VERTEX
  8
E56LXLIFT
 62
4
 10
5810.535
 20
-9569.516
 30
-308.000
 70
    32
  0
VERTEX
  8
E56LXLIFT
 62
4
 10
5809.700
 20
-9587.844
 30
-308.000
 70
    32
  0
SEQEND
  8
E56LXLIFT
  0
POLYLINE
  8
E56LXLIFT
 62
11
 66
     1
 70
     9
  0
VERTEX
  8
E56LXLIFT
 62
11
 10
5720.291
 20
-9597.160
 30
-308.000
 70
    32
  0
VERTEX
  8
E56LXLIFT
 62
11
 10
5715.401
 20
-9593.143
 30
-308.000
 70
    32
  0
VERTEX
  8
E56LXLIFT
 62
11
 10
5708.590
 20
-9585.843
 30
-308.000
 70
    32
  0
VERTEX
  8
E56LXLIFT
 62
11
 10
5709.637
 20
-9580.658
 30
-308.000
 70
    32
  0
VERTEX
  8
E56LXLIFT
 62
11
 10
5714.014
 20
-9581.653
 30
-308.000
 70
    32
  0
VERTEX
  8
E56LXLIFT
 62
11
 10
5722.925
 20
-9582.976
 30
-308.000
 70
    32
  0
VERTEX
  8
E56LXLIFT
 62
11
 10
5727.691
 20
-9586.536
 30
-308.000
 70
    32
  0
VERTEX
  8
E56LXLIFT
 62
11
 10
5737.740
 20
-9585.134
 30
-308.000
 70
    32
  0
VERTEX
  8
E56LXLIFT
 62
11
 10
5741.275
 20
-9586.763
 30
-308.000
 70
    32
  0
VERTEX
  8
E56LXLIFT
 62
11
 10
5740.230
 20
-9593.706
 30
-308.000
 70
    32
  0
VERTEX
  8
E56LXLIFT
 62
11
 10
5736.705
 20
-9598.666
 30
-308.000
 70
    32
  0
VERTEX
  8
E56LXLIFT
 62
11
 10
5727.978
 20
-9602.702
 30
-308.000
 70
    32
  0
SEQEND
  8
E56LXLIFT
  0
POLYLINE
  8
E56LXLIFT
 62
6
 66
     1
 70
     9
  0
VERTEX
  8
E56LXLIFT
 62
6
 10
5820.092
 20
-9806.688
 30
-295.000
 70
    32
  0
VERTEX
  8
E56LXLIFT
 62
6
 10
5818.090
 20
-9840.031
 30
-295.000
 70
    32
  0
VERTEX
  8
E56LXLIFT
 62
6
 10
5809.195
 20
-9862.735
 30
-295.000
 70
    32
  0
VERTEX
  8
E56LXLIFT
 62
6
 10
5801.265
 20
-9874.833
 30
-295.000
 70
    32
  0
VERTEX
  8
E56LXLIFT
 62
6
 10
5803.478
 20
-9888.452
 30
-295.000
 70
    32
  0
VERTEX
  8
E56LXLIFT
 62
6
 10
5808.774
 20
-9886.764
 30
-295.000
 70
    32
  0
VERTEX
  8
E56LXLIFT
 62
6
 10
5820.310
 20
-9890.642
 30
-295.000
 70
    32
  0
VERTEX
  8
E56LXLIFT
 62
6
 10
5824.956
 20
-9882.247
 30
-295.000
 70
    32
  0
VERTEX
  8
E56LXLIFT
 62
6
 10
5833.033
 20
-9865.580
 30
-295.000
 70
    32
  0
VERTEX
  8
E56LXLIFT
 62
6
 10
5842.773
 20
-9853.576
 30
-295.000
 70
    32
  0
VERTEX
  8
E56LXLIFT
 62
6
 10
5851.714
 20
-9851.513
 30
-295.000
 70
    32
  0
VERTEX
  8
E56LXLIFT
 62
6
 10
5866.555
 20
-9857.985
 30
-295.000
 70
    32
  0
VERTEX
  8
E56LXLIFT
 62
6
 10
5874.090
 20
-9853.249
 30
-295.000
 70
    32
  0
VERTEX
  8
E56LXLIFT
 62
6
 10
5868.696
 20
-9834.225
 30
-295.000
 70
    32
  0
VERTEX
  8
E56LXLIFT
 62
6
 10
5859.481
 20
-9814.290
 30
-295.000
 70
    32
  0
VERTEX
  8
E56LXLIFT
 62
6
 10
5849.893
 20
-9812.037
 30
-295.000
 70
    32
  0
VERTEX
  8
E56LXLIFT
 62
6
 10
5833.574
 20
-9802.944
 30
-295.000
 70
    32
  0
SEQEND
  8
E56LXLIFT
  0
POLYLINE
  8
E56LXLIFT
 62
7
 66
     1
 70
     9
  0
VERTEX
  8
E56LXLIFT
 62
7
 10
5728.464
 20
-9670.829
 30
-300.000
 70
    32
  0
VERTEX
  8
E56LXLIFT
 62
7
 10
5730.807
 20
-9693.277
 30
-300.000
 70
    32
  0
VERTEX
  8
E56LXLIFT
 62
7
 10
5732.065
 20
-9712.597
 30
-300.000
 70
    32
  0
VERTEX
  8
E56LXLIFT
 62
7
 10
5727.948
 20
-9744.981
 30
-300.000
 70
    32
  0
VERTEX
  8
E56LXLIFT
 62
7
 10
5729.088
 20
-9766.674
 30
-300.000
 70
    32
  0
VERTEX
  8
E56LXLIFT
 62
7
 10
5730.901
 20
-9777.212
 30
-300.000
 70
    32
  0
VERTEX
  8
E56LXLIFT
 62
7
 10
5714.607
 20
-9775.609
 30
-300.000
 70
    32
  0
VERTEX
  8
E56LXLIFT
 62
7
 10
5707.604
 20
-9769.293
 30
-300.000
 70
    32
  0
VERTEX
  8
E56LXLIFT
 62
7
 10
5702.740
 20
-9750.101
 30
-300.000
 70
    32
  0
VERTEX
  8
E56LXLIFT
 62
7
 10
5702.888
 20
-9733.453
 30
-300.000
 70
    32
  0
VERTEX
  8
E56LXLIFT
 62
7
 10
5712.452
 20
-9721.360
 30
-300.000
 70
    32
  0
VERTEX
  8
E56LXLIFT
 62
7
 10
5714.080
 20
-9708.529
 30
-300.000
 70
    32
  0
VERTEX
  8
E56LXLIFT
 62
7
 10
5714.353
 20
-9685.044
 30
-300.000
 70
    32
  0
VERTEX
  8
E56LXLIFT
 62
7
 10
5720.248
 20
-9669.860
 30
-300.000
 70
    32
  0
SEQEND
  8
E56LXLIFT
  0
POLYLINE
  8
E56LXLIFT
 62
27
 66
     1
 70
     9
  0
VERTEX
  8
E56LXLIFT
 62
27
 10
5728.250
 20
-9581.214
 30
-297.000
 70
    32
  0
VERTEX
  8
E56LXLIFT
 62
27
 10
5715.851
 20
-9578.836
 30
-297.000
 70
    32
  0
VERTEX
  8
E56LXLIFT
 62
27
 10
5706.985
 20
-9583.238
 30
-297.000
 70
    32
  0
VERTEX
  8
E56LXLIFT
 62
27
 10
5703.187
 20
-9588.621
 30
-297.000
 70
    32
  0
VERTEX
  8
E56LXLIFT
 62
27
 10
5710.819
 20
-9596.545
 30
-297.000
 70
    32
  0
VERTEX
  8
E56LXLIFT
 62
27
 10
5718.760
 20
-9603.699
 30
-297.000
 70
    32
  0
VERTEX
  8
E56LXLIFT
 62
27
 10
5730.309
 20
-9599.842
 30
-297.000
 70
    32
  0
VERTEX
  8
E56LXLIFT
 62
27
 10
5735.185
 20
-9593.999
 30
-297.000
 70
    32
  0
SEQEND
  8
E56LXLIFT
  0
POLYLINE
  8
E56LXLIFT
 62
6
 66
     1
 70
     9
  0
VERTEX
  8
E56LXLIFT
 62
6
 10
5859.094
 20
-9817.650
 30
-285.000
 70
    32
  0
VERTEX
  8
E56LXLIFT
 62
6
 10
5860.710
 20
-9829.534
 30
-285.000
 70
    32
  0
VERTEX
  8
E56LXLIFT
 62
6
 10
5866.163
 20
-9843.139
 30
-285.000
 70
    32
  0
VERTEX
  8
E56LXLIFT
 62
6
 10
5869.530
 20
-9853.698
 30
-285.000
 70
    32
  0
VERTEX
  8
E56LXLIFT
 62
6
 10
5864.183
 20
-9859.728
 30
-285.000
 70
    32
  0
VERTEX
  8
E56LXLIFT
 62
6
 10
5858.152
 20
-9854.381
 30
-285.000
 70
    32
  0
VERTEX
  8
E56LXLIFT
 62
6
 10
5851.046
 20
-9848.195
 30
-285.000
 70
    32
  0
VERTEX
  8
E56LXLIFT
 62
6
 10
5842.869
 20
-9846.124
 30
-285.000
 70
    32
  0
VERTEX
  8
E56LXLIFT
 62
6
 10
5837.764
 20
-9843.600
 30
-285.000
 70
    32
  0
VERTEX
  8
E56LXLIFT
 62
6
 10
5834.165
 20
-9836.081
 30
-285.000
 70
    32
  0
VERTEX
  8
E56LXLIFT
 62
6
 10
5829.488
 20
-9830.921
 30
-285.000
 70
    32
  0
VERTEX
  8
E56LXLIFT
 62
6
 10
5831.003
 20
-9824.047
 30
-285.000
 70
    32
  0
VERTEX
  8
E56LXLIFT
 62
6
 10
5838.201
 20
-9819.588
 30
-285.000
 70
    32
  0
VERTEX
  8
E56LXLIFT
 62
6
 10
5848.115
 20
-9817.261
 30
-285.000
 70
    32
  0
SEQEND
  8
E56LXLIFT
  0
POLYLINE
  8
E56LXLIFT
 62
7
 66
     1
 70
     9
  0
VERTEX
  8
E56LXLIFT
 62
7
 10
5732.143
 20
-9712.081
 30
-292.000
 70
    32
  0
VERTEX
  8
E56LXLIFT
 62
7
 10
5721.215
 20
-9711.322
 30
-292.000
 70
    32
  0
VERTEX
  8
E56LXLIFT
 62
7
 10
5717.544
 20
-9715.202
 30
-292.000
 70
    32
  0
VERTEX
  8
E56LXLIFT
 62
7
 10
5717.423
 20
-9715.624
 30
-292.000
 70
    32
  0
VERTEX
  8
E56LXLIFT
 62
7
 10
5713.166
 20
-9726.006
 30
-292.000
 70
    32
  0
VERTEX
  8
E56LXLIFT
 62
7
 10
5691.953
 20
-9718.935
 30
-292.000
 70
    32
  0
VERTEX
  8
E56LXLIFT
 62
7
 10
5684.020
 20
-9716.459
 30
-292.000
 70
    32
  0
VERTEX
  8
E56LXLIFT
 62
7
 10
5683.825
 20
-9723.766
 30
-292.000
 70
    32
  0
VERTEX
  8
E56LXLIFT
 62
7
 10
5689.693
 20
-9728.025
 30
-292.000
 70
    32
  0
VERTEX
  8
E56LXLIFT
 62
7
 10
5689.434
 20
-9740.778
 30
-292.000
 70
    32
  0
VERTEX
  8
E56LXLIFT
 62
7
 10
5693.261
 20
-9756.164
 30
-292.000
 70
    32
  0
VERTEX
  8
E56LXLIFT
 62
7
 10
5698.880
 20
-9763.586
 30
-292.000
 70
    32
  0
VERTEX
  8
E56LXLIFT
 62
7
 10
5705.172
 20
-9768.406
 30
-292.000
 70
    32
  0
VERTEX
  8
E56LXLIFT
 62
7
 10
5712.903
 20
-9780.947
 30
-292.000
 70
    32
  0
VERTEX
  8
E56LXLIFT
 62
7
 10
5723.392
 20
-9781.708
 30
-292.000
 70
    32
  0
VERTEX
  8
E56LXLIFT
 62
7
 10
5734.545
 20
-9777.671
 30
-292.000
 70
    32
  0
VERTEX
  8
E56LXLIFT
 62
7
 10
5735.244
 20
-9761.281
 30
-292.000
 70
    32
  0
VERTEX
  8
E56LXLIFT
 62
7
 10
5738.473
 20
-9737.028
 30
-292.000
 70
    32
  0
SEQEND
  8
E56LXLIFT
  0
POLYLINE
  8
E56LXLIFT
 62
27
 66
     1
 70
     9
  0
VERTEX
  8
E56LXLIFT
 62
27
 10
5715.975
 20
-9576.507
 30
-286.000
 70
    32
  0
VERTEX
  8
E56LXLIFT
 62
27
 10
5730.372
 20
-9587.086
 30
-286.000
 70
    32
  0
VERTEX
  8
E56LXLIFT
 62
27
 10
5741.793
 20
-9596.063
 30
-286.000
 70
    32
  0
VERTEX
  8
E56LXLIFT
 62
27
 10
5755.902
 20
-9605.098
 30
-286.000
 70
    32
  0
VERTEX
  8
E56LXLIFT
 62
27
 10
5755.044
 20
-9609.493
 30
-286.000
 70
    32
  0
VERTEX
  8
E56LXLIFT
 62
27
 10
5740.906
 20
-9621.517
 30
-286.000
 70
    32
  0
VERTEX
  8
E56LXLIFT
 62
27
 10
5730.687
 20
-9630.134
 30
-286.000
 70
    32
  0
VERTEX
  8
E56LXLIFT
 62
27
 10
5718.733
 20
-9635.439
 30
-286.000
 70
    32
  0
VERTEX
  8
E56LXLIFT
 62
27
 10
5713.886
 20
-9635.584
 30
-286.000
 70
    32
  0
VERTEX
  8
E56LXLIFT
 62
27
 10
5712.335
 20
-9622.769
 30
-286.000
 70
    32
  0
VERTEX
  8
E56LXLIFT
 62
27
 10
5710.197
 20
-9604.231
 30
-286.000
 70
    32
  0
VERTEX
  8
E56LXLIFT
 62
27
 10
5709.024
 20
-9593.224
 30
-286.000
 70
    32
  0
VERTEX
  8
E56LXLIFT
 62
27
 10
5704.654
 20
-9593.999
 30
-286.000
 70
    32
  0
VERTEX
  8
E56LXLIFT
 62
27
 10
5700.516
 20
-9587.659
 30
-286.000
 70
    32
  0
VERTEX
  8
E56LXLIFT
 62
27
 10
5707.191
 20
-9580.182
 30
-286.000
 70
    32
  0
SEQEND
  8
E56LXLIFT
  0
POLYLINE
  8
E56LXLIFT
 62
7
 66
     1
 70
     9
  0
VERTEX
  8
E56LXLIFT
 62
7
 10
5735.138
 20
-9771.721
 30
-282.000
 70
    32
  0
VERTEX
  8
E56LXLIFT
 62
7
 10
5736.794
 20
-9765.132
 30
-282.000
 70
    32
  0
VERTEX
  8
E56LXLIFT
 62
7
 10
5743.765
 20
-9761.436
 30
-282.000
 70
    32
  0
VERTEX
  8
E56LXLIFT
 62
7
 10
5740.674
 20
-9732.528
 30
-282.000
 70
    32
  0
VERTEX
  8
E56LXLIFT
 62
7
 10
5730.558
 20
-9712.218
 30
-282.000
 70
    32
  0
VERTEX
  8
E56LXLIFT
 62
7
 10
5722.817
 20
-9704.579
 30
-282.000
 70
    32
  0
VERTEX
  8
E56LXLIFT
 62
7
 10
5711.496
 20
-9700.692
 30
-282.000
 70
    32
  0
VERTEX
  8
E56LXLIFT
 62
7
 10
5700.739
 20
-9706.343
 30
-282.000
 70
    32
  0
VERTEX
  8
E56LXLIFT
 62
7
 10
5694.593
 20
-9715.716
 30
-282.000
 70
    32
  0
VERTEX
  8
E56LXLIFT
 62
7
 10
5686.619
 20
-9725.101
 30
-282.000
 70
    32
  0
VERTEX
  8
E56LXLIFT
 62
7
 10
5681.389
 20
-9731.981
 30
-282.000
 70
    32
  0
VERTEX
  8
E56LXLIFT
 62
7
 10
5680.592
 20
-9739.468
 30
-282.000
 70
    32
  0
VERTEX
  8
E56LXLIFT
 62
7
 10
5684.979
 20
-9752.535
 30
-282.000
 70
    32
  0
VERTEX
  8
E56LXLIFT
 62
7
 10
5698.678
 20
-9763.363
 30
-282.000
 70
    32
  0
VERTEX
  8
E56LXLIFT
 62
7
 10
5710.634
 20
-9768.740
 30
-282.000
 70
    32
  0
VERTEX
  8
E56LXLIFT
 62
7
 10
5715.472
 20
-9774.136
 30
-282.000
 70
    32
  0
VERTEX
  8
E56LXLIFT
 62
7
 10
5723.269
 20
-9778.385
 30
-282.000
 70
    32
  0
SEQEND
  8
E56LXLIFT
  0
POLYLINE
  8
E56LXLIFT
 62
27
 66
     1
 70
     9
  0
VERTEX
  8
E56LXLIFT
 62
27
 10
5697.890
 20
-9595.244
 30
-277.000
 70
    32
  0
VERTEX
  8
E56LXLIFT
 62
27
 10
5698.135
 20
-9587.288
 30
-277.000
 70
    32
  0
VERTEX
  8
E56LXLIFT
 62
27
 10
5702.843
 20
-9579.377
 30
-277.000
 70
    32
  0
VERTEX
  8
E56LXLIFT
 62
27
 10
5711.390
 20
-9578.335
 30
-277.000
 70
    32
  0
VERTEX
  8
E56LXLIFT
 62
27
 10
5720.759
 20
-9581.458
 30
-277.000
 70
    32
  0
VERTEX
  8
E56LXLIFT
 62
27
 10
5728.047
 20
-9586.504
 30
-277.000
 70
    32
  0
VERTEX
  8
E56LXLIFT
 62
27
 10
5734.611
 20
-9592.500
 30
-277.000
 70
    32
  0
VERTEX
  8
E56LXLIFT
 62
27
 10
5737.840
 20
-9601.534
 30
-277.000
 70
    32
  0
VERTEX
  8
E56LXLIFT
 62
27
 10
5736.166
 20
-9610.513
 30
-277.000
 70
    32
  0
VERTEX
  8
E56LXLIFT
 62
27
 10
5735.789
 20
-9610.892
 30
-277.000
 70
    32
  0
VERTEX
  8
E56LXLIFT
 62
27
 10
5729.897
 20
-9619.110
 30
-277.000
 70
    32
  0
VERTEX
  8
E56LXLIFT
 62
27
 10
5724.866
 20
-9622.497
 30
-277.000
 70
    32
  0
VERTEX
  8
E56LXLIFT
 62
27
 10
5716.640
 20
-9618.555
 30
-277.000
 70
    32
  0
VERTEX
  8
E56LXLIFT
 62
27
 10
5711.201
 20
-9614.130
 30
-277.000
 70
    32
  0
SEQEND
  8
E56LXLIFT
  0
POLYLINE
  8
E56LXLIFT
 62
2
 66
     1
 70
     9
  0
VERTEX
  8
E56LXLIFT
 62
2
 10
5694.555
 20
-9831.578
 30
-271.000
 70
    32
  0
VERTEX
  8
E56LXLIFT
 62
2
 10
5707.248
 20
-9820.688
 30
-271.000
 70
    32
  0
VERTEX
  8
E56LXLIFT
 62
2
 10
5716.353
 20
-9815.253
 30
-271.000
 70
    32
  0
VERTEX
  8
E56LXLIFT
 62
2
 10
5726.613
 20
-9814.999
 30
-271.000
 70
    32
  0
VERTEX
  8
E56LXLIFT
 62
2
 10
5732.669
 20
-9819.674
 30
-271.000
 70
    32
  0
VERTEX
  8
E56LXLIFT
 62
2
 10
5733.910
 20
-9824.239
 30
-271.000
 70
    32
  0
VERTEX
  8
E56LXLIFT
 62
2
 10
5724.533
 20
-9840.111
 30
-271.000
 70
    32
  0
VERTEX
  8
E56LXLIFT
 62
2
 10
5725.350
 20
-9857.100
 30
-271.000
 70
    32
  0
VERTEX
  8
E56LXLIFT
 62
2
 10
5724.905
 20
-9868.767
 30
-271.000
 70
    32
  0
VERTEX
  8
E56LXLIFT
 62
2
 10
5721.865
 20
-9882.392
 30
-271.000
 70
    32
  0
VERTEX
  8
E56LXLIFT
 62
2
 10
5721.624
 20
-9905.128
 30
-271.000
 70
    32
  0
VERTEX
  8
E56LXLIFT
 62
2
 10
5724.422
 20
-9920.512
 30
-271.000
 70
    32
  0
VERTEX
  8
E56LXLIFT
 62
2
 10
5717.412
 20
-9920.846
 30
-271.000
 70
    32
  0
VERTEX
  8
E56LXLIFT
 62
2
 10
5703.360
 20
-9881.051
 30
-271.000
 70
    32
  0
VERTEX
  8
E56LXLIFT
 62
2
 10
5687.748
 20
-9835.830
 30
-271.000
 70
    32
  0
SEQEND
  8
E56LXLIFT
  0
POLYLINE
  8
E56LXLIFT
 62
7
 66
     1
 70
     9
  0
VERTEX
  8
E56LXLIFT
 62
7
 10
5740.313
 20
-9730.294
 30
-271.000
 70
    32
  0
VERTEX
  8
E56LXLIFT
 62
7
 10
5744.889
 20
-9754.019
 30
-271.000
 70
    32
  0
VERTEX
  8
E56LXLIFT
 62
7
 10
5742.573
 20
-9762.476
 30
-271.000
 70
    32
  0
VERTEX
  8
E56LXLIFT
 62
7
 10
5730.075
 20
-9767.059
 30
-271.000
 70
    32
  0
VERTEX
  8
E56LXLIFT
 62
7
 10
5716.699
 20
-9772.083
 30
-271.000
 70
    32
  0
VERTEX
  8
E56LXLIFT
 62
7
 10
5708.419
 20
-9777.006
 30
-271.000
 70
    32
  0
VERTEX
  8
E56LXLIFT
 62
7
 10
5703.665
 20
-9780.040
 30
-271.000
 70
    32
  0
VERTEX
  8
E56LXLIFT
 62
7
 10
5694.031
 20
-9777.622
 30
-271.000
 70
    32
  0
VERTEX
  8
E56LXLIFT
 62
7
 10
5693.219
 20
-9769.542
 30
-271.000
 70
    32
  0
VERTEX
  8
E56LXLIFT
 62
7
 10
5695.736
 20
-9764.124
 30
-271.000
 70
    32
  0
VERTEX
  8
E56LXLIFT
 62
7
 10
5689.117
 20
-9752.281
 30
-271.000
 70
    32
  0
VERTEX
  8
E56LXLIFT
 62
7
 10
5683.640
 20
-9740.347
 30
-271.000
 70
    32
  0
VERTEX
  8
E56LXLIFT
 62
7
 10
5680.268
 20
-9727.266
 30
-271.000
 70
    32
  0
VERTEX
  8
E56LXLIFT
 62
7
 10
5681.556
 20
-9715.403
 30
-271.000
 70
    32
  0
VERTEX
  8
E56LXLIFT
 62
7
 10
5685.588
 20
-9712.142
 30
-271.000
 70
    32
  0
VERTEX
  8
E56LXLIFT
 62
7
 10
5693.276
 20
-9715.918
 30
-271.000
 70
    32
  0
VERTEX
  8
E56LXLIFT
 62
7
 10
5702.052
 20
-9712.382
 30
-271.000
 70
    32
  0
VERTEX
  8
E56LXLIFT
 62
7
 10
5708.640
 20
-9705.214
 30
-271.000
 70
    32
  0
VERTEX
  8
E56LXLIFT
 62
7
 10
5716.769
 20
-9702.716
 30
-271.000
 70
    32
  0
VERTEX
  8
E56LXLIFT
 62
7
 10
5723.796
 20
-9709.410
 30
-271.000
 70
    32
  0
VERTEX
  8
E56LXLIFT
 62
7
 10
5730.230
 20
-9717.651
 30
-271.000
 70
    32
  0
SEQEND
  8
E56LXLIFT
  0
POLYLINE
  8
E56LXLIFT
 62
27
 66
     1
 70
     9
  0
VERTEX
  8
E56LXLIFT
 62
27
 10
5714.027
 20
-9612.694
 30
-266.000
 70
    32
  0
VERTEX
  8
E56LXLIFT
 62
27
 10
5726.706
 20
-9609.956
 30
-266.000
 70
    32
  0
VERTEX
  8
E56LXLIFT
 62
27
 10
5736.686
 20
-9603.201
 30
-266.000
 70
    32
  0
VERTEX
  8
E56LXLIFT
 62
27
 10
5741.757
 20
-9593.876
 30
-266.000
 70
    32
  0
VERTEX
  8
E56LXLIFT
 62
27
 10
5739.271
 20
-9583.428
 30
-266.000
 70
    32
  0
VERTEX
  8
E56LXLIFT
 62
27
 10
5737.013
 20
-9579.849
 30
-266.000
 70
    32
  0
VERTEX
  8
E56LXLIFT
 62
27
 10
5723.939
 20
-9586.296
 30
-266.000
 70
    32
  0
VERTEX
  8
E56LXLIFT
 62
27
 10
5717.547
 20
-9587.595
 30
-266.000
 70
    32
  0
VERTEX
  8
E56LXLIFT
 62
27
 10
5708.967
 20
-9585.262
 30
-266.000
 70
    32
  0
VERTEX
  8
E56LXLIFT
 62
27
 10
5700.544
 20
-9589.413
 30
-266.000
 70
    32
  0
VERTEX
  8
E56LXLIFT
 62
27
 10
5693.233
 20
-9595.475
 30
-266.000
 70
    32
  0
VERTEX
  8
E56LXLIFT
 62
27
 10
5696.390
 20
-9600.246
 30
-266.000
 70
    32
  0
SEQEND
  8
E56LXLIFT
  0
POLYLINE
  8
E56LXLIFT
 62
7
 66
     1
 70
     9
  0
VERTEX
  8
E56LXLIFT
 62
7
 10
5676.512
 20
-9782.005
 30
-261.000
 70
    32
  0
VERTEX
  8
E56LXLIFT
 62
7
 10
5676.086
 20
-9767.804
 30
-261.000
 70
    32
  0
VERTEX
  8
E56LXLIFT
 62
7
 10
5676.815
 20
-9754.280
 30
-261.000
 70
    32
  0
VERTEX
  8
E56LXLIFT
 62
7
 10
5678.247
 20
-9742.748
 30
-261.000
 70
    32
  0
VERTEX
  8
E56LXLIFT
 62
7
 10
5681.273
 20
-9736.043
 30
-261.000
 70
    32
  0
VERTEX
  8
E56LXLIFT
 62
7
 10
5680.862
 20
-9720.085
 30
-261.000
 70
    32
  0
VERTEX
  8
E56LXLIFT
 62
7
 10
5678.173
 20
-9709.625
 30
-261.000
 70
    32
  0
VERTEX
  8
E56LXLIFT
 62
7
 10
5684.482
 20
-9703.230
 30
-261.000
 70
    32
  0
VERTEX
  8
E56LXLIFT
 62
7
 10
5695.955
 20
-9701.323
 30
-261.000
 70
    32
  0
VERTEX
  8
E56LXLIFT
 62
7
 10
5703.131
 20
-9698.325
 30
-261.000
 70
    32
  0
VERTEX
  8
E56LXLIFT
 62
7
 10
5720.452
 20
-9703.021
 30
-261.000
 70
    32
  0
VERTEX
  8
E56LXLIFT
 62
7
 10
5725.013
 20
-9710.246
 30
-261.000
 70
    32
  0
VERTEX
  8
E56LXLIFT
 62
7
 10
5735.984
 20
-9719.950
 30
-261.000
 70
    32
  0
VERTEX
  8
E56LXLIFT
 62
7
 10
5739.889
 20
-9725.693
 30
-261.000
 70
    32
  0
VERTEX
  8
E56LXLIFT
 62
7
 10
5740.240
 20
-9738.312
 30
-261.000
 70
    32
  0
VERTEX
  8
E56LXLIFT
 62
7
 10
5737.527
 20
-9743.368
 30
-261.000
 70
    32
  0
VERTEX
  8
E56LXLIFT
 62
7
 10
5737.714
 20
-9752.506
 30
-261.000
 70
    32
  0
VERTEX
  8
E56LXLIFT
 62
7
 10
5736.840
 20
-9756.207
 30
-261.000
 70
    32
  0
VERTEX
  8
E56LXLIFT
 62
7
 10
5726.098
 20
-9765.324
 30
-261.000
 70
    32
  0
VERTEX
  8
E56LXLIFT
 62
7
 10
5712.240
 20
-9773.027
 30
-261.000
 70
    32
  0
VERTEX
  8
E56LXLIFT
 62
7
 10
5704.348
 20
-9777.424
 30
-261.000
 70
    32
  0
VERTEX
  8
E56LXLIFT
 62
7
 10
5690.497
 20
-9780.102
 30
-261.000
 70
    32
  0
SEQEND
  8
E56LXLIFT
  0
POLYLINE
  8
E56LXLIFT
 62
27
 66
     1
 70
     9
  0
VERTEX
  8
E56LXLIFT
 62
27
 10
5727.432
 20
-9620.829
 30
-256.000
 70
    32
  0
VERTEX
  8
E56LXLIFT
 62
27
 10
5724.155
 20
-9609.275
 30
-256.000
 70
    32
  0
VERTEX
  8
E56LXLIFT
 62
27
 10
5727.564
 20
-9598.795
 30
-256.000
 70
    32
  0
VERTEX
  8
E56LXLIFT
 62
27
 10
5730.589
 20
-9587.944
 30
-256.000
 70
    32
  0
VERTEX
  8
E56LXLIFT
 62
27
 10
5724.990
 20
-9585.086
 30
-256.000
 70
    32
  0
VERTEX
  8
E56LXLIFT
 62
27
 10
5717.717
 20
-9589.137
 30
-256.000
 70
    32
  0
VERTEX
  8
E56LXLIFT
 62
27
 10
5709.233
 20
-9590.805
 30
-256.000
 70
    32
  0
VERTEX
  8
E56LXLIFT
 62
27
 10
5703.936
 20
-9583.469
 30
-256.000
 70
    32
  0
VERTEX
  8
E56LXLIFT
 62
27
 10
5695.492
 20
-9574.085
 30
-256.000
 70
    32
  0
VERTEX
  8
E56LXLIFT
 62
27
 10
5690.691
 20
-9578.824
 30
-256.000
 70
    32
  0
VERTEX
  8
E56LXLIFT
 62
27
 10
5692.668
 20
-9588.171
 30
-256.000
 70
    32
  0
VERTEX
  8
E56LXLIFT
 62
27
 10
5692.293
 20
-9595.214
 30
-256.000
 70
    32
  0
VERTEX
  8
E56LXLIFT
 62
27
 10
5688.337
 20
-9605.987
 30
-256.000
 70
    32
  0
VERTEX
  8
E56LXLIFT
 62
27
 10
5690.769
 20
-9617.728
 30
-256.000
 70
    32
  0
VERTEX
  8
E56LXLIFT
 62
27
 10
5692.117
 20
-9624.592
 30
-256.000
 70
    32
  0
VERTEX
  8
E56LXLIFT
 62
27
 10
5692.345
 20
-9633.045
 30
-256.000
 70
    32
  0
VERTEX
  8
E56LXLIFT
 62
27
 10
5692.897
 20
-9642.679
 30
-256.000
 70
    32
  0
VERTEX
  8
E56LXLIFT
 62
27
 10
5694.100
 20
-9648.013
 30
-256.000
 70
    32
  0
VERTEX
  8
E56LXLIFT
 62
27
 10
5702.322
 20
-9648.065
 30
-256.000
 70
    32
  0
VERTEX
  8
E56LXLIFT
 62
27
 10
5703.048
 20
-9639.127
 30
-256.000
 70
    32
  0
VERTEX
  8
E56LXLIFT
 62
27
 10
5703.132
 20
-9629.024
 30
-256.000
 70
    32
  0
VERTEX
  8
E56LXLIFT
 62
27
 10
5704.743
 20
-9617.142
 30
-256.000
 70
    32
  0
VERTEX
  8
E56LXLIFT
 62
27
 10
5711.447
 20
-9611.874
 30
-256.000
 70
    32
  0
VERTEX
  8
E56LXLIFT
 62
27
 10
5713.945
 20
-9619.855
 30
-256.000
 70
    32
  0
VERTEX
  8
E56LXLIFT
 62
27
 10
5717.471
 20
-9622.713
 30
-256.000
 70
    32
  0
SEQEND
  8
E56LXLIFT
  0
POLYLINE
  8
E56LXLIFT
 62
7
 66
     1
 70
     9
  0
VERTEX
  8
E56LXLIFT
 62
7
 10
5692.159
 20
-9770.348
 30
-240.000
 70
    32
  0
VERTEX
  8
E56LXLIFT
 62
7
 10
5706.776
 20
-9781.325
 30
-240.000
 70
    32
  0
VERTEX
  8
E56LXLIFT
 62
7
 10
5719.694
 20
-9776.890
 30
-240.000
 70
    32
  0
VERTEX
  8
E56LXLIFT
 62
7
 10
5724.391
 20
-9767.211
 30
-240.000
 70
    32
  0
VERTEX
  8
E56LXLIFT
 62
7
 10
5727.624
 20
-9750.617
 30
-240.000
 70
    32
  0
VERTEX
  8
E56LXLIFT
 62
7
 10
5727.486
 20
-9733.920
 30
-240.000
 70
    32
  0
VERTEX
  8
E56LXLIFT
 62
7
 10
5722.959
 20
-9717.666
 30
-240.000
 70
    32
  0
VERTEX
  8
E56LXLIFT
 62
7
 10
5714.250
 20
-9697.308
 30
-240.000
 70
    32
  0
VERTEX
  8
E56LXLIFT
 62
7
 10
5698.778
 20
-9692.353
 30
-240.000
 70
    32
  0
VERTEX
  8
E56LXLIFT
 62
7
 10
5692.249
 20
-9694.624
 30
-240.000
 70
    32
  0
VERTEX
  8
E56LXLIFT
 62
7
 10
5685.588
 20
-9686.782
 30
-240.000
 70
    32
  0
VERTEX
  8
E56LXLIFT
 62
7
 10
5675.720
 20
-9685.632
 30
-240.000
 70
    32
  0
VERTEX
  8
E56LXLIFT
 62
7
 10
5666.845
 20
-9695.595
 30
-240.000
 70
    32
  0
VERTEX
  8
E56LXLIFT
 62
7
 10
5661.935
 20
-9702.359
 30
-240.000
 70
    32
  0
VERTEX
  8
E56LXLIFT
 62
7
 10
5663.683
 20
-9713.453
 30
-240.000
 70
    32
  0
VERTEX
  8
E56LXLIFT
 62
7
 10
5662.230
 20
-9717.949
 30
-240.000
 70
    32
  0
VERTEX
  8
E56LXLIFT
 62
7
 10
5675.355
 20
-9748.715
 30
-240.000
 70
    32
  0
VERTEX
  8
E56LXLIFT
 62
7
 10
5686.334
 20
-9755.289
 30
-240.000
 70
    32
  0
SEQEND
  8
E56LXLIFT
  0
POLYLINE
  8
E56LXLIFT
 62
27
 66
     1
 70
     9
  0
VERTEX
  8
E56LXLIFT
 62
27
 10
5701.838
 20
-9639.433
 30
-242.000
 70
    32
  0
VERTEX
  8
E56LXLIFT
 62
27
 10
5703.667
 20
-9623.016
 30
-242.000
 70
    32
  0
VERTEX
  8
E56LXLIFT
 62
27
 10
5706.622
 20
-9609.266
 30
-242.000
 70
    32
  0
VERTEX
  8
E56LXLIFT
 62
27
 10
5718.446
 20
-9618.280
 30
-242.000
 70
    32
  0
VERTEX
  8
E56LXLIFT
 62
27
 10
5717.554
 20
-9602.040
 30
-242.000
 70
    32
  0
VERTEX
  8
E56LXLIFT
 62
27
 10
5718.484
 20
-9582.674
 30
-242.000
 70
    32
  0
VERTEX
  8
E56LXLIFT
 62
27
 10
5711.826
 20
-9577.904
 30
-242.000
 70
    32
  0
VERTEX
  8
E56LXLIFT
 62
27
 10
5701.729
 20
-9576.597
 30
-242.000
 70
    32
  0
VERTEX
  8
E56LXLIFT
 62
27
 10
5691.677
 20
-9585.138
 30
-242.000
 70
    32
  0
VERTEX
  8
E56LXLIFT
 62
27
 10
5683.218
 20
-9588.640
 30
-242.000
 70
    32
  0
VERTEX
  8
E56LXLIFT
 62
27
 10
5682.105
 20
-9601.335
 30
-242.000
 70
    32
  0
VERTEX
  8
E56LXLIFT
 62
27
 10
5687.596
 20
-9616.095
 30
-242.000
 70
    32
  0
VERTEX
  8
E56LXLIFT
 62
27
 10
5686.639
 20
-9625.928
 30
-242.000
 70
    32
  0
VERTEX
  8
E56LXLIFT
 62
27
 10
5686.334
 20
-9638.236
 30
-242.000
 70
    32
  0
SEQEND
  8
E56LXLIFT
  0
POLYLINE
  8
E56LXLIFT
 62
1
 66
     1
 70
     9
  0
VERTEX
  8
E56LXLIFT
 62
1
 10
4551.617
 20
-8418.368
 30
-217.000
 70
    32
  0
VERTEX
  8
E56LXLIFT
 62
1
 10
4550.466
 20
-8411.276
 30
-217.000
 70
    32
  0
VERTEX
  8
E56LXLIFT
 62
1
 10
4553.111
 20
-8398.809
 30
-217.000
 70
    32
  0
VERTEX
  8
E56LXLIFT
 62
1
 10
4552.274
 20
-8389.315
 30
-217.000
 70
    32
  0
VERTEX
  8
E56LXLIFT
 62
1
 10
4544.520
 20
-8365.415
 30
-217.000
 70
    32
  0
VERTEX
  8
E56LXLIFT
 62
1
 10
4534.201
 20
-8333.824
 30
-217.000
 70
    32
  0
VERTEX
  8
E56LXLIFT
 62
1
 10
4532.400
 20
-8328.075
 30
-217.000
 70
    32
  0
VERTEX
  8
E56LXLIFT
 62
1
 10
4550.008
 20
-8321.975
 30
-217.000
 70
    32
  0
VERTEX
  8
E56LXLIFT
 62
1
 10
4556.356
 20
-8335.600
 30
-217.000
 70
    32
  0
VERTEX
  8
E56LXLIFT
 62
1
 10
4572.944
 20
-8368.487
 30
-217.000
 70
    32
  0
VERTEX
  8
E56LXLIFT
 62
1
 10
4588.429
 20
-8390.771
 30
-217.000
 70
    32
  0
VERTEX
  8
E56LXLIFT
 62
1
 10
4595.339
 20
-8399.206
 30
-217.000
 70
    32
  0
VERTEX
  8
E56LXLIFT
 62
1
 10
4594.235
 20
-8415.873
 30
-217.000
 70
    32
  0
VERTEX
  8
E56LXLIFT
 62
1
 10
4586.009
 20
-8425.455
 30
-217.000
 70
    32
  0
VERTEX
  8
E56LXLIFT
 62
1
 10
4576.344
 20
-8428.590
 30
-217.000
 70
    32
  0
VERTEX
  8
E56LXLIFT
 62
1
 10
4563.619
 20
-8426.785
 30
-217.000
 70
    32
  0
SEQEND
  8
E56LXLIFT
  0
POLYLINE
  8
E56LXLIFT
 62
1
 66
     1
 70
     9
  0
VERTEX
  8
E56LXLIFT
 62
1
 10
4596.471
 20
-8463.352
 30
-218.000
 70
    32
  0
VERTEX
  8
E56LXLIFT
 62
1
 10
4609.721
 20
-8467.816
 30
-218.000
 70
    32
  0
VERTEX
  8
E56LXLIFT
 62
1
 10
4615.692
 20
-8473.025
 30
-218.000
 70
    32
  0
VERTEX
  8
E56LXLIFT
 62
1
 10
4611.197
 20
-8482.060
 30
-218.000
 70
    32
  0
VERTEX
  8
E56LXLIFT
 62
1
 10
4601.314
 20
-8493.393
 30
-218.000
 70
    32
  0
VERTEX
  8
E56LXLIFT
 62
1
 10
4596.412
 20
-8501.422
 30
-218.000
 70
    32
  0
VERTEX
  8
E56LXLIFT
 62
1
 10
4599.869
 20
-8510.636
 30
-218.000
 70
    32
  0
VERTEX
  8
E56LXLIFT
 62
1
 10
4600.573
 20
-8522.183
 30
-218.000
 70
    32
  0
VERTEX
  8
E56LXLIFT
 62
1
 10
4598.986
 20
-8529.097
 30
-218.000
 70
    32
  0
VERTEX
  8
E56LXLIFT
 62
1
 10
4590.923
 20
-8528.022
 30
-218.000
 70
    32
  0
VERTEX
  8
E56LXLIFT
 62
1
 10
4583.835
 20
-8527.540
 30
-218.000
 70
    32
  0
VERTEX
  8
E56LXLIFT
 62
1
 10
4575.392
 20
-8532.500
 30
-218.000
 70
    32
  0
VERTEX
  8
E56LXLIFT
 62
1
 10
4568.416
 20
-8528.894
 30
-218.000
 70
    32
  0
VERTEX
  8
E56LXLIFT
 62
1
 10
4558.516
 20
-8518.293
 30
-218.000
 70
    32
  0
VERTEX
  8
E56LXLIFT
 62
1
 10
4549.803
 20
-8508.131
 30
-218.000
 70
    32
  0
VERTEX
  8
E56LXLIFT
 62
1
 10
4545.414
 20
-8497.640
 30
-218.000
 70
    32
  0
VERTEX
  8
E56LXLIFT
 62
1
 10
4547.010
 20
-8487.459
 30
-218.000
 70
    32
  0
VERTEX
  8
E56LXLIFT
 62
1
 10
4554.416
 20
-8478.692
 30
-218.000
 70
    32
  0
VERTEX
  8
E56LXLIFT
 62
1
 10
4566.247
 20
-8472.565
 30
-218.000
 70
    32
  0
VERTEX
  8
E56LXLIFT
 62
1
 10
4571.996
 20
-8464.355
 30
-218.000
 70
    32
  0
VERTEX
  8
E56LXLIFT
 62
1
 10
4580.099
 20
-8461.163
 30
-218.000
 70
    32
  0
SEQEND
  8
E56LXLIFT
  0
POLYLINE
  8
E56LXLIFT
 62
1
 66
     1
 70
     9
  0
VERTEX
  8
E56LXLIFT
 62
1
 10
4718.690
 20
-9245.464
 30
-241.000
 70
    32
  0
VERTEX
  8
E56LXLIFT
 62
1
 10
4730.758
 20
-9255.230
 30
-241.000
 70
    32
  0
VERTEX
  8
E56LXLIFT
 62
1
 10
4741.995
 20
-9258.713
 30
-241.000
 70
    32
  0
VERTEX
  8
E56LXLIFT
 62
1
 10
4762.211
 20
-9260.130
 30
-241.000
 70
    32
  0
VERTEX
  8
E56LXLIFT
 62
1
 10
4781.264
 20
-9261.752
 30
-241.000
 70
    32
  0
VERTEX
  8
E56LXLIFT
 62
1
 10
4785.869
 20
-9265.890
 30
-241.000
 70
    32
  0
VERTEX
  8
E56LXLIFT
 62
1
 10
4789.661
 20
-9285.304
 30
-241.000
 70
    32
  0
VERTEX
  8
E56LXLIFT
 62
1
 10
4791.003
 20
-9294.929
 30
-241.000
 70
    32
  0
VERTEX
  8
E56LXLIFT
 62
1
 10
4796.676
 20
-9303.749
 30
-241.000
 70
    32
  0
VERTEX
  8
E56LXLIFT
 62
1
 10
4791.921
 20
-9308.702
 30
-241.000
 70
    32
  0
VERTEX
  8
E56LXLIFT
 62
1
 10
4772.601
 20
-9307.606
 30
-241.000
 70
    32
  0
VERTEX
  8
E56LXLIFT
 62
1
 10
4754.296
 20
-9303.895
 30
-241.000
 70
    32
  0
VERTEX
  8
E56LXLIFT
 62
1
 10
4744.177
 20
-9298.377
 30
-241.000
 70
    32
  0
VERTEX
  8
E56LXLIFT
 62
1
 10
4737.075
 20
-9286.895
 30
-241.000
 70
    32
  0
VERTEX
  8
E56LXLIFT
 62
1
 10
4723.225
 20
-9267.502
 30
-241.000
 70
    32
  0
VERTEX
  8
E56LXLIFT
 62
1
 10
4711.266
 20
-9249.772
 30
-241.000
 70
    32
  0
SEQEND
  8
E56LXLIFT
  0
POLYLINE
  8
E56LXLIFT
 62
1
 66
     1
 70
     9
  0
VERTEX
  8
E56LXLIFT
 62
1
 10
4979.339
 20
-8993.142
 30
-246.000
 70
    32
  0
VERTEX
  8
E56LXLIFT
 62
1
 10
4983.562
 20
-8999.862
 30
-246.000
 70
    32
  0
VERTEX
  8
E56LXLIFT
 62
1
 10
4990.125
 20
-9002.655
 30
-246.000
 70
    32
  0
VERTEX
  8
E56LXLIFT
 62
1
 10
4991.920
 20
-9009.645
 30
-246.000
 70
    32
  0
VERTEX
  8
E56LXLIFT
 62
1
 10
5006.804
 20
-9026.299
 30
-246.000
 70
    32
  0
VERTEX
  8
E56LXLIFT
 62
1
 10
5021.448
 20
-9041.599
 30
-246.000
 70
    32
  0
VERTEX
  8
E56LXLIFT
 62
1
 10
5033.870
 20
-9054.496
 30
-246.000
 70
    32
  0
VERTEX
  8
E56LXLIFT
 62
1
 10
5040.519
 20
-9061.386
 30
-246.000
 70
    32
  0
VERTEX
  8
E56LXLIFT
 62
1
 10
5036.888
 20
-9066.820
 30
-246.000
 70
    32
  0
VERTEX
  8
E56LXLIFT
 62
1
 10
5026.503
 20
-9057.994
 30
-246.000
 70
    32
  0
VERTEX
  8
E56LXLIFT
 62
1
 10
5015.218
 20
-9053.561
 30
-246.000
 70
    32
  0
VERTEX
  8
E56LXLIFT
 62
1
 10
5008.108
 20
-9058.292
 30
-246.000
 70
    32
  0
VERTEX
  8
E56LXLIFT
 62
1
 10
4999.220
 20
-9063.577
 30
-246.000
 70
    32
  0
VERTEX
  8
E56LXLIFT
 62
1
 10
4992.494
 20
-9065.285
 30
-246.000
 70
    32
  0
VERTEX
  8
E56LXLIFT
 62
1
 10
4984.309
 20
-9052.637
 30
-246.000
 70
    32
  0
VERTEX
  8
E56LXLIFT
 62
1
 10
4977.746
 20
-9046.011
 30
-246.000
 70
    32
  0
VERTEX
  8
E56LXLIFT
 62
1
 10
4975.911
 20
-9040.147
 30
-246.000
 70
    32
  0
VERTEX
  8
E56LXLIFT
 62
1
 10
4966.327
 20
-9043.758
 30
-246.000
 70
    32
  0
VERTEX
  8
E56LXLIFT
 62
1
 10
4961.727
 20
-9038.741
 30
-246.000
 70
    32
  0
VERTEX
  8
E56LXLIFT
 62
1
 10
4951.922
 20
-9033.647
 30
-246.000
 70
    32
  0
VERTEX
  8
E56LXLIFT
 62
1
 10
4944.899
 20
-9031.415
 30
-246.000
 70
    32
  0
VERTEX
  8
E56LXLIFT
 62
1
 10
4939.186
 20
-9030.948
 30
-246.000
 70
    32
  0
VERTEX
  8
E56LXLIFT
 62
1
 10
4938.784
 20
-9019.639
 30
-246.000
 70
    32
  0
VERTEX
  8
E56LXLIFT
 62
1
 10
4946.628
 20
-9012.063
 30
-246.000
 70
    32
  0
VERTEX
  8
E56LXLIFT
 62
1
 10
4957.876
 20
-9006.121
 30
-246.000
 70
    32
  0
VERTEX
  8
E56LXLIFT
 62
1
 10
4966.504
 20
-9000.043
 30
-246.000
 70
    32
  0
SEQEND
  8
E56LXLIFT
  0
POLYLINE
  8
E56LXLIFT
 62
1
 66
     1
 70
     9
  0
VERTEX
  8
E56LXLIFT
 62
1
 10
4983.681
 20
-9015.214
 30
-246.000
 70
    32
  0
VERTEX
  8
E56LXLIFT
 62
1
 10
4996.599
 20
-9023.911
 30
-246.000
 70
    32
  0
VERTEX
  8
E56LXLIFT
 62
1
 10
5004.181
 20
-9037.664
 30
-246.000
 70
    32
  0
VERTEX
  8
E56LXLIFT
 62
1
 10
5001.866
 20
-9047.377
 30
-246.000
 70
    32
  0
VERTEX
  8
E56LXLIFT
 62
1
 10
4996.992
 20
-9048.039
 30
-246.000
 70
    32
  0
VERTEX
  8
E56LXLIFT
 62
1
 10
4985.744
 20
-9039.526
 30
-246.000
 70
    32
  0
VERTEX
  8
E56LXLIFT
 62
1
 10
4984.837
 20
-9030.782
 30
-246.000
 70
    32
  0
VERTEX
  8
E56LXLIFT
 62
1
 10
4978.157
 20
-9019.425
 30
-246.000
 70
    32
  0
SEQEND
  8
E56LXLIFT
  0
POLYLINE
  8
E56LXLIFT
 62
1
 66
     1
 70
     9
  0
VERTEX
  8
E56LXLIFT
 62
1
 10
5134.218
 20
-9085.089
 30
-259.000
 70
    32
  0
VERTEX
  8
E56LXLIFT
 62
1
 10
5138.474
 20
-9062.676
 30
-259.000
 70
    32
  0
VERTEX
  8
E56LXLIFT
 62
1
 10
5133.859
 20
-9052.144
 30
-259.000
 70
    32
  0
VERTEX
  8
E56LXLIFT
 62
1
 10
5124.776
 20
-9043.821
 30
-259.000
 70
    32
  0
VERTEX
  8
E56LXLIFT
 62
1
 10
5124.320
 20
-9034.794
 30
-259.000
 70
    32
  0
VERTEX
  8
E56LXLIFT
 62
1
 10
5128.456
 20
-9025.644
 30
-259.000
 70
    32
  0
VERTEX
  8
E56LXLIFT
 62
1
 10
5138.141
 20
-9021.653
 30
-259.000
 70
    32
  0
VERTEX
  8
E56LXLIFT
 62
1
 10
5147.736
 20
-9029.490
 30
-259.000
 70
    32
  0
VERTEX
  8
E56LXLIFT
 62
1
 10
5152.496
 20
-9050.694
 30
-259.000
 70
    32
  0
VERTEX
  8
E56LXLIFT
 62
1
 10
5152.274
 20
-9070.457
 30
-259.000
 70
    32
  0
VERTEX
  8
E56LXLIFT
 62
1
 10
5138.833
 20
-9091.047
 30
-259.000
 70
    32
  0
SEQEND
  8
E56LXLIFT
  0
POLYLINE
  8
E56LXLIFT
 62
1
 66
     1
 70
     9
  0
VERTEX
  8
E56LXLIFT
 62
1
 10
5125.212
 20
-9200.457
 30
-336.000
 70
    32
  0
VERTEX
  8
E56LXLIFT
 62
1
 10
5116.658
 20
-9189.765
 30
-336.000
 70
    32
  0
VERTEX
  8
E56LXLIFT
 62
1
 10
5111.173
 20
-9180.391
 30
-336.000
 70
    32
  0
VERTEX
  8
E56LXLIFT
 62
1
 10
5108.305
 20
-9168.071
 30
-336.000
 70
    32
  0
VERTEX
  8
E56LXLIFT
 62
1
 10
5101.858
 20
-9154.046
 30
-336.000
 70
    32
  0
VERTEX
  8
E56LXLIFT
 62
1
 10
5098.306
 20
-9141.252
 30
-336.000
 70
    32
  0
VERTEX
  8
E56LXLIFT
 62
1
 10
5099.958
 20
-9138.481
 30
-336.000
 70
    32
  0
VERTEX
  8
E56LXLIFT
 62
1
 10
5106.944
 20
-9134.784
 30
-336.000
 70
    32
  0
VERTEX
  8
E56LXLIFT
 62
1
 10
5111.610
 20
-9136.332
 30
-336.000
 70
    32
  0
VERTEX
  8
E56LXLIFT
 62
1
 10
5113.406
 20
-9151.318
 30
-336.000
 70
    32
  0
VERTEX
  8
E56LXLIFT
 62
1
 10
5118.895
 20
-9154.989
 30
-336.000
 70
    32
  0
VERTEX
  8
E56LXLIFT
 62
1
 10
5127.536
 20
-9166.822
 30
-336.000
 70
    32
  0
VERTEX
  8
E56LXLIFT
 62
1
 10
5133.408
 20
-9174.810
 30
-336.000
 70
    32
  0
VERTEX
  8
E56LXLIFT
 62
1
 10
5137.471
 20
-9185.359
 30
-336.000
 70
    32
  0
VERTEX
  8
E56LXLIFT
 62
1
 10
5142.236
 20
-9195.382
 30
-336.000
 70
    32
  0
VERTEX
  8
E56LXLIFT
 62
1
 10
5149.094
 20
-9198.686
 30
-336.000
 70
    32
  0
VERTEX
  8
E56LXLIFT
 62
1
 10
5147.913
 20
-9205.159
 30
-336.000
 70
    32
  0
VERTEX
  8
E56LXLIFT
 62
1
 10
5148.324
 20
-9218.881
 30
-336.000
 70
    32
  0
VERTEX
  8
E56LXLIFT
 62
1
 10
5133.494
 20
-9222.642
 30
-336.000
 70
    32
  0
VERTEX
  8
E56LXLIFT
 62
1
 10
5124.057
 20
-9219.406
 30
-336.000
 70
    32
  0
SEQEND
  8
E56LXLIFT
  0
POLYLINE
  8
E56LXLIFT
 62
1
 66
     1
 70
     9
  0
VERTEX
  8
E56LXLIFT
 62
1
 10
5688.334
 20
-9636.236
 30
-232.000
 70
    32
  0
VERTEX
  8
E56LXLIFT
 62
1
 10
5688.639
 20
-9623.928
 30
-232.000
 70
    32
  0
VERTEX
  8
E56LXLIFT
 62
1
 10
5689.596
 20
-9614.095
 30
-232.000
 70
    32
  0
VERTEX
  8
E56LXLIFT
 62
1
 10
5684.105
 20
-9599.335
 30
-232.000
 70
    32
  0
VERTEX
  8
E56LXLIFT
 62
1
 10
5685.218
 20
-9586.640
 30
-232.000
 70
    32
  0
VERTEX
  8
E56LXLIFT
 62
1
 10
5693.677
 20
-9583.138
 30
-232.000
 70
    32
  0
VERTEX
  8
E56LXLIFT
 62
1
 10
5703.729
 20
-9574.597
 30
-232.000
 70
    32
  0
VERTEX
  8
E56LXLIFT
 62
1
 10
5713.826
 20
-9575.904
 30
-232.000
 70
    32
  0
VERTEX
  8
E56LXLIFT
 62
1
 10
5720.484
 20
-9580.674
 30
-232.000
 70
    32
  0
VERTEX
  8
E56LXLIFT
 62
1
 10
5719.554
 20
-9600.040
 30
-232.000
 70
    32
  0
VERTEX
  8
E56LXLIFT
 62
1
 10
5720.446
 20
-9616.280
 30
-232.000
 70
    32
  0
VERTEX
  8
E56LXLIFT
 62
1
 10
5708.622
 20
-9607.266
 30
-232.000
 70
    32
  0
VERTEX
  8
E56LXLIFT
 62
1
 10
5705.667
 20
-9621.016
 30
-232.000
 70
    32
  0
VERTEX
  8
E56LXLIFT
 62
1
 10
5703.838
 20
-9637.433
 30
-232.000
 70
    32
  0
SEQEND
  8
E56LXLIFT
  0
POLYLINE
  8
E56LXLIFT
 62
1
 66
     1
 70
     9
  0
VERTEX
  8
E56LXLIFT
 62
1
 10
5811.700
 20
-9585.844
 30
-298.000
 70
    32
  0
VERTEX
  8
E56LXLIFT
 62
1
 10
5812.535
 20
-9567.516
 30
-298.000
 70
    32
  0
VERTEX
  8
E56LXLIFT
 62
1
 10
5810.328
 20
-9559.612
 30
-298.000
 70
    32
  0
VERTEX
  8
E56LXLIFT
 62
1
 10
5797.074
 20
-9556.169
 30
-298.000
 70
    32
  0
VERTEX
  8
E56LXLIFT
 62
1
 10
5793.340
 20
-9550.182
 30
-298.000
 70
    32
  0
VERTEX
  8
E56LXLIFT
 62
1
 10
5789.511
 20
-9538.661
 30
-298.000
 70
    32
  0
VERTEX
  8
E56LXLIFT
 62
1
 10
5786.193
 20
-9527.964
 30
-298.000
 70
    32
  0
VERTEX
  8
E56LXLIFT
 62
1
 10
5792.875
 20
-9519.310
 30
-298.000
 70
    32
  0
VERTEX
  8
E56LXLIFT
 62
1
 10
5801.755
 20
-9511.091
 30
-298.000
 70
    32
  0
VERTEX
  8
E56LXLIFT
 62
1
 10
5813.196
 20
-9512.709
 30
-298.000
 70
    32
  0
VERTEX
  8
E56LXLIFT
 62
1
 10
5814.950
 20
-9522.933
 30
-298.000
 70
    32
  0
VERTEX
  8
E56LXLIFT
 62
1
 10
5819.422
 20
-9541.887
 30
-298.000
 70
    32
  0
VERTEX
  8
E56LXLIFT
 62
1
 10
5826.251
 20
-9562.366
 30
-298.000
 70
    32
  0
VERTEX
  8
E56LXLIFT
 62
1
 10
5828.572
 20
-9575.682
 30
-298.000
 70
    32
  0
VERTEX
  8
E56LXLIFT
 62
1
 10
5824.124
 20
-9586.284
 30
-298.000
 70
    32
  0
VERTEX
  8
E56LXLIFT
 62
1
 10
5823.823
 20
-9597.284
 30
-298.000
 70
    32
  0
VERTEX
  8
E56LXLIFT
 62
1
 10
5819.267
 20
-9606.428
 30
-298.000
 70
    32
  0
VERTEX
  8
E56LXLIFT
 62
1
 10
5813.280
 20
-9610.161
 30
-298.000
 70
    32
  0
SEQEND
  8
E56LXLIFT
  0
POLYLINE
  8
E56LXLIFT
 62
1
 66
     1
 70
     9
  0
VERTEX
  8
E56LXLIFT
 62
1
 10
5688.334
 20
-9753.289
 30
-230.000
 70
    32
  0
VERTEX
  8
E56LXLIFT
 62
1
 10
5677.355
 20
-9746.715
 30
-230.000
 70
    32
  0
VERTEX
  8
E56LXLIFT
 62
1
 10
5664.230
 20
-9715.949
 30
-230.000
 70
    32
  0
VERTEX
  8
E56LXLIFT
 62
1
 10
5665.683
 20
-9711.453
 30
-230.000
 70
    32
  0
VERTEX
  8
E56LXLIFT
 62
1
 10
5663.935
 20
-9700.359
 30
-230.000
 70
    32
  0
VERTEX
  8
E56LXLIFT
 62
1
 10
5668.845
 20
-9693.595
 30
-230.000
 70
    32
  0
VERTEX
  8
E56LXLIFT
 62
1
 10
5677.720
 20
-9683.632
 30
-230.000
 70
    32
  0
VERTEX
  8
E56LXLIFT
 62
1
 10
5687.588
 20
-9684.782
 30
-230.000
 70
    32
  0
VERTEX
  8
E56LXLIFT
 62
1
 10
5694.249
 20
-9692.624
 30
-230.000
 70
    32
  0
VERTEX
  8
E56LXLIFT
 62
1
 10
5700.778
 20
-9690.353
 30
-230.000
 70
    32
  0
VERTEX
  8
E56LXLIFT
 62
1
 10
5716.250
 20
-9695.308
 30
-230.000
 70
    32
  0
VERTEX
  8
E56LXLIFT
 62
1
 10
5724.959
 20
-9715.666
 30
-230.000
 70
    32
  0
VERTEX
  8
E56LXLIFT
 62
1
 10
5729.486
 20
-9731.920
 30
-230.000
 70
    32
  0
VERTEX
  8
E56LXLIFT
 62
1
 10
5729.624
 20
-9748.617
 30
-230.000
 70
    32
  0
VERTEX
  8
E56LXLIFT
 62
1
 10
5726.391
 20
-9765.211
 30
-230.000
 70
    32
  0
VERTEX
  8
E56LXLIFT
 62
1
 10
5721.694
 20
-9774.890
 30
-230.000
 70
    32
  0
VERTEX
  8
E56LXLIFT
 62
1
 10
5708.776
 20
-9779.325
 30
-230.000
 70
    32
  0
VERTEX
  8
E56LXLIFT
 62
1
 10
5694.159
 20
-9768.348
 30
-230.000
 70
    32
  0
SEQEND
  8
E56LXLIFT
  0
POLYLINE
  8
E56LXLIFT
 62
1
 66
     1
 70
     9
  0
VERTEX
  8
E56LXLIFT
 62
1
 10
5766.231
 20
-9998.035
 30
-349.000
 70
    32
  0
VERTEX
  8
E56LXLIFT
 62
1
 10
5775.722
 20
-10021.922
 30
-349.000
 70
    32
  0
VERTEX
  8
E56LXLIFT
 62
1
 10
5779.606
 20
-10038.479
 30
-349.000
 70
    32
  0
VERTEX
  8
E56LXLIFT
 62
1
 10
5788.567
 20
-10053.486
 30
-349.000
 70
    32
  0
VERTEX
  8
E56LXLIFT
 62
1
 10
5792.676
 20
-10068.570
 30
-349.000
 70
    32
  0
VERTEX
  8
E56LXLIFT
 62
1
 10
5800.167
 20
-10082.912
 30
-349.000
 70
    32
  0
VERTEX
  8
E56LXLIFT
 62
1
 10
5803.285
 20
-10095.016
 30
-349.000
 70
    32
  0
VERTEX
  8
E56LXLIFT
 62
1
 10
5783.454
 20
-10099.343
 30
-349.000
 70
    32
  0
VERTEX
  8
E56LXLIFT
 62
1
 10
5778.945
 20
-10085.644
 30
-349.000
 70
    32
  0
VERTEX
  8
E56LXLIFT
 62
1
 10
5770.452
 20
-10062.224
 30
-349.000
 70
    32
  0
VERTEX
  8
E56LXLIFT
 62
1
 10
5766.384
 20
-10046.455
 30
-349.000
 70
    32
  0
VERTEX
  8
E56LXLIFT
 62
1
 10
5750.247
 20
-10019.166
 30
-349.000
 70
    32
  0
VERTEX
  8
E56LXLIFT
 62
1
 10
5752.404
 20
-10014.089
 30
-349.000
 70
    32
  0
VERTEX
  8
E56LXLIFT
 62
1
 10
5759.664
 20
-10001.118
 30
-349.000
 70
    32
  0
SEQEND
  8
E56LXLIFT
  0
POLYLINE
  8
E56LXLIFT
 62
1
 66
     1
 70
     9
  0
VERTEX
  8
E56LXLIFT
 62
1
 10
5861.094
 20
-9815.650
 30
-275.000
 70
    32
  0
VERTEX
  8
E56LXLIFT
 62
1
 10
5862.710
 20
-9827.534
 30
-275.000
 70
    32
  0
VERTEX
  8
E56LXLIFT
 62
1
 10
5868.163
 20
-9841.139
 30
-275.000
 70
    32
  0
VERTEX
  8
E56LXLIFT
 62
1
 10
5871.530
 20
-9851.698
 30
-275.000
 70
    32
  0
VERTEX
  8
E56LXLIFT
 62
1
 10
5866.183
 20
-9857.728
 30
-275.000
 70
    32
  0
VERTEX
  8
E56LXLIFT
 62
1
 10
5860.152
 20
-9852.381
 30
-275.000
 70
    32
  0
VERTEX
  8
E56LXLIFT
 62
1
 10
5853.046
 20
-9846.195
 30
-275.000
 70
    32
  0
VERTEX
  8
E56LXLIFT
 62
1
 10
5844.869
 20
-9844.124
 30
-275.000
 70
    32
  0
VERTEX
  8
E56LXLIFT
 62
1
 10
5839.764
 20
-9841.600
 30
-275.000
 70
    32
  0
VERTEX
  8
E56LXLIFT
 62
1
 10
5836.165
 20
-9834.081
 30
-275.000
 70
    32
  0
VERTEX
  8
E56LXLIFT
 62
1
 10
5831.488
 20
-9828.921
 30
-275.000
 70
    32
  0
VERTEX
  8
E56LXLIFT
 62
1
 10
5833.003
 20
-9822.047
 30
-275.000
 70
    32
  0
VERTEX
  8
E56LXLIFT
 62
1
 10
5840.201
 20
-9817.588
 30
-275.000
 70
    32
  0
VERTEX
  8
E56LXLIFT
 62
1
 10
5850.115
 20
-9815.261
 30
-275.000
 70
    32
  0
SEQEND
  8
E56LXLIFT
  0
POLYLINE
  8
E56LXLIFT
 62
1
 66
     1
 70
     9
  0
VERTEX
  8
E56LXLIFT
 62
1
 10
5696.555
 20
-9829.578
 30
-261.000
 70
    32
  0
VERTEX
  8
E56LXLIFT
 62
1
 10
5709.248
 20
-9818.688
 30
-261.000
 70
    32
  0
VERTEX
  8
E56LXLIFT
 62
1
 10
5718.353
 20
-9813.253
 30
-261.000
 70
    32
  0
VERTEX
  8
E56LXLIFT
 62
1
 10
5728.613
 20
-9812.999
 30
-261.000
 70
    32
  0
VERTEX
  8
E56LXLIFT
 62
1
 10
5734.669
 20
-9817.674
 30
-261.000
 70
    32
  0
VERTEX
  8
E56LXLIFT
 62
1
 10
5735.910
 20
-9822.239
 30
-261.000
 70
    32
  0
VERTEX
  8
E56LXLIFT
 62
1
 10
5726.533
 20
-9838.111
 30
-261.000
 70
    32
  0
VERTEX
  8
E56LXLIFT
 62
1
 10
5727.350
 20
-9855.100
 30
-261.000
 70
    32
  0
VERTEX
  8
E56LXLIFT
 62
1
 10
5726.905
 20
-9866.767
 30
-261.000
 70
    32
  0
VERTEX
  8
E56LXLIFT
 62
1
 10
5723.865
 20
-9880.392
 30
-261.000
 70
    32
  0
VERTEX
  8
E56LXLIFT
 62
1
 10
5723.624
 20
-9903.128
 30
-261.000
 70
    32
  0
VERTEX
  8
E56LXLIFT
 62
1
 10
5726.422
 20
-9918.512
 30
-261.000
 70
    32
  0
VERTEX
  8
E56LXLIFT
 62
1
 10
5719.412
 20
-9918.846
 30
-261.000
 70
    32
  0
VERTEX
  8
E56LXLIFT
 62
1
 10
5705.360
 20
-9879.051
 30
-261.000
 70
    32
  0
VERTEX
  8
E56LXLIFT
 62
1
 10
5689.748
 20
-9833.830
 30
-261.000
 70
    32
  0
SEQEND
  8
E56LXLIFT
  0
POLYLINE
  8
E56LXLIFT
 62
4
 66
     1
 70
     9
  0
VERTEX
  8
E56LXLIFT
 62
4
 10
5841.902
 20
-9548.112
 30
-370.896
 70
    32
  0
VERTEX
  8
E56LXLIFT
 62
4
 10
5843.120
 20
-9549.998
 30
-370.893
 70
    32
  0
VERTEX
  8
E56LXLIFT
 62
4
 10
5837.196
 20
-9556.752
 30
-370.906
 70
    32
  0
VERTEX
  8
E56LXLIFT
 62
4
 10
5845.333
 20
-9575.930
 30
-370.882
 70
    32
  0
VERTEX
  8
E56LXLIFT
 62
4
 10
5838.195
 20
-9580.952
 30
-370.899
 70
    32
  0
VERTEX
  8
E56LXLIFT
 62
4
 10
5835.781
 20
-9572.148
 30
-370.907
 70
    32
  0
VERTEX
  8
E56LXLIFT
 62
4
 10
5831.315
 20
-9566.026
 30
-370.919
 70
    32
  0
VERTEX
  8
E56LXLIFT
 62
4
 10
5827.255
 20
-9563.476
 30
-370.930
 70
    32
  0
VERTEX
  8
E56LXLIFT
 62
4
 10
5816.576
 20
-9568.657
 30
-370.955
 70
    32
  0
VERTEX
  8
E56LXLIFT
 62
4
 10
5816.110
 20
-9566.629
 30
-370.957
 70
    32
  0
VERTEX
  8
E56LXLIFT
 62
4
 10
5811.524
 20
-9559.880
 30
-370.970
 70
    32
  0
VERTEX
  8
E56LXLIFT
 62
4
 10
5807.051
 20
-9548.102
 30
-370.983
 70
    32
  0
VERTEX
  8
E56LXLIFT
 62
4
 10
5821.614
 20
-9533.068
 30
-370.949
 70
    32
  0
VERTEX
  8
E56LXLIFT
 62
4
 10
5819.637
 20
-9530.921
 30
-370.955
 70
    32
  0
VERTEX
  8
E56LXLIFT
 62
4
 10
5822.689
 20
-9527.807
 30
-370.948
 70
    32
  0
VERTEX
  8
E56LXLIFT
 62
4
 10
5827.332
 20
-9526.915
 30
-370.936
 70
    32
  0
VERTEX
  8
E56LXLIFT
 62
4
 10
5836.585
 20
-9541.907
 30
-370.911
 70
    32
  0
SEQEND
  8
E56LXLIFT
  0
POLYLINE
  8
E56LXLIFT
 62
6
 66
     1
 70
     9
  0
VERTEX
  8
E56LXLIFT
 62
6
 10
5850.136
 20
-9834.354
 30
-370.733
 70
    32
  0
VERTEX
  8
E56LXLIFT
 62
6
 10
5847.919
 20
-9853.324
 30
-370.742
 70
    32
  0
VERTEX
  8
E56LXLIFT
 62
6
 10
5849.774
 20
-9871.542
 30
-370.750
 70
    32
  0
VERTEX
  8
E56LXLIFT
 62
6
 10
5849.774
 20
-9871.542
 30
-370.750
 70
    32
  0
VERTEX
  8
E56LXLIFT
 62
6
 10
5843.567
 20
-9880.004
 30
-370.755
 70
    32
  0
VERTEX
  8
E56LXLIFT
 62
6
 10
5836.059
 20
-9875.916
 30
-370.754
 70
    32
  0
VERTEX
  8
E56LXLIFT
 62
6
 10
5828.702
 20
-9871.699
 30
-370.753
 70
    32
  0
VERTEX
  8
E56LXLIFT
 62
6
 10
5820.987
 20
-9863.072
 30
-370.750
 70
    32
  0
VERTEX
  8
E56LXLIFT
 62
6
 10
5818.238
 20
-9857.334
 30
-370.748
 70
    32
  0
VERTEX
  8
E56LXLIFT
 62
6
 10
5822.876
 20
-9844.567
 30
-370.742
 70
    32
  0
VERTEX
  8
E56LXLIFT
 62
6
 10
5819.950
 20
-9815.492
 30
-370.764
 70
    32
  0
VERTEX
  8
E56LXLIFT
 62
6
 10
5823.920
 20
-9778.944
 30
-370.791
 70
    32
  0
VERTEX
  8
E56LXLIFT
 62
6
 10
5829.869
 20
-9772.947
 30
-370.786
 70
    32
  0
VERTEX
  8
E56LXLIFT
 62
6
 10
5837.325
 20
-9782.106
 30
-370.764
 70
    32
  0
VERTEX
  8
E56LXLIFT
 62
6
 10
5838.788
 20
-9783.871
 30
-370.760
 70
    32
  0
VERTEX
  8
E56LXLIFT
 62
6
 10
5840.497
 20
-9785.669
 30
-370.755
 70
    32
  0
VERTEX
  8
E56LXLIFT
 62
6
 10
5847.971
 20
-9810.790
 30
-370.722
 70
    32
  0
VERTEX
  8
E56LXLIFT
 62
6
 10
5856.001
 20
-9808.525
 30
-370.720
 70
    32
  0
VERTEX
  8
E56LXLIFT
 62
6
 10
5862.506
 20
-9815.891
 30
-370.722
 70
    32
  0
SEQEND
  8
E56LXLIFT
  0
POLYLINE
  8
E56LXLIFT
 62
3
 66
     1
 70
     9
  0
VERTEX
  8
E56LXLIFT
 62
3
 10
5764.158
 20
-10000.796
 30
-370.808
 70
    32
  0
VERTEX
  8
E56LXLIFT
 62
3
 10
5803.257
 20
-10097.994
 30
-370.787
 70
    32
  0
VERTEX
  8
E56LXLIFT
 62
3
 10
5795.870
 20
-10101.098
 30
-370.790
 70
    32
  0
VERTEX
  8
E56LXLIFT
 62
3
 10
5792.569
 20
-10100.409
 30
-370.791
 70
    32
  0
VERTEX
  8
E56LXLIFT
 62
3
 10
5780.826
 20
-10096.086
 30
-370.794
 70
    32
  0
VERTEX
  8
E56LXLIFT
 62
3
 10
5779.642
 20
-10092.221
 30
-370.794
 70
    32
  0
VERTEX
  8
E56LXLIFT
 62
3
 10
5774.951
 20
-10088.268
 30
-370.795
 70
    32
  0
VERTEX
  8
E56LXLIFT
 62
3
 10
5767.332
 20
-10068.028
 30
-370.796
 70
    32
  0
VERTEX
  8
E56LXLIFT
 62
3
 10
5763.589
 20
-10046.041
 30
-370.796
 70
    32
  0
VERTEX
  8
E56LXLIFT
 62
3
 10
5747.574
 20
-10021.357
 30
-370.800
 70
    32
  0
VERTEX
  8
E56LXLIFT
 62
3
 10
5756.619
 20
-10002.449
 30
-370.797
 70
    32
  0
SEQEND
  8
E56LXLIFT
  0
POINT
  8
E56LXLIFT
 62
1
 10
5744.942
 20
-9868.283
 30
-301.000
  0
LINE
  8
E56LXLIFT
 62
13
 10
5744.942
 20
-9868.283
 30
-301.000
 11
5754.341
 21
-9872.409
 31
-383.000
  0
POINT
  8
E56LXLIFT
 62
1
 10
5754.341
 20
-9872.409
 30
-383.000
  0
POLYLINE
  8
E56LXLIFT
 62
3
 66
     1
 70
     9
  0
VERTEX
  8
E56LXLIFT
 62
3
 10
5188.236
 20
-9080.534
 30
-369.424
 70
    32
  0
VERTEX
  8
E56LXLIFT
 62
3
 10
5204.731
 20
-9089.525
 30
-369.474
 70
    32
  0
VERTEX
  8
E56LXLIFT
 62
3
 10
5219.349
 20
-9084.894
 30
-369.512
 70
    32
  0
VERTEX
  8
E56LXLIFT
 62
3
 10
5227.041
 20
-9095.403
 30
-369.538
 70
    32
  0
VERTEX
  8
E56LXLIFT
 62
3
 10
5233.891
 20
-9100.025
 30
-369.560
 70
    32
  0
VERTEX
  8
E56LXLIFT
 62
3
 10
5236.778
 20
-9132.799
 30
-369.583
 70
    32
  0
VERTEX
  8
E56LXLIFT
 62
3
 10
5242.480
 20
-9143.167
 30
-369.604
 70
    32
  0
VERTEX
  8
E56LXLIFT
 62
3
 10
5238.469
 20
-9153.425
 30
-369.597
 70
    32
  0
VERTEX
  8
E56LXLIFT
 62
3
 10
5230.385
 20
-9160.815
 30
-369.579
 70
    32
  0
VERTEX
  8
E56LXLIFT
 62
3
 10
5225.011
 20
-9162.040
 30
-369.564
 70
    32
  0
VERTEX
  8
E56LXLIFT
 62
3
 10
5219.565
 20
-9160.996
 30
-369.549
 70
    32
  0
VERTEX
  8
E56LXLIFT
 62
3
 10
5216.008
 20
-9162.716
 30
-369.540
 70
    32
  0
VERTEX
  8
E56LXLIFT
 62
3
 10
5197.753
 20
-9137.359
 30
-369.477
 70
    32
  0
VERTEX
  8
E56LXLIFT
 62
3
 10
5191.031
 20
-9133.194
 30
-369.457
 70
    32
  0
VERTEX
  8
E56LXLIFT
 62
3
 10
5182.550
 20
-9114.984
 30
-369.425
 70
    32
  0
VERTEX
  8
E56LXLIFT
 62
3
 10
5178.427
 20
-9100.388
 30
-369.406
 70
    32
  0
VERTEX
  8
E56LXLIFT
 62
3
 10
5174.490
 20
-9090.366
 30
-369.391
 70
    32
  0
VERTEX
  8
E56LXLIFT
 62
3
 10
5180.557
 20
-9087.371
 30
-369.406
 70
    32
  0
SEQEND
  8
E56LXLIFT
  0
POLYLINE
  8
E56LXLIFT
 62
6
 66
     1
 70
     9
  0
VERTEX
  8
E56LXLIFT
 62
6
 10
5164.004
 20
-9242.961
 30
-369.455
 70
    32
  0
VERTEX
  8
E56LXLIFT
 62
6
 10
5156.813
 20
-9232.890
 30
-369.409
 70
    32
  0
VERTEX
  8
E56LXLIFT
 62
6
 10
5153.656
 20
-9231.206
 30
-369.399
 70
    32
  0
VERTEX
  8
E56LXLIFT
 62
6
 10
5146.463
 20
-9232.923
 30
-369.381
 70
    32
  0
VERTEX
  8
E56LXLIFT
 62
6
 10
5139.148
 20
-9221.268
 30
-369.355
 70
    32
  0
VERTEX
  8
E56LXLIFT
 62
6
 10
5120.674
 20
-9199.277
 30
-369.293
 70
    32
  0
VERTEX
  8
E56LXLIFT
 62
6
 10
5113.575
 20
-9190.827
 30
-369.270
 70
    32
  0
VERTEX
  8
E56LXLIFT
 62
6
 10
5111.070
 20
-9183.696
 30
-369.259
 70
    32
  0
VERTEX
  8
E56LXLIFT
 62
6
 10
5109.429
 20
-9177.237
 30
-369.252
 70
    32
  0
VERTEX
  8
E56LXLIFT
 62
6
 10
5105.027
 20
-9170.747
 30
-369.236
 70
    32
  0
VERTEX
  8
E56LXLIFT
 62
6
 10
5096.150
 20
-9133.026
 30
-369.194
 70
    32
  0
VERTEX
  8
E56LXLIFT
 62
6
 10
5099.510
 20
-9130.903
 30
-369.202
 70
    32
  0
VERTEX
  8
E56LXLIFT
 62
6
 10
5101.790
 20
-9132.151
 30
-369.209
 70
    32
  0
VERTEX
  8
E56LXLIFT
 62
6
 10
5118.978
 20
-9156.109
 30
-369.268
 70
    32
  0
VERTEX
  8
E56LXLIFT
 62
6
 10
5123.013
 20
-9158.785
 30
-369.281
 70
    32
  0
VERTEX
  8
E56LXLIFT
 62
6
 10
5130.323
 20
-9167.924
 30
-369.305
 70
    32
  0
VERTEX
  8
E56LXLIFT
 62
6
 10
5134.906
 20
-9167.087
 30
-369.317
 70
    32
  0
VERTEX
  8
E56LXLIFT
 62
6
 10
5143.039
 20
-9173.270
 30
-369.343
 70
    32
  0
VERTEX
  8
E56LXLIFT
 62
6
 10
5138.844
 20
-9186.767
 30
-369.338
 70
    32
  0
VERTEX
  8
E56LXLIFT
 62
6
 10
5151.792
 20
-9206.768
 30
-369.383
 70
    32
  0
VERTEX
  8
E56LXLIFT
 62
6
 10
5160.432
 20
-9213.011
 30
-369.410
 70
    32
  0
VERTEX
  8
E56LXLIFT
 62
6
 10
5168.999
 20
-9231.043
 30
-369.442
 70
    32
  0
VERTEX
  8
E56LXLIFT
 62
6
 10
5168.660
 20
-9238.718
 30
-369.445
 70
    32
  0
SEQEND
  8
E56LXLIFT
  0
POLYLINE
  8
E56LXLIFT
 62
13
 66
     1
 70
     9
  0
VERTEX
  8
E56LXLIFT
 62
13
 10
5009.289
 20
-9139.994
 30
-368.959
 70
    32
  0
VERTEX
  8
E56LXLIFT
 62
13
 10
5006.938
 20
-9149.562
 30
-369.011
 70
    32
  0
VERTEX
  8
E56LXLIFT
 62
13
 10
5013.413
 20
-9178.047
 30
-369.160
 70
    32
  0
VERTEX
  8
E56LXLIFT
 62
13
 10
5022.745
 20
-9195.053
 30
-369.246
 70
    32
  0
VERTEX
  8
E56LXLIFT
 62
13
 10
5007.363
 20
-9211.134
 30
-369.341
 70
    32
  0
VERTEX
  8
E56LXLIFT
 62
13
 10
5002.188
 20
-9209.984
 30
-369.338
 70
    32
  0
VERTEX
  8
E56LXLIFT
 62
13
 10
4982.047
 20
-9176.980
 30
-369.172
 70
    32
  0
VERTEX
  8
E56LXLIFT
 62
13
 10
4971.005
 20
-9167.265
 30
-369.126
 70
    32
  0
SEQEND
  8
E56LXLIFT
  0
POLYLINE
  8
E56LXLIFT
 62
7
 66
     1
 70
     9
  0
VERTEX
  8
E56LXLIFT
 62
7
 10
4853.832
 20
-9368.766
 30
-370.047
 70
    32
  0
VERTEX
  8
E56LXLIFT
 62
7
 10
4848.908
 20
-9364.419
 30
-370.043
 70
    32
  0
VERTEX
  8
E56LXLIFT
 62
7
 10
4848.866
 20
-9361.268
 30
-370.043
 70
    32
  0
VERTEX
  8
E56LXLIFT
 62
7
 10
4845.607
 20
-9356.891
 30
-370.041
 70
    32
  0
VERTEX
  8
E56LXLIFT
 62
7
 10
4834.153
 20
-9355.655
 30
-370.030
 70
    32
  0
VERTEX
  8
E56LXLIFT
 62
7
 10
4826.990
 20
-9345.298
 30
-370.025
 70
    32
  0
VERTEX
  8
E56LXLIFT
 62
7
 10
4819.396
 20
-9342.613
 30
-370.018
 70
    32
  0
VERTEX
  8
E56LXLIFT
 62
7
 10
4803.305
 20
-9310.370
 30
-369.986
 70
    32
  0
VERTEX
  8
E56LXLIFT
 62
7
 10
4806.904
 20
-9303.717
 30
-369.948
 70
    32
  0
VERTEX
  8
E56LXLIFT
 62
7
 10
4813.352
 20
-9294.118
 30
-369.893
 70
    32
  0
VERTEX
  8
E56LXLIFT
 62
7
 10
4826.218
 20
-9289.147
 30
-369.859
 70
    32
  0
VERTEX
  8
E56LXLIFT
 62
7
 10
4836.427
 20
-9289.006
 30
-369.853
 70
    32
  0
VERTEX
  8
E56LXLIFT
 62
7
 10
4858.030
 20
-9297.390
 30
-369.886
 70
    32
  0
VERTEX
  8
E56LXLIFT
 62
7
 10
4864.261
 20
-9297.358
 30
-369.882
 70
    32
  0
VERTEX
  8
E56LXLIFT
 62
7
 10
4868.559
 20
-9296.353
 30
-369.875
 70
    32
  0
VERTEX
  8
E56LXLIFT
 62
7
 10
4871.973
 20
-9291.507
 30
-369.847
 70
    32
  0
VERTEX
  8
E56LXLIFT
 62
7
 10
4879.870
 20
-9288.260
 30
-369.825
 70
    32
  0
VERTEX
  8
E56LXLIFT
 62
7
 10
4888.558
 20
-9290.350
 30
-369.832
 70
    32
  0
VERTEX
  8
E56LXLIFT
 62
7
 10
4888.203
 20
-9296.210
 30
-369.863
 70
    32
  0
VERTEX
  8
E56LXLIFT
 62
7
 10
4891.312
 20
-9302.892
 30
-369.897
 70
    32
  0
VERTEX
  8
E56LXLIFT
 62
7
 10
4885.243
 20
-9306.971
 30
-369.922
 70
    32
  0
VERTEX
  8
E56LXLIFT
 62
7
 10
4883.882
 20
-9316.191
 30
-369.973
 70
    32
  0
VERTEX
  8
E56LXLIFT
 62
7
 10
4881.346
 20
-9322.872
 30
-370.010
 70
    32
  0
VERTEX
  8
E56LXLIFT
 62
7
 10
4880.711
 20
-9332.876
 30
-370.065
 70
    32
  0
VERTEX
  8
E56LXLIFT
 62
7
 10
4880.048
 20
-9343.318
 30
-370.123
 70
    32
  0
VERTEX
  8
E56LXLIFT
 62
7
 10
4882.006
 20
-9347.126
 30
-370.136
 70
    32
  0
SEQEND
  8
E56LXLIFT
  0
ENDSEC
  0
EOF
