999
********************************
999
*   DXF File - Entities Only   *
999
*        3D Data Format        *
999
*     Output from ENVISAGE     *
999
*     31-Dec-2007 14:45:50     *
999
********************************
  0
SECTION 
  2
HEADER
  9
$ACADVER
  1
AC1009
  9
$EXTMIN
 10
-290000.000
 20
-250000.000
 30
-4000.000
  9
$EXTMAX
 10
320000.000
 20
160000.000
 30
6000.000
  0
ENDSEC
  0
SECTION
  2
ENTITIES
  0
POLYLINE
  8
E57LXLIFT
 62
3
 66
     1
 70
     9
  0
VERTEX
  8
E57LXLIFT
 62
3
 10
5490.143
 20
-9718.826
 30
-504.000
 70
    32
  0
VERTEX
  8
E57LXLIFT
 62
3
 10
5499.087
 20
-9712.274
 30
-504.000
 70
    32
  0
VERTEX
  8
E57LXLIFT
 62
3
 10
5509.855
 20
-9709.404
 30
-504.000
 70
    32
  0
VERTEX
  8
E57LXLIFT
 62
3
 10
5518.854
 20
-9716.773
 30
-504.000
 70
    32
  0
VERTEX
  8
E57LXLIFT
 62
3
 10
5530.969
 20
-9725.569
 30
-504.000
 70
    32
  0
VERTEX
  8
E57LXLIFT
 62
3
 10
5527.850
 20
-9736.797
 30
-504.000
 70
    32
  0
VERTEX
  8
E57LXLIFT
 62
3
 10
5527.289
 20
-9742.880
 30
-504.000
 70
    32
  0
VERTEX
  8
E57LXLIFT
 62
3
 10
5513.873
 20
-9743.328
 30
-504.000
 70
    32
  0
VERTEX
  8
E57LXLIFT
 62
3
 10
5500.402
 20
-9740.870
 30
-504.000
 70
    32
  0
VERTEX
  8
E57LXLIFT
 62
3
 10
5495.261
 20
-9730.130
 30
-504.000
 70
    32
  0
SEQEND
  8
E57LXLIFT
  0
POLYLINE
  8
E57LXLIFT
 62
6
 66
     1
 70
     9
  0
VERTEX
  8
E57LXLIFT
 62
6
 10
5473.854
 20
-9519.698
 30
-503.000
 70
    32
  0
VERTEX
  8
E57LXLIFT
 62
6
 10
5465.627
 20
-9529.761
 30
-503.000
 70
    32
  0
VERTEX
  8
E57LXLIFT
 62
6
 10
5454.046
 20
-9540.753
 30
-503.000
 70
    32
  0
VERTEX
  8
E57LXLIFT
 62
6
 10
5448.794
 20
-9544.601
 30
-503.000
 70
    32
  0
VERTEX
  8
E57LXLIFT
 62
6
 10
5437.762
 20
-9553.664
 30
-503.000
 70
    32
  0
VERTEX
  8
E57LXLIFT
 62
6
 10
5434.596
 20
-9556.637
 30
-503.000
 70
    32
  0
VERTEX
  8
E57LXLIFT
 62
6
 10
5419.856
 20
-9557.510
 30
-503.000
 70
    32
  0
VERTEX
  8
E57LXLIFT
 62
6
 10
5412.540
 20
-9552.288
 30
-503.000
 70
    32
  0
VERTEX
  8
E57LXLIFT
 62
6
 10
5409.221
 20
-9540.759
 30
-503.000
 70
    32
  0
VERTEX
  8
E57LXLIFT
 62
6
 10
5407.623
 20
-9529.495
 30
-503.000
 70
    32
  0
VERTEX
  8
E57LXLIFT
 62
6
 10
5420.545
 20
-9522.864
 30
-503.000
 70
    32
  0
VERTEX
  8
E57LXLIFT
 62
6
 10
5429.267
 20
-9515.712
 30
-503.000
 70
    32
  0
VERTEX
  8
E57LXLIFT
 62
6
 10
5446.289
 20
-9521.676
 30
-503.000
 70
    32
  0
VERTEX
  8
E57LXLIFT
 62
6
 10
5454.685
 20
-9523.161
 30
-503.000
 70
    32
  0
VERTEX
  8
E57LXLIFT
 62
6
 10
5463.444
 20
-9515.762
 30
-503.000
 70
    32
  0
VERTEX
  8
E57LXLIFT
 62
6
 10
5468.678
 20
-9512.037
 30
-503.000
 70
    32
  0
SEQEND
  8
E57LXLIFT
  0
POLYLINE
  8
E57LXLIFT
 62
13
 66
     1
 70
     9
  0
VERTEX
  8
E57LXLIFT
 62
13
 10
5349.389
 20
-9449.553
 30
-504.000
 70
    32
  0
VERTEX
  8
E57LXLIFT
 62
13
 10
5346.954
 20
-9437.593
 30
-504.000
 70
    32
  0
VERTEX
  8
E57LXLIFT
 62
13
 10
5350.310
 20
-9424.009
 30
-504.000
 70
    32
  0
VERTEX
  8
E57LXLIFT
 62
13
 10
5344.163
 20
-9401.025
 30
-504.000
 70
    32
  0
VERTEX
  8
E57LXLIFT
 62
13
 10
5336.210
 20
-9375.874
 30
-504.000
 70
    32
  0
VERTEX
  8
E57LXLIFT
 62
13
 10
5327.051
 20
-9349.970
 30
-504.000
 70
    32
  0
VERTEX
  8
E57LXLIFT
 62
13
 10
5319.075
 20
-9331.489
 30
-504.000
 70
    32
  0
VERTEX
  8
E57LXLIFT
 62
13
 10
5308.718
 20
-9325.987
 30
-504.000
 70
    32
  0
VERTEX
  8
E57LXLIFT
 62
13
 10
5300.646
 20
-9339.536
 30
-504.000
 70
    32
  0
VERTEX
  8
E57LXLIFT
 62
13
 10
5308.030
 20
-9358.996
 30
-504.000
 70
    32
  0
VERTEX
  8
E57LXLIFT
 62
13
 10
5309.398
 20
-9375.009
 30
-504.000
 70
    32
  0
VERTEX
  8
E57LXLIFT
 62
13
 10
5315.263
 20
-9385.547
 30
-504.000
 70
    32
  0
VERTEX
  8
E57LXLIFT
 62
13
 10
5315.947
 20
-9398.244
 30
-504.000
 70
    32
  0
VERTEX
  8
E57LXLIFT
 62
13
 10
5319.737
 20
-9407.139
 30
-504.000
 70
    32
  0
VERTEX
  8
E57LXLIFT
 62
13
 10
5318.939
 20
-9421.685
 30
-504.000
 70
    32
  0
VERTEX
  8
E57LXLIFT
 62
13
 10
5326.230
 20
-9436.849
 30
-504.000
 70
    32
  0
VERTEX
  8
E57LXLIFT
 62
13
 10
5335.570
 20
-9443.642
 30
-504.000
 70
    32
  0
SEQEND
  8
E57LXLIFT
  0
POLYLINE
  8
E57LXLIFT
 62
7
 66
     1
 70
     9
  0
VERTEX
  8
E57LXLIFT
 62
7
 10
5224.248
 20
-9433.131
 30
-502.000
 70
    32
  0
VERTEX
  8
E57LXLIFT
 62
7
 10
5219.495
 20
-9450.466
 30
-502.000
 70
    32
  0
VERTEX
  8
E57LXLIFT
 62
7
 10
5225.719
 20
-9461.941
 30
-502.000
 70
    32
  0
VERTEX
  8
E57LXLIFT
 62
7
 10
5225.489
 20
-9468.327
 30
-502.000
 70
    32
  0
VERTEX
  8
E57LXLIFT
 62
7
 10
5229.640
 20
-9473.248
 30
-502.000
 70
    32
  0
VERTEX
  8
E57LXLIFT
 62
7
 10
5243.192
 20
-9474.774
 30
-502.000
 70
    32
  0
VERTEX
  8
E57LXLIFT
 62
7
 10
5248.988
 20
-9480.453
 30
-502.000
 70
    32
  0
VERTEX
  8
E57LXLIFT
 62
7
 10
5263.426
 20
-9479.912
 30
-502.000
 70
    32
  0
VERTEX
  8
E57LXLIFT
 62
7
 10
5267.512
 20
-9471.792
 30
-502.000
 70
    32
  0
VERTEX
  8
E57LXLIFT
 62
7
 10
5267.135
 20
-9459.961
 30
-502.000
 70
    32
  0
VERTEX
  8
E57LXLIFT
 62
7
 10
5266.448
 20
-9453.811
 30
-502.000
 70
    32
  0
VERTEX
  8
E57LXLIFT
 62
7
 10
5258.206
 20
-9438.688
 30
-502.000
 70
    32
  0
VERTEX
  8
E57LXLIFT
 62
7
 10
5245.111
 20
-9430.938
 30
-502.000
 70
    32
  0
SEQEND
  8
E57LXLIFT
  0
POLYLINE
  8
E57LXLIFT
 62
8
 66
     1
 70
     9
  0
VERTEX
  8
E57LXLIFT
 62
8
 10
5283.903
 20
-9333.803
 30
-504.000
 70
    32
  0
VERTEX
  8
E57LXLIFT
 62
8
 10
5270.405
 20
-9329.075
 30
-504.000
 70
    32
  0
VERTEX
  8
E57LXLIFT
 62
8
 10
5263.035
 20
-9328.693
 30
-504.000
 70
    32
  0
VERTEX
  8
E57LXLIFT
 62
8
 10
5256.306
 20
-9322.933
 30
-504.000
 70
    32
  0
VERTEX
  8
E57LXLIFT
 62
8
 10
5256.466
 20
-9316.599
 30
-504.000
 70
    32
  0
VERTEX
  8
E57LXLIFT
 62
8
 10
5255.462
 20
-9308.826
 30
-504.000
 70
    32
  0
VERTEX
  8
E57LXLIFT
 62
8
 10
5249.964
 20
-9301.619
 30
-504.000
 70
    32
  0
VERTEX
  8
E57LXLIFT
 62
8
 10
5236.562
 20
-9293.002
 30
-504.000
 70
    32
  0
VERTEX
  8
E57LXLIFT
 62
8
 10
5227.605
 20
-9289.857
 30
-504.000
 70
    32
  0
VERTEX
  8
E57LXLIFT
 62
8
 10
5217.371
 20
-9292.118
 30
-504.000
 70
    32
  0
VERTEX
  8
E57LXLIFT
 62
8
 10
5214.893
 20
-9282.480
 30
-504.000
 70
    32
  0
VERTEX
  8
E57LXLIFT
 62
8
 10
5220.668
 20
-9274.432
 30
-504.000
 70
    32
  0
VERTEX
  8
E57LXLIFT
 62
8
 10
5221.532
 20
-9268.018
 30
-504.000
 70
    32
  0
VERTEX
  8
E57LXLIFT
 62
8
 10
5221.511
 20
-9263.671
 30
-504.000
 70
    32
  0
VERTEX
  8
E57LXLIFT
 62
8
 10
5236.072
 20
-9261.512
 30
-504.000
 70
    32
  0
VERTEX
  8
E57LXLIFT
 62
8
 10
5245.937
 20
-9259.194
 30
-504.000
 70
    32
  0
VERTEX
  8
E57LXLIFT
 62
8
 10
5250.450
 20
-9258.506
 30
-504.000
 70
    32
  0
VERTEX
  8
E57LXLIFT
 62
8
 10
5265.766
 20
-9278.372
 30
-504.000
 70
    32
  0
VERTEX
  8
E57LXLIFT
 62
8
 10
5276.961
 20
-9292.314
 30
-504.000
 70
    32
  0
VERTEX
  8
E57LXLIFT
 62
8
 10
5287.118
 20
-9309.306
 30
-504.000
 70
    32
  0
VERTEX
  8
E57LXLIFT
 62
8
 10
5296.622
 20
-9317.069
 30
-504.000
 70
    32
  0
SEQEND
  8
E57LXLIFT
  0
POLYLINE
  8
E57LXLIFT
 62
11
 66
     1
 70
     9
  0
VERTEX
  8
E57LXLIFT
 62
11
 10
4933.361
 20
-9391.312
 30
-506.000
 70
    32
  0
VERTEX
  8
E57LXLIFT
 62
11
 10
4946.568
 20
-9382.837
 30
-506.000
 70
    32
  0
VERTEX
  8
E57LXLIFT
 62
11
 10
4955.134
 20
-9375.471
 30
-506.000
 70
    32
  0
VERTEX
  8
E57LXLIFT
 62
11
 10
4945.882
 20
-9364.033
 30
-506.000
 70
    32
  0
VERTEX
  8
E57LXLIFT
 62
11
 10
4937.279
 20
-9370.008
 30
-506.000
 70
    32
  0
VERTEX
  8
E57LXLIFT
 62
11
 10
4930.631
 20
-9364.953
 30
-506.000
 70
    32
  0
VERTEX
  8
E57LXLIFT
 62
11
 10
4922.101
 20
-9365.965
 30
-506.000
 70
    32
  0
VERTEX
  8
E57LXLIFT
 62
11
 10
4913.905
 20
-9362.371
 30
-506.000
 70
    32
  0
VERTEX
  8
E57LXLIFT
 62
11
 10
4904.928
 20
-9359.348
 30
-506.000
 70
    32
  0
VERTEX
  8
E57LXLIFT
 62
11
 10
4899.386
 20
-9363.844
 30
-506.000
 70
    32
  0
VERTEX
  8
E57LXLIFT
 62
11
 10
4901.759
 20
-9368.869
 30
-506.000
 70
    32
  0
VERTEX
  8
E57LXLIFT
 62
11
 10
4896.001
 20
-9378.431
 30
-506.000
 70
    32
  0
VERTEX
  8
E57LXLIFT
 62
11
 10
4901.584
 20
-9387.540
 30
-506.000
 70
    32
  0
VERTEX
  8
E57LXLIFT
 62
11
 10
4911.302
 20
-9391.873
 30
-506.000
 70
    32
  0
VERTEX
  8
E57LXLIFT
 62
11
 10
4921.038
 20
-9391.613
 30
-506.000
 70
    32
  0
VERTEX
  8
E57LXLIFT
 62
11
 10
4922.984
 20
-9387.570
 30
-506.000
 70
    32
  0
SEQEND
  8
E57LXLIFT
  0
POLYLINE
  8
E57LXLIFT
 62
11
 66
     1
 70
     9
  0
VERTEX
  8
E57LXLIFT
 62
11
 10
5893.160
 20
-9897.435
 30
-491.000
 70
    32
  0
VERTEX
  8
E57LXLIFT
 62
11
 10
5901.532
 20
-9909.953
 30
-491.000
 70
    32
  0
VERTEX
  8
E57LXLIFT
 62
11
 10
5900.251
 20
-9923.941
 30
-491.000
 70
    32
  0
VERTEX
  8
E57LXLIFT
 62
11
 10
5892.958
 20
-9934.644
 30
-491.000
 70
    32
  0
VERTEX
  8
E57LXLIFT
 62
11
 10
5886.480
 20
-9934.500
 30
-491.000
 70
    32
  0
VERTEX
  8
E57LXLIFT
 62
11
 10
5870.003
 20
-9935.641
 30
-491.000
 70
    32
  0
VERTEX
  8
E57LXLIFT
 62
11
 10
5866.005
 20
-9933.516
 30
-491.000
 70
    32
  0
VERTEX
  8
E57LXLIFT
 62
11
 10
5868.188
 20
-9917.914
 30
-491.000
 70
    32
  0
VERTEX
  8
E57LXLIFT
 62
11
 10
5874.695
 20
-9899.882
 30
-491.000
 70
    32
  0
VERTEX
  8
E57LXLIFT
 62
11
 10
5878.119
 20
-9896.040
 30
-491.000
 70
    32
  0
SEQEND
  8
E57LXLIFT
  0
POLYLINE
  8
E57LXLIFT
 62
8
 66
     1
 70
     9
  0
VERTEX
  8
E57LXLIFT
 62
8
 10
5813.054
 20
-9707.651
 30
-498.000
 70
    32
  0
VERTEX
  8
E57LXLIFT
 62
8
 10
5794.049
 20
-9702.054
 30
-498.000
 70
    32
  0
VERTEX
  8
E57LXLIFT
 62
8
 10
5774.190
 20
-9699.658
 30
-498.000
 70
    32
  0
VERTEX
  8
E57LXLIFT
 62
8
 10
5753.158
 20
-9694.099
 30
-498.000
 70
    32
  0
VERTEX
  8
E57LXLIFT
 62
8
 10
5739.675
 20
-9690.946
 30
-498.000
 70
    32
  0
VERTEX
  8
E57LXLIFT
 62
8
 10
5726.353
 20
-9696.216
 30
-498.000
 70
    32
  0
VERTEX
  8
E57LXLIFT
 62
8
 10
5717.784
 20
-9705.126
 30
-498.000
 70
    32
  0
VERTEX
  8
E57LXLIFT
 62
8
 10
5715.013
 20
-9710.341
 30
-498.000
 70
    32
  0
VERTEX
  8
E57LXLIFT
 62
8
 10
5724.302
 20
-9712.157
 30
-498.000
 70
    32
  0
VERTEX
  8
E57LXLIFT
 62
8
 10
5732.938
 20
-9712.600
 30
-498.000
 70
    32
  0
VERTEX
  8
E57LXLIFT
 62
8
 10
5748.652
 20
-9728.753
 30
-498.000
 70
    32
  0
VERTEX
  8
E57LXLIFT
 62
8
 10
5761.038
 20
-9720.043
 30
-498.000
 70
    32
  0
VERTEX
  8
E57LXLIFT
 62
8
 10
5770.603
 20
-9722.095
 30
-498.000
 70
    32
  0
VERTEX
  8
E57LXLIFT
 62
8
 10
5784.801
 20
-9726.252
 30
-498.000
 70
    32
  0
VERTEX
  8
E57LXLIFT
 62
8
 10
5792.372
 20
-9727.021
 30
-498.000
 70
    32
  0
VERTEX
  8
E57LXLIFT
 62
8
 10
5802.273
 20
-9724.079
 30
-498.000
 70
    32
  0
SEQEND
  8
E57LXLIFT
  0
POLYLINE
  8
E57LXLIFT
 62
3
 66
     1
 70
     9
  0
VERTEX
  8
E57LXLIFT
 62
3
 10
5524.587
 20
-9729.741
 30
-496.000
 70
    32
  0
VERTEX
  8
E57LXLIFT
 62
3
 10
5511.396
 20
-9723.354
 30
-496.000
 70
    32
  0
VERTEX
  8
E57LXLIFT
 62
3
 10
5500.771
 20
-9712.224
 30
-496.000
 70
    32
  0
VERTEX
  8
E57LXLIFT
 62
3
 10
5485.356
 20
-9694.670
 30
-496.000
 70
    32
  0
VERTEX
  8
E57LXLIFT
 62
3
 10
5486.566
 20
-9686.352
 30
-496.000
 70
    32
  0
VERTEX
  8
E57LXLIFT
 62
3
 10
5477.017
 20
-9674.456
 30
-496.000
 70
    32
  0
VERTEX
  8
E57LXLIFT
 62
3
 10
5469.559
 20
-9666.257
 30
-496.000
 70
    32
  0
VERTEX
  8
E57LXLIFT
 62
3
 10
5463.702
 20
-9668.806
 30
-496.000
 70
    32
  0
VERTEX
  8
E57LXLIFT
 62
3
 10
5460.656
 20
-9679.403
 30
-496.000
 70
    32
  0
VERTEX
  8
E57LXLIFT
 62
3
 10
5462.443
 20
-9688.289
 30
-496.000
 70
    32
  0
VERTEX
  8
E57LXLIFT
 62
3
 10
5467.423
 20
-9696.954
 30
-496.000
 70
    32
  0
VERTEX
  8
E57LXLIFT
 62
3
 10
5468.303
 20
-9723.235
 30
-496.000
 70
    32
  0
VERTEX
  8
E57LXLIFT
 62
3
 10
5472.890
 20
-9727.858
 30
-496.000
 70
    32
  0
VERTEX
  8
E57LXLIFT
 62
3
 10
5471.832
 20
-9743.524
 30
-496.000
 70
    32
  0
VERTEX
  8
E57LXLIFT
 62
3
 10
5474.652
 20
-9752.646
 30
-496.000
 70
    32
  0
VERTEX
  8
E57LXLIFT
 62
3
 10
5484.472
 20
-9755.814
 30
-496.000
 70
    32
  0
VERTEX
  8
E57LXLIFT
 62
3
 10
5490.051
 20
-9754.543
 30
-496.000
 70
    32
  0
VERTEX
  8
E57LXLIFT
 62
3
 10
5499.835
 20
-9747.794
 30
-496.000
 70
    32
  0
VERTEX
  8
E57LXLIFT
 62
3
 10
5513.708
 20
-9750.129
 30
-496.000
 70
    32
  0
VERTEX
  8
E57LXLIFT
 62
3
 10
5516.355
 20
-9758.402
 30
-496.000
 70
    32
  0
VERTEX
  8
E57LXLIFT
 62
3
 10
5521.700
 20
-9756.650
 30
-496.000
 70
    32
  0
VERTEX
  8
E57LXLIFT
 62
3
 10
5523.201
 20
-9745.856
 30
-496.000
 70
    32
  0
SEQEND
  8
E57LXLIFT
  0
POLYLINE
  8
E57LXLIFT
 62
6
 66
     1
 70
     9
  0
VERTEX
  8
E57LXLIFT
 62
6
 10
5466.201
 20
-9517.794
 30
-501.000
 70
    32
  0
VERTEX
  8
E57LXLIFT
 62
6
 10
5469.201
 20
-9523.223
 30
-501.000
 70
    32
  0
VERTEX
  8
E57LXLIFT
 62
6
 10
5465.598
 20
-9530.759
 30
-501.000
 70
    32
  0
VERTEX
  8
E57LXLIFT
 62
6
 10
5454.107
 20
-9536.021
 30
-501.000
 70
    32
  0
VERTEX
  8
E57LXLIFT
 62
6
 10
5452.155
 20
-9534.493
 30
-501.000
 70
    32
  0
VERTEX
  8
E57LXLIFT
 62
6
 10
5445.082
 20
-9542.014
 30
-501.000
 70
    32
  0
VERTEX
  8
E57LXLIFT
 62
6
 10
5433.775
 20
-9541.311
 30
-501.000
 70
    32
  0
VERTEX
  8
E57LXLIFT
 62
6
 10
5429.206
 20
-9544.455
 30
-501.000
 70
    32
  0
VERTEX
  8
E57LXLIFT
 62
6
 10
5424.075
 20
-9540.436
 30
-501.000
 70
    32
  0
VERTEX
  8
E57LXLIFT
 62
6
 10
5421.787
 20
-9531.150
 30
-501.000
 70
    32
  0
VERTEX
  8
E57LXLIFT
 62
6
 10
5425.071
 20
-9525.138
 30
-501.000
 70
    32
  0
VERTEX
  8
E57LXLIFT
 62
6
 10
5433.708
 20
-9519.206
 30
-501.000
 70
    32
  0
VERTEX
  8
E57LXLIFT
 62
6
 10
5440.443
 20
-9518.193
 30
-501.000
 70
    32
  0
VERTEX
  8
E57LXLIFT
 62
6
 10
5446.922
 20
-9523.955
 30
-501.000
 70
    32
  0
VERTEX
  8
E57LXLIFT
 62
6
 10
5454.427
 20
-9521.746
 30
-501.000
 70
    32
  0
SEQEND
  8
E57LXLIFT
  0
POLYLINE
  8
E57LXLIFT
 62
13
 66
     1
 70
     9
  0
VERTEX
  8
E57LXLIFT
 62
13
 10
5305.105
 20
-9342.659
 30
-495.000
 70
    32
  0
VERTEX
  8
E57LXLIFT
 62
13
 10
5312.345
 20
-9365.277
 30
-495.000
 70
    32
  0
VERTEX
  8
E57LXLIFT
 62
13
 10
5326.357
 20
-9389.665
 30
-495.000
 70
    32
  0
VERTEX
  8
E57LXLIFT
 62
13
 10
5334.715
 20
-9404.895
 30
-495.000
 70
    32
  0
VERTEX
  8
E57LXLIFT
 62
13
 10
5335.708
 20
-9417.371
 30
-495.000
 70
    32
  0
VERTEX
  8
E57LXLIFT
 62
13
 10
5337.573
 20
-9441.546
 30
-495.000
 70
    32
  0
VERTEX
  8
E57LXLIFT
 62
13
 10
5353.944
 20
-9475.926
 30
-495.000
 70
    32
  0
VERTEX
  8
E57LXLIFT
 62
13
 10
5380.943
 20
-9512.788
 30
-495.000
 70
    32
  0
VERTEX
  8
E57LXLIFT
 62
13
 10
5360.878
 20
-9524.372
 30
-495.000
 70
    32
  0
VERTEX
  8
E57LXLIFT
 62
13
 10
5362.476
 20
-9529.501
 30
-495.000
 70
    32
  0
VERTEX
  8
E57LXLIFT
 62
13
 10
5355.584
 20
-9532.571
 30
-495.000
 70
    32
  0
VERTEX
  8
E57LXLIFT
 62
13
 10
5342.422
 20
-9501.635
 30
-495.000
 70
    32
  0
VERTEX
  8
E57LXLIFT
 62
13
 10
5329.793
 20
-9482.529
 30
-495.000
 70
    32
  0
VERTEX
  8
E57LXLIFT
 62
13
 10
5320.520
 20
-9470.112
 30
-495.000
 70
    32
  0
VERTEX
  8
E57LXLIFT
 62
13
 10
5318.515
 20
-9456.518
 30
-495.000
 70
    32
  0
VERTEX
  8
E57LXLIFT
 62
13
 10
5310.137
 20
-9448.543
 30
-495.000
 70
    32
  0
VERTEX
  8
E57LXLIFT
 62
13
 10
5305.453
 20
-9439.991
 30
-495.000
 70
    32
  0
VERTEX
  8
E57LXLIFT
 62
13
 10
5303.741
 20
-9416.032
 30
-495.000
 70
    32
  0
VERTEX
  8
E57LXLIFT
 62
13
 10
5291.757
 20
-9390.091
 30
-495.000
 70
    32
  0
VERTEX
  8
E57LXLIFT
 62
13
 10
5281.568
 20
-9368.493
 30
-495.000
 70
    32
  0
VERTEX
  8
E57LXLIFT
 62
13
 10
5279.763
 20
-9358.215
 30
-495.000
 70
    32
  0
SEQEND
  8
E57LXLIFT
  0
POLYLINE
  8
E57LXLIFT
 62
8
 66
     1
 70
     9
  0
VERTEX
  8
E57LXLIFT
 62
8
 10
5224.073
 20
-9240.524
 30
-492.000
 70
    32
  0
VERTEX
  8
E57LXLIFT
 62
8
 10
5251.101
 20
-9259.212
 30
-492.000
 70
    32
  0
VERTEX
  8
E57LXLIFT
 62
8
 10
5257.758
 20
-9269.169
 30
-492.000
 70
    32
  0
VERTEX
  8
E57LXLIFT
 62
8
 10
5267.392
 20
-9285.435
 30
-492.000
 70
    32
  0
VERTEX
  8
E57LXLIFT
 62
8
 10
5281.655
 20
-9300.460
 30
-492.000
 70
    32
  0
VERTEX
  8
E57LXLIFT
 62
8
 10
5292.253
 20
-9315.500
 30
-492.000
 70
    32
  0
VERTEX
  8
E57LXLIFT
 62
8
 10
5285.477
 20
-9329.509
 30
-492.000
 70
    32
  0
VERTEX
  8
E57LXLIFT
 62
8
 10
5278.081
 20
-9328.075
 30
-492.000
 70
    32
  0
VERTEX
  8
E57LXLIFT
 62
8
 10
5265.859
 20
-9310.300
 30
-492.000
 70
    32
  0
VERTEX
  8
E57LXLIFT
 62
8
 10
5249.189
 20
-9297.206
 30
-492.000
 70
    32
  0
VERTEX
  8
E57LXLIFT
 62
8
 10
5239.028
 20
-9283.692
 30
-492.000
 70
    32
  0
VERTEX
  8
E57LXLIFT
 62
8
 10
5223.670
 20
-9268.798
 30
-492.000
 70
    32
  0
VERTEX
  8
E57LXLIFT
 62
8
 10
5215.373
 20
-9261.090
 30
-492.000
 70
    32
  0
VERTEX
  8
E57LXLIFT
 62
8
 10
5202.199
 20
-9256.853
 30
-492.000
 70
    32
  0
VERTEX
  8
E57LXLIFT
 62
8
 10
5196.194
 20
-9249.025
 30
-492.000
 70
    32
  0
VERTEX
  8
E57LXLIFT
 62
8
 10
5193.100
 20
-9244.527
 30
-492.000
 70
    32
  0
VERTEX
  8
E57LXLIFT
 62
8
 10
5200.402
 20
-9241.275
 30
-492.000
 70
    32
  0
VERTEX
  8
E57LXLIFT
 62
8
 10
5208.196
 20
-9250.098
 30
-492.000
 70
    32
  0
VERTEX
  8
E57LXLIFT
 62
8
 10
5214.746
 20
-9249.433
 30
-492.000
 70
    32
  0
SEQEND
  8
E57LXLIFT
  0
POLYLINE
  8
E57LXLIFT
 62
7
 66
     1
 70
     9
  0
VERTEX
  8
E57LXLIFT
 62
7
 10
5265.076
 20
-9463.117
 30
-492.000
 70
    32
  0
VERTEX
  8
E57LXLIFT
 62
7
 10
5261.580
 20
-9473.385
 30
-492.000
 70
    32
  0
VERTEX
  8
E57LXLIFT
 62
7
 10
5251.450
 20
-9485.568
 30
-492.000
 70
    32
  0
VERTEX
  8
E57LXLIFT
 62
7
 10
5242.335
 20
-9496.596
 30
-492.000
 70
    32
  0
VERTEX
  8
E57LXLIFT
 62
7
 10
5236.186
 20
-9502.378
 30
-492.000
 70
    32
  0
VERTEX
  8
E57LXLIFT
 62
7
 10
5227.707
 20
-9492.745
 30
-492.000
 70
    32
  0
VERTEX
  8
E57LXLIFT
 62
7
 10
5228.478
 20
-9478.041
 30
-492.000
 70
    32
  0
VERTEX
  8
E57LXLIFT
 62
7
 10
5223.653
 20
-9468.076
 30
-492.000
 70
    32
  0
VERTEX
  8
E57LXLIFT
 62
7
 10
5212.895
 20
-9462.983
 30
-492.000
 70
    32
  0
VERTEX
  8
E57LXLIFT
 62
7
 10
5201.847
 20
-9466.742
 30
-492.000
 70
    32
  0
VERTEX
  8
E57LXLIFT
 62
7
 10
5197.621
 20
-9460.350
 30
-492.000
 70
    32
  0
VERTEX
  8
E57LXLIFT
 62
7
 10
5211.535
 20
-9456.063
 30
-492.000
 70
    32
  0
VERTEX
  8
E57LXLIFT
 62
7
 10
5220.407
 20
-9443.480
 30
-492.000
 70
    32
  0
VERTEX
  8
E57LXLIFT
 62
7
 10
5222.351
 20
-9436.800
 30
-492.000
 70
    32
  0
VERTEX
  8
E57LXLIFT
 62
7
 10
5237.870
 20
-9433.857
 30
-492.000
 70
    32
  0
VERTEX
  8
E57LXLIFT
 62
7
 10
5250.255
 20
-9432.280
 30
-492.000
 70
    32
  0
VERTEX
  8
E57LXLIFT
 62
7
 10
5258.748
 20
-9439.201
 30
-492.000
 70
    32
  0
VERTEX
  8
E57LXLIFT
 62
7
 10
5261.547
 20
-9449.204
 30
-492.000
 70
    32
  0
SEQEND
  8
E57LXLIFT
  0
POLYLINE
  8
E57LXLIFT
 62
27
 66
     1
 70
     9
  0
VERTEX
  8
E57LXLIFT
 62
27
 10
4911.409
 20
-9356.888
 30
-498.000
 70
    32
  0
VERTEX
  8
E57LXLIFT
 62
27
 10
4944.376
 20
-9366.917
 30
-498.000
 70
    32
  0
VERTEX
  8
E57LXLIFT
 62
27
 10
4949.462
 20
-9379.830
 30
-498.000
 70
    32
  0
VERTEX
  8
E57LXLIFT
 62
27
 10
4928.915
 20
-9385.272
 30
-498.000
 70
    32
  0
VERTEX
  8
E57LXLIFT
 62
27
 10
4913.500
 20
-9386.845
 30
-498.000
 70
    32
  0
VERTEX
  8
E57LXLIFT
 62
27
 10
4904.545
 20
-9387.168
 30
-498.000
 70
    32
  0
VERTEX
  8
E57LXLIFT
 62
27
 10
4896.265
 20
-9375.233
 30
-498.000
 70
    32
  0
VERTEX
  8
E57LXLIFT
 62
27
 10
4896.408
 20
-9368.755
 30
-498.000
 70
    32
  0
SEQEND
  8
E57LXLIFT
  0
POLYLINE
  8
E57LXLIFT
 62
11
 66
     1
 70
     9
  0
VERTEX
  8
E57LXLIFT
 62
11
 10
5875.545
 20
-9930.776
 30
-483.000
 70
    32
  0
VERTEX
  8
E57LXLIFT
 62
11
 10
5864.252
 20
-9924.788
 30
-483.000
 70
    32
  0
VERTEX
  8
E57LXLIFT
 62
11
 10
5863.424
 20
-9914.263
 30
-483.000
 70
    32
  0
VERTEX
  8
E57LXLIFT
 62
11
 10
5868.788
 20
-9904.328
 30
-483.000
 70
    32
  0
VERTEX
  8
E57LXLIFT
 62
11
 10
5879.413
 20
-9900.001
 30
-483.000
 70
    32
  0
VERTEX
  8
E57LXLIFT
 62
11
 10
5887.815
 20
-9907.415
 30
-483.000
 70
    32
  0
VERTEX
  8
E57LXLIFT
 62
11
 10
5893.547
 20
-9917.854
 30
-483.000
 70
    32
  0
VERTEX
  8
E57LXLIFT
 62
11
 10
5892.891
 20
-9927.299
 30
-483.000
 70
    32
  0
VERTEX
  8
E57LXLIFT
 62
11
 10
5886.951
 20
-9932.702
 30
-483.000
 70
    32
  0
SEQEND
  8
E57LXLIFT
  0
POLYLINE
  8
E57LXLIFT
 62
8
 66
     1
 70
     9
  0
VERTEX
  8
E57LXLIFT
 62
8
 10
5782.693
 20
-9742.524
 30
-487.000
 70
    32
  0
VERTEX
  8
E57LXLIFT
 62
8
 10
5763.455
 20
-9746.998
 30
-487.000
 70
    32
  0
VERTEX
  8
E57LXLIFT
 62
8
 10
5753.053
 20
-9742.762
 30
-487.000
 70
    32
  0
VERTEX
  8
E57LXLIFT
 62
8
 10
5742.405
 20
-9738.493
 30
-487.000
 70
    32
  0
VERTEX
  8
E57LXLIFT
 62
8
 10
5727.393
 20
-9733.567
 30
-487.000
 70
    32
  0
VERTEX
  8
E57LXLIFT
 62
8
 10
5723.824
 20
-9723.360
 30
-487.000
 70
    32
  0
VERTEX
  8
E57LXLIFT
 62
8
 10
5722.482
 20
-9714.772
 30
-487.000
 70
    32
  0
VERTEX
  8
E57LXLIFT
 62
8
 10
5725.362
 20
-9709.267
 30
-487.000
 70
    32
  0
VERTEX
  8
E57LXLIFT
 62
8
 10
5726.645
 20
-9698.903
 30
-487.000
 70
    32
  0
VERTEX
  8
E57LXLIFT
 62
8
 10
5736.897
 20
-9699.167
 30
-487.000
 70
    32
  0
VERTEX
  8
E57LXLIFT
 62
8
 10
5743.975
 20
-9703.390
 30
-487.000
 70
    32
  0
VERTEX
  8
E57LXLIFT
 62
8
 10
5754.069
 20
-9701.124
 30
-487.000
 70
    32
  0
VERTEX
  8
E57LXLIFT
 62
8
 10
5764.795
 20
-9698.817
 30
-487.000
 70
    32
  0
VERTEX
  8
E57LXLIFT
 62
8
 10
5769.383
 20
-9698.751
 30
-487.000
 70
    32
  0
VERTEX
  8
E57LXLIFT
 62
8
 10
5772.086
 20
-9708.402
 30
-487.000
 70
    32
  0
VERTEX
  8
E57LXLIFT
 62
8
 10
5777.004
 20
-9722.995
 30
-487.000
 70
    32
  0
SEQEND
  8
E57LXLIFT
  0
POLYLINE
  8
E57LXLIFT
 62
3
 66
     1
 70
     9
  0
VERTEX
  8
E57LXLIFT
 62
3
 10
5510.941
 20
-9731.571
 30
-486.000
 70
    32
  0
VERTEX
  8
E57LXLIFT
 62
3
 10
5504.698
 20
-9726.269
 30
-486.000
 70
    32
  0
VERTEX
  8
E57LXLIFT
 62
3
 10
5497.554
 20
-9720.217
 30
-486.000
 70
    32
  0
VERTEX
  8
E57LXLIFT
 62
3
 10
5490.711
 20
-9711.948
 30
-486.000
 70
    32
  0
VERTEX
  8
E57LXLIFT
 62
3
 10
5485.252
 20
-9705.498
 30
-486.000
 70
    32
  0
VERTEX
  8
E57LXLIFT
 62
3
 10
5479.106
 20
-9701.339
 30
-486.000
 70
    32
  0
VERTEX
  8
E57LXLIFT
 62
3
 10
5481.416
 20
-9692.181
 30
-486.000
 70
    32
  0
VERTEX
  8
E57LXLIFT
 62
3
 10
5478.558
 20
-9685.520
 30
-486.000
 70
    32
  0
VERTEX
  8
E57LXLIFT
 62
3
 10
5468.575
 20
-9673.123
 30
-486.000
 70
    32
  0
VERTEX
  8
E57LXLIFT
 62
3
 10
5457.060
 20
-9660.456
 30
-486.000
 70
    32
  0
VERTEX
  8
E57LXLIFT
 62
3
 10
5451.850
 20
-9664.641
 30
-486.000
 70
    32
  0
VERTEX
  8
E57LXLIFT
 62
3
 10
5452.956
 20
-9677.274
 30
-486.000
 70
    32
  0
VERTEX
  8
E57LXLIFT
 62
3
 10
5457.311
 20
-9686.773
 30
-486.000
 70
    32
  0
VERTEX
  8
E57LXLIFT
 62
3
 10
5468.536
 20
-9698.335
 30
-486.000
 70
    32
  0
VERTEX
  8
E57LXLIFT
 62
3
 10
5477.533
 20
-9720.759
 30
-486.000
 70
    32
  0
VERTEX
  8
E57LXLIFT
 62
3
 10
5486.653
 20
-9743.200
 30
-486.000
 70
    32
  0
SEQEND
  8
E57LXLIFT
  0
POLYLINE
  8
E57LXLIFT
 62
13
 66
     1
 70
     9
  0
VERTEX
  8
E57LXLIFT
 62
13
 10
5294.953
 20
-9338.343
 30
-486.000
 70
    32
  0
VERTEX
  8
E57LXLIFT
 62
13
 10
5311.225
 20
-9365.394
 30
-486.000
 70
    32
  0
VERTEX
  8
E57LXLIFT
 62
13
 10
5325.888
 20
-9398.750
 30
-486.000
 70
    32
  0
VERTEX
  8
E57LXLIFT
 62
13
 10
5329.086
 20
-9424.150
 30
-486.000
 70
    32
  0
VERTEX
  8
E57LXLIFT
 62
13
 10
5331.759
 20
-9439.568
 30
-486.000
 70
    32
  0
VERTEX
  8
E57LXLIFT
 62
13
 10
5341.641
 20
-9452.703
 30
-486.000
 70
    32
  0
VERTEX
  8
E57LXLIFT
 62
13
 10
5362.450
 20
-9472.216
 30
-486.000
 70
    32
  0
VERTEX
  8
E57LXLIFT
 62
13
 10
5365.730
 20
-9486.399
 30
-486.000
 70
    32
  0
VERTEX
  8
E57LXLIFT
 62
13
 10
5365.374
 20
-9498.708
 30
-486.000
 70
    32
  0
VERTEX
  8
E57LXLIFT
 62
13
 10
5362.206
 20
-9505.867
 30
-486.000
 70
    32
  0
VERTEX
  8
E57LXLIFT
 62
13
 10
5352.707
 20
-9510.222
 30
-486.000
 70
    32
  0
VERTEX
  8
E57LXLIFT
 62
13
 10
5355.519
 20
-9512.612
 30
-486.000
 70
    32
  0
VERTEX
  8
E57LXLIFT
 62
13
 10
5351.879
 20
-9517.700
 30
-486.000
 70
    32
  0
VERTEX
  8
E57LXLIFT
 62
13
 10
5339.190
 20
-9513.216
 30
-486.000
 70
    32
  0
VERTEX
  8
E57LXLIFT
 62
13
 10
5335.990
 20
-9505.379
 30
-486.000
 70
    32
  0
VERTEX
  8
E57LXLIFT
 62
13
 10
5335.136
 20
-9488.578
 30
-486.000
 70
    32
  0
VERTEX
  8
E57LXLIFT
 62
13
 10
5323.223
 20
-9474.225
 30
-486.000
 70
    32
  0
VERTEX
  8
E57LXLIFT
 62
13
 10
5319.697
 20
-9465.090
 30
-486.000
 70
    32
  0
VERTEX
  8
E57LXLIFT
 62
13
 10
5318.165
 20
-9451.897
 30
-486.000
 70
    32
  0
VERTEX
  8
E57LXLIFT
 62
13
 10
5307.597
 20
-9438.731
 30
-486.000
 70
    32
  0
VERTEX
  8
E57LXLIFT
 62
13
 10
5301.717
 20
-9424.760
 30
-486.000
 70
    32
  0
VERTEX
  8
E57LXLIFT
 62
13
 10
5299.350
 20
-9405.244
 30
-486.000
 70
    32
  0
VERTEX
  8
E57LXLIFT
 62
13
 10
5292.294
 20
-9383.773
 30
-486.000
 70
    32
  0
VERTEX
  8
E57LXLIFT
 62
13
 10
5280.589
 20
-9348.498
 30
-486.000
 70
    32
  0
SEQEND
  8
E57LXLIFT
  0
POLYLINE
  8
E57LXLIFT
 62
2
 66
     1
 70
     9
  0
VERTEX
  8
E57LXLIFT
 62
2
 10
5330.799
 20
-9297.046
 30
-480.000
 70
    32
  0
VERTEX
  8
E57LXLIFT
 62
2
 10
5322.852
 20
-9296.907
 30
-480.000
 70
    32
  0
VERTEX
  8
E57LXLIFT
 62
2
 10
5313.018
 20
-9293.564
 30
-480.000
 70
    32
  0
VERTEX
  8
E57LXLIFT
 62
2
 10
5304.363
 20
-9282.477
 30
-480.000
 70
    32
  0
VERTEX
  8
E57LXLIFT
 62
2
 10
5296.941
 20
-9269.237
 30
-480.000
 70
    32
  0
VERTEX
  8
E57LXLIFT
 62
2
 10
5296.016
 20
-9254.809
 30
-480.000
 70
    32
  0
VERTEX
  8
E57LXLIFT
 62
2
 10
5291.451
 20
-9250.551
 30
-480.000
 70
    32
  0
VERTEX
  8
E57LXLIFT
 62
2
 10
5286.370
 20
-9245.470
 30
-480.000
 70
    32
  0
VERTEX
  8
E57LXLIFT
 62
2
 10
5279.838
 20
-9231.221
 30
-480.000
 70
    32
  0
VERTEX
  8
E57LXLIFT
 62
2
 10
5270.196
 20
-9212.159
 30
-480.000
 70
    32
  0
VERTEX
  8
E57LXLIFT
 62
2
 10
5262.500
 20
-9200.011
 30
-480.000
 70
    32
  0
VERTEX
  8
E57LXLIFT
 62
2
 10
5262.601
 20
-9194.191
 30
-480.000
 70
    32
  0
VERTEX
  8
E57LXLIFT
 62
2
 10
5259.122
 20
-9189.327
 30
-480.000
 70
    32
  0
VERTEX
  8
E57LXLIFT
 62
2
 10
5252.883
 20
-9179.384
 30
-480.000
 70
    32
  0
VERTEX
  8
E57LXLIFT
 62
2
 10
5256.692
 20
-9173.504
 30
-480.000
 70
    32
  0
VERTEX
  8
E57LXLIFT
 62
2
 10
5265.064
 20
-9176.523
 30
-480.000
 70
    32
  0
VERTEX
  8
E57LXLIFT
 62
2
 10
5279.242
 20
-9185.286
 30
-480.000
 70
    32
  0
VERTEX
  8
E57LXLIFT
 62
2
 10
5290.602
 20
-9203.704
 30
-480.000
 70
    32
  0
VERTEX
  8
E57LXLIFT
 62
2
 10
5305.664
 20
-9223.502
 30
-480.000
 70
    32
  0
VERTEX
  8
E57LXLIFT
 62
2
 10
5314.798
 20
-9240.299
 30
-480.000
 70
    32
  0
VERTEX
  8
E57LXLIFT
 62
2
 10
5325.908
 20
-9255.483
 30
-480.000
 70
    32
  0
VERTEX
  8
E57LXLIFT
 62
2
 10
5330.807
 20
-9267.440
 30
-480.000
 70
    32
  0
VERTEX
  8
E57LXLIFT
 62
2
 10
5340.384
 20
-9274.512
 30
-480.000
 70
    32
  0
VERTEX
  8
E57LXLIFT
 62
2
 10
5345.392
 20
-9284.288
 30
-480.000
 70
    32
  0
VERTEX
  8
E57LXLIFT
 62
2
 10
5345.458
 20
-9293.957
 30
-480.000
 70
    32
  0
SEQEND
  8
E57LXLIFT
  0
POLYLINE
  8
E57LXLIFT
 62
8
 66
     1
 70
     9
  0
VERTEX
  8
E57LXLIFT
 62
8
 10
5298.256
 20
-9330.198
 30
-483.000
 70
    32
  0
VERTEX
  8
E57LXLIFT
 62
8
 10
5277.276
 20
-9311.478
 30
-483.000
 70
    32
  0
VERTEX
  8
E57LXLIFT
 62
8
 10
5255.096
 20
-9286.823
 30
-483.000
 70
    32
  0
VERTEX
  8
E57LXLIFT
 62
8
 10
5251.631
 20
-9271.235
 30
-483.000
 70
    32
  0
VERTEX
  8
E57LXLIFT
 62
8
 10
5244.220
 20
-9256.993
 30
-483.000
 70
    32
  0
VERTEX
  8
E57LXLIFT
 62
8
 10
5225.915
 20
-9241.208
 30
-483.000
 70
    32
  0
VERTEX
  8
E57LXLIFT
 62
8
 10
5217.102
 20
-9232.671
 30
-483.000
 70
    32
  0
VERTEX
  8
E57LXLIFT
 62
8
 10
5204.472
 20
-9229.136
 30
-483.000
 70
    32
  0
VERTEX
  8
E57LXLIFT
 62
8
 10
5199.503
 20
-9222.314
 30
-483.000
 70
    32
  0
VERTEX
  8
E57LXLIFT
 62
8
 10
5185.788
 20
-9232.306
 30
-483.000
 70
    32
  0
VERTEX
  8
E57LXLIFT
 62
8
 10
5177.255
 20
-9244.319
 30
-483.000
 70
    32
  0
VERTEX
  8
E57LXLIFT
 62
8
 10
5177.567
 20
-9251.261
 30
-483.000
 70
    32
  0
VERTEX
  8
E57LXLIFT
 62
8
 10
5179.718
 20
-9254.816
 30
-483.000
 70
    32
  0
VERTEX
  8
E57LXLIFT
 62
8
 10
5189.819
 20
-9251.107
 30
-483.000
 70
    32
  0
VERTEX
  8
E57LXLIFT
 62
8
 10
5200.195
 20
-9254.148
 30
-483.000
 70
    32
  0
VERTEX
  8
E57LXLIFT
 62
8
 10
5215.673
 20
-9260.265
 30
-483.000
 70
    32
  0
VERTEX
  8
E57LXLIFT
 62
8
 10
5225.792
 20
-9269.356
 30
-483.000
 70
    32
  0
VERTEX
  8
E57LXLIFT
 62
8
 10
5234.054
 20
-9281.957
 30
-483.000
 70
    32
  0
VERTEX
  8
E57LXLIFT
 62
8
 10
5239.451
 20
-9294.860
 30
-483.000
 70
    32
  0
VERTEX
  8
E57LXLIFT
 62
8
 10
5249.438
 20
-9302.615
 30
-483.000
 70
    32
  0
VERTEX
  8
E57LXLIFT
 62
8
 10
5263.600
 20
-9319.342
 30
-483.000
 70
    32
  0
VERTEX
  8
E57LXLIFT
 62
8
 10
5276.527
 20
-9335.463
 30
-483.000
 70
    32
  0
SEQEND
  8
E57LXLIFT
  0
POLYLINE
  8
E57LXLIFT
 62
3
 66
     1
 70
     9
  0
VERTEX
  8
E57LXLIFT
 62
3
 10
5145.200
 20
-9261.417
 30
-489.000
 70
    32
  0
VERTEX
  8
E57LXLIFT
 62
3
 10
5143.672
 20
-9269.426
 30
-489.000
 70
    32
  0
VERTEX
  8
E57LXLIFT
 62
3
 10
5151.171
 20
-9278.411
 30
-489.000
 70
    32
  0
VERTEX
  8
E57LXLIFT
 62
3
 10
5153.532
 20
-9286.887
 30
-489.000
 70
    32
  0
VERTEX
  8
E57LXLIFT
 62
3
 10
5160.087
 20
-9296.810
 30
-489.000
 70
    32
  0
VERTEX
  8
E57LXLIFT
 62
3
 10
5175.280
 20
-9297.181
 30
-489.000
 70
    32
  0
VERTEX
  8
E57LXLIFT
 62
3
 10
5180.939
 20
-9307.233
 30
-489.000
 70
    32
  0
VERTEX
  8
E57LXLIFT
 62
3
 10
5190.143
 20
-9323.978
 30
-489.000
 70
    32
  0
VERTEX
  8
E57LXLIFT
 62
3
 10
5195.799
 20
-9330.830
 30
-489.000
 70
    32
  0
VERTEX
  8
E57LXLIFT
 62
3
 10
5200.390
 20
-9344.125
 30
-489.000
 70
    32
  0
VERTEX
  8
E57LXLIFT
 62
3
 10
5199.228
 20
-9359.147
 30
-489.000
 70
    32
  0
VERTEX
  8
E57LXLIFT
 62
3
 10
5194.234
 20
-9371.893
 30
-489.000
 70
    32
  0
VERTEX
  8
E57LXLIFT
 62
3
 10
5186.727
 20
-9379.592
 30
-489.000
 70
    32
  0
VERTEX
  8
E57LXLIFT
 62
3
 10
5172.631
 20
-9377.614
 30
-489.000
 70
    32
  0
VERTEX
  8
E57LXLIFT
 62
3
 10
5158.758
 20
-9361.992
 30
-489.000
 70
    32
  0
VERTEX
  8
E57LXLIFT
 62
3
 10
5152.669
 20
-9343.099
 30
-489.000
 70
    32
  0
VERTEX
  8
E57LXLIFT
 62
3
 10
5138.676
 20
-9327.899
 30
-489.000
 70
    32
  0
VERTEX
  8
E57LXLIFT
 62
3
 10
5126.370
 20
-9317.822
 30
-489.000
 70
    32
  0
VERTEX
  8
E57LXLIFT
 62
3
 10
5123.022
 20
-9306.453
 30
-489.000
 70
    32
  0
VERTEX
  8
E57LXLIFT
 62
3
 10
5122.832
 20
-9288.926
 30
-489.000
 70
    32
  0
VERTEX
  8
E57LXLIFT
 62
3
 10
5129.368
 20
-9275.449
 30
-489.000
 70
    32
  0
VERTEX
  8
E57LXLIFT
 62
3
 10
5133.153
 20
-9266.053
 30
-489.000
 70
    32
  0
VERTEX
  8
E57LXLIFT
 62
3
 10
5136.084
 20
-9260.178
 30
-489.000
 70
    32
  0
SEQEND
  8
E57LXLIFT
  0
POLYLINE
  8
E57LXLIFT
 62
27
 66
     1
 70
     9
  0
VERTEX
  8
E57LXLIFT
 62
27
 10
4967.091
 20
-9333.629
 30
-489.000
 70
    32
  0
VERTEX
  8
E57LXLIFT
 62
27
 10
4978.609
 20
-9331.493
 30
-489.000
 70
    32
  0
VERTEX
  8
E57LXLIFT
 62
27
 10
4980.222
 20
-9338.550
 30
-489.000
 70
    32
  0
VERTEX
  8
E57LXLIFT
 62
27
 10
4974.304
 20
-9349.789
 30
-489.000
 70
    32
  0
VERTEX
  8
E57LXLIFT
 62
27
 10
4973.423
 20
-9362.278
 30
-489.000
 70
    32
  0
VERTEX
  8
E57LXLIFT
 62
27
 10
4961.731
 20
-9369.847
 30
-489.000
 70
    32
  0
VERTEX
  8
E57LXLIFT
 62
27
 10
4956.076
 20
-9380.997
 30
-489.000
 70
    32
  0
VERTEX
  8
E57LXLIFT
 62
27
 10
4939.141
 20
-9377.756
 30
-489.000
 70
    32
  0
VERTEX
  8
E57LXLIFT
 62
27
 10
4925.519
 20
-9383.369
 30
-489.000
 70
    32
  0
VERTEX
  8
E57LXLIFT
 62
27
 10
4918.684
 20
-9391.662
 30
-489.000
 70
    32
  0
VERTEX
  8
E57LXLIFT
 62
27
 10
4908.621
 20
-9388.162
 30
-489.000
 70
    32
  0
VERTEX
  8
E57LXLIFT
 62
27
 10
4903.030
 20
-9375.296
 30
-489.000
 70
    32
  0
VERTEX
  8
E57LXLIFT
 62
27
 10
4892.701
 20
-9363.605
 30
-489.000
 70
    32
  0
VERTEX
  8
E57LXLIFT
 62
27
 10
4882.293
 20
-9353.409
 30
-489.000
 70
    32
  0
VERTEX
  8
E57LXLIFT
 62
27
 10
4890.567
 20
-9344.685
 30
-489.000
 70
    32
  0
VERTEX
  8
E57LXLIFT
 62
27
 10
4908.585
 20
-9336.720
 30
-489.000
 70
    32
  0
VERTEX
  8
E57LXLIFT
 62
27
 10
4923.846
 20
-9329.197
 30
-489.000
 70
    32
  0
VERTEX
  8
E57LXLIFT
 62
27
 10
4939.253
 20
-9327.526
 30
-489.000
 70
    32
  0
VERTEX
  8
E57LXLIFT
 62
27
 10
4959.247
 20
-9323.029
 30
-489.000
 70
    32
  0
SEQEND
  8
E57LXLIFT
  0
POLYLINE
  8
E57LXLIFT
 62
11
 66
     1
 70
     9
  0
VERTEX
  8
E57LXLIFT
 62
11
 10
5886.646
 20
-9928.129
 30
-475.000
 70
    32
  0
VERTEX
  8
E57LXLIFT
 62
11
 10
5871.669
 20
-9924.446
 30
-475.000
 70
    32
  0
VERTEX
  8
E57LXLIFT
 62
11
 10
5868.131
 20
-9919.517
 30
-475.000
 70
    32
  0
VERTEX
  8
E57LXLIFT
 62
11
 10
5862.694
 20
-9917.196
 30
-475.000
 70
    32
  0
VERTEX
  8
E57LXLIFT
 62
11
 10
5864.457
 20
-9899.921
 30
-475.000
 70
    32
  0
VERTEX
  8
E57LXLIFT
 62
11
 10
5873.159
 20
-9903.107
 30
-475.000
 70
    32
  0
VERTEX
  8
E57LXLIFT
 62
11
 10
5886.085
 20
-9911.261
 30
-475.000
 70
    32
  0
VERTEX
  8
E57LXLIFT
 62
11
 10
5894.286
 20
-9918.646
 30
-475.000
 70
    32
  0
VERTEX
  8
E57LXLIFT
 62
11
 10
5891.675
 20
-9922.657
 30
-475.000
 70
    32
  0
SEQEND
  8
E57LXLIFT
  0
POLYLINE
  8
E57LXLIFT
 62
7
 66
     1
 70
     9
  0
VERTEX
  8
E57LXLIFT
 62
7
 10
5814.877
 20
-9856.874
 30
-477.000
 70
    32
  0
VERTEX
  8
E57LXLIFT
 62
7
 10
5827.898
 20
-9844.612
 30
-477.000
 70
    32
  0
VERTEX
  8
E57LXLIFT
 62
7
 10
5838.642
 20
-9839.176
 30
-477.000
 70
    32
  0
VERTEX
  8
E57LXLIFT
 62
7
 10
5848.926
 20
-9850.707
 30
-477.000
 70
    32
  0
VERTEX
  8
E57LXLIFT
 62
7
 10
5842.293
 20
-9862.289
 30
-477.000
 70
    32
  0
VERTEX
  8
E57LXLIFT
 62
7
 10
5822.754
 20
-9868.108
 30
-477.000
 70
    32
  0
SEQEND
  8
E57LXLIFT
  0
POLYLINE
  8
E57LXLIFT
 62
3
 66
     1
 70
     9
  0
VERTEX
  8
E57LXLIFT
 62
3
 10
5483.994
 20
-9746.478
 30
-476.000
 70
    32
  0
VERTEX
  8
E57LXLIFT
 62
3
 10
5495.649
 20
-9738.727
 30
-476.000
 70
    32
  0
VERTEX
  8
E57LXLIFT
 62
3
 10
5504.306
 20
-9738.008
 30
-476.000
 70
    32
  0
VERTEX
  8
E57LXLIFT
 62
3
 10
5511.125
 20
-9738.649
 30
-476.000
 70
    32
  0
VERTEX
  8
E57LXLIFT
 62
3
 10
5512.102
 20
-9734.206
 30
-476.000
 70
    32
  0
VERTEX
  8
E57LXLIFT
 62
3
 10
5501.372
 20
-9726.506
 30
-476.000
 70
    32
  0
VERTEX
  8
E57LXLIFT
 62
3
 10
5491.760
 20
-9714.258
 30
-476.000
 70
    32
  0
VERTEX
  8
E57LXLIFT
 62
3
 10
5483.636
 20
-9705.942
 30
-476.000
 70
    32
  0
VERTEX
  8
E57LXLIFT
 62
3
 10
5478.755
 20
-9688.114
 30
-476.000
 70
    32
  0
VERTEX
  8
E57LXLIFT
 62
3
 10
5464.958
 20
-9667.698
 30
-476.000
 70
    32
  0
VERTEX
  8
E57LXLIFT
 62
3
 10
5456.300
 20
-9646.541
 30
-476.000
 70
    32
  0
VERTEX
  8
E57LXLIFT
 62
3
 10
5449.902
 20
-9640.556
 30
-476.000
 70
    32
  0
VERTEX
  8
E57LXLIFT
 62
3
 10
5449.045
 20
-9631.565
 30
-476.000
 70
    32
  0
VERTEX
  8
E57LXLIFT
 62
3
 10
5443.471
 20
-9625.955
 30
-476.000
 70
    32
  0
VERTEX
  8
E57LXLIFT
 62
3
 10
5433.834
 20
-9631.556
 30
-476.000
 70
    32
  0
VERTEX
  8
E57LXLIFT
 62
3
 10
5445.631
 20
-9648.530
 30
-476.000
 70
    32
  0
VERTEX
  8
E57LXLIFT
 62
3
 10
5451.500
 20
-9660.156
 30
-476.000
 70
    32
  0
VERTEX
  8
E57LXLIFT
 62
3
 10
5450.369
 20
-9669.416
 30
-476.000
 70
    32
  0
VERTEX
  8
E57LXLIFT
 62
3
 10
5453.565
 20
-9672.848
 30
-476.000
 70
    32
  0
VERTEX
  8
E57LXLIFT
 62
3
 10
5448.865
 20
-9679.061
 30
-476.000
 70
    32
  0
VERTEX
  8
E57LXLIFT
 62
3
 10
5456.950
 20
-9688.063
 30
-476.000
 70
    32
  0
VERTEX
  8
E57LXLIFT
 62
3
 10
5457.646
 20
-9700.237
 30
-476.000
 70
    32
  0
VERTEX
  8
E57LXLIFT
 62
3
 10
5465.529
 20
-9705.123
 30
-476.000
 70
    32
  0
VERTEX
  8
E57LXLIFT
 62
3
 10
5474.571
 20
-9712.760
 30
-476.000
 70
    32
  0
VERTEX
  8
E57LXLIFT
 62
3
 10
5478.437
 20
-9724.338
 30
-476.000
 70
    32
  0
SEQEND
  8
E57LXLIFT
  0
POLYLINE
  8
E57LXLIFT
 62
13
 66
     1
 70
     9
  0
VERTEX
  8
E57LXLIFT
 62
13
 10
5265.807
 20
-9371.861
 30
-472.000
 70
    32
  0
VERTEX
  8
E57LXLIFT
 62
13
 10
5280.130
 20
-9392.544
 30
-472.000
 70
    32
  0
VERTEX
  8
E57LXLIFT
 62
13
 10
5287.754
 20
-9415.998
 30
-472.000
 70
    32
  0
VERTEX
  8
E57LXLIFT
 62
13
 10
5291.915
 20
-9433.593
 30
-472.000
 70
    32
  0
VERTEX
  8
E57LXLIFT
 62
13
 10
5318.964
 20
-9471.766
 30
-472.000
 70
    32
  0
VERTEX
  8
E57LXLIFT
 62
13
 10
5333.833
 20
-9470.278
 30
-472.000
 70
    32
  0
VERTEX
  8
E57LXLIFT
 62
13
 10
5344.951
 20
-9453.080
 30
-472.000
 70
    32
  0
VERTEX
  8
E57LXLIFT
 62
13
 10
5353.771
 20
-9404.549
 30
-472.000
 70
    32
  0
VERTEX
  8
E57LXLIFT
 62
13
 10
5346.395
 20
-9392.069
 30
-472.000
 70
    32
  0
VERTEX
  8
E57LXLIFT
 62
13
 10
5341.720
 20
-9374.964
 30
-472.000
 70
    32
  0
VERTEX
  8
E57LXLIFT
 62
13
 10
5328.216
 20
-9361.003
 30
-472.000
 70
    32
  0
VERTEX
  8
E57LXLIFT
 62
13
 10
5317.136
 20
-9369.532
 30
-472.000
 70
    32
  0
VERTEX
  8
E57LXLIFT
 62
13
 10
5327.164
 20
-9385.299
 30
-472.000
 70
    32
  0
VERTEX
  8
E57LXLIFT
 62
13
 10
5336.033
 20
-9403.785
 30
-472.000
 70
    32
  0
VERTEX
  8
E57LXLIFT
 62
13
 10
5330.447
 20
-9408.357
 30
-472.000
 70
    32
  0
VERTEX
  8
E57LXLIFT
 62
13
 10
5314.682
 20
-9393.116
 30
-472.000
 70
    32
  0
VERTEX
  8
E57LXLIFT
 62
13
 10
5303.533
 20
-9376.427
 30
-472.000
 70
    32
  0
VERTEX
  8
E57LXLIFT
 62
13
 10
5298.196
 20
-9361.234
 30
-472.000
 70
    32
  0
VERTEX
  8
E57LXLIFT
 62
13
 10
5295.320
 20
-9343.455
 30
-472.000
 70
    32
  0
VERTEX
  8
E57LXLIFT
 62
13
 10
5281.777
 20
-9346.587
 30
-472.000
 70
    32
  0
SEQEND
  8
E57LXLIFT
  0
POLYLINE
  8
E57LXLIFT
 62
2
 66
     1
 70
     9
  0
VERTEX
  8
E57LXLIFT
 62
2
 10
5246.323
 20
-9175.714
 30
-470.000
 70
    32
  0
VERTEX
  8
E57LXLIFT
 62
2
 10
5259.017
 20
-9167.741
 30
-470.000
 70
    32
  0
VERTEX
  8
E57LXLIFT
 62
2
 10
5275.289
 20
-9172.434
 30
-470.000
 70
    32
  0
VERTEX
  8
E57LXLIFT
 62
2
 10
5286.482
 20
-9187.559
 30
-470.000
 70
    32
  0
VERTEX
  8
E57LXLIFT
 62
2
 10
5297.427
 20
-9197.617
 30
-470.000
 70
    32
  0
VERTEX
  8
E57LXLIFT
 62
2
 10
5300.041
 20
-9209.574
 30
-470.000
 70
    32
  0
VERTEX
  8
E57LXLIFT
 62
2
 10
5306.476
 20
-9220.781
 30
-470.000
 70
    32
  0
VERTEX
  8
E57LXLIFT
 62
2
 10
5318.509
 20
-9236.597
 30
-470.000
 70
    32
  0
VERTEX
  8
E57LXLIFT
 62
2
 10
5326.500
 20
-9252.122
 30
-470.000
 70
    32
  0
VERTEX
  8
E57LXLIFT
 62
2
 10
5340.137
 20
-9267.297
 30
-470.000
 70
    32
  0
VERTEX
  8
E57LXLIFT
 62
2
 10
5346.726
 20
-9279.157
 30
-470.000
 70
    32
  0
VERTEX
  8
E57LXLIFT
 62
2
 10
5350.920
 20
-9288.961
 30
-470.000
 70
    32
  0
VERTEX
  8
E57LXLIFT
 62
2
 10
5343.369
 20
-9298.268
 30
-470.000
 70
    32
  0
VERTEX
  8
E57LXLIFT
 62
2
 10
5332.510
 20
-9296.897
 30
-470.000
 70
    32
  0
VERTEX
  8
E57LXLIFT
 62
2
 10
5319.295
 20
-9303.724
 30
-470.000
 70
    32
  0
VERTEX
  8
E57LXLIFT
 62
2
 10
5305.717
 20
-9304.148
 30
-470.000
 70
    32
  0
VERTEX
  8
E57LXLIFT
 62
2
 10
5294.703
 20
-9291.188
 30
-470.000
 70
    32
  0
VERTEX
  8
E57LXLIFT
 62
2
 10
5284.283
 20
-9278.882
 30
-470.000
 70
    32
  0
VERTEX
  8
E57LXLIFT
 62
2
 10
5279.612
 20
-9266.807
 30
-470.000
 70
    32
  0
VERTEX
  8
E57LXLIFT
 62
2
 10
5279.112
 20
-9254.160
 30
-470.000
 70
    32
  0
VERTEX
  8
E57LXLIFT
 62
2
 10
5269.010
 20
-9244.353
 30
-470.000
 70
    32
  0
VERTEX
  8
E57LXLIFT
 62
2
 10
5262.735
 20
-9238.387
 30
-470.000
 70
    32
  0
VERTEX
  8
E57LXLIFT
 62
2
 10
5259.268
 20
-9224.983
 30
-470.000
 70
    32
  0
VERTEX
  8
E57LXLIFT
 62
2
 10
5250.317
 20
-9216.731
 30
-470.000
 70
    32
  0
VERTEX
  8
E57LXLIFT
 62
2
 10
5248.798
 20
-9206.698
 30
-470.000
 70
    32
  0
VERTEX
  8
E57LXLIFT
 62
2
 10
5244.281
 20
-9195.274
 30
-470.000
 70
    32
  0
VERTEX
  8
E57LXLIFT
 62
2
 10
5238.329
 20
-9188.413
 30
-470.000
 70
    32
  0
VERTEX
  8
E57LXLIFT
 62
2
 10
5235.633
 20
-9183.735
 30
-470.000
 70
    32
  0
SEQEND
  8
E57LXLIFT
  0
POLYLINE
  8
E57LXLIFT
 62
8
 66
     1
 70
     9
  0
VERTEX
  8
E57LXLIFT
 62
8
 10
5288.857
 20
-9336.643
 30
-473.000
 70
    32
  0
VERTEX
  8
E57LXLIFT
 62
8
 10
5278.314
 20
-9349.150
 30
-473.000
 70
    32
  0
VERTEX
  8
E57LXLIFT
 62
8
 10
5270.691
 20
-9350.526
 30
-473.000
 70
    32
  0
VERTEX
  8
E57LXLIFT
 62
8
 10
5259.952
 20
-9344.144
 30
-473.000
 70
    32
  0
VERTEX
  8
E57LXLIFT
 62
8
 10
5253.055
 20
-9336.451
 30
-473.000
 70
    32
  0
VERTEX
  8
E57LXLIFT
 62
8
 10
5242.124
 20
-9318.726
 30
-473.000
 70
    32
  0
VERTEX
  8
E57LXLIFT
 62
8
 10
5234.178
 20
-9304.589
 30
-473.000
 70
    32
  0
VERTEX
  8
E57LXLIFT
 62
8
 10
5227.574
 20
-9289.459
 30
-473.000
 70
    32
  0
VERTEX
  8
E57LXLIFT
 62
8
 10
5227.955
 20
-9279.332
 30
-473.000
 70
    32
  0
VERTEX
  8
E57LXLIFT
 62
8
 10
5222.129
 20
-9269.096
 30
-473.000
 70
    32
  0
VERTEX
  8
E57LXLIFT
 62
8
 10
5211.315
 20
-9260.692
 30
-473.000
 70
    32
  0
VERTEX
  8
E57LXLIFT
 62
8
 10
5197.466
 20
-9256.612
 30
-473.000
 70
    32
  0
VERTEX
  8
E57LXLIFT
 62
8
 10
5186.772
 20
-9254.134
 30
-473.000
 70
    32
  0
VERTEX
  8
E57LXLIFT
 62
8
 10
5184.045
 20
-9248.824
 30
-473.000
 70
    32
  0
VERTEX
  8
E57LXLIFT
 62
8
 10
5191.421
 20
-9244.897
 30
-473.000
 70
    32
  0
VERTEX
  8
E57LXLIFT
 62
8
 10
5191.387
 20
-9239.234
 30
-473.000
 70
    32
  0
VERTEX
  8
E57LXLIFT
 62
8
 10
5197.053
 20
-9235.806
 30
-473.000
 70
    32
  0
VERTEX
  8
E57LXLIFT
 62
8
 10
5204.721
 20
-9246.757
 30
-473.000
 70
    32
  0
VERTEX
  8
E57LXLIFT
 62
8
 10
5218.193
 20
-9257.570
 30
-473.000
 70
    32
  0
VERTEX
  8
E57LXLIFT
 62
8
 10
5234.177
 20
-9268.821
 30
-473.000
 70
    32
  0
VERTEX
  8
E57LXLIFT
 62
8
 10
5246.855
 20
-9279.892
 30
-473.000
 70
    32
  0
VERTEX
  8
E57LXLIFT
 62
8
 10
5256.604
 20
-9289.960
 30
-473.000
 70
    32
  0
VERTEX
  8
E57LXLIFT
 62
8
 10
5267.614
 20
-9306.314
 30
-473.000
 70
    32
  0
VERTEX
  8
E57LXLIFT
 62
8
 10
5274.833
 20
-9318.582
 30
-473.000
 70
    32
  0
SEQEND
  8
E57LXLIFT
  0
POLYLINE
  8
E57LXLIFT
 62
3
 66
     1
 70
     9
  0
VERTEX
  8
E57LXLIFT
 62
3
 10
5198.415
 20
-9397.563
 30
-479.000
 70
    32
  0
VERTEX
  8
E57LXLIFT
 62
3
 10
5167.914
 20
-9374.086
 30
-479.000
 70
    32
  0
VERTEX
  8
E57LXLIFT
 62
3
 10
5156.520
 20
-9362.829
 30
-479.000
 70
    32
  0
VERTEX
  8
E57LXLIFT
 62
3
 10
5150.828
 20
-9345.384
 30
-479.000
 70
    32
  0
VERTEX
  8
E57LXLIFT
 62
3
 10
5140.307
 20
-9329.543
 30
-479.000
 70
    32
  0
VERTEX
  8
E57LXLIFT
 62
3
 10
5125.859
 20
-9320.219
 30
-479.000
 70
    32
  0
VERTEX
  8
E57LXLIFT
 62
3
 10
5125.195
 20
-9305.724
 30
-479.000
 70
    32
  0
VERTEX
  8
E57LXLIFT
 62
3
 10
5125.588
 20
-9290.885
 30
-479.000
 70
    32
  0
VERTEX
  8
E57LXLIFT
 62
3
 10
5131.091
 20
-9271.717
 30
-479.000
 70
    32
  0
VERTEX
  8
E57LXLIFT
 62
3
 10
5136.114
 20
-9256.186
 30
-479.000
 70
    32
  0
VERTEX
  8
E57LXLIFT
 62
3
 10
5139.021
 20
-9249.768
 30
-479.000
 70
    32
  0
VERTEX
  8
E57LXLIFT
 62
3
 10
5151.150
 20
-9250.637
 30
-479.000
 70
    32
  0
VERTEX
  8
E57LXLIFT
 62
3
 10
5158.190
 20
-9260.740
 30
-479.000
 70
    32
  0
VERTEX
  8
E57LXLIFT
 62
3
 10
5157.672
 20
-9273.047
 30
-479.000
 70
    32
  0
VERTEX
  8
E57LXLIFT
 62
3
 10
5163.598
 20
-9281.350
 30
-479.000
 70
    32
  0
VERTEX
  8
E57LXLIFT
 62
3
 10
5173.298
 20
-9293.422
 30
-479.000
 70
    32
  0
VERTEX
  8
E57LXLIFT
 62
3
 10
5182.588
 20
-9312.033
 30
-479.000
 70
    32
  0
VERTEX
  8
E57LXLIFT
 62
3
 10
5193.332
 20
-9331.428
 30
-479.000
 70
    32
  0
VERTEX
  8
E57LXLIFT
 62
3
 10
5201.398
 20
-9354.446
 30
-479.000
 70
    32
  0
VERTEX
  8
E57LXLIFT
 62
3
 10
5207.196
 20
-9374.547
 30
-479.000
 70
    32
  0
VERTEX
  8
E57LXLIFT
 62
3
 10
5208.456
 20
-9383.788
 30
-479.000
 70
    32
  0
SEQEND
  8
E57LXLIFT
  0
POLYLINE
  8
E57LXLIFT
 62
27
 66
     1
 70
     9
  0
VERTEX
  8
E57LXLIFT
 62
27
 10
4919.401
 20
-9387.698
 30
-479.000
 70
    32
  0
VERTEX
  8
E57LXLIFT
 62
27
 10
4936.262
 20
-9377.078
 30
-479.000
 70
    32
  0
VERTEX
  8
E57LXLIFT
 62
27
 10
4949.266
 20
-9381.346
 30
-479.000
 70
    32
  0
VERTEX
  8
E57LXLIFT
 62
27
 10
4958.350
 20
-9376.920
 30
-479.000
 70
    32
  0
VERTEX
  8
E57LXLIFT
 62
27
 10
4967.986
 20
-9363.335
 30
-479.000
 70
    32
  0
VERTEX
  8
E57LXLIFT
 62
27
 10
4977.433
 20
-9348.905
 30
-479.000
 70
    32
  0
VERTEX
  8
E57LXLIFT
 62
27
 10
4980.612
 20
-9335.613
 30
-479.000
 70
    32
  0
VERTEX
  8
E57LXLIFT
 62
27
 10
4963.929
 20
-9321.052
 30
-479.000
 70
    32
  0
VERTEX
  8
E57LXLIFT
 62
27
 10
4940.302
 20
-9322.678
 30
-479.000
 70
    32
  0
VERTEX
  8
E57LXLIFT
 62
27
 10
4924.035
 20
-9325.528
 30
-479.000
 70
    32
  0
VERTEX
  8
E57LXLIFT
 62
27
 10
4905.759
 20
-9331.725
 30
-479.000
 70
    32
  0
VERTEX
  8
E57LXLIFT
 62
27
 10
4898.639
 20
-9339.839
 30
-479.000
 70
    32
  0
VERTEX
  8
E57LXLIFT
 62
27
 10
4890.466
 20
-9341.950
 30
-479.000
 70
    32
  0
VERTEX
  8
E57LXLIFT
 62
27
 10
4885.281
 20
-9349.725
 30
-479.000
 70
    32
  0
VERTEX
  8
E57LXLIFT
 62
27
 10
4884.990
 20
-9356.722
 30
-479.000
 70
    32
  0
VERTEX
  8
E57LXLIFT
 62
27
 10
4891.753
 20
-9366.156
 30
-479.000
 70
    32
  0
VERTEX
  8
E57LXLIFT
 62
27
 10
4897.787
 20
-9368.691
 30
-479.000
 70
    32
  0
VERTEX
  8
E57LXLIFT
 62
27
 10
4908.851
 20
-9384.676
 30
-479.000
 70
    32
  0
SEQEND
  8
E57LXLIFT
  0
POLYLINE
  8
E57LXLIFT
 62
11
 66
     1
 70
     9
  0
VERTEX
  8
E57LXLIFT
 62
11
 10
5888.300
 20
-9916.225
 30
-464.000
 70
    32
  0
VERTEX
  8
E57LXLIFT
 62
11
 10
5883.973
 20
-9921.786
 30
-464.000
 70
    32
  0
VERTEX
  8
E57LXLIFT
 62
11
 10
5876.955
 20
-9924.410
 30
-464.000
 70
    32
  0
VERTEX
  8
E57LXLIFT
 62
11
 10
5869.176
 20
-9920.179
 30
-464.000
 70
    32
  0
VERTEX
  8
E57LXLIFT
 62
11
 10
5864.907
 20
-9909.569
 30
-464.000
 70
    32
  0
VERTEX
  8
E57LXLIFT
 62
11
 10
5864.089
 20
-9903.083
 30
-464.000
 70
    32
  0
VERTEX
  8
E57LXLIFT
 62
11
 10
5855.561
 20
-9893.951
 30
-464.000
 70
    32
  0
VERTEX
  8
E57LXLIFT
 62
11
 10
5854.368
 20
-9885.015
 30
-464.000
 70
    32
  0
VERTEX
  8
E57LXLIFT
 62
11
 10
5860.648
 20
-9879.443
 30
-464.000
 70
    32
  0
VERTEX
  8
E57LXLIFT
 62
11
 10
5867.183
 20
-9880.333
 30
-464.000
 70
    32
  0
VERTEX
  8
E57LXLIFT
 62
11
 10
5878.370
 20
-9876.405
 30
-464.000
 70
    32
  0
VERTEX
  8
E57LXLIFT
 62
11
 10
5885.744
 20
-9879.188
 30
-464.000
 70
    32
  0
VERTEX
  8
E57LXLIFT
 62
11
 10
5888.178
 20
-9890.268
 30
-464.000
 70
    32
  0
SEQEND
  8
E57LXLIFT
  0
POLYLINE
  8
E57LXLIFT
 62
7
 66
     1
 70
     9
  0
VERTEX
  8
E57LXLIFT
 62
7
 10
5829.862
 20
-9901.731
 30
-466.000
 70
    32
  0
VERTEX
  8
E57LXLIFT
 62
7
 10
5823.521
 20
-9885.007
 30
-466.000
 70
    32
  0
VERTEX
  8
E57LXLIFT
 62
7
 10
5819.691
 20
-9871.569
 30
-466.000
 70
    32
  0
VERTEX
  8
E57LXLIFT
 62
7
 10
5821.281
 20
-9855.258
 30
-466.000
 70
    32
  0
VERTEX
  8
E57LXLIFT
 62
7
 10
5825.800
 20
-9841.166
 30
-466.000
 70
    32
  0
VERTEX
  8
E57LXLIFT
 62
7
 10
5835.186
 20
-9836.265
 30
-466.000
 70
    32
  0
VERTEX
  8
E57LXLIFT
 62
7
 10
5849.269
 20
-9831.528
 30
-466.000
 70
    32
  0
VERTEX
  8
E57LXLIFT
 62
7
 10
5862.633
 20
-9826.554
 30
-466.000
 70
    32
  0
VERTEX
  8
E57LXLIFT
 62
7
 10
5873.012
 20
-9825.396
 30
-466.000
 70
    32
  0
VERTEX
  8
E57LXLIFT
 62
7
 10
5884.172
 20
-9836.637
 30
-466.000
 70
    32
  0
VERTEX
  8
E57LXLIFT
 62
7
 10
5886.317
 20
-9841.062
 30
-466.000
 70
    32
  0
VERTEX
  8
E57LXLIFT
 62
7
 10
5876.288
 20
-9845.233
 30
-466.000
 70
    32
  0
VERTEX
  8
E57LXLIFT
 62
7
 10
5863.627
 20
-9854.598
 30
-466.000
 70
    32
  0
VERTEX
  8
E57LXLIFT
 62
7
 10
5855.228
 20
-9863.681
 30
-466.000
 70
    32
  0
VERTEX
  8
E57LXLIFT
 62
7
 10
5851.652
 20
-9879.808
 30
-466.000
 70
    32
  0
VERTEX
  8
E57LXLIFT
 62
7
 10
5849.471
 20
-9895.461
 30
-466.000
 70
    32
  0
SEQEND
  8
E57LXLIFT
  0
POLYLINE
  8
E57LXLIFT
 62
13
 66
     1
 70
     9
  0
VERTEX
  8
E57LXLIFT
 62
13
 10
5771.035
 20
-10005.220
 30
-467.000
 70
    32
  0
VERTEX
  8
E57LXLIFT
 62
13
 10
5768.735
 20
-9990.446
 30
-467.000
 70
    32
  0
VERTEX
  8
E57LXLIFT
 62
13
 10
5771.218
 20
-9977.296
 30
-467.000
 70
    32
  0
VERTEX
  8
E57LXLIFT
 62
13
 10
5772.821
 20
-9968.605
 30
-467.000
 70
    32
  0
VERTEX
  8
E57LXLIFT
 62
13
 10
5768.747
 20
-9953.492
 30
-467.000
 70
    32
  0
VERTEX
  8
E57LXLIFT
 62
13
 10
5767.602
 20
-9934.931
 30
-467.000
 70
    32
  0
VERTEX
  8
E57LXLIFT
 62
13
 10
5768.861
 20
-9918.317
 30
-467.000
 70
    32
  0
VERTEX
  8
E57LXLIFT
 62
13
 10
5762.840
 20
-9902.776
 30
-467.000
 70
    32
  0
VERTEX
  8
E57LXLIFT
 62
13
 10
5756.998
 20
-9884.051
 30
-467.000
 70
    32
  0
VERTEX
  8
E57LXLIFT
 62
13
 10
5760.728
 20
-9872.606
 30
-467.000
 70
    32
  0
VERTEX
  8
E57LXLIFT
 62
13
 10
5766.730
 20
-9866.802
 30
-467.000
 70
    32
  0
VERTEX
  8
E57LXLIFT
 62
13
 10
5768.872
 20
-9854.229
 30
-467.000
 70
    32
  0
VERTEX
  8
E57LXLIFT
 62
13
 10
5766.892
 20
-9843.471
 30
-467.000
 70
    32
  0
VERTEX
  8
E57LXLIFT
 62
13
 10
5767.347
 20
-9836.490
 30
-467.000
 70
    32
  0
VERTEX
  8
E57LXLIFT
 62
13
 10
5775.596
 20
-9826.755
 30
-467.000
 70
    32
  0
VERTEX
  8
E57LXLIFT
 62
13
 10
5769.481
 20
-9804.525
 30
-467.000
 70
    32
  0
VERTEX
  8
E57LXLIFT
 62
13
 10
5779.592
 20
-9802.256
 30
-467.000
 70
    32
  0
VERTEX
  8
E57LXLIFT
 62
13
 10
5788.238
 20
-9830.482
 30
-467.000
 70
    32
  0
VERTEX
  8
E57LXLIFT
 62
13
 10
5788.451
 20
-9859.097
 30
-467.000
 70
    32
  0
VERTEX
  8
E57LXLIFT
 62
13
 10
5789.829
 20
-9901.681
 30
-467.000
 70
    32
  0
VERTEX
  8
E57LXLIFT
 62
13
 10
5780.645
 20
-9904.472
 30
-467.000
 70
    32
  0
VERTEX
  8
E57LXLIFT
 62
13
 10
5780.668
 20
-9914.045
 30
-467.000
 70
    32
  0
VERTEX
  8
E57LXLIFT
 62
13
 10
5787.316
 20
-9931.635
 30
-467.000
 70
    32
  0
VERTEX
  8
E57LXLIFT
 62
13
 10
5793.915
 20
-9953.184
 30
-467.000
 70
    32
  0
VERTEX
  8
E57LXLIFT
 62
13
 10
5803.837
 20
-9969.143
 30
-467.000
 70
    32
  0
VERTEX
  8
E57LXLIFT
 62
13
 10
5799.593
 20
-9989.574
 30
-467.000
 70
    32
  0
VERTEX
  8
E57LXLIFT
 62
13
 10
5790.391
 20
-9972.216
 30
-467.000
 70
    32
  0
VERTEX
  8
E57LXLIFT
 62
13
 10
5785.159
 20
-9972.663
 30
-467.000
 70
    32
  0
VERTEX
  8
E57LXLIFT
 62
13
 10
5785.482
 20
-9988.011
 30
-467.000
 70
    32
  0
VERTEX
  8
E57LXLIFT
 62
13
 10
5788.389
 20
-10004.957
 30
-467.000
 70
    32
  0
SEQEND
  8
E57LXLIFT
  0
POLYLINE
  8
E57LXLIFT
 62
3
 66
     1
 70
     9
  0
VERTEX
  8
E57LXLIFT
 62
3
 10
5447.879
 20
-9629.210
 30
-465.000
 70
    32
  0
VERTEX
  8
E57LXLIFT
 62
3
 10
5442.503
 20
-9634.229
 30
-465.000
 70
    32
  0
VERTEX
  8
E57LXLIFT
 62
3
 10
5445.591
 20
-9637.857
 30
-465.000
 70
    32
  0
VERTEX
  8
E57LXLIFT
 62
3
 10
5445.839
 20
-9665.030
 30
-465.000
 70
    32
  0
VERTEX
  8
E57LXLIFT
 62
3
 10
5447.776
 20
-9679.307
 30
-465.000
 70
    32
  0
VERTEX
  8
E57LXLIFT
 62
3
 10
5456.423
 20
-9694.564
 30
-465.000
 70
    32
  0
VERTEX
  8
E57LXLIFT
 62
3
 10
5469.596
 20
-9709.454
 30
-465.000
 70
    32
  0
VERTEX
  8
E57LXLIFT
 62
3
 10
5477.989
 20
-9726.749
 30
-465.000
 70
    32
  0
VERTEX
  8
E57LXLIFT
 62
3
 10
5483.291
 20
-9736.386
 30
-465.000
 70
    32
  0
VERTEX
  8
E57LXLIFT
 62
3
 10
5493.359
 20
-9734.803
 30
-465.000
 70
    32
  0
VERTEX
  8
E57LXLIFT
 62
3
 10
5496.247
 20
-9725.934
 30
-465.000
 70
    32
  0
VERTEX
  8
E57LXLIFT
 62
3
 10
5485.918
 20
-9712.997
 30
-465.000
 70
    32
  0
VERTEX
  8
E57LXLIFT
 62
3
 10
5479.313
 20
-9702.024
 30
-465.000
 70
    32
  0
VERTEX
  8
E57LXLIFT
 62
3
 10
5477.494
 20
-9691.039
 30
-465.000
 70
    32
  0
VERTEX
  8
E57LXLIFT
 62
3
 10
5463.989
 20
-9673.012
 30
-465.000
 70
    32
  0
VERTEX
  8
E57LXLIFT
 62
3
 10
5457.268
 20
-9657.110
 30
-465.000
 70
    32
  0
VERTEX
  8
E57LXLIFT
 62
3
 10
5452.062
 20
-9644.025
 30
-465.000
 70
    32
  0
SEQEND
  8
E57LXLIFT
  0
POLYLINE
  8
E57LXLIFT
 62
13
 66
     1
 70
     9
  0
VERTEX
  8
E57LXLIFT
 62
13
 10
5334.117
 20
-9314.379
 30
-464.000
 70
    32
  0
VERTEX
  8
E57LXLIFT
 62
13
 10
5339.847
 20
-9353.673
 30
-464.000
 70
    32
  0
VERTEX
  8
E57LXLIFT
 62
13
 10
5345.608
 20
-9378.995
 30
-464.000
 70
    32
  0
VERTEX
  8
E57LXLIFT
 62
13
 10
5343.067
 20
-9392.514
 30
-464.000
 70
    32
  0
VERTEX
  8
E57LXLIFT
 62
13
 10
5344.848
 20
-9409.411
 30
-464.000
 70
    32
  0
VERTEX
  8
E57LXLIFT
 62
13
 10
5343.146
 20
-9421.990
 30
-464.000
 70
    32
  0
VERTEX
  8
E57LXLIFT
 62
13
 10
5340.278
 20
-9439.235
 30
-464.000
 70
    32
  0
VERTEX
  8
E57LXLIFT
 62
13
 10
5336.745
 20
-9454.677
 30
-464.000
 70
    32
  0
VERTEX
  8
E57LXLIFT
 62
13
 10
5323.108
 20
-9461.813
 30
-464.000
 70
    32
  0
VERTEX
  8
E57LXLIFT
 62
13
 10
5316.472
 20
-9461.978
 30
-464.000
 70
    32
  0
VERTEX
  8
E57LXLIFT
 62
13
 10
5306.030
 20
-9445.309
 30
-464.000
 70
    32
  0
VERTEX
  8
E57LXLIFT
 62
13
 10
5298.828
 20
-9428.450
 30
-464.000
 70
    32
  0
VERTEX
  8
E57LXLIFT
 62
13
 10
5290.164
 20
-9408.847
 30
-464.000
 70
    32
  0
VERTEX
  8
E57LXLIFT
 62
13
 10
5278.482
 20
-9392.867
 30
-464.000
 70
    32
  0
VERTEX
  8
E57LXLIFT
 62
13
 10
5269.042
 20
-9376.227
 30
-464.000
 70
    32
  0
VERTEX
  8
E57LXLIFT
 62
13
 10
5276.376
 20
-9365.090
 30
-464.000
 70
    32
  0
VERTEX
  8
E57LXLIFT
 62
13
 10
5281.498
 20
-9362.109
 30
-464.000
 70
    32
  0
VERTEX
  8
E57LXLIFT
 62
13
 10
5291.312
 20
-9381.199
 30
-464.000
 70
    32
  0
VERTEX
  8
E57LXLIFT
 62
13
 10
5301.396
 20
-9394.097
 30
-464.000
 70
    32
  0
VERTEX
  8
E57LXLIFT
 62
13
 10
5312.999
 20
-9396.404
 30
-464.000
 70
    32
  0
VERTEX
  8
E57LXLIFT
 62
13
 10
5319.775
 20
-9384.803
 30
-464.000
 70
    32
  0
VERTEX
  8
E57LXLIFT
 62
13
 10
5322.327
 20
-9370.404
 30
-464.000
 70
    32
  0
VERTEX
  8
E57LXLIFT
 62
13
 10
5317.909
 20
-9354.671
 30
-464.000
 70
    32
  0
VERTEX
  8
E57LXLIFT
 62
13
 10
5309.767
 20
-9336.975
 30
-464.000
 70
    32
  0
VERTEX
  8
E57LXLIFT
 62
13
 10
5299.300
 20
-9318.035
 30
-464.000
 70
    32
  0
SEQEND
  8
E57LXLIFT
  0
POLYLINE
  8
E57LXLIFT
 62
2
 66
     1
 70
     9
  0
VERTEX
  8
E57LXLIFT
 62
2
 10
5257.247
 20
-9164.057
 30
-462.000
 70
    32
  0
VERTEX
  8
E57LXLIFT
 62
2
 10
5266.294
 20
-9171.066
 30
-462.000
 70
    32
  0
VERTEX
  8
E57LXLIFT
 62
2
 10
5280.274
 20
-9174.686
 30
-462.000
 70
    32
  0
VERTEX
  8
E57LXLIFT
 62
2
 10
5290.671
 20
-9180.709
 30
-462.000
 70
    32
  0
VERTEX
  8
E57LXLIFT
 62
2
 10
5302.162
 20
-9197.918
 30
-462.000
 70
    32
  0
VERTEX
  8
E57LXLIFT
 62
2
 10
5311.325
 20
-9215.522
 30
-462.000
 70
    32
  0
VERTEX
  8
E57LXLIFT
 62
2
 10
5317.087
 20
-9227.875
 30
-462.000
 70
    32
  0
VERTEX
  8
E57LXLIFT
 62
2
 10
5315.687
 20
-9240.123
 30
-462.000
 70
    32
  0
VERTEX
  8
E57LXLIFT
 62
2
 10
5295.592
 20
-9251.544
 30
-462.000
 70
    32
  0
VERTEX
  8
E57LXLIFT
 62
2
 10
5302.345
 20
-9261.974
 30
-462.000
 70
    32
  0
VERTEX
  8
E57LXLIFT
 62
2
 10
5308.796
 20
-9278.400
 30
-462.000
 70
    32
  0
VERTEX
  8
E57LXLIFT
 62
2
 10
5319.053
 20
-9288.556
 30
-462.000
 70
    32
  0
VERTEX
  8
E57LXLIFT
 62
2
 10
5322.916
 20
-9299.355
 30
-462.000
 70
    32
  0
VERTEX
  8
E57LXLIFT
 62
2
 10
5314.674
 20
-9307.014
 30
-462.000
 70
    32
  0
VERTEX
  8
E57LXLIFT
 62
2
 10
5301.390
 20
-9312.694
 30
-462.000
 70
    32
  0
VERTEX
  8
E57LXLIFT
 62
2
 10
5290.846
 20
-9310.048
 30
-462.000
 70
    32
  0
VERTEX
  8
E57LXLIFT
 62
2
 10
5280.989
 20
-9294.478
 30
-462.000
 70
    32
  0
VERTEX
  8
E57LXLIFT
 62
2
 10
5272.531
 20
-9279.628
 30
-462.000
 70
    32
  0
VERTEX
  8
E57LXLIFT
 62
2
 10
5262.410
 20
-9269.808
 30
-462.000
 70
    32
  0
VERTEX
  8
E57LXLIFT
 62
2
 10
5256.161
 20
-9269.907
 30
-462.000
 70
    32
  0
VERTEX
  8
E57LXLIFT
 62
2
 10
5253.374
 20
-9280.554
 30
-462.000
 70
    32
  0
VERTEX
  8
E57LXLIFT
 62
2
 10
5252.199
 20
-9294.600
 30
-462.000
 70
    32
  0
VERTEX
  8
E57LXLIFT
 62
2
 10
5258.096
 20
-9304.456
 30
-462.000
 70
    32
  0
VERTEX
  8
E57LXLIFT
 62
2
 10
5266.858
 20
-9318.975
 30
-462.000
 70
    32
  0
VERTEX
  8
E57LXLIFT
 62
2
 10
5278.119
 20
-9331.994
 30
-462.000
 70
    32
  0
VERTEX
  8
E57LXLIFT
 62
2
 10
5287.705
 20
-9342.423
 30
-462.000
 70
    32
  0
VERTEX
  8
E57LXLIFT
 62
2
 10
5289.979
 20
-9349.261
 30
-462.000
 70
    32
  0
VERTEX
  8
E57LXLIFT
 62
2
 10
5280.738
 20
-9358.087
 30
-462.000
 70
    32
  0
VERTEX
  8
E57LXLIFT
 62
2
 10
5273.643
 20
-9358.370
 30
-462.000
 70
    32
  0
VERTEX
  8
E57LXLIFT
 62
2
 10
5258.765
 20
-9344.726
 30
-462.000
 70
    32
  0
VERTEX
  8
E57LXLIFT
 62
2
 10
5247.088
 20
-9331.139
 30
-462.000
 70
    32
  0
VERTEX
  8
E57LXLIFT
 62
2
 10
5247.774
 20
-9315.381
 30
-462.000
 70
    32
  0
VERTEX
  8
E57LXLIFT
 62
2
 10
5244.908
 20
-9302.218
 30
-462.000
 70
    32
  0
VERTEX
  8
E57LXLIFT
 62
2
 10
5240.895
 20
-9285.100
 30
-462.000
 70
    32
  0
VERTEX
  8
E57LXLIFT
 62
2
 10
5233.661
 20
-9273.714
 30
-462.000
 70
    32
  0
VERTEX
  8
E57LXLIFT
 62
2
 10
5246.580
 20
-9269.174
 30
-462.000
 70
    32
  0
VERTEX
  8
E57LXLIFT
 62
2
 10
5254.294
 20
-9262.881
 30
-462.000
 70
    32
  0
VERTEX
  8
E57LXLIFT
 62
2
 10
5254.536
 20
-9253.223
 30
-462.000
 70
    32
  0
VERTEX
  8
E57LXLIFT
 62
2
 10
5247.523
 20
-9242.438
 30
-462.000
 70
    32
  0
VERTEX
  8
E57LXLIFT
 62
2
 10
5243.267
 20
-9229.312
 30
-462.000
 70
    32
  0
VERTEX
  8
E57LXLIFT
 62
2
 10
5237.904
 20
-9226.149
 30
-462.000
 70
    32
  0
VERTEX
  8
E57LXLIFT
 62
2
 10
5223.232
 20
-9235.894
 30
-462.000
 70
    32
  0
VERTEX
  8
E57LXLIFT
 62
2
 10
5214.469
 20
-9247.312
 30
-462.000
 70
    32
  0
VERTEX
  8
E57LXLIFT
 62
2
 10
5208.229
 20
-9258.304
 30
-462.000
 70
    32
  0
VERTEX
  8
E57LXLIFT
 62
2
 10
5197.331
 20
-9261.585
 30
-462.000
 70
    32
  0
VERTEX
  8
E57LXLIFT
 62
2
 10
5192.033
 20
-9255.977
 30
-462.000
 70
    32
  0
VERTEX
  8
E57LXLIFT
 62
2
 10
5203.172
 20
-9243.039
 30
-462.000
 70
    32
  0
VERTEX
  8
E57LXLIFT
 62
2
 10
5218.993
 20
-9229.947
 30
-462.000
 70
    32
  0
VERTEX
  8
E57LXLIFT
 62
2
 10
5231.428
 20
-9220.421
 30
-462.000
 70
    32
  0
VERTEX
  8
E57LXLIFT
 62
2
 10
5234.637
 20
-9215.568
 30
-462.000
 70
    32
  0
VERTEX
  8
E57LXLIFT
 62
2
 10
5232.335
 20
-9205.263
 30
-462.000
 70
    32
  0
VERTEX
  8
E57LXLIFT
 62
2
 10
5239.901
 20
-9193.848
 30
-462.000
 70
    32
  0
VERTEX
  8
E57LXLIFT
 62
2
 10
5242.300
 20
-9180.433
 30
-462.000
 70
    32
  0
VERTEX
  8
E57LXLIFT
 62
2
 10
5250.305
 20
-9169.023
 30
-462.000
 70
    32
  0
SEQEND
  8
E57LXLIFT
  0
POLYLINE
  8
E57LXLIFT
 62
3
 66
     1
 70
     9
  0
VERTEX
  8
E57LXLIFT
 62
3
 10
5156.661
 20
-9257.532
 30
-469.000
 70
    32
  0
VERTEX
  8
E57LXLIFT
 62
3
 10
5166.652
 20
-9272.242
 30
-469.000
 70
    32
  0
VERTEX
  8
E57LXLIFT
 62
3
 10
5182.451
 20
-9296.984
 30
-469.000
 70
    32
  0
VERTEX
  8
E57LXLIFT
 62
3
 10
5194.186
 20
-9318.701
 30
-469.000
 70
    32
  0
VERTEX
  8
E57LXLIFT
 62
3
 10
5202.881
 20
-9342.968
 30
-469.000
 70
    32
  0
VERTEX
  8
E57LXLIFT
 62
3
 10
5211.340
 20
-9366.318
 30
-469.000
 70
    32
  0
VERTEX
  8
E57LXLIFT
 62
3
 10
5215.851
 20
-9383.072
 30
-469.000
 70
    32
  0
VERTEX
  8
E57LXLIFT
 62
3
 10
5208.750
 20
-9393.931
 30
-469.000
 70
    32
  0
VERTEX
  8
E57LXLIFT
 62
3
 10
5192.458
 20
-9408.020
 30
-469.000
 70
    32
  0
VERTEX
  8
E57LXLIFT
 62
3
 10
5177.238
 20
-9405.088
 30
-469.000
 70
    32
  0
VERTEX
  8
E57LXLIFT
 62
3
 10
5162.842
 20
-9385.098
 30
-469.000
 70
    32
  0
VERTEX
  8
E57LXLIFT
 62
3
 10
5145.126
 20
-9361.758
 30
-469.000
 70
    32
  0
VERTEX
  8
E57LXLIFT
 62
3
 10
5129.935
 20
-9342.022
 30
-469.000
 70
    32
  0
VERTEX
  8
E57LXLIFT
 62
3
 10
5121.986
 20
-9315.793
 30
-469.000
 70
    32
  0
VERTEX
  8
E57LXLIFT
 62
3
 10
5116.384
 20
-9291.881
 30
-469.000
 70
    32
  0
VERTEX
  8
E57LXLIFT
 62
3
 10
5116.780
 20
-9276.770
 30
-469.000
 70
    32
  0
VERTEX
  8
E57LXLIFT
 62
3
 10
5140.602
 20
-9255.541
 30
-469.000
 70
    32
  0
SEQEND
  8
E57LXLIFT
  0
POLYLINE
  8
E57LXLIFT
 62
27
 66
     1
 70
     9
  0
VERTEX
  8
E57LXLIFT
 62
27
 10
4954.931
 20
-9319.238
 30
-468.000
 70
    32
  0
VERTEX
  8
E57LXLIFT
 62
27
 10
4958.303
 20
-9338.460
 30
-468.000
 70
    32
  0
VERTEX
  8
E57LXLIFT
 62
27
 10
4959.927
 20
-9359.613
 30
-468.000
 70
    32
  0
VERTEX
  8
E57LXLIFT
 62
27
 10
4939.480
 20
-9375.323
 30
-468.000
 70
    32
  0
VERTEX
  8
E57LXLIFT
 62
27
 10
4925.469
 20
-9385.675
 30
-468.000
 70
    32
  0
VERTEX
  8
E57LXLIFT
 62
27
 10
4910.703
 20
-9388.732
 30
-468.000
 70
    32
  0
VERTEX
  8
E57LXLIFT
 62
27
 10
4902.541
 20
-9378.461
 30
-468.000
 70
    32
  0
VERTEX
  8
E57LXLIFT
 62
27
 10
4896.029
 20
-9371.342
 30
-468.000
 70
    32
  0
VERTEX
  8
E57LXLIFT
 62
27
 10
4882.436
 20
-9364.823
 30
-468.000
 70
    32
  0
VERTEX
  8
E57LXLIFT
 62
27
 10
4893.181
 20
-9346.724
 30
-468.000
 70
    32
  0
VERTEX
  8
E57LXLIFT
 62
27
 10
4908.494
 20
-9329.209
 30
-468.000
 70
    32
  0
VERTEX
  8
E57LXLIFT
 62
27
 10
4926.010
 20
-9321.417
 30
-468.000
 70
    32
  0
VERTEX
  8
E57LXLIFT
 62
27
 10
4939.530
 20
-9319.489
 30
-468.000
 70
    32
  0
SEQEND
  8
E57LXLIFT
  0
POLYLINE
  8
E57LXLIFT
 62
11
 66
     1
 70
     9
  0
VERTEX
  8
E57LXLIFT
 62
11
 10
5889.110
 20
-9885.106
 30
-454.000
 70
    32
  0
VERTEX
  8
E57LXLIFT
 62
11
 10
5891.784
 20
-9901.209
 30
-454.000
 70
    32
  0
VERTEX
  8
E57LXLIFT
 62
11
 10
5889.648
 20
-9916.228
 30
-454.000
 70
    32
  0
VERTEX
  8
E57LXLIFT
 62
11
 10
5886.780
 20
-9924.062
 30
-454.000
 70
    32
  0
VERTEX
  8
E57LXLIFT
 62
11
 10
5873.691
 20
-9923.439
 30
-454.000
 70
    32
  0
VERTEX
  8
E57LXLIFT
 62
11
 10
5863.816
 20
-9904.427
 30
-454.000
 70
    32
  0
VERTEX
  8
E57LXLIFT
 62
11
 10
5861.465
 20
-9889.184
 30
-454.000
 70
    32
  0
VERTEX
  8
E57LXLIFT
 62
11
 10
5874.607
 20
-9875.826
 30
-454.000
 70
    32
  0
SEQEND
  8
E57LXLIFT
  0
POLYLINE
  8
E57LXLIFT
 62
7
 66
     1
 70
     9
  0
VERTEX
  8
E57LXLIFT
 62
7
 10
5899.908
 20
-9819.433
 30
-458.000
 70
    32
  0
VERTEX
  8
E57LXLIFT
 62
7
 10
5894.288
 20
-9842.204
 30
-458.000
 70
    32
  0
VERTEX
  8
E57LXLIFT
 62
7
 10
5882.376
 20
-9853.405
 30
-458.000
 70
    32
  0
VERTEX
  8
E57LXLIFT
 62
7
 10
5855.160
 20
-9872.093
 30
-458.000
 70
    32
  0
VERTEX
  8
E57LXLIFT
 62
7
 10
5828.140
 20
-9883.217
 30
-458.000
 70
    32
  0
VERTEX
  8
E57LXLIFT
 62
7
 10
5816.825
 20
-9892.304
 30
-458.000
 70
    32
  0
VERTEX
  8
E57LXLIFT
 62
7
 10
5804.535
 20
-9878.678
 30
-458.000
 70
    32
  0
VERTEX
  8
E57LXLIFT
 62
7
 10
5819.806
 20
-9863.472
 30
-458.000
 70
    32
  0
VERTEX
  8
E57LXLIFT
 62
7
 10
5829.697
 20
-9844.409
 30
-458.000
 70
    32
  0
VERTEX
  8
E57LXLIFT
 62
7
 10
5843.960
 20
-9832.519
 30
-458.000
 70
    32
  0
VERTEX
  8
E57LXLIFT
 62
7
 10
5857.277
 20
-9821.128
 30
-458.000
 70
    32
  0
VERTEX
  8
E57LXLIFT
 62
7
 10
5870.929
 20
-9813.798
 30
-458.000
 70
    32
  0
SEQEND
  8
E57LXLIFT
  0
POLYLINE
  8
E57LXLIFT
 62
13
 66
     1
 70
     9
  0
VERTEX
  8
E57LXLIFT
 62
13
 10
5783.187
 20
-10006.293
 30
-458.000
 70
    32
  0
VERTEX
  8
E57LXLIFT
 62
13
 10
5773.525
 20
-10005.376
 30
-458.000
 70
    32
  0
VERTEX
  8
E57LXLIFT
 62
13
 10
5766.759
 20
-9995.939
 30
-458.000
 70
    32
  0
VERTEX
  8
E57LXLIFT
 62
13
 10
5767.653
 20
-9965.824
 30
-458.000
 70
    32
  0
VERTEX
  8
E57LXLIFT
 62
13
 10
5770.139
 20
-9934.605
 30
-458.000
 70
    32
  0
VERTEX
  8
E57LXLIFT
 62
13
 10
5767.114
 20
-9904.718
 30
-458.000
 70
    32
  0
VERTEX
  8
E57LXLIFT
 62
13
 10
5757.721
 20
-9882.573
 30
-458.000
 70
    32
  0
VERTEX
  8
E57LXLIFT
 62
13
 10
5765.141
 20
-9866.504
 30
-458.000
 70
    32
  0
VERTEX
  8
E57LXLIFT
 62
13
 10
5765.256
 20
-9843.624
 30
-458.000
 70
    32
  0
VERTEX
  8
E57LXLIFT
 62
13
 10
5767.465
 20
-9821.024
 30
-458.000
 70
    32
  0
VERTEX
  8
E57LXLIFT
 62
13
 10
5774.274
 20
-9803.431
 30
-458.000
 70
    32
  0
VERTEX
  8
E57LXLIFT
 62
13
 10
5779.166
 20
-9797.813
 30
-458.000
 70
    32
  0
VERTEX
  8
E57LXLIFT
 62
13
 10
5784.518
 20
-9808.441
 30
-458.000
 70
    32
  0
VERTEX
  8
E57LXLIFT
 62
13
 10
5784.066
 20
-9824.940
 30
-458.000
 70
    32
  0
VERTEX
  8
E57LXLIFT
 62
13
 10
5786.404
 20
-9840.747
 30
-458.000
 70
    32
  0
VERTEX
  8
E57LXLIFT
 62
13
 10
5783.444
 20
-9868.013
 30
-458.000
 70
    32
  0
VERTEX
  8
E57LXLIFT
 62
13
 10
5777.589
 20
-9908.002
 30
-458.000
 70
    32
  0
VERTEX
  8
E57LXLIFT
 62
13
 10
5778.902
 20
-9927.247
 30
-458.000
 70
    32
  0
VERTEX
  8
E57LXLIFT
 62
13
 10
5783.336
 20
-9941.453
 30
-458.000
 70
    32
  0
VERTEX
  8
E57LXLIFT
 62
13
 10
5783.157
 20
-9961.062
 30
-458.000
 70
    32
  0
VERTEX
  8
E57LXLIFT
 62
13
 10
5779.001
 20
-9974.306
 30
-458.000
 70
    32
  0
VERTEX
  8
E57LXLIFT
 62
13
 10
5780.699
 20
-9987.393
 30
-458.000
 70
    32
  0
VERTEX
  8
E57LXLIFT
 62
13
 10
5785.989
 20
-9998.952
 30
-458.000
 70
    32
  0
SEQEND
  8
E57LXLIFT
  0
POLYLINE
  8
E57LXLIFT
 62
3
 66
     1
 70
     9
  0
VERTEX
  8
E57LXLIFT
 62
3
 10
5507.078
 20
-9716.102
 30
-455.000
 70
    32
  0
VERTEX
  8
E57LXLIFT
 62
3
 10
5501.123
 20
-9726.847
 30
-455.000
 70
    32
  0
VERTEX
  8
E57LXLIFT
 62
3
 10
5493.128
 20
-9727.533
 30
-455.000
 70
    32
  0
VERTEX
  8
E57LXLIFT
 62
3
 10
5478.310
 20
-9716.392
 30
-455.000
 70
    32
  0
VERTEX
  8
E57LXLIFT
 62
3
 10
5464.015
 20
-9704.630
 30
-455.000
 70
    32
  0
VERTEX
  8
E57LXLIFT
 62
3
 10
5454.959
 20
-9688.865
 30
-455.000
 70
    32
  0
VERTEX
  8
E57LXLIFT
 62
3
 10
5439.937
 20
-9676.441
 30
-455.000
 70
    32
  0
VERTEX
  8
E57LXLIFT
 62
3
 10
5429.772
 20
-9662.410
 30
-455.000
 70
    32
  0
VERTEX
  8
E57LXLIFT
 62
3
 10
5428.089
 20
-9643.115
 30
-455.000
 70
    32
  0
VERTEX
  8
E57LXLIFT
 62
3
 10
5427.205
 20
-9628.632
 30
-455.000
 70
    32
  0
VERTEX
  8
E57LXLIFT
 62
3
 10
5434.338
 20
-9627.831
 30
-455.000
 70
    32
  0
VERTEX
  8
E57LXLIFT
 62
3
 10
5441.212
 20
-9633.644
 30
-455.000
 70
    32
  0
VERTEX
  8
E57LXLIFT
 62
3
 10
5444.664
 20
-9648.157
 30
-455.000
 70
    32
  0
VERTEX
  8
E57LXLIFT
 62
3
 10
5451.247
 20
-9660.831
 30
-455.000
 70
    32
  0
VERTEX
  8
E57LXLIFT
 62
3
 10
5462.351
 20
-9679.567
 30
-455.000
 70
    32
  0
VERTEX
  8
E57LXLIFT
 62
3
 10
5477.730
 20
-9694.485
 30
-455.000
 70
    32
  0
VERTEX
  8
E57LXLIFT
 62
3
 10
5487.390
 20
-9701.047
 30
-455.000
 70
    32
  0
VERTEX
  8
E57LXLIFT
 62
3
 10
5501.033
 20
-9702.685
 30
-455.000
 70
    32
  0
SEQEND
  8
E57LXLIFT
  0
POLYLINE
  8
E57LXLIFT
 62
2
 66
     1
 70
     9
  0
VERTEX
  8
E57LXLIFT
 62
2
 10
5254.461
 20
-9338.039
 30
-451.000
 70
    32
  0
VERTEX
  8
E57LXLIFT
 62
2
 10
5258.502
 20
-9333.625
 30
-451.000
 70
    32
  0
VERTEX
  8
E57LXLIFT
 62
2
 10
5253.550
 20
-9320.479
 30
-451.000
 70
    32
  0
VERTEX
  8
E57LXLIFT
 62
2
 10
5252.896
 20
-9306.152
 30
-451.000
 70
    32
  0
VERTEX
  8
E57LXLIFT
 62
2
 10
5249.484
 20
-9294.154
 30
-451.000
 70
    32
  0
VERTEX
  8
E57LXLIFT
 62
2
 10
5249.515
 20
-9281.738
 30
-451.000
 70
    32
  0
VERTEX
  8
E57LXLIFT
 62
2
 10
5256.235
 20
-9277.933
 30
-451.000
 70
    32
  0
VERTEX
  8
E57LXLIFT
 62
2
 10
5268.547
 20
-9280.145
 30
-451.000
 70
    32
  0
VERTEX
  8
E57LXLIFT
 62
2
 10
5279.722
 20
-9279.132
 30
-451.000
 70
    32
  0
VERTEX
  8
E57LXLIFT
 62
2
 10
5286.848
 20
-9267.603
 30
-451.000
 70
    32
  0
VERTEX
  8
E57LXLIFT
 62
2
 10
5288.732
 20
-9255.875
 30
-451.000
 70
    32
  0
VERTEX
  8
E57LXLIFT
 62
2
 10
5287.728
 20
-9241.815
 30
-451.000
 70
    32
  0
VERTEX
  8
E57LXLIFT
 62
2
 10
5278.758
 20
-9221.670
 30
-451.000
 70
    32
  0
VERTEX
  8
E57LXLIFT
 62
2
 10
5271.816
 20
-9202.299
 30
-451.000
 70
    32
  0
VERTEX
  8
E57LXLIFT
 62
2
 10
5269.402
 20
-9183.785
 30
-451.000
 70
    32
  0
VERTEX
  8
E57LXLIFT
 62
2
 10
5262.029
 20
-9171.382
 30
-451.000
 70
    32
  0
VERTEX
  8
E57LXLIFT
 62
2
 10
5248.402
 20
-9177.587
 30
-451.000
 70
    32
  0
VERTEX
  8
E57LXLIFT
 62
2
 10
5246.335
 20
-9186.468
 30
-451.000
 70
    32
  0
VERTEX
  8
E57LXLIFT
 62
2
 10
5245.723
 20
-9186.826
 30
-451.000
 70
    32
  0
VERTEX
  8
E57LXLIFT
 62
2
 10
5236.752
 20
-9198.547
 30
-451.000
 70
    32
  0
VERTEX
  8
E57LXLIFT
 62
2
 10
5229.392
 20
-9209.480
 30
-451.000
 70
    32
  0
VERTEX
  8
E57LXLIFT
 62
2
 10
5228.968
 20
-9219.208
 30
-451.000
 70
    32
  0
VERTEX
  8
E57LXLIFT
 62
2
 10
5213.365
 20
-9232.676
 30
-451.000
 70
    32
  0
VERTEX
  8
E57LXLIFT
 62
2
 10
5200.780
 20
-9243.286
 30
-451.000
 70
    32
  0
VERTEX
  8
E57LXLIFT
 62
2
 10
5190.931
 20
-9251.251
 30
-451.000
 70
    32
  0
VERTEX
  8
E57LXLIFT
 62
2
 10
5195.907
 20
-9259.068
 30
-451.000
 70
    32
  0
VERTEX
  8
E57LXLIFT
 62
2
 10
5213.029
 20
-9254.397
 30
-451.000
 70
    32
  0
VERTEX
  8
E57LXLIFT
 62
2
 10
5216.617
 20
-9244.465
 30
-451.000
 70
    32
  0
VERTEX
  8
E57LXLIFT
 62
2
 10
5224.651
 20
-9234.124
 30
-451.000
 70
    32
  0
VERTEX
  8
E57LXLIFT
 62
2
 10
5231.818
 20
-9229.313
 30
-451.000
 70
    32
  0
VERTEX
  8
E57LXLIFT
 62
2
 10
5241.108
 20
-9235.825
 30
-451.000
 70
    32
  0
VERTEX
  8
E57LXLIFT
 62
2
 10
5248.107
 20
-9239.773
 30
-451.000
 70
    32
  0
VERTEX
  8
E57LXLIFT
 62
2
 10
5245.819
 20
-9255.462
 30
-451.000
 70
    32
  0
VERTEX
  8
E57LXLIFT
 62
2
 10
5243.704
 20
-9268.916
 30
-451.000
 70
    32
  0
VERTEX
  8
E57LXLIFT
 62
2
 10
5237.556
 20
-9295.631
 30
-451.000
 70
    32
  0
VERTEX
  8
E57LXLIFT
 62
2
 10
5234.467
 20
-9310.272
 30
-451.000
 70
    32
  0
VERTEX
  8
E57LXLIFT
 62
2
 10
5245.954
 20
-9328.495
 30
-451.000
 70
    32
  0
SEQEND
  8
E57LXLIFT
  0
POLYLINE
  8
E57LXLIFT
 62
3
 66
     1
 70
     9
  0
VERTEX
  8
E57LXLIFT
 62
3
 10
5238.394
 20
-9440.267
 30
-458.000
 70
    32
  0
VERTEX
  8
E57LXLIFT
 62
3
 10
5239.644
 20
-9422.494
 30
-458.000
 70
    32
  0
VERTEX
  8
E57LXLIFT
 62
3
 10
5226.617
 20
-9395.158
 30
-458.000
 70
    32
  0
VERTEX
  8
E57LXLIFT
 62
3
 10
5216.534
 20
-9364.577
 30
-458.000
 70
    32
  0
VERTEX
  8
E57LXLIFT
 62
3
 10
5201.612
 20
-9333.599
 30
-458.000
 70
    32
  0
VERTEX
  8
E57LXLIFT
 62
3
 10
5189.599
 20
-9309.472
 30
-458.000
 70
    32
  0
VERTEX
  8
E57LXLIFT
 62
3
 10
5170.616
 20
-9280.711
 30
-458.000
 70
    32
  0
VERTEX
  8
E57LXLIFT
 62
3
 10
5151.373
 20
-9262.328
 30
-458.000
 70
    32
  0
VERTEX
  8
E57LXLIFT
 62
3
 10
5137.155
 20
-9243.426
 30
-458.000
 70
    32
  0
VERTEX
  8
E57LXLIFT
 62
3
 10
5121.395
 20
-9235.106
 30
-458.000
 70
    32
  0
VERTEX
  8
E57LXLIFT
 62
3
 10
5103.981
 20
-9240.553
 30
-458.000
 70
    32
  0
VERTEX
  8
E57LXLIFT
 62
3
 10
5096.179
 20
-9263.220
 30
-458.000
 70
    32
  0
VERTEX
  8
E57LXLIFT
 62
3
 10
5102.403
 20
-9280.926
 30
-458.000
 70
    32
  0
VERTEX
  8
E57LXLIFT
 62
3
 10
5118.818
 20
-9309.657
 30
-458.000
 70
    32
  0
VERTEX
  8
E57LXLIFT
 62
3
 10
5125.838
 20
-9335.939
 30
-458.000
 70
    32
  0
VERTEX
  8
E57LXLIFT
 62
3
 10
5132.676
 20
-9365.458
 30
-458.000
 70
    32
  0
VERTEX
  8
E57LXLIFT
 62
3
 10
5144.245
 20
-9389.149
 30
-458.000
 70
    32
  0
VERTEX
  8
E57LXLIFT
 62
3
 10
5162.535
 20
-9407.154
 30
-458.000
 70
    32
  0
VERTEX
  8
E57LXLIFT
 62
3
 10
5181.617
 20
-9419.243
 30
-458.000
 70
    32
  0
VERTEX
  8
E57LXLIFT
 62
3
 10
5199.750
 20
-9431.393
 30
-458.000
 70
    32
  0
VERTEX
  8
E57LXLIFT
 62
3
 10
5212.745
 20
-9447.246
 30
-458.000
 70
    32
  0
VERTEX
  8
E57LXLIFT
 62
3
 10
5220.393
 20
-9451.030
 30
-458.000
 70
    32
  0
SEQEND
  8
E57LXLIFT
  0
POLYLINE
  8
E57LXLIFT
 62
27
 66
     1
 70
     9
  0
VERTEX
  8
E57LXLIFT
 62
27
 10
4957.080
 20
-9323.448
 30
-458.000
 70
    32
  0
VERTEX
  8
E57LXLIFT
 62
27
 10
4950.817
 20
-9325.244
 30
-458.000
 70
    32
  0
VERTEX
  8
E57LXLIFT
 62
27
 10
4944.102
 20
-9321.523
 30
-458.000
 70
    32
  0
VERTEX
  8
E57LXLIFT
 62
27
 10
4935.410
 20
-9325.064
 30
-458.000
 70
    32
  0
VERTEX
  8
E57LXLIFT
 62
27
 10
4921.942
 20
-9327.275
 30
-458.000
 70
    32
  0
VERTEX
  8
E57LXLIFT
 62
27
 10
4909.732
 20
-9326.645
 30
-458.000
 70
    32
  0
VERTEX
  8
E57LXLIFT
 62
27
 10
4897.873
 20
-9329.950
 30
-458.000
 70
    32
  0
VERTEX
  8
E57LXLIFT
 62
27
 10
4890.896
 20
-9338.488
 30
-458.000
 70
    32
  0
VERTEX
  8
E57LXLIFT
 62
27
 10
4887.069
 20
-9351.148
 30
-458.000
 70
    32
  0
VERTEX
  8
E57LXLIFT
 62
27
 10
4884.400
 20
-9363.587
 30
-458.000
 70
    32
  0
VERTEX
  8
E57LXLIFT
 62
27
 10
4891.366
 20
-9375.748
 30
-458.000
 70
    32
  0
VERTEX
  8
E57LXLIFT
 62
27
 10
4901.892
 20
-9382.865
 30
-458.000
 70
    32
  0
VERTEX
  8
E57LXLIFT
 62
27
 10
4923.382
 20
-9378.842
 30
-458.000
 70
    32
  0
VERTEX
  8
E57LXLIFT
 62
27
 10
4942.238
 20
-9373.400
 30
-458.000
 70
    32
  0
VERTEX
  8
E57LXLIFT
 62
27
 10
4953.569
 20
-9366.072
 30
-458.000
 70
    32
  0
VERTEX
  8
E57LXLIFT
 62
27
 10
4963.109
 20
-9351.040
 30
-458.000
 70
    32
  0
VERTEX
  8
E57LXLIFT
 62
27
 10
4962.964
 20
-9336.656
 30
-458.000
 70
    32
  0
SEQEND
  8
E57LXLIFT
  0
POLYLINE
  8
E57LXLIFT
 62
11
 66
     1
 70
     9
  0
VERTEX
  8
E57LXLIFT
 62
11
 10
5854.617
 20
-9872.254
 30
-443.000
 70
    32
  0
VERTEX
  8
E57LXLIFT
 62
11
 10
5850.893
 20
-9880.235
 30
-443.000
 70
    32
  0
VERTEX
  8
E57LXLIFT
 62
11
 10
5854.052
 20
-9888.820
 30
-443.000
 70
    32
  0
VERTEX
  8
E57LXLIFT
 62
11
 10
5864.303
 20
-9902.440
 30
-443.000
 70
    32
  0
VERTEX
  8
E57LXLIFT
 62
11
 10
5872.989
 20
-9916.011
 30
-443.000
 70
    32
  0
VERTEX
  8
E57LXLIFT
 62
11
 10
5878.044
 20
-9920.799
 30
-443.000
 70
    32
  0
VERTEX
  8
E57LXLIFT
 62
11
 10
5884.454
 20
-9921.206
 30
-443.000
 70
    32
  0
VERTEX
  8
E57LXLIFT
 62
11
 10
5888.279
 20
-9911.732
 30
-443.000
 70
    32
  0
VERTEX
  8
E57LXLIFT
 62
11
 10
5886.797
 20
-9896.238
 30
-443.000
 70
    32
  0
VERTEX
  8
E57LXLIFT
 62
11
 10
5887.998
 20
-9883.350
 30
-443.000
 70
    32
  0
VERTEX
  8
E57LXLIFT
 62
11
 10
5892.362
 20
-9876.534
 30
-443.000
 70
    32
  0
VERTEX
  8
E57LXLIFT
 62
11
 10
5895.408
 20
-9871.780
 30
-443.000
 70
    32
  0
VERTEX
  8
E57LXLIFT
 62
11
 10
5891.124
 20
-9865.224
 30
-443.000
 70
    32
  0
VERTEX
  8
E57LXLIFT
 62
11
 10
5880.022
 20
-9870.892
 30
-443.000
 70
    32
  0
VERTEX
  8
E57LXLIFT
 62
11
 10
5869.329
 20
-9875.931
 30
-443.000
 70
    32
  0
SEQEND
  8
E57LXLIFT
  0
POLYLINE
  8
E57LXLIFT
 62
7
 66
     1
 70
     9
  0
VERTEX
  8
E57LXLIFT
 62
7
 10
5822.793
 20
-9882.382
 30
-448.000
 70
    32
  0
VERTEX
  8
E57LXLIFT
 62
7
 10
5833.673
 20
-9871.967
 30
-448.000
 70
    32
  0
VERTEX
  8
E57LXLIFT
 62
7
 10
5843.274
 20
-9869.151
 30
-448.000
 70
    32
  0
VERTEX
  8
E57LXLIFT
 62
7
 10
5853.270
 20
-9869.536
 30
-448.000
 70
    32
  0
VERTEX
  8
E57LXLIFT
 62
7
 10
5864.052
 20
-9864.322
 30
-448.000
 70
    32
  0
VERTEX
  8
E57LXLIFT
 62
7
 10
5875.379
 20
-9853.033
 30
-448.000
 70
    32
  0
VERTEX
  8
E57LXLIFT
 62
7
 10
5885.964
 20
-9844.145
 30
-448.000
 70
    32
  0
VERTEX
  8
E57LXLIFT
 62
7
 10
5898.481
 20
-9837.435
 30
-448.000
 70
    32
  0
VERTEX
  8
E57LXLIFT
 62
7
 10
5898.334
 20
-9830.123
 30
-448.000
 70
    32
  0
VERTEX
  8
E57LXLIFT
 62
7
 10
5893.563
 20
-9820.979
 30
-448.000
 70
    32
  0
VERTEX
  8
E57LXLIFT
 62
7
 10
5877.458
 20
-9821.929
 30
-448.000
 70
    32
  0
VERTEX
  8
E57LXLIFT
 62
7
 10
5860.086
 20
-9827.086
 30
-448.000
 70
    32
  0
VERTEX
  8
E57LXLIFT
 62
7
 10
5847.714
 20
-9835.326
 30
-448.000
 70
    32
  0
VERTEX
  8
E57LXLIFT
 62
7
 10
5832.516
 20
-9845.211
 30
-448.000
 70
    32
  0
VERTEX
  8
E57LXLIFT
 62
7
 10
5820.110
 20
-9855.331
 30
-448.000
 70
    32
  0
VERTEX
  8
E57LXLIFT
 62
7
 10
5813.099
 20
-9863.442
 30
-448.000
 70
    32
  0
VERTEX
  8
E57LXLIFT
 62
7
 10
5811.961
 20
-9873.010
 30
-448.000
 70
    32
  0
VERTEX
  8
E57LXLIFT
 62
7
 10
5808.556
 20
-9886.757
 30
-448.000
 70
    32
  0
SEQEND
  8
E57LXLIFT
  0
POLYLINE
  8
E57LXLIFT
 62
13
 66
     1
 70
     9
  0
VERTEX
  8
E57LXLIFT
 62
13
 10
5782.288
 20
-9805.168
 30
-451.000
 70
    32
  0
VERTEX
  8
E57LXLIFT
 62
13
 10
5781.693
 20
-9819.028
 30
-451.000
 70
    32
  0
VERTEX
  8
E57LXLIFT
 62
13
 10
5786.671
 20
-9836.749
 30
-451.000
 70
    32
  0
VERTEX
  8
E57LXLIFT
 62
13
 10
5785.670
 20
-9857.019
 30
-451.000
 70
    32
  0
VERTEX
  8
E57LXLIFT
 62
13
 10
5783.247
 20
-9875.063
 30
-451.000
 70
    32
  0
VERTEX
  8
E57LXLIFT
 62
13
 10
5776.064
 20
-9884.719
 30
-451.000
 70
    32
  0
VERTEX
  8
E57LXLIFT
 62
13
 10
5774.615
 20
-9891.788
 30
-451.000
 70
    32
  0
VERTEX
  8
E57LXLIFT
 62
13
 10
5779.608
 20
-9911.900
 30
-451.000
 70
    32
  0
VERTEX
  8
E57LXLIFT
 62
13
 10
5783.342
 20
-9929.118
 30
-451.000
 70
    32
  0
VERTEX
  8
E57LXLIFT
 62
13
 10
5782.096
 20
-9947.278
 30
-451.000
 70
    32
  0
VERTEX
  8
E57LXLIFT
 62
13
 10
5778.429
 20
-9964.819
 30
-451.000
 70
    32
  0
VERTEX
  8
E57LXLIFT
 62
13
 10
5773.478
 20
-9964.319
 30
-451.000
 70
    32
  0
VERTEX
  8
E57LXLIFT
 62
13
 10
5767.241
 20
-9951.999
 30
-451.000
 70
    32
  0
VERTEX
  8
E57LXLIFT
 62
13
 10
5766.383
 20
-9941.501
 30
-451.000
 70
    32
  0
VERTEX
  8
E57LXLIFT
 62
13
 10
5769.862
 20
-9927.262
 30
-451.000
 70
    32
  0
VERTEX
  8
E57LXLIFT
 62
13
 10
5769.434
 20
-9909.791
 30
-451.000
 70
    32
  0
VERTEX
  8
E57LXLIFT
 62
13
 10
5765.527
 20
-9894.117
 30
-451.000
 70
    32
  0
VERTEX
  8
E57LXLIFT
 62
13
 10
5761.229
 20
-9887.244
 30
-451.000
 70
    32
  0
VERTEX
  8
E57LXLIFT
 62
13
 10
5756.672
 20
-9887.873
 30
-451.000
 70
    32
  0
VERTEX
  8
E57LXLIFT
 62
13
 10
5755.221
 20
-9878.793
 30
-451.000
 70
    32
  0
VERTEX
  8
E57LXLIFT
 62
13
 10
5760.799
 20
-9871.847
 30
-451.000
 70
    32
  0
VERTEX
  8
E57LXLIFT
 62
13
 10
5767.405
 20
-9865.999
 30
-451.000
 70
    32
  0
VERTEX
  8
E57LXLIFT
 62
13
 10
5767.754
 20
-9847.955
 30
-451.000
 70
    32
  0
VERTEX
  8
E57LXLIFT
 62
13
 10
5764.409
 20
-9834.378
 30
-451.000
 70
    32
  0
VERTEX
  8
E57LXLIFT
 62
13
 10
5760.905
 20
-9818.953
 30
-451.000
 70
    32
  0
VERTEX
  8
E57LXLIFT
 62
13
 10
5761.618
 20
-9811.772
 30
-451.000
 70
    32
  0
VERTEX
  8
E57LXLIFT
 62
13
 10
5769.842
 20
-9807.679
 30
-451.000
 70
    32
  0
SEQEND
  8
E57LXLIFT
  0
POLYLINE
  8
E57LXLIFT
 62
3
 66
     1
 70
     9
  0
VERTEX
  8
E57LXLIFT
 62
3
 10
5487.538
 20
-9705.600
 30
-444.000
 70
    32
  0
VERTEX
  8
E57LXLIFT
 62
3
 10
5488.895
 20
-9715.294
 30
-444.000
 70
    32
  0
VERTEX
  8
E57LXLIFT
 62
3
 10
5484.509
 20
-9722.672
 30
-444.000
 70
    32
  0
VERTEX
  8
E57LXLIFT
 62
3
 10
5476.557
 20
-9721.654
 30
-444.000
 70
    32
  0
VERTEX
  8
E57LXLIFT
 62
3
 10
5465.118
 20
-9713.384
 30
-444.000
 70
    32
  0
VERTEX
  8
E57LXLIFT
 62
3
 10
5456.527
 20
-9704.980
 30
-444.000
 70
    32
  0
VERTEX
  8
E57LXLIFT
 62
3
 10
5448.901
 20
-9696.848
 30
-444.000
 70
    32
  0
VERTEX
  8
E57LXLIFT
 62
3
 10
5443.806
 20
-9688.598
 30
-444.000
 70
    32
  0
VERTEX
  8
E57LXLIFT
 62
3
 10
5436.592
 20
-9681.471
 30
-444.000
 70
    32
  0
VERTEX
  8
E57LXLIFT
 62
3
 10
5435.365
 20
-9672.991
 30
-444.000
 70
    32
  0
VERTEX
  8
E57LXLIFT
 62
3
 10
5444.293
 20
-9670.889
 30
-444.000
 70
    32
  0
VERTEX
  8
E57LXLIFT
 62
3
 10
5457.265
 20
-9678.575
 30
-444.000
 70
    32
  0
VERTEX
  8
E57LXLIFT
 62
3
 10
5464.136
 20
-9688.791
 30
-444.000
 70
    32
  0
VERTEX
  8
E57LXLIFT
 62
3
 10
5472.913
 20
-9695.967
 30
-444.000
 70
    32
  0
VERTEX
  8
E57LXLIFT
 62
3
 10
5479.033
 20
-9699.534
 30
-444.000
 70
    32
  0
SEQEND
  8
E57LXLIFT
  0
POLYLINE
  8
E57LXLIFT
 62
2
 66
     1
 70
     9
  0
VERTEX
  8
E57LXLIFT
 62
2
 10
5278.535
 20
-9285.999
 30
-441.000
 70
    32
  0
VERTEX
  8
E57LXLIFT
 62
2
 10
5271.250
 20
-9280.998
 30
-441.000
 70
    32
  0
VERTEX
  8
E57LXLIFT
 62
2
 10
5259.741
 20
-9291.003
 30
-441.000
 70
    32
  0
VERTEX
  8
E57LXLIFT
 62
2
 10
5251.538
 20
-9282.532
 30
-441.000
 70
    32
  0
VERTEX
  8
E57LXLIFT
 62
2
 10
5247.051
 20
-9287.255
 30
-441.000
 70
    32
  0
VERTEX
  8
E57LXLIFT
 62
2
 10
5248.883
 20
-9302.929
 30
-441.000
 70
    32
  0
VERTEX
  8
E57LXLIFT
 62
2
 10
5253.661
 20
-9317.415
 30
-441.000
 70
    32
  0
VERTEX
  8
E57LXLIFT
 62
2
 10
5267.399
 20
-9334.140
 30
-441.000
 70
    32
  0
VERTEX
  8
E57LXLIFT
 62
2
 10
5262.380
 20
-9339.474
 30
-441.000
 70
    32
  0
VERTEX
  8
E57LXLIFT
 62
2
 10
5254.458
 20
-9334.942
 30
-441.000
 70
    32
  0
VERTEX
  8
E57LXLIFT
 62
2
 10
5240.931
 20
-9326.355
 30
-441.000
 70
    32
  0
VERTEX
  8
E57LXLIFT
 62
2
 10
5233.230
 20
-9316.641
 30
-441.000
 70
    32
  0
VERTEX
  8
E57LXLIFT
 62
2
 10
5235.108
 20
-9308.819
 30
-441.000
 70
    32
  0
VERTEX
  8
E57LXLIFT
 62
2
 10
5231.175
 20
-9298.294
 30
-441.000
 70
    32
  0
VERTEX
  8
E57LXLIFT
 62
2
 10
5230.801
 20
-9286.675
 30
-441.000
 70
    32
  0
VERTEX
  8
E57LXLIFT
 62
2
 10
5232.828
 20
-9273.724
 30
-441.000
 70
    32
  0
VERTEX
  8
E57LXLIFT
 62
2
 10
5225.765
 20
-9261.468
 30
-441.000
 70
    32
  0
VERTEX
  8
E57LXLIFT
 62
2
 10
5227.449
 20
-9251.606
 30
-441.000
 70
    32
  0
VERTEX
  8
E57LXLIFT
 62
2
 10
5231.639
 20
-9242.628
 30
-441.000
 70
    32
  0
VERTEX
  8
E57LXLIFT
 62
2
 10
5225.210
 20
-9238.196
 30
-441.000
 70
    32
  0
VERTEX
  8
E57LXLIFT
 62
2
 10
5215.227
 20
-9252.643
 30
-441.000
 70
    32
  0
VERTEX
  8
E57LXLIFT
 62
2
 10
5204.143
 20
-9260.261
 30
-441.000
 70
    32
  0
VERTEX
  8
E57LXLIFT
 62
2
 10
5191.603
 20
-9267.534
 30
-441.000
 70
    32
  0
VERTEX
  8
E57LXLIFT
 62
2
 10
5186.687
 20
-9261.007
 30
-441.000
 70
    32
  0
VERTEX
  8
E57LXLIFT
 62
2
 10
5194.830
 20
-9249.989
 30
-441.000
 70
    32
  0
VERTEX
  8
E57LXLIFT
 62
2
 10
5203.864
 20
-9237.660
 30
-441.000
 70
    32
  0
VERTEX
  8
E57LXLIFT
 62
2
 10
5212.219
 20
-9228.560
 30
-441.000
 70
    32
  0
VERTEX
  8
E57LXLIFT
 62
2
 10
5219.022
 20
-9220.166
 30
-441.000
 70
    32
  0
VERTEX
  8
E57LXLIFT
 62
2
 10
5222.661
 20
-9209.847
 30
-441.000
 70
    32
  0
VERTEX
  8
E57LXLIFT
 62
2
 10
5228.279
 20
-9208.437
 30
-441.000
 70
    32
  0
VERTEX
  8
E57LXLIFT
 62
2
 10
5236.715
 20
-9208.334
 30
-441.000
 70
    32
  0
VERTEX
  8
E57LXLIFT
 62
2
 10
5236.834
 20
-9206.718
 30
-441.000
 70
    32
  0
VERTEX
  8
E57LXLIFT
 62
2
 10
5238.578
 20
-9198.123
 30
-441.000
 70
    32
  0
VERTEX
  8
E57LXLIFT
 62
2
 10
5242.467
 20
-9185.328
 30
-441.000
 70
    32
  0
VERTEX
  8
E57LXLIFT
 62
2
 10
5251.664
 20
-9176.481
 30
-441.000
 70
    32
  0
VERTEX
  8
E57LXLIFT
 62
2
 10
5254.363
 20
-9175.257
 30
-441.000
 70
    32
  0
VERTEX
  8
E57LXLIFT
 62
2
 10
5260.924
 20
-9188.756
 30
-441.000
 70
    32
  0
VERTEX
  8
E57LXLIFT
 62
2
 10
5266.345
 20
-9206.042
 30
-441.000
 70
    32
  0
VERTEX
  8
E57LXLIFT
 62
2
 10
5271.364
 20
-9223.079
 30
-441.000
 70
    32
  0
VERTEX
  8
E57LXLIFT
 62
2
 10
5273.104
 20
-9239.366
 30
-441.000
 70
    32
  0
VERTEX
  8
E57LXLIFT
 62
2
 10
5272.227
 20
-9249.287
 30
-441.000
 70
    32
  0
VERTEX
  8
E57LXLIFT
 62
2
 10
5281.577
 20
-9261.388
 30
-441.000
 70
    32
  0
VERTEX
  8
E57LXLIFT
 62
2
 10
5285.733
 20
-9272.512
 30
-441.000
 70
    32
  0
VERTEX
  8
E57LXLIFT
 62
2
 10
5288.115
 20
-9277.524
 30
-441.000
 70
    32
  0
SEQEND
  8
E57LXLIFT
  0
POLYLINE
  8
E57LXLIFT
 62
3
 66
     1
 70
     9
  0
VERTEX
  8
E57LXLIFT
 62
3
 10
5214.343
 20
-9434.110
 30
-448.000
 70
    32
  0
VERTEX
  8
E57LXLIFT
 62
3
 10
5202.111
 20
-9387.577
 30
-448.000
 70
    32
  0
VERTEX
  8
E57LXLIFT
 62
3
 10
5179.140
 20
-9331.057
 30
-448.000
 70
    32
  0
VERTEX
  8
E57LXLIFT
 62
3
 10
5171.947
 20
-9309.292
 30
-448.000
 70
    32
  0
VERTEX
  8
E57LXLIFT
 62
3
 10
5165.481
 20
-9284.810
 30
-448.000
 70
    32
  0
VERTEX
  8
E57LXLIFT
 62
3
 10
5152.025
 20
-9274.098
 30
-448.000
 70
    32
  0
VERTEX
  8
E57LXLIFT
 62
3
 10
5139.583
 20
-9257.946
 30
-448.000
 70
    32
  0
VERTEX
  8
E57LXLIFT
 62
3
 10
5111.624
 20
-9241.766
 30
-448.000
 70
    32
  0
VERTEX
  8
E57LXLIFT
 62
3
 10
5096.274
 20
-9265.075
 30
-448.000
 70
    32
  0
VERTEX
  8
E57LXLIFT
 62
3
 10
5088.771
 20
-9277.259
 30
-448.000
 70
    32
  0
VERTEX
  8
E57LXLIFT
 62
3
 10
5086.360
 20
-9287.764
 30
-448.000
 70
    32
  0
VERTEX
  8
E57LXLIFT
 62
3
 10
5090.041
 20
-9297.057
 30
-448.000
 70
    32
  0
VERTEX
  8
E57LXLIFT
 62
3
 10
5104.134
 20
-9305.227
 30
-448.000
 70
    32
  0
VERTEX
  8
E57LXLIFT
 62
3
 10
5116.703
 20
-9316.810
 30
-448.000
 70
    32
  0
VERTEX
  8
E57LXLIFT
 62
3
 10
5128.874
 20
-9336.000
 30
-448.000
 70
    32
  0
VERTEX
  8
E57LXLIFT
 62
3
 10
5142.229
 20
-9372.649
 30
-448.000
 70
    32
  0
VERTEX
  8
E57LXLIFT
 62
3
 10
5145.032
 20
-9393.937
 30
-448.000
 70
    32
  0
VERTEX
  8
E57LXLIFT
 62
3
 10
5149.790
 20
-9412.693
 30
-448.000
 70
    32
  0
VERTEX
  8
E57LXLIFT
 62
3
 10
5168.855
 20
-9431.169
 30
-448.000
 70
    32
  0
VERTEX
  8
E57LXLIFT
 62
3
 10
5184.461
 20
-9431.022
 30
-448.000
 70
    32
  0
VERTEX
  8
E57LXLIFT
 62
3
 10
5195.605
 20
-9442.892
 30
-448.000
 70
    32
  0
SEQEND
  8
E57LXLIFT
  0
POLYLINE
  8
E57LXLIFT
 62
27
 66
     1
 70
     9
  0
VERTEX
  8
E57LXLIFT
 62
27
 10
4948.012
 20
-9319.939
 30
-447.000
 70
    32
  0
VERTEX
  8
E57LXLIFT
 62
27
 10
4930.801
 20
-9324.868
 30
-447.000
 70
    32
  0
VERTEX
  8
E57LXLIFT
 62
27
 10
4911.365
 20
-9318.778
 30
-447.000
 70
    32
  0
VERTEX
  8
E57LXLIFT
 62
27
 10
4887.583
 20
-9327.675
 30
-447.000
 70
    32
  0
VERTEX
  8
E57LXLIFT
 62
27
 10
4875.799
 20
-9332.863
 30
-447.000
 70
    32
  0
VERTEX
  8
E57LXLIFT
 62
27
 10
4875.634
 20
-9341.824
 30
-447.000
 70
    32
  0
VERTEX
  8
E57LXLIFT
 62
27
 10
4879.051
 20
-9347.055
 30
-447.000
 70
    32
  0
VERTEX
  8
E57LXLIFT
 62
27
 10
4882.714
 20
-9366.399
 30
-447.000
 70
    32
  0
VERTEX
  8
E57LXLIFT
 62
27
 10
4896.398
 20
-9375.198
 30
-447.000
 70
    32
  0
VERTEX
  8
E57LXLIFT
 62
27
 10
4908.310
 20
-9379.519
 30
-447.000
 70
    32
  0
VERTEX
  8
E57LXLIFT
 62
27
 10
4923.559
 20
-9373.851
 30
-447.000
 70
    32
  0
VERTEX
  8
E57LXLIFT
 62
27
 10
4940.138
 20
-9366.878
 30
-447.000
 70
    32
  0
VERTEX
  8
E57LXLIFT
 62
27
 10
4954.003
 20
-9356.665
 30
-447.000
 70
    32
  0
VERTEX
  8
E57LXLIFT
 62
27
 10
4958.774
 20
-9349.659
 30
-447.000
 70
    32
  0
VERTEX
  8
E57LXLIFT
 62
27
 10
4957.392
 20
-9332.672
 30
-447.000
 70
    32
  0
SEQEND
  8
E57LXLIFT
  0
POLYLINE
  8
E57LXLIFT
 62
7
 66
     1
 70
     9
  0
VERTEX
  8
E57LXLIFT
 62
7
 10
5815.352
 20
-9879.356
 30
-437.000
 70
    32
  0
VERTEX
  8
E57LXLIFT
 62
7
 10
5819.812
 20
-9873.132
 30
-437.000
 70
    32
  0
VERTEX
  8
E57LXLIFT
 62
7
 10
5834.053
 20
-9862.434
 30
-437.000
 70
    32
  0
VERTEX
  8
E57LXLIFT
 62
7
 10
5854.671
 20
-9846.933
 30
-437.000
 70
    32
  0
VERTEX
  8
E57LXLIFT
 62
7
 10
5866.593
 20
-9840.338
 30
-437.000
 70
    32
  0
VERTEX
  8
E57LXLIFT
 62
7
 10
5880.410
 20
-9827.881
 30
-437.000
 70
    32
  0
VERTEX
  8
E57LXLIFT
 62
7
 10
5889.908
 20
-9815.772
 30
-437.000
 70
    32
  0
VERTEX
  8
E57LXLIFT
 62
7
 10
5877.668
 20
-9812.906
 30
-437.000
 70
    32
  0
VERTEX
  8
E57LXLIFT
 62
7
 10
5860.241
 20
-9818.977
 30
-437.000
 70
    32
  0
VERTEX
  8
E57LXLIFT
 62
7
 10
5842.913
 20
-9827.700
 30
-437.000
 70
    32
  0
VERTEX
  8
E57LXLIFT
 62
7
 10
5833.240
 20
-9839.720
 30
-437.000
 70
    32
  0
VERTEX
  8
E57LXLIFT
 62
7
 10
5825.971
 20
-9849.972
 30
-437.000
 70
    32
  0
VERTEX
  8
E57LXLIFT
 62
7
 10
5810.687
 20
-9851.852
 30
-437.000
 70
    32
  0
VERTEX
  8
E57LXLIFT
 62
7
 10
5809.366
 20
-9860.122
 30
-437.000
 70
    32
  0
VERTEX
  8
E57LXLIFT
 62
7
 10
5802.926
 20
-9864.100
 30
-437.000
 70
    32
  0
SEQEND
  8
E57LXLIFT
  0
POLYLINE
  8
E57LXLIFT
 62
13
 66
     1
 70
     9
  0
VERTEX
  8
E57LXLIFT
 62
13
 10
5766.118
 20
-9789.663
 30
-444.000
 70
    32
  0
VERTEX
  8
E57LXLIFT
 62
13
 10
5765.165
 20
-9797.989
 30
-444.000
 70
    32
  0
VERTEX
  8
E57LXLIFT
 62
13
 10
5772.208
 20
-9806.967
 30
-444.000
 70
    32
  0
VERTEX
  8
E57LXLIFT
 62
13
 10
5776.621
 20
-9806.007
 30
-444.000
 70
    32
  0
VERTEX
  8
E57LXLIFT
 62
13
 10
5778.875
 20
-9816.767
 30
-444.000
 70
    32
  0
VERTEX
  8
E57LXLIFT
 62
13
 10
5782.151
 20
-9829.062
 30
-444.000
 70
    32
  0
VERTEX
  8
E57LXLIFT
 62
13
 10
5775.655
 20
-9856.500
 30
-444.000
 70
    32
  0
VERTEX
  8
E57LXLIFT
 62
13
 10
5774.948
 20
-9864.864
 30
-444.000
 70
    32
  0
VERTEX
  8
E57LXLIFT
 62
13
 10
5776.132
 20
-9867.805
 30
-444.000
 70
    32
  0
VERTEX
  8
E57LXLIFT
 62
13
 10
5774.019
 20
-9876.332
 30
-444.000
 70
    32
  0
VERTEX
  8
E57LXLIFT
 62
13
 10
5774.085
 20
-9884.562
 30
-444.000
 70
    32
  0
VERTEX
  8
E57LXLIFT
 62
13
 10
5780.802
 20
-9917.963
 30
-444.000
 70
    32
  0
VERTEX
  8
E57LXLIFT
 62
13
 10
5781.574
 20
-9925.674
 30
-444.000
 70
    32
  0
VERTEX
  8
E57LXLIFT
 62
13
 10
5777.960
 20
-9933.344
 30
-444.000
 70
    32
  0
VERTEX
  8
E57LXLIFT
 62
13
 10
5778.860
 20
-9938.564
 30
-444.000
 70
    32
  0
VERTEX
  8
E57LXLIFT
 62
13
 10
5782.831
 20
-9943.812
 30
-444.000
 70
    32
  0
VERTEX
  8
E57LXLIFT
 62
13
 10
5777.788
 20
-9954.277
 30
-444.000
 70
    32
  0
VERTEX
  8
E57LXLIFT
 62
13
 10
5774.286
 20
-9961.212
 30
-444.000
 70
    32
  0
VERTEX
  8
E57LXLIFT
 62
13
 10
5769.190
 20
-9960.060
 30
-444.000
 70
    32
  0
VERTEX
  8
E57LXLIFT
 62
13
 10
5768.361
 20
-9946.945
 30
-444.000
 70
    32
  0
VERTEX
  8
E57LXLIFT
 62
13
 10
5767.805
 20
-9938.639
 30
-444.000
 70
    32
  0
VERTEX
  8
E57LXLIFT
 62
13
 10
5770.506
 20
-9934.909
 30
-444.000
 70
    32
  0
VERTEX
  8
E57LXLIFT
 62
13
 10
5768.315
 20
-9917.131
 30
-444.000
 70
    32
  0
VERTEX
  8
E57LXLIFT
 62
13
 10
5764.891
 20
-9905.817
 30
-444.000
 70
    32
  0
VERTEX
  8
E57LXLIFT
 62
13
 10
5767.098
 20
-9894.606
 30
-444.000
 70
    32
  0
VERTEX
  8
E57LXLIFT
 62
13
 10
5763.584
 20
-9889.240
 30
-444.000
 70
    32
  0
VERTEX
  8
E57LXLIFT
 62
13
 10
5752.889
 20
-9890.249
 30
-444.000
 70
    32
  0
VERTEX
  8
E57LXLIFT
 62
13
 10
5750.717
 20
-9885.965
 30
-444.000
 70
    32
  0
VERTEX
  8
E57LXLIFT
 62
13
 10
5757.128
 20
-9881.355
 30
-444.000
 70
    32
  0
VERTEX
  8
E57LXLIFT
 62
13
 10
5758.405
 20
-9866.364
 30
-444.000
 70
    32
  0
VERTEX
  8
E57LXLIFT
 62
13
 10
5763.468
 20
-9853.705
 30
-444.000
 70
    32
  0
VERTEX
  8
E57LXLIFT
 62
13
 10
5765.618
 20
-9844.933
 30
-444.000
 70
    32
  0
VERTEX
  8
E57LXLIFT
 62
13
 10
5761.264
 20
-9833.541
 30
-444.000
 70
    32
  0
VERTEX
  8
E57LXLIFT
 62
13
 10
5762.550
 20
-9821.374
 30
-444.000
 70
    32
  0
VERTEX
  8
E57LXLIFT
 62
13
 10
5759.304
 20
-9809.711
 30
-444.000
 70
    32
  0
VERTEX
  8
E57LXLIFT
 62
13
 10
5752.566
 20
-9799.964
 30
-444.000
 70
    32
  0
VERTEX
  8
E57LXLIFT
 62
13
 10
5746.566
 20
-9794.031
 30
-444.000
 70
    32
  0
VERTEX
  8
E57LXLIFT
 62
13
 10
5745.956
 20
-9787.726
 30
-444.000
 70
    32
  0
VERTEX
  8
E57LXLIFT
 62
13
 10
5749.770
 20
-9781.215
 30
-444.000
 70
    32
  0
SEQEND
  8
E57LXLIFT
  0
POLYLINE
  8
E57LXLIFT
 62
3
 66
     1
 70
     9
  0
VERTEX
  8
E57LXLIFT
 62
3
 10
5492.581
 20
-9716.680
 30
-434.000
 70
    32
  0
VERTEX
  8
E57LXLIFT
 62
3
 10
5484.693
 20
-9721.505
 30
-434.000
 70
    32
  0
VERTEX
  8
E57LXLIFT
 62
3
 10
5475.582
 20
-9722.001
 30
-434.000
 70
    32
  0
VERTEX
  8
E57LXLIFT
 62
3
 10
5466.761
 20
-9713.569
 30
-434.000
 70
    32
  0
VERTEX
  8
E57LXLIFT
 62
3
 10
5455.860
 20
-9704.380
 30
-434.000
 70
    32
  0
VERTEX
  8
E57LXLIFT
 62
3
 10
5453.378
 20
-9689.758
 30
-434.000
 70
    32
  0
VERTEX
  8
E57LXLIFT
 62
3
 10
5444.180
 20
-9678.445
 30
-434.000
 70
    32
  0
VERTEX
  8
E57LXLIFT
 62
3
 10
5435.994
 20
-9671.615
 30
-434.000
 70
    32
  0
VERTEX
  8
E57LXLIFT
 62
3
 10
5436.961
 20
-9665.675
 30
-434.000
 70
    32
  0
VERTEX
  8
E57LXLIFT
 62
3
 10
5448.146
 20
-9666.811
 30
-434.000
 70
    32
  0
VERTEX
  8
E57LXLIFT
 62
3
 10
5457.034
 20
-9673.560
 30
-434.000
 70
    32
  0
VERTEX
  8
E57LXLIFT
 62
3
 10
5465.960
 20
-9672.219
 30
-434.000
 70
    32
  0
VERTEX
  8
E57LXLIFT
 62
3
 10
5476.326
 20
-9668.839
 30
-434.000
 70
    32
  0
VERTEX
  8
E57LXLIFT
 62
3
 10
5484.207
 20
-9668.594
 30
-434.000
 70
    32
  0
VERTEX
  8
E57LXLIFT
 62
3
 10
5490.205
 20
-9678.668
 30
-434.000
 70
    32
  0
VERTEX
  8
E57LXLIFT
 62
3
 10
5492.253
 20
-9685.004
 30
-434.000
 70
    32
  0
VERTEX
  8
E57LXLIFT
 62
3
 10
5488.526
 20
-9689.708
 30
-434.000
 70
    32
  0
VERTEX
  8
E57LXLIFT
 62
3
 10
5489.828
 20
-9700.950
 30
-434.000
 70
    32
  0
SEQEND
  8
E57LXLIFT
  0
POLYLINE
  8
E57LXLIFT
 62
2
 66
     1
 70
     9
  0
VERTEX
  8
E57LXLIFT
 62
2
 10
5284.105
 20
-9202.351
 30
-431.000
 70
    32
  0
VERTEX
  8
E57LXLIFT
 62
2
 10
5280.253
 20
-9197.561
 30
-431.000
 70
    32
  0
VERTEX
  8
E57LXLIFT
 62
2
 10
5271.017
 20
-9194.336
 30
-431.000
 70
    32
  0
VERTEX
  8
E57LXLIFT
 62
2
 10
5264.496
 20
-9195.541
 30
-431.000
 70
    32
  0
VERTEX
  8
E57LXLIFT
 62
2
 10
5258.486
 20
-9206.173
 30
-431.000
 70
    32
  0
VERTEX
  8
E57LXLIFT
 62
2
 10
5254.103
 20
-9213.538
 30
-431.000
 70
    32
  0
VERTEX
  8
E57LXLIFT
 62
2
 10
5244.014
 20
-9219.220
 30
-431.000
 70
    32
  0
VERTEX
  8
E57LXLIFT
 62
2
 10
5230.496
 20
-9221.870
 30
-431.000
 70
    32
  0
VERTEX
  8
E57LXLIFT
 62
2
 10
5217.327
 20
-9224.699
 30
-431.000
 70
    32
  0
VERTEX
  8
E57LXLIFT
 62
2
 10
5201.512
 20
-9227.188
 30
-431.000
 70
    32
  0
VERTEX
  8
E57LXLIFT
 62
2
 10
5187.575
 20
-9227.641
 30
-431.000
 70
    32
  0
VERTEX
  8
E57LXLIFT
 62
2
 10
5177.652
 20
-9230.587
 30
-431.000
 70
    32
  0
VERTEX
  8
E57LXLIFT
 62
2
 10
5177.099
 20
-9241.233
 30
-431.000
 70
    32
  0
VERTEX
  8
E57LXLIFT
 62
2
 10
5179.528
 20
-9252.082
 30
-431.000
 70
    32
  0
VERTEX
  8
E57LXLIFT
 62
2
 10
5183.138
 20
-9264.240
 30
-431.000
 70
    32
  0
VERTEX
  8
E57LXLIFT
 62
2
 10
5186.287
 20
-9269.111
 30
-431.000
 70
    32
  0
VERTEX
  8
E57LXLIFT
 62
2
 10
5203.450
 20
-9276.742
 30
-431.000
 70
    32
  0
VERTEX
  8
E57LXLIFT
 62
2
 10
5213.423
 20
-9283.781
 30
-431.000
 70
    32
  0
VERTEX
  8
E57LXLIFT
 62
2
 10
5220.045
 20
-9288.930
 30
-431.000
 70
    32
  0
VERTEX
  8
E57LXLIFT
 62
2
 10
5224.781
 20
-9300.695
 30
-431.000
 70
    32
  0
VERTEX
  8
E57LXLIFT
 62
2
 10
5231.500
 20
-9310.565
 30
-431.000
 70
    32
  0
VERTEX
  8
E57LXLIFT
 62
2
 10
5242.535
 20
-9308.980
 30
-431.000
 70
    32
  0
VERTEX
  8
E57LXLIFT
 62
2
 10
5254.387
 20
-9300.366
 30
-431.000
 70
    32
  0
VERTEX
  8
E57LXLIFT
 62
2
 10
5259.812
 20
-9292.343
 30
-431.000
 70
    32
  0
VERTEX
  8
E57LXLIFT
 62
2
 10
5255.725
 20
-9282.497
 30
-431.000
 70
    32
  0
VERTEX
  8
E57LXLIFT
 62
2
 10
5246.703
 20
-9269.202
 30
-431.000
 70
    32
  0
VERTEX
  8
E57LXLIFT
 62
2
 10
5239.732
 20
-9258.102
 30
-431.000
 70
    32
  0
VERTEX
  8
E57LXLIFT
 62
2
 10
5243.267
 20
-9251.360
 30
-431.000
 70
    32
  0
VERTEX
  8
E57LXLIFT
 62
2
 10
5255.413
 20
-9243.293
 30
-431.000
 70
    32
  0
VERTEX
  8
E57LXLIFT
 62
2
 10
5267.632
 20
-9231.033
 30
-431.000
 70
    32
  0
VERTEX
  8
E57LXLIFT
 62
2
 10
5276.428
 20
-9216.934
 30
-431.000
 70
    32
  0
SEQEND
  8
E57LXLIFT
  0
POLYLINE
  8
E57LXLIFT
 62
3
 66
     1
 70
     9
  0
VERTEX
  8
E57LXLIFT
 62
3
 10
5120.805
 20
-9249.111
 30
-437.000
 70
    32
  0
VERTEX
  8
E57LXLIFT
 62
3
 10
5133.541
 20
-9263.159
 30
-437.000
 70
    32
  0
VERTEX
  8
E57LXLIFT
 62
3
 10
5141.557
 20
-9273.164
 30
-437.000
 70
    32
  0
VERTEX
  8
E57LXLIFT
 62
3
 10
5157.173
 20
-9281.061
 30
-437.000
 70
    32
  0
VERTEX
  8
E57LXLIFT
 62
3
 10
5172.413
 20
-9303.397
 30
-437.000
 70
    32
  0
VERTEX
  8
E57LXLIFT
 62
3
 10
5179.480
 20
-9321.289
 30
-437.000
 70
    32
  0
VERTEX
  8
E57LXLIFT
 62
3
 10
5190.383
 20
-9353.570
 30
-437.000
 70
    32
  0
VERTEX
  8
E57LXLIFT
 62
3
 10
5202.520
 20
-9379.387
 30
-437.000
 70
    32
  0
VERTEX
  8
E57LXLIFT
 62
3
 10
5198.178
 20
-9399.685
 30
-437.000
 70
    32
  0
VERTEX
  8
E57LXLIFT
 62
3
 10
5192.810
 20
-9405.269
 30
-437.000
 70
    32
  0
VERTEX
  8
E57LXLIFT
 62
3
 10
5184.258
 20
-9409.930
 30
-437.000
 70
    32
  0
VERTEX
  8
E57LXLIFT
 62
3
 10
5168.474
 20
-9408.909
 30
-437.000
 70
    32
  0
VERTEX
  8
E57LXLIFT
 62
3
 10
5154.587
 20
-9399.957
 30
-437.000
 70
    32
  0
VERTEX
  8
E57LXLIFT
 62
3
 10
5142.132
 20
-9389.842
 30
-437.000
 70
    32
  0
VERTEX
  8
E57LXLIFT
 62
3
 10
5127.670
 20
-9372.708
 30
-437.000
 70
    32
  0
VERTEX
  8
E57LXLIFT
 62
3
 10
5112.765
 20
-9350.235
 30
-437.000
 70
    32
  0
VERTEX
  8
E57LXLIFT
 62
3
 10
5104.358
 20
-9334.963
 30
-437.000
 70
    32
  0
VERTEX
  8
E57LXLIFT
 62
3
 10
5100.328
 20
-9322.678
 30
-437.000
 70
    32
  0
VERTEX
  8
E57LXLIFT
 62
3
 10
5094.875
 20
-9308.608
 30
-437.000
 70
    32
  0
VERTEX
  8
E57LXLIFT
 62
3
 10
5092.085
 20
-9293.123
 30
-437.000
 70
    32
  0
VERTEX
  8
E57LXLIFT
 62
3
 10
5091.678
 20
-9278.064
 30
-437.000
 70
    32
  0
VERTEX
  8
E57LXLIFT
 62
3
 10
5093.295
 20
-9264.128
 30
-437.000
 70
    32
  0
VERTEX
  8
E57LXLIFT
 62
3
 10
5104.582
 20
-9250.157
 30
-437.000
 70
    32
  0
SEQEND
  8
E57LXLIFT
  0
POLYLINE
  8
E57LXLIFT
 62
6
 66
     1
 70
     9
  0
VERTEX
  8
E57LXLIFT
 62
6
 10
5095.295
 20
-9206.011
 30
-435.000
 70
    32
  0
VERTEX
  8
E57LXLIFT
 62
6
 10
5109.461
 20
-9215.194
 30
-435.000
 70
    32
  0
VERTEX
  8
E57LXLIFT
 62
6
 10
5121.389
 20
-9223.409
 30
-435.000
 70
    32
  0
VERTEX
  8
E57LXLIFT
 62
6
 10
5124.264
 20
-9233.385
 30
-435.000
 70
    32
  0
VERTEX
  8
E57LXLIFT
 62
6
 10
5115.876
 20
-9243.153
 30
-435.000
 70
    32
  0
VERTEX
  8
E57LXLIFT
 62
6
 10
5105.622
 20
-9251.571
 30
-435.000
 70
    32
  0
VERTEX
  8
E57LXLIFT
 62
6
 10
5096.377
 20
-9257.067
 30
-435.000
 70
    32
  0
VERTEX
  8
E57LXLIFT
 62
6
 10
5088.075
 20
-9259.255
 30
-435.000
 70
    32
  0
VERTEX
  8
E57LXLIFT
 62
6
 10
5079.925
 20
-9256.321
 30
-435.000
 70
    32
  0
VERTEX
  8
E57LXLIFT
 62
6
 10
5076.063
 20
-9248.706
 30
-435.000
 70
    32
  0
VERTEX
  8
E57LXLIFT
 62
6
 10
5076.016
 20
-9240.353
 30
-435.000
 70
    32
  0
VERTEX
  8
E57LXLIFT
 62
6
 10
5083.816
 20
-9231.562
 30
-435.000
 70
    32
  0
VERTEX
  8
E57LXLIFT
 62
6
 10
5090.010
 20
-9223.844
 30
-435.000
 70
    32
  0
VERTEX
  8
E57LXLIFT
 62
6
 10
5086.575
 20
-9217.549
 30
-435.000
 70
    32
  0
VERTEX
  8
E57LXLIFT
 62
6
 10
5083.979
 20
-9213.577
 30
-435.000
 70
    32
  0
SEQEND
  8
E57LXLIFT
  0
POLYLINE
  8
E57LXLIFT
 62
27
 66
     1
 70
     9
  0
VERTEX
  8
E57LXLIFT
 62
27
 10
4952.868
 20
-9344.927
 30
-439.000
 70
    32
  0
VERTEX
  8
E57LXLIFT
 62
27
 10
4940.546
 20
-9335.585
 30
-439.000
 70
    32
  0
VERTEX
  8
E57LXLIFT
 62
27
 10
4926.645
 20
-9332.090
 30
-439.000
 70
    32
  0
VERTEX
  8
E57LXLIFT
 62
27
 10
4915.211
 20
-9323.511
 30
-439.000
 70
    32
  0
VERTEX
  8
E57LXLIFT
 62
27
 10
4907.253
 20
-9316.841
 30
-439.000
 70
    32
  0
VERTEX
  8
E57LXLIFT
 62
27
 10
4902.771
 20
-9313.712
 30
-439.000
 70
    32
  0
VERTEX
  8
E57LXLIFT
 62
27
 10
4883.389
 20
-9312.835
 30
-439.000
 70
    32
  0
VERTEX
  8
E57LXLIFT
 62
27
 10
4876.681
 20
-9323.110
 30
-439.000
 70
    32
  0
VERTEX
  8
E57LXLIFT
 62
27
 10
4873.747
 20
-9331.260
 30
-439.000
 70
    32
  0
VERTEX
  8
E57LXLIFT
 62
27
 10
4875.612
 20
-9338.384
 30
-439.000
 70
    32
  0
VERTEX
  8
E57LXLIFT
 62
27
 10
4885.457
 20
-9349.984
 30
-439.000
 70
    32
  0
VERTEX
  8
E57LXLIFT
 62
27
 10
4886.751
 20
-9362.104
 30
-439.000
 70
    32
  0
VERTEX
  8
E57LXLIFT
 62
27
 10
4898.350
 20
-9373.720
 30
-439.000
 70
    32
  0
VERTEX
  8
E57LXLIFT
 62
27
 10
4892.184
 20
-9378.367
 30
-439.000
 70
    32
  0
VERTEX
  8
E57LXLIFT
 62
27
 10
4894.992
 20
-9382.182
 30
-439.000
 70
    32
  0
VERTEX
  8
E57LXLIFT
 62
27
 10
4905.560
 20
-9383.664
 30
-439.000
 70
    32
  0
VERTEX
  8
E57LXLIFT
 62
27
 10
4914.836
 20
-9380.432
 30
-439.000
 70
    32
  0
VERTEX
  8
E57LXLIFT
 62
27
 10
4920.717
 20
-9374.361
 30
-439.000
 70
    32
  0
VERTEX
  8
E57LXLIFT
 62
27
 10
4934.291
 20
-9371.343
 30
-439.000
 70
    32
  0
VERTEX
  8
E57LXLIFT
 62
27
 10
4939.702
 20
-9368.777
 30
-439.000
 70
    32
  0
VERTEX
  8
E57LXLIFT
 62
27
 10
4947.233
 20
-9356.808
 30
-439.000
 70
    32
  0
SEQEND
  8
E57LXLIFT
  0
POLYLINE
  8
E57LXLIFT
 62
7
 66
     1
 70
     9
  0
VERTEX
  8
E57LXLIFT
 62
7
 10
5816.891
 20
-9877.181
 30
-428.000
 70
    32
  0
VERTEX
  8
E57LXLIFT
 62
7
 10
5813.817
 20
-9879.814
 30
-428.000
 70
    32
  0
VERTEX
  8
E57LXLIFT
 62
7
 10
5807.745
 20
-9871.857
 30
-428.000
 70
    32
  0
VERTEX
  8
E57LXLIFT
 62
7
 10
5808.732
 20
-9861.462
 30
-428.000
 70
    32
  0
VERTEX
  8
E57LXLIFT
 62
7
 10
5809.439
 20
-9850.399
 30
-428.000
 70
    32
  0
VERTEX
  8
E57LXLIFT
 62
7
 10
5819.557
 20
-9841.939
 30
-428.000
 70
    32
  0
VERTEX
  8
E57LXLIFT
 62
7
 10
5829.622
 20
-9832.969
 30
-428.000
 70
    32
  0
VERTEX
  8
E57LXLIFT
 62
7
 10
5844.904
 20
-9821.297
 30
-428.000
 70
    32
  0
VERTEX
  8
E57LXLIFT
 62
7
 10
5853.265
 20
-9816.348
 30
-428.000
 70
    32
  0
VERTEX
  8
E57LXLIFT
 62
7
 10
5866.805
 20
-9815.089
 30
-428.000
 70
    32
  0
VERTEX
  8
E57LXLIFT
 62
7
 10
5877.992
 20
-9813.179
 30
-428.000
 70
    32
  0
VERTEX
  8
E57LXLIFT
 62
7
 10
5886.484
 20
-9830.954
 30
-428.000
 70
    32
  0
VERTEX
  8
E57LXLIFT
 62
7
 10
5878.405
 20
-9833.497
 30
-428.000
 70
    32
  0
VERTEX
  8
E57LXLIFT
 62
7
 10
5870.482
 20
-9842.836
 30
-428.000
 70
    32
  0
VERTEX
  8
E57LXLIFT
 62
7
 10
5862.101
 20
-9854.054
 30
-428.000
 70
    32
  0
VERTEX
  8
E57LXLIFT
 62
7
 10
5852.754
 20
-9867.203
 30
-428.000
 70
    32
  0
VERTEX
  8
E57LXLIFT
 62
7
 10
5840.229
 20
-9877.138
 30
-428.000
 70
    32
  0
VERTEX
  8
E57LXLIFT
 62
7
 10
5834.450
 20
-9881.139
 30
-428.000
 70
    32
  0
SEQEND
  8
E57LXLIFT
  0
POLYLINE
  8
E57LXLIFT
 62
13
 66
     1
 70
     9
  0
VERTEX
  8
E57LXLIFT
 62
13
 10
5789.415
 20
-9815.920
 30
-434.000
 70
    32
  0
VERTEX
  8
E57LXLIFT
 62
13
 10
5783.421
 20
-9833.250
 30
-434.000
 70
    32
  0
VERTEX
  8
E57LXLIFT
 62
13
 10
5780.412
 20
-9849.000
 30
-434.000
 70
    32
  0
VERTEX
  8
E57LXLIFT
 62
13
 10
5771.364
 20
-9860.499
 30
-434.000
 70
    32
  0
VERTEX
  8
E57LXLIFT
 62
13
 10
5775.867
 20
-9884.664
 30
-434.000
 70
    32
  0
VERTEX
  8
E57LXLIFT
 62
13
 10
5781.947
 20
-9921.473
 30
-434.000
 70
    32
  0
VERTEX
  8
E57LXLIFT
 62
13
 10
5783.697
 20
-9935.961
 30
-434.000
 70
    32
  0
VERTEX
  8
E57LXLIFT
 62
13
 10
5776.235
 20
-9932.007
 30
-434.000
 70
    32
  0
VERTEX
  8
E57LXLIFT
 62
13
 10
5770.794
 20
-9925.771
 30
-434.000
 70
    32
  0
VERTEX
  8
E57LXLIFT
 62
13
 10
5771.974
 20
-9917.975
 30
-434.000
 70
    32
  0
VERTEX
  8
E57LXLIFT
 62
13
 10
5766.483
 20
-9902.010
 30
-434.000
 70
    32
  0
VERTEX
  8
E57LXLIFT
 62
13
 10
5762.887
 20
-9893.404
 30
-434.000
 70
    32
  0
VERTEX
  8
E57LXLIFT
 62
13
 10
5758.973
 20
-9888.327
 30
-434.000
 70
    32
  0
VERTEX
  8
E57LXLIFT
 62
13
 10
5753.652
 20
-9887.816
 30
-434.000
 70
    32
  0
VERTEX
  8
E57LXLIFT
 62
13
 10
5753.022
 20
-9882.583
 30
-434.000
 70
    32
  0
VERTEX
  8
E57LXLIFT
 62
13
 10
5757.132
 20
-9878.844
 30
-434.000
 70
    32
  0
VERTEX
  8
E57LXLIFT
 62
13
 10
5757.749
 20
-9873.664
 30
-434.000
 70
    32
  0
VERTEX
  8
E57LXLIFT
 62
13
 10
5754.011
 20
-9867.358
 30
-434.000
 70
    32
  0
VERTEX
  8
E57LXLIFT
 62
13
 10
5751.715
 20
-9855.364
 30
-434.000
 70
    32
  0
VERTEX
  8
E57LXLIFT
 62
13
 10
5746.347
 20
-9842.051
 30
-434.000
 70
    32
  0
VERTEX
  8
E57LXLIFT
 62
13
 10
5744.016
 20
-9829.424
 30
-434.000
 70
    32
  0
VERTEX
  8
E57LXLIFT
 62
13
 10
5739.298
 20
-9815.514
 30
-434.000
 70
    32
  0
VERTEX
  8
E57LXLIFT
 62
13
 10
5740.744
 20
-9800.167
 30
-434.000
 70
    32
  0
VERTEX
  8
E57LXLIFT
 62
13
 10
5745.050
 20
-9790.247
 30
-434.000
 70
    32
  0
VERTEX
  8
E57LXLIFT
 62
13
 10
5760.837
 20
-9789.937
 30
-434.000
 70
    32
  0
VERTEX
  8
E57LXLIFT
 62
13
 10
5773.597
 20
-9805.500
 30
-434.000
 70
    32
  0
SEQEND
  8
E57LXLIFT
  0
POLYLINE
  8
E57LXLIFT
 62
3
 66
     1
 70
     9
  0
VERTEX
  8
E57LXLIFT
 62
3
 10
5482.666
 20
-9640.267
 30
-424.000
 70
    32
  0
VERTEX
  8
E57LXLIFT
 62
3
 10
5484.189
 20
-9653.718
 30
-424.000
 70
    32
  0
VERTEX
  8
E57LXLIFT
 62
3
 10
5484.679
 20
-9658.179
 30
-424.000
 70
    32
  0
VERTEX
  8
E57LXLIFT
 62
3
 10
5479.778
 20
-9661.742
 30
-424.000
 70
    32
  0
VERTEX
  8
E57LXLIFT
 62
3
 10
5479.298
 20
-9677.792
 30
-424.000
 70
    32
  0
VERTEX
  8
E57LXLIFT
 62
3
 10
5479.576
 20
-9684.167
 30
-424.000
 70
    32
  0
VERTEX
  8
E57LXLIFT
 62
3
 10
5482.785
 20
-9696.794
 30
-424.000
 70
    32
  0
VERTEX
  8
E57LXLIFT
 62
3
 10
5483.307
 20
-9708.472
 30
-424.000
 70
    32
  0
VERTEX
  8
E57LXLIFT
 62
3
 10
5477.122
 20
-9717.495
 30
-424.000
 70
    32
  0
VERTEX
  8
E57LXLIFT
 62
3
 10
5469.448
 20
-9719.846
 30
-424.000
 70
    32
  0
VERTEX
  8
E57LXLIFT
 62
3
 10
5465.003
 20
-9723.725
 30
-424.000
 70
    32
  0
VERTEX
  8
E57LXLIFT
 62
3
 10
5458.800
 20
-9734.188
 30
-424.000
 70
    32
  0
VERTEX
  8
E57LXLIFT
 62
3
 10
5449.228
 20
-9737.960
 30
-424.000
 70
    32
  0
VERTEX
  8
E57LXLIFT
 62
3
 10
5441.326
 20
-9739.713
 30
-424.000
 70
    32
  0
VERTEX
  8
E57LXLIFT
 62
3
 10
5435.919
 20
-9735.426
 30
-424.000
 70
    32
  0
VERTEX
  8
E57LXLIFT
 62
3
 10
5434.869
 20
-9725.680
 30
-424.000
 70
    32
  0
VERTEX
  8
E57LXLIFT
 62
3
 10
5435.556
 20
-9718.252
 30
-424.000
 70
    32
  0
VERTEX
  8
E57LXLIFT
 62
3
 10
5433.067
 20
-9706.292
 30
-424.000
 70
    32
  0
VERTEX
  8
E57LXLIFT
 62
3
 10
5435.968
 20
-9699.621
 30
-424.000
 70
    32
  0
VERTEX
  8
E57LXLIFT
 62
3
 10
5444.539
 20
-9694.514
 30
-424.000
 70
    32
  0
VERTEX
  8
E57LXLIFT
 62
3
 10
5449.740
 20
-9687.105
 30
-424.000
 70
    32
  0
VERTEX
  8
E57LXLIFT
 62
3
 10
5439.119
 20
-9678.496
 30
-424.000
 70
    32
  0
VERTEX
  8
E57LXLIFT
 62
3
 10
5425.408
 20
-9669.131
 30
-424.000
 70
    32
  0
VERTEX
  8
E57LXLIFT
 62
3
 10
5428.904
 20
-9663.988
 30
-424.000
 70
    32
  0
VERTEX
  8
E57LXLIFT
 62
3
 10
5447.111
 20
-9673.934
 30
-424.000
 70
    32
  0
VERTEX
  8
E57LXLIFT
 62
3
 10
5457.206
 20
-9679.645
 30
-424.000
 70
    32
  0
VERTEX
  8
E57LXLIFT
 62
3
 10
5464.021
 20
-9675.854
 30
-424.000
 70
    32
  0
VERTEX
  8
E57LXLIFT
 62
3
 10
5469.767
 20
-9665.075
 30
-424.000
 70
    32
  0
VERTEX
  8
E57LXLIFT
 62
3
 10
5470.457
 20
-9653.696
 30
-424.000
 70
    32
  0
VERTEX
  8
E57LXLIFT
 62
3
 10
5472.813
 20
-9644.688
 30
-424.000
 70
    32
  0
VERTEX
  8
E57LXLIFT
 62
3
 10
5474.220
 20
-9638.367
 30
-424.000
 70
    32
  0
SEQEND
  8
E57LXLIFT
  0
POLYLINE
  8
E57LXLIFT
 62
4
 66
     1
 70
     9
  0
VERTEX
  8
E57LXLIFT
 62
4
 10
5227.961
 20
-9114.003
 30
-430.000
 70
    32
  0
VERTEX
  8
E57LXLIFT
 62
4
 10
5218.421
 20
-9126.309
 30
-430.000
 70
    32
  0
VERTEX
  8
E57LXLIFT
 62
4
 10
5209.850
 20
-9131.855
 30
-430.000
 70
    32
  0
VERTEX
  8
E57LXLIFT
 62
4
 10
5201.738
 20
-9128.498
 30
-430.000
 70
    32
  0
VERTEX
  8
E57LXLIFT
 62
4
 10
5199.703
 20
-9122.123
 30
-430.000
 70
    32
  0
VERTEX
  8
E57LXLIFT
 62
4
 10
5207.924
 20
-9115.962
 30
-430.000
 70
    32
  0
VERTEX
  8
E57LXLIFT
 62
4
 10
5217.690
 20
-9109.521
 30
-430.000
 70
    32
  0
VERTEX
  8
E57LXLIFT
 62
4
 10
5217.971
 20
-9109.310
 30
-430.000
 70
    32
  0
VERTEX
  8
E57LXLIFT
 62
4
 10
5224.153
 20
-9107.311
 30
-430.000
 70
    32
  0
SEQEND
  8
E57LXLIFT
  0
POLYLINE
  8
E57LXLIFT
 62
2
 66
     1
 70
     9
  0
VERTEX
  8
E57LXLIFT
 62
2
 10
5197.704
 20
-9207.009
 30
-421.000
 70
    32
  0
VERTEX
  8
E57LXLIFT
 62
2
 10
5186.303
 20
-9217.418
 30
-421.000
 70
    32
  0
VERTEX
  8
E57LXLIFT
 62
2
 10
5177.432
 20
-9224.615
 30
-421.000
 70
    32
  0
VERTEX
  8
E57LXLIFT
 62
2
 10
5174.199
 20
-9230.549
 30
-421.000
 70
    32
  0
VERTEX
  8
E57LXLIFT
 62
2
 10
5180.114
 20
-9238.295
 30
-421.000
 70
    32
  0
VERTEX
  8
E57LXLIFT
 62
2
 10
5184.393
 20
-9251.766
 30
-421.000
 70
    32
  0
VERTEX
  8
E57LXLIFT
 62
2
 10
5193.895
 20
-9247.169
 30
-421.000
 70
    32
  0
VERTEX
  8
E57LXLIFT
 62
2
 10
5200.724
 20
-9252.475
 30
-421.000
 70
    32
  0
VERTEX
  8
E57LXLIFT
 62
2
 10
5207.763
 20
-9261.135
 30
-421.000
 70
    32
  0
VERTEX
  8
E57LXLIFT
 62
2
 10
5217.686
 20
-9256.221
 30
-421.000
 70
    32
  0
VERTEX
  8
E57LXLIFT
 62
2
 10
5210.034
 20
-9245.717
 30
-421.000
 70
    32
  0
VERTEX
  8
E57LXLIFT
 62
2
 10
5207.245
 20
-9238.481
 30
-421.000
 70
    32
  0
VERTEX
  8
E57LXLIFT
 62
2
 10
5208.144
 20
-9228.261
 30
-421.000
 70
    32
  0
VERTEX
  8
E57LXLIFT
 62
2
 10
5203.758
 20
-9217.284
 30
-421.000
 70
    32
  0
SEQEND
  8
E57LXLIFT
  0
POLYLINE
  8
E57LXLIFT
 62
3
 66
     1
 70
     9
  0
VERTEX
  8
E57LXLIFT
 62
3
 10
5129.409
 20
-9395.231
 30
-427.000
 70
    32
  0
VERTEX
  8
E57LXLIFT
 62
3
 10
5142.230
 20
-9390.671
 30
-427.000
 70
    32
  0
VERTEX
  8
E57LXLIFT
 62
3
 10
5148.534
 20
-9391.323
 30
-427.000
 70
    32
  0
VERTEX
  8
E57LXLIFT
 62
3
 10
5153.875
 20
-9383.809
 30
-427.000
 70
    32
  0
VERTEX
  8
E57LXLIFT
 62
3
 10
5153.424
 20
-9369.444
 30
-427.000
 70
    32
  0
VERTEX
  8
E57LXLIFT
 62
3
 10
5150.146
 20
-9352.919
 30
-427.000
 70
    32
  0
VERTEX
  8
E57LXLIFT
 62
3
 10
5151.521
 20
-9340.697
 30
-427.000
 70
    32
  0
VERTEX
  8
E57LXLIFT
 62
3
 10
5156.180
 20
-9327.002
 30
-427.000
 70
    32
  0
VERTEX
  8
E57LXLIFT
 62
3
 10
5156.870
 20
-9312.111
 30
-427.000
 70
    32
  0
VERTEX
  8
E57LXLIFT
 62
3
 10
5156.032
 20
-9299.133
 30
-427.000
 70
    32
  0
VERTEX
  8
E57LXLIFT
 62
3
 10
5148.752
 20
-9281.658
 30
-427.000
 70
    32
  0
VERTEX
  8
E57LXLIFT
 62
3
 10
5138.749
 20
-9263.040
 30
-427.000
 70
    32
  0
VERTEX
  8
E57LXLIFT
 62
3
 10
5130.360
 20
-9251.113
 30
-427.000
 70
    32
  0
VERTEX
  8
E57LXLIFT
 62
3
 10
5121.669
 20
-9246.544
 30
-427.000
 70
    32
  0
VERTEX
  8
E57LXLIFT
 62
3
 10
5111.676
 20
-9250.192
 30
-427.000
 70
    32
  0
VERTEX
  8
E57LXLIFT
 62
3
 10
5101.190
 20
-9256.844
 30
-427.000
 70
    32
  0
VERTEX
  8
E57LXLIFT
 62
3
 10
5090.175
 20
-9266.744
 30
-427.000
 70
    32
  0
VERTEX
  8
E57LXLIFT
 62
3
 10
5082.198
 20
-9279.086
 30
-427.000
 70
    32
  0
VERTEX
  8
E57LXLIFT
 62
3
 10
5080.366
 20
-9294.064
 30
-427.000
 70
    32
  0
VERTEX
  8
E57LXLIFT
 62
3
 10
5079.605
 20
-9309.886
 30
-427.000
 70
    32
  0
VERTEX
  8
E57LXLIFT
 62
3
 10
5083.161
 20
-9331.469
 30
-427.000
 70
    32
  0
VERTEX
  8
E57LXLIFT
 62
3
 10
5088.213
 20
-9347.433
 30
-427.000
 70
    32
  0
VERTEX
  8
E57LXLIFT
 62
3
 10
5087.715
 20
-9363.167
 30
-427.000
 70
    32
  0
VERTEX
  8
E57LXLIFT
 62
3
 10
5090.852
 20
-9379.359
 30
-427.000
 70
    32
  0
VERTEX
  8
E57LXLIFT
 62
3
 10
5097.188
 20
-9388.985
 30
-427.000
 70
    32
  0
SEQEND
  8
E57LXLIFT
  0
POLYLINE
  8
E57LXLIFT
 62
6
 66
     1
 70
     9
  0
VERTEX
  8
E57LXLIFT
 62
6
 10
5060.362
 20
-9211.294
 30
-425.000
 70
    32
  0
VERTEX
  8
E57LXLIFT
 62
6
 10
5060.234
 20
-9224.007
 30
-425.000
 70
    32
  0
VERTEX
  8
E57LXLIFT
 62
6
 10
5058.263
 20
-9235.140
 30
-425.000
 70
    32
  0
VERTEX
  8
E57LXLIFT
 62
6
 10
5059.925
 20
-9249.365
 30
-425.000
 70
    32
  0
VERTEX
  8
E57LXLIFT
 62
6
 10
5062.976
 20
-9261.781
 30
-425.000
 70
    32
  0
VERTEX
  8
E57LXLIFT
 62
6
 10
5070.173
 20
-9270.652
 30
-425.000
 70
    32
  0
VERTEX
  8
E57LXLIFT
 62
6
 10
5078.794
 20
-9271.762
 30
-425.000
 70
    32
  0
VERTEX
  8
E57LXLIFT
 62
6
 10
5089.281
 20
-9265.110
 30
-425.000
 70
    32
  0
VERTEX
  8
E57LXLIFT
 62
6
 10
5100.910
 20
-9254.859
 30
-425.000
 70
    32
  0
VERTEX
  8
E57LXLIFT
 62
6
 10
5107.604
 20
-9244.905
 30
-425.000
 70
    32
  0
VERTEX
  8
E57LXLIFT
 62
6
 10
5107.555
 20
-9233.860
 30
-425.000
 70
    32
  0
VERTEX
  8
E57LXLIFT
 62
6
 10
5100.817
 20
-9221.793
 30
-425.000
 70
    32
  0
VERTEX
  8
E57LXLIFT
 62
6
 10
5094.552
 20
-9210.359
 30
-425.000
 70
    32
  0
VERTEX
  8
E57LXLIFT
 62
6
 10
5084.967
 20
-9201.961
 30
-425.000
 70
    32
  0
VERTEX
  8
E57LXLIFT
 62
6
 10
5076.681
 20
-9197.638
 30
-425.000
 70
    32
  0
VERTEX
  8
E57LXLIFT
 62
6
 10
5071.428
 20
-9201.903
 30
-425.000
 70
    32
  0
SEQEND
  8
E57LXLIFT
  0
POLYLINE
  8
E57LXLIFT
 62
27
 66
     1
 70
     9
  0
VERTEX
  8
E57LXLIFT
 62
27
 10
4946.222
 20
-9337.755
 30
-431.000
 70
    32
  0
VERTEX
  8
E57LXLIFT
 62
27
 10
4940.722
 20
-9347.692
 30
-431.000
 70
    32
  0
VERTEX
  8
E57LXLIFT
 62
27
 10
4936.522
 20
-9355.997
 30
-431.000
 70
    32
  0
VERTEX
  8
E57LXLIFT
 62
27
 10
4935.553
 20
-9362.757
 30
-431.000
 70
    32
  0
VERTEX
  8
E57LXLIFT
 62
27
 10
4922.066
 20
-9364.965
 30
-431.000
 70
    32
  0
VERTEX
  8
E57LXLIFT
 62
27
 10
4917.179
 20
-9379.380
 30
-431.000
 70
    32
  0
VERTEX
  8
E57LXLIFT
 62
27
 10
4902.075
 20
-9382.360
 30
-431.000
 70
    32
  0
VERTEX
  8
E57LXLIFT
 62
27
 10
4887.833
 20
-9385.462
 30
-431.000
 70
    32
  0
VERTEX
  8
E57LXLIFT
 62
27
 10
4885.885
 20
-9382.424
 30
-431.000
 70
    32
  0
VERTEX
  8
E57LXLIFT
 62
27
 10
4893.403
 20
-9377.229
 30
-431.000
 70
    32
  0
VERTEX
  8
E57LXLIFT
 62
27
 10
4887.419
 20
-9364.267
 30
-431.000
 70
    32
  0
VERTEX
  8
E57LXLIFT
 62
27
 10
4880.677
 20
-9361.419
 30
-431.000
 70
    32
  0
VERTEX
  8
E57LXLIFT
 62
27
 10
4876.662
 20
-9346.983
 30
-431.000
 70
    32
  0
VERTEX
  8
E57LXLIFT
 62
27
 10
4873.539
 20
-9339.009
 30
-431.000
 70
    32
  0
VERTEX
  8
E57LXLIFT
 62
27
 10
4881.008
 20
-9324.086
 30
-431.000
 70
    32
  0
VERTEX
  8
E57LXLIFT
 62
27
 10
4885.559
 20
-9317.274
 30
-431.000
 70
    32
  0
VERTEX
  8
E57LXLIFT
 62
27
 10
4896.163
 20
-9321.615
 30
-431.000
 70
    32
  0
VERTEX
  8
E57LXLIFT
 62
27
 10
4908.563
 20
-9316.932
 30
-431.000
 70
    32
  0
VERTEX
  8
E57LXLIFT
 62
27
 10
4922.157
 20
-9312.231
 30
-431.000
 70
    32
  0
VERTEX
  8
E57LXLIFT
 62
27
 10
4932.510
 20
-9331.902
 30
-431.000
 70
    32
  0
SEQEND
  8
E57LXLIFT
  0
POLYLINE
  8
E57LXLIFT
 62
7
 66
     1
 70
     9
  0
VERTEX
  8
E57LXLIFT
 62
7
 10
5815.615
 20
-9875.222
 30
-417.000
 70
    32
  0
VERTEX
  8
E57LXLIFT
 62
7
 10
5827.509
 20
-9877.628
 30
-417.000
 70
    32
  0
VERTEX
  8
E57LXLIFT
 62
7
 10
5835.119
 20
-9876.654
 30
-417.000
 70
    32
  0
VERTEX
  8
E57LXLIFT
 62
7
 10
5854.236
 20
-9865.978
 30
-417.000
 70
    32
  0
VERTEX
  8
E57LXLIFT
 62
7
 10
5862.145
 20
-9852.493
 30
-417.000
 70
    32
  0
VERTEX
  8
E57LXLIFT
 62
7
 10
5874.508
 20
-9833.372
 30
-417.000
 70
    32
  0
VERTEX
  8
E57LXLIFT
 62
7
 10
5880.059
 20
-9822.309
 30
-417.000
 70
    32
  0
VERTEX
  8
E57LXLIFT
 62
7
 10
5875.099
 20
-9812.742
 30
-417.000
 70
    32
  0
VERTEX
  8
E57LXLIFT
 62
7
 10
5867.215
 20
-9807.775
 30
-417.000
 70
    32
  0
VERTEX
  8
E57LXLIFT
 62
7
 10
5856.859
 20
-9811.241
 30
-417.000
 70
    32
  0
VERTEX
  8
E57LXLIFT
 62
7
 10
5836.667
 20
-9824.586
 30
-417.000
 70
    32
  0
VERTEX
  8
E57LXLIFT
 62
7
 10
5820.860
 20
-9830.592
 30
-417.000
 70
    32
  0
VERTEX
  8
E57LXLIFT
 62
7
 10
5809.743
 20
-9838.468
 30
-417.000
 70
    32
  0
VERTEX
  8
E57LXLIFT
 62
7
 10
5814.422
 20
-9860.863
 30
-417.000
 70
    32
  0
SEQEND
  8
E57LXLIFT
  0
POLYLINE
  8
E57LXLIFT
 62
13
 66
     1
 70
     9
  0
VERTEX
  8
E57LXLIFT
 62
13
 10
5785.359
 20
-9934.825
 30
-423.000
 70
    32
  0
VERTEX
  8
E57LXLIFT
 62
13
 10
5784.159
 20
-9912.680
 30
-423.000
 70
    32
  0
VERTEX
  8
E57LXLIFT
 62
13
 10
5784.588
 20
-9882.296
 30
-423.000
 70
    32
  0
VERTEX
  8
E57LXLIFT
 62
13
 10
5782.057
 20
-9843.702
 30
-423.000
 70
    32
  0
VERTEX
  8
E57LXLIFT
 62
13
 10
5783.302
 20
-9820.278
 30
-423.000
 70
    32
  0
VERTEX
  8
E57LXLIFT
 62
13
 10
5778.953
 20
-9800.818
 30
-423.000
 70
    32
  0
VERTEX
  8
E57LXLIFT
 62
13
 10
5772.853
 20
-9776.523
 30
-423.000
 70
    32
  0
VERTEX
  8
E57LXLIFT
 62
13
 10
5766.557
 20
-9780.135
 30
-423.000
 70
    32
  0
VERTEX
  8
E57LXLIFT
 62
13
 10
5751.725
 20
-9792.873
 30
-423.000
 70
    32
  0
VERTEX
  8
E57LXLIFT
 62
13
 10
5750.160
 20
-9806.332
 30
-423.000
 70
    32
  0
VERTEX
  8
E57LXLIFT
 62
13
 10
5754.601
 20
-9822.980
 30
-423.000
 70
    32
  0
VERTEX
  8
E57LXLIFT
 62
13
 10
5758.448
 20
-9837.220
 30
-423.000
 70
    32
  0
VERTEX
  8
E57LXLIFT
 62
13
 10
5758.332
 20
-9857.605
 30
-423.000
 70
    32
  0
VERTEX
  8
E57LXLIFT
 62
13
 10
5757.047
 20
-9871.732
 30
-423.000
 70
    32
  0
VERTEX
  8
E57LXLIFT
 62
13
 10
5754.609
 20
-9880.797
 30
-423.000
 70
    32
  0
VERTEX
  8
E57LXLIFT
 62
13
 10
5746.253
 20
-9887.375
 30
-423.000
 70
    32
  0
VERTEX
  8
E57LXLIFT
 62
13
 10
5740.626
 20
-9890.267
 30
-423.000
 70
    32
  0
VERTEX
  8
E57LXLIFT
 62
13
 10
5743.909
 20
-9905.367
 30
-423.000
 70
    32
  0
VERTEX
  8
E57LXLIFT
 62
13
 10
5748.556
 20
-9925.372
 30
-423.000
 70
    32
  0
VERTEX
  8
E57LXLIFT
 62
13
 10
5748.845
 20
-9932.068
 30
-423.000
 70
    32
  0
VERTEX
  8
E57LXLIFT
 62
13
 10
5761.564
 20
-9935.284
 30
-423.000
 70
    32
  0
VERTEX
  8
E57LXLIFT
 62
13
 10
5777.674
 20
-9938.926
 30
-423.000
 70
    32
  0
SEQEND
  8
E57LXLIFT
  0
POLYLINE
  8
E57LXLIFT
 62
3
 66
     1
 70
     9
  0
VERTEX
  8
E57LXLIFT
 62
3
 10
5472.109
 20
-9655.048
 30
-414.000
 70
    32
  0
VERTEX
  8
E57LXLIFT
 62
3
 10
5475.967
 20
-9661.379
 30
-414.000
 70
    32
  0
VERTEX
  8
E57LXLIFT
 62
3
 10
5472.240
 20
-9675.029
 30
-414.000
 70
    32
  0
VERTEX
  8
E57LXLIFT
 62
3
 10
5469.141
 20
-9692.159
 30
-414.000
 70
    32
  0
VERTEX
  8
E57LXLIFT
 62
3
 10
5472.175
 20
-9709.420
 30
-414.000
 70
    32
  0
VERTEX
  8
E57LXLIFT
 62
3
 10
5471.809
 20
-9720.227
 30
-414.000
 70
    32
  0
VERTEX
  8
E57LXLIFT
 62
3
 10
5471.088
 20
-9720.876
 30
-414.000
 70
    32
  0
VERTEX
  8
E57LXLIFT
 62
3
 10
5461.115
 20
-9727.347
 30
-414.000
 70
    32
  0
VERTEX
  8
E57LXLIFT
 62
3
 10
5449.046
 20
-9737.031
 30
-414.000
 70
    32
  0
VERTEX
  8
E57LXLIFT
 62
3
 10
5443.950
 20
-9736.673
 30
-414.000
 70
    32
  0
VERTEX
  8
E57LXLIFT
 62
3
 10
5436.375
 20
-9724.783
 30
-414.000
 70
    32
  0
VERTEX
  8
E57LXLIFT
 62
3
 10
5434.193
 20
-9713.796
 30
-414.000
 70
    32
  0
VERTEX
  8
E57LXLIFT
 62
3
 10
5437.266
 20
-9702.940
 30
-414.000
 70
    32
  0
VERTEX
  8
E57LXLIFT
 62
3
 10
5437.109
 20
-9689.233
 30
-414.000
 70
    32
  0
VERTEX
  8
E57LXLIFT
 62
3
 10
5434.908
 20
-9679.248
 30
-414.000
 70
    32
  0
VERTEX
  8
E57LXLIFT
 62
3
 10
5425.430
 20
-9670.975
 30
-414.000
 70
    32
  0
VERTEX
  8
E57LXLIFT
 62
3
 10
5427.038
 20
-9664.616
 30
-414.000
 70
    32
  0
VERTEX
  8
E57LXLIFT
 62
3
 10
5439.596
 20
-9669.378
 30
-414.000
 70
    32
  0
VERTEX
  8
E57LXLIFT
 62
3
 10
5445.837
 20
-9667.893
 30
-414.000
 70
    32
  0
VERTEX
  8
E57LXLIFT
 62
3
 10
5452.829
 20
-9656.849
 30
-414.000
 70
    32
  0
VERTEX
  8
E57LXLIFT
 62
3
 10
5460.638
 20
-9651.886
 30
-414.000
 70
    32
  0
SEQEND
  8
E57LXLIFT
  0
POLYLINE
  8
E57LXLIFT
 62
4
 66
     1
 70
     9
  0
VERTEX
  8
E57LXLIFT
 62
4
 10
5232.103
 20
-9107.745
 30
-419.000
 70
    32
  0
VERTEX
  8
E57LXLIFT
 62
4
 10
5217.551
 20
-9121.151
 30
-419.000
 70
    32
  0
VERTEX
  8
E57LXLIFT
 62
4
 10
5203.709
 20
-9130.077
 30
-419.000
 70
    32
  0
VERTEX
  8
E57LXLIFT
 62
4
 10
5193.743
 20
-9118.658
 30
-419.000
 70
    32
  0
VERTEX
  8
E57LXLIFT
 62
4
 10
5201.576
 20
-9109.179
 30
-419.000
 70
    32
  0
VERTEX
  8
E57LXLIFT
 62
4
 10
5211.410
 20
-9101.935
 30
-419.000
 70
    32
  0
VERTEX
  8
E57LXLIFT
 62
4
 10
5219.016
 20
-9104.036
 30
-419.000
 70
    32
  0
SEQEND
  8
E57LXLIFT
  0
POLYLINE
  8
E57LXLIFT
 62
2
 66
     1
 70
     9
  0
VERTEX
  8
E57LXLIFT
 62
2
 10
5186.393
 20
-9275.790
 30
-410.000
 70
    32
  0
VERTEX
  8
E57LXLIFT
 62
2
 10
5197.418
 20
-9271.165
 30
-410.000
 70
    32
  0
VERTEX
  8
E57LXLIFT
 62
2
 10
5207.082
 20
-9271.618
 30
-410.000
 70
    32
  0
VERTEX
  8
E57LXLIFT
 62
2
 10
5215.548
 20
-9275.162
 30
-410.000
 70
    32
  0
VERTEX
  8
E57LXLIFT
 62
2
 10
5226.789
 20
-9266.865
 30
-410.000
 70
    32
  0
VERTEX
  8
E57LXLIFT
 62
2
 10
5228.864
 20
-9252.915
 30
-410.000
 70
    32
  0
VERTEX
  8
E57LXLIFT
 62
2
 10
5230.515
 20
-9241.037
 30
-410.000
 70
    32
  0
VERTEX
  8
E57LXLIFT
 62
2
 10
5239.967
 20
-9229.909
 30
-410.000
 70
    32
  0
VERTEX
  8
E57LXLIFT
 62
2
 10
5251.422
 20
-9219.257
 30
-410.000
 70
    32
  0
VERTEX
  8
E57LXLIFT
 62
2
 10
5275.371
 20
-9195.970
 30
-410.000
 70
    32
  0
VERTEX
  8
E57LXLIFT
 62
2
 10
5285.644
 20
-9175.669
 30
-410.000
 70
    32
  0
VERTEX
  8
E57LXLIFT
 62
2
 10
5283.152
 20
-9160.307
 30
-410.000
 70
    32
  0
VERTEX
  8
E57LXLIFT
 62
2
 10
5278.187
 20
-9154.694
 30
-410.000
 70
    32
  0
VERTEX
  8
E57LXLIFT
 62
2
 10
5265.751
 20
-9163.007
 30
-410.000
 70
    32
  0
VERTEX
  8
E57LXLIFT
 62
2
 10
5261.333
 20
-9168.396
 30
-410.000
 70
    32
  0
VERTEX
  8
E57LXLIFT
 62
2
 10
5260.231
 20
-9177.339
 30
-410.000
 70
    32
  0
VERTEX
  8
E57LXLIFT
 62
2
 10
5250.777
 20
-9189.786
 30
-410.000
 70
    32
  0
VERTEX
  8
E57LXLIFT
 62
2
 10
5240.865
 20
-9202.794
 30
-410.000
 70
    32
  0
VERTEX
  8
E57LXLIFT
 62
2
 10
5230.790
 20
-9219.545
 30
-410.000
 70
    32
  0
VERTEX
  8
E57LXLIFT
 62
2
 10
5226.134
 20
-9231.366
 30
-410.000
 70
    32
  0
VERTEX
  8
E57LXLIFT
 62
2
 10
5210.976
 20
-9238.972
 30
-410.000
 70
    32
  0
VERTEX
  8
E57LXLIFT
 62
2
 10
5200.652
 20
-9231.770
 30
-410.000
 70
    32
  0
VERTEX
  8
E57LXLIFT
 62
2
 10
5194.601
 20
-9223.239
 30
-410.000
 70
    32
  0
VERTEX
  8
E57LXLIFT
 62
2
 10
5191.701
 20
-9211.144
 30
-410.000
 70
    32
  0
VERTEX
  8
E57LXLIFT
 62
2
 10
5185.965
 20
-9203.474
 30
-410.000
 70
    32
  0
VERTEX
  8
E57LXLIFT
 62
2
 10
5167.215
 20
-9189.847
 30
-410.000
 70
    32
  0
VERTEX
  8
E57LXLIFT
 62
2
 10
5158.545
 20
-9194.246
 30
-410.000
 70
    32
  0
VERTEX
  8
E57LXLIFT
 62
2
 10
5161.056
 20
-9208.607
 30
-410.000
 70
    32
  0
VERTEX
  8
E57LXLIFT
 62
2
 10
5167.464
 20
-9225.978
 30
-410.000
 70
    32
  0
VERTEX
  8
E57LXLIFT
 62
2
 10
5176.016
 20
-9243.722
 30
-410.000
 70
    32
  0
SEQEND
  8
E57LXLIFT
  0
POLYLINE
  8
E57LXLIFT
 62
6
 66
     1
 70
     9
  0
VERTEX
  8
E57LXLIFT
 62
6
 10
5063.474
 20
-9193.588
 30
-414.000
 70
    32
  0
VERTEX
  8
E57LXLIFT
 62
6
 10
5077.745
 20
-9204.749
 30
-414.000
 70
    32
  0
VERTEX
  8
E57LXLIFT
 62
6
 10
5085.632
 20
-9207.959
 30
-414.000
 70
    32
  0
VERTEX
  8
E57LXLIFT
 62
6
 10
5093.679
 20
-9209.182
 30
-414.000
 70
    32
  0
VERTEX
  8
E57LXLIFT
 62
6
 10
5098.474
 20
-9223.371
 30
-414.000
 70
    32
  0
VERTEX
  8
E57LXLIFT
 62
6
 10
5101.731
 20
-9232.127
 30
-414.000
 70
    32
  0
VERTEX
  8
E57LXLIFT
 62
6
 10
5103.652
 20
-9240.565
 30
-414.000
 70
    32
  0
VERTEX
  8
E57LXLIFT
 62
6
 10
5097.148
 20
-9255.194
 30
-414.000
 70
    32
  0
VERTEX
  8
E57LXLIFT
 62
6
 10
5083.093
 20
-9265.157
 30
-414.000
 70
    32
  0
VERTEX
  8
E57LXLIFT
 62
6
 10
5073.316
 20
-9269.835
 30
-414.000
 70
    32
  0
VERTEX
  8
E57LXLIFT
 62
6
 10
5059.049
 20
-9267.338
 30
-414.000
 70
    32
  0
VERTEX
  8
E57LXLIFT
 62
6
 10
5054.642
 20
-9251.762
 30
-414.000
 70
    32
  0
VERTEX
  8
E57LXLIFT
 62
6
 10
5052.062
 20
-9236.575
 30
-414.000
 70
    32
  0
VERTEX
  8
E57LXLIFT
 62
6
 10
5049.322
 20
-9222.495
 30
-414.000
 70
    32
  0
VERTEX
  8
E57LXLIFT
 62
6
 10
5048.917
 20
-9210.949
 30
-414.000
 70
    32
  0
SEQEND
  8
E57LXLIFT
  0
POLYLINE
  8
E57LXLIFT
 62
27
 66
     1
 70
     9
  0
VERTEX
  8
E57LXLIFT
 62
27
 10
4893.241
 20
-9384.537
 30
-413.000
 70
    32
  0
VERTEX
  8
E57LXLIFT
 62
27
 10
4900.934
 20
-9374.724
 30
-413.000
 70
    32
  0
VERTEX
  8
E57LXLIFT
 62
27
 10
4911.826
 20
-9364.933
 30
-413.000
 70
    32
  0
VERTEX
  8
E57LXLIFT
 62
27
 10
4919.184
 20
-9356.138
 30
-413.000
 70
    32
  0
VERTEX
  8
E57LXLIFT
 62
27
 10
4926.933
 20
-9343.760
 30
-413.000
 70
    32
  0
VERTEX
  8
E57LXLIFT
 62
27
 10
4925.837
 20
-9335.253
 30
-413.000
 70
    32
  0
VERTEX
  8
E57LXLIFT
 62
27
 10
4913.981
 20
-9318.225
 30
-413.000
 70
    32
  0
VERTEX
  8
E57LXLIFT
 62
27
 10
4899.607
 20
-9304.727
 30
-413.000
 70
    32
  0
VERTEX
  8
E57LXLIFT
 62
27
 10
4888.447
 20
-9305.063
 30
-413.000
 70
    32
  0
VERTEX
  8
E57LXLIFT
 62
27
 10
4873.712
 20
-9311.475
 30
-413.000
 70
    32
  0
VERTEX
  8
E57LXLIFT
 62
27
 10
4862.282
 20
-9316.731
 30
-413.000
 70
    32
  0
VERTEX
  8
E57LXLIFT
 62
27
 10
4851.359
 20
-9324.132
 30
-413.000
 70
    32
  0
VERTEX
  8
E57LXLIFT
 62
27
 10
4841.739
 20
-9329.022
 30
-413.000
 70
    32
  0
VERTEX
  8
E57LXLIFT
 62
27
 10
4831.872
 20
-9335.633
 30
-413.000
 70
    32
  0
VERTEX
  8
E57LXLIFT
 62
27
 10
4828.186
 20
-9345.083
 30
-413.000
 70
    32
  0
VERTEX
  8
E57LXLIFT
 62
27
 10
4845.350
 20
-9361.432
 30
-413.000
 70
    32
  0
VERTEX
  8
E57LXLIFT
 62
27
 10
4860.016
 20
-9380.309
 30
-413.000
 70
    32
  0
VERTEX
  8
E57LXLIFT
 62
27
 10
4871.482
 20
-9386.985
 30
-413.000
 70
    32
  0
VERTEX
  8
E57LXLIFT
 62
27
 10
4878.775
 20
-9387.346
 30
-413.000
 70
    32
  0
SEQEND
  8
E57LXLIFT
  0
POLYLINE
  8
E57LXLIFT
 62
7
 66
     1
 70
     9
  0
VERTEX
  8
E57LXLIFT
 62
7
 10
5823.730
 20
-9862.246
 30
-408.000
 70
    32
  0
VERTEX
  8
E57LXLIFT
 62
7
 10
5837.815
 20
-9876.879
 30
-408.000
 70
    32
  0
VERTEX
  8
E57LXLIFT
 62
7
 10
5847.045
 20
-9889.284
 30
-408.000
 70
    32
  0
VERTEX
  8
E57LXLIFT
 62
7
 10
5854.105
 20
-9875.201
 30
-408.000
 70
    32
  0
VERTEX
  8
E57LXLIFT
 62
7
 10
5866.461
 20
-9863.337
 30
-408.000
 70
    32
  0
VERTEX
  8
E57LXLIFT
 62
7
 10
5876.503
 20
-9855.505
 30
-408.000
 70
    32
  0
VERTEX
  8
E57LXLIFT
 62
7
 10
5870.029
 20
-9846.632
 30
-408.000
 70
    32
  0
VERTEX
  8
E57LXLIFT
 62
7
 10
5869.733
 20
-9838.397
 30
-408.000
 70
    32
  0
VERTEX
  8
E57LXLIFT
 62
7
 10
5872.014
 20
-9828.041
 30
-408.000
 70
    32
  0
VERTEX
  8
E57LXLIFT
 62
7
 10
5867.997
 20
-9819.034
 30
-408.000
 70
    32
  0
VERTEX
  8
E57LXLIFT
 62
7
 10
5861.187
 20
-9812.873
 30
-408.000
 70
    32
  0
VERTEX
  8
E57LXLIFT
 62
7
 10
5851.519
 20
-9812.616
 30
-408.000
 70
    32
  0
VERTEX
  8
E57LXLIFT
 62
7
 10
5839.988
 20
-9818.825
 30
-408.000
 70
    32
  0
VERTEX
  8
E57LXLIFT
 62
7
 10
5825.221
 20
-9830.453
 30
-408.000
 70
    32
  0
VERTEX
  8
E57LXLIFT
 62
7
 10
5814.633
 20
-9839.156
 30
-408.000
 70
    32
  0
VERTEX
  8
E57LXLIFT
 62
7
 10
5808.718
 20
-9840.427
 30
-408.000
 70
    32
  0
VERTEX
  8
E57LXLIFT
 62
7
 10
5810.834
 20
-9850.138
 30
-408.000
 70
    32
  0
VERTEX
  8
E57LXLIFT
 62
7
 10
5809.009
 20
-9862.366
 30
-408.000
 70
    32
  0
VERTEX
  8
E57LXLIFT
 62
7
 10
5803.014
 20
-9866.818
 30
-408.000
 70
    32
  0
VERTEX
  8
E57LXLIFT
 62
7
 10
5806.463
 20
-9870.812
 30
-408.000
 70
    32
  0
VERTEX
  8
E57LXLIFT
 62
7
 10
5815.099
 20
-9865.747
 30
-408.000
 70
    32
  0
SEQEND
  8
E57LXLIFT
  0
POLYLINE
  8
E57LXLIFT
 62
13
 66
     1
 70
     9
  0
VERTEX
  8
E57LXLIFT
 62
13
 10
5747.326
 20
-9947.229
 30
-412.000
 70
    32
  0
VERTEX
  8
E57LXLIFT
 62
13
 10
5754.450
 20
-9951.364
 30
-412.000
 70
    32
  0
VERTEX
  8
E57LXLIFT
 62
13
 10
5766.262
 20
-9965.653
 30
-412.000
 70
    32
  0
VERTEX
  8
E57LXLIFT
 62
13
 10
5771.532
 20
-9972.124
 30
-412.000
 70
    32
  0
VERTEX
  8
E57LXLIFT
 62
13
 10
5778.593
 20
-9970.182
 30
-412.000
 70
    32
  0
VERTEX
  8
E57LXLIFT
 62
13
 10
5785.583
 20
-9955.151
 30
-412.000
 70
    32
  0
VERTEX
  8
E57LXLIFT
 62
13
 10
5789.439
 20
-9940.672
 30
-412.000
 70
    32
  0
VERTEX
  8
E57LXLIFT
 62
13
 10
5790.628
 20
-9907.777
 30
-412.000
 70
    32
  0
VERTEX
  8
E57LXLIFT
 62
13
 10
5788.143
 20
-9886.882
 30
-412.000
 70
    32
  0
VERTEX
  8
E57LXLIFT
 62
13
 10
5787.271
 20
-9868.626
 30
-412.000
 70
    32
  0
VERTEX
  8
E57LXLIFT
 62
13
 10
5782.090
 20
-9847.272
 30
-412.000
 70
    32
  0
VERTEX
  8
E57LXLIFT
 62
13
 10
5782.703
 20
-9827.636
 30
-412.000
 70
    32
  0
VERTEX
  8
E57LXLIFT
 62
13
 10
5779.132
 20
-9806.919
 30
-412.000
 70
    32
  0
VERTEX
  8
E57LXLIFT
 62
13
 10
5773.682
 20
-9798.360
 30
-412.000
 70
    32
  0
VERTEX
  8
E57LXLIFT
 62
13
 10
5763.631
 20
-9799.182
 30
-412.000
 70
    32
  0
VERTEX
  8
E57LXLIFT
 62
13
 10
5756.125
 20
-9802.697
 30
-412.000
 70
    32
  0
VERTEX
  8
E57LXLIFT
 62
13
 10
5756.500
 20
-9824.458
 30
-412.000
 70
    32
  0
VERTEX
  8
E57LXLIFT
 62
13
 10
5757.255
 20
-9847.706
 30
-412.000
 70
    32
  0
VERTEX
  8
E57LXLIFT
 62
13
 10
5758.704
 20
-9871.414
 30
-412.000
 70
    32
  0
VERTEX
  8
E57LXLIFT
 62
13
 10
5753.845
 20
-9884.894
 30
-412.000
 70
    32
  0
VERTEX
  8
E57LXLIFT
 62
13
 10
5754.595
 20
-9909.705
 30
-412.000
 70
    32
  0
VERTEX
  8
E57LXLIFT
 62
13
 10
5757.418
 20
-9918.752
 30
-412.000
 70
    32
  0
VERTEX
  8
E57LXLIFT
 62
13
 10
5748.073
 20
-9929.048
 30
-412.000
 70
    32
  0
SEQEND
  8
E57LXLIFT
  0
POLYLINE
  8
E57LXLIFT
 62
4
 66
     1
 70
     9
  0
VERTEX
  8
E57LXLIFT
 62
4
 10
5241.015
 20
-9125.798
 30
-410.000
 70
    32
  0
VERTEX
  8
E57LXLIFT
 62
4
 10
5228.282
 20
-9131.607
 30
-410.000
 70
    32
  0
VERTEX
  8
E57LXLIFT
 62
4
 10
5212.860
 20
-9137.397
 30
-410.000
 70
    32
  0
VERTEX
  8
E57LXLIFT
 62
4
 10
5190.116
 20
-9134.084
 30
-410.000
 70
    32
  0
VERTEX
  8
E57LXLIFT
 62
4
 10
5179.778
 20
-9116.974
 30
-410.000
 70
    32
  0
VERTEX
  8
E57LXLIFT
 62
4
 10
5175.949
 20
-9110.493
 30
-410.000
 70
    32
  0
VERTEX
  8
E57LXLIFT
 62
4
 10
5181.612
 20
-9105.186
 30
-410.000
 70
    32
  0
VERTEX
  8
E57LXLIFT
 62
4
 10
5199.757
 20
-9096.603
 30
-410.000
 70
    32
  0
VERTEX
  8
E57LXLIFT
 62
4
 10
5212.516
 20
-9093.112
 30
-410.000
 70
    32
  0
VERTEX
  8
E57LXLIFT
 62
4
 10
5221.523
 20
-9100.233
 30
-410.000
 70
    32
  0
VERTEX
  8
E57LXLIFT
 62
4
 10
5228.239
 20
-9105.131
 30
-410.000
 70
    32
  0
VERTEX
  8
E57LXLIFT
 62
4
 10
5231.952
 20
-9116.604
 30
-410.000
 70
    32
  0
SEQEND
  8
E57LXLIFT
  0
POLYLINE
  8
E57LXLIFT
 62
2
 66
     1
 70
     9
  0
VERTEX
  8
E57LXLIFT
 62
2
 10
5135.790
 20
-9126.553
 30
-400.000
 70
    32
  0
VERTEX
  8
E57LXLIFT
 62
2
 10
5128.719
 20
-9132.625
 30
-400.000
 70
    32
  0
VERTEX
  8
E57LXLIFT
 62
2
 10
5127.251
 20
-9140.454
 30
-400.000
 70
    32
  0
VERTEX
  8
E57LXLIFT
 62
2
 10
5132.146
 20
-9149.444
 30
-400.000
 70
    32
  0
VERTEX
  8
E57LXLIFT
 62
2
 10
5134.585
 20
-9158.569
 30
-400.000
 70
    32
  0
VERTEX
  8
E57LXLIFT
 62
2
 10
5142.899
 20
-9171.800
 30
-400.000
 70
    32
  0
VERTEX
  8
E57LXLIFT
 62
2
 10
5147.642
 20
-9182.024
 30
-400.000
 70
    32
  0
VERTEX
  8
E57LXLIFT
 62
2
 10
5147.057
 20
-9188.272
 30
-400.000
 70
    32
  0
VERTEX
  8
E57LXLIFT
 62
2
 10
5154.065
 20
-9198.400
 30
-400.000
 70
    32
  0
VERTEX
  8
E57LXLIFT
 62
2
 10
5162.397
 20
-9219.080
 30
-400.000
 70
    32
  0
VERTEX
  8
E57LXLIFT
 62
2
 10
5164.218
 20
-9227.127
 30
-400.000
 70
    32
  0
VERTEX
  8
E57LXLIFT
 62
2
 10
5179.495
 20
-9246.288
 30
-400.000
 70
    32
  0
VERTEX
  8
E57LXLIFT
 62
2
 10
5188.322
 20
-9256.891
 30
-400.000
 70
    32
  0
VERTEX
  8
E57LXLIFT
 62
2
 10
5187.984
 20
-9269.741
 30
-400.000
 70
    32
  0
VERTEX
  8
E57LXLIFT
 62
2
 10
5200.204
 20
-9265.557
 30
-400.000
 70
    32
  0
VERTEX
  8
E57LXLIFT
 62
2
 10
5214.756
 20
-9254.653
 30
-400.000
 70
    32
  0
VERTEX
  8
E57LXLIFT
 62
2
 10
5224.346
 20
-9242.385
 30
-400.000
 70
    32
  0
VERTEX
  8
E57LXLIFT
 62
2
 10
5239.739
 20
-9226.704
 30
-400.000
 70
    32
  0
VERTEX
  8
E57LXLIFT
 62
2
 10
5255.302
 20
-9210.668
 30
-400.000
 70
    32
  0
VERTEX
  8
E57LXLIFT
 62
2
 10
5274.625
 20
-9190.029
 30
-400.000
 70
    32
  0
VERTEX
  8
E57LXLIFT
 62
2
 10
5285.698
 20
-9175.378
 30
-400.000
 70
    32
  0
VERTEX
  8
E57LXLIFT
 62
2
 10
5279.838
 20
-9165.579
 30
-400.000
 70
    32
  0
VERTEX
  8
E57LXLIFT
 62
2
 10
5273.873
 20
-9163.215
 30
-400.000
 70
    32
  0
VERTEX
  8
E57LXLIFT
 62
2
 10
5263.164
 20
-9179.475
 30
-400.000
 70
    32
  0
VERTEX
  8
E57LXLIFT
 62
2
 10
5243.277
 20
-9204.676
 30
-400.000
 70
    32
  0
VERTEX
  8
E57LXLIFT
 62
2
 10
5225.833
 20
-9225.297
 30
-400.000
 70
    32
  0
VERTEX
  8
E57LXLIFT
 62
2
 10
5218.990
 20
-9235.089
 30
-400.000
 70
    32
  0
VERTEX
  8
E57LXLIFT
 62
2
 10
5209.337
 20
-9240.279
 30
-400.000
 70
    32
  0
VERTEX
  8
E57LXLIFT
 62
2
 10
5197.455
 20
-9237.182
 30
-400.000
 70
    32
  0
VERTEX
  8
E57LXLIFT
 62
2
 10
5191.865
 20
-9233.299
 30
-400.000
 70
    32
  0
VERTEX
  8
E57LXLIFT
 62
2
 10
5186.762
 20
-9218.901
 30
-400.000
 70
    32
  0
VERTEX
  8
E57LXLIFT
 62
2
 10
5171.889
 20
-9196.974
 30
-400.000
 70
    32
  0
VERTEX
  8
E57LXLIFT
 62
2
 10
5163.702
 20
-9186.763
 30
-400.000
 70
    32
  0
VERTEX
  8
E57LXLIFT
 62
2
 10
5156.746
 20
-9169.132
 30
-400.000
 70
    32
  0
VERTEX
  8
E57LXLIFT
 62
2
 10
5151.446
 20
-9151.768
 30
-400.000
 70
    32
  0
VERTEX
  8
E57LXLIFT
 62
2
 10
5144.721
 20
-9139.860
 30
-400.000
 70
    32
  0
SEQEND
  8
E57LXLIFT
  0
POLYLINE
  8
E57LXLIFT
 62
6
 66
     1
 70
     9
  0
VERTEX
  8
E57LXLIFT
 62
6
 10
5057.957
 20
-9277.254
 30
-409.000
 70
    32
  0
VERTEX
  8
E57LXLIFT
 62
6
 10
5066.267
 20
-9270.772
 30
-409.000
 70
    32
  0
VERTEX
  8
E57LXLIFT
 62
6
 10
5076.666
 20
-9258.541
 30
-409.000
 70
    32
  0
VERTEX
  8
E57LXLIFT
 62
6
 10
5084.642
 20
-9243.633
 30
-409.000
 70
    32
  0
VERTEX
  8
E57LXLIFT
 62
6
 10
5086.988
 20
-9229.217
 30
-409.000
 70
    32
  0
VERTEX
  8
E57LXLIFT
 62
6
 10
5090.280
 20
-9213.729
 30
-409.000
 70
    32
  0
VERTEX
  8
E57LXLIFT
 62
6
 10
5086.961
 20
-9209.189
 30
-409.000
 70
    32
  0
VERTEX
  8
E57LXLIFT
 62
6
 10
5078.732
 20
-9213.490
 30
-409.000
 70
    32
  0
VERTEX
  8
E57LXLIFT
 62
6
 10
5070.500
 20
-9209.218
 30
-409.000
 70
    32
  0
VERTEX
  8
E57LXLIFT
 62
6
 10
5061.971
 20
-9196.712
 30
-409.000
 70
    32
  0
VERTEX
  8
E57LXLIFT
 62
6
 10
5051.268
 20
-9188.129
 30
-409.000
 70
    32
  0
VERTEX
  8
E57LXLIFT
 62
6
 10
5046.201
 20
-9195.200
 30
-409.000
 70
    32
  0
VERTEX
  8
E57LXLIFT
 62
6
 10
5036.583
 20
-9204.148
 30
-409.000
 70
    32
  0
VERTEX
  8
E57LXLIFT
 62
6
 10
5035.976
 20
-9211.082
 30
-409.000
 70
    32
  0
VERTEX
  8
E57LXLIFT
 62
6
 10
5038.405
 20
-9224.336
 30
-409.000
 70
    32
  0
VERTEX
  8
E57LXLIFT
 62
6
 10
5040.181
 20
-9239.324
 30
-409.000
 70
    32
  0
VERTEX
  8
E57LXLIFT
 62
6
 10
5040.435
 20
-9250.932
 30
-409.000
 70
    32
  0
VERTEX
  8
E57LXLIFT
 62
6
 10
5049.367
 20
-9265.241
 30
-409.000
 70
    32
  0
SEQEND
  8
E57LXLIFT
  0
POLYLINE
  8
E57LXLIFT
 62
27
 66
     1
 70
     9
  0
VERTEX
  8
E57LXLIFT
 62
27
 10
4879.996
 20
-9381.406
 30
-403.000
 70
    32
  0
VERTEX
  8
E57LXLIFT
 62
27
 10
4869.304
 20
-9380.835
 30
-403.000
 70
    32
  0
VERTEX
  8
E57LXLIFT
 62
27
 10
4856.860
 20
-9378.733
 30
-403.000
 70
    32
  0
VERTEX
  8
E57LXLIFT
 62
27
 10
4845.712
 20
-9371.723
 30
-403.000
 70
    32
  0
VERTEX
  8
E57LXLIFT
 62
27
 10
4838.358
 20
-9356.295
 30
-403.000
 70
    32
  0
VERTEX
  8
E57LXLIFT
 62
27
 10
4842.195
 20
-9345.506
 30
-403.000
 70
    32
  0
VERTEX
  8
E57LXLIFT
 62
27
 10
4850.155
 20
-9335.288
 30
-403.000
 70
    32
  0
VERTEX
  8
E57LXLIFT
 62
27
 10
4861.226
 20
-9330.775
 30
-403.000
 70
    32
  0
VERTEX
  8
E57LXLIFT
 62
27
 10
4878.299
 20
-9321.246
 30
-403.000
 70
    32
  0
VERTEX
  8
E57LXLIFT
 62
27
 10
4892.846
 20
-9311.906
 30
-403.000
 70
    32
  0
VERTEX
  8
E57LXLIFT
 62
27
 10
4898.074
 20
-9310.613
 30
-403.000
 70
    32
  0
VERTEX
  8
E57LXLIFT
 62
27
 10
4905.421
 20
-9314.463
 30
-403.000
 70
    32
  0
VERTEX
  8
E57LXLIFT
 62
27
 10
4912.629
 20
-9324.991
 30
-403.000
 70
    32
  0
VERTEX
  8
E57LXLIFT
 62
27
 10
4917.445
 20
-9337.163
 30
-403.000
 70
    32
  0
VERTEX
  8
E57LXLIFT
 62
27
 10
4916.379
 20
-9346.794
 30
-403.000
 70
    32
  0
VERTEX
  8
E57LXLIFT
 62
27
 10
4910.013
 20
-9355.769
 30
-403.000
 70
    32
  0
VERTEX
  8
E57LXLIFT
 62
27
 10
4907.291
 20
-9359.562
 30
-403.000
 70
    32
  0
VERTEX
  8
E57LXLIFT
 62
27
 10
4900.144
 20
-9360.681
 30
-403.000
 70
    32
  0
VERTEX
  8
E57LXLIFT
 62
27
 10
4888.404
 20
-9372.621
 30
-403.000
 70
    32
  0
SEQEND
  8
E57LXLIFT
  0
POLYLINE
  8
E57LXLIFT
 62
7
 66
     1
 70
     9
  0
VERTEX
  8
E57LXLIFT
 62
7
 10
5869.982
 20
-9846.194
 30
-400.000
 70
    32
  0
VERTEX
  8
E57LXLIFT
 62
7
 10
5860.166
 20
-9860.112
 30
-400.000
 70
    32
  0
VERTEX
  8
E57LXLIFT
 62
7
 10
5853.638
 20
-9873.824
 30
-400.000
 70
    32
  0
VERTEX
  8
E57LXLIFT
 62
7
 10
5851.317
 20
-9882.620
 30
-400.000
 70
    32
  0
VERTEX
  8
E57LXLIFT
 62
7
 10
5844.461
 20
-9876.910
 30
-400.000
 70
    32
  0
VERTEX
  8
E57LXLIFT
 62
7
 10
5834.214
 20
-9867.817
 30
-400.000
 70
    32
  0
VERTEX
  8
E57LXLIFT
 62
7
 10
5826.514
 20
-9860.869
 30
-400.000
 70
    32
  0
VERTEX
  8
E57LXLIFT
 62
7
 10
5820.043
 20
-9848.749
 30
-400.000
 70
    32
  0
VERTEX
  8
E57LXLIFT
 62
7
 10
5816.271
 20
-9837.100
 30
-400.000
 70
    32
  0
VERTEX
  8
E57LXLIFT
 62
7
 10
5824.827
 20
-9834.938
 30
-400.000
 70
    32
  0
VERTEX
  8
E57LXLIFT
 62
7
 10
5832.117
 20
-9826.529
 30
-400.000
 70
    32
  0
VERTEX
  8
E57LXLIFT
 62
7
 10
5839.596
 20
-9816.639
 30
-400.000
 70
    32
  0
VERTEX
  8
E57LXLIFT
 62
7
 10
5844.675
 20
-9816.162
 30
-400.000
 70
    32
  0
VERTEX
  8
E57LXLIFT
 62
7
 10
5850.603
 20
-9822.255
 30
-400.000
 70
    32
  0
VERTEX
  8
E57LXLIFT
 62
7
 10
5859.524
 20
-9833.373
 30
-400.000
 70
    32
  0
SEQEND
  8
E57LXLIFT
  0
POLYLINE
  8
E57LXLIFT
 62
13
 66
     1
 70
     9
  0
VERTEX
  8
E57LXLIFT
 62
13
 10
5774.995
 20
-9799.059
 30
-393.000
 70
    32
  0
VERTEX
  8
E57LXLIFT
 62
13
 10
5777.670
 20
-9808.998
 30
-393.000
 70
    32
  0
VERTEX
  8
E57LXLIFT
 62
13
 10
5779.820
 20
-9830.348
 30
-393.000
 70
    32
  0
VERTEX
  8
E57LXLIFT
 62
13
 10
5778.415
 20
-9844.217
 30
-393.000
 70
    32
  0
VERTEX
  8
E57LXLIFT
 62
13
 10
5780.025
 20
-9869.762
 30
-393.000
 70
    32
  0
VERTEX
  8
E57LXLIFT
 62
13
 10
5775.197
 20
-9910.286
 30
-393.000
 70
    32
  0
VERTEX
  8
E57LXLIFT
 62
13
 10
5776.132
 20
-9927.905
 30
-393.000
 70
    32
  0
VERTEX
  8
E57LXLIFT
 62
13
 10
5778.247
 20
-9936.832
 30
-393.000
 70
    32
  0
VERTEX
  8
E57LXLIFT
 62
13
 10
5764.772
 20
-9967.025
 30
-393.000
 70
    32
  0
VERTEX
  8
E57LXLIFT
 62
13
 10
5758.825
 20
-9986.959
 30
-393.000
 70
    32
  0
VERTEX
  8
E57LXLIFT
 62
13
 10
5755.397
 20
-10003.390
 30
-393.000
 70
    32
  0
VERTEX
  8
E57LXLIFT
 62
13
 10
5752.204
 20
-10007.747
 30
-393.000
 70
    32
  0
VERTEX
  8
E57LXLIFT
 62
13
 10
5741.573
 20
-10000.172
 30
-393.000
 70
    32
  0
VERTEX
  8
E57LXLIFT
 62
13
 10
5743.483
 20
-9969.685
 30
-393.000
 70
    32
  0
VERTEX
  8
E57LXLIFT
 62
13
 10
5740.948
 20
-9929.846
 30
-393.000
 70
    32
  0
VERTEX
  8
E57LXLIFT
 62
13
 10
5738.995
 20
-9918.682
 30
-393.000
 70
    32
  0
VERTEX
  8
E57LXLIFT
 62
13
 10
5743.031
 20
-9898.001
 30
-393.000
 70
    32
  0
VERTEX
  8
E57LXLIFT
 62
13
 10
5738.911
 20
-9889.067
 30
-393.000
 70
    32
  0
VERTEX
  8
E57LXLIFT
 62
13
 10
5743.217
 20
-9877.516
 30
-393.000
 70
    32
  0
VERTEX
  8
E57LXLIFT
 62
13
 10
5754.757
 20
-9864.823
 30
-393.000
 70
    32
  0
VERTEX
  8
E57LXLIFT
 62
13
 10
5761.114
 20
-9849.019
 30
-393.000
 70
    32
  0
VERTEX
  8
E57LXLIFT
 62
13
 10
5758.281
 20
-9826.641
 30
-393.000
 70
    32
  0
VERTEX
  8
E57LXLIFT
 62
13
 10
5753.667
 20
-9803.971
 30
-393.000
 70
    32
  0
SEQEND
  8
E57LXLIFT
  0
POLYLINE
  8
E57LXLIFT
 62
4
 66
     1
 70
     9
  0
VERTEX
  8
E57LXLIFT
 62
4
 10
5236.391
 20
-9128.897
 30
-398.000
 70
    32
  0
VERTEX
  8
E57LXLIFT
 62
4
 10
5227.024
 20
-9117.345
 30
-398.000
 70
    32
  0
VERTEX
  8
E57LXLIFT
 62
4
 10
5221.901
 20
-9105.962
 30
-398.000
 70
    32
  0
VERTEX
  8
E57LXLIFT
 62
4
 10
5215.758
 20
-9099.591
 30
-398.000
 70
    32
  0
VERTEX
  8
E57LXLIFT
 62
4
 10
5205.195
 20
-9101.746
 30
-398.000
 70
    32
  0
VERTEX
  8
E57LXLIFT
 62
4
 10
5197.624
 20
-9108.927
 30
-398.000
 70
    32
  0
VERTEX
  8
E57LXLIFT
 62
4
 10
5195.230
 20
-9116.334
 30
-398.000
 70
    32
  0
VERTEX
  8
E57LXLIFT
 62
4
 10
5195.709
 20
-9122.856
 30
-398.000
 70
    32
  0
VERTEX
  8
E57LXLIFT
 62
4
 10
5201.410
 20
-9130.236
 30
-398.000
 70
    32
  0
VERTEX
  8
E57LXLIFT
 62
4
 10
5208.990
 20
-9136.165
 30
-398.000
 70
    32
  0
VERTEX
  8
E57LXLIFT
 62
4
 10
5211.631
 20
-9142.462
 30
-398.000
 70
    32
  0
VERTEX
  8
E57LXLIFT
 62
4
 10
5216.461
 20
-9146.846
 30
-398.000
 70
    32
  0
VERTEX
  8
E57LXLIFT
 62
4
 10
5228.104
 20
-9140.188
 30
-398.000
 70
    32
  0
SEQEND
  8
E57LXLIFT
  0
POLYLINE
  8
E57LXLIFT
 62
2
 66
     1
 70
     9
  0
VERTEX
  8
E57LXLIFT
 62
2
 10
5197.729
 20
-9264.360
 30
-388.000
 70
    32
  0
VERTEX
  8
E57LXLIFT
 62
2
 10
5200.272
 20
-9253.836
 30
-388.000
 70
    32
  0
VERTEX
  8
E57LXLIFT
 62
2
 10
5195.747
 20
-9243.658
 30
-388.000
 70
    32
  0
VERTEX
  8
E57LXLIFT
 62
2
 10
5183.792
 20
-9233.217
 30
-388.000
 70
    32
  0
VERTEX
  8
E57LXLIFT
 62
2
 10
5176.167
 20
-9226.655
 30
-388.000
 70
    32
  0
VERTEX
  8
E57LXLIFT
 62
2
 10
5166.549
 20
-9209.740
 30
-388.000
 70
    32
  0
VERTEX
  8
E57LXLIFT
 62
2
 10
5153.823
 20
-9192.112
 30
-388.000
 70
    32
  0
VERTEX
  8
E57LXLIFT
 62
2
 10
5140.479
 20
-9165.624
 30
-388.000
 70
    32
  0
VERTEX
  8
E57LXLIFT
 62
2
 10
5137.890
 20
-9155.507
 30
-388.000
 70
    32
  0
VERTEX
  8
E57LXLIFT
 62
2
 10
5126.236
 20
-9129.047
 30
-388.000
 70
    32
  0
VERTEX
  8
E57LXLIFT
 62
2
 10
5116.435
 20
-9134.060
 30
-388.000
 70
    32
  0
VERTEX
  8
E57LXLIFT
 62
2
 10
5120.657
 20
-9156.366
 30
-388.000
 70
    32
  0
VERTEX
  8
E57LXLIFT
 62
2
 10
5131.839
 20
-9187.971
 30
-388.000
 70
    32
  0
VERTEX
  8
E57LXLIFT
 62
2
 10
5151.632
 20
-9223.817
 30
-388.000
 70
    32
  0
VERTEX
  8
E57LXLIFT
 62
2
 10
5174.429
 20
-9256.788
 30
-388.000
 70
    32
  0
VERTEX
  8
E57LXLIFT
 62
2
 10
5173.338
 20
-9266.746
 30
-388.000
 70
    32
  0
VERTEX
  8
E57LXLIFT
 62
2
 10
5180.183
 20
-9266.684
 30
-388.000
 70
    32
  0
SEQEND
  8
E57LXLIFT
  0
POLYLINE
  8
E57LXLIFT
 62
6
 66
     1
 70
     9
  0
VERTEX
  8
E57LXLIFT
 62
6
 10
5060.839
 20
-9264.149
 30
-400.000
 70
    32
  0
VERTEX
  8
E57LXLIFT
 62
6
 10
5068.799
 20
-9244.663
 30
-400.000
 70
    32
  0
VERTEX
  8
E57LXLIFT
 62
6
 10
5075.999
 20
-9239.880
 30
-400.000
 70
    32
  0
VERTEX
  8
E57LXLIFT
 62
6
 10
5078.115
 20
-9230.242
 30
-400.000
 70
    32
  0
VERTEX
  8
E57LXLIFT
 62
6
 10
5084.116
 20
-9221.605
 30
-400.000
 70
    32
  0
VERTEX
  8
E57LXLIFT
 62
6
 10
5080.773
 20
-9215.405
 30
-400.000
 70
    32
  0
VERTEX
  8
E57LXLIFT
 62
6
 10
5066.382
 20
-9215.627
 30
-400.000
 70
    32
  0
VERTEX
  8
E57LXLIFT
 62
6
 10
5067.805
 20
-9207.969
 30
-400.000
 70
    32
  0
VERTEX
  8
E57LXLIFT
 62
6
 10
5062.176
 20
-9193.197
 30
-400.000
 70
    32
  0
VERTEX
  8
E57LXLIFT
 62
6
 10
5048.248
 20
-9188.837
 30
-400.000
 70
    32
  0
VERTEX
  8
E57LXLIFT
 62
6
 10
5039.196
 20
-9195.828
 30
-400.000
 70
    32
  0
VERTEX
  8
E57LXLIFT
 62
6
 10
5040.079
 20
-9210.931
 30
-400.000
 70
    32
  0
VERTEX
  8
E57LXLIFT
 62
6
 10
5040.904
 20
-9224.522
 30
-400.000
 70
    32
  0
VERTEX
  8
E57LXLIFT
 62
6
 10
5039.188
 20
-9243.744
 30
-400.000
 70
    32
  0
VERTEX
  8
E57LXLIFT
 62
6
 10
5039.573
 20
-9259.787
 30
-400.000
 70
    32
  0
VERTEX
  8
E57LXLIFT
 62
6
 10
5042.948
 20
-9265.740
 30
-400.000
 70
    32
  0
SEQEND
  8
E57LXLIFT
  0
POLYLINE
  8
E57LXLIFT
 62
27
 66
     1
 70
     9
  0
VERTEX
  8
E57LXLIFT
 62
27
 10
4863.123
 20
-9382.506
 30
-393.000
 70
    32
  0
VERTEX
  8
E57LXLIFT
 62
27
 10
4857.111
 20
-9369.253
 30
-393.000
 70
    32
  0
VERTEX
  8
E57LXLIFT
 62
27
 10
4846.814
 20
-9354.194
 30
-393.000
 70
    32
  0
VERTEX
  8
E57LXLIFT
 62
27
 10
4838.460
 20
-9344.529
 30
-393.000
 70
    32
  0
VERTEX
  8
E57LXLIFT
 62
27
 10
4827.127
 20
-9339.498
 30
-393.000
 70
    32
  0
VERTEX
  8
E57LXLIFT
 62
27
 10
4826.000
 20
-9328.252
 30
-393.000
 70
    32
  0
VERTEX
  8
E57LXLIFT
 62
27
 10
4817.167
 20
-9318.399
 30
-393.000
 70
    32
  0
VERTEX
  8
E57LXLIFT
 62
27
 10
4817.935
 20
-9312.916
 30
-393.000
 70
    32
  0
VERTEX
  8
E57LXLIFT
 62
27
 10
4826.264
 20
-9309.595
 30
-393.000
 70
    32
  0
VERTEX
  8
E57LXLIFT
 62
27
 10
4839.225
 20
-9307.811
 30
-393.000
 70
    32
  0
VERTEX
  8
E57LXLIFT
 62
27
 10
4853.911
 20
-9304.805
 30
-393.000
 70
    32
  0
VERTEX
  8
E57LXLIFT
 62
27
 10
4863.433
 20
-9302.453
 30
-393.000
 70
    32
  0
VERTEX
  8
E57LXLIFT
 62
27
 10
4866.551
 20
-9308.937
 30
-393.000
 70
    32
  0
VERTEX
  8
E57LXLIFT
 62
27
 10
4874.911
 20
-9312.708
 30
-393.000
 70
    32
  0
VERTEX
  8
E57LXLIFT
 62
27
 10
4884.691
 20
-9313.713
 30
-393.000
 70
    32
  0
VERTEX
  8
E57LXLIFT
 62
27
 10
4890.382
 20
-9321.657
 30
-393.000
 70
    32
  0
VERTEX
  8
E57LXLIFT
 62
27
 10
4895.030
 20
-9334.296
 30
-393.000
 70
    32
  0
VERTEX
  8
E57LXLIFT
 62
27
 10
4896.798
 20
-9349.827
 30
-393.000
 70
    32
  0
VERTEX
  8
E57LXLIFT
 62
27
 10
4892.961
 20
-9359.683
 30
-393.000
 70
    32
  0
VERTEX
  8
E57LXLIFT
 62
27
 10
4880.288
 20
-9371.916
 30
-393.000
 70
    32
  0
SEQEND
  8
E57LXLIFT
  0
POLYLINE
  8
E57LXLIFT
 62
7
 66
     1
 70
     9
  0
VERTEX
  8
E57LXLIFT
 62
7
 10
5826.290
 20
-9860.327
 30
-392.000
 70
    32
  0
VERTEX
  8
E57LXLIFT
 62
7
 10
5837.364
 20
-9859.494
 30
-392.000
 70
    32
  0
VERTEX
  8
E57LXLIFT
 62
7
 10
5847.520
 20
-9858.036
 30
-392.000
 70
    32
  0
VERTEX
  8
E57LXLIFT
 62
7
 10
5856.204
 20
-9853.062
 30
-392.000
 70
    32
  0
VERTEX
  8
E57LXLIFT
 62
7
 10
5859.674
 20
-9844.005
 30
-392.000
 70
    32
  0
VERTEX
  8
E57LXLIFT
 62
7
 10
5852.013
 20
-9833.394
 30
-392.000
 70
    32
  0
VERTEX
  8
E57LXLIFT
 62
7
 10
5843.864
 20
-9829.233
 30
-392.000
 70
    32
  0
VERTEX
  8
E57LXLIFT
 62
7
 10
5836.057
 20
-9828.123
 30
-392.000
 70
    32
  0
VERTEX
  8
E57LXLIFT
 62
7
 10
5832.358
 20
-9837.024
 30
-392.000
 70
    32
  0
VERTEX
  8
E57LXLIFT
 62
7
 10
5829.174
 20
-9844.427
 30
-392.000
 70
    32
  0
VERTEX
  8
E57LXLIFT
 62
7
 10
5825.266
 20
-9847.411
 30
-392.000
 70
    32
  0
VERTEX
  8
E57LXLIFT
 62
7
 10
5820.500
 20
-9850.718
 30
-392.000
 70
    32
  0
SEQEND
  8
E57LXLIFT
  0
POLYLINE
  8
E57LXLIFT
 62
4
 66
     1
 70
     9
  0
VERTEX
  8
E57LXLIFT
 62
4
 10
5237.571
 20
-9142.721
 30
-388.000
 70
    32
  0
VERTEX
  8
E57LXLIFT
 62
4
 10
5220.862
 20
-9139.792
 30
-388.000
 70
    32
  0
VERTEX
  8
E57LXLIFT
 62
4
 10
5209.906
 20
-9136.006
 30
-388.000
 70
    32
  0
VERTEX
  8
E57LXLIFT
 62
4
 10
5200.073
 20
-9123.851
 30
-388.000
 70
    32
  0
VERTEX
  8
E57LXLIFT
 62
4
 10
5194.071
 20
-9106.008
 30
-388.000
 70
    32
  0
VERTEX
  8
E57LXLIFT
 62
4
 10
5194.151
 20
-9090.922
 30
-388.000
 70
    32
  0
VERTEX
  8
E57LXLIFT
 62
4
 10
5191.628
 20
-9079.371
 30
-388.000
 70
    32
  0
VERTEX
  8
E57LXLIFT
 62
4
 10
5191.061
 20
-9074.723
 30
-388.000
 70
    32
  0
VERTEX
  8
E57LXLIFT
 62
4
 10
5195.494
 20
-9071.558
 30
-388.000
 70
    32
  0
VERTEX
  8
E57LXLIFT
 62
4
 10
5207.943
 20
-9075.420
 30
-388.000
 70
    32
  0
VERTEX
  8
E57LXLIFT
 62
4
 10
5212.055
 20
-9085.868
 30
-388.000
 70
    32
  0
VERTEX
  8
E57LXLIFT
 62
4
 10
5228.489
 20
-9087.570
 30
-388.000
 70
    32
  0
VERTEX
  8
E57LXLIFT
 62
4
 10
5234.579
 20
-9097.281
 30
-388.000
 70
    32
  0
VERTEX
  8
E57LXLIFT
 62
4
 10
5236.700
 20
-9109.029
 30
-388.000
 70
    32
  0
VERTEX
  8
E57LXLIFT
 62
4
 10
5236.139
 20
-9125.366
 30
-388.000
 70
    32
  0
SEQEND
  8
E57LXLIFT
  0
POLYLINE
  8
E57LXLIFT
 62
6
 66
     1
 70
     9
  0
VERTEX
  8
E57LXLIFT
 62
6
 10
5080.957
 20
-9223.644
 30
-389.000
 70
    32
  0
VERTEX
  8
E57LXLIFT
 62
6
 10
5073.711
 20
-9230.502
 30
-389.000
 70
    32
  0
VERTEX
  8
E57LXLIFT
 62
6
 10
5063.859
 20
-9238.578
 30
-389.000
 70
    32
  0
VERTEX
  8
E57LXLIFT
 62
6
 10
5057.284
 20
-9247.907
 30
-389.000
 70
    32
  0
VERTEX
  8
E57LXLIFT
 62
6
 10
5055.832
 20
-9258.737
 30
-389.000
 70
    32
  0
VERTEX
  8
E57LXLIFT
 62
6
 10
5051.156
 20
-9268.384
 30
-389.000
 70
    32
  0
VERTEX
  8
E57LXLIFT
 62
6
 10
5041.473
 20
-9275.667
 30
-389.000
 70
    32
  0
VERTEX
  8
E57LXLIFT
 62
6
 10
5032.539
 20
-9278.291
 30
-389.000
 70
    32
  0
VERTEX
  8
E57LXLIFT
 62
6
 10
5025.431
 20
-9270.573
 30
-389.000
 70
    32
  0
VERTEX
  8
E57LXLIFT
 62
6
 10
5020.757
 20
-9260.111
 30
-389.000
 70
    32
  0
VERTEX
  8
E57LXLIFT
 62
6
 10
5018.282
 20
-9250.070
 30
-389.000
 70
    32
  0
VERTEX
  8
E57LXLIFT
 62
6
 10
5011.960
 20
-9237.885
 30
-389.000
 70
    32
  0
VERTEX
  8
E57LXLIFT
 62
6
 10
5009.284
 20
-9227.003
 30
-389.000
 70
    32
  0
VERTEX
  8
E57LXLIFT
 62
6
 10
5010.723
 20
-9216.734
 30
-389.000
 70
    32
  0
VERTEX
  8
E57LXLIFT
 62
6
 10
5018.698
 20
-9206.779
 30
-389.000
 70
    32
  0
VERTEX
  8
E57LXLIFT
 62
6
 10
5029.375
 20
-9198.626
 30
-389.000
 70
    32
  0
VERTEX
  8
E57LXLIFT
 62
6
 10
5042.249
 20
-9192.772
 30
-389.000
 70
    32
  0
VERTEX
  8
E57LXLIFT
 62
6
 10
5047.685
 20
-9193.814
 30
-389.000
 70
    32
  0
VERTEX
  8
E57LXLIFT
 62
6
 10
5056.690
 20
-9205.607
 30
-389.000
 70
    32
  0
VERTEX
  8
E57LXLIFT
 62
6
 10
5061.960
 20
-9213.956
 30
-389.000
 70
    32
  0
VERTEX
  8
E57LXLIFT
 62
6
 10
5070.471
 20
-9217.289
 30
-389.000
 70
    32
  0
VERTEX
  8
E57LXLIFT
 62
6
 10
5076.281
 20
-9216.941
 30
-389.000
 70
    32
  0
SEQEND
  8
E57LXLIFT
  0
POLYLINE
  8
E57LXLIFT
 62
27
 66
     1
 70
     9
  0
VERTEX
  8
E57LXLIFT
 62
27
 10
4812.887
 20
-9319.192
 30
-383.000
 70
    32
  0
VERTEX
  8
E57LXLIFT
 62
27
 10
4826.988
 20
-9337.369
 30
-383.000
 70
    32
  0
VERTEX
  8
E57LXLIFT
 62
27
 10
4835.154
 20
-9345.605
 30
-383.000
 70
    32
  0
VERTEX
  8
E57LXLIFT
 62
27
 10
4840.213
 20
-9351.795
 30
-383.000
 70
    32
  0
VERTEX
  8
E57LXLIFT
 62
27
 10
4845.475
 20
-9365.342
 30
-383.000
 70
    32
  0
VERTEX
  8
E57LXLIFT
 62
27
 10
4853.685
 20
-9376.528
 30
-383.000
 70
    32
  0
VERTEX
  8
E57LXLIFT
 62
27
 10
4851.128
 20
-9383.451
 30
-383.000
 70
    32
  0
VERTEX
  8
E57LXLIFT
 62
27
 10
4856.867
 20
-9391.111
 30
-383.000
 70
    32
  0
VERTEX
  8
E57LXLIFT
 62
27
 10
4868.691
 20
-9379.541
 30
-383.000
 70
    32
  0
VERTEX
  8
E57LXLIFT
 62
27
 10
4879.075
 20
-9367.967
 30
-383.000
 70
    32
  0
VERTEX
  8
E57LXLIFT
 62
27
 10
4885.351
 20
-9358.535
 30
-383.000
 70
    32
  0
VERTEX
  8
E57LXLIFT
 62
27
 10
4887.514
 20
-9344.731
 30
-383.000
 70
    32
  0
VERTEX
  8
E57LXLIFT
 62
27
 10
4883.437
 20
-9332.157
 30
-383.000
 70
    32
  0
VERTEX
  8
E57LXLIFT
 62
27
 10
4885.805
 20
-9319.633
 30
-383.000
 70
    32
  0
VERTEX
  8
E57LXLIFT
 62
27
 10
4880.753
 20
-9310.123
 30
-383.000
 70
    32
  0
VERTEX
  8
E57LXLIFT
 62
27
 10
4874.432
 20
-9302.135
 30
-383.000
 70
    32
  0
VERTEX
  8
E57LXLIFT
 62
27
 10
4862.139
 20
-9298.044
 30
-383.000
 70
    32
  0
VERTEX
  8
E57LXLIFT
 62
27
 10
4850.971
 20
-9298.176
 30
-383.000
 70
    32
  0
VERTEX
  8
E57LXLIFT
 62
27
 10
4838.297
 20
-9304.871
 30
-383.000
 70
    32
  0
VERTEX
  8
E57LXLIFT
 62
27
 10
4828.434
 20
-9311.629
 30
-383.000
 70
    32
  0
VERTEX
  8
E57LXLIFT
 62
27
 10
4824.019
 20
-9316.988
 30
-383.000
 70
    32
  0
VERTEX
  8
E57LXLIFT
 62
27
 10
4818.437
 20
-9315.175
 30
-383.000
 70
    32
  0
SEQEND
  8
E57LXLIFT
  0
POLYLINE
  8
E57LXLIFT
 62
7
 66
     1
 70
     9
  0
VERTEX
  8
E57LXLIFT
 62
7
 10
5823.371
 20
-9858.397
 30
-382.000
 70
    32
  0
VERTEX
  8
E57LXLIFT
 62
7
 10
5832.984
 20
-9863.421
 30
-382.000
 70
    32
  0
VERTEX
  8
E57LXLIFT
 62
7
 10
5843.218
 20
-9859.444
 30
-382.000
 70
    32
  0
VERTEX
  8
E57LXLIFT
 62
7
 10
5857.412
 20
-9849.660
 30
-382.000
 70
    32
  0
VERTEX
  8
E57LXLIFT
 62
7
 10
5861.272
 20
-9842.713
 30
-382.000
 70
    32
  0
VERTEX
  8
E57LXLIFT
 62
7
 10
5853.173
 20
-9829.994
 30
-382.000
 70
    32
  0
VERTEX
  8
E57LXLIFT
 62
7
 10
5843.346
 20
-9816.609
 30
-382.000
 70
    32
  0
VERTEX
  8
E57LXLIFT
 62
7
 10
5840.272
 20
-9811.881
 30
-382.000
 70
    32
  0
VERTEX
  8
E57LXLIFT
 62
7
 10
5832.945
 20
-9816.618
 30
-382.000
 70
    32
  0
VERTEX
  8
E57LXLIFT
 62
7
 10
5827.855
 20
-9826.723
 30
-382.000
 70
    32
  0
VERTEX
  8
E57LXLIFT
 62
7
 10
5824.015
 20
-9840.188
 30
-382.000
 70
    32
  0
SEQEND
  8
E57LXLIFT
  0
POLYLINE
  8
E57LXLIFT
 62
4
 66
     1
 70
     9
  0
VERTEX
  8
E57LXLIFT
 62
4
 10
5195.039
 20
-9078.873
 30
-377.000
 70
    32
  0
VERTEX
  8
E57LXLIFT
 62
4
 10
5197.941
 20
-9092.036
 30
-377.000
 70
    32
  0
VERTEX
  8
E57LXLIFT
 62
4
 10
5198.967
 20
-9098.999
 30
-377.000
 70
    32
  0
VERTEX
  8
E57LXLIFT
 62
4
 10
5195.269
 20
-9104.715
 30
-377.000
 70
    32
  0
VERTEX
  8
E57LXLIFT
 62
4
 10
5201.414
 20
-9112.290
 30
-377.000
 70
    32
  0
VERTEX
  8
E57LXLIFT
 62
4
 10
5201.661
 20
-9120.404
 30
-377.000
 70
    32
  0
VERTEX
  8
E57LXLIFT
 62
4
 10
5210.832
 20
-9131.636
 30
-377.000
 70
    32
  0
VERTEX
  8
E57LXLIFT
 62
4
 10
5219.051
 20
-9137.730
 30
-377.000
 70
    32
  0
VERTEX
  8
E57LXLIFT
 62
4
 10
5220.444
 20
-9146.183
 30
-377.000
 70
    32
  0
VERTEX
  8
E57LXLIFT
 62
4
 10
5226.818
 20
-9153.914
 30
-377.000
 70
    32
  0
VERTEX
  8
E57LXLIFT
 62
4
 10
5231.928
 20
-9153.647
 30
-377.000
 70
    32
  0
VERTEX
  8
E57LXLIFT
 62
4
 10
5237.080
 20
-9154.012
 30
-377.000
 70
    32
  0
VERTEX
  8
E57LXLIFT
 62
4
 10
5235.974
 20
-9142.903
 30
-377.000
 70
    32
  0
VERTEX
  8
E57LXLIFT
 62
4
 10
5238.563
 20
-9132.280
 30
-377.000
 70
    32
  0
VERTEX
  8
E57LXLIFT
 62
4
 10
5235.340
 20
-9118.700
 30
-377.000
 70
    32
  0
VERTEX
  8
E57LXLIFT
 62
4
 10
5230.797
 20
-9106.574
 30
-377.000
 70
    32
  0
VERTEX
  8
E57LXLIFT
 62
4
 10
5235.708
 20
-9097.824
 30
-377.000
 70
    32
  0
VERTEX
  8
E57LXLIFT
 62
4
 10
5231.661
 20
-9087.643
 30
-377.000
 70
    32
  0
VERTEX
  8
E57LXLIFT
 62
4
 10
5228.433
 20
-9086.466
 30
-377.000
 70
    32
  0
VERTEX
  8
E57LXLIFT
 62
4
 10
5225.072
 20
-9089.156
 30
-377.000
 70
    32
  0
VERTEX
  8
E57LXLIFT
 62
4
 10
5211.476
 20
-9082.980
 30
-377.000
 70
    32
  0
VERTEX
  8
E57LXLIFT
 62
4
 10
5209.715
 20
-9077.799
 30
-377.000
 70
    32
  0
VERTEX
  8
E57LXLIFT
 62
4
 10
5204.322
 20
-9077.840
 30
-377.000
 70
    32
  0
SEQEND
  8
E57LXLIFT
  0
POLYLINE
  8
E57LXLIFT
 62
6
 66
     1
 70
     9
  0
VERTEX
  8
E57LXLIFT
 62
6
 10
4998.377
 20
-9191.679
 30
-379.000
 70
    32
  0
VERTEX
  8
E57LXLIFT
 62
6
 10
4997.992
 20
-9195.075
 30
-379.000
 70
    32
  0
VERTEX
  8
E57LXLIFT
 62
6
 10
5005.208
 20
-9202.603
 30
-379.000
 70
    32
  0
VERTEX
  8
E57LXLIFT
 62
6
 10
5003.997
 20
-9207.518
 30
-379.000
 70
    32
  0
VERTEX
  8
E57LXLIFT
 62
6
 10
5010.162
 20
-9215.409
 30
-379.000
 70
    32
  0
VERTEX
  8
E57LXLIFT
 62
6
 10
5017.804
 20
-9224.936
 30
-379.000
 70
    32
  0
VERTEX
  8
E57LXLIFT
 62
6
 10
5020.194
 20
-9228.195
 30
-379.000
 70
    32
  0
VERTEX
  8
E57LXLIFT
 62
6
 10
5015.602
 20
-9234.043
 30
-379.000
 70
    32
  0
VERTEX
  8
E57LXLIFT
 62
6
 10
5020.842
 20
-9245.634
 30
-379.000
 70
    32
  0
VERTEX
  8
E57LXLIFT
 62
6
 10
5023.380
 20
-9259.187
 30
-379.000
 70
    32
  0
VERTEX
  8
E57LXLIFT
 62
6
 10
5030.129
 20
-9267.406
 30
-379.000
 70
    32
  0
VERTEX
  8
E57LXLIFT
 62
6
 10
5036.283
 20
-9258.255
 30
-379.000
 70
    32
  0
VERTEX
  8
E57LXLIFT
 62
6
 10
5040.295
 20
-9249.198
 30
-379.000
 70
    32
  0
VERTEX
  8
E57LXLIFT
 62
6
 10
5038.503
 20
-9242.823
 30
-379.000
 70
    32
  0
VERTEX
  8
E57LXLIFT
 62
6
 10
5048.110
 20
-9239.326
 30
-379.000
 70
    32
  0
VERTEX
  8
E57LXLIFT
 62
6
 10
5058.298
 20
-9234.278
 30
-379.000
 70
    32
  0
VERTEX
  8
E57LXLIFT
 62
6
 10
5068.343
 20
-9227.456
 30
-379.000
 70
    32
  0
VERTEX
  8
E57LXLIFT
 62
6
 10
5075.610
 20
-9223.652
 30
-379.000
 70
    32
  0
VERTEX
  8
E57LXLIFT
 62
6
 10
5075.636
 20
-9219.646
 30
-379.000
 70
    32
  0
VERTEX
  8
E57LXLIFT
 62
6
 10
5066.751
 20
-9220.042
 30
-379.000
 70
    32
  0
VERTEX
  8
E57LXLIFT
 62
6
 10
5057.897
 20
-9220.192
 30
-379.000
 70
    32
  0
VERTEX
  8
E57LXLIFT
 62
6
 10
5048.190
 20
-9217.786
 30
-379.000
 70
    32
  0
VERTEX
  8
E57LXLIFT
 62
6
 10
5036.191
 20
-9211.382
 30
-379.000
 70
    32
  0
VERTEX
  8
E57LXLIFT
 62
6
 10
5028.836
 20
-9203.960
 30
-379.000
 70
    32
  0
VERTEX
  8
E57LXLIFT
 62
6
 10
5026.255
 20
-9194.536
 30
-379.000
 70
    32
  0
VERTEX
  8
E57LXLIFT
 62
6
 10
5023.664
 20
-9188.995
 30
-379.000
 70
    32
  0
VERTEX
  8
E57LXLIFT
 62
6
 10
5014.055
 20
-9185.850
 30
-379.000
 70
    32
  0
VERTEX
  8
E57LXLIFT
 62
6
 10
5006.963
 20
-9186.420
 30
-379.000
 70
    32
  0
SEQEND
  8
E57LXLIFT
  0
POLYLINE
  8
E57LXLIFT
 62
27
 66
     1
 70
     9
  0
VERTEX
  8
E57LXLIFT
 62
27
 10
4868.295
 20
-9297.466
 30
-375.000
 70
    32
  0
VERTEX
  8
E57LXLIFT
 62
27
 10
4852.989
 20
-9297.142
 30
-375.000
 70
    32
  0
VERTEX
  8
E57LXLIFT
 62
27
 10
4842.051
 20
-9297.895
 30
-375.000
 70
    32
  0
VERTEX
  8
E57LXLIFT
 62
27
 10
4832.676
 20
-9304.867
 30
-375.000
 70
    32
  0
VERTEX
  8
E57LXLIFT
 62
27
 10
4824.586
 20
-9315.392
 30
-375.000
 70
    32
  0
VERTEX
  8
E57LXLIFT
 62
27
 10
4818.361
 20
-9326.036
 30
-375.000
 70
    32
  0
VERTEX
  8
E57LXLIFT
 62
27
 10
4818.317
 20
-9334.927
 30
-375.000
 70
    32
  0
VERTEX
  8
E57LXLIFT
 62
27
 10
4828.766
 20
-9344.071
 30
-375.000
 70
    32
  0
VERTEX
  8
E57LXLIFT
 62
27
 10
4842.375
 20
-9353.005
 30
-375.000
 70
    32
  0
VERTEX
  8
E57LXLIFT
 62
27
 10
4851.664
 20
-9363.814
 30
-375.000
 70
    32
  0
VERTEX
  8
E57LXLIFT
 62
27
 10
4860.528
 20
-9380.706
 30
-375.000
 70
    32
  0
VERTEX
  8
E57LXLIFT
 62
27
 10
4871.959
 20
-9375.257
 30
-375.000
 70
    32
  0
VERTEX
  8
E57LXLIFT
 62
27
 10
4876.822
 20
-9374.958
 30
-375.000
 70
    32
  0
VERTEX
  8
E57LXLIFT
 62
27
 10
4884.680
 20
-9365.718
 30
-375.000
 70
    32
  0
VERTEX
  8
E57LXLIFT
 62
27
 10
4887.499
 20
-9355.251
 30
-375.000
 70
    32
  0
VERTEX
  8
E57LXLIFT
 62
27
 10
4884.180
 20
-9345.730
 30
-375.000
 70
    32
  0
VERTEX
  8
E57LXLIFT
 62
27
 10
4881.599
 20
-9336.306
 30
-375.000
 70
    32
  0
VERTEX
  8
E57LXLIFT
 62
27
 10
4882.014
 20
-9321.263
 30
-375.000
 70
    32
  0
VERTEX
  8
E57LXLIFT
 62
27
 10
4882.704
 20
-9308.886
 30
-375.000
 70
    32
  0
SEQEND
  8
E57LXLIFT
  0
POLYLINE
  8
E57LXLIFT
 62
1
 66
     1
 70
     9
  0
VERTEX
  8
E57LXLIFT
 62
1
 10
4884.704
 20
-9306.886
 30
-365.000
 70
    32
  0
VERTEX
  8
E57LXLIFT
 62
1
 10
4884.014
 20
-9319.263
 30
-365.000
 70
    32
  0
VERTEX
  8
E57LXLIFT
 62
1
 10
4883.599
 20
-9334.306
 30
-365.000
 70
    32
  0
VERTEX
  8
E57LXLIFT
 62
1
 10
4886.180
 20
-9343.730
 30
-365.000
 70
    32
  0
VERTEX
  8
E57LXLIFT
 62
1
 10
4889.499
 20
-9353.251
 30
-365.000
 70
    32
  0
VERTEX
  8
E57LXLIFT
 62
1
 10
4886.680
 20
-9363.718
 30
-365.000
 70
    32
  0
VERTEX
  8
E57LXLIFT
 62
1
 10
4878.822
 20
-9372.958
 30
-365.000
 70
    32
  0
VERTEX
  8
E57LXLIFT
 62
1
 10
4873.959
 20
-9373.257
 30
-365.000
 70
    32
  0
VERTEX
  8
E57LXLIFT
 62
1
 10
4862.528
 20
-9378.706
 30
-365.000
 70
    32
  0
VERTEX
  8
E57LXLIFT
 62
1
 10
4853.664
 20
-9361.814
 30
-365.000
 70
    32
  0
VERTEX
  8
E57LXLIFT
 62
1
 10
4844.375
 20
-9351.005
 30
-365.000
 70
    32
  0
VERTEX
  8
E57LXLIFT
 62
1
 10
4830.766
 20
-9342.071
 30
-365.000
 70
    32
  0
VERTEX
  8
E57LXLIFT
 62
1
 10
4820.317
 20
-9332.927
 30
-365.000
 70
    32
  0
VERTEX
  8
E57LXLIFT
 62
1
 10
4820.361
 20
-9324.036
 30
-365.000
 70
    32
  0
VERTEX
  8
E57LXLIFT
 62
1
 10
4826.586
 20
-9313.392
 30
-365.000
 70
    32
  0
VERTEX
  8
E57LXLIFT
 62
1
 10
4834.676
 20
-9302.867
 30
-365.000
 70
    32
  0
VERTEX
  8
E57LXLIFT
 62
1
 10
4844.051
 20
-9295.895
 30
-365.000
 70
    32
  0
VERTEX
  8
E57LXLIFT
 62
1
 10
4854.989
 20
-9295.142
 30
-365.000
 70
    32
  0
VERTEX
  8
E57LXLIFT
 62
1
 10
4870.295
 20
-9295.466
 30
-365.000
 70
    32
  0
SEQEND
  8
E57LXLIFT
  0
POLYLINE
  8
E57LXLIFT
 62
1
 66
     1
 70
     9
  0
VERTEX
  8
E57LXLIFT
 62
1
 10
5008.963
 20
-9184.420
 30
-369.000
 70
    32
  0
VERTEX
  8
E57LXLIFT
 62
1
 10
5016.055
 20
-9183.850
 30
-369.000
 70
    32
  0
VERTEX
  8
E57LXLIFT
 62
1
 10
5025.664
 20
-9186.995
 30
-369.000
 70
    32
  0
VERTEX
  8
E57LXLIFT
 62
1
 10
5028.255
 20
-9192.536
 30
-369.000
 70
    32
  0
VERTEX
  8
E57LXLIFT
 62
1
 10
5030.836
 20
-9201.960
 30
-369.000
 70
    32
  0
VERTEX
  8
E57LXLIFT
 62
1
 10
5038.191
 20
-9209.382
 30
-369.000
 70
    32
  0
VERTEX
  8
E57LXLIFT
 62
1
 10
5050.190
 20
-9215.786
 30
-369.000
 70
    32
  0
VERTEX
  8
E57LXLIFT
 62
1
 10
5059.897
 20
-9218.192
 30
-369.000
 70
    32
  0
VERTEX
  8
E57LXLIFT
 62
1
 10
5068.751
 20
-9218.042
 30
-369.000
 70
    32
  0
VERTEX
  8
E57LXLIFT
 62
1
 10
5077.636
 20
-9217.646
 30
-369.000
 70
    32
  0
VERTEX
  8
E57LXLIFT
 62
1
 10
5077.610
 20
-9221.652
 30
-369.000
 70
    32
  0
VERTEX
  8
E57LXLIFT
 62
1
 10
5070.343
 20
-9225.456
 30
-369.000
 70
    32
  0
VERTEX
  8
E57LXLIFT
 62
1
 10
5060.298
 20
-9232.278
 30
-369.000
 70
    32
  0
VERTEX
  8
E57LXLIFT
 62
1
 10
5050.110
 20
-9237.326
 30
-369.000
 70
    32
  0
VERTEX
  8
E57LXLIFT
 62
1
 10
5040.503
 20
-9240.823
 30
-369.000
 70
    32
  0
VERTEX
  8
E57LXLIFT
 62
1
 10
5042.295
 20
-9247.198
 30
-369.000
 70
    32
  0
VERTEX
  8
E57LXLIFT
 62
1
 10
5038.283
 20
-9256.255
 30
-369.000
 70
    32
  0
VERTEX
  8
E57LXLIFT
 62
1
 10
5032.129
 20
-9265.406
 30
-369.000
 70
    32
  0
VERTEX
  8
E57LXLIFT
 62
1
 10
5025.380
 20
-9257.187
 30
-369.000
 70
    32
  0
VERTEX
  8
E57LXLIFT
 62
1
 10
5022.842
 20
-9243.634
 30
-369.000
 70
    32
  0
VERTEX
  8
E57LXLIFT
 62
1
 10
5017.602
 20
-9232.043
 30
-369.000
 70
    32
  0
VERTEX
  8
E57LXLIFT
 62
1
 10
5022.194
 20
-9226.195
 30
-369.000
 70
    32
  0
VERTEX
  8
E57LXLIFT
 62
1
 10
5019.804
 20
-9222.936
 30
-369.000
 70
    32
  0
VERTEX
  8
E57LXLIFT
 62
1
 10
5012.162
 20
-9213.409
 30
-369.000
 70
    32
  0
VERTEX
  8
E57LXLIFT
 62
1
 10
5005.997
 20
-9205.518
 30
-369.000
 70
    32
  0
VERTEX
  8
E57LXLIFT
 62
1
 10
5007.208
 20
-9200.603
 30
-369.000
 70
    32
  0
VERTEX
  8
E57LXLIFT
 62
1
 10
4999.992
 20
-9193.075
 30
-369.000
 70
    32
  0
VERTEX
  8
E57LXLIFT
 62
1
 10
5000.377
 20
-9189.679
 30
-369.000
 70
    32
  0
SEQEND
  8
E57LXLIFT
  0
POLYLINE
  8
E57LXLIFT
 62
1
 66
     1
 70
     9
  0
VERTEX
  8
E57LXLIFT
 62
1
 10
5099.188
 20
-9386.985
 30
-417.000
 70
    32
  0
VERTEX
  8
E57LXLIFT
 62
1
 10
5092.852
 20
-9377.359
 30
-417.000
 70
    32
  0
VERTEX
  8
E57LXLIFT
 62
1
 10
5089.715
 20
-9361.167
 30
-417.000
 70
    32
  0
VERTEX
  8
E57LXLIFT
 62
1
 10
5090.213
 20
-9345.433
 30
-417.000
 70
    32
  0
VERTEX
  8
E57LXLIFT
 62
1
 10
5085.161
 20
-9329.469
 30
-417.000
 70
    32
  0
VERTEX
  8
E57LXLIFT
 62
1
 10
5081.605
 20
-9307.886
 30
-417.000
 70
    32
  0
VERTEX
  8
E57LXLIFT
 62
1
 10
5082.366
 20
-9292.064
 30
-417.000
 70
    32
  0
VERTEX
  8
E57LXLIFT
 62
1
 10
5084.198
 20
-9277.086
 30
-417.000
 70
    32
  0
VERTEX
  8
E57LXLIFT
 62
1
 10
5092.175
 20
-9264.744
 30
-417.000
 70
    32
  0
VERTEX
  8
E57LXLIFT
 62
1
 10
5103.190
 20
-9254.844
 30
-417.000
 70
    32
  0
VERTEX
  8
E57LXLIFT
 62
1
 10
5113.676
 20
-9248.192
 30
-417.000
 70
    32
  0
VERTEX
  8
E57LXLIFT
 62
1
 10
5123.669
 20
-9244.544
 30
-417.000
 70
    32
  0
VERTEX
  8
E57LXLIFT
 62
1
 10
5132.360
 20
-9249.113
 30
-417.000
 70
    32
  0
VERTEX
  8
E57LXLIFT
 62
1
 10
5140.749
 20
-9261.040
 30
-417.000
 70
    32
  0
VERTEX
  8
E57LXLIFT
 62
1
 10
5150.752
 20
-9279.658
 30
-417.000
 70
    32
  0
VERTEX
  8
E57LXLIFT
 62
1
 10
5158.032
 20
-9297.133
 30
-417.000
 70
    32
  0
VERTEX
  8
E57LXLIFT
 62
1
 10
5158.870
 20
-9310.111
 30
-417.000
 70
    32
  0
VERTEX
  8
E57LXLIFT
 62
1
 10
5158.180
 20
-9325.002
 30
-417.000
 70
    32
  0
VERTEX
  8
E57LXLIFT
 62
1
 10
5153.521
 20
-9338.697
 30
-417.000
 70
    32
  0
VERTEX
  8
E57LXLIFT
 62
1
 10
5152.146
 20
-9350.919
 30
-417.000
 70
    32
  0
VERTEX
  8
E57LXLIFT
 62
1
 10
5155.424
 20
-9367.444
 30
-417.000
 70
    32
  0
VERTEX
  8
E57LXLIFT
 62
1
 10
5155.875
 20
-9381.809
 30
-417.000
 70
    32
  0
VERTEX
  8
E57LXLIFT
 62
1
 10
5150.534
 20
-9389.323
 30
-417.000
 70
    32
  0
VERTEX
  8
E57LXLIFT
 62
1
 10
5144.230
 20
-9388.671
 30
-417.000
 70
    32
  0
VERTEX
  8
E57LXLIFT
 62
1
 10
5131.409
 20
-9393.231
 30
-417.000
 70
    32
  0
SEQEND
  8
E57LXLIFT
  0
POLYLINE
  8
E57LXLIFT
 62
1
 66
     1
 70
     9
  0
VERTEX
  8
E57LXLIFT
 62
1
 10
5182.183
 20
-9264.684
 30
-378.000
 70
    32
  0
VERTEX
  8
E57LXLIFT
 62
1
 10
5175.338
 20
-9264.746
 30
-378.000
 70
    32
  0
VERTEX
  8
E57LXLIFT
 62
1
 10
5176.429
 20
-9254.788
 30
-378.000
 70
    32
  0
VERTEX
  8
E57LXLIFT
 62
1
 10
5153.632
 20
-9221.817
 30
-378.000
 70
    32
  0
VERTEX
  8
E57LXLIFT
 62
1
 10
5133.839
 20
-9185.971
 30
-378.000
 70
    32
  0
VERTEX
  8
E57LXLIFT
 62
1
 10
5122.657
 20
-9154.366
 30
-378.000
 70
    32
  0
VERTEX
  8
E57LXLIFT
 62
1
 10
5118.435
 20
-9132.060
 30
-378.000
 70
    32
  0
VERTEX
  8
E57LXLIFT
 62
1
 10
5128.236
 20
-9127.047
 30
-378.000
 70
    32
  0
VERTEX
  8
E57LXLIFT
 62
1
 10
5139.890
 20
-9153.507
 30
-378.000
 70
    32
  0
VERTEX
  8
E57LXLIFT
 62
1
 10
5142.479
 20
-9163.624
 30
-378.000
 70
    32
  0
VERTEX
  8
E57LXLIFT
 62
1
 10
5155.823
 20
-9190.112
 30
-378.000
 70
    32
  0
VERTEX
  8
E57LXLIFT
 62
1
 10
5168.549
 20
-9207.740
 30
-378.000
 70
    32
  0
VERTEX
  8
E57LXLIFT
 62
1
 10
5178.167
 20
-9224.655
 30
-378.000
 70
    32
  0
VERTEX
  8
E57LXLIFT
 62
1
 10
5185.792
 20
-9231.217
 30
-378.000
 70
    32
  0
VERTEX
  8
E57LXLIFT
 62
1
 10
5197.747
 20
-9241.658
 30
-378.000
 70
    32
  0
VERTEX
  8
E57LXLIFT
 62
1
 10
5202.272
 20
-9251.836
 30
-378.000
 70
    32
  0
VERTEX
  8
E57LXLIFT
 62
1
 10
5199.729
 20
-9262.360
 30
-378.000
 70
    32
  0
SEQEND
  8
E57LXLIFT
  0
POLYLINE
  8
E57LXLIFT
 62
1
 66
     1
 70
     9
  0
VERTEX
  8
E57LXLIFT
 62
1
 10
5206.322
 20
-9075.840
 30
-367.000
 70
    32
  0
VERTEX
  8
E57LXLIFT
 62
1
 10
5211.715
 20
-9075.799
 30
-367.000
 70
    32
  0
VERTEX
  8
E57LXLIFT
 62
1
 10
5213.476
 20
-9080.980
 30
-367.000
 70
    32
  0
VERTEX
  8
E57LXLIFT
 62
1
 10
5227.072
 20
-9087.156
 30
-367.000
 70
    32
  0
VERTEX
  8
E57LXLIFT
 62
1
 10
5230.433
 20
-9084.466
 30
-367.000
 70
    32
  0
VERTEX
  8
E57LXLIFT
 62
1
 10
5233.661
 20
-9085.643
 30
-367.000
 70
    32
  0
VERTEX
  8
E57LXLIFT
 62
1
 10
5237.708
 20
-9095.824
 30
-367.000
 70
    32
  0
VERTEX
  8
E57LXLIFT
 62
1
 10
5232.797
 20
-9104.574
 30
-367.000
 70
    32
  0
VERTEX
  8
E57LXLIFT
 62
1
 10
5237.340
 20
-9116.700
 30
-367.000
 70
    32
  0
VERTEX
  8
E57LXLIFT
 62
1
 10
5240.563
 20
-9130.280
 30
-367.000
 70
    32
  0
VERTEX
  8
E57LXLIFT
 62
1
 10
5237.974
 20
-9140.903
 30
-367.000
 70
    32
  0
VERTEX
  8
E57LXLIFT
 62
1
 10
5239.080
 20
-9152.012
 30
-367.000
 70
    32
  0
VERTEX
  8
E57LXLIFT
 62
1
 10
5233.928
 20
-9151.647
 30
-367.000
 70
    32
  0
VERTEX
  8
E57LXLIFT
 62
1
 10
5228.818
 20
-9151.914
 30
-367.000
 70
    32
  0
VERTEX
  8
E57LXLIFT
 62
1
 10
5222.444
 20
-9144.183
 30
-367.000
 70
    32
  0
VERTEX
  8
E57LXLIFT
 62
1
 10
5221.051
 20
-9135.730
 30
-367.000
 70
    32
  0
VERTEX
  8
E57LXLIFT
 62
1
 10
5212.832
 20
-9129.636
 30
-367.000
 70
    32
  0
VERTEX
  8
E57LXLIFT
 62
1
 10
5203.661
 20
-9118.404
 30
-367.000
 70
    32
  0
VERTEX
  8
E57LXLIFT
 62
1
 10
5203.414
 20
-9110.290
 30
-367.000
 70
    32
  0
VERTEX
  8
E57LXLIFT
 62
1
 10
5197.269
 20
-9102.715
 30
-367.000
 70
    32
  0
VERTEX
  8
E57LXLIFT
 62
1
 10
5200.967
 20
-9096.999
 30
-367.000
 70
    32
  0
VERTEX
  8
E57LXLIFT
 62
1
 10
5199.941
 20
-9090.036
 30
-367.000
 70
    32
  0
VERTEX
  8
E57LXLIFT
 62
1
 10
5197.039
 20
-9076.873
 30
-367.000
 70
    32
  0
SEQEND
  8
E57LXLIFT
  0
POLYLINE
  8
E57LXLIFT
 62
1
 66
     1
 70
     9
  0
VERTEX
  8
E57LXLIFT
 62
1
 10
5290.857
 20
-9334.643
 30
-463.000
 70
    32
  0
VERTEX
  8
E57LXLIFT
 62
1
 10
5280.314
 20
-9347.150
 30
-463.000
 70
    32
  0
VERTEX
  8
E57LXLIFT
 62
1
 10
5272.691
 20
-9348.526
 30
-463.000
 70
    32
  0
VERTEX
  8
E57LXLIFT
 62
1
 10
5261.952
 20
-9342.144
 30
-463.000
 70
    32
  0
VERTEX
  8
E57LXLIFT
 62
1
 10
5255.055
 20
-9334.451
 30
-463.000
 70
    32
  0
VERTEX
  8
E57LXLIFT
 62
1
 10
5244.124
 20
-9316.726
 30
-463.000
 70
    32
  0
VERTEX
  8
E57LXLIFT
 62
1
 10
5236.178
 20
-9302.589
 30
-463.000
 70
    32
  0
VERTEX
  8
E57LXLIFT
 62
1
 10
5229.574
 20
-9287.459
 30
-463.000
 70
    32
  0
VERTEX
  8
E57LXLIFT
 62
1
 10
5229.955
 20
-9277.332
 30
-463.000
 70
    32
  0
VERTEX
  8
E57LXLIFT
 62
1
 10
5224.129
 20
-9267.096
 30
-463.000
 70
    32
  0
VERTEX
  8
E57LXLIFT
 62
1
 10
5213.315
 20
-9258.692
 30
-463.000
 70
    32
  0
VERTEX
  8
E57LXLIFT
 62
1
 10
5199.466
 20
-9254.612
 30
-463.000
 70
    32
  0
VERTEX
  8
E57LXLIFT
 62
1
 10
5188.772
 20
-9252.134
 30
-463.000
 70
    32
  0
VERTEX
  8
E57LXLIFT
 62
1
 10
5186.045
 20
-9246.824
 30
-463.000
 70
    32
  0
VERTEX
  8
E57LXLIFT
 62
1
 10
5193.421
 20
-9242.897
 30
-463.000
 70
    32
  0
VERTEX
  8
E57LXLIFT
 62
1
 10
5193.387
 20
-9237.234
 30
-463.000
 70
    32
  0
VERTEX
  8
E57LXLIFT
 62
1
 10
5199.053
 20
-9233.806
 30
-463.000
 70
    32
  0
VERTEX
  8
E57LXLIFT
 62
1
 10
5206.721
 20
-9244.757
 30
-463.000
 70
    32
  0
VERTEX
  8
E57LXLIFT
 62
1
 10
5220.193
 20
-9255.570
 30
-463.000
 70
    32
  0
VERTEX
  8
E57LXLIFT
 62
1
 10
5236.177
 20
-9266.821
 30
-463.000
 70
    32
  0
VERTEX
  8
E57LXLIFT
 62
1
 10
5248.855
 20
-9277.892
 30
-463.000
 70
    32
  0
VERTEX
  8
E57LXLIFT
 62
1
 10
5258.604
 20
-9287.960
 30
-463.000
 70
    32
  0
VERTEX
  8
E57LXLIFT
 62
1
 10
5269.614
 20
-9304.314
 30
-463.000
 70
    32
  0
VERTEX
  8
E57LXLIFT
 62
1
 10
5276.833
 20
-9316.582
 30
-463.000
 70
    32
  0
SEQEND
  8
E57LXLIFT
  0
POLYLINE
  8
E57LXLIFT
 62
1
 66
     1
 70
     9
  0
VERTEX
  8
E57LXLIFT
 62
1
 10
5336.117
 20
-9312.379
 30
-454.000
 70
    32
  0
VERTEX
  8
E57LXLIFT
 62
1
 10
5341.847
 20
-9351.673
 30
-454.000
 70
    32
  0
VERTEX
  8
E57LXLIFT
 62
1
 10
5347.608
 20
-9376.995
 30
-454.000
 70
    32
  0
VERTEX
  8
E57LXLIFT
 62
1
 10
5345.067
 20
-9390.514
 30
-454.000
 70
    32
  0
VERTEX
  8
E57LXLIFT
 62
1
 10
5346.848
 20
-9407.411
 30
-454.000
 70
    32
  0
VERTEX
  8
E57LXLIFT
 62
1
 10
5345.146
 20
-9419.990
 30
-454.000
 70
    32
  0
VERTEX
  8
E57LXLIFT
 62
1
 10
5342.278
 20
-9437.235
 30
-454.000
 70
    32
  0
VERTEX
  8
E57LXLIFT
 62
1
 10
5338.745
 20
-9452.677
 30
-454.000
 70
    32
  0
VERTEX
  8
E57LXLIFT
 62
1
 10
5325.108
 20
-9459.813
 30
-454.000
 70
    32
  0
VERTEX
  8
E57LXLIFT
 62
1
 10
5318.472
 20
-9459.978
 30
-454.000
 70
    32
  0
VERTEX
  8
E57LXLIFT
 62
1
 10
5308.030
 20
-9443.309
 30
-454.000
 70
    32
  0
VERTEX
  8
E57LXLIFT
 62
1
 10
5300.828
 20
-9426.450
 30
-454.000
 70
    32
  0
VERTEX
  8
E57LXLIFT
 62
1
 10
5292.164
 20
-9406.847
 30
-454.000
 70
    32
  0
VERTEX
  8
E57LXLIFT
 62
1
 10
5280.482
 20
-9390.867
 30
-454.000
 70
    32
  0
VERTEX
  8
E57LXLIFT
 62
1
 10
5271.042
 20
-9374.227
 30
-454.000
 70
    32
  0
VERTEX
  8
E57LXLIFT
 62
1
 10
5278.376
 20
-9363.090
 30
-454.000
 70
    32
  0
VERTEX
  8
E57LXLIFT
 62
1
 10
5283.498
 20
-9360.109
 30
-454.000
 70
    32
  0
VERTEX
  8
E57LXLIFT
 62
1
 10
5293.312
 20
-9379.199
 30
-454.000
 70
    32
  0
VERTEX
  8
E57LXLIFT
 62
1
 10
5303.396
 20
-9392.097
 30
-454.000
 70
    32
  0
VERTEX
  8
E57LXLIFT
 62
1
 10
5314.999
 20
-9394.404
 30
-454.000
 70
    32
  0
VERTEX
  8
E57LXLIFT
 62
1
 10
5321.775
 20
-9382.803
 30
-454.000
 70
    32
  0
VERTEX
  8
E57LXLIFT
 62
1
 10
5324.327
 20
-9368.404
 30
-454.000
 70
    32
  0
VERTEX
  8
E57LXLIFT
 62
1
 10
5319.909
 20
-9352.671
 30
-454.000
 70
    32
  0
VERTEX
  8
E57LXLIFT
 62
1
 10
5311.767
 20
-9334.975
 30
-454.000
 70
    32
  0
VERTEX
  8
E57LXLIFT
 62
1
 10
5301.300
 20
-9316.035
 30
-454.000
 70
    32
  0
SEQEND
  8
E57LXLIFT
  0
POLYLINE
  8
E57LXLIFT
 62
1
 66
     1
 70
     9
  0
VERTEX
  8
E57LXLIFT
 62
1
 10
5267.076
 20
-9461.117
 30
-482.000
 70
    32
  0
VERTEX
  8
E57LXLIFT
 62
1
 10
5263.580
 20
-9471.385
 30
-482.000
 70
    32
  0
VERTEX
  8
E57LXLIFT
 62
1
 10
5253.450
 20
-9483.568
 30
-482.000
 70
    32
  0
VERTEX
  8
E57LXLIFT
 62
1
 10
5244.335
 20
-9494.596
 30
-482.000
 70
    32
  0
VERTEX
  8
E57LXLIFT
 62
1
 10
5238.186
 20
-9500.378
 30
-482.000
 70
    32
  0
VERTEX
  8
E57LXLIFT
 62
1
 10
5229.707
 20
-9490.745
 30
-482.000
 70
    32
  0
VERTEX
  8
E57LXLIFT
 62
1
 10
5230.478
 20
-9476.041
 30
-482.000
 70
    32
  0
VERTEX
  8
E57LXLIFT
 62
1
 10
5225.653
 20
-9466.076
 30
-482.000
 70
    32
  0
VERTEX
  8
E57LXLIFT
 62
1
 10
5214.895
 20
-9460.983
 30
-482.000
 70
    32
  0
VERTEX
  8
E57LXLIFT
 62
1
 10
5203.847
 20
-9464.742
 30
-482.000
 70
    32
  0
VERTEX
  8
E57LXLIFT
 62
1
 10
5199.621
 20
-9458.350
 30
-482.000
 70
    32
  0
VERTEX
  8
E57LXLIFT
 62
1
 10
5213.535
 20
-9454.063
 30
-482.000
 70
    32
  0
VERTEX
  8
E57LXLIFT
 62
1
 10
5222.407
 20
-9441.480
 30
-482.000
 70
    32
  0
VERTEX
  8
E57LXLIFT
 62
1
 10
5224.351
 20
-9434.800
 30
-482.000
 70
    32
  0
VERTEX
  8
E57LXLIFT
 62
1
 10
5239.870
 20
-9431.857
 30
-482.000
 70
    32
  0
VERTEX
  8
E57LXLIFT
 62
1
 10
5252.255
 20
-9430.280
 30
-482.000
 70
    32
  0
VERTEX
  8
E57LXLIFT
 62
1
 10
5260.748
 20
-9437.201
 30
-482.000
 70
    32
  0
VERTEX
  8
E57LXLIFT
 62
1
 10
5263.547
 20
-9447.204
 30
-482.000
 70
    32
  0
SEQEND
  8
E57LXLIFT
  0
POLYLINE
  8
E57LXLIFT
 62
1
 66
     1
 70
     9
  0
VERTEX
  8
E57LXLIFT
 62
1
 10
5474.109
 20
-9653.048
 30
-404.000
 70
    32
  0
VERTEX
  8
E57LXLIFT
 62
1
 10
5477.967
 20
-9659.379
 30
-404.000
 70
    32
  0
VERTEX
  8
E57LXLIFT
 62
1
 10
5474.240
 20
-9673.029
 30
-404.000
 70
    32
  0
VERTEX
  8
E57LXLIFT
 62
1
 10
5471.141
 20
-9690.159
 30
-404.000
 70
    32
  0
VERTEX
  8
E57LXLIFT
 62
1
 10
5474.175
 20
-9707.420
 30
-404.000
 70
    32
  0
VERTEX
  8
E57LXLIFT
 62
1
 10
5473.809
 20
-9718.227
 30
-404.000
 70
    32
  0
VERTEX
  8
E57LXLIFT
 62
1
 10
5473.088
 20
-9718.876
 30
-404.000
 70
    32
  0
VERTEX
  8
E57LXLIFT
 62
1
 10
5463.115
 20
-9725.347
 30
-404.000
 70
    32
  0
VERTEX
  8
E57LXLIFT
 62
1
 10
5451.046
 20
-9735.031
 30
-404.000
 70
    32
  0
VERTEX
  8
E57LXLIFT
 62
1
 10
5445.950
 20
-9734.673
 30
-404.000
 70
    32
  0
VERTEX
  8
E57LXLIFT
 62
1
 10
5438.375
 20
-9722.783
 30
-404.000
 70
    32
  0
VERTEX
  8
E57LXLIFT
 62
1
 10
5436.193
 20
-9711.796
 30
-404.000
 70
    32
  0
VERTEX
  8
E57LXLIFT
 62
1
 10
5439.266
 20
-9700.940
 30
-404.000
 70
    32
  0
VERTEX
  8
E57LXLIFT
 62
1
 10
5439.109
 20
-9687.233
 30
-404.000
 70
    32
  0
VERTEX
  8
E57LXLIFT
 62
1
 10
5436.908
 20
-9677.248
 30
-404.000
 70
    32
  0
VERTEX
  8
E57LXLIFT
 62
1
 10
5427.430
 20
-9668.975
 30
-404.000
 70
    32
  0
VERTEX
  8
E57LXLIFT
 62
1
 10
5429.038
 20
-9662.616
 30
-404.000
 70
    32
  0
VERTEX
  8
E57LXLIFT
 62
1
 10
5441.596
 20
-9667.378
 30
-404.000
 70
    32
  0
VERTEX
  8
E57LXLIFT
 62
1
 10
5447.837
 20
-9665.893
 30
-404.000
 70
    32
  0
VERTEX
  8
E57LXLIFT
 62
1
 10
5454.829
 20
-9654.849
 30
-404.000
 70
    32
  0
VERTEX
  8
E57LXLIFT
 62
1
 10
5462.638
 20
-9649.886
 30
-404.000
 70
    32
  0
SEQEND
  8
E57LXLIFT
  0
POLYLINE
  8
E57LXLIFT
 62
1
 66
     1
 70
     9
  0
VERTEX
  8
E57LXLIFT
 62
1
 10
5468.201
 20
-9515.794
 30
-491.000
 70
    32
  0
VERTEX
  8
E57LXLIFT
 62
1
 10
5471.201
 20
-9521.223
 30
-491.000
 70
    32
  0
VERTEX
  8
E57LXLIFT
 62
1
 10
5467.598
 20
-9528.759
 30
-491.000
 70
    32
  0
VERTEX
  8
E57LXLIFT
 62
1
 10
5456.107
 20
-9534.021
 30
-491.000
 70
    32
  0
VERTEX
  8
E57LXLIFT
 62
1
 10
5454.155
 20
-9532.493
 30
-491.000
 70
    32
  0
VERTEX
  8
E57LXLIFT
 62
1
 10
5447.082
 20
-9540.014
 30
-491.000
 70
    32
  0
VERTEX
  8
E57LXLIFT
 62
1
 10
5435.775
 20
-9539.311
 30
-491.000
 70
    32
  0
VERTEX
  8
E57LXLIFT
 62
1
 10
5431.206
 20
-9542.455
 30
-491.000
 70
    32
  0
VERTEX
  8
E57LXLIFT
 62
1
 10
5426.075
 20
-9538.436
 30
-491.000
 70
    32
  0
VERTEX
  8
E57LXLIFT
 62
1
 10
5423.787
 20
-9529.150
 30
-491.000
 70
    32
  0
VERTEX
  8
E57LXLIFT
 62
1
 10
5427.071
 20
-9523.138
 30
-491.000
 70
    32
  0
VERTEX
  8
E57LXLIFT
 62
1
 10
5435.708
 20
-9517.206
 30
-491.000
 70
    32
  0
VERTEX
  8
E57LXLIFT
 62
1
 10
5442.443
 20
-9516.193
 30
-491.000
 70
    32
  0
VERTEX
  8
E57LXLIFT
 62
1
 10
5448.922
 20
-9521.955
 30
-491.000
 70
    32
  0
VERTEX
  8
E57LXLIFT
 62
1
 10
5456.427
 20
-9519.746
 30
-491.000
 70
    32
  0
SEQEND
  8
E57LXLIFT
  0
POLYLINE
  8
E57LXLIFT
 62
1
 66
     1
 70
     9
  0
VERTEX
  8
E57LXLIFT
 62
1
 10
5784.693
 20
-9740.524
 30
-477.000
 70
    32
  0
VERTEX
  8
E57LXLIFT
 62
1
 10
5765.455
 20
-9744.998
 30
-477.000
 70
    32
  0
VERTEX
  8
E57LXLIFT
 62
1
 10
5755.053
 20
-9740.762
 30
-477.000
 70
    32
  0
VERTEX
  8
E57LXLIFT
 62
1
 10
5744.405
 20
-9736.493
 30
-477.000
 70
    32
  0
VERTEX
  8
E57LXLIFT
 62
1
 10
5729.393
 20
-9731.567
 30
-477.000
 70
    32
  0
VERTEX
  8
E57LXLIFT
 62
1
 10
5725.824
 20
-9721.360
 30
-477.000
 70
    32
  0
VERTEX
  8
E57LXLIFT
 62
1
 10
5724.482
 20
-9712.772
 30
-477.000
 70
    32
  0
VERTEX
  8
E57LXLIFT
 62
1
 10
5727.362
 20
-9707.267
 30
-477.000
 70
    32
  0
VERTEX
  8
E57LXLIFT
 62
1
 10
5728.645
 20
-9696.903
 30
-477.000
 70
    32
  0
VERTEX
  8
E57LXLIFT
 62
1
 10
5738.897
 20
-9697.167
 30
-477.000
 70
    32
  0
VERTEX
  8
E57LXLIFT
 62
1
 10
5745.975
 20
-9701.390
 30
-477.000
 70
    32
  0
VERTEX
  8
E57LXLIFT
 62
1
 10
5756.069
 20
-9699.124
 30
-477.000
 70
    32
  0
VERTEX
  8
E57LXLIFT
 62
1
 10
5766.795
 20
-9696.817
 30
-477.000
 70
    32
  0
VERTEX
  8
E57LXLIFT
 62
1
 10
5771.383
 20
-9696.751
 30
-477.000
 70
    32
  0
VERTEX
  8
E57LXLIFT
 62
1
 10
5774.086
 20
-9706.402
 30
-477.000
 70
    32
  0
VERTEX
  8
E57LXLIFT
 62
1
 10
5779.004
 20
-9720.995
 30
-477.000
 70
    32
  0
SEQEND
  8
E57LXLIFT
  0
POLYLINE
  8
E57LXLIFT
 62
1
 66
     1
 70
     9
  0
VERTEX
  8
E57LXLIFT
 62
1
 10
5775.995
 20
-9798.059
 30
-383.000
 70
    32
  0
VERTEX
  8
E57LXLIFT
 62
1
 10
5778.670
 20
-9807.998
 30
-383.000
 70
    32
  0
VERTEX
  8
E57LXLIFT
 62
1
 10
5780.820
 20
-9829.348
 30
-383.000
 70
    32
  0
VERTEX
  8
E57LXLIFT
 62
1
 10
5779.415
 20
-9843.217
 30
-383.000
 70
    32
  0
VERTEX
  8
E57LXLIFT
 62
1
 10
5781.025
 20
-9868.762
 30
-383.000
 70
    32
  0
VERTEX
  8
E57LXLIFT
 62
1
 10
5776.197
 20
-9909.286
 30
-383.000
 70
    32
  0
VERTEX
  8
E57LXLIFT
 62
1
 10
5777.132
 20
-9926.905
 30
-383.000
 70
    32
  0
VERTEX
  8
E57LXLIFT
 62
1
 10
5779.247
 20
-9935.832
 30
-383.000
 70
    32
  0
VERTEX
  8
E57LXLIFT
 62
1
 10
5765.772
 20
-9966.025
 30
-383.000
 70
    32
  0
VERTEX
  8
E57LXLIFT
 62
1
 10
5759.825
 20
-9985.959
 30
-383.000
 70
    32
  0
VERTEX
  8
E57LXLIFT
 62
1
 10
5756.397
 20
-10002.390
 30
-383.000
 70
    32
  0
VERTEX
  8
E57LXLIFT
 62
1
 10
5753.204
 20
-10006.747
 30
-383.000
 70
    32
  0
VERTEX
  8
E57LXLIFT
 62
1
 10
5742.573
 20
-9999.172
 30
-383.000
 70
    32
  0
VERTEX
  8
E57LXLIFT
 62
1
 10
5744.483
 20
-9968.685
 30
-383.000
 70
    32
  0
VERTEX
  8
E57LXLIFT
 62
1
 10
5741.948
 20
-9928.846
 30
-383.000
 70
    32
  0
VERTEX
  8
E57LXLIFT
 62
1
 10
5739.995
 20
-9917.682
 30
-383.000
 70
    32
  0
VERTEX
  8
E57LXLIFT
 62
1
 10
5744.031
 20
-9897.001
 30
-383.000
 70
    32
  0
VERTEX
  8
E57LXLIFT
 62
1
 10
5739.911
 20
-9888.067
 30
-383.000
 70
    32
  0
VERTEX
  8
E57LXLIFT
 62
1
 10
5744.217
 20
-9876.516
 30
-383.000
 70
    32
  0
VERTEX
  8
E57LXLIFT
 62
1
 10
5755.757
 20
-9863.823
 30
-383.000
 70
    32
  0
VERTEX
  8
E57LXLIFT
 62
1
 10
5762.114
 20
-9848.019
 30
-383.000
 70
    32
  0
VERTEX
  8
E57LXLIFT
 62
1
 10
5759.281
 20
-9825.641
 30
-383.000
 70
    32
  0
VERTEX
  8
E57LXLIFT
 62
1
 10
5754.667
 20
-9802.971
 30
-383.000
 70
    32
  0
SEQEND
  8
E57LXLIFT
  0
POLYLINE
  8
E57LXLIFT
 62
1
 66
     1
 70
     9
  0
VERTEX
  8
E57LXLIFT
 62
1
 10
5826.015
 20
-9838.188
 30
-372.000
 70
    32
  0
VERTEX
  8
E57LXLIFT
 62
1
 10
5829.855
 20
-9824.723
 30
-372.000
 70
    32
  0
VERTEX
  8
E57LXLIFT
 62
1
 10
5834.945
 20
-9814.618
 30
-372.000
 70
    32
  0
VERTEX
  8
E57LXLIFT
 62
1
 10
5842.272
 20
-9809.881
 30
-372.000
 70
    32
  0
VERTEX
  8
E57LXLIFT
 62
1
 10
5845.346
 20
-9814.609
 30
-372.000
 70
    32
  0
VERTEX
  8
E57LXLIFT
 62
1
 10
5855.173
 20
-9827.994
 30
-372.000
 70
    32
  0
VERTEX
  8
E57LXLIFT
 62
1
 10
5863.272
 20
-9840.713
 30
-372.000
 70
    32
  0
VERTEX
  8
E57LXLIFT
 62
1
 10
5859.412
 20
-9847.660
 30
-372.000
 70
    32
  0
VERTEX
  8
E57LXLIFT
 62
1
 10
5845.218
 20
-9857.444
 30
-372.000
 70
    32
  0
VERTEX
  8
E57LXLIFT
 62
1
 10
5834.984
 20
-9861.421
 30
-372.000
 70
    32
  0
VERTEX
  8
E57LXLIFT
 62
1
 10
5825.371
 20
-9856.397
 30
-372.000
 70
    32
  0
SEQEND
  8
E57LXLIFT
  0
POLYLINE
  8
E57LXLIFT
 62
1
 66
     1
 70
     9
  0
VERTEX
  8
E57LXLIFT
 62
1
 10
5871.329
 20
-9873.931
 30
-433.000
 70
    32
  0
VERTEX
  8
E57LXLIFT
 62
1
 10
5882.022
 20
-9868.892
 30
-433.000
 70
    32
  0
VERTEX
  8
E57LXLIFT
 62
1
 10
5893.124
 20
-9863.224
 30
-433.000
 70
    32
  0
VERTEX
  8
E57LXLIFT
 62
1
 10
5897.408
 20
-9869.780
 30
-433.000
 70
    32
  0
VERTEX
  8
E57LXLIFT
 62
1
 10
5894.362
 20
-9874.534
 30
-433.000
 70
    32
  0
VERTEX
  8
E57LXLIFT
 62
1
 10
5889.998
 20
-9881.350
 30
-433.000
 70
    32
  0
VERTEX
  8
E57LXLIFT
 62
1
 10
5888.797
 20
-9894.238
 30
-433.000
 70
    32
  0
VERTEX
  8
E57LXLIFT
 62
1
 10
5890.279
 20
-9909.732
 30
-433.000
 70
    32
  0
VERTEX
  8
E57LXLIFT
 62
1
 10
5886.454
 20
-9919.206
 30
-433.000
 70
    32
  0
VERTEX
  8
E57LXLIFT
 62
1
 10
5880.044
 20
-9918.799
 30
-433.000
 70
    32
  0
VERTEX
  8
E57LXLIFT
 62
1
 10
5874.989
 20
-9914.011
 30
-433.000
 70
    32
  0
VERTEX
  8
E57LXLIFT
 62
1
 10
5866.303
 20
-9900.440
 30
-433.000
 70
    32
  0
VERTEX
  8
E57LXLIFT
 62
1
 10
5856.052
 20
-9886.820
 30
-433.000
 70
    32
  0
VERTEX
  8
E57LXLIFT
 62
1
 10
5852.893
 20
-9878.235
 30
-433.000
 70
    32
  0
VERTEX
  8
E57LXLIFT
 62
1
 10
5856.617
 20
-9870.254
 30
-433.000
 70
    32
  0
SEQEND
  8
E57LXLIFT
  0
POLYLINE
  8
E57LXLIFT
 62
3
 66
     1
 70
     9
  0
VERTEX
  8
E57LXLIFT
 62
3
 10
3725.569
 20
-8464.875
 30
-500.000
 70
    32
  0
VERTEX
  8
E57LXLIFT
 62
3
 10
3719.263
 20
-8469.179
 30
-500.000
 70
    32
  0
VERTEX
  8
E57LXLIFT
 62
3
 10
3693.039
 20
-8474.158
 30
-500.000
 70
    32
  0
VERTEX
  8
E57LXLIFT
 62
3
 10
3653.633
 20
-8470.234
 30
-500.000
 70
    32
  0
VERTEX
  8
E57LXLIFT
 62
3
 10
3638.918
 20
-8477.867
 30
-500.000
 70
    32
  0
VERTEX
  8
E57LXLIFT
 62
3
 10
3619.180
 20
-8482.407
 30
-500.000
 70
    32
  0
VERTEX
  8
E57LXLIFT
 62
3
 10
3597.531
 20
-8484.431
 30
-500.000
 70
    32
  0
VERTEX
  8
E57LXLIFT
 62
3
 10
3575.452
 20
-8473.054
 30
-500.000
 70
    32
  0
VERTEX
  8
E57LXLIFT
 62
3
 10
3576.080
 20
-8464.292
 30
-500.000
 70
    32
  0
VERTEX
  8
E57LXLIFT
 62
3
 10
3582.636
 20
-8456.571
 30
-500.000
 70
    32
  0
VERTEX
  8
E57LXLIFT
 62
3
 10
3592.138
 20
-8448.141
 30
-500.000
 70
    32
  0
VERTEX
  8
E57LXLIFT
 62
3
 10
3600.867
 20
-8434.868
 30
-500.000
 70
    32
  0
VERTEX
  8
E57LXLIFT
 62
3
 10
3609.677
 20
-8427.582
 30
-500.000
 70
    32
  0
VERTEX
  8
E57LXLIFT
 62
3
 10
3626.717
 20
-8426.055
 30
-500.000
 70
    32
  0
VERTEX
  8
E57LXLIFT
 62
3
 10
3668.596
 20
-8426.803
 30
-500.000
 70
    32
  0
VERTEX
  8
E57LXLIFT
 62
3
 10
3699.117
 20
-8430.078
 30
-500.000
 70
    32
  0
VERTEX
  8
E57LXLIFT
 62
3
 10
3724.781
 20
-8438.022
 30
-500.000
 70
    32
  0
SEQEND
  8
E57LXLIFT
  0
POLYLINE
  8
E57LXLIFT
 62
3
 66
     1
 70
     9
  0
VERTEX
  8
E57LXLIFT
 62
3
 10
3742.177
 20
-8450.657
 30
-473.000
 70
    32
  0
VERTEX
  8
E57LXLIFT
 62
3
 10
3730.403
 20
-8447.945
 30
-473.000
 70
    32
  0
VERTEX
  8
E57LXLIFT
 62
3
 10
3721.328
 20
-8437.166
 30
-473.000
 70
    32
  0
VERTEX
  8
E57LXLIFT
 62
3
 10
3673.299
 20
-8426.238
 30
-473.000
 70
    32
  0
VERTEX
  8
E57LXLIFT
 62
3
 10
3658.345
 20
-8426.175
 30
-473.000
 70
    32
  0
VERTEX
  8
E57LXLIFT
 62
3
 10
3643.537
 20
-8424.375
 30
-473.000
 70
    32
  0
VERTEX
  8
E57LXLIFT
 62
3
 10
3650.216
 20
-8463.890
 30
-473.000
 70
    32
  0
VERTEX
  8
E57LXLIFT
 62
3
 10
3655.552
 20
-8467.172
 30
-473.000
 70
    32
  0
VERTEX
  8
E57LXLIFT
 62
3
 10
3677.432
 20
-8465.546
 30
-473.000
 70
    32
  0
VERTEX
  8
E57LXLIFT
 62
3
 10
3712.435
 20
-8465.646
 30
-473.000
 70
    32
  0
VERTEX
  8
E57LXLIFT
 62
3
 10
3740.672
 20
-8464.380
 30
-473.000
 70
    32
  0
SEQEND
  8
E57LXLIFT
  0
POLYLINE
  8
E57LXLIFT
 62
3
 66
     1
 70
     9
  0
VERTEX
  8
E57LXLIFT
 62
3
 10
3720.752
 20
-8468.319
 30
-489.000
 70
    32
  0
VERTEX
  8
E57LXLIFT
 62
3
 10
3720.837
 20
-8458.846
 30
-489.000
 70
    32
  0
VERTEX
  8
E57LXLIFT
 62
3
 10
3710.239
 20
-8443.562
 30
-489.000
 70
    32
  0
VERTEX
  8
E57LXLIFT
 62
3
 10
3698.223
 20
-8436.657
 30
-489.000
 70
    32
  0
VERTEX
  8
E57LXLIFT
 62
3
 10
3682.492
 20
-8422.805
 30
-489.000
 70
    32
  0
VERTEX
  8
E57LXLIFT
 62
3
 10
3663.966
 20
-8414.974
 30
-489.000
 70
    32
  0
VERTEX
  8
E57LXLIFT
 62
3
 10
3637.318
 20
-8393.641
 30
-489.000
 70
    32
  0
VERTEX
  8
E57LXLIFT
 62
3
 10
3624.442
 20
-8398.283
 30
-489.000
 70
    32
  0
VERTEX
  8
E57LXLIFT
 62
3
 10
3615.306
 20
-8404.660
 30
-489.000
 70
    32
  0
VERTEX
  8
E57LXLIFT
 62
3
 10
3615.819
 20
-8419.759
 30
-489.000
 70
    32
  0
VERTEX
  8
E57LXLIFT
 62
3
 10
3599.733
 20
-8431.045
 30
-489.000
 70
    32
  0
VERTEX
  8
E57LXLIFT
 62
3
 10
3595.886
 20
-8442.801
 30
-489.000
 70
    32
  0
VERTEX
  8
E57LXLIFT
 62
3
 10
3586.104
 20
-8454.729
 30
-489.000
 70
    32
  0
VERTEX
  8
E57LXLIFT
 62
3
 10
3566.774
 20
-8455.375
 30
-489.000
 70
    32
  0
VERTEX
  8
E57LXLIFT
 62
3
 10
3537.030
 20
-8457.479
 30
-489.000
 70
    32
  0
VERTEX
  8
E57LXLIFT
 62
3
 10
3537.492
 20
-8470.560
 30
-489.000
 70
    32
  0
VERTEX
  8
E57LXLIFT
 62
3
 10
3540.706
 20
-8475.163
 30
-489.000
 70
    32
  0
VERTEX
  8
E57LXLIFT
 62
3
 10
3548.583
 20
-8478.132
 30
-489.000
 70
    32
  0
VERTEX
  8
E57LXLIFT
 62
3
 10
3595.909
 20
-8482.702
 30
-489.000
 70
    32
  0
VERTEX
  8
E57LXLIFT
 62
3
 10
3614.898
 20
-8474.838
 30
-489.000
 70
    32
  0
VERTEX
  8
E57LXLIFT
 62
3
 10
3629.267
 20
-8473.013
 30
-489.000
 70
    32
  0
VERTEX
  8
E57LXLIFT
 62
3
 10
3639.122
 20
-8465.684
 30
-489.000
 70
    32
  0
VERTEX
  8
E57LXLIFT
 62
3
 10
3655.653
 20
-8470.303
 30
-489.000
 70
    32
  0
VERTEX
  8
E57LXLIFT
 62
3
 10
3669.283
 20
-8471.500
 30
-489.000
 70
    32
  0
VERTEX
  8
E57LXLIFT
 62
3
 10
3683.496
 20
-8475.305
 30
-489.000
 70
    32
  0
VERTEX
  8
E57LXLIFT
 62
3
 10
3701.575
 20
-8471.127
 30
-489.000
 70
    32
  0
SEQEND
  8
E57LXLIFT
  0
POLYLINE
  8
E57LXLIFT
 62
3
 66
     1
 70
     9
  0
VERTEX
  8
E57LXLIFT
 62
3
 10
3746.461
 20
-8460.617
 30
-480.000
 70
    32
  0
VERTEX
  8
E57LXLIFT
 62
3
 10
3726.395
 20
-8453.888
 30
-480.000
 70
    32
  0
VERTEX
  8
E57LXLIFT
 62
3
 10
3707.075
 20
-8440.870
 30
-480.000
 70
    32
  0
VERTEX
  8
E57LXLIFT
 62
3
 10
3681.299
 20
-8429.213
 30
-480.000
 70
    32
  0
VERTEX
  8
E57LXLIFT
 62
3
 10
3657.944
 20
-8421.340
 30
-480.000
 70
    32
  0
VERTEX
  8
E57LXLIFT
 62
3
 10
3638.623
 20
-8420.544
 30
-480.000
 70
    32
  0
VERTEX
  8
E57LXLIFT
 62
3
 10
3602.441
 20
-8435.590
 30
-480.000
 70
    32
  0
VERTEX
  8
E57LXLIFT
 62
3
 10
3602.702
 20
-8447.284
 30
-480.000
 70
    32
  0
VERTEX
  8
E57LXLIFT
 62
3
 10
3613.233
 20
-8462.658
 30
-480.000
 70
    32
  0
VERTEX
  8
E57LXLIFT
 62
3
 10
3625.919
 20
-8468.364
 30
-480.000
 70
    32
  0
VERTEX
  8
E57LXLIFT
 62
3
 10
3648.037
 20
-8466.163
 30
-480.000
 70
    32
  0
VERTEX
  8
E57LXLIFT
 62
3
 10
3665.130
 20
-8471.727
 30
-480.000
 70
    32
  0
VERTEX
  8
E57LXLIFT
 62
3
 10
3696.989
 20
-8472.505
 30
-480.000
 70
    32
  0
VERTEX
  8
E57LXLIFT
 62
3
 10
3716.389
 20
-8471.369
 30
-480.000
 70
    32
  0
VERTEX
  8
E57LXLIFT
 62
3
 10
3736.169
 20
-8476.992
 30
-480.000
 70
    32
  0
VERTEX
  8
E57LXLIFT
 62
3
 10
3747.639
 20
-8473.379
 30
-480.000
 70
    32
  0
SEQEND
  8
E57LXLIFT
  0
POLYLINE
  8
E57LXLIFT
 62
16
 66
     1
 70
     9
  0
VERTEX
  8
E57LXLIFT
 62
16
 10
3682.676
 20
-8411.582
 30
-450.000
 70
    32
  0
VERTEX
  8
E57LXLIFT
 62
16
 10
3593.733
 20
-8439.836
 30
-450.000
 70
    32
  0
VERTEX
  8
E57LXLIFT
 62
16
 10
3595.327
 20
-8445.595
 30
-450.000
 70
    32
  0
VERTEX
  8
E57LXLIFT
 62
16
 10
3589.247
 20
-8447.638
 30
-450.000
 70
    32
  0
VERTEX
  8
E57LXLIFT
 62
16
 10
3592.916
 20
-8459.670
 30
-450.000
 70
    32
  0
VERTEX
  8
E57LXLIFT
 62
16
 10
3586.784
 20
-8461.642
 30
-450.000
 70
    32
  0
VERTEX
  8
E57LXLIFT
 62
16
 10
3596.365
 20
-8491.316
 30
-450.000
 70
    32
  0
VERTEX
  8
E57LXLIFT
 62
16
 10
3601.809
 20
-8489.735
 30
-450.000
 70
    32
  0
VERTEX
  8
E57LXLIFT
 62
16
 10
3603.930
 20
-8496.516
 30
-450.000
 70
    32
  0
VERTEX
  8
E57LXLIFT
 62
16
 10
3651.567
 20
-8480.573
 30
-450.000
 70
    32
  0
VERTEX
  8
E57LXLIFT
 62
16
 10
3649.337
 20
-8474.088
 30
-450.000
 70
    32
  0
VERTEX
  8
E57LXLIFT
 62
16
 10
3662.371
 20
-8470.014
 30
-450.000
 70
    32
  0
VERTEX
  8
E57LXLIFT
 62
16
 10
3660.533
 20
-8464.217
 30
-450.000
 70
    32
  0
VERTEX
  8
E57LXLIFT
 62
16
 10
3689.737
 20
-8455.626
 30
-450.000
 70
    32
  0
VERTEX
  8
E57LXLIFT
 62
16
 10
3691.922
 20
-8461.603
 30
-450.000
 70
    32
  0
VERTEX
  8
E57LXLIFT
 62
16
 10
3698.111
 20
-8459.264
 30
-450.000
 70
    32
  0
SEQEND
  8
E57LXLIFT
  0
POLYLINE
  8
E57LXLIFT
 62
11
 66
     1
 70
     9
  0
VERTEX
  8
E57LXLIFT
 62
11
 10
4957.794
 20
-9360.630
 30
-519.103
 70
    32
  0
VERTEX
  8
E57LXLIFT
 62
11
 10
4963.800
 20
-9370.690
 30
-518.959
 70
    32
  0
VERTEX
  8
E57LXLIFT
 62
11
 10
4961.835
 20
-9373.645
 30
-518.874
 70
    32
  0
VERTEX
  8
E57LXLIFT
 62
11
 10
4957.950
 20
-9381.308
 30
-518.668
 70
    32
  0
VERTEX
  8
E57LXLIFT
 62
11
 10
4952.702
 20
-9382.633
 30
-518.580
 70
    32
  0
VERTEX
  8
E57LXLIFT
 62
11
 10
4946.620
 20
-9387.350
 30
-518.412
 70
    32
  0
VERTEX
  8
E57LXLIFT
 62
11
 10
4938.759
 20
-9372.407
 30
-518.638
 70
    32
  0
VERTEX
  8
E57LXLIFT
 62
11
 10
4944.442
 20
-9368.050
 30
-518.794
 70
    32
  0
VERTEX
  8
E57LXLIFT
 62
11
 10
4946.734
 20
-9364.121
 30
-518.903
 70
    32
  0
SEQEND
  8
E57LXLIFT
  0
POLYLINE
  8
E57LXLIFT
 62
3
 66
     1
 70
     9
  0
VERTEX
  8
E57LXLIFT
 62
3
 10
5477.432
 20
-9652.328
 30
-517.291
 70
    32
  0
VERTEX
  8
E57LXLIFT
 62
3
 10
5507.975
 20
-9709.237
 30
-516.987
 70
    32
  0
VERTEX
  8
E57LXLIFT
 62
3
 10
5514.352
 20
-9717.482
 30
-516.935
 70
    32
  0
VERTEX
  8
E57LXLIFT
 62
3
 10
5536.675
 20
-9724.899
 30
-516.825
 70
    32
  0
VERTEX
  8
E57LXLIFT
 62
3
 10
5537.462
 20
-9729.011
 30
-516.808
 70
    32
  0
VERTEX
  8
E57LXLIFT
 62
3
 10
5534.040
 20
-9739.966
 30
-516.786
 70
    32
  0
VERTEX
  8
E57LXLIFT
 62
3
 10
5528.806
 20
-9749.615
 30
-516.774
 70
    32
  0
VERTEX
  8
E57LXLIFT
 62
3
 10
5532.510
 20
-9755.900
 30
-516.739
 70
    32
  0
VERTEX
  8
E57LXLIFT
 62
3
 10
5525.848
 20
-9758.438
 30
-516.757
 70
    32
  0
VERTEX
  8
E57LXLIFT
 62
3
 10
5521.546
 20
-9750.304
 30
-516.800
 70
    32
  0
VERTEX
  8
E57LXLIFT
 62
3
 10
5506.002
 20
-9747.116
 30
-516.870
 70
    32
  0
VERTEX
  8
E57LXLIFT
 62
3
 10
5499.480
 20
-9743.655
 30
-516.907
 70
    32
  0
VERTEX
  8
E57LXLIFT
 62
3
 10
5494.440
 20
-9738.473
 30
-516.943
 70
    32
  0
VERTEX
  8
E57LXLIFT
 62
3
 10
5487.847
 20
-9730.383
 30
-516.995
 70
    32
  0
VERTEX
  8
E57LXLIFT
 62
3
 10
5483.108
 20
-9721.392
 30
-517.043
 70
    32
  0
VERTEX
  8
E57LXLIFT
 62
3
 10
5474.960
 20
-9697.556
 30
-517.152
 70
    32
  0
VERTEX
  8
E57LXLIFT
 62
3
 10
5471.241
 20
-9699.039
 30
-517.162
 70
    32
  0
VERTEX
  8
E57LXLIFT
 62
3
 10
5468.694
 20
-9693.693
 30
-517.189
 70
    32
  0
VERTEX
  8
E57LXLIFT
 62
3
 10
5473.937
 20
-9690.916
 30
-517.178
 70
    32
  0
VERTEX
  8
E57LXLIFT
 62
3
 10
5471.520
 20
-9685.765
 30
-517.204
 70
    32
  0
VERTEX
  8
E57LXLIFT
 62
3
 10
5477.514
 20
-9682.500
 30
-517.192
 70
    32
  0
VERTEX
  8
E57LXLIFT
 62
3
 10
5469.753
 20
-9667.682
 30
-517.270
 70
    32
  0
VERTEX
  8
E57LXLIFT
 62
3
 10
5471.079
 20
-9654.883
 30
-517.307
 70
    32
  0
SEQEND
  8
E57LXLIFT
  0
POLYLINE
  8
E57LXLIFT
 62
6
 66
     1
 70
     9
  0
VERTEX
  8
E57LXLIFT
 62
6
 10
5450.693
 20
-9536.709
 30
-517.773
 70
    32
  0
VERTEX
  8
E57LXLIFT
 62
6
 10
5447.591
 20
-9546.643
 30
-517.752
 70
    32
  0
VERTEX
  8
E57LXLIFT
 62
6
 10
5433.992
 20
-9556.010
 30
-517.774
 70
    32
  0
VERTEX
  8
E57LXLIFT
 62
6
 10
5426.142
 20
-9560.039
 30
-517.791
 70
    32
  0
VERTEX
  8
E57LXLIFT
 62
6
 10
5417.777
 20
-9560.008
 30
-517.823
 70
    32
  0
VERTEX
  8
E57LXLIFT
 62
6
 10
5411.687
 20
-9555.109
 30
-517.863
 70
    32
  0
VERTEX
  8
E57LXLIFT
 62
6
 10
5407.138
 20
-9542.608
 30
-517.921
 70
    32
  0
VERTEX
  8
E57LXLIFT
 62
6
 10
5405.594
 20
-9531.859
 30
-517.963
 70
    32
  0
VERTEX
  8
E57LXLIFT
 62
6
 10
5415.741
 20
-9523.893
 30
-517.950
 70
    32
  0
VERTEX
  8
E57LXLIFT
 62
6
 10
5430.802
 20
-9515.649
 30
-517.919
 70
    32
  0
VERTEX
  8
E57LXLIFT
 62
6
 10
5441.748
 20
-9528.872
 30
-517.833
 70
    32
  0
VERTEX
  8
E57LXLIFT
 62
6
 10
5447.938
 20
-9529.307
 30
-517.808
 70
    32
  0
SEQEND
  8
E57LXLIFT
  0
POLYLINE
  8
E57LXLIFT
 62
7
 66
     1
 70
     9
  0
VERTEX
  8
E57LXLIFT
 62
7
 10
5278.452
 20
-9426.574
 30
-518.798
 70
    32
  0
VERTEX
  8
E57LXLIFT
 62
7
 10
5288.895
 20
-9436.331
 30
-518.725
 70
    32
  0
VERTEX
  8
E57LXLIFT
 62
7
 10
5282.859
 20
-9442.333
 30
-518.729
 70
    32
  0
VERTEX
  8
E57LXLIFT
 62
7
 10
5284.879
 20
-9457.025
 30
-518.673
 70
    32
  0
VERTEX
  8
E57LXLIFT
 62
7
 10
5305.675
 20
-9494.655
 30
-518.470
 70
    32
  0
VERTEX
  8
E57LXLIFT
 62
7
 10
5302.094
 20
-9501.103
 30
-518.462
 70
    32
  0
VERTEX
  8
E57LXLIFT
 62
7
 10
5296.209
 20
-9498.956
 30
-518.492
 70
    32
  0
VERTEX
  8
E57LXLIFT
 62
7
 10
5288.985
 20
-9499.988
 30
-518.516
 70
    32
  0
VERTEX
  8
E57LXLIFT
 62
7
 10
5283.502
 20
-9497.026
 30
-518.547
 70
    32
  0
VERTEX
  8
E57LXLIFT
 62
7
 10
5262.701
 20
-9496.731
 30
-518.628
 70
    32
  0
VERTEX
  8
E57LXLIFT
 62
7
 10
5254.261
 20
-9489.809
 30
-518.684
 70
    32
  0
VERTEX
  8
E57LXLIFT
 62
7
 10
5247.094
 20
-9489.837
 30
-518.711
 70
    32
  0
VERTEX
  8
E57LXLIFT
 62
7
 10
5225.093
 20
-9465.807
 30
-518.875
 70
    32
  0
VERTEX
  8
E57LXLIFT
 62
7
 10
5222.571
 20
-9457.361
 30
-518.912
 70
    32
  0
VERTEX
  8
E57LXLIFT
 62
7
 10
5220.697
 20
-9441.174
 30
-518.972
 70
    32
  0
VERTEX
  8
E57LXLIFT
 62
7
 10
5226.548
 20
-9431.652
 30
-518.981
 70
    32
  0
VERTEX
  8
E57LXLIFT
 62
7
 10
5237.738
 20
-9430.770
 30
-518.941
 70
    32
  0
VERTEX
  8
E57LXLIFT
 62
7
 10
5244.052
 20
-9428.115
 30
-518.925
 70
    32
  0
VERTEX
  8
E57LXLIFT
 62
7
 10
5249.128
 20
-9423.206
 30
-518.922
 70
    32
  0
VERTEX
  8
E57LXLIFT
 62
7
 10
5258.600
 20
-9420.618
 30
-518.894
 70
    32
  0
VERTEX
  8
E57LXLIFT
 62
7
 10
5268.049
 20
-9415.363
 30
-518.874
 70
    32
  0
VERTEX
  8
E57LXLIFT
 62
7
 10
5277.855
 20
-9415.117
 30
-518.837
 70
    32
  0
SEQEND
  8
E57LXLIFT
  0
POLYLINE
  8
E57LXLIFT
 62
13
 66
     1
 70
     9
  0
VERTEX
  8
E57LXLIFT
 62
13
 10
5342.286
 20
-9489.045
 30
-518.347
 70
    32
  0
VERTEX
  8
E57LXLIFT
 62
13
 10
5347.310
 20
-9483.752
 30
-518.345
 70
    32
  0
VERTEX
  8
E57LXLIFT
 62
13
 10
5346.976
 20
-9476.910
 30
-518.369
 70
    32
  0
VERTEX
  8
E57LXLIFT
 62
13
 10
5341.550
 20
-9465.333
 30
-518.427
 70
    32
  0
VERTEX
  8
E57LXLIFT
 62
13
 10
5334.940
 20
-9456.076
 30
-518.483
 70
    32
  0
VERTEX
  8
E57LXLIFT
 62
13
 10
5342.506
 20
-9450.741
 30
-518.472
 70
    32
  0
VERTEX
  8
E57LXLIFT
 62
13
 10
5346.677
 20
-9439.714
 30
-518.492
 70
    32
  0
VERTEX
  8
E57LXLIFT
 62
13
 10
5350.008
 20
-9437.091
 30
-518.487
 70
    32
  0
VERTEX
  8
E57LXLIFT
 62
13
 10
5343.712
 20
-9426.116
 30
-518.548
 70
    32
  0
VERTEX
  8
E57LXLIFT
 62
13
 10
5344.480
 20
-9414.975
 30
-518.581
 70
    32
  0
VERTEX
  8
E57LXLIFT
 62
13
 10
5351.544
 20
-9404.415
 30
-518.589
 70
    32
  0
VERTEX
  8
E57LXLIFT
 62
13
 10
5367.687
 20
-9411.802
 30
-518.502
 70
    32
  0
VERTEX
  8
E57LXLIFT
 62
13
 10
5377.397
 20
-9422.133
 30
-518.431
 70
    32
  0
VERTEX
  8
E57LXLIFT
 62
13
 10
5380.416
 20
-9437.516
 30
-518.369
 70
    32
  0
VERTEX
  8
E57LXLIFT
 62
13
 10
5378.671
 20
-9437.006
 30
-518.377
 70
    32
  0
VERTEX
  8
E57LXLIFT
 62
13
 10
5353.809
 20
-9450.969
 30
-518.427
 70
    32
  0
VERTEX
  8
E57LXLIFT
 62
13
 10
5360.348
 20
-9466.171
 30
-518.352
 70
    32
  0
VERTEX
  8
E57LXLIFT
 62
13
 10
5366.957
 20
-9465.034
 30
-518.331
 70
    32
  0
VERTEX
  8
E57LXLIFT
 62
13
 10
5369.034
 20
-9467.885
 30
-518.313
 70
    32
  0
VERTEX
  8
E57LXLIFT
 62
13
 10
5370.029
 20
-9475.848
 30
-518.283
 70
    32
  0
VERTEX
  8
E57LXLIFT
 62
13
 10
5356.862
 20
-9484.972
 30
-518.304
 70
    32
  0
VERTEX
  8
E57LXLIFT
 62
13
 10
5364.567
 20
-9496.176
 30
-518.238
 70
    32
  0
VERTEX
  8
E57LXLIFT
 62
13
 10
5371.678
 20
-9510.924
 30
-518.162
 70
    32
  0
VERTEX
  8
E57LXLIFT
 62
13
 10
5359.399
 20
-9519.556
 30
-518.181
 70
    32
  0
VERTEX
  8
E57LXLIFT
 62
13
 10
5349.337
 20
-9501.670
 30
-518.278
 70
    32
  0
VERTEX
  8
E57LXLIFT
 62
13
 10
5344.779
 20
-9498.969
 30
-518.305
 70
    32
  0
SEQEND
  8
E57LXLIFT
  0
POLYLINE
  8
E57LXLIFT
 62
13
 66
     1
 70
     9
  0
VERTEX
  8
E57LXLIFT
 62
13
 10
5331.216
 20
-9378.910
 30
-518.750
 70
    32
  0
VERTEX
  8
E57LXLIFT
 62
13
 10
5327.786
 20
-9377.319
 30
-518.769
 70
    32
  0
VERTEX
  8
E57LXLIFT
 62
13
 10
5325.545
 20
-9376.402
 30
-518.781
 70
    32
  0
VERTEX
  8
E57LXLIFT
 62
13
 10
5323.187
 20
-9375.781
 30
-518.792
 70
    32
  0
VERTEX
  8
E57LXLIFT
 62
13
 10
5313.464
 20
-9361.708
 30
-518.875
 70
    32
  0
VERTEX
  8
E57LXLIFT
 62
13
 10
5302.898
 20
-9354.326
 30
-518.940
 70
    32
  0
VERTEX
  8
E57LXLIFT
 62
13
 10
5298.299
 20
-9346.894
 30
-518.982
 70
    32
  0
VERTEX
  8
E57LXLIFT
 62
13
 10
5297.259
 20
-9343.218
 30
-518.998
 70
    32
  0
VERTEX
  8
E57LXLIFT
 62
13
 10
5305.885
 20
-9332.436
 30
-519.000
 70
    32
  0
VERTEX
  8
E57LXLIFT
 62
13
 10
5313.570
 20
-9331.283
 30
-518.975
 70
    32
  0
VERTEX
  8
E57LXLIFT
 62
13
 10
5325.022
 20
-9336.978
 30
-518.912
 70
    32
  0
VERTEX
  8
E57LXLIFT
 62
13
 10
5330.522
 20
-9342.288
 30
-518.873
 70
    32
  0
VERTEX
  8
E57LXLIFT
 62
13
 10
5339.961
 20
-9355.921
 30
-518.792
 70
    32
  0
VERTEX
  8
E57LXLIFT
 62
13
 10
5345.589
 20
-9368.544
 30
-518.729
 70
    32
  0
SEQEND
  8
E57LXLIFT
  0
POLYLINE
  8
E57LXLIFT
 62
8
 66
     1
 70
     9
  0
VERTEX
  8
E57LXLIFT
 62
8
 10
5269.059
 20
-9313.726
 30
-519.204
 70
    32
  0
VERTEX
  8
E57LXLIFT
 62
8
 10
5247.448
 20
-9286.325
 30
-519.377
 70
    32
  0
VERTEX
  8
E57LXLIFT
 62
8
 10
5245.430
 20
-9285.576
 30
-519.387
 70
    32
  0
VERTEX
  8
E57LXLIFT
 62
8
 10
5232.240
 20
-9275.169
 30
-519.472
 70
    32
  0
VERTEX
  8
E57LXLIFT
 62
8
 10
5241.483
 20
-9272.095
 30
-519.446
 70
    32
  0
VERTEX
  8
E57LXLIFT
 62
8
 10
5247.384
 20
-9266.829
 30
-519.441
 70
    32
  0
VERTEX
  8
E57LXLIFT
 62
8
 10
5261.737
 20
-9259.360
 30
-519.410
 70
    32
  0
VERTEX
  8
E57LXLIFT
 62
8
 10
5291.022
 20
-9285.855
 30
-519.210
 70
    32
  0
VERTEX
  8
E57LXLIFT
 62
8
 10
5296.896
 20
-9299.918
 30
-519.142
 70
    32
  0
VERTEX
  8
E57LXLIFT
 62
8
 10
5309.425
 20
-9318.169
 30
-519.033
 70
    32
  0
VERTEX
  8
E57LXLIFT
 62
8
 10
5310.346
 20
-9324.612
 30
-519.009
 70
    32
  0
VERTEX
  8
E57LXLIFT
 62
8
 10
5303.809
 20
-9328.190
 30
-519.022
 70
    32
  0
VERTEX
  8
E57LXLIFT
 62
8
 10
5294.181
 20
-9331.627
 30
-519.048
 70
    32
  0
VERTEX
  8
E57LXLIFT
 62
8
 10
5280.184
 20
-9331.224
 30
-519.103
 70
    32
  0
SEQEND
  8
E57LXLIFT
  0
POLYLINE
  8
E57LXLIFT
 62
8
 66
     1
 70
     9
  0
VERTEX
  8
E57LXLIFT
 62
8
 10
5729.676
 20
-9689.233
 30
-517.522
 70
    32
  0
VERTEX
  8
E57LXLIFT
 62
8
 10
5736.496
 20
-9693.124
 30
-517.532
 70
    32
  0
VERTEX
  8
E57LXLIFT
 62
8
 10
5743.400
 20
-9691.849
 30
-517.563
 70
    32
  0
VERTEX
  8
E57LXLIFT
 62
8
 10
5750.220
 20
-9695.740
 30
-517.573
 70
    32
  0
VERTEX
  8
E57LXLIFT
 62
8
 10
5759.809
 20
-9696.987
 30
-517.604
 70
    32
  0
VERTEX
  8
E57LXLIFT
 62
8
 10
5770.321
 20
-9701.480
 30
-517.625
 70
    32
  0
VERTEX
  8
E57LXLIFT
 62
8
 10
5775.240
 20
-9706.956
 30
-517.621
 70
    32
  0
VERTEX
  8
E57LXLIFT
 62
8
 10
5785.772
 20
-9711.326
 30
-517.643
 70
    32
  0
VERTEX
  8
E57LXLIFT
 62
8
 10
5794.114
 20
-9722.161
 30
-517.657
 70
    32
  0
VERTEX
  8
E57LXLIFT
 62
8
 10
5807.410
 20
-9731.277
 30
-517.716
 70
    32
  0
VERTEX
  8
E57LXLIFT
 62
8
 10
5804.971
 20
-9736.944
 30
-517.698
 70
    32
  0
VERTEX
  8
E57LXLIFT
 62
8
 10
5787.659
 20
-9725.721
 30
-517.620
 70
    32
  0
VERTEX
  8
E57LXLIFT
 62
8
 10
5777.186
 20
-9726.414
 30
-517.565
 70
    32
  0
VERTEX
  8
E57LXLIFT
 62
8
 10
5761.676
 20
-9720.412
 30
-517.515
 70
    32
  0
VERTEX
  8
E57LXLIFT
 62
8
 10
5754.192
 20
-9719.824
 30
-517.489
 70
    32
  0
VERTEX
  8
E57LXLIFT
 62
8
 10
5739.383
 20
-9732.003
 30
-517.384
 70
    32
  0
VERTEX
  8
E57LXLIFT
 62
8
 10
5724.308
 20
-9712.869
 30
-517.406
 70
    32
  0
VERTEX
  8
E57LXLIFT
 62
8
 10
5712.530
 20
-9712.655
 30
-517.362
 70
    32
  0
VERTEX
  8
E57LXLIFT
 62
8
 10
5709.454
 20
-9706.721
 30
-517.375
 70
    32
  0
VERTEX
  8
E57LXLIFT
 62
8
 10
5719.940
 20
-9698.196
 30
-517.449
 70
    32
  0
SEQEND
  8
E57LXLIFT
  0
POLYLINE
  8
E57LXLIFT
 62
11
 66
     1
 70
     9
  0
VERTEX
  8
E57LXLIFT
 62
11
 10
5898.071
 20
-9916.716
 30
-518.234
 70
    32
  0
VERTEX
  8
E57LXLIFT
 62
11
 10
5898.319
 20
-9920.612
 30
-518.238
 70
    32
  0
VERTEX
  8
E57LXLIFT
 62
11
 10
5891.922
 20
-9923.884
 30
-518.205
 70
    32
  0
VERTEX
  8
E57LXLIFT
 62
11
 10
5883.943
 20
-9931.039
 30
-518.167
 70
    32
  0
VERTEX
  8
E57LXLIFT
 62
11
 10
5876.495
 20
-9931.722
 30
-518.127
 70
    32
  0
VERTEX
  8
E57LXLIFT
 62
11
 10
5873.754
 20
-9923.779
 30
-518.107
 70
    32
  0
VERTEX
  8
E57LXLIFT
 62
11
 10
5874.115
 20
-9921.065
 30
-518.108
 70
    32
  0
VERTEX
  8
E57LXLIFT
 62
11
 10
5870.935
 20
-9915.568
 30
-518.087
 70
    32
  0
VERTEX
  8
E57LXLIFT
 62
11
 10
5877.950
 20
-9910.261
 30
-518.121
 70
    32
  0
VERTEX
  8
E57LXLIFT
 62
11
 10
5881.276
 20
-9908.269
 30
-518.138
 70
    32
  0
VERTEX
  8
E57LXLIFT
 62
11
 10
5889.522
 20
-9906.994
 30
-518.181
 70
    32
  0
VERTEX
  8
E57LXLIFT
 62
11
 10
5892.350
 20
-9900.417
 30
-518.192
 70
    32
  0
VERTEX
  8
E57LXLIFT
 62
11
 10
5895.129
 20
-9899.576
 30
-518.207
 70
    32
  0
VERTEX
  8
E57LXLIFT
 62
11
 10
5902.521
 20
-9902.023
 30
-518.248
 70
    32
  0
SEQEND
  8
E57LXLIFT
  0
POLYLINE
  8
E57LXLIFT
 62
11
 66
     1
 70
     9
  0
VERTEX
  8
E57LXLIFT
 62
11
 10
4903.372
 20
-9385.837
 30
-423.000
 70
    32
  0
VERTEX
  8
E57LXLIFT
 62
11
 10
4890.755
 20
-9382.057
 30
-423.000
 70
    32
  0
VERTEX
  8
E57LXLIFT
 62
11
 10
4883.947
 20
-9383.113
 30
-423.000
 70
    32
  0
VERTEX
  8
E57LXLIFT
 62
11
 10
4878.256
 20
-9383.917
 30
-423.000
 70
    32
  0
VERTEX
  8
E57LXLIFT
 62
11
 10
4876.059
 20
-9378.999
 30
-423.000
 70
    32
  0
VERTEX
  8
E57LXLIFT
 62
11
 10
4878.414
 20
-9374.411
 30
-423.000
 70
    32
  0
VERTEX
  8
E57LXLIFT
 62
11
 10
4880.379
 20
-9370.640
 30
-423.000
 70
    32
  0
VERTEX
  8
E57LXLIFT
 62
11
 10
4876.720
 20
-9365.033
 30
-423.000
 70
    32
  0
VERTEX
  8
E57LXLIFT
 62
11
 10
4874.067
 20
-9358.712
 30
-423.000
 70
    32
  0
VERTEX
  8
E57LXLIFT
 62
11
 10
4872.971
 20
-9351.392
 30
-423.000
 70
    32
  0
VERTEX
  8
E57LXLIFT
 62
11
 10
4871.519
 20
-9343.570
 30
-423.000
 70
    32
  0
VERTEX
  8
E57LXLIFT
 62
11
 10
4872.107
 20
-9337.862
 30
-423.000
 70
    32
  0
VERTEX
  8
E57LXLIFT
 62
11
 10
4879.110
 20
-9332.672
 30
-423.000
 70
    32
  0
VERTEX
  8
E57LXLIFT
 62
11
 10
4887.498
 20
-9326.392
 30
-423.000
 70
    32
  0
VERTEX
  8
E57LXLIFT
 62
11
 10
4896.546
 20
-9321.801
 30
-423.000
 70
    32
  0
VERTEX
  8
E57LXLIFT
 62
11
 10
4906.519
 20
-9319.577
 30
-423.000
 70
    32
  0
VERTEX
  8
E57LXLIFT
 62
11
 10
4915.090
 20
-9321.155
 30
-423.000
 70
    32
  0
VERTEX
  8
E57LXLIFT
 62
11
 10
4923.578
 20
-9326.571
 30
-423.000
 70
    32
  0
VERTEX
  8
E57LXLIFT
 62
11
 10
4931.146
 20
-9332.209
 30
-423.000
 70
    32
  0
VERTEX
  8
E57LXLIFT
 62
11
 10
4931.892
 20
-9340.101
 30
-423.000
 70
    32
  0
VERTEX
  8
E57LXLIFT
 62
11
 10
4932.384
 20
-9350.980
 30
-423.000
 70
    32
  0
VERTEX
  8
E57LXLIFT
 62
11
 10
4930.833
 20
-9357.156
 30
-423.000
 70
    32
  0
VERTEX
  8
E57LXLIFT
 62
11
 10
4924.277
 20
-9363.432
 30
-423.000
 70
    32
  0
VERTEX
  8
E57LXLIFT
 62
11
 10
4917.455
 20
-9369.788
 30
-423.000
 70
    32
  0
VERTEX
  8
E57LXLIFT
 62
11
 10
4911.921
 20
-9376.742
 30
-423.000
 70
    32
  0
VERTEX
  8
E57LXLIFT
 62
11
 10
4908.402
 20
-9379.997
 30
-423.000
 70
    32
  0
SEQEND
  8
E57LXLIFT
  0
POINT
  8
E57LXLIFT
 62
1
 10
5754.341
 20
-9872.409
 30
-383.000
  0
POLYLINE
  8
E57LXLIFT
 62
1
 66
     1
 70
     9
  0
VERTEX
  8
E57LXLIFT
 62
1
 10
3741.672
 20
-8463.380
 30
-463.000
 70
    32
  0
VERTEX
  8
E57LXLIFT
 62
1
 10
3713.435
 20
-8464.646
 30
-463.000
 70
    32
  0
VERTEX
  8
E57LXLIFT
 62
1
 10
3678.432
 20
-8464.546
 30
-463.000
 70
    32
  0
VERTEX
  8
E57LXLIFT
 62
1
 10
3656.552
 20
-8466.172
 30
-463.000
 70
    32
  0
VERTEX
  8
E57LXLIFT
 62
1
 10
3651.216
 20
-8462.890
 30
-463.000
 70
    32
  0
VERTEX
  8
E57LXLIFT
 62
1
 10
3644.537
 20
-8423.375
 30
-463.000
 70
    32
  0
VERTEX
  8
E57LXLIFT
 62
1
 10
3659.345
 20
-8425.175
 30
-463.000
 70
    32
  0
VERTEX
  8
E57LXLIFT
 62
1
 10
3674.299
 20
-8425.238
 30
-463.000
 70
    32
  0
VERTEX
  8
E57LXLIFT
 62
1
 10
3722.328
 20
-8436.166
 30
-463.000
 70
    32
  0
VERTEX
  8
E57LXLIFT
 62
1
 10
3731.403
 20
-8446.945
 30
-463.000
 70
    32
  0
VERTEX
  8
E57LXLIFT
 62
1
 10
3743.177
 20
-8449.657
 30
-463.000
 70
    32
  0
SEQEND
  8
E57LXLIFT
  0
POINT
  8
E57LXLIFT
 62
1
 10
5744.942
 20
-9868.283
 30
-301.000
  0
LINE
  8
E57LXLIFT
 62
13
 10
5744.942
 20
-9868.283
 30
-301.000
 11
5754.341
 21
-9872.409
 31
-383.000
  0
TEXT
  8
E57LXLIFT
 62
16
 10
3688.725
 20
-8430.269
 30
-450.000
 40
4.101
  1
Timber from here up
 50
17.133
 41
 1.0 
  0
ENDSEC
  0
EOF
