999
********************************
999
*   DXF File - Entities Only   *
999
*        3D Data Format        *
999
*     Output from ENVISAGE     *
999
*     31-Dec-2007 14:46:07     *
999
********************************
  0
SECTION 
  2
HEADER
  9
$ACADVER
  1
AC1009
  9
$EXTMIN
 10
-290000.000
 20
-250000.000
 30
-4000.000
  9
$EXTMAX
 10
320000.000
 20
160000.000
 30
6000.000
  0
ENDSEC
  0
SECTION
  2
ENTITIES
  0
POLYLINE
  8
E59LXLIFT
 62
6
 66
     1
 70
     9
  0
VERTEX
  8
E59LXLIFT
 62
6
 10
5117.928
 20
-9485.584
 30
-636.000
 70
    32
  0
VERTEX
  8
E59LXLIFT
 62
6
 10
5111.690
 20
-9484.959
 30
-636.000
 70
    32
  0
VERTEX
  8
E59LXLIFT
 62
6
 10
5105.884
 20
-9485.852
 30
-636.000
 70
    32
  0
VERTEX
  8
E59LXLIFT
 62
6
 10
5104.163
 20
-9480.846
 30
-636.000
 70
    32
  0
VERTEX
  8
E59LXLIFT
 62
6
 10
5099.640
 20
-9473.855
 30
-636.000
 70
    32
  0
VERTEX
  8
E59LXLIFT
 62
6
 10
5094.679
 20
-9472.003
 30
-636.000
 70
    32
  0
VERTEX
  8
E59LXLIFT
 62
6
 10
5089.742
 20
-9471.851
 30
-636.000
 70
    32
  0
VERTEX
  8
E59LXLIFT
 62
6
 10
5081.738
 20
-9464.642
 30
-636.000
 70
    32
  0
VERTEX
  8
E59LXLIFT
 62
6
 10
5072.549
 20
-9458.486
 30
-636.000
 70
    32
  0
VERTEX
  8
E59LXLIFT
 62
6
 10
5070.039
 20
-9454.791
 30
-636.000
 70
    32
  0
VERTEX
  8
E59LXLIFT
 62
6
 10
5064.506
 20
-9448.193
 30
-636.000
 70
    32
  0
VERTEX
  8
E59LXLIFT
 62
6
 10
5055.737
 20
-9441.418
 30
-636.000
 70
    32
  0
VERTEX
  8
E59LXLIFT
 62
6
 10
5050.163
 20
-9437.639
 30
-636.000
 70
    32
  0
VERTEX
  8
E59LXLIFT
 62
6
 10
5043.544
 20
-9435.567
 30
-636.000
 70
    32
  0
VERTEX
  8
E59LXLIFT
 62
6
 10
5038.151
 20
-9427.045
 30
-636.000
 70
    32
  0
VERTEX
  8
E59LXLIFT
 62
6
 10
5029.269
 20
-9420.565
 30
-636.000
 70
    32
  0
VERTEX
  8
E59LXLIFT
 62
6
 10
5025.955
 20
-9416.795
 30
-636.000
 70
    32
  0
VERTEX
  8
E59LXLIFT
 62
6
 10
5022.310
 20
-9414.225
 30
-636.000
 70
    32
  0
VERTEX
  8
E59LXLIFT
 62
6
 10
5020.827
 20
-9410.768
 30
-636.000
 70
    32
  0
VERTEX
  8
E59LXLIFT
 62
6
 10
5014.679
 20
-9408.148
 30
-636.000
 70
    32
  0
VERTEX
  8
E59LXLIFT
 62
6
 10
5010.802
 20
-9405.099
 30
-636.000
 70
    32
  0
VERTEX
  8
E59LXLIFT
 62
6
 10
5018.779
 20
-9398.482
 30
-636.000
 70
    32
  0
VERTEX
  8
E59LXLIFT
 62
6
 10
5024.538
 20
-9396.764
 30
-636.000
 70
    32
  0
VERTEX
  8
E59LXLIFT
 62
6
 10
5035.749
 20
-9401.380
 30
-636.000
 70
    32
  0
VERTEX
  8
E59LXLIFT
 62
6
 10
5044.327
 20
-9402.279
 30
-636.000
 70
    32
  0
VERTEX
  8
E59LXLIFT
 62
6
 10
5046.724
 20
-9406.269
 30
-636.000
 70
    32
  0
VERTEX
  8
E59LXLIFT
 62
6
 10
5052.388
 20
-9410.629
 30
-636.000
 70
    32
  0
VERTEX
  8
E59LXLIFT
 62
6
 10
5058.608
 20
-9408.047
 30
-636.000
 70
    32
  0
VERTEX
  8
E59LXLIFT
 62
6
 10
5065.942
 20
-9401.887
 30
-636.000
 70
    32
  0
VERTEX
  8
E59LXLIFT
 62
6
 10
5074.947
 20
-9408.387
 30
-636.000
 70
    32
  0
VERTEX
  8
E59LXLIFT
 62
6
 10
5084.776
 20
-9409.689
 30
-636.000
 70
    32
  0
VERTEX
  8
E59LXLIFT
 62
6
 10
5094.674
 20
-9406.541
 30
-636.000
 70
    32
  0
VERTEX
  8
E59LXLIFT
 62
6
 10
5096.845
 20
-9413.697
 30
-636.000
 70
    32
  0
VERTEX
  8
E59LXLIFT
 62
6
 10
5101.311
 20
-9422.124
 30
-636.000
 70
    32
  0
VERTEX
  8
E59LXLIFT
 62
6
 10
5104.571
 20
-9426.575
 30
-636.000
 70
    32
  0
VERTEX
  8
E59LXLIFT
 62
6
 10
5106.528
 20
-9433.883
 30
-636.000
 70
    32
  0
VERTEX
  8
E59LXLIFT
 62
6
 10
5106.650
 20
-9439.055
 30
-636.000
 70
    32
  0
VERTEX
  8
E59LXLIFT
 62
6
 10
5110.065
 20
-9442.967
 30
-636.000
 70
    32
  0
VERTEX
  8
E59LXLIFT
 62
6
 10
5107.439
 20
-9450.623
 30
-636.000
 70
    32
  0
VERTEX
  8
E59LXLIFT
 62
6
 10
5108.972
 20
-9459.303
 30
-636.000
 70
    32
  0
VERTEX
  8
E59LXLIFT
 62
6
 10
5109.788
 20
-9464.091
 30
-636.000
 70
    32
  0
VERTEX
  8
E59LXLIFT
 62
6
 10
5108.471
 20
-9469.960
 30
-636.000
 70
    32
  0
VERTEX
  8
E59LXLIFT
 62
6
 10
5112.944
 20
-9476.880
 30
-636.000
 70
    32
  0
SEQEND
  8
E59LXLIFT
  0
POLYLINE
  8
E59LXLIFT
 62
6
 66
     1
 70
     9
  0
VERTEX
  8
E59LXLIFT
 62
6
 10
5019.802
 20
-9410.177
 30
-631.000
 70
    32
  0
VERTEX
  8
E59LXLIFT
 62
6
 10
5020.043
 20
-9415.056
 30
-631.000
 70
    32
  0
VERTEX
  8
E59LXLIFT
 62
6
 10
5027.257
 20
-9421.430
 30
-631.000
 70
    32
  0
VERTEX
  8
E59LXLIFT
 62
6
 10
5063.438
 20
-9445.591
 30
-631.000
 70
    32
  0
VERTEX
  8
E59LXLIFT
 62
6
 10
5094.190
 20
-9470.278
 30
-631.000
 70
    32
  0
VERTEX
  8
E59LXLIFT
 62
6
 10
5101.662
 20
-9471.418
 30
-631.000
 70
    32
  0
VERTEX
  8
E59LXLIFT
 62
6
 10
5108.467
 20
-9474.644
 30
-631.000
 70
    32
  0
VERTEX
  8
E59LXLIFT
 62
6
 10
5110.802
 20
-9469.761
 30
-631.000
 70
    32
  0
VERTEX
  8
E59LXLIFT
 62
6
 10
5114.696
 20
-9468.285
 30
-631.000
 70
    32
  0
VERTEX
  8
E59LXLIFT
 62
6
 10
5108.815
 20
-9458.492
 30
-631.000
 70
    32
  0
VERTEX
  8
E59LXLIFT
 62
6
 10
5106.843
 20
-9441.948
 30
-631.000
 70
    32
  0
VERTEX
  8
E59LXLIFT
 62
6
 10
5107.042
 20
-9439.657
 30
-631.000
 70
    32
  0
VERTEX
  8
E59LXLIFT
 62
6
 10
5100.972
 20
-9435.802
 30
-631.000
 70
    32
  0
VERTEX
  8
E59LXLIFT
 62
6
 10
5095.710
 20
-9415.684
 30
-631.000
 70
    32
  0
VERTEX
  8
E59LXLIFT
 62
6
 10
5078.023
 20
-9414.385
 30
-631.000
 70
    32
  0
VERTEX
  8
E59LXLIFT
 62
6
 10
5063.612
 20
-9407.106
 30
-631.000
 70
    32
  0
VERTEX
  8
E59LXLIFT
 62
6
 10
5051.562
 20
-9411.474
 30
-631.000
 70
    32
  0
VERTEX
  8
E59LXLIFT
 62
6
 10
5046.573
 20
-9411.257
 30
-631.000
 70
    32
  0
VERTEX
  8
E59LXLIFT
 62
6
 10
5034.574
 20
-9404.198
 30
-631.000
 70
    32
  0
VERTEX
  8
E59LXLIFT
 62
6
 10
5029.604
 20
-9400.529
 30
-631.000
 70
    32
  0
VERTEX
  8
E59LXLIFT
 62
6
 10
5025.585
 20
-9402.738
 30
-631.000
 70
    32
  0
SEQEND
  8
E59LXLIFT
  0
POLYLINE
  8
E59LXLIFT
 62
6
 66
     1
 70
     9
  0
VERTEX
  8
E59LXLIFT
 62
6
 10
5101.784
 20
-9412.899
 30
-612.000
 70
    32
  0
VERTEX
  8
E59LXLIFT
 62
6
 10
5088.032
 20
-9422.730
 30
-612.000
 70
    32
  0
VERTEX
  8
E59LXLIFT
 62
6
 10
5095.958
 20
-9436.971
 30
-612.000
 70
    32
  0
VERTEX
  8
E59LXLIFT
 62
6
 10
5100.057
 20
-9442.011
 30
-612.000
 70
    32
  0
VERTEX
  8
E59LXLIFT
 62
6
 10
5114.209
 20
-9442.302
 30
-612.000
 70
    32
  0
VERTEX
  8
E59LXLIFT
 62
6
 10
5118.293
 20
-9448.532
 30
-612.000
 70
    32
  0
VERTEX
  8
E59LXLIFT
 62
6
 10
5113.797
 20
-9453.856
 30
-612.000
 70
    32
  0
VERTEX
  8
E59LXLIFT
 62
6
 10
5100.319
 20
-9453.303
 30
-612.000
 70
    32
  0
VERTEX
  8
E59LXLIFT
 62
6
 10
5094.792
 20
-9452.921
 30
-612.000
 70
    32
  0
VERTEX
  8
E59LXLIFT
 62
6
 10
5087.845
 20
-9455.688
 30
-612.000
 70
    32
  0
VERTEX
  8
E59LXLIFT
 62
6
 10
5073.099
 20
-9454.101
 30
-612.000
 70
    32
  0
VERTEX
  8
E59LXLIFT
 62
6
 10
5051.819
 20
-9449.948
 30
-612.000
 70
    32
  0
VERTEX
  8
E59LXLIFT
 62
6
 10
5041.161
 20
-9445.040
 30
-612.000
 70
    32
  0
VERTEX
  8
E59LXLIFT
 62
6
 10
5036.216
 20
-9435.772
 30
-612.000
 70
    32
  0
VERTEX
  8
E59LXLIFT
 62
6
 10
5026.979
 20
-9427.715
 30
-612.000
 70
    32
  0
VERTEX
  8
E59LXLIFT
 62
6
 10
5021.276
 20
-9408.576
 30
-612.000
 70
    32
  0
VERTEX
  8
E59LXLIFT
 62
6
 10
5025.087
 20
-9405.774
 30
-612.000
 70
    32
  0
VERTEX
  8
E59LXLIFT
 62
6
 10
5043.179
 20
-9412.397
 30
-612.000
 70
    32
  0
VERTEX
  8
E59LXLIFT
 62
6
 10
5050.062
 20
-9408.173
 30
-612.000
 70
    32
  0
VERTEX
  8
E59LXLIFT
 62
6
 10
5070.244
 20
-9407.740
 30
-612.000
 70
    32
  0
VERTEX
  8
E59LXLIFT
 62
6
 10
5086.057
 20
-9405.676
 30
-612.000
 70
    32
  0
SEQEND
  8
E59LXLIFT
  0
POLYLINE
  8
E59LXLIFT
 62
6
 66
     1
 70
     9
  0
VERTEX
  8
E59LXLIFT
 62
6
 10
5023.411
 20
-9430.237
 30
-601.000
 70
    32
  0
VERTEX
  8
E59LXLIFT
 62
6
 10
5033.298
 20
-9437.186
 30
-601.000
 70
    32
  0
VERTEX
  8
E59LXLIFT
 62
6
 10
5045.861
 20
-9445.781
 30
-601.000
 70
    32
  0
VERTEX
  8
E59LXLIFT
 62
6
 10
5060.374
 20
-9452.130
 30
-601.000
 70
    32
  0
VERTEX
  8
E59LXLIFT
 62
6
 10
5074.343
 20
-9460.585
 30
-601.000
 70
    32
  0
VERTEX
  8
E59LXLIFT
 62
6
 10
5082.712
 20
-9458.291
 30
-601.000
 70
    32
  0
VERTEX
  8
E59LXLIFT
 62
6
 10
5093.377
 20
-9458.773
 30
-601.000
 70
    32
  0
VERTEX
  8
E59LXLIFT
 62
6
 10
5105.598
 20
-9455.998
 30
-601.000
 70
    32
  0
VERTEX
  8
E59LXLIFT
 62
6
 10
5110.595
 20
-9449.113
 30
-601.000
 70
    32
  0
VERTEX
  8
E59LXLIFT
 62
6
 10
5107.328
 20
-9443.156
 30
-601.000
 70
    32
  0
VERTEX
  8
E59LXLIFT
 62
6
 10
5098.918
 20
-9436.016
 30
-601.000
 70
    32
  0
VERTEX
  8
E59LXLIFT
 62
6
 10
5093.441
 20
-9434.211
 30
-601.000
 70
    32
  0
VERTEX
  8
E59LXLIFT
 62
6
 10
5084.649
 20
-9434.549
 30
-601.000
 70
    32
  0
VERTEX
  8
E59LXLIFT
 62
6
 10
5075.064
 20
-9419.858
 30
-601.000
 70
    32
  0
VERTEX
  8
E59LXLIFT
 62
6
 10
5066.249
 20
-9412.147
 30
-601.000
 70
    32
  0
VERTEX
  8
E59LXLIFT
 62
6
 10
5048.224
 20
-9413.564
 30
-601.000
 70
    32
  0
VERTEX
  8
E59LXLIFT
 62
6
 10
5040.141
 20
-9415.655
 30
-601.000
 70
    32
  0
VERTEX
  8
E59LXLIFT
 62
6
 10
5030.738
 20
-9419.974
 30
-601.000
 70
    32
  0
SEQEND
  8
E59LXLIFT
  0
POLYLINE
  8
E59LXLIFT
 62
6
 66
     1
 70
     9
  0
VERTEX
  8
E59LXLIFT
 62
6
 10
5015.104
 20
-9383.444
 30
-593.000
 70
    32
  0
VERTEX
  8
E59LXLIFT
 62
6
 10
5026.417
 20
-9388.702
 30
-593.000
 70
    32
  0
VERTEX
  8
E59LXLIFT
 62
6
 10
5043.843
 20
-9388.503
 30
-593.000
 70
    32
  0
VERTEX
  8
E59LXLIFT
 62
6
 10
5051.313
 20
-9385.091
 30
-593.000
 70
    32
  0
VERTEX
  8
E59LXLIFT
 62
6
 10
5063.685
 20
-9390.022
 30
-593.000
 70
    32
  0
VERTEX
  8
E59LXLIFT
 62
6
 10
5071.204
 20
-9398.861
 30
-593.000
 70
    32
  0
VERTEX
  8
E59LXLIFT
 62
6
 10
5070.730
 20
-9408.578
 30
-593.000
 70
    32
  0
VERTEX
  8
E59LXLIFT
 62
6
 10
5071.019
 20
-9418.610
 30
-593.000
 70
    32
  0
VERTEX
  8
E59LXLIFT
 62
6
 10
5082.944
 20
-9431.191
 30
-593.000
 70
    32
  0
VERTEX
  8
E59LXLIFT
 62
6
 10
5095.974
 20
-9426.812
 30
-593.000
 70
    32
  0
VERTEX
  8
E59LXLIFT
 62
6
 10
5107.921
 20
-9419.869
 30
-593.000
 70
    32
  0
VERTEX
  8
E59LXLIFT
 62
6
 10
5117.667
 20
-9426.250
 30
-593.000
 70
    32
  0
VERTEX
  8
E59LXLIFT
 62
6
 10
5115.407
 20
-9434.228
 30
-593.000
 70
    32
  0
VERTEX
  8
E59LXLIFT
 62
6
 10
5108.507
 20
-9444.454
 30
-593.000
 70
    32
  0
VERTEX
  8
E59LXLIFT
 62
6
 10
5097.363
 20
-9449.960
 30
-593.000
 70
    32
  0
VERTEX
  8
E59LXLIFT
 62
6
 10
5087.316
 20
-9453.387
 30
-593.000
 70
    32
  0
VERTEX
  8
E59LXLIFT
 62
6
 10
5080.425
 20
-9455.954
 30
-593.000
 70
    32
  0
VERTEX
  8
E59LXLIFT
 62
6
 10
5075.024
 20
-9454.434
 30
-593.000
 70
    32
  0
VERTEX
  8
E59LXLIFT
 62
6
 10
5067.030
 20
-9448.090
 30
-593.000
 70
    32
  0
VERTEX
  8
E59LXLIFT
 62
6
 10
5059.115
 20
-9446.972
 30
-593.000
 70
    32
  0
VERTEX
  8
E59LXLIFT
 62
6
 10
5049.752
 20
-9444.735
 30
-593.000
 70
    32
  0
VERTEX
  8
E59LXLIFT
 62
6
 10
5039.909
 20
-9434.758
 30
-593.000
 70
    32
  0
VERTEX
  8
E59LXLIFT
 62
6
 10
5025.836
 20
-9429.860
 30
-593.000
 70
    32
  0
VERTEX
  8
E59LXLIFT
 62
6
 10
5014.098
 20
-9426.415
 30
-593.000
 70
    32
  0
VERTEX
  8
E59LXLIFT
 62
6
 10
5006.107
 20
-9422.332
 30
-593.000
 70
    32
  0
VERTEX
  8
E59LXLIFT
 62
6
 10
5003.023
 20
-9416.674
 30
-593.000
 70
    32
  0
VERTEX
  8
E59LXLIFT
 62
6
 10
5006.285
 20
-9398.062
 30
-593.000
 70
    32
  0
SEQEND
  8
E59LXLIFT
  0
POLYLINE
  8
E59LXLIFT
 62
6
 66
     1
 70
     9
  0
VERTEX
  8
E59LXLIFT
 62
6
 10
5072.948
 20
-9434.394
 30
-574.000
 70
    32
  0
VERTEX
  8
E59LXLIFT
 62
6
 10
5065.080
 20
-9432.537
 30
-574.000
 70
    32
  0
VERTEX
  8
E59LXLIFT
 62
6
 10
5060.862
 20
-9427.799
 30
-574.000
 70
    32
  0
VERTEX
  8
E59LXLIFT
 62
6
 10
5047.834
 20
-9424.822
 30
-574.000
 70
    32
  0
VERTEX
  8
E59LXLIFT
 62
6
 10
5034.397
 20
-9419.647
 30
-574.000
 70
    32
  0
VERTEX
  8
E59LXLIFT
 62
6
 10
5011.889
 20
-9410.669
 30
-574.000
 70
    32
  0
VERTEX
  8
E59LXLIFT
 62
6
 10
4995.307
 20
-9407.137
 30
-574.000
 70
    32
  0
VERTEX
  8
E59LXLIFT
 62
6
 10
4958.460
 20
-9389.517
 30
-574.000
 70
    32
  0
VERTEX
  8
E59LXLIFT
 62
6
 10
4947.936
 20
-9384.170
 30
-574.000
 70
    32
  0
VERTEX
  8
E59LXLIFT
 62
6
 10
4951.540
 20
-9375.570
 30
-574.000
 70
    32
  0
VERTEX
  8
E59LXLIFT
 62
6
 10
4963.689
 20
-9373.327
 30
-574.000
 70
    32
  0
VERTEX
  8
E59LXLIFT
 62
6
 10
4970.322
 20
-9377.062
 30
-574.000
 70
    32
  0
VERTEX
  8
E59LXLIFT
 62
6
 10
4977.839
 20
-9372.337
 30
-574.000
 70
    32
  0
VERTEX
  8
E59LXLIFT
 62
6
 10
4981.789
 20
-9350.675
 30
-574.000
 70
    32
  0
VERTEX
  8
E59LXLIFT
 62
6
 10
4999.459
 20
-9346.031
 30
-574.000
 70
    32
  0
VERTEX
  8
E59LXLIFT
 62
6
 10
5007.021
 20
-9349.848
 30
-574.000
 70
    32
  0
VERTEX
  8
E59LXLIFT
 62
6
 10
5007.862
 20
-9355.314
 30
-574.000
 70
    32
  0
VERTEX
  8
E59LXLIFT
 62
6
 10
5029.629
 20
-9372.648
 30
-574.000
 70
    32
  0
VERTEX
  8
E59LXLIFT
 62
6
 10
5062.029
 20
-9407.082
 30
-574.000
 70
    32
  0
VERTEX
  8
E59LXLIFT
 62
6
 10
5072.575
 20
-9418.709
 30
-574.000
 70
    32
  0
SEQEND
  8
E59LXLIFT
  0
POLYLINE
  8
E59LXLIFT
 62
6
 66
     1
 70
     9
  0
VERTEX
  8
E59LXLIFT
 62
6
 10
4994.096
 20
-9347.399
 30
-565.000
 70
    32
  0
VERTEX
  8
E59LXLIFT
 62
6
 10
5026.233
 20
-9379.978
 30
-565.000
 70
    32
  0
VERTEX
  8
E59LXLIFT
 62
6
 10
5047.293
 20
-9397.698
 30
-565.000
 70
    32
  0
VERTEX
  8
E59LXLIFT
 62
6
 10
5057.033
 20
-9402.468
 30
-565.000
 70
    32
  0
VERTEX
  8
E59LXLIFT
 62
6
 10
5051.516
 20
-9421.963
 30
-565.000
 70
    32
  0
VERTEX
  8
E59LXLIFT
 62
6
 10
5036.395
 20
-9415.449
 30
-565.000
 70
    32
  0
VERTEX
  8
E59LXLIFT
 62
6
 10
5022.662
 20
-9403.811
 30
-565.000
 70
    32
  0
VERTEX
  8
E59LXLIFT
 62
6
 10
5008.300
 20
-9409.433
 30
-565.000
 70
    32
  0
VERTEX
  8
E59LXLIFT
 62
6
 10
4991.442
 20
-9402.766
 30
-565.000
 70
    32
  0
VERTEX
  8
E59LXLIFT
 62
6
 10
4954.907
 20
-9380.741
 30
-565.000
 70
    32
  0
VERTEX
  8
E59LXLIFT
 62
6
 10
4963.250
 20
-9367.549
 30
-565.000
 70
    32
  0
VERTEX
  8
E59LXLIFT
 62
6
 10
4967.433
 20
-9355.199
 30
-565.000
 70
    32
  0
SEQEND
  8
E59LXLIFT
  0
POLYLINE
  8
E59LXLIFT
 62
6
 66
     1
 70
     9
  0
VERTEX
  8
E59LXLIFT
 62
6
 10
4993.286
 20
-9346.957
 30
-556.000
 70
    32
  0
VERTEX
  8
E59LXLIFT
 62
6
 10
5017.834
 20
-9369.986
 30
-556.000
 70
    32
  0
VERTEX
  8
E59LXLIFT
 62
6
 10
5024.652
 20
-9379.363
 30
-556.000
 70
    32
  0
VERTEX
  8
E59LXLIFT
 62
6
 10
5029.090
 20
-9389.951
 30
-556.000
 70
    32
  0
VERTEX
  8
E59LXLIFT
 62
6
 10
5036.391
 20
-9398.207
 30
-556.000
 70
    32
  0
VERTEX
  8
E59LXLIFT
 62
6
 10
5029.606
 20
-9408.680
 30
-556.000
 70
    32
  0
VERTEX
  8
E59LXLIFT
 62
6
 10
5028.429
 20
-9408.566
 30
-556.000
 70
    32
  0
VERTEX
  8
E59LXLIFT
 62
6
 10
5006.547
 20
-9395.796
 30
-556.000
 70
    32
  0
VERTEX
  8
E59LXLIFT
 62
6
 10
4990.861
 20
-9386.093
 30
-556.000
 70
    32
  0
VERTEX
  8
E59LXLIFT
 62
6
 10
4987.174
 20
-9393.075
 30
-556.000
 70
    32
  0
VERTEX
  8
E59LXLIFT
 62
6
 10
4963.438
 20
-9379.273
 30
-556.000
 70
    32
  0
VERTEX
  8
E59LXLIFT
 62
6
 10
4968.567
 20
-9371.880
 30
-556.000
 70
    32
  0
VERTEX
  8
E59LXLIFT
 62
6
 10
4974.283
 20
-9366.019
 30
-556.000
 70
    32
  0
VERTEX
  8
E59LXLIFT
 62
6
 10
4968.543
 20
-9353.225
 30
-556.000
 70
    32
  0
VERTEX
  8
E59LXLIFT
 62
6
 10
4971.962
 20
-9346.768
 30
-556.000
 70
    32
  0
SEQEND
  8
E59LXLIFT
  0
POLYLINE
  8
E59LXLIFT
 62
3
 66
     1
 70
     9
  0
VERTEX
  8
E59LXLIFT
 62
3
 10
5031.516
 20
-9423.389
 30
-548.000
 70
    32
  0
VERTEX
  8
E59LXLIFT
 62
3
 10
5033.971
 20
-9431.733
 30
-548.000
 70
    32
  0
VERTEX
  8
E59LXLIFT
 62
3
 10
5031.075
 20
-9436.386
 30
-548.000
 70
    32
  0
VERTEX
  8
E59LXLIFT
 62
3
 10
5020.670
 20
-9437.088
 30
-548.000
 70
    32
  0
VERTEX
  8
E59LXLIFT
 62
3
 10
5014.443
 20
-9448.465
 30
-548.000
 70
    32
  0
VERTEX
  8
E59LXLIFT
 62
3
 10
5004.523
 20
-9450.119
 30
-548.000
 70
    32
  0
VERTEX
  8
E59LXLIFT
 62
3
 10
4989.447
 20
-9455.585
 30
-548.000
 70
    32
  0
VERTEX
  8
E59LXLIFT
 62
3
 10
4987.235
 20
-9450.229
 30
-548.000
 70
    32
  0
VERTEX
  8
E59LXLIFT
 62
3
 10
5000.195
 20
-9443.378
 30
-548.000
 70
    32
  0
VERTEX
  8
E59LXLIFT
 62
3
 10
5016.372
 20
-9430.980
 30
-548.000
 70
    32
  0
VERTEX
  8
E59LXLIFT
 62
3
 10
5021.721
 20
-9417.085
 30
-548.000
 70
    32
  0
SEQEND
  8
E59LXLIFT
  0
POLYLINE
  8
E59LXLIFT
 62
6
 66
     1
 70
     9
  0
VERTEX
  8
E59LXLIFT
 62
6
 10
5024.450
 20
-9385.463
 30
-548.000
 70
    32
  0
VERTEX
  8
E59LXLIFT
 62
6
 10
5015.167
 20
-9376.158
 30
-548.000
 70
    32
  0
VERTEX
  8
E59LXLIFT
 62
6
 10
5010.915
 20
-9368.487
 30
-548.000
 70
    32
  0
VERTEX
  8
E59LXLIFT
 62
6
 10
5007.080
 20
-9356.356
 30
-548.000
 70
    32
  0
VERTEX
  8
E59LXLIFT
 62
6
 10
4990.898
 20
-9354.119
 30
-548.000
 70
    32
  0
VERTEX
  8
E59LXLIFT
 62
6
 10
4978.876
 20
-9349.680
 30
-548.000
 70
    32
  0
VERTEX
  8
E59LXLIFT
 62
6
 10
4969.275
 20
-9345.854
 30
-548.000
 70
    32
  0
VERTEX
  8
E59LXLIFT
 62
6
 10
4962.868
 20
-9347.532
 30
-548.000
 70
    32
  0
VERTEX
  8
E59LXLIFT
 62
6
 10
4962.520
 20
-9362.428
 30
-548.000
 70
    32
  0
VERTEX
  8
E59LXLIFT
 62
6
 10
4965.181
 20
-9371.494
 30
-548.000
 70
    32
  0
VERTEX
  8
E59LXLIFT
 62
6
 10
4963.834
 20
-9378.389
 30
-548.000
 70
    32
  0
VERTEX
  8
E59LXLIFT
 62
6
 10
4969.806
 20
-9386.318
 30
-548.000
 70
    32
  0
VERTEX
  8
E59LXLIFT
 62
6
 10
4975.466
 20
-9388.360
 30
-548.000
 70
    32
  0
VERTEX
  8
E59LXLIFT
 62
6
 10
4986.925
 20
-9387.753
 30
-548.000
 70
    32
  0
VERTEX
  8
E59LXLIFT
 62
6
 10
5001.235
 20
-9391.593
 30
-548.000
 70
    32
  0
VERTEX
  8
E59LXLIFT
 62
6
 10
5015.054
 20
-9400.384
 30
-548.000
 70
    32
  0
SEQEND
  8
E59LXLIFT
  0
POLYLINE
  8
E59LXLIFT
 62
3
 66
     1
 70
     9
  0
VERTEX
  8
E59LXLIFT
 62
3
 10
6317.093
 20
-10406.221
 30
-660.000
 70
    32
  0
VERTEX
  8
E59LXLIFT
 62
3
 10
6322.931
 20
-10416.431
 30
-660.000
 70
    32
  0
VERTEX
  8
E59LXLIFT
 62
3
 10
6328.999
 20
-10422.094
 30
-660.000
 70
    32
  0
VERTEX
  8
E59LXLIFT
 62
3
 10
6347.131
 20
-10391.445
 30
-660.000
 70
    32
  0
VERTEX
  8
E59LXLIFT
 62
3
 10
6343.797
 20
-10382.984
 30
-660.000
 70
    32
  0
VERTEX
  8
E59LXLIFT
 62
3
 10
6343.110
 20
-10371.462
 30
-660.000
 70
    32
  0
VERTEX
  8
E59LXLIFT
 62
3
 10
6337.937
 20
-10358.024
 30
-660.000
 70
    32
  0
VERTEX
  8
E59LXLIFT
 62
3
 10
6335.769
 20
-10343.774
 30
-660.000
 70
    32
  0
VERTEX
  8
E59LXLIFT
 62
3
 10
6335.910
 20
-10331.747
 30
-660.000
 70
    32
  0
VERTEX
  8
E59LXLIFT
 62
3
 10
6324.635
 20
-10320.108
 30
-660.000
 70
    32
  0
VERTEX
  8
E59LXLIFT
 62
3
 10
6309.229
 20
-10309.681
 30
-660.000
 70
    32
  0
VERTEX
  8
E59LXLIFT
 62
3
 10
6290.552
 20
-10320.169
 30
-660.000
 70
    32
  0
VERTEX
  8
E59LXLIFT
 62
3
 10
6304.322
 20
-10351.503
 30
-660.000
 70
    32
  0
VERTEX
  8
E59LXLIFT
 62
3
 10
6321.300
 20
-10375.967
 30
-660.000
 70
    32
  0
VERTEX
  8
E59LXLIFT
 62
3
 10
6324.797
 20
-10387.150
 30
-660.000
 70
    32
  0
VERTEX
  8
E59LXLIFT
 62
3
 10
6328.895
 20
-10397.669
 30
-660.000
 70
    32
  0
SEQEND
  8
E59LXLIFT
  0
POLYLINE
  8
E59LXLIFT
 62
6
 66
     1
 70
     9
  0
VERTEX
  8
E59LXLIFT
 62
6
 10
5930.103
 20
-9950.545
 30
-663.000
 70
    32
  0
VERTEX
  8
E59LXLIFT
 62
6
 10
5935.805
 20
-9955.715
 30
-663.000
 70
    32
  0
VERTEX
  8
E59LXLIFT
 62
6
 10
5934.230
 20
-9966.401
 30
-663.000
 70
    32
  0
VERTEX
  8
E59LXLIFT
 62
6
 10
5946.162
 20
-9984.224
 30
-663.000
 70
    32
  0
VERTEX
  8
E59LXLIFT
 62
6
 10
5957.156
 20
-9991.805
 30
-663.000
 70
    32
  0
VERTEX
  8
E59LXLIFT
 62
6
 10
5966.017
 20
-9997.252
 30
-663.000
 70
    32
  0
VERTEX
  8
E59LXLIFT
 62
6
 10
5977.401
 20
-10011.982
 30
-663.000
 70
    32
  0
VERTEX
  8
E59LXLIFT
 62
6
 10
5984.178
 20
-10008.148
 30
-663.000
 70
    32
  0
VERTEX
  8
E59LXLIFT
 62
6
 10
5986.037
 20
-9988.718
 30
-663.000
 70
    32
  0
VERTEX
  8
E59LXLIFT
 62
6
 10
5976.685
 20
-9983.199
 30
-663.000
 70
    32
  0
VERTEX
  8
E59LXLIFT
 62
6
 10
5971.935
 20
-9973.275
 30
-663.000
 70
    32
  0
VERTEX
  8
E59LXLIFT
 62
6
 10
5972.073
 20
-9957.858
 30
-663.000
 70
    32
  0
VERTEX
  8
E59LXLIFT
 62
6
 10
5973.585
 20
-9949.296
 30
-663.000
 70
    32
  0
VERTEX
  8
E59LXLIFT
 62
6
 10
5965.771
 20
-9945.258
 30
-663.000
 70
    32
  0
VERTEX
  8
E59LXLIFT
 62
6
 10
5955.486
 20
-9944.370
 30
-663.000
 70
    32
  0
VERTEX
  8
E59LXLIFT
 62
6
 10
5946.296
 20
-9945.840
 30
-663.000
 70
    32
  0
VERTEX
  8
E59LXLIFT
 62
6
 10
5944.642
 20
-9942.584
 30
-663.000
 70
    32
  0
VERTEX
  8
E59LXLIFT
 62
6
 10
5940.015
 20
-9936.506
 30
-663.000
 70
    32
  0
VERTEX
  8
E59LXLIFT
 62
6
 10
5925.416
 20
-9946.152
 30
-663.000
 70
    32
  0
SEQEND
  8
E59LXLIFT
  0
POLYLINE
  8
E59LXLIFT
 62
13
 66
     1
 70
     9
  0
VERTEX
  8
E59LXLIFT
 62
13
 10
5884.794
 20
-9839.828
 30
-659.000
 70
    32
  0
VERTEX
  8
E59LXLIFT
 62
13
 10
5880.772
 20
-9856.053
 30
-659.000
 70
    32
  0
VERTEX
  8
E59LXLIFT
 62
13
 10
5883.267
 20
-9863.825
 30
-659.000
 70
    32
  0
VERTEX
  8
E59LXLIFT
 62
13
 10
5879.774
 20
-9867.514
 30
-659.000
 70
    32
  0
VERTEX
  8
E59LXLIFT
 62
13
 10
5873.662
 20
-9863.853
 30
-659.000
 70
    32
  0
VERTEX
  8
E59LXLIFT
 62
13
 10
5867.693
 20
-9863.475
 30
-659.000
 70
    32
  0
VERTEX
  8
E59LXLIFT
 62
13
 10
5860.956
 20
-9854.262
 30
-659.000
 70
    32
  0
VERTEX
  8
E59LXLIFT
 62
13
 10
5859.196
 20
-9847.038
 30
-659.000
 70
    32
  0
VERTEX
  8
E59LXLIFT
 62
13
 10
5854.917
 20
-9845.842
 30
-659.000
 70
    32
  0
VERTEX
  8
E59LXLIFT
 62
13
 10
5855.681
 20
-9839.805
 30
-659.000
 70
    32
  0
VERTEX
  8
E59LXLIFT
 62
13
 10
5867.500
 20
-9831.569
 30
-659.000
 70
    32
  0
VERTEX
  8
E59LXLIFT
 62
13
 10
5876.618
 20
-9826.324
 30
-659.000
 70
    32
  0
VERTEX
  8
E59LXLIFT
 62
13
 10
5877.560
 20
-9831.859
 30
-659.000
 70
    32
  0
VERTEX
  8
E59LXLIFT
 62
13
 10
5883.474
 20
-9832.605
 30
-659.000
 70
    32
  0
SEQEND
  8
E59LXLIFT
  0
POLYLINE
  8
E59LXLIFT
 62
13
 66
     1
 70
     9
  0
VERTEX
  8
E59LXLIFT
 62
13
 10
5449.011
 20
-9563.270
 30
-656.000
 70
    32
  0
VERTEX
  8
E59LXLIFT
 62
13
 10
5436.927
 20
-9572.032
 30
-656.000
 70
    32
  0
VERTEX
  8
E59LXLIFT
 62
13
 10
5443.848
 20
-9591.501
 30
-656.000
 70
    32
  0
VERTEX
  8
E59LXLIFT
 62
13
 10
5451.220
 20
-9604.070
 30
-656.000
 70
    32
  0
VERTEX
  8
E59LXLIFT
 62
13
 10
5473.056
 20
-9605.782
 30
-656.000
 70
    32
  0
VERTEX
  8
E59LXLIFT
 62
13
 10
5478.550
 20
-9598.308
 30
-656.000
 70
    32
  0
VERTEX
  8
E59LXLIFT
 62
13
 10
5479.717
 20
-9572.501
 30
-656.000
 70
    32
  0
VERTEX
  8
E59LXLIFT
 62
13
 10
5477.960
 20
-9568.665
 30
-656.000
 70
    32
  0
VERTEX
  8
E59LXLIFT
 62
13
 10
5465.556
 20
-9566.398
 30
-656.000
 70
    32
  0
SEQEND
  8
E59LXLIFT
  0
POLYLINE
  8
E59LXLIFT
 62
7
 66
     1
 70
     9
  0
VERTEX
  8
E59LXLIFT
 62
7
 10
5423.391
 20
-9559.558
 30
-660.000
 70
    32
  0
VERTEX
  8
E59LXLIFT
 62
7
 10
5426.317
 20
-9549.071
 30
-660.000
 70
    32
  0
VERTEX
  8
E59LXLIFT
 62
7
 10
5424.046
 20
-9542.336
 30
-660.000
 70
    32
  0
VERTEX
  8
E59LXLIFT
 62
7
 10
5413.581
 20
-9542.237
 30
-660.000
 70
    32
  0
VERTEX
  8
E59LXLIFT
 62
7
 10
5403.554
 20
-9546.407
 30
-660.000
 70
    32
  0
VERTEX
  8
E59LXLIFT
 62
7
 10
5395.129
 20
-9545.668
 30
-660.000
 70
    32
  0
VERTEX
  8
E59LXLIFT
 62
7
 10
5388.031
 20
-9538.472
 30
-660.000
 70
    32
  0
VERTEX
  8
E59LXLIFT
 62
7
 10
5382.716
 20
-9533.234
 30
-660.000
 70
    32
  0
VERTEX
  8
E59LXLIFT
 62
7
 10
5379.691
 20
-9538.436
 30
-660.000
 70
    32
  0
VERTEX
  8
E59LXLIFT
 62
7
 10
5382.397
 20
-9549.879
 30
-660.000
 70
    32
  0
VERTEX
  8
E59LXLIFT
 62
7
 10
5382.987
 20
-9559.504
 30
-660.000
 70
    32
  0
VERTEX
  8
E59LXLIFT
 62
7
 10
5380.943
 20
-9569.117
 30
-660.000
 70
    32
  0
VERTEX
  8
E59LXLIFT
 62
7
 10
5382.381
 20
-9581.503
 30
-660.000
 70
    32
  0
VERTEX
  8
E59LXLIFT
 62
7
 10
5395.790
 20
-9599.104
 30
-660.000
 70
    32
  0
VERTEX
  8
E59LXLIFT
 62
7
 10
5395.211
 20
-9614.957
 30
-660.000
 70
    32
  0
VERTEX
  8
E59LXLIFT
 62
7
 10
5392.358
 20
-9636.876
 30
-660.000
 70
    32
  0
VERTEX
  8
E59LXLIFT
 62
7
 10
5388.560
 20
-9646.043
 30
-660.000
 70
    32
  0
VERTEX
  8
E59LXLIFT
 62
7
 10
5397.805
 20
-9656.127
 30
-660.000
 70
    32
  0
VERTEX
  8
E59LXLIFT
 62
7
 10
5410.184
 20
-9656.006
 30
-660.000
 70
    32
  0
VERTEX
  8
E59LXLIFT
 62
7
 10
5415.491
 20
-9651.078
 30
-660.000
 70
    32
  0
VERTEX
  8
E59LXLIFT
 62
7
 10
5410.892
 20
-9638.854
 30
-660.000
 70
    32
  0
VERTEX
  8
E59LXLIFT
 62
7
 10
5414.191
 20
-9631.370
 30
-660.000
 70
    32
  0
VERTEX
  8
E59LXLIFT
 62
7
 10
5424.360
 20
-9622.829
 30
-660.000
 70
    32
  0
VERTEX
  8
E59LXLIFT
 62
7
 10
5428.427
 20
-9612.258
 30
-660.000
 70
    32
  0
VERTEX
  8
E59LXLIFT
 62
7
 10
5428.097
 20
-9599.597
 30
-660.000
 70
    32
  0
VERTEX
  8
E59LXLIFT
 62
7
 10
5417.254
 20
-9581.621
 30
-660.000
 70
    32
  0
VERTEX
  8
E59LXLIFT
 62
7
 10
5410.174
 20
-9570.475
 30
-660.000
 70
    32
  0
VERTEX
  8
E59LXLIFT
 62
7
 10
5410.460
 20
-9565.121
 30
-660.000
 70
    32
  0
SEQEND
  8
E59LXLIFT
  0
POLYLINE
  8
E59LXLIFT
 62
3
 66
     1
 70
     9
  0
VERTEX
  8
E59LXLIFT
 62
3
 10
6335.016
 20
-10397.852
 30
-644.000
 70
    32
  0
VERTEX
  8
E59LXLIFT
 62
3
 10
6344.537
 20
-10393.457
 30
-644.000
 70
    32
  0
VERTEX
  8
E59LXLIFT
 62
3
 10
6343.512
 20
-10384.070
 30
-644.000
 70
    32
  0
VERTEX
  8
E59LXLIFT
 62
3
 10
6333.765
 20
-10365.949
 30
-644.000
 70
    32
  0
VERTEX
  8
E59LXLIFT
 62
3
 10
6326.144
 20
-10353.678
 30
-644.000
 70
    32
  0
VERTEX
  8
E59LXLIFT
 62
3
 10
6324.437
 20
-10347.955
 30
-644.000
 70
    32
  0
VERTEX
  8
E59LXLIFT
 62
3
 10
6320.465
 20
-10342.266
 30
-644.000
 70
    32
  0
VERTEX
  8
E59LXLIFT
 62
3
 10
6315.653
 20
-10330.107
 30
-644.000
 70
    32
  0
VERTEX
  8
E59LXLIFT
 62
3
 10
6307.213
 20
-10321.165
 30
-644.000
 70
    32
  0
VERTEX
  8
E59LXLIFT
 62
3
 10
6300.732
 20
-10321.249
 30
-644.000
 70
    32
  0
VERTEX
  8
E59LXLIFT
 62
3
 10
6295.176
 20
-10328.067
 30
-644.000
 70
    32
  0
VERTEX
  8
E59LXLIFT
 62
3
 10
6300.326
 20
-10341.722
 30
-644.000
 70
    32
  0
VERTEX
  8
E59LXLIFT
 62
3
 10
6303.728
 20
-10354.484
 30
-644.000
 70
    32
  0
VERTEX
  8
E59LXLIFT
 62
3
 10
6304.593
 20
-10364.098
 30
-644.000
 70
    32
  0
VERTEX
  8
E59LXLIFT
 62
3
 10
6316.169
 20
-10371.820
 30
-644.000
 70
    32
  0
VERTEX
  8
E59LXLIFT
 62
3
 10
6324.557
 20
-10382.764
 30
-644.000
 70
    32
  0
SEQEND
  8
E59LXLIFT
  0
POLYLINE
  8
E59LXLIFT
 62
6
 66
     1
 70
     9
  0
VERTEX
  8
E59LXLIFT
 62
6
 10
5986.050
 20
-10012.892
 30
-647.000
 70
    32
  0
VERTEX
  8
E59LXLIFT
 62
6
 10
5986.096
 20
-10003.480
 30
-647.000
 70
    32
  0
VERTEX
  8
E59LXLIFT
 62
6
 10
5985.700
 20
-9992.430
 30
-647.000
 70
    32
  0
VERTEX
  8
E59LXLIFT
 62
6
 10
5979.206
 20
-9985.981
 30
-647.000
 70
    32
  0
VERTEX
  8
E59LXLIFT
 62
6
 10
5972.589
 20
-9977.441
 30
-647.000
 70
    32
  0
VERTEX
  8
E59LXLIFT
 62
6
 10
5971.006
 20
-9965.521
 30
-647.000
 70
    32
  0
VERTEX
  8
E59LXLIFT
 62
6
 10
5972.517
 20
-9947.287
 30
-647.000
 70
    32
  0
VERTEX
  8
E59LXLIFT
 62
6
 10
5965.277
 20
-9945.749
 30
-647.000
 70
    32
  0
VERTEX
  8
E59LXLIFT
 62
6
 10
5954.098
 20
-9942.860
 30
-647.000
 70
    32
  0
VERTEX
  8
E59LXLIFT
 62
6
 10
5943.408
 20
-9930.123
 30
-647.000
 70
    32
  0
VERTEX
  8
E59LXLIFT
 62
6
 10
5926.994
 20
-9943.520
 30
-647.000
 70
    32
  0
VERTEX
  8
E59LXLIFT
 62
6
 10
5932.307
 20
-9960.654
 30
-647.000
 70
    32
  0
VERTEX
  8
E59LXLIFT
 62
6
 10
5942.531
 20
-9978.533
 30
-647.000
 70
    32
  0
VERTEX
  8
E59LXLIFT
 62
6
 10
5956.592
 20
-9991.405
 30
-647.000
 70
    32
  0
VERTEX
  8
E59LXLIFT
 62
6
 10
5970.210
 20
-10002.639
 30
-647.000
 70
    32
  0
VERTEX
  8
E59LXLIFT
 62
6
 10
5978.534
 20
-10014.829
 30
-647.000
 70
    32
  0
SEQEND
  8
E59LXLIFT
  0
POLYLINE
  8
E59LXLIFT
 62
13
 66
     1
 70
     9
  0
VERTEX
  8
E59LXLIFT
 62
13
 10
5899.246
 20
-9856.542
 30
-650.000
 70
    32
  0
VERTEX
  8
E59LXLIFT
 62
13
 10
5892.288
 20
-9842.801
 30
-650.000
 70
    32
  0
VERTEX
  8
E59LXLIFT
 62
13
 10
5889.764
 20
-9832.119
 30
-650.000
 70
    32
  0
VERTEX
  8
E59LXLIFT
 62
13
 10
5877.272
 20
-9826.707
 30
-650.000
 70
    32
  0
VERTEX
  8
E59LXLIFT
 62
13
 10
5872.247
 20
-9818.849
 30
-650.000
 70
    32
  0
VERTEX
  8
E59LXLIFT
 62
13
 10
5861.754
 20
-9825.923
 30
-650.000
 70
    32
  0
VERTEX
  8
E59LXLIFT
 62
13
 10
5866.693
 20
-9835.590
 30
-650.000
 70
    32
  0
VERTEX
  8
E59LXLIFT
 62
13
 10
5874.037
 20
-9851.336
 30
-650.000
 70
    32
  0
VERTEX
  8
E59LXLIFT
 62
13
 10
5887.983
 20
-9863.311
 30
-650.000
 70
    32
  0
SEQEND
  8
E59LXLIFT
  0
POLYLINE
  8
E59LXLIFT
 62
27
 66
     1
 70
     9
  0
VERTEX
  8
E59LXLIFT
 62
27
 10
5845.638
 20
-9932.558
 30
-643.000
 70
    32
  0
VERTEX
  8
E59LXLIFT
 62
27
 10
5843.318
 20
-9942.882
 30
-643.000
 70
    32
  0
VERTEX
  8
E59LXLIFT
 62
27
 10
5850.544
 20
-9958.171
 30
-643.000
 70
    32
  0
VERTEX
  8
E59LXLIFT
 62
27
 10
5863.601
 20
-9983.450
 30
-643.000
 70
    32
  0
VERTEX
  8
E59LXLIFT
 62
27
 10
5868.122
 20
-9998.768
 30
-643.000
 70
    32
  0
VERTEX
  8
E59LXLIFT
 62
27
 10
5876.990
 20
-10009.031
 30
-643.000
 70
    32
  0
VERTEX
  8
E59LXLIFT
 62
27
 10
5890.074
 20
-10008.881
 30
-643.000
 70
    32
  0
VERTEX
  8
E59LXLIFT
 62
27
 10
5906.851
 20
-10004.267
 30
-643.000
 70
    32
  0
VERTEX
  8
E59LXLIFT
 62
27
 10
5897.066
 20
-9986.392
 30
-643.000
 70
    32
  0
VERTEX
  8
E59LXLIFT
 62
27
 10
5891.801
 20
-9967.696
 30
-643.000
 70
    32
  0
VERTEX
  8
E59LXLIFT
 62
27
 10
5889.553
 20
-9957.684
 30
-643.000
 70
    32
  0
VERTEX
  8
E59LXLIFT
 62
27
 10
5881.477
 20
-9951.309
 30
-643.000
 70
    32
  0
VERTEX
  8
E59LXLIFT
 62
27
 10
5870.893
 20
-9946.564
 30
-643.000
 70
    32
  0
VERTEX
  8
E59LXLIFT
 62
27
 10
5864.030
 20
-9942.131
 30
-643.000
 70
    32
  0
VERTEX
  8
E59LXLIFT
 62
27
 10
5857.153
 20
-9931.166
 30
-643.000
 70
    32
  0
SEQEND
  8
E59LXLIFT
  0
POLYLINE
  8
E59LXLIFT
 62
13
 66
     1
 70
     9
  0
VERTEX
  8
E59LXLIFT
 62
13
 10
5476.053
 20
-9584.159
 30
-646.000
 70
    32
  0
VERTEX
  8
E59LXLIFT
 62
13
 10
5455.092
 20
-9567.100
 30
-646.000
 70
    32
  0
VERTEX
  8
E59LXLIFT
 62
13
 10
5441.913
 20
-9555.869
 30
-646.000
 70
    32
  0
VERTEX
  8
E59LXLIFT
 62
13
 10
5438.930
 20
-9551.523
 30
-646.000
 70
    32
  0
VERTEX
  8
E59LXLIFT
 62
13
 10
5446.037
 20
-9546.070
 30
-646.000
 70
    32
  0
VERTEX
  8
E59LXLIFT
 62
13
 10
5439.925
 20
-9542.066
 30
-646.000
 70
    32
  0
VERTEX
  8
E59LXLIFT
 62
13
 10
5426.207
 20
-9544.318
 30
-646.000
 70
    32
  0
VERTEX
  8
E59LXLIFT
 62
13
 10
5413.855
 20
-9547.091
 30
-646.000
 70
    32
  0
VERTEX
  8
E59LXLIFT
 62
13
 10
5421.554
 20
-9560.505
 30
-646.000
 70
    32
  0
VERTEX
  8
E59LXLIFT
 62
13
 10
5425.583
 20
-9561.681
 30
-646.000
 70
    32
  0
VERTEX
  8
E59LXLIFT
 62
13
 10
5429.740
 20
-9570.287
 30
-646.000
 70
    32
  0
VERTEX
  8
E59LXLIFT
 62
13
 10
5438.769
 20
-9574.106
 30
-646.000
 70
    32
  0
VERTEX
  8
E59LXLIFT
 62
13
 10
5444.285
 20
-9584.111
 30
-646.000
 70
    32
  0
VERTEX
  8
E59LXLIFT
 62
13
 10
5444.937
 20
-9598.026
 30
-646.000
 70
    32
  0
VERTEX
  8
E59LXLIFT
 62
13
 10
5452.979
 20
-9602.135
 30
-646.000
 70
    32
  0
VERTEX
  8
E59LXLIFT
 62
13
 10
5459.464
 20
-9601.612
 30
-646.000
 70
    32
  0
VERTEX
  8
E59LXLIFT
 62
13
 10
5464.793
 20
-9596.706
 30
-646.000
 70
    32
  0
SEQEND
  8
E59LXLIFT
  0
POLYLINE
  8
E59LXLIFT
 62
3
 66
     1
 70
     9
  0
VERTEX
  8
E59LXLIFT
 62
3
 10
6326.098
 20
-10421.364
 30
-635.000
 70
    32
  0
VERTEX
  8
E59LXLIFT
 62
3
 10
6341.466
 20
-10401.922
 30
-635.000
 70
    32
  0
VERTEX
  8
E59LXLIFT
 62
3
 10
6345.353
 20
-10392.694
 30
-635.000
 70
    32
  0
VERTEX
  8
E59LXLIFT
 62
3
 10
6341.149
 20
-10366.487
 30
-635.000
 70
    32
  0
VERTEX
  8
E59LXLIFT
 62
3
 10
6335.483
 20
-10352.310
 30
-635.000
 70
    32
  0
VERTEX
  8
E59LXLIFT
 62
3
 10
6334.923
 20
-10336.225
 30
-635.000
 70
    32
  0
VERTEX
  8
E59LXLIFT
 62
3
 10
6332.076
 20
-10325.860
 30
-635.000
 70
    32
  0
VERTEX
  8
E59LXLIFT
 62
3
 10
6320.176
 20
-10315.794
 30
-635.000
 70
    32
  0
VERTEX
  8
E59LXLIFT
 62
3
 10
6306.407
 20
-10305.979
 30
-635.000
 70
    32
  0
VERTEX
  8
E59LXLIFT
 62
3
 10
6297.351
 20
-10302.940
 30
-635.000
 70
    32
  0
VERTEX
  8
E59LXLIFT
 62
3
 10
6286.344
 20
-10310.338
 30
-635.000
 70
    32
  0
VERTEX
  8
E59LXLIFT
 62
3
 10
6277.642
 20
-10319.005
 30
-635.000
 70
    32
  0
VERTEX
  8
E59LXLIFT
 62
3
 10
6275.315
 20
-10329.064
 30
-635.000
 70
    32
  0
VERTEX
  8
E59LXLIFT
 62
3
 10
6280.214
 20
-10329.135
 30
-635.000
 70
    32
  0
VERTEX
  8
E59LXLIFT
 62
3
 10
6294.859
 20
-10344.575
 30
-635.000
 70
    32
  0
VERTEX
  8
E59LXLIFT
 62
3
 10
6305.065
 20
-10364.680
 30
-635.000
 70
    32
  0
VERTEX
  8
E59LXLIFT
 62
3
 10
6311.068
 20
-10373.877
 30
-635.000
 70
    32
  0
VERTEX
  8
E59LXLIFT
 62
3
 10
6319.217
 20
-10387.151
 30
-635.000
 70
    32
  0
VERTEX
  8
E59LXLIFT
 62
3
 10
6318.672
 20
-10394.110
 30
-635.000
 70
    32
  0
VERTEX
  8
E59LXLIFT
 62
3
 10
6322.609
 20
-10400.251
 30
-635.000
 70
    32
  0
VERTEX
  8
E59LXLIFT
 62
3
 10
6318.093
 20
-10407.989
 30
-635.000
 70
    32
  0
SEQEND
  8
E59LXLIFT
  0
POLYLINE
  8
E59LXLIFT
 62
27
 66
     1
 70
     9
  0
VERTEX
  8
E59LXLIFT
 62
27
 10
5875.571
 20
-10010.610
 30
-632.000
 70
    32
  0
VERTEX
  8
E59LXLIFT
 62
27
 10
5882.868
 20
-10005.420
 30
-632.000
 70
    32
  0
VERTEX
  8
E59LXLIFT
 62
27
 10
5890.657
 20
-10004.404
 30
-632.000
 70
    32
  0
VERTEX
  8
E59LXLIFT
 62
27
 10
5897.595
 20
-10000.224
 30
-632.000
 70
    32
  0
VERTEX
  8
E59LXLIFT
 62
27
 10
5902.233
 20
-9998.110
 30
-632.000
 70
    32
  0
VERTEX
  8
E59LXLIFT
 62
27
 10
5902.393
 20
-9994.549
 30
-632.000
 70
    32
  0
VERTEX
  8
E59LXLIFT
 62
27
 10
5897.309
 20
-9989.977
 30
-632.000
 70
    32
  0
VERTEX
  8
E59LXLIFT
 62
27
 10
5895.240
 20
-9978.736
 30
-632.000
 70
    32
  0
VERTEX
  8
E59LXLIFT
 62
27
 10
5891.410
 20
-9964.869
 30
-632.000
 70
    32
  0
VERTEX
  8
E59LXLIFT
 62
27
 10
5887.733
 20
-9960.912
 30
-632.000
 70
    32
  0
VERTEX
  8
E59LXLIFT
 62
27
 10
5884.690
 20
-9961.784
 30
-632.000
 70
    32
  0
VERTEX
  8
E59LXLIFT
 62
27
 10
5871.043
 20
-9942.294
 30
-632.000
 70
    32
  0
VERTEX
  8
E59LXLIFT
 62
27
 10
5859.809
 20
-9926.044
 30
-632.000
 70
    32
  0
VERTEX
  8
E59LXLIFT
 62
27
 10
5847.732
 20
-9927.847
 30
-632.000
 70
    32
  0
VERTEX
  8
E59LXLIFT
 62
27
 10
5841.784
 20
-9931.754
 30
-632.000
 70
    32
  0
VERTEX
  8
E59LXLIFT
 62
27
 10
5841.144
 20
-9940.397
 30
-632.000
 70
    32
  0
VERTEX
  8
E59LXLIFT
 62
27
 10
5848.869
 20
-9966.253
 30
-632.000
 70
    32
  0
VERTEX
  8
E59LXLIFT
 62
27
 10
5860.309
 20
-9997.332
 30
-632.000
 70
    32
  0
VERTEX
  8
E59LXLIFT
 62
27
 10
5865.896
 20
-10010.489
 30
-632.000
 70
    32
  0
SEQEND
  8
E59LXLIFT
  0
POLYLINE
  8
E59LXLIFT
 62
13
 66
     1
 70
     9
  0
VERTEX
  8
E59LXLIFT
 62
13
 10
5430.779
 20
-9625.188
 30
-639.000
 70
    32
  0
VERTEX
  8
E59LXLIFT
 62
13
 10
5440.784
 20
-9623.351
 30
-639.000
 70
    32
  0
VERTEX
  8
E59LXLIFT
 62
13
 10
5449.434
 20
-9615.367
 30
-639.000
 70
    32
  0
VERTEX
  8
E59LXLIFT
 62
13
 10
5458.206
 20
-9597.708
 30
-639.000
 70
    32
  0
VERTEX
  8
E59LXLIFT
 62
13
 10
5464.798
 20
-9582.892
 30
-639.000
 70
    32
  0
VERTEX
  8
E59LXLIFT
 62
13
 10
5462.853
 20
-9575.765
 30
-639.000
 70
    32
  0
VERTEX
  8
E59LXLIFT
 62
13
 10
5452.140
 20
-9568.732
 30
-639.000
 70
    32
  0
VERTEX
  8
E59LXLIFT
 62
13
 10
5443.729
 20
-9559.632
 30
-639.000
 70
    32
  0
VERTEX
  8
E59LXLIFT
 62
13
 10
5437.652
 20
-9546.393
 30
-639.000
 70
    32
  0
VERTEX
  8
E59LXLIFT
 62
13
 10
5428.438
 20
-9540.557
 30
-639.000
 70
    32
  0
VERTEX
  8
E59LXLIFT
 62
13
 10
5421.867
 20
-9539.952
 30
-639.000
 70
    32
  0
VERTEX
  8
E59LXLIFT
 62
13
 10
5419.047
 20
-9551.438
 30
-639.000
 70
    32
  0
VERTEX
  8
E59LXLIFT
 62
13
 10
5417.965
 20
-9561.581
 30
-639.000
 70
    32
  0
VERTEX
  8
E59LXLIFT
 62
13
 10
5426.288
 20
-9569.343
 30
-639.000
 70
    32
  0
VERTEX
  8
E59LXLIFT
 62
13
 10
5439.913
 20
-9574.412
 30
-639.000
 70
    32
  0
VERTEX
  8
E59LXLIFT
 62
13
 10
5445.780
 20
-9579.935
 30
-639.000
 70
    32
  0
VERTEX
  8
E59LXLIFT
 62
13
 10
5446.708
 20
-9590.480
 30
-639.000
 70
    32
  0
VERTEX
  8
E59LXLIFT
 62
13
 10
5436.728
 20
-9600.380
 30
-639.000
 70
    32
  0
VERTEX
  8
E59LXLIFT
 62
13
 10
5430.574
 20
-9605.511
 30
-639.000
 70
    32
  0
VERTEX
  8
E59LXLIFT
 62
13
 10
5429.234
 20
-9611.958
 30
-639.000
 70
    32
  0
SEQEND
  8
E59LXLIFT
  0
POLYLINE
  8
E59LXLIFT
 62
7
 66
     1
 70
     9
  0
VERTEX
  8
E59LXLIFT
 62
7
 10
5421.639
 20
-9643.540
 30
-636.000
 70
    32
  0
VERTEX
  8
E59LXLIFT
 62
7
 10
5424.470
 20
-9626.012
 30
-636.000
 70
    32
  0
VERTEX
  8
E59LXLIFT
 62
7
 10
5422.721
 20
-9602.801
 30
-636.000
 70
    32
  0
VERTEX
  8
E59LXLIFT
 62
7
 10
5420.407
 20
-9581.068
 30
-636.000
 70
    32
  0
VERTEX
  8
E59LXLIFT
 62
7
 10
5420.299
 20
-9573.495
 30
-636.000
 70
    32
  0
VERTEX
  8
E59LXLIFT
 62
7
 10
5423.260
 20
-9562.663
 30
-636.000
 70
    32
  0
VERTEX
  8
E59LXLIFT
 62
7
 10
5418.176
 20
-9553.243
 30
-636.000
 70
    32
  0
VERTEX
  8
E59LXLIFT
 62
7
 10
5401.041
 20
-9548.085
 30
-636.000
 70
    32
  0
VERTEX
  8
E59LXLIFT
 62
7
 10
5385.691
 20
-9548.014
 30
-636.000
 70
    32
  0
VERTEX
  8
E59LXLIFT
 62
7
 10
5369.916
 20
-9551.585
 30
-636.000
 70
    32
  0
VERTEX
  8
E59LXLIFT
 62
7
 10
5364.757
 20
-9554.177
 30
-636.000
 70
    32
  0
VERTEX
  8
E59LXLIFT
 62
7
 10
5366.814
 20
-9561.764
 30
-636.000
 70
    32
  0
VERTEX
  8
E59LXLIFT
 62
7
 10
5368.089
 20
-9572.493
 30
-636.000
 70
    32
  0
VERTEX
  8
E59LXLIFT
 62
7
 10
5372.556
 20
-9584.075
 30
-636.000
 70
    32
  0
VERTEX
  8
E59LXLIFT
 62
7
 10
5379.777
 20
-9596.500
 30
-636.000
 70
    32
  0
VERTEX
  8
E59LXLIFT
 62
7
 10
5382.317
 20
-9607.190
 30
-636.000
 70
    32
  0
VERTEX
  8
E59LXLIFT
 62
7
 10
5382.762
 20
-9619.479
 30
-636.000
 70
    32
  0
VERTEX
  8
E59LXLIFT
 62
7
 10
5382.926
 20
-9629.705
 30
-636.000
 70
    32
  0
VERTEX
  8
E59LXLIFT
 62
7
 10
5384.771
 20
-9640.782
 30
-636.000
 70
    32
  0
VERTEX
  8
E59LXLIFT
 62
7
 10
5390.434
 20
-9651.622
 30
-636.000
 70
    32
  0
VERTEX
  8
E59LXLIFT
 62
7
 10
5397.816
 20
-9654.882
 30
-636.000
 70
    32
  0
SEQEND
  8
E59LXLIFT
  0
POLYLINE
  8
E59LXLIFT
 62
27
 66
     1
 70
     9
  0
VERTEX
  8
E59LXLIFT
 62
27
 10
5900.505
 20
-9997.439
 30
-622.000
 70
    32
  0
VERTEX
  8
E59LXLIFT
 62
27
 10
5893.103
 20
-9977.410
 30
-622.000
 70
    32
  0
VERTEX
  8
E59LXLIFT
 62
27
 10
5888.704
 20
-9958.673
 30
-622.000
 70
    32
  0
VERTEX
  8
E59LXLIFT
 62
27
 10
5884.294
 20
-9959.926
 30
-622.000
 70
    32
  0
VERTEX
  8
E59LXLIFT
 62
27
 10
5867.569
 20
-9938.426
 30
-622.000
 70
    32
  0
VERTEX
  8
E59LXLIFT
 62
27
 10
5858.761
 20
-9926.914
 30
-622.000
 70
    32
  0
VERTEX
  8
E59LXLIFT
 62
27
 10
5846.958
 20
-9930.395
 30
-622.000
 70
    32
  0
VERTEX
  8
E59LXLIFT
 62
27
 10
5839.248
 20
-9926.664
 30
-622.000
 70
    32
  0
VERTEX
  8
E59LXLIFT
 62
27
 10
5832.927
 20
-9932.456
 30
-622.000
 70
    32
  0
VERTEX
  8
E59LXLIFT
 62
27
 10
5834.226
 20
-9949.322
 30
-622.000
 70
    32
  0
VERTEX
  8
E59LXLIFT
 62
27
 10
5842.046
 20
-9952.756
 30
-622.000
 70
    32
  0
VERTEX
  8
E59LXLIFT
 62
27
 10
5845.301
 20
-9959.619
 30
-622.000
 70
    32
  0
VERTEX
  8
E59LXLIFT
 62
27
 10
5847.136
 20
-9969.905
 30
-622.000
 70
    32
  0
VERTEX
  8
E59LXLIFT
 62
27
 10
5844.308
 20
-9978.261
 30
-622.000
 70
    32
  0
VERTEX
  8
E59LXLIFT
 62
27
 10
5850.412
 20
-9998.147
 30
-622.000
 70
    32
  0
VERTEX
  8
E59LXLIFT
 62
27
 10
5864.671
 20
-10018.944
 30
-622.000
 70
    32
  0
VERTEX
  8
E59LXLIFT
 62
27
 10
5873.071
 20
-10018.698
 30
-622.000
 70
    32
  0
SEQEND
  8
E59LXLIFT
  0
POLYLINE
  8
E59LXLIFT
 62
13
 66
     1
 70
     9
  0
VERTEX
  8
E59LXLIFT
 62
13
 10
5446.063
 20
-9542.601
 30
-632.000
 70
    32
  0
VERTEX
  8
E59LXLIFT
 62
13
 10
5465.047
 20
-9559.743
 30
-632.000
 70
    32
  0
VERTEX
  8
E59LXLIFT
 62
13
 10
5473.294
 20
-9570.034
 30
-632.000
 70
    32
  0
VERTEX
  8
E59LXLIFT
 62
13
 10
5466.870
 20
-9580.463
 30
-632.000
 70
    32
  0
VERTEX
  8
E59LXLIFT
 62
13
 10
5456.682
 20
-9590.046
 30
-632.000
 70
    32
  0
VERTEX
  8
E59LXLIFT
 62
13
 10
5452.615
 20
-9602.670
 30
-632.000
 70
    32
  0
VERTEX
  8
E59LXLIFT
 62
13
 10
5450.040
 20
-9609.430
 30
-632.000
 70
    32
  0
VERTEX
  8
E59LXLIFT
 62
13
 10
5437.701
 20
-9614.713
 30
-632.000
 70
    32
  0
VERTEX
  8
E59LXLIFT
 62
13
 10
5426.224
 20
-9586.246
 30
-632.000
 70
    32
  0
VERTEX
  8
E59LXLIFT
 62
13
 10
5412.863
 20
-9560.561
 30
-632.000
 70
    32
  0
VERTEX
  8
E59LXLIFT
 62
13
 10
5417.440
 20
-9556.254
 30
-632.000
 70
    32
  0
SEQEND
  8
E59LXLIFT
  0
POLYLINE
  8
E59LXLIFT
 62
7
 66
     1
 70
     9
  0
VERTEX
  8
E59LXLIFT
 62
7
 10
5353.272
 20
-9565.680
 30
-624.000
 70
    32
  0
VERTEX
  8
E59LXLIFT
 62
7
 10
5359.575
 20
-9573.151
 30
-624.000
 70
    32
  0
VERTEX
  8
E59LXLIFT
 62
7
 10
5372.702
 20
-9582.389
 30
-624.000
 70
    32
  0
VERTEX
  8
E59LXLIFT
 62
7
 10
5380.387
 20
-9595.044
 30
-624.000
 70
    32
  0
VERTEX
  8
E59LXLIFT
 62
7
 10
5379.459
 20
-9612.878
 30
-624.000
 70
    32
  0
VERTEX
  8
E59LXLIFT
 62
7
 10
5384.336
 20
-9630.182
 30
-624.000
 70
    32
  0
VERTEX
  8
E59LXLIFT
 62
7
 10
5393.467
 20
-9638.853
 30
-624.000
 70
    32
  0
VERTEX
  8
E59LXLIFT
 62
7
 10
5405.490
 20
-9650.307
 30
-624.000
 70
    32
  0
VERTEX
  8
E59LXLIFT
 62
7
 10
5418.939
 20
-9642.370
 30
-624.000
 70
    32
  0
VERTEX
  8
E59LXLIFT
 62
7
 10
5421.831
 20
-9629.624
 30
-624.000
 70
    32
  0
VERTEX
  8
E59LXLIFT
 62
7
 10
5418.774
 20
-9599.593
 30
-624.000
 70
    32
  0
VERTEX
  8
E59LXLIFT
 62
7
 10
5418.088
 20
-9584.019
 30
-624.000
 70
    32
  0
VERTEX
  8
E59LXLIFT
 62
7
 10
5412.909
 20
-9569.433
 30
-624.000
 70
    32
  0
VERTEX
  8
E59LXLIFT
 62
7
 10
5412.818
 20
-9563.635
 30
-624.000
 70
    32
  0
VERTEX
  8
E59LXLIFT
 62
7
 10
5408.317
 20
-9562.673
 30
-624.000
 70
    32
  0
VERTEX
  8
E59LXLIFT
 62
7
 10
5396.978
 20
-9560.821
 30
-624.000
 70
    32
  0
VERTEX
  8
E59LXLIFT
 62
7
 10
5388.216
 20
-9554.597
 30
-624.000
 70
    32
  0
VERTEX
  8
E59LXLIFT
 62
7
 10
5377.542
 20
-9554.107
 30
-624.000
 70
    32
  0
VERTEX
  8
E59LXLIFT
 62
7
 10
5371.285
 20
-9549.536
 30
-624.000
 70
    32
  0
VERTEX
  8
E59LXLIFT
 62
7
 10
5368.792
 20
-9544.616
 30
-624.000
 70
    32
  0
VERTEX
  8
E59LXLIFT
 62
7
 10
5360.218
 20
-9545.967
 30
-624.000
 70
    32
  0
VERTEX
  8
E59LXLIFT
 62
7
 10
5355.821
 20
-9553.509
 30
-624.000
 70
    32
  0
SEQEND
  8
E59LXLIFT
  0
POLYLINE
  8
E59LXLIFT
 62
13
 66
     1
 70
     9
  0
VERTEX
  8
E59LXLIFT
 62
13
 10
5426.883
 20
-9549.703
 30
-620.000
 70
    32
  0
VERTEX
  8
E59LXLIFT
 62
13
 10
5466.535
 20
-9561.527
 30
-620.000
 70
    32
  0
VERTEX
  8
E59LXLIFT
 62
13
 10
5466.216
 20
-9573.325
 30
-620.000
 70
    32
  0
VERTEX
  8
E59LXLIFT
 62
13
 10
5462.008
 20
-9582.892
 30
-620.000
 70
    32
  0
VERTEX
  8
E59LXLIFT
 62
13
 10
5453.820
 20
-9589.527
 30
-620.000
 70
    32
  0
VERTEX
  8
E59LXLIFT
 62
13
 10
5454.559
 20
-9594.141
 30
-620.000
 70
    32
  0
VERTEX
  8
E59LXLIFT
 62
13
 10
5441.209
 20
-9604.571
 30
-620.000
 70
    32
  0
VERTEX
  8
E59LXLIFT
 62
13
 10
5433.093
 20
-9607.519
 30
-620.000
 70
    32
  0
VERTEX
  8
E59LXLIFT
 62
13
 10
5417.054
 20
-9579.481
 30
-620.000
 70
    32
  0
VERTEX
  8
E59LXLIFT
 62
13
 10
5414.912
 20
-9570.977
 30
-620.000
 70
    32
  0
VERTEX
  8
E59LXLIFT
 62
13
 10
5417.071
 20
-9554.045
 30
-620.000
 70
    32
  0
SEQEND
  8
E59LXLIFT
  0
POLYLINE
  8
E59LXLIFT
 62
7
 66
     1
 70
     9
  0
VERTEX
  8
E59LXLIFT
 62
7
 10
5372.236
 20
-9570.576
 30
-613.000
 70
    32
  0
VERTEX
  8
E59LXLIFT
 62
7
 10
5386.550
 20
-9597.497
 30
-613.000
 70
    32
  0
VERTEX
  8
E59LXLIFT
 62
7
 10
5393.183
 20
-9630.559
 30
-613.000
 70
    32
  0
VERTEX
  8
E59LXLIFT
 62
7
 10
5406.680
 20
-9629.923
 30
-613.000
 70
    32
  0
VERTEX
  8
E59LXLIFT
 62
7
 10
5414.202
 20
-9623.572
 30
-613.000
 70
    32
  0
VERTEX
  8
E59LXLIFT
 62
7
 10
5420.709
 20
-9618.209
 30
-613.000
 70
    32
  0
VERTEX
  8
E59LXLIFT
 62
7
 10
5420.587
 20
-9601.462
 30
-613.000
 70
    32
  0
VERTEX
  8
E59LXLIFT
 62
7
 10
5410.205
 20
-9574.648
 30
-613.000
 70
    32
  0
VERTEX
  8
E59LXLIFT
 62
7
 10
5394.412
 20
-9550.717
 30
-613.000
 70
    32
  0
VERTEX
  8
E59LXLIFT
 62
7
 10
5386.684
 20
-9541.375
 30
-613.000
 70
    32
  0
VERTEX
  8
E59LXLIFT
 62
7
 10
5386.639
 20
-9526.331
 30
-613.000
 70
    32
  0
VERTEX
  8
E59LXLIFT
 62
7
 10
5375.881
 20
-9501.782
 30
-613.000
 70
    32
  0
VERTEX
  8
E59LXLIFT
 62
7
 10
5363.997
 20
-9506.150
 30
-613.000
 70
    32
  0
VERTEX
  8
E59LXLIFT
 62
7
 10
5350.448
 20
-9506.716
 30
-613.000
 70
    32
  0
VERTEX
  8
E59LXLIFT
 62
7
 10
5353.888
 20
-9536.140
 30
-613.000
 70
    32
  0
VERTEX
  8
E59LXLIFT
 62
7
 10
5357.959
 20
-9552.431
 30
-613.000
 70
    32
  0
VERTEX
  8
E59LXLIFT
 62
7
 10
5351.633
 20
-9567.783
 30
-613.000
 70
    32
  0
SEQEND
  8
E59LXLIFT
  0
POLYLINE
  8
E59LXLIFT
 62
27
 66
     1
 70
     9
  0
VERTEX
  8
E59LXLIFT
 62
27
 10
5861.806
 20
-10015.715
 30
-610.000
 70
    32
  0
VERTEX
  8
E59LXLIFT
 62
27
 10
5854.801
 20
-10011.993
 30
-610.000
 70
    32
  0
VERTEX
  8
E59LXLIFT
 62
27
 10
5848.492
 20
-10003.227
 30
-610.000
 70
    32
  0
VERTEX
  8
E59LXLIFT
 62
27
 10
5846.703
 20
-9990.668
 30
-610.000
 70
    32
  0
VERTEX
  8
E59LXLIFT
 62
27
 10
5840.060
 20
-9973.920
 30
-610.000
 70
    32
  0
VERTEX
  8
E59LXLIFT
 62
27
 10
5834.416
 20
-9942.175
 30
-610.000
 70
    32
  0
VERTEX
  8
E59LXLIFT
 62
27
 10
5827.825
 20
-9925.498
 30
-610.000
 70
    32
  0
VERTEX
  8
E59LXLIFT
 62
27
 10
5829.218
 20
-9918.114
 30
-610.000
 70
    32
  0
VERTEX
  8
E59LXLIFT
 62
27
 10
5838.135
 20
-9913.969
 30
-610.000
 70
    32
  0
VERTEX
  8
E59LXLIFT
 62
27
 10
5855.369
 20
-9932.506
 30
-610.000
 70
    32
  0
VERTEX
  8
E59LXLIFT
 62
27
 10
5872.519
 20
-9956.188
 30
-610.000
 70
    32
  0
VERTEX
  8
E59LXLIFT
 62
27
 10
5886.065
 20
-9973.810
 30
-610.000
 70
    32
  0
VERTEX
  8
E59LXLIFT
 62
27
 10
5890.636
 20
-9987.829
 30
-610.000
 70
    32
  0
VERTEX
  8
E59LXLIFT
 62
27
 10
5890.301
 20
-9994.128
 30
-610.000
 70
    32
  0
SEQEND
  8
E59LXLIFT
  0
POLYLINE
  8
E59LXLIFT
 62
13
 66
     1
 70
     9
  0
VERTEX
  8
E59LXLIFT
 62
13
 10
5542.413
 20
-9587.502
 30
-612.000
 70
    32
  0
VERTEX
  8
E59LXLIFT
 62
13
 10
5527.137
 20
-9580.104
 30
-612.000
 70
    32
  0
VERTEX
  8
E59LXLIFT
 62
13
 10
5506.664
 20
-9575.256
 30
-612.000
 70
    32
  0
VERTEX
  8
E59LXLIFT
 62
13
 10
5490.921
 20
-9579.987
 30
-612.000
 70
    32
  0
VERTEX
  8
E59LXLIFT
 62
13
 10
5480.698
 20
-9584.422
 30
-612.000
 70
    32
  0
VERTEX
  8
E59LXLIFT
 62
13
 10
5470.497
 20
-9574.454
 30
-612.000
 70
    32
  0
VERTEX
  8
E59LXLIFT
 62
13
 10
5456.692
 20
-9576.167
 30
-612.000
 70
    32
  0
VERTEX
  8
E59LXLIFT
 62
13
 10
5455.456
 20
-9584.521
 30
-612.000
 70
    32
  0
VERTEX
  8
E59LXLIFT
 62
13
 10
5446.073
 20
-9592.679
 30
-612.000
 70
    32
  0
VERTEX
  8
E59LXLIFT
 62
13
 10
5431.636
 20
-9603.284
 30
-612.000
 70
    32
  0
VERTEX
  8
E59LXLIFT
 62
13
 10
5422.094
 20
-9609.717
 30
-612.000
 70
    32
  0
VERTEX
  8
E59LXLIFT
 62
13
 10
5418.057
 20
-9605.159
 30
-612.000
 70
    32
  0
VERTEX
  8
E59LXLIFT
 62
13
 10
5423.053
 20
-9594.964
 30
-612.000
 70
    32
  0
VERTEX
  8
E59LXLIFT
 62
13
 10
5423.941
 20
-9580.263
 30
-612.000
 70
    32
  0
VERTEX
  8
E59LXLIFT
 62
13
 10
5418.216
 20
-9563.287
 30
-612.000
 70
    32
  0
VERTEX
  8
E59LXLIFT
 62
13
 10
5420.960
 20
-9554.173
 30
-612.000
 70
    32
  0
VERTEX
  8
E59LXLIFT
 62
13
 10
5438.737
 20
-9558.581
 30
-612.000
 70
    32
  0
VERTEX
  8
E59LXLIFT
 62
13
 10
5460.530
 20
-9561.506
 30
-612.000
 70
    32
  0
VERTEX
  8
E59LXLIFT
 62
13
 10
5484.832
 20
-9561.002
 30
-612.000
 70
    32
  0
VERTEX
  8
E59LXLIFT
 62
13
 10
5497.316
 20
-9552.343
 30
-612.000
 70
    32
  0
VERTEX
  8
E59LXLIFT
 62
13
 10
5512.564
 20
-9554.892
 30
-612.000
 70
    32
  0
VERTEX
  8
E59LXLIFT
 62
13
 10
5522.198
 20
-9557.155
 30
-612.000
 70
    32
  0
VERTEX
  8
E59LXLIFT
 62
13
 10
5533.775
 20
-9560.616
 30
-612.000
 70
    32
  0
VERTEX
  8
E59LXLIFT
 62
13
 10
5544.176
 20
-9569.357
 30
-612.000
 70
    32
  0
VERTEX
  8
E59LXLIFT
 62
13
 10
5550.906
 20
-9579.010
 30
-612.000
 70
    32
  0
SEQEND
  8
E59LXLIFT
  0
POLYLINE
  8
E59LXLIFT
 62
27
 66
     1
 70
     9
  0
VERTEX
  8
E59LXLIFT
 62
27
 10
5853.219
 20
-9928.274
 30
-600.000
 70
    32
  0
VERTEX
  8
E59LXLIFT
 62
27
 10
5857.998
 20
-9937.168
 30
-600.000
 70
    32
  0
VERTEX
  8
E59LXLIFT
 62
27
 10
5864.308
 20
-9940.523
 30
-600.000
 70
    32
  0
VERTEX
  8
E59LXLIFT
 62
27
 10
5871.078
 20
-9943.765
 30
-600.000
 70
    32
  0
VERTEX
  8
E59LXLIFT
 62
27
 10
5875.916
 20
-9952.291
 30
-600.000
 70
    32
  0
VERTEX
  8
E59LXLIFT
 62
27
 10
5880.191
 20
-9979.724
 30
-600.000
 70
    32
  0
VERTEX
  8
E59LXLIFT
 62
27
 10
5880.627
 20
-9998.668
 30
-600.000
 70
    32
  0
VERTEX
  8
E59LXLIFT
 62
27
 10
5878.226
 20
-10006.455
 30
-600.000
 70
    32
  0
VERTEX
  8
E59LXLIFT
 62
27
 10
5861.462
 20
-10013.977
 30
-600.000
 70
    32
  0
VERTEX
  8
E59LXLIFT
 62
27
 10
5853.361
 20
-10012.343
 30
-600.000
 70
    32
  0
VERTEX
  8
E59LXLIFT
 62
27
 10
5845.448
 20
-9994.886
 30
-600.000
 70
    32
  0
VERTEX
  8
E59LXLIFT
 62
27
 10
5841.964
 20
-9985.385
 30
-600.000
 70
    32
  0
VERTEX
  8
E59LXLIFT
 62
27
 10
5835.802
 20
-9978.028
 30
-600.000
 70
    32
  0
VERTEX
  8
E59LXLIFT
 62
27
 10
5830.648
 20
-9958.693
 30
-600.000
 70
    32
  0
VERTEX
  8
E59LXLIFT
 62
27
 10
5829.072
 20
-9940.570
 30
-600.000
 70
    32
  0
VERTEX
  8
E59LXLIFT
 62
27
 10
5835.062
 20
-9926.196
 30
-600.000
 70
    32
  0
SEQEND
  8
E59LXLIFT
  0
POLYLINE
  8
E59LXLIFT
 62
13
 66
     1
 70
     9
  0
VERTEX
  8
E59LXLIFT
 62
13
 10
5427.138
 20
-9550.660
 30
-601.000
 70
    32
  0
VERTEX
  8
E59LXLIFT
 62
13
 10
5436.733
 20
-9567.447
 30
-601.000
 70
    32
  0
VERTEX
  8
E59LXLIFT
 62
13
 10
5460.956
 20
-9564.726
 30
-601.000
 70
    32
  0
VERTEX
  8
E59LXLIFT
 62
13
 10
5483.398
 20
-9560.581
 30
-601.000
 70
    32
  0
VERTEX
  8
E59LXLIFT
 62
13
 10
5490.280
 20
-9555.412
 30
-601.000
 70
    32
  0
VERTEX
  8
E59LXLIFT
 62
13
 10
5493.256
 20
-9551.430
 30
-601.000
 70
    32
  0
VERTEX
  8
E59LXLIFT
 62
13
 10
5510.226
 20
-9558.473
 30
-601.000
 70
    32
  0
VERTEX
  8
E59LXLIFT
 62
13
 10
5526.157
 20
-9557.609
 30
-601.000
 70
    32
  0
VERTEX
  8
E59LXLIFT
 62
13
 10
5538.904
 20
-9559.686
 30
-601.000
 70
    32
  0
VERTEX
  8
E59LXLIFT
 62
13
 10
5548.103
 20
-9574.269
 30
-601.000
 70
    32
  0
VERTEX
  8
E59LXLIFT
 62
13
 10
5532.120
 20
-9577.767
 30
-601.000
 70
    32
  0
VERTEX
  8
E59LXLIFT
 62
13
 10
5515.471
 20
-9574.929
 30
-601.000
 70
    32
  0
VERTEX
  8
E59LXLIFT
 62
13
 10
5502.887
 20
-9572.627
 30
-601.000
 70
    32
  0
VERTEX
  8
E59LXLIFT
 62
13
 10
5501.310
 20
-9576.899
 30
-601.000
 70
    32
  0
VERTEX
  8
E59LXLIFT
 62
13
 10
5494.738
 20
-9591.367
 30
-601.000
 70
    32
  0
VERTEX
  8
E59LXLIFT
 62
13
 10
5484.208
 20
-9595.376
 30
-601.000
 70
    32
  0
VERTEX
  8
E59LXLIFT
 62
13
 10
5472.488
 20
-9594.725
 30
-601.000
 70
    32
  0
VERTEX
  8
E59LXLIFT
 62
13
 10
5472.124
 20
-9584.600
 30
-601.000
 70
    32
  0
VERTEX
  8
E59LXLIFT
 62
13
 10
5462.385
 20
-9581.440
 30
-601.000
 70
    32
  0
VERTEX
  8
E59LXLIFT
 62
13
 10
5452.017
 20
-9585.224
 30
-601.000
 70
    32
  0
VERTEX
  8
E59LXLIFT
 62
13
 10
5440.279
 20
-9590.861
 30
-601.000
 70
    32
  0
VERTEX
  8
E59LXLIFT
 62
13
 10
5432.390
 20
-9599.893
 30
-601.000
 70
    32
  0
VERTEX
  8
E59LXLIFT
 62
13
 10
5424.479
 20
-9594.011
 30
-601.000
 70
    32
  0
VERTEX
  8
E59LXLIFT
 62
13
 10
5425.387
 20
-9582.647
 30
-601.000
 70
    32
  0
VERTEX
  8
E59LXLIFT
 62
13
 10
5419.944
 20
-9573.582
 30
-601.000
 70
    32
  0
VERTEX
  8
E59LXLIFT
 62
13
 10
5419.931
 20
-9564.395
 30
-601.000
 70
    32
  0
VERTEX
  8
E59LXLIFT
 62
13
 10
5415.448
 20
-9555.612
 30
-601.000
 70
    32
  0
SEQEND
  8
E59LXLIFT
  0
POLYLINE
  8
E59LXLIFT
 62
7
 66
     1
 70
     9
  0
VERTEX
  8
E59LXLIFT
 62
7
 10
5373.360
 20
-9591.533
 30
-601.000
 70
    32
  0
VERTEX
  8
E59LXLIFT
 62
7
 10
5380.324
 20
-9586.628
 30
-601.000
 70
    32
  0
VERTEX
  8
E59LXLIFT
 62
7
 10
5388.778
 20
-9589.956
 30
-601.000
 70
    32
  0
VERTEX
  8
E59LXLIFT
 62
7
 10
5396.036
 20
-9606.802
 30
-601.000
 70
    32
  0
VERTEX
  8
E59LXLIFT
 62
7
 10
5404.956
 20
-9617.692
 30
-601.000
 70
    32
  0
VERTEX
  8
E59LXLIFT
 62
7
 10
5415.696
 20
-9615.479
 30
-601.000
 70
    32
  0
VERTEX
  8
E59LXLIFT
 62
7
 10
5414.595
 20
-9604.479
 30
-601.000
 70
    32
  0
VERTEX
  8
E59LXLIFT
 62
7
 10
5409.035
 20
-9596.905
 30
-601.000
 70
    32
  0
VERTEX
  8
E59LXLIFT
 62
7
 10
5409.225
 20
-9584.543
 30
-601.000
 70
    32
  0
VERTEX
  8
E59LXLIFT
 62
7
 10
5409.429
 20
-9573.252
 30
-601.000
 70
    32
  0
VERTEX
  8
E59LXLIFT
 62
7
 10
5395.763
 20
-9559.828
 30
-601.000
 70
    32
  0
VERTEX
  8
E59LXLIFT
 62
7
 10
5386.996
 20
-9554.562
 30
-601.000
 70
    32
  0
VERTEX
  8
E59LXLIFT
 62
7
 10
5376.678
 20
-9549.547
 30
-601.000
 70
    32
  0
VERTEX
  8
E59LXLIFT
 62
7
 10
5366.287
 20
-9538.417
 30
-601.000
 70
    32
  0
VERTEX
  8
E59LXLIFT
 62
7
 10
5363.732
 20
-9526.300
 30
-601.000
 70
    32
  0
VERTEX
  8
E59LXLIFT
 62
7
 10
5362.901
 20
-9516.728
 30
-601.000
 70
    32
  0
VERTEX
  8
E59LXLIFT
 62
7
 10
5353.224
 20
-9519.366
 30
-601.000
 70
    32
  0
VERTEX
  8
E59LXLIFT
 62
7
 10
5339.019
 20
-9523.532
 30
-601.000
 70
    32
  0
VERTEX
  8
E59LXLIFT
 62
7
 10
5345.889
 20
-9543.146
 30
-601.000
 70
    32
  0
VERTEX
  8
E59LXLIFT
 62
7
 10
5351.619
 20
-9558.171
 30
-601.000
 70
    32
  0
VERTEX
  8
E59LXLIFT
 62
7
 10
5371.660
 20
-9576.095
 30
-601.000
 70
    32
  0
SEQEND
  8
E59LXLIFT
  0
POLYLINE
  8
E59LXLIFT
 62
27
 66
     1
 70
     9
  0
VERTEX
  8
E59LXLIFT
 62
27
 10
5831.554
 20
-9920.820
 30
-589.000
 70
    32
  0
VERTEX
  8
E59LXLIFT
 62
27
 10
5858.483
 20
-9935.246
 30
-589.000
 70
    32
  0
VERTEX
  8
E59LXLIFT
 62
27
 10
5868.364
 20
-9950.510
 30
-589.000
 70
    32
  0
VERTEX
  8
E59LXLIFT
 62
27
 10
5873.423
 20
-9965.745
 30
-589.000
 70
    32
  0
VERTEX
  8
E59LXLIFT
 62
27
 10
5868.476
 20
-9988.386
 30
-589.000
 70
    32
  0
VERTEX
  8
E59LXLIFT
 62
27
 10
5862.314
 20
-10006.145
 30
-589.000
 70
    32
  0
VERTEX
  8
E59LXLIFT
 62
27
 10
5861.651
 20
-10013.943
 30
-589.000
 70
    32
  0
VERTEX
  8
E59LXLIFT
 62
27
 10
5851.886
 20
-10019.318
 30
-589.000
 70
    32
  0
VERTEX
  8
E59LXLIFT
 62
27
 10
5845.520
 20
-10016.612
 30
-589.000
 70
    32
  0
VERTEX
  8
E59LXLIFT
 62
27
 10
5834.708
 20
-9971.059
 30
-589.000
 70
    32
  0
VERTEX
  8
E59LXLIFT
 62
27
 10
5823.151
 20
-9929.657
 30
-589.000
 70
    32
  0
VERTEX
  8
E59LXLIFT
 62
27
 10
5824.666
 20
-9925.809
 30
-589.000
 70
    32
  0
SEQEND
  8
E59LXLIFT
  0
POLYLINE
  8
E59LXLIFT
 62
13
 66
     1
 70
     9
  0
VERTEX
  8
E59LXLIFT
 62
13
 10
5492.787
 20
-9576.020
 30
-592.000
 70
    32
  0
VERTEX
  8
E59LXLIFT
 62
13
 10
5492.483
 20
-9585.188
 30
-592.000
 70
    32
  0
VERTEX
  8
E59LXLIFT
 62
13
 10
5472.877
 20
-9588.466
 30
-592.000
 70
    32
  0
VERTEX
  8
E59LXLIFT
 62
13
 10
5459.955
 20
-9577.198
 30
-592.000
 70
    32
  0
VERTEX
  8
E59LXLIFT
 62
13
 10
5445.175
 20
-9588.028
 30
-592.000
 70
    32
  0
VERTEX
  8
E59LXLIFT
 62
13
 10
5436.670
 20
-9590.833
 30
-592.000
 70
    32
  0
VERTEX
  8
E59LXLIFT
 62
13
 10
5430.618
 20
-9588.550
 30
-592.000
 70
    32
  0
VERTEX
  8
E59LXLIFT
 62
13
 10
5406.585
 20
-9548.420
 30
-592.000
 70
    32
  0
VERTEX
  8
E59LXLIFT
 62
13
 10
5399.168
 20
-9526.314
 30
-592.000
 70
    32
  0
VERTEX
  8
E59LXLIFT
 62
13
 10
5392.438
 20
-9492.465
 30
-592.000
 70
    32
  0
VERTEX
  8
E59LXLIFT
 62
13
 10
5397.563
 20
-9483.327
 30
-592.000
 70
    32
  0
VERTEX
  8
E59LXLIFT
 62
13
 10
5416.522
 20
-9488.163
 30
-592.000
 70
    32
  0
VERTEX
  8
E59LXLIFT
 62
13
 10
5420.163
 20
-9500.303
 30
-592.000
 70
    32
  0
VERTEX
  8
E59LXLIFT
 62
13
 10
5421.119
 20
-9512.793
 30
-592.000
 70
    32
  0
VERTEX
  8
E59LXLIFT
 62
13
 10
5458.475
 20
-9564.441
 30
-592.000
 70
    32
  0
VERTEX
  8
E59LXLIFT
 62
13
 10
5476.745
 20
-9547.863
 30
-592.000
 70
    32
  0
VERTEX
  8
E59LXLIFT
 62
13
 10
5497.520
 20
-9545.574
 30
-592.000
 70
    32
  0
VERTEX
  8
E59LXLIFT
 62
13
 10
5509.720
 20
-9557.487
 30
-592.000
 70
    32
  0
VERTEX
  8
E59LXLIFT
 62
13
 10
5529.869
 20
-9568.205
 30
-592.000
 70
    32
  0
VERTEX
  8
E59LXLIFT
 62
13
 10
5521.323
 20
-9572.132
 30
-592.000
 70
    32
  0
VERTEX
  8
E59LXLIFT
 62
13
 10
5510.558
 20
-9569.083
 30
-592.000
 70
    32
  0
SEQEND
  8
E59LXLIFT
  0
POLYLINE
  8
E59LXLIFT
 62
7
 66
     1
 70
     9
  0
VERTEX
  8
E59LXLIFT
 62
7
 10
5367.676
 20
-9592.817
 30
-590.000
 70
    32
  0
VERTEX
  8
E59LXLIFT
 62
7
 10
5372.940
 20
-9597.865
 30
-590.000
 70
    32
  0
VERTEX
  8
E59LXLIFT
 62
7
 10
5381.954
 20
-9592.066
 30
-590.000
 70
    32
  0
VERTEX
  8
E59LXLIFT
 62
7
 10
5388.421
 20
-9595.350
 30
-590.000
 70
    32
  0
VERTEX
  8
E59LXLIFT
 62
7
 10
5391.436
 20
-9601.191
 30
-590.000
 70
    32
  0
VERTEX
  8
E59LXLIFT
 62
7
 10
5383.382
 20
-9618.605
 30
-590.000
 70
    32
  0
VERTEX
  8
E59LXLIFT
 62
7
 10
5378.459
 20
-9631.847
 30
-590.000
 70
    32
  0
VERTEX
  8
E59LXLIFT
 62
7
 10
5377.945
 20
-9641.172
 30
-590.000
 70
    32
  0
VERTEX
  8
E59LXLIFT
 62
7
 10
5381.158
 20
-9643.157
 30
-590.000
 70
    32
  0
VERTEX
  8
E59LXLIFT
 62
7
 10
5405.110
 20
-9623.792
 30
-590.000
 70
    32
  0
VERTEX
  8
E59LXLIFT
 62
7
 10
5411.013
 20
-9608.188
 30
-590.000
 70
    32
  0
VERTEX
  8
E59LXLIFT
 62
7
 10
5411.412
 20
-9586.623
 30
-590.000
 70
    32
  0
VERTEX
  8
E59LXLIFT
 62
7
 10
5408.839
 20
-9571.948
 30
-590.000
 70
    32
  0
VERTEX
  8
E59LXLIFT
 62
7
 10
5398.668
 20
-9552.753
 30
-590.000
 70
    32
  0
VERTEX
  8
E59LXLIFT
 62
7
 10
5385.601
 20
-9550.426
 30
-590.000
 70
    32
  0
VERTEX
  8
E59LXLIFT
 62
7
 10
5373.461
 20
-9534.761
 30
-590.000
 70
    32
  0
VERTEX
  8
E59LXLIFT
 62
7
 10
5369.322
 20
-9523.864
 30
-590.000
 70
    32
  0
VERTEX
  8
E59LXLIFT
 62
7
 10
5370.357
 20
-9518.189
 30
-590.000
 70
    32
  0
VERTEX
  8
E59LXLIFT
 62
7
 10
5363.780
 20
-9515.640
 30
-590.000
 70
    32
  0
VERTEX
  8
E59LXLIFT
 62
7
 10
5360.159
 20
-9519.738
 30
-590.000
 70
    32
  0
VERTEX
  8
E59LXLIFT
 62
7
 10
5355.152
 20
-9521.372
 30
-590.000
 70
    32
  0
VERTEX
  8
E59LXLIFT
 62
7
 10
5354.911
 20
-9531.804
 30
-590.000
 70
    32
  0
VERTEX
  8
E59LXLIFT
 62
7
 10
5370.686
 20
-9552.086
 30
-590.000
 70
    32
  0
VERTEX
  8
E59LXLIFT
 62
7
 10
5371.635
 20
-9562.946
 30
-590.000
 70
    32
  0
VERTEX
  8
E59LXLIFT
 62
7
 10
5372.437
 20
-9574.787
 30
-590.000
 70
    32
  0
VERTEX
  8
E59LXLIFT
 62
7
 10
5377.219
 20
-9583.900
 30
-590.000
 70
    32
  0
SEQEND
  8
E59LXLIFT
  0
POLYLINE
  8
E59LXLIFT
 62
11
 66
     1
 70
     9
  0
VERTEX
  8
E59LXLIFT
 62
11
 10
5363.928
 20
-9372.751
 30
-588.000
 70
    32
  0
VERTEX
  8
E59LXLIFT
 62
11
 10
5348.462
 20
-9347.877
 30
-588.000
 70
    32
  0
VERTEX
  8
E59LXLIFT
 62
11
 10
5338.657
 20
-9337.137
 30
-588.000
 70
    32
  0
VERTEX
  8
E59LXLIFT
 62
11
 10
5332.020
 20
-9321.980
 30
-588.000
 70
    32
  0
VERTEX
  8
E59LXLIFT
 62
11
 10
5331.657
 20
-9307.196
 30
-588.000
 70
    32
  0
VERTEX
  8
E59LXLIFT
 62
11
 10
5341.820
 20
-9300.001
 30
-588.000
 70
    32
  0
VERTEX
  8
E59LXLIFT
 62
11
 10
5350.147
 20
-9311.398
 30
-588.000
 70
    32
  0
VERTEX
  8
E59LXLIFT
 62
11
 10
5356.699
 20
-9326.292
 30
-588.000
 70
    32
  0
VERTEX
  8
E59LXLIFT
 62
11
 10
5367.827
 20
-9341.179
 30
-588.000
 70
    32
  0
VERTEX
  8
E59LXLIFT
 62
11
 10
5377.901
 20
-9356.410
 30
-588.000
 70
    32
  0
VERTEX
  8
E59LXLIFT
 62
11
 10
5376.781
 20
-9364.328
 30
-588.000
 70
    32
  0
SEQEND
  8
E59LXLIFT
  0
POLYLINE
  8
E59LXLIFT
 62
13
 66
     1
 70
     9
  0
VERTEX
  8
E59LXLIFT
 62
13
 10
5506.708
 20
-9541.477
 30
-583.000
 70
    32
  0
VERTEX
  8
E59LXLIFT
 62
13
 10
5511.241
 20
-9551.937
 30
-583.000
 70
    32
  0
VERTEX
  8
E59LXLIFT
 62
13
 10
5485.611
 20
-9573.967
 30
-583.000
 70
    32
  0
VERTEX
  8
E59LXLIFT
 62
13
 10
5476.625
 20
-9604.531
 30
-583.000
 70
    32
  0
VERTEX
  8
E59LXLIFT
 62
13
 10
5461.981
 20
-9595.580
 30
-583.000
 70
    32
  0
VERTEX
  8
E59LXLIFT
 62
13
 10
5458.176
 20
-9588.981
 30
-583.000
 70
    32
  0
VERTEX
  8
E59LXLIFT
 62
13
 10
5440.217
 20
-9591.490
 30
-583.000
 70
    32
  0
VERTEX
  8
E59LXLIFT
 62
13
 10
5422.001
 20
-9584.373
 30
-583.000
 70
    32
  0
VERTEX
  8
E59LXLIFT
 62
13
 10
5407.120
 20
-9579.464
 30
-583.000
 70
    32
  0
VERTEX
  8
E59LXLIFT
 62
13
 10
5404.233
 20
-9573.491
 30
-583.000
 70
    32
  0
VERTEX
  8
E59LXLIFT
 62
13
 10
5401.443
 20
-9534.554
 30
-583.000
 70
    32
  0
VERTEX
  8
E59LXLIFT
 62
13
 10
5399.922
 20
-9501.494
 30
-583.000
 70
    32
  0
VERTEX
  8
E59LXLIFT
 62
13
 10
5389.875
 20
-9475.801
 30
-583.000
 70
    32
  0
VERTEX
  8
E59LXLIFT
 62
13
 10
5398.037
 20
-9440.235
 30
-583.000
 70
    32
  0
VERTEX
  8
E59LXLIFT
 62
13
 10
5410.411
 20
-9435.460
 30
-583.000
 70
    32
  0
VERTEX
  8
E59LXLIFT
 62
13
 10
5423.379
 20
-9435.532
 30
-583.000
 70
    32
  0
VERTEX
  8
E59LXLIFT
 62
13
 10
5427.155
 20
-9451.093
 30
-583.000
 70
    32
  0
VERTEX
  8
E59LXLIFT
 62
13
 10
5423.740
 20
-9463.293
 30
-583.000
 70
    32
  0
VERTEX
  8
E59LXLIFT
 62
13
 10
5418.189
 20
-9471.377
 30
-583.000
 70
    32
  0
VERTEX
  8
E59LXLIFT
 62
13
 10
5423.100
 20
-9491.042
 30
-583.000
 70
    32
  0
VERTEX
  8
E59LXLIFT
 62
13
 10
5426.336
 20
-9496.749
 30
-583.000
 70
    32
  0
VERTEX
  8
E59LXLIFT
 62
13
 10
5441.753
 20
-9537.342
 30
-583.000
 70
    32
  0
VERTEX
  8
E59LXLIFT
 62
13
 10
5453.958
 20
-9557.310
 30
-583.000
 70
    32
  0
VERTEX
  8
E59LXLIFT
 62
13
 10
5487.629
 20
-9531.483
 30
-583.000
 70
    32
  0
SEQEND
  8
E59LXLIFT
  0
POLYLINE
  8
E59LXLIFT
 62
7
 66
     1
 70
     9
  0
VERTEX
  8
E59LXLIFT
 62
7
 10
5366.169
 20
-9593.830
 30
-580.000
 70
    32
  0
VERTEX
  8
E59LXLIFT
 62
7
 10
5368.627
 20
-9598.804
 30
-580.000
 70
    32
  0
VERTEX
  8
E59LXLIFT
 62
7
 10
5388.669
 20
-9600.339
 30
-580.000
 70
    32
  0
VERTEX
  8
E59LXLIFT
 62
7
 10
5383.990
 20
-9615.377
 30
-580.000
 70
    32
  0
VERTEX
  8
E59LXLIFT
 62
7
 10
5376.940
 20
-9620.186
 30
-580.000
 70
    32
  0
VERTEX
  8
E59LXLIFT
 62
7
 10
5374.795
 20
-9633.185
 30
-580.000
 70
    32
  0
VERTEX
  8
E59LXLIFT
 62
7
 10
5378.444
 20
-9634.936
 30
-580.000
 70
    32
  0
VERTEX
  8
E59LXLIFT
 62
7
 10
5382.870
 20
-9631.901
 30
-580.000
 70
    32
  0
VERTEX
  8
E59LXLIFT
 62
7
 10
5393.460
 20
-9615.349
 30
-580.000
 70
    32
  0
VERTEX
  8
E59LXLIFT
 62
7
 10
5397.681
 20
-9599.998
 30
-580.000
 70
    32
  0
VERTEX
  8
E59LXLIFT
 62
7
 10
5401.185
 20
-9585.302
 30
-580.000
 70
    32
  0
VERTEX
  8
E59LXLIFT
 62
7
 10
5406.211
 20
-9572.318
 30
-580.000
 70
    32
  0
VERTEX
  8
E59LXLIFT
 62
7
 10
5411.739
 20
-9560.719
 30
-580.000
 70
    32
  0
VERTEX
  8
E59LXLIFT
 62
7
 10
5408.966
 20
-9550.687
 30
-580.000
 70
    32
  0
VERTEX
  8
E59LXLIFT
 62
7
 10
5414.054
 20
-9536.332
 30
-580.000
 70
    32
  0
VERTEX
  8
E59LXLIFT
 62
7
 10
5419.435
 20
-9529.039
 30
-580.000
 70
    32
  0
VERTEX
  8
E59LXLIFT
 62
7
 10
5411.427
 20
-9527.072
 30
-580.000
 70
    32
  0
VERTEX
  8
E59LXLIFT
 62
7
 10
5399.359
 20
-9535.587
 30
-580.000
 70
    32
  0
VERTEX
  8
E59LXLIFT
 62
7
 10
5397.137
 20
-9542.244
 30
-580.000
 70
    32
  0
VERTEX
  8
E59LXLIFT
 62
7
 10
5396.508
 20
-9553.318
 30
-580.000
 70
    32
  0
VERTEX
  8
E59LXLIFT
 62
7
 10
5390.225
 20
-9564.940
 30
-580.000
 70
    32
  0
VERTEX
  8
E59LXLIFT
 62
7
 10
5393.576
 20
-9572.104
 30
-580.000
 70
    32
  0
VERTEX
  8
E59LXLIFT
 62
7
 10
5388.382
 20
-9578.482
 30
-580.000
 70
    32
  0
VERTEX
  8
E59LXLIFT
 62
7
 10
5366.219
 20
-9593.460
 30
-580.000
 70
    32
  0
SEQEND
  8
E59LXLIFT
  0
POLYLINE
  8
E59LXLIFT
 62
11
 66
     1
 70
     9
  0
VERTEX
  8
E59LXLIFT
 62
11
 10
5377.183
 20
-9372.319
 30
-582.000
 70
    32
  0
VERTEX
  8
E59LXLIFT
 62
11
 10
5367.341
 20
-9374.616
 30
-582.000
 70
    32
  0
VERTEX
  8
E59LXLIFT
 62
11
 10
5363.344
 20
-9370.812
 30
-582.000
 70
    32
  0
VERTEX
  8
E59LXLIFT
 62
11
 10
5361.271
 20
-9363.007
 30
-582.000
 70
    32
  0
VERTEX
  8
E59LXLIFT
 62
11
 10
5356.619
 20
-9355.728
 30
-582.000
 70
    32
  0
VERTEX
  8
E59LXLIFT
 62
11
 10
5344.274
 20
-9343.704
 30
-582.000
 70
    32
  0
VERTEX
  8
E59LXLIFT
 62
11
 10
5334.270
 20
-9329.678
 30
-582.000
 70
    32
  0
VERTEX
  8
E59LXLIFT
 62
11
 10
5325.064
 20
-9311.623
 30
-582.000
 70
    32
  0
VERTEX
  8
E59LXLIFT
 62
11
 10
5328.489
 20
-9303.500
 30
-582.000
 70
    32
  0
VERTEX
  8
E59LXLIFT
 62
11
 10
5336.787
 20
-9301.494
 30
-582.000
 70
    32
  0
VERTEX
  8
E59LXLIFT
 62
11
 10
5342.785
 20
-9307.639
 30
-582.000
 70
    32
  0
VERTEX
  8
E59LXLIFT
 62
11
 10
5350.615
 20
-9322.435
 30
-582.000
 70
    32
  0
VERTEX
  8
E59LXLIFT
 62
11
 10
5377.651
 20
-9355.517
 30
-582.000
 70
    32
  0
SEQEND
  8
E59LXLIFT
  0
POLYLINE
  8
E59LXLIFT
 62
4
 66
     1
 70
     9
  0
VERTEX
  8
E59LXLIFT
 62
4
 10
5926.914
 20
-9940.114
 30
-571.000
 70
    32
  0
VERTEX
  8
E59LXLIFT
 62
4
 10
5922.667
 20
-9953.882
 30
-571.000
 70
    32
  0
VERTEX
  8
E59LXLIFT
 62
4
 10
5917.651
 20
-9966.360
 30
-571.000
 70
    32
  0
VERTEX
  8
E59LXLIFT
 62
4
 10
5902.965
 20
-9981.510
 30
-571.000
 70
    32
  0
VERTEX
  8
E59LXLIFT
 62
4
 10
5892.089
 20
-9972.388
 30
-571.000
 70
    32
  0
VERTEX
  8
E59LXLIFT
 62
4
 10
5897.668
 20
-9957.044
 30
-571.000
 70
    32
  0
VERTEX
  8
E59LXLIFT
 62
4
 10
5896.191
 20
-9938.272
 30
-571.000
 70
    32
  0
VERTEX
  8
E59LXLIFT
 62
4
 10
5891.997
 20
-9919.705
 30
-571.000
 70
    32
  0
VERTEX
  8
E59LXLIFT
 62
4
 10
5884.425
 20
-9911.143
 30
-571.000
 70
    32
  0
VERTEX
  8
E59LXLIFT
 62
4
 10
5884.178
 20
-9906.356
 30
-571.000
 70
    32
  0
VERTEX
  8
E59LXLIFT
 62
4
 10
5875.404
 20
-9896.947
 30
-571.000
 70
    32
  0
VERTEX
  8
E59LXLIFT
 62
4
 10
5877.667
 20
-9889.237
 30
-571.000
 70
    32
  0
VERTEX
  8
E59LXLIFT
 62
4
 10
5895.168
 20
-9899.353
 30
-571.000
 70
    32
  0
VERTEX
  8
E59LXLIFT
 62
4
 10
5907.015
 20
-9912.043
 30
-571.000
 70
    32
  0
VERTEX
  8
E59LXLIFT
 62
4
 10
5918.782
 20
-9930.102
 30
-571.000
 70
    32
  0
SEQEND
  8
E59LXLIFT
  0
POLYLINE
  8
E59LXLIFT
 62
27
 66
     1
 70
     9
  0
VERTEX
  8
E59LXLIFT
 62
27
 10
5817.027
 20
-9914.683
 30
-571.000
 70
    32
  0
VERTEX
  8
E59LXLIFT
 62
27
 10
5827.456
 20
-9913.862
 30
-571.000
 70
    32
  0
VERTEX
  8
E59LXLIFT
 62
27
 10
5834.475
 20
-9924.730
 30
-571.000
 70
    32
  0
VERTEX
  8
E59LXLIFT
 62
27
 10
5844.640
 20
-9933.070
 30
-571.000
 70
    32
  0
VERTEX
  8
E59LXLIFT
 62
27
 10
5855.399
 20
-9941.175
 30
-571.000
 70
    32
  0
VERTEX
  8
E59LXLIFT
 62
27
 10
5865.139
 20
-9953.713
 30
-571.000
 70
    32
  0
VERTEX
  8
E59LXLIFT
 62
27
 10
5868.551
 20
-9974.429
 30
-571.000
 70
    32
  0
VERTEX
  8
E59LXLIFT
 62
27
 10
5863.394
 20
-9982.260
 30
-571.000
 70
    32
  0
VERTEX
  8
E59LXLIFT
 62
27
 10
5862.273
 20
-9993.185
 30
-571.000
 70
    32
  0
VERTEX
  8
E59LXLIFT
 62
27
 10
5859.787
 20
-10005.932
 30
-571.000
 70
    32
  0
VERTEX
  8
E59LXLIFT
 62
27
 10
5850.476
 20
-10012.530
 30
-571.000
 70
    32
  0
VERTEX
  8
E59LXLIFT
 62
27
 10
5844.616
 20
-10010.947
 30
-571.000
 70
    32
  0
VERTEX
  8
E59LXLIFT
 62
27
 10
5838.409
 20
-9988.176
 30
-571.000
 70
    32
  0
VERTEX
  8
E59LXLIFT
 62
27
 10
5834.577
 20
-9972.097
 30
-571.000
 70
    32
  0
VERTEX
  8
E59LXLIFT
 62
27
 10
5828.109
 20
-9954.171
 30
-571.000
 70
    32
  0
VERTEX
  8
E59LXLIFT
 62
27
 10
5822.863
 20
-9954.108
 30
-571.000
 70
    32
  0
VERTEX
  8
E59LXLIFT
 62
27
 10
5819.555
 20
-9944.040
 30
-571.000
 70
    32
  0
VERTEX
  8
E59LXLIFT
 62
27
 10
5823.641
 20
-9943.888
 30
-571.000
 70
    32
  0
VERTEX
  8
E59LXLIFT
 62
27
 10
5823.959
 20
-9933.358
 30
-571.000
 70
    32
  0
SEQEND
  8
E59LXLIFT
  0
POLYLINE
  8
E59LXLIFT
 62
13
 66
     1
 70
     9
  0
VERTEX
  8
E59LXLIFT
 62
13
 10
5406.116
 20
-9445.579
 30
-572.000
 70
    32
  0
VERTEX
  8
E59LXLIFT
 62
13
 10
5413.979
 20
-9450.490
 30
-572.000
 70
    32
  0
VERTEX
  8
E59LXLIFT
 62
13
 10
5416.974
 20
-9483.912
 30
-572.000
 70
    32
  0
VERTEX
  8
E59LXLIFT
 62
13
 10
5435.777
 20
-9525.101
 30
-572.000
 70
    32
  0
VERTEX
  8
E59LXLIFT
 62
13
 10
5452.977
 20
-9537.992
 30
-572.000
 70
    32
  0
VERTEX
  8
E59LXLIFT
 62
13
 10
5456.326
 20
-9543.937
 30
-572.000
 70
    32
  0
VERTEX
  8
E59LXLIFT
 62
13
 10
5495.618
 20
-9529.576
 30
-572.000
 70
    32
  0
VERTEX
  8
E59LXLIFT
 62
13
 10
5523.948
 20
-9547.744
 30
-572.000
 70
    32
  0
VERTEX
  8
E59LXLIFT
 62
13
 10
5522.186
 20
-9557.835
 30
-572.000
 70
    32
  0
VERTEX
  8
E59LXLIFT
 62
13
 10
5522.687
 20
-9566.408
 30
-572.000
 70
    32
  0
VERTEX
  8
E59LXLIFT
 62
13
 10
5513.555
 20
-9564.021
 30
-572.000
 70
    32
  0
VERTEX
  8
E59LXLIFT
 62
13
 10
5505.868
 20
-9559.196
 30
-572.000
 70
    32
  0
VERTEX
  8
E59LXLIFT
 62
13
 10
5485.711
 20
-9566.935
 30
-572.000
 70
    32
  0
VERTEX
  8
E59LXLIFT
 62
13
 10
5448.943
 20
-9587.319
 30
-572.000
 70
    32
  0
VERTEX
  8
E59LXLIFT
 62
13
 10
5434.030
 20
-9584.173
 30
-572.000
 70
    32
  0
VERTEX
  8
E59LXLIFT
 62
13
 10
5410.649
 20
-9576.914
 30
-572.000
 70
    32
  0
VERTEX
  8
E59LXLIFT
 62
13
 10
5405.598
 20
-9573.936
 30
-572.000
 70
    32
  0
VERTEX
  8
E59LXLIFT
 62
13
 10
5408.856
 20
-9551.969
 30
-572.000
 70
    32
  0
VERTEX
  8
E59LXLIFT
 62
13
 10
5406.617
 20
-9521.837
 30
-572.000
 70
    32
  0
VERTEX
  8
E59LXLIFT
 62
13
 10
5405.193
 20
-9510.765
 30
-572.000
 70
    32
  0
VERTEX
  8
E59LXLIFT
 62
13
 10
5391.619
 20
-9485.025
 30
-572.000
 70
    32
  0
VERTEX
  8
E59LXLIFT
 62
13
 10
5387.691
 20
-9474.439
 30
-572.000
 70
    32
  0
VERTEX
  8
E59LXLIFT
 62
13
 10
5390.198
 20
-9462.007
 30
-572.000
 70
    32
  0
VERTEX
  8
E59LXLIFT
 62
13
 10
5386.267
 20
-9455.736
 30
-572.000
 70
    32
  0
VERTEX
  8
E59LXLIFT
 62
13
 10
5387.663
 20
-9448.913
 30
-572.000
 70
    32
  0
SEQEND
  8
E59LXLIFT
  0
POLYLINE
  8
E59LXLIFT
 62
7
 66
     1
 70
     9
  0
VERTEX
  8
E59LXLIFT
 62
7
 10
5394.303
 20
-9614.240
 30
-570.000
 70
    32
  0
VERTEX
  8
E59LXLIFT
 62
7
 10
5395.748
 20
-9599.417
 30
-570.000
 70
    32
  0
VERTEX
  8
E59LXLIFT
 62
7
 10
5400.500
 20
-9582.275
 30
-570.000
 70
    32
  0
VERTEX
  8
E59LXLIFT
 62
7
 10
5405.236
 20
-9551.432
 30
-570.000
 70
    32
  0
VERTEX
  8
E59LXLIFT
 62
7
 10
5409.323
 20
-9529.824
 30
-570.000
 70
    32
  0
VERTEX
  8
E59LXLIFT
 62
7
 10
5408.043
 20
-9525.277
 30
-570.000
 70
    32
  0
VERTEX
  8
E59LXLIFT
 62
7
 10
5397.546
 20
-9537.098
 30
-570.000
 70
    32
  0
VERTEX
  8
E59LXLIFT
 62
7
 10
5392.629
 20
-9553.593
 30
-570.000
 70
    32
  0
VERTEX
  8
E59LXLIFT
 62
7
 10
5390.982
 20
-9573.770
 30
-570.000
 70
    32
  0
VERTEX
  8
E59LXLIFT
 62
7
 10
5383.686
 20
-9581.695
 30
-570.000
 70
    32
  0
VERTEX
  8
E59LXLIFT
 62
7
 10
5363.005
 20
-9595.808
 30
-570.000
 70
    32
  0
VERTEX
  8
E59LXLIFT
 62
7
 10
5368.134
 20
-9602.486
 30
-570.000
 70
    32
  0
VERTEX
  8
E59LXLIFT
 62
7
 10
5378.616
 20
-9595.542
 30
-570.000
 70
    32
  0
VERTEX
  8
E59LXLIFT
 62
7
 10
5386.836
 20
-9602.501
 30
-570.000
 70
    32
  0
VERTEX
  8
E59LXLIFT
 62
7
 10
5383.554
 20
-9613.205
 30
-570.000
 70
    32
  0
VERTEX
  8
E59LXLIFT
 62
7
 10
5386.373
 20
-9618.892
 30
-570.000
 70
    32
  0
SEQEND
  8
E59LXLIFT
  0
POLYLINE
  8
E59LXLIFT
 62
11
 66
     1
 70
     9
  0
VERTEX
  8
E59LXLIFT
 62
11
 10
5384.503
 20
-9373.370
 30
-572.000
 70
    32
  0
VERTEX
  8
E59LXLIFT
 62
11
 10
5370.880
 20
-9383.279
 30
-572.000
 70
    32
  0
VERTEX
  8
E59LXLIFT
 62
11
 10
5356.162
 20
-9363.395
 30
-572.000
 70
    32
  0
VERTEX
  8
E59LXLIFT
 62
11
 10
5340.568
 20
-9334.450
 30
-572.000
 70
    32
  0
VERTEX
  8
E59LXLIFT
 62
11
 10
5328.672
 20
-9317.375
 30
-572.000
 70
    32
  0
VERTEX
  8
E59LXLIFT
 62
11
 10
5330.492
 20
-9307.793
 30
-572.000
 70
    32
  0
VERTEX
  8
E59LXLIFT
 62
11
 10
5337.707
 20
-9300.482
 30
-572.000
 70
    32
  0
VERTEX
  8
E59LXLIFT
 62
11
 10
5353.528
 20
-9326.267
 30
-572.000
 70
    32
  0
VERTEX
  8
E59LXLIFT
 62
11
 10
5377.220
 20
-9359.277
 30
-572.000
 70
    32
  0
SEQEND
  8
E59LXLIFT
  0
POLYLINE
  8
E59LXLIFT
 62
8
 66
     1
 70
     9
  0
VERTEX
  8
E59LXLIFT
 62
8
 10
6112.728
 20
-9645.909
 30
-559.000
 70
    32
  0
VERTEX
  8
E59LXLIFT
 62
8
 10
6116.373
 20
-9652.498
 30
-559.000
 70
    32
  0
VERTEX
  8
E59LXLIFT
 62
8
 10
6114.968
 20
-9658.003
 30
-559.000
 70
    32
  0
VERTEX
  8
E59LXLIFT
 62
8
 10
6117.303
 20
-9667.409
 30
-559.000
 70
    32
  0
VERTEX
  8
E59LXLIFT
 62
8
 10
6111.838
 20
-9682.224
 30
-559.000
 70
    32
  0
VERTEX
  8
E59LXLIFT
 62
8
 10
6111.200
 20
-9690.108
 30
-559.000
 70
    32
  0
VERTEX
  8
E59LXLIFT
 62
8
 10
6097.902
 20
-9704.356
 30
-559.000
 70
    32
  0
VERTEX
  8
E59LXLIFT
 62
8
 10
6091.063
 20
-9712.110
 30
-559.000
 70
    32
  0
VERTEX
  8
E59LXLIFT
 62
8
 10
6087.646
 20
-9718.439
 30
-559.000
 70
    32
  0
VERTEX
  8
E59LXLIFT
 62
8
 10
6083.851
 20
-9716.540
 30
-559.000
 70
    32
  0
VERTEX
  8
E59LXLIFT
 62
8
 10
6081.060
 20
-9701.471
 30
-559.000
 70
    32
  0
VERTEX
  8
E59LXLIFT
 62
8
 10
6087.970
 20
-9693.665
 30
-559.000
 70
    32
  0
VERTEX
  8
E59LXLIFT
 62
8
 10
6098.674
 20
-9682.415
 30
-559.000
 70
    32
  0
VERTEX
  8
E59LXLIFT
 62
8
 10
6106.935
 20
-9674.814
 30
-559.000
 70
    32
  0
VERTEX
  8
E59LXLIFT
 62
8
 10
6107.595
 20
-9666.368
 30
-559.000
 70
    32
  0
VERTEX
  8
E59LXLIFT
 62
8
 10
6099.212
 20
-9662.826
 30
-559.000
 70
    32
  0
VERTEX
  8
E59LXLIFT
 62
8
 10
6096.025
 20
-9656.118
 30
-559.000
 70
    32
  0
VERTEX
  8
E59LXLIFT
 62
8
 10
6097.955
 20
-9650.882
 30
-559.000
 70
    32
  0
VERTEX
  8
E59LXLIFT
 62
8
 10
6102.315
 20
-9647.022
 30
-559.000
 70
    32
  0
SEQEND
  8
E59LXLIFT
  0
POLYLINE
  8
E59LXLIFT
 62
4
 66
     1
 70
     9
  0
VERTEX
  8
E59LXLIFT
 62
4
 10
5925.113
 20
-9936.411
 30
-561.000
 70
    32
  0
VERTEX
  8
E59LXLIFT
 62
4
 10
5913.552
 20
-9926.917
 30
-561.000
 70
    32
  0
VERTEX
  8
E59LXLIFT
 62
4
 10
5897.179
 20
-9902.423
 30
-561.000
 70
    32
  0
VERTEX
  8
E59LXLIFT
 62
4
 10
5889.930
 20
-9899.683
 30
-561.000
 70
    32
  0
VERTEX
  8
E59LXLIFT
 62
4
 10
5883.243
 20
-9904.381
 30
-561.000
 70
    32
  0
VERTEX
  8
E59LXLIFT
 62
4
 10
5887.040
 20
-9911.622
 30
-561.000
 70
    32
  0
VERTEX
  8
E59LXLIFT
 62
4
 10
5891.709
 20
-9917.677
 30
-561.000
 70
    32
  0
VERTEX
  8
E59LXLIFT
 62
4
 10
5893.845
 20
-9933.337
 30
-561.000
 70
    32
  0
VERTEX
  8
E59LXLIFT
 62
4
 10
5889.449
 20
-9942.784
 30
-561.000
 70
    32
  0
VERTEX
  8
E59LXLIFT
 62
4
 10
5891.026
 20
-9983.937
 30
-561.000
 70
    32
  0
VERTEX
  8
E59LXLIFT
 62
4
 10
5900.596
 20
-9984.644
 30
-561.000
 70
    32
  0
VERTEX
  8
E59LXLIFT
 62
4
 10
5902.574
 20
-9976.210
 30
-561.000
 70
    32
  0
VERTEX
  8
E59LXLIFT
 62
4
 10
5909.372
 20
-9972.848
 30
-561.000
 70
    32
  0
VERTEX
  8
E59LXLIFT
 62
4
 10
5913.476
 20
-9957.071
 30
-561.000
 70
    32
  0
SEQEND
  8
E59LXLIFT
  0
POLYLINE
  8
E59LXLIFT
 62
27
 66
     1
 70
     9
  0
VERTEX
  8
E59LXLIFT
 62
27
 10
5824.086
 20
-9895.857
 30
-560.000
 70
    32
  0
VERTEX
  8
E59LXLIFT
 62
27
 10
5829.851
 20
-9901.325
 30
-560.000
 70
    32
  0
VERTEX
  8
E59LXLIFT
 62
27
 10
5840.272
 20
-9925.288
 30
-560.000
 70
    32
  0
VERTEX
  8
E59LXLIFT
 62
27
 10
5857.906
 20
-9953.871
 30
-560.000
 70
    32
  0
VERTEX
  8
E59LXLIFT
 62
27
 10
5862.850
 20
-9964.304
 30
-560.000
 70
    32
  0
VERTEX
  8
E59LXLIFT
 62
27
 10
5857.205
 20
-9983.176
 30
-560.000
 70
    32
  0
VERTEX
  8
E59LXLIFT
 62
27
 10
5852.341
 20
-10010.526
 30
-560.000
 70
    32
  0
VERTEX
  8
E59LXLIFT
 62
27
 10
5846.923
 20
-10014.727
 30
-560.000
 70
    32
  0
VERTEX
  8
E59LXLIFT
 62
27
 10
5838.679
 20
-10013.154
 30
-560.000
 70
    32
  0
VERTEX
  8
E59LXLIFT
 62
27
 10
5832.236
 20
-10001.425
 30
-560.000
 70
    32
  0
VERTEX
  8
E59LXLIFT
 62
27
 10
5826.962
 20
-9975.859
 30
-560.000
 70
    32
  0
VERTEX
  8
E59LXLIFT
 62
27
 10
5822.695
 20
-9947.807
 30
-560.000
 70
    32
  0
VERTEX
  8
E59LXLIFT
 62
27
 10
5819.456
 20
-9937.320
 30
-560.000
 70
    32
  0
VERTEX
  8
E59LXLIFT
 62
27
 10
5810.149
 20
-9923.771
 30
-560.000
 70
    32
  0
VERTEX
  8
E59LXLIFT
 62
27
 10
5805.862
 20
-9914.381
 30
-560.000
 70
    32
  0
VERTEX
  8
E59LXLIFT
 62
27
 10
5809.471
 20
-9906.385
 30
-560.000
 70
    32
  0
SEQEND
  8
E59LXLIFT
  0
POLYLINE
  8
E59LXLIFT
 62
13
 66
     1
 70
     9
  0
VERTEX
  8
E59LXLIFT
 62
13
 10
5399.594
 20
-9464.443
 30
-561.000
 70
    32
  0
VERTEX
  8
E59LXLIFT
 62
13
 10
5416.170
 20
-9500.783
 30
-561.000
 70
    32
  0
VERTEX
  8
E59LXLIFT
 62
13
 10
5429.143
 20
-9526.141
 30
-561.000
 70
    32
  0
VERTEX
  8
E59LXLIFT
 62
13
 10
5440.974
 20
-9533.037
 30
-561.000
 70
    32
  0
VERTEX
  8
E59LXLIFT
 62
13
 10
5450.771
 20
-9545.027
 30
-561.000
 70
    32
  0
VERTEX
  8
E59LXLIFT
 62
13
 10
5467.864
 20
-9540.094
 30
-561.000
 70
    32
  0
VERTEX
  8
E59LXLIFT
 62
13
 10
5489.679
 20
-9530.162
 30
-561.000
 70
    32
  0
VERTEX
  8
E59LXLIFT
 62
13
 10
5505.780
 20
-9537.081
 30
-561.000
 70
    32
  0
VERTEX
  8
E59LXLIFT
 62
13
 10
5517.402
 20
-9554.817
 30
-561.000
 70
    32
  0
VERTEX
  8
E59LXLIFT
 62
13
 10
5507.423
 20
-9563.790
 30
-561.000
 70
    32
  0
VERTEX
  8
E59LXLIFT
 62
13
 10
5492.885
 20
-9564.337
 30
-561.000
 70
    32
  0
VERTEX
  8
E59LXLIFT
 62
13
 10
5450.030
 20
-9591.483
 30
-561.000
 70
    32
  0
VERTEX
  8
E59LXLIFT
 62
13
 10
5430.849
 20
-9596.097
 30
-561.000
 70
    32
  0
VERTEX
  8
E59LXLIFT
 62
13
 10
5423.324
 20
-9583.637
 30
-561.000
 70
    32
  0
VERTEX
  8
E59LXLIFT
 62
13
 10
5411.653
 20
-9580.222
 30
-561.000
 70
    32
  0
VERTEX
  8
E59LXLIFT
 62
13
 10
5400.515
 20
-9579.905
 30
-561.000
 70
    32
  0
VERTEX
  8
E59LXLIFT
 62
13
 10
5398.502
 20
-9575.387
 30
-561.000
 70
    32
  0
VERTEX
  8
E59LXLIFT
 62
13
 10
5407.423
 20
-9566.756
 30
-561.000
 70
    32
  0
VERTEX
  8
E59LXLIFT
 62
13
 10
5410.890
 20
-9555.156
 30
-561.000
 70
    32
  0
VERTEX
  8
E59LXLIFT
 62
13
 10
5407.302
 20
-9533.367
 30
-561.000
 70
    32
  0
VERTEX
  8
E59LXLIFT
 62
13
 10
5397.799
 20
-9507.093
 30
-561.000
 70
    32
  0
VERTEX
  8
E59LXLIFT
 62
13
 10
5385.794
 20
-9477.860
 30
-561.000
 70
    32
  0
VERTEX
  8
E59LXLIFT
 62
13
 10
5384.733
 20
-9471.225
 30
-561.000
 70
    32
  0
SEQEND
  8
E59LXLIFT
  0
POLYLINE
  8
E59LXLIFT
 62
7
 66
     1
 70
     9
  0
VERTEX
  8
E59LXLIFT
 62
7
 10
5404.593
 20
-9542.883
 30
-562.000
 70
    32
  0
VERTEX
  8
E59LXLIFT
 62
7
 10
5398.585
 20
-9566.602
 30
-562.000
 70
    32
  0
VERTEX
  8
E59LXLIFT
 62
7
 10
5395.162
 20
-9586.567
 30
-562.000
 70
    32
  0
VERTEX
  8
E59LXLIFT
 62
7
 10
5396.157
 20
-9596.523
 30
-562.000
 70
    32
  0
VERTEX
  8
E59LXLIFT
 62
7
 10
5387.273
 20
-9601.200
 30
-562.000
 70
    32
  0
VERTEX
  8
E59LXLIFT
 62
7
 10
5381.737
 20
-9593.820
 30
-562.000
 70
    32
  0
VERTEX
  8
E59LXLIFT
 62
7
 10
5373.101
 20
-9600.169
 30
-562.000
 70
    32
  0
VERTEX
  8
E59LXLIFT
 62
7
 10
5368.431
 20
-9608.946
 30
-562.000
 70
    32
  0
VERTEX
  8
E59LXLIFT
 62
7
 10
5370.775
 20
-9613.766
 30
-562.000
 70
    32
  0
VERTEX
  8
E59LXLIFT
 62
7
 10
5365.643
 20
-9615.685
 30
-562.000
 70
    32
  0
VERTEX
  8
E59LXLIFT
 62
7
 10
5354.049
 20
-9609.705
 30
-562.000
 70
    32
  0
VERTEX
  8
E59LXLIFT
 62
7
 10
5347.558
 20
-9604.881
 30
-562.000
 70
    32
  0
VERTEX
  8
E59LXLIFT
 62
7
 10
5344.427
 20
-9597.805
 30
-562.000
 70
    32
  0
VERTEX
  8
E59LXLIFT
 62
7
 10
5356.232
 20
-9601.994
 30
-562.000
 70
    32
  0
VERTEX
  8
E59LXLIFT
 62
7
 10
5368.180
 20
-9596.590
 30
-562.000
 70
    32
  0
VERTEX
  8
E59LXLIFT
 62
7
 10
5379.379
 20
-9588.684
 30
-562.000
 70
    32
  0
VERTEX
  8
E59LXLIFT
 62
7
 10
5385.606
 20
-9582.469
 30
-562.000
 70
    32
  0
VERTEX
  8
E59LXLIFT
 62
7
 10
5387.843
 20
-9565.340
 30
-562.000
 70
    32
  0
VERTEX
  8
E59LXLIFT
 62
7
 10
5388.131
 20
-9546.153
 30
-562.000
 70
    32
  0
VERTEX
  8
E59LXLIFT
 62
7
 10
5388.371
 20
-9530.164
 30
-562.000
 70
    32
  0
VERTEX
  8
E59LXLIFT
 62
7
 10
5390.691
 20
-9522.788
 30
-562.000
 70
    32
  0
VERTEX
  8
E59LXLIFT
 62
7
 10
5395.769
 20
-9519.163
 30
-562.000
 70
    32
  0
VERTEX
  8
E59LXLIFT
 62
7
 10
5403.742
 20
-9523.334
 30
-562.000
 70
    32
  0
VERTEX
  8
E59LXLIFT
 62
7
 10
5400.833
 20
-9531.688
 30
-562.000
 70
    32
  0
SEQEND
  8
E59LXLIFT
  0
POLYLINE
  8
E59LXLIFT
 62
11
 66
     1
 70
     9
  0
VERTEX
  8
E59LXLIFT
 62
11
 10
5323.097
 20
-9317.086
 30
-560.000
 70
    32
  0
VERTEX
  8
E59LXLIFT
 62
11
 10
5328.582
 20
-9326.030
 30
-560.000
 70
    32
  0
VERTEX
  8
E59LXLIFT
 62
11
 10
5332.427
 20
-9337.489
 30
-560.000
 70
    32
  0
VERTEX
  8
E59LXLIFT
 62
11
 10
5346.118
 20
-9363.083
 30
-560.000
 70
    32
  0
VERTEX
  8
E59LXLIFT
 62
11
 10
5355.963
 20
-9368.167
 30
-560.000
 70
    32
  0
VERTEX
  8
E59LXLIFT
 62
11
 10
5357.901
 20
-9373.177
 30
-560.000
 70
    32
  0
VERTEX
  8
E59LXLIFT
 62
11
 10
5371.438
 20
-9380.018
 30
-560.000
 70
    32
  0
VERTEX
  8
E59LXLIFT
 62
11
 10
5380.130
 20
-9373.300
 30
-560.000
 70
    32
  0
VERTEX
  8
E59LXLIFT
 62
11
 10
5376.104
 20
-9364.265
 30
-560.000
 70
    32
  0
VERTEX
  8
E59LXLIFT
 62
11
 10
5374.049
 20
-9356.724
 30
-560.000
 70
    32
  0
VERTEX
  8
E59LXLIFT
 62
11
 10
5364.937
 20
-9352.191
 30
-560.000
 70
    32
  0
VERTEX
  8
E59LXLIFT
 62
11
 10
5358.771
 20
-9346.474
 30
-560.000
 70
    32
  0
VERTEX
  8
E59LXLIFT
 62
11
 10
5351.010
 20
-9331.024
 30
-560.000
 70
    32
  0
VERTEX
  8
E59LXLIFT
 62
11
 10
5337.424
 20
-9314.622
 30
-560.000
 70
    32
  0
VERTEX
  8
E59LXLIFT
 62
11
 10
5331.115
 20
-9307.375
 30
-560.000
 70
    32
  0
SEQEND
  8
E59LXLIFT
  0
POLYLINE
  8
E59LXLIFT
 62
8
 66
     1
 70
     9
  0
VERTEX
  8
E59LXLIFT
 62
8
 10
6085.848
 20
-9709.413
 30
-551.000
 70
    32
  0
VERTEX
  8
E59LXLIFT
 62
8
 10
6095.837
 20
-9706.243
 30
-551.000
 70
    32
  0
VERTEX
  8
E59LXLIFT
 62
8
 10
6108.087
 20
-9694.509
 30
-551.000
 70
    32
  0
VERTEX
  8
E59LXLIFT
 62
8
 10
6112.719
 20
-9680.464
 30
-551.000
 70
    32
  0
VERTEX
  8
E59LXLIFT
 62
8
 10
6115.112
 20
-9656.067
 30
-551.000
 70
    32
  0
VERTEX
  8
E59LXLIFT
 62
8
 10
6109.079
 20
-9647.223
 30
-551.000
 70
    32
  0
VERTEX
  8
E59LXLIFT
 62
8
 10
6110.206
 20
-9632.727
 30
-551.000
 70
    32
  0
VERTEX
  8
E59LXLIFT
 62
8
 10
6108.726
 20
-9616.783
 30
-551.000
 70
    32
  0
VERTEX
  8
E59LXLIFT
 62
8
 10
6105.823
 20
-9596.870
 30
-551.000
 70
    32
  0
VERTEX
  8
E59LXLIFT
 62
8
 10
6098.542
 20
-9593.545
 30
-551.000
 70
    32
  0
VERTEX
  8
E59LXLIFT
 62
8
 10
6096.762
 20
-9613.773
 30
-551.000
 70
    32
  0
VERTEX
  8
E59LXLIFT
 62
8
 10
6099.223
 20
-9625.600
 30
-551.000
 70
    32
  0
VERTEX
  8
E59LXLIFT
 62
8
 10
6100.502
 20
-9648.031
 30
-551.000
 70
    32
  0
VERTEX
  8
E59LXLIFT
 62
8
 10
6095.565
 20
-9655.201
 30
-551.000
 70
    32
  0
VERTEX
  8
E59LXLIFT
 62
8
 10
6102.206
 20
-9665.011
 30
-551.000
 70
    32
  0
VERTEX
  8
E59LXLIFT
 62
8
 10
6105.479
 20
-9675.579
 30
-551.000
 70
    32
  0
VERTEX
  8
E59LXLIFT
 62
8
 10
6089.661
 20
-9689.421
 30
-551.000
 70
    32
  0
VERTEX
  8
E59LXLIFT
 62
8
 10
6080.366
 20
-9698.959
 30
-551.000
 70
    32
  0
SEQEND
  8
E59LXLIFT
  0
POLYLINE
  8
E59LXLIFT
 62
27
 66
     1
 70
     9
  0
VERTEX
  8
E59LXLIFT
 62
27
 10
5831.114
 20
-9977.139
 30
-550.000
 70
    32
  0
VERTEX
  8
E59LXLIFT
 62
27
 10
5826.449
 20
-9964.110
 30
-550.000
 70
    32
  0
VERTEX
  8
E59LXLIFT
 62
27
 10
5817.168
 20
-9952.221
 30
-550.000
 70
    32
  0
VERTEX
  8
E59LXLIFT
 62
27
 10
5813.092
 20
-9940.720
 30
-550.000
 70
    32
  0
VERTEX
  8
E59LXLIFT
 62
27
 10
5809.146
 20
-9923.223
 30
-550.000
 70
    32
  0
VERTEX
  8
E59LXLIFT
 62
27
 10
5806.493
 20
-9915.690
 30
-550.000
 70
    32
  0
VERTEX
  8
E59LXLIFT
 62
27
 10
5798.359
 20
-9906.225
 30
-550.000
 70
    32
  0
VERTEX
  8
E59LXLIFT
 62
27
 10
5793.588
 20
-9897.755
 30
-550.000
 70
    32
  0
VERTEX
  8
E59LXLIFT
 62
27
 10
5798.158
 20
-9890.531
 30
-550.000
 70
    32
  0
VERTEX
  8
E59LXLIFT
 62
27
 10
5806.109
 20
-9888.441
 30
-550.000
 70
    32
  0
VERTEX
  8
E59LXLIFT
 62
27
 10
5809.599
 20
-9897.099
 30
-550.000
 70
    32
  0
VERTEX
  8
E59LXLIFT
 62
27
 10
5822.736
 20
-9913.878
 30
-550.000
 70
    32
  0
VERTEX
  8
E59LXLIFT
 62
27
 10
5838.254
 20
-9936.207
 30
-550.000
 70
    32
  0
VERTEX
  8
E59LXLIFT
 62
27
 10
5850.901
 20
-9957.175
 30
-550.000
 70
    32
  0
VERTEX
  8
E59LXLIFT
 62
27
 10
5854.888
 20
-9968.851
 30
-550.000
 70
    32
  0
VERTEX
  8
E59LXLIFT
 62
27
 10
5848.561
 20
-9972.683
 30
-550.000
 70
    32
  0
SEQEND
  8
E59LXLIFT
  0
POLYLINE
  8
E59LXLIFT
 62
13
 66
     1
 70
     9
  0
VERTEX
  8
E59LXLIFT
 62
13
 10
5496.810
 20
-9562.251
 30
-551.000
 70
    32
  0
VERTEX
  8
E59LXLIFT
 62
13
 10
5506.142
 20
-9547.769
 30
-551.000
 70
    32
  0
VERTEX
  8
E59LXLIFT
 62
13
 10
5509.658
 20
-9540.892
 30
-551.000
 70
    32
  0
VERTEX
  8
E59LXLIFT
 62
13
 10
5499.732
 20
-9532.542
 30
-551.000
 70
    32
  0
VERTEX
  8
E59LXLIFT
 62
13
 10
5489.057
 20
-9527.152
 30
-551.000
 70
    32
  0
VERTEX
  8
E59LXLIFT
 62
13
 10
5475.573
 20
-9527.240
 30
-551.000
 70
    32
  0
VERTEX
  8
E59LXLIFT
 62
13
 10
5461.283
 20
-9527.271
 30
-551.000
 70
    32
  0
VERTEX
  8
E59LXLIFT
 62
13
 10
5452.007
 20
-9523.027
 30
-551.000
 70
    32
  0
VERTEX
  8
E59LXLIFT
 62
13
 10
5441.175
 20
-9517.426
 30
-551.000
 70
    32
  0
VERTEX
  8
E59LXLIFT
 62
13
 10
5429.676
 20
-9512.103
 30
-551.000
 70
    32
  0
VERTEX
  8
E59LXLIFT
 62
13
 10
5422.204
 20
-9517.334
 30
-551.000
 70
    32
  0
VERTEX
  8
E59LXLIFT
 62
13
 10
5418.218
 20
-9523.139
 30
-551.000
 70
    32
  0
VERTEX
  8
E59LXLIFT
 62
13
 10
5417.182
 20
-9545.982
 30
-551.000
 70
    32
  0
VERTEX
  8
E59LXLIFT
 62
13
 10
5417.926
 20
-9570.778
 30
-551.000
 70
    32
  0
VERTEX
  8
E59LXLIFT
 62
13
 10
5420.656
 20
-9576.505
 30
-551.000
 70
    32
  0
VERTEX
  8
E59LXLIFT
 62
13
 10
5434.586
 20
-9587.887
 30
-551.000
 70
    32
  0
VERTEX
  8
E59LXLIFT
 62
13
 10
5438.379
 20
-9595.336
 30
-551.000
 70
    32
  0
VERTEX
  8
E59LXLIFT
 62
13
 10
5453.008
 20
-9589.590
 30
-551.000
 70
    32
  0
VERTEX
  8
E59LXLIFT
 62
13
 10
5462.580
 20
-9576.459
 30
-551.000
 70
    32
  0
VERTEX
  8
E59LXLIFT
 62
13
 10
5473.779
 20
-9568.893
 30
-551.000
 70
    32
  0
VERTEX
  8
E59LXLIFT
 62
13
 10
5484.825
 20
-9555.541
 30
-551.000
 70
    32
  0
SEQEND
  8
E59LXLIFT
  0
POLYLINE
  8
E59LXLIFT
 62
7
 66
     1
 70
     9
  0
VERTEX
  8
E59LXLIFT
 62
7
 10
5423.464
 20
-9513.446
 30
-551.000
 70
    32
  0
VERTEX
  8
E59LXLIFT
 62
7
 10
5419.047
 20
-9499.577
 30
-551.000
 70
    32
  0
VERTEX
  8
E59LXLIFT
 62
7
 10
5420.698
 20
-9481.085
 30
-551.000
 70
    32
  0
VERTEX
  8
E59LXLIFT
 62
7
 10
5425.709
 20
-9464.026
 30
-551.000
 70
    32
  0
VERTEX
  8
E59LXLIFT
 62
7
 10
5428.973
 20
-9445.646
 30
-551.000
 70
    32
  0
VERTEX
  8
E59LXLIFT
 62
7
 10
5425.277
 20
-9435.830
 30
-551.000
 70
    32
  0
VERTEX
  8
E59LXLIFT
 62
7
 10
5420.074
 20
-9434.565
 30
-551.000
 70
    32
  0
VERTEX
  8
E59LXLIFT
 62
7
 10
5411.339
 20
-9448.821
 30
-551.000
 70
    32
  0
VERTEX
  8
E59LXLIFT
 62
7
 10
5409.249
 20
-9463.050
 30
-551.000
 70
    32
  0
VERTEX
  8
E59LXLIFT
 62
7
 10
5402.757
 20
-9486.345
 30
-551.000
 70
    32
  0
VERTEX
  8
E59LXLIFT
 62
7
 10
5397.062
 20
-9512.325
 30
-551.000
 70
    32
  0
VERTEX
  8
E59LXLIFT
 62
7
 10
5391.773
 20
-9519.757
 30
-551.000
 70
    32
  0
VERTEX
  8
E59LXLIFT
 62
7
 10
5389.340
 20
-9536.317
 30
-551.000
 70
    32
  0
VERTEX
  8
E59LXLIFT
 62
7
 10
5384.670
 20
-9564.703
 30
-551.000
 70
    32
  0
VERTEX
  8
E59LXLIFT
 62
7
 10
5383.545
 20
-9578.761
 30
-551.000
 70
    32
  0
VERTEX
  8
E59LXLIFT
 62
7
 10
5372.093
 20
-9583.784
 30
-551.000
 70
    32
  0
VERTEX
  8
E59LXLIFT
 62
7
 10
5359.446
 20
-9580.736
 30
-551.000
 70
    32
  0
VERTEX
  8
E59LXLIFT
 62
7
 10
5348.980
 20
-9584.587
 30
-551.000
 70
    32
  0
VERTEX
  8
E59LXLIFT
 62
7
 10
5343.070
 20
-9589.421
 30
-551.000
 70
    32
  0
VERTEX
  8
E59LXLIFT
 62
7
 10
5346.511
 20
-9601.831
 30
-551.000
 70
    32
  0
VERTEX
  8
E59LXLIFT
 62
7
 10
5358.206
 20
-9606.243
 30
-551.000
 70
    32
  0
VERTEX
  8
E59LXLIFT
 62
7
 10
5362.282
 20
-9604.085
 30
-551.000
 70
    32
  0
VERTEX
  8
E59LXLIFT
 62
7
 10
5371.708
 20
-9606.033
 30
-551.000
 70
    32
  0
VERTEX
  8
E59LXLIFT
 62
7
 10
5376.786
 20
-9598.759
 30
-551.000
 70
    32
  0
VERTEX
  8
E59LXLIFT
 62
7
 10
5388.194
 20
-9600.434
 30
-551.000
 70
    32
  0
VERTEX
  8
E59LXLIFT
 62
7
 10
5395.218
 20
-9597.832
 30
-551.000
 70
    32
  0
VERTEX
  8
E59LXLIFT
 62
7
 10
5395.254
 20
-9597.586
 30
-551.000
 70
    32
  0
VERTEX
  8
E59LXLIFT
 62
7
 10
5398.321
 20
-9580.117
 30
-551.000
 70
    32
  0
VERTEX
  8
E59LXLIFT
 62
7
 10
5397.566
 20
-9562.650
 30
-551.000
 70
    32
  0
VERTEX
  8
E59LXLIFT
 62
7
 10
5401.228
 20
-9545.393
 30
-551.000
 70
    32
  0
VERTEX
  8
E59LXLIFT
 62
7
 10
5404.595
 20
-9522.893
 30
-551.000
 70
    32
  0
SEQEND
  8
E59LXLIFT
  0
POLYLINE
  8
E59LXLIFT
 62
11
 66
     1
 70
     9
  0
VERTEX
  8
E59LXLIFT
 62
11
 10
5417.576
 20
-9400.802
 30
-549.000
 70
    32
  0
VERTEX
  8
E59LXLIFT
 62
11
 10
5404.887
 20
-9386.094
 30
-549.000
 70
    32
  0
VERTEX
  8
E59LXLIFT
 62
11
 10
5385.712
 20
-9370.746
 30
-549.000
 70
    32
  0
VERTEX
  8
E59LXLIFT
 62
11
 10
5365.109
 20
-9353.184
 30
-549.000
 70
    32
  0
VERTEX
  8
E59LXLIFT
 62
11
 10
5347.310
 20
-9335.720
 30
-549.000
 70
    32
  0
VERTEX
  8
E59LXLIFT
 62
11
 10
5336.146
 20
-9316.599
 30
-549.000
 70
    32
  0
VERTEX
  8
E59LXLIFT
 62
11
 10
5328.550
 20
-9326.511
 30
-549.000
 70
    32
  0
VERTEX
  8
E59LXLIFT
 62
11
 10
5311.167
 20
-9332.668
 30
-549.000
 70
    32
  0
VERTEX
  8
E59LXLIFT
 62
11
 10
5332.385
 20
-9354.581
 30
-549.000
 70
    32
  0
VERTEX
  8
E59LXLIFT
 62
11
 10
5353.368
 20
-9382.788
 30
-549.000
 70
    32
  0
VERTEX
  8
E59LXLIFT
 62
11
 10
5373.624
 20
-9408.257
 30
-549.000
 70
    32
  0
VERTEX
  8
E59LXLIFT
 62
11
 10
5382.779
 20
-9425.704
 30
-549.000
 70
    32
  0
VERTEX
  8
E59LXLIFT
 62
11
 10
5393.197
 20
-9429.427
 30
-549.000
 70
    32
  0
VERTEX
  8
E59LXLIFT
 62
11
 10
5409.187
 20
-9420.810
 30
-549.000
 70
    32
  0
VERTEX
  8
E59LXLIFT
 62
11
 10
5413.163
 20
-9412.936
 30
-549.000
 70
    32
  0
SEQEND
  8
E59LXLIFT
  0
POLYLINE
  8
E59LXLIFT
 62
8
 66
     1
 70
     9
  0
VERTEX
  8
E59LXLIFT
 62
8
 10
6091.589
 20
-9655.640
 30
-540.000
 70
    32
  0
VERTEX
  8
E59LXLIFT
 62
8
 10
6096.792
 20
-9661.822
 30
-540.000
 70
    32
  0
VERTEX
  8
E59LXLIFT
 62
8
 10
6096.633
 20
-9680.713
 30
-540.000
 70
    32
  0
VERTEX
  8
E59LXLIFT
 62
8
 10
6095.976
 20
-9695.587
 30
-540.000
 70
    32
  0
VERTEX
  8
E59LXLIFT
 62
8
 10
6091.032
 20
-9706.664
 30
-540.000
 70
    32
  0
VERTEX
  8
E59LXLIFT
 62
8
 10
6082.354
 20
-9718.904
 30
-540.000
 70
    32
  0
VERTEX
  8
E59LXLIFT
 62
8
 10
6087.854
 20
-9724.752
 30
-540.000
 70
    32
  0
VERTEX
  8
E59LXLIFT
 62
8
 10
6093.885
 20
-9723.286
 30
-540.000
 70
    32
  0
VERTEX
  8
E59LXLIFT
 62
8
 10
6097.408
 20
-9712.072
 30
-540.000
 70
    32
  0
VERTEX
  8
E59LXLIFT
 62
8
 10
6104.413
 20
-9705.920
 30
-540.000
 70
    32
  0
VERTEX
  8
E59LXLIFT
 62
8
 10
6111.278
 20
-9699.875
 30
-540.000
 70
    32
  0
VERTEX
  8
E59LXLIFT
 62
8
 10
6110.324
 20
-9686.213
 30
-540.000
 70
    32
  0
VERTEX
  8
E59LXLIFT
 62
8
 10
6110.612
 20
-9670.848
 30
-540.000
 70
    32
  0
VERTEX
  8
E59LXLIFT
 62
8
 10
6111.078
 20
-9656.886
 30
-540.000
 70
    32
  0
VERTEX
  8
E59LXLIFT
 62
8
 10
6104.661
 20
-9638.884
 30
-540.000
 70
    32
  0
VERTEX
  8
E59LXLIFT
 62
8
 10
6098.438
 20
-9620.847
 30
-540.000
 70
    32
  0
VERTEX
  8
E59LXLIFT
 62
8
 10
6094.295
 20
-9608.927
 30
-540.000
 70
    32
  0
VERTEX
  8
E59LXLIFT
 62
8
 10
6088.264
 20
-9610.832
 30
-540.000
 70
    32
  0
VERTEX
  8
E59LXLIFT
 62
8
 10
6089.374
 20
-9623.389
 30
-540.000
 70
    32
  0
VERTEX
  8
E59LXLIFT
 62
8
 10
6095.678
 20
-9637.304
 30
-540.000
 70
    32
  0
VERTEX
  8
E59LXLIFT
 62
8
 10
6098.951
 20
-9642.963
 30
-540.000
 70
    32
  0
SEQEND
  8
E59LXLIFT
  0
POLYLINE
  8
E59LXLIFT
 62
2
 66
     1
 70
     9
  0
VERTEX
  8
E59LXLIFT
 62
2
 10
5753.601
 20
-9684.501
 30
-538.000
 70
    32
  0
VERTEX
  8
E59LXLIFT
 62
2
 10
5761.243
 20
-9691.152
 30
-538.000
 70
    32
  0
VERTEX
  8
E59LXLIFT
 62
2
 10
5769.832
 20
-9688.418
 30
-538.000
 70
    32
  0
VERTEX
  8
E59LXLIFT
 62
2
 10
5781.669
 20
-9677.312
 30
-538.000
 70
    32
  0
VERTEX
  8
E59LXLIFT
 62
2
 10
5785.956
 20
-9681.110
 30
-538.000
 70
    32
  0
VERTEX
  8
E59LXLIFT
 62
2
 10
5792.320
 20
-9679.503
 30
-538.000
 70
    32
  0
VERTEX
  8
E59LXLIFT
 62
2
 10
5797.620
 20
-9681.440
 30
-538.000
 70
    32
  0
VERTEX
  8
E59LXLIFT
 62
2
 10
5789.468
 20
-9693.505
 30
-538.000
 70
    32
  0
VERTEX
  8
E59LXLIFT
 62
2
 10
5783.880
 20
-9707.371
 30
-538.000
 70
    32
  0
VERTEX
  8
E59LXLIFT
 62
2
 10
5782.113
 20
-9719.459
 30
-538.000
 70
    32
  0
VERTEX
  8
E59LXLIFT
 62
2
 10
5776.527
 20
-9724.871
 30
-538.000
 70
    32
  0
VERTEX
  8
E59LXLIFT
 62
2
 10
5768.611
 20
-9721.500
 30
-538.000
 70
    32
  0
VERTEX
  8
E59LXLIFT
 62
2
 10
5755.207
 20
-9719.296
 30
-538.000
 70
    32
  0
VERTEX
  8
E59LXLIFT
 62
2
 10
5749.382
 20
-9708.204
 30
-538.000
 70
    32
  0
VERTEX
  8
E59LXLIFT
 62
2
 10
5749.544
 20
-9701.276
 30
-538.000
 70
    32
  0
VERTEX
  8
E59LXLIFT
 62
2
 10
5746.156
 20
-9689.776
 30
-538.000
 70
    32
  0
SEQEND
  8
E59LXLIFT
  0
POLYLINE
  8
E59LXLIFT
 62
13
 66
     1
 70
     9
  0
VERTEX
  8
E59LXLIFT
 62
13
 10
5495.918
 20
-9541.822
 30
-542.000
 70
    32
  0
VERTEX
  8
E59LXLIFT
 62
13
 10
5484.182
 20
-9550.437
 30
-542.000
 70
    32
  0
VERTEX
  8
E59LXLIFT
 62
13
 10
5470.204
 20
-9560.740
 30
-542.000
 70
    32
  0
VERTEX
  8
E59LXLIFT
 62
13
 10
5460.210
 20
-9572.545
 30
-542.000
 70
    32
  0
VERTEX
  8
E59LXLIFT
 62
13
 10
5451.522
 20
-9588.854
 30
-542.000
 70
    32
  0
VERTEX
  8
E59LXLIFT
 62
13
 10
5445.814
 20
-9594.688
 30
-542.000
 70
    32
  0
VERTEX
  8
E59LXLIFT
 62
13
 10
5439.948
 20
-9590.103
 30
-542.000
 70
    32
  0
VERTEX
  8
E59LXLIFT
 62
13
 10
5431.694
 20
-9574.472
 30
-542.000
 70
    32
  0
VERTEX
  8
E59LXLIFT
 62
13
 10
5421.324
 20
-9562.301
 30
-542.000
 70
    32
  0
VERTEX
  8
E59LXLIFT
 62
13
 10
5411.048
 20
-9544.131
 30
-542.000
 70
    32
  0
VERTEX
  8
E59LXLIFT
 62
13
 10
5408.436
 20
-9535.120
 30
-542.000
 70
    32
  0
VERTEX
  8
E59LXLIFT
 62
13
 10
5419.324
 20
-9522.753
 30
-542.000
 70
    32
  0
VERTEX
  8
E59LXLIFT
 62
13
 10
5435.621
 20
-9514.655
 30
-542.000
 70
    32
  0
VERTEX
  8
E59LXLIFT
 62
13
 10
5449.321
 20
-9515.648
 30
-542.000
 70
    32
  0
VERTEX
  8
E59LXLIFT
 62
13
 10
5459.251
 20
-9526.943
 30
-542.000
 70
    32
  0
VERTEX
  8
E59LXLIFT
 62
13
 10
5469.423
 20
-9526.311
 30
-542.000
 70
    32
  0
VERTEX
  8
E59LXLIFT
 62
13
 10
5482.870
 20
-9522.885
 30
-542.000
 70
    32
  0
VERTEX
  8
E59LXLIFT
 62
13
 10
5495.495
 20
-9520.845
 30
-542.000
 70
    32
  0
SEQEND
  8
E59LXLIFT
  0
POLYLINE
  8
E59LXLIFT
 62
7
 66
     1
 70
     9
  0
VERTEX
  8
E59LXLIFT
 62
7
 10
5424.588
 20
-9445.464
 30
-543.000
 70
    32
  0
VERTEX
  8
E59LXLIFT
 62
7
 10
5415.522
 20
-9486.207
 30
-543.000
 70
    32
  0
VERTEX
  8
E59LXLIFT
 62
7
 10
5404.928
 20
-9524.918
 30
-543.000
 70
    32
  0
VERTEX
  8
E59LXLIFT
 62
7
 10
5399.819
 20
-9551.816
 30
-543.000
 70
    32
  0
VERTEX
  8
E59LXLIFT
 62
7
 10
5395.118
 20
-9571.381
 30
-543.000
 70
    32
  0
VERTEX
  8
E59LXLIFT
 62
7
 10
5398.777
 20
-9586.739
 30
-543.000
 70
    32
  0
VERTEX
  8
E59LXLIFT
 62
7
 10
5397.656
 20
-9597.791
 30
-543.000
 70
    32
  0
VERTEX
  8
E59LXLIFT
 62
7
 10
5379.364
 20
-9598.718
 30
-543.000
 70
    32
  0
VERTEX
  8
E59LXLIFT
 62
7
 10
5356.751
 20
-9605.862
 30
-543.000
 70
    32
  0
VERTEX
  8
E59LXLIFT
 62
7
 10
5337.981
 20
-9604.405
 30
-543.000
 70
    32
  0
VERTEX
  8
E59LXLIFT
 62
7
 10
5337.274
 20
-9601.424
 30
-543.000
 70
    32
  0
VERTEX
  8
E59LXLIFT
 62
7
 10
5350.369
 20
-9587.615
 30
-543.000
 70
    32
  0
VERTEX
  8
E59LXLIFT
 62
7
 10
5365.363
 20
-9586.097
 30
-543.000
 70
    32
  0
VERTEX
  8
E59LXLIFT
 62
7
 10
5375.688
 20
-9583.044
 30
-543.000
 70
    32
  0
VERTEX
  8
E59LXLIFT
 62
7
 10
5378.398
 20
-9568.709
 30
-543.000
 70
    32
  0
VERTEX
  8
E59LXLIFT
 62
7
 10
5382.828
 20
-9544.848
 30
-543.000
 70
    32
  0
VERTEX
  8
E59LXLIFT
 62
7
 10
5384.752
 20
-9531.655
 30
-543.000
 70
    32
  0
VERTEX
  8
E59LXLIFT
 62
7
 10
5386.552
 20
-9518.444
 30
-543.000
 70
    32
  0
VERTEX
  8
E59LXLIFT
 62
7
 10
5389.077
 20
-9498.322
 30
-543.000
 70
    32
  0
VERTEX
  8
E59LXLIFT
 62
7
 10
5393.419
 20
-9474.636
 30
-543.000
 70
    32
  0
VERTEX
  8
E59LXLIFT
 62
7
 10
5396.930
 20
-9446.636
 30
-543.000
 70
    32
  0
SEQEND
  8
E59LXLIFT
  0
POLYLINE
  8
E59LXLIFT
 62
11
 66
     1
 70
     9
  0
VERTEX
  8
E59LXLIFT
 62
11
 10
5402.419
 20
-9416.599
 30
-538.000
 70
    32
  0
VERTEX
  8
E59LXLIFT
 62
11
 10
5403.517
 20
-9403.039
 30
-538.000
 70
    32
  0
VERTEX
  8
E59LXLIFT
 62
11
 10
5401.040
 20
-9390.853
 30
-538.000
 70
    32
  0
VERTEX
  8
E59LXLIFT
 62
11
 10
5395.688
 20
-9379.953
 30
-538.000
 70
    32
  0
VERTEX
  8
E59LXLIFT
 62
11
 10
5381.180
 20
-9368.701
 30
-538.000
 70
    32
  0
VERTEX
  8
E59LXLIFT
 62
11
 10
5368.954
 20
-9358.147
 30
-538.000
 70
    32
  0
VERTEX
  8
E59LXLIFT
 62
11
 10
5348.395
 20
-9336.960
 30
-538.000
 70
    32
  0
VERTEX
  8
E59LXLIFT
 62
11
 10
5333.161
 20
-9321.974
 30
-538.000
 70
    32
  0
VERTEX
  8
E59LXLIFT
 62
11
 10
5318.952
 20
-9330.804
 30
-538.000
 70
    32
  0
VERTEX
  8
E59LXLIFT
 62
11
 10
5330.583
 20
-9351.357
 30
-538.000
 70
    32
  0
VERTEX
  8
E59LXLIFT
 62
11
 10
5355.138
 20
-9380.622
 30
-538.000
 70
    32
  0
VERTEX
  8
E59LXLIFT
 62
11
 10
5372.791
 20
-9405.093
 30
-538.000
 70
    32
  0
VERTEX
  8
E59LXLIFT
 62
11
 10
5389.371
 20
-9427.409
 30
-538.000
 70
    32
  0
SEQEND
  8
E59LXLIFT
  0
POLYLINE
  8
E59LXLIFT
 62
8
 66
     1
 70
     9
  0
VERTEX
  8
E59LXLIFT
 62
8
 10
6111.117
 20
-9710.395
 30
-531.000
 70
    32
  0
VERTEX
  8
E59LXLIFT
 62
8
 10
6112.938
 20
-9685.457
 30
-531.000
 70
    32
  0
VERTEX
  8
E59LXLIFT
 62
8
 10
6111.798
 20
-9654.726
 30
-531.000
 70
    32
  0
VERTEX
  8
E59LXLIFT
 62
8
 10
6101.468
 20
-9625.310
 30
-531.000
 70
    32
  0
VERTEX
  8
E59LXLIFT
 62
8
 10
6097.973
 20
-9601.014
 30
-531.000
 70
    32
  0
VERTEX
  8
E59LXLIFT
 62
8
 10
6090.340
 20
-9601.181
 30
-531.000
 70
    32
  0
VERTEX
  8
E59LXLIFT
 62
8
 10
6089.653
 20
-9618.620
 30
-531.000
 70
    32
  0
VERTEX
  8
E59LXLIFT
 62
8
 10
6095.223
 20
-9642.915
 30
-531.000
 70
    32
  0
VERTEX
  8
E59LXLIFT
 62
8
 10
6099.116
 20
-9685.380
 30
-531.000
 70
    32
  0
VERTEX
  8
E59LXLIFT
 62
8
 10
6098.392
 20
-9711.804
 30
-531.000
 70
    32
  0
SEQEND
  8
E59LXLIFT
  0
POLYLINE
  8
E59LXLIFT
 62
1
 66
     1
 70
     9
  0
VERTEX
  8
E59LXLIFT
 62
1
 10
5017.054
 20
-9398.384
 30
-538.000
 70
    32
  0
VERTEX
  8
E59LXLIFT
 62
1
 10
5003.235
 20
-9389.593
 30
-538.000
 70
    32
  0
VERTEX
  8
E59LXLIFT
 62
1
 10
4988.925
 20
-9385.753
 30
-538.000
 70
    32
  0
VERTEX
  8
E59LXLIFT
 62
1
 10
4977.466
 20
-9386.360
 30
-538.000
 70
    32
  0
VERTEX
  8
E59LXLIFT
 62
1
 10
4971.806
 20
-9384.318
 30
-538.000
 70
    32
  0
VERTEX
  8
E59LXLIFT
 62
1
 10
4965.834
 20
-9376.389
 30
-538.000
 70
    32
  0
VERTEX
  8
E59LXLIFT
 62
1
 10
4967.181
 20
-9369.494
 30
-538.000
 70
    32
  0
VERTEX
  8
E59LXLIFT
 62
1
 10
4964.520
 20
-9360.428
 30
-538.000
 70
    32
  0
VERTEX
  8
E59LXLIFT
 62
1
 10
4964.868
 20
-9345.532
 30
-538.000
 70
    32
  0
VERTEX
  8
E59LXLIFT
 62
1
 10
4971.275
 20
-9343.854
 30
-538.000
 70
    32
  0
VERTEX
  8
E59LXLIFT
 62
1
 10
4980.876
 20
-9347.680
 30
-538.000
 70
    32
  0
VERTEX
  8
E59LXLIFT
 62
1
 10
4992.898
 20
-9352.119
 30
-538.000
 70
    32
  0
VERTEX
  8
E59LXLIFT
 62
1
 10
5009.080
 20
-9354.356
 30
-538.000
 70
    32
  0
VERTEX
  8
E59LXLIFT
 62
1
 10
5012.915
 20
-9366.487
 30
-538.000
 70
    32
  0
VERTEX
  8
E59LXLIFT
 62
1
 10
5017.167
 20
-9374.158
 30
-538.000
 70
    32
  0
VERTEX
  8
E59LXLIFT
 62
1
 10
5026.450
 20
-9383.463
 30
-538.000
 70
    32
  0
SEQEND
  8
E59LXLIFT
  0
POLYLINE
  8
E59LXLIFT
 62
1
 66
     1
 70
     9
  0
VERTEX
  8
E59LXLIFT
 62
1
 10
5033.516
 20
-9421.389
 30
-538.000
 70
    32
  0
VERTEX
  8
E59LXLIFT
 62
1
 10
5035.971
 20
-9429.733
 30
-538.000
 70
    32
  0
VERTEX
  8
E59LXLIFT
 62
1
 10
5033.075
 20
-9434.386
 30
-538.000
 70
    32
  0
VERTEX
  8
E59LXLIFT
 62
1
 10
5022.670
 20
-9435.088
 30
-538.000
 70
    32
  0
VERTEX
  8
E59LXLIFT
 62
1
 10
5016.443
 20
-9446.465
 30
-538.000
 70
    32
  0
VERTEX
  8
E59LXLIFT
 62
1
 10
5006.523
 20
-9448.119
 30
-538.000
 70
    32
  0
VERTEX
  8
E59LXLIFT
 62
1
 10
4991.447
 20
-9453.585
 30
-538.000
 70
    32
  0
VERTEX
  8
E59LXLIFT
 62
1
 10
4989.235
 20
-9448.229
 30
-538.000
 70
    32
  0
VERTEX
  8
E59LXLIFT
 62
1
 10
5002.195
 20
-9441.378
 30
-538.000
 70
    32
  0
VERTEX
  8
E59LXLIFT
 62
1
 10
5018.372
 20
-9428.980
 30
-538.000
 70
    32
  0
VERTEX
  8
E59LXLIFT
 62
1
 10
5023.721
 20
-9415.085
 30
-538.000
 70
    32
  0
SEQEND
  8
E59LXLIFT
  0
POLYLINE
  8
E59LXLIFT
 62
4
 66
     1
 70
     9
  0
VERTEX
  8
E59LXLIFT
 62
4
 10
5117.017
 20
-9587.169
 30
-661.000
 70
    32
  0
VERTEX
  8
E59LXLIFT
 62
4
 10
5120.841
 20
-9579.490
 30
-661.000
 70
    32
  0
VERTEX
  8
E59LXLIFT
 62
4
 10
5124.732
 20
-9575.017
 30
-661.000
 70
    32
  0
VERTEX
  8
E59LXLIFT
 62
4
 10
5131.611
 20
-9578.341
 30
-661.000
 70
    32
  0
VERTEX
  8
E59LXLIFT
 62
4
 10
5134.894
 20
-9570.515
 30
-661.000
 70
    32
  0
VERTEX
  8
E59LXLIFT
 62
4
 10
5130.740
 20
-9567.802
 30
-661.000
 70
    32
  0
VERTEX
  8
E59LXLIFT
 62
4
 10
5129.385
 20
-9559.570
 30
-661.000
 70
    32
  0
VERTEX
  8
E59LXLIFT
 62
4
 10
5134.419
 20
-9551.765
 30
-661.000
 70
    32
  0
VERTEX
  8
E59LXLIFT
 62
4
 10
5143.334
 20
-9543.183
 30
-661.000
 70
    32
  0
VERTEX
  8
E59LXLIFT
 62
4
 10
5149.147
 20
-9537.630
 30
-661.000
 70
    32
  0
VERTEX
  8
E59LXLIFT
 62
4
 10
5144.706
 20
-9531.112
 30
-661.000
 70
    32
  0
VERTEX
  8
E59LXLIFT
 62
4
 10
5134.782
 20
-9533.270
 30
-661.000
 70
    32
  0
VERTEX
  8
E59LXLIFT
 62
4
 10
5125.852
 20
-9538.716
 30
-661.000
 70
    32
  0
VERTEX
  8
E59LXLIFT
 62
4
 10
5120.214
 20
-9544.359
 30
-661.000
 70
    32
  0
VERTEX
  8
E59LXLIFT
 62
4
 10
5114.741
 20
-9542.068
 30
-661.000
 70
    32
  0
VERTEX
  8
E59LXLIFT
 62
4
 10
5111.024
 20
-9532.090
 30
-661.000
 70
    32
  0
VERTEX
  8
E59LXLIFT
 62
4
 10
5106.259
 20
-9524.833
 30
-661.000
 70
    32
  0
VERTEX
  8
E59LXLIFT
 62
4
 10
5100.350
 20
-9528.178
 30
-661.000
 70
    32
  0
VERTEX
  8
E59LXLIFT
 62
4
 10
5106.346
 20
-9545.278
 30
-661.000
 70
    32
  0
VERTEX
  8
E59LXLIFT
 62
4
 10
5108.855
 20
-9556.572
 30
-661.000
 70
    32
  0
VERTEX
  8
E59LXLIFT
 62
4
 10
5108.754
 20
-9562.071
 30
-661.000
 70
    32
  0
VERTEX
  8
E59LXLIFT
 62
4
 10
5099.552
 20
-9566.848
 30
-661.000
 70
    32
  0
VERTEX
  8
E59LXLIFT
 62
4
 10
5092.179
 20
-9569.527
 30
-661.000
 70
    32
  0
VERTEX
  8
E59LXLIFT
 62
4
 10
5078.113
 20
-9563.647
 30
-661.000
 70
    32
  0
VERTEX
  8
E59LXLIFT
 62
4
 10
5067.411
 20
-9556.283
 30
-661.000
 70
    32
  0
VERTEX
  8
E59LXLIFT
 62
4
 10
5056.918
 20
-9550.393
 30
-661.000
 70
    32
  0
VERTEX
  8
E59LXLIFT
 62
4
 10
5044.282
 20
-9542.165
 30
-661.000
 70
    32
  0
VERTEX
  8
E59LXLIFT
 62
4
 10
5033.580
 20
-9537.621
 30
-661.000
 70
    32
  0
VERTEX
  8
E59LXLIFT
 62
4
 10
5029.632
 20
-9532.371
 30
-661.000
 70
    32
  0
VERTEX
  8
E59LXLIFT
 62
4
 10
5026.615
 20
-9523.943
 30
-661.000
 70
    32
  0
VERTEX
  8
E59LXLIFT
 62
4
 10
5020.019
 20
-9520.413
 30
-661.000
 70
    32
  0
VERTEX
  8
E59LXLIFT
 62
4
 10
5010.881
 20
-9522.755
 30
-661.000
 70
    32
  0
VERTEX
  8
E59LXLIFT
 62
4
 10
5000.460
 20
-9512.364
 30
-661.000
 70
    32
  0
VERTEX
  8
E59LXLIFT
 62
4
 10
4990.622
 20
-9510.336
 30
-661.000
 70
    32
  0
VERTEX
  8
E59LXLIFT
 62
4
 10
4988.215
 20
-9518.172
 30
-661.000
 70
    32
  0
VERTEX
  8
E59LXLIFT
 62
4
 10
4989.295
 20
-9524.544
 30
-661.000
 70
    32
  0
VERTEX
  8
E59LXLIFT
 62
4
 10
4995.094
 20
-9540.486
 30
-661.000
 70
    32
  0
VERTEX
  8
E59LXLIFT
 62
4
 10
5001.223
 20
-9545.009
 30
-661.000
 70
    32
  0
VERTEX
  8
E59LXLIFT
 62
4
 10
5008.277
 20
-9541.153
 30
-661.000
 70
    32
  0
VERTEX
  8
E59LXLIFT
 62
4
 10
5016.241
 20
-9543.140
 30
-661.000
 70
    32
  0
VERTEX
  8
E59LXLIFT
 62
4
 10
5022.894
 20
-9543.483
 30
-661.000
 70
    32
  0
VERTEX
  8
E59LXLIFT
 62
4
 10
5035.283
 20
-9553.303
 30
-661.000
 70
    32
  0
VERTEX
  8
E59LXLIFT
 62
4
 10
5044.668
 20
-9556.639
 30
-661.000
 70
    32
  0
VERTEX
  8
E59LXLIFT
 62
4
 10
5053.989
 20
-9557.960
 30
-661.000
 70
    32
  0
VERTEX
  8
E59LXLIFT
 62
4
 10
5063.543
 20
-9564.645
 30
-661.000
 70
    32
  0
VERTEX
  8
E59LXLIFT
 62
4
 10
5067.177
 20
-9572.729
 30
-661.000
 70
    32
  0
VERTEX
  8
E59LXLIFT
 62
4
 10
5070.544
 20
-9579.707
 30
-661.000
 70
    32
  0
VERTEX
  8
E59LXLIFT
 62
4
 10
5098.051
 20
-9583.787
 30
-661.000
 70
    32
  0
VERTEX
  8
E59LXLIFT
 62
4
 10
5112.575
 20
-9592.371
 30
-661.000
 70
    32
  0
SEQEND
  8
E59LXLIFT
  0
POLYLINE
  8
E59LXLIFT
 62
1
 66
     1
 70
     9
  0
VERTEX
  8
E59LXLIFT
 62
1
 10
5391.371
 20
-9425.409
 30
-528.000
 70
    32
  0
VERTEX
  8
E59LXLIFT
 62
1
 10
5374.791
 20
-9403.093
 30
-528.000
 70
    32
  0
VERTEX
  8
E59LXLIFT
 62
1
 10
5357.138
 20
-9378.622
 30
-528.000
 70
    32
  0
VERTEX
  8
E59LXLIFT
 62
1
 10
5332.583
 20
-9349.357
 30
-528.000
 70
    32
  0
VERTEX
  8
E59LXLIFT
 62
1
 10
5320.952
 20
-9328.804
 30
-528.000
 70
    32
  0
VERTEX
  8
E59LXLIFT
 62
1
 10
5335.161
 20
-9319.974
 30
-528.000
 70
    32
  0
VERTEX
  8
E59LXLIFT
 62
1
 10
5350.395
 20
-9334.960
 30
-528.000
 70
    32
  0
VERTEX
  8
E59LXLIFT
 62
1
 10
5370.954
 20
-9356.147
 30
-528.000
 70
    32
  0
VERTEX
  8
E59LXLIFT
 62
1
 10
5383.180
 20
-9366.701
 30
-528.000
 70
    32
  0
VERTEX
  8
E59LXLIFT
 62
1
 10
5397.688
 20
-9377.953
 30
-528.000
 70
    32
  0
VERTEX
  8
E59LXLIFT
 62
1
 10
5403.040
 20
-9388.853
 30
-528.000
 70
    32
  0
VERTEX
  8
E59LXLIFT
 62
1
 10
5405.517
 20
-9401.039
 30
-528.000
 70
    32
  0
VERTEX
  8
E59LXLIFT
 62
1
 10
5404.419
 20
-9414.599
 30
-528.000
 70
    32
  0
SEQEND
  8
E59LXLIFT
  0
POLYLINE
  8
E59LXLIFT
 62
1
 66
     1
 70
     9
  0
VERTEX
  8
E59LXLIFT
 62
1
 10
5426.588
 20
-9443.464
 30
-533.000
 70
    32
  0
VERTEX
  8
E59LXLIFT
 62
1
 10
5417.522
 20
-9484.207
 30
-533.000
 70
    32
  0
VERTEX
  8
E59LXLIFT
 62
1
 10
5406.928
 20
-9522.918
 30
-533.000
 70
    32
  0
VERTEX
  8
E59LXLIFT
 62
1
 10
5401.819
 20
-9549.816
 30
-533.000
 70
    32
  0
VERTEX
  8
E59LXLIFT
 62
1
 10
5397.118
 20
-9569.381
 30
-533.000
 70
    32
  0
VERTEX
  8
E59LXLIFT
 62
1
 10
5400.777
 20
-9584.739
 30
-533.000
 70
    32
  0
VERTEX
  8
E59LXLIFT
 62
1
 10
5399.656
 20
-9595.791
 30
-533.000
 70
    32
  0
VERTEX
  8
E59LXLIFT
 62
1
 10
5381.364
 20
-9596.718
 30
-533.000
 70
    32
  0
VERTEX
  8
E59LXLIFT
 62
1
 10
5358.751
 20
-9603.862
 30
-533.000
 70
    32
  0
VERTEX
  8
E59LXLIFT
 62
1
 10
5339.981
 20
-9602.405
 30
-533.000
 70
    32
  0
VERTEX
  8
E59LXLIFT
 62
1
 10
5339.274
 20
-9599.424
 30
-533.000
 70
    32
  0
VERTEX
  8
E59LXLIFT
 62
1
 10
5352.369
 20
-9585.615
 30
-533.000
 70
    32
  0
VERTEX
  8
E59LXLIFT
 62
1
 10
5367.363
 20
-9584.097
 30
-533.000
 70
    32
  0
VERTEX
  8
E59LXLIFT
 62
1
 10
5377.688
 20
-9581.044
 30
-533.000
 70
    32
  0
VERTEX
  8
E59LXLIFT
 62
1
 10
5380.398
 20
-9566.709
 30
-533.000
 70
    32
  0
VERTEX
  8
E59LXLIFT
 62
1
 10
5384.828
 20
-9542.848
 30
-533.000
 70
    32
  0
VERTEX
  8
E59LXLIFT
 62
1
 10
5386.752
 20
-9529.655
 30
-533.000
 70
    32
  0
VERTEX
  8
E59LXLIFT
 62
1
 10
5388.552
 20
-9516.444
 30
-533.000
 70
    32
  0
VERTEX
  8
E59LXLIFT
 62
1
 10
5391.077
 20
-9496.322
 30
-533.000
 70
    32
  0
VERTEX
  8
E59LXLIFT
 62
1
 10
5395.419
 20
-9472.636
 30
-533.000
 70
    32
  0
VERTEX
  8
E59LXLIFT
 62
1
 10
5398.930
 20
-9444.636
 30
-533.000
 70
    32
  0
SEQEND
  8
E59LXLIFT
  0
POLYLINE
  8
E59LXLIFT
 62
1
 66
     1
 70
     9
  0
VERTEX
  8
E59LXLIFT
 62
1
 10
5497.918
 20
-9539.822
 30
-532.000
 70
    32
  0
VERTEX
  8
E59LXLIFT
 62
1
 10
5486.182
 20
-9548.437
 30
-532.000
 70
    32
  0
VERTEX
  8
E59LXLIFT
 62
1
 10
5472.204
 20
-9558.740
 30
-532.000
 70
    32
  0
VERTEX
  8
E59LXLIFT
 62
1
 10
5462.210
 20
-9570.545
 30
-532.000
 70
    32
  0
VERTEX
  8
E59LXLIFT
 62
1
 10
5453.522
 20
-9586.854
 30
-532.000
 70
    32
  0
VERTEX
  8
E59LXLIFT
 62
1
 10
5447.814
 20
-9592.688
 30
-532.000
 70
    32
  0
VERTEX
  8
E59LXLIFT
 62
1
 10
5441.948
 20
-9588.103
 30
-532.000
 70
    32
  0
VERTEX
  8
E59LXLIFT
 62
1
 10
5433.694
 20
-9572.472
 30
-532.000
 70
    32
  0
VERTEX
  8
E59LXLIFT
 62
1
 10
5423.324
 20
-9560.301
 30
-532.000
 70
    32
  0
VERTEX
  8
E59LXLIFT
 62
1
 10
5413.048
 20
-9542.131
 30
-532.000
 70
    32
  0
VERTEX
  8
E59LXLIFT
 62
1
 10
5410.436
 20
-9533.120
 30
-532.000
 70
    32
  0
VERTEX
  8
E59LXLIFT
 62
1
 10
5421.324
 20
-9520.753
 30
-532.000
 70
    32
  0
VERTEX
  8
E59LXLIFT
 62
1
 10
5437.621
 20
-9512.655
 30
-532.000
 70
    32
  0
VERTEX
  8
E59LXLIFT
 62
1
 10
5451.321
 20
-9513.648
 30
-532.000
 70
    32
  0
VERTEX
  8
E59LXLIFT
 62
1
 10
5461.251
 20
-9524.943
 30
-532.000
 70
    32
  0
VERTEX
  8
E59LXLIFT
 62
1
 10
5471.423
 20
-9524.311
 30
-532.000
 70
    32
  0
VERTEX
  8
E59LXLIFT
 62
1
 10
5484.870
 20
-9520.885
 30
-532.000
 70
    32
  0
VERTEX
  8
E59LXLIFT
 62
1
 10
5497.495
 20
-9518.845
 30
-532.000
 70
    32
  0
SEQEND
  8
E59LXLIFT
  0
POLYLINE
  8
E59LXLIFT
 62
1
 66
     1
 70
     9
  0
VERTEX
  8
E59LXLIFT
 62
1
 10
5755.601
 20
-9682.501
 30
-528.000
 70
    32
  0
VERTEX
  8
E59LXLIFT
 62
1
 10
5763.243
 20
-9689.152
 30
-528.000
 70
    32
  0
VERTEX
  8
E59LXLIFT
 62
1
 10
5771.832
 20
-9686.418
 30
-528.000
 70
    32
  0
VERTEX
  8
E59LXLIFT
 62
1
 10
5783.669
 20
-9675.312
 30
-528.000
 70
    32
  0
VERTEX
  8
E59LXLIFT
 62
1
 10
5787.956
 20
-9679.110
 30
-528.000
 70
    32
  0
VERTEX
  8
E59LXLIFT
 62
1
 10
5794.320
 20
-9677.503
 30
-528.000
 70
    32
  0
VERTEX
  8
E59LXLIFT
 62
1
 10
5799.620
 20
-9679.440
 30
-528.000
 70
    32
  0
VERTEX
  8
E59LXLIFT
 62
1
 10
5791.468
 20
-9691.505
 30
-528.000
 70
    32
  0
VERTEX
  8
E59LXLIFT
 62
1
 10
5785.880
 20
-9705.371
 30
-528.000
 70
    32
  0
VERTEX
  8
E59LXLIFT
 62
1
 10
5784.113
 20
-9717.459
 30
-528.000
 70
    32
  0
VERTEX
  8
E59LXLIFT
 62
1
 10
5778.527
 20
-9722.871
 30
-528.000
 70
    32
  0
VERTEX
  8
E59LXLIFT
 62
1
 10
5770.611
 20
-9719.500
 30
-528.000
 70
    32
  0
VERTEX
  8
E59LXLIFT
 62
1
 10
5757.207
 20
-9717.296
 30
-528.000
 70
    32
  0
VERTEX
  8
E59LXLIFT
 62
1
 10
5751.382
 20
-9706.204
 30
-528.000
 70
    32
  0
VERTEX
  8
E59LXLIFT
 62
1
 10
5751.544
 20
-9699.276
 30
-528.000
 70
    32
  0
VERTEX
  8
E59LXLIFT
 62
1
 10
5748.156
 20
-9687.776
 30
-528.000
 70
    32
  0
SEQEND
  8
E59LXLIFT
  0
POLYLINE
  8
E59LXLIFT
 62
1
 66
     1
 70
     9
  0
VERTEX
  8
E59LXLIFT
 62
1
 10
5833.114
 20
-9975.139
 30
-540.000
 70
    32
  0
VERTEX
  8
E59LXLIFT
 62
1
 10
5828.449
 20
-9962.110
 30
-540.000
 70
    32
  0
VERTEX
  8
E59LXLIFT
 62
1
 10
5819.168
 20
-9950.221
 30
-540.000
 70
    32
  0
VERTEX
  8
E59LXLIFT
 62
1
 10
5815.092
 20
-9938.720
 30
-540.000
 70
    32
  0
VERTEX
  8
E59LXLIFT
 62
1
 10
5811.146
 20
-9921.223
 30
-540.000
 70
    32
  0
VERTEX
  8
E59LXLIFT
 62
1
 10
5808.493
 20
-9913.690
 30
-540.000
 70
    32
  0
VERTEX
  8
E59LXLIFT
 62
1
 10
5800.359
 20
-9904.225
 30
-540.000
 70
    32
  0
VERTEX
  8
E59LXLIFT
 62
1
 10
5795.588
 20
-9895.755
 30
-540.000
 70
    32
  0
VERTEX
  8
E59LXLIFT
 62
1
 10
5800.158
 20
-9888.531
 30
-540.000
 70
    32
  0
VERTEX
  8
E59LXLIFT
 62
1
 10
5808.109
 20
-9886.441
 30
-540.000
 70
    32
  0
VERTEX
  8
E59LXLIFT
 62
1
 10
5811.599
 20
-9895.099
 30
-540.000
 70
    32
  0
VERTEX
  8
E59LXLIFT
 62
1
 10
5824.736
 20
-9911.878
 30
-540.000
 70
    32
  0
VERTEX
  8
E59LXLIFT
 62
1
 10
5840.254
 20
-9934.207
 30
-540.000
 70
    32
  0
VERTEX
  8
E59LXLIFT
 62
1
 10
5852.901
 20
-9955.175
 30
-540.000
 70
    32
  0
VERTEX
  8
E59LXLIFT
 62
1
 10
5856.888
 20
-9966.851
 30
-540.000
 70
    32
  0
VERTEX
  8
E59LXLIFT
 62
1
 10
5850.561
 20
-9970.683
 30
-540.000
 70
    32
  0
SEQEND
  8
E59LXLIFT
  0
POLYLINE
  8
E59LXLIFT
 62
1
 66
     1
 70
     9
  0
VERTEX
  8
E59LXLIFT
 62
1
 10
5915.476
 20
-9955.071
 30
-551.000
 70
    32
  0
VERTEX
  8
E59LXLIFT
 62
1
 10
5911.372
 20
-9970.848
 30
-551.000
 70
    32
  0
VERTEX
  8
E59LXLIFT
 62
1
 10
5904.574
 20
-9974.210
 30
-551.000
 70
    32
  0
VERTEX
  8
E59LXLIFT
 62
1
 10
5902.596
 20
-9982.644
 30
-551.000
 70
    32
  0
VERTEX
  8
E59LXLIFT
 62
1
 10
5893.026
 20
-9981.937
 30
-551.000
 70
    32
  0
VERTEX
  8
E59LXLIFT
 62
1
 10
5891.449
 20
-9940.784
 30
-551.000
 70
    32
  0
VERTEX
  8
E59LXLIFT
 62
1
 10
5895.845
 20
-9931.337
 30
-551.000
 70
    32
  0
VERTEX
  8
E59LXLIFT
 62
1
 10
5893.709
 20
-9915.677
 30
-551.000
 70
    32
  0
VERTEX
  8
E59LXLIFT
 62
1
 10
5889.040
 20
-9909.622
 30
-551.000
 70
    32
  0
VERTEX
  8
E59LXLIFT
 62
1
 10
5885.243
 20
-9902.381
 30
-551.000
 70
    32
  0
VERTEX
  8
E59LXLIFT
 62
1
 10
5891.930
 20
-9897.683
 30
-551.000
 70
    32
  0
VERTEX
  8
E59LXLIFT
 62
1
 10
5899.179
 20
-9900.423
 30
-551.000
 70
    32
  0
VERTEX
  8
E59LXLIFT
 62
1
 10
5915.552
 20
-9924.917
 30
-551.000
 70
    32
  0
VERTEX
  8
E59LXLIFT
 62
1
 10
5927.113
 20
-9934.411
 30
-551.000
 70
    32
  0
SEQEND
  8
E59LXLIFT
  0
POLYLINE
  8
E59LXLIFT
 62
1
 66
     1
 70
     9
  0
VERTEX
  8
E59LXLIFT
 62
1
 10
6100.392
 20
-9709.804
 30
-521.000
 70
    32
  0
VERTEX
  8
E59LXLIFT
 62
1
 10
6101.116
 20
-9683.380
 30
-521.000
 70
    32
  0
VERTEX
  8
E59LXLIFT
 62
1
 10
6097.223
 20
-9640.915
 30
-521.000
 70
    32
  0
VERTEX
  8
E59LXLIFT
 62
1
 10
6091.653
 20
-9616.620
 30
-521.000
 70
    32
  0
VERTEX
  8
E59LXLIFT
 62
1
 10
6092.340
 20
-9599.181
 30
-521.000
 70
    32
  0
VERTEX
  8
E59LXLIFT
 62
1
 10
6099.973
 20
-9599.014
 30
-521.000
 70
    32
  0
VERTEX
  8
E59LXLIFT
 62
1
 10
6103.468
 20
-9623.310
 30
-521.000
 70
    32
  0
VERTEX
  8
E59LXLIFT
 62
1
 10
6113.798
 20
-9652.726
 30
-521.000
 70
    32
  0
VERTEX
  8
E59LXLIFT
 62
1
 10
6114.938
 20
-9683.457
 30
-521.000
 70
    32
  0
VERTEX
  8
E59LXLIFT
 62
1
 10
6113.117
 20
-9708.395
 30
-521.000
 70
    32
  0
SEQEND
  8
E59LXLIFT
  0
POLYLINE
  8
E59LXLIFT
 62
1
 66
     1
 70
     9
  0
VERTEX
  8
E59LXLIFT
 62
1
 10
5980.534
 20
-10012.829
 30
-637.000
 70
    32
  0
VERTEX
  8
E59LXLIFT
 62
1
 10
5972.210
 20
-10000.639
 30
-637.000
 70
    32
  0
VERTEX
  8
E59LXLIFT
 62
1
 10
5958.592
 20
-9989.405
 30
-637.000
 70
    32
  0
VERTEX
  8
E59LXLIFT
 62
1
 10
5944.531
 20
-9976.533
 30
-637.000
 70
    32
  0
VERTEX
  8
E59LXLIFT
 62
1
 10
5934.307
 20
-9958.654
 30
-637.000
 70
    32
  0
VERTEX
  8
E59LXLIFT
 62
1
 10
5928.994
 20
-9941.520
 30
-637.000
 70
    32
  0
VERTEX
  8
E59LXLIFT
 62
1
 10
5945.408
 20
-9928.123
 30
-637.000
 70
    32
  0
VERTEX
  8
E59LXLIFT
 62
1
 10
5956.098
 20
-9940.860
 30
-637.000
 70
    32
  0
VERTEX
  8
E59LXLIFT
 62
1
 10
5967.277
 20
-9943.749
 30
-637.000
 70
    32
  0
VERTEX
  8
E59LXLIFT
 62
1
 10
5974.517
 20
-9945.287
 30
-637.000
 70
    32
  0
VERTEX
  8
E59LXLIFT
 62
1
 10
5973.006
 20
-9963.521
 30
-637.000
 70
    32
  0
VERTEX
  8
E59LXLIFT
 62
1
 10
5974.589
 20
-9975.441
 30
-637.000
 70
    32
  0
VERTEX
  8
E59LXLIFT
 62
1
 10
5981.206
 20
-9983.981
 30
-637.000
 70
    32
  0
VERTEX
  8
E59LXLIFT
 62
1
 10
5987.700
 20
-9990.430
 30
-637.000
 70
    32
  0
VERTEX
  8
E59LXLIFT
 62
1
 10
5988.096
 20
-10001.480
 30
-637.000
 70
    32
  0
VERTEX
  8
E59LXLIFT
 62
1
 10
5988.050
 20
-10010.892
 30
-637.000
 70
    32
  0
SEQEND
  8
E59LXLIFT
  0
POLYLINE
  8
E59LXLIFT
 62
1
 66
     1
 70
     9
  0
VERTEX
  8
E59LXLIFT
 62
1
 10
5889.983
 20
-9861.311
 30
-640.000
 70
    32
  0
VERTEX
  8
E59LXLIFT
 62
1
 10
5876.037
 20
-9849.336
 30
-640.000
 70
    32
  0
VERTEX
  8
E59LXLIFT
 62
1
 10
5868.693
 20
-9833.590
 30
-640.000
 70
    32
  0
VERTEX
  8
E59LXLIFT
 62
1
 10
5863.754
 20
-9823.923
 30
-640.000
 70
    32
  0
VERTEX
  8
E59LXLIFT
 62
1
 10
5874.247
 20
-9816.849
 30
-640.000
 70
    32
  0
VERTEX
  8
E59LXLIFT
 62
1
 10
5879.272
 20
-9824.707
 30
-640.000
 70
    32
  0
VERTEX
  8
E59LXLIFT
 62
1
 10
5891.764
 20
-9830.119
 30
-640.000
 70
    32
  0
VERTEX
  8
E59LXLIFT
 62
1
 10
5894.288
 20
-9840.801
 30
-640.000
 70
    32
  0
VERTEX
  8
E59LXLIFT
 62
1
 10
5901.246
 20
-9854.542
 30
-640.000
 70
    32
  0
SEQEND
  8
E59LXLIFT
  0
POLYLINE
  8
E59LXLIFT
 62
1
 66
     1
 70
     9
  0
VERTEX
  8
E59LXLIFT
 62
1
 10
6320.093
 20
-10405.989
 30
-625.000
 70
    32
  0
VERTEX
  8
E59LXLIFT
 62
1
 10
6324.609
 20
-10398.251
 30
-625.000
 70
    32
  0
VERTEX
  8
E59LXLIFT
 62
1
 10
6320.672
 20
-10392.110
 30
-625.000
 70
    32
  0
VERTEX
  8
E59LXLIFT
 62
1
 10
6321.217
 20
-10385.151
 30
-625.000
 70
    32
  0
VERTEX
  8
E59LXLIFT
 62
1
 10
6313.068
 20
-10371.877
 30
-625.000
 70
    32
  0
VERTEX
  8
E59LXLIFT
 62
1
 10
6307.065
 20
-10362.680
 30
-625.000
 70
    32
  0
VERTEX
  8
E59LXLIFT
 62
1
 10
6296.859
 20
-10342.575
 30
-625.000
 70
    32
  0
VERTEX
  8
E59LXLIFT
 62
1
 10
6282.214
 20
-10327.135
 30
-625.000
 70
    32
  0
VERTEX
  8
E59LXLIFT
 62
1
 10
6277.315
 20
-10327.064
 30
-625.000
 70
    32
  0
VERTEX
  8
E59LXLIFT
 62
1
 10
6279.642
 20
-10317.005
 30
-625.000
 70
    32
  0
VERTEX
  8
E59LXLIFT
 62
1
 10
6288.344
 20
-10308.338
 30
-625.000
 70
    32
  0
VERTEX
  8
E59LXLIFT
 62
1
 10
6299.351
 20
-10300.940
 30
-625.000
 70
    32
  0
VERTEX
  8
E59LXLIFT
 62
1
 10
6308.407
 20
-10303.979
 30
-625.000
 70
    32
  0
VERTEX
  8
E59LXLIFT
 62
1
 10
6322.176
 20
-10313.794
 30
-625.000
 70
    32
  0
VERTEX
  8
E59LXLIFT
 62
1
 10
6334.076
 20
-10323.860
 30
-625.000
 70
    32
  0
VERTEX
  8
E59LXLIFT
 62
1
 10
6336.923
 20
-10334.225
 30
-625.000
 70
    32
  0
VERTEX
  8
E59LXLIFT
 62
1
 10
6337.483
 20
-10350.310
 30
-625.000
 70
    32
  0
VERTEX
  8
E59LXLIFT
 62
1
 10
6343.149
 20
-10364.487
 30
-625.000
 70
    32
  0
VERTEX
  8
E59LXLIFT
 62
1
 10
6347.353
 20
-10390.694
 30
-625.000
 70
    32
  0
VERTEX
  8
E59LXLIFT
 62
1
 10
6343.466
 20
-10399.922
 30
-625.000
 70
    32
  0
VERTEX
  8
E59LXLIFT
 62
1
 10
6328.098
 20
-10419.364
 30
-625.000
 70
    32
  0
SEQEND
  8
E59LXLIFT
  0
POLYLINE
  8
E59LXLIFT
 62
2
 66
     1
 70
     9
  0
VERTEX
  8
E59LXLIFT
 62
2
 10
3815.768
 20
-8425.886
 30
-546.000
 70
    32
  0
VERTEX
  8
E59LXLIFT
 62
2
 10
3807.137
 20
-8430.001
 30
-546.000
 70
    32
  0
VERTEX
  8
E59LXLIFT
 62
2
 10
3808.938
 20
-8441.988
 30
-546.000
 70
    32
  0
VERTEX
  8
E59LXLIFT
 62
2
 10
3799.935
 20
-8461.342
 30
-546.000
 70
    32
  0
VERTEX
  8
E59LXLIFT
 62
2
 10
3789.581
 20
-8469.903
 30
-546.000
 70
    32
  0
VERTEX
  8
E59LXLIFT
 62
2
 10
3756.553
 20
-8488.527
 30
-546.000
 70
    32
  0
VERTEX
  8
E59LXLIFT
 62
2
 10
3731.332
 20
-8492.508
 30
-546.000
 70
    32
  0
VERTEX
  8
E59LXLIFT
 62
2
 10
3714.922
 20
-8491.149
 30
-546.000
 70
    32
  0
VERTEX
  8
E59LXLIFT
 62
2
 10
3708.753
 20
-8501.081
 30
-546.000
 70
    32
  0
VERTEX
  8
E59LXLIFT
 62
2
 10
3711.479
 20
-8506.811
 30
-546.000
 70
    32
  0
VERTEX
  8
E59LXLIFT
 62
2
 10
3718.598
 20
-8510.809
 30
-546.000
 70
    32
  0
VERTEX
  8
E59LXLIFT
 62
2
 10
3731.626
 20
-8504.085
 30
-546.000
 70
    32
  0
VERTEX
  8
E59LXLIFT
 62
2
 10
3754.902
 20
-8503.514
 30
-546.000
 70
    32
  0
VERTEX
  8
E59LXLIFT
 62
2
 10
3780.494
 20
-8510.180
 30
-546.000
 70
    32
  0
VERTEX
  8
E59LXLIFT
 62
2
 10
3805.320
 20
-8526.260
 30
-546.000
 70
    32
  0
VERTEX
  8
E59LXLIFT
 62
2
 10
3812.991
 20
-8528.647
 30
-546.000
 70
    32
  0
VERTEX
  8
E59LXLIFT
 62
2
 10
3836.822
 20
-8525.588
 30
-546.000
 70
    32
  0
VERTEX
  8
E59LXLIFT
 62
2
 10
3851.850
 20
-8533.325
 30
-546.000
 70
    32
  0
VERTEX
  8
E59LXLIFT
 62
2
 10
3858.939
 20
-8529.045
 30
-546.000
 70
    32
  0
VERTEX
  8
E59LXLIFT
 62
2
 10
3857.226
 20
-8488.049
 30
-546.000
 70
    32
  0
VERTEX
  8
E59LXLIFT
 62
2
 10
3850.530
 20
-8479.914
 30
-546.000
 70
    32
  0
VERTEX
  8
E59LXLIFT
 62
2
 10
3838.656
 20
-8447.446
 30
-546.000
 70
    32
  0
VERTEX
  8
E59LXLIFT
 62
2
 10
3831.852
 20
-8432.839
 30
-546.000
 70
    32
  0
VERTEX
  8
E59LXLIFT
 62
2
 10
3815.539
 20
-8426.165
 30
-546.000
 70
    32
  0
SEQEND
  8
E59LXLIFT
  0
POLYLINE
  8
E59LXLIFT
 62
2
 66
     1
 70
     9
  0
VERTEX
  8
E59LXLIFT
 62
2
 10
3857.814
 20
-8518.827
 30
-533.000
 70
    32
  0
VERTEX
  8
E59LXLIFT
 62
2
 10
3833.953
 20
-8492.918
 30
-533.000
 70
    32
  0
VERTEX
  8
E59LXLIFT
 62
2
 10
3826.409
 20
-8449.809
 30
-533.000
 70
    32
  0
VERTEX
  8
E59LXLIFT
 62
2
 10
3809.502
 20
-8460.897
 30
-533.000
 70
    32
  0
VERTEX
  8
E59LXLIFT
 62
2
 10
3794.338
 20
-8473.751
 30
-533.000
 70
    32
  0
VERTEX
  8
E59LXLIFT
 62
2
 10
3757.859
 20
-8492.767
 30
-533.000
 70
    32
  0
VERTEX
  8
E59LXLIFT
 62
2
 10
3724.115
 20
-8490.982
 30
-533.000
 70
    32
  0
VERTEX
  8
E59LXLIFT
 62
2
 10
3717.008
 20
-8490.672
 30
-533.000
 70
    32
  0
VERTEX
  8
E59LXLIFT
 62
2
 10
3710.370
 20
-8504.425
 30
-533.000
 70
    32
  0
VERTEX
  8
E59LXLIFT
 62
2
 10
3719.366
 20
-8508.469
 30
-533.000
 70
    32
  0
VERTEX
  8
E59LXLIFT
 62
2
 10
3729.481
 20
-8502.515
 30
-533.000
 70
    32
  0
VERTEX
  8
E59LXLIFT
 62
2
 10
3759.559
 20
-8509.086
 30
-533.000
 70
    32
  0
VERTEX
  8
E59LXLIFT
 62
2
 10
3774.687
 20
-8514.926
 30
-533.000
 70
    32
  0
VERTEX
  8
E59LXLIFT
 62
2
 10
3806.837
 20
-8513.523
 30
-533.000
 70
    32
  0
VERTEX
  8
E59LXLIFT
 62
2
 10
3822.534
 20
-8513.047
 30
-533.000
 70
    32
  0
VERTEX
  8
E59LXLIFT
 62
2
 10
3841.139
 20
-8521.227
 30
-533.000
 70
    32
  0
VERTEX
  8
E59LXLIFT
 62
2
 10
3851.041
 20
-8526.348
 30
-533.000
 70
    32
  0
SEQEND
  8
E59LXLIFT
  0
POLYLINE
  8
E59LXLIFT
 62
2
 66
     1
 70
     9
  0
VERTEX
  8
E59LXLIFT
 62
2
 10
3860.495
 20
-8526.966
 30
-539.000
 70
    32
  0
VERTEX
  8
E59LXLIFT
 62
2
 10
3851.764
 20
-8509.494
 30
-539.000
 70
    32
  0
VERTEX
  8
E59LXLIFT
 62
2
 10
3846.361
 20
-8483.597
 30
-539.000
 70
    32
  0
VERTEX
  8
E59LXLIFT
 62
2
 10
3845.290
 20
-8453.240
 30
-539.000
 70
    32
  0
VERTEX
  8
E59LXLIFT
 62
2
 10
3839.120
 20
-8434.942
 30
-539.000
 70
    32
  0
VERTEX
  8
E59LXLIFT
 62
2
 10
3823.247
 20
-8447.410
 30
-539.000
 70
    32
  0
VERTEX
  8
E59LXLIFT
 62
2
 10
3811.112
 20
-8460.473
 30
-539.000
 70
    32
  0
VERTEX
  8
E59LXLIFT
 62
2
 10
3789.792
 20
-8461.451
 30
-539.000
 70
    32
  0
VERTEX
  8
E59LXLIFT
 62
2
 10
3773.235
 20
-8474.323
 30
-539.000
 70
    32
  0
VERTEX
  8
E59LXLIFT
 62
2
 10
3754.203
 20
-8485.214
 30
-539.000
 70
    32
  0
VERTEX
  8
E59LXLIFT
 62
2
 10
3737.869
 20
-8490.347
 30
-539.000
 70
    32
  0
VERTEX
  8
E59LXLIFT
 62
2
 10
3716.775
 20
-8487.973
 30
-539.000
 70
    32
  0
VERTEX
  8
E59LXLIFT
 62
2
 10
3711.148
 20
-8497.137
 30
-539.000
 70
    32
  0
VERTEX
  8
E59LXLIFT
 62
2
 10
3710.469
 20
-8505.876
 30
-539.000
 70
    32
  0
VERTEX
  8
E59LXLIFT
 62
2
 10
3719.069
 20
-8508.854
 30
-539.000
 70
    32
  0
VERTEX
  8
E59LXLIFT
 62
2
 10
3731.820
 20
-8499.388
 30
-539.000
 70
    32
  0
VERTEX
  8
E59LXLIFT
 62
2
 10
3756.070
 20
-8497.636
 30
-539.000
 70
    32
  0
VERTEX
  8
E59LXLIFT
 62
2
 10
3785.222
 20
-8506.358
 30
-539.000
 70
    32
  0
VERTEX
  8
E59LXLIFT
 62
2
 10
3828.729
 20
-8518.562
 30
-539.000
 70
    32
  0
VERTEX
  8
E59LXLIFT
 62
2
 10
3849.160
 20
-8526.920
 30
-539.000
 70
    32
  0
VERTEX
  8
E59LXLIFT
 62
2
 10
3855.147
 20
-8532.409
 30
-539.000
 70
    32
  0
SEQEND
  8
E59LXLIFT
  0
POLYLINE
  8
E59LXLIFT
 62
2
 66
     1
 70
     9
  0
VERTEX
  8
E59LXLIFT
 62
2
 10
3903.795
 20
-8533.641
 30
-602.000
 70
    32
  0
VERTEX
  8
E59LXLIFT
 62
2
 10
3890.062
 20
-8520.703
 30
-602.000
 70
    32
  0
VERTEX
  8
E59LXLIFT
 62
2
 10
3891.361
 20
-8510.485
 30
-602.000
 70
    32
  0
VERTEX
  8
E59LXLIFT
 62
2
 10
3848.832
 20
-8462.340
 30
-602.000
 70
    32
  0
VERTEX
  8
E59LXLIFT
 62
2
 10
3831.563
 20
-8456.803
 30
-602.000
 70
    32
  0
VERTEX
  8
E59LXLIFT
 62
2
 10
3818.666
 20
-8457.198
 30
-602.000
 70
    32
  0
VERTEX
  8
E59LXLIFT
 62
2
 10
3800.300
 20
-8464.036
 30
-602.000
 70
    32
  0
VERTEX
  8
E59LXLIFT
 62
2
 10
3780.219
 20
-8467.440
 30
-602.000
 70
    32
  0
VERTEX
  8
E59LXLIFT
 62
2
 10
3756.173
 20
-8470.980
 30
-602.000
 70
    32
  0
VERTEX
  8
E59LXLIFT
 62
2
 10
3737.795
 20
-8474.747
 30
-602.000
 70
    32
  0
VERTEX
  8
E59LXLIFT
 62
2
 10
3703.169
 20
-8473.744
 30
-602.000
 70
    32
  0
VERTEX
  8
E59LXLIFT
 62
2
 10
3683.779
 20
-8483.884
 30
-602.000
 70
    32
  0
VERTEX
  8
E59LXLIFT
 62
2
 10
3652.436
 20
-8498.435
 30
-602.000
 70
    32
  0
VERTEX
  8
E59LXLIFT
 62
2
 10
3659.228
 20
-8509.028
 30
-602.000
 70
    32
  0
VERTEX
  8
E59LXLIFT
 62
2
 10
3680.482
 20
-8514.745
 30
-602.000
 70
    32
  0
VERTEX
  8
E59LXLIFT
 62
2
 10
3705.622
 20
-8507.849
 30
-602.000
 70
    32
  0
VERTEX
  8
E59LXLIFT
 62
2
 10
3736.218
 20
-8515.745
 30
-602.000
 70
    32
  0
VERTEX
  8
E59LXLIFT
 62
2
 10
3751.541
 20
-8516.815
 30
-602.000
 70
    32
  0
VERTEX
  8
E59LXLIFT
 62
2
 10
3767.674
 20
-8513.424
 30
-602.000
 70
    32
  0
VERTEX
  8
E59LXLIFT
 62
2
 10
3810.509
 20
-8518.452
 30
-602.000
 70
    32
  0
VERTEX
  8
E59LXLIFT
 62
2
 10
3830.324
 20
-8529.544
 30
-602.000
 70
    32
  0
VERTEX
  8
E59LXLIFT
 62
2
 10
3848.059
 20
-8542.977
 30
-602.000
 70
    32
  0
VERTEX
  8
E59LXLIFT
 62
2
 10
3870.714
 20
-8548.075
 30
-602.000
 70
    32
  0
VERTEX
  8
E59LXLIFT
 62
2
 10
3881.200
 20
-8555.988
 30
-602.000
 70
    32
  0
VERTEX
  8
E59LXLIFT
 62
2
 10
3887.071
 20
-8558.810
 30
-602.000
 70
    32
  0
SEQEND
  8
E59LXLIFT
  0
POLYLINE
  8
E59LXLIFT
 62
2
 66
     1
 70
     9
  0
VERTEX
  8
E59LXLIFT
 62
2
 10
3713.337
 20
-8503.944
 30
-556.000
 70
    32
  0
VERTEX
  8
E59LXLIFT
 62
2
 10
3722.239
 20
-8506.491
 30
-556.000
 70
    32
  0
VERTEX
  8
E59LXLIFT
 62
2
 10
3759.101
 20
-8500.320
 30
-556.000
 70
    32
  0
VERTEX
  8
E59LXLIFT
 62
2
 10
3792.919
 20
-8512.505
 30
-556.000
 70
    32
  0
VERTEX
  8
E59LXLIFT
 62
2
 10
3812.674
 20
-8516.692
 30
-556.000
 70
    32
  0
VERTEX
  8
E59LXLIFT
 62
2
 10
3820.248
 20
-8531.828
 30
-556.000
 70
    32
  0
VERTEX
  8
E59LXLIFT
 62
2
 10
3852.539
 20
-8537.274
 30
-556.000
 70
    32
  0
VERTEX
  8
E59LXLIFT
 62
2
 10
3868.738
 20
-8525.406
 30
-556.000
 70
    32
  0
VERTEX
  8
E59LXLIFT
 62
2
 10
3875.241
 20
-8512.566
 30
-556.000
 70
    32
  0
VERTEX
  8
E59LXLIFT
 62
2
 10
3874.604
 20
-8493.238
 30
-556.000
 70
    32
  0
VERTEX
  8
E59LXLIFT
 62
2
 10
3862.557
 20
-8442.928
 30
-556.000
 70
    32
  0
VERTEX
  8
E59LXLIFT
 62
2
 10
3852.231
 20
-8426.891
 30
-556.000
 70
    32
  0
VERTEX
  8
E59LXLIFT
 62
2
 10
3816.394
 20
-8422.997
 30
-556.000
 70
    32
  0
VERTEX
  8
E59LXLIFT
 62
2
 10
3796.099
 20
-8424.684
 30
-556.000
 70
    32
  0
VERTEX
  8
E59LXLIFT
 62
2
 10
3805.010
 20
-8452.169
 30
-556.000
 70
    32
  0
VERTEX
  8
E59LXLIFT
 62
2
 10
3771.384
 20
-8476.166
 30
-556.000
 70
    32
  0
VERTEX
  8
E59LXLIFT
 62
2
 10
3745.398
 20
-8488.554
 30
-556.000
 70
    32
  0
VERTEX
  8
E59LXLIFT
 62
2
 10
3715.751
 20
-8492.077
 30
-556.000
 70
    32
  0
SEQEND
  8
E59LXLIFT
  0
POLYLINE
  8
E59LXLIFT
 62
2
 66
     1
 70
     9
  0
VERTEX
  8
E59LXLIFT
 62
2
 10
3861.087
 20
-8544.436
 30
-572.000
 70
    32
  0
VERTEX
  8
E59LXLIFT
 62
2
 10
3858.274
 20
-8538.461
 30
-572.000
 70
    32
  0
VERTEX
  8
E59LXLIFT
 62
2
 10
3871.383
 20
-8520.083
 30
-572.000
 70
    32
  0
VERTEX
  8
E59LXLIFT
 62
2
 10
3880.106
 20
-8510.298
 30
-572.000
 70
    32
  0
VERTEX
  8
E59LXLIFT
 62
2
 10
3864.368
 20
-8495.601
 30
-572.000
 70
    32
  0
VERTEX
  8
E59LXLIFT
 62
2
 10
3852.471
 20
-8482.020
 30
-572.000
 70
    32
  0
VERTEX
  8
E59LXLIFT
 62
2
 10
3846.237
 20
-8460.112
 30
-572.000
 70
    32
  0
VERTEX
  8
E59LXLIFT
 62
2
 10
3826.127
 20
-8435.046
 30
-572.000
 70
    32
  0
VERTEX
  8
E59LXLIFT
 62
2
 10
3816.058
 20
-8437.142
 30
-572.000
 70
    32
  0
VERTEX
  8
E59LXLIFT
 62
2
 10
3790.121
 20
-8453.659
 30
-572.000
 70
    32
  0
VERTEX
  8
E59LXLIFT
 62
2
 10
3782.066
 20
-8458.087
 30
-572.000
 70
    32
  0
VERTEX
  8
E59LXLIFT
 62
2
 10
3767.779
 20
-8454.360
 30
-572.000
 70
    32
  0
VERTEX
  8
E59LXLIFT
 62
2
 10
3757.325
 20
-8465.940
 30
-572.000
 70
    32
  0
VERTEX
  8
E59LXLIFT
 62
2
 10
3751.919
 20
-8482.095
 30
-572.000
 70
    32
  0
VERTEX
  8
E59LXLIFT
 62
2
 10
3752.011
 20
-8491.341
 30
-572.000
 70
    32
  0
VERTEX
  8
E59LXLIFT
 62
2
 10
3741.740
 20
-8495.101
 30
-572.000
 70
    32
  0
VERTEX
  8
E59LXLIFT
 62
2
 10
3717.861
 20
-8482.620
 30
-572.000
 70
    32
  0
VERTEX
  8
E59LXLIFT
 62
2
 10
3706.289
 20
-8499.234
 30
-572.000
 70
    32
  0
VERTEX
  8
E59LXLIFT
 62
2
 10
3712.211
 20
-8505.015
 30
-572.000
 70
    32
  0
VERTEX
  8
E59LXLIFT
 62
2
 10
3740.279
 20
-8511.321
 30
-572.000
 70
    32
  0
VERTEX
  8
E59LXLIFT
 62
2
 10
3767.193
 20
-8514.239
 30
-572.000
 70
    32
  0
VERTEX
  8
E59LXLIFT
 62
2
 10
3790.889
 20
-8520.788
 30
-572.000
 70
    32
  0
VERTEX
  8
E59LXLIFT
 62
2
 10
3826.100
 20
-8531.123
 30
-572.000
 70
    32
  0
VERTEX
  8
E59LXLIFT
 62
2
 10
3842.746
 20
-8539.748
 30
-572.000
 70
    32
  0
VERTEX
  8
E59LXLIFT
 62
2
 10
3852.538
 20
-8551.172
 30
-572.000
 70
    32
  0
SEQEND
  8
E59LXLIFT
  0
POLYLINE
  8
E59LXLIFT
 62
2
 66
     1
 70
     9
  0
VERTEX
  8
E59LXLIFT
 62
2
 10
3856.353
 20
-8544.491
 30
-581.000
 70
    32
  0
VERTEX
  8
E59LXLIFT
 62
2
 10
3861.724
 20
-8539.514
 30
-581.000
 70
    32
  0
VERTEX
  8
E59LXLIFT
 62
2
 10
3864.395
 20
-8526.053
 30
-581.000
 70
    32
  0
VERTEX
  8
E59LXLIFT
 62
2
 10
3873.901
 20
-8518.112
 30
-581.000
 70
    32
  0
VERTEX
  8
E59LXLIFT
 62
2
 10
3875.417
 20
-8508.242
 30
-581.000
 70
    32
  0
VERTEX
  8
E59LXLIFT
 62
2
 10
3867.422
 20
-8490.578
 30
-581.000
 70
    32
  0
VERTEX
  8
E59LXLIFT
 62
2
 10
3852.416
 20
-8463.483
 30
-581.000
 70
    32
  0
VERTEX
  8
E59LXLIFT
 62
2
 10
3828.913
 20
-8454.506
 30
-581.000
 70
    32
  0
VERTEX
  8
E59LXLIFT
 62
2
 10
3788.726
 20
-8449.845
 30
-581.000
 70
    32
  0
VERTEX
  8
E59LXLIFT
 62
2
 10
3779.429
 20
-8449.981
 30
-581.000
 70
    32
  0
VERTEX
  8
E59LXLIFT
 62
2
 10
3756.215
 20
-8463.741
 30
-581.000
 70
    32
  0
VERTEX
  8
E59LXLIFT
 62
2
 10
3757.612
 20
-8473.412
 30
-581.000
 70
    32
  0
VERTEX
  8
E59LXLIFT
 62
2
 10
3777.062
 20
-8495.019
 30
-581.000
 70
    32
  0
VERTEX
  8
E59LXLIFT
 62
2
 10
3785.269
 20
-8499.737
 30
-581.000
 70
    32
  0
VERTEX
  8
E59LXLIFT
 62
2
 10
3796.215
 20
-8499.907
 30
-581.000
 70
    32
  0
VERTEX
  8
E59LXLIFT
 62
2
 10
3818.506
 20
-8517.543
 30
-581.000
 70
    32
  0
SEQEND
  8
E59LXLIFT
  0
POLYLINE
  8
E59LXLIFT
 62
2
 66
     1
 70
     9
  0
VERTEX
  8
E59LXLIFT
 62
2
 10
3898.101
 20
-8531.929
 30
-592.000
 70
    32
  0
VERTEX
  8
E59LXLIFT
 62
2
 10
3894.598
 20
-8521.038
 30
-592.000
 70
    32
  0
VERTEX
  8
E59LXLIFT
 62
2
 10
3890.516
 20
-8510.255
 30
-592.000
 70
    32
  0
VERTEX
  8
E59LXLIFT
 62
2
 10
3878.406
 20
-8498.608
 30
-592.000
 70
    32
  0
VERTEX
  8
E59LXLIFT
 62
2
 10
3847.931
 20
-8466.173
 30
-592.000
 70
    32
  0
VERTEX
  8
E59LXLIFT
 62
2
 10
3841.865
 20
-8464.265
 30
-592.000
 70
    32
  0
VERTEX
  8
E59LXLIFT
 62
2
 10
3831.322
 20
-8449.451
 30
-592.000
 70
    32
  0
VERTEX
  8
E59LXLIFT
 62
2
 10
3825.002
 20
-8449.828
 30
-592.000
 70
    32
  0
VERTEX
  8
E59LXLIFT
 62
2
 10
3818.196
 20
-8447.379
 30
-592.000
 70
    32
  0
VERTEX
  8
E59LXLIFT
 62
2
 10
3804.128
 20
-8455.706
 30
-592.000
 70
    32
  0
VERTEX
  8
E59LXLIFT
 62
2
 10
3774.936
 20
-8462.812
 30
-592.000
 70
    32
  0
VERTEX
  8
E59LXLIFT
 62
2
 10
3747.681
 20
-8471.315
 30
-592.000
 70
    32
  0
VERTEX
  8
E59LXLIFT
 62
2
 10
3738.433
 20
-8481.502
 30
-592.000
 70
    32
  0
VERTEX
  8
E59LXLIFT
 62
2
 10
3734.813
 20
-8498.551
 30
-592.000
 70
    32
  0
VERTEX
  8
E59LXLIFT
 62
2
 10
3729.010
 20
-8509.655
 30
-592.000
 70
    32
  0
VERTEX
  8
E59LXLIFT
 62
2
 10
3761.199
 20
-8509.859
 30
-592.000
 70
    32
  0
VERTEX
  8
E59LXLIFT
 62
2
 10
3797.788
 20
-8508.167
 30
-592.000
 70
    32
  0
VERTEX
  8
E59LXLIFT
 62
2
 10
3823.121
 20
-8519.393
 30
-592.000
 70
    32
  0
VERTEX
  8
E59LXLIFT
 62
2
 10
3841.709
 20
-8534.947
 30
-592.000
 70
    32
  0
VERTEX
  8
E59LXLIFT
 62
2
 10
3864.866
 20
-8542.423
 30
-592.000
 70
    32
  0
VERTEX
  8
E59LXLIFT
 62
2
 10
3886.322
 20
-8550.415
 30
-592.000
 70
    32
  0
SEQEND
  8
E59LXLIFT
  0
POLYLINE
  8
E59LXLIFT
 62
2
 66
     1
 70
     9
  0
VERTEX
  8
E59LXLIFT
 62
2
 10
3847.267
 20
-8546.113
 30
-565.000
 70
    32
  0
VERTEX
  8
E59LXLIFT
 62
2
 10
3852.523
 20
-8542.294
 30
-565.000
 70
    32
  0
VERTEX
  8
E59LXLIFT
 62
2
 10
3849.934
 20
-8538.638
 30
-565.000
 70
    32
  0
VERTEX
  8
E59LXLIFT
 62
2
 10
3872.270
 20
-8521.470
 30
-565.000
 70
    32
  0
VERTEX
  8
E59LXLIFT
 62
2
 10
3873.723
 20
-8513.711
 30
-565.000
 70
    32
  0
VERTEX
  8
E59LXLIFT
 62
2
 10
3881.742
 20
-8504.559
 30
-565.000
 70
    32
  0
VERTEX
  8
E59LXLIFT
 62
2
 10
3873.664
 20
-8498.370
 30
-565.000
 70
    32
  0
VERTEX
  8
E59LXLIFT
 62
2
 10
3877.951
 20
-8480.906
 30
-565.000
 70
    32
  0
VERTEX
  8
E59LXLIFT
 62
2
 10
3875.081
 20
-8471.268
 30
-565.000
 70
    32
  0
VERTEX
  8
E59LXLIFT
 62
2
 10
3870.156
 20
-8464.428
 30
-565.000
 70
    32
  0
VERTEX
  8
E59LXLIFT
 62
2
 10
3874.557
 20
-8456.617
 30
-565.000
 70
    32
  0
VERTEX
  8
E59LXLIFT
 62
2
 10
3860.294
 20
-8433.597
 30
-565.000
 70
    32
  0
VERTEX
  8
E59LXLIFT
 62
2
 10
3835.240
 20
-8421.308
 30
-565.000
 70
    32
  0
VERTEX
  8
E59LXLIFT
 62
2
 10
3815.841
 20
-8425.592
 30
-565.000
 70
    32
  0
VERTEX
  8
E59LXLIFT
 62
2
 10
3802.798
 20
-8432.961
 30
-565.000
 70
    32
  0
VERTEX
  8
E59LXLIFT
 62
2
 10
3754.717
 20
-8486.191
 30
-565.000
 70
    32
  0
VERTEX
  8
E59LXLIFT
 62
2
 10
3709.078
 20
-8486.292
 30
-565.000
 70
    32
  0
VERTEX
  8
E59LXLIFT
 62
2
 10
3704.839
 20
-8503.387
 30
-565.000
 70
    32
  0
VERTEX
  8
E59LXLIFT
 62
2
 10
3716.820
 20
-8502.701
 30
-565.000
 70
    32
  0
VERTEX
  8
E59LXLIFT
 62
2
 10
3744.266
 20
-8500.533
 30
-565.000
 70
    32
  0
VERTEX
  8
E59LXLIFT
 62
2
 10
3766.236
 20
-8504.346
 30
-565.000
 70
    32
  0
VERTEX
  8
E59LXLIFT
 62
2
 10
3787.530
 20
-8513.327
 30
-565.000
 70
    32
  0
VERTEX
  8
E59LXLIFT
 62
2
 10
3807.505
 20
-8526.642
 30
-565.000
 70
    32
  0
VERTEX
  8
E59LXLIFT
 62
2
 10
3818.114
 20
-8531.660
 30
-565.000
 70
    32
  0
VERTEX
  8
E59LXLIFT
 62
2
 10
3831.395
 20
-8533.960
 30
-565.000
 70
    32
  0
VERTEX
  8
E59LXLIFT
 62
2
 10
3838.794
 20
-8536.242
 30
-565.000
 70
    32
  0
SEQEND
  8
E59LXLIFT
  0
POLYLINE
  8
E59LXLIFT
 62
1
 66
     1
 70
     9
  0
VERTEX
  8
E59LXLIFT
 62
1
 10
3718.870
 20
-8488.618
 30
-523.000
 70
    32
  0
VERTEX
  8
E59LXLIFT
 62
1
 10
3726.400
 20
-8491.200
 30
-523.000
 70
    32
  0
VERTEX
  8
E59LXLIFT
 62
1
 10
3748.431
 20
-8487.957
 30
-523.000
 70
    32
  0
VERTEX
  8
E59LXLIFT
 62
1
 10
3772.360
 20
-8478.904
 30
-523.000
 70
    32
  0
VERTEX
  8
E59LXLIFT
 62
1
 10
3798.571
 20
-8468.360
 30
-523.000
 70
    32
  0
VERTEX
  8
E59LXLIFT
 62
1
 10
3828.695
 20
-8461.573
 30
-523.000
 70
    32
  0
VERTEX
  8
E59LXLIFT
 62
1
 10
3830.046
 20
-8465.277
 30
-523.000
 70
    32
  0
VERTEX
  8
E59LXLIFT
 62
1
 10
3828.781
 20
-8471.491
 30
-523.000
 70
    32
  0
VERTEX
  8
E59LXLIFT
 62
1
 10
3831.183
 20
-8483.621
 30
-523.000
 70
    32
  0
VERTEX
  8
E59LXLIFT
 62
1
 10
3846.328
 20
-8507.920
 30
-523.000
 70
    32
  0
VERTEX
  8
E59LXLIFT
 62
1
 10
3859.893
 20
-8526.162
 30
-523.000
 70
    32
  0
VERTEX
  8
E59LXLIFT
 62
1
 10
3855.118
 20
-8530.180
 30
-523.000
 70
    32
  0
VERTEX
  8
E59LXLIFT
 62
1
 10
3844.060
 20
-8523.332
 30
-523.000
 70
    32
  0
VERTEX
  8
E59LXLIFT
 62
1
 10
3829.387
 20
-8509.759
 30
-523.000
 70
    32
  0
VERTEX
  8
E59LXLIFT
 62
1
 10
3808.569
 20
-8505.402
 30
-523.000
 70
    32
  0
VERTEX
  8
E59LXLIFT
 62
1
 10
3785.572
 20
-8507.064
 30
-523.000
 70
    32
  0
VERTEX
  8
E59LXLIFT
 62
1
 10
3770.580
 20
-8512.819
 30
-523.000
 70
    32
  0
VERTEX
  8
E59LXLIFT
 62
1
 10
3759.100
 20
-8507.603
 30
-523.000
 70
    32
  0
VERTEX
  8
E59LXLIFT
 62
1
 10
3727.135
 20
-8503.155
 30
-523.000
 70
    32
  0
VERTEX
  8
E59LXLIFT
 62
1
 10
3718.146
 20
-8507.261
 30
-523.000
 70
    32
  0
VERTEX
  8
E59LXLIFT
 62
1
 10
3713.302
 20
-8502.994
 30
-523.000
 70
    32
  0
SEQEND
  8
E59LXLIFT
  0
POLYLINE
  8
E59LXLIFT
 62
2
 66
     1
 70
     9
  0
VERTEX
  8
E59LXLIFT
 62
2
 10
3905.675
 20
-8559.849
 30
-613.000
 70
    32
  0
VERTEX
  8
E59LXLIFT
 62
2
 10
3906.698
 20
-8556.291
 30
-613.000
 70
    32
  0
VERTEX
  8
E59LXLIFT
 62
2
 10
3904.142
 20
-8551.393
 30
-613.000
 70
    32
  0
VERTEX
  8
E59LXLIFT
 62
2
 10
3908.264
 20
-8543.232
 30
-613.000
 70
    32
  0
VERTEX
  8
E59LXLIFT
 62
2
 10
3910.470
 20
-8533.446
 30
-613.000
 70
    32
  0
VERTEX
  8
E59LXLIFT
 62
2
 10
3907.716
 20
-8529.587
 30
-613.000
 70
    32
  0
VERTEX
  8
E59LXLIFT
 62
2
 10
3889.942
 20
-8519.028
 30
-613.000
 70
    32
  0
VERTEX
  8
E59LXLIFT
 62
2
 10
3882.375
 20
-8509.353
 30
-613.000
 70
    32
  0
VERTEX
  8
E59LXLIFT
 62
2
 10
3870.180
 20
-8493.386
 30
-613.000
 70
    32
  0
VERTEX
  8
E59LXLIFT
 62
2
 10
3856.327
 20
-8483.460
 30
-613.000
 70
    32
  0
VERTEX
  8
E59LXLIFT
 62
2
 10
3844.838
 20
-8462.518
 30
-613.000
 70
    32
  0
VERTEX
  8
E59LXLIFT
 62
2
 10
3824.731
 20
-8462.729
 30
-613.000
 70
    32
  0
VERTEX
  8
E59LXLIFT
 62
2
 10
3799.520
 20
-8468.535
 30
-613.000
 70
    32
  0
VERTEX
  8
E59LXLIFT
 62
2
 10
3780.543
 20
-8470.645
 30
-613.000
 70
    32
  0
VERTEX
  8
E59LXLIFT
 62
2
 10
3745.063
 20
-8482.815
 30
-613.000
 70
    32
  0
VERTEX
  8
E59LXLIFT
 62
2
 10
3723.130
 20
-8476.347
 30
-613.000
 70
    32
  0
VERTEX
  8
E59LXLIFT
 62
2
 10
3716.444
 20
-8476.294
 30
-613.000
 70
    32
  0
VERTEX
  8
E59LXLIFT
 62
2
 10
3700.873
 20
-8482.535
 30
-613.000
 70
    32
  0
VERTEX
  8
E59LXLIFT
 62
2
 10
3687.544
 20
-8489.817
 30
-613.000
 70
    32
  0
VERTEX
  8
E59LXLIFT
 62
2
 10
3677.199
 20
-8490.479
 30
-613.000
 70
    32
  0
VERTEX
  8
E59LXLIFT
 62
2
 10
3661.904
 20
-8493.628
 30
-613.000
 70
    32
  0
VERTEX
  8
E59LXLIFT
 62
2
 10
3656.874
 20
-8498.169
 30
-613.000
 70
    32
  0
VERTEX
  8
E59LXLIFT
 62
2
 10
3657.557
 20
-8502.073
 30
-613.000
 70
    32
  0
VERTEX
  8
E59LXLIFT
 62
2
 10
3669.290
 20
-8509.535
 30
-613.000
 70
    32
  0
VERTEX
  8
E59LXLIFT
 62
2
 10
3670.423
 20
-8514.311
 30
-613.000
 70
    32
  0
VERTEX
  8
E59LXLIFT
 62
2
 10
3676.866
 20
-8517.210
 30
-613.000
 70
    32
  0
VERTEX
  8
E59LXLIFT
 62
2
 10
3701.100
 20
-8507.837
 30
-613.000
 70
    32
  0
VERTEX
  8
E59LXLIFT
 62
2
 10
3726.711
 20
-8512.467
 30
-613.000
 70
    32
  0
VERTEX
  8
E59LXLIFT
 62
2
 10
3756.576
 20
-8513.707
 30
-613.000
 70
    32
  0
VERTEX
  8
E59LXLIFT
 62
2
 10
3789.201
 20
-8513.928
 30
-613.000
 70
    32
  0
VERTEX
  8
E59LXLIFT
 62
2
 10
3804.919
 20
-8516.213
 30
-613.000
 70
    32
  0
VERTEX
  8
E59LXLIFT
 62
2
 10
3828.650
 20
-8530.045
 30
-613.000
 70
    32
  0
VERTEX
  8
E59LXLIFT
 62
2
 10
3841.065
 20
-8529.338
 30
-613.000
 70
    32
  0
VERTEX
  8
E59LXLIFT
 62
2
 10
3849.962
 20
-8530.678
 30
-613.000
 70
    32
  0
VERTEX
  8
E59LXLIFT
 62
2
 10
3859.530
 20
-8545.679
 30
-613.000
 70
    32
  0
VERTEX
  8
E59LXLIFT
 62
2
 10
3868.499
 20
-8549.843
 30
-613.000
 70
    32
  0
VERTEX
  8
E59LXLIFT
 62
2
 10
3884.333
 20
-8555.584
 30
-613.000
 70
    32
  0
VERTEX
  8
E59LXLIFT
 62
2
 10
3895.551
 20
-8562.667
 30
-613.000
 70
    32
  0
VERTEX
  8
E59LXLIFT
 62
2
 10
3901.104
 20
-8563.261
 30
-613.000
 70
    32
  0
SEQEND
  8
E59LXLIFT
  0
POLYLINE
  8
E59LXLIFT
 62
2
 66
     1
 70
     9
  0
VERTEX
  8
E59LXLIFT
 62
2
 10
3697.739
 20
-8511.564
 30
-623.000
 70
    32
  0
VERTEX
  8
E59LXLIFT
 62
2
 10
3705.080
 20
-8506.723
 30
-623.000
 70
    32
  0
VERTEX
  8
E59LXLIFT
 62
2
 10
3723.930
 20
-8513.880
 30
-623.000
 70
    32
  0
VERTEX
  8
E59LXLIFT
 62
2
 10
3731.690
 20
-8514.429
 30
-623.000
 70
    32
  0
VERTEX
  8
E59LXLIFT
 62
2
 10
3764.201
 20
-8516.397
 30
-623.000
 70
    32
  0
VERTEX
  8
E59LXLIFT
 62
2
 10
3796.554
 20
-8519.909
 30
-623.000
 70
    32
  0
VERTEX
  8
E59LXLIFT
 62
2
 10
3892.539
 20
-8534.871
 30
-623.000
 70
    32
  0
VERTEX
  8
E59LXLIFT
 62
2
 10
3892.750
 20
-8534.714
 30
-623.000
 70
    32
  0
VERTEX
  8
E59LXLIFT
 62
2
 10
3897.531
 20
-8525.430
 30
-623.000
 70
    32
  0
VERTEX
  8
E59LXLIFT
 62
2
 10
3889.968
 20
-8519.579
 30
-623.000
 70
    32
  0
VERTEX
  8
E59LXLIFT
 62
2
 10
3864.898
 20
-8491.089
 30
-623.000
 70
    32
  0
VERTEX
  8
E59LXLIFT
 62
2
 10
3840.459
 20
-8464.759
 30
-623.000
 70
    32
  0
VERTEX
  8
E59LXLIFT
 62
2
 10
3805.221
 20
-8469.987
 30
-623.000
 70
    32
  0
VERTEX
  8
E59LXLIFT
 62
2
 10
3774.514
 20
-8475.112
 30
-623.000
 70
    32
  0
VERTEX
  8
E59LXLIFT
 62
2
 10
3757.817
 20
-8477.858
 30
-623.000
 70
    32
  0
VERTEX
  8
E59LXLIFT
 62
2
 10
3746.963
 20
-8484.453
 30
-623.000
 70
    32
  0
VERTEX
  8
E59LXLIFT
 62
2
 10
3723.931
 20
-8483.280
 30
-623.000
 70
    32
  0
VERTEX
  8
E59LXLIFT
 62
2
 10
3713.625
 20
-8484.749
 30
-623.000
 70
    32
  0
VERTEX
  8
E59LXLIFT
 62
2
 10
3704.878
 20
-8491.959
 30
-623.000
 70
    32
  0
VERTEX
  8
E59LXLIFT
 62
2
 10
3698.205
 20
-8495.642
 30
-623.000
 70
    32
  0
VERTEX
  8
E59LXLIFT
 62
2
 10
3690.265
 20
-8504.222
 30
-623.000
 70
    32
  0
SEQEND
  8
E59LXLIFT
  0
POLYLINE
  8
E59LXLIFT
 62
2
 66
     1
 70
     9
  0
VERTEX
  8
E59LXLIFT
 62
2
 10
3898.231
 20
-8531.412
 30
-643.000
 70
    32
  0
VERTEX
  8
E59LXLIFT
 62
2
 10
3862.378
 20
-8489.496
 30
-643.000
 70
    32
  0
VERTEX
  8
E59LXLIFT
 62
2
 10
3847.683
 20
-8477.377
 30
-643.000
 70
    32
  0
VERTEX
  8
E59LXLIFT
 62
2
 10
3827.300
 20
-8476.248
 30
-643.000
 70
    32
  0
VERTEX
  8
E59LXLIFT
 62
2
 10
3813.802
 20
-8485.318
 30
-643.000
 70
    32
  0
VERTEX
  8
E59LXLIFT
 62
2
 10
3801.567
 20
-8481.949
 30
-643.000
 70
    32
  0
VERTEX
  8
E59LXLIFT
 62
2
 10
3780.831
 20
-8483.468
 30
-643.000
 70
    32
  0
VERTEX
  8
E59LXLIFT
 62
2
 10
3763.901
 20
-8489.169
 30
-643.000
 70
    32
  0
VERTEX
  8
E59LXLIFT
 62
2
 10
3757.543
 20
-8495.212
 30
-643.000
 70
    32
  0
VERTEX
  8
E59LXLIFT
 62
2
 10
3755.478
 20
-8515.952
 30
-643.000
 70
    32
  0
VERTEX
  8
E59LXLIFT
 62
2
 10
3782.491
 20
-8521.707
 30
-643.000
 70
    32
  0
VERTEX
  8
E59LXLIFT
 62
2
 10
3806.762
 20
-8522.504
 30
-643.000
 70
    32
  0
VERTEX
  8
E59LXLIFT
 62
2
 10
3814.039
 20
-8521.007
 30
-643.000
 70
    32
  0
VERTEX
  8
E59LXLIFT
 62
2
 10
3833.347
 20
-8526.180
 30
-643.000
 70
    32
  0
VERTEX
  8
E59LXLIFT
 62
2
 10
3858.238
 20
-8526.634
 30
-643.000
 70
    32
  0
VERTEX
  8
E59LXLIFT
 62
2
 10
3882.841
 20
-8531.319
 30
-643.000
 70
    32
  0
VERTEX
  8
E59LXLIFT
 62
2
 10
3894.967
 20
-8536.181
 30
-643.000
 70
    32
  0
SEQEND
  8
E59LXLIFT
  0
POLYLINE
  8
E59LXLIFT
 62
2
 66
     1
 70
     9
  0
VERTEX
  8
E59LXLIFT
 62
2
 10
3855.159
 20
-8477.058
 30
-653.000
 70
    32
  0
VERTEX
  8
E59LXLIFT
 62
2
 10
3840.449
 20
-8484.862
 30
-653.000
 70
    32
  0
VERTEX
  8
E59LXLIFT
 62
2
 10
3826.383
 20
-8489.744
 30
-653.000
 70
    32
  0
VERTEX
  8
E59LXLIFT
 62
2
 10
3812.714
 20
-8489.791
 30
-653.000
 70
    32
  0
VERTEX
  8
E59LXLIFT
 62
2
 10
3785.668
 20
-8495.189
 30
-653.000
 70
    32
  0
VERTEX
  8
E59LXLIFT
 62
2
 10
3776.836
 20
-8508.231
 30
-653.000
 70
    32
  0
VERTEX
  8
E59LXLIFT
 62
2
 10
3778.525
 20
-8516.668
 30
-653.000
 70
    32
  0
VERTEX
  8
E59LXLIFT
 62
2
 10
3802.490
 20
-8520.696
 30
-653.000
 70
    32
  0
VERTEX
  8
E59LXLIFT
 62
2
 10
3822.636
 20
-8520.014
 30
-653.000
 70
    32
  0
VERTEX
  8
E59LXLIFT
 62
2
 10
3822.686
 20
-8529.923
 30
-653.000
 70
    32
  0
VERTEX
  8
E59LXLIFT
 62
2
 10
3829.359
 20
-8531.570
 30
-653.000
 70
    32
  0
VERTEX
  8
E59LXLIFT
 62
2
 10
3845.195
 20
-8526.111
 30
-653.000
 70
    32
  0
VERTEX
  8
E59LXLIFT
 62
2
 10
3868.126
 20
-8524.298
 30
-653.000
 70
    32
  0
VERTEX
  8
E59LXLIFT
 62
2
 10
3879.953
 20
-8528.641
 30
-653.000
 70
    32
  0
VERTEX
  8
E59LXLIFT
 62
2
 10
3900.814
 20
-8537.581
 30
-653.000
 70
    32
  0
VERTEX
  8
E59LXLIFT
 62
2
 10
3904.783
 20
-8527.146
 30
-653.000
 70
    32
  0
VERTEX
  8
E59LXLIFT
 62
2
 10
3888.983
 20
-8508.043
 30
-653.000
 70
    32
  0
VERTEX
  8
E59LXLIFT
 62
2
 10
3867.421
 20
-8491.237
 30
-653.000
 70
    32
  0
VERTEX
  8
E59LXLIFT
 62
2
 10
3861.605
 20
-8485.068
 30
-653.000
 70
    32
  0
SEQEND
  8
E59LXLIFT
  0
POLYLINE
  8
E59LXLIFT
 62
2
 66
     1
 70
     9
  0
VERTEX
  8
E59LXLIFT
 62
2
 10
3729.607
 20
-8494.257
 30
-633.000
 70
    32
  0
VERTEX
  8
E59LXLIFT
 62
2
 10
3733.155
 20
-8502.799
 30
-633.000
 70
    32
  0
VERTEX
  8
E59LXLIFT
 62
2
 10
3743.749
 20
-8512.538
 30
-633.000
 70
    32
  0
VERTEX
  8
E59LXLIFT
 62
2
 10
3761.393
 20
-8516.004
 30
-633.000
 70
    32
  0
VERTEX
  8
E59LXLIFT
 62
2
 10
3777.208
 20
-8523.038
 30
-633.000
 70
    32
  0
VERTEX
  8
E59LXLIFT
 62
2
 10
3796.997
 20
-8520.723
 30
-633.000
 70
    32
  0
VERTEX
  8
E59LXLIFT
 62
2
 10
3824.042
 20
-8524.719
 30
-633.000
 70
    32
  0
VERTEX
  8
E59LXLIFT
 62
2
 10
3853.021
 20
-8529.242
 30
-633.000
 70
    32
  0
VERTEX
  8
E59LXLIFT
 62
2
 10
3872.685
 20
-8533.939
 30
-633.000
 70
    32
  0
VERTEX
  8
E59LXLIFT
 62
2
 10
3889.029
 20
-8533.768
 30
-633.000
 70
    32
  0
VERTEX
  8
E59LXLIFT
 62
2
 10
3892.596
 20
-8536.036
 30
-633.000
 70
    32
  0
VERTEX
  8
E59LXLIFT
 62
2
 10
3894.356
 20
-8525.931
 30
-633.000
 70
    32
  0
VERTEX
  8
E59LXLIFT
 62
2
 10
3875.926
 20
-8504.275
 30
-633.000
 70
    32
  0
VERTEX
  8
E59LXLIFT
 62
2
 10
3861.361
 20
-8490.265
 30
-633.000
 70
    32
  0
VERTEX
  8
E59LXLIFT
 62
2
 10
3854.949
 20
-8479.807
 30
-633.000
 70
    32
  0
VERTEX
  8
E59LXLIFT
 62
2
 10
3837.185
 20
-8464.900
 30
-633.000
 70
    32
  0
VERTEX
  8
E59LXLIFT
 62
2
 10
3832.827
 20
-8464.213
 30
-633.000
 70
    32
  0
VERTEX
  8
E59LXLIFT
 62
2
 10
3753.617
 20
-8479.114
 30
-633.000
 70
    32
  0
VERTEX
  8
E59LXLIFT
 62
2
 10
3748.256
 20
-8480.167
 30
-633.000
 70
    32
  0
VERTEX
  8
E59LXLIFT
 62
2
 10
3741.243
 20
-8483.118
 30
-633.000
 70
    32
  0
VERTEX
  8
E59LXLIFT
 62
2
 10
3733.019
 20
-8484.012
 30
-633.000
 70
    32
  0
SEQEND
  8
E59LXLIFT
  0
POLYLINE
  8
E59LXLIFT
 62
13
 66
     1
 70
     9
  0
VERTEX
  8
E59LXLIFT
 62
13
 10
3644.914
 20
-8487.128
 30
-527.000
 70
    32
  0
VERTEX
  8
E59LXLIFT
 62
13
 10
3684.974
 20
-8478.816
 30
-527.000
 70
    32
  0
VERTEX
  8
E59LXLIFT
 62
13
 10
3711.623
 20
-8473.976
 30
-527.000
 70
    32
  0
VERTEX
  8
E59LXLIFT
 62
13
 10
3737.535
 20
-8462.888
 30
-527.000
 70
    32
  0
VERTEX
  8
E59LXLIFT
 62
13
 10
3743.102
 20
-8456.411
 30
-527.000
 70
    32
  0
VERTEX
  8
E59LXLIFT
 62
13
 10
3740.224
 20
-8451.548
 30
-527.000
 70
    32
  0
VERTEX
  8
E59LXLIFT
 62
13
 10
3715.300
 20
-8437.324
 30
-527.000
 70
    32
  0
VERTEX
  8
E59LXLIFT
 62
13
 10
3704.522
 20
-8432.020
 30
-527.000
 70
    32
  0
VERTEX
  8
E59LXLIFT
 62
13
 10
3675.138
 20
-8425.747
 30
-527.000
 70
    32
  0
VERTEX
  8
E59LXLIFT
 62
13
 10
3664.290
 20
-8423.129
 30
-527.000
 70
    32
  0
VERTEX
  8
E59LXLIFT
 62
13
 10
3650.666
 20
-8430.710
 30
-527.000
 70
    32
  0
VERTEX
  8
E59LXLIFT
 62
13
 10
3637.184
 20
-8430.724
 30
-527.000
 70
    32
  0
VERTEX
  8
E59LXLIFT
 62
13
 10
3627.214
 20
-8428.984
 30
-527.000
 70
    32
  0
VERTEX
  8
E59LXLIFT
 62
13
 10
3610.552
 20
-8443.340
 30
-527.000
 70
    32
  0
VERTEX
  8
E59LXLIFT
 62
13
 10
3606.599
 20
-8455.628
 30
-527.000
 70
    32
  0
VERTEX
  8
E59LXLIFT
 62
13
 10
3606.089
 20
-8460.946
 30
-527.000
 70
    32
  0
VERTEX
  8
E59LXLIFT
 62
13
 10
3596.433
 20
-8468.844
 30
-527.000
 70
    32
  0
VERTEX
  8
E59LXLIFT
 62
13
 10
3602.944
 20
-8475.042
 30
-527.000
 70
    32
  0
VERTEX
  8
E59LXLIFT
 62
13
 10
3615.970
 20
-8470.761
 30
-527.000
 70
    32
  0
VERTEX
  8
E59LXLIFT
 62
13
 10
3621.376
 20
-8475.485
 30
-527.000
 70
    32
  0
VERTEX
  8
E59LXLIFT
 62
13
 10
3638.475
 20
-8471.661
 30
-527.000
 70
    32
  0
VERTEX
  8
E59LXLIFT
 62
13
 10
3640.035
 20
-8479.157
 30
-527.000
 70
    32
  0
SEQEND
  8
E59LXLIFT
  0
POLYLINE
  8
E59LXLIFT
 62
13
 66
     1
 70
     9
  0
VERTEX
  8
E59LXLIFT
 62
13
 10
3649.156
 20
-8487.007
 30
-551.000
 70
    32
  0
VERTEX
  8
E59LXLIFT
 62
13
 10
3663.818
 20
-8479.835
 30
-551.000
 70
    32
  0
VERTEX
  8
E59LXLIFT
 62
13
 10
3691.575
 20
-8477.356
 30
-551.000
 70
    32
  0
VERTEX
  8
E59LXLIFT
 62
13
 10
3718.250
 20
-8463.121
 30
-551.000
 70
    32
  0
VERTEX
  8
E59LXLIFT
 62
13
 10
3763.680
 20
-8447.521
 30
-551.000
 70
    32
  0
VERTEX
  8
E59LXLIFT
 62
13
 10
3765.993
 20
-8436.957
 30
-551.000
 70
    32
  0
VERTEX
  8
E59LXLIFT
 62
13
 10
3762.596
 20
-8428.557
 30
-551.000
 70
    32
  0
VERTEX
  8
E59LXLIFT
 62
13
 10
3754.662
 20
-8430.080
 30
-551.000
 70
    32
  0
VERTEX
  8
E59LXLIFT
 62
13
 10
3748.804
 20
-8426.456
 30
-551.000
 70
    32
  0
VERTEX
  8
E59LXLIFT
 62
13
 10
3736.241
 20
-8427.483
 30
-551.000
 70
    32
  0
VERTEX
  8
E59LXLIFT
 62
13
 10
3697.586
 20
-8416.755
 30
-551.000
 70
    32
  0
VERTEX
  8
E59LXLIFT
 62
13
 10
3684.350
 20
-8433.791
 30
-551.000
 70
    32
  0
VERTEX
  8
E59LXLIFT
 62
13
 10
3669.339
 20
-8440.786
 30
-551.000
 70
    32
  0
VERTEX
  8
E59LXLIFT
 62
13
 10
3661.837
 20
-8447.011
 30
-551.000
 70
    32
  0
VERTEX
  8
E59LXLIFT
 62
13
 10
3644.068
 20
-8454.852
 30
-551.000
 70
    32
  0
VERTEX
  8
E59LXLIFT
 62
13
 10
3632.103
 20
-8470.070
 30
-551.000
 70
    32
  0
SEQEND
  8
E59LXLIFT
  0
POLYLINE
  8
E59LXLIFT
 62
13
 66
     1
 70
     9
  0
VERTEX
  8
E59LXLIFT
 62
13
 10
3649.662
 20
-8451.893
 30
-561.000
 70
    32
  0
VERTEX
  8
E59LXLIFT
 62
13
 10
3644.968
 20
-8470.822
 30
-561.000
 70
    32
  0
VERTEX
  8
E59LXLIFT
 62
13
 10
3650.470
 20
-8479.956
 30
-561.000
 70
    32
  0
VERTEX
  8
E59LXLIFT
 62
13
 10
3660.949
 20
-8483.296
 30
-561.000
 70
    32
  0
VERTEX
  8
E59LXLIFT
 62
13
 10
3689.952
 20
-8478.176
 30
-561.000
 70
    32
  0
VERTEX
  8
E59LXLIFT
 62
13
 10
3714.229
 20
-8468.923
 30
-561.000
 70
    32
  0
VERTEX
  8
E59LXLIFT
 62
13
 10
3733.356
 20
-8457.606
 30
-561.000
 70
    32
  0
VERTEX
  8
E59LXLIFT
 62
13
 10
3760.234
 20
-8445.974
 30
-561.000
 70
    32
  0
VERTEX
  8
E59LXLIFT
 62
13
 10
3759.302
 20
-8432.994
 30
-561.000
 70
    32
  0
VERTEX
  8
E59LXLIFT
 62
13
 10
3752.275
 20
-8430.469
 30
-561.000
 70
    32
  0
VERTEX
  8
E59LXLIFT
 62
13
 10
3730.483
 20
-8434.694
 30
-561.000
 70
    32
  0
VERTEX
  8
E59LXLIFT
 62
13
 10
3704.747
 20
-8438.033
 30
-561.000
 70
    32
  0
VERTEX
  8
E59LXLIFT
 62
13
 10
3694.336
 20
-8435.517
 30
-561.000
 70
    32
  0
VERTEX
  8
E59LXLIFT
 62
13
 10
3674.306
 20
-8443.571
 30
-561.000
 70
    32
  0
VERTEX
  8
E59LXLIFT
 62
13
 10
3661.502
 20
-8451.045
 30
-561.000
 70
    32
  0
SEQEND
  8
E59LXLIFT
  0
POLYLINE
  8
E59LXLIFT
 62
13
 66
     1
 70
     9
  0
VERTEX
  8
E59LXLIFT
 62
13
 10
3640.071
 20
-8456.565
 30
-571.000
 70
    32
  0
VERTEX
  8
E59LXLIFT
 62
13
 10
3656.341
 20
-8459.290
 30
-571.000
 70
    32
  0
VERTEX
  8
E59LXLIFT
 62
13
 10
3671.133
 20
-8454.745
 30
-571.000
 70
    32
  0
VERTEX
  8
E59LXLIFT
 62
13
 10
3675.013
 20
-8455.616
 30
-571.000
 70
    32
  0
VERTEX
  8
E59LXLIFT
 62
13
 10
3684.567
 20
-8449.670
 30
-571.000
 70
    32
  0
VERTEX
  8
E59LXLIFT
 62
13
 10
3691.800
 20
-8453.526
 30
-571.000
 70
    32
  0
VERTEX
  8
E59LXLIFT
 62
13
 10
3700.760
 20
-8451.691
 30
-571.000
 70
    32
  0
VERTEX
  8
E59LXLIFT
 62
13
 10
3703.774
 20
-8467.810
 30
-571.000
 70
    32
  0
VERTEX
  8
E59LXLIFT
 62
13
 10
3690.985
 20
-8476.317
 30
-571.000
 70
    32
  0
VERTEX
  8
E59LXLIFT
 62
13
 10
3682.433
 20
-8481.105
 30
-571.000
 70
    32
  0
VERTEX
  8
E59LXLIFT
 62
13
 10
3665.991
 20
-8481.429
 30
-571.000
 70
    32
  0
VERTEX
  8
E59LXLIFT
 62
13
 10
3656.230
 20
-8470.199
 30
-571.000
 70
    32
  0
VERTEX
  8
E59LXLIFT
 62
13
 10
3644.120
 20
-8467.385
 30
-571.000
 70
    32
  0
VERTEX
  8
E59LXLIFT
 62
13
 10
3630.623
 20
-8461.461
 30
-571.000
 70
    32
  0
SEQEND
  8
E59LXLIFT
  0
POLYLINE
  8
E59LXLIFT
 62
13
 66
     1
 70
     9
  0
VERTEX
  8
E59LXLIFT
 62
13
 10
3642.745
 20
-8492.545
 30
-541.000
 70
    32
  0
VERTEX
  8
E59LXLIFT
 62
13
 10
3636.981
 20
-8479.317
 30
-541.000
 70
    32
  0
VERTEX
  8
E59LXLIFT
 62
13
 10
3624.270
 20
-8466.919
 30
-541.000
 70
    32
  0
VERTEX
  8
E59LXLIFT
 62
13
 10
3630.952
 20
-8461.352
 30
-541.000
 70
    32
  0
VERTEX
  8
E59LXLIFT
 62
13
 10
3632.958
 20
-8441.084
 30
-541.000
 70
    32
  0
VERTEX
  8
E59LXLIFT
 62
13
 10
3636.341
 20
-8435.361
 30
-541.000
 70
    32
  0
VERTEX
  8
E59LXLIFT
 62
13
 10
3652.309
 20
-8434.562
 30
-541.000
 70
    32
  0
VERTEX
  8
E59LXLIFT
 62
13
 10
3665.990
 20
-8424.289
 30
-541.000
 70
    32
  0
VERTEX
  8
E59LXLIFT
 62
13
 10
3697.050
 20
-8425.762
 30
-541.000
 70
    32
  0
VERTEX
  8
E59LXLIFT
 62
13
 10
3737.151
 20
-8434.160
 30
-541.000
 70
    32
  0
VERTEX
  8
E59LXLIFT
 62
13
 10
3756.231
 20
-8443.642
 30
-541.000
 70
    32
  0
VERTEX
  8
E59LXLIFT
 62
13
 10
3753.906
 20
-8459.103
 30
-541.000
 70
    32
  0
VERTEX
  8
E59LXLIFT
 62
13
 10
3739.553
 20
-8460.884
 30
-541.000
 70
    32
  0
VERTEX
  8
E59LXLIFT
 62
13
 10
3727.640
 20
-8464.015
 30
-541.000
 70
    32
  0
VERTEX
  8
E59LXLIFT
 62
13
 10
3709.221
 20
-8473.677
 30
-541.000
 70
    32
  0
VERTEX
  8
E59LXLIFT
 62
13
 10
3682.082
 20
-8485.169
 30
-541.000
 70
    32
  0
VERTEX
  8
E59LXLIFT
 62
13
 10
3657.676
 20
-8488.904
 30
-541.000
 70
    32
  0
SEQEND
  8
E59LXLIFT
  0
POLYLINE
  8
E59LXLIFT
 62
6
 66
     1
 70
     9
  0
VERTEX
  8
E59LXLIFT
 62
6
 10
3767.632
 20
-8669.053
 30
-536.000
 70
    32
  0
VERTEX
  8
E59LXLIFT
 62
6
 10
3792.825
 20
-8652.491
 30
-536.000
 70
    32
  0
VERTEX
  8
E59LXLIFT
 62
6
 10
3800.558
 20
-8651.138
 30
-536.000
 70
    32
  0
VERTEX
  8
E59LXLIFT
 62
6
 10
3806.812
 20
-8644.982
 30
-536.000
 70
    32
  0
VERTEX
  8
E59LXLIFT
 62
6
 10
3803.011
 20
-8638.515
 30
-536.000
 70
    32
  0
VERTEX
  8
E59LXLIFT
 62
6
 10
3795.568
 20
-8643.802
 30
-536.000
 70
    32
  0
VERTEX
  8
E59LXLIFT
 62
6
 10
3776.509
 20
-8645.783
 30
-536.000
 70
    32
  0
VERTEX
  8
E59LXLIFT
 62
6
 10
3756.170
 20
-8644.999
 30
-536.000
 70
    32
  0
VERTEX
  8
E59LXLIFT
 62
6
 10
3760.112
 20
-8656.821
 30
-536.000
 70
    32
  0
SEQEND
  8
E59LXLIFT
  0
POLYLINE
  8
E59LXLIFT
 62
6
 66
     1
 70
     9
  0
VERTEX
  8
E59LXLIFT
 62
6
 10
3706.658
 20
-8661.626
 30
-576.000
 70
    32
  0
VERTEX
  8
E59LXLIFT
 62
6
 10
3728.746
 20
-8669.990
 30
-576.000
 70
    32
  0
VERTEX
  8
E59LXLIFT
 62
6
 10
3738.474
 20
-8677.887
 30
-576.000
 70
    32
  0
VERTEX
  8
E59LXLIFT
 62
6
 10
3742.519
 20
-8683.620
 30
-576.000
 70
    32
  0
VERTEX
  8
E59LXLIFT
 62
6
 10
3760.720
 20
-8694.692
 30
-576.000
 70
    32
  0
VERTEX
  8
E59LXLIFT
 62
6
 10
3780.352
 20
-8698.770
 30
-576.000
 70
    32
  0
VERTEX
  8
E59LXLIFT
 62
6
 10
3787.427
 20
-8701.659
 30
-576.000
 70
    32
  0
VERTEX
  8
E59LXLIFT
 62
6
 10
3798.597
 20
-8689.125
 30
-576.000
 70
    32
  0
VERTEX
  8
E59LXLIFT
 62
6
 10
3798.604
 20
-8674.934
 30
-576.000
 70
    32
  0
VERTEX
  8
E59LXLIFT
 62
6
 10
3802.579
 20
-8665.773
 30
-576.000
 70
    32
  0
VERTEX
  8
E59LXLIFT
 62
6
 10
3798.787
 20
-8652.167
 30
-576.000
 70
    32
  0
VERTEX
  8
E59LXLIFT
 62
6
 10
3784.752
 20
-8640.568
 30
-576.000
 70
    32
  0
VERTEX
  8
E59LXLIFT
 62
6
 10
3765.748
 20
-8638.851
 30
-576.000
 70
    32
  0
VERTEX
  8
E59LXLIFT
 62
6
 10
3758.970
 20
-8646.685
 30
-576.000
 70
    32
  0
VERTEX
  8
E59LXLIFT
 62
6
 10
3742.367
 20
-8650.376
 30
-576.000
 70
    32
  0
VERTEX
  8
E59LXLIFT
 62
6
 10
3716.892
 20
-8643.166
 30
-576.000
 70
    32
  0
VERTEX
  8
E59LXLIFT
 62
6
 10
3704.740
 20
-8649.263
 30
-576.000
 70
    32
  0
VERTEX
  8
E59LXLIFT
 62
6
 10
3706.307
 20
-8656.358
 30
-576.000
 70
    32
  0
SEQEND
  8
E59LXLIFT
  0
POLYLINE
  8
E59LXLIFT
 62
6
 66
     1
 70
     9
  0
VERTEX
  8
E59LXLIFT
 62
6
 10
3808.152
 20
-8712.672
 30
-585.000
 70
    32
  0
VERTEX
  8
E59LXLIFT
 62
6
 10
3803.784
 20
-8704.444
 30
-585.000
 70
    32
  0
VERTEX
  8
E59LXLIFT
 62
6
 10
3801.752
 20
-8691.419
 30
-585.000
 70
    32
  0
VERTEX
  8
E59LXLIFT
 62
6
 10
3798.653
 20
-8681.810
 30
-585.000
 70
    32
  0
VERTEX
  8
E59LXLIFT
 62
6
 10
3801.752
 20
-8674.807
 30
-585.000
 70
    32
  0
VERTEX
  8
E59LXLIFT
 62
6
 10
3795.239
 20
-8651.343
 30
-585.000
 70
    32
  0
VERTEX
  8
E59LXLIFT
 62
6
 10
3778.514
 20
-8644.869
 30
-585.000
 70
    32
  0
VERTEX
  8
E59LXLIFT
 62
6
 10
3767.602
 20
-8649.156
 30
-585.000
 70
    32
  0
VERTEX
  8
E59LXLIFT
 62
6
 10
3752.894
 20
-8646.865
 30
-585.000
 70
    32
  0
VERTEX
  8
E59LXLIFT
 62
6
 10
3746.337
 20
-8650.100
 30
-585.000
 70
    32
  0
VERTEX
  8
E59LXLIFT
 62
6
 10
3727.917
 20
-8646.198
 30
-585.000
 70
    32
  0
VERTEX
  8
E59LXLIFT
 62
6
 10
3721.080
 20
-8665.816
 30
-585.000
 70
    32
  0
VERTEX
  8
E59LXLIFT
 62
6
 10
3732.560
 20
-8672.145
 30
-585.000
 70
    32
  0
VERTEX
  8
E59LXLIFT
 62
6
 10
3744.486
 20
-8685.247
 30
-585.000
 70
    32
  0
VERTEX
  8
E59LXLIFT
 62
6
 10
3745.630
 20
-8688.549
 30
-585.000
 70
    32
  0
VERTEX
  8
E59LXLIFT
 62
6
 10
3765.546
 20
-8695.493
 30
-585.000
 70
    32
  0
VERTEX
  8
E59LXLIFT
 62
6
 10
3783.143
 20
-8699.023
 30
-585.000
 70
    32
  0
VERTEX
  8
E59LXLIFT
 62
6
 10
3791.622
 20
-8705.725
 30
-585.000
 70
    32
  0
VERTEX
  8
E59LXLIFT
 62
6
 10
3799.909
 20
-8720.548
 30
-585.000
 70
    32
  0
SEQEND
  8
E59LXLIFT
  0
POLYLINE
  8
E59LXLIFT
 62
6
 66
     1
 70
     9
  0
VERTEX
  8
E59LXLIFT
 62
6
 10
3803.558
 20
-8640.390
 30
-542.000
 70
    32
  0
VERTEX
  8
E59LXLIFT
 62
6
 10
3775.766
 20
-8642.676
 30
-542.000
 70
    32
  0
VERTEX
  8
E59LXLIFT
 62
6
 10
3769.561
 20
-8645.645
 30
-542.000
 70
    32
  0
VERTEX
  8
E59LXLIFT
 62
6
 10
3748.587
 20
-8648.876
 30
-542.000
 70
    32
  0
VERTEX
  8
E59LXLIFT
 62
6
 10
3747.267
 20
-8675.195
 30
-542.000
 70
    32
  0
VERTEX
  8
E59LXLIFT
 62
6
 10
3751.628
 20
-8680.039
 30
-542.000
 70
    32
  0
VERTEX
  8
E59LXLIFT
 62
6
 10
3765.350
 20
-8674.984
 30
-542.000
 70
    32
  0
VERTEX
  8
E59LXLIFT
 62
6
 10
3776.374
 20
-8665.707
 30
-542.000
 70
    32
  0
VERTEX
  8
E59LXLIFT
 62
6
 10
3798.436
 20
-8651.292
 30
-542.000
 70
    32
  0
VERTEX
  8
E59LXLIFT
 62
6
 10
3803.747
 20
-8648.441
 30
-542.000
 70
    32
  0
SEQEND
  8
E59LXLIFT
  0
POLYLINE
  8
E59LXLIFT
 62
6
 66
     1
 70
     9
  0
VERTEX
  8
E59LXLIFT
 62
6
 10
3722.547
 20
-8666.874
 30
-553.000
 70
    32
  0
VERTEX
  8
E59LXLIFT
 62
6
 10
3733.748
 20
-8676.460
 30
-553.000
 70
    32
  0
VERTEX
  8
E59LXLIFT
 62
6
 10
3736.036
 20
-8687.444
 30
-553.000
 70
    32
  0
VERTEX
  8
E59LXLIFT
 62
6
 10
3741.719
 20
-8687.142
 30
-553.000
 70
    32
  0
VERTEX
  8
E59LXLIFT
 62
6
 10
3759.969
 20
-8675.384
 30
-553.000
 70
    32
  0
VERTEX
  8
E59LXLIFT
 62
6
 10
3768.161
 20
-8674.632
 30
-553.000
 70
    32
  0
VERTEX
  8
E59LXLIFT
 62
6
 10
3795.304
 20
-8655.583
 30
-553.000
 70
    32
  0
VERTEX
  8
E59LXLIFT
 62
6
 10
3803.653
 20
-8647.712
 30
-553.000
 70
    32
  0
VERTEX
  8
E59LXLIFT
 62
6
 10
3803.004
 20
-8640.975
 30
-553.000
 70
    32
  0
VERTEX
  8
E59LXLIFT
 62
6
 10
3792.647
 20
-8637.653
 30
-553.000
 70
    32
  0
VERTEX
  8
E59LXLIFT
 62
6
 10
3772.447
 20
-8643.426
 30
-553.000
 70
    32
  0
VERTEX
  8
E59LXLIFT
 62
6
 10
3752.058
 20
-8647.480
 30
-553.000
 70
    32
  0
VERTEX
  8
E59LXLIFT
 62
6
 10
3722.477
 20
-8645.373
 30
-553.000
 70
    32
  0
VERTEX
  8
E59LXLIFT
 62
6
 10
3715.564
 20
-8653.704
 30
-553.000
 70
    32
  0
SEQEND
  8
E59LXLIFT
  0
POLYLINE
  8
E59LXLIFT
 62
6
 66
     1
 70
     9
  0
VERTEX
  8
E59LXLIFT
 62
6
 10
3829.382
 20
-8767.409
 30
-600.000
 70
    32
  0
VERTEX
  8
E59LXLIFT
 62
6
 10
3819.689
 20
-8732.468
 30
-600.000
 70
    32
  0
VERTEX
  8
E59LXLIFT
 62
6
 10
3809.198
 20
-8708.698
 30
-600.000
 70
    32
  0
VERTEX
  8
E59LXLIFT
 62
6
 10
3801.684
 20
-8682.896
 30
-600.000
 70
    32
  0
VERTEX
  8
E59LXLIFT
 62
6
 10
3807.021
 20
-8673.796
 30
-600.000
 70
    32
  0
VERTEX
  8
E59LXLIFT
 62
6
 10
3801.859
 20
-8660.857
 30
-600.000
 70
    32
  0
VERTEX
  8
E59LXLIFT
 62
6
 10
3787.584
 20
-8648.095
 30
-600.000
 70
    32
  0
VERTEX
  8
E59LXLIFT
 62
6
 10
3764.323
 20
-8645.431
 30
-600.000
 70
    32
  0
VERTEX
  8
E59LXLIFT
 62
6
 10
3753.858
 20
-8654.447
 30
-600.000
 70
    32
  0
VERTEX
  8
E59LXLIFT
 62
6
 10
3749.440
 20
-8665.053
 30
-600.000
 70
    32
  0
VERTEX
  8
E59LXLIFT
 62
6
 10
3756.429
 20
-8682.445
 30
-600.000
 70
    32
  0
VERTEX
  8
E59LXLIFT
 62
6
 10
3764.855
 20
-8694.897
 30
-600.000
 70
    32
  0
VERTEX
  8
E59LXLIFT
 62
6
 10
3784.937
 20
-8701.946
 30
-600.000
 70
    32
  0
VERTEX
  8
E59LXLIFT
 62
6
 10
3795.405
 20
-8715.496
 30
-600.000
 70
    32
  0
VERTEX
  8
E59LXLIFT
 62
6
 10
3807.912
 20
-8738.292
 30
-600.000
 70
    32
  0
VERTEX
  8
E59LXLIFT
 62
6
 10
3815.440
 20
-8772.119
 30
-600.000
 70
    32
  0
VERTEX
  8
E59LXLIFT
 62
6
 10
3824.326
 20
-8776.737
 30
-600.000
 70
    32
  0
SEQEND
  8
E59LXLIFT
  0
POLYLINE
  8
E59LXLIFT
 62
6
 66
     1
 70
     9
  0
VERTEX
  8
E59LXLIFT
 62
6
 10
3710.985
 20
-8643.450
 30
-626.000
 70
    32
  0
VERTEX
  8
E59LXLIFT
 62
6
 10
3722.094
 20
-8649.495
 30
-626.000
 70
    32
  0
VERTEX
  8
E59LXLIFT
 62
6
 10
3731.047
 20
-8650.027
 30
-626.000
 70
    32
  0
VERTEX
  8
E59LXLIFT
 62
6
 10
3736.624
 20
-8658.791
 30
-626.000
 70
    32
  0
VERTEX
  8
E59LXLIFT
 62
6
 10
3747.908
 20
-8666.680
 30
-626.000
 70
    32
  0
VERTEX
  8
E59LXLIFT
 62
6
 10
3756.036
 20
-8666.404
 30
-626.000
 70
    32
  0
VERTEX
  8
E59LXLIFT
 62
6
 10
3764.535
 20
-8662.670
 30
-626.000
 70
    32
  0
VERTEX
  8
E59LXLIFT
 62
6
 10
3766.868
 20
-8666.955
 30
-626.000
 70
    32
  0
VERTEX
  8
E59LXLIFT
 62
6
 10
3769.035
 20
-8682.440
 30
-626.000
 70
    32
  0
VERTEX
  8
E59LXLIFT
 62
6
 10
3775.159
 20
-8688.711
 30
-626.000
 70
    32
  0
VERTEX
  8
E59LXLIFT
 62
6
 10
3790.758
 20
-8700.605
 30
-626.000
 70
    32
  0
VERTEX
  8
E59LXLIFT
 62
6
 10
3796.792
 20
-8709.685
 30
-626.000
 70
    32
  0
VERTEX
  8
E59LXLIFT
 62
6
 10
3804.107
 20
-8719.451
 30
-626.000
 70
    32
  0
VERTEX
  8
E59LXLIFT
 62
6
 10
3813.259
 20
-8739.136
 30
-626.000
 70
    32
  0
VERTEX
  8
E59LXLIFT
 62
6
 10
3819.235
 20
-8757.362
 30
-626.000
 70
    32
  0
VERTEX
  8
E59LXLIFT
 62
6
 10
3823.293
 20
-8781.521
 30
-626.000
 70
    32
  0
VERTEX
  8
E59LXLIFT
 62
6
 10
3835.054
 20
-8783.459
 30
-626.000
 70
    32
  0
VERTEX
  8
E59LXLIFT
 62
6
 10
3845.766
 20
-8778.725
 30
-626.000
 70
    32
  0
VERTEX
  8
E59LXLIFT
 62
6
 10
3836.617
 20
-8752.896
 30
-626.000
 70
    32
  0
VERTEX
  8
E59LXLIFT
 62
6
 10
3837.519
 20
-8743.118
 30
-626.000
 70
    32
  0
VERTEX
  8
E59LXLIFT
 62
6
 10
3837.049
 20
-8735.463
 30
-626.000
 70
    32
  0
VERTEX
  8
E59LXLIFT
 62
6
 10
3823.577
 20
-8717.917
 30
-626.000
 70
    32
  0
VERTEX
  8
E59LXLIFT
 62
6
 10
3814.896
 20
-8701.936
 30
-626.000
 70
    32
  0
VERTEX
  8
E59LXLIFT
 62
6
 10
3816.063
 20
-8688.121
 30
-626.000
 70
    32
  0
VERTEX
  8
E59LXLIFT
 62
6
 10
3819.916
 20
-8674.377
 30
-626.000
 70
    32
  0
VERTEX
  8
E59LXLIFT
 62
6
 10
3814.446
 20
-8663.121
 30
-626.000
 70
    32
  0
VERTEX
  8
E59LXLIFT
 62
6
 10
3805.989
 20
-8654.759
 30
-626.000
 70
    32
  0
VERTEX
  8
E59LXLIFT
 62
6
 10
3799.582
 20
-8653.088
 30
-626.000
 70
    32
  0
VERTEX
  8
E59LXLIFT
 62
6
 10
3798.848
 20
-8647.276
 30
-626.000
 70
    32
  0
VERTEX
  8
E59LXLIFT
 62
6
 10
3795.127
 20
-8646.116
 30
-626.000
 70
    32
  0
VERTEX
  8
E59LXLIFT
 62
6
 10
3795.493
 20
-8650.557
 30
-626.000
 70
    32
  0
VERTEX
  8
E59LXLIFT
 62
6
 10
3791.843
 20
-8648.466
 30
-626.000
 70
    32
  0
VERTEX
  8
E59LXLIFT
 62
6
 10
3775.066
 20
-8637.343
 30
-626.000
 70
    32
  0
VERTEX
  8
E59LXLIFT
 62
6
 10
3768.766
 20
-8634.496
 30
-626.000
 70
    32
  0
VERTEX
  8
E59LXLIFT
 62
6
 10
3762.779
 20
-8635.142
 30
-626.000
 70
    32
  0
VERTEX
  8
E59LXLIFT
 62
6
 10
3752.826
 20
-8633.714
 30
-626.000
 70
    32
  0
VERTEX
  8
E59LXLIFT
 62
6
 10
3742.944
 20
-8630.039
 30
-626.000
 70
    32
  0
VERTEX
  8
E59LXLIFT
 62
6
 10
3732.285
 20
-8634.404
 30
-626.000
 70
    32
  0
VERTEX
  8
E59LXLIFT
 62
6
 10
3724.013
 20
-8640.052
 30
-626.000
 70
    32
  0
VERTEX
  8
E59LXLIFT
 62
6
 10
3713.252
 20
-8639.887
 30
-626.000
 70
    32
  0
SEQEND
  8
E59LXLIFT
  0
POLYLINE
  8
E59LXLIFT
 62
6
 66
     1
 70
     9
  0
VERTEX
  8
E59LXLIFT
 62
6
 10
3824.657
 20
-8782.450
 30
-608.000
 70
    32
  0
VERTEX
  8
E59LXLIFT
 62
6
 10
3830.136
 20
-8768.305
 30
-608.000
 70
    32
  0
VERTEX
  8
E59LXLIFT
 62
6
 10
3826.763
 20
-8747.101
 30
-608.000
 70
    32
  0
VERTEX
  8
E59LXLIFT
 62
6
 10
3819.519
 20
-8722.664
 30
-608.000
 70
    32
  0
VERTEX
  8
E59LXLIFT
 62
6
 10
3805.202
 20
-8682.897
 30
-608.000
 70
    32
  0
VERTEX
  8
E59LXLIFT
 62
6
 10
3806.798
 20
-8672.784
 30
-608.000
 70
    32
  0
VERTEX
  8
E59LXLIFT
 62
6
 10
3795.311
 20
-8654.521
 30
-608.000
 70
    32
  0
VERTEX
  8
E59LXLIFT
 62
6
 10
3762.115
 20
-8650.898
 30
-608.000
 70
    32
  0
VERTEX
  8
E59LXLIFT
 62
6
 10
3753.361
 20
-8656.632
 30
-608.000
 70
    32
  0
VERTEX
  8
E59LXLIFT
 62
6
 10
3758.402
 20
-8668.109
 30
-608.000
 70
    32
  0
VERTEX
  8
E59LXLIFT
 62
6
 10
3754.195
 20
-8674.476
 30
-608.000
 70
    32
  0
VERTEX
  8
E59LXLIFT
 62
6
 10
3753.403
 20
-8678.813
 30
-608.000
 70
    32
  0
VERTEX
  8
E59LXLIFT
 62
6
 10
3766.029
 20
-8691.597
 30
-608.000
 70
    32
  0
VERTEX
  8
E59LXLIFT
 62
6
 10
3782.820
 20
-8701.014
 30
-608.000
 70
    32
  0
VERTEX
  8
E59LXLIFT
 62
6
 10
3793.743
 20
-8713.436
 30
-608.000
 70
    32
  0
VERTEX
  8
E59LXLIFT
 62
6
 10
3797.727
 20
-8723.512
 30
-608.000
 70
    32
  0
VERTEX
  8
E59LXLIFT
 62
6
 10
3808.386
 20
-8740.970
 30
-608.000
 70
    32
  0
VERTEX
  8
E59LXLIFT
 62
6
 10
3813.291
 20
-8763.766
 30
-608.000
 70
    32
  0
VERTEX
  8
E59LXLIFT
 62
6
 10
3812.430
 20
-8778.492
 30
-608.000
 70
    32
  0
SEQEND
  8
E59LXLIFT
  0
POLYLINE
  8
E59LXLIFT
 62
6
 66
     1
 70
     9
  0
VERTEX
  8
E59LXLIFT
 62
6
 10
3841.976
 20
-8772.544
 30
-615.000
 70
    32
  0
VERTEX
  8
E59LXLIFT
 62
6
 10
3842.800
 20
-8767.146
 30
-615.000
 70
    32
  0
VERTEX
  8
E59LXLIFT
 62
6
 10
3824.264
 20
-8725.274
 30
-615.000
 70
    32
  0
VERTEX
  8
E59LXLIFT
 62
6
 10
3812.259
 20
-8689.001
 30
-615.000
 70
    32
  0
VERTEX
  8
E59LXLIFT
 62
6
 10
3814.070
 20
-8669.218
 30
-615.000
 70
    32
  0
VERTEX
  8
E59LXLIFT
 62
6
 10
3801.258
 20
-8657.050
 30
-615.000
 70
    32
  0
VERTEX
  8
E59LXLIFT
 62
6
 10
3784.208
 20
-8654.905
 30
-615.000
 70
    32
  0
VERTEX
  8
E59LXLIFT
 62
6
 10
3775.062
 20
-8650.655
 30
-615.000
 70
    32
  0
VERTEX
  8
E59LXLIFT
 62
6
 10
3751.613
 20
-8652.999
 30
-615.000
 70
    32
  0
VERTEX
  8
E59LXLIFT
 62
6
 10
3760.433
 20
-8668.466
 30
-615.000
 70
    32
  0
VERTEX
  8
E59LXLIFT
 62
6
 10
3755.029
 20
-8679.276
 30
-615.000
 70
    32
  0
VERTEX
  8
E59LXLIFT
 62
6
 10
3780.372
 20
-8694.193
 30
-615.000
 70
    32
  0
VERTEX
  8
E59LXLIFT
 62
6
 10
3802.185
 20
-8722.352
 30
-615.000
 70
    32
  0
VERTEX
  8
E59LXLIFT
 62
6
 10
3817.243
 20
-8750.512
 30
-615.000
 70
    32
  0
VERTEX
  8
E59LXLIFT
 62
6
 10
3821.657
 20
-8775.355
 30
-615.000
 70
    32
  0
SEQEND
  8
E59LXLIFT
  0
POLYLINE
  8
E59LXLIFT
 62
6
 66
     1
 70
     9
  0
VERTEX
  8
E59LXLIFT
 62
6
 10
3844.856
 20
-8784.978
 30
-631.000
 70
    32
  0
VERTEX
  8
E59LXLIFT
 62
6
 10
3836.174
 20
-8788.192
 30
-631.000
 70
    32
  0
VERTEX
  8
E59LXLIFT
 62
6
 10
3828.319
 20
-8784.306
 30
-631.000
 70
    32
  0
VERTEX
  8
E59LXLIFT
 62
6
 10
3820.131
 20
-8781.000
 30
-631.000
 70
    32
  0
VERTEX
  8
E59LXLIFT
 62
6
 10
3821.082
 20
-8772.161
 30
-631.000
 70
    32
  0
VERTEX
  8
E59LXLIFT
 62
6
 10
3818.959
 20
-8757.609
 30
-631.000
 70
    32
  0
VERTEX
  8
E59LXLIFT
 62
6
 10
3814.444
 20
-8749.243
 30
-631.000
 70
    32
  0
VERTEX
  8
E59LXLIFT
 62
6
 10
3813.761
 20
-8742.178
 30
-631.000
 70
    32
  0
VERTEX
  8
E59LXLIFT
 62
6
 10
3807.928
 20
-8735.129
 30
-631.000
 70
    32
  0
VERTEX
  8
E59LXLIFT
 62
6
 10
3805.663
 20
-8726.833
 30
-631.000
 70
    32
  0
VERTEX
  8
E59LXLIFT
 62
6
 10
3800.392
 20
-8722.878
 30
-631.000
 70
    32
  0
VERTEX
  8
E59LXLIFT
 62
6
 10
3796.230
 20
-8707.658
 30
-631.000
 70
    32
  0
VERTEX
  8
E59LXLIFT
 62
6
 10
3783.369
 20
-8694.017
 30
-631.000
 70
    32
  0
VERTEX
  8
E59LXLIFT
 62
6
 10
3769.014
 20
-8681.606
 30
-631.000
 70
    32
  0
VERTEX
  8
E59LXLIFT
 62
6
 10
3765.203
 20
-8674.470
 30
-631.000
 70
    32
  0
VERTEX
  8
E59LXLIFT
 62
6
 10
3770.388
 20
-8668.936
 30
-631.000
 70
    32
  0
VERTEX
  8
E59LXLIFT
 62
6
 10
3760.285
 20
-8662.782
 30
-631.000
 70
    32
  0
VERTEX
  8
E59LXLIFT
 62
6
 10
3751.883
 20
-8667.543
 30
-631.000
 70
    32
  0
VERTEX
  8
E59LXLIFT
 62
6
 10
3738.756
 20
-8664.095
 30
-631.000
 70
    32
  0
VERTEX
  8
E59LXLIFT
 62
6
 10
3727.459
 20
-8650.490
 30
-631.000
 70
    32
  0
VERTEX
  8
E59LXLIFT
 62
6
 10
3725.459
 20
-8637.274
 30
-631.000
 70
    32
  0
VERTEX
  8
E59LXLIFT
 62
6
 10
3737.869
 20
-8627.752
 30
-631.000
 70
    32
  0
VERTEX
  8
E59LXLIFT
 62
6
 10
3744.300
 20
-8631.497
 30
-631.000
 70
    32
  0
VERTEX
  8
E59LXLIFT
 62
6
 10
3748.729
 20
-8629.934
 30
-631.000
 70
    32
  0
VERTEX
  8
E59LXLIFT
 62
6
 10
3753.280
 20
-8633.660
 30
-631.000
 70
    32
  0
VERTEX
  8
E59LXLIFT
 62
6
 10
3760.028
 20
-8635.191
 30
-631.000
 70
    32
  0
VERTEX
  8
E59LXLIFT
 62
6
 10
3776.090
 20
-8638.306
 30
-631.000
 70
    32
  0
VERTEX
  8
E59LXLIFT
 62
6
 10
3786.914
 20
-8645.566
 30
-631.000
 70
    32
  0
VERTEX
  8
E59LXLIFT
 62
6
 10
3792.730
 20
-8648.344
 30
-631.000
 70
    32
  0
VERTEX
  8
E59LXLIFT
 62
6
 10
3799.760
 20
-8645.710
 30
-631.000
 70
    32
  0
VERTEX
  8
E59LXLIFT
 62
6
 10
3801.815
 20
-8649.770
 30
-631.000
 70
    32
  0
VERTEX
  8
E59LXLIFT
 62
6
 10
3798.528
 20
-8652.564
 30
-631.000
 70
    32
  0
VERTEX
  8
E59LXLIFT
 62
6
 10
3808.806
 20
-8664.077
 30
-631.000
 70
    32
  0
VERTEX
  8
E59LXLIFT
 62
6
 10
3823.690
 20
-8669.283
 30
-631.000
 70
    32
  0
VERTEX
  8
E59LXLIFT
 62
6
 10
3821.296
 20
-8685.134
 30
-631.000
 70
    32
  0
VERTEX
  8
E59LXLIFT
 62
6
 10
3815.758
 20
-8693.568
 30
-631.000
 70
    32
  0
VERTEX
  8
E59LXLIFT
 62
6
 10
3819.955
 20
-8707.664
 30
-631.000
 70
    32
  0
VERTEX
  8
E59LXLIFT
 62
6
 10
3830.110
 20
-8718.720
 30
-631.000
 70
    32
  0
VERTEX
  8
E59LXLIFT
 62
6
 10
3841.863
 20
-8737.475
 30
-631.000
 70
    32
  0
VERTEX
  8
E59LXLIFT
 62
6
 10
3836.185
 20
-8744.257
 30
-631.000
 70
    32
  0
VERTEX
  8
E59LXLIFT
 62
6
 10
3841.559
 20
-8758.458
 30
-631.000
 70
    32
  0
VERTEX
  8
E59LXLIFT
 62
6
 10
3850.465
 20
-8774.734
 30
-631.000
 70
    32
  0
SEQEND
  8
E59LXLIFT
  0
POLYLINE
  8
E59LXLIFT
 62
6
 66
     1
 70
     9
  0
VERTEX
  8
E59LXLIFT
 62
6
 10
3708.343
 20
-8654.114
 30
-568.000
 70
    32
  0
VERTEX
  8
E59LXLIFT
 62
6
 10
3718.520
 20
-8668.651
 30
-568.000
 70
    32
  0
VERTEX
  8
E59LXLIFT
 62
6
 10
3735.909
 20
-8675.432
 30
-568.000
 70
    32
  0
VERTEX
  8
E59LXLIFT
 62
6
 10
3746.399
 20
-8682.312
 30
-568.000
 70
    32
  0
VERTEX
  8
E59LXLIFT
 62
6
 10
3760.650
 20
-8695.378
 30
-568.000
 70
    32
  0
VERTEX
  8
E59LXLIFT
 62
6
 10
3769.366
 20
-8696.206
 30
-568.000
 70
    32
  0
VERTEX
  8
E59LXLIFT
 62
6
 10
3788.045
 20
-8684.505
 30
-568.000
 70
    32
  0
VERTEX
  8
E59LXLIFT
 62
6
 10
3792.436
 20
-8677.256
 30
-568.000
 70
    32
  0
VERTEX
  8
E59LXLIFT
 62
6
 10
3803.365
 20
-8639.632
 30
-568.000
 70
    32
  0
VERTEX
  8
E59LXLIFT
 62
6
 10
3793.277
 20
-8628.236
 30
-568.000
 70
    32
  0
VERTEX
  8
E59LXLIFT
 62
6
 10
3781.333
 20
-8631.993
 30
-568.000
 70
    32
  0
VERTEX
  8
E59LXLIFT
 62
6
 10
3756.431
 20
-8641.503
 30
-568.000
 70
    32
  0
VERTEX
  8
E59LXLIFT
 62
6
 10
3743.627
 20
-8639.390
 30
-568.000
 70
    32
  0
VERTEX
  8
E59LXLIFT
 62
6
 10
3730.260
 20
-8641.585
 30
-568.000
 70
    32
  0
VERTEX
  8
E59LXLIFT
 62
6
 10
3711.784
 20
-8637.854
 30
-568.000
 70
    32
  0
SEQEND
  8
E59LXLIFT
  0
POLYLINE
  8
E59LXLIFT
 62
3
 66
     1
 70
     9
  0
VERTEX
  8
E59LXLIFT
 62
3
 10
3858.859
 20
-8979.847
 30
-622.000
 70
    32
  0
VERTEX
  8
E59LXLIFT
 62
3
 10
3865.458
 20
-8983.955
 30
-622.000
 70
    32
  0
VERTEX
  8
E59LXLIFT
 62
3
 10
3858.637
 20
-9000.399
 30
-622.000
 70
    32
  0
VERTEX
  8
E59LXLIFT
 62
3
 10
3851.539
 20
-9001.106
 30
-622.000
 70
    32
  0
VERTEX
  8
E59LXLIFT
 62
3
 10
3844.582
 20
-8997.828
 30
-622.000
 70
    32
  0
VERTEX
  8
E59LXLIFT
 62
3
 10
3819.084
 20
-8999.093
 30
-622.000
 70
    32
  0
VERTEX
  8
E59LXLIFT
 62
3
 10
3800.366
 20
-8998.233
 30
-622.000
 70
    32
  0
VERTEX
  8
E59LXLIFT
 62
3
 10
3788.465
 20
-8999.320
 30
-622.000
 70
    32
  0
VERTEX
  8
E59LXLIFT
 62
3
 10
3784.643
 20
-9002.265
 30
-622.000
 70
    32
  0
VERTEX
  8
E59LXLIFT
 62
3
 10
3786.418
 20
-9011.753
 30
-622.000
 70
    32
  0
VERTEX
  8
E59LXLIFT
 62
3
 10
3793.296
 20
-9017.085
 30
-622.000
 70
    32
  0
VERTEX
  8
E59LXLIFT
 62
3
 10
3805.719
 20
-9025.012
 30
-622.000
 70
    32
  0
VERTEX
  8
E59LXLIFT
 62
3
 10
3814.343
 20
-9042.956
 30
-622.000
 70
    32
  0
VERTEX
  8
E59LXLIFT
 62
3
 10
3818.204
 20
-9048.398
 30
-622.000
 70
    32
  0
VERTEX
  8
E59LXLIFT
 62
3
 10
3838.964
 20
-9059.093
 30
-622.000
 70
    32
  0
VERTEX
  8
E59LXLIFT
 62
3
 10
3848.791
 20
-9048.417
 30
-622.000
 70
    32
  0
VERTEX
  8
E59LXLIFT
 62
3
 10
3866.566
 20
-9041.586
 30
-622.000
 70
    32
  0
VERTEX
  8
E59LXLIFT
 62
3
 10
3891.000
 20
-9035.492
 30
-622.000
 70
    32
  0
VERTEX
  8
E59LXLIFT
 62
3
 10
3882.769
 20
-9014.033
 30
-622.000
 70
    32
  0
VERTEX
  8
E59LXLIFT
 62
3
 10
3899.861
 20
-9003.297
 30
-622.000
 70
    32
  0
VERTEX
  8
E59LXLIFT
 62
3
 10
3897.371
 20
-8995.468
 30
-622.000
 70
    32
  0
VERTEX
  8
E59LXLIFT
 62
3
 10
3889.566
 20
-8989.078
 30
-622.000
 70
    32
  0
VERTEX
  8
E59LXLIFT
 62
3
 10
3885.654
 20
-8975.810
 30
-622.000
 70
    32
  0
VERTEX
  8
E59LXLIFT
 62
3
 10
3882.307
 20
-8970.748
 30
-622.000
 70
    32
  0
VERTEX
  8
E59LXLIFT
 62
3
 10
3867.895
 20
-8963.690
 30
-622.000
 70
    32
  0
SEQEND
  8
E59LXLIFT
  0
POLYLINE
  8
E59LXLIFT
 62
3
 66
     1
 70
     9
  0
VERTEX
  8
E59LXLIFT
 62
3
 10
3809.755
 20
-8989.461
 30
-651.000
 70
    32
  0
VERTEX
  8
E59LXLIFT
 62
3
 10
3815.431
 20
-8996.955
 30
-651.000
 70
    32
  0
VERTEX
  8
E59LXLIFT
 62
3
 10
3825.794
 20
-9002.231
 30
-651.000
 70
    32
  0
VERTEX
  8
E59LXLIFT
 62
3
 10
3834.124
 20
-9009.640
 30
-651.000
 70
    32
  0
VERTEX
  8
E59LXLIFT
 62
3
 10
3841.124
 20
-9009.105
 30
-651.000
 70
    32
  0
VERTEX
  8
E59LXLIFT
 62
3
 10
3850.469
 20
-8999.256
 30
-651.000
 70
    32
  0
VERTEX
  8
E59LXLIFT
 62
3
 10
3862.793
 20
-8992.454
 30
-651.000
 70
    32
  0
VERTEX
  8
E59LXLIFT
 62
3
 10
3871.555
 20
-8989.115
 30
-651.000
 70
    32
  0
VERTEX
  8
E59LXLIFT
 62
3
 10
3878.404
 20
-8984.344
 30
-651.000
 70
    32
  0
VERTEX
  8
E59LXLIFT
 62
3
 10
3888.923
 20
-8999.831
 30
-651.000
 70
    32
  0
VERTEX
  8
E59LXLIFT
 62
3
 10
3896.042
 20
-9022.139
 30
-651.000
 70
    32
  0
VERTEX
  8
E59LXLIFT
 62
3
 10
3896.695
 20
-9031.988
 30
-651.000
 70
    32
  0
VERTEX
  8
E59LXLIFT
 62
3
 10
3890.620
 20
-9035.434
 30
-651.000
 70
    32
  0
VERTEX
  8
E59LXLIFT
 62
3
 10
3873.725
 20
-9046.109
 30
-651.000
 70
    32
  0
VERTEX
  8
E59LXLIFT
 62
3
 10
3864.332
 20
-9051.863
 30
-651.000
 70
    32
  0
VERTEX
  8
E59LXLIFT
 62
3
 10
3856.041
 20
-9054.207
 30
-651.000
 70
    32
  0
VERTEX
  8
E59LXLIFT
 62
3
 10
3840.856
 20
-9050.814
 30
-651.000
 70
    32
  0
VERTEX
  8
E59LXLIFT
 62
3
 10
3826.966
 20
-9045.172
 30
-651.000
 70
    32
  0
VERTEX
  8
E59LXLIFT
 62
3
 10
3822.998
 20
-9041.216
 30
-651.000
 70
    32
  0
VERTEX
  8
E59LXLIFT
 62
3
 10
3817.660
 20
-9027.172
 30
-651.000
 70
    32
  0
VERTEX
  8
E59LXLIFT
 62
3
 10
3815.650
 20
-9015.161
 30
-651.000
 70
    32
  0
VERTEX
  8
E59LXLIFT
 62
3
 10
3816.830
 20
-9012.454
 30
-651.000
 70
    32
  0
VERTEX
  8
E59LXLIFT
 62
3
 10
3807.896
 20
-9000.487
 30
-651.000
 70
    32
  0
VERTEX
  8
E59LXLIFT
 62
3
 10
3802.654
 20
-8993.438
 30
-651.000
 70
    32
  0
SEQEND
  8
E59LXLIFT
  0
POLYLINE
  8
E59LXLIFT
 62
3
 66
     1
 70
     9
  0
VERTEX
  8
E59LXLIFT
 62
3
 10
3779.816
 20
-9002.835
 30
-633.000
 70
    32
  0
VERTEX
  8
E59LXLIFT
 62
3
 10
3797.768
 20
-9015.381
 30
-633.000
 70
    32
  0
VERTEX
  8
E59LXLIFT
 62
3
 10
3803.651
 20
-9013.278
 30
-633.000
 70
    32
  0
VERTEX
  8
E59LXLIFT
 62
3
 10
3808.020
 20
-9016.914
 30
-633.000
 70
    32
  0
VERTEX
  8
E59LXLIFT
 62
3
 10
3810.737
 20
-9023.324
 30
-633.000
 70
    32
  0
VERTEX
  8
E59LXLIFT
 62
3
 10
3827.582
 20
-9037.466
 30
-633.000
 70
    32
  0
VERTEX
  8
E59LXLIFT
 62
3
 10
3841.464
 20
-9044.286
 30
-633.000
 70
    32
  0
VERTEX
  8
E59LXLIFT
 62
3
 10
3867.063
 20
-9040.685
 30
-633.000
 70
    32
  0
VERTEX
  8
E59LXLIFT
 62
3
 10
3880.337
 20
-9036.005
 30
-633.000
 70
    32
  0
VERTEX
  8
E59LXLIFT
 62
3
 10
3888.944
 20
-9028.900
 30
-633.000
 70
    32
  0
VERTEX
  8
E59LXLIFT
 62
3
 10
3889.408
 20
-9016.489
 30
-633.000
 70
    32
  0
VERTEX
  8
E59LXLIFT
 62
3
 10
3882.795
 20
-9006.197
 30
-633.000
 70
    32
  0
VERTEX
  8
E59LXLIFT
 62
3
 10
3898.511
 20
-9000.677
 30
-633.000
 70
    32
  0
VERTEX
  8
E59LXLIFT
 62
3
 10
3898.904
 20
-8989.196
 30
-633.000
 70
    32
  0
VERTEX
  8
E59LXLIFT
 62
3
 10
3888.968
 20
-8988.961
 30
-633.000
 70
    32
  0
VERTEX
  8
E59LXLIFT
 62
3
 10
3877.592
 20
-8989.148
 30
-633.000
 70
    32
  0
VERTEX
  8
E59LXLIFT
 62
3
 10
3864.248
 20
-8992.124
 30
-633.000
 70
    32
  0
VERTEX
  8
E59LXLIFT
 62
3
 10
3850.062
 20
-8993.977
 30
-633.000
 70
    32
  0
VERTEX
  8
E59LXLIFT
 62
3
 10
3835.646
 20
-8997.427
 30
-633.000
 70
    32
  0
VERTEX
  8
E59LXLIFT
 62
3
 10
3822.690
 20
-8998.139
 30
-633.000
 70
    32
  0
VERTEX
  8
E59LXLIFT
 62
3
 10
3816.022
 20
-8993.482
 30
-633.000
 70
    32
  0
VERTEX
  8
E59LXLIFT
 62
3
 10
3805.837
 20
-8996.724
 30
-633.000
 70
    32
  0
VERTEX
  8
E59LXLIFT
 62
3
 10
3795.619
 20
-8999.334
 30
-633.000
 70
    32
  0
VERTEX
  8
E59LXLIFT
 62
3
 10
3784.349
 20
-8996.588
 30
-633.000
 70
    32
  0
SEQEND
  8
E59LXLIFT
  0
POLYLINE
  8
E59LXLIFT
 62
1
 66
     1
 70
     9
  0
VERTEX
  8
E59LXLIFT
 62
1
 10
3836.597
 20
-9056.340
 30
-604.000
 70
    32
  0
VERTEX
  8
E59LXLIFT
 62
1
 10
3817.708
 20
-9043.999
 30
-604.000
 70
    32
  0
VERTEX
  8
E59LXLIFT
 62
1
 10
3804.987
 20
-9024.248
 30
-604.000
 70
    32
  0
VERTEX
  8
E59LXLIFT
 62
1
 10
3785.419
 20
-9008.681
 30
-604.000
 70
    32
  0
VERTEX
  8
E59LXLIFT
 62
1
 10
3784.556
 20
-9002.735
 30
-604.000
 70
    32
  0
VERTEX
  8
E59LXLIFT
 62
1
 10
3789.301
 20
-8999.700
 30
-604.000
 70
    32
  0
VERTEX
  8
E59LXLIFT
 62
1
 10
3807.350
 20
-8997.392
 30
-604.000
 70
    32
  0
VERTEX
  8
E59LXLIFT
 62
1
 10
3818.918
 20
-8998.439
 30
-604.000
 70
    32
  0
VERTEX
  8
E59LXLIFT
 62
1
 10
3837.602
 20
-8996.971
 30
-604.000
 70
    32
  0
VERTEX
  8
E59LXLIFT
 62
1
 10
3852.301
 20
-9000.271
 30
-604.000
 70
    32
  0
VERTEX
  8
E59LXLIFT
 62
1
 10
3864.660
 20
-8996.543
 30
-604.000
 70
    32
  0
VERTEX
  8
E59LXLIFT
 62
1
 10
3868.323
 20
-8985.089
 30
-604.000
 70
    32
  0
VERTEX
  8
E59LXLIFT
 62
1
 10
3862.024
 20
-8980.390
 30
-604.000
 70
    32
  0
VERTEX
  8
E59LXLIFT
 62
1
 10
3861.927
 20
-8967.598
 30
-604.000
 70
    32
  0
VERTEX
  8
E59LXLIFT
 62
1
 10
3869.440
 20
-8963.132
 30
-604.000
 70
    32
  0
VERTEX
  8
E59LXLIFT
 62
1
 10
3883.242
 20
-8971.069
 30
-604.000
 70
    32
  0
VERTEX
  8
E59LXLIFT
 62
1
 10
3891.858
 20
-8986.113
 30
-604.000
 70
    32
  0
VERTEX
  8
E59LXLIFT
 62
1
 10
3901.178
 20
-8986.660
 30
-604.000
 70
    32
  0
VERTEX
  8
E59LXLIFT
 62
1
 10
3906.931
 20
-8985.832
 30
-604.000
 70
    32
  0
VERTEX
  8
E59LXLIFT
 62
1
 10
3912.372
 20
-8991.288
 30
-604.000
 70
    32
  0
VERTEX
  8
E59LXLIFT
 62
1
 10
3911.992
 20
-8998.063
 30
-604.000
 70
    32
  0
VERTEX
  8
E59LXLIFT
 62
1
 10
3900.458
 20
-9006.667
 30
-604.000
 70
    32
  0
VERTEX
  8
E59LXLIFT
 62
1
 10
3901.688
 20
-9022.123
 30
-604.000
 70
    32
  0
VERTEX
  8
E59LXLIFT
 62
1
 10
3897.140
 20
-9026.438
 30
-604.000
 70
    32
  0
VERTEX
  8
E59LXLIFT
 62
1
 10
3887.121
 20
-9031.807
 30
-604.000
 70
    32
  0
VERTEX
  8
E59LXLIFT
 62
1
 10
3868.482
 20
-9041.050
 30
-604.000
 70
    32
  0
VERTEX
  8
E59LXLIFT
 62
1
 10
3865.152
 20
-9037.078
 30
-604.000
 70
    32
  0
VERTEX
  8
E59LXLIFT
 62
1
 10
3850.917
 20
-9046.182
 30
-604.000
 70
    32
  0
SEQEND
  8
E59LXLIFT
  0
POLYLINE
  8
E59LXLIFT
 62
3
 66
     1
 70
     9
  0
VERTEX
  8
E59LXLIFT
 62
3
 10
3835.597
 20
-9057.340
 30
-614.000
 70
    32
  0
VERTEX
  8
E59LXLIFT
 62
3
 10
3816.708
 20
-9044.999
 30
-614.000
 70
    32
  0
VERTEX
  8
E59LXLIFT
 62
3
 10
3803.987
 20
-9025.248
 30
-614.000
 70
    32
  0
VERTEX
  8
E59LXLIFT
 62
3
 10
3784.419
 20
-9009.681
 30
-614.000
 70
    32
  0
VERTEX
  8
E59LXLIFT
 62
3
 10
3783.556
 20
-9003.735
 30
-614.000
 70
    32
  0
VERTEX
  8
E59LXLIFT
 62
3
 10
3788.301
 20
-9000.700
 30
-614.000
 70
    32
  0
VERTEX
  8
E59LXLIFT
 62
3
 10
3806.350
 20
-8998.392
 30
-614.000
 70
    32
  0
VERTEX
  8
E59LXLIFT
 62
3
 10
3817.918
 20
-8999.439
 30
-614.000
 70
    32
  0
VERTEX
  8
E59LXLIFT
 62
3
 10
3836.602
 20
-8997.971
 30
-614.000
 70
    32
  0
VERTEX
  8
E59LXLIFT
 62
3
 10
3851.301
 20
-9001.271
 30
-614.000
 70
    32
  0
VERTEX
  8
E59LXLIFT
 62
3
 10
3863.660
 20
-8997.543
 30
-614.000
 70
    32
  0
VERTEX
  8
E59LXLIFT
 62
3
 10
3867.323
 20
-8986.089
 30
-614.000
 70
    32
  0
VERTEX
  8
E59LXLIFT
 62
3
 10
3861.024
 20
-8981.390
 30
-614.000
 70
    32
  0
VERTEX
  8
E59LXLIFT
 62
3
 10
3860.927
 20
-8968.598
 30
-614.000
 70
    32
  0
VERTEX
  8
E59LXLIFT
 62
3
 10
3868.440
 20
-8964.132
 30
-614.000
 70
    32
  0
VERTEX
  8
E59LXLIFT
 62
3
 10
3882.242
 20
-8972.069
 30
-614.000
 70
    32
  0
VERTEX
  8
E59LXLIFT
 62
3
 10
3890.858
 20
-8987.113
 30
-614.000
 70
    32
  0
VERTEX
  8
E59LXLIFT
 62
3
 10
3900.178
 20
-8987.660
 30
-614.000
 70
    32
  0
VERTEX
  8
E59LXLIFT
 62
3
 10
3905.931
 20
-8986.832
 30
-614.000
 70
    32
  0
VERTEX
  8
E59LXLIFT
 62
3
 10
3911.372
 20
-8992.288
 30
-614.000
 70
    32
  0
VERTEX
  8
E59LXLIFT
 62
3
 10
3910.992
 20
-8999.063
 30
-614.000
 70
    32
  0
VERTEX
  8
E59LXLIFT
 62
3
 10
3899.458
 20
-9007.667
 30
-614.000
 70
    32
  0
VERTEX
  8
E59LXLIFT
 62
3
 10
3900.688
 20
-9023.123
 30
-614.000
 70
    32
  0
VERTEX
  8
E59LXLIFT
 62
3
 10
3896.140
 20
-9027.438
 30
-614.000
 70
    32
  0
VERTEX
  8
E59LXLIFT
 62
3
 10
3886.121
 20
-9032.807
 30
-614.000
 70
    32
  0
VERTEX
  8
E59LXLIFT
 62
3
 10
3867.482
 20
-9042.050
 30
-614.000
 70
    32
  0
VERTEX
  8
E59LXLIFT
 62
3
 10
3864.152
 20
-9038.078
 30
-614.000
 70
    32
  0
VERTEX
  8
E59LXLIFT
 62
3
 10
3849.917
 20
-9047.182
 30
-614.000
 70
    32
  0
SEQEND
  8
E59LXLIFT
  0
POLYLINE
  8
E59LXLIFT
 62
3
 66
     1
 70
     9
  0
VERTEX
  8
E59LXLIFT
 62
3
 10
3785.856
 20
-9015.237
 30
-643.000
 70
    32
  0
VERTEX
  8
E59LXLIFT
 62
3
 10
3796.349
 20
-9012.533
 30
-643.000
 70
    32
  0
VERTEX
  8
E59LXLIFT
 62
3
 10
3812.569
 20
-9015.858
 30
-643.000
 70
    32
  0
VERTEX
  8
E59LXLIFT
 62
3
 10
3819.490
 20
-9027.143
 30
-643.000
 70
    32
  0
VERTEX
  8
E59LXLIFT
 62
3
 10
3822.370
 20
-9037.284
 30
-643.000
 70
    32
  0
VERTEX
  8
E59LXLIFT
 62
3
 10
3830.383
 20
-9039.184
 30
-643.000
 70
    32
  0
VERTEX
  8
E59LXLIFT
 62
3
 10
3842.790
 20
-9041.524
 30
-643.000
 70
    32
  0
VERTEX
  8
E59LXLIFT
 62
3
 10
3856.971
 20
-9046.378
 30
-643.000
 70
    32
  0
VERTEX
  8
E59LXLIFT
 62
3
 10
3873.598
 20
-9038.526
 30
-643.000
 70
    32
  0
VERTEX
  8
E59LXLIFT
 62
3
 10
3900.086
 20
-9021.416
 30
-643.000
 70
    32
  0
VERTEX
  8
E59LXLIFT
 62
3
 10
3892.214
 20
-9015.456
 30
-643.000
 70
    32
  0
VERTEX
  8
E59LXLIFT
 62
3
 10
3886.242
 20
-9005.877
 30
-643.000
 70
    32
  0
VERTEX
  8
E59LXLIFT
 62
3
 10
3885.313
 20
-8992.626
 30
-643.000
 70
    32
  0
VERTEX
  8
E59LXLIFT
 62
3
 10
3879.006
 20
-8985.823
 30
-643.000
 70
    32
  0
VERTEX
  8
E59LXLIFT
 62
3
 10
3874.948
 20
-8980.409
 30
-643.000
 70
    32
  0
VERTEX
  8
E59LXLIFT
 62
3
 10
3866.267
 20
-8978.351
 30
-643.000
 70
    32
  0
VERTEX
  8
E59LXLIFT
 62
3
 10
3853.664
 20
-8985.711
 30
-643.000
 70
    32
  0
VERTEX
  8
E59LXLIFT
 62
3
 10
3843.065
 20
-8994.426
 30
-643.000
 70
    32
  0
VERTEX
  8
E59LXLIFT
 62
3
 10
3838.583
 20
-8996.358
 30
-643.000
 70
    32
  0
VERTEX
  8
E59LXLIFT
 62
3
 10
3825.771
 20
-8997.286
 30
-643.000
 70
    32
  0
VERTEX
  8
E59LXLIFT
 62
3
 10
3815.842
 20
-8996.493
 30
-643.000
 70
    32
  0
VERTEX
  8
E59LXLIFT
 62
3
 10
3805.613
 20
-8998.669
 30
-643.000
 70
    32
  0
VERTEX
  8
E59LXLIFT
 62
3
 10
3799.040
 20
-9001.181
 30
-643.000
 70
    32
  0
VERTEX
  8
E59LXLIFT
 62
3
 10
3786.492
 20
-9001.582
 30
-643.000
 70
    32
  0
SEQEND
  8
E59LXLIFT
  0
POLYLINE
  8
E59LXLIFT
 62
3
 66
     1
 70
     9
  0
VERTEX
  8
E59LXLIFT
 62
3
 10
3802.089
 20
-8992.377
 30
-661.000
 70
    32
  0
VERTEX
  8
E59LXLIFT
 62
3
 10
3812.750
 20
-9012.421
 30
-661.000
 70
    32
  0
VERTEX
  8
E59LXLIFT
 62
3
 10
3817.042
 20
-9025.280
 30
-661.000
 70
    32
  0
VERTEX
  8
E59LXLIFT
 62
3
 10
3818.548
 20
-9030.872
 30
-661.000
 70
    32
  0
VERTEX
  8
E59LXLIFT
 62
3
 10
3823.674
 20
-9042.653
 30
-661.000
 70
    32
  0
VERTEX
  8
E59LXLIFT
 62
3
 10
3840.342
 20
-9050.153
 30
-661.000
 70
    32
  0
VERTEX
  8
E59LXLIFT
 62
3
 10
3855.861
 20
-9056.872
 30
-661.000
 70
    32
  0
VERTEX
  8
E59LXLIFT
 62
3
 10
3890.500
 20
-9031.309
 30
-661.000
 70
    32
  0
VERTEX
  8
E59LXLIFT
 62
3
 10
3894.373
 20
-9017.853
 30
-661.000
 70
    32
  0
VERTEX
  8
E59LXLIFT
 62
3
 10
3889.279
 20
-9001.627
 30
-661.000
 70
    32
  0
VERTEX
  8
E59LXLIFT
 62
3
 10
3874.768
 20
-8997.675
 30
-661.000
 70
    32
  0
VERTEX
  8
E59LXLIFT
 62
3
 10
3864.112
 20
-8996.748
 30
-661.000
 70
    32
  0
VERTEX
  8
E59LXLIFT
 62
3
 10
3854.393
 20
-9000.521
 30
-661.000
 70
    32
  0
VERTEX
  8
E59LXLIFT
 62
3
 10
3845.243
 20
-9007.065
 30
-661.000
 70
    32
  0
VERTEX
  8
E59LXLIFT
 62
3
 10
3838.437
 20
-9012.482
 30
-661.000
 70
    32
  0
VERTEX
  8
E59LXLIFT
 62
3
 10
3825.776
 20
-9005.018
 30
-661.000
 70
    32
  0
VERTEX
  8
E59LXLIFT
 62
3
 10
3811.813
 20
-8987.164
 30
-661.000
 70
    32
  0
SEQEND
  8
E59LXLIFT
  0
POLYLINE
  8
E59LXLIFT
 62
1
 66
     1
 70
     9
  0
VERTEX
  8
E59LXLIFT
 62
1
 10
5113.575
 20
-9591.371
 30
-651.000
 70
    32
  0
VERTEX
  8
E59LXLIFT
 62
1
 10
5099.051
 20
-9582.787
 30
-651.000
 70
    32
  0
VERTEX
  8
E59LXLIFT
 62
1
 10
5071.544
 20
-9578.707
 30
-651.000
 70
    32
  0
VERTEX
  8
E59LXLIFT
 62
1
 10
5068.177
 20
-9571.729
 30
-651.000
 70
    32
  0
VERTEX
  8
E59LXLIFT
 62
1
 10
5064.543
 20
-9563.645
 30
-651.000
 70
    32
  0
VERTEX
  8
E59LXLIFT
 62
1
 10
5054.989
 20
-9556.960
 30
-651.000
 70
    32
  0
VERTEX
  8
E59LXLIFT
 62
1
 10
5045.668
 20
-9555.639
 30
-651.000
 70
    32
  0
VERTEX
  8
E59LXLIFT
 62
1
 10
5036.283
 20
-9552.303
 30
-651.000
 70
    32
  0
VERTEX
  8
E59LXLIFT
 62
1
 10
5023.894
 20
-9542.483
 30
-651.000
 70
    32
  0
VERTEX
  8
E59LXLIFT
 62
1
 10
5017.241
 20
-9542.140
 30
-651.000
 70
    32
  0
VERTEX
  8
E59LXLIFT
 62
1
 10
5009.277
 20
-9540.153
 30
-651.000
 70
    32
  0
VERTEX
  8
E59LXLIFT
 62
1
 10
5002.223
 20
-9544.009
 30
-651.000
 70
    32
  0
VERTEX
  8
E59LXLIFT
 62
1
 10
4996.094
 20
-9539.486
 30
-651.000
 70
    32
  0
VERTEX
  8
E59LXLIFT
 62
1
 10
4990.295
 20
-9523.544
 30
-651.000
 70
    32
  0
VERTEX
  8
E59LXLIFT
 62
1
 10
4989.215
 20
-9517.172
 30
-651.000
 70
    32
  0
VERTEX
  8
E59LXLIFT
 62
1
 10
4991.622
 20
-9509.336
 30
-651.000
 70
    32
  0
VERTEX
  8
E59LXLIFT
 62
1
 10
5001.460
 20
-9511.364
 30
-651.000
 70
    32
  0
VERTEX
  8
E59LXLIFT
 62
1
 10
5011.881
 20
-9521.755
 30
-651.000
 70
    32
  0
VERTEX
  8
E59LXLIFT
 62
1
 10
5021.019
 20
-9519.413
 30
-651.000
 70
    32
  0
VERTEX
  8
E59LXLIFT
 62
1
 10
5027.615
 20
-9522.943
 30
-651.000
 70
    32
  0
VERTEX
  8
E59LXLIFT
 62
1
 10
5030.632
 20
-9531.371
 30
-651.000
 70
    32
  0
VERTEX
  8
E59LXLIFT
 62
1
 10
5034.580
 20
-9536.621
 30
-651.000
 70
    32
  0
VERTEX
  8
E59LXLIFT
 62
1
 10
5045.282
 20
-9541.165
 30
-651.000
 70
    32
  0
VERTEX
  8
E59LXLIFT
 62
1
 10
5057.918
 20
-9549.393
 30
-651.000
 70
    32
  0
VERTEX
  8
E59LXLIFT
 62
1
 10
5068.411
 20
-9555.283
 30
-651.000
 70
    32
  0
VERTEX
  8
E59LXLIFT
 62
1
 10
5079.113
 20
-9562.647
 30
-651.000
 70
    32
  0
VERTEX
  8
E59LXLIFT
 62
1
 10
5093.179
 20
-9568.527
 30
-651.000
 70
    32
  0
VERTEX
  8
E59LXLIFT
 62
1
 10
5100.552
 20
-9565.848
 30
-651.000
 70
    32
  0
VERTEX
  8
E59LXLIFT
 62
1
 10
5109.754
 20
-9561.071
 30
-651.000
 70
    32
  0
VERTEX
  8
E59LXLIFT
 62
1
 10
5109.855
 20
-9555.572
 30
-651.000
 70
    32
  0
VERTEX
  8
E59LXLIFT
 62
1
 10
5107.346
 20
-9544.278
 30
-651.000
 70
    32
  0
VERTEX
  8
E59LXLIFT
 62
1
 10
5101.350
 20
-9527.178
 30
-651.000
 70
    32
  0
VERTEX
  8
E59LXLIFT
 62
1
 10
5107.259
 20
-9523.833
 30
-651.000
 70
    32
  0
VERTEX
  8
E59LXLIFT
 62
1
 10
5112.024
 20
-9531.090
 30
-651.000
 70
    32
  0
VERTEX
  8
E59LXLIFT
 62
1
 10
5115.741
 20
-9541.068
 30
-651.000
 70
    32
  0
VERTEX
  8
E59LXLIFT
 62
1
 10
5121.214
 20
-9543.359
 30
-651.000
 70
    32
  0
VERTEX
  8
E59LXLIFT
 62
1
 10
5126.852
 20
-9537.716
 30
-651.000
 70
    32
  0
VERTEX
  8
E59LXLIFT
 62
1
 10
5135.782
 20
-9532.270
 30
-651.000
 70
    32
  0
VERTEX
  8
E59LXLIFT
 62
1
 10
5145.706
 20
-9530.112
 30
-651.000
 70
    32
  0
VERTEX
  8
E59LXLIFT
 62
1
 10
5150.147
 20
-9536.630
 30
-651.000
 70
    32
  0
VERTEX
  8
E59LXLIFT
 62
1
 10
5144.334
 20
-9542.183
 30
-651.000
 70
    32
  0
VERTEX
  8
E59LXLIFT
 62
1
 10
5135.419
 20
-9550.765
 30
-651.000
 70
    32
  0
VERTEX
  8
E59LXLIFT
 62
1
 10
5130.385
 20
-9558.570
 30
-651.000
 70
    32
  0
VERTEX
  8
E59LXLIFT
 62
1
 10
5131.740
 20
-9566.802
 30
-651.000
 70
    32
  0
VERTEX
  8
E59LXLIFT
 62
1
 10
5135.894
 20
-9569.515
 30
-651.000
 70
    32
  0
VERTEX
  8
E59LXLIFT
 62
1
 10
5132.611
 20
-9577.341
 30
-651.000
 70
    32
  0
VERTEX
  8
E59LXLIFT
 62
1
 10
5125.732
 20
-9574.017
 30
-651.000
 70
    32
  0
VERTEX
  8
E59LXLIFT
 62
1
 10
5121.841
 20
-9578.490
 30
-651.000
 70
    32
  0
VERTEX
  8
E59LXLIFT
 62
1
 10
5118.017
 20
-9586.169
 30
-651.000
 70
    32
  0
SEQEND
  8
E59LXLIFT
  0
POLYLINE
  8
E59LXLIFT
 62
4
 66
     1
 70
     9
  0
VERTEX
  8
E59LXLIFT
 62
4
 10
5113.613
 20
-9597.246
 30
-671.521
 70
    32
  0
VERTEX
  8
E59LXLIFT
 62
4
 10
5080.436
 20
-9577.327
 30
-671.679
 70
    32
  0
VERTEX
  8
E59LXLIFT
 62
4
 10
5077.944
 20
-9577.191
 30
-671.685
 70
    32
  0
VERTEX
  8
E59LXLIFT
 62
4
 10
5076.932
 20
-9580.998
 30
-671.670
 70
    32
  0
VERTEX
  8
E59LXLIFT
 62
4
 10
5065.977
 20
-9580.384
 30
-671.696
 70
    32
  0
VERTEX
  8
E59LXLIFT
 62
4
 10
5065.411
 20
-9572.727
 30
-671.731
 70
    32
  0
VERTEX
  8
E59LXLIFT
 62
4
 10
5057.821
 20
-9563.400
 30
-671.788
 70
    32
  0
VERTEX
  8
E59LXLIFT
 62
4
 10
5050.311
 20
-9558.602
 30
-671.825
 70
    32
  0
VERTEX
  8
E59LXLIFT
 62
4
 10
5045.112
 20
-9558.050
 30
-671.838
 70
    32
  0
VERTEX
  8
E59LXLIFT
 62
4
 10
5041.634
 20
-9559.435
 30
-671.840
 70
    32
  0
VERTEX
  8
E59LXLIFT
 62
4
 10
5033.377
 20
-9555.927
 30
-671.873
 70
    32
  0
VERTEX
  8
E59LXLIFT
 62
4
 10
5030.938
 20
-9551.679
 30
-671.897
 70
    32
  0
VERTEX
  8
E59LXLIFT
 62
4
 10
5016.352
 20
-9545.712
 30
-671.954
 70
    32
  0
VERTEX
  8
E59LXLIFT
 62
4
 10
5006.666
 20
-9544.099
 30
-671.982
 70
    32
  0
VERTEX
  8
E59LXLIFT
 62
4
 10
5000.016
 20
-9547.713
 30
-671.980
 70
    32
  0
VERTEX
  8
E59LXLIFT
 62
4
 10
4991.254
 20
-9542.307
 30
-672.023
 70
    32
  0
VERTEX
  8
E59LXLIFT
 62
4
 10
4987.099
 20
-9525.860
 30
-672.103
 70
    32
  0
VERTEX
  8
E59LXLIFT
 62
4
 10
4987.858
 20
-9520.972
 30
-672.123
 70
    32
  0
VERTEX
  8
E59LXLIFT
 62
4
 10
4989.540
 20
-9511.543
 30
-672.160
 70
    32
  0
VERTEX
  8
E59LXLIFT
 62
4
 10
4994.841
 20
-9508.634
 30
-672.161
 70
    32
  0
VERTEX
  8
E59LXLIFT
 62
4
 10
5001.817
 20
-9513.427
 30
-672.126
 70
    32
  0
VERTEX
  8
E59LXLIFT
 62
4
 10
5002.232
 20
-9519.319
 30
-672.099
 70
    32
  0
VERTEX
  8
E59LXLIFT
 62
4
 10
5089.188
 20
-9572.599
 30
-671.680
 70
    32
  0
VERTEX
  8
E59LXLIFT
 62
4
 10
5110.480
 20
-9560.836
 30
-671.686
 70
    32
  0
VERTEX
  8
E59LXLIFT
 62
4
 10
5108.146
 20
-9550.961
 30
-671.734
 70
    32
  0
VERTEX
  8
E59LXLIFT
 62
4
 10
5098.746
 20
-9527.672
 30
-671.856
 70
    32
  0
VERTEX
  8
E59LXLIFT
 62
4
 10
5103.231
 20
-9526.175
 30
-671.853
 70
    32
  0
VERTEX
  8
E59LXLIFT
 62
4
 10
5109.941
 20
-9532.700
 30
-671.810
 70
    32
  0
VERTEX
  8
E59LXLIFT
 62
4
 10
5111.517
 20
-9540.557
 30
-671.772
 70
    32
  0
VERTEX
  8
E59LXLIFT
 62
4
 10
5115.473
 20
-9543.682
 30
-671.750
 70
    32
  0
VERTEX
  8
E59LXLIFT
 62
4
 10
5121.614
 20
-9544.242
 30
-671.734
 70
    32
  0
VERTEX
  8
E59LXLIFT
 62
4
 10
5128.595
 20
-9527.847
 30
-671.791
 70
    32
  0
VERTEX
  8
E59LXLIFT
 62
4
 10
5143.474
 20
-9521.621
 30
-671.786
 70
    32
  0
VERTEX
  8
E59LXLIFT
 62
4
 10
5152.254
 20
-9525.422
 30
-671.751
 70
    32
  0
VERTEX
  8
E59LXLIFT
 62
4
 10
5156.650
 20
-9531.950
 30
-671.713
 70
    32
  0
VERTEX
  8
E59LXLIFT
 62
4
 10
5150.403
 20
-9537.015
 30
-671.704
 70
    32
  0
VERTEX
  8
E59LXLIFT
 62
4
 10
5147.028
 20
-9549.111
 30
-671.659
 70
    32
  0
VERTEX
  8
E59LXLIFT
 62
4
 10
5133.944
 20
-9552.566
 30
-671.672
 70
    32
  0
VERTEX
  8
E59LXLIFT
 62
4
 10
5129.590
 20
-9557.782
 30
-671.658
 70
    32
  0
VERTEX
  8
E59LXLIFT
 62
4
 10
5129.884
 20
-9567.706
 30
-671.614
 70
    32
  0
VERTEX
  8
E59LXLIFT
 62
4
 10
5135.302
 20
-9573.364
 30
-671.578
 70
    32
  0
VERTEX
  8
E59LXLIFT
 62
4
 10
5129.739
 20
-9579.391
 30
-671.564
 70
    32
  0
VERTEX
  8
E59LXLIFT
 62
4
 10
5124.044
 20
-9576.536
 30
-671.589
 70
    32
  0
VERTEX
  8
E59LXLIFT
 62
4
 10
5120.255
 20
-9579.082
 30
-671.586
 70
    32
  0
VERTEX
  8
E59LXLIFT
 62
4
 10
5116.451
 20
-9585.548
 30
-671.566
 70
    32
  0
VERTEX
  8
E59LXLIFT
 62
4
 10
5117.654
 20
-9590.040
 30
-671.543
 70
    32
  0
SEQEND
  8
E59LXLIFT
  0
POLYLINE
  8
E59LXLIFT
 62
3
 66
     1
 70
     9
  0
VERTEX
  8
E59LXLIFT
 62
3
 10
6341.946
 20
-10401.331
 30
-671.782
 70
    32
  0
VERTEX
  8
E59LXLIFT
 62
3
 10
6339.533
 20
-10411.255
 30
-671.779
 70
    32
  0
VERTEX
  8
E59LXLIFT
 62
3
 10
6332.333
 20
-10421.914
 30
-671.774
 70
    32
  0
VERTEX
  8
E59LXLIFT
 62
3
 10
6332.333
 20
-10421.914
 30
-671.774
 70
    32
  0
VERTEX
  8
E59LXLIFT
 62
3
 10
6325.217
 20
-10419.441
 30
-671.773
 70
    32
  0
VERTEX
  8
E59LXLIFT
 62
3
 10
6315.006
 20
-10404.774
 30
-671.776
 70
    32
  0
VERTEX
  8
E59LXLIFT
 62
3
 10
6332.738
 20
-10391.696
 30
-671.783
 70
    32
  0
VERTEX
  8
E59LXLIFT
 62
3
 10
6332.461
 20
-10388.082
 30
-671.784
 70
    32
  0
VERTEX
  8
E59LXLIFT
 62
3
 10
6281.374
 20
-10316.865
 30
-671.789
 70
    32
  0
VERTEX
  8
E59LXLIFT
 62
3
 10
6286.602
 20
-10310.153
 30
-671.796
 70
    32
  0
VERTEX
  8
E59LXLIFT
 62
3
 10
6296.965
 20
-10307.319
 30
-671.794
 70
    32
  0
VERTEX
  8
E59LXLIFT
 62
3
 10
6303.674
 20
-10308.057
 30
-671.793
 70
    32
  0
VERTEX
  8
E59LXLIFT
 62
3
 10
6323.513
 20
-10315.103
 30
-671.789
 70
    32
  0
VERTEX
  8
E59LXLIFT
 62
3
 10
6332.709
 20
-10322.004
 30
-671.787
 70
    32
  0
VERTEX
  8
E59LXLIFT
 62
3
 10
6334.464
 20
-10328.017
 30
-671.787
 70
    32
  0
VERTEX
  8
E59LXLIFT
 62
3
 10
6336.643
 20
-10364.545
 30
-671.786
 70
    32
  0
VERTEX
  8
E59LXLIFT
 62
3
 10
6341.741
 20
-10376.260
 30
-671.785
 70
    32
  0
VERTEX
  8
E59LXLIFT
 62
3
 10
6344.915
 20
-10392.410
 30
-671.784
 70
    32
  0
SEQEND
  8
E59LXLIFT
  0
POLYLINE
  8
E59LXLIFT
 62
13
 66
     1
 70
     9
  0
VERTEX
  8
E59LXLIFT
 62
13
 10
5869.783
 20
-9915.541
 30
-671.070
 70
    32
  0
VERTEX
  8
E59LXLIFT
 62
13
 10
5858.188
 20
-9915.708
 30
-671.044
 70
    32
  0
VERTEX
  8
E59LXLIFT
 62
13
 10
5853.592
 20
-9911.782
 30
-671.021
 70
    32
  0
VERTEX
  8
E59LXLIFT
 62
13
 10
5843.826
 20
-9895.871
 30
-671.000
 70
    32
  0
VERTEX
  8
E59LXLIFT
 62
13
 10
5841.460
 20
-9873.598
 30
-671.085
 70
    32
  0
VERTEX
  8
E59LXLIFT
 62
13
 10
5832.544
 20
-9858.814
 30
-671.096
 70
    32
  0
VERTEX
  8
E59LXLIFT
 62
13
 10
5833.041
 20
-9856.693
 30
-671.109
 70
    32
  0
VERTEX
  8
E59LXLIFT
 62
13
 10
5843.696
 20
-9848.710
 30
-671.208
 70
    32
  0
VERTEX
  8
E59LXLIFT
 62
13
 10
5868.383
 20
-9846.965
 30
-671.365
 70
    32
  0
VERTEX
  8
E59LXLIFT
 62
13
 10
5882.081
 20
-9857.011
 30
-671.403
 70
    32
  0
VERTEX
  8
E59LXLIFT
 62
13
 10
5887.616
 20
-9869.070
 30
-671.383
 70
    32
  0
VERTEX
  8
E59LXLIFT
 62
13
 10
5887.799
 20
-9882.765
 30
-671.324
 70
    32
  0
VERTEX
  8
E59LXLIFT
 62
13
 10
5874.522
 20
-9903.869
 30
-671.150
 70
    32
  0
SEQEND
  8
E59LXLIFT
  0
POLYLINE
  8
E59LXLIFT
 62
6
 66
     1
 70
     9
  0
VERTEX
  8
E59LXLIFT
 62
6
 10
5977.637
 20
-10013.310
 30
-671.615
 70
    32
  0
VERTEX
  8
E59LXLIFT
 62
6
 10
5968.654
 20
-10000.762
 30
-671.558
 70
    32
  0
VERTEX
  8
E59LXLIFT
 62
6
 10
5959.221
 20
-9992.225
 30
-671.510
 70
    32
  0
VERTEX
  8
E59LXLIFT
 62
6
 10
5948.503
 20
-9987.173
 30
-671.471
 70
    32
  0
VERTEX
  8
E59LXLIFT
 62
6
 10
5937.331
 20
-9974.405
 30
-671.405
 70
    32
  0
VERTEX
  8
E59LXLIFT
 62
6
 10
5933.391
 20
-9965.721
 30
-671.368
 70
    32
  0
VERTEX
  8
E59LXLIFT
 62
6
 10
5935.414
 20
-9955.527
 30
-671.338
 70
    32
  0
VERTEX
  8
E59LXLIFT
 62
6
 10
5929.372
 20
-9951.475
 30
-671.312
 70
    32
  0
VERTEX
  8
E59LXLIFT
 62
6
 10
5926.117
 20
-9944.907
 30
-671.283
 70
    32
  0
VERTEX
  8
E59LXLIFT
 62
6
 10
5935.678
 20
-9937.982
 30
-671.371
 70
    32
  0
VERTEX
  8
E59LXLIFT
 62
6
 10
5944.613
 20
-9931.510
 30
-671.453
 70
    32
  0
VERTEX
  8
E59LXLIFT
 62
6
 10
5955.428
 20
-9945.267
 30
-671.455
 70
    32
  0
VERTEX
  8
E59LXLIFT
 62
6
 10
5965.138
 20
-9946.555
 30
-671.508
 70
    32
  0
VERTEX
  8
E59LXLIFT
 62
6
 10
5972.105
 20
-9949.760
 30
-671.536
 70
    32
  0
VERTEX
  8
E59LXLIFT
 62
6
 10
5972.974
 20
-9957.307
 30
-671.508
 70
    32
  0
VERTEX
  8
E59LXLIFT
 62
6
 10
5970.168
 20
-9967.913
 30
-671.452
 70
    32
  0
VERTEX
  8
E59LXLIFT
 62
6
 10
5972.130
 20
-9982.226
 30
-671.504
 70
    32
  0
VERTEX
  8
E59LXLIFT
 62
6
 10
5985.364
 20
-9986.777
 30
-671.547
 70
    32
  0
VERTEX
  8
E59LXLIFT
 62
6
 10
5983.117
 20
-10008.932
 30
-671.616
 70
    32
  0
SEQEND
  8
E59LXLIFT
  0
POLYLINE
  8
E59LXLIFT
 62
7
 66
     1
 70
     9
  0
VERTEX
  8
E59LXLIFT
 62
7
 10
5421.554
 20
-9560.505
 30
-646.000
 70
    32
  0
VERTEX
  8
E59LXLIFT
 62
7
 10
5424.472
 20
-9572.314
 30
-646.000
 70
    32
  0
VERTEX
  8
E59LXLIFT
 62
7
 10
5428.148
 20
-9587.818
 30
-646.000
 70
    32
  0
VERTEX
  8
E59LXLIFT
 62
7
 10
5431.299
 20
-9607.198
 30
-646.000
 70
    32
  0
VERTEX
  8
E59LXLIFT
 62
7
 10
5430.016
 20
-9625.591
 30
-646.000
 70
    32
  0
VERTEX
  8
E59LXLIFT
 62
7
 10
5424.725
 20
-9644.319
 30
-646.000
 70
    32
  0
VERTEX
  8
E59LXLIFT
 62
7
 10
5411.099
 20
-9656.318
 30
-646.000
 70
    32
  0
VERTEX
  8
E59LXLIFT
 62
7
 10
5404.035
 20
-9650.725
 30
-646.000
 70
    32
  0
VERTEX
  8
E59LXLIFT
 62
7
 10
5394.605
 20
-9640.440
 30
-646.000
 70
    32
  0
VERTEX
  8
E59LXLIFT
 62
7
 10
5386.390
 20
-9623.808
 30
-646.000
 70
    32
  0
VERTEX
  8
E59LXLIFT
 62
7
 10
5397.479
 20
-9614.878
 30
-646.000
 70
    32
  0
VERTEX
  8
E59LXLIFT
 62
7
 10
5401.759
 20
-9605.291
 30
-646.000
 70
    32
  0
VERTEX
  8
E59LXLIFT
 62
7
 10
5397.848
 20
-9592.577
 30
-646.000
 70
    32
  0
VERTEX
  8
E59LXLIFT
 62
7
 10
5391.569
 20
-9585.533
 30
-646.000
 70
    32
  0
VERTEX
  8
E59LXLIFT
 62
7
 10
5377.334
 20
-9570.500
 30
-646.000
 70
    32
  0
VERTEX
  8
E59LXLIFT
 62
7
 10
5376.704
 20
-9562.240
 30
-646.000
 70
    32
  0
VERTEX
  8
E59LXLIFT
 62
7
 10
5382.732
 20
-9553.547
 30
-646.000
 70
    32
  0
VERTEX
  8
E59LXLIFT
 62
7
 10
5384.635
 20
-9544.730
 30
-646.000
 70
    32
  0
VERTEX
  8
E59LXLIFT
 62
7
 10
5389.788
 20
-9543.879
 30
-646.000
 70
    32
  0
VERTEX
  8
E59LXLIFT
 62
7
 10
5402.783
 20
-9545.976
 30
-646.000
 70
    32
  0
VERTEX
  8
E59LXLIFT
 62
7
 10
5413.855
 20
-9547.091
 30
-646.000
 70
    32
  0
SEQEND
  8
E59LXLIFT
  0
POLYLINE
  8
E59LXLIFT
 62
13
 66
     1
 70
     9
  0
VERTEX
  8
E59LXLIFT
 62
13
 10
5483.586
 20
-9619.215
 30
-670.520
 70
    32
  0
VERTEX
  8
E59LXLIFT
 62
13
 10
5472.223
 20
-9613.606
 30
-670.565
 70
    32
  0
VERTEX
  8
E59LXLIFT
 62
13
 10
5469.063
 20
-9595.570
 30
-670.731
 70
    32
  0
VERTEX
  8
E59LXLIFT
 62
13
 10
5463.825
 20
-9583.946
 30
-670.835
 70
    32
  0
VERTEX
  8
E59LXLIFT
 62
13
 10
5458.879
 20
-9578.579
 30
-670.882
 70
    32
  0
VERTEX
  8
E59LXLIFT
 62
13
 10
5448.287
 20
-9580.832
 30
-670.853
 70
    32
  0
VERTEX
  8
E59LXLIFT
 62
13
 10
5443.357
 20
-9578.255
 30
-670.874
 70
    32
  0
VERTEX
  8
E59LXLIFT
 62
13
 10
5440.463
 20
-9571.666
 30
-670.933
 70
    32
  0
VERTEX
  8
E59LXLIFT
 62
13
 10
5439.079
 20
-9564.773
 30
-670.997
 70
    32
  0
VERTEX
  8
E59LXLIFT
 62
13
 10
5454.548
 20
-9559.641
 30
-671.055
 70
    32
  0
VERTEX
  8
E59LXLIFT
 62
13
 10
5467.727
 20
-9554.930
 30
-671.108
 70
    32
  0
VERTEX
  8
E59LXLIFT
 62
13
 10
5470.178
 20
-9558.275
 30
-671.079
 70
    32
  0
VERTEX
  8
E59LXLIFT
 62
13
 10
5484.881
 20
-9566.498
 30
-671.012
 70
    32
  0
VERTEX
  8
E59LXLIFT
 62
13
 10
5491.202
 20
-9576.286
 30
-670.926
 70
    32
  0
VERTEX
  8
E59LXLIFT
 62
13
 10
5492.683
 20
-9589.466
 30
-670.804
 70
    32
  0
VERTEX
  8
E59LXLIFT
 62
13
 10
5488.333
 20
-9603.394
 30
-670.671
 70
    32
  0
VERTEX
  8
E59LXLIFT
 62
13
 10
5489.343
 20
-9615.288
 30
-670.561
 70
    32
  0
SEQEND
  8
E59LXLIFT
  0
POLYLINE
  8
E59LXLIFT
 62
7
 66
     1
 70
     9
  0
VERTEX
  8
E59LXLIFT
 62
7
 10
5426.066
 20
-9553.427
 30
-671.093
 70
    32
  0
VERTEX
  8
E59LXLIFT
 62
7
 10
5420.318
 20
-9560.902
 30
-671.020
 70
    32
  0
VERTEX
  8
E59LXLIFT
 62
7
 10
5408.187
 20
-9566.494
 30
-670.959
 70
    32
  0
VERTEX
  8
E59LXLIFT
 62
7
 10
5413.868
 20
-9581.363
 30
-670.825
 70
    32
  0
VERTEX
  8
E59LXLIFT
 62
7
 10
5420.781
 20
-9591.383
 30
-670.736
 70
    32
  0
VERTEX
  8
E59LXLIFT
 62
7
 10
5427.300
 20
-9605.449
 30
-670.610
 70
    32
  0
VERTEX
  8
E59LXLIFT
 62
7
 10
5426.763
 20
-9614.981
 30
-670.520
 70
    32
  0
VERTEX
  8
E59LXLIFT
 62
7
 10
5424.273
 20
-9621.573
 30
-670.491
 70
    32
  0
VERTEX
  8
E59LXLIFT
 62
7
 10
5416.293
 20
-9630.935
 30
-670.609
 70
    32
  0
VERTEX
  8
E59LXLIFT
 62
7
 10
5412.475
 20
-9640.396
 30
-670.688
 70
    32
  0
VERTEX
  8
E59LXLIFT
 62
7
 10
5403.399
 20
-9656.100
 30
-670.643
 70
    32
  0
VERTEX
  8
E59LXLIFT
 62
7
 10
5397.543
 20
-9657.940
 30
-670.647
 70
    32
  0
VERTEX
  8
E59LXLIFT
 62
7
 10
5394.801
 20
-9657.310
 30
-670.656
 70
    32
  0
VERTEX
  8
E59LXLIFT
 62
7
 10
5388.293
 20
-9652.979
 30
-670.689
 70
    32
  0
VERTEX
  8
E59LXLIFT
 62
7
 10
5385.413
 20
-9648.093
 30
-670.716
 70
    32
  0
VERTEX
  8
E59LXLIFT
 62
7
 10
5393.288
 20
-9604.179
 30
-670.701
 70
    32
  0
VERTEX
  8
E59LXLIFT
 62
7
 10
5392.758
 20
-9601.187
 30
-670.692
 70
    32
  0
VERTEX
  8
E59LXLIFT
 62
7
 10
5380.965
 20
-9584.128
 30
-670.776
 70
    32
  0
VERTEX
  8
E59LXLIFT
 62
7
 10
5380.994
 20
-9578.873
 30
-670.825
 70
    32
  0
VERTEX
  8
E59LXLIFT
 62
7
 10
5376.762
 20
-9570.528
 30
-670.900
 70
    32
  0
VERTEX
  8
E59LXLIFT
 62
7
 10
5379.912
 20
-9555.503
 30
-671.042
 70
    32
  0
VERTEX
  8
E59LXLIFT
 62
7
 10
5376.781
 20
-9537.663
 30
-671.206
 70
    32
  0
VERTEX
  8
E59LXLIFT
 62
7
 10
5382.091
 20
-9534.481
 30
-671.240
 70
    32
  0
VERTEX
  8
E59LXLIFT
 62
7
 10
5385.519
 20
-9540.910
 30
-671.182
 70
    32
  0
VERTEX
  8
E59LXLIFT
 62
7
 10
5394.831
 20
-9547.742
 30
-671.125
 70
    32
  0
VERTEX
  8
E59LXLIFT
 62
7
 10
5416.767
 20
-9541.848
 30
-671.195
 70
    32
  0
VERTEX
  8
E59LXLIFT
 62
7
 10
5424.993
 20
-9547.285
 30
-671.150
 70
    32
  0
SEQEND
  8
E59LXLIFT
  0
POLYLINE
  8
E59LXLIFT
 62
11
 66
     1
 70
     9
  0
VERTEX
  8
E59LXLIFT
 62
11
 10
5894.611
 20
-10029.185
 30
-671.499
 70
    32
  0
VERTEX
  8
E59LXLIFT
 62
11
 10
5885.493
 20
-10026.557
 30
-671.471
 70
    32
  0
VERTEX
  8
E59LXLIFT
 62
11
 10
5879.191
 20
-10021.964
 30
-671.442
 70
    32
  0
VERTEX
  8
E59LXLIFT
 62
11
 10
5868.998
 20
-10003.488
 30
-671.359
 70
    32
  0
VERTEX
  8
E59LXLIFT
 62
11
 10
5860.850
 20
-9996.739
 30
-671.320
 70
    32
  0
VERTEX
  8
E59LXLIFT
 62
11
 10
5854.616
 20
-9988.094
 30
-671.278
 70
    32
  0
VERTEX
  8
E59LXLIFT
 62
11
 10
5860.153
 20
-9978.110
 30
-671.256
 70
    32
  0
VERTEX
  8
E59LXLIFT
 62
11
 10
5855.963
 20
-9976.236
 30
-671.241
 70
    32
  0
VERTEX
  8
E59LXLIFT
 62
11
 10
5845.803
 20
-9961.007
 30
-671.169
 70
    32
  0
VERTEX
  8
E59LXLIFT
 62
11
 10
5845.808
 20
-9954.465
 30
-671.147
 70
    32
  0
VERTEX
  8
E59LXLIFT
 62
11
 10
5846.315
 20
-9944.850
 30
-671.116
 70
    32
  0
VERTEX
  8
E59LXLIFT
 62
11
 10
5842.628
 20
-9939.443
 30
-671.091
 70
    32
  0
VERTEX
  8
E59LXLIFT
 62
11
 10
5843.801
 20
-9933.854
 30
-671.074
 70
    32
  0
VERTEX
  8
E59LXLIFT
 62
11
 10
5855.662
 20
-9928.976
 30
-671.083
 70
    32
  0
VERTEX
  8
E59LXLIFT
 62
11
 10
5862.478
 20
-9933.230
 30
-671.111
 70
    32
  0
VERTEX
  8
E59LXLIFT
 62
11
 10
5876.777
 20
-9940.031
 30
-671.164
 70
    32
  0
VERTEX
  8
E59LXLIFT
 62
11
 10
5879.305
 20
-9947.854
 30
-671.195
 70
    32
  0
VERTEX
  8
E59LXLIFT
 62
11
 10
5892.091
 20
-9954.283
 30
-671.243
 70
    32
  0
VERTEX
  8
E59LXLIFT
 62
11
 10
5896.322
 20
-9963.407
 30
-671.283
 70
    32
  0
VERTEX
  8
E59LXLIFT
 62
11
 10
5901.995
 20
-9966.728
 30
-671.306
 70
    32
  0
VERTEX
  8
E59LXLIFT
 62
11
 10
5902.827
 20
-9971.662
 30
-671.324
 70
    32
  0
VERTEX
  8
E59LXLIFT
 62
11
 10
5917.931
 20
-10000.290
 30
-671.451
 70
    32
  0
VERTEX
  8
E59LXLIFT
 62
11
 10
5914.212
 20
-10007.597
 30
-671.468
 70
    32
  0
VERTEX
  8
E59LXLIFT
 62
11
 10
5917.419
 20
-10016.448
 30
-671.504
 70
    32
  0
VERTEX
  8
E59LXLIFT
 62
11
 10
5906.360
 20
-10022.061
 30
-671.499
 70
    32
  0
VERTEX
  8
E59LXLIFT
 62
11
 10
5903.856
 20
-10025.297
 30
-671.505
 70
    32
  0
SEQEND
  8
E59LXLIFT
  0
POLYLINE
  8
E59LXLIFT
 62
2
 66
     1
 70
     9
  0
VERTEX
  8
E59LXLIFT
 62
2
 10
3819.060
 20
-8534.491
 30
-668.188
 70
    32
  0
VERTEX
  8
E59LXLIFT
 62
2
 10
3819.121
 20
-8527.865
 30
-668.149
 70
    32
  0
VERTEX
  8
E59LXLIFT
 62
2
 10
3814.825
 20
-8521.945
 30
-668.111
 70
    32
  0
VERTEX
  8
E59LXLIFT
 62
2
 10
3775.945
 20
-8526.031
 30
-668.101
 70
    32
  0
VERTEX
  8
E59LXLIFT
 62
2
 10
3771.976
 20
-8520.421
 30
-668.065
 70
    32
  0
VERTEX
  8
E59LXLIFT
 62
2
 10
3780.586
 20
-8514.437
 30
-668.038
 70
    32
  0
VERTEX
  8
E59LXLIFT
 62
2
 10
3791.568
 20
-8500.515
 30
-667.967
 70
    32
  0
VERTEX
  8
E59LXLIFT
 62
2
 10
3795.778
 20
-8498.076
 30
-667.956
 70
    32
  0
VERTEX
  8
E59LXLIFT
 62
2
 10
3819.168
 20
-8496.962
 30
-667.970
 70
    32
  0
VERTEX
  8
E59LXLIFT
 62
2
 10
3858.056
 20
-8481.753
 30
-667.916
 70
    32
  0
VERTEX
  8
E59LXLIFT
 62
2
 10
3877.629
 20
-8491.111
 30
-667.987
 70
    32
  0
VERTEX
  8
E59LXLIFT
 62
2
 10
3889.580
 20
-8496.255
 30
-668.027
 70
    32
  0
VERTEX
  8
E59LXLIFT
 62
2
 10
3890.640
 20
-8517.739
 30
-668.153
 70
    32
  0
VERTEX
  8
E59LXLIFT
 62
2
 10
3906.606
 20
-8520.474
 30
-668.183
 70
    32
  0
VERTEX
  8
E59LXLIFT
 62
2
 10
3909.829
 20
-8532.657
 30
-668.256
 70
    32
  0
VERTEX
  8
E59LXLIFT
 62
2
 10
3899.319
 20
-8539.770
 30
-668.288
 70
    32
  0
VERTEX
  8
E59LXLIFT
 62
2
 10
3883.633
 20
-8538.347
 30
-668.266
 70
    32
  0
VERTEX
  8
E59LXLIFT
 62
2
 10
3872.158
 20
-8534.485
 30
-668.234
 70
    32
  0
VERTEX
  8
E59LXLIFT
 62
2
 10
3859.054
 20
-8535.337
 30
-668.227
 70
    32
  0
VERTEX
  8
E59LXLIFT
 62
2
 10
3857.196
 20
-8531.795
 30
-668.205
 70
    32
  0
VERTEX
  8
E59LXLIFT
 62
2
 10
3830.584
 20
-8536.592
 30
-668.210
 70
    32
  0
SEQEND
  8
E59LXLIFT
  0
POLYLINE
  8
E59LXLIFT
 62
3
 66
     1
 70
     9
  0
VERTEX
  8
E59LXLIFT
 62
3
 10
3893.352
 20
-8981.984
 30
-669.847
 70
    32
  0
VERTEX
  8
E59LXLIFT
 62
3
 10
3909.150
 20
-8990.126
 30
-669.892
 70
    32
  0
VERTEX
  8
E59LXLIFT
 62
3
 10
3919.490
 20
-8993.604
 30
-669.916
 70
    32
  0
VERTEX
  8
E59LXLIFT
 62
3
 10
3928.299
 20
-8991.257
 30
-669.919
 70
    32
  0
VERTEX
  8
E59LXLIFT
 62
3
 10
3933.825
 20
-8999.220
 30
-669.952
 70
    32
  0
VERTEX
  8
E59LXLIFT
 62
3
 10
3926.279
 20
-9014.489
 30
-669.991
 70
    32
  0
VERTEX
  8
E59LXLIFT
 62
3
 10
3923.304
 20
-9015.623
 30
-669.991
 70
    32
  0
VERTEX
  8
E59LXLIFT
 62
3
 10
3913.931
 20
-9013.512
 30
-669.973
 70
    32
  0
VERTEX
  8
E59LXLIFT
 62
3
 10
3903.451
 20
-9002.361
 30
-669.924
 70
    32
  0
VERTEX
  8
E59LXLIFT
 62
3
 10
3897.063
 20
-9003.859
 30
-669.921
 70
    32
  0
VERTEX
  8
E59LXLIFT
 62
3
 10
3891.994
 20
-9015.000
 30
-669.951
 70
    32
  0
VERTEX
  8
E59LXLIFT
 62
3
 10
3886.402
 20
-9035.471
 30
-669.959
 70
    32
  0
VERTEX
  8
E59LXLIFT
 62
3
 10
3853.927
 20
-9057.152
 30
-669.877
 70
    32
  0
VERTEX
  8
E59LXLIFT
 62
3
 10
3822.402
 20
-9045.241
 30
-669.762
 70
    32
  0
VERTEX
  8
E59LXLIFT
 62
3
 10
3811.494
 20
-9017.772
 30
-669.697
 70
    32
  0
VERTEX
  8
E59LXLIFT
 62
3
 10
3808.860
 20
-9009.166
 30
-669.680
 70
    32
  0
VERTEX
  8
E59LXLIFT
 62
3
 10
3800.821
 20
-8995.210
 30
-669.639
 70
    32
  0
VERTEX
  8
E59LXLIFT
 62
3
 10
3808.787
 20
-8988.926
 30
-669.658
 70
    32
  0
VERTEX
  8
E59LXLIFT
 62
3
 10
3818.480
 20
-9001.712
 30
-669.703
 70
    32
  0
VERTEX
  8
E59LXLIFT
 62
3
 10
3825.149
 20
-9006.552
 30
-669.730
 70
    32
  0
VERTEX
  8
E59LXLIFT
 62
3
 10
3838.826
 20
-9012.925
 30
-669.781
 70
    32
  0
VERTEX
  8
E59LXLIFT
 62
3
 10
3861.783
 20
-8998.273
 30
-669.840
 70
    32
  0
VERTEX
  8
E59LXLIFT
 62
3
 10
3879.731
 20
-8998.315
 30
-669.882
 70
    32
  0
VERTEX
  8
E59LXLIFT
 62
3
 10
3886.934
 20
-8982.066
 30
-669.839
 70
    32
  0
SEQEND
  8
E59LXLIFT
  0
POLYLINE
  8
E59LXLIFT
 62
1
 66
     1
 70
     9
  0
VERTEX
  8
E59LXLIFT
 62
1
 10
3641.035
 20
-8478.157
 30
-517.000
 70
    32
  0
VERTEX
  8
E59LXLIFT
 62
1
 10
3639.475
 20
-8470.661
 30
-517.000
 70
    32
  0
VERTEX
  8
E59LXLIFT
 62
1
 10
3622.376
 20
-8474.485
 30
-517.000
 70
    32
  0
VERTEX
  8
E59LXLIFT
 62
1
 10
3616.970
 20
-8469.761
 30
-517.000
 70
    32
  0
VERTEX
  8
E59LXLIFT
 62
1
 10
3603.944
 20
-8474.042
 30
-517.000
 70
    32
  0
VERTEX
  8
E59LXLIFT
 62
1
 10
3597.433
 20
-8467.844
 30
-517.000
 70
    32
  0
VERTEX
  8
E59LXLIFT
 62
1
 10
3607.089
 20
-8459.946
 30
-517.000
 70
    32
  0
VERTEX
  8
E59LXLIFT
 62
1
 10
3607.599
 20
-8454.628
 30
-517.000
 70
    32
  0
VERTEX
  8
E59LXLIFT
 62
1
 10
3611.552
 20
-8442.340
 30
-517.000
 70
    32
  0
VERTEX
  8
E59LXLIFT
 62
1
 10
3628.214
 20
-8427.984
 30
-517.000
 70
    32
  0
VERTEX
  8
E59LXLIFT
 62
1
 10
3638.184
 20
-8429.724
 30
-517.000
 70
    32
  0
VERTEX
  8
E59LXLIFT
 62
1
 10
3651.666
 20
-8429.710
 30
-517.000
 70
    32
  0
VERTEX
  8
E59LXLIFT
 62
1
 10
3665.290
 20
-8422.129
 30
-517.000
 70
    32
  0
VERTEX
  8
E59LXLIFT
 62
1
 10
3676.138
 20
-8424.747
 30
-517.000
 70
    32
  0
VERTEX
  8
E59LXLIFT
 62
1
 10
3705.522
 20
-8431.020
 30
-517.000
 70
    32
  0
VERTEX
  8
E59LXLIFT
 62
1
 10
3716.300
 20
-8436.324
 30
-517.000
 70
    32
  0
VERTEX
  8
E59LXLIFT
 62
1
 10
3741.224
 20
-8450.548
 30
-517.000
 70
    32
  0
VERTEX
  8
E59LXLIFT
 62
1
 10
3744.102
 20
-8455.411
 30
-517.000
 70
    32
  0
VERTEX
  8
E59LXLIFT
 62
1
 10
3738.535
 20
-8461.888
 30
-517.000
 70
    32
  0
VERTEX
  8
E59LXLIFT
 62
1
 10
3712.623
 20
-8472.976
 30
-517.000
 70
    32
  0
VERTEX
  8
E59LXLIFT
 62
1
 10
3685.974
 20
-8477.816
 30
-517.000
 70
    32
  0
VERTEX
  8
E59LXLIFT
 62
1
 10
3645.914
 20
-8486.128
 30
-517.000
 70
    32
  0
SEQEND
  8
E59LXLIFT
  0
POLYLINE
  8
E59LXLIFT
 62
1
 66
     1
 70
     9
  0
VERTEX
  8
E59LXLIFT
 62
1
 10
3761.112
 20
-8655.821
 30
-526.000
 70
    32
  0
VERTEX
  8
E59LXLIFT
 62
1
 10
3757.170
 20
-8643.999
 30
-526.000
 70
    32
  0
VERTEX
  8
E59LXLIFT
 62
1
 10
3777.509
 20
-8644.783
 30
-526.000
 70
    32
  0
VERTEX
  8
E59LXLIFT
 62
1
 10
3796.568
 20
-8642.802
 30
-526.000
 70
    32
  0
VERTEX
  8
E59LXLIFT
 62
1
 10
3804.011
 20
-8637.515
 30
-526.000
 70
    32
  0
VERTEX
  8
E59LXLIFT
 62
1
 10
3807.812
 20
-8643.982
 30
-526.000
 70
    32
  0
VERTEX
  8
E59LXLIFT
 62
1
 10
3801.558
 20
-8650.138
 30
-526.000
 70
    32
  0
VERTEX
  8
E59LXLIFT
 62
1
 10
3793.825
 20
-8651.491
 30
-526.000
 70
    32
  0
VERTEX
  8
E59LXLIFT
 62
1
 10
3768.632
 20
-8668.053
 30
-526.000
 70
    32
  0
SEQEND
  8
E59LXLIFT
  0
ENDSEC
  0
EOF
