999
********************************
999
*   DXF File - Entities Only   *
999
*        3D Data Format        *
999
*     Output from ENVISAGE     *
999
*     31-Dec-2007 14:46:33     *
999
********************************
  0
SECTION 
  2
HEADER
  9
$ACADVER
  1
AC1009
  9
$EXTMIN
 10
-290000.000
 20
-250000.000
 30
-4000.000
  9
$EXTMAX
 10
320000.000
 20
160000.000
 30
6000.000
  0
ENDSEC
  0
SECTION
  2
ENTITIES
  0
POLYLINE
  8
E60LXLIFT
 62
11
 66
     1
 70
     9
  0
VERTEX
  8
E60LXLIFT
 62
11
 10
5518.300
 20
-9730.808
 30
-804.000
 70
    32
  0
VERTEX
  8
E60LXLIFT
 62
11
 10
5529.182
 20
-9734.812
 30
-804.000
 70
    32
  0
VERTEX
  8
E60LXLIFT
 62
11
 10
5542.884
 20
-9733.361
 30
-804.000
 70
    32
  0
VERTEX
  8
E60LXLIFT
 62
11
 10
5562.418
 20
-9723.728
 30
-804.000
 70
    32
  0
VERTEX
  8
E60LXLIFT
 62
11
 10
5576.372
 20
-9710.818
 30
-804.000
 70
    32
  0
VERTEX
  8
E60LXLIFT
 62
11
 10
5580.310
 20
-9688.496
 30
-804.000
 70
    32
  0
VERTEX
  8
E60LXLIFT
 62
11
 10
5574.168
 20
-9679.238
 30
-804.000
 70
    32
  0
VERTEX
  8
E60LXLIFT
 62
11
 10
5567.411
 20
-9667.133
 30
-804.000
 70
    32
  0
VERTEX
  8
E60LXLIFT
 62
11
 10
5563.001
 20
-9653.025
 30
-804.000
 70
    32
  0
VERTEX
  8
E60LXLIFT
 62
11
 10
5555.498
 20
-9649.108
 30
-804.000
 70
    32
  0
VERTEX
  8
E60LXLIFT
 62
11
 10
5546.542
 20
-9649.388
 30
-804.000
 70
    32
  0
VERTEX
  8
E60LXLIFT
 62
11
 10
5542.203
 20
-9654.006
 30
-804.000
 70
    32
  0
VERTEX
  8
E60LXLIFT
 62
11
 10
5539.841
 20
-9665.741
 30
-804.000
 70
    32
  0
VERTEX
  8
E60LXLIFT
 62
11
 10
5538.044
 20
-9671.524
 30
-804.000
 70
    32
  0
VERTEX
  8
E60LXLIFT
 62
11
 10
5533.613
 20
-9675.439
 30
-804.000
 70
    32
  0
VERTEX
  8
E60LXLIFT
 62
11
 10
5527.797
 20
-9677.092
 30
-804.000
 70
    32
  0
VERTEX
  8
E60LXLIFT
 62
11
 10
5526.481
 20
-9696.318
 30
-804.000
 70
    32
  0
VERTEX
  8
E60LXLIFT
 62
11
 10
5521.796
 20
-9717.219
 30
-804.000
 70
    32
  0
SEQEND
  8
E60LXLIFT
  0
POLYLINE
  8
E60LXLIFT
 62
11
 66
     1
 70
     9
  0
VERTEX
  8
E60LXLIFT
 62
11
 10
5549.298
 20
-9688.137
 30
-795.000
 70
    32
  0
VERTEX
  8
E60LXLIFT
 62
11
 10
5545.146
 20
-9679.818
 30
-795.000
 70
    32
  0
VERTEX
  8
E60LXLIFT
 62
11
 10
5538.170
 20
-9679.701
 30
-795.000
 70
    32
  0
VERTEX
  8
E60LXLIFT
 62
11
 10
5527.587
 20
-9683.005
 30
-795.000
 70
    32
  0
VERTEX
  8
E60LXLIFT
 62
11
 10
5522.429
 20
-9688.331
 30
-795.000
 70
    32
  0
VERTEX
  8
E60LXLIFT
 62
11
 10
5525.853
 20
-9691.498
 30
-795.000
 70
    32
  0
VERTEX
  8
E60LXLIFT
 62
11
 10
5533.803
 20
-9691.007
 30
-795.000
 70
    32
  0
VERTEX
  8
E60LXLIFT
 62
11
 10
5537.029
 20
-9694.649
 30
-795.000
 70
    32
  0
SEQEND
  8
E60LXLIFT
  0
POLYLINE
  8
E60LXLIFT
 62
4
 66
     1
 70
     9
  0
VERTEX
  8
E60LXLIFT
 62
4
 10
5325.177
 20
-9565.312
 30
-795.000
 70
    32
  0
VERTEX
  8
E60LXLIFT
 62
4
 10
5318.387
 20
-9571.839
 30
-795.000
 70
    32
  0
VERTEX
  8
E60LXLIFT
 62
4
 10
5312.289
 20
-9575.888
 30
-795.000
 70
    32
  0
VERTEX
  8
E60LXLIFT
 62
4
 10
5304.783
 20
-9575.942
 30
-795.000
 70
    32
  0
VERTEX
  8
E60LXLIFT
 62
4
 10
5283.182
 20
-9568.433
 30
-795.000
 70
    32
  0
VERTEX
  8
E60LXLIFT
 62
4
 10
5259.511
 20
-9563.759
 30
-795.000
 70
    32
  0
VERTEX
  8
E60LXLIFT
 62
4
 10
5241.486
 20
-9560.070
 30
-795.000
 70
    32
  0
VERTEX
  8
E60LXLIFT
 62
4
 10
5238.157
 20
-9571.597
 30
-795.000
 70
    32
  0
VERTEX
  8
E60LXLIFT
 62
4
 10
5226.399
 20
-9578.061
 30
-795.000
 70
    32
  0
VERTEX
  8
E60LXLIFT
 62
4
 10
5216.803
 20
-9562.046
 30
-795.000
 70
    32
  0
VERTEX
  8
E60LXLIFT
 62
4
 10
5199.245
 20
-9563.154
 30
-795.000
 70
    32
  0
VERTEX
  8
E60LXLIFT
 62
4
 10
5185.294
 20
-9562.920
 30
-795.000
 70
    32
  0
VERTEX
  8
E60LXLIFT
 62
4
 10
5170.772
 20
-9561.466
 30
-795.000
 70
    32
  0
VERTEX
  8
E60LXLIFT
 62
4
 10
5159.998
 20
-9560.645
 30
-795.000
 70
    32
  0
VERTEX
  8
E60LXLIFT
 62
4
 10
5154.041
 20
-9555.076
 30
-795.000
 70
    32
  0
VERTEX
  8
E60LXLIFT
 62
4
 10
5144.890
 20
-9553.935
 30
-795.000
 70
    32
  0
VERTEX
  8
E60LXLIFT
 62
4
 10
5144.984
 20
-9547.523
 30
-795.000
 70
    32
  0
VERTEX
  8
E60LXLIFT
 62
4
 10
5158.544
 20
-9546.185
 30
-795.000
 70
    32
  0
VERTEX
  8
E60LXLIFT
 62
4
 10
5167.908
 20
-9541.373
 30
-795.000
 70
    32
  0
VERTEX
  8
E60LXLIFT
 62
4
 10
5174.243
 20
-9540.321
 30
-795.000
 70
    32
  0
VERTEX
  8
E60LXLIFT
 62
4
 10
5179.248
 20
-9534.341
 30
-795.000
 70
    32
  0
VERTEX
  8
E60LXLIFT
 62
4
 10
5190.272
 20
-9531.042
 30
-795.000
 70
    32
  0
VERTEX
  8
E60LXLIFT
 62
4
 10
5202.821
 20
-9530.558
 30
-795.000
 70
    32
  0
VERTEX
  8
E60LXLIFT
 62
4
 10
5213.556
 20
-9524.190
 30
-795.000
 70
    32
  0
VERTEX
  8
E60LXLIFT
 62
4
 10
5224.854
 20
-9517.846
 30
-795.000
 70
    32
  0
VERTEX
  8
E60LXLIFT
 62
4
 10
5233.657
 20
-9526.242
 30
-795.000
 70
    32
  0
VERTEX
  8
E60LXLIFT
 62
4
 10
5244.587
 20
-9529.355
 30
-795.000
 70
    32
  0
VERTEX
  8
E60LXLIFT
 62
4
 10
5252.257
 20
-9528.632
 30
-795.000
 70
    32
  0
VERTEX
  8
E60LXLIFT
 62
4
 10
5259.893
 20
-9523.998
 30
-795.000
 70
    32
  0
VERTEX
  8
E60LXLIFT
 62
4
 10
5265.484
 20
-9523.274
 30
-795.000
 70
    32
  0
VERTEX
  8
E60LXLIFT
 62
4
 10
5272.411
 20
-9534.472
 30
-795.000
 70
    32
  0
VERTEX
  8
E60LXLIFT
 62
4
 10
5286.915
 20
-9539.767
 30
-795.000
 70
    32
  0
VERTEX
  8
E60LXLIFT
 62
4
 10
5293.990
 20
-9548.342
 30
-795.000
 70
    32
  0
VERTEX
  8
E60LXLIFT
 62
4
 10
5302.865
 20
-9554.607
 30
-795.000
 70
    32
  0
VERTEX
  8
E60LXLIFT
 62
4
 10
5309.227
 20
-9556.268
 30
-795.000
 70
    32
  0
SEQEND
  8
E60LXLIFT
  0
POLYLINE
  8
E60LXLIFT
 62
11
 66
     1
 70
     9
  0
VERTEX
  8
E60LXLIFT
 62
11
 10
5597.871
 20
-9699.826
 30
-788.000
 70
    32
  0
VERTEX
  8
E60LXLIFT
 62
11
 10
5579.422
 20
-9676.219
 30
-788.000
 70
    32
  0
VERTEX
  8
E60LXLIFT
 62
11
 10
5561.774
 20
-9672.599
 30
-788.000
 70
    32
  0
VERTEX
  8
E60LXLIFT
 62
11
 10
5543.438
 20
-9654.243
 30
-788.000
 70
    32
  0
VERTEX
  8
E60LXLIFT
 62
11
 10
5536.115
 20
-9653.901
 30
-788.000
 70
    32
  0
VERTEX
  8
E60LXLIFT
 62
11
 10
5533.275
 20
-9659.881
 30
-788.000
 70
    32
  0
VERTEX
  8
E60LXLIFT
 62
11
 10
5530.130
 20
-9683.279
 30
-788.000
 70
    32
  0
VERTEX
  8
E60LXLIFT
 62
11
 10
5521.917
 20
-9688.155
 30
-788.000
 70
    32
  0
VERTEX
  8
E60LXLIFT
 62
11
 10
5528.403
 20
-9699.336
 30
-788.000
 70
    32
  0
VERTEX
  8
E60LXLIFT
 62
11
 10
5544.643
 20
-9706.262
 30
-788.000
 70
    32
  0
VERTEX
  8
E60LXLIFT
 62
11
 10
5545.153
 20
-9708.613
 30
-788.000
 70
    32
  0
VERTEX
  8
E60LXLIFT
 62
11
 10
5557.749
 20
-9714.268
 30
-788.000
 70
    32
  0
VERTEX
  8
E60LXLIFT
 62
11
 10
5558.464
 20
-9719.300
 30
-788.000
 70
    32
  0
VERTEX
  8
E60LXLIFT
 62
11
 10
5556.259
 20
-9733.200
 30
-788.000
 70
    32
  0
VERTEX
  8
E60LXLIFT
 62
11
 10
5561.631
 20
-9736.700
 30
-788.000
 70
    32
  0
VERTEX
  8
E60LXLIFT
 62
11
 10
5581.618
 20
-9727.954
 30
-788.000
 70
    32
  0
VERTEX
  8
E60LXLIFT
 62
11
 10
5579.870
 20
-9719.102
 30
-788.000
 70
    32
  0
SEQEND
  8
E60LXLIFT
  0
POLYLINE
  8
E60LXLIFT
 62
4
 66
     1
 70
     9
  0
VERTEX
  8
E60LXLIFT
 62
4
 10
5275.917
 20
-9538.538
 30
-789.000
 70
    32
  0
VERTEX
  8
E60LXLIFT
 62
4
 10
5286.045
 20
-9545.441
 30
-789.000
 70
    32
  0
VERTEX
  8
E60LXLIFT
 62
4
 10
5277.972
 20
-9552.609
 30
-789.000
 70
    32
  0
VERTEX
  8
E60LXLIFT
 62
4
 10
5269.928
 20
-9555.620
 30
-789.000
 70
    32
  0
VERTEX
  8
E60LXLIFT
 62
4
 10
5269.876
 20
-9555.549
 30
-789.000
 70
    32
  0
VERTEX
  8
E60LXLIFT
 62
4
 10
5261.993
 20
-9560.730
 30
-789.000
 70
    32
  0
VERTEX
  8
E60LXLIFT
 62
4
 10
5255.665
 20
-9563.257
 30
-789.000
 70
    32
  0
VERTEX
  8
E60LXLIFT
 62
4
 10
5243.340
 20
-9559.473
 30
-789.000
 70
    32
  0
VERTEX
  8
E60LXLIFT
 62
4
 10
5238.474
 20
-9563.115
 30
-789.000
 70
    32
  0
VERTEX
  8
E60LXLIFT
 62
4
 10
5236.257
 20
-9575.500
 30
-789.000
 70
    32
  0
VERTEX
  8
E60LXLIFT
 62
4
 10
5223.682
 20
-9577.666
 30
-789.000
 70
    32
  0
VERTEX
  8
E60LXLIFT
 62
4
 10
5220.516
 20
-9568.210
 30
-789.000
 70
    32
  0
VERTEX
  8
E60LXLIFT
 62
4
 10
5217.618
 20
-9564.220
 30
-789.000
 70
    32
  0
VERTEX
  8
E60LXLIFT
 62
4
 10
5207.343
 20
-9563.410
 30
-789.000
 70
    32
  0
VERTEX
  8
E60LXLIFT
 62
4
 10
5184.008
 20
-9563.049
 30
-789.000
 70
    32
  0
VERTEX
  8
E60LXLIFT
 62
4
 10
5165.489
 20
-9564.525
 30
-789.000
 70
    32
  0
VERTEX
  8
E60LXLIFT
 62
4
 10
5148.740
 20
-9561.994
 30
-789.000
 70
    32
  0
VERTEX
  8
E60LXLIFT
 62
4
 10
5139.261
 20
-9552.987
 30
-789.000
 70
    32
  0
VERTEX
  8
E60LXLIFT
 62
4
 10
5141.867
 20
-9548.483
 30
-789.000
 70
    32
  0
VERTEX
  8
E60LXLIFT
 62
4
 10
5152.039
 20
-9549.151
 30
-789.000
 70
    32
  0
VERTEX
  8
E60LXLIFT
 62
4
 10
5164.546
 20
-9543.442
 30
-789.000
 70
    32
  0
VERTEX
  8
E60LXLIFT
 62
4
 10
5173.528
 20
-9541.273
 30
-789.000
 70
    32
  0
VERTEX
  8
E60LXLIFT
 62
4
 10
5181.574
 20
-9535.866
 30
-789.000
 70
    32
  0
VERTEX
  8
E60LXLIFT
 62
4
 10
5187.991
 20
-9534.362
 30
-789.000
 70
    32
  0
VERTEX
  8
E60LXLIFT
 62
4
 10
5199.680
 20
-9532.623
 30
-789.000
 70
    32
  0
VERTEX
  8
E60LXLIFT
 62
4
 10
5211.798
 20
-9526.979
 30
-789.000
 70
    32
  0
VERTEX
  8
E60LXLIFT
 62
4
 10
5222.568
 20
-9524.274
 30
-789.000
 70
    32
  0
VERTEX
  8
E60LXLIFT
 62
4
 10
5233.645
 20
-9525.590
 30
-789.000
 70
    32
  0
VERTEX
  8
E60LXLIFT
 62
4
 10
5241.878
 20
-9530.931
 30
-789.000
 70
    32
  0
VERTEX
  8
E60LXLIFT
 62
4
 10
5250.626
 20
-9529.040
 30
-789.000
 70
    32
  0
VERTEX
  8
E60LXLIFT
 62
4
 10
5255.425
 20
-9528.603
 30
-789.000
 70
    32
  0
VERTEX
  8
E60LXLIFT
 62
4
 10
5263.247
 20
-9527.385
 30
-789.000
 70
    32
  0
VERTEX
  8
E60LXLIFT
 62
4
 10
5267.828
 20
-9531.895
 30
-789.000
 70
    32
  0
SEQEND
  8
E60LXLIFT
  0
POLYLINE
  8
E60LXLIFT
 62
11
 66
     1
 70
     9
  0
VERTEX
  8
E60LXLIFT
 62
11
 10
5529.910
 20
-9653.965
 30
-777.000
 70
    32
  0
VERTEX
  8
E60LXLIFT
 62
11
 10
5533.749
 20
-9663.866
 30
-777.000
 70
    32
  0
VERTEX
  8
E60LXLIFT
 62
11
 10
5527.653
 20
-9678.293
 30
-777.000
 70
    32
  0
VERTEX
  8
E60LXLIFT
 62
11
 10
5524.635
 20
-9686.421
 30
-777.000
 70
    32
  0
VERTEX
  8
E60LXLIFT
 62
11
 10
5515.987
 20
-9691.189
 30
-777.000
 70
    32
  0
VERTEX
  8
E60LXLIFT
 62
11
 10
5519.809
 20
-9696.247
 30
-777.000
 70
    32
  0
VERTEX
  8
E60LXLIFT
 62
11
 10
5531.280
 20
-9693.319
 30
-777.000
 70
    32
  0
VERTEX
  8
E60LXLIFT
 62
11
 10
5533.445
 20
-9698.084
 30
-777.000
 70
    32
  0
VERTEX
  8
E60LXLIFT
 62
11
 10
5545.141
 20
-9698.959
 30
-777.000
 70
    32
  0
VERTEX
  8
E60LXLIFT
 62
11
 10
5555.119
 20
-9696.828
 30
-777.000
 70
    32
  0
VERTEX
  8
E60LXLIFT
 62
11
 10
5562.917
 20
-9690.937
 30
-777.000
 70
    32
  0
VERTEX
  8
E60LXLIFT
 62
11
 10
5566.441
 20
-9686.399
 30
-777.000
 70
    32
  0
VERTEX
  8
E60LXLIFT
 62
11
 10
5561.258
 20
-9679.831
 30
-777.000
 70
    32
  0
VERTEX
  8
E60LXLIFT
 62
11
 10
5559.760
 20
-9669.376
 30
-777.000
 70
    32
  0
VERTEX
  8
E60LXLIFT
 62
11
 10
5558.106
 20
-9664.556
 30
-777.000
 70
    32
  0
VERTEX
  8
E60LXLIFT
 62
11
 10
5550.989
 20
-9658.787
 30
-777.000
 70
    32
  0
VERTEX
  8
E60LXLIFT
 62
11
 10
5545.511
 20
-9648.469
 30
-777.000
 70
    32
  0
SEQEND
  8
E60LXLIFT
  0
POLYLINE
  8
E60LXLIFT
 62
4
 66
     1
 70
     9
  0
VERTEX
  8
E60LXLIFT
 62
4
 10
5128.528
 20
-9543.489
 30
-776.000
 70
    32
  0
VERTEX
  8
E60LXLIFT
 62
4
 10
5150.666
 20
-9538.903
 30
-776.000
 70
    32
  0
VERTEX
  8
E60LXLIFT
 62
4
 10
5156.627
 20
-9531.310
 30
-776.000
 70
    32
  0
VERTEX
  8
E60LXLIFT
 62
4
 10
5167.706
 20
-9527.133
 30
-776.000
 70
    32
  0
VERTEX
  8
E60LXLIFT
 62
4
 10
5178.101
 20
-9523.364
 30
-776.000
 70
    32
  0
VERTEX
  8
E60LXLIFT
 62
4
 10
5195.083
 20
-9515.169
 30
-776.000
 70
    32
  0
VERTEX
  8
E60LXLIFT
 62
4
 10
5204.244
 20
-9511.227
 30
-776.000
 70
    32
  0
VERTEX
  8
E60LXLIFT
 62
4
 10
5221.482
 20
-9515.640
 30
-776.000
 70
    32
  0
VERTEX
  8
E60LXLIFT
 62
4
 10
5228.514
 20
-9517.060
 30
-776.000
 70
    32
  0
VERTEX
  8
E60LXLIFT
 62
4
 10
5233.737
 20
-9520.176
 30
-776.000
 70
    32
  0
VERTEX
  8
E60LXLIFT
 62
4
 10
5250.941
 20
-9524.836
 30
-776.000
 70
    32
  0
VERTEX
  8
E60LXLIFT
 62
4
 10
5261.892
 20
-9524.287
 30
-776.000
 70
    32
  0
VERTEX
  8
E60LXLIFT
 62
4
 10
5283.869
 20
-9539.355
 30
-776.000
 70
    32
  0
VERTEX
  8
E60LXLIFT
 62
4
 10
5287.932
 20
-9548.093
 30
-776.000
 70
    32
  0
VERTEX
  8
E60LXLIFT
 62
4
 10
5294.576
 20
-9554.550
 30
-776.000
 70
    32
  0
VERTEX
  8
E60LXLIFT
 62
4
 10
5283.805
 20
-9571.405
 30
-776.000
 70
    32
  0
VERTEX
  8
E60LXLIFT
 62
4
 10
5275.229
 20
-9571.593
 30
-776.000
 70
    32
  0
VERTEX
  8
E60LXLIFT
 62
4
 10
5262.121
 20
-9564.613
 30
-776.000
 70
    32
  0
VERTEX
  8
E60LXLIFT
 62
4
 10
5248.567
 20
-9561.279
 30
-776.000
 70
    32
  0
VERTEX
  8
E60LXLIFT
 62
4
 10
5243.072
 20
-9561.016
 30
-776.000
 70
    32
  0
VERTEX
  8
E60LXLIFT
 62
4
 10
5237.332
 20
-9571.532
 30
-776.000
 70
    32
  0
VERTEX
  8
E60LXLIFT
 62
4
 10
5233.409
 20
-9572.620
 30
-776.000
 70
    32
  0
VERTEX
  8
E60LXLIFT
 62
4
 10
5224.132
 20
-9563.407
 30
-776.000
 70
    32
  0
VERTEX
  8
E60LXLIFT
 62
4
 10
5199.338
 20
-9558.633
 30
-776.000
 70
    32
  0
VERTEX
  8
E60LXLIFT
 62
4
 10
5183.583
 20
-9560.273
 30
-776.000
 70
    32
  0
VERTEX
  8
E60LXLIFT
 62
4
 10
5174.008
 20
-9561.768
 30
-776.000
 70
    32
  0
VERTEX
  8
E60LXLIFT
 62
4
 10
5159.371
 20
-9560.797
 30
-776.000
 70
    32
  0
VERTEX
  8
E60LXLIFT
 62
4
 10
5142.241
 20
-9556.965
 30
-776.000
 70
    32
  0
VERTEX
  8
E60LXLIFT
 62
4
 10
5131.402
 20
-9554.450
 30
-776.000
 70
    32
  0
VERTEX
  8
E60LXLIFT
 62
4
 10
5129.029
 20
-9550.725
 30
-776.000
 70
    32
  0
SEQEND
  8
E60LXLIFT
  0
POLYLINE
  8
E60LXLIFT
 62
11
 66
     1
 70
     9
  0
VERTEX
  8
E60LXLIFT
 62
11
 10
5495.950
 20
-9726.983
 30
-763.000
 70
    32
  0
VERTEX
  8
E60LXLIFT
 62
11
 10
5499.638
 20
-9735.640
 30
-763.000
 70
    32
  0
VERTEX
  8
E60LXLIFT
 62
11
 10
5504.776
 20
-9743.002
 30
-763.000
 70
    32
  0
VERTEX
  8
E60LXLIFT
 62
11
 10
5504.341
 20
-9756.584
 30
-763.000
 70
    32
  0
VERTEX
  8
E60LXLIFT
 62
11
 10
5510.714
 20
-9763.248
 30
-763.000
 70
    32
  0
VERTEX
  8
E60LXLIFT
 62
11
 10
5512.873
 20
-9760.549
 30
-763.000
 70
    32
  0
VERTEX
  8
E60LXLIFT
 62
11
 10
5522.521
 20
-9759.522
 30
-763.000
 70
    32
  0
VERTEX
  8
E60LXLIFT
 62
11
 10
5535.380
 20
-9760.165
 30
-763.000
 70
    32
  0
VERTEX
  8
E60LXLIFT
 62
11
 10
5537.307
 20
-9758.186
 30
-763.000
 70
    32
  0
VERTEX
  8
E60LXLIFT
 62
11
 10
5531.235
 20
-9751.189
 30
-763.000
 70
    32
  0
VERTEX
  8
E60LXLIFT
 62
11
 10
5525.880
 20
-9741.468
 30
-763.000
 70
    32
  0
VERTEX
  8
E60LXLIFT
 62
11
 10
5528.670
 20
-9728.548
 30
-763.000
 70
    32
  0
VERTEX
  8
E60LXLIFT
 62
11
 10
5536.456
 20
-9704.796
 30
-763.000
 70
    32
  0
VERTEX
  8
E60LXLIFT
 62
11
 10
5555.100
 20
-9673.531
 30
-763.000
 70
    32
  0
VERTEX
  8
E60LXLIFT
 62
11
 10
5562.099
 20
-9670.855
 30
-763.000
 70
    32
  0
VERTEX
  8
E60LXLIFT
 62
11
 10
5572.024
 20
-9656.034
 30
-763.000
 70
    32
  0
VERTEX
  8
E60LXLIFT
 62
11
 10
5573.332
 20
-9643.776
 30
-763.000
 70
    32
  0
VERTEX
  8
E60LXLIFT
 62
11
 10
5567.726
 20
-9627.667
 30
-763.000
 70
    32
  0
VERTEX
  8
E60LXLIFT
 62
11
 10
5568.205
 20
-9615.915
 30
-763.000
 70
    32
  0
VERTEX
  8
E60LXLIFT
 62
11
 10
5572.280
 20
-9613.876
 30
-763.000
 70
    32
  0
VERTEX
  8
E60LXLIFT
 62
11
 10
5567.582
 20
-9606.516
 30
-763.000
 70
    32
  0
VERTEX
  8
E60LXLIFT
 62
11
 10
5557.295
 20
-9605.059
 30
-763.000
 70
    32
  0
VERTEX
  8
E60LXLIFT
 62
11
 10
5544.579
 20
-9607.707
 30
-763.000
 70
    32
  0
VERTEX
  8
E60LXLIFT
 62
11
 10
5536.330
 20
-9614.160
 30
-763.000
 70
    32
  0
VERTEX
  8
E60LXLIFT
 62
11
 10
5531.327
 20
-9626.312
 30
-763.000
 70
    32
  0
VERTEX
  8
E60LXLIFT
 62
11
 10
5525.746
 20
-9645.359
 30
-763.000
 70
    32
  0
VERTEX
  8
E60LXLIFT
 62
11
 10
5518.627
 20
-9669.273
 30
-763.000
 70
    32
  0
VERTEX
  8
E60LXLIFT
 62
11
 10
5510.048
 20
-9686.053
 30
-763.000
 70
    32
  0
VERTEX
  8
E60LXLIFT
 62
11
 10
5503.970
 20
-9694.839
 30
-763.000
 70
    32
  0
VERTEX
  8
E60LXLIFT
 62
11
 10
5506.067
 20
-9701.500
 30
-763.000
 70
    32
  0
VERTEX
  8
E60LXLIFT
 62
11
 10
5501.533
 20
-9711.332
 30
-763.000
 70
    32
  0
SEQEND
  8
E60LXLIFT
  0
POLYLINE
  8
E60LXLIFT
 62
4
 66
     1
 70
     9
  0
VERTEX
  8
E60LXLIFT
 62
4
 10
5292.627
 20
-9552.614
 30
-768.000
 70
    32
  0
VERTEX
  8
E60LXLIFT
 62
4
 10
5285.781
 20
-9560.218
 30
-768.000
 70
    32
  0
VERTEX
  8
E60LXLIFT
 62
4
 10
5274.259
 20
-9552.227
 30
-768.000
 70
    32
  0
VERTEX
  8
E60LXLIFT
 62
4
 10
5259.000
 20
-9545.695
 30
-768.000
 70
    32
  0
VERTEX
  8
E60LXLIFT
 62
4
 10
5244.934
 20
-9543.428
 30
-768.000
 70
    32
  0
VERTEX
  8
E60LXLIFT
 62
4
 10
5230.932
 20
-9546.264
 30
-768.000
 70
    32
  0
VERTEX
  8
E60LXLIFT
 62
4
 10
5213.170
 20
-9551.563
 30
-768.000
 70
    32
  0
VERTEX
  8
E60LXLIFT
 62
4
 10
5195.443
 20
-9553.219
 30
-768.000
 70
    32
  0
VERTEX
  8
E60LXLIFT
 62
4
 10
5173.753
 20
-9555.736
 30
-768.000
 70
    32
  0
VERTEX
  8
E60LXLIFT
 62
4
 10
5151.467
 20
-9554.204
 30
-768.000
 70
    32
  0
VERTEX
  8
E60LXLIFT
 62
4
 10
5143.353
 20
-9554.640
 30
-768.000
 70
    32
  0
VERTEX
  8
E60LXLIFT
 62
4
 10
5139.284
 20
-9551.963
 30
-768.000
 70
    32
  0
VERTEX
  8
E60LXLIFT
 62
4
 10
5108.606
 20
-9553.592
 30
-768.000
 70
    32
  0
VERTEX
  8
E60LXLIFT
 62
4
 10
5108.093
 20
-9546.851
 30
-768.000
 70
    32
  0
VERTEX
  8
E60LXLIFT
 62
4
 10
5130.738
 20
-9543.406
 30
-768.000
 70
    32
  0
VERTEX
  8
E60LXLIFT
 62
4
 10
5154.568
 20
-9538.752
 30
-768.000
 70
    32
  0
VERTEX
  8
E60LXLIFT
 62
4
 10
5171.847
 20
-9527.785
 30
-768.000
 70
    32
  0
VERTEX
  8
E60LXLIFT
 62
4
 10
5191.859
 20
-9519.172
 30
-768.000
 70
    32
  0
VERTEX
  8
E60LXLIFT
 62
4
 10
5213.286
 20
-9512.905
 30
-768.000
 70
    32
  0
VERTEX
  8
E60LXLIFT
 62
4
 10
5238.936
 20
-9521.035
 30
-768.000
 70
    32
  0
VERTEX
  8
E60LXLIFT
 62
4
 10
5266.571
 20
-9526.377
 30
-768.000
 70
    32
  0
VERTEX
  8
E60LXLIFT
 62
4
 10
5278.437
 20
-9532.469
 30
-768.000
 70
    32
  0
VERTEX
  8
E60LXLIFT
 62
4
 10
5284.401
 20
-9543.601
 30
-768.000
 70
    32
  0
SEQEND
  8
E60LXLIFT
  0
POLYLINE
  8
E60LXLIFT
 62
11
 66
     1
 70
     9
  0
VERTEX
  8
E60LXLIFT
 62
11
 10
5533.128
 20
-9754.066
 30
-754.000
 70
    32
  0
VERTEX
  8
E60LXLIFT
 62
11
 10
5530.348
 20
-9738.070
 30
-754.000
 70
    32
  0
VERTEX
  8
E60LXLIFT
 62
11
 10
5539.152
 20
-9698.688
 30
-754.000
 70
    32
  0
VERTEX
  8
E60LXLIFT
 62
11
 10
5550.150
 20
-9684.692
 30
-754.000
 70
    32
  0
VERTEX
  8
E60LXLIFT
 62
11
 10
5552.848
 20
-9670.382
 30
-754.000
 70
    32
  0
VERTEX
  8
E60LXLIFT
 62
11
 10
5563.060
 20
-9644.174
 30
-754.000
 70
    32
  0
VERTEX
  8
E60LXLIFT
 62
11
 10
5558.304
 20
-9627.032
 30
-754.000
 70
    32
  0
VERTEX
  8
E60LXLIFT
 62
11
 10
5558.869
 20
-9611.806
 30
-754.000
 70
    32
  0
VERTEX
  8
E60LXLIFT
 62
11
 10
5555.864
 20
-9606.693
 30
-754.000
 70
    32
  0
VERTEX
  8
E60LXLIFT
 62
11
 10
5541.901
 20
-9603.289
 30
-754.000
 70
    32
  0
VERTEX
  8
E60LXLIFT
 62
11
 10
5537.180
 20
-9612.180
 30
-754.000
 70
    32
  0
VERTEX
  8
E60LXLIFT
 62
11
 10
5536.350
 20
-9624.737
 30
-754.000
 70
    32
  0
VERTEX
  8
E60LXLIFT
 62
11
 10
5533.802
 20
-9635.178
 30
-754.000
 70
    32
  0
VERTEX
  8
E60LXLIFT
 62
11
 10
5525.852
 20
-9655.359
 30
-754.000
 70
    32
  0
VERTEX
  8
E60LXLIFT
 62
11
 10
5519.686
 20
-9679.483
 30
-754.000
 70
    32
  0
VERTEX
  8
E60LXLIFT
 62
11
 10
5514.925
 20
-9700.662
 30
-754.000
 70
    32
  0
VERTEX
  8
E60LXLIFT
 62
11
 10
5510.084
 20
-9704.896
 30
-754.000
 70
    32
  0
VERTEX
  8
E60LXLIFT
 62
11
 10
5512.421
 20
-9709.855
 30
-754.000
 70
    32
  0
VERTEX
  8
E60LXLIFT
 62
11
 10
5510.168
 20
-9732.880
 30
-754.000
 70
    32
  0
VERTEX
  8
E60LXLIFT
 62
11
 10
5513.102
 20
-9750.966
 30
-754.000
 70
    32
  0
VERTEX
  8
E60LXLIFT
 62
11
 10
5522.406
 20
-9756.810
 30
-754.000
 70
    32
  0
SEQEND
  8
E60LXLIFT
  0
POLYLINE
  8
E60LXLIFT
 62
13
 66
     1
 70
     9
  0
VERTEX
  8
E60LXLIFT
 62
13
 10
5517.969
 20
-9550.047
 30
-755.000
 70
    32
  0
VERTEX
  8
E60LXLIFT
 62
13
 10
5500.514
 20
-9563.103
 30
-755.000
 70
    32
  0
VERTEX
  8
E60LXLIFT
 62
13
 10
5488.451
 20
-9572.940
 30
-755.000
 70
    32
  0
VERTEX
  8
E60LXLIFT
 62
13
 10
5470.160
 20
-9581.994
 30
-755.000
 70
    32
  0
VERTEX
  8
E60LXLIFT
 62
13
 10
5465.545
 20
-9575.345
 30
-755.000
 70
    32
  0
VERTEX
  8
E60LXLIFT
 62
13
 10
5474.157
 20
-9567.359
 30
-755.000
 70
    32
  0
VERTEX
  8
E60LXLIFT
 62
13
 10
5491.182
 20
-9555.625
 30
-755.000
 70
    32
  0
VERTEX
  8
E60LXLIFT
 62
13
 10
5512.732
 20
-9542.436
 30
-755.000
 70
    32
  0
SEQEND
  8
E60LXLIFT
  0
POLYLINE
  8
E60LXLIFT
 62
4
 66
     1
 70
     9
  0
VERTEX
  8
E60LXLIFT
 62
4
 10
5116.657
 20
-9560.895
 30
-753.000
 70
    32
  0
VERTEX
  8
E60LXLIFT
 62
4
 10
5124.582
 20
-9563.039
 30
-753.000
 70
    32
  0
VERTEX
  8
E60LXLIFT
 62
4
 10
5146.968
 20
-9556.612
 30
-753.000
 70
    32
  0
VERTEX
  8
E60LXLIFT
 62
4
 10
5169.456
 20
-9549.447
 30
-753.000
 70
    32
  0
VERTEX
  8
E60LXLIFT
 62
4
 10
5189.537
 20
-9545.215
 30
-753.000
 70
    32
  0
VERTEX
  8
E60LXLIFT
 62
4
 10
5206.277
 20
-9543.415
 30
-753.000
 70
    32
  0
VERTEX
  8
E60LXLIFT
 62
4
 10
5219.782
 20
-9536.345
 30
-753.000
 70
    32
  0
VERTEX
  8
E60LXLIFT
 62
4
 10
5230.356
 20
-9527.309
 30
-753.000
 70
    32
  0
VERTEX
  8
E60LXLIFT
 62
4
 10
5245.724
 20
-9525.447
 30
-753.000
 70
    32
  0
VERTEX
  8
E60LXLIFT
 62
4
 10
5264.915
 20
-9535.144
 30
-753.000
 70
    32
  0
VERTEX
  8
E60LXLIFT
 62
4
 10
5277.655
 20
-9547.539
 30
-753.000
 70
    32
  0
VERTEX
  8
E60LXLIFT
 62
4
 10
5295.972
 20
-9563.200
 30
-753.000
 70
    32
  0
VERTEX
  8
E60LXLIFT
 62
4
 10
5304.133
 20
-9561.300
 30
-753.000
 70
    32
  0
VERTEX
  8
E60LXLIFT
 62
4
 10
5299.174
 20
-9555.796
 30
-753.000
 70
    32
  0
VERTEX
  8
E60LXLIFT
 62
4
 10
5287.205
 20
-9545.576
 30
-753.000
 70
    32
  0
VERTEX
  8
E60LXLIFT
 62
4
 10
5272.696
 20
-9526.355
 30
-753.000
 70
    32
  0
VERTEX
  8
E60LXLIFT
 62
4
 10
5254.606
 20
-9518.250
 30
-753.000
 70
    32
  0
VERTEX
  8
E60LXLIFT
 62
4
 10
5233.439
 20
-9510.167
 30
-753.000
 70
    32
  0
VERTEX
  8
E60LXLIFT
 62
4
 10
5204.400
 20
-9510.169
 30
-753.000
 70
    32
  0
VERTEX
  8
E60LXLIFT
 62
4
 10
5177.631
 20
-9518.383
 30
-753.000
 70
    32
  0
VERTEX
  8
E60LXLIFT
 62
4
 10
5156.565
 20
-9525.240
 30
-753.000
 70
    32
  0
VERTEX
  8
E60LXLIFT
 62
4
 10
5144.598
 20
-9528.380
 30
-753.000
 70
    32
  0
VERTEX
  8
E60LXLIFT
 62
4
 10
5133.313
 20
-9528.351
 30
-753.000
 70
    32
  0
VERTEX
  8
E60LXLIFT
 62
4
 10
5127.092
 20
-9526.125
 30
-753.000
 70
    32
  0
VERTEX
  8
E60LXLIFT
 62
4
 10
5116.949
 20
-9533.840
 30
-753.000
 70
    32
  0
VERTEX
  8
E60LXLIFT
 62
4
 10
5111.502
 20
-9542.068
 30
-753.000
 70
    32
  0
VERTEX
  8
E60LXLIFT
 62
4
 10
5112.655
 20
-9548.811
 30
-753.000
 70
    32
  0
SEQEND
  8
E60LXLIFT
  0
POLYLINE
  8
E60LXLIFT
 62
11
 66
     1
 70
     9
  0
VERTEX
  8
E60LXLIFT
 62
11
 10
5566.744
 20
-9642.917
 30
-744.000
 70
    32
  0
VERTEX
  8
E60LXLIFT
 62
11
 10
5560.551
 20
-9652.207
 30
-744.000
 70
    32
  0
VERTEX
  8
E60LXLIFT
 62
11
 10
5550.929
 20
-9673.431
 30
-744.000
 70
    32
  0
VERTEX
  8
E60LXLIFT
 62
11
 10
5537.299
 20
-9693.717
 30
-744.000
 70
    32
  0
VERTEX
  8
E60LXLIFT
 62
11
 10
5531.939
 20
-9726.136
 30
-744.000
 70
    32
  0
VERTEX
  8
E60LXLIFT
 62
11
 10
5525.344
 20
-9743.207
 30
-744.000
 70
    32
  0
VERTEX
  8
E60LXLIFT
 62
11
 10
5516.592
 20
-9741.228
 30
-744.000
 70
    32
  0
VERTEX
  8
E60LXLIFT
 62
11
 10
5501.753
 20
-9728.550
 30
-744.000
 70
    32
  0
VERTEX
  8
E60LXLIFT
 62
11
 10
5492.222
 20
-9717.370
 30
-744.000
 70
    32
  0
VERTEX
  8
E60LXLIFT
 62
11
 10
5492.811
 20
-9707.357
 30
-744.000
 70
    32
  0
VERTEX
  8
E60LXLIFT
 62
11
 10
5501.036
 20
-9688.946
 30
-744.000
 70
    32
  0
VERTEX
  8
E60LXLIFT
 62
11
 10
5511.266
 20
-9658.464
 30
-744.000
 70
    32
  0
VERTEX
  8
E60LXLIFT
 62
11
 10
5517.700
 20
-9653.723
 30
-744.000
 70
    32
  0
VERTEX
  8
E60LXLIFT
 62
11
 10
5524.973
 20
-9620.632
 30
-744.000
 70
    32
  0
VERTEX
  8
E60LXLIFT
 62
11
 10
5534.631
 20
-9613.019
 30
-744.000
 70
    32
  0
VERTEX
  8
E60LXLIFT
 62
11
 10
5540.493
 20
-9604.749
 30
-744.000
 70
    32
  0
VERTEX
  8
E60LXLIFT
 62
11
 10
5557.863
 20
-9624.867
 30
-744.000
 70
    32
  0
VERTEX
  8
E60LXLIFT
 62
11
 10
5559.303
 20
-9631.590
 30
-744.000
 70
    32
  0
SEQEND
  8
E60LXLIFT
  0
POLYLINE
  8
E60LXLIFT
 62
13
 66
     1
 70
     9
  0
VERTEX
  8
E60LXLIFT
 62
13
 10
5514.279
 20
-9581.071
 30
-748.000
 70
    32
  0
VERTEX
  8
E60LXLIFT
 62
13
 10
5522.614
 20
-9571.267
 30
-748.000
 70
    32
  0
VERTEX
  8
E60LXLIFT
 62
13
 10
5538.428
 20
-9560.442
 30
-748.000
 70
    32
  0
VERTEX
  8
E60LXLIFT
 62
13
 10
5537.733
 20
-9549.747
 30
-748.000
 70
    32
  0
VERTEX
  8
E60LXLIFT
 62
13
 10
5532.433
 20
-9544.615
 30
-748.000
 70
    32
  0
VERTEX
  8
E60LXLIFT
 62
13
 10
5517.678
 20
-9543.863
 30
-748.000
 70
    32
  0
VERTEX
  8
E60LXLIFT
 62
13
 10
5504.376
 20
-9548.394
 30
-748.000
 70
    32
  0
VERTEX
  8
E60LXLIFT
 62
13
 10
5486.767
 20
-9557.713
 30
-748.000
 70
    32
  0
VERTEX
  8
E60LXLIFT
 62
13
 10
5472.142
 20
-9566.761
 30
-748.000
 70
    32
  0
VERTEX
  8
E60LXLIFT
 62
13
 10
5469.315
 20
-9573.952
 30
-748.000
 70
    32
  0
VERTEX
  8
E60LXLIFT
 62
13
 10
5474.598
 20
-9579.208
 30
-748.000
 70
    32
  0
VERTEX
  8
E60LXLIFT
 62
13
 10
5487.289
 20
-9583.056
 30
-748.000
 70
    32
  0
VERTEX
  8
E60LXLIFT
 62
13
 10
5500.976
 20
-9578.015
 30
-748.000
 70
    32
  0
SEQEND
  8
E60LXLIFT
  0
POLYLINE
  8
E60LXLIFT
 62
4
 66
     1
 70
     9
  0
VERTEX
  8
E60LXLIFT
 62
4
 10
5096.241
 20
-9537.634
 30
-743.000
 70
    32
  0
VERTEX
  8
E60LXLIFT
 62
4
 10
5097.477
 20
-9547.151
 30
-743.000
 70
    32
  0
VERTEX
  8
E60LXLIFT
 62
4
 10
5103.937
 20
-9552.508
 30
-743.000
 70
    32
  0
VERTEX
  8
E60LXLIFT
 62
4
 10
5118.755
 20
-9550.134
 30
-743.000
 70
    32
  0
VERTEX
  8
E60LXLIFT
 62
4
 10
5139.042
 20
-9544.074
 30
-743.000
 70
    32
  0
VERTEX
  8
E60LXLIFT
 62
4
 10
5149.653
 20
-9538.163
 30
-743.000
 70
    32
  0
VERTEX
  8
E60LXLIFT
 62
4
 10
5169.336
 20
-9535.969
 30
-743.000
 70
    32
  0
VERTEX
  8
E60LXLIFT
 62
4
 10
5194.583
 20
-9532.110
 30
-743.000
 70
    32
  0
VERTEX
  8
E60LXLIFT
 62
4
 10
5205.795
 20
-9528.164
 30
-743.000
 70
    32
  0
VERTEX
  8
E60LXLIFT
 62
4
 10
5221.620
 20
-9528.000
 30
-743.000
 70
    32
  0
VERTEX
  8
E60LXLIFT
 62
4
 10
5247.165
 20
-9537.664
 30
-743.000
 70
    32
  0
VERTEX
  8
E60LXLIFT
 62
4
 10
5270.494
 20
-9552.848
 30
-743.000
 70
    32
  0
VERTEX
  8
E60LXLIFT
 62
4
 10
5276.596
 20
-9555.836
 30
-743.000
 70
    32
  0
VERTEX
  8
E60LXLIFT
 62
4
 10
5279.972
 20
-9550.540
 30
-743.000
 70
    32
  0
VERTEX
  8
E60LXLIFT
 62
4
 10
5275.313
 20
-9542.175
 30
-743.000
 70
    32
  0
VERTEX
  8
E60LXLIFT
 62
4
 10
5265.734
 20
-9532.680
 30
-743.000
 70
    32
  0
VERTEX
  8
E60LXLIFT
 62
4
 10
5250.895
 20
-9520.003
 30
-743.000
 70
    32
  0
VERTEX
  8
E60LXLIFT
 62
4
 10
5233.779
 20
-9509.702
 30
-743.000
 70
    32
  0
VERTEX
  8
E60LXLIFT
 62
4
 10
5216.665
 20
-9500.280
 30
-743.000
 70
    32
  0
VERTEX
  8
E60LXLIFT
 62
4
 10
5206.524
 20
-9497.478
 30
-743.000
 70
    32
  0
VERTEX
  8
E60LXLIFT
 62
4
 10
5187.449
 20
-9497.124
 30
-743.000
 70
    32
  0
VERTEX
  8
E60LXLIFT
 62
4
 10
5169.425
 20
-9495.977
 30
-743.000
 70
    32
  0
VERTEX
  8
E60LXLIFT
 62
4
 10
5148.086
 20
-9489.411
 30
-743.000
 70
    32
  0
VERTEX
  8
E60LXLIFT
 62
4
 10
5131.881
 20
-9485.132
 30
-743.000
 70
    32
  0
VERTEX
  8
E60LXLIFT
 62
4
 10
5118.265
 20
-9483.411
 30
-743.000
 70
    32
  0
VERTEX
  8
E60LXLIFT
 62
4
 10
5111.411
 20
-9488.470
 30
-743.000
 70
    32
  0
VERTEX
  8
E60LXLIFT
 62
4
 10
5104.261
 20
-9501.450
 30
-743.000
 70
    32
  0
VERTEX
  8
E60LXLIFT
 62
4
 10
5100.848
 20
-9512.823
 30
-743.000
 70
    32
  0
VERTEX
  8
E60LXLIFT
 62
4
 10
5101.106
 20
-9523.957
 30
-743.000
 70
    32
  0
VERTEX
  8
E60LXLIFT
 62
4
 10
5099.554
 20
-9528.317
 30
-743.000
 70
    32
  0
SEQEND
  8
E60LXLIFT
  0
POLYLINE
  8
E60LXLIFT
 62
11
 66
     1
 70
     9
  0
VERTEX
  8
E60LXLIFT
 62
11
 10
5519.606
 20
-9620.276
 30
-732.000
 70
    32
  0
VERTEX
  8
E60LXLIFT
 62
11
 10
5517.327
 20
-9634.882
 30
-732.000
 70
    32
  0
VERTEX
  8
E60LXLIFT
 62
11
 10
5512.408
 20
-9652.255
 30
-732.000
 70
    32
  0
VERTEX
  8
E60LXLIFT
 62
11
 10
5509.954
 20
-9666.774
 30
-732.000
 70
    32
  0
VERTEX
  8
E60LXLIFT
 62
11
 10
5501.174
 20
-9680.790
 30
-732.000
 70
    32
  0
VERTEX
  8
E60LXLIFT
 62
11
 10
5496.478
 20
-9692.489
 30
-732.000
 70
    32
  0
VERTEX
  8
E60LXLIFT
 62
11
 10
5494.393
 20
-9702.545
 30
-732.000
 70
    32
  0
VERTEX
  8
E60LXLIFT
 62
11
 10
5497.187
 20
-9711.773
 30
-732.000
 70
    32
  0
VERTEX
  8
E60LXLIFT
 62
11
 10
5495.334
 20
-9722.863
 30
-732.000
 70
    32
  0
VERTEX
  8
E60LXLIFT
 62
11
 10
5508.795
 20
-9728.870
 30
-732.000
 70
    32
  0
VERTEX
  8
E60LXLIFT
 62
11
 10
5524.684
 20
-9731.389
 30
-732.000
 70
    32
  0
VERTEX
  8
E60LXLIFT
 62
11
 10
5529.528
 20
-9712.751
 30
-732.000
 70
    32
  0
VERTEX
  8
E60LXLIFT
 62
11
 10
5534.164
 20
-9699.225
 30
-732.000
 70
    32
  0
VERTEX
  8
E60LXLIFT
 62
11
 10
5543.095
 20
-9674.634
 30
-732.000
 70
    32
  0
VERTEX
  8
E60LXLIFT
 62
11
 10
5551.206
 20
-9655.948
 30
-732.000
 70
    32
  0
VERTEX
  8
E60LXLIFT
 62
11
 10
5556.937
 20
-9644.016
 30
-732.000
 70
    32
  0
VERTEX
  8
E60LXLIFT
 62
11
 10
5557.319
 20
-9638.552
 30
-732.000
 70
    32
  0
VERTEX
  8
E60LXLIFT
 62
11
 10
5542.050
 20
-9619.379
 30
-732.000
 70
    32
  0
SEQEND
  8
E60LXLIFT
  0
POLYLINE
  8
E60LXLIFT
 62
13
 66
     1
 70
     9
  0
VERTEX
  8
E60LXLIFT
 62
13
 10
5507.797
 20
-9530.549
 30
-738.000
 70
    32
  0
VERTEX
  8
E60LXLIFT
 62
13
 10
5501.196
 20
-9549.194
 30
-738.000
 70
    32
  0
VERTEX
  8
E60LXLIFT
 62
13
 10
5494.443
 20
-9555.843
 30
-738.000
 70
    32
  0
VERTEX
  8
E60LXLIFT
 62
13
 10
5480.065
 20
-9562.311
 30
-738.000
 70
    32
  0
VERTEX
  8
E60LXLIFT
 62
13
 10
5469.806
 20
-9570.730
 30
-738.000
 70
    32
  0
VERTEX
  8
E60LXLIFT
 62
13
 10
5468.301
 20
-9576.603
 30
-738.000
 70
    32
  0
VERTEX
  8
E60LXLIFT
 62
13
 10
5476.011
 20
-9580.683
 30
-738.000
 70
    32
  0
VERTEX
  8
E60LXLIFT
 62
13
 10
5488.577
 20
-9573.712
 30
-738.000
 70
    32
  0
VERTEX
  8
E60LXLIFT
 62
13
 10
5502.043
 20
-9576.522
 30
-738.000
 70
    32
  0
VERTEX
  8
E60LXLIFT
 62
13
 10
5516.521
 20
-9573.390
 30
-738.000
 70
    32
  0
VERTEX
  8
E60LXLIFT
 62
13
 10
5520.996
 20
-9567.805
 30
-738.000
 70
    32
  0
VERTEX
  8
E60LXLIFT
 62
13
 10
5517.683
 20
-9556.436
 30
-738.000
 70
    32
  0
VERTEX
  8
E60LXLIFT
 62
13
 10
5523.731
 20
-9544.485
 30
-738.000
 70
    32
  0
VERTEX
  8
E60LXLIFT
 62
13
 10
5527.062
 20
-9538.553
 30
-738.000
 70
    32
  0
VERTEX
  8
E60LXLIFT
 62
13
 10
5523.621
 20
-9529.925
 30
-738.000
 70
    32
  0
VERTEX
  8
E60LXLIFT
 62
13
 10
5516.841
 20
-9529.987
 30
-738.000
 70
    32
  0
SEQEND
  8
E60LXLIFT
  0
POLYLINE
  8
E60LXLIFT
 62
4
 66
     1
 70
     9
  0
VERTEX
  8
E60LXLIFT
 62
4
 10
5267.266
 20
-9535.281
 30
-732.000
 70
    32
  0
VERTEX
  8
E60LXLIFT
 62
4
 10
5269.796
 20
-9526.541
 30
-732.000
 70
    32
  0
VERTEX
  8
E60LXLIFT
 62
4
 10
5261.930
 20
-9518.615
 30
-732.000
 70
    32
  0
VERTEX
  8
E60LXLIFT
 62
4
 10
5241.851
 20
-9504.731
 30
-732.000
 70
    32
  0
VERTEX
  8
E60LXLIFT
 62
4
 10
5233.005
 20
-9497.547
 30
-732.000
 70
    32
  0
VERTEX
  8
E60LXLIFT
 62
4
 10
5216.491
 20
-9496.822
 30
-732.000
 70
    32
  0
VERTEX
  8
E60LXLIFT
 62
4
 10
5193.019
 20
-9499.708
 30
-732.000
 70
    32
  0
VERTEX
  8
E60LXLIFT
 62
4
 10
5172.718
 20
-9496.451
 30
-732.000
 70
    32
  0
VERTEX
  8
E60LXLIFT
 62
4
 10
5147.565
 20
-9487.505
 30
-732.000
 70
    32
  0
VERTEX
  8
E60LXLIFT
 62
4
 10
5135.762
 20
-9483.108
 30
-732.000
 70
    32
  0
VERTEX
  8
E60LXLIFT
 62
4
 10
5125.080
 20
-9486.892
 30
-732.000
 70
    32
  0
VERTEX
  8
E60LXLIFT
 62
4
 10
5116.481
 20
-9493.285
 30
-732.000
 70
    32
  0
VERTEX
  8
E60LXLIFT
 62
4
 10
5111.714
 20
-9500.523
 30
-732.000
 70
    32
  0
VERTEX
  8
E60LXLIFT
 62
4
 10
5112.011
 20
-9513.291
 30
-732.000
 70
    32
  0
VERTEX
  8
E60LXLIFT
 62
4
 10
5107.658
 20
-9527.483
 30
-732.000
 70
    32
  0
VERTEX
  8
E60LXLIFT
 62
4
 10
5100.728
 20
-9542.634
 30
-732.000
 70
    32
  0
VERTEX
  8
E60LXLIFT
 62
4
 10
5100.274
 20
-9552.226
 30
-732.000
 70
    32
  0
VERTEX
  8
E60LXLIFT
 62
4
 10
5107.244
 20
-9560.278
 30
-732.000
 70
    32
  0
VERTEX
  8
E60LXLIFT
 62
4
 10
5113.373
 20
-9559.938
 30
-732.000
 70
    32
  0
VERTEX
  8
E60LXLIFT
 62
4
 10
5124.792
 20
-9547.228
 30
-732.000
 70
    32
  0
VERTEX
  8
E60LXLIFT
 62
4
 10
5137.912
 20
-9542.592
 30
-732.000
 70
    32
  0
VERTEX
  8
E60LXLIFT
 62
4
 10
5148.963
 20
-9538.859
 30
-732.000
 70
    32
  0
VERTEX
  8
E60LXLIFT
 62
4
 10
5162.516
 20
-9532.465
 30
-732.000
 70
    32
  0
VERTEX
  8
E60LXLIFT
 62
4
 10
5177.558
 20
-9529.788
 30
-732.000
 70
    32
  0
VERTEX
  8
E60LXLIFT
 62
4
 10
5184.396
 20
-9531.113
 30
-732.000
 70
    32
  0
VERTEX
  8
E60LXLIFT
 62
4
 10
5198.387
 20
-9524.717
 30
-732.000
 70
    32
  0
VERTEX
  8
E60LXLIFT
 62
4
 10
5216.025
 20
-9520.958
 30
-732.000
 70
    32
  0
VERTEX
  8
E60LXLIFT
 62
4
 10
5228.754
 20
-9524.104
 30
-732.000
 70
    32
  0
VERTEX
  8
E60LXLIFT
 62
4
 10
5241.047
 20
-9532.205
 30
-732.000
 70
    32
  0
VERTEX
  8
E60LXLIFT
 62
4
 10
5251.299
 20
-9535.133
 30
-732.000
 70
    32
  0
SEQEND
  8
E60LXLIFT
  0
POLYLINE
  8
E60LXLIFT
 62
11
 66
     1
 70
     9
  0
VERTEX
  8
E60LXLIFT
 62
11
 10
5470.324
 20
-9643.944
 30
-722.000
 70
    32
  0
VERTEX
  8
E60LXLIFT
 62
11
 10
5478.086
 20
-9642.235
 30
-722.000
 70
    32
  0
VERTEX
  8
E60LXLIFT
 62
11
 10
5479.244
 20
-9651.742
 30
-722.000
 70
    32
  0
VERTEX
  8
E60LXLIFT
 62
11
 10
5493.466
 20
-9663.020
 30
-722.000
 70
    32
  0
VERTEX
  8
E60LXLIFT
 62
11
 10
5500.221
 20
-9663.183
 30
-722.000
 70
    32
  0
VERTEX
  8
E60LXLIFT
 62
11
 10
5511.460
 20
-9670.542
 30
-722.000
 70
    32
  0
VERTEX
  8
E60LXLIFT
 62
11
 10
5516.989
 20
-9664.012
 30
-722.000
 70
    32
  0
VERTEX
  8
E60LXLIFT
 62
11
 10
5529.176
 20
-9666.229
 30
-722.000
 70
    32
  0
VERTEX
  8
E60LXLIFT
 62
11
 10
5544.098
 20
-9667.247
 30
-722.000
 70
    32
  0
VERTEX
  8
E60LXLIFT
 62
11
 10
5538.875
 20
-9677.081
 30
-722.000
 70
    32
  0
VERTEX
  8
E60LXLIFT
 62
11
 10
5538.196
 20
-9690.418
 30
-722.000
 70
    32
  0
VERTEX
  8
E60LXLIFT
 62
11
 10
5531.347
 20
-9701.601
 30
-722.000
 70
    32
  0
VERTEX
  8
E60LXLIFT
 62
11
 10
5522.630
 20
-9709.895
 30
-722.000
 70
    32
  0
VERTEX
  8
E60LXLIFT
 62
11
 10
5507.081
 20
-9717.200
 30
-722.000
 70
    32
  0
VERTEX
  8
E60LXLIFT
 62
11
 10
5498.497
 20
-9719.425
 30
-722.000
 70
    32
  0
VERTEX
  8
E60LXLIFT
 62
11
 10
5495.662
 20
-9711.636
 30
-722.000
 70
    32
  0
VERTEX
  8
E60LXLIFT
 62
11
 10
5493.881
 20
-9701.166
 30
-722.000
 70
    32
  0
VERTEX
  8
E60LXLIFT
 62
11
 10
5483.654
 20
-9702.541
 30
-722.000
 70
    32
  0
VERTEX
  8
E60LXLIFT
 62
11
 10
5476.094
 20
-9690.723
 30
-722.000
 70
    32
  0
VERTEX
  8
E60LXLIFT
 62
11
 10
5473.408
 20
-9676.742
 30
-722.000
 70
    32
  0
VERTEX
  8
E60LXLIFT
 62
11
 10
5471.159
 20
-9654.914
 30
-722.000
 70
    32
  0
SEQEND
  8
E60LXLIFT
  0
POLYLINE
  8
E60LXLIFT
 62
13
 66
     1
 70
     9
  0
VERTEX
  8
E60LXLIFT
 62
13
 10
5517.363
 20
-9544.585
 30
-727.000
 70
    32
  0
VERTEX
  8
E60LXLIFT
 62
13
 10
5508.235
 20
-9529.982
 30
-727.000
 70
    32
  0
VERTEX
  8
E60LXLIFT
 62
13
 10
5503.830
 20
-9526.373
 30
-727.000
 70
    32
  0
VERTEX
  8
E60LXLIFT
 62
13
 10
5496.394
 20
-9529.381
 30
-727.000
 70
    32
  0
VERTEX
  8
E60LXLIFT
 62
13
 10
5495.836
 20
-9534.890
 30
-727.000
 70
    32
  0
VERTEX
  8
E60LXLIFT
 62
13
 10
5486.780
 20
-9540.126
 30
-727.000
 70
    32
  0
VERTEX
  8
E60LXLIFT
 62
13
 10
5481.222
 20
-9545.020
 30
-727.000
 70
    32
  0
VERTEX
  8
E60LXLIFT
 62
13
 10
5479.267
 20
-9552.034
 30
-727.000
 70
    32
  0
VERTEX
  8
E60LXLIFT
 62
13
 10
5480.317
 20
-9558.640
 30
-727.000
 70
    32
  0
VERTEX
  8
E60LXLIFT
 62
13
 10
5474.521
 20
-9567.141
 30
-727.000
 70
    32
  0
VERTEX
  8
E60LXLIFT
 62
13
 10
5468.543
 20
-9574.677
 30
-727.000
 70
    32
  0
VERTEX
  8
E60LXLIFT
 62
13
 10
5471.485
 20
-9580.284
 30
-727.000
 70
    32
  0
VERTEX
  8
E60LXLIFT
 62
13
 10
5486.136
 20
-9575.430
 30
-727.000
 70
    32
  0
VERTEX
  8
E60LXLIFT
 62
13
 10
5486.646
 20
-9575.374
 30
-727.000
 70
    32
  0
VERTEX
  8
E60LXLIFT
 62
13
 10
5495.992
 20
-9576.327
 30
-727.000
 70
    32
  0
VERTEX
  8
E60LXLIFT
 62
13
 10
5503.114
 20
-9576.100
 30
-727.000
 70
    32
  0
VERTEX
  8
E60LXLIFT
 62
13
 10
5510.286
 20
-9565.777
 30
-727.000
 70
    32
  0
VERTEX
  8
E60LXLIFT
 62
13
 10
5514.635
 20
-9554.067
 30
-727.000
 70
    32
  0
SEQEND
  8
E60LXLIFT
  0
POLYLINE
  8
E60LXLIFT
 62
4
 66
     1
 70
     9
  0
VERTEX
  8
E60LXLIFT
 62
4
 10
5196.293
 20
-9498.556
 30
-720.000
 70
    32
  0
VERTEX
  8
E60LXLIFT
 62
4
 10
5184.078
 20
-9499.787
 30
-720.000
 70
    32
  0
VERTEX
  8
E60LXLIFT
 62
4
 10
5175.405
 20
-9497.106
 30
-720.000
 70
    32
  0
VERTEX
  8
E60LXLIFT
 62
4
 10
5161.621
 20
-9497.873
 30
-720.000
 70
    32
  0
VERTEX
  8
E60LXLIFT
 62
4
 10
5152.494
 20
-9490.674
 30
-720.000
 70
    32
  0
VERTEX
  8
E60LXLIFT
 62
4
 10
5137.692
 20
-9489.233
 30
-720.000
 70
    32
  0
VERTEX
  8
E60LXLIFT
 62
4
 10
5126.447
 20
-9488.399
 30
-720.000
 70
    32
  0
VERTEX
  8
E60LXLIFT
 62
4
 10
5117.244
 20
-9495.184
 30
-720.000
 70
    32
  0
VERTEX
  8
E60LXLIFT
 62
4
 10
5111.525
 20
-9504.511
 30
-720.000
 70
    32
  0
VERTEX
  8
E60LXLIFT
 62
4
 10
5105.407
 20
-9509.832
 30
-720.000
 70
    32
  0
VERTEX
  8
E60LXLIFT
 62
4
 10
5099.169
 20
-9522.980
 30
-720.000
 70
    32
  0
VERTEX
  8
E60LXLIFT
 62
4
 10
5093.427
 20
-9531.551
 30
-720.000
 70
    32
  0
VERTEX
  8
E60LXLIFT
 62
4
 10
5089.287
 20
-9538.018
 30
-720.000
 70
    32
  0
VERTEX
  8
E60LXLIFT
 62
4
 10
5093.744
 20
-9546.341
 30
-720.000
 70
    32
  0
VERTEX
  8
E60LXLIFT
 62
4
 10
5103.318
 20
-9552.094
 30
-720.000
 70
    32
  0
VERTEX
  8
E60LXLIFT
 62
4
 10
5111.671
 20
-9546.951
 30
-720.000
 70
    32
  0
VERTEX
  8
E60LXLIFT
 62
4
 10
5121.340
 20
-9539.037
 30
-720.000
 70
    32
  0
VERTEX
  8
E60LXLIFT
 62
4
 10
5131.674
 20
-9535.480
 30
-720.000
 70
    32
  0
VERTEX
  8
E60LXLIFT
 62
4
 10
5141.581
 20
-9533.686
 30
-720.000
 70
    32
  0
VERTEX
  8
E60LXLIFT
 62
4
 10
5152.363
 20
-9526.362
 30
-720.000
 70
    32
  0
VERTEX
  8
E60LXLIFT
 62
4
 10
5166.295
 20
-9521.724
 30
-720.000
 70
    32
  0
VERTEX
  8
E60LXLIFT
 62
4
 10
5178.320
 20
-9520.970
 30
-720.000
 70
    32
  0
VERTEX
  8
E60LXLIFT
 62
4
 10
5187.387
 20
-9519.814
 30
-720.000
 70
    32
  0
VERTEX
  8
E60LXLIFT
 62
4
 10
5193.317
 20
-9525.136
 30
-720.000
 70
    32
  0
VERTEX
  8
E60LXLIFT
 62
4
 10
5198.726
 20
-9519.029
 30
-720.000
 70
    32
  0
VERTEX
  8
E60LXLIFT
 62
4
 10
5204.675
 20
-9509.858
 30
-720.000
 70
    32
  0
SEQEND
  8
E60LXLIFT
  0
POLYLINE
  8
E60LXLIFT
 62
13
 66
     1
 70
     9
  0
VERTEX
  8
E60LXLIFT
 62
13
 10
5477.517
 20
-9591.603
 30
-720.000
 70
    32
  0
VERTEX
  8
E60LXLIFT
 62
13
 10
5471.428
 20
-9582.132
 30
-720.000
 70
    32
  0
VERTEX
  8
E60LXLIFT
 62
13
 10
5463.701
 20
-9575.746
 30
-720.000
 70
    32
  0
VERTEX
  8
E60LXLIFT
 62
13
 10
5477.999
 20
-9560.137
 30
-720.000
 70
    32
  0
VERTEX
  8
E60LXLIFT
 62
13
 10
5470.296
 20
-9559.648
 30
-720.000
 70
    32
  0
VERTEX
  8
E60LXLIFT
 62
13
 10
5464.554
 20
-9543.017
 30
-720.000
 70
    32
  0
VERTEX
  8
E60LXLIFT
 62
13
 10
5459.265
 20
-9528.019
 30
-720.000
 70
    32
  0
VERTEX
  8
E60LXLIFT
 62
13
 10
5464.986
 20
-9519.255
 30
-720.000
 70
    32
  0
VERTEX
  8
E60LXLIFT
 62
13
 10
5466.894
 20
-9512.572
 30
-720.000
 70
    32
  0
VERTEX
  8
E60LXLIFT
 62
13
 10
5476.537
 20
-9508.326
 30
-720.000
 70
    32
  0
VERTEX
  8
E60LXLIFT
 62
13
 10
5484.594
 20
-9507.675
 30
-720.000
 70
    32
  0
VERTEX
  8
E60LXLIFT
 62
13
 10
5495.291
 20
-9521.262
 30
-720.000
 70
    32
  0
VERTEX
  8
E60LXLIFT
 62
13
 10
5492.958
 20
-9538.667
 30
-720.000
 70
    32
  0
VERTEX
  8
E60LXLIFT
 62
13
 10
5503.351
 20
-9555.219
 30
-720.000
 70
    32
  0
VERTEX
  8
E60LXLIFT
 62
13
 10
5495.673
 20
-9559.749
 30
-720.000
 70
    32
  0
VERTEX
  8
E60LXLIFT
 62
13
 10
5493.858
 20
-9581.368
 30
-720.000
 70
    32
  0
SEQEND
  8
E60LXLIFT
  0
POLYLINE
  8
E60LXLIFT
 62
11
 66
     1
 70
     9
  0
VERTEX
  8
E60LXLIFT
 62
11
 10
5528.576
 20
-9678.917
 30
-712.000
 70
    32
  0
VERTEX
  8
E60LXLIFT
 62
11
 10
5514.421
 20
-9671.752
 30
-712.000
 70
    32
  0
VERTEX
  8
E60LXLIFT
 62
11
 10
5498.322
 20
-9663.189
 30
-712.000
 70
    32
  0
VERTEX
  8
E60LXLIFT
 62
11
 10
5485.537
 20
-9652.004
 30
-712.000
 70
    32
  0
VERTEX
  8
E60LXLIFT
 62
11
 10
5477.366
 20
-9641.077
 30
-712.000
 70
    32
  0
VERTEX
  8
E60LXLIFT
 62
11
 10
5470.997
 20
-9645.352
 30
-712.000
 70
    32
  0
VERTEX
  8
E60LXLIFT
 62
11
 10
5475.999
 20
-9663.319
 30
-712.000
 70
    32
  0
VERTEX
  8
E60LXLIFT
 62
11
 10
5480.321
 20
-9682.575
 30
-712.000
 70
    32
  0
VERTEX
  8
E60LXLIFT
 62
11
 10
5493.116
 20
-9699.165
 30
-712.000
 70
    32
  0
VERTEX
  8
E60LXLIFT
 62
11
 10
5497.400
 20
-9700.446
 30
-712.000
 70
    32
  0
VERTEX
  8
E60LXLIFT
 62
11
 10
5498.443
 20
-9704.737
 30
-712.000
 70
    32
  0
VERTEX
  8
E60LXLIFT
 62
11
 10
5491.630
 20
-9711.778
 30
-712.000
 70
    32
  0
VERTEX
  8
E60LXLIFT
 62
11
 10
5493.868
 20
-9715.604
 30
-712.000
 70
    32
  0
VERTEX
  8
E60LXLIFT
 62
11
 10
5513.848
 20
-9708.303
 30
-712.000
 70
    32
  0
VERTEX
  8
E60LXLIFT
 62
11
 10
5518.639
 20
-9701.800
 30
-712.000
 70
    32
  0
VERTEX
  8
E60LXLIFT
 62
11
 10
5525.624
 20
-9697.610
 30
-712.000
 70
    32
  0
SEQEND
  8
E60LXLIFT
  0
POLYLINE
  8
E60LXLIFT
 62
13
 66
     1
 70
     9
  0
VERTEX
  8
E60LXLIFT
 62
13
 10
5522.399
 20
-9522.122
 30
-709.000
 70
    32
  0
VERTEX
  8
E60LXLIFT
 62
13
 10
5520.901
 20
-9535.739
 30
-709.000
 70
    32
  0
VERTEX
  8
E60LXLIFT
 62
13
 10
5513.223
 20
-9542.221
 30
-709.000
 70
    32
  0
VERTEX
  8
E60LXLIFT
 62
13
 10
5509.540
 20
-9552.080
 30
-709.000
 70
    32
  0
VERTEX
  8
E60LXLIFT
 62
13
 10
5503.650
 20
-9560.631
 30
-709.000
 70
    32
  0
VERTEX
  8
E60LXLIFT
 62
13
 10
5492.577
 20
-9571.232
 30
-709.000
 70
    32
  0
VERTEX
  8
E60LXLIFT
 62
13
 10
5490.245
 20
-9583.603
 30
-709.000
 70
    32
  0
VERTEX
  8
E60LXLIFT
 62
13
 10
5494.175
 20
-9594.762
 30
-709.000
 70
    32
  0
VERTEX
  8
E60LXLIFT
 62
13
 10
5494.200
 20
-9603.247
 30
-709.000
 70
    32
  0
VERTEX
  8
E60LXLIFT
 62
13
 10
5510.081
 20
-9621.142
 30
-709.000
 70
    32
  0
VERTEX
  8
E60LXLIFT
 62
13
 10
5505.227
 20
-9629.018
 30
-709.000
 70
    32
  0
VERTEX
  8
E60LXLIFT
 62
13
 10
5505.441
 20
-9636.588
 30
-709.000
 70
    32
  0
VERTEX
  8
E60LXLIFT
 62
13
 10
5486.625
 20
-9637.263
 30
-709.000
 70
    32
  0
VERTEX
  8
E60LXLIFT
 62
13
 10
5477.478
 20
-9635.249
 30
-709.000
 70
    32
  0
VERTEX
  8
E60LXLIFT
 62
13
 10
5474.408
 20
-9605.988
 30
-709.000
 70
    32
  0
VERTEX
  8
E60LXLIFT
 62
13
 10
5472.969
 20
-9589.517
 30
-709.000
 70
    32
  0
VERTEX
  8
E60LXLIFT
 62
13
 10
5470.391
 20
-9584.512
 30
-709.000
 70
    32
  0
VERTEX
  8
E60LXLIFT
 62
13
 10
5462.928
 20
-9581.223
 30
-709.000
 70
    32
  0
VERTEX
  8
E60LXLIFT
 62
13
 10
5461.192
 20
-9575.580
 30
-709.000
 70
    32
  0
VERTEX
  8
E60LXLIFT
 62
13
 10
5473.576
 20
-9563.212
 30
-709.000
 70
    32
  0
VERTEX
  8
E60LXLIFT
 62
13
 10
5480.535
 20
-9550.096
 30
-709.000
 70
    32
  0
VERTEX
  8
E60LXLIFT
 62
13
 10
5480.638
 20
-9535.660
 30
-709.000
 70
    32
  0
VERTEX
  8
E60LXLIFT
 62
13
 10
5491.396
 20
-9521.874
 30
-709.000
 70
    32
  0
VERTEX
  8
E60LXLIFT
 62
13
 10
5503.561
 20
-9518.397
 30
-709.000
 70
    32
  0
VERTEX
  8
E60LXLIFT
 62
13
 10
5514.150
 20
-9513.133
 30
-709.000
 70
    32
  0
SEQEND
  8
E60LXLIFT
  0
POLYLINE
  8
E60LXLIFT
 62
4
 66
     1
 70
     9
  0
VERTEX
  8
E60LXLIFT
 62
4
 10
5106.581
 20
-9555.958
 30
-710.000
 70
    32
  0
VERTEX
  8
E60LXLIFT
 62
4
 10
5109.433
 20
-9548.937
 30
-710.000
 70
    32
  0
VERTEX
  8
E60LXLIFT
 62
4
 10
5125.955
 20
-9536.636
 30
-710.000
 70
    32
  0
VERTEX
  8
E60LXLIFT
 62
4
 10
5137.548
 20
-9524.535
 30
-710.000
 70
    32
  0
VERTEX
  8
E60LXLIFT
 62
4
 10
5153.662
 20
-9511.550
 30
-710.000
 70
    32
  0
VERTEX
  8
E60LXLIFT
 62
4
 10
5162.856
 20
-9505.465
 30
-710.000
 70
    32
  0
VERTEX
  8
E60LXLIFT
 62
4
 10
5165.261
 20
-9497.126
 30
-710.000
 70
    32
  0
VERTEX
  8
E60LXLIFT
 62
4
 10
5154.377
 20
-9492.674
 30
-710.000
 70
    32
  0
VERTEX
  8
E60LXLIFT
 62
4
 10
5145.345
 20
-9492.561
 30
-710.000
 70
    32
  0
VERTEX
  8
E60LXLIFT
 62
4
 10
5140.613
 20
-9496.810
 30
-710.000
 70
    32
  0
VERTEX
  8
E60LXLIFT
 62
4
 10
5132.790
 20
-9495.670
 30
-710.000
 70
    32
  0
VERTEX
  8
E60LXLIFT
 62
4
 10
5117.999
 20
-9498.596
 30
-710.000
 70
    32
  0
VERTEX
  8
E60LXLIFT
 62
4
 10
5107.788
 20
-9502.028
 30
-710.000
 70
    32
  0
VERTEX
  8
E60LXLIFT
 62
4
 10
5101.225
 20
-9513.187
 30
-710.000
 70
    32
  0
VERTEX
  8
E60LXLIFT
 62
4
 10
5096.935
 20
-9517.874
 30
-710.000
 70
    32
  0
VERTEX
  8
E60LXLIFT
 62
4
 10
5101.473
 20
-9520.509
 30
-710.000
 70
    32
  0
VERTEX
  8
E60LXLIFT
 62
4
 10
5095.117
 20
-9537.918
 30
-710.000
 70
    32
  0
VERTEX
  8
E60LXLIFT
 62
4
 10
5088.125
 20
-9551.280
 30
-710.000
 70
    32
  0
VERTEX
  8
E60LXLIFT
 62
4
 10
5088.924
 20
-9559.621
 30
-710.000
 70
    32
  0
SEQEND
  8
E60LXLIFT
  0
POLYLINE
  8
E60LXLIFT
 62
11
 66
     1
 70
     9
  0
VERTEX
  8
E60LXLIFT
 62
11
 10
5529.710
 20
-9679.383
 30
-705.000
 70
    32
  0
VERTEX
  8
E60LXLIFT
 62
11
 10
5527.571
 20
-9692.303
 30
-705.000
 70
    32
  0
VERTEX
  8
E60LXLIFT
 62
11
 10
5520.805
 20
-9703.003
 30
-705.000
 70
    32
  0
VERTEX
  8
E60LXLIFT
 62
11
 10
5509.997
 20
-9710.632
 30
-705.000
 70
    32
  0
VERTEX
  8
E60LXLIFT
 62
11
 10
5498.736
 20
-9717.174
 30
-705.000
 70
    32
  0
VERTEX
  8
E60LXLIFT
 62
11
 10
5493.808
 20
-9730.138
 30
-705.000
 70
    32
  0
VERTEX
  8
E60LXLIFT
 62
11
 10
5492.096
 20
-9740.474
 30
-705.000
 70
    32
  0
VERTEX
  8
E60LXLIFT
 62
11
 10
5487.895
 20
-9752.483
 30
-705.000
 70
    32
  0
VERTEX
  8
E60LXLIFT
 62
11
 10
5475.370
 20
-9765.896
 30
-705.000
 70
    32
  0
VERTEX
  8
E60LXLIFT
 62
11
 10
5471.635
 20
-9762.496
 30
-705.000
 70
    32
  0
VERTEX
  8
E60LXLIFT
 62
11
 10
5475.052
 20
-9746.058
 30
-705.000
 70
    32
  0
VERTEX
  8
E60LXLIFT
 62
11
 10
5476.499
 20
-9727.018
 30
-705.000
 70
    32
  0
VERTEX
  8
E60LXLIFT
 62
11
 10
5463.465
 20
-9723.659
 30
-705.000
 70
    32
  0
VERTEX
  8
E60LXLIFT
 62
11
 10
5465.518
 20
-9716.224
 30
-705.000
 70
    32
  0
VERTEX
  8
E60LXLIFT
 62
11
 10
5474.784
 20
-9714.471
 30
-705.000
 70
    32
  0
VERTEX
  8
E60LXLIFT
 62
11
 10
5485.966
 20
-9711.456
 30
-705.000
 70
    32
  0
VERTEX
  8
E60LXLIFT
 62
11
 10
5493.768
 20
-9711.294
 30
-705.000
 70
    32
  0
VERTEX
  8
E60LXLIFT
 62
11
 10
5500.661
 20
-9704.408
 30
-705.000
 70
    32
  0
VERTEX
  8
E60LXLIFT
 62
11
 10
5488.711
 20
-9688.775
 30
-705.000
 70
    32
  0
VERTEX
  8
E60LXLIFT
 62
11
 10
5480.925
 20
-9673.958
 30
-705.000
 70
    32
  0
VERTEX
  8
E60LXLIFT
 62
11
 10
5473.857
 20
-9670.449
 30
-705.000
 70
    32
  0
VERTEX
  8
E60LXLIFT
 62
11
 10
5469.291
 20
-9656.039
 30
-705.000
 70
    32
  0
VERTEX
  8
E60LXLIFT
 62
11
 10
5471.293
 20
-9649.291
 30
-705.000
 70
    32
  0
VERTEX
  8
E60LXLIFT
 62
11
 10
5479.395
 20
-9641.973
 30
-705.000
 70
    32
  0
VERTEX
  8
E60LXLIFT
 62
11
 10
5489.661
 20
-9655.557
 30
-705.000
 70
    32
  0
VERTEX
  8
E60LXLIFT
 62
11
 10
5508.787
 20
-9670.608
 30
-705.000
 70
    32
  0
SEQEND
  8
E60LXLIFT
  0
POLYLINE
  8
E60LXLIFT
 62
13
 66
     1
 70
     9
  0
VERTEX
  8
E60LXLIFT
 62
13
 10
5526.866
 20
-9525.562
 30
-701.000
 70
    32
  0
VERTEX
  8
E60LXLIFT
 62
13
 10
5513.109
 20
-9536.495
 30
-701.000
 70
    32
  0
VERTEX
  8
E60LXLIFT
 62
13
 10
5502.257
 20
-9551.638
 30
-701.000
 70
    32
  0
VERTEX
  8
E60LXLIFT
 62
13
 10
5492.448
 20
-9563.541
 30
-701.000
 70
    32
  0
VERTEX
  8
E60LXLIFT
 62
13
 10
5489.748
 20
-9570.679
 30
-701.000
 70
    32
  0
VERTEX
  8
E60LXLIFT
 62
13
 10
5493.042
 20
-9583.614
 30
-701.000
 70
    32
  0
VERTEX
  8
E60LXLIFT
 62
13
 10
5496.429
 20
-9596.374
 30
-701.000
 70
    32
  0
VERTEX
  8
E60LXLIFT
 62
13
 10
5504.909
 20
-9598.221
 30
-701.000
 70
    32
  0
VERTEX
  8
E60LXLIFT
 62
13
 10
5507.537
 20
-9601.438
 30
-701.000
 70
    32
  0
VERTEX
  8
E60LXLIFT
 62
13
 10
5502.418
 20
-9628.529
 30
-701.000
 70
    32
  0
VERTEX
  8
E60LXLIFT
 62
13
 10
5499.503
 20
-9635.063
 30
-701.000
 70
    32
  0
VERTEX
  8
E60LXLIFT
 62
13
 10
5485.472
 20
-9639.250
 30
-701.000
 70
    32
  0
VERTEX
  8
E60LXLIFT
 62
13
 10
5474.978
 20
-9643.075
 30
-701.000
 70
    32
  0
VERTEX
  8
E60LXLIFT
 62
13
 10
5465.612
 20
-9647.718
 30
-701.000
 70
    32
  0
VERTEX
  8
E60LXLIFT
 62
13
 10
5460.957
 20
-9637.276
 30
-701.000
 70
    32
  0
VERTEX
  8
E60LXLIFT
 62
13
 10
5461.463
 20
-9631.165
 30
-701.000
 70
    32
  0
VERTEX
  8
E60LXLIFT
 62
13
 10
5472.086
 20
-9622.368
 30
-701.000
 70
    32
  0
VERTEX
  8
E60LXLIFT
 62
13
 10
5477.836
 20
-9611.310
 30
-701.000
 70
    32
  0
VERTEX
  8
E60LXLIFT
 62
13
 10
5481.048
 20
-9594.586
 30
-701.000
 70
    32
  0
VERTEX
  8
E60LXLIFT
 62
13
 10
5471.821
 20
-9584.271
 30
-701.000
 70
    32
  0
VERTEX
  8
E60LXLIFT
 62
13
 10
5461.757
 20
-9578.243
 30
-701.000
 70
    32
  0
VERTEX
  8
E60LXLIFT
 62
13
 10
5456.696
 20
-9571.020
 30
-701.000
 70
    32
  0
VERTEX
  8
E60LXLIFT
 62
13
 10
5454.294
 20
-9567.968
 30
-701.000
 70
    32
  0
VERTEX
  8
E60LXLIFT
 62
13
 10
5455.088
 20
-9563.169
 30
-701.000
 70
    32
  0
VERTEX
  8
E60LXLIFT
 62
13
 10
5463.126
 20
-9562.730
 30
-701.000
 70
    32
  0
VERTEX
  8
E60LXLIFT
 62
13
 10
5466.145
 20
-9568.161
 30
-701.000
 70
    32
  0
VERTEX
  8
E60LXLIFT
 62
13
 10
5472.990
 20
-9564.237
 30
-701.000
 70
    32
  0
VERTEX
  8
E60LXLIFT
 62
13
 10
5476.101
 20
-9559.190
 30
-701.000
 70
    32
  0
VERTEX
  8
E60LXLIFT
 62
13
 10
5471.886
 20
-9547.240
 30
-701.000
 70
    32
  0
VERTEX
  8
E60LXLIFT
 62
13
 10
5471.693
 20
-9519.395
 30
-701.000
 70
    32
  0
VERTEX
  8
E60LXLIFT
 62
13
 10
5477.801
 20
-9507.322
 30
-701.000
 70
    32
  0
VERTEX
  8
E60LXLIFT
 62
13
 10
5489.781
 20
-9502.543
 30
-701.000
 70
    32
  0
VERTEX
  8
E60LXLIFT
 62
13
 10
5508.080
 20
-9491.288
 30
-701.000
 70
    32
  0
VERTEX
  8
E60LXLIFT
 62
13
 10
5518.204
 20
-9506.491
 30
-701.000
 70
    32
  0
SEQEND
  8
E60LXLIFT
  0
POLYLINE
  8
E60LXLIFT
 62
4
 66
     1
 70
     9
  0
VERTEX
  8
E60LXLIFT
 62
4
 10
5085.763
 20
-9542.838
 30
-701.000
 70
    32
  0
VERTEX
  8
E60LXLIFT
 62
4
 10
5092.083
 20
-9548.183
 30
-701.000
 70
    32
  0
VERTEX
  8
E60LXLIFT
 62
4
 10
5101.377
 20
-9543.591
 30
-701.000
 70
    32
  0
VERTEX
  8
E60LXLIFT
 62
4
 10
5110.327
 20
-9533.063
 30
-701.000
 70
    32
  0
VERTEX
  8
E60LXLIFT
 62
4
 10
5121.279
 20
-9525.332
 30
-701.000
 70
    32
  0
VERTEX
  8
E60LXLIFT
 62
4
 10
5129.797
 20
-9514.353
 30
-701.000
 70
    32
  0
VERTEX
  8
E60LXLIFT
 62
4
 10
5143.270
 20
-9505.143
 30
-701.000
 70
    32
  0
VERTEX
  8
E60LXLIFT
 62
4
 10
5154.465
 20
-9495.177
 30
-701.000
 70
    32
  0
VERTEX
  8
E60LXLIFT
 62
4
 10
5159.051
 20
-9488.098
 30
-701.000
 70
    32
  0
VERTEX
  8
E60LXLIFT
 62
4
 10
5152.249
 20
-9483.748
 30
-701.000
 70
    32
  0
VERTEX
  8
E60LXLIFT
 62
4
 10
5137.305
 20
-9487.721
 30
-701.000
 70
    32
  0
VERTEX
  8
E60LXLIFT
 62
4
 10
5121.465
 20
-9486.804
 30
-701.000
 70
    32
  0
VERTEX
  8
E60LXLIFT
 62
4
 10
5107.468
 20
-9483.917
 30
-701.000
 70
    32
  0
VERTEX
  8
E60LXLIFT
 62
4
 10
5102.448
 20
-9497.814
 30
-701.000
 70
    32
  0
VERTEX
  8
E60LXLIFT
 62
4
 10
5093.741
 20
-9504.589
 30
-701.000
 70
    32
  0
VERTEX
  8
E60LXLIFT
 62
4
 10
5092.176
 20
-9518.616
 30
-701.000
 70
    32
  0
SEQEND
  8
E60LXLIFT
  0
POLYLINE
  8
E60LXLIFT
 62
13
 66
     1
 70
     9
  0
VERTEX
  8
E60LXLIFT
 62
13
 10
5449.671
 20
-9550.798
 30
-693.000
 70
    32
  0
VERTEX
  8
E60LXLIFT
 62
13
 10
5454.117
 20
-9554.970
 30
-693.000
 70
    32
  0
VERTEX
  8
E60LXLIFT
 62
13
 10
5471.595
 20
-9562.404
 30
-693.000
 70
    32
  0
VERTEX
  8
E60LXLIFT
 62
13
 10
5475.965
 20
-9554.391
 30
-693.000
 70
    32
  0
VERTEX
  8
E60LXLIFT
 62
13
 10
5465.170
 20
-9539.527
 30
-693.000
 70
    32
  0
VERTEX
  8
E60LXLIFT
 62
13
 10
5455.099
 20
-9525.336
 30
-693.000
 70
    32
  0
VERTEX
  8
E60LXLIFT
 62
13
 10
5459.773
 20
-9513.896
 30
-693.000
 70
    32
  0
VERTEX
  8
E60LXLIFT
 62
13
 10
5477.978
 20
-9498.284
 30
-693.000
 70
    32
  0
VERTEX
  8
E60LXLIFT
 62
13
 10
5490.988
 20
-9486.339
 30
-693.000
 70
    32
  0
VERTEX
  8
E60LXLIFT
 62
13
 10
5498.336
 20
-9485.251
 30
-693.000
 70
    32
  0
VERTEX
  8
E60LXLIFT
 62
13
 10
5499.950
 20
-9497.280
 30
-693.000
 70
    32
  0
VERTEX
  8
E60LXLIFT
 62
13
 10
5504.687
 20
-9511.272
 30
-693.000
 70
    32
  0
VERTEX
  8
E60LXLIFT
 62
13
 10
5510.349
 20
-9518.836
 30
-693.000
 70
    32
  0
VERTEX
  8
E60LXLIFT
 62
13
 10
5491.142
 20
-9547.111
 30
-693.000
 70
    32
  0
VERTEX
  8
E60LXLIFT
 62
13
 10
5486.418
 20
-9556.273
 30
-693.000
 70
    32
  0
VERTEX
  8
E60LXLIFT
 62
13
 10
5490.078
 20
-9570.740
 30
-693.000
 70
    32
  0
VERTEX
  8
E60LXLIFT
 62
13
 10
5490.716
 20
-9586.918
 30
-693.000
 70
    32
  0
VERTEX
  8
E60LXLIFT
 62
13
 10
5500.932
 20
-9597.030
 30
-693.000
 70
    32
  0
VERTEX
  8
E60LXLIFT
 62
13
 10
5505.616
 20
-9610.952
 30
-693.000
 70
    32
  0
VERTEX
  8
E60LXLIFT
 62
13
 10
5493.688
 20
-9618.005
 30
-693.000
 70
    32
  0
VERTEX
  8
E60LXLIFT
 62
13
 10
5481.416
 20
-9616.492
 30
-693.000
 70
    32
  0
VERTEX
  8
E60LXLIFT
 62
13
 10
5479.168
 20
-9602.290
 30
-693.000
 70
    32
  0
VERTEX
  8
E60LXLIFT
 62
13
 10
5479.907
 20
-9587.067
 30
-693.000
 70
    32
  0
VERTEX
  8
E60LXLIFT
 62
13
 10
5466.848
 20
-9576.988
 30
-693.000
 70
    32
  0
VERTEX
  8
E60LXLIFT
 62
13
 10
5462.594
 20
-9573.664
 30
-693.000
 70
    32
  0
VERTEX
  8
E60LXLIFT
 62
13
 10
5452.947
 20
-9578.900
 30
-693.000
 70
    32
  0
VERTEX
  8
E60LXLIFT
 62
13
 10
5457.843
 20
-9592.662
 30
-693.000
 70
    32
  0
VERTEX
  8
E60LXLIFT
 62
13
 10
5449.999
 20
-9595.004
 30
-693.000
 70
    32
  0
VERTEX
  8
E60LXLIFT
 62
13
 10
5434.916
 20
-9577.505
 30
-693.000
 70
    32
  0
VERTEX
  8
E60LXLIFT
 62
13
 10
5422.110
 20
-9560.838
 30
-693.000
 70
    32
  0
VERTEX
  8
E60LXLIFT
 62
13
 10
5415.480
 20
-9549.476
 30
-693.000
 70
    32
  0
VERTEX
  8
E60LXLIFT
 62
13
 10
5418.615
 20
-9540.401
 30
-693.000
 70
    32
  0
VERTEX
  8
E60LXLIFT
 62
13
 10
5436.973
 20
-9531.624
 30
-693.000
 70
    32
  0
SEQEND
  8
E60LXLIFT
  0
POLYLINE
  8
E60LXLIFT
 62
4
 66
     1
 70
     9
  0
VERTEX
  8
E60LXLIFT
 62
4
 10
5086.133
 20
-9537.117
 30
-694.000
 70
    32
  0
VERTEX
  8
E60LXLIFT
 62
4
 10
5095.494
 20
-9535.625
 30
-694.000
 70
    32
  0
VERTEX
  8
E60LXLIFT
 62
4
 10
5107.705
 20
-9527.919
 30
-694.000
 70
    32
  0
VERTEX
  8
E60LXLIFT
 62
4
 10
5115.548
 20
-9526.460
 30
-694.000
 70
    32
  0
VERTEX
  8
E60LXLIFT
 62
4
 10
5128.329
 20
-9513.916
 30
-694.000
 70
    32
  0
VERTEX
  8
E60LXLIFT
 62
4
 10
5136.019
 20
-9506.505
 30
-694.000
 70
    32
  0
VERTEX
  8
E60LXLIFT
 62
4
 10
5148.741
 20
-9499.630
 30
-694.000
 70
    32
  0
VERTEX
  8
E60LXLIFT
 62
4
 10
5154.383
 20
-9491.546
 30
-694.000
 70
    32
  0
VERTEX
  8
E60LXLIFT
 62
4
 10
5152.023
 20
-9484.709
 30
-694.000
 70
    32
  0
VERTEX
  8
E60LXLIFT
 62
4
 10
5141.922
 20
-9483.446
 30
-694.000
 70
    32
  0
VERTEX
  8
E60LXLIFT
 62
4
 10
5131.587
 20
-9486.438
 30
-694.000
 70
    32
  0
VERTEX
  8
E60LXLIFT
 62
4
 10
5122.774
 20
-9487.189
 30
-694.000
 70
    32
  0
VERTEX
  8
E60LXLIFT
 62
4
 10
5112.498
 20
-9484.071
 30
-694.000
 70
    32
  0
VERTEX
  8
E60LXLIFT
 62
4
 10
5105.691
 20
-9491.482
 30
-694.000
 70
    32
  0
VERTEX
  8
E60LXLIFT
 62
4
 10
5097.029
 20
-9499.951
 30
-694.000
 70
    32
  0
VERTEX
  8
E60LXLIFT
 62
4
 10
5091.376
 20
-9501.535
 30
-694.000
 70
    32
  0
VERTEX
  8
E60LXLIFT
 62
4
 10
5084.910
 20
-9504.390
 30
-694.000
 70
    32
  0
VERTEX
  8
E60LXLIFT
 62
4
 10
5081.384
 20
-9516.184
 30
-694.000
 70
    32
  0
VERTEX
  8
E60LXLIFT
 62
4
 10
5079.593
 20
-9523.371
 30
-694.000
 70
    32
  0
SEQEND
  8
E60LXLIFT
  0
POLYLINE
  8
E60LXLIFT
 62
13
 66
     1
 70
     9
  0
VERTEX
  8
E60LXLIFT
 62
13
 10
5501.361
 20
-9476.311
 30
-685.000
 70
    32
  0
VERTEX
  8
E60LXLIFT
 62
13
 10
5506.215
 20
-9480.491
 30
-685.000
 70
    32
  0
VERTEX
  8
E60LXLIFT
 62
13
 10
5506.551
 20
-9500.000
 30
-685.000
 70
    32
  0
VERTEX
  8
E60LXLIFT
 62
13
 10
5500.567
 20
-9519.666
 30
-685.000
 70
    32
  0
VERTEX
  8
E60LXLIFT
 62
13
 10
5492.463
 20
-9534.952
 30
-685.000
 70
    32
  0
VERTEX
  8
E60LXLIFT
 62
13
 10
5489.195
 20
-9549.882
 30
-685.000
 70
    32
  0
VERTEX
  8
E60LXLIFT
 62
13
 10
5486.573
 20
-9561.875
 30
-685.000
 70
    32
  0
VERTEX
  8
E60LXLIFT
 62
13
 10
5500.488
 20
-9579.242
 30
-685.000
 70
    32
  0
VERTEX
  8
E60LXLIFT
 62
13
 10
5508.747
 20
-9596.037
 30
-685.000
 70
    32
  0
VERTEX
  8
E60LXLIFT
 62
13
 10
5498.957
 20
-9610.278
 30
-685.000
 70
    32
  0
VERTEX
  8
E60LXLIFT
 62
13
 10
5484.363
 20
-9619.967
 30
-685.000
 70
    32
  0
VERTEX
  8
E60LXLIFT
 62
13
 10
5475.508
 20
-9618.839
 30
-685.000
 70
    32
  0
VERTEX
  8
E60LXLIFT
 62
13
 10
5474.789
 20
-9602.176
 30
-685.000
 70
    32
  0
VERTEX
  8
E60LXLIFT
 62
13
 10
5481.148
 20
-9593.772
 30
-685.000
 70
    32
  0
VERTEX
  8
E60LXLIFT
 62
13
 10
5473.890
 20
-9580.765
 30
-685.000
 70
    32
  0
VERTEX
  8
E60LXLIFT
 62
13
 10
5465.005
 20
-9580.326
 30
-685.000
 70
    32
  0
VERTEX
  8
E60LXLIFT
 62
13
 10
5458.253
 20
-9572.929
 30
-685.000
 70
    32
  0
VERTEX
  8
E60LXLIFT
 62
13
 10
5448.124
 20
-9577.991
 30
-685.000
 70
    32
  0
VERTEX
  8
E60LXLIFT
 62
13
 10
5441.846
 20
-9570.344
 30
-685.000
 70
    32
  0
VERTEX
  8
E60LXLIFT
 62
13
 10
5450.320
 20
-9559.327
 30
-685.000
 70
    32
  0
VERTEX
  8
E60LXLIFT
 62
13
 10
5466.869
 20
-9564.137
 30
-685.000
 70
    32
  0
VERTEX
  8
E60LXLIFT
 62
13
 10
5476.949
 20
-9561.776
 30
-685.000
 70
    32
  0
VERTEX
  8
E60LXLIFT
 62
13
 10
5476.896
 20
-9550.935
 30
-685.000
 70
    32
  0
VERTEX
  8
E60LXLIFT
 62
13
 10
5470.705
 20
-9536.560
 30
-685.000
 70
    32
  0
VERTEX
  8
E60LXLIFT
 62
13
 10
5464.617
 20
-9521.883
 30
-685.000
 70
    32
  0
VERTEX
  8
E60LXLIFT
 62
13
 10
5467.957
 20
-9515.782
 30
-685.000
 70
    32
  0
VERTEX
  8
E60LXLIFT
 62
13
 10
5480.298
 20
-9506.923
 30
-685.000
 70
    32
  0
VERTEX
  8
E60LXLIFT
 62
13
 10
5485.688
 20
-9501.035
 30
-685.000
 70
    32
  0
VERTEX
  8
E60LXLIFT
 62
13
 10
5484.784
 20
-9491.843
 30
-685.000
 70
    32
  0
VERTEX
  8
E60LXLIFT
 62
13
 10
5489.023
 20
-9485.611
 30
-685.000
 70
    32
  0
SEQEND
  8
E60LXLIFT
  0
POLYLINE
  8
E60LXLIFT
 62
4
 66
     1
 70
     9
  0
VERTEX
  8
E60LXLIFT
 62
4
 10
5132.265
 20
-9473.389
 30
-683.000
 70
    32
  0
VERTEX
  8
E60LXLIFT
 62
4
 10
5135.782
 20
-9478.145
 30
-683.000
 70
    32
  0
VERTEX
  8
E60LXLIFT
 62
4
 10
5135.066
 20
-9487.686
 30
-683.000
 70
    32
  0
VERTEX
  8
E60LXLIFT
 62
4
 10
5126.374
 20
-9497.980
 30
-683.000
 70
    32
  0
VERTEX
  8
E60LXLIFT
 62
4
 10
5117.268
 20
-9509.479
 30
-683.000
 70
    32
  0
VERTEX
  8
E60LXLIFT
 62
4
 10
5107.543
 20
-9525.114
 30
-683.000
 70
    32
  0
VERTEX
  8
E60LXLIFT
 62
4
 10
5095.178
 20
-9537.434
 30
-683.000
 70
    32
  0
VERTEX
  8
E60LXLIFT
 62
4
 10
5085.423
 20
-9542.987
 30
-683.000
 70
    32
  0
VERTEX
  8
E60LXLIFT
 62
4
 10
5076.734
 20
-9540.621
 30
-683.000
 70
    32
  0
VERTEX
  8
E60LXLIFT
 62
4
 10
5075.806
 20
-9530.670
 30
-683.000
 70
    32
  0
VERTEX
  8
E60LXLIFT
 62
4
 10
5080.828
 20
-9518.622
 30
-683.000
 70
    32
  0
VERTEX
  8
E60LXLIFT
 62
4
 10
5084.672
 20
-9505.030
 30
-683.000
 70
    32
  0
VERTEX
  8
E60LXLIFT
 62
4
 10
5085.748
 20
-9491.884
 30
-683.000
 70
    32
  0
VERTEX
  8
E60LXLIFT
 62
4
 10
5093.987
 20
-9480.269
 30
-683.000
 70
    32
  0
VERTEX
  8
E60LXLIFT
 62
4
 10
5103.948
 20
-9478.334
 30
-683.000
 70
    32
  0
VERTEX
  8
E60LXLIFT
 62
4
 10
5117.168
 20
-9479.798
 30
-683.000
 70
    32
  0
SEQEND
  8
E60LXLIFT
  0
POLYLINE
  8
E60LXLIFT
 62
13
 66
     1
 70
     9
  0
VERTEX
  8
E60LXLIFT
 62
13
 10
5445.750
 20
-9588.417
 30
-677.000
 70
    32
  0
VERTEX
  8
E60LXLIFT
 62
13
 10
5459.496
 20
-9582.171
 30
-677.000
 70
    32
  0
VERTEX
  8
E60LXLIFT
 62
13
 10
5465.216
 20
-9589.745
 30
-677.000
 70
    32
  0
VERTEX
  8
E60LXLIFT
 62
13
 10
5477.694
 20
-9601.717
 30
-677.000
 70
    32
  0
VERTEX
  8
E60LXLIFT
 62
13
 10
5488.660
 20
-9613.716
 30
-677.000
 70
    32
  0
VERTEX
  8
E60LXLIFT
 62
13
 10
5500.463
 20
-9606.175
 30
-677.000
 70
    32
  0
VERTEX
  8
E60LXLIFT
 62
13
 10
5507.735
 20
-9594.882
 30
-677.000
 70
    32
  0
VERTEX
  8
E60LXLIFT
 62
13
 10
5506.547
 20
-9581.764
 30
-677.000
 70
    32
  0
VERTEX
  8
E60LXLIFT
 62
13
 10
5494.394
 20
-9571.411
 30
-677.000
 70
    32
  0
VERTEX
  8
E60LXLIFT
 62
13
 10
5484.047
 20
-9564.530
 30
-677.000
 70
    32
  0
VERTEX
  8
E60LXLIFT
 62
13
 10
5477.545
 20
-9552.505
 30
-677.000
 70
    32
  0
VERTEX
  8
E60LXLIFT
 62
13
 10
5473.449
 20
-9531.918
 30
-677.000
 70
    32
  0
VERTEX
  8
E60LXLIFT
 62
13
 10
5458.192
 20
-9508.224
 30
-677.000
 70
    32
  0
VERTEX
  8
E60LXLIFT
 62
13
 10
5455.709
 20
-9521.110
 30
-677.000
 70
    32
  0
VERTEX
  8
E60LXLIFT
 62
13
 10
5452.942
 20
-9537.158
 30
-677.000
 70
    32
  0
VERTEX
  8
E60LXLIFT
 62
13
 10
5454.324
 20
-9553.194
 30
-677.000
 70
    32
  0
VERTEX
  8
E60LXLIFT
 62
13
 10
5453.414
 20
-9561.414
 30
-677.000
 70
    32
  0
VERTEX
  8
E60LXLIFT
 62
13
 10
5439.138
 20
-9571.225
 30
-677.000
 70
    32
  0
VERTEX
  8
E60LXLIFT
 62
13
 10
5436.573
 20
-9577.062
 30
-677.000
 70
    32
  0
SEQEND
  8
E60LXLIFT
  0
POLYLINE
  8
E60LXLIFT
 62
4
 66
     1
 70
     9
  0
VERTEX
  8
E60LXLIFT
 62
4
 10
5111.692
 20
-9473.031
 30
-670.000
 70
    32
  0
VERTEX
  8
E60LXLIFT
 62
4
 10
5122.195
 20
-9468.313
 30
-670.000
 70
    32
  0
VERTEX
  8
E60LXLIFT
 62
4
 10
5132.272
 20
-9470.253
 30
-670.000
 70
    32
  0
VERTEX
  8
E60LXLIFT
 62
4
 10
5133.525
 20
-9481.245
 30
-670.000
 70
    32
  0
VERTEX
  8
E60LXLIFT
 62
4
 10
5130.167
 20
-9493.246
 30
-670.000
 70
    32
  0
VERTEX
  8
E60LXLIFT
 62
4
 10
5118.459
 20
-9499.733
 30
-670.000
 70
    32
  0
VERTEX
  8
E60LXLIFT
 62
4
 10
5109.562
 20
-9509.276
 30
-670.000
 70
    32
  0
VERTEX
  8
E60LXLIFT
 62
4
 10
5103.744
 20
-9521.352
 30
-670.000
 70
    32
  0
VERTEX
  8
E60LXLIFT
 62
4
 10
5097.879
 20
-9535.430
 30
-670.000
 70
    32
  0
VERTEX
  8
E60LXLIFT
 62
4
 10
5087.470
 20
-9545.000
 30
-670.000
 70
    32
  0
VERTEX
  8
E60LXLIFT
 62
4
 10
5077.603
 20
-9549.247
 30
-670.000
 70
    32
  0
VERTEX
  8
E60LXLIFT
 62
4
 10
5073.458
 20
-9545.866
 30
-670.000
 70
    32
  0
VERTEX
  8
E60LXLIFT
 62
4
 10
5067.322
 20
-9543.193
 30
-670.000
 70
    32
  0
VERTEX
  8
E60LXLIFT
 62
4
 10
5065.590
 20
-9535.837
 30
-670.000
 70
    32
  0
VERTEX
  8
E60LXLIFT
 62
4
 10
5063.103
 20
-9531.446
 30
-670.000
 70
    32
  0
VERTEX
  8
E60LXLIFT
 62
4
 10
5068.271
 20
-9525.430
 30
-670.000
 70
    32
  0
VERTEX
  8
E60LXLIFT
 62
4
 10
5071.299
 20
-9515.641
 30
-670.000
 70
    32
  0
VERTEX
  8
E60LXLIFT
 62
4
 10
5077.397
 20
-9509.702
 30
-670.000
 70
    32
  0
VERTEX
  8
E60LXLIFT
 62
4
 10
5077.726
 20
-9501.584
 30
-670.000
 70
    32
  0
VERTEX
  8
E60LXLIFT
 62
4
 10
5076.316
 20
-9493.333
 30
-670.000
 70
    32
  0
VERTEX
  8
E60LXLIFT
 62
4
 10
5080.027
 20
-9486.975
 30
-670.000
 70
    32
  0
VERTEX
  8
E60LXLIFT
 62
4
 10
5098.137
 20
-9479.682
 30
-670.000
 70
    32
  0
SEQEND
  8
E60LXLIFT
  0
POLYLINE
  8
E60LXLIFT
 62
3
 66
     1
 70
     9
  0
VERTEX
  8
E60LXLIFT
 62
3
 10
6062.283
 20
-10233.044
 30
-806.000
 70
    32
  0
VERTEX
  8
E60LXLIFT
 62
3
 10
6057.068
 20
-10222.920
 30
-806.000
 70
    32
  0
VERTEX
  8
E60LXLIFT
 62
3
 10
6041.299
 20
-10191.333
 30
-806.000
 70
    32
  0
VERTEX
  8
E60LXLIFT
 62
3
 10
6025.955
 20
-10169.122
 30
-806.000
 70
    32
  0
VERTEX
  8
E60LXLIFT
 62
3
 10
6019.348
 20
-10153.811
 30
-806.000
 70
    32
  0
VERTEX
  8
E60LXLIFT
 62
3
 10
6008.349
 20
-10136.808
 30
-806.000
 70
    32
  0
VERTEX
  8
E60LXLIFT
 62
3
 10
6002.282
 20
-10116.423
 30
-806.000
 70
    32
  0
VERTEX
  8
E60LXLIFT
 62
3
 10
5997.260
 20
-10095.383
 30
-806.000
 70
    32
  0
VERTEX
  8
E60LXLIFT
 62
3
 10
5999.966
 20
-10087.312
 30
-806.000
 70
    32
  0
VERTEX
  8
E60LXLIFT
 62
3
 10
6006.156
 20
-10072.236
 30
-806.000
 70
    32
  0
VERTEX
  8
E60LXLIFT
 62
3
 10
6016.674
 20
-10059.660
 30
-806.000
 70
    32
  0
VERTEX
  8
E60LXLIFT
 62
3
 10
6030.301
 20
-10058.200
 30
-806.000
 70
    32
  0
VERTEX
  8
E60LXLIFT
 62
3
 10
6036.829
 20
-10072.807
 30
-806.000
 70
    32
  0
VERTEX
  8
E60LXLIFT
 62
3
 10
6039.965
 20
-10087.388
 30
-806.000
 70
    32
  0
VERTEX
  8
E60LXLIFT
 62
3
 10
6043.168
 20
-10103.552
 30
-806.000
 70
    32
  0
VERTEX
  8
E60LXLIFT
 62
3
 10
6040.447
 20
-10114.136
 30
-806.000
 70
    32
  0
VERTEX
  8
E60LXLIFT
 62
3
 10
6043.211
 20
-10123.437
 30
-806.000
 70
    32
  0
VERTEX
  8
E60LXLIFT
 62
3
 10
6052.168
 20
-10144.651
 30
-806.000
 70
    32
  0
VERTEX
  8
E60LXLIFT
 62
3
 10
6063.348
 20
-10165.331
 30
-806.000
 70
    32
  0
VERTEX
  8
E60LXLIFT
 62
3
 10
6080.322
 20
-10187.984
 30
-806.000
 70
    32
  0
VERTEX
  8
E60LXLIFT
 62
3
 10
6083.725
 20
-10196.819
 30
-806.000
 70
    32
  0
VERTEX
  8
E60LXLIFT
 62
3
 10
6085.561
 20
-10211.260
 30
-806.000
 70
    32
  0
VERTEX
  8
E60LXLIFT
 62
3
 10
6091.281
 20
-10225.804
 30
-806.000
 70
    32
  0
SEQEND
  8
E60LXLIFT
  0
POLYLINE
  8
E60LXLIFT
 62
3
 66
     1
 70
     9
  0
VERTEX
  8
E60LXLIFT
 62
3
 10
5994.487
 20
-10071.752
 30
-798.000
 70
    32
  0
VERTEX
  8
E60LXLIFT
 62
3
 10
6000.367
 20
-10081.943
 30
-798.000
 70
    32
  0
VERTEX
  8
E60LXLIFT
 62
3
 10
6006.793
 20
-10111.747
 30
-798.000
 70
    32
  0
VERTEX
  8
E60LXLIFT
 62
3
 10
6009.037
 20
-10123.818
 30
-798.000
 70
    32
  0
VERTEX
  8
E60LXLIFT
 62
3
 10
6015.144
 20
-10134.171
 30
-798.000
 70
    32
  0
VERTEX
  8
E60LXLIFT
 62
3
 10
6022.750
 20
-10146.589
 30
-798.000
 70
    32
  0
VERTEX
  8
E60LXLIFT
 62
3
 10
6036.223
 20
-10171.273
 30
-798.000
 70
    32
  0
VERTEX
  8
E60LXLIFT
 62
3
 10
6044.513
 20
-10187.326
 30
-798.000
 70
    32
  0
VERTEX
  8
E60LXLIFT
 62
3
 10
6051.898
 20
-10191.205
 30
-798.000
 70
    32
  0
VERTEX
  8
E60LXLIFT
 62
3
 10
6064.430
 20
-10186.452
 30
-798.000
 70
    32
  0
VERTEX
  8
E60LXLIFT
 62
3
 10
6068.016
 20
-10182.107
 30
-798.000
 70
    32
  0
VERTEX
  8
E60LXLIFT
 62
3
 10
6060.276
 20
-10165.763
 30
-798.000
 70
    32
  0
VERTEX
  8
E60LXLIFT
 62
3
 10
6047.682
 20
-10143.485
 30
-798.000
 70
    32
  0
VERTEX
  8
E60LXLIFT
 62
3
 10
6040.194
 20
-10126.740
 30
-798.000
 70
    32
  0
VERTEX
  8
E60LXLIFT
 62
3
 10
6035.019
 20
-10115.275
 30
-798.000
 70
    32
  0
VERTEX
  8
E60LXLIFT
 62
3
 10
6036.664
 20
-10100.923
 30
-798.000
 70
    32
  0
VERTEX
  8
E60LXLIFT
 62
3
 10
6038.561
 20
-10086.169
 30
-798.000
 70
    32
  0
VERTEX
  8
E60LXLIFT
 62
3
 10
6037.024
 20
-10070.430
 30
-798.000
 70
    32
  0
VERTEX
  8
E60LXLIFT
 62
3
 10
6028.368
 20
-10061.059
 30
-798.000
 70
    32
  0
VERTEX
  8
E60LXLIFT
 62
3
 10
6028.368
 20
-10061.059
 30
-798.000
 70
    32
  0
VERTEX
  8
E60LXLIFT
 62
3
 10
6015.885
 20
-10060.340
 30
-798.000
 70
    32
  0
VERTEX
  8
E60LXLIFT
 62
3
 10
6007.320
 20
-10061.125
 30
-798.000
 70
    32
  0
SEQEND
  8
E60LXLIFT
  0
POLYLINE
  8
E60LXLIFT
 62
6
 66
     1
 70
     9
  0
VERTEX
  8
E60LXLIFT
 62
6
 10
6389.125
 20
-10376.617
 30
-787.000
 70
    32
  0
VERTEX
  8
E60LXLIFT
 62
6
 10
6397.078
 20
-10371.574
 30
-787.000
 70
    32
  0
VERTEX
  8
E60LXLIFT
 62
6
 10
6397.463
 20
-10366.977
 30
-787.000
 70
    32
  0
VERTEX
  8
E60LXLIFT
 62
6
 10
6392.288
 20
-10360.954
 30
-787.000
 70
    32
  0
VERTEX
  8
E60LXLIFT
 62
6
 10
6383.369
 20
-10359.664
 30
-787.000
 70
    32
  0
VERTEX
  8
E60LXLIFT
 62
6
 10
6377.997
 20
-10361.671
 30
-787.000
 70
    32
  0
VERTEX
  8
E60LXLIFT
 62
6
 10
6376.297
 20
-10368.507
 30
-787.000
 70
    32
  0
VERTEX
  8
E60LXLIFT
 62
6
 10
6380.481
 20
-10375.562
 30
-787.000
 70
    32
  0
VERTEX
  8
E60LXLIFT
 62
6
 10
6383.261
 20
-10376.275
 30
-787.000
 70
    32
  0
SEQEND
  8
E60LXLIFT
  0
POLYLINE
  8
E60LXLIFT
 62
13
 66
     1
 70
     9
  0
VERTEX
  8
E60LXLIFT
 62
13
 10
6298.388
 20
-10555.011
 30
-786.000
 70
    32
  0
VERTEX
  8
E60LXLIFT
 62
13
 10
6297.769
 20
-10559.885
 30
-786.000
 70
    32
  0
VERTEX
  8
E60LXLIFT
 62
13
 10
6289.581
 20
-10565.960
 30
-786.000
 70
    32
  0
VERTEX
  8
E60LXLIFT
 62
13
 10
6284.375
 20
-10570.010
 30
-786.000
 70
    32
  0
VERTEX
  8
E60LXLIFT
 62
13
 10
6278.853
 20
-10563.803
 30
-786.000
 70
    32
  0
VERTEX
  8
E60LXLIFT
 62
13
 10
6276.906
 20
-10556.552
 30
-786.000
 70
    32
  0
VERTEX
  8
E60LXLIFT
 62
13
 10
6282.007
 20
-10548.579
 30
-786.000
 70
    32
  0
VERTEX
  8
E60LXLIFT
 62
13
 10
6285.233
 20
-10546.594
 30
-786.000
 70
    32
  0
VERTEX
  8
E60LXLIFT
 62
13
 10
6290.711
 20
-10549.266
 30
-786.000
 70
    32
  0
SEQEND
  8
E60LXLIFT
  0
POLYLINE
  8
E60LXLIFT
 62
3
 66
     1
 70
     9
  0
VERTEX
  8
E60LXLIFT
 62
3
 10
5991.128
 20
-10066.430
 30
-790.000
 70
    32
  0
VERTEX
  8
E60LXLIFT
 62
3
 10
6001.749
 20
-10085.954
 30
-790.000
 70
    32
  0
VERTEX
  8
E60LXLIFT
 62
3
 10
6010.017
 20
-10102.190
 30
-790.000
 70
    32
  0
VERTEX
  8
E60LXLIFT
 62
3
 10
6015.018
 20
-10108.121
 30
-790.000
 70
    32
  0
VERTEX
  8
E60LXLIFT
 62
3
 10
6028.256
 20
-10106.536
 30
-790.000
 70
    32
  0
VERTEX
  8
E60LXLIFT
 62
3
 10
6037.683
 20
-10103.249
 30
-790.000
 70
    32
  0
VERTEX
  8
E60LXLIFT
 62
3
 10
6032.768
 20
-10090.340
 30
-790.000
 70
    32
  0
VERTEX
  8
E60LXLIFT
 62
3
 10
6028.729
 20
-10074.428
 30
-790.000
 70
    32
  0
VERTEX
  8
E60LXLIFT
 62
3
 10
6028.975
 20
-10062.690
 30
-790.000
 70
    32
  0
VERTEX
  8
E60LXLIFT
 62
3
 10
6023.441
 20
-10054.655
 30
-790.000
 70
    32
  0
VERTEX
  8
E60LXLIFT
 62
3
 10
6011.241
 20
-10051.498
 30
-790.000
 70
    32
  0
VERTEX
  8
E60LXLIFT
 62
3
 10
6004.965
 20
-10048.316
 30
-790.000
 70
    32
  0
VERTEX
  8
E60LXLIFT
 62
3
 10
5998.586
 20
-10054.502
 30
-790.000
 70
    32
  0
SEQEND
  8
E60LXLIFT
  0
POLYLINE
  8
E60LXLIFT
 62
7
 66
     1
 70
     9
  0
VERTEX
  8
E60LXLIFT
 62
7
 10
5955.564
 20
-10038.930
 30
-790.000
 70
    32
  0
VERTEX
  8
E60LXLIFT
 62
7
 10
5941.139
 20
-10026.019
 30
-790.000
 70
    32
  0
VERTEX
  8
E60LXLIFT
 62
7
 10
5925.596
 20
-10008.829
 30
-790.000
 70
    32
  0
VERTEX
  8
E60LXLIFT
 62
7
 10
5928.929
 20
-10000.500
 30
-790.000
 70
    32
  0
VERTEX
  8
E60LXLIFT
 62
7
 10
5934.382
 20
-9985.468
 30
-790.000
 70
    32
  0
VERTEX
  8
E60LXLIFT
 62
7
 10
5933.818
 20
-9971.391
 30
-790.000
 70
    32
  0
VERTEX
  8
E60LXLIFT
 62
7
 10
5925.392
 20
-9949.649
 30
-790.000
 70
    32
  0
VERTEX
  8
E60LXLIFT
 62
7
 10
5926.311
 20
-9936.889
 30
-790.000
 70
    32
  0
VERTEX
  8
E60LXLIFT
 62
7
 10
5934.356
 20
-9931.672
 30
-790.000
 70
    32
  0
VERTEX
  8
E60LXLIFT
 62
7
 10
5944.578
 20
-9950.940
 30
-790.000
 70
    32
  0
VERTEX
  8
E60LXLIFT
 62
7
 10
5952.379
 20
-9969.996
 30
-790.000
 70
    32
  0
VERTEX
  8
E60LXLIFT
 62
7
 10
5959.382
 20
-9987.786
 30
-790.000
 70
    32
  0
VERTEX
  8
E60LXLIFT
 62
7
 10
5959.864
 20
-10001.597
 30
-790.000
 70
    32
  0
VERTEX
  8
E60LXLIFT
 62
7
 10
5966.200
 20
-10027.969
 30
-790.000
 70
    32
  0
VERTEX
  8
E60LXLIFT
 62
7
 10
5965.533
 20
-10036.551
 30
-790.000
 70
    32
  0
SEQEND
  8
E60LXLIFT
  0
POLYLINE
  8
E60LXLIFT
 62
6
 66
     1
 70
     9
  0
VERTEX
  8
E60LXLIFT
 62
6
 10
6357.649
 20
-10358.995
 30
-777.000
 70
    32
  0
VERTEX
  8
E60LXLIFT
 62
6
 10
6374.860
 20
-10346.934
 30
-777.000
 70
    32
  0
VERTEX
  8
E60LXLIFT
 62
6
 10
6385.437
 20
-10353.272
 30
-777.000
 70
    32
  0
VERTEX
  8
E60LXLIFT
 62
6
 10
6397.602
 20
-10376.165
 30
-777.000
 70
    32
  0
VERTEX
  8
E60LXLIFT
 62
6
 10
6389.453
 20
-10389.034
 30
-777.000
 70
    32
  0
VERTEX
  8
E60LXLIFT
 62
6
 10
6378.733
 20
-10391.928
 30
-777.000
 70
    32
  0
VERTEX
  8
E60LXLIFT
 62
6
 10
6362.535
 20
-10368.268
 30
-777.000
 70
    32
  0
SEQEND
  8
E60LXLIFT
  0
POLYLINE
  8
E60LXLIFT
 62
13
 66
     1
 70
     9
  0
VERTEX
  8
E60LXLIFT
 62
13
 10
6276.787
 20
-10522.980
 30
-777.000
 70
    32
  0
VERTEX
  8
E60LXLIFT
 62
13
 10
6271.339
 20
-10529.543
 30
-777.000
 70
    32
  0
VERTEX
  8
E60LXLIFT
 62
13
 10
6272.315
 20
-10544.805
 30
-777.000
 70
    32
  0
VERTEX
  8
E60LXLIFT
 62
13
 10
6277.829
 20
-10560.033
 30
-777.000
 70
    32
  0
VERTEX
  8
E60LXLIFT
 62
13
 10
6275.575
 20
-10565.907
 30
-777.000
 70
    32
  0
VERTEX
  8
E60LXLIFT
 62
13
 10
6279.165
 20
-10570.254
 30
-777.000
 70
    32
  0
VERTEX
  8
E60LXLIFT
 62
13
 10
6290.469
 20
-10572.804
 30
-777.000
 70
    32
  0
VERTEX
  8
E60LXLIFT
 62
13
 10
6301.220
 20
-10579.232
 30
-777.000
 70
    32
  0
VERTEX
  8
E60LXLIFT
 62
13
 10
6309.338
 20
-10587.571
 30
-777.000
 70
    32
  0
VERTEX
  8
E60LXLIFT
 62
13
 10
6318.491
 20
-10580.274
 30
-777.000
 70
    32
  0
VERTEX
  8
E60LXLIFT
 62
13
 10
6324.840
 20
-10571.210
 30
-777.000
 70
    32
  0
VERTEX
  8
E60LXLIFT
 62
13
 10
6314.249
 20
-10566.948
 30
-777.000
 70
    32
  0
VERTEX
  8
E60LXLIFT
 62
13
 10
6303.592
 20
-10556.758
 30
-777.000
 70
    32
  0
VERTEX
  8
E60LXLIFT
 62
13
 10
6287.972
 20
-10536.590
 30
-777.000
 70
    32
  0
SEQEND
  8
E60LXLIFT
  0
POLYLINE
  8
E60LXLIFT
 62
7
 66
     1
 70
     9
  0
VERTEX
  8
E60LXLIFT
 62
7
 10
5921.727
 20
-9929.598
 30
-781.000
 70
    32
  0
VERTEX
  8
E60LXLIFT
 62
7
 10
5931.633
 20
-9933.815
 30
-781.000
 70
    32
  0
VERTEX
  8
E60LXLIFT
 62
7
 10
5941.285
 20
-9947.559
 30
-781.000
 70
    32
  0
VERTEX
  8
E60LXLIFT
 62
7
 10
5950.177
 20
-9974.024
 30
-781.000
 70
    32
  0
VERTEX
  8
E60LXLIFT
 62
7
 10
5960.978
 20
-10005.513
 30
-781.000
 70
    32
  0
VERTEX
  8
E60LXLIFT
 62
7
 10
5967.066
 20
-10030.211
 30
-781.000
 70
    32
  0
VERTEX
  8
E60LXLIFT
 62
7
 10
5958.809
 20
-10033.055
 30
-781.000
 70
    32
  0
VERTEX
  8
E60LXLIFT
 62
7
 10
5950.194
 20
-10022.686
 30
-781.000
 70
    32
  0
VERTEX
  8
E60LXLIFT
 62
7
 10
5933.937
 20
-10015.258
 30
-781.000
 70
    32
  0
VERTEX
  8
E60LXLIFT
 62
7
 10
5938.570
 20
-10001.138
 30
-781.000
 70
    32
  0
VERTEX
  8
E60LXLIFT
 62
7
 10
5935.940
 20
-9978.059
 30
-781.000
 70
    32
  0
VERTEX
  8
E60LXLIFT
 62
7
 10
5931.285
 20
-9962.967
 30
-781.000
 70
    32
  0
VERTEX
  8
E60LXLIFT
 62
7
 10
5918.219
 20
-9942.575
 30
-781.000
 70
    32
  0
SEQEND
  8
E60LXLIFT
  0
POLYLINE
  8
E60LXLIFT
 62
6
 66
     1
 70
     9
  0
VERTEX
  8
E60LXLIFT
 62
6
 10
6368.447
 20
-10354.730
 30
-767.000
 70
    32
  0
VERTEX
  8
E60LXLIFT
 62
6
 10
6378.800
 20
-10358.103
 30
-767.000
 70
    32
  0
VERTEX
  8
E60LXLIFT
 62
6
 10
6381.725
 20
-10364.559
 30
-767.000
 70
    32
  0
VERTEX
  8
E60LXLIFT
 62
6
 10
6389.543
 20
-10366.074
 30
-767.000
 70
    32
  0
VERTEX
  8
E60LXLIFT
 62
6
 10
6393.974
 20
-10371.010
 30
-767.000
 70
    32
  0
VERTEX
  8
E60LXLIFT
 62
6
 10
6392.218
 20
-10379.544
 30
-767.000
 70
    32
  0
VERTEX
  8
E60LXLIFT
 62
6
 10
6381.582
 20
-10384.944
 30
-767.000
 70
    32
  0
VERTEX
  8
E60LXLIFT
 62
6
 10
6371.923
 20
-10385.085
 30
-767.000
 70
    32
  0
VERTEX
  8
E60LXLIFT
 62
6
 10
6363.943
 20
-10379.891
 30
-767.000
 70
    32
  0
VERTEX
  8
E60LXLIFT
 62
6
 10
6360.254
 20
-10368.020
 30
-767.000
 70
    32
  0
VERTEX
  8
E60LXLIFT
 62
6
 10
6360.208
 20
-10360.895
 30
-767.000
 70
    32
  0
SEQEND
  8
E60LXLIFT
  0
POLYLINE
  8
E60LXLIFT
 62
13
 66
     1
 70
     9
  0
VERTEX
  8
E60LXLIFT
 62
13
 10
6289.201
 20
-10505.323
 30
-770.000
 70
    32
  0
VERTEX
  8
E60LXLIFT
 62
13
 10
6294.432
 20
-10508.814
 30
-770.000
 70
    32
  0
VERTEX
  8
E60LXLIFT
 62
13
 10
6293.518
 20
-10524.224
 30
-770.000
 70
    32
  0
VERTEX
  8
E60LXLIFT
 62
13
 10
6295.929
 20
-10546.344
 30
-770.000
 70
    32
  0
VERTEX
  8
E60LXLIFT
 62
13
 10
6314.315
 20
-10561.596
 30
-770.000
 70
    32
  0
VERTEX
  8
E60LXLIFT
 62
13
 10
6322.670
 20
-10570.315
 30
-770.000
 70
    32
  0
VERTEX
  8
E60LXLIFT
 62
13
 10
6324.221
 20
-10577.872
 30
-770.000
 70
    32
  0
VERTEX
  8
E60LXLIFT
 62
13
 10
6316.298
 20
-10589.883
 30
-770.000
 70
    32
  0
VERTEX
  8
E60LXLIFT
 62
13
 10
6300.960
 20
-10583.060
 30
-770.000
 70
    32
  0
VERTEX
  8
E60LXLIFT
 62
13
 10
6282.463
 20
-10568.105
 30
-770.000
 70
    32
  0
VERTEX
  8
E60LXLIFT
 62
13
 10
6275.087
 20
-10556.836
 30
-770.000
 70
    32
  0
VERTEX
  8
E60LXLIFT
 62
13
 10
6273.575
 20
-10532.656
 30
-770.000
 70
    32
  0
VERTEX
  8
E60LXLIFT
 62
13
 10
6273.162
 20
-10517.661
 30
-770.000
 70
    32
  0
VERTEX
  8
E60LXLIFT
 62
13
 10
6273.361
 20
-10510.576
 30
-770.000
 70
    32
  0
SEQEND
  8
E60LXLIFT
  0
POLYLINE
  8
E60LXLIFT
 62
7
 66
     1
 70
     9
  0
VERTEX
  8
E60LXLIFT
 62
7
 10
5899.945
 20
-9899.563
 30
-770.000
 70
    32
  0
VERTEX
  8
E60LXLIFT
 62
7
 10
5915.120
 20
-9924.941
 30
-770.000
 70
    32
  0
VERTEX
  8
E60LXLIFT
 62
7
 10
5932.352
 20
-9950.463
 30
-770.000
 70
    32
  0
VERTEX
  8
E60LXLIFT
 62
7
 10
5958.277
 20
-9991.183
 30
-770.000
 70
    32
  0
VERTEX
  8
E60LXLIFT
 62
7
 10
5972.138
 20
-10013.389
 30
-770.000
 70
    32
  0
VERTEX
  8
E60LXLIFT
 62
7
 10
5963.460
 20
-10017.593
 30
-770.000
 70
    32
  0
VERTEX
  8
E60LXLIFT
 62
7
 10
5953.103
 20
-9999.040
 30
-770.000
 70
    32
  0
VERTEX
  8
E60LXLIFT
 62
7
 10
5950.121
 20
-10015.943
 30
-770.000
 70
    32
  0
VERTEX
  8
E60LXLIFT
 62
7
 10
5937.601
 20
-10020.535
 30
-770.000
 70
    32
  0
VERTEX
  8
E60LXLIFT
 62
7
 10
5939.089
 20
-10003.516
 30
-770.000
 70
    32
  0
VERTEX
  8
E60LXLIFT
 62
7
 10
5934.142
 20
-9987.348
 30
-770.000
 70
    32
  0
VERTEX
  8
E60LXLIFT
 62
7
 10
5928.072
 20
-9977.739
 30
-770.000
 70
    32
  0
VERTEX
  8
E60LXLIFT
 62
7
 10
5924.686
 20
-9956.973
 30
-770.000
 70
    32
  0
VERTEX
  8
E60LXLIFT
 62
7
 10
5918.804
 20
-9943.866
 30
-770.000
 70
    32
  0
VERTEX
  8
E60LXLIFT
 62
7
 10
5908.494
 20
-9928.532
 30
-770.000
 70
    32
  0
VERTEX
  8
E60LXLIFT
 62
7
 10
5897.788
 20
-9911.749
 30
-770.000
 70
    32
  0
VERTEX
  8
E60LXLIFT
 62
7
 10
5893.349
 20
-9903.348
 30
-770.000
 70
    32
  0
SEQEND
  8
E60LXLIFT
  0
POLYLINE
  8
E60LXLIFT
 62
6
 66
     1
 70
     9
  0
VERTEX
  8
E60LXLIFT
 62
6
 10
6387.491
 20
-10366.776
 30
-757.000
 70
    32
  0
VERTEX
  8
E60LXLIFT
 62
6
 10
6389.227
 20
-10372.823
 30
-757.000
 70
    32
  0
VERTEX
  8
E60LXLIFT
 62
6
 10
6376.233
 20
-10384.400
 30
-757.000
 70
    32
  0
VERTEX
  8
E60LXLIFT
 62
6
 10
6367.503
 20
-10379.695
 30
-757.000
 70
    32
  0
VERTEX
  8
E60LXLIFT
 62
6
 10
6359.771
 20
-10365.390
 30
-757.000
 70
    32
  0
VERTEX
  8
E60LXLIFT
 62
6
 10
6371.579
 20
-10360.052
 30
-757.000
 70
    32
  0
SEQEND
  8
E60LXLIFT
  0
POLYLINE
  8
E60LXLIFT
 62
13
 66
     1
 70
     9
  0
VERTEX
  8
E60LXLIFT
 62
13
 10
6331.143
 20
-10564.019
 30
-759.000
 70
    32
  0
VERTEX
  8
E60LXLIFT
 62
13
 10
6321.459
 20
-10577.854
 30
-759.000
 70
    32
  0
VERTEX
  8
E60LXLIFT
 62
13
 10
6311.371
 20
-10586.406
 30
-759.000
 70
    32
  0
VERTEX
  8
E60LXLIFT
 62
13
 10
6303.636
 20
-10588.078
 30
-759.000
 70
    32
  0
VERTEX
  8
E60LXLIFT
 62
13
 10
6299.863
 20
-10581.348
 30
-759.000
 70
    32
  0
VERTEX
  8
E60LXLIFT
 62
13
 10
6286.583
 20
-10573.005
 30
-759.000
 70
    32
  0
VERTEX
  8
E60LXLIFT
 62
13
 10
6279.264
 20
-10565.178
 30
-759.000
 70
    32
  0
VERTEX
  8
E60LXLIFT
 62
13
 10
6275.400
 20
-10556.548
 30
-759.000
 70
    32
  0
VERTEX
  8
E60LXLIFT
 62
13
 10
6277.492
 20
-10543.841
 30
-759.000
 70
    32
  0
VERTEX
  8
E60LXLIFT
 62
13
 10
6273.464
 20
-10533.362
 30
-759.000
 70
    32
  0
VERTEX
  8
E60LXLIFT
 62
13
 10
6271.774
 20
-10523.233
 30
-759.000
 70
    32
  0
VERTEX
  8
E60LXLIFT
 62
13
 10
6272.591
 20
-10516.940
 30
-759.000
 70
    32
  0
VERTEX
  8
E60LXLIFT
 62
13
 10
6279.935
 20
-10510.744
 30
-759.000
 70
    32
  0
VERTEX
  8
E60LXLIFT
 62
13
 10
6283.885
 20
-10514.607
 30
-759.000
 70
    32
  0
VERTEX
  8
E60LXLIFT
 62
13
 10
6281.611
 20
-10525.588
 30
-759.000
 70
    32
  0
VERTEX
  8
E60LXLIFT
 62
13
 10
6288.586
 20
-10537.389
 30
-759.000
 70
    32
  0
VERTEX
  8
E60LXLIFT
 62
13
 10
6299.418
 20
-10548.636
 30
-759.000
 70
    32
  0
VERTEX
  8
E60LXLIFT
 62
13
 10
6311.250
 20
-10557.831
 30
-759.000
 70
    32
  0
VERTEX
  8
E60LXLIFT
 62
13
 10
6320.612
 20
-10554.956
 30
-759.000
 70
    32
  0
VERTEX
  8
E60LXLIFT
 62
13
 10
6324.122
 20
-10553.784
 30
-759.000
 70
    32
  0
SEQEND
  8
E60LXLIFT
  0
POLYLINE
  8
E60LXLIFT
 62
7
 66
     1
 70
     9
  0
VERTEX
  8
E60LXLIFT
 62
7
 10
5963.857
 20
-10028.803
 30
-761.000
 70
    32
  0
VERTEX
  8
E60LXLIFT
 62
7
 10
5956.650
 20
-10009.733
 30
-761.000
 70
    32
  0
VERTEX
  8
E60LXLIFT
 62
7
 10
5953.661
 20
-9999.033
 30
-761.000
 70
    32
  0
VERTEX
  8
E60LXLIFT
 62
7
 10
5956.879
 20
-9986.369
 30
-761.000
 70
    32
  0
VERTEX
  8
E60LXLIFT
 62
7
 10
5948.397
 20
-9973.713
 30
-761.000
 70
    32
  0
VERTEX
  8
E60LXLIFT
 62
7
 10
5936.594
 20
-9952.571
 30
-761.000
 70
    32
  0
VERTEX
  8
E60LXLIFT
 62
7
 10
5923.326
 20
-9921.900
 30
-761.000
 70
    32
  0
VERTEX
  8
E60LXLIFT
 62
7
 10
5914.252
 20
-9905.633
 30
-761.000
 70
    32
  0
VERTEX
  8
E60LXLIFT
 62
7
 10
5909.096
 20
-9900.583
 30
-761.000
 70
    32
  0
VERTEX
  8
E60LXLIFT
 62
7
 10
5895.888
 20
-9902.252
 30
-761.000
 70
    32
  0
VERTEX
  8
E60LXLIFT
 62
7
 10
5886.862
 20
-9910.020
 30
-761.000
 70
    32
  0
VERTEX
  8
E60LXLIFT
 62
7
 10
5897.705
 20
-9930.012
 30
-761.000
 70
    32
  0
VERTEX
  8
E60LXLIFT
 62
7
 10
5903.047
 20
-9946.412
 30
-761.000
 70
    32
  0
VERTEX
  8
E60LXLIFT
 62
7
 10
5911.235
 20
-9963.553
 30
-761.000
 70
    32
  0
VERTEX
  8
E60LXLIFT
 62
7
 10
5912.759
 20
-9990.325
 30
-761.000
 70
    32
  0
VERTEX
  8
E60LXLIFT
 62
7
 10
5914.245
 20
-10009.796
 30
-761.000
 70
    32
  0
VERTEX
  8
E60LXLIFT
 62
7
 10
5917.374
 20
-10015.359
 30
-761.000
 70
    32
  0
VERTEX
  8
E60LXLIFT
 62
7
 10
5940.461
 20
-10027.939
 30
-761.000
 70
    32
  0
VERTEX
  8
E60LXLIFT
 62
7
 10
5950.766
 20
-10033.886
 30
-761.000
 70
    32
  0
SEQEND
  8
E60LXLIFT
  0
POLYLINE
  8
E60LXLIFT
 62
6
 66
     1
 70
     9
  0
VERTEX
  8
E60LXLIFT
 62
6
 10
6390.117
 20
-10375.373
 30
-746.000
 70
    32
  0
VERTEX
  8
E60LXLIFT
 62
6
 10
6386.547
 20
-10381.419
 30
-746.000
 70
    32
  0
VERTEX
  8
E60LXLIFT
 62
6
 10
6388.324
 20
-10392.626
 30
-746.000
 70
    32
  0
VERTEX
  8
E60LXLIFT
 62
6
 10
6376.608
 20
-10399.873
 30
-746.000
 70
    32
  0
VERTEX
  8
E60LXLIFT
 62
6
 10
6368.974
 20
-10396.361
 30
-746.000
 70
    32
  0
VERTEX
  8
E60LXLIFT
 62
6
 10
6363.146
 20
-10386.011
 30
-746.000
 70
    32
  0
VERTEX
  8
E60LXLIFT
 62
6
 10
6360.125
 20
-10376.244
 30
-746.000
 70
    32
  0
VERTEX
  8
E60LXLIFT
 62
6
 10
6372.128
 20
-10371.504
 30
-746.000
 70
    32
  0
VERTEX
  8
E60LXLIFT
 62
6
 10
6385.791
 20
-10369.369
 30
-746.000
 70
    32
  0
SEQEND
  8
E60LXLIFT
  0
POLYLINE
  8
E60LXLIFT
 62
13
 66
     1
 70
     9
  0
VERTEX
  8
E60LXLIFT
 62
13
 10
6279.463
 20
-10521.225
 30
-749.000
 70
    32
  0
VERTEX
  8
E60LXLIFT
 62
13
 10
6267.950
 20
-10530.715
 30
-749.000
 70
    32
  0
VERTEX
  8
E60LXLIFT
 62
13
 10
6263.403
 20
-10538.117
 30
-749.000
 70
    32
  0
VERTEX
  8
E60LXLIFT
 62
13
 10
6265.201
 20
-10551.914
 30
-749.000
 70
    32
  0
VERTEX
  8
E60LXLIFT
 62
13
 10
6270.961
 20
-10563.073
 30
-749.000
 70
    32
  0
VERTEX
  8
E60LXLIFT
 62
13
 10
6283.060
 20
-10571.728
 30
-749.000
 70
    32
  0
VERTEX
  8
E60LXLIFT
 62
13
 10
6293.809
 20
-10578.207
 30
-749.000
 70
    32
  0
VERTEX
  8
E60LXLIFT
 62
13
 10
6302.247
 20
-10585.699
 30
-749.000
 70
    32
  0
VERTEX
  8
E60LXLIFT
 62
13
 10
6307.803
 20
-10584.519
 30
-749.000
 70
    32
  0
VERTEX
  8
E60LXLIFT
 62
13
 10
6309.553
 20
-10576.852
 30
-749.000
 70
    32
  0
VERTEX
  8
E60LXLIFT
 62
13
 10
6299.594
 20
-10560.467
 30
-749.000
 70
    32
  0
VERTEX
  8
E60LXLIFT
 62
13
 10
6290.950
 20
-10548.019
 30
-749.000
 70
    32
  0
VERTEX
  8
E60LXLIFT
 62
13
 10
6289.003
 20
-10540.193
 30
-749.000
 70
    32
  0
VERTEX
  8
E60LXLIFT
 62
13
 10
6286.398
 20
-10531.755
 30
-749.000
 70
    32
  0
SEQEND
  8
E60LXLIFT
  0
POLYLINE
  8
E60LXLIFT
 62
7
 66
     1
 70
     9
  0
VERTEX
  8
E60LXLIFT
 62
7
 10
5910.319
 20
-10006.636
 30
-753.000
 70
    32
  0
VERTEX
  8
E60LXLIFT
 62
7
 10
5912.490
 20
-9991.717
 30
-753.000
 70
    32
  0
VERTEX
  8
E60LXLIFT
 62
7
 10
5913.843
 20
-9984.553
 30
-753.000
 70
    32
  0
VERTEX
  8
E60LXLIFT
 62
7
 10
5908.546
 20
-9971.324
 30
-753.000
 70
    32
  0
VERTEX
  8
E60LXLIFT
 62
7
 10
5904.627
 20
-9952.323
 30
-753.000
 70
    32
  0
VERTEX
  8
E60LXLIFT
 62
7
 10
5903.889
 20
-9934.722
 30
-753.000
 70
    32
  0
VERTEX
  8
E60LXLIFT
 62
7
 10
5899.905
 20
-9924.672
 30
-753.000
 70
    32
  0
VERTEX
  8
E60LXLIFT
 62
7
 10
5896.289
 20
-9919.352
 30
-753.000
 70
    32
  0
VERTEX
  8
E60LXLIFT
 62
7
 10
5904.463
 20
-9907.490
 30
-753.000
 70
    32
  0
VERTEX
  8
E60LXLIFT
 62
7
 10
5912.547
 20
-9908.614
 30
-753.000
 70
    32
  0
VERTEX
  8
E60LXLIFT
 62
7
 10
5914.401
 20
-9918.571
 30
-753.000
 70
    32
  0
VERTEX
  8
E60LXLIFT
 62
7
 10
5925.488
 20
-9935.012
 30
-753.000
 70
    32
  0
VERTEX
  8
E60LXLIFT
 62
7
 10
5937.499
 20
-9954.697
 30
-753.000
 70
    32
  0
VERTEX
  8
E60LXLIFT
 62
7
 10
5946.114
 20
-9977.805
 30
-753.000
 70
    32
  0
VERTEX
  8
E60LXLIFT
 62
7
 10
5952.485
 20
-10000.359
 30
-753.000
 70
    32
  0
VERTEX
  8
E60LXLIFT
 62
7
 10
5950.472
 20
-10018.965
 30
-753.000
 70
    32
  0
VERTEX
  8
E60LXLIFT
 62
7
 10
5950.778
 20
-10026.019
 30
-753.000
 70
    32
  0
VERTEX
  8
E60LXLIFT
 62
7
 10
5939.854
 20
-10024.119
 30
-753.000
 70
    32
  0
VERTEX
  8
E60LXLIFT
 62
7
 10
5923.616
 20
-10015.297
 30
-753.000
 70
    32
  0
SEQEND
  8
E60LXLIFT
  0
POLYLINE
  8
E60LXLIFT
 62
7
 66
     1
 70
     9
  0
VERTEX
  8
E60LXLIFT
 62
7
 10
5942.640
 20
-9982.790
 30
-746.000
 70
    32
  0
VERTEX
  8
E60LXLIFT
 62
7
 10
5943.047
 20
-9997.374
 30
-746.000
 70
    32
  0
VERTEX
  8
E60LXLIFT
 62
7
 10
5942.343
 20
-10005.592
 30
-746.000
 70
    32
  0
VERTEX
  8
E60LXLIFT
 62
7
 10
5930.502
 20
-10005.436
 30
-746.000
 70
    32
  0
VERTEX
  8
E60LXLIFT
 62
7
 10
5926.569
 20
-10005.554
 30
-746.000
 70
    32
  0
VERTEX
  8
E60LXLIFT
 62
7
 10
5918.354
 20
-9995.508
 30
-746.000
 70
    32
  0
VERTEX
  8
E60LXLIFT
 62
7
 10
5916.212
 20
-9987.712
 30
-746.000
 70
    32
  0
VERTEX
  8
E60LXLIFT
 62
7
 10
5909.419
 20
-9979.791
 30
-746.000
 70
    32
  0
VERTEX
  8
E60LXLIFT
 62
7
 10
5904.629
 20
-9973.142
 30
-746.000
 70
    32
  0
VERTEX
  8
E60LXLIFT
 62
7
 10
5902.775
 20
-9963.183
 30
-746.000
 70
    32
  0
VERTEX
  8
E60LXLIFT
 62
7
 10
5899.499
 20
-9948.385
 30
-746.000
 70
    32
  0
VERTEX
  8
E60LXLIFT
 62
7
 10
5906.914
 20
-9943.151
 30
-746.000
 70
    32
  0
VERTEX
  8
E60LXLIFT
 62
7
 10
5921.220
 20
-9949.894
 30
-746.000
 70
    32
  0
VERTEX
  8
E60LXLIFT
 62
7
 10
5931.872
 20
-9959.705
 30
-746.000
 70
    32
  0
VERTEX
  8
E60LXLIFT
 62
7
 10
5933.807
 20
-9971.886
 30
-746.000
 70
    32
  0
VERTEX
  8
E60LXLIFT
 62
7
 10
5937.083
 20
-9976.585
 30
-746.000
 70
    32
  0
SEQEND
  8
E60LXLIFT
  0
POLYLINE
  8
E60LXLIFT
 62
13
 66
     1
 70
     9
  0
VERTEX
  8
E60LXLIFT
 62
13
 10
6257.069
 20
-10551.868
 30
-741.000
 70
    32
  0
VERTEX
  8
E60LXLIFT
 62
13
 10
6259.225
 20
-10540.541
 30
-741.000
 70
    32
  0
VERTEX
  8
E60LXLIFT
 62
13
 10
6269.091
 20
-10533.433
 30
-741.000
 70
    32
  0
VERTEX
  8
E60LXLIFT
 62
13
 10
6279.922
 20
-10529.322
 30
-741.000
 70
    32
  0
VERTEX
  8
E60LXLIFT
 62
13
 10
6286.842
 20
-10530.636
 30
-741.000
 70
    32
  0
VERTEX
  8
E60LXLIFT
 62
13
 10
6290.166
 20
-10542.033
 30
-741.000
 70
    32
  0
VERTEX
  8
E60LXLIFT
 62
13
 10
6289.783
 20
-10553.712
 30
-741.000
 70
    32
  0
VERTEX
  8
E60LXLIFT
 62
13
 10
6300.745
 20
-10566.666
 30
-741.000
 70
    32
  0
VERTEX
  8
E60LXLIFT
 62
13
 10
6305.578
 20
-10583.926
 30
-741.000
 70
    32
  0
VERTEX
  8
E60LXLIFT
 62
13
 10
6302.996
 20
-10586.221
 30
-741.000
 70
    32
  0
VERTEX
  8
E60LXLIFT
 62
13
 10
6294.370
 20
-10578.318
 30
-741.000
 70
    32
  0
VERTEX
  8
E60LXLIFT
 62
13
 10
6286.337
 20
-10575.308
 30
-741.000
 70
    32
  0
VERTEX
  8
E60LXLIFT
 62
13
 10
6278.105
 20
-10573.529
 30
-741.000
 70
    32
  0
VERTEX
  8
E60LXLIFT
 62
13
 10
6269.571
 20
-10568.165
 30
-741.000
 70
    32
  0
VERTEX
  8
E60LXLIFT
 62
13
 10
6264.675
 20
-10563.330
 30
-741.000
 70
    32
  0
SEQEND
  8
E60LXLIFT
  0
POLYLINE
  8
E60LXLIFT
 62
6
 66
     1
 70
     9
  0
VERTEX
  8
E60LXLIFT
 62
6
 10
6413.786
 20
-10440.480
 30
-738.000
 70
    32
  0
VERTEX
  8
E60LXLIFT
 62
6
 10
6401.759
 20
-10439.915
 30
-738.000
 70
    32
  0
VERTEX
  8
E60LXLIFT
 62
6
 10
6393.792
 20
-10438.052
 30
-738.000
 70
    32
  0
VERTEX
  8
E60LXLIFT
 62
6
 10
6381.907
 20
-10427.284
 30
-738.000
 70
    32
  0
VERTEX
  8
E60LXLIFT
 62
6
 10
6370.120
 20
-10417.857
 30
-738.000
 70
    32
  0
VERTEX
  8
E60LXLIFT
 62
6
 10
6364.880
 20
-10408.926
 30
-738.000
 70
    32
  0
VERTEX
  8
E60LXLIFT
 62
6
 10
6360.313
 20
-10394.297
 30
-738.000
 70
    32
  0
VERTEX
  8
E60LXLIFT
 62
6
 10
6351.743
 20
-10382.552
 30
-738.000
 70
    32
  0
VERTEX
  8
E60LXLIFT
 62
6
 10
6346.142
 20
-10370.406
 30
-738.000
 70
    32
  0
VERTEX
  8
E60LXLIFT
 62
6
 10
6355.058
 20
-10364.090
 30
-738.000
 70
    32
  0
VERTEX
  8
E60LXLIFT
 62
6
 10
6364.929
 20
-10363.169
 30
-738.000
 70
    32
  0
VERTEX
  8
E60LXLIFT
 62
6
 10
6373.106
 20
-10371.505
 30
-738.000
 70
    32
  0
VERTEX
  8
E60LXLIFT
 62
6
 10
6379.270
 20
-10370.865
 30
-738.000
 70
    32
  0
VERTEX
  8
E60LXLIFT
 62
6
 10
6387.838
 20
-10377.181
 30
-738.000
 70
    32
  0
VERTEX
  8
E60LXLIFT
 62
6
 10
6391.615
 20
-10388.904
 30
-738.000
 70
    32
  0
VERTEX
  8
E60LXLIFT
 62
6
 10
6399.293
 20
-10403.029
 30
-738.000
 70
    32
  0
VERTEX
  8
E60LXLIFT
 62
6
 10
6405.410
 20
-10415.890
 30
-738.000
 70
    32
  0
VERTEX
  8
E60LXLIFT
 62
6
 10
6409.340
 20
-10427.827
 30
-738.000
 70
    32
  0
SEQEND
  8
E60LXLIFT
  0
POLYLINE
  8
E60LXLIFT
 62
6
 66
     1
 70
     9
  0
VERTEX
  8
E60LXLIFT
 62
6
 10
6345.338
 20
-10384.957
 30
-728.000
 70
    32
  0
VERTEX
  8
E60LXLIFT
 62
6
 10
6355.599
 20
-10372.259
 30
-728.000
 70
    32
  0
VERTEX
  8
E60LXLIFT
 62
6
 10
6362.587
 20
-10370.333
 30
-728.000
 70
    32
  0
VERTEX
  8
E60LXLIFT
 62
6
 10
6366.779
 20
-10375.345
 30
-728.000
 70
    32
  0
VERTEX
  8
E60LXLIFT
 62
6
 10
6377.493
 20
-10376.591
 30
-728.000
 70
    32
  0
VERTEX
  8
E60LXLIFT
 62
6
 10
6381.440
 20
-10385.158
 30
-728.000
 70
    32
  0
VERTEX
  8
E60LXLIFT
 62
6
 10
6390.109
 20
-10394.974
 30
-728.000
 70
    32
  0
VERTEX
  8
E60LXLIFT
 62
6
 10
6394.976
 20
-10402.109
 30
-728.000
 70
    32
  0
VERTEX
  8
E60LXLIFT
 62
6
 10
6399.606
 20
-10417.153
 30
-728.000
 70
    32
  0
VERTEX
  8
E60LXLIFT
 62
6
 10
6404.986
 20
-10427.838
 30
-728.000
 70
    32
  0
VERTEX
  8
E60LXLIFT
 62
6
 10
6404.898
 20
-10436.400
 30
-728.000
 70
    32
  0
VERTEX
  8
E60LXLIFT
 62
6
 10
6391.853
 20
-10433.147
 30
-728.000
 70
    32
  0
VERTEX
  8
E60LXLIFT
 62
6
 10
6378.255
 20
-10426.591
 30
-728.000
 70
    32
  0
VERTEX
  8
E60LXLIFT
 62
6
 10
6368.103
 20
-10416.983
 30
-728.000
 70
    32
  0
VERTEX
  8
E60LXLIFT
 62
6
 10
6363.982
 20
-10411.920
 30
-728.000
 70
    32
  0
VERTEX
  8
E60LXLIFT
 62
6
 10
6356.227
 20
-10405.906
 30
-728.000
 70
    32
  0
VERTEX
  8
E60LXLIFT
 62
6
 10
6352.631
 20
-10401.114
 30
-728.000
 70
    32
  0
SEQEND
  8
E60LXLIFT
  0
POLYLINE
  8
E60LXLIFT
 62
13
 66
     1
 70
     9
  0
VERTEX
  8
E60LXLIFT
 62
13
 10
6265.026
 20
-10507.695
 30
-732.000
 70
    32
  0
VERTEX
  8
E60LXLIFT
 62
13
 10
6278.703
 20
-10520.948
 30
-732.000
 70
    32
  0
VERTEX
  8
E60LXLIFT
 62
13
 10
6276.859
 20
-10525.450
 30
-732.000
 70
    32
  0
VERTEX
  8
E60LXLIFT
 62
13
 10
6281.145
 20
-10541.071
 30
-732.000
 70
    32
  0
VERTEX
  8
E60LXLIFT
 62
13
 10
6285.665
 20
-10556.413
 30
-732.000
 70
    32
  0
VERTEX
  8
E60LXLIFT
 62
13
 10
6290.941
 20
-10565.757
 30
-732.000
 70
    32
  0
VERTEX
  8
E60LXLIFT
 62
13
 10
6281.416
 20
-10571.382
 30
-732.000
 70
    32
  0
VERTEX
  8
E60LXLIFT
 62
13
 10
6271.350
 20
-10569.229
 30
-732.000
 70
    32
  0
VERTEX
  8
E60LXLIFT
 62
13
 10
6266.529
 20
-10563.803
 30
-732.000
 70
    32
  0
VERTEX
  8
E60LXLIFT
 62
13
 10
6260.261
 20
-10548.753
 30
-732.000
 70
    32
  0
VERTEX
  8
E60LXLIFT
 62
13
 10
6251.195
 20
-10518.633
 30
-732.000
 70
    32
  0
VERTEX
  8
E60LXLIFT
 62
13
 10
6256.051
 20
-10513.029
 30
-732.000
 70
    32
  0
SEQEND
  8
E60LXLIFT
  0
POLYLINE
  8
E60LXLIFT
 62
7
 66
     1
 70
     9
  0
VERTEX
  8
E60LXLIFT
 62
7
 10
5933.512
 20
-10007.751
 30
-731.000
 70
    32
  0
VERTEX
  8
E60LXLIFT
 62
7
 10
5938.471
 20
-9999.893
 30
-731.000
 70
    32
  0
VERTEX
  8
E60LXLIFT
 62
7
 10
5936.686
 20
-9989.207
 30
-731.000
 70
    32
  0
VERTEX
  8
E60LXLIFT
 62
7
 10
5932.084
 20
-9979.590
 30
-731.000
 70
    32
  0
VERTEX
  8
E60LXLIFT
 62
7
 10
5927.360
 20
-9974.748
 30
-731.000
 70
    32
  0
VERTEX
  8
E60LXLIFT
 62
7
 10
5923.196
 20
-9956.750
 30
-731.000
 70
    32
  0
VERTEX
  8
E60LXLIFT
 62
7
 10
5919.248
 20
-9948.183
 30
-731.000
 70
    32
  0
VERTEX
  8
E60LXLIFT
 62
7
 10
5911.890
 20
-9946.456
 30
-731.000
 70
    32
  0
VERTEX
  8
E60LXLIFT
 62
7
 10
5906.713
 20
-9957.307
 30
-731.000
 70
    32
  0
VERTEX
  8
E60LXLIFT
 62
7
 10
5906.399
 20
-9966.905
 30
-731.000
 70
    32
  0
VERTEX
  8
E60LXLIFT
 62
7
 10
5907.965
 20
-9980.584
 30
-731.000
 70
    32
  0
VERTEX
  8
E60LXLIFT
 62
7
 10
5917.314
 20
-9989.687
 30
-731.000
 70
    32
  0
VERTEX
  8
E60LXLIFT
 62
7
 10
5918.334
 20
-9999.622
 30
-731.000
 70
    32
  0
VERTEX
  8
E60LXLIFT
 62
7
 10
5924.917
 20
-10005.073
 30
-731.000
 70
    32
  0
SEQEND
  8
E60LXLIFT
  0
POLYLINE
  8
E60LXLIFT
 62
6
 66
     1
 70
     9
  0
VERTEX
  8
E60LXLIFT
 62
6
 10
6375.429
 20
-10377.117
 30
-718.000
 70
    32
  0
VERTEX
  8
E60LXLIFT
 62
6
 10
6391.142
 20
-10413.367
 30
-718.000
 70
    32
  0
VERTEX
  8
E60LXLIFT
 62
6
 10
6400.001
 20
-10433.981
 30
-718.000
 70
    32
  0
VERTEX
  8
E60LXLIFT
 62
6
 10
6386.969
 20
-10439.913
 30
-718.000
 70
    32
  0
VERTEX
  8
E60LXLIFT
 62
6
 10
6366.643
 20
-10419.605
 30
-718.000
 70
    32
  0
VERTEX
  8
E60LXLIFT
 62
6
 10
6347.835
 20
-10393.160
 30
-718.000
 70
    32
  0
VERTEX
  8
E60LXLIFT
 62
6
 10
6346.331
 20
-10384.536
 30
-718.000
 70
    32
  0
VERTEX
  8
E60LXLIFT
 62
6
 10
6356.525
 20
-10376.966
 30
-718.000
 70
    32
  0
VERTEX
  8
E60LXLIFT
 62
6
 10
6366.586
 20
-10370.259
 30
-718.000
 70
    32
  0
SEQEND
  8
E60LXLIFT
  0
POLYLINE
  8
E60LXLIFT
 62
7
 66
     1
 70
     9
  0
VERTEX
  8
E60LXLIFT
 62
7
 10
5905.894
 20
-9962.338
 30
-720.000
 70
    32
  0
VERTEX
  8
E60LXLIFT
 62
7
 10
5915.865
 20
-9975.365
 30
-720.000
 70
    32
  0
VERTEX
  8
E60LXLIFT
 62
7
 10
5922.688
 20
-9983.046
 30
-720.000
 70
    32
  0
VERTEX
  8
E60LXLIFT
 62
7
 10
5928.370
 20
-9994.840
 30
-720.000
 70
    32
  0
VERTEX
  8
E60LXLIFT
 62
7
 10
5923.285
 20
-9998.343
 30
-720.000
 70
    32
  0
VERTEX
  8
E60LXLIFT
 62
7
 10
5912.277
 20
-9994.052
 30
-720.000
 70
    32
  0
VERTEX
  8
E60LXLIFT
 62
7
 10
5901.856
 20
-9986.382
 30
-720.000
 70
    32
  0
VERTEX
  8
E60LXLIFT
 62
7
 10
5897.117
 20
-9975.427
 30
-720.000
 70
    32
  0
VERTEX
  8
E60LXLIFT
 62
7
 10
5895.839
 20
-9968.605
 30
-720.000
 70
    32
  0
SEQEND
  8
E60LXLIFT
  0
POLYLINE
  8
E60LXLIFT
 62
8
 66
     1
 70
     9
  0
VERTEX
  8
E60LXLIFT
 62
8
 10
6315.607
 20
-10459.226
 30
-708.000
 70
    32
  0
VERTEX
  8
E60LXLIFT
 62
8
 10
6299.837
 20
-10456.502
 30
-708.000
 70
    32
  0
VERTEX
  8
E60LXLIFT
 62
8
 10
6284.124
 20
-10456.440
 30
-708.000
 70
    32
  0
VERTEX
  8
E60LXLIFT
 62
8
 10
6284.538
 20
-10459.604
 30
-708.000
 70
    32
  0
VERTEX
  8
E60LXLIFT
 62
8
 10
6296.961
 20
-10481.781
 30
-708.000
 70
    32
  0
VERTEX
  8
E60LXLIFT
 62
8
 10
6307.832
 20
-10507.548
 30
-708.000
 70
    32
  0
VERTEX
  8
E60LXLIFT
 62
8
 10
6300.307
 20
-10513.224
 30
-708.000
 70
    32
  0
VERTEX
  8
E60LXLIFT
 62
8
 10
6295.328
 20
-10510.174
 30
-708.000
 70
    32
  0
VERTEX
  8
E60LXLIFT
 62
8
 10
6295.662
 20
-10501.832
 30
-708.000
 70
    32
  0
VERTEX
  8
E60LXLIFT
 62
8
 10
6293.660
 20
-10494.611
 30
-708.000
 70
    32
  0
VERTEX
  8
E60LXLIFT
 62
8
 10
6283.571
 20
-10476.932
 30
-708.000
 70
    32
  0
VERTEX
  8
E60LXLIFT
 62
8
 10
6276.919
 20
-10466.212
 30
-708.000
 70
    32
  0
VERTEX
  8
E60LXLIFT
 62
8
 10
6270.541
 20
-10466.209
 30
-708.000
 70
    32
  0
VERTEX
  8
E60LXLIFT
 62
8
 10
6270.153
 20
-10460.650
 30
-708.000
 70
    32
  0
VERTEX
  8
E60LXLIFT
 62
8
 10
6267.162
 20
-10456.293
 30
-708.000
 70
    32
  0
VERTEX
  8
E60LXLIFT
 62
8
 10
6263.860
 20
-10454.536
 30
-708.000
 70
    32
  0
VERTEX
  8
E60LXLIFT
 62
8
 10
6264.452
 20
-10445.038
 30
-708.000
 70
    32
  0
VERTEX
  8
E60LXLIFT
 62
8
 10
6270.293
 20
-10441.855
 30
-708.000
 70
    32
  0
VERTEX
  8
E60LXLIFT
 62
8
 10
6275.163
 20
-10433.205
 30
-708.000
 70
    32
  0
VERTEX
  8
E60LXLIFT
 62
8
 10
6281.763
 20
-10424.404
 30
-708.000
 70
    32
  0
VERTEX
  8
E60LXLIFT
 62
8
 10
6288.707
 20
-10422.166
 30
-708.000
 70
    32
  0
VERTEX
  8
E60LXLIFT
 62
8
 10
6299.252
 20
-10426.661
 30
-708.000
 70
    32
  0
VERTEX
  8
E60LXLIFT
 62
8
 10
6295.244
 20
-10434.699
 30
-708.000
 70
    32
  0
VERTEX
  8
E60LXLIFT
 62
8
 10
6284.340
 20
-10445.804
 30
-708.000
 70
    32
  0
VERTEX
  8
E60LXLIFT
 62
8
 10
6296.601
 20
-10447.242
 30
-708.000
 70
    32
  0
VERTEX
  8
E60LXLIFT
 62
8
 10
6310.479
 20
-10448.825
 30
-708.000
 70
    32
  0
VERTEX
  8
E60LXLIFT
 62
8
 10
6315.072
 20
-10450.421
 30
-708.000
 70
    32
  0
SEQEND
  8
E60LXLIFT
  0
POLYLINE
  8
E60LXLIFT
 62
7
 66
     1
 70
     9
  0
VERTEX
  8
E60LXLIFT
 62
7
 10
5884.794
 20
-9965.343
 30
-712.000
 70
    32
  0
VERTEX
  8
E60LXLIFT
 62
7
 10
5900.413
 20
-9961.474
 30
-712.000
 70
    32
  0
VERTEX
  8
E60LXLIFT
 62
7
 10
5905.693
 20
-9962.365
 30
-712.000
 70
    32
  0
VERTEX
  8
E60LXLIFT
 62
7
 10
5918.416
 20
-9973.415
 30
-712.000
 70
    32
  0
VERTEX
  8
E60LXLIFT
 62
7
 10
5923.619
 20
-9987.112
 30
-712.000
 70
    32
  0
VERTEX
  8
E60LXLIFT
 62
7
 10
5924.040
 20
-9996.971
 30
-712.000
 70
    32
  0
VERTEX
  8
E60LXLIFT
 62
7
 10
5916.106
 20
-10002.074
 30
-712.000
 70
    32
  0
VERTEX
  8
E60LXLIFT
 62
7
 10
5902.947
 20
-10004.842
 30
-712.000
 70
    32
  0
VERTEX
  8
E60LXLIFT
 62
7
 10
5895.252
 20
-10003.291
 30
-712.000
 70
    32
  0
VERTEX
  8
E60LXLIFT
 62
7
 10
5886.267
 20
-9986.556
 30
-712.000
 70
    32
  0
VERTEX
  8
E60LXLIFT
 62
7
 10
5879.127
 20
-9973.480
 30
-712.000
 70
    32
  0
SEQEND
  8
E60LXLIFT
  0
POLYLINE
  8
E60LXLIFT
 62
7
 66
     1
 70
     9
  0
VERTEX
  8
E60LXLIFT
 62
7
 10
5919.108
 20
-10009.749
 30
-702.000
 70
    32
  0
VERTEX
  8
E60LXLIFT
 62
7
 10
5917.722
 20
-9983.835
 30
-702.000
 70
    32
  0
VERTEX
  8
E60LXLIFT
 62
7
 10
5912.585
 20
-9962.969
 30
-702.000
 70
    32
  0
VERTEX
  8
E60LXLIFT
 62
7
 10
5911.661
 20
-9958.333
 30
-702.000
 70
    32
  0
VERTEX
  8
E60LXLIFT
 62
7
 10
5899.980
 20
-9949.366
 30
-702.000
 70
    32
  0
VERTEX
  8
E60LXLIFT
 62
7
 10
5892.977
 20
-9946.359
 30
-702.000
 70
    32
  0
VERTEX
  8
E60LXLIFT
 62
7
 10
5880.862
 20
-9933.595
 30
-702.000
 70
    32
  0
VERTEX
  8
E60LXLIFT
 62
7
 10
5869.502
 20
-9915.217
 30
-702.000
 70
    32
  0
VERTEX
  8
E60LXLIFT
 62
7
 10
5863.398
 20
-9904.978
 30
-702.000
 70
    32
  0
VERTEX
  8
E60LXLIFT
 62
7
 10
5858.073
 20
-9916.766
 30
-702.000
 70
    32
  0
VERTEX
  8
E60LXLIFT
 62
7
 10
5856.816
 20
-9922.738
 30
-702.000
 70
    32
  0
VERTEX
  8
E60LXLIFT
 62
7
 10
5863.551
 20
-9935.228
 30
-702.000
 70
    32
  0
VERTEX
  8
E60LXLIFT
 62
7
 10
5874.731
 20
-9958.057
 30
-702.000
 70
    32
  0
VERTEX
  8
E60LXLIFT
 62
7
 10
5871.341
 20
-9975.596
 30
-702.000
 70
    32
  0
VERTEX
  8
E60LXLIFT
 62
7
 10
5874.636
 20
-9989.780
 30
-702.000
 70
    32
  0
VERTEX
  8
E60LXLIFT
 62
7
 10
5884.749
 20
-9993.057
 30
-702.000
 70
    32
  0
VERTEX
  8
E60LXLIFT
 62
7
 10
5896.513
 20
-10000.777
 30
-702.000
 70
    32
  0
VERTEX
  8
E60LXLIFT
 62
7
 10
5910.189
 20
-10015.885
 30
-702.000
 70
    32
  0
SEQEND
  8
E60LXLIFT
  0
POLYLINE
  8
E60LXLIFT
 62
1
 66
     1
 70
     9
  0
VERTEX
  8
E60LXLIFT
 62
1
 10
5113.692
 20
-9471.031
 30
-660.000
 70
    32
  0
VERTEX
  8
E60LXLIFT
 62
1
 10
5124.195
 20
-9466.313
 30
-660.000
 70
    32
  0
VERTEX
  8
E60LXLIFT
 62
1
 10
5134.272
 20
-9468.253
 30
-660.000
 70
    32
  0
VERTEX
  8
E60LXLIFT
 62
1
 10
5135.525
 20
-9479.245
 30
-660.000
 70
    32
  0
VERTEX
  8
E60LXLIFT
 62
1
 10
5132.167
 20
-9491.246
 30
-660.000
 70
    32
  0
VERTEX
  8
E60LXLIFT
 62
1
 10
5120.459
 20
-9497.733
 30
-660.000
 70
    32
  0
VERTEX
  8
E60LXLIFT
 62
1
 10
5111.562
 20
-9507.276
 30
-660.000
 70
    32
  0
VERTEX
  8
E60LXLIFT
 62
1
 10
5105.744
 20
-9519.352
 30
-660.000
 70
    32
  0
VERTEX
  8
E60LXLIFT
 62
1
 10
5099.879
 20
-9533.430
 30
-660.000
 70
    32
  0
VERTEX
  8
E60LXLIFT
 62
1
 10
5089.470
 20
-9543.000
 30
-660.000
 70
    32
  0
VERTEX
  8
E60LXLIFT
 62
1
 10
5079.603
 20
-9547.247
 30
-660.000
 70
    32
  0
VERTEX
  8
E60LXLIFT
 62
1
 10
5075.458
 20
-9543.866
 30
-660.000
 70
    32
  0
VERTEX
  8
E60LXLIFT
 62
1
 10
5069.322
 20
-9541.193
 30
-660.000
 70
    32
  0
VERTEX
  8
E60LXLIFT
 62
1
 10
5067.590
 20
-9533.837
 30
-660.000
 70
    32
  0
VERTEX
  8
E60LXLIFT
 62
1
 10
5065.103
 20
-9529.446
 30
-660.000
 70
    32
  0
VERTEX
  8
E60LXLIFT
 62
1
 10
5070.271
 20
-9523.430
 30
-660.000
 70
    32
  0
VERTEX
  8
E60LXLIFT
 62
1
 10
5073.299
 20
-9513.641
 30
-660.000
 70
    32
  0
VERTEX
  8
E60LXLIFT
 62
1
 10
5079.397
 20
-9507.702
 30
-660.000
 70
    32
  0
VERTEX
  8
E60LXLIFT
 62
1
 10
5079.726
 20
-9499.584
 30
-660.000
 70
    32
  0
VERTEX
  8
E60LXLIFT
 62
1
 10
5078.316
 20
-9491.333
 30
-660.000
 70
    32
  0
VERTEX
  8
E60LXLIFT
 62
1
 10
5082.027
 20
-9484.975
 30
-660.000
 70
    32
  0
VERTEX
  8
E60LXLIFT
 62
1
 10
5100.137
 20
-9477.682
 30
-660.000
 70
    32
  0
SEQEND
  8
E60LXLIFT
  0
POLYLINE
  8
E60LXLIFT
 62
1
 66
     1
 70
     9
  0
VERTEX
  8
E60LXLIFT
 62
1
 10
5438.573
 20
-9575.062
 30
-667.000
 70
    32
  0
VERTEX
  8
E60LXLIFT
 62
1
 10
5441.138
 20
-9569.225
 30
-667.000
 70
    32
  0
VERTEX
  8
E60LXLIFT
 62
1
 10
5455.414
 20
-9559.414
 30
-667.000
 70
    32
  0
VERTEX
  8
E60LXLIFT
 62
1
 10
5456.324
 20
-9551.194
 30
-667.000
 70
    32
  0
VERTEX
  8
E60LXLIFT
 62
1
 10
5454.942
 20
-9535.158
 30
-667.000
 70
    32
  0
VERTEX
  8
E60LXLIFT
 62
1
 10
5457.709
 20
-9519.110
 30
-667.000
 70
    32
  0
VERTEX
  8
E60LXLIFT
 62
1
 10
5460.192
 20
-9506.224
 30
-667.000
 70
    32
  0
VERTEX
  8
E60LXLIFT
 62
1
 10
5475.449
 20
-9529.918
 30
-667.000
 70
    32
  0
VERTEX
  8
E60LXLIFT
 62
1
 10
5479.545
 20
-9550.505
 30
-667.000
 70
    32
  0
VERTEX
  8
E60LXLIFT
 62
1
 10
5486.047
 20
-9562.530
 30
-667.000
 70
    32
  0
VERTEX
  8
E60LXLIFT
 62
1
 10
5496.394
 20
-9569.411
 30
-667.000
 70
    32
  0
VERTEX
  8
E60LXLIFT
 62
1
 10
5508.547
 20
-9579.764
 30
-667.000
 70
    32
  0
VERTEX
  8
E60LXLIFT
 62
1
 10
5509.735
 20
-9592.882
 30
-667.000
 70
    32
  0
VERTEX
  8
E60LXLIFT
 62
1
 10
5502.463
 20
-9604.175
 30
-667.000
 70
    32
  0
VERTEX
  8
E60LXLIFT
 62
1
 10
5490.660
 20
-9611.716
 30
-667.000
 70
    32
  0
VERTEX
  8
E60LXLIFT
 62
1
 10
5479.694
 20
-9599.717
 30
-667.000
 70
    32
  0
VERTEX
  8
E60LXLIFT
 62
1
 10
5467.216
 20
-9587.745
 30
-667.000
 70
    32
  0
VERTEX
  8
E60LXLIFT
 62
1
 10
5461.496
 20
-9580.171
 30
-667.000
 70
    32
  0
VERTEX
  8
E60LXLIFT
 62
1
 10
5447.750
 20
-9586.417
 30
-667.000
 70
    32
  0
SEQEND
  8
E60LXLIFT
  0
POLYLINE
  8
E60LXLIFT
 62
1
 66
     1
 70
     9
  0
VERTEX
  8
E60LXLIFT
 62
1
 10
5531.710
 20
-9677.383
 30
-695.000
 70
    32
  0
VERTEX
  8
E60LXLIFT
 62
1
 10
5529.571
 20
-9690.303
 30
-695.000
 70
    32
  0
VERTEX
  8
E60LXLIFT
 62
1
 10
5522.805
 20
-9701.003
 30
-695.000
 70
    32
  0
VERTEX
  8
E60LXLIFT
 62
1
 10
5511.997
 20
-9708.632
 30
-695.000
 70
    32
  0
VERTEX
  8
E60LXLIFT
 62
1
 10
5500.736
 20
-9715.174
 30
-695.000
 70
    32
  0
VERTEX
  8
E60LXLIFT
 62
1
 10
5495.808
 20
-9728.138
 30
-695.000
 70
    32
  0
VERTEX
  8
E60LXLIFT
 62
1
 10
5494.096
 20
-9738.474
 30
-695.000
 70
    32
  0
VERTEX
  8
E60LXLIFT
 62
1
 10
5489.895
 20
-9750.483
 30
-695.000
 70
    32
  0
VERTEX
  8
E60LXLIFT
 62
1
 10
5477.370
 20
-9763.896
 30
-695.000
 70
    32
  0
VERTEX
  8
E60LXLIFT
 62
1
 10
5473.635
 20
-9760.496
 30
-695.000
 70
    32
  0
VERTEX
  8
E60LXLIFT
 62
1
 10
5477.052
 20
-9744.058
 30
-695.000
 70
    32
  0
VERTEX
  8
E60LXLIFT
 62
1
 10
5478.499
 20
-9725.018
 30
-695.000
 70
    32
  0
VERTEX
  8
E60LXLIFT
 62
1
 10
5465.465
 20
-9721.659
 30
-695.000
 70
    32
  0
VERTEX
  8
E60LXLIFT
 62
1
 10
5467.518
 20
-9714.224
 30
-695.000
 70
    32
  0
VERTEX
  8
E60LXLIFT
 62
1
 10
5476.784
 20
-9712.471
 30
-695.000
 70
    32
  0
VERTEX
  8
E60LXLIFT
 62
1
 10
5487.966
 20
-9709.456
 30
-695.000
 70
    32
  0
VERTEX
  8
E60LXLIFT
 62
1
 10
5495.768
 20
-9709.294
 30
-695.000
 70
    32
  0
VERTEX
  8
E60LXLIFT
 62
1
 10
5502.661
 20
-9702.408
 30
-695.000
 70
    32
  0
VERTEX
  8
E60LXLIFT
 62
1
 10
5490.711
 20
-9686.775
 30
-695.000
 70
    32
  0
VERTEX
  8
E60LXLIFT
 62
1
 10
5482.925
 20
-9671.958
 30
-695.000
 70
    32
  0
VERTEX
  8
E60LXLIFT
 62
1
 10
5475.857
 20
-9668.449
 30
-695.000
 70
    32
  0
VERTEX
  8
E60LXLIFT
 62
1
 10
5471.291
 20
-9654.039
 30
-695.000
 70
    32
  0
VERTEX
  8
E60LXLIFT
 62
1
 10
5473.293
 20
-9647.291
 30
-695.000
 70
    32
  0
VERTEX
  8
E60LXLIFT
 62
1
 10
5481.395
 20
-9639.973
 30
-695.000
 70
    32
  0
VERTEX
  8
E60LXLIFT
 62
1
 10
5491.661
 20
-9653.557
 30
-695.000
 70
    32
  0
VERTEX
  8
E60LXLIFT
 62
1
 10
5510.787
 20
-9668.608
 30
-695.000
 70
    32
  0
SEQEND
  8
E60LXLIFT
  0
POLYLINE
  8
E60LXLIFT
 62
1
 66
     1
 70
     9
  0
VERTEX
  8
E60LXLIFT
 62
1
 10
5912.189
 20
-10013.885
 30
-692.000
 70
    32
  0
VERTEX
  8
E60LXLIFT
 62
1
 10
5898.513
 20
-9998.777
 30
-692.000
 70
    32
  0
VERTEX
  8
E60LXLIFT
 62
1
 10
5886.749
 20
-9991.057
 30
-692.000
 70
    32
  0
VERTEX
  8
E60LXLIFT
 62
1
 10
5876.636
 20
-9987.780
 30
-692.000
 70
    32
  0
VERTEX
  8
E60LXLIFT
 62
1
 10
5873.341
 20
-9973.596
 30
-692.000
 70
    32
  0
VERTEX
  8
E60LXLIFT
 62
1
 10
5876.731
 20
-9956.057
 30
-692.000
 70
    32
  0
VERTEX
  8
E60LXLIFT
 62
1
 10
5865.551
 20
-9933.228
 30
-692.000
 70
    32
  0
VERTEX
  8
E60LXLIFT
 62
1
 10
5858.816
 20
-9920.738
 30
-692.000
 70
    32
  0
VERTEX
  8
E60LXLIFT
 62
1
 10
5860.073
 20
-9914.766
 30
-692.000
 70
    32
  0
VERTEX
  8
E60LXLIFT
 62
1
 10
5865.398
 20
-9902.978
 30
-692.000
 70
    32
  0
VERTEX
  8
E60LXLIFT
 62
1
 10
5871.502
 20
-9913.217
 30
-692.000
 70
    32
  0
VERTEX
  8
E60LXLIFT
 62
1
 10
5882.862
 20
-9931.595
 30
-692.000
 70
    32
  0
VERTEX
  8
E60LXLIFT
 62
1
 10
5894.977
 20
-9944.359
 30
-692.000
 70
    32
  0
VERTEX
  8
E60LXLIFT
 62
1
 10
5901.980
 20
-9947.366
 30
-692.000
 70
    32
  0
VERTEX
  8
E60LXLIFT
 62
1
 10
5913.661
 20
-9956.333
 30
-692.000
 70
    32
  0
VERTEX
  8
E60LXLIFT
 62
1
 10
5914.585
 20
-9960.969
 30
-692.000
 70
    32
  0
VERTEX
  8
E60LXLIFT
 62
1
 10
5919.722
 20
-9981.835
 30
-692.000
 70
    32
  0
VERTEX
  8
E60LXLIFT
 62
1
 10
5921.108
 20
-10007.749
 30
-692.000
 70
    32
  0
SEQEND
  8
E60LXLIFT
  0
POLYLINE
  8
E60LXLIFT
 62
1
 66
     1
 70
     9
  0
VERTEX
  8
E60LXLIFT
 62
1
 10
6000.586
 20
-10052.502
 30
-780.000
 70
    32
  0
VERTEX
  8
E60LXLIFT
 62
1
 10
6006.965
 20
-10046.316
 30
-780.000
 70
    32
  0
VERTEX
  8
E60LXLIFT
 62
1
 10
6013.241
 20
-10049.498
 30
-780.000
 70
    32
  0
VERTEX
  8
E60LXLIFT
 62
1
 10
6025.441
 20
-10052.655
 30
-780.000
 70
    32
  0
VERTEX
  8
E60LXLIFT
 62
1
 10
6030.975
 20
-10060.690
 30
-780.000
 70
    32
  0
VERTEX
  8
E60LXLIFT
 62
1
 10
6030.729
 20
-10072.428
 30
-780.000
 70
    32
  0
VERTEX
  8
E60LXLIFT
 62
1
 10
6034.768
 20
-10088.340
 30
-780.000
 70
    32
  0
VERTEX
  8
E60LXLIFT
 62
1
 10
6039.683
 20
-10101.249
 30
-780.000
 70
    32
  0
VERTEX
  8
E60LXLIFT
 62
1
 10
6030.256
 20
-10104.536
 30
-780.000
 70
    32
  0
VERTEX
  8
E60LXLIFT
 62
1
 10
6017.018
 20
-10106.121
 30
-780.000
 70
    32
  0
VERTEX
  8
E60LXLIFT
 62
1
 10
6012.017
 20
-10100.190
 30
-780.000
 70
    32
  0
VERTEX
  8
E60LXLIFT
 62
1
 10
6003.749
 20
-10083.954
 30
-780.000
 70
    32
  0
VERTEX
  8
E60LXLIFT
 62
1
 10
5993.128
 20
-10064.430
 30
-780.000
 70
    32
  0
SEQEND
  8
E60LXLIFT
  0
POLYLINE
  8
E60LXLIFT
 62
1
 66
     1
 70
     9
  0
VERTEX
  8
E60LXLIFT
 62
1
 10
6267.026
 20
-10505.695
 30
-722.000
 70
    32
  0
VERTEX
  8
E60LXLIFT
 62
1
 10
6280.703
 20
-10518.948
 30
-722.000
 70
    32
  0
VERTEX
  8
E60LXLIFT
 62
1
 10
6278.859
 20
-10523.450
 30
-722.000
 70
    32
  0
VERTEX
  8
E60LXLIFT
 62
1
 10
6283.145
 20
-10539.071
 30
-722.000
 70
    32
  0
VERTEX
  8
E60LXLIFT
 62
1
 10
6287.665
 20
-10554.413
 30
-722.000
 70
    32
  0
VERTEX
  8
E60LXLIFT
 62
1
 10
6292.941
 20
-10563.757
 30
-722.000
 70
    32
  0
VERTEX
  8
E60LXLIFT
 62
1
 10
6283.416
 20
-10569.382
 30
-722.000
 70
    32
  0
VERTEX
  8
E60LXLIFT
 62
1
 10
6273.350
 20
-10567.229
 30
-722.000
 70
    32
  0
VERTEX
  8
E60LXLIFT
 62
1
 10
6268.529
 20
-10561.803
 30
-722.000
 70
    32
  0
VERTEX
  8
E60LXLIFT
 62
1
 10
6262.261
 20
-10546.753
 30
-722.000
 70
    32
  0
VERTEX
  8
E60LXLIFT
 62
1
 10
6253.195
 20
-10516.633
 30
-722.000
 70
    32
  0
VERTEX
  8
E60LXLIFT
 62
1
 10
6258.051
 20
-10511.029
 30
-722.000
 70
    32
  0
SEQEND
  8
E60LXLIFT
  0
POLYLINE
  8
E60LXLIFT
 62
1
 66
     1
 70
     9
  0
VERTEX
  8
E60LXLIFT
 62
1
 10
6317.607
 20
-10457.226
 30
-698.000
 70
    32
  0
VERTEX
  8
E60LXLIFT
 62
1
 10
6301.837
 20
-10454.502
 30
-698.000
 70
    32
  0
VERTEX
  8
E60LXLIFT
 62
1
 10
6286.124
 20
-10454.440
 30
-698.000
 70
    32
  0
VERTEX
  8
E60LXLIFT
 62
1
 10
6286.538
 20
-10457.604
 30
-698.000
 70
    32
  0
VERTEX
  8
E60LXLIFT
 62
1
 10
6298.961
 20
-10479.781
 30
-698.000
 70
    32
  0
VERTEX
  8
E60LXLIFT
 62
1
 10
6309.832
 20
-10505.548
 30
-698.000
 70
    32
  0
VERTEX
  8
E60LXLIFT
 62
1
 10
6302.307
 20
-10511.224
 30
-698.000
 70
    32
  0
VERTEX
  8
E60LXLIFT
 62
1
 10
6297.328
 20
-10508.174
 30
-698.000
 70
    32
  0
VERTEX
  8
E60LXLIFT
 62
1
 10
6297.662
 20
-10499.832
 30
-698.000
 70
    32
  0
VERTEX
  8
E60LXLIFT
 62
1
 10
6295.660
 20
-10492.611
 30
-698.000
 70
    32
  0
VERTEX
  8
E60LXLIFT
 62
1
 10
6285.571
 20
-10474.932
 30
-698.000
 70
    32
  0
VERTEX
  8
E60LXLIFT
 62
1
 10
6278.919
 20
-10464.212
 30
-698.000
 70
    32
  0
VERTEX
  8
E60LXLIFT
 62
1
 10
6272.541
 20
-10464.209
 30
-698.000
 70
    32
  0
VERTEX
  8
E60LXLIFT
 62
1
 10
6272.153
 20
-10458.650
 30
-698.000
 70
    32
  0
VERTEX
  8
E60LXLIFT
 62
1
 10
6269.162
 20
-10454.293
 30
-698.000
 70
    32
  0
VERTEX
  8
E60LXLIFT
 62
1
 10
6265.860
 20
-10452.536
 30
-698.000
 70
    32
  0
VERTEX
  8
E60LXLIFT
 62
1
 10
6266.452
 20
-10443.038
 30
-698.000
 70
    32
  0
VERTEX
  8
E60LXLIFT
 62
1
 10
6272.293
 20
-10439.855
 30
-698.000
 70
    32
  0
VERTEX
  8
E60LXLIFT
 62
1
 10
6277.163
 20
-10431.205
 30
-698.000
 70
    32
  0
VERTEX
  8
E60LXLIFT
 62
1
 10
6283.763
 20
-10422.404
 30
-698.000
 70
    32
  0
VERTEX
  8
E60LXLIFT
 62
1
 10
6290.707
 20
-10420.166
 30
-698.000
 70
    32
  0
VERTEX
  8
E60LXLIFT
 62
1
 10
6301.252
 20
-10424.661
 30
-698.000
 70
    32
  0
VERTEX
  8
E60LXLIFT
 62
1
 10
6297.244
 20
-10432.699
 30
-698.000
 70
    32
  0
VERTEX
  8
E60LXLIFT
 62
1
 10
6286.340
 20
-10443.804
 30
-698.000
 70
    32
  0
VERTEX
  8
E60LXLIFT
 62
1
 10
6298.601
 20
-10445.242
 30
-698.000
 70
    32
  0
VERTEX
  8
E60LXLIFT
 62
1
 10
6312.479
 20
-10446.825
 30
-698.000
 70
    32
  0
VERTEX
  8
E60LXLIFT
 62
1
 10
6317.072
 20
-10448.421
 30
-698.000
 70
    32
  0
SEQEND
  8
E60LXLIFT
  0
POLYLINE
  8
E60LXLIFT
 62
1
 66
     1
 70
     9
  0
VERTEX
  8
E60LXLIFT
 62
1
 10
6377.429
 20
-10375.117
 30
-708.000
 70
    32
  0
VERTEX
  8
E60LXLIFT
 62
1
 10
6393.142
 20
-10411.367
 30
-708.000
 70
    32
  0
VERTEX
  8
E60LXLIFT
 62
1
 10
6402.001
 20
-10431.981
 30
-708.000
 70
    32
  0
VERTEX
  8
E60LXLIFT
 62
1
 10
6388.969
 20
-10437.913
 30
-708.000
 70
    32
  0
VERTEX
  8
E60LXLIFT
 62
1
 10
6368.643
 20
-10417.605
 30
-708.000
 70
    32
  0
VERTEX
  8
E60LXLIFT
 62
1
 10
6349.835
 20
-10391.160
 30
-708.000
 70
    32
  0
VERTEX
  8
E60LXLIFT
 62
1
 10
6348.331
 20
-10382.536
 30
-708.000
 70
    32
  0
VERTEX
  8
E60LXLIFT
 62
1
 10
6358.525
 20
-10374.966
 30
-708.000
 70
    32
  0
VERTEX
  8
E60LXLIFT
 62
1
 10
6368.586
 20
-10368.259
 30
-708.000
 70
    32
  0
SEQEND
  8
E60LXLIFT
  0
POLYLINE
  8
E60LXLIFT
 62
6
 66
     1
 70
     9
  0
VERTEX
  8
E60LXLIFT
 62
6
 10
4041.906
 20
-8627.941
 30
-758.000
 70
    32
  0
VERTEX
  8
E60LXLIFT
 62
6
 10
4028.472
 20
-8619.369
 30
-758.000
 70
    32
  0
VERTEX
  8
E60LXLIFT
 62
6
 10
4013.324
 20
-8614.606
 30
-758.000
 70
    32
  0
VERTEX
  8
E60LXLIFT
 62
6
 10
4008.690
 20
-8616.283
 30
-758.000
 70
    32
  0
VERTEX
  8
E60LXLIFT
 62
6
 10
3983.499
 20
-8598.918
 30
-758.000
 70
    32
  0
VERTEX
  8
E60LXLIFT
 62
6
 10
3955.862
 20
-8582.969
 30
-758.000
 70
    32
  0
VERTEX
  8
E60LXLIFT
 62
6
 10
3944.728
 20
-8574.596
 30
-758.000
 70
    32
  0
VERTEX
  8
E60LXLIFT
 62
6
 10
3933.587
 20
-8584.570
 30
-758.000
 70
    32
  0
VERTEX
  8
E60LXLIFT
 62
6
 10
3924.827
 20
-8610.330
 30
-758.000
 70
    32
  0
VERTEX
  8
E60LXLIFT
 62
6
 10
3975.447
 20
-8623.096
 30
-758.000
 70
    32
  0
VERTEX
  8
E60LXLIFT
 62
6
 10
3999.487
 20
-8633.835
 30
-758.000
 70
    32
  0
VERTEX
  8
E60LXLIFT
 62
6
 10
4014.460
 20
-8644.117
 30
-758.000
 70
    32
  0
VERTEX
  8
E60LXLIFT
 62
6
 10
4029.325
 20
-8647.571
 30
-758.000
 70
    32
  0
VERTEX
  8
E60LXLIFT
 62
6
 10
4039.537
 20
-8642.358
 30
-758.000
 70
    32
  0
SEQEND
  8
E60LXLIFT
  0
POLYLINE
  8
E60LXLIFT
 62
6
 66
     1
 70
     9
  0
VERTEX
  8
E60LXLIFT
 62
6
 10
3993.403
 20
-8616.250
 30
-798.000
 70
    32
  0
VERTEX
  8
E60LXLIFT
 62
6
 10
4004.298
 20
-8625.192
 30
-798.000
 70
    32
  0
VERTEX
  8
E60LXLIFT
 62
6
 10
4018.472
 20
-8633.720
 30
-798.000
 70
    32
  0
VERTEX
  8
E60LXLIFT
 62
6
 10
4027.154
 20
-8628.324
 30
-798.000
 70
    32
  0
VERTEX
  8
E60LXLIFT
 62
6
 10
4038.694
 20
-8630.947
 30
-798.000
 70
    32
  0
VERTEX
  8
E60LXLIFT
 62
6
 10
4047.093
 20
-8643.642
 30
-798.000
 70
    32
  0
VERTEX
  8
E60LXLIFT
 62
6
 10
4050.721
 20
-8663.246
 30
-798.000
 70
    32
  0
VERTEX
  8
E60LXLIFT
 62
6
 10
4037.281
 20
-8675.870
 30
-798.000
 70
    32
  0
VERTEX
  8
E60LXLIFT
 62
6
 10
4021.005
 20
-8672.543
 30
-798.000
 70
    32
  0
VERTEX
  8
E60LXLIFT
 62
6
 10
4000.436
 20
-8658.005
 30
-798.000
 70
    32
  0
VERTEX
  8
E60LXLIFT
 62
6
 10
3990.272
 20
-8643.766
 30
-798.000
 70
    32
  0
VERTEX
  8
E60LXLIFT
 62
6
 10
3986.217
 20
-8622.518
 30
-798.000
 70
    32
  0
SEQEND
  8
E60LXLIFT
  0
POLYLINE
  8
E60LXLIFT
 62
6
 66
     1
 70
     9
  0
VERTEX
  8
E60LXLIFT
 62
6
 10
4039.878
 20
-8659.167
 30
-790.000
 70
    32
  0
VERTEX
  8
E60LXLIFT
 62
6
 10
4039.532
 20
-8636.884
 30
-790.000
 70
    32
  0
VERTEX
  8
E60LXLIFT
 62
6
 10
4030.119
 20
-8628.933
 30
-790.000
 70
    32
  0
VERTEX
  8
E60LXLIFT
 62
6
 10
4025.974
 20
-8622.278
 30
-790.000
 70
    32
  0
VERTEX
  8
E60LXLIFT
 62
6
 10
4014.250
 20
-8621.192
 30
-790.000
 70
    32
  0
VERTEX
  8
E60LXLIFT
 62
6
 10
4005.980
 20
-8605.051
 30
-790.000
 70
    32
  0
VERTEX
  8
E60LXLIFT
 62
6
 10
4005.624
 20
-8600.649
 30
-790.000
 70
    32
  0
VERTEX
  8
E60LXLIFT
 62
6
 10
3986.038
 20
-8593.312
 30
-790.000
 70
    32
  0
VERTEX
  8
E60LXLIFT
 62
6
 10
3972.529
 20
-8585.387
 30
-790.000
 70
    32
  0
VERTEX
  8
E60LXLIFT
 62
6
 10
3964.016
 20
-8587.405
 30
-790.000
 70
    32
  0
VERTEX
  8
E60LXLIFT
 62
6
 10
3955.374
 20
-8580.523
 30
-790.000
 70
    32
  0
VERTEX
  8
E60LXLIFT
 62
6
 10
3950.868
 20
-8585.395
 30
-790.000
 70
    32
  0
VERTEX
  8
E60LXLIFT
 62
6
 10
3959.530
 20
-8594.861
 30
-790.000
 70
    32
  0
VERTEX
  8
E60LXLIFT
 62
6
 10
3965.597
 20
-8606.740
 30
-790.000
 70
    32
  0
VERTEX
  8
E60LXLIFT
 62
6
 10
3976.047
 20
-8613.726
 30
-790.000
 70
    32
  0
VERTEX
  8
E60LXLIFT
 62
6
 10
3981.212
 20
-8622.247
 30
-790.000
 70
    32
  0
VERTEX
  8
E60LXLIFT
 62
6
 10
3979.395
 20
-8632.656
 30
-790.000
 70
    32
  0
VERTEX
  8
E60LXLIFT
 62
6
 10
3977.078
 20
-8640.717
 30
-790.000
 70
    32
  0
VERTEX
  8
E60LXLIFT
 62
6
 10
3984.693
 20
-8641.513
 30
-790.000
 70
    32
  0
VERTEX
  8
E60LXLIFT
 62
6
 10
3991.736
 20
-8644.672
 30
-790.000
 70
    32
  0
VERTEX
  8
E60LXLIFT
 62
6
 10
3997.496
 20
-8651.463
 30
-790.000
 70
    32
  0
VERTEX
  8
E60LXLIFT
 62
6
 10
4002.489
 20
-8660.649
 30
-790.000
 70
    32
  0
VERTEX
  8
E60LXLIFT
 62
6
 10
4018.264
 20
-8670.515
 30
-790.000
 70
    32
  0
SEQEND
  8
E60LXLIFT
  0
POLYLINE
  8
E60LXLIFT
 62
6
 66
     1
 70
     9
  0
VERTEX
  8
E60LXLIFT
 62
6
 10
3952.464
 20
-8582.052
 30
-777.000
 70
    32
  0
VERTEX
  8
E60LXLIFT
 62
6
 10
3960.602
 20
-8596.104
 30
-777.000
 70
    32
  0
VERTEX
  8
E60LXLIFT
 62
6
 10
3963.260
 20
-8598.635
 30
-777.000
 70
    32
  0
VERTEX
  8
E60LXLIFT
 62
6
 10
3966.493
 20
-8606.685
 30
-777.000
 70
    32
  0
VERTEX
  8
E60LXLIFT
 62
6
 10
3974.803
 20
-8611.564
 30
-777.000
 70
    32
  0
VERTEX
  8
E60LXLIFT
 62
6
 10
3979.726
 20
-8618.199
 30
-777.000
 70
    32
  0
VERTEX
  8
E60LXLIFT
 62
6
 10
3981.055
 20
-8624.475
 30
-777.000
 70
    32
  0
VERTEX
  8
E60LXLIFT
 62
6
 10
3977.553
 20
-8639.889
 30
-777.000
 70
    32
  0
VERTEX
  8
E60LXLIFT
 62
6
 10
3989.486
 20
-8642.736
 30
-777.000
 70
    32
  0
VERTEX
  8
E60LXLIFT
 62
6
 10
3998.168
 20
-8652.846
 30
-777.000
 70
    32
  0
VERTEX
  8
E60LXLIFT
 62
6
 10
4012.559
 20
-8666.448
 30
-777.000
 70
    32
  0
VERTEX
  8
E60LXLIFT
 62
6
 10
4023.870
 20
-8668.874
 30
-777.000
 70
    32
  0
VERTEX
  8
E60LXLIFT
 62
6
 10
4031.434
 20
-8660.705
 30
-777.000
 70
    32
  0
VERTEX
  8
E60LXLIFT
 62
6
 10
4040.476
 20
-8637.913
 30
-777.000
 70
    32
  0
VERTEX
  8
E60LXLIFT
 62
6
 10
4018.022
 20
-8615.378
 30
-777.000
 70
    32
  0
VERTEX
  8
E60LXLIFT
 62
6
 10
4008.326
 20
-8599.738
 30
-777.000
 70
    32
  0
VERTEX
  8
E60LXLIFT
 62
6
 10
3989.877
 20
-8596.666
 30
-777.000
 70
    32
  0
VERTEX
  8
E60LXLIFT
 62
6
 10
3973.035
 20
-8589.329
 30
-777.000
 70
    32
  0
VERTEX
  8
E60LXLIFT
 62
6
 10
3964.228
 20
-8583.295
 30
-777.000
 70
    32
  0
VERTEX
  8
E60LXLIFT
 62
6
 10
3956.727
 20
-8577.734
 30
-777.000
 70
    32
  0
SEQEND
  8
E60LXLIFT
  0
POLYLINE
  8
E60LXLIFT
 62
6
 66
     1
 70
     9
  0
VERTEX
  8
E60LXLIFT
 62
6
 10
4012.785
 20
-8619.709
 30
-805.000
 70
    32
  0
VERTEX
  8
E60LXLIFT
 62
6
 10
4014.041
 20
-8628.938
 30
-805.000
 70
    32
  0
VERTEX
  8
E60LXLIFT
 62
6
 10
4013.505
 20
-8635.451
 30
-805.000
 70
    32
  0
VERTEX
  8
E60LXLIFT
 62
6
 10
4009.549
 20
-8641.326
 30
-805.000
 70
    32
  0
VERTEX
  8
E60LXLIFT
 62
6
 10
4003.912
 20
-8654.234
 30
-805.000
 70
    32
  0
VERTEX
  8
E60LXLIFT
 62
6
 10
4001.326
 20
-8662.700
 30
-805.000
 70
    32
  0
VERTEX
  8
E60LXLIFT
 62
6
 10
4003.484
 20
-8678.909
 30
-805.000
 70
    32
  0
VERTEX
  8
E60LXLIFT
 62
6
 10
4020.602
 20
-8687.876
 30
-805.000
 70
    32
  0
VERTEX
  8
E60LXLIFT
 62
6
 10
4040.623
 20
-8701.359
 30
-805.000
 70
    32
  0
VERTEX
  8
E60LXLIFT
 62
6
 10
4047.193
 20
-8698.575
 30
-805.000
 70
    32
  0
VERTEX
  8
E60LXLIFT
 62
6
 10
4053.604
 20
-8688.044
 30
-805.000
 70
    32
  0
VERTEX
  8
E60LXLIFT
 62
6
 10
4063.977
 20
-8678.734
 30
-805.000
 70
    32
  0
VERTEX
  8
E60LXLIFT
 62
6
 10
4064.878
 20
-8672.716
 30
-805.000
 70
    32
  0
VERTEX
  8
E60LXLIFT
 62
6
 10
4059.795
 20
-8647.529
 30
-805.000
 70
    32
  0
VERTEX
  8
E60LXLIFT
 62
6
 10
4050.171
 20
-8636.733
 30
-805.000
 70
    32
  0
VERTEX
  8
E60LXLIFT
 62
6
 10
4046.037
 20
-8621.986
 30
-805.000
 70
    32
  0
VERTEX
  8
E60LXLIFT
 62
6
 10
4039.181
 20
-8612.420
 30
-805.000
 70
    32
  0
VERTEX
  8
E60LXLIFT
 62
6
 10
4030.541
 20
-8606.795
 30
-805.000
 70
    32
  0
VERTEX
  8
E60LXLIFT
 62
6
 10
4023.004
 20
-8609.748
 30
-805.000
 70
    32
  0
SEQEND
  8
E60LXLIFT
  0
POLYLINE
  8
E60LXLIFT
 62
8
 66
     1
 70
     9
  0
VERTEX
  8
E60LXLIFT
 62
8
 10
4064.236
 20
-8972.178
 30
-709.000
 70
    32
  0
VERTEX
  8
E60LXLIFT
 62
8
 10
4060.737
 20
-8976.631
 30
-709.000
 70
    32
  0
VERTEX
  8
E60LXLIFT
 62
8
 10
4061.021
 20
-8990.340
 30
-709.000
 70
    32
  0
VERTEX
  8
E60LXLIFT
 62
8
 10
4061.509
 20
-8996.774
 30
-709.000
 70
    32
  0
VERTEX
  8
E60LXLIFT
 62
8
 10
4059.221
 20
-9004.935
 30
-709.000
 70
    32
  0
VERTEX
  8
E60LXLIFT
 62
8
 10
4053.905
 20
-9009.746
 30
-709.000
 70
    32
  0
VERTEX
  8
E60LXLIFT
 62
8
 10
4047.894
 20
-9007.401
 30
-709.000
 70
    32
  0
VERTEX
  8
E60LXLIFT
 62
8
 10
4039.345
 20
-9005.180
 30
-709.000
 70
    32
  0
VERTEX
  8
E60LXLIFT
 62
8
 10
4034.819
 20
-8993.735
 30
-709.000
 70
    32
  0
VERTEX
  8
E60LXLIFT
 62
8
 10
4033.287
 20
-8987.964
 30
-709.000
 70
    32
  0
VERTEX
  8
E60LXLIFT
 62
8
 10
4039.824
 20
-8976.658
 30
-709.000
 70
    32
  0
VERTEX
  8
E60LXLIFT
 62
8
 10
4044.692
 20
-8970.205
 30
-709.000
 70
    32
  0
VERTEX
  8
E60LXLIFT
 62
8
 10
4049.278
 20
-8966.481
 30
-709.000
 70
    32
  0
SEQEND
  8
E60LXLIFT
  0
POLYLINE
  8
E60LXLIFT
 62
8
 66
     1
 70
     9
  0
VERTEX
  8
E60LXLIFT
 62
8
 10
4057.002
 20
-8999.636
 30
-701.000
 70
    32
  0
VERTEX
  8
E60LXLIFT
 62
8
 10
4058.955
 20
-8984.474
 30
-701.000
 70
    32
  0
VERTEX
  8
E60LXLIFT
 62
8
 10
4056.131
 20
-8970.890
 30
-701.000
 70
    32
  0
VERTEX
  8
E60LXLIFT
 62
8
 10
4051.265
 20
-8967.318
 30
-701.000
 70
    32
  0
VERTEX
  8
E60LXLIFT
 62
8
 10
4040.732
 20
-8968.342
 30
-701.000
 70
    32
  0
VERTEX
  8
E60LXLIFT
 62
8
 10
4031.723
 20
-8974.074
 30
-701.000
 70
    32
  0
VERTEX
  8
E60LXLIFT
 62
8
 10
4030.039
 20
-8983.256
 30
-701.000
 70
    32
  0
VERTEX
  8
E60LXLIFT
 62
8
 10
4036.475
 20
-8993.609
 30
-701.000
 70
    32
  0
VERTEX
  8
E60LXLIFT
 62
8
 10
4038.677
 20
-9000.346
 30
-701.000
 70
    32
  0
VERTEX
  8
E60LXLIFT
 62
8
 10
4041.585
 20
-9005.984
 30
-701.000
 70
    32
  0
VERTEX
  8
E60LXLIFT
 62
8
 10
4047.526
 20
-9008.503
 30
-701.000
 70
    32
  0
SEQEND
  8
E60LXLIFT
  0
POLYLINE
  8
E60LXLIFT
 62
8
 66
     1
 70
     9
  0
VERTEX
  8
E60LXLIFT
 62
8
 10
4066.506
 20
-9010.815
 30
-715.000
 70
    32
  0
VERTEX
  8
E60LXLIFT
 62
8
 10
4064.571
 20
-9011.736
 30
-715.000
 70
    32
  0
VERTEX
  8
E60LXLIFT
 62
8
 10
4058.069
 20
-9008.113
 30
-715.000
 70
    32
  0
VERTEX
  8
E60LXLIFT
 62
8
 10
4055.039
 20
-9002.389
 30
-715.000
 70
    32
  0
VERTEX
  8
E60LXLIFT
 62
8
 10
4052.770
 20
-9000.214
 30
-715.000
 70
    32
  0
VERTEX
  8
E60LXLIFT
 62
8
 10
4049.074
 20
-8990.766
 30
-715.000
 70
    32
  0
VERTEX
  8
E60LXLIFT
 62
8
 10
4051.516
 20
-8982.726
 30
-715.000
 70
    32
  0
VERTEX
  8
E60LXLIFT
 62
8
 10
4050.794
 20
-8977.538
 30
-715.000
 70
    32
  0
VERTEX
  8
E60LXLIFT
 62
8
 10
4052.483
 20
-8971.957
 30
-715.000
 70
    32
  0
VERTEX
  8
E60LXLIFT
 62
8
 10
4053.132
 20
-8966.886
 30
-715.000
 70
    32
  0
VERTEX
  8
E60LXLIFT
 62
8
 10
4064.482
 20
-8969.917
 30
-715.000
 70
    32
  0
VERTEX
  8
E60LXLIFT
 62
8
 10
4064.048
 20
-8965.602
 30
-715.000
 70
    32
  0
VERTEX
  8
E60LXLIFT
 62
8
 10
4066.086
 20
-8962.676
 30
-715.000
 70
    32
  0
VERTEX
  8
E60LXLIFT
 62
8
 10
4067.811
 20
-8962.224
 30
-715.000
 70
    32
  0
VERTEX
  8
E60LXLIFT
 62
8
 10
4070.684
 20
-8966.340
 30
-715.000
 70
    32
  0
VERTEX
  8
E60LXLIFT
 62
8
 10
4068.554
 20
-8972.981
 30
-715.000
 70
    32
  0
VERTEX
  8
E60LXLIFT
 62
8
 10
4065.854
 20
-8990.652
 30
-715.000
 70
    32
  0
SEQEND
  8
E60LXLIFT
  0
POLYLINE
  8
E60LXLIFT
 62
8
 66
     1
 70
     9
  0
VERTEX
  8
E60LXLIFT
 62
8
 10
4043.231
 20
-8999.852
 30
-687.000
 70
    32
  0
VERTEX
  8
E60LXLIFT
 62
8
 10
4044.913
 20
-8982.872
 30
-687.000
 70
    32
  0
VERTEX
  8
E60LXLIFT
 62
8
 10
4048.639
 20
-8968.870
 30
-687.000
 70
    32
  0
VERTEX
  8
E60LXLIFT
 62
8
 10
4042.458
 20
-8965.831
 30
-687.000
 70
    32
  0
VERTEX
  8
E60LXLIFT
 62
8
 10
4032.333
 20
-8973.310
 30
-687.000
 70
    32
  0
VERTEX
  8
E60LXLIFT
 62
8
 10
4029.364
 20
-8979.437
 30
-687.000
 70
    32
  0
VERTEX
  8
E60LXLIFT
 62
8
 10
4035.493
 20
-9000.872
 30
-687.000
 70
    32
  0
SEQEND
  8
E60LXLIFT
  0
POLYLINE
  8
E60LXLIFT
 62
8
 66
     1
 70
     9
  0
VERTEX
  8
E60LXLIFT
 62
8
 10
4051.106
 20
-9015.974
 30
-721.000
 70
    32
  0
VERTEX
  8
E60LXLIFT
 62
8
 10
4043.586
 20
-9006.097
 30
-721.000
 70
    32
  0
VERTEX
  8
E60LXLIFT
 62
8
 10
4044.102
 20
-8998.361
 30
-721.000
 70
    32
  0
VERTEX
  8
E60LXLIFT
 62
8
 10
4042.038
 20
-8985.219
 30
-721.000
 70
    32
  0
VERTEX
  8
E60LXLIFT
 62
8
 10
4044.072
 20
-8974.769
 30
-721.000
 70
    32
  0
VERTEX
  8
E60LXLIFT
 62
8
 10
4053.879
 20
-8968.057
 30
-721.000
 70
    32
  0
VERTEX
  8
E60LXLIFT
 62
8
 10
4059.948
 20
-8969.119
 30
-721.000
 70
    32
  0
VERTEX
  8
E60LXLIFT
 62
8
 10
4068.636
 20
-8965.376
 30
-721.000
 70
    32
  0
VERTEX
  8
E60LXLIFT
 62
8
 10
4073.376
 20
-8966.850
 30
-721.000
 70
    32
  0
VERTEX
  8
E60LXLIFT
 62
8
 10
4065.091
 20
-8977.343
 30
-721.000
 70
    32
  0
VERTEX
  8
E60LXLIFT
 62
8
 10
4057.729
 20
-9003.315
 30
-721.000
 70
    32
  0
VERTEX
  8
E60LXLIFT
 62
8
 10
4059.978
 20
-9011.883
 30
-721.000
 70
    32
  0
SEQEND
  8
E60LXLIFT
  0
POLYLINE
  8
E60LXLIFT
 62
13
 66
     1
 70
     9
  0
VERTEX
  8
E60LXLIFT
 62
13
 10
3931.931
 20
-9018.528
 30
-755.000
 70
    32
  0
VERTEX
  8
E60LXLIFT
 62
13
 10
3928.056
 20
-9008.983
 30
-755.000
 70
    32
  0
VERTEX
  8
E60LXLIFT
 62
13
 10
3920.520
 20
-9000.209
 30
-755.000
 70
    32
  0
VERTEX
  8
E60LXLIFT
 62
13
 10
3924.971
 20
-8987.656
 30
-755.000
 70
    32
  0
VERTEX
  8
E60LXLIFT
 62
13
 10
3921.884
 20
-8982.406
 30
-755.000
 70
    32
  0
VERTEX
  8
E60LXLIFT
 62
13
 10
3920.644
 20
-8973.685
 30
-755.000
 70
    32
  0
VERTEX
  8
E60LXLIFT
 62
13
 10
3917.864
 20
-8973.720
 30
-755.000
 70
    32
  0
VERTEX
  8
E60LXLIFT
 62
13
 10
3915.987
 20
-8976.998
 30
-755.000
 70
    32
  0
VERTEX
  8
E60LXLIFT
 62
13
 10
3910.699
 20
-8978.817
 30
-755.000
 70
    32
  0
VERTEX
  8
E60LXLIFT
 62
13
 10
3890.137
 20
-8977.365
 30
-755.000
 70
    32
  0
VERTEX
  8
E60LXLIFT
 62
13
 10
3886.725
 20
-8981.518
 30
-755.000
 70
    32
  0
VERTEX
  8
E60LXLIFT
 62
13
 10
3884.716
 20
-8989.313
 30
-755.000
 70
    32
  0
VERTEX
  8
E60LXLIFT
 62
13
 10
3883.978
 20
-8995.556
 30
-755.000
 70
    32
  0
VERTEX
  8
E60LXLIFT
 62
13
 10
3881.220
 20
-8999.568
 30
-755.000
 70
    32
  0
VERTEX
  8
E60LXLIFT
 62
13
 10
3864.668
 20
-9012.097
 30
-755.000
 70
    32
  0
VERTEX
  8
E60LXLIFT
 62
13
 10
3870.154
 20
-9023.300
 30
-755.000
 70
    32
  0
VERTEX
  8
E60LXLIFT
 62
13
 10
3879.433
 20
-9034.827
 30
-755.000
 70
    32
  0
VERTEX
  8
E60LXLIFT
 62
13
 10
3893.248
 20
-9047.120
 30
-755.000
 70
    32
  0
VERTEX
  8
E60LXLIFT
 62
13
 10
3923.875
 20
-9034.508
 30
-755.000
 70
    32
  0
SEQEND
  8
E60LXLIFT
  0
POLYLINE
  8
E60LXLIFT
 62
1
 66
     1
 70
     9
  0
VERTEX
  8
E60LXLIFT
 62
1
 10
3856.292
 20
-9029.419
 30
-685.000
 70
    32
  0
VERTEX
  8
E60LXLIFT
 62
1
 10
3845.959
 20
-9018.188
 30
-685.000
 70
    32
  0
VERTEX
  8
E60LXLIFT
 62
1
 10
3844.089
 20
-9001.092
 30
-685.000
 70
    32
  0
VERTEX
  8
E60LXLIFT
 62
1
 10
3878.892
 20
-8978.007
 30
-685.000
 70
    32
  0
VERTEX
  8
E60LXLIFT
 62
1
 10
3889.994
 20
-8977.432
 30
-685.000
 70
    32
  0
VERTEX
  8
E60LXLIFT
 62
1
 10
3893.961
 20
-8971.928
 30
-685.000
 70
    32
  0
VERTEX
  8
E60LXLIFT
 62
1
 10
3900.311
 20
-8968.360
 30
-685.000
 70
    32
  0
VERTEX
  8
E60LXLIFT
 62
1
 10
3904.484
 20
-8961.253
 30
-685.000
 70
    32
  0
VERTEX
  8
E60LXLIFT
 62
1
 10
3910.325
 20
-8961.630
 30
-685.000
 70
    32
  0
VERTEX
  8
E60LXLIFT
 62
1
 10
3912.640
 20
-8965.061
 30
-685.000
 70
    32
  0
VERTEX
  8
E60LXLIFT
 62
1
 10
3910.329
 20
-8977.169
 30
-685.000
 70
    32
  0
VERTEX
  8
E60LXLIFT
 62
1
 10
3907.250
 20
-8982.098
 30
-685.000
 70
    32
  0
VERTEX
  8
E60LXLIFT
 62
1
 10
3912.661
 20
-8988.247
 30
-685.000
 70
    32
  0
VERTEX
  8
E60LXLIFT
 62
1
 10
3916.891
 20
-8996.749
 30
-685.000
 70
    32
  0
VERTEX
  8
E60LXLIFT
 62
1
 10
3897.962
 20
-9021.127
 30
-685.000
 70
    32
  0
VERTEX
  8
E60LXLIFT
 62
1
 10
3882.647
 20
-9031.059
 30
-685.000
 70
    32
  0
VERTEX
  8
E60LXLIFT
 62
1
 10
3866.355
 20
-9036.417
 30
-685.000
 70
    32
  0
SEQEND
  8
E60LXLIFT
  0
POLYLINE
  8
E60LXLIFT
 62
13
 66
     1
 70
     9
  0
VERTEX
  8
E60LXLIFT
 62
13
 10
3865.355
 20
-9037.417
 30
-698.000
 70
    32
  0
VERTEX
  8
E60LXLIFT
 62
13
 10
3881.647
 20
-9032.059
 30
-698.000
 70
    32
  0
VERTEX
  8
E60LXLIFT
 62
13
 10
3896.962
 20
-9022.127
 30
-698.000
 70
    32
  0
VERTEX
  8
E60LXLIFT
 62
13
 10
3915.891
 20
-8997.749
 30
-698.000
 70
    32
  0
VERTEX
  8
E60LXLIFT
 62
13
 10
3911.661
 20
-8989.247
 30
-698.000
 70
    32
  0
VERTEX
  8
E60LXLIFT
 62
13
 10
3906.250
 20
-8983.098
 30
-698.000
 70
    32
  0
VERTEX
  8
E60LXLIFT
 62
13
 10
3909.329
 20
-8978.169
 30
-698.000
 70
    32
  0
VERTEX
  8
E60LXLIFT
 62
13
 10
3911.640
 20
-8966.061
 30
-698.000
 70
    32
  0
VERTEX
  8
E60LXLIFT
 62
13
 10
3909.325
 20
-8962.630
 30
-698.000
 70
    32
  0
VERTEX
  8
E60LXLIFT
 62
13
 10
3903.484
 20
-8962.253
 30
-698.000
 70
    32
  0
VERTEX
  8
E60LXLIFT
 62
13
 10
3899.311
 20
-8969.360
 30
-698.000
 70
    32
  0
VERTEX
  8
E60LXLIFT
 62
13
 10
3892.961
 20
-8972.928
 30
-698.000
 70
    32
  0
VERTEX
  8
E60LXLIFT
 62
13
 10
3888.994
 20
-8978.432
 30
-698.000
 70
    32
  0
VERTEX
  8
E60LXLIFT
 62
13
 10
3877.892
 20
-8979.007
 30
-698.000
 70
    32
  0
VERTEX
  8
E60LXLIFT
 62
13
 10
3843.089
 20
-9002.092
 30
-698.000
 70
    32
  0
VERTEX
  8
E60LXLIFT
 62
13
 10
3844.959
 20
-9019.188
 30
-698.000
 70
    32
  0
VERTEX
  8
E60LXLIFT
 62
13
 10
3855.292
 20
-9030.419
 30
-698.000
 70
    32
  0
SEQEND
  8
E60LXLIFT
  0
POLYLINE
  8
E60LXLIFT
 62
13
 66
     1
 70
     9
  0
VERTEX
  8
E60LXLIFT
 62
13
 10
3917.645
 20
-9038.446
 30
-745.000
 70
    32
  0
VERTEX
  8
E60LXLIFT
 62
13
 10
3913.648
 20
-9023.354
 30
-745.000
 70
    32
  0
VERTEX
  8
E60LXLIFT
 62
13
 10
3914.112
 20
-9019.020
 30
-745.000
 70
    32
  0
VERTEX
  8
E60LXLIFT
 62
13
 10
3921.037
 20
-9008.001
 30
-745.000
 70
    32
  0
VERTEX
  8
E60LXLIFT
 62
13
 10
3919.186
 20
-8977.635
 30
-745.000
 70
    32
  0
VERTEX
  8
E60LXLIFT
 62
13
 10
3915.980
 20
-8973.009
 30
-745.000
 70
    32
  0
VERTEX
  8
E60LXLIFT
 62
13
 10
3906.837
 20
-8976.854
 30
-745.000
 70
    32
  0
VERTEX
  8
E60LXLIFT
 62
13
 10
3897.345
 20
-8979.760
 30
-745.000
 70
    32
  0
VERTEX
  8
E60LXLIFT
 62
13
 10
3889.760
 20
-8979.894
 30
-745.000
 70
    32
  0
VERTEX
  8
E60LXLIFT
 62
13
 10
3877.706
 20
-8992.207
 30
-745.000
 70
    32
  0
VERTEX
  8
E60LXLIFT
 62
13
 10
3870.764
 20
-9006.374
 30
-745.000
 70
    32
  0
VERTEX
  8
E60LXLIFT
 62
13
 10
3870.376
 20
-9013.683
 30
-745.000
 70
    32
  0
VERTEX
  8
E60LXLIFT
 62
13
 10
3873.021
 20
-9027.039
 30
-745.000
 70
    32
  0
VERTEX
  8
E60LXLIFT
 62
13
 10
3880.882
 20
-9034.388
 30
-745.000
 70
    32
  0
VERTEX
  8
E60LXLIFT
 62
13
 10
3896.373
 20
-9037.893
 30
-745.000
 70
    32
  0
VERTEX
  8
E60LXLIFT
 62
13
 10
3909.376
 20
-9038.529
 30
-745.000
 70
    32
  0
SEQEND
  8
E60LXLIFT
  0
POLYLINE
  8
E60LXLIFT
 62
13
 66
     1
 70
     9
  0
VERTEX
  8
E60LXLIFT
 62
13
 10
3893.223
 20
-9048.245
 30
-764.000
 70
    32
  0
VERTEX
  8
E60LXLIFT
 62
13
 10
3905.953
 20
-9044.270
 30
-764.000
 70
    32
  0
VERTEX
  8
E60LXLIFT
 62
13
 10
3924.342
 20
-9040.332
 30
-764.000
 70
    32
  0
VERTEX
  8
E60LXLIFT
 62
13
 10
3933.584
 20
-9037.679
 30
-764.000
 70
    32
  0
VERTEX
  8
E60LXLIFT
 62
13
 10
3942.536
 20
-9029.062
 30
-764.000
 70
    32
  0
VERTEX
  8
E60LXLIFT
 62
13
 10
3941.464
 20
-9021.713
 30
-764.000
 70
    32
  0
VERTEX
  8
E60LXLIFT
 62
13
 10
3934.609
 20
-9004.235
 30
-764.000
 70
    32
  0
VERTEX
  8
E60LXLIFT
 62
13
 10
3930.394
 20
-8990.270
 30
-764.000
 70
    32
  0
VERTEX
  8
E60LXLIFT
 62
13
 10
3929.535
 20
-8980.060
 30
-764.000
 70
    32
  0
VERTEX
  8
E60LXLIFT
 62
13
 10
3920.195
 20
-8969.354
 30
-764.000
 70
    32
  0
VERTEX
  8
E60LXLIFT
 62
13
 10
3911.032
 20
-8968.811
 30
-764.000
 70
    32
  0
VERTEX
  8
E60LXLIFT
 62
13
 10
3902.792
 20
-8969.550
 30
-764.000
 70
    32
  0
VERTEX
  8
E60LXLIFT
 62
13
 10
3892.480
 20
-8972.973
 30
-764.000
 70
    32
  0
VERTEX
  8
E60LXLIFT
 62
13
 10
3884.865
 20
-8986.150
 30
-764.000
 70
    32
  0
VERTEX
  8
E60LXLIFT
 62
13
 10
3882.134
 20
-8997.539
 30
-764.000
 70
    32
  0
VERTEX
  8
E60LXLIFT
 62
13
 10
3883.645
 20
-9009.555
 30
-764.000
 70
    32
  0
VERTEX
  8
E60LXLIFT
 62
13
 10
3879.560
 20
-9021.920
 30
-764.000
 70
    32
  0
VERTEX
  8
E60LXLIFT
 62
13
 10
3880.672
 20
-9029.024
 30
-764.000
 70
    32
  0
VERTEX
  8
E60LXLIFT
 62
13
 10
3887.498
 20
-9047.064
 30
-764.000
 70
    32
  0
SEQEND
  8
E60LXLIFT
  0
POLYLINE
  8
E60LXLIFT
 62
13
 66
     1
 70
     9
  0
VERTEX
  8
E60LXLIFT
 62
13
 10
3924.935
 20
-8958.213
 30
-785.000
 70
    32
  0
VERTEX
  8
E60LXLIFT
 62
13
 10
3910.171
 20
-8970.800
 30
-785.000
 70
    32
  0
VERTEX
  8
E60LXLIFT
 62
13
 10
3905.034
 20
-8976.451
 30
-785.000
 70
    32
  0
VERTEX
  8
E60LXLIFT
 62
13
 10
3901.047
 20
-8980.840
 30
-785.000
 70
    32
  0
VERTEX
  8
E60LXLIFT
 62
13
 10
3897.978
 20
-8982.293
 30
-785.000
 70
    32
  0
VERTEX
  8
E60LXLIFT
 62
13
 10
3890.746
 20
-8992.704
 30
-785.000
 70
    32
  0
VERTEX
  8
E60LXLIFT
 62
13
 10
3889.082
 20
-9007.986
 30
-785.000
 70
    32
  0
VERTEX
  8
E60LXLIFT
 62
13
 10
3895.441
 20
-9016.512
 30
-785.000
 70
    32
  0
VERTEX
  8
E60LXLIFT
 62
13
 10
3892.459
 20
-9021.694
 30
-785.000
 70
    32
  0
VERTEX
  8
E60LXLIFT
 62
13
 10
3891.832
 20
-9025.937
 30
-785.000
 70
    32
  0
VERTEX
  8
E60LXLIFT
 62
13
 10
3899.288
 20
-9045.156
 30
-785.000
 70
    32
  0
VERTEX
  8
E60LXLIFT
 62
13
 10
3904.175
 20
-9050.735
 30
-785.000
 70
    32
  0
VERTEX
  8
E60LXLIFT
 62
13
 10
3915.074
 20
-9052.631
 30
-785.000
 70
    32
  0
VERTEX
  8
E60LXLIFT
 62
13
 10
3924.781
 20
-9045.204
 30
-785.000
 70
    32
  0
VERTEX
  8
E60LXLIFT
 62
13
 10
3940.220
 20
-9037.764
 30
-785.000
 70
    32
  0
VERTEX
  8
E60LXLIFT
 62
13
 10
3950.527
 20
-9034.779
 30
-785.000
 70
    32
  0
VERTEX
  8
E60LXLIFT
 62
13
 10
3950.246
 20
-9021.007
 30
-785.000
 70
    32
  0
VERTEX
  8
E60LXLIFT
 62
13
 10
3950.028
 20
-9000.256
 30
-785.000
 70
    32
  0
VERTEX
  8
E60LXLIFT
 62
13
 10
3945.844
 20
-8981.821
 30
-785.000
 70
    32
  0
VERTEX
  8
E60LXLIFT
 62
13
 10
3938.079
 20
-8966.833
 30
-785.000
 70
    32
  0
SEQEND
  8
E60LXLIFT
  0
POLYLINE
  8
E60LXLIFT
 62
13
 66
     1
 70
     9
  0
VERTEX
  8
E60LXLIFT
 62
13
 10
3944.150
 20
-9033.054
 30
-775.000
 70
    32
  0
VERTEX
  8
E60LXLIFT
 62
13
 10
3945.000
 20
-9019.521
 30
-775.000
 70
    32
  0
VERTEX
  8
E60LXLIFT
 62
13
 10
3940.115
 20
-9004.131
 30
-775.000
 70
    32
  0
VERTEX
  8
E60LXLIFT
 62
13
 10
3938.598
 20
-8983.012
 30
-775.000
 70
    32
  0
VERTEX
  8
E60LXLIFT
 62
13
 10
3936.340
 20
-8976.640
 30
-775.000
 70
    32
  0
VERTEX
  8
E60LXLIFT
 62
13
 10
3931.865
 20
-8973.674
 30
-775.000
 70
    32
  0
VERTEX
  8
E60LXLIFT
 62
13
 10
3919.810
 20
-8974.146
 30
-775.000
 70
    32
  0
VERTEX
  8
E60LXLIFT
 62
13
 10
3911.429
 20
-8978.584
 30
-775.000
 70
    32
  0
VERTEX
  8
E60LXLIFT
 62
13
 10
3898.255
 20
-8980.820
 30
-775.000
 70
    32
  0
VERTEX
  8
E60LXLIFT
 62
13
 10
3895.526
 20
-8990.945
 30
-775.000
 70
    32
  0
VERTEX
  8
E60LXLIFT
 62
13
 10
3888.022
 20
-9008.768
 30
-775.000
 70
    32
  0
VERTEX
  8
E60LXLIFT
 62
13
 10
3886.664
 20
-9018.243
 30
-775.000
 70
    32
  0
VERTEX
  8
E60LXLIFT
 62
13
 10
3889.572
 20
-9025.985
 30
-775.000
 70
    32
  0
VERTEX
  8
E60LXLIFT
 62
13
 10
3902.201
 20
-9041.052
 30
-775.000
 70
    32
  0
VERTEX
  8
E60LXLIFT
 62
13
 10
3912.451
 20
-9039.706
 30
-775.000
 70
    32
  0
VERTEX
  8
E60LXLIFT
 62
13
 10
3924.131
 20
-9035.513
 30
-775.000
 70
    32
  0
VERTEX
  8
E60LXLIFT
 62
13
 10
3932.333
 20
-9032.495
 30
-775.000
 70
    32
  0
VERTEX
  8
E60LXLIFT
 62
13
 10
3937.134
 20
-9032.429
 30
-775.000
 70
    32
  0
SEQEND
  8
E60LXLIFT
  0
POLYLINE
  8
E60LXLIFT
 62
13
 66
     1
 70
     9
  0
VERTEX
  8
E60LXLIFT
 62
13
 10
3908.200
 20
-9034.287
 30
-735.000
 70
    32
  0
VERTEX
  8
E60LXLIFT
 62
13
 10
3907.944
 20
-9019.350
 30
-735.000
 70
    32
  0
VERTEX
  8
E60LXLIFT
 62
13
 10
3910.519
 20
-9000.553
 30
-735.000
 70
    32
  0
VERTEX
  8
E60LXLIFT
 62
13
 10
3911.053
 20
-8985.794
 30
-735.000
 70
    32
  0
VERTEX
  8
E60LXLIFT
 62
13
 10
3914.608
 20
-8981.287
 30
-735.000
 70
    32
  0
VERTEX
  8
E60LXLIFT
 62
13
 10
3915.632
 20
-8976.031
 30
-735.000
 70
    32
  0
VERTEX
  8
E60LXLIFT
 62
13
 10
3911.427
 20
-8971.704
 30
-735.000
 70
    32
  0
VERTEX
  8
E60LXLIFT
 62
13
 10
3901.259
 20
-8984.417
 30
-735.000
 70
    32
  0
VERTEX
  8
E60LXLIFT
 62
13
 10
3887.165
 20
-8984.923
 30
-735.000
 70
    32
  0
VERTEX
  8
E60LXLIFT
 62
13
 10
3872.653
 20
-8992.975
 30
-735.000
 70
    32
  0
VERTEX
  8
E60LXLIFT
 62
13
 10
3865.579
 20
-9006.458
 30
-735.000
 70
    32
  0
VERTEX
  8
E60LXLIFT
 62
13
 10
3861.516
 20
-9006.301
 30
-735.000
 70
    32
  0
VERTEX
  8
E60LXLIFT
 62
13
 10
3862.816
 20
-9011.144
 30
-735.000
 70
    32
  0
VERTEX
  8
E60LXLIFT
 62
13
 10
3858.249
 20
-9013.554
 30
-735.000
 70
    32
  0
VERTEX
  8
E60LXLIFT
 62
13
 10
3866.554
 20
-9026.342
 30
-735.000
 70
    32
  0
VERTEX
  8
E60LXLIFT
 62
13
 10
3891.538
 20
-9043.280
 30
-735.000
 70
    32
  0
SEQEND
  8
E60LXLIFT
  0
POLYLINE
  8
E60LXLIFT
 62
2
 66
     1
 70
     9
  0
VERTEX
  8
E60LXLIFT
 62
2
 10
3932.802
 20
-8916.770
 30
-795.000
 70
    32
  0
VERTEX
  8
E60LXLIFT
 62
2
 10
3927.321
 20
-8911.726
 30
-795.000
 70
    32
  0
VERTEX
  8
E60LXLIFT
 62
2
 10
3923.972
 20
-8903.628
 30
-795.000
 70
    32
  0
VERTEX
  8
E60LXLIFT
 62
2
 10
3909.691
 20
-8902.765
 30
-795.000
 70
    32
  0
VERTEX
  8
E60LXLIFT
 62
2
 10
3892.684
 20
-8904.735
 30
-795.000
 70
    32
  0
VERTEX
  8
E60LXLIFT
 62
2
 10
3882.615
 20
-8912.867
 30
-795.000
 70
    32
  0
VERTEX
  8
E60LXLIFT
 62
2
 10
3883.078
 20
-8922.072
 30
-795.000
 70
    32
  0
VERTEX
  8
E60LXLIFT
 62
2
 10
3883.801
 20
-8947.567
 30
-795.000
 70
    32
  0
VERTEX
  8
E60LXLIFT
 62
2
 10
3912.974
 20
-8946.684
 30
-795.000
 70
    32
  0
VERTEX
  8
E60LXLIFT
 62
2
 10
3931.152
 20
-8946.036
 30
-795.000
 70
    32
  0
VERTEX
  8
E60LXLIFT
 62
2
 10
3930.712
 20
-8924.240
 30
-795.000
 70
    32
  0
SEQEND
  8
E60LXLIFT
  0
POLYLINE
  8
E60LXLIFT
 62
13
 66
     1
 70
     9
  0
VERTEX
  8
E60LXLIFT
 62
13
 10
3901.113
 20
-8973.140
 30
-724.000
 70
    32
  0
VERTEX
  8
E60LXLIFT
 62
13
 10
3895.477
 20
-8983.250
 30
-724.000
 70
    32
  0
VERTEX
  8
E60LXLIFT
 62
13
 10
3885.791
 20
-8994.207
 30
-724.000
 70
    32
  0
VERTEX
  8
E60LXLIFT
 62
13
 10
3865.358
 20
-8988.071
 30
-724.000
 70
    32
  0
VERTEX
  8
E60LXLIFT
 62
13
 10
3857.733
 20
-8991.484
 30
-724.000
 70
    32
  0
VERTEX
  8
E60LXLIFT
 62
13
 10
3850.828
 20
-8996.655
 30
-724.000
 70
    32
  0
VERTEX
  8
E60LXLIFT
 62
13
 10
3847.285
 20
-9005.154
 30
-724.000
 70
    32
  0
VERTEX
  8
E60LXLIFT
 62
13
 10
3856.259
 20
-9034.569
 30
-724.000
 70
    32
  0
VERTEX
  8
E60LXLIFT
 62
13
 10
3868.896
 20
-9035.575
 30
-724.000
 70
    32
  0
VERTEX
  8
E60LXLIFT
 62
13
 10
3876.005
 20
-9034.916
 30
-724.000
 70
    32
  0
VERTEX
  8
E60LXLIFT
 62
13
 10
3897.507
 20
-9042.993
 30
-724.000
 70
    32
  0
VERTEX
  8
E60LXLIFT
 62
13
 10
3916.629
 20
-9023.749
 30
-724.000
 70
    32
  0
VERTEX
  8
E60LXLIFT
 62
13
 10
3925.769
 20
-9021.090
 30
-724.000
 70
    32
  0
VERTEX
  8
E60LXLIFT
 62
13
 10
3913.564
 20
-9002.118
 30
-724.000
 70
    32
  0
VERTEX
  8
E60LXLIFT
 62
13
 10
3912.314
 20
-8991.316
 30
-724.000
 70
    32
  0
VERTEX
  8
E60LXLIFT
 62
13
 10
3910.610
 20
-8988.640
 30
-724.000
 70
    32
  0
VERTEX
  8
E60LXLIFT
 62
13
 10
3914.992
 20
-8971.197
 30
-724.000
 70
    32
  0
VERTEX
  8
E60LXLIFT
 62
13
 10
3914.145
 20
-8967.147
 30
-724.000
 70
    32
  0
VERTEX
  8
E60LXLIFT
 62
13
 10
3910.795
 20
-8964.894
 30
-724.000
 70
    32
  0
VERTEX
  8
E60LXLIFT
 62
13
 10
3905.760
 20
-8974.030
 30
-724.000
 70
    32
  0
SEQEND
  8
E60LXLIFT
  0
POLYLINE
  8
E60LXLIFT
 62
2
 66
     1
 70
     9
  0
VERTEX
  8
E60LXLIFT
 62
2
 10
3935.733
 20
-8918.422
 30
-806.000
 70
    32
  0
VERTEX
  8
E60LXLIFT
 62
2
 10
3932.563
 20
-8914.431
 30
-806.000
 70
    32
  0
VERTEX
  8
E60LXLIFT
 62
2
 10
3931.622
 20
-8910.648
 30
-806.000
 70
    32
  0
VERTEX
  8
E60LXLIFT
 62
2
 10
3904.147
 20
-8911.308
 30
-806.000
 70
    32
  0
VERTEX
  8
E60LXLIFT
 62
2
 10
3901.335
 20
-8914.152
 30
-806.000
 70
    32
  0
VERTEX
  8
E60LXLIFT
 62
2
 10
3896.966
 20
-8924.047
 30
-806.000
 70
    32
  0
VERTEX
  8
E60LXLIFT
 62
2
 10
3897.678
 20
-8943.618
 30
-806.000
 70
    32
  0
VERTEX
  8
E60LXLIFT
 62
2
 10
3912.057
 20
-8952.426
 30
-806.000
 70
    32
  0
VERTEX
  8
E60LXLIFT
 62
2
 10
3923.970
 20
-8951.698
 30
-806.000
 70
    32
  0
VERTEX
  8
E60LXLIFT
 62
2
 10
3934.803
 20
-8941.829
 30
-806.000
 70
    32
  0
SEQEND
  8
E60LXLIFT
  0
POLYLINE
  8
E60LXLIFT
 62
7
 66
     1
 70
     9
  0
VERTEX
  8
E60LXLIFT
 62
7
 10
4174.651
 20
-9464.500
 30
-730.000
 70
    32
  0
VERTEX
  8
E60LXLIFT
 62
7
 10
4169.049
 20
-9461.979
 30
-730.000
 70
    32
  0
VERTEX
  8
E60LXLIFT
 62
7
 10
4159.795
 20
-9448.799
 30
-730.000
 70
    32
  0
VERTEX
  8
E60LXLIFT
 62
7
 10
4157.876
 20
-9436.195
 30
-730.000
 70
    32
  0
VERTEX
  8
E60LXLIFT
 62
7
 10
4155.222
 20
-9431.152
 30
-730.000
 70
    32
  0
VERTEX
  8
E60LXLIFT
 62
7
 10
4154.552
 20
-9427.156
 30
-730.000
 70
    32
  0
VERTEX
  8
E60LXLIFT
 62
7
 10
4158.853
 20
-9425.273
 30
-730.000
 70
    32
  0
VERTEX
  8
E60LXLIFT
 62
7
 10
4161.767
 20
-9431.108
 30
-730.000
 70
    32
  0
VERTEX
  8
E60LXLIFT
 62
7
 10
4166.511
 20
-9432.623
 30
-730.000
 70
    32
  0
VERTEX
  8
E60LXLIFT
 62
7
 10
4171.301
 20
-9440.243
 30
-730.000
 70
    32
  0
VERTEX
  8
E60LXLIFT
 62
7
 10
4176.988
 20
-9439.193
 30
-730.000
 70
    32
  0
VERTEX
  8
E60LXLIFT
 62
7
 10
4179.801
 20
-9444.007
 30
-730.000
 70
    32
  0
VERTEX
  8
E60LXLIFT
 62
7
 10
4176.708
 20
-9447.513
 30
-730.000
 70
    32
  0
VERTEX
  8
E60LXLIFT
 62
7
 10
4179.182
 20
-9453.346
 30
-730.000
 70
    32
  0
SEQEND
  8
E60LXLIFT
  0
POLYLINE
  8
E60LXLIFT
 62
7
 66
     1
 70
     9
  0
VERTEX
  8
E60LXLIFT
 62
7
 10
4130.705
 20
-9438.204
 30
-695.000
 70
    32
  0
VERTEX
  8
E60LXLIFT
 62
7
 10
4132.491
 20
-9432.607
 30
-695.000
 70
    32
  0
VERTEX
  8
E60LXLIFT
 62
7
 10
4142.613
 20
-9422.131
 30
-695.000
 70
    32
  0
VERTEX
  8
E60LXLIFT
 62
7
 10
4151.728
 20
-9412.654
 30
-695.000
 70
    32
  0
VERTEX
  8
E60LXLIFT
 62
7
 10
4157.411
 20
-9414.263
 30
-695.000
 70
    32
  0
VERTEX
  8
E60LXLIFT
 62
7
 10
4159.968
 20
-9418.728
 30
-695.000
 70
    32
  0
VERTEX
  8
E60LXLIFT
 62
7
 10
4163.037
 20
-9430.902
 30
-695.000
 70
    32
  0
VERTEX
  8
E60LXLIFT
 62
7
 10
4170.945
 20
-9447.335
 30
-695.000
 70
    32
  0
VERTEX
  8
E60LXLIFT
 62
7
 10
4173.065
 20
-9459.575
 30
-695.000
 70
    32
  0
VERTEX
  8
E60LXLIFT
 62
7
 10
4163.908
 20
-9463.534
 30
-695.000
 70
    32
  0
VERTEX
  8
E60LXLIFT
 62
7
 10
4151.638
 20
-9467.341
 30
-695.000
 70
    32
  0
VERTEX
  8
E60LXLIFT
 62
7
 10
4149.414
 20
-9470.501
 30
-695.000
 70
    32
  0
VERTEX
  8
E60LXLIFT
 62
7
 10
4143.530
 20
-9473.377
 30
-695.000
 70
    32
  0
VERTEX
  8
E60LXLIFT
 62
7
 10
4137.750
 20
-9471.066
 30
-695.000
 70
    32
  0
VERTEX
  8
E60LXLIFT
 62
7
 10
4134.544
 20
-9466.768
 30
-695.000
 70
    32
  0
SEQEND
  8
E60LXLIFT
  0
POLYLINE
  8
E60LXLIFT
 62
7
 66
     1
 70
     9
  0
VERTEX
  8
E60LXLIFT
 62
7
 10
4181.810
 20
-9453.848
 30
-715.000
 70
    32
  0
VERTEX
  8
E60LXLIFT
 62
7
 10
4177.644
 20
-9445.265
 30
-715.000
 70
    32
  0
VERTEX
  8
E60LXLIFT
 62
7
 10
4179.580
 20
-9443.270
 30
-715.000
 70
    32
  0
VERTEX
  8
E60LXLIFT
 62
7
 10
4179.244
 20
-9441.249
 30
-715.000
 70
    32
  0
VERTEX
  8
E60LXLIFT
 62
7
 10
4177.060
 20
-9439.659
 30
-715.000
 70
    32
  0
VERTEX
  8
E60LXLIFT
 62
7
 10
4170.885
 20
-9439.889
 30
-715.000
 70
    32
  0
VERTEX
  8
E60LXLIFT
 62
7
 10
4167.124
 20
-9436.501
 30
-715.000
 70
    32
  0
VERTEX
  8
E60LXLIFT
 62
7
 10
4159.211
 20
-9435.473
 30
-715.000
 70
    32
  0
VERTEX
  8
E60LXLIFT
 62
7
 10
4156.920
 20
-9433.421
 30
-715.000
 70
    32
  0
VERTEX
  8
E60LXLIFT
 62
7
 10
4154.416
 20
-9433.988
 30
-715.000
 70
    32
  0
VERTEX
  8
E60LXLIFT
 62
7
 10
4154.756
 20
-9438.476
 30
-715.000
 70
    32
  0
VERTEX
  8
E60LXLIFT
 62
7
 10
4156.860
 20
-9440.873
 30
-715.000
 70
    32
  0
VERTEX
  8
E60LXLIFT
 62
7
 10
4159.736
 20
-9447.456
 30
-715.000
 70
    32
  0
VERTEX
  8
E60LXLIFT
 62
7
 10
4162.808
 20
-9454.011
 30
-715.000
 70
    32
  0
VERTEX
  8
E60LXLIFT
 62
7
 10
4166.956
 20
-9459.492
 30
-715.000
 70
    32
  0
VERTEX
  8
E60LXLIFT
 62
7
 10
4172.012
 20
-9460.580
 30
-715.000
 70
    32
  0
VERTEX
  8
E60LXLIFT
 62
7
 10
4175.521
 20
-9457.916
 30
-715.000
 70
    32
  0
SEQEND
  8
E60LXLIFT
  0
POLYLINE
  8
E60LXLIFT
 62
1
 66
     1
 70
     9
  0
VERTEX
  8
E60LXLIFT
 62
1
 10
4166.159
 20
-9451.256
 30
-681.000
 70
    32
  0
VERTEX
  8
E60LXLIFT
 62
1
 10
4166.500
 20
-9457.520
 30
-681.000
 70
    32
  0
VERTEX
  8
E60LXLIFT
 62
1
 10
4160.977
 20
-9463.489
 30
-681.000
 70
    32
  0
VERTEX
  8
E60LXLIFT
 62
1
 10
4150.045
 20
-9468.597
 30
-681.000
 70
    32
  0
VERTEX
  8
E60LXLIFT
 62
1
 10
4143.742
 20
-9468.304
 30
-681.000
 70
    32
  0
VERTEX
  8
E60LXLIFT
 62
1
 10
4139.668
 20
-9464.547
 30
-681.000
 70
    32
  0
VERTEX
  8
E60LXLIFT
 62
1
 10
4135.057
 20
-9456.886
 30
-681.000
 70
    32
  0
VERTEX
  8
E60LXLIFT
 62
1
 10
4136.704
 20
-9453.090
 30
-681.000
 70
    32
  0
VERTEX
  8
E60LXLIFT
 62
1
 10
4135.971
 20
-9448.782
 30
-681.000
 70
    32
  0
VERTEX
  8
E60LXLIFT
 62
1
 10
4131.530
 20
-9442.651
 30
-681.000
 70
    32
  0
VERTEX
  8
E60LXLIFT
 62
1
 10
4131.281
 20
-9437.091
 30
-681.000
 70
    32
  0
VERTEX
  8
E60LXLIFT
 62
1
 10
4136.978
 20
-9433.532
 30
-681.000
 70
    32
  0
VERTEX
  8
E60LXLIFT
 62
1
 10
4147.997
 20
-9428.248
 30
-681.000
 70
    32
  0
VERTEX
  8
E60LXLIFT
 62
1
 10
4150.907
 20
-9429.021
 30
-681.000
 70
    32
  0
VERTEX
  8
E60LXLIFT
 62
1
 10
4155.407
 20
-9433.338
 30
-681.000
 70
    32
  0
SEQEND
  8
E60LXLIFT
  0
POLYLINE
  8
E60LXLIFT
 62
7
 66
     1
 70
     9
  0
VERTEX
  8
E60LXLIFT
 62
7
 10
4175.991
 20
-9461.021
 30
-707.000
 70
    32
  0
VERTEX
  8
E60LXLIFT
 62
7
 10
4177.225
 20
-9455.285
 30
-707.000
 70
    32
  0
VERTEX
  8
E60LXLIFT
 62
7
 10
4173.941
 20
-9450.702
 30
-707.000
 70
    32
  0
VERTEX
  8
E60LXLIFT
 62
7
 10
4169.469
 20
-9441.847
 30
-707.000
 70
    32
  0
VERTEX
  8
E60LXLIFT
 62
7
 10
4164.730
 20
-9436.038
 30
-707.000
 70
    32
  0
VERTEX
  8
E60LXLIFT
 62
7
 10
4161.015
 20
-9430.130
 30
-707.000
 70
    32
  0
VERTEX
  8
E60LXLIFT
 62
7
 10
4147.355
 20
-9422.486
 30
-707.000
 70
    32
  0
VERTEX
  8
E60LXLIFT
 62
7
 10
4142.958
 20
-9424.097
 30
-707.000
 70
    32
  0
VERTEX
  8
E60LXLIFT
 62
7
 10
4138.232
 20
-9430.445
 30
-707.000
 70
    32
  0
VERTEX
  8
E60LXLIFT
 62
7
 10
4137.767
 20
-9439.886
 30
-707.000
 70
    32
  0
VERTEX
  8
E60LXLIFT
 62
7
 10
4140.138
 20
-9446.790
 30
-707.000
 70
    32
  0
VERTEX
  8
E60LXLIFT
 62
7
 10
4138.394
 20
-9463.534
 30
-707.000
 70
    32
  0
VERTEX
  8
E60LXLIFT
 62
7
 10
4144.191
 20
-9471.957
 30
-707.000
 70
    32
  0
VERTEX
  8
E60LXLIFT
 62
7
 10
4150.519
 20
-9474.287
 30
-707.000
 70
    32
  0
VERTEX
  8
E60LXLIFT
 62
7
 10
4156.461
 20
-9470.765
 30
-707.000
 70
    32
  0
VERTEX
  8
E60LXLIFT
 62
7
 10
4163.574
 20
-9468.678
 30
-707.000
 70
    32
  0
VERTEX
  8
E60LXLIFT
 62
7
 10
4166.771
 20
-9467.518
 30
-707.000
 70
    32
  0
SEQEND
  8
E60LXLIFT
  0
POLYLINE
  8
E60LXLIFT
 62
7
 66
     1
 70
     9
  0
VERTEX
  8
E60LXLIFT
 62
7
 10
4171.984
 20
-9439.426
 30
-721.000
 70
    32
  0
VERTEX
  8
E60LXLIFT
 62
7
 10
4174.923
 20
-9450.315
 30
-721.000
 70
    32
  0
VERTEX
  8
E60LXLIFT
 62
7
 10
4176.800
 20
-9462.292
 30
-721.000
 70
    32
  0
VERTEX
  8
E60LXLIFT
 62
7
 10
4174.474
 20
-9469.918
 30
-721.000
 70
    32
  0
VERTEX
  8
E60LXLIFT
 62
7
 10
4165.164
 20
-9474.757
 30
-721.000
 70
    32
  0
VERTEX
  8
E60LXLIFT
 62
7
 10
4146.572
 20
-9473.906
 30
-721.000
 70
    32
  0
VERTEX
  8
E60LXLIFT
 62
7
 10
4143.213
 20
-9457.902
 30
-721.000
 70
    32
  0
VERTEX
  8
E60LXLIFT
 62
7
 10
4140.900
 20
-9452.413
 30
-721.000
 70
    32
  0
VERTEX
  8
E60LXLIFT
 62
7
 10
4144.190
 20
-9445.828
 30
-721.000
 70
    32
  0
VERTEX
  8
E60LXLIFT
 62
7
 10
4151.291
 20
-9441.383
 30
-721.000
 70
    32
  0
VERTEX
  8
E60LXLIFT
 62
7
 10
4154.966
 20
-9437.446
 30
-721.000
 70
    32
  0
VERTEX
  8
E60LXLIFT
 62
7
 10
4160.632
 20
-9436.739
 30
-721.000
 70
    32
  0
SEQEND
  8
E60LXLIFT
  0
POLYLINE
  8
E60LXLIFT
 62
6
 66
     1
 70
     9
  0
VERTEX
  8
E60LXLIFT
 62
6
 10
6382.504
 20
-10378.240
 30
-819.731
 70
    32
  0
VERTEX
  8
E60LXLIFT
 62
6
 10
6382.349
 20
-10370.183
 30
-819.738
 70
    32
  0
VERTEX
  8
E60LXLIFT
 62
6
 10
6377.593
 20
-10357.392
 30
-819.759
 70
    32
  0
VERTEX
  8
E60LXLIFT
 62
6
 10
6382.428
 20
-10354.011
 30
-819.751
 70
    32
  0
VERTEX
  8
E60LXLIFT
 62
6
 10
6394.277
 20
-10359.584
 30
-819.720
 70
    32
  0
VERTEX
  8
E60LXLIFT
 62
6
 10
6400.827
 20
-10357.582
 30
-819.707
 70
    32
  0
VERTEX
  8
E60LXLIFT
 62
6
 10
6405.605
 20
-10351.662
 30
-819.701
 70
    32
  0
VERTEX
  8
E60LXLIFT
 62
6
 10
6411.806
 20
-10356.995
 30
-819.683
 70
    32
  0
VERTEX
  8
E60LXLIFT
 62
6
 10
6408.822
 20
-10368.860
 30
-819.680
 70
    32
  0
VERTEX
  8
E60LXLIFT
 62
6
 10
6407.376
 20
-10376.318
 30
-819.681
 70
    32
  0
VERTEX
  8
E60LXLIFT
 62
6
 10
6396.711
 20
-10386.570
 30
-819.693
 70
    32
  0
VERTEX
  8
E60LXLIFT
 62
6
 10
6387.233
 20
-10384.388
 30
-819.716
 70
    32
  0
SEQEND
  8
E60LXLIFT
  0
POLYLINE
  8
E60LXLIFT
 62
13
 66
     1
 70
     9
  0
VERTEX
  8
E60LXLIFT
 62
13
 10
6279.965
 20
-10569.002
 30
-820.399
 70
    32
  0
VERTEX
  8
E60LXLIFT
 62
13
 10
6281.558
 20
-10556.070
 30
-820.391
 70
    32
  0
VERTEX
  8
E60LXLIFT
 62
13
 10
6286.558
 20
-10552.465
 30
-820.332
 70
    32
  0
VERTEX
  8
E60LXLIFT
 62
13
 10
6300.977
 20
-10553.878
 30
-820.150
 70
    32
  0
SEQEND
  8
E60LXLIFT
  0
POLYLINE
  8
E60LXLIFT
 62
11
 66
     1
 70
     9
  0
VERTEX
  8
E60LXLIFT
 62
11
 10
5559.267
 20
-9749.869
 30
-819.907
 70
    32
  0
VERTEX
  8
E60LXLIFT
 62
11
 10
5547.825
 20
-9745.462
 30
-819.870
 70
    32
  0
VERTEX
  8
E60LXLIFT
 62
11
 10
5537.269
 20
-9750.217
 30
-819.807
 70
    32
  0
VERTEX
  8
E60LXLIFT
 62
11
 10
5530.422
 20
-9756.907
 30
-819.754
 70
    32
  0
VERTEX
  8
E60LXLIFT
 62
11
 10
5523.987
 20
-9767.286
 30
-819.690
 70
    32
  0
VERTEX
  8
E60LXLIFT
 62
11
 10
5515.958
 20
-9764.698
 30
-819.663
 70
    32
  0
VERTEX
  8
E60LXLIFT
 62
11
 10
5514.500
 20
-9756.258
 30
-819.684
 70
    32
  0
VERTEX
  8
E60LXLIFT
 62
11
 10
5517.286
 20
-9747.124
 30
-819.727
 70
    32
  0
VERTEX
  8
E60LXLIFT
 62
11
 10
5509.369
 20
-9733.715
 30
-819.736
 70
    32
  0
VERTEX
  8
E60LXLIFT
 62
11
 10
5515.184
 20
-9730.642
 30
-819.772
 70
    32
  0
VERTEX
  8
E60LXLIFT
 62
11
 10
5521.853
 20
-9723.539
 30
-819.826
 70
    32
  0
VERTEX
  8
E60LXLIFT
 62
11
 10
5519.397
 20
-9712.890
 30
-819.851
 70
    32
  0
VERTEX
  8
E60LXLIFT
 62
11
 10
5523.749
 20
-9698.586
 30
-819.918
 70
    32
  0
VERTEX
  8
E60LXLIFT
 62
11
 10
5520.849
 20
-9688.998
 30
-819.937
 70
    32
  0
VERTEX
  8
E60LXLIFT
 62
11
 10
5512.283
 20
-9678.833
 30
-819.932
 70
    32
  0
VERTEX
  8
E60LXLIFT
 62
11
 10
5510.147
 20
-9665.706
 30
-819.966
 70
    32
  0
VERTEX
  8
E60LXLIFT
 62
11
 10
5506.225
 20
-9662.843
 30
-819.958
 70
    32
  0
VERTEX
  8
E60LXLIFT
 62
11
 10
5501.545
 20
-9663.839
 30
-819.933
 70
    32
  0
VERTEX
  8
E60LXLIFT
 62
11
 10
5500.643
 20
-9659.925
 30
-819.942
 70
    32
  0
VERTEX
  8
E60LXLIFT
 62
11
 10
5502.534
 20
-9654.127
 30
-819.970
 70
    32
  0
VERTEX
  8
E60LXLIFT
 62
11
 10
5512.286
 20
-9641.515
 30
-820.056
 70
    32
  0
VERTEX
  8
E60LXLIFT
 62
11
 10
5519.755
 20
-9639.246
 30
-820.148
 70
    32
  0
VERTEX
  8
E60LXLIFT
 62
11
 10
5526.839
 20
-9655.782
 30
-820.094
 70
    32
  0
VERTEX
  8
E60LXLIFT
 62
11
 10
5531.518
 20
-9666.704
 30
-820.059
 70
    32
  0
VERTEX
  8
E60LXLIFT
 62
11
 10
5534.929
 20
-9665.035
 30
-820.080
 70
    32
  0
VERTEX
  8
E60LXLIFT
 62
11
 10
5537.230
 20
-9652.264
 30
-820.133
 70
    32
  0
VERTEX
  8
E60LXLIFT
 62
11
 10
5542.825
 20
-9644.079
 30
-820.195
 70
    32
  0
VERTEX
  8
E60LXLIFT
 62
11
 10
5542.420
 20
-9638.237
 30
-820.219
 70
    32
  0
VERTEX
  8
E60LXLIFT
 62
11
 10
5538.557
 20
-9630.822
 30
-820.237
 70
    32
  0
VERTEX
  8
E60LXLIFT
 62
11
 10
5540.023
 20
-9629.374
 30
-820.253
 70
    32
  0
VERTEX
  8
E60LXLIFT
 62
11
 10
5551.467
 20
-9628.837
 30
-820.318
 70
    32
  0
VERTEX
  8
E60LXLIFT
 62
11
 10
5559.868
 20
-9630.414
 30
-820.355
 70
    32
  0
VERTEX
  8
E60LXLIFT
 62
11
 10
5566.947
 20
-9635.810
 30
-820.365
 70
    32
  0
VERTEX
  8
E60LXLIFT
 62
11
 10
5571.678
 20
-9648.961
 30
-820.322
 70
    32
  0
VERTEX
  8
E60LXLIFT
 62
11
 10
5572.182
 20
-9653.553
 30
-820.306
 70
    32
  0
VERTEX
  8
E60LXLIFT
 62
11
 10
5569.640
 20
-9658.864
 30
-820.272
 70
    32
  0
VERTEX
  8
E60LXLIFT
 62
11
 10
5581.745
 20
-9669.793
 30
-820.290
 70
    32
  0
VERTEX
  8
E60LXLIFT
 62
11
 10
5584.047
 20
-9674.963
 30
-820.281
 70
    32
  0
VERTEX
  8
E60LXLIFT
 62
11
 10
5583.559
 20
-9680.137
 30
-820.257
 70
    32
  0
VERTEX
  8
E60LXLIFT
 62
11
 10
5580.672
 20
-9682.786
 30
-820.232
 70
    32
  0
VERTEX
  8
E60LXLIFT
 62
11
 10
5576.665
 20
-9717.693
 30
-820.092
 70
    32
  0
VERTEX
  8
E60LXLIFT
 62
11
 10
5577.460
 20
-9729.818
 30
-820.056
 70
    32
  0
VERTEX
  8
E60LXLIFT
 62
11
 10
5568.884
 20
-9730.618
 30
-820.014
 70
    32
  0
VERTEX
  8
E60LXLIFT
 62
11
 10
5567.072
 20
-9738.216
 30
-819.981
 70
    32
  0
VERTEX
  8
E60LXLIFT
 62
11
 10
5569.200
 20
-9743.291
 30
-819.974
 70
    32
  0
VERTEX
  8
E60LXLIFT
 62
11
 10
5566.160
 20
-9747.570
 30
-819.946
 70
    32
  0
SEQEND
  8
E60LXLIFT
  0
POLYLINE
  8
E60LXLIFT
 62
6
 66
     1
 70
     9
  0
VERTEX
  8
E60LXLIFT
 62
6
 10
4030.794
 20
-8608.794
 30
-820.614
 70
    32
  0
VERTEX
  8
E60LXLIFT
 62
6
 10
4043.596
 20
-8619.111
 30
-820.613
 70
    32
  0
VERTEX
  8
E60LXLIFT
 62
6
 10
4047.059
 20
-8636.019
 30
-820.606
 70
    32
  0
VERTEX
  8
E60LXLIFT
 62
6
 10
4055.934
 20
-8643.486
 30
-820.605
 70
    32
  0
VERTEX
  8
E60LXLIFT
 62
6
 10
4059.753
 20
-8651.062
 30
-820.603
 70
    32
  0
VERTEX
  8
E60LXLIFT
 62
6
 10
4063.854
 20
-8665.863
 30
-820.597
 70
    32
  0
VERTEX
  8
E60LXLIFT
 62
6
 10
4064.358
 20
-8677.405
 30
-820.592
 70
    32
  0
VERTEX
  8
E60LXLIFT
 62
6
 10
4051.913
 20
-8689.174
 30
-820.583
 70
    32
  0
VERTEX
  8
E60LXLIFT
 62
6
 10
4047.765
 20
-8695.682
 30
-820.578
 70
    32
  0
VERTEX
  8
E60LXLIFT
 62
6
 10
4041.787
 20
-8702.204
 30
-820.573
 70
    32
  0
VERTEX
  8
E60LXLIFT
 62
6
 10
4030.865
 20
-8696.225
 30
-820.573
 70
    32
  0
VERTEX
  8
E60LXLIFT
 62
6
 10
4023.705
 20
-8689.902
 30
-820.574
 70
    32
  0
VERTEX
  8
E60LXLIFT
 62
6
 10
4001.233
 20
-8678.656
 30
-820.572
 70
    32
  0
VERTEX
  8
E60LXLIFT
 62
6
 10
4001.106
 20
-8664.652
 30
-820.579
 70
    32
  0
VERTEX
  8
E60LXLIFT
 62
6
 10
4004.687
 20
-8647.812
 30
-820.587
 70
    32
  0
VERTEX
  8
E60LXLIFT
 62
6
 10
4011.837
 20
-8633.597
 30
-820.596
 70
    32
  0
VERTEX
  8
E60LXLIFT
 62
6
 10
4011.312
 20
-8620.539
 30
-820.602
 70
    32
  0
VERTEX
  8
E60LXLIFT
 62
6
 10
4016.826
 20
-8613.319
 30
-820.607
 70
    32
  0
VERTEX
  8
E60LXLIFT
 62
6
 10
4023.066
 20
-8608.562
 30
-820.611
 70
    32
  0
SEQEND
  8
E60LXLIFT
  0
POLYLINE
  8
E60LXLIFT
 62
2
 66
     1
 70
     9
  0
VERTEX
  8
E60LXLIFT
 62
2
 10
3954.029
 20
-8922.099
 30
-819.061
 70
    32
  0
VERTEX
  8
E60LXLIFT
 62
2
 10
3950.022
 20
-8928.421
 30
-819.002
 70
    32
  0
VERTEX
  8
E60LXLIFT
 62
2
 10
3937.823
 20
-8934.872
 30
-818.907
 70
    32
  0
VERTEX
  8
E60LXLIFT
 62
2
 10
3931.500
 20
-8942.032
 30
-818.833
 70
    32
  0
VERTEX
  8
E60LXLIFT
 62
2
 10
3930.454
 20
-8957.117
 30
-818.730
 70
    32
  0
VERTEX
  8
E60LXLIFT
 62
2
 10
3906.244
 20
-8954.362
 30
-818.643
 70
    32
  0
VERTEX
  8
E60LXLIFT
 62
2
 10
3900.957
 20
-8951.034
 30
-818.642
 70
    32
  0
VERTEX
  8
E60LXLIFT
 62
2
 10
3894.498
 20
-8950.425
 30
-818.619
 70
    32
  0
VERTEX
  8
E60LXLIFT
 62
2
 10
3890.694
 20
-8937.812
 30
-818.685
 70
    32
  0
VERTEX
  8
E60LXLIFT
 62
2
 10
3892.732
 20
-8931.068
 30
-818.738
 70
    32
  0
VERTEX
  8
E60LXLIFT
 62
2
 10
3884.334
 20
-8921.586
 30
-818.764
 70
    32
  0
VERTEX
  8
E60LXLIFT
 62
2
 10
3903.691
 20
-8912.764
 30
-818.905
 70
    32
  0
VERTEX
  8
E60LXLIFT
 62
2
 10
3909.268
 20
-8909.845
 30
-818.948
 70
    32
  0
VERTEX
  8
E60LXLIFT
 62
2
 10
3909.268
 20
-8909.845
 30
-818.948
 70
    32
  0
VERTEX
  8
E60LXLIFT
 62
2
 10
3921.255
 20
-8908.905
 30
-819.006
 70
    32
  0
VERTEX
  8
E60LXLIFT
 62
2
 10
3928.508
 20
-8912.969
 30
-819.011
 70
    32
  0
VERTEX
  8
E60LXLIFT
 62
2
 10
3950.873
 20
-8913.153
 30
-819.106
 70
    32
  0
SEQEND
  8
E60LXLIFT
  0
POLYLINE
  8
E60LXLIFT
 62
13
 66
     1
 70
     9
  0
VERTEX
  8
E60LXLIFT
 62
13
 10
3962.076
 20
-8968.036
 30
-818.794
 70
    32
  0
VERTEX
  8
E60LXLIFT
 62
13
 10
3965.559
 20
-8969.790
 30
-818.798
 70
    32
  0
VERTEX
  8
E60LXLIFT
 62
13
 10
3965.559
 20
-8969.790
 30
-818.798
 70
    32
  0
VERTEX
  8
E60LXLIFT
 62
13
 10
3964.078
 20
-8984.431
 30
-818.695
 70
    32
  0
VERTEX
  8
E60LXLIFT
 62
13
 10
3984.363
 20
-9012.886
 30
-818.596
 70
    32
  0
VERTEX
  8
E60LXLIFT
 62
13
 10
3979.208
 20
-9019.651
 30
-818.529
 70
    32
  0
VERTEX
  8
E60LXLIFT
 62
13
 10
3978.217
 20
-9024.641
 30
-818.492
 70
    32
  0
VERTEX
  8
E60LXLIFT
 62
13
 10
3965.986
 20
-9032.536
 30
-818.388
 70
    32
  0
VERTEX
  8
E60LXLIFT
 62
13
 10
3963.845
 20
-9040.777
 30
-818.325
 70
    32
  0
VERTEX
  8
E60LXLIFT
 62
13
 10
3960.365
 20
-9045.410
 30
-818.279
 70
    32
  0
VERTEX
  8
E60LXLIFT
 62
13
 10
3950.443
 20
-9051.391
 30
-818.197
 70
    32
  0
VERTEX
  8
E60LXLIFT
 62
13
 10
3938.410
 20
-9053.457
 30
-818.132
 70
    32
  0
VERTEX
  8
E60LXLIFT
 62
13
 10
3927.656
 20
-9048.873
 30
-818.116
 70
    32
  0
VERTEX
  8
E60LXLIFT
 62
13
 10
3917.840
 20
-9044.687
 30
-818.101
 70
    32
  0
VERTEX
  8
E60LXLIFT
 62
13
 10
3911.568
 20
-9042.170
 30
-818.090
 70
    32
  0
VERTEX
  8
E60LXLIFT
 62
13
 10
3906.437
 20
-9039.248
 30
-818.087
 70
    32
  0
VERTEX
  8
E60LXLIFT
 62
13
 10
3901.529
 20
-9002.527
 30
-818.307
 70
    32
  0
VERTEX
  8
E60LXLIFT
 62
13
 10
3902.480
 20
-8988.057
 30
-818.406
 70
    32
  0
VERTEX
  8
E60LXLIFT
 62
13
 10
3915.286
 20
-8968.155
 30
-818.592
 70
    32
  0
VERTEX
  8
E60LXLIFT
 62
13
 10
3931.951
 20
-8957.220
 30
-818.735
 70
    32
  0
VERTEX
  8
E60LXLIFT
 62
13
 10
3947.640
 20
-8955.964
 30
-818.811
 70
    32
  0
VERTEX
  8
E60LXLIFT
 62
13
 10
3956.148
 20
-8965.052
 30
-818.788
 70
    32
  0
SEQEND
  8
E60LXLIFT
  0
POLYLINE
  8
E60LXLIFT
 62
1
 66
     1
 70
     9
  0
VERTEX
  8
E60LXLIFT
 62
1
 10
3931.712
 20
-8923.240
 30
-785.000
 70
    32
  0
VERTEX
  8
E60LXLIFT
 62
1
 10
3932.152
 20
-8945.036
 30
-785.000
 70
    32
  0
VERTEX
  8
E60LXLIFT
 62
1
 10
3913.974
 20
-8945.684
 30
-785.000
 70
    32
  0
VERTEX
  8
E60LXLIFT
 62
1
 10
3884.801
 20
-8946.567
 30
-785.000
 70
    32
  0
VERTEX
  8
E60LXLIFT
 62
1
 10
3884.078
 20
-8921.072
 30
-785.000
 70
    32
  0
VERTEX
  8
E60LXLIFT
 62
1
 10
3883.615
 20
-8911.867
 30
-785.000
 70
    32
  0
VERTEX
  8
E60LXLIFT
 62
1
 10
3893.684
 20
-8903.735
 30
-785.000
 70
    32
  0
VERTEX
  8
E60LXLIFT
 62
1
 10
3910.691
 20
-8901.765
 30
-785.000
 70
    32
  0
VERTEX
  8
E60LXLIFT
 62
1
 10
3924.972
 20
-8902.628
 30
-785.000
 70
    32
  0
VERTEX
  8
E60LXLIFT
 62
1
 10
3928.321
 20
-8910.726
 30
-785.000
 70
    32
  0
VERTEX
  8
E60LXLIFT
 62
1
 10
3933.802
 20
-8915.770
 30
-785.000
 70
    32
  0
SEQEND
  8
E60LXLIFT
  0
POLYLINE
  8
E60LXLIFT
 62
1
 66
     1
 70
     9
  0
VERTEX
  8
E60LXLIFT
 62
1
 10
4036.493
 20
-8999.872
 30
-677.000
 70
    32
  0
VERTEX
  8
E60LXLIFT
 62
1
 10
4030.364
 20
-8978.437
 30
-677.000
 70
    32
  0
VERTEX
  8
E60LXLIFT
 62
1
 10
4033.333
 20
-8972.310
 30
-677.000
 70
    32
  0
VERTEX
  8
E60LXLIFT
 62
1
 10
4043.458
 20
-8964.831
 30
-677.000
 70
    32
  0
VERTEX
  8
E60LXLIFT
 62
1
 10
4049.639
 20
-8967.870
 30
-677.000
 70
    32
  0
VERTEX
  8
E60LXLIFT
 62
1
 10
4045.913
 20
-8981.872
 30
-677.000
 70
    32
  0
VERTEX
  8
E60LXLIFT
 62
1
 10
4044.231
 20
-8998.852
 30
-677.000
 70
    32
  0
SEQEND
  8
E60LXLIFT
  0
POLYLINE
  8
E60LXLIFT
 62
6
 66
     1
 70
     9
  0
VERTEX
  8
E60LXLIFT
 62
6
 10
3946.124
 20
-8585.359
 30
-691.000
 70
    32
  0
VERTEX
  8
E60LXLIFT
 62
6
 10
3944.569
 20
-8581.873
 30
-691.000
 70
    32
  0
VERTEX
  8
E60LXLIFT
 62
6
 10
3936.706
 20
-8577.247
 30
-691.000
 70
    32
  0
VERTEX
  8
E60LXLIFT
 62
6
 10
3927.240
 20
-8572.379
 30
-691.000
 70
    32
  0
VERTEX
  8
E60LXLIFT
 62
6
 10
3918.510
 20
-8567.361
 30
-691.000
 70
    32
  0
VERTEX
  8
E60LXLIFT
 62
6
 10
3907.107
 20
-8557.897
 30
-691.000
 70
    32
  0
VERTEX
  8
E60LXLIFT
 62
6
 10
3901.426
 20
-8548.798
 30
-691.000
 70
    32
  0
VERTEX
  8
E60LXLIFT
 62
6
 10
3896.566
 20
-8540.017
 30
-691.000
 70
    32
  0
VERTEX
  8
E60LXLIFT
 62
6
 10
3892.467
 20
-8535.114
 30
-691.000
 70
    32
  0
VERTEX
  8
E60LXLIFT
 62
6
 10
3887.444
 20
-8536.696
 30
-691.000
 70
    32
  0
VERTEX
  8
E60LXLIFT
 62
6
 10
3883.201
 20
-8540.692
 30
-691.000
 70
    32
  0
VERTEX
  8
E60LXLIFT
 62
6
 10
3876.555
 20
-8544.323
 30
-691.000
 70
    32
  0
VERTEX
  8
E60LXLIFT
 62
6
 10
3868.141
 20
-8542.633
 30
-691.000
 70
    32
  0
VERTEX
  8
E60LXLIFT
 62
6
 10
3859.840
 20
-8536.311
 30
-691.000
 70
    32
  0
VERTEX
  8
E60LXLIFT
 62
6
 10
3851.763
 20
-8529.849
 30
-691.000
 70
    32
  0
VERTEX
  8
E60LXLIFT
 62
6
 10
3844.982
 20
-8522.474
 30
-691.000
 70
    32
  0
VERTEX
  8
E60LXLIFT
 62
6
 10
3841.131
 20
-8525.604
 30
-691.000
 70
    32
  0
VERTEX
  8
E60LXLIFT
 62
6
 10
3838.241
 20
-8529.274
 30
-691.000
 70
    32
  0
VERTEX
  8
E60LXLIFT
 62
6
 10
3843.242
 20
-8535.791
 30
-691.000
 70
    32
  0
VERTEX
  8
E60LXLIFT
 62
6
 10
3850.891
 20
-8541.898
 30
-691.000
 70
    32
  0
VERTEX
  8
E60LXLIFT
 62
6
 10
3858.036
 20
-8547.698
 30
-691.000
 70
    32
  0
VERTEX
  8
E60LXLIFT
 62
6
 10
3859.758
 20
-8553.775
 30
-691.000
 70
    32
  0
VERTEX
  8
E60LXLIFT
 62
6
 10
3864.834
 20
-8558.586
 30
-691.000
 70
    32
  0
VERTEX
  8
E60LXLIFT
 62
6
 10
3874.750
 20
-8558.199
 30
-691.000
 70
    32
  0
VERTEX
  8
E60LXLIFT
 62
6
 10
3884.358
 20
-8559.974
 30
-691.000
 70
    32
  0
VERTEX
  8
E60LXLIFT
 62
6
 10
3895.046
 20
-8562.318
 30
-691.000
 70
    32
  0
VERTEX
  8
E60LXLIFT
 62
6
 10
3903.618
 20
-8566.916
 30
-691.000
 70
    32
  0
VERTEX
  8
E60LXLIFT
 62
6
 10
3914.482
 20
-8572.364
 30
-691.000
 70
    32
  0
VERTEX
  8
E60LXLIFT
 62
6
 10
3922.166
 20
-8580.521
 30
-691.000
 70
    32
  0
VERTEX
  8
E60LXLIFT
 62
6
 10
3925.584
 20
-8586.990
 30
-691.000
 70
    32
  0
VERTEX
  8
E60LXLIFT
 62
6
 10
3927.491
 20
-8594.195
 30
-691.000
 70
    32
  0
VERTEX
  8
E60LXLIFT
 62
6
 10
3933.098
 20
-8600.022
 30
-691.000
 70
    32
  0
VERTEX
  8
E60LXLIFT
 62
6
 10
3938.476
 20
-8599.671
 30
-691.000
 70
    32
  0
VERTEX
  8
E60LXLIFT
 62
6
 10
3943.176
 20
-8592.590
 30
-691.000
 70
    32
  0
SEQEND
  8
E60LXLIFT
  0
POLYLINE
  8
E60LXLIFT
 62
6
 66
     1
 70
     9
  0
VERTEX
  8
E60LXLIFT
 62
6
 10
4027.924
 20
-8626.838
 30
-764.000
 70
    32
  0
VERTEX
  8
E60LXLIFT
 62
6
 10
4022.107
 20
-8624.074
 30
-764.000
 70
    32
  0
VERTEX
  8
E60LXLIFT
 62
6
 10
4015.839
 20
-8619.910
 30
-764.000
 70
    32
  0
VERTEX
  8
E60LXLIFT
 62
6
 10
4006.856
 20
-8612.509
 30
-764.000
 70
    32
  0
VERTEX
  8
E60LXLIFT
 62
6
 10
3996.630
 20
-8605.020
 30
-764.000
 70
    32
  0
VERTEX
  8
E60LXLIFT
 62
6
 10
3987.462
 20
-8597.965
 30
-764.000
 70
    32
  0
VERTEX
  8
E60LXLIFT
 62
6
 10
3980.123
 20
-8591.981
 30
-764.000
 70
    32
  0
VERTEX
  8
E60LXLIFT
 62
6
 10
3970.238
 20
-8585.432
 30
-764.000
 70
    32
  0
VERTEX
  8
E60LXLIFT
 62
6
 10
3961.336
 20
-8578.297
 30
-764.000
 70
    32
  0
VERTEX
  8
E60LXLIFT
 62
6
 10
3954.288
 20
-8571.356
 30
-764.000
 70
    32
  0
VERTEX
  8
E60LXLIFT
 62
6
 10
3951.307
 20
-8568.199
 30
-764.000
 70
    32
  0
VERTEX
  8
E60LXLIFT
 62
6
 10
3945.896
 20
-8571.483
 30
-764.000
 70
    32
  0
VERTEX
  8
E60LXLIFT
 62
6
 10
3939.093
 20
-8575.534
 30
-764.000
 70
    32
  0
VERTEX
  8
E60LXLIFT
 62
6
 10
3935.869
 20
-8583.286
 30
-764.000
 70
    32
  0
VERTEX
  8
E60LXLIFT
 62
6
 10
3933.573
 20
-8589.309
 30
-764.000
 70
    32
  0
VERTEX
  8
E60LXLIFT
 62
6
 10
3938.736
 20
-8592.213
 30
-764.000
 70
    32
  0
VERTEX
  8
E60LXLIFT
 62
6
 10
3947.297
 20
-8594.758
 30
-764.000
 70
    32
  0
VERTEX
  8
E60LXLIFT
 62
6
 10
3958.720
 20
-8599.684
 30
-764.000
 70
    32
  0
VERTEX
  8
E60LXLIFT
 62
6
 10
3970.953
 20
-8605.756
 30
-764.000
 70
    32
  0
VERTEX
  8
E60LXLIFT
 62
6
 10
3983.708
 20
-8613.178
 30
-764.000
 70
    32
  0
VERTEX
  8
E60LXLIFT
 62
6
 10
3992.872
 20
-8620.987
 30
-764.000
 70
    32
  0
VERTEX
  8
E60LXLIFT
 62
6
 10
4000.923
 20
-8627.220
 30
-764.000
 70
    32
  0
VERTEX
  8
E60LXLIFT
 62
6
 10
4004.422
 20
-8632.480
 30
-764.000
 70
    32
  0
VERTEX
  8
E60LXLIFT
 62
6
 10
4012.393
 20
-8636.623
 30
-764.000
 70
    32
  0
VERTEX
  8
E60LXLIFT
 62
6
 10
4012.566
 20
-8636.715
 30
-764.000
 70
    32
  0
VERTEX
  8
E60LXLIFT
 62
6
 10
4021.431
 20
-8641.515
 30
-764.000
 70
    32
  0
VERTEX
  8
E60LXLIFT
 62
6
 10
4026.518
 20
-8639.749
 30
-764.000
 70
    32
  0
SEQEND
  8
E60LXLIFT
  0
POLYLINE
  8
E60LXLIFT
 62
6
 66
     1
 70
     9
  0
VERTEX
  8
E60LXLIFT
 62
6
 10
4037.622
 20
-8634.858
 30
-749.000
 70
    32
  0
VERTEX
  8
E60LXLIFT
 62
6
 10
4032.733
 20
-8629.077
 30
-749.000
 70
    32
  0
VERTEX
  8
E60LXLIFT
 62
6
 10
4026.523
 20
-8623.721
 30
-749.000
 70
    32
  0
VERTEX
  8
E60LXLIFT
 62
6
 10
4017.220
 20
-8618.453
 30
-749.000
 70
    32
  0
VERTEX
  8
E60LXLIFT
 62
6
 10
4009.296
 20
-8614.026
 30
-749.000
 70
    32
  0
VERTEX
  8
E60LXLIFT
 62
6
 10
4000.058
 20
-8610.778
 30
-749.000
 70
    32
  0
VERTEX
  8
E60LXLIFT
 62
6
 10
3989.462
 20
-8606.567
 30
-749.000
 70
    32
  0
VERTEX
  8
E60LXLIFT
 62
6
 10
3981.363
 20
-8600.416
 30
-749.000
 70
    32
  0
VERTEX
  8
E60LXLIFT
 62
6
 10
3975.371
 20
-8592.832
 30
-749.000
 70
    32
  0
VERTEX
  8
E60LXLIFT
 62
6
 10
3966.621
 20
-8586.832
 30
-749.000
 70
    32
  0
VERTEX
  8
E60LXLIFT
 62
6
 10
3958.089
 20
-8578.604
 30
-749.000
 70
    32
  0
VERTEX
  8
E60LXLIFT
 62
6
 10
3950.586
 20
-8571.038
 30
-749.000
 70
    32
  0
VERTEX
  8
E60LXLIFT
 62
6
 10
3943.740
 20
-8562.882
 30
-749.000
 70
    32
  0
VERTEX
  8
E60LXLIFT
 62
6
 10
3939.474
 20
-8557.951
 30
-749.000
 70
    32
  0
VERTEX
  8
E60LXLIFT
 62
6
 10
3934.421
 20
-8562.198
 30
-749.000
 70
    32
  0
VERTEX
  8
E60LXLIFT
 62
6
 10
3929.256
 20
-8562.280
 30
-749.000
 70
    32
  0
VERTEX
  8
E60LXLIFT
 62
6
 10
3925.684
 20
-8558.148
 30
-749.000
 70
    32
  0
VERTEX
  8
E60LXLIFT
 62
6
 10
3919.473
 20
-8563.787
 30
-749.000
 70
    32
  0
VERTEX
  8
E60LXLIFT
 62
6
 10
3923.266
 20
-8570.152
 30
-749.000
 70
    32
  0
VERTEX
  8
E60LXLIFT
 62
6
 10
3924.547
 20
-8578.141
 30
-749.000
 70
    32
  0
VERTEX
  8
E60LXLIFT
 62
6
 10
3926.125
 20
-8586.238
 30
-749.000
 70
    32
  0
VERTEX
  8
E60LXLIFT
 62
6
 10
3927.533
 20
-8593.806
 30
-749.000
 70
    32
  0
VERTEX
  8
E60LXLIFT
 62
6
 10
3932.265
 20
-8599.374
 30
-749.000
 70
    32
  0
VERTEX
  8
E60LXLIFT
 62
6
 10
3938.533
 20
-8604.363
 30
-749.000
 70
    32
  0
VERTEX
  8
E60LXLIFT
 62
6
 10
3945.820
 20
-8609.257
 30
-749.000
 70
    32
  0
VERTEX
  8
E60LXLIFT
 62
6
 10
3953.118
 20
-8610.006
 30
-749.000
 70
    32
  0
VERTEX
  8
E60LXLIFT
 62
6
 10
3957.532
 20
-8609.494
 30
-749.000
 70
    32
  0
VERTEX
  8
E60LXLIFT
 62
6
 10
3960.106
 20
-8608.697
 30
-749.000
 70
    32
  0
VERTEX
  8
E60LXLIFT
 62
6
 10
3965.184
 20
-8611.617
 30
-749.000
 70
    32
  0
VERTEX
  8
E60LXLIFT
 62
6
 10
3970.858
 20
-8613.121
 30
-749.000
 70
    32
  0
VERTEX
  8
E60LXLIFT
 62
6
 10
3976.833
 20
-8617.561
 30
-749.000
 70
    32
  0
VERTEX
  8
E60LXLIFT
 62
6
 10
3983.620
 20
-8621.624
 30
-749.000
 70
    32
  0
VERTEX
  8
E60LXLIFT
 62
6
 10
3988.886
 20
-8626.584
 30
-749.000
 70
    32
  0
VERTEX
  8
E60LXLIFT
 62
6
 10
3994.629
 20
-8631.302
 30
-749.000
 70
    32
  0
VERTEX
  8
E60LXLIFT
 62
6
 10
4001.624
 20
-8635.649
 30
-749.000
 70
    32
  0
VERTEX
  8
E60LXLIFT
 62
6
 10
4010.464
 20
-8641.474
 30
-749.000
 70
    32
  0
VERTEX
  8
E60LXLIFT
 62
6
 10
4019.668
 20
-8644.528
 30
-749.000
 70
    32
  0
VERTEX
  8
E60LXLIFT
 62
6
 10
4027.140
 20
-8647.000
 30
-749.000
 70
    32
  0
VERTEX
  8
E60LXLIFT
 62
6
 10
4031.925
 20
-8641.644
 30
-749.000
 70
    32
  0
SEQEND
  8
E60LXLIFT
  0
POLYLINE
  8
E60LXLIFT
 62
6
 66
     1
 70
     9
  0
VERTEX
  8
E60LXLIFT
 62
6
 10
4030.439
 20
-8635.700
 30
-739.000
 70
    32
  0
VERTEX
  8
E60LXLIFT
 62
6
 10
4032.258
 20
-8633.069
 30
-739.000
 70
    32
  0
VERTEX
  8
E60LXLIFT
 62
6
 10
4027.733
 20
-8627.862
 30
-739.000
 70
    32
  0
VERTEX
  8
E60LXLIFT
 62
6
 10
4022.803
 20
-8623.464
 30
-739.000
 70
    32
  0
VERTEX
  8
E60LXLIFT
 62
6
 10
4016.144
 20
-8617.163
 30
-739.000
 70
    32
  0
VERTEX
  8
E60LXLIFT
 62
6
 10
4011.730
 20
-8613.051
 30
-739.000
 70
    32
  0
VERTEX
  8
E60LXLIFT
 62
6
 10
4000.894
 20
-8609.825
 30
-739.000
 70
    32
  0
VERTEX
  8
E60LXLIFT
 62
6
 10
3990.782
 20
-8606.101
 30
-739.000
 70
    32
  0
VERTEX
  8
E60LXLIFT
 62
6
 10
3983.337
 20
-8601.296
 30
-739.000
 70
    32
  0
VERTEX
  8
E60LXLIFT
 62
6
 10
3975.682
 20
-8595.251
 30
-739.000
 70
    32
  0
VERTEX
  8
E60LXLIFT
 62
6
 10
3966.912
 20
-8587.734
 30
-739.000
 70
    32
  0
VERTEX
  8
E60LXLIFT
 62
6
 10
3958.448
 20
-8581.285
 30
-739.000
 70
    32
  0
VERTEX
  8
E60LXLIFT
 62
6
 10
3951.869
 20
-8575.567
 30
-739.000
 70
    32
  0
VERTEX
  8
E60LXLIFT
 62
6
 10
3943.836
 20
-8568.504
 30
-739.000
 70
    32
  0
VERTEX
  8
E60LXLIFT
 62
6
 10
3938.446
 20
-8560.481
 30
-739.000
 70
    32
  0
VERTEX
  8
E60LXLIFT
 62
6
 10
3932.920
 20
-8553.190
 30
-739.000
 70
    32
  0
VERTEX
  8
E60LXLIFT
 62
6
 10
3925.753
 20
-8552.988
 30
-739.000
 70
    32
  0
VERTEX
  8
E60LXLIFT
 62
6
 10
3920.709
 20
-8554.952
 30
-739.000
 70
    32
  0
VERTEX
  8
E60LXLIFT
 62
6
 10
3915.574
 20
-8559.428
 30
-739.000
 70
    32
  0
VERTEX
  8
E60LXLIFT
 62
6
 10
3912.898
 20
-8565.627
 30
-739.000
 70
    32
  0
VERTEX
  8
E60LXLIFT
 62
6
 10
3911.742
 20
-8572.490
 30
-739.000
 70
    32
  0
VERTEX
  8
E60LXLIFT
 62
6
 10
3909.505
 20
-8578.708
 30
-739.000
 70
    32
  0
VERTEX
  8
E60LXLIFT
 62
6
 10
3910.681
 20
-8586.954
 30
-739.000
 70
    32
  0
VERTEX
  8
E60LXLIFT
 62
6
 10
3912.680
 20
-8592.827
 30
-739.000
 70
    32
  0
VERTEX
  8
E60LXLIFT
 62
6
 10
3919.636
 20
-8597.540
 30
-739.000
 70
    32
  0
VERTEX
  8
E60LXLIFT
 62
6
 10
3927.687
 20
-8602.142
 30
-739.000
 70
    32
  0
VERTEX
  8
E60LXLIFT
 62
6
 10
3935.000
 20
-8604.268
 30
-739.000
 70
    32
  0
VERTEX
  8
E60LXLIFT
 62
6
 10
3943.849
 20
-8608.324
 30
-739.000
 70
    32
  0
VERTEX
  8
E60LXLIFT
 62
6
 10
3949.476
 20
-8612.031
 30
-739.000
 70
    32
  0
VERTEX
  8
E60LXLIFT
 62
6
 10
3956.968
 20
-8618.614
 30
-739.000
 70
    32
  0
VERTEX
  8
E60LXLIFT
 62
6
 10
3966.064
 20
-8623.032
 30
-739.000
 70
    32
  0
VERTEX
  8
E60LXLIFT
 62
6
 10
3972.269
 20
-8628.048
 30
-739.000
 70
    32
  0
VERTEX
  8
E60LXLIFT
 62
6
 10
3979.060
 20
-8631.277
 30
-739.000
 70
    32
  0
VERTEX
  8
E60LXLIFT
 62
6
 10
3984.808
 20
-8632.983
 30
-739.000
 70
    32
  0
VERTEX
  8
E60LXLIFT
 62
6
 10
3991.366
 20
-8635.094
 30
-739.000
 70
    32
  0
VERTEX
  8
E60LXLIFT
 62
6
 10
4000.772
 20
-8638.875
 30
-739.000
 70
    32
  0
VERTEX
  8
E60LXLIFT
 62
6
 10
4010.834
 20
-8642.526
 30
-739.000
 70
    32
  0
VERTEX
  8
E60LXLIFT
 62
6
 10
4019.319
 20
-8644.808
 30
-739.000
 70
    32
  0
VERTEX
  8
E60LXLIFT
 62
6
 10
4026.005
 20
-8645.552
 30
-739.000
 70
    32
  0
SEQEND
  8
E60LXLIFT
  0
POLYLINE
  8
E60LXLIFT
 62
6
 66
     1
 70
     9
  0
VERTEX
  8
E60LXLIFT
 62
6
 10
4022.482
 20
-8638.865
 30
-728.000
 70
    32
  0
VERTEX
  8
E60LXLIFT
 62
6
 10
4021.328
 20
-8634.119
 30
-728.000
 70
    32
  0
VERTEX
  8
E60LXLIFT
 62
6
 10
4022.126
 20
-8631.113
 30
-728.000
 70
    32
  0
VERTEX
  8
E60LXLIFT
 62
6
 10
4019.463
 20
-8626.345
 30
-728.000
 70
    32
  0
VERTEX
  8
E60LXLIFT
 62
6
 10
4016.895
 20
-8622.791
 30
-728.000
 70
    32
  0
VERTEX
  8
E60LXLIFT
 62
6
 10
4008.387
 20
-8616.205
 30
-728.000
 70
    32
  0
VERTEX
  8
E60LXLIFT
 62
6
 10
3998.992
 20
-8610.340
 30
-728.000
 70
    32
  0
VERTEX
  8
E60LXLIFT
 62
6
 10
3990.174
 20
-8606.848
 30
-728.000
 70
    32
  0
VERTEX
  8
E60LXLIFT
 62
6
 10
3980.352
 20
-8600.213
 30
-728.000
 70
    32
  0
VERTEX
  8
E60LXLIFT
 62
6
 10
3971.827
 20
-8592.678
 30
-728.000
 70
    32
  0
VERTEX
  8
E60LXLIFT
 62
6
 10
3964.817
 20
-8588.255
 30
-728.000
 70
    32
  0
VERTEX
  8
E60LXLIFT
 62
6
 10
3954.979
 20
-8582.057
 30
-728.000
 70
    32
  0
VERTEX
  8
E60LXLIFT
 62
6
 10
3946.343
 20
-8575.133
 30
-728.000
 70
    32
  0
VERTEX
  8
E60LXLIFT
 62
6
 10
3938.046
 20
-8568.081
 30
-728.000
 70
    32
  0
VERTEX
  8
E60LXLIFT
 62
6
 10
3930.314
 20
-8558.612
 30
-728.000
 70
    32
  0
VERTEX
  8
E60LXLIFT
 62
6
 10
3923.408
 20
-8547.717
 30
-728.000
 70
    32
  0
VERTEX
  8
E60LXLIFT
 62
6
 10
3916.985
 20
-8540.753
 30
-728.000
 70
    32
  0
VERTEX
  8
E60LXLIFT
 62
6
 10
3910.480
 20
-8537.366
 30
-728.000
 70
    32
  0
VERTEX
  8
E60LXLIFT
 62
6
 10
3905.123
 20
-8539.796
 30
-728.000
 70
    32
  0
VERTEX
  8
E60LXLIFT
 62
6
 10
3902.762
 20
-8545.165
 30
-728.000
 70
    32
  0
VERTEX
  8
E60LXLIFT
 62
6
 10
3897.994
 20
-8550.600
 30
-728.000
 70
    32
  0
VERTEX
  8
E60LXLIFT
 62
6
 10
3892.606
 20
-8556.679
 30
-728.000
 70
    32
  0
VERTEX
  8
E60LXLIFT
 62
6
 10
3889.479
 20
-8561.404
 30
-728.000
 70
    32
  0
VERTEX
  8
E60LXLIFT
 62
6
 10
3884.945
 20
-8569.024
 30
-728.000
 70
    32
  0
VERTEX
  8
E60LXLIFT
 62
6
 10
3883.327
 20
-8573.771
 30
-728.000
 70
    32
  0
VERTEX
  8
E60LXLIFT
 62
6
 10
3891.568
 20
-8580.435
 30
-728.000
 70
    32
  0
VERTEX
  8
E60LXLIFT
 62
6
 10
3898.961
 20
-8587.259
 30
-728.000
 70
    32
  0
VERTEX
  8
E60LXLIFT
 62
6
 10
3904.791
 20
-8592.288
 30
-728.000
 70
    32
  0
VERTEX
  8
E60LXLIFT
 62
6
 10
3914.783
 20
-8593.472
 30
-728.000
 70
    32
  0
VERTEX
  8
E60LXLIFT
 62
6
 10
3922.459
 20
-8597.009
 30
-728.000
 70
    32
  0
VERTEX
  8
E60LXLIFT
 62
6
 10
3931.583
 20
-8605.408
 30
-728.000
 70
    32
  0
VERTEX
  8
E60LXLIFT
 62
6
 10
3939.968
 20
-8610.585
 30
-728.000
 70
    32
  0
VERTEX
  8
E60LXLIFT
 62
6
 10
3952.839
 20
-8613.616
 30
-728.000
 70
    32
  0
VERTEX
  8
E60LXLIFT
 62
6
 10
3966.737
 20
-8618.282
 30
-728.000
 70
    32
  0
VERTEX
  8
E60LXLIFT
 62
6
 10
3983.052
 20
-8624.900
 30
-728.000
 70
    32
  0
VERTEX
  8
E60LXLIFT
 62
6
 10
3996.191
 20
-8633.398
 30
-728.000
 70
    32
  0
VERTEX
  8
E60LXLIFT
 62
6
 10
4005.264
 20
-8638.952
 30
-728.000
 70
    32
  0
VERTEX
  8
E60LXLIFT
 62
6
 10
4016.794
 20
-8644.512
 30
-728.000
 70
    32
  0
SEQEND
  8
E60LXLIFT
  0
POLYLINE
  8
E60LXLIFT
 62
6
 66
     1
 70
     9
  0
VERTEX
  8
E60LXLIFT
 62
6
 10
3853.727
 20
-8545.276
 30
-708.000
 70
    32
  0
VERTEX
  8
E60LXLIFT
 62
6
 10
3853.653
 20
-8541.996
 30
-708.000
 70
    32
  0
VERTEX
  8
E60LXLIFT
 62
6
 10
3857.462
 20
-8537.676
 30
-708.000
 70
    32
  0
VERTEX
  8
E60LXLIFT
 62
6
 10
3865.175
 20
-8532.193
 30
-708.000
 70
    32
  0
VERTEX
  8
E60LXLIFT
 62
6
 10
3872.877
 20
-8527.148
 30
-708.000
 70
    32
  0
VERTEX
  8
E60LXLIFT
 62
6
 10
3881.739
 20
-8522.677
 30
-708.000
 70
    32
  0
VERTEX
  8
E60LXLIFT
 62
6
 10
3888.094
 20
-8527.835
 30
-708.000
 70
    32
  0
VERTEX
  8
E60LXLIFT
 62
6
 10
3895.535
 20
-8534.372
 30
-708.000
 70
    32
  0
VERTEX
  8
E60LXLIFT
 62
6
 10
3902.653
 20
-8543.932
 30
-708.000
 70
    32
  0
VERTEX
  8
E60LXLIFT
 62
6
 10
3911.439
 20
-8554.780
 30
-708.000
 70
    32
  0
VERTEX
  8
E60LXLIFT
 62
6
 10
3919.119
 20
-8563.619
 30
-708.000
 70
    32
  0
VERTEX
  8
E60LXLIFT
 62
6
 10
3926.905
 20
-8571.093
 30
-708.000
 70
    32
  0
VERTEX
  8
E60LXLIFT
 62
6
 10
3934.592
 20
-8576.917
 30
-708.000
 70
    32
  0
VERTEX
  8
E60LXLIFT
 62
6
 10
3943.355
 20
-8584.556
 30
-708.000
 70
    32
  0
VERTEX
  8
E60LXLIFT
 62
6
 10
3947.306
 20
-8593.895
 30
-708.000
 70
    32
  0
VERTEX
  8
E60LXLIFT
 62
6
 10
3944.367
 20
-8600.499
 30
-708.000
 70
    32
  0
VERTEX
  8
E60LXLIFT
 62
6
 10
3938.346
 20
-8600.801
 30
-708.000
 70
    32
  0
VERTEX
  8
E60LXLIFT
 62
6
 10
3931.403
 20
-8594.664
 30
-708.000
 70
    32
  0
VERTEX
  8
E60LXLIFT
 62
6
 10
3925.925
 20
-8589.527
 30
-708.000
 70
    32
  0
VERTEX
  8
E60LXLIFT
 62
6
 10
3919.109
 20
-8585.987
 30
-708.000
 70
    32
  0
VERTEX
  8
E60LXLIFT
 62
6
 10
3907.083
 20
-8579.807
 30
-708.000
 70
    32
  0
VERTEX
  8
E60LXLIFT
 62
6
 10
3896.232
 20
-8572.255
 30
-708.000
 70
    32
  0
VERTEX
  8
E60LXLIFT
 62
6
 10
3884.635
 20
-8565.770
 30
-708.000
 70
    32
  0
VERTEX
  8
E60LXLIFT
 62
6
 10
3877.953
 20
-8561.059
 30
-708.000
 70
    32
  0
VERTEX
  8
E60LXLIFT
 62
6
 10
3869.741
 20
-8562.059
 30
-708.000
 70
    32
  0
VERTEX
  8
E60LXLIFT
 62
6
 10
3863.386
 20
-8561.739
 30
-708.000
 70
    32
  0
VERTEX
  8
E60LXLIFT
 62
6
 10
3860.567
 20
-8556.109
 30
-708.000
 70
    32
  0
SEQEND
  8
E60LXLIFT
  0
POLYLINE
  8
E60LXLIFT
 62
6
 66
     1
 70
     9
  0
VERTEX
  8
E60LXLIFT
 62
6
 10
3945.210
 20
-8588.305
 30
-699.000
 70
    32
  0
VERTEX
  8
E60LXLIFT
 62
6
 10
3944.704
 20
-8595.132
 30
-699.000
 70
    32
  0
VERTEX
  8
E60LXLIFT
 62
6
 10
3942.257
 20
-8600.728
 30
-699.000
 70
    32
  0
VERTEX
  8
E60LXLIFT
 62
6
 10
3938.326
 20
-8603.588
 30
-699.000
 70
    32
  0
VERTEX
  8
E60LXLIFT
 62
6
 10
3929.451
 20
-8600.309
 30
-699.000
 70
    32
  0
VERTEX
  8
E60LXLIFT
 62
6
 10
3922.442
 20
-8592.918
 30
-699.000
 70
    32
  0
VERTEX
  8
E60LXLIFT
 62
6
 10
3918.409
 20
-8582.689
 30
-699.000
 70
    32
  0
VERTEX
  8
E60LXLIFT
 62
6
 10
3914.391
 20
-8576.333
 30
-699.000
 70
    32
  0
VERTEX
  8
E60LXLIFT
 62
6
 10
3903.473
 20
-8572.757
 30
-699.000
 70
    32
  0
VERTEX
  8
E60LXLIFT
 62
6
 10
3892.418
 20
-8568.523
 30
-699.000
 70
    32
  0
VERTEX
  8
E60LXLIFT
 62
6
 10
3880.407
 20
-8564.310
 30
-699.000
 70
    32
  0
VERTEX
  8
E60LXLIFT
 62
6
 10
3871.068
 20
-8563.298
 30
-699.000
 70
    32
  0
VERTEX
  8
E60LXLIFT
 62
6
 10
3861.852
 20
-8562.306
 30
-699.000
 70
    32
  0
VERTEX
  8
E60LXLIFT
 62
6
 10
3855.589
 20
-8554.285
 30
-699.000
 70
    32
  0
VERTEX
  8
E60LXLIFT
 62
6
 10
3850.528
 20
-8549.522
 30
-699.000
 70
    32
  0
VERTEX
  8
E60LXLIFT
 62
6
 10
3855.516
 20
-8542.470
 30
-699.000
 70
    32
  0
VERTEX
  8
E60LXLIFT
 62
6
 10
3864.377
 20
-8534.325
 30
-699.000
 70
    32
  0
VERTEX
  8
E60LXLIFT
 62
6
 10
3872.723
 20
-8529.452
 30
-699.000
 70
    32
  0
VERTEX
  8
E60LXLIFT
 62
6
 10
3881.194
 20
-8528.916
 30
-699.000
 70
    32
  0
VERTEX
  8
E60LXLIFT
 62
6
 10
3887.862
 20
-8534.280
 30
-699.000
 70
    32
  0
VERTEX
  8
E60LXLIFT
 62
6
 10
3893.024
 20
-8538.110
 30
-699.000
 70
    32
  0
VERTEX
  8
E60LXLIFT
 62
6
 10
3897.759
 20
-8545.798
 30
-699.000
 70
    32
  0
VERTEX
  8
E60LXLIFT
 62
6
 10
3904.181
 20
-8556.512
 30
-699.000
 70
    32
  0
VERTEX
  8
E60LXLIFT
 62
6
 10
3912.037
 20
-8563.418
 30
-699.000
 70
    32
  0
VERTEX
  8
E60LXLIFT
 62
6
 10
3921.420
 20
-8571.735
 30
-699.000
 70
    32
  0
VERTEX
  8
E60LXLIFT
 62
6
 10
3931.223
 20
-8578.033
 30
-699.000
 70
    32
  0
VERTEX
  8
E60LXLIFT
 62
6
 10
3937.637
 20
-8583.035
 30
-699.000
 70
    32
  0
SEQEND
  8
E60LXLIFT
  0
POLYLINE
  8
E60LXLIFT
 62
1
 66
     1
 70
     9
  0
VERTEX
  8
E60LXLIFT
 62
1
 10
3944.176
 20
-8591.590
 30
-681.000
 70
    32
  0
VERTEX
  8
E60LXLIFT
 62
1
 10
3939.476
 20
-8598.671
 30
-681.000
 70
    32
  0
VERTEX
  8
E60LXLIFT
 62
1
 10
3934.098
 20
-8599.022
 30
-681.000
 70
    32
  0
VERTEX
  8
E60LXLIFT
 62
1
 10
3928.491
 20
-8593.195
 30
-681.000
 70
    32
  0
VERTEX
  8
E60LXLIFT
 62
1
 10
3926.584
 20
-8585.990
 30
-681.000
 70
    32
  0
VERTEX
  8
E60LXLIFT
 62
1
 10
3923.166
 20
-8579.521
 30
-681.000
 70
    32
  0
VERTEX
  8
E60LXLIFT
 62
1
 10
3915.482
 20
-8571.364
 30
-681.000
 70
    32
  0
VERTEX
  8
E60LXLIFT
 62
1
 10
3904.618
 20
-8565.916
 30
-681.000
 70
    32
  0
VERTEX
  8
E60LXLIFT
 62
1
 10
3896.046
 20
-8561.318
 30
-681.000
 70
    32
  0
VERTEX
  8
E60LXLIFT
 62
1
 10
3885.358
 20
-8558.974
 30
-681.000
 70
    32
  0
VERTEX
  8
E60LXLIFT
 62
1
 10
3875.750
 20
-8557.199
 30
-681.000
 70
    32
  0
VERTEX
  8
E60LXLIFT
 62
1
 10
3865.834
 20
-8557.586
 30
-681.000
 70
    32
  0
VERTEX
  8
E60LXLIFT
 62
1
 10
3860.758
 20
-8552.775
 30
-681.000
 70
    32
  0
VERTEX
  8
E60LXLIFT
 62
1
 10
3859.036
 20
-8546.698
 30
-681.000
 70
    32
  0
VERTEX
  8
E60LXLIFT
 62
1
 10
3851.891
 20
-8540.898
 30
-681.000
 70
    32
  0
VERTEX
  8
E60LXLIFT
 62
1
 10
3844.242
 20
-8534.791
 30
-681.000
 70
    32
  0
VERTEX
  8
E60LXLIFT
 62
1
 10
3839.241
 20
-8528.274
 30
-681.000
 70
    32
  0
VERTEX
  8
E60LXLIFT
 62
1
 10
3842.131
 20
-8524.604
 30
-681.000
 70
    32
  0
VERTEX
  8
E60LXLIFT
 62
1
 10
3845.982
 20
-8521.474
 30
-681.000
 70
    32
  0
VERTEX
  8
E60LXLIFT
 62
1
 10
3852.763
 20
-8528.849
 30
-681.000
 70
    32
  0
VERTEX
  8
E60LXLIFT
 62
1
 10
3860.840
 20
-8535.311
 30
-681.000
 70
    32
  0
VERTEX
  8
E60LXLIFT
 62
1
 10
3869.141
 20
-8541.633
 30
-681.000
 70
    32
  0
VERTEX
  8
E60LXLIFT
 62
1
 10
3877.555
 20
-8543.323
 30
-681.000
 70
    32
  0
VERTEX
  8
E60LXLIFT
 62
1
 10
3884.201
 20
-8539.692
 30
-681.000
 70
    32
  0
VERTEX
  8
E60LXLIFT
 62
1
 10
3888.444
 20
-8535.696
 30
-681.000
 70
    32
  0
VERTEX
  8
E60LXLIFT
 62
1
 10
3893.467
 20
-8534.114
 30
-681.000
 70
    32
  0
VERTEX
  8
E60LXLIFT
 62
1
 10
3897.566
 20
-8539.017
 30
-681.000
 70
    32
  0
VERTEX
  8
E60LXLIFT
 62
1
 10
3902.426
 20
-8547.798
 30
-681.000
 70
    32
  0
VERTEX
  8
E60LXLIFT
 62
1
 10
3908.107
 20
-8556.897
 30
-681.000
 70
    32
  0
VERTEX
  8
E60LXLIFT
 62
1
 10
3919.510
 20
-8566.361
 30
-681.000
 70
    32
  0
VERTEX
  8
E60LXLIFT
 62
1
 10
3928.240
 20
-8571.379
 30
-681.000
 70
    32
  0
VERTEX
  8
E60LXLIFT
 62
1
 10
3937.706
 20
-8576.247
 30
-681.000
 70
    32
  0
VERTEX
  8
E60LXLIFT
 62
1
 10
3945.569
 20
-8580.873
 30
-681.000
 70
    32
  0
VERTEX
  8
E60LXLIFT
 62
1
 10
3947.124
 20
-8584.359
 30
-681.000
 70
    32
  0
SEQEND
  8
E60LXLIFT
  0
POLYLINE
  8
E60LXLIFT
 62
8
 66
     1
 70
     9
  0
VERTEX
  8
E60LXLIFT
 62
8
 10
4275.340
 20
-9827.351
 30
-814.418
 70
    32
  0
VERTEX
  8
E60LXLIFT
 62
8
 10
4280.018
 20
-9824.042
 30
-814.423
 70
    32
  0
VERTEX
  8
E60LXLIFT
 62
8
 10
4290.252
 20
-9811.190
 30
-814.422
 70
    32
  0
VERTEX
  8
E60LXLIFT
 62
8
 10
4291.519
 20
-9796.800
 30
-814.399
 70
    32
  0
VERTEX
  8
E60LXLIFT
 62
8
 10
4301.892
 20
-9791.623
 30
-814.413
 70
    32
  0
VERTEX
  8
E60LXLIFT
 62
8
 10
4310.113
 20
-9782.030
 30
-814.414
 70
    32
  0
VERTEX
  8
E60LXLIFT
 62
8
 10
4315.194
 20
-9769.369
 30
-814.402
 70
    32
  0
VERTEX
  8
E60LXLIFT
 62
8
 10
4328.263
 20
-9761.746
 30
-814.417
 70
    32
  0
VERTEX
  8
E60LXLIFT
 62
8
 10
4322.487
 20
-9754.495
 30
-814.391
 70
    32
  0
VERTEX
  8
E60LXLIFT
 62
8
 10
4312.821
 20
-9759.604
 30
-814.378
 70
    32
  0
VERTEX
  8
E60LXLIFT
 62
8
 10
4305.050
 20
-9756.247
 30
-814.354
 70
    32
  0
VERTEX
  8
E60LXLIFT
 62
8
 10
4293.001
 20
-9758.291
 30
-814.331
 70
    32
  0
VERTEX
  8
E60LXLIFT
 62
8
 10
4286.603
 20
-9761.304
 30
-814.322
 70
    32
  0
VERTEX
  8
E60LXLIFT
 62
8
 10
4283.441
 20
-9753.933
 30
-814.301
 70
    32
  0
VERTEX
  8
E60LXLIFT
 62
8
 10
4279.264
 20
-9748.790
 30
-814.282
 70
    32
  0
VERTEX
  8
E60LXLIFT
 62
8
 10
4280.179
 20
-9739.398
 30
-814.273
 70
    32
  0
VERTEX
  8
E60LXLIFT
 62
8
 10
4283.730
 20
-9727.171
 30
-814.264
 70
    32
  0
VERTEX
  8
E60LXLIFT
 62
8
 10
4282.844
 20
-9721.644
 30
-814.262
 70
    32
  0
VERTEX
  8
E60LXLIFT
 62
8
 10
4279.757
 20
-9722.316
 30
-814.264
 70
    32
  0
VERTEX
  8
E60LXLIFT
 62
8
 10
4268.385
 20
-9713.410
 30
-814.268
 70
    32
  0
VERTEX
  8
E60LXLIFT
 62
8
 10
4266.026
 20
-9705.038
 30
-814.266
 70
    32
  0
VERTEX
  8
E60LXLIFT
 62
8
 10
4267.323
 20
-9701.529
 30
-814.263
 70
    32
  0
VERTEX
  8
E60LXLIFT
 62
8
 10
4266.742
 20
-9694.764
 30
-814.260
 70
    32
  0
VERTEX
  8
E60LXLIFT
 62
8
 10
4253.844
 20
-9696.056
 30
-814.270
 70
    32
  0
VERTEX
  8
E60LXLIFT
 62
8
 10
4249.299
 20
-9695.276
 30
-814.273
 70
    32
  0
VERTEX
  8
E60LXLIFT
 62
8
 10
4246.550
 20
-9691.691
 30
-814.273
 70
    32
  0
VERTEX
  8
E60LXLIFT
 62
8
 10
4255.957
 20
-9684.846
 30
-814.263
 70
    32
  0
VERTEX
  8
E60LXLIFT
 62
8
 10
4252.340
 20
-9680.495
 30
-814.263
 70
    32
  0
VERTEX
  8
E60LXLIFT
 62
8
 10
4284.683
 20
-9657.305
 30
-814.227
 70
    32
  0
VERTEX
  8
E60LXLIFT
 62
8
 10
4278.733
 20
-9653.153
 30
-814.229
 70
    32
  0
VERTEX
  8
E60LXLIFT
 62
8
 10
4272.020
 20
-9647.103
 30
-814.231
 70
    32
  0
VERTEX
  8
E60LXLIFT
 62
8
 10
4270.494
 20
-9642.354
 30
-814.235
 70
    32
  0
VERTEX
  8
E60LXLIFT
 62
8
 10
4255.592
 20
-9628.613
 30
-814.269
 70
    32
  0
VERTEX
  8
E60LXLIFT
 62
8
 10
4238.444
 20
-9594.765
 30
-814.338
 70
    32
  0
VERTEX
  8
E60LXLIFT
 62
8
 10
4231.182
 20
-9574.431
 30
-814.377
 70
    32
  0
VERTEX
  8
E60LXLIFT
 62
8
 10
4222.937
 20
-9562.779
 30
-814.403
 70
    32
  0
VERTEX
  8
E60LXLIFT
 62
8
 10
4211.439
 20
-9541.340
 30
-814.447
 70
    32
  0
VERTEX
  8
E60LXLIFT
 62
8
 10
4201.228
 20
-9527.518
 30
-814.500
 70
    32
  0
VERTEX
  8
E60LXLIFT
 62
8
 10
4190.308
 20
-9516.355
 30
-814.564
 70
    32
  0
VERTEX
  8
E60LXLIFT
 62
8
 10
4170.958
 20
-9505.329
 30
-814.670
 70
    32
  0
VERTEX
  8
E60LXLIFT
 62
8
 10
4160.642
 20
-9503.561
 30
-814.700
 70
    32
  0
VERTEX
  8
E60LXLIFT
 62
8
 10
4149.913
 20
-9504.568
 30
-814.712
 70
    32
  0
VERTEX
  8
E60LXLIFT
 62
8
 10
4134.007
 20
-9501.434
 30
-814.760
 70
    32
  0
VERTEX
  8
E60LXLIFT
 62
8
 10
4133.565
 20
-9514.535
 30
-814.674
 70
    32
  0
VERTEX
  8
E60LXLIFT
 62
8
 10
4134.354
 20
-9515.640
 30
-814.666
 70
    32
  0
VERTEX
  8
E60LXLIFT
 62
8
 10
4136.476
 20
-9526.918
 30
-814.618
 70
    32
  0
VERTEX
  8
E60LXLIFT
 62
8
 10
4145.523
 20
-9544.587
 30
-814.537
 70
    32
  0
VERTEX
  8
E60LXLIFT
 62
8
 10
4158.912
 20
-9580.446
 30
-814.425
 70
    32
  0
VERTEX
  8
E60LXLIFT
 62
8
 10
4169.419
 20
-9596.974
 30
-814.389
 70
    32
  0
VERTEX
  8
E60LXLIFT
 62
8
 10
4193.143
 20
-9623.794
 30
-814.327
 70
    32
  0
VERTEX
  8
E60LXLIFT
 62
8
 10
4229.366
 20
-9677.281
 30
-814.279
 70
    32
  0
VERTEX
  8
E60LXLIFT
 62
8
 10
4230.204
 20
-9688.390
 30
-814.284
 70
    32
  0
VERTEX
  8
E60LXLIFT
 62
8
 10
4231.530
 20
-9695.644
 30
-814.287
 70
    32
  0
VERTEX
  8
E60LXLIFT
 62
8
 10
4234.787
 20
-9700.249
 30
-814.287
 70
    32
  0
VERTEX
  8
E60LXLIFT
 62
8
 10
4235.689
 20
-9704.577
 30
-814.288
 70
    32
  0
VERTEX
  8
E60LXLIFT
 62
8
 10
4238.627
 20
-9707.358
 30
-814.287
 70
    32
  0
VERTEX
  8
E60LXLIFT
 62
8
 10
4243.574
 20
-9720.916
 30
-814.291
 70
    32
  0
VERTEX
  8
E60LXLIFT
 62
8
 10
4244.036
 20
-9735.919
 30
-814.298
 70
    32
  0
VERTEX
  8
E60LXLIFT
 62
8
 10
4247.971
 20
-9744.688
 30
-814.300
 70
    32
  0
VERTEX
  8
E60LXLIFT
 62
8
 10
4248.913
 20
-9751.363
 30
-814.303
 70
    32
  0
VERTEX
  8
E60LXLIFT
 62
8
 10
4251.713
 20
-9785.547
 30
-814.318
 70
    32
  0
VERTEX
  8
E60LXLIFT
 62
8
 10
4241.946
 20
-9794.938
 30
-814.331
 70
    32
  0
VERTEX
  8
E60LXLIFT
 62
8
 10
4243.424
 20
-9805.120
 30
-814.335
 70
    32
  0
VERTEX
  8
E60LXLIFT
 62
8
 10
4247.796
 20
-9810.233
 30
-814.334
 70
    32
  0
VERTEX
  8
E60LXLIFT
 62
8
 10
4248.356
 20
-9815.451
 30
-814.336
 70
    32
  0
VERTEX
  8
E60LXLIFT
 62
8
 10
4262.593
 20
-9825.354
 30
-814.386
 70
    32
  0
VERTEX
  8
E60LXLIFT
 62
8
 10
4265.881
 20
-9831.989
 30
-814.406
 70
    32
  0
VERTEX
  8
E60LXLIFT
 62
8
 10
4268.804
 20
-9831.541
 30
-814.411
 70
    32
  0
SEQEND
  8
E60LXLIFT
  0
POLYLINE
  8
E60LXLIFT
 62
1
 66
     1
 70
     9
  0
VERTEX
  8
E60LXLIFT
 62
1
 10
4276.340
 20
-9826.351
 30
-802.418
 70
    32
  0
VERTEX
  8
E60LXLIFT
 62
1
 10
4281.018
 20
-9823.042
 30
-802.423
 70
    32
  0
VERTEX
  8
E60LXLIFT
 62
1
 10
4291.252
 20
-9810.190
 30
-802.422
 70
    32
  0
VERTEX
  8
E60LXLIFT
 62
1
 10
4292.519
 20
-9795.800
 30
-802.399
 70
    32
  0
VERTEX
  8
E60LXLIFT
 62
1
 10
4302.892
 20
-9790.623
 30
-802.413
 70
    32
  0
VERTEX
  8
E60LXLIFT
 62
1
 10
4311.113
 20
-9781.030
 30
-802.414
 70
    32
  0
VERTEX
  8
E60LXLIFT
 62
1
 10
4316.194
 20
-9768.369
 30
-802.402
 70
    32
  0
VERTEX
  8
E60LXLIFT
 62
1
 10
4329.263
 20
-9760.746
 30
-802.417
 70
    32
  0
VERTEX
  8
E60LXLIFT
 62
1
 10
4323.487
 20
-9753.495
 30
-802.391
 70
    32
  0
VERTEX
  8
E60LXLIFT
 62
1
 10
4313.821
 20
-9758.604
 30
-802.378
 70
    32
  0
VERTEX
  8
E60LXLIFT
 62
1
 10
4306.050
 20
-9755.247
 30
-802.354
 70
    32
  0
VERTEX
  8
E60LXLIFT
 62
1
 10
4294.001
 20
-9757.291
 30
-802.331
 70
    32
  0
VERTEX
  8
E60LXLIFT
 62
1
 10
4287.603
 20
-9760.304
 30
-802.322
 70
    32
  0
VERTEX
  8
E60LXLIFT
 62
1
 10
4284.441
 20
-9752.933
 30
-802.301
 70
    32
  0
VERTEX
  8
E60LXLIFT
 62
1
 10
4280.264
 20
-9747.790
 30
-802.282
 70
    32
  0
VERTEX
  8
E60LXLIFT
 62
1
 10
4281.179
 20
-9738.398
 30
-802.273
 70
    32
  0
VERTEX
  8
E60LXLIFT
 62
1
 10
4284.730
 20
-9726.171
 30
-802.264
 70
    32
  0
VERTEX
  8
E60LXLIFT
 62
1
 10
4283.844
 20
-9720.644
 30
-802.262
 70
    32
  0
VERTEX
  8
E60LXLIFT
 62
1
 10
4280.757
 20
-9721.316
 30
-802.264
 70
    32
  0
VERTEX
  8
E60LXLIFT
 62
1
 10
4269.385
 20
-9712.410
 30
-802.268
 70
    32
  0
VERTEX
  8
E60LXLIFT
 62
1
 10
4267.026
 20
-9704.038
 30
-802.266
 70
    32
  0
VERTEX
  8
E60LXLIFT
 62
1
 10
4268.323
 20
-9700.529
 30
-802.263
 70
    32
  0
VERTEX
  8
E60LXLIFT
 62
1
 10
4267.742
 20
-9693.764
 30
-802.260
 70
    32
  0
VERTEX
  8
E60LXLIFT
 62
1
 10
4254.844
 20
-9695.056
 30
-802.270
 70
    32
  0
VERTEX
  8
E60LXLIFT
 62
1
 10
4250.299
 20
-9694.276
 30
-802.273
 70
    32
  0
VERTEX
  8
E60LXLIFT
 62
1
 10
4247.550
 20
-9690.691
 30
-802.273
 70
    32
  0
VERTEX
  8
E60LXLIFT
 62
1
 10
4256.957
 20
-9683.846
 30
-802.263
 70
    32
  0
VERTEX
  8
E60LXLIFT
 62
1
 10
4253.340
 20
-9679.495
 30
-802.263
 70
    32
  0
VERTEX
  8
E60LXLIFT
 62
1
 10
4285.683
 20
-9656.305
 30
-802.227
 70
    32
  0
VERTEX
  8
E60LXLIFT
 62
1
 10
4279.733
 20
-9652.153
 30
-802.229
 70
    32
  0
VERTEX
  8
E60LXLIFT
 62
1
 10
4273.020
 20
-9646.103
 30
-802.231
 70
    32
  0
VERTEX
  8
E60LXLIFT
 62
1
 10
4271.494
 20
-9641.354
 30
-802.235
 70
    32
  0
VERTEX
  8
E60LXLIFT
 62
1
 10
4256.592
 20
-9627.613
 30
-802.269
 70
    32
  0
VERTEX
  8
E60LXLIFT
 62
1
 10
4239.444
 20
-9593.765
 30
-802.338
 70
    32
  0
VERTEX
  8
E60LXLIFT
 62
1
 10
4232.182
 20
-9573.431
 30
-802.377
 70
    32
  0
VERTEX
  8
E60LXLIFT
 62
1
 10
4223.937
 20
-9561.779
 30
-802.403
 70
    32
  0
VERTEX
  8
E60LXLIFT
 62
1
 10
4212.439
 20
-9540.340
 30
-802.447
 70
    32
  0
VERTEX
  8
E60LXLIFT
 62
1
 10
4202.228
 20
-9526.518
 30
-802.500
 70
    32
  0
VERTEX
  8
E60LXLIFT
 62
1
 10
4191.308
 20
-9515.355
 30
-802.564
 70
    32
  0
VERTEX
  8
E60LXLIFT
 62
1
 10
4171.958
 20
-9504.329
 30
-802.670
 70
    32
  0
VERTEX
  8
E60LXLIFT
 62
1
 10
4161.642
 20
-9502.561
 30
-802.700
 70
    32
  0
VERTEX
  8
E60LXLIFT
 62
1
 10
4150.913
 20
-9503.568
 30
-802.712
 70
    32
  0
VERTEX
  8
E60LXLIFT
 62
1
 10
4135.007
 20
-9500.434
 30
-802.760
 70
    32
  0
VERTEX
  8
E60LXLIFT
 62
1
 10
4134.565
 20
-9513.535
 30
-802.674
 70
    32
  0
VERTEX
  8
E60LXLIFT
 62
1
 10
4135.354
 20
-9514.640
 30
-802.666
 70
    32
  0
VERTEX
  8
E60LXLIFT
 62
1
 10
4137.476
 20
-9525.918
 30
-802.618
 70
    32
  0
VERTEX
  8
E60LXLIFT
 62
1
 10
4146.523
 20
-9543.587
 30
-802.537
 70
    32
  0
VERTEX
  8
E60LXLIFT
 62
1
 10
4159.912
 20
-9579.446
 30
-802.425
 70
    32
  0
VERTEX
  8
E60LXLIFT
 62
1
 10
4170.419
 20
-9595.974
 30
-802.389
 70
    32
  0
VERTEX
  8
E60LXLIFT
 62
1
 10
4194.143
 20
-9622.794
 30
-802.327
 70
    32
  0
VERTEX
  8
E60LXLIFT
 62
1
 10
4230.366
 20
-9676.281
 30
-802.279
 70
    32
  0
VERTEX
  8
E60LXLIFT
 62
1
 10
4231.204
 20
-9687.390
 30
-802.284
 70
    32
  0
VERTEX
  8
E60LXLIFT
 62
1
 10
4232.530
 20
-9694.644
 30
-802.287
 70
    32
  0
VERTEX
  8
E60LXLIFT
 62
1
 10
4235.787
 20
-9699.249
 30
-802.287
 70
    32
  0
VERTEX
  8
E60LXLIFT
 62
1
 10
4236.689
 20
-9703.577
 30
-802.288
 70
    32
  0
VERTEX
  8
E60LXLIFT
 62
1
 10
4239.627
 20
-9706.358
 30
-802.287
 70
    32
  0
VERTEX
  8
E60LXLIFT
 62
1
 10
4244.574
 20
-9719.916
 30
-802.291
 70
    32
  0
VERTEX
  8
E60LXLIFT
 62
1
 10
4245.036
 20
-9734.919
 30
-802.298
 70
    32
  0
VERTEX
  8
E60LXLIFT
 62
1
 10
4248.971
 20
-9743.688
 30
-802.300
 70
    32
  0
VERTEX
  8
E60LXLIFT
 62
1
 10
4249.913
 20
-9750.363
 30
-802.303
 70
    32
  0
VERTEX
  8
E60LXLIFT
 62
1
 10
4252.713
 20
-9784.547
 30
-802.318
 70
    32
  0
VERTEX
  8
E60LXLIFT
 62
1
 10
4242.946
 20
-9793.938
 30
-802.331
 70
    32
  0
VERTEX
  8
E60LXLIFT
 62
1
 10
4244.424
 20
-9804.120
 30
-802.335
 70
    32
  0
VERTEX
  8
E60LXLIFT
 62
1
 10
4248.796
 20
-9809.233
 30
-802.334
 70
    32
  0
VERTEX
  8
E60LXLIFT
 62
1
 10
4249.356
 20
-9814.451
 30
-802.336
 70
    32
  0
VERTEX
  8
E60LXLIFT
 62
1
 10
4263.593
 20
-9824.354
 30
-802.386
 70
    32
  0
VERTEX
  8
E60LXLIFT
 62
1
 10
4266.881
 20
-9830.989
 30
-802.406
 70
    32
  0
VERTEX
  8
E60LXLIFT
 62
1
 10
4269.804
 20
-9830.541
 30
-802.411
 70
    32
  0
SEQEND
  8
E60LXLIFT
  0
POINT
  8
E60LXLIFT
 62
1
 10
4248.328
 20
-9659.249
 30
-814.247
  0
POINT
  8
E60LXLIFT
 62
1
 10
4298.439
 20
-9647.818
 30
-955.306
  0
LINE
  8
E60LXLIFT
 62
8
 10
4248.328
 20
-9659.249
 30
-814.247
 11
4298.439
 21
-9647.818
 31
-955.306
  0
POLYLINE
  8
E60LXLIFT
 62
1
 66
     1
 70
     9
  0
VERTEX
  8
E60LXLIFT
 62
1
 10
2702.240
 20
-7971.390
 30
-710.000
 70
    32
  0
VERTEX
  8
E60LXLIFT
 62
1
 10
2686.902
 20
-7984.861
 30
-710.000
 70
    32
  0
VERTEX
  8
E60LXLIFT
 62
1
 10
2694.092
 20
-7994.879
 30
-710.000
 70
    32
  0
VERTEX
  8
E60LXLIFT
 62
1
 10
2711.179
 20
-8012.973
 30
-710.000
 70
    32
  0
VERTEX
  8
E60LXLIFT
 62
1
 10
2714.975
 20
-8013.121
 30
-710.000
 70
    32
  0
VERTEX
  8
E60LXLIFT
 62
1
 10
2722.505
 20
-8019.613
 30
-710.000
 70
    32
  0
VERTEX
  8
E60LXLIFT
 62
1
 10
2729.398
 20
-8034.357
 30
-710.000
 70
    32
  0
VERTEX
  8
E60LXLIFT
 62
1
 10
2747.095
 20
-8048.732
 30
-710.000
 70
    32
  0
VERTEX
  8
E60LXLIFT
 62
1
 10
2756.878
 20
-8042.941
 30
-710.000
 70
    32
  0
VERTEX
  8
E60LXLIFT
 62
1
 10
2753.345
 20
-8039.733
 30
-710.000
 70
    32
  0
VERTEX
  8
E60LXLIFT
 62
1
 10
2737.104
 20
-8019.390
 30
-710.000
 70
    32
  0
VERTEX
  8
E60LXLIFT
 62
1
 10
2730.607
 20
-8008.054
 30
-710.000
 70
    32
  0
VERTEX
  8
E60LXLIFT
 62
1
 10
2725.097
 20
-8003.804
 30
-710.000
 70
    32
  0
VERTEX
  8
E60LXLIFT
 62
1
 10
2720.627
 20
-7997.577
 30
-710.000
 70
    32
  0
VERTEX
  8
E60LXLIFT
 62
1
 10
2721.161
 20
-7994.322
 30
-710.000
 70
    32
  0
VERTEX
  8
E60LXLIFT
 62
1
 10
2717.259
 20
-7983.174
 30
-710.000
 70
    32
  0
VERTEX
  8
E60LXLIFT
 62
1
 10
2711.131
 20
-7979.778
 30
-710.000
 70
    32
  0
VERTEX
  8
E60LXLIFT
 62
1
 10
2707.217
 20
-7978.895
 30
-710.000
 70
    32
  0
SEQEND
  8
E60LXLIFT
  0
POLYLINE
  8
E60LXLIFT
 62
2
 66
     1
 70
     9
  0
VERTEX
  8
E60LXLIFT
 62
2
 10
2702.435
 20
-7971.661
 30
-707.000
 70
    32
  0
VERTEX
  8
E60LXLIFT
 62
2
 10
2686.978
 20
-7984.397
 30
-707.000
 70
    32
  0
VERTEX
  8
E60LXLIFT
 62
2
 10
2692.114
 20
-7993.838
 30
-707.000
 70
    32
  0
VERTEX
  8
E60LXLIFT
 62
2
 10
2691.775
 20
-7997.363
 30
-707.000
 70
    32
  0
VERTEX
  8
E60LXLIFT
 62
2
 10
2689.847
 20
-8000.388
 30
-707.000
 70
    32
  0
VERTEX
  8
E60LXLIFT
 62
2
 10
2690.243
 20
-8003.796
 30
-707.000
 70
    32
  0
VERTEX
  8
E60LXLIFT
 62
2
 10
2698.024
 20
-8017.493
 30
-707.000
 70
    32
  0
VERTEX
  8
E60LXLIFT
 62
2
 10
2704.228
 20
-8020.424
 30
-707.000
 70
    32
  0
VERTEX
  8
E60LXLIFT
 62
2
 10
2711.583
 20
-8019.248
 30
-707.000
 70
    32
  0
VERTEX
  8
E60LXLIFT
 62
2
 10
2717.418
 20
-8014.239
 30
-707.000
 70
    32
  0
VERTEX
  8
E60LXLIFT
 62
2
 10
2729.509
 20
-8032.227
 30
-707.000
 70
    32
  0
VERTEX
  8
E60LXLIFT
 62
2
 10
2739.371
 20
-8041.968
 30
-707.000
 70
    32
  0
VERTEX
  8
E60LXLIFT
 62
2
 10
2746.067
 20
-8040.444
 30
-707.000
 70
    32
  0
VERTEX
  8
E60LXLIFT
 62
2
 10
2748.841
 20
-8035.171
 30
-707.000
 70
    32
  0
VERTEX
  8
E60LXLIFT
 62
2
 10
2736.258
 20
-8021.639
 30
-707.000
 70
    32
  0
VERTEX
  8
E60LXLIFT
 62
2
 10
2728.290
 20
-8010.538
 30
-707.000
 70
    32
  0
VERTEX
  8
E60LXLIFT
 62
2
 10
2721.884
 20
-8004.469
 30
-707.000
 70
    32
  0
VERTEX
  8
E60LXLIFT
 62
2
 10
2714.297
 20
-7991.043
 30
-707.000
 70
    32
  0
VERTEX
  8
E60LXLIFT
 62
2
 10
2714.172
 20
-7987.441
 30
-707.000
 70
    32
  0
SEQEND
  8
E60LXLIFT
  0
POLYLINE
  8
E60LXLIFT
 62
3
 66
     1
 70
     9
  0
VERTEX
  8
E60LXLIFT
 62
3
 10
2703.120
 20
-7971.044
 30
-704.000
 70
    32
  0
VERTEX
  8
E60LXLIFT
 62
3
 10
2686.760
 20
-7984.268
 30
-704.000
 70
    32
  0
VERTEX
  8
E60LXLIFT
 62
3
 10
2692.953
 20
-7995.435
 30
-704.000
 70
    32
  0
VERTEX
  8
E60LXLIFT
 62
3
 10
2706.981
 20
-8011.805
 30
-704.000
 70
    32
  0
VERTEX
  8
E60LXLIFT
 62
3
 10
2712.367
 20
-8014.548
 30
-704.000
 70
    32
  0
VERTEX
  8
E60LXLIFT
 62
3
 10
2720.824
 20
-8011.099
 30
-704.000
 70
    32
  0
VERTEX
  8
E60LXLIFT
 62
3
 10
2721.085
 20
-8008.290
 30
-704.000
 70
    32
  0
VERTEX
  8
E60LXLIFT
 62
3
 10
2719.974
 20
-8002.934
 30
-704.000
 70
    32
  0
VERTEX
  8
E60LXLIFT
 62
3
 10
2715.057
 20
-7994.498
 30
-704.000
 70
    32
  0
VERTEX
  8
E60LXLIFT
 62
3
 10
2712.024
 20
-7986.305
 30
-704.000
 70
    32
  0
VERTEX
  8
E60LXLIFT
 62
3
 10
2706.646
 20
-7978.655
 30
-704.000
 70
    32
  0
VERTEX
  8
E60LXLIFT
 62
3
 10
2704.631
 20
-7973.150
 30
-704.000
 70
    32
  0
SEQEND
  8
E60LXLIFT
  0
POLYLINE
  8
E60LXLIFT
 62
4
 66
     1
 70
     9
  0
VERTEX
  8
E60LXLIFT
 62
4
 10
2703.174
 20
-7971.119
 30
-701.000
 70
    32
  0
VERTEX
  8
E60LXLIFT
 62
4
 10
2687.437
 20
-7983.782
 30
-701.000
 70
    32
  0
VERTEX
  8
E60LXLIFT
 62
4
 10
2693.266
 20
-7995.553
 30
-701.000
 70
    32
  0
VERTEX
  8
E60LXLIFT
 62
4
 10
2705.576
 20
-8013.497
 30
-701.000
 70
    32
  0
VERTEX
  8
E60LXLIFT
 62
4
 10
2712.057
 20
-8015.227
 30
-701.000
 70
    32
  0
VERTEX
  8
E60LXLIFT
 62
4
 10
2717.775
 20
-8013.515
 30
-701.000
 70
    32
  0
VERTEX
  8
E60LXLIFT
 62
4
 10
2720.328
 20
-8010.885
 30
-701.000
 70
    32
  0
VERTEX
  8
E60LXLIFT
 62
4
 10
2720.615
 20
-8009.539
 30
-701.000
 70
    32
  0
VERTEX
  8
E60LXLIFT
 62
4
 10
2716.419
 20
-8001.155
 30
-701.000
 70
    32
  0
VERTEX
  8
E60LXLIFT
 62
4
 10
2712.745
 20
-7998.892
 30
-701.000
 70
    32
  0
VERTEX
  8
E60LXLIFT
 62
4
 10
2710.178
 20
-7992.302
 30
-701.000
 70
    32
  0
VERTEX
  8
E60LXLIFT
 62
4
 10
2710.187
 20
-7987.395
 30
-701.000
 70
    32
  0
VERTEX
  8
E60LXLIFT
 62
4
 10
2707.834
 20
-7980.309
 30
-701.000
 70
    32
  0
SEQEND
  8
E60LXLIFT
  0
POLYLINE
  8
E60LXLIFT
 62
5
 66
     1
 70
     9
  0
VERTEX
  8
E60LXLIFT
 62
5
 10
2701.896
 20
-7972.036
 30
-698.000
 70
    32
  0
VERTEX
  8
E60LXLIFT
 62
5
 10
2687.437
 20
-7983.782
 30
-698.000
 70
    32
  0
VERTEX
  8
E60LXLIFT
 62
5
 10
2692.265
 20
-7995.587
 30
-698.000
 70
    32
  0
VERTEX
  8
E60LXLIFT
 62
5
 10
2702.723
 20
-8012.695
 30
-698.000
 70
    32
  0
VERTEX
  8
E60LXLIFT
 62
5
 10
2705.742
 20
-8015.315
 30
-698.000
 70
    32
  0
VERTEX
  8
E60LXLIFT
 62
5
 10
2711.803
 20
-8016.777
 30
-698.000
 70
    32
  0
VERTEX
  8
E60LXLIFT
 62
5
 10
2720.107
 20
-8012.639
 30
-698.000
 70
    32
  0
VERTEX
  8
E60LXLIFT
 62
5
 10
2715.163
 20
-8001.943
 30
-698.000
 70
    32
  0
VERTEX
  8
E60LXLIFT
 62
5
 10
2712.977
 20
-8001.119
 30
-698.000
 70
    32
  0
VERTEX
  8
E60LXLIFT
 62
5
 10
2707.889
 20
-7992.920
 30
-698.000
 70
    32
  0
VERTEX
  8
E60LXLIFT
 62
5
 10
2706.323
 20
-7978.203
 30
-698.000
 70
    32
  0
VERTEX
  8
E60LXLIFT
 62
5
 10
2703.627
 20
-7976.035
 30
-698.000
 70
    32
  0
SEQEND
  8
E60LXLIFT
  0
POLYLINE
  8
E60LXLIFT
 62
6
 66
     1
 70
     9
  0
VERTEX
  8
E60LXLIFT
 62
6
 10
2701.553
 20
-7972.510
 30
-695.000
 70
    32
  0
VERTEX
  8
E60LXLIFT
 62
6
 10
2687.512
 20
-7983.728
 30
-695.000
 70
    32
  0
VERTEX
  8
E60LXLIFT
 62
6
 10
2693.034
 20
-8001.417
 30
-695.000
 70
    32
  0
VERTEX
  8
E60LXLIFT
 62
6
 10
2700.833
 20
-8013.711
 30
-695.000
 70
    32
  0
VERTEX
  8
E60LXLIFT
 62
6
 10
2710.461
 20
-8018.081
 30
-695.000
 70
    32
  0
VERTEX
  8
E60LXLIFT
 62
6
 10
2718.376
 20
-8013.084
 30
-695.000
 70
    32
  0
VERTEX
  8
E60LXLIFT
 62
6
 10
2718.037
 20
-8010.707
 30
-695.000
 70
    32
  0
VERTEX
  8
E60LXLIFT
 62
6
 10
2713.035
 20
-8002.787
 30
-695.000
 70
    32
  0
VERTEX
  8
E60LXLIFT
 62
6
 10
2711.140
 20
-8002.209
 30
-695.000
 70
    32
  0
VERTEX
  8
E60LXLIFT
 62
6
 10
2704.426
 20
-7989.365
 30
-695.000
 70
    32
  0
VERTEX
  8
E60LXLIFT
 62
6
 10
2705.167
 20
-7984.844
 30
-695.000
 70
    32
  0
VERTEX
  8
E60LXLIFT
 62
6
 10
2703.953
 20
-7977.283
 30
-695.000
 70
    32
  0
SEQEND
  8
E60LXLIFT
  0
POLYLINE
  8
E60LXLIFT
 62
7
 66
     1
 70
     9
  0
VERTEX
  8
E60LXLIFT
 62
7
 10
2717.841
 20
-8013.115
 30
-692.000
 70
    32
  0
VERTEX
  8
E60LXLIFT
 62
7
 10
2708.672
 20
-8002.055
 30
-692.000
 70
    32
  0
VERTEX
  8
E60LXLIFT
 62
7
 10
2705.285
 20
-7995.051
 30
-692.000
 70
    32
  0
VERTEX
  8
E60LXLIFT
 62
7
 10
2701.771
 20
-7984.445
 30
-692.000
 70
    32
  0
VERTEX
  8
E60LXLIFT
 62
7
 10
2701.554
 20
-7975.575
 30
-692.000
 70
    32
  0
VERTEX
  8
E60LXLIFT
 62
7
 10
2700.735
 20
-7973.291
 30
-692.000
 70
    32
  0
VERTEX
  8
E60LXLIFT
 62
7
 10
2686.783
 20
-7984.126
 30
-692.000
 70
    32
  0
VERTEX
  8
E60LXLIFT
 62
7
 10
2689.276
 20
-7989.311
 30
-692.000
 70
    32
  0
VERTEX
  8
E60LXLIFT
 62
7
 10
2692.461
 20
-7993.178
 30
-692.000
 70
    32
  0
VERTEX
  8
E60LXLIFT
 62
7
 10
2690.388
 20
-8000.000
 30
-692.000
 70
    32
  0
VERTEX
  8
E60LXLIFT
 62
7
 10
2699.065
 20
-8015.515
 30
-692.000
 70
    32
  0
VERTEX
  8
E60LXLIFT
 62
7
 10
2704.804
 20
-8018.370
 30
-692.000
 70
    32
  0
VERTEX
  8
E60LXLIFT
 62
7
 10
2709.182
 20
-8019.330
 30
-692.000
 70
    32
  0
SEQEND
  8
E60LXLIFT
  0
POLYLINE
  8
E60LXLIFT
 62
8
 66
     1
 70
     9
  0
VERTEX
  8
E60LXLIFT
 62
8
 10
2716.335
 20
-8015.016
 30
-689.000
 70
    32
  0
VERTEX
  8
E60LXLIFT
 62
8
 10
2704.397
 20
-7996.098
 30
-689.000
 70
    32
  0
VERTEX
  8
E60LXLIFT
 62
8
 10
2700.731
 20
-7986.422
 30
-689.000
 70
    32
  0
VERTEX
  8
E60LXLIFT
 62
8
 10
2699.306
 20
-7974.727
 30
-689.000
 70
    32
  0
VERTEX
  8
E60LXLIFT
 62
8
 10
2687.984
 20
-7984.085
 30
-689.000
 70
    32
  0
VERTEX
  8
E60LXLIFT
 62
8
 10
2692.274
 20
-7995.774
 30
-689.000
 70
    32
  0
VERTEX
  8
E60LXLIFT
 62
8
 10
2689.652
 20
-8000.118
 30
-689.000
 70
    32
  0
VERTEX
  8
E60LXLIFT
 62
8
 10
2689.854
 20
-8003.255
 30
-689.000
 70
    32
  0
VERTEX
  8
E60LXLIFT
 62
8
 10
2697.830
 20
-8017.222
 30
-689.000
 70
    32
  0
VERTEX
  8
E60LXLIFT
 62
8
 10
2704.228
 20
-8020.424
 30
-689.000
 70
    32
  0
VERTEX
  8
E60LXLIFT
 62
8
 10
2711.389
 20
-8018.977
 30
-689.000
 70
    32
  0
SEQEND
  8
E60LXLIFT
  0
POLYLINE
  8
E60LXLIFT
 62
11
 66
     1
 70
     9
  0
VERTEX
  8
E60LXLIFT
 62
11
 10
2715.718
 20
-8015.869
 30
-686.000
 70
    32
  0
VERTEX
  8
E60LXLIFT
 62
11
 10
2702.849
 20
-7996.799
 30
-686.000
 70
    32
  0
VERTEX
  8
E60LXLIFT
 62
11
 10
2699.184
 20
-7987.122
 30
-686.000
 70
    32
  0
VERTEX
  8
E60LXLIFT
 62
11
 10
2696.524
 20
-7977.134
 30
-686.000
 70
    32
  0
VERTEX
  8
E60LXLIFT
 62
11
 10
2688.060
 20
-7983.620
 30
-686.000
 70
    32
  0
VERTEX
  8
E60LXLIFT
 62
11
 10
2691.733
 20
-7996.162
 30
-686.000
 70
    32
  0
VERTEX
  8
E60LXLIFT
 62
11
 10
2687.877
 20
-8002.213
 30
-686.000
 70
    32
  0
VERTEX
  8
E60LXLIFT
 62
11
 10
2696.519
 20
-8019.394
 30
-686.000
 70
    32
  0
VERTEX
  8
E60LXLIFT
 62
11
 10
2704.388
 20
-8022.361
 30
-686.000
 70
    32
  0
SEQEND
  8
E60LXLIFT
  0
POLYLINE
  8
E60LXLIFT
 62
2
 66
     1
 70
     9
  0
VERTEX
  8
E60LXLIFT
 62
2
 10
2702.114
 20
-7996.916
 30
-683.000
 70
    32
  0
VERTEX
  8
E60LXLIFT
 62
2
 10
2694.016
 20
-7995.344
 30
-683.000
 70
    32
  0
VERTEX
  8
E60LXLIFT
 62
2
 10
2691.810
 20
-7995.697
 30
-683.000
 70
    32
  0
VERTEX
  8
E60LXLIFT
 62
2
 10
2687.606
 20
-8002.407
 30
-683.000
 70
    32
  0
VERTEX
  8
E60LXLIFT
 62
2
 10
2688.044
 20
-8007.016
 30
-683.000
 70
    32
  0
VERTEX
  8
E60LXLIFT
 62
2
 10
2695.166
 20
-8020.365
 30
-683.000
 70
    32
  0
VERTEX
  8
E60LXLIFT
 62
2
 10
2702.807
 20
-8024.727
 30
-683.000
 70
    32
  0
VERTEX
  8
E60LXLIFT
 62
2
 10
2714.483
 20
-8017.576
 30
-683.000
 70
    32
  0
VERTEX
  8
E60LXLIFT
 62
2
 10
2714.518
 20
-8015.911
 30
-683.000
 70
    32
  0
VERTEX
  8
E60LXLIFT
 62
2
 10
2712.768
 20
-8013.474
 30
-683.000
 70
    32
  0
SEQEND
  8
E60LXLIFT
  0
POLYLINE
  8
E60LXLIFT
 62
3
 66
     1
 70
     9
  0
VERTEX
  8
E60LXLIFT
 62
3
 10
2700.220
 20
-7998.276
 30
-680.000
 70
    32
  0
VERTEX
  8
E60LXLIFT
 62
3
 10
2692.739
 20
-7995.851
 30
-680.000
 70
    32
  0
VERTEX
  8
E60LXLIFT
 62
3
 10
2690.034
 20
-7997.793
 30
-680.000
 70
    32
  0
VERTEX
  8
E60LXLIFT
 62
3
 10
2686.108
 20
-8007.174
 30
-680.000
 70
    32
  0
VERTEX
  8
E60LXLIFT
 62
3
 10
2694.896
 20
-8020.559
 30
-680.000
 70
    32
  0
VERTEX
  8
E60LXLIFT
 62
3
 10
2700.600
 20
-8025.080
 30
-680.000
 70
    32
  0
VERTEX
  8
E60LXLIFT
 62
3
 10
2704.861
 20
-8025.304
 30
-680.000
 70
    32
  0
VERTEX
  8
E60LXLIFT
 62
3
 10
2712.665
 20
-8018.471
 30
-680.000
 70
    32
  0
VERTEX
  8
E60LXLIFT
 62
3
 10
2712.658
 20
-8015.604
 30
-680.000
 70
    32
  0
VERTEX
  8
E60LXLIFT
 62
3
 10
2709.278
 20
-8011.467
 30
-680.000
 70
    32
  0
SEQEND
  8
E60LXLIFT
  0
POLYLINE
  8
E60LXLIFT
 62
4
 66
     1
 70
     9
  0
VERTEX
  8
E60LXLIFT
 62
4
 10
2699.062
 20
-7999.331
 30
-677.000
 70
    32
  0
VERTEX
  8
E60LXLIFT
 62
4
 10
2692.215
 20
-7997.103
 30
-677.000
 70
    32
  0
VERTEX
  8
E60LXLIFT
 62
4
 10
2690.747
 20
-7997.106
 30
-677.000
 70
    32
  0
VERTEX
  8
E60LXLIFT
 62
4
 10
2686.173
 20
-8007.112
 30
-677.000
 70
    32
  0
VERTEX
  8
E60LXLIFT
 62
4
 10
2692.532
 20
-8019.774
 30
-677.000
 70
    32
  0
VERTEX
  8
E60LXLIFT
 62
4
 10
2699.071
 20
-8025.375
 30
-677.000
 70
    32
  0
VERTEX
  8
E60LXLIFT
 62
4
 10
2703.317
 20
-8026.318
 30
-677.000
 70
    32
  0
VERTEX
  8
E60LXLIFT
 62
4
 10
2708.543
 20
-8022.777
 30
-677.000
 70
    32
  0
VERTEX
  8
E60LXLIFT
 62
4
 10
2712.003
 20
-8018.823
 30
-677.000
 70
    32
  0
VERTEX
  8
E60LXLIFT
 62
4
 10
2712.060
 20
-8017.732
 30
-677.000
 70
    32
  0
VERTEX
  8
E60LXLIFT
 62
4
 10
2709.590
 20
-8013.413
 30
-677.000
 70
    32
  0
SEQEND
  8
E60LXLIFT
  0
POLYLINE
  8
E60LXLIFT
 62
5
 66
     1
 70
     9
  0
VERTEX
  8
E60LXLIFT
 62
5
 10
2698.490
 20
-8000.582
 30
-674.000
 70
    32
  0
VERTEX
  8
E60LXLIFT
 62
5
 10
2691.145
 20
-7997.661
 30
-674.000
 70
    32
  0
VERTEX
  8
E60LXLIFT
 62
5
 10
2687.845
 20
-8002.130
 30
-674.000
 70
    32
  0
VERTEX
  8
E60LXLIFT
 62
5
 10
2686.471
 20
-8007.528
 30
-674.000
 70
    32
  0
VERTEX
  8
E60LXLIFT
 62
5
 10
2686.842
 20
-8012.724
 30
-674.000
 70
    32
  0
VERTEX
  8
E60LXLIFT
 62
5
 10
2691.402
 20
-8019.955
 30
-674.000
 70
    32
  0
VERTEX
  8
E60LXLIFT
 62
5
 10
2699.153
 20
-8026.366
 30
-674.000
 70
    32
  0
VERTEX
  8
E60LXLIFT
 62
5
 10
2703.893
 20
-8026.535
 30
-674.000
 70
    32
  0
VERTEX
  8
E60LXLIFT
 62
5
 10
2710.188
 20
-8022.437
 30
-674.000
 70
    32
  0
VERTEX
  8
E60LXLIFT
 62
5
 10
2711.847
 20
-8019.776
 30
-674.000
 70
    32
  0
VERTEX
  8
E60LXLIFT
 62
5
 10
2709.654
 20
-8015.257
 30
-674.000
 70
    32
  0
SEQEND
  8
E60LXLIFT
  0
POLYLINE
  8
E60LXLIFT
 62
6
 66
     1
 70
     9
  0
VERTEX
  8
E60LXLIFT
 62
6
 10
2697.183
 20
-8001.100
 30
-671.000
 70
    32
  0
VERTEX
  8
E60LXLIFT
 62
6
 10
2690.950
 20
-7998.851
 30
-671.000
 70
    32
  0
VERTEX
  8
E60LXLIFT
 62
6
 10
2689.404
 20
-7999.330
 30
-671.000
 70
    32
  0
VERTEX
  8
E60LXLIFT
 62
6
 10
2685.484
 20
-8009.077
 30
-671.000
 70
    32
  0
VERTEX
  8
E60LXLIFT
 62
6
 10
2686.288
 20
-8013.122
 30
-671.000
 70
    32
  0
VERTEX
  8
E60LXLIFT
 62
6
 10
2695.080
 20
-8023.617
 30
-671.000
 70
    32
  0
VERTEX
  8
E60LXLIFT
 62
6
 10
2701.811
 20
-8026.559
 30
-671.000
 70
    32
  0
VERTEX
  8
E60LXLIFT
 62
6
 10
2704.586
 20
-8026.038
 30
-671.000
 70
    32
  0
VERTEX
  8
E60LXLIFT
 62
6
 10
2710.959
 20
-8021.463
 30
-671.000
 70
    32
  0
VERTEX
  8
E60LXLIFT
 62
6
 10
2710.237
 20
-8018.410
 30
-671.000
 70
    32
  0
VERTEX
  8
E60LXLIFT
 62
6
 10
2707.096
 20
-8015.203
 30
-671.000
 70
    32
  0
VERTEX
  8
E60LXLIFT
 62
6
 10
2699.013
 20
-8003.358
 30
-671.000
 70
    32
  0
SEQEND
  8
E60LXLIFT
  0
POLYLINE
  8
E60LXLIFT
 62
7
 66
     1
 70
     9
  0
VERTEX
  8
E60LXLIFT
 62
7
 10
2696.710
 20
-8002.490
 30
-668.000
 70
    32
  0
VERTEX
  8
E60LXLIFT
 62
7
 10
2689.802
 20
-7999.885
 30
-668.000
 70
    32
  0
VERTEX
  8
E60LXLIFT
 62
7
 10
2687.451
 20
-8003.043
 30
-668.000
 70
    32
  0
VERTEX
  8
E60LXLIFT
 62
7
 10
2685.722
 20
-8009.117
 30
-668.000
 70
    32
  0
VERTEX
  8
E60LXLIFT
 62
7
 10
2685.491
 20
-8012.013
 30
-668.000
 70
    32
  0
VERTEX
  8
E60LXLIFT
 62
7
 10
2686.789
 20
-8015.283
 30
-668.000
 70
    32
  0
VERTEX
  8
E60LXLIFT
 62
7
 10
2695.537
 20
-8016.357
 30
-668.000
 70
    32
  0
VERTEX
  8
E60LXLIFT
 62
7
 10
2699.003
 20
-8022.062
 30
-668.000
 70
    32
  0
VERTEX
  8
E60LXLIFT
 62
7
 10
2701.409
 20
-8024.537
 30
-668.000
 70
    32
  0
VERTEX
  8
E60LXLIFT
 62
7
 10
2709.275
 20
-8022.042
 30
-668.000
 70
    32
  0
VERTEX
  8
E60LXLIFT
 62
7
 10
2708.756
 20
-8020.734
 30
-668.000
 70
    32
  0
VERTEX
  8
E60LXLIFT
 62
7
 10
2706.108
 20
-8016.752
 30
-668.000
 70
    32
  0
VERTEX
  8
E60LXLIFT
 62
7
 10
2701.072
 20
-8009.443
 30
-668.000
 70
    32
  0
SEQEND
  8
E60LXLIFT
  0
POLYLINE
  8
E60LXLIFT
 62
8
 66
     1
 70
     9
  0
VERTEX
  8
E60LXLIFT
 62
8
 10
2697.233
 20
-8005.265
 30
-665.000
 70
    32
  0
VERTEX
  8
E60LXLIFT
 62
8
 10
2695.147
 20
-8003.822
 30
-665.000
 70
    32
  0
VERTEX
  8
E60LXLIFT
 62
8
 10
2690.425
 20
-8002.800
 30
-665.000
 70
    32
  0
VERTEX
  8
E60LXLIFT
 62
8
 10
2688.542
 20
-8003.101
 30
-665.000
 70
    32
  0
VERTEX
  8
E60LXLIFT
 62
8
 10
2687.117
 20
-8004.333
 30
-665.000
 70
    32
  0
VERTEX
  8
E60LXLIFT
 62
8
 10
2686.159
 20
-8009.433
 30
-665.000
 70
    32
  0
VERTEX
  8
E60LXLIFT
 62
8
 10
2690.196
 20
-8013.888
 30
-665.000
 70
    32
  0
VERTEX
  8
E60LXLIFT
 62
8
 10
2698.014
 20
-8015.419
 30
-665.000
 70
    32
  0
VERTEX
  8
E60LXLIFT
 62
8
 10
2700.334
 20
-8015.435
 30
-665.000
 70
    32
  0
VERTEX
  8
E60LXLIFT
 62
8
 10
2699.643
 20
-8009.208
 30
-665.000
 70
    32
  0
SEQEND
  8
E60LXLIFT
  0
POLYLINE
  8
E60LXLIFT
 62
11
 66
     1
 70
     9
  0
VERTEX
  8
E60LXLIFT
 62
11
 10
2693.485
 20
-8005.015
 30
-662.000
 70
    32
  0
VERTEX
  8
E60LXLIFT
 62
11
 10
2688.706
 20
-8005.084
 30
-662.000
 70
    32
  0
VERTEX
  8
E60LXLIFT
 62
11
 10
2686.844
 20
-8006.000
 30
-662.000
 70
    32
  0
VERTEX
  8
E60LXLIFT
 62
11
 10
2686.535
 20
-8009.373
 30
-662.000
 70
    32
  0
VERTEX
  8
E60LXLIFT
 62
11
 10
2690.434
 20
-8013.927
 30
-662.000
 70
    32
  0
VERTEX
  8
E60LXLIFT
 62
11
 10
2697.551
 20
-8013.020
 30
-662.000
 70
    32
  0
VERTEX
  8
E60LXLIFT
 62
11
 10
2697.366
 20
-8010.422
 30
-662.000
 70
    32
  0
SEQEND
  8
E60LXLIFT
  0
POLYLINE
  8
E60LXLIFT
 62
1
 66
     1
 70
     9
  0
VERTEX
  8
E60LXLIFT
 62
1
 10
2690.144
 20
-8007.203
 30
-657.000
 70
    32
  0
VERTEX
  8
E60LXLIFT
 62
1
 10
2688.324
 20
-8006.956
 30
-657.000
 70
    32
  0
VERTEX
  8
E60LXLIFT
 62
1
 10
2686.268
 20
-8008.797
 30
-657.000
 70
    32
  0
VERTEX
  8
E60LXLIFT
 62
1
 10
2689.702
 20
-8012.818
 30
-657.000
 70
    32
  0
VERTEX
  8
E60LXLIFT
 62
1
 10
2693.416
 20
-8011.888
 30
-657.000
 70
    32
  0
SEQEND
  8
E60LXLIFT
  0
ENDSEC
  0
EOF
