999
********************************
999
*   DXF File - Entities Only   *
999
*        3D Data Format        *
999
*     Output from ENVISAGE     *
999
*     31-Dec-2007 14:47:41     *
999
********************************
  0
SECTION 
  2
HEADER
  9
$ACADVER
  1
AC1009
  9
$EXTMIN
 10
-290000.000
 20
-250000.000
 30
-4000.000
  9
$EXTMAX
 10
320000.000
 20
160000.000
 30
6000.000
  0
ENDSEC
  0
SECTION
  2
ENTITIES
  0
POLYLINE
  8
E63LALIFT
 62
7
 66
     1
 70
     9
  0
VERTEX
  8
E63LALIFT
 62
7
 10
4739.207
 20
-9427.750
 30
-1097.000
 70
    32
  0
VERTEX
  8
E63LALIFT
 62
7
 10
4730.677
 20
-9419.488
 30
-1097.000
 70
    32
  0
VERTEX
  8
E63LALIFT
 62
7
 10
4728.717
 20
-9414.710
 30
-1097.000
 70
    32
  0
VERTEX
  8
E63LALIFT
 62
7
 10
4709.057
 20
-9393.874
 30
-1097.000
 70
    32
  0
VERTEX
  8
E63LALIFT
 62
7
 10
4704.305
 20
-9386.014
 30
-1097.000
 70
    32
  0
VERTEX
  8
E63LALIFT
 62
7
 10
4699.512
 20
-9381.233
 30
-1097.000
 70
    32
  0
VERTEX
  8
E63LALIFT
 62
7
 10
4696.261
 20
-9358.558
 30
-1097.000
 70
    32
  0
VERTEX
  8
E63LALIFT
 62
7
 10
4697.696
 20
-9343.355
 30
-1097.000
 70
    32
  0
VERTEX
  8
E63LALIFT
 62
7
 10
4695.304
 20
-9334.101
 30
-1097.000
 70
    32
  0
VERTEX
  8
E63LALIFT
 62
7
 10
4710.036
 20
-9331.307
 30
-1097.000
 70
    32
  0
VERTEX
  8
E63LALIFT
 62
7
 10
4719.653
 20
-9339.865
 30
-1097.000
 70
    32
  0
VERTEX
  8
E63LALIFT
 62
7
 10
4720.545
 20
-9378.418
 30
-1097.000
 70
    32
  0
VERTEX
  8
E63LALIFT
 62
7
 10
4723.020
 20
-9386.740
 30
-1097.000
 70
    32
  0
VERTEX
  8
E63LALIFT
 62
7
 10
4739.377
 20
-9413.797
 30
-1097.000
 70
    32
  0
VERTEX
  8
E63LALIFT
 62
7
 10
4748.498
 20
-9423.915
 30
-1097.000
 70
    32
  0
SEQEND
  8
E63LALIFT
  0
POLYLINE
  8
E63LALIFT
 62
2
 66
     1
 70
     9
  0
VERTEX
  8
E63LALIFT
 62
2
 10
3426.308
 20
-8659.426
 30
-1046.487
 70
    32
  0
VERTEX
  8
E63LALIFT
 62
2
 10
3422.484
 20
-8649.602
 30
-1044.859
 70
    32
  0
VERTEX
  8
E63LALIFT
 62
2
 10
3422.680
 20
-8642.966
 30
-1043.834
 70
    32
  0
VERTEX
  8
E63LALIFT
 62
2
 10
3422.536
 20
-8642.105
 30
-1043.699
 70
    32
  0
VERTEX
  8
E63LALIFT
 62
2
 10
3429.064
 20
-8638.100
 30
-1042.516
 70
    32
  0
VERTEX
  8
E63LALIFT
 62
2
 10
3429.711
 20
-8635.764
 30
-1042.142
 70
    32
  0
VERTEX
  8
E63LALIFT
 62
2
 10
3430.838
 20
-8631.449
 30
-1041.453
 70
    32
  0
VERTEX
  8
E63LALIFT
 62
2
 10
3432.451
 20
-8622.180
 30
-1040.000
 70
    32
  0
VERTEX
  8
E63LALIFT
 62
2
 10
3437.422
 20
-8620.018
 30
-1040.000
 70
    32
  0
VERTEX
  8
E63LALIFT
 62
2
 10
3438.198
 20
-8619.419
 30
-1040.000
 70
    32
  0
VERTEX
  8
E63LALIFT
 62
2
 10
3440.597
 20
-8614.097
 30
-1040.000
 70
    32
  0
VERTEX
  8
E63LALIFT
 62
2
 10
3441.096
 20
-8609.732
 30
-1040.000
 70
    32
  0
VERTEX
  8
E63LALIFT
 62
2
 10
3444.734
 20
-8596.526
 30
-1040.000
 70
    32
  0
VERTEX
  8
E63LALIFT
 62
2
 10
3444.811
 20
-8596.131
 30
-1040.000
 70
    32
  0
VERTEX
  8
E63LALIFT
 62
2
 10
3441.215
 20
-8587.968
 30
-1040.000
 70
    32
  0
VERTEX
  8
E63LALIFT
 62
2
 10
3441.288
 20
-8587.088
 30
-1040.000
 70
    32
  0
VERTEX
  8
E63LALIFT
 62
2
 10
3430.439
 20
-8580.628
 30
-1040.000
 70
    32
  0
VERTEX
  8
E63LALIFT
 62
2
 10
3421.116
 20
-8579.942
 30
-1040.000
 70
    32
  0
VERTEX
  8
E63LALIFT
 62
2
 10
3419.048
 20
-8578.015
 30
-1040.000
 70
    32
  0
VERTEX
  8
E63LALIFT
 62
2
 10
3413.266
 20
-8575.319
 30
-1040.000
 70
    32
  0
VERTEX
  8
E63LALIFT
 62
2
 10
3413.162
 20
-8566.583
 30
-1040.000
 70
    32
  0
VERTEX
  8
E63LALIFT
 62
2
 10
3400.442
 20
-8559.592
 30
-1040.000
 70
    32
  0
VERTEX
  8
E63LALIFT
 62
2
 10
3406.073
 20
-8549.514
 30
-1040.000
 70
    32
  0
VERTEX
  8
E63LALIFT
 62
2
 10
3418.234
 20
-8557.673
 30
-1040.000
 70
    32
  0
VERTEX
  8
E63LALIFT
 62
2
 10
3422.099
 20
-8556.842
 30
-1040.000
 70
    32
  0
VERTEX
  8
E63LALIFT
 62
2
 10
3427.364
 20
-8560.064
 30
-1040.000
 70
    32
  0
VERTEX
  8
E63LALIFT
 62
2
 10
3435.355
 20
-8561.443
 30
-1040.000
 70
    32
  0
VERTEX
  8
E63LALIFT
 62
2
 10
3437.724
 20
-8560.078
 30
-1040.000
 70
    32
  0
VERTEX
  8
E63LALIFT
 62
2
 10
3442.391
 20
-8562.323
 30
-1040.000
 70
    32
  0
VERTEX
  8
E63LALIFT
 62
2
 10
3445.563
 20
-8558.329
 30
-1040.000
 70
    32
  0
VERTEX
  8
E63LALIFT
 62
2
 10
3442.073
 20
-8546.376
 30
-1040.000
 70
    32
  0
VERTEX
  8
E63LALIFT
 62
2
 10
3436.250
 20
-8540.968
 30
-1040.000
 70
    32
  0
VERTEX
  8
E63LALIFT
 62
2
 10
3434.712
 20
-8534.315
 30
-1040.000
 70
    32
  0
VERTEX
  8
E63LALIFT
 62
2
 10
3430.907
 20
-8527.831
 30
-1040.000
 70
    32
  0
VERTEX
  8
E63LALIFT
 62
2
 10
3433.749
 20
-8523.004
 30
-1040.000
 70
    32
  0
VERTEX
  8
E63LALIFT
 62
2
 10
3434.080
 20
-8517.787
 30
-1040.000
 70
    32
  0
VERTEX
  8
E63LALIFT
 62
2
 10
3428.432
 20
-8513.355
 30
-1040.000
 70
    32
  0
VERTEX
  8
E63LALIFT
 62
2
 10
3416.765
 20
-8505.101
 30
-1040.000
 70
    32
  0
VERTEX
  8
E63LALIFT
 62
2
 10
3416.588
 20
-8505.059
 30
-1040.000
 70
    32
  0
VERTEX
  8
E63LALIFT
 62
2
 10
3413.914
 20
-8502.060
 30
-1040.000
 70
    32
  0
VERTEX
  8
E63LALIFT
 62
2
 10
3404.966
 20
-8499.501
 30
-1040.000
 70
    32
  0
VERTEX
  8
E63LALIFT
 62
2
 10
3402.927
 20
-8503.777
 30
-1040.000
 70
    32
  0
VERTEX
  8
E63LALIFT
 62
2
 10
3397.966
 20
-8531.836
 30
-1040.000
 70
    32
  0
VERTEX
  8
E63LALIFT
 62
2
 10
3396.044
 20
-8534.490
 30
-1040.000
 70
    32
  0
VERTEX
  8
E63LALIFT
 62
2
 10
3394.846
 20
-8543.161
 30
-1040.000
 70
    32
  0
VERTEX
  8
E63LALIFT
 62
2
 10
3384.487
 20
-8542.875
 30
-1040.000
 70
    32
  0
VERTEX
  8
E63LALIFT
 62
2
 10
3384.686
 20
-8537.252
 30
-1040.000
 70
    32
  0
VERTEX
  8
E63LALIFT
 62
2
 10
3380.947
 20
-8533.354
 30
-1040.000
 70
    32
  0
VERTEX
  8
E63LALIFT
 62
2
 10
3378.408
 20
-8520.859
 30
-1040.000
 70
    32
  0
VERTEX
  8
E63LALIFT
 62
2
 10
3371.725
 20
-8515.194
 30
-1040.000
 70
    32
  0
VERTEX
  8
E63LALIFT
 62
2
 10
3362.276
 20
-8515.124
 30
-1040.000
 70
    32
  0
VERTEX
  8
E63LALIFT
 62
2
 10
3347.398
 20
-8520.135
 30
-1040.000
 70
    32
  0
VERTEX
  8
E63LALIFT
 62
2
 10
3343.540
 20
-8514.294
 30
-1040.000
 70
    32
  0
VERTEX
  8
E63LALIFT
 62
2
 10
3369.585
 20
-8501.262
 30
-1040.000
 70
    32
  0
VERTEX
  8
E63LALIFT
 62
2
 10
3373.468
 20
-8496.064
 30
-1040.000
 70
    32
  0
VERTEX
  8
E63LALIFT
 62
2
 10
3378.958
 20
-8492.794
 30
-1040.000
 70
    32
  0
VERTEX
  8
E63LALIFT
 62
2
 10
3379.563
 20
-8490.170
 30
-1040.000
 70
    32
  0
VERTEX
  8
E63LALIFT
 62
2
 10
3387.265
 20
-8488.856
 30
-1040.000
 70
    32
  0
VERTEX
  8
E63LALIFT
 62
2
 10
3390.033
 20
-8484.644
 30
-1040.000
 70
    32
  0
VERTEX
  8
E63LALIFT
 62
2
 10
3389.469
 20
-8480.058
 30
-1040.000
 70
    32
  0
VERTEX
  8
E63LALIFT
 62
2
 10
3382.132
 20
-8472.078
 30
-1040.000
 70
    32
  0
VERTEX
  8
E63LALIFT
 62
2
 10
3386.061
 20
-8464.833
 30
-1040.000
 70
    32
  0
VERTEX
  8
E63LALIFT
 62
2
 10
3391.080
 20
-8462.880
 30
-1040.000
 70
    32
  0
VERTEX
  8
E63LALIFT
 62
2
 10
3395.170
 20
-8461.800
 30
-1040.000
 70
    32
  0
VERTEX
  8
E63LALIFT
 62
2
 10
3403.030
 20
-8456.360
 30
-1040.000
 70
    32
  0
VERTEX
  8
E63LALIFT
 62
2
 10
3407.070
 20
-8450.618
 30
-1040.000
 70
    32
  0
VERTEX
  8
E63LALIFT
 62
2
 10
3416.111
 20
-8456.738
 30
-1040.000
 70
    32
  0
VERTEX
  8
E63LALIFT
 62
2
 10
3420.020
 20
-8462.688
 30
-1040.000
 70
    32
  0
VERTEX
  8
E63LALIFT
 62
2
 10
3409.365
 20
-8477.756
 30
-1040.000
 70
    32
  0
VERTEX
  8
E63LALIFT
 62
2
 10
3416.037
 20
-8486.617
 30
-1040.000
 70
    32
  0
VERTEX
  8
E63LALIFT
 62
2
 10
3417.056
 20
-8487.513
 30
-1040.000
 70
    32
  0
VERTEX
  8
E63LALIFT
 62
2
 10
3422.193
 20
-8485.686
 30
-1040.000
 70
    32
  0
VERTEX
  8
E63LALIFT
 62
2
 10
3426.713
 20
-8489.988
 30
-1040.000
 70
    32
  0
VERTEX
  8
E63LALIFT
 62
2
 10
3433.222
 20
-8492.603
 30
-1040.000
 70
    32
  0
VERTEX
  8
E63LALIFT
 62
2
 10
3450.969
 20
-8506.164
 30
-1040.000
 70
    32
  0
VERTEX
  8
E63LALIFT
 62
2
 10
3447.132
 20
-8511.602
 30
-1040.000
 70
    32
  0
VERTEX
  8
E63LALIFT
 62
2
 10
3448.091
 20
-8518.013
 30
-1040.000
 70
    32
  0
VERTEX
  8
E63LALIFT
 62
2
 10
3452.096
 20
-8519.744
 30
-1040.000
 70
    32
  0
VERTEX
  8
E63LALIFT
 62
2
 10
3455.368
 20
-8523.628
 30
-1040.000
 70
    32
  0
VERTEX
  8
E63LALIFT
 62
2
 10
3457.904
 20
-8527.269
 30
-1040.000
 70
    32
  0
VERTEX
  8
E63LALIFT
 62
2
 10
3467.161
 20
-8531.004
 30
-1040.000
 70
    32
  0
VERTEX
  8
E63LALIFT
 62
2
 10
3477.326
 20
-8529.165
 30
-1040.000
 70
    32
  0
VERTEX
  8
E63LALIFT
 62
2
 10
3482.707
 20
-8531.777
 30
-1040.000
 70
    32
  0
VERTEX
  8
E63LALIFT
 62
2
 10
3484.351
 20
-8537.360
 30
-1040.000
 70
    32
  0
VERTEX
  8
E63LALIFT
 62
2
 10
3482.747
 20
-8543.603
 30
-1040.000
 70
    32
  0
VERTEX
  8
E63LALIFT
 62
2
 10
3472.626
 20
-8551.011
 30
-1040.000
 70
    32
  0
VERTEX
  8
E63LALIFT
 62
2
 10
3470.160
 20
-8556.955
 30
-1040.000
 70
    32
  0
VERTEX
  8
E63LALIFT
 62
2
 10
3462.634
 20
-8561.180
 30
-1040.000
 70
    32
  0
VERTEX
  8
E63LALIFT
 62
2
 10
3460.775
 20
-8565.341
 30
-1040.000
 70
    32
  0
VERTEX
  8
E63LALIFT
 62
2
 10
3458.004
 20
-8573.792
 30
-1040.000
 70
    32
  0
VERTEX
  8
E63LALIFT
 62
2
 10
3457.791
 20
-8579.227
 30
-1040.000
 70
    32
  0
VERTEX
  8
E63LALIFT
 62
2
 10
3459.160
 20
-8581.411
 30
-1040.000
 70
    32
  0
VERTEX
  8
E63LALIFT
 62
2
 10
3457.548
 20
-8588.806
 30
-1040.000
 70
    32
  0
VERTEX
  8
E63LALIFT
 62
2
 10
3462.156
 20
-8596.583
 30
-1040.000
 70
    32
  0
VERTEX
  8
E63LALIFT
 62
2
 10
3460.941
 20
-8601.806
 30
-1040.000
 70
    32
  0
VERTEX
  8
E63LALIFT
 62
2
 10
3453.902
 20
-8604.052
 30
-1040.000
 70
    32
  0
VERTEX
  8
E63LALIFT
 62
2
 10
3453.372
 20
-8606.680
 30
-1040.000
 70
    32
  0
VERTEX
  8
E63LALIFT
 62
2
 10
3452.751
 20
-8612.348
 30
-1040.000
 70
    32
  0
VERTEX
  8
E63LALIFT
 62
2
 10
3453.158
 20
-8613.752
 30
-1040.000
 70
    32
  0
VERTEX
  8
E63LALIFT
 62
2
 10
3457.750
 20
-8616.229
 30
-1040.000
 70
    32
  0
VERTEX
  8
E63LALIFT
 62
2
 10
3464.269
 20
-8610.525
 30
-1040.000
 70
    32
  0
VERTEX
  8
E63LALIFT
 62
2
 10
3469.110
 20
-8609.151
 30
-1040.000
 70
    32
  0
VERTEX
  8
E63LALIFT
 62
2
 10
3476.817
 20
-8605.714
 30
-1040.000
 70
    32
  0
VERTEX
  8
E63LALIFT
 62
2
 10
3487.286
 20
-8614.472
 30
-1040.000
 70
    32
  0
VERTEX
  8
E63LALIFT
 62
2
 10
3488.245
 20
-8619.362
 30
-1040.000
 70
    32
  0
VERTEX
  8
E63LALIFT
 62
2
 10
3490.748
 20
-8619.865
 30
-1040.000
 70
    32
  0
VERTEX
  8
E63LALIFT
 62
2
 10
3500.479
 20
-8615.918
 30
-1040.000
 70
    32
  0
VERTEX
  8
E63LALIFT
 62
2
 10
3504.207
 20
-8624.540
 30
-1040.000
 70
    32
  0
VERTEX
  8
E63LALIFT
 62
2
 10
3515.522
 20
-8629.771
 30
-1040.000
 70
    32
  0
VERTEX
  8
E63LALIFT
 62
2
 10
3517.690
 20
-8630.258
 30
-1040.000
 70
    32
  0
VERTEX
  8
E63LALIFT
 62
2
 10
3524.650
 20
-8635.003
 30
-1040.000
 70
    32
  0
VERTEX
  8
E63LALIFT
 62
2
 10
3525.459
 20
-8640.773
 30
-1040.000
 70
    32
  0
VERTEX
  8
E63LALIFT
 62
2
 10
3533.695
 20
-8649.923
 30
-1040.000
 70
    32
  0
VERTEX
  8
E63LALIFT
 62
2
 10
3527.303
 20
-8655.230
 30
-1040.000
 70
    32
  0
VERTEX
  8
E63LALIFT
 62
2
 10
3520.414
 20
-8656.964
 30
-1040.000
 70
    32
  0
VERTEX
  8
E63LALIFT
 62
2
 10
3515.546
 20
-8651.906
 30
-1040.000
 70
    32
  0
VERTEX
  8
E63LALIFT
 62
2
 10
3514.908
 20
-8643.786
 30
-1040.000
 70
    32
  0
VERTEX
  8
E63LALIFT
 62
2
 10
3511.258
 20
-8641.830
 30
-1040.000
 70
    32
  0
VERTEX
  8
E63LALIFT
 62
2
 10
3505.206
 20
-8637.240
 30
-1040.000
 70
    32
  0
VERTEX
  8
E63LALIFT
 62
2
 10
3488.456
 20
-8631.314
 30
-1040.000
 70
    32
  0
VERTEX
  8
E63LALIFT
 62
2
 10
3478.754
 20
-8632.809
 30
-1040.000
 70
    32
  0
VERTEX
  8
E63LALIFT
 62
2
 10
3467.991
 20
-8634.483
 30
-1040.000
 70
    32
  0
VERTEX
  8
E63LALIFT
 62
2
 10
3454.822
 20
-8638.395
 30
-1041.867
 70
    32
  0
VERTEX
  8
E63LALIFT
 62
2
 10
3439.673
 20
-8643.922
 30
-1044.060
 70
    32
  0
VERTEX
  8
E63LALIFT
 62
2
 10
3438.191
 20
-8645.967
 30
-1044.403
 70
    32
  0
VERTEX
  8
E63LALIFT
 62
2
 10
3436.302
 20
-8647.567
 30
-1044.739
 70
    32
  0
VERTEX
  8
E63LALIFT
 62
2
 10
3435.819
 20
-8657.533
 30
-1046.096
 70
    32
  0
SEQEND
  8
E63LALIFT
  0
POLYLINE
  8
E63LALIFT
 62
13
 66
     1
 70
     9
  0
VERTEX
  8
E63LALIFT
 62
13
 10
3419.030
 20
-8562.486
 30
-969.190
 70
    32
  0
VERTEX
  8
E63LALIFT
 62
13
 10
3419.330
 20
-8558.814
 30
-969.679
 70
    32
  0
VERTEX
  8
E63LALIFT
 62
13
 10
3419.790
 20
-8551.925
 30
-970.594
 70
    32
  0
VERTEX
  8
E63LALIFT
 62
13
 10
3420.100
 20
-8547.272
 30
-970.937
 70
    32
  0
VERTEX
  8
E63LALIFT
 62
13
 10
3413.275
 20
-8541.169
 30
-971.159
 70
    32
  0
VERTEX
  8
E63LALIFT
 62
13
 10
3409.328
 20
-8539.392
 30
-971.163
 70
    32
  0
VERTEX
  8
E63LALIFT
 62
13
 10
3390.399
 20
-8530.870
 30
-971.076
 70
    32
  0
VERTEX
  8
E63LALIFT
 62
13
 10
3387.947
 20
-8531.179
 30
-971.027
 70
    32
  0
VERTEX
  8
E63LALIFT
 62
13
 10
3380.177
 20
-8532.157
 30
-971.102
 70
    32
  0
VERTEX
  8
E63LALIFT
 62
13
 10
3378.292
 20
-8530.597
 30
-971.132
 70
    32
  0
VERTEX
  8
E63LALIFT
 62
13
 10
3363.996
 20
-8518.771
 30
-971.358
 70
    32
  0
VERTEX
  8
E63LALIFT
 62
13
 10
3364.796
 20
-8514.682
 30
-971.376
 70
    32
  0
VERTEX
  8
E63LALIFT
 62
13
 10
3365.911
 20
-8508.986
 30
-971.402
 70
    32
  0
VERTEX
  8
E63LALIFT
 62
13
 10
3366.229
 20
-8507.358
 30
-971.402
 70
    32
  0
VERTEX
  8
E63LALIFT
 62
13
 10
3367.098
 20
-8505.562
 30
-971.402
 70
    32
  0
VERTEX
  8
E63LALIFT
 62
13
 10
3368.291
 20
-8503.098
 30
-971.402
 70
    32
  0
VERTEX
  8
E63LALIFT
 62
13
 10
3369.894
 20
-8499.785
 30
-971.402
 70
    32
  0
VERTEX
  8
E63LALIFT
 62
13
 10
3371.458
 20
-8500.112
 30
-971.402
 70
    32
  0
VERTEX
  8
E63LALIFT
 62
13
 10
3382.652
 20
-8502.454
 30
-971.447
 70
    32
  0
VERTEX
  8
E63LALIFT
 62
13
 10
3402.335
 20
-8518.262
 30
-971.552
 70
    32
  0
VERTEX
  8
E63LALIFT
 62
13
 10
3406.013
 20
-8521.113
 30
-971.572
 70
    32
  0
VERTEX
  8
E63LALIFT
 62
13
 10
3414.993
 20
-8528.074
 30
-971.540
 70
    32
  0
VERTEX
  8
E63LALIFT
 62
13
 10
3429.928
 20
-8535.929
 30
-971.575
 70
    32
  0
VERTEX
  8
E63LALIFT
 62
13
 10
3443.452
 20
-8541.361
 30
-971.647
 70
    32
  0
VERTEX
  8
E63LALIFT
 62
13
 10
3444.157
 20
-8541.717
 30
-971.649
 70
    32
  0
VERTEX
  8
E63LALIFT
 62
13
 10
3445.683
 20
-8542.486
 30
-971.669
 70
    32
  0
VERTEX
  8
E63LALIFT
 62
13
 10
3449.914
 20
-8544.620
 30
-971.479
 70
    32
  0
VERTEX
  8
E63LALIFT
 62
13
 10
3452.761
 20
-8546.056
 30
-971.748
 70
    32
  0
VERTEX
  8
E63LALIFT
 62
13
 10
3456.723
 20
-8548.054
 30
-971.762
 70
    32
  0
VERTEX
  8
E63LALIFT
 62
13
 10
3457.931
 20
-8548.663
 30
-971.771
 70
    32
  0
VERTEX
  8
E63LALIFT
 62
13
 10
3459.957
 20
-8551.465
 30
-971.750
 70
    32
  0
VERTEX
  8
E63LALIFT
 62
13
 10
3463.886
 20
-8556.898
 30
-971.646
 70
    32
  0
VERTEX
  8
E63LALIFT
 62
13
 10
3465.367
 20
-8561.418
 30
-971.575
 70
    32
  0
VERTEX
  8
E63LALIFT
 62
13
 10
3469.450
 20
-8566.574
 30
-971.474
 70
    32
  0
VERTEX
  8
E63LALIFT
 62
13
 10
3468.926
 20
-8567.020
 30
-971.472
 70
    32
  0
VERTEX
  8
E63LALIFT
 62
13
 10
3462.130
 20
-8572.802
 30
-971.472
 70
    32
  0
VERTEX
  8
E63LALIFT
 62
13
 10
3461.018
 20
-8573.748
 30
-971.461
 70
    32
  0
VERTEX
  8
E63LALIFT
 62
13
 10
3453.203
 20
-8567.500
 30
-970.976
 70
    32
  0
VERTEX
  8
E63LALIFT
 62
13
 10
3447.266
 20
-8562.754
 30
-970.953
 70
    32
  0
VERTEX
  8
E63LALIFT
 62
13
 10
3442.251
 20
-8563.684
 30
-970.643
 70
    32
  0
VERTEX
  8
E63LALIFT
 62
13
 10
3441.550
 20
-8563.814
 30
-970.604
 70
    32
  0
VERTEX
  8
E63LALIFT
 62
13
 10
3435.322
 20
-8564.969
 30
-969.944
 70
    32
  0
VERTEX
  8
E63LALIFT
 62
13
 10
3426.629
 20
-8571.978
 30
-968.663
 70
    32
  0
SEQEND
  8
E63LALIFT
  0
POLYLINE
  8
E63LALIFT
 62
3
 66
     1
 70
     9
  0
VERTEX
  8
E63LALIFT
 62
3
 10
5421.567
 20
-9679.557
 30
-998.000
 70
    32
  0
VERTEX
  8
E63LALIFT
 62
3
 10
5411.057
 20
-9678.551
 30
-998.000
 70
    32
  0
VERTEX
  8
E63LALIFT
 62
3
 10
5412.097
 20
-9682.681
 30
-998.000
 70
    32
  0
VERTEX
  8
E63LALIFT
 62
3
 10
5412.453
 20
-9688.528
 30
-998.000
 70
    32
  0
VERTEX
  8
E63LALIFT
 62
3
 10
5402.254
 20
-9706.679
 30
-998.000
 70
    32
  0
VERTEX
  8
E63LALIFT
 62
3
 10
5386.461
 20
-9696.697
 30
-998.000
 70
    32
  0
VERTEX
  8
E63LALIFT
 62
3
 10
5385.389
 20
-9697.310
 30
-998.000
 70
    32
  0
VERTEX
  8
E63LALIFT
 62
3
 10
5383.503
 20
-9698.962
 30
-998.000
 70
    32
  0
VERTEX
  8
E63LALIFT
 62
3
 10
5380.780
 20
-9699.478
 30
-998.000
 70
    32
  0
VERTEX
  8
E63LALIFT
 62
3
 10
5377.452
 20
-9698.389
 30
-998.000
 70
    32
  0
VERTEX
  8
E63LALIFT
 62
3
 10
5369.538
 20
-9691.208
 30
-998.000
 70
    32
  0
VERTEX
  8
E63LALIFT
 62
3
 10
5366.888
 20
-9682.380
 30
-998.000
 70
    32
  0
VERTEX
  8
E63LALIFT
 62
3
 10
5359.301
 20
-9678.259
 30
-998.000
 70
    32
  0
VERTEX
  8
E63LALIFT
 62
3
 10
5353.156
 20
-9678.203
 30
-998.000
 70
    32
  0
VERTEX
  8
E63LALIFT
 62
3
 10
5342.407
 20
-9687.821
 30
-998.000
 70
    32
  0
VERTEX
  8
E63LALIFT
 62
3
 10
5336.438
 20
-9696.024
 30
-998.000
 70
    32
  0
VERTEX
  8
E63LALIFT
 62
3
 10
5337.516
 20
-9704.949
 30
-998.000
 70
    32
  0
VERTEX
  8
E63LALIFT
 62
3
 10
5343.613
 20
-9711.471
 30
-998.000
 70
    32
  0
VERTEX
  8
E63LALIFT
 62
3
 10
5349.879
 20
-9713.893
 30
-998.000
 70
    32
  0
VERTEX
  8
E63LALIFT
 62
3
 10
5360.348
 20
-9729.376
 30
-998.000
 70
    32
  0
VERTEX
  8
E63LALIFT
 62
3
 10
5369.486
 20
-9734.964
 30
-998.000
 70
    32
  0
VERTEX
  8
E63LALIFT
 62
3
 10
5370.108
 20
-9736.622
 30
-998.000
 70
    32
  0
VERTEX
  8
E63LALIFT
 62
3
 10
5375.753
 20
-9752.293
 30
-998.000
 70
    32
  0
VERTEX
  8
E63LALIFT
 62
3
 10
5376.738
 20
-9756.717
 30
-998.000
 70
    32
  0
VERTEX
  8
E63LALIFT
 62
3
 10
5372.826
 20
-9763.099
 30
-998.000
 70
    32
  0
VERTEX
  8
E63LALIFT
 62
3
 10
5372.138
 20
-9767.650
 30
-998.000
 70
    32
  0
VERTEX
  8
E63LALIFT
 62
3
 10
5368.909
 20
-9775.387
 30
-998.000
 70
    32
  0
VERTEX
  8
E63LALIFT
 62
3
 10
5376.273
 20
-9780.270
 30
-998.000
 70
    32
  0
VERTEX
  8
E63LALIFT
 62
3
 10
5382.150
 20
-9781.595
 30
-998.000
 70
    32
  0
VERTEX
  8
E63LALIFT
 62
3
 10
5385.268
 20
-9785.936
 30
-998.000
 70
    32
  0
VERTEX
  8
E63LALIFT
 62
3
 10
5389.981
 20
-9787.942
 30
-998.000
 70
    32
  0
VERTEX
  8
E63LALIFT
 62
3
 10
5391.813
 20
-9790.811
 30
-998.000
 70
    32
  0
VERTEX
  8
E63LALIFT
 62
3
 10
5393.063
 20
-9798.704
 30
-998.000
 70
    32
  0
VERTEX
  8
E63LALIFT
 62
3
 10
5395.605
 20
-9803.526
 30
-998.000
 70
    32
  0
VERTEX
  8
E63LALIFT
 62
3
 10
5404.878
 20
-9800.463
 30
-998.000
 70
    32
  0
VERTEX
  8
E63LALIFT
 62
3
 10
5400.916
 20
-9786.893
 30
-998.000
 70
    32
  0
VERTEX
  8
E63LALIFT
 62
3
 10
5400.769
 20
-9783.350
 30
-998.000
 70
    32
  0
VERTEX
  8
E63LALIFT
 62
3
 10
5398.466
 20
-9776.243
 30
-998.000
 70
    32
  0
VERTEX
  8
E63LALIFT
 62
3
 10
5392.611
 20
-9759.848
 30
-998.000
 70
    32
  0
VERTEX
  8
E63LALIFT
 62
3
 10
5389.115
 20
-9740.210
 30
-998.000
 70
    32
  0
VERTEX
  8
E63LALIFT
 62
3
 10
5393.028
 20
-9735.717
 30
-998.000
 70
    32
  0
VERTEX
  8
E63LALIFT
 62
3
 10
5399.026
 20
-9737.544
 30
-998.000
 70
    32
  0
VERTEX
  8
E63LALIFT
 62
3
 10
5402.442
 20
-9739.744
 30
-998.000
 70
    32
  0
VERTEX
  8
E63LALIFT
 62
3
 10
5416.963
 20
-9744.780
 30
-998.000
 70
    32
  0
VERTEX
  8
E63LALIFT
 62
3
 10
5419.287
 20
-9747.355
 30
-998.000
 70
    32
  0
VERTEX
  8
E63LALIFT
 62
3
 10
5426.170
 20
-9759.015
 30
-998.000
 70
    32
  0
VERTEX
  8
E63LALIFT
 62
3
 10
5426.340
 20
-9758.935
 30
-998.000
 70
    32
  0
VERTEX
  8
E63LALIFT
 62
3
 10
5430.122
 20
-9768.479
 30
-998.000
 70
    32
  0
VERTEX
  8
E63LALIFT
 62
3
 10
5441.861
 20
-9768.244
 30
-998.000
 70
    32
  0
VERTEX
  8
E63LALIFT
 62
3
 10
5451.851
 20
-9774.280
 30
-998.000
 70
    32
  0
VERTEX
  8
E63LALIFT
 62
3
 10
5461.651
 20
-9775.246
 30
-998.000
 70
    32
  0
VERTEX
  8
E63LALIFT
 62
3
 10
5461.723
 20
-9775.151
 30
-998.000
 70
    32
  0
VERTEX
  8
E63LALIFT
 62
3
 10
5466.058
 20
-9780.049
 30
-998.000
 70
    32
  0
VERTEX
  8
E63LALIFT
 62
3
 10
5471.323
 20
-9795.683
 30
-998.000
 70
    32
  0
VERTEX
  8
E63LALIFT
 62
3
 10
5475.677
 20
-9797.688
 30
-998.000
 70
    32
  0
VERTEX
  8
E63LALIFT
 62
3
 10
5477.710
 20
-9800.447
 30
-998.000
 70
    32
  0
VERTEX
  8
E63LALIFT
 62
3
 10
5485.333
 20
-9805.330
 30
-998.000
 70
    32
  0
VERTEX
  8
E63LALIFT
 62
3
 10
5493.863
 20
-9799.367
 30
-998.000
 70
    32
  0
VERTEX
  8
E63LALIFT
 62
3
 10
5490.064
 20
-9794.862
 30
-998.000
 70
    32
  0
VERTEX
  8
E63LALIFT
 62
3
 10
5489.954
 20
-9792.749
 30
-998.000
 70
    32
  0
VERTEX
  8
E63LALIFT
 62
3
 10
5496.487
 20
-9774.913
 30
-998.000
 70
    32
  0
VERTEX
  8
E63LALIFT
 62
3
 10
5489.178
 20
-9771.049
 30
-998.000
 70
    32
  0
VERTEX
  8
E63LALIFT
 62
3
 10
5490.172
 20
-9768.755
 30
-998.000
 70
    32
  0
VERTEX
  8
E63LALIFT
 62
3
 10
5481.264
 20
-9765.623
 30
-998.000
 70
    32
  0
VERTEX
  8
E63LALIFT
 62
3
 10
5476.949
 20
-9759.683
 30
-998.000
 70
    32
  0
VERTEX
  8
E63LALIFT
 62
3
 10
5468.779
 20
-9760.457
 30
-998.000
 70
    32
  0
VERTEX
  8
E63LALIFT
 62
3
 10
5463.043
 20
-9758.160
 30
-998.000
 70
    32
  0
VERTEX
  8
E63LALIFT
 62
3
 10
5450.773
 20
-9750.183
 30
-998.000
 70
    32
  0
VERTEX
  8
E63LALIFT
 62
3
 10
5444.516
 20
-9740.698
 30
-998.000
 70
    32
  0
VERTEX
  8
E63LALIFT
 62
3
 10
5434.797
 20
-9738.228
 30
-998.000
 70
    32
  0
VERTEX
  8
E63LALIFT
 62
3
 10
5431.665
 20
-9729.876
 30
-998.000
 70
    32
  0
VERTEX
  8
E63LALIFT
 62
3
 10
5431.508
 20
-9720.143
 30
-998.000
 70
    32
  0
VERTEX
  8
E63LALIFT
 62
3
 10
5423.009
 20
-9705.893
 30
-998.000
 70
    32
  0
VERTEX
  8
E63LALIFT
 62
3
 10
5422.300
 20
-9690.743
 30
-998.000
 70
    32
  0
SEQEND
  8
E63LALIFT
  0
POLYLINE
  8
E63LALIFT
 62
13
 66
     1
 70
     8
  0
VERTEX
  8
E63LALIFT
 62
13
 10
5300.978
 20
-9675.281
 30
-1012.000
 70
    32
  0
VERTEX
  8
E63LALIFT
 62
13
 10
5292.407
 20
-9671.751
 30
-1012.000
 70
    32
  0
VERTEX
  8
E63LALIFT
 62
13
 10
5341.378
 20
-9656.107
 30
-1012.000
 70
    32
  0
VERTEX
  8
E63LALIFT
 62
13
 10
5337.634
 20
-9666.465
 30
-1012.000
 70
    32
  0
VERTEX
  8
E63LALIFT
 62
13
 10
5338.143
 20
-9668.968
 30
-1012.000
 70
    32
  0
VERTEX
  8
E63LALIFT
 62
13
 10
5341.935
 20
-9676.225
 30
-1012.000
 70
    32
  0
VERTEX
  8
E63LALIFT
 62
13
 10
5344.151
 20
-9680.465
 30
-1012.000
 70
    32
  0
VERTEX
  8
E63LALIFT
 62
13
 10
5359.140
 20
-9687.863
 30
-1012.000
 70
    32
  0
VERTEX
  8
E63LALIFT
 62
13
 10
5372.762
 20
-9676.302
 30
-1012.000
 70
    32
  0
VERTEX
  8
E63LALIFT
 62
13
 10
5391.798
 20
-9672.995
 30
-1012.000
 70
    32
  0
VERTEX
  8
E63LALIFT
 62
13
 10
5395.956
 20
-9695.069
 30
-1012.000
 70
    32
  0
VERTEX
  8
E63LALIFT
 62
13
 10
5387.832
 20
-9699.350
 30
-1012.000
 70
    32
  0
VERTEX
  8
E63LALIFT
 62
13
 10
5360.344
 20
-9698.966
 30
-1012.000
 70
    32
  0
VERTEX
  8
E63LALIFT
 62
13
 10
5347.832
 20
-9701.195
 30
-1012.000
 70
    32
  0
VERTEX
  8
E63LALIFT
 62
13
 10
5351.589
 20
-9713.358
 30
-1012.000
 70
    32
  0
VERTEX
  8
E63LALIFT
 62
13
 10
5347.890
 20
-9733.087
 30
-1012.000
 70
    32
  0
VERTEX
  8
E63LALIFT
 62
13
 10
5348.677
 20
-9748.843
 30
-1012.000
 70
    32
  0
VERTEX
  8
E63LALIFT
 62
13
 10
5343.198
 20
-9751.099
 30
-1012.000
 70
    32
  0
VERTEX
  8
E63LALIFT
 62
13
 10
5342.435
 20
-9761.404
 30
-1012.000
 70
    32
  0
VERTEX
  8
E63LALIFT
 62
13
 10
5334.568
 20
-9761.533
 30
-1012.000
 70
    32
  0
VERTEX
  8
E63LALIFT
 62
13
 10
5326.427
 20
-9755.203
 30
-1012.000
 70
    32
  0
VERTEX
  8
E63LALIFT
 62
13
 10
5324.451
 20
-9738.251
 30
-1012.000
 70
    32
  0
VERTEX
  8
E63LALIFT
 62
13
 10
5331.103
 20
-9728.710
 30
-1012.000
 70
    32
  0
VERTEX
  8
E63LALIFT
 62
13
 10
5328.766
 20
-9709.712
 30
-1012.000
 70
    32
  0
VERTEX
  8
E63LALIFT
 62
13
 10
5326.062
 20
-9707.715
 30
-1012.000
 70
    32
  0
VERTEX
  8
E63LALIFT
 62
13
 10
5317.870
 20
-9696.629
 30
-1012.000
 70
    32
  0
VERTEX
  8
E63LALIFT
 62
13
 10
5308.639
 20
-9688.027
 30
-1012.000
 70
    32
  0
VERTEX
  8
E63LALIFT
 62
13
 10
5308.022
 20
-9686.557
 30
-1012.000
 70
    32
  0
VERTEX
  8
E63LALIFT
 62
13
 10
5294.480
 20
-9697.280
 30
-1012.000
 70
    32
  0
VERTEX
  8
E63LALIFT
 62
13
 10
5287.880
 20
-9704.291
 30
-1012.000
 70
    32
  0
VERTEX
  8
E63LALIFT
 62
13
 10
5284.758
 20
-9718.717
 30
-1012.000
 70
    32
  0
VERTEX
  8
E63LALIFT
 62
13
 10
5276.459
 20
-9725.954
 30
-1012.000
 70
    32
  0
VERTEX
  8
E63LALIFT
 62
13
 10
5270.629
 20
-9744.396
 30
-1012.000
 70
    32
  0
VERTEX
  8
E63LALIFT
 62
13
 10
5264.832
 20
-9738.794
 30
-1012.000
 70
    32
  0
VERTEX
  8
E63LALIFT
 62
13
 10
5268.596
 20
-9730.467
 30
-1012.000
 70
    32
  0
VERTEX
  8
E63LALIFT
 62
13
 10
5265.637
 20
-9725.110
 30
-1012.000
 70
    32
  0
VERTEX
  8
E63LALIFT
 62
13
 10
5260.096
 20
-9719.291
 30
-1012.000
 70
    32
  0
VERTEX
  8
E63LALIFT
 62
13
 10
5262.423
 20
-9714.123
 30
-1012.000
 70
    32
  0
VERTEX
  8
E63LALIFT
 62
13
 10
5260.919
 20
-9706.660
 30
-1012.000
 70
    32
  0
VERTEX
  8
E63LALIFT
 62
13
 10
5256.407
 20
-9697.736
 30
-1012.000
 70
    32
  0
VERTEX
  8
E63LALIFT
 62
13
 10
5270.990
 20
-9694.601
 30
-1012.000
 70
    32
  0
VERTEX
  8
E63LALIFT
 62
13
 10
5281.165
 20
-9696.801
 30
-1012.000
 70
    32
  0
VERTEX
  8
E63LALIFT
 62
13
 10
5288.001
 20
-9689.609
 30
-1012.000
 70
    32
  0
VERTEX
  8
E63LALIFT
 62
13
 10
5297.214
 20
-9681.691
 30
-1012.000
 70
    32
  0
VERTEX
  8
E63LALIFT
 62
13
 10
5300.978
 20
-9675.281
 30
-1012.000
 70
    32
  0
SEQEND
  8
E63LALIFT
  0
POLYLINE
  8
E63LALIFT
 62
13
 66
     1
 70
     9
  0
VERTEX
  8
E63LALIFT
 62
13
 10
5295.281
 20
-9694.349
 30
-1020.000
 70
    32
  0
VERTEX
  8
E63LALIFT
 62
13
 10
5289.485
 20
-9688.938
 30
-1020.000
 70
    32
  0
VERTEX
  8
E63LALIFT
 62
13
 10
5278.187
 20
-9698.962
 30
-1020.000
 70
    32
  0
VERTEX
  8
E63LALIFT
 62
13
 10
5265.237
 20
-9706.981
 30
-1020.000
 70
    32
  0
VERTEX
  8
E63LALIFT
 62
13
 10
5262.376
 20
-9718.393
 30
-1020.000
 70
    32
  0
VERTEX
  8
E63LALIFT
 62
13
 10
5277.167
 20
-9723.304
 30
-1020.000
 70
    32
  0
VERTEX
  8
E63LALIFT
 62
13
 10
5284.395
 20
-9707.907
 30
-1020.000
 70
    32
  0
SEQEND
  8
E63LALIFT
  0
POLYLINE
  8
E63LALIFT
 62
5
 66
     1
 70
     9
  0
VERTEX
  8
E63LALIFT
 62
5
 10
4996.863
 20
-9577.046
 30
-1105.000
 70
    32
  0
VERTEX
  8
E63LALIFT
 62
5
 10
4990.216
 20
-9546.197
 30
-1105.000
 70
    32
  0
VERTEX
  8
E63LALIFT
 62
5
 10
4999.630
 20
-9543.883
 30
-1105.000
 70
    32
  0
VERTEX
  8
E63LALIFT
 62
5
 10
5005.505
 20
-9545.491
 30
-1105.000
 70
    32
  0
VERTEX
  8
E63LALIFT
 62
5
 10
5009.816
 20
-9542.198
 30
-1105.000
 70
    32
  0
VERTEX
  8
E63LALIFT
 62
5
 10
5007.269
 20
-9527.041
 30
-1105.000
 70
    32
  0
VERTEX
  8
E63LALIFT
 62
5
 10
5002.920
 20
-9522.303
 30
-1105.000
 70
    32
  0
VERTEX
  8
E63LALIFT
 62
5
 10
4997.839
 20
-9518.195
 30
-1105.000
 70
    32
  0
VERTEX
  8
E63LALIFT
 62
5
 10
4988.658
 20
-9523.244
 30
-1105.000
 70
    32
  0
VERTEX
  8
E63LALIFT
 62
5
 10
4971.865
 20
-9525.454
 30
-1105.000
 70
    32
  0
VERTEX
  8
E63LALIFT
 62
5
 10
4961.773
 20
-9518.691
 30
-1105.000
 70
    32
  0
VERTEX
  8
E63LALIFT
 62
5
 10
4952.048
 20
-9512.456
 30
-1105.000
 70
    32
  0
VERTEX
  8
E63LALIFT
 62
5
 10
4926.156
 20
-9489.693
 30
-1105.000
 70
    32
  0
VERTEX
  8
E63LALIFT
 62
5
 10
4919.717
 20
-9498.544
 30
-1105.000
 70
    32
  0
VERTEX
  8
E63LALIFT
 62
5
 10
4941.508
 20
-9519.931
 30
-1105.000
 70
    32
  0
VERTEX
  8
E63LALIFT
 62
5
 10
4959.028
 20
-9533.897
 30
-1105.000
 70
    32
  0
VERTEX
  8
E63LALIFT
 62
5
 10
4962.763
 20
-9537.538
 30
-1105.000
 70
    32
  0
VERTEX
  8
E63LALIFT
 62
5
 10
4977.133
 20
-9547.585
 30
-1105.000
 70
    32
  0
VERTEX
  8
E63LALIFT
 62
5
 10
4979.745
 20
-9550.341
 30
-1105.000
 70
    32
  0
VERTEX
  8
E63LALIFT
 62
5
 10
4986.327
 20
-9577.305
 30
-1105.000
 70
    32
  0
SEQEND
  8
E63LALIFT
  0
POLYLINE
  8
E63LALIFT
 62
3
 66
     1
 70
     9
  0
VERTEX
  8
E63LALIFT
 62
3
 10
5280.206
 20
-9618.222
 30
-1052.713
 70
    32
  0
VERTEX
  8
E63LALIFT
 62
3
 10
5270.901
 20
-9605.301
 30
-1051.238
 70
    32
  0
VERTEX
  8
E63LALIFT
 62
3
 10
5255.349
 20
-9585.886
 30
-1051.238
 70
    32
  0
VERTEX
  8
E63LALIFT
 62
3
 10
5251.468
 20
-9569.182
 30
-1051.200
 70
    32
  0
VERTEX
  8
E63LALIFT
 62
3
 10
5250.708
 20
-9566.904
 30
-1051.200
 70
    32
  0
VERTEX
  8
E63LALIFT
 62
3
 10
5248.806
 20
-9559.915
 30
-1051.200
 70
    32
  0
VERTEX
  8
E63LALIFT
 62
3
 10
5244.943
 20
-9549.735
 30
-1051.200
 70
    32
  0
VERTEX
  8
E63LALIFT
 62
3
 10
5245.134
 20
-9550.238
 30
-1051.200
 70
    32
  0
VERTEX
  8
E63LALIFT
 62
3
 10
5240.841
 20
-9539.710
 30
-1051.200
 70
    32
  0
VERTEX
  8
E63LALIFT
 62
3
 10
5251.170
 20
-9535.475
 30
-1051.200
 70
    32
  0
VERTEX
  8
E63LALIFT
 62
3
 10
5256.181
 20
-9547.255
 30
-1051.200
 70
    32
  0
VERTEX
  8
E63LALIFT
 62
3
 10
5256.554
 20
-9548.094
 30
-1051.200
 70
    32
  0
VERTEX
  8
E63LALIFT
 62
3
 10
5259.593
 20
-9547.595
 30
-1051.200
 70
    32
  0
VERTEX
  8
E63LALIFT
 62
3
 10
5262.195
 20
-9540.501
 30
-1051.200
 70
    32
  0
VERTEX
  8
E63LALIFT
 62
3
 10
5264.161
 20
-9540.775
 30
-1051.200
 70
    32
  0
VERTEX
  8
E63LALIFT
 62
3
 10
5264.563
 20
-9537.870
 30
-1051.200
 70
    32
  0
VERTEX
  8
E63LALIFT
 62
3
 10
5262.884
 20
-9531.715
 30
-1051.200
 70
    32
  0
VERTEX
  8
E63LALIFT
 62
3
 10
5270.074
 20
-9519.956
 30
-1051.200
 70
    32
  0
VERTEX
  8
E63LALIFT
 62
3
 10
5270.664
 20
-9517.015
 30
-1051.200
 70
    32
  0
VERTEX
  8
E63LALIFT
 62
3
 10
5268.263
 20
-9510.751
 30
-1051.200
 70
    32
  0
VERTEX
  8
E63LALIFT
 62
3
 10
5262.672
 20
-9499.175
 30
-1051.200
 70
    32
  0
VERTEX
  8
E63LALIFT
 62
3
 10
5271.147
 20
-9489.092
 30
-1051.200
 70
    32
  0
VERTEX
  8
E63LALIFT
 62
3
 10
5270.699
 20
-9468.123
 30
-1051.200
 70
    32
  0
VERTEX
  8
E63LALIFT
 62
3
 10
5270.567
 20
-9464.400
 30
-1051.200
 70
    32
  0
VERTEX
  8
E63LALIFT
 62
3
 10
5274.796
 20
-9459.157
 30
-1051.200
 70
    32
  0
VERTEX
  8
E63LALIFT
 62
3
 10
5280.693
 20
-9455.954
 30
-1051.200
 70
    32
  0
VERTEX
  8
E63LALIFT
 62
3
 10
5284.286
 20
-9450.886
 30
-1051.200
 70
    32
  0
VERTEX
  8
E63LALIFT
 62
3
 10
5292.808
 20
-9452.083
 30
-1051.200
 70
    32
  0
VERTEX
  8
E63LALIFT
 62
3
 10
5292.613
 20
-9460.126
 30
-1051.200
 70
    32
  0
VERTEX
  8
E63LALIFT
 62
3
 10
5294.588
 20
-9469.472
 30
-1051.200
 70
    32
  0
VERTEX
  8
E63LALIFT
 62
3
 10
5290.719
 20
-9472.693
 30
-1051.200
 70
    32
  0
VERTEX
  8
E63LALIFT
 62
3
 10
5287.630
 20
-9483.018
 30
-1051.200
 70
    32
  0
VERTEX
  8
E63LALIFT
 62
3
 10
5289.781
 20
-9486.394
 30
-1051.200
 70
    32
  0
VERTEX
  8
E63LALIFT
 62
3
 10
5287.785
 20
-9492.259
 30
-1051.200
 70
    32
  0
VERTEX
  8
E63LALIFT
 62
3
 10
5281.204
 20
-9515.035
 30
-1051.200
 70
    32
  0
VERTEX
  8
E63LALIFT
 62
3
 10
5279.673
 20
-9518.434
 30
-1051.200
 70
    32
  0
VERTEX
  8
E63LALIFT
 62
3
 10
5282.638
 20
-9521.932
 30
-1051.200
 70
    32
  0
VERTEX
  8
E63LALIFT
 62
3
 10
5279.806
 20
-9529.584
 30
-1051.200
 70
    32
  0
VERTEX
  8
E63LALIFT
 62
3
 10
5281.934
 20
-9534.576
 30
-1051.200
 70
    32
  0
VERTEX
  8
E63LALIFT
 62
3
 10
5280.647
 20
-9542.904
 30
-1051.200
 70
    32
  0
VERTEX
  8
E63LALIFT
 62
3
 10
5275.364
 20
-9547.254
 30
-1051.200
 70
    32
  0
VERTEX
  8
E63LALIFT
 62
3
 10
5273.090
 20
-9547.571
 30
-1051.200
 70
    32
  0
VERTEX
  8
E63LALIFT
 62
3
 10
5272.869
 20
-9549.375
 30
-1051.200
 70
    32
  0
VERTEX
  8
E63LALIFT
 62
3
 10
5268.997
 20
-9555.784
 30
-1051.200
 70
    32
  0
VERTEX
  8
E63LALIFT
 62
3
 10
5266.144
 20
-9576.007
 30
-1051.238
 70
    32
  0
VERTEX
  8
E63LALIFT
 62
3
 10
5296.873
 20
-9617.823
 30
-1054.425
 70
    32
  0
SEQEND
  8
E63LALIFT
  0
POLYLINE
  8
E63LALIFT
 62
11
 66
     1
 70
     9
  0
VERTEX
  8
E63LALIFT
 62
11
 10
5310.844
 20
-9489.983
 30
-1106.000
 70
    32
  0
VERTEX
  8
E63LALIFT
 62
11
 10
5316.368
 20
-9481.671
 30
-1106.000
 70
    32
  0
VERTEX
  8
E63LALIFT
 62
11
 10
5315.847
 20
-9478.891
 30
-1106.000
 70
    32
  0
VERTEX
  8
E63LALIFT
 62
11
 10
5317.473
 20
-9472.285
 30
-1106.000
 70
    32
  0
VERTEX
  8
E63LALIFT
 62
11
 10
5311.692
 20
-9467.397
 30
-1106.000
 70
    32
  0
VERTEX
  8
E63LALIFT
 62
11
 10
5307.119
 20
-9466.941
 30
-1106.000
 70
    32
  0
VERTEX
  8
E63LALIFT
 62
11
 10
5305.108
 20
-9471.326
 30
-1106.000
 70
    32
  0
VERTEX
  8
E63LALIFT
 62
11
 10
5299.409
 20
-9473.915
 30
-1106.000
 70
    32
  0
SEQEND
  8
E63LALIFT
  0
POLYLINE
  8
E63LALIFT
 62
11
 66
     1
 70
     9
  0
VERTEX
  8
E63LALIFT
 62
11
 10
5286.231
 20
-9470.225
 30
-1106.000
 70
    32
  0
VERTEX
  8
E63LALIFT
 62
11
 10
5288.988
 20
-9481.704
 30
-1106.000
 70
    32
  0
VERTEX
  8
E63LALIFT
 62
11
 10
5292.870
 20
-9489.506
 30
-1106.000
 70
    32
  0
VERTEX
  8
E63LALIFT
 62
11
 10
5291.563
 20
-9494.996
 30
-1106.000
 70
    32
  0
VERTEX
  8
E63LALIFT
 62
11
 10
5284.915
 20
-9510.275
 30
-1106.000
 70
    32
  0
VERTEX
  8
E63LALIFT
 62
11
 10
5285.412
 20
-9511.765
 30
-1106.000
 70
    32
  0
VERTEX
  8
E63LALIFT
 62
11
 10
5285.772
 20
-9513.366
 30
-1106.000
 70
    32
  0
VERTEX
  8
E63LALIFT
 62
11
 10
5283.476
 20
-9520.655
 30
-1106.000
 70
    32
  0
VERTEX
  8
E63LALIFT
 62
11
 10
5278.617
 20
-9524.353
 30
-1106.000
 70
    32
  0
VERTEX
  8
E63LALIFT
 62
11
 10
5277.095
 20
-9531.491
 30
-1106.000
 70
    32
  0
VERTEX
  8
E63LALIFT
 62
11
 10
5275.033
 20
-9539.637
 30
-1106.000
 70
    32
  0
VERTEX
  8
E63LALIFT
 62
11
 10
5267.717
 20
-9548.137
 30
-1106.000
 70
    32
  0
VERTEX
  8
E63LALIFT
 62
11
 10
5260.624
 20
-9552.060
 30
-1106.000
 70
    32
  0
VERTEX
  8
E63LALIFT
 62
11
 10
5258.926
 20
-9556.971
 30
-1106.000
 70
    32
  0
VERTEX
  8
E63LALIFT
 62
11
 10
5254.279
 20
-9562.998
 30
-1106.000
 70
    32
  0
VERTEX
  8
E63LALIFT
 62
11
 10
5256.198
 20
-9568.440
 30
-1106.000
 70
    32
  0
VERTEX
  8
E63LALIFT
 62
11
 10
5256.326
 20
-9568.512
 30
-1106.000
 70
    32
  0
VERTEX
  8
E63LALIFT
 62
11
 10
5251.607
 20
-9574.958
 30
-1106.000
 70
    32
  0
VERTEX
  8
E63LALIFT
 62
11
 10
5253.980
 20
-9579.501
 30
-1106.000
 70
    32
  0
VERTEX
  8
E63LALIFT
 62
11
 10
5248.280
 20
-9592.119
 30
-1106.000
 70
    32
  0
VERTEX
  8
E63LALIFT
 62
11
 10
5242.460
 20
-9596.902
 30
-1106.000
 70
    32
  0
VERTEX
  8
E63LALIFT
 62
11
 10
5233.423
 20
-9599.503
 30
-1106.000
 70
    32
  0
VERTEX
  8
E63LALIFT
 62
11
 10
5231.398
 20
-9607.389
 30
-1106.000
 70
    32
  0
VERTEX
  8
E63LALIFT
 62
11
 10
5231.265
 20
-9607.635
 30
-1106.000
 70
    32
  0
VERTEX
  8
E63LALIFT
 62
11
 10
5227.590
 20
-9611.369
 30
-1106.000
 70
    32
  0
VERTEX
  8
E63LALIFT
 62
11
 10
5220.301
 20
-9613.491
 30
-1106.000
 70
    32
  0
VERTEX
  8
E63LALIFT
 62
11
 10
5211.972
 20
-9618.359
 30
-1106.000
 70
    32
  0
VERTEX
  8
E63LALIFT
 62
11
 10
5199.816
 20
-9622.307
 30
-1106.000
 70
    32
  0
VERTEX
  8
E63LALIFT
 62
11
 10
5202.799
 20
-9632.168
 30
-1106.000
 70
    32
  0
VERTEX
  8
E63LALIFT
 62
11
 10
5212.233
 20
-9627.916
 30
-1106.000
 70
    32
  0
VERTEX
  8
E63LALIFT
 62
11
 10
5213.883
 20
-9628.636
 30
-1106.000
 70
    32
  0
VERTEX
  8
E63LALIFT
 62
11
 10
5221.382
 20
-9624.551
 30
-1106.000
 70
    32
  0
VERTEX
  8
E63LALIFT
 62
11
 10
5225.419
 20
-9626.452
 30
-1106.000
 70
    32
  0
VERTEX
  8
E63LALIFT
 62
11
 10
5231.587
 20
-9621.715
 30
-1106.000
 70
    32
  0
VERTEX
  8
E63LALIFT
 62
11
 10
5234.756
 20
-9621.413
 30
-1106.000
 70
    32
  0
VERTEX
  8
E63LALIFT
 62
11
 10
5238.345
 20
-9618.518
 30
-1106.000
 70
    32
  0
VERTEX
  8
E63LALIFT
 62
11
 10
5239.051
 20
-9618.735
 30
-1106.000
 70
    32
  0
VERTEX
  8
E63LALIFT
 62
11
 10
5239.358
 20
-9618.960
 30
-1106.000
 70
    32
  0
VERTEX
  8
E63LALIFT
 62
11
 10
5246.146
 20
-9620.841
 30
-1106.000
 70
    32
  0
VERTEX
  8
E63LALIFT
 62
11
 10
5252.163
 20
-9615.227
 30
-1106.000
 70
    32
  0
VERTEX
  8
E63LALIFT
 62
11
 10
5255.771
 20
-9599.939
 30
-1106.000
 70
    32
  0
VERTEX
  8
E63LALIFT
 62
11
 10
5259.880
 20
-9589.927
 30
-1106.000
 70
    32
  0
VERTEX
  8
E63LALIFT
 62
11
 10
5263.766
 20
-9588.985
 30
-1106.000
 70
    32
  0
VERTEX
  8
E63LALIFT
 62
11
 10
5269.496
 20
-9565.417
 30
-1106.000
 70
    32
  0
VERTEX
  8
E63LALIFT
 62
11
 10
5272.290
 20
-9562.575
 30
-1106.000
 70
    32
  0
VERTEX
  8
E63LALIFT
 62
11
 10
5272.919
 20
-9562.129
 30
-1106.000
 70
    32
  0
VERTEX
  8
E63LALIFT
 62
11
 10
5277.027
 20
-9560.868
 30
-1106.000
 70
    32
  0
VERTEX
  8
E63LALIFT
 62
11
 10
5287.796
 20
-9550.567
 30
-1106.000
 70
    32
  0
VERTEX
  8
E63LALIFT
 62
11
 10
5296.191
 20
-9551.994
 30
-1106.000
 70
    32
  0
VERTEX
  8
E63LALIFT
 62
11
 10
5301.199
 20
-9547.086
 30
-1106.000
 70
    32
  0
VERTEX
  8
E63LALIFT
 62
11
 10
5304.260
 20
-9547.013
 30
-1106.000
 70
    32
  0
VERTEX
  8
E63LALIFT
 62
11
 10
5306.309
 20
-9549.015
 30
-1106.000
 70
    32
  0
VERTEX
  8
E63LALIFT
 62
11
 10
5310.862
 20
-9547.345
 30
-1106.000
 70
    32
  0
VERTEX
  8
E63LALIFT
 62
11
 10
5314.415
 20
-9541.278
 30
-1106.000
 70
    32
  0
VERTEX
  8
E63LALIFT
 62
11
 10
5308.992
 20
-9534.779
 30
-1106.000
 70
    32
  0
VERTEX
  8
E63LALIFT
 62
11
 10
5309.146
 20
-9528.261
 30
-1106.000
 70
    32
  0
VERTEX
  8
E63LALIFT
 62
11
 10
5302.389
 20
-9521.253
 30
-1106.000
 70
    32
  0
VERTEX
  8
E63LALIFT
 62
11
 10
5300.765
 20
-9509.440
 30
-1106.000
 70
    32
  0
VERTEX
  8
E63LALIFT
 62
11
 10
5300.913
 20
-9508.560
 30
-1106.000
 70
    32
  0
VERTEX
  8
E63LALIFT
 62
11
 10
5300.682
 20
-9505.875
 30
-1106.000
 70
    32
  0
VERTEX
  8
E63LALIFT
 62
11
 10
5302.668
 20
-9502.725
 30
-1106.000
 70
    32
  0
VERTEX
  8
E63LALIFT
 62
11
 10
5309.386
 20
-9503.247
 30
-1106.000
 70
    32
  0
SEQEND
  8
E63LALIFT
  0
POLYLINE
  8
E63LALIFT
 62
6
 66
     1
 70
     9
  0
VERTEX
  8
E63LALIFT
 62
6
 10
4444.188
 20
-9476.675
 30
-1098.576
 70
    32
  0
VERTEX
  8
E63LALIFT
 62
6
 10
4446.795
 20
-9461.974
 30
-1097.249
 70
    32
  0
VERTEX
  8
E63LALIFT
 62
6
 10
4449.717
 20
-9454.456
 30
-1096.493
 70
    32
  0
VERTEX
  8
E63LALIFT
 62
6
 10
4450.017
 20
-9453.418
 30
-1096.393
 70
    32
  0
VERTEX
  8
E63LALIFT
 62
6
 10
4456.296
 20
-9446.003
 30
-1095.481
 70
    32
  0
VERTEX
  8
E63LALIFT
 62
6
 10
4463.424
 20
-9437.586
 30
-1094.396
 70
    32
  0
VERTEX
  8
E63LALIFT
 62
6
 10
4463.561
 20
-9437.422
 30
-1094.375
 70
    32
  0
VERTEX
  8
E63LALIFT
 62
6
 10
4464.605
 20
-9436.179
 30
-1093.736
 70
    32
  0
VERTEX
  8
E63LALIFT
 62
6
 10
4468.690
 20
-9431.315
 30
-1092.758
 70
    32
  0
VERTEX
  8
E63LALIFT
 62
6
 10
4474.962
 20
-9417.445
 30
-1090.569
 70
    32
  0
VERTEX
  8
E63LALIFT
 62
6
 10
4478.696
 20
-9415.209
 30
-1089.912
 70
    32
  0
VERTEX
  8
E63LALIFT
 62
6
 10
4484.137
 20
-9407.492
 30
-1088.476
 70
    32
  0
VERTEX
  8
E63LALIFT
 62
6
 10
4491.275
 20
-9399.753
 30
-1086.847
 70
    32
  0
VERTEX
  8
E63LALIFT
 62
6
 10
4492.908
 20
-9398.548
 30
-1086.536
 70
    32
  0
VERTEX
  8
E63LALIFT
 62
6
 10
4493.959
 20
-9399.310
 30
-1086.500
 70
    32
  0
VERTEX
  8
E63LALIFT
 62
6
 10
4501.195
 20
-9404.550
 30
-1087.220
 70
    32
  0
VERTEX
  8
E63LALIFT
 62
6
 10
4512.077
 20
-9394.977
 30
-1086.142
 70
    32
  0
VERTEX
  8
E63LALIFT
 62
6
 10
4520.856
 20
-9379.246
 30
-1084.282
 70
    32
  0
VERTEX
  8
E63LALIFT
 62
6
 10
4524.236
 20
-9373.190
 30
-1083.488
 70
    32
  0
VERTEX
  8
E63LALIFT
 62
6
 10
4521.335
 20
-9362.568
 30
-1082.032
 70
    32
  0
VERTEX
  8
E63LALIFT
 62
6
 10
4517.312
 20
-9361.949
 30
-1081.919
 70
    32
  0
VERTEX
  8
E63LALIFT
 62
6
 10
4514.576
 20
-9361.529
 30
-1081.530
 70
    32
  0
VERTEX
  8
E63LALIFT
 62
6
 10
4513.613
 20
-9364.156
 30
-1082.191
 70
    32
  0
VERTEX
  8
E63LALIFT
 62
6
 10
4509.082
 20
-9376.519
 30
-1083.829
 70
    32
  0
VERTEX
  8
E63LALIFT
 62
6
 10
4505.012
 20
-9387.625
 30
-1085.163
 70
    32
  0
VERTEX
  8
E63LALIFT
 62
6
 10
4500.063
 20
-9391.942
 30
-1085.648
 70
    32
  0
VERTEX
  8
E63LALIFT
 62
6
 10
4495.429
 20
-9388.465
 30
-1085.172
 70
    32
  0
VERTEX
  8
E63LALIFT
 62
6
 10
4494.463
 20
-9387.741
 30
-1085.203
 70
    32
  0
VERTEX
  8
E63LALIFT
 62
6
 10
4496.524
 20
-9380.384
 30
-1084.183
 70
    32
  0
VERTEX
  8
E63LALIFT
 62
6
 10
4498.305
 20
-9374.023
 30
-1083.414
 70
    32
  0
VERTEX
  8
E63LALIFT
 62
6
 10
4498.554
 20
-9373.136
 30
-1083.295
 70
    32
  0
VERTEX
  8
E63LALIFT
 62
6
 10
4500.178
 20
-9367.337
 30
-1081.788
 70
    32
  0
VERTEX
  8
E63LALIFT
 62
6
 10
4497.974
 20
-9363.697
 30
-1080.526
 70
    32
  0
VERTEX
  8
E63LALIFT
 62
6
 10
4497.192
 20
-9362.405
 30
-1080.537
 70
    32
  0
VERTEX
  8
E63LALIFT
 62
6
 10
4501.246
 20
-9353.622
 30
-1080.523
 70
    32
  0
VERTEX
  8
E63LALIFT
 62
6
 10
4500.063
 20
-9352.067
 30
-1080.540
 70
    32
  0
VERTEX
  8
E63LALIFT
 62
6
 10
4499.123
 20
-9350.831
 30
-1080.537
 70
    32
  0
VERTEX
  8
E63LALIFT
 62
6
 10
4498.661
 20
-9346.932
 30
-1080.531
 70
    32
  0
VERTEX
  8
E63LALIFT
 62
6
 10
4501.976
 20
-9344.687
 30
-1080.530
 70
    32
  0
VERTEX
  8
E63LALIFT
 62
6
 10
4497.250
 20
-9337.817
 30
-1080.517
 70
    32
  0
VERTEX
  8
E63LALIFT
 62
6
 10
4504.771
 20
-9329.391
 30
-1080.510
 70
    32
  0
VERTEX
  8
E63LALIFT
 62
6
 10
4511.442
 20
-9324.993
 30
-1080.507
 70
    32
  0
VERTEX
  8
E63LALIFT
 62
6
 10
4512.444
 20
-9324.333
 30
-1080.499
 70
    32
  0
VERTEX
  8
E63LALIFT
 62
6
 10
4522.129
 20
-9325.578
 30
-1080.399
 70
    32
  0
VERTEX
  8
E63LALIFT
 62
6
 10
4527.930
 20
-9332.075
 30
-1080.321
 70
    32
  0
VERTEX
  8
E63LALIFT
 62
6
 10
4530.019
 20
-9341.032
 30
-1080.273
 70
    32
  0
VERTEX
  8
E63LALIFT
 62
6
 10
4532.952
 20
-9350.685
 30
-1080.215
 70
    32
  0
VERTEX
  8
E63LALIFT
 62
6
 10
4533.272
 20
-9351.739
 30
-1080.549
 70
    32
  0
VERTEX
  8
E63LALIFT
 62
6
 10
4533.771
 20
-9352.135
 30
-1080.712
 70
    32
  0
VERTEX
  8
E63LALIFT
 62
6
 10
4539.868
 20
-9356.972
 30
-1081.410
 70
    32
  0
VERTEX
  8
E63LALIFT
 62
6
 10
4537.764
 20
-9369.166
 30
-1083.043
 70
    32
  0
VERTEX
  8
E63LALIFT
 62
6
 10
4535.437
 20
-9378.386
 30
-1084.272
 70
    32
  0
VERTEX
  8
E63LALIFT
 62
6
 10
4533.453
 20
-9382.163
 30
-1084.768
 70
    32
  0
VERTEX
  8
E63LALIFT
 62
6
 10
4528.250
 20
-9392.070
 30
-1085.942
 70
    32
  0
VERTEX
  8
E63LALIFT
 62
6
 10
4514.291
 20
-9405.724
 30
-1087.494
 70
    32
  0
VERTEX
  8
E63LALIFT
 62
6
 10
4506.327
 20
-9410.255
 30
-1087.976
 70
    32
  0
VERTEX
  8
E63LALIFT
 62
6
 10
4512.919
 20
-9423.431
 30
-1089.672
 70
    32
  0
VERTEX
  8
E63LALIFT
 62
6
 10
4511.733
 20
-9426.001
 30
-1089.978
 70
    32
  0
VERTEX
  8
E63LALIFT
 62
6
 10
4507.541
 20
-9429.302
 30
-1090.345
 70
    32
  0
VERTEX
  8
E63LALIFT
 62
6
 10
4505.795
 20
-9437.797
 30
-1091.379
 70
    32
  0
VERTEX
  8
E63LALIFT
 62
6
 10
4504.291
 20
-9439.391
 30
-1091.562
 70
    32
  0
VERTEX
  8
E63LALIFT
 62
6
 10
4497.799
 20
-9439.479
 30
-1091.509
 70
    32
  0
VERTEX
  8
E63LALIFT
 62
6
 10
4493.642
 20
-9442.082
 30
-1091.790
 70
    32
  0
VERTEX
  8
E63LALIFT
 62
6
 10
4488.403
 20
-9441.506
 30
-1091.667
 70
    32
  0
VERTEX
  8
E63LALIFT
 62
6
 10
4488.255
 20
-9441.415
 30
-1091.654
 70
    32
  0
VERTEX
  8
E63LALIFT
 62
6
 10
4480.091
 20
-9436.389
 30
-1092.027
 70
    32
  0
VERTEX
  8
E63LALIFT
 62
6
 10
4475.155
 20
-9439.094
 30
-1092.869
 70
    32
  0
VERTEX
  8
E63LALIFT
 62
6
 10
4472.936
 20
-9441.290
 30
-1093.353
 70
    32
  0
VERTEX
  8
E63LALIFT
 62
6
 10
4471.341
 20
-9443.372
 30
-1093.755
 70
    32
  0
VERTEX
  8
E63LALIFT
 62
6
 10
4469.825
 20
-9445.350
 30
-1094.730
 70
    32
  0
VERTEX
  8
E63LALIFT
 62
6
 10
4465.264
 20
-9451.304
 30
-1095.472
 70
    32
  0
VERTEX
  8
E63LALIFT
 62
6
 10
4458.308
 20
-9460.385
 30
-1096.554
 70
    32
  0
VERTEX
  8
E63LALIFT
 62
6
 10
4455.308
 20
-9465.889
 30
-1097.150
 70
    32
  0
VERTEX
  8
E63LALIFT
 62
6
 10
4454.077
 20
-9473.162
 30
-1097.804
 70
    32
  0
SEQEND
  8
E63LALIFT
  0
POLYLINE
  8
E63LALIFT
 62
6
 66
     1
 70
     9
  0
VERTEX
  8
E63LALIFT
 62
6
 10
5269.204
 20
-9492.883
 30
-1048.829
 70
    32
  0
VERTEX
  8
E63LALIFT
 62
6
 10
5267.182
 20
-9497.408
 30
-1048.829
 70
    32
  0
VERTEX
  8
E63LALIFT
 62
6
 10
5267.389
 20
-9499.459
 30
-1048.829
 70
    32
  0
VERTEX
  8
E63LALIFT
 62
6
 10
5267.309
 20
-9501.883
 30
-1048.829
 70
    32
  0
VERTEX
  8
E63LALIFT
 62
6
 10
5266.761
 20
-9504.895
 30
-1048.829
 70
    32
  0
VERTEX
  8
E63LALIFT
 62
6
 10
5267.415
 20
-9514.291
 30
-1048.829
 70
    32
  0
VERTEX
  8
E63LALIFT
 62
6
 10
5267.757
 20
-9518.514
 30
-1048.829
 70
    32
  0
VERTEX
  8
E63LALIFT
 62
6
 10
5268.149
 20
-9521.613
 30
-1048.829
 70
    32
  0
VERTEX
  8
E63LALIFT
 62
6
 10
5265.971
 20
-9523.770
 30
-1048.829
 70
    32
  0
VERTEX
  8
E63LALIFT
 62
6
 10
5264.790
 20
-9527.318
 30
-1048.829
 70
    32
  0
VERTEX
  8
E63LALIFT
 62
6
 10
5264.042
 20
-9533.448
 30
-1048.829
 70
    32
  0
VERTEX
  8
E63LALIFT
 62
6
 10
5264.314
 20
-9534.653
 30
-1048.829
 70
    32
  0
VERTEX
  8
E63LALIFT
 62
6
 10
5263.098
 20
-9537.336
 30
-1048.829
 70
    32
  0
VERTEX
  8
E63LALIFT
 62
6
 10
5261.394
 20
-9545.866
 30
-1048.829
 70
    32
  0
VERTEX
  8
E63LALIFT
 62
6
 10
5272.880
 20
-9547.480
 30
-1048.829
 70
    32
  0
VERTEX
  8
E63LALIFT
 62
6
 10
5274.793
 20
-9543.478
 30
-1048.829
 70
    32
  0
VERTEX
  8
E63LALIFT
 62
6
 10
5277.479
 20
-9540.113
 30
-1048.829
 70
    32
  0
VERTEX
  8
E63LALIFT
 62
6
 10
5278.269
 20
-9534.950
 30
-1048.829
 70
    32
  0
VERTEX
  8
E63LALIFT
 62
6
 10
5277.417
 20
-9527.860
 30
-1048.829
 70
    32
  0
VERTEX
  8
E63LALIFT
 62
6
 10
5278.497
 20
-9523.916
 30
-1048.829
 70
    32
  0
VERTEX
  8
E63LALIFT
 62
6
 10
5279.364
 20
-9519.941
 30
-1048.829
 70
    32
  0
VERTEX
  8
E63LALIFT
 62
6
 10
5282.382
 20
-9512.619
 30
-1048.829
 70
    32
  0
VERTEX
  8
E63LALIFT
 62
6
 10
5282.281
 20
-9508.753
 30
-1048.829
 70
    32
  0
VERTEX
  8
E63LALIFT
 62
6
 10
5282.347
 20
-9504.732
 30
-1048.829
 70
    32
  0
VERTEX
  8
E63LALIFT
 62
6
 10
5286.915
 20
-9488.384
 30
-1048.829
 70
    32
  0
VERTEX
  8
E63LALIFT
 62
6
 10
5288.917
 20
-9480.126
 30
-1048.829
 70
    32
  0
VERTEX
  8
E63LALIFT
 62
6
 10
5291.627
 20
-9468.746
 30
-1048.829
 70
    32
  0
VERTEX
  8
E63LALIFT
 62
6
 10
5290.016
 20
-9462.826
 30
-1048.829
 70
    32
  0
VERTEX
  8
E63LALIFT
 62
6
 10
5287.733
 20
-9466.879
 30
-1048.829
 70
    32
  0
VERTEX
  8
E63LALIFT
 62
6
 10
5286.708
 20
-9467.575
 30
-1048.829
 70
    32
  0
VERTEX
  8
E63LALIFT
 62
6
 10
5283.258
 20
-9460.839
 30
-1048.829
 70
    32
  0
VERTEX
  8
E63LALIFT
 62
6
 10
5280.325
 20
-9460.270
 30
-1048.829
 70
    32
  0
VERTEX
  8
E63LALIFT
 62
6
 10
5275.410
 20
-9464.713
 30
-1048.829
 70
    32
  0
VERTEX
  8
E63LALIFT
 62
6
 10
5271.852
 20
-9468.741
 30
-1048.829
 70
    32
  0
VERTEX
  8
E63LALIFT
 62
6
 10
5270.231
 20
-9473.918
 30
-1048.829
 70
    32
  0
VERTEX
  8
E63LALIFT
 62
6
 10
5271.357
 20
-9485.379
 30
-1048.829
 70
    32
  0
VERTEX
  8
E63LALIFT
 62
6
 10
5271.268
 20
-9486.900
 30
-1048.829
 70
    32
  0
VERTEX
  8
E63LALIFT
 62
6
 10
5271.268
 20
-9486.900
 30
-1048.829
 70
    32
  0
VERTEX
  8
E63LALIFT
 62
6
 10
5269.204
 20
-9492.883
 30
-1048.829
 70
    32
  0
SEQEND
  8
E63LALIFT
  0
POLYLINE
  8
E63LALIFT
 62
7
 66
     1
 70
     9
  0
VERTEX
  8
E63LALIFT
 62
7
 10
5289.961
 20
-9467.818
 30
-1042.681
 70
    32
  0
VERTEX
  8
E63LALIFT
 62
7
 10
5289.963
 20
-9467.743
 30
-1042.681
 70
    32
  0
VERTEX
  8
E63LALIFT
 62
7
 10
5289.781
 20
-9467.493
 30
-1042.681
 70
    32
  0
VERTEX
  8
E63LALIFT
 62
7
 10
5289.780
 20
-9467.434
 30
-1042.681
 70
    32
  0
VERTEX
  8
E63LALIFT
 62
7
 10
5289.604
 20
-9467.157
 30
-1042.681
 70
    32
  0
VERTEX
  8
E63LALIFT
 62
7
 10
5289.617
 20
-9467.057
 30
-1042.681
 70
    32
  0
VERTEX
  8
E63LALIFT
 62
7
 10
5289.436
 20
-9466.692
 30
-1042.681
 70
    32
  0
VERTEX
  8
E63LALIFT
 62
7
 10
5289.433
 20
-9466.660
 30
-1042.681
 70
    32
  0
VERTEX
  8
E63LALIFT
 62
7
 10
5289.262
 20
-9466.334
 30
-1042.681
 70
    32
  0
VERTEX
  8
E63LALIFT
 62
7
 10
5289.256
 20
-9466.312
 30
-1042.681
 70
    32
  0
VERTEX
  8
E63LALIFT
 62
7
 10
5289.092
 20
-9466.043
 30
-1042.681
 70
    32
  0
VERTEX
  8
E63LALIFT
 62
7
 10
5289.087
 20
-9466.027
 30
-1042.681
 70
    32
  0
VERTEX
  8
E63LALIFT
 62
7
 10
5288.985
 20
-9465.355
 30
-1042.681
 70
    32
  0
VERTEX
  8
E63LALIFT
 62
7
 10
5288.985
 20
-9465.346
 30
-1042.681
 70
    32
  0
VERTEX
  8
E63LALIFT
 62
7
 10
5288.958
 20
-9464.992
 30
-1042.681
 70
    32
  0
VERTEX
  8
E63LALIFT
 62
7
 10
5288.938
 20
-9464.552
 30
-1042.681
 70
    32
  0
VERTEX
  8
E63LALIFT
 62
7
 10
5288.935
 20
-9464.550
 30
-1042.681
 70
    32
  0
VERTEX
  8
E63LALIFT
 62
7
 10
5288.958
 20
-9463.407
 30
-1042.681
 70
    32
  0
VERTEX
  8
E63LALIFT
 62
7
 10
5288.952
 20
-9463.400
 30
-1042.681
 70
    32
  0
VERTEX
  8
E63LALIFT
 62
7
 10
5288.895
 20
-9462.646
 30
-1042.681
 70
    32
  0
VERTEX
  8
E63LALIFT
 62
7
 10
5288.892
 20
-9462.618
 30
-1042.681
 70
    32
  0
VERTEX
  8
E63LALIFT
 62
7
 10
5288.731
 20
-9462.314
 30
-1042.681
 70
    32
  0
VERTEX
  8
E63LALIFT
 62
7
 10
5288.735
 20
-9462.251
 30
-1042.681
 70
    32
  0
VERTEX
  8
E63LALIFT
 62
7
 10
5288.526
 20
-9461.914
 30
-1042.681
 70
    32
  0
VERTEX
  8
E63LALIFT
 62
7
 10
5288.547
 20
-9461.800
 30
-1042.681
 70
    32
  0
VERTEX
  8
E63LALIFT
 62
7
 10
5288.390
 20
-9461.471
 30
-1042.681
 70
    32
  0
VERTEX
  8
E63LALIFT
 62
7
 10
5288.382
 20
-9461.454
 30
-1042.681
 70
    32
  0
VERTEX
  8
E63LALIFT
 62
7
 10
5288.218
 20
-9461.035
 30
-1042.681
 70
    32
  0
VERTEX
  8
E63LALIFT
 62
7
 10
5288.207
 20
-9461.028
 30
-1042.681
 70
    32
  0
VERTEX
  8
E63LALIFT
 62
7
 10
5287.660
 20
-9462.167
 30
-1042.681
 70
    32
  0
VERTEX
  8
E63LALIFT
 62
7
 10
5287.424
 20
-9462.602
 30
-1042.681
 70
    32
  0
VERTEX
  8
E63LALIFT
 62
7
 10
5287.415
 20
-9462.599
 30
-1042.681
 70
    32
  0
VERTEX
  8
E63LALIFT
 62
7
 10
5286.705
 20
-9464.003
 30
-1042.681
 70
    32
  0
VERTEX
  8
E63LALIFT
 62
7
 10
5286.666
 20
-9463.978
 30
-1042.681
 70
    32
  0
VERTEX
  8
E63LALIFT
 62
7
 10
5287.303
 20
-9461.042
 30
-1042.681
 70
    32
  0
VERTEX
  8
E63LALIFT
 62
7
 10
5287.384
 20
-9460.648
 30
-1042.681
 70
    32
  0
VERTEX
  8
E63LALIFT
 62
7
 10
5287.378
 20
-9460.659
 30
-1042.681
 70
    32
  0
VERTEX
  8
E63LALIFT
 62
7
 10
5287.201
 20
-9460.307
 30
-1042.681
 70
    32
  0
VERTEX
  8
E63LALIFT
 62
7
 10
5287.199
 20
-9460.308
 30
-1042.681
 70
    32
  0
VERTEX
  8
E63LALIFT
 62
7
 10
5287.074
 20
-9460.202
 30
-1042.681
 70
    32
  0
VERTEX
  8
E63LALIFT
 62
7
 10
5286.930
 20
-9460.147
 30
-1042.681
 70
    32
  0
VERTEX
  8
E63LALIFT
 62
7
 10
5286.926
 20
-9460.146
 30
-1042.681
 70
    32
  0
VERTEX
  8
E63LALIFT
 62
7
 10
5286.649
 20
-9459.999
 30
-1042.681
 70
    32
  0
VERTEX
  8
E63LALIFT
 62
7
 10
5286.637
 20
-9459.995
 30
-1042.681
 70
    32
  0
VERTEX
  8
E63LALIFT
 62
7
 10
5286.361
 20
-9459.862
 30
-1042.681
 70
    32
  0
VERTEX
  8
E63LALIFT
 62
7
 10
5286.345
 20
-9459.848
 30
-1042.681
 70
    32
  0
VERTEX
  8
E63LALIFT
 62
7
 10
5286.146
 20
-9459.571
 30
-1042.681
 70
    32
  0
VERTEX
  8
E63LALIFT
 62
7
 10
5286.112
 20
-9459.576
 30
-1042.681
 70
    32
  0
VERTEX
  8
E63LALIFT
 62
7
 10
5285.821
 20
-9459.412
 30
-1042.681
 70
    32
  0
VERTEX
  8
E63LALIFT
 62
7
 10
5285.785
 20
-9459.403
 30
-1042.681
 70
    32
  0
VERTEX
  8
E63LALIFT
 62
7
 10
5285.606
 20
-9459.086
 30
-1042.681
 70
    32
  0
VERTEX
  8
E63LALIFT
 62
7
 10
5285.550
 20
-9459.105
 30
-1042.681
 70
    32
  0
VERTEX
  8
E63LALIFT
 62
7
 10
5285.263
 20
-9459.053
 30
-1042.681
 70
    32
  0
VERTEX
  8
E63LALIFT
 62
7
 10
5285.187
 20
-9459.084
 30
-1042.681
 70
    32
  0
VERTEX
  8
E63LALIFT
 62
7
 10
5284.903
 20
-9458.957
 30
-1042.681
 70
    32
  0
VERTEX
  8
E63LALIFT
 62
7
 10
5284.835
 20
-9458.936
 30
-1042.681
 70
    32
  0
VERTEX
  8
E63LALIFT
 62
7
 10
5284.605
 20
-9458.854
 30
-1042.681
 70
    32
  0
VERTEX
  8
E63LALIFT
 62
7
 10
5284.497
 20
-9458.854
 30
-1042.681
 70
    32
  0
VERTEX
  8
E63LALIFT
 62
7
 10
5284.246
 20
-9458.767
 30
-1042.681
 70
    32
  0
VERTEX
  8
E63LALIFT
 62
7
 10
5284.125
 20
-9458.780
 30
-1042.681
 70
    32
  0
VERTEX
  8
E63LALIFT
 62
7
 10
5283.880
 20
-9458.711
 30
-1042.681
 70
    32
  0
VERTEX
  8
E63LALIFT
 62
7
 10
5283.768
 20
-9458.680
 30
-1042.681
 70
    32
  0
VERTEX
  8
E63LALIFT
 62
7
 10
5283.540
 20
-9458.586
 30
-1042.681
 70
    32
  0
VERTEX
  8
E63LALIFT
 62
7
 10
5283.377
 20
-9458.608
 30
-1042.681
 70
    32
  0
VERTEX
  8
E63LALIFT
 62
7
 10
5283.175
 20
-9458.547
 30
-1042.681
 70
    32
  0
VERTEX
  8
E63LALIFT
 62
7
 10
5283.012
 20
-9458.499
 30
-1042.681
 70
    32
  0
VERTEX
  8
E63LALIFT
 62
7
 10
5282.800
 20
-9458.429
 30
-1042.681
 70
    32
  0
VERTEX
  8
E63LALIFT
 62
7
 10
5282.634
 20
-9458.382
 30
-1042.681
 70
    32
  0
VERTEX
  8
E63LALIFT
 62
7
 10
5282.448
 20
-9458.270
 30
-1042.681
 70
    32
  0
VERTEX
  8
E63LALIFT
 62
7
 10
5282.212
 20
-9458.304
 30
-1042.681
 70
    32
  0
VERTEX
  8
E63LALIFT
 62
7
 10
5282.013
 20
-9458.283
 30
-1042.681
 70
    32
  0
VERTEX
  8
E63LALIFT
 62
7
 10
5281.764
 20
-9458.263
 30
-1042.681
 70
    32
  0
VERTEX
  8
E63LALIFT
 62
7
 10
5281.611
 20
-9458.211
 30
-1042.681
 70
    32
  0
VERTEX
  8
E63LALIFT
 62
7
 10
5281.335
 20
-9458.271
 30
-1042.681
 70
    32
  0
VERTEX
  8
E63LALIFT
 62
7
 10
5281.178
 20
-9458.228
 30
-1042.681
 70
    32
  0
VERTEX
  8
E63LALIFT
 62
7
 10
5280.844
 20
-9458.172
 30
-1042.681
 70
    32
  0
VERTEX
  8
E63LALIFT
 62
7
 10
5280.708
 20
-9458.127
 30
-1042.681
 70
    32
  0
VERTEX
  8
E63LALIFT
 62
7
 10
5280.304
 20
-9458.268
 30
-1042.681
 70
    32
  0
VERTEX
  8
E63LALIFT
 62
7
 10
5280.184
 20
-9458.254
 30
-1042.681
 70
    32
  0
VERTEX
  8
E63LALIFT
 62
7
 10
5279.707
 20
-9458.744
 30
-1042.681
 70
    32
  0
VERTEX
  8
E63LALIFT
 62
7
 10
5279.629
 20
-9458.765
 30
-1042.681
 70
    32
  0
VERTEX
  8
E63LALIFT
 62
7
 10
5278.440
 20
-9461.734
 30
-1042.681
 70
    32
  0
VERTEX
  8
E63LALIFT
 62
7
 10
5277.361
 20
-9464.998
 30
-1042.681
 70
    32
  0
VERTEX
  8
E63LALIFT
 62
7
 10
5277.152
 20
-9465.280
 30
-1042.681
 70
    32
  0
VERTEX
  8
E63LALIFT
 62
7
 10
5276.508
 20
-9466.480
 30
-1042.681
 70
    32
  0
VERTEX
  8
E63LALIFT
 62
7
 10
5276.072
 20
-9467.139
 30
-1042.681
 70
    32
  0
VERTEX
  8
E63LALIFT
 62
7
 10
5275.631
 20
-9467.951
 30
-1042.681
 70
    32
  0
VERTEX
  8
E63LALIFT
 62
7
 10
5275.175
 20
-9468.449
 30
-1042.681
 70
    32
  0
VERTEX
  8
E63LALIFT
 62
7
 10
5274.965
 20
-9468.705
 30
-1042.681
 70
    32
  0
VERTEX
  8
E63LALIFT
 62
7
 10
5274.245
 20
-9469.708
 30
-1042.681
 70
    32
  0
VERTEX
  8
E63LALIFT
 62
7
 10
5274.158
 20
-9469.823
 30
-1042.681
 70
    32
  0
VERTEX
  8
E63LALIFT
 62
7
 10
5273.659
 20
-9470.583
 30
-1042.681
 70
    32
  0
VERTEX
  8
E63LALIFT
 62
7
 10
5273.187
 20
-9471.164
 30
-1042.681
 70
    32
  0
VERTEX
  8
E63LALIFT
 62
7
 10
5272.493
 20
-9472.578
 30
-1042.681
 70
    32
  0
VERTEX
  8
E63LALIFT
 62
7
 10
5271.374
 20
-9474.429
 30
-1042.681
 70
    32
  0
VERTEX
  8
E63LALIFT
 62
7
 10
5269.605
 20
-9477.716
 30
-1042.681
 70
    32
  0
VERTEX
  8
E63LALIFT
 62
7
 10
5269.580
 20
-9477.773
 30
-1042.681
 70
    32
  0
VERTEX
  8
E63LALIFT
 62
7
 10
5269.545
 20
-9477.851
 30
-1042.681
 70
    32
  0
VERTEX
  8
E63LALIFT
 62
7
 10
5268.060
 20
-9481.029
 30
-1042.681
 70
    32
  0
VERTEX
  8
E63LALIFT
 62
7
 10
5266.790
 20
-9484.134
 30
-1042.681
 70
    32
  0
VERTEX
  8
E63LALIFT
 62
7
 10
5266.476
 20
-9485.712
 30
-1042.681
 70
    32
  0
VERTEX
  8
E63LALIFT
 62
7
 10
5265.684
 20
-9488.074
 30
-1042.681
 70
    32
  0
VERTEX
  8
E63LALIFT
 62
7
 10
5265.330
 20
-9489.397
 30
-1042.681
 70
    32
  0
VERTEX
  8
E63LALIFT
 62
7
 10
5264.778
 20
-9490.807
 30
-1042.681
 70
    32
  0
VERTEX
  8
E63LALIFT
 62
7
 10
5264.999
 20
-9491.839
 30
-1042.681
 70
    32
  0
VERTEX
  8
E63LALIFT
 62
7
 10
5264.998
 20
-9492.031
 30
-1042.681
 70
    32
  0
VERTEX
  8
E63LALIFT
 62
7
 10
5265.219
 20
-9493.276
 30
-1042.681
 70
    32
  0
VERTEX
  8
E63LALIFT
 62
7
 10
5265.278
 20
-9493.503
 30
-1042.681
 70
    32
  0
VERTEX
  8
E63LALIFT
 62
7
 10
5265.482
 20
-9494.363
 30
-1042.681
 70
    32
  0
VERTEX
  8
E63LALIFT
 62
7
 10
5265.470
 20
-9495.121
 30
-1042.681
 70
    32
  0
VERTEX
  8
E63LALIFT
 62
7
 10
5265.662
 20
-9495.800
 30
-1042.681
 70
    32
  0
VERTEX
  8
E63LALIFT
 62
7
 10
5265.787
 20
-9496.232
 30
-1042.681
 70
    32
  0
VERTEX
  8
E63LALIFT
 62
7
 10
5265.939
 20
-9496.766
 30
-1042.681
 70
    32
  0
VERTEX
  8
E63LALIFT
 62
7
 10
5266.072
 20
-9497.275
 30
-1042.681
 70
    32
  0
VERTEX
  8
E63LALIFT
 62
7
 10
5266.218
 20
-9497.773
 30
-1042.681
 70
    32
  0
VERTEX
  8
E63LALIFT
 62
7
 10
5265.709
 20
-9500.092
 30
-1042.681
 70
    32
  0
VERTEX
  8
E63LALIFT
 62
7
 10
5265.392
 20
-9501.604
 30
-1042.681
 70
    32
  0
VERTEX
  8
E63LALIFT
 62
7
 10
5265.408
 20
-9502.266
 30
-1042.681
 70
    32
  0
VERTEX
  8
E63LALIFT
 62
7
 10
5265.589
 20
-9502.606
 30
-1042.681
 70
    32
  0
VERTEX
  8
E63LALIFT
 62
7
 10
5265.673
 20
-9503.243
 30
-1042.681
 70
    32
  0
VERTEX
  8
E63LALIFT
 62
7
 10
5265.797
 20
-9503.487
 30
-1042.681
 70
    32
  0
VERTEX
  8
E63LALIFT
 62
7
 10
5265.946
 20
-9504.067
 30
-1042.681
 70
    32
  0
VERTEX
  8
E63LALIFT
 62
7
 10
5266.048
 20
-9504.293
 30
-1042.681
 70
    32
  0
VERTEX
  8
E63LALIFT
 62
7
 10
5265.739
 20
-9505.501
 30
-1042.681
 70
    32
  0
VERTEX
  8
E63LALIFT
 62
7
 10
5265.590
 20
-9507.040
 30
-1042.681
 70
    32
  0
VERTEX
  8
E63LALIFT
 62
7
 10
5265.422
 20
-9508.936
 30
-1042.681
 70
    32
  0
VERTEX
  8
E63LALIFT
 62
7
 10
5265.438
 20
-9509.092
 30
-1042.681
 70
    32
  0
VERTEX
  8
E63LALIFT
 62
7
 10
5265.635
 20
-9509.799
 30
-1042.681
 70
    32
  0
VERTEX
  8
E63LALIFT
 62
7
 10
5265.650
 20
-9509.838
 30
-1042.681
 70
    32
  0
VERTEX
  8
E63LALIFT
 62
7
 10
5265.652
 20
-9509.840
 30
-1042.681
 70
    32
  0
VERTEX
  8
E63LALIFT
 62
7
 10
5265.496
 20
-9511.138
 30
-1042.681
 70
    32
  0
VERTEX
  8
E63LALIFT
 62
7
 10
5265.646
 20
-9511.319
 30
-1042.681
 70
    32
  0
VERTEX
  8
E63LALIFT
 62
7
 10
5265.804
 20
-9511.546
 30
-1042.681
 70
    32
  0
VERTEX
  8
E63LALIFT
 62
7
 10
5265.953
 20
-9511.743
 30
-1042.681
 70
    32
  0
VERTEX
  8
E63LALIFT
 62
7
 10
5266.128
 20
-9511.953
 30
-1042.681
 70
    32
  0
VERTEX
  8
E63LALIFT
 62
7
 10
5266.272
 20
-9512.114
 30
-1042.681
 70
    32
  0
VERTEX
  8
E63LALIFT
 62
7
 10
5266.440
 20
-9512.312
 30
-1042.681
 70
    32
  0
VERTEX
  8
E63LALIFT
 62
7
 10
5266.543
 20
-9512.573
 30
-1042.681
 70
    32
  0
VERTEX
  8
E63LALIFT
 62
7
 10
5266.688
 20
-9512.749
 30
-1042.681
 70
    32
  0
VERTEX
  8
E63LALIFT
 62
7
 10
5266.280
 20
-9513.803
 30
-1042.681
 70
    32
  0
VERTEX
  8
E63LALIFT
 62
7
 10
5266.033
 20
-9515.336
 30
-1042.681
 70
    32
  0
VERTEX
  8
E63LALIFT
 62
7
 10
5265.910
 20
-9516.285
 30
-1042.681
 70
    32
  0
VERTEX
  8
E63LALIFT
 62
7
 10
5265.585
 20
-9517.292
 30
-1042.681
 70
    32
  0
VERTEX
  8
E63LALIFT
 62
7
 10
5265.747
 20
-9517.512
 30
-1042.681
 70
    32
  0
VERTEX
  8
E63LALIFT
 62
7
 10
5265.809
 20
-9517.760
 30
-1042.681
 70
    32
  0
VERTEX
  8
E63LALIFT
 62
7
 10
5265.999
 20
-9518.045
 30
-1042.681
 70
    32
  0
VERTEX
  8
E63LALIFT
 62
7
 10
5266.086
 20
-9518.121
 30
-1042.681
 70
    32
  0
VERTEX
  8
E63LALIFT
 62
7
 10
5265.920
 20
-9518.605
 30
-1042.681
 70
    32
  0
VERTEX
  8
E63LALIFT
 62
7
 10
5265.801
 20
-9519.999
 30
-1042.681
 70
    32
  0
VERTEX
  8
E63LALIFT
 62
7
 10
5266.050
 20
-9520.250
 30
-1042.681
 70
    32
  0
VERTEX
  8
E63LALIFT
 62
7
 10
5266.122
 20
-9520.295
 30
-1042.681
 70
    32
  0
VERTEX
  8
E63LALIFT
 62
7
 10
5266.116
 20
-9520.665
 30
-1042.681
 70
    32
  0
VERTEX
  8
E63LALIFT
 62
7
 10
5265.744
 20
-9521.789
 30
-1042.681
 70
    32
  0
VERTEX
  8
E63LALIFT
 62
7
 10
5265.947
 20
-9522.003
 30
-1042.681
 70
    32
  0
VERTEX
  8
E63LALIFT
 62
7
 10
5266.002
 20
-9522.123
 30
-1042.681
 70
    32
  0
VERTEX
  8
E63LALIFT
 62
7
 10
5265.892
 20
-9522.485
 30
-1042.681
 70
    32
  0
VERTEX
  8
E63LALIFT
 62
7
 10
5265.762
 20
-9523.100
 30
-1042.681
 70
    32
  0
VERTEX
  8
E63LALIFT
 62
7
 10
5265.523
 20
-9523.432
 30
-1042.681
 70
    32
  0
VERTEX
  8
E63LALIFT
 62
7
 10
5265.397
 20
-9523.455
 30
-1042.681
 70
    32
  0
VERTEX
  8
E63LALIFT
 62
7
 10
5265.119
 20
-9523.602
 30
-1042.681
 70
    32
  0
VERTEX
  8
E63LALIFT
 62
7
 10
5265.069
 20
-9523.602
 30
-1042.681
 70
    32
  0
VERTEX
  8
E63LALIFT
 62
7
 10
5264.804
 20
-9523.693
 30
-1042.681
 70
    32
  0
VERTEX
  8
E63LALIFT
 62
7
 10
5264.762
 20
-9524.233
 30
-1042.681
 70
    32
  0
VERTEX
  8
E63LALIFT
 62
7
 10
5264.559
 20
-9525.075
 30
-1042.681
 70
    32
  0
VERTEX
  8
E63LALIFT
 62
7
 10
5264.188
 20
-9525.661
 30
-1042.681
 70
    32
  0
VERTEX
  8
E63LALIFT
 62
7
 10
5263.865
 20
-9526.081
 30
-1042.681
 70
    32
  0
VERTEX
  8
E63LALIFT
 62
7
 10
5263.805
 20
-9526.157
 30
-1042.681
 70
    32
  0
VERTEX
  8
E63LALIFT
 62
7
 10
5263.724
 20
-9526.240
 30
-1042.681
 70
    32
  0
VERTEX
  8
E63LALIFT
 62
7
 10
5263.586
 20
-9526.630
 30
-1042.681
 70
    32
  0
VERTEX
  8
E63LALIFT
 62
7
 10
5263.234
 20
-9527.568
 30
-1042.681
 70
    32
  0
VERTEX
  8
E63LALIFT
 62
7
 10
5263.060
 20
-9527.829
 30
-1042.681
 70
    32
  0
VERTEX
  8
E63LALIFT
 62
7
 10
5262.945
 20
-9527.878
 30
-1042.681
 70
    32
  0
VERTEX
  8
E63LALIFT
 62
7
 10
5262.683
 20
-9528.103
 30
-1042.681
 70
    32
  0
VERTEX
  8
E63LALIFT
 62
7
 10
5262.406
 20
-9528.642
 30
-1042.681
 70
    32
  0
VERTEX
  8
E63LALIFT
 62
7
 10
5262.340
 20
-9529.401
 30
-1042.681
 70
    32
  0
VERTEX
  8
E63LALIFT
 62
7
 10
5262.424
 20
-9529.962
 30
-1042.681
 70
    32
  0
VERTEX
  8
E63LALIFT
 62
7
 10
5262.457
 20
-9530.037
 30
-1042.681
 70
    32
  0
VERTEX
  8
E63LALIFT
 62
7
 10
5262.420
 20
-9530.213
 30
-1042.681
 70
    32
  0
VERTEX
  8
E63LALIFT
 62
7
 10
5262.396
 20
-9530.373
 30
-1042.681
 70
    32
  0
VERTEX
  8
E63LALIFT
 62
7
 10
5262.317
 20
-9530.478
 30
-1042.681
 70
    32
  0
VERTEX
  8
E63LALIFT
 62
7
 10
5262.075
 20
-9530.897
 30
-1042.681
 70
    32
  0
VERTEX
  8
E63LALIFT
 62
7
 10
5261.786
 20
-9531.325
 30
-1042.681
 70
    32
  0
VERTEX
  8
E63LALIFT
 62
7
 10
5261.609
 20
-9532.062
 30
-1042.681
 70
    32
  0
VERTEX
  8
E63LALIFT
 62
7
 10
5261.397
 20
-9532.628
 30
-1042.681
 70
    32
  0
VERTEX
  8
E63LALIFT
 62
7
 10
5261.552
 20
-9533.031
 30
-1042.681
 70
    32
  0
VERTEX
  8
E63LALIFT
 62
7
 10
5261.679
 20
-9533.222
 30
-1042.681
 70
    32
  0
VERTEX
  8
E63LALIFT
 62
7
 10
5261.852
 20
-9533.582
 30
-1042.681
 70
    32
  0
VERTEX
  8
E63LALIFT
 62
7
 10
5262.110
 20
-9534.185
 30
-1042.681
 70
    32
  0
VERTEX
  8
E63LALIFT
 62
7
 10
5262.113
 20
-9534.192
 30
-1042.681
 70
    32
  0
VERTEX
  8
E63LALIFT
 62
7
 10
5262.114
 20
-9534.200
 30
-1042.681
 70
    32
  0
VERTEX
  8
E63LALIFT
 62
7
 10
5262.124
 20
-9534.810
 30
-1042.681
 70
    32
  0
VERTEX
  8
E63LALIFT
 62
7
 10
5262.236
 20
-9535.103
 30
-1042.681
 70
    32
  0
VERTEX
  8
E63LALIFT
 62
7
 10
5262.280
 20
-9535.248
 30
-1042.681
 70
    32
  0
VERTEX
  8
E63LALIFT
 62
7
 10
5262.246
 20
-9535.533
 30
-1042.681
 70
    32
  0
VERTEX
  8
E63LALIFT
 62
7
 10
5262.026
 20
-9536.970
 30
-1042.681
 70
    32
  0
VERTEX
  8
E63LALIFT
 62
7
 10
5262.028
 20
-9536.977
 30
-1042.681
 70
    32
  0
VERTEX
  8
E63LALIFT
 62
7
 10
5262.243
 20
-9537.338
 30
-1042.681
 70
    32
  0
VERTEX
  8
E63LALIFT
 62
7
 10
5262.315
 20
-9537.440
 30
-1042.681
 70
    32
  0
VERTEX
  8
E63LALIFT
 62
7
 10
5262.451
 20
-9537.709
 30
-1042.681
 70
    32
  0
VERTEX
  8
E63LALIFT
 62
7
 10
5262.592
 20
-9537.925
 30
-1042.681
 70
    32
  0
VERTEX
  8
E63LALIFT
 62
7
 10
5262.668
 20
-9538.050
 30
-1042.681
 70
    32
  0
VERTEX
  8
E63LALIFT
 62
7
 10
5262.918
 20
-9538.289
 30
-1042.681
 70
    32
  0
VERTEX
  8
E63LALIFT
 62
7
 10
5262.940
 20
-9538.327
 30
-1042.681
 70
    32
  0
VERTEX
  8
E63LALIFT
 62
7
 10
5263.076
 20
-9538.462
 30
-1042.681
 70
    32
  0
VERTEX
  8
E63LALIFT
 62
7
 10
5263.179
 20
-9538.568
 30
-1042.681
 70
    32
  0
VERTEX
  8
E63LALIFT
 62
7
 10
5263.201
 20
-9538.581
 30
-1042.681
 70
    32
  0
VERTEX
  8
E63LALIFT
 62
7
 10
5263.507
 20
-9538.651
 30
-1042.681
 70
    32
  0
VERTEX
  8
E63LALIFT
 62
7
 10
5263.539
 20
-9538.662
 30
-1042.681
 70
    32
  0
VERTEX
  8
E63LALIFT
 62
7
 10
5263.856
 20
-9538.651
 30
-1042.681
 70
    32
  0
VERTEX
  8
E63LALIFT
 62
7
 10
5263.878
 20
-9538.656
 30
-1042.681
 70
    32
  0
VERTEX
  8
E63LALIFT
 62
7
 10
5264.166
 20
-9538.597
 30
-1042.681
 70
    32
  0
VERTEX
  8
E63LALIFT
 62
7
 10
5264.215
 20
-9538.593
 30
-1042.681
 70
    32
  0
VERTEX
  8
E63LALIFT
 62
7
 10
5264.218
 20
-9538.594
 30
-1042.681
 70
    32
  0
VERTEX
  8
E63LALIFT
 62
7
 10
5264.543
 20
-9538.618
 30
-1042.681
 70
    32
  0
VERTEX
  8
E63LALIFT
 62
7
 10
5264.551
 20
-9538.619
 30
-1042.681
 70
    32
  0
VERTEX
  8
E63LALIFT
 62
7
 10
5264.819
 20
-9538.689
 30
-1042.681
 70
    32
  0
VERTEX
  8
E63LALIFT
 62
7
 10
5264.885
 20
-9538.716
 30
-1042.681
 70
    32
  0
VERTEX
  8
E63LALIFT
 62
7
 10
5264.889
 20
-9538.719
 30
-1042.681
 70
    32
  0
VERTEX
  8
E63LALIFT
 62
7
 10
5265.189
 20
-9538.796
 30
-1042.681
 70
    32
  0
VERTEX
  8
E63LALIFT
 62
7
 10
5265.198
 20
-9538.820
 30
-1042.681
 70
    32
  0
VERTEX
  8
E63LALIFT
 62
7
 10
5265.460
 20
-9538.962
 30
-1042.681
 70
    32
  0
VERTEX
  8
E63LALIFT
 62
7
 10
5265.498
 20
-9538.977
 30
-1042.681
 70
    32
  0
VERTEX
  8
E63LALIFT
 62
7
 10
5265.692
 20
-9539.232
 30
-1042.681
 70
    32
  0
VERTEX
  8
E63LALIFT
 62
7
 10
5265.778
 20
-9539.251
 30
-1042.681
 70
    32
  0
VERTEX
  8
E63LALIFT
 62
7
 10
5265.933
 20
-9539.409
 30
-1042.681
 70
    32
  0
VERTEX
  8
E63LALIFT
 62
7
 10
5266.061
 20
-9539.408
 30
-1042.681
 70
    32
  0
VERTEX
  8
E63LALIFT
 62
7
 10
5266.182
 20
-9539.724
 30
-1042.681
 70
    32
  0
VERTEX
  8
E63LALIFT
 62
7
 10
5266.328
 20
-9539.828
 30
-1042.681
 70
    32
  0
VERTEX
  8
E63LALIFT
 62
7
 10
5266.415
 20
-9539.913
 30
-1042.681
 70
    32
  0
VERTEX
  8
E63LALIFT
 62
7
 10
5266.574
 20
-9540.310
 30
-1042.681
 70
    32
  0
VERTEX
  8
E63LALIFT
 62
7
 10
5266.592
 20
-9540.311
 30
-1042.681
 70
    32
  0
VERTEX
  8
E63LALIFT
 62
7
 10
5266.895
 20
-9540.352
 30
-1042.681
 70
    32
  0
VERTEX
  8
E63LALIFT
 62
7
 10
5266.914
 20
-9540.367
 30
-1042.681
 70
    32
  0
VERTEX
  8
E63LALIFT
 62
7
 10
5267.099
 20
-9540.489
 30
-1042.681
 70
    32
  0
VERTEX
  8
E63LALIFT
 62
7
 10
5267.149
 20
-9540.587
 30
-1042.681
 70
    32
  0
VERTEX
  8
E63LALIFT
 62
7
 10
5267.158
 20
-9540.630
 30
-1042.681
 70
    32
  0
VERTEX
  8
E63LALIFT
 62
7
 10
5267.286
 20
-9541.111
 30
-1042.681
 70
    32
  0
VERTEX
  8
E63LALIFT
 62
7
 10
5267.387
 20
-9541.278
 30
-1042.681
 70
    32
  0
VERTEX
  8
E63LALIFT
 62
7
 10
5267.538
 20
-9541.292
 30
-1042.681
 70
    32
  0
VERTEX
  8
E63LALIFT
 62
7
 10
5267.694
 20
-9541.181
 30
-1042.681
 70
    32
  0
VERTEX
  8
E63LALIFT
 62
7
 10
5267.858
 20
-9541.297
 30
-1042.681
 70
    32
  0
VERTEX
  8
E63LALIFT
 62
7
 10
5267.986
 20
-9541.378
 30
-1042.681
 70
    32
  0
VERTEX
  8
E63LALIFT
 62
7
 10
5268.104
 20
-9541.496
 30
-1042.681
 70
    32
  0
VERTEX
  8
E63LALIFT
 62
7
 10
5268.248
 20
-9541.557
 30
-1042.681
 70
    32
  0
VERTEX
  8
E63LALIFT
 62
7
 10
5268.315
 20
-9541.718
 30
-1042.681
 70
    32
  0
VERTEX
  8
E63LALIFT
 62
7
 10
5268.485
 20
-9541.705
 30
-1042.681
 70
    32
  0
VERTEX
  8
E63LALIFT
 62
7
 10
5268.584
 20
-9541.785
 30
-1042.681
 70
    32
  0
VERTEX
  8
E63LALIFT
 62
7
 10
5268.775
 20
-9541.878
 30
-1042.681
 70
    32
  0
VERTEX
  8
E63LALIFT
 62
7
 10
5268.860
 20
-9541.906
 30
-1042.681
 70
    32
  0
VERTEX
  8
E63LALIFT
 62
7
 10
5269.029
 20
-9542.094
 30
-1042.681
 70
    32
  0
VERTEX
  8
E63LALIFT
 62
7
 10
5269.115
 20
-9542.033
 30
-1042.681
 70
    32
  0
VERTEX
  8
E63LALIFT
 62
7
 10
5269.317
 20
-9542.069
 30
-1042.681
 70
    32
  0
VERTEX
  8
E63LALIFT
 62
7
 10
5269.424
 20
-9542.103
 30
-1042.681
 70
    32
  0
VERTEX
  8
E63LALIFT
 62
7
 10
5269.571
 20
-9542.265
 30
-1042.681
 70
    32
  0
VERTEX
  8
E63LALIFT
 62
7
 10
5269.616
 20
-9542.289
 30
-1042.681
 70
    32
  0
VERTEX
  8
E63LALIFT
 62
7
 10
5269.832
 20
-9542.273
 30
-1042.681
 70
    32
  0
VERTEX
  8
E63LALIFT
 62
7
 10
5269.925
 20
-9542.337
 30
-1042.681
 70
    32
  0
VERTEX
  8
E63LALIFT
 62
7
 10
5270.246
 20
-9542.500
 30
-1042.681
 70
    32
  0
VERTEX
  8
E63LALIFT
 62
7
 10
5270.263
 20
-9542.551
 30
-1042.681
 70
    32
  0
VERTEX
  8
E63LALIFT
 62
7
 10
5270.485
 20
-9542.545
 30
-1042.681
 70
    32
  0
VERTEX
  8
E63LALIFT
 62
7
 10
5270.516
 20
-9542.559
 30
-1042.681
 70
    32
  0
VERTEX
  8
E63LALIFT
 62
7
 10
5270.666
 20
-9542.624
 30
-1042.681
 70
    32
  0
VERTEX
  8
E63LALIFT
 62
7
 10
5270.708
 20
-9542.595
 30
-1042.681
 70
    32
  0
VERTEX
  8
E63LALIFT
 62
7
 10
5270.816
 20
-9542.620
 30
-1042.681
 70
    32
  0
VERTEX
  8
E63LALIFT
 62
7
 10
5270.851
 20
-9542.614
 30
-1042.681
 70
    32
  0
VERTEX
  8
E63LALIFT
 62
7
 10
5270.964
 20
-9542.611
 30
-1042.681
 70
    32
  0
VERTEX
  8
E63LALIFT
 62
7
 10
5271.012
 20
-9542.581
 30
-1042.681
 70
    32
  0
VERTEX
  8
E63LALIFT
 62
7
 10
5271.112
 20
-9542.513
 30
-1042.681
 70
    32
  0
VERTEX
  8
E63LALIFT
 62
7
 10
5271.205
 20
-9542.435
 30
-1042.681
 70
    32
  0
VERTEX
  8
E63LALIFT
 62
7
 10
5271.334
 20
-9542.324
 30
-1042.681
 70
    32
  0
VERTEX
  8
E63LALIFT
 62
7
 10
5271.430
 20
-9542.277
 30
-1042.681
 70
    32
  0
VERTEX
  8
E63LALIFT
 62
7
 10
5271.509
 20
-9542.254
 30
-1042.681
 70
    32
  0
VERTEX
  8
E63LALIFT
 62
7
 10
5271.637
 20
-9542.143
 30
-1042.681
 70
    32
  0
VERTEX
  8
E63LALIFT
 62
7
 10
5271.694
 20
-9542.113
 30
-1042.681
 70
    32
  0
VERTEX
  8
E63LALIFT
 62
7
 10
5271.879
 20
-9541.956
 30
-1042.681
 70
    32
  0
VERTEX
  8
E63LALIFT
 62
7
 10
5271.906
 20
-9541.926
 30
-1042.681
 70
    32
  0
VERTEX
  8
E63LALIFT
 62
7
 10
5271.973
 20
-9541.805
 30
-1042.681
 70
    32
  0
VERTEX
  8
E63LALIFT
 62
7
 10
5272.166
 20
-9541.588
 30
-1042.681
 70
    32
  0
VERTEX
  8
E63LALIFT
 62
7
 10
5272.199
 20
-9541.596
 30
-1042.681
 70
    32
  0
VERTEX
  8
E63LALIFT
 62
7
 10
5272.365
 20
-9541.541
 30
-1042.681
 70
    32
  0
VERTEX
  8
E63LALIFT
 62
7
 10
5272.426
 20
-9541.534
 30
-1042.681
 70
    32
  0
VERTEX
  8
E63LALIFT
 62
7
 10
5272.559
 20
-9541.460
 30
-1042.681
 70
    32
  0
VERTEX
  8
E63LALIFT
 62
7
 10
5272.649
 20
-9541.430
 30
-1042.681
 70
    32
  0
VERTEX
  8
E63LALIFT
 62
7
 10
5272.754
 20
-9541.399
 30
-1042.681
 70
    32
  0
VERTEX
  8
E63LALIFT
 62
7
 10
5272.868
 20
-9541.360
 30
-1042.681
 70
    32
  0
VERTEX
  8
E63LALIFT
 62
7
 10
5272.963
 20
-9541.362
 30
-1042.681
 70
    32
  0
VERTEX
  8
E63LALIFT
 62
7
 10
5273.074
 20
-9541.328
 30
-1042.681
 70
    32
  0
VERTEX
  8
E63LALIFT
 62
7
 10
5273.179
 20
-9541.232
 30
-1042.681
 70
    32
  0
VERTEX
  8
E63LALIFT
 62
7
 10
5273.349
 20
-9541.153
 30
-1042.681
 70
    32
  0
VERTEX
  8
E63LALIFT
 62
7
 10
5273.391
 20
-9541.158
 30
-1042.681
 70
    32
  0
VERTEX
  8
E63LALIFT
 62
7
 10
5273.638
 20
-9540.991
 30
-1042.681
 70
    32
  0
VERTEX
  8
E63LALIFT
 62
7
 10
5273.644
 20
-9540.988
 30
-1042.681
 70
    32
  0
VERTEX
  8
E63LALIFT
 62
7
 10
5273.664
 20
-9540.963
 30
-1042.681
 70
    32
  0
VERTEX
  8
E63LALIFT
 62
7
 10
5274.127
 20
-9539.936
 30
-1042.681
 70
    32
  0
VERTEX
  8
E63LALIFT
 62
7
 10
5274.233
 20
-9539.849
 30
-1042.681
 70
    32
  0
VERTEX
  8
E63LALIFT
 62
7
 10
5274.277
 20
-9539.529
 30
-1042.681
 70
    32
  0
VERTEX
  8
E63LALIFT
 62
7
 10
5274.525
 20
-9538.561
 30
-1042.681
 70
    32
  0
VERTEX
  8
E63LALIFT
 62
7
 10
5274.527
 20
-9538.457
 30
-1042.681
 70
    32
  0
VERTEX
  8
E63LALIFT
 62
7
 10
5274.638
 20
-9537.825
 30
-1042.681
 70
    32
  0
VERTEX
  8
E63LALIFT
 62
7
 10
5274.678
 20
-9537.536
 30
-1042.681
 70
    32
  0
VERTEX
  8
E63LALIFT
 62
7
 10
5274.445
 20
-9537.705
 30
-1042.681
 70
    32
  0
VERTEX
  8
E63LALIFT
 62
7
 10
5274.422
 20
-9537.556
 30
-1042.681
 70
    32
  0
VERTEX
  8
E63LALIFT
 62
7
 10
5274.406
 20
-9537.317
 30
-1042.681
 70
    32
  0
VERTEX
  8
E63LALIFT
 62
7
 10
5274.513
 20
-9537.041
 30
-1042.681
 70
    32
  0
VERTEX
  8
E63LALIFT
 62
7
 10
5274.762
 20
-9536.175
 30
-1042.681
 70
    32
  0
VERTEX
  8
E63LALIFT
 62
7
 10
5274.858
 20
-9535.661
 30
-1042.681
 70
    32
  0
VERTEX
  8
E63LALIFT
 62
7
 10
5275.019
 20
-9535.092
 30
-1042.681
 70
    32
  0
VERTEX
  8
E63LALIFT
 62
7
 10
5275.020
 20
-9535.080
 30
-1042.681
 70
    32
  0
VERTEX
  8
E63LALIFT
 62
7
 10
5275.024
 20
-9535.054
 30
-1042.681
 70
    32
  0
VERTEX
  8
E63LALIFT
 62
7
 10
5275.035
 20
-9535.022
 30
-1042.681
 70
    32
  0
VERTEX
  8
E63LALIFT
 62
7
 10
5275.055
 20
-9534.942
 30
-1042.681
 70
    32
  0
VERTEX
  8
E63LALIFT
 62
7
 10
5275.216
 20
-9534.218
 30
-1042.681
 70
    32
  0
VERTEX
  8
E63LALIFT
 62
7
 10
5275.264
 20
-9534.025
 30
-1042.681
 70
    32
  0
VERTEX
  8
E63LALIFT
 62
7
 10
5275.600
 20
-9533.500
 30
-1042.681
 70
    32
  0
VERTEX
  8
E63LALIFT
 62
7
 10
5275.781
 20
-9533.357
 30
-1042.681
 70
    32
  0
VERTEX
  8
E63LALIFT
 62
7
 10
5275.922
 20
-9533.201
 30
-1042.681
 70
    32
  0
VERTEX
  8
E63LALIFT
 62
7
 10
5276.131
 20
-9532.958
 30
-1042.681
 70
    32
  0
VERTEX
  8
E63LALIFT
 62
7
 10
5276.223
 20
-9532.798
 30
-1042.681
 70
    32
  0
VERTEX
  8
E63LALIFT
 62
7
 10
5276.271
 20
-9532.746
 30
-1042.681
 70
    32
  0
VERTEX
  8
E63LALIFT
 62
7
 10
5276.457
 20
-9532.482
 30
-1042.681
 70
    32
  0
VERTEX
  8
E63LALIFT
 62
7
 10
5276.636
 20
-9531.943
 30
-1042.681
 70
    32
  0
VERTEX
  8
E63LALIFT
 62
7
 10
5276.726
 20
-9531.363
 30
-1042.681
 70
    32
  0
VERTEX
  8
E63LALIFT
 62
7
 10
5276.649
 20
-9531.249
 30
-1042.681
 70
    32
  0
VERTEX
  8
E63LALIFT
 62
7
 10
5276.600
 20
-9531.126
 30
-1042.681
 70
    32
  0
VERTEX
  8
E63LALIFT
 62
7
 10
5276.528
 20
-9530.832
 30
-1042.681
 70
    32
  0
VERTEX
  8
E63LALIFT
 62
7
 10
5276.512
 20
-9530.790
 30
-1042.681
 70
    32
  0
VERTEX
  8
E63LALIFT
 62
7
 10
5276.506
 20
-9530.657
 30
-1042.681
 70
    32
  0
VERTEX
  8
E63LALIFT
 62
7
 10
5276.458
 20
-9530.425
 30
-1042.681
 70
    32
  0
VERTEX
  8
E63LALIFT
 62
7
 10
5276.486
 20
-9530.159
 30
-1042.681
 70
    32
  0
VERTEX
  8
E63LALIFT
 62
7
 10
5276.404
 20
-9530.011
 30
-1042.681
 70
    32
  0
VERTEX
  8
E63LALIFT
 62
7
 10
5276.474
 20
-9529.394
 30
-1042.681
 70
    32
  0
VERTEX
  8
E63LALIFT
 62
7
 10
5276.475
 20
-9529.317
 30
-1042.681
 70
    32
  0
VERTEX
  8
E63LALIFT
 62
7
 10
5276.467
 20
-9529.288
 30
-1042.681
 70
    32
  0
VERTEX
  8
E63LALIFT
 62
7
 10
5276.432
 20
-9528.906
 30
-1042.681
 70
    32
  0
VERTEX
  8
E63LALIFT
 62
7
 10
5276.401
 20
-9528.699
 30
-1042.681
 70
    32
  0
VERTEX
  8
E63LALIFT
 62
7
 10
5276.356
 20
-9528.569
 30
-1042.681
 70
    32
  0
VERTEX
  8
E63LALIFT
 62
7
 10
5276.264
 20
-9528.461
 30
-1042.681
 70
    32
  0
VERTEX
  8
E63LALIFT
 62
7
 10
5276.238
 20
-9528.383
 30
-1042.681
 70
    32
  0
VERTEX
  8
E63LALIFT
 62
7
 10
5276.268
 20
-9528.143
 30
-1042.681
 70
    32
  0
VERTEX
  8
E63LALIFT
 62
7
 10
5276.355
 20
-9528.018
 30
-1042.681
 70
    32
  0
VERTEX
  8
E63LALIFT
 62
7
 10
5276.731
 20
-9526.811
 30
-1042.681
 70
    32
  0
VERTEX
  8
E63LALIFT
 62
7
 10
5277.113
 20
-9525.609
 30
-1042.681
 70
    32
  0
VERTEX
  8
E63LALIFT
 62
7
 10
5277.177
 20
-9525.372
 30
-1042.681
 70
    32
  0
VERTEX
  8
E63LALIFT
 62
7
 10
5277.365
 20
-9524.132
 30
-1042.681
 70
    32
  0
VERTEX
  8
E63LALIFT
 62
7
 10
5277.316
 20
-9523.946
 30
-1042.681
 70
    32
  0
VERTEX
  8
E63LALIFT
 62
7
 10
5277.244
 20
-9523.858
 30
-1042.681
 70
    32
  0
VERTEX
  8
E63LALIFT
 62
7
 10
5277.237
 20
-9523.848
 30
-1042.681
 70
    32
  0
VERTEX
  8
E63LALIFT
 62
7
 10
5277.105
 20
-9523.669
 30
-1042.681
 70
    32
  0
VERTEX
  8
E63LALIFT
 62
7
 10
5277.091
 20
-9523.626
 30
-1042.681
 70
    32
  0
VERTEX
  8
E63LALIFT
 62
7
 10
5277.042
 20
-9523.354
 30
-1042.681
 70
    32
  0
VERTEX
  8
E63LALIFT
 62
7
 10
5276.998
 20
-9523.343
 30
-1042.681
 70
    32
  0
VERTEX
  8
E63LALIFT
 62
7
 10
5277.011
 20
-9523.033
 30
-1042.681
 70
    32
  0
VERTEX
  8
E63LALIFT
 62
7
 10
5276.981
 20
-9522.797
 30
-1042.681
 70
    32
  0
VERTEX
  8
E63LALIFT
 62
7
 10
5276.983
 20
-9522.621
 30
-1042.681
 70
    32
  0
VERTEX
  8
E63LALIFT
 62
7
 10
5277.034
 20
-9522.221
 30
-1042.681
 70
    32
  0
VERTEX
  8
E63LALIFT
 62
7
 10
5277.102
 20
-9521.806
 30
-1042.681
 70
    32
  0
VERTEX
  8
E63LALIFT
 62
7
 10
5277.078
 20
-9521.734
 30
-1042.681
 70
    32
  0
VERTEX
  8
E63LALIFT
 62
7
 10
5277.088
 20
-9521.250
 30
-1042.681
 70
    32
  0
VERTEX
  8
E63LALIFT
 62
7
 10
5277.046
 20
-9521.111
 30
-1042.681
 70
    32
  0
VERTEX
  8
E63LALIFT
 62
7
 10
5277.043
 20
-9520.906
 30
-1042.681
 70
    32
  0
VERTEX
  8
E63LALIFT
 62
7
 10
5276.988
 20
-9520.716
 30
-1042.681
 70
    32
  0
VERTEX
  8
E63LALIFT
 62
7
 10
5276.953
 20
-9520.695
 30
-1042.681
 70
    32
  0
VERTEX
  8
E63LALIFT
 62
7
 10
5276.864
 20
-9520.494
 30
-1042.681
 70
    32
  0
VERTEX
  8
E63LALIFT
 62
7
 10
5276.839
 20
-9520.485
 30
-1042.681
 70
    32
  0
VERTEX
  8
E63LALIFT
 62
7
 10
5276.882
 20
-9520.229
 30
-1042.681
 70
    32
  0
VERTEX
  8
E63LALIFT
 62
7
 10
5277.240
 20
-9518.864
 30
-1042.681
 70
    32
  0
VERTEX
  8
E63LALIFT
 62
7
 10
5277.402
 20
-9518.197
 30
-1042.681
 70
    32
  0
VERTEX
  8
E63LALIFT
 62
7
 10
5277.723
 20
-9516.953
 30
-1042.681
 70
    32
  0
VERTEX
  8
E63LALIFT
 62
7
 10
5278.071
 20
-9515.978
 30
-1042.681
 70
    32
  0
VERTEX
  8
E63LALIFT
 62
7
 10
5278.096
 20
-9515.925
 30
-1042.681
 70
    32
  0
VERTEX
  8
E63LALIFT
 62
7
 10
5278.158
 20
-9516.309
 30
-1042.681
 70
    32
  0
VERTEX
  8
E63LALIFT
 62
7
 10
5278.198
 20
-9516.254
 30
-1042.681
 70
    32
  0
VERTEX
  8
E63LALIFT
 62
7
 10
5278.349
 20
-9516.117
 30
-1042.681
 70
    32
  0
VERTEX
  8
E63LALIFT
 62
7
 10
5278.370
 20
-9516.113
 30
-1042.681
 70
    32
  0
VERTEX
  8
E63LALIFT
 62
7
 10
5278.477
 20
-9515.837
 30
-1042.681
 70
    32
  0
VERTEX
  8
E63LALIFT
 62
7
 10
5279.170
 20
-9513.775
 30
-1042.681
 70
    32
  0
VERTEX
  8
E63LALIFT
 62
7
 10
5279.269
 20
-9513.162
 30
-1042.681
 70
    32
  0
VERTEX
  8
E63LALIFT
 62
7
 10
5279.270
 20
-9513.091
 30
-1042.681
 70
    32
  0
VERTEX
  8
E63LALIFT
 62
7
 10
5279.253
 20
-9513.145
 30
-1042.681
 70
    32
  0
VERTEX
  8
E63LALIFT
 62
7
 10
5279.151
 20
-9512.905
 30
-1042.681
 70
    32
  0
VERTEX
  8
E63LALIFT
 62
7
 10
5279.496
 20
-9511.390
 30
-1042.681
 70
    32
  0
VERTEX
  8
E63LALIFT
 62
7
 10
5279.061
 20
-9513.119
 30
-1042.681
 70
    32
  0
VERTEX
  8
E63LALIFT
 62
7
 10
5278.213
 20
-9515.469
 30
-1042.681
 70
    32
  0
VERTEX
  8
E63LALIFT
 62
7
 10
5278.477
 20
-9514.283
 30
-1042.681
 70
    32
  0
VERTEX
  8
E63LALIFT
 62
7
 10
5278.405
 20
-9514.161
 30
-1042.681
 70
    32
  0
VERTEX
  8
E63LALIFT
 62
7
 10
5278.294
 20
-9513.929
 30
-1042.681
 70
    32
  0
VERTEX
  8
E63LALIFT
 62
7
 10
5278.494
 20
-9512.975
 30
-1042.681
 70
    32
  0
VERTEX
  8
E63LALIFT
 62
7
 10
5279.046
 20
-9510.716
 30
-1042.681
 70
    32
  0
VERTEX
  8
E63LALIFT
 62
7
 10
5279.466
 20
-9509.878
 30
-1042.681
 70
    32
  0
VERTEX
  8
E63LALIFT
 62
7
 10
5279.400
 20
-9509.222
 30
-1042.681
 70
    32
  0
VERTEX
  8
E63LALIFT
 62
7
 10
5279.308
 20
-9509.310
 30
-1042.681
 70
    32
  0
VERTEX
  8
E63LALIFT
 62
7
 10
5279.217
 20
-9508.978
 30
-1042.681
 70
    32
  0
VERTEX
  8
E63LALIFT
 62
7
 10
5279.410
 20
-9508.174
 30
-1042.681
 70
    32
  0
VERTEX
  8
E63LALIFT
 62
7
 10
5279.252
 20
-9507.859
 30
-1042.681
 70
    32
  0
VERTEX
  8
E63LALIFT
 62
7
 10
5279.203
 20
-9507.720
 30
-1042.681
 70
    32
  0
VERTEX
  8
E63LALIFT
 62
7
 10
5279.207
 20
-9507.308
 30
-1042.681
 70
    32
  0
VERTEX
  8
E63LALIFT
 62
7
 10
5279.251
 20
-9506.724
 30
-1042.681
 70
    32
  0
VERTEX
  8
E63LALIFT
 62
7
 10
5279.224
 20
-9506.541
 30
-1042.681
 70
    32
  0
VERTEX
  8
E63LALIFT
 62
7
 10
5279.143
 20
-9506.118
 30
-1042.681
 70
    32
  0
VERTEX
  8
E63LALIFT
 62
7
 10
5279.115
 20
-9506.022
 30
-1042.681
 70
    32
  0
VERTEX
  8
E63LALIFT
 62
7
 10
5279.164
 20
-9505.182
 30
-1042.681
 70
    32
  0
VERTEX
  8
E63LALIFT
 62
7
 10
5279.162
 20
-9505.164
 30
-1042.681
 70
    32
  0
VERTEX
  8
E63LALIFT
 62
7
 10
5279.186
 20
-9505.049
 30
-1042.681
 70
    32
  0
VERTEX
  8
E63LALIFT
 62
7
 10
5279.707
 20
-9502.698
 30
-1042.681
 70
    32
  0
VERTEX
  8
E63LALIFT
 62
7
 10
5280.427
 20
-9499.761
 30
-1042.681
 70
    32
  0
VERTEX
  8
E63LALIFT
 62
7
 10
5281.055
 20
-9498.543
 30
-1042.681
 70
    32
  0
VERTEX
  8
E63LALIFT
 62
7
 10
5281.958
 20
-9496.030
 30
-1042.681
 70
    32
  0
VERTEX
  8
E63LALIFT
 62
7
 10
5282.389
 20
-9495.029
 30
-1042.681
 70
    32
  0
VERTEX
  8
E63LALIFT
 62
7
 10
5283.354
 20
-9492.832
 30
-1042.681
 70
    32
  0
VERTEX
  8
E63LALIFT
 62
7
 10
5283.355
 20
-9492.829
 30
-1042.681
 70
    32
  0
VERTEX
  8
E63LALIFT
 62
7
 10
5283.356
 20
-9492.827
 30
-1042.681
 70
    32
  0
VERTEX
  8
E63LALIFT
 62
7
 10
5285.881
 20
-9483.663
 30
-1042.681
 70
    32
  0
VERTEX
  8
E63LALIFT
 62
7
 10
5286.179
 20
-9483.606
 30
-1042.681
 70
    32
  0
VERTEX
  8
E63LALIFT
 62
7
 10
5286.451
 20
-9483.587
 30
-1042.681
 70
    32
  0
VERTEX
  8
E63LALIFT
 62
7
 10
5286.204
 20
-9484.490
 30
-1042.681
 70
    32
  0
VERTEX
  8
E63LALIFT
 62
7
 10
5286.481
 20
-9484.134
 30
-1042.681
 70
    32
  0
VERTEX
  8
E63LALIFT
 62
7
 10
5286.528
 20
-9484.025
 30
-1042.681
 70
    32
  0
VERTEX
  8
E63LALIFT
 62
7
 10
5286.841
 20
-9483.338
 30
-1042.681
 70
    32
  0
VERTEX
  8
E63LALIFT
 62
7
 10
5287.407
 20
-9481.053
 30
-1042.681
 70
    32
  0
VERTEX
  8
E63LALIFT
 62
7
 10
5287.877
 20
-9479.307
 30
-1042.681
 70
    32
  0
VERTEX
  8
E63LALIFT
 62
7
 10
5288.192
 20
-9477.761
 30
-1042.681
 70
    32
  0
VERTEX
  8
E63LALIFT
 62
7
 10
5289.463
 20
-9472.730
 30
-1042.681
 70
    32
  0
VERTEX
  8
E63LALIFT
 62
7
 10
5289.684
 20
-9471.648
 30
-1042.681
 70
    32
  0
VERTEX
  8
E63LALIFT
 62
7
 10
5289.931
 20
-9470.576
 30
-1042.681
 70
    32
  0
VERTEX
  8
E63LALIFT
 62
7
 10
5289.779
 20
-9470.297
 30
-1042.681
 70
    32
  0
VERTEX
  8
E63LALIFT
 62
7
 10
5289.990
 20
-9469.442
 30
-1042.681
 70
    32
  0
VERTEX
  8
E63LALIFT
 62
7
 10
5289.848
 20
-9469.146
 30
-1042.681
 70
    32
  0
VERTEX
  8
E63LALIFT
 62
7
 10
5290.082
 20
-9468.257
 30
-1042.681
 70
    32
  0
SEQEND
  8
E63LALIFT
  0
POLYLINE
  8
E63LALIFT
 62
8
 66
     1
 70
     9
  0
VERTEX
  8
E63LALIFT
 62
8
 10
5260.844
 20
-9523.423
 30
-1030.387
 70
    32
  0
VERTEX
  8
E63LALIFT
 62
8
 10
5260.492
 20
-9526.948
 30
-1030.387
 70
    32
  0
VERTEX
  8
E63LALIFT
 62
8
 10
5261.368
 20
-9528.468
 30
-1030.387
 70
    32
  0
VERTEX
  8
E63LALIFT
 62
8
 10
5263.249
 20
-9529.230
 30
-1030.387
 70
    32
  0
VERTEX
  8
E63LALIFT
 62
8
 10
5266.373
 20
-9530.658
 30
-1030.387
 70
    32
  0
VERTEX
  8
E63LALIFT
 62
8
 10
5266.500
 20
-9532.822
 30
-1030.387
 70
    32
  0
VERTEX
  8
E63LALIFT
 62
8
 10
5267.253
 20
-9534.030
 30
-1030.387
 70
    32
  0
VERTEX
  8
E63LALIFT
 62
8
 10
5267.825
 20
-9535.689
 30
-1030.387
 70
    32
  0
VERTEX
  8
E63LALIFT
 62
8
 10
5269.101
 20
-9536.103
 30
-1030.387
 70
    32
  0
VERTEX
  8
E63LALIFT
 62
8
 10
5270.368
 20
-9532.412
 30
-1030.387
 70
    32
  0
VERTEX
  8
E63LALIFT
 62
8
 10
5272.709
 20
-9528.827
 30
-1030.387
 70
    32
  0
VERTEX
  8
E63LALIFT
 62
8
 10
5274.657
 20
-9524.986
 30
-1030.387
 70
    32
  0
VERTEX
  8
E63LALIFT
 62
8
 10
5274.671
 20
-9520.487
 30
-1030.387
 70
    32
  0
VERTEX
  8
E63LALIFT
 62
8
 10
5273.702
 20
-9518.942
 30
-1030.387
 70
    32
  0
VERTEX
  8
E63LALIFT
 62
8
 10
5273.546
 20
-9514.420
 30
-1030.387
 70
    32
  0
VERTEX
  8
E63LALIFT
 62
8
 10
5274.850
 20
-9510.094
 30
-1030.387
 70
    32
  0
VERTEX
  8
E63LALIFT
 62
8
 10
5277.248
 20
-9505.169
 30
-1030.387
 70
    32
  0
VERTEX
  8
E63LALIFT
 62
8
 10
5276.793
 20
-9503.136
 30
-1030.387
 70
    32
  0
VERTEX
  8
E63LALIFT
 62
8
 10
5277.276
 20
-9498.310
 30
-1030.387
 70
    32
  0
VERTEX
  8
E63LALIFT
 62
8
 10
5277.348
 20
-9496.795
 30
-1030.387
 70
    32
  0
VERTEX
  8
E63LALIFT
 62
8
 10
5276.682
 20
-9495.841
 30
-1030.387
 70
    32
  0
VERTEX
  8
E63LALIFT
 62
8
 10
5281.658
 20
-9481.650
 30
-1030.387
 70
    32
  0
VERTEX
  8
E63LALIFT
 62
8
 10
5284.659
 20
-9472.659
 30
-1030.387
 70
    32
  0
VERTEX
  8
E63LALIFT
 62
8
 10
5288.347
 20
-9460.970
 30
-1030.387
 70
    32
  0
VERTEX
  8
E63LALIFT
 62
8
 10
5287.520
 20
-9460.296
 30
-1030.387
 70
    32
  0
VERTEX
  8
E63LALIFT
 62
8
 10
5285.549
 20
-9459.760
 30
-1030.387
 70
    32
  0
VERTEX
  8
E63LALIFT
 62
8
 10
5283.323
 20
-9459.056
 30
-1030.387
 70
    32
  0
VERTEX
  8
E63LALIFT
 62
8
 10
5282.352
 20
-9458.479
 30
-1030.387
 70
    32
  0
VERTEX
  8
E63LALIFT
 62
8
 10
5281.515
 20
-9458.050
 30
-1030.387
 70
    32
  0
VERTEX
  8
E63LALIFT
 62
8
 10
5279.297
 20
-9458.065
 30
-1030.387
 70
    32
  0
VERTEX
  8
E63LALIFT
 62
8
 10
5275.808
 20
-9457.581
 30
-1030.387
 70
    32
  0
VERTEX
  8
E63LALIFT
 62
8
 10
5274.674
 20
-9457.977
 30
-1030.387
 70
    32
  0
VERTEX
  8
E63LALIFT
 62
8
 10
5274.944
 20
-9458.080
 30
-1030.387
 70
    32
  0
VERTEX
  8
E63LALIFT
 62
8
 10
5272.508
 20
-9463.943
 30
-1030.387
 70
    32
  0
VERTEX
  8
E63LALIFT
 62
8
 10
5270.776
 20
-9467.090
 30
-1030.387
 70
    32
  0
VERTEX
  8
E63LALIFT
 62
8
 10
5267.352
 20
-9474.413
 30
-1030.387
 70
    32
  0
VERTEX
  8
E63LALIFT
 62
8
 10
5266.015
 20
-9477.166
 30
-1030.387
 70
    32
  0
VERTEX
  8
E63LALIFT
 62
8
 10
5264.208
 20
-9479.242
 30
-1030.387
 70
    32
  0
VERTEX
  8
E63LALIFT
 62
8
 10
5262.875
 20
-9480.911
 30
-1030.387
 70
    32
  0
VERTEX
  8
E63LALIFT
 62
8
 10
5261.377
 20
-9485.103
 30
-1030.387
 70
    32
  0
VERTEX
  8
E63LALIFT
 62
8
 10
5261.938
 20
-9486.961
 30
-1030.387
 70
    32
  0
VERTEX
  8
E63LALIFT
 62
8
 10
5261.033
 20
-9492.331
 30
-1030.387
 70
    32
  0
VERTEX
  8
E63LALIFT
 62
8
 10
5261.546
 20
-9493.631
 30
-1030.387
 70
    32
  0
VERTEX
  8
E63LALIFT
 62
8
 10
5263.128
 20
-9495.594
 30
-1030.387
 70
    32
  0
VERTEX
  8
E63LALIFT
 62
8
 10
5261.829
 20
-9498.961
 30
-1030.387
 70
    32
  0
VERTEX
  8
E63LALIFT
 62
8
 10
5261.227
 20
-9503.362
 30
-1030.387
 70
    32
  0
VERTEX
  8
E63LALIFT
 62
8
 10
5261.971
 20
-9505.143
 30
-1030.387
 70
    32
  0
VERTEX
  8
E63LALIFT
 62
8
 10
5261.286
 20
-9508.512
 30
-1030.387
 70
    32
  0
VERTEX
  8
E63LALIFT
 62
8
 10
5261.680
 20
-9511.284
 30
-1030.387
 70
    32
  0
VERTEX
  8
E63LALIFT
 62
8
 10
5261.396
 20
-9514.203
 30
-1030.387
 70
    32
  0
VERTEX
  8
E63LALIFT
 62
8
 10
5261.136
 20
-9518.560
 30
-1030.387
 70
    32
  0
VERTEX
  8
E63LALIFT
 62
8
 10
5260.814
 20
-9522.082
 30
-1030.387
 70
    32
  0
SEQEND
  8
E63LALIFT
  0
POLYLINE
  8
E63LALIFT
 62
1
 66
     1
 70
     9
  0
VERTEX
  8
E63LALIFT
 62
1
 10
5261.349
 20
-9487.016
 30
-1024.239
 70
    32
  0
VERTEX
  8
E63LALIFT
 62
1
 10
5259.604
 20
-9491.539
 30
-1024.239
 70
    32
  0
VERTEX
  8
E63LALIFT
 62
1
 10
5259.032
 20
-9495.769
 30
-1024.239
 70
    32
  0
VERTEX
  8
E63LALIFT
 62
1
 10
5259.913
 20
-9498.654
 30
-1024.239
 70
    32
  0
VERTEX
  8
E63LALIFT
 62
1
 10
5258.775
 20
-9502.512
 30
-1024.239
 70
    32
  0
VERTEX
  8
E63LALIFT
 62
1
 10
5259.550
 20
-9503.037
 30
-1024.239
 70
    32
  0
VERTEX
  8
E63LALIFT
 62
1
 10
5260.214
 20
-9508.190
 30
-1024.239
 70
    32
  0
VERTEX
  8
E63LALIFT
 62
1
 10
5259.545
 20
-9512.623
 30
-1024.239
 70
    32
  0
VERTEX
  8
E63LALIFT
 62
1
 10
5261.056
 20
-9515.890
 30
-1024.239
 70
    32
  0
VERTEX
  8
E63LALIFT
 62
1
 10
5262.270
 20
-9517.463
 30
-1024.239
 70
    32
  0
VERTEX
  8
E63LALIFT
 62
1
 10
5264.016
 20
-9518.739
 30
-1024.239
 70
    32
  0
VERTEX
  8
E63LALIFT
 62
1
 10
5265.574
 20
-9520.435
 30
-1024.239
 70
    32
  0
VERTEX
  8
E63LALIFT
 62
1
 10
5267.520
 20
-9520.689
 30
-1024.239
 70
    32
  0
VERTEX
  8
E63LALIFT
 62
1
 10
5269.490
 20
-9518.866
 30
-1024.239
 70
    32
  0
VERTEX
  8
E63LALIFT
 62
1
 10
5270.122
 20
-9516.944
 30
-1024.239
 70
    32
  0
VERTEX
  8
E63LALIFT
 62
1
 10
5270.395
 20
-9515.724
 30
-1024.239
 70
    32
  0
VERTEX
  8
E63LALIFT
 62
1
 10
5270.056
 20
-9513.772
 30
-1024.239
 70
    32
  0
VERTEX
  8
E63LALIFT
 62
1
 10
5270.948
 20
-9510.531
 30
-1024.239
 70
    32
  0
VERTEX
  8
E63LALIFT
 62
1
 10
5272.597
 20
-9505.917
 30
-1024.239
 70
    32
  0
VERTEX
  8
E63LALIFT
 62
1
 10
5274.271
 20
-9502.153
 30
-1024.239
 70
    32
  0
VERTEX
  8
E63LALIFT
 62
1
 10
5276.641
 20
-9498.283
 30
-1024.239
 70
    32
  0
VERTEX
  8
E63LALIFT
 62
1
 10
5277.584
 20
-9492.641
 30
-1024.239
 70
    32
  0
VERTEX
  8
E63LALIFT
 62
1
 10
5276.958
 20
-9488.880
 30
-1024.239
 70
    32
  0
VERTEX
  8
E63LALIFT
 62
1
 10
5280.024
 20
-9479.158
 30
-1024.239
 70
    32
  0
VERTEX
  8
E63LALIFT
 62
1
 10
5283.425
 20
-9470.235
 30
-1024.239
 70
    32
  0
VERTEX
  8
E63LALIFT
 62
1
 10
5286.787
 20
-9459.944
 30
-1024.239
 70
    32
  0
VERTEX
  8
E63LALIFT
 62
1
 10
5285.458
 20
-9460.123
 30
-1024.239
 70
    32
  0
VERTEX
  8
E63LALIFT
 62
1
 10
5283.712
 20
-9458.816
 30
-1024.239
 70
    32
  0
VERTEX
  8
E63LALIFT
 62
1
 10
5281.363
 20
-9457.610
 30
-1024.239
 70
    32
  0
VERTEX
  8
E63LALIFT
 62
1
 10
5277.398
 20
-9457.324
 30
-1024.239
 70
    32
  0
VERTEX
  8
E63LALIFT
 62
1
 10
5273.636
 20
-9456.849
 30
-1024.239
 70
    32
  0
VERTEX
  8
E63LALIFT
 62
1
 10
5270.046
 20
-9464.533
 30
-1024.239
 70
    32
  0
VERTEX
  8
E63LALIFT
 62
1
 10
5266.312
 20
-9470.718
 30
-1024.239
 70
    32
  0
VERTEX
  8
E63LALIFT
 62
1
 10
5264.449
 20
-9473.804
 30
-1024.239
 70
    32
  0
VERTEX
  8
E63LALIFT
 62
1
 10
5261.153
 20
-9477.493
 30
-1024.239
 70
    32
  0
VERTEX
  8
E63LALIFT
 62
1
 10
5259.184
 20
-9480.848
 30
-1024.239
 70
    32
  0
VERTEX
  8
E63LALIFT
 62
1
 10
5258.722
 20
-9483.686
 30
-1024.239
 70
    32
  0
VERTEX
  8
E63LALIFT
 62
1
 10
5261.349
 20
-9487.016
 30
-1024.239
 70
    32
  0
VERTEX
  8
E63LALIFT
 62
1
 10
5259.604
 20
-9491.539
 30
-1024.239
 70
    32
  0
SEQEND
  8
E63LALIFT
  0
POLYLINE
  8
E63LALIFT
 62
5
 66
     1
 70
     9
  0
VERTEX
  8
E63LALIFT
 62
5
 10
5284.919
 20
-9459.521
 30
-1018.092
 70
    32
  0
VERTEX
  8
E63LALIFT
 62
5
 10
5281.887
 20
-9456.716
 30
-1018.092
 70
    32
  0
VERTEX
  8
E63LALIFT
 62
5
 10
5279.257
 20
-9457.021
 30
-1018.092
 70
    32
  0
VERTEX
  8
E63LALIFT
 62
5
 10
5275.961
 20
-9456.574
 30
-1018.092
 70
    32
  0
VERTEX
  8
E63LALIFT
 62
5
 10
5272.444
 20
-9456.447
 30
-1018.092
 70
    32
  0
VERTEX
  8
E63LALIFT
 62
5
 10
5270.955
 20
-9458.810
 30
-1018.092
 70
    32
  0
VERTEX
  8
E63LALIFT
 62
5
 10
5268.728
 20
-9464.271
 30
-1018.092
 70
    32
  0
VERTEX
  8
E63LALIFT
 62
5
 10
5265.740
 20
-9467.788
 30
-1018.092
 70
    32
  0
VERTEX
  8
E63LALIFT
 62
5
 10
5258.935
 20
-9476.711
 30
-1018.092
 70
    32
  0
VERTEX
  8
E63LALIFT
 62
5
 10
5259.422
 20
-9478.747
 30
-1018.092
 70
    32
  0
VERTEX
  8
E63LALIFT
 62
5
 10
5257.378
 20
-9484.118
 30
-1018.092
 70
    32
  0
VERTEX
  8
E63LALIFT
 62
5
 10
5257.025
 20
-9486.731
 30
-1018.092
 70
    32
  0
VERTEX
  8
E63LALIFT
 62
5
 10
5257.476
 20
-9487.310
 30
-1018.092
 70
    32
  0
VERTEX
  8
E63LALIFT
 62
5
 10
5257.059
 20
-9491.431
 30
-1018.092
 70
    32
  0
VERTEX
  8
E63LALIFT
 62
5
 10
5257.855
 20
-9492.165
 30
-1018.092
 70
    32
  0
VERTEX
  8
E63LALIFT
 62
5
 10
5256.433
 20
-9496.683
 30
-1018.092
 70
    32
  0
VERTEX
  8
E63LALIFT
 62
5
 10
5258.052
 20
-9498.005
 30
-1018.092
 70
    32
  0
VERTEX
  8
E63LALIFT
 62
5
 10
5258.083
 20
-9500.339
 30
-1018.092
 70
    32
  0
VERTEX
  8
E63LALIFT
 62
5
 10
5258.920
 20
-9500.192
 30
-1018.092
 70
    32
  0
VERTEX
  8
E63LALIFT
 62
5
 10
5260.033
 20
-9498.657
 30
-1018.092
 70
    32
  0
VERTEX
  8
E63LALIFT
 62
5
 10
5260.791
 20
-9498.886
 30
-1018.092
 70
    32
  0
VERTEX
  8
E63LALIFT
 62
5
 10
5265.268
 20
-9501.640
 30
-1018.092
 70
    32
  0
VERTEX
  8
E63LALIFT
 62
5
 10
5266.686
 20
-9502.465
 30
-1018.092
 70
    32
  0
VERTEX
  8
E63LALIFT
 62
5
 10
5268.358
 20
-9502.483
 30
-1018.092
 70
    32
  0
VERTEX
  8
E63LALIFT
 62
5
 10
5270.484
 20
-9500.857
 30
-1018.092
 70
    32
  0
VERTEX
  8
E63LALIFT
 62
5
 10
5272.425
 20
-9498.774
 30
-1018.092
 70
    32
  0
VERTEX
  8
E63LALIFT
 62
5
 10
5273.584
 20
-9495.034
 30
-1018.092
 70
    32
  0
VERTEX
  8
E63LALIFT
 62
5
 10
5275.007
 20
-9494.080
 30
-1018.092
 70
    32
  0
VERTEX
  8
E63LALIFT
 62
5
 10
5276.517
 20
-9491.575
 30
-1018.092
 70
    32
  0
VERTEX
  8
E63LALIFT
 62
5
 10
5278.285
 20
-9485.241
 30
-1018.092
 70
    32
  0
VERTEX
  8
E63LALIFT
 62
5
 10
5278.570
 20
-9483.294
 30
-1018.092
 70
    32
  0
VERTEX
  8
E63LALIFT
 62
5
 10
5277.369
 20
-9482.010
 30
-1018.092
 70
    32
  0
VERTEX
  8
E63LALIFT
 62
5
 10
5280.520
 20
-9470.836
 30
-1018.092
 70
    32
  0
VERTEX
  8
E63LALIFT
 62
5
 10
5281.146
 20
-9469.308
 30
-1018.092
 70
    32
  0
VERTEX
  8
E63LALIFT
 62
5
 10
5281.146
 20
-9469.308
 30
-1018.092
 70
    32
  0
SEQEND
  8
E63LALIFT
  0
POLYLINE
  8
E63LALIFT
 62
13
 66
     1
 70
     9
  0
VERTEX
  8
E63LALIFT
 62
13
 10
5283.546
 20
-9456.141
 30
-1011.945
 70
    32
  0
VERTEX
  8
E63LALIFT
 62
13
 10
5282.740
 20
-9455.637
 30
-1011.945
 70
    32
  0
VERTEX
  8
E63LALIFT
 62
13
 10
5281.568
 20
-9455.650
 30
-1011.945
 70
    32
  0
VERTEX
  8
E63LALIFT
 62
13
 10
5280.698
 20
-9455.692
 30
-1011.945
 70
    32
  0
VERTEX
  8
E63LALIFT
 62
13
 10
5278.757
 20
-9456.564
 30
-1011.945
 70
    32
  0
VERTEX
  8
E63LALIFT
 62
13
 10
5275.935
 20
-9455.487
 30
-1011.945
 70
    32
  0
VERTEX
  8
E63LALIFT
 62
13
 10
5273.449
 20
-9454.749
 30
-1011.945
 70
    32
  0
VERTEX
  8
E63LALIFT
 62
13
 10
5271.449
 20
-9455.128
 30
-1011.945
 70
    32
  0
VERTEX
  8
E63LALIFT
 62
13
 10
5269.542
 20
-9455.233
 30
-1011.945
 70
    32
  0
VERTEX
  8
E63LALIFT
 62
13
 10
5268.379
 20
-9456.772
 30
-1011.945
 70
    32
  0
VERTEX
  8
E63LALIFT
 62
13
 10
5265.870
 20
-9461.872
 30
-1011.945
 70
    32
  0
VERTEX
  8
E63LALIFT
 62
13
 10
5264.765
 20
-9461.909
 30
-1011.945
 70
    32
  0
VERTEX
  8
E63LALIFT
 62
13
 10
5263.262
 20
-9464.840
 30
-1011.945
 70
    32
  0
VERTEX
  8
E63LALIFT
 62
13
 10
5262.199
 20
-9468.371
 30
-1011.945
 70
    32
  0
VERTEX
  8
E63LALIFT
 62
13
 10
5260.871
 20
-9469.939
 30
-1011.945
 70
    32
  0
VERTEX
  8
E63LALIFT
 62
13
 10
5258.294
 20
-9471.527
 30
-1011.945
 70
    32
  0
VERTEX
  8
E63LALIFT
 62
13
 10
5256.347
 20
-9473.601
 30
-1011.945
 70
    32
  0
VERTEX
  8
E63LALIFT
 62
13
 10
5255.125
 20
-9476.865
 30
-1011.945
 70
    32
  0
VERTEX
  8
E63LALIFT
 62
13
 10
5255.017
 20
-9477.694
 30
-1011.945
 70
    32
  0
VERTEX
  8
E63LALIFT
 62
13
 10
5255.782
 20
-9478.673
 30
-1011.945
 70
    32
  0
VERTEX
  8
E63LALIFT
 62
13
 10
5254.768
 20
-9484.436
 30
-1011.945
 70
    32
  0
VERTEX
  8
E63LALIFT
 62
13
 10
5255.797
 20
-9485.676
 30
-1011.945
 70
    32
  0
VERTEX
  8
E63LALIFT
 62
13
 10
5254.140
 20
-9490.902
 30
-1011.945
 70
    32
  0
VERTEX
  8
E63LALIFT
 62
13
 10
5255.159
 20
-9492.090
 30
-1011.945
 70
    32
  0
VERTEX
  8
E63LALIFT
 62
13
 10
5256.551
 20
-9490.466
 30
-1011.945
 70
    32
  0
VERTEX
  8
E63LALIFT
 62
13
 10
5258.986
 20
-9491.466
 30
-1011.945
 70
    32
  0
VERTEX
  8
E63LALIFT
 62
13
 10
5263.381
 20
-9494.045
 30
-1011.945
 70
    32
  0
VERTEX
  8
E63LALIFT
 62
13
 10
5266.836
 20
-9495.964
 30
-1011.945
 70
    32
  0
VERTEX
  8
E63LALIFT
 62
13
 10
5268.530
 20
-9495.306
 30
-1011.945
 70
    32
  0
VERTEX
  8
E63LALIFT
 62
13
 10
5270.801
 20
-9492.867
 30
-1011.945
 70
    32
  0
VERTEX
  8
E63LALIFT
 62
13
 10
5273.127
 20
-9490.062
 30
-1011.945
 70
    32
  0
VERTEX
  8
E63LALIFT
 62
13
 10
5274.835
 20
-9487.028
 30
-1011.945
 70
    32
  0
VERTEX
  8
E63LALIFT
 62
13
 10
5276.197
 20
-9485.872
 30
-1011.945
 70
    32
  0
VERTEX
  8
E63LALIFT
 62
13
 10
5278.991
 20
-9477.844
 30
-1011.945
 70
    32
  0
VERTEX
  8
E63LALIFT
 62
13
 10
5279.182
 20
-9476.544
 30
-1011.945
 70
    32
  0
VERTEX
  8
E63LALIFT
 62
13
 10
5277.778
 20
-9475.140
 30
-1011.945
 70
    32
  0
VERTEX
  8
E63LALIFT
 62
13
 10
5280.880
 20
-9463.564
 30
-1011.945
 70
    32
  0
SEQEND
  8
E63LALIFT
  0
POLYLINE
  8
E63LALIFT
 62
2
 66
     1
 70
     9
  0
VERTEX
  8
E63LALIFT
 62
2
 10
5281.878
 20
-9451.261
 30
-1005.797
 70
    32
  0
VERTEX
  8
E63LALIFT
 62
2
 10
5277.779
 20
-9451.301
 30
-1005.797
 70
    32
  0
VERTEX
  8
E63LALIFT
 62
2
 10
5275.274
 20
-9450.755
 30
-1005.797
 70
    32
  0
VERTEX
  8
E63LALIFT
 62
2
 10
5274.259
 20
-9452.255
 30
-1005.797
 70
    32
  0
VERTEX
  8
E63LALIFT
 62
2
 10
5272.232
 20
-9451.690
 30
-1005.797
 70
    32
  0
VERTEX
  8
E63LALIFT
 62
2
 10
5270.994
 20
-9451.947
 30
-1005.797
 70
    32
  0
VERTEX
  8
E63LALIFT
 62
2
 10
5269.175
 20
-9454.234
 30
-1005.797
 70
    32
  0
VERTEX
  8
E63LALIFT
 62
2
 10
5265.090
 20
-9456.930
 30
-1005.797
 70
    32
  0
VERTEX
  8
E63LALIFT
 62
2
 10
5263.401
 20
-9458.257
 30
-1005.797
 70
    32
  0
VERTEX
  8
E63LALIFT
 62
2
 10
5262.488
 20
-9459.509
 30
-1005.797
 70
    32
  0
VERTEX
  8
E63LALIFT
 62
2
 10
5260.176
 20
-9466.057
 30
-1005.797
 70
    32
  0
VERTEX
  8
E63LALIFT
 62
2
 10
5258.803
 20
-9468.554
 30
-1005.797
 70
    32
  0
VERTEX
  8
E63LALIFT
 62
2
 10
5257.318
 20
-9470.134
 30
-1005.797
 70
    32
  0
VERTEX
  8
E63LALIFT
 62
2
 10
5254.851
 20
-9471.048
 30
-1005.797
 70
    32
  0
VERTEX
  8
E63LALIFT
 62
2
 10
5253.530
 20
-9473.208
 30
-1005.797
 70
    32
  0
VERTEX
  8
E63LALIFT
 62
2
 10
5252.658
 20
-9478.162
 30
-1005.797
 70
    32
  0
VERTEX
  8
E63LALIFT
 62
2
 10
5253.739
 20
-9479.188
 30
-1005.797
 70
    32
  0
VERTEX
  8
E63LALIFT
 62
2
 10
5251.758
 20
-9485.033
 30
-1005.797
 70
    32
  0
VERTEX
  8
E63LALIFT
 62
2
 10
5253.861
 20
-9484.695
 30
-1005.797
 70
    32
  0
VERTEX
  8
E63LALIFT
 62
2
 10
5255.232
 20
-9482.441
 30
-1005.797
 70
    32
  0
VERTEX
  8
E63LALIFT
 62
2
 10
5259.475
 20
-9485.143
 30
-1005.797
 70
    32
  0
VERTEX
  8
E63LALIFT
 62
2
 10
5262.998
 20
-9487.401
 30
-1005.797
 70
    32
  0
VERTEX
  8
E63LALIFT
 62
2
 10
5267.219
 20
-9489.423
 30
-1005.797
 70
    32
  0
VERTEX
  8
E63LALIFT
 62
2
 10
5269.990
 20
-9485.220
 30
-1005.797
 70
    32
  0
VERTEX
  8
E63LALIFT
 62
2
 10
5272.343
 20
-9483.882
 30
-1005.797
 70
    32
  0
VERTEX
  8
E63LALIFT
 62
2
 10
5275.892
 20
-9478.749
 30
-1005.797
 70
    32
  0
VERTEX
  8
E63LALIFT
 62
2
 10
5277.976
 20
-9475.596
 30
-1005.797
 70
    32
  0
VERTEX
  8
E63LALIFT
 62
2
 10
5279.697
 20
-9470.447
 30
-1005.797
 70
    32
  0
VERTEX
  8
E63LALIFT
 62
2
 10
5279.734
 20
-9469.741
 30
-1005.797
 70
    32
  0
VERTEX
  8
E63LALIFT
 62
2
 10
5278.189
 20
-9468.270
 30
-1005.797
 70
    32
  0
VERTEX
  8
E63LALIFT
 62
2
 10
5278.401
 20
-9464.907
 30
-1005.797
 70
    32
  0
VERTEX
  8
E63LALIFT
 62
2
 10
5279.791
 20
-9459.821
 30
-1005.797
 70
    32
  0
SEQEND
  8
E63LALIFT
  0
POLYLINE
  8
E63LALIFT
 62
6
 66
     1
 70
     9
  0
VERTEX
  8
E63LALIFT
 62
6
 10
5254.356
 20
-9474.870
 30
-999.650
 70
    32
  0
VERTEX
  8
E63LALIFT
 62
6
 10
5257.243
 20
-9477.179
 30
-999.650
 70
    32
  0
VERTEX
  8
E63LALIFT
 62
6
 10
5259.422
 20
-9478.747
 30
-999.650
 70
    32
  0
VERTEX
  8
E63LALIFT
 62
6
 10
5261.523
 20
-9480.156
 30
-999.650
 70
    32
  0
VERTEX
  8
E63LALIFT
 62
6
 10
5263.506
 20
-9481.198
 30
-999.650
 70
    32
  0
VERTEX
  8
E63LALIFT
 62
6
 10
5265.265
 20
-9479.246
 30
-999.650
 70
    32
  0
VERTEX
  8
E63LALIFT
 62
6
 10
5267.730
 20
-9480.945
 30
-999.650
 70
    32
  0
VERTEX
  8
E63LALIFT
 62
6
 10
5268.966
 20
-9477.997
 30
-999.650
 70
    32
  0
VERTEX
  8
E63LALIFT
 62
6
 10
5273.672
 20
-9473.579
 30
-999.650
 70
    32
  0
VERTEX
  8
E63LALIFT
 62
6
 10
5276.081
 20
-9471.327
 30
-999.650
 70
    32
  0
VERTEX
  8
E63LALIFT
 62
6
 10
5277.424
 20
-9467.104
 30
-999.650
 70
    32
  0
VERTEX
  8
E63LALIFT
 62
6
 10
5278.000
 20
-9467.093
 30
-999.650
 70
    32
  0
VERTEX
  8
E63LALIFT
 62
6
 10
5278.951
 20
-9465.169
 30
-999.650
 70
    32
  0
VERTEX
  8
E63LALIFT
 62
6
 10
5280.404
 20
-9463.043
 30
-999.650
 70
    32
  0
VERTEX
  8
E63LALIFT
 62
6
 10
5278.140
 20
-9459.501
 30
-999.650
 70
    32
  0
VERTEX
  8
E63LALIFT
 62
6
 10
5280.431
 20
-9451.116
 30
-999.650
 70
    32
  0
VERTEX
  8
E63LALIFT
 62
6
 10
5281.683
 20
-9445.980
 30
-999.650
 70
    32
  0
VERTEX
  8
E63LALIFT
 62
6
 10
5279.551
 20
-9445.601
 30
-999.650
 70
    32
  0
VERTEX
  8
E63LALIFT
 62
6
 10
5277.137
 20
-9446.046
 30
-999.650
 70
    32
  0
VERTEX
  8
E63LALIFT
 62
6
 10
5274.612
 20
-9446.022
 30
-999.650
 70
    32
  0
VERTEX
  8
E63LALIFT
 62
6
 10
5271.911
 20
-9452.062
 30
-999.650
 70
    32
  0
VERTEX
  8
E63LALIFT
 62
6
 10
5270.529
 20
-9452.568
 30
-999.650
 70
    32
  0
VERTEX
  8
E63LALIFT
 62
6
 10
5269.059
 20
-9453.573
 30
-999.650
 70
    32
  0
VERTEX
  8
E63LALIFT
 62
6
 10
5265.754
 20
-9458.436
 30
-999.650
 70
    32
  0
VERTEX
  8
E63LALIFT
 62
6
 10
5261.444
 20
-9460.693
 30
-999.650
 70
    32
  0
VERTEX
  8
E63LALIFT
 62
6
 10
5256.922
 20
-9469.772
 30
-999.650
 70
    32
  0
SEQEND
  8
E63LALIFT
  0
POLYLINE
  8
E63LALIFT
 62
7
 66
     1
 70
     9
  0
VERTEX
  8
E63LALIFT
 62
7
 10
5265.634
 20
-9471.406
 30
-996.576
 70
    32
  0
VERTEX
  8
E63LALIFT
 62
7
 10
5266.648
 20
-9472.685
 30
-996.576
 70
    32
  0
VERTEX
  8
E63LALIFT
 62
7
 10
5267.775
 20
-9473.118
 30
-996.576
 70
    32
  0
VERTEX
  8
E63LALIFT
 62
7
 10
5269.069
 20
-9473.407
 30
-996.576
 70
    32
  0
VERTEX
  8
E63LALIFT
 62
7
 10
5270.524
 20
-9472.450
 30
-996.576
 70
    32
  0
VERTEX
  8
E63LALIFT
 62
7
 10
5272.765
 20
-9469.511
 30
-996.576
 70
    32
  0
VERTEX
  8
E63LALIFT
 62
7
 10
5274.585
 20
-9468.078
 30
-996.576
 70
    32
  0
VERTEX
  8
E63LALIFT
 62
7
 10
5275.396
 20
-9468.567
 30
-996.576
 70
    32
  0
VERTEX
  8
E63LALIFT
 62
7
 10
5275.902
 20
-9467.887
 30
-996.576
 70
    32
  0
VERTEX
  8
E63LALIFT
 62
7
 10
5278.339
 20
-9460.221
 30
-996.576
 70
    32
  0
VERTEX
  8
E63LALIFT
 62
7
 10
5278.009
 20
-9456.798
 30
-996.576
 70
    32
  0
VERTEX
  8
E63LALIFT
 62
7
 10
5281.586
 20
-9443.340
 30
-996.576
 70
    32
  0
VERTEX
  8
E63LALIFT
 62
7
 10
5280.350
 20
-9442.947
 30
-996.576
 70
    32
  0
VERTEX
  8
E63LALIFT
 62
7
 10
5279.116
 20
-9442.844
 30
-996.576
 70
    32
  0
VERTEX
  8
E63LALIFT
 62
7
 10
5276.412
 20
-9443.404
 30
-996.576
 70
    32
  0
VERTEX
  8
E63LALIFT
 62
7
 10
5274.531
 20
-9446.996
 30
-996.576
 70
    32
  0
VERTEX
  8
E63LALIFT
 62
7
 10
5273.315
 20
-9448.872
 30
-996.576
 70
    32
  0
VERTEX
  8
E63LALIFT
 62
7
 10
5271.114
 20
-9452.690
 30
-996.576
 70
    32
  0
VERTEX
  8
E63LALIFT
 62
7
 10
5268.988
 20
-9461.094
 30
-996.576
 70
    32
  0
VERTEX
  8
E63LALIFT
 62
7
 10
5266.689
 20
-9461.726
 30
-996.576
 70
    32
  0
VERTEX
  8
E63LALIFT
 62
7
 10
5267.930
 20
-9464.381
 30
-996.576
 70
    32
  0
SEQEND
  8
E63LALIFT
  0
POLYLINE
  8
E63LALIFT
 62
3
 66
     1
 70
     9
  0
VERTEX
  8
E63LALIFT
 62
3
 10
5276.832
 20
-9450.250
 30
-993.503
 70
    32
  0
VERTEX
  8
E63LALIFT
 62
3
 10
5277.645
 20
-9450.542
 30
-993.503
 70
    32
  0
VERTEX
  8
E63LALIFT
 62
3
 10
5277.796
 20
-9450.839
 30
-993.503
 70
    32
  0
VERTEX
  8
E63LALIFT
 62
3
 10
5278.737
 20
-9450.953
 30
-993.503
 70
    32
  0
VERTEX
  8
E63LALIFT
 62
3
 10
5278.737
 20
-9450.953
 30
-993.503
 70
    32
  0
VERTEX
  8
E63LALIFT
 62
3
 10
5281.071
 20
-9442.411
 30
-993.503
 70
    32
  0
VERTEX
  8
E63LALIFT
 62
3
 10
5281.488
 20
-9440.699
 30
-993.503
 70
    32
  0
VERTEX
  8
E63LALIFT
 62
3
 10
5281.334
 20
-9440.720
 30
-993.503
 70
    32
  0
VERTEX
  8
E63LALIFT
 62
3
 10
5280.485
 20
-9440.235
 30
-993.503
 70
    32
  0
VERTEX
  8
E63LALIFT
 62
3
 10
5280.371
 20
-9440.216
 30
-993.503
 70
    32
  0
VERTEX
  8
E63LALIFT
 62
3
 10
5279.153
 20
-9440.094
 30
-993.503
 70
    32
  0
VERTEX
  8
E63LALIFT
 62
3
 10
5278.170
 20
-9440.229
 30
-993.503
 70
    32
  0
VERTEX
  8
E63LALIFT
 62
3
 10
5276.340
 20
-9447.662
 30
-993.503
 70
    32
  0
VERTEX
  8
E63LALIFT
 62
3
 10
5276.990
 20
-9448.526
 30
-993.503
 70
    32
  0
SEQEND
  8
E63LALIFT
  0
POLYLINE
  8
E63LALIFT
 62
8
 66
     1
 70
     9
  0
VERTEX
  8
E63LALIFT
 62
8
 10
3453.158
 20
-8613.752
 30
-1030.000
 70
    32
  0
VERTEX
  8
E63LALIFT
 62
8
 10
3457.290
 20
-8602.921
 30
-1030.000
 70
    32
  0
VERTEX
  8
E63LALIFT
 62
8
 10
3458.095
 20
-8578.170
 30
-1030.000
 70
    32
  0
VERTEX
  8
E63LALIFT
 62
8
 10
3458.354
 20
-8568.212
 30
-1030.000
 70
    32
  0
VERTEX
  8
E63LALIFT
 62
8
 10
3459.696
 20
-8564.840
 30
-1030.000
 70
    32
  0
VERTEX
  8
E63LALIFT
 62
8
 10
3469.726
 20
-8566.011
 30
-1030.000
 70
    32
  0
VERTEX
  8
E63LALIFT
 62
8
 10
3472.702
 20
-8554.365
 30
-1030.000
 70
    32
  0
VERTEX
  8
E63LALIFT
 62
8
 10
3468.854
 20
-8545.226
 30
-1030.000
 70
    32
  0
VERTEX
  8
E63LALIFT
 62
8
 10
3468.256
 20
-8539.914
 30
-1030.000
 70
    32
  0
VERTEX
  8
E63LALIFT
 62
8
 10
3456.491
 20
-8532.362
 30
-1030.000
 70
    32
  0
VERTEX
  8
E63LALIFT
 62
8
 10
3453.196
 20
-8521.998
 30
-1030.000
 70
    32
  0
VERTEX
  8
E63LALIFT
 62
8
 10
3446.571
 20
-8508.250
 30
-1030.000
 70
    32
  0
VERTEX
  8
E63LALIFT
 62
8
 10
3446.286
 20
-8503.165
 30
-1030.000
 70
    32
  0
VERTEX
  8
E63LALIFT
 62
8
 10
3450.267
 20
-8492.803
 30
-1030.000
 70
    32
  0
VERTEX
  8
E63LALIFT
 62
8
 10
3441.217
 20
-8486.900
 30
-1030.000
 70
    32
  0
VERTEX
  8
E63LALIFT
 62
8
 10
3439.060
 20
-8489.655
 30
-1030.000
 70
    32
  0
VERTEX
  8
E63LALIFT
 62
8
 10
3429.688
 20
-8488.013
 30
-1030.000
 70
    32
  0
VERTEX
  8
E63LALIFT
 62
8
 10
3426.927
 20
-8485.361
 30
-1030.000
 70
    32
  0
VERTEX
  8
E63LALIFT
 62
8
 10
3422.788
 20
-8485.746
 30
-1030.000
 70
    32
  0
VERTEX
  8
E63LALIFT
 62
8
 10
3415.922
 20
-8482.226
 30
-1030.000
 70
    32
  0
VERTEX
  8
E63LALIFT
 62
8
 10
3407.453
 20
-8486.100
 30
-1030.000
 70
    32
  0
VERTEX
  8
E63LALIFT
 62
8
 10
3402.135
 20
-8487.344
 30
-1030.000
 70
    32
  0
VERTEX
  8
E63LALIFT
 62
8
 10
3394.774
 20
-8490.099
 30
-1030.000
 70
    32
  0
VERTEX
  8
E63LALIFT
 62
8
 10
3386.779
 20
-8486.865
 30
-1030.000
 70
    32
  0
VERTEX
  8
E63LALIFT
 62
8
 10
3375.662
 20
-8489.286
 30
-1030.000
 70
    32
  0
VERTEX
  8
E63LALIFT
 62
8
 10
3373.983
 20
-8491.669
 30
-1030.000
 70
    32
  0
VERTEX
  8
E63LALIFT
 62
8
 10
3370.680
 20
-8491.835
 30
-1030.000
 70
    32
  0
VERTEX
  8
E63LALIFT
 62
8
 10
3355.226
 20
-8479.401
 30
-1030.000
 70
    32
  0
VERTEX
  8
E63LALIFT
 62
8
 10
3349.531
 20
-8489.021
 30
-1030.000
 70
    32
  0
VERTEX
  8
E63LALIFT
 62
8
 10
3353.863
 20
-8498.215
 30
-1030.000
 70
    32
  0
VERTEX
  8
E63LALIFT
 62
8
 10
3351.743
 20
-8503.042
 30
-1030.000
 70
    32
  0
VERTEX
  8
E63LALIFT
 62
8
 10
3358.113
 20
-8506.236
 30
-1030.000
 70
    32
  0
VERTEX
  8
E63LALIFT
 62
8
 10
3364.224
 20
-8517.621
 30
-1030.000
 70
    32
  0
VERTEX
  8
E63LALIFT
 62
8
 10
3366.664
 20
-8521.744
 30
-1030.000
 70
    32
  0
VERTEX
  8
E63LALIFT
 62
8
 10
3366.690
 20
-8526.062
 30
-1030.000
 70
    32
  0
VERTEX
  8
E63LALIFT
 62
8
 10
3363.535
 20
-8533.377
 30
-1030.000
 70
    32
  0
VERTEX
  8
E63LALIFT
 62
8
 10
3357.517
 20
-8541.483
 30
-1030.000
 70
    32
  0
VERTEX
  8
E63LALIFT
 62
8
 10
3348.630
 20
-8550.222
 30
-1030.000
 70
    32
  0
VERTEX
  8
E63LALIFT
 62
8
 10
3355.869
 20
-8555.570
 30
-1030.000
 70
    32
  0
VERTEX
  8
E63LALIFT
 62
8
 10
3362.192
 20
-8548.627
 30
-1030.000
 70
    32
  0
VERTEX
  8
E63LALIFT
 62
8
 10
3369.199
 20
-8541.328
 30
-1030.000
 70
    32
  0
VERTEX
  8
E63LALIFT
 62
8
 10
3377.321
 20
-8534.628
 30
-1030.000
 70
    32
  0
VERTEX
  8
E63LALIFT
 62
8
 10
3384.991
 20
-8529.065
 30
-1030.000
 70
    32
  0
VERTEX
  8
E63LALIFT
 62
8
 10
3385.665
 20
-8525.700
 30
-1030.000
 70
    32
  0
VERTEX
  8
E63LALIFT
 62
8
 10
3389.297
 20
-8519.052
 30
-1030.000
 70
    32
  0
VERTEX
  8
E63LALIFT
 62
8
 10
3397.334
 20
-8510.226
 30
-1030.000
 70
    32
  0
VERTEX
  8
E63LALIFT
 62
8
 10
3410.427
 20
-8514.683
 30
-1030.000
 70
    32
  0
VERTEX
  8
E63LALIFT
 62
8
 10
3429.178
 20
-8520.204
 30
-1030.000
 70
    32
  0
VERTEX
  8
E63LALIFT
 62
8
 10
3431.945
 20
-8528.813
 30
-1030.000
 70
    32
  0
VERTEX
  8
E63LALIFT
 62
8
 10
3444.808
 20
-8537.756
 30
-1030.000
 70
    32
  0
VERTEX
  8
E63LALIFT
 62
8
 10
3445.227
 20
-8542.279
 30
-1030.000
 70
    32
  0
VERTEX
  8
E63LALIFT
 62
8
 10
3445.236
 20
-8542.375
 30
-1030.000
 70
    32
  0
VERTEX
  8
E63LALIFT
 62
8
 10
3450.079
 20
-8556.375
 30
-1030.000
 70
    32
  0
VERTEX
  8
E63LALIFT
 62
8
 10
3449.323
 20
-8566.403
 30
-1030.000
 70
    32
  0
VERTEX
  8
E63LALIFT
 62
8
 10
3441.132
 20
-8567.152
 30
-1030.000
 70
    32
  0
VERTEX
  8
E63LALIFT
 62
8
 10
3427.550
 20
-8558.060
 30
-1030.000
 70
    32
  0
VERTEX
  8
E63LALIFT
 62
8
 10
3420.273
 20
-8549.863
 30
-1030.000
 70
    32
  0
VERTEX
  8
E63LALIFT
 62
8
 10
3412.012
 20
-8557.242
 30
-1030.000
 70
    32
  0
VERTEX
  8
E63LALIFT
 62
8
 10
3406.922
 20
-8562.029
 30
-1030.000
 70
    32
  0
VERTEX
  8
E63LALIFT
 62
8
 10
3409.441
 20
-8567.655
 30
-1030.000
 70
    32
  0
VERTEX
  8
E63LALIFT
 62
8
 10
3414.052
 20
-8574.314
 30
-1030.000
 70
    32
  0
VERTEX
  8
E63LALIFT
 62
8
 10
3419.214
 20
-8578.213
 30
-1030.000
 70
    32
  0
VERTEX
  8
E63LALIFT
 62
8
 10
3432.518
 20
-8579.304
 30
-1030.000
 70
    32
  0
VERTEX
  8
E63LALIFT
 62
8
 10
3447.867
 20
-8592.872
 30
-1030.000
 70
    32
  0
VERTEX
  8
E63LALIFT
 62
8
 10
3444.374
 20
-8598.908
 30
-1030.000
 70
    32
  0
VERTEX
  8
E63LALIFT
 62
8
 10
3440.294
 20
-8606.970
 30
-1030.000
 70
    32
  0
VERTEX
  8
E63LALIFT
 62
8
 10
3439.975
 20
-8616.463
 30
-1030.000
 70
    32
  0
SEQEND
  8
E63LALIFT
  0
ENDSEC
  0
EOF
