999
********************************
999
*   DXF File - Entities Only   *
999
*        3D Data Format        *
999
*     Output from ENVISAGE     *
999
*     31-Dec-2007 14:49:59     *
999
********************************
  0
SECTION 
  2
HEADER
  9
$ACADVER
  1
AC1009
  9
$EXTMIN
 10
-290000.000
 20
-250000.000
 30
-4000.000
  9
$EXTMAX
 10
320000.000
 20
160000.000
 30
6000.000
  0
ENDSEC
  0
SECTION
  2
ENTITIES
  0
POLYLINE
  8
E65LXLIFT
 62
5
 66
     1
 70
     9
  0
VERTEX
  8
E65LXLIFT
 62
5
 10
3455.743
 20
-8654.593
 30
-1152.000
 70
    32
  0
VERTEX
  8
E65LXLIFT
 62
5
 10
3457.320
 20
-8657.541
 30
-1152.000
 70
    32
  0
VERTEX
  8
E65LXLIFT
 62
5
 10
3457.859
 20
-8658.891
 30
-1152.000
 70
    32
  0
VERTEX
  8
E65LXLIFT
 62
5
 10
3457.294
 20
-8680.255
 30
-1152.000
 70
    32
  0
VERTEX
  8
E65LXLIFT
 62
5
 10
3455.108
 20
-8686.448
 30
-1152.000
 70
    32
  0
VERTEX
  8
E65LXLIFT
 62
5
 10
3452.199
 20
-8692.547
 30
-1152.000
 70
    32
  0
VERTEX
  8
E65LXLIFT
 62
5
 10
3441.891
 20
-8693.200
 30
-1152.000
 70
    32
  0
VERTEX
  8
E65LXLIFT
 62
5
 10
3436.553
 20
-8689.903
 30
-1152.000
 70
    32
  0
VERTEX
  8
E65LXLIFT
 62
5
 10
3432.242
 20
-8681.590
 30
-1152.000
 70
    32
  0
VERTEX
  8
E65LXLIFT
 62
5
 10
3424.408
 20
-8685.506
 30
-1152.000
 70
    32
  0
VERTEX
  8
E65LXLIFT
 62
5
 10
3433.600
 20
-8700.769
 30
-1152.000
 70
    32
  0
VERTEX
  8
E65LXLIFT
 62
5
 10
3430.541
 20
-8707.933
 30
-1152.000
 70
    32
  0
VERTEX
  8
E65LXLIFT
 62
5
 10
3428.300
 20
-8710.955
 30
-1152.000
 70
    32
  0
VERTEX
  8
E65LXLIFT
 62
5
 10
3421.020
 20
-8709.572
 30
-1152.000
 70
    32
  0
VERTEX
  8
E65LXLIFT
 62
5
 10
3413.755
 20
-8723.246
 30
-1152.000
 70
    32
  0
VERTEX
  8
E65LXLIFT
 62
5
 10
3400.605
 20
-8737.039
 30
-1152.000
 70
    32
  0
VERTEX
  8
E65LXLIFT
 62
5
 10
3395.333
 20
-8742.278
 30
-1152.000
 70
    32
  0
VERTEX
  8
E65LXLIFT
 62
5
 10
3404.287
 20
-8753.647
 30
-1152.000
 70
    32
  0
VERTEX
  8
E65LXLIFT
 62
5
 10
3403.555
 20
-8756.759
 30
-1152.000
 70
    32
  0
VERTEX
  8
E65LXLIFT
 62
5
 10
3403.311
 20
-8762.096
 30
-1152.000
 70
    32
  0
VERTEX
  8
E65LXLIFT
 62
5
 10
3400.128
 20
-8772.066
 30
-1152.000
 70
    32
  0
VERTEX
  8
E65LXLIFT
 62
5
 10
3400.285
 20
-8779.045
 30
-1152.000
 70
    32
  0
VERTEX
  8
E65LXLIFT
 62
5
 10
3398.323
 20
-8783.841
 30
-1152.000
 70
    32
  0
VERTEX
  8
E65LXLIFT
 62
5
 10
3392.904
 20
-8784.290
 30
-1152.000
 70
    32
  0
VERTEX
  8
E65LXLIFT
 62
5
 10
3388.466
 20
-8780.858
 30
-1152.000
 70
    32
  0
VERTEX
  8
E65LXLIFT
 62
5
 10
3383.749
 20
-8782.835
 30
-1152.000
 70
    32
  0
VERTEX
  8
E65LXLIFT
 62
5
 10
3376.708
 20
-8785.507
 30
-1152.000
 70
    32
  0
VERTEX
  8
E65LXLIFT
 62
5
 10
3370.394
 20
-8785.852
 30
-1152.000
 70
    32
  0
VERTEX
  8
E65LXLIFT
 62
5
 10
3366.070
 20
-8786.407
 30
-1152.000
 70
    32
  0
VERTEX
  8
E65LXLIFT
 62
5
 10
3364.023
 20
-8792.182
 30
-1152.000
 70
    32
  0
VERTEX
  8
E65LXLIFT
 62
5
 10
3371.464
 20
-8795.098
 30
-1152.000
 70
    32
  0
VERTEX
  8
E65LXLIFT
 62
5
 10
3378.291
 20
-8801.605
 30
-1152.000
 70
    32
  0
VERTEX
  8
E65LXLIFT
 62
5
 10
3379.690
 20
-8806.724
 30
-1152.000
 70
    32
  0
VERTEX
  8
E65LXLIFT
 62
5
 10
3383.783
 20
-8809.471
 30
-1152.000
 70
    32
  0
VERTEX
  8
E65LXLIFT
 62
5
 10
3387.139
 20
-8810.408
 30
-1152.000
 70
    32
  0
VERTEX
  8
E65LXLIFT
 62
5
 10
3390.421
 20
-8812.305
 30
-1152.000
 70
    32
  0
VERTEX
  8
E65LXLIFT
 62
5
 10
3391.828
 20
-8814.862
 30
-1152.000
 70
    32
  0
VERTEX
  8
E65LXLIFT
 62
5
 10
3406.402
 20
-8819.769
 30
-1152.000
 70
    32
  0
VERTEX
  8
E65LXLIFT
 62
5
 10
3409.836
 20
-8801.309
 30
-1152.000
 70
    32
  0
VERTEX
  8
E65LXLIFT
 62
5
 10
3410.818
 20
-8796.988
 30
-1152.000
 70
    32
  0
VERTEX
  8
E65LXLIFT
 62
5
 10
3410.804
 20
-8780.500
 30
-1152.000
 70
    32
  0
VERTEX
  8
E65LXLIFT
 62
5
 10
3410.544
 20
-8776.922
 30
-1152.000
 70
    32
  0
VERTEX
  8
E65LXLIFT
 62
5
 10
3411.979
 20
-8770.222
 30
-1152.000
 70
    32
  0
VERTEX
  8
E65LXLIFT
 62
5
 10
3413.512
 20
-8763.768
 30
-1152.000
 70
    32
  0
VERTEX
  8
E65LXLIFT
 62
5
 10
3420.107
 20
-8742.723
 30
-1152.000
 70
    32
  0
VERTEX
  8
E65LXLIFT
 62
5
 10
3422.020
 20
-8742.139
 30
-1152.000
 70
    32
  0
VERTEX
  8
E65LXLIFT
 62
5
 10
3422.930
 20
-8736.793
 30
-1152.000
 70
    32
  0
VERTEX
  8
E65LXLIFT
 62
5
 10
3424.973
 20
-8730.432
 30
-1152.000
 70
    32
  0
VERTEX
  8
E65LXLIFT
 62
5
 10
3428.788
 20
-8731.637
 30
-1152.000
 70
    32
  0
VERTEX
  8
E65LXLIFT
 62
5
 10
3428.562
 20
-8734.900
 30
-1152.000
 70
    32
  0
VERTEX
  8
E65LXLIFT
 62
5
 10
3430.187
 20
-8741.991
 30
-1152.000
 70
    32
  0
VERTEX
  8
E65LXLIFT
 62
5
 10
3438.534
 20
-8745.186
 30
-1152.000
 70
    32
  0
VERTEX
  8
E65LXLIFT
 62
5
 10
3442.820
 20
-8738.304
 30
-1152.000
 70
    32
  0
VERTEX
  8
E65LXLIFT
 62
5
 10
3450.872
 20
-8734.973
 30
-1152.000
 70
    32
  0
VERTEX
  8
E65LXLIFT
 62
5
 10
3461.403
 20
-8742.495
 30
-1152.000
 70
    32
  0
VERTEX
  8
E65LXLIFT
 62
5
 10
3468.218
 20
-8734.087
 30
-1152.000
 70
    32
  0
VERTEX
  8
E65LXLIFT
 62
5
 10
3459.206
 20
-8728.464
 30
-1152.000
 70
    32
  0
VERTEX
  8
E65LXLIFT
 62
5
 10
3455.095
 20
-8723.403
 30
-1152.000
 70
    32
  0
VERTEX
  8
E65LXLIFT
 62
5
 10
3456.323
 20
-8718.048
 30
-1152.000
 70
    32
  0
VERTEX
  8
E65LXLIFT
 62
5
 10
3465.148
 20
-8703.705
 30
-1152.000
 70
    32
  0
VERTEX
  8
E65LXLIFT
 62
5
 10
3469.503
 20
-8692.768
 30
-1152.000
 70
    32
  0
VERTEX
  8
E65LXLIFT
 62
5
 10
3469.729
 20
-8687.555
 30
-1152.000
 70
    32
  0
VERTEX
  8
E65LXLIFT
 62
5
 10
3470.618
 20
-8686.654
 30
-1152.000
 70
    32
  0
VERTEX
  8
E65LXLIFT
 62
5
 10
3473.617
 20
-8683.226
 30
-1152.000
 70
    32
  0
VERTEX
  8
E65LXLIFT
 62
5
 10
3475.132
 20
-8677.222
 30
-1152.000
 70
    32
  0
VERTEX
  8
E65LXLIFT
 62
5
 10
3472.041
 20
-8672.156
 30
-1152.000
 70
    32
  0
VERTEX
  8
E65LXLIFT
 62
5
 10
3472.185
 20
-8668.046
 30
-1152.000
 70
    32
  0
VERTEX
  8
E65LXLIFT
 62
5
 10
3469.739
 20
-8660.126
 30
-1152.000
 70
    32
  0
VERTEX
  8
E65LXLIFT
 62
5
 10
3469.690
 20
-8659.508
 30
-1152.000
 70
    32
  0
VERTEX
  8
E65LXLIFT
 62
5
 10
3470.906
 20
-8658.406
 30
-1152.000
 70
    32
  0
SEQEND
  8
E65LXLIFT
  0
POLYLINE
  8
E65LXLIFT
 62
6
 66
     1
 70
     9
  0
VERTEX
  8
E65LXLIFT
 62
6
 10
4664.854
 20
-9552.250
 30
-1192.000
 70
    32
  0
VERTEX
  8
E65LXLIFT
 62
6
 10
4679.706
 20
-9546.386
 30
-1192.000
 70
    32
  0
VERTEX
  8
E65LXLIFT
 62
6
 10
4685.617
 20
-9542.109
 30
-1192.000
 70
    32
  0
VERTEX
  8
E65LXLIFT
 62
6
 10
4697.234
 20
-9535.223
 30
-1192.000
 70
    32
  0
VERTEX
  8
E65LXLIFT
 62
6
 10
4716.656
 20
-9531.477
 30
-1192.000
 70
    32
  0
VERTEX
  8
E65LXLIFT
 62
6
 10
4736.883
 20
-9528.993
 30
-1192.000
 70
    32
  0
VERTEX
  8
E65LXLIFT
 62
6
 10
4736.867
 20
-9519.674
 30
-1192.000
 70
    32
  0
VERTEX
  8
E65LXLIFT
 62
6
 10
4735.629
 20
-9516.013
 30
-1192.000
 70
    32
  0
VERTEX
  8
E65LXLIFT
 62
6
 10
4747.919
 20
-9508.857
 30
-1192.000
 70
    32
  0
VERTEX
  8
E65LXLIFT
 62
6
 10
4763.096
 20
-9517.838
 30
-1192.000
 70
    32
  0
VERTEX
  8
E65LXLIFT
 62
6
 10
4768.063
 20
-9516.305
 30
-1192.000
 70
    32
  0
VERTEX
  8
E65LXLIFT
 62
6
 10
4767.313
 20
-9508.820
 30
-1192.000
 70
    32
  0
VERTEX
  8
E65LXLIFT
 62
6
 10
4758.505
 20
-9500.546
 30
-1192.000
 70
    32
  0
VERTEX
  8
E65LXLIFT
 62
6
 10
4751.680
 20
-9495.611
 30
-1192.000
 70
    32
  0
VERTEX
  8
E65LXLIFT
 62
6
 10
4752.325
 20
-9490.805
 30
-1192.000
 70
    32
  0
VERTEX
  8
E65LXLIFT
 62
6
 10
4759.996
 20
-9485.363
 30
-1192.000
 70
    32
  0
VERTEX
  8
E65LXLIFT
 62
6
 10
4767.111
 20
-9464.157
 30
-1192.000
 70
    32
  0
VERTEX
  8
E65LXLIFT
 62
6
 10
4766.243
 20
-9454.261
 30
-1192.000
 70
    32
  0
VERTEX
  8
E65LXLIFT
 62
6
 10
4763.303
 20
-9441.199
 30
-1192.000
 70
    32
  0
VERTEX
  8
E65LXLIFT
 62
6
 10
4772.431
 20
-9426.675
 30
-1192.000
 70
    32
  0
VERTEX
  8
E65LXLIFT
 62
6
 10
4771.928
 20
-9412.934
 30
-1192.000
 70
    32
  0
VERTEX
  8
E65LXLIFT
 62
6
 10
4765.625
 20
-9408.272
 30
-1192.000
 70
    32
  0
VERTEX
  8
E65LXLIFT
 62
6
 10
4750.607
 20
-9400.261
 30
-1192.000
 70
    32
  0
VERTEX
  8
E65LXLIFT
 62
6
 10
4746.957
 20
-9396.717
 30
-1192.000
 70
    32
  0
VERTEX
  8
E65LXLIFT
 62
6
 10
4740.302
 20
-9396.216
 30
-1192.000
 70
    32
  0
VERTEX
  8
E65LXLIFT
 62
6
 10
4734.474
 20
-9395.659
 30
-1192.000
 70
    32
  0
VERTEX
  8
E65LXLIFT
 62
6
 10
4733.634
 20
-9398.546
 30
-1192.000
 70
    32
  0
VERTEX
  8
E65LXLIFT
 62
6
 10
4734.357
 20
-9401.494
 30
-1192.000
 70
    32
  0
VERTEX
  8
E65LXLIFT
 62
6
 10
4730.995
 20
-9404.795
 30
-1192.000
 70
    32
  0
VERTEX
  8
E65LXLIFT
 62
6
 10
4728.668
 20
-9410.276
 30
-1192.000
 70
    32
  0
VERTEX
  8
E65LXLIFT
 62
6
 10
4730.592
 20
-9419.083
 30
-1192.000
 70
    32
  0
VERTEX
  8
E65LXLIFT
 62
6
 10
4723.662
 20
-9435.597
 30
-1192.000
 70
    32
  0
VERTEX
  8
E65LXLIFT
 62
6
 10
4724.921
 20
-9457.579
 30
-1192.000
 70
    32
  0
VERTEX
  8
E65LXLIFT
 62
6
 10
4726.496
 20
-9471.303
 30
-1192.000
 70
    32
  0
VERTEX
  8
E65LXLIFT
 62
6
 10
4723.930
 20
-9487.698
 30
-1192.000
 70
    32
  0
VERTEX
  8
E65LXLIFT
 62
6
 10
4717.069
 20
-9497.110
 30
-1192.000
 70
    32
  0
VERTEX
  8
E65LXLIFT
 62
6
 10
4710.679
 20
-9491.427
 30
-1192.000
 70
    32
  0
VERTEX
  8
E65LXLIFT
 62
6
 10
4699.833
 20
-9497.430
 30
-1192.000
 70
    32
  0
VERTEX
  8
E65LXLIFT
 62
6
 10
4692.528
 20
-9495.881
 30
-1192.000
 70
    32
  0
VERTEX
  8
E65LXLIFT
 62
6
 10
4679.856
 20
-9500.710
 30
-1192.000
 70
    32
  0
VERTEX
  8
E65LXLIFT
 62
6
 10
4664.104
 20
-9504.730
 30
-1192.000
 70
    32
  0
VERTEX
  8
E65LXLIFT
 62
6
 10
4655.451
 20
-9520.212
 30
-1192.000
 70
    32
  0
VERTEX
  8
E65LXLIFT
 62
6
 10
4654.685
 20
-9535.197
 30
-1192.000
 70
    32
  0
VERTEX
  8
E65LXLIFT
 62
6
 10
4648.674
 20
-9538.136
 30
-1192.000
 70
    32
  0
SEQEND
  8
E65LXLIFT
  0
POLYLINE
  8
E65LXLIFT
 62
6
 66
     1
 70
     9
  0
VERTEX
  8
E65LXLIFT
 62
6
 10
4629.117
 20
-9546.644
 30
-1214.000
 70
    32
  0
VERTEX
  8
E65LXLIFT
 62
6
 10
4629.773
 20
-9563.746
 30
-1214.000
 70
    32
  0
VERTEX
  8
E65LXLIFT
 62
6
 10
4653.546
 20
-9578.008
 30
-1214.000
 70
    32
  0
VERTEX
  8
E65LXLIFT
 62
6
 10
4668.379
 20
-9590.711
 30
-1214.000
 70
    32
  0
VERTEX
  8
E65LXLIFT
 62
6
 10
4672.682
 20
-9599.206
 30
-1214.000
 70
    32
  0
VERTEX
  8
E65LXLIFT
 62
6
 10
4684.498
 20
-9603.242
 30
-1214.000
 70
    32
  0
VERTEX
  8
E65LXLIFT
 62
6
 10
4687.933
 20
-9596.743
 30
-1214.000
 70
    32
  0
VERTEX
  8
E65LXLIFT
 62
6
 10
4705.706
 20
-9604.063
 30
-1214.000
 70
    32
  0
VERTEX
  8
E65LXLIFT
 62
6
 10
4709.380
 20
-9594.895
 30
-1214.000
 70
    32
  0
VERTEX
  8
E65LXLIFT
 62
6
 10
4675.451
 20
-9579.192
 30
-1214.000
 70
    32
  0
VERTEX
  8
E65LXLIFT
 62
6
 10
4670.460
 20
-9566.746
 30
-1214.000
 70
    32
  0
VERTEX
  8
E65LXLIFT
 62
6
 10
4665.577
 20
-9555.199
 30
-1214.000
 70
    32
  0
VERTEX
  8
E65LXLIFT
 62
6
 10
4667.090
 20
-9552.042
 30
-1214.000
 70
    32
  0
VERTEX
  8
E65LXLIFT
 62
6
 10
4680.773
 20
-9553.859
 30
-1214.000
 70
    32
  0
VERTEX
  8
E65LXLIFT
 62
6
 10
4700.919
 20
-9526.372
 30
-1214.000
 70
    32
  0
VERTEX
  8
E65LXLIFT
 62
6
 10
4705.516
 20
-9522.829
 30
-1214.000
 70
    32
  0
VERTEX
  8
E65LXLIFT
 62
6
 10
4714.549
 20
-9521.067
 30
-1214.000
 70
    32
  0
VERTEX
  8
E65LXLIFT
 62
6
 10
4734.973
 20
-9517.356
 30
-1214.000
 70
    32
  0
VERTEX
  8
E65LXLIFT
 62
6
 10
4747.527
 20
-9518.362
 30
-1214.000
 70
    32
  0
VERTEX
  8
E65LXLIFT
 62
6
 10
4747.719
 20
-9511.280
 30
-1214.000
 70
    32
  0
VERTEX
  8
E65LXLIFT
 62
6
 10
4754.459
 20
-9495.553
 30
-1214.000
 70
    32
  0
VERTEX
  8
E65LXLIFT
 62
6
 10
4768.482
 20
-9479.548
 30
-1214.000
 70
    32
  0
VERTEX
  8
E65LXLIFT
 62
6
 10
4775.819
 20
-9462.847
 30
-1214.000
 70
    32
  0
VERTEX
  8
E65LXLIFT
 62
6
 10
4777.016
 20
-9454.604
 30
-1214.000
 70
    32
  0
VERTEX
  8
E65LXLIFT
 62
6
 10
4763.467
 20
-9448.024
 30
-1214.000
 70
    32
  0
VERTEX
  8
E65LXLIFT
 62
6
 10
4758.759
 20
-9433.420
 30
-1214.000
 70
    32
  0
VERTEX
  8
E65LXLIFT
 62
6
 10
4753.224
 20
-9418.873
 30
-1214.000
 70
    32
  0
VERTEX
  8
E65LXLIFT
 62
6
 10
4749.646
 20
-9415.277
 30
-1214.000
 70
    32
  0
VERTEX
  8
E65LXLIFT
 62
6
 10
4750.176
 20
-9410.012
 30
-1214.000
 70
    32
  0
VERTEX
  8
E65LXLIFT
 62
6
 10
4747.137
 20
-9407.762
 30
-1214.000
 70
    32
  0
VERTEX
  8
E65LXLIFT
 62
6
 10
4725.046
 20
-9411.269
 30
-1214.000
 70
    32
  0
VERTEX
  8
E65LXLIFT
 62
6
 10
4713.159
 20
-9412.384
 30
-1214.000
 70
    32
  0
VERTEX
  8
E65LXLIFT
 62
6
 10
4702.766
 20
-9410.465
 30
-1214.000
 70
    32
  0
VERTEX
  8
E65LXLIFT
 62
6
 10
4688.526
 20
-9401.131
 30
-1214.000
 70
    32
  0
VERTEX
  8
E65LXLIFT
 62
6
 10
4682.471
 20
-9403.559
 30
-1214.000
 70
    32
  0
VERTEX
  8
E65LXLIFT
 62
6
 10
4677.075
 20
-9403.449
 30
-1214.000
 70
    32
  0
VERTEX
  8
E65LXLIFT
 62
6
 10
4670.405
 20
-9408.926
 30
-1214.000
 70
    32
  0
VERTEX
  8
E65LXLIFT
 62
6
 10
4678.942
 20
-9419.674
 30
-1214.000
 70
    32
  0
VERTEX
  8
E65LXLIFT
 62
6
 10
4677.856
 20
-9422.521
 30
-1214.000
 70
    32
  0
VERTEX
  8
E65LXLIFT
 62
6
 10
4697.285
 20
-9431.681
 30
-1214.000
 70
    32
  0
VERTEX
  8
E65LXLIFT
 62
6
 10
4715.979
 20
-9445.821
 30
-1214.000
 70
    32
  0
VERTEX
  8
E65LXLIFT
 62
6
 10
4714.136
 20
-9456.919
 30
-1214.000
 70
    32
  0
VERTEX
  8
E65LXLIFT
 62
6
 10
4714.412
 20
-9468.546
 30
-1214.000
 70
    32
  0
VERTEX
  8
E65LXLIFT
 62
6
 10
4710.849
 20
-9482.516
 30
-1214.000
 70
    32
  0
VERTEX
  8
E65LXLIFT
 62
6
 10
4700.211
 20
-9490.755
 30
-1214.000
 70
    32
  0
VERTEX
  8
E65LXLIFT
 62
6
 10
4690.676
 20
-9497.220
 30
-1214.000
 70
    32
  0
VERTEX
  8
E65LXLIFT
 62
6
 10
4677.263
 20
-9496.076
 30
-1214.000
 70
    32
  0
VERTEX
  8
E65LXLIFT
 62
6
 10
4670.614
 20
-9493.184
 30
-1214.000
 70
    32
  0
VERTEX
  8
E65LXLIFT
 62
6
 10
4665.011
 20
-9487.690
 30
-1214.000
 70
    32
  0
VERTEX
  8
E65LXLIFT
 62
6
 10
4654.704
 20
-9498.186
 30
-1214.000
 70
    32
  0
VERTEX
  8
E65LXLIFT
 62
6
 10
4654.192
 20
-9506.476
 30
-1214.000
 70
    32
  0
VERTEX
  8
E65LXLIFT
 62
6
 10
4663.850
 20
-9518.475
 30
-1214.000
 70
    32
  0
VERTEX
  8
E65LXLIFT
 62
6
 10
4658.159
 20
-9533.551
 30
-1214.000
 70
    32
  0
VERTEX
  8
E65LXLIFT
 62
6
 10
4643.452
 20
-9533.017
 30
-1214.000
 70
    32
  0
SEQEND
  8
E65LXLIFT
  0
POLYLINE
  8
E65LXLIFT
 62
6
 66
     1
 70
     9
  0
VERTEX
  8
E65LXLIFT
 62
6
 10
4554.286
 20
-9394.046
 30
-1153.000
 70
    32
  0
VERTEX
  8
E65LXLIFT
 62
6
 10
4561.239
 20
-9398.801
 30
-1153.000
 70
    32
  0
VERTEX
  8
E65LXLIFT
 62
6
 10
4575.020
 20
-9398.148
 30
-1153.000
 70
    32
  0
VERTEX
  8
E65LXLIFT
 62
6
 10
4578.461
 20
-9413.719
 30
-1153.000
 70
    32
  0
VERTEX
  8
E65LXLIFT
 62
6
 10
4579.375
 20
-9433.466
 30
-1153.000
 70
    32
  0
VERTEX
  8
E65LXLIFT
 62
6
 10
4587.225
 20
-9454.312
 30
-1153.000
 70
    32
  0
VERTEX
  8
E65LXLIFT
 62
6
 10
4597.753
 20
-9472.708
 30
-1153.000
 70
    32
  0
VERTEX
  8
E65LXLIFT
 62
6
 10
4607.015
 20
-9491.144
 30
-1153.000
 70
    32
  0
VERTEX
  8
E65LXLIFT
 62
6
 10
4612.599
 20
-9508.965
 30
-1153.000
 70
    32
  0
VERTEX
  8
E65LXLIFT
 62
6
 10
4620.790
 20
-9525.142
 30
-1153.000
 70
    32
  0
VERTEX
  8
E65LXLIFT
 62
6
 10
4605.305
 20
-9535.213
 30
-1153.000
 70
    32
  0
VERTEX
  8
E65LXLIFT
 62
6
 10
4599.942
 20
-9535.260
 30
-1153.000
 70
    32
  0
VERTEX
  8
E65LXLIFT
 62
6
 10
4596.692
 20
-9524.194
 30
-1153.000
 70
    32
  0
VERTEX
  8
E65LXLIFT
 62
6
 10
4587.940
 20
-9507.229
 30
-1153.000
 70
    32
  0
VERTEX
  8
E65LXLIFT
 62
6
 10
4568.886
 20
-9496.100
 30
-1153.000
 70
    32
  0
VERTEX
  8
E65LXLIFT
 62
6
 10
4567.748
 20
-9489.357
 30
-1153.000
 70
    32
  0
VERTEX
  8
E65LXLIFT
 62
6
 10
4561.571
 20
-9484.479
 30
-1153.000
 70
    32
  0
VERTEX
  8
E65LXLIFT
 62
6
 10
4561.149
 20
-9475.714
 30
-1153.000
 70
    32
  0
VERTEX
  8
E65LXLIFT
 62
6
 10
4559.069
 20
-9470.829
 30
-1153.000
 70
    32
  0
VERTEX
  8
E65LXLIFT
 62
6
 10
4552.423
 20
-9464.235
 30
-1153.000
 70
    32
  0
VERTEX
  8
E65LXLIFT
 62
6
 10
4551.290
 20
-9450.689
 30
-1153.000
 70
    32
  0
VERTEX
  8
E65LXLIFT
 62
6
 10
4547.295
 20
-9437.671
 30
-1153.000
 70
    32
  0
VERTEX
  8
E65LXLIFT
 62
6
 10
4538.926
 20
-9428.205
 30
-1153.000
 70
    32
  0
VERTEX
  8
E65LXLIFT
 62
6
 10
4531.247
 20
-9424.399
 30
-1153.000
 70
    32
  0
SEQEND
  8
E65LXLIFT
  0
POLYLINE
  8
E65LXLIFT
 62
6
 66
     1
 70
     9
  0
VERTEX
  8
E65LXLIFT
 62
6
 10
4603.982
 20
-9528.817
 30
-1167.000
 70
    32
  0
VERTEX
  8
E65LXLIFT
 62
6
 10
4621.933
 20
-9552.929
 30
-1167.000
 70
    32
  0
VERTEX
  8
E65LXLIFT
 62
6
 10
4632.925
 20
-9552.754
 30
-1167.000
 70
    32
  0
VERTEX
  8
E65LXLIFT
 62
6
 10
4638.772
 20
-9547.937
 30
-1167.000
 70
    32
  0
VERTEX
  8
E65LXLIFT
 62
6
 10
4638.840
 20
-9538.498
 30
-1167.000
 70
    32
  0
VERTEX
  8
E65LXLIFT
 62
6
 10
4620.736
 20
-9515.683
 30
-1167.000
 70
    32
  0
VERTEX
  8
E65LXLIFT
 62
6
 10
4613.551
 20
-9506.667
 30
-1167.000
 70
    32
  0
VERTEX
  8
E65LXLIFT
 62
6
 10
4604.972
 20
-9491.306
 30
-1167.000
 70
    32
  0
VERTEX
  8
E65LXLIFT
 62
6
 10
4597.420
 20
-9467.549
 30
-1167.000
 70
    32
  0
VERTEX
  8
E65LXLIFT
 62
6
 10
4590.590
 20
-9449.646
 30
-1167.000
 70
    32
  0
VERTEX
  8
E65LXLIFT
 62
6
 10
4580.357
 20
-9432.119
 30
-1167.000
 70
    32
  0
VERTEX
  8
E65LXLIFT
 62
6
 10
4574.995
 20
-9417.486
 30
-1167.000
 70
    32
  0
VERTEX
  8
E65LXLIFT
 62
6
 10
4563.769
 20
-9416.425
 30
-1167.000
 70
    32
  0
VERTEX
  8
E65LXLIFT
 62
6
 10
4551.759
 20
-9425.313
 30
-1167.000
 70
    32
  0
VERTEX
  8
E65LXLIFT
 62
6
 10
4545.162
 20
-9435.738
 30
-1167.000
 70
    32
  0
VERTEX
  8
E65LXLIFT
 62
6
 10
4541.864
 20
-9446.401
 30
-1167.000
 70
    32
  0
VERTEX
  8
E65LXLIFT
 62
6
 10
4545.983
 20
-9456.415
 30
-1167.000
 70
    32
  0
VERTEX
  8
E65LXLIFT
 62
6
 10
4555.752
 20
-9466.179
 30
-1167.000
 70
    32
  0
VERTEX
  8
E65LXLIFT
 62
6
 10
4569.761
 20
-9488.245
 30
-1167.000
 70
    32
  0
VERTEX
  8
E65LXLIFT
 62
6
 10
4586.993
 20
-9515.891
 30
-1167.000
 70
    32
  0
SEQEND
  8
E65LXLIFT
  0
POLYLINE
  8
E65LXLIFT
 62
6
 66
     1
 70
     9
  0
VERTEX
  8
E65LXLIFT
 62
6
 10
4639.145
 20
-9411.906
 30
-1194.000
 70
    32
  0
VERTEX
  8
E65LXLIFT
 62
6
 10
4644.221
 20
-9408.125
 30
-1194.000
 70
    32
  0
VERTEX
  8
E65LXLIFT
 62
6
 10
4661.573
 20
-9400.018
 30
-1194.000
 70
    32
  0
VERTEX
  8
E65LXLIFT
 62
6
 10
4670.317
 20
-9389.460
 30
-1194.000
 70
    32
  0
VERTEX
  8
E65LXLIFT
 62
6
 10
4677.700
 20
-9380.321
 30
-1194.000
 70
    32
  0
VERTEX
  8
E65LXLIFT
 62
6
 10
4677.748
 20
-9376.489
 30
-1194.000
 70
    32
  0
VERTEX
  8
E65LXLIFT
 62
6
 10
4667.132
 20
-9364.966
 30
-1194.000
 70
    32
  0
VERTEX
  8
E65LXLIFT
 62
6
 10
4661.226
 20
-9364.900
 30
-1194.000
 70
    32
  0
VERTEX
  8
E65LXLIFT
 62
6
 10
4656.865
 20
-9366.970
 30
-1194.000
 70
    32
  0
VERTEX
  8
E65LXLIFT
 62
6
 10
4655.179
 20
-9371.988
 30
-1194.000
 70
    32
  0
VERTEX
  8
E65LXLIFT
 62
6
 10
4647.050
 20
-9379.497
 30
-1194.000
 70
    32
  0
VERTEX
  8
E65LXLIFT
 62
6
 10
4633.276
 20
-9386.100
 30
-1194.000
 70
    32
  0
VERTEX
  8
E65LXLIFT
 62
6
 10
4622.031
 20
-9388.703
 30
-1194.000
 70
    32
  0
VERTEX
  8
E65LXLIFT
 62
6
 10
4615.607
 20
-9380.874
 30
-1194.000
 70
    32
  0
VERTEX
  8
E65LXLIFT
 62
6
 10
4610.955
 20
-9380.443
 30
-1194.000
 70
    32
  0
VERTEX
  8
E65LXLIFT
 62
6
 10
4597.012
 20
-9389.663
 30
-1194.000
 70
    32
  0
VERTEX
  8
E65LXLIFT
 62
6
 10
4591.228
 20
-9397.863
 30
-1194.000
 70
    32
  0
VERTEX
  8
E65LXLIFT
 62
6
 10
4570.976
 20
-9407.960
 30
-1194.000
 70
    32
  0
VERTEX
  8
E65LXLIFT
 62
6
 10
4566.359
 20
-9416.724
 30
-1194.000
 70
    32
  0
VERTEX
  8
E65LXLIFT
 62
6
 10
4571.510
 20
-9435.239
 30
-1194.000
 70
    32
  0
VERTEX
  8
E65LXLIFT
 62
6
 10
4573.643
 20
-9448.234
 30
-1194.000
 70
    32
  0
VERTEX
  8
E65LXLIFT
 62
6
 10
4576.819
 20
-9471.216
 30
-1194.000
 70
    32
  0
VERTEX
  8
E65LXLIFT
 62
6
 10
4587.134
 20
-9505.415
 30
-1194.000
 70
    32
  0
VERTEX
  8
E65LXLIFT
 62
6
 10
4600.415
 20
-9523.471
 30
-1194.000
 70
    32
  0
VERTEX
  8
E65LXLIFT
 62
6
 10
4623.177
 20
-9544.432
 30
-1194.000
 70
    32
  0
VERTEX
  8
E65LXLIFT
 62
6
 10
4625.581
 20
-9549.854
 30
-1194.000
 70
    32
  0
VERTEX
  8
E65LXLIFT
 62
6
 10
4636.869
 20
-9566.206
 30
-1194.000
 70
    32
  0
VERTEX
  8
E65LXLIFT
 62
6
 10
4650.820
 20
-9574.990
 30
-1194.000
 70
    32
  0
VERTEX
  8
E65LXLIFT
 62
6
 10
4657.546
 20
-9583.685
 30
-1194.000
 70
    32
  0
VERTEX
  8
E65LXLIFT
 62
6
 10
4663.763
 20
-9586.130
 30
-1194.000
 70
    32
  0
VERTEX
  8
E65LXLIFT
 62
6
 10
4667.426
 20
-9591.943
 30
-1194.000
 70
    32
  0
VERTEX
  8
E65LXLIFT
 62
6
 10
4679.887
 20
-9604.517
 30
-1194.000
 70
    32
  0
VERTEX
  8
E65LXLIFT
 62
6
 10
4687.806
 20
-9601.066
 30
-1194.000
 70
    32
  0
VERTEX
  8
E65LXLIFT
 62
6
 10
4677.691
 20
-9582.888
 30
-1194.000
 70
    32
  0
VERTEX
  8
E65LXLIFT
 62
6
 10
4674.408
 20
-9572.352
 30
-1194.000
 70
    32
  0
VERTEX
  8
E65LXLIFT
 62
6
 10
4667.723
 20
-9565.363
 30
-1194.000
 70
    32
  0
VERTEX
  8
E65LXLIFT
 62
6
 10
4664.125
 20
-9551.693
 30
-1194.000
 70
    32
  0
VERTEX
  8
E65LXLIFT
 62
6
 10
4648.765
 20
-9537.961
 30
-1194.000
 70
    32
  0
VERTEX
  8
E65LXLIFT
 62
6
 10
4646.263
 20
-9538.252
 30
-1194.000
 70
    32
  0
VERTEX
  8
E65LXLIFT
 62
6
 10
4633.069
 20
-9529.464
 30
-1194.000
 70
    32
  0
VERTEX
  8
E65LXLIFT
 62
6
 10
4624.196
 20
-9518.850
 30
-1194.000
 70
    32
  0
VERTEX
  8
E65LXLIFT
 62
6
 10
4624.603
 20
-9505.318
 30
-1194.000
 70
    32
  0
VERTEX
  8
E65LXLIFT
 62
6
 10
4613.857
 20
-9489.117
 30
-1194.000
 70
    32
  0
VERTEX
  8
E65LXLIFT
 62
6
 10
4613.462
 20
-9468.029
 30
-1194.000
 70
    32
  0
VERTEX
  8
E65LXLIFT
 62
6
 10
4606.483
 20
-9454.634
 30
-1194.000
 70
    32
  0
VERTEX
  8
E65LXLIFT
 62
6
 10
4610.387
 20
-9441.286
 30
-1194.000
 70
    32
  0
VERTEX
  8
E65LXLIFT
 62
6
 10
4609.455
 20
-9431.002
 30
-1194.000
 70
    32
  0
VERTEX
  8
E65LXLIFT
 62
6
 10
4613.896
 20
-9425.293
 30
-1194.000
 70
    32
  0
VERTEX
  8
E65LXLIFT
 62
6
 10
4614.647
 20
-9419.434
 30
-1194.000
 70
    32
  0
VERTEX
  8
E65LXLIFT
 62
6
 10
4625.577
 20
-9418.795
 30
-1194.000
 70
    32
  0
SEQEND
  8
E65LXLIFT
  0
POLYLINE
  8
E65LXLIFT
 62
6
 66
     1
 70
     9
  0
VERTEX
  8
E65LXLIFT
 62
6
 10
4685.500
 20
-9454.529
 30
-1208.000
 70
    32
  0
VERTEX
  8
E65LXLIFT
 62
6
 10
4677.647
 20
-9446.975
 30
-1208.000
 70
    32
  0
VERTEX
  8
E65LXLIFT
 62
6
 10
4684.295
 20
-9434.570
 30
-1208.000
 70
    32
  0
VERTEX
  8
E65LXLIFT
 62
6
 10
4684.929
 20
-9426.300
 30
-1208.000
 70
    32
  0
VERTEX
  8
E65LXLIFT
 62
6
 10
4701.902
 20
-9422.916
 30
-1208.000
 70
    32
  0
VERTEX
  8
E65LXLIFT
 62
6
 10
4700.736
 20
-9416.057
 30
-1208.000
 70
    32
  0
VERTEX
  8
E65LXLIFT
 62
6
 10
4676.194
 20
-9414.827
 30
-1208.000
 70
    32
  0
VERTEX
  8
E65LXLIFT
 62
6
 10
4665.929
 20
-9405.438
 30
-1208.000
 70
    32
  0
VERTEX
  8
E65LXLIFT
 62
6
 10
4666.953
 20
-9390.809
 30
-1208.000
 70
    32
  0
VERTEX
  8
E65LXLIFT
 62
6
 10
4673.731
 20
-9386.231
 30
-1208.000
 70
    32
  0
VERTEX
  8
E65LXLIFT
 62
6
 10
4678.405
 20
-9380.245
 30
-1208.000
 70
    32
  0
VERTEX
  8
E65LXLIFT
 62
6
 10
4665.870
 20
-9365.771
 30
-1208.000
 70
    32
  0
VERTEX
  8
E65LXLIFT
 62
6
 10
4659.517
 20
-9366.137
 30
-1208.000
 70
    32
  0
VERTEX
  8
E65LXLIFT
 62
6
 10
4655.149
 20
-9373.745
 30
-1208.000
 70
    32
  0
VERTEX
  8
E65LXLIFT
 62
6
 10
4646.937
 20
-9380.989
 30
-1208.000
 70
    32
  0
VERTEX
  8
E65LXLIFT
 62
6
 10
4630.588
 20
-9385.984
 30
-1208.000
 70
    32
  0
VERTEX
  8
E65LXLIFT
 62
6
 10
4619.613
 20
-9389.259
 30
-1208.000
 70
    32
  0
VERTEX
  8
E65LXLIFT
 62
6
 10
4610.305
 20
-9384.493
 30
-1208.000
 70
    32
  0
VERTEX
  8
E65LXLIFT
 62
6
 10
4603.689
 20
-9378.648
 30
-1208.000
 70
    32
  0
VERTEX
  8
E65LXLIFT
 62
6
 10
4599.992
 20
-9378.936
 30
-1208.000
 70
    32
  0
VERTEX
  8
E65LXLIFT
 62
6
 10
4589.340
 20
-9398.252
 30
-1208.000
 70
    32
  0
VERTEX
  8
E65LXLIFT
 62
6
 10
4584.649
 20
-9403.165
 30
-1208.000
 70
    32
  0
VERTEX
  8
E65LXLIFT
 62
6
 10
4572.553
 20
-9405.191
 30
-1208.000
 70
    32
  0
VERTEX
  8
E65LXLIFT
 62
6
 10
4565.429
 20
-9416.638
 30
-1208.000
 70
    32
  0
VERTEX
  8
E65LXLIFT
 62
6
 10
4566.308
 20
-9421.752
 30
-1208.000
 70
    32
  0
VERTEX
  8
E65LXLIFT
 62
6
 10
4572.248
 20
-9437.309
 30
-1208.000
 70
    32
  0
VERTEX
  8
E65LXLIFT
 62
6
 10
4574.224
 20
-9469.730
 30
-1208.000
 70
    32
  0
VERTEX
  8
E65LXLIFT
 62
6
 10
4571.306
 20
-9473.794
 30
-1208.000
 70
    32
  0
VERTEX
  8
E65LXLIFT
 62
6
 10
4570.034
 20
-9481.332
 30
-1208.000
 70
    32
  0
VERTEX
  8
E65LXLIFT
 62
6
 10
4589.467
 20
-9507.740
 30
-1208.000
 70
    32
  0
VERTEX
  8
E65LXLIFT
 62
6
 10
4606.298
 20
-9528.002
 30
-1208.000
 70
    32
  0
VERTEX
  8
E65LXLIFT
 62
6
 10
4627.715
 20
-9546.356
 30
-1208.000
 70
    32
  0
VERTEX
  8
E65LXLIFT
 62
6
 10
4615.521
 20
-9554.095
 30
-1208.000
 70
    32
  0
VERTEX
  8
E65LXLIFT
 62
6
 10
4631.222
 20
-9563.348
 30
-1208.000
 70
    32
  0
VERTEX
  8
E65LXLIFT
 62
6
 10
4647.113
 20
-9573.766
 30
-1208.000
 70
    32
  0
VERTEX
  8
E65LXLIFT
 62
6
 10
4658.238
 20
-9583.293
 30
-1208.000
 70
    32
  0
VERTEX
  8
E65LXLIFT
 62
6
 10
4667.646
 20
-9589.397
 30
-1208.000
 70
    32
  0
VERTEX
  8
E65LXLIFT
 62
6
 10
4677.855
 20
-9603.058
 30
-1208.000
 70
    32
  0
VERTEX
  8
E65LXLIFT
 62
6
 10
4682.679
 20
-9604.776
 30
-1208.000
 70
    32
  0
VERTEX
  8
E65LXLIFT
 62
6
 10
4688.535
 20
-9601.623
 30
-1208.000
 70
    32
  0
VERTEX
  8
E65LXLIFT
 62
6
 10
4686.990
 20
-9596.340
 30
-1208.000
 70
    32
  0
VERTEX
  8
E65LXLIFT
 62
6
 10
4704.732
 20
-9603.466
 30
-1208.000
 70
    32
  0
VERTEX
  8
E65LXLIFT
 62
6
 10
4709.483
 20
-9595.037
 30
-1208.000
 70
    32
  0
VERTEX
  8
E65LXLIFT
 62
6
 10
4682.675
 20
-9582.428
 30
-1208.000
 70
    32
  0
VERTEX
  8
E65LXLIFT
 62
6
 10
4674.942
 20
-9576.089
 30
-1208.000
 70
    32
  0
VERTEX
  8
E65LXLIFT
 62
6
 10
4671.357
 20
-9564.687
 30
-1208.000
 70
    32
  0
VERTEX
  8
E65LXLIFT
 62
6
 10
4665.766
 20
-9554.411
 30
-1208.000
 70
    32
  0
VERTEX
  8
E65LXLIFT
 62
6
 10
4666.826
 20
-9548.979
 30
-1208.000
 70
    32
  0
VERTEX
  8
E65LXLIFT
 62
6
 10
4661.690
 20
-9542.930
 30
-1208.000
 70
    32
  0
VERTEX
  8
E65LXLIFT
 62
6
 10
4646.263
 20
-9538.252
 30
-1208.000
 70
    32
  0
VERTEX
  8
E65LXLIFT
 62
6
 10
4638.477
 20
-9534.989
 30
-1208.000
 70
    32
  0
VERTEX
  8
E65LXLIFT
 62
6
 10
4630.418
 20
-9522.051
 30
-1208.000
 70
    32
  0
VERTEX
  8
E65LXLIFT
 62
6
 10
4627.781
 20
-9508.661
 30
-1208.000
 70
    32
  0
VERTEX
  8
E65LXLIFT
 62
6
 10
4615.833
 20
-9489.748
 30
-1208.000
 70
    32
  0
VERTEX
  8
E65LXLIFT
 62
6
 10
4613.950
 20
-9469.303
 30
-1208.000
 70
    32
  0
VERTEX
  8
E65LXLIFT
 62
6
 10
4606.633
 20
-9448.993
 30
-1208.000
 70
    32
  0
VERTEX
  8
E65LXLIFT
 62
6
 10
4608.418
 20
-9440.215
 30
-1208.000
 70
    32
  0
VERTEX
  8
E65LXLIFT
 62
6
 10
4610.355
 20
-9427.747
 30
-1208.000
 70
    32
  0
VERTEX
  8
E65LXLIFT
 62
6
 10
4617.526
 20
-9420.714
 30
-1208.000
 70
    32
  0
VERTEX
  8
E65LXLIFT
 62
6
 10
4624.401
 20
-9418.669
 30
-1208.000
 70
    32
  0
VERTEX
  8
E65LXLIFT
 62
6
 10
4633.761
 20
-9425.458
 30
-1208.000
 70
    32
  0
VERTEX
  8
E65LXLIFT
 62
6
 10
4649.411
 20
-9439.739
 30
-1208.000
 70
    32
  0
VERTEX
  8
E65LXLIFT
 62
6
 10
4662.634
 20
-9449.918
 30
-1208.000
 70
    32
  0
SEQEND
  8
E65LXLIFT
  0
POLYLINE
  8
E65LXLIFT
 62
6
 66
     1
 70
     9
  0
VERTEX
  8
E65LXLIFT
 62
6
 10
4628.867
 20
-9545.849
 30
-1217.000
 70
    32
  0
VERTEX
  8
E65LXLIFT
 62
6
 10
4628.627
 20
-9543.418
 30
-1217.000
 70
    32
  0
VERTEX
  8
E65LXLIFT
 62
6
 10
4617.953
 20
-9537.363
 30
-1217.000
 70
    32
  0
VERTEX
  8
E65LXLIFT
 62
6
 10
4607.412
 20
-9529.692
 30
-1217.000
 70
    32
  0
VERTEX
  8
E65LXLIFT
 62
6
 10
4597.436
 20
-9520.853
 30
-1217.000
 70
    32
  0
VERTEX
  8
E65LXLIFT
 62
6
 10
4597.092
 20
-9516.328
 30
-1217.000
 70
    32
  0
VERTEX
  8
E65LXLIFT
 62
6
 10
4588.587
 20
-9505.774
 30
-1217.000
 70
    32
  0
VERTEX
  8
E65LXLIFT
 62
6
 10
4580.567
 20
-9492.590
 30
-1217.000
 70
    32
  0
VERTEX
  8
E65LXLIFT
 62
6
 10
4580.130
 20
-9486.288
 30
-1217.000
 70
    32
  0
VERTEX
  8
E65LXLIFT
 62
6
 10
4573.085
 20
-9465.455
 30
-1217.000
 70
    32
  0
VERTEX
  8
E65LXLIFT
 62
6
 10
4571.751
 20
-9434.522
 30
-1217.000
 70
    32
  0
VERTEX
  8
E65LXLIFT
 62
6
 10
4565.928
 20
-9421.376
 30
-1217.000
 70
    32
  0
VERTEX
  8
E65LXLIFT
 62
6
 10
4567.574
 20
-9411.506
 30
-1217.000
 70
    32
  0
VERTEX
  8
E65LXLIFT
 62
6
 10
4572.431
 20
-9410.270
 30
-1217.000
 70
    32
  0
VERTEX
  8
E65LXLIFT
 62
6
 10
4579.922
 20
-9412.227
 30
-1217.000
 70
    32
  0
VERTEX
  8
E65LXLIFT
 62
6
 10
4606.649
 20
-9394.734
 30
-1217.000
 70
    32
  0
VERTEX
  8
E65LXLIFT
 62
6
 10
4616.911
 20
-9391.973
 30
-1217.000
 70
    32
  0
VERTEX
  8
E65LXLIFT
 62
6
 10
4637.101
 20
-9383.440
 30
-1217.000
 70
    32
  0
VERTEX
  8
E65LXLIFT
 62
6
 10
4650.586
 20
-9384.533
 30
-1217.000
 70
    32
  0
VERTEX
  8
E65LXLIFT
 62
6
 10
4654.371
 20
-9398.611
 30
-1217.000
 70
    32
  0
VERTEX
  8
E65LXLIFT
 62
6
 10
4670.999
 20
-9409.147
 30
-1217.000
 70
    32
  0
VERTEX
  8
E65LXLIFT
 62
6
 10
4678.601
 20
-9419.053
 30
-1217.000
 70
    32
  0
VERTEX
  8
E65LXLIFT
 62
6
 10
4674.772
 20
-9436.253
 30
-1217.000
 70
    32
  0
VERTEX
  8
E65LXLIFT
 62
6
 10
4678.710
 20
-9448.593
 30
-1217.000
 70
    32
  0
VERTEX
  8
E65LXLIFT
 62
6
 10
4685.861
 20
-9455.028
 30
-1217.000
 70
    32
  0
VERTEX
  8
E65LXLIFT
 62
6
 10
4679.031
 20
-9462.682
 30
-1217.000
 70
    32
  0
VERTEX
  8
E65LXLIFT
 62
6
 10
4625.663
 20
-9417.864
 30
-1217.000
 70
    32
  0
VERTEX
  8
E65LXLIFT
 62
6
 10
4613.417
 20
-9420.432
 30
-1217.000
 70
    32
  0
VERTEX
  8
E65LXLIFT
 62
6
 10
4609.351
 20
-9434.006
 30
-1217.000
 70
    32
  0
VERTEX
  8
E65LXLIFT
 62
6
 10
4609.856
 20
-9441.452
 30
-1217.000
 70
    32
  0
VERTEX
  8
E65LXLIFT
 62
6
 10
4612.334
 20
-9445.627
 30
-1217.000
 70
    32
  0
VERTEX
  8
E65LXLIFT
 62
6
 10
4610.499
 20
-9456.285
 30
-1217.000
 70
    32
  0
VERTEX
  8
E65LXLIFT
 62
6
 10
4614.910
 20
-9475.878
 30
-1217.000
 70
    32
  0
VERTEX
  8
E65LXLIFT
 62
6
 10
4622.319
 20
-9501.112
 30
-1217.000
 70
    32
  0
VERTEX
  8
E65LXLIFT
 62
6
 10
4635.696
 20
-9527.997
 30
-1217.000
 70
    32
  0
VERTEX
  8
E65LXLIFT
 62
6
 10
4639.549
 20
-9529.874
 30
-1217.000
 70
    32
  0
VERTEX
  8
E65LXLIFT
 62
6
 10
4643.658
 20
-9533.302
 30
-1217.000
 70
    32
  0
SEQEND
  8
E65LXLIFT
  0
POLYLINE
  8
E65LXLIFT
 62
6
 66
     1
 70
     9
  0
VERTEX
  8
E65LXLIFT
 62
6
 10
4666.666
 20
-9551.156
 30
-1202.000
 70
    32
  0
VERTEX
  8
E65LXLIFT
 62
6
 10
4679.092
 20
-9546.288
 30
-1202.000
 70
    32
  0
VERTEX
  8
E65LXLIFT
 62
6
 10
4686.376
 20
-9540.909
 30
-1202.000
 70
    32
  0
VERTEX
  8
E65LXLIFT
 62
6
 10
4694.449
 20
-9537.672
 30
-1202.000
 70
    32
  0
VERTEX
  8
E65LXLIFT
 62
6
 10
4707.330
 20
-9523.686
 30
-1202.000
 70
    32
  0
VERTEX
  8
E65LXLIFT
 62
6
 10
4720.986
 20
-9512.720
 30
-1202.000
 70
    32
  0
VERTEX
  8
E65LXLIFT
 62
6
 10
4719.417
 20
-9501.704
 30
-1202.000
 70
    32
  0
VERTEX
  8
E65LXLIFT
 62
6
 10
4711.915
 20
-9493.136
 30
-1202.000
 70
    32
  0
VERTEX
  8
E65LXLIFT
 62
6
 10
4705.402
 20
-9495.679
 30
-1202.000
 70
    32
  0
VERTEX
  8
E65LXLIFT
 62
6
 10
4702.020
 20
-9499.103
 30
-1202.000
 70
    32
  0
VERTEX
  8
E65LXLIFT
 62
6
 10
4693.276
 20
-9496.316
 30
-1202.000
 70
    32
  0
VERTEX
  8
E65LXLIFT
 62
6
 10
4679.385
 20
-9500.508
 30
-1202.000
 70
    32
  0
VERTEX
  8
E65LXLIFT
 62
6
 10
4664.175
 20
-9504.678
 30
-1202.000
 70
    32
  0
VERTEX
  8
E65LXLIFT
 62
6
 10
4655.076
 20
-9520.593
 30
-1202.000
 70
    32
  0
VERTEX
  8
E65LXLIFT
 62
6
 10
4654.110
 20
-9534.853
 30
-1202.000
 70
    32
  0
VERTEX
  8
E65LXLIFT
 62
6
 10
4646.489
 20
-9538.415
 30
-1202.000
 70
    32
  0
VERTEX
  8
E65LXLIFT
 62
6
 10
4662.194
 20
-9543.326
 30
-1202.000
 70
    32
  0
SEQEND
  8
E65LXLIFT
  0
POLYLINE
  8
E65LXLIFT
 62
6
 66
     1
 70
     9
  0
VERTEX
  8
E65LXLIFT
 62
6
 10
4594.508
 20
-9441.383
 30
-1240.000
 70
    32
  0
VERTEX
  8
E65LXLIFT
 62
6
 10
4623.894
 20
-9459.504
 30
-1240.000
 70
    32
  0
VERTEX
  8
E65LXLIFT
 62
6
 10
4629.268
 20
-9466.031
 30
-1240.000
 70
    32
  0
VERTEX
  8
E65LXLIFT
 62
6
 10
4626.490
 20
-9471.188
 30
-1240.000
 70
    32
  0
VERTEX
  8
E65LXLIFT
 62
6
 10
4620.000
 20
-9474.365
 30
-1240.000
 70
    32
  0
VERTEX
  8
E65LXLIFT
 62
6
 10
4608.008
 20
-9478.485
 30
-1240.000
 70
    32
  0
VERTEX
  8
E65LXLIFT
 62
6
 10
4604.099
 20
-9480.879
 30
-1240.000
 70
    32
  0
VERTEX
  8
E65LXLIFT
 62
6
 10
4603.547
 20
-9487.463
 30
-1240.000
 70
    32
  0
VERTEX
  8
E65LXLIFT
 62
6
 10
4611.930
 20
-9489.752
 30
-1240.000
 70
    32
  0
VERTEX
  8
E65LXLIFT
 62
6
 10
4614.589
 20
-9493.578
 30
-1240.000
 70
    32
  0
VERTEX
  8
E65LXLIFT
 62
6
 10
4611.544
 20
-9501.965
 30
-1240.000
 70
    32
  0
VERTEX
  8
E65LXLIFT
 62
6
 10
4619.532
 20
-9509.856
 30
-1240.000
 70
    32
  0
VERTEX
  8
E65LXLIFT
 62
6
 10
4631.197
 20
-9507.383
 30
-1240.000
 70
    32
  0
VERTEX
  8
E65LXLIFT
 62
6
 10
4634.150
 20
-9499.170
 30
-1240.000
 70
    32
  0
VERTEX
  8
E65LXLIFT
 62
6
 10
4639.167
 20
-9495.757
 30
-1240.000
 70
    32
  0
VERTEX
  8
E65LXLIFT
 62
6
 10
4649.874
 20
-9498.859
 30
-1240.000
 70
    32
  0
VERTEX
  8
E65LXLIFT
 62
6
 10
4661.080
 20
-9509.847
 30
-1240.000
 70
    32
  0
VERTEX
  8
E65LXLIFT
 62
6
 10
4667.284
 20
-9520.222
 30
-1240.000
 70
    32
  0
VERTEX
  8
E65LXLIFT
 62
6
 10
4660.215
 20
-9530.544
 30
-1240.000
 70
    32
  0
VERTEX
  8
E65LXLIFT
 62
6
 10
4650.222
 20
-9539.076
 30
-1240.000
 70
    32
  0
VERTEX
  8
E65LXLIFT
 62
6
 10
4661.075
 20
-9554.225
 30
-1240.000
 70
    32
  0
VERTEX
  8
E65LXLIFT
 62
6
 10
4681.986
 20
-9573.379
 30
-1240.000
 70
    32
  0
VERTEX
  8
E65LXLIFT
 62
6
 10
4696.138
 20
-9581.692
 30
-1240.000
 70
    32
  0
VERTEX
  8
E65LXLIFT
 62
6
 10
4703.088
 20
-9593.697
 30
-1240.000
 70
    32
  0
VERTEX
  8
E65LXLIFT
 62
6
 10
4715.569
 20
-9606.148
 30
-1240.000
 70
    32
  0
VERTEX
  8
E65LXLIFT
 62
6
 10
4723.657
 20
-9610.278
 30
-1240.000
 70
    32
  0
VERTEX
  8
E65LXLIFT
 62
6
 10
4730.167
 20
-9617.176
 30
-1240.000
 70
    32
  0
VERTEX
  8
E65LXLIFT
 62
6
 10
4742.271
 20
-9619.810
 30
-1240.000
 70
    32
  0
VERTEX
  8
E65LXLIFT
 62
6
 10
4754.267
 20
-9629.792
 30
-1240.000
 70
    32
  0
VERTEX
  8
E65LXLIFT
 62
6
 10
4762.517
 20
-9633.696
 30
-1240.000
 70
    32
  0
VERTEX
  8
E65LXLIFT
 62
6
 10
4771.148
 20
-9634.828
 30
-1240.000
 70
    32
  0
VERTEX
  8
E65LXLIFT
 62
6
 10
4782.581
 20
-9634.585
 30
-1240.000
 70
    32
  0
VERTEX
  8
E65LXLIFT
 62
6
 10
4784.625
 20
-9636.361
 30
-1240.000
 70
    32
  0
VERTEX
  8
E65LXLIFT
 62
6
 10
4800.244
 20
-9633.956
 30
-1240.000
 70
    32
  0
VERTEX
  8
E65LXLIFT
 62
6
 10
4805.166
 20
-9629.961
 30
-1240.000
 70
    32
  0
VERTEX
  8
E65LXLIFT
 62
6
 10
4800.038
 20
-9620.326
 30
-1240.000
 70
    32
  0
VERTEX
  8
E65LXLIFT
 62
6
 10
4794.815
 20
-9618.355
 30
-1240.000
 70
    32
  0
VERTEX
  8
E65LXLIFT
 62
6
 10
4788.167
 20
-9617.415
 30
-1240.000
 70
    32
  0
VERTEX
  8
E65LXLIFT
 62
6
 10
4783.980
 20
-9614.477
 30
-1240.000
 70
    32
  0
VERTEX
  8
E65LXLIFT
 62
6
 10
4773.897
 20
-9609.838
 30
-1240.000
 70
    32
  0
VERTEX
  8
E65LXLIFT
 62
6
 10
4764.742
 20
-9606.481
 30
-1240.000
 70
    32
  0
VERTEX
  8
E65LXLIFT
 62
6
 10
4762.211
 20
-9600.284
 30
-1240.000
 70
    32
  0
VERTEX
  8
E65LXLIFT
 62
6
 10
4761.430
 20
-9594.556
 30
-1240.000
 70
    32
  0
VERTEX
  8
E65LXLIFT
 62
6
 10
4750.220
 20
-9587.911
 30
-1240.000
 70
    32
  0
VERTEX
  8
E65LXLIFT
 62
6
 10
4740.262
 20
-9571.899
 30
-1240.000
 70
    32
  0
VERTEX
  8
E65LXLIFT
 62
6
 10
4739.884
 20
-9565.229
 30
-1240.000
 70
    32
  0
VERTEX
  8
E65LXLIFT
 62
6
 10
4735.690
 20
-9554.484
 30
-1240.000
 70
    32
  0
VERTEX
  8
E65LXLIFT
 62
6
 10
4736.726
 20
-9543.320
 30
-1240.000
 70
    32
  0
VERTEX
  8
E65LXLIFT
 62
6
 10
4728.576
 20
-9527.409
 30
-1240.000
 70
    32
  0
VERTEX
  8
E65LXLIFT
 62
6
 10
4727.985
 20
-9520.893
 30
-1240.000
 70
    32
  0
VERTEX
  8
E65LXLIFT
 62
6
 10
4735.505
 20
-9519.141
 30
-1240.000
 70
    32
  0
VERTEX
  8
E65LXLIFT
 62
6
 10
4741.653
 20
-9515.343
 30
-1240.000
 70
    32
  0
VERTEX
  8
E65LXLIFT
 62
6
 10
4748.143
 20
-9507.067
 30
-1240.000
 70
    32
  0
VERTEX
  8
E65LXLIFT
 62
6
 10
4762.311
 20
-9511.354
 30
-1240.000
 70
    32
  0
VERTEX
  8
E65LXLIFT
 62
6
 10
4777.863
 20
-9518.003
 30
-1240.000
 70
    32
  0
VERTEX
  8
E65LXLIFT
 62
6
 10
4783.270
 20
-9508.232
 30
-1240.000
 70
    32
  0
VERTEX
  8
E65LXLIFT
 62
6
 10
4776.549
 20
-9505.391
 30
-1240.000
 70
    32
  0
VERTEX
  8
E65LXLIFT
 62
6
 10
4783.113
 20
-9495.869
 30
-1240.000
 70
    32
  0
VERTEX
  8
E65LXLIFT
 62
6
 10
4780.808
 20
-9494.933
 30
-1240.000
 70
    32
  0
VERTEX
  8
E65LXLIFT
 62
6
 10
4787.884
 20
-9473.973
 30
-1240.000
 70
    32
  0
VERTEX
  8
E65LXLIFT
 62
6
 10
4794.267
 20
-9466.750
 30
-1240.000
 70
    32
  0
VERTEX
  8
E65LXLIFT
 62
6
 10
4790.931
 20
-9459.291
 30
-1240.000
 70
    32
  0
VERTEX
  8
E65LXLIFT
 62
6
 10
4782.069
 20
-9465.486
 30
-1240.000
 70
    32
  0
VERTEX
  8
E65LXLIFT
 62
6
 10
4774.305
 20
-9460.905
 30
-1240.000
 70
    32
  0
VERTEX
  8
E65LXLIFT
 62
6
 10
4778.676
 20
-9452.100
 30
-1240.000
 70
    32
  0
VERTEX
  8
E65LXLIFT
 62
6
 10
4773.451
 20
-9448.178
 30
-1240.000
 70
    32
  0
VERTEX
  8
E65LXLIFT
 62
6
 10
4770.480
 20
-9450.219
 30
-1240.000
 70
    32
  0
VERTEX
  8
E65LXLIFT
 62
6
 10
4761.493
 20
-9449.344
 30
-1240.000
 70
    32
  0
VERTEX
  8
E65LXLIFT
 62
6
 10
4749.606
 20
-9455.558
 30
-1240.000
 70
    32
  0
VERTEX
  8
E65LXLIFT
 62
6
 10
4749.646
 20
-9460.412
 30
-1240.000
 70
    32
  0
VERTEX
  8
E65LXLIFT
 62
6
 10
4749.277
 20
-9468.599
 30
-1240.000
 70
    32
  0
VERTEX
  8
E65LXLIFT
 62
6
 10
4737.422
 20
-9475.006
 30
-1240.000
 70
    32
  0
VERTEX
  8
E65LXLIFT
 62
6
 10
4726.883
 20
-9469.287
 30
-1240.000
 70
    32
  0
VERTEX
  8
E65LXLIFT
 62
6
 10
4719.451
 20
-9463.815
 30
-1240.000
 70
    32
  0
VERTEX
  8
E65LXLIFT
 62
6
 10
4713.805
 20
-9462.909
 30
-1240.000
 70
    32
  0
VERTEX
  8
E65LXLIFT
 62
6
 10
4709.881
 20
-9466.183
 30
-1240.000
 70
    32
  0
VERTEX
  8
E65LXLIFT
 62
6
 10
4705.973
 20
-9478.775
 30
-1240.000
 70
    32
  0
VERTEX
  8
E65LXLIFT
 62
6
 10
4705.644
 20
-9491.815
 30
-1240.000
 70
    32
  0
VERTEX
  8
E65LXLIFT
 62
6
 10
4702.023
 20
-9497.907
 30
-1240.000
 70
    32
  0
VERTEX
  8
E65LXLIFT
 62
6
 10
4692.736
 20
-9503.216
 30
-1240.000
 70
    32
  0
VERTEX
  8
E65LXLIFT
 62
6
 10
4686.920
 20
-9502.976
 30
-1240.000
 70
    32
  0
VERTEX
  8
E65LXLIFT
 62
6
 10
4678.428
 20
-9492.738
 30
-1240.000
 70
    32
  0
VERTEX
  8
E65LXLIFT
 62
6
 10
4667.439
 20
-9480.400
 30
-1240.000
 70
    32
  0
VERTEX
  8
E65LXLIFT
 62
6
 10
4655.267
 20
-9476.622
 30
-1240.000
 70
    32
  0
VERTEX
  8
E65LXLIFT
 62
6
 10
4648.364
 20
-9469.031
 30
-1240.000
 70
    32
  0
VERTEX
  8
E65LXLIFT
 62
6
 10
4635.466
 20
-9455.254
 30
-1240.000
 70
    32
  0
VERTEX
  8
E65LXLIFT
 62
6
 10
4624.176
 20
-9442.050
 30
-1240.000
 70
    32
  0
VERTEX
  8
E65LXLIFT
 62
6
 10
4620.993
 20
-9432.852
 30
-1240.000
 70
    32
  0
SEQEND
  8
E65LXLIFT
  0
POLYLINE
  8
E65LXLIFT
 62
8
 66
     1
 70
     9
  0
VERTEX
  8
E65LXLIFT
 62
8
 10
4752.440
 20
-9521.169
 30
-1167.000
 70
    32
  0
VERTEX
  8
E65LXLIFT
 62
8
 10
4759.075
 20
-9528.202
 30
-1167.000
 70
    32
  0
VERTEX
  8
E65LXLIFT
 62
8
 10
4758.218
 20
-9540.470
 30
-1167.000
 70
    32
  0
VERTEX
  8
E65LXLIFT
 62
8
 10
4757.339
 20
-9553.617
 30
-1167.000
 70
    32
  0
VERTEX
  8
E65LXLIFT
 62
8
 10
4770.477
 20
-9565.835
 30
-1167.000
 70
    32
  0
VERTEX
  8
E65LXLIFT
 62
8
 10
4781.586
 20
-9573.239
 30
-1167.000
 70
    32
  0
VERTEX
  8
E65LXLIFT
 62
8
 10
4789.164
 20
-9575.391
 30
-1167.000
 70
    32
  0
VERTEX
  8
E65LXLIFT
 62
8
 10
4800.970
 20
-9566.216
 30
-1167.000
 70
    32
  0
VERTEX
  8
E65LXLIFT
 62
8
 10
4801.301
 20
-9561.231
 30
-1167.000
 70
    32
  0
VERTEX
  8
E65LXLIFT
 62
8
 10
4788.025
 20
-9543.068
 30
-1167.000
 70
    32
  0
VERTEX
  8
E65LXLIFT
 62
8
 10
4773.216
 20
-9524.270
 30
-1167.000
 70
    32
  0
VERTEX
  8
E65LXLIFT
 62
8
 10
4759.285
 20
-9507.761
 30
-1167.000
 70
    32
  0
SEQEND
  8
E65LXLIFT
  0
POLYLINE
  8
E65LXLIFT
 62
8
 66
     1
 70
     9
  0
VERTEX
  8
E65LXLIFT
 62
8
 10
4771.279
 20
-9549.240
 30
-1184.000
 70
    32
  0
VERTEX
  8
E65LXLIFT
 62
8
 10
4777.044
 20
-9554.508
 30
-1184.000
 70
    32
  0
VERTEX
  8
E65LXLIFT
 62
8
 10
4780.593
 20
-9561.812
 30
-1184.000
 70
    32
  0
VERTEX
  8
E65LXLIFT
 62
8
 10
4795.615
 20
-9581.973
 30
-1184.000
 70
    32
  0
VERTEX
  8
E65LXLIFT
 62
8
 10
4804.119
 20
-9600.774
 30
-1184.000
 70
    32
  0
VERTEX
  8
E65LXLIFT
 62
8
 10
4806.009
 20
-9607.435
 30
-1184.000
 70
    32
  0
VERTEX
  8
E65LXLIFT
 62
8
 10
4815.289
 20
-9617.862
 30
-1184.000
 70
    32
  0
VERTEX
  8
E65LXLIFT
 62
8
 10
4844.853
 20
-9658.422
 30
-1184.000
 70
    32
  0
VERTEX
  8
E65LXLIFT
 62
8
 10
4856.020
 20
-9648.064
 30
-1184.000
 70
    32
  0
VERTEX
  8
E65LXLIFT
 62
8
 10
4854.701
 20
-9637.843
 30
-1184.000
 70
    32
  0
VERTEX
  8
E65LXLIFT
 62
8
 10
4856.960
 20
-9622.972
 30
-1184.000
 70
    32
  0
VERTEX
  8
E65LXLIFT
 62
8
 10
4857.511
 20
-9614.436
 30
-1184.000
 70
    32
  0
VERTEX
  8
E65LXLIFT
 62
8
 10
4848.923
 20
-9608.716
 30
-1184.000
 70
    32
  0
VERTEX
  8
E65LXLIFT
 62
8
 10
4845.785
 20
-9605.128
 30
-1184.000
 70
    32
  0
VERTEX
  8
E65LXLIFT
 62
8
 10
4840.910
 20
-9603.339
 30
-1184.000
 70
    32
  0
VERTEX
  8
E65LXLIFT
 62
8
 10
4834.359
 20
-9599.833
 30
-1184.000
 70
    32
  0
VERTEX
  8
E65LXLIFT
 62
8
 10
4826.066
 20
-9587.172
 30
-1184.000
 70
    32
  0
VERTEX
  8
E65LXLIFT
 62
8
 10
4814.790
 20
-9581.335
 30
-1184.000
 70
    32
  0
VERTEX
  8
E65LXLIFT
 62
8
 10
4808.102
 20
-9570.442
 30
-1184.000
 70
    32
  0
VERTEX
  8
E65LXLIFT
 62
8
 10
4797.142
 20
-9554.395
 30
-1184.000
 70
    32
  0
VERTEX
  8
E65LXLIFT
 62
8
 10
4779.539
 20
-9533.065
 30
-1184.000
 70
    32
  0
SEQEND
  8
E65LXLIFT
  0
POLYLINE
  8
E65LXLIFT
 62
2
 66
     1
 70
     9
  0
VERTEX
  8
E65LXLIFT
 62
2
 10
4791.627
 20
-9621.747
 30
-1264.000
 70
    32
  0
VERTEX
  8
E65LXLIFT
 62
2
 10
4799.740
 20
-9623.363
 30
-1264.000
 70
    32
  0
VERTEX
  8
E65LXLIFT
 62
2
 10
4809.468
 20
-9620.013
 30
-1264.000
 70
    32
  0
VERTEX
  8
E65LXLIFT
 62
2
 10
4819.194
 20
-9633.155
 30
-1264.000
 70
    32
  0
VERTEX
  8
E65LXLIFT
 62
2
 10
4814.939
 20
-9642.419
 30
-1264.000
 70
    32
  0
VERTEX
  8
E65LXLIFT
 62
2
 10
4802.386
 20
-9656.709
 30
-1264.000
 70
    32
  0
VERTEX
  8
E65LXLIFT
 62
2
 10
4792.916
 20
-9647.070
 30
-1264.000
 70
    32
  0
VERTEX
  8
E65LXLIFT
 62
2
 10
4785.824
 20
-9645.366
 30
-1264.000
 70
    32
  0
VERTEX
  8
E65LXLIFT
 62
2
 10
4777.066
 20
-9638.358
 30
-1264.000
 70
    32
  0
VERTEX
  8
E65LXLIFT
 62
2
 10
4780.259
 20
-9627.477
 30
-1264.000
 70
    32
  0
SEQEND
  8
E65LXLIFT
  0
POLYLINE
  8
E65LXLIFT
 62
8
 66
     1
 70
     9
  0
VERTEX
  8
E65LXLIFT
 62
8
 10
4803.322
 20
-9604.171
 30
-1194.000
 70
    32
  0
VERTEX
  8
E65LXLIFT
 62
8
 10
4811.100
 20
-9607.874
 30
-1194.000
 70
    32
  0
VERTEX
  8
E65LXLIFT
 62
8
 10
4821.549
 20
-9618.866
 30
-1194.000
 70
    32
  0
VERTEX
  8
E65LXLIFT
 62
8
 10
4829.406
 20
-9622.078
 30
-1194.000
 70
    32
  0
VERTEX
  8
E65LXLIFT
 62
8
 10
4841.803
 20
-9610.721
 30
-1194.000
 70
    32
  0
VERTEX
  8
E65LXLIFT
 62
8
 10
4844.378
 20
-9604.084
 30
-1194.000
 70
    32
  0
VERTEX
  8
E65LXLIFT
 62
8
 10
4838.276
 20
-9602.098
 30
-1194.000
 70
    32
  0
VERTEX
  8
E65LXLIFT
 62
8
 10
4832.973
 20
-9590.420
 30
-1194.000
 70
    32
  0
VERTEX
  8
E65LXLIFT
 62
8
 10
4821.083
 20
-9592.731
 30
-1194.000
 70
    32
  0
VERTEX
  8
E65LXLIFT
 62
8
 10
4805.756
 20
-9594.490
 30
-1194.000
 70
    32
  0
SEQEND
  8
E65LXLIFT
  0
POLYLINE
  8
E65LXLIFT
 62
8
 66
     1
 70
     9
  0
VERTEX
  8
E65LXLIFT
 62
8
 10
4778.281
 20
-9593.105
 30
-1210.000
 70
    32
  0
VERTEX
  8
E65LXLIFT
 62
8
 10
4784.060
 20
-9592.395
 30
-1210.000
 70
    32
  0
VERTEX
  8
E65LXLIFT
 62
8
 10
4794.343
 20
-9594.611
 30
-1210.000
 70
    32
  0
VERTEX
  8
E65LXLIFT
 62
8
 10
4799.636
 20
-9594.578
 30
-1210.000
 70
    32
  0
VERTEX
  8
E65LXLIFT
 62
8
 10
4802.416
 20
-9591.373
 30
-1210.000
 70
    32
  0
VERTEX
  8
E65LXLIFT
 62
8
 10
4788.632
 20
-9569.774
 30
-1210.000
 70
    32
  0
VERTEX
  8
E65LXLIFT
 62
8
 10
4773.791
 20
-9547.313
 30
-1210.000
 70
    32
  0
VERTEX
  8
E65LXLIFT
 62
8
 10
4784.386
 20
-9535.416
 30
-1210.000
 70
    32
  0
VERTEX
  8
E65LXLIFT
 62
8
 10
4788.604
 20
-9541.695
 30
-1210.000
 70
    32
  0
VERTEX
  8
E65LXLIFT
 62
8
 10
4805.033
 20
-9564.851
 30
-1210.000
 70
    32
  0
VERTEX
  8
E65LXLIFT
 62
8
 10
4819.153
 20
-9586.315
 30
-1210.000
 70
    32
  0
VERTEX
  8
E65LXLIFT
 62
8
 10
4832.152
 20
-9593.184
 30
-1210.000
 70
    32
  0
VERTEX
  8
E65LXLIFT
 62
8
 10
4836.076
 20
-9603.256
 30
-1210.000
 70
    32
  0
VERTEX
  8
E65LXLIFT
 62
8
 10
4841.901
 20
-9605.008
 30
-1210.000
 70
    32
  0
VERTEX
  8
E65LXLIFT
 62
8
 10
4848.787
 20
-9611.526
 30
-1210.000
 70
    32
  0
VERTEX
  8
E65LXLIFT
 62
8
 10
4855.957
 20
-9612.739
 30
-1210.000
 70
    32
  0
VERTEX
  8
E65LXLIFT
 62
8
 10
4859.102
 20
-9619.035
 30
-1210.000
 70
    32
  0
VERTEX
  8
E65LXLIFT
 62
8
 10
4859.120
 20
-9625.207
 30
-1210.000
 70
    32
  0
VERTEX
  8
E65LXLIFT
 62
8
 10
4854.943
 20
-9633.979
 30
-1210.000
 70
    32
  0
VERTEX
  8
E65LXLIFT
 62
8
 10
4854.834
 20
-9649.573
 30
-1210.000
 70
    32
  0
VERTEX
  8
E65LXLIFT
 62
8
 10
4845.132
 20
-9655.508
 30
-1210.000
 70
    32
  0
VERTEX
  8
E65LXLIFT
 62
8
 10
4830.693
 20
-9640.350
 30
-1210.000
 70
    32
  0
VERTEX
  8
E65LXLIFT
 62
8
 10
4817.476
 20
-9619.535
 30
-1210.000
 70
    32
  0
VERTEX
  8
E65LXLIFT
 62
8
 10
4809.614
 20
-9610.468
 30
-1210.000
 70
    32
  0
VERTEX
  8
E65LXLIFT
 62
8
 10
4792.288
 20
-9602.716
 30
-1210.000
 70
    32
  0
VERTEX
  8
E65LXLIFT
 62
8
 10
4779.777
 20
-9602.220
 30
-1210.000
 70
    32
  0
SEQEND
  8
E65LXLIFT
  0
POLYLINE
  8
E65LXLIFT
 62
6
 66
     1
 70
     9
  0
VERTEX
  8
E65LXLIFT
 62
6
 10
4746.443
 20
-9514.915
 30
-1172.000
 70
    32
  0
VERTEX
  8
E65LXLIFT
 62
6
 10
4740.663
 20
-9518.772
 30
-1172.000
 70
    32
  0
VERTEX
  8
E65LXLIFT
 62
6
 10
4727.786
 20
-9520.169
 30
-1172.000
 70
    32
  0
VERTEX
  8
E65LXLIFT
 62
6
 10
4727.955
 20
-9469.270
 30
-1172.000
 70
    32
  0
VERTEX
  8
E65LXLIFT
 62
6
 10
4711.685
 20
-9447.084
 30
-1172.000
 70
    32
  0
VERTEX
  8
E65LXLIFT
 62
6
 10
4702.561
 20
-9425.477
 30
-1172.000
 70
    32
  0
VERTEX
  8
E65LXLIFT
 62
6
 10
4696.079
 20
-9414.869
 30
-1172.000
 70
    32
  0
VERTEX
  8
E65LXLIFT
 62
6
 10
4716.002
 20
-9399.369
 30
-1172.000
 70
    32
  0
VERTEX
  8
E65LXLIFT
 62
6
 10
4723.882
 20
-9393.016
 30
-1172.000
 70
    32
  0
VERTEX
  8
E65LXLIFT
 62
6
 10
4725.864
 20
-9386.158
 30
-1172.000
 70
    32
  0
VERTEX
  8
E65LXLIFT
 62
6
 10
4726.700
 20
-9382.515
 30
-1172.000
 70
    32
  0
VERTEX
  8
E65LXLIFT
 62
6
 10
4733.368
 20
-9380.185
 30
-1172.000
 70
    32
  0
VERTEX
  8
E65LXLIFT
 62
6
 10
4738.468
 20
-9385.284
 30
-1172.000
 70
    32
  0
VERTEX
  8
E65LXLIFT
 62
6
 10
4738.524
 20
-9391.210
 30
-1172.000
 70
    32
  0
VERTEX
  8
E65LXLIFT
 62
6
 10
4755.893
 20
-9397.521
 30
-1172.000
 70
    32
  0
VERTEX
  8
E65LXLIFT
 62
6
 10
4774.610
 20
-9415.442
 30
-1172.000
 70
    32
  0
VERTEX
  8
E65LXLIFT
 62
6
 10
4771.070
 20
-9422.994
 30
-1172.000
 70
    32
  0
VERTEX
  8
E65LXLIFT
 62
6
 10
4765.185
 20
-9434.955
 30
-1172.000
 70
    32
  0
VERTEX
  8
E65LXLIFT
 62
6
 10
4749.356
 20
-9441.418
 30
-1172.000
 70
    32
  0
VERTEX
  8
E65LXLIFT
 62
6
 10
4744.144
 20
-9448.010
 30
-1172.000
 70
    32
  0
VERTEX
  8
E65LXLIFT
 62
6
 10
4744.067
 20
-9463.797
 30
-1172.000
 70
    32
  0
VERTEX
  8
E65LXLIFT
 62
6
 10
4742.509
 20
-9479.788
 30
-1172.000
 70
    32
  0
VERTEX
  8
E65LXLIFT
 62
6
 10
4757.281
 20
-9504.252
 30
-1172.000
 70
    32
  0
SEQEND
  8
E65LXLIFT
  0
POLYLINE
  8
E65LXLIFT
 62
6
 66
     1
 70
     9
  0
VERTEX
  8
E65LXLIFT
 62
6
 10
4741.976
 20
-9525.717
 30
-1167.000
 70
    32
  0
VERTEX
  8
E65LXLIFT
 62
6
 10
4753.608
 20
-9517.206
 30
-1167.000
 70
    32
  0
VERTEX
  8
E65LXLIFT
 62
6
 10
4759.777
 20
-9518.743
 30
-1167.000
 70
    32
  0
VERTEX
  8
E65LXLIFT
 62
6
 10
4766.761
 20
-9510.525
 30
-1167.000
 70
    32
  0
VERTEX
  8
E65LXLIFT
 62
6
 10
4762.627
 20
-9505.485
 30
-1167.000
 70
    32
  0
VERTEX
  8
E65LXLIFT
 62
6
 10
4756.889
 20
-9502.130
 30
-1167.000
 70
    32
  0
VERTEX
  8
E65LXLIFT
 62
6
 10
4754.687
 20
-9470.133
 30
-1167.000
 70
    32
  0
VERTEX
  8
E65LXLIFT
 62
6
 10
4753.887
 20
-9460.990
 30
-1167.000
 70
    32
  0
VERTEX
  8
E65LXLIFT
 62
6
 10
4757.896
 20
-9441.185
 30
-1167.000
 70
    32
  0
VERTEX
  8
E65LXLIFT
 62
6
 10
4760.990
 20
-9429.480
 30
-1167.000
 70
    32
  0
VERTEX
  8
E65LXLIFT
 62
6
 10
4763.399
 20
-9419.236
 30
-1167.000
 70
    32
  0
VERTEX
  8
E65LXLIFT
 62
6
 10
4763.722
 20
-9410.911
 30
-1167.000
 70
    32
  0
VERTEX
  8
E65LXLIFT
 62
6
 10
4761.106
 20
-9399.069
 30
-1167.000
 70
    32
  0
VERTEX
  8
E65LXLIFT
 62
6
 10
4751.371
 20
-9384.964
 30
-1167.000
 70
    32
  0
VERTEX
  8
E65LXLIFT
 62
6
 10
4744.477
 20
-9382.864
 30
-1167.000
 70
    32
  0
VERTEX
  8
E65LXLIFT
 62
6
 10
4740.098
 20
-9379.296
 30
-1167.000
 70
    32
  0
VERTEX
  8
E65LXLIFT
 62
6
 10
4737.538
 20
-9373.890
 30
-1167.000
 70
    32
  0
VERTEX
  8
E65LXLIFT
 62
6
 10
4725.921
 20
-9375.913
 30
-1167.000
 70
    32
  0
VERTEX
  8
E65LXLIFT
 62
6
 10
4717.289
 20
-9376.673
 30
-1167.000
 70
    32
  0
VERTEX
  8
E65LXLIFT
 62
6
 10
4710.381
 20
-9378.792
 30
-1167.000
 70
    32
  0
VERTEX
  8
E65LXLIFT
 62
6
 10
4713.367
 20
-9387.672
 30
-1167.000
 70
    32
  0
VERTEX
  8
E65LXLIFT
 62
6
 10
4708.453
 20
-9401.970
 30
-1167.000
 70
    32
  0
VERTEX
  8
E65LXLIFT
 62
6
 10
4704.971
 20
-9412.980
 30
-1167.000
 70
    32
  0
VERTEX
  8
E65LXLIFT
 62
6
 10
4701.082
 20
-9422.661
 30
-1167.000
 70
    32
  0
VERTEX
  8
E65LXLIFT
 62
6
 10
4708.026
 20
-9438.756
 30
-1167.000
 70
    32
  0
VERTEX
  8
E65LXLIFT
 62
6
 10
4710.304
 20
-9439.074
 30
-1167.000
 70
    32
  0
VERTEX
  8
E65LXLIFT
 62
6
 10
4713.717
 20
-9437.504
 30
-1167.000
 70
    32
  0
VERTEX
  8
E65LXLIFT
 62
6
 10
4731.970
 20
-9466.581
 30
-1167.000
 70
    32
  0
VERTEX
  8
E65LXLIFT
 62
6
 10
4735.255
 20
-9484.961
 30
-1167.000
 70
    32
  0
VERTEX
  8
E65LXLIFT
 62
6
 10
4733.818
 20
-9507.465
 30
-1167.000
 70
    32
  0
VERTEX
  8
E65LXLIFT
 62
6
 10
4729.586
 20
-9524.083
 30
-1167.000
 70
    32
  0
SEQEND
  8
E65LXLIFT
  0
POLYLINE
  8
E65LXLIFT
 62
1
 66
     1
 70
     9
  0
VERTEX
  8
E65LXLIFT
 62
1
 10
4678.788
 20
-9385.061
 30
-1130.000
 70
    32
  0
VERTEX
  8
E65LXLIFT
 62
1
 10
4686.923
 20
-9380.123
 30
-1130.000
 70
    32
  0
VERTEX
  8
E65LXLIFT
 62
1
 10
4694.281
 20
-9376.819
 30
-1130.000
 70
    32
  0
VERTEX
  8
E65LXLIFT
 62
1
 10
4700.704
 20
-9367.058
 30
-1130.000
 70
    32
  0
VERTEX
  8
E65LXLIFT
 62
1
 10
4704.581
 20
-9360.840
 30
-1130.000
 70
    32
  0
VERTEX
  8
E65LXLIFT
 62
1
 10
4724.265
 20
-9349.393
 30
-1130.000
 70
    32
  0
VERTEX
  8
E65LXLIFT
 62
1
 10
4731.896
 20
-9348.592
 30
-1130.000
 70
    32
  0
VERTEX
  8
E65LXLIFT
 62
1
 10
4736.047
 20
-9358.044
 30
-1130.000
 70
    32
  0
VERTEX
  8
E65LXLIFT
 62
1
 10
4744.051
 20
-9364.425
 30
-1130.000
 70
    32
  0
VERTEX
  8
E65LXLIFT
 62
1
 10
4749.295
 20
-9386.158
 30
-1130.000
 70
    32
  0
VERTEX
  8
E65LXLIFT
 62
1
 10
4745.590
 20
-9394.736
 30
-1130.000
 70
    32
  0
VERTEX
  8
E65LXLIFT
 62
1
 10
4739.521
 20
-9408.778
 30
-1130.000
 70
    32
  0
VERTEX
  8
E65LXLIFT
 62
1
 10
4734.907
 20
-9417.896
 30
-1130.000
 70
    32
  0
VERTEX
  8
E65LXLIFT
 62
1
 10
4738.280
 20
-9428.983
 30
-1130.000
 70
    32
  0
VERTEX
  8
E65LXLIFT
 62
1
 10
4734.068
 20
-9433.066
 30
-1130.000
 70
    32
  0
VERTEX
  8
E65LXLIFT
 62
1
 10
4736.350
 20
-9440.505
 30
-1130.000
 70
    32
  0
VERTEX
  8
E65LXLIFT
 62
1
 10
4728.482
 20
-9443.849
 30
-1130.000
 70
    32
  0
VERTEX
  8
E65LXLIFT
 62
1
 10
4718.220
 20
-9437.027
 30
-1130.000
 70
    32
  0
VERTEX
  8
E65LXLIFT
 62
1
 10
4711.687
 20
-9431.649
 30
-1130.000
 70
    32
  0
VERTEX
  8
E65LXLIFT
 62
1
 10
4698.980
 20
-9416.101
 30
-1130.000
 70
    32
  0
VERTEX
  8
E65LXLIFT
 62
1
 10
4685.750
 20
-9404.813
 30
-1130.000
 70
    32
  0
VERTEX
  8
E65LXLIFT
 62
1
 10
4672.364
 20
-9395.578
 30
-1130.000
 70
    32
  0
SEQEND
  8
E65LXLIFT
  0
POLYLINE
  8
E65LXLIFT
 62
6
 66
     1
 70
     9
  0
VERTEX
  8
E65LXLIFT
 62
6
 10
4677.788
 20
-9386.061
 30
-1143.000
 70
    32
  0
VERTEX
  8
E65LXLIFT
 62
6
 10
4685.923
 20
-9381.123
 30
-1143.000
 70
    32
  0
VERTEX
  8
E65LXLIFT
 62
6
 10
4693.281
 20
-9377.819
 30
-1143.000
 70
    32
  0
VERTEX
  8
E65LXLIFT
 62
6
 10
4699.704
 20
-9368.058
 30
-1143.000
 70
    32
  0
VERTEX
  8
E65LXLIFT
 62
6
 10
4703.581
 20
-9361.840
 30
-1143.000
 70
    32
  0
VERTEX
  8
E65LXLIFT
 62
6
 10
4723.265
 20
-9350.393
 30
-1143.000
 70
    32
  0
VERTEX
  8
E65LXLIFT
 62
6
 10
4730.896
 20
-9349.592
 30
-1143.000
 70
    32
  0
VERTEX
  8
E65LXLIFT
 62
6
 10
4735.047
 20
-9359.044
 30
-1143.000
 70
    32
  0
VERTEX
  8
E65LXLIFT
 62
6
 10
4743.051
 20
-9365.425
 30
-1143.000
 70
    32
  0
VERTEX
  8
E65LXLIFT
 62
6
 10
4748.295
 20
-9387.158
 30
-1143.000
 70
    32
  0
VERTEX
  8
E65LXLIFT
 62
6
 10
4744.590
 20
-9395.736
 30
-1143.000
 70
    32
  0
VERTEX
  8
E65LXLIFT
 62
6
 10
4738.521
 20
-9409.778
 30
-1143.000
 70
    32
  0
VERTEX
  8
E65LXLIFT
 62
6
 10
4733.907
 20
-9418.896
 30
-1143.000
 70
    32
  0
VERTEX
  8
E65LXLIFT
 62
6
 10
4737.280
 20
-9429.983
 30
-1143.000
 70
    32
  0
VERTEX
  8
E65LXLIFT
 62
6
 10
4733.068
 20
-9434.066
 30
-1143.000
 70
    32
  0
VERTEX
  8
E65LXLIFT
 62
6
 10
4735.350
 20
-9441.505
 30
-1143.000
 70
    32
  0
VERTEX
  8
E65LXLIFT
 62
6
 10
4727.482
 20
-9444.849
 30
-1143.000
 70
    32
  0
VERTEX
  8
E65LXLIFT
 62
6
 10
4717.220
 20
-9438.027
 30
-1143.000
 70
    32
  0
VERTEX
  8
E65LXLIFT
 62
6
 10
4710.687
 20
-9432.649
 30
-1143.000
 70
    32
  0
VERTEX
  8
E65LXLIFT
 62
6
 10
4697.980
 20
-9417.101
 30
-1143.000
 70
    32
  0
VERTEX
  8
E65LXLIFT
 62
6
 10
4684.750
 20
-9405.813
 30
-1143.000
 70
    32
  0
VERTEX
  8
E65LXLIFT
 62
6
 10
4671.364
 20
-9396.578
 30
-1143.000
 70
    32
  0
SEQEND
  8
E65LXLIFT
  0
POLYLINE
  8
E65LXLIFT
 62
6
 66
     1
 70
     9
  0
VERTEX
  8
E65LXLIFT
 62
6
 10
4746.443
 20
-9514.915
 30
-1184.000
 70
    32
  0
VERTEX
  8
E65LXLIFT
 62
6
 10
4740.663
 20
-9518.772
 30
-1184.000
 70
    32
  0
VERTEX
  8
E65LXLIFT
 62
6
 10
4727.786
 20
-9520.169
 30
-1184.000
 70
    32
  0
VERTEX
  8
E65LXLIFT
 62
6
 10
4727.955
 20
-9469.270
 30
-1184.000
 70
    32
  0
VERTEX
  8
E65LXLIFT
 62
6
 10
4711.685
 20
-9447.084
 30
-1184.000
 70
    32
  0
VERTEX
  8
E65LXLIFT
 62
6
 10
4702.561
 20
-9425.477
 30
-1184.000
 70
    32
  0
VERTEX
  8
E65LXLIFT
 62
6
 10
4696.079
 20
-9414.869
 30
-1184.000
 70
    32
  0
VERTEX
  8
E65LXLIFT
 62
6
 10
4716.002
 20
-9399.369
 30
-1184.000
 70
    32
  0
VERTEX
  8
E65LXLIFT
 62
6
 10
4723.882
 20
-9393.016
 30
-1184.000
 70
    32
  0
VERTEX
  8
E65LXLIFT
 62
6
 10
4725.864
 20
-9386.158
 30
-1184.000
 70
    32
  0
VERTEX
  8
E65LXLIFT
 62
6
 10
4726.700
 20
-9382.515
 30
-1184.000
 70
    32
  0
VERTEX
  8
E65LXLIFT
 62
6
 10
4733.368
 20
-9380.185
 30
-1184.000
 70
    32
  0
VERTEX
  8
E65LXLIFT
 62
6
 10
4738.468
 20
-9385.284
 30
-1184.000
 70
    32
  0
VERTEX
  8
E65LXLIFT
 62
6
 10
4738.524
 20
-9391.210
 30
-1184.000
 70
    32
  0
VERTEX
  8
E65LXLIFT
 62
6
 10
4755.893
 20
-9397.521
 30
-1184.000
 70
    32
  0
VERTEX
  8
E65LXLIFT
 62
6
 10
4774.610
 20
-9415.442
 30
-1184.000
 70
    32
  0
VERTEX
  8
E65LXLIFT
 62
6
 10
4771.070
 20
-9422.994
 30
-1184.000
 70
    32
  0
VERTEX
  8
E65LXLIFT
 62
6
 10
4765.185
 20
-9434.955
 30
-1184.000
 70
    32
  0
VERTEX
  8
E65LXLIFT
 62
6
 10
4749.356
 20
-9441.418
 30
-1184.000
 70
    32
  0
VERTEX
  8
E65LXLIFT
 62
6
 10
4744.144
 20
-9448.010
 30
-1184.000
 70
    32
  0
VERTEX
  8
E65LXLIFT
 62
6
 10
4744.067
 20
-9463.797
 30
-1184.000
 70
    32
  0
VERTEX
  8
E65LXLIFT
 62
6
 10
4742.509
 20
-9479.788
 30
-1184.000
 70
    32
  0
VERTEX
  8
E65LXLIFT
 62
6
 10
4757.281
 20
-9504.252
 30
-1184.000
 70
    32
  0
SEQEND
  8
E65LXLIFT
  0
POLYLINE
  8
E65LXLIFT
 62
6
 66
     1
 70
     9
  0
VERTEX
  8
E65LXLIFT
 62
6
 10
4696.708
 20
-9397.609
 30
-1156.000
 70
    32
  0
VERTEX
  8
E65LXLIFT
 62
6
 10
4718.730
 20
-9362.045
 30
-1156.000
 70
    32
  0
VERTEX
  8
E65LXLIFT
 62
6
 10
4726.322
 20
-9359.978
 30
-1156.000
 70
    32
  0
VERTEX
  8
E65LXLIFT
 62
6
 10
4733.027
 20
-9367.716
 30
-1156.000
 70
    32
  0
VERTEX
  8
E65LXLIFT
 62
6
 10
4745.881
 20
-9377.870
 30
-1156.000
 70
    32
  0
VERTEX
  8
E65LXLIFT
 62
6
 10
4758.358
 20
-9386.134
 30
-1156.000
 70
    32
  0
VERTEX
  8
E65LXLIFT
 62
6
 10
4761.949
 20
-9392.531
 30
-1156.000
 70
    32
  0
VERTEX
  8
E65LXLIFT
 62
6
 10
4751.646
 20
-9399.879
 30
-1156.000
 70
    32
  0
VERTEX
  8
E65LXLIFT
 62
6
 10
4751.083
 20
-9413.771
 30
-1156.000
 70
    32
  0
VERTEX
  8
E65LXLIFT
 62
6
 10
4742.735
 20
-9430.518
 30
-1156.000
 70
    32
  0
VERTEX
  8
E65LXLIFT
 62
6
 10
4748.448
 20
-9440.044
 30
-1156.000
 70
    32
  0
VERTEX
  8
E65LXLIFT
 62
6
 10
4748.088
 20
-9442.567
 30
-1156.000
 70
    32
  0
VERTEX
  8
E65LXLIFT
 62
6
 10
4751.086
 20
-9449.495
 30
-1156.000
 70
    32
  0
VERTEX
  8
E65LXLIFT
 62
6
 10
4741.119
 20
-9458.978
 30
-1156.000
 70
    32
  0
VERTEX
  8
E65LXLIFT
 62
6
 10
4738.037
 20
-9454.807
 30
-1156.000
 70
    32
  0
VERTEX
  8
E65LXLIFT
 62
6
 10
4732.419
 20
-9453.741
 30
-1156.000
 70
    32
  0
VERTEX
  8
E65LXLIFT
 62
6
 10
4726.623
 20
-9445.461
 30
-1156.000
 70
    32
  0
VERTEX
  8
E65LXLIFT
 62
6
 10
4722.629
 20
-9445.612
 30
-1156.000
 70
    32
  0
VERTEX
  8
E65LXLIFT
 62
6
 10
4717.657
 20
-9441.062
 30
-1156.000
 70
    32
  0
VERTEX
  8
E65LXLIFT
 62
6
 10
4708.564
 20
-9429.521
 30
-1156.000
 70
    32
  0
VERTEX
  8
E65LXLIFT
 62
6
 10
4695.289
 20
-9409.846
 30
-1156.000
 70
    32
  0
SEQEND
  8
E65LXLIFT
  0
POLYLINE
  8
E65LXLIFT
 62
6
 66
     1
 70
     9
  0
VERTEX
  8
E65LXLIFT
 62
6
 10
4662.646
 20
-9418.445
 30
-1224.000
 70
    32
  0
VERTEX
  8
E65LXLIFT
 62
6
 10
4674.220
 20
-9421.246
 30
-1224.000
 70
    32
  0
VERTEX
  8
E65LXLIFT
 62
6
 10
4681.488
 20
-9424.993
 30
-1224.000
 70
    32
  0
VERTEX
  8
E65LXLIFT
 62
6
 10
4693.747
 20
-9432.939
 30
-1224.000
 70
    32
  0
VERTEX
  8
E65LXLIFT
 62
6
 10
4698.950
 20
-9438.180
 30
-1224.000
 70
    32
  0
VERTEX
  8
E65LXLIFT
 62
6
 10
4713.438
 20
-9446.358
 30
-1224.000
 70
    32
  0
VERTEX
  8
E65LXLIFT
 62
6
 10
4714.772
 20
-9469.044
 30
-1224.000
 70
    32
  0
VERTEX
  8
E65LXLIFT
 62
6
 10
4721.145
 20
-9476.802
 30
-1224.000
 70
    32
  0
VERTEX
  8
E65LXLIFT
 62
6
 10
4715.666
 20
-9499.970
 30
-1224.000
 70
    32
  0
VERTEX
  8
E65LXLIFT
 62
6
 10
4719.103
 20
-9518.965
 30
-1224.000
 70
    32
  0
VERTEX
  8
E65LXLIFT
 62
6
 10
4739.574
 20
-9522.815
 30
-1224.000
 70
    32
  0
VERTEX
  8
E65LXLIFT
 62
6
 10
4747.551
 20
-9518.995
 30
-1224.000
 70
    32
  0
VERTEX
  8
E65LXLIFT
 62
6
 10
4750.792
 20
-9512.528
 30
-1224.000
 70
    32
  0
VERTEX
  8
E65LXLIFT
 62
6
 10
4759.712
 20
-9509.112
 30
-1224.000
 70
    32
  0
VERTEX
  8
E65LXLIFT
 62
6
 10
4767.486
 20
-9512.058
 30
-1224.000
 70
    32
  0
VERTEX
  8
E65LXLIFT
 62
6
 10
4771.549
 20
-9509.877
 30
-1224.000
 70
    32
  0
VERTEX
  8
E65LXLIFT
 62
6
 10
4780.970
 20
-9513.151
 30
-1224.000
 70
    32
  0
VERTEX
  8
E65LXLIFT
 62
6
 10
4784.100
 20
-9506.980
 30
-1224.000
 70
    32
  0
VERTEX
  8
E65LXLIFT
 62
6
 10
4779.188
 20
-9499.142
 30
-1224.000
 70
    32
  0
VERTEX
  8
E65LXLIFT
 62
6
 10
4789.274
 20
-9484.141
 30
-1224.000
 70
    32
  0
VERTEX
  8
E65LXLIFT
 62
6
 10
4790.953
 20
-9479.564
 30
-1224.000
 70
    32
  0
VERTEX
  8
E65LXLIFT
 62
6
 10
4790.184
 20
-9474.153
 30
-1224.000
 70
    32
  0
VERTEX
  8
E65LXLIFT
 62
6
 10
4780.970
 20
-9462.918
 30
-1224.000
 70
    32
  0
VERTEX
  8
E65LXLIFT
 62
6
 10
4775.307
 20
-9460.939
 30
-1224.000
 70
    32
  0
VERTEX
  8
E65LXLIFT
 62
6
 10
4768.064
 20
-9457.826
 30
-1224.000
 70
    32
  0
VERTEX
  8
E65LXLIFT
 62
6
 10
4756.343
 20
-9446.126
 30
-1224.000
 70
    32
  0
VERTEX
  8
E65LXLIFT
 62
6
 10
4751.991
 20
-9439.511
 30
-1224.000
 70
    32
  0
VERTEX
  8
E65LXLIFT
 62
6
 10
4752.657
 20
-9431.435
 30
-1224.000
 70
    32
  0
VERTEX
  8
E65LXLIFT
 62
6
 10
4747.924
 20
-9429.542
 30
-1224.000
 70
    32
  0
VERTEX
  8
E65LXLIFT
 62
6
 10
4743.696
 20
-9424.899
 30
-1224.000
 70
    32
  0
VERTEX
  8
E65LXLIFT
 62
6
 10
4741.755
 20
-9418.166
 30
-1224.000
 70
    32
  0
VERTEX
  8
E65LXLIFT
 62
6
 10
4737.257
 20
-9412.850
 30
-1224.000
 70
    32
  0
VERTEX
  8
E65LXLIFT
 62
6
 10
4726.124
 20
-9412.008
 30
-1224.000
 70
    32
  0
VERTEX
  8
E65LXLIFT
 62
6
 10
4713.044
 20
-9411.925
 30
-1224.000
 70
    32
  0
VERTEX
  8
E65LXLIFT
 62
6
 10
4704.146
 20
-9414.023
 30
-1224.000
 70
    32
  0
VERTEX
  8
E65LXLIFT
 62
6
 10
4693.769
 20
-9408.078
 30
-1224.000
 70
    32
  0
VERTEX
  8
E65LXLIFT
 62
6
 10
4687.136
 20
-9401.160
 30
-1224.000
 70
    32
  0
VERTEX
  8
E65LXLIFT
 62
6
 10
4662.080
 20
-9409.416
 30
-1224.000
 70
    32
  0
SEQEND
  8
E65LXLIFT
  0
POLYLINE
  8
E65LXLIFT
 62
6
 66
     1
 70
     9
  0
VERTEX
  8
E65LXLIFT
 62
6
 10
4696.358
 20
-9565.801
 30
-1211.000
 70
    32
  0
VERTEX
  8
E65LXLIFT
 62
6
 10
4713.607
 20
-9562.651
 30
-1211.000
 70
    32
  0
VERTEX
  8
E65LXLIFT
 62
6
 10
4736.167
 20
-9560.541
 30
-1211.000
 70
    32
  0
VERTEX
  8
E65LXLIFT
 62
6
 10
4737.901
 20
-9551.691
 30
-1211.000
 70
    32
  0
VERTEX
  8
E65LXLIFT
 62
6
 10
4732.167
 20
-9536.420
 30
-1211.000
 70
    32
  0
VERTEX
  8
E65LXLIFT
 62
6
 10
4726.919
 20
-9533.815
 30
-1211.000
 70
    32
  0
VERTEX
  8
E65LXLIFT
 62
6
 10
4717.938
 20
-9530.549
 30
-1211.000
 70
    32
  0
VERTEX
  8
E65LXLIFT
 62
6
 10
4711.474
 20
-9522.966
 30
-1211.000
 70
    32
  0
VERTEX
  8
E65LXLIFT
 62
6
 10
4706.373
 20
-9524.162
 30
-1211.000
 70
    32
  0
VERTEX
  8
E65LXLIFT
 62
6
 10
4694.073
 20
-9538.052
 30
-1211.000
 70
    32
  0
VERTEX
  8
E65LXLIFT
 62
6
 10
4685.632
 20
-9541.231
 30
-1211.000
 70
    32
  0
VERTEX
  8
E65LXLIFT
 62
6
 10
4679.215
 20
-9546.307
 30
-1211.000
 70
    32
  0
SEQEND
  8
E65LXLIFT
  0
POLYLINE
  8
E65LXLIFT
 62
6
 66
     1
 70
     9
  0
VERTEX
  8
E65LXLIFT
 62
6
 10
4621.400
 20
-9432.666
 30
-1252.000
 70
    32
  0
VERTEX
  8
E65LXLIFT
 62
6
 10
4621.433
 20
-9437.959
 30
-1252.000
 70
    32
  0
VERTEX
  8
E65LXLIFT
 62
6
 10
4625.972
 20
-9444.981
 30
-1252.000
 70
    32
  0
VERTEX
  8
E65LXLIFT
 62
6
 10
4638.695
 20
-9458.668
 30
-1252.000
 70
    32
  0
VERTEX
  8
E65LXLIFT
 62
6
 10
4646.568
 20
-9466.099
 30
-1252.000
 70
    32
  0
VERTEX
  8
E65LXLIFT
 62
6
 10
4666.683
 20
-9475.306
 30
-1252.000
 70
    32
  0
VERTEX
  8
E65LXLIFT
 62
6
 10
4694.361
 20
-9504.862
 30
-1252.000
 70
    32
  0
VERTEX
  8
E65LXLIFT
 62
6
 10
4702.486
 20
-9498.548
 30
-1252.000
 70
    32
  0
VERTEX
  8
E65LXLIFT
 62
6
 10
4705.621
 20
-9488.035
 30
-1252.000
 70
    32
  0
VERTEX
  8
E65LXLIFT
 62
6
 10
4706.033
 20
-9475.259
 30
-1252.000
 70
    32
  0
VERTEX
  8
E65LXLIFT
 62
6
 10
4717.401
 20
-9469.529
 30
-1252.000
 70
    32
  0
VERTEX
  8
E65LXLIFT
 62
6
 10
4728.507
 20
-9470.933
 30
-1252.000
 70
    32
  0
VERTEX
  8
E65LXLIFT
 62
6
 10
4738.989
 20
-9478.972
 30
-1252.000
 70
    32
  0
VERTEX
  8
E65LXLIFT
 62
6
 10
4752.850
 20
-9466.339
 30
-1252.000
 70
    32
  0
VERTEX
  8
E65LXLIFT
 62
6
 10
4764.465
 20
-9470.846
 30
-1252.000
 70
    32
  0
VERTEX
  8
E65LXLIFT
 62
6
 10
4770.433
 20
-9482.693
 30
-1252.000
 70
    32
  0
VERTEX
  8
E65LXLIFT
 62
6
 10
4768.522
 20
-9492.647
 30
-1252.000
 70
    32
  0
VERTEX
  8
E65LXLIFT
 62
6
 10
4767.018
 20
-9507.514
 30
-1252.000
 70
    32
  0
VERTEX
  8
E65LXLIFT
 62
6
 10
4742.656
 20
-9507.131
 30
-1252.000
 70
    32
  0
VERTEX
  8
E65LXLIFT
 62
6
 10
4738.406
 20
-9514.003
 30
-1252.000
 70
    32
  0
VERTEX
  8
E65LXLIFT
 62
6
 10
4729.064
 20
-9523.584
 30
-1252.000
 70
    32
  0
VERTEX
  8
E65LXLIFT
 62
6
 10
4719.022
 20
-9525.750
 30
-1252.000
 70
    32
  0
VERTEX
  8
E65LXLIFT
 62
6
 10
4708.679
 20
-9545.494
 30
-1252.000
 70
    32
  0
VERTEX
  8
E65LXLIFT
 62
6
 10
4698.539
 20
-9543.175
 30
-1252.000
 70
    32
  0
VERTEX
  8
E65LXLIFT
 62
6
 10
4692.604
 20
-9546.818
 30
-1252.000
 70
    32
  0
VERTEX
  8
E65LXLIFT
 62
6
 10
4691.185
 20
-9558.803
 30
-1252.000
 70
    32
  0
VERTEX
  8
E65LXLIFT
 62
6
 10
4683.482
 20
-9572.297
 30
-1252.000
 70
    32
  0
VERTEX
  8
E65LXLIFT
 62
6
 10
4677.543
 20
-9566.938
 30
-1252.000
 70
    32
  0
VERTEX
  8
E65LXLIFT
 62
6
 10
4670.830
 20
-9568.757
 30
-1252.000
 70
    32
  0
VERTEX
  8
E65LXLIFT
 62
6
 10
4669.458
 20
-9556.514
 30
-1252.000
 70
    32
  0
VERTEX
  8
E65LXLIFT
 62
6
 10
4664.273
 20
-9549.199
 30
-1252.000
 70
    32
  0
VERTEX
  8
E65LXLIFT
 62
6
 10
4668.233
 20
-9523.332
 30
-1252.000
 70
    32
  0
VERTEX
  8
E65LXLIFT
 62
6
 10
4656.088
 20
-9505.647
 30
-1252.000
 70
    32
  0
VERTEX
  8
E65LXLIFT
 62
6
 10
4627.511
 20
-9471.100
 30
-1252.000
 70
    32
  0
VERTEX
  8
E65LXLIFT
 62
6
 10
4628.910
 20
-9464.337
 30
-1252.000
 70
    32
  0
VERTEX
  8
E65LXLIFT
 62
6
 10
4619.404
 20
-9453.748
 30
-1252.000
 70
    32
  0
VERTEX
  8
E65LXLIFT
 62
6
 10
4594.611
 20
-9441.525
 30
-1252.000
 70
    32
  0
SEQEND
  8
E65LXLIFT
  0
POLYLINE
  8
E65LXLIFT
 62
6
 66
     1
 70
     9
  0
VERTEX
  8
E65LXLIFT
 62
6
 10
4705.541
 20
-9573.695
 30
-1240.000
 70
    32
  0
VERTEX
  8
E65LXLIFT
 62
6
 10
4712.138
 20
-9571.417
 30
-1240.000
 70
    32
  0
VERTEX
  8
E65LXLIFT
 62
6
 10
4715.288
 20
-9565.124
 30
-1240.000
 70
    32
  0
VERTEX
  8
E65LXLIFT
 62
6
 10
4713.489
 20
-9558.288
 30
-1240.000
 70
    32
  0
VERTEX
  8
E65LXLIFT
 62
6
 10
4712.044
 20
-9549.244
 30
-1240.000
 70
    32
  0
VERTEX
  8
E65LXLIFT
 62
6
 10
4707.251
 20
-9545.768
 30
-1240.000
 70
    32
  0
VERTEX
  8
E65LXLIFT
 62
6
 10
4701.165
 20
-9544.855
 30
-1240.000
 70
    32
  0
VERTEX
  8
E65LXLIFT
 62
6
 10
4693.577
 20
-9545.464
 30
-1240.000
 70
    32
  0
VERTEX
  8
E65LXLIFT
 62
6
 10
4688.989
 20
-9550.519
 30
-1240.000
 70
    32
  0
VERTEX
  8
E65LXLIFT
 62
6
 10
4687.540
 20
-9559.162
 30
-1240.000
 70
    32
  0
VERTEX
  8
E65LXLIFT
 62
6
 10
4691.504
 20
-9565.841
 30
-1240.000
 70
    32
  0
VERTEX
  8
E65LXLIFT
 62
6
 10
4698.158
 20
-9569.489
 30
-1240.000
 70
    32
  0
SEQEND
  8
E65LXLIFT
  0
POLYLINE
  8
E65LXLIFT
 62
6
 66
     1
 70
     9
  0
VERTEX
  8
E65LXLIFT
 62
6
 10
4623.258
 20
-9434.034
 30
-1221.000
 70
    32
  0
VERTEX
  8
E65LXLIFT
 62
6
 10
4626.184
 20
-9442.875
 30
-1221.000
 70
    32
  0
VERTEX
  8
E65LXLIFT
 62
6
 10
4632.237
 20
-9451.841
 30
-1221.000
 70
    32
  0
VERTEX
  8
E65LXLIFT
 62
6
 10
4663.332
 20
-9482.070
 30
-1221.000
 70
    32
  0
VERTEX
  8
E65LXLIFT
 62
6
 10
4666.029
 20
-9488.798
 30
-1221.000
 70
    32
  0
VERTEX
  8
E65LXLIFT
 62
6
 10
4651.866
 20
-9498.612
 30
-1221.000
 70
    32
  0
VERTEX
  8
E65LXLIFT
 62
6
 10
4646.606
 20
-9495.691
 30
-1221.000
 70
    32
  0
VERTEX
  8
E65LXLIFT
 62
6
 10
4638.649
 20
-9496.241
 30
-1221.000
 70
    32
  0
VERTEX
  8
E65LXLIFT
 62
6
 10
4626.457
 20
-9497.684
 30
-1221.000
 70
    32
  0
VERTEX
  8
E65LXLIFT
 62
6
 10
4624.115
 20
-9490.699
 30
-1221.000
 70
    32
  0
VERTEX
  8
E65LXLIFT
 62
6
 10
4629.494
 20
-9484.637
 30
-1221.000
 70
    32
  0
VERTEX
  8
E65LXLIFT
 62
6
 10
4634.139
 20
-9477.262
 30
-1221.000
 70
    32
  0
VERTEX
  8
E65LXLIFT
 62
6
 10
4631.864
 20
-9469.469
 30
-1221.000
 70
    32
  0
VERTEX
  8
E65LXLIFT
 62
6
 10
4623.248
 20
-9454.113
 30
-1221.000
 70
    32
  0
VERTEX
  8
E65LXLIFT
 62
6
 10
4614.309
 20
-9449.406
 30
-1221.000
 70
    32
  0
VERTEX
  8
E65LXLIFT
 62
6
 10
4607.651
 20
-9445.001
 30
-1221.000
 70
    32
  0
VERTEX
  8
E65LXLIFT
 62
6
 10
4601.323
 20
-9442.853
 30
-1221.000
 70
    32
  0
SEQEND
  8
E65LXLIFT
  0
POLYLINE
  8
E65LXLIFT
 62
1
 66
     1
 70
     9
  0
VERTEX
  8
E65LXLIFT
 62
1
 10
4555.442
 20
-9402.648
 30
-1130.000
 70
    32
  0
VERTEX
  8
E65LXLIFT
 62
1
 10
4560.164
 20
-9413.205
 30
-1130.000
 70
    32
  0
VERTEX
  8
E65LXLIFT
 62
1
 10
4567.483
 20
-9420.290
 30
-1130.000
 70
    32
  0
VERTEX
  8
E65LXLIFT
 62
1
 10
4569.264
 20
-9428.842
 30
-1130.000
 70
    32
  0
VERTEX
  8
E65LXLIFT
 62
1
 10
4571.210
 20
-9435.657
 30
-1130.000
 70
    32
  0
VERTEX
  8
E65LXLIFT
 62
1
 10
4579.997
 20
-9459.180
 30
-1130.000
 70
    32
  0
VERTEX
  8
E65LXLIFT
 62
1
 10
4581.652
 20
-9473.003
 30
-1130.000
 70
    32
  0
VERTEX
  8
E65LXLIFT
 62
1
 10
4586.441
 20
-9474.876
 30
-1130.000
 70
    32
  0
VERTEX
  8
E65LXLIFT
 62
1
 10
4599.259
 20
-9504.807
 30
-1130.000
 70
    32
  0
VERTEX
  8
E65LXLIFT
 62
1
 10
4599.127
 20
-9516.882
 30
-1130.000
 70
    32
  0
VERTEX
  8
E65LXLIFT
 62
1
 10
4599.415
 20
-9526.822
 30
-1130.000
 70
    32
  0
VERTEX
  8
E65LXLIFT
 62
1
 10
4584.215
 20
-9525.788
 30
-1130.000
 70
    32
  0
VERTEX
  8
E65LXLIFT
 62
1
 10
4577.540
 20
-9505.076
 30
-1130.000
 70
    32
  0
VERTEX
  8
E65LXLIFT
 62
1
 10
4571.313
 20
-9500.127
 30
-1130.000
 70
    32
  0
VERTEX
  8
E65LXLIFT
 62
1
 10
4565.592
 20
-9487.261
 30
-1130.000
 70
    32
  0
VERTEX
  8
E65LXLIFT
 62
1
 10
4555.915
 20
-9477.324
 30
-1130.000
 70
    32
  0
VERTEX
  8
E65LXLIFT
 62
1
 10
4554.127
 20
-9464.676
 30
-1130.000
 70
    32
  0
VERTEX
  8
E65LXLIFT
 62
1
 10
4560.962
 20
-9450.952
 30
-1130.000
 70
    32
  0
VERTEX
  8
E65LXLIFT
 62
1
 10
4543.045
 20
-9409.330
 30
-1130.000
 70
    32
  0
SEQEND
  8
E65LXLIFT
  0
POLYLINE
  8
E65LXLIFT
 62
6
 66
     1
 70
     9
  0
VERTEX
  8
E65LXLIFT
 62
6
 10
4542.045
 20
-9410.330
 30
-1140.000
 70
    32
  0
VERTEX
  8
E65LXLIFT
 62
6
 10
4559.962
 20
-9451.952
 30
-1140.000
 70
    32
  0
VERTEX
  8
E65LXLIFT
 62
6
 10
4553.127
 20
-9465.676
 30
-1140.000
 70
    32
  0
VERTEX
  8
E65LXLIFT
 62
6
 10
4554.915
 20
-9478.324
 30
-1140.000
 70
    32
  0
VERTEX
  8
E65LXLIFT
 62
6
 10
4564.592
 20
-9488.261
 30
-1140.000
 70
    32
  0
VERTEX
  8
E65LXLIFT
 62
6
 10
4570.313
 20
-9501.127
 30
-1140.000
 70
    32
  0
VERTEX
  8
E65LXLIFT
 62
6
 10
4576.540
 20
-9506.076
 30
-1140.000
 70
    32
  0
VERTEX
  8
E65LXLIFT
 62
6
 10
4583.215
 20
-9526.788
 30
-1140.000
 70
    32
  0
VERTEX
  8
E65LXLIFT
 62
6
 10
4598.415
 20
-9527.822
 30
-1140.000
 70
    32
  0
VERTEX
  8
E65LXLIFT
 62
6
 10
4598.127
 20
-9517.882
 30
-1140.000
 70
    32
  0
VERTEX
  8
E65LXLIFT
 62
6
 10
4598.259
 20
-9505.807
 30
-1140.000
 70
    32
  0
VERTEX
  8
E65LXLIFT
 62
6
 10
4585.441
 20
-9475.876
 30
-1140.000
 70
    32
  0
VERTEX
  8
E65LXLIFT
 62
6
 10
4580.652
 20
-9474.003
 30
-1140.000
 70
    32
  0
VERTEX
  8
E65LXLIFT
 62
6
 10
4578.997
 20
-9460.180
 30
-1140.000
 70
    32
  0
VERTEX
  8
E65LXLIFT
 62
6
 10
4570.210
 20
-9436.657
 30
-1140.000
 70
    32
  0
VERTEX
  8
E65LXLIFT
 62
6
 10
4568.264
 20
-9429.842
 30
-1140.000
 70
    32
  0
VERTEX
  8
E65LXLIFT
 62
6
 10
4566.483
 20
-9421.290
 30
-1140.000
 70
    32
  0
VERTEX
  8
E65LXLIFT
 62
6
 10
4559.164
 20
-9414.205
 30
-1140.000
 70
    32
  0
VERTEX
  8
E65LXLIFT
 62
6
 10
4554.442
 20
-9403.648
 30
-1140.000
 70
    32
  0
SEQEND
  8
E65LXLIFT
  0
POLYLINE
  8
E65LXLIFT
 62
6
 66
     1
 70
     9
  0
VERTEX
  8
E65LXLIFT
 62
6
 10
4681.052
 20
-9596.080
 30
-1184.000
 70
    32
  0
VERTEX
  8
E65LXLIFT
 62
6
 10
4679.196
 20
-9588.417
 30
-1184.000
 70
    32
  0
VERTEX
  8
E65LXLIFT
 62
6
 10
4681.923
 20
-9578.090
 30
-1184.000
 70
    32
  0
VERTEX
  8
E65LXLIFT
 62
6
 10
4676.587
 20
-9569.366
 30
-1184.000
 70
    32
  0
VERTEX
  8
E65LXLIFT
 62
6
 10
4672.501
 20
-9559.520
 30
-1184.000
 70
    32
  0
VERTEX
  8
E65LXLIFT
 62
6
 10
4658.119
 20
-9542.042
 30
-1184.000
 70
    32
  0
VERTEX
  8
E65LXLIFT
 62
6
 10
4650.821
 20
-9534.955
 30
-1184.000
 70
    32
  0
VERTEX
  8
E65LXLIFT
 62
6
 10
4642.913
 20
-9523.426
 30
-1184.000
 70
    32
  0
VERTEX
  8
E65LXLIFT
 62
6
 10
4632.907
 20
-9516.344
 30
-1184.000
 70
    32
  0
VERTEX
  8
E65LXLIFT
 62
6
 10
4621.839
 20
-9499.399
 30
-1184.000
 70
    32
  0
VERTEX
  8
E65LXLIFT
 62
6
 10
4614.277
 20
-9489.247
 30
-1184.000
 70
    32
  0
VERTEX
  8
E65LXLIFT
 62
6
 10
4608.551
 20
-9483.733
 30
-1184.000
 70
    32
  0
VERTEX
  8
E65LXLIFT
 62
6
 10
4598.433
 20
-9488.342
 30
-1184.000
 70
    32
  0
VERTEX
  8
E65LXLIFT
 62
6
 10
4590.686
 20
-9493.080
 30
-1184.000
 70
    32
  0
VERTEX
  8
E65LXLIFT
 62
6
 10
4581.880
 20
-9500.103
 30
-1184.000
 70
    32
  0
VERTEX
  8
E65LXLIFT
 62
6
 10
4581.566
 20
-9504.018
 30
-1184.000
 70
    32
  0
VERTEX
  8
E65LXLIFT
 62
6
 10
4589.686
 20
-9513.441
 30
-1184.000
 70
    32
  0
VERTEX
  8
E65LXLIFT
 62
6
 10
4602.304
 20
-9528.180
 30
-1184.000
 70
    32
  0
VERTEX
  8
E65LXLIFT
 62
6
 10
4614.603
 20
-9540.980
 30
-1184.000
 70
    32
  0
VERTEX
  8
E65LXLIFT
 62
6
 10
4621.394
 20
-9546.916
 30
-1184.000
 70
    32
  0
VERTEX
  8
E65LXLIFT
 62
6
 10
4629.694
 20
-9559.138
 30
-1184.000
 70
    32
  0
VERTEX
  8
E65LXLIFT
 62
6
 10
4655.484
 20
-9575.738
 30
-1184.000
 70
    32
  0
VERTEX
  8
E65LXLIFT
 62
6
 10
4665.244
 20
-9591.026
 30
-1184.000
 70
    32
  0
VERTEX
  8
E65LXLIFT
 62
6
 10
4670.641
 20
-9601.334
 30
-1184.000
 70
    32
  0
SEQEND
  8
E65LXLIFT
  0
POLYLINE
  8
E65LXLIFT
 62
3
 66
     1
 70
     9
  0
VERTEX
  8
E65LXLIFT
 62
3
 10
4525.407
 20
-9433.312
 30
-1143.000
 70
    32
  0
VERTEX
  8
E65LXLIFT
 62
3
 10
4533.778
 20
-9414.175
 30
-1143.000
 70
    32
  0
VERTEX
  8
E65LXLIFT
 62
3
 10
4544.624
 20
-9404.713
 30
-1143.000
 70
    32
  0
VERTEX
  8
E65LXLIFT
 62
3
 10
4565.513
 20
-9367.259
 30
-1143.000
 70
    32
  0
VERTEX
  8
E65LXLIFT
 62
3
 10
4562.577
 20
-9346.039
 30
-1143.000
 70
    32
  0
VERTEX
  8
E65LXLIFT
 62
3
 10
4560.283
 20
-9340.551
 30
-1143.000
 70
    32
  0
VERTEX
  8
E65LXLIFT
 62
3
 10
4561.329
 20
-9335.812
 30
-1143.000
 70
    32
  0
VERTEX
  8
E65LXLIFT
 62
3
 10
4569.353
 20
-9328.903
 30
-1143.000
 70
    32
  0
VERTEX
  8
E65LXLIFT
 62
3
 10
4583.007
 20
-9321.108
 30
-1143.000
 70
    32
  0
VERTEX
  8
E65LXLIFT
 62
3
 10
4584.354
 20
-9310.434
 30
-1143.000
 70
    32
  0
VERTEX
  8
E65LXLIFT
 62
3
 10
4620.304
 20
-9295.159
 30
-1143.000
 70
    32
  0
VERTEX
  8
E65LXLIFT
 62
3
 10
4619.151
 20
-9280.979
 30
-1143.000
 70
    32
  0
VERTEX
  8
E65LXLIFT
 62
3
 10
4622.893
 20
-9276.692
 30
-1143.000
 70
    32
  0
VERTEX
  8
E65LXLIFT
 62
3
 10
4620.169
 20
-9271.510
 30
-1143.000
 70
    32
  0
VERTEX
  8
E65LXLIFT
 62
3
 10
4606.262
 20
-9263.511
 30
-1143.000
 70
    32
  0
VERTEX
  8
E65LXLIFT
 62
3
 10
4596.863
 20
-9264.709
 30
-1143.000
 70
    32
  0
VERTEX
  8
E65LXLIFT
 62
3
 10
4593.349
 20
-9277.036
 30
-1143.000
 70
    32
  0
VERTEX
  8
E65LXLIFT
 62
3
 10
4585.722
 20
-9284.958
 30
-1143.000
 70
    32
  0
VERTEX
  8
E65LXLIFT
 62
3
 10
4570.439
 20
-9285.927
 30
-1143.000
 70
    32
  0
VERTEX
  8
E65LXLIFT
 62
3
 10
4548.538
 20
-9336.946
 30
-1143.000
 70
    32
  0
VERTEX
  8
E65LXLIFT
 62
3
 10
4532.659
 20
-9342.226
 30
-1143.000
 70
    32
  0
VERTEX
  8
E65LXLIFT
 62
3
 10
4526.036
 20
-9346.409
 30
-1143.000
 70
    32
  0
VERTEX
  8
E65LXLIFT
 62
3
 10
4515.907
 20
-9367.016
 30
-1143.000
 70
    32
  0
VERTEX
  8
E65LXLIFT
 62
3
 10
4517.135
 20
-9389.777
 30
-1143.000
 70
    32
  0
VERTEX
  8
E65LXLIFT
 62
3
 10
4517.864
 20
-9398.972
 30
-1143.000
 70
    32
  0
VERTEX
  8
E65LXLIFT
 62
3
 10
4514.141
 20
-9430.229
 30
-1143.000
 70
    32
  0
SEQEND
  8
E65LXLIFT
  0
POLYLINE
  8
E65LXLIFT
 62
3
 66
     1
 70
     9
  0
VERTEX
  8
E65LXLIFT
 62
3
 10
4506.764
 20
-9459.235
 30
-1155.000
 70
    32
  0
VERTEX
  8
E65LXLIFT
 62
3
 10
4509.986
 20
-9439.991
 30
-1155.000
 70
    32
  0
VERTEX
  8
E65LXLIFT
 62
3
 10
4515.117
 20
-9424.028
 30
-1155.000
 70
    32
  0
VERTEX
  8
E65LXLIFT
 62
3
 10
4512.511
 20
-9411.747
 30
-1155.000
 70
    32
  0
VERTEX
  8
E65LXLIFT
 62
3
 10
4515.374
 20
-9395.027
 30
-1155.000
 70
    32
  0
VERTEX
  8
E65LXLIFT
 62
3
 10
4516.628
 20
-9372.114
 30
-1155.000
 70
    32
  0
VERTEX
  8
E65LXLIFT
 62
3
 10
4527.333
 20
-9346.563
 30
-1155.000
 70
    32
  0
VERTEX
  8
E65LXLIFT
 62
3
 10
4541.546
 20
-9343.336
 30
-1155.000
 70
    32
  0
VERTEX
  8
E65LXLIFT
 62
3
 10
4554.245
 20
-9328.452
 30
-1155.000
 70
    32
  0
VERTEX
  8
E65LXLIFT
 62
3
 10
4564.080
 20
-9305.464
 30
-1155.000
 70
    32
  0
VERTEX
  8
E65LXLIFT
 62
3
 10
4563.757
 20
-9300.622
 30
-1155.000
 70
    32
  0
VERTEX
  8
E65LXLIFT
 62
3
 10
4559.768
 20
-9293.968
 30
-1155.000
 70
    32
  0
VERTEX
  8
E65LXLIFT
 62
3
 10
4559.387
 20
-9271.034
 30
-1155.000
 70
    32
  0
VERTEX
  8
E65LXLIFT
 62
3
 10
4564.246
 20
-9262.712
 30
-1155.000
 70
    32
  0
VERTEX
  8
E65LXLIFT
 62
3
 10
4578.766
 20
-9257.646
 30
-1155.000
 70
    32
  0
VERTEX
  8
E65LXLIFT
 62
3
 10
4602.046
 20
-9259.718
 30
-1155.000
 70
    32
  0
VERTEX
  8
E65LXLIFT
 62
3
 10
4611.914
 20
-9260.236
 30
-1155.000
 70
    32
  0
VERTEX
  8
E65LXLIFT
 62
3
 10
4622.787
 20
-9267.916
 30
-1155.000
 70
    32
  0
VERTEX
  8
E65LXLIFT
 62
3
 10
4631.185
 20
-9279.844
 30
-1155.000
 70
    32
  0
VERTEX
  8
E65LXLIFT
 62
3
 10
4638.969
 20
-9280.770
 30
-1155.000
 70
    32
  0
VERTEX
  8
E65LXLIFT
 62
3
 10
4635.508
 20
-9290.901
 30
-1155.000
 70
    32
  0
VERTEX
  8
E65LXLIFT
 62
3
 10
4630.761
 20
-9300.439
 30
-1155.000
 70
    32
  0
VERTEX
  8
E65LXLIFT
 62
3
 10
4625.671
 20
-9303.745
 30
-1155.000
 70
    32
  0
VERTEX
  8
E65LXLIFT
 62
3
 10
4625.602
 20
-9313.184
 30
-1155.000
 70
    32
  0
VERTEX
  8
E65LXLIFT
 62
3
 10
4590.297
 20
-9314.076
 30
-1155.000
 70
    32
  0
VERTEX
  8
E65LXLIFT
 62
3
 10
4583.326
 20
-9318.075
 30
-1155.000
 70
    32
  0
VERTEX
  8
E65LXLIFT
 62
3
 10
4578.970
 20
-9323.772
 30
-1155.000
 70
    32
  0
VERTEX
  8
E65LXLIFT
 62
3
 10
4563.046
 20
-9334.588
 30
-1155.000
 70
    32
  0
VERTEX
  8
E65LXLIFT
 62
3
 10
4562.497
 20
-9344.261
 30
-1155.000
 70
    32
  0
VERTEX
  8
E65LXLIFT
 62
3
 10
4566.876
 20
-9361.754
 30
-1155.000
 70
    32
  0
VERTEX
  8
E65LXLIFT
 62
3
 10
4560.094
 20
-9374.038
 30
-1155.000
 70
    32
  0
VERTEX
  8
E65LXLIFT
 62
3
 10
4550.292
 20
-9393.440
 30
-1155.000
 70
    32
  0
VERTEX
  8
E65LXLIFT
 62
3
 10
4537.622
 20
-9410.786
 30
-1155.000
 70
    32
  0
VERTEX
  8
E65LXLIFT
 62
3
 10
4526.208
 20
-9427.020
 30
-1155.000
 70
    32
  0
VERTEX
  8
E65LXLIFT
 62
3
 10
4522.217
 20
-9436.558
 30
-1155.000
 70
    32
  0
VERTEX
  8
E65LXLIFT
 62
3
 10
4516.442
 20
-9454.492
 30
-1155.000
 70
    32
  0
VERTEX
  8
E65LXLIFT
 62
3
 10
4514.424
 20
-9460.896
 30
-1155.000
 70
    32
  0
SEQEND
  8
E65LXLIFT
  0
POLYLINE
  8
E65LXLIFT
 62
5
 66
     1
 70
     9
  0
VERTEX
  8
E65LXLIFT
 62
5
 10
4493.309
 20
-9398.252
 30
-1092.000
 70
    32
  0
VERTEX
  8
E65LXLIFT
 62
5
 10
4510.862
 20
-9385.297
 30
-1092.000
 70
    32
  0
VERTEX
  8
E65LXLIFT
 62
5
 10
4513.240
 20
-9376.623
 30
-1092.000
 70
    32
  0
VERTEX
  8
E65LXLIFT
 62
5
 10
4522.069
 20
-9357.534
 30
-1092.000
 70
    32
  0
VERTEX
  8
E65LXLIFT
 62
5
 10
4508.578
 20
-9337.345
 30
-1092.000
 70
    32
  0
VERTEX
  8
E65LXLIFT
 62
5
 10
4504.747
 20
-9320.154
 30
-1092.000
 70
    32
  0
VERTEX
  8
E65LXLIFT
 62
5
 10
4506.908
 20
-9306.745
 30
-1092.000
 70
    32
  0
VERTEX
  8
E65LXLIFT
 62
5
 10
4502.608
 20
-9299.728
 30
-1092.000
 70
    32
  0
VERTEX
  8
E65LXLIFT
 62
5
 10
4521.847
 20
-9289.386
 30
-1092.000
 70
    32
  0
VERTEX
  8
E65LXLIFT
 62
5
 10
4536.627
 20
-9286.750
 30
-1092.000
 70
    32
  0
VERTEX
  8
E65LXLIFT
 62
5
 10
4546.385
 20
-9290.462
 30
-1092.000
 70
    32
  0
VERTEX
  8
E65LXLIFT
 62
5
 10
4540.291
 20
-9303.998
 30
-1092.000
 70
    32
  0
VERTEX
  8
E65LXLIFT
 62
5
 10
4537.189
 20
-9326.380
 30
-1092.000
 70
    32
  0
VERTEX
  8
E65LXLIFT
 62
5
 10
4539.538
 20
-9347.666
 30
-1092.000
 70
    32
  0
VERTEX
  8
E65LXLIFT
 62
5
 10
4540.735
 20
-9365.341
 30
-1092.000
 70
    32
  0
VERTEX
  8
E65LXLIFT
 62
5
 10
4536.784
 20
-9381.612
 30
-1092.000
 70
    32
  0
VERTEX
  8
E65LXLIFT
 62
5
 10
4523.294
 20
-9393.851
 30
-1092.000
 70
    32
  0
VERTEX
  8
E65LXLIFT
 62
5
 10
4522.589
 20
-9399.319
 30
-1092.000
 70
    32
  0
VERTEX
  8
E65LXLIFT
 62
5
 10
4517.899
 20
-9403.792
 30
-1092.000
 70
    32
  0
VERTEX
  8
E65LXLIFT
 62
5
 10
4520.536
 20
-9413.497
 30
-1092.000
 70
    32
  0
VERTEX
  8
E65LXLIFT
 62
5
 10
4514.897
 20
-9419.144
 30
-1092.000
 70
    32
  0
VERTEX
  8
E65LXLIFT
 62
5
 10
4513.139
 20
-9422.954
 30
-1092.000
 70
    32
  0
SEQEND
  8
E65LXLIFT
  0
POLYLINE
  8
E65LXLIFT
 62
1
 66
     1
 70
     9
  0
VERTEX
  8
E65LXLIFT
 62
1
 10
4517.575
 20
-9663.759
 30
-1137.000
 70
    32
  0
VERTEX
  8
E65LXLIFT
 62
1
 10
4529.748
 20
-9667.814
 30
-1137.000
 70
    32
  0
VERTEX
  8
E65LXLIFT
 62
1
 10
4543.123
 20
-9664.320
 30
-1137.000
 70
    32
  0
VERTEX
  8
E65LXLIFT
 62
1
 10
4557.415
 20
-9663.626
 30
-1137.000
 70
    32
  0
VERTEX
  8
E65LXLIFT
 62
1
 10
4568.021
 20
-9673.656
 30
-1137.000
 70
    32
  0
VERTEX
  8
E65LXLIFT
 62
1
 10
4560.154
 20
-9675.489
 30
-1137.000
 70
    32
  0
VERTEX
  8
E65LXLIFT
 62
1
 10
4547.991
 20
-9683.407
 30
-1137.000
 70
    32
  0
VERTEX
  8
E65LXLIFT
 62
1
 10
4560.775
 20
-9691.344
 30
-1137.000
 70
    32
  0
VERTEX
  8
E65LXLIFT
 62
1
 10
4569.642
 20
-9691.821
 30
-1137.000
 70
    32
  0
VERTEX
  8
E65LXLIFT
 62
1
 10
4578.481
 20
-9688.324
 30
-1137.000
 70
    32
  0
VERTEX
  8
E65LXLIFT
 62
1
 10
4581.324
 20
-9697.305
 30
-1137.000
 70
    32
  0
VERTEX
  8
E65LXLIFT
 62
1
 10
4578.613
 20
-9702.585
 30
-1137.000
 70
    32
  0
VERTEX
  8
E65LXLIFT
 62
1
 10
4575.573
 20
-9710.581
 30
-1137.000
 70
    32
  0
VERTEX
  8
E65LXLIFT
 62
1
 10
4581.122
 20
-9721.087
 30
-1137.000
 70
    32
  0
VERTEX
  8
E65LXLIFT
 62
1
 10
4582.240
 20
-9727.953
 30
-1137.000
 70
    32
  0
VERTEX
  8
E65LXLIFT
 62
1
 10
4585.581
 20
-9740.357
 30
-1137.000
 70
    32
  0
VERTEX
  8
E65LXLIFT
 62
1
 10
4594.084
 20
-9749.404
 30
-1137.000
 70
    32
  0
VERTEX
  8
E65LXLIFT
 62
1
 10
4599.210
 20
-9751.901
 30
-1137.000
 70
    32
  0
VERTEX
  8
E65LXLIFT
 62
1
 10
4613.668
 20
-9747.959
 30
-1137.000
 70
    32
  0
VERTEX
  8
E65LXLIFT
 62
1
 10
4619.935
 20
-9741.763
 30
-1137.000
 70
    32
  0
VERTEX
  8
E65LXLIFT
 62
1
 10
4620.389
 20
-9736.042
 30
-1137.000
 70
    32
  0
VERTEX
  8
E65LXLIFT
 62
1
 10
4607.365
 20
-9722.016
 30
-1137.000
 70
    32
  0
VERTEX
  8
E65LXLIFT
 62
1
 10
4594.722
 20
-9690.665
 30
-1137.000
 70
    32
  0
VERTEX
  8
E65LXLIFT
 62
1
 10
4581.911
 20
-9677.998
 30
-1137.000
 70
    32
  0
VERTEX
  8
E65LXLIFT
 62
1
 10
4570.889
 20
-9677.980
 30
-1137.000
 70
    32
  0
VERTEX
  8
E65LXLIFT
 62
1
 10
4574.413
 20
-9665.213
 30
-1137.000
 70
    32
  0
VERTEX
  8
E65LXLIFT
 62
1
 10
4595.497
 20
-9653.308
 30
-1137.000
 70
    32
  0
VERTEX
  8
E65LXLIFT
 62
1
 10
4602.888
 20
-9658.830
 30
-1137.000
 70
    32
  0
VERTEX
  8
E65LXLIFT
 62
1
 10
4617.634
 20
-9679.507
 30
-1137.000
 70
    32
  0
VERTEX
  8
E65LXLIFT
 62
1
 10
4626.411
 20
-9689.546
 30
-1137.000
 70
    32
  0
VERTEX
  8
E65LXLIFT
 62
1
 10
4629.430
 20
-9695.596
 30
-1137.000
 70
    32
  0
VERTEX
  8
E65LXLIFT
 62
1
 10
4631.553
 20
-9711.135
 30
-1137.000
 70
    32
  0
VERTEX
  8
E65LXLIFT
 62
1
 10
4635.547
 20
-9711.741
 30
-1137.000
 70
    32
  0
VERTEX
  8
E65LXLIFT
 62
1
 10
4649.242
 20
-9730.794
 30
-1137.000
 70
    32
  0
VERTEX
  8
E65LXLIFT
 62
1
 10
4649.906
 20
-9757.303
 30
-1137.000
 70
    32
  0
VERTEX
  8
E65LXLIFT
 62
1
 10
4640.651
 20
-9769.299
 30
-1137.000
 70
    32
  0
VERTEX
  8
E65LXLIFT
 62
1
 10
4626.352
 20
-9766.653
 30
-1137.000
 70
    32
  0
VERTEX
  8
E65LXLIFT
 62
1
 10
4613.790
 20
-9775.071
 30
-1137.000
 70
    32
  0
VERTEX
  8
E65LXLIFT
 62
1
 10
4614.686
 20
-9778.749
 30
-1137.000
 70
    32
  0
VERTEX
  8
E65LXLIFT
 62
1
 10
4607.649
 20
-9777.508
 30
-1137.000
 70
    32
  0
VERTEX
  8
E65LXLIFT
 62
1
 10
4600.284
 20
-9776.715
 30
-1137.000
 70
    32
  0
VERTEX
  8
E65LXLIFT
 62
1
 10
4587.541
 20
-9768.533
 30
-1137.000
 70
    32
  0
VERTEX
  8
E65LXLIFT
 62
1
 10
4582.617
 20
-9769.346
 30
-1137.000
 70
    32
  0
VERTEX
  8
E65LXLIFT
 62
1
 10
4569.708
 20
-9751.245
 30
-1137.000
 70
    32
  0
VERTEX
  8
E65LXLIFT
 62
1
 10
4564.612
 20
-9735.774
 30
-1137.000
 70
    32
  0
VERTEX
  8
E65LXLIFT
 62
1
 10
4559.785
 20
-9717.199
 30
-1137.000
 70
    32
  0
VERTEX
  8
E65LXLIFT
 62
1
 10
4552.083
 20
-9702.615
 30
-1137.000
 70
    32
  0
VERTEX
  8
E65LXLIFT
 62
1
 10
4510.648
 20
-9676.901
 30
-1137.000
 70
    32
  0
SEQEND
  8
E65LXLIFT
  0
POLYLINE
  8
E65LXLIFT
 62
7
 66
     1
 70
     9
  0
VERTEX
  8
E65LXLIFT
 62
7
 10
4509.648
 20
-9677.901
 30
-1152.000
 70
    32
  0
VERTEX
  8
E65LXLIFT
 62
7
 10
4551.083
 20
-9703.615
 30
-1152.000
 70
    32
  0
VERTEX
  8
E65LXLIFT
 62
7
 10
4558.785
 20
-9718.199
 30
-1152.000
 70
    32
  0
VERTEX
  8
E65LXLIFT
 62
7
 10
4563.612
 20
-9736.774
 30
-1152.000
 70
    32
  0
VERTEX
  8
E65LXLIFT
 62
7
 10
4568.708
 20
-9752.245
 30
-1152.000
 70
    32
  0
VERTEX
  8
E65LXLIFT
 62
7
 10
4581.617
 20
-9770.346
 30
-1152.000
 70
    32
  0
VERTEX
  8
E65LXLIFT
 62
7
 10
4586.541
 20
-9769.533
 30
-1152.000
 70
    32
  0
VERTEX
  8
E65LXLIFT
 62
7
 10
4599.284
 20
-9777.715
 30
-1152.000
 70
    32
  0
VERTEX
  8
E65LXLIFT
 62
7
 10
4606.649
 20
-9778.508
 30
-1152.000
 70
    32
  0
VERTEX
  8
E65LXLIFT
 62
7
 10
4613.686
 20
-9779.749
 30
-1152.000
 70
    32
  0
VERTEX
  8
E65LXLIFT
 62
7
 10
4612.790
 20
-9776.071
 30
-1152.000
 70
    32
  0
VERTEX
  8
E65LXLIFT
 62
7
 10
4625.352
 20
-9767.653
 30
-1152.000
 70
    32
  0
VERTEX
  8
E65LXLIFT
 62
7
 10
4639.651
 20
-9770.299
 30
-1152.000
 70
    32
  0
VERTEX
  8
E65LXLIFT
 62
7
 10
4648.906
 20
-9758.303
 30
-1152.000
 70
    32
  0
VERTEX
  8
E65LXLIFT
 62
7
 10
4648.242
 20
-9731.794
 30
-1152.000
 70
    32
  0
VERTEX
  8
E65LXLIFT
 62
7
 10
4634.547
 20
-9712.741
 30
-1152.000
 70
    32
  0
VERTEX
  8
E65LXLIFT
 62
7
 10
4630.553
 20
-9712.135
 30
-1152.000
 70
    32
  0
VERTEX
  8
E65LXLIFT
 62
7
 10
4628.430
 20
-9696.596
 30
-1152.000
 70
    32
  0
VERTEX
  8
E65LXLIFT
 62
7
 10
4625.411
 20
-9690.546
 30
-1152.000
 70
    32
  0
VERTEX
  8
E65LXLIFT
 62
7
 10
4616.634
 20
-9680.507
 30
-1152.000
 70
    32
  0
VERTEX
  8
E65LXLIFT
 62
7
 10
4601.888
 20
-9659.830
 30
-1152.000
 70
    32
  0
VERTEX
  8
E65LXLIFT
 62
7
 10
4594.497
 20
-9654.308
 30
-1152.000
 70
    32
  0
VERTEX
  8
E65LXLIFT
 62
7
 10
4573.413
 20
-9666.213
 30
-1152.000
 70
    32
  0
VERTEX
  8
E65LXLIFT
 62
7
 10
4569.889
 20
-9678.980
 30
-1152.000
 70
    32
  0
VERTEX
  8
E65LXLIFT
 62
7
 10
4580.911
 20
-9678.998
 30
-1152.000
 70
    32
  0
VERTEX
  8
E65LXLIFT
 62
7
 10
4593.722
 20
-9691.665
 30
-1152.000
 70
    32
  0
VERTEX
  8
E65LXLIFT
 62
7
 10
4606.365
 20
-9723.016
 30
-1152.000
 70
    32
  0
VERTEX
  8
E65LXLIFT
 62
7
 10
4619.389
 20
-9737.042
 30
-1152.000
 70
    32
  0
VERTEX
  8
E65LXLIFT
 62
7
 10
4618.935
 20
-9742.763
 30
-1152.000
 70
    32
  0
VERTEX
  8
E65LXLIFT
 62
7
 10
4612.668
 20
-9748.959
 30
-1152.000
 70
    32
  0
VERTEX
  8
E65LXLIFT
 62
7
 10
4598.210
 20
-9752.901
 30
-1152.000
 70
    32
  0
VERTEX
  8
E65LXLIFT
 62
7
 10
4593.084
 20
-9750.404
 30
-1152.000
 70
    32
  0
VERTEX
  8
E65LXLIFT
 62
7
 10
4584.581
 20
-9741.357
 30
-1152.000
 70
    32
  0
VERTEX
  8
E65LXLIFT
 62
7
 10
4581.240
 20
-9728.953
 30
-1152.000
 70
    32
  0
VERTEX
  8
E65LXLIFT
 62
7
 10
4580.122
 20
-9722.087
 30
-1152.000
 70
    32
  0
VERTEX
  8
E65LXLIFT
 62
7
 10
4574.573
 20
-9711.581
 30
-1152.000
 70
    32
  0
VERTEX
  8
E65LXLIFT
 62
7
 10
4577.613
 20
-9703.585
 30
-1152.000
 70
    32
  0
VERTEX
  8
E65LXLIFT
 62
7
 10
4580.324
 20
-9698.305
 30
-1152.000
 70
    32
  0
VERTEX
  8
E65LXLIFT
 62
7
 10
4577.481
 20
-9689.324
 30
-1152.000
 70
    32
  0
VERTEX
  8
E65LXLIFT
 62
7
 10
4568.642
 20
-9692.821
 30
-1152.000
 70
    32
  0
VERTEX
  8
E65LXLIFT
 62
7
 10
4559.775
 20
-9692.344
 30
-1152.000
 70
    32
  0
VERTEX
  8
E65LXLIFT
 62
7
 10
4546.991
 20
-9684.407
 30
-1152.000
 70
    32
  0
VERTEX
  8
E65LXLIFT
 62
7
 10
4559.154
 20
-9676.489
 30
-1152.000
 70
    32
  0
VERTEX
  8
E65LXLIFT
 62
7
 10
4567.021
 20
-9674.656
 30
-1152.000
 70
    32
  0
VERTEX
  8
E65LXLIFT
 62
7
 10
4556.415
 20
-9664.626
 30
-1152.000
 70
    32
  0
VERTEX
  8
E65LXLIFT
 62
7
 10
4542.123
 20
-9665.320
 30
-1152.000
 70
    32
  0
VERTEX
  8
E65LXLIFT
 62
7
 10
4528.748
 20
-9668.814
 30
-1152.000
 70
    32
  0
VERTEX
  8
E65LXLIFT
 62
7
 10
4516.575
 20
-9664.759
 30
-1152.000
 70
    32
  0
SEQEND
  8
E65LXLIFT
  0
POLYLINE
  8
E65LXLIFT
 62
7
 66
     1
 70
     9
  0
VERTEX
  8
E65LXLIFT
 62
7
 10
4690.846
 20
-9751.277
 30
-1173.000
 70
    32
  0
VERTEX
  8
E65LXLIFT
 62
7
 10
4676.106
 20
-9749.376
 30
-1173.000
 70
    32
  0
VERTEX
  8
E65LXLIFT
 62
7
 10
4659.748
 20
-9740.966
 30
-1173.000
 70
    32
  0
VERTEX
  8
E65LXLIFT
 62
7
 10
4651.603
 20
-9730.907
 30
-1173.000
 70
    32
  0
VERTEX
  8
E65LXLIFT
 62
7
 10
4648.626
 20
-9723.100
 30
-1173.000
 70
    32
  0
VERTEX
  8
E65LXLIFT
 62
7
 10
4644.535
 20
-9716.304
 30
-1173.000
 70
    32
  0
VERTEX
  8
E65LXLIFT
 62
7
 10
4639.287
 20
-9713.031
 30
-1173.000
 70
    32
  0
VERTEX
  8
E65LXLIFT
 62
7
 10
4636.135
 20
-9706.644
 30
-1173.000
 70
    32
  0
VERTEX
  8
E65LXLIFT
 62
7
 10
4617.201
 20
-9686.903
 30
-1173.000
 70
    32
  0
VERTEX
  8
E65LXLIFT
 62
7
 10
4607.782
 20
-9687.467
 30
-1173.000
 70
    32
  0
VERTEX
  8
E65LXLIFT
 62
7
 10
4604.620
 20
-9707.099
 30
-1173.000
 70
    32
  0
VERTEX
  8
E65LXLIFT
 62
7
 10
4599.783
 20
-9713.787
 30
-1173.000
 70
    32
  0
VERTEX
  8
E65LXLIFT
 62
7
 10
4587.328
 20
-9716.300
 30
-1173.000
 70
    32
  0
VERTEX
  8
E65LXLIFT
 62
7
 10
4588.139
 20
-9697.913
 30
-1173.000
 70
    32
  0
VERTEX
  8
E65LXLIFT
 62
7
 10
4589.640
 20
-9685.941
 30
-1173.000
 70
    32
  0
VERTEX
  8
E65LXLIFT
 62
7
 10
4577.333
 20
-9682.305
 30
-1173.000
 70
    32
  0
VERTEX
  8
E65LXLIFT
 62
7
 10
4570.466
 20
-9685.692
 30
-1173.000
 70
    32
  0
VERTEX
  8
E65LXLIFT
 62
7
 10
4562.292
 20
-9700.263
 30
-1173.000
 70
    32
  0
VERTEX
  8
E65LXLIFT
 62
7
 10
4557.422
 20
-9710.536
 30
-1173.000
 70
    32
  0
VERTEX
  8
E65LXLIFT
 62
7
 10
4568.923
 20
-9725.000
 30
-1173.000
 70
    32
  0
VERTEX
  8
E65LXLIFT
 62
7
 10
4578.618
 20
-9751.006
 30
-1173.000
 70
    32
  0
VERTEX
  8
E65LXLIFT
 62
7
 10
4580.279
 20
-9756.513
 30
-1173.000
 70
    32
  0
VERTEX
  8
E65LXLIFT
 62
7
 10
4588.250
 20
-9766.480
 30
-1173.000
 70
    32
  0
VERTEX
  8
E65LXLIFT
 62
7
 10
4594.356
 20
-9769.897
 30
-1173.000
 70
    32
  0
VERTEX
  8
E65LXLIFT
 62
7
 10
4601.895
 20
-9782.437
 30
-1173.000
 70
    32
  0
VERTEX
  8
E65LXLIFT
 62
7
 10
4612.415
 20
-9785.837
 30
-1173.000
 70
    32
  0
VERTEX
  8
E65LXLIFT
 62
7
 10
4624.857
 20
-9786.786
 30
-1173.000
 70
    32
  0
VERTEX
  8
E65LXLIFT
 62
7
 10
4641.482
 20
-9781.191
 30
-1173.000
 70
    32
  0
VERTEX
  8
E65LXLIFT
 62
7
 10
4681.382
 20
-9770.546
 30
-1173.000
 70
    32
  0
SEQEND
  8
E65LXLIFT
  0
POLYLINE
  8
E65LXLIFT
 62
7
 66
     1
 70
     9
  0
VERTEX
  8
E65LXLIFT
 62
7
 10
4585.920
 20
-9727.342
 30
-1173.000
 70
    32
  0
VERTEX
  8
E65LXLIFT
 62
7
 10
4592.212
 20
-9741.312
 30
-1173.000
 70
    32
  0
VERTEX
  8
E65LXLIFT
 62
7
 10
4610.624
 20
-9749.876
 30
-1173.000
 70
    32
  0
VERTEX
  8
E65LXLIFT
 62
7
 10
4617.581
 20
-9750.096
 30
-1173.000
 70
    32
  0
VERTEX
  8
E65LXLIFT
 62
7
 10
4619.069
 20
-9741.588
 30
-1173.000
 70
    32
  0
VERTEX
  8
E65LXLIFT
 62
7
 10
4619.841
 20
-9734.346
 30
-1173.000
 70
    32
  0
VERTEX
  8
E65LXLIFT
 62
7
 10
4613.140
 20
-9732.972
 30
-1173.000
 70
    32
  0
VERTEX
  8
E65LXLIFT
 62
7
 10
4604.132
 20
-9731.085
 30
-1173.000
 70
    32
  0
SEQEND
  8
E65LXLIFT
  0
POLYLINE
  8
E65LXLIFT
 62
7
 66
     1
 70
     9
  0
VERTEX
  8
E65LXLIFT
 62
7
 10
4689.397
 20
-9773.504
 30
-1189.000
 70
    32
  0
VERTEX
  8
E65LXLIFT
 62
7
 10
4682.145
 20
-9772.036
 30
-1189.000
 70
    32
  0
VERTEX
  8
E65LXLIFT
 62
7
 10
4672.339
 20
-9778.715
 30
-1189.000
 70
    32
  0
VERTEX
  8
E65LXLIFT
 62
7
 10
4667.279
 20
-9780.867
 30
-1189.000
 70
    32
  0
VERTEX
  8
E65LXLIFT
 62
7
 10
4660.187
 20
-9776.027
 30
-1189.000
 70
    32
  0
VERTEX
  8
E65LXLIFT
 62
7
 10
4652.368
 20
-9773.776
 30
-1189.000
 70
    32
  0
VERTEX
  8
E65LXLIFT
 62
7
 10
4635.747
 20
-9781.384
 30
-1189.000
 70
    32
  0
VERTEX
  8
E65LXLIFT
 62
7
 10
4624.580
 20
-9786.337
 30
-1189.000
 70
    32
  0
VERTEX
  8
E65LXLIFT
 62
7
 10
4615.637
 20
-9789.569
 30
-1189.000
 70
    32
  0
VERTEX
  8
E65LXLIFT
 62
7
 10
4607.689
 20
-9786.543
 30
-1189.000
 70
    32
  0
VERTEX
  8
E65LXLIFT
 62
7
 10
4603.291
 20
-9786.912
 30
-1189.000
 70
    32
  0
VERTEX
  8
E65LXLIFT
 62
7
 10
4597.939
 20
-9789.709
 30
-1189.000
 70
    32
  0
VERTEX
  8
E65LXLIFT
 62
7
 10
4589.146
 20
-9786.862
 30
-1189.000
 70
    32
  0
VERTEX
  8
E65LXLIFT
 62
7
 10
4583.989
 20
-9778.557
 30
-1189.000
 70
    32
  0
VERTEX
  8
E65LXLIFT
 62
7
 10
4583.565
 20
-9770.941
 30
-1189.000
 70
    32
  0
VERTEX
  8
E65LXLIFT
 62
7
 10
4586.393
 20
-9761.075
 30
-1189.000
 70
    32
  0
VERTEX
  8
E65LXLIFT
 62
7
 10
4563.097
 20
-9723.276
 30
-1189.000
 70
    32
  0
VERTEX
  8
E65LXLIFT
 62
7
 10
4554.723
 20
-9709.489
 30
-1189.000
 70
    32
  0
VERTEX
  8
E65LXLIFT
 62
7
 10
4560.732
 20
-9702.960
 30
-1189.000
 70
    32
  0
VERTEX
  8
E65LXLIFT
 62
7
 10
4561.619
 20
-9695.804
 30
-1189.000
 70
    32
  0
VERTEX
  8
E65LXLIFT
 62
7
 10
4562.845
 20
-9686.124
 30
-1189.000
 70
    32
  0
VERTEX
  8
E65LXLIFT
 62
7
 10
4573.167
 20
-9685.691
 30
-1189.000
 70
    32
  0
VERTEX
  8
E65LXLIFT
 62
7
 10
4582.881
 20
-9680.380
 30
-1189.000
 70
    32
  0
VERTEX
  8
E65LXLIFT
 62
7
 10
4591.878
 20
-9674.830
 30
-1189.000
 70
    32
  0
VERTEX
  8
E65LXLIFT
 62
7
 10
4602.064
 20
-9679.596
 30
-1189.000
 70
    32
  0
VERTEX
  8
E65LXLIFT
 62
7
 10
4602.254
 20
-9683.149
 30
-1189.000
 70
    32
  0
VERTEX
  8
E65LXLIFT
 62
7
 10
4593.565
 20
-9690.321
 30
-1189.000
 70
    32
  0
VERTEX
  8
E65LXLIFT
 62
7
 10
4592.274
 20
-9716.219
 30
-1189.000
 70
    32
  0
VERTEX
  8
E65LXLIFT
 62
7
 10
4594.823
 20
-9722.726
 30
-1189.000
 70
    32
  0
VERTEX
  8
E65LXLIFT
 62
7
 10
4604.150
 20
-9723.015
 30
-1189.000
 70
    32
  0
VERTEX
  8
E65LXLIFT
 62
7
 10
4626.168
 20
-9717.462
 30
-1189.000
 70
    32
  0
VERTEX
  8
E65LXLIFT
 62
7
 10
4642.984
 20
-9719.697
 30
-1189.000
 70
    32
  0
VERTEX
  8
E65LXLIFT
 62
7
 10
4677.130
 20
-9748.216
 30
-1189.000
 70
    32
  0
VERTEX
  8
E65LXLIFT
 62
7
 10
4680.798
 20
-9754.021
 30
-1189.000
 70
    32
  0
VERTEX
  8
E65LXLIFT
 62
7
 10
4687.786
 20
-9754.378
 30
-1189.000
 70
    32
  0
SEQEND
  8
E65LXLIFT
  0
POLYLINE
  8
E65LXLIFT
 62
7
 66
     1
 70
     9
  0
VERTEX
  8
E65LXLIFT
 62
7
 10
4654.103
 20
-9757.815
 30
-1201.000
 70
    32
  0
VERTEX
  8
E65LXLIFT
 62
7
 10
4654.768
 20
-9766.231
 30
-1201.000
 70
    32
  0
VERTEX
  8
E65LXLIFT
 62
7
 10
4670.653
 20
-9787.286
 30
-1201.000
 70
    32
  0
VERTEX
  8
E65LXLIFT
 62
7
 10
4681.859
 20
-9795.126
 30
-1201.000
 70
    32
  0
VERTEX
  8
E65LXLIFT
 62
7
 10
4689.198
 20
-9807.068
 30
-1201.000
 70
    32
  0
VERTEX
  8
E65LXLIFT
 62
7
 10
4698.754
 20
-9802.431
 30
-1201.000
 70
    32
  0
VERTEX
  8
E65LXLIFT
 62
7
 10
4696.950
 20
-9808.185
 30
-1201.000
 70
    32
  0
VERTEX
  8
E65LXLIFT
 62
7
 10
4677.079
 20
-9828.855
 30
-1201.000
 70
    32
  0
VERTEX
  8
E65LXLIFT
 62
7
 10
4685.096
 20
-9838.136
 30
-1201.000
 70
    32
  0
VERTEX
  8
E65LXLIFT
 62
7
 10
4705.074
 20
-9818.364
 30
-1201.000
 70
    32
  0
VERTEX
  8
E65LXLIFT
 62
7
 10
4720.470
 20
-9822.848
 30
-1201.000
 70
    32
  0
VERTEX
  8
E65LXLIFT
 62
7
 10
4733.637
 20
-9827.100
 30
-1201.000
 70
    32
  0
VERTEX
  8
E65LXLIFT
 62
7
 10
4740.236
 20
-9831.872
 30
-1201.000
 70
    32
  0
VERTEX
  8
E65LXLIFT
 62
7
 10
4751.491
 20
-9846.078
 30
-1201.000
 70
    32
  0
VERTEX
  8
E65LXLIFT
 62
7
 10
4761.287
 20
-9852.119
 30
-1201.000
 70
    32
  0
VERTEX
  8
E65LXLIFT
 62
7
 10
4771.227
 20
-9851.762
 30
-1201.000
 70
    32
  0
VERTEX
  8
E65LXLIFT
 62
7
 10
4780.945
 20
-9841.801
 30
-1201.000
 70
    32
  0
VERTEX
  8
E65LXLIFT
 62
7
 10
4775.612
 20
-9836.980
 30
-1201.000
 70
    32
  0
VERTEX
  8
E65LXLIFT
 62
7
 10
4766.414
 20
-9835.064
 30
-1201.000
 70
    32
  0
VERTEX
  8
E65LXLIFT
 62
7
 10
4757.582
 20
-9826.156
 30
-1201.000
 70
    32
  0
VERTEX
  8
E65LXLIFT
 62
7
 10
4743.907
 20
-9815.654
 30
-1201.000
 70
    32
  0
VERTEX
  8
E65LXLIFT
 62
7
 10
4744.694
 20
-9805.645
 30
-1201.000
 70
    32
  0
VERTEX
  8
E65LXLIFT
 62
7
 10
4744.158
 20
-9794.858
 30
-1201.000
 70
    32
  0
VERTEX
  8
E65LXLIFT
 62
7
 10
4750.842
 20
-9786.551
 30
-1201.000
 70
    32
  0
VERTEX
  8
E65LXLIFT
 62
7
 10
4747.052
 20
-9776.815
 30
-1201.000
 70
    32
  0
VERTEX
  8
E65LXLIFT
 62
7
 10
4737.873
 20
-9746.135
 30
-1201.000
 70
    32
  0
VERTEX
  8
E65LXLIFT
 62
7
 10
4727.620
 20
-9737.062
 30
-1201.000
 70
    32
  0
VERTEX
  8
E65LXLIFT
 62
7
 10
4718.125
 20
-9740.135
 30
-1201.000
 70
    32
  0
VERTEX
  8
E65LXLIFT
 62
7
 10
4717.808
 20
-9748.393
 30
-1201.000
 70
    32
  0
VERTEX
  8
E65LXLIFT
 62
7
 10
4703.075
 20
-9750.374
 30
-1201.000
 70
    32
  0
VERTEX
  8
E65LXLIFT
 62
7
 10
4694.452
 20
-9740.555
 30
-1201.000
 70
    32
  0
VERTEX
  8
E65LXLIFT
 62
7
 10
4685.241
 20
-9746.569
 30
-1201.000
 70
    32
  0
VERTEX
  8
E65LXLIFT
 62
7
 10
4703.268
 20
-9771.933
 30
-1201.000
 70
    32
  0
VERTEX
  8
E65LXLIFT
 62
7
 10
4703.289
 20
-9773.762
 30
-1201.000
 70
    32
  0
VERTEX
  8
E65LXLIFT
 62
7
 10
4700.638
 20
-9774.596
 30
-1201.000
 70
    32
  0
VERTEX
  8
E65LXLIFT
 62
7
 10
4689.689
 20
-9767.111
 30
-1201.000
 70
    32
  0
VERTEX
  8
E65LXLIFT
 62
7
 10
4680.276
 20
-9763.398
 30
-1201.000
 70
    32
  0
VERTEX
  8
E65LXLIFT
 62
7
 10
4665.833
 20
-9752.584
 30
-1201.000
 70
    32
  0
VERTEX
  8
E65LXLIFT
 62
7
 10
4661.852
 20
-9749.931
 30
-1201.000
 70
    32
  0
SEQEND
  8
E65LXLIFT
  0
POLYLINE
  8
E65LXLIFT
 62
7
 66
     1
 70
     9
  0
VERTEX
  8
E65LXLIFT
 62
7
 10
4658.170
 20
-9709.305
 30
-1186.000
 70
    32
  0
VERTEX
  8
E65LXLIFT
 62
7
 10
4665.774
 20
-9726.262
 30
-1186.000
 70
    32
  0
VERTEX
  8
E65LXLIFT
 62
7
 10
4675.591
 20
-9734.131
 30
-1186.000
 70
    32
  0
VERTEX
  8
E65LXLIFT
 62
7
 10
4685.046
 20
-9744.649
 30
-1186.000
 70
    32
  0
VERTEX
  8
E65LXLIFT
 62
7
 10
4691.991
 20
-9755.898
 30
-1186.000
 70
    32
  0
VERTEX
  8
E65LXLIFT
 62
7
 10
4689.802
 20
-9773.865
 30
-1186.000
 70
    32
  0
VERTEX
  8
E65LXLIFT
 62
7
 10
4692.972
 20
-9790.992
 30
-1186.000
 70
    32
  0
VERTEX
  8
E65LXLIFT
 62
7
 10
4693.051
 20
-9803.846
 30
-1186.000
 70
    32
  0
VERTEX
  8
E65LXLIFT
 62
7
 10
4686.027
 20
-9821.730
 30
-1186.000
 70
    32
  0
VERTEX
  8
E65LXLIFT
 62
7
 10
4680.698
 20
-9834.157
 30
-1186.000
 70
    32
  0
VERTEX
  8
E65LXLIFT
 62
7
 10
4683.428
 20
-9841.079
 30
-1186.000
 70
    32
  0
VERTEX
  8
E65LXLIFT
 62
7
 10
4687.458
 20
-9841.851
 30
-1186.000
 70
    32
  0
VERTEX
  8
E65LXLIFT
 62
7
 10
4690.373
 20
-9838.982
 30
-1186.000
 70
    32
  0
VERTEX
  8
E65LXLIFT
 62
7
 10
4693.682
 20
-9833.659
 30
-1186.000
 70
    32
  0
VERTEX
  8
E65LXLIFT
 62
7
 10
4702.292
 20
-9832.962
 30
-1186.000
 70
    32
  0
VERTEX
  8
E65LXLIFT
 62
7
 10
4717.961
 20
-9828.677
 30
-1186.000
 70
    32
  0
VERTEX
  8
E65LXLIFT
 62
7
 10
4725.334
 20
-9826.272
 30
-1186.000
 70
    32
  0
VERTEX
  8
E65LXLIFT
 62
7
 10
4739.374
 20
-9814.486
 30
-1186.000
 70
    32
  0
VERTEX
  8
E65LXLIFT
 62
7
 10
4742.700
 20
-9801.989
 30
-1186.000
 70
    32
  0
VERTEX
  8
E65LXLIFT
 62
7
 10
4744.263
 20
-9778.508
 30
-1186.000
 70
    32
  0
VERTEX
  8
E65LXLIFT
 62
7
 10
4742.768
 20
-9766.245
 30
-1186.000
 70
    32
  0
VERTEX
  8
E65LXLIFT
 62
7
 10
4735.326
 20
-9754.162
 30
-1186.000
 70
    32
  0
VERTEX
  8
E65LXLIFT
 62
7
 10
4723.273
 20
-9741.401
 30
-1186.000
 70
    32
  0
VERTEX
  8
E65LXLIFT
 62
7
 10
4714.478
 20
-9738.543
 30
-1186.000
 70
    32
  0
VERTEX
  8
E65LXLIFT
 62
7
 10
4702.496
 20
-9735.929
 30
-1186.000
 70
    32
  0
VERTEX
  8
E65LXLIFT
 62
7
 10
4691.677
 20
-9731.172
 30
-1186.000
 70
    32
  0
VERTEX
  8
E65LXLIFT
 62
7
 10
4680.755
 20
-9723.125
 30
-1186.000
 70
    32
  0
VERTEX
  8
E65LXLIFT
 62
7
 10
4676.546
 20
-9713.259
 30
-1186.000
 70
    32
  0
VERTEX
  8
E65LXLIFT
 62
7
 10
4681.811
 20
-9703.591
 30
-1186.000
 70
    32
  0
SEQEND
  8
E65LXLIFT
  0
POLYLINE
  8
E65LXLIFT
 62
7
 66
     1
 70
     9
  0
VERTEX
  8
E65LXLIFT
 62
7
 10
4689.537
 20
-9773.948
 30
-1168.000
 70
    32
  0
VERTEX
  8
E65LXLIFT
 62
7
 10
4693.388
 20
-9787.219
 30
-1168.000
 70
    32
  0
VERTEX
  8
E65LXLIFT
 62
7
 10
4691.032
 20
-9804.655
 30
-1168.000
 70
    32
  0
VERTEX
  8
E65LXLIFT
 62
7
 10
4680.774
 20
-9834.862
 30
-1168.000
 70
    32
  0
VERTEX
  8
E65LXLIFT
 62
7
 10
4681.339
 20
-9838.792
 30
-1168.000
 70
    32
  0
VERTEX
  8
E65LXLIFT
 62
7
 10
4688.807
 20
-9840.116
 30
-1168.000
 70
    32
  0
VERTEX
  8
E65LXLIFT
 62
7
 10
4693.693
 20
-9832.024
 30
-1168.000
 70
    32
  0
VERTEX
  8
E65LXLIFT
 62
7
 10
4704.192
 20
-9832.889
 30
-1168.000
 70
    32
  0
VERTEX
  8
E65LXLIFT
 62
7
 10
4711.971
 20
-9828.346
 30
-1168.000
 70
    32
  0
VERTEX
  8
E65LXLIFT
 62
7
 10
4723.925
 20
-9826.423
 30
-1168.000
 70
    32
  0
VERTEX
  8
E65LXLIFT
 62
7
 10
4733.507
 20
-9819.273
 30
-1168.000
 70
    32
  0
VERTEX
  8
E65LXLIFT
 62
7
 10
4740.401
 20
-9812.007
 30
-1168.000
 70
    32
  0
VERTEX
  8
E65LXLIFT
 62
7
 10
4741.497
 20
-9807.525
 30
-1168.000
 70
    32
  0
VERTEX
  8
E65LXLIFT
 62
7
 10
4744.869
 20
-9805.736
 30
-1168.000
 70
    32
  0
VERTEX
  8
E65LXLIFT
 62
7
 10
4744.701
 20
-9795.008
 30
-1168.000
 70
    32
  0
VERTEX
  8
E65LXLIFT
 62
7
 10
4744.127
 20
-9786.418
 30
-1168.000
 70
    32
  0
VERTEX
  8
E65LXLIFT
 62
7
 10
4743.253
 20
-9773.814
 30
-1168.000
 70
    32
  0
VERTEX
  8
E65LXLIFT
 62
7
 10
4745.367
 20
-9768.488
 30
-1168.000
 70
    32
  0
VERTEX
  8
E65LXLIFT
 62
7
 10
4733.506
 20
-9750.596
 30
-1168.000
 70
    32
  0
VERTEX
  8
E65LXLIFT
 62
7
 10
4725.464
 20
-9743.830
 30
-1168.000
 70
    32
  0
VERTEX
  8
E65LXLIFT
 62
7
 10
4713.082
 20
-9740.963
 30
-1168.000
 70
    32
  0
VERTEX
  8
E65LXLIFT
 62
7
 10
4702.479
 20
-9734.856
 30
-1168.000
 70
    32
  0
VERTEX
  8
E65LXLIFT
 62
7
 10
4684.525
 20
-9724.737
 30
-1168.000
 70
    32
  0
VERTEX
  8
E65LXLIFT
 62
7
 10
4682.310
 20
-9740.119
 30
-1168.000
 70
    32
  0
VERTEX
  8
E65LXLIFT
 62
7
 10
4689.673
 20
-9752.693
 30
-1168.000
 70
    32
  0
SEQEND
  8
E65LXLIFT
  0
POLYLINE
  8
E65LXLIFT
 62
7
 66
     1
 70
     9
  0
VERTEX
  8
E65LXLIFT
 62
7
 10
4598.826
 20
-9706.459
 30
-1205.000
 70
    32
  0
VERTEX
  8
E65LXLIFT
 62
7
 10
4601.539
 20
-9735.851
 30
-1205.000
 70
    32
  0
VERTEX
  8
E65LXLIFT
 62
7
 10
4609.507
 20
-9738.765
 30
-1205.000
 70
    32
  0
VERTEX
  8
E65LXLIFT
 62
7
 10
4615.411
 20
-9745.126
 30
-1205.000
 70
    32
  0
VERTEX
  8
E65LXLIFT
 62
7
 10
4623.628
 20
-9743.737
 30
-1205.000
 70
    32
  0
VERTEX
  8
E65LXLIFT
 62
7
 10
4637.394
 20
-9748.966
 30
-1205.000
 70
    32
  0
VERTEX
  8
E65LXLIFT
 62
7
 10
4647.093
 20
-9762.671
 30
-1205.000
 70
    32
  0
VERTEX
  8
E65LXLIFT
 62
7
 10
4662.853
 20
-9776.656
 30
-1205.000
 70
    32
  0
VERTEX
  8
E65LXLIFT
 62
7
 10
4672.246
 20
-9788.737
 30
-1205.000
 70
    32
  0
VERTEX
  8
E65LXLIFT
 62
7
 10
4682.329
 20
-9793.376
 30
-1205.000
 70
    32
  0
VERTEX
  8
E65LXLIFT
 62
7
 10
4690.566
 20
-9805.210
 30
-1205.000
 70
    32
  0
VERTEX
  8
E65LXLIFT
 62
7
 10
4699.537
 20
-9801.865
 30
-1205.000
 70
    32
  0
VERTEX
  8
E65LXLIFT
 62
7
 10
4704.247
 20
-9773.286
 30
-1205.000
 70
    32
  0
VERTEX
  8
E65LXLIFT
 62
7
 10
4700.665
 20
-9774.033
 30
-1205.000
 70
    32
  0
VERTEX
  8
E65LXLIFT
 62
7
 10
4679.768
 20
-9762.247
 30
-1205.000
 70
    32
  0
VERTEX
  8
E65LXLIFT
 62
7
 10
4681.448
 20
-9754.522
 30
-1205.000
 70
    32
  0
VERTEX
  8
E65LXLIFT
 62
7
 10
4681.409
 20
-9746.521
 30
-1205.000
 70
    32
  0
VERTEX
  8
E65LXLIFT
 62
7
 10
4674.672
 20
-9734.361
 30
-1205.000
 70
    32
  0
VERTEX
  8
E65LXLIFT
 62
7
 10
4663.500
 20
-9728.667
 30
-1205.000
 70
    32
  0
VERTEX
  8
E65LXLIFT
 62
7
 10
4649.605
 20
-9720.710
 30
-1205.000
 70
    32
  0
VERTEX
  8
E65LXLIFT
 62
7
 10
4643.177
 20
-9717.224
 30
-1205.000
 70
    32
  0
VERTEX
  8
E65LXLIFT
 62
7
 10
4638.100
 20
-9710.807
 30
-1205.000
 70
    32
  0
VERTEX
  8
E65LXLIFT
 62
7
 10
4624.137
 20
-9709.952
 30
-1205.000
 70
    32
  0
VERTEX
  8
E65LXLIFT
 62
7
 10
4613.004
 20
-9704.012
 30
-1205.000
 70
    32
  0
VERTEX
  8
E65LXLIFT
 62
7
 10
4605.869
 20
-9698.650
 30
-1205.000
 70
    32
  0
SEQEND
  8
E65LXLIFT
  0
POLYLINE
  8
E65LXLIFT
 62
7
 66
     1
 70
     9
  0
VERTEX
  8
E65LXLIFT
 62
7
 10
4687.879
 20
-9838.834
 30
-1196.000
 70
    32
  0
VERTEX
  8
E65LXLIFT
 62
7
 10
4699.252
 20
-9828.761
 30
-1196.000
 70
    32
  0
VERTEX
  8
E65LXLIFT
 62
7
 10
4706.726
 20
-9819.447
 30
-1196.000
 70
    32
  0
VERTEX
  8
E65LXLIFT
 62
7
 10
4712.528
 20
-9822.518
 30
-1196.000
 70
    32
  0
VERTEX
  8
E65LXLIFT
 62
7
 10
4725.316
 20
-9823.247
 30
-1196.000
 70
    32
  0
VERTEX
  8
E65LXLIFT
 62
7
 10
4732.366
 20
-9818.146
 30
-1196.000
 70
    32
  0
VERTEX
  8
E65LXLIFT
 62
7
 10
4737.406
 20
-9818.514
 30
-1196.000
 70
    32
  0
VERTEX
  8
E65LXLIFT
 62
7
 10
4747.027
 20
-9816.217
 30
-1196.000
 70
    32
  0
VERTEX
  8
E65LXLIFT
 62
7
 10
4745.981
 20
-9805.474
 30
-1196.000
 70
    32
  0
VERTEX
  8
E65LXLIFT
 62
7
 10
4749.332
 20
-9793.611
 30
-1196.000
 70
    32
  0
VERTEX
  8
E65LXLIFT
 62
7
 10
4750.988
 20
-9782.105
 30
-1196.000
 70
    32
  0
VERTEX
  8
E65LXLIFT
 62
7
 10
4745.351
 20
-9764.268
 30
-1196.000
 70
    32
  0
VERTEX
  8
E65LXLIFT
 62
7
 10
4738.381
 20
-9747.287
 30
-1196.000
 70
    32
  0
VERTEX
  8
E65LXLIFT
 62
7
 10
4729.858
 20
-9738.806
 30
-1196.000
 70
    32
  0
VERTEX
  8
E65LXLIFT
 62
7
 10
4722.162
 20
-9738.516
 30
-1196.000
 70
    32
  0
VERTEX
  8
E65LXLIFT
 62
7
 10
4716.609
 20
-9749.586
 30
-1196.000
 70
    32
  0
VERTEX
  8
E65LXLIFT
 62
7
 10
4714.255
 20
-9750.530
 30
-1196.000
 70
    32
  0
VERTEX
  8
E65LXLIFT
 62
7
 10
4697.963
 20
-9744.958
 30
-1196.000
 70
    32
  0
VERTEX
  8
E65LXLIFT
 62
7
 10
4690.382
 20
-9753.374
 30
-1196.000
 70
    32
  0
VERTEX
  8
E65LXLIFT
 62
7
 10
4704.461
 20
-9773.131
 30
-1196.000
 70
    32
  0
VERTEX
  8
E65LXLIFT
 62
7
 10
4699.969
 20
-9802.312
 30
-1196.000
 70
    32
  0
VERTEX
  8
E65LXLIFT
 62
7
 10
4693.847
 20
-9813.793
 30
-1196.000
 70
    32
  0
VERTEX
  8
E65LXLIFT
 62
7
 10
4678.873
 20
-9829.836
 30
-1196.000
 70
    32
  0
SEQEND
  8
E65LXLIFT
  0
POLYLINE
  8
E65LXLIFT
 62
7
 66
     1
 70
     9
  0
VERTEX
  8
E65LXLIFT
 62
7
 10
4708.248
 20
-9775.816
 30
-1219.000
 70
    32
  0
VERTEX
  8
E65LXLIFT
 62
7
 10
4715.716
 20
-9787.338
 30
-1219.000
 70
    32
  0
VERTEX
  8
E65LXLIFT
 62
7
 10
4729.250
 20
-9799.895
 30
-1219.000
 70
    32
  0
VERTEX
  8
E65LXLIFT
 62
7
 10
4757.924
 20
-9813.433
 30
-1219.000
 70
    32
  0
VERTEX
  8
E65LXLIFT
 62
7
 10
4780.200
 20
-9813.480
 30
-1219.000
 70
    32
  0
VERTEX
  8
E65LXLIFT
 62
7
 10
4783.820
 20
-9820.734
 30
-1219.000
 70
    32
  0
VERTEX
  8
E65LXLIFT
 62
7
 10
4793.904
 20
-9825.372
 30
-1219.000
 70
    32
  0
VERTEX
  8
E65LXLIFT
 62
7
 10
4783.993
 20
-9837.317
 30
-1219.000
 70
    32
  0
VERTEX
  8
E65LXLIFT
 62
7
 10
4771.165
 20
-9839.980
 30
-1219.000
 70
    32
  0
VERTEX
  8
E65LXLIFT
 62
7
 10
4761.224
 20
-9848.584
 30
-1219.000
 70
    32
  0
VERTEX
  8
E65LXLIFT
 62
7
 10
4738.354
 20
-9834.970
 30
-1219.000
 70
    32
  0
VERTEX
  8
E65LXLIFT
 62
7
 10
4721.663
 20
-9842.490
 30
-1219.000
 70
    32
  0
VERTEX
  8
E65LXLIFT
 62
7
 10
4702.443
 20
-9824.174
 30
-1219.000
 70
    32
  0
VERTEX
  8
E65LXLIFT
 62
7
 10
4694.158
 20
-9802.827
 30
-1219.000
 70
    32
  0
VERTEX
  8
E65LXLIFT
 62
7
 10
4657.994
 20
-9770.840
 30
-1219.000
 70
    32
  0
VERTEX
  8
E65LXLIFT
 62
7
 10
4654.428
 20
-9762.463
 30
-1219.000
 70
    32
  0
VERTEX
  8
E65LXLIFT
 62
7
 10
4660.755
 20
-9754.413
 30
-1219.000
 70
    32
  0
VERTEX
  8
E65LXLIFT
 62
7
 10
4671.851
 20
-9754.304
 30
-1219.000
 70
    32
  0
VERTEX
  8
E65LXLIFT
 62
7
 10
4691.287
 20
-9761.073
 30
-1219.000
 70
    32
  0
SEQEND
  8
E65LXLIFT
  0
POLYLINE
  8
E65LXLIFT
 62
7
 66
     1
 70
     9
  0
VERTEX
  8
E65LXLIFT
 62
7
 10
4655.370
 20
-9757.767
 30
-1211.000
 70
    32
  0
VERTEX
  8
E65LXLIFT
 62
7
 10
4656.300
 20
-9766.099
 30
-1211.000
 70
    32
  0
VERTEX
  8
E65LXLIFT
 62
7
 10
4671.552
 20
-9787.178
 30
-1211.000
 70
    32
  0
VERTEX
  8
E65LXLIFT
 62
7
 10
4683.229
 20
-9795.220
 30
-1211.000
 70
    32
  0
VERTEX
  8
E65LXLIFT
 62
7
 10
4690.820
 20
-9806.761
 30
-1211.000
 70
    32
  0
VERTEX
  8
E65LXLIFT
 62
7
 10
4698.275
 20
-9802.669
 30
-1211.000
 70
    32
  0
VERTEX
  8
E65LXLIFT
 62
7
 10
4694.292
 20
-9811.410
 30
-1211.000
 70
    32
  0
VERTEX
  8
E65LXLIFT
 62
7
 10
4678.579
 20
-9828.529
 30
-1211.000
 70
    32
  0
VERTEX
  8
E65LXLIFT
 62
7
 10
4683.376
 20
-9835.908
 30
-1211.000
 70
    32
  0
VERTEX
  8
E65LXLIFT
 62
7
 10
4686.822
 20
-9837.972
 30
-1211.000
 70
    32
  0
VERTEX
  8
E65LXLIFT
 62
7
 10
4701.611
 20
-9823.474
 30
-1211.000
 70
    32
  0
VERTEX
  8
E65LXLIFT
 62
7
 10
4712.794
 20
-9827.534
 30
-1211.000
 70
    32
  0
VERTEX
  8
E65LXLIFT
 62
7
 10
4719.337
 20
-9826.380
 30
-1211.000
 70
    32
  0
VERTEX
  8
E65LXLIFT
 62
7
 10
4723.568
 20
-9821.582
 30
-1211.000
 70
    32
  0
VERTEX
  8
E65LXLIFT
 62
7
 10
4733.394
 20
-9825.865
 30
-1211.000
 70
    32
  0
VERTEX
  8
E65LXLIFT
 62
7
 10
4748.027
 20
-9840.990
 30
-1211.000
 70
    32
  0
VERTEX
  8
E65LXLIFT
 62
7
 10
4759.655
 20
-9850.913
 30
-1211.000
 70
    32
  0
VERTEX
  8
E65LXLIFT
 62
7
 10
4767.189
 20
-9851.429
 30
-1211.000
 70
    32
  0
VERTEX
  8
E65LXLIFT
 62
7
 10
4775.092
 20
-9848.857
 30
-1211.000
 70
    32
  0
VERTEX
  8
E65LXLIFT
 62
7
 10
4780.596
 20
-9841.619
 30
-1211.000
 70
    32
  0
VERTEX
  8
E65LXLIFT
 62
7
 10
4776.202
 20
-9836.445
 30
-1211.000
 70
    32
  0
VERTEX
  8
E65LXLIFT
 62
7
 10
4767.004
 20
-9834.529
 30
-1211.000
 70
    32
  0
VERTEX
  8
E65LXLIFT
 62
7
 10
4758.508
 20
-9825.487
 30
-1211.000
 70
    32
  0
VERTEX
  8
E65LXLIFT
 62
7
 10
4745.111
 20
-9815.217
 30
-1211.000
 70
    32
  0
VERTEX
  8
E65LXLIFT
 62
7
 10
4745.516
 20
-9794.635
 30
-1211.000
 70
    32
  0
VERTEX
  8
E65LXLIFT
 62
7
 10
4748.355
 20
-9791.062
 30
-1211.000
 70
    32
  0
VERTEX
  8
E65LXLIFT
 62
7
 10
4751.446
 20
-9785.137
 30
-1211.000
 70
    32
  0
VERTEX
  8
E65LXLIFT
 62
7
 10
4746.538
 20
-9772.956
 30
-1211.000
 70
    32
  0
VERTEX
  8
E65LXLIFT
 62
7
 10
4745.744
 20
-9764.960
 30
-1211.000
 70
    32
  0
VERTEX
  8
E65LXLIFT
 62
7
 10
4743.506
 20
-9754.970
 30
-1211.000
 70
    32
  0
VERTEX
  8
E65LXLIFT
 62
7
 10
4738.418
 20
-9745.089
 30
-1211.000
 70
    32
  0
VERTEX
  8
E65LXLIFT
 62
7
 10
4728.376
 20
-9737.058
 30
-1211.000
 70
    32
  0
VERTEX
  8
E65LXLIFT
 62
7
 10
4720.021
 20
-9739.306
 30
-1211.000
 70
    32
  0
VERTEX
  8
E65LXLIFT
 62
7
 10
4718.959
 20
-9747.885
 30
-1211.000
 70
    32
  0
VERTEX
  8
E65LXLIFT
 62
7
 10
4704.270
 20
-9750.377
 30
-1211.000
 70
    32
  0
VERTEX
  8
E65LXLIFT
 62
7
 10
4695.780
 20
-9742.090
 30
-1211.000
 70
    32
  0
VERTEX
  8
E65LXLIFT
 62
7
 10
4690.829
 20
-9752.942
 30
-1211.000
 70
    32
  0
VERTEX
  8
E65LXLIFT
 62
7
 10
4704.544
 20
-9773.397
 30
-1211.000
 70
    32
  0
VERTEX
  8
E65LXLIFT
 62
7
 10
4702.771
 20
-9774.245
 30
-1211.000
 70
    32
  0
VERTEX
  8
E65LXLIFT
 62
7
 10
4677.113
 20
-9759.177
 30
-1211.000
 70
    32
  0
VERTEX
  8
E65LXLIFT
 62
7
 10
4662.971
 20
-9749.229
 30
-1211.000
 70
    32
  0
SEQEND
  8
E65LXLIFT
  0
POLYLINE
  8
E65LXLIFT
 62
7
 66
     1
 70
     9
  0
VERTEX
  8
E65LXLIFT
 62
7
 10
4669.406
 20
-9755.423
 30
-1229.000
 70
    32
  0
VERTEX
  8
E65LXLIFT
 62
7
 10
4683.103
 20
-9759.508
 30
-1229.000
 70
    32
  0
VERTEX
  8
E65LXLIFT
 62
7
 10
4695.477
 20
-9762.815
 30
-1229.000
 70
    32
  0
VERTEX
  8
E65LXLIFT
 62
7
 10
4709.033
 20
-9777.201
 30
-1229.000
 70
    32
  0
VERTEX
  8
E65LXLIFT
 62
7
 10
4727.879
 20
-9797.849
 30
-1229.000
 70
    32
  0
VERTEX
  8
E65LXLIFT
 62
7
 10
4744.570
 20
-9808.773
 30
-1229.000
 70
    32
  0
VERTEX
  8
E65LXLIFT
 62
7
 10
4759.787
 20
-9812.410
 30
-1229.000
 70
    32
  0
VERTEX
  8
E65LXLIFT
 62
7
 10
4769.899
 20
-9813.339
 30
-1229.000
 70
    32
  0
VERTEX
  8
E65LXLIFT
 62
7
 10
4779.665
 20
-9812.891
 30
-1229.000
 70
    32
  0
VERTEX
  8
E65LXLIFT
 62
7
 10
4785.252
 20
-9819.264
 30
-1229.000
 70
    32
  0
VERTEX
  8
E65LXLIFT
 62
7
 10
4791.889
 20
-9821.839
 30
-1229.000
 70
    32
  0
VERTEX
  8
E65LXLIFT
 62
7
 10
4798.992
 20
-9827.007
 30
-1229.000
 70
    32
  0
VERTEX
  8
E65LXLIFT
 62
7
 10
4805.252
 20
-9828.011
 30
-1229.000
 70
    32
  0
VERTEX
  8
E65LXLIFT
 62
7
 10
4802.112
 20
-9840.915
 30
-1229.000
 70
    32
  0
VERTEX
  8
E65LXLIFT
 62
7
 10
4787.307
 20
-9837.848
 30
-1229.000
 70
    32
  0
VERTEX
  8
E65LXLIFT
 62
7
 10
4778.587
 20
-9838.842
 30
-1229.000
 70
    32
  0
VERTEX
  8
E65LXLIFT
 62
7
 10
4768.214
 20
-9841.899
 30
-1229.000
 70
    32
  0
VERTEX
  8
E65LXLIFT
 62
7
 10
4762.141
 20
-9846.402
 30
-1229.000
 70
    32
  0
VERTEX
  8
E65LXLIFT
 62
7
 10
4738.313
 20
-9833.263
 30
-1229.000
 70
    32
  0
VERTEX
  8
E65LXLIFT
 62
7
 10
4721.452
 20
-9841.449
 30
-1229.000
 70
    32
  0
VERTEX
  8
E65LXLIFT
 62
7
 10
4703.903
 20
-9824.093
 30
-1229.000
 70
    32
  0
VERTEX
  8
E65LXLIFT
 62
7
 10
4697.021
 20
-9808.134
 30
-1229.000
 70
    32
  0
VERTEX
  8
E65LXLIFT
 62
7
 10
4656.468
 20
-9768.581
 30
-1229.000
 70
    32
  0
SEQEND
  8
E65LXLIFT
  0
POLYLINE
  8
E65LXLIFT
 62
7
 66
     1
 70
     9
  0
VERTEX
  8
E65LXLIFT
 62
7
 10
4606.942
 20
-9752.897
 30
-1189.000
 70
    32
  0
VERTEX
  8
E65LXLIFT
 62
7
 10
4614.350
 20
-9753.384
 30
-1189.000
 70
    32
  0
VERTEX
  8
E65LXLIFT
 62
7
 10
4616.573
 20
-9747.322
 30
-1189.000
 70
    32
  0
VERTEX
  8
E65LXLIFT
 62
7
 10
4615.580
 20
-9740.119
 30
-1189.000
 70
    32
  0
VERTEX
  8
E65LXLIFT
 62
7
 10
4608.895
 20
-9735.093
 30
-1189.000
 70
    32
  0
VERTEX
  8
E65LXLIFT
 62
7
 10
4603.403
 20
-9731.262
 30
-1189.000
 70
    32
  0
VERTEX
  8
E65LXLIFT
 62
7
 10
4597.763
 20
-9732.315
 30
-1189.000
 70
    32
  0
VERTEX
  8
E65LXLIFT
 62
7
 10
4589.851
 20
-9732.628
 30
-1189.000
 70
    32
  0
VERTEX
  8
E65LXLIFT
 62
7
 10
4592.398
 20
-9741.525
 30
-1189.000
 70
    32
  0
VERTEX
  8
E65LXLIFT
 62
7
 10
4596.282
 20
-9744.785
 30
-1189.000
 70
    32
  0
SEQEND
  8
E65LXLIFT
  0
POLYLINE
  8
E65LXLIFT
 62
11
 66
     1
 70
     9
  0
VERTEX
  8
E65LXLIFT
 62
11
 10
4862.181
 20
-9739.949
 30
-1238.000
 70
    32
  0
VERTEX
  8
E65LXLIFT
 62
11
 10
4866.707
 20
-9754.902
 30
-1238.000
 70
    32
  0
VERTEX
  8
E65LXLIFT
 62
11
 10
4875.962
 20
-9776.089
 30
-1238.000
 70
    32
  0
VERTEX
  8
E65LXLIFT
 62
11
 10
4875.066
 20
-9780.100
 30
-1238.000
 70
    32
  0
VERTEX
  8
E65LXLIFT
 62
11
 10
4868.710
 20
-9786.760
 30
-1238.000
 70
    32
  0
VERTEX
  8
E65LXLIFT
 62
11
 10
4858.755
 20
-9787.996
 30
-1238.000
 70
    32
  0
VERTEX
  8
E65LXLIFT
 62
11
 10
4847.717
 20
-9777.539
 30
-1238.000
 70
    32
  0
VERTEX
  8
E65LXLIFT
 62
11
 10
4841.444
 20
-9747.576
 30
-1238.000
 70
    32
  0
SEQEND
  8
E65LXLIFT
  0
POLYLINE
  8
E65LXLIFT
 62
13
 66
     1
 70
     9
  0
VERTEX
  8
E65LXLIFT
 62
13
 10
5118.533
 20
-9527.709
 30
-1183.000
 70
    32
  0
VERTEX
  8
E65LXLIFT
 62
13
 10
5129.486
 20
-9513.708
 30
-1183.000
 70
    32
  0
VERTEX
  8
E65LXLIFT
 62
13
 10
5144.990
 20
-9503.045
 30
-1183.000
 70
    32
  0
VERTEX
  8
E65LXLIFT
 62
13
 10
5156.581
 20
-9494.317
 30
-1183.000
 70
    32
  0
VERTEX
  8
E65LXLIFT
 62
13
 10
5160.775
 20
-9497.910
 30
-1183.000
 70
    32
  0
VERTEX
  8
E65LXLIFT
 62
13
 10
5165.735
 20
-9501.820
 30
-1183.000
 70
    32
  0
VERTEX
  8
E65LXLIFT
 62
13
 10
5172.858
 20
-9501.803
 30
-1183.000
 70
    32
  0
VERTEX
  8
E65LXLIFT
 62
13
 10
5175.809
 20
-9509.854
 30
-1183.000
 70
    32
  0
VERTEX
  8
E65LXLIFT
 62
13
 10
5173.559
 20
-9519.248
 30
-1183.000
 70
    32
  0
VERTEX
  8
E65LXLIFT
 62
13
 10
5169.777
 20
-9530.278
 30
-1183.000
 70
    32
  0
VERTEX
  8
E65LXLIFT
 62
13
 10
5168.959
 20
-9540.161
 30
-1183.000
 70
    32
  0
VERTEX
  8
E65LXLIFT
 62
13
 10
5159.102
 20
-9546.026
 30
-1183.000
 70
    32
  0
VERTEX
  8
E65LXLIFT
 62
13
 10
5156.118
 20
-9556.811
 30
-1183.000
 70
    32
  0
VERTEX
  8
E65LXLIFT
 62
13
 10
5151.246
 20
-9560.730
 30
-1183.000
 70
    32
  0
VERTEX
  8
E65LXLIFT
 62
13
 10
5141.654
 20
-9565.000
 30
-1183.000
 70
    32
  0
VERTEX
  8
E65LXLIFT
 62
13
 10
5129.925
 20
-9568.097
 30
-1183.000
 70
    32
  0
VERTEX
  8
E65LXLIFT
 62
13
 10
5123.179
 20
-9566.979
 30
-1183.000
 70
    32
  0
VERTEX
  8
E65LXLIFT
 62
13
 10
5125.358
 20
-9558.393
 30
-1183.000
 70
    32
  0
VERTEX
  8
E65LXLIFT
 62
13
 10
5127.537
 20
-9549.806
 30
-1183.000
 70
    32
  0
VERTEX
  8
E65LXLIFT
 62
13
 10
5125.466
 20
-9542.532
 30
-1183.000
 70
    32
  0
VERTEX
  8
E65LXLIFT
 62
13
 10
5123.145
 20
-9541.706
 30
-1183.000
 70
    32
  0
SEQEND
  8
E65LXLIFT
  0
POLYLINE
  8
E65LXLIFT
 62
4
 66
     1
 70
     9
  0
VERTEX
  8
E65LXLIFT
 62
4
 10
5677.445
 20
-10126.441
 30
-1250.000
 70
    32
  0
VERTEX
  8
E65LXLIFT
 62
4
 10
5678.409
 20
-10120.862
 30
-1250.000
 70
    32
  0
VERTEX
  8
E65LXLIFT
 62
4
 10
5672.111
 20
-10111.087
 30
-1250.000
 70
    32
  0
VERTEX
  8
E65LXLIFT
 62
4
 10
5662.789
 20
-10100.130
 30
-1250.000
 70
    32
  0
VERTEX
  8
E65LXLIFT
 62
4
 10
5652.284
 20
-10083.626
 30
-1250.000
 70
    32
  0
VERTEX
  8
E65LXLIFT
 62
4
 10
5635.837
 20
-10059.043
 30
-1250.000
 70
    32
  0
VERTEX
  8
E65LXLIFT
 62
4
 10
5618.882
 20
-10041.120
 30
-1250.000
 70
    32
  0
VERTEX
  8
E65LXLIFT
 62
4
 10
5604.113
 20
-10024.873
 30
-1250.000
 70
    32
  0
VERTEX
  8
E65LXLIFT
 62
4
 10
5591.492
 20
-10010.548
 30
-1250.000
 70
    32
  0
VERTEX
  8
E65LXLIFT
 62
4
 10
5577.390
 20
-9988.612
 30
-1250.000
 70
    32
  0
VERTEX
  8
E65LXLIFT
 62
4
 10
5561.239
 20
-9971.953
 30
-1250.000
 70
    32
  0
VERTEX
  8
E65LXLIFT
 62
4
 10
5556.186
 20
-9975.926
 30
-1250.000
 70
    32
  0
VERTEX
  8
E65LXLIFT
 62
4
 10
5562.701
 20
-9996.071
 30
-1250.000
 70
    32
  0
VERTEX
  8
E65LXLIFT
 62
4
 10
5577.837
 20
-10020.190
 30
-1250.000
 70
    32
  0
VERTEX
  8
E65LXLIFT
 62
4
 10
5597.367
 20
-10043.633
 30
-1250.000
 70
    32
  0
VERTEX
  8
E65LXLIFT
 62
4
 10
5597.729
 20
-10058.562
 30
-1250.000
 70
    32
  0
VERTEX
  8
E65LXLIFT
 62
4
 10
5607.941
 20
-10073.758
 30
-1250.000
 70
    32
  0
VERTEX
  8
E65LXLIFT
 62
4
 10
5620.575
 20
-10082.540
 30
-1250.000
 70
    32
  0
VERTEX
  8
E65LXLIFT
 62
4
 10
5639.689
 20
-10108.562
 30
-1250.000
 70
    32
  0
VERTEX
  8
E65LXLIFT
 62
4
 10
5657.853
 20
-10126.806
 30
-1250.000
 70
    32
  0
VERTEX
  8
E65LXLIFT
 62
4
 10
5668.729
 20
-10127.743
 30
-1250.000
 70
    32
  0
SEQEND
  8
E65LXLIFT
  0
POLYLINE
  8
E65LXLIFT
 62
4
 66
     1
 70
     9
  0
VERTEX
  8
E65LXLIFT
 62
4
 10
5532.116
 20
-10036.817
 30
-1251.000
 70
    32
  0
VERTEX
  8
E65LXLIFT
 62
4
 10
5541.848
 20
-10030.007
 30
-1251.000
 70
    32
  0
VERTEX
  8
E65LXLIFT
 62
4
 10
5551.767
 20
-10043.896
 30
-1251.000
 70
    32
  0
VERTEX
  8
E65LXLIFT
 62
4
 10
5558.001
 20
-10061.096
 30
-1251.000
 70
    32
  0
VERTEX
  8
E65LXLIFT
 62
4
 10
5562.445
 20
-10070.257
 30
-1251.000
 70
    32
  0
VERTEX
  8
E65LXLIFT
 62
4
 10
5557.439
 20
-10083.312
 30
-1251.000
 70
    32
  0
VERTEX
  8
E65LXLIFT
 62
4
 10
5553.274
 20
-10090.768
 30
-1251.000
 70
    32
  0
VERTEX
  8
E65LXLIFT
 62
4
 10
5557.626
 20
-10102.057
 30
-1251.000
 70
    32
  0
VERTEX
  8
E65LXLIFT
 62
4
 10
5568.805
 20
-10116.338
 30
-1251.000
 70
    32
  0
VERTEX
  8
E65LXLIFT
 62
4
 10
5575.984
 20
-10124.176
 30
-1251.000
 70
    32
  0
VERTEX
  8
E65LXLIFT
 62
4
 10
5593.947
 20
-10131.172
 30
-1251.000
 70
    32
  0
VERTEX
  8
E65LXLIFT
 62
4
 10
5613.650
 20
-10138.322
 30
-1251.000
 70
    32
  0
VERTEX
  8
E65LXLIFT
 62
4
 10
5624.945
 20
-10143.296
 30
-1251.000
 70
    32
  0
VERTEX
  8
E65LXLIFT
 62
4
 10
5628.635
 20
-10134.881
 30
-1251.000
 70
    32
  0
VERTEX
  8
E65LXLIFT
 62
4
 10
5620.094
 20
-10122.601
 30
-1251.000
 70
    32
  0
VERTEX
  8
E65LXLIFT
 62
4
 10
5605.262
 20
-10105.966
 30
-1251.000
 70
    32
  0
VERTEX
  8
E65LXLIFT
 62
4
 10
5589.845
 20
-10084.763
 30
-1251.000
 70
    32
  0
VERTEX
  8
E65LXLIFT
 62
4
 10
5579.888
 20
-10057.446
 30
-1251.000
 70
    32
  0
VERTEX
  8
E65LXLIFT
 62
4
 10
5570.246
 20
-10043.791
 30
-1251.000
 70
    32
  0
VERTEX
  8
E65LXLIFT
 62
4
 10
5559.606
 20
-10030.858
 30
-1251.000
 70
    32
  0
VERTEX
  8
E65LXLIFT
 62
4
 10
5548.709
 20
-10011.707
 30
-1251.000
 70
    32
  0
VERTEX
  8
E65LXLIFT
 62
4
 10
5534.523
 20
-10023.469
 30
-1251.000
 70
    32
  0
VERTEX
  8
E65LXLIFT
 62
4
 10
5527.283
 20
-10029.672
 30
-1251.000
 70
    32
  0
SEQEND
  8
E65LXLIFT
  0
POLYLINE
  8
E65LXLIFT
 62
4
 66
     1
 70
     9
  0
VERTEX
  8
E65LXLIFT
 62
4
 10
5565.450
 20
-10018.693
 30
-1243.000
 70
    32
  0
VERTEX
  8
E65LXLIFT
 62
4
 10
5572.922
 20
-10029.584
 30
-1243.000
 70
    32
  0
VERTEX
  8
E65LXLIFT
 62
4
 10
5595.167
 20
-10039.762
 30
-1243.000
 70
    32
  0
VERTEX
  8
E65LXLIFT
 62
4
 10
5606.909
 20
-10057.344
 30
-1243.000
 70
    32
  0
VERTEX
  8
E65LXLIFT
 62
4
 10
5619.506
 20
-10081.728
 30
-1243.000
 70
    32
  0
VERTEX
  8
E65LXLIFT
 62
4
 10
5635.104
 20
-10107.071
 30
-1243.000
 70
    32
  0
VERTEX
  8
E65LXLIFT
 62
4
 10
5648.719
 20
-10111.909
 30
-1243.000
 70
    32
  0
VERTEX
  8
E65LXLIFT
 62
4
 10
5659.868
 20
-10130.911
 30
-1243.000
 70
    32
  0
VERTEX
  8
E65LXLIFT
 62
4
 10
5669.805
 20
-10149.604
 30
-1243.000
 70
    32
  0
VERTEX
  8
E65LXLIFT
 62
4
 10
5684.137
 20
-10170.853
 30
-1243.000
 70
    32
  0
VERTEX
  8
E65LXLIFT
 62
4
 10
5693.497
 20
-10185.052
 30
-1243.000
 70
    32
  0
VERTEX
  8
E65LXLIFT
 62
4
 10
5705.187
 20
-10184.751
 30
-1243.000
 70
    32
  0
VERTEX
  8
E65LXLIFT
 62
4
 10
5712.647
 20
-10179.150
 30
-1243.000
 70
    32
  0
VERTEX
  8
E65LXLIFT
 62
4
 10
5719.784
 20
-10170.289
 30
-1243.000
 70
    32
  0
VERTEX
  8
E65LXLIFT
 62
4
 10
5702.504
 20
-10153.943
 30
-1243.000
 70
    32
  0
VERTEX
  8
E65LXLIFT
 62
4
 10
5693.651
 20
-10148.003
 30
-1243.000
 70
    32
  0
VERTEX
  8
E65LXLIFT
 62
4
 10
5677.375
 20
-10129.606
 30
-1243.000
 70
    32
  0
VERTEX
  8
E65LXLIFT
 62
4
 10
5663.259
 20
-10107.761
 30
-1243.000
 70
    32
  0
VERTEX
  8
E65LXLIFT
 62
4
 10
5659.081
 20
-10094.664
 30
-1243.000
 70
    32
  0
VERTEX
  8
E65LXLIFT
 62
4
 10
5652.685
 20
-10079.594
 30
-1243.000
 70
    32
  0
VERTEX
  8
E65LXLIFT
 62
4
 10
5643.764
 20
-10065.398
 30
-1243.000
 70
    32
  0
VERTEX
  8
E65LXLIFT
 62
4
 10
5635.081
 20
-10054.197
 30
-1243.000
 70
    32
  0
VERTEX
  8
E65LXLIFT
 62
4
 10
5626.809
 20
-10048.157
 30
-1243.000
 70
    32
  0
VERTEX
  8
E65LXLIFT
 62
4
 10
5619.274
 20
-10038.515
 30
-1243.000
 70
    32
  0
VERTEX
  8
E65LXLIFT
 62
4
 10
5604.764
 20
-10023.408
 30
-1243.000
 70
    32
  0
VERTEX
  8
E65LXLIFT
 62
4
 10
5592.969
 20
-10007.832
 30
-1243.000
 70
    32
  0
VERTEX
  8
E65LXLIFT
 62
4
 10
5580.362
 20
-9990.559
 30
-1243.000
 70
    32
  0
VERTEX
  8
E65LXLIFT
 62
4
 10
5565.572
 20
-9967.352
 30
-1243.000
 70
    32
  0
VERTEX
  8
E65LXLIFT
 62
4
 10
5555.008
 20
-9951.963
 30
-1243.000
 70
    32
  0
VERTEX
  8
E65LXLIFT
 62
4
 10
5548.209
 20
-9946.587
 30
-1243.000
 70
    32
  0
VERTEX
  8
E65LXLIFT
 62
4
 10
5537.838
 20
-9939.032
 30
-1243.000
 70
    32
  0
VERTEX
  8
E65LXLIFT
 62
4
 10
5538.565
 20
-9948.332
 30
-1243.000
 70
    32
  0
VERTEX
  8
E65LXLIFT
 62
4
 10
5546.994
 20
-9962.452
 30
-1243.000
 70
    32
  0
VERTEX
  8
E65LXLIFT
 62
4
 10
5555.951
 20
-9978.478
 30
-1243.000
 70
    32
  0
VERTEX
  8
E65LXLIFT
 62
4
 10
5562.010
 20
-9987.896
 30
-1243.000
 70
    32
  0
VERTEX
  8
E65LXLIFT
 62
4
 10
5562.945
 20
-9999.556
 30
-1243.000
 70
    32
  0
VERTEX
  8
E65LXLIFT
 62
4
 10
5550.641
 20
-10007.631
 30
-1243.000
 70
    32
  0
VERTEX
  8
E65LXLIFT
 62
4
 10
5540.134
 20
-10013.399
 30
-1243.000
 70
    32
  0
VERTEX
  8
E65LXLIFT
 62
4
 10
5526.923
 20
-10024.546
 30
-1243.000
 70
    32
  0
VERTEX
  8
E65LXLIFT
 62
4
 10
5531.048
 20
-10029.705
 30
-1243.000
 70
    32
  0
VERTEX
  8
E65LXLIFT
 62
4
 10
5537.377
 20
-10026.575
 30
-1243.000
 70
    32
  0
VERTEX
  8
E65LXLIFT
 62
4
 10
5549.023
 20
-10043.136
 30
-1243.000
 70
    32
  0
VERTEX
  8
E65LXLIFT
 62
4
 10
5560.616
 20
-10067.493
 30
-1243.000
 70
    32
  0
VERTEX
  8
E65LXLIFT
 62
4
 10
5555.485
 20
-10078.483
 30
-1243.000
 70
    32
  0
VERTEX
  8
E65LXLIFT
 62
4
 10
5555.044
 20
-10090.501
 30
-1243.000
 70
    32
  0
VERTEX
  8
E65LXLIFT
 62
4
 10
5565.379
 20
-10102.016
 30
-1243.000
 70
    32
  0
VERTEX
  8
E65LXLIFT
 62
4
 10
5581.871
 20
-10119.816
 30
-1243.000
 70
    32
  0
VERTEX
  8
E65LXLIFT
 62
4
 10
5596.036
 20
-10130.150
 30
-1243.000
 70
    32
  0
VERTEX
  8
E65LXLIFT
 62
4
 10
5614.142
 20
-10140.643
 30
-1243.000
 70
    32
  0
VERTEX
  8
E65LXLIFT
 62
4
 10
5620.690
 20
-10148.499
 30
-1243.000
 70
    32
  0
VERTEX
  8
E65LXLIFT
 62
4
 10
5627.690
 20
-10145.093
 30
-1243.000
 70
    32
  0
VERTEX
  8
E65LXLIFT
 62
4
 10
5624.925
 20
-10141.337
 30
-1243.000
 70
    32
  0
VERTEX
  8
E65LXLIFT
 62
4
 10
5627.334
 20
-10131.696
 30
-1243.000
 70
    32
  0
VERTEX
  8
E65LXLIFT
 62
4
 10
5616.058
 20
-10123.059
 30
-1243.000
 70
    32
  0
VERTEX
  8
E65LXLIFT
 62
4
 10
5604.657
 20
-10110.690
 30
-1243.000
 70
    32
  0
VERTEX
  8
E65LXLIFT
 62
4
 10
5592.806
 20
-10095.483
 30
-1243.000
 70
    32
  0
VERTEX
  8
E65LXLIFT
 62
4
 10
5582.689
 20
-10079.218
 30
-1243.000
 70
    32
  0
VERTEX
  8
E65LXLIFT
 62
4
 10
5572.531
 20
-10055.771
 30
-1243.000
 70
    32
  0
VERTEX
  8
E65LXLIFT
 62
4
 10
5560.953
 20
-10037.521
 30
-1243.000
 70
    32
  0
VERTEX
  8
E65LXLIFT
 62
4
 10
5554.657
 20
-10025.110
 30
-1243.000
 70
    32
  0
SEQEND
  8
E65LXLIFT
  0
POLYLINE
  8
E65LXLIFT
 62
4
 66
     1
 70
     9
  0
VERTEX
  8
E65LXLIFT
 62
4
 10
5605.663
 20
-10057.536
 30
-1235.000
 70
    32
  0
VERTEX
  8
E65LXLIFT
 62
4
 10
5612.857
 20
-10054.626
 30
-1235.000
 70
    32
  0
VERTEX
  8
E65LXLIFT
 62
4
 10
5612.428
 20
-10049.126
 30
-1235.000
 70
    32
  0
VERTEX
  8
E65LXLIFT
 62
4
 10
5608.779
 20
-10042.560
 30
-1235.000
 70
    32
  0
VERTEX
  8
E65LXLIFT
 62
4
 10
5613.155
 20
-10038.087
 30
-1235.000
 70
    32
  0
VERTEX
  8
E65LXLIFT
 62
4
 10
5609.219
 20
-10028.822
 30
-1235.000
 70
    32
  0
VERTEX
  8
E65LXLIFT
 62
4
 10
5591.489
 20
-10006.048
 30
-1235.000
 70
    32
  0
VERTEX
  8
E65LXLIFT
 62
4
 10
5571.835
 20
-9975.495
 30
-1235.000
 70
    32
  0
VERTEX
  8
E65LXLIFT
 62
4
 10
5564.947
 20
-9966.157
 30
-1235.000
 70
    32
  0
VERTEX
  8
E65LXLIFT
 62
4
 10
5561.655
 20
-9958.265
 30
-1235.000
 70
    32
  0
VERTEX
  8
E65LXLIFT
 62
4
 10
5550.045
 20
-9942.362
 30
-1235.000
 70
    32
  0
VERTEX
  8
E65LXLIFT
 62
4
 10
5545.573
 20
-9935.085
 30
-1235.000
 70
    32
  0
VERTEX
  8
E65LXLIFT
 62
4
 10
5539.108
 20
-9938.878
 30
-1235.000
 70
    32
  0
VERTEX
  8
E65LXLIFT
 62
4
 10
5540.991
 20
-9947.975
 30
-1235.000
 70
    32
  0
VERTEX
  8
E65LXLIFT
 62
4
 10
5540.346
 20
-9956.379
 30
-1235.000
 70
    32
  0
VERTEX
  8
E65LXLIFT
 62
4
 10
5534.335
 20
-9963.721
 30
-1235.000
 70
    32
  0
VERTEX
  8
E65LXLIFT
 62
4
 10
5528.677
 20
-9971.566
 30
-1235.000
 70
    32
  0
VERTEX
  8
E65LXLIFT
 62
4
 10
5527.429
 20
-9984.154
 30
-1235.000
 70
    32
  0
VERTEX
  8
E65LXLIFT
 62
4
 10
5531.852
 20
-9992.432
 30
-1235.000
 70
    32
  0
VERTEX
  8
E65LXLIFT
 62
4
 10
5532.374
 20
-10004.635
 30
-1235.000
 70
    32
  0
VERTEX
  8
E65LXLIFT
 62
4
 10
5535.023
 20
-10015.128
 30
-1235.000
 70
    32
  0
VERTEX
  8
E65LXLIFT
 62
4
 10
5536.762
 20
-10027.227
 30
-1235.000
 70
    32
  0
VERTEX
  8
E65LXLIFT
 62
4
 10
5537.891
 20
-10044.268
 30
-1235.000
 70
    32
  0
VERTEX
  8
E65LXLIFT
 62
4
 10
5539.701
 20
-10056.317
 30
-1235.000
 70
    32
  0
VERTEX
  8
E65LXLIFT
 62
4
 10
5550.121
 20
-10067.470
 30
-1235.000
 70
    32
  0
VERTEX
  8
E65LXLIFT
 62
4
 10
5557.404
 20
-10079.969
 30
-1235.000
 70
    32
  0
VERTEX
  8
E65LXLIFT
 62
4
 10
5560.963
 20
-10091.755
 30
-1235.000
 70
    32
  0
VERTEX
  8
E65LXLIFT
 62
4
 10
5575.823
 20
-10108.918
 30
-1235.000
 70
    32
  0
VERTEX
  8
E65LXLIFT
 62
4
 10
5583.727
 20
-10108.089
 30
-1235.000
 70
    32
  0
VERTEX
  8
E65LXLIFT
 62
4
 10
5591.095
 20
-10098.397
 30
-1235.000
 70
    32
  0
VERTEX
  8
E65LXLIFT
 62
4
 10
5592.118
 20
-10088.545
 30
-1235.000
 70
    32
  0
VERTEX
  8
E65LXLIFT
 62
4
 10
5583.618
 20
-10072.175
 30
-1235.000
 70
    32
  0
VERTEX
  8
E65LXLIFT
 62
4
 10
5571.537
 20
-10048.116
 30
-1235.000
 70
    32
  0
VERTEX
  8
E65LXLIFT
 62
4
 10
5561.056
 20
-10031.527
 30
-1235.000
 70
    32
  0
VERTEX
  8
E65LXLIFT
 62
4
 10
5567.028
 20
-10029.477
 30
-1235.000
 70
    32
  0
VERTEX
  8
E65LXLIFT
 62
4
 10
5574.861
 20
-10025.796
 30
-1235.000
 70
    32
  0
VERTEX
  8
E65LXLIFT
 62
4
 10
5582.966
 20
-10028.155
 30
-1235.000
 70
    32
  0
VERTEX
  8
E65LXLIFT
 62
4
 10
5589.012
 20
-10034.004
 30
-1235.000
 70
    32
  0
VERTEX
  8
E65LXLIFT
 62
4
 10
5589.238
 20
-10039.216
 30
-1235.000
 70
    32
  0
SEQEND
  8
E65LXLIFT
  0
POLYLINE
  8
E65LXLIFT
 62
4
 66
     1
 70
     9
  0
VERTEX
  8
E65LXLIFT
 62
4
 10
5609.079
 20
-10034.607
 30
-1224.000
 70
    32
  0
VERTEX
  8
E65LXLIFT
 62
4
 10
5598.909
 20
-10017.107
 30
-1224.000
 70
    32
  0
VERTEX
  8
E65LXLIFT
 62
4
 10
5583.129
 20
-9998.456
 30
-1224.000
 70
    32
  0
VERTEX
  8
E65LXLIFT
 62
4
 10
5565.782
 20
-9972.689
 30
-1224.000
 70
    32
  0
VERTEX
  8
E65LXLIFT
 62
4
 10
5559.784
 20
-9957.053
 30
-1224.000
 70
    32
  0
VERTEX
  8
E65LXLIFT
 62
4
 10
5568.304
 20
-9952.624
 30
-1224.000
 70
    32
  0
VERTEX
  8
E65LXLIFT
 62
4
 10
5580.260
 20
-9955.044
 30
-1224.000
 70
    32
  0
VERTEX
  8
E65LXLIFT
 62
4
 10
5587.335
 20
-9963.168
 30
-1224.000
 70
    32
  0
VERTEX
  8
E65LXLIFT
 62
4
 10
5589.377
 20
-9969.289
 30
-1224.000
 70
    32
  0
VERTEX
  8
E65LXLIFT
 62
4
 10
5601.329
 20
-9967.803
 30
-1224.000
 70
    32
  0
VERTEX
  8
E65LXLIFT
 62
4
 10
5604.686
 20
-9961.791
 30
-1224.000
 70
    32
  0
VERTEX
  8
E65LXLIFT
 62
4
 10
5597.656
 20
-9951.029
 30
-1224.000
 70
    32
  0
VERTEX
  8
E65LXLIFT
 62
4
 10
5587.055
 20
-9938.183
 30
-1224.000
 70
    32
  0
VERTEX
  8
E65LXLIFT
 62
4
 10
5577.621
 20
-9923.949
 30
-1224.000
 70
    32
  0
VERTEX
  8
E65LXLIFT
 62
4
 10
5562.868
 20
-9905.967
 30
-1224.000
 70
    32
  0
VERTEX
  8
E65LXLIFT
 62
4
 10
5553.470
 20
-9895.833
 30
-1224.000
 70
    32
  0
VERTEX
  8
E65LXLIFT
 62
4
 10
5541.740
 20
-9890.426
 30
-1224.000
 70
    32
  0
VERTEX
  8
E65LXLIFT
 62
4
 10
5532.860
 20
-9882.957
 30
-1224.000
 70
    32
  0
VERTEX
  8
E65LXLIFT
 62
4
 10
5527.280
 20
-9883.197
 30
-1224.000
 70
    32
  0
VERTEX
  8
E65LXLIFT
 62
4
 10
5516.345
 20
-9892.089
 30
-1224.000
 70
    32
  0
VERTEX
  8
E65LXLIFT
 62
4
 10
5515.899
 20
-9900.771
 30
-1224.000
 70
    32
  0
VERTEX
  8
E65LXLIFT
 62
4
 10
5522.154
 20
-9916.763
 30
-1224.000
 70
    32
  0
VERTEX
  8
E65LXLIFT
 62
4
 10
5523.824
 20
-9927.170
 30
-1224.000
 70
    32
  0
VERTEX
  8
E65LXLIFT
 62
4
 10
5534.781
 20
-9939.758
 30
-1224.000
 70
    32
  0
VERTEX
  8
E65LXLIFT
 62
4
 10
5537.543
 20
-9956.324
 30
-1224.000
 70
    32
  0
VERTEX
  8
E65LXLIFT
 62
4
 10
5530.639
 20
-9955.784
 30
-1224.000
 70
    32
  0
VERTEX
  8
E65LXLIFT
 62
4
 10
5522.530
 20
-9958.831
 30
-1224.000
 70
    32
  0
VERTEX
  8
E65LXLIFT
 62
4
 10
5518.724
 20
-9966.471
 30
-1224.000
 70
    32
  0
VERTEX
  8
E65LXLIFT
 62
4
 10
5527.322
 20
-9981.201
 30
-1224.000
 70
    32
  0
VERTEX
  8
E65LXLIFT
 62
4
 10
5535.349
 20
-10005.790
 30
-1224.000
 70
    32
  0
VERTEX
  8
E65LXLIFT
 62
4
 10
5539.008
 20
-10020.295
 30
-1224.000
 70
    32
  0
VERTEX
  8
E65LXLIFT
 62
4
 10
5538.819
 20
-10032.482
 30
-1224.000
 70
    32
  0
VERTEX
  8
E65LXLIFT
 62
4
 10
5541.595
 20
-10043.067
 30
-1224.000
 70
    32
  0
VERTEX
  8
E65LXLIFT
 62
4
 10
5548.422
 20
-10049.199
 30
-1224.000
 70
    32
  0
VERTEX
  8
E65LXLIFT
 62
4
 10
5551.296
 20
-10044.621
 30
-1224.000
 70
    32
  0
VERTEX
  8
E65LXLIFT
 62
4
 10
5552.438
 20
-10034.350
 30
-1224.000
 70
    32
  0
VERTEX
  8
E65LXLIFT
 62
4
 10
5559.337
 20
-10025.882
 30
-1224.000
 70
    32
  0
VERTEX
  8
E65LXLIFT
 62
4
 10
5564.427
 20
-10025.564
 30
-1224.000
 70
    32
  0
VERTEX
  8
E65LXLIFT
 62
4
 10
5575.525
 20
-10032.947
 30
-1224.000
 70
    32
  0
VERTEX
  8
E65LXLIFT
 62
4
 10
5582.151
 20
-10036.402
 30
-1224.000
 70
    32
  0
VERTEX
  8
E65LXLIFT
 62
4
 10
5589.583
 20
-10037.971
 30
-1224.000
 70
    32
  0
VERTEX
  8
E65LXLIFT
 62
4
 10
5595.094
 20
-10042.884
 30
-1224.000
 70
    32
  0
VERTEX
  8
E65LXLIFT
 62
4
 10
5599.903
 20
-10043.529
 30
-1224.000
 70
    32
  0
SEQEND
  8
E65LXLIFT
  0
POLYLINE
  8
E65LXLIFT
 62
4
 66
     1
 70
     9
  0
VERTEX
  8
E65LXLIFT
 62
4
 10
5527.342
 20
-9871.896
 30
-1215.000
 70
    32
  0
VERTEX
  8
E65LXLIFT
 62
4
 10
5529.659
 20
-9882.620
 30
-1215.000
 70
    32
  0
VERTEX
  8
E65LXLIFT
 62
4
 10
5542.728
 20
-9895.367
 30
-1215.000
 70
    32
  0
VERTEX
  8
E65LXLIFT
 62
4
 10
5552.857
 20
-9899.809
 30
-1215.000
 70
    32
  0
VERTEX
  8
E65LXLIFT
 62
4
 10
5563.342
 20
-9912.601
 30
-1215.000
 70
    32
  0
VERTEX
  8
E65LXLIFT
 62
4
 10
5579.137
 20
-9926.834
 30
-1215.000
 70
    32
  0
VERTEX
  8
E65LXLIFT
 62
4
 10
5589.614
 20
-9935.162
 30
-1215.000
 70
    32
  0
VERTEX
  8
E65LXLIFT
 62
4
 10
5596.670
 20
-9941.207
 30
-1215.000
 70
    32
  0
VERTEX
  8
E65LXLIFT
 62
4
 10
5598.851
 20
-9951.596
 30
-1215.000
 70
    32
  0
VERTEX
  8
E65LXLIFT
 62
4
 10
5601.451
 20
-9962.113
 30
-1215.000
 70
    32
  0
VERTEX
  8
E65LXLIFT
 62
4
 10
5591.636
 20
-9973.682
 30
-1215.000
 70
    32
  0
VERTEX
  8
E65LXLIFT
 62
4
 10
5585.345
 20
-9973.724
 30
-1215.000
 70
    32
  0
VERTEX
  8
E65LXLIFT
 62
4
 10
5578.189
 20
-9967.098
 30
-1215.000
 70
    32
  0
VERTEX
  8
E65LXLIFT
 62
4
 10
5575.438
 20
-9957.565
 30
-1215.000
 70
    32
  0
VERTEX
  8
E65LXLIFT
 62
4
 10
5572.377
 20
-9950.874
 30
-1215.000
 70
    32
  0
VERTEX
  8
E65LXLIFT
 62
4
 10
5566.505
 20
-9954.751
 30
-1215.000
 70
    32
  0
VERTEX
  8
E65LXLIFT
 62
4
 10
5560.518
 20
-9957.731
 30
-1215.000
 70
    32
  0
VERTEX
  8
E65LXLIFT
 62
4
 10
5559.282
 20
-9965.398
 30
-1215.000
 70
    32
  0
VERTEX
  8
E65LXLIFT
 62
4
 10
5565.493
 20
-9978.604
 30
-1215.000
 70
    32
  0
VERTEX
  8
E65LXLIFT
 62
4
 10
5578.965
 20
-10000.211
 30
-1215.000
 70
    32
  0
VERTEX
  8
E65LXLIFT
 62
4
 10
5582.439
 20
-10011.175
 30
-1215.000
 70
    32
  0
VERTEX
  8
E65LXLIFT
 62
4
 10
5577.977
 20
-10018.159
 30
-1215.000
 70
    32
  0
VERTEX
  8
E65LXLIFT
 62
4
 10
5568.614
 20
-10023.073
 30
-1215.000
 70
    32
  0
VERTEX
  8
E65LXLIFT
 62
4
 10
5562.640
 20
-10023.101
 30
-1215.000
 70
    32
  0
VERTEX
  8
E65LXLIFT
 62
4
 10
5551.022
 20
-10030.435
 30
-1215.000
 70
    32
  0
VERTEX
  8
E65LXLIFT
 62
4
 10
5545.590
 20
-10035.951
 30
-1215.000
 70
    32
  0
VERTEX
  8
E65LXLIFT
 62
4
 10
5546.222
 20
-10041.264
 30
-1215.000
 70
    32
  0
VERTEX
  8
E65LXLIFT
 62
4
 10
5534.022
 20
-10047.064
 30
-1215.000
 70
    32
  0
VERTEX
  8
E65LXLIFT
 62
4
 10
5527.587
 20
-10038.600
 30
-1215.000
 70
    32
  0
VERTEX
  8
E65LXLIFT
 62
4
 10
5529.292
 20
-10031.571
 30
-1215.000
 70
    32
  0
VERTEX
  8
E65LXLIFT
 62
4
 10
5530.740
 20
-10022.114
 30
-1215.000
 70
    32
  0
VERTEX
  8
E65LXLIFT
 62
4
 10
5527.180
 20
-10005.544
 30
-1215.000
 70
    32
  0
VERTEX
  8
E65LXLIFT
 62
4
 10
5518.407
 20
-9976.234
 30
-1215.000
 70
    32
  0
VERTEX
  8
E65LXLIFT
 62
4
 10
5513.343
 20
-9967.855
 30
-1215.000
 70
    32
  0
VERTEX
  8
E65LXLIFT
 62
4
 10
5500.597
 20
-9957.922
 30
-1215.000
 70
    32
  0
VERTEX
  8
E65LXLIFT
 62
4
 10
5497.093
 20
-9951.667
 30
-1215.000
 70
    32
  0
VERTEX
  8
E65LXLIFT
 62
4
 10
5505.012
 20
-9943.452
 30
-1215.000
 70
    32
  0
VERTEX
  8
E65LXLIFT
 62
4
 10
5512.025
 20
-9936.230
 30
-1215.000
 70
    32
  0
VERTEX
  8
E65LXLIFT
 62
4
 10
5527.216
 20
-9951.125
 30
-1215.000
 70
    32
  0
VERTEX
  8
E65LXLIFT
 62
4
 10
5535.753
 20
-9947.907
 30
-1215.000
 70
    32
  0
VERTEX
  8
E65LXLIFT
 62
4
 10
5528.721
 20
-9942.934
 30
-1215.000
 70
    32
  0
VERTEX
  8
E65LXLIFT
 62
4
 10
5520.323
 20
-9935.804
 30
-1215.000
 70
    32
  0
VERTEX
  8
E65LXLIFT
 62
4
 10
5512.035
 20
-9924.668
 30
-1215.000
 70
    32
  0
VERTEX
  8
E65LXLIFT
 62
4
 10
5507.484
 20
-9914.167
 30
-1215.000
 70
    32
  0
VERTEX
  8
E65LXLIFT
 62
4
 10
5501.843
 20
-9905.448
 30
-1215.000
 70
    32
  0
VERTEX
  8
E65LXLIFT
 62
4
 10
5492.091
 20
-9900.184
 30
-1215.000
 70
    32
  0
VERTEX
  8
E65LXLIFT
 62
4
 10
5481.635
 20
-9895.001
 30
-1215.000
 70
    32
  0
VERTEX
  8
E65LXLIFT
 62
4
 10
5469.253
 20
-9890.906
 30
-1215.000
 70
    32
  0
VERTEX
  8
E65LXLIFT
 62
4
 10
5458.652
 20
-9887.901
 30
-1215.000
 70
    32
  0
VERTEX
  8
E65LXLIFT
 62
4
 10
5464.828
 20
-9878.351
 30
-1215.000
 70
    32
  0
VERTEX
  8
E65LXLIFT
 62
4
 10
5470.826
 20
-9872.419
 30
-1215.000
 70
    32
  0
VERTEX
  8
E65LXLIFT
 62
4
 10
5480.651
 20
-9873.923
 30
-1215.000
 70
    32
  0
VERTEX
  8
E65LXLIFT
 62
4
 10
5493.899
 20
-9874.003
 30
-1215.000
 70
    32
  0
VERTEX
  8
E65LXLIFT
 62
4
 10
5504.963
 20
-9871.109
 30
-1215.000
 70
    32
  0
VERTEX
  8
E65LXLIFT
 62
4
 10
5511.876
 20
-9868.648
 30
-1215.000
 70
    32
  0
SEQEND
  8
E65LXLIFT
  0
POLYLINE
  8
E65LXLIFT
 62
4
 66
     1
 70
     9
  0
VERTEX
  8
E65LXLIFT
 62
4
 10
5492.802
 20
-9866.378
 30
-1204.000
 70
    32
  0
VERTEX
  8
E65LXLIFT
 62
4
 10
5508.164
 20
-9862.678
 30
-1204.000
 70
    32
  0
VERTEX
  8
E65LXLIFT
 62
4
 10
5521.887
 20
-9861.194
 30
-1204.000
 70
    32
  0
VERTEX
  8
E65LXLIFT
 62
4
 10
5531.102
 20
-9865.722
 30
-1204.000
 70
    32
  0
VERTEX
  8
E65LXLIFT
 62
4
 10
5540.206
 20
-9877.586
 30
-1204.000
 70
    32
  0
VERTEX
  8
E65LXLIFT
 62
4
 10
5544.996
 20
-9894.110
 30
-1204.000
 70
    32
  0
VERTEX
  8
E65LXLIFT
 62
4
 10
5556.611
 20
-9912.116
 30
-1204.000
 70
    32
  0
VERTEX
  8
E65LXLIFT
 62
4
 10
5569.935
 20
-9925.655
 30
-1204.000
 70
    32
  0
VERTEX
  8
E65LXLIFT
 62
4
 10
5585.179
 20
-9938.087
 30
-1204.000
 70
    32
  0
VERTEX
  8
E65LXLIFT
 62
4
 10
5587.322
 20
-9941.537
 30
-1204.000
 70
    32
  0
VERTEX
  8
E65LXLIFT
 62
4
 10
5579.208
 20
-9946.844
 30
-1204.000
 70
    32
  0
VERTEX
  8
E65LXLIFT
 62
4
 10
5567.630
 20
-9950.019
 30
-1204.000
 70
    32
  0
VERTEX
  8
E65LXLIFT
 62
4
 10
5560.399
 20
-9950.488
 30
-1204.000
 70
    32
  0
VERTEX
  8
E65LXLIFT
 62
4
 10
5562.396
 20
-9961.081
 30
-1204.000
 70
    32
  0
VERTEX
  8
E65LXLIFT
 62
4
 10
5565.992
 20
-9974.982
 30
-1204.000
 70
    32
  0
VERTEX
  8
E65LXLIFT
 62
4
 10
5570.893
 20
-9984.609
 30
-1204.000
 70
    32
  0
VERTEX
  8
E65LXLIFT
 62
4
 10
5566.221
 20
-9997.448
 30
-1204.000
 70
    32
  0
VERTEX
  8
E65LXLIFT
 62
4
 10
5558.214
 20
-9999.816
 30
-1204.000
 70
    32
  0
VERTEX
  8
E65LXLIFT
 62
4
 10
5549.981
 20
-9999.828
 30
-1204.000
 70
    32
  0
VERTEX
  8
E65LXLIFT
 62
4
 10
5543.133
 20
-10005.065
 30
-1204.000
 70
    32
  0
VERTEX
  8
E65LXLIFT
 62
4
 10
5538.099
 20
-10008.615
 30
-1204.000
 70
    32
  0
VERTEX
  8
E65LXLIFT
 62
4
 10
5532.281
 20
-10001.432
 30
-1204.000
 70
    32
  0
VERTEX
  8
E65LXLIFT
 62
4
 10
5530.252
 20
-9986.248
 30
-1204.000
 70
    32
  0
VERTEX
  8
E65LXLIFT
 62
4
 10
5527.077
 20
-9975.110
 30
-1204.000
 70
    32
  0
VERTEX
  8
E65LXLIFT
 62
4
 10
5516.684
 20
-9969.155
 30
-1204.000
 70
    32
  0
VERTEX
  8
E65LXLIFT
 62
4
 10
5508.123
 20
-9960.511
 30
-1204.000
 70
    32
  0
VERTEX
  8
E65LXLIFT
 62
4
 10
5501.534
 20
-9950.390
 30
-1204.000
 70
    32
  0
VERTEX
  8
E65LXLIFT
 62
4
 10
5503.427
 20
-9936.335
 30
-1204.000
 70
    32
  0
VERTEX
  8
E65LXLIFT
 62
4
 10
5500.291
 20
-9919.232
 30
-1204.000
 70
    32
  0
VERTEX
  8
E65LXLIFT
 62
4
 10
5497.979
 20
-9906.019
 30
-1204.000
 70
    32
  0
VERTEX
  8
E65LXLIFT
 62
4
 10
5489.305
 20
-9885.042
 30
-1204.000
 70
    32
  0
VERTEX
  8
E65LXLIFT
 62
4
 10
5482.632
 20
-9869.379
 30
-1204.000
 70
    32
  0
VERTEX
  8
E65LXLIFT
 62
4
 10
5484.167
 20
-9862.625
 30
-1204.000
 70
    32
  0
VERTEX
  8
E65LXLIFT
 62
4
 10
5482.024
 20
-9859.175
 30
-1204.000
 70
    32
  0
VERTEX
  8
E65LXLIFT
 62
4
 10
5488.219
 20
-9856.294
 30
-1204.000
 70
    32
  0
SEQEND
  8
E65LXLIFT
  0
POLYLINE
  8
E65LXLIFT
 62
4
 66
     1
 70
     9
  0
VERTEX
  8
E65LXLIFT
 62
4
 10
5471.185
 20
-9862.700
 30
-1193.000
 70
    32
  0
VERTEX
  8
E65LXLIFT
 62
4
 10
5472.750
 20
-9855.274
 30
-1193.000
 70
    32
  0
VERTEX
  8
E65LXLIFT
 62
4
 10
5481.390
 20
-9850.427
 30
-1193.000
 70
    32
  0
VERTEX
  8
E65LXLIFT
 62
4
 10
5491.014
 20
-9847.688
 30
-1193.000
 70
    32
  0
VERTEX
  8
E65LXLIFT
 62
4
 10
5505.338
 20
-9852.936
 30
-1193.000
 70
    32
  0
VERTEX
  8
E65LXLIFT
 62
4
 10
5515.186
 20
-9860.992
 30
-1193.000
 70
    32
  0
VERTEX
  8
E65LXLIFT
 62
4
 10
5521.601
 20
-9876.740
 30
-1193.000
 70
    32
  0
VERTEX
  8
E65LXLIFT
 62
4
 10
5532.527
 20
-9894.972
 30
-1193.000
 70
    32
  0
VERTEX
  8
E65LXLIFT
 62
4
 10
5543.691
 20
-9910.536
 30
-1193.000
 70
    32
  0
VERTEX
  8
E65LXLIFT
 62
4
 10
5549.816
 20
-9919.443
 30
-1193.000
 70
    32
  0
VERTEX
  8
E65LXLIFT
 62
4
 10
5550.519
 20
-9936.292
 30
-1193.000
 70
    32
  0
VERTEX
  8
E65LXLIFT
 62
4
 10
5545.833
 20
-9950.642
 30
-1193.000
 70
    32
  0
VERTEX
  8
E65LXLIFT
 62
4
 10
5540.487
 20
-9962.433
 30
-1193.000
 70
    32
  0
VERTEX
  8
E65LXLIFT
 62
4
 10
5527.450
 20
-9969.597
 30
-1193.000
 70
    32
  0
VERTEX
  8
E65LXLIFT
 62
4
 10
5519.482
 20
-9971.028
 30
-1193.000
 70
    32
  0
VERTEX
  8
E65LXLIFT
 62
4
 10
5508.566
 20
-9957.454
 30
-1193.000
 70
    32
  0
VERTEX
  8
E65LXLIFT
 62
4
 10
5494.274
 20
-9942.962
 30
-1193.000
 70
    32
  0
VERTEX
  8
E65LXLIFT
 62
4
 10
5489.157
 20
-9933.650
 30
-1193.000
 70
    32
  0
VERTEX
  8
E65LXLIFT
 62
4
 10
5484.125
 20
-9913.970
 30
-1193.000
 70
    32
  0
VERTEX
  8
E65LXLIFT
 62
4
 10
5477.623
 20
-9889.714
 30
-1193.000
 70
    32
  0
SEQEND
  8
E65LXLIFT
  0
POLYLINE
  8
E65LXLIFT
 62
4
 66
     1
 70
     9
  0
VERTEX
  8
E65LXLIFT
 62
4
 10
5445.205
 20
-9861.821
 30
-1184.000
 70
    32
  0
VERTEX
  8
E65LXLIFT
 62
4
 10
5457.654
 20
-9870.935
 30
-1184.000
 70
    32
  0
VERTEX
  8
E65LXLIFT
 62
4
 10
5464.899
 20
-9877.954
 30
-1184.000
 70
    32
  0
VERTEX
  8
E65LXLIFT
 62
4
 10
5468.863
 20
-9898.737
 30
-1184.000
 70
    32
  0
VERTEX
  8
E65LXLIFT
 62
4
 10
5471.945
 20
-9908.550
 30
-1184.000
 70
    32
  0
VERTEX
  8
E65LXLIFT
 62
4
 10
5479.114
 20
-9919.963
 30
-1184.000
 70
    32
  0
VERTEX
  8
E65LXLIFT
 62
4
 10
5481.259
 20
-9937.180
 30
-1184.000
 70
    32
  0
VERTEX
  8
E65LXLIFT
 62
4
 10
5483.505
 20
-9945.537
 30
-1184.000
 70
    32
  0
VERTEX
  8
E65LXLIFT
 62
4
 10
5490.705
 20
-9950.093
 30
-1184.000
 70
    32
  0
VERTEX
  8
E65LXLIFT
 62
4
 10
5495.441
 20
-9957.842
 30
-1184.000
 70
    32
  0
VERTEX
  8
E65LXLIFT
 62
4
 10
5500.911
 20
-9961.806
 30
-1184.000
 70
    32
  0
VERTEX
  8
E65LXLIFT
 62
4
 10
5508.853
 20
-9962.138
 30
-1184.000
 70
    32
  0
VERTEX
  8
E65LXLIFT
 62
4
 10
5524.960
 20
-9957.108
 30
-1184.000
 70
    32
  0
VERTEX
  8
E65LXLIFT
 62
4
 10
5540.503
 20
-9950.098
 30
-1184.000
 70
    32
  0
VERTEX
  8
E65LXLIFT
 62
4
 10
5544.497
 20
-9935.819
 30
-1184.000
 70
    32
  0
VERTEX
  8
E65LXLIFT
 62
4
 10
5541.646
 20
-9928.877
 30
-1184.000
 70
    32
  0
VERTEX
  8
E65LXLIFT
 62
4
 10
5539.763
 20
-9917.872
 30
-1184.000
 70
    32
  0
VERTEX
  8
E65LXLIFT
 62
4
 10
5528.736
 20
-9910.875
 30
-1184.000
 70
    32
  0
VERTEX
  8
E65LXLIFT
 62
4
 10
5527.631
 20
-9903.646
 30
-1184.000
 70
    32
  0
VERTEX
  8
E65LXLIFT
 62
4
 10
5532.366
 20
-9897.293
 30
-1184.000
 70
    32
  0
VERTEX
  8
E65LXLIFT
 62
4
 10
5529.141
 20
-9885.631
 30
-1184.000
 70
    32
  0
VERTEX
  8
E65LXLIFT
 62
4
 10
5530.922
 20
-9872.193
 30
-1184.000
 70
    32
  0
VERTEX
  8
E65LXLIFT
 62
4
 10
5520.791
 20
-9859.233
 30
-1184.000
 70
    32
  0
VERTEX
  8
E65LXLIFT
 62
4
 10
5501.598
 20
-9841.544
 30
-1184.000
 70
    32
  0
VERTEX
  8
E65LXLIFT
 62
4
 10
5494.587
 20
-9836.199
 30
-1184.000
 70
    32
  0
VERTEX
  8
E65LXLIFT
 62
4
 10
5481.817
 20
-9833.392
 30
-1184.000
 70
    32
  0
VERTEX
  8
E65LXLIFT
 62
4
 10
5469.383
 20
-9835.549
 30
-1184.000
 70
    32
  0
VERTEX
  8
E65LXLIFT
 62
4
 10
5459.238
 20
-9839.523
 30
-1184.000
 70
    32
  0
VERTEX
  8
E65LXLIFT
 62
4
 10
5453.483
 20
-9847.915
 30
-1184.000
 70
    32
  0
SEQEND
  8
E65LXLIFT
  0
POLYLINE
  8
E65LXLIFT
 62
4
 66
     1
 70
     9
  0
VERTEX
  8
E65LXLIFT
 62
4
 10
5457.561
 20
-9913.798
 30
-1174.000
 70
    32
  0
VERTEX
  8
E65LXLIFT
 62
4
 10
5460.298
 20
-9920.752
 30
-1174.000
 70
    32
  0
VERTEX
  8
E65LXLIFT
 62
4
 10
5468.018
 20
-9933.107
 30
-1174.000
 70
    32
  0
VERTEX
  8
E65LXLIFT
 62
4
 10
5478.913
 20
-9944.427
 30
-1174.000
 70
    32
  0
VERTEX
  8
E65LXLIFT
 62
4
 10
5491.778
 20
-9956.040
 30
-1174.000
 70
    32
  0
VERTEX
  8
E65LXLIFT
 62
4
 10
5503.813
 20
-9962.684
 30
-1174.000
 70
    32
  0
VERTEX
  8
E65LXLIFT
 62
4
 10
5517.360
 20
-9961.310
 30
-1174.000
 70
    32
  0
VERTEX
  8
E65LXLIFT
 62
4
 10
5532.346
 20
-9952.410
 30
-1174.000
 70
    32
  0
VERTEX
  8
E65LXLIFT
 62
4
 10
5539.839
 20
-9945.222
 30
-1174.000
 70
    32
  0
VERTEX
  8
E65LXLIFT
 62
4
 10
5542.727
 20
-9936.843
 30
-1174.000
 70
    32
  0
VERTEX
  8
E65LXLIFT
 62
4
 10
5535.037
 20
-9928.079
 30
-1174.000
 70
    32
  0
VERTEX
  8
E65LXLIFT
 62
4
 10
5531.997
 20
-9924.415
 30
-1174.000
 70
    32
  0
VERTEX
  8
E65LXLIFT
 62
4
 10
5526.457
 20
-9907.162
 30
-1174.000
 70
    32
  0
VERTEX
  8
E65LXLIFT
 62
4
 10
5524.771
 20
-9887.275
 30
-1174.000
 70
    32
  0
VERTEX
  8
E65LXLIFT
 62
4
 10
5527.759
 20
-9876.960
 30
-1174.000
 70
    32
  0
VERTEX
  8
E65LXLIFT
 62
4
 10
5533.001
 20
-9866.730
 30
-1174.000
 70
    32
  0
VERTEX
  8
E65LXLIFT
 62
4
 10
5530.531
 20
-9859.250
 30
-1174.000
 70
    32
  0
VERTEX
  8
E65LXLIFT
 62
4
 10
5520.128
 20
-9848.004
 30
-1174.000
 70
    32
  0
VERTEX
  8
E65LXLIFT
 62
4
 10
5511.323
 20
-9837.437
 30
-1174.000
 70
    32
  0
VERTEX
  8
E65LXLIFT
 62
4
 10
5503.918
 20
-9830.982
 30
-1174.000
 70
    32
  0
VERTEX
  8
E65LXLIFT
 62
4
 10
5495.772
 20
-9827.373
 30
-1174.000
 70
    32
  0
VERTEX
  8
E65LXLIFT
 62
4
 10
5484.444
 20
-9823.164
 30
-1174.000
 70
    32
  0
VERTEX
  8
E65LXLIFT
 62
4
 10
5475.663
 20
-9822.544
 30
-1174.000
 70
    32
  0
VERTEX
  8
E65LXLIFT
 62
4
 10
5466.532
 20
-9824.264
 30
-1174.000
 70
    32
  0
VERTEX
  8
E65LXLIFT
 62
4
 10
5456.506
 20
-9825.661
 30
-1174.000
 70
    32
  0
VERTEX
  8
E65LXLIFT
 62
4
 10
5450.149
 20
-9823.137
 30
-1174.000
 70
    32
  0
VERTEX
  8
E65LXLIFT
 62
4
 10
5445.254
 20
-9820.518
 30
-1174.000
 70
    32
  0
VERTEX
  8
E65LXLIFT
 62
4
 10
5443.736
 20
-9829.417
 30
-1174.000
 70
    32
  0
VERTEX
  8
E65LXLIFT
 62
4
 10
5447.451
 20
-9840.355
 30
-1174.000
 70
    32
  0
VERTEX
  8
E65LXLIFT
 62
4
 10
5452.842
 20
-9853.559
 30
-1174.000
 70
    32
  0
VERTEX
  8
E65LXLIFT
 62
4
 10
5461.725
 20
-9865.710
 30
-1174.000
 70
    32
  0
VERTEX
  8
E65LXLIFT
 62
4
 10
5464.082
 20
-9876.887
 30
-1174.000
 70
    32
  0
VERTEX
  8
E65LXLIFT
 62
4
 10
5465.065
 20
-9888.424
 30
-1174.000
 70
    32
  0
VERTEX
  8
E65LXLIFT
 62
4
 10
5466.889
 20
-9897.696
 30
-1174.000
 70
    32
  0
VERTEX
  8
E65LXLIFT
 62
4
 10
5466.778
 20
-9906.868
 30
-1174.000
 70
    32
  0
VERTEX
  8
E65LXLIFT
 62
4
 10
5463.299
 20
-9911.194
 30
-1174.000
 70
    32
  0
SEQEND
  8
E65LXLIFT
  0
POLYLINE
  8
E65LXLIFT
 62
4
 66
     1
 70
     9
  0
VERTEX
  8
E65LXLIFT
 62
4
 10
5420.708
 20
-9910.594
 30
-1161.000
 70
    32
  0
VERTEX
  8
E65LXLIFT
 62
4
 10
5443.563
 20
-9922.866
 30
-1161.000
 70
    32
  0
VERTEX
  8
E65LXLIFT
 62
4
 10
5452.831
 20
-9930.149
 30
-1161.000
 70
    32
  0
VERTEX
  8
E65LXLIFT
 62
4
 10
5456.359
 20
-9937.492
 30
-1161.000
 70
    32
  0
VERTEX
  8
E65LXLIFT
 62
4
 10
5467.142
 20
-9934.934
 30
-1161.000
 70
    32
  0
VERTEX
  8
E65LXLIFT
 62
4
 10
5479.722
 20
-9940.335
 30
-1161.000
 70
    32
  0
VERTEX
  8
E65LXLIFT
 62
4
 10
5489.751
 20
-9947.169
 30
-1161.000
 70
    32
  0
VERTEX
  8
E65LXLIFT
 62
4
 10
5495.972
 20
-9952.975
 30
-1161.000
 70
    32
  0
VERTEX
  8
E65LXLIFT
 62
4
 10
5508.817
 20
-9955.016
 30
-1161.000
 70
    32
  0
VERTEX
  8
E65LXLIFT
 62
4
 10
5518.478
 20
-9953.608
 30
-1161.000
 70
    32
  0
VERTEX
  8
E65LXLIFT
 62
4
 10
5528.519
 20
-9946.465
 30
-1161.000
 70
    32
  0
VERTEX
  8
E65LXLIFT
 62
4
 10
5535.239
 20
-9938.811
 30
-1161.000
 70
    32
  0
VERTEX
  8
E65LXLIFT
 62
4
 10
5535.179
 20
-9931.435
 30
-1161.000
 70
    32
  0
VERTEX
  8
E65LXLIFT
 62
4
 10
5531.906
 20
-9924.886
 30
-1161.000
 70
    32
  0
VERTEX
  8
E65LXLIFT
 62
4
 10
5523.617
 20
-9919.832
 30
-1161.000
 70
    32
  0
VERTEX
  8
E65LXLIFT
 62
4
 10
5510.432
 20
-9916.731
 30
-1161.000
 70
    32
  0
VERTEX
  8
E65LXLIFT
 62
4
 10
5503.842
 20
-9912.505
 30
-1161.000
 70
    32
  0
VERTEX
  8
E65LXLIFT
 62
4
 10
5497.408
 20
-9905.217
 30
-1161.000
 70
    32
  0
VERTEX
  8
E65LXLIFT
 62
4
 10
5489.210
 20
-9901.625
 30
-1161.000
 70
    32
  0
VERTEX
  8
E65LXLIFT
 62
4
 10
5482.340
 20
-9897.167
 30
-1161.000
 70
    32
  0
VERTEX
  8
E65LXLIFT
 62
4
 10
5476.395
 20
-9883.847
 30
-1161.000
 70
    32
  0
VERTEX
  8
E65LXLIFT
 62
4
 10
5471.046
 20
-9872.382
 30
-1161.000
 70
    32
  0
VERTEX
  8
E65LXLIFT
 62
4
 10
5467.552
 20
-9858.685
 30
-1161.000
 70
    32
  0
VERTEX
  8
E65LXLIFT
 62
4
 10
5469.522
 20
-9849.166
 30
-1161.000
 70
    32
  0
VERTEX
  8
E65LXLIFT
 62
4
 10
5477.632
 20
-9844.748
 30
-1161.000
 70
    32
  0
VERTEX
  8
E65LXLIFT
 62
4
 10
5490.042
 20
-9843.070
 30
-1161.000
 70
    32
  0
VERTEX
  8
E65LXLIFT
 62
4
 10
5495.644
 20
-9845.948
 30
-1161.000
 70
    32
  0
VERTEX
  8
E65LXLIFT
 62
4
 10
5500.435
 20
-9855.312
 30
-1161.000
 70
    32
  0
VERTEX
  8
E65LXLIFT
 62
4
 10
5509.787
 20
-9866.134
 30
-1161.000
 70
    32
  0
VERTEX
  8
E65LXLIFT
 62
4
 10
5514.778
 20
-9870.114
 30
-1161.000
 70
    32
  0
VERTEX
  8
E65LXLIFT
 62
4
 10
5522.306
 20
-9865.795
 30
-1161.000
 70
    32
  0
VERTEX
  8
E65LXLIFT
 62
4
 10
5527.819
 20
-9857.389
 30
-1161.000
 70
    32
  0
VERTEX
  8
E65LXLIFT
 62
4
 10
5521.107
 20
-9846.595
 30
-1161.000
 70
    32
  0
VERTEX
  8
E65LXLIFT
 62
4
 10
5513.231
 20
-9837.638
 30
-1161.000
 70
    32
  0
VERTEX
  8
E65LXLIFT
 62
4
 10
5506.315
 20
-9829.395
 30
-1161.000
 70
    32
  0
VERTEX
  8
E65LXLIFT
 62
4
 10
5494.753
 20
-9822.703
 30
-1161.000
 70
    32
  0
VERTEX
  8
E65LXLIFT
 62
4
 10
5487.965
 20
-9814.039
 30
-1161.000
 70
    32
  0
VERTEX
  8
E65LXLIFT
 62
4
 10
5485.189
 20
-9807.126
 30
-1161.000
 70
    32
  0
VERTEX
  8
E65LXLIFT
 62
4
 10
5474.841
 20
-9810.129
 30
-1161.000
 70
    32
  0
VERTEX
  8
E65LXLIFT
 62
4
 10
5460.964
 20
-9812.336
 30
-1161.000
 70
    32
  0
VERTEX
  8
E65LXLIFT
 62
4
 10
5447.953
 20
-9810.962
 30
-1161.000
 70
    32
  0
VERTEX
  8
E65LXLIFT
 62
4
 10
5434.039
 20
-9805.230
 30
-1161.000
 70
    32
  0
VERTEX
  8
E65LXLIFT
 62
4
 10
5418.077
 20
-9796.853
 30
-1161.000
 70
    32
  0
VERTEX
  8
E65LXLIFT
 62
4
 10
5407.967
 20
-9789.314
 30
-1161.000
 70
    32
  0
VERTEX
  8
E65LXLIFT
 62
4
 10
5398.704
 20
-9786.502
 30
-1161.000
 70
    32
  0
VERTEX
  8
E65LXLIFT
 62
4
 10
5387.926
 20
-9783.709
 30
-1161.000
 70
    32
  0
VERTEX
  8
E65LXLIFT
 62
4
 10
5378.166
 20
-9784.536
 30
-1161.000
 70
    32
  0
VERTEX
  8
E65LXLIFT
 62
4
 10
5372.786
 20
-9787.170
 30
-1161.000
 70
    32
  0
VERTEX
  8
E65LXLIFT
 62
4
 10
5372.860
 20
-9793.226
 30
-1161.000
 70
    32
  0
VERTEX
  8
E65LXLIFT
 62
4
 10
5380.666
 20
-9800.599
 30
-1161.000
 70
    32
  0
VERTEX
  8
E65LXLIFT
 62
4
 10
5387.048
 20
-9806.178
 30
-1161.000
 70
    32
  0
VERTEX
  8
E65LXLIFT
 62
4
 10
5397.594
 20
-9805.976
 30
-1161.000
 70
    32
  0
VERTEX
  8
E65LXLIFT
 62
4
 10
5404.619
 20
-9807.373
 30
-1161.000
 70
    32
  0
VERTEX
  8
E65LXLIFT
 62
4
 10
5419.461
 20
-9813.626
 30
-1161.000
 70
    32
  0
VERTEX
  8
E65LXLIFT
 62
4
 10
5430.290
 20
-9818.127
 30
-1161.000
 70
    32
  0
VERTEX
  8
E65LXLIFT
 62
4
 10
5440.130
 20
-9824.553
 30
-1161.000
 70
    32
  0
VERTEX
  8
E65LXLIFT
 62
4
 10
5444.292
 20
-9830.232
 30
-1161.000
 70
    32
  0
VERTEX
  8
E65LXLIFT
 62
4
 10
5445.658
 20
-9842.216
 30
-1161.000
 70
    32
  0
VERTEX
  8
E65LXLIFT
 62
4
 10
5447.775
 20
-9856.269
 30
-1161.000
 70
    32
  0
VERTEX
  8
E65LXLIFT
 62
4
 10
5449.283
 20
-9868.149
 30
-1161.000
 70
    32
  0
VERTEX
  8
E65LXLIFT
 62
4
 10
5452.905
 20
-9881.426
 30
-1161.000
 70
    32
  0
VERTEX
  8
E65LXLIFT
 62
4
 10
5458.130
 20
-9897.783
 30
-1161.000
 70
    32
  0
VERTEX
  8
E65LXLIFT
 62
4
 10
5462.737
 20
-9909.574
 30
-1161.000
 70
    32
  0
VERTEX
  8
E65LXLIFT
 62
4
 10
5464.231
 20
-9912.952
 30
-1161.000
 70
    32
  0
VERTEX
  8
E65LXLIFT
 62
4
 10
5455.909
 20
-9912.615
 30
-1161.000
 70
    32
  0
VERTEX
  8
E65LXLIFT
 62
4
 10
5448.396
 20
-9907.428
 30
-1161.000
 70
    32
  0
VERTEX
  8
E65LXLIFT
 62
4
 10
5438.580
 20
-9902.076
 30
-1161.000
 70
    32
  0
VERTEX
  8
E65LXLIFT
 62
4
 10
5424.170
 20
-9893.434
 30
-1161.000
 70
    32
  0
VERTEX
  8
E65LXLIFT
 62
4
 10
5416.869
 20
-9891.365
 30
-1161.000
 70
    32
  0
VERTEX
  8
E65LXLIFT
 62
4
 10
5413.897
 20
-9895.945
 30
-1161.000
 70
    32
  0
VERTEX
  8
E65LXLIFT
 62
4
 10
5416.518
 20
-9901.008
 30
-1161.000
 70
    32
  0
SEQEND
  8
E65LXLIFT
  0
POLYLINE
  8
E65LXLIFT
 62
4
 66
     1
 70
     9
  0
VERTEX
  8
E65LXLIFT
 62
4
 10
5413.165
 20
-9905.059
 30
-1151.000
 70
    32
  0
VERTEX
  8
E65LXLIFT
 62
4
 10
5412.210
 20
-9897.676
 30
-1151.000
 70
    32
  0
VERTEX
  8
E65LXLIFT
 62
4
 10
5403.890
 20
-9883.259
 30
-1151.000
 70
    32
  0
VERTEX
  8
E65LXLIFT
 62
4
 10
5399.294
 20
-9879.540
 30
-1151.000
 70
    32
  0
VERTEX
  8
E65LXLIFT
 62
4
 10
5394.479
 20
-9874.781
 30
-1151.000
 70
    32
  0
VERTEX
  8
E65LXLIFT
 62
4
 10
5401.818
 20
-9870.799
 30
-1151.000
 70
    32
  0
VERTEX
  8
E65LXLIFT
 62
4
 10
5410.793
 20
-9868.890
 30
-1151.000
 70
    32
  0
VERTEX
  8
E65LXLIFT
 62
4
 10
5421.037
 20
-9882.655
 30
-1151.000
 70
    32
  0
VERTEX
  8
E65LXLIFT
 62
4
 10
5431.904
 20
-9893.557
 30
-1151.000
 70
    32
  0
VERTEX
  8
E65LXLIFT
 62
4
 10
5448.353
 20
-9904.174
 30
-1151.000
 70
    32
  0
VERTEX
  8
E65LXLIFT
 62
4
 10
5461.154
 20
-9909.391
 30
-1151.000
 70
    32
  0
VERTEX
  8
E65LXLIFT
 62
4
 10
5462.671
 20
-9901.063
 30
-1151.000
 70
    32
  0
VERTEX
  8
E65LXLIFT
 62
4
 10
5459.600
 20
-9888.136
 30
-1151.000
 70
    32
  0
VERTEX
  8
E65LXLIFT
 62
4
 10
5454.678
 20
-9879.521
 30
-1151.000
 70
    32
  0
VERTEX
  8
E65LXLIFT
 62
4
 10
5449.496
 20
-9870.553
 30
-1151.000
 70
    32
  0
VERTEX
  8
E65LXLIFT
 62
4
 10
5448.477
 20
-9862.343
 30
-1151.000
 70
    32
  0
VERTEX
  8
E65LXLIFT
 62
4
 10
5440.713
 20
-9838.885
 30
-1151.000
 70
    32
  0
VERTEX
  8
E65LXLIFT
 62
4
 10
5435.078
 20
-9825.442
 30
-1151.000
 70
    32
  0
VERTEX
  8
E65LXLIFT
 62
4
 10
5423.189
 20
-9814.637
 30
-1151.000
 70
    32
  0
VERTEX
  8
E65LXLIFT
 62
4
 10
5410.399
 20
-9808.100
 30
-1151.000
 70
    32
  0
VERTEX
  8
E65LXLIFT
 62
4
 10
5399.939
 20
-9804.874
 30
-1151.000
 70
    32
  0
VERTEX
  8
E65LXLIFT
 62
4
 10
5390.497
 20
-9799.916
 30
-1151.000
 70
    32
  0
VERTEX
  8
E65LXLIFT
 62
4
 10
5383.147
 20
-9795.275
 30
-1151.000
 70
    32
  0
VERTEX
  8
E65LXLIFT
 62
4
 10
5383.731
 20
-9788.944
 30
-1151.000
 70
    32
  0
VERTEX
  8
E65LXLIFT
 62
4
 10
5391.295
 20
-9781.409
 30
-1151.000
 70
    32
  0
VERTEX
  8
E65LXLIFT
 62
4
 10
5402.360
 20
-9783.971
 30
-1151.000
 70
    32
  0
VERTEX
  8
E65LXLIFT
 62
4
 10
5414.706
 20
-9788.867
 30
-1151.000
 70
    32
  0
VERTEX
  8
E65LXLIFT
 62
4
 10
5432.062
 20
-9794.336
 30
-1151.000
 70
    32
  0
VERTEX
  8
E65LXLIFT
 62
4
 10
5440.770
 20
-9788.799
 30
-1151.000
 70
    32
  0
VERTEX
  8
E65LXLIFT
 62
4
 10
5449.605
 20
-9790.708
 30
-1151.000
 70
    32
  0
VERTEX
  8
E65LXLIFT
 62
4
 10
5454.351
 20
-9801.309
 30
-1151.000
 70
    32
  0
VERTEX
  8
E65LXLIFT
 62
4
 10
5457.256
 20
-9809.114
 30
-1151.000
 70
    32
  0
VERTEX
  8
E65LXLIFT
 62
4
 10
5455.128
 20
-9816.909
 30
-1151.000
 70
    32
  0
VERTEX
  8
E65LXLIFT
 62
4
 10
5458.784
 20
-9829.295
 30
-1151.000
 70
    32
  0
VERTEX
  8
E65LXLIFT
 62
4
 10
5465.220
 20
-9837.888
 30
-1151.000
 70
    32
  0
VERTEX
  8
E65LXLIFT
 62
4
 10
5471.001
 20
-9850.786
 30
-1151.000
 70
    32
  0
VERTEX
  8
E65LXLIFT
 62
4
 10
5475.296
 20
-9868.494
 30
-1151.000
 70
    32
  0
VERTEX
  8
E65LXLIFT
 62
4
 10
5477.260
 20
-9881.253
 30
-1151.000
 70
    32
  0
VERTEX
  8
E65LXLIFT
 62
4
 10
5479.395
 20
-9892.464
 30
-1151.000
 70
    32
  0
VERTEX
  8
E65LXLIFT
 62
4
 10
5493.335
 20
-9902.197
 30
-1151.000
 70
    32
  0
VERTEX
  8
E65LXLIFT
 62
4
 10
5507.609
 20
-9915.945
 30
-1151.000
 70
    32
  0
VERTEX
  8
E65LXLIFT
 62
4
 10
5517.242
 20
-9919.234
 30
-1151.000
 70
    32
  0
VERTEX
  8
E65LXLIFT
 62
4
 10
5524.907
 20
-9918.070
 30
-1151.000
 70
    32
  0
VERTEX
  8
E65LXLIFT
 62
4
 10
5529.487
 20
-9923.548
 30
-1151.000
 70
    32
  0
VERTEX
  8
E65LXLIFT
 62
4
 10
5537.306
 20
-9930.904
 30
-1151.000
 70
    32
  0
VERTEX
  8
E65LXLIFT
 62
4
 10
5531.457
 20
-9939.581
 30
-1151.000
 70
    32
  0
VERTEX
  8
E65LXLIFT
 62
4
 10
5522.822
 20
-9948.779
 30
-1151.000
 70
    32
  0
VERTEX
  8
E65LXLIFT
 62
4
 10
5515.140
 20
-9953.779
 30
-1151.000
 70
    32
  0
VERTEX
  8
E65LXLIFT
 62
4
 10
5503.654
 20
-9951.090
 30
-1151.000
 70
    32
  0
VERTEX
  8
E65LXLIFT
 62
4
 10
5493.553
 20
-9945.087
 30
-1151.000
 70
    32
  0
VERTEX
  8
E65LXLIFT
 62
4
 10
5479.680
 20
-9935.742
 30
-1151.000
 70
    32
  0
VERTEX
  8
E65LXLIFT
 62
4
 10
5470.346
 20
-9932.562
 30
-1151.000
 70
    32
  0
VERTEX
  8
E65LXLIFT
 62
4
 10
5462.419
 20
-9933.372
 30
-1151.000
 70
    32
  0
VERTEX
  8
E65LXLIFT
 62
4
 10
5449.990
 20
-9931.924
 30
-1151.000
 70
    32
  0
VERTEX
  8
E65LXLIFT
 62
4
 10
5439.537
 20
-9927.819
 30
-1151.000
 70
    32
  0
VERTEX
  8
E65LXLIFT
 62
4
 10
5426.212
 20
-9918.180
 30
-1151.000
 70
    32
  0
SEQEND
  8
E65LXLIFT
  0
POLYLINE
  8
E65LXLIFT
 62
4
 66
     1
 70
     9
  0
VERTEX
  8
E65LXLIFT
 62
4
 10
5416.904
 20
-9877.048
 30
-1136.000
 70
    32
  0
VERTEX
  8
E65LXLIFT
 62
4
 10
5411.739
 20
-9871.883
 30
-1136.000
 70
    32
  0
VERTEX
  8
E65LXLIFT
 62
4
 10
5402.537
 20
-9870.739
 30
-1136.000
 70
    32
  0
VERTEX
  8
E65LXLIFT
 62
4
 10
5397.250
 20
-9874.687
 30
-1136.000
 70
    32
  0
VERTEX
  8
E65LXLIFT
 62
4
 10
5397.655
 20
-9879.285
 30
-1136.000
 70
    32
  0
VERTEX
  8
E65LXLIFT
 62
4
 10
5405.908
 20
-9887.207
 30
-1136.000
 70
    32
  0
VERTEX
  8
E65LXLIFT
 62
4
 10
5411.317
 20
-9894.804
 30
-1136.000
 70
    32
  0
VERTEX
  8
E65LXLIFT
 62
4
 10
5412.236
 20
-9902.507
 30
-1136.000
 70
    32
  0
VERTEX
  8
E65LXLIFT
 62
4
 10
5410.272
 20
-9908.935
 30
-1136.000
 70
    32
  0
VERTEX
  8
E65LXLIFT
 62
4
 10
5417.111
 20
-9915.058
 30
-1136.000
 70
    32
  0
VERTEX
  8
E65LXLIFT
 62
4
 10
5426.368
 20
-9921.816
 30
-1136.000
 70
    32
  0
VERTEX
  8
E65LXLIFT
 62
4
 10
5427.548
 20
-9926.286
 30
-1136.000
 70
    32
  0
VERTEX
  8
E65LXLIFT
 62
4
 10
5431.533
 20
-9934.916
 30
-1136.000
 70
    32
  0
VERTEX
  8
E65LXLIFT
 62
4
 10
5440.766
 20
-9938.648
 30
-1136.000
 70
    32
  0
VERTEX
  8
E65LXLIFT
 62
4
 10
5449.270
 20
-9939.430
 30
-1136.000
 70
    32
  0
VERTEX
  8
E65LXLIFT
 62
4
 10
5457.390
 20
-9935.490
 30
-1136.000
 70
    32
  0
VERTEX
  8
E65LXLIFT
 62
4
 10
5465.870
 20
-9934.441
 30
-1136.000
 70
    32
  0
VERTEX
  8
E65LXLIFT
 62
4
 10
5476.261
 20
-9937.223
 30
-1136.000
 70
    32
  0
VERTEX
  8
E65LXLIFT
 62
4
 10
5485.126
 20
-9939.699
 30
-1136.000
 70
    32
  0
VERTEX
  8
E65LXLIFT
 62
4
 10
5494.390
 20
-9946.018
 30
-1136.000
 70
    32
  0
VERTEX
  8
E65LXLIFT
 62
4
 10
5500.151
 20
-9949.010
 30
-1136.000
 70
    32
  0
VERTEX
  8
E65LXLIFT
 62
4
 10
5509.065
 20
-9955.147
 30
-1136.000
 70
    32
  0
VERTEX
  8
E65LXLIFT
 62
4
 10
5515.581
 20
-9960.526
 30
-1136.000
 70
    32
  0
VERTEX
  8
E65LXLIFT
 62
4
 10
5523.763
 20
-9959.367
 30
-1136.000
 70
    32
  0
VERTEX
  8
E65LXLIFT
 62
4
 10
5526.197
 20
-9956.730
 30
-1136.000
 70
    32
  0
VERTEX
  8
E65LXLIFT
 62
4
 10
5524.752
 20
-9951.148
 30
-1136.000
 70
    32
  0
VERTEX
  8
E65LXLIFT
 62
4
 10
5523.657
 20
-9944.550
 30
-1136.000
 70
    32
  0
VERTEX
  8
E65LXLIFT
 62
4
 10
5531.693
 20
-9939.149
 30
-1136.000
 70
    32
  0
VERTEX
  8
E65LXLIFT
 62
4
 10
5536.204
 20
-9934.133
 30
-1136.000
 70
    32
  0
VERTEX
  8
E65LXLIFT
 62
4
 10
5534.314
 20
-9926.590
 30
-1136.000
 70
    32
  0
VERTEX
  8
E65LXLIFT
 62
4
 10
5524.365
 20
-9920.226
 30
-1136.000
 70
    32
  0
VERTEX
  8
E65LXLIFT
 62
4
 10
5512.831
 20
-9915.122
 30
-1136.000
 70
    32
  0
VERTEX
  8
E65LXLIFT
 62
4
 10
5500.881
 20
-9910.645
 30
-1136.000
 70
    32
  0
VERTEX
  8
E65LXLIFT
 62
4
 10
5490.959
 20
-9902.521
 30
-1136.000
 70
    32
  0
VERTEX
  8
E65LXLIFT
 62
4
 10
5481.800
 20
-9893.952
 30
-1136.000
 70
    32
  0
VERTEX
  8
E65LXLIFT
 62
4
 10
5476.453
 20
-9882.398
 30
-1136.000
 70
    32
  0
VERTEX
  8
E65LXLIFT
 62
4
 10
5474.526
 20
-9863.576
 30
-1136.000
 70
    32
  0
VERTEX
  8
E65LXLIFT
 62
4
 10
5476.061
 20
-9850.719
 30
-1136.000
 70
    32
  0
VERTEX
  8
E65LXLIFT
 62
4
 10
5471.855
 20
-9833.552
 30
-1136.000
 70
    32
  0
VERTEX
  8
E65LXLIFT
 62
4
 10
5463.477
 20
-9817.675
 30
-1136.000
 70
    32
  0
VERTEX
  8
E65LXLIFT
 62
4
 10
5457.432
 20
-9805.757
 30
-1136.000
 70
    32
  0
VERTEX
  8
E65LXLIFT
 62
4
 10
5453.085
 20
-9797.825
 30
-1136.000
 70
    32
  0
VERTEX
  8
E65LXLIFT
 62
4
 10
5454.296
 20
-9785.421
 30
-1136.000
 70
    32
  0
VERTEX
  8
E65LXLIFT
 62
4
 10
5452.787
 20
-9778.254
 30
-1136.000
 70
    32
  0
VERTEX
  8
E65LXLIFT
 62
4
 10
5445.314
 20
-9773.353
 30
-1136.000
 70
    32
  0
VERTEX
  8
E65LXLIFT
 62
4
 10
5430.852
 20
-9774.398
 30
-1136.000
 70
    32
  0
VERTEX
  8
E65LXLIFT
 62
4
 10
5422.247
 20
-9779.016
 30
-1136.000
 70
    32
  0
VERTEX
  8
E65LXLIFT
 62
4
 10
5417.715
 20
-9785.351
 30
-1136.000
 70
    32
  0
VERTEX
  8
E65LXLIFT
 62
4
 10
5415.203
 20
-9789.676
 30
-1136.000
 70
    32
  0
VERTEX
  8
E65LXLIFT
 62
4
 10
5409.034
 20
-9788.068
 30
-1136.000
 70
    32
  0
VERTEX
  8
E65LXLIFT
 62
4
 10
5396.433
 20
-9782.543
 30
-1136.000
 70
    32
  0
VERTEX
  8
E65LXLIFT
 62
4
 10
5384.559
 20
-9781.164
 30
-1136.000
 70
    32
  0
VERTEX
  8
E65LXLIFT
 62
4
 10
5381.310
 20
-9784.176
 30
-1136.000
 70
    32
  0
VERTEX
  8
E65LXLIFT
 62
4
 10
5383.734
 20
-9795.896
 30
-1136.000
 70
    32
  0
VERTEX
  8
E65LXLIFT
 62
4
 10
5393.269
 20
-9802.888
 30
-1136.000
 70
    32
  0
VERTEX
  8
E65LXLIFT
 62
4
 10
5406.000
 20
-9809.189
 30
-1136.000
 70
    32
  0
VERTEX
  8
E65LXLIFT
 62
4
 10
5416.365
 20
-9812.533
 30
-1136.000
 70
    32
  0
VERTEX
  8
E65LXLIFT
 62
4
 10
5427.161
 20
-9818.717
 30
-1136.000
 70
    32
  0
VERTEX
  8
E65LXLIFT
 62
4
 10
5430.982
 20
-9831.163
 30
-1136.000
 70
    32
  0
VERTEX
  8
E65LXLIFT
 62
4
 10
5431.612
 20
-9846.253
 30
-1136.000
 70
    32
  0
VERTEX
  8
E65LXLIFT
 62
4
 10
5435.133
 20
-9862.178
 30
-1136.000
 70
    32
  0
VERTEX
  8
E65LXLIFT
 62
4
 10
5441.066
 20
-9876.786
 30
-1136.000
 70
    32
  0
VERTEX
  8
E65LXLIFT
 62
4
 10
5449.202
 20
-9887.838
 30
-1136.000
 70
    32
  0
VERTEX
  8
E65LXLIFT
 62
4
 10
5458.386
 20
-9897.041
 30
-1136.000
 70
    32
  0
VERTEX
  8
E65LXLIFT
 62
4
 10
5463.808
 20
-9903.758
 30
-1136.000
 70
    32
  0
VERTEX
  8
E65LXLIFT
 62
4
 10
5460.260
 20
-9909.052
 30
-1136.000
 70
    32
  0
VERTEX
  8
E65LXLIFT
 62
4
 10
5449.409
 20
-9906.387
 30
-1136.000
 70
    32
  0
VERTEX
  8
E65LXLIFT
 62
4
 10
5437.055
 20
-9898.508
 30
-1136.000
 70
    32
  0
SEQEND
  8
E65LXLIFT
  0
POLYLINE
  8
E65LXLIFT
 62
13
 66
     1
 70
     9
  0
VERTEX
  8
E65LXLIFT
 62
13
 10
6370.912
 20
-11136.215
 30
-1193.000
 70
    32
  0
VERTEX
  8
E65LXLIFT
 62
13
 10
6381.802
 20
-11145.973
 30
-1193.000
 70
    32
  0
VERTEX
  8
E65LXLIFT
 62
13
 10
6408.092
 20
-11156.974
 30
-1193.000
 70
    32
  0
VERTEX
  8
E65LXLIFT
 62
13
 10
6415.358
 20
-11161.428
 30
-1193.000
 70
    32
  0
VERTEX
  8
E65LXLIFT
 62
13
 10
6425.391
 20
-11169.742
 30
-1193.000
 70
    32
  0
VERTEX
  8
E65LXLIFT
 62
13
 10
6420.151
 20
-11181.103
 30
-1193.000
 70
    32
  0
VERTEX
  8
E65LXLIFT
 62
13
 10
6411.898
 20
-11188.568
 30
-1193.000
 70
    32
  0
VERTEX
  8
E65LXLIFT
 62
13
 10
6402.862
 20
-11199.249
 30
-1193.000
 70
    32
  0
VERTEX
  8
E65LXLIFT
 62
13
 10
6384.402
 20
-11197.873
 30
-1193.000
 70
    32
  0
VERTEX
  8
E65LXLIFT
 62
13
 10
6378.398
 20
-11189.080
 30
-1193.000
 70
    32
  0
VERTEX
  8
E65LXLIFT
 62
13
 10
6375.341
 20
-11176.884
 30
-1193.000
 70
    32
  0
VERTEX
  8
E65LXLIFT
 62
13
 10
6374.980
 20
-11156.978
 30
-1193.000
 70
    32
  0
VERTEX
  8
E65LXLIFT
 62
13
 10
6365.641
 20
-11146.064
 30
-1193.000
 70
    32
  0
SEQEND
  8
E65LXLIFT
  0
POLYLINE
  8
E65LXLIFT
 62
13
 66
     1
 70
     9
  0
VERTEX
  8
E65LXLIFT
 62
13
 10
6372.290
 20
-11152.780
 30
-1187.000
 70
    32
  0
VERTEX
  8
E65LXLIFT
 62
13
 10
6376.673
 20
-11159.167
 30
-1187.000
 70
    32
  0
VERTEX
  8
E65LXLIFT
 62
13
 10
6379.762
 20
-11172.594
 30
-1187.000
 70
    32
  0
VERTEX
  8
E65LXLIFT
 62
13
 10
6385.052
 20
-11192.291
 30
-1187.000
 70
    32
  0
VERTEX
  8
E65LXLIFT
 62
13
 10
6402.069
 20
-11190.017
 30
-1187.000
 70
    32
  0
VERTEX
  8
E65LXLIFT
 62
13
 10
6403.938
 20
-11196.430
 30
-1187.000
 70
    32
  0
VERTEX
  8
E65LXLIFT
 62
13
 10
6420.431
 20
-11195.213
 30
-1187.000
 70
    32
  0
VERTEX
  8
E65LXLIFT
 62
13
 10
6420.311
 20
-11185.716
 30
-1187.000
 70
    32
  0
VERTEX
  8
E65LXLIFT
 62
13
 10
6425.924
 20
-11181.476
 30
-1187.000
 70
    32
  0
VERTEX
  8
E65LXLIFT
 62
13
 10
6437.394
 20
-11182.070
 30
-1187.000
 70
    32
  0
VERTEX
  8
E65LXLIFT
 62
13
 10
6446.417
 20
-11187.597
 30
-1187.000
 70
    32
  0
VERTEX
  8
E65LXLIFT
 62
13
 10
6459.160
 20
-11200.674
 30
-1187.000
 70
    32
  0
VERTEX
  8
E65LXLIFT
 62
13
 10
6474.194
 20
-11209.927
 30
-1187.000
 70
    32
  0
VERTEX
  8
E65LXLIFT
 62
13
 10
6481.884
 20
-11200.702
 30
-1187.000
 70
    32
  0
VERTEX
  8
E65LXLIFT
 62
13
 10
6469.400
 20
-11191.617
 30
-1187.000
 70
    32
  0
VERTEX
  8
E65LXLIFT
 62
13
 10
6464.396
 20
-11178.425
 30
-1187.000
 70
    32
  0
VERTEX
  8
E65LXLIFT
 62
13
 10
6466.137
 20
-11173.143
 30
-1187.000
 70
    32
  0
VERTEX
  8
E65LXLIFT
 62
13
 10
6460.156
 20
-11172.812
 30
-1187.000
 70
    32
  0
VERTEX
  8
E65LXLIFT
 62
13
 10
6456.201
 20
-11168.305
 30
-1187.000
 70
    32
  0
VERTEX
  8
E65LXLIFT
 62
13
 10
6444.699
 20
-11168.397
 30
-1187.000
 70
    32
  0
VERTEX
  8
E65LXLIFT
 62
13
 10
6437.416
 20
-11167.947
 30
-1187.000
 70
    32
  0
VERTEX
  8
E65LXLIFT
 62
13
 10
6430.749
 20
-11167.583
 30
-1187.000
 70
    32
  0
VERTEX
  8
E65LXLIFT
 62
13
 10
6426.697
 20
-11160.615
 30
-1187.000
 70
    32
  0
VERTEX
  8
E65LXLIFT
 62
13
 10
6420.836
 20
-11154.022
 30
-1187.000
 70
    32
  0
VERTEX
  8
E65LXLIFT
 62
13
 10
6412.229
 20
-11157.217
 30
-1187.000
 70
    32
  0
VERTEX
  8
E65LXLIFT
 62
13
 10
6403.545
 20
-11158.706
 30
-1187.000
 70
    32
  0
VERTEX
  8
E65LXLIFT
 62
13
 10
6399.009
 20
-11153.867
 30
-1187.000
 70
    32
  0
VERTEX
  8
E65LXLIFT
 62
13
 10
6389.152
 20
-11151.615
 30
-1187.000
 70
    32
  0
VERTEX
  8
E65LXLIFT
 62
13
 10
6381.550
 20
-11145.344
 30
-1187.000
 70
    32
  0
SEQEND
  8
E65LXLIFT
  0
POLYLINE
  8
E65LXLIFT
 62
8
 66
     1
 70
     9
  0
VERTEX
  8
E65LXLIFT
 62
8
 10
6353.340
 20
-11180.831
 30
-1158.000
 70
    32
  0
VERTEX
  8
E65LXLIFT
 62
8
 10
6361.459
 20
-11185.702
 30
-1158.000
 70
    32
  0
VERTEX
  8
E65LXLIFT
 62
8
 10
6365.360
 20
-11196.208
 30
-1158.000
 70
    32
  0
VERTEX
  8
E65LXLIFT
 62
8
 10
6363.188
 20
-11205.699
 30
-1158.000
 70
    32
  0
VERTEX
  8
E65LXLIFT
 62
8
 10
6357.637
 20
-11209.146
 30
-1158.000
 70
    32
  0
VERTEX
  8
E65LXLIFT
 62
8
 10
6349.337
 20
-11211.591
 30
-1158.000
 70
    32
  0
VERTEX
  8
E65LXLIFT
 62
8
 10
6347.923
 20
-11218.738
 30
-1158.000
 70
    32
  0
VERTEX
  8
E65LXLIFT
 62
8
 10
6348.395
 20
-11226.331
 30
-1158.000
 70
    32
  0
VERTEX
  8
E65LXLIFT
 62
8
 10
6356.413
 20
-11229.180
 30
-1158.000
 70
    32
  0
VERTEX
  8
E65LXLIFT
 62
8
 10
6360.403
 20
-11231.668
 30
-1158.000
 70
    32
  0
VERTEX
  8
E65LXLIFT
 62
8
 10
6358.724
 20
-11241.226
 30
-1158.000
 70
    32
  0
VERTEX
  8
E65LXLIFT
 62
8
 10
6367.353
 20
-11246.041
 30
-1158.000
 70
    32
  0
VERTEX
  8
E65LXLIFT
 62
8
 10
6375.206
 20
-11247.801
 30
-1158.000
 70
    32
  0
VERTEX
  8
E65LXLIFT
 62
8
 10
6388.198
 20
-11247.752
 30
-1158.000
 70
    32
  0
VERTEX
  8
E65LXLIFT
 62
8
 10
6395.623
 20
-11245.752
 30
-1158.000
 70
    32
  0
VERTEX
  8
E65LXLIFT
 62
8
 10
6399.612
 20
-11239.960
 30
-1158.000
 70
    32
  0
VERTEX
  8
E65LXLIFT
 62
8
 10
6399.751
 20
-11231.572
 30
-1158.000
 70
    32
  0
VERTEX
  8
E65LXLIFT
 62
8
 10
6402.384
 20
-11225.595
 30
-1158.000
 70
    32
  0
VERTEX
  8
E65LXLIFT
 62
8
 10
6405.315
 20
-11219.281
 30
-1158.000
 70
    32
  0
VERTEX
  8
E65LXLIFT
 62
8
 10
6399.768
 20
-11212.566
 30
-1158.000
 70
    32
  0
VERTEX
  8
E65LXLIFT
 62
8
 10
6397.289
 20
-11198.991
 30
-1158.000
 70
    32
  0
VERTEX
  8
E65LXLIFT
 62
8
 10
6396.241
 20
-11186.426
 30
-1158.000
 70
    32
  0
VERTEX
  8
E65LXLIFT
 62
8
 10
6390.935
 20
-11173.344
 30
-1158.000
 70
    32
  0
VERTEX
  8
E65LXLIFT
 62
8
 10
6388.120
 20
-11162.233
 30
-1158.000
 70
    32
  0
VERTEX
  8
E65LXLIFT
 62
8
 10
6387.357
 20
-11150.335
 30
-1158.000
 70
    32
  0
VERTEX
  8
E65LXLIFT
 62
8
 10
6384.822
 20
-11139.011
 30
-1158.000
 70
    32
  0
VERTEX
  8
E65LXLIFT
 62
8
 10
6387.050
 20
-11130.030
 30
-1158.000
 70
    32
  0
VERTEX
  8
E65LXLIFT
 62
8
 10
6380.190
 20
-11124.202
 30
-1158.000
 70
    32
  0
VERTEX
  8
E65LXLIFT
 62
8
 10
6373.085
 20
-11123.861
 30
-1158.000
 70
    32
  0
VERTEX
  8
E65LXLIFT
 62
8
 10
6366.331
 20
-11112.652
 30
-1158.000
 70
    32
  0
VERTEX
  8
E65LXLIFT
 62
8
 10
6357.982
 20
-11099.344
 30
-1158.000
 70
    32
  0
VERTEX
  8
E65LXLIFT
 62
8
 10
6346.823
 20
-11081.324
 30
-1158.000
 70
    32
  0
VERTEX
  8
E65LXLIFT
 62
8
 10
6341.727
 20
-11073.603
 30
-1158.000
 70
    32
  0
VERTEX
  8
E65LXLIFT
 62
8
 10
6330.905
 20
-11077.524
 30
-1158.000
 70
    32
  0
VERTEX
  8
E65LXLIFT
 62
8
 10
6332.037
 20
-11092.232
 30
-1158.000
 70
    32
  0
VERTEX
  8
E65LXLIFT
 62
8
 10
6329.686
 20
-11101.197
 30
-1158.000
 70
    32
  0
VERTEX
  8
E65LXLIFT
 62
8
 10
6338.386
 20
-11117.000
 30
-1158.000
 70
    32
  0
VERTEX
  8
E65LXLIFT
 62
8
 10
6343.864
 20
-11134.810
 30
-1158.000
 70
    32
  0
VERTEX
  8
E65LXLIFT
 62
8
 10
6348.709
 20
-11149.899
 30
-1158.000
 70
    32
  0
VERTEX
  8
E65LXLIFT
 62
8
 10
6346.596
 20
-11160.339
 30
-1158.000
 70
    32
  0
VERTEX
  8
E65LXLIFT
 62
8
 10
6344.192
 20
-11166.473
 30
-1158.000
 70
    32
  0
SEQEND
  8
E65LXLIFT
  0
POLYLINE
  8
E65LXLIFT
 62
1
 66
     1
 70
     9
  0
VERTEX
  8
E65LXLIFT
 62
1
 10
6354.340
 20
-11179.831
 30
-1146.000
 70
    32
  0
VERTEX
  8
E65LXLIFT
 62
1
 10
6362.459
 20
-11184.702
 30
-1146.000
 70
    32
  0
VERTEX
  8
E65LXLIFT
 62
1
 10
6366.360
 20
-11195.208
 30
-1146.000
 70
    32
  0
VERTEX
  8
E65LXLIFT
 62
1
 10
6364.188
 20
-11204.699
 30
-1146.000
 70
    32
  0
VERTEX
  8
E65LXLIFT
 62
1
 10
6358.637
 20
-11208.146
 30
-1146.000
 70
    32
  0
VERTEX
  8
E65LXLIFT
 62
1
 10
6350.337
 20
-11210.591
 30
-1146.000
 70
    32
  0
VERTEX
  8
E65LXLIFT
 62
1
 10
6348.923
 20
-11217.738
 30
-1146.000
 70
    32
  0
VERTEX
  8
E65LXLIFT
 62
1
 10
6349.395
 20
-11225.331
 30
-1146.000
 70
    32
  0
VERTEX
  8
E65LXLIFT
 62
1
 10
6357.413
 20
-11228.180
 30
-1146.000
 70
    32
  0
VERTEX
  8
E65LXLIFT
 62
1
 10
6361.403
 20
-11230.668
 30
-1146.000
 70
    32
  0
VERTEX
  8
E65LXLIFT
 62
1
 10
6359.724
 20
-11240.226
 30
-1146.000
 70
    32
  0
VERTEX
  8
E65LXLIFT
 62
1
 10
6368.353
 20
-11245.041
 30
-1146.000
 70
    32
  0
VERTEX
  8
E65LXLIFT
 62
1
 10
6376.206
 20
-11246.801
 30
-1146.000
 70
    32
  0
VERTEX
  8
E65LXLIFT
 62
1
 10
6389.198
 20
-11246.752
 30
-1146.000
 70
    32
  0
VERTEX
  8
E65LXLIFT
 62
1
 10
6396.623
 20
-11244.752
 30
-1146.000
 70
    32
  0
VERTEX
  8
E65LXLIFT
 62
1
 10
6400.612
 20
-11238.960
 30
-1146.000
 70
    32
  0
VERTEX
  8
E65LXLIFT
 62
1
 10
6400.751
 20
-11230.572
 30
-1146.000
 70
    32
  0
VERTEX
  8
E65LXLIFT
 62
1
 10
6403.384
 20
-11224.595
 30
-1146.000
 70
    32
  0
VERTEX
  8
E65LXLIFT
 62
1
 10
6406.315
 20
-11218.281
 30
-1146.000
 70
    32
  0
VERTEX
  8
E65LXLIFT
 62
1
 10
6400.768
 20
-11211.566
 30
-1146.000
 70
    32
  0
VERTEX
  8
E65LXLIFT
 62
1
 10
6398.289
 20
-11197.991
 30
-1146.000
 70
    32
  0
VERTEX
  8
E65LXLIFT
 62
1
 10
6397.241
 20
-11185.426
 30
-1146.000
 70
    32
  0
VERTEX
  8
E65LXLIFT
 62
1
 10
6391.935
 20
-11172.344
 30
-1146.000
 70
    32
  0
VERTEX
  8
E65LXLIFT
 62
1
 10
6389.120
 20
-11161.233
 30
-1146.000
 70
    32
  0
VERTEX
  8
E65LXLIFT
 62
1
 10
6388.357
 20
-11149.335
 30
-1146.000
 70
    32
  0
VERTEX
  8
E65LXLIFT
 62
1
 10
6385.822
 20
-11138.011
 30
-1146.000
 70
    32
  0
VERTEX
  8
E65LXLIFT
 62
1
 10
6388.050
 20
-11129.030
 30
-1146.000
 70
    32
  0
VERTEX
  8
E65LXLIFT
 62
1
 10
6381.190
 20
-11123.202
 30
-1146.000
 70
    32
  0
VERTEX
  8
E65LXLIFT
 62
1
 10
6374.085
 20
-11122.861
 30
-1146.000
 70
    32
  0
VERTEX
  8
E65LXLIFT
 62
1
 10
6367.331
 20
-11111.652
 30
-1146.000
 70
    32
  0
VERTEX
  8
E65LXLIFT
 62
1
 10
6358.982
 20
-11098.344
 30
-1146.000
 70
    32
  0
VERTEX
  8
E65LXLIFT
 62
1
 10
6347.823
 20
-11080.324
 30
-1146.000
 70
    32
  0
VERTEX
  8
E65LXLIFT
 62
1
 10
6342.727
 20
-11072.603
 30
-1146.000
 70
    32
  0
VERTEX
  8
E65LXLIFT
 62
1
 10
6331.905
 20
-11076.524
 30
-1146.000
 70
    32
  0
VERTEX
  8
E65LXLIFT
 62
1
 10
6333.037
 20
-11091.232
 30
-1146.000
 70
    32
  0
VERTEX
  8
E65LXLIFT
 62
1
 10
6330.686
 20
-11100.197
 30
-1146.000
 70
    32
  0
VERTEX
  8
E65LXLIFT
 62
1
 10
6339.386
 20
-11116.000
 30
-1146.000
 70
    32
  0
VERTEX
  8
E65LXLIFT
 62
1
 10
6344.864
 20
-11133.810
 30
-1146.000
 70
    32
  0
VERTEX
  8
E65LXLIFT
 62
1
 10
6349.709
 20
-11148.899
 30
-1146.000
 70
    32
  0
VERTEX
  8
E65LXLIFT
 62
1
 10
6347.596
 20
-11159.339
 30
-1146.000
 70
    32
  0
VERTEX
  8
E65LXLIFT
 62
1
 10
6345.192
 20
-11165.473
 30
-1146.000
 70
    32
  0
SEQEND
  8
E65LXLIFT
  0
POLYLINE
  8
E65LXLIFT
 62
13
 66
     1
 70
     9
  0
VERTEX
  8
E65LXLIFT
 62
13
 10
5123.713
 20
-9558.778
 30
-1172.000
 70
    32
  0
VERTEX
  8
E65LXLIFT
 62
13
 10
5131.486
 20
-9562.669
 30
-1172.000
 70
    32
  0
VERTEX
  8
E65LXLIFT
 62
13
 10
5138.210
 20
-9560.317
 30
-1172.000
 70
    32
  0
VERTEX
  8
E65LXLIFT
 62
13
 10
5152.995
 20
-9551.242
 30
-1172.000
 70
    32
  0
VERTEX
  8
E65LXLIFT
 62
13
 10
5155.727
 20
-9543.960
 30
-1172.000
 70
    32
  0
VERTEX
  8
E65LXLIFT
 62
13
 10
5168.555
 20
-9526.274
 30
-1172.000
 70
    32
  0
VERTEX
  8
E65LXLIFT
 62
13
 10
5175.685
 20
-9517.304
 30
-1172.000
 70
    32
  0
VERTEX
  8
E65LXLIFT
 62
13
 10
5169.685
 20
-9502.618
 30
-1172.000
 70
    32
  0
VERTEX
  8
E65LXLIFT
 62
13
 10
5155.528
 20
-9491.609
 30
-1172.000
 70
    32
  0
VERTEX
  8
E65LXLIFT
 62
13
 10
5144.211
 20
-9496.751
 30
-1172.000
 70
    32
  0
VERTEX
  8
E65LXLIFT
 62
13
 10
5131.904
 20
-9506.451
 30
-1172.000
 70
    32
  0
VERTEX
  8
E65LXLIFT
 62
13
 10
5120.716
 20
-9521.270
 30
-1172.000
 70
    32
  0
VERTEX
  8
E65LXLIFT
 62
13
 10
5110.479
 20
-9538.214
 30
-1172.000
 70
    32
  0
VERTEX
  8
E65LXLIFT
 62
13
 10
5106.316
 20
-9546.821
 30
-1172.000
 70
    32
  0
SEQEND
  8
E65LXLIFT
  0
POLYLINE
  8
E65LXLIFT
 62
1
 66
     1
 70
     9
  0
VERTEX
  8
E65LXLIFT
 62
1
 10
5439.055
 20
-9896.508
 30
-1131.000
 70
    32
  0
VERTEX
  8
E65LXLIFT
 62
1
 10
5451.409
 20
-9904.387
 30
-1131.000
 70
    32
  0
VERTEX
  8
E65LXLIFT
 62
1
 10
5462.260
 20
-9907.052
 30
-1131.000
 70
    32
  0
VERTEX
  8
E65LXLIFT
 62
1
 10
5465.808
 20
-9901.758
 30
-1131.000
 70
    32
  0
VERTEX
  8
E65LXLIFT
 62
1
 10
5460.386
 20
-9895.041
 30
-1131.000
 70
    32
  0
VERTEX
  8
E65LXLIFT
 62
1
 10
5451.202
 20
-9885.838
 30
-1131.000
 70
    32
  0
VERTEX
  8
E65LXLIFT
 62
1
 10
5443.066
 20
-9874.786
 30
-1131.000
 70
    32
  0
VERTEX
  8
E65LXLIFT
 62
1
 10
5437.133
 20
-9860.178
 30
-1131.000
 70
    32
  0
VERTEX
  8
E65LXLIFT
 62
1
 10
5433.612
 20
-9844.253
 30
-1131.000
 70
    32
  0
VERTEX
  8
E65LXLIFT
 62
1
 10
5432.982
 20
-9829.163
 30
-1131.000
 70
    32
  0
VERTEX
  8
E65LXLIFT
 62
1
 10
5429.161
 20
-9816.717
 30
-1131.000
 70
    32
  0
VERTEX
  8
E65LXLIFT
 62
1
 10
5418.365
 20
-9810.533
 30
-1131.000
 70
    32
  0
VERTEX
  8
E65LXLIFT
 62
1
 10
5408.000
 20
-9807.189
 30
-1131.000
 70
    32
  0
VERTEX
  8
E65LXLIFT
 62
1
 10
5395.269
 20
-9800.888
 30
-1131.000
 70
    32
  0
VERTEX
  8
E65LXLIFT
 62
1
 10
5385.734
 20
-9793.896
 30
-1131.000
 70
    32
  0
VERTEX
  8
E65LXLIFT
 62
1
 10
5383.310
 20
-9782.176
 30
-1131.000
 70
    32
  0
VERTEX
  8
E65LXLIFT
 62
1
 10
5386.559
 20
-9779.164
 30
-1131.000
 70
    32
  0
VERTEX
  8
E65LXLIFT
 62
1
 10
5398.433
 20
-9780.543
 30
-1131.000
 70
    32
  0
VERTEX
  8
E65LXLIFT
 62
1
 10
5411.034
 20
-9786.068
 30
-1131.000
 70
    32
  0
VERTEX
  8
E65LXLIFT
 62
1
 10
5417.203
 20
-9787.676
 30
-1131.000
 70
    32
  0
VERTEX
  8
E65LXLIFT
 62
1
 10
5419.715
 20
-9783.351
 30
-1131.000
 70
    32
  0
VERTEX
  8
E65LXLIFT
 62
1
 10
5424.247
 20
-9777.016
 30
-1131.000
 70
    32
  0
VERTEX
  8
E65LXLIFT
 62
1
 10
5432.852
 20
-9772.398
 30
-1131.000
 70
    32
  0
VERTEX
  8
E65LXLIFT
 62
1
 10
5447.314
 20
-9771.353
 30
-1131.000
 70
    32
  0
VERTEX
  8
E65LXLIFT
 62
1
 10
5454.787
 20
-9776.254
 30
-1131.000
 70
    32
  0
VERTEX
  8
E65LXLIFT
 62
1
 10
5456.296
 20
-9783.421
 30
-1131.000
 70
    32
  0
VERTEX
  8
E65LXLIFT
 62
1
 10
5455.085
 20
-9795.825
 30
-1131.000
 70
    32
  0
VERTEX
  8
E65LXLIFT
 62
1
 10
5459.432
 20
-9803.757
 30
-1131.000
 70
    32
  0
VERTEX
  8
E65LXLIFT
 62
1
 10
5465.477
 20
-9815.675
 30
-1131.000
 70
    32
  0
VERTEX
  8
E65LXLIFT
 62
1
 10
5473.855
 20
-9831.552
 30
-1131.000
 70
    32
  0
VERTEX
  8
E65LXLIFT
 62
1
 10
5478.061
 20
-9848.719
 30
-1131.000
 70
    32
  0
VERTEX
  8
E65LXLIFT
 62
1
 10
5476.526
 20
-9861.576
 30
-1131.000
 70
    32
  0
VERTEX
  8
E65LXLIFT
 62
1
 10
5478.453
 20
-9880.398
 30
-1131.000
 70
    32
  0
VERTEX
  8
E65LXLIFT
 62
1
 10
5483.800
 20
-9891.952
 30
-1131.000
 70
    32
  0
VERTEX
  8
E65LXLIFT
 62
1
 10
5492.959
 20
-9900.521
 30
-1131.000
 70
    32
  0
VERTEX
  8
E65LXLIFT
 62
1
 10
5502.881
 20
-9908.645
 30
-1131.000
 70
    32
  0
VERTEX
  8
E65LXLIFT
 62
1
 10
5514.831
 20
-9913.122
 30
-1131.000
 70
    32
  0
VERTEX
  8
E65LXLIFT
 62
1
 10
5526.365
 20
-9918.226
 30
-1131.000
 70
    32
  0
VERTEX
  8
E65LXLIFT
 62
1
 10
5536.314
 20
-9924.590
 30
-1131.000
 70
    32
  0
VERTEX
  8
E65LXLIFT
 62
1
 10
5538.204
 20
-9932.133
 30
-1131.000
 70
    32
  0
VERTEX
  8
E65LXLIFT
 62
1
 10
5533.693
 20
-9937.149
 30
-1131.000
 70
    32
  0
VERTEX
  8
E65LXLIFT
 62
1
 10
5525.657
 20
-9942.550
 30
-1131.000
 70
    32
  0
VERTEX
  8
E65LXLIFT
 62
1
 10
5526.752
 20
-9949.148
 30
-1131.000
 70
    32
  0
VERTEX
  8
E65LXLIFT
 62
1
 10
5528.197
 20
-9954.730
 30
-1131.000
 70
    32
  0
VERTEX
  8
E65LXLIFT
 62
1
 10
5525.763
 20
-9957.367
 30
-1131.000
 70
    32
  0
VERTEX
  8
E65LXLIFT
 62
1
 10
5517.581
 20
-9958.526
 30
-1131.000
 70
    32
  0
VERTEX
  8
E65LXLIFT
 62
1
 10
5511.065
 20
-9953.147
 30
-1131.000
 70
    32
  0
VERTEX
  8
E65LXLIFT
 62
1
 10
5502.151
 20
-9947.010
 30
-1131.000
 70
    32
  0
VERTEX
  8
E65LXLIFT
 62
1
 10
5496.390
 20
-9944.018
 30
-1131.000
 70
    32
  0
VERTEX
  8
E65LXLIFT
 62
1
 10
5487.126
 20
-9937.699
 30
-1131.000
 70
    32
  0
VERTEX
  8
E65LXLIFT
 62
1
 10
5478.261
 20
-9935.223
 30
-1131.000
 70
    32
  0
VERTEX
  8
E65LXLIFT
 62
1
 10
5467.870
 20
-9932.441
 30
-1131.000
 70
    32
  0
VERTEX
  8
E65LXLIFT
 62
1
 10
5459.390
 20
-9933.490
 30
-1131.000
 70
    32
  0
VERTEX
  8
E65LXLIFT
 62
1
 10
5451.270
 20
-9937.430
 30
-1131.000
 70
    32
  0
VERTEX
  8
E65LXLIFT
 62
1
 10
5442.766
 20
-9936.648
 30
-1131.000
 70
    32
  0
VERTEX
  8
E65LXLIFT
 62
1
 10
5433.533
 20
-9932.916
 30
-1131.000
 70
    32
  0
VERTEX
  8
E65LXLIFT
 62
1
 10
5429.548
 20
-9924.286
 30
-1131.000
 70
    32
  0
VERTEX
  8
E65LXLIFT
 62
1
 10
5428.368
 20
-9919.816
 30
-1131.000
 70
    32
  0
VERTEX
  8
E65LXLIFT
 62
1
 10
5419.111
 20
-9913.058
 30
-1131.000
 70
    32
  0
VERTEX
  8
E65LXLIFT
 62
1
 10
5412.272
 20
-9906.935
 30
-1131.000
 70
    32
  0
VERTEX
  8
E65LXLIFT
 62
1
 10
5414.236
 20
-9900.507
 30
-1131.000
 70
    32
  0
VERTEX
  8
E65LXLIFT
 62
1
 10
5413.317
 20
-9892.804
 30
-1131.000
 70
    32
  0
VERTEX
  8
E65LXLIFT
 62
1
 10
5407.908
 20
-9885.207
 30
-1131.000
 70
    32
  0
VERTEX
  8
E65LXLIFT
 62
1
 10
5399.655
 20
-9877.285
 30
-1131.000
 70
    32
  0
VERTEX
  8
E65LXLIFT
 62
1
 10
5399.250
 20
-9872.687
 30
-1131.000
 70
    32
  0
VERTEX
  8
E65LXLIFT
 62
1
 10
5404.537
 20
-9868.739
 30
-1131.000
 70
    32
  0
VERTEX
  8
E65LXLIFT
 62
1
 10
5413.739
 20
-9869.883
 30
-1131.000
 70
    32
  0
VERTEX
  8
E65LXLIFT
 62
1
 10
5418.904
 20
-9875.048
 30
-1131.000
 70
    32
  0
SEQEND
  8
E65LXLIFT
  0
POLYLINE
  8
E65LXLIFT
 62
1
 66
     1
 70
     9
  0
VERTEX
  8
E65LXLIFT
 62
1
 10
5107.316
 20
-9545.821
 30
-1141.000
 70
    32
  0
VERTEX
  8
E65LXLIFT
 62
1
 10
5111.479
 20
-9537.214
 30
-1141.000
 70
    32
  0
VERTEX
  8
E65LXLIFT
 62
1
 10
5121.716
 20
-9520.270
 30
-1141.000
 70
    32
  0
VERTEX
  8
E65LXLIFT
 62
1
 10
5132.904
 20
-9505.451
 30
-1141.000
 70
    32
  0
VERTEX
  8
E65LXLIFT
 62
1
 10
5145.211
 20
-9495.751
 30
-1141.000
 70
    32
  0
VERTEX
  8
E65LXLIFT
 62
1
 10
5156.528
 20
-9490.609
 30
-1141.000
 70
    32
  0
VERTEX
  8
E65LXLIFT
 62
1
 10
5170.685
 20
-9501.618
 30
-1141.000
 70
    32
  0
VERTEX
  8
E65LXLIFT
 62
1
 10
5176.685
 20
-9516.304
 30
-1141.000
 70
    32
  0
VERTEX
  8
E65LXLIFT
 62
1
 10
5169.555
 20
-9525.274
 30
-1141.000
 70
    32
  0
VERTEX
  8
E65LXLIFT
 62
1
 10
5156.727
 20
-9542.960
 30
-1141.000
 70
    32
  0
VERTEX
  8
E65LXLIFT
 62
1
 10
5153.995
 20
-9550.242
 30
-1141.000
 70
    32
  0
VERTEX
  8
E65LXLIFT
 62
1
 10
5139.210
 20
-9559.317
 30
-1141.000
 70
    32
  0
VERTEX
  8
E65LXLIFT
 62
1
 10
5132.486
 20
-9561.669
 30
-1141.000
 70
    32
  0
VERTEX
  8
E65LXLIFT
 62
1
 10
5124.713
 20
-9557.778
 30
-1141.000
 70
    32
  0
SEQEND
  8
E65LXLIFT
  0
POLYLINE
  8
E65LXLIFT
 62
4
 66
     1
 70
     9
  0
VERTEX
  8
E65LXLIFT
 62
4
 10
5629.623
 20
-10050.185
 30
-1265.440
 70
    32
  0
VERTEX
  8
E65LXLIFT
 62
4
 10
5665.754
 20
-10098.433
 30
-1265.358
 70
    32
  0
VERTEX
  8
E65LXLIFT
 62
4
 10
5682.461
 20
-10128.285
 30
-1265.297
 70
    32
  0
VERTEX
  8
E65LXLIFT
 62
4
 10
5673.185
 20
-10134.710
 30
-1265.259
 70
    32
  0
VERTEX
  8
E65LXLIFT
 62
4
 10
5660.525
 20
-10124.540
 30
-1265.267
 70
    32
  0
VERTEX
  8
E65LXLIFT
 62
4
 10
5635.510
 20
-10119.944
 30
-1265.233
 70
    32
  0
VERTEX
  8
E65LXLIFT
 62
4
 10
5606.157
 20
-10092.958
 30
-1265.262
 70
    32
  0
VERTEX
  8
E65LXLIFT
 62
4
 10
5599.583
 20
-10071.677
 30
-1265.316
 70
    32
  0
VERTEX
  8
E65LXLIFT
 62
4
 10
5595.110
 20
-10065.932
 30
-1265.325
 70
    32
  0
VERTEX
  8
E65LXLIFT
 62
4
 10
5588.274
 20
-10053.475
 30
-1265.351
 70
    32
  0
VERTEX
  8
E65LXLIFT
 62
4
 10
5578.986
 20
-10047.940
 30
-1265.351
 70
    32
  0
VERTEX
  8
E65LXLIFT
 62
4
 10
5581.263
 20
-10038.466
 30
-1265.385
 70
    32
  0
VERTEX
  8
E65LXLIFT
 62
4
 10
5577.806
 20
-10031.412
 30
-1265.400
 70
    32
  0
VERTEX
  8
E65LXLIFT
 62
4
 10
5565.668
 20
-10024.433
 30
-1265.399
 70
    32
  0
VERTEX
  8
E65LXLIFT
 62
4
 10
5557.587
 20
-10008.669
 30
-1265.433
 70
    32
  0
VERTEX
  8
E65LXLIFT
 62
4
 10
5559.894
 20
-10002.300
 30
-1265.457
 70
    32
  0
VERTEX
  8
E65LXLIFT
 62
4
 10
5555.785
 20
-9976.406
 30
-1265.530
 70
    32
  0
VERTEX
  8
E65LXLIFT
 62
4
 10
5558.528
 20
-9970.809
 30
-1265.553
 70
    32
  0
VERTEX
  8
E65LXLIFT
 62
4
 10
5563.660
 20
-9969.675
 30
-1265.566
 70
    32
  0
VERTEX
  8
E65LXLIFT
 62
4
 10
5569.739
 20
-9976.931
 30
-1265.555
 70
    32
  0
VERTEX
  8
E65LXLIFT
 62
4
 10
5579.605
 20
-9984.970
 30
-1265.548
 70
    32
  0
VERTEX
  8
E65LXLIFT
 62
4
 10
5592.941
 20
-10007.278
 30
-1265.504
 70
    32
  0
VERTEX
  8
E65LXLIFT
 62
4
 10
5594.078
 20
-10024.051
 30
-1265.454
 70
    32
  0
VERTEX
  8
E65LXLIFT
 62
4
 10
5605.934
 20
-10025.730
 30
-1265.471
 70
    32
  0
VERTEX
  8
E65LXLIFT
 62
4
 10
5613.711
 20
-10038.151
 30
-1265.447
 70
    32
  0
VERTEX
  8
E65LXLIFT
 62
4
 10
5626.224
 20
-10043.819
 30
-1265.453
 70
    32
  0
SEQEND
  8
E65LXLIFT
  0
POLYLINE
  8
E65LXLIFT
 62
4
 66
     1
 70
     9
  0
VERTEX
  8
E65LXLIFT
 62
4
 10
5590.973
 20
-10077.836
 30
-1265.280
 70
    32
  0
VERTEX
  8
E65LXLIFT
 62
4
 10
5598.726
 20
-10093.123
 30
-1265.247
 70
    32
  0
VERTEX
  8
E65LXLIFT
 62
4
 10
5612.574
 20
-10112.483
 30
-1265.213
 70
    32
  0
VERTEX
  8
E65LXLIFT
 62
4
 10
5621.791
 20
-10120.979
 30
-1265.204
 70
    32
  0
VERTEX
  8
E65LXLIFT
 62
4
 10
5622.680
 20
-10128.979
 30
-1265.181
 70
    32
  0
VERTEX
  8
E65LXLIFT
 62
4
 10
5630.991
 20
-10133.585
 30
-1265.182
 70
    32
  0
VERTEX
  8
E65LXLIFT
 62
4
 10
5631.113
 20
-10141.261
 30
-1265.158
 70
    32
  0
VERTEX
  8
E65LXLIFT
 62
4
 10
5627.165
 20
-10144.688
 30
-1265.140
 70
    32
  0
VERTEX
  8
E65LXLIFT
 62
4
 10
5620.975
 20
-10141.716
 30
-1265.138
 70
    32
  0
VERTEX
  8
E65LXLIFT
 62
4
 10
5613.526
 20
-10143.080
 30
-1265.119
 70
    32
  0
VERTEX
  8
E65LXLIFT
 62
4
 10
5582.552
 20
-10125.429
 30
-1265.115
 70
    32
  0
VERTEX
  8
E65LXLIFT
 62
4
 10
5560.438
 20
-10107.038
 30
-1265.131
 70
    32
  0
VERTEX
  8
E65LXLIFT
 62
4
 10
5552.977
 20
-10105.020
 30
-1265.123
 70
    32
  0
VERTEX
  8
E65LXLIFT
 62
4
 10
5543.946
 20
-10102.294
 30
-1265.114
 70
    32
  0
VERTEX
  8
E65LXLIFT
 62
4
 10
5545.164
 20
-10094.074
 30
-1265.142
 70
    32
  0
VERTEX
  8
E65LXLIFT
 62
4
 10
5551.930
 20
-10086.075
 30
-1265.180
 70
    32
  0
VERTEX
  8
E65LXLIFT
 62
4
 10
5556.012
 20
-10084.063
 30
-1265.194
 70
    32
  0
VERTEX
  8
E65LXLIFT
 62
4
 10
5554.303
 20
-10074.592
 30
-1265.220
 70
    32
  0
VERTEX
  8
E65LXLIFT
 62
4
 10
5555.445
 20
-10061.821
 30
-1265.262
 70
    32
  0
VERTEX
  8
E65LXLIFT
 62
4
 10
5545.823
 20
-10037.438
 30
-1265.320
 70
    32
  0
VERTEX
  8
E65LXLIFT
 62
4
 10
5540.156
 20
-10028.166
 30
-1265.338
 70
    32
  0
VERTEX
  8
E65LXLIFT
 62
4
 10
5532.004
 20
-10033.583
 30
-1265.306
 70
    32
  0
VERTEX
  8
E65LXLIFT
 62
4
 10
5528.253
 20
-10027.491
 30
-1265.318
 70
    32
  0
VERTEX
  8
E65LXLIFT
 62
4
 10
5538.939
 20
-10018.781
 30
-1265.365
 70
    32
  0
VERTEX
  8
E65LXLIFT
 62
4
 10
5546.967
 20
-10015.176
 30
-1265.392
 70
    32
  0
VERTEX
  8
E65LXLIFT
 62
4
 10
5560.858
 20
-10037.201
 30
-1265.350
 70
    32
  0
VERTEX
  8
E65LXLIFT
 62
4
 10
5566.427
 20
-10042.659
 30
-1265.343
 70
    32
  0
VERTEX
  8
E65LXLIFT
 62
4
 10
5586.557
 20
-10072.010
 30
-1265.290
 70
    32
  0
SEQEND
  8
E65LXLIFT
  0
POLYLINE
  8
E65LXLIFT
 62
6
 66
     1
 70
     9
  0
VERTEX
  8
E65LXLIFT
 62
6
 10
6898.373
 20
-10599.038
 30
-1261.848
 70
    32
  0
VERTEX
  8
E65LXLIFT
 62
6
 10
6898.012
 20
-10585.635
 30
-1261.797
 70
    32
  0
VERTEX
  8
E65LXLIFT
 62
6
 10
6906.656
 20
-10561.168
 30
-1261.694
 70
    32
  0
VERTEX
  8
E65LXLIFT
 62
6
 10
6912.277
 20
-10553.528
 30
-1261.659
 70
    32
  0
VERTEX
  8
E65LXLIFT
 62
6
 10
6915.471
 20
-10556.313
 30
-1261.667
 70
    32
  0
VERTEX
  8
E65LXLIFT
 62
6
 10
6930.817
 20
-10587.907
 30
-1261.775
 70
    32
  0
VERTEX
  8
E65LXLIFT
 62
6
 10
6930.221
 20
-10593.427
 30
-1261.797
 70
    32
  0
VERTEX
  8
E65LXLIFT
 62
6
 10
6931.794
 20
-10598.752
 30
-1261.816
 70
    32
  0
VERTEX
  8
E65LXLIFT
 62
6
 10
6935.216
 20
-10601.254
 30
-1261.823
 70
    32
  0
VERTEX
  8
E65LXLIFT
 62
6
 10
6942.703
 20
-10643.382
 30
-1261.947
 70
    32
  0
VERTEX
  8
E65LXLIFT
 62
6
 10
6941.586
 20
-10661.425
 30
-1262.000
 70
    32
  0
VERTEX
  8
E65LXLIFT
 62
6
 10
6945.949
 20
-10671.933
 30
-1262.028
 70
    32
  0
VERTEX
  8
E65LXLIFT
 62
6
 10
6939.108
 20
-10674.865
 30
-1262.041
 70
    32
  0
VERTEX
  8
E65LXLIFT
 62
6
 10
6936.711
 20
-10677.547
 30
-1262.050
 70
    32
  0
VERTEX
  8
E65LXLIFT
 62
6
 10
6936.579
 20
-10691.321
 30
-1262.090
 70
    32
  0
VERTEX
  8
E65LXLIFT
 62
6
 10
6941.487
 20
-10700.647
 30
-1262.114
 70
    32
  0
VERTEX
  8
E65LXLIFT
 62
6
 10
6941.242
 20
-10702.817
 30
-1262.120
 70
    32
  0
VERTEX
  8
E65LXLIFT
 62
6
 10
6937.225
 20
-10708.480
 30
-1262.139
 70
    32
  0
VERTEX
  8
E65LXLIFT
 62
6
 10
6932.113
 20
-10712.540
 30
-1262.154
 70
    32
  0
VERTEX
  8
E65LXLIFT
 62
6
 10
6931.441
 20
-10738.518
 30
-1262.224
 70
    32
  0
VERTEX
  8
E65LXLIFT
 62
6
 10
6927.320
 20
-10746.686
 30
-1262.249
 70
    32
  0
VERTEX
  8
E65LXLIFT
 62
6
 10
6923.696
 20
-10761.538
 30
-1262.292
 70
    32
  0
VERTEX
  8
E65LXLIFT
 62
6
 10
6925.204
 20
-10776.175
 30
-1262.330
 70
    32
  0
VERTEX
  8
E65LXLIFT
 62
6
 10
6928.455
 20
-10785.203
 30
-1262.351
 70
    32
  0
VERTEX
  8
E65LXLIFT
 62
6
 10
6931.217
 20
-10802.537
 30
-1262.395
 70
    32
  0
VERTEX
  8
E65LXLIFT
 62
6
 10
6930.532
 20
-10806.912
 30
-1262.407
 70
    32
  0
VERTEX
  8
E65LXLIFT
 62
6
 10
6926.778
 20
-10810.282
 30
-1262.419
 70
    32
  0
VERTEX
  8
E65LXLIFT
 62
6
 10
6916.960
 20
-10790.307
 30
-1262.374
 70
    32
  0
VERTEX
  8
E65LXLIFT
 62
6
 10
6903.995
 20
-10786.700
 30
-1262.375
 70
    32
  0
VERTEX
  8
E65LXLIFT
 62
6
 10
6902.177
 20
-10783.985
 30
-1262.370
 70
    32
  0
VERTEX
  8
E65LXLIFT
 62
6
 10
6899.066
 20
-10773.088
 30
-1262.343
 70
    32
  0
VERTEX
  8
E65LXLIFT
 62
6
 10
6897.598
 20
-10766.581
 30
-1262.327
 70
    32
  0
VERTEX
  8
E65LXLIFT
 62
6
 10
6897.598
 20
-10766.581
 30
-1262.327
 70
    32
  0
VERTEX
  8
E65LXLIFT
 62
6
 10
6897.598
 20
-10766.581
 30
-1262.327
 70
    32
  0
VERTEX
  8
E65LXLIFT
 62
6
 10
6897.906
 20
-10751.132
 30
-1262.285
 70
    32
  0
VERTEX
  8
E65LXLIFT
 62
6
 10
6896.369
 20
-10747.323
 30
-1262.277
 70
    32
  0
VERTEX
  8
E65LXLIFT
 62
6
 10
6900.490
 20
-10738.273
 30
-1262.249
 70
    32
  0
VERTEX
  8
E65LXLIFT
 62
6
 10
6899.446
 20
-10732.331
 30
-1262.234
 70
    32
  0
VERTEX
  8
E65LXLIFT
 62
6
 10
6898.788
 20
-10723.672
 30
-1262.211
 70
    32
  0
VERTEX
  8
E65LXLIFT
 62
6
 10
6898.043
 20
-10717.394
 30
-1262.193
 70
    32
  0
VERTEX
  8
E65LXLIFT
 62
6
 10
6900.257
 20
-10704.924
 30
-1262.155
 70
    32
  0
VERTEX
  8
E65LXLIFT
 62
6
 10
6898.257
 20
-10694.185
 30
-1262.125
 70
    32
  0
VERTEX
  8
E65LXLIFT
 62
6
 10
6895.624
 20
-10685.686
 30
-1262.103
 70
    32
  0
VERTEX
  8
E65LXLIFT
 62
6
 10
6894.598
 20
-10667.427
 30
-1262.050
 70
    32
  0
VERTEX
  8
E65LXLIFT
 62
6
 10
6893.876
 20
-10654.577
 30
-1262.013
 70
    32
  0
VERTEX
  8
E65LXLIFT
 62
6
 10
6892.601
 20
-10646.712
 30
-1261.991
 70
    32
  0
VERTEX
  8
E65LXLIFT
 62
6
 10
6887.863
 20
-10627.333
 30
-1261.938
 70
    32
  0
VERTEX
  8
E65LXLIFT
 62
6
 10
6893.838
 20
-10621.633
 30
-1261.917
 70
    32
  0
VERTEX
  8
E65LXLIFT
 62
6
 10
6897.888
 20
-10612.195
 30
-1261.887
 70
    32
  0
VERTEX
  8
E65LXLIFT
 62
6
 10
6898.168
 20
-10608.456
 30
-1261.876
 70
    32
  0
SEQEND
  8
E65LXLIFT
  0
POLYLINE
  8
E65LXLIFT
 62
6
 66
     1
 70
     9
  0
VERTEX
  8
E65LXLIFT
 62
6
 10
6905.730
 20
-10630.567
 30
-1261.935
 70
    32
  0
VERTEX
  8
E65LXLIFT
 62
6
 10
6910.703
 20
-10630.581
 30
-1261.932
 70
    32
  0
VERTEX
  8
E65LXLIFT
 62
6
 10
6922.170
 20
-10636.306
 30
-1261.940
 70
    32
  0
VERTEX
  8
E65LXLIFT
 62
6
 10
6924.341
 20
-10638.315
 30
-1261.945
 70
    32
  0
VERTEX
  8
E65LXLIFT
 62
6
 10
6927.169
 20
-10648.983
 30
-1261.974
 70
    32
  0
VERTEX
  8
E65LXLIFT
 62
6
 10
6925.963
 20
-10664.997
 30
-1262.021
 70
    32
  0
VERTEX
  8
E65LXLIFT
 62
6
 10
6924.133
 20
-10671.224
 30
-1262.041
 70
    32
  0
VERTEX
  8
E65LXLIFT
 62
6
 10
6916.969
 20
-10665.796
 30
-1262.030
 70
    32
  0
VERTEX
  8
E65LXLIFT
 62
6
 10
6912.433
 20
-10660.050
 30
-1262.016
 70
    32
  0
VERTEX
  8
E65LXLIFT
 62
6
 10
6904.482
 20
-10637.569
 30
-1261.956
 70
    32
  0
SEQEND
  8
E65LXLIFT
  0
POLYLINE
  8
E65LXLIFT
 62
6
 66
     1
 70
     9
  0
VERTEX
  8
E65LXLIFT
 62
6
 10
6920.638
 20
-10694.911
 30
-1262.112
 70
    32
  0
VERTEX
  8
E65LXLIFT
 62
6
 10
6925.013
 20
-10696.919
 30
-1262.115
 70
    32
  0
VERTEX
  8
E65LXLIFT
 62
6
 10
6923.074
 20
-10697.714
 30
-1262.118
 70
    32
  0
VERTEX
  8
E65LXLIFT
 62
6
 10
6911.696
 20
-10694.458
 30
-1262.117
 70
    32
  0
VERTEX
  8
E65LXLIFT
 62
6
 10
6906.046
 20
-10683.704
 30
-1262.090
 70
    32
  0
VERTEX
  8
E65LXLIFT
 62
6
 10
6905.632
 20
-10670.230
 30
-1262.051
 70
    32
  0
VERTEX
  8
E65LXLIFT
 62
6
 10
6908.999
 20
-10669.135
 30
-1262.045
 70
    32
  0
VERTEX
  8
E65LXLIFT
 62
6
 10
6922.803
 20
-10688.984
 30
-1262.093
 70
    32
  0
SEQEND
  8
E65LXLIFT
  0
POLYLINE
  8
E65LXLIFT
 62
1
 66
     1
 70
     9
  0
VERTEX
  8
E65LXLIFT
 62
1
 10
6899.373
 20
-10598.038
 30
-1251.848
 70
    32
  0
VERTEX
  8
E65LXLIFT
 62
1
 10
6899.012
 20
-10584.635
 30
-1251.797
 70
    32
  0
VERTEX
  8
E65LXLIFT
 62
1
 10
6907.656
 20
-10560.168
 30
-1251.694
 70
    32
  0
VERTEX
  8
E65LXLIFT
 62
1
 10
6913.277
 20
-10552.528
 30
-1251.659
 70
    32
  0
VERTEX
  8
E65LXLIFT
 62
1
 10
6916.471
 20
-10555.313
 30
-1251.667
 70
    32
  0
VERTEX
  8
E65LXLIFT
 62
1
 10
6931.817
 20
-10586.907
 30
-1251.775
 70
    32
  0
VERTEX
  8
E65LXLIFT
 62
1
 10
6931.221
 20
-10592.427
 30
-1251.797
 70
    32
  0
VERTEX
  8
E65LXLIFT
 62
1
 10
6932.794
 20
-10597.752
 30
-1251.816
 70
    32
  0
VERTEX
  8
E65LXLIFT
 62
1
 10
6936.216
 20
-10600.254
 30
-1251.823
 70
    32
  0
VERTEX
  8
E65LXLIFT
 62
1
 10
6943.703
 20
-10642.382
 30
-1251.947
 70
    32
  0
VERTEX
  8
E65LXLIFT
 62
1
 10
6942.586
 20
-10660.425
 30
-1252.000
 70
    32
  0
VERTEX
  8
E65LXLIFT
 62
1
 10
6946.949
 20
-10670.933
 30
-1252.028
 70
    32
  0
VERTEX
  8
E65LXLIFT
 62
1
 10
6940.108
 20
-10673.865
 30
-1252.041
 70
    32
  0
VERTEX
  8
E65LXLIFT
 62
1
 10
6937.711
 20
-10676.547
 30
-1252.050
 70
    32
  0
VERTEX
  8
E65LXLIFT
 62
1
 10
6937.579
 20
-10690.321
 30
-1252.090
 70
    32
  0
VERTEX
  8
E65LXLIFT
 62
1
 10
6942.487
 20
-10699.647
 30
-1252.114
 70
    32
  0
VERTEX
  8
E65LXLIFT
 62
1
 10
6942.242
 20
-10701.817
 30
-1252.120
 70
    32
  0
VERTEX
  8
E65LXLIFT
 62
1
 10
6938.225
 20
-10707.480
 30
-1252.139
 70
    32
  0
VERTEX
  8
E65LXLIFT
 62
1
 10
6933.113
 20
-10711.540
 30
-1252.154
 70
    32
  0
VERTEX
  8
E65LXLIFT
 62
1
 10
6932.441
 20
-10737.518
 30
-1252.224
 70
    32
  0
VERTEX
  8
E65LXLIFT
 62
1
 10
6928.320
 20
-10745.686
 30
-1252.249
 70
    32
  0
VERTEX
  8
E65LXLIFT
 62
1
 10
6924.696
 20
-10760.538
 30
-1252.292
 70
    32
  0
VERTEX
  8
E65LXLIFT
 62
1
 10
6926.204
 20
-10775.175
 30
-1252.330
 70
    32
  0
VERTEX
  8
E65LXLIFT
 62
1
 10
6929.455
 20
-10784.203
 30
-1252.351
 70
    32
  0
VERTEX
  8
E65LXLIFT
 62
1
 10
6932.217
 20
-10801.537
 30
-1252.395
 70
    32
  0
VERTEX
  8
E65LXLIFT
 62
1
 10
6931.532
 20
-10805.912
 30
-1252.407
 70
    32
  0
VERTEX
  8
E65LXLIFT
 62
1
 10
6927.778
 20
-10809.282
 30
-1252.419
 70
    32
  0
VERTEX
  8
E65LXLIFT
 62
1
 10
6917.960
 20
-10789.307
 30
-1252.374
 70
    32
  0
VERTEX
  8
E65LXLIFT
 62
1
 10
6904.995
 20
-10785.700
 30
-1252.375
 70
    32
  0
VERTEX
  8
E65LXLIFT
 62
1
 10
6903.177
 20
-10782.985
 30
-1252.370
 70
    32
  0
VERTEX
  8
E65LXLIFT
 62
1
 10
6900.066
 20
-10772.088
 30
-1252.343
 70
    32
  0
VERTEX
  8
E65LXLIFT
 62
1
 10
6898.598
 20
-10765.581
 30
-1252.327
 70
    32
  0
VERTEX
  8
E65LXLIFT
 62
1
 10
6898.598
 20
-10765.581
 30
-1252.327
 70
    32
  0
VERTEX
  8
E65LXLIFT
 62
1
 10
6898.598
 20
-10765.581
 30
-1252.327
 70
    32
  0
VERTEX
  8
E65LXLIFT
 62
1
 10
6898.906
 20
-10750.132
 30
-1252.285
 70
    32
  0
VERTEX
  8
E65LXLIFT
 62
1
 10
6897.369
 20
-10746.323
 30
-1252.277
 70
    32
  0
VERTEX
  8
E65LXLIFT
 62
1
 10
6901.490
 20
-10737.273
 30
-1252.249
 70
    32
  0
VERTEX
  8
E65LXLIFT
 62
1
 10
6900.446
 20
-10731.331
 30
-1252.234
 70
    32
  0
VERTEX
  8
E65LXLIFT
 62
1
 10
6899.788
 20
-10722.672
 30
-1252.211
 70
    32
  0
VERTEX
  8
E65LXLIFT
 62
1
 10
6899.043
 20
-10716.394
 30
-1252.193
 70
    32
  0
VERTEX
  8
E65LXLIFT
 62
1
 10
6901.257
 20
-10703.924
 30
-1252.155
 70
    32
  0
VERTEX
  8
E65LXLIFT
 62
1
 10
6899.257
 20
-10693.185
 30
-1252.125
 70
    32
  0
VERTEX
  8
E65LXLIFT
 62
1
 10
6896.624
 20
-10684.686
 30
-1252.103
 70
    32
  0
VERTEX
  8
E65LXLIFT
 62
1
 10
6895.598
 20
-10666.427
 30
-1252.050
 70
    32
  0
VERTEX
  8
E65LXLIFT
 62
1
 10
6894.876
 20
-10653.577
 30
-1252.013
 70
    32
  0
VERTEX
  8
E65LXLIFT
 62
1
 10
6893.601
 20
-10645.712
 30
-1251.991
 70
    32
  0
VERTEX
  8
E65LXLIFT
 62
1
 10
6888.863
 20
-10626.333
 30
-1251.938
 70
    32
  0
VERTEX
  8
E65LXLIFT
 62
1
 10
6894.838
 20
-10620.633
 30
-1251.917
 70
    32
  0
VERTEX
  8
E65LXLIFT
 62
1
 10
6898.888
 20
-10611.195
 30
-1251.887
 70
    32
  0
VERTEX
  8
E65LXLIFT
 62
1
 10
6899.168
 20
-10607.456
 30
-1251.876
 70
    32
  0
SEQEND
  8
E65LXLIFT
  0
POLYLINE
  8
E65LXLIFT
 62
1
 66
     1
 70
     9
  0
VERTEX
  8
E65LXLIFT
 62
1
 10
6906.730
 20
-10629.567
 30
-1251.935
 70
    32
  0
VERTEX
  8
E65LXLIFT
 62
1
 10
6911.703
 20
-10629.581
 30
-1251.932
 70
    32
  0
VERTEX
  8
E65LXLIFT
 62
1
 10
6923.170
 20
-10635.306
 30
-1251.940
 70
    32
  0
VERTEX
  8
E65LXLIFT
 62
1
 10
6925.341
 20
-10637.315
 30
-1251.945
 70
    32
  0
VERTEX
  8
E65LXLIFT
 62
1
 10
6928.169
 20
-10647.983
 30
-1251.974
 70
    32
  0
VERTEX
  8
E65LXLIFT
 62
1
 10
6926.963
 20
-10663.997
 30
-1252.021
 70
    32
  0
VERTEX
  8
E65LXLIFT
 62
1
 10
6925.133
 20
-10670.224
 30
-1252.041
 70
    32
  0
VERTEX
  8
E65LXLIFT
 62
1
 10
6917.969
 20
-10664.796
 30
-1252.030
 70
    32
  0
VERTEX
  8
E65LXLIFT
 62
1
 10
6913.433
 20
-10659.050
 30
-1252.016
 70
    32
  0
VERTEX
  8
E65LXLIFT
 62
1
 10
6905.482
 20
-10636.569
 30
-1251.956
 70
    32
  0
SEQEND
  8
E65LXLIFT
  0
POLYLINE
  8
E65LXLIFT
 62
1
 66
     1
 70
     9
  0
VERTEX
  8
E65LXLIFT
 62
1
 10
6923.803
 20
-10687.984
 30
-1252.093
 70
    32
  0
VERTEX
  8
E65LXLIFT
 62
1
 10
6909.999
 20
-10668.135
 30
-1252.045
 70
    32
  0
VERTEX
  8
E65LXLIFT
 62
1
 10
6906.632
 20
-10669.230
 30
-1252.051
 70
    32
  0
VERTEX
  8
E65LXLIFT
 62
1
 10
6907.046
 20
-10682.704
 30
-1252.090
 70
    32
  0
VERTEX
  8
E65LXLIFT
 62
1
 10
6912.696
 20
-10693.458
 30
-1252.117
 70
    32
  0
VERTEX
  8
E65LXLIFT
 62
1
 10
6924.074
 20
-10696.714
 30
-1252.118
 70
    32
  0
VERTEX
  8
E65LXLIFT
 62
1
 10
6926.013
 20
-10695.919
 30
-1252.115
 70
    32
  0
VERTEX
  8
E65LXLIFT
 62
1
 10
6921.638
 20
-10693.911
 30
-1252.112
 70
    32
  0
SEQEND
  8
E65LXLIFT
  0
POINT
  8
E65LXLIFT
 62
1
 10
6928.871
 20
-10680.255
 30
-1251.940
  0
POINT
  8
E65LXLIFT
 62
1
 10
6921.040
 20
-10658.495
 30
-1116.441
  0
LINE
  8
E65LXLIFT
 62
6
 10
6921.040
 20
-10658.495
 30
-1116.441
 11
6928.871
 21
-10680.255
 31
-1251.940
  0
POLYLINE
  8
E65LXLIFT
 62
8
 66
     1
 70
     9
  0
VERTEX
  8
E65LXLIFT
 62
8
 10
6471.932
 20
-11207.550
 30
-1261.800
 70
    32
  0
VERTEX
  8
E65LXLIFT
 62
8
 10
6461.562
 20
-11221.259
 30
-1261.449
 70
    32
  0
VERTEX
  8
E65LXLIFT
 62
8
 10
6460.986
 20
-11236.417
 30
-1261.210
 70
    32
  0
VERTEX
  8
E65LXLIFT
 62
8
 10
6458.846
 20
-11246.609
 30
-1261.026
 70
    32
  0
VERTEX
  8
E65LXLIFT
 62
8
 10
6459.575
 20
-11256.991
 30
-1260.922
 70
    32
  0
VERTEX
  8
E65LXLIFT
 62
8
 10
6457.127
 20
-11266.316
 30
-1260.931
 70
    32
  0
VERTEX
  8
E65LXLIFT
 62
8
 10
6455.710
 20
-11270.192
 30
-1260.933
 70
    32
  0
VERTEX
  8
E65LXLIFT
 62
8
 10
6450.126
 20
-11284.325
 30
-1260.935
 70
    32
  0
VERTEX
  8
E65LXLIFT
 62
8
 10
6449.423
 20
-11298.267
 30
-1260.970
 70
    32
  0
VERTEX
  8
E65LXLIFT
 62
8
 10
6450.585
 20
-11304.620
 30
-1260.995
 70
    32
  0
VERTEX
  8
E65LXLIFT
 62
8
 10
6451.920
 20
-11314.340
 30
-1261.031
 70
    32
  0
VERTEX
  8
E65LXLIFT
 62
8
 10
6457.629
 20
-11330.348
 30
-1261.114
 70
    32
  0
VERTEX
  8
E65LXLIFT
 62
8
 10
6461.242
 20
-11340.476
 30
-1261.166
 70
    32
  0
VERTEX
  8
E65LXLIFT
 62
8
 10
6463.505
 20
-11342.549
 30
-1261.187
 70
    32
  0
VERTEX
  8
E65LXLIFT
 62
8
 10
6470.736
 20
-11354.480
 30
-1261.198
 70
    32
  0
VERTEX
  8
E65LXLIFT
 62
8
 10
6471.765
 20
-11360.057
 30
-1261.192
 70
    32
  0
VERTEX
  8
E65LXLIFT
 62
8
 10
6479.359
 20
-11359.843
 30
-1261.229
 70
    32
  0
VERTEX
  8
E65LXLIFT
 62
8
 10
6496.446
 20
-11365.883
 30
-1261.298
 70
    32
  0
VERTEX
  8
E65LXLIFT
 62
8
 10
6515.217
 20
-11355.297
 30
-1261.408
 70
    32
  0
VERTEX
  8
E65LXLIFT
 62
8
 10
6522.771
 20
-11339.830
 30
-1261.474
 70
    32
  0
VERTEX
  8
E65LXLIFT
 62
8
 10
6517.694
 20
-11333.943
 30
-1261.461
 70
    32
  0
VERTEX
  8
E65LXLIFT
 62
8
 10
6515.314
 20
-11330.993
 30
-1261.455
 70
    32
  0
VERTEX
  8
E65LXLIFT
 62
8
 10
6504.916
 20
-11325.293
 30
-1261.413
 70
    32
  0
VERTEX
  8
E65LXLIFT
 62
8
 10
6499.075
 20
-11315.381
 30
-1261.347
 70
    32
  0
VERTEX
  8
E65LXLIFT
 62
8
 10
6502.609
 20
-11309.627
 30
-1261.354
 70
    32
  0
VERTEX
  8
E65LXLIFT
 62
8
 10
6497.369
 20
-11299.493
 30
-1261.291
 70
    32
  0
VERTEX
  8
E65LXLIFT
 62
8
 10
6498.356
 20
-11285.344
 30
-1261.258
 70
    32
  0
VERTEX
  8
E65LXLIFT
 62
8
 10
6495.040
 20
-11262.339
 30
-1261.283
 70
    32
  0
VERTEX
  8
E65LXLIFT
 62
8
 10
6489.500
 20
-11253.735
 30
-1261.338
 70
    32
  0
VERTEX
  8
E65LXLIFT
 62
8
 10
6488.194
 20
-11243.011
 30
-1261.483
 70
    32
  0
VERTEX
  8
E65LXLIFT
 62
8
 10
6479.055
 20
-11238.135
 30
-1261.432
 70
    32
  0
VERTEX
  8
E65LXLIFT
 62
8
 10
6477.131
 20
-11233.869
 30
-1261.470
 70
    32
  0
VERTEX
  8
E65LXLIFT
 62
8
 10
6477.259
 20
-11224.060
 30
-1261.621
 70
    32
  0
VERTEX
  8
E65LXLIFT
 62
8
 10
6478.863
 20
-11216.117
 30
-1261.764
 70
    32
  0
VERTEX
  8
E65LXLIFT
 62
8
 10
6477.510
 20
-11214.270
 30
-1261.774
 70
    32
  0
VERTEX
  8
E65LXLIFT
 62
8
 10
6477.510
 20
-11214.270
 30
-1261.774
 70
    32
  0
SEQEND
  8
E65LXLIFT
  0
POLYLINE
  8
E65LXLIFT
 62
1
 66
     1
 70
     9
  0
VERTEX
  8
E65LXLIFT
 62
1
 10
6472.932
 20
-11206.550
 30
-1251.800
 70
    32
  0
VERTEX
  8
E65LXLIFT
 62
1
 10
6462.562
 20
-11220.259
 30
-1251.449
 70
    32
  0
VERTEX
  8
E65LXLIFT
 62
1
 10
6461.986
 20
-11235.417
 30
-1251.210
 70
    32
  0
VERTEX
  8
E65LXLIFT
 62
1
 10
6459.846
 20
-11245.609
 30
-1251.026
 70
    32
  0
VERTEX
  8
E65LXLIFT
 62
1
 10
6460.575
 20
-11255.991
 30
-1250.922
 70
    32
  0
VERTEX
  8
E65LXLIFT
 62
1
 10
6458.127
 20
-11265.316
 30
-1250.931
 70
    32
  0
VERTEX
  8
E65LXLIFT
 62
1
 10
6456.710
 20
-11269.192
 30
-1250.933
 70
    32
  0
VERTEX
  8
E65LXLIFT
 62
1
 10
6451.126
 20
-11283.325
 30
-1250.935
 70
    32
  0
VERTEX
  8
E65LXLIFT
 62
1
 10
6450.423
 20
-11297.267
 30
-1250.970
 70
    32
  0
VERTEX
  8
E65LXLIFT
 62
1
 10
6451.585
 20
-11303.620
 30
-1250.995
 70
    32
  0
VERTEX
  8
E65LXLIFT
 62
1
 10
6452.920
 20
-11313.340
 30
-1251.031
 70
    32
  0
VERTEX
  8
E65LXLIFT
 62
1
 10
6458.629
 20
-11329.348
 30
-1251.114
 70
    32
  0
VERTEX
  8
E65LXLIFT
 62
1
 10
6462.242
 20
-11339.476
 30
-1251.166
 70
    32
  0
VERTEX
  8
E65LXLIFT
 62
1
 10
6464.505
 20
-11341.549
 30
-1251.187
 70
    32
  0
VERTEX
  8
E65LXLIFT
 62
1
 10
6471.736
 20
-11353.480
 30
-1251.198
 70
    32
  0
VERTEX
  8
E65LXLIFT
 62
1
 10
6472.765
 20
-11359.057
 30
-1251.192
 70
    32
  0
VERTEX
  8
E65LXLIFT
 62
1
 10
6480.359
 20
-11358.843
 30
-1251.229
 70
    32
  0
VERTEX
  8
E65LXLIFT
 62
1
 10
6497.446
 20
-11364.883
 30
-1251.298
 70
    32
  0
VERTEX
  8
E65LXLIFT
 62
1
 10
6516.217
 20
-11354.297
 30
-1251.408
 70
    32
  0
VERTEX
  8
E65LXLIFT
 62
1
 10
6523.771
 20
-11338.830
 30
-1251.474
 70
    32
  0
VERTEX
  8
E65LXLIFT
 62
1
 10
6518.694
 20
-11332.943
 30
-1251.461
 70
    32
  0
VERTEX
  8
E65LXLIFT
 62
1
 10
6516.314
 20
-11329.993
 30
-1251.455
 70
    32
  0
VERTEX
  8
E65LXLIFT
 62
1
 10
6505.916
 20
-11324.293
 30
-1251.413
 70
    32
  0
VERTEX
  8
E65LXLIFT
 62
1
 10
6500.075
 20
-11314.381
 30
-1251.347
 70
    32
  0
VERTEX
  8
E65LXLIFT
 62
1
 10
6503.609
 20
-11308.627
 30
-1251.354
 70
    32
  0
VERTEX
  8
E65LXLIFT
 62
1
 10
6498.369
 20
-11298.493
 30
-1251.291
 70
    32
  0
VERTEX
  8
E65LXLIFT
 62
1
 10
6499.356
 20
-11284.344
 30
-1251.258
 70
    32
  0
VERTEX
  8
E65LXLIFT
 62
1
 10
6496.040
 20
-11261.339
 30
-1251.283
 70
    32
  0
VERTEX
  8
E65LXLIFT
 62
1
 10
6490.500
 20
-11252.735
 30
-1251.338
 70
    32
  0
VERTEX
  8
E65LXLIFT
 62
1
 10
6489.194
 20
-11242.011
 30
-1251.483
 70
    32
  0
VERTEX
  8
E65LXLIFT
 62
1
 10
6480.055
 20
-11237.135
 30
-1251.432
 70
    32
  0
VERTEX
  8
E65LXLIFT
 62
1
 10
6478.131
 20
-11232.869
 30
-1251.470
 70
    32
  0
VERTEX
  8
E65LXLIFT
 62
1
 10
6478.259
 20
-11223.060
 30
-1251.621
 70
    32
  0
VERTEX
  8
E65LXLIFT
 62
1
 10
6479.863
 20
-11215.117
 30
-1251.764
 70
    32
  0
VERTEX
  8
E65LXLIFT
 62
1
 10
6478.510
 20
-11213.270
 30
-1251.774
 70
    32
  0
VERTEX
  8
E65LXLIFT
 62
1
 10
6478.510
 20
-11213.270
 30
-1251.774
 70
    32
  0
SEQEND
  8
E65LXLIFT
  0
POINT
  8
E65LXLIFT
 62
1
 10
6524.598
 20
-11303.091
 30
-1366.000
  0
POINT
  8
E65LXLIFT
 62
1
 10
6488.966
 20
-11299.300
 30
-1261.229
  0
LINE
  8
E65LXLIFT
 62
8
 10
6488.966
 20
-11299.300
 30
-1261.229
 11
6524.598
 21
-11303.091
 31
-1366.000
  0
POINT
  8
E65LXLIFT
 62
1
 10
6465.581
 20
-11276.820
 30
-1251.114
  0
POINT
  8
E65LXLIFT
 62
1
 10
6389.642
 20
-11225.866
 30
-1158.000
  0
POLYLINE
  8
E65LXLIFT
 62
1
 66
     1
 70
     9
  0
VERTEX
  8
E65LXLIFT
 62
1
 10
6382.550
 20
-11144.344
 30
-1177.000
 70
    32
  0
VERTEX
  8
E65LXLIFT
 62
1
 10
6390.152
 20
-11150.615
 30
-1177.000
 70
    32
  0
VERTEX
  8
E65LXLIFT
 62
1
 10
6400.009
 20
-11152.867
 30
-1177.000
 70
    32
  0
VERTEX
  8
E65LXLIFT
 62
1
 10
6404.545
 20
-11157.706
 30
-1177.000
 70
    32
  0
VERTEX
  8
E65LXLIFT
 62
1
 10
6413.229
 20
-11156.217
 30
-1177.000
 70
    32
  0
VERTEX
  8
E65LXLIFT
 62
1
 10
6421.836
 20
-11153.022
 30
-1177.000
 70
    32
  0
VERTEX
  8
E65LXLIFT
 62
1
 10
6427.697
 20
-11159.615
 30
-1177.000
 70
    32
  0
VERTEX
  8
E65LXLIFT
 62
1
 10
6431.749
 20
-11166.583
 30
-1177.000
 70
    32
  0
VERTEX
  8
E65LXLIFT
 62
1
 10
6438.416
 20
-11166.947
 30
-1177.000
 70
    32
  0
VERTEX
  8
E65LXLIFT
 62
1
 10
6445.699
 20
-11167.397
 30
-1177.000
 70
    32
  0
VERTEX
  8
E65LXLIFT
 62
1
 10
6457.201
 20
-11167.305
 30
-1177.000
 70
    32
  0
VERTEX
  8
E65LXLIFT
 62
1
 10
6461.156
 20
-11171.812
 30
-1177.000
 70
    32
  0
VERTEX
  8
E65LXLIFT
 62
1
 10
6467.137
 20
-11172.143
 30
-1177.000
 70
    32
  0
VERTEX
  8
E65LXLIFT
 62
1
 10
6465.396
 20
-11177.425
 30
-1177.000
 70
    32
  0
VERTEX
  8
E65LXLIFT
 62
1
 10
6470.400
 20
-11190.617
 30
-1177.000
 70
    32
  0
VERTEX
  8
E65LXLIFT
 62
1
 10
6482.884
 20
-11199.702
 30
-1177.000
 70
    32
  0
VERTEX
  8
E65LXLIFT
 62
1
 10
6475.194
 20
-11208.927
 30
-1177.000
 70
    32
  0
VERTEX
  8
E65LXLIFT
 62
1
 10
6460.160
 20
-11199.674
 30
-1177.000
 70
    32
  0
VERTEX
  8
E65LXLIFT
 62
1
 10
6447.417
 20
-11186.597
 30
-1177.000
 70
    32
  0
VERTEX
  8
E65LXLIFT
 62
1
 10
6438.394
 20
-11181.070
 30
-1177.000
 70
    32
  0
VERTEX
  8
E65LXLIFT
 62
1
 10
6426.924
 20
-11180.476
 30
-1177.000
 70
    32
  0
VERTEX
  8
E65LXLIFT
 62
1
 10
6421.311
 20
-11184.716
 30
-1177.000
 70
    32
  0
VERTEX
  8
E65LXLIFT
 62
1
 10
6421.431
 20
-11194.213
 30
-1177.000
 70
    32
  0
VERTEX
  8
E65LXLIFT
 62
1
 10
6404.938
 20
-11195.430
 30
-1177.000
 70
    32
  0
VERTEX
  8
E65LXLIFT
 62
1
 10
6403.069
 20
-11189.017
 30
-1177.000
 70
    32
  0
VERTEX
  8
E65LXLIFT
 62
1
 10
6386.052
 20
-11191.291
 30
-1177.000
 70
    32
  0
VERTEX
  8
E65LXLIFT
 62
1
 10
6380.762
 20
-11171.594
 30
-1177.000
 70
    32
  0
VERTEX
  8
E65LXLIFT
 62
1
 10
6377.673
 20
-11158.167
 30
-1177.000
 70
    32
  0
VERTEX
  8
E65LXLIFT
 62
1
 10
6373.290
 20
-11151.780
 30
-1177.000
 70
    32
  0
SEQEND
  8
E65LXLIFT
  0
LINE
  8
E65LXLIFT
 62
8
 10
6389.642
 20
-11225.866
 30
-1158.000
 11
6465.581
 21
-11276.820
 31
-1251.114
  0
POLYLINE
  8
E65LXLIFT
 62
11
 66
     1
 70
     9
  0
VERTEX
  8
E65LXLIFT
 62
11
 10
4853.536
 20
-9742.693
 30
-1264.477
 70
    32
  0
VERTEX
  8
E65LXLIFT
 62
11
 10
4859.369
 20
-9745.701
 30
-1264.482
 70
    32
  0
VERTEX
  8
E65LXLIFT
 62
11
 10
4862.218
 20
-9751.027
 30
-1264.469
 70
    32
  0
VERTEX
  8
E65LXLIFT
 62
11
 10
4863.998
 20
-9763.922
 30
-1264.423
 70
    32
  0
VERTEX
  8
E65LXLIFT
 62
11
 10
4879.282
 20
-9792.406
 30
-1264.354
 70
    32
  0
VERTEX
  8
E65LXLIFT
 62
11
 10
4880.539
 20
-9802.081
 30
-1264.320
 70
    32
  0
VERTEX
  8
E65LXLIFT
 62
11
 10
4875.324
 20
-9806.705
 30
-1264.225
 70
    32
  0
VERTEX
  8
E65LXLIFT
 62
11
 10
4874.045
 20
-9811.478
 30
-1264.143
 70
    32
  0
VERTEX
  8
E65LXLIFT
 62
11
 10
4868.931
 20
-9814.169
 30
-1264.055
 70
    32
  0
VERTEX
  8
E65LXLIFT
 62
11
 10
4863.664
 20
-9813.257
 30
-1264.018
 70
    32
  0
VERTEX
  8
E65LXLIFT
 62
11
 10
4857.658
 20
-9793.322
 30
-1264.253
 70
    32
  0
VERTEX
  8
E65LXLIFT
 62
11
 10
4854.572
 20
-9792.107
 30
-1264.242
 70
    32
  0
VERTEX
  8
E65LXLIFT
 62
11
 10
4849.688
 20
-9772.654
 30
-1264.348
 70
    32
  0
VERTEX
  8
E65LXLIFT
 62
11
 10
4839.020
 20
-9742.284
 30
-1264.438
 70
    32
  0
SEQEND
  8
E65LXLIFT
  0
POLYLINE
  8
E65LXLIFT
 62
1
 66
     1
 70
     9
  0
VERTEX
  8
E65LXLIFT
 62
1
 10
4863.181
 20
-9738.949
 30
-1228.000
 70
    32
  0
VERTEX
  8
E65LXLIFT
 62
1
 10
4867.707
 20
-9753.902
 30
-1228.000
 70
    32
  0
VERTEX
  8
E65LXLIFT
 62
1
 10
4876.962
 20
-9775.089
 30
-1228.000
 70
    32
  0
VERTEX
  8
E65LXLIFT
 62
1
 10
4876.066
 20
-9779.100
 30
-1228.000
 70
    32
  0
VERTEX
  8
E65LXLIFT
 62
1
 10
4869.710
 20
-9785.760
 30
-1228.000
 70
    32
  0
VERTEX
  8
E65LXLIFT
 62
1
 10
4859.755
 20
-9786.996
 30
-1228.000
 70
    32
  0
VERTEX
  8
E65LXLIFT
 62
1
 10
4848.717
 20
-9776.539
 30
-1228.000
 70
    32
  0
VERTEX
  8
E65LXLIFT
 62
1
 10
4842.444
 20
-9746.576
 30
-1228.000
 70
    32
  0
SEQEND
  8
E65LXLIFT
  0
POLYLINE
  8
E65LXLIFT
 62
1
 66
     1
 70
     9
  0
VERTEX
  8
E65LXLIFT
 62
1
 10
4792.627
 20
-9620.747
 30
-1254.000
 70
    32
  0
VERTEX
  8
E65LXLIFT
 62
1
 10
4800.740
 20
-9622.363
 30
-1254.000
 70
    32
  0
VERTEX
  8
E65LXLIFT
 62
1
 10
4810.468
 20
-9619.013
 30
-1254.000
 70
    32
  0
VERTEX
  8
E65LXLIFT
 62
1
 10
4820.194
 20
-9632.155
 30
-1254.000
 70
    32
  0
VERTEX
  8
E65LXLIFT
 62
1
 10
4815.939
 20
-9641.419
 30
-1254.000
 70
    32
  0
VERTEX
  8
E65LXLIFT
 62
1
 10
4803.386
 20
-9655.709
 30
-1254.000
 70
    32
  0
VERTEX
  8
E65LXLIFT
 62
1
 10
4793.916
 20
-9646.070
 30
-1254.000
 70
    32
  0
VERTEX
  8
E65LXLIFT
 62
1
 10
4786.824
 20
-9644.366
 30
-1254.000
 70
    32
  0
VERTEX
  8
E65LXLIFT
 62
1
 10
4778.066
 20
-9637.358
 30
-1254.000
 70
    32
  0
VERTEX
  8
E65LXLIFT
 62
1
 10
4781.259
 20
-9626.477
 30
-1254.000
 70
    32
  0
SEQEND
  8
E65LXLIFT
  0
POLYLINE
  8
E65LXLIFT
 62
1
 66
     1
 70
     9
  0
VERTEX
  8
E65LXLIFT
 62
1
 10
4690.673
 20
-9751.693
 30
-1158.000
 70
    32
  0
VERTEX
  8
E65LXLIFT
 62
1
 10
4683.310
 20
-9739.119
 30
-1158.000
 70
    32
  0
VERTEX
  8
E65LXLIFT
 62
1
 10
4685.525
 20
-9723.737
 30
-1158.000
 70
    32
  0
VERTEX
  8
E65LXLIFT
 62
1
 10
4703.479
 20
-9733.856
 30
-1158.000
 70
    32
  0
VERTEX
  8
E65LXLIFT
 62
1
 10
4714.082
 20
-9739.963
 30
-1158.000
 70
    32
  0
VERTEX
  8
E65LXLIFT
 62
1
 10
4726.464
 20
-9742.830
 30
-1158.000
 70
    32
  0
VERTEX
  8
E65LXLIFT
 62
1
 10
4734.506
 20
-9749.596
 30
-1158.000
 70
    32
  0
VERTEX
  8
E65LXLIFT
 62
1
 10
4746.367
 20
-9767.488
 30
-1158.000
 70
    32
  0
VERTEX
  8
E65LXLIFT
 62
1
 10
4744.253
 20
-9772.814
 30
-1158.000
 70
    32
  0
VERTEX
  8
E65LXLIFT
 62
1
 10
4745.127
 20
-9785.418
 30
-1158.000
 70
    32
  0
VERTEX
  8
E65LXLIFT
 62
1
 10
4745.701
 20
-9794.008
 30
-1158.000
 70
    32
  0
VERTEX
  8
E65LXLIFT
 62
1
 10
4745.869
 20
-9804.736
 30
-1158.000
 70
    32
  0
VERTEX
  8
E65LXLIFT
 62
1
 10
4742.497
 20
-9806.525
 30
-1158.000
 70
    32
  0
VERTEX
  8
E65LXLIFT
 62
1
 10
4741.401
 20
-9811.007
 30
-1158.000
 70
    32
  0
VERTEX
  8
E65LXLIFT
 62
1
 10
4734.507
 20
-9818.273
 30
-1158.000
 70
    32
  0
VERTEX
  8
E65LXLIFT
 62
1
 10
4724.925
 20
-9825.423
 30
-1158.000
 70
    32
  0
VERTEX
  8
E65LXLIFT
 62
1
 10
4712.971
 20
-9827.346
 30
-1158.000
 70
    32
  0
VERTEX
  8
E65LXLIFT
 62
1
 10
4705.192
 20
-9831.889
 30
-1158.000
 70
    32
  0
VERTEX
  8
E65LXLIFT
 62
1
 10
4694.693
 20
-9831.024
 30
-1158.000
 70
    32
  0
VERTEX
  8
E65LXLIFT
 62
1
 10
4689.807
 20
-9839.116
 30
-1158.000
 70
    32
  0
VERTEX
  8
E65LXLIFT
 62
1
 10
4682.339
 20
-9837.792
 30
-1158.000
 70
    32
  0
VERTEX
  8
E65LXLIFT
 62
1
 10
4681.774
 20
-9833.862
 30
-1158.000
 70
    32
  0
VERTEX
  8
E65LXLIFT
 62
1
 10
4692.032
 20
-9803.655
 30
-1158.000
 70
    32
  0
VERTEX
  8
E65LXLIFT
 62
1
 10
4694.388
 20
-9786.219
 30
-1158.000
 70
    32
  0
VERTEX
  8
E65LXLIFT
 62
1
 10
4690.537
 20
-9772.948
 30
-1158.000
 70
    32
  0
SEQEND
  8
E65LXLIFT
  0
POLYLINE
  8
E65LXLIFT
 62
1
 66
     1
 70
     9
  0
VERTEX
  8
E65LXLIFT
 62
1
 10
4760.285
 20
-9506.761
 30
-1157.000
 70
    32
  0
VERTEX
  8
E65LXLIFT
 62
1
 10
4774.216
 20
-9523.270
 30
-1157.000
 70
    32
  0
VERTEX
  8
E65LXLIFT
 62
1
 10
4789.025
 20
-9542.068
 30
-1157.000
 70
    32
  0
VERTEX
  8
E65LXLIFT
 62
1
 10
4802.301
 20
-9560.231
 30
-1157.000
 70
    32
  0
VERTEX
  8
E65LXLIFT
 62
1
 10
4801.970
 20
-9565.216
 30
-1157.000
 70
    32
  0
VERTEX
  8
E65LXLIFT
 62
1
 10
4790.164
 20
-9574.391
 30
-1157.000
 70
    32
  0
VERTEX
  8
E65LXLIFT
 62
1
 10
4782.586
 20
-9572.239
 30
-1157.000
 70
    32
  0
VERTEX
  8
E65LXLIFT
 62
1
 10
4771.477
 20
-9564.835
 30
-1157.000
 70
    32
  0
VERTEX
  8
E65LXLIFT
 62
1
 10
4758.339
 20
-9552.617
 30
-1157.000
 70
    32
  0
VERTEX
  8
E65LXLIFT
 62
1
 10
4759.218
 20
-9539.470
 30
-1157.000
 70
    32
  0
VERTEX
  8
E65LXLIFT
 62
1
 10
4760.075
 20
-9527.202
 30
-1157.000
 70
    32
  0
VERTEX
  8
E65LXLIFT
 62
1
 10
4753.440
 20
-9520.169
 30
-1157.000
 70
    32
  0
SEQEND
  8
E65LXLIFT
  0
POLYLINE
  8
E65LXLIFT
 62
1
 66
     1
 70
     9
  0
VERTEX
  8
E65LXLIFT
 62
1
 10
4515.141
 20
-9429.229
 30
-1133.000
 70
    32
  0
VERTEX
  8
E65LXLIFT
 62
1
 10
4518.864
 20
-9397.972
 30
-1133.000
 70
    32
  0
VERTEX
  8
E65LXLIFT
 62
1
 10
4518.135
 20
-9388.777
 30
-1133.000
 70
    32
  0
VERTEX
  8
E65LXLIFT
 62
1
 10
4516.907
 20
-9366.016
 30
-1133.000
 70
    32
  0
VERTEX
  8
E65LXLIFT
 62
1
 10
4527.036
 20
-9345.409
 30
-1133.000
 70
    32
  0
VERTEX
  8
E65LXLIFT
 62
1
 10
4533.659
 20
-9341.226
 30
-1133.000
 70
    32
  0
VERTEX
  8
E65LXLIFT
 62
1
 10
4549.538
 20
-9335.946
 30
-1133.000
 70
    32
  0
VERTEX
  8
E65LXLIFT
 62
1
 10
4571.439
 20
-9284.927
 30
-1133.000
 70
    32
  0
VERTEX
  8
E65LXLIFT
 62
1
 10
4586.722
 20
-9283.958
 30
-1133.000
 70
    32
  0
VERTEX
  8
E65LXLIFT
 62
1
 10
4594.349
 20
-9276.036
 30
-1133.000
 70
    32
  0
VERTEX
  8
E65LXLIFT
 62
1
 10
4597.863
 20
-9263.709
 30
-1133.000
 70
    32
  0
VERTEX
  8
E65LXLIFT
 62
1
 10
4607.262
 20
-9262.511
 30
-1133.000
 70
    32
  0
VERTEX
  8
E65LXLIFT
 62
1
 10
4621.169
 20
-9270.510
 30
-1133.000
 70
    32
  0
VERTEX
  8
E65LXLIFT
 62
1
 10
4623.893
 20
-9275.692
 30
-1133.000
 70
    32
  0
VERTEX
  8
E65LXLIFT
 62
1
 10
4620.151
 20
-9279.979
 30
-1133.000
 70
    32
  0
VERTEX
  8
E65LXLIFT
 62
1
 10
4621.304
 20
-9294.159
 30
-1133.000
 70
    32
  0
VERTEX
  8
E65LXLIFT
 62
1
 10
4585.354
 20
-9309.434
 30
-1133.000
 70
    32
  0
VERTEX
  8
E65LXLIFT
 62
1
 10
4584.007
 20
-9320.108
 30
-1133.000
 70
    32
  0
VERTEX
  8
E65LXLIFT
 62
1
 10
4570.353
 20
-9327.903
 30
-1133.000
 70
    32
  0
VERTEX
  8
E65LXLIFT
 62
1
 10
4562.329
 20
-9334.812
 30
-1133.000
 70
    32
  0
VERTEX
  8
E65LXLIFT
 62
1
 10
4561.283
 20
-9339.551
 30
-1133.000
 70
    32
  0
VERTEX
  8
E65LXLIFT
 62
1
 10
4563.577
 20
-9345.039
 30
-1133.000
 70
    32
  0
VERTEX
  8
E65LXLIFT
 62
1
 10
4566.513
 20
-9366.259
 30
-1133.000
 70
    32
  0
VERTEX
  8
E65LXLIFT
 62
1
 10
4545.624
 20
-9403.713
 30
-1133.000
 70
    32
  0
VERTEX
  8
E65LXLIFT
 62
1
 10
4534.778
 20
-9413.175
 30
-1133.000
 70
    32
  0
VERTEX
  8
E65LXLIFT
 62
1
 10
4526.407
 20
-9432.312
 30
-1133.000
 70
    32
  0
SEQEND
  8
E65LXLIFT
  0
POLYLINE
  8
E65LXLIFT
 62
13
 66
     1
 70
     9
  0
VERTEX
  8
E65LXLIFT
 62
13
 10
5120.907
 20
-9560.919
 30
-1158.410
 70
    32
  0
VERTEX
  8
E65LXLIFT
 62
13
 10
5128.796
 20
-9564.627
 30
-1158.410
 70
    32
  0
VERTEX
  8
E65LXLIFT
 62
13
 10
5151.455
 20
-9554.280
 30
-1158.410
 70
    32
  0
VERTEX
  8
E65LXLIFT
 62
13
 10
5154.906
 20
-9544.493
 30
-1158.410
 70
    32
  0
VERTEX
  8
E65LXLIFT
 62
13
 10
5160.404
 20
-9538.637
 30
-1158.410
 70
    32
  0
VERTEX
  8
E65LXLIFT
 62
13
 10
5173.963
 20
-9519.497
 30
-1158.410
 70
    32
  0
VERTEX
  8
E65LXLIFT
 62
13
 10
5165.767
 20
-9503.107
 30
-1158.410
 70
    32
  0
VERTEX
  8
E65LXLIFT
 62
13
 10
5152.549
 20
-9493.045
 30
-1158.410
 70
    32
  0
VERTEX
  8
E65LXLIFT
 62
13
 10
5137.170
 20
-9500.432
 30
-1158.410
 70
    32
  0
VERTEX
  8
E65LXLIFT
 62
13
 10
5123.562
 20
-9516.797
 30
-1158.410
 70
    32
  0
VERTEX
  8
E65LXLIFT
 62
13
 10
5105.079
 20
-9548.304
 30
-1158.410
 70
    32
  0
SEQEND
  8
E65LXLIFT
  0
POLYLINE
  8
E65LXLIFT
 62
2
 66
     1
 70
     9
  0
VERTEX
  8
E65LXLIFT
 62
2
 10
3474.323
 20
-8655.309
 30
-1141.432
 70
    32
  0
VERTEX
  8
E65LXLIFT
 62
2
 10
3497.371
 20
-8656.555
 30
-1141.734
 70
    32
  0
VERTEX
  8
E65LXLIFT
 62
2
 10
3505.447
 20
-8659.361
 30
-1142.267
 70
    32
  0
VERTEX
  8
E65LXLIFT
 62
2
 10
3509.295
 20
-8665.029
 30
-1142.728
 70
    32
  0
VERTEX
  8
E65LXLIFT
 62
2
 10
3520.250
 20
-8675.615
 30
-1144.140
 70
    32
  0
VERTEX
  8
E65LXLIFT
 62
2
 10
3535.208
 20
-8664.984
 30
-1145.523
 70
    32
  0
VERTEX
  8
E65LXLIFT
 62
2
 10
3540.296
 20
-8663.895
 30
-1145.352
 70
    32
  0
VERTEX
  8
E65LXLIFT
 62
2
 10
3547.238
 20
-8664.999
 30
-1146.771
 70
    32
  0
VERTEX
  8
E65LXLIFT
 62
2
 10
3554.835
 20
-8662.052
 30
-1147.398
 70
    32
  0
VERTEX
  8
E65LXLIFT
 62
2
 10
3567.650
 20
-8675.557
 30
-1152.685
 70
    32
  0
VERTEX
  8
E65LXLIFT
 62
2
 10
3571.522
 20
-8680.014
 30
-1152.685
 70
    32
  0
VERTEX
  8
E65LXLIFT
 62
2
 10
3579.605
 20
-8673.397
 30
-1152.685
 70
    32
  0
VERTEX
  8
E65LXLIFT
 62
2
 10
3581.293
 20
-8667.548
 30
-1152.685
 70
    32
  0
VERTEX
  8
E65LXLIFT
 62
2
 10
3579.930
 20
-8660.481
 30
-1152.685
 70
    32
  0
VERTEX
  8
E65LXLIFT
 62
2
 10
3571.899
 20
-8660.916
 30
-1152.057
 70
    32
  0
VERTEX
  8
E65LXLIFT
 62
2
 10
3565.981
 20
-8655.000
 30
-1150.502
 70
    32
  0
VERTEX
  8
E65LXLIFT
 62
2
 10
3551.073
 20
-8646.169
 30
-1147.588
 70
    32
  0
VERTEX
  8
E65LXLIFT
 62
2
 10
3550.704
 20
-8644.539
 30
-1147.509
 70
    32
  0
VERTEX
  8
E65LXLIFT
 62
2
 10
3555.842
 20
-8640.210
 30
-1148.395
 70
    32
  0
VERTEX
  8
E65LXLIFT
 62
2
 10
3552.527
 20
-8630.415
 30
-1147.722
 70
    32
  0
VERTEX
  8
E65LXLIFT
 62
2
 10
3531.648
 20
-8636.510
 30
-1145.266
 70
    32
  0
VERTEX
  8
E65LXLIFT
 62
2
 10
3528.100
 20
-8636.311
 30
-1144.882
 70
    32
  0
VERTEX
  8
E65LXLIFT
 62
2
 10
3521.846
 20
-8638.166
 30
-1144.192
 70
    32
  0
VERTEX
  8
E65LXLIFT
 62
2
 10
3514.716
 20
-8633.734
 30
-1143.511
 70
    32
  0
VERTEX
  8
E65LXLIFT
 62
2
 10
3511.234
 20
-8629.095
 30
-1143.217
 70
    32
  0
VERTEX
  8
E65LXLIFT
 62
2
 10
3490.293
 20
-8640.889
 30
-1141.517
 70
    32
  0
VERTEX
  8
E65LXLIFT
 62
2
 10
3486.861
 20
-8645.076
 30
-1141.408
 70
    32
  0
VERTEX
  8
E65LXLIFT
 62
2
 10
3481.779
 20
-8645.342
 30
-1141.169
 70
    32
  0
VERTEX
  8
E65LXLIFT
 62
2
 10
3468.805
 20
-8642.509
 30
-1140.666
 70
    32
  0
SEQEND
  8
E65LXLIFT
  0
POLYLINE
  8
E65LXLIFT
 62
8
 66
     1
 70
     9
  0
VERTEX
  8
E65LXLIFT
 62
8
 10
3469.487
 20
-8692.809
 30
-1147.289
 70
    32
  0
VERTEX
  8
E65LXLIFT
 62
8
 10
3467.844
 20
-8696.934
 30
-1147.618
 70
    32
  0
VERTEX
  8
E65LXLIFT
 62
8
 10
3455.098
 20
-8713.982
 30
-1139.445
 70
    32
  0
VERTEX
  8
E65LXLIFT
 62
8
 10
3444.517
 20
-8726.553
 30
-1140.147
 70
    32
  0
VERTEX
  8
E65LXLIFT
 62
8
 10
3434.726
 20
-8735.039
 30
-1140.553
 70
    32
  0
VERTEX
  8
E65LXLIFT
 62
8
 10
3430.042
 20
-8736.744
 30
-1140.772
 70
    32
  0
VERTEX
  8
E65LXLIFT
 62
8
 10
3425.718
 20
-8735.078
 30
-1140.956
 70
    32
  0
VERTEX
  8
E65LXLIFT
 62
8
 10
3422.250
 20
-8739.047
 30
-1140.689
 70
    32
  0
VERTEX
  8
E65LXLIFT
 62
8
 10
3417.520
 20
-8747.429
 30
-1140.289
 70
    32
  0
VERTEX
  8
E65LXLIFT
 62
8
 10
3415.650
 20
-8756.467
 30
-1140.192
 70
    32
  0
VERTEX
  8
E65LXLIFT
 62
8
 10
3411.434
 20
-8763.763
 30
-1140.355
 70
    32
  0
VERTEX
  8
E65LXLIFT
 62
8
 10
3408.982
 20
-8772.611
 30
-1140.355
 70
    32
  0
VERTEX
  8
E65LXLIFT
 62
8
 10
3405.811
 20
-8776.158
 30
-1140.355
 70
    32
  0
VERTEX
  8
E65LXLIFT
 62
8
 10
3397.284
 20
-8772.128
 30
-1140.355
 70
    32
  0
VERTEX
  8
E65LXLIFT
 62
8
 10
3404.508
 20
-8754.746
 30
-1140.254
 70
    32
  0
VERTEX
  8
E65LXLIFT
 62
8
 10
3396.266
 20
-8739.530
 30
-1140.659
 70
    32
  0
VERTEX
  8
E65LXLIFT
 62
8
 10
3399.199
 20
-8736.298
 30
-1140.754
 70
    32
  0
VERTEX
  8
E65LXLIFT
 62
8
 10
3399.041
 20
-8727.787
 30
-1140.918
 70
    32
  0
VERTEX
  8
E65LXLIFT
 62
8
 10
3396.315
 20
-8721.002
 30
-1141.034
 70
    32
  0
VERTEX
  8
E65LXLIFT
 62
8
 10
3400.777
 20
-8716.343
 30
-1141.091
 70
    32
  0
VERTEX
  8
E65LXLIFT
 62
8
 10
3405.058
 20
-8716.219
 30
-1140.978
 70
    32
  0
VERTEX
  8
E65LXLIFT
 62
8
 10
3408.538
 20
-8719.178
 30
-1140.950
 70
    32
  0
VERTEX
  8
E65LXLIFT
 62
8
 10
3425.173
 20
-8714.611
 30
-1140.593
 70
    32
  0
VERTEX
  8
E65LXLIFT
 62
8
 10
3439.357
 20
-8704.910
 30
-1139.622
 70
    32
  0
VERTEX
  8
E65LXLIFT
 62
8
 10
3440.955
 20
-8703.097
 30
-1139.517
 70
    32
  0
VERTEX
  8
E65LXLIFT
 62
8
 10
3452.963
 20
-8689.472
 30
-1148.604
 70
    32
  0
VERTEX
  8
E65LXLIFT
 62
8
 10
3454.493
 20
-8687.736
 30
-1148.174
 70
    32
  0
VERTEX
  8
E65LXLIFT
 62
8
 10
3457.294
 20
-8680.255
 30
-1146.720
 70
    32
  0
SEQEND
  8
E65LXLIFT
  0
POLYLINE
  8
E65LXLIFT
 62
6
 66
     1
 70
     9
  0
VERTEX
  8
E65LXLIFT
 62
6
 10
3470.385
 20
-8548.591
 30
-1122.000
 70
    32
  0
VERTEX
  8
E65LXLIFT
 62
6
 10
3468.910
 20
-8535.507
 30
-1122.000
 70
    32
  0
VERTEX
  8
E65LXLIFT
 62
6
 10
3467.307
 20
-8533.141
 30
-1122.000
 70
    32
  0
VERTEX
  8
E65LXLIFT
 62
6
 10
3469.051
 20
-8520.376
 30
-1122.000
 70
    32
  0
VERTEX
  8
E65LXLIFT
 62
6
 10
3465.632
 20
-8514.490
 30
-1122.000
 70
    32
  0
VERTEX
  8
E65LXLIFT
 62
6
 10
3469.461
 20
-8508.918
 30
-1122.000
 70
    32
  0
VERTEX
  8
E65LXLIFT
 62
6
 10
3470.155
 20
-8505.384
 30
-1122.000
 70
    32
  0
VERTEX
  8
E65LXLIFT
 62
6
 10
3464.477
 20
-8494.591
 30
-1122.000
 70
    32
  0
VERTEX
  8
E65LXLIFT
 62
6
 10
3459.832
 20
-8489.366
 30
-1122.000
 70
    32
  0
VERTEX
  8
E65LXLIFT
 62
6
 10
3457.614
 20
-8484.734
 30
-1122.000
 70
    32
  0
VERTEX
  8
E65LXLIFT
 62
6
 10
3459.397
 20
-8474.080
 30
-1122.000
 70
    32
  0
VERTEX
  8
E65LXLIFT
 62
6
 10
3463.870
 20
-8465.820
 30
-1122.000
 70
    32
  0
VERTEX
  8
E65LXLIFT
 62
6
 10
3462.980
 20
-8461.545
 30
-1122.000
 70
    32
  0
VERTEX
  8
E65LXLIFT
 62
6
 10
3464.787
 20
-8457.945
 30
-1122.000
 70
    32
  0
VERTEX
  8
E65LXLIFT
 62
6
 10
3455.769
 20
-8453.221
 30
-1122.000
 70
    32
  0
VERTEX
  8
E65LXLIFT
 62
6
 10
3449.847
 20
-8446.943
 30
-1122.000
 70
    32
  0
VERTEX
  8
E65LXLIFT
 62
6
 10
3445.803
 20
-8438.065
 30
-1122.000
 70
    32
  0
VERTEX
  8
E65LXLIFT
 62
6
 10
3430.888
 20
-8438.617
 30
-1122.000
 70
    32
  0
VERTEX
  8
E65LXLIFT
 62
6
 10
3422.410
 20
-8434.649
 30
-1122.000
 70
    32
  0
VERTEX
  8
E65LXLIFT
 62
6
 10
3411.190
 20
-8428.787
 30
-1122.000
 70
    32
  0
VERTEX
  8
E65LXLIFT
 62
6
 10
3403.364
 20
-8433.232
 30
-1122.000
 70
    32
  0
VERTEX
  8
E65LXLIFT
 62
6
 10
3411.706
 20
-8441.854
 30
-1122.000
 70
    32
  0
VERTEX
  8
E65LXLIFT
 62
6
 10
3417.359
 20
-8444.627
 30
-1122.000
 70
    32
  0
VERTEX
  8
E65LXLIFT
 62
6
 10
3423.929
 20
-8452.414
 30
-1122.000
 70
    32
  0
VERTEX
  8
E65LXLIFT
 62
6
 10
3428.876
 20
-8473.974
 30
-1122.000
 70
    32
  0
VERTEX
  8
E65LXLIFT
 62
6
 10
3434.221
 20
-8485.366
 30
-1122.000
 70
    32
  0
VERTEX
  8
E65LXLIFT
 62
6
 10
3430.574
 20
-8488.402
 30
-1122.000
 70
    32
  0
VERTEX
  8
E65LXLIFT
 62
6
 10
3429.997
 20
-8498.411
 30
-1122.000
 70
    32
  0
VERTEX
  8
E65LXLIFT
 62
6
 10
3432.209
 20
-8504.539
 30
-1122.000
 70
    32
  0
VERTEX
  8
E65LXLIFT
 62
6
 10
3442.929
 20
-8513.301
 30
-1122.000
 70
    32
  0
VERTEX
  8
E65LXLIFT
 62
6
 10
3439.303
 20
-8517.817
 30
-1122.000
 70
    32
  0
VERTEX
  8
E65LXLIFT
 62
6
 10
3447.775
 20
-8529.391
 30
-1122.000
 70
    32
  0
VERTEX
  8
E65LXLIFT
 62
6
 10
3449.639
 20
-8535.595
 30
-1122.000
 70
    32
  0
VERTEX
  8
E65LXLIFT
 62
6
 10
3449.218
 20
-8540.352
 30
-1122.000
 70
    32
  0
VERTEX
  8
E65LXLIFT
 62
6
 10
3448.065
 20
-8541.551
 30
-1122.000
 70
    32
  0
VERTEX
  8
E65LXLIFT
 62
6
 10
3449.640
 20
-8547.816
 30
-1122.000
 70
    32
  0
VERTEX
  8
E65LXLIFT
 62
6
 10
3450.018
 20
-8549.989
 30
-1122.000
 70
    32
  0
VERTEX
  8
E65LXLIFT
 62
6
 10
3448.089
 20
-8553.749
 30
-1122.000
 70
    32
  0
VERTEX
  8
E65LXLIFT
 62
6
 10
3448.887
 20
-8558.210
 30
-1122.000
 70
    32
  0
VERTEX
  8
E65LXLIFT
 62
6
 10
3447.647
 20
-8563.562
 30
-1122.000
 70
    32
  0
VERTEX
  8
E65LXLIFT
 62
6
 10
3444.515
 20
-8570.725
 30
-1122.000
 70
    32
  0
VERTEX
  8
E65LXLIFT
 62
6
 10
3446.731
 20
-8576.865
 30
-1122.000
 70
    32
  0
VERTEX
  8
E65LXLIFT
 62
6
 10
3459.577
 20
-8585.111
 30
-1122.000
 70
    32
  0
VERTEX
  8
E65LXLIFT
 62
6
 10
3467.131
 20
-8587.775
 30
-1122.000
 70
    32
  0
VERTEX
  8
E65LXLIFT
 62
6
 10
3472.133
 20
-8591.884
 30
-1122.000
 70
    32
  0
VERTEX
  8
E65LXLIFT
 62
6
 10
3473.906
 20
-8600.631
 30
-1122.000
 70
    32
  0
VERTEX
  8
E65LXLIFT
 62
6
 10
3488.175
 20
-8605.531
 30
-1122.000
 70
    32
  0
VERTEX
  8
E65LXLIFT
 62
6
 10
3491.835
 20
-8605.328
 30
-1122.000
 70
    32
  0
VERTEX
  8
E65LXLIFT
 62
6
 10
3492.846
 20
-8605.932
 30
-1122.000
 70
    32
  0
VERTEX
  8
E65LXLIFT
 62
6
 10
3509.603
 20
-8613.013
 30
-1122.000
 70
    32
  0
VERTEX
  8
E65LXLIFT
 62
6
 10
3529.003
 20
-8617.198
 30
-1122.000
 70
    32
  0
VERTEX
  8
E65LXLIFT
 62
6
 10
3535.609
 20
-8612.969
 30
-1122.000
 70
    32
  0
VERTEX
  8
E65LXLIFT
 62
6
 10
3537.373
 20
-8604.144
 30
-1122.000
 70
    32
  0
VERTEX
  8
E65LXLIFT
 62
6
 10
3529.266
 20
-8604.232
 30
-1122.000
 70
    32
  0
VERTEX
  8
E65LXLIFT
 62
6
 10
3526.579
 20
-8601.846
 30
-1122.000
 70
    32
  0
VERTEX
  8
E65LXLIFT
 62
6
 10
3509.807
 20
-8601.523
 30
-1122.000
 70
    32
  0
VERTEX
  8
E65LXLIFT
 62
6
 10
3502.743
 20
-8598.904
 30
-1122.000
 70
    32
  0
VERTEX
  8
E65LXLIFT
 62
6
 10
3499.134
 20
-8594.865
 30
-1122.000
 70
    32
  0
VERTEX
  8
E65LXLIFT
 62
6
 10
3501.842
 20
-8590.698
 30
-1122.000
 70
    32
  0
VERTEX
  8
E65LXLIFT
 62
6
 10
3503.267
 20
-8585.780
 30
-1122.000
 70
    32
  0
VERTEX
  8
E65LXLIFT
 62
6
 10
3499.709
 20
-8572.429
 30
-1122.000
 70
    32
  0
VERTEX
  8
E65LXLIFT
 62
6
 10
3491.462
 20
-8559.537
 30
-1122.000
 70
    32
  0
VERTEX
  8
E65LXLIFT
 62
6
 10
3482.244
 20
-8561.539
 30
-1122.000
 70
    32
  0
SEQEND
  8
E65LXLIFT
  0
POLYLINE
  8
E65LXLIFT
 62
2
 66
     1
 70
     9
  0
VERTEX
  8
E65LXLIFT
 62
2
 10
3626.643
 20
-8775.001
 30
-1290.000
 70
    32
  0
VERTEX
  8
E65LXLIFT
 62
2
 10
3607.998
 20
-8777.591
 30
-1294.809
 70
    32
  0
VERTEX
  8
E65LXLIFT
 62
2
 10
3597.102
 20
-8779.462
 30
-1297.500
 70
    32
  0
VERTEX
  8
E65LXLIFT
 62
2
 10
3591.015
 20
-8784.918
 30
-1300.615
 70
    32
  0
VERTEX
  8
E65LXLIFT
 62
2
 10
3571.559
 20
-8803.656
 30
-1299.889
 70
    32
  0
VERTEX
  8
E65LXLIFT
 62
2
 10
3566.525
 20
-8809.598
 30
-1299.889
 70
    32
  0
VERTEX
  8
E65LXLIFT
 62
2
 10
3559.222
 20
-8817.263
 30
-1299.889
 70
    32
  0
VERTEX
  8
E65LXLIFT
 62
2
 10
3550.899
 20
-8810.955
 30
-1299.889
 70
    32
  0
VERTEX
  8
E65LXLIFT
 62
2
 10
3560.013
 20
-8800.079
 30
-1299.889
 70
    32
  0
VERTEX
  8
E65LXLIFT
 62
2
 10
3561.498
 20
-8796.735
 30
-1299.889
 70
    32
  0
VERTEX
  8
E65LXLIFT
 62
2
 10
3560.729
 20
-8789.169
 30
-1299.889
 70
    32
  0
VERTEX
  8
E65LXLIFT
 62
2
 10
3557.450
 20
-8775.511
 30
-1299.889
 70
    32
  0
VERTEX
  8
E65LXLIFT
 62
2
 10
3560.296
 20
-8762.555
 30
-1299.889
 70
    32
  0
VERTEX
  8
E65LXLIFT
 62
2
 10
3560.078
 20
-8759.057
 30
-1299.889
 70
    32
  0
VERTEX
  8
E65LXLIFT
 62
2
 10
3557.453
 20
-8754.372
 30
-1299.889
 70
    32
  0
VERTEX
  8
E65LXLIFT
 62
2
 10
3560.797
 20
-8749.738
 30
-1299.889
 70
    32
  0
VERTEX
  8
E65LXLIFT
 62
2
 10
3566.719
 20
-8730.743
 30
-1299.889
 70
    32
  0
VERTEX
  8
E65LXLIFT
 62
2
 10
3578.678
 20
-8735.713
 30
-1299.889
 70
    32
  0
VERTEX
  8
E65LXLIFT
 62
2
 10
3588.665
 20
-8743.910
 30
-1299.889
 70
    32
  0
VERTEX
  8
E65LXLIFT
 62
2
 10
3583.664
 20
-8753.985
 30
-1299.889
 70
    32
  0
VERTEX
  8
E65LXLIFT
 62
2
 10
3583.336
 20
-8762.059
 30
-1299.889
 70
    32
  0
VERTEX
  8
E65LXLIFT
 62
2
 10
3589.796
 20
-8769.182
 30
-1300.600
 70
    32
  0
VERTEX
  8
E65LXLIFT
 62
2
 10
3596.133
 20
-8768.217
 30
-1297.500
 70
    32
  0
VERTEX
  8
E65LXLIFT
 62
2
 10
3607.210
 20
-8766.734
 30
-1294.090
 70
    32
  0
VERTEX
  8
E65LXLIFT
 62
2
 10
3627.125
 20
-8764.870
 30
-1290.000
 70
    32
  0
SEQEND
  8
E65LXLIFT
  0
POLYLINE
  8
E65LXLIFT
 62
3
 66
     1
 70
     9
  0
VERTEX
  8
E65LXLIFT
 62
3
 10
3583.301
 20
-8783.408
 30
-1289.500
 70
    32
  0
VERTEX
  8
E65LXLIFT
 62
3
 10
3591.316
 20
-8778.475
 30
-1289.500
 70
    32
  0
VERTEX
  8
E65LXLIFT
 62
3
 10
3586.993
 20
-8769.175
 30
-1289.500
 70
    32
  0
VERTEX
  8
E65LXLIFT
 62
3
 10
3582.304
 20
-8768.276
 30
-1289.500
 70
    32
  0
VERTEX
  8
E65LXLIFT
 62
3
 10
3575.236
 20
-8764.214
 30
-1289.500
 70
    32
  0
VERTEX
  8
E65LXLIFT
 62
3
 10
3575.967
 20
-8751.144
 30
-1289.500
 70
    32
  0
VERTEX
  8
E65LXLIFT
 62
3
 10
3572.927
 20
-8736.782
 30
-1289.500
 70
    32
  0
VERTEX
  8
E65LXLIFT
 62
3
 10
3561.064
 20
-8733.248
 30
-1289.500
 70
    32
  0
VERTEX
  8
E65LXLIFT
 62
3
 10
3556.752
 20
-8751.053
 30
-1289.500
 70
    32
  0
VERTEX
  8
E65LXLIFT
 62
3
 10
3553.562
 20
-8757.046
 30
-1289.500
 70
    32
  0
VERTEX
  8
E65LXLIFT
 62
3
 10
3555.915
 20
-8764.995
 30
-1289.500
 70
    32
  0
VERTEX
  8
E65LXLIFT
 62
3
 10
3552.580
 20
-8777.408
 30
-1289.500
 70
    32
  0
VERTEX
  8
E65LXLIFT
 62
3
 10
3556.403
 20
-8790.404
 30
-1289.500
 70
    32
  0
VERTEX
  8
E65LXLIFT
 62
3
 10
3557.586
 20
-8798.184
 30
-1289.500
 70
    32
  0
VERTEX
  8
E65LXLIFT
 62
3
 10
3549.519
 20
-8807.962
 30
-1289.500
 70
    32
  0
VERTEX
  8
E65LXLIFT
 62
3
 10
3557.066
 20
-8812.042
 30
-1289.500
 70
    32
  0
VERTEX
  8
E65LXLIFT
 62
3
 10
3566.290
 20
-8800.589
 30
-1289.500
 70
    32
  0
VERTEX
  8
E65LXLIFT
 62
3
 10
3575.239
 20
-8792.221
 30
-1289.500
 70
    32
  0
SEQEND
  8
E65LXLIFT
  0
POLYLINE
  8
E65LXLIFT
 62
6
 66
     1
 70
     9
  0
VERTEX
  8
E65LXLIFT
 62
6
 10
3706.596
 20
-8768.682
 30
-1290.000
 70
    32
  0
VERTEX
  8
E65LXLIFT
 62
6
 10
3704.547
 20
-8770.687
 30
-1290.000
 70
    32
  0
VERTEX
  8
E65LXLIFT
 62
6
 10
3715.788
 20
-8774.887
 30
-1290.000
 70
    32
  0
VERTEX
  8
E65LXLIFT
 62
6
 10
3715.075
 20
-8776.795
 30
-1290.000
 70
    32
  0
VERTEX
  8
E65LXLIFT
 62
6
 10
3708.505
 20
-8790.859
 30
-1290.000
 70
    32
  0
VERTEX
  8
E65LXLIFT
 62
6
 10
3697.459
 20
-8786.171
 30
-1290.000
 70
    32
  0
VERTEX
  8
E65LXLIFT
 62
6
 10
3689.175
 20
-8785.159
 30
-1290.000
 70
    32
  0
VERTEX
  8
E65LXLIFT
 62
6
 10
3676.315
 20
-8781.354
 30
-1290.000
 70
    32
  0
VERTEX
  8
E65LXLIFT
 62
6
 10
3668.815
 20
-8774.285
 30
-1290.000
 70
    32
  0
VERTEX
  8
E65LXLIFT
 62
6
 10
3653.363
 20
-8772.583
 30
-1290.000
 70
    32
  0
VERTEX
  8
E65LXLIFT
 62
6
 10
3628.355
 20
-8775.190
 30
-1290.523
 70
    32
  0
VERTEX
  8
E65LXLIFT
 62
6
 10
3610.459
 20
-8777.411
 30
-1284.523
 70
    32
  0
VERTEX
  8
E65LXLIFT
 62
6
 10
3593.777
 20
-8780.599
 30
-1278.523
 70
    32
  0
VERTEX
  8
E65LXLIFT
 62
6
 10
3584.464
 20
-8786.958
 30
-1278.523
 70
    32
  0
VERTEX
  8
E65LXLIFT
 62
6
 10
3578.096
 20
-8790.495
 30
-1278.000
 70
    32
  0
VERTEX
  8
E65LXLIFT
 62
6
 10
3574.030
 20
-8780.808
 30
-1278.000
 70
    32
  0
VERTEX
  8
E65LXLIFT
 62
6
 10
3571.389
 20
-8771.628
 30
-1278.000
 70
    32
  0
VERTEX
  8
E65LXLIFT
 62
6
 10
3576.268
 20
-8764.146
 30
-1278.000
 70
    32
  0
VERTEX
  8
E65LXLIFT
 62
6
 10
3583.084
 20
-8765.231
 30
-1278.523
 70
    32
  0
VERTEX
  8
E65LXLIFT
 62
6
 10
3594.303
 20
-8769.107
 30
-1278.523
 70
    32
  0
VERTEX
  8
E65LXLIFT
 62
6
 10
3609.446
 20
-8767.386
 30
-1284.523
 70
    32
  0
VERTEX
  8
E65LXLIFT
 62
6
 10
3626.464
 20
-8765.104
 30
-1290.523
 70
    32
  0
VERTEX
  8
E65LXLIFT
 62
6
 10
3628.314
 20
-8761.976
 30
-1290.000
 70
    32
  0
VERTEX
  8
E65LXLIFT
 62
6
 10
3628.650
 20
-8761.104
 30
-1290.000
 70
    32
  0
VERTEX
  8
E65LXLIFT
 62
6
 10
3647.577
 20
-8761.916
 30
-1290.000
 70
    32
  0
VERTEX
  8
E65LXLIFT
 62
6
 10
3651.337
 20
-8760.395
 30
-1290.000
 70
    32
  0
VERTEX
  8
E65LXLIFT
 62
6
 10
3656.177
 20
-8755.613
 30
-1290.000
 70
    32
  0
VERTEX
  8
E65LXLIFT
 62
6
 10
3669.991
 20
-8756.049
 30
-1290.000
 70
    32
  0
VERTEX
  8
E65LXLIFT
 62
6
 10
3671.838
 20
-8753.865
 30
-1290.000
 70
    32
  0
VERTEX
  8
E65LXLIFT
 62
6
 10
3667.604
 20
-8750.472
 30
-1290.000
 70
    32
  0
VERTEX
  8
E65LXLIFT
 62
6
 10
3666.106
 20
-8747.054
 30
-1290.000
 70
    32
  0
VERTEX
  8
E65LXLIFT
 62
6
 10
3660.360
 20
-8741.830
 30
-1290.000
 70
    32
  0
VERTEX
  8
E65LXLIFT
 62
6
 10
3662.081
 20
-8732.170
 30
-1290.000
 70
    32
  0
VERTEX
  8
E65LXLIFT
 62
6
 10
3667.780
 20
-8734.208
 30
-1290.000
 70
    32
  0
VERTEX
  8
E65LXLIFT
 62
6
 10
3671.395
 20
-8729.131
 30
-1289.000
 70
    32
  0
VERTEX
  8
E65LXLIFT
 62
6
 10
3669.967
 20
-8720.437
 30
-1288.000
 70
    32
  0
VERTEX
  8
E65LXLIFT
 62
6
 10
3667.639
 20
-8711.809
 30
-1287.000
 70
    32
  0
VERTEX
  8
E65LXLIFT
 62
6
 10
3666.944
 20
-8710.706
 30
-1287.034
 70
    32
  0
VERTEX
  8
E65LXLIFT
 62
6
 10
3663.522
 20
-8706.966
 30
-1286.734
 70
    32
  0
VERTEX
  8
E65LXLIFT
 62
6
 10
3655.127
 20
-8704.447
 30
-1286.734
 70
    32
  0
VERTEX
  8
E65LXLIFT
 62
6
 10
3644.730
 20
-8702.362
 30
-1286.491
 70
    32
  0
VERTEX
  8
E65LXLIFT
 62
6
 10
3634.031
 20
-8703.016
 30
-1285.900
 70
    32
  0
VERTEX
  8
E65LXLIFT
 62
6
 10
3626.659
 20
-8701.752
 30
-1285.500
 70
    32
  0
VERTEX
  8
E65LXLIFT
 62
6
 10
3624.023
 20
-8693.001
 30
-1285.500
 70
    32
  0
VERTEX
  8
E65LXLIFT
 62
6
 10
3616.572
 20
-8689.806
 30
-1285.500
 70
    32
  0
VERTEX
  8
E65LXLIFT
 62
6
 10
3617.196
 20
-8684.461
 30
-1285.500
 70
    32
  0
VERTEX
  8
E65LXLIFT
 62
6
 10
3617.928
 20
-8682.600
 30
-1285.500
 70
    32
  0
VERTEX
  8
E65LXLIFT
 62
6
 10
3618.059
 20
-8681.694
 30
-1285.400
 70
    32
  0
VERTEX
  8
E65LXLIFT
 62
6
 10
3619.300
 20
-8677.976
 30
-1285.400
 70
    32
  0
VERTEX
  8
E65LXLIFT
 62
6
 10
3619.177
 20
-8677.806
 30
-1285.400
 70
    32
  0
VERTEX
  8
E65LXLIFT
 62
6
 10
3606.689
 20
-8676.067
 30
-1284.400
 70
    32
  0
VERTEX
  8
E65LXLIFT
 62
6
 10
3596.345
 20
-8674.871
 30
-1284.400
 70
    32
  0
VERTEX
  8
E65LXLIFT
 62
6
 10
3579.741
 20
-8684.579
 30
-1284.400
 70
    32
  0
VERTEX
  8
E65LXLIFT
 62
6
 10
3570.249
 20
-8674.102
 30
-1284.400
 70
    32
  0
VERTEX
  8
E65LXLIFT
 62
6
 10
3577.926
 20
-8665.229
 30
-1284.400
 70
    32
  0
VERTEX
  8
E65LXLIFT
 62
6
 10
3578.614
 20
-8657.858
 30
-1284.400
 70
    32
  0
VERTEX
  8
E65LXLIFT
 62
6
 10
3582.338
 20
-8647.143
 30
-1284.400
 70
    32
  0
VERTEX
  8
E65LXLIFT
 62
6
 10
3597.955
 20
-8652.804
 30
-1284.400
 70
    32
  0
VERTEX
  8
E65LXLIFT
 62
6
 10
3603.412
 20
-8648.268
 30
-1284.400
 70
    32
  0
VERTEX
  8
E65LXLIFT
 62
6
 10
3616.728
 20
-8662.550
 30
-1285.400
 70
    32
  0
VERTEX
  8
E65LXLIFT
 62
6
 10
3625.763
 20
-8665.088
 30
-1285.400
 70
    32
  0
VERTEX
  8
E65LXLIFT
 62
6
 10
3636.045
 20
-8670.081
 30
-1285.400
 70
    32
  0
VERTEX
  8
E65LXLIFT
 62
6
 10
3637.800
 20
-8680.422
 30
-1285.400
 70
    32
  0
VERTEX
  8
E65LXLIFT
 62
6
 10
3648.872
 20
-8689.139
 30
-1285.400
 70
    32
  0
VERTEX
  8
E65LXLIFT
 62
6
 10
3649.493
 20
-8689.512
 30
-1286.291
 70
    32
  0
VERTEX
  8
E65LXLIFT
 62
6
 10
3659.071
 20
-8693.794
 30
-1286.734
 70
    32
  0
VERTEX
  8
E65LXLIFT
 62
6
 10
3660.910
 20
-8692.574
 30
-1286.734
 70
    32
  0
VERTEX
  8
E65LXLIFT
 62
6
 10
3667.566
 20
-8689.834
 30
-1286.734
 70
    32
  0
VERTEX
  8
E65LXLIFT
 62
6
 10
3670.341
 20
-8694.465
 30
-1286.734
 70
    32
  0
VERTEX
  8
E65LXLIFT
 62
6
 10
3676.216
 20
-8697.526
 30
-1286.734
 70
    32
  0
VERTEX
  8
E65LXLIFT
 62
6
 10
3680.263
 20
-8697.888
 30
-1286.734
 70
    32
  0
VERTEX
  8
E65LXLIFT
 62
6
 10
3684.359
 20
-8707.005
 30
-1286.004
 70
    32
  0
VERTEX
  8
E65LXLIFT
 62
6
 10
3680.437
 20
-8714.390
 30
-1286.734
 70
    32
  0
VERTEX
  8
E65LXLIFT
 62
6
 10
3680.198
 20
-8718.488
 30
-1288.534
 70
    32
  0
VERTEX
  8
E65LXLIFT
 62
6
 10
3681.009
 20
-8724.877
 30
-1289.000
 70
    32
  0
VERTEX
  8
E65LXLIFT
 62
6
 10
3688.042
 20
-8740.000
 30
-1290.000
 70
    32
  0
VERTEX
  8
E65LXLIFT
 62
6
 10
3693.242
 20
-8743.434
 30
-1290.000
 70
    32
  0
VERTEX
  8
E65LXLIFT
 62
6
 10
3708.990
 20
-8748.584
 30
-1290.000
 70
    32
  0
VERTEX
  8
E65LXLIFT
 62
6
 10
3719.949
 20
-8755.737
 30
-1290.000
 70
    32
  0
VERTEX
  8
E65LXLIFT
 62
6
 10
3720.569
 20
-8756.324
 30
-1290.000
 70
    32
  0
SEQEND
  8
E65LXLIFT
  0
POLYLINE
  8
E65LXLIFT
 62
12
 66
     1
 70
     9
  0
VERTEX
  8
E65LXLIFT
 62
12
 10
3748.930
 20
-8814.163
 30
-1284.000
 70
    32
  0
VERTEX
  8
E65LXLIFT
 62
12
 10
3742.583
 20
-8804.633
 30
-1288.000
 70
    32
  0
VERTEX
  8
E65LXLIFT
 62
12
 10
3734.013
 20
-8787.383
 30
-1293.000
 70
    32
  0
VERTEX
  8
E65LXLIFT
 62
12
 10
3728.521
 20
-8779.223
 30
-1292.000
 70
    32
  0
VERTEX
  8
E65LXLIFT
 62
12
 10
3714.672
 20
-8768.536
 30
-1291.000
 70
    32
  0
VERTEX
  8
E65LXLIFT
 62
12
 10
3719.949
 20
-8755.737
 30
-1291.000
 70
    32
  0
VERTEX
  8
E65LXLIFT
 62
12
 10
3729.220
 20
-8764.515
 30
-1292.000
 70
    32
  0
VERTEX
  8
E65LXLIFT
 62
12
 10
3738.990
 20
-8775.201
 30
-1292.000
 70
    32
  0
VERTEX
  8
E65LXLIFT
 62
12
 10
3742.891
 20
-8781.010
 30
-1293.000
 70
    32
  0
VERTEX
  8
E65LXLIFT
 62
12
 10
3755.201
 20
-8799.384
 30
-1288.000
 70
    32
  0
VERTEX
  8
E65LXLIFT
 62
12
 10
3759.940
 20
-8809.199
 30
-1285.000
 70
    32
  0
SEQEND
  8
E65LXLIFT
  0
ENDSEC
  0
EOF
