999
********************************
999
*   DXF File - Entities Only   *
999
*        3D Data Format        *
999
*     Output from ENVISAGE     *
999
*     31-Dec-2007 14:50:30     *
999
********************************
  0
SECTION 
  2
HEADER
  9
$ACADVER
  1
AC1009
  9
$EXTMIN
 10
-290000.000
 20
-250000.000
 30
-4000.000
  9
$EXTMAX
 10
320000.000
 20
160000.000
 30
6000.000
  0
ENDSEC
  0
SECTION
  2
ENTITIES
  0
POLYLINE
  8
E66LXLIFT
 62
2
 66
     1
 70
     9
  0
VERTEX
  8
E66LXLIFT
 62
2
 10
4939.816
 20
-9614.046
 30
-1304.000
 70
    32
  0
VERTEX
  8
E66LXLIFT
 62
2
 10
4945.677
 20
-9599.940
 30
-1304.000
 70
    32
  0
VERTEX
  8
E66LXLIFT
 62
2
 10
4951.556
 20
-9592.763
 30
-1304.000
 70
    32
  0
VERTEX
  8
E66LXLIFT
 62
2
 10
4953.575
 20
-9588.051
 30
-1304.000
 70
    32
  0
VERTEX
  8
E66LXLIFT
 62
2
 10
4960.909
 20
-9590.995
 30
-1304.000
 70
    32
  0
VERTEX
  8
E66LXLIFT
 62
2
 10
4959.786
 20
-9598.749
 30
-1304.000
 70
    32
  0
VERTEX
  8
E66LXLIFT
 62
2
 10
4973.201
 20
-9612.812
 30
-1304.000
 70
    32
  0
VERTEX
  8
E66LXLIFT
 62
2
 10
4977.466
 20
-9613.310
 30
-1304.000
 70
    32
  0
VERTEX
  8
E66LXLIFT
 62
2
 10
4983.553
 20
-9620.084
 30
-1304.000
 70
    32
  0
VERTEX
  8
E66LXLIFT
 62
2
 10
4989.105
 20
-9620.411
 30
-1304.000
 70
    32
  0
VERTEX
  8
E66LXLIFT
 62
2
 10
4995.390
 20
-9624.006
 30
-1304.000
 70
    32
  0
VERTEX
  8
E66LXLIFT
 62
2
 10
4997.605
 20
-9630.974
 30
-1304.000
 70
    32
  0
VERTEX
  8
E66LXLIFT
 62
2
 10
4987.381
 20
-9630.335
 30
-1304.000
 70
    32
  0
VERTEX
  8
E66LXLIFT
 62
2
 10
4976.058
 20
-9641.987
 30
-1304.000
 70
    32
  0
VERTEX
  8
E66LXLIFT
 62
2
 10
4982.161
 20
-9649.834
 30
-1304.000
 70
    32
  0
VERTEX
  8
E66LXLIFT
 62
2
 10
4968.450
 20
-9656.379
 30
-1304.000
 70
    32
  0
VERTEX
  8
E66LXLIFT
 62
2
 10
4962.935
 20
-9644.092
 30
-1304.000
 70
    32
  0
VERTEX
  8
E66LXLIFT
 62
2
 10
4956.159
 20
-9640.419
 30
-1304.000
 70
    32
  0
VERTEX
  8
E66LXLIFT
 62
2
 10
4945.074
 20
-9633.785
 30
-1304.000
 70
    32
  0
VERTEX
  8
E66LXLIFT
 62
2
 10
4944.463
 20
-9628.585
 30
-1304.000
 70
    32
  0
VERTEX
  8
E66LXLIFT
 62
2
 10
4941.904
 20
-9624.143
 30
-1304.000
 70
    32
  0
SEQEND
  8
E66LXLIFT
  0
POLYLINE
  8
E66LXLIFT
 62
2
 66
     1
 70
     9
  0
VERTEX
  8
E66LXLIFT
 62
2
 10
4911.264
 20
-9588.792
 30
-1283.000
 70
    32
  0
VERTEX
  8
E66LXLIFT
 62
2
 10
4926.150
 20
-9593.331
 30
-1283.000
 70
    32
  0
VERTEX
  8
E66LXLIFT
 62
2
 10
4929.109
 20
-9598.026
 30
-1283.000
 70
    32
  0
VERTEX
  8
E66LXLIFT
 62
2
 10
4927.812
 20
-9609.593
 30
-1283.000
 70
    32
  0
VERTEX
  8
E66LXLIFT
 62
2
 10
4934.375
 20
-9617.326
 30
-1283.000
 70
    32
  0
VERTEX
  8
E66LXLIFT
 62
2
 10
4931.075
 20
-9628.822
 30
-1283.000
 70
    32
  0
VERTEX
  8
E66LXLIFT
 62
2
 10
4934.849
 20
-9631.193
 30
-1283.000
 70
    32
  0
VERTEX
  8
E66LXLIFT
 62
2
 10
4937.037
 20
-9640.676
 30
-1283.000
 70
    32
  0
VERTEX
  8
E66LXLIFT
 62
2
 10
4943.045
 20
-9642.085
 30
-1283.000
 70
    32
  0
VERTEX
  8
E66LXLIFT
 62
2
 10
4948.111
 20
-9652.851
 30
-1283.000
 70
    32
  0
VERTEX
  8
E66LXLIFT
 62
2
 10
4940.147
 20
-9669.452
 30
-1283.000
 70
    32
  0
VERTEX
  8
E66LXLIFT
 62
2
 10
4944.220
 20
-9677.791
 30
-1283.000
 70
    32
  0
VERTEX
  8
E66LXLIFT
 62
2
 10
4949.744
 20
-9676.728
 30
-1283.000
 70
    32
  0
VERTEX
  8
E66LXLIFT
 62
2
 10
4952.896
 20
-9679.440
 30
-1283.000
 70
    32
  0
VERTEX
  8
E66LXLIFT
 62
2
 10
4959.649
 20
-9684.432
 30
-1283.000
 70
    32
  0
VERTEX
  8
E66LXLIFT
 62
2
 10
4969.975
 20
-9681.310
 30
-1283.000
 70
    32
  0
VERTEX
  8
E66LXLIFT
 62
2
 10
4962.992
 20
-9650.777
 30
-1283.000
 70
    32
  0
VERTEX
  8
E66LXLIFT
 62
2
 10
4966.911
 20
-9645.992
 30
-1283.000
 70
    32
  0
VERTEX
  8
E66LXLIFT
 62
2
 10
4974.828
 20
-9648.842
 30
-1283.000
 70
    32
  0
VERTEX
  8
E66LXLIFT
 62
2
 10
4978.251
 20
-9639.318
 30
-1283.000
 70
    32
  0
VERTEX
  8
E66LXLIFT
 62
2
 10
4973.027
 20
-9633.438
 30
-1283.000
 70
    32
  0
VERTEX
  8
E66LXLIFT
 62
2
 10
4972.864
 20
-9629.760
 30
-1283.000
 70
    32
  0
VERTEX
  8
E66LXLIFT
 62
2
 10
4975.193
 20
-9616.470
 30
-1283.000
 70
    32
  0
VERTEX
  8
E66LXLIFT
 62
2
 10
4968.231
 20
-9612.389
 30
-1283.000
 70
    32
  0
VERTEX
  8
E66LXLIFT
 62
2
 10
4959.427
 20
-9624.825
 30
-1283.000
 70
    32
  0
VERTEX
  8
E66LXLIFT
 62
2
 10
4954.864
 20
-9620.311
 30
-1283.000
 70
    32
  0
VERTEX
  8
E66LXLIFT
 62
2
 10
4954.747
 20
-9610.091
 30
-1283.000
 70
    32
  0
VERTEX
  8
E66LXLIFT
 62
2
 10
4958.219
 20
-9603.786
 30
-1283.000
 70
    32
  0
VERTEX
  8
E66LXLIFT
 62
2
 10
4972.094
 20
-9604.825
 30
-1283.000
 70
    32
  0
VERTEX
  8
E66LXLIFT
 62
2
 10
4977.237
 20
-9597.530
 30
-1283.000
 70
    32
  0
VERTEX
  8
E66LXLIFT
 62
2
 10
4967.554
 20
-9593.136
 30
-1283.000
 70
    32
  0
VERTEX
  8
E66LXLIFT
 62
2
 10
4967.733
 20
-9579.122
 30
-1283.000
 70
    32
  0
VERTEX
  8
E66LXLIFT
 62
2
 10
4960.958
 20
-9579.353
 30
-1283.000
 70
    32
  0
VERTEX
  8
E66LXLIFT
 62
2
 10
4949.535
 20
-9585.763
 30
-1283.000
 70
    32
  0
VERTEX
  8
E66LXLIFT
 62
2
 10
4924.757
 20
-9579.693
 30
-1283.000
 70
    32
  0
VERTEX
  8
E66LXLIFT
 62
2
 10
4912.906
 20
-9580.555
 30
-1283.000
 70
    32
  0
SEQEND
  8
E66LXLIFT
  0
POLYLINE
  8
E66LXLIFT
 62
2
 66
     1
 70
     9
  0
VERTEX
  8
E66LXLIFT
 62
2
 10
4918.396
 20
-9592.208
 30
-1292.000
 70
    32
  0
VERTEX
  8
E66LXLIFT
 62
2
 10
4926.697
 20
-9594.237
 30
-1292.000
 70
    32
  0
VERTEX
  8
E66LXLIFT
 62
2
 10
4933.660
 20
-9602.223
 30
-1292.000
 70
    32
  0
VERTEX
  8
E66LXLIFT
 62
2
 10
4942.448
 20
-9609.432
 30
-1292.000
 70
    32
  0
VERTEX
  8
E66LXLIFT
 62
2
 10
4939.151
 20
-9615.828
 30
-1292.000
 70
    32
  0
VERTEX
  8
E66LXLIFT
 62
2
 10
4933.585
 20
-9624.188
 30
-1292.000
 70
    32
  0
VERTEX
  8
E66LXLIFT
 62
2
 10
4931.158
 20
-9627.135
 30
-1292.000
 70
    32
  0
VERTEX
  8
E66LXLIFT
 62
2
 10
4935.511
 20
-9630.607
 30
-1292.000
 70
    32
  0
VERTEX
  8
E66LXLIFT
 62
2
 10
4935.234
 20
-9634.278
 30
-1292.000
 70
    32
  0
VERTEX
  8
E66LXLIFT
 62
2
 10
4936.724
 20
-9639.492
 30
-1292.000
 70
    32
  0
VERTEX
  8
E66LXLIFT
 62
2
 10
4943.361
 20
-9640.121
 30
-1292.000
 70
    32
  0
VERTEX
  8
E66LXLIFT
 62
2
 10
4945.932
 20
-9646.832
 30
-1292.000
 70
    32
  0
VERTEX
  8
E66LXLIFT
 62
2
 10
4948.895
 20
-9652.284
 30
-1292.000
 70
    32
  0
VERTEX
  8
E66LXLIFT
 62
2
 10
4940.116
 20
-9671.210
 30
-1292.000
 70
    32
  0
VERTEX
  8
E66LXLIFT
 62
2
 10
4945.554
 20
-9676.935
 30
-1292.000
 70
    32
  0
VERTEX
  8
E66LXLIFT
 62
2
 10
4949.946
 20
-9676.257
 30
-1292.000
 70
    32
  0
VERTEX
  8
E66LXLIFT
 62
2
 10
4958.698
 20
-9682.516
 30
-1292.000
 70
    32
  0
VERTEX
  8
E66LXLIFT
 62
2
 10
4969.314
 20
-9681.896
 30
-1292.000
 70
    32
  0
VERTEX
  8
E66LXLIFT
 62
2
 10
4970.490
 20
-9680.070
 30
-1292.000
 70
    32
  0
VERTEX
  8
E66LXLIFT
 62
2
 10
4964.130
 20
-9657.005
 30
-1292.000
 70
    32
  0
VERTEX
  8
E66LXLIFT
 62
2
 10
4964.559
 20
-9647.692
 30
-1292.000
 70
    32
  0
VERTEX
  8
E66LXLIFT
 62
2
 10
4969.321
 20
-9656.834
 30
-1292.000
 70
    32
  0
VERTEX
  8
E66LXLIFT
 62
2
 10
4984.063
 20
-9651.715
 30
-1292.000
 70
    32
  0
VERTEX
  8
E66LXLIFT
 62
2
 10
4978.328
 20
-9645.879
 30
-1292.000
 70
    32
  0
VERTEX
  8
E66LXLIFT
 62
2
 10
4976.473
 20
-9641.361
 30
-1292.000
 70
    32
  0
VERTEX
  8
E66LXLIFT
 62
2
 10
4982.178
 20
-9636.046
 30
-1292.000
 70
    32
  0
VERTEX
  8
E66LXLIFT
 62
2
 10
4986.426
 20
-9631.567
 30
-1292.000
 70
    32
  0
VERTEX
  8
E66LXLIFT
 62
2
 10
4996.223
 20
-9632.515
 30
-1292.000
 70
    32
  0
VERTEX
  8
E66LXLIFT
 62
2
 10
4998.282
 20
-9631.461
 30
-1292.000
 70
    32
  0
VERTEX
  8
E66LXLIFT
 62
2
 10
4995.794
 20
-9623.063
 30
-1292.000
 70
    32
  0
VERTEX
  8
E66LXLIFT
 62
2
 10
4989.054
 20
-9622.292
 30
-1292.000
 70
    32
  0
VERTEX
  8
E66LXLIFT
 62
2
 10
4983.716
 20
-9619.858
 30
-1292.000
 70
    32
  0
VERTEX
  8
E66LXLIFT
 62
2
 10
4979.973
 20
-9615.729
 30
-1292.000
 70
    32
  0
VERTEX
  8
E66LXLIFT
 62
2
 10
4974.385
 20
-9614.451
 30
-1292.000
 70
    32
  0
VERTEX
  8
E66LXLIFT
 62
2
 10
4970.076
 20
-9609.537
 30
-1292.000
 70
    32
  0
VERTEX
  8
E66LXLIFT
 62
2
 10
4967.980
 20
-9605.736
 30
-1292.000
 70
    32
  0
VERTEX
  8
E66LXLIFT
 62
2
 10
4968.394
 20
-9593.397
 30
-1292.000
 70
    32
  0
VERTEX
  8
E66LXLIFT
 62
2
 10
4967.920
 20
-9579.530
 30
-1292.000
 70
    32
  0
VERTEX
  8
E66LXLIFT
 62
2
 10
4959.010
 20
-9580.110
 30
-1292.000
 70
    32
  0
VERTEX
  8
E66LXLIFT
 62
2
 10
4949.959
 20
-9586.650
 30
-1292.000
 70
    32
  0
VERTEX
  8
E66LXLIFT
 62
2
 10
4933.169
 20
-9583.378
 30
-1292.000
 70
    32
  0
VERTEX
  8
E66LXLIFT
 62
2
 10
4923.313
 20
-9582.798
 30
-1292.000
 70
    32
  0
SEQEND
  8
E66LXLIFT
  0
POLYLINE
  8
E66LXLIFT
 62
6
 66
     1
 70
     9
  0
VERTEX
  8
E66LXLIFT
 62
6
 10
5043.431
 20
-9684.641
 30
-1301.000
 70
    32
  0
VERTEX
  8
E66LXLIFT
 62
6
 10
5038.751
 20
-9686.721
 30
-1301.000
 70
    32
  0
VERTEX
  8
E66LXLIFT
 62
6
 10
5030.151
 20
-9687.728
 30
-1301.000
 70
    32
  0
VERTEX
  8
E66LXLIFT
 62
6
 10
5021.824
 20
-9694.070
 30
-1301.000
 70
    32
  0
VERTEX
  8
E66LXLIFT
 62
6
 10
5012.020
 20
-9693.561
 30
-1301.000
 70
    32
  0
VERTEX
  8
E66LXLIFT
 62
6
 10
5003.523
 20
-9698.615
 30
-1301.000
 70
    32
  0
VERTEX
  8
E66LXLIFT
 62
6
 10
4997.325
 20
-9696.043
 30
-1301.000
 70
    32
  0
VERTEX
  8
E66LXLIFT
 62
6
 10
4995.875
 20
-9690.582
 30
-1301.000
 70
    32
  0
VERTEX
  8
E66LXLIFT
 62
6
 10
5000.562
 20
-9686.111
 30
-1301.000
 70
    32
  0
VERTEX
  8
E66LXLIFT
 62
6
 10
5006.922
 20
-9669.692
 30
-1301.000
 70
    32
  0
VERTEX
  8
E66LXLIFT
 62
6
 10
5012.236
 20
-9665.636
 30
-1301.000
 70
    32
  0
VERTEX
  8
E66LXLIFT
 62
6
 10
5020.904
 20
-9665.773
 30
-1301.000
 70
    32
  0
VERTEX
  8
E66LXLIFT
 62
6
 10
5029.583
 20
-9662.322
 30
-1301.000
 70
    32
  0
VERTEX
  8
E66LXLIFT
 62
6
 10
5044.514
 20
-9675.181
 30
-1301.000
 70
    32
  0
SEQEND
  8
E66LXLIFT
  0
POLYLINE
  8
E66LXLIFT
 62
6
 66
     1
 70
     9
  0
VERTEX
  8
E66LXLIFT
 62
6
 10
5068.536
 20
-9681.254
 30
-1288.000
 70
    32
  0
VERTEX
  8
E66LXLIFT
 62
6
 10
5049.187
 20
-9675.492
 30
-1288.000
 70
    32
  0
VERTEX
  8
E66LXLIFT
 62
6
 10
5042.419
 20
-9671.380
 30
-1288.000
 70
    32
  0
VERTEX
  8
E66LXLIFT
 62
6
 10
5030.114
 20
-9662.156
 30
-1288.000
 70
    32
  0
VERTEX
  8
E66LXLIFT
 62
6
 10
5022.697
 20
-9664.802
 30
-1288.000
 70
    32
  0
VERTEX
  8
E66LXLIFT
 62
6
 10
5011.353
 20
-9666.816
 30
-1288.000
 70
    32
  0
VERTEX
  8
E66LXLIFT
 62
6
 10
5007.085
 20
-9671.418
 30
-1288.000
 70
    32
  0
VERTEX
  8
E66LXLIFT
 62
6
 10
5000.868
 20
-9672.873
 30
-1288.000
 70
    32
  0
VERTEX
  8
E66LXLIFT
 62
6
 10
4997.588
 20
-9682.294
 30
-1288.000
 70
    32
  0
VERTEX
  8
E66LXLIFT
 62
6
 10
4994.216
 20
-9691.889
 30
-1288.000
 70
    32
  0
VERTEX
  8
E66LXLIFT
 62
6
 10
4995.005
 20
-9697.936
 30
-1288.000
 70
    32
  0
VERTEX
  8
E66LXLIFT
 62
6
 10
5000.554
 20
-9703.364
 30
-1288.000
 70
    32
  0
VERTEX
  8
E66LXLIFT
 62
6
 10
5002.724
 20
-9702.013
 30
-1288.000
 70
    32
  0
VERTEX
  8
E66LXLIFT
 62
6
 10
5006.255
 20
-9699.244
 30
-1288.000
 70
    32
  0
VERTEX
  8
E66LXLIFT
 62
6
 10
5014.354
 20
-9701.745
 30
-1288.000
 70
    32
  0
VERTEX
  8
E66LXLIFT
 62
6
 10
5021.334
 20
-9695.943
 30
-1288.000
 70
    32
  0
VERTEX
  8
E66LXLIFT
 62
6
 10
5024.822
 20
-9696.568
 30
-1288.000
 70
    32
  0
VERTEX
  8
E66LXLIFT
 62
6
 10
5037.291
 20
-9690.705
 30
-1288.000
 70
    32
  0
VERTEX
  8
E66LXLIFT
 62
6
 10
5049.709
 20
-9690.627
 30
-1288.000
 70
    32
  0
VERTEX
  8
E66LXLIFT
 62
6
 10
5053.526
 20
-9689.604
 30
-1288.000
 70
    32
  0
VERTEX
  8
E66LXLIFT
 62
6
 10
5055.886
 20
-9687.466
 30
-1288.000
 70
    32
  0
VERTEX
  8
E66LXLIFT
 62
6
 10
5070.514
 20
-9693.601
 30
-1288.000
 70
    32
  0
VERTEX
  8
E66LXLIFT
 62
6
 10
5071.577
 20
-9699.124
 30
-1288.000
 70
    32
  0
VERTEX
  8
E66LXLIFT
 62
6
 10
5070.331
 20
-9704.906
 30
-1288.000
 70
    32
  0
VERTEX
  8
E66LXLIFT
 62
6
 10
5073.390
 20
-9718.749
 30
-1288.000
 70
    32
  0
VERTEX
  8
E66LXLIFT
 62
6
 10
5081.653
 20
-9728.833
 30
-1288.000
 70
    32
  0
VERTEX
  8
E66LXLIFT
 62
6
 10
5087.442
 20
-9729.640
 30
-1288.000
 70
    32
  0
VERTEX
  8
E66LXLIFT
 62
6
 10
5105.039
 20
-9725.169
 30
-1288.000
 70
    32
  0
VERTEX
  8
E66LXLIFT
 62
6
 10
5111.822
 20
-9724.499
 30
-1288.000
 70
    32
  0
VERTEX
  8
E66LXLIFT
 62
6
 10
5120.487
 20
-9727.784
 30
-1288.000
 70
    32
  0
VERTEX
  8
E66LXLIFT
 62
6
 10
5125.601
 20
-9717.147
 30
-1288.000
 70
    32
  0
VERTEX
  8
E66LXLIFT
 62
6
 10
5123.094
 20
-9714.728
 30
-1288.000
 70
    32
  0
VERTEX
  8
E66LXLIFT
 62
6
 10
5116.449
 20
-9714.539
 30
-1288.000
 70
    32
  0
VERTEX
  8
E66LXLIFT
 62
6
 10
5099.531
 20
-9708.539
 30
-1288.000
 70
    32
  0
VERTEX
  8
E66LXLIFT
 62
6
 10
5089.142
 20
-9694.460
 30
-1288.000
 70
    32
  0
VERTEX
  8
E66LXLIFT
 62
6
 10
5078.586
 20
-9679.850
 30
-1288.000
 70
    32
  0
SEQEND
  8
E66LXLIFT
  0
POLYLINE
  8
E66LXLIFT
 62
6
 66
     1
 70
     9
  0
VERTEX
  8
E66LXLIFT
 62
6
 10
5050.302
 20
-9688.896
 30
-1309.000
 70
    32
  0
VERTEX
  8
E66LXLIFT
 62
6
 10
5041.052
 20
-9686.902
 30
-1309.000
 70
    32
  0
VERTEX
  8
E66LXLIFT
 62
6
 10
5027.088
 20
-9697.751
 30
-1309.000
 70
    32
  0
VERTEX
  8
E66LXLIFT
 62
6
 10
5020.447
 20
-9698.319
 30
-1309.000
 70
    32
  0
VERTEX
  8
E66LXLIFT
 62
6
 10
5014.924
 20
-9703.286
 30
-1309.000
 70
    32
  0
VERTEX
  8
E66LXLIFT
 62
6
 10
5006.287
 20
-9701.391
 30
-1309.000
 70
    32
  0
VERTEX
  8
E66LXLIFT
 62
6
 10
5000.507
 20
-9706.001
 30
-1309.000
 70
    32
  0
VERTEX
  8
E66LXLIFT
 62
6
 10
4995.022
 20
-9702.913
 30
-1309.000
 70
    32
  0
VERTEX
  8
E66LXLIFT
 62
6
 10
4992.957
 20
-9695.402
 30
-1309.000
 70
    32
  0
VERTEX
  8
E66LXLIFT
 62
6
 10
4996.691
 20
-9675.349
 30
-1309.000
 70
    32
  0
VERTEX
  8
E66LXLIFT
 62
6
 10
5003.304
 20
-9673.391
 30
-1309.000
 70
    32
  0
VERTEX
  8
E66LXLIFT
 62
6
 10
5006.292
 20
-9666.568
 30
-1309.000
 70
    32
  0
VERTEX
  8
E66LXLIFT
 62
6
 10
5016.121
 20
-9667.710
 30
-1309.000
 70
    32
  0
VERTEX
  8
E66LXLIFT
 62
6
 10
5030.264
 20
-9663.565
 30
-1309.000
 70
    32
  0
VERTEX
  8
E66LXLIFT
 62
6
 10
5039.025
 20
-9669.384
 30
-1309.000
 70
    32
  0
VERTEX
  8
E66LXLIFT
 62
6
 10
5050.506
 20
-9675.516
 30
-1309.000
 70
    32
  0
SEQEND
  8
E66LXLIFT
  0
POLYLINE
  8
E66LXLIFT
 62
1
 66
     1
 70
     9
  0
VERTEX
  8
E66LXLIFT
 62
1
 10
5083.619
 20
-9610.419
 30
-1269.000
 70
    32
  0
VERTEX
  8
E66LXLIFT
 62
1
 10
5096.701
 20
-9604.655
 30
-1269.000
 70
    32
  0
VERTEX
  8
E66LXLIFT
 62
1
 10
5112.797
 20
-9598.558
 30
-1269.000
 70
    32
  0
VERTEX
  8
E66LXLIFT
 62
1
 10
5120.987
 20
-9606.741
 30
-1269.000
 70
    32
  0
VERTEX
  8
E66LXLIFT
 62
1
 10
5129.303
 20
-9607.892
 30
-1269.000
 70
    32
  0
VERTEX
  8
E66LXLIFT
 62
1
 10
5140.849
 20
-9622.220
 30
-1269.000
 70
    32
  0
VERTEX
  8
E66LXLIFT
 62
1
 10
5152.187
 20
-9626.502
 30
-1269.000
 70
    32
  0
VERTEX
  8
E66LXLIFT
 62
1
 10
5149.397
 20
-9634.050
 30
-1269.000
 70
    32
  0
VERTEX
  8
E66LXLIFT
 62
1
 10
5133.139
 20
-9642.326
 30
-1269.000
 70
    32
  0
VERTEX
  8
E66LXLIFT
 62
1
 10
5113.584
 20
-9634.327
 30
-1269.000
 70
    32
  0
VERTEX
  8
E66LXLIFT
 62
1
 10
5101.905
 20
-9629.423
 30
-1269.000
 70
    32
  0
VERTEX
  8
E66LXLIFT
 62
1
 10
5090.941
 20
-9629.861
 30
-1269.000
 70
    32
  0
VERTEX
  8
E66LXLIFT
 62
1
 10
5083.835
 20
-9621.978
 30
-1269.000
 70
    32
  0
SEQEND
  8
E66LXLIFT
  0
POLYLINE
  8
E66LXLIFT
 62
11
 66
     1
 70
     9
  0
VERTEX
  8
E66LXLIFT
 62
11
 10
5082.619
 20
-9611.419
 30
-1279.000
 70
    32
  0
VERTEX
  8
E66LXLIFT
 62
11
 10
5095.701
 20
-9605.655
 30
-1279.000
 70
    32
  0
VERTEX
  8
E66LXLIFT
 62
11
 10
5111.797
 20
-9599.558
 30
-1279.000
 70
    32
  0
VERTEX
  8
E66LXLIFT
 62
11
 10
5119.987
 20
-9607.741
 30
-1279.000
 70
    32
  0
VERTEX
  8
E66LXLIFT
 62
11
 10
5128.303
 20
-9608.892
 30
-1279.000
 70
    32
  0
VERTEX
  8
E66LXLIFT
 62
11
 10
5139.849
 20
-9623.220
 30
-1279.000
 70
    32
  0
VERTEX
  8
E66LXLIFT
 62
11
 10
5151.187
 20
-9627.502
 30
-1279.000
 70
    32
  0
VERTEX
  8
E66LXLIFT
 62
11
 10
5148.397
 20
-9635.050
 30
-1279.000
 70
    32
  0
VERTEX
  8
E66LXLIFT
 62
11
 10
5132.139
 20
-9643.326
 30
-1279.000
 70
    32
  0
VERTEX
  8
E66LXLIFT
 62
11
 10
5112.584
 20
-9635.327
 30
-1279.000
 70
    32
  0
VERTEX
  8
E66LXLIFT
 62
11
 10
5100.905
 20
-9630.423
 30
-1279.000
 70
    32
  0
VERTEX
  8
E66LXLIFT
 62
11
 10
5089.941
 20
-9630.861
 30
-1279.000
 70
    32
  0
VERTEX
  8
E66LXLIFT
 62
11
 10
5082.835
 20
-9622.978
 30
-1279.000
 70
    32
  0
SEQEND
  8
E66LXLIFT
  0
POLYLINE
  8
E66LXLIFT
 62
1
 66
     1
 70
     9
  0
VERTEX
  8
E66LXLIFT
 62
1
 10
5168.701
 20
-9672.928
 30
-1319.000
 70
    32
  0
VERTEX
  8
E66LXLIFT
 62
1
 10
5154.096
 20
-9667.427
 30
-1319.000
 70
    32
  0
VERTEX
  8
E66LXLIFT
 62
1
 10
5135.513
 20
-9669.030
 30
-1319.000
 70
    32
  0
VERTEX
  8
E66LXLIFT
 62
1
 10
5123.440
 20
-9672.438
 30
-1319.000
 70
    32
  0
VERTEX
  8
E66LXLIFT
 62
1
 10
5120.604
 20
-9667.762
 30
-1319.000
 70
    32
  0
VERTEX
  8
E66LXLIFT
 62
1
 10
5117.035
 20
-9663.724
 30
-1319.000
 70
    32
  0
VERTEX
  8
E66LXLIFT
 62
1
 10
5104.027
 20
-9662.384
 30
-1319.000
 70
    32
  0
VERTEX
  8
E66LXLIFT
 62
1
 10
5105.101
 20
-9649.459
 30
-1319.000
 70
    32
  0
VERTEX
  8
E66LXLIFT
 62
1
 10
5104.075
 20
-9644.886
 30
-1319.000
 70
    32
  0
VERTEX
  8
E66LXLIFT
 62
1
 10
5108.591
 20
-9637.175
 30
-1319.000
 70
    32
  0
VERTEX
  8
E66LXLIFT
 62
1
 10
5118.958
 20
-9635.759
 30
-1319.000
 70
    32
  0
VERTEX
  8
E66LXLIFT
 62
1
 10
5134.974
 20
-9630.153
 30
-1319.000
 70
    32
  0
VERTEX
  8
E66LXLIFT
 62
1
 10
5139.032
 20
-9622.557
 30
-1319.000
 70
    32
  0
VERTEX
  8
E66LXLIFT
 62
1
 10
5150.285
 20
-9622.670
 30
-1319.000
 70
    32
  0
VERTEX
  8
E66LXLIFT
 62
1
 10
5155.902
 20
-9631.194
 30
-1319.000
 70
    32
  0
VERTEX
  8
E66LXLIFT
 62
1
 10
5156.537
 20
-9638.979
 30
-1319.000
 70
    32
  0
VERTEX
  8
E66LXLIFT
 62
1
 10
5152.598
 20
-9643.886
 30
-1319.000
 70
    32
  0
VERTEX
  8
E66LXLIFT
 62
1
 10
5154.901
 20
-9651.876
 30
-1319.000
 70
    32
  0
VERTEX
  8
E66LXLIFT
 62
1
 10
5160.260
 20
-9658.092
 30
-1319.000
 70
    32
  0
VERTEX
  8
E66LXLIFT
 62
1
 10
5174.793
 20
-9663.645
 30
-1319.000
 70
    32
  0
SEQEND
  8
E66LXLIFT
  0
POLYLINE
  8
E66LXLIFT
 62
3
 66
     1
 70
     9
  0
VERTEX
  8
E66LXLIFT
 62
3
 10
5167.701
 20
-9673.928
 30
-1331.000
 70
    32
  0
VERTEX
  8
E66LXLIFT
 62
3
 10
5153.096
 20
-9668.427
 30
-1331.000
 70
    32
  0
VERTEX
  8
E66LXLIFT
 62
3
 10
5134.513
 20
-9670.030
 30
-1331.000
 70
    32
  0
VERTEX
  8
E66LXLIFT
 62
3
 10
5122.440
 20
-9673.438
 30
-1331.000
 70
    32
  0
VERTEX
  8
E66LXLIFT
 62
3
 10
5119.604
 20
-9668.762
 30
-1331.000
 70
    32
  0
VERTEX
  8
E66LXLIFT
 62
3
 10
5116.035
 20
-9664.724
 30
-1331.000
 70
    32
  0
VERTEX
  8
E66LXLIFT
 62
3
 10
5103.027
 20
-9663.384
 30
-1331.000
 70
    32
  0
VERTEX
  8
E66LXLIFT
 62
3
 10
5104.101
 20
-9650.459
 30
-1331.000
 70
    32
  0
VERTEX
  8
E66LXLIFT
 62
3
 10
5103.075
 20
-9645.886
 30
-1331.000
 70
    32
  0
VERTEX
  8
E66LXLIFT
 62
3
 10
5107.591
 20
-9638.175
 30
-1331.000
 70
    32
  0
VERTEX
  8
E66LXLIFT
 62
3
 10
5117.958
 20
-9636.759
 30
-1331.000
 70
    32
  0
VERTEX
  8
E66LXLIFT
 62
3
 10
5133.974
 20
-9631.153
 30
-1331.000
 70
    32
  0
VERTEX
  8
E66LXLIFT
 62
3
 10
5138.032
 20
-9623.557
 30
-1331.000
 70
    32
  0
VERTEX
  8
E66LXLIFT
 62
3
 10
5149.285
 20
-9623.670
 30
-1331.000
 70
    32
  0
VERTEX
  8
E66LXLIFT
 62
3
 10
5154.902
 20
-9632.194
 30
-1331.000
 70
    32
  0
VERTEX
  8
E66LXLIFT
 62
3
 10
5155.537
 20
-9639.979
 30
-1331.000
 70
    32
  0
VERTEX
  8
E66LXLIFT
 62
3
 10
5151.598
 20
-9644.886
 30
-1331.000
 70
    32
  0
VERTEX
  8
E66LXLIFT
 62
3
 10
5153.901
 20
-9652.876
 30
-1331.000
 70
    32
  0
VERTEX
  8
E66LXLIFT
 62
3
 10
5159.260
 20
-9659.092
 30
-1331.000
 70
    32
  0
VERTEX
  8
E66LXLIFT
 62
3
 10
5173.793
 20
-9664.645
 30
-1331.000
 70
    32
  0
SEQEND
  8
E66LXLIFT
  0
POLYLINE
  8
E66LXLIFT
 62
13
 66
     1
 70
     9
  0
VERTEX
  8
E66LXLIFT
 62
13
 10
4940.179
 20
-9725.943
 30
-1280.000
 70
    32
  0
VERTEX
  8
E66LXLIFT
 62
13
 10
4946.783
 20
-9741.239
 30
-1280.000
 70
    32
  0
VERTEX
  8
E66LXLIFT
 62
13
 10
4958.940
 20
-9743.953
 30
-1280.000
 70
    32
  0
VERTEX
  8
E66LXLIFT
 62
13
 10
4965.916
 20
-9739.346
 30
-1280.000
 70
    32
  0
VERTEX
  8
E66LXLIFT
 62
13
 10
4962.359
 20
-9731.720
 30
-1280.000
 70
    32
  0
VERTEX
  8
E66LXLIFT
 62
13
 10
4970.762
 20
-9733.892
 30
-1280.000
 70
    32
  0
VERTEX
  8
E66LXLIFT
 62
13
 10
4973.890
 20
-9732.066
 30
-1280.000
 70
    32
  0
VERTEX
  8
E66LXLIFT
 62
13
 10
4974.285
 20
-9725.707
 30
-1280.000
 70
    32
  0
VERTEX
  8
E66LXLIFT
 62
13
 10
4986.137
 20
-9726.797
 30
-1280.000
 70
    32
  0
VERTEX
  8
E66LXLIFT
 62
13
 10
4990.783
 20
-9735.480
 30
-1280.000
 70
    32
  0
VERTEX
  8
E66LXLIFT
 62
13
 10
4999.416
 20
-9753.432
 30
-1280.000
 70
    32
  0
VERTEX
  8
E66LXLIFT
 62
13
 10
4998.919
 20
-9763.554
 30
-1280.000
 70
    32
  0
VERTEX
  8
E66LXLIFT
 62
13
 10
4994.635
 20
-9769.035
 30
-1280.000
 70
    32
  0
VERTEX
  8
E66LXLIFT
 62
13
 10
4997.527
 20
-9776.491
 30
-1280.000
 70
    32
  0
VERTEX
  8
E66LXLIFT
 62
13
 10
4996.923
 20
-9781.809
 30
-1280.000
 70
    32
  0
VERTEX
  8
E66LXLIFT
 62
13
 10
5000.480
 20
-9789.435
 30
-1280.000
 70
    32
  0
VERTEX
  8
E66LXLIFT
 62
13
 10
4995.333
 20
-9794.022
 30
-1280.000
 70
    32
  0
VERTEX
  8
E66LXLIFT
 62
13
 10
4979.412
 20
-9779.492
 30
-1280.000
 70
    32
  0
VERTEX
  8
E66LXLIFT
 62
13
 10
4973.004
 20
-9773.926
 30
-1280.000
 70
    32
  0
VERTEX
  8
E66LXLIFT
 62
13
 10
4968.393
 20
-9768.145
 30
-1280.000
 70
    32
  0
VERTEX
  8
E66LXLIFT
 62
13
 10
4961.475
 20
-9764.575
 30
-1280.000
 70
    32
  0
VERTEX
  8
E66LXLIFT
 62
13
 10
4957.186
 20
-9763.443
 30
-1280.000
 70
    32
  0
VERTEX
  8
E66LXLIFT
 62
13
 10
4950.739
 20
-9763.979
 30
-1280.000
 70
    32
  0
VERTEX
  8
E66LXLIFT
 62
13
 10
4935.673
 20
-9746.880
 30
-1280.000
 70
    32
  0
VERTEX
  8
E66LXLIFT
 62
13
 10
4928.038
 20
-9726.254
 30
-1280.000
 70
    32
  0
SEQEND
  8
E66LXLIFT
  0
POLYLINE
  8
E66LXLIFT
 62
13
 66
     1
 70
     9
  0
VERTEX
  8
E66LXLIFT
 62
13
 10
4930.233
 20
-9691.910
 30
-1303.000
 70
    32
  0
VERTEX
  8
E66LXLIFT
 62
13
 10
4950.495
 20
-9709.595
 30
-1303.000
 70
    32
  0
VERTEX
  8
E66LXLIFT
 62
13
 10
4948.872
 20
-9715.757
 30
-1303.000
 70
    32
  0
VERTEX
  8
E66LXLIFT
 62
13
 10
4938.899
 20
-9721.770
 30
-1303.000
 70
    32
  0
VERTEX
  8
E66LXLIFT
 62
13
 10
4938.646
 20
-9726.074
 30
-1303.000
 70
    32
  0
VERTEX
  8
E66LXLIFT
 62
13
 10
4947.895
 20
-9740.977
 30
-1303.000
 70
    32
  0
VERTEX
  8
E66LXLIFT
 62
13
 10
4954.791
 20
-9745.866
 30
-1303.000
 70
    32
  0
VERTEX
  8
E66LXLIFT
 62
13
 10
4966.321
 20
-9742.308
 30
-1303.000
 70
    32
  0
VERTEX
  8
E66LXLIFT
 62
13
 10
4966.656
 20
-9736.317
 30
-1303.000
 70
    32
  0
VERTEX
  8
E66LXLIFT
 62
13
 10
4968.960
 20
-9733.350
 30
-1303.000
 70
    32
  0
VERTEX
  8
E66LXLIFT
 62
13
 10
4978.041
 20
-9736.009
 30
-1303.000
 70
    32
  0
VERTEX
  8
E66LXLIFT
 62
13
 10
4982.437
 20
-9738.040
 30
-1303.000
 70
    32
  0
VERTEX
  8
E66LXLIFT
 62
13
 10
4984.109
 20
-9746.811
 30
-1303.000
 70
    32
  0
VERTEX
  8
E66LXLIFT
 62
13
 10
4988.260
 20
-9750.754
 30
-1303.000
 70
    32
  0
VERTEX
  8
E66LXLIFT
 62
13
 10
4986.088
 20
-9757.205
 30
-1303.000
 70
    32
  0
VERTEX
  8
E66LXLIFT
 62
13
 10
4996.569
 20
-9776.966
 30
-1303.000
 70
    32
  0
VERTEX
  8
E66LXLIFT
 62
13
 10
4995.944
 20
-9780.455
 30
-1303.000
 70
    32
  0
VERTEX
  8
E66LXLIFT
 62
13
 10
5000.840
 20
-9787.982
 30
-1303.000
 70
    32
  0
VERTEX
  8
E66LXLIFT
 62
13
 10
4995.206
 20
-9793.245
 30
-1303.000
 70
    32
  0
VERTEX
  8
E66LXLIFT
 62
13
 10
4957.949
 20
-9759.095
 30
-1303.000
 70
    32
  0
VERTEX
  8
E66LXLIFT
 62
13
 10
4946.608
 20
-9759.913
 30
-1303.000
 70
    32
  0
VERTEX
  8
E66LXLIFT
 62
13
 10
4937.261
 20
-9749.529
 30
-1303.000
 70
    32
  0
VERTEX
  8
E66LXLIFT
 62
13
 10
4930.664
 20
-9729.889
 30
-1303.000
 70
    32
  0
VERTEX
  8
E66LXLIFT
 62
13
 10
4923.518
 20
-9716.395
 30
-1303.000
 70
    32
  0
VERTEX
  8
E66LXLIFT
 62
13
 10
4919.988
 20
-9710.159
 30
-1303.000
 70
    32
  0
VERTEX
  8
E66LXLIFT
 62
13
 10
4920.925
 20
-9703.950
 30
-1303.000
 70
    32
  0
VERTEX
  8
E66LXLIFT
 62
13
 10
4921.110
 20
-9698.501
 30
-1303.000
 70
    32
  0
VERTEX
  8
E66LXLIFT
 62
13
 10
4921.930
 20
-9696.933
 30
-1303.000
 70
    32
  0
VERTEX
  8
E66LXLIFT
 62
13
 10
4921.410
 20
-9693.512
 30
-1303.000
 70
    32
  0
SEQEND
  8
E66LXLIFT
  0
POLYLINE
  8
E66LXLIFT
 62
7
 66
     1
 70
     9
  0
VERTEX
  8
E66LXLIFT
 62
7
 10
4883.986
 20
-9696.363
 30
-1286.000
 70
    32
  0
VERTEX
  8
E66LXLIFT
 62
7
 10
4875.148
 20
-9694.939
 30
-1286.000
 70
    32
  0
VERTEX
  8
E66LXLIFT
 62
7
 10
4870.217
 20
-9690.366
 30
-1286.000
 70
    32
  0
VERTEX
  8
E66LXLIFT
 62
7
 10
4860.572
 20
-9698.636
 30
-1286.000
 70
    32
  0
VERTEX
  8
E66LXLIFT
 62
7
 10
4857.182
 20
-9716.163
 30
-1286.000
 70
    32
  0
VERTEX
  8
E66LXLIFT
 62
7
 10
4852.415
 20
-9717.221
 30
-1286.000
 70
    32
  0
VERTEX
  8
E66LXLIFT
 62
7
 10
4846.874
 20
-9711.354
 30
-1286.000
 70
    32
  0
VERTEX
  8
E66LXLIFT
 62
7
 10
4833.314
 20
-9702.495
 30
-1286.000
 70
    32
  0
VERTEX
  8
E66LXLIFT
 62
7
 10
4828.222
 20
-9707.909
 30
-1286.000
 70
    32
  0
VERTEX
  8
E66LXLIFT
 62
7
 10
4839.302
 20
-9726.696
 30
-1286.000
 70
    32
  0
VERTEX
  8
E66LXLIFT
 62
7
 10
4843.803
 20
-9740.582
 30
-1286.000
 70
    32
  0
VERTEX
  8
E66LXLIFT
 62
7
 10
4856.146
 20
-9741.752
 30
-1286.000
 70
    32
  0
VERTEX
  8
E66LXLIFT
 62
7
 10
4858.496
 20
-9749.057
 30
-1286.000
 70
    32
  0
VERTEX
  8
E66LXLIFT
 62
7
 10
4851.534
 20
-9767.646
 30
-1286.000
 70
    32
  0
VERTEX
  8
E66LXLIFT
 62
7
 10
4871.558
 20
-9801.665
 30
-1286.000
 70
    32
  0
VERTEX
  8
E66LXLIFT
 62
7
 10
4880.964
 20
-9807.777
 30
-1286.000
 70
    32
  0
VERTEX
  8
E66LXLIFT
 62
7
 10
4887.737
 20
-9816.551
 30
-1286.000
 70
    32
  0
VERTEX
  8
E66LXLIFT
 62
7
 10
4895.430
 20
-9814.138
 30
-1286.000
 70
    32
  0
VERTEX
  8
E66LXLIFT
 62
7
 10
4891.883
 20
-9799.020
 30
-1286.000
 70
    32
  0
VERTEX
  8
E66LXLIFT
 62
7
 10
4893.165
 20
-9790.284
 30
-1286.000
 70
    32
  0
VERTEX
  8
E66LXLIFT
 62
7
 10
4885.011
 20
-9772.094
 30
-1286.000
 70
    32
  0
VERTEX
  8
E66LXLIFT
 62
7
 10
4886.903
 20
-9764.653
 30
-1286.000
 70
    32
  0
VERTEX
  8
E66LXLIFT
 62
7
 10
4880.208
 20
-9749.532
 30
-1286.000
 70
    32
  0
VERTEX
  8
E66LXLIFT
 62
7
 10
4867.594
 20
-9739.881
 30
-1286.000
 70
    32
  0
VERTEX
  8
E66LXLIFT
 62
7
 10
4881.926
 20
-9729.091
 30
-1286.000
 70
    32
  0
VERTEX
  8
E66LXLIFT
 62
7
 10
4888.183
 20
-9729.343
 30
-1286.000
 70
    32
  0
VERTEX
  8
E66LXLIFT
 62
7
 10
4893.464
 20
-9725.093
 30
-1286.000
 70
    32
  0
VERTEX
  8
E66LXLIFT
 62
7
 10
4891.182
 20
-9716.980
 30
-1286.000
 70
    32
  0
VERTEX
  8
E66LXLIFT
 62
7
 10
4892.785
 20
-9712.893
 30
-1286.000
 70
    32
  0
VERTEX
  8
E66LXLIFT
 62
7
 10
4892.394
 20
-9701.243
 30
-1286.000
 70
    32
  0
SEQEND
  8
E66LXLIFT
  0
POLYLINE
  8
E66LXLIFT
 62
7
 66
     1
 70
     9
  0
VERTEX
  8
E66LXLIFT
 62
7
 10
4890.822
 20
-9699.668
 30
-1296.000
 70
    32
  0
VERTEX
  8
E66LXLIFT
 62
7
 10
4892.415
 20
-9725.743
 30
-1296.000
 70
    32
  0
VERTEX
  8
E66LXLIFT
 62
7
 10
4886.496
 20
-9731.213
 30
-1296.000
 70
    32
  0
VERTEX
  8
E66LXLIFT
 62
7
 10
4878.925
 20
-9729.741
 30
-1296.000
 70
    32
  0
VERTEX
  8
E66LXLIFT
 62
7
 10
4867.878
 20
-9737.722
 30
-1296.000
 70
    32
  0
VERTEX
  8
E66LXLIFT
 62
7
 10
4868.240
 20
-9744.078
 30
-1296.000
 70
    32
  0
VERTEX
  8
E66LXLIFT
 62
7
 10
4874.588
 20
-9748.060
 30
-1296.000
 70
    32
  0
VERTEX
  8
E66LXLIFT
 62
7
 10
4885.604
 20
-9764.507
 30
-1296.000
 70
    32
  0
VERTEX
  8
E66LXLIFT
 62
7
 10
4885.447
 20
-9771.346
 30
-1296.000
 70
    32
  0
VERTEX
  8
E66LXLIFT
 62
7
 10
4894.573
 20
-9782.325
 30
-1296.000
 70
    32
  0
VERTEX
  8
E66LXLIFT
 62
7
 10
4895.826
 20
-9790.965
 30
-1296.000
 70
    32
  0
VERTEX
  8
E66LXLIFT
 62
7
 10
4891.119
 20
-9799.464
 30
-1296.000
 70
    32
  0
VERTEX
  8
E66LXLIFT
 62
7
 10
4894.334
 20
-9815.473
 30
-1296.000
 70
    32
  0
VERTEX
  8
E66LXLIFT
 62
7
 10
4890.881
 20
-9817.750
 30
-1296.000
 70
    32
  0
VERTEX
  8
E66LXLIFT
 62
7
 10
4884.387
 20
-9815.067
 30
-1296.000
 70
    32
  0
VERTEX
  8
E66LXLIFT
 62
7
 10
4877.844
 20
-9809.164
 30
-1296.000
 70
    32
  0
VERTEX
  8
E66LXLIFT
 62
7
 10
4874.940
 20
-9803.344
 30
-1296.000
 70
    32
  0
VERTEX
  8
E66LXLIFT
 62
7
 10
4867.589
 20
-9793.469
 30
-1296.000
 70
    32
  0
VERTEX
  8
E66LXLIFT
 62
7
 10
4860.129
 20
-9776.839
 30
-1296.000
 70
    32
  0
VERTEX
  8
E66LXLIFT
 62
7
 10
4857.017
 20
-9759.021
 30
-1296.000
 70
    32
  0
VERTEX
  8
E66LXLIFT
 62
7
 10
4856.632
 20
-9755.936
 30
-1296.000
 70
    32
  0
VERTEX
  8
E66LXLIFT
 62
7
 10
4859.489
 20
-9747.580
 30
-1296.000
 70
    32
  0
VERTEX
  8
E66LXLIFT
 62
7
 10
4855.742
 20
-9740.742
 30
-1296.000
 70
    32
  0
VERTEX
  8
E66LXLIFT
 62
7
 10
4844.100
 20
-9738.741
 30
-1296.000
 70
    32
  0
VERTEX
  8
E66LXLIFT
 62
7
 10
4843.054
 20
-9736.243
 30
-1296.000
 70
    32
  0
VERTEX
  8
E66LXLIFT
 62
7
 10
4841.254
 20
-9726.696
 30
-1296.000
 70
    32
  0
VERTEX
  8
E66LXLIFT
 62
7
 10
4832.413
 20
-9715.511
 30
-1296.000
 70
    32
  0
VERTEX
  8
E66LXLIFT
 62
7
 10
4828.780
 20
-9705.228
 30
-1296.000
 70
    32
  0
VERTEX
  8
E66LXLIFT
 62
7
 10
4835.875
 20
-9701.837
 30
-1296.000
 70
    32
  0
VERTEX
  8
E66LXLIFT
 62
7
 10
4848.426
 20
-9711.100
 30
-1296.000
 70
    32
  0
VERTEX
  8
E66LXLIFT
 62
7
 10
4854.644
 20
-9715.502
 30
-1296.000
 70
    32
  0
VERTEX
  8
E66LXLIFT
 62
7
 10
4862.267
 20
-9696.327
 30
-1296.000
 70
    32
  0
VERTEX
  8
E66LXLIFT
 62
7
 10
4869.425
 20
-9691.372
 30
-1296.000
 70
    32
  0
VERTEX
  8
E66LXLIFT
 62
7
 10
4881.880
 20
-9696.149
 30
-1296.000
 70
    32
  0
SEQEND
  8
E66LXLIFT
  0
POLYLINE
  8
E66LXLIFT
 62
8
 66
     1
 70
     9
  0
VERTEX
  8
E66LXLIFT
 62
8
 10
6518.387
 20
-11457.118
 30
-1414.000
 70
    32
  0
VERTEX
  8
E66LXLIFT
 62
8
 10
6518.415
 20
-11442.912
 30
-1414.000
 70
    32
  0
VERTEX
  8
E66LXLIFT
 62
8
 10
6517.417
 20
-11431.683
 30
-1414.000
 70
    32
  0
VERTEX
  8
E66LXLIFT
 62
8
 10
6518.665
 20
-11411.248
 30
-1414.000
 70
    32
  0
VERTEX
  8
E66LXLIFT
 62
8
 10
6521.209
 20
-11397.105
 30
-1414.000
 70
    32
  0
VERTEX
  8
E66LXLIFT
 62
8
 10
6522.416
 20
-11379.063
 30
-1414.000
 70
    32
  0
VERTEX
  8
E66LXLIFT
 62
8
 10
6522.541
 20
-11359.631
 30
-1414.000
 70
    32
  0
VERTEX
  8
E66LXLIFT
 62
8
 10
6523.070
 20
-11341.849
 30
-1414.000
 70
    32
  0
VERTEX
  8
E66LXLIFT
 62
8
 10
6522.701
 20
-11332.437
 30
-1414.000
 70
    32
  0
VERTEX
  8
E66LXLIFT
 62
8
 10
6518.002
 20
-11325.738
 30
-1414.000
 70
    32
  0
VERTEX
  8
E66LXLIFT
 62
8
 10
6515.587
 20
-11318.620
 30
-1414.000
 70
    32
  0
VERTEX
  8
E66LXLIFT
 62
8
 10
6516.763
 20
-11312.636
 30
-1414.000
 70
    32
  0
VERTEX
  8
E66LXLIFT
 62
8
 10
6525.875
 20
-11306.781
 30
-1414.000
 70
    32
  0
VERTEX
  8
E66LXLIFT
 62
8
 10
6527.453
 20
-11284.826
 30
-1414.000
 70
    32
  0
VERTEX
  8
E66LXLIFT
 62
8
 10
6528.274
 20
-11262.863
 30
-1414.000
 70
    32
  0
VERTEX
  8
E66LXLIFT
 62
8
 10
6529.505
 20
-11239.646
 30
-1414.000
 70
    32
  0
VERTEX
  8
E66LXLIFT
 62
8
 10
6539.423
 20
-11239.997
 30
-1414.000
 70
    32
  0
VERTEX
  8
E66LXLIFT
 62
8
 10
6543.399
 20
-11245.052
 30
-1414.000
 70
    32
  0
VERTEX
  8
E66LXLIFT
 62
8
 10
6550.266
 20
-11250.552
 30
-1414.000
 70
    32
  0
VERTEX
  8
E66LXLIFT
 62
8
 10
6548.456
 20
-11263.751
 30
-1414.000
 70
    32
  0
VERTEX
  8
E66LXLIFT
 62
8
 10
6545.554
 20
-11273.095
 30
-1414.000
 70
    32
  0
VERTEX
  8
E66LXLIFT
 62
8
 10
6541.090
 20
-11285.576
 30
-1414.000
 70
    32
  0
VERTEX
  8
E66LXLIFT
 62
8
 10
6543.365
 20
-11289.891
 30
-1414.000
 70
    32
  0
VERTEX
  8
E66LXLIFT
 62
8
 10
6542.903
 20
-11296.126
 30
-1414.000
 70
    32
  0
VERTEX
  8
E66LXLIFT
 62
8
 10
6546.196
 20
-11309.399
 30
-1414.000
 70
    32
  0
VERTEX
  8
E66LXLIFT
 62
8
 10
6551.247
 20
-11322.728
 30
-1414.000
 70
    32
  0
VERTEX
  8
E66LXLIFT
 62
8
 10
6550.883
 20
-11333.086
 30
-1414.000
 70
    32
  0
VERTEX
  8
E66LXLIFT
 62
8
 10
6552.658
 20
-11342.050
 30
-1414.000
 70
    32
  0
VERTEX
  8
E66LXLIFT
 62
8
 10
6558.432
 20
-11349.821
 30
-1414.000
 70
    32
  0
VERTEX
  8
E66LXLIFT
 62
8
 10
6553.249
 20
-11371.082
 30
-1414.000
 70
    32
  0
VERTEX
  8
E66LXLIFT
 62
8
 10
6553.220
 20
-11385.288
 30
-1414.000
 70
    32
  0
VERTEX
  8
E66LXLIFT
 62
8
 10
6553.030
 20
-11404.013
 30
-1414.000
 70
    32
  0
VERTEX
  8
E66LXLIFT
 62
8
 10
6552.800
 20
-11426.206
 30
-1414.000
 70
    32
  0
VERTEX
  8
E66LXLIFT
 62
8
 10
6547.951
 20
-11427.566
 30
-1414.000
 70
    32
  0
VERTEX
  8
E66LXLIFT
 62
8
 10
6539.010
 20
-11431.366
 30
-1414.000
 70
    32
  0
VERTEX
  8
E66LXLIFT
 62
8
 10
6532.558
 20
-11437.182
 30
-1414.000
 70
    32
  0
VERTEX
  8
E66LXLIFT
 62
8
 10
6529.094
 20
-11446.490
 30
-1414.000
 70
    32
  0
VERTEX
  8
E66LXLIFT
 62
8
 10
6526.379
 20
-11456.562
 30
-1414.000
 70
    32
  0
SEQEND
  8
E66LXLIFT
  0
POLYLINE
  8
E66LXLIFT
 62
8
 66
     1
 70
     9
  0
VERTEX
  8
E66LXLIFT
 62
8
 10
6531.721
 20
-11230.208
 30
-1405.000
 70
    32
  0
VERTEX
  8
E66LXLIFT
 62
8
 10
6529.152
 20
-11250.585
 30
-1405.000
 70
    32
  0
VERTEX
  8
E66LXLIFT
 62
8
 10
6526.503
 20
-11276.294
 30
-1405.000
 70
    32
  0
VERTEX
  8
E66LXLIFT
 62
8
 10
6523.769
 20
-11310.416
 30
-1405.000
 70
    32
  0
VERTEX
  8
E66LXLIFT
 62
8
 10
6525.093
 20
-11328.652
 30
-1405.000
 70
    32
  0
VERTEX
  8
E66LXLIFT
 62
8
 10
6526.096
 20
-11339.108
 30
-1405.000
 70
    32
  0
VERTEX
  8
E66LXLIFT
 62
8
 10
6522.689
 20
-11355.277
 30
-1405.000
 70
    32
  0
VERTEX
  8
E66LXLIFT
 62
8
 10
6522.074
 20
-11374.742
 30
-1405.000
 70
    32
  0
VERTEX
  8
E66LXLIFT
 62
8
 10
6521.063
 20
-11399.997
 30
-1405.000
 70
    32
  0
VERTEX
  8
E66LXLIFT
 62
8
 10
6521.678
 20
-11421.399
 30
-1405.000
 70
    32
  0
VERTEX
  8
E66LXLIFT
 62
8
 10
6520.956
 20
-11431.606
 30
-1405.000
 70
    32
  0
VERTEX
  8
E66LXLIFT
 62
8
 10
6544.100
 20
-11431.558
 30
-1405.000
 70
    32
  0
VERTEX
  8
E66LXLIFT
 62
8
 10
6548.778
 20
-11413.121
 30
-1405.000
 70
    32
  0
VERTEX
  8
E66LXLIFT
 62
8
 10
6550.213
 20
-11407.984
 30
-1405.000
 70
    32
  0
VERTEX
  8
E66LXLIFT
 62
8
 10
6548.672
 20
-11403.423
 30
-1405.000
 70
    32
  0
VERTEX
  8
E66LXLIFT
 62
8
 10
6548.932
 20
-11385.102
 30
-1405.000
 70
    32
  0
VERTEX
  8
E66LXLIFT
 62
8
 10
6550.150
 20
-11362.329
 30
-1405.000
 70
    32
  0
VERTEX
  8
E66LXLIFT
 62
8
 10
6550.725
 20
-11345.311
 30
-1405.000
 70
    32
  0
VERTEX
  8
E66LXLIFT
 62
8
 10
6550.559
 20
-11329.506
 30
-1405.000
 70
    32
  0
VERTEX
  8
E66LXLIFT
 62
8
 10
6543.112
 20
-11310.133
 30
-1405.000
 70
    32
  0
VERTEX
  8
E66LXLIFT
 62
8
 10
6540.815
 20
-11294.711
 30
-1405.000
 70
    32
  0
VERTEX
  8
E66LXLIFT
 62
8
 10
6540.989
 20
-11285.682
 30
-1405.000
 70
    32
  0
VERTEX
  8
E66LXLIFT
 62
8
 10
6546.619
 20
-11266.314
 30
-1405.000
 70
    32
  0
VERTEX
  8
E66LXLIFT
 62
8
 10
6542.256
 20
-11255.183
 30
-1405.000
 70
    32
  0
VERTEX
  8
E66LXLIFT
 62
8
 10
6540.009
 20
-11241.152
 30
-1405.000
 70
    32
  0
VERTEX
  8
E66LXLIFT
 62
8
 10
6539.764
 20
-11230.239
 30
-1405.000
 70
    32
  0
SEQEND
  8
E66LXLIFT
  0
POLYLINE
  8
E66LXLIFT
 62
8
 66
     1
 70
     9
  0
VERTEX
  8
E66LXLIFT
 62
8
 10
6542.704
 20
-11424.019
 30
-1396.000
 70
    32
  0
VERTEX
  8
E66LXLIFT
 62
8
 10
6539.494
 20
-11425.577
 30
-1396.000
 70
    32
  0
VERTEX
  8
E66LXLIFT
 62
8
 10
6532.625
 20
-11422.513
 30
-1396.000
 70
    32
  0
VERTEX
  8
E66LXLIFT
 62
8
 10
6524.064
 20
-11417.854
 30
-1396.000
 70
    32
  0
VERTEX
  8
E66LXLIFT
 62
8
 10
6523.764
 20
-11410.378
 30
-1396.000
 70
    32
  0
VERTEX
  8
E66LXLIFT
 62
8
 10
6521.831
 20
-11400.938
 30
-1396.000
 70
    32
  0
VERTEX
  8
E66LXLIFT
 62
8
 10
6520.991
 20
-11382.801
 30
-1396.000
 70
    32
  0
VERTEX
  8
E66LXLIFT
 62
8
 10
6521.565
 20
-11363.319
 30
-1396.000
 70
    32
  0
VERTEX
  8
E66LXLIFT
 62
8
 10
6522.213
 20
-11357.759
 30
-1396.000
 70
    32
  0
VERTEX
  8
E66LXLIFT
 62
8
 10
6519.424
 20
-11344.278
 30
-1396.000
 70
    32
  0
VERTEX
  8
E66LXLIFT
 62
8
 10
6515.387
 20
-11343.939
 30
-1396.000
 70
    32
  0
VERTEX
  8
E66LXLIFT
 62
8
 10
6509.057
 20
-11335.613
 30
-1396.000
 70
    32
  0
VERTEX
  8
E66LXLIFT
 62
8
 10
6515.714
 20
-11328.319
 30
-1396.000
 70
    32
  0
VERTEX
  8
E66LXLIFT
 62
8
 10
6519.362
 20
-11322.112
 30
-1396.000
 70
    32
  0
VERTEX
  8
E66LXLIFT
 62
8
 10
6521.816
 20
-11315.901
 30
-1396.000
 70
    32
  0
VERTEX
  8
E66LXLIFT
 62
8
 10
6519.894
 20
-11306.777
 30
-1396.000
 70
    32
  0
VERTEX
  8
E66LXLIFT
 62
8
 10
6516.942
 20
-11300.131
 30
-1396.000
 70
    32
  0
VERTEX
  8
E66LXLIFT
 62
8
 10
6519.920
 20
-11290.291
 30
-1396.000
 70
    32
  0
VERTEX
  8
E66LXLIFT
 62
8
 10
6522.626
 20
-11279.022
 30
-1396.000
 70
    32
  0
VERTEX
  8
E66LXLIFT
 62
8
 10
6526.385
 20
-11265.909
 30
-1396.000
 70
    32
  0
VERTEX
  8
E66LXLIFT
 62
8
 10
6528.801
 20
-11251.382
 30
-1396.000
 70
    32
  0
VERTEX
  8
E66LXLIFT
 62
8
 10
6530.036
 20
-11237.924
 30
-1396.000
 70
    32
  0
VERTEX
  8
E66LXLIFT
 62
8
 10
6532.539
 20
-11233.735
 30
-1396.000
 70
    32
  0
VERTEX
  8
E66LXLIFT
 62
8
 10
6539.382
 20
-11233.458
 30
-1396.000
 70
    32
  0
VERTEX
  8
E66LXLIFT
 62
8
 10
6547.414
 20
-11236.332
 30
-1396.000
 70
    32
  0
VERTEX
  8
E66LXLIFT
 62
8
 10
6548.583
 20
-11239.605
 30
-1396.000
 70
    32
  0
VERTEX
  8
E66LXLIFT
 62
8
 10
6545.029
 20
-11246.394
 30
-1396.000
 70
    32
  0
VERTEX
  8
E66LXLIFT
 62
8
 10
6542.647
 20
-11259.163
 30
-1396.000
 70
    32
  0
VERTEX
  8
E66LXLIFT
 62
8
 10
6539.366
 20
-11278.648
 30
-1396.000
 70
    32
  0
VERTEX
  8
E66LXLIFT
 62
8
 10
6540.063
 20
-11296.888
 30
-1396.000
 70
    32
  0
VERTEX
  8
E66LXLIFT
 62
8
 10
6541.141
 20
-11313.554
 30
-1396.000
 70
    32
  0
VERTEX
  8
E66LXLIFT
 62
8
 10
6542.641
 20
-11326.448
 30
-1396.000
 70
    32
  0
VERTEX
  8
E66LXLIFT
 62
8
 10
6544.256
 20
-11339.802
 30
-1396.000
 70
    32
  0
VERTEX
  8
E66LXLIFT
 62
8
 10
6543.274
 20
-11352.861
 30
-1396.000
 70
    32
  0
VERTEX
  8
E66LXLIFT
 62
8
 10
6542.055
 20
-11358.832
 30
-1396.000
 70
    32
  0
VERTEX
  8
E66LXLIFT
 62
8
 10
6543.659
 20
-11363.309
 30
-1396.000
 70
    32
  0
VERTEX
  8
E66LXLIFT
 62
8
 10
6542.256
 20
-11380.139
 30
-1396.000
 70
    32
  0
VERTEX
  8
E66LXLIFT
 62
8
 10
6542.286
 20
-11395.502
 30
-1396.000
 70
    32
  0
VERTEX
  8
E66LXLIFT
 62
8
 10
6546.215
 20
-11403.502
 30
-1396.000
 70
    32
  0
VERTEX
  8
E66LXLIFT
 62
8
 10
6545.146
 20
-11410.882
 30
-1396.000
 70
    32
  0
SEQEND
  8
E66LXLIFT
  0
POLYLINE
  8
E66LXLIFT
 62
8
 66
     1
 70
     9
  0
VERTEX
  8
E66LXLIFT
 62
8
 10
6563.674
 20
-11226.341
 30
-1386.000
 70
    32
  0
VERTEX
  8
E66LXLIFT
 62
8
 10
6562.936
 20
-11234.158
 30
-1386.000
 70
    32
  0
VERTEX
  8
E66LXLIFT
 62
8
 10
6559.363
 20
-11238.816
 30
-1386.000
 70
    32
  0
VERTEX
  8
E66LXLIFT
 62
8
 10
6554.085
 20
-11241.126
 30
-1386.000
 70
    32
  0
VERTEX
  8
E66LXLIFT
 62
8
 10
6549.776
 20
-11244.471
 30
-1386.000
 70
    32
  0
VERTEX
  8
E66LXLIFT
 62
8
 10
6545.891
 20
-11251.095
 30
-1386.000
 70
    32
  0
VERTEX
  8
E66LXLIFT
 62
8
 10
6539.905
 20
-11263.807
 30
-1386.000
 70
    32
  0
VERTEX
  8
E66LXLIFT
 62
8
 10
6537.342
 20
-11274.796
 30
-1386.000
 70
    32
  0
VERTEX
  8
E66LXLIFT
 62
8
 10
6535.461
 20
-11288.223
 30
-1386.000
 70
    32
  0
VERTEX
  8
E66LXLIFT
 62
8
 10
6536.553
 20
-11302.752
 30
-1386.000
 70
    32
  0
VERTEX
  8
E66LXLIFT
 62
8
 10
6538.191
 20
-11321.775
 30
-1386.000
 70
    32
  0
VERTEX
  8
E66LXLIFT
 62
8
 10
6539.780
 20
-11338.334
 30
-1386.000
 70
    32
  0
VERTEX
  8
E66LXLIFT
 62
8
 10
6540.426
 20
-11353.296
 30
-1386.000
 70
    32
  0
VERTEX
  8
E66LXLIFT
 62
8
 10
6540.242
 20
-11370.707
 30
-1386.000
 70
    32
  0
VERTEX
  8
E66LXLIFT
 62
8
 10
6540.252
 20
-11388.087
 30
-1386.000
 70
    32
  0
VERTEX
  8
E66LXLIFT
 62
8
 10
6543.349
 20
-11402.682
 30
-1386.000
 70
    32
  0
VERTEX
  8
E66LXLIFT
 62
8
 10
6545.333
 20
-11417.541
 30
-1386.000
 70
    32
  0
VERTEX
  8
E66LXLIFT
 62
8
 10
6542.199
 20
-11430.140
 30
-1386.000
 70
    32
  0
VERTEX
  8
E66LXLIFT
 62
8
 10
6537.062
 20
-11426.805
 30
-1386.000
 70
    32
  0
VERTEX
  8
E66LXLIFT
 62
8
 10
6531.170
 20
-11429.018
 30
-1386.000
 70
    32
  0
VERTEX
  8
E66LXLIFT
 62
8
 10
6525.559
 20
-11427.875
 30
-1386.000
 70
    32
  0
VERTEX
  8
E66LXLIFT
 62
8
 10
6520.826
 20
-11421.205
 30
-1386.000
 70
    32
  0
VERTEX
  8
E66LXLIFT
 62
8
 10
6519.051
 20
-11409.779
 30
-1386.000
 70
    32
  0
VERTEX
  8
E66LXLIFT
 62
8
 10
6518.275
 20
-11396.433
 30
-1386.000
 70
    32
  0
VERTEX
  8
E66LXLIFT
 62
8
 10
6520.950
 20
-11383.951
 30
-1386.000
 70
    32
  0
VERTEX
  8
E66LXLIFT
 62
8
 10
6524.128
 20
-11373.059
 30
-1386.000
 70
    32
  0
VERTEX
  8
E66LXLIFT
 62
8
 10
6523.015
 20
-11366.586
 30
-1386.000
 70
    32
  0
VERTEX
  8
E66LXLIFT
 62
8
 10
6520.171
 20
-11351.590
 30
-1386.000
 70
    32
  0
VERTEX
  8
E66LXLIFT
 62
8
 10
6512.389
 20
-11341.917
 30
-1386.000
 70
    32
  0
VERTEX
  8
E66LXLIFT
 62
8
 10
6513.209
 20
-11320.892
 30
-1386.000
 70
    32
  0
VERTEX
  8
E66LXLIFT
 62
8
 10
6514.873
 20
-11304.471
 30
-1386.000
 70
    32
  0
VERTEX
  8
E66LXLIFT
 62
8
 10
6516.084
 20
-11295.660
 30
-1386.000
 70
    32
  0
VERTEX
  8
E66LXLIFT
 62
8
 10
6521.061
 20
-11275.421
 30
-1386.000
 70
    32
  0
VERTEX
  8
E66LXLIFT
 62
8
 10
6525.970
 20
-11251.646
 30
-1386.000
 70
    32
  0
VERTEX
  8
E66LXLIFT
 62
8
 10
6531.725
 20
-11230.082
 30
-1386.000
 70
    32
  0
VERTEX
  8
E66LXLIFT
 62
8
 10
6534.928
 20
-11219.824
 30
-1386.000
 70
    32
  0
VERTEX
  8
E66LXLIFT
 62
8
 10
6538.429
 20
-11216.413
 30
-1386.000
 70
    32
  0
VERTEX
  8
E66LXLIFT
 62
8
 10
6543.957
 20
-11216.095
 30
-1386.000
 70
    32
  0
SEQEND
  8
E66LXLIFT
  0
POLYLINE
  8
E66LXLIFT
 62
8
 66
     1
 70
     9
  0
VERTEX
  8
E66LXLIFT
 62
8
 10
6538.925
 20
-11200.957
 30
-1376.000
 70
    32
  0
VERTEX
  8
E66LXLIFT
 62
8
 10
6534.084
 20
-11221.310
 30
-1376.000
 70
    32
  0
VERTEX
  8
E66LXLIFT
 62
8
 10
6528.492
 20
-11243.177
 30
-1376.000
 70
    32
  0
VERTEX
  8
E66LXLIFT
 62
8
 10
6522.134
 20
-11264.729
 30
-1376.000
 70
    32
  0
VERTEX
  8
E66LXLIFT
 62
8
 10
6517.552
 20
-11289.656
 30
-1376.000
 70
    32
  0
VERTEX
  8
E66LXLIFT
 62
8
 10
6512.588
 20
-11313.451
 30
-1376.000
 70
    32
  0
VERTEX
  8
E66LXLIFT
 62
8
 10
6513.233
 20
-11324.129
 30
-1376.000
 70
    32
  0
VERTEX
  8
E66LXLIFT
 62
8
 10
6513.870
 20
-11339.463
 30
-1376.000
 70
    32
  0
VERTEX
  8
E66LXLIFT
 62
8
 10
6511.849
 20
-11353.355
 30
-1376.000
 70
    32
  0
VERTEX
  8
E66LXLIFT
 62
8
 10
6510.735
 20
-11366.703
 30
-1376.000
 70
    32
  0
VERTEX
  8
E66LXLIFT
 62
8
 10
6512.195
 20
-11387.395
 30
-1376.000
 70
    32
  0
VERTEX
  8
E66LXLIFT
 62
8
 10
6511.996
 20
-11403.222
 30
-1376.000
 70
    32
  0
VERTEX
  8
E66LXLIFT
 62
8
 10
6514.328
 20
-11411.281
 30
-1376.000
 70
    32
  0
VERTEX
  8
E66LXLIFT
 62
8
 10
6525.770
 20
-11413.657
 30
-1376.000
 70
    32
  0
VERTEX
  8
E66LXLIFT
 62
8
 10
6540.443
 20
-11413.603
 30
-1376.000
 70
    32
  0
VERTEX
  8
E66LXLIFT
 62
8
 10
6551.410
 20
-11410.803
 30
-1376.000
 70
    32
  0
VERTEX
  8
E66LXLIFT
 62
8
 10
6557.785
 20
-11404.924
 30
-1376.000
 70
    32
  0
VERTEX
  8
E66LXLIFT
 62
8
 10
6558.362
 20
-11399.858
 30
-1376.000
 70
    32
  0
VERTEX
  8
E66LXLIFT
 62
8
 10
6554.321
 20
-11386.862
 30
-1376.000
 70
    32
  0
VERTEX
  8
E66LXLIFT
 62
8
 10
6548.214
 20
-11369.185
 30
-1376.000
 70
    32
  0
VERTEX
  8
E66LXLIFT
 62
8
 10
6540.495
 20
-11345.204
 30
-1376.000
 70
    32
  0
VERTEX
  8
E66LXLIFT
 62
8
 10
6536.945
 20
-11325.365
 30
-1376.000
 70
    32
  0
VERTEX
  8
E66LXLIFT
 62
8
 10
6534.560
 20
-11306.095
 30
-1376.000
 70
    32
  0
VERTEX
  8
E66LXLIFT
 62
8
 10
6536.227
 20
-11289.754
 30
-1376.000
 70
    32
  0
VERTEX
  8
E66LXLIFT
 62
8
 10
6537.495
 20
-11273.158
 30
-1376.000
 70
    32
  0
VERTEX
  8
E66LXLIFT
 62
8
 10
6543.831
 20
-11250.973
 30
-1376.000
 70
    32
  0
VERTEX
  8
E66LXLIFT
 62
8
 10
6549.837
 20
-11231.188
 30
-1376.000
 70
    32
  0
VERTEX
  8
E66LXLIFT
 62
8
 10
6556.552
 20
-11223.224
 30
-1376.000
 70
    32
  0
VERTEX
  8
E66LXLIFT
 62
8
 10
6564.431
 20
-11215.074
 30
-1376.000
 70
    32
  0
VERTEX
  8
E66LXLIFT
 62
8
 10
6565.164
 20
-11200.593
 30
-1376.000
 70
    32
  0
VERTEX
  8
E66LXLIFT
 62
8
 10
6553.514
 20
-11197.177
 30
-1376.000
 70
    32
  0
VERTEX
  8
E66LXLIFT
 62
8
 10
6538.842
 20
-11200.692
 30
-1376.000
 70
    32
  0
SEQEND
  8
E66LXLIFT
  0
POLYLINE
  8
E66LXLIFT
 62
1
 66
     1
 70
     9
  0
VERTEX
  8
E66LXLIFT
 62
1
 10
6540.925
 20
-11198.957
 30
-1366.000
 70
    32
  0
VERTEX
  8
E66LXLIFT
 62
1
 10
6536.084
 20
-11219.310
 30
-1366.000
 70
    32
  0
VERTEX
  8
E66LXLIFT
 62
1
 10
6530.492
 20
-11241.177
 30
-1366.000
 70
    32
  0
VERTEX
  8
E66LXLIFT
 62
1
 10
6524.134
 20
-11262.729
 30
-1366.000
 70
    32
  0
VERTEX
  8
E66LXLIFT
 62
1
 10
6519.552
 20
-11287.656
 30
-1366.000
 70
    32
  0
VERTEX
  8
E66LXLIFT
 62
1
 10
6514.588
 20
-11311.451
 30
-1366.000
 70
    32
  0
VERTEX
  8
E66LXLIFT
 62
1
 10
6515.233
 20
-11322.129
 30
-1366.000
 70
    32
  0
VERTEX
  8
E66LXLIFT
 62
1
 10
6515.870
 20
-11337.463
 30
-1366.000
 70
    32
  0
VERTEX
  8
E66LXLIFT
 62
1
 10
6513.849
 20
-11351.355
 30
-1366.000
 70
    32
  0
VERTEX
  8
E66LXLIFT
 62
1
 10
6512.735
 20
-11364.703
 30
-1366.000
 70
    32
  0
VERTEX
  8
E66LXLIFT
 62
1
 10
6514.195
 20
-11385.395
 30
-1366.000
 70
    32
  0
VERTEX
  8
E66LXLIFT
 62
1
 10
6513.996
 20
-11401.222
 30
-1366.000
 70
    32
  0
VERTEX
  8
E66LXLIFT
 62
1
 10
6516.328
 20
-11409.281
 30
-1366.000
 70
    32
  0
VERTEX
  8
E66LXLIFT
 62
1
 10
6527.770
 20
-11411.657
 30
-1366.000
 70
    32
  0
VERTEX
  8
E66LXLIFT
 62
1
 10
6542.443
 20
-11411.603
 30
-1366.000
 70
    32
  0
VERTEX
  8
E66LXLIFT
 62
1
 10
6553.410
 20
-11408.803
 30
-1366.000
 70
    32
  0
VERTEX
  8
E66LXLIFT
 62
1
 10
6559.785
 20
-11402.924
 30
-1366.000
 70
    32
  0
VERTEX
  8
E66LXLIFT
 62
1
 10
6560.362
 20
-11397.858
 30
-1366.000
 70
    32
  0
VERTEX
  8
E66LXLIFT
 62
1
 10
6556.321
 20
-11384.862
 30
-1366.000
 70
    32
  0
VERTEX
  8
E66LXLIFT
 62
1
 10
6550.214
 20
-11367.185
 30
-1366.000
 70
    32
  0
VERTEX
  8
E66LXLIFT
 62
1
 10
6542.495
 20
-11343.204
 30
-1366.000
 70
    32
  0
VERTEX
  8
E66LXLIFT
 62
1
 10
6538.945
 20
-11323.365
 30
-1366.000
 70
    32
  0
VERTEX
  8
E66LXLIFT
 62
1
 10
6536.560
 20
-11304.095
 30
-1366.000
 70
    32
  0
VERTEX
  8
E66LXLIFT
 62
1
 10
6538.227
 20
-11287.754
 30
-1366.000
 70
    32
  0
VERTEX
  8
E66LXLIFT
 62
1
 10
6539.495
 20
-11271.158
 30
-1366.000
 70
    32
  0
VERTEX
  8
E66LXLIFT
 62
1
 10
6545.831
 20
-11248.973
 30
-1366.000
 70
    32
  0
VERTEX
  8
E66LXLIFT
 62
1
 10
6551.837
 20
-11229.188
 30
-1366.000
 70
    32
  0
VERTEX
  8
E66LXLIFT
 62
1
 10
6558.552
 20
-11221.224
 30
-1366.000
 70
    32
  0
VERTEX
  8
E66LXLIFT
 62
1
 10
6566.431
 20
-11213.074
 30
-1366.000
 70
    32
  0
VERTEX
  8
E66LXLIFT
 62
1
 10
6567.164
 20
-11198.593
 30
-1366.000
 70
    32
  0
VERTEX
  8
E66LXLIFT
 62
1
 10
6555.514
 20
-11195.177
 30
-1366.000
 70
    32
  0
VERTEX
  8
E66LXLIFT
 62
1
 10
6540.842
 20
-11198.692
 30
-1366.000
 70
    32
  0
SEQEND
  8
E66LXLIFT
  0
POINT
  8
E66LXLIFT
 62
1
 10
6488.966
 20
-11299.300
 30
-1261.229
  0
LINE
  8
E66LXLIFT
 62
8
 10
6488.966
 20
-11299.300
 30
-1261.229
 11
6524.598
 21
-11303.091
 31
-1366.000
  0
POINT
  8
E66LXLIFT
 62
1
 10
6524.598
 20
-11303.091
 30
-1366.000
  0
POLYLINE
  8
E66LXLIFT
 62
1
 66
     1
 70
     9
  0
VERTEX
  8
E66LXLIFT
 62
1
 10
4893.394
 20
-9700.243
 30
-1276.000
 70
    32
  0
VERTEX
  8
E66LXLIFT
 62
1
 10
4893.785
 20
-9711.893
 30
-1276.000
 70
    32
  0
VERTEX
  8
E66LXLIFT
 62
1
 10
4892.182
 20
-9715.980
 30
-1276.000
 70
    32
  0
VERTEX
  8
E66LXLIFT
 62
1
 10
4894.464
 20
-9724.093
 30
-1276.000
 70
    32
  0
VERTEX
  8
E66LXLIFT
 62
1
 10
4889.183
 20
-9728.343
 30
-1276.000
 70
    32
  0
VERTEX
  8
E66LXLIFT
 62
1
 10
4882.926
 20
-9728.091
 30
-1276.000
 70
    32
  0
VERTEX
  8
E66LXLIFT
 62
1
 10
4868.594
 20
-9738.881
 30
-1276.000
 70
    32
  0
VERTEX
  8
E66LXLIFT
 62
1
 10
4881.208
 20
-9748.532
 30
-1276.000
 70
    32
  0
VERTEX
  8
E66LXLIFT
 62
1
 10
4887.903
 20
-9763.653
 30
-1276.000
 70
    32
  0
VERTEX
  8
E66LXLIFT
 62
1
 10
4886.011
 20
-9771.094
 30
-1276.000
 70
    32
  0
VERTEX
  8
E66LXLIFT
 62
1
 10
4894.165
 20
-9789.284
 30
-1276.000
 70
    32
  0
VERTEX
  8
E66LXLIFT
 62
1
 10
4892.883
 20
-9798.020
 30
-1276.000
 70
    32
  0
VERTEX
  8
E66LXLIFT
 62
1
 10
4896.430
 20
-9813.138
 30
-1276.000
 70
    32
  0
VERTEX
  8
E66LXLIFT
 62
1
 10
4888.737
 20
-9815.551
 30
-1276.000
 70
    32
  0
VERTEX
  8
E66LXLIFT
 62
1
 10
4881.964
 20
-9806.777
 30
-1276.000
 70
    32
  0
VERTEX
  8
E66LXLIFT
 62
1
 10
4872.558
 20
-9800.665
 30
-1276.000
 70
    32
  0
VERTEX
  8
E66LXLIFT
 62
1
 10
4852.534
 20
-9766.646
 30
-1276.000
 70
    32
  0
VERTEX
  8
E66LXLIFT
 62
1
 10
4859.496
 20
-9748.057
 30
-1276.000
 70
    32
  0
VERTEX
  8
E66LXLIFT
 62
1
 10
4857.146
 20
-9740.752
 30
-1276.000
 70
    32
  0
VERTEX
  8
E66LXLIFT
 62
1
 10
4844.803
 20
-9739.582
 30
-1276.000
 70
    32
  0
VERTEX
  8
E66LXLIFT
 62
1
 10
4840.302
 20
-9725.696
 30
-1276.000
 70
    32
  0
VERTEX
  8
E66LXLIFT
 62
1
 10
4829.222
 20
-9706.909
 30
-1276.000
 70
    32
  0
VERTEX
  8
E66LXLIFT
 62
1
 10
4834.314
 20
-9701.495
 30
-1276.000
 70
    32
  0
VERTEX
  8
E66LXLIFT
 62
1
 10
4847.874
 20
-9710.354
 30
-1276.000
 70
    32
  0
VERTEX
  8
E66LXLIFT
 62
1
 10
4853.415
 20
-9716.221
 30
-1276.000
 70
    32
  0
VERTEX
  8
E66LXLIFT
 62
1
 10
4858.182
 20
-9715.163
 30
-1276.000
 70
    32
  0
VERTEX
  8
E66LXLIFT
 62
1
 10
4861.572
 20
-9697.636
 30
-1276.000
 70
    32
  0
VERTEX
  8
E66LXLIFT
 62
1
 10
4871.217
 20
-9689.366
 30
-1276.000
 70
    32
  0
VERTEX
  8
E66LXLIFT
 62
1
 10
4876.148
 20
-9693.939
 30
-1276.000
 70
    32
  0
VERTEX
  8
E66LXLIFT
 62
1
 10
4884.986
 20
-9695.363
 30
-1276.000
 70
    32
  0
SEQEND
  8
E66LXLIFT
  0
POLYLINE
  8
E66LXLIFT
 62
1
 66
     1
 70
     9
  0
VERTEX
  8
E66LXLIFT
 62
1
 10
4913.906
 20
-9579.555
 30
-1273.000
 70
    32
  0
VERTEX
  8
E66LXLIFT
 62
1
 10
4925.757
 20
-9578.693
 30
-1273.000
 70
    32
  0
VERTEX
  8
E66LXLIFT
 62
1
 10
4950.535
 20
-9584.763
 30
-1273.000
 70
    32
  0
VERTEX
  8
E66LXLIFT
 62
1
 10
4961.958
 20
-9578.353
 30
-1273.000
 70
    32
  0
VERTEX
  8
E66LXLIFT
 62
1
 10
4968.733
 20
-9578.122
 30
-1273.000
 70
    32
  0
VERTEX
  8
E66LXLIFT
 62
1
 10
4968.554
 20
-9592.136
 30
-1273.000
 70
    32
  0
VERTEX
  8
E66LXLIFT
 62
1
 10
4978.237
 20
-9596.530
 30
-1273.000
 70
    32
  0
VERTEX
  8
E66LXLIFT
 62
1
 10
4973.094
 20
-9603.825
 30
-1273.000
 70
    32
  0
VERTEX
  8
E66LXLIFT
 62
1
 10
4959.219
 20
-9602.786
 30
-1273.000
 70
    32
  0
VERTEX
  8
E66LXLIFT
 62
1
 10
4955.747
 20
-9609.091
 30
-1273.000
 70
    32
  0
VERTEX
  8
E66LXLIFT
 62
1
 10
4955.864
 20
-9619.311
 30
-1273.000
 70
    32
  0
VERTEX
  8
E66LXLIFT
 62
1
 10
4960.427
 20
-9623.825
 30
-1273.000
 70
    32
  0
VERTEX
  8
E66LXLIFT
 62
1
 10
4969.231
 20
-9611.389
 30
-1273.000
 70
    32
  0
VERTEX
  8
E66LXLIFT
 62
1
 10
4976.193
 20
-9615.470
 30
-1273.000
 70
    32
  0
VERTEX
  8
E66LXLIFT
 62
1
 10
4973.864
 20
-9628.760
 30
-1273.000
 70
    32
  0
VERTEX
  8
E66LXLIFT
 62
1
 10
4974.027
 20
-9632.438
 30
-1273.000
 70
    32
  0
VERTEX
  8
E66LXLIFT
 62
1
 10
4979.251
 20
-9638.318
 30
-1273.000
 70
    32
  0
VERTEX
  8
E66LXLIFT
 62
1
 10
4975.828
 20
-9647.842
 30
-1273.000
 70
    32
  0
VERTEX
  8
E66LXLIFT
 62
1
 10
4967.911
 20
-9644.992
 30
-1273.000
 70
    32
  0
VERTEX
  8
E66LXLIFT
 62
1
 10
4963.992
 20
-9649.777
 30
-1273.000
 70
    32
  0
VERTEX
  8
E66LXLIFT
 62
1
 10
4970.975
 20
-9680.310
 30
-1273.000
 70
    32
  0
VERTEX
  8
E66LXLIFT
 62
1
 10
4960.649
 20
-9683.432
 30
-1273.000
 70
    32
  0
VERTEX
  8
E66LXLIFT
 62
1
 10
4953.896
 20
-9678.440
 30
-1273.000
 70
    32
  0
VERTEX
  8
E66LXLIFT
 62
1
 10
4950.744
 20
-9675.728
 30
-1273.000
 70
    32
  0
VERTEX
  8
E66LXLIFT
 62
1
 10
4945.220
 20
-9676.791
 30
-1273.000
 70
    32
  0
VERTEX
  8
E66LXLIFT
 62
1
 10
4941.147
 20
-9668.452
 30
-1273.000
 70
    32
  0
VERTEX
  8
E66LXLIFT
 62
1
 10
4949.111
 20
-9651.851
 30
-1273.000
 70
    32
  0
VERTEX
  8
E66LXLIFT
 62
1
 10
4944.045
 20
-9641.085
 30
-1273.000
 70
    32
  0
VERTEX
  8
E66LXLIFT
 62
1
 10
4938.037
 20
-9639.676
 30
-1273.000
 70
    32
  0
VERTEX
  8
E66LXLIFT
 62
1
 10
4935.849
 20
-9630.193
 30
-1273.000
 70
    32
  0
VERTEX
  8
E66LXLIFT
 62
1
 10
4932.075
 20
-9627.822
 30
-1273.000
 70
    32
  0
VERTEX
  8
E66LXLIFT
 62
1
 10
4935.375
 20
-9616.326
 30
-1273.000
 70
    32
  0
VERTEX
  8
E66LXLIFT
 62
1
 10
4928.812
 20
-9608.593
 30
-1273.000
 70
    32
  0
VERTEX
  8
E66LXLIFT
 62
1
 10
4930.109
 20
-9597.026
 30
-1273.000
 70
    32
  0
VERTEX
  8
E66LXLIFT
 62
1
 10
4927.150
 20
-9592.331
 30
-1273.000
 70
    32
  0
VERTEX
  8
E66LXLIFT
 62
1
 10
4912.264
 20
-9587.792
 30
-1273.000
 70
    32
  0
SEQEND
  8
E66LXLIFT
  0
POLYLINE
  8
E66LXLIFT
 62
1
 66
     1
 70
     9
  0
VERTEX
  8
E66LXLIFT
 62
1
 10
4941.179
 20
-9724.943
 30
-1270.000
 70
    32
  0
VERTEX
  8
E66LXLIFT
 62
1
 10
4947.783
 20
-9740.239
 30
-1270.000
 70
    32
  0
VERTEX
  8
E66LXLIFT
 62
1
 10
4959.940
 20
-9742.953
 30
-1270.000
 70
    32
  0
VERTEX
  8
E66LXLIFT
 62
1
 10
4966.916
 20
-9738.346
 30
-1270.000
 70
    32
  0
VERTEX
  8
E66LXLIFT
 62
1
 10
4963.359
 20
-9730.720
 30
-1270.000
 70
    32
  0
VERTEX
  8
E66LXLIFT
 62
1
 10
4971.762
 20
-9732.892
 30
-1270.000
 70
    32
  0
VERTEX
  8
E66LXLIFT
 62
1
 10
4974.890
 20
-9731.066
 30
-1270.000
 70
    32
  0
VERTEX
  8
E66LXLIFT
 62
1
 10
4975.285
 20
-9724.707
 30
-1270.000
 70
    32
  0
VERTEX
  8
E66LXLIFT
 62
1
 10
4987.137
 20
-9725.797
 30
-1270.000
 70
    32
  0
VERTEX
  8
E66LXLIFT
 62
1
 10
4991.783
 20
-9734.480
 30
-1270.000
 70
    32
  0
VERTEX
  8
E66LXLIFT
 62
1
 10
5000.416
 20
-9752.432
 30
-1270.000
 70
    32
  0
VERTEX
  8
E66LXLIFT
 62
1
 10
4999.919
 20
-9762.554
 30
-1270.000
 70
    32
  0
VERTEX
  8
E66LXLIFT
 62
1
 10
4995.635
 20
-9768.035
 30
-1270.000
 70
    32
  0
VERTEX
  8
E66LXLIFT
 62
1
 10
4998.527
 20
-9775.491
 30
-1270.000
 70
    32
  0
VERTEX
  8
E66LXLIFT
 62
1
 10
4997.923
 20
-9780.809
 30
-1270.000
 70
    32
  0
VERTEX
  8
E66LXLIFT
 62
1
 10
5001.480
 20
-9788.435
 30
-1270.000
 70
    32
  0
VERTEX
  8
E66LXLIFT
 62
1
 10
4996.333
 20
-9793.022
 30
-1270.000
 70
    32
  0
VERTEX
  8
E66LXLIFT
 62
1
 10
4980.412
 20
-9778.492
 30
-1270.000
 70
    32
  0
VERTEX
  8
E66LXLIFT
 62
1
 10
4974.004
 20
-9772.926
 30
-1270.000
 70
    32
  0
VERTEX
  8
E66LXLIFT
 62
1
 10
4969.393
 20
-9767.145
 30
-1270.000
 70
    32
  0
VERTEX
  8
E66LXLIFT
 62
1
 10
4962.475
 20
-9763.575
 30
-1270.000
 70
    32
  0
VERTEX
  8
E66LXLIFT
 62
1
 10
4958.186
 20
-9762.443
 30
-1270.000
 70
    32
  0
VERTEX
  8
E66LXLIFT
 62
1
 10
4951.739
 20
-9762.979
 30
-1270.000
 70
    32
  0
VERTEX
  8
E66LXLIFT
 62
1
 10
4936.673
 20
-9745.880
 30
-1270.000
 70
    32
  0
VERTEX
  8
E66LXLIFT
 62
1
 10
4929.038
 20
-9725.254
 30
-1270.000
 70
    32
  0
SEQEND
  8
E66LXLIFT
  0
POLYLINE
  8
E66LXLIFT
 62
1
 66
     1
 70
     9
  0
VERTEX
  8
E66LXLIFT
 62
1
 10
5079.586
 20
-9678.850
 30
-1278.000
 70
    32
  0
VERTEX
  8
E66LXLIFT
 62
1
 10
5090.142
 20
-9693.460
 30
-1278.000
 70
    32
  0
VERTEX
  8
E66LXLIFT
 62
1
 10
5100.531
 20
-9707.539
 30
-1278.000
 70
    32
  0
VERTEX
  8
E66LXLIFT
 62
1
 10
5117.449
 20
-9713.539
 30
-1278.000
 70
    32
  0
VERTEX
  8
E66LXLIFT
 62
1
 10
5124.094
 20
-9713.728
 30
-1278.000
 70
    32
  0
VERTEX
  8
E66LXLIFT
 62
1
 10
5126.601
 20
-9716.147
 30
-1278.000
 70
    32
  0
VERTEX
  8
E66LXLIFT
 62
1
 10
5121.487
 20
-9726.784
 30
-1278.000
 70
    32
  0
VERTEX
  8
E66LXLIFT
 62
1
 10
5112.822
 20
-9723.499
 30
-1278.000
 70
    32
  0
VERTEX
  8
E66LXLIFT
 62
1
 10
5106.039
 20
-9724.169
 30
-1278.000
 70
    32
  0
VERTEX
  8
E66LXLIFT
 62
1
 10
5088.442
 20
-9728.640
 30
-1278.000
 70
    32
  0
VERTEX
  8
E66LXLIFT
 62
1
 10
5082.653
 20
-9727.833
 30
-1278.000
 70
    32
  0
VERTEX
  8
E66LXLIFT
 62
1
 10
5074.390
 20
-9717.749
 30
-1278.000
 70
    32
  0
VERTEX
  8
E66LXLIFT
 62
1
 10
5071.331
 20
-9703.906
 30
-1278.000
 70
    32
  0
VERTEX
  8
E66LXLIFT
 62
1
 10
5072.577
 20
-9698.124
 30
-1278.000
 70
    32
  0
VERTEX
  8
E66LXLIFT
 62
1
 10
5071.514
 20
-9692.601
 30
-1278.000
 70
    32
  0
VERTEX
  8
E66LXLIFT
 62
1
 10
5056.886
 20
-9686.466
 30
-1278.000
 70
    32
  0
VERTEX
  8
E66LXLIFT
 62
1
 10
5054.526
 20
-9688.604
 30
-1278.000
 70
    32
  0
VERTEX
  8
E66LXLIFT
 62
1
 10
5050.709
 20
-9689.627
 30
-1278.000
 70
    32
  0
VERTEX
  8
E66LXLIFT
 62
1
 10
5038.291
 20
-9689.705
 30
-1278.000
 70
    32
  0
VERTEX
  8
E66LXLIFT
 62
1
 10
5025.822
 20
-9695.568
 30
-1278.000
 70
    32
  0
VERTEX
  8
E66LXLIFT
 62
1
 10
5022.334
 20
-9694.943
 30
-1278.000
 70
    32
  0
VERTEX
  8
E66LXLIFT
 62
1
 10
5015.354
 20
-9700.745
 30
-1278.000
 70
    32
  0
VERTEX
  8
E66LXLIFT
 62
1
 10
5007.255
 20
-9698.244
 30
-1278.000
 70
    32
  0
VERTEX
  8
E66LXLIFT
 62
1
 10
5003.724
 20
-9701.013
 30
-1278.000
 70
    32
  0
VERTEX
  8
E66LXLIFT
 62
1
 10
5001.554
 20
-9702.364
 30
-1278.000
 70
    32
  0
VERTEX
  8
E66LXLIFT
 62
1
 10
4996.005
 20
-9696.936
 30
-1278.000
 70
    32
  0
VERTEX
  8
E66LXLIFT
 62
1
 10
4995.216
 20
-9690.889
 30
-1278.000
 70
    32
  0
VERTEX
  8
E66LXLIFT
 62
1
 10
4998.588
 20
-9681.294
 30
-1278.000
 70
    32
  0
VERTEX
  8
E66LXLIFT
 62
1
 10
5001.868
 20
-9671.873
 30
-1278.000
 70
    32
  0
VERTEX
  8
E66LXLIFT
 62
1
 10
5008.085
 20
-9670.418
 30
-1278.000
 70
    32
  0
VERTEX
  8
E66LXLIFT
 62
1
 10
5012.353
 20
-9665.816
 30
-1278.000
 70
    32
  0
VERTEX
  8
E66LXLIFT
 62
1
 10
5023.697
 20
-9663.802
 30
-1278.000
 70
    32
  0
VERTEX
  8
E66LXLIFT
 62
1
 10
5031.114
 20
-9661.156
 30
-1278.000
 70
    32
  0
VERTEX
  8
E66LXLIFT
 62
1
 10
5043.419
 20
-9670.380
 30
-1278.000
 70
    32
  0
VERTEX
  8
E66LXLIFT
 62
1
 10
5050.187
 20
-9674.492
 30
-1278.000
 70
    32
  0
VERTEX
  8
E66LXLIFT
 62
1
 10
5069.536
 20
-9680.254
 30
-1278.000
 70
    32
  0
SEQEND
  8
E66LXLIFT
  0
ENDSEC
  0
EOF
