999
********************************
999
*   DXF File - Entities Only   *
999
*        3D Data Format        *
999
*     Output from ENVISAGE     *
999
*     31-Dec-2007 14:52:14     *
999
********************************
  0
SECTION 
  2
HEADER
  9
$ACADVER
  1
AC1009
  9
$EXTMIN
 10
-290000.000
 20
-250000.000
 30
-4000.000
  9
$EXTMAX
 10
320000.000
 20
160000.000
 30
6000.000
  0
ENDSEC
  0
SECTION
  2
ENTITIES
  0
POLYLINE
  8
E69LXLIFT
 62
3
 66
     1
 70
     9
  0
VERTEX
  8
E69LXLIFT
 62
3
 10
7104.721
 20
-11012.457
 30
-1604.000
 70
    32
  0
VERTEX
  8
E69LXLIFT
 62
3
 10
7101.011
 20
-11001.440
 30
-1604.000
 70
    32
  0
VERTEX
  8
E69LXLIFT
 62
3
 10
7094.049
 20
-10990.298
 30
-1604.000
 70
    32
  0
VERTEX
  8
E69LXLIFT
 62
3
 10
7085.538
 20
-10983.888
 30
-1604.000
 70
    32
  0
VERTEX
  8
E69LXLIFT
 62
3
 10
7076.302
 20
-10980.952
 30
-1604.000
 70
    32
  0
VERTEX
  8
E69LXLIFT
 62
3
 10
7077.853
 20
-10971.313
 30
-1604.000
 70
    32
  0
VERTEX
  8
E69LXLIFT
 62
3
 10
7072.956
 20
-10961.057
 30
-1604.000
 70
    32
  0
VERTEX
  8
E69LXLIFT
 62
3
 10
7070.102
 20
-10950.612
 30
-1604.000
 70
    32
  0
VERTEX
  8
E69LXLIFT
 62
3
 10
7064.097
 20
-10943.456
 30
-1604.000
 70
    32
  0
VERTEX
  8
E69LXLIFT
 62
3
 10
7070.739
 20
-10925.292
 30
-1604.000
 70
    32
  0
VERTEX
  8
E69LXLIFT
 62
3
 10
7073.408
 20
-10921.048
 30
-1604.000
 70
    32
  0
VERTEX
  8
E69LXLIFT
 62
3
 10
7075.163
 20
-10910.498
 30
-1604.000
 70
    32
  0
VERTEX
  8
E69LXLIFT
 62
3
 10
7072.921
 20
-10895.681
 30
-1604.000
 70
    32
  0
VERTEX
  8
E69LXLIFT
 62
3
 10
7065.228
 20
-10888.453
 30
-1604.000
 70
    32
  0
VERTEX
  8
E69LXLIFT
 62
3
 10
7054.616
 20
-10878.132
 30
-1604.000
 70
    32
  0
VERTEX
  8
E69LXLIFT
 62
3
 10
7055.855
 20
-10868.068
 30
-1604.000
 70
    32
  0
VERTEX
  8
E69LXLIFT
 62
3
 10
7060.078
 20
-10866.392
 30
-1604.000
 70
    32
  0
VERTEX
  8
E69LXLIFT
 62
3
 10
7067.501
 20
-10864.770
 30
-1604.000
 70
    32
  0
VERTEX
  8
E69LXLIFT
 62
3
 10
7074.351
 20
-10854.628
 30
-1604.000
 70
    32
  0
VERTEX
  8
E69LXLIFT
 62
3
 10
7075.542
 20
-10847.325
 30
-1604.000
 70
    32
  0
VERTEX
  8
E69LXLIFT
 62
3
 10
7073.216
 20
-10838.346
 30
-1604.000
 70
    32
  0
VERTEX
  8
E69LXLIFT
 62
3
 10
7063.761
 20
-10822.164
 30
-1604.000
 70
    32
  0
VERTEX
  8
E69LXLIFT
 62
3
 10
7058.580
 20
-10802.740
 30
-1604.000
 70
    32
  0
VERTEX
  8
E69LXLIFT
 62
3
 10
7059.869
 20
-10797.654
 30
-1604.000
 70
    32
  0
VERTEX
  8
E69LXLIFT
 62
3
 10
7057.877
 20
-10782.436
 30
-1604.000
 70
    32
  0
VERTEX
  8
E69LXLIFT
 62
3
 10
7056.911
 20
-10760.580
 30
-1604.000
 70
    32
  0
VERTEX
  8
E69LXLIFT
 62
3
 10
7061.375
 20
-10748.371
 30
-1604.000
 70
    32
  0
VERTEX
  8
E69LXLIFT
 62
3
 10
7056.373
 20
-10731.870
 30
-1604.000
 70
    32
  0
VERTEX
  8
E69LXLIFT
 62
3
 10
7059.255
 20
-10725.834
 30
-1604.000
 70
    32
  0
VERTEX
  8
E69LXLIFT
 62
3
 10
7056.284
 20
-10713.296
 30
-1604.000
 70
    32
  0
VERTEX
  8
E69LXLIFT
 62
3
 10
7057.890
 20
-10706.560
 30
-1604.000
 70
    32
  0
VERTEX
  8
E69LXLIFT
 62
3
 10
7065.447
 20
-10700.806
 30
-1604.000
 70
    32
  0
VERTEX
  8
E69LXLIFT
 62
3
 10
7073.860
 20
-10695.624
 30
-1604.000
 70
    32
  0
VERTEX
  8
E69LXLIFT
 62
3
 10
7079.205
 20
-10698.903
 30
-1604.000
 70
    32
  0
VERTEX
  8
E69LXLIFT
 62
3
 10
7092.989
 20
-10702.541
 30
-1604.000
 70
    32
  0
VERTEX
  8
E69LXLIFT
 62
3
 10
7094.980
 20
-10710.021
 30
-1604.000
 70
    32
  0
VERTEX
  8
E69LXLIFT
 62
3
 10
7089.316
 20
-10719.402
 30
-1604.000
 70
    32
  0
VERTEX
  8
E69LXLIFT
 62
3
 10
7082.789
 20
-10733.558
 30
-1604.000
 70
    32
  0
VERTEX
  8
E69LXLIFT
 62
3
 10
7083.040
 20
-10740.895
 30
-1604.000
 70
    32
  0
VERTEX
  8
E69LXLIFT
 62
3
 10
7088.554
 20
-10746.339
 30
-1604.000
 70
    32
  0
VERTEX
  8
E69LXLIFT
 62
3
 10
7089.883
 20
-10754.849
 30
-1604.000
 70
    32
  0
VERTEX
  8
E69LXLIFT
 62
3
 10
7090.871
 20
-10763.936
 30
-1604.000
 70
    32
  0
VERTEX
  8
E69LXLIFT
 62
3
 10
7080.824
 20
-10775.220
 30
-1604.000
 70
    32
  0
VERTEX
  8
E69LXLIFT
 62
3
 10
7076.333
 20
-10783.523
 30
-1604.000
 70
    32
  0
VERTEX
  8
E69LXLIFT
 62
3
 10
7075.531
 20
-10796.864
 30
-1604.000
 70
    32
  0
VERTEX
  8
E69LXLIFT
 62
3
 10
7078.984
 20
-10819.732
 30
-1604.000
 70
    32
  0
VERTEX
  8
E69LXLIFT
 62
3
 10
7087.590
 20
-10842.642
 30
-1604.000
 70
    32
  0
VERTEX
  8
E69LXLIFT
 62
3
 10
7094.307
 20
-10852.110
 30
-1604.000
 70
    32
  0
VERTEX
  8
E69LXLIFT
 62
3
 10
7098.299
 20
-10866.190
 30
-1604.000
 70
    32
  0
VERTEX
  8
E69LXLIFT
 62
3
 10
7100.332
 20
-10883.995
 30
-1604.000
 70
    32
  0
VERTEX
  8
E69LXLIFT
 62
3
 10
7104.043
 20
-10893.376
 30
-1604.000
 70
    32
  0
VERTEX
  8
E69LXLIFT
 62
3
 10
7110.850
 20
-10912.044
 30
-1604.000
 70
    32
  0
VERTEX
  8
E69LXLIFT
 62
3
 10
7121.651
 20
-10932.146
 30
-1604.000
 70
    32
  0
VERTEX
  8
E69LXLIFT
 62
3
 10
7111.044
 20
-10936.863
 30
-1604.000
 70
    32
  0
VERTEX
  8
E69LXLIFT
 62
3
 10
7107.247
 20
-10930.488
 30
-1604.000
 70
    32
  0
VERTEX
  8
E69LXLIFT
 62
3
 10
7102.418
 20
-10925.087
 30
-1604.000
 70
    32
  0
VERTEX
  8
E69LXLIFT
 62
3
 10
7099.278
 20
-10927.496
 30
-1604.000
 70
    32
  0
VERTEX
  8
E69LXLIFT
 62
3
 10
7101.131
 20
-10936.276
 30
-1604.000
 70
    32
  0
VERTEX
  8
E69LXLIFT
 62
3
 10
7103.803
 20
-10944.239
 30
-1604.000
 70
    32
  0
VERTEX
  8
E69LXLIFT
 62
3
 10
7102.145
 20
-10949.268
 30
-1604.000
 70
    32
  0
VERTEX
  8
E69LXLIFT
 62
3
 10
7103.383
 20
-10959.589
 30
-1604.000
 70
    32
  0
VERTEX
  8
E69LXLIFT
 62
3
 10
7106.551
 20
-10967.187
 30
-1604.000
 70
    32
  0
VERTEX
  8
E69LXLIFT
 62
3
 10
7110.020
 20
-10977.727
 30
-1604.000
 70
    32
  0
VERTEX
  8
E69LXLIFT
 62
3
 10
7107.284
 20
-10984.854
 30
-1604.000
 70
    32
  0
VERTEX
  8
E69LXLIFT
 62
3
 10
7113.638
 20
-11010.939
 30
-1604.000
 70
    32
  0
SEQEND
  8
E69LXLIFT
  0
POLYLINE
  8
E69LXLIFT
 62
3
 66
     1
 70
     9
  0
VERTEX
  8
E69LXLIFT
 62
3
 10
7059.801
 20
-10943.144
 30
-1594.000
 70
    32
  0
VERTEX
  8
E69LXLIFT
 62
3
 10
7070.004
 20
-10948.243
 30
-1594.000
 70
    32
  0
VERTEX
  8
E69LXLIFT
 62
3
 10
7075.293
 20
-10956.898
 30
-1594.000
 70
    32
  0
VERTEX
  8
E69LXLIFT
 62
3
 10
7079.980
 20
-10965.773
 30
-1594.000
 70
    32
  0
VERTEX
  8
E69LXLIFT
 62
3
 10
7081.094
 20
-10978.860
 30
-1594.000
 70
    32
  0
VERTEX
  8
E69LXLIFT
 62
3
 10
7091.384
 20
-10983.028
 30
-1594.000
 70
    32
  0
VERTEX
  8
E69LXLIFT
 62
3
 10
7095.914
 20
-10986.587
 30
-1594.000
 70
    32
  0
VERTEX
  8
E69LXLIFT
 62
3
 10
7100.974
 20
-10996.277
 30
-1594.000
 70
    32
  0
VERTEX
  8
E69LXLIFT
 62
3
 10
7106.124
 20
-11000.691
 30
-1594.000
 70
    32
  0
VERTEX
  8
E69LXLIFT
 62
3
 10
7113.438
 20
-10996.699
 30
-1594.000
 70
    32
  0
VERTEX
  8
E69LXLIFT
 62
3
 10
7113.436
 20
-10983.349
 30
-1594.000
 70
    32
  0
VERTEX
  8
E69LXLIFT
 62
3
 10
7108.166
 20
-10966.321
 30
-1594.000
 70
    32
  0
VERTEX
  8
E69LXLIFT
 62
3
 10
7102.665
 20
-10951.523
 30
-1594.000
 70
    32
  0
VERTEX
  8
E69LXLIFT
 62
3
 10
7103.495
 20
-10942.021
 30
-1594.000
 70
    32
  0
VERTEX
  8
E69LXLIFT
 62
3
 10
7102.804
 20
-10932.968
 30
-1594.000
 70
    32
  0
VERTEX
  8
E69LXLIFT
 62
3
 10
7098.720
 20
-10920.727
 30
-1594.000
 70
    32
  0
VERTEX
  8
E69LXLIFT
 62
3
 10
7097.512
 20
-10905.861
 30
-1594.000
 70
    32
  0
VERTEX
  8
E69LXLIFT
 62
3
 10
7089.045
 20
-10898.963
 30
-1594.000
 70
    32
  0
VERTEX
  8
E69LXLIFT
 62
3
 10
7079.297
 20
-10901.243
 30
-1594.000
 70
    32
  0
VERTEX
  8
E69LXLIFT
 62
3
 10
7074.140
 20
-10911.814
 30
-1594.000
 70
    32
  0
VERTEX
  8
E69LXLIFT
 62
3
 10
7071.276
 20
-10926.154
 30
-1594.000
 70
    32
  0
VERTEX
  8
E69LXLIFT
 62
3
 10
7062.920
 20
-10933.505
 30
-1594.000
 70
    32
  0
SEQEND
  8
E69LXLIFT
  0
POLYLINE
  8
E69LXLIFT
 62
3
 66
     1
 70
     9
  0
VERTEX
  8
E69LXLIFT
 62
3
 10
7086.075
 20
-10839.671
 30
-1594.000
 70
    32
  0
VERTEX
  8
E69LXLIFT
 62
3
 10
7081.139
 20
-10826.852
 30
-1594.000
 70
    32
  0
VERTEX
  8
E69LXLIFT
 62
3
 10
7076.183
 20
-10814.157
 30
-1594.000
 70
    32
  0
VERTEX
  8
E69LXLIFT
 62
3
 10
7074.633
 20
-10801.818
 30
-1594.000
 70
    32
  0
VERTEX
  8
E69LXLIFT
 62
3
 10
7073.938
 20
-10792.009
 30
-1594.000
 70
    32
  0
VERTEX
  8
E69LXLIFT
 62
3
 10
7076.222
 20
-10779.717
 30
-1594.000
 70
    32
  0
VERTEX
  8
E69LXLIFT
 62
3
 10
7083.414
 20
-10772.557
 30
-1594.000
 70
    32
  0
VERTEX
  8
E69LXLIFT
 62
3
 10
7094.240
 20
-10774.165
 30
-1594.000
 70
    32
  0
VERTEX
  8
E69LXLIFT
 62
3
 10
7110.927
 20
-10779.672
 30
-1594.000
 70
    32
  0
VERTEX
  8
E69LXLIFT
 62
3
 10
7125.057
 20
-10783.447
 30
-1594.000
 70
    32
  0
VERTEX
  8
E69LXLIFT
 62
3
 10
7133.765
 20
-10786.480
 30
-1594.000
 70
    32
  0
VERTEX
  8
E69LXLIFT
 62
3
 10
7143.366
 20
-10786.695
 30
-1594.000
 70
    32
  0
VERTEX
  8
E69LXLIFT
 62
3
 10
7147.711
 20
-10780.402
 30
-1594.000
 70
    32
  0
VERTEX
  8
E69LXLIFT
 62
3
 10
7136.806
 20
-10774.184
 30
-1594.000
 70
    32
  0
VERTEX
  8
E69LXLIFT
 62
3
 10
7118.213
 20
-10767.993
 30
-1594.000
 70
    32
  0
VERTEX
  8
E69LXLIFT
 62
3
 10
7103.392
 20
-10763.415
 30
-1594.000
 70
    32
  0
VERTEX
  8
E69LXLIFT
 62
3
 10
7088.908
 20
-10758.702
 30
-1594.000
 70
    32
  0
VERTEX
  8
E69LXLIFT
 62
3
 10
7083.930
 20
-10747.325
 30
-1594.000
 70
    32
  0
VERTEX
  8
E69LXLIFT
 62
3
 10
7079.813
 20
-10738.038
 30
-1594.000
 70
    32
  0
VERTEX
  8
E69LXLIFT
 62
3
 10
7081.853
 20
-10730.808
 30
-1594.000
 70
    32
  0
VERTEX
  8
E69LXLIFT
 62
3
 10
7086.084
 20
-10720.907
 30
-1594.000
 70
    32
  0
VERTEX
  8
E69LXLIFT
 62
3
 10
7089.406
 20
-10712.749
 30
-1594.000
 70
    32
  0
VERTEX
  8
E69LXLIFT
 62
3
 10
7091.763
 20
-10705.507
 30
-1594.000
 70
    32
  0
VERTEX
  8
E69LXLIFT
 62
3
 10
7087.799
 20
-10702.731
 30
-1594.000
 70
    32
  0
VERTEX
  8
E69LXLIFT
 62
3
 10
7077.249
 20
-10699.403
 30
-1594.000
 70
    32
  0
VERTEX
  8
E69LXLIFT
 62
3
 10
7069.531
 20
-10696.089
 30
-1594.000
 70
    32
  0
VERTEX
  8
E69LXLIFT
 62
3
 10
7062.936
 20
-10699.125
 30
-1594.000
 70
    32
  0
VERTEX
  8
E69LXLIFT
 62
3
 10
7061.393
 20
-10704.042
 30
-1594.000
 70
    32
  0
VERTEX
  8
E69LXLIFT
 62
3
 10
7053.115
 20
-10710.902
 30
-1594.000
 70
    32
  0
VERTEX
  8
E69LXLIFT
 62
3
 10
7055.247
 20
-10723.145
 30
-1594.000
 70
    32
  0
VERTEX
  8
E69LXLIFT
 62
3
 10
7058.097
 20
-10729.332
 30
-1594.000
 70
    32
  0
VERTEX
  8
E69LXLIFT
 62
3
 10
7055.068
 20
-10733.696
 30
-1594.000
 70
    32
  0
VERTEX
  8
E69LXLIFT
 62
3
 10
7057.681
 20
-10744.505
 30
-1594.000
 70
    32
  0
VERTEX
  8
E69LXLIFT
 62
3
 10
7059.455
 20
-10751.905
 30
-1594.000
 70
    32
  0
VERTEX
  8
E69LXLIFT
 62
3
 10
7054.684
 20
-10760.461
 30
-1594.000
 70
    32
  0
VERTEX
  8
E69LXLIFT
 62
3
 10
7054.102
 20
-10775.103
 30
-1594.000
 70
    32
  0
VERTEX
  8
E69LXLIFT
 62
3
 10
7056.745
 20
-10787.302
 30
-1594.000
 70
    32
  0
VERTEX
  8
E69LXLIFT
 62
3
 10
7058.003
 20
-10797.138
 30
-1594.000
 70
    32
  0
VERTEX
  8
E69LXLIFT
 62
3
 10
7057.134
 20
-10806.886
 30
-1594.000
 70
    32
  0
VERTEX
  8
E69LXLIFT
 62
3
 10
7063.626
 20
-10823.354
 30
-1594.000
 70
    32
  0
VERTEX
  8
E69LXLIFT
 62
3
 10
7075.511
 20
-10848.621
 30
-1594.000
 70
    32
  0
SEQEND
  8
E69LXLIFT
  0
POLYLINE
  8
E69LXLIFT
 62
6
 66
     1
 70
     9
  0
VERTEX
  8
E69LXLIFT
 62
6
 10
6953.946
 20
-11038.655
 30
-1594.000
 70
    32
  0
VERTEX
  8
E69LXLIFT
 62
6
 10
6938.669
 20
-11044.394
 30
-1594.000
 70
    32
  0
VERTEX
  8
E69LXLIFT
 62
6
 10
6928.671
 20
-11054.127
 30
-1594.000
 70
    32
  0
VERTEX
  8
E69LXLIFT
 62
6
 10
6918.600
 20
-11065.108
 30
-1594.000
 70
    32
  0
VERTEX
  8
E69LXLIFT
 62
6
 10
6911.158
 20
-11079.722
 30
-1594.000
 70
    32
  0
VERTEX
  8
E69LXLIFT
 62
6
 10
6909.449
 20
-11092.357
 30
-1594.000
 70
    32
  0
VERTEX
  8
E69LXLIFT
 62
6
 10
6913.981
 20
-11097.870
 30
-1594.000
 70
    32
  0
VERTEX
  8
E69LXLIFT
 62
6
 10
6916.393
 20
-11120.548
 30
-1594.000
 70
    32
  0
VERTEX
  8
E69LXLIFT
 62
6
 10
6917.066
 20
-11134.825
 30
-1594.000
 70
    32
  0
VERTEX
  8
E69LXLIFT
 62
6
 10
6917.807
 20
-11150.246
 30
-1594.000
 70
    32
  0
VERTEX
  8
E69LXLIFT
 62
6
 10
6923.816
 20
-11166.196
 30
-1594.000
 70
    32
  0
VERTEX
  8
E69LXLIFT
 62
6
 10
6914.414
 20
-11169.853
 30
-1594.000
 70
    32
  0
VERTEX
  8
E69LXLIFT
 62
6
 10
6912.187
 20
-11165.277
 30
-1594.000
 70
    32
  0
VERTEX
  8
E69LXLIFT
 62
6
 10
6901.654
 20
-11166.172
 30
-1594.000
 70
    32
  0
VERTEX
  8
E69LXLIFT
 62
6
 10
6895.325
 20
-11162.828
 30
-1594.000
 70
    32
  0
VERTEX
  8
E69LXLIFT
 62
6
 10
6900.482
 20
-11155.405
 30
-1594.000
 70
    32
  0
VERTEX
  8
E69LXLIFT
 62
6
 10
6901.051
 20
-11143.594
 30
-1594.000
 70
    32
  0
VERTEX
  8
E69LXLIFT
 62
6
 10
6902.037
 20
-11128.009
 30
-1594.000
 70
    32
  0
VERTEX
  8
E69LXLIFT
 62
6
 10
6900.387
 20
-11111.183
 30
-1594.000
 70
    32
  0
VERTEX
  8
E69LXLIFT
 62
6
 10
6896.412
 20
-11096.692
 30
-1594.000
 70
    32
  0
VERTEX
  8
E69LXLIFT
 62
6
 10
6895.413
 20
-11080.915
 30
-1594.000
 70
    32
  0
VERTEX
  8
E69LXLIFT
 62
6
 10
6900.592
 20
-11069.024
 30
-1594.000
 70
    32
  0
VERTEX
  8
E69LXLIFT
 62
6
 10
6912.290
 20
-11053.392
 30
-1594.000
 70
    32
  0
VERTEX
  8
E69LXLIFT
 62
6
 10
6922.160
 20
-11042.883
 30
-1594.000
 70
    32
  0
VERTEX
  8
E69LXLIFT
 62
6
 10
6940.395
 20
-11032.832
 30
-1594.000
 70
    32
  0
SEQEND
  8
E69LXLIFT
  0
POLYLINE
  8
E69LXLIFT
 62
1
 66
     1
 70
     9
  0
VERTEX
  8
E69LXLIFT
 62
1
 10
7077.511
 20
-10846.621
 30
-1584.000
 70
    32
  0
VERTEX
  8
E69LXLIFT
 62
1
 10
7065.626
 20
-10821.354
 30
-1584.000
 70
    32
  0
VERTEX
  8
E69LXLIFT
 62
1
 10
7059.134
 20
-10804.886
 30
-1584.000
 70
    32
  0
VERTEX
  8
E69LXLIFT
 62
1
 10
7060.003
 20
-10795.138
 30
-1584.000
 70
    32
  0
VERTEX
  8
E69LXLIFT
 62
1
 10
7058.745
 20
-10785.302
 30
-1584.000
 70
    32
  0
VERTEX
  8
E69LXLIFT
 62
1
 10
7056.102
 20
-10773.103
 30
-1584.000
 70
    32
  0
VERTEX
  8
E69LXLIFT
 62
1
 10
7056.684
 20
-10758.461
 30
-1584.000
 70
    32
  0
VERTEX
  8
E69LXLIFT
 62
1
 10
7061.455
 20
-10749.905
 30
-1584.000
 70
    32
  0
VERTEX
  8
E69LXLIFT
 62
1
 10
7059.681
 20
-10742.505
 30
-1584.000
 70
    32
  0
VERTEX
  8
E69LXLIFT
 62
1
 10
7057.068
 20
-10731.696
 30
-1584.000
 70
    32
  0
VERTEX
  8
E69LXLIFT
 62
1
 10
7060.097
 20
-10727.332
 30
-1584.000
 70
    32
  0
VERTEX
  8
E69LXLIFT
 62
1
 10
7057.247
 20
-10721.145
 30
-1584.000
 70
    32
  0
VERTEX
  8
E69LXLIFT
 62
1
 10
7055.115
 20
-10708.902
 30
-1584.000
 70
    32
  0
VERTEX
  8
E69LXLIFT
 62
1
 10
7063.393
 20
-10702.042
 30
-1584.000
 70
    32
  0
VERTEX
  8
E69LXLIFT
 62
1
 10
7064.936
 20
-10697.125
 30
-1584.000
 70
    32
  0
VERTEX
  8
E69LXLIFT
 62
1
 10
7071.531
 20
-10694.089
 30
-1584.000
 70
    32
  0
VERTEX
  8
E69LXLIFT
 62
1
 10
7079.249
 20
-10697.403
 30
-1584.000
 70
    32
  0
VERTEX
  8
E69LXLIFT
 62
1
 10
7089.799
 20
-10700.731
 30
-1584.000
 70
    32
  0
VERTEX
  8
E69LXLIFT
 62
1
 10
7093.763
 20
-10703.507
 30
-1584.000
 70
    32
  0
VERTEX
  8
E69LXLIFT
 62
1
 10
7091.406
 20
-10710.749
 30
-1584.000
 70
    32
  0
VERTEX
  8
E69LXLIFT
 62
1
 10
7088.084
 20
-10718.907
 30
-1584.000
 70
    32
  0
VERTEX
  8
E69LXLIFT
 62
1
 10
7083.853
 20
-10728.808
 30
-1584.000
 70
    32
  0
VERTEX
  8
E69LXLIFT
 62
1
 10
7081.813
 20
-10736.038
 30
-1584.000
 70
    32
  0
VERTEX
  8
E69LXLIFT
 62
1
 10
7085.930
 20
-10745.325
 30
-1584.000
 70
    32
  0
VERTEX
  8
E69LXLIFT
 62
1
 10
7090.908
 20
-10756.702
 30
-1584.000
 70
    32
  0
VERTEX
  8
E69LXLIFT
 62
1
 10
7105.392
 20
-10761.415
 30
-1584.000
 70
    32
  0
VERTEX
  8
E69LXLIFT
 62
1
 10
7120.213
 20
-10765.993
 30
-1584.000
 70
    32
  0
VERTEX
  8
E69LXLIFT
 62
1
 10
7138.806
 20
-10772.184
 30
-1584.000
 70
    32
  0
VERTEX
  8
E69LXLIFT
 62
1
 10
7149.711
 20
-10778.402
 30
-1584.000
 70
    32
  0
VERTEX
  8
E69LXLIFT
 62
1
 10
7145.366
 20
-10784.695
 30
-1584.000
 70
    32
  0
VERTEX
  8
E69LXLIFT
 62
1
 10
7135.765
 20
-10784.480
 30
-1584.000
 70
    32
  0
VERTEX
  8
E69LXLIFT
 62
1
 10
7127.057
 20
-10781.447
 30
-1584.000
 70
    32
  0
VERTEX
  8
E69LXLIFT
 62
1
 10
7112.927
 20
-10777.672
 30
-1584.000
 70
    32
  0
VERTEX
  8
E69LXLIFT
 62
1
 10
7096.240
 20
-10772.165
 30
-1584.000
 70
    32
  0
VERTEX
  8
E69LXLIFT
 62
1
 10
7085.414
 20
-10770.557
 30
-1584.000
 70
    32
  0
VERTEX
  8
E69LXLIFT
 62
1
 10
7078.222
 20
-10777.717
 30
-1584.000
 70
    32
  0
VERTEX
  8
E69LXLIFT
 62
1
 10
7075.938
 20
-10790.009
 30
-1584.000
 70
    32
  0
VERTEX
  8
E69LXLIFT
 62
1
 10
7076.633
 20
-10799.818
 30
-1584.000
 70
    32
  0
VERTEX
  8
E69LXLIFT
 62
1
 10
7078.183
 20
-10812.157
 30
-1584.000
 70
    32
  0
VERTEX
  8
E69LXLIFT
 62
1
 10
7083.139
 20
-10824.852
 30
-1584.000
 70
    32
  0
VERTEX
  8
E69LXLIFT
 62
1
 10
7088.075
 20
-10837.671
 30
-1584.000
 70
    32
  0
SEQEND
  8
E69LXLIFT
  0
POLYLINE
  8
E69LXLIFT
 62
1
 66
     1
 70
     9
  0
VERTEX
  8
E69LXLIFT
 62
1
 10
7064.920
 20
-10931.505
 30
-1584.000
 70
    32
  0
VERTEX
  8
E69LXLIFT
 62
1
 10
7073.276
 20
-10924.154
 30
-1584.000
 70
    32
  0
VERTEX
  8
E69LXLIFT
 62
1
 10
7076.140
 20
-10909.814
 30
-1584.000
 70
    32
  0
VERTEX
  8
E69LXLIFT
 62
1
 10
7081.297
 20
-10899.243
 30
-1584.000
 70
    32
  0
VERTEX
  8
E69LXLIFT
 62
1
 10
7091.045
 20
-10896.963
 30
-1584.000
 70
    32
  0
VERTEX
  8
E69LXLIFT
 62
1
 10
7099.512
 20
-10903.861
 30
-1584.000
 70
    32
  0
VERTEX
  8
E69LXLIFT
 62
1
 10
7100.720
 20
-10918.727
 30
-1584.000
 70
    32
  0
VERTEX
  8
E69LXLIFT
 62
1
 10
7104.804
 20
-10930.968
 30
-1584.000
 70
    32
  0
VERTEX
  8
E69LXLIFT
 62
1
 10
7105.495
 20
-10940.021
 30
-1584.000
 70
    32
  0
VERTEX
  8
E69LXLIFT
 62
1
 10
7104.665
 20
-10949.523
 30
-1584.000
 70
    32
  0
VERTEX
  8
E69LXLIFT
 62
1
 10
7110.166
 20
-10964.321
 30
-1584.000
 70
    32
  0
VERTEX
  8
E69LXLIFT
 62
1
 10
7115.436
 20
-10981.349
 30
-1584.000
 70
    32
  0
VERTEX
  8
E69LXLIFT
 62
1
 10
7115.438
 20
-10994.699
 30
-1584.000
 70
    32
  0
VERTEX
  8
E69LXLIFT
 62
1
 10
7108.124
 20
-10998.691
 30
-1584.000
 70
    32
  0
VERTEX
  8
E69LXLIFT
 62
1
 10
7102.974
 20
-10994.277
 30
-1584.000
 70
    32
  0
VERTEX
  8
E69LXLIFT
 62
1
 10
7097.914
 20
-10984.587
 30
-1584.000
 70
    32
  0
VERTEX
  8
E69LXLIFT
 62
1
 10
7093.384
 20
-10981.028
 30
-1584.000
 70
    32
  0
VERTEX
  8
E69LXLIFT
 62
1
 10
7083.094
 20
-10976.860
 30
-1584.000
 70
    32
  0
VERTEX
  8
E69LXLIFT
 62
1
 10
7081.980
 20
-10963.773
 30
-1584.000
 70
    32
  0
VERTEX
  8
E69LXLIFT
 62
1
 10
7077.293
 20
-10954.898
 30
-1584.000
 70
    32
  0
VERTEX
  8
E69LXLIFT
 62
1
 10
7072.004
 20
-10946.243
 30
-1584.000
 70
    32
  0
VERTEX
  8
E69LXLIFT
 62
1
 10
7061.801
 20
-10941.144
 30
-1584.000
 70
    32
  0
SEQEND
  8
E69LXLIFT
  0
POLYLINE
  8
E69LXLIFT
 62
1
 66
     1
 70
     9
  0
VERTEX
  8
E69LXLIFT
 62
1
 10
6955.946
 20
-11036.655
 30
-1584.000
 70
    32
  0
VERTEX
  8
E69LXLIFT
 62
1
 10
6940.669
 20
-11042.394
 30
-1584.000
 70
    32
  0
VERTEX
  8
E69LXLIFT
 62
1
 10
6930.671
 20
-11052.127
 30
-1584.000
 70
    32
  0
VERTEX
  8
E69LXLIFT
 62
1
 10
6920.600
 20
-11063.108
 30
-1584.000
 70
    32
  0
VERTEX
  8
E69LXLIFT
 62
1
 10
6913.158
 20
-11077.722
 30
-1584.000
 70
    32
  0
VERTEX
  8
E69LXLIFT
 62
1
 10
6911.449
 20
-11090.357
 30
-1584.000
 70
    32
  0
VERTEX
  8
E69LXLIFT
 62
1
 10
6915.981
 20
-11095.870
 30
-1584.000
 70
    32
  0
VERTEX
  8
E69LXLIFT
 62
1
 10
6918.393
 20
-11118.548
 30
-1584.000
 70
    32
  0
VERTEX
  8
E69LXLIFT
 62
1
 10
6919.066
 20
-11132.825
 30
-1584.000
 70
    32
  0
VERTEX
  8
E69LXLIFT
 62
1
 10
6919.807
 20
-11148.246
 30
-1584.000
 70
    32
  0
VERTEX
  8
E69LXLIFT
 62
1
 10
6925.816
 20
-11164.196
 30
-1584.000
 70
    32
  0
VERTEX
  8
E69LXLIFT
 62
1
 10
6916.414
 20
-11167.853
 30
-1584.000
 70
    32
  0
VERTEX
  8
E69LXLIFT
 62
1
 10
6914.187
 20
-11163.277
 30
-1584.000
 70
    32
  0
VERTEX
  8
E69LXLIFT
 62
1
 10
6903.654
 20
-11164.172
 30
-1584.000
 70
    32
  0
VERTEX
  8
E69LXLIFT
 62
1
 10
6897.325
 20
-11160.828
 30
-1584.000
 70
    32
  0
VERTEX
  8
E69LXLIFT
 62
1
 10
6902.482
 20
-11153.405
 30
-1584.000
 70
    32
  0
VERTEX
  8
E69LXLIFT
 62
1
 10
6903.051
 20
-11141.594
 30
-1584.000
 70
    32
  0
VERTEX
  8
E69LXLIFT
 62
1
 10
6904.037
 20
-11126.009
 30
-1584.000
 70
    32
  0
VERTEX
  8
E69LXLIFT
 62
1
 10
6902.387
 20
-11109.183
 30
-1584.000
 70
    32
  0
VERTEX
  8
E69LXLIFT
 62
1
 10
6898.412
 20
-11094.692
 30
-1584.000
 70
    32
  0
VERTEX
  8
E69LXLIFT
 62
1
 10
6897.413
 20
-11078.915
 30
-1584.000
 70
    32
  0
VERTEX
  8
E69LXLIFT
 62
1
 10
6902.592
 20
-11067.024
 30
-1584.000
 70
    32
  0
VERTEX
  8
E69LXLIFT
 62
1
 10
6914.290
 20
-11051.392
 30
-1584.000
 70
    32
  0
VERTEX
  8
E69LXLIFT
 62
1
 10
6924.160
 20
-11040.883
 30
-1584.000
 70
    32
  0
VERTEX
  8
E69LXLIFT
 62
1
 10
6942.395
 20
-11030.832
 30
-1584.000
 70
    32
  0
SEQEND
  8
E69LXLIFT
  0
POLYLINE
  8
E69LXLIFT
 62
6
 66
     1
 70
     9
  0
VERTEX
  8
E69LXLIFT
 62
6
 10
7065.939
 20
-10946.427
 30
-1591.038
 70
    32
  0
VERTEX
  8
E69LXLIFT
 62
6
 10
7072.093
 20
-10952.206
 30
-1591.096
 70
    32
  0
VERTEX
  8
E69LXLIFT
 62
6
 10
7071.846
 20
-10952.772
 30
-1591.100
 70
    32
  0
VERTEX
  8
E69LXLIFT
 62
6
 10
7072.306
 20
-10955.003
 30
-1591.115
 70
    32
  0
VERTEX
  8
E69LXLIFT
 62
6
 10
7076.640
 20
-10981.493
 30
-1591.297
 70
    32
  0
VERTEX
  8
E69LXLIFT
 62
6
 10
7075.952
 20
-10981.331
 30
-1591.302
 70
    32
  0
VERTEX
  8
E69LXLIFT
 62
6
 10
7076.640
 20
-10981.493
 30
-1591.307
 70
    32
  0
VERTEX
  8
E69LXLIFT
 62
6
 10
7080.045
 20
-10981.134
 30
-1591.330
 70
    32
  0
VERTEX
  8
E69LXLIFT
 62
6
 10
7092.438
 20
-10985.155
 30
-1591.418
 70
    32
  0
VERTEX
  8
E69LXLIFT
 62
6
 10
7101.016
 20
-11000.825
 30
-1591.539
 70
    32
  0
VERTEX
  8
E69LXLIFT
 62
6
 10
7105.516
 20
-10998.558
 30
-1591.573
 70
    32
  0
VERTEX
  8
E69LXLIFT
 62
6
 10
7108.341
 20
-11007.906
 30
-1591.639
 70
    32
  0
VERTEX
  8
E69LXLIFT
 62
6
 10
7116.763
 20
-11005.627
 30
-1591.698
 70
    32
  0
VERTEX
  8
E69LXLIFT
 62
6
 10
7113.465
 20
-10987.545
 30
-1591.823
 70
    32
  0
VERTEX
  8
E69LXLIFT
 62
6
 10
7109.455
 20
-10977.083
 30
-1591.899
 70
    32
  0
VERTEX
  8
E69LXLIFT
 62
6
 10
7110.098
 20
-10975.549
 30
-1591.910
 70
    32
  0
VERTEX
  8
E69LXLIFT
 62
6
 10
7103.360
 20
-10958.310
 30
-1592.035
 70
    32
  0
VERTEX
  8
E69LXLIFT
 62
6
 10
7101.202
 20
-10947.965
 30
-1592.107
 70
    32
  0
VERTEX
  8
E69LXLIFT
 62
6
 10
7103.761
 20
-10940.870
 30
-1592.158
 70
    32
  0
VERTEX
  8
E69LXLIFT
 62
6
 10
7101.048
 20
-10939.120
 30
-1592.180
 70
    32
  0
VERTEX
  8
E69LXLIFT
 62
6
 10
7101.114
 20
-10933.912
 30
-1592.215
 70
    32
  0
VERTEX
  8
E69LXLIFT
 62
6
 10
7100.821
 20
-10932.695
 30
-1592.224
 70
    32
  0
VERTEX
  8
E69LXLIFT
 62
6
 10
7103.512
 20
-10931.984
 30
-1592.243
 70
    32
  0
VERTEX
  8
E69LXLIFT
 62
6
 10
7110.821
 20
-10956.921
 30
-1592.419
 70
    32
  0
VERTEX
  8
E69LXLIFT
 62
6
 10
7123.505
 20
-10952.917
 30
-1592.509
 70
    32
  0
VERTEX
  8
E69LXLIFT
 62
6
 10
7111.741
 20
-10920.677
 30
-1592.741
 70
    32
  0
VERTEX
  8
E69LXLIFT
 62
6
 10
7105.145
 20
-10897.416
 30
-1592.905
 70
    32
  0
VERTEX
  8
E69LXLIFT
 62
6
 10
7100.408
 20
-10887.915
 30
-1592.977
 70
    32
  0
VERTEX
  8
E69LXLIFT
 62
6
 10
7098.991
 20
-10881.404
 30
-1593.022
 70
    32
  0
VERTEX
  8
E69LXLIFT
 62
6
 10
7100.263
 20
-10880.810
 30
-1593.032
 70
    32
  0
VERTEX
  8
E69LXLIFT
 62
6
 10
7099.992
 20
-10869.809
 30
-1593.106
 70
    32
  0
VERTEX
  8
E69LXLIFT
 62
6
 10
7094.477
 20
-10857.091
 30
-1593.200
 70
    32
  0
VERTEX
  8
E69LXLIFT
 62
6
 10
7086.427
 20
-10838.018
 30
-1593.155
 70
    32
  0
VERTEX
  8
E69LXLIFT
 62
6
 10
7083.637
 20
-10832.613
 30
-1593.142
 70
    32
  0
VERTEX
  8
E69LXLIFT
 62
6
 10
7076.530
 20
-10814.854
 30
-1593.101
 70
    32
  0
VERTEX
  8
E69LXLIFT
 62
6
 10
7075.543
 20
-10797.213
 30
-1593.063
 70
    32
  0
VERTEX
  8
E69LXLIFT
 62
6
 10
7074.705
 20
-10785.390
 30
-1593.038
 70
    32
  0
VERTEX
  8
E69LXLIFT
 62
6
 10
7077.516
 20
-10776.305
 30
-1593.017
 70
    32
  0
VERTEX
  8
E69LXLIFT
 62
6
 10
7077.450
 20
-10776.517
 30
-1593.017
 70
    32
  0
VERTEX
  8
E69LXLIFT
 62
6
 10
7083.736
 20
-10770.322
 30
-1592.998
 70
    32
  0
VERTEX
  8
E69LXLIFT
 62
6
 10
7087.892
 20
-10769.438
 30
-1592.989
 70
    32
  0
VERTEX
  8
E69LXLIFT
 62
6
 10
7095.510
 20
-10773.560
 30
-1592.970
 70
    32
  0
VERTEX
  8
E69LXLIFT
 62
6
 10
7098.868
 20
-10773.164
 30
-1592.963
 70
    32
  0
VERTEX
  8
E69LXLIFT
 62
6
 10
7112.313
 20
-10778.811
 30
-1592.931
 70
    32
  0
VERTEX
  8
E69LXLIFT
 62
6
 10
7124.376
 20
-10783.005
 30
-1592.904
 70
    32
  0
VERTEX
  8
E69LXLIFT
 62
6
 10
7131.398
 20
-10785.932
 30
-1592.887
 70
    32
  0
VERTEX
  8
E69LXLIFT
 62
6
 10
7149.279
 20
-10791.654
 30
-1592.847
 70
    32
  0
VERTEX
  8
E69LXLIFT
 62
6
 10
7151.379
 20
-10780.899
 30
-1592.823
 70
    32
  0
VERTEX
  8
E69LXLIFT
 62
6
 10
7131.337
 20
-10774.175
 30
-1592.778
 70
    32
  0
VERTEX
  8
E69LXLIFT
 62
6
 10
7129.564
 20
-10768.135
 30
-1592.764
 70
    32
  0
VERTEX
  8
E69LXLIFT
 62
6
 10
7120.597
 20
-10762.607
 30
-1592.742
 70
    32
  0
VERTEX
  8
E69LXLIFT
 62
6
 10
7112.047
 20
-10766.008
 30
-1592.722
 70
    32
  0
VERTEX
  8
E69LXLIFT
 62
6
 10
7105.195
 20
-10763.637
 30
-1592.706
 70
    32
  0
VERTEX
  8
E69LXLIFT
 62
6
 10
7092.298
 20
-10759.316
 30
-1592.677
 70
    32
  0
VERTEX
  8
E69LXLIFT
 62
6
 10
7088.696
 20
-10755.855
 30
-1592.666
 70
    32
  0
VERTEX
  8
E69LXLIFT
 62
6
 10
7088.559
 20
-10755.643
 30
-1592.666
 70
    32
  0
VERTEX
  8
E69LXLIFT
 62
6
 10
7088.884
 20
-10748.382
 30
-1592.650
 70
    32
  0
VERTEX
  8
E69LXLIFT
 62
6
 10
7081.870
 20
-10740.490
 30
-1592.650
 70
    32
  0
VERTEX
  8
E69LXLIFT
 62
6
 10
7082.388
 20
-10731.023
 30
-1592.650
 70
    32
  0
VERTEX
  8
E69LXLIFT
 62
6
 10
7091.181
 20
-10712.763
 30
-1592.650
 70
    32
  0
VERTEX
  8
E69LXLIFT
 62
6
 10
7093.614
 20
-10709.468
 30
-1592.650
 70
    32
  0
VERTEX
  8
E69LXLIFT
 62
6
 10
7092.569
 20
-10702.612
 30
-1592.650
 70
    32
  0
VERTEX
  8
E69LXLIFT
 62
6
 10
7079.339
 20
-10698.661
 30
-1592.650
 70
    32
  0
VERTEX
  8
E69LXLIFT
 62
6
 10
7072.287
 20
-10694.731
 30
-1592.650
 70
    32
  0
VERTEX
  8
E69LXLIFT
 62
6
 10
7058.781
 20
-10705.248
 30
-1592.650
 70
    32
  0
VERTEX
  8
E69LXLIFT
 62
6
 10
7055.213
 20
-10709.401
 30
-1592.650
 70
    32
  0
VERTEX
  8
E69LXLIFT
 62
6
 10
7058.698
 20
-10727.885
 30
-1592.650
 70
    32
  0
VERTEX
  8
E69LXLIFT
 62
6
 10
7056.327
 20
-10730.833
 30
-1592.650
 70
    32
  0
VERTEX
  8
E69LXLIFT
 62
6
 10
7060.851
 20
-10750.599
 30
-1592.650
 70
    32
  0
VERTEX
  8
E69LXLIFT
 62
6
 10
7056.116
 20
-10759.457
 30
-1592.650
 70
    32
  0
VERTEX
  8
E69LXLIFT
 62
6
 10
7056.130
 20
-10773.192
 30
-1592.482
 70
    32
  0
VERTEX
  8
E69LXLIFT
 62
6
 10
7057.804
 20
-10779.083
 30
-1592.407
 70
    32
  0
VERTEX
  8
E69LXLIFT
 62
6
 10
7057.211
 20
-10779.696
 30
-1592.397
 70
    32
  0
VERTEX
  8
E69LXLIFT
 62
6
 10
7060.364
 20
-10798.835
 30
-1592.159
 70
    32
  0
VERTEX
  8
E69LXLIFT
 62
6
 10
7058.557
 20
-10802.154
 30
-1592.113
 70
    32
  0
VERTEX
  8
E69LXLIFT
 62
6
 10
7061.706
 20
-10814.108
 30
-1591.962
 70
    32
  0
VERTEX
  8
E69LXLIFT
 62
6
 10
7063.488
 20
-10820.809
 30
-1591.877
 70
    32
  0
VERTEX
  8
E69LXLIFT
 62
6
 10
7072.222
 20
-10835.618
 30
-1591.666
 70
    32
  0
VERTEX
  8
E69LXLIFT
 62
6
 10
7076.802
 20
-10849.064
 30
-1591.493
 70
    32
  0
VERTEX
  8
E69LXLIFT
 62
6
 10
7076.036
 20
-10850.748
 30
-1591.470
 70
    32
  0
VERTEX
  8
E69LXLIFT
 62
6
 10
7071.017
 20
-10860.894
 30
-1591.331
 70
    32
  0
VERTEX
  8
E69LXLIFT
 62
6
 10
7064.553
 20
-10866.024
 30
-1591.230
 70
    32
  0
VERTEX
  8
E69LXLIFT
 62
6
 10
7056.937
 20
-10868.528
 30
-1591.132
 70
    32
  0
VERTEX
  8
E69LXLIFT
 62
6
 10
7053.852
 20
-10878.888
 30
-1591.000
 70
    32
  0
VERTEX
  8
E69LXLIFT
 62
6
 10
7065.629
 20
-10888.131
 30
-1589.726
 70
    32
  0
VERTEX
  8
E69LXLIFT
 62
6
 10
7074.312
 20
-10899.952
 30
-1591.000
 70
    32
  0
VERTEX
  8
E69LXLIFT
 62
6
 10
7073.381
 20
-10922.251
 30
-1591.000
 70
    32
  0
VERTEX
  8
E69LXLIFT
 62
6
 10
7070.627
 20
-10924.385
 30
-1590.000
 70
    32
  0
SEQEND
  8
E69LXLIFT
  0
LINE
  8
E69LXLIFT
 62
6
 10
7109.969
 20
-10868.185
 30
0.000
 11
7112.786
 21
-10872.110
 31
0.000
  0
LINE
  8
E69LXLIFT
 62
6
 10
7101.949
 20
-10867.627
 30
0.000
 11
7109.969
 21
-10868.185
 31
0.000
  0
POLYLINE
  8
E69LXLIFT
 62
6
 66
     1
 70
     9
  0
VERTEX
  8
E69LXLIFT
 62
6
 10
7101.914
 20
-10868.126
 30
0.000
 70
    32
  0
VERTEX
  8
E69LXLIFT
 62
6
 10
7101.983
 20
-10867.128
 30
0.000
 70
    32
  0
VERTEX
  8
E69LXLIFT
 62
6
 10
7098.956
 20
-10867.419
 30
0.000
 70
    32
  0
SEQEND
  8
E69LXLIFT
  0
TEXT
  8
E69LXLIFT
 62
6
 10
7112.935
 20
-10874.400
 30
0.000
 40
4.000
  1
FIRST BOTTOM SILL
 50
305.670
 41
 1.0 
  0
TEXT
  8
E69LXLIFT
 62
6
 10
7107.674
 20
-10878.176
 30
0.000
 40
4.000
  1
CUT (BACK ELEV. -30')
 50
305.670
 41
 1.0 
  0
TEXT
  8
E69LXLIFT
 62
6
 10
7085.596
 20
-10852.402
 30
0.000
 40
3.000
  1
REF. PT.
 50
359.859
 41
 1.0 
  0
TEXT
  8
E69LXLIFT
 62
6
 10
7076.371
 20
-10854.729
 30
0.000
 40
3.000
  1
638-I
 50
353.733
 41
 1.0 
  0
POINT
  8
E69LXLIFT
 62
6
 10
7082.960
 20
-10850.290
 30
0.000
  0
TEXT
  8
E69LXLIFT
 62
6
 10
7116.072
 20
-10775.710
 30
0.000
 40
3.000
  1
BACK -34'
 50
347.117
 41
 1.0 
  0
TEXT
  8
E69LXLIFT
 62
6
 10
7114.989
 20
-10780.445
 30
0.000
 40
3.000
  1
SOL -34'
 50
347.117
 41
 1.0 
  0
TEXT
  8
E69LXLIFT
 62
6
 10
7048.404
 20
-10752.154
 30
0.000
 40
3.000
  1
REF. PT.
 50
359.859
 41
 1.0 
  0
TEXT
  8
E69LXLIFT
 62
6
 10
7050.326
 20
-10757.242
 30
0.000
 40
3.000
  1
717-I
 50
359.655
 41
 1.0 
  0
POINT
  8
E69LXLIFT
 62
6
 10
7065.970
 20
-10760.540
 30
0.000
  0
ENDSEC
  0
EOF
